  0
SECTION
  2
HEADER
  9
$ACADVER
  1
AC1009
  9
$INSBASE
 10
0.0
 20
0.0
 30
0.0
  9
$EXTMIN
 10
-0.0000000000002274
 20
-3982.4999999999982
 30
0.0
  9
$EXTMAX
 10
5107.5428571428556
 20
607.5
 30
0.0
  9
$LIMMIN
 10
0.0
 20
0.0
  9
$LIMMAX
 10
210.0
 20
297.0
  9
$ORTHOMODE
 70
     0
  9
$REGENMODE
 70
     1
  9
$FILLMODE
 70
     1
  9
$QTEXTMODE
 70
     0
  9
$MIRRTEXT
 70
     0
  9
$DRAGMODE
 70
     2
  9
$LTSCALE
 40
1.0
  9
$OSMODE
 70
    37
  9
$ATTMODE
 70
     1
  9
$TEXTSIZE
 40
4.0
  9
$TRACEWID
 40
0.05
  9
$TEXTSTYLE
  7
STANDARD
  9
$CLAYER
  8
SLIM
  9
$CELTYPE
  6
BYLAYER
  9
$CECOLOR
 62
   256
  9
$DIMSCALE
 40
10.0
  9
$DIMASZ
 40
2.0
  9
$DIMEXO
 40
1.0
  9
$DIMDLI
 40
10.0
  9
$DIMRND
 40
0.0
  9
$DIMDLE
 40
0.0
  9
$DIMEXE
 40
1.0
  9
$DIMTP
 40
0.0
  9
$DIMTM
 40
0.0
  9
$DIMTXT
 40
3.2000000000000002
  9
$DIMCEN
 40
0.0
  9
$DIMTSZ
 40
0.0
  9
$DIMTOL
 70
     0
  9
$DIMLIM
 70
     0
  9
$DIMTIH
 70
     0
  9
$DIMTOH
 70
     0
  9
$DIMSE1
 70
     0
  9
$DIMSE2
 70
     0
  9
$DIMTAD
 70
     1
  9
$DIMZIN
 70
     8
  9
$DIMBLK
  1
OPEN30
  9
$DIMASO
 70
     1
  9
$DIMSHO
 70
     1
  9
$DIMPOST
  1

  9
$DIMAPOST
  1

  9
$DIMALT
 70
     0
  9
$DIMALTD
 70
     2
  9
$DIMALTF
 40
25.399999999999999
  9
$DIMLFAC
 40
1.0
  9
$DIMTOFL
 70
     1
  9
$DIMTVP
 40
0.0
  9
$DIMTIX
 70
     0
  9
$DIMSOXD
 70
     0
  9
$DIMSAH
 70
     0
  9
$DIMBLK1
  1

  9
$DIMBLK2
  1

  9
$DIMSTYLE
  2
S10
  9
$DIMCLRD
 70
   256
  9
$DIMCLRE
 70
   256
  9
$DIMCLRT
 70
   256
  9
$DIMTFAC
 40
1.0
  9
$DIMGAP
 40
0.9
  9
$LUNITS
 70
     2
  9
$LUPREC
 70
     2
  9
$SKETCHINC
 40
0.1
  9
$FILLETRAD
 40
0.0
  9
$AUNITS
 70
     0
  9
$AUPREC
 70
     2
  9
$MENU
  1
ACAD
  9
$ELEVATION
 40
0.0
  9
$PELEVATION
 40
0.0
  9
$THICKNESS
 40
0.0
  9
$LIMCHECK
 70
     0
  9
$BLIPMODE
 70
     0
  9
$CHAMFERA
 40
2.0
  9
$CHAMFERB
 40
2.0
  9
$SKPOLY
 70
     0
  9
$TDCREATE
 40
2453095.4929404748
  9
$TDUPDATE
 40
2457604.6506646988
  9
$TDINDWG
 40
21.3636869676
  9
$TDUSRTIMER
 40
21.363686284700002
  9
$USRTIMER
 70
     1
  9
$ANGBASE
 50
0.0
  9
$ANGDIR
 70
     0
  9
$PDMODE
 70
    35
  9
$PDSIZE
 40
2.0
  9
$PLINEWID
 40
0.0
  9
$COORDS
 70
     1
  9
$SPLFRAME
 70
     0
  9
$SPLINETYPE
 70
     6
  9
$SPLINESEGS
 70
     8
  9
$ATTDIA
 70
     0
  9
$ATTREQ
 70
     1
  9
$HANDLING
 70
     1
  9
$HANDSEED
  5
127E89
  9
$SURFTAB1
 70
     6
  9
$SURFTAB2
 70
     6
  9
$SURFTYPE
 70
     6
  9
$SURFU
 70
     6
  9
$SURFV
 70
     6
  9
$UCSNAME
  2

  9
$UCSORG
 10
0.0
 20
0.0
 30
0.0
  9
$UCSXDIR
 10
1.0
 20
0.0
 30
0.0
  9
$UCSYDIR
 10
0.0
 20
1.0
 30
0.0
  9
$PUCSNAME
  2

  9
$PUCSORG
 10
0.0
 20
0.0
 30
0.0
  9
$PUCSXDIR
 10
1.0
 20
0.0
 30
0.0
  9
$PUCSYDIR
 10
0.0
 20
1.0
 30
0.0
  9
$USERI1
 70
     0
  9
$USERI2
 70
     0
  9
$USERI3
 70
     0
  9
$USERI4
 70
     0
  9
$USERI5
 70
     0
  9
$USERR1
 40
0.0
  9
$USERR2
 40
0.0
  9
$USERR3
 40
0.0
  9
$USERR4
 40
0.0
  9
$USERR5
 40
0.0
  9
$WORLDVIEW
 70
     1
  9
$SHADEDGE
 70
     3
  9
$SHADEDIF
 70
    70
  9
$TILEMODE
 70
     1
  9
$MAXACTVP
 70
    64
  9
$PLIMCHECK
 70
     0
  9
$PEXTMIN
 10
29.066066288948051
 20
20.366566777229309
 30
0.0
  9
$PEXTMAX
 10
261.5945966005325
 20
183.29910099506381
 30
0.0
  9
$PLIMMIN
 10
-3.17498779296875
 20
-3.1749999523162842
  9
$PLIMMAX
 10
293.83566284179687
 20
206.8406708240509
  9
$UNITMODE
 70
     0
  9
$VISRETAIN
 70
     1
  9
$PLINEGEN
 70
     0
  9
$PSLTSCALE
 70
     1
  0
ENDSEC
  0
SECTION
  2
TABLES
  0
TABLE
  2
VPORT
 70
     1
  0
VPORT
  2
*ACTIVE
 70
     0
 10
0.0
 20
0.0
 11
1.0
 21
1.0
 12
3074.1236240190228
 22
-127.2107961520678
 13
0.0
 23
0.0
 14
1.0
 24
1.0
 15
0.0
 25
0.0
 16
0.0
 26
0.0
 36
1.0
 17
0.0
 27
0.0
 37
0.0
 40
4885.7815778695758
 41
1.6494178525226391
 42
50.0
 43
0.0
 44
0.0
 50
0.0
 51
0.0
 71
     0
 72
   600
 73
     1
 74
     1
 75
     0
 76
     0
 77
     0
 78
     0
  0
ENDTAB
  0
TABLE
  2
LTYPE
 70
     4
  0
LTYPE
  2
CONTINUOUS
 70
     0
  3
Solid line
 72
    65
 73
     0
 40
0.0
  0
LTYPE
  2
PHANTOM2
 70
     0
  3
___ _ _ ___ _ _ ___ _ _ ___ _ _
 72
    65
 73
     6
 40
1.25
 49
0.625
 49
-0.125
 49
0.125
 49
-0.125
 49
0.125
 49
-0.125
  0
LTYPE
  2
ACAD_ISO08W100
 70
     0
  3
ISO long-dash short-dash ____ __ ____ __ ____ _
 72
    65
 73
     4
 40
36.0
 49
24.0
 49
-3.0
 49
6.0
 49
-3.0
  0
LTYPE
  2
ACAD_ISO02W100
 70
     0
  3
ISO dash __ __ __ __ __ __ __ __ __ __ __ __ __
 72
    65
 73
     2
 40
15.0
 49
12.0
 49
-3.0
  0
ENDTAB
  0
TABLE
  2
LAYER
 70
     8
  0
LAYER
  2
0
 70
     0
 62
     7
  6
CONTINUOUS
  0
LAYER
  2
SLIM
 70
     0
 62
     2
  6
CONTINUOUS
  0
LAYER
  2
DEFPOINTS
 70
     0
 62
     7
  6
CONTINUOUS
  0
LAYER
  2
DIM
 70
     0
 62
     7
  6
CONTINUOUS
  0
LAYER
  2
OBJECT
 70
     0
 62
     4
  6
CONTINUOUS
  0
LAYER
  2
HIDDEN
 70
     0
 62
     2
  6
ACAD_ISO02W100
  0
LAYER
  2
CENTER
 70
     0
 62
     2
  6
ACAD_ISO08W100
  0
LAYER
  2
DOTS
 70
     0
 62
     1
  6
CONTINUOUS
  0
ENDTAB
  0
TABLE
  2
STYLE
 70
     2
  0
STYLE
  2
STANDARD
 70
     0
 40
0.0
 41
0.75
 50
0.0
 71
     0
 42
4.0
  3
simplex.shx
  4
bigfont.shx
  0
ENDTAB
  0
TABLE
  2
VIEW
 70
     0
  0
ENDTAB
  0
TABLE
  2
UCS
 70
     0
  0
ENDTAB
  0
TABLE
  2
APPID
 70
    20
  0
APPID
  2
ACAD
 70
     0
  0
APPID
  2
ACADANNOTATIVE
 70
     0
  0
APPID
  2
ACAD_PSEXT
 70
     0
  0
APPID
  2
ACAD_EXEMPT_FROM_CAD_STANDARDS
 70
     0
  0
APPID
  2
ACAECLAYERSTANDARD
 70
     0
  0
APPID
  2
ACAUTHENVIRON
 70
     0
  0
APPID
  2
ACDBDYNAMICBLOCKTRUENAME
 70
     0
  0
APPID
  2
ACDBDYNAMICBLOCKGUID
 70
     0
  0
APPID
  2
ACDBBLOCKREPETAG
 70
     0
  0
APPID
  2
ACDBBLOCKREPBTAG
 70
     0
  0
APPID
  2
ACAD_NAV_VCDISPLAY
 70
     0
  0
APPID
  2
ACAD_DSTYLE_DIMRADIAL_EXTENSION
 70
     0
  0
APPID
  2
ACAD_DSTYLE_DIMJAG
 70
     0
  0
APPID
  2
ACAD_DSTYLE_DIMTALN
 70
     0
  0
APPID
  2
ACADANNOPO
 70
     0
  0
APPID
  2
GRADIENTCOLOR1ACI
 70
     0
  0
APPID
  2
GRADIENTCOLOR2ACI
 70
     0
  0
APPID
  2
ACADANNOMONITORALERTICONDI
 70
     0
  0
APPID
  2
CONTENTBLOCKICON
 70
     0
  0
APPID
  2
ACAD_MLEADERVER
 70
     0
  0
ENDTAB
  0
TABLE
  2
DIMSTYLE
 70
     3
  0
DIMSTYLE
  2
STANDARD
 70
     0
  3

  4

  5

  6

  7

 40
1.0
 41
0.18
 42
0.0625
 43
0.38
 44
0.18
 45
0.0
 46
0.0
 47
0.0
 48
0.0
140
0.18
141
0.09
142
0.0
143
25.399999999999999
144
1.0
145
0.0
146
1.0
147
0.09
 71
     0
 72
     0
 73
     1
 74
     1
 75
     0
 76
     0
 77
     0
 78
     0
170
     0
171
     2
172
     0
173
     0
174
     0
175
     0
176
     0
177
     0
178
     0
  0
DIMSTYLE
  2
S10
 70
     0
  3

  4

  5

  6

  7

 40
10.0
 41
2.0
 42
1.0
 43
10.0
 44
1.0
 45
0.0
 46
0.0
 47
0.0
 48
0.0
140
3.2000000000000002
141
0.0
142
0.0
143
25.399999999999999
144
1.0
145
0.0
146
1.0
147
0.9
 71
     0
 72
     0
 73
     0
 74
     0
 75
     0
 76
     0
 77
     1
 78
     8
170
     0
171
     2
172
     1
173
     0
174
     0
175
     0
176
   256
177
   256
178
   256
  0
ENDTAB
  0
ENDSEC
  0
SECTION
  2
BLOCKS
  0
BLOCK
  8
0
  2
$MODEL_SPACE
 70
     0
 10
0.0
 20
0.0
 30
0.0
  3
$MODEL_SPACE
  1

  0
ENDBLK
  5
127D9D
  8
0
  0
BLOCK
 67
     1
  8
0
  2
$PAPER_SPACE
 70
     0
 10
0.0
 20
0.0
 30
0.0
  3
$PAPER_SPACE
  1

  0
ENDBLK
  5
127D99
 67
     1
  8
0
  0
BLOCK
  8
0
  2
_OPEN30
 70
     0
 10
0.0
 20
0.0
 30
0.0
  3
_OPEN30
  1

  0
LINE
  5
202
  8
0
  6
BYBLOCK
 62
     0
 10
-1.0
 20
0.26794919
 30
0.0
 11
0.0
 21
0.0
 31
0.0
  0
LINE
  5
203
  8
0
  6
BYBLOCK
 62
     0
 10
0.0
 20
0.0
 30
0.0
 11
-1.0
 21
-0.26794919
 31
0.0
  0
LINE
  5
204
  8
0
  6
BYBLOCK
 62
     0
 10
0.0
 20
0.0
 30
0.0
 11
-1.0
 21
0.0
 31
0.0
  0
ENDBLK
  5
206
  8
0
  0
BLOCK
  8
0
  2
*U33
 70
     1
 10
0.0
 20
0.0
 30
0.0
  3
*U33
  1

  0
TEXT
  5
127CF1
  8
SLIM
 10
158.95238095238781
 20
-1551.9999999999991
 30
0.0
 40
26.0
  1
75
  0
ENDBLK
  5
127CF3
  8
0
  0
BLOCK
  8
0
  2
*U34
 70
     1
 10
0.0
 20
0.0
 30
0.0
  3
*U34
  1

  0
TEXT
  5
127CF5
  8
SLIM
 10
518.95238095238756
 20
-1087.9999999999991
 30
0.0
 40
26.0
  1
65
  0
ENDBLK
  5
127CF7
  8
0
  0
BLOCK
  8
0
  2
*U35
 70
     1
 10
0.0
 20
0.0
 30
0.0
  3
*U35
  1

  0
TEXT
  5
127CF9
  8
SLIM
 10
158.95238095238781
 20
-1087.9999999999991
 30
0.0
 40
26.0
  1
50
  0
ENDBLK
  5
127CFB
  8
0
  0
BLOCK
  8
0
  2
*U36
 70
     1
 10
0.0
 20
0.0
 30
0.0
  3
*U36
  1

  0
TEXT
  5
127D11
  8
SLIM
 10
158.9523809524228
 20
-130.00000000017181
 30
0.0
 40
26.0
  1
75
  0
ENDBLK
  5
127D13
  8
0
  0
BLOCK
  8
0
  2
*U37
 70
     1
 10
0.0
 20
0.0
 30
0.0
  3
*U37
  1

  0
TEXT
  5
127D15
  8
DIM
 10
4334.1164560757752
 20
-1378.7428571428561
 30
0.0
 40
32.0
  1
m（シンドカット）
 50
90.0
 41
0.75
  0
ENDBLK
  5
127D17
  8
0
  0
BLOCK
  8
0
  2
*U38
 70
     1
 10
0.0
 20
0.0
 30
0.0
  3
*U38
  1

  0
TEXT
  5
127D19
  8
DIM
 10
4700.4245816727562
 20
-923.99999999999943
 30
0.0
 40
32.0
  1
P
 50
90.0
 41
0.75
  0
ENDBLK
  5
127D1B
  8
0
  0
BLOCK
  8
0
  2
*U39
 70
     1
 10
0.0
 20
0.0
 30
0.0
  3
*U39
  1

  0
TEXT
  5
127D1D
  8
DIM
 10
2700.4245816727571
 20
-923.99999999999955
 30
0.0
 40
32.0
  1
P
 50
90.0
 41
0.75
  0
ENDBLK
  5
127D1F
  8
0
  0
BLOCK
  8
0
  2
*U40
 70
     1
 10
0.0
 20
0.0
 30
0.0
  3
*U40
  1

  0
TEXT
  5
127D21
  8
DIM
 10
2709.479620594459
 20
-3469.1428571428528
 30
0.0
 40
32.0
  1
A
 50
90.0
 41
0.75
  0
ENDBLK
  5
127D23
  8
0
  0
BLOCK
  8
0
  2
*U41
 70
     1
 10
0.0
 20
0.0
 30
0.0
  3
*U41
  1

  0
TEXT
  5
127D25
  8
DIM
 10
2707.840928403733
 20
-3850.9999999999968
 30
0.0
 40
32.0
  1
B
 50
90.0
 41
0.75
  0
ENDBLK
  5
127D27
  8
0
  0
BLOCK
  8
0
  2
*U42
 70
     1
 10
0.0
 20
0.0
 30
0.0
  3
*U42
  1

  0
TEXT
  5
127D29
  8
DIM
 10
2561.4285714285711
 20
-3323.208121984444
 30
0.0
 40
32.0
  1
C
 41
0.75
  0
ENDBLK
  5
127D2B
  8
0
  0
ENDSEC
  0
SECTION
  2
ENTITIES
  0
LINE
  5
11273E
  8
OBJECT
 10
2325.0
 20
-3864.9999999999968
 30
0.0
 11
5075.0
 21
-3864.9999999999968
 31
0.0
  0
LINE
  5
11412B
  8
SLIM
 10
3256.0
 20
-2922.5000160472709
 30
0.0
 11
3256.0
 21
-3252.5000160472709
 31
0.0
  0
LINE
  5
11412C
  8
SLIM
 10
3380.0
 20
-2922.5000160472709
 30
0.0
 11
3380.0
 21
-3252.5000160472709
 31
0.0
  0
LINE
  5
11412D
  8
SLIM
 10
3510.0
 20
-2982.50001604727
 30
0.0
 11
3510.0
 21
-3252.5000160472709
 31
0.0
  0
LINE
  5
11412E
  8
SLIM
 10
3640.0
 20
-2982.50001604727
 30
0.0
 11
3640.0
 21
-3252.5000160472709
 31
0.0
  0
LINE
  5
11412F
  8
SLIM
 10
3770.0
 20
-3252.5000160472709
 30
0.0
 11
3770.0
 21
-2922.5000160472709
 31
0.0
  0
LINE
  5
114131
  8
SLIM
 10
3770.0
 20
-2922.5000160472709
 30
0.0
 11
3256.0
 21
-2922.5000160472709
 31
0.0
  0
LINE
  5
114132
  8
SLIM
 10
3769.9999999999991
 20
-2982.50001604727
 30
0.0
 11
3380.0
 21
-2982.50001604727
 31
0.0
  0
LINE
  5
114133
  8
SLIM
 10
3770.0
 20
-3042.5000160472709
 30
0.0
 11
3256.0
 21
-3042.5000160472709
 31
0.0
  0
LINE
  5
114134
  8
SLIM
 10
3770.0
 20
-3112.5000160472709
 30
0.0
 11
3256.0
 21
-3112.5000160472709
 31
0.0
  0
LINE
  5
114135
  8
SLIM
 10
3770.0
 20
-3182.5000160472709
 30
0.0
 11
3256.0
 21
-3182.5000160472709
 31
0.0
  0
LINE
  5
114136
  8
SLIM
 10
3770.0
 20
-3252.5000160472709
 30
0.0
 11
3256.0
 21
-3252.5000160472709
 31
0.0
  0
LINE
  5
11414B
  8
SLIM
 10
3380.0
 20
-3042.5000160472709
 30
0.0
 11
3255.9999722746579
 21
-2922.5000000000018
 31
0.0
  0
LINE
  5
1238B4
  8
CENTER
 10
2579.9999999999991
 20
-3459.9999999999968
 30
0.0
 11
2409.9999999999991
 21
-3459.9999999999968
 31
0.0
1001
ACDBBLOCKREPETAG
1070
     1
1071
       14
1005
122545
  0
LINE
  5
1238B5
  8
CENTER
 10
2500.0
 20
-3549.9999999999968
 30
0.0
 11
2500.0
 21
-3369.9999999999968
 31
0.0
1001
ACDBBLOCKREPETAG
1070
     1
1071
       15
1005
122546
  0
CIRCLE
  5
1238B6
  8
OBJECT
 10
2500.0
 20
-3459.9999999999968
 30
0.0
 40
70.0
1001
ACDBBLOCKREPETAG
1070
     1
1071
       16
1005
122547
  0
CIRCLE
  5
1238B7
  8
OBJECT
 10
2500.0
 20
-3459.9999999999968
 30
0.0
 40
75.0
1001
ACDBBLOCKREPETAG
1070
     1
1071
       17
1005
122548
  0
LINE
  5
123927
  8
CENTER
 10
2500.0
 20
-3644.9999999999991
 30
0.0
 11
2500.0
 21
-3891.9999999999991
 31
0.0
1001
ACDBBLOCKREPETAG
1070
     1
1071
       25
1005
123927
  0
LINE
  5
123928
  8
OBJECT
 10
2425.0
 20
-3659.9999999999968
 30
0.0
 11
2425.0
 21
-3879.9999999999991
 31
0.0
1001
ACDBBLOCKREPETAG
1070
     1
1071
       26
1005
123928
  0
LINE
  5
12392C
  8
OBJECT
 10
2575.0
 20
-3659.9999999999968
 30
0.0
 11
2575.0
 21
-3756.5000000000618
 31
0.0
1001
ACDBBLOCKREPETAG
1070
     1
1071
       34
1005
12392C
  0
LINE
  5
123A5C
  8
OBJECT
 10
2575.0
 20
-3862.4999999999991
 30
0.0
 11
2575.0
 21
-3879.9999999999991
 31
0.0
1001
ACDBBLOCKREPETAG
1070
     1
1071
       34
1005
12392C
  0
LINE
  5
123A5E
  8
CENTER
 10
2900.0
 20
-3644.9999999999991
 30
0.0
 11
2900.0
 21
-3891.9999999999991
 31
0.0
1001
ACDBBLOCKREPETAG
1070
     1
1071
       25
1005
123927
  0
LINE
  5
123A5F
  8
OBJECT
 10
2825.0
 20
-3659.9999999999968
 30
0.0
 11
2825.0
 21
-3879.9999999999991
 31
0.0
1001
ACDBBLOCKREPETAG
1070
     1
1071
       26
1005
123928
  0
LINE
  5
123A60
  8
OBJECT
 10
2975.0
 20
-3659.9999999999968
 30
0.0
 11
2975.0
 21
-3879.9999999999991
 31
0.0
1001
ACDBBLOCKREPETAG
1070
     1
1071
       34
1005
12392C
  0
LINE
  5
123AD2
  8
CENTER
 10
3579.9999999999991
 20
-3459.9999999999968
 30
0.0
 11
3410.0
 21
-3459.9999999999968
 31
0.0
1001
ACDBBLOCKREPETAG
1070
     1
1071
       14
1005
122545
  0
LINE
  5
123AD3
  8
CENTER
 10
3500.0
 20
-3549.9999999999968
 30
0.0
 11
3500.0
 21
-3369.9999999999968
 31
0.0
1001
ACDBBLOCKREPETAG
1070
     1
1071
       15
1005
122546
  0
CIRCLE
  5
123AD4
  8
OBJECT
 10
3500.0
 20
-3459.9999999999968
 30
0.0
 40
70.0
1001
ACDBBLOCKREPETAG
1070
     1
1071
       16
1005
122547
  0
CIRCLE
  5
123AD5
  8
OBJECT
 10
3500.0
 20
-3459.9999999999968
 30
0.0
 40
75.0
1001
ACDBBLOCKREPETAG
1070
     1
1071
       17
1005
122548
  0
LINE
  5
123ADD
  8
CENTER
 10
3500.0
 20
-3644.9999999999991
 30
0.0
 11
3500.0
 21
-3891.9999999999991
 31
0.0
1001
ACDBBLOCKREPETAG
1070
     1
1071
       25
1005
123927
  0
LINE
  5
123ADE
  8
OBJECT
 10
3424.9999999999991
 20
-3659.9999999999968
 30
0.0
 11
3424.9999999999991
 21
-3879.9999999999991
 31
0.0
1001
ACDBBLOCKREPETAG
1070
     1
1071
       26
1005
123928
  0
LINE
  5
123ADF
  8
OBJECT
 10
3574.9999999999991
 20
-3659.9999999999968
 30
0.0
 11
3574.9999999999991
 21
-3756.5000000000618
 31
0.0
1001
ACDBBLOCKREPETAG
1070
     1
1071
       34
1005
12392C
  0
LINE
  5
123AE0
  8
OBJECT
 10
3574.9999999999991
 20
-3862.4999999999991
 30
0.0
 11
3574.9999999999991
 21
-3879.9999999999991
 31
0.0
1001
ACDBBLOCKREPETAG
1070
     1
1071
       34
1005
12392C
  0
LINE
  5
123AE8
  8
CENTER
 10
3900.0
 20
-3644.9999999999991
 30
0.0
 11
3900.0
 21
-3891.9999999999991
 31
0.0
1001
ACDBBLOCKREPETAG
1070
     1
1071
       25
1005
123927
  0
LINE
  5
123AE9
  8
OBJECT
 10
3824.9999999999991
 20
-3659.9999999999968
 30
0.0
 11
3824.9999999999991
 21
-3879.9999999999991
 31
0.0
1001
ACDBBLOCKREPETAG
1070
     1
1071
       26
1005
123928
  0
LINE
  5
123AEA
  8
OBJECT
 10
3975.0
 20
-3659.9999999999968
 30
0.0
 11
3975.0
 21
-3879.9999999999991
 31
0.0
1001
ACDBBLOCKREPETAG
1070
     1
1071
       34
1005
12392C
  0
LINE
  5
123B38
  8
CENTER
 10
4579.9999999999991
 20
-3459.9999999999968
 30
0.0
 11
4409.9999999999991
 21
-3459.9999999999968
 31
0.0
1001
ACDBBLOCKREPETAG
1070
     1
1071
       14
1005
122545
  0
LINE
  5
123B39
  8
CENTER
 10
4499.9999999999991
 20
-3549.9999999999968
 30
0.0
 11
4499.9999999999991
 21
-3369.9999999999968
 31
0.0
1001
ACDBBLOCKREPETAG
1070
     1
1071
       15
1005
122546
  0
CIRCLE
  5
123B3A
  8
OBJECT
 10
4499.9999999999991
 20
-3459.9999999999968
 30
0.0
 40
70.0
1001
ACDBBLOCKREPETAG
1070
     1
1071
       16
1005
122547
  0
CIRCLE
  5
123B3B
  8
OBJECT
 10
4499.9999999999991
 20
-3459.9999999999968
 30
0.0
 40
75.0
1001
ACDBBLOCKREPETAG
1070
     1
1071
       17
1005
122548
  0
LINE
  5
123B43
  8
CENTER
 10
4500.0
 20
-3644.9999999999991
 30
0.0
 11
4500.0
 21
-3891.9999999999991
 31
0.0
1001
ACDBBLOCKREPETAG
1070
     1
1071
       25
1005
123927
  0
LINE
  5
123B44
  8
OBJECT
 10
4425.0
 20
-3659.9999999999968
 30
0.0
 11
4425.0
 21
-3879.9999999999991
 31
0.0
1001
ACDBBLOCKREPETAG
1070
     1
1071
       26
1005
123928
  0
LINE
  5
123B45
  8
OBJECT
 10
4575.0
 20
-3659.9999999999968
 30
0.0
 11
4575.0
 21
-3756.5000000000618
 31
0.0
1001
ACDBBLOCKREPETAG
1070
     1
1071
       34
1005
12392C
  0
LINE
  5
123B46
  8
OBJECT
 10
4575.0
 20
-3862.4999999999991
 30
0.0
 11
4575.0
 21
-3879.9999999999991
 31
0.0
1001
ACDBBLOCKREPETAG
1070
     1
1071
       34
1005
12392C
  0
LINE
  5
123B4E
  8
CENTER
 10
4900.0
 20
-3644.9999999999991
 30
0.0
 11
4900.0
 21
-3891.9999999999991
 31
0.0
1001
ACDBBLOCKREPETAG
1070
     1
1071
       25
1005
123927
  0
LINE
  5
123B4F
  8
OBJECT
 10
4825.0
 20
-3659.9999999999968
 30
0.0
 11
4825.0
 21
-3879.9999999999991
 31
0.0
1001
ACDBBLOCKREPETAG
1070
     1
1071
       26
1005
123928
  0
LINE
  5
123B50
  8
OBJECT
 10
4975.0
 20
-3659.9999999999968
 30
0.0
 11
4974.9999999999991
 21
-3879.9999999999991
 31
0.0
1001
ACDBBLOCKREPETAG
1070
     1
1071
       34
1005
12392C
  0
POINT
  5
124C02
  8
DOTS
 10
2500.0
 20
-3459.9999999999968
 30
0.0
  0
POINT
  5
124C03
  8
DOTS
 10
2500.0
 20
-3864.9999999999968
 30
0.0
  0
POINT
  5
124C05
  8
DOTS
 10
3500.0
 20
-3864.9999999999968
 30
0.0
  0
POINT
  5
124C07
  8
DOTS
 10
3500.0
 20
-3459.9999999999968
 30
0.0
  0
POINT
  5
124C08
  8
DOTS
 10
4499.9999999999991
 20
-3459.9999999999968
 30
0.0
  0
POINT
  5
124C09
  8
DOTS
 10
4499.9999999999991
 20
-3864.9999999999968
 30
0.0
  0
LINE
  5
1270E3
  8
CENTER
 10
4580.0
 20
-199.99999999999909
 30
0.0
 11
4400.0
 21
-199.99999999999909
 31
0.0
1001
ACDBBLOCKREPETAG
1070
     1
1071
       14
1005
0
  0
CIRCLE
  5
1270E4
  8
OBJECT
 10
4500.0
 20
-199.99999999999909
 30
0.0
 40
53.5
1001
ACDBBLOCKREPETAG
1070
     1
1071
      344
1005
0
  0
LINE
  5
1270E5
  8
CENTER
 10
4500.0
 20
-299.99999999999898
 30
0.0
 11
4500.0
 21
-99.999999999999091
 31
0.0
1001
ACDBBLOCKREPETAG
1070
     1
1071
       15
1005
0
  0
POINT
  5
1270E7
  8
DOTS
 10
4500.0
 20
-199.99999999999909
 30
0.0
 50
270.0
1001
ACDBBLOCKREPETAG
1070
     1
1071
      362
1005
0
  0
CIRCLE
  5
1270E8
  8
OBJECT
 10
4500.0
 20
-199.99999999999909
 30
0.0
 40
70.0
1001
ACDBBLOCKREPETAG
1070
     1
1071
       16
1005
0
  0
ARC
  5
1270E9
  8
OBJECT
 10
4500.0
 20
-199.99999999999909
 30
0.0
 40
80.0
 50
50.805032573890557
 51
309.19496742597107
1001
ACDBBLOCKREPETAG
1070
     1
1071
       18
1005
0
  0
LINE
  5
1270EA
  8
OBJECT
 10
4403.0
 20
-148.0
 30
0.0
 11
4407.0
 21
-152.5
 31
0.0
1001
ACDBBLOCKREPETAG
1070
     1
1071
       32
1005
0
  0
CIRCLE
  5
1270EB
  8
OBJECT
 10
4500.0
 20
-199.99999999999909
 30
0.0
 40
77.0
1001
ACDBBLOCKREPETAG
1070
     1
1071
       17
1005
0
  0
LINE
  5
1270EC
  8
OBJECT
 10
4545.6618002273244
 20
-261.99999999999909
 30
0.0
 11
4580.0
 21
-261.99999999999909
 31
0.0
1001
ACDBBLOCKREPETAG
1070
     1
1071
       20
1005
0
  0
LINE
  5
1270ED
  8
OBJECT
 10
4545.6618002273244
 20
-137.99999999999909
 30
0.0
 11
4580.0
 21
-137.99999999999909
 31
0.0
1001
ACDBBLOCKREPETAG
1070
     1
1071
       19
1005
0
  0
LINE
  5
1270EE
  8
OBJECT
 10
4367.0
 20
-255.0
 30
0.0
 11
4360.0
 21
-255.0
 31
0.0
1001
ACDBBLOCKREPETAG
1070
     1
1071
       20
1005
0
  0
LINE
  5
1270EF
  8
OBJECT
 10
4360.0
 20
-255.0
 30
0.0
 11
4360.0
 21
-145.0
 31
0.0
1001
ACDBBLOCKREPETAG
1070
     1
1071
       21
1005
0
  0
LINE
  5
1270F0
  8
OBJECT
 10
4360.0
 20
-145.0
 30
0.0
 11
4367.0
 21
-145.0
 31
0.0
1001
ACDBBLOCKREPETAG
1070
     1
1071
       22
1005
0
  0
LINE
  5
1270F1
  8
OBJECT
 10
4367.0
 20
-145.0
 30
0.0
 11
4367.0
 21
-255.0
 31
0.0
1001
ACDBBLOCKREPETAG
1070
     1
1071
       23
1005
0
  0
LINE
  5
1270F2
  8
CENTER
 10
4345.0
 20
-200.0
 30
0.0
 11
4420.0
 21
-200.0
 31
0.0
1001
ACDBBLOCKREPETAG
1070
     1
1071
       24
1005
0
  0
LINE
  5
1270F3
  8
OBJECT
 10
4367.0
 20
-252.0
 30
0.0
 11
4403.0
 21
-252.0
 31
0.0
1001
ACDBBLOCKREPETAG
1070
     1
1071
       25
1005
0
  0
LINE
  5
1270F4
  8
OBJECT
 10
4403.0
 20
-252.0
 30
0.0
 11
4403.0
 21
-148.0
 31
0.0
1001
ACDBBLOCKREPETAG
1070
     1
1071
       26
1005
0
  0
LINE
  5
1270F5
  8
OBJECT
 10
4403.0
 20
-148.0
 30
0.0
 11
4367.0
 21
-148.0
 31
0.0
1001
ACDBBLOCKREPETAG
1070
     1
1071
       27
1005
0
  0
LINE
  5
1270F6
  8
OBJECT
 10
4407.0
 20
-247.5
 30
0.0
 11
4415.5
 21
-247.5
 31
0.0
1001
ACDBBLOCKREPETAG
1070
     1
1071
       28
1005
0
  0
LINE
  5
1270F7
  8
OBJECT
 10
4415.5
 20
-152.5
 30
0.0
 11
4407.0
 21
-152.5
 31
0.0
1001
ACDBBLOCKREPETAG
1070
     1
1071
       29
1005
0
  0
LINE
  5
1270F8
  8
OBJECT
 10
4407.0
 20
-152.5
 30
0.0
 11
4407.0
 21
-247.5
 31
0.0
1001
ACDBBLOCKREPETAG
1070
     1
1071
       30
1005
0
  0
LINE
  5
1270F9
  8
OBJECT
 10
4403.0
 20
-252.0
 30
0.0
 11
4407.0
 21
-247.5
 31
0.0
1001
ACDBBLOCKREPETAG
1070
     1
1071
       31
1005
0
  0
ARC
  5
1270FA
  8
OBJECT
 10
4500.0
 20
-199.99999999999909
 30
0.0
 40
85.0
 50
46.837102859727011
 51
144.38379327147541
1001
ACDBBLOCKREPETAG
1070
     1
1071
       18
1005
0
  0
LINE
  5
1270FB
  8
OBJECT
 10
4415.5
 20
-150.5
 30
0.0
 11
4415.5
 21
-249.5
 31
0.0
1001
ACDBBLOCKREPETAG
1070
     1
1071
       33
1005
0
  0
LINE
  5
1270FC
  8
HIDDEN
 10
4412.0
 20
-238.0
 30
0.0
 11
4412.0
 21
-162.0
 31
0.0
1001
ACDBBLOCKREPETAG
1070
     1
1071
       34
1005
0
  0
LINE
  5
1270FD
  8
OBJECT
 10
4415.5
 20
-249.5
 30
0.0
 11
4437.1529634747967
 21
-249.5
 31
0.0
1001
ACDBBLOCKREPETAG
1070
     1
1071
       35
1005
0
  0
LINE
  5
1270FE
  8
OBJECT
 10
4415.5
 20
-150.5
 30
0.0
 11
4437.1529634747967
 21
-150.5
 31
0.0
1001
ACDBBLOCKREPETAG
1070
     1
1071
       36
1005
0
  0
ARC
  5
1270FF
  8
OBJECT
 10
4500.0
 20
-199.99999999999909
 30
0.0
 40
85.0
 50
215.61620672852459
 51
313.162897140273
1001
ACDBBLOCKREPETAG
1070
     1
1071
       18
1005
0
  0
LINE
  5
127101
  8
OBJECT
 10
4454.3220385552486
 20
-176.17579607525019
 30
0.0
 11
4453.0174047416531
 21
-174.4092645125165
 31
0.0
1001
ACDBBLOCKREPETAG
1070
     1
1071
      434
1005
127101
  0
ARC
  5
127102
  8
OBJECT
 10
4450.3000008248
 20
-179.14618535863451
 30
0.0
 40
5.0
 50
0.0
 51
36.446922476136933
1001
ACDBBLOCKREPETAG
1070
     1
1071
      435
1005
127102
  0
LINE
  5
127103
  8
OBJECT
 10
4454.3220385553759
 20
-223.82420392469501
 30
0.0
 11
4453.0174047417368
 21
-225.5907354876407
 31
0.0
1001
ACDBBLOCKREPETAG
1070
     1
1071
      436
1005
127103
  0
ARC
  5
127104
  8
OBJECT
 10
4450.3000008248
 20
-220.85381464148281
 30
0.0
 40
5.0
 50
323.55307752631751
 51
0.0
1001
ACDBBLOCKREPETAG
1070
     1
1071
      437
1005
127104
  0
LINE
  5
127105
  8
OBJECT
 10
4455.3000008248
 20
-220.85381464148281
 30
0.0
 11
4455.3000008248
 21
-179.14618535863451
 31
0.0
1001
ACDBBLOCKREPETAG
1070
     1
1071
      438
1005
127105
  0
LINE
  5
127116
  8
CENTER
 10
2579.9999999999991
 20
-199.99999999999801
 30
0.0
 11
2399.9999999999991
 21
-199.99999999999801
 31
0.0
1001
ACDBBLOCKREPETAG
1070
     1
1071
       14
1005
0
  0
CIRCLE
  5
127117
  8
OBJECT
 10
2500.0
 20
-199.99999999999801
 30
0.0
 40
53.5
1001
ACDBBLOCKREPETAG
1070
     1
1071
      344
1005
0
  0
LINE
  5
127118
  8
CENTER
 10
2500.0
 20
-294.99999999999801
 30
0.0
 11
2500.0
 21
-104.999999999998
 31
0.0
1001
ACDBBLOCKREPETAG
1070
     1
1071
       15
1005
0
  0
POINT
  5
12711A
  8
DOTS
 10
2500.0
 20
-199.99999999999801
 30
0.0
 50
270.0
1001
ACDBBLOCKREPETAG
1070
     1
1071
      362
1005
0
  0
CIRCLE
  5
12711B
  8
OBJECT
 10
2500.0
 20
-199.99999999999801
 30
0.0
 40
70.0
1001
ACDBBLOCKREPETAG
1070
     1
1071
       16
1005
0
  0
ARC
  5
12711C
  8
OBJECT
 10
2500.0
 20
-199.99999999999801
 30
0.0
 40
80.0
 50
50.805032573894692
 51
309.19496742597107
1001
ACDBBLOCKREPETAG
1070
     1
1071
       18
1005
0
  0
CIRCLE
  5
12711D
  8
OBJECT
 10
2500.0
 20
-199.99999999999801
 30
0.0
 40
77.0
1001
ACDBBLOCKREPETAG
1070
     1
1071
       17
1005
0
  0
LINE
  5
12711E
  8
OBJECT
 10
2545.6618002273231
 20
-261.99999999999801
 30
0.0
 11
2579.9999999999991
 21
-261.99999999999801
 31
0.0
1001
ACDBBLOCKREPETAG
1070
     1
1071
       20
1005
0
  0
LINE
  5
12711F
  8
OBJECT
 10
2545.6618002273231
 20
-137.99999999999801
 30
0.0
 11
2579.9999999999991
 21
-137.99999999999801
 31
0.0
1001
ACDBBLOCKREPETAG
1070
     1
1071
       19
1005
0
  0
LINE
  5
127120
  8
OBJECT
 10
2366.9999999999991
 20
-254.99999999999889
 30
0.0
 11
2359.9999999999991
 21
-254.99999999999889
 31
0.0
1001
ACDBBLOCKREPETAG
1070
     1
1071
       20
1005
0
  0
LINE
  5
127121
  8
OBJECT
 10
2359.9999999999991
 20
-254.99999999999889
 30
0.0
 11
2359.9999999999991
 21
-144.99999999999881
 31
0.0
1001
ACDBBLOCKREPETAG
1070
     1
1071
       21
1005
0
  0
LINE
  5
127122
  8
OBJECT
 10
2359.9999999999991
 20
-144.99999999999881
 30
0.0
 11
2366.9999999999991
 21
-144.99999999999881
 31
0.0
1001
ACDBBLOCKREPETAG
1070
     1
1071
       22
1005
0
  0
LINE
  5
127123
  8
OBJECT
 10
2366.9999999999991
 20
-144.99999999999881
 30
0.0
 11
2366.9999999999991
 21
-254.99999999999889
 31
0.0
1001
ACDBBLOCKREPETAG
1070
     1
1071
       23
1005
0
  0
LINE
  5
127124
  8
CENTER
 10
2344.9999999999991
 20
-199.99999999999889
 30
0.0
 11
2419.9999999999991
 21
-199.99999999999889
 31
0.0
1001
ACDBBLOCKREPETAG
1070
     1
1071
       24
1005
0
  0
LINE
  5
127125
  8
OBJECT
 10
2366.9999999999991
 20
-251.99999999999889
 30
0.0
 11
2402.9999999999991
 21
-251.99999999999889
 31
0.0
1001
ACDBBLOCKREPETAG
1070
     1
1071
       25
1005
0
  0
LINE
  5
127126
  8
OBJECT
 10
2402.9999999999991
 20
-251.99999999999889
 30
0.0
 11
2402.9999999999991
 21
-147.99999999999881
 31
0.0
1001
ACDBBLOCKREPETAG
1070
     1
1071
       26
1005
0
  0
LINE
  5
127127
  8
OBJECT
 10
2402.9999999999991
 20
-147.99999999999881
 30
0.0
 11
2366.9999999999991
 21
-147.99999999999881
 31
0.0
1001
ACDBBLOCKREPETAG
1070
     1
1071
       27
1005
0
  0
LINE
  5
127128
  8
OBJECT
 10
2407.0
 20
-247.49999999999889
 30
0.0
 11
2415.4999999999991
 21
-247.49999999999889
 31
0.0
1001
ACDBBLOCKREPETAG
1070
     1
1071
       28
1005
0
  0
LINE
  5
127129
  8
OBJECT
 10
2415.4999999999991
 20
-152.49999999999881
 30
0.0
 11
2407.0
 21
-152.49999999999881
 31
0.0
1001
ACDBBLOCKREPETAG
1070
     1
1071
       29
1005
0
  0
LINE
  5
12712A
  8
OBJECT
 10
2407.0
 20
-152.49999999999881
 30
0.0
 11
2407.0
 21
-247.49999999999889
 31
0.0
1001
ACDBBLOCKREPETAG
1070
     1
1071
       30
1005
0
  0
LINE
  5
12712B
  8
OBJECT
 10
2402.9999999999991
 20
-251.99999999999889
 30
0.0
 11
2407.0
 21
-247.49999999999889
 31
0.0
1001
ACDBBLOCKREPETAG
1070
     1
1071
       31
1005
0
  0
LINE
  5
12712C
  8
OBJECT
 10
2402.9999999999991
 20
-147.99999999999881
 30
0.0
 11
2407.0
 21
-152.49999999999881
 31
0.0
1001
ACDBBLOCKREPETAG
1070
     1
1071
       32
1005
0
  0
LINE
  5
12712D
  8
OBJECT
 10
2415.5000000000009
 20
-150.49999999999881
 30
0.0
 11
2415.4999999999991
 21
-249.49999999999889
 31
0.0
1001
ACDBBLOCKREPETAG
1070
     1
1071
       33
1005
0
  0
LINE
  5
12712E
  8
HIDDEN
 10
2411.9999999999991
 20
-237.99999999999889
 30
0.0
 11
2411.9999999999991
 21
-161.99999999999881
 31
0.0
1001
ACDBBLOCKREPETAG
1070
     1
1071
       34
1005
0
  0
LINE
  5
12712F
  8
OBJECT
 10
2415.4999999999991
 20
-249.49999999999889
 30
0.0
 11
2437.1529634747981
 21
-249.49999999999889
 31
0.0
1001
ACDBBLOCKREPETAG
1070
     1
1071
       35
1005
0
  0
LINE
  5
127130
  8
OBJECT
 10
2415.5000000000009
 20
-150.49999999999881
 30
0.0
 11
2437.1529634747981
 21
-150.49999999999881
 31
0.0
1001
ACDBBLOCKREPETAG
1070
     1
1071
       36
1005
0
  0
LINE
  5
127131
  8
OBJECT
 10
2454.3220385552481
 20
-176.17579607524911
 30
0.0
 11
2453.0174047416531
 21
-174.40926451251539
 31
0.0
1001
ACDBBLOCKREPETAG
1070
     1
1071
      434
1005
127101
  0
ARC
  5
127132
  8
OBJECT
 10
2450.3000008247991
 20
-179.1461853586334
 30
0.0
 40
5.0
 50
0.0
 51
36.446922476136933
1001
ACDBBLOCKREPETAG
1070
     1
1071
      435
1005
127102
  0
LINE
  5
127133
  8
OBJECT
 10
2454.322038555375
 20
-223.8242039246939
 30
0.0
 11
2453.0174047417381
 21
-225.59073548763959
 31
0.0
1001
ACDBBLOCKREPETAG
1070
     1
1071
      436
1005
127103
  0
ARC
  5
127134
  8
OBJECT
 10
2450.3000008247991
 20
-220.8538146414817
 30
0.0
 40
5.0
 50
323.55307752631751
 51
0.0
1001
ACDBBLOCKREPETAG
1070
     1
1071
      437
1005
127104
  0
LINE
  5
127135
  8
OBJECT
 10
2455.3000008247991
 20
-220.8538146414817
 30
0.0
 11
2455.3000008247991
 21
-179.1461853586334
 31
0.0
1001
ACDBBLOCKREPETAG
1070
     1
1071
      438
1005
127105
  0
LINE
  5
1271C5
  8
SLIM
 10
4954.0
 20
-764.99999999999591
 30
0.0
 11
4954.0
 21
-1484.9999999999959
 31
0.0
  0
LINE
  5
1271C6
  8
SLIM
 10
5102.0
 20
-764.99999999999591
 30
0.0
 11
5102.0
 21
-1484.9999999999959
 31
0.0
  0
LINE
  5
1271C7
  8
SLIM
 10
4850.0
 20
-1484.9999999999959
 30
0.0
 11
4850.0
 21
-764.99999999999591
 31
0.0
  0
LINE
  5
1271C8
  8
SLIM
 10
5102.0
 20
-764.99999999999591
 30
0.0
 11
4850.0
 21
-764.99999999999591
 31
0.0
  0
LINE
  5
1271C9
  8
SLIM
 10
5102.0
 20
-812.99999999999591
 30
0.0
 11
4850.0
 21
-812.99999999999591
 31
0.0
  0
LINE
  5
1271CD
  8
SLIM
 10
5102.0
 20
-860.99999999999625
 30
0.0
 11
4850.0
 21
-860.99999999999625
 31
0.0
  0
LINE
  5
1271CE
  8
SLIM
 10
5102.0
 20
-908.99999999999636
 30
0.0
 11
4850.0
 21
-908.99999999999636
 31
0.0
  0
LINE
  5
1271CF
  8
SLIM
 10
5102.0
 20
-956.99999999999613
 30
0.0
 11
4850.0
 21
-956.99999999999613
 31
0.0
  0
LINE
  5
1271D5
  8
SLIM
 10
5102.0
 20
-1004.999999999996
 30
0.0
 11
4850.0
 21
-1004.999999999996
 31
0.0
  0
LINE
  5
1271D8
  8
SLIM
 10
5102.0
 20
-1052.9999999999959
 30
0.0
 11
4850.0
 21
-1052.9999999999959
 31
0.0
  0
LINE
  5
1271DB
  8
SLIM
 10
5102.0
 20
-1100.9999999999959
 30
0.0
 11
4850.0
 21
-1100.9999999999959
 31
0.0
  0
LINE
  5
1271DE
  8
SLIM
 10
5102.0
 20
-1148.9999999999959
 30
0.0
 11
4850.0
 21
-1148.9999999999959
 31
0.0
  0
LINE
  5
1271E1
  8
SLIM
 10
5102.0
 20
-1196.9999999999959
 30
0.0
 11
4850.0
 21
-1196.9999999999959
 31
0.0
  0
LINE
  5
1271E3
  8
SLIM
 10
5102.0
 20
-1244.9999999999959
 30
0.0
 11
4850.0
 21
-1244.9999999999959
 31
0.0
  0
LINE
  5
1271E5
  8
SLIM
 10
5102.0
 20
-1292.9999999999959
 30
0.0
 11
4850.0
 21
-1292.9999999999959
 31
0.0
  0
LINE
  5
1271E7
  8
SLIM
 10
5102.0
 20
-1340.9999999999959
 30
0.0
 11
4850.0
 21
-1340.9999999999959
 31
0.0
  0
LINE
  5
1271E9
  8
SLIM
 10
5102.0
 20
-1388.9999999999959
 30
0.0
 11
4850.0
 21
-1388.9999999999959
 31
0.0
  0
LINE
  5
1271EB
  8
SLIM
 10
5102.0
 20
-1436.9999999999959
 30
0.0
 11
4850.0
 21
-1436.9999999999959
 31
0.0
  0
LINE
  5
1271ED
  8
SLIM
 10
5102.0
 20
-1484.9999999999959
 30
0.0
 11
4850.0
 21
-1484.9999999999959
 31
0.0
  0
LINE
  5
127923
  8
OBJECT
 10
4423.0
 20
-571.0
 30
0.0
 11
4423.0
 21
-550.0
 31
0.0
1001
ACDBBLOCKREPETAG
1070
     1
1071
        0
1005
127923
  0
LINE
  5
127924
  8
OBJECT
 10
4423.0
 20
-550.0
 30
0.0
 11
4577.0
 21
-550.0
 31
0.0
1001
ACDBBLOCKREPETAG
1070
     1
1071
        1
1005
127924
  0
LINE
  5
127925
  8
HIDDEN
 10
4443.0
 20
-620.0
 30
0.0
 11
4557.0
 21
-620.0
 31
0.0
1001
ACDBBLOCKREPETAG
1070
     1
1071
        2
1005
127925
  0
LINE
  5
127926
  8
OBJECT
 10
4577.0
 20
-550.0
 30
0.0
 11
4577.0
 21
-571.0
 31
0.0
1001
ACDBBLOCKREPETAG
1070
     1
1071
        3
1005
127926
  0
LINE
  5
127927
  8
OBJECT
 10
4577.0
 20
-571.0
 30
0.0
 11
4423.0
 21
-571.0
 31
0.0
1001
ACDBBLOCKREPETAG
1070
     1
1071
        4
1005
127927
  0
LINE
  5
127928
  8
CENTER
 10
4500.0
 20
-535.0
 30
0.0
 11
4500.0
 21
-890.0
 31
0.0
1001
ACDBBLOCKREPETAG
1070
     1
1071
        5
1005
127928
  0
LINE
  5
127929
  8
OBJECT
 10
4425.0
 20
-634.0
 30
0.0
 11
4425.0
 21
-878.0
 31
0.0
1001
ACDBBLOCKREPETAG
1070
     1
1071
        6
1005
127929
  0
LINE
  5
12792A
  8
OBJECT
 10
4428.0
 20
-571.0
 30
0.0
 11
4428.0
 21
-634.0
 31
0.0
1001
ACDBBLOCKREPETAG
1070
     1
1071
        7
1005
12792A
  0
LINE
  5
12792B
  8
OBJECT
 10
4572.0
 20
-634.0
 30
0.0
 11
4572.0
 21
-571.0
 31
0.0
1001
ACDBBLOCKREPETAG
1070
     1
1071
        8
1005
12792B
  0
LINE
  5
12792C
  8
OBJECT
 10
4420.0
 20
-878.0
 30
0.0
 11
4580.0
 21
-878.0
 31
0.0
1001
ACDBBLOCKREPETAG
1070
     1
1071
        9
1005
12792C
  0
LINE
  5
12792D
  8
OBJECT
 10
4580.0
 20
-634.0
 30
0.0
 11
4425.0
 21
-634.0
 31
0.0
1001
ACDBBLOCKREPETAG
1070
     1
1071
       10
1005
12792D
  0
LINE
  5
12792E
  8
OBJECT
 10
4420.0
 20
-878.0
 30
0.0
 11
4420.0
 21
-890.0
 31
0.0
1001
ACDBBLOCKREPETAG
1070
     1
1071
       11
1005
12792E
  0
LINE
  5
12792F
  8
OBJECT
 10
4420.0
 20
-890.0
 30
0.0
 11
4580.0
 21
-890.0
 31
0.0
1001
ACDBBLOCKREPETAG
1070
     1
1071
       12
1005
12792F
  0
LINE
  5
127930
  8
OBJECT
 10
4580.0
 20
-890.0
 30
0.0
 11
4580.0
 21
-878.0
 31
0.0
1001
ACDBBLOCKREPETAG
1070
     1
1071
       13
1005
127930
  0
LINE
  5
127931
  8
OBJECT
 10
4574.9999999998618
 20
-757.99999999985096
 30
0.0
 11
4575.0
 21
-878.0
 31
0.0
1001
ACDBBLOCKREPETAG
1070
     1
1071
       15
1005
127931
  0
LINE
  5
127932
  8
OBJECT
 10
4574.9999908029849
 20
-757.99998602702181
 30
0.0
 11
4580.0
 21
-757.99998602702181
 31
0.0
1001
ACDBBLOCKREPETAG
1070
     1
1071
       16
1005
127932
  0
ARC
  5
127933
  8
OBJECT
 10
4700.6872746716726
 20
-749.40809941010752
 30
0.0
 40
170.6350503965856
 50
137.44134459184301
 51
149.91949581337221
1001
ACDBBLOCKREPETAG
1070
     1
1071
       17
1005
127933
  0
ARC
  5
127934
  8
OBJECT
 10
4618.8455987040506
 20
-705.88272669536479
 30
0.0
 40
78.072222021763665
 50
147.4551531038623
 51
164.66365997718671
1001
ACDBBLOCKREPETAG
1070
     1
1071
       18
1005
127934
  0
ARC
  5
127935
  8
OBJECT
 10
4585.7554349608718
 20
-696.0
 30
0.0
 40
43.55353926885617
 50
165.688452300753
 51
194.3115476992468
1001
ACDBBLOCKREPETAG
1070
     1
1071
       19
1005
127935
  0
ARC
  5
127936
  8
OBJECT
 10
4700.6872746716726
 20
-642.59190058989225
 30
0.0
 40
170.6350503965856
 50
210.08050418662771
 51
222.55865540815699
1001
ACDBBLOCKREPETAG
1070
     1
1071
       20
1005
127936
  0
ARC
  5
127937
  8
OBJECT
 10
4618.8455987040506
 20
-686.11727330463521
 30
0.0
 40
78.072222021763665
 50
195.3363400228132
 51
212.5448468961377
1001
ACDBBLOCKREPETAG
1070
     1
1071
       21
1005
127937
  0
LINE
  5
127938
  8
OBJECT
 10
2423.0
 20
-571.0
 30
0.0
 11
2423.0
 21
-550.0
 31
0.0
1001
ACDBBLOCKREPETAG
1070
     1
1071
        0
1005
127938
  0
LINE
  5
127939
  8
OBJECT
 10
2423.0
 20
-550.0
 30
0.0
 11
2577.0
 21
-550.0
 31
0.0
1001
ACDBBLOCKREPETAG
1070
     1
1071
        1
1005
127939
  0
LINE
  5
12793A
  8
HIDDEN
 10
2443.0
 20
-620.0
 30
0.0
 11
2557.0
 21
-620.0
 31
0.0
1001
ACDBBLOCKREPETAG
1070
     1
1071
        2
1005
12793A
  0
LINE
  5
12793B
  8
OBJECT
 10
2577.0
 20
-550.0
 30
0.0
 11
2577.0
 21
-571.0
 31
0.0
1001
ACDBBLOCKREPETAG
1070
     1
1071
        3
1005
12793B
  0
LINE
  5
12793C
  8
OBJECT
 10
2577.0
 20
-571.0
 30
0.0
 11
2423.0
 21
-571.0
 31
0.0
1001
ACDBBLOCKREPETAG
1070
     1
1071
        4
1005
12793C
  0
LINE
  5
12793D
  8
CENTER
 10
2500.0
 20
-535.0
 30
0.0
 11
2500.0
 21
-890.0
 31
0.0
1001
ACDBBLOCKREPETAG
1070
     1
1071
        5
1005
12793D
  0
LINE
  5
12793E
  8
OBJECT
 10
2425.0
 20
-634.0
 30
0.0
 11
2425.0
 21
-878.0
 31
0.0
1001
ACDBBLOCKREPETAG
1070
     1
1071
        6
1005
12793E
  0
LINE
  5
12793F
  8
OBJECT
 10
2428.0
 20
-571.0
 30
0.0
 11
2428.0
 21
-634.0
 31
0.0
1001
ACDBBLOCKREPETAG
1070
     1
1071
        7
1005
12793F
  0
LINE
  5
127940
  8
OBJECT
 10
2572.0
 20
-634.0
 30
0.0
 11
2572.0
 21
-571.0
 31
0.0
1001
ACDBBLOCKREPETAG
1070
     1
1071
        8
1005
127940
  0
LINE
  5
127941
  8
OBJECT
 10
2420.0
 20
-878.0
 30
0.0
 11
2580.0
 21
-878.0
 31
0.0
1001
ACDBBLOCKREPETAG
1070
     1
1071
        9
1005
127941
  0
LINE
  5
127942
  8
OBJECT
 10
2580.0
 20
-634.0
 30
0.0
 11
2425.0
 21
-634.0
 31
0.0
1001
ACDBBLOCKREPETAG
1070
     1
1071
       10
1005
127942
  0
LINE
  5
127943
  8
OBJECT
 10
2420.0
 20
-878.0
 30
0.0
 11
2420.0
 21
-890.0
 31
0.0
1001
ACDBBLOCKREPETAG
1070
     1
1071
       11
1005
127943
  0
LINE
  5
127944
  8
OBJECT
 10
2420.0
 20
-890.0
 30
0.0
 11
2580.0
 21
-890.0
 31
0.0
1001
ACDBBLOCKREPETAG
1070
     1
1071
       12
1005
127944
  0
LINE
  5
127945
  8
OBJECT
 10
2580.0
 20
-890.0
 30
0.0
 11
2580.0
 21
-878.0
 31
0.0
1001
ACDBBLOCKREPETAG
1070
     1
1071
       13
1005
127945
  0
LINE
  5
127946
  8
OBJECT
 10
2574.9999999998622
 20
-757.99999999985096
 30
0.0
 11
2575.0
 21
-878.0
 31
0.0
1001
ACDBBLOCKREPETAG
1070
     1
1071
       15
1005
127946
  0
LINE
  5
127947
  8
OBJECT
 10
2574.9999908029849
 20
-757.99998602702181
 30
0.0
 11
2580.0
 21
-757.99998602702181
 31
0.0
1001
ACDBBLOCKREPETAG
1070
     1
1071
       16
1005
127947
  0
ARC
  5
127948
  8
OBJECT
 10
2700.6872746716731
 20
-749.40809941010752
 30
0.0
 40
170.6350503965856
 50
137.44134459184301
 51
149.91949581337221
1001
ACDBBLOCKREPETAG
1070
     1
1071
       17
1005
127948
  0
ARC
  5
127949
  8
OBJECT
 10
2618.8455987040511
 20
-705.88272669536479
 30
0.0
 40
78.072222021763665
 50
147.4551531038623
 51
164.6636599771798
1001
ACDBBLOCKREPETAG
1070
     1
1071
       18
1005
127949
  0
ARC
  5
12794A
  8
OBJECT
 10
2585.7554349608731
 20
-696.0
 30
0.0
 40
43.55353926885617
 50
165.6884523007466
 51
194.3115476992534
1001
ACDBBLOCKREPETAG
1070
     1
1071
       19
1005
12794A
  0
ARC
  5
12794B
  8
OBJECT
 10
2700.6872746716731
 20
-642.59190058989225
 30
0.0
 40
170.6350503965856
 50
210.08050418662771
 51
222.55865540815699
1001
ACDBBLOCKREPETAG
1070
     1
1071
       20
1005
12794B
  0
ARC
  5
12794C
  8
OBJECT
 10
2618.8455987040511
 20
-686.11727330463521
 30
0.0
 40
78.072222021763665
 50
195.3363400228202
 51
212.5448468961377
1001
ACDBBLOCKREPETAG
1070
     1
1071
       21
1005
12794C
  0
TEXT
  5
12794D
  8
SLIM
 10
2032.5
 20
-1828.999999999998
 30
0.0
 40
28.0
  1
※ 対応P寸法　　310＜320＞～460（10mm単位。＜＞内は下枝75の場合）
 41
0.75
  0
TEXT
  5
12794E
  8
SLIM
 10
4026.5999999999999
 20
-1818.000026666665
 30
0.0
 40
28.0
  1
※ 対応P寸法　　310＜320＞～440（10mm単位。＜＞内は下枝75の場合）
 41
0.75
  0
TEXT
  5
12794F
  8
SLIM
 10
4026.5999999999999
 20
-1864.6666933333311
 30
0.0
 40
28.0
  1
※ 対応スラブ厚　180～（m-10）
 41
0.75
  0
TEXT
  5
127950
  8
SLIM
 10
4026.5999999999999
 20
-1911.333359999998
 30
0.0
 40
28.0
  1
※ 足切り可能寸法（最大）　680-P-m（コンパクトＬベンド使用なら+10）
 41
0.75
  0
TEXT
  5
127951
  8
SLIM
 10
4098.8999999999987
 20
-1983.3333066666651
 30
0.0
 40
28.0
  1
国土交通大臣認定・（一財）日本消防設備安全センター性能評定取得品
 41
0.75
  0
TEXT
  5
127952
  8
SLIM
 10
4131.1000000000004
 20
-2029.999973333332
 30
0.0
 40
28.0
  1
注）ご採用にあたり、認定書及び評定書の内容をご確認ください。
 41
0.75
  0
TEXT
  5
127953
  8
SLIM
 10
4970.0571428571429
 20
-1472.9999999999959
 30
0.0
 40
24.0
  1
190～240
 41
0.75
  0
TEXT
  5
127954
  8
SLIM
 10
4970.0571428571429
 20
-1424.9999999999959
 30
0.0
 40
24.0
  1
190～250
 41
0.75
  0
TEXT
  5
127955
  8
SLIM
 10
4970.0571428571429
 20
-1376.9999999999959
 30
0.0
 40
24.0
  1
190～260
 41
0.75
  0
TEXT
  5
127956
  8
SLIM
 10
4970.0571428571429
 20
-1328.9999999999959
 30
0.0
 40
24.0
  1
190～270
 41
0.75
  0
TEXT
  5
127957
  8
SLIM
 10
4970.0571428571429
 20
-1280.9999999999959
 30
0.0
 40
24.0
  1
190～280
 41
0.75
  0
TEXT
  5
127958
  8
SLIM
 10
4970.0571428571429
 20
-1232.9999999999959
 30
0.0
 40
24.0
  1
190～290
 41
0.75
  0
TEXT
  5
127959
  8
SLIM
 10
4970.0571428571429
 20
-1184.9999999999959
 30
0.0
 40
24.0
  1
190～300
 41
0.75
  0
TEXT
  5
12795A
  8
SLIM
 10
4948.4571428571444
 20
-1530.9999999999959
 30
0.0
 40
24.0
  1
標準：m=240
 41
0.75
  0
TEXT
  5
12795B
  8
SLIM
 10
4878.8571428571431
 20
-1472.9999999999959
 30
0.0
 40
24.0
  1
440
 41
0.75
  0
TEXT
  5
12795C
  8
SLIM
 10
4878.8571428571431
 20
-1424.9999999999959
 30
0.0
 40
24.0
  1
430
 41
0.75
  0
TEXT
  5
12795D
  8
SLIM
 10
4878.8571428571431
 20
-1376.9999999999959
 30
0.0
 40
24.0
  1
420
 41
0.75
  0
TEXT
  5
12795E
  8
SLIM
 10
4880.5714285714284
 20
-1328.9999999999959
 30
0.0
 40
24.0
  1
410
 41
0.75
  0
TEXT
  5
12795F
  8
SLIM
 10
4878.8571428571431
 20
-1280.9999999999959
 30
0.0
 40
24.0
  1
400
 41
0.75
  0
TEXT
  5
127960
  8
SLIM
 10
4878.8571428571431
 20
-1232.9999999999959
 30
0.0
 40
24.0
  1
390
 41
0.75
  0
TEXT
  5
127961
  8
SLIM
 10
4878.8571428571431
 20
-1184.9999999999959
 30
0.0
 40
24.0
  1
380
 41
0.75
  0
TEXT
  5
127962
  8
SLIM
 10
4878.8571428571431
 20
-1136.9999999999959
 30
0.0
 40
24.0
  1
370
 41
0.75
  0
TEXT
  5
127963
  8
SLIM
 10
4971.7714285714292
 20
-1136.9999999999959
 30
0.0
 40
24.0
  1
190～310
 41
0.75
  0
TEXT
  5
127964
  8
SLIM
 10
4878.8571428571431
 20
-1088.9999999999959
 30
0.0
 40
24.0
  1
360
 41
0.75
  0
TEXT
  5
127965
  8
SLIM
 10
4970.0571428571429
 20
-1088.9999999999959
 30
0.0
 40
24.0
  1
190～320
 41
0.75
  0
TEXT
  5
127966
  8
SLIM
 10
4878.8571428571431
 20
-1040.9999999999959
 30
0.0
 40
24.0
  1
350
 41
0.75
  0
TEXT
  5
127967
  8
SLIM
 10
4968.3428571428567
 20
-1040.9999999999959
 30
0.0
 40
24.0
  1
200～330
 41
0.75
  0
TEXT
  5
127968
  8
SLIM
 10
4878.8571428571431
 20
-992.99999999999636
 30
0.0
 40
24.0
  1
340
 41
0.75
  0
TEXT
  5
127969
  8
SLIM
 10
4970.0571428571429
 20
-992.99999999999636
 30
0.0
 40
24.0
  1
210～340
 41
0.75
  0
TEXT
  5
12796A
  8
SLIM
 10
4878.8571428571431
 20
-944.99999999999613
 30
0.0
 40
24.0
  1
330
 41
0.75
  0
TEXT
  5
12796B
  8
SLIM
 10
4968.3428571428567
 20
-944.99999999999613
 30
0.0
 40
24.0
  1
220～350
 41
0.75
  0
TEXT
  5
12796C
  8
SLIM
 10
4878.8571428571431
 20
-896.99999999999613
 30
0.0
 40
24.0
  1
320
 41
0.75
  0
TEXT
  5
12796D
  8
SLIM
 10
4968.3428571428567
 20
-896.99999999999613
 30
0.0
 40
24.0
  1
230～360
 41
0.75
  0
TEXT
  5
12796E
  8
SLIM
 10
4873.8000000000002
 20
-800.99999999999579
 30
0.0
 40
24.0
  1
P寸法
 41
0.75
  0
TEXT
  5
12796F
  8
SLIM
 10
4880.5714285714284
 20
-848.99999999999591
 30
0.0
 40
24.0
  1
310
 41
0.75
  0
TEXT
  5
127970
  8
SLIM
 10
4968.3428571428567
 20
-848.99999999999591
 30
0.0
 40
24.0
  1
240～370
 41
0.75
  0
TEXT
  5
127971
  8
SLIM
 10
4974.3428571428567
 20
-800.99999999999579
 30
0.0
 40
24.0
  1
対応m寸法
 41
0.75
  0
LINE
  5
127972
  8
OBJECT
 10
2632.9999999999991
 20
-137.99999999999801
 30
0.0
 11
2639.9999999999991
 21
-137.99999999999801
 31
0.0
1001
ACDBBLOCKREPETAG
1070
     1
1071
       47
1005
127972
  0
LINE
  5
127973
  8
OBJECT
 10
2639.9999999999991
 20
-137.99999999999801
 30
0.0
 11
2639.9999999999991
 21
-261.99999999999801
 31
0.0
1001
ACDBBLOCKREPETAG
1070
     1
1071
       48
1005
127973
  0
LINE
  5
127974
  8
OBJECT
 10
2639.9999999999991
 20
-261.99999999999801
 30
0.0
 11
2632.9999999999991
 21
-261.99999999999801
 31
0.0
1001
ACDBBLOCKREPETAG
1070
     1
1071
       49
1005
127974
  0
LINE
  5
127975
  8
OBJECT
 10
2632.9999999999991
 20
-261.99999999999801
 30
0.0
 11
2632.9999999999991
 21
-137.99999999999801
 31
0.0
1001
ACDBBLOCKREPETAG
1070
     1
1071
       50
1005
127975
  0
LINE
  5
127976
  8
CENTER
 10
2654.9999999999991
 20
-199.99999999999801
 30
0.0
 11
2579.9999999999991
 21
-199.99999999999801
 31
0.0
1001
ACDBBLOCKREPETAG
1070
     1
1071
       51
1005
127976
  0
LINE
  5
127977
  8
OBJECT
 10
2632.9999999999991
 20
-140.99999999999801
 30
0.0
 11
2596.9999999999991
 21
-140.99999999999801
 31
0.0
1001
ACDBBLOCKREPETAG
1070
     1
1071
       52
1005
127977
  0
LINE
  5
127978
  8
OBJECT
 10
2596.9999999999991
 20
-140.99999999999801
 30
0.0
 11
2596.9999999999991
 21
-258.99999999999801
 31
0.0
1001
ACDBBLOCKREPETAG
1070
     1
1071
       53
1005
127978
  0
LINE
  5
127979
  8
OBJECT
 10
2596.9999999999991
 20
-258.99999999999801
 30
0.0
 11
2632.9999999999991
 21
-258.99999999999801
 31
0.0
1001
ACDBBLOCKREPETAG
1070
     1
1071
       54
1005
127979
  0
LINE
  5
12797A
  8
OBJECT
 10
2592.9999999999991
 20
-145.49999999999801
 30
0.0
 11
2585.9999999999991
 21
-145.49999999999801
 31
0.0
1001
ACDBBLOCKREPETAG
1070
     1
1071
       55
1005
12797A
  0
LINE
  5
12797B
  8
OBJECT
 10
2585.9999999999991
 20
-254.49999999999801
 30
0.0
 11
2592.9999999999991
 21
-254.49999999999801
 31
0.0
1001
ACDBBLOCKREPETAG
1070
     1
1071
       56
1005
12797B
  0
LINE
  5
12797C
  8
OBJECT
 10
2592.9999999999991
 20
-254.49999999999801
 30
0.0
 11
2592.9999999999991
 21
-145.49999999999801
 31
0.0
1001
ACDBBLOCKREPETAG
1070
     1
1071
       57
1005
12797C
  0
LINE
  5
12797D
  8
OBJECT
 10
2596.9999999999991
 20
-140.99999999999801
 30
0.0
 11
2592.9999999999991
 21
-145.49999999999801
 31
0.0
1001
ACDBBLOCKREPETAG
1070
     1
1071
       58
1005
12797D
  0
LINE
  5
12797E
  8
OBJECT
 10
2596.9999999999991
 20
-258.99999999999801
 30
0.0
 11
2592.9999999999991
 21
-254.49999999999801
 31
0.0
1001
ACDBBLOCKREPETAG
1070
     1
1071
       59
1005
12797E
  0
LINE
  5
12797F
  8
OBJECT
 10
2582.9999999999991
 20
-137.99999999999801
 30
0.0
 11
2579.9999999999991
 21
-137.99999999999801
 31
0.0
1001
ACDBBLOCKREPETAG
1070
     1
1071
       60
1005
12797F
  0
ARC
  5
127980
  8
OBJECT
 10
2582.9999999999991
 20
-140.99999999999801
 30
0.0
 40
3.0
 50
0.0
 51
90.0
1001
ACDBBLOCKREPETAG
1070
     1
1071
       61
1005
127980
  0
LINE
  5
127981
  8
OBJECT
 10
2579.9999999999991
 20
-261.99999999999801
 30
0.0
 11
2582.9999999999991
 21
-261.99999999999801
 31
0.0
1001
ACDBBLOCKREPETAG
1070
     1
1071
       62
1005
127981
  0
ARC
  5
127982
  8
OBJECT
 10
2582.9999999999991
 20
-258.99999999999801
 30
0.0
 40
3.0
 50
270.0
 51
0.0
1001
ACDBBLOCKREPETAG
1070
     1
1071
       63
1005
127982
  0
LINE
  5
127983
  8
OBJECT
 10
2585.9999999999991
 20
-258.99999999999801
 30
0.0
 11
2585.9999999999991
 21
-140.99999999999801
 31
0.0
1001
ACDBBLOCKREPETAG
1070
     1
1071
       64
1005
127983
  0
LINE
  5
127984
  8
HIDDEN
 10
2587.9999999999991
 20
-155.49999999999801
 30
0.0
 11
2587.9999999999991
 21
-244.49999999999801
 31
0.0
1001
ACDBBLOCKREPETAG
1070
     1
1071
       65
1005
127984
  0
LINE
  5
127985
  8
SLIM
 10
4434.62485174211
 20
-150.49999999999909
 30
0.0
 11
4460.2662412276968
 21
-124.858610514414
 31
0.0
1001
GRADIENTCOLOR1ACI
1070
     5
1001
GRADIENTCOLOR2ACI
1070
     2
1001
ACAD
1010
0.0
1020
0.0
1030
0.0
  0
LINE
  5
127986
  8
SLIM
 10
4466.9665679627396
 20
-127.1385399004411
 30
0.0
 11
4475.4966737955074
 21
-118.6084340676734
 31
0.0
1001
GRADIENTCOLOR1ACI
1070
     5
1001
GRADIENTCOLOR2ACI
1070
     2
1001
ACAD
1010
0.0
1020
0.0
1030
0.0
  0
LINE
  5
127987
  8
SLIM
 10
4480.7298081179297
 20
-122.3555558663202
 30
0.0
 11
4487.1009205801611
 21
-115.98444340408869
 31
0.0
1001
GRADIENTCOLOR1ACI
1070
     5
1001
GRADIENTCOLOR2ACI
1070
     2
1001
ACAD
1010
0.0
1020
0.0
1030
0.0
  0
LINE
  5
127988
  8
SLIM
 10
4491.6261550504887
 20
-120.43946505483019
 30
0.0
 11
4497.0131249384003
 21
-115.0524951669185
 31
0.0
1001
GRADIENTCOLOR1ACI
1070
     5
1001
GRADIENTCOLOR2ACI
1070
     2
1001
ACAD
1010
0.0
1020
0.0
1030
0.0
  0
LINE
  5
127989
  8
SLIM
 10
4501.0391272822817
 20
-120.00674894410621
 30
0.0
 11
4505.844694310249
 21
-115.20118191613891
 31
0.0
1001
GRADIENTCOLOR1ACI
1070
     5
1001
GRADIENTCOLOR2ACI
1070
     2
1001
ACAD
1010
0.0
1020
0.0
1030
0.0
  0
LINE
  5
12798A
  8
SLIM
 10
4509.4643255646179
 20
-120.5618067828391
 30
0.0
 11
4513.8844735755611
 21
-116.14165877189311
 31
0.0
1001
GRADIENTCOLOR1ACI
1070
     5
1001
GRADIENTCOLOR2ACI
1070
     2
1001
ACAD
1010
0.0
1020
0.0
1030
0.0
  0
LINE
  5
12798B
  8
SLIM
 10
4517.1471323385686
 20
-121.85925612995651
 30
0.0
 11
4521.2955183575032
 21
-117.7108701110201
 31
0.0
1001
GRADIENTCOLOR1ACI
1070
     5
1001
GRADIENTCOLOR2ACI
1070
     2
1001
ACAD
1010
0.0
1020
0.0
1030
0.0
  0
LINE
  5
12798C
  8
SLIM
 10
4524.229292622219
 20
-123.7573519673733
 30
0.0
 11
4528.1796002140081
 21
-119.80704437558779
 31
0.0
1001
GRADIENTCOLOR1ACI
1070
     5
1001
GRADIENTCOLOR2ACI
1070
     2
1001
ACAD
1010
0.0
1020
0.0
1030
0.0
  0
LINE
  5
12798D
  8
SLIM
 10
4530.8001598408164
 20
-126.16674086984671
 30
0.0
 11
4534.6041959971053
 21
-122.3627047135587
 31
0.0
1001
GRADIENTCOLOR1ACI
1070
     5
1001
GRADIENTCOLOR2ACI
1070
     2
1001
ACAD
1010
0.0
1020
0.0
1030
0.0
  0
LINE
  5
12798E
  8
SLIM
 10
4536.9189300973521
 20
-129.02822673437819
 30
0.0
 11
4540.6155853902883
 21
-125.3315714414439
 31
0.0
1001
GRADIENTCOLOR1ACI
1070
     5
1001
GRADIENTCOLOR2ACI
1070
     2
1001
ACAD
1010
0.0
1020
0.0
1030
0.0
  0
LINE
  5
12798F
  8
SLIM
 10
4542.625662068006
 20
-132.30175088479609
 30
0.0
 11
4546.2458580590901
 21
-128.68155489371199
 31
0.0
1001
GRADIENTCOLOR1ACI
1070
     5
1001
GRADIENTCOLOR2ACI
1070
     2
1001
ACAD
1010
0.0
1020
0.0
1030
0.0
  0
LINE
  5
127990
  8
SLIM
 10
4432.3907652629223
 20
-251.51690381094841
 30
0.0
 11
4434.4076690738721
 21
-249.49999999999861
 31
0.0
1001
GRADIENTCOLOR1ACI
1070
     5
1001
GRADIENTCOLOR2ACI
1070
     2
1001
ACAD
1010
0.0
1020
0.0
1030
0.0
  0
LINE
  5
127991
  8
SLIM
 10
4547.9472200511291
 20
-135.96044902274201
 30
0.0
 11
4551.5169038109489
 21
-132.39076526292041
 31
0.0
1001
GRADIENTCOLOR1ACI
1070
     5
1001
GRADIENTCOLOR2ACI
1070
     2
1001
ACAD
1010
0.0
1020
0.0
1030
0.0
  0
LINE
  5
127992
  8
SLIM
 10
4436.4451742931069
 20
-256.44275090183191
 30
0.0
 11
4439.987301360803
 21
-252.9006238341367
 31
0.0
1001
GRADIENTCOLOR1ACI
1070
     5
1001
GRADIENTCOLOR2ACI
1070
     2
1001
ACAD
1010
0.0
1020
0.0
1030
0.0
  0
LINE
  5
127993
  8
SLIM
 10
4554.8879251949411
 20
-137.99999999999909
 30
0.0
 11
4556.4427509018342
 21
-136.44517429310599
 31
0.0
1001
GRADIENTCOLOR1ACI
1070
     5
1001
GRADIENTCOLOR2ACI
1070
     2
1001
ACAD
1010
0.0
1020
0.0
1030
0.0
  0
LINE
  5
127994
  8
SLIM
 10
4440.8372731495674
 20
-261.03090816644271
 30
0.0
 11
4444.3732607963184
 21
-257.49492051969042
 31
0.0
1001
GRADIENTCOLOR1ACI
1070
     5
1001
GRADIENTCOLOR2ACI
1070
     2
1001
ACAD
1010
0.0
1020
0.0
1030
0.0
  0
LINE
  5
127995
  8
SLIM
 10
4445.5654027321416
 20
-265.28303470493529
 30
0.0
 11
4449.1163342680156
 21
-261.73210316906119
 31
0.0
1001
GRADIENTCOLOR1ACI
1070
     5
1001
GRADIENTCOLOR2ACI
1070
     2
1001
ACAD
1010
0.0
1020
0.0
1030
0.0
  0
LINE
  5
127996
  8
SLIM
 10
4450.6336102119212
 20
-269.19508334622611
 30
0.0
 11
4454.221387368174
 21
-265.60730618997422
 31
0.0
1001
GRADIENTCOLOR1ACI
1070
     5
1001
GRADIENTCOLOR2ACI
1070
     2
1001
ACAD
1010
0.0
1020
0.0
1030
0.0
  0
LINE
  5
127997
  8
SLIM
 10
4456.0520018449279
 20
-272.75694783428941
 30
0.0
 11
4459.7006257556995
 21
-269.10832392351722
 31
0.0
1001
GRADIENTCOLOR1ACI
1070
     5
1001
GRADIENTCOLOR2ACI
1070
     2
1001
ACAD
1010
0.0
1020
0.0
1030
0.0
  0
LINE
  5
127998
  8
SLIM
 10
4461.8376665887208
 20
-275.95153921156628
 30
0.0
 11
4465.5748693932528
 21
-272.21433640703441
 31
0.0
1001
GRADIENTCOLOR1ACI
1070
     5
1001
GRADIENTCOLOR2ACI
1070
     2
1001
ACAD
1010
0.0
1020
0.0
1030
0.0
  0
LINE
  5
127999
  8
SLIM
 10
4468.0163793697502
 20
-278.75308255160547
 30
0.0
 11
4471.8759515352549
 21
-274.89351038609948
 31
0.0
1001
GRADIENTCOLOR1ACI
1070
     5
1001
GRADIENTCOLOR2ACI
1070
     2
1001
ACAD
1010
0.0
1020
0.0
1030
0.0
  0
LINE
  5
12799A
  8
SLIM
 10
4474.6255187948082
 20
-281.12419924761713
 30
0.0
 11
4478.6509600030768
 21
-277.09875803934659
 31
0.0
1001
GRADIENTCOLOR1ACI
1070
     5
1001
GRADIENTCOLOR2ACI
1070
     2
1001
ACAD
1010
0.0
1020
0.0
1030
0.0
  0
LINE
  5
12799B
  8
SLIM
 10
4481.7190828919893
 20
-283.01089127150487
 30
0.0
 11
4485.9698622171827
 21
-278.76011194630968
 31
0.0
1001
GRADIENTCOLOR1ACI
1070
     5
1001
GRADIENTCOLOR2ACI
1070
     2
1001
ACAD
1010
0.0
1020
0.0
1030
0.0
  0
LINE
  5
12799C
  8
SLIM
 10
4489.3766938558801
 20
-284.33353642868298
 30
0.0
 11
4493.9400771270448
 21
-279.7701531575176
 31
0.0
1001
GRADIENTCOLOR1ACI
1070
     5
1001
GRADIENTCOLOR2ACI
1070
     2
1001
ACAD
1010
0.0
1020
0.0
1030
0.0
  0
LINE
  5
12799D
  8
SLIM
 10
4497.7210427574209
 20
-284.96944364820962
 30
0.0
 11
4499.9999999999991
 21
-282.69048640563329
 31
0.0
1001
GRADIENTCOLOR1ACI
1070
     5
1001
GRADIENTCOLOR2ACI
1070
     2
1001
ACAD
1010
0.0
1020
0.0
1030
0.0
  0
LINE
  5
12799E
  8
SLIM
 10
4499.9999999999991
 20
-282.69048640563329
 30
0.0
 11
4502.7373312610916
 21
-279.95315514454069
 31
0.0
1001
GRADIENTCOLOR1ACI
1070
     5
1001
GRADIENTCOLOR2ACI
1070
     2
1001
ACAD
1010
0.0
1020
0.0
1030
0.0
  0
LINE
  5
12799F
  8
SLIM
 10
4506.9558298417924
 20
-284.714912684909
 30
0.0
 11
4512.6824114987858
 21
-278.98833102791468
 31
0.0
1001
GRADIENTCOLOR1ACI
1070
     5
1001
GRADIENTCOLOR2ACI
1070
     2
1001
ACAD
1010
0.0
1020
0.0
1030
0.0
  0
LINE
  5
1279A0
  8
SLIM
 10
4517.4645176312806
 20
-283.18648101648711
 30
0.0
 11
4524.4924948954113
 21
-276.15850375235999
 31
0.0
1001
GRADIENTCOLOR1ACI
1070
     5
1001
GRADIENTCOLOR2ACI
1070
     2
1001
ACAD
1010
0.0
1020
0.0
1030
0.0
  0
LINE
  5
1279A1
  8
SLIM
 10
4530.1631022713136
 20
-279.46815249752581
 30
0.0
 11
4540.842546319298
 21
-268.78870844954048
 31
0.0
1001
GRADIENTCOLOR1ACI
1070
     5
1001
GRADIENTCOLOR2ACI
1070
     2
1001
ACAD
1010
0.0
1020
0.0
1030
0.0
  0
LINE
  5
1279A2
  8
SLIM
 10
4549.5421817599154
 20
-269.06932912999309
 30
0.0
 11
4556.6115108899112
 21
-261.99999999999909
 31
0.0
1001
GRADIENTCOLOR1ACI
1070
     5
1001
GRADIENTCOLOR2ACI
1070
     2
1001
ACAD
1010
0.0
1020
0.0
1030
0.0
  0
LINE
  5
1279A3
  8
OBJECT
 10
4633.0
 20
-137.99999999999909
 30
0.0
 11
4640.0
 21
-137.99999999999909
 31
0.0
1001
ACDBBLOCKREPETAG
1070
     1
1071
       47
1005
1279A3
  0
LINE
  5
1279A4
  8
OBJECT
 10
4640.0
 20
-137.99999999999909
 30
0.0
 11
4640.0
 21
-261.99999999999909
 31
0.0
1001
ACDBBLOCKREPETAG
1070
     1
1071
       48
1005
1279A4
  0
LINE
  5
1279A5
  8
OBJECT
 10
4640.0
 20
-261.99999999999909
 30
0.0
 11
4633.0
 21
-261.99999999999909
 31
0.0
1001
ACDBBLOCKREPETAG
1070
     1
1071
       49
1005
1279A5
  0
LINE
  5
1279A6
  8
OBJECT
 10
4633.0
 20
-261.99999999999909
 30
0.0
 11
4633.0
 21
-137.99999999999909
 31
0.0
1001
ACDBBLOCKREPETAG
1070
     1
1071
       50
1005
1279A6
  0
LINE
  5
1279A7
  8
CENTER
 10
4655.0
 20
-199.99999999999909
 30
0.0
 11
4580.0
 21
-199.99999999999909
 31
0.0
1001
ACDBBLOCKREPETAG
1070
     1
1071
       51
1005
1279A7
  0
LINE
  5
1279A8
  8
OBJECT
 10
4633.0
 20
-140.99999999999909
 30
0.0
 11
4597.0
 21
-140.99999999999909
 31
0.0
1001
ACDBBLOCKREPETAG
1070
     1
1071
       52
1005
1279A8
  0
LINE
  5
1279A9
  8
OBJECT
 10
4597.0
 20
-140.99999999999909
 30
0.0
 11
4597.0
 21
-258.99999999999909
 31
0.0
1001
ACDBBLOCKREPETAG
1070
     1
1071
       53
1005
1279A9
  0
LINE
  5
1279AA
  8
OBJECT
 10
4597.0
 20
-258.99999999999909
 30
0.0
 11
4633.0
 21
-258.99999999999909
 31
0.0
1001
ACDBBLOCKREPETAG
1070
     1
1071
       54
1005
1279AA
  0
LINE
  5
1279AB
  8
OBJECT
 10
4593.0
 20
-145.49999999999909
 30
0.0
 11
4586.0
 21
-145.49999999999909
 31
0.0
1001
ACDBBLOCKREPETAG
1070
     1
1071
       55
1005
1279AB
  0
LINE
  5
1279AC
  8
OBJECT
 10
4586.0
 20
-254.49999999999909
 30
0.0
 11
4593.0
 21
-254.49999999999909
 31
0.0
1001
ACDBBLOCKREPETAG
1070
     1
1071
       56
1005
1279AC
  0
LINE
  5
1279AD
  8
OBJECT
 10
4593.0
 20
-254.49999999999909
 30
0.0
 11
4593.0
 21
-145.49999999999909
 31
0.0
1001
ACDBBLOCKREPETAG
1070
     1
1071
       57
1005
1279AD
  0
LINE
  5
1279AE
  8
OBJECT
 10
4597.0
 20
-140.99999999999909
 30
0.0
 11
4593.0
 21
-145.49999999999909
 31
0.0
1001
ACDBBLOCKREPETAG
1070
     1
1071
       58
1005
1279AE
  0
LINE
  5
1279AF
  8
OBJECT
 10
4597.0
 20
-258.99999999999909
 30
0.0
 11
4593.0
 21
-254.49999999999909
 31
0.0
1001
ACDBBLOCKREPETAG
1070
     1
1071
       59
1005
1279AF
  0
LINE
  5
1279B0
  8
OBJECT
 10
4583.0
 20
-137.99999999999909
 30
0.0
 11
4580.0
 21
-137.99999999999909
 31
0.0
1001
ACDBBLOCKREPETAG
1070
     1
1071
       60
1005
1279B0
  0
ARC
  5
1279B1
  8
OBJECT
 10
4583.0
 20
-140.99999999999909
 30
0.0
 40
3.0
 50
0.0
 51
90.0
1001
ACDBBLOCKREPETAG
1070
     1
1071
       61
1005
1279B1
  0
LINE
  5
1279B2
  8
OBJECT
 10
4580.0
 20
-261.99999999999909
 30
0.0
 11
4583.0
 21
-261.99999999999909
 31
0.0
1001
ACDBBLOCKREPETAG
1070
     1
1071
       62
1005
1279B2
  0
ARC
  5
1279B3
  8
OBJECT
 10
4583.0
 20
-258.99999999999909
 30
0.0
 40
3.0
 50
270.0
 51
0.0
1001
ACDBBLOCKREPETAG
1070
     1
1071
       63
1005
1279B3
  0
LINE
  5
1279B4
  8
OBJECT
 10
4586.0
 20
-258.99999999999909
 30
0.0
 11
4586.0
 21
-140.99999999999909
 31
0.0
1001
ACDBBLOCKREPETAG
1070
     1
1071
       64
1005
1279B4
  0
LINE
  5
1279B5
  8
HIDDEN
 10
4588.0
 20
-155.49999999999909
 30
0.0
 11
4588.0
 21
-244.49999999999909
 31
0.0
1001
ACDBBLOCKREPETAG
1070
     1
1071
       65
1005
1279B5
  0
LINE
  5
1279B6
  8
OBJECT
 10
242.00000000000679
 20
-1556.9999999999991
 30
0.0
 11
242.00000000000679
 21
-1563.9999999999991
 31
0.0
1001
ACDBBLOCKREPETAG
1070
     1
1071
       34
1005
1279B6
  0
LINE
  5
1279B7
  8
OBJECT
 10
242.00000000000679
 20
-1563.9999999999991
 30
0.0
 11
118.00000000000681
 21
-1563.9999999999991
 31
0.0
1001
ACDBBLOCKREPETAG
1070
     1
1071
       35
1005
1279B7
  0
LINE
  5
1279B8
  8
OBJECT
 10
118.00000000000681
 20
-1563.9999999999991
 30
0.0
 11
118.00000000000681
 21
-1556.9999999999991
 31
0.0
1001
ACDBBLOCKREPETAG
1070
     1
1071
       36
1005
1279B8
  0
LINE
  5
1279B9
  8
OBJECT
 10
118.00000000000681
 20
-1556.9999999999991
 30
0.0
 11
242.00000000000679
 21
-1556.9999999999991
 31
0.0
1001
ACDBBLOCKREPETAG
1070
     1
1071
       37
1005
1279B9
  0
LINE
  5
1279BA
  8
OBJECT
 10
239.00000000000679
 20
-1556.9999999999991
 30
0.0
 11
239.00000000000679
 21
-1520.9999999999991
 31
0.0
1001
ACDBBLOCKREPETAG
1070
     1
1071
       38
1005
1279BA
  0
LINE
  5
1279BB
  8
OBJECT
 10
239.00000000000679
 20
-1520.9999999999991
 30
0.0
 11
121.00000000000681
 21
-1520.9999999999991
 31
0.0
1001
ACDBBLOCKREPETAG
1070
     1
1071
       39
1005
1279BB
  0
LINE
  5
1279BC
  8
OBJECT
 10
121.00000000000681
 20
-1520.9999999999991
 30
0.0
 11
121.00000000000681
 21
-1556.9999999999991
 31
0.0
1001
ACDBBLOCKREPETAG
1070
     1
1071
       40
1005
1279BC
  0
LINE
  5
1279BD
  8
OBJECT
 10
234.50000000000679
 20
-1516.9999999999991
 30
0.0
 11
234.50000000000679
 21
-1506.4999999999991
 31
0.0
1001
ACDBBLOCKREPETAG
1070
     1
1071
       41
1005
1279BD
  0
LINE
  5
1279BE
  8
OBJECT
 10
125.50000000000681
 20
-1506.4999999999991
 30
0.0
 11
125.50000000000681
 21
-1516.9999999999991
 31
0.0
1001
ACDBBLOCKREPETAG
1070
     1
1071
       42
1005
1279BE
  0
LINE
  5
1279BF
  8
OBJECT
 10
125.50000000000681
 20
-1516.9999999999991
 30
0.0
 11
234.50000000000679
 21
-1516.9999999999991
 31
0.0
1001
ACDBBLOCKREPETAG
1070
     1
1071
       43
1005
1279BF
  0
LINE
  5
1279C0
  8
OBJECT
 10
239.00000000000679
 20
-1520.9999999999991
 30
0.0
 11
234.50000000000679
 21
-1516.9999999999991
 31
0.0
1001
ACDBBLOCKREPETAG
1070
     1
1071
       44
1005
1279C0
  0
LINE
  5
1279C1
  8
OBJECT
 10
121.00000000000681
 20
-1520.9999999999991
 30
0.0
 11
125.50000000000681
 21
-1516.9999999999991
 31
0.0
1001
ACDBBLOCKREPETAG
1070
     1
1071
       45
1005
1279C1
  0
LINE
  5
1279C2
  8
OBJECT
 10
229.50000000000679
 20
-1501.4999999999991
 30
0.0
 11
229.50000000000591
 21
-1480.344919912978
 31
0.0
1001
ACDBBLOCKREPETAG
1070
     1
1071
       46
1005
1279C2
  0
LINE
  5
1279C3
  8
OBJECT
 10
130.50000000000679
 20
-1501.4999999999991
 30
0.0
 11
130.50000000000679
 21
-1480.344919912977
 31
0.0
1001
ACDBBLOCKREPETAG
1070
     1
1071
       47
1005
1279C3
  0
LINE
  5
1279C4
  8
OBJECT
 10
234.50000000000679
 20
-1506.4999999999991
 30
0.0
 11
125.50000000000681
 21
-1506.4999999999991
 31
0.0
1001
ACDBBLOCKREPETAG
1070
     1
1071
       48
1005
1279C4
  0
LINE
  5
1279C5
  8
OBJECT
 10
229.50000000000679
 20
-1501.4999999999991
 30
0.0
 11
130.50000000000679
 21
-1501.4999999999991
 31
0.0
1001
ACDBBLOCKREPETAG
1070
     1
1071
       49
1005
1279C5
  0
LINE
  5
1279C6
  8
OBJECT
 10
234.50000000000679
 20
-1506.4999999999991
 30
0.0
 11
229.50000000000679
 21
-1501.4999999999991
 31
0.0
1001
ACDBBLOCKREPETAG
1070
     1
1071
       50
1005
1279C6
  0
LINE
  5
1279C7
  8
OBJECT
 10
130.50000000000679
 20
-1501.4999999999991
 30
0.0
 11
125.5000000000104
 21
-1506.4999999999991
 31
0.0
1001
ACDBBLOCKREPETAG
1070
     1
1071
       51
1005
1279C7
  0
INSERT
  5
1279C8
  8
SLIM
  2
*U33
 10
0.0
 20
0.0
 30
0.0
  0
LINE
  5
1279C9
  8
HIDDEN
 10
224.50000000000679
 20
-1511.9999999999991
 30
0.0
 11
135.50000000000679
 21
-1511.9999999999991
 31
0.0
1001
ACDBBLOCKREPETAG
1070
     1
1071
       65
1005
1279C9
  0
CIRCLE
  5
1279CA
  8
OBJECT
 10
180.00000000000679
 20
-1423.9999999999991
 30
0.0
 40
70.0
1001
ACDBBLOCKREPETAG
1070
     1
1071
       50
1005
1279CA
  0
CIRCLE
  5
1279CB
  8
OBJECT
 10
180.00000000000679
 20
-1423.9999999999991
 30
0.0
 40
75.0
1001
ACDBBLOCKREPETAG
1070
     1
1071
       51
1005
1279CB
  0
POINT
  5
1279CC
  8
DOTS
 10
180.00000000000679
 20
-1423.9999999999991
 30
0.0
1001
ACDBBLOCKREPETAG
1070
     1
1071
       63
1005
1279CC
  0
ARC
  5
1279CD
  8
OBJECT
 10
180.00000000000679
 20
-1423.9999999999991
 30
0.0
 40
55.0
 50
299.30224576428708
 51
240.69775423598111
1001
ACDBBLOCKREPETAG
1070
     1
1071
       50
1005
1279CA
  0
LINE
  5
1279CE
  8
OBJECT
 10
156.17579607525781
 20
-1469.6779614447539
 30
0.0
 11
148.18761767300521
 21
-1475.5774584435469
 31
0.0
  0
ARC
  5
1279CF
  8
OBJECT
 10
159.14618535864199
 20
-1473.6999991752029
 30
0.0
 40
5.0
 50
90.0
 51
126.4469224760731
  0
LINE
  5
1279D0
  8
OBJECT
 10
203.82420392470291
 20
-1469.677961444627
 30
0.0
 11
211.8124539801006
 21
-1475.577511360777
 31
0.0
  0
ARC
  5
1279D1
  8
OBJECT
 10
200.85381464148989
 20
-1473.6999991752029
 30
0.0
 40
5.0
 50
53.553077526274542
 51
90.0
  0
LINE
  5
1279D2
  8
OBJECT
 10
200.85381464148989
 20
-1468.6999991752029
 30
0.0
 11
159.14618535864199
 21
-1468.6999991752029
 31
0.0
  0
ARC
  5
1279D3
  8
OBJECT
 10
207.05983112696001
 20
-1482.0127717296989
 30
0.0
 40
8.0
 50
16.476216247958561
 51
53.553077526274542
  0
ARC
  5
1279D4
  8
OBJECT
 10
152.94016887305179
 20
-1482.0127717296989
 30
0.0
 40
8.0
 50
126.44692247372539
 51
163.5237837520414
  0
LINE
  5
1279D5
  8
OBJECT
 10
145.26866848598141
 20
-1479.7438332529759
 30
0.0
 11
144.00000000000679
 21
-1484.0333240792161
 31
0.0
  0
LINE
  5
1279D6
  8
OBJECT
 10
214.73133151403229
 20
-1479.7438332529759
 30
0.0
 11
216.00000000000679
 21
-1484.0333240792161
 31
0.0
  0
LINE
  5
1279D7
  8
OBJECT
 10
595.00000000000659
 20
-1092.9999999999991
 30
0.0
 11
595.00000000000659
 21
-1099.9999999999991
 31
0.0
1001
ACDBBLOCKREPETAG
1070
     1
1071
       18
1005
1279D7
  0
LINE
  5
1279D8
  8
OBJECT
 10
595.00000000000659
 20
-1099.9999999999991
 30
0.0
 11
485.00000000000682
 21
-1099.9999999999991
 31
0.0
1001
ACDBBLOCKREPETAG
1070
     1
1071
       19
1005
1279D8
  0
LINE
  5
1279D9
  8
OBJECT
 10
485.00000000000682
 20
-1099.9999999999991
 30
0.0
 11
485.00000000000682
 21
-1092.9999999999991
 31
0.0
1001
ACDBBLOCKREPETAG
1070
     1
1071
       20
1005
1279D9
  0
LINE
  5
1279DA
  8
OBJECT
 10
485.00000000000682
 20
-1092.9999999999991
 30
0.0
 11
595.00000000000659
 21
-1092.9999999999991
 31
0.0
1001
ACDBBLOCKREPETAG
1070
     1
1071
       21
1005
1279DA
  0
LINE
  5
1279DB
  8
OBJECT
 10
592.00000000000671
 20
-1092.9999999999991
 30
0.0
 11
592.00000000000671
 21
-1056.9999999999991
 31
0.0
1001
ACDBBLOCKREPETAG
1070
     1
1071
       22
1005
1279DB
  0
LINE
  5
1279DC
  8
OBJECT
 10
592.00000000000671
 20
-1056.9999999999991
 30
0.0
 11
488.00000000000671
 21
-1056.9999999999991
 31
0.0
1001
ACDBBLOCKREPETAG
1070
     1
1071
       23
1005
1279DC
  0
LINE
  5
1279DD
  8
OBJECT
 10
488.00000000000671
 20
-1056.9999999999991
 30
0.0
 11
488.00000000000671
 21
-1092.9999999999991
 31
0.0
1001
ACDBBLOCKREPETAG
1070
     1
1071
       24
1005
1279DD
  0
LINE
  5
1279DE
  8
OBJECT
 10
587.50000000000671
 20
-1052.9999999999991
 30
0.0
 11
587.50000000000671
 21
-1044.4999999999991
 31
0.0
1001
ACDBBLOCKREPETAG
1070
     1
1071
       25
1005
1279DE
  0
LINE
  5
1279DF
  8
OBJECT
 10
492.50000000000671
 20
-1044.499999999998
 30
0.0
 11
492.50000000000671
 21
-1052.9999999999991
 31
0.0
1001
ACDBBLOCKREPETAG
1070
     1
1071
       26
1005
1279DF
  0
LINE
  5
1279E0
  8
OBJECT
 10
492.50000000000671
 20
-1052.9999999999991
 30
0.0
 11
587.50000000000671
 21
-1052.9999999999991
 31
0.0
1001
ACDBBLOCKREPETAG
1070
     1
1071
       27
1005
1279E0
  0
LINE
  5
1279E1
  8
OBJECT
 10
592.00000000000671
 20
-1056.9999999999991
 30
0.0
 11
587.50000000000671
 21
-1052.9999999999991
 31
0.0
1001
ACDBBLOCKREPETAG
1070
     1
1071
       28
1005
1279E1
  0
LINE
  5
1279E2
  8
OBJECT
 10
488.00000000000671
 20
-1056.9999999999991
 30
0.0
 11
492.50000000000671
 21
-1052.9999999999991
 31
0.0
1001
ACDBBLOCKREPETAG
1070
     1
1071
       29
1005
1279E2
  0
LINE
  5
1279E3
  8
OBJECT
 10
490.50000000000671
 20
-1044.499999999997
 30
0.0
 11
589.50000000000671
 21
-1044.4999999999991
 31
0.0
1001
ACDBBLOCKREPETAG
1070
     1
1071
       30
1005
1279E3
  0
LINE
  5
1279E4
  8
OBJECT
 10
589.50000000000671
 20
-1044.4999999999991
 30
0.0
 11
589.50000000000591
 21
-1016.344919912978
 31
0.0
1001
ACDBBLOCKREPETAG
1070
     1
1071
       31
1005
1279E4
  0
LINE
  5
1279E5
  8
OBJECT
 10
490.50000000000671
 20
-1044.499999999997
 30
0.0
 11
490.50000000000568
 21
-1016.344919912977
 31
0.0
1001
ACDBBLOCKREPETAG
1070
     1
1071
       32
1005
1279E5
  0
INSERT
  5
1279E6
  8
SLIM
  2
*U34
 10
0.0
 20
0.0
 30
0.0
  0
LINE
  5
1279E7
  8
HIDDEN
 10
578.00000000000659
 20
-1047.9999999999991
 30
0.0
 11
502.00000000000671
 21
-1047.9999999999991
 31
0.0
1001
ACDBBLOCKREPETAG
1070
     1
1071
       57
1005
1279E7
  0
CIRCLE
  5
1279E8
  8
OBJECT
 10
540.00000000000682
 20
-959.99999999999875
 30
0.0
 40
70.0
1001
ACDBBLOCKREPETAG
1070
     1
1071
       50
1005
1279E8
  0
CIRCLE
  5
1279E9
  8
OBJECT
 10
540.00000000000682
 20
-959.99999999999875
 30
0.0
 40
75.0
1001
ACDBBLOCKREPETAG
1070
     1
1071
       51
1005
1279E9
  0
POINT
  5
1279EA
  8
DOTS
 10
540.00000000000682
 20
-959.99999999999875
 30
0.0
1001
ACDBBLOCKREPETAG
1070
     1
1071
       63
1005
1279EA
  0
ARC
  5
1279EB
  8
OBJECT
 10
540.00000000000682
 20
-959.99999999999875
 30
0.0
 40
55.0
 50
299.30224576428549
 51
240.6977542359827
1001
ACDBBLOCKREPETAG
1070
     1
1071
       50
1005
1279E8
  0
LINE
  5
1279EC
  8
OBJECT
 10
516.17579607525795
 20
-1005.677961444754
 30
0.0
 11
508.18761767300521
 21
-1011.577458443547
 31
0.0
  0
ARC
  5
1279ED
  8
OBJECT
 10
519.14618535864201
 20
-1009.699999175202
 30
0.0
 40
5.0
 50
90.0
 51
126.4469224760718
  0
LINE
  5
1279EE
  8
OBJECT
 10
563.82420392470294
 20
-1005.677961444627
 30
0.0
 11
571.8124539801006
 21
-1011.577511360777
 31
0.0
  0
ARC
  5
1279EF
  8
OBJECT
 10
560.85381464148975
 20
-1009.699999175202
 30
0.0
 40
5.0
 50
53.55307752627585
 51
90.0
  0
LINE
  5
1279F0
  8
OBJECT
 10
560.85381464148975
 20
-1004.6999991752029
 30
0.0
 11
519.14618535864201
 21
-1004.6999991752029
 31
0.0
  0
ARC
  5
1279F1
  8
OBJECT
 10
567.05983112696003
 20
-1018.012771729699
 30
0.0
 40
8.0
 50
16.476216247958561
 51
53.55307752627585
  0
ARC
  5
1279F2
  8
OBJECT
 10
512.94016887305156
 20
-1018.012771729699
 30
0.0
 40
8.0
 50
126.4469224737241
 51
163.5237837520414
  0
LINE
  5
1279F3
  8
OBJECT
 10
505.2686684859811
 20
-1015.743833252975
 30
0.0
 11
504.00000000000671
 21
-1020.033324079216
 31
0.0
  0
LINE
  5
1279F4
  8
OBJECT
 10
574.73133151403215
 20
-1015.743833252975
 30
0.0
 11
576.00000000000671
 21
-1020.033324079216
 31
0.0
  0
LINE
  5
1279F5
  8
OBJECT
 10
227.00000000000679
 20
-1092.9999999999991
 30
0.0
 11
227.00000000000679
 21
-1099.9999999999991
 31
0.0
1001
ACDBBLOCKREPETAG
1070
     1
1071
        0
1005
1279F5
  0
LINE
  5
1279F6
  8
OBJECT
 10
227.00000000000679
 20
-1099.9999999999991
 30
0.0
 11
133.00000000000679
 21
-1099.9999999999991
 31
0.0
1001
ACDBBLOCKREPETAG
1070
     1
1071
        1
1005
1279F6
  0
LINE
  5
1279F7
  8
OBJECT
 10
133.00000000000679
 20
-1099.9999999999991
 30
0.0
 11
133.00000000000679
 21
-1092.9999999999991
 31
0.0
1001
ACDBBLOCKREPETAG
1070
     1
1071
        2
1005
1279F7
  0
LINE
  5
1279F8
  8
OBJECT
 10
133.00000000000679
 20
-1092.9999999999991
 30
0.0
 11
227.00000000000679
 21
-1092.9999999999991
 31
0.0
1001
ACDBBLOCKREPETAG
1070
     1
1071
        3
1005
1279F8
  0
LINE
  5
1279F9
  8
OBJECT
 10
224.00000000000679
 20
-1092.9999999999991
 30
0.0
 11
224.00000000000679
 21
-1056.9999999999991
 31
0.0
1001
ACDBBLOCKREPETAG
1070
     1
1071
        4
1005
1279F9
  0
LINE
  5
1279FA
  8
OBJECT
 10
224.00000000000679
 20
-1056.9999999999991
 30
0.0
 11
136.00000000000679
 21
-1056.9999999999991
 31
0.0
1001
ACDBBLOCKREPETAG
1070
     1
1071
        5
1005
1279FA
  0
LINE
  5
1279FB
  8
OBJECT
 10
136.00000000000679
 20
-1056.9999999999991
 30
0.0
 11
136.00000000000679
 21
-1092.9999999999991
 31
0.0
1001
ACDBBLOCKREPETAG
1070
     1
1071
        6
1005
1279FB
  0
LINE
  5
1279FC
  8
OBJECT
 10
219.50000000000679
 20
-1052.9999999999991
 30
0.0
 11
219.50000000000679
 21
-1044.4999999999991
 31
0.0
1001
ACDBBLOCKREPETAG
1070
     1
1071
        7
1005
1279FC
  0
LINE
  5
1279FD
  8
OBJECT
 10
140.50000000000679
 20
-1044.499999999998
 30
0.0
 11
140.50000000000679
 21
-1052.9999999999991
 31
0.0
1001
ACDBBLOCKREPETAG
1070
     1
1071
        8
1005
1279FD
  0
LINE
  5
1279FE
  8
OBJECT
 10
140.50000000000679
 20
-1052.9999999999991
 30
0.0
 11
219.50000000000679
 21
-1052.9999999999991
 31
0.0
1001
ACDBBLOCKREPETAG
1070
     1
1071
        9
1005
1279FE
  0
LINE
  5
1279FF
  8
OBJECT
 10
224.00000000000679
 20
-1056.9999999999991
 30
0.0
 11
219.50000000000679
 21
-1052.9999999999991
 31
0.0
1001
ACDBBLOCKREPETAG
1070
     1
1071
       10
1005
1279FF
  0
LINE
  5
127A00
  8
OBJECT
 10
136.00000000000679
 20
-1056.9999999999991
 30
0.0
 11
140.50000000000679
 21
-1052.9999999999991
 31
0.0
1001
ACDBBLOCKREPETAG
1070
     1
1071
       11
1005
127A00
  0
LINE
  5
127A01
  8
OBJECT
 10
133.50000000000679
 20
-1044.499999999998
 30
0.0
 11
226.50000000000679
 21
-1044.4999999999991
 31
0.0
1001
ACDBBLOCKREPETAG
1070
     1
1071
       12
1005
127A01
  0
ARC
  5
127A02
  8
OBJECT
 10
226.50000000000679
 20
-1041.4999999999991
 30
0.0
 40
3.0
 50
270.0
 51
0.0
1001
ACDBBLOCKREPETAG
1070
     1
1071
       13
1005
127A02
  0
LINE
  5
127A03
  8
OBJECT
 10
229.50000000000679
 20
-1041.4999999999991
 30
0.0
 11
229.5000000000077
 21
-1016.344919912977
 31
0.0
1001
ACDBBLOCKREPETAG
1070
     1
1071
       15
1005
127A03
  0
LINE
  5
127A04
  8
OBJECT
 10
130.50000000000679
 20
-1041.499999999998
 30
0.0
 11
130.5000000000077
 21
-1016.344919912978
 31
0.0
1001
ACDBBLOCKREPETAG
1070
     1
1071
       16
1005
127A04
  0
ARC
  5
127A05
  8
OBJECT
 10
133.50000000000679
 20
-1041.499999999998
 30
0.0
 40
3.0
 50
180.0
 51
270.0
1001
ACDBBLOCKREPETAG
1070
     1
1071
       17
1005
127A05
  0
INSERT
  5
127A06
  8
SLIM
  2
*U35
 10
0.0
 20
0.0
 30
0.0
  0
LINE
  5
127A07
  8
HIDDEN
 10
210.00000000000679
 20
-1047.9999999999991
 30
0.0
 11
150.00000000000679
 21
-1047.9999999999991
 31
0.0
1001
ACDBBLOCKREPETAG
1070
     1
1071
       56
1005
127A07
  0
CIRCLE
  5
127A08
  8
OBJECT
 10
180.00000000000679
 20
-959.99999999999875
 30
0.0
 40
70.0
1001
ACDBBLOCKREPETAG
1070
     1
1071
       50
1005
127A08
  0
CIRCLE
  5
127A09
  8
OBJECT
 10
180.00000000000679
 20
-959.99999999999875
 30
0.0
 40
75.0
1001
ACDBBLOCKREPETAG
1070
     1
1071
       51
1005
127A09
  0
POINT
  5
127A0A
  8
DOTS
 10
180.00000000000679
 20
-959.99999999999875
 30
0.0
1001
ACDBBLOCKREPETAG
1070
     1
1071
       63
1005
127A0A
  0
ARC
  5
127A0B
  8
OBJECT
 10
180.00000000000679
 20
-959.99999999999875
 30
0.0
 40
55.0
 50
299.30224576428708
 51
240.69775423598111
1001
ACDBBLOCKREPETAG
1070
     1
1071
       50
1005
127A08
  0
LINE
  5
127A0C
  8
OBJECT
 10
156.17579607525781
 20
-1005.677961444754
 30
0.0
 11
148.18761767300521
 21
-1011.577458443547
 31
0.0
  0
ARC
  5
127A0D
  8
OBJECT
 10
159.14618535864199
 20
-1009.699999175202
 30
0.0
 40
5.0
 50
90.0
 51
126.4469224760731
  0
LINE
  5
127A0E
  8
OBJECT
 10
203.82420392470291
 20
-1005.677961444627
 30
0.0
 11
211.8124539801006
 21
-1011.577511360777
 31
0.0
  0
ARC
  5
127A0F
  8
OBJECT
 10
200.85381464148989
 20
-1009.699999175202
 30
0.0
 40
5.0
 50
53.553077526274542
 51
90.0
  0
LINE
  5
127A10
  8
OBJECT
 10
200.85381464148989
 20
-1004.6999991752029
 30
0.0
 11
159.14618535864199
 21
-1004.6999991752029
 31
0.0
  0
ARC
  5
127A11
  8
OBJECT
 10
207.05983112696001
 20
-1018.012771729699
 30
0.0
 40
8.0
 50
16.476216247958561
 51
53.553077526274542
  0
ARC
  5
127A12
  8
OBJECT
 10
152.94016887305179
 20
-1018.012771729699
 30
0.0
 40
8.0
 50
126.44692247372539
 51
163.5237837520414
  0
LINE
  5
127A13
  8
OBJECT
 10
145.26866848598141
 20
-1015.743833252975
 30
0.0
 11
144.00000000000679
 21
-1020.033324079216
 31
0.0
  0
LINE
  5
127A14
  8
OBJECT
 10
214.73133151403229
 20
-1015.743833252975
 30
0.0
 11
216.00000000000679
 21
-1020.033324079216
 31
0.0
  0
TEXT
  5
127A15
  8
SLIM
 10
97.714285714224999
 20
-1707.9999999996919
 30
0.0
 40
48.0
  1
A0030
 41
0.75
1001
ACDBBLOCKREPETAG
1070
     1
1071
      119
1005
0
  0
TEXT
  5
127A16
  8
SLIM
 10
457.71428571410308
 20
-1243.9999999998511
 30
0.0
 40
48.0
  1
A0020
 41
0.75
1001
ACDBBLOCKREPETAG
1070
     1
1071
      119
1005
0
  0
TEXT
  5
127A17
  8
SLIM
 10
101.1428571427964
 20
-1243.9999999998511
 30
0.0
 40
48.0
  1
A0010
 41
0.75
1001
ACDBBLOCKREPETAG
1070
     1
1071
      119
1005
0
  0
POLYLINE
  5
127A18
  8
HIDDEN
 66
     1
 10
0.0
 20
0.0
 30
0.0
 70
     1
1001
ACDBBLOCKREPETAG
1070
     1
1071
      105
1005
0
  0
VERTEX
  5
127E39
  8
HIDDEN
 10
359.99999999987779
 20
-799.9999999999992
 30
0.0
  0
VERTEX
  5
127E3A
  8
HIDDEN
 10
719.99999999975603
 20
-799.9999999999992
 30
0.0
  0
VERTEX
  5
127E3B
  8
HIDDEN
 10
719.99999999975603
 20
-1263.9999999998411
 30
0.0
  0
VERTEX
  5
127E3C
  8
HIDDEN
 10
359.99999999987779
 20
-1263.9999999998411
 30
0.0
  0
SEQEND
  5
127E3D
  8
HIDDEN
  0
POLYLINE
  5
127A19
  8
HIDDEN
 66
     1
 10
0.0
 20
0.0
 30
0.0
 70
     1
1001
ACDBBLOCKREPETAG
1070
     1
1071
      110
1005
0
  0
VERTEX
  5
127E3E
  8
HIDDEN
 10
-0.0000000000002274
 20
-799.9999999999992
 30
0.0
  0
VERTEX
  5
127E3F
  8
HIDDEN
 10
359.99999999987779
 20
-799.9999999999992
 30
0.0
  0
VERTEX
  5
127E40
  8
HIDDEN
 10
359.99999999987779
 20
-1263.9999999998411
 30
0.0
  0
VERTEX
  5
127E41
  8
HIDDEN
 10
-0.0000000000002274
 20
-1263.9999999998411
 30
0.0
  0
SEQEND
  5
127E42
  8
HIDDEN
  0
POLYLINE
  5
127A1A
  8
HIDDEN
 66
     1
 10
0.0
 20
0.0
 30
0.0
 70
     1
1001
ACDBBLOCKREPETAG
1070
     1
1071
      125
1005
0
  0
VERTEX
  5
127E43
  8
HIDDEN
 10
-0.0000000000002274
 20
-1263.9999999998411
 30
0.0
  0
VERTEX
  5
127E44
  8
HIDDEN
 10
359.99999999987779
 20
-1263.9999999998411
 30
0.0
  0
VERTEX
  5
127E45
  8
HIDDEN
 10
359.99999999987779
 20
-1727.999999999681
 30
0.0
  0
VERTEX
  5
127E46
  8
HIDDEN
 10
-0.0000000000002274
 20
-1727.999999999681
 30
0.0
  0
SEQEND
  5
127E47
  8
HIDDEN
  0
POLYLINE
  5
127A1B
  8
HIDDEN
 66
     1
 10
0.0
 20
0.0
 30
0.0
 70
     1
1001
ACDBBLOCKREPETAG
1070
     1
1071
      110
1005
0
  0
VERTEX
  5
127E48
  8
HIDDEN
 10
-0.0000000000002274
 20
0.0
 30
0.0
  0
VERTEX
  5
127E49
  8
HIDDEN
 10
359.99999999987779
 20
0.0
 30
0.0
  0
VERTEX
  5
127E4A
  8
HIDDEN
 10
359.99999999987779
 20
-463.99999999984158
 30
0.0
  0
VERTEX
  5
127E4B
  8
HIDDEN
 10
-0.0000000000002274
 20
-463.99999999984158
 30
0.0
  0
SEQEND
  5
127E4C
  8
HIDDEN
  0
LINE
  5
127A1C
  8
SLIM
 10
4414.9999999999927
 20
-1152.2369265471771
 30
0.0
 11
4431.2369265471698
 21
-1136.0
 31
0.0
1001
GRADIENTCOLOR1ACI
1070
     5
1001
GRADIENTCOLOR2ACI
1070
     2
1001
ACAD
1010
0.0
1020
0.0
1030
0.0
  0
LINE
  5
127A1D
  8
SLIM
 10
4414.9999999999927
 20
-1170.197438789314
 30
0.0
 11
4449.1974387893069
 21
-1136.0
 31
0.0
1001
GRADIENTCOLOR1ACI
1070
     5
1001
GRADIENTCOLOR2ACI
1070
     2
1001
ACAD
1010
0.0
1020
0.0
1030
0.0
  0
LINE
  5
127A1E
  8
SLIM
 10
4414.9999999999955
 20
-1188.1579510314509
 30
0.0
 11
4467.1579510314441
 21
-1136.0
 31
0.0
1001
GRADIENTCOLOR1ACI
1070
     5
1001
GRADIENTCOLOR2ACI
1070
     2
1001
ACAD
1010
0.0
1020
0.0
1030
0.0
  0
LINE
  5
127A1F
  8
SLIM
 10
4415.1454972543143
 20
-1205.9729660192691
 30
0.0
 11
4485.1184632735849
 21
-1136.0
 31
0.0
1001
GRADIENTCOLOR1ACI
1070
     5
1001
GRADIENTCOLOR2ACI
1070
     2
1001
ACAD
1010
0.0
1020
0.0
1030
0.0
  0
LINE
  5
127A20
  8
SLIM
 10
4417.1046274952441
 20
-1221.97434802048
 30
0.0
 11
4503.078975515722
 21
-1136.0
 31
0.0
1001
GRADIENTCOLOR1ACI
1070
     5
1001
GRADIENTCOLOR2ACI
1070
     2
1001
ACAD
1010
0.0
1020
0.0
1030
0.0
  0
LINE
  5
127A21
  8
SLIM
 10
4419.0637577361713
 20
-1237.97573002169
 30
0.0
 11
4521.0394877578619
 21
-1136.0
 31
0.0
1001
GRADIENTCOLOR1ACI
1070
     5
1001
GRADIENTCOLOR2ACI
1070
     2
1001
ACAD
1010
0.0
1020
0.0
1030
0.0
  0
LINE
  5
127A22
  8
SLIM
 10
4420.0
 20
-1255.0
 30
0.0
 11
4539.0
 21
-1136.0
 31
0.0
1001
GRADIENTCOLOR1ACI
1070
     5
1001
GRADIENTCOLOR2ACI
1070
     2
1001
ACAD
1010
0.0
1020
0.0
1030
0.0
  0
LINE
  5
127A23
  8
SLIM
 10
4420.0
 20
-1272.9605122421381
 30
0.0
 11
4556.9605122421372
 21
-1136.0
 31
0.0
1001
GRADIENTCOLOR1ACI
1070
     5
1001
GRADIENTCOLOR2ACI
1070
     2
1001
ACAD
1010
0.0
1020
0.0
1030
0.0
  0
LINE
  5
127A24
  8
SLIM
 10
4420.0
 20
-1290.921024484277
 30
0.0
 11
4574.921024484277
 21
-1136.0
 31
0.0
1001
GRADIENTCOLOR1ACI
1070
     5
1001
GRADIENTCOLOR2ACI
1070
     2
1001
ACAD
1010
0.0
1020
0.0
1030
0.0
  0
LINE
  5
127A25
  8
SLIM
 10
4420.0
 20
-1308.8815367264151
 30
0.0
 11
4585.0000000000073
 21
-1143.8815367264081
 31
0.0
1001
GRADIENTCOLOR1ACI
1070
     5
1001
GRADIENTCOLOR2ACI
1070
     2
1001
ACAD
1010
0.0
1020
0.0
1030
0.0
  0
LINE
  5
127A26
  8
SLIM
 10
4420.0
 20
-1326.8420489685529
 30
0.0
 11
4585.0000000000073
 21
-1161.842048968547
 31
0.0
1001
GRADIENTCOLOR1ACI
1070
     5
1001
GRADIENTCOLOR2ACI
1070
     2
1001
ACAD
1010
0.0
1020
0.0
1030
0.0
  0
LINE
  5
127A27
  8
SLIM
 10
4420.0
 20
-1344.802561210691
 30
0.0
 11
4585.0000000000036
 21
-1179.8025612106869
 31
0.0
1001
GRADIENTCOLOR1ACI
1070
     5
1001
GRADIENTCOLOR2ACI
1070
     2
1001
ACAD
1010
0.0
1020
0.0
1030
0.0
  0
LINE
  5
127A28
  8
SLIM
 10
4420.0
 20
-1362.7630734528291
 30
0.0
 11
4585.0000000000009
 21
-1197.7630734528259
 31
0.0
1001
GRADIENTCOLOR1ACI
1070
     5
1001
GRADIENTCOLOR2ACI
1070
     2
1001
ACAD
1010
0.0
1020
0.0
1030
0.0
  0
LINE
  5
127A29
  8
SLIM
 10
4424.7235856949692
 20
-1376.0
 30
0.0
 11
4583.4738280308084
 21
-1217.249757664159
 31
0.0
1001
GRADIENTCOLOR1ACI
1070
     5
1001
GRADIENTCOLOR2ACI
1070
     2
1001
ACAD
1010
0.0
1020
0.0
1030
0.0
  0
LINE
  5
127A2A
  8
SLIM
 10
4430.0
 20
-1388.6840979371059
 30
0.0
 11
4442.6840979371063
 21
-1376.0
 31
0.0
1001
GRADIENTCOLOR1ACI
1070
     5
1001
GRADIENTCOLOR2ACI
1070
     2
1001
ACAD
1010
0.0
1020
0.0
1030
0.0
  0
LINE
  5
127A2B
  8
SLIM
 10
4442.6840979371063
 20
-1376.0
 30
0.0
 11
4580.9680345671368
 21
-1237.7160633699691
 31
0.0
1001
GRADIENTCOLOR1ACI
1070
     5
1001
GRADIENTCOLOR2ACI
1070
     2
1001
ACAD
1010
0.0
1020
0.0
1030
0.0
  0
LINE
  5
127A2C
  8
SLIM
 10
4441.6446101792453
 20
-1395.0
 30
0.0
 11
4460.6446101792462
 21
-1376.0
 31
0.0
1001
GRADIENTCOLOR1ACI
1070
     5
1001
GRADIENTCOLOR2ACI
1070
     2
1001
ACAD
1010
0.0
1020
0.0
1030
0.0
  0
LINE
  5
127A2D
  8
SLIM
 10
4460.6446101792462
 20
-1376.0
 30
0.0
 11
4580.0
 21
-1256.6446101792451
 31
0.0
1001
GRADIENTCOLOR1ACI
1070
     5
1001
GRADIENTCOLOR2ACI
1070
     2
1001
ACAD
1010
0.0
1020
0.0
1030
0.0
  0
LINE
  5
127A2E
  8
SLIM
 10
4459.6051224213843
 20
-1395.0
 30
0.0
 11
4478.6051224213843
 21
-1376.0
 31
0.0
1001
GRADIENTCOLOR1ACI
1070
     5
1001
GRADIENTCOLOR2ACI
1070
     2
1001
ACAD
1010
0.0
1020
0.0
1030
0.0
  0
LINE
  5
127A2F
  8
SLIM
 10
4478.6051224213843
 20
-1376.0
 30
0.0
 11
4580.0
 21
-1274.6051224213829
 31
0.0
1001
GRADIENTCOLOR1ACI
1070
     5
1001
GRADIENTCOLOR2ACI
1070
     2
1001
ACAD
1010
0.0
1020
0.0
1030
0.0
  0
LINE
  5
127A30
  8
SLIM
 10
4477.5656346635215
 20
-1395.0
 30
0.0
 11
4496.5656346635215
 21
-1376.0
 31
0.0
1001
GRADIENTCOLOR1ACI
1070
     5
1001
GRADIENTCOLOR2ACI
1070
     2
1001
ACAD
1010
0.0
1020
0.0
1030
0.0
  0
LINE
  5
127A31
  8
SLIM
 10
4496.5656346635215
 20
-1376.0
 30
0.0
 11
4579.9999999999991
 21
-1292.5656346635219
 31
0.0
1001
GRADIENTCOLOR1ACI
1070
     5
1001
GRADIENTCOLOR2ACI
1070
     2
1001
ACAD
1010
0.0
1020
0.0
1030
0.0
  0
LINE
  5
127A32
  8
SLIM
 10
4495.5261469056586
 20
-1395.0
 30
0.0
 11
4514.5261469056613
 21
-1376.0
 31
0.0
1001
GRADIENTCOLOR1ACI
1070
     5
1001
GRADIENTCOLOR2ACI
1070
     2
1001
ACAD
1010
0.0
1020
0.0
1030
0.0
  0
LINE
  5
127A33
  8
SLIM
 10
4514.5261469056613
 20
-1376.0
 30
0.0
 11
4579.9999999999991
 21
-1310.5261469056611
 31
0.0
1001
GRADIENTCOLOR1ACI
1070
     5
1001
GRADIENTCOLOR2ACI
1070
     2
1001
ACAD
1010
0.0
1020
0.0
1030
0.0
  0
LINE
  5
127A34
  8
SLIM
 10
4513.4866591477976
 20
-1395.0
 30
0.0
 11
4532.4866591478003
 21
-1376.0
 31
0.0
1001
GRADIENTCOLOR1ACI
1070
     5
1001
GRADIENTCOLOR2ACI
1070
     2
1001
ACAD
1010
0.0
1020
0.0
1030
0.0
  0
LINE
  5
127A35
  8
SLIM
 10
4532.4866591478003
 20
-1376.0
 30
0.0
 11
4579.9999999999991
 21
-1328.4866591477989
 31
0.0
1001
GRADIENTCOLOR1ACI
1070
     5
1001
GRADIENTCOLOR2ACI
1070
     2
1001
ACAD
1010
0.0
1020
0.0
1030
0.0
  0
LINE
  5
127A36
  8
SLIM
 10
4531.4471713899356
 20
-1395.0
 30
0.0
 11
4550.4471713899356
 21
-1376.0
 31
0.0
1001
GRADIENTCOLOR1ACI
1070
     5
1001
GRADIENTCOLOR2ACI
1070
     2
1001
ACAD
1010
0.0
1020
0.0
1030
0.0
  0
LINE
  5
127A37
  8
SLIM
 10
4550.4471713899356
 20
-1376.0
 30
0.0
 11
4579.9999999999982
 21
-1346.447171389937
 31
0.0
1001
GRADIENTCOLOR1ACI
1070
     5
1001
GRADIENTCOLOR2ACI
1070
     2
1001
ACAD
1010
0.0
1020
0.0
1030
0.0
  0
LINE
  5
127A38
  8
SLIM
 10
4549.4076836320737
 20
-1395.0
 30
0.0
 11
4568.4076836320728
 21
-1376.0
 31
0.0
1001
GRADIENTCOLOR1ACI
1070
     5
1001
GRADIENTCOLOR2ACI
1070
     2
1001
ACAD
1010
0.0
1020
0.0
1030
0.0
  0
LINE
  5
127A39
  8
SLIM
 10
4568.4076836320728
 20
-1376.0
 30
0.0
 11
4579.9999999999982
 21
-1364.407683632076
 31
0.0
1001
GRADIENTCOLOR1ACI
1070
     5
1001
GRADIENTCOLOR2ACI
1070
     2
1001
ACAD
1010
0.0
1020
0.0
1030
0.0
  0
LINE
  5
127A3A
  8
SLIM
 10
4567.3681958742118
 20
-1395.0
 30
0.0
 11
4570.0
 21
-1392.3681958742129
 31
0.0
1001
GRADIENTCOLOR1ACI
1070
     5
1001
GRADIENTCOLOR2ACI
1070
     2
1001
ACAD
1010
0.0
1020
0.0
1030
0.0
  0
LINE
  5
127A3B
  8
OBJECT
 10
4414.9999999999918
 20
-1136.0
 30
0.0
 11
4414.9999999999973
 21
-1204.7846033990349
 31
0.0
1001
ACDBBLOCKREPETAG
1070
     1
1071
        1
1005
127A3B
  0
LINE
  5
127A3C
  8
OBJECT
 10
4585.0000000000073
 20
-1136.0
 30
0.0
 11
4585.0000000000009
 21
-1204.784603399042
 31
0.0
1001
ACDBBLOCKREPETAG
1070
     1
1071
        2
1005
127A3C
  0
LINE
  5
127A3D
  8
OBJECT
 10
4585.0000000000073
 20
-1136.0
 30
0.0
 11
4414.9999999999918
 21
-1136.0
 31
0.0
1001
ACDBBLOCKREPETAG
1070
     1
1071
        3
1005
127A3D
  0
LINE
  5
127A3E
  8
OBJECT
 10
4579.9999999999982
 20
-1376.0
 30
0.0
 11
4420.0
 21
-1376.0
 31
0.0
1001
ACDBBLOCKREPETAG
1070
     1
1071
        4
1005
127A3E
  0
LINE
  5
127A3F
  8
OBJECT
 10
4414.9999999999973
 20
-1204.7846033990349
 30
0.0
 11
4420.0
 21
-1245.6225774829859
 31
0.0
1001
ACDBBLOCKREPETAG
1070
     1
1071
        6
1005
127A3F
  0
LINE
  5
127A40
  8
OBJECT
 10
4420.0
 20
-1245.6225774829859
 30
0.0
 11
4420.0
 21
-1376.0
 31
0.0
1001
ACDBBLOCKREPETAG
1070
     1
1071
        7
1005
127A40
  0
LINE
  5
127A41
  8
OBJECT
 10
4585.0000000000009
 20
-1204.784603399042
 30
0.0
 11
4580.0
 21
-1245.6225774829859
 31
0.0
1001
ACDBBLOCKREPETAG
1070
     1
1071
        8
1005
127A41
  0
LINE
  5
127A42
  8
OBJECT
 10
4580.0
 20
-1245.6225774829859
 30
0.0
 11
4579.9999999999982
 21
-1376.0
 31
0.0
1001
ACDBBLOCKREPETAG
1070
     1
1071
        9
1005
127A42
  0
LINE
  5
127A43
  8
OBJECT
 10
4430.0
 20
-1376.0
 30
0.0
 11
4430.0
 21
-1395.0
 31
0.0
1001
ACDBBLOCKREPETAG
1070
     1
1071
       10
1005
127A43
  0
LINE
  5
127A44
  8
OBJECT
 10
4430.0
 20
-1395.0
 30
0.0
 11
4570.0
 21
-1395.0
 31
0.0
1001
ACDBBLOCKREPETAG
1070
     1
1071
       11
1005
127A44
  0
LINE
  5
127A45
  8
OBJECT
 10
4570.0
 20
-1395.0
 30
0.0
 11
4570.0
 21
-1376.0
 31
0.0
1001
ACDBBLOCKREPETAG
1070
     1
1071
       12
1005
127A45
  0
LINE
  5
127A46
  8
OBJECT
 10
4430.0
 20
-1484.999999999998
 30
0.0
 11
4570.0
 21
-1484.999999999998
 31
0.0
1001
ACDBBLOCKREPETAG
1070
     1
1071
        0
1005
127A46
  0
LINE
  5
127A47
  8
OBJECT
 10
4430.0
 20
-1484.999999999998
 30
0.0
 11
4430.0
 21
-1244.999999999998
 31
0.0
1001
ACDBBLOCKREPETAG
1070
     1
1071
        1
1005
127A47
  0
LINE
  5
127A48
  8
OBJECT
 10
4570.0
 20
-1484.999999999998
 30
0.0
 11
4570.0
 21
-1244.999999999998
 31
0.0
1001
ACDBBLOCKREPETAG
1070
     1
1071
        2
1005
127A48
  0
LINE
  5
127A49
  8
OBJECT
 10
4430.0
 20
-1244.999999999998
 30
0.0
 11
4570.0
 21
-1244.999999999998
 31
0.0
1001
ACDBBLOCKREPETAG
1070
     1
1071
        3
1005
127A49
  0
LINE
  5
127A4A
  8
HIDDEN
 10
4437.5
 20
-1244.999999999998
 30
0.0
 11
4437.5
 21
-1484.999999999998
 31
0.0
1001
ACDBBLOCKREPETAG
1070
     1
1071
        4
1005
127A4A
  0
LINE
  5
127A4B
  8
HIDDEN
 10
4562.5
 20
-1244.999999999998
 30
0.0
 11
4562.5
 21
-1484.999999999998
 31
0.0
1001
ACDBBLOCKREPETAG
1070
     1
1071
        5
1005
127A4B
  0
LINE
  5
127A4C
  8
CENTER
 10
4500.0
 20
-1175.0
 30
0.0
 11
4500.0
 21
-1499.999999999998
 31
0.0
1001
ACDBBLOCKREPETAG
1070
     1
1071
        6
1005
127A4C
  0
LINE
  5
127A4D
  8
OBJECT
 10
4425.0
 20
-1175.0
 30
0.0
 11
4425.0
 21
-1204.999999999998
 31
0.0
1001
ACDBBLOCKREPETAG
1070
     1
1071
        7
1005
127A4D
  0
LINE
  5
127A4E
  8
OBJECT
 10
4575.0000000000009
 20
-1175.0
 30
0.0
 11
4575.0
 21
-1204.999999999998
 31
0.0
1001
ACDBBLOCKREPETAG
1070
     1
1071
        8
1005
127A4E
  0
LINE
  5
127A4F
  8
OBJECT
 10
4425.0
 20
-1204.999999999998
 30
0.0
 11
4575.0
 21
-1204.999999999998
 31
0.0
1001
ACDBBLOCKREPETAG
1070
     1
1071
        9
1005
127A4F
  0
LINE
  5
127A50
  8
OBJECT
 10
4425.0
 20
-1204.999999999998
 30
0.0
 11
4430.0
 21
-1244.999999999998
 31
0.0
1001
ACDBBLOCKREPETAG
1070
     1
1071
       10
1005
127A50
  0
LINE
  5
127A51
  8
OBJECT
 10
4570.0
 20
-1244.999999999998
 30
0.0
 11
4575.0
 21
-1204.999999999998
 31
0.0
1001
ACDBBLOCKREPETAG
1070
     1
1071
       11
1005
127A51
  0
LINE
  5
127A52
  8
OBJECT
 10
2430.0
 20
-1484.999999999998
 30
0.0
 11
2570.0
 21
-1484.999999999998
 31
0.0
1001
ACDBBLOCKREPETAG
1070
     1
1071
        0
1005
127A52
  0
LINE
  5
127A53
  8
OBJECT
 10
2430.0
 20
-1484.999999999998
 30
0.0
 11
2430.0
 21
-1244.999999999998
 31
0.0
1001
ACDBBLOCKREPETAG
1070
     1
1071
        1
1005
127A53
  0
LINE
  5
127A54
  8
OBJECT
 10
2570.0
 20
-1484.999999999998
 30
0.0
 11
2570.0
 21
-1244.999999999998
 31
0.0
1001
ACDBBLOCKREPETAG
1070
     1
1071
        2
1005
127A54
  0
LINE
  5
127A55
  8
OBJECT
 10
2430.0
 20
-1244.999999999998
 30
0.0
 11
2570.0
 21
-1244.999999999998
 31
0.0
1001
ACDBBLOCKREPETAG
1070
     1
1071
        3
1005
127A55
  0
LINE
  5
127A56
  8
HIDDEN
 10
2437.5
 20
-1244.999999999998
 30
0.0
 11
2437.5
 21
-1484.999999999998
 31
0.0
1001
ACDBBLOCKREPETAG
1070
     1
1071
        4
1005
127A56
  0
LINE
  5
127A57
  8
HIDDEN
 10
2562.5
 20
-1244.999999999998
 30
0.0
 11
2562.5
 21
-1484.999999999998
 31
0.0
1001
ACDBBLOCKREPETAG
1070
     1
1071
        5
1005
127A57
  0
LINE
  5
127A58
  8
CENTER
 10
2500.0
 20
-1175.0
 30
0.0
 11
2500.0
 21
-1499.999999999998
 31
0.0
1001
ACDBBLOCKREPETAG
1070
     1
1071
        6
1005
127A58
  0
LINE
  5
127A59
  8
OBJECT
 10
2425.0
 20
-1175.0
 30
0.0
 11
2425.0
 21
-1204.999999999998
 31
0.0
1001
ACDBBLOCKREPETAG
1070
     1
1071
        7
1005
127A59
  0
LINE
  5
127A5A
  8
OBJECT
 10
2575.000000000005
 20
-1175.0
 30
0.0
 11
2575.0
 21
-1204.999999999998
 31
0.0
1001
ACDBBLOCKREPETAG
1070
     1
1071
        8
1005
127A5A
  0
LINE
  5
127A5B
  8
OBJECT
 10
2425.0
 20
-1204.999999999998
 30
0.0
 11
2575.0
 21
-1204.999999999998
 31
0.0
1001
ACDBBLOCKREPETAG
1070
     1
1071
        9
1005
127A5B
  0
LINE
  5
127A5C
  8
OBJECT
 10
2425.0
 20
-1204.999999999998
 30
0.0
 11
2430.0
 21
-1244.999999999998
 31
0.0
1001
ACDBBLOCKREPETAG
1070
     1
1071
       10
1005
127A5C
  0
LINE
  5
127A5D
  8
OBJECT
 10
2570.0
 20
-1244.999999999998
 30
0.0
 11
2575.0
 21
-1204.999999999998
 31
0.0
1001
ACDBBLOCKREPETAG
1070
     1
1071
       11
1005
127A5D
  0
CIRCLE
  5
127A5E
  8
OBJECT
 10
180.00000000004181
 20
-232.00000000017189
 30
0.0
 40
70.0
1001
ACDBBLOCKREPETAG
1070
     1
1071
       50
1005
127A5E
  0
CIRCLE
  5
127A5F
  8
OBJECT
 10
180.00000000004181
 20
-232.00000000017189
 30
0.0
 40
77.0
1001
ACDBBLOCKREPETAG
1070
     1
1071
       51
1005
127A5F
  0
ARC
  5
127A60
  8
OBJECT
 10
180.00000000004181
 20
-232.00000000017189
 30
0.0
 40
80.0
 50
140.80503257377961
 51
39.194967426220252
1001
ACDBBLOCKREPETAG
1070
     1
1071
       52
1005
127A60
  0
LINE
  5
127A61
  8
OBJECT
 10
118.00000000004179
 20
-186.3381997728473
 30
0.0
 11
118.00000000004179
 21
-152.00000000017181
 31
0.0
1001
ACDBBLOCKREPETAG
1070
     1
1071
       53
1005
127A61
  0
LINE
  5
127A62
  8
OBJECT
 10
242.00000000004181
 20
-186.3381997728473
 30
0.0
 11
242.00000000004181
 21
-152.00000000017181
 31
0.0
1001
ACDBBLOCKREPETAG
1070
     1
1071
       54
1005
127A62
  0
POINT
  5
127A63
  8
DOTS
 10
180.00000000004181
 20
-232.00000000017189
 30
0.0
1001
ACDBBLOCKREPETAG
1070
     1
1071
       63
1005
127A63
  0
CIRCLE
  5
127A64
  8
OBJECT
 10
180.00000000004181
 20
-232.00000000017189
 30
0.0
 40
53.5
1001
ACDBBLOCKREPETAG
1070
     1
1071
      157
1005
127A64
  0
LINE
  5
127A65
  8
OBJECT
 10
156.17579607529291
 20
-277.67796144492331
 30
0.0
 11
154.40926451255919
 21
-278.98259525851881
 31
0.0
1001
ACDBBLOCKREPETAG
1070
     1
1071
      162
1005
127A65
  0
ARC
  5
127A66
  8
OBJECT
 10
159.1461853586772
 20
-281.69999917537177
 30
0.0
 40
5.0
 50
90.0
 51
126.4469224761369
1001
ACDBBLOCKREPETAG
1070
     1
1071
      163
1005
127A66
  0
LINE
  5
127A67
  8
OBJECT
 10
203.8242039247377
 20
-277.67796144479598
 30
0.0
 11
205.59073548768339
 21
-278.98259525843332
 31
0.0
1001
ACDBBLOCKREPETAG
1070
     1
1071
      164
1005
127A67
  0
ARC
  5
127A68
  8
OBJECT
 10
200.85381464152559
 20
-281.69999917537177
 30
0.0
 40
5.0
 50
53.553077526317523
 51
90.0
1001
ACDBBLOCKREPETAG
1070
     1
1071
      165
1005
127A68
  0
LINE
  5
127A69
  8
OBJECT
 10
200.85381464152559
 20
-276.69999917537177
 30
0.0
 11
159.1461853586772
 21
-276.69999917537177
 31
0.0
1001
ACDBBLOCKREPETAG
1070
     1
1071
      166
1005
127A69
  0
INSERT
  5
127A6A
  8
SLIM
  2
*U36
 10
0.0
 20
0.0
 30
0.0
  0
LINE
  5
127A6B
  8
OBJECT
 10
118.00000000004179
 20
-99.000000000171866
 30
0.0
 11
118.00000000004179
 21
-92.000000000171866
 31
0.0
1001
ACDBBLOCKREPETAG
1070
     1
1071
       39
1005
127A6B
  0
LINE
  5
127A6C
  8
OBJECT
 10
118.00000000004179
 20
-92.000000000171866
 30
0.0
 11
242.00000000004181
 21
-92.000000000171866
 31
0.0
1001
ACDBBLOCKREPETAG
1070
     1
1071
       40
1005
127A6C
  0
LINE
  5
127A6D
  8
OBJECT
 10
242.00000000004181
 20
-92.000000000171866
 30
0.0
 11
242.00000000004181
 21
-99.000000000171866
 31
0.0
1001
ACDBBLOCKREPETAG
1070
     1
1071
       41
1005
127A6D
  0
LINE
  5
127A6E
  8
OBJECT
 10
242.00000000004181
 20
-99.000000000171866
 30
0.0
 11
118.00000000004179
 21
-99.000000000171866
 31
0.0
1001
ACDBBLOCKREPETAG
1070
     1
1071
       42
1005
127A6E
  0
LINE
  5
127A6F
  8
OBJECT
 10
121.00000000004179
 20
-99.000000000171866
 30
0.0
 11
121.00000000004179
 21
-135.00000000017181
 31
0.0
1001
ACDBBLOCKREPETAG
1070
     1
1071
       43
1005
127A6F
  0
LINE
  5
127A70
  8
OBJECT
 10
121.00000000004179
 20
-135.00000000017181
 30
0.0
 11
239.00000000004181
 21
-135.00000000017181
 31
0.0
1001
ACDBBLOCKREPETAG
1070
     1
1071
       44
1005
127A70
  0
LINE
  5
127A71
  8
OBJECT
 10
239.00000000004181
 20
-135.00000000017181
 30
0.0
 11
239.00000000004181
 21
-99.000000000171866
 31
0.0
1001
ACDBBLOCKREPETAG
1070
     1
1071
       45
1005
127A71
  0
LINE
  5
127A72
  8
OBJECT
 10
125.50000000004179
 20
-139.00000000017181
 30
0.0
 11
125.50000000004179
 21
-146.00000000017181
 31
0.0
1001
ACDBBLOCKREPETAG
1070
     1
1071
       46
1005
127A72
  0
LINE
  5
127A73
  8
OBJECT
 10
234.50000000004181
 20
-146.00000000017181
 30
0.0
 11
234.50000000004181
 21
-139.00000000017181
 31
0.0
1001
ACDBBLOCKREPETAG
1070
     1
1071
       47
1005
127A73
  0
LINE
  5
127A74
  8
OBJECT
 10
234.50000000004181
 20
-139.00000000017181
 30
0.0
 11
125.50000000004179
 21
-139.00000000017181
 31
0.0
1001
ACDBBLOCKREPETAG
1070
     1
1071
       48
1005
127A74
  0
LINE
  5
127A75
  8
OBJECT
 10
121.00000000004179
 20
-135.00000000017181
 30
0.0
 11
125.50000000004179
 21
-139.00000000017181
 31
0.0
1001
ACDBBLOCKREPETAG
1070
     1
1071
       49
1005
127A75
  0
LINE
  5
127A76
  8
OBJECT
 10
239.00000000004181
 20
-135.00000000017181
 30
0.0
 11
234.50000000004181
 21
-139.00000000017181
 31
0.0
1001
ACDBBLOCKREPETAG
1070
     1
1071
       50
1005
127A76
  0
LINE
  5
127A77
  8
OBJECT
 10
118.00000000004179
 20
-149.00000000017101
 30
0.0
 11
118.00000000004179
 21
-152.00000000017181
 31
0.0
1001
ACDBBLOCKREPETAG
1070
     1
1071
       51
1005
127A77
  0
ARC
  5
127A78
  8
OBJECT
 10
121.00000000004179
 20
-149.00000000017101
 30
0.0
 40
3.0
 50
90.0
 51
180.0
1001
ACDBBLOCKREPETAG
1070
     1
1071
       52
1005
127A78
  0
LINE
  5
127A79
  8
OBJECT
 10
242.00000000004181
 20
-152.00000000017181
 30
0.0
 11
242.00000000004181
 21
-149.0000000001728
 31
0.0
1001
ACDBBLOCKREPETAG
1070
     1
1071
       53
1005
127A79
  0
ARC
  5
127A7A
  8
OBJECT
 10
239.00000000004181
 20
-149.0000000001728
 30
0.0
 40
3.0
 50
0.0
 51
90.0
1001
ACDBBLOCKREPETAG
1070
     1
1071
       54
1005
127A7A
  0
LINE
  5
127A7B
  8
OBJECT
 10
239.00000000004181
 20
-146.0000000001728
 30
0.0
 11
121.00000000004179
 21
-146.00000000017101
 31
0.0
1001
ACDBBLOCKREPETAG
1070
     1
1071
       55
1005
127A7B
  0
LINE
  5
127A7C
  8
HIDDEN
 10
135.50000000004181
 20
-144.00000000017189
 30
0.0
 11
224.50000000004181
 21
-144.00000000017189
 31
0.0
1001
ACDBBLOCKREPETAG
1070
     1
1071
      426
1005
127A7C
  0
TEXT
  5
127A7D
  8
SLIM
 10
0.000003566523219
 20
-775.9999954146823
 30
0.0
 40
79.999999999972701
  1
下部枝管バリエーション
 41
0.75
1001
ACDBBLOCKREPETAG
1070
     1
1071
      119
1005
120BCB
  0
LINE
  5
127A7E
  8
DIM
 10
4404.9999999999936
 20
-1135.9999999999991
 30
0.0
 11
4333.1164560757752
 21
-1135.9999999999991
 31
0.0
  0
LINE
  5
127A7F
  8
DIM
 10
4410.0
 20
-1376.0
 30
0.0
 11
4333.1164560757752
 21
-1376.0
 31
0.0
  0
LINE
  5
127A80
  8
DIM
 10
4343.1164560757752
 20
-1155.9999999999991
 30
0.0
 11
4343.1164560757752
 21
-1356.0
 31
0.0
  0
INSERT
  5
127A81
  8
DIM
  2
_OPEN30
 10
4343.1164560757752
 20
-1135.9999999999991
 30
0.0
 41
20.0
 42
20.0
 43
20.0
 50
90.0
  0
INSERT
  5
127A82
  8
DIM
  2
_OPEN30
 10
4343.1164560757752
 20
-1376.0
 30
0.0
 41
20.0
 42
20.0
 43
20.0
 50
270.0
  0
INSERT
  5
127A83
  8
SLIM
  2
*U37
 10
0.0
 20
0.0
 30
0.0
  0
LINE
  5
127A84
  8
DIM
 10
4665.0
 20
-696.0
 30
0.0
 11
4719.4245816727571
 21
-696.0
 31
0.0
  0
LINE
  5
127A85
  8
DIM
 10
4413.0
 20
-1136.0
 30
0.0
 11
4719.4245816727571
 21
-1136.0
 31
0.0
  0
LINE
  5
127A86
  8
DIM
 10
4709.4245816727562
 20
-716.0
 30
0.0
 11
4709.4245816727562
 21
-1116.0
 31
0.0
  0
INSERT
  5
127A87
  8
DIM
  2
_OPEN30
 10
4709.4245816727562
 20
-696.0
 30
0.0
 41
20.0
 42
20.0
 43
20.0
 50
90.0
  0
INSERT
  5
127A88
  8
DIM
  2
_OPEN30
 10
4709.4245816727562
 20
-1136.0
 30
0.0
 41
20.0
 42
20.0
 43
20.0
 50
270.0
  0
INSERT
  5
127A89
  8
SLIM
  2
*U38
 10
0.0
 20
0.0
 30
0.0
  0
LINE
  5
127A8A
  8
OBJECT
 10
4425.0
 20
-890.0
 30
0.0
 11
4425.0
 21
-1027.500000000065
 31
0.0
1001
ACDBBLOCKREPETAG
1070
     1
1071
        1
1005
127A8A
  0
LINE
  5
127A8B
  8
OBJECT
 10
4575.0
 20
-889.99999999999409
 30
0.0
 11
4575.0
 21
-1163.0
 31
0.0
1001
ACDBBLOCKREPETAG
1070
     1
1071
        3
1005
127A8B
  0
LINE
  5
127A8C
  8
CENTER
 10
4500.0
 20
-890.0
 30
0.0
 11
4500.0
 21
-1175.0
 31
0.0
1001
ACDBBLOCKREPETAG
1070
     1
1071
        6
1005
127A8C
  0
LINE
  5
127A8D
  8
OBJECT
 10
4420.0
 20
-1175.0
 30
0.0
 11
4580.0
 21
-1175.0
 31
0.0
1001
ACDBBLOCKREPETAG
1070
     1
1071
        7
1005
127A8D
  0
LINE
  5
127A8E
  8
OBJECT
 10
4420.0
 20
-1163.0
 30
0.0
 11
4580.0
 21
-1163.0
 31
0.0
1001
ACDBBLOCKREPETAG
1070
     1
1071
        8
1005
127A8E
  0
LINE
  5
127A8F
  8
OBJECT
 10
4420.0
 20
-1163.0
 30
0.0
 11
4420.0
 21
-1175.0
 31
0.0
1001
ACDBBLOCKREPETAG
1070
     1
1071
        9
1005
127A8F
  0
LINE
  5
127A90
  8
OBJECT
 10
4580.0
 20
-1163.0
 30
0.0
 11
4580.0
 21
-1175.0
 31
0.0
1001
ACDBBLOCKREPETAG
1070
     1
1071
       10
1005
127A90
  0
LINE
  5
127A91
  8
OBJECT
 10
4367.0
 20
-1029.0
 30
0.0
 11
4360.0
 21
-1029.0
 31
0.0
1001
ACDBBLOCKREPETAG
1070
     1
1071
       23
1005
127A91
  0
LINE
  5
127A92
  8
OBJECT
 10
4360.0
 20
-1029.0
 30
0.0
 11
4360.0
 21
-1136.0
 31
0.0
1001
ACDBBLOCKREPETAG
1070
     1
1071
       24
1005
127A92
  0
LINE
  5
127A93
  8
OBJECT
 10
4415.5
 20
-1030.500000000065
 30
0.0
 11
4415.5
 21
-1133.5
 31
0.0
1001
ACDBBLOCKREPETAG
1070
     1
1071
       25
1005
127A93
  0
ARC
  5
127A94
  8
OBJECT
 10
4418.5
 20
-1030.500000000065
 30
0.0
 40
3.0
 50
90.0
 51
180.0
1001
ACDBBLOCKREPETAG
1070
     1
1071
       26
1005
127A94
  0
LINE
  5
127A95
  8
OBJECT
 10
4367.0
 20
-1136.0
 30
0.0
 11
4367.0
 21
-1029.0
 31
0.0
1001
ACDBBLOCKREPETAG
1070
     1
1071
       27
1005
127A95
  0
LINE
  5
127A96
  8
CENTER
 10
4345.0
 20
-1084.0
 30
0.0
 11
4458.6550800869954
 21
-1084.000000000065
 31
0.0
1001
ACDBBLOCKREPETAG
1070
     1
1071
       28
1005
127A96
  0
LINE
  5
127A97
  8
OBJECT
 10
4367.0
 20
-1032.0
 30
0.0
 11
4403.0
 21
-1032.0
 31
0.0
1001
ACDBBLOCKREPETAG
1070
     1
1071
       29
1005
127A97
  0
LINE
  5
127A98
  8
OBJECT
 10
4403.0
 20
-1032.0
 30
0.0
 11
4403.0
 21
-1136.0
 31
0.0
1001
ACDBBLOCKREPETAG
1070
     1
1071
       30
1005
127A98
  0
LINE
  5
127A99
  8
OBJECT
 10
4403.0
 20
-1136.0
 30
0.0
 11
4360.0
 21
-1136.0
 31
0.0
1001
ACDBBLOCKREPETAG
1070
     1
1071
       31
1005
127A99
  0
LINE
  5
127A9A
  8
OBJECT
 10
4407.0
 20
-1036.5
 30
0.0
 11
4415.5
 21
-1036.5
 31
0.0
1001
ACDBBLOCKREPETAG
1070
     1
1071
       32
1005
127A9A
  0
LINE
  5
127A9B
  8
OBJECT
 10
4415.5
 20
-1131.5
 30
0.0
 11
4407.0
 21
-1131.5
 31
0.0
1001
ACDBBLOCKREPETAG
1070
     1
1071
       33
1005
127A9B
  0
LINE
  5
127A9C
  8
OBJECT
 10
4407.0
 20
-1131.5
 30
0.0
 11
4407.0
 21
-1036.5
 31
0.0
1001
ACDBBLOCKREPETAG
1070
     1
1071
       34
1005
127A9C
  0
LINE
  5
127A9D
  8
OBJECT
 10
4403.0
 20
-1032.0
 30
0.0
 11
4407.0
 21
-1036.5
 31
0.0
1001
ACDBBLOCKREPETAG
1070
     1
1071
       35
1005
127A9D
  0
LINE
  5
127A9E
  8
OBJECT
 10
4403.0
 20
-1136.0
 30
0.0
 11
4407.0
 21
-1131.5
 31
0.0
1001
ACDBBLOCKREPETAG
1070
     1
1071
       36
1005
127A9E
  0
LINE
  5
127A9F
  8
HIDDEN
 10
4412.0
 20
-1046.0
 30
0.0
 11
4412.0
 21
-1122.0
 31
0.0
1001
ACDBBLOCKREPETAG
1070
     1
1071
       37
1005
127A9F
  0
ARC
  5
127AA0
  8
OBJECT
 10
4335.1217271212254
 20
-1092.409507261229
 30
0.0
 40
110.86635228309
 50
16.95964619565439
 51
35.836572580695218
1001
ACDBBLOCKREPETAG
1070
     1
1071
       38
1005
127AA0
  0
ARC
  5
127AA1
  8
OBJECT
 10
4382.8640112230942
 20
-1077.287749718449
 30
0.0
 40
60.791749880358971
 50
0.2712030171733432
 51
16.452795347786878
1001
ACDBBLOCKREPETAG
1070
     1
1071
       39
1005
127AA1
  0
ARC
  5
127AA2
  8
OBJECT
 10
4382.8640043437499
 20
-1083.7122497599
 30
0.0
 40
60.79175676209487
 50
343.54722053947972
 51
359.7287965218548
1001
ACDBBLOCKREPETAG
1070
     1
1071
       40
1005
127AA2
  0
ARC
  5
127AA3
  8
OBJECT
 10
4335.1217271212254
 20
-1068.590492738836
 30
0.0
 40
110.8663522830916
 50
324.16342741930481
 51
343.04035380434561
1001
ACDBBLOCKREPETAG
1070
     1
1071
       41
1005
127AA3
  0
LINE
  5
127AA4
  8
OBJECT
 10
4443.6550800869954
 20
-1077.0000000000359
 30
0.0
 11
4443.6550800869954
 21
-1084.000000000033
 31
0.0
1001
ACDBBLOCKREPETAG
1070
     1
1071
       42
1005
127AA4
  0
LINE
  5
127AA5
  8
OBJECT
 10
4425.0
 20
-1027.500000000065
 30
0.0
 11
4418.5
 21
-1027.500000000065
 31
0.0
1001
ACDBBLOCKREPETAG
1070
     1
1071
       43
1005
127AA5
  0
LINE
  5
127AA6
  8
OBJECT
 10
4425.0
 20
-1133.5
 30
0.0
 11
4415.5
 21
-1133.5
 31
0.0
1001
ACDBBLOCKREPETAG
1070
     1
1071
       44
1005
127AA6
  0
LINE
  5
127AA7
  8
OBJECT
 10
4425.0
 20
-1133.5
 30
0.0
 11
4425.0
 21
-1163.0
 31
0.0
1001
ACDBBLOCKREPETAG
1070
     1
1071
        1
1005
127A8A
  0
POINT
  5
127AA8
  8
DOTS
 10
4500.0
 20
-1136.0
 30
0.0
  0
LINE
  5
127AA9
  8
OBJECT
 10
2425.0
 20
-890.0
 30
0.0
 11
2425.0
 21
-1027.500000000065
 31
0.0
1001
ACDBBLOCKREPETAG
1070
     1
1071
        1
1005
127AA9
  0
LINE
  5
127AAA
  8
OBJECT
 10
2575.0
 20
-889.99999999999409
 30
0.0
 11
2575.0
 21
-1163.0
 31
0.0
1001
ACDBBLOCKREPETAG
1070
     1
1071
        3
1005
127AAA
  0
LINE
  5
127AAB
  8
CENTER
 10
2500.0
 20
-890.0
 30
0.0
 11
2500.0
 21
-1175.0
 31
0.0
1001
ACDBBLOCKREPETAG
1070
     1
1071
        6
1005
127AAB
  0
LINE
  5
127AAC
  8
OBJECT
 10
2420.0
 20
-1175.0
 30
0.0
 11
2580.0
 21
-1175.0
 31
0.0
1001
ACDBBLOCKREPETAG
1070
     1
1071
        7
1005
127AAC
  0
LINE
  5
127AAD
  8
OBJECT
 10
2420.0
 20
-1163.0
 30
0.0
 11
2580.0
 21
-1163.0
 31
0.0
1001
ACDBBLOCKREPETAG
1070
     1
1071
        8
1005
127AAD
  0
LINE
  5
127AAE
  8
OBJECT
 10
2420.0
 20
-1163.0
 30
0.0
 11
2420.0
 21
-1175.0
 31
0.0
1001
ACDBBLOCKREPETAG
1070
     1
1071
        9
1005
127AAE
  0
LINE
  5
127AAF
  8
OBJECT
 10
2580.0
 20
-1163.0
 30
0.0
 11
2580.0
 21
-1175.0
 31
0.0
1001
ACDBBLOCKREPETAG
1070
     1
1071
       10
1005
127AAF
  0
LINE
  5
127AB0
  8
OBJECT
 10
2367.0
 20
-1029.0
 30
0.0
 11
2360.0
 21
-1029.0
 31
0.0
1001
ACDBBLOCKREPETAG
1070
     1
1071
       23
1005
127AB0
  0
LINE
  5
127AB1
  8
OBJECT
 10
2360.0
 20
-1029.0
 30
0.0
 11
2360.0
 21
-1136.0
 31
0.0
1001
ACDBBLOCKREPETAG
1070
     1
1071
       24
1005
127AB1
  0
LINE
  5
127AB2
  8
OBJECT
 10
2415.5
 20
-1030.500000000065
 30
0.0
 11
2415.5
 21
-1133.5
 31
0.0
1001
ACDBBLOCKREPETAG
1070
     1
1071
       25
1005
127AB2
  0
ARC
  5
127AB3
  8
OBJECT
 10
2418.5
 20
-1030.500000000065
 30
0.0
 40
3.0
 50
90.0
 51
180.0
1001
ACDBBLOCKREPETAG
1070
     1
1071
       26
1005
127AB3
  0
LINE
  5
127AB4
  8
OBJECT
 10
2367.0
 20
-1136.0
 30
0.0
 11
2367.0
 21
-1029.0
 31
0.0
1001
ACDBBLOCKREPETAG
1070
     1
1071
       27
1005
127AB4
  0
LINE
  5
127AB5
  8
CENTER
 10
2345.0
 20
-1084.0
 30
0.0
 11
2458.655080086995
 21
-1084.000000000065
 31
0.0
1001
ACDBBLOCKREPETAG
1070
     1
1071
       28
1005
127AB5
  0
LINE
  5
127AB6
  8
OBJECT
 10
2367.0
 20
-1032.0
 30
0.0
 11
2403.0
 21
-1032.0
 31
0.0
1001
ACDBBLOCKREPETAG
1070
     1
1071
       29
1005
127AB6
  0
LINE
  5
127AB7
  8
OBJECT
 10
2403.0
 20
-1032.0
 30
0.0
 11
2403.0
 21
-1136.0
 31
0.0
1001
ACDBBLOCKREPETAG
1070
     1
1071
       30
1005
127AB7
  0
LINE
  5
127AB8
  8
OBJECT
 10
2403.0
 20
-1136.0
 30
0.0
 11
2360.0
 21
-1136.0
 31
0.0
1001
ACDBBLOCKREPETAG
1070
     1
1071
       31
1005
127AB8
  0
LINE
  5
127AB9
  8
OBJECT
 10
2407.0
 20
-1036.5
 30
0.0
 11
2415.5
 21
-1036.5
 31
0.0
1001
ACDBBLOCKREPETAG
1070
     1
1071
       32
1005
127AB9
  0
LINE
  5
127ABA
  8
OBJECT
 10
2415.5
 20
-1131.5
 30
0.0
 11
2407.0
 21
-1131.5
 31
0.0
1001
ACDBBLOCKREPETAG
1070
     1
1071
       33
1005
127ABA
  0
LINE
  5
127ABB
  8
OBJECT
 10
2407.0
 20
-1131.5
 30
0.0
 11
2407.0
 21
-1036.5
 31
0.0
1001
ACDBBLOCKREPETAG
1070
     1
1071
       34
1005
127ABB
  0
LINE
  5
127ABC
  8
OBJECT
 10
2403.0
 20
-1032.0
 30
0.0
 11
2407.0
 21
-1036.5
 31
0.0
1001
ACDBBLOCKREPETAG
1070
     1
1071
       35
1005
127ABC
  0
LINE
  5
127ABD
  8
OBJECT
 10
2403.0
 20
-1136.0
 30
0.0
 11
2407.0
 21
-1131.5
 31
0.0
1001
ACDBBLOCKREPETAG
1070
     1
1071
       36
1005
127ABD
  0
LINE
  5
127ABE
  8
HIDDEN
 10
2412.0
 20
-1046.0
 30
0.0
 11
2412.0
 21
-1122.0
 31
0.0
1001
ACDBBLOCKREPETAG
1070
     1
1071
       37
1005
127ABE
  0
ARC
  5
127ABF
  8
OBJECT
 10
2335.1217271212249
 20
-1092.409507261229
 30
0.0
 40
110.86635228309
 50
16.959646195661989
 51
35.836572580695218
1001
ACDBBLOCKREPETAG
1070
     1
1071
       38
1005
127ABF
  0
ARC
  5
127AC0
  8
OBJECT
 10
2382.8640112230928
 20
-1077.287749718449
 30
0.0
 40
60.791749880358971
 50
0.2712030171732199
 51
16.452795347779499
1001
ACDBBLOCKREPETAG
1070
     1
1071
       39
1005
127AC0
  0
ARC
  5
127AC1
  8
OBJECT
 10
2382.8640043437531
 20
-1083.7122497599
 30
0.0
 40
60.79175676209487
 50
343.54722053947239
 51
359.72879652185469
1001
ACDBBLOCKREPETAG
1070
     1
1071
       40
1005
127AC1
  0
ARC
  5
127AC2
  8
OBJECT
 10
2335.1217271212249
 20
-1068.590492738836
 30
0.0
 40
110.8663522830916
 50
324.16342741930481
 51
343.040353804338
1001
ACDBBLOCKREPETAG
1070
     1
1071
       41
1005
127AC2
  0
LINE
  5
127AC3
  8
OBJECT
 10
2443.6550800869959
 20
-1077.0000000000359
 30
0.0
 11
2443.6550800869959
 21
-1084.000000000033
 31
0.0
1001
ACDBBLOCKREPETAG
1070
     1
1071
       42
1005
127AC3
  0
LINE
  5
127AC4
  8
OBJECT
 10
2425.0
 20
-1027.500000000065
 30
0.0
 11
2418.5
 21
-1027.500000000065
 31
0.0
1001
ACDBBLOCKREPETAG
1070
     1
1071
       43
1005
127AC4
  0
LINE
  5
127AC5
  8
OBJECT
 10
2425.0
 20
-1133.5
 30
0.0
 11
2415.5
 21
-1133.5
 31
0.0
1001
ACDBBLOCKREPETAG
1070
     1
1071
       44
1005
127AC5
  0
LINE
  5
127AC6
  8
OBJECT
 10
2425.0
 20
-1133.5
 30
0.0
 11
2425.0
 21
-1163.0
 31
0.0
1001
ACDBBLOCKREPETAG
1070
     1
1071
        1
1005
127AA9
  0
POINT
  5
127AC7
  8
DOTS
 10
2500.0
 20
-1136.0
 30
0.0
  0
LINE
  5
127AC8
  8
DIM
 10
2665.0
 20
-696.0
 30
0.0
 11
2719.424581672758
 21
-696.0
 31
0.0
  0
LINE
  5
127AC9
  8
DIM
 10
2413.0
 20
-1136.0
 30
0.0
 11
2719.4245816727562
 21
-1136.0
 31
0.0
  0
LINE
  5
127ACA
  8
DIM
 10
2709.4245816727571
 20
-716.0
 30
0.0
 11
2709.4245816727562
 21
-1116.0
 31
0.0
  0
INSERT
  5
127ACB
  8
DIM
  2
_OPEN30
 10
2709.4245816727571
 20
-696.0
 30
0.0
 41
20.0
 42
20.0
 43
20.0
 50
90.0
  0
INSERT
  5
127ACC
  8
DIM
  2
_OPEN30
 10
2709.4245816727562
 20
-1136.0
 30
0.0
 41
20.0
 42
20.0
 43
20.0
 50
270.0
  0
INSERT
  5
127ACD
  8
SLIM
  2
*U39
 10
0.0
 20
0.0
 30
0.0
  0
LINE
  5
127ACE
  8
CENTER
 10
4977.0
 20
-3805.9999999999968
 30
0.0
 11
4823.0
 21
-3805.9999999999968
 31
0.0
1001
ACDBBLOCKREPETAG
1070
     1
1071
       17
1005
127ACE
  0
CIRCLE
  5
127ACF
  8
OBJECT
 10
4900.0
 20
-3805.9999999999968
 30
0.0
 40
41.5
1001
ACDBBLOCKREPETAG
1070
     1
1071
       18
1005
127ACF
  0
CIRCLE
  5
127AD0
  8
OBJECT
 10
4900.0
 20
-3805.9999999999968
 30
0.0
 40
54.0
1001
ACDBBLOCKREPETAG
1070
     1
1071
       19
1005
127AD0
  0
ARC
  5
127AD1
  8
OBJECT
 10
4900.0
 20
-3805.9999999999968
 30
0.0
 40
62.0
 50
287.89655112921122
 51
252.1034488707887
1001
ACDBBLOCKREPETAG
1070
     1
1071
       20
1005
127AD1
  0
LINE
  5
127AD2
  8
OBJECT
 10
4880.947441116743
 20
-3864.9999999999968
 30
0.0
 11
4919.052558883257
 21
-3864.9999999999968
 31
0.0
1001
ACDBBLOCKREPETAG
1070
     1
1071
       21
1005
127AD2
  0
POINT
  5
127AD3
  8
DOTS
 10
4900.0
 20
-3864.9999999999968
 30
0.0
1001
ACDBBLOCKREPETAG
1070
     1
1071
       23
1005
127AD3
  0
LINE
  5
127AD4
  8
OBJECT
 10
4633.0
 20
-3743.9999999999959
 30
0.0
 11
4640.0
 21
-3743.9999999999959
 31
0.0
1001
ACDBBLOCKREPETAG
1070
     1
1071
       46
1005
127AD4
  0
LINE
  5
127AD5
  8
OBJECT
 10
4640.0
 20
-3743.9999999999959
 30
0.0
 11
4640.0
 21
-3864.9999999999968
 31
0.0
1001
ACDBBLOCKREPETAG
1070
     1
1071
       47
1005
127AD5
  0
LINE
  5
127AD6
  8
OBJECT
 10
4633.0
 20
-3864.9999999999968
 30
0.0
 11
4633.0
 21
-3743.9999999999959
 31
0.0
1001
ACDBBLOCKREPETAG
1070
     1
1071
       48
1005
127AD6
  0
LINE
  5
127AD7
  8
CENTER
 10
4655.0
 20
-3805.9999999999968
 30
0.0
 11
4541.3449199130037
 21
-3806.0000000000618
 31
0.0
1001
ACDBBLOCKREPETAG
1070
     1
1071
       49
1005
127AD7
  0
LINE
  5
127AD8
  8
OBJECT
 10
4633.0
 20
-3746.9999999999959
 30
0.0
 11
4597.0
 21
-3746.9999999999959
 31
0.0
1001
ACDBBLOCKREPETAG
1070
     1
1071
       50
1005
127AD8
  0
LINE
  5
127AD9
  8
OBJECT
 10
4597.0
 20
-3746.9999999999959
 30
0.0
 11
4597.0
 21
-3864.9999999999968
 31
0.0
1001
ACDBBLOCKREPETAG
1070
     1
1071
       51
1005
127AD9
  0
LINE
  5
127ADA
  8
OBJECT
 10
4597.0
 20
-3864.9999999999968
 30
0.0
 11
4640.0
 21
-3864.9999999999968
 31
0.0
1001
ACDBBLOCKREPETAG
1070
     1
1071
       52
1005
127ADA
  0
LINE
  5
127ADB
  8
OBJECT
 10
4593.0
 20
-3751.4999999999959
 30
0.0
 11
4582.5
 21
-3751.4999999999959
 31
0.0
1001
ACDBBLOCKREPETAG
1070
     1
1071
       53
1005
127ADB
  0
LINE
  5
127ADC
  8
OBJECT
 10
4582.5
 20
-3860.4999999999959
 30
0.0
 11
4593.0
 21
-3860.4999999999959
 31
0.0
1001
ACDBBLOCKREPETAG
1070
     1
1071
       54
1005
127ADC
  0
LINE
  5
127ADD
  8
OBJECT
 10
4593.0
 20
-3860.4999999999959
 30
0.0
 11
4593.0
 21
-3751.4999999999959
 31
0.0
1001
ACDBBLOCKREPETAG
1070
     1
1071
       55
1005
127ADD
  0
LINE
  5
127ADE
  8
OBJECT
 10
4597.0
 20
-3746.9999999999959
 30
0.0
 11
4593.0
 21
-3751.4999999999959
 31
0.0
1001
ACDBBLOCKREPETAG
1070
     1
1071
       56
1005
127ADE
  0
LINE
  5
127ADF
  8
OBJECT
 10
4597.0
 20
-3864.9999999999968
 30
0.0
 11
4593.0
 21
-3860.4999999999959
 31
0.0
1001
ACDBBLOCKREPETAG
1070
     1
1071
       57
1005
127ADF
  0
LINE
  5
127AE0
  8
HIDDEN
 10
4588.0
 20
-3761.4999999999968
 30
0.0
 11
4588.0
 21
-3850.4999999999968
 31
0.0
1001
ACDBBLOCKREPETAG
1070
     1
1071
       58
1005
127AE0
  0
ARC
  5
127AE1
  8
OBJECT
 10
4664.8782728787719
 20
-3821.4095072612249
 30
0.0
 40
110.86635228309
 50
144.16342741928889
 51
163.04035380433939
1001
ACDBBLOCKREPETAG
1070
     1
1071
       59
1005
127AE1
  0
ARC
  5
127AE2
  8
OBJECT
 10
4617.1359887769049
 20
-3806.287749718445
 30
0.0
 40
60.791749880358971
 50
163.54720465221931
 51
179.72879698282651
1001
ACDBBLOCKREPETAG
1070
     1
1071
       60
1005
127AE2
  0
ARC
  5
127AE3
  8
OBJECT
 10
4617.1359956562483
 20
-3812.7122497598971
 30
0.0
 40
60.79175676209487
 50
180.2712034781452
 51
196.4527794605265
1001
ACDBBLOCKREPETAG
1070
     1
1071
       61
1005
127AE3
  0
ARC
  5
127AE4
  8
OBJECT
 10
4664.8782728787719
 20
-3797.5904927388328
 30
0.0
 40
110.8663522830916
 50
196.9596461956605
 51
215.83657258071111
1001
ACDBBLOCKREPETAG
1070
     1
1071
       62
1005
127AE4
  0
LINE
  5
127AE5
  8
OBJECT
 10
4556.3449199130037
 20
-3806.0000000000332
 30
0.0
 11
4556.3449199130037
 21
-3813.0000000000291
 31
0.0
1001
ACDBBLOCKREPETAG
1070
     1
1071
       63
1005
127AE5
  0
LINE
  5
127AE6
  8
OBJECT
 10
4574.9999999998336
 20
-3756.500000000291
 30
0.0
 11
4577.4999999998363
 21
-3756.500000000291
 31
0.0
1001
ACDBBLOCKREPETAG
1070
     1
1071
       65
1005
127AE6
  0
LINE
  5
127AE7
  8
OBJECT
 10
4574.9999999998327
 20
-3862.4999999997672
 30
0.0
 11
4579.4999999998308
 21
-3862.4999999997672
 31
0.0
1001
ACDBBLOCKREPETAG
1070
     1
1071
       66
1005
127AE7
  0
LINE
  5
127AE8
  8
OBJECT
 10
4579.4999999998308
 20
-3862.4999999997672
 30
0.0
 11
4577.4999999998363
 21
-3756.500000000291
 31
0.0
1001
ACDBBLOCKREPETAG
1070
     1
1071
       67
1005
127AE8
  0
LINE
  5
127AE9
  8
OBJECT
 10
4579.4999999998308
 20
-3862.4999999997672
 30
0.0
 11
4582.5
 21
-3860.4999999999959
 31
0.0
1001
ACDBBLOCKREPETAG
1070
     1
1071
       68
1005
127AE9
  0
LINE
  5
127AEA
  8
OBJECT
 10
4582.5
 20
-3860.4999999999959
 30
0.0
 11
4582.5
 21
-3751.4999999999959
 31
0.0
1001
ACDBBLOCKREPETAG
1070
     1
1071
       69
1005
127AEA
  0
LINE
  5
127AEB
  8
OBJECT
 10
4582.5
 20
-3751.4999999999959
 30
0.0
 11
4577.4999999998363
 21
-3756.500000000291
 31
0.0
1001
ACDBBLOCKREPETAG
1070
     1
1071
       70
1005
127AEB
  0
LINE
  5
127AEC
  8
OBJECT
 10
4633.0000000000009
 20
-3397.9999999999959
 30
0.0
 11
4640.0000000000018
 21
-3397.9999999999959
 31
0.0
1001
ACDBBLOCKREPETAG
1070
     1
1071
       38
1005
127AEC
  0
LINE
  5
127AED
  8
OBJECT
 10
4640.0000000000018
 20
-3397.9999999999959
 30
0.0
 11
4640.0
 21
-3521.9999999999968
 31
0.0
1001
ACDBBLOCKREPETAG
1070
     1
1071
       39
1005
127AED
  0
LINE
  5
127AEE
  8
OBJECT
 10
4640.0
 20
-3521.9999999999968
 30
0.0
 11
4633.0
 21
-3521.9999999999968
 31
0.0
1001
ACDBBLOCKREPETAG
1070
     1
1071
       40
1005
127AEE
  0
LINE
  5
127AEF
  8
OBJECT
 10
4633.0
 20
-3521.9999999999968
 30
0.0
 11
4633.0000000000009
 21
-3397.9999999999959
 31
0.0
1001
ACDBBLOCKREPETAG
1070
     1
1071
       41
1005
127AEF
  0
LINE
  5
127AF0
  8
CENTER
 10
4655.0
 20
-3459.9999999999968
 30
0.0
 11
4580.0
 21
-3459.9999999999968
 31
0.0
1001
ACDBBLOCKREPETAG
1070
     1
1071
       42
1005
127AF0
  0
LINE
  5
127AF1
  8
OBJECT
 10
4633.0000000000009
 20
-3400.9999999999959
 30
0.0
 11
4597.0000000000018
 21
-3400.9999999999959
 31
0.0
1001
ACDBBLOCKREPETAG
1070
     1
1071
       43
1005
127AF1
  0
LINE
  5
127AF2
  8
OBJECT
 10
4597.0000000000018
 20
-3400.9999999999959
 30
0.0
 11
4597.0
 21
-3518.9999999999968
 31
0.0
1001
ACDBBLOCKREPETAG
1070
     1
1071
       44
1005
127AF2
  0
LINE
  5
127AF3
  8
OBJECT
 10
4597.0
 20
-3518.9999999999968
 30
0.0
 11
4633.0
 21
-3518.9999999999968
 31
0.0
1001
ACDBBLOCKREPETAG
1070
     1
1071
       45
1005
127AF3
  0
LINE
  5
127AF4
  8
OBJECT
 10
4593.0000000000018
 20
-3405.4999999999959
 30
0.0
 11
4582.5000000000018
 21
-3405.4999999999959
 31
0.0
1001
ACDBBLOCKREPETAG
1070
     1
1071
       46
1005
127AF4
  0
LINE
  5
127AF5
  8
OBJECT
 10
4582.5
 20
-3514.4999999999968
 30
0.0
 11
4593.0
 21
-3514.4999999999968
 31
0.0
1001
ACDBBLOCKREPETAG
1070
     1
1071
       47
1005
127AF5
  0
LINE
  5
127AF6
  8
OBJECT
 10
4593.0
 20
-3514.4999999999968
 30
0.0
 11
4593.0000000000018
 21
-3405.4999999999959
 31
0.0
1001
ACDBBLOCKREPETAG
1070
     1
1071
       48
1005
127AF6
  0
LINE
  5
127AF7
  8
OBJECT
 10
4597.0000000000018
 20
-3400.9999999999959
 30
0.0
 11
4593.0000000000018
 21
-3405.4999999999959
 31
0.0
1001
ACDBBLOCKREPETAG
1070
     1
1071
       49
1005
127AF7
  0
LINE
  5
127AF8
  8
OBJECT
 10
4597.0
 20
-3518.9999999999968
 30
0.0
 11
4593.0
 21
-3514.4999999999968
 31
0.0
1001
ACDBBLOCKREPETAG
1070
     1
1071
       50
1005
127AF8
  0
LINE
  5
127AF9
  8
HIDDEN
 10
4588.0
 20
-3415.4999999999968
 30
0.0
 11
4588.0
 21
-3504.4999999999968
 31
0.0
1001
ACDBBLOCKREPETAG
1070
     1
1071
       51
1005
127AF9
  0
LINE
  5
127AFA
  8
OBJECT
 10
4577.5000000000018
 20
-3410.4999999999959
 30
0.0
 11
4556.3449199129791
 21
-3410.4999999999959
 31
0.0
1001
ACDBBLOCKREPETAG
1070
     1
1071
       52
1005
127AFA
  0
LINE
  5
127AFB
  8
OBJECT
 10
4577.4999999999991
 20
-3509.4999999999959
 30
0.0
 11
4556.3449199129791
 21
-3509.4999999999959
 31
0.0
1001
ACDBBLOCKREPETAG
1070
     1
1071
       53
1005
127AFB
  0
LINE
  5
127AFC
  8
OBJECT
 10
4582.5000000000018
 20
-3405.4999999999959
 30
0.0
 11
4582.5
 21
-3514.4999999999968
 31
0.0
1001
ACDBBLOCKREPETAG
1070
     1
1071
       54
1005
127AFC
  0
LINE
  5
127AFD
  8
OBJECT
 10
4577.5000000000018
 20
-3410.4999999999959
 30
0.0
 11
4577.4999999999991
 21
-3509.4999999999959
 31
0.0
1001
ACDBBLOCKREPETAG
1070
     1
1071
       55
1005
127AFD
  0
LINE
  5
127AFE
  8
OBJECT
 10
4582.5000000000018
 20
-3405.4999999999959
 30
0.0
 11
4577.5000000000018
 21
-3410.4999999999959
 31
0.0
1001
ACDBBLOCKREPETAG
1070
     1
1071
       56
1005
127AFE
  0
LINE
  5
127AFF
  8
OBJECT
 10
4577.4999999999991
 20
-3509.4999999999959
 30
0.0
 11
4582.5
 21
-3514.4999999999932
 31
0.0
1001
ACDBBLOCKREPETAG
1070
     1
1071
       57
1005
127AFF
  0
CIRCLE
  5
127B00
  8
OBJECT
 10
3900.0
 20
-3812.9999999999968
 30
0.0
 40
35.5
1001
ACDBBLOCKREPETAG
1070
     1
1071
       11
1005
127B00
  0
LINE
  5
127B01
  8
CENTER
 10
3830.0
 20
-3812.9999999999968
 30
0.0
 11
3970.0
 21
-3812.9999999999968
 31
0.0
1001
ACDBBLOCKREPETAG
1070
     1
1071
       12
1005
127B01
  0
CIRCLE
  5
127B02
  8
OBJECT
 10
3900.0
 20
-3812.9999999999968
 30
0.0
 40
47.0
1001
ACDBBLOCKREPETAG
1070
     1
1071
       14
1005
127B02
  0
ARC
  5
127B03
  8
OBJECT
 10
3900.0
 20
-3812.9999999999968
 30
0.0
 40
55.0
 50
289.01126526008892
 51
250.98873473991111
1001
ACDBBLOCKREPETAG
1070
     1
1071
       15
1005
127B03
  0
LINE
  5
127B04
  8
OBJECT
 10
3882.0835271328319
 20
-3864.9999999999968
 30
0.0
 11
3917.9164728671672
 21
-3864.9999999999968
 31
0.0
1001
ACDBBLOCKREPETAG
1070
     1
1071
       16
1005
127B04
  0
POINT
  5
127B05
  8
DOTS
 10
3900.0
 20
-3864.9999999999968
 30
0.0
1001
ACDBBLOCKREPETAG
1070
     1
1071
       24
1005
127B05
  0
LINE
  5
127B06
  8
OBJECT
 10
3633.0
 20
-3757.9999999999959
 30
0.0
 11
3640.0
 21
-3757.9999999999959
 31
0.0
1001
ACDBBLOCKREPETAG
1070
     1
1071
       23
1005
127B06
  0
LINE
  5
127B07
  8
OBJECT
 10
3640.0
 20
-3757.9999999999959
 30
0.0
 11
3640.0
 21
-3864.9999999999968
 31
0.0
1001
ACDBBLOCKREPETAG
1070
     1
1071
       24
1005
127B07
  0
LINE
  5
127B08
  8
OBJECT
 10
3584.5
 20
-3759.5000000000618
 30
0.0
 11
3584.5
 21
-3862.4999999999968
 31
0.0
1001
ACDBBLOCKREPETAG
1070
     1
1071
       25
1005
127B08
  0
ARC
  5
127B09
  8
OBJECT
 10
3581.5
 20
-3759.5000000000618
 30
0.0
 40
3.0
 50
0.0
 51
90.0
1001
ACDBBLOCKREPETAG
1070
     1
1071
       26
1005
127B09
  0
LINE
  5
127B0A
  8
OBJECT
 10
3633.0
 20
-3864.9999999999968
 30
0.0
 11
3633.0
 21
-3757.9999999999959
 31
0.0
1001
ACDBBLOCKREPETAG
1070
     1
1071
       27
1005
127B0A
  0
LINE
  5
127B0B
  8
CENTER
 10
3655.0
 20
-3812.9999999999968
 30
0.0
 11
3541.3449199130041
 21
-3813.0000000000618
 31
0.0
1001
ACDBBLOCKREPETAG
1070
     1
1071
       28
1005
127B0B
  0
LINE
  5
127B0C
  8
OBJECT
 10
3633.0
 20
-3760.9999999999968
 30
0.0
 11
3597.0
 21
-3760.9999999999968
 31
0.0
1001
ACDBBLOCKREPETAG
1070
     1
1071
       29
1005
127B0C
  0
LINE
  5
127B0D
  8
OBJECT
 10
3597.0
 20
-3760.9999999999968
 30
0.0
 11
3597.0
 21
-3864.9999999999968
 31
0.0
1001
ACDBBLOCKREPETAG
1070
     1
1071
       30
1005
127B0D
  0
LINE
  5
127B0E
  8
OBJECT
 10
3597.0
 20
-3864.9999999999968
 30
0.0
 11
3640.0
 21
-3864.9999999999968
 31
0.0
1001
ACDBBLOCKREPETAG
1070
     1
1071
       31
1005
127B0E
  0
LINE
  5
127B0F
  8
OBJECT
 10
3593.0
 20
-3765.4999999999968
 30
0.0
 11
3584.5
 21
-3765.4999999999968
 31
0.0
1001
ACDBBLOCKREPETAG
1070
     1
1071
       32
1005
127B0F
  0
LINE
  5
127B10
  8
OBJECT
 10
3584.5
 20
-3860.4999999999959
 30
0.0
 11
3593.0
 21
-3860.4999999999959
 31
0.0
1001
ACDBBLOCKREPETAG
1070
     1
1071
       33
1005
127B10
  0
LINE
  5
127B11
  8
OBJECT
 10
3593.0
 20
-3860.4999999999959
 30
0.0
 11
3593.0
 21
-3765.4999999999968
 31
0.0
1001
ACDBBLOCKREPETAG
1070
     1
1071
       34
1005
127B11
  0
LINE
  5
127B12
  8
OBJECT
 10
3597.0
 20
-3760.9999999999968
 30
0.0
 11
3593.0
 21
-3765.4999999999968
 31
0.0
1001
ACDBBLOCKREPETAG
1070
     1
1071
       35
1005
127B12
  0
LINE
  5
127B13
  8
OBJECT
 10
3597.0
 20
-3864.9999999999968
 30
0.0
 11
3593.0
 21
-3860.4999999999959
 31
0.0
1001
ACDBBLOCKREPETAG
1070
     1
1071
       36
1005
127B13
  0
LINE
  5
127B14
  8
HIDDEN
 10
3588.0
 20
-3774.9999999999968
 30
0.0
 11
3588.0
 21
-3850.9999999999959
 31
0.0
1001
ACDBBLOCKREPETAG
1070
     1
1071
       37
1005
127B14
  0
ARC
  5
127B15
  8
OBJECT
 10
3664.8782728787742
 20
-3821.4095072612249
 30
0.0
 40
110.86635228309
 50
144.16342741928889
 51
163.04035380433169
1001
ACDBBLOCKREPETAG
1070
     1
1071
       38
1005
127B15
  0
ARC
  5
127B16
  8
OBJECT
 10
3617.1359887769072
 20
-3806.287749718445
 30
0.0
 40
60.791749880358971
 50
163.5472046522267
 51
179.72879698282679
1001
ACDBBLOCKREPETAG
1070
     1
1071
       39
1005
127B16
  0
ARC
  5
127B17
  8
OBJECT
 10
3617.1359956562478
 20
-3812.7122497598971
 30
0.0
 40
60.79175676209487
 50
180.2712034781452
 51
196.4527794605338
1001
ACDBBLOCKREPETAG
1070
     1
1071
       40
1005
127B17
  0
ARC
  5
127B18
  8
OBJECT
 10
3664.8782728787742
 20
-3797.5904927388328
 30
0.0
 40
110.8663522830916
 50
196.95964619566811
 51
215.83657258071111
1001
ACDBBLOCKREPETAG
1070
     1
1071
       41
1005
127B18
  0
LINE
  5
127B19
  8
OBJECT
 10
3556.3449199130041
 20
-3806.0000000000332
 30
0.0
 11
3556.3449199130041
 21
-3813.0000000000291
 31
0.0
1001
ACDBBLOCKREPETAG
1070
     1
1071
       42
1005
127B19
  0
LINE
  5
127B1A
  8
OBJECT
 10
3574.9999999999991
 20
-3756.5000000000618
 30
0.0
 11
3581.5
 21
-3756.5000000000618
 31
0.0
1001
ACDBBLOCKREPETAG
1070
     1
1071
       43
1005
127B1A
  0
LINE
  5
127B1B
  8
OBJECT
 10
3574.9999999999991
 20
-3862.4999999999968
 30
0.0
 11
3584.5
 21
-3862.4999999999968
 31
0.0
1001
ACDBBLOCKREPETAG
1070
     1
1071
       44
1005
127B1B
  0
LINE
  5
127B1C
  8
OBJECT
 10
3633.0
 20
-3404.9999999999959
 30
0.0
 11
3640.0
 21
-3404.9999999999959
 31
0.0
1001
ACDBBLOCKREPETAG
1070
     1
1071
       20
1005
127B1C
  0
LINE
  5
127B1D
  8
OBJECT
 10
3640.0
 20
-3404.9999999999959
 30
0.0
 11
3640.0
 21
-3514.9999999999968
 31
0.0
1001
ACDBBLOCKREPETAG
1070
     1
1071
       21
1005
127B1D
  0
LINE
  5
127B1E
  8
OBJECT
 10
3640.0
 20
-3514.9999999999968
 30
0.0
 11
3633.0
 21
-3514.9999999999968
 31
0.0
1001
ACDBBLOCKREPETAG
1070
     1
1071
       22
1005
127B1E
  0
LINE
  5
127B1F
  8
OBJECT
 10
3633.0
 20
-3514.9999999999968
 30
0.0
 11
3633.0
 21
-3404.9999999999959
 31
0.0
1001
ACDBBLOCKREPETAG
1070
     1
1071
       23
1005
127B1F
  0
LINE
  5
127B20
  8
CENTER
 10
3655.0
 20
-3459.9999999999968
 30
0.0
 11
3580.0
 21
-3459.9999999999968
 31
0.0
1001
ACDBBLOCKREPETAG
1070
     1
1071
       24
1005
127B20
  0
LINE
  5
127B21
  8
OBJECT
 10
3633.0
 20
-3407.9999999999959
 30
0.0
 11
3597.0
 21
-3407.9999999999959
 31
0.0
1001
ACDBBLOCKREPETAG
1070
     1
1071
       25
1005
127B21
  0
LINE
  5
127B22
  8
OBJECT
 10
3597.0
 20
-3407.9999999999959
 30
0.0
 11
3597.0
 21
-3511.9999999999959
 31
0.0
1001
ACDBBLOCKREPETAG
1070
     1
1071
       26
1005
127B22
  0
LINE
  5
127B23
  8
OBJECT
 10
3597.0
 20
-3511.9999999999959
 30
0.0
 11
3633.0
 21
-3511.9999999999959
 31
0.0
1001
ACDBBLOCKREPETAG
1070
     1
1071
       27
1005
127B23
  0
LINE
  5
127B24
  8
OBJECT
 10
3593.0
 20
-3412.4999999999959
 30
0.0
 11
3584.5
 21
-3412.4999999999959
 31
0.0
1001
ACDBBLOCKREPETAG
1070
     1
1071
       28
1005
127B24
  0
LINE
  5
127B25
  8
OBJECT
 10
3584.5
 20
-3507.4999999999968
 30
0.0
 11
3593.0
 21
-3507.4999999999968
 31
0.0
1001
ACDBBLOCKREPETAG
1070
     1
1071
       29
1005
127B25
  0
LINE
  5
127B26
  8
OBJECT
 10
3593.0
 20
-3507.4999999999968
 30
0.0
 11
3593.0
 21
-3412.4999999999959
 31
0.0
1001
ACDBBLOCKREPETAG
1070
     1
1071
       30
1005
127B26
  0
LINE
  5
127B27
  8
OBJECT
 10
3597.0
 20
-3407.9999999999959
 30
0.0
 11
3593.0
 21
-3412.4999999999959
 31
0.0
1001
ACDBBLOCKREPETAG
1070
     1
1071
       31
1005
127B27
  0
LINE
  5
127B28
  8
OBJECT
 10
3597.0
 20
-3511.9999999999959
 30
0.0
 11
3593.0
 21
-3507.4999999999968
 31
0.0
1001
ACDBBLOCKREPETAG
1070
     1
1071
       32
1005
127B28
  0
LINE
  5
127B29
  8
OBJECT
 10
3584.4999999999982
 20
-3509.4999999999959
 30
0.0
 11
3584.5
 21
-3410.4999999999959
 31
0.0
1001
ACDBBLOCKREPETAG
1070
     1
1071
       33
1005
127B29
  0
LINE
  5
127B2A
  8
HIDDEN
 10
3588.0
 20
-3421.9999999999968
 30
0.0
 11
3588.0
 21
-3497.9999999999959
 31
0.0
1001
ACDBBLOCKREPETAG
1070
     1
1071
       34
1005
127B2A
  0
LINE
  5
127B2B
  8
OBJECT
 10
3584.5
 20
-3410.4999999999959
 30
0.0
 11
3556.3449199129791
 21
-3410.4999999999959
 31
0.0
1001
ACDBBLOCKREPETAG
1070
     1
1071
       35
1005
127B2B
  0
LINE
  5
127B2C
  8
OBJECT
 10
3584.4999999999982
 20
-3509.4999999999959
 30
0.0
 11
3556.3449199129791
 21
-3509.4999999999959
 31
0.0
1001
ACDBBLOCKREPETAG
1070
     1
1071
       36
1005
127B2C
  0
LINE
  5
127B2D
  8
CENTER
 10
2838.0
 20
-3820.9999999999968
 30
0.0
 11
2962.0
 21
-3820.9999999999968
 31
0.0
1001
ACDBBLOCKREPETAG
1070
     1
1071
        0
1005
127B2D
  0
CIRCLE
  5
127B2E
  8
OBJECT
 10
2900.0
 20
-3820.9999999999968
 30
0.0
 40
28.0
1001
ACDBBLOCKREPETAG
1070
     1
1071
        2
1005
127B2E
  0
CIRCLE
  5
127B2F
  8
OBJECT
 10
2900.0
 20
-3820.9999999999968
 30
0.0
 40
39.0
1001
ACDBBLOCKREPETAG
1070
     1
1071
        3
1005
127B2F
  0
ARC
  5
127B30
  8
OBJECT
 10
2900.0
 20
-3820.9999999999968
 30
0.0
 40
47.0
 50
290.58196921144412
 51
249.41803078855591
1001
ACDBBLOCKREPETAG
1070
     1
1071
        4
1005
127B30
  0
LINE
  5
127B31
  8
OBJECT
 10
2883.4772883581418
 20
-3864.9999999999968
 30
0.0
 11
2916.5227116418569
 21
-3864.9999999999968
 31
0.0
1001
ACDBBLOCKREPETAG
1070
     1
1071
        5
1005
127B31
  0
ARC
  5
127B32
  8
OBJECT
 10
2900.0
 20
-3805.9999999999932
 30
0.0
 40
49.5
 50
0.0
 51
180.0
1001
ACDBBLOCKREPETAG
1070
     1
1071
        6
1005
127B32
  0
LINE
  5
127B33
  8
OBJECT
 10
2850.5000000000032
 20
-3805.9999999999932
 30
0.0
 11
2850.5000000000032
 21
-3812.9999999999968
 31
0.0
1001
ACDBBLOCKREPETAG
1070
     1
1071
        7
1005
127B33
  0
LINE
  5
127B34
  8
OBJECT
 10
2949.5000000000068
 20
-3805.9999999999932
 30
0.0
 11
2949.5000000000068
 21
-3812.9999999999968
 31
0.0
1001
ACDBBLOCKREPETAG
1070
     1
1071
        8
1005
127B34
  0
ARC
  5
127B35
  8
OBJECT
 10
2900.0
 20
-3812.9999999999968
 30
0.0
 40
49.5
 50
180.0
 51
202.66956385104879
1001
ACDBBLOCKREPETAG
1070
     1
1071
        9
1005
127B35
  0
ARC
  5
127B36
  8
OBJECT
 10
2900.0
 20
-3812.9999999999968
 30
0.0
 40
49.5
 50
337.33043614895121
 51
0.0
1001
ACDBBLOCKREPETAG
1070
     1
1071
       10
1005
127B36
  0
POINT
  5
127B37
  8
DOTS
 10
2900.0
 20
-3864.9999999999968
 30
0.0
1001
ACDBBLOCKREPETAG
1070
     1
1071
       25
1005
127B37
  0
LINE
  5
127B38
  8
OBJECT
 10
2633.0
 20
-3773.9999999999968
 30
0.0
 11
2640.0
 21
-3773.9999999999968
 31
0.0
1001
ACDBBLOCKREPETAG
1070
     1
1071
        0
1005
127B38
  0
LINE
  5
127B39
  8
OBJECT
 10
2640.0
 20
-3773.9999999999968
 30
0.0
 11
2640.0
 21
-3864.9999999999968
 31
0.0
1001
ACDBBLOCKREPETAG
1070
     1
1071
        1
1005
127B39
  0
LINE
  5
127B3A
  8
OBJECT
 10
2584.5
 20
-3759.5000000000618
 30
0.0
 11
2584.5
 21
-3862.4999999999968
 31
0.0
1001
ACDBBLOCKREPETAG
1070
     1
1071
        2
1005
127B3A
  0
ARC
  5
127B3B
  8
OBJECT
 10
2581.5
 20
-3759.5000000000618
 30
0.0
 40
3.0
 50
0.0
 51
90.0
1001
ACDBBLOCKREPETAG
1070
     1
1071
        3
1005
127B3B
  0
LINE
  5
127B3C
  8
OBJECT
 10
2633.0
 20
-3864.9999999999968
 30
0.0
 11
2633.0
 21
-3773.9999999999968
 31
0.0
1001
ACDBBLOCKREPETAG
1070
     1
1071
        4
1005
127B3C
  0
LINE
  5
127B3D
  8
CENTER
 10
2655.0
 20
-3820.9999999999968
 30
0.0
 11
2541.911823713584
 21
-3820.9999999999968
 31
0.0
1001
ACDBBLOCKREPETAG
1070
     1
1071
        5
1005
127B3D
  0
LINE
  5
127B3E
  8
OBJECT
 10
2633.0
 20
-3776.9999999999968
 30
0.0
 11
2596.9999999999991
 21
-3776.9999999999968
 31
0.0
1001
ACDBBLOCKREPETAG
1070
     1
1071
        6
1005
127B3E
  0
LINE
  5
127B3F
  8
OBJECT
 10
2596.9999999999991
 20
-3776.9999999999968
 30
0.0
 11
2596.9999999999991
 21
-3864.9999999999968
 31
0.0
1001
ACDBBLOCKREPETAG
1070
     1
1071
        7
1005
127B3F
  0
LINE
  5
127B40
  8
OBJECT
 10
2596.9999999999991
 20
-3864.9999999999968
 30
0.0
 11
2640.0
 21
-3864.9999999999968
 31
0.0
1001
ACDBBLOCKREPETAG
1070
     1
1071
        8
1005
127B40
  0
LINE
  5
127B41
  8
OBJECT
 10
2593.0
 20
-3781.4999999999959
 30
0.0
 11
2584.5
 21
-3781.4999999999959
 31
0.0
1001
ACDBBLOCKREPETAG
1070
     1
1071
        9
1005
127B41
  0
LINE
  5
127B42
  8
OBJECT
 10
2584.5
 20
-3860.4999999999959
 30
0.0
 11
2593.0
 21
-3860.4999999999959
 31
0.0
1001
ACDBBLOCKREPETAG
1070
     1
1071
       10
1005
127B42
  0
LINE
  5
127B43
  8
OBJECT
 10
2593.0
 20
-3860.4999999999959
 30
0.0
 11
2593.0
 21
-3781.4999999999959
 31
0.0
1001
ACDBBLOCKREPETAG
1070
     1
1071
       11
1005
127B43
  0
LINE
  5
127B44
  8
OBJECT
 10
2596.9999999999991
 20
-3776.9999999999968
 30
0.0
 11
2593.0
 21
-3781.4999999999959
 31
0.0
1001
ACDBBLOCKREPETAG
1070
     1
1071
       12
1005
127B44
  0
LINE
  5
127B45
  8
OBJECT
 10
2596.9999999999991
 20
-3864.9999999999968
 30
0.0
 11
2593.0
 21
-3860.4999999999959
 31
0.0
1001
ACDBBLOCKREPETAG
1070
     1
1071
       13
1005
127B45
  0
LINE
  5
127B46
  8
HIDDEN
 10
2588.0
 20
-3790.9999999999959
 30
0.0
 11
2588.0
 21
-3850.9999999999959
 31
0.0
1001
ACDBBLOCKREPETAG
1070
     1
1071
       14
1005
127B46
  0
ARC
  5
127B47
  8
OBJECT
 10
2664.8782728787751
 20
-3821.4095072612249
 30
0.0
 40
110.86635228309
 50
144.1634274191434
 51
163.04035380433169
1001
ACDBBLOCKREPETAG
1070
     1
1071
       15
1005
127B47
  0
ARC
  5
127B48
  8
OBJECT
 10
2617.1359887769072
 20
-3806.287749718445
 30
0.0
 40
60.791749880358971
 50
163.5472046522267
 51
179.72879698282679
1001
ACDBBLOCKREPETAG
1070
     1
1071
       16
1005
127B48
  0
ARC
  5
127B49
  8
OBJECT
 10
2617.1359956562478
 20
-3812.7122497598971
 30
0.0
 40
60.79175676209487
 50
180.2712034781452
 51
196.4527794605338
1001
ACDBBLOCKREPETAG
1070
     1
1071
       17
1005
127B49
  0
ARC
  5
127B4A
  8
OBJECT
 10
2664.8782728787751
 20
-3797.5904927388328
 30
0.0
 40
110.8663522830916
 50
196.95964619566811
 51
215.8365725808566
1001
ACDBBLOCKREPETAG
1070
     1
1071
       18
1005
127B4A
  0
LINE
  5
127B4B
  8
OBJECT
 10
2556.3449199130041
 20
-3806.0000000000332
 30
0.0
 11
2556.3449199130041
 21
-3813.0000000000291
 31
0.0
1001
ACDBBLOCKREPETAG
1070
     1
1071
       19
1005
127B4B
  0
LINE
  5
127B4C
  8
OBJECT
 10
2575.0
 20
-3756.5000000000618
 30
0.0
 11
2581.5
 21
-3756.5000000000618
 31
0.0
1001
ACDBBLOCKREPETAG
1070
     1
1071
       20
1005
127B4C
  0
LINE
  5
127B4D
  8
OBJECT
 10
2575.0
 20
-3862.4999999999968
 30
0.0
 11
2584.5
 21
-3862.4999999999968
 31
0.0
1001
ACDBBLOCKREPETAG
1070
     1
1071
       21
1005
127B4D
  0
LINE
  5
127B4E
  8
OBJECT
 10
2633.0
 20
-3412.9999999999968
 30
0.0
 11
2640.0
 21
-3412.9999999999968
 31
0.0
1001
ACDBBLOCKREPETAG
1070
     1
1071
        0
1005
127B4E
  0
LINE
  5
127B4F
  8
OBJECT
 10
2640.0
 20
-3412.9999999999968
 30
0.0
 11
2640.0
 21
-3506.9999999999968
 31
0.0
1001
ACDBBLOCKREPETAG
1070
     1
1071
        1
1005
127B4F
  0
LINE
  5
127B50
  8
OBJECT
 10
2640.0
 20
-3506.9999999999968
 30
0.0
 11
2633.0
 21
-3506.9999999999968
 31
0.0
1001
ACDBBLOCKREPETAG
1070
     1
1071
        2
1005
127B50
  0
LINE
  5
127B51
  8
OBJECT
 10
2633.0
 20
-3506.9999999999968
 30
0.0
 11
2633.0
 21
-3412.9999999999968
 31
0.0
1001
ACDBBLOCKREPETAG
1070
     1
1071
        3
1005
127B51
  0
LINE
  5
127B52
  8
CENTER
 10
2655.0
 20
-3459.9999999999968
 30
0.0
 11
2580.0
 21
-3459.9999999999968
 31
0.0
1001
ACDBBLOCKREPETAG
1070
     1
1071
        4
1005
127B52
  0
LINE
  5
127B53
  8
OBJECT
 10
2633.0
 20
-3415.9999999999959
 30
0.0
 11
2596.9999999999991
 21
-3415.9999999999959
 31
0.0
1001
ACDBBLOCKREPETAG
1070
     1
1071
        5
1005
127B53
  0
LINE
  5
127B54
  8
OBJECT
 10
2596.9999999999991
 20
-3415.9999999999959
 30
0.0
 11
2596.9999999999991
 21
-3503.9999999999959
 31
0.0
1001
ACDBBLOCKREPETAG
1070
     1
1071
        6
1005
127B54
  0
LINE
  5
127B55
  8
OBJECT
 10
2596.9999999999991
 20
-3503.9999999999959
 30
0.0
 11
2633.0
 21
-3503.9999999999959
 31
0.0
1001
ACDBBLOCKREPETAG
1070
     1
1071
        7
1005
127B55
  0
LINE
  5
127B56
  8
OBJECT
 10
2593.0
 20
-3420.4999999999959
 30
0.0
 11
2584.5
 21
-3420.4999999999959
 31
0.0
1001
ACDBBLOCKREPETAG
1070
     1
1071
        8
1005
127B56
  0
LINE
  5
127B57
  8
OBJECT
 10
2584.5
 20
-3499.4999999999959
 30
0.0
 11
2593.0
 21
-3499.4999999999959
 31
0.0
1001
ACDBBLOCKREPETAG
1070
     1
1071
        9
1005
127B57
  0
LINE
  5
127B58
  8
OBJECT
 10
2593.0
 20
-3499.4999999999959
 30
0.0
 11
2593.0
 21
-3420.4999999999959
 31
0.0
1001
ACDBBLOCKREPETAG
1070
     1
1071
       10
1005
127B58
  0
LINE
  5
127B59
  8
OBJECT
 10
2596.9999999999991
 20
-3415.9999999999959
 30
0.0
 11
2593.0
 21
-3420.4999999999959
 31
0.0
1001
ACDBBLOCKREPETAG
1070
     1
1071
       11
1005
127B59
  0
LINE
  5
127B5A
  8
OBJECT
 10
2596.9999999999991
 20
-3503.9999999999959
 30
0.0
 11
2593.0
 21
-3499.4999999999959
 31
0.0
1001
ACDBBLOCKREPETAG
1070
     1
1071
       12
1005
127B5A
  0
LINE
  5
127B5B
  8
OBJECT
 10
2584.4999999999991
 20
-3506.4999999999959
 30
0.0
 11
2584.5
 21
-3413.4999999999959
 31
0.0
1001
ACDBBLOCKREPETAG
1070
     1
1071
       13
1005
127B5B
  0
ARC
  5
127B5C
  8
OBJECT
 10
2581.5
 20
-3413.4999999999959
 30
0.0
 40
3.0
 50
0.0
 51
90.0
1001
ACDBBLOCKREPETAG
1070
     1
1071
       14
1005
127B5C
  0
LINE
  5
127B5D
  8
HIDDEN
 10
2588.0
 20
-3429.9999999999959
 30
0.0
 11
2588.0
 21
-3489.9999999999968
 31
0.0
1001
ACDBBLOCKREPETAG
1070
     1
1071
       15
1005
127B5D
  0
LINE
  5
127B5E
  8
OBJECT
 10
2581.5
 20
-3410.4999999999959
 30
0.0
 11
2556.3449199129791
 21
-3410.4999999999959
 31
0.0
1001
ACDBBLOCKREPETAG
1070
     1
1071
       17
1005
127B5E
  0
LINE
  5
127B5F
  8
OBJECT
 10
2581.4999999999991
 20
-3509.4999999999959
 30
0.0
 11
2556.3449199129791
 21
-3509.4999999999959
 31
0.0
1001
ACDBBLOCKREPETAG
1070
     1
1071
       18
1005
127B5F
  0
ARC
  5
127B60
  8
OBJECT
 10
2581.4999999999991
 20
-3506.4999999999959
 30
0.0
 40
3.0
 50
270.0
 51
0.0
1001
ACDBBLOCKREPETAG
1070
     1
1071
       19
1005
127B60
  0
LINE
  5
127B61
  8
OBJECT
 10
4633.0
 20
-634.0
 30
0.0
 11
4640.0
 21
-634.0
 31
0.0
1001
ACDBBLOCKREPETAG
1070
     1
1071
       45
1005
127B61
  0
LINE
  5
127B62
  8
OBJECT
 10
4640.0
 20
-634.0
 30
0.0
 11
4640.0
 21
-755.0
 31
0.0
1001
ACDBBLOCKREPETAG
1070
     1
1071
       46
1005
127B62
  0
LINE
  5
127B63
  8
OBJECT
 10
4633.0
 20
-755.0
 30
0.0
 11
4633.0
 21
-634.0
 31
0.0
1001
ACDBBLOCKREPETAG
1070
     1
1071
       47
1005
127B63
  0
LINE
  5
127B64
  8
CENTER
 10
4655.0
 20
-696.0
 30
0.0
 11
4571.0
 21
-696.0
 31
0.0
1001
ACDBBLOCKREPETAG
1070
     1
1071
       48
1005
127B64
  0
LINE
  5
127B65
  8
OBJECT
 10
4633.0
 20
-637.0
 30
0.0
 11
4597.0
 21
-637.0
 31
0.0
1001
ACDBBLOCKREPETAG
1070
     1
1071
       49
1005
127B65
  0
LINE
  5
127B66
  8
OBJECT
 10
4597.0
 20
-637.0
 30
0.0
 11
4597.0
 21
-755.0
 31
0.0
1001
ACDBBLOCKREPETAG
1070
     1
1071
       50
1005
127B66
  0
LINE
  5
127B67
  8
OBJECT
 10
4597.0
 20
-755.0
 30
0.0
 11
4640.0
 21
-755.0
 31
0.0
1001
ACDBBLOCKREPETAG
1070
     1
1071
       51
1005
127B67
  0
LINE
  5
127B68
  8
OBJECT
 10
4593.0
 20
-641.5
 30
0.0
 11
4586.0
 21
-641.5
 31
0.0
1001
ACDBBLOCKREPETAG
1070
     1
1071
       52
1005
127B68
  0
LINE
  5
127B69
  8
OBJECT
 10
4586.0
 20
-750.49999999999989
 30
0.0
 11
4593.0
 21
-750.49999999999989
 31
0.0
1001
ACDBBLOCKREPETAG
1070
     1
1071
       53
1005
127B69
  0
LINE
  5
127B6A
  8
OBJECT
 10
4593.0
 20
-750.49999999999989
 30
0.0
 11
4593.0
 21
-641.5
 31
0.0
1001
ACDBBLOCKREPETAG
1070
     1
1071
       54
1005
127B6A
  0
LINE
  5
127B6B
  8
OBJECT
 10
4597.0
 20
-637.0
 30
0.0
 11
4593.0
 21
-641.5
 31
0.0
1001
ACDBBLOCKREPETAG
1070
     1
1071
       55
1005
127B6B
  0
LINE
  5
127B6C
  8
OBJECT
 10
4597.0
 20
-755.0
 30
0.0
 11
4593.0
 21
-750.49999999999989
 31
0.0
1001
ACDBBLOCKREPETAG
1070
     1
1071
       56
1005
127B6C
  0
LINE
  5
127B6D
  8
OBJECT
 10
4583.0
 20
-634.0
 30
0.0
 11
4580.0
 21
-634.0
 31
0.0
1001
ACDBBLOCKREPETAG
1070
     1
1071
       57
1005
127B6D
  0
ARC
  5
127B6E
  8
OBJECT
 10
4583.0
 20
-637.0
 30
0.0
 40
3.0
 50
0.0
 51
90.0
1001
ACDBBLOCKREPETAG
1070
     1
1071
       58
1005
127B6E
  0
LINE
  5
127B6F
  8
OBJECT
 10
4580.0
 20
-758.0
 30
0.0
 11
4583.0
 21
-758.0
 31
0.0
1001
ACDBBLOCKREPETAG
1070
     1
1071
       59
1005
127B6F
  0
ARC
  5
127B70
  8
OBJECT
 10
4583.0
 20
-755.0
 30
0.0
 40
3.0
 50
270.0
 51
0.0
1001
ACDBBLOCKREPETAG
1070
     1
1071
       60
1005
127B70
  0
LINE
  5
127B71
  8
OBJECT
 10
4586.0
 20
-755.0
 30
0.0
 11
4586.0
 21
-637.0
 31
0.0
1001
ACDBBLOCKREPETAG
1070
     1
1071
       61
1005
127B71
  0
LINE
  5
127B72
  8
HIDDEN
 10
4588.0
 20
-651.5
 30
0.0
 11
4588.0
 21
-740.5
 31
0.0
1001
ACDBBLOCKREPETAG
1070
     1
1071
       63
1005
127B72
  0
TEXT
  5
127B73
  8
SLIM
 10
149.1428571427966
 20
-443.99999999984971
 30
0.0
 40
48.0
  1
A3
 41
0.75
1001
ACDBBLOCKREPETAG
1070
     1
1071
      119
1005
0
  0
LINE
  5
127B74
  8
OBJECT
 10
2633.0
 20
-634.0
 30
0.0
 11
2640.0
 21
-634.0
 31
0.0
1001
ACDBBLOCKREPETAG
1070
     1
1071
       45
1005
127B74
  0
LINE
  5
127B75
  8
OBJECT
 10
2640.0
 20
-634.0
 30
0.0
 11
2640.0
 21
-755.0
 31
0.0
1001
ACDBBLOCKREPETAG
1070
     1
1071
       46
1005
127B75
  0
LINE
  5
127B76
  8
OBJECT
 10
2633.0
 20
-755.0
 30
0.0
 11
2633.0
 21
-634.0
 31
0.0
1001
ACDBBLOCKREPETAG
1070
     1
1071
       47
1005
127B76
  0
LINE
  5
127B77
  8
CENTER
 10
2655.0
 20
-696.0
 30
0.0
 11
2571.0
 21
-696.0
 31
0.0
1001
ACDBBLOCKREPETAG
1070
     1
1071
       48
1005
127B77
  0
LINE
  5
127B78
  8
OBJECT
 10
2633.0
 20
-637.0
 30
0.0
 11
2597.0
 21
-637.0
 31
0.0
1001
ACDBBLOCKREPETAG
1070
     1
1071
       49
1005
127B78
  0
LINE
  5
127B79
  8
OBJECT
 10
2597.0
 20
-637.0
 30
0.0
 11
2597.0
 21
-755.0
 31
0.0
1001
ACDBBLOCKREPETAG
1070
     1
1071
       50
1005
127B79
  0
LINE
  5
127B7A
  8
OBJECT
 10
2597.0
 20
-755.0
 30
0.0
 11
2640.0
 21
-755.0
 31
0.0
1001
ACDBBLOCKREPETAG
1070
     1
1071
       51
1005
127B7A
  0
LINE
  5
127B7B
  8
OBJECT
 10
2593.0
 20
-641.5
 30
0.0
 11
2586.0
 21
-641.5
 31
0.0
1001
ACDBBLOCKREPETAG
1070
     1
1071
       52
1005
127B7B
  0
LINE
  5
127B7C
  8
OBJECT
 10
2586.0
 20
-750.49999999999989
 30
0.0
 11
2593.0
 21
-750.49999999999989
 31
0.0
1001
ACDBBLOCKREPETAG
1070
     1
1071
       53
1005
127B7C
  0
LINE
  5
127B7D
  8
OBJECT
 10
2593.0
 20
-750.49999999999989
 30
0.0
 11
2593.0
 21
-641.5
 31
0.0
1001
ACDBBLOCKREPETAG
1070
     1
1071
       54
1005
127B7D
  0
LINE
  5
127B7E
  8
OBJECT
 10
2597.0
 20
-637.0
 30
0.0
 11
2593.0
 21
-641.5
 31
0.0
1001
ACDBBLOCKREPETAG
1070
     1
1071
       55
1005
127B7E
  0
LINE
  5
127B7F
  8
OBJECT
 10
2597.0
 20
-755.0
 30
0.0
 11
2593.0
 21
-750.49999999999989
 31
0.0
1001
ACDBBLOCKREPETAG
1070
     1
1071
       56
1005
127B7F
  0
LINE
  5
127B80
  8
OBJECT
 10
2583.0
 20
-634.0
 30
0.0
 11
2580.0
 21
-634.0
 31
0.0
1001
ACDBBLOCKREPETAG
1070
     1
1071
       57
1005
127B80
  0
ARC
  5
127B81
  8
OBJECT
 10
2583.0
 20
-637.0
 30
0.0
 40
3.0
 50
0.0
 51
90.0
1001
ACDBBLOCKREPETAG
1070
     1
1071
       58
1005
127B81
  0
LINE
  5
127B82
  8
OBJECT
 10
2580.0
 20
-758.0
 30
0.0
 11
2583.0
 21
-758.0
 31
0.0
1001
ACDBBLOCKREPETAG
1070
     1
1071
       59
1005
127B82
  0
ARC
  5
127B83
  8
OBJECT
 10
2583.0
 20
-755.0
 30
0.0
 40
3.0
 50
270.0
 51
0.0
1001
ACDBBLOCKREPETAG
1070
     1
1071
       60
1005
127B83
  0
LINE
  5
127B84
  8
OBJECT
 10
2586.0
 20
-755.0
 30
0.0
 11
2586.0
 21
-637.0
 31
0.0
1001
ACDBBLOCKREPETAG
1070
     1
1071
       61
1005
127B84
  0
LINE
  5
127B85
  8
HIDDEN
 10
2588.0
 20
-651.5
 30
0.0
 11
2588.0
 21
-740.5
 31
0.0
1001
ACDBBLOCKREPETAG
1070
     1
1071
       63
1005
127B85
  0
TEXT
  5
127B86
  8
SLIM
 10
0.0000035665234464
 20
24.000004585317608
 30
0.0
 40
79.999999999972701
  1
上部枝管
 41
0.75
1001
ACDBBLOCKREPETAG
1070
     1
1071
      119
1005
120BCB
  0
LINE
  5
127B87
  8
DIM
 10
2650.0
 20
-3506.9999999999968
 30
0.0
 11
2728.479620594459
 21
-3506.9999999999968
 31
0.0
  0
LINE
  5
127B88
  8
DIM
 10
2650.0
 20
-3412.9999999999968
 30
0.0
 11
2728.479620594459
 21
-3412.9999999999968
 31
0.0
  0
LINE
  5
127B89
  8
DIM
 10
2718.479620594459
 20
-3486.9999999999959
 30
0.0
 11
2718.479620594459
 21
-3432.9999999999959
 31
0.0
  0
INSERT
  5
127B8A
  8
DIM
  2
_OPEN30
 10
2718.479620594459
 20
-3506.9999999999968
 30
0.0
 41
20.0
 42
20.0
 43
20.0
 50
270.0
  0
INSERT
  5
127B8B
  8
DIM
  2
_OPEN30
 10
2718.479620594459
 20
-3412.9999999999968
 30
0.0
 41
20.0
 42
20.0
 43
20.0
 50
90.0
  0
INSERT
  5
127B8C
  8
SLIM
  2
*U40
 10
0.0
 20
0.0
 30
0.0
  0
LINE
  5
127B8D
  8
DIM
 10
2650.0
 20
-3864.9999999999968
 30
0.0
 11
2726.8409284037339
 21
-3864.9999999999968
 31
0.0
  0
LINE
  5
127B8E
  8
DIM
 10
2665.0
 20
-3820.9999999999968
 30
0.0
 11
2726.8409284037339
 21
-3820.9999999999968
 31
0.0
  0
LINE
  5
127B8F
  8
DIM
 10
2716.8409284037339
 20
-3884.9999999999991
 30
0.0
 11
2716.8409284037339
 21
-3904.9999999999968
 31
0.0
  0
LINE
  5
127B90
  8
DIM
 10
2716.8409284037339
 20
-3800.9999999999982
 30
0.0
 11
2716.8409284037339
 21
-3780.9999999999968
 31
0.0
  0
LINE
  5
127B91
  8
DIM
 10
2716.8409284037339
 20
-3864.9999999999968
 30
0.0
 11
2716.8409284037339
 21
-3820.9999999999968
 31
0.0
  0
INSERT
  5
127B92
  8
DIM
  2
_OPEN30
 10
2716.8409284037339
 20
-3864.9999999999968
 30
0.0
 41
20.0
 42
20.0
 43
20.0
 50
90.0
  0
INSERT
  5
127B93
  8
DIM
  2
_OPEN30
 10
2716.8409284037339
 20
-3820.9999999999968
 30
0.0
 41
20.0
 42
20.0
 43
20.0
 50
270.0
  0
INSERT
  5
127B94
  8
SLIM
  2
*U41
 10
0.0
 20
0.0
 30
0.0
  0
LINE
  5
127B95
  8
DIM
 10
2500.0
 20
-3359.9999999999968
 30
0.0
 11
2500.0
 21
-3322.208121984444
 31
0.0
  0
LINE
  5
127B96
  8
DIM
 10
2640.0
 20
-3402.9999999999968
 30
0.0
 11
2640.0
 21
-3322.208121984444
 31
0.0
  0
LINE
  5
127B97
  8
DIM
 10
2520.0
 20
-3332.208121984444
 30
0.0
 11
2620.0
 21
-3332.208121984444
 31
0.0
  0
INSERT
  5
127B98
  8
DIM
  2
_OPEN30
 10
2500.0
 20
-3332.208121984444
 30
0.0
 41
20.0
 42
20.0
 43
20.0
 50
180.0
  0
INSERT
  5
127B99
  8
DIM
  2
_OPEN30
 10
2640.0
 20
-3332.208121984444
 30
0.0
 41
20.0
 42
20.0
 43
20.0
  0
INSERT
  5
127B9A
  8
SLIM
  2
*U42
 10
0.0
 20
0.0
 30
0.0
  0
TEXT
  5
127B9B
  8
SLIM
 10
3270.9999999999991
 20
-3237.5000160472709
 30
0.0
 40
40.0
  1
C寸法
 41
0.75
  0
TEXT
  5
127B9C
  8
SLIM
 10
3270.9999999999991
 20
-3167.5000160472709
 30
0.0
 40
40.0
  1
B寸法
 41
0.75
  0
TEXT
  5
127B9D
  8
SLIM
 10
3270.2857142857151
 20
-3097.5000160472709
 30
0.0
 40
40.0
  1
A寸法
 41
0.75
  0
TEXT
  5
127B9E
  8
SLIM
 10
3669.2857142857142
 20
-3237.5000160472709
 30
0.0
 40
40.0
  1
140
 41
0.75
  0
TEXT
  5
127B9F
  8
SLIM
 10
3409.2857142857151
 20
-3237.5000160472709
 30
0.0
 40
40.0
  1
140
 41
0.75
  0
TEXT
  5
127BA0
  8
SLIM
 10
3539.2857142857151
 20
-3237.5000160472709
 30
0.0
 40
40.0
  1
140
 41
0.75
  0
TEXT
  5
127BA1
  8
SLIM
 10
3681.4285714285711
 20
-3167.5000160472709
 30
0.0
 40
40.0
  1
59
 41
0.75
  0
TEXT
  5
127BA2
  8
SLIM
 10
3420.0
 20
-3167.5000160472709
 30
0.0
 40
40.0
  1
44
 41
0.75
  0
TEXT
  5
127BA3
  8
SLIM
 10
3550.7142857142849
 20
-3167.5000160472709
 30
0.0
 40
40.0
  1
52
 41
0.75
  0
TEXT
  5
127BA4
  8
SLIM
 10
3471.0
 20
-2972.5000160472709
 30
0.0
 40
40.0
  1
横枝管サイズ
 41
0.75
  0
TEXT
  5
127BA5
  8
SLIM
 10
3654.8571428571422
 20
-3027.50001604727
 30
0.0
 40
30.0
  1
75（3）
 41
0.75
  0
TEXT
  5
127BA6
  8
SLIM
 10
3524.8571428571422
 20
-3027.50001604727
 30
0.0
 40
30.0
  1
65（2）
 41
0.75
  0
TEXT
  5
127BA7
  8
SLIM
 10
3397.0
 20
-3027.50001604727
 30
0.0
 40
30.0
  1
50（1）
 41
0.75
  0
TEXT
  5
127BA8
  8
SLIM
 10
3668.5714285714289
 20
-3097.5000160472709
 30
0.0
 40
40.0
  1
124
 41
0.75
  0
TEXT
  5
127BA9
  8
SLIM
 10
3420.0
 20
-3097.5000160472709
 30
0.0
 40
40.0
  1
94
 41
0.75
  0
TEXT
  5
127BAA
  8
SLIM
 10
3542.142857142856
 20
-3097.5000160472709
 30
0.0
 40
40.0
  1
110
 41
0.75
  0
TEXT
  5
127BAB
  8
SLIM
 10
2349.9999999999991
 20
-2997.5
 30
0.0
 40
75.0
  1
下部枝管サイズ毎の形状
 41
0.75
  0
TEXT
  5
127BAC
  8
SLIM
 10
4394.25
 20
-3982.4999999999968
 30
0.0
 40
35.0
  1
通常枝75（3）
 41
0.75
  0
TEXT
  5
127BAD
  8
SLIM
 10
3394.2499999999991
 20
-3982.4999999999968
 30
0.0
 40
35.0
  1
通常枝65（2）
 41
0.75
  0
TEXT
  5
127BAE
  8
SLIM
 10
2396.75
 20
-3982.4999999999968
 30
0.0
 40
35.0
  1
通常枝50（1）
 41
0.75
  0
TEXT
  5
127BAF
  8
SLIM
 10
2337.75
 20
282.50000000000011
 30
0.0
 40
35.0
  1
（枝管サイズ毎に寸法が異なります。管底の位置は全サイズで同じです）
 41
0.75
  0
TEXT
  5
127BB0
  8
SLIM
 10
2350.0
 20
532.5
 30
0.0
 40
75.0
  1
側面図の代表機種
 41
0.75
  0
TEXT
  5
127BB1
  8
SLIM
 10
2350.0
 20
369.99999999999989
 30
0.0
 40
100.0
  1
4SRT2-A3-A0020-P440
 41
0.75
  0
TEXT
  5
127BB2
  8
SLIM
 10
4241.6249999999991
 20
-1752.499999999998
 30
0.0
 40
35.0
  1
片受けスタイル（S）＋シンドカット
 41
0.75
  0
TEXT
  5
127BB3
  8
SLIM
 10
2356.25
 20
-1752.499999999998
 30
0.0
 40
35.0
  1
片受けスタイル（S）
 41
0.75
  0
TEXT
  5
127BB4
  8
SLIM
 10
0.0
 20
370.0
 30
0.0
 40
100.0
  1
4SRT2-A3-A00X0-PXXX-S
 41
0.75
  0
VIEWPORT
  5
F6BA7
 67
     1
  8
0
 10
195.9179030619629
 20
101.8328354358673
 30
0.0
 40
435.17763301655992
 41
222.19657968139651
 68
     1
 69
     1
1001
ACAD
1000
MVIEW
1002
{
1070
    16
1010
0.0
1020
0.0
1030
0.0
1010
0.0
1020
0.0
1030
1.0
1040
0.0
1040
222.19657968139651
1040
195.9179030619629
1040
101.8328354358673
1040
50.0
1040
0.0
1040
0.0
1070
     0
1070
     0
1070
     1
1070
     1
1070
     0
1070
     0
1070
     0
1070
     0
1040
0.0
1040
0.0
1040
0.0
1040
10.0
1040
10.0
1040
10.0
1040
10.0
1070
     0
1002
{
1002
}
1002
}
  0
VIEWPORT
  5
F6BA9
 67
     1
  8
OBJECT
 10
145.3303314447403
 20
101.8328338861465
 30
0.0
 40
232.5285303115844
 41
162.93253421783439
 68
     2
 69
     2
1001
ACAD
1000
MVIEW
1002
{
1070
    16
1010
0.0
1020
0.0
1030
0.0
1010
0.0
1020
0.0
1030
1.0
1040
0.0
1040
25942.55904403147
1040
2377.604457077377
1040
-7591.5176687056619
1040
50.0
1040
0.0
1040
0.0
1070
     0
1070
   600
1070
     1
1070
     1
1070
     0
1070
     0
1070
     0
1070
     0
1040
0.0
1040
0.0
1040
0.0
1040
1.0
1040
1.0
1040
0.0
1040
0.0
1070
     0
1002
{
1002
}
1002
}
  0
ENDSEC
  0
EOF
