  0
SECTION
  2
HEADER
  9
$ACADVER
  1
AC1009
  9
$INSBASE
 10
0.0
 20
0.0
 30
0.0
  9
$EXTMIN
 10
-0.0000000000002274
 20
-3982.4999999999982
 30
0.0
  9
$EXTMAX
 10
5607.5428571428556
 20
607.5
 30
0.0
  9
$LIMMIN
 10
0.0
 20
0.0
  9
$LIMMAX
 10
210.0
 20
297.0
  9
$ORTHOMODE
 70
     0
  9
$REGENMODE
 70
     1
  9
$FILLMODE
 70
     1
  9
$QTEXTMODE
 70
     0
  9
$MIRRTEXT
 70
     0
  9
$DRAGMODE
 70
     2
  9
$LTSCALE
 40
1.0
  9
$OSMODE
 70
    37
  9
$ATTMODE
 70
     1
  9
$TEXTSIZE
 40
4.0
  9
$TRACEWID
 40
0.05
  9
$TEXTSTYLE
  7
STANDARD
  9
$CLAYER
  8
SLIM
  9
$CELTYPE
  6
BYLAYER
  9
$CECOLOR
 62
   256
  9
$DIMSCALE
 40
10.0
  9
$DIMASZ
 40
2.0
  9
$DIMEXO
 40
1.0
  9
$DIMDLI
 40
10.0
  9
$DIMRND
 40
0.0
  9
$DIMDLE
 40
0.0
  9
$DIMEXE
 40
1.0
  9
$DIMTP
 40
0.0
  9
$DIMTM
 40
0.0
  9
$DIMTXT
 40
3.2000000000000002
  9
$DIMCEN
 40
0.0
  9
$DIMTSZ
 40
0.0
  9
$DIMTOL
 70
     0
  9
$DIMLIM
 70
     0
  9
$DIMTIH
 70
     0
  9
$DIMTOH
 70
     0
  9
$DIMSE1
 70
     0
  9
$DIMSE2
 70
     0
  9
$DIMTAD
 70
     1
  9
$DIMZIN
 70
     8
  9
$DIMBLK
  1
OPEN30
  9
$DIMASO
 70
     1
  9
$DIMSHO
 70
     1
  9
$DIMPOST
  1

  9
$DIMAPOST
  1

  9
$DIMALT
 70
     0
  9
$DIMALTD
 70
     2
  9
$DIMALTF
 40
25.399999999999999
  9
$DIMLFAC
 40
1.0
  9
$DIMTOFL
 70
     1
  9
$DIMTVP
 40
0.0
  9
$DIMTIX
 70
     0
  9
$DIMSOXD
 70
     0
  9
$DIMSAH
 70
     0
  9
$DIMBLK1
  1

  9
$DIMBLK2
  1

  9
$DIMSTYLE
  2
S10
  9
$DIMCLRD
 70
   256
  9
$DIMCLRE
 70
   256
  9
$DIMCLRT
 70
   256
  9
$DIMTFAC
 40
1.0
  9
$DIMGAP
 40
0.9
  9
$LUNITS
 70
     2
  9
$LUPREC
 70
     2
  9
$SKETCHINC
 40
0.1
  9
$FILLETRAD
 40
0.0
  9
$AUNITS
 70
     0
  9
$AUPREC
 70
     2
  9
$MENU
  1
ACAD
  9
$ELEVATION
 40
0.0
  9
$PELEVATION
 40
0.0
  9
$THICKNESS
 40
0.0
  9
$LIMCHECK
 70
     0
  9
$BLIPMODE
 70
     0
  9
$CHAMFERA
 40
2.0
  9
$CHAMFERB
 40
2.0
  9
$SKPOLY
 70
     0
  9
$TDCREATE
 40
2453095.4929404748
  9
$TDUPDATE
 40
2457604.653029514
  9
$TDINDWG
 40
21.347105381900001
  9
$TDUSRTIMER
 40
21.3471046296
  9
$USRTIMER
 70
     1
  9
$ANGBASE
 50
0.0
  9
$ANGDIR
 70
     0
  9
$PDMODE
 70
    35
  9
$PDSIZE
 40
2.0
  9
$PLINEWID
 40
0.0
  9
$COORDS
 70
     1
  9
$SPLFRAME
 70
     0
  9
$SPLINETYPE
 70
     6
  9
$SPLINESEGS
 70
     8
  9
$ATTDIA
 70
     0
  9
$ATTREQ
 70
     1
  9
$HANDLING
 70
     1
  9
$HANDSEED
  5
1275B9
  9
$SURFTAB1
 70
     6
  9
$SURFTAB2
 70
     6
  9
$SURFTYPE
 70
     6
  9
$SURFU
 70
     6
  9
$SURFV
 70
     6
  9
$UCSNAME
  2

  9
$UCSORG
 10
0.0
 20
0.0
 30
0.0
  9
$UCSXDIR
 10
1.0
 20
0.0
 30
0.0
  9
$UCSYDIR
 10
0.0
 20
1.0
 30
0.0
  9
$PUCSNAME
  2

  9
$PUCSORG
 10
0.0
 20
0.0
 30
0.0
  9
$PUCSXDIR
 10
1.0
 20
0.0
 30
0.0
  9
$PUCSYDIR
 10
0.0
 20
1.0
 30
0.0
  9
$USERI1
 70
     0
  9
$USERI2
 70
     0
  9
$USERI3
 70
     0
  9
$USERI4
 70
     0
  9
$USERI5
 70
     0
  9
$USERR1
 40
0.0
  9
$USERR2
 40
0.0
  9
$USERR3
 40
0.0
  9
$USERR4
 40
0.0
  9
$USERR5
 40
0.0
  9
$WORLDVIEW
 70
     1
  9
$SHADEDGE
 70
     3
  9
$SHADEDIF
 70
    70
  9
$TILEMODE
 70
     1
  9
$MAXACTVP
 70
    64
  9
$PLIMCHECK
 70
     0
  9
$PEXTMIN
 10
29.066066288948051
 20
20.366566777229309
 30
0.0
  9
$PEXTMAX
 10
261.5945966005325
 20
183.29910099506381
 30
0.0
  9
$PLIMMIN
 10
-3.17498779296875
 20
-3.1749999523162842
  9
$PLIMMAX
 10
293.83566284179687
 20
206.8406708240509
  9
$UNITMODE
 70
     0
  9
$VISRETAIN
 70
     1
  9
$PLINEGEN
 70
     0
  9
$PSLTSCALE
 70
     1
  0
ENDSEC
  0
SECTION
  2
TABLES
  0
TABLE
  2
VPORT
 70
     1
  0
VPORT
  2
*ACTIVE
 70
     0
 10
0.0
 20
0.0
 11
1.0
 21
1.0
 12
4479.4470750783348
 22
562.74211389268385
 13
0.0
 23
0.0
 14
1.0
 24
1.0
 15
0.0
 25
0.0
 16
0.0
 26
0.0
 36
1.0
 17
0.0
 27
0.0
 37
0.0
 40
7120.7816912957178
 41
1.6494178525226391
 42
50.0
 43
0.0
 44
0.0
 50
0.0
 51
0.0
 71
     0
 72
   600
 73
     1
 74
     1
 75
     0
 76
     0
 77
     0
 78
     0
  0
ENDTAB
  0
TABLE
  2
LTYPE
 70
     4
  0
LTYPE
  2
CONTINUOUS
 70
     0
  3
Solid line
 72
    65
 73
     0
 40
0.0
  0
LTYPE
  2
PHANTOM2
 70
     0
  3
___ _ _ ___ _ _ ___ _ _ ___ _ _
 72
    65
 73
     6
 40
1.25
 49
0.625
 49
-0.125
 49
0.125
 49
-0.125
 49
0.125
 49
-0.125
  0
LTYPE
  2
ACAD_ISO08W100
 70
     0
  3
ISO long-dash short-dash ____ __ ____ __ ____ _
 72
    65
 73
     4
 40
36.0
 49
24.0
 49
-3.0
 49
6.0
 49
-3.0
  0
LTYPE
  2
ACAD_ISO02W100
 70
     0
  3
ISO dash __ __ __ __ __ __ __ __ __ __ __ __ __
 72
    65
 73
     2
 40
15.0
 49
12.0
 49
-3.0
  0
ENDTAB
  0
TABLE
  2
LAYER
 70
     8
  0
LAYER
  2
0
 70
     0
 62
     7
  6
CONTINUOUS
  0
LAYER
  2
SLIM
 70
     0
 62
     2
  6
CONTINUOUS
  0
LAYER
  2
DEFPOINTS
 70
     0
 62
     7
  6
CONTINUOUS
  0
LAYER
  2
DIM
 70
     0
 62
     7
  6
CONTINUOUS
  0
LAYER
  2
OBJECT
 70
     0
 62
     4
  6
CONTINUOUS
  0
LAYER
  2
HIDDEN
 70
     0
 62
     2
  6
ACAD_ISO02W100
  0
LAYER
  2
CENTER
 70
     0
 62
     2
  6
ACAD_ISO08W100
  0
LAYER
  2
DOTS
 70
     0
 62
     1
  6
CONTINUOUS
  0
ENDTAB
  0
TABLE
  2
STYLE
 70
     2
  0
STYLE
  2
STANDARD
 70
     0
 40
0.0
 41
0.75
 50
0.0
 71
     0
 42
4.0
  3
simplex.shx
  4
bigfont.shx
  0
ENDTAB
  0
TABLE
  2
VIEW
 70
     0
  0
ENDTAB
  0
TABLE
  2
UCS
 70
     0
  0
ENDTAB
  0
TABLE
  2
APPID
 70
    20
  0
APPID
  2
ACAD
 70
     0
  0
APPID
  2
ACADANNOTATIVE
 70
     0
  0
APPID
  2
ACAD_PSEXT
 70
     0
  0
APPID
  2
ACAD_EXEMPT_FROM_CAD_STANDARDS
 70
     0
  0
APPID
  2
ACAECLAYERSTANDARD
 70
     0
  0
APPID
  2
ACAUTHENVIRON
 70
     0
  0
APPID
  2
ACDBDYNAMICBLOCKTRUENAME
 70
     0
  0
APPID
  2
ACDBDYNAMICBLOCKGUID
 70
     0
  0
APPID
  2
ACDBBLOCKREPETAG
 70
     0
  0
APPID
  2
ACDBBLOCKREPBTAG
 70
     0
  0
APPID
  2
ACAD_NAV_VCDISPLAY
 70
     0
  0
APPID
  2
ACAD_DSTYLE_DIMRADIAL_EXTENSION
 70
     0
  0
APPID
  2
ACAD_DSTYLE_DIMJAG
 70
     0
  0
APPID
  2
ACAD_DSTYLE_DIMTALN
 70
     0
  0
APPID
  2
ACADANNOPO
 70
     0
  0
APPID
  2
GRADIENTCOLOR1ACI
 70
     0
  0
APPID
  2
GRADIENTCOLOR2ACI
 70
     0
  0
APPID
  2
ACADANNOMONITORALERTICONDI
 70
     0
  0
APPID
  2
CONTENTBLOCKICON
 70
     0
  0
APPID
  2
ACAD_MLEADERVER
 70
     0
  0
ENDTAB
  0
TABLE
  2
DIMSTYLE
 70
     3
  0
DIMSTYLE
  2
STANDARD
 70
     0
  3

  4

  5

  6

  7

 40
1.0
 41
0.18
 42
0.0625
 43
0.38
 44
0.18
 45
0.0
 46
0.0
 47
0.0
 48
0.0
140
0.18
141
0.09
142
0.0
143
25.399999999999999
144
1.0
145
0.0
146
1.0
147
0.09
 71
     0
 72
     0
 73
     1
 74
     1
 75
     0
 76
     0
 77
     0
 78
     0
170
     0
171
     2
172
     0
173
     0
174
     0
175
     0
176
     0
177
     0
178
     0
  0
DIMSTYLE
  2
S10
 70
     0
  3

  4

  5

  6

  7

 40
10.0
 41
2.0
 42
1.0
 43
10.0
 44
1.0
 45
0.0
 46
0.0
 47
0.0
 48
0.0
140
3.2000000000000002
141
0.0
142
0.0
143
25.399999999999999
144
1.0
145
0.0
146
1.0
147
0.9
 71
     0
 72
     0
 73
     0
 74
     0
 75
     0
 76
     0
 77
     1
 78
     8
170
     0
171
     2
172
     1
173
     0
174
     0
175
     0
176
   256
177
   256
178
   256
  0
ENDTAB
  0
ENDSEC
  0
SECTION
  2
BLOCKS
  0
BLOCK
  8
0
  2
$MODEL_SPACE
 70
     0
 10
0.0
 20
0.0
 30
0.0
  3
$MODEL_SPACE
  1

  0
ENDBLK
  5
127509
  8
0
  0
BLOCK
 67
     1
  8
0
  2
$PAPER_SPACE
 70
     0
 10
0.0
 20
0.0
 30
0.0
  3
$PAPER_SPACE
  1

  0
ENDBLK
  5
127505
 67
     1
  8
0
  0
BLOCK
  8
0
  2
_OPEN30
 70
     0
 10
0.0
 20
0.0
 30
0.0
  3
_OPEN30
  1

  0
LINE
  5
202
  8
0
  6
BYBLOCK
 62
     0
 10
-1.0
 20
0.26794919
 30
0.0
 11
0.0
 21
0.0
 31
0.0
  0
LINE
  5
203
  8
0
  6
BYBLOCK
 62
     0
 10
0.0
 20
0.0
 30
0.0
 11
-1.0
 21
-0.26794919
 31
0.0
  0
LINE
  5
204
  8
0
  6
BYBLOCK
 62
     0
 10
0.0
 20
0.0
 30
0.0
 11
-1.0
 21
0.0
 31
0.0
  0
ENDBLK
  5
206
  8
0
  0
BLOCK
  8
0
  2
*U3
 70
     1
 10
0.0
 20
0.0
 30
0.0
  3
*U3
  1

  0
TEXT
  5
12745D
  8
SLIM
 10
258.0
 20
-974.95238095238165
 30
0.0
 40
26.0
  1
50
 50
270.0
  0
ENDBLK
  5
12745F
  8
0
  0
BLOCK
  8
0
  2
*U4
 70
     1
 10
0.0
 20
0.0
 30
0.0
  3
*U4
  1

  0
TEXT
  5
127475
  8
SLIM
 10
258.0
 20
-1438.9523809522229
 30
0.0
 40
26.0
  1
75
 50
270.0
  0
ENDBLK
  5
127477
  8
0
  0
BLOCK
  8
0
  2
*U5
 70
     1
 10
0.0
 20
0.0
 30
0.0
  3
*U5
  1

  0
TEXT
  5
127479
  8
SLIM
 10
617.99999999987813
 20
-974.95238095238165
 30
0.0
 40
26.0
  1
65
 50
270.0
  0
ENDBLK
  5
12747B
  8
0
  0
BLOCK
  8
0
  2
*U6
 70
     1
 10
0.0
 20
0.0
 30
0.0
  3
*U6
  1

  0
TEXT
  5
12747D
  8
SLIM
 10
158.9523809524228
 20
-130.00000000017181
 30
0.0
 40
26.0
  1
75
  0
ENDBLK
  5
12747F
  8
0
  0
BLOCK
  8
0
  2
*U7
 70
     1
 10
0.0
 20
0.0
 30
0.0
  3
*U7
  1

  0
TEXT
  5
127481
  8
DIM
 10
4334.1164560757752
 20
-1378.7428571428561
 30
0.0
 40
32.0
  1
m（シンドカット）
 50
90.0
 41
0.75
  0
ENDBLK
  5
127483
  8
0
  0
BLOCK
  8
0
  2
*U8
 70
     1
 10
0.0
 20
0.0
 30
0.0
  3
*U8
  1

  0
TEXT
  5
127485
  8
DIM
 10
4700.4245816727562
 20
-924.00000000000125
 30
0.0
 40
32.0
  1
P
 50
90.0
 41
0.75
  0
ENDBLK
  5
127487
  8
0
  0
BLOCK
  8
0
  2
*U9
 70
     1
 10
0.0
 20
0.0
 30
0.0
  3
*U9
  1

  0
TEXT
  5
127489
  8
DIM
 10
2700.4245816727571
 20
-923.99999999999955
 30
0.0
 40
32.0
  1
P
 50
90.0
 41
0.75
  0
ENDBLK
  5
12748B
  8
0
  0
BLOCK
  8
0
  2
*U10
 70
     1
 10
0.0
 20
0.0
 30
0.0
  3
*U10
  1

  0
TEXT
  5
12748D
  8
DIM
 10
2709.479620594459
 20
-3469.1428571428528
 30
0.0
 40
32.0
  1
A
 50
90.0
 41
0.75
  0
ENDBLK
  5
12748F
  8
0
  0
BLOCK
  8
0
  2
*U11
 70
     1
 10
0.0
 20
0.0
 30
0.0
  3
*U11
  1

  0
TEXT
  5
127491
  8
DIM
 10
2707.840928403733
 20
-3850.9999999999968
 30
0.0
 40
32.0
  1
B
 50
90.0
 41
0.75
  0
ENDBLK
  5
127493
  8
0
  0
BLOCK
  8
0
  2
*U12
 70
     1
 10
0.0
 20
0.0
 30
0.0
  3
*U12
  1

  0
TEXT
  5
127495
  8
DIM
 10
2561.4285714285711
 20
-3323.208121984444
 30
0.0
 40
32.0
  1
C
 41
0.75
  0
ENDBLK
  5
127497
  8
0
  0
ENDSEC
  0
SECTION
  2
ENTITIES
  0
LINE
  5
11273E
  8
OBJECT
 10
2325.0
 20
-3864.9999999999968
 30
0.0
 11
5075.0
 21
-3864.9999999999968
 31
0.0
  0
LINE
  5
11412B
  8
SLIM
 10
3256.0
 20
-2922.5000160472709
 30
0.0
 11
3256.0
 21
-3252.5000160472709
 31
0.0
  0
LINE
  5
11412C
  8
SLIM
 10
3380.0
 20
-2922.5000160472709
 30
0.0
 11
3380.0
 21
-3252.5000160472709
 31
0.0
  0
LINE
  5
11412D
  8
SLIM
 10
3510.0
 20
-2982.50001604727
 30
0.0
 11
3510.0
 21
-3252.5000160472709
 31
0.0
  0
LINE
  5
11412E
  8
SLIM
 10
3640.0
 20
-2982.50001604727
 30
0.0
 11
3640.0
 21
-3252.5000160472709
 31
0.0
  0
LINE
  5
11412F
  8
SLIM
 10
3770.0
 20
-3252.5000160472709
 30
0.0
 11
3770.0
 21
-2922.5000160472709
 31
0.0
  0
LINE
  5
114131
  8
SLIM
 10
3770.0
 20
-2922.5000160472709
 30
0.0
 11
3256.0
 21
-2922.5000160472709
 31
0.0
  0
LINE
  5
114132
  8
SLIM
 10
3769.9999999999991
 20
-2982.50001604727
 30
0.0
 11
3380.0
 21
-2982.50001604727
 31
0.0
  0
LINE
  5
114133
  8
SLIM
 10
3770.0
 20
-3042.5000160472709
 30
0.0
 11
3256.0
 21
-3042.5000160472709
 31
0.0
  0
LINE
  5
114134
  8
SLIM
 10
3770.0
 20
-3112.5000160472709
 30
0.0
 11
3256.0
 21
-3112.5000160472709
 31
0.0
  0
LINE
  5
114135
  8
SLIM
 10
3770.0
 20
-3182.5000160472709
 30
0.0
 11
3256.0
 21
-3182.5000160472709
 31
0.0
  0
LINE
  5
114136
  8
SLIM
 10
3770.0
 20
-3252.5000160472709
 30
0.0
 11
3256.0
 21
-3252.5000160472709
 31
0.0
  0
LINE
  5
11414B
  8
SLIM
 10
3380.0
 20
-3042.5000160472709
 30
0.0
 11
3255.9999722746579
 21
-2922.5000000000018
 31
0.0
  0
LINE
  5
1238B4
  8
CENTER
 10
2579.9999999999991
 20
-3459.9999999999968
 30
0.0
 11
2409.9999999999991
 21
-3459.9999999999968
 31
0.0
1001
ACDBBLOCKREPETAG
1070
     1
1071
       14
1005
122545
  0
LINE
  5
1238B5
  8
CENTER
 10
2500.0
 20
-3549.9999999999968
 30
0.0
 11
2500.0
 21
-3369.9999999999968
 31
0.0
1001
ACDBBLOCKREPETAG
1070
     1
1071
       15
1005
122546
  0
CIRCLE
  5
1238B6
  8
OBJECT
 10
2500.0
 20
-3459.9999999999968
 30
0.0
 40
70.0
1001
ACDBBLOCKREPETAG
1070
     1
1071
       16
1005
122547
  0
CIRCLE
  5
1238B7
  8
OBJECT
 10
2500.0
 20
-3459.9999999999968
 30
0.0
 40
75.0
1001
ACDBBLOCKREPETAG
1070
     1
1071
       17
1005
122548
  0
LINE
  5
123927
  8
CENTER
 10
2500.0
 20
-3644.9999999999991
 30
0.0
 11
2500.0
 21
-3891.9999999999991
 31
0.0
1001
ACDBBLOCKREPETAG
1070
     1
1071
       25
1005
123927
  0
LINE
  5
123928
  8
OBJECT
 10
2425.0
 20
-3659.9999999999968
 30
0.0
 11
2425.0
 21
-3879.9999999999991
 31
0.0
1001
ACDBBLOCKREPETAG
1070
     1
1071
       26
1005
123928
  0
LINE
  5
12392C
  8
OBJECT
 10
2575.0
 20
-3659.9999999999968
 30
0.0
 11
2575.0
 21
-3756.5000000000618
 31
0.0
1001
ACDBBLOCKREPETAG
1070
     1
1071
       34
1005
12392C
  0
LINE
  5
123A5C
  8
OBJECT
 10
2575.0
 20
-3862.4999999999991
 30
0.0
 11
2575.0
 21
-3879.9999999999991
 31
0.0
1001
ACDBBLOCKREPETAG
1070
     1
1071
       34
1005
12392C
  0
LINE
  5
123A5E
  8
CENTER
 10
2900.0
 20
-3644.9999999999991
 30
0.0
 11
2900.0
 21
-3891.9999999999991
 31
0.0
1001
ACDBBLOCKREPETAG
1070
     1
1071
       25
1005
123927
  0
LINE
  5
123A5F
  8
OBJECT
 10
2825.0
 20
-3659.9999999999968
 30
0.0
 11
2825.0
 21
-3879.9999999999991
 31
0.0
1001
ACDBBLOCKREPETAG
1070
     1
1071
       26
1005
123928
  0
LINE
  5
123A60
  8
OBJECT
 10
2975.0
 20
-3659.9999999999968
 30
0.0
 11
2975.0
 21
-3879.9999999999991
 31
0.0
1001
ACDBBLOCKREPETAG
1070
     1
1071
       34
1005
12392C
  0
LINE
  5
123AD2
  8
CENTER
 10
3579.9999999999991
 20
-3459.9999999999968
 30
0.0
 11
3410.0
 21
-3459.9999999999968
 31
0.0
1001
ACDBBLOCKREPETAG
1070
     1
1071
       14
1005
122545
  0
LINE
  5
123AD3
  8
CENTER
 10
3500.0
 20
-3549.9999999999968
 30
0.0
 11
3500.0
 21
-3369.9999999999968
 31
0.0
1001
ACDBBLOCKREPETAG
1070
     1
1071
       15
1005
122546
  0
CIRCLE
  5
123AD4
  8
OBJECT
 10
3500.0
 20
-3459.9999999999968
 30
0.0
 40
70.0
1001
ACDBBLOCKREPETAG
1070
     1
1071
       16
1005
122547
  0
CIRCLE
  5
123AD5
  8
OBJECT
 10
3500.0
 20
-3459.9999999999968
 30
0.0
 40
75.0
1001
ACDBBLOCKREPETAG
1070
     1
1071
       17
1005
122548
  0
LINE
  5
123ADD
  8
CENTER
 10
3500.0
 20
-3644.9999999999991
 30
0.0
 11
3500.0
 21
-3891.9999999999991
 31
0.0
1001
ACDBBLOCKREPETAG
1070
     1
1071
       25
1005
123927
  0
LINE
  5
123ADE
  8
OBJECT
 10
3424.9999999999991
 20
-3659.9999999999968
 30
0.0
 11
3424.9999999999991
 21
-3879.9999999999991
 31
0.0
1001
ACDBBLOCKREPETAG
1070
     1
1071
       26
1005
123928
  0
LINE
  5
123ADF
  8
OBJECT
 10
3574.9999999999991
 20
-3659.9999999999968
 30
0.0
 11
3574.9999999999991
 21
-3756.5000000000618
 31
0.0
1001
ACDBBLOCKREPETAG
1070
     1
1071
       34
1005
12392C
  0
LINE
  5
123AE0
  8
OBJECT
 10
3574.9999999999991
 20
-3862.4999999999991
 30
0.0
 11
3574.9999999999991
 21
-3879.9999999999991
 31
0.0
1001
ACDBBLOCKREPETAG
1070
     1
1071
       34
1005
12392C
  0
LINE
  5
123AE8
  8
CENTER
 10
3900.0
 20
-3644.9999999999991
 30
0.0
 11
3900.0
 21
-3891.9999999999991
 31
0.0
1001
ACDBBLOCKREPETAG
1070
     1
1071
       25
1005
123927
  0
LINE
  5
123AE9
  8
OBJECT
 10
3824.9999999999991
 20
-3659.9999999999968
 30
0.0
 11
3824.9999999999991
 21
-3879.9999999999991
 31
0.0
1001
ACDBBLOCKREPETAG
1070
     1
1071
       26
1005
123928
  0
LINE
  5
123AEA
  8
OBJECT
 10
3975.0
 20
-3659.9999999999968
 30
0.0
 11
3975.0
 21
-3879.9999999999991
 31
0.0
1001
ACDBBLOCKREPETAG
1070
     1
1071
       34
1005
12392C
  0
LINE
  5
123B38
  8
CENTER
 10
4579.9999999999991
 20
-3459.9999999999968
 30
0.0
 11
4409.9999999999991
 21
-3459.9999999999968
 31
0.0
1001
ACDBBLOCKREPETAG
1070
     1
1071
       14
1005
122545
  0
LINE
  5
123B39
  8
CENTER
 10
4499.9999999999991
 20
-3549.9999999999968
 30
0.0
 11
4499.9999999999991
 21
-3369.9999999999968
 31
0.0
1001
ACDBBLOCKREPETAG
1070
     1
1071
       15
1005
122546
  0
CIRCLE
  5
123B3A
  8
OBJECT
 10
4499.9999999999991
 20
-3459.9999999999968
 30
0.0
 40
70.0
1001
ACDBBLOCKREPETAG
1070
     1
1071
       16
1005
122547
  0
CIRCLE
  5
123B3B
  8
OBJECT
 10
4499.9999999999991
 20
-3459.9999999999968
 30
0.0
 40
75.0
1001
ACDBBLOCKREPETAG
1070
     1
1071
       17
1005
122548
  0
LINE
  5
123B43
  8
CENTER
 10
4500.0
 20
-3644.9999999999991
 30
0.0
 11
4500.0
 21
-3891.9999999999991
 31
0.0
1001
ACDBBLOCKREPETAG
1070
     1
1071
       25
1005
123927
  0
LINE
  5
123B44
  8
OBJECT
 10
4425.0
 20
-3659.9999999999968
 30
0.0
 11
4425.0
 21
-3879.9999999999991
 31
0.0
1001
ACDBBLOCKREPETAG
1070
     1
1071
       26
1005
123928
  0
LINE
  5
123B45
  8
OBJECT
 10
4575.0
 20
-3659.9999999999968
 30
0.0
 11
4575.0
 21
-3756.5000000000618
 31
0.0
1001
ACDBBLOCKREPETAG
1070
     1
1071
       34
1005
12392C
  0
LINE
  5
123B46
  8
OBJECT
 10
4575.0
 20
-3862.4999999999991
 30
0.0
 11
4575.0
 21
-3879.9999999999991
 31
0.0
1001
ACDBBLOCKREPETAG
1070
     1
1071
       34
1005
12392C
  0
LINE
  5
123B4E
  8
CENTER
 10
4900.0
 20
-3644.9999999999991
 30
0.0
 11
4900.0
 21
-3891.9999999999991
 31
0.0
1001
ACDBBLOCKREPETAG
1070
     1
1071
       25
1005
123927
  0
LINE
  5
123B4F
  8
OBJECT
 10
4825.0
 20
-3659.9999999999968
 30
0.0
 11
4825.0
 21
-3879.9999999999991
 31
0.0
1001
ACDBBLOCKREPETAG
1070
     1
1071
       26
1005
123928
  0
LINE
  5
123B50
  8
OBJECT
 10
4975.0
 20
-3659.9999999999968
 30
0.0
 11
4974.9999999999991
 21
-3879.9999999999991
 31
0.0
1001
ACDBBLOCKREPETAG
1070
     1
1071
       34
1005
12392C
  0
POINT
  5
124C02
  8
DOTS
 10
2500.0
 20
-3459.9999999999968
 30
0.0
  0
POINT
  5
124C03
  8
DOTS
 10
2500.0
 20
-3864.9999999999968
 30
0.0
  0
POINT
  5
124C05
  8
DOTS
 10
3500.0
 20
-3864.9999999999968
 30
0.0
  0
POINT
  5
124C07
  8
DOTS
 10
3500.0
 20
-3459.9999999999968
 30
0.0
  0
POINT
  5
124C08
  8
DOTS
 10
4499.9999999999991
 20
-3459.9999999999968
 30
0.0
  0
POINT
  5
124C09
  8
DOTS
 10
4499.9999999999991
 20
-3864.9999999999968
 30
0.0
  0
LINE
  5
12616F
  8
CENTER
 10
4580.0
 20
-199.99999999999909
 30
0.0
 11
4400.0
 21
-199.99999999999909
 31
0.0
1001
ACDBBLOCKREPETAG
1070
     1
1071
       14
1005
0
  0
LINE
  5
126170
  8
CENTER
 10
4500.0
 20
-294.99999999999898
 30
0.0
 11
4500.0
 21
-99.999999999999091
 31
0.0
1001
ACDBBLOCKREPETAG
1070
     1
1071
       15
1005
0
  0
CIRCLE
  5
126171
  8
OBJECT
 10
4500.0
 20
-199.99999999999909
 30
0.0
 40
53.5
1001
ACDBBLOCKREPETAG
1070
     1
1071
      344
1005
0
  0
POINT
  5
126172
  8
DOTS
 10
4500.0
 20
-199.99999999999909
 30
0.0
 50
270.0
1001
ACDBBLOCKREPETAG
1070
     1
1071
      362
1005
0
  0
CIRCLE
  5
126173
  8
OBJECT
 10
4500.0
 20
-199.99999999999909
 30
0.0
 40
70.0
1001
ACDBBLOCKREPETAG
1070
     1
1071
       16
1005
0
  0
ARC
  5
126174
  8
OBJECT
 10
4500.0
 20
-199.99999999999909
 30
0.0
 40
80.0
 50
50.805032573890557
 51
309.19496742597107
1001
ACDBBLOCKREPETAG
1070
     1
1071
       18
1005
0
  0
CIRCLE
  5
126175
  8
OBJECT
 10
4500.0
 20
-199.99999999999909
 30
0.0
 40
77.0
1001
ACDBBLOCKREPETAG
1070
     1
1071
       17
1005
0
  0
LINE
  5
126176
  8
OBJECT
 10
4545.6618002273244
 20
-261.99999999999909
 30
0.0
 11
4580.0
 21
-261.99999999999909
 31
0.0
1001
ACDBBLOCKREPETAG
1070
     1
1071
       20
1005
0
  0
LINE
  5
126177
  8
OBJECT
 10
4545.6618002273244
 20
-137.99999999999909
 30
0.0
 11
4580.0
 21
-137.99999999999909
 31
0.0
1001
ACDBBLOCKREPETAG
1070
     1
1071
       19
1005
0
  0
LINE
  5
126178
  8
OBJECT
 10
4555.0
 20
-332.99999999999898
 30
0.0
 11
4555.0
 21
-339.99999999999909
 31
0.0
1001
ACDBBLOCKREPETAG
1070
     1
1071
       20
1005
0
  0
LINE
  5
126179
  8
OBJECT
 10
4555.0
 20
-339.99999999999909
 30
0.0
 11
4445.0
 21
-339.99999999999909
 31
0.0
1001
ACDBBLOCKREPETAG
1070
     1
1071
       21
1005
0
  0
LINE
  5
12617A
  8
OBJECT
 10
4445.0
 20
-339.99999999999909
 30
0.0
 11
4445.0
 21
-332.99999999999898
 31
0.0
1001
ACDBBLOCKREPETAG
1070
     1
1071
       22
1005
0
  0
LINE
  5
12617B
  8
OBJECT
 10
4445.0
 20
-332.99999999999898
 30
0.0
 11
4555.0
 21
-332.99999999999898
 31
0.0
1001
ACDBBLOCKREPETAG
1070
     1
1071
       23
1005
0
  0
LINE
  5
12617C
  8
CENTER
 10
4500.0
 20
-354.99999999999909
 30
0.0
 11
4500.0
 21
-279.99999999999909
 31
0.0
1001
ACDBBLOCKREPETAG
1070
     1
1071
       24
1005
0
  0
LINE
  5
12617D
  8
OBJECT
 10
4552.0
 20
-332.99999999999898
 30
0.0
 11
4552.0
 21
-296.99999999999898
 31
0.0
1001
ACDBBLOCKREPETAG
1070
     1
1071
       25
1005
0
  0
LINE
  5
12617E
  8
OBJECT
 10
4552.0
 20
-296.99999999999898
 30
0.0
 11
4448.0
 21
-296.99999999999898
 31
0.0
1001
ACDBBLOCKREPETAG
1070
     1
1071
       26
1005
0
  0
LINE
  5
12617F
  8
OBJECT
 10
4448.0
 20
-296.99999999999898
 30
0.0
 11
4448.0
 21
-332.99999999999898
 31
0.0
1001
ACDBBLOCKREPETAG
1070
     1
1071
       27
1005
0
  0
LINE
  5
126180
  8
OBJECT
 10
4547.5
 20
-292.99999999999898
 30
0.0
 11
4547.5
 21
-284.49999999999898
 31
0.0
1001
ACDBBLOCKREPETAG
1070
     1
1071
       28
1005
0
  0
LINE
  5
126181
  8
OBJECT
 10
4452.4999999999991
 20
-284.49999999999898
 30
0.0
 11
4452.4999999999991
 21
-292.99999999999898
 31
0.0
1001
ACDBBLOCKREPETAG
1070
     1
1071
       29
1005
0
  0
LINE
  5
126182
  8
OBJECT
 10
4452.4999999999991
 20
-292.99999999999898
 30
0.0
 11
4547.5
 21
-292.99999999999898
 31
0.0
1001
ACDBBLOCKREPETAG
1070
     1
1071
       30
1005
0
  0
LINE
  5
126183
  8
OBJECT
 10
4552.0
 20
-296.99999999999898
 30
0.0
 11
4547.5
 21
-292.99999999999898
 31
0.0
1001
ACDBBLOCKREPETAG
1070
     1
1071
       31
1005
0
  0
LINE
  5
126184
  8
OBJECT
 10
4448.0
 20
-296.99999999999898
 30
0.0
 11
4452.4999999999991
 21
-292.99999999999898
 31
0.0
1001
ACDBBLOCKREPETAG
1070
     1
1071
       32
1005
0
  0
LINE
  5
126185
  8
OBJECT
 10
4450.5
 20
-284.49999999999733
 30
0.0
 11
4549.5
 21
-284.49999999999898
 31
0.0
1001
ACDBBLOCKREPETAG
1070
     1
1071
       33
1005
0
  0
LINE
  5
126186
  8
HIDDEN
 10
4538.0
 20
-287.99999999999909
 30
0.0
 11
4462.0
 21
-287.99999999999909
 31
0.0
1001
ACDBBLOCKREPETAG
1070
     1
1071
       34
1005
0
  0
LINE
  5
126187
  8
OBJECT
 10
4549.5
 20
-284.49999999999898
 30
0.0
 11
4549.5
 21
-262.84703652520051
 31
0.0
1001
ACDBBLOCKREPETAG
1070
     1
1071
       35
1005
0
  0
LINE
  5
126188
  8
OBJECT
 10
4450.5
 20
-284.49999999999733
 30
0.0
 11
4450.5
 21
-262.84703652520051
 31
0.0
1001
ACDBBLOCKREPETAG
1070
     1
1071
       36
1005
0
  0
ARC
  5
126189
  8
OBJECT
 10
4500.0
 20
-199.99999999999909
 30
0.0
 40
85.0
 50
46.837102859727011
 51
234.38379327149741
1001
ACDBBLOCKREPETAG
1070
     1
1071
       18
1005
0
  0
ARC
  5
12618A
  8
OBJECT
 10
4500.0
 20
-199.99999999999909
 30
0.0
 40
85.0
 50
305.61620672850262
 51
313.162897140273
1001
ACDBBLOCKREPETAG
1070
     1
1071
       18
1005
0
  0
LINE
  5
126192
  8
OBJECT
 10
2555.0
 20
-332.99999999999898
 30
0.0
 11
2555.0
 21
-339.99999999999909
 31
0.0
1001
ACDBBLOCKREPETAG
1070
     1
1071
       20
1005
0
  0
LINE
  5
126193
  8
OBJECT
 10
2555.0
 20
-339.99999999999909
 30
0.0
 11
2445.0
 21
-339.99999999999909
 31
0.0
1001
ACDBBLOCKREPETAG
1070
     1
1071
       21
1005
0
  0
LINE
  5
126194
  8
OBJECT
 10
2445.0
 20
-339.99999999999909
 30
0.0
 11
2445.0
 21
-332.99999999999898
 31
0.0
1001
ACDBBLOCKREPETAG
1070
     1
1071
       22
1005
0
  0
LINE
  5
126195
  8
OBJECT
 10
2445.0
 20
-332.99999999999898
 30
0.0
 11
2555.0
 21
-332.99999999999898
 31
0.0
1001
ACDBBLOCKREPETAG
1070
     1
1071
       23
1005
0
  0
LINE
  5
126196
  8
CENTER
 10
2500.0
 20
-354.99999999999909
 30
0.0
 11
2500.0
 21
-279.99999999999909
 31
0.0
1001
ACDBBLOCKREPETAG
1070
     1
1071
       24
1005
0
  0
LINE
  5
126197
  8
OBJECT
 10
2552.0
 20
-332.99999999999898
 30
0.0
 11
2552.0
 21
-296.99999999999898
 31
0.0
1001
ACDBBLOCKREPETAG
1070
     1
1071
       25
1005
0
  0
LINE
  5
126198
  8
OBJECT
 10
2552.0
 20
-296.99999999999898
 30
0.0
 11
2448.0
 21
-296.99999999999898
 31
0.0
1001
ACDBBLOCKREPETAG
1070
     1
1071
       26
1005
0
  0
LINE
  5
126199
  8
OBJECT
 10
2448.0
 20
-296.99999999999898
 30
0.0
 11
2448.0
 21
-332.99999999999898
 31
0.0
1001
ACDBBLOCKREPETAG
1070
     1
1071
       27
1005
0
  0
LINE
  5
12619A
  8
OBJECT
 10
2547.5
 20
-292.99999999999898
 30
0.0
 11
2547.5
 21
-284.49999999999898
 31
0.0
1001
ACDBBLOCKREPETAG
1070
     1
1071
       28
1005
0
  0
LINE
  5
12619B
  8
OBJECT
 10
2452.5000000000009
 20
-284.49999999999898
 30
0.0
 11
2452.5000000000009
 21
-292.99999999999898
 31
0.0
1001
ACDBBLOCKREPETAG
1070
     1
1071
       29
1005
0
  0
LINE
  5
12619C
  8
OBJECT
 10
2452.5000000000009
 20
-292.99999999999898
 30
0.0
 11
2547.5
 21
-292.99999999999898
 31
0.0
1001
ACDBBLOCKREPETAG
1070
     1
1071
       30
1005
0
  0
LINE
  5
12619D
  8
OBJECT
 10
2552.0
 20
-296.99999999999898
 30
0.0
 11
2547.5
 21
-292.99999999999898
 31
0.0
1001
ACDBBLOCKREPETAG
1070
     1
1071
       31
1005
0
  0
LINE
  5
12619E
  8
OBJECT
 10
2448.0
 20
-296.99999999999898
 30
0.0
 11
2452.5000000000009
 21
-292.99999999999898
 31
0.0
1001
ACDBBLOCKREPETAG
1070
     1
1071
       32
1005
0
  0
LINE
  5
12619F
  8
OBJECT
 10
2450.5
 20
-284.49999999999733
 30
0.0
 11
2549.5
 21
-284.49999999999898
 31
0.0
1001
ACDBBLOCKREPETAG
1070
     1
1071
       33
1005
0
  0
LINE
  5
1261A0
  8
HIDDEN
 10
2538.0
 20
-287.99999999999909
 30
0.0
 11
2462.0
 21
-287.99999999999909
 31
0.0
1001
ACDBBLOCKREPETAG
1070
     1
1071
       34
1005
0
  0
LINE
  5
1261A1
  8
OBJECT
 10
2549.5
 20
-284.49999999999898
 30
0.0
 11
2549.5
 21
-262.84703652520051
 31
0.0
1001
ACDBBLOCKREPETAG
1070
     1
1071
       35
1005
0
  0
LINE
  5
1261A2
  8
OBJECT
 10
2450.5
 20
-284.49999999999733
 30
0.0
 11
2450.5
 21
-262.84703652520051
 31
0.0
1001
ACDBBLOCKREPETAG
1070
     1
1071
       36
1005
0
  0
CIRCLE
  5
1261AA
  8
OBJECT
 10
2500.0
 20
-199.99999999999909
 30
0.0
 40
53.5
1001
ACDBBLOCKREPETAG
1070
     1
1071
      344
1005
0
  0
POINT
  5
1261AB
  8
DOTS
 10
2500.0
 20
-199.99999999999909
 30
0.0
 50
270.0
1001
ACDBBLOCKREPETAG
1070
     1
1071
      362
1005
0
  0
LINE
  5
1261AD
  8
CENTER
 10
2580.0
 20
-199.99999999999909
 30
0.0
 11
2405.0
 21
-199.99999999999909
 31
0.0
1001
ACDBBLOCKREPETAG
1070
     1
1071
       14
1005
0
  0
LINE
  5
1261AE
  8
CENTER
 10
2500.0
 20
-294.99999999999898
 30
0.0
 11
2500.0
 21
-104.9999999999991
 31
0.0
1001
ACDBBLOCKREPETAG
1070
     1
1071
       15
1005
0
  0
CIRCLE
  5
1261AF
  8
OBJECT
 10
2500.0
 20
-199.99999999999909
 30
0.0
 40
70.0
1001
ACDBBLOCKREPETAG
1070
     1
1071
       16
1005
0
  0
CIRCLE
  5
1261B0
  8
OBJECT
 10
2500.0
 20
-199.99999999999909
 30
0.0
 40
77.0
1001
ACDBBLOCKREPETAG
1070
     1
1071
       17
1005
0
  0
ARC
  5
1261B1
  8
OBJECT
 10
2500.0
 20
-199.99999999999909
 30
0.0
 40
80.0
 50
50.805032573890557
 51
309.19496742597107
1001
ACDBBLOCKREPETAG
1070
     1
1071
       18
1005
0
  0
LINE
  5
1261B2
  8
OBJECT
 10
2545.6618002273249
 20
-137.99999999999909
 30
0.0
 11
2580.0
 21
-137.99999999999909
 31
0.0
1001
ACDBBLOCKREPETAG
1070
     1
1071
       19
1005
0
  0
LINE
  5
1261B3
  8
OBJECT
 10
2545.6618002273249
 20
-261.99999999999909
 30
0.0
 11
2580.0
 21
-261.99999999999909
 31
0.0
1001
ACDBBLOCKREPETAG
1070
     1
1071
       20
1005
0
  0
LINE
  5
126231
  8
SLIM
 10
5454.0
 20
-764.99999999999591
 30
0.0
 11
5454.0
 21
-1484.9999999999959
 31
0.0
  0
LINE
  5
126232
  8
SLIM
 10
5602.0
 20
-764.99999999999591
 30
0.0
 11
5602.0
 21
-1484.9999999999959
 31
0.0
  0
LINE
  5
126233
  8
SLIM
 10
5350.0
 20
-1484.9999999999959
 30
0.0
 11
5350.0
 21
-764.99999999999591
 31
0.0
  0
LINE
  5
126234
  8
SLIM
 10
5602.0
 20
-764.99999999999591
 30
0.0
 11
5350.0
 21
-764.99999999999591
 31
0.0
  0
LINE
  5
126235
  8
SLIM
 10
5602.0
 20
-812.99999999999591
 30
0.0
 11
5350.0
 21
-812.99999999999591
 31
0.0
  0
LINE
  5
126239
  8
SLIM
 10
5602.0
 20
-860.99999999999625
 30
0.0
 11
5350.0
 21
-860.99999999999625
 31
0.0
  0
LINE
  5
12623A
  8
SLIM
 10
5602.0
 20
-908.99999999999636
 30
0.0
 11
5350.0
 21
-908.99999999999636
 31
0.0
  0
LINE
  5
12623B
  8
SLIM
 10
5602.0
 20
-956.99999999999613
 30
0.0
 11
5350.0
 21
-956.99999999999613
 31
0.0
  0
LINE
  5
126241
  8
SLIM
 10
5602.0
 20
-1004.999999999996
 30
0.0
 11
5350.0
 21
-1004.999999999996
 31
0.0
  0
LINE
  5
126244
  8
SLIM
 10
5602.0
 20
-1052.9999999999959
 30
0.0
 11
5350.0
 21
-1052.9999999999959
 31
0.0
  0
LINE
  5
126247
  8
SLIM
 10
5602.0
 20
-1100.9999999999959
 30
0.0
 11
5350.0
 21
-1100.9999999999959
 31
0.0
  0
LINE
  5
12624A
  8
SLIM
 10
5602.0
 20
-1148.9999999999959
 30
0.0
 11
5350.0
 21
-1148.9999999999959
 31
0.0
  0
LINE
  5
12624D
  8
SLIM
 10
5602.0
 20
-1196.9999999999959
 30
0.0
 11
5350.0
 21
-1196.9999999999959
 31
0.0
  0
LINE
  5
12624F
  8
SLIM
 10
5602.0
 20
-1244.9999999999959
 30
0.0
 11
5350.0
 21
-1244.9999999999959
 31
0.0
  0
LINE
  5
126251
  8
SLIM
 10
5602.0
 20
-1292.9999999999959
 30
0.0
 11
5350.0
 21
-1292.9999999999959
 31
0.0
  0
LINE
  5
126253
  8
SLIM
 10
5602.0
 20
-1340.9999999999959
 30
0.0
 11
5350.0
 21
-1340.9999999999959
 31
0.0
  0
LINE
  5
126255
  8
SLIM
 10
5602.0
 20
-1388.9999999999959
 30
0.0
 11
5350.0
 21
-1388.9999999999959
 31
0.0
  0
LINE
  5
126257
  8
SLIM
 10
5602.0
 20
-1436.9999999999959
 30
0.0
 11
5350.0
 21
-1436.9999999999959
 31
0.0
  0
LINE
  5
126259
  8
SLIM
 10
5602.0
 20
-1484.9999999999959
 30
0.0
 11
5350.0
 21
-1484.9999999999959
 31
0.0
  0
LINE
  5
12710B
  8
OBJECT
 10
4923.0
 20
-571.0
 30
0.0
 11
4923.0
 21
-550.0
 31
0.0
1001
ACDBBLOCKREPETAG
1070
     1
1071
       22
1005
12710B
  0
LINE
  5
12710C
  8
OBJECT
 10
4923.0
 20
-550.0
 30
0.0
 11
5077.0
 21
-550.0
 31
0.0
1001
ACDBBLOCKREPETAG
1070
     1
1071
       23
1005
12710C
  0
LINE
  5
12710D
  8
HIDDEN
 10
4943.0
 20
-620.0
 30
0.0
 11
5057.0
 21
-620.0
 31
0.0
1001
ACDBBLOCKREPETAG
1070
     1
1071
       24
1005
12710D
  0
LINE
  5
12710E
  8
OBJECT
 10
5077.0
 20
-550.0
 30
0.0
 11
5077.0
 21
-571.0
 31
0.0
1001
ACDBBLOCKREPETAG
1070
     1
1071
       25
1005
12710E
  0
LINE
  5
12710F
  8
OBJECT
 10
5077.0
 20
-571.0
 30
0.0
 11
4923.0
 21
-571.0
 31
0.0
1001
ACDBBLOCKREPETAG
1070
     1
1071
       26
1005
12710F
  0
LINE
  5
127110
  8
CENTER
 10
5000.0
 20
-535.0
 30
0.0
 11
5000.0
 21
-890.0
 31
0.0
1001
ACDBBLOCKREPETAG
1070
     1
1071
       27
1005
127110
  0
LINE
  5
127111
  8
OBJECT
 10
4925.0
 20
-634.0
 30
0.0
 11
4925.0
 21
-878.0
 31
0.0
1001
ACDBBLOCKREPETAG
1070
     1
1071
       28
1005
127111
  0
LINE
  5
127112
  8
OBJECT
 10
4928.0
 20
-571.0
 30
0.0
 11
4928.0
 21
-634.0
 31
0.0
1001
ACDBBLOCKREPETAG
1070
     1
1071
       29
1005
127112
  0
LINE
  5
127113
  8
OBJECT
 10
5072.0
 20
-634.0
 30
0.0
 11
5072.0
 21
-571.0
 31
0.0
1001
ACDBBLOCKREPETAG
1070
     1
1071
       30
1005
127113
  0
LINE
  5
127114
  8
OBJECT
 10
4920.0
 20
-878.0
 30
0.0
 11
5080.0
 21
-878.0
 31
0.0
1001
ACDBBLOCKREPETAG
1070
     1
1071
       31
1005
127114
  0
LINE
  5
127115
  8
OBJECT
 10
5074.9999999997199
 20
-634.0
 30
0.0
 11
4925.0
 21
-634.0
 31
0.0
1001
ACDBBLOCKREPETAG
1070
     1
1071
       32
1005
127115
  0
LINE
  5
127116
  8
OBJECT
 10
4920.0
 20
-878.0
 30
0.0
 11
4920.0
 21
-890.0
 31
0.0
1001
ACDBBLOCKREPETAG
1070
     1
1071
       33
1005
127116
  0
LINE
  5
127117
  8
OBJECT
 10
4920.0
 20
-890.0
 30
0.0
 11
5080.0
 21
-890.0
 31
0.0
1001
ACDBBLOCKREPETAG
1070
     1
1071
       34
1005
127117
  0
LINE
  5
127118
  8
OBJECT
 10
5080.0
 20
-890.0
 30
0.0
 11
5080.0
 21
-878.0
 31
0.0
1001
ACDBBLOCKREPETAG
1070
     1
1071
       35
1005
127118
  0
LINE
  5
127119
  8
OBJECT
 10
5074.9999999997199
 20
-634.0
 30
0.0
 11
5075.0
 21
-878.0
 31
0.0
1001
ACDBBLOCKREPETAG
1070
     1
1071
       37
1005
127119
  0
LINE
  5
12711A
  8
OBJECT
 10
4423.0
 20
-571.0
 30
0.0
 11
4423.0
 21
-550.0
 31
0.0
1001
ACDBBLOCKREPETAG
1070
     1
1071
        0
1005
12711A
  0
LINE
  5
12711B
  8
OBJECT
 10
4423.0
 20
-550.0
 30
0.0
 11
4577.0
 21
-550.0
 31
0.0
1001
ACDBBLOCKREPETAG
1070
     1
1071
        1
1005
12711B
  0
LINE
  5
12711C
  8
HIDDEN
 10
4443.0
 20
-620.0
 30
0.0
 11
4557.0
 21
-620.0
 31
0.0
1001
ACDBBLOCKREPETAG
1070
     1
1071
        2
1005
12711C
  0
LINE
  5
12711D
  8
OBJECT
 10
4577.0
 20
-550.0
 30
0.0
 11
4577.0
 21
-571.0
 31
0.0
1001
ACDBBLOCKREPETAG
1070
     1
1071
        3
1005
12711D
  0
LINE
  5
12711E
  8
OBJECT
 10
4577.0
 20
-571.0
 30
0.0
 11
4423.0
 21
-571.0
 31
0.0
1001
ACDBBLOCKREPETAG
1070
     1
1071
        4
1005
12711E
  0
LINE
  5
12711F
  8
CENTER
 10
4500.0
 20
-535.0
 30
0.0
 11
4500.0
 21
-890.0
 31
0.0
1001
ACDBBLOCKREPETAG
1070
     1
1071
        5
1005
12711F
  0
LINE
  5
127120
  8
OBJECT
 10
4425.0
 20
-634.0
 30
0.0
 11
4425.0
 21
-878.0
 31
0.0
1001
ACDBBLOCKREPETAG
1070
     1
1071
        6
1005
127120
  0
LINE
  5
127121
  8
OBJECT
 10
4428.0
 20
-571.0
 30
0.0
 11
4428.0
 21
-634.0
 31
0.0
1001
ACDBBLOCKREPETAG
1070
     1
1071
        7
1005
127121
  0
LINE
  5
127122
  8
OBJECT
 10
4572.0
 20
-634.0
 30
0.0
 11
4572.0
 21
-571.0
 31
0.0
1001
ACDBBLOCKREPETAG
1070
     1
1071
        8
1005
127122
  0
LINE
  5
127123
  8
OBJECT
 10
4420.0
 20
-878.0
 30
0.0
 11
4580.0
 21
-878.0
 31
0.0
1001
ACDBBLOCKREPETAG
1070
     1
1071
        9
1005
127123
  0
LINE
  5
127124
  8
OBJECT
 10
4580.0
 20
-634.0
 30
0.0
 11
4425.0
 21
-634.0
 31
0.0
1001
ACDBBLOCKREPETAG
1070
     1
1071
       10
1005
127124
  0
LINE
  5
127125
  8
OBJECT
 10
4420.0
 20
-878.0
 30
0.0
 11
4420.0
 21
-890.0
 31
0.0
1001
ACDBBLOCKREPETAG
1070
     1
1071
       11
1005
127125
  0
LINE
  5
127126
  8
OBJECT
 10
4420.0
 20
-890.0
 30
0.0
 11
4580.0
 21
-890.0
 31
0.0
1001
ACDBBLOCKREPETAG
1070
     1
1071
       12
1005
127126
  0
LINE
  5
127127
  8
OBJECT
 10
4580.0
 20
-890.0
 30
0.0
 11
4580.0
 21
-878.0
 31
0.0
1001
ACDBBLOCKREPETAG
1070
     1
1071
       13
1005
127127
  0
LINE
  5
127128
  8
OBJECT
 10
4574.9999999998618
 20
-757.99999999985096
 30
0.0
 11
4575.0
 21
-878.0
 31
0.0
1001
ACDBBLOCKREPETAG
1070
     1
1071
       15
1005
127128
  0
LINE
  5
127129
  8
OBJECT
 10
4574.9999908029849
 20
-757.99998602702181
 30
0.0
 11
4580.0
 21
-757.99998602702181
 31
0.0
1001
ACDBBLOCKREPETAG
1070
     1
1071
       16
1005
127129
  0
ARC
  5
12712A
  8
OBJECT
 10
4700.6872746716726
 20
-749.40809941010752
 30
0.0
 40
170.6350503965856
 50
137.44134459184301
 51
149.91949581337221
1001
ACDBBLOCKREPETAG
1070
     1
1071
       17
1005
12712A
  0
ARC
  5
12712B
  8
OBJECT
 10
4618.8455987040506
 20
-705.88272669536479
 30
0.0
 40
78.072222021763665
 50
147.4551531038623
 51
164.66365997718671
1001
ACDBBLOCKREPETAG
1070
     1
1071
       18
1005
12712B
  0
ARC
  5
12712C
  8
OBJECT
 10
4585.7554349608718
 20
-696.0
 30
0.0
 40
43.55353926885617
 50
165.688452300753
 51
194.3115476992468
1001
ACDBBLOCKREPETAG
1070
     1
1071
       19
1005
12712C
  0
ARC
  5
12712D
  8
OBJECT
 10
4700.6872746716726
 20
-642.59190058989225
 30
0.0
 40
170.6350503965856
 50
210.08050418662771
 51
222.55865540815699
1001
ACDBBLOCKREPETAG
1070
     1
1071
       20
1005
12712D
  0
ARC
  5
12712E
  8
OBJECT
 10
4618.8455987040506
 20
-686.11727330463521
 30
0.0
 40
78.072222021763665
 50
195.3363400228132
 51
212.5448468961377
1001
ACDBBLOCKREPETAG
1070
     1
1071
       21
1005
12712E
  0
LINE
  5
12712F
  8
OBJECT
 10
2923.0
 20
-571.0
 30
0.0
 11
2923.0
 21
-550.0
 31
0.0
1001
ACDBBLOCKREPETAG
1070
     1
1071
       22
1005
12712F
  0
LINE
  5
127130
  8
OBJECT
 10
2923.0
 20
-550.0
 30
0.0
 11
3077.0
 21
-550.0
 31
0.0
1001
ACDBBLOCKREPETAG
1070
     1
1071
       23
1005
127130
  0
LINE
  5
127131
  8
HIDDEN
 10
2943.0
 20
-620.0
 30
0.0
 11
3057.0
 21
-620.0
 31
0.0
1001
ACDBBLOCKREPETAG
1070
     1
1071
       24
1005
127131
  0
LINE
  5
127132
  8
OBJECT
 10
3077.0
 20
-550.0
 30
0.0
 11
3077.0
 21
-571.0
 31
0.0
1001
ACDBBLOCKREPETAG
1070
     1
1071
       25
1005
127132
  0
LINE
  5
127133
  8
OBJECT
 10
3077.0
 20
-571.0
 30
0.0
 11
2923.0
 21
-571.0
 31
0.0
1001
ACDBBLOCKREPETAG
1070
     1
1071
       26
1005
127133
  0
LINE
  5
127134
  8
CENTER
 10
3000.0
 20
-535.0
 30
0.0
 11
3000.0
 21
-890.0
 31
0.0
1001
ACDBBLOCKREPETAG
1070
     1
1071
       27
1005
127134
  0
LINE
  5
127135
  8
OBJECT
 10
2925.0
 20
-634.0
 30
0.0
 11
2925.0
 21
-878.0
 31
0.0
1001
ACDBBLOCKREPETAG
1070
     1
1071
       28
1005
127135
  0
LINE
  5
127136
  8
OBJECT
 10
2928.0
 20
-571.0
 30
0.0
 11
2928.0
 21
-634.0
 31
0.0
1001
ACDBBLOCKREPETAG
1070
     1
1071
       29
1005
127136
  0
LINE
  5
127137
  8
OBJECT
 10
3072.0
 20
-634.0
 30
0.0
 11
3072.0
 21
-571.0
 31
0.0
1001
ACDBBLOCKREPETAG
1070
     1
1071
       30
1005
127137
  0
LINE
  5
127138
  8
OBJECT
 10
2920.0
 20
-878.0
 30
0.0
 11
3080.0
 21
-878.0
 31
0.0
1001
ACDBBLOCKREPETAG
1070
     1
1071
       31
1005
127138
  0
LINE
  5
127139
  8
OBJECT
 10
3074.9999999997199
 20
-634.0
 30
0.0
 11
2925.0
 21
-634.0
 31
0.0
1001
ACDBBLOCKREPETAG
1070
     1
1071
       32
1005
127139
  0
LINE
  5
12713A
  8
OBJECT
 10
2920.0
 20
-878.0
 30
0.0
 11
2920.0
 21
-890.0
 31
0.0
1001
ACDBBLOCKREPETAG
1070
     1
1071
       33
1005
12713A
  0
LINE
  5
12713B
  8
OBJECT
 10
2920.0
 20
-890.0
 30
0.0
 11
3080.0
 21
-890.0
 31
0.0
1001
ACDBBLOCKREPETAG
1070
     1
1071
       34
1005
12713B
  0
LINE
  5
12713C
  8
OBJECT
 10
3080.0
 20
-890.0
 30
0.0
 11
3080.0
 21
-878.0
 31
0.0
1001
ACDBBLOCKREPETAG
1070
     1
1071
       35
1005
12713C
  0
LINE
  5
12713D
  8
OBJECT
 10
3074.9999999997199
 20
-634.0
 30
0.0
 11
3075.0
 21
-878.0
 31
0.0
1001
ACDBBLOCKREPETAG
1070
     1
1071
       37
1005
12713D
  0
LINE
  5
12713E
  8
OBJECT
 10
2423.0
 20
-571.0
 30
0.0
 11
2423.0
 21
-550.0
 31
0.0
1001
ACDBBLOCKREPETAG
1070
     1
1071
        0
1005
12713E
  0
LINE
  5
12713F
  8
OBJECT
 10
2423.0
 20
-550.0
 30
0.0
 11
2577.0
 21
-550.0
 31
0.0
1001
ACDBBLOCKREPETAG
1070
     1
1071
        1
1005
12713F
  0
LINE
  5
127140
  8
HIDDEN
 10
2443.0
 20
-620.0
 30
0.0
 11
2557.0
 21
-620.0
 31
0.0
1001
ACDBBLOCKREPETAG
1070
     1
1071
        2
1005
127140
  0
LINE
  5
127141
  8
OBJECT
 10
2577.0
 20
-550.0
 30
0.0
 11
2577.0
 21
-571.0
 31
0.0
1001
ACDBBLOCKREPETAG
1070
     1
1071
        3
1005
127141
  0
LINE
  5
127142
  8
OBJECT
 10
2577.0
 20
-571.0
 30
0.0
 11
2423.0
 21
-571.0
 31
0.0
1001
ACDBBLOCKREPETAG
1070
     1
1071
        4
1005
127142
  0
LINE
  5
127143
  8
CENTER
 10
2500.0
 20
-535.0
 30
0.0
 11
2500.0
 21
-890.0
 31
0.0
1001
ACDBBLOCKREPETAG
1070
     1
1071
        5
1005
127143
  0
LINE
  5
127144
  8
OBJECT
 10
2425.0
 20
-634.0
 30
0.0
 11
2425.0
 21
-878.0
 31
0.0
1001
ACDBBLOCKREPETAG
1070
     1
1071
        6
1005
127144
  0
LINE
  5
127145
  8
OBJECT
 10
2428.0
 20
-571.0
 30
0.0
 11
2428.0
 21
-634.0
 31
0.0
1001
ACDBBLOCKREPETAG
1070
     1
1071
        7
1005
127145
  0
LINE
  5
127146
  8
OBJECT
 10
2572.0
 20
-634.0
 30
0.0
 11
2572.0
 21
-571.0
 31
0.0
1001
ACDBBLOCKREPETAG
1070
     1
1071
        8
1005
127146
  0
LINE
  5
127147
  8
OBJECT
 10
2420.0
 20
-878.0
 30
0.0
 11
2580.0
 21
-878.0
 31
0.0
1001
ACDBBLOCKREPETAG
1070
     1
1071
        9
1005
127147
  0
LINE
  5
127148
  8
OBJECT
 10
2580.0
 20
-634.0
 30
0.0
 11
2425.0
 21
-634.0
 31
0.0
1001
ACDBBLOCKREPETAG
1070
     1
1071
       10
1005
127148
  0
LINE
  5
127149
  8
OBJECT
 10
2420.0
 20
-878.0
 30
0.0
 11
2420.0
 21
-890.0
 31
0.0
1001
ACDBBLOCKREPETAG
1070
     1
1071
       11
1005
127149
  0
LINE
  5
12714A
  8
OBJECT
 10
2420.0
 20
-890.0
 30
0.0
 11
2580.0
 21
-890.0
 31
0.0
1001
ACDBBLOCKREPETAG
1070
     1
1071
       12
1005
12714A
  0
LINE
  5
12714B
  8
OBJECT
 10
2580.0
 20
-890.0
 30
0.0
 11
2580.0
 21
-878.0
 31
0.0
1001
ACDBBLOCKREPETAG
1070
     1
1071
       13
1005
12714B
  0
LINE
  5
12714C
  8
OBJECT
 10
2574.9999999998622
 20
-757.99999999985096
 30
0.0
 11
2575.0
 21
-878.0
 31
0.0
1001
ACDBBLOCKREPETAG
1070
     1
1071
       15
1005
12714C
  0
LINE
  5
12714D
  8
OBJECT
 10
2574.9999908029849
 20
-757.99998602702181
 30
0.0
 11
2580.0
 21
-757.99998602702181
 31
0.0
1001
ACDBBLOCKREPETAG
1070
     1
1071
       16
1005
12714D
  0
ARC
  5
12714E
  8
OBJECT
 10
2700.6872746716731
 20
-749.40809941010752
 30
0.0
 40
170.6350503965856
 50
137.44134459184301
 51
149.91949581337221
1001
ACDBBLOCKREPETAG
1070
     1
1071
       17
1005
12714E
  0
ARC
  5
12714F
  8
OBJECT
 10
2618.8455987040511
 20
-705.88272669536479
 30
0.0
 40
78.072222021763665
 50
147.4551531038623
 51
164.6636599771798
1001
ACDBBLOCKREPETAG
1070
     1
1071
       18
1005
12714F
  0
ARC
  5
127150
  8
OBJECT
 10
2585.7554349608731
 20
-696.0
 30
0.0
 40
43.55353926885617
 50
165.6884523007466
 51
194.3115476992534
1001
ACDBBLOCKREPETAG
1070
     1
1071
       19
1005
127150
  0
ARC
  5
127151
  8
OBJECT
 10
2700.6872746716731
 20
-642.59190058989225
 30
0.0
 40
170.6350503965856
 50
210.08050418662771
 51
222.55865540815699
1001
ACDBBLOCKREPETAG
1070
     1
1071
       20
1005
127151
  0
ARC
  5
127152
  8
OBJECT
 10
2618.8455987040511
 20
-686.11727330463521
 30
0.0
 40
78.072222021763665
 50
195.3363400228202
 51
212.5448468961377
1001
ACDBBLOCKREPETAG
1070
     1
1071
       21
1005
127152
  0
TEXT
  5
127153
  8
SLIM
 10
2032.5
 20
-1828.999999999998
 30
0.0
 40
28.0
  1
※ 対応P寸法　　310＜320＞～460（10mm単位。＜＞内は下枝75の場合）
 41
0.75
  0
TEXT
  5
127154
  8
SLIM
 10
4026.5999999999999
 20
-1818.000026666665
 30
0.0
 40
28.0
  1
※ 対応P寸法　　310＜320＞～440（10mm単位。＜＞内は下枝75の場合）
 41
0.75
  0
TEXT
  5
127155
  8
SLIM
 10
4026.5999999999999
 20
-1864.6666933333311
 30
0.0
 40
28.0
  1
※ 対応スラブ厚　180～（m-10）
 41
0.75
  0
TEXT
  5
127156
  8
SLIM
 10
4026.5999999999999
 20
-1911.333359999998
 30
0.0
 40
28.0
  1
※ 足切り可能寸法（最大）　680-P-m（コンパクトＬベンド使用なら+10）
 41
0.75
  0
TEXT
  5
127157
  8
SLIM
 10
4098.8999999999987
 20
-1983.3333066666651
 30
0.0
 40
28.0
  1
国土交通大臣認定・（一財）日本消防設備安全センター性能評定取得品
 41
0.75
  0
TEXT
  5
127158
  8
SLIM
 10
4131.1000000000004
 20
-2029.999973333332
 30
0.0
 40
28.0
  1
注）ご採用にあたり、認定書及び評定書の内容をご確認ください。
 41
0.75
  0
TEXT
  5
127159
  8
SLIM
 10
5470.0571428571429
 20
-1472.9999999999959
 30
0.0
 40
24.0
  1
190～240
 41
0.75
  0
TEXT
  5
12715A
  8
SLIM
 10
5470.0571428571429
 20
-1424.9999999999959
 30
0.0
 40
24.0
  1
190～250
 41
0.75
  0
TEXT
  5
12715B
  8
SLIM
 10
5470.0571428571429
 20
-1376.9999999999959
 30
0.0
 40
24.0
  1
190～260
 41
0.75
  0
TEXT
  5
12715C
  8
SLIM
 10
5470.0571428571429
 20
-1328.9999999999959
 30
0.0
 40
24.0
  1
190～270
 41
0.75
  0
TEXT
  5
12715D
  8
SLIM
 10
5470.0571428571429
 20
-1280.9999999999959
 30
0.0
 40
24.0
  1
190～280
 41
0.75
  0
TEXT
  5
12715E
  8
SLIM
 10
5470.0571428571429
 20
-1232.9999999999959
 30
0.0
 40
24.0
  1
190～290
 41
0.75
  0
TEXT
  5
12715F
  8
SLIM
 10
5470.0571428571429
 20
-1184.9999999999959
 30
0.0
 40
24.0
  1
190～300
 41
0.75
  0
TEXT
  5
127160
  8
SLIM
 10
5448.4571428571444
 20
-1530.9999999999959
 30
0.0
 40
24.0
  1
標準：m=240
 41
0.75
  0
TEXT
  5
127161
  8
SLIM
 10
5378.8571428571431
 20
-1472.9999999999959
 30
0.0
 40
24.0
  1
440
 41
0.75
  0
TEXT
  5
127162
  8
SLIM
 10
5378.8571428571431
 20
-1424.9999999999959
 30
0.0
 40
24.0
  1
430
 41
0.75
  0
TEXT
  5
127163
  8
SLIM
 10
5378.8571428571431
 20
-1376.9999999999959
 30
0.0
 40
24.0
  1
420
 41
0.75
  0
TEXT
  5
127164
  8
SLIM
 10
5380.5714285714284
 20
-1328.9999999999959
 30
0.0
 40
24.0
  1
410
 41
0.75
  0
TEXT
  5
127165
  8
SLIM
 10
5378.8571428571431
 20
-1280.9999999999959
 30
0.0
 40
24.0
  1
400
 41
0.75
  0
TEXT
  5
127166
  8
SLIM
 10
5378.8571428571431
 20
-1232.9999999999959
 30
0.0
 40
24.0
  1
390
 41
0.75
  0
TEXT
  5
127167
  8
SLIM
 10
5378.8571428571431
 20
-1184.9999999999959
 30
0.0
 40
24.0
  1
380
 41
0.75
  0
TEXT
  5
127168
  8
SLIM
 10
5378.8571428571431
 20
-1136.9999999999959
 30
0.0
 40
24.0
  1
370
 41
0.75
  0
TEXT
  5
127169
  8
SLIM
 10
5471.7714285714292
 20
-1136.9999999999959
 30
0.0
 40
24.0
  1
190～310
 41
0.75
  0
TEXT
  5
12716A
  8
SLIM
 10
5378.8571428571431
 20
-1088.9999999999959
 30
0.0
 40
24.0
  1
360
 41
0.75
  0
TEXT
  5
12716B
  8
SLIM
 10
5470.0571428571429
 20
-1088.9999999999959
 30
0.0
 40
24.0
  1
190～320
 41
0.75
  0
TEXT
  5
12716C
  8
SLIM
 10
5378.8571428571431
 20
-1040.9999999999959
 30
0.0
 40
24.0
  1
350
 41
0.75
  0
TEXT
  5
12716D
  8
SLIM
 10
5468.3428571428567
 20
-1040.9999999999959
 30
0.0
 40
24.0
  1
200～330
 41
0.75
  0
TEXT
  5
12716E
  8
SLIM
 10
5378.8571428571431
 20
-992.99999999999636
 30
0.0
 40
24.0
  1
340
 41
0.75
  0
TEXT
  5
12716F
  8
SLIM
 10
5470.0571428571429
 20
-992.99999999999636
 30
0.0
 40
24.0
  1
210～340
 41
0.75
  0
TEXT
  5
127170
  8
SLIM
 10
5378.8571428571431
 20
-944.99999999999613
 30
0.0
 40
24.0
  1
330
 41
0.75
  0
TEXT
  5
127171
  8
SLIM
 10
5468.3428571428567
 20
-944.99999999999613
 30
0.0
 40
24.0
  1
220～350
 41
0.75
  0
TEXT
  5
127172
  8
SLIM
 10
5378.8571428571431
 20
-896.99999999999613
 30
0.0
 40
24.0
  1
320
 41
0.75
  0
TEXT
  5
127173
  8
SLIM
 10
5468.3428571428567
 20
-896.99999999999613
 30
0.0
 40
24.0
  1
230～360
 41
0.75
  0
TEXT
  5
127174
  8
SLIM
 10
5373.8000000000002
 20
-800.99999999999579
 30
0.0
 40
24.0
  1
P寸法
 41
0.75
  0
TEXT
  5
127175
  8
SLIM
 10
5380.5714285714284
 20
-848.99999999999591
 30
0.0
 40
24.0
  1
310
 41
0.75
  0
TEXT
  5
127176
  8
SLIM
 10
5468.3428571428567
 20
-848.99999999999591
 30
0.0
 40
24.0
  1
240～370
 41
0.75
  0
TEXT
  5
127177
  8
SLIM
 10
5474.3428571428567
 20
-800.99999999999579
 30
0.0
 40
24.0
  1
対応m寸法
 41
0.75
  0
LINE
  5
127178
  8
OBJECT
 10
2633.0
 20
-137.99999999999909
 30
0.0
 11
2640.0
 21
-137.99999999999909
 31
0.0
1001
ACDBBLOCKREPETAG
1070
     1
1071
       47
1005
127178
  0
LINE
  5
127179
  8
OBJECT
 10
2640.0
 20
-137.99999999999909
 30
0.0
 11
2640.0
 21
-261.99999999999909
 31
0.0
1001
ACDBBLOCKREPETAG
1070
     1
1071
       48
1005
127179
  0
LINE
  5
12717A
  8
OBJECT
 10
2640.0
 20
-261.99999999999909
 30
0.0
 11
2633.0
 21
-261.99999999999909
 31
0.0
1001
ACDBBLOCKREPETAG
1070
     1
1071
       49
1005
12717A
  0
LINE
  5
12717B
  8
OBJECT
 10
2633.0
 20
-261.99999999999909
 30
0.0
 11
2633.0
 21
-137.99999999999909
 31
0.0
1001
ACDBBLOCKREPETAG
1070
     1
1071
       50
1005
12717B
  0
LINE
  5
12717C
  8
CENTER
 10
2655.0
 20
-199.99999999999909
 30
0.0
 11
2580.0
 21
-199.99999999999909
 31
0.0
1001
ACDBBLOCKREPETAG
1070
     1
1071
       51
1005
12717C
  0
LINE
  5
12717D
  8
OBJECT
 10
2633.0
 20
-140.99999999999909
 30
0.0
 11
2597.0
 21
-140.99999999999909
 31
0.0
1001
ACDBBLOCKREPETAG
1070
     1
1071
       52
1005
12717D
  0
LINE
  5
12717E
  8
OBJECT
 10
2597.0
 20
-140.99999999999909
 30
0.0
 11
2597.0
 21
-258.99999999999909
 31
0.0
1001
ACDBBLOCKREPETAG
1070
     1
1071
       53
1005
12717E
  0
LINE
  5
12717F
  8
OBJECT
 10
2597.0
 20
-258.99999999999909
 30
0.0
 11
2633.0
 21
-258.99999999999909
 31
0.0
1001
ACDBBLOCKREPETAG
1070
     1
1071
       54
1005
12717F
  0
LINE
  5
127180
  8
OBJECT
 10
2593.0
 20
-145.49999999999909
 30
0.0
 11
2586.0
 21
-145.49999999999909
 31
0.0
1001
ACDBBLOCKREPETAG
1070
     1
1071
       55
1005
127180
  0
LINE
  5
127181
  8
OBJECT
 10
2586.0
 20
-254.49999999999909
 30
0.0
 11
2593.0
 21
-254.49999999999909
 31
0.0
1001
ACDBBLOCKREPETAG
1070
     1
1071
       56
1005
127181
  0
LINE
  5
127182
  8
OBJECT
 10
2593.0
 20
-254.49999999999909
 30
0.0
 11
2593.0
 21
-145.49999999999909
 31
0.0
1001
ACDBBLOCKREPETAG
1070
     1
1071
       57
1005
127182
  0
LINE
  5
127183
  8
OBJECT
 10
2597.0
 20
-140.99999999999909
 30
0.0
 11
2593.0
 21
-145.49999999999909
 31
0.0
1001
ACDBBLOCKREPETAG
1070
     1
1071
       58
1005
127183
  0
LINE
  5
127184
  8
OBJECT
 10
2597.0
 20
-258.99999999999909
 30
0.0
 11
2593.0
 21
-254.49999999999909
 31
0.0
1001
ACDBBLOCKREPETAG
1070
     1
1071
       59
1005
127184
  0
LINE
  5
127185
  8
OBJECT
 10
2583.0
 20
-137.99999999999909
 30
0.0
 11
2580.0
 21
-137.99999999999909
 31
0.0
1001
ACDBBLOCKREPETAG
1070
     1
1071
       60
1005
127185
  0
ARC
  5
127186
  8
OBJECT
 10
2583.0
 20
-140.99999999999909
 30
0.0
 40
3.0
 50
0.0
 51
90.0
1001
ACDBBLOCKREPETAG
1070
     1
1071
       61
1005
127186
  0
LINE
  5
127187
  8
OBJECT
 10
2580.0
 20
-261.99999999999909
 30
0.0
 11
2583.0
 21
-261.99999999999909
 31
0.0
1001
ACDBBLOCKREPETAG
1070
     1
1071
       62
1005
127187
  0
ARC
  5
127188
  8
OBJECT
 10
2583.0
 20
-258.99999999999909
 30
0.0
 40
3.0
 50
270.0
 51
0.0
1001
ACDBBLOCKREPETAG
1070
     1
1071
       63
1005
127188
  0
LINE
  5
127189
  8
OBJECT
 10
2586.0
 20
-258.99999999999909
 30
0.0
 11
2586.0
 21
-140.99999999999909
 31
0.0
1001
ACDBBLOCKREPETAG
1070
     1
1071
       64
1005
127189
  0
LINE
  5
12718A
  8
HIDDEN
 10
2588.0
 20
-155.49999999999909
 30
0.0
 11
2588.0
 21
-244.49999999999909
 31
0.0
1001
ACDBBLOCKREPETAG
1070
     1
1071
       65
1005
12718A
  0
LINE
  5
12718B
  8
OBJECT
 10
4633.0
 20
-137.99999999999909
 30
0.0
 11
4640.0
 21
-137.99999999999909
 31
0.0
1001
ACDBBLOCKREPETAG
1070
     1
1071
       47
1005
12718B
  0
LINE
  5
12718C
  8
OBJECT
 10
4640.0
 20
-137.99999999999909
 30
0.0
 11
4640.0
 21
-261.99999999999909
 31
0.0
1001
ACDBBLOCKREPETAG
1070
     1
1071
       48
1005
12718C
  0
LINE
  5
12718D
  8
OBJECT
 10
4640.0
 20
-261.99999999999909
 30
0.0
 11
4633.0
 21
-261.99999999999909
 31
0.0
1001
ACDBBLOCKREPETAG
1070
     1
1071
       49
1005
12718D
  0
LINE
  5
12718E
  8
OBJECT
 10
4633.0
 20
-261.99999999999909
 30
0.0
 11
4633.0
 21
-137.99999999999909
 31
0.0
1001
ACDBBLOCKREPETAG
1070
     1
1071
       50
1005
12718E
  0
LINE
  5
12718F
  8
CENTER
 10
4655.0
 20
-199.99999999999909
 30
0.0
 11
4580.0
 21
-199.99999999999909
 31
0.0
1001
ACDBBLOCKREPETAG
1070
     1
1071
       51
1005
12718F
  0
LINE
  5
127190
  8
OBJECT
 10
4633.0
 20
-140.99999999999909
 30
0.0
 11
4597.0
 21
-140.99999999999909
 31
0.0
1001
ACDBBLOCKREPETAG
1070
     1
1071
       52
1005
127190
  0
LINE
  5
127191
  8
OBJECT
 10
4597.0
 20
-140.99999999999909
 30
0.0
 11
4597.0
 21
-258.99999999999909
 31
0.0
1001
ACDBBLOCKREPETAG
1070
     1
1071
       53
1005
127191
  0
LINE
  5
127192
  8
OBJECT
 10
4597.0
 20
-258.99999999999909
 30
0.0
 11
4633.0
 21
-258.99999999999909
 31
0.0
1001
ACDBBLOCKREPETAG
1070
     1
1071
       54
1005
127192
  0
LINE
  5
127193
  8
OBJECT
 10
4593.0
 20
-145.49999999999909
 30
0.0
 11
4586.0
 21
-145.49999999999909
 31
0.0
1001
ACDBBLOCKREPETAG
1070
     1
1071
       55
1005
127193
  0
LINE
  5
127194
  8
OBJECT
 10
4586.0
 20
-254.49999999999909
 30
0.0
 11
4593.0
 21
-254.49999999999909
 31
0.0
1001
ACDBBLOCKREPETAG
1070
     1
1071
       56
1005
127194
  0
LINE
  5
127195
  8
OBJECT
 10
4593.0
 20
-254.49999999999909
 30
0.0
 11
4593.0
 21
-145.49999999999909
 31
0.0
1001
ACDBBLOCKREPETAG
1070
     1
1071
       57
1005
127195
  0
LINE
  5
127196
  8
OBJECT
 10
4597.0
 20
-140.99999999999909
 30
0.0
 11
4593.0
 21
-145.49999999999909
 31
0.0
1001
ACDBBLOCKREPETAG
1070
     1
1071
       58
1005
127196
  0
LINE
  5
127197
  8
OBJECT
 10
4597.0
 20
-258.99999999999909
 30
0.0
 11
4593.0
 21
-254.49999999999909
 31
0.0
1001
ACDBBLOCKREPETAG
1070
     1
1071
       59
1005
127197
  0
LINE
  5
127198
  8
OBJECT
 10
4583.0
 20
-137.99999999999909
 30
0.0
 11
4580.0
 21
-137.99999999999909
 31
0.0
1001
ACDBBLOCKREPETAG
1070
     1
1071
       60
1005
127198
  0
ARC
  5
127199
  8
OBJECT
 10
4583.0
 20
-140.99999999999909
 30
0.0
 40
3.0
 50
0.0
 51
90.0
1001
ACDBBLOCKREPETAG
1070
     1
1071
       61
1005
127199
  0
LINE
  5
12719A
  8
OBJECT
 10
4580.0
 20
-261.99999999999909
 30
0.0
 11
4583.0
 21
-261.99999999999909
 31
0.0
1001
ACDBBLOCKREPETAG
1070
     1
1071
       62
1005
12719A
  0
ARC
  5
12719B
  8
OBJECT
 10
4583.0
 20
-258.99999999999909
 30
0.0
 40
3.0
 50
270.0
 51
0.0
1001
ACDBBLOCKREPETAG
1070
     1
1071
       63
1005
12719B
  0
LINE
  5
12719C
  8
OBJECT
 10
4586.0
 20
-258.99999999999909
 30
0.0
 11
4586.0
 21
-140.99999999999909
 31
0.0
1001
ACDBBLOCKREPETAG
1070
     1
1071
       64
1005
12719C
  0
LINE
  5
12719D
  8
HIDDEN
 10
4588.0
 20
-155.49999999999909
 30
0.0
 11
4588.0
 21
-244.49999999999909
 31
0.0
1001
ACDBBLOCKREPETAG
1070
     1
1071
       65
1005
12719D
  0
LINE
  5
12719E
  8
SLIM
 10
4424.8586105144159
 20
-160.26624122769411
 30
0.0
 11
4460.2662412276968
 21
-124.858610514414
 31
0.0
1001
GRADIENTCOLOR1ACI
1070
     5
1001
GRADIENTCOLOR2ACI
1070
     2
1001
ACAD
1010
0.0
1020
0.0
1030
0.0
  0
LINE
  5
12719F
  8
SLIM
 10
4418.6084340676744
 20
-175.4966737955055
 30
0.0
 11
4427.1385399004412
 21
-166.96656796273959
 31
0.0
1001
GRADIENTCOLOR1ACI
1070
     5
1001
GRADIENTCOLOR2ACI
1070
     2
1001
ACAD
1010
0.0
1020
0.0
1030
0.0
  0
LINE
  5
1271A0
  8
SLIM
 10
4466.9665679627406
 20
-127.1385399004393
 30
0.0
 11
4475.4966737955074
 21
-118.6084340676734
 31
0.0
1001
GRADIENTCOLOR1ACI
1070
     5
1001
GRADIENTCOLOR2ACI
1070
     2
1001
ACAD
1010
0.0
1020
0.0
1030
0.0
  0
LINE
  5
1271A1
  8
SLIM
 10
4415.9844434040897
 20
-187.1009205801592
 30
0.0
 11
4422.3555558663202
 21
-180.7298081179288
 31
0.0
1001
GRADIENTCOLOR1ACI
1070
     5
1001
GRADIENTCOLOR2ACI
1070
     2
1001
ACAD
1010
0.0
1020
0.0
1030
0.0
  0
LINE
  5
1271A2
  8
SLIM
 10
4480.7298081179297
 20
-122.35555586631919
 30
0.0
 11
4487.1009205801611
 21
-115.98444340408869
 31
0.0
1001
GRADIENTCOLOR1ACI
1070
     5
1001
GRADIENTCOLOR2ACI
1070
     2
1001
ACAD
1010
0.0
1020
0.0
1030
0.0
  0
LINE
  5
1271A3
  8
SLIM
 10
4415.0524951669204
 20
-197.01312493839851
 30
0.0
 11
4416.0656201053189
 21
-196.0
 31
0.0
1001
GRADIENTCOLOR1ACI
1070
     5
1001
GRADIENTCOLOR2ACI
1070
     2
1001
ACAD
1010
0.0
1020
0.0
1030
0.0
  0
LINE
  5
1271A4
  8
SLIM
 10
4491.6261550504887
 20
-120.43946505483019
 30
0.0
 11
4497.0131249384003
 21
-115.0524951669185
 31
0.0
1001
GRADIENTCOLOR1ACI
1070
     5
1001
GRADIENTCOLOR2ACI
1070
     2
1001
ACAD
1010
0.0
1020
0.0
1030
0.0
  0
LINE
  5
1271A5
  8
SLIM
 10
4416.0656201053189
 20
-196.0
 30
0.0
 11
4420.4394650548311
 21
-191.6261550504878
 31
0.0
1001
GRADIENTCOLOR1ACI
1070
     5
1001
GRADIENTCOLOR2ACI
1070
     2
1001
ACAD
1010
0.0
1020
0.0
1030
0.0
  0
LINE
  5
1271A6
  8
SLIM
 10
4415.2011819161371
 20
-205.844694310249
 30
0.0
 11
4420.0067489441053
 21
-201.0391272822817
 31
0.0
1001
GRADIENTCOLOR1ACI
1070
     5
1001
GRADIENTCOLOR2ACI
1070
     2
1001
ACAD
1010
0.0
1020
0.0
1030
0.0
  0
LINE
  5
1271A7
  8
SLIM
 10
4501.0391272822817
 20
-120.00674894410621
 30
0.0
 11
4505.844694310249
 21
-115.20118191613891
 31
0.0
1001
GRADIENTCOLOR1ACI
1070
     5
1001
GRADIENTCOLOR2ACI
1070
     2
1001
ACAD
1010
0.0
1020
0.0
1030
0.0
  0
LINE
  5
1271A8
  8
SLIM
 10
4416.141658771895
 20
-213.88447357556291
 30
0.0
 11
4420.56180678284
 21
-209.46432556461701
 31
0.0
1001
GRADIENTCOLOR1ACI
1070
     5
1001
GRADIENTCOLOR2ACI
1070
     2
1001
ACAD
1010
0.0
1020
0.0
1030
0.0
  0
LINE
  5
1271A9
  8
SLIM
 10
4509.4643255646179
 20
-120.5618067828391
 30
0.0
 11
4513.8844735755611
 21
-116.14165877189311
 31
0.0
1001
GRADIENTCOLOR1ACI
1070
     5
1001
GRADIENTCOLOR2ACI
1070
     2
1001
ACAD
1010
0.0
1020
0.0
1030
0.0
  0
LINE
  5
1271AA
  8
SLIM
 10
4417.710870111021
 20
-221.2955183575032
 30
0.0
 11
4419.006388468526
 21
-220.0
 31
0.0
1001
GRADIENTCOLOR1ACI
1070
     5
1001
GRADIENTCOLOR2ACI
1070
     2
1001
ACAD
1010
0.0
1020
0.0
1030
0.0
  0
LINE
  5
1271AB
  8
SLIM
 10
4517.1471323385686
 20
-121.85925612995651
 30
0.0
 11
4521.2955183575032
 21
-117.7108701110201
 31
0.0
1001
GRADIENTCOLOR1ACI
1070
     5
1001
GRADIENTCOLOR2ACI
1070
     2
1001
ACAD
1010
0.0
1020
0.0
1030
0.0
  0
LINE
  5
1271AC
  8
SLIM
 10
4419.006388468526
 20
-220.0
 30
0.0
 11
4421.8592561299583
 21
-217.14713233856759
 31
0.0
1001
GRADIENTCOLOR1ACI
1070
     5
1001
GRADIENTCOLOR2ACI
1070
     2
1001
ACAD
1010
0.0
1020
0.0
1030
0.0
  0
LINE
  5
1271AD
  8
SLIM
 10
4419.8070443755887
 20
-228.17960021400481
 30
0.0
 11
4423.7573519673751
 21
-224.22929262221899
 31
0.0
1001
GRADIENTCOLOR1ACI
1070
     5
1001
GRADIENTCOLOR2ACI
1070
     2
1001
ACAD
1010
0.0
1020
0.0
1030
0.0
  0
LINE
  5
1271AE
  8
SLIM
 10
4524.229292622219
 20
-123.7573519673733
 30
0.0
 11
4528.1796002140081
 21
-119.80704437558779
 31
0.0
1001
GRADIENTCOLOR1ACI
1070
     5
1001
GRADIENTCOLOR2ACI
1070
     2
1001
ACAD
1010
0.0
1020
0.0
1030
0.0
  0
LINE
  5
1271AF
  8
SLIM
 10
4422.3627047135597
 20
-234.6041959971044
 30
0.0
 11
4424.9669007106631
 21
-232.00000000000091
 31
0.0
1001
GRADIENTCOLOR1ACI
1070
     5
1001
GRADIENTCOLOR2ACI
1070
     2
1001
ACAD
1010
0.0
1020
0.0
1030
0.0
  0
LINE
  5
1271B0
  8
SLIM
 10
4530.8001598408164
 20
-126.16674086984671
 30
0.0
 11
4534.6041959971053
 21
-122.3627047135587
 31
0.0
1001
GRADIENTCOLOR1ACI
1070
     5
1001
GRADIENTCOLOR2ACI
1070
     2
1001
ACAD
1010
0.0
1020
0.0
1030
0.0
  0
LINE
  5
1271B1
  8
SLIM
 10
4424.9669007106631
 20
-232.00000000000091
 30
0.0
 11
4426.1667408698477
 21
-230.80015984081541
 31
0.0
1001
GRADIENTCOLOR1ACI
1070
     5
1001
GRADIENTCOLOR2ACI
1070
     2
1001
ACAD
1010
0.0
1020
0.0
1030
0.0
  0
LINE
  5
1271B2
  8
SLIM
 10
4425.3315714414439
 20
-240.61558539028869
 30
0.0
 11
4429.02822673438
 21
-236.91893009735301
 31
0.0
1001
GRADIENTCOLOR1ACI
1070
     5
1001
GRADIENTCOLOR2ACI
1070
     2
1001
ACAD
1010
0.0
1020
0.0
1030
0.0
  0
LINE
  5
1271B3
  8
SLIM
 10
4536.9189300973521
 20
-129.02822673437819
 30
0.0
 11
4540.6155853902883
 21
-125.3315714414439
 31
0.0
1001
GRADIENTCOLOR1ACI
1070
     5
1001
GRADIENTCOLOR2ACI
1070
     2
1001
ACAD
1010
0.0
1020
0.0
1030
0.0
  0
LINE
  5
1271B4
  8
SLIM
 10
4428.6815548937129
 20
-246.2458580590887
 30
0.0
 11
4432.3017508847952
 21
-242.6256620680046
 31
0.0
1001
GRADIENTCOLOR1ACI
1070
     5
1001
GRADIENTCOLOR2ACI
1070
     2
1001
ACAD
1010
0.0
1020
0.0
1030
0.0
  0
LINE
  5
1271B5
  8
SLIM
 10
4542.625662068006
 20
-132.30175088479609
 30
0.0
 11
4546.2458580590901
 21
-128.68155489371199
 31
0.0
1001
GRADIENTCOLOR1ACI
1070
     5
1001
GRADIENTCOLOR2ACI
1070
     2
1001
ACAD
1010
0.0
1020
0.0
1030
0.0
  0
LINE
  5
1271B6
  8
SLIM
 10
4432.3907652629223
 20
-251.51690381094889
 30
0.0
 11
4435.960449022743
 21
-247.94722005112769
 31
0.0
1001
GRADIENTCOLOR1ACI
1070
     5
1001
GRADIENTCOLOR2ACI
1070
     2
1001
ACAD
1010
0.0
1020
0.0
1030
0.0
  0
LINE
  5
1271B7
  8
SLIM
 10
4547.9472200511291
 20
-135.96044902274201
 30
0.0
 11
4551.5169038109489
 21
-132.39076526292041
 31
0.0
1001
GRADIENTCOLOR1ACI
1070
     5
1001
GRADIENTCOLOR2ACI
1070
     2
1001
ACAD
1010
0.0
1020
0.0
1030
0.0
  0
LINE
  5
1271B8
  8
SLIM
 10
4436.4451742931069
 20
-256.44275090183282
 30
0.0
 11
4439.987301360803
 21
-252.9006238341367
 31
0.0
1001
GRADIENTCOLOR1ACI
1070
     5
1001
GRADIENTCOLOR2ACI
1070
     2
1001
ACAD
1010
0.0
1020
0.0
1030
0.0
  0
LINE
  5
1271B9
  8
SLIM
 10
4554.8879251949411
 20
-137.99999999999909
 30
0.0
 11
4556.4427509018342
 21
-136.44517429310599
 31
0.0
1001
GRADIENTCOLOR1ACI
1070
     5
1001
GRADIENTCOLOR2ACI
1070
     2
1001
ACAD
1010
0.0
1020
0.0
1030
0.0
  0
LINE
  5
1271BA
  8
SLIM
 10
4440.8372731495638
 20
-261.03090816644323
 30
0.0
 11
4444.3732607963184
 21
-257.49492051969042
 31
0.0
1001
GRADIENTCOLOR1ACI
1070
     5
1001
GRADIENTCOLOR2ACI
1070
     2
1001
ACAD
1010
0.0
1020
0.0
1030
0.0
  0
LINE
  5
1271BB
  8
SLIM
 10
4445.5654027321416
 20
-265.2830347049366
 30
0.0
 11
4449.1163342680156
 21
-261.73210316906119
 31
0.0
1001
GRADIENTCOLOR1ACI
1070
     5
1001
GRADIENTCOLOR2ACI
1070
     2
1001
ACAD
1010
0.0
1020
0.0
1030
0.0
  0
LINE
  5
1271BC
  8
SLIM
 10
4549.5421817599126
 20
-269.06932912999491
 30
0.0
 11
4556.6115108899112
 21
-261.99999999999909
 31
0.0
1001
GRADIENTCOLOR1ACI
1070
     5
1001
GRADIENTCOLOR2ACI
1070
     2
1001
ACAD
1010
0.0
1020
0.0
1030
0.0
  0
LINE
  5
1271BD
  8
OBJECT
 10
289.0
 20
-949.00000000000068
 30
0.0
 11
296.0
 21
-949.00000000000068
 31
0.0
1001
ACDBBLOCKREPETAG
1070
     1
1071
        0
1005
1271BD
  0
LINE
  5
1271BE
  8
OBJECT
 10
296.0
 20
-949.00000000000068
 30
0.0
 11
296.0
 21
-1043.0000000000009
 31
0.0
1001
ACDBBLOCKREPETAG
1070
     1
1071
        1
1005
1271BE
  0
LINE
  5
1271BF
  8
OBJECT
 10
296.0
 20
-1043.0000000000009
 30
0.0
 11
289.0
 21
-1043.0000000000009
 31
0.0
1001
ACDBBLOCKREPETAG
1070
     1
1071
        2
1005
1271BF
  0
LINE
  5
1271C0
  8
OBJECT
 10
289.0
 20
-1043.0000000000009
 30
0.0
 11
289.0
 21
-949.00000000000068
 31
0.0
1001
ACDBBLOCKREPETAG
1070
     1
1071
        3
1005
1271C0
  0
LINE
  5
1271C1
  8
OBJECT
 10
289.0
 20
-952.0000000000008
 30
0.0
 11
253.0
 21
-952.0000000000008
 31
0.0
1001
ACDBBLOCKREPETAG
1070
     1
1071
        4
1005
1271C1
  0
LINE
  5
1271C2
  8
OBJECT
 10
253.0
 20
-952.0000000000008
 30
0.0
 11
253.0
 21
-1040.0
 31
0.0
1001
ACDBBLOCKREPETAG
1070
     1
1071
        5
1005
1271C2
  0
LINE
  5
1271C3
  8
OBJECT
 10
253.0
 20
-1040.0
 30
0.0
 11
289.0
 21
-1040.0
 31
0.0
1001
ACDBBLOCKREPETAG
1070
     1
1071
        6
1005
1271C3
  0
LINE
  5
1271C4
  8
OBJECT
 10
249.0
 20
-956.50000000000102
 30
0.0
 11
240.50000000000051
 21
-956.50000000000102
 31
0.0
1001
ACDBBLOCKREPETAG
1070
     1
1071
        7
1005
1271C4
  0
LINE
  5
1271C5
  8
OBJECT
 10
240.4999999999994
 20
-1035.5
 30
0.0
 11
249.0
 21
-1035.5
 31
0.0
1001
ACDBBLOCKREPETAG
1070
     1
1071
        8
1005
1271C5
  0
LINE
  5
1271C6
  8
OBJECT
 10
249.0
 20
-1035.5
 30
0.0
 11
249.0
 21
-956.50000000000102
 31
0.0
1001
ACDBBLOCKREPETAG
1070
     1
1071
        9
1005
1271C6
  0
LINE
  5
1271C7
  8
OBJECT
 10
253.0
 20
-952.0000000000008
 30
0.0
 11
249.0
 21
-956.50000000000102
 31
0.0
1001
ACDBBLOCKREPETAG
1070
     1
1071
       10
1005
1271C7
  0
LINE
  5
1271C8
  8
OBJECT
 10
253.0
 20
-1040.0
 30
0.0
 11
249.0
 21
-1035.5
 31
0.0
1001
ACDBBLOCKREPETAG
1070
     1
1071
       11
1005
1271C8
  0
LINE
  5
1271C9
  8
OBJECT
 10
240.49999999999909
 20
-1042.5000000000009
 30
0.0
 11
240.50000000000051
 21
-949.5000000000008
 31
0.0
1001
ACDBBLOCKREPETAG
1070
     1
1071
       12
1005
1271C9
  0
ARC
  5
1271CA
  8
OBJECT
 10
237.5000000000004
 20
-949.5000000000008
 30
0.0
 40
3.0
 50
0.0
 51
90.0
1001
ACDBBLOCKREPETAG
1070
     1
1071
       13
1005
1271CA
  0
LINE
  5
1271CB
  8
OBJECT
 10
237.5000000000004
 20
-946.5000000000008
 30
0.0
 11
212.34491991297841
 21
-946.49999999999989
 31
0.0
1001
ACDBBLOCKREPETAG
1070
     1
1071
       15
1005
1271CB
  0
LINE
  5
1271CC
  8
OBJECT
 10
237.49999999999909
 20
-1045.5
 30
0.0
 11
212.34491991297929
 21
-1045.5
 31
0.0
1001
ACDBBLOCKREPETAG
1070
     1
1071
       16
1005
1271CC
  0
ARC
  5
1271CD
  8
OBJECT
 10
237.49999999999909
 20
-1042.5000000000009
 30
0.0
 40
3.0
 50
270.0
 51
0.0
1001
ACDBBLOCKREPETAG
1070
     1
1071
       17
1005
1271CD
  0
INSERT
  5
1271CE
  8
SLIM
  2
*U3
 10
0.0
 20
0.0
 30
0.0
  0
LINE
  5
1271CF
  8
HIDDEN
 10
244.0
 20
-966.00000000000091
 30
0.0
 11
244.0
 21
-1026.0
 31
0.0
1001
ACDBBLOCKREPETAG
1070
     1
1071
       56
1005
1271CF
  0
POLYLINE
  5
1271D0
  8
HIDDEN
 66
     1
 10
0.0
 20
0.0
 30
0.0
 70
     1
1001
ACDBBLOCKREPETAG
1070
     1
1071
      105
1005
0
  0
VERTEX
  5
127569
  8
HIDDEN
 10
359.99999999987779
 20
-799.9999999999992
 30
0.0
  0
VERTEX
  5
12756A
  8
HIDDEN
 10
719.99999999975603
 20
-799.9999999999992
 30
0.0
  0
VERTEX
  5
12756B
  8
HIDDEN
 10
719.99999999975603
 20
-1263.9999999998411
 30
0.0
  0
VERTEX
  5
12756C
  8
HIDDEN
 10
359.99999999987779
 20
-1263.9999999998411
 30
0.0
  0
SEQEND
  5
12756D
  8
HIDDEN
  0
POLYLINE
  5
1271D1
  8
HIDDEN
 66
     1
 10
0.0
 20
0.0
 30
0.0
 70
     1
1001
ACDBBLOCKREPETAG
1070
     1
1071
      110
1005
0
  0
VERTEX
  5
12756E
  8
HIDDEN
 10
-0.0000000000002274
 20
-799.9999999999992
 30
0.0
  0
VERTEX
  5
12756F
  8
HIDDEN
 10
359.99999999987779
 20
-799.9999999999992
 30
0.0
  0
VERTEX
  5
127570
  8
HIDDEN
 10
359.99999999987779
 20
-1263.9999999998411
 30
0.0
  0
VERTEX
  5
127571
  8
HIDDEN
 10
-0.0000000000002274
 20
-1263.9999999998411
 30
0.0
  0
SEQEND
  5
127572
  8
HIDDEN
  0
POLYLINE
  5
1271D2
  8
HIDDEN
 66
     1
 10
0.0
 20
0.0
 30
0.0
 70
     1
1001
ACDBBLOCKREPETAG
1070
     1
1071
      125
1005
0
  0
VERTEX
  5
127573
  8
HIDDEN
 10
-0.0000000000002274
 20
-1263.9999999998411
 30
0.0
  0
VERTEX
  5
127574
  8
HIDDEN
 10
359.99999999987779
 20
-1263.9999999998411
 30
0.0
  0
VERTEX
  5
127575
  8
HIDDEN
 10
359.99999999987779
 20
-1727.999999999681
 30
0.0
  0
VERTEX
  5
127576
  8
HIDDEN
 10
-0.0000000000002274
 20
-1727.999999999681
 30
0.0
  0
SEQEND
  5
127577
  8
HIDDEN
  0
POLYLINE
  5
1271D3
  8
HIDDEN
 66
     1
 10
0.0
 20
0.0
 30
0.0
 70
     1
1001
ACDBBLOCKREPETAG
1070
     1
1071
      110
1005
0
  0
VERTEX
  5
127578
  8
HIDDEN
 10
-0.0000000000002274
 20
0.0
 30
0.0
  0
VERTEX
  5
127579
  8
HIDDEN
 10
359.99999999987779
 20
0.0
 30
0.0
  0
VERTEX
  5
12757A
  8
HIDDEN
 10
359.99999999987779
 20
-463.99999999984158
 30
0.0
  0
VERTEX
  5
12757B
  8
HIDDEN
 10
-0.0000000000002274
 20
-463.99999999984158
 30
0.0
  0
SEQEND
  5
12757C
  8
HIDDEN
  0
LINE
  5
1271D4
  8
OBJECT
 10
289.0
 20
-1397.999999999842
 30
0.0
 11
296.0
 21
-1397.999999999842
 31
0.0
1001
ACDBBLOCKREPETAG
1070
     1
1071
       34
1005
1271D4
  0
LINE
  5
1271D5
  8
OBJECT
 10
296.0
 20
-1397.999999999842
 30
0.0
 11
296.0
 21
-1521.9999999998431
 31
0.0
1001
ACDBBLOCKREPETAG
1070
     1
1071
       35
1005
1271D5
  0
LINE
  5
1271D6
  8
OBJECT
 10
296.0
 20
-1521.9999999998431
 30
0.0
 11
289.0
 21
-1521.9999999998431
 31
0.0
1001
ACDBBLOCKREPETAG
1070
     1
1071
       36
1005
1271D6
  0
LINE
  5
1271D7
  8
OBJECT
 10
289.0
 20
-1521.9999999998431
 30
0.0
 11
289.0
 21
-1397.999999999842
 31
0.0
1001
ACDBBLOCKREPETAG
1070
     1
1071
       37
1005
1271D7
  0
LINE
  5
1271D8
  8
OBJECT
 10
289.0
 20
-1400.9999999998431
 30
0.0
 11
253.0
 21
-1400.9999999998431
 31
0.0
1001
ACDBBLOCKREPETAG
1070
     1
1071
       38
1005
1271D8
  0
LINE
  5
1271D9
  8
OBJECT
 10
253.0
 20
-1400.9999999998431
 30
0.0
 11
253.0
 21
-1518.9999999998431
 31
0.0
1001
ACDBBLOCKREPETAG
1070
     1
1071
       39
1005
1271D9
  0
LINE
  5
1271DA
  8
OBJECT
 10
253.0
 20
-1518.9999999998431
 30
0.0
 11
289.0
 21
-1518.9999999998431
 31
0.0
1001
ACDBBLOCKREPETAG
1070
     1
1071
       40
1005
1271DA
  0
LINE
  5
1271DB
  8
OBJECT
 10
249.0
 20
-1405.499999999842
 30
0.0
 11
238.5
 21
-1405.499999999842
 31
0.0
1001
ACDBBLOCKREPETAG
1070
     1
1071
       41
1005
1271DB
  0
LINE
  5
1271DC
  8
OBJECT
 10
238.5
 20
-1514.499999999842
 30
0.0
 11
249.0
 21
-1514.499999999842
 31
0.0
1001
ACDBBLOCKREPETAG
1070
     1
1071
       42
1005
1271DC
  0
LINE
  5
1271DD
  8
OBJECT
 10
249.0
 20
-1514.499999999842
 30
0.0
 11
249.0
 21
-1405.499999999842
 31
0.0
1001
ACDBBLOCKREPETAG
1070
     1
1071
       43
1005
1271DD
  0
LINE
  5
1271DE
  8
OBJECT
 10
253.0
 20
-1400.9999999998431
 30
0.0
 11
249.0
 21
-1405.499999999842
 31
0.0
1001
ACDBBLOCKREPETAG
1070
     1
1071
       44
1005
1271DE
  0
LINE
  5
1271DF
  8
OBJECT
 10
253.0
 20
-1518.9999999998431
 30
0.0
 11
249.0
 21
-1514.499999999842
 31
0.0
1001
ACDBBLOCKREPETAG
1070
     1
1071
       45
1005
1271DF
  0
LINE
  5
1271E0
  8
OBJECT
 10
233.5
 20
-1410.499999999842
 30
0.0
 11
212.34491991297861
 21
-1410.4999999998431
 31
0.0
1001
ACDBBLOCKREPETAG
1070
     1
1071
       46
1005
1271E0
  0
LINE
  5
1271E1
  8
OBJECT
 10
233.5
 20
-1509.4999999998431
 30
0.0
 11
212.3449199129777
 21
-1509.4999999998431
 31
0.0
1001
ACDBBLOCKREPETAG
1070
     1
1071
       47
1005
1271E1
  0
LINE
  5
1271E2
  8
OBJECT
 10
238.5
 20
-1405.499999999842
 30
0.0
 11
238.5
 21
-1514.499999999842
 31
0.0
1001
ACDBBLOCKREPETAG
1070
     1
1071
       48
1005
1271E2
  0
LINE
  5
1271E3
  8
OBJECT
 10
233.5
 20
-1410.499999999842
 30
0.0
 11
233.5
 21
-1509.4999999998431
 31
0.0
1001
ACDBBLOCKREPETAG
1070
     1
1071
       49
1005
1271E3
  0
LINE
  5
1271E4
  8
OBJECT
 10
238.5
 20
-1405.499999999842
 30
0.0
 11
233.5
 21
-1410.499999999842
 31
0.0
1001
ACDBBLOCKREPETAG
1070
     1
1071
       50
1005
1271E4
  0
LINE
  5
1271E5
  8
OBJECT
 10
233.5
 20
-1509.4999999998431
 30
0.0
 11
238.5
 21
-1514.499999999839
 31
0.0
1001
ACDBBLOCKREPETAG
1070
     1
1071
       51
1005
1271E5
  0
INSERT
  5
1271E6
  8
SLIM
  2
*U4
 10
0.0
 20
0.0
 30
0.0
  0
LINE
  5
1271E7
  8
HIDDEN
 10
244.0
 20
-1415.499999999842
 30
0.0
 11
244.0
 21
-1504.499999999842
 31
0.0
1001
ACDBBLOCKREPETAG
1070
     1
1071
       65
1005
1271E7
  0
CIRCLE
  5
1271E8
  8
OBJECT
 10
156.0
 20
-1459.999999999842
 30
0.0
 40
70.0
1001
ACDBBLOCKREPETAG
1070
     1
1071
       50
1005
1271E8
  0
CIRCLE
  5
1271E9
  8
OBJECT
 10
156.0
 20
-1459.999999999842
 30
0.0
 40
75.0
1001
ACDBBLOCKREPETAG
1070
     1
1071
       51
1005
1271E9
  0
POINT
  5
1271EA
  8
DOTS
 10
156.0
 20
-1459.999999999842
 30
0.0
1001
ACDBBLOCKREPETAG
1070
     1
1071
       63
1005
1271EA
  0
CIRCLE
  5
1271EB
  8
OBJECT
 10
156.0
 20
-1459.999999999842
 30
0.0
 40
55.0
1001
ACDBBLOCKREPETAG
1070
     1
1071
       50
1005
1271E8
  0
LINE
  5
1271EC
  8
OBJECT
 10
648.99999999987813
 20
-941.00000000000091
 30
0.0
 11
655.99999999987813
 21
-941.00000000000091
 31
0.0
1001
ACDBBLOCKREPETAG
1070
     1
1071
       18
1005
1271EC
  0
LINE
  5
1271ED
  8
OBJECT
 10
655.99999999987813
 20
-941.00000000000091
 30
0.0
 11
655.99999999987813
 21
-1051.0000000000009
 31
0.0
1001
ACDBBLOCKREPETAG
1070
     1
1071
       19
1005
1271ED
  0
LINE
  5
1271EE
  8
OBJECT
 10
655.99999999987813
 20
-1051.0000000000009
 30
0.0
 11
648.99999999987813
 21
-1051.0000000000009
 31
0.0
1001
ACDBBLOCKREPETAG
1070
     1
1071
       20
1005
1271EE
  0
LINE
  5
1271EF
  8
OBJECT
 10
648.99999999987813
 20
-1051.0000000000009
 30
0.0
 11
648.99999999987813
 21
-941.00000000000091
 31
0.0
1001
ACDBBLOCKREPETAG
1070
     1
1071
       21
1005
1271EF
  0
LINE
  5
1271F0
  8
OBJECT
 10
648.99999999987813
 20
-944.00000000000102
 30
0.0
 11
612.99999999987813
 21
-944.00000000000102
 31
0.0
1001
ACDBBLOCKREPETAG
1070
     1
1071
       22
1005
1271F0
  0
LINE
  5
1271F1
  8
OBJECT
 10
612.99999999987813
 20
-944.00000000000102
 30
0.0
 11
612.99999999987813
 21
-1048.0
 31
0.0
1001
ACDBBLOCKREPETAG
1070
     1
1071
       23
1005
1271F1
  0
LINE
  5
1271F2
  8
OBJECT
 10
612.99999999987813
 20
-1048.0
 30
0.0
 11
648.99999999987813
 21
-1048.0
 31
0.0
1001
ACDBBLOCKREPETAG
1070
     1
1071
       24
1005
1271F2
  0
LINE
  5
1271F3
  8
OBJECT
 10
608.99999999987813
 20
-948.50000000000102
 30
0.0
 11
600.49999999987836
 21
-948.50000000000102
 31
0.0
1001
ACDBBLOCKREPETAG
1070
     1
1071
       25
1005
1271F3
  0
LINE
  5
1271F4
  8
OBJECT
 10
600.49999999987756
 20
-1043.5
 30
0.0
 11
608.99999999987813
 21
-1043.5
 31
0.0
1001
ACDBBLOCKREPETAG
1070
     1
1071
       26
1005
1271F4
  0
LINE
  5
1271F5
  8
OBJECT
 10
608.99999999987813
 20
-1043.5
 30
0.0
 11
608.99999999987813
 21
-948.50000000000102
 31
0.0
1001
ACDBBLOCKREPETAG
1070
     1
1071
       27
1005
1271F5
  0
LINE
  5
1271F6
  8
OBJECT
 10
612.99999999987813
 20
-944.00000000000102
 30
0.0
 11
608.99999999987813
 21
-948.50000000000102
 31
0.0
1001
ACDBBLOCKREPETAG
1070
     1
1071
       28
1005
1271F6
  0
LINE
  5
1271F7
  8
OBJECT
 10
612.99999999987813
 20
-1048.0
 30
0.0
 11
608.99999999987813
 21
-1043.5
 31
0.0
1001
ACDBBLOCKREPETAG
1070
     1
1071
       29
1005
1271F7
  0
LINE
  5
1271F8
  8
OBJECT
 10
600.49999999987665
 20
-1045.5
 30
0.0
 11
600.49999999987836
 21
-946.5000000000008
 31
0.0
1001
ACDBBLOCKREPETAG
1070
     1
1071
       30
1005
1271F8
  0
LINE
  5
1271F9
  8
OBJECT
 10
600.49999999987836
 20
-946.5000000000008
 30
0.0
 11
572.34491991285745
 21
-946.50000000000171
 31
0.0
1001
ACDBBLOCKREPETAG
1070
     1
1071
       31
1005
1271F9
  0
LINE
  5
1271FA
  8
OBJECT
 10
600.49999999987665
 20
-1045.5
 30
0.0
 11
572.34491991285654
 21
-1045.500000000002
 31
0.0
1001
ACDBBLOCKREPETAG
1070
     1
1071
       32
1005
1271FA
  0
INSERT
  5
1271FB
  8
SLIM
  2
*U5
 10
0.0
 20
0.0
 30
0.0
  0
LINE
  5
1271FC
  8
HIDDEN
 10
603.99999999987813
 20
-958.0000000000008
 30
0.0
 11
603.99999999987813
 21
-1034.0
 31
0.0
1001
ACDBBLOCKREPETAG
1070
     1
1071
       57
1005
1271FC
  0
CIRCLE
  5
1271FD
  8
OBJECT
 10
515.99999999987813
 20
-996.00000000000068
 30
0.0
 40
70.0
1001
ACDBBLOCKREPETAG
1070
     1
1071
       50
1005
1271FD
  0
CIRCLE
  5
1271FE
  8
OBJECT
 10
515.99999999987813
 20
-996.00000000000068
 30
0.0
 40
75.0
1001
ACDBBLOCKREPETAG
1070
     1
1071
       51
1005
1271FE
  0
POINT
  5
1271FF
  8
DOTS
 10
515.99999999987813
 20
-996.00000000000068
 30
0.0
1001
ACDBBLOCKREPETAG
1070
     1
1071
       63
1005
1271FF
  0
CIRCLE
  5
127200
  8
OBJECT
 10
515.99999999987813
 20
-996.00000000000068
 30
0.0
 40
55.0
1001
ACDBBLOCKREPETAG
1070
     1
1071
       50
1005
1271FD
  0
CIRCLE
  5
127201
  8
OBJECT
 10
156.0
 20
-996.00000000000068
 30
0.0
 40
70.0
1001
ACDBBLOCKREPETAG
1070
     1
1071
       50
1005
127201
  0
CIRCLE
  5
127202
  8
OBJECT
 10
156.0
 20
-996.00000000000068
 30
0.0
 40
75.0
1001
ACDBBLOCKREPETAG
1070
     1
1071
       51
1005
127202
  0
POINT
  5
127203
  8
DOTS
 10
156.0
 20
-996.00000000000068
 30
0.0
1001
ACDBBLOCKREPETAG
1070
     1
1071
       63
1005
127203
  0
CIRCLE
  5
127204
  8
OBJECT
 10
156.0
 20
-996.00000000000068
 30
0.0
 40
55.0
1001
ACDBBLOCKREPETAG
1070
     1
1071
       50
1005
127201
  0
TEXT
  5
127205
  8
SLIM
 10
97.714285714225255
 20
-1707.9999999996919
 30
0.0
 40
48.0
  1
A0300
 41
0.75
1001
ACDBBLOCKREPETAG
1070
     1
1071
      119
1005
0
  0
TEXT
  5
127206
  8
SLIM
 10
457.71428571410331
 20
-1243.9999999998511
 30
0.0
 40
48.0
  1
A0200
 41
0.75
1001
ACDBBLOCKREPETAG
1070
     1
1071
      119
1005
0
  0
TEXT
  5
127207
  8
SLIM
 10
101.1428571427967
 20
-1243.9999999998511
 30
0.0
 40
48.0
  1
A0100
 41
0.75
1001
ACDBBLOCKREPETAG
1070
     1
1071
      119
1005
0
  0
LINE
  5
127208
  8
SLIM
 10
4914.9999999999927
 20
-1152.2369265471771
 30
0.0
 11
4931.2369265471698
 21
-1136.0
 31
0.0
1001
GRADIENTCOLOR1ACI
1070
     5
1001
GRADIENTCOLOR2ACI
1070
     2
1001
ACAD
1010
0.0
1020
0.0
1030
0.0
  0
LINE
  5
127209
  8
SLIM
 10
4914.9999999999955
 20
-1170.197438789314
 30
0.0
 11
4949.1974387893079
 21
-1136.0
 31
0.0
1001
GRADIENTCOLOR1ACI
1070
     5
1001
GRADIENTCOLOR2ACI
1070
     2
1001
ACAD
1010
0.0
1020
0.0
1030
0.0
  0
LINE
  5
12720A
  8
SLIM
 10
4914.9999999999955
 20
-1188.1579510314509
 30
0.0
 11
4967.1579510314468
 21
-1136.0
 31
0.0
1001
GRADIENTCOLOR1ACI
1070
     5
1001
GRADIENTCOLOR2ACI
1070
     2
1001
ACAD
1010
0.0
1020
0.0
1030
0.0
  0
LINE
  5
12720B
  8
SLIM
 10
4915.1454972543143
 20
-1205.9729660192691
 30
0.0
 11
4985.1184632735849
 21
-1136.0
 31
0.0
1001
GRADIENTCOLOR1ACI
1070
     5
1001
GRADIENTCOLOR2ACI
1070
     2
1001
ACAD
1010
0.0
1020
0.0
1030
0.0
  0
LINE
  5
12720C
  8
SLIM
 10
4917.104627495245
 20
-1221.97434802048
 30
0.0
 11
5003.078975515723
 21
-1136.0
 31
0.0
1001
GRADIENTCOLOR1ACI
1070
     5
1001
GRADIENTCOLOR2ACI
1070
     2
1001
ACAD
1010
0.0
1020
0.0
1030
0.0
  0
LINE
  5
12720D
  8
SLIM
 10
4919.0637577361713
 20
-1237.97573002169
 30
0.0
 11
5021.0394877578619
 21
-1136.0
 31
0.0
1001
GRADIENTCOLOR1ACI
1070
     5
1001
GRADIENTCOLOR2ACI
1070
     2
1001
ACAD
1010
0.0
1020
0.0
1030
0.0
  0
LINE
  5
12720E
  8
SLIM
 10
4920.0
 20
-1255.0
 30
0.0
 11
5039.0
 21
-1136.0
 31
0.0
1001
GRADIENTCOLOR1ACI
1070
     5
1001
GRADIENTCOLOR2ACI
1070
     2
1001
ACAD
1010
0.0
1020
0.0
1030
0.0
  0
LINE
  5
12720F
  8
SLIM
 10
4920.0
 20
-1272.9605122421381
 30
0.0
 11
5056.9605122421381
 21
-1136.0
 31
0.0
1001
GRADIENTCOLOR1ACI
1070
     5
1001
GRADIENTCOLOR2ACI
1070
     2
1001
ACAD
1010
0.0
1020
0.0
1030
0.0
  0
LINE
  5
127210
  8
SLIM
 10
4920.0
 20
-1290.921024484277
 30
0.0
 11
5074.921024484277
 21
-1136.0
 31
0.0
1001
GRADIENTCOLOR1ACI
1070
     5
1001
GRADIENTCOLOR2ACI
1070
     2
1001
ACAD
1010
0.0
1020
0.0
1030
0.0
  0
LINE
  5
127211
  8
SLIM
 10
4920.0
 20
-1308.8815367264151
 30
0.0
 11
5085.0000000000073
 21
-1143.8815367264081
 31
0.0
1001
GRADIENTCOLOR1ACI
1070
     5
1001
GRADIENTCOLOR2ACI
1070
     2
1001
ACAD
1010
0.0
1020
0.0
1030
0.0
  0
LINE
  5
127212
  8
SLIM
 10
4920.0
 20
-1326.8420489685529
 30
0.0
 11
5085.0000000000073
 21
-1161.842048968547
 31
0.0
1001
GRADIENTCOLOR1ACI
1070
     5
1001
GRADIENTCOLOR2ACI
1070
     2
1001
ACAD
1010
0.0
1020
0.0
1030
0.0
  0
LINE
  5
127213
  8
SLIM
 10
4920.0
 20
-1344.802561210691
 30
0.0
 11
5085.0000000000036
 21
-1179.8025612106869
 31
0.0
1001
GRADIENTCOLOR1ACI
1070
     5
1001
GRADIENTCOLOR2ACI
1070
     2
1001
ACAD
1010
0.0
1020
0.0
1030
0.0
  0
LINE
  5
127214
  8
SLIM
 10
4920.0
 20
-1362.7630734528291
 30
0.0
 11
5085.0000000000036
 21
-1197.7630734528259
 31
0.0
1001
GRADIENTCOLOR1ACI
1070
     5
1001
GRADIENTCOLOR2ACI
1070
     2
1001
ACAD
1010
0.0
1020
0.0
1030
0.0
  0
LINE
  5
127215
  8
SLIM
 10
4924.7235856949701
 20
-1376.0
 30
0.0
 11
5083.4738280308084
 21
-1217.249757664159
 31
0.0
1001
GRADIENTCOLOR1ACI
1070
     5
1001
GRADIENTCOLOR2ACI
1070
     2
1001
ACAD
1010
0.0
1020
0.0
1030
0.0
  0
LINE
  5
127216
  8
SLIM
 10
4930.0
 20
-1388.6840979371059
 30
0.0
 11
4942.6840979371073
 21
-1376.0
 31
0.0
1001
GRADIENTCOLOR1ACI
1070
     5
1001
GRADIENTCOLOR2ACI
1070
     2
1001
ACAD
1010
0.0
1020
0.0
1030
0.0
  0
LINE
  5
127217
  8
SLIM
 10
4942.6840979371073
 20
-1376.0
 30
0.0
 11
5080.9680345671377
 21
-1237.7160633699691
 31
0.0
1001
GRADIENTCOLOR1ACI
1070
     5
1001
GRADIENTCOLOR2ACI
1070
     2
1001
ACAD
1010
0.0
1020
0.0
1030
0.0
  0
LINE
  5
127218
  8
SLIM
 10
4941.6446101792453
 20
-1395.0
 30
0.0
 11
4960.6446101792462
 21
-1376.0
 31
0.0
1001
GRADIENTCOLOR1ACI
1070
     5
1001
GRADIENTCOLOR2ACI
1070
     2
1001
ACAD
1010
0.0
1020
0.0
1030
0.0
  0
LINE
  5
127219
  8
SLIM
 10
4960.6446101792462
 20
-1376.0
 30
0.0
 11
5080.0
 21
-1256.6446101792451
 31
0.0
1001
GRADIENTCOLOR1ACI
1070
     5
1001
GRADIENTCOLOR2ACI
1070
     2
1001
ACAD
1010
0.0
1020
0.0
1030
0.0
  0
LINE
  5
12721A
  8
SLIM
 10
4959.6051224213843
 20
-1395.0
 30
0.0
 11
4978.6051224213843
 21
-1376.0
 31
0.0
1001
GRADIENTCOLOR1ACI
1070
     5
1001
GRADIENTCOLOR2ACI
1070
     2
1001
ACAD
1010
0.0
1020
0.0
1030
0.0
  0
LINE
  5
12721B
  8
SLIM
 10
4978.6051224213843
 20
-1376.0
 30
0.0
 11
5080.0
 21
-1274.6051224213829
 31
0.0
1001
GRADIENTCOLOR1ACI
1070
     5
1001
GRADIENTCOLOR2ACI
1070
     2
1001
ACAD
1010
0.0
1020
0.0
1030
0.0
  0
LINE
  5
12721C
  8
SLIM
 10
4977.5656346635215
 20
-1395.0
 30
0.0
 11
4996.5656346635224
 21
-1376.0
 31
0.0
1001
GRADIENTCOLOR1ACI
1070
     5
1001
GRADIENTCOLOR2ACI
1070
     2
1001
ACAD
1010
0.0
1020
0.0
1030
0.0
  0
LINE
  5
12721D
  8
SLIM
 10
4996.5656346635224
 20
-1376.0
 30
0.0
 11
5079.9999999999991
 21
-1292.5656346635219
 31
0.0
1001
GRADIENTCOLOR1ACI
1070
     5
1001
GRADIENTCOLOR2ACI
1070
     2
1001
ACAD
1010
0.0
1020
0.0
1030
0.0
  0
LINE
  5
12721E
  8
SLIM
 10
4995.5261469056577
 20
-1395.0
 30
0.0
 11
5014.5261469056613
 21
-1376.0
 31
0.0
1001
GRADIENTCOLOR1ACI
1070
     5
1001
GRADIENTCOLOR2ACI
1070
     2
1001
ACAD
1010
0.0
1020
0.0
1030
0.0
  0
LINE
  5
12721F
  8
SLIM
 10
5014.5261469056613
 20
-1376.0
 30
0.0
 11
5079.9999999999991
 21
-1310.5261469056611
 31
0.0
1001
GRADIENTCOLOR1ACI
1070
     5
1001
GRADIENTCOLOR2ACI
1070
     2
1001
ACAD
1010
0.0
1020
0.0
1030
0.0
  0
LINE
  5
127220
  8
SLIM
 10
5013.4866591477976
 20
-1395.0
 30
0.0
 11
5032.4866591478003
 21
-1376.0
 31
0.0
1001
GRADIENTCOLOR1ACI
1070
     5
1001
GRADIENTCOLOR2ACI
1070
     2
1001
ACAD
1010
0.0
1020
0.0
1030
0.0
  0
LINE
  5
127221
  8
SLIM
 10
5032.4866591478003
 20
-1376.0
 30
0.0
 11
5079.9999999999991
 21
-1328.4866591477989
 31
0.0
1001
GRADIENTCOLOR1ACI
1070
     5
1001
GRADIENTCOLOR2ACI
1070
     2
1001
ACAD
1010
0.0
1020
0.0
1030
0.0
  0
LINE
  5
127222
  8
SLIM
 10
5031.4471713899356
 20
-1395.0
 30
0.0
 11
5050.4471713899366
 21
-1376.0
 31
0.0
1001
GRADIENTCOLOR1ACI
1070
     5
1001
GRADIENTCOLOR2ACI
1070
     2
1001
ACAD
1010
0.0
1020
0.0
1030
0.0
  0
LINE
  5
127223
  8
SLIM
 10
5050.4471713899366
 20
-1376.0
 30
0.0
 11
5079.9999999999982
 21
-1346.447171389937
 31
0.0
1001
GRADIENTCOLOR1ACI
1070
     5
1001
GRADIENTCOLOR2ACI
1070
     2
1001
ACAD
1010
0.0
1020
0.0
1030
0.0
  0
LINE
  5
127224
  8
SLIM
 10
5049.4076836320737
 20
-1395.0
 30
0.0
 11
5068.4076836320737
 21
-1376.0
 31
0.0
1001
GRADIENTCOLOR1ACI
1070
     5
1001
GRADIENTCOLOR2ACI
1070
     2
1001
ACAD
1010
0.0
1020
0.0
1030
0.0
  0
LINE
  5
127225
  8
SLIM
 10
5068.4076836320737
 20
-1376.0
 30
0.0
 11
5079.9999999999982
 21
-1364.407683632076
 31
0.0
1001
GRADIENTCOLOR1ACI
1070
     5
1001
GRADIENTCOLOR2ACI
1070
     2
1001
ACAD
1010
0.0
1020
0.0
1030
0.0
  0
LINE
  5
127226
  8
SLIM
 10
5067.3681958742118
 20
-1395.0
 30
0.0
 11
5070.0
 21
-1392.3681958742129
 31
0.0
1001
GRADIENTCOLOR1ACI
1070
     5
1001
GRADIENTCOLOR2ACI
1070
     2
1001
ACAD
1010
0.0
1020
0.0
1030
0.0
  0
LINE
  5
127227
  8
OBJECT
 10
4914.9999999999918
 20
-1136.0
 30
0.0
 11
4914.9999999999982
 21
-1204.7846033990349
 31
0.0
1001
ACDBBLOCKREPETAG
1070
     1
1071
        1
1005
127227
  0
LINE
  5
127228
  8
OBJECT
 10
5085.0000000000073
 20
-1136.0
 30
0.0
 11
5085.0000000000036
 21
-1204.784603399042
 31
0.0
1001
ACDBBLOCKREPETAG
1070
     1
1071
        2
1005
127228
  0
LINE
  5
127229
  8
OBJECT
 10
5085.0000000000073
 20
-1136.0
 30
0.0
 11
4914.9999999999918
 21
-1136.0
 31
0.0
1001
ACDBBLOCKREPETAG
1070
     1
1071
        3
1005
127229
  0
LINE
  5
12722A
  8
OBJECT
 10
5079.9999999999982
 20
-1376.0
 30
0.0
 11
4920.0
 21
-1376.0
 31
0.0
1001
ACDBBLOCKREPETAG
1070
     1
1071
        4
1005
12722A
  0
LINE
  5
12722B
  8
OBJECT
 10
4914.9999999999982
 20
-1204.7846033990349
 30
0.0
 11
4920.0
 21
-1245.6225774829859
 31
0.0
1001
ACDBBLOCKREPETAG
1070
     1
1071
        6
1005
12722B
  0
LINE
  5
12722C
  8
OBJECT
 10
4920.0
 20
-1245.6225774829859
 30
0.0
 11
4920.0
 21
-1376.0
 31
0.0
1001
ACDBBLOCKREPETAG
1070
     1
1071
        7
1005
12722C
  0
LINE
  5
12722D
  8
OBJECT
 10
5085.0000000000036
 20
-1204.784603399042
 30
0.0
 11
5080.0
 21
-1245.6225774829859
 31
0.0
1001
ACDBBLOCKREPETAG
1070
     1
1071
        8
1005
12722D
  0
LINE
  5
12722E
  8
OBJECT
 10
5080.0
 20
-1245.6225774829859
 30
0.0
 11
5079.9999999999982
 21
-1376.0
 31
0.0
1001
ACDBBLOCKREPETAG
1070
     1
1071
        9
1005
12722E
  0
LINE
  5
12722F
  8
OBJECT
 10
4930.0
 20
-1376.0
 30
0.0
 11
4930.0
 21
-1395.0
 31
0.0
1001
ACDBBLOCKREPETAG
1070
     1
1071
       10
1005
12722F
  0
LINE
  5
127230
  8
OBJECT
 10
4930.0
 20
-1395.0
 30
0.0
 11
5070.0
 21
-1395.0
 31
0.0
1001
ACDBBLOCKREPETAG
1070
     1
1071
       11
1005
127230
  0
LINE
  5
127231
  8
OBJECT
 10
5070.0
 20
-1395.0
 30
0.0
 11
5070.0
 21
-1376.0
 31
0.0
1001
ACDBBLOCKREPETAG
1070
     1
1071
       12
1005
127231
  0
LINE
  5
127232
  8
SLIM
 10
4414.9999999999927
 20
-1152.2369265471771
 30
0.0
 11
4431.2369265471698
 21
-1136.0
 31
0.0
1001
GRADIENTCOLOR1ACI
1070
     5
1001
GRADIENTCOLOR2ACI
1070
     2
1001
ACAD
1010
0.0
1020
0.0
1030
0.0
  0
LINE
  5
127233
  8
SLIM
 10
4414.9999999999927
 20
-1170.197438789314
 30
0.0
 11
4449.1974387893069
 21
-1136.0
 31
0.0
1001
GRADIENTCOLOR1ACI
1070
     5
1001
GRADIENTCOLOR2ACI
1070
     2
1001
ACAD
1010
0.0
1020
0.0
1030
0.0
  0
LINE
  5
127234
  8
SLIM
 10
4414.9999999999955
 20
-1188.1579510314509
 30
0.0
 11
4467.1579510314441
 21
-1136.0
 31
0.0
1001
GRADIENTCOLOR1ACI
1070
     5
1001
GRADIENTCOLOR2ACI
1070
     2
1001
ACAD
1010
0.0
1020
0.0
1030
0.0
  0
LINE
  5
127235
  8
SLIM
 10
4415.1454972543143
 20
-1205.9729660192691
 30
0.0
 11
4485.1184632735849
 21
-1136.0
 31
0.0
1001
GRADIENTCOLOR1ACI
1070
     5
1001
GRADIENTCOLOR2ACI
1070
     2
1001
ACAD
1010
0.0
1020
0.0
1030
0.0
  0
LINE
  5
127236
  8
SLIM
 10
4417.1046274952441
 20
-1221.97434802048
 30
0.0
 11
4503.078975515722
 21
-1136.0
 31
0.0
1001
GRADIENTCOLOR1ACI
1070
     5
1001
GRADIENTCOLOR2ACI
1070
     2
1001
ACAD
1010
0.0
1020
0.0
1030
0.0
  0
LINE
  5
127237
  8
SLIM
 10
4419.0637577361713
 20
-1237.97573002169
 30
0.0
 11
4521.0394877578619
 21
-1136.0
 31
0.0
1001
GRADIENTCOLOR1ACI
1070
     5
1001
GRADIENTCOLOR2ACI
1070
     2
1001
ACAD
1010
0.0
1020
0.0
1030
0.0
  0
LINE
  5
127238
  8
SLIM
 10
4420.0
 20
-1255.0
 30
0.0
 11
4539.0
 21
-1136.0
 31
0.0
1001
GRADIENTCOLOR1ACI
1070
     5
1001
GRADIENTCOLOR2ACI
1070
     2
1001
ACAD
1010
0.0
1020
0.0
1030
0.0
  0
LINE
  5
127239
  8
SLIM
 10
4420.0
 20
-1272.9605122421381
 30
0.0
 11
4556.9605122421372
 21
-1136.0
 31
0.0
1001
GRADIENTCOLOR1ACI
1070
     5
1001
GRADIENTCOLOR2ACI
1070
     2
1001
ACAD
1010
0.0
1020
0.0
1030
0.0
  0
LINE
  5
12723A
  8
SLIM
 10
4420.0
 20
-1290.921024484277
 30
0.0
 11
4574.921024484277
 21
-1136.0
 31
0.0
1001
GRADIENTCOLOR1ACI
1070
     5
1001
GRADIENTCOLOR2ACI
1070
     2
1001
ACAD
1010
0.0
1020
0.0
1030
0.0
  0
LINE
  5
12723B
  8
SLIM
 10
4420.0
 20
-1308.8815367264151
 30
0.0
 11
4585.0000000000073
 21
-1143.8815367264081
 31
0.0
1001
GRADIENTCOLOR1ACI
1070
     5
1001
GRADIENTCOLOR2ACI
1070
     2
1001
ACAD
1010
0.0
1020
0.0
1030
0.0
  0
LINE
  5
12723C
  8
SLIM
 10
4420.0
 20
-1326.8420489685529
 30
0.0
 11
4585.0000000000073
 21
-1161.842048968547
 31
0.0
1001
GRADIENTCOLOR1ACI
1070
     5
1001
GRADIENTCOLOR2ACI
1070
     2
1001
ACAD
1010
0.0
1020
0.0
1030
0.0
  0
LINE
  5
12723D
  8
SLIM
 10
4420.0
 20
-1344.802561210691
 30
0.0
 11
4585.0000000000036
 21
-1179.8025612106869
 31
0.0
1001
GRADIENTCOLOR1ACI
1070
     5
1001
GRADIENTCOLOR2ACI
1070
     2
1001
ACAD
1010
0.0
1020
0.0
1030
0.0
  0
LINE
  5
12723E
  8
SLIM
 10
4420.0
 20
-1362.7630734528291
 30
0.0
 11
4585.0000000000009
 21
-1197.7630734528259
 31
0.0
1001
GRADIENTCOLOR1ACI
1070
     5
1001
GRADIENTCOLOR2ACI
1070
     2
1001
ACAD
1010
0.0
1020
0.0
1030
0.0
  0
LINE
  5
12723F
  8
SLIM
 10
4424.7235856949692
 20
-1376.0
 30
0.0
 11
4583.4738280308084
 21
-1217.249757664159
 31
0.0
1001
GRADIENTCOLOR1ACI
1070
     5
1001
GRADIENTCOLOR2ACI
1070
     2
1001
ACAD
1010
0.0
1020
0.0
1030
0.0
  0
LINE
  5
127240
  8
SLIM
 10
4430.0
 20
-1388.6840979371059
 30
0.0
 11
4442.6840979371063
 21
-1376.0
 31
0.0
1001
GRADIENTCOLOR1ACI
1070
     5
1001
GRADIENTCOLOR2ACI
1070
     2
1001
ACAD
1010
0.0
1020
0.0
1030
0.0
  0
LINE
  5
127241
  8
SLIM
 10
4442.6840979371063
 20
-1376.0
 30
0.0
 11
4580.9680345671368
 21
-1237.7160633699691
 31
0.0
1001
GRADIENTCOLOR1ACI
1070
     5
1001
GRADIENTCOLOR2ACI
1070
     2
1001
ACAD
1010
0.0
1020
0.0
1030
0.0
  0
LINE
  5
127242
  8
SLIM
 10
4441.6446101792453
 20
-1395.0
 30
0.0
 11
4460.6446101792462
 21
-1376.0
 31
0.0
1001
GRADIENTCOLOR1ACI
1070
     5
1001
GRADIENTCOLOR2ACI
1070
     2
1001
ACAD
1010
0.0
1020
0.0
1030
0.0
  0
LINE
  5
127243
  8
SLIM
 10
4460.6446101792462
 20
-1376.0
 30
0.0
 11
4580.0
 21
-1256.6446101792451
 31
0.0
1001
GRADIENTCOLOR1ACI
1070
     5
1001
GRADIENTCOLOR2ACI
1070
     2
1001
ACAD
1010
0.0
1020
0.0
1030
0.0
  0
LINE
  5
127244
  8
SLIM
 10
4459.6051224213843
 20
-1395.0
 30
0.0
 11
4478.6051224213843
 21
-1376.0
 31
0.0
1001
GRADIENTCOLOR1ACI
1070
     5
1001
GRADIENTCOLOR2ACI
1070
     2
1001
ACAD
1010
0.0
1020
0.0
1030
0.0
  0
LINE
  5
127245
  8
SLIM
 10
4478.6051224213843
 20
-1376.0
 30
0.0
 11
4580.0
 21
-1274.6051224213829
 31
0.0
1001
GRADIENTCOLOR1ACI
1070
     5
1001
GRADIENTCOLOR2ACI
1070
     2
1001
ACAD
1010
0.0
1020
0.0
1030
0.0
  0
LINE
  5
127246
  8
SLIM
 10
4477.5656346635215
 20
-1395.0
 30
0.0
 11
4496.5656346635215
 21
-1376.0
 31
0.0
1001
GRADIENTCOLOR1ACI
1070
     5
1001
GRADIENTCOLOR2ACI
1070
     2
1001
ACAD
1010
0.0
1020
0.0
1030
0.0
  0
LINE
  5
127247
  8
SLIM
 10
4496.5656346635215
 20
-1376.0
 30
0.0
 11
4579.9999999999991
 21
-1292.5656346635219
 31
0.0
1001
GRADIENTCOLOR1ACI
1070
     5
1001
GRADIENTCOLOR2ACI
1070
     2
1001
ACAD
1010
0.0
1020
0.0
1030
0.0
  0
LINE
  5
127248
  8
SLIM
 10
4495.5261469056586
 20
-1395.0
 30
0.0
 11
4514.5261469056613
 21
-1376.0
 31
0.0
1001
GRADIENTCOLOR1ACI
1070
     5
1001
GRADIENTCOLOR2ACI
1070
     2
1001
ACAD
1010
0.0
1020
0.0
1030
0.0
  0
LINE
  5
127249
  8
SLIM
 10
4514.5261469056613
 20
-1376.0
 30
0.0
 11
4579.9999999999991
 21
-1310.5261469056611
 31
0.0
1001
GRADIENTCOLOR1ACI
1070
     5
1001
GRADIENTCOLOR2ACI
1070
     2
1001
ACAD
1010
0.0
1020
0.0
1030
0.0
  0
LINE
  5
12724A
  8
SLIM
 10
4513.4866591477976
 20
-1395.0
 30
0.0
 11
4532.4866591478003
 21
-1376.0
 31
0.0
1001
GRADIENTCOLOR1ACI
1070
     5
1001
GRADIENTCOLOR2ACI
1070
     2
1001
ACAD
1010
0.0
1020
0.0
1030
0.0
  0
LINE
  5
12724B
  8
SLIM
 10
4532.4866591478003
 20
-1376.0
 30
0.0
 11
4579.9999999999991
 21
-1328.4866591477989
 31
0.0
1001
GRADIENTCOLOR1ACI
1070
     5
1001
GRADIENTCOLOR2ACI
1070
     2
1001
ACAD
1010
0.0
1020
0.0
1030
0.0
  0
LINE
  5
12724C
  8
SLIM
 10
4531.4471713899356
 20
-1395.0
 30
0.0
 11
4550.4471713899356
 21
-1376.0
 31
0.0
1001
GRADIENTCOLOR1ACI
1070
     5
1001
GRADIENTCOLOR2ACI
1070
     2
1001
ACAD
1010
0.0
1020
0.0
1030
0.0
  0
LINE
  5
12724D
  8
SLIM
 10
4550.4471713899356
 20
-1376.0
 30
0.0
 11
4579.9999999999982
 21
-1346.447171389937
 31
0.0
1001
GRADIENTCOLOR1ACI
1070
     5
1001
GRADIENTCOLOR2ACI
1070
     2
1001
ACAD
1010
0.0
1020
0.0
1030
0.0
  0
LINE
  5
12724E
  8
SLIM
 10
4549.4076836320737
 20
-1395.0
 30
0.0
 11
4568.4076836320728
 21
-1376.0
 31
0.0
1001
GRADIENTCOLOR1ACI
1070
     5
1001
GRADIENTCOLOR2ACI
1070
     2
1001
ACAD
1010
0.0
1020
0.0
1030
0.0
  0
LINE
  5
12724F
  8
SLIM
 10
4568.4076836320728
 20
-1376.0
 30
0.0
 11
4579.9999999999982
 21
-1364.407683632076
 31
0.0
1001
GRADIENTCOLOR1ACI
1070
     5
1001
GRADIENTCOLOR2ACI
1070
     2
1001
ACAD
1010
0.0
1020
0.0
1030
0.0
  0
LINE
  5
127250
  8
SLIM
 10
4567.3681958742118
 20
-1395.0
 30
0.0
 11
4570.0
 21
-1392.3681958742129
 31
0.0
1001
GRADIENTCOLOR1ACI
1070
     5
1001
GRADIENTCOLOR2ACI
1070
     2
1001
ACAD
1010
0.0
1020
0.0
1030
0.0
  0
LINE
  5
127251
  8
OBJECT
 10
4414.9999999999918
 20
-1136.0
 30
0.0
 11
4414.9999999999973
 21
-1204.7846033990349
 31
0.0
1001
ACDBBLOCKREPETAG
1070
     1
1071
        1
1005
127251
  0
LINE
  5
127252
  8
OBJECT
 10
4585.0000000000073
 20
-1136.0
 30
0.0
 11
4585.0000000000009
 21
-1204.784603399042
 31
0.0
1001
ACDBBLOCKREPETAG
1070
     1
1071
        2
1005
127252
  0
LINE
  5
127253
  8
OBJECT
 10
4585.0000000000073
 20
-1136.0
 30
0.0
 11
4414.9999999999918
 21
-1136.0
 31
0.0
1001
ACDBBLOCKREPETAG
1070
     1
1071
        3
1005
127253
  0
LINE
  5
127254
  8
OBJECT
 10
4579.9999999999982
 20
-1376.0
 30
0.0
 11
4420.0
 21
-1376.0
 31
0.0
1001
ACDBBLOCKREPETAG
1070
     1
1071
        4
1005
127254
  0
LINE
  5
127255
  8
OBJECT
 10
4414.9999999999973
 20
-1204.7846033990349
 30
0.0
 11
4420.0
 21
-1245.6225774829859
 31
0.0
1001
ACDBBLOCKREPETAG
1070
     1
1071
        6
1005
127255
  0
LINE
  5
127256
  8
OBJECT
 10
4420.0
 20
-1245.6225774829859
 30
0.0
 11
4420.0
 21
-1376.0
 31
0.0
1001
ACDBBLOCKREPETAG
1070
     1
1071
        7
1005
127256
  0
LINE
  5
127257
  8
OBJECT
 10
4585.0000000000009
 20
-1204.784603399042
 30
0.0
 11
4580.0
 21
-1245.6225774829859
 31
0.0
1001
ACDBBLOCKREPETAG
1070
     1
1071
        8
1005
127257
  0
LINE
  5
127258
  8
OBJECT
 10
4580.0
 20
-1245.6225774829859
 30
0.0
 11
4579.9999999999982
 21
-1376.0
 31
0.0
1001
ACDBBLOCKREPETAG
1070
     1
1071
        9
1005
127258
  0
LINE
  5
127259
  8
OBJECT
 10
4430.0
 20
-1376.0
 30
0.0
 11
4430.0
 21
-1395.0
 31
0.0
1001
ACDBBLOCKREPETAG
1070
     1
1071
       10
1005
127259
  0
LINE
  5
12725A
  8
OBJECT
 10
4430.0
 20
-1395.0
 30
0.0
 11
4570.0
 21
-1395.0
 31
0.0
1001
ACDBBLOCKREPETAG
1070
     1
1071
       11
1005
12725A
  0
LINE
  5
12725B
  8
OBJECT
 10
4570.0
 20
-1395.0
 30
0.0
 11
4570.0
 21
-1376.0
 31
0.0
1001
ACDBBLOCKREPETAG
1070
     1
1071
       12
1005
12725B
  0
LINE
  5
12725C
  8
OBJECT
 10
4930.0
 20
-1484.999999999998
 30
0.0
 11
5070.0
 21
-1484.999999999998
 31
0.0
1001
ACDBBLOCKREPETAG
1070
     1
1071
        0
1005
12725C
  0
LINE
  5
12725D
  8
OBJECT
 10
4930.0
 20
-1484.999999999998
 30
0.0
 11
4930.0
 21
-1244.999999999998
 31
0.0
1001
ACDBBLOCKREPETAG
1070
     1
1071
        1
1005
12725D
  0
LINE
  5
12725E
  8
OBJECT
 10
5070.0
 20
-1484.999999999998
 30
0.0
 11
5070.0
 21
-1244.999999999998
 31
0.0
1001
ACDBBLOCKREPETAG
1070
     1
1071
        2
1005
12725E
  0
LINE
  5
12725F
  8
OBJECT
 10
4930.0
 20
-1244.999999999998
 30
0.0
 11
5070.0
 21
-1244.999999999998
 31
0.0
1001
ACDBBLOCKREPETAG
1070
     1
1071
        3
1005
12725F
  0
LINE
  5
127260
  8
HIDDEN
 10
4937.5
 20
-1244.999999999998
 30
0.0
 11
4937.5
 21
-1484.999999999998
 31
0.0
1001
ACDBBLOCKREPETAG
1070
     1
1071
        4
1005
127260
  0
LINE
  5
127261
  8
HIDDEN
 10
5062.5
 20
-1244.999999999998
 30
0.0
 11
5062.5
 21
-1484.999999999998
 31
0.0
1001
ACDBBLOCKREPETAG
1070
     1
1071
        5
1005
127261
  0
LINE
  5
127262
  8
CENTER
 10
5000.0
 20
-1175.0
 30
0.0
 11
5000.0
 21
-1499.999999999998
 31
0.0
1001
ACDBBLOCKREPETAG
1070
     1
1071
        6
1005
127262
  0
LINE
  5
127263
  8
OBJECT
 10
4925.0
 20
-1175.0
 30
0.0
 11
4925.0
 21
-1204.999999999998
 31
0.0
1001
ACDBBLOCKREPETAG
1070
     1
1071
        7
1005
127263
  0
LINE
  5
127264
  8
OBJECT
 10
5075.0000000000018
 20
-1175.0
 30
0.0
 11
5075.0
 21
-1204.999999999998
 31
0.0
1001
ACDBBLOCKREPETAG
1070
     1
1071
        8
1005
127264
  0
LINE
  5
127265
  8
OBJECT
 10
4925.0
 20
-1204.999999999998
 30
0.0
 11
5075.0
 21
-1204.999999999998
 31
0.0
1001
ACDBBLOCKREPETAG
1070
     1
1071
        9
1005
127265
  0
LINE
  5
127266
  8
OBJECT
 10
4925.0
 20
-1204.999999999998
 30
0.0
 11
4930.0
 21
-1244.999999999998
 31
0.0
1001
ACDBBLOCKREPETAG
1070
     1
1071
       10
1005
127266
  0
LINE
  5
127267
  8
OBJECT
 10
5070.0
 20
-1244.999999999998
 30
0.0
 11
5075.0
 21
-1204.999999999998
 31
0.0
1001
ACDBBLOCKREPETAG
1070
     1
1071
       11
1005
127267
  0
LINE
  5
127268
  8
OBJECT
 10
4430.0
 20
-1484.999999999998
 30
0.0
 11
4570.0
 21
-1484.999999999998
 31
0.0
1001
ACDBBLOCKREPETAG
1070
     1
1071
        0
1005
127268
  0
LINE
  5
127269
  8
OBJECT
 10
4430.0
 20
-1484.999999999998
 30
0.0
 11
4430.0
 21
-1244.999999999998
 31
0.0
1001
ACDBBLOCKREPETAG
1070
     1
1071
        1
1005
127269
  0
LINE
  5
12726A
  8
OBJECT
 10
4570.0
 20
-1484.999999999998
 30
0.0
 11
4570.0
 21
-1244.999999999998
 31
0.0
1001
ACDBBLOCKREPETAG
1070
     1
1071
        2
1005
12726A
  0
LINE
  5
12726B
  8
OBJECT
 10
4430.0
 20
-1244.999999999998
 30
0.0
 11
4570.0
 21
-1244.999999999998
 31
0.0
1001
ACDBBLOCKREPETAG
1070
     1
1071
        3
1005
12726B
  0
LINE
  5
12726C
  8
HIDDEN
 10
4437.5
 20
-1244.999999999998
 30
0.0
 11
4437.5
 21
-1484.999999999998
 31
0.0
1001
ACDBBLOCKREPETAG
1070
     1
1071
        4
1005
12726C
  0
LINE
  5
12726D
  8
HIDDEN
 10
4562.5
 20
-1244.999999999998
 30
0.0
 11
4562.5
 21
-1484.999999999998
 31
0.0
1001
ACDBBLOCKREPETAG
1070
     1
1071
        5
1005
12726D
  0
LINE
  5
12726E
  8
CENTER
 10
4500.0
 20
-1175.0
 30
0.0
 11
4500.0
 21
-1499.999999999998
 31
0.0
1001
ACDBBLOCKREPETAG
1070
     1
1071
        6
1005
12726E
  0
LINE
  5
12726F
  8
OBJECT
 10
4425.0
 20
-1175.0
 30
0.0
 11
4425.0
 21
-1204.999999999998
 31
0.0
1001
ACDBBLOCKREPETAG
1070
     1
1071
        7
1005
12726F
  0
LINE
  5
127270
  8
OBJECT
 10
4575.0000000000009
 20
-1175.0
 30
0.0
 11
4575.0
 21
-1204.999999999998
 31
0.0
1001
ACDBBLOCKREPETAG
1070
     1
1071
        8
1005
127270
  0
LINE
  5
127271
  8
OBJECT
 10
4425.0
 20
-1204.999999999998
 30
0.0
 11
4575.0
 21
-1204.999999999998
 31
0.0
1001
ACDBBLOCKREPETAG
1070
     1
1071
        9
1005
127271
  0
LINE
  5
127272
  8
OBJECT
 10
4425.0
 20
-1204.999999999998
 30
0.0
 11
4430.0
 21
-1244.999999999998
 31
0.0
1001
ACDBBLOCKREPETAG
1070
     1
1071
       10
1005
127272
  0
LINE
  5
127273
  8
OBJECT
 10
4570.0
 20
-1244.999999999998
 30
0.0
 11
4575.0
 21
-1204.999999999998
 31
0.0
1001
ACDBBLOCKREPETAG
1070
     1
1071
       11
1005
127273
  0
LINE
  5
127274
  8
OBJECT
 10
2930.0
 20
-1484.999999999998
 30
0.0
 11
3070.0
 21
-1484.999999999998
 31
0.0
1001
ACDBBLOCKREPETAG
1070
     1
1071
        0
1005
127274
  0
LINE
  5
127275
  8
OBJECT
 10
2930.0
 20
-1484.999999999998
 30
0.0
 11
2930.0
 21
-1244.999999999998
 31
0.0
1001
ACDBBLOCKREPETAG
1070
     1
1071
        1
1005
127275
  0
LINE
  5
127276
  8
OBJECT
 10
3070.0
 20
-1484.999999999998
 30
0.0
 11
3070.0
 21
-1244.999999999998
 31
0.0
1001
ACDBBLOCKREPETAG
1070
     1
1071
        2
1005
127276
  0
LINE
  5
127277
  8
OBJECT
 10
2930.0
 20
-1244.999999999998
 30
0.0
 11
3070.0
 21
-1244.999999999998
 31
0.0
1001
ACDBBLOCKREPETAG
1070
     1
1071
        3
1005
127277
  0
LINE
  5
127278
  8
HIDDEN
 10
2937.5
 20
-1244.999999999998
 30
0.0
 11
2937.5
 21
-1484.999999999998
 31
0.0
1001
ACDBBLOCKREPETAG
1070
     1
1071
        4
1005
127278
  0
LINE
  5
127279
  8
HIDDEN
 10
3062.5
 20
-1244.999999999998
 30
0.0
 11
3062.5
 21
-1484.999999999998
 31
0.0
1001
ACDBBLOCKREPETAG
1070
     1
1071
        5
1005
127279
  0
LINE
  5
12727A
  8
CENTER
 10
3000.0
 20
-1175.0
 30
0.0
 11
3000.0
 21
-1499.999999999998
 31
0.0
1001
ACDBBLOCKREPETAG
1070
     1
1071
        6
1005
12727A
  0
LINE
  5
12727B
  8
OBJECT
 10
2925.0
 20
-1175.0
 30
0.0
 11
2925.0
 21
-1204.999999999998
 31
0.0
1001
ACDBBLOCKREPETAG
1070
     1
1071
        7
1005
12727B
  0
LINE
  5
12727C
  8
OBJECT
 10
3075.000000000005
 20
-1175.0
 30
0.0
 11
3075.0
 21
-1204.999999999998
 31
0.0
1001
ACDBBLOCKREPETAG
1070
     1
1071
        8
1005
12727C
  0
LINE
  5
12727D
  8
OBJECT
 10
2925.0
 20
-1204.999999999998
 30
0.0
 11
3075.0
 21
-1204.999999999998
 31
0.0
1001
ACDBBLOCKREPETAG
1070
     1
1071
        9
1005
12727D
  0
LINE
  5
12727E
  8
OBJECT
 10
2925.0
 20
-1204.999999999998
 30
0.0
 11
2930.0
 21
-1244.999999999998
 31
0.0
1001
ACDBBLOCKREPETAG
1070
     1
1071
       10
1005
12727E
  0
LINE
  5
12727F
  8
OBJECT
 10
3070.0
 20
-1244.999999999998
 30
0.0
 11
3075.0
 21
-1204.999999999998
 31
0.0
1001
ACDBBLOCKREPETAG
1070
     1
1071
       11
1005
12727F
  0
LINE
  5
127280
  8
OBJECT
 10
2430.0
 20
-1484.999999999998
 30
0.0
 11
2570.0
 21
-1484.999999999998
 31
0.0
1001
ACDBBLOCKREPETAG
1070
     1
1071
        0
1005
127280
  0
LINE
  5
127281
  8
OBJECT
 10
2430.0
 20
-1484.999999999998
 30
0.0
 11
2430.0
 21
-1244.999999999998
 31
0.0
1001
ACDBBLOCKREPETAG
1070
     1
1071
        1
1005
127281
  0
LINE
  5
127282
  8
OBJECT
 10
2570.0
 20
-1484.999999999998
 30
0.0
 11
2570.0
 21
-1244.999999999998
 31
0.0
1001
ACDBBLOCKREPETAG
1070
     1
1071
        2
1005
127282
  0
LINE
  5
127283
  8
OBJECT
 10
2430.0
 20
-1244.999999999998
 30
0.0
 11
2570.0
 21
-1244.999999999998
 31
0.0
1001
ACDBBLOCKREPETAG
1070
     1
1071
        3
1005
127283
  0
LINE
  5
127284
  8
HIDDEN
 10
2437.5
 20
-1244.999999999998
 30
0.0
 11
2437.5
 21
-1484.999999999998
 31
0.0
1001
ACDBBLOCKREPETAG
1070
     1
1071
        4
1005
127284
  0
LINE
  5
127285
  8
HIDDEN
 10
2562.5
 20
-1244.999999999998
 30
0.0
 11
2562.5
 21
-1484.999999999998
 31
0.0
1001
ACDBBLOCKREPETAG
1070
     1
1071
        5
1005
127285
  0
LINE
  5
127286
  8
CENTER
 10
2500.0
 20
-1175.0
 30
0.0
 11
2500.0
 21
-1499.999999999998
 31
0.0
1001
ACDBBLOCKREPETAG
1070
     1
1071
        6
1005
127286
  0
LINE
  5
127287
  8
OBJECT
 10
2425.0
 20
-1175.0
 30
0.0
 11
2425.0
 21
-1204.999999999998
 31
0.0
1001
ACDBBLOCKREPETAG
1070
     1
1071
        7
1005
127287
  0
LINE
  5
127288
  8
OBJECT
 10
2575.000000000005
 20
-1175.0
 30
0.0
 11
2575.0
 21
-1204.999999999998
 31
0.0
1001
ACDBBLOCKREPETAG
1070
     1
1071
        8
1005
127288
  0
LINE
  5
127289
  8
OBJECT
 10
2425.0
 20
-1204.999999999998
 30
0.0
 11
2575.0
 21
-1204.999999999998
 31
0.0
1001
ACDBBLOCKREPETAG
1070
     1
1071
        9
1005
127289
  0
LINE
  5
12728A
  8
OBJECT
 10
2425.0
 20
-1204.999999999998
 30
0.0
 11
2430.0
 21
-1244.999999999998
 31
0.0
1001
ACDBBLOCKREPETAG
1070
     1
1071
       10
1005
12728A
  0
LINE
  5
12728B
  8
OBJECT
 10
2570.0
 20
-1244.999999999998
 30
0.0
 11
2575.0
 21
-1204.999999999998
 31
0.0
1001
ACDBBLOCKREPETAG
1070
     1
1071
       11
1005
12728B
  0
CIRCLE
  5
12728C
  8
OBJECT
 10
180.00000000004181
 20
-232.00000000017189
 30
0.0
 40
70.0
1001
ACDBBLOCKREPETAG
1070
     1
1071
       50
1005
12728C
  0
CIRCLE
  5
12728D
  8
OBJECT
 10
180.00000000004181
 20
-232.00000000017189
 30
0.0
 40
77.0
1001
ACDBBLOCKREPETAG
1070
     1
1071
       51
1005
12728D
  0
ARC
  5
12728E
  8
OBJECT
 10
180.00000000004181
 20
-232.00000000017189
 30
0.0
 40
80.0
 50
140.80503257377961
 51
39.194967426220252
1001
ACDBBLOCKREPETAG
1070
     1
1071
       52
1005
12728E
  0
LINE
  5
12728F
  8
OBJECT
 10
118.00000000004179
 20
-186.3381997728473
 30
0.0
 11
118.00000000004179
 21
-152.00000000017181
 31
0.0
1001
ACDBBLOCKREPETAG
1070
     1
1071
       53
1005
12728F
  0
LINE
  5
127290
  8
OBJECT
 10
242.00000000004181
 20
-186.3381997728473
 30
0.0
 11
242.00000000004181
 21
-152.00000000017181
 31
0.0
1001
ACDBBLOCKREPETAG
1070
     1
1071
       54
1005
127290
  0
POINT
  5
127291
  8
DOTS
 10
180.00000000004181
 20
-232.00000000017189
 30
0.0
1001
ACDBBLOCKREPETAG
1070
     1
1071
       63
1005
127291
  0
CIRCLE
  5
127292
  8
OBJECT
 10
180.00000000004181
 20
-232.00000000017189
 30
0.0
 40
53.5
1001
ACDBBLOCKREPETAG
1070
     1
1071
      157
1005
127292
  0
INSERT
  5
127293
  8
SLIM
  2
*U6
 10
0.0
 20
0.0
 30
0.0
  0
LINE
  5
127294
  8
OBJECT
 10
118.00000000004179
 20
-99.000000000171866
 30
0.0
 11
118.00000000004179
 21
-92.000000000171866
 31
0.0
1001
ACDBBLOCKREPETAG
1070
     1
1071
       39
1005
127294
  0
LINE
  5
127295
  8
OBJECT
 10
118.00000000004179
 20
-92.000000000171866
 30
0.0
 11
242.00000000004181
 21
-92.000000000171866
 31
0.0
1001
ACDBBLOCKREPETAG
1070
     1
1071
       40
1005
127295
  0
LINE
  5
127296
  8
OBJECT
 10
242.00000000004181
 20
-92.000000000171866
 30
0.0
 11
242.00000000004181
 21
-99.000000000171866
 31
0.0
1001
ACDBBLOCKREPETAG
1070
     1
1071
       41
1005
127296
  0
LINE
  5
127297
  8
OBJECT
 10
242.00000000004181
 20
-99.000000000171866
 30
0.0
 11
118.00000000004179
 21
-99.000000000171866
 31
0.0
1001
ACDBBLOCKREPETAG
1070
     1
1071
       42
1005
127297
  0
LINE
  5
127298
  8
OBJECT
 10
121.00000000004179
 20
-99.000000000171866
 30
0.0
 11
121.00000000004179
 21
-135.00000000017181
 31
0.0
1001
ACDBBLOCKREPETAG
1070
     1
1071
       43
1005
127298
  0
LINE
  5
127299
  8
OBJECT
 10
121.00000000004179
 20
-135.00000000017181
 30
0.0
 11
239.00000000004181
 21
-135.00000000017181
 31
0.0
1001
ACDBBLOCKREPETAG
1070
     1
1071
       44
1005
127299
  0
LINE
  5
12729A
  8
OBJECT
 10
239.00000000004181
 20
-135.00000000017181
 30
0.0
 11
239.00000000004181
 21
-99.000000000171866
 31
0.0
1001
ACDBBLOCKREPETAG
1070
     1
1071
       45
1005
12729A
  0
LINE
  5
12729B
  8
OBJECT
 10
125.50000000004179
 20
-139.00000000017181
 30
0.0
 11
125.50000000004179
 21
-146.00000000017181
 31
0.0
1001
ACDBBLOCKREPETAG
1070
     1
1071
       46
1005
12729B
  0
LINE
  5
12729C
  8
OBJECT
 10
234.50000000004181
 20
-146.00000000017181
 30
0.0
 11
234.50000000004181
 21
-139.00000000017181
 31
0.0
1001
ACDBBLOCKREPETAG
1070
     1
1071
       47
1005
12729C
  0
LINE
  5
12729D
  8
OBJECT
 10
234.50000000004181
 20
-139.00000000017181
 30
0.0
 11
125.50000000004179
 21
-139.00000000017181
 31
0.0
1001
ACDBBLOCKREPETAG
1070
     1
1071
       48
1005
12729D
  0
LINE
  5
12729E
  8
OBJECT
 10
121.00000000004179
 20
-135.00000000017181
 30
0.0
 11
125.50000000004179
 21
-139.00000000017181
 31
0.0
1001
ACDBBLOCKREPETAG
1070
     1
1071
       49
1005
12729E
  0
LINE
  5
12729F
  8
OBJECT
 10
239.00000000004181
 20
-135.00000000017181
 30
0.0
 11
234.50000000004181
 21
-139.00000000017181
 31
0.0
1001
ACDBBLOCKREPETAG
1070
     1
1071
       50
1005
12729F
  0
LINE
  5
1272A0
  8
OBJECT
 10
118.00000000004179
 20
-149.00000000017101
 30
0.0
 11
118.00000000004179
 21
-152.00000000017181
 31
0.0
1001
ACDBBLOCKREPETAG
1070
     1
1071
       51
1005
1272A0
  0
ARC
  5
1272A1
  8
OBJECT
 10
121.00000000004179
 20
-149.00000000017101
 30
0.0
 40
3.0
 50
90.0
 51
180.0
1001
ACDBBLOCKREPETAG
1070
     1
1071
       52
1005
1272A1
  0
LINE
  5
1272A2
  8
OBJECT
 10
242.00000000004181
 20
-152.00000000017181
 30
0.0
 11
242.00000000004181
 21
-149.0000000001728
 31
0.0
1001
ACDBBLOCKREPETAG
1070
     1
1071
       53
1005
1272A2
  0
ARC
  5
1272A3
  8
OBJECT
 10
239.00000000004181
 20
-149.0000000001728
 30
0.0
 40
3.0
 50
0.0
 51
90.0
1001
ACDBBLOCKREPETAG
1070
     1
1071
       54
1005
1272A3
  0
LINE
  5
1272A4
  8
OBJECT
 10
239.00000000004181
 20
-146.0000000001728
 30
0.0
 11
121.00000000004179
 21
-146.00000000017101
 31
0.0
1001
ACDBBLOCKREPETAG
1070
     1
1071
       55
1005
1272A4
  0
LINE
  5
1272A5
  8
HIDDEN
 10
135.50000000004181
 20
-144.00000000017189
 30
0.0
 11
224.50000000004181
 21
-144.00000000017189
 31
0.0
1001
ACDBBLOCKREPETAG
1070
     1
1071
      426
1005
1272A5
  0
TEXT
  5
1272A6
  8
SLIM
 10
0.000003566523219
 20
-775.9999954146823
 30
0.0
 40
79.999999999972701
  1
下部枝管バリエーション
 41
0.75
1001
ACDBBLOCKREPETAG
1070
     1
1071
      119
1005
120BCB
  0
LINE
  5
1272A7
  8
DIM
 10
4404.9999999999936
 20
-1135.9999999999991
 30
0.0
 11
4333.1164560757752
 21
-1135.9999999999991
 31
0.0
  0
LINE
  5
1272A8
  8
DIM
 10
4410.0
 20
-1376.0
 30
0.0
 11
4333.1164560757752
 21
-1376.0
 31
0.0
  0
LINE
  5
1272A9
  8
DIM
 10
4343.1164560757752
 20
-1155.9999999999991
 30
0.0
 11
4343.1164560757752
 21
-1356.0
 31
0.0
  0
INSERT
  5
1272AA
  8
DIM
  2
_OPEN30
 10
4343.1164560757752
 20
-1135.9999999999991
 30
0.0
 41
20.0
 42
20.0
 43
20.0
 50
90.0
  0
INSERT
  5
1272AB
  8
DIM
  2
_OPEN30
 10
4343.1164560757752
 20
-1376.0
 30
0.0
 41
20.0
 42
20.0
 43
20.0
 50
270.0
  0
INSERT
  5
1272AC
  8
SLIM
  2
*U7
 10
0.0
 20
0.0
 30
0.0
  0
LINE
  5
1272AD
  8
DIM
 10
4665.0
 20
-696.0
 30
0.0
 11
4719.4245816727571
 21
-696.0
 31
0.0
  0
LINE
  5
1272AE
  8
DIM
 10
4595.0000000000064
 20
-1136.0000000000041
 30
0.0
 11
4719.4245816727571
 21
-1136.0000000000041
 31
0.0
  0
LINE
  5
1272AF
  8
DIM
 10
4709.4245816727562
 20
-716.0
 30
0.0
 11
4709.4245816727562
 21
-1116.0000000000041
 31
0.0
  0
INSERT
  5
1272B0
  8
DIM
  2
_OPEN30
 10
4709.4245816727562
 20
-696.0
 30
0.0
 41
20.0
 42
20.0
 43
20.0
 50
90.0
  0
INSERT
  5
1272B1
  8
DIM
  2
_OPEN30
 10
4709.4245816727562
 20
-1136.0000000000041
 30
0.0
 41
20.0
 42
20.0
 43
20.0
 50
270.0
  0
INSERT
  5
1272B2
  8
SLIM
  2
*U8
 10
0.0
 20
0.0
 30
0.0
  0
LINE
  5
1272B3
  8
OBJECT
 10
4925.0
 20
-890.0
 30
0.0
 11
4925.0
 21
-1027.500000000065
 31
0.0
1001
ACDBBLOCKREPETAG
1070
     1
1071
        1
1005
1272B3
  0
LINE
  5
1272B4
  8
OBJECT
 10
5075.0
 20
-889.99999999999409
 30
0.0
 11
5075.0
 21
-1163.0
 31
0.0
1001
ACDBBLOCKREPETAG
1070
     1
1071
        3
1005
1272B4
  0
LINE
  5
1272B5
  8
CENTER
 10
5000.0
 20
-890.0
 30
0.0
 11
5000.0
 21
-1175.0
 31
0.0
1001
ACDBBLOCKREPETAG
1070
     1
1071
        6
1005
1272B5
  0
LINE
  5
1272B6
  8
OBJECT
 10
4920.0
 20
-1175.0
 30
0.0
 11
5080.0
 21
-1175.0
 31
0.0
1001
ACDBBLOCKREPETAG
1070
     1
1071
        7
1005
1272B6
  0
LINE
  5
1272B7
  8
OBJECT
 10
4920.0
 20
-1163.0
 30
0.0
 11
5080.0
 21
-1163.0
 31
0.0
1001
ACDBBLOCKREPETAG
1070
     1
1071
        8
1005
1272B7
  0
LINE
  5
1272B8
  8
OBJECT
 10
4920.0
 20
-1163.0
 30
0.0
 11
4920.0
 21
-1175.0
 31
0.0
1001
ACDBBLOCKREPETAG
1070
     1
1071
        9
1005
1272B8
  0
LINE
  5
1272B9
  8
OBJECT
 10
5080.0
 20
-1163.0
 30
0.0
 11
5080.0
 21
-1175.0
 31
0.0
1001
ACDBBLOCKREPETAG
1070
     1
1071
       10
1005
1272B9
  0
LINE
  5
1272BA
  8
OBJECT
 10
4867.0
 20
-1029.0
 30
0.0
 11
4860.0
 21
-1029.0
 31
0.0
1001
ACDBBLOCKREPETAG
1070
     1
1071
       23
1005
1272BA
  0
LINE
  5
1272BB
  8
OBJECT
 10
4860.0
 20
-1029.0
 30
0.0
 11
4860.0
 21
-1136.0
 31
0.0
1001
ACDBBLOCKREPETAG
1070
     1
1071
       24
1005
1272BB
  0
LINE
  5
1272BC
  8
OBJECT
 10
4915.5
 20
-1030.500000000065
 30
0.0
 11
4915.5
 21
-1133.5
 31
0.0
1001
ACDBBLOCKREPETAG
1070
     1
1071
       25
1005
1272BC
  0
ARC
  5
1272BD
  8
OBJECT
 10
4918.5
 20
-1030.500000000065
 30
0.0
 40
3.0
 50
90.0
 51
180.0
1001
ACDBBLOCKREPETAG
1070
     1
1071
       26
1005
1272BD
  0
LINE
  5
1272BE
  8
OBJECT
 10
4867.0
 20
-1136.0
 30
0.0
 11
4867.0
 21
-1029.0
 31
0.0
1001
ACDBBLOCKREPETAG
1070
     1
1071
       27
1005
1272BE
  0
LINE
  5
1272BF
  8
CENTER
 10
4845.0
 20
-1084.0
 30
0.0
 11
4958.6550800869954
 21
-1084.000000000065
 31
0.0
1001
ACDBBLOCKREPETAG
1070
     1
1071
       28
1005
1272BF
  0
LINE
  5
1272C0
  8
OBJECT
 10
4867.0
 20
-1032.0
 30
0.0
 11
4903.0
 21
-1032.0
 31
0.0
1001
ACDBBLOCKREPETAG
1070
     1
1071
       29
1005
1272C0
  0
LINE
  5
1272C1
  8
OBJECT
 10
4903.0
 20
-1032.0
 30
0.0
 11
4903.0
 21
-1136.0
 31
0.0
1001
ACDBBLOCKREPETAG
1070
     1
1071
       30
1005
1272C1
  0
LINE
  5
1272C2
  8
OBJECT
 10
4903.0
 20
-1136.0
 30
0.0
 11
4860.0
 21
-1136.0
 31
0.0
1001
ACDBBLOCKREPETAG
1070
     1
1071
       31
1005
1272C2
  0
LINE
  5
1272C3
  8
OBJECT
 10
4907.0
 20
-1036.5
 30
0.0
 11
4915.5
 21
-1036.5
 31
0.0
1001
ACDBBLOCKREPETAG
1070
     1
1071
       32
1005
1272C3
  0
LINE
  5
1272C4
  8
OBJECT
 10
4915.5
 20
-1131.5
 30
0.0
 11
4907.0
 21
-1131.5
 31
0.0
1001
ACDBBLOCKREPETAG
1070
     1
1071
       33
1005
1272C4
  0
LINE
  5
1272C5
  8
OBJECT
 10
4907.0
 20
-1131.5
 30
0.0
 11
4907.0
 21
-1036.5
 31
0.0
1001
ACDBBLOCKREPETAG
1070
     1
1071
       34
1005
1272C5
  0
LINE
  5
1272C6
  8
OBJECT
 10
4903.0
 20
-1032.0
 30
0.0
 11
4907.0
 21
-1036.5
 31
0.0
1001
ACDBBLOCKREPETAG
1070
     1
1071
       35
1005
1272C6
  0
LINE
  5
1272C7
  8
OBJECT
 10
4903.0
 20
-1136.0
 30
0.0
 11
4907.0
 21
-1131.5
 31
0.0
1001
ACDBBLOCKREPETAG
1070
     1
1071
       36
1005
1272C7
  0
LINE
  5
1272C8
  8
HIDDEN
 10
4912.0
 20
-1046.0
 30
0.0
 11
4912.0
 21
-1122.0
 31
0.0
1001
ACDBBLOCKREPETAG
1070
     1
1071
       37
1005
1272C8
  0
ARC
  5
1272C9
  8
OBJECT
 10
4835.1217271212263
 20
-1092.409507261229
 30
0.0
 40
110.86635228309
 50
16.95964619565439
 51
35.836572580695218
1001
ACDBBLOCKREPETAG
1070
     1
1071
       38
1005
1272C9
  0
ARC
  5
1272CA
  8
OBJECT
 10
4882.8640112230942
 20
-1077.287749718449
 30
0.0
 40
60.791749880358971
 50
0.2712030171733432
 51
16.452795347786878
1001
ACDBBLOCKREPETAG
1070
     1
1071
       39
1005
1272CA
  0
ARC
  5
1272CB
  8
OBJECT
 10
4882.8640043437508
 20
-1083.7122497599
 30
0.0
 40
60.79175676209487
 50
343.54722053947972
 51
359.7287965218548
1001
ACDBBLOCKREPETAG
1070
     1
1071
       40
1005
1272CB
  0
ARC
  5
1272CC
  8
OBJECT
 10
4835.1217271212263
 20
-1068.590492738836
 30
0.0
 40
110.8663522830916
 50
324.16342741930481
 51
343.04035380434561
1001
ACDBBLOCKREPETAG
1070
     1
1071
       41
1005
1272CC
  0
LINE
  5
1272CD
  8
OBJECT
 10
4943.6550800869954
 20
-1077.0000000000359
 30
0.0
 11
4943.6550800869954
 21
-1084.000000000033
 31
0.0
1001
ACDBBLOCKREPETAG
1070
     1
1071
       42
1005
1272CD
  0
LINE
  5
1272CE
  8
OBJECT
 10
4925.0
 20
-1027.500000000065
 30
0.0
 11
4918.5
 21
-1027.500000000065
 31
0.0
1001
ACDBBLOCKREPETAG
1070
     1
1071
       43
1005
1272CE
  0
LINE
  5
1272CF
  8
OBJECT
 10
4925.0
 20
-1133.5
 30
0.0
 11
4915.5
 21
-1133.5
 31
0.0
1001
ACDBBLOCKREPETAG
1070
     1
1071
       44
1005
1272CF
  0
LINE
  5
1272D0
  8
OBJECT
 10
4925.0
 20
-1133.5
 30
0.0
 11
4925.0
 21
-1163.0
 31
0.0
1001
ACDBBLOCKREPETAG
1070
     1
1071
        1
1005
1272B3
  0
POINT
  5
1272D1
  8
DOTS
 10
5000.0
 20
-1136.0
 30
0.0
  0
LINE
  5
1272D2
  8
OBJECT
 10
4425.0
 20
-890.0
 30
0.0
 11
4425.0
 21
-1163.0
 31
0.0
1001
ACDBBLOCKREPETAG
1070
     1
1071
        1
1005
1272D2
  0
LINE
  5
1272D3
  8
OBJECT
 10
4575.0
 20
-889.99999999999409
 30
0.0
 11
4575.0
 21
-1163.0
 31
0.0
1001
ACDBBLOCKREPETAG
1070
     1
1071
        3
1005
1272D3
  0
LINE
  5
1272D4
  8
CENTER
 10
4500.0
 20
-890.0
 30
0.0
 11
4500.0
 21
-1175.0
 31
0.0
1001
ACDBBLOCKREPETAG
1070
     1
1071
        6
1005
1272D4
  0
LINE
  5
1272D5
  8
OBJECT
 10
4420.0
 20
-1175.0
 30
0.0
 11
4580.0
 21
-1175.0
 31
0.0
1001
ACDBBLOCKREPETAG
1070
     1
1071
        7
1005
1272D5
  0
LINE
  5
1272D6
  8
OBJECT
 10
4420.0
 20
-1163.0
 30
0.0
 11
4580.0
 21
-1163.0
 31
0.0
1001
ACDBBLOCKREPETAG
1070
     1
1071
        8
1005
1272D6
  0
LINE
  5
1272D7
  8
OBJECT
 10
4420.0
 20
-1163.0
 30
0.0
 11
4420.0
 21
-1175.0
 31
0.0
1001
ACDBBLOCKREPETAG
1070
     1
1071
        9
1005
1272D7
  0
LINE
  5
1272D8
  8
OBJECT
 10
4580.0
 20
-1163.0
 30
0.0
 11
4580.0
 21
-1175.0
 31
0.0
1001
ACDBBLOCKREPETAG
1070
     1
1071
       10
1005
1272D8
  0
CIRCLE
  5
1272D9
  8
OBJECT
 10
4500.0
 20
-1084.0
 30
0.0
 40
35.5
1001
ACDBBLOCKREPETAG
1070
     1
1071
       11
1005
1272D9
  0
LINE
  5
1272DA
  8
CENTER
 10
4430.0
 20
-1084.0
 30
0.0
 11
4570.0
 21
-1084.0
 31
0.0
1001
ACDBBLOCKREPETAG
1070
     1
1071
       12
1005
1272DA
  0
CIRCLE
  5
1272DB
  8
OBJECT
 10
4500.0
 20
-1084.0
 30
0.0
 40
47.0
1001
ACDBBLOCKREPETAG
1070
     1
1071
       14
1005
1272DB
  0
ARC
  5
1272DC
  8
OBJECT
 10
4500.0
 20
-1084.0
 30
0.0
 40
55.0
 50
289.01126526010933
 51
250.9887347398907
1001
ACDBBLOCKREPETAG
1070
     1
1071
       15
1005
1272DC
  0
LINE
  5
1272DD
  8
OBJECT
 10
4482.0835271328324
 20
-1136.0
 30
0.0
 11
4517.9164728671676
 21
-1136.0
 31
0.0
1001
ACDBBLOCKREPETAG
1070
     1
1071
       16
1005
1272DD
  0
POINT
  5
1272DE
  8
DOTS
 10
4500.0
 20
-1136.0
 30
0.0
  0
LINE
  5
1272DF
  8
OBJECT
 10
2925.0
 20
-890.0
 30
0.0
 11
2925.0
 21
-1027.500000000065
 31
0.0
1001
ACDBBLOCKREPETAG
1070
     1
1071
        1
1005
1272DF
  0
LINE
  5
1272E0
  8
OBJECT
 10
3075.0
 20
-889.99999999999409
 30
0.0
 11
3075.0
 21
-1163.0
 31
0.0
1001
ACDBBLOCKREPETAG
1070
     1
1071
        3
1005
1272E0
  0
LINE
  5
1272E1
  8
CENTER
 10
3000.0
 20
-890.0
 30
0.0
 11
3000.0
 21
-1175.0
 31
0.0
1001
ACDBBLOCKREPETAG
1070
     1
1071
        6
1005
1272E1
  0
LINE
  5
1272E2
  8
OBJECT
 10
2920.0
 20
-1175.0
 30
0.0
 11
3080.0
 21
-1175.0
 31
0.0
1001
ACDBBLOCKREPETAG
1070
     1
1071
        7
1005
1272E2
  0
LINE
  5
1272E3
  8
OBJECT
 10
2920.0
 20
-1163.0
 30
0.0
 11
3080.0
 21
-1163.0
 31
0.0
1001
ACDBBLOCKREPETAG
1070
     1
1071
        8
1005
1272E3
  0
LINE
  5
1272E4
  8
OBJECT
 10
2920.0
 20
-1163.0
 30
0.0
 11
2920.0
 21
-1175.0
 31
0.0
1001
ACDBBLOCKREPETAG
1070
     1
1071
        9
1005
1272E4
  0
LINE
  5
1272E5
  8
OBJECT
 10
3080.0
 20
-1163.0
 30
0.0
 11
3080.0
 21
-1175.0
 31
0.0
1001
ACDBBLOCKREPETAG
1070
     1
1071
       10
1005
1272E5
  0
LINE
  5
1272E6
  8
OBJECT
 10
2867.0
 20
-1029.0
 30
0.0
 11
2860.0
 21
-1029.0
 31
0.0
1001
ACDBBLOCKREPETAG
1070
     1
1071
       23
1005
1272E6
  0
LINE
  5
1272E7
  8
OBJECT
 10
2860.0
 20
-1029.0
 30
0.0
 11
2860.0
 21
-1136.0
 31
0.0
1001
ACDBBLOCKREPETAG
1070
     1
1071
       24
1005
1272E7
  0
LINE
  5
1272E8
  8
OBJECT
 10
2915.5
 20
-1030.500000000065
 30
0.0
 11
2915.5
 21
-1133.5
 31
0.0
1001
ACDBBLOCKREPETAG
1070
     1
1071
       25
1005
1272E8
  0
ARC
  5
1272E9
  8
OBJECT
 10
2918.5
 20
-1030.500000000065
 30
0.0
 40
3.0
 50
90.0
 51
180.0
1001
ACDBBLOCKREPETAG
1070
     1
1071
       26
1005
1272E9
  0
LINE
  5
1272EA
  8
OBJECT
 10
2867.0
 20
-1136.0
 30
0.0
 11
2867.0
 21
-1029.0
 31
0.0
1001
ACDBBLOCKREPETAG
1070
     1
1071
       27
1005
1272EA
  0
LINE
  5
1272EB
  8
CENTER
 10
2845.0
 20
-1084.0
 30
0.0
 11
2958.655080086995
 21
-1084.000000000065
 31
0.0
1001
ACDBBLOCKREPETAG
1070
     1
1071
       28
1005
1272EB
  0
LINE
  5
1272EC
  8
OBJECT
 10
2867.0
 20
-1032.0
 30
0.0
 11
2903.0
 21
-1032.0
 31
0.0
1001
ACDBBLOCKREPETAG
1070
     1
1071
       29
1005
1272EC
  0
LINE
  5
1272ED
  8
OBJECT
 10
2903.0
 20
-1032.0
 30
0.0
 11
2903.0
 21
-1136.0
 31
0.0
1001
ACDBBLOCKREPETAG
1070
     1
1071
       30
1005
1272ED
  0
LINE
  5
1272EE
  8
OBJECT
 10
2903.0
 20
-1136.0
 30
0.0
 11
2860.0
 21
-1136.0
 31
0.0
1001
ACDBBLOCKREPETAG
1070
     1
1071
       31
1005
1272EE
  0
LINE
  5
1272EF
  8
OBJECT
 10
2907.0
 20
-1036.5
 30
0.0
 11
2915.5
 21
-1036.5
 31
0.0
1001
ACDBBLOCKREPETAG
1070
     1
1071
       32
1005
1272EF
  0
LINE
  5
1272F0
  8
OBJECT
 10
2915.5
 20
-1131.5
 30
0.0
 11
2907.0
 21
-1131.5
 31
0.0
1001
ACDBBLOCKREPETAG
1070
     1
1071
       33
1005
1272F0
  0
LINE
  5
1272F1
  8
OBJECT
 10
2907.0
 20
-1131.5
 30
0.0
 11
2907.0
 21
-1036.5
 31
0.0
1001
ACDBBLOCKREPETAG
1070
     1
1071
       34
1005
1272F1
  0
LINE
  5
1272F2
  8
OBJECT
 10
2903.0
 20
-1032.0
 30
0.0
 11
2907.0
 21
-1036.5
 31
0.0
1001
ACDBBLOCKREPETAG
1070
     1
1071
       35
1005
1272F2
  0
LINE
  5
1272F3
  8
OBJECT
 10
2903.0
 20
-1136.0
 30
0.0
 11
2907.0
 21
-1131.5
 31
0.0
1001
ACDBBLOCKREPETAG
1070
     1
1071
       36
1005
1272F3
  0
LINE
  5
1272F4
  8
HIDDEN
 10
2912.0
 20
-1046.0
 30
0.0
 11
2912.0
 21
-1122.0
 31
0.0
1001
ACDBBLOCKREPETAG
1070
     1
1071
       37
1005
1272F4
  0
ARC
  5
1272F5
  8
OBJECT
 10
2835.1217271212249
 20
-1092.409507261229
 30
0.0
 40
110.86635228309
 50
16.959646195661989
 51
35.836572580695218
1001
ACDBBLOCKREPETAG
1070
     1
1071
       38
1005
1272F5
  0
ARC
  5
1272F6
  8
OBJECT
 10
2882.8640112230928
 20
-1077.287749718449
 30
0.0
 40
60.791749880358971
 50
0.2712030171732199
 51
16.452795347779499
1001
ACDBBLOCKREPETAG
1070
     1
1071
       39
1005
1272F6
  0
ARC
  5
1272F7
  8
OBJECT
 10
2882.8640043437522
 20
-1083.7122497599
 30
0.0
 40
60.79175676209487
 50
343.54722053947239
 51
359.72879652185469
1001
ACDBBLOCKREPETAG
1070
     1
1071
       40
1005
1272F7
  0
ARC
  5
1272F8
  8
OBJECT
 10
2835.1217271212249
 20
-1068.590492738836
 30
0.0
 40
110.8663522830916
 50
324.16342741930481
 51
343.040353804338
1001
ACDBBLOCKREPETAG
1070
     1
1071
       41
1005
1272F8
  0
LINE
  5
1272F9
  8
OBJECT
 10
2943.6550800869959
 20
-1077.0000000000359
 30
0.0
 11
2943.6550800869959
 21
-1084.000000000033
 31
0.0
1001
ACDBBLOCKREPETAG
1070
     1
1071
       42
1005
1272F9
  0
LINE
  5
1272FA
  8
OBJECT
 10
2925.0
 20
-1027.500000000065
 30
0.0
 11
2918.5
 21
-1027.500000000065
 31
0.0
1001
ACDBBLOCKREPETAG
1070
     1
1071
       43
1005
1272FA
  0
LINE
  5
1272FB
  8
OBJECT
 10
2925.0
 20
-1133.5
 30
0.0
 11
2915.5
 21
-1133.5
 31
0.0
1001
ACDBBLOCKREPETAG
1070
     1
1071
       44
1005
1272FB
  0
LINE
  5
1272FC
  8
OBJECT
 10
2925.0
 20
-1133.5
 30
0.0
 11
2925.0
 21
-1163.0
 31
0.0
1001
ACDBBLOCKREPETAG
1070
     1
1071
        1
1005
1272DF
  0
POINT
  5
1272FD
  8
DOTS
 10
3000.0
 20
-1136.0
 30
0.0
  0
LINE
  5
1272FE
  8
OBJECT
 10
2425.0
 20
-890.0
 30
0.0
 11
2425.0
 21
-1163.0
 31
0.0
1001
ACDBBLOCKREPETAG
1070
     1
1071
        1
1005
1272FE
  0
LINE
  5
1272FF
  8
OBJECT
 10
2575.0
 20
-889.99999999999409
 30
0.0
 11
2575.0
 21
-1163.0
 31
0.0
1001
ACDBBLOCKREPETAG
1070
     1
1071
        3
1005
1272FF
  0
LINE
  5
127300
  8
CENTER
 10
2500.0
 20
-890.0
 30
0.0
 11
2500.0
 21
-1175.0
 31
0.0
1001
ACDBBLOCKREPETAG
1070
     1
1071
        6
1005
127300
  0
LINE
  5
127301
  8
OBJECT
 10
2420.0
 20
-1175.0
 30
0.0
 11
2580.0
 21
-1175.0
 31
0.0
1001
ACDBBLOCKREPETAG
1070
     1
1071
        7
1005
127301
  0
LINE
  5
127302
  8
OBJECT
 10
2420.0
 20
-1163.0
 30
0.0
 11
2580.0
 21
-1163.0
 31
0.0
1001
ACDBBLOCKREPETAG
1070
     1
1071
        8
1005
127302
  0
LINE
  5
127303
  8
OBJECT
 10
2420.0
 20
-1163.0
 30
0.0
 11
2420.0
 21
-1175.0
 31
0.0
1001
ACDBBLOCKREPETAG
1070
     1
1071
        9
1005
127303
  0
LINE
  5
127304
  8
OBJECT
 10
2580.0
 20
-1163.0
 30
0.0
 11
2580.0
 21
-1175.0
 31
0.0
1001
ACDBBLOCKREPETAG
1070
     1
1071
       10
1005
127304
  0
CIRCLE
  5
127305
  8
OBJECT
 10
2500.0
 20
-1084.0
 30
0.0
 40
35.5
1001
ACDBBLOCKREPETAG
1070
     1
1071
       11
1005
127305
  0
LINE
  5
127306
  8
CENTER
 10
2430.0
 20
-1084.0
 30
0.0
 11
2570.0
 21
-1084.0
 31
0.0
1001
ACDBBLOCKREPETAG
1070
     1
1071
       12
1005
127306
  0
CIRCLE
  5
127307
  8
OBJECT
 10
2500.0
 20
-1084.0
 30
0.0
 40
47.0
1001
ACDBBLOCKREPETAG
1070
     1
1071
       14
1005
127307
  0
ARC
  5
127308
  8
OBJECT
 10
2500.0
 20
-1084.0
 30
0.0
 40
55.0
 50
289.0112652600846
 51
250.98873473991529
1001
ACDBBLOCKREPETAG
1070
     1
1071
       15
1005
127308
  0
LINE
  5
127309
  8
OBJECT
 10
2482.0835271328328
 20
-1136.0
 30
0.0
 11
2517.9164728671681
 21
-1136.0
 31
0.0
1001
ACDBBLOCKREPETAG
1070
     1
1071
       16
1005
127309
  0
POINT
  5
12730A
  8
DOTS
 10
2500.0
 20
-1136.0
 30
0.0
  0
LINE
  5
12730B
  8
DIM
 10
2665.0
 20
-696.0
 30
0.0
 11
2719.424581672758
 21
-696.0
 31
0.0
  0
LINE
  5
12730C
  8
DIM
 10
2527.916472867169
 20
-1136.0
 30
0.0
 11
2719.4245816727562
 21
-1136.0
 31
0.0
  0
LINE
  5
12730D
  8
DIM
 10
2709.4245816727571
 20
-716.0
 30
0.0
 11
2709.4245816727562
 21
-1116.0
 31
0.0
  0
INSERT
  5
12730E
  8
DIM
  2
_OPEN30
 10
2709.4245816727571
 20
-696.0
 30
0.0
 41
20.0
 42
20.0
 43
20.0
 50
90.0
  0
INSERT
  5
12730F
  8
DIM
  2
_OPEN30
 10
2709.4245816727562
 20
-1136.0
 30
0.0
 41
20.0
 42
20.0
 43
20.0
 50
270.0
  0
INSERT
  5
127310
  8
SLIM
  2
*U9
 10
0.0
 20
0.0
 30
0.0
  0
LINE
  5
127311
  8
CENTER
 10
4977.0
 20
-3805.9999999999968
 30
0.0
 11
4823.0
 21
-3805.9999999999968
 31
0.0
1001
ACDBBLOCKREPETAG
1070
     1
1071
       17
1005
127311
  0
CIRCLE
  5
127312
  8
OBJECT
 10
4900.0
 20
-3805.9999999999968
 30
0.0
 40
41.5
1001
ACDBBLOCKREPETAG
1070
     1
1071
       18
1005
127312
  0
CIRCLE
  5
127313
  8
OBJECT
 10
4900.0
 20
-3805.9999999999968
 30
0.0
 40
54.0
1001
ACDBBLOCKREPETAG
1070
     1
1071
       19
1005
127313
  0
ARC
  5
127314
  8
OBJECT
 10
4900.0
 20
-3805.9999999999968
 30
0.0
 40
62.0
 50
287.89655112921122
 51
252.1034488707887
1001
ACDBBLOCKREPETAG
1070
     1
1071
       20
1005
127314
  0
LINE
  5
127315
  8
OBJECT
 10
4880.947441116743
 20
-3864.9999999999968
 30
0.0
 11
4919.052558883257
 21
-3864.9999999999968
 31
0.0
1001
ACDBBLOCKREPETAG
1070
     1
1071
       21
1005
127315
  0
POINT
  5
127316
  8
DOTS
 10
4900.0
 20
-3864.9999999999968
 30
0.0
1001
ACDBBLOCKREPETAG
1070
     1
1071
       23
1005
127316
  0
LINE
  5
127317
  8
OBJECT
 10
4633.0
 20
-3743.9999999999959
 30
0.0
 11
4640.0
 21
-3743.9999999999959
 31
0.0
1001
ACDBBLOCKREPETAG
1070
     1
1071
       46
1005
127317
  0
LINE
  5
127318
  8
OBJECT
 10
4640.0
 20
-3743.9999999999959
 30
0.0
 11
4640.0
 21
-3864.9999999999968
 31
0.0
1001
ACDBBLOCKREPETAG
1070
     1
1071
       47
1005
127318
  0
LINE
  5
127319
  8
OBJECT
 10
4633.0
 20
-3864.9999999999968
 30
0.0
 11
4633.0
 21
-3743.9999999999959
 31
0.0
1001
ACDBBLOCKREPETAG
1070
     1
1071
       48
1005
127319
  0
LINE
  5
12731A
  8
CENTER
 10
4655.0
 20
-3805.9999999999968
 30
0.0
 11
4541.3449199130037
 21
-3806.0000000000618
 31
0.0
1001
ACDBBLOCKREPETAG
1070
     1
1071
       49
1005
12731A
  0
LINE
  5
12731B
  8
OBJECT
 10
4633.0
 20
-3746.9999999999959
 30
0.0
 11
4597.0
 21
-3746.9999999999959
 31
0.0
1001
ACDBBLOCKREPETAG
1070
     1
1071
       50
1005
12731B
  0
LINE
  5
12731C
  8
OBJECT
 10
4597.0
 20
-3746.9999999999959
 30
0.0
 11
4597.0
 21
-3864.9999999999968
 31
0.0
1001
ACDBBLOCKREPETAG
1070
     1
1071
       51
1005
12731C
  0
LINE
  5
12731D
  8
OBJECT
 10
4597.0
 20
-3864.9999999999968
 30
0.0
 11
4640.0
 21
-3864.9999999999968
 31
0.0
1001
ACDBBLOCKREPETAG
1070
     1
1071
       52
1005
12731D
  0
LINE
  5
12731E
  8
OBJECT
 10
4593.0
 20
-3751.4999999999959
 30
0.0
 11
4582.5
 21
-3751.4999999999959
 31
0.0
1001
ACDBBLOCKREPETAG
1070
     1
1071
       53
1005
12731E
  0
LINE
  5
12731F
  8
OBJECT
 10
4582.5
 20
-3860.4999999999959
 30
0.0
 11
4593.0
 21
-3860.4999999999959
 31
0.0
1001
ACDBBLOCKREPETAG
1070
     1
1071
       54
1005
12731F
  0
LINE
  5
127320
  8
OBJECT
 10
4593.0
 20
-3860.4999999999959
 30
0.0
 11
4593.0
 21
-3751.4999999999959
 31
0.0
1001
ACDBBLOCKREPETAG
1070
     1
1071
       55
1005
127320
  0
LINE
  5
127321
  8
OBJECT
 10
4597.0
 20
-3746.9999999999959
 30
0.0
 11
4593.0
 21
-3751.4999999999959
 31
0.0
1001
ACDBBLOCKREPETAG
1070
     1
1071
       56
1005
127321
  0
LINE
  5
127322
  8
OBJECT
 10
4597.0
 20
-3864.9999999999968
 30
0.0
 11
4593.0
 21
-3860.4999999999959
 31
0.0
1001
ACDBBLOCKREPETAG
1070
     1
1071
       57
1005
127322
  0
LINE
  5
127323
  8
HIDDEN
 10
4588.0
 20
-3761.4999999999968
 30
0.0
 11
4588.0
 21
-3850.4999999999968
 31
0.0
1001
ACDBBLOCKREPETAG
1070
     1
1071
       58
1005
127323
  0
ARC
  5
127324
  8
OBJECT
 10
4664.8782728787719
 20
-3821.4095072612249
 30
0.0
 40
110.86635228309
 50
144.16342741928889
 51
163.04035380433939
1001
ACDBBLOCKREPETAG
1070
     1
1071
       59
1005
127324
  0
ARC
  5
127325
  8
OBJECT
 10
4617.1359887769049
 20
-3806.287749718445
 30
0.0
 40
60.791749880358971
 50
163.54720465221931
 51
179.72879698282651
1001
ACDBBLOCKREPETAG
1070
     1
1071
       60
1005
127325
  0
ARC
  5
127326
  8
OBJECT
 10
4617.1359956562483
 20
-3812.7122497598971
 30
0.0
 40
60.79175676209487
 50
180.2712034781452
 51
196.4527794605265
1001
ACDBBLOCKREPETAG
1070
     1
1071
       61
1005
127326
  0
ARC
  5
127327
  8
OBJECT
 10
4664.8782728787719
 20
-3797.5904927388328
 30
0.0
 40
110.8663522830916
 50
196.9596461956605
 51
215.83657258071111
1001
ACDBBLOCKREPETAG
1070
     1
1071
       62
1005
127327
  0
LINE
  5
127328
  8
OBJECT
 10
4556.3449199130037
 20
-3806.0000000000332
 30
0.0
 11
4556.3449199130037
 21
-3813.0000000000291
 31
0.0
1001
ACDBBLOCKREPETAG
1070
     1
1071
       63
1005
127328
  0
LINE
  5
127329
  8
OBJECT
 10
4574.9999999998336
 20
-3756.500000000291
 30
0.0
 11
4577.4999999998363
 21
-3756.500000000291
 31
0.0
1001
ACDBBLOCKREPETAG
1070
     1
1071
       65
1005
127329
  0
LINE
  5
12732A
  8
OBJECT
 10
4574.9999999998327
 20
-3862.4999999997672
 30
0.0
 11
4579.4999999998308
 21
-3862.4999999997672
 31
0.0
1001
ACDBBLOCKREPETAG
1070
     1
1071
       66
1005
12732A
  0
LINE
  5
12732B
  8
OBJECT
 10
4579.4999999998308
 20
-3862.4999999997672
 30
0.0
 11
4577.4999999998363
 21
-3756.500000000291
 31
0.0
1001
ACDBBLOCKREPETAG
1070
     1
1071
       67
1005
12732B
  0
LINE
  5
12732C
  8
OBJECT
 10
4579.4999999998308
 20
-3862.4999999997672
 30
0.0
 11
4582.5
 21
-3860.4999999999959
 31
0.0
1001
ACDBBLOCKREPETAG
1070
     1
1071
       68
1005
12732C
  0
LINE
  5
12732D
  8
OBJECT
 10
4582.5
 20
-3860.4999999999959
 30
0.0
 11
4582.5
 21
-3751.4999999999959
 31
0.0
1001
ACDBBLOCKREPETAG
1070
     1
1071
       69
1005
12732D
  0
LINE
  5
12732E
  8
OBJECT
 10
4582.5
 20
-3751.4999999999959
 30
0.0
 11
4577.4999999998363
 21
-3756.500000000291
 31
0.0
1001
ACDBBLOCKREPETAG
1070
     1
1071
       70
1005
12732E
  0
LINE
  5
12732F
  8
OBJECT
 10
4633.0000000000009
 20
-3397.9999999999959
 30
0.0
 11
4640.0000000000018
 21
-3397.9999999999959
 31
0.0
1001
ACDBBLOCKREPETAG
1070
     1
1071
       38
1005
12732F
  0
LINE
  5
127330
  8
OBJECT
 10
4640.0000000000018
 20
-3397.9999999999959
 30
0.0
 11
4640.0
 21
-3521.9999999999968
 31
0.0
1001
ACDBBLOCKREPETAG
1070
     1
1071
       39
1005
127330
  0
LINE
  5
127331
  8
OBJECT
 10
4640.0
 20
-3521.9999999999968
 30
0.0
 11
4633.0
 21
-3521.9999999999968
 31
0.0
1001
ACDBBLOCKREPETAG
1070
     1
1071
       40
1005
127331
  0
LINE
  5
127332
  8
OBJECT
 10
4633.0
 20
-3521.9999999999968
 30
0.0
 11
4633.0000000000009
 21
-3397.9999999999959
 31
0.0
1001
ACDBBLOCKREPETAG
1070
     1
1071
       41
1005
127332
  0
LINE
  5
127333
  8
CENTER
 10
4655.0
 20
-3459.9999999999968
 30
0.0
 11
4580.0
 21
-3459.9999999999968
 31
0.0
1001
ACDBBLOCKREPETAG
1070
     1
1071
       42
1005
127333
  0
LINE
  5
127334
  8
OBJECT
 10
4633.0000000000009
 20
-3400.9999999999959
 30
0.0
 11
4597.0000000000018
 21
-3400.9999999999959
 31
0.0
1001
ACDBBLOCKREPETAG
1070
     1
1071
       43
1005
127334
  0
LINE
  5
127335
  8
OBJECT
 10
4597.0000000000018
 20
-3400.9999999999959
 30
0.0
 11
4597.0
 21
-3518.9999999999968
 31
0.0
1001
ACDBBLOCKREPETAG
1070
     1
1071
       44
1005
127335
  0
LINE
  5
127336
  8
OBJECT
 10
4597.0
 20
-3518.9999999999968
 30
0.0
 11
4633.0
 21
-3518.9999999999968
 31
0.0
1001
ACDBBLOCKREPETAG
1070
     1
1071
       45
1005
127336
  0
LINE
  5
127337
  8
OBJECT
 10
4593.0000000000018
 20
-3405.4999999999959
 30
0.0
 11
4582.5000000000018
 21
-3405.4999999999959
 31
0.0
1001
ACDBBLOCKREPETAG
1070
     1
1071
       46
1005
127337
  0
LINE
  5
127338
  8
OBJECT
 10
4582.5
 20
-3514.4999999999968
 30
0.0
 11
4593.0
 21
-3514.4999999999968
 31
0.0
1001
ACDBBLOCKREPETAG
1070
     1
1071
       47
1005
127338
  0
LINE
  5
127339
  8
OBJECT
 10
4593.0
 20
-3514.4999999999968
 30
0.0
 11
4593.0000000000018
 21
-3405.4999999999959
 31
0.0
1001
ACDBBLOCKREPETAG
1070
     1
1071
       48
1005
127339
  0
LINE
  5
12733A
  8
OBJECT
 10
4597.0000000000018
 20
-3400.9999999999959
 30
0.0
 11
4593.0000000000018
 21
-3405.4999999999959
 31
0.0
1001
ACDBBLOCKREPETAG
1070
     1
1071
       49
1005
12733A
  0
LINE
  5
12733B
  8
OBJECT
 10
4597.0
 20
-3518.9999999999968
 30
0.0
 11
4593.0
 21
-3514.4999999999968
 31
0.0
1001
ACDBBLOCKREPETAG
1070
     1
1071
       50
1005
12733B
  0
LINE
  5
12733C
  8
HIDDEN
 10
4588.0
 20
-3415.4999999999968
 30
0.0
 11
4588.0
 21
-3504.4999999999968
 31
0.0
1001
ACDBBLOCKREPETAG
1070
     1
1071
       51
1005
12733C
  0
LINE
  5
12733D
  8
OBJECT
 10
4577.5000000000018
 20
-3410.4999999999959
 30
0.0
 11
4556.3449199129791
 21
-3410.4999999999959
 31
0.0
1001
ACDBBLOCKREPETAG
1070
     1
1071
       52
1005
12733D
  0
LINE
  5
12733E
  8
OBJECT
 10
4577.4999999999991
 20
-3509.4999999999959
 30
0.0
 11
4556.3449199129791
 21
-3509.4999999999959
 31
0.0
1001
ACDBBLOCKREPETAG
1070
     1
1071
       53
1005
12733E
  0
LINE
  5
12733F
  8
OBJECT
 10
4582.5000000000018
 20
-3405.4999999999959
 30
0.0
 11
4582.5
 21
-3514.4999999999968
 31
0.0
1001
ACDBBLOCKREPETAG
1070
     1
1071
       54
1005
12733F
  0
LINE
  5
127340
  8
OBJECT
 10
4577.5000000000018
 20
-3410.4999999999959
 30
0.0
 11
4577.4999999999991
 21
-3509.4999999999959
 31
0.0
1001
ACDBBLOCKREPETAG
1070
     1
1071
       55
1005
127340
  0
LINE
  5
127341
  8
OBJECT
 10
4582.5000000000018
 20
-3405.4999999999959
 30
0.0
 11
4577.5000000000018
 21
-3410.4999999999959
 31
0.0
1001
ACDBBLOCKREPETAG
1070
     1
1071
       56
1005
127341
  0
LINE
  5
127342
  8
OBJECT
 10
4577.4999999999991
 20
-3509.4999999999959
 30
0.0
 11
4582.5
 21
-3514.4999999999932
 31
0.0
1001
ACDBBLOCKREPETAG
1070
     1
1071
       57
1005
127342
  0
CIRCLE
  5
127343
  8
OBJECT
 10
3900.0
 20
-3812.9999999999968
 30
0.0
 40
35.5
1001
ACDBBLOCKREPETAG
1070
     1
1071
       11
1005
127343
  0
LINE
  5
127344
  8
CENTER
 10
3830.0
 20
-3812.9999999999968
 30
0.0
 11
3970.0
 21
-3812.9999999999968
 31
0.0
1001
ACDBBLOCKREPETAG
1070
     1
1071
       12
1005
127344
  0
CIRCLE
  5
127345
  8
OBJECT
 10
3900.0
 20
-3812.9999999999968
 30
0.0
 40
47.0
1001
ACDBBLOCKREPETAG
1070
     1
1071
       14
1005
127345
  0
ARC
  5
127346
  8
OBJECT
 10
3900.0
 20
-3812.9999999999968
 30
0.0
 40
55.0
 50
289.01126526008892
 51
250.98873473991111
1001
ACDBBLOCKREPETAG
1070
     1
1071
       15
1005
127346
  0
LINE
  5
127347
  8
OBJECT
 10
3882.0835271328319
 20
-3864.9999999999968
 30
0.0
 11
3917.9164728671672
 21
-3864.9999999999968
 31
0.0
1001
ACDBBLOCKREPETAG
1070
     1
1071
       16
1005
127347
  0
POINT
  5
127348
  8
DOTS
 10
3900.0
 20
-3864.9999999999968
 30
0.0
1001
ACDBBLOCKREPETAG
1070
     1
1071
       24
1005
127348
  0
LINE
  5
127349
  8
OBJECT
 10
3633.0
 20
-3757.9999999999959
 30
0.0
 11
3640.0
 21
-3757.9999999999959
 31
0.0
1001
ACDBBLOCKREPETAG
1070
     1
1071
       23
1005
127349
  0
LINE
  5
12734A
  8
OBJECT
 10
3640.0
 20
-3757.9999999999959
 30
0.0
 11
3640.0
 21
-3864.9999999999968
 31
0.0
1001
ACDBBLOCKREPETAG
1070
     1
1071
       24
1005
12734A
  0
LINE
  5
12734B
  8
OBJECT
 10
3584.5
 20
-3759.5000000000618
 30
0.0
 11
3584.5
 21
-3862.4999999999968
 31
0.0
1001
ACDBBLOCKREPETAG
1070
     1
1071
       25
1005
12734B
  0
ARC
  5
12734C
  8
OBJECT
 10
3581.5
 20
-3759.5000000000618
 30
0.0
 40
3.0
 50
0.0
 51
90.0
1001
ACDBBLOCKREPETAG
1070
     1
1071
       26
1005
12734C
  0
LINE
  5
12734D
  8
OBJECT
 10
3633.0
 20
-3864.9999999999968
 30
0.0
 11
3633.0
 21
-3757.9999999999959
 31
0.0
1001
ACDBBLOCKREPETAG
1070
     1
1071
       27
1005
12734D
  0
LINE
  5
12734E
  8
CENTER
 10
3655.0
 20
-3812.9999999999968
 30
0.0
 11
3541.3449199130041
 21
-3813.0000000000618
 31
0.0
1001
ACDBBLOCKREPETAG
1070
     1
1071
       28
1005
12734E
  0
LINE
  5
12734F
  8
OBJECT
 10
3633.0
 20
-3760.9999999999968
 30
0.0
 11
3597.0
 21
-3760.9999999999968
 31
0.0
1001
ACDBBLOCKREPETAG
1070
     1
1071
       29
1005
12734F
  0
LINE
  5
127350
  8
OBJECT
 10
3597.0
 20
-3760.9999999999968
 30
0.0
 11
3597.0
 21
-3864.9999999999968
 31
0.0
1001
ACDBBLOCKREPETAG
1070
     1
1071
       30
1005
127350
  0
LINE
  5
127351
  8
OBJECT
 10
3597.0
 20
-3864.9999999999968
 30
0.0
 11
3640.0
 21
-3864.9999999999968
 31
0.0
1001
ACDBBLOCKREPETAG
1070
     1
1071
       31
1005
127351
  0
LINE
  5
127352
  8
OBJECT
 10
3593.0
 20
-3765.4999999999968
 30
0.0
 11
3584.5
 21
-3765.4999999999968
 31
0.0
1001
ACDBBLOCKREPETAG
1070
     1
1071
       32
1005
127352
  0
LINE
  5
127353
  8
OBJECT
 10
3584.5
 20
-3860.4999999999959
 30
0.0
 11
3593.0
 21
-3860.4999999999959
 31
0.0
1001
ACDBBLOCKREPETAG
1070
     1
1071
       33
1005
127353
  0
LINE
  5
127354
  8
OBJECT
 10
3593.0
 20
-3860.4999999999959
 30
0.0
 11
3593.0
 21
-3765.4999999999968
 31
0.0
1001
ACDBBLOCKREPETAG
1070
     1
1071
       34
1005
127354
  0
LINE
  5
127355
  8
OBJECT
 10
3597.0
 20
-3760.9999999999968
 30
0.0
 11
3593.0
 21
-3765.4999999999968
 31
0.0
1001
ACDBBLOCKREPETAG
1070
     1
1071
       35
1005
127355
  0
LINE
  5
127356
  8
OBJECT
 10
3597.0
 20
-3864.9999999999968
 30
0.0
 11
3593.0
 21
-3860.4999999999959
 31
0.0
1001
ACDBBLOCKREPETAG
1070
     1
1071
       36
1005
127356
  0
LINE
  5
127357
  8
HIDDEN
 10
3588.0
 20
-3774.9999999999968
 30
0.0
 11
3588.0
 21
-3850.9999999999959
 31
0.0
1001
ACDBBLOCKREPETAG
1070
     1
1071
       37
1005
127357
  0
ARC
  5
127358
  8
OBJECT
 10
3664.8782728787742
 20
-3821.4095072612249
 30
0.0
 40
110.86635228309
 50
144.16342741928889
 51
163.04035380433169
1001
ACDBBLOCKREPETAG
1070
     1
1071
       38
1005
127358
  0
ARC
  5
127359
  8
OBJECT
 10
3617.1359887769072
 20
-3806.287749718445
 30
0.0
 40
60.791749880358971
 50
163.5472046522267
 51
179.72879698282679
1001
ACDBBLOCKREPETAG
1070
     1
1071
       39
1005
127359
  0
ARC
  5
12735A
  8
OBJECT
 10
3617.1359956562478
 20
-3812.7122497598971
 30
0.0
 40
60.79175676209487
 50
180.2712034781452
 51
196.4527794605338
1001
ACDBBLOCKREPETAG
1070
     1
1071
       40
1005
12735A
  0
ARC
  5
12735B
  8
OBJECT
 10
3664.8782728787742
 20
-3797.5904927388328
 30
0.0
 40
110.8663522830916
 50
196.95964619566811
 51
215.83657258071111
1001
ACDBBLOCKREPETAG
1070
     1
1071
       41
1005
12735B
  0
LINE
  5
12735C
  8
OBJECT
 10
3556.3449199130041
 20
-3806.0000000000332
 30
0.0
 11
3556.3449199130041
 21
-3813.0000000000291
 31
0.0
1001
ACDBBLOCKREPETAG
1070
     1
1071
       42
1005
12735C
  0
LINE
  5
12735D
  8
OBJECT
 10
3574.9999999999991
 20
-3756.5000000000618
 30
0.0
 11
3581.5
 21
-3756.5000000000618
 31
0.0
1001
ACDBBLOCKREPETAG
1070
     1
1071
       43
1005
12735D
  0
LINE
  5
12735E
  8
OBJECT
 10
3574.9999999999991
 20
-3862.4999999999968
 30
0.0
 11
3584.5
 21
-3862.4999999999968
 31
0.0
1001
ACDBBLOCKREPETAG
1070
     1
1071
       44
1005
12735E
  0
LINE
  5
12735F
  8
OBJECT
 10
3633.0
 20
-3404.9999999999959
 30
0.0
 11
3640.0
 21
-3404.9999999999959
 31
0.0
1001
ACDBBLOCKREPETAG
1070
     1
1071
       20
1005
12735F
  0
LINE
  5
127360
  8
OBJECT
 10
3640.0
 20
-3404.9999999999959
 30
0.0
 11
3640.0
 21
-3514.9999999999968
 31
0.0
1001
ACDBBLOCKREPETAG
1070
     1
1071
       21
1005
127360
  0
LINE
  5
127361
  8
OBJECT
 10
3640.0
 20
-3514.9999999999968
 30
0.0
 11
3633.0
 21
-3514.9999999999968
 31
0.0
1001
ACDBBLOCKREPETAG
1070
     1
1071
       22
1005
127361
  0
LINE
  5
127362
  8
OBJECT
 10
3633.0
 20
-3514.9999999999968
 30
0.0
 11
3633.0
 21
-3404.9999999999959
 31
0.0
1001
ACDBBLOCKREPETAG
1070
     1
1071
       23
1005
127362
  0
LINE
  5
127363
  8
CENTER
 10
3655.0
 20
-3459.9999999999968
 30
0.0
 11
3580.0
 21
-3459.9999999999968
 31
0.0
1001
ACDBBLOCKREPETAG
1070
     1
1071
       24
1005
127363
  0
LINE
  5
127364
  8
OBJECT
 10
3633.0
 20
-3407.9999999999959
 30
0.0
 11
3597.0
 21
-3407.9999999999959
 31
0.0
1001
ACDBBLOCKREPETAG
1070
     1
1071
       25
1005
127364
  0
LINE
  5
127365
  8
OBJECT
 10
3597.0
 20
-3407.9999999999959
 30
0.0
 11
3597.0
 21
-3511.9999999999959
 31
0.0
1001
ACDBBLOCKREPETAG
1070
     1
1071
       26
1005
127365
  0
LINE
  5
127366
  8
OBJECT
 10
3597.0
 20
-3511.9999999999959
 30
0.0
 11
3633.0
 21
-3511.9999999999959
 31
0.0
1001
ACDBBLOCKREPETAG
1070
     1
1071
       27
1005
127366
  0
LINE
  5
127367
  8
OBJECT
 10
3593.0
 20
-3412.4999999999959
 30
0.0
 11
3584.5
 21
-3412.4999999999959
 31
0.0
1001
ACDBBLOCKREPETAG
1070
     1
1071
       28
1005
127367
  0
LINE
  5
127368
  8
OBJECT
 10
3584.5
 20
-3507.4999999999968
 30
0.0
 11
3593.0
 21
-3507.4999999999968
 31
0.0
1001
ACDBBLOCKREPETAG
1070
     1
1071
       29
1005
127368
  0
LINE
  5
127369
  8
OBJECT
 10
3593.0
 20
-3507.4999999999968
 30
0.0
 11
3593.0
 21
-3412.4999999999959
 31
0.0
1001
ACDBBLOCKREPETAG
1070
     1
1071
       30
1005
127369
  0
LINE
  5
12736A
  8
OBJECT
 10
3597.0
 20
-3407.9999999999959
 30
0.0
 11
3593.0
 21
-3412.4999999999959
 31
0.0
1001
ACDBBLOCKREPETAG
1070
     1
1071
       31
1005
12736A
  0
LINE
  5
12736B
  8
OBJECT
 10
3597.0
 20
-3511.9999999999959
 30
0.0
 11
3593.0
 21
-3507.4999999999968
 31
0.0
1001
ACDBBLOCKREPETAG
1070
     1
1071
       32
1005
12736B
  0
LINE
  5
12736C
  8
OBJECT
 10
3584.4999999999982
 20
-3509.4999999999959
 30
0.0
 11
3584.5
 21
-3410.4999999999959
 31
0.0
1001
ACDBBLOCKREPETAG
1070
     1
1071
       33
1005
12736C
  0
LINE
  5
12736D
  8
HIDDEN
 10
3588.0
 20
-3421.9999999999968
 30
0.0
 11
3588.0
 21
-3497.9999999999959
 31
0.0
1001
ACDBBLOCKREPETAG
1070
     1
1071
       34
1005
12736D
  0
LINE
  5
12736E
  8
OBJECT
 10
3584.5
 20
-3410.4999999999959
 30
0.0
 11
3556.3449199129791
 21
-3410.4999999999959
 31
0.0
1001
ACDBBLOCKREPETAG
1070
     1
1071
       35
1005
12736E
  0
LINE
  5
12736F
  8
OBJECT
 10
3584.4999999999982
 20
-3509.4999999999959
 30
0.0
 11
3556.3449199129791
 21
-3509.4999999999959
 31
0.0
1001
ACDBBLOCKREPETAG
1070
     1
1071
       36
1005
12736F
  0
LINE
  5
127370
  8
CENTER
 10
2838.0
 20
-3820.9999999999968
 30
0.0
 11
2962.0
 21
-3820.9999999999968
 31
0.0
1001
ACDBBLOCKREPETAG
1070
     1
1071
        0
1005
127370
  0
CIRCLE
  5
127371
  8
OBJECT
 10
2900.0
 20
-3820.9999999999968
 30
0.0
 40
28.0
1001
ACDBBLOCKREPETAG
1070
     1
1071
        2
1005
127371
  0
CIRCLE
  5
127372
  8
OBJECT
 10
2900.0
 20
-3820.9999999999968
 30
0.0
 40
39.0
1001
ACDBBLOCKREPETAG
1070
     1
1071
        3
1005
127372
  0
ARC
  5
127373
  8
OBJECT
 10
2900.0
 20
-3820.9999999999968
 30
0.0
 40
47.0
 50
290.58196921144412
 51
249.41803078855591
1001
ACDBBLOCKREPETAG
1070
     1
1071
        4
1005
127373
  0
LINE
  5
127374
  8
OBJECT
 10
2883.4772883581418
 20
-3864.9999999999968
 30
0.0
 11
2916.5227116418569
 21
-3864.9999999999968
 31
0.0
1001
ACDBBLOCKREPETAG
1070
     1
1071
        5
1005
127374
  0
ARC
  5
127375
  8
OBJECT
 10
2900.0
 20
-3805.9999999999932
 30
0.0
 40
49.5
 50
0.0
 51
180.0
1001
ACDBBLOCKREPETAG
1070
     1
1071
        6
1005
127375
  0
LINE
  5
127376
  8
OBJECT
 10
2850.5000000000032
 20
-3805.9999999999932
 30
0.0
 11
2850.5000000000032
 21
-3812.9999999999968
 31
0.0
1001
ACDBBLOCKREPETAG
1070
     1
1071
        7
1005
127376
  0
LINE
  5
127377
  8
OBJECT
 10
2949.5000000000068
 20
-3805.9999999999932
 30
0.0
 11
2949.5000000000068
 21
-3812.9999999999968
 31
0.0
1001
ACDBBLOCKREPETAG
1070
     1
1071
        8
1005
127377
  0
ARC
  5
127378
  8
OBJECT
 10
2900.0
 20
-3812.9999999999968
 30
0.0
 40
49.5
 50
180.0
 51
202.66956385104879
1001
ACDBBLOCKREPETAG
1070
     1
1071
        9
1005
127378
  0
ARC
  5
127379
  8
OBJECT
 10
2900.0
 20
-3812.9999999999968
 30
0.0
 40
49.5
 50
337.33043614895121
 51
0.0
1001
ACDBBLOCKREPETAG
1070
     1
1071
       10
1005
127379
  0
POINT
  5
12737A
  8
DOTS
 10
2900.0
 20
-3864.9999999999968
 30
0.0
1001
ACDBBLOCKREPETAG
1070
     1
1071
       25
1005
12737A
  0
LINE
  5
12737B
  8
OBJECT
 10
2633.0
 20
-3773.9999999999968
 30
0.0
 11
2640.0
 21
-3773.9999999999968
 31
0.0
1001
ACDBBLOCKREPETAG
1070
     1
1071
        0
1005
12737B
  0
LINE
  5
12737C
  8
OBJECT
 10
2640.0
 20
-3773.9999999999968
 30
0.0
 11
2640.0
 21
-3864.9999999999968
 31
0.0
1001
ACDBBLOCKREPETAG
1070
     1
1071
        1
1005
12737C
  0
LINE
  5
12737D
  8
OBJECT
 10
2584.5
 20
-3759.5000000000618
 30
0.0
 11
2584.5
 21
-3862.4999999999968
 31
0.0
1001
ACDBBLOCKREPETAG
1070
     1
1071
        2
1005
12737D
  0
ARC
  5
12737E
  8
OBJECT
 10
2581.5
 20
-3759.5000000000618
 30
0.0
 40
3.0
 50
0.0
 51
90.0
1001
ACDBBLOCKREPETAG
1070
     1
1071
        3
1005
12737E
  0
LINE
  5
12737F
  8
OBJECT
 10
2633.0
 20
-3864.9999999999968
 30
0.0
 11
2633.0
 21
-3773.9999999999968
 31
0.0
1001
ACDBBLOCKREPETAG
1070
     1
1071
        4
1005
12737F
  0
LINE
  5
127380
  8
CENTER
 10
2655.0
 20
-3820.9999999999968
 30
0.0
 11
2541.911823713584
 21
-3820.9999999999968
 31
0.0
1001
ACDBBLOCKREPETAG
1070
     1
1071
        5
1005
127380
  0
LINE
  5
127381
  8
OBJECT
 10
2633.0
 20
-3776.9999999999968
 30
0.0
 11
2596.9999999999991
 21
-3776.9999999999968
 31
0.0
1001
ACDBBLOCKREPETAG
1070
     1
1071
        6
1005
127381
  0
LINE
  5
127382
  8
OBJECT
 10
2596.9999999999991
 20
-3776.9999999999968
 30
0.0
 11
2596.9999999999991
 21
-3864.9999999999968
 31
0.0
1001
ACDBBLOCKREPETAG
1070
     1
1071
        7
1005
127382
  0
LINE
  5
127383
  8
OBJECT
 10
2596.9999999999991
 20
-3864.9999999999968
 30
0.0
 11
2640.0
 21
-3864.9999999999968
 31
0.0
1001
ACDBBLOCKREPETAG
1070
     1
1071
        8
1005
127383
  0
LINE
  5
127384
  8
OBJECT
 10
2593.0
 20
-3781.4999999999959
 30
0.0
 11
2584.5
 21
-3781.4999999999959
 31
0.0
1001
ACDBBLOCKREPETAG
1070
     1
1071
        9
1005
127384
  0
LINE
  5
127385
  8
OBJECT
 10
2584.5
 20
-3860.4999999999959
 30
0.0
 11
2593.0
 21
-3860.4999999999959
 31
0.0
1001
ACDBBLOCKREPETAG
1070
     1
1071
       10
1005
127385
  0
LINE
  5
127386
  8
OBJECT
 10
2593.0
 20
-3860.4999999999959
 30
0.0
 11
2593.0
 21
-3781.4999999999959
 31
0.0
1001
ACDBBLOCKREPETAG
1070
     1
1071
       11
1005
127386
  0
LINE
  5
127387
  8
OBJECT
 10
2596.9999999999991
 20
-3776.9999999999968
 30
0.0
 11
2593.0
 21
-3781.4999999999959
 31
0.0
1001
ACDBBLOCKREPETAG
1070
     1
1071
       12
1005
127387
  0
LINE
  5
127388
  8
OBJECT
 10
2596.9999999999991
 20
-3864.9999999999968
 30
0.0
 11
2593.0
 21
-3860.4999999999959
 31
0.0
1001
ACDBBLOCKREPETAG
1070
     1
1071
       13
1005
127388
  0
LINE
  5
127389
  8
HIDDEN
 10
2588.0
 20
-3790.9999999999959
 30
0.0
 11
2588.0
 21
-3850.9999999999959
 31
0.0
1001
ACDBBLOCKREPETAG
1070
     1
1071
       14
1005
127389
  0
ARC
  5
12738A
  8
OBJECT
 10
2664.8782728787751
 20
-3821.4095072612249
 30
0.0
 40
110.86635228309
 50
144.1634274191434
 51
163.04035380433169
1001
ACDBBLOCKREPETAG
1070
     1
1071
       15
1005
12738A
  0
ARC
  5
12738B
  8
OBJECT
 10
2617.1359887769072
 20
-3806.287749718445
 30
0.0
 40
60.791749880358971
 50
163.5472046522267
 51
179.72879698282679
1001
ACDBBLOCKREPETAG
1070
     1
1071
       16
1005
12738B
  0
ARC
  5
12738C
  8
OBJECT
 10
2617.1359956562478
 20
-3812.7122497598971
 30
0.0
 40
60.79175676209487
 50
180.2712034781452
 51
196.4527794605338
1001
ACDBBLOCKREPETAG
1070
     1
1071
       17
1005
12738C
  0
ARC
  5
12738D
  8
OBJECT
 10
2664.8782728787751
 20
-3797.5904927388328
 30
0.0
 40
110.8663522830916
 50
196.95964619566811
 51
215.8365725808566
1001
ACDBBLOCKREPETAG
1070
     1
1071
       18
1005
12738D
  0
LINE
  5
12738E
  8
OBJECT
 10
2556.3449199130041
 20
-3806.0000000000332
 30
0.0
 11
2556.3449199130041
 21
-3813.0000000000291
 31
0.0
1001
ACDBBLOCKREPETAG
1070
     1
1071
       19
1005
12738E
  0
LINE
  5
12738F
  8
OBJECT
 10
2575.0
 20
-3756.5000000000618
 30
0.0
 11
2581.5
 21
-3756.5000000000618
 31
0.0
1001
ACDBBLOCKREPETAG
1070
     1
1071
       20
1005
12738F
  0
LINE
  5
127390
  8
OBJECT
 10
2575.0
 20
-3862.4999999999968
 30
0.0
 11
2584.5
 21
-3862.4999999999968
 31
0.0
1001
ACDBBLOCKREPETAG
1070
     1
1071
       21
1005
127390
  0
LINE
  5
127391
  8
OBJECT
 10
2633.0
 20
-3412.9999999999968
 30
0.0
 11
2640.0
 21
-3412.9999999999968
 31
0.0
1001
ACDBBLOCKREPETAG
1070
     1
1071
        0
1005
127391
  0
LINE
  5
127392
  8
OBJECT
 10
2640.0
 20
-3412.9999999999968
 30
0.0
 11
2640.0
 21
-3506.9999999999968
 31
0.0
1001
ACDBBLOCKREPETAG
1070
     1
1071
        1
1005
127392
  0
LINE
  5
127393
  8
OBJECT
 10
2640.0
 20
-3506.9999999999968
 30
0.0
 11
2633.0
 21
-3506.9999999999968
 31
0.0
1001
ACDBBLOCKREPETAG
1070
     1
1071
        2
1005
127393
  0
LINE
  5
127394
  8
OBJECT
 10
2633.0
 20
-3506.9999999999968
 30
0.0
 11
2633.0
 21
-3412.9999999999968
 31
0.0
1001
ACDBBLOCKREPETAG
1070
     1
1071
        3
1005
127394
  0
LINE
  5
127395
  8
CENTER
 10
2655.0
 20
-3459.9999999999968
 30
0.0
 11
2580.0
 21
-3459.9999999999968
 31
0.0
1001
ACDBBLOCKREPETAG
1070
     1
1071
        4
1005
127395
  0
LINE
  5
127396
  8
OBJECT
 10
2633.0
 20
-3415.9999999999959
 30
0.0
 11
2596.9999999999991
 21
-3415.9999999999959
 31
0.0
1001
ACDBBLOCKREPETAG
1070
     1
1071
        5
1005
127396
  0
LINE
  5
127397
  8
OBJECT
 10
2596.9999999999991
 20
-3415.9999999999959
 30
0.0
 11
2596.9999999999991
 21
-3503.9999999999959
 31
0.0
1001
ACDBBLOCKREPETAG
1070
     1
1071
        6
1005
127397
  0
LINE
  5
127398
  8
OBJECT
 10
2596.9999999999991
 20
-3503.9999999999959
 30
0.0
 11
2633.0
 21
-3503.9999999999959
 31
0.0
1001
ACDBBLOCKREPETAG
1070
     1
1071
        7
1005
127398
  0
LINE
  5
127399
  8
OBJECT
 10
2593.0
 20
-3420.4999999999959
 30
0.0
 11
2584.5
 21
-3420.4999999999959
 31
0.0
1001
ACDBBLOCKREPETAG
1070
     1
1071
        8
1005
127399
  0
LINE
  5
12739A
  8
OBJECT
 10
2584.5
 20
-3499.4999999999959
 30
0.0
 11
2593.0
 21
-3499.4999999999959
 31
0.0
1001
ACDBBLOCKREPETAG
1070
     1
1071
        9
1005
12739A
  0
LINE
  5
12739B
  8
OBJECT
 10
2593.0
 20
-3499.4999999999959
 30
0.0
 11
2593.0
 21
-3420.4999999999959
 31
0.0
1001
ACDBBLOCKREPETAG
1070
     1
1071
       10
1005
12739B
  0
LINE
  5
12739C
  8
OBJECT
 10
2596.9999999999991
 20
-3415.9999999999959
 30
0.0
 11
2593.0
 21
-3420.4999999999959
 31
0.0
1001
ACDBBLOCKREPETAG
1070
     1
1071
       11
1005
12739C
  0
LINE
  5
12739D
  8
OBJECT
 10
2596.9999999999991
 20
-3503.9999999999959
 30
0.0
 11
2593.0
 21
-3499.4999999999959
 31
0.0
1001
ACDBBLOCKREPETAG
1070
     1
1071
       12
1005
12739D
  0
LINE
  5
12739E
  8
OBJECT
 10
2584.4999999999991
 20
-3506.4999999999959
 30
0.0
 11
2584.5
 21
-3413.4999999999959
 31
0.0
1001
ACDBBLOCKREPETAG
1070
     1
1071
       13
1005
12739E
  0
ARC
  5
12739F
  8
OBJECT
 10
2581.5
 20
-3413.4999999999959
 30
0.0
 40
3.0
 50
0.0
 51
90.0
1001
ACDBBLOCKREPETAG
1070
     1
1071
       14
1005
12739F
  0
LINE
  5
1273A0
  8
HIDDEN
 10
2588.0
 20
-3429.9999999999959
 30
0.0
 11
2588.0
 21
-3489.9999999999968
 31
0.0
1001
ACDBBLOCKREPETAG
1070
     1
1071
       15
1005
1273A0
  0
LINE
  5
1273A1
  8
OBJECT
 10
2581.5
 20
-3410.4999999999959
 30
0.0
 11
2556.3449199129791
 21
-3410.4999999999959
 31
0.0
1001
ACDBBLOCKREPETAG
1070
     1
1071
       17
1005
1273A1
  0
LINE
  5
1273A2
  8
OBJECT
 10
2581.4999999999991
 20
-3509.4999999999959
 30
0.0
 11
2556.3449199129791
 21
-3509.4999999999959
 31
0.0
1001
ACDBBLOCKREPETAG
1070
     1
1071
       18
1005
1273A2
  0
ARC
  5
1273A3
  8
OBJECT
 10
2581.4999999999991
 20
-3506.4999999999959
 30
0.0
 40
3.0
 50
270.0
 51
0.0
1001
ACDBBLOCKREPETAG
1070
     1
1071
       19
1005
1273A3
  0
LINE
  5
1273A4
  8
CENTER
 10
5077.0
 20
-695.99999999999432
 30
0.0
 11
4923.0
 21
-695.99999999999432
 31
0.0
1001
ACDBBLOCKREPETAG
1070
     1
1071
       17
1005
1273A4
  0
CIRCLE
  5
1273A5
  8
OBJECT
 10
5000.0
 20
-695.99999999999432
 30
0.0
 40
41.5
1001
ACDBBLOCKREPETAG
1070
     1
1071
       19
1005
1273A5
  0
CIRCLE
  5
1273A6
  8
OBJECT
 10
5000.0
 20
-695.99999999999432
 30
0.0
 40
54.0
1001
ACDBBLOCKREPETAG
1070
     1
1071
       20
1005
1273A6
  0
ARC
  5
1273A7
  8
OBJECT
 10
5000.0
 20
-695.99999999999432
 30
0.0
 40
62.0
 50
287.89655112920718
 51
252.10344887079279
1001
ACDBBLOCKREPETAG
1070
     1
1071
       21
1005
1273A7
  0
LINE
  5
1273A8
  8
OBJECT
 10
4980.947441116743
 20
-754.9999999999942
 30
0.0
 11
5019.052558883257
 21
-754.9999999999942
 31
0.0
1001
ACDBBLOCKREPETAG
1070
     1
1071
       22
1005
1273A8
  0
LINE
  5
1273A9
  8
OBJECT
 10
4633.0
 20
-634.0
 30
0.0
 11
4640.0
 21
-634.0
 31
0.0
1001
ACDBBLOCKREPETAG
1070
     1
1071
       45
1005
1273A9
  0
LINE
  5
1273AA
  8
OBJECT
 10
4640.0
 20
-634.0
 30
0.0
 11
4640.0
 21
-755.0
 31
0.0
1001
ACDBBLOCKREPETAG
1070
     1
1071
       46
1005
1273AA
  0
LINE
  5
1273AB
  8
OBJECT
 10
4633.0
 20
-755.0
 30
0.0
 11
4633.0
 21
-634.0
 31
0.0
1001
ACDBBLOCKREPETAG
1070
     1
1071
       47
1005
1273AB
  0
LINE
  5
1273AC
  8
CENTER
 10
4655.0
 20
-696.0
 30
0.0
 11
4571.0
 21
-696.0
 31
0.0
1001
ACDBBLOCKREPETAG
1070
     1
1071
       48
1005
1273AC
  0
LINE
  5
1273AD
  8
OBJECT
 10
4633.0
 20
-637.0
 30
0.0
 11
4597.0
 21
-637.0
 31
0.0
1001
ACDBBLOCKREPETAG
1070
     1
1071
       49
1005
1273AD
  0
LINE
  5
1273AE
  8
OBJECT
 10
4597.0
 20
-637.0
 30
0.0
 11
4597.0
 21
-755.0
 31
0.0
1001
ACDBBLOCKREPETAG
1070
     1
1071
       50
1005
1273AE
  0
LINE
  5
1273AF
  8
OBJECT
 10
4597.0
 20
-755.0
 30
0.0
 11
4640.0
 21
-755.0
 31
0.0
1001
ACDBBLOCKREPETAG
1070
     1
1071
       51
1005
1273AF
  0
LINE
  5
1273B0
  8
OBJECT
 10
4593.0
 20
-641.5
 30
0.0
 11
4586.0
 21
-641.5
 31
0.0
1001
ACDBBLOCKREPETAG
1070
     1
1071
       52
1005
1273B0
  0
LINE
  5
1273B1
  8
OBJECT
 10
4586.0
 20
-750.49999999999989
 30
0.0
 11
4593.0
 21
-750.49999999999989
 31
0.0
1001
ACDBBLOCKREPETAG
1070
     1
1071
       53
1005
1273B1
  0
LINE
  5
1273B2
  8
OBJECT
 10
4593.0
 20
-750.49999999999989
 30
0.0
 11
4593.0
 21
-641.5
 31
0.0
1001
ACDBBLOCKREPETAG
1070
     1
1071
       54
1005
1273B2
  0
LINE
  5
1273B3
  8
OBJECT
 10
4597.0
 20
-637.0
 30
0.0
 11
4593.0
 21
-641.5
 31
0.0
1001
ACDBBLOCKREPETAG
1070
     1
1071
       55
1005
1273B3
  0
LINE
  5
1273B4
  8
OBJECT
 10
4597.0
 20
-755.0
 30
0.0
 11
4593.0
 21
-750.49999999999989
 31
0.0
1001
ACDBBLOCKREPETAG
1070
     1
1071
       56
1005
1273B4
  0
LINE
  5
1273B5
  8
OBJECT
 10
4583.0
 20
-634.0
 30
0.0
 11
4580.0
 21
-634.0
 31
0.0
1001
ACDBBLOCKREPETAG
1070
     1
1071
       57
1005
1273B5
  0
ARC
  5
1273B6
  8
OBJECT
 10
4583.0
 20
-637.0
 30
0.0
 40
3.0
 50
0.0
 51
90.0
1001
ACDBBLOCKREPETAG
1070
     1
1071
       58
1005
1273B6
  0
LINE
  5
1273B7
  8
OBJECT
 10
4580.0
 20
-758.0
 30
0.0
 11
4583.0
 21
-758.0
 31
0.0
1001
ACDBBLOCKREPETAG
1070
     1
1071
       59
1005
1273B7
  0
ARC
  5
1273B8
  8
OBJECT
 10
4583.0
 20
-755.0
 30
0.0
 40
3.0
 50
270.0
 51
0.0
1001
ACDBBLOCKREPETAG
1070
     1
1071
       60
1005
1273B8
  0
LINE
  5
1273B9
  8
OBJECT
 10
4586.0
 20
-755.0
 30
0.0
 11
4586.0
 21
-637.0
 31
0.0
1001
ACDBBLOCKREPETAG
1070
     1
1071
       61
1005
1273B9
  0
LINE
  5
1273BA
  8
HIDDEN
 10
4588.0
 20
-651.5
 30
0.0
 11
4588.0
 21
-740.5
 31
0.0
1001
ACDBBLOCKREPETAG
1070
     1
1071
       63
1005
1273BA
  0
LINE
  5
1273BB
  8
CENTER
 10
3077.0
 20
-695.99999999999432
 30
0.0
 11
2923.0
 21
-695.99999999999432
 31
0.0
1001
ACDBBLOCKREPETAG
1070
     1
1071
       17
1005
1273BB
  0
CIRCLE
  5
1273BC
  8
OBJECT
 10
3000.0
 20
-695.99999999999432
 30
0.0
 40
41.5
1001
ACDBBLOCKREPETAG
1070
     1
1071
       19
1005
1273BC
  0
CIRCLE
  5
1273BD
  8
OBJECT
 10
3000.0
 20
-695.99999999999432
 30
0.0
 40
54.0
1001
ACDBBLOCKREPETAG
1070
     1
1071
       20
1005
1273BD
  0
ARC
  5
1273BE
  8
OBJECT
 10
3000.0
 20
-695.99999999999432
 30
0.0
 40
62.0
 50
287.89655112920718
 51
252.10344887079279
1001
ACDBBLOCKREPETAG
1070
     1
1071
       21
1005
1273BE
  0
LINE
  5
1273BF
  8
OBJECT
 10
2980.947441116743
 20
-754.9999999999942
 30
0.0
 11
3019.052558883257
 21
-754.9999999999942
 31
0.0
1001
ACDBBLOCKREPETAG
1070
     1
1071
       22
1005
1273BF
  0
TEXT
  5
1273C0
  8
SLIM
 10
149.1428571427966
 20
-443.99999999984971
 30
0.0
 40
48.0
  1
A3
 41
0.75
1001
ACDBBLOCKREPETAG
1070
     1
1071
      119
1005
0
  0
LINE
  5
1273C1
  8
OBJECT
 10
2633.0
 20
-634.0
 30
0.0
 11
2640.0
 21
-634.0
 31
0.0
1001
ACDBBLOCKREPETAG
1070
     1
1071
       45
1005
1273C1
  0
LINE
  5
1273C2
  8
OBJECT
 10
2640.0
 20
-634.0
 30
0.0
 11
2640.0
 21
-755.0
 31
0.0
1001
ACDBBLOCKREPETAG
1070
     1
1071
       46
1005
1273C2
  0
LINE
  5
1273C3
  8
OBJECT
 10
2633.0
 20
-755.0
 30
0.0
 11
2633.0
 21
-634.0
 31
0.0
1001
ACDBBLOCKREPETAG
1070
     1
1071
       47
1005
1273C3
  0
LINE
  5
1273C4
  8
CENTER
 10
2655.0
 20
-696.0
 30
0.0
 11
2571.0
 21
-696.0
 31
0.0
1001
ACDBBLOCKREPETAG
1070
     1
1071
       48
1005
1273C4
  0
LINE
  5
1273C5
  8
OBJECT
 10
2633.0
 20
-637.0
 30
0.0
 11
2597.0
 21
-637.0
 31
0.0
1001
ACDBBLOCKREPETAG
1070
     1
1071
       49
1005
1273C5
  0
LINE
  5
1273C6
  8
OBJECT
 10
2597.0
 20
-637.0
 30
0.0
 11
2597.0
 21
-755.0
 31
0.0
1001
ACDBBLOCKREPETAG
1070
     1
1071
       50
1005
1273C6
  0
LINE
  5
1273C7
  8
OBJECT
 10
2597.0
 20
-755.0
 30
0.0
 11
2640.0
 21
-755.0
 31
0.0
1001
ACDBBLOCKREPETAG
1070
     1
1071
       51
1005
1273C7
  0
LINE
  5
1273C8
  8
OBJECT
 10
2593.0
 20
-641.5
 30
0.0
 11
2586.0
 21
-641.5
 31
0.0
1001
ACDBBLOCKREPETAG
1070
     1
1071
       52
1005
1273C8
  0
LINE
  5
1273C9
  8
OBJECT
 10
2586.0
 20
-750.49999999999989
 30
0.0
 11
2593.0
 21
-750.49999999999989
 31
0.0
1001
ACDBBLOCKREPETAG
1070
     1
1071
       53
1005
1273C9
  0
LINE
  5
1273CA
  8
OBJECT
 10
2593.0
 20
-750.49999999999989
 30
0.0
 11
2593.0
 21
-641.5
 31
0.0
1001
ACDBBLOCKREPETAG
1070
     1
1071
       54
1005
1273CA
  0
LINE
  5
1273CB
  8
OBJECT
 10
2597.0
 20
-637.0
 30
0.0
 11
2593.0
 21
-641.5
 31
0.0
1001
ACDBBLOCKREPETAG
1070
     1
1071
       55
1005
1273CB
  0
LINE
  5
1273CC
  8
OBJECT
 10
2597.0
 20
-755.0
 30
0.0
 11
2593.0
 21
-750.49999999999989
 31
0.0
1001
ACDBBLOCKREPETAG
1070
     1
1071
       56
1005
1273CC
  0
LINE
  5
1273CD
  8
OBJECT
 10
2583.0
 20
-634.0
 30
0.0
 11
2580.0
 21
-634.0
 31
0.0
1001
ACDBBLOCKREPETAG
1070
     1
1071
       57
1005
1273CD
  0
ARC
  5
1273CE
  8
OBJECT
 10
2583.0
 20
-637.0
 30
0.0
 40
3.0
 50
0.0
 51
90.0
1001
ACDBBLOCKREPETAG
1070
     1
1071
       58
1005
1273CE
  0
LINE
  5
1273CF
  8
OBJECT
 10
2580.0
 20
-758.0
 30
0.0
 11
2583.0
 21
-758.0
 31
0.0
1001
ACDBBLOCKREPETAG
1070
     1
1071
       59
1005
1273CF
  0
ARC
  5
1273D0
  8
OBJECT
 10
2583.0
 20
-755.0
 30
0.0
 40
3.0
 50
270.0
 51
0.0
1001
ACDBBLOCKREPETAG
1070
     1
1071
       60
1005
1273D0
  0
LINE
  5
1273D1
  8
OBJECT
 10
2586.0
 20
-755.0
 30
0.0
 11
2586.0
 21
-637.0
 31
0.0
1001
ACDBBLOCKREPETAG
1070
     1
1071
       61
1005
1273D1
  0
LINE
  5
1273D2
  8
HIDDEN
 10
2588.0
 20
-651.5
 30
0.0
 11
2588.0
 21
-740.5
 31
0.0
1001
ACDBBLOCKREPETAG
1070
     1
1071
       63
1005
1273D2
  0
TEXT
  5
1273D3
  8
SLIM
 10
0.0000035665234464
 20
24.000004585317608
 30
0.0
 40
79.999999999972701
  1
上部枝管
 41
0.75
1001
ACDBBLOCKREPETAG
1070
     1
1071
      119
1005
120BCB
  0
LINE
  5
1273D4
  8
DIM
 10
2650.0
 20
-3506.9999999999968
 30
0.0
 11
2728.479620594459
 21
-3506.9999999999968
 31
0.0
  0
LINE
  5
1273D5
  8
DIM
 10
2650.0
 20
-3412.9999999999968
 30
0.0
 11
2728.479620594459
 21
-3412.9999999999968
 31
0.0
  0
LINE
  5
1273D6
  8
DIM
 10
2718.479620594459
 20
-3486.9999999999959
 30
0.0
 11
2718.479620594459
 21
-3432.9999999999959
 31
0.0
  0
INSERT
  5
1273D7
  8
DIM
  2
_OPEN30
 10
2718.479620594459
 20
-3506.9999999999968
 30
0.0
 41
20.0
 42
20.0
 43
20.0
 50
270.0
  0
INSERT
  5
1273D8
  8
DIM
  2
_OPEN30
 10
2718.479620594459
 20
-3412.9999999999968
 30
0.0
 41
20.0
 42
20.0
 43
20.0
 50
90.0
  0
INSERT
  5
1273D9
  8
SLIM
  2
*U10
 10
0.0
 20
0.0
 30
0.0
  0
LINE
  5
1273DA
  8
DIM
 10
2650.0
 20
-3864.9999999999968
 30
0.0
 11
2726.8409284037339
 21
-3864.9999999999968
 31
0.0
  0
LINE
  5
1273DB
  8
DIM
 10
2665.0
 20
-3820.9999999999968
 30
0.0
 11
2726.8409284037339
 21
-3820.9999999999968
 31
0.0
  0
LINE
  5
1273DC
  8
DIM
 10
2716.8409284037339
 20
-3884.9999999999991
 30
0.0
 11
2716.8409284037339
 21
-3904.9999999999968
 31
0.0
  0
LINE
  5
1273DD
  8
DIM
 10
2716.8409284037339
 20
-3800.9999999999982
 30
0.0
 11
2716.8409284037339
 21
-3780.9999999999968
 31
0.0
  0
LINE
  5
1273DE
  8
DIM
 10
2716.8409284037339
 20
-3864.9999999999968
 30
0.0
 11
2716.8409284037339
 21
-3820.9999999999968
 31
0.0
  0
INSERT
  5
1273DF
  8
DIM
  2
_OPEN30
 10
2716.8409284037339
 20
-3864.9999999999968
 30
0.0
 41
20.0
 42
20.0
 43
20.0
 50
90.0
  0
INSERT
  5
1273E0
  8
DIM
  2
_OPEN30
 10
2716.8409284037339
 20
-3820.9999999999968
 30
0.0
 41
20.0
 42
20.0
 43
20.0
 50
270.0
  0
INSERT
  5
1273E1
  8
SLIM
  2
*U11
 10
0.0
 20
0.0
 30
0.0
  0
LINE
  5
1273E2
  8
DIM
 10
2500.0
 20
-3359.9999999999968
 30
0.0
 11
2500.0
 21
-3322.208121984444
 31
0.0
  0
LINE
  5
1273E3
  8
DIM
 10
2640.0
 20
-3402.9999999999968
 30
0.0
 11
2640.0
 21
-3322.208121984444
 31
0.0
  0
LINE
  5
1273E4
  8
DIM
 10
2520.0
 20
-3332.208121984444
 30
0.0
 11
2620.0
 21
-3332.208121984444
 31
0.0
  0
INSERT
  5
1273E5
  8
DIM
  2
_OPEN30
 10
2500.0
 20
-3332.208121984444
 30
0.0
 41
20.0
 42
20.0
 43
20.0
 50
180.0
  0
INSERT
  5
1273E6
  8
DIM
  2
_OPEN30
 10
2640.0
 20
-3332.208121984444
 30
0.0
 41
20.0
 42
20.0
 43
20.0
  0
INSERT
  5
1273E7
  8
SLIM
  2
*U12
 10
0.0
 20
0.0
 30
0.0
  0
TEXT
  5
1273E8
  8
SLIM
 10
3270.9999999999991
 20
-3237.5000160472709
 30
0.0
 40
40.0
  1
C寸法
 41
0.75
  0
TEXT
  5
1273E9
  8
SLIM
 10
3270.9999999999991
 20
-3167.5000160472709
 30
0.0
 40
40.0
  1
B寸法
 41
0.75
  0
TEXT
  5
1273EA
  8
SLIM
 10
3270.2857142857151
 20
-3097.5000160472709
 30
0.0
 40
40.0
  1
A寸法
 41
0.75
  0
TEXT
  5
1273EB
  8
SLIM
 10
3669.2857142857142
 20
-3237.5000160472709
 30
0.0
 40
40.0
  1
140
 41
0.75
  0
TEXT
  5
1273EC
  8
SLIM
 10
3409.2857142857151
 20
-3237.5000160472709
 30
0.0
 40
40.0
  1
140
 41
0.75
  0
TEXT
  5
1273ED
  8
SLIM
 10
3539.2857142857151
 20
-3237.5000160472709
 30
0.0
 40
40.0
  1
140
 41
0.75
  0
TEXT
  5
1273EE
  8
SLIM
 10
3681.4285714285711
 20
-3167.5000160472709
 30
0.0
 40
40.0
  1
59
 41
0.75
  0
TEXT
  5
1273EF
  8
SLIM
 10
3420.0
 20
-3167.5000160472709
 30
0.0
 40
40.0
  1
44
 41
0.75
  0
TEXT
  5
1273F0
  8
SLIM
 10
3550.7142857142849
 20
-3167.5000160472709
 30
0.0
 40
40.0
  1
52
 41
0.75
  0
TEXT
  5
1273F1
  8
SLIM
 10
3471.0
 20
-2972.5000160472709
 30
0.0
 40
40.0
  1
横枝管サイズ
 41
0.75
  0
TEXT
  5
1273F2
  8
SLIM
 10
3654.8571428571422
 20
-3027.50001604727
 30
0.0
 40
30.0
  1
75（3）
 41
0.75
  0
TEXT
  5
1273F3
  8
SLIM
 10
3524.8571428571422
 20
-3027.50001604727
 30
0.0
 40
30.0
  1
65（2）
 41
0.75
  0
TEXT
  5
1273F4
  8
SLIM
 10
3397.0
 20
-3027.50001604727
 30
0.0
 40
30.0
  1
50（1）
 41
0.75
  0
TEXT
  5
1273F5
  8
SLIM
 10
3668.5714285714289
 20
-3097.5000160472709
 30
0.0
 40
40.0
  1
124
 41
0.75
  0
TEXT
  5
1273F6
  8
SLIM
 10
3420.0
 20
-3097.5000160472709
 30
0.0
 40
40.0
  1
94
 41
0.75
  0
TEXT
  5
1273F7
  8
SLIM
 10
3542.142857142856
 20
-3097.5000160472709
 30
0.0
 40
40.0
  1
110
 41
0.75
  0
TEXT
  5
1273F8
  8
SLIM
 10
2349.9999999999991
 20
-2997.5
 30
0.0
 40
75.0
  1
下部枝管サイズ毎の形状
 41
0.75
  0
TEXT
  5
1273F9
  8
SLIM
 10
4394.25
 20
-3982.4999999999968
 30
0.0
 40
35.0
  1
通常枝75（3）
 41
0.75
  0
TEXT
  5
1273FA
  8
SLIM
 10
3394.2499999999991
 20
-3982.4999999999968
 30
0.0
 40
35.0
  1
通常枝65（2）
 41
0.75
  0
TEXT
  5
1273FB
  8
SLIM
 10
2396.75
 20
-3982.4999999999968
 30
0.0
 40
35.0
  1
通常枝50（1）
 41
0.75
  0
TEXT
  5
1273FC
  8
SLIM
 10
2337.75
 20
282.50000000000011
 30
0.0
 40
35.0
  1
（枝管サイズ毎に寸法が異なります。管底の位置は全サイズで同じです）
 41
0.75
  0
TEXT
  5
1273FD
  8
SLIM
 10
2350.0
 20
532.5
 30
0.0
 40
75.0
  1
側面図の代表機種
 41
0.75
  0
TEXT
  5
1273FE
  8
SLIM
 10
2350.0
 20
369.99999999999989
 30
0.0
 40
100.0
  1
4SRT2-A3-A0200-P440
 41
0.75
  0
TEXT
  5
1273FF
  8
SLIM
 10
4241.6249999999991
 20
-1752.499999999998
 30
0.0
 40
35.0
  1
片受けスタイル（S）＋シンドカット
 41
0.75
  0
TEXT
  5
127400
  8
SLIM
 10
2356.25
 20
-1752.499999999998
 30
0.0
 40
35.0
  1
片受けスタイル（S）
 41
0.75
  0
TEXT
  5
127401
  8
SLIM
 10
0.0
 20
370.0
 30
0.0
 40
100.0
  1
4SRT2-A3-A0X00-PXXX-S
 41
0.75
  0
VIEWPORT
  5
F6BA7
 67
     1
  8
0
 10
195.9179030619629
 20
101.8328354358673
 30
0.0
 40
435.17763301655992
 41
222.19657968139651
 68
     1
 69
     1
1001
ACAD
1000
MVIEW
1002
{
1070
    16
1010
0.0
1020
0.0
1030
0.0
1010
0.0
1020
0.0
1030
1.0
1040
0.0
1040
222.19657968139651
1040
195.9179030619629
1040
101.8328354358673
1040
50.0
1040
0.0
1040
0.0
1070
     0
1070
     0
1070
     1
1070
     1
1070
     0
1070
     0
1070
     0
1070
     0
1040
0.0
1040
0.0
1040
0.0
1040
10.0
1040
10.0
1040
10.0
1040
10.0
1070
     0
1002
{
1002
}
1002
}
  0
VIEWPORT
  5
F6BA9
 67
     1
  8
OBJECT
 10
145.3303314447403
 20
101.8328338861465
 30
0.0
 40
232.5285303115844
 41
162.93253421783439
 68
     2
 69
     2
1001
ACAD
1000
MVIEW
1002
{
1070
    16
1010
0.0
1020
0.0
1030
0.0
1010
0.0
1020
0.0
1030
1.0
1040
0.0
1040
25942.55904403147
1040
2377.604457077377
1040
-7591.5176687056619
1040
50.0
1040
0.0
1040
0.0
1070
     0
1070
   600
1070
     1
1070
     1
1070
     0
1070
     0
1070
     0
1070
     0
1040
0.0
1040
0.0
1040
0.0
1040
1.0
1040
1.0
1040
0.0
1040
0.0
1070
     0
1002
{
1002
}
1002
}
  0
ENDSEC
  0
EOF
