  0
SECTION
  2
HEADER
  9
$ACADVER
  1
AC1009
  9
$INSBASE
 10
0.0
 20
0.0
 30
0.0
  9
$EXTMIN
 10
-0.0000000000002274
 20
-3982.4999999999982
 30
0.0
  9
$EXTMAX
 10
5107.5428571428556
 20
607.5
 30
0.0
  9
$LIMMIN
 10
0.0
 20
0.0
  9
$LIMMAX
 10
210.0
 20
297.0
  9
$ORTHOMODE
 70
     0
  9
$REGENMODE
 70
     1
  9
$FILLMODE
 70
     1
  9
$QTEXTMODE
 70
     0
  9
$MIRRTEXT
 70
     0
  9
$DRAGMODE
 70
     2
  9
$LTSCALE
 40
1.0
  9
$OSMODE
 70
    37
  9
$ATTMODE
 70
     1
  9
$TEXTSIZE
 40
4.0
  9
$TRACEWID
 40
0.05
  9
$TEXTSTYLE
  7
STANDARD
  9
$CLAYER
  8
SLIM
  9
$CELTYPE
  6
BYLAYER
  9
$CECOLOR
 62
   256
  9
$DIMSCALE
 40
10.0
  9
$DIMASZ
 40
2.0
  9
$DIMEXO
 40
1.0
  9
$DIMDLI
 40
10.0
  9
$DIMRND
 40
0.0
  9
$DIMDLE
 40
0.0
  9
$DIMEXE
 40
1.0
  9
$DIMTP
 40
0.0
  9
$DIMTM
 40
0.0
  9
$DIMTXT
 40
3.2000000000000002
  9
$DIMCEN
 40
0.0
  9
$DIMTSZ
 40
0.0
  9
$DIMTOL
 70
     0
  9
$DIMLIM
 70
     0
  9
$DIMTIH
 70
     0
  9
$DIMTOH
 70
     0
  9
$DIMSE1
 70
     0
  9
$DIMSE2
 70
     0
  9
$DIMTAD
 70
     1
  9
$DIMZIN
 70
     8
  9
$DIMBLK
  1
OPEN30
  9
$DIMASO
 70
     1
  9
$DIMSHO
 70
     1
  9
$DIMPOST
  1

  9
$DIMAPOST
  1

  9
$DIMALT
 70
     0
  9
$DIMALTD
 70
     2
  9
$DIMALTF
 40
25.399999999999999
  9
$DIMLFAC
 40
1.0
  9
$DIMTOFL
 70
     1
  9
$DIMTVP
 40
0.0
  9
$DIMTIX
 70
     0
  9
$DIMSOXD
 70
     0
  9
$DIMSAH
 70
     0
  9
$DIMBLK1
  1

  9
$DIMBLK2
  1

  9
$DIMSTYLE
  2
S10
  9
$DIMCLRD
 70
   256
  9
$DIMCLRE
 70
   256
  9
$DIMCLRT
 70
   256
  9
$DIMTFAC
 40
1.0
  9
$DIMGAP
 40
0.9
  9
$LUNITS
 70
     2
  9
$LUPREC
 70
     2
  9
$SKETCHINC
 40
0.1
  9
$FILLETRAD
 40
0.0
  9
$AUNITS
 70
     0
  9
$AUPREC
 70
     2
  9
$MENU
  1
ACAD
  9
$ELEVATION
 40
0.0
  9
$PELEVATION
 40
0.0
  9
$THICKNESS
 40
0.0
  9
$LIMCHECK
 70
     0
  9
$BLIPMODE
 70
     0
  9
$CHAMFERA
 40
2.0
  9
$CHAMFERB
 40
2.0
  9
$SKPOLY
 70
     0
  9
$TDCREATE
 40
2453095.4929404748
  9
$TDUPDATE
 40
2457604.654814329
  9
$TDINDWG
 40
21.360508761599998
  9
$TDUSRTIMER
 40
21.360508090300002
  9
$USRTIMER
 70
     1
  9
$ANGBASE
 50
0.0
  9
$ANGDIR
 70
     0
  9
$PDMODE
 70
    35
  9
$PDSIZE
 40
2.0
  9
$PLINEWID
 40
0.0
  9
$COORDS
 70
     1
  9
$SPLFRAME
 70
     0
  9
$SPLINETYPE
 70
     6
  9
$SPLINESEGS
 70
     8
  9
$ATTDIA
 70
     0
  9
$ATTREQ
 70
     1
  9
$HANDLING
 70
     1
  9
$HANDSEED
  5
127911
  9
$SURFTAB1
 70
     6
  9
$SURFTAB2
 70
     6
  9
$SURFTYPE
 70
     6
  9
$SURFU
 70
     6
  9
$SURFV
 70
     6
  9
$UCSNAME
  2

  9
$UCSORG
 10
0.0
 20
0.0
 30
0.0
  9
$UCSXDIR
 10
1.0
 20
0.0
 30
0.0
  9
$UCSYDIR
 10
0.0
 20
1.0
 30
0.0
  9
$PUCSNAME
  2

  9
$PUCSORG
 10
0.0
 20
0.0
 30
0.0
  9
$PUCSXDIR
 10
1.0
 20
0.0
 30
0.0
  9
$PUCSYDIR
 10
0.0
 20
1.0
 30
0.0
  9
$USERI1
 70
     0
  9
$USERI2
 70
     0
  9
$USERI3
 70
     0
  9
$USERI4
 70
     0
  9
$USERI5
 70
     0
  9
$USERR1
 40
0.0
  9
$USERR2
 40
0.0
  9
$USERR3
 40
0.0
  9
$USERR4
 40
0.0
  9
$USERR5
 40
0.0
  9
$WORLDVIEW
 70
     1
  9
$SHADEDGE
 70
     3
  9
$SHADEDIF
 70
    70
  9
$TILEMODE
 70
     1
  9
$MAXACTVP
 70
    64
  9
$PLIMCHECK
 70
     0
  9
$PEXTMIN
 10
29.066066288948051
 20
20.366566777229309
 30
0.0
  9
$PEXTMAX
 10
261.5945966005325
 20
183.29910099506381
 30
0.0
  9
$PLIMMIN
 10
-3.17498779296875
 20
-3.1749999523162842
  9
$PLIMMAX
 10
293.83566284179687
 20
206.8406708240509
  9
$UNITMODE
 70
     0
  9
$VISRETAIN
 70
     1
  9
$PLINEGEN
 70
     0
  9
$PSLTSCALE
 70
     1
  0
ENDSEC
  0
SECTION
  2
TABLES
  0
TABLE
  2
VPORT
 70
     1
  0
VPORT
  2
*ACTIVE
 70
     0
 10
0.0
 20
0.0
 11
1.0
 21
1.0
 12
3192.4124836207552
 22
-492.79312686019011
 13
0.0
 23
0.0
 14
1.0
 24
1.0
 15
0.0
 25
0.0
 16
0.0
 26
0.0
 36
1.0
 17
0.0
 27
0.0
 37
0.0
 40
3375.6497035947909
 41
1.6494178525226391
 42
50.0
 43
0.0
 44
0.0
 50
0.0
 51
0.0
 71
     0
 72
   600
 73
     1
 74
     1
 75
     0
 76
     0
 77
     0
 78
     0
  0
ENDTAB
  0
TABLE
  2
LTYPE
 70
     4
  0
LTYPE
  2
CONTINUOUS
 70
     0
  3
Solid line
 72
    65
 73
     0
 40
0.0
  0
LTYPE
  2
PHANTOM2
 70
     0
  3
___ _ _ ___ _ _ ___ _ _ ___ _ _
 72
    65
 73
     6
 40
1.25
 49
0.625
 49
-0.125
 49
0.125
 49
-0.125
 49
0.125
 49
-0.125
  0
LTYPE
  2
ACAD_ISO08W100
 70
     0
  3
ISO long-dash short-dash ____ __ ____ __ ____ _
 72
    65
 73
     4
 40
36.0
 49
24.0
 49
-3.0
 49
6.0
 49
-3.0
  0
LTYPE
  2
ACAD_ISO02W100
 70
     0
  3
ISO dash __ __ __ __ __ __ __ __ __ __ __ __ __
 72
    65
 73
     2
 40
15.0
 49
12.0
 49
-3.0
  0
ENDTAB
  0
TABLE
  2
LAYER
 70
     8
  0
LAYER
  2
0
 70
     0
 62
     7
  6
CONTINUOUS
  0
LAYER
  2
SLIM
 70
     0
 62
     2
  6
CONTINUOUS
  0
LAYER
  2
DEFPOINTS
 70
     0
 62
     7
  6
CONTINUOUS
  0
LAYER
  2
DIM
 70
     0
 62
     7
  6
CONTINUOUS
  0
LAYER
  2
OBJECT
 70
     0
 62
     4
  6
CONTINUOUS
  0
LAYER
  2
HIDDEN
 70
     0
 62
     2
  6
ACAD_ISO02W100
  0
LAYER
  2
CENTER
 70
     0
 62
     2
  6
ACAD_ISO08W100
  0
LAYER
  2
DOTS
 70
     0
 62
     1
  6
CONTINUOUS
  0
ENDTAB
  0
TABLE
  2
STYLE
 70
     2
  0
STYLE
  2
STANDARD
 70
     0
 40
0.0
 41
0.75
 50
0.0
 71
     0
 42
4.0
  3
simplex.shx
  4
bigfont.shx
  0
ENDTAB
  0
TABLE
  2
VIEW
 70
     0
  0
ENDTAB
  0
TABLE
  2
UCS
 70
     0
  0
ENDTAB
  0
TABLE
  2
APPID
 70
    20
  0
APPID
  2
ACAD
 70
     0
  0
APPID
  2
ACADANNOTATIVE
 70
     0
  0
APPID
  2
ACAD_PSEXT
 70
     0
  0
APPID
  2
ACAD_EXEMPT_FROM_CAD_STANDARDS
 70
     0
  0
APPID
  2
ACAECLAYERSTANDARD
 70
     0
  0
APPID
  2
ACAUTHENVIRON
 70
     0
  0
APPID
  2
ACDBDYNAMICBLOCKTRUENAME
 70
     0
  0
APPID
  2
ACDBDYNAMICBLOCKGUID
 70
     0
  0
APPID
  2
ACDBBLOCKREPETAG
 70
     0
  0
APPID
  2
ACDBBLOCKREPBTAG
 70
     0
  0
APPID
  2
ACAD_NAV_VCDISPLAY
 70
     0
  0
APPID
  2
ACAD_DSTYLE_DIMRADIAL_EXTENSION
 70
     0
  0
APPID
  2
ACAD_DSTYLE_DIMJAG
 70
     0
  0
APPID
  2
ACAD_DSTYLE_DIMTALN
 70
     0
  0
APPID
  2
ACADANNOPO
 70
     0
  0
APPID
  2
GRADIENTCOLOR1ACI
 70
     0
  0
APPID
  2
GRADIENTCOLOR2ACI
 70
     0
  0
APPID
  2
ACADANNOMONITORALERTICONDI
 70
     0
  0
APPID
  2
CONTENTBLOCKICON
 70
     0
  0
APPID
  2
ACAD_MLEADERVER
 70
     0
  0
ENDTAB
  0
TABLE
  2
DIMSTYLE
 70
     3
  0
DIMSTYLE
  2
STANDARD
 70
     0
  3

  4

  5

  6

  7

 40
1.0
 41
0.18
 42
0.0625
 43
0.38
 44
0.18
 45
0.0
 46
0.0
 47
0.0
 48
0.0
140
0.18
141
0.09
142
0.0
143
25.399999999999999
144
1.0
145
0.0
146
1.0
147
0.09
 71
     0
 72
     0
 73
     1
 74
     1
 75
     0
 76
     0
 77
     0
 78
     0
170
     0
171
     2
172
     0
173
     0
174
     0
175
     0
176
     0
177
     0
178
     0
  0
DIMSTYLE
  2
S10
 70
     0
  3

  4

  5

  6

  7

 40
10.0
 41
2.0
 42
1.0
 43
10.0
 44
1.0
 45
0.0
 46
0.0
 47
0.0
 48
0.0
140
3.2000000000000002
141
0.0
142
0.0
143
25.399999999999999
144
1.0
145
0.0
146
1.0
147
0.9
 71
     0
 72
     0
 73
     0
 74
     0
 75
     0
 76
     0
 77
     1
 78
     8
170
     0
171
     2
172
     1
173
     0
174
     0
175
     0
176
   256
177
   256
178
   256
  0
ENDTAB
  0
ENDSEC
  0
SECTION
  2
BLOCKS
  0
BLOCK
  8
0
  2
$MODEL_SPACE
 70
     0
 10
0.0
 20
0.0
 30
0.0
  3
$MODEL_SPACE
  1

  0
ENDBLK
  5
127843
  8
0
  0
BLOCK
 67
     1
  8
0
  2
$PAPER_SPACE
 70
     0
 10
0.0
 20
0.0
 30
0.0
  3
$PAPER_SPACE
  1

  0
ENDBLK
  5
12783F
 67
     1
  8
0
  0
BLOCK
  8
0
  2
_OPEN30
 70
     0
 10
0.0
 20
0.0
 30
0.0
  3
_OPEN30
  1

  0
LINE
  5
202
  8
0
  6
BYBLOCK
 62
     0
 10
-1.0
 20
0.26794919
 30
0.0
 11
0.0
 21
0.0
 31
0.0
  0
LINE
  5
203
  8
0
  6
BYBLOCK
 62
     0
 10
0.0
 20
0.0
 30
0.0
 11
-1.0
 21
-0.26794919
 31
0.0
  0
LINE
  5
204
  8
0
  6
BYBLOCK
 62
     0
 10
0.0
 20
0.0
 30
0.0
 11
-1.0
 21
0.0
 31
0.0
  0
ENDBLK
  5
206
  8
0
  0
BLOCK
  8
0
  2
*U18
 70
     1
 10
0.0
 20
0.0
 30
0.0
  3
*U18
  1

  0
TEXT
  5
127797
  8
SLIM
 10
158.95238095238091
 20
-1393.9999999999991
 30
0.0
 40
26.0
  1
75
  0
ENDBLK
  5
127799
  8
0
  0
BLOCK
  8
0
  2
*U19
 70
     1
 10
0.0
 20
0.0
 30
0.0
  3
*U19
  1

  0
TEXT
  5
12779B
  8
SLIM
 10
518.95238095238085
 20
-929.99999999999909
 30
0.0
 40
26.0
  1
65
  0
ENDBLK
  5
12779D
  8
0
  0
BLOCK
  8
0
  2
*U20
 70
     1
 10
0.0
 20
0.0
 30
0.0
  3
*U20
  1

  0
TEXT
  5
12779F
  8
SLIM
 10
158.95238095238091
 20
-929.99999999999909
 30
0.0
 40
26.0
  1
50
  0
ENDBLK
  5
1277A1
  8
0
  0
BLOCK
  8
0
  2
*U21
 70
     1
 10
0.0
 20
0.0
 30
0.0
  3
*U21
  1

  0
TEXT
  5
1277B7
  8
SLIM
 10
158.9523809524228
 20
-130.00000000017181
 30
0.0
 40
26.0
  1
75
  0
ENDBLK
  5
1277B9
  8
0
  0
BLOCK
  8
0
  2
*U22
 70
     1
 10
0.0
 20
0.0
 30
0.0
  3
*U22
  1

  0
TEXT
  5
1277BB
  8
DIM
 10
4334.1164560757752
 20
-1378.7428571428561
 30
0.0
 40
32.0
  1
m（シンドカット）
 50
90.0
 41
0.75
  0
ENDBLK
  5
1277BD
  8
0
  0
BLOCK
  8
0
  2
*U23
 70
     1
 10
0.0
 20
0.0
 30
0.0
  3
*U23
  1

  0
TEXT
  5
1277BF
  8
DIM
 10
4700.4245816727562
 20
-924.00000000000125
 30
0.0
 40
32.0
  1
P
 50
90.0
 41
0.75
  0
ENDBLK
  5
1277C1
  8
0
  0
BLOCK
  8
0
  2
*U24
 70
     1
 10
0.0
 20
0.0
 30
0.0
  3
*U24
  1

  0
TEXT
  5
1277C3
  8
DIM
 10
2700.4245816727571
 20
-923.99999999999943
 30
0.0
 40
32.0
  1
P
 50
90.0
 41
0.75
  0
ENDBLK
  5
1277C5
  8
0
  0
BLOCK
  8
0
  2
*U25
 70
     1
 10
0.0
 20
0.0
 30
0.0
  3
*U25
  1

  0
TEXT
  5
1277C7
  8
DIM
 10
2709.479620594459
 20
-3469.1428571428528
 30
0.0
 40
32.0
  1
A
 50
90.0
 41
0.75
  0
ENDBLK
  5
1277C9
  8
0
  0
BLOCK
  8
0
  2
*U26
 70
     1
 10
0.0
 20
0.0
 30
0.0
  3
*U26
  1

  0
TEXT
  5
1277CB
  8
DIM
 10
2707.840928403733
 20
-3850.9999999999968
 30
0.0
 40
32.0
  1
B
 50
90.0
 41
0.75
  0
ENDBLK
  5
1277CD
  8
0
  0
BLOCK
  8
0
  2
*U27
 70
     1
 10
0.0
 20
0.0
 30
0.0
  3
*U27
  1

  0
TEXT
  5
1277CF
  8
DIM
 10
2561.4285714285711
 20
-3323.208121984444
 30
0.0
 40
32.0
  1
C
 41
0.75
  0
ENDBLK
  5
1277D1
  8
0
  0
ENDSEC
  0
SECTION
  2
ENTITIES
  0
LINE
  5
11273E
  8
OBJECT
 10
2325.0
 20
-3864.9999999999968
 30
0.0
 11
5075.0
 21
-3864.9999999999968
 31
0.0
  0
LINE
  5
11412B
  8
SLIM
 10
3256.0
 20
-2922.5000160472709
 30
0.0
 11
3256.0
 21
-3252.5000160472709
 31
0.0
  0
LINE
  5
11412C
  8
SLIM
 10
3380.0
 20
-2922.5000160472709
 30
0.0
 11
3380.0
 21
-3252.5000160472709
 31
0.0
  0
LINE
  5
11412D
  8
SLIM
 10
3510.0
 20
-2982.50001604727
 30
0.0
 11
3510.0
 21
-3252.5000160472709
 31
0.0
  0
LINE
  5
11412E
  8
SLIM
 10
3640.0
 20
-2982.50001604727
 30
0.0
 11
3640.0
 21
-3252.5000160472709
 31
0.0
  0
LINE
  5
11412F
  8
SLIM
 10
3770.0
 20
-3252.5000160472709
 30
0.0
 11
3770.0
 21
-2922.5000160472709
 31
0.0
  0
LINE
  5
114131
  8
SLIM
 10
3770.0
 20
-2922.5000160472709
 30
0.0
 11
3256.0
 21
-2922.5000160472709
 31
0.0
  0
LINE
  5
114132
  8
SLIM
 10
3769.9999999999991
 20
-2982.50001604727
 30
0.0
 11
3380.0
 21
-2982.50001604727
 31
0.0
  0
LINE
  5
114133
  8
SLIM
 10
3770.0
 20
-3042.5000160472709
 30
0.0
 11
3256.0
 21
-3042.5000160472709
 31
0.0
  0
LINE
  5
114134
  8
SLIM
 10
3770.0
 20
-3112.5000160472709
 30
0.0
 11
3256.0
 21
-3112.5000160472709
 31
0.0
  0
LINE
  5
114135
  8
SLIM
 10
3770.0
 20
-3182.5000160472709
 30
0.0
 11
3256.0
 21
-3182.5000160472709
 31
0.0
  0
LINE
  5
114136
  8
SLIM
 10
3770.0
 20
-3252.5000160472709
 30
0.0
 11
3256.0
 21
-3252.5000160472709
 31
0.0
  0
LINE
  5
11414B
  8
SLIM
 10
3380.0
 20
-3042.5000160472709
 30
0.0
 11
3255.9999722746579
 21
-2922.5000000000018
 31
0.0
  0
LINE
  5
1238B4
  8
CENTER
 10
2579.9999999999991
 20
-3459.9999999999968
 30
0.0
 11
2409.9999999999991
 21
-3459.9999999999968
 31
0.0
1001
ACDBBLOCKREPETAG
1070
     1
1071
       14
1005
122545
  0
LINE
  5
1238B5
  8
CENTER
 10
2500.0
 20
-3549.9999999999968
 30
0.0
 11
2500.0
 21
-3369.9999999999968
 31
0.0
1001
ACDBBLOCKREPETAG
1070
     1
1071
       15
1005
122546
  0
CIRCLE
  5
1238B6
  8
OBJECT
 10
2500.0
 20
-3459.9999999999968
 30
0.0
 40
70.0
1001
ACDBBLOCKREPETAG
1070
     1
1071
       16
1005
122547
  0
CIRCLE
  5
1238B7
  8
OBJECT
 10
2500.0
 20
-3459.9999999999968
 30
0.0
 40
75.0
1001
ACDBBLOCKREPETAG
1070
     1
1071
       17
1005
122548
  0
LINE
  5
123927
  8
CENTER
 10
2500.0
 20
-3644.9999999999991
 30
0.0
 11
2500.0
 21
-3891.9999999999991
 31
0.0
1001
ACDBBLOCKREPETAG
1070
     1
1071
       25
1005
123927
  0
LINE
  5
123928
  8
OBJECT
 10
2425.0
 20
-3659.9999999999968
 30
0.0
 11
2425.0
 21
-3879.9999999999991
 31
0.0
1001
ACDBBLOCKREPETAG
1070
     1
1071
       26
1005
123928
  0
LINE
  5
12392C
  8
OBJECT
 10
2575.0
 20
-3659.9999999999968
 30
0.0
 11
2575.0
 21
-3756.5000000000618
 31
0.0
1001
ACDBBLOCKREPETAG
1070
     1
1071
       34
1005
12392C
  0
LINE
  5
123A5C
  8
OBJECT
 10
2575.0
 20
-3862.4999999999991
 30
0.0
 11
2575.0
 21
-3879.9999999999991
 31
0.0
1001
ACDBBLOCKREPETAG
1070
     1
1071
       34
1005
12392C
  0
LINE
  5
123A5E
  8
CENTER
 10
2900.0
 20
-3644.9999999999991
 30
0.0
 11
2900.0
 21
-3891.9999999999991
 31
0.0
1001
ACDBBLOCKREPETAG
1070
     1
1071
       25
1005
123927
  0
LINE
  5
123A5F
  8
OBJECT
 10
2825.0
 20
-3659.9999999999968
 30
0.0
 11
2825.0
 21
-3879.9999999999991
 31
0.0
1001
ACDBBLOCKREPETAG
1070
     1
1071
       26
1005
123928
  0
LINE
  5
123A60
  8
OBJECT
 10
2975.0
 20
-3659.9999999999968
 30
0.0
 11
2975.0
 21
-3879.9999999999991
 31
0.0
1001
ACDBBLOCKREPETAG
1070
     1
1071
       34
1005
12392C
  0
LINE
  5
123AD2
  8
CENTER
 10
3579.9999999999991
 20
-3459.9999999999968
 30
0.0
 11
3410.0
 21
-3459.9999999999968
 31
0.0
1001
ACDBBLOCKREPETAG
1070
     1
1071
       14
1005
122545
  0
LINE
  5
123AD3
  8
CENTER
 10
3500.0
 20
-3549.9999999999968
 30
0.0
 11
3500.0
 21
-3369.9999999999968
 31
0.0
1001
ACDBBLOCKREPETAG
1070
     1
1071
       15
1005
122546
  0
CIRCLE
  5
123AD4
  8
OBJECT
 10
3500.0
 20
-3459.9999999999968
 30
0.0
 40
70.0
1001
ACDBBLOCKREPETAG
1070
     1
1071
       16
1005
122547
  0
CIRCLE
  5
123AD5
  8
OBJECT
 10
3500.0
 20
-3459.9999999999968
 30
0.0
 40
75.0
1001
ACDBBLOCKREPETAG
1070
     1
1071
       17
1005
122548
  0
LINE
  5
123ADD
  8
CENTER
 10
3500.0
 20
-3644.9999999999991
 30
0.0
 11
3500.0
 21
-3891.9999999999991
 31
0.0
1001
ACDBBLOCKREPETAG
1070
     1
1071
       25
1005
123927
  0
LINE
  5
123ADE
  8
OBJECT
 10
3424.9999999999991
 20
-3659.9999999999968
 30
0.0
 11
3424.9999999999991
 21
-3879.9999999999991
 31
0.0
1001
ACDBBLOCKREPETAG
1070
     1
1071
       26
1005
123928
  0
LINE
  5
123ADF
  8
OBJECT
 10
3574.9999999999991
 20
-3659.9999999999968
 30
0.0
 11
3574.9999999999991
 21
-3756.5000000000618
 31
0.0
1001
ACDBBLOCKREPETAG
1070
     1
1071
       34
1005
12392C
  0
LINE
  5
123AE0
  8
OBJECT
 10
3574.9999999999991
 20
-3862.4999999999991
 30
0.0
 11
3574.9999999999991
 21
-3879.9999999999991
 31
0.0
1001
ACDBBLOCKREPETAG
1070
     1
1071
       34
1005
12392C
  0
LINE
  5
123AE8
  8
CENTER
 10
3900.0
 20
-3644.9999999999991
 30
0.0
 11
3900.0
 21
-3891.9999999999991
 31
0.0
1001
ACDBBLOCKREPETAG
1070
     1
1071
       25
1005
123927
  0
LINE
  5
123AE9
  8
OBJECT
 10
3824.9999999999991
 20
-3659.9999999999968
 30
0.0
 11
3824.9999999999991
 21
-3879.9999999999991
 31
0.0
1001
ACDBBLOCKREPETAG
1070
     1
1071
       26
1005
123928
  0
LINE
  5
123AEA
  8
OBJECT
 10
3975.0
 20
-3659.9999999999968
 30
0.0
 11
3975.0
 21
-3879.9999999999991
 31
0.0
1001
ACDBBLOCKREPETAG
1070
     1
1071
       34
1005
12392C
  0
LINE
  5
123B38
  8
CENTER
 10
4579.9999999999991
 20
-3459.9999999999968
 30
0.0
 11
4409.9999999999991
 21
-3459.9999999999968
 31
0.0
1001
ACDBBLOCKREPETAG
1070
     1
1071
       14
1005
122545
  0
LINE
  5
123B39
  8
CENTER
 10
4499.9999999999991
 20
-3549.9999999999968
 30
0.0
 11
4499.9999999999991
 21
-3369.9999999999968
 31
0.0
1001
ACDBBLOCKREPETAG
1070
     1
1071
       15
1005
122546
  0
CIRCLE
  5
123B3A
  8
OBJECT
 10
4499.9999999999991
 20
-3459.9999999999968
 30
0.0
 40
70.0
1001
ACDBBLOCKREPETAG
1070
     1
1071
       16
1005
122547
  0
CIRCLE
  5
123B3B
  8
OBJECT
 10
4499.9999999999991
 20
-3459.9999999999968
 30
0.0
 40
75.0
1001
ACDBBLOCKREPETAG
1070
     1
1071
       17
1005
122548
  0
LINE
  5
123B43
  8
CENTER
 10
4500.0
 20
-3644.9999999999991
 30
0.0
 11
4500.0
 21
-3891.9999999999991
 31
0.0
1001
ACDBBLOCKREPETAG
1070
     1
1071
       25
1005
123927
  0
LINE
  5
123B44
  8
OBJECT
 10
4425.0
 20
-3659.9999999999968
 30
0.0
 11
4425.0
 21
-3879.9999999999991
 31
0.0
1001
ACDBBLOCKREPETAG
1070
     1
1071
       26
1005
123928
  0
LINE
  5
123B45
  8
OBJECT
 10
4575.0
 20
-3659.9999999999968
 30
0.0
 11
4575.0
 21
-3756.5000000000618
 31
0.0
1001
ACDBBLOCKREPETAG
1070
     1
1071
       34
1005
12392C
  0
LINE
  5
123B46
  8
OBJECT
 10
4575.0
 20
-3862.4999999999991
 30
0.0
 11
4575.0
 21
-3879.9999999999991
 31
0.0
1001
ACDBBLOCKREPETAG
1070
     1
1071
       34
1005
12392C
  0
LINE
  5
123B4E
  8
CENTER
 10
4900.0
 20
-3644.9999999999991
 30
0.0
 11
4900.0
 21
-3891.9999999999991
 31
0.0
1001
ACDBBLOCKREPETAG
1070
     1
1071
       25
1005
123927
  0
LINE
  5
123B4F
  8
OBJECT
 10
4825.0
 20
-3659.9999999999968
 30
0.0
 11
4825.0
 21
-3879.9999999999991
 31
0.0
1001
ACDBBLOCKREPETAG
1070
     1
1071
       26
1005
123928
  0
LINE
  5
123B50
  8
OBJECT
 10
4975.0
 20
-3659.9999999999968
 30
0.0
 11
4974.9999999999991
 21
-3879.9999999999991
 31
0.0
1001
ACDBBLOCKREPETAG
1070
     1
1071
       34
1005
12392C
  0
POINT
  5
124C02
  8
DOTS
 10
2500.0
 20
-3459.9999999999968
 30
0.0
  0
POINT
  5
124C03
  8
DOTS
 10
2500.0
 20
-3864.9999999999968
 30
0.0
  0
POINT
  5
124C05
  8
DOTS
 10
3500.0
 20
-3864.9999999999968
 30
0.0
  0
POINT
  5
124C07
  8
DOTS
 10
3500.0
 20
-3459.9999999999968
 30
0.0
  0
POINT
  5
124C08
  8
DOTS
 10
4499.9999999999991
 20
-3459.9999999999968
 30
0.0
  0
POINT
  5
124C09
  8
DOTS
 10
4499.9999999999991
 20
-3864.9999999999968
 30
0.0
  0
CIRCLE
  5
1261AA
  8
OBJECT
 10
2500.0
 20
-199.99999999999909
 30
0.0
 40
53.5
1001
ACDBBLOCKREPETAG
1070
     1
1071
      344
1005
0
  0
POINT
  5
1261AB
  8
DOTS
 10
2500.0
 20
-199.99999999999909
 30
0.0
 50
270.0
1001
ACDBBLOCKREPETAG
1070
     1
1071
      362
1005
0
  0
LINE
  5
1261AD
  8
CENTER
 10
2580.0
 20
-199.99999999999909
 30
0.0
 11
2405.0
 21
-199.99999999999909
 31
0.0
1001
ACDBBLOCKREPETAG
1070
     1
1071
       14
1005
0
  0
LINE
  5
1261AE
  8
CENTER
 10
2500.0
 20
-294.99999999999898
 30
0.0
 11
2500.0
 21
-104.9999999999991
 31
0.0
1001
ACDBBLOCKREPETAG
1070
     1
1071
       15
1005
0
  0
CIRCLE
  5
1261AF
  8
OBJECT
 10
2500.0
 20
-199.99999999999909
 30
0.0
 40
70.0
1001
ACDBBLOCKREPETAG
1070
     1
1071
       16
1005
0
  0
CIRCLE
  5
1261B0
  8
OBJECT
 10
2500.0
 20
-199.99999999999909
 30
0.0
 40
77.0
1001
ACDBBLOCKREPETAG
1070
     1
1071
       17
1005
0
  0
ARC
  5
1261B1
  8
OBJECT
 10
2500.0
 20
-199.99999999999909
 30
0.0
 40
80.0
 50
50.805032573890557
 51
309.19496742597107
1001
ACDBBLOCKREPETAG
1070
     1
1071
       18
1005
0
  0
LINE
  5
1261B2
  8
OBJECT
 10
2545.6618002273249
 20
-137.99999999999909
 30
0.0
 11
2580.0
 21
-137.99999999999909
 31
0.0
1001
ACDBBLOCKREPETAG
1070
     1
1071
       19
1005
0
  0
LINE
  5
1261B3
  8
OBJECT
 10
2545.6618002273249
 20
-261.99999999999909
 30
0.0
 11
2580.0
 21
-261.99999999999909
 31
0.0
1001
ACDBBLOCKREPETAG
1070
     1
1071
       20
1005
0
  0
LINE
  5
126951
  8
SLIM
 10
4427.3018300565218
 20
-155.95484036957839
 30
0.0
 11
4455.9548403695817
 21
-127.3018300565189
 31
0.0
1001
ACAD
1010
0.0
1020
0.0
1030
0.0
1001
ACDBBLOCKREPETAG
1070
     1
1071
      429
1005
126951
  0
LINE
  5
126952
  8
SLIM
 10
4419.4861520708364
 20
-172.7507744763324
 30
0.0
 11
4428.8911593638004
 21
-163.34576718336851
 31
0.0
1001
ACAD
1010
0.0
1020
0.0
1030
0.0
1001
ACDBBLOCKREPETAG
1070
     1
1071
      381
1005
126952
  0
LINE
  5
126953
  8
SLIM
 10
4463.3457671833712
 20
-128.8911593637979
 30
0.0
 11
4472.7507744763352
 21
-119.48615207083409
 31
0.0
1001
ACAD
1010
0.0
1020
0.0
1030
0.0
1001
ACDBBLOCKREPETAG
1070
     1
1071
      382
1005
126953
  0
LINE
  5
126954
  8
SLIM
 10
4416.359667993378
 20
-184.8575146748606
 30
0.0
 11
4423.0316308417077
 21
-178.1855518265306
 31
0.0
1001
ACAD
1010
0.0
1020
0.0
1030
0.0
1001
ACDBBLOCKREPETAG
1070
     1
1071
      383
1005
126954
  0
LINE
  5
126955
  8
SLIM
 10
4478.1855518265329
 20
-123.031630841705
 30
0.0
 11
4484.8575146748626
 21
-116.359667993375
 31
0.0
1001
ACAD
1010
0.0
1020
0.0
1030
0.0
1001
ACDBBLOCKREPETAG
1070
     1
1071
      384
1005
126955
  0
LINE
  5
126956
  8
SLIM
 10
4415.1440575890529
 20
-195.0533812002549
 30
0.0
 11
4420.6912347437819
 21
-189.50620404552569
 31
0.0
1001
ACAD
1010
0.0
1020
0.0
1030
0.0
1001
ACDBBLOCKREPETAG
1070
     1
1071
      385
1005
126956
  0
LINE
  5
126957
  8
SLIM
 10
4489.5062040455277
 20
-120.69123474377911
 30
0.0
 11
4495.0533812002559
 21
-115.14405758904979
 31
0.0
1001
ACAD
1010
0.0
1020
0.0
1030
0.0
1001
ACDBBLOCKREPETAG
1070
     1
1071
      386
1005
126957
  0
LINE
  5
126958
  8
SLIM
 10
4415.0979635574649
 20
-204.0797313529103
 30
0.0
 11
4419.177694910376
 21
-199.99999999999909
 31
0.0
1001
ACAD
1010
0.0
1020
0.0
1030
0.0
1001
ACDBBLOCKREPETAG
1070
     1
1071
      387
1005
126958
  0
LINE
  5
126959
  8
SLIM
 10
4500.0
 20
-119.1776949103767
 30
0.0
 11
4504.0797313529047
 21
-115.09796355747081
 31
0.0
1001
ACAD
1010
0.0
1020
0.0
1030
0.0
1001
ACDBBLOCKREPETAG
1070
     1
1071
      388
1005
126959
  0
LINE
  5
12695A
  8
SLIM
 10
4419.177694910376
 20
-199.99999999999909
 30
0.0
 11
4420.0042702817491
 21
-199.1734246286274
 31
0.0
1001
ACAD
1010
0.0
1020
0.0
1030
0.0
1001
ACDBBLOCKREPETAG
1070
     1
1071
      389
1005
12695A
  0
LINE
  5
12695B
  8
SLIM
 10
4499.1734246286287
 20
-120.0042702817464
 30
0.0
 11
4500.0
 21
-119.1776949103767
 31
0.0
1001
ACAD
1010
0.0
1020
0.0
1030
0.0
1001
ACDBBLOCKREPETAG
1070
     1
1071
      390
1005
12695B
  0
LINE
  5
12695C
  8
SLIM
 10
4415.8899726208656
 20
-212.2679784105801
 30
0.0
 11
4420.3790899323558
 21
-207.77886109909031
 31
0.0
1001
ACAD
1010
0.0
1020
0.0
1030
0.0
1001
ACDBBLOCKREPETAG
1070
     1
1071
      391
1005
12695C
  0
LINE
  5
12695D
  8
SLIM
 10
4507.7788610990956
 20
-120.37908993234829
 30
0.0
 11
4512.2679784105758
 21
-115.8899726208699
 31
0.0
1001
ACAD
1010
0.0
1020
0.0
1030
0.0
1001
ACDBBLOCKREPETAG
1070
     1
1071
      392
1005
12695D
  0
LINE
  5
12695E
  8
SLIM
 10
4417.338265695148
 20
-219.7999414573672
 30
0.0
 11
4421.5361497034728
 21
-215.60205744904141
 31
0.0
1001
ACAD
1010
0.0
1020
0.0
1030
0.0
1001
ACDBBLOCKREPETAG
1070
     1
1071
      393
1005
12695E
  0
LINE
  5
12695F
  8
SLIM
 10
4515.6020574490467
 20
-121.5361497034671
 30
0.0
 11
4519.7999414573633
 21
-117.3382656951519
 31
0.0
1001
ACAD
1010
0.0
1020
0.0
1030
0.0
1001
ACDBBLOCKREPETAG
1070
     1
1071
      394
1005
12695F
  0
LINE
  5
126960
  8
SLIM
 10
4419.3312594063
 20
-226.78720386728409
 30
0.0
 11
4423.3179509938536
 21
-222.80051227972919
 31
0.0
1001
ACAD
1010
0.0
1020
0.0
1030
0.0
1001
ACDBBLOCKREPETAG
1070
     1
1071
      395
1005
126960
  0
LINE
  5
126961
  8
SLIM
 10
4522.8005122797349
 20
-123.317950993849
 30
0.0
 11
4526.7872038672804
 21
-119.3312594063039
 31
0.0
1001
ACAD
1010
0.0
1020
0.0
1030
0.0
1001
ACDBBLOCKREPETAG
1070
     1
1071
      396
1005
126961
  0
LINE
  5
126962
  8
SLIM
 10
4421.7957163186147
 20
-233.3030030760379
 30
0.0
 11
4425.6266406814702
 21
-229.4720787131819
 31
0.0
1001
ACAD
1010
0.0
1020
0.0
1030
0.0
1001
ACDBBLOCKREPETAG
1070
     1
1071
      397
1005
126962
  0
LINE
  5
126963
  8
SLIM
 10
4529.4720787131873
 20
-125.626640681466
 30
0.0
 11
4533.3030030760337
 21
-121.7957163186192
 31
0.0
1001
ACAD
1010
0.0
1020
0.0
1030
0.0
1001
ACDBBLOCKREPETAG
1070
     1
1071
      398
1005
126963
  0
LINE
  5
126964
  8
SLIM
 10
4424.6816635313398
 20
-239.3973119843823
 30
0.0
 11
4428.39789941449
 21
-235.6810761012305
 31
0.0
1001
ACAD
1010
0.0
1020
0.0
1030
0.0
1001
ACDBBLOCKREPETAG
1070
     1
1071
      399
1005
126964
  0
LINE
  5
126965
  8
SLIM
 10
4535.6810761012339
 20
-128.397899414487
 30
0.0
 11
4539.3973119843777
 21
-124.6816635313437
 31
0.0
1001
ACAD
1010
0.0
1020
0.0
1030
0.0
1001
ACDBBLOCKREPETAG
1070
     1
1071
      400
1005
126965
  0
LINE
  5
126966
  8
SLIM
 10
4427.9544611024203
 20
-245.10477053437131
 30
0.0
 11
4431.5882948477501
 21
-241.4709367890415
 31
0.0
1001
ACAD
1010
0.0
1020
0.0
1030
0.0
1001
ACDBBLOCKREPETAG
1070
     1
1071
      401
1005
126966
  0
LINE
  5
126967
  8
SLIM
 10
4541.4709367890464
 20
-131.5882948477456
 30
0.0
 11
4545.1047705343681
 21
-127.95446110242371
 31
0.0
1001
ACAD
1010
0.0
1020
0.0
1030
0.0
1001
ACDBBLOCKREPETAG
1070
     1
1071
      402
1005
126967
  0
LINE
  5
126968
  8
SLIM
 10
4431.5903319686613
 20
-250.44915578919949
 30
0.0
 11
4435.1685576784603
 21
-246.8709300794001
 31
0.0
1001
ACAD
1010
0.0
1020
0.0
1030
0.0
1001
ACDBBLOCKREPETAG
1070
     1
1071
      403
1005
126968
  0
LINE
  5
126969
  8
SLIM
 10
4546.8709300794053
 20
-135.16855767845641
 30
0.0
 11
4550.4491557891961
 21
-131.59033196866449
 31
0.0
1001
ACAD
1010
0.0
1020
0.0
1030
0.0
1001
ACDBBLOCKREPETAG
1070
     1
1071
      404
1005
126969
  0
LINE
  5
12696A
  8
SLIM
 10
4435.5737496925221
 20
-255.44599418640729
 30
0.0
 11
4439.1198129751428
 21
-251.8999309037857
 31
0.0
1001
ACAD
1010
0.0
1020
0.0
1030
0.0
1001
ACDBBLOCKREPETAG
1070
     1
1071
      405
1005
12696A
  0
LINE
  5
12696B
  8
SLIM
 10
4553.0197438789291
 20
-137.99999999999901
 30
0.0
 11
4555.4459941864034
 21
-135.57374969252561
 31
0.0
1001
ACAD
1010
0.0
1020
0.0
1030
0.0
1001
ACDBBLOCKREPETAG
1070
     1
1071
      406
1005
12696B
  0
LINE
  5
12696C
  8
SLIM
 10
4439.8959235991397
 20
-260.1040764008593
 30
0.0
 11
4443.4314575050803
 21
-256.56854249491983
 31
0.0
1001
ACAD
1010
0.0
1020
0.0
1030
0.0
1001
ACDBBLOCKREPETAG
1070
     1
1071
      407
1005
12696C
  0
LINE
  5
12696D
  8
SLIM
 10
4444.5540058135921
 20
-264.42625030747598
 30
0.0
 11
4448.1000690962119
 21
-260.8801870248555
 31
0.0
1001
ACAD
1010
0.0
1020
0.0
1030
0.0
1001
ACDBBLOCKREPETAG
1070
     1
1071
      408
1005
12696D
  0
LINE
  5
12696E
  8
SLIM
 10
4449.5508442108003
 20
-268.40966803133699
 30
0.0
 11
4453.1290699205956
 21
-264.83144232153961
 31
0.0
1001
ACAD
1010
0.0
1020
0.0
1030
0.0
1001
ACDBBLOCKREPETAG
1070
     1
1071
      409
1005
12696E
  0
LINE
  5
12696F
  8
SLIM
 10
4454.8952294656301
 20
-272.04553889757739
 30
0.0
 11
4458.5290632109554
 21
-268.41170515225082
 31
0.0
1001
ACAD
1010
0.0
1020
0.0
1030
0.0
1001
ACDBBLOCKREPETAG
1070
     1
1071
      410
1005
12696F
  0
LINE
  5
126970
  8
SLIM
 10
4460.6026880156178
 20
-275.31833646865709
 30
0.0
 11
4464.3189238987652
 21
-271.6021005855095
 31
0.0
1001
ACAD
1010
0.0
1020
0.0
1030
0.0
1001
ACDBBLOCKREPETAG
1070
     1
1071
      411
1005
126970
  0
LINE
  5
126971
  8
SLIM
 10
4466.6969969239617
 20
-278.20428368138141
 30
0.0
 11
4470.5279212868118
 21
-274.3733593185309
 31
0.0
1001
ACAD
1010
0.0
1020
0.0
1030
0.0
1001
ACDBBLOCKREPETAG
1070
     1
1071
      412
1005
126971
  0
LINE
  5
126972
  8
SLIM
 10
4473.2127961327169
 20
-280.66874059369638
 30
0.0
 11
4477.1994877202651
 21
-276.68204900614808
 31
0.0
1001
ACAD
1010
0.0
1020
0.0
1030
0.0
1001
ACDBBLOCKREPETAG
1070
     1
1071
      413
1005
126972
  0
LINE
  5
126973
  8
SLIM
 10
4480.200058542634
 20
-282.66173430484793
 30
0.0
 11
4484.3979425509524
 21
-278.46385029653032
 31
0.0
1001
ACAD
1010
0.0
1020
0.0
1030
0.0
1001
ACDBBLOCKREPETAG
1070
     1
1071
      414
1005
126973
  0
LINE
  5
126974
  8
SLIM
 10
4487.7320215894233
 20
-284.11002737912918
 30
0.0
 11
4492.2211389009026
 21
-279.62091006764939
 31
0.0
1001
ACAD
1010
0.0
1020
0.0
1030
0.0
1001
ACDBBLOCKREPETAG
1070
     1
1071
      415
1005
126974
  0
LINE
  5
126975
  8
SLIM
 10
4495.9202686470917
 20
-284.90203644252767
 30
0.0
 11
4500.0
 21
-280.82230508962152
 31
0.0
1001
ACAD
1010
0.0
1020
0.0
1030
0.0
1001
ACDBBLOCKREPETAG
1070
     1
1071
      416
1005
126975
  0
LINE
  5
126976
  8
SLIM
 10
4500.0
 20
-280.82230508962152
 30
0.0
 11
4500.8265753713722
 21
-279.99572971824813
 31
0.0
1001
ACAD
1010
0.0
1020
0.0
1030
0.0
1001
ACDBBLOCKREPETAG
1070
     1
1071
      417
1005
126976
  0
LINE
  5
126977
  8
SLIM
 10
4504.9466187997414
 20
-284.85594241094827
 30
0.0
 11
4510.4937959544759
 21
-279.308765256215
 31
0.0
1001
ACAD
1010
0.0
1020
0.0
1030
0.0
1001
ACDBBLOCKREPETAG
1070
     1
1071
      418
1005
126977
  0
LINE
  5
126978
  8
SLIM
 10
4515.1424853251383
 20
-283.64033200662283
 30
0.0
 11
4521.8144481734707
 21
-276.9683691582884
 31
0.0
1001
ACAD
1010
0.0
1020
0.0
1030
0.0
1001
ACDBBLOCKREPETAG
1070
     1
1071
      419
1005
126978
  0
LINE
  5
126979
  8
SLIM
 10
4527.2492255236639
 20
-280.51384792916332
 30
0.0
 11
4536.6542328166352
 21
-271.10884063619392
 31
0.0
1001
ACAD
1010
0.0
1020
0.0
1030
0.0
1001
ACDBBLOCKREPETAG
1070
     1
1071
      420
1005
126979
  0
LINE
  5
12697A
  8
SLIM
 10
4544.045159630421
 20
-272.6981699434769
 30
0.0
 11
4554.7433295738992
 21
-261.99999999999909
 31
0.0
1001
ACAD
1010
0.0
1020
0.0
1030
0.0
1001
ACDBBLOCKREPETAG
1070
     1
1071
      421
1005
12697A
  0
LINE
  5
12697B
  8
CENTER
 10
4580.0
 20
-199.99999999999909
 30
0.0
 11
4400.0
 21
-199.99999999999909
 31
0.0
1001
ACDBBLOCKREPETAG
1070
     1
1071
      187
1005
12697B
  0
LINE
  5
12697C
  8
CENTER
 10
4500.0
 20
-299.99999999999898
 30
0.0
 11
4500.0
 21
-99.999999999999091
 31
0.0
1001
ACDBBLOCKREPETAG
1070
     1
1071
      188
1005
12697C
  0
CIRCLE
  5
12697D
  8
OBJECT
 10
4500.0
 20
-199.99999999999909
 30
0.0
 40
70.0
1001
ACDBBLOCKREPETAG
1070
     1
1071
      189
1005
12697D
  0
CIRCLE
  5
12697E
  8
OBJECT
 10
4500.0
 20
-199.99999999999909
 30
0.0
 40
77.0
1001
ACDBBLOCKREPETAG
1070
     1
1071
      190
1005
12697E
  0
ARC
  5
12697F
  8
OBJECT
 10
4500.0
 20
-199.99999999999909
 30
0.0
 40
80.0
 50
50.805032573897762
 51
309.19496742610232
1001
ACDBBLOCKREPETAG
1070
     1
1071
      191
1005
12697F
  0
LINE
  5
126980
  8
OBJECT
 10
4545.6618002273244
 20
-137.99999999999909
 30
0.0
 11
4580.0
 21
-137.99999999999909
 31
0.0
1001
ACDBBLOCKREPETAG
1070
     1
1071
      192
1005
126980
  0
LINE
  5
126981
  8
OBJECT
 10
4545.6618002273244
 20
-261.99999999999909
 30
0.0
 11
4580.0
 21
-261.99999999999909
 31
0.0
1001
ACDBBLOCKREPETAG
1070
     1
1071
      193
1005
126981
  0
ARC
  5
126982
  8
OBJECT
 10
4500.0
 20
-199.99999999999909
 30
0.0
 40
85.0
 50
46.837102859815182
 51
313.16289714018478
1001
ACDBBLOCKREPETAG
1070
     1
1071
      202
1005
126982
  0
CIRCLE
  5
12698A
  8
OBJECT
 10
4500.0
 20
-199.99999999999909
 30
0.0
 40
53.5
1001
ACDBBLOCKREPETAG
1070
     1
1071
      356
1005
12698A
  0
POINT
  5
12698B
  8
DOTS
 10
4500.0
 20
-199.99999999999909
 30
0.0
 50
270.0
1001
ACDBBLOCKREPETAG
1070
     1
1071
      365
1005
12698B
  0
LINE
  5
1269E9
  8
SLIM
 10
4954.0
 20
-764.99999999999591
 30
0.0
 11
4954.0
 21
-1484.9999999999959
 31
0.0
  0
LINE
  5
1269EA
  8
SLIM
 10
5102.0
 20
-764.99999999999591
 30
0.0
 11
5102.0
 21
-1484.9999999999959
 31
0.0
  0
LINE
  5
1269EB
  8
SLIM
 10
4850.0
 20
-1484.9999999999959
 30
0.0
 11
4850.0
 21
-764.99999999999591
 31
0.0
  0
LINE
  5
1269EC
  8
SLIM
 10
5102.0
 20
-764.99999999999591
 30
0.0
 11
4850.0
 21
-764.99999999999591
 31
0.0
  0
LINE
  5
1269ED
  8
SLIM
 10
5102.0
 20
-812.99999999999591
 30
0.0
 11
4850.0
 21
-812.99999999999591
 31
0.0
  0
LINE
  5
1269F1
  8
SLIM
 10
5102.0
 20
-860.99999999999625
 30
0.0
 11
4850.0
 21
-860.99999999999625
 31
0.0
  0
LINE
  5
1269F2
  8
SLIM
 10
5102.0
 20
-908.99999999999636
 30
0.0
 11
4850.0
 21
-908.99999999999636
 31
0.0
  0
LINE
  5
1269F3
  8
SLIM
 10
5102.0
 20
-956.99999999999613
 30
0.0
 11
4850.0
 21
-956.99999999999613
 31
0.0
  0
LINE
  5
1269F9
  8
SLIM
 10
5102.0
 20
-1004.999999999996
 30
0.0
 11
4850.0
 21
-1004.999999999996
 31
0.0
  0
LINE
  5
1269FC
  8
SLIM
 10
5102.0
 20
-1052.9999999999959
 30
0.0
 11
4850.0
 21
-1052.9999999999959
 31
0.0
  0
LINE
  5
1269FF
  8
SLIM
 10
5102.0
 20
-1100.9999999999959
 30
0.0
 11
4850.0
 21
-1100.9999999999959
 31
0.0
  0
LINE
  5
126A02
  8
SLIM
 10
5102.0
 20
-1148.9999999999959
 30
0.0
 11
4850.0
 21
-1148.9999999999959
 31
0.0
  0
LINE
  5
126A05
  8
SLIM
 10
5102.0
 20
-1196.9999999999959
 30
0.0
 11
4850.0
 21
-1196.9999999999959
 31
0.0
  0
LINE
  5
126A07
  8
SLIM
 10
5102.0
 20
-1244.9999999999959
 30
0.0
 11
4850.0
 21
-1244.9999999999959
 31
0.0
  0
LINE
  5
126A09
  8
SLIM
 10
5102.0
 20
-1292.9999999999959
 30
0.0
 11
4850.0
 21
-1292.9999999999959
 31
0.0
  0
LINE
  5
126A0B
  8
SLIM
 10
5102.0
 20
-1340.9999999999959
 30
0.0
 11
4850.0
 21
-1340.9999999999959
 31
0.0
  0
LINE
  5
126A0D
  8
SLIM
 10
5102.0
 20
-1388.9999999999959
 30
0.0
 11
4850.0
 21
-1388.9999999999959
 31
0.0
  0
LINE
  5
126A0F
  8
SLIM
 10
5102.0
 20
-1436.9999999999959
 30
0.0
 11
4850.0
 21
-1436.9999999999959
 31
0.0
  0
LINE
  5
126A11
  8
SLIM
 10
5102.0
 20
-1484.9999999999959
 30
0.0
 11
4850.0
 21
-1484.9999999999959
 31
0.0
  0
LINE
  5
12738B
  8
OBJECT
 10
4423.0
 20
-571.0
 30
0.0
 11
4423.0
 21
-550.0
 31
0.0
1001
ACDBBLOCKREPETAG
1070
     1
1071
        0
1005
12738B
  0
LINE
  5
12738C
  8
OBJECT
 10
4423.0
 20
-550.0
 30
0.0
 11
4577.0
 21
-550.0
 31
0.0
1001
ACDBBLOCKREPETAG
1070
     1
1071
        1
1005
12738C
  0
LINE
  5
12738D
  8
HIDDEN
 10
4443.0
 20
-620.0
 30
0.0
 11
4557.0
 21
-620.0
 31
0.0
1001
ACDBBLOCKREPETAG
1070
     1
1071
        2
1005
12738D
  0
LINE
  5
12738E
  8
OBJECT
 10
4577.0
 20
-550.0
 30
0.0
 11
4577.0
 21
-571.0
 31
0.0
1001
ACDBBLOCKREPETAG
1070
     1
1071
        3
1005
12738E
  0
LINE
  5
12738F
  8
OBJECT
 10
4577.0
 20
-571.0
 30
0.0
 11
4423.0
 21
-571.0
 31
0.0
1001
ACDBBLOCKREPETAG
1070
     1
1071
        4
1005
12738F
  0
LINE
  5
127390
  8
CENTER
 10
4500.0
 20
-535.0
 30
0.0
 11
4500.0
 21
-890.0
 31
0.0
1001
ACDBBLOCKREPETAG
1070
     1
1071
        5
1005
127390
  0
LINE
  5
127391
  8
OBJECT
 10
4425.0
 20
-634.0
 30
0.0
 11
4425.0
 21
-878.0
 31
0.0
1001
ACDBBLOCKREPETAG
1070
     1
1071
        6
1005
127391
  0
LINE
  5
127392
  8
OBJECT
 10
4428.0
 20
-571.0
 30
0.0
 11
4428.0
 21
-634.0
 31
0.0
1001
ACDBBLOCKREPETAG
1070
     1
1071
        7
1005
127392
  0
LINE
  5
127393
  8
OBJECT
 10
4572.0
 20
-634.0
 30
0.0
 11
4572.0
 21
-571.0
 31
0.0
1001
ACDBBLOCKREPETAG
1070
     1
1071
        8
1005
127393
  0
LINE
  5
127394
  8
OBJECT
 10
4420.0
 20
-878.0
 30
0.0
 11
4580.0
 21
-878.0
 31
0.0
1001
ACDBBLOCKREPETAG
1070
     1
1071
        9
1005
127394
  0
LINE
  5
127395
  8
OBJECT
 10
4580.0
 20
-634.0
 30
0.0
 11
4425.0
 21
-634.0
 31
0.0
1001
ACDBBLOCKREPETAG
1070
     1
1071
       10
1005
127395
  0
LINE
  5
127396
  8
OBJECT
 10
4420.0
 20
-878.0
 30
0.0
 11
4420.0
 21
-890.0
 31
0.0
1001
ACDBBLOCKREPETAG
1070
     1
1071
       11
1005
127396
  0
LINE
  5
127397
  8
OBJECT
 10
4420.0
 20
-890.0
 30
0.0
 11
4580.0
 21
-890.0
 31
0.0
1001
ACDBBLOCKREPETAG
1070
     1
1071
       12
1005
127397
  0
LINE
  5
127398
  8
OBJECT
 10
4580.0
 20
-890.0
 30
0.0
 11
4580.0
 21
-878.0
 31
0.0
1001
ACDBBLOCKREPETAG
1070
     1
1071
       13
1005
127398
  0
LINE
  5
127399
  8
OBJECT
 10
4574.9999999998618
 20
-757.99999999985096
 30
0.0
 11
4575.0
 21
-878.0
 31
0.0
1001
ACDBBLOCKREPETAG
1070
     1
1071
       15
1005
127399
  0
LINE
  5
12739A
  8
OBJECT
 10
4574.9999908029849
 20
-757.99998602702181
 30
0.0
 11
4580.0
 21
-757.99998602702181
 31
0.0
1001
ACDBBLOCKREPETAG
1070
     1
1071
       16
1005
12739A
  0
ARC
  5
12739B
  8
OBJECT
 10
4700.6872746716726
 20
-749.40809941010752
 30
0.0
 40
170.6350503965856
 50
137.44134459184301
 51
149.91949581337221
1001
ACDBBLOCKREPETAG
1070
     1
1071
       17
1005
12739B
  0
ARC
  5
12739C
  8
OBJECT
 10
4618.8455987040506
 20
-705.88272669536479
 30
0.0
 40
78.072222021763665
 50
147.4551531038623
 51
164.66365997718671
1001
ACDBBLOCKREPETAG
1070
     1
1071
       18
1005
12739C
  0
ARC
  5
12739D
  8
OBJECT
 10
4585.7554349608718
 20
-696.0
 30
0.0
 40
43.55353926885617
 50
165.688452300753
 51
194.3115476992468
1001
ACDBBLOCKREPETAG
1070
     1
1071
       19
1005
12739D
  0
ARC
  5
12739E
  8
OBJECT
 10
4700.6872746716726
 20
-642.59190058989225
 30
0.0
 40
170.6350503965856
 50
210.08050418662771
 51
222.55865540815699
1001
ACDBBLOCKREPETAG
1070
     1
1071
       20
1005
12739E
  0
ARC
  5
12739F
  8
OBJECT
 10
4618.8455987040506
 20
-686.11727330463521
 30
0.0
 40
78.072222021763665
 50
195.3363400228132
 51
212.5448468961377
1001
ACDBBLOCKREPETAG
1070
     1
1071
       21
1005
12739F
  0
LINE
  5
1273A0
  8
OBJECT
 10
2423.0
 20
-571.0
 30
0.0
 11
2423.0
 21
-550.0
 31
0.0
1001
ACDBBLOCKREPETAG
1070
     1
1071
        0
1005
1273A0
  0
LINE
  5
1273A1
  8
OBJECT
 10
2423.0
 20
-550.0
 30
0.0
 11
2577.0
 21
-550.0
 31
0.0
1001
ACDBBLOCKREPETAG
1070
     1
1071
        1
1005
1273A1
  0
LINE
  5
1273A2
  8
HIDDEN
 10
2443.0
 20
-620.0
 30
0.0
 11
2557.0
 21
-620.0
 31
0.0
1001
ACDBBLOCKREPETAG
1070
     1
1071
        2
1005
1273A2
  0
LINE
  5
1273A3
  8
OBJECT
 10
2577.0
 20
-550.0
 30
0.0
 11
2577.0
 21
-571.0
 31
0.0
1001
ACDBBLOCKREPETAG
1070
     1
1071
        3
1005
1273A3
  0
LINE
  5
1273A4
  8
OBJECT
 10
2577.0
 20
-571.0
 30
0.0
 11
2423.0
 21
-571.0
 31
0.0
1001
ACDBBLOCKREPETAG
1070
     1
1071
        4
1005
1273A4
  0
LINE
  5
1273A5
  8
CENTER
 10
2500.0
 20
-535.0
 30
0.0
 11
2500.0
 21
-890.0
 31
0.0
1001
ACDBBLOCKREPETAG
1070
     1
1071
        5
1005
1273A5
  0
LINE
  5
1273A6
  8
OBJECT
 10
2425.0
 20
-634.0
 30
0.0
 11
2425.0
 21
-878.0
 31
0.0
1001
ACDBBLOCKREPETAG
1070
     1
1071
        6
1005
1273A6
  0
LINE
  5
1273A7
  8
OBJECT
 10
2428.0
 20
-571.0
 30
0.0
 11
2428.0
 21
-634.0
 31
0.0
1001
ACDBBLOCKREPETAG
1070
     1
1071
        7
1005
1273A7
  0
LINE
  5
1273A8
  8
OBJECT
 10
2572.0
 20
-634.0
 30
0.0
 11
2572.0
 21
-571.0
 31
0.0
1001
ACDBBLOCKREPETAG
1070
     1
1071
        8
1005
1273A8
  0
LINE
  5
1273A9
  8
OBJECT
 10
2420.0
 20
-878.0
 30
0.0
 11
2580.0
 21
-878.0
 31
0.0
1001
ACDBBLOCKREPETAG
1070
     1
1071
        9
1005
1273A9
  0
LINE
  5
1273AA
  8
OBJECT
 10
2580.0
 20
-634.0
 30
0.0
 11
2425.0
 21
-634.0
 31
0.0
1001
ACDBBLOCKREPETAG
1070
     1
1071
       10
1005
1273AA
  0
LINE
  5
1273AB
  8
OBJECT
 10
2420.0
 20
-878.0
 30
0.0
 11
2420.0
 21
-890.0
 31
0.0
1001
ACDBBLOCKREPETAG
1070
     1
1071
       11
1005
1273AB
  0
LINE
  5
1273AC
  8
OBJECT
 10
2420.0
 20
-890.0
 30
0.0
 11
2580.0
 21
-890.0
 31
0.0
1001
ACDBBLOCKREPETAG
1070
     1
1071
       12
1005
1273AC
  0
LINE
  5
1273AD
  8
OBJECT
 10
2580.0
 20
-890.0
 30
0.0
 11
2580.0
 21
-878.0
 31
0.0
1001
ACDBBLOCKREPETAG
1070
     1
1071
       13
1005
1273AD
  0
LINE
  5
1273AE
  8
OBJECT
 10
2574.9999999998622
 20
-757.99999999985096
 30
0.0
 11
2575.0
 21
-878.0
 31
0.0
1001
ACDBBLOCKREPETAG
1070
     1
1071
       15
1005
1273AE
  0
LINE
  5
1273AF
  8
OBJECT
 10
2574.9999908029849
 20
-757.99998602702181
 30
0.0
 11
2580.0
 21
-757.99998602702181
 31
0.0
1001
ACDBBLOCKREPETAG
1070
     1
1071
       16
1005
1273AF
  0
ARC
  5
1273B0
  8
OBJECT
 10
2700.6872746716731
 20
-749.40809941010752
 30
0.0
 40
170.6350503965856
 50
137.44134459184301
 51
149.91949581337221
1001
ACDBBLOCKREPETAG
1070
     1
1071
       17
1005
1273B0
  0
ARC
  5
1273B1
  8
OBJECT
 10
2618.8455987040511
 20
-705.88272669536479
 30
0.0
 40
78.072222021763665
 50
147.4551531038623
 51
164.6636599771798
1001
ACDBBLOCKREPETAG
1070
     1
1071
       18
1005
1273B1
  0
ARC
  5
1273B2
  8
OBJECT
 10
2585.7554349608731
 20
-696.0
 30
0.0
 40
43.55353926885617
 50
165.6884523007466
 51
194.3115476992534
1001
ACDBBLOCKREPETAG
1070
     1
1071
       19
1005
1273B2
  0
ARC
  5
1273B3
  8
OBJECT
 10
2700.6872746716731
 20
-642.59190058989225
 30
0.0
 40
170.6350503965856
 50
210.08050418662771
 51
222.55865540815699
1001
ACDBBLOCKREPETAG
1070
     1
1071
       20
1005
1273B3
  0
ARC
  5
1273B4
  8
OBJECT
 10
2618.8455987040511
 20
-686.11727330463521
 30
0.0
 40
78.072222021763665
 50
195.3363400228202
 51
212.5448468961377
1001
ACDBBLOCKREPETAG
1070
     1
1071
       21
1005
1273B4
  0
TEXT
  5
1273B5
  8
SLIM
 10
2032.5
 20
-1828.999999999998
 30
0.0
 40
28.0
  1
※ 対応P寸法　　310＜320＞～460（10mm単位。＜＞内は下枝75の場合）
 41
0.75
  0
TEXT
  5
1273B6
  8
SLIM
 10
4026.5999999999999
 20
-1818.000026666665
 30
0.0
 40
28.0
  1
※ 対応P寸法　　310＜320＞～440（10mm単位。＜＞内は下枝75の場合）
 41
0.75
  0
TEXT
  5
1273B7
  8
SLIM
 10
4026.5999999999999
 20
-1864.6666933333311
 30
0.0
 40
28.0
  1
※ 対応スラブ厚　180～（m-10）
 41
0.75
  0
TEXT
  5
1273B8
  8
SLIM
 10
4026.5999999999999
 20
-1911.333359999998
 30
0.0
 40
28.0
  1
※ 足切り可能寸法（最大）　680-P-m（コンパクトＬベンド使用なら+10）
 41
0.75
  0
TEXT
  5
1273B9
  8
SLIM
 10
4098.8999999999987
 20
-1983.3333066666651
 30
0.0
 40
28.0
  1
国土交通大臣認定・（一財）日本消防設備安全センター性能評定取得品
 41
0.75
  0
TEXT
  5
1273BA
  8
SLIM
 10
4131.1000000000004
 20
-2029.999973333332
 30
0.0
 40
28.0
  1
注）ご採用にあたり、認定書及び評定書の内容をご確認ください。
 41
0.75
  0
TEXT
  5
1273BB
  8
SLIM
 10
4970.0571428571429
 20
-1472.9999999999959
 30
0.0
 40
24.0
  1
190～240
 41
0.75
  0
TEXT
  5
1273BC
  8
SLIM
 10
4970.0571428571429
 20
-1424.9999999999959
 30
0.0
 40
24.0
  1
190～250
 41
0.75
  0
TEXT
  5
1273BD
  8
SLIM
 10
4970.0571428571429
 20
-1376.9999999999959
 30
0.0
 40
24.0
  1
190～260
 41
0.75
  0
TEXT
  5
1273BE
  8
SLIM
 10
4970.0571428571429
 20
-1328.9999999999959
 30
0.0
 40
24.0
  1
190～270
 41
0.75
  0
TEXT
  5
1273BF
  8
SLIM
 10
4970.0571428571429
 20
-1280.9999999999959
 30
0.0
 40
24.0
  1
190～280
 41
0.75
  0
TEXT
  5
1273C0
  8
SLIM
 10
4970.0571428571429
 20
-1232.9999999999959
 30
0.0
 40
24.0
  1
190～290
 41
0.75
  0
TEXT
  5
1273C1
  8
SLIM
 10
4970.0571428571429
 20
-1184.9999999999959
 30
0.0
 40
24.0
  1
190～300
 41
0.75
  0
TEXT
  5
1273C2
  8
SLIM
 10
4948.4571428571444
 20
-1530.9999999999959
 30
0.0
 40
24.0
  1
標準：m=240
 41
0.75
  0
TEXT
  5
1273C3
  8
SLIM
 10
4878.8571428571431
 20
-1472.9999999999959
 30
0.0
 40
24.0
  1
440
 41
0.75
  0
TEXT
  5
1273C4
  8
SLIM
 10
4878.8571428571431
 20
-1424.9999999999959
 30
0.0
 40
24.0
  1
430
 41
0.75
  0
TEXT
  5
1273C5
  8
SLIM
 10
4878.8571428571431
 20
-1376.9999999999959
 30
0.0
 40
24.0
  1
420
 41
0.75
  0
TEXT
  5
1273C6
  8
SLIM
 10
4880.5714285714284
 20
-1328.9999999999959
 30
0.0
 40
24.0
  1
410
 41
0.75
  0
TEXT
  5
1273C7
  8
SLIM
 10
4878.8571428571431
 20
-1280.9999999999959
 30
0.0
 40
24.0
  1
400
 41
0.75
  0
TEXT
  5
1273C8
  8
SLIM
 10
4878.8571428571431
 20
-1232.9999999999959
 30
0.0
 40
24.0
  1
390
 41
0.75
  0
TEXT
  5
1273C9
  8
SLIM
 10
4878.8571428571431
 20
-1184.9999999999959
 30
0.0
 40
24.0
  1
380
 41
0.75
  0
TEXT
  5
1273CA
  8
SLIM
 10
4878.8571428571431
 20
-1136.9999999999959
 30
0.0
 40
24.0
  1
370
 41
0.75
  0
TEXT
  5
1273CB
  8
SLIM
 10
4971.7714285714292
 20
-1136.9999999999959
 30
0.0
 40
24.0
  1
190～310
 41
0.75
  0
TEXT
  5
1273CC
  8
SLIM
 10
4878.8571428571431
 20
-1088.9999999999959
 30
0.0
 40
24.0
  1
360
 41
0.75
  0
TEXT
  5
1273CD
  8
SLIM
 10
4970.0571428571429
 20
-1088.9999999999959
 30
0.0
 40
24.0
  1
190～320
 41
0.75
  0
TEXT
  5
1273CE
  8
SLIM
 10
4878.8571428571431
 20
-1040.9999999999959
 30
0.0
 40
24.0
  1
350
 41
0.75
  0
TEXT
  5
1273CF
  8
SLIM
 10
4968.3428571428567
 20
-1040.9999999999959
 30
0.0
 40
24.0
  1
200～330
 41
0.75
  0
TEXT
  5
1273D0
  8
SLIM
 10
4878.8571428571431
 20
-992.99999999999636
 30
0.0
 40
24.0
  1
340
 41
0.75
  0
TEXT
  5
1273D1
  8
SLIM
 10
4970.0571428571429
 20
-992.99999999999636
 30
0.0
 40
24.0
  1
210～340
 41
0.75
  0
TEXT
  5
1273D2
  8
SLIM
 10
4878.8571428571431
 20
-944.99999999999613
 30
0.0
 40
24.0
  1
330
 41
0.75
  0
TEXT
  5
1273D3
  8
SLIM
 10
4968.3428571428567
 20
-944.99999999999613
 30
0.0
 40
24.0
  1
220～350
 41
0.75
  0
TEXT
  5
1273D4
  8
SLIM
 10
4878.8571428571431
 20
-896.99999999999613
 30
0.0
 40
24.0
  1
320
 41
0.75
  0
TEXT
  5
1273D5
  8
SLIM
 10
4968.3428571428567
 20
-896.99999999999613
 30
0.0
 40
24.0
  1
230～360
 41
0.75
  0
TEXT
  5
1273D6
  8
SLIM
 10
4873.8000000000002
 20
-800.99999999999579
 30
0.0
 40
24.0
  1
P寸法
 41
0.75
  0
TEXT
  5
1273D7
  8
SLIM
 10
4880.5714285714284
 20
-848.99999999999591
 30
0.0
 40
24.0
  1
310
 41
0.75
  0
TEXT
  5
1273D8
  8
SLIM
 10
4968.3428571428567
 20
-848.99999999999591
 30
0.0
 40
24.0
  1
240～370
 41
0.75
  0
TEXT
  5
1273D9
  8
SLIM
 10
4974.3428571428567
 20
-800.99999999999579
 30
0.0
 40
24.0
  1
対応m寸法
 41
0.75
  0
LINE
  5
1273DA
  8
OBJECT
 10
4633.0
 20
-137.99999999999909
 30
0.0
 11
4640.0
 21
-137.99999999999909
 31
0.0
1001
ACDBBLOCKREPETAG
1070
     1
1071
       47
1005
1273DA
  0
LINE
  5
1273DB
  8
OBJECT
 10
4640.0
 20
-137.99999999999909
 30
0.0
 11
4640.0
 21
-261.99999999999909
 31
0.0
1001
ACDBBLOCKREPETAG
1070
     1
1071
       48
1005
1273DB
  0
LINE
  5
1273DC
  8
OBJECT
 10
4640.0
 20
-261.99999999999909
 30
0.0
 11
4633.0
 21
-261.99999999999909
 31
0.0
1001
ACDBBLOCKREPETAG
1070
     1
1071
       49
1005
1273DC
  0
LINE
  5
1273DD
  8
OBJECT
 10
4633.0
 20
-261.99999999999909
 30
0.0
 11
4633.0
 21
-137.99999999999909
 31
0.0
1001
ACDBBLOCKREPETAG
1070
     1
1071
       50
1005
1273DD
  0
LINE
  5
1273DE
  8
CENTER
 10
4655.0
 20
-199.99999999999909
 30
0.0
 11
4580.0
 21
-199.99999999999909
 31
0.0
1001
ACDBBLOCKREPETAG
1070
     1
1071
       51
1005
1273DE
  0
LINE
  5
1273DF
  8
OBJECT
 10
4633.0
 20
-140.99999999999909
 30
0.0
 11
4597.0
 21
-140.99999999999909
 31
0.0
1001
ACDBBLOCKREPETAG
1070
     1
1071
       52
1005
1273DF
  0
LINE
  5
1273E0
  8
OBJECT
 10
4597.0
 20
-140.99999999999909
 30
0.0
 11
4597.0
 21
-258.99999999999909
 31
0.0
1001
ACDBBLOCKREPETAG
1070
     1
1071
       53
1005
1273E0
  0
LINE
  5
1273E1
  8
OBJECT
 10
4597.0
 20
-258.99999999999909
 30
0.0
 11
4633.0
 21
-258.99999999999909
 31
0.0
1001
ACDBBLOCKREPETAG
1070
     1
1071
       54
1005
1273E1
  0
LINE
  5
1273E2
  8
OBJECT
 10
4593.0
 20
-145.49999999999909
 30
0.0
 11
4586.0
 21
-145.49999999999909
 31
0.0
1001
ACDBBLOCKREPETAG
1070
     1
1071
       55
1005
1273E2
  0
LINE
  5
1273E3
  8
OBJECT
 10
4586.0
 20
-254.49999999999909
 30
0.0
 11
4593.0
 21
-254.49999999999909
 31
0.0
1001
ACDBBLOCKREPETAG
1070
     1
1071
       56
1005
1273E3
  0
LINE
  5
1273E4
  8
OBJECT
 10
4593.0
 20
-254.49999999999909
 30
0.0
 11
4593.0
 21
-145.49999999999909
 31
0.0
1001
ACDBBLOCKREPETAG
1070
     1
1071
       57
1005
1273E4
  0
LINE
  5
1273E5
  8
OBJECT
 10
4597.0
 20
-140.99999999999909
 30
0.0
 11
4593.0
 21
-145.49999999999909
 31
0.0
1001
ACDBBLOCKREPETAG
1070
     1
1071
       58
1005
1273E5
  0
LINE
  5
1273E6
  8
OBJECT
 10
4597.0
 20
-258.99999999999909
 30
0.0
 11
4593.0
 21
-254.49999999999909
 31
0.0
1001
ACDBBLOCKREPETAG
1070
     1
1071
       59
1005
1273E6
  0
LINE
  5
1273E7
  8
OBJECT
 10
4583.0
 20
-137.99999999999909
 30
0.0
 11
4580.0
 21
-137.99999999999909
 31
0.0
1001
ACDBBLOCKREPETAG
1070
     1
1071
       60
1005
1273E7
  0
ARC
  5
1273E8
  8
OBJECT
 10
4583.0
 20
-140.99999999999909
 30
0.0
 40
3.0
 50
0.0
 51
90.0
1001
ACDBBLOCKREPETAG
1070
     1
1071
       61
1005
1273E8
  0
LINE
  5
1273E9
  8
OBJECT
 10
4580.0
 20
-261.99999999999909
 30
0.0
 11
4583.0
 21
-261.99999999999909
 31
0.0
1001
ACDBBLOCKREPETAG
1070
     1
1071
       62
1005
1273E9
  0
ARC
  5
1273EA
  8
OBJECT
 10
4583.0
 20
-258.99999999999909
 30
0.0
 40
3.0
 50
270.0
 51
0.0
1001
ACDBBLOCKREPETAG
1070
     1
1071
       63
1005
1273EA
  0
LINE
  5
1273EB
  8
OBJECT
 10
4586.0
 20
-258.99999999999909
 30
0.0
 11
4586.0
 21
-140.99999999999909
 31
0.0
1001
ACDBBLOCKREPETAG
1070
     1
1071
       64
1005
1273EB
  0
LINE
  5
1273EC
  8
HIDDEN
 10
4588.0
 20
-155.49999999999909
 30
0.0
 11
4588.0
 21
-244.49999999999909
 31
0.0
1001
ACDBBLOCKREPETAG
1070
     1
1071
       65
1005
1273EC
  0
LINE
  5
1273ED
  8
OBJECT
 10
118.0
 20
-1362.9999999999991
 30
0.0
 11
118.0
 21
-1355.9999999999991
 31
0.0
1001
ACDBBLOCKREPETAG
1070
     1
1071
       34
1005
1273ED
  0
LINE
  5
1273EE
  8
OBJECT
 10
118.0
 20
-1355.9999999999991
 30
0.0
 11
242.0
 21
-1355.9999999999991
 31
0.0
1001
ACDBBLOCKREPETAG
1070
     1
1071
       35
1005
1273EE
  0
LINE
  5
1273EF
  8
OBJECT
 10
242.0
 20
-1355.9999999999991
 30
0.0
 11
242.0
 21
-1362.9999999999991
 31
0.0
1001
ACDBBLOCKREPETAG
1070
     1
1071
       36
1005
1273EF
  0
LINE
  5
1273F0
  8
OBJECT
 10
242.0
 20
-1362.9999999999991
 30
0.0
 11
118.0
 21
-1362.9999999999991
 31
0.0
1001
ACDBBLOCKREPETAG
1070
     1
1071
       37
1005
1273F0
  0
LINE
  5
1273F1
  8
OBJECT
 10
121.0
 20
-1362.9999999999991
 30
0.0
 11
121.0
 21
-1398.9999999999991
 31
0.0
1001
ACDBBLOCKREPETAG
1070
     1
1071
       38
1005
1273F1
  0
LINE
  5
1273F2
  8
OBJECT
 10
121.0
 20
-1398.9999999999991
 30
0.0
 11
239.0
 21
-1398.9999999999991
 31
0.0
1001
ACDBBLOCKREPETAG
1070
     1
1071
       39
1005
1273F2
  0
LINE
  5
1273F3
  8
OBJECT
 10
239.0
 20
-1398.9999999999991
 30
0.0
 11
239.0
 21
-1362.9999999999991
 31
0.0
1001
ACDBBLOCKREPETAG
1070
     1
1071
       40
1005
1273F3
  0
LINE
  5
1273F4
  8
OBJECT
 10
125.5
 20
-1402.9999999999991
 30
0.0
 11
125.5
 21
-1413.4999999999991
 31
0.0
1001
ACDBBLOCKREPETAG
1070
     1
1071
       41
1005
1273F4
  0
LINE
  5
1273F5
  8
OBJECT
 10
234.5
 20
-1413.4999999999991
 30
0.0
 11
234.5
 21
-1402.9999999999991
 31
0.0
1001
ACDBBLOCKREPETAG
1070
     1
1071
       42
1005
1273F5
  0
LINE
  5
1273F6
  8
OBJECT
 10
234.5
 20
-1402.9999999999991
 30
0.0
 11
125.5
 21
-1402.9999999999991
 31
0.0
1001
ACDBBLOCKREPETAG
1070
     1
1071
       43
1005
1273F6
  0
LINE
  5
1273F7
  8
OBJECT
 10
121.0
 20
-1398.9999999999991
 30
0.0
 11
125.5
 21
-1402.9999999999991
 31
0.0
1001
ACDBBLOCKREPETAG
1070
     1
1071
       44
1005
1273F7
  0
LINE
  5
1273F8
  8
OBJECT
 10
239.0
 20
-1398.9999999999991
 30
0.0
 11
234.5
 21
-1402.9999999999991
 31
0.0
1001
ACDBBLOCKREPETAG
1070
     1
1071
       45
1005
1273F8
  0
LINE
  5
1273F9
  8
OBJECT
 10
130.5
 20
-1418.4999999999991
 30
0.0
 11
130.50000000000091
 21
-1439.65508008702
 31
0.0
1001
ACDBBLOCKREPETAG
1070
     1
1071
       46
1005
1273F9
  0
LINE
  5
1273FA
  8
OBJECT
 10
229.5
 20
-1418.4999999999991
 30
0.0
 11
229.5
 21
-1439.6550800870209
 31
0.0
1001
ACDBBLOCKREPETAG
1070
     1
1071
       47
1005
1273FA
  0
LINE
  5
1273FB
  8
OBJECT
 10
125.5
 20
-1413.4999999999991
 30
0.0
 11
234.5
 21
-1413.4999999999991
 31
0.0
1001
ACDBBLOCKREPETAG
1070
     1
1071
       48
1005
1273FB
  0
LINE
  5
1273FC
  8
OBJECT
 10
130.5
 20
-1418.4999999999991
 30
0.0
 11
229.5
 21
-1418.4999999999991
 31
0.0
1001
ACDBBLOCKREPETAG
1070
     1
1071
       49
1005
1273FC
  0
LINE
  5
1273FD
  8
OBJECT
 10
125.5
 20
-1413.4999999999991
 30
0.0
 11
130.5
 21
-1418.4999999999991
 31
0.0
1001
ACDBBLOCKREPETAG
1070
     1
1071
       50
1005
1273FD
  0
LINE
  5
1273FE
  8
OBJECT
 10
229.5
 20
-1418.4999999999991
 30
0.0
 11
234.49999999999639
 21
-1413.4999999999991
 31
0.0
1001
ACDBBLOCKREPETAG
1070
     1
1071
       51
1005
1273FE
  0
INSERT
  5
1273FF
  8
SLIM
  2
*U18
 10
0.0
 20
0.0
 30
0.0
  0
LINE
  5
127400
  8
HIDDEN
 10
135.5
 20
-1407.9999999999991
 30
0.0
 11
224.5
 21
-1407.9999999999991
 31
0.0
1001
ACDBBLOCKREPETAG
1070
     1
1071
       65
1005
127400
  0
CIRCLE
  5
127401
  8
OBJECT
 10
180.0
 20
-1495.9999999999991
 30
0.0
 40
70.0
1001
ACDBBLOCKREPETAG
1070
     1
1071
       50
1005
127401
  0
CIRCLE
  5
127402
  8
OBJECT
 10
180.0
 20
-1495.9999999999991
 30
0.0
 40
75.0
1001
ACDBBLOCKREPETAG
1070
     1
1071
       51
1005
127402
  0
POINT
  5
127403
  8
DOTS
 10
180.0
 20
-1495.9999999999991
 30
0.0
1001
ACDBBLOCKREPETAG
1070
     1
1071
       63
1005
127403
  0
CIRCLE
  5
127404
  8
OBJECT
 10
180.0
 20
-1495.9999999999991
 30
0.0
 40
55.0
1001
ACDBBLOCKREPETAG
1070
     1
1071
       50
1005
127401
  0
LINE
  5
127405
  8
OBJECT
 10
485.0
 20
-898.99999999999932
 30
0.0
 11
485.0
 21
-891.9999999999992
 31
0.0
1001
ACDBBLOCKREPETAG
1070
     1
1071
       18
1005
127405
  0
LINE
  5
127406
  8
OBJECT
 10
485.0
 20
-891.9999999999992
 30
0.0
 11
595.0
 21
-891.9999999999992
 31
0.0
1001
ACDBBLOCKREPETAG
1070
     1
1071
       19
1005
127406
  0
LINE
  5
127407
  8
OBJECT
 10
595.0
 20
-891.9999999999992
 30
0.0
 11
595.0
 21
-898.99999999999932
 31
0.0
1001
ACDBBLOCKREPETAG
1070
     1
1071
       20
1005
127407
  0
LINE
  5
127408
  8
OBJECT
 10
595.0
 20
-898.99999999999932
 30
0.0
 11
485.0
 21
-898.99999999999932
 31
0.0
1001
ACDBBLOCKREPETAG
1070
     1
1071
       21
1005
127408
  0
LINE
  5
127409
  8
OBJECT
 10
488.0
 20
-898.99999999999932
 30
0.0
 11
488.0
 21
-934.99999999999875
 31
0.0
1001
ACDBBLOCKREPETAG
1070
     1
1071
       22
1005
127409
  0
LINE
  5
12740A
  8
OBJECT
 10
488.0
 20
-934.99999999999875
 30
0.0
 11
592.0
 21
-934.99999999999875
 31
0.0
1001
ACDBBLOCKREPETAG
1070
     1
1071
       23
1005
12740A
  0
LINE
  5
12740B
  8
OBJECT
 10
592.0
 20
-934.99999999999875
 30
0.0
 11
592.0
 21
-898.99999999999932
 31
0.0
1001
ACDBBLOCKREPETAG
1070
     1
1071
       24
1005
12740B
  0
LINE
  5
12740C
  8
OBJECT
 10
492.49999999999989
 20
-938.99999999999909
 30
0.0
 11
492.49999999999989
 21
-947.49999999999875
 31
0.0
1001
ACDBBLOCKREPETAG
1070
     1
1071
       25
1005
12740C
  0
LINE
  5
12740D
  8
OBJECT
 10
587.5
 20
-947.49999999999955
 30
0.0
 11
587.5
 21
-938.99999999999909
 31
0.0
1001
ACDBBLOCKREPETAG
1070
     1
1071
       26
1005
12740D
  0
LINE
  5
12740E
  8
OBJECT
 10
587.5
 20
-938.99999999999909
 30
0.0
 11
492.49999999999989
 21
-938.99999999999909
 31
0.0
1001
ACDBBLOCKREPETAG
1070
     1
1071
       27
1005
12740E
  0
LINE
  5
12740F
  8
OBJECT
 10
488.0
 20
-934.99999999999875
 30
0.0
 11
492.49999999999989
 21
-938.99999999999909
 31
0.0
1001
ACDBBLOCKREPETAG
1070
     1
1071
       28
1005
12740F
  0
LINE
  5
127410
  8
OBJECT
 10
592.0
 20
-934.99999999999875
 30
0.0
 11
587.5
 21
-938.99999999999909
 31
0.0
1001
ACDBBLOCKREPETAG
1070
     1
1071
       29
1005
127410
  0
LINE
  5
127411
  8
OBJECT
 10
589.5
 20
-947.50000000000034
 30
0.0
 11
490.5
 21
-947.49999999999875
 31
0.0
1001
ACDBBLOCKREPETAG
1070
     1
1071
       30
1005
127411
  0
LINE
  5
127412
  8
OBJECT
 10
490.5
 20
-947.49999999999875
 30
0.0
 11
490.5000000000008
 21
-975.65508008701954
 31
0.0
1001
ACDBBLOCKREPETAG
1070
     1
1071
       31
1005
127412
  0
LINE
  5
127413
  8
OBJECT
 10
589.5
 20
-947.50000000000034
 30
0.0
 11
589.5000000000008
 21
-975.65508008702056
 31
0.0
1001
ACDBBLOCKREPETAG
1070
     1
1071
       32
1005
127413
  0
INSERT
  5
127414
  8
SLIM
  2
*U19
 10
0.0
 20
0.0
 30
0.0
  0
LINE
  5
127415
  8
HIDDEN
 10
502.0
 20
-943.99999999999875
 30
0.0
 11
578.0
 21
-943.99999999999875
 31
0.0
1001
ACDBBLOCKREPETAG
1070
     1
1071
       57
1005
127415
  0
CIRCLE
  5
127416
  8
OBJECT
 10
540.0
 20
-1031.9999999999991
 30
0.0
 40
70.0
1001
ACDBBLOCKREPETAG
1070
     1
1071
       50
1005
127416
  0
CIRCLE
  5
127417
  8
OBJECT
 10
540.0
 20
-1031.9999999999991
 30
0.0
 40
75.0
1001
ACDBBLOCKREPETAG
1070
     1
1071
       51
1005
127417
  0
POINT
  5
127418
  8
DOTS
 10
540.0
 20
-1031.9999999999991
 30
0.0
1001
ACDBBLOCKREPETAG
1070
     1
1071
       63
1005
127418
  0
CIRCLE
  5
127419
  8
OBJECT
 10
540.0
 20
-1031.9999999999991
 30
0.0
 40
55.0
1001
ACDBBLOCKREPETAG
1070
     1
1071
       50
1005
127416
  0
LINE
  5
12741A
  8
OBJECT
 10
133.0
 20
-898.99999999999932
 30
0.0
 11
133.0
 21
-891.9999999999992
 31
0.0
1001
ACDBBLOCKREPETAG
1070
     1
1071
        0
1005
12741A
  0
LINE
  5
12741B
  8
OBJECT
 10
133.0
 20
-891.9999999999992
 30
0.0
 11
227.0
 21
-891.9999999999992
 31
0.0
1001
ACDBBLOCKREPETAG
1070
     1
1071
        1
1005
12741B
  0
LINE
  5
12741C
  8
OBJECT
 10
227.0
 20
-891.9999999999992
 30
0.0
 11
227.0
 21
-898.99999999999932
 31
0.0
1001
ACDBBLOCKREPETAG
1070
     1
1071
        2
1005
12741C
  0
LINE
  5
12741D
  8
OBJECT
 10
227.0
 20
-898.99999999999932
 30
0.0
 11
133.0
 21
-898.99999999999932
 31
0.0
1001
ACDBBLOCKREPETAG
1070
     1
1071
        3
1005
12741D
  0
LINE
  5
12741E
  8
OBJECT
 10
136.0
 20
-898.99999999999932
 30
0.0
 11
136.0
 21
-934.99999999999875
 31
0.0
1001
ACDBBLOCKREPETAG
1070
     1
1071
        4
1005
12741E
  0
LINE
  5
12741F
  8
OBJECT
 10
136.0
 20
-934.99999999999875
 30
0.0
 11
224.0
 21
-934.99999999999875
 31
0.0
1001
ACDBBLOCKREPETAG
1070
     1
1071
        5
1005
12741F
  0
LINE
  5
127420
  8
OBJECT
 10
224.0
 20
-934.99999999999875
 30
0.0
 11
224.0
 21
-898.99999999999932
 31
0.0
1001
ACDBBLOCKREPETAG
1070
     1
1071
        6
1005
127420
  0
LINE
  5
127421
  8
OBJECT
 10
140.5
 20
-938.99999999999909
 30
0.0
 11
140.5
 21
-947.49999999999875
 31
0.0
1001
ACDBBLOCKREPETAG
1070
     1
1071
        7
1005
127421
  0
LINE
  5
127422
  8
OBJECT
 10
219.5
 20
-947.49999999999955
 30
0.0
 11
219.5
 21
-938.99999999999909
 31
0.0
1001
ACDBBLOCKREPETAG
1070
     1
1071
        8
1005
127422
  0
LINE
  5
127423
  8
OBJECT
 10
219.5
 20
-938.99999999999909
 30
0.0
 11
140.5
 21
-938.99999999999909
 31
0.0
1001
ACDBBLOCKREPETAG
1070
     1
1071
        9
1005
127423
  0
LINE
  5
127424
  8
OBJECT
 10
136.0
 20
-934.99999999999875
 30
0.0
 11
140.5
 21
-938.99999999999909
 31
0.0
1001
ACDBBLOCKREPETAG
1070
     1
1071
       10
1005
127424
  0
LINE
  5
127425
  8
OBJECT
 10
224.0
 20
-934.99999999999875
 30
0.0
 11
219.5
 21
-938.99999999999909
 31
0.0
1001
ACDBBLOCKREPETAG
1070
     1
1071
       11
1005
127425
  0
LINE
  5
127426
  8
OBJECT
 10
226.5
 20
-947.49999999999989
 30
0.0
 11
133.5
 21
-947.49999999999875
 31
0.0
1001
ACDBBLOCKREPETAG
1070
     1
1071
       12
1005
127426
  0
ARC
  5
127427
  8
OBJECT
 10
133.5
 20
-950.49999999999841
 30
0.0
 40
3.0
 50
90.0
 51
180.0
1001
ACDBBLOCKREPETAG
1070
     1
1071
       13
1005
127427
  0
LINE
  5
127428
  8
OBJECT
 10
130.5
 20
-950.49999999999841
 30
0.0
 11
130.49999999999909
 21
-975.65508008702056
 31
0.0
1001
ACDBBLOCKREPETAG
1070
     1
1071
       15
1005
127428
  0
LINE
  5
127429
  8
OBJECT
 10
229.5
 20
-950.5
 30
0.0
 11
229.49999999999909
 21
-975.65508008701954
 31
0.0
1001
ACDBBLOCKREPETAG
1070
     1
1071
       16
1005
127429
  0
ARC
  5
12742A
  8
OBJECT
 10
226.5
 20
-950.5
 30
0.0
 40
3.0
 50
0.0
 51
90.0
1001
ACDBBLOCKREPETAG
1070
     1
1071
       17
1005
12742A
  0
INSERT
  5
12742B
  8
SLIM
  2
*U20
 10
0.0
 20
0.0
 30
0.0
  0
LINE
  5
12742C
  8
HIDDEN
 10
150.0
 20
-943.99999999999875
 30
0.0
 11
210.0
 21
-943.99999999999875
 31
0.0
1001
ACDBBLOCKREPETAG
1070
     1
1071
       56
1005
12742C
  0
CIRCLE
  5
12742D
  8
OBJECT
 10
180.0
 20
-1031.9999999999991
 30
0.0
 40
70.0
1001
ACDBBLOCKREPETAG
1070
     1
1071
       50
1005
12742D
  0
CIRCLE
  5
12742E
  8
OBJECT
 10
180.0
 20
-1031.9999999999991
 30
0.0
 40
75.0
1001
ACDBBLOCKREPETAG
1070
     1
1071
       51
1005
12742E
  0
POINT
  5
12742F
  8
DOTS
 10
180.0
 20
-1031.9999999999991
 30
0.0
1001
ACDBBLOCKREPETAG
1070
     1
1071
       63
1005
12742F
  0
CIRCLE
  5
127430
  8
OBJECT
 10
180.0
 20
-1031.9999999999991
 30
0.0
 40
55.0
1001
ACDBBLOCKREPETAG
1070
     1
1071
       50
1005
12742D
  0
TEXT
  5
127431
  8
SLIM
 10
97.714285714225042
 20
-1707.9999999996919
 30
0.0
 40
48.0
  1
A3000
 41
0.75
1001
ACDBBLOCKREPETAG
1070
     1
1071
      119
1005
0
  0
TEXT
  5
127432
  8
SLIM
 10
457.71428571410308
 20
-1243.9999999998499
 30
0.0
 40
48.0
  1
A2000
 41
0.75
1001
ACDBBLOCKREPETAG
1070
     1
1071
      119
1005
0
  0
TEXT
  5
127433
  8
SLIM
 10
101.1428571427964
 20
-1243.9999999998499
 30
0.0
 40
48.0
  1
A1000
 41
0.75
1001
ACDBBLOCKREPETAG
1070
     1
1071
      119
1005
0
  0
LINE
  5
127434
  8
OBJECT
 10
2633.0
 20
-137.99999999999909
 30
0.0
 11
2640.0
 21
-137.99999999999909
 31
0.0
1001
ACDBBLOCKREPETAG
1070
     1
1071
       47
1005
127434
  0
LINE
  5
127435
  8
OBJECT
 10
2640.0
 20
-137.99999999999909
 30
0.0
 11
2640.0
 21
-261.99999999999909
 31
0.0
1001
ACDBBLOCKREPETAG
1070
     1
1071
       48
1005
127435
  0
LINE
  5
127436
  8
OBJECT
 10
2640.0
 20
-261.99999999999909
 30
0.0
 11
2633.0
 21
-261.99999999999909
 31
0.0
1001
ACDBBLOCKREPETAG
1070
     1
1071
       49
1005
127436
  0
LINE
  5
127437
  8
OBJECT
 10
2633.0
 20
-261.99999999999909
 30
0.0
 11
2633.0
 21
-137.99999999999909
 31
0.0
1001
ACDBBLOCKREPETAG
1070
     1
1071
       50
1005
127437
  0
LINE
  5
127438
  8
CENTER
 10
2655.0
 20
-199.99999999999909
 30
0.0
 11
2580.0
 21
-199.99999999999909
 31
0.0
1001
ACDBBLOCKREPETAG
1070
     1
1071
       51
1005
127438
  0
LINE
  5
127439
  8
OBJECT
 10
2633.0
 20
-140.99999999999909
 30
0.0
 11
2597.0
 21
-140.99999999999909
 31
0.0
1001
ACDBBLOCKREPETAG
1070
     1
1071
       52
1005
127439
  0
LINE
  5
12743A
  8
OBJECT
 10
2597.0
 20
-140.99999999999909
 30
0.0
 11
2597.0
 21
-258.99999999999909
 31
0.0
1001
ACDBBLOCKREPETAG
1070
     1
1071
       53
1005
12743A
  0
LINE
  5
12743B
  8
OBJECT
 10
2597.0
 20
-258.99999999999909
 30
0.0
 11
2633.0
 21
-258.99999999999909
 31
0.0
1001
ACDBBLOCKREPETAG
1070
     1
1071
       54
1005
12743B
  0
LINE
  5
12743C
  8
OBJECT
 10
2593.0
 20
-145.49999999999909
 30
0.0
 11
2586.0
 21
-145.49999999999909
 31
0.0
1001
ACDBBLOCKREPETAG
1070
     1
1071
       55
1005
12743C
  0
LINE
  5
12743D
  8
OBJECT
 10
2586.0
 20
-254.49999999999909
 30
0.0
 11
2593.0
 21
-254.49999999999909
 31
0.0
1001
ACDBBLOCKREPETAG
1070
     1
1071
       56
1005
12743D
  0
LINE
  5
12743E
  8
OBJECT
 10
2593.0
 20
-254.49999999999909
 30
0.0
 11
2593.0
 21
-145.49999999999909
 31
0.0
1001
ACDBBLOCKREPETAG
1070
     1
1071
       57
1005
12743E
  0
LINE
  5
12743F
  8
OBJECT
 10
2597.0
 20
-140.99999999999909
 30
0.0
 11
2593.0
 21
-145.49999999999909
 31
0.0
1001
ACDBBLOCKREPETAG
1070
     1
1071
       58
1005
12743F
  0
LINE
  5
127440
  8
OBJECT
 10
2597.0
 20
-258.99999999999909
 30
0.0
 11
2593.0
 21
-254.49999999999909
 31
0.0
1001
ACDBBLOCKREPETAG
1070
     1
1071
       59
1005
127440
  0
LINE
  5
127441
  8
OBJECT
 10
2583.0
 20
-137.99999999999909
 30
0.0
 11
2580.0
 21
-137.99999999999909
 31
0.0
1001
ACDBBLOCKREPETAG
1070
     1
1071
       60
1005
127441
  0
ARC
  5
127442
  8
OBJECT
 10
2583.0
 20
-140.99999999999909
 30
0.0
 40
3.0
 50
0.0
 51
90.0
1001
ACDBBLOCKREPETAG
1070
     1
1071
       61
1005
127442
  0
LINE
  5
127443
  8
OBJECT
 10
2580.0
 20
-261.99999999999909
 30
0.0
 11
2583.0
 21
-261.99999999999909
 31
0.0
1001
ACDBBLOCKREPETAG
1070
     1
1071
       62
1005
127443
  0
ARC
  5
127444
  8
OBJECT
 10
2583.0
 20
-258.99999999999909
 30
0.0
 40
3.0
 50
270.0
 51
0.0
1001
ACDBBLOCKREPETAG
1070
     1
1071
       63
1005
127444
  0
LINE
  5
127445
  8
OBJECT
 10
2586.0
 20
-258.99999999999909
 30
0.0
 11
2586.0
 21
-140.99999999999909
 31
0.0
1001
ACDBBLOCKREPETAG
1070
     1
1071
       64
1005
127445
  0
LINE
  5
127446
  8
HIDDEN
 10
2588.0
 20
-155.49999999999909
 30
0.0
 11
2588.0
 21
-244.49999999999909
 31
0.0
1001
ACDBBLOCKREPETAG
1070
     1
1071
       65
1005
127446
  0
POLYLINE
  5
127447
  8
HIDDEN
 66
     1
 10
0.0
 20
0.0
 30
0.0
 70
     1
1001
ACDBBLOCKREPETAG
1070
     1
1071
      105
1005
0
  0
VERTEX
  5
1278C1
  8
HIDDEN
 10
359.99999999987779
 20
-799.9999999999992
 30
0.0
  0
VERTEX
  5
1278C2
  8
HIDDEN
 10
719.99999999975603
 20
-799.9999999999992
 30
0.0
  0
VERTEX
  5
1278C3
  8
HIDDEN
 10
719.99999999975603
 20
-1263.9999999998411
 30
0.0
  0
VERTEX
  5
1278C4
  8
HIDDEN
 10
359.99999999987779
 20
-1263.9999999998411
 30
0.0
  0
SEQEND
  5
1278C5
  8
HIDDEN
  0
POLYLINE
  5
127448
  8
HIDDEN
 66
     1
 10
0.0
 20
0.0
 30
0.0
 70
     1
1001
ACDBBLOCKREPETAG
1070
     1
1071
      110
1005
0
  0
VERTEX
  5
1278C6
  8
HIDDEN
 10
-0.0000000000002274
 20
-799.9999999999992
 30
0.0
  0
VERTEX
  5
1278C7
  8
HIDDEN
 10
359.99999999987779
 20
-799.9999999999992
 30
0.0
  0
VERTEX
  5
1278C8
  8
HIDDEN
 10
359.99999999987779
 20
-1263.9999999998411
 30
0.0
  0
VERTEX
  5
1278C9
  8
HIDDEN
 10
-0.0000000000002274
 20
-1263.9999999998411
 30
0.0
  0
SEQEND
  5
1278CA
  8
HIDDEN
  0
POLYLINE
  5
127449
  8
HIDDEN
 66
     1
 10
0.0
 20
0.0
 30
0.0
 70
     1
1001
ACDBBLOCKREPETAG
1070
     1
1071
      125
1005
0
  0
VERTEX
  5
1278CB
  8
HIDDEN
 10
-0.0000000000002274
 20
-1263.9999999998411
 30
0.0
  0
VERTEX
  5
1278CC
  8
HIDDEN
 10
359.99999999987779
 20
-1263.9999999998411
 30
0.0
  0
VERTEX
  5
1278CD
  8
HIDDEN
 10
359.99999999987779
 20
-1727.999999999681
 30
0.0
  0
VERTEX
  5
1278CE
  8
HIDDEN
 10
-0.0000000000002274
 20
-1727.999999999681
 30
0.0
  0
SEQEND
  5
1278CF
  8
HIDDEN
  0
POLYLINE
  5
12744A
  8
HIDDEN
 66
     1
 10
0.0
 20
0.0
 30
0.0
 70
     1
1001
ACDBBLOCKREPETAG
1070
     1
1071
      110
1005
0
  0
VERTEX
  5
1278D0
  8
HIDDEN
 10
-0.0000000000002274
 20
0.0
 30
0.0
  0
VERTEX
  5
1278D1
  8
HIDDEN
 10
359.99999999987779
 20
0.0
 30
0.0
  0
VERTEX
  5
1278D2
  8
HIDDEN
 10
359.99999999987779
 20
-463.99999999984158
 30
0.0
  0
VERTEX
  5
1278D3
  8
HIDDEN
 10
-0.0000000000002274
 20
-463.99999999984158
 30
0.0
  0
SEQEND
  5
1278D4
  8
HIDDEN
  0
LINE
  5
12744B
  8
SLIM
 10
4414.9999999999927
 20
-1152.2369265471771
 30
0.0
 11
4431.2369265471698
 21
-1136.0
 31
0.0
1001
GRADIENTCOLOR1ACI
1070
     5
1001
GRADIENTCOLOR2ACI
1070
     2
1001
ACAD
1010
0.0
1020
0.0
1030
0.0
  0
LINE
  5
12744C
  8
SLIM
 10
4414.9999999999927
 20
-1170.197438789314
 30
0.0
 11
4449.1974387893069
 21
-1136.0
 31
0.0
1001
GRADIENTCOLOR1ACI
1070
     5
1001
GRADIENTCOLOR2ACI
1070
     2
1001
ACAD
1010
0.0
1020
0.0
1030
0.0
  0
LINE
  5
12744D
  8
SLIM
 10
4414.9999999999955
 20
-1188.1579510314509
 30
0.0
 11
4467.1579510314441
 21
-1136.0
 31
0.0
1001
GRADIENTCOLOR1ACI
1070
     5
1001
GRADIENTCOLOR2ACI
1070
     2
1001
ACAD
1010
0.0
1020
0.0
1030
0.0
  0
LINE
  5
12744E
  8
SLIM
 10
4415.1454972543143
 20
-1205.9729660192691
 30
0.0
 11
4485.1184632735849
 21
-1136.0
 31
0.0
1001
GRADIENTCOLOR1ACI
1070
     5
1001
GRADIENTCOLOR2ACI
1070
     2
1001
ACAD
1010
0.0
1020
0.0
1030
0.0
  0
LINE
  5
12744F
  8
SLIM
 10
4417.1046274952441
 20
-1221.97434802048
 30
0.0
 11
4503.078975515722
 21
-1136.0
 31
0.0
1001
GRADIENTCOLOR1ACI
1070
     5
1001
GRADIENTCOLOR2ACI
1070
     2
1001
ACAD
1010
0.0
1020
0.0
1030
0.0
  0
LINE
  5
127450
  8
SLIM
 10
4419.0637577361713
 20
-1237.97573002169
 30
0.0
 11
4521.0394877578619
 21
-1136.0
 31
0.0
1001
GRADIENTCOLOR1ACI
1070
     5
1001
GRADIENTCOLOR2ACI
1070
     2
1001
ACAD
1010
0.0
1020
0.0
1030
0.0
  0
LINE
  5
127451
  8
SLIM
 10
4420.0
 20
-1255.0
 30
0.0
 11
4539.0
 21
-1136.0
 31
0.0
1001
GRADIENTCOLOR1ACI
1070
     5
1001
GRADIENTCOLOR2ACI
1070
     2
1001
ACAD
1010
0.0
1020
0.0
1030
0.0
  0
LINE
  5
127452
  8
SLIM
 10
4420.0
 20
-1272.9605122421381
 30
0.0
 11
4556.9605122421372
 21
-1136.0
 31
0.0
1001
GRADIENTCOLOR1ACI
1070
     5
1001
GRADIENTCOLOR2ACI
1070
     2
1001
ACAD
1010
0.0
1020
0.0
1030
0.0
  0
LINE
  5
127453
  8
SLIM
 10
4420.0
 20
-1290.921024484277
 30
0.0
 11
4574.921024484277
 21
-1136.0
 31
0.0
1001
GRADIENTCOLOR1ACI
1070
     5
1001
GRADIENTCOLOR2ACI
1070
     2
1001
ACAD
1010
0.0
1020
0.0
1030
0.0
  0
LINE
  5
127454
  8
SLIM
 10
4420.0
 20
-1308.8815367264151
 30
0.0
 11
4585.0000000000073
 21
-1143.8815367264081
 31
0.0
1001
GRADIENTCOLOR1ACI
1070
     5
1001
GRADIENTCOLOR2ACI
1070
     2
1001
ACAD
1010
0.0
1020
0.0
1030
0.0
  0
LINE
  5
127455
  8
SLIM
 10
4420.0
 20
-1326.8420489685529
 30
0.0
 11
4585.0000000000073
 21
-1161.842048968547
 31
0.0
1001
GRADIENTCOLOR1ACI
1070
     5
1001
GRADIENTCOLOR2ACI
1070
     2
1001
ACAD
1010
0.0
1020
0.0
1030
0.0
  0
LINE
  5
127456
  8
SLIM
 10
4420.0
 20
-1344.802561210691
 30
0.0
 11
4585.0000000000036
 21
-1179.8025612106869
 31
0.0
1001
GRADIENTCOLOR1ACI
1070
     5
1001
GRADIENTCOLOR2ACI
1070
     2
1001
ACAD
1010
0.0
1020
0.0
1030
0.0
  0
LINE
  5
127457
  8
SLIM
 10
4420.0
 20
-1362.7630734528291
 30
0.0
 11
4585.0000000000009
 21
-1197.7630734528259
 31
0.0
1001
GRADIENTCOLOR1ACI
1070
     5
1001
GRADIENTCOLOR2ACI
1070
     2
1001
ACAD
1010
0.0
1020
0.0
1030
0.0
  0
LINE
  5
127458
  8
SLIM
 10
4424.7235856949692
 20
-1376.0
 30
0.0
 11
4583.4738280308084
 21
-1217.249757664159
 31
0.0
1001
GRADIENTCOLOR1ACI
1070
     5
1001
GRADIENTCOLOR2ACI
1070
     2
1001
ACAD
1010
0.0
1020
0.0
1030
0.0
  0
LINE
  5
127459
  8
SLIM
 10
4430.0
 20
-1388.6840979371059
 30
0.0
 11
4442.6840979371063
 21
-1376.0
 31
0.0
1001
GRADIENTCOLOR1ACI
1070
     5
1001
GRADIENTCOLOR2ACI
1070
     2
1001
ACAD
1010
0.0
1020
0.0
1030
0.0
  0
LINE
  5
12745A
  8
SLIM
 10
4442.6840979371063
 20
-1376.0
 30
0.0
 11
4580.9680345671368
 21
-1237.7160633699691
 31
0.0
1001
GRADIENTCOLOR1ACI
1070
     5
1001
GRADIENTCOLOR2ACI
1070
     2
1001
ACAD
1010
0.0
1020
0.0
1030
0.0
  0
LINE
  5
12745B
  8
SLIM
 10
4441.6446101792453
 20
-1395.0
 30
0.0
 11
4460.6446101792462
 21
-1376.0
 31
0.0
1001
GRADIENTCOLOR1ACI
1070
     5
1001
GRADIENTCOLOR2ACI
1070
     2
1001
ACAD
1010
0.0
1020
0.0
1030
0.0
  0
LINE
  5
12745C
  8
SLIM
 10
4460.6446101792462
 20
-1376.0
 30
0.0
 11
4580.0
 21
-1256.6446101792451
 31
0.0
1001
GRADIENTCOLOR1ACI
1070
     5
1001
GRADIENTCOLOR2ACI
1070
     2
1001
ACAD
1010
0.0
1020
0.0
1030
0.0
  0
LINE
  5
12745D
  8
SLIM
 10
4459.6051224213843
 20
-1395.0
 30
0.0
 11
4478.6051224213843
 21
-1376.0
 31
0.0
1001
GRADIENTCOLOR1ACI
1070
     5
1001
GRADIENTCOLOR2ACI
1070
     2
1001
ACAD
1010
0.0
1020
0.0
1030
0.0
  0
LINE
  5
12745E
  8
SLIM
 10
4478.6051224213843
 20
-1376.0
 30
0.0
 11
4580.0
 21
-1274.6051224213829
 31
0.0
1001
GRADIENTCOLOR1ACI
1070
     5
1001
GRADIENTCOLOR2ACI
1070
     2
1001
ACAD
1010
0.0
1020
0.0
1030
0.0
  0
LINE
  5
12745F
  8
SLIM
 10
4477.5656346635215
 20
-1395.0
 30
0.0
 11
4496.5656346635215
 21
-1376.0
 31
0.0
1001
GRADIENTCOLOR1ACI
1070
     5
1001
GRADIENTCOLOR2ACI
1070
     2
1001
ACAD
1010
0.0
1020
0.0
1030
0.0
  0
LINE
  5
127460
  8
SLIM
 10
4496.5656346635215
 20
-1376.0
 30
0.0
 11
4579.9999999999991
 21
-1292.5656346635219
 31
0.0
1001
GRADIENTCOLOR1ACI
1070
     5
1001
GRADIENTCOLOR2ACI
1070
     2
1001
ACAD
1010
0.0
1020
0.0
1030
0.0
  0
LINE
  5
127461
  8
SLIM
 10
4495.5261469056586
 20
-1395.0
 30
0.0
 11
4514.5261469056613
 21
-1376.0
 31
0.0
1001
GRADIENTCOLOR1ACI
1070
     5
1001
GRADIENTCOLOR2ACI
1070
     2
1001
ACAD
1010
0.0
1020
0.0
1030
0.0
  0
LINE
  5
127462
  8
SLIM
 10
4514.5261469056613
 20
-1376.0
 30
0.0
 11
4579.9999999999991
 21
-1310.5261469056611
 31
0.0
1001
GRADIENTCOLOR1ACI
1070
     5
1001
GRADIENTCOLOR2ACI
1070
     2
1001
ACAD
1010
0.0
1020
0.0
1030
0.0
  0
LINE
  5
127463
  8
SLIM
 10
4513.4866591477976
 20
-1395.0
 30
0.0
 11
4532.4866591478003
 21
-1376.0
 31
0.0
1001
GRADIENTCOLOR1ACI
1070
     5
1001
GRADIENTCOLOR2ACI
1070
     2
1001
ACAD
1010
0.0
1020
0.0
1030
0.0
  0
LINE
  5
127464
  8
SLIM
 10
4532.4866591478003
 20
-1376.0
 30
0.0
 11
4579.9999999999991
 21
-1328.4866591477989
 31
0.0
1001
GRADIENTCOLOR1ACI
1070
     5
1001
GRADIENTCOLOR2ACI
1070
     2
1001
ACAD
1010
0.0
1020
0.0
1030
0.0
  0
LINE
  5
127465
  8
SLIM
 10
4531.4471713899356
 20
-1395.0
 30
0.0
 11
4550.4471713899356
 21
-1376.0
 31
0.0
1001
GRADIENTCOLOR1ACI
1070
     5
1001
GRADIENTCOLOR2ACI
1070
     2
1001
ACAD
1010
0.0
1020
0.0
1030
0.0
  0
LINE
  5
127466
  8
SLIM
 10
4550.4471713899356
 20
-1376.0
 30
0.0
 11
4579.9999999999982
 21
-1346.447171389937
 31
0.0
1001
GRADIENTCOLOR1ACI
1070
     5
1001
GRADIENTCOLOR2ACI
1070
     2
1001
ACAD
1010
0.0
1020
0.0
1030
0.0
  0
LINE
  5
127467
  8
SLIM
 10
4549.4076836320737
 20
-1395.0
 30
0.0
 11
4568.4076836320728
 21
-1376.0
 31
0.0
1001
GRADIENTCOLOR1ACI
1070
     5
1001
GRADIENTCOLOR2ACI
1070
     2
1001
ACAD
1010
0.0
1020
0.0
1030
0.0
  0
LINE
  5
127468
  8
SLIM
 10
4568.4076836320728
 20
-1376.0
 30
0.0
 11
4579.9999999999982
 21
-1364.407683632076
 31
0.0
1001
GRADIENTCOLOR1ACI
1070
     5
1001
GRADIENTCOLOR2ACI
1070
     2
1001
ACAD
1010
0.0
1020
0.0
1030
0.0
  0
LINE
  5
127469
  8
SLIM
 10
4567.3681958742118
 20
-1395.0
 30
0.0
 11
4570.0
 21
-1392.3681958742129
 31
0.0
1001
GRADIENTCOLOR1ACI
1070
     5
1001
GRADIENTCOLOR2ACI
1070
     2
1001
ACAD
1010
0.0
1020
0.0
1030
0.0
  0
LINE
  5
12746A
  8
OBJECT
 10
4414.9999999999918
 20
-1136.0
 30
0.0
 11
4414.9999999999973
 21
-1204.7846033990349
 31
0.0
1001
ACDBBLOCKREPETAG
1070
     1
1071
        1
1005
12746A
  0
LINE
  5
12746B
  8
OBJECT
 10
4585.0000000000073
 20
-1136.0
 30
0.0
 11
4585.0000000000009
 21
-1204.784603399042
 31
0.0
1001
ACDBBLOCKREPETAG
1070
     1
1071
        2
1005
12746B
  0
LINE
  5
12746C
  8
OBJECT
 10
4585.0000000000073
 20
-1136.0
 30
0.0
 11
4414.9999999999918
 21
-1136.0
 31
0.0
1001
ACDBBLOCKREPETAG
1070
     1
1071
        3
1005
12746C
  0
LINE
  5
12746D
  8
OBJECT
 10
4579.9999999999982
 20
-1376.0
 30
0.0
 11
4420.0
 21
-1376.0
 31
0.0
1001
ACDBBLOCKREPETAG
1070
     1
1071
        4
1005
12746D
  0
LINE
  5
12746E
  8
OBJECT
 10
4414.9999999999973
 20
-1204.7846033990349
 30
0.0
 11
4420.0
 21
-1245.6225774829859
 31
0.0
1001
ACDBBLOCKREPETAG
1070
     1
1071
        6
1005
12746E
  0
LINE
  5
12746F
  8
OBJECT
 10
4420.0
 20
-1245.6225774829859
 30
0.0
 11
4420.0
 21
-1376.0
 31
0.0
1001
ACDBBLOCKREPETAG
1070
     1
1071
        7
1005
12746F
  0
LINE
  5
127470
  8
OBJECT
 10
4585.0000000000009
 20
-1204.784603399042
 30
0.0
 11
4580.0
 21
-1245.6225774829859
 31
0.0
1001
ACDBBLOCKREPETAG
1070
     1
1071
        8
1005
127470
  0
LINE
  5
127471
  8
OBJECT
 10
4580.0
 20
-1245.6225774829859
 30
0.0
 11
4579.9999999999982
 21
-1376.0
 31
0.0
1001
ACDBBLOCKREPETAG
1070
     1
1071
        9
1005
127471
  0
LINE
  5
127472
  8
OBJECT
 10
4430.0
 20
-1376.0
 30
0.0
 11
4430.0
 21
-1395.0
 31
0.0
1001
ACDBBLOCKREPETAG
1070
     1
1071
       10
1005
127472
  0
LINE
  5
127473
  8
OBJECT
 10
4430.0
 20
-1395.0
 30
0.0
 11
4570.0
 21
-1395.0
 31
0.0
1001
ACDBBLOCKREPETAG
1070
     1
1071
       11
1005
127473
  0
LINE
  5
127474
  8
OBJECT
 10
4570.0
 20
-1395.0
 30
0.0
 11
4570.0
 21
-1376.0
 31
0.0
1001
ACDBBLOCKREPETAG
1070
     1
1071
       12
1005
127474
  0
LINE
  5
127475
  8
OBJECT
 10
4430.0
 20
-1484.999999999998
 30
0.0
 11
4570.0
 21
-1484.999999999998
 31
0.0
1001
ACDBBLOCKREPETAG
1070
     1
1071
        0
1005
127475
  0
LINE
  5
127476
  8
OBJECT
 10
4430.0
 20
-1484.999999999998
 30
0.0
 11
4430.0
 21
-1244.999999999998
 31
0.0
1001
ACDBBLOCKREPETAG
1070
     1
1071
        1
1005
127476
  0
LINE
  5
127477
  8
OBJECT
 10
4570.0
 20
-1484.999999999998
 30
0.0
 11
4570.0
 21
-1244.999999999998
 31
0.0
1001
ACDBBLOCKREPETAG
1070
     1
1071
        2
1005
127477
  0
LINE
  5
127478
  8
OBJECT
 10
4430.0
 20
-1244.999999999998
 30
0.0
 11
4570.0
 21
-1244.999999999998
 31
0.0
1001
ACDBBLOCKREPETAG
1070
     1
1071
        3
1005
127478
  0
LINE
  5
127479
  8
HIDDEN
 10
4437.5
 20
-1244.999999999998
 30
0.0
 11
4437.5
 21
-1484.999999999998
 31
0.0
1001
ACDBBLOCKREPETAG
1070
     1
1071
        4
1005
127479
  0
LINE
  5
12747A
  8
HIDDEN
 10
4562.5
 20
-1244.999999999998
 30
0.0
 11
4562.5
 21
-1484.999999999998
 31
0.0
1001
ACDBBLOCKREPETAG
1070
     1
1071
        5
1005
12747A
  0
LINE
  5
12747B
  8
CENTER
 10
4500.0
 20
-1175.0
 30
0.0
 11
4500.0
 21
-1499.999999999998
 31
0.0
1001
ACDBBLOCKREPETAG
1070
     1
1071
        6
1005
12747B
  0
LINE
  5
12747C
  8
OBJECT
 10
4425.0
 20
-1175.0
 30
0.0
 11
4425.0
 21
-1204.999999999998
 31
0.0
1001
ACDBBLOCKREPETAG
1070
     1
1071
        7
1005
12747C
  0
LINE
  5
12747D
  8
OBJECT
 10
4575.0000000000009
 20
-1175.0
 30
0.0
 11
4575.0
 21
-1204.999999999998
 31
0.0
1001
ACDBBLOCKREPETAG
1070
     1
1071
        8
1005
12747D
  0
LINE
  5
12747E
  8
OBJECT
 10
4425.0
 20
-1204.999999999998
 30
0.0
 11
4575.0
 21
-1204.999999999998
 31
0.0
1001
ACDBBLOCKREPETAG
1070
     1
1071
        9
1005
12747E
  0
LINE
  5
12747F
  8
OBJECT
 10
4425.0
 20
-1204.999999999998
 30
0.0
 11
4430.0
 21
-1244.999999999998
 31
0.0
1001
ACDBBLOCKREPETAG
1070
     1
1071
       10
1005
12747F
  0
LINE
  5
127480
  8
OBJECT
 10
4570.0
 20
-1244.999999999998
 30
0.0
 11
4575.0
 21
-1204.999999999998
 31
0.0
1001
ACDBBLOCKREPETAG
1070
     1
1071
       11
1005
127480
  0
LINE
  5
127481
  8
OBJECT
 10
2430.0
 20
-1484.999999999998
 30
0.0
 11
2570.0
 21
-1484.999999999998
 31
0.0
1001
ACDBBLOCKREPETAG
1070
     1
1071
        0
1005
127481
  0
LINE
  5
127482
  8
OBJECT
 10
2430.0
 20
-1484.999999999998
 30
0.0
 11
2430.0
 21
-1244.999999999998
 31
0.0
1001
ACDBBLOCKREPETAG
1070
     1
1071
        1
1005
127482
  0
LINE
  5
127483
  8
OBJECT
 10
2570.0
 20
-1484.999999999998
 30
0.0
 11
2570.0
 21
-1244.999999999998
 31
0.0
1001
ACDBBLOCKREPETAG
1070
     1
1071
        2
1005
127483
  0
LINE
  5
127484
  8
OBJECT
 10
2430.0
 20
-1244.999999999998
 30
0.0
 11
2570.0
 21
-1244.999999999998
 31
0.0
1001
ACDBBLOCKREPETAG
1070
     1
1071
        3
1005
127484
  0
LINE
  5
127485
  8
HIDDEN
 10
2437.5
 20
-1244.999999999998
 30
0.0
 11
2437.5
 21
-1484.999999999998
 31
0.0
1001
ACDBBLOCKREPETAG
1070
     1
1071
        4
1005
127485
  0
LINE
  5
127486
  8
HIDDEN
 10
2562.5
 20
-1244.999999999998
 30
0.0
 11
2562.5
 21
-1484.999999999998
 31
0.0
1001
ACDBBLOCKREPETAG
1070
     1
1071
        5
1005
127486
  0
LINE
  5
127487
  8
CENTER
 10
2500.0
 20
-1175.0
 30
0.0
 11
2500.0
 21
-1499.999999999998
 31
0.0
1001
ACDBBLOCKREPETAG
1070
     1
1071
        6
1005
127487
  0
LINE
  5
127488
  8
OBJECT
 10
2425.0
 20
-1175.0
 30
0.0
 11
2425.0
 21
-1204.999999999998
 31
0.0
1001
ACDBBLOCKREPETAG
1070
     1
1071
        7
1005
127488
  0
LINE
  5
127489
  8
OBJECT
 10
2575.000000000005
 20
-1175.0
 30
0.0
 11
2575.0
 21
-1204.999999999998
 31
0.0
1001
ACDBBLOCKREPETAG
1070
     1
1071
        8
1005
127489
  0
LINE
  5
12748A
  8
OBJECT
 10
2425.0
 20
-1204.999999999998
 30
0.0
 11
2575.0
 21
-1204.999999999998
 31
0.0
1001
ACDBBLOCKREPETAG
1070
     1
1071
        9
1005
12748A
  0
LINE
  5
12748B
  8
OBJECT
 10
2425.0
 20
-1204.999999999998
 30
0.0
 11
2430.0
 21
-1244.999999999998
 31
0.0
1001
ACDBBLOCKREPETAG
1070
     1
1071
       10
1005
12748B
  0
LINE
  5
12748C
  8
OBJECT
 10
2570.0
 20
-1244.999999999998
 30
0.0
 11
2575.0
 21
-1204.999999999998
 31
0.0
1001
ACDBBLOCKREPETAG
1070
     1
1071
       11
1005
12748C
  0
CIRCLE
  5
12748D
  8
OBJECT
 10
180.00000000004181
 20
-232.00000000017189
 30
0.0
 40
70.0
1001
ACDBBLOCKREPETAG
1070
     1
1071
       50
1005
12748D
  0
CIRCLE
  5
12748E
  8
OBJECT
 10
180.00000000004181
 20
-232.00000000017189
 30
0.0
 40
77.0
1001
ACDBBLOCKREPETAG
1070
     1
1071
       51
1005
12748E
  0
ARC
  5
12748F
  8
OBJECT
 10
180.00000000004181
 20
-232.00000000017189
 30
0.0
 40
80.0
 50
140.80503257377961
 51
39.194967426220252
1001
ACDBBLOCKREPETAG
1070
     1
1071
       52
1005
12748F
  0
LINE
  5
127490
  8
OBJECT
 10
118.00000000004179
 20
-186.3381997728473
 30
0.0
 11
118.00000000004179
 21
-152.00000000017181
 31
0.0
1001
ACDBBLOCKREPETAG
1070
     1
1071
       53
1005
127490
  0
LINE
  5
127491
  8
OBJECT
 10
242.00000000004181
 20
-186.3381997728473
 30
0.0
 11
242.00000000004181
 21
-152.00000000017181
 31
0.0
1001
ACDBBLOCKREPETAG
1070
     1
1071
       54
1005
127491
  0
POINT
  5
127492
  8
DOTS
 10
180.00000000004181
 20
-232.00000000017189
 30
0.0
1001
ACDBBLOCKREPETAG
1070
     1
1071
       63
1005
127492
  0
CIRCLE
  5
127493
  8
OBJECT
 10
180.00000000004181
 20
-232.00000000017189
 30
0.0
 40
53.5
1001
ACDBBLOCKREPETAG
1070
     1
1071
      157
1005
127493
  0
INSERT
  5
127494
  8
SLIM
  2
*U21
 10
0.0
 20
0.0
 30
0.0
  0
LINE
  5
127495
  8
OBJECT
 10
118.00000000004179
 20
-99.000000000171866
 30
0.0
 11
118.00000000004179
 21
-92.000000000171866
 31
0.0
1001
ACDBBLOCKREPETAG
1070
     1
1071
       39
1005
127495
  0
LINE
  5
127496
  8
OBJECT
 10
118.00000000004179
 20
-92.000000000171866
 30
0.0
 11
242.00000000004181
 21
-92.000000000171866
 31
0.0
1001
ACDBBLOCKREPETAG
1070
     1
1071
       40
1005
127496
  0
LINE
  5
127497
  8
OBJECT
 10
242.00000000004181
 20
-92.000000000171866
 30
0.0
 11
242.00000000004181
 21
-99.000000000171866
 31
0.0
1001
ACDBBLOCKREPETAG
1070
     1
1071
       41
1005
127497
  0
LINE
  5
127498
  8
OBJECT
 10
242.00000000004181
 20
-99.000000000171866
 30
0.0
 11
118.00000000004179
 21
-99.000000000171866
 31
0.0
1001
ACDBBLOCKREPETAG
1070
     1
1071
       42
1005
127498
  0
LINE
  5
127499
  8
OBJECT
 10
121.00000000004179
 20
-99.000000000171866
 30
0.0
 11
121.00000000004179
 21
-135.00000000017181
 31
0.0
1001
ACDBBLOCKREPETAG
1070
     1
1071
       43
1005
127499
  0
LINE
  5
12749A
  8
OBJECT
 10
121.00000000004179
 20
-135.00000000017181
 30
0.0
 11
239.00000000004181
 21
-135.00000000017181
 31
0.0
1001
ACDBBLOCKREPETAG
1070
     1
1071
       44
1005
12749A
  0
LINE
  5
12749B
  8
OBJECT
 10
239.00000000004181
 20
-135.00000000017181
 30
0.0
 11
239.00000000004181
 21
-99.000000000171866
 31
0.0
1001
ACDBBLOCKREPETAG
1070
     1
1071
       45
1005
12749B
  0
LINE
  5
12749C
  8
OBJECT
 10
125.50000000004179
 20
-139.00000000017181
 30
0.0
 11
125.50000000004179
 21
-146.00000000017181
 31
0.0
1001
ACDBBLOCKREPETAG
1070
     1
1071
       46
1005
12749C
  0
LINE
  5
12749D
  8
OBJECT
 10
234.50000000004181
 20
-146.00000000017181
 30
0.0
 11
234.50000000004181
 21
-139.00000000017181
 31
0.0
1001
ACDBBLOCKREPETAG
1070
     1
1071
       47
1005
12749D
  0
LINE
  5
12749E
  8
OBJECT
 10
234.50000000004181
 20
-139.00000000017181
 30
0.0
 11
125.50000000004179
 21
-139.00000000017181
 31
0.0
1001
ACDBBLOCKREPETAG
1070
     1
1071
       48
1005
12749E
  0
LINE
  5
12749F
  8
OBJECT
 10
121.00000000004179
 20
-135.00000000017181
 30
0.0
 11
125.50000000004179
 21
-139.00000000017181
 31
0.0
1001
ACDBBLOCKREPETAG
1070
     1
1071
       49
1005
12749F
  0
LINE
  5
1274A0
  8
OBJECT
 10
239.00000000004181
 20
-135.00000000017181
 30
0.0
 11
234.50000000004181
 21
-139.00000000017181
 31
0.0
1001
ACDBBLOCKREPETAG
1070
     1
1071
       50
1005
1274A0
  0
LINE
  5
1274A1
  8
OBJECT
 10
118.00000000004179
 20
-149.00000000017101
 30
0.0
 11
118.00000000004179
 21
-152.00000000017181
 31
0.0
1001
ACDBBLOCKREPETAG
1070
     1
1071
       51
1005
1274A1
  0
ARC
  5
1274A2
  8
OBJECT
 10
121.00000000004179
 20
-149.00000000017101
 30
0.0
 40
3.0
 50
90.0
 51
180.0
1001
ACDBBLOCKREPETAG
1070
     1
1071
       52
1005
1274A2
  0
LINE
  5
1274A3
  8
OBJECT
 10
242.00000000004181
 20
-152.00000000017181
 30
0.0
 11
242.00000000004181
 21
-149.0000000001728
 31
0.0
1001
ACDBBLOCKREPETAG
1070
     1
1071
       53
1005
1274A3
  0
ARC
  5
1274A4
  8
OBJECT
 10
239.00000000004181
 20
-149.0000000001728
 30
0.0
 40
3.0
 50
0.0
 51
90.0
1001
ACDBBLOCKREPETAG
1070
     1
1071
       54
1005
1274A4
  0
LINE
  5
1274A5
  8
OBJECT
 10
239.00000000004181
 20
-146.0000000001728
 30
0.0
 11
121.00000000004179
 21
-146.00000000017101
 31
0.0
1001
ACDBBLOCKREPETAG
1070
     1
1071
       55
1005
1274A5
  0
LINE
  5
1274A6
  8
HIDDEN
 10
135.50000000004181
 20
-144.00000000017189
 30
0.0
 11
224.50000000004181
 21
-144.00000000017189
 31
0.0
1001
ACDBBLOCKREPETAG
1070
     1
1071
      426
1005
1274A6
  0
TEXT
  5
1274A7
  8
SLIM
 10
0.000003566523219
 20
-775.9999954146823
 30
0.0
 40
79.999999999972701
  1
下部枝管バリエーション
 41
0.75
1001
ACDBBLOCKREPETAG
1070
     1
1071
      119
1005
120BCB
  0
LINE
  5
1274A8
  8
DIM
 10
4404.9999999999936
 20
-1135.9999999999991
 30
0.0
 11
4333.1164560757752
 21
-1135.9999999999991
 31
0.0
  0
LINE
  5
1274A9
  8
DIM
 10
4410.0
 20
-1376.0
 30
0.0
 11
4333.1164560757752
 21
-1376.0
 31
0.0
  0
LINE
  5
1274AA
  8
DIM
 10
4343.1164560757752
 20
-1155.9999999999991
 30
0.0
 11
4343.1164560757752
 21
-1356.0
 31
0.0
  0
INSERT
  5
1274AB
  8
DIM
  2
_OPEN30
 10
4343.1164560757752
 20
-1135.9999999999991
 30
0.0
 41
20.0
 42
20.0
 43
20.0
 50
90.0
  0
INSERT
  5
1274AC
  8
DIM
  2
_OPEN30
 10
4343.1164560757752
 20
-1376.0
 30
0.0
 41
20.0
 42
20.0
 43
20.0
 50
270.0
  0
INSERT
  5
1274AD
  8
SLIM
  2
*U22
 10
0.0
 20
0.0
 30
0.0
  0
LINE
  5
1274AE
  8
DIM
 10
4665.0
 20
-696.0
 30
0.0
 11
4719.4245816727571
 21
-696.0
 31
0.0
  0
LINE
  5
1274AF
  8
DIM
 10
4650.0
 20
-1136.0000000000041
 30
0.0
 11
4719.4245816727571
 21
-1136.0000000000041
 31
0.0
  0
LINE
  5
1274B0
  8
DIM
 10
4709.4245816727562
 20
-716.0
 30
0.0
 11
4709.4245816727562
 21
-1116.0000000000041
 31
0.0
  0
INSERT
  5
1274B1
  8
DIM
  2
_OPEN30
 10
4709.4245816727562
 20
-696.0
 30
0.0
 41
20.0
 42
20.0
 43
20.0
 50
90.0
  0
INSERT
  5
1274B2
  8
DIM
  2
_OPEN30
 10
4709.4245816727562
 20
-1136.0000000000041
 30
0.0
 41
20.0
 42
20.0
 43
20.0
 50
270.0
  0
INSERT
  5
1274B3
  8
SLIM
  2
*U23
 10
0.0
 20
0.0
 30
0.0
  0
LINE
  5
1274B4
  8
OBJECT
 10
4575.0
 20
-890.0
 30
0.0
 11
4575.0
 21
-1027.500000000065
 31
0.0
1001
ACDBBLOCKREPETAG
1070
     1
1071
        1
1005
1274B4
  0
LINE
  5
1274B5
  8
OBJECT
 10
4425.0
 20
-889.99999999999409
 30
0.0
 11
4425.0
 21
-1163.0
 31
0.0
1001
ACDBBLOCKREPETAG
1070
     1
1071
        3
1005
1274B5
  0
LINE
  5
1274B6
  8
CENTER
 10
4500.0
 20
-890.0
 30
0.0
 11
4500.0
 21
-1175.0
 31
0.0
1001
ACDBBLOCKREPETAG
1070
     1
1071
        6
1005
1274B6
  0
LINE
  5
1274B7
  8
OBJECT
 10
4420.0
 20
-1175.0
 30
0.0
 11
4580.0
 21
-1175.0
 31
0.0
1001
ACDBBLOCKREPETAG
1070
     1
1071
        7
1005
1274B7
  0
LINE
  5
1274B8
  8
OBJECT
 10
4420.0
 20
-1163.0
 30
0.0
 11
4580.0
 21
-1163.0
 31
0.0
1001
ACDBBLOCKREPETAG
1070
     1
1071
        8
1005
1274B8
  0
LINE
  5
1274B9
  8
OBJECT
 10
4420.0
 20
-1163.0
 30
0.0
 11
4420.0
 21
-1175.0
 31
0.0
1001
ACDBBLOCKREPETAG
1070
     1
1071
        9
1005
1274B9
  0
LINE
  5
1274BA
  8
OBJECT
 10
4580.0
 20
-1163.0
 30
0.0
 11
4580.0
 21
-1175.0
 31
0.0
1001
ACDBBLOCKREPETAG
1070
     1
1071
       10
1005
1274BA
  0
LINE
  5
1274BB
  8
OBJECT
 10
4633.0
 20
-1029.0
 30
0.0
 11
4640.0
 21
-1029.0
 31
0.0
1001
ACDBBLOCKREPETAG
1070
     1
1071
       23
1005
1274BB
  0
LINE
  5
1274BC
  8
OBJECT
 10
4640.0
 20
-1029.0
 30
0.0
 11
4640.0
 21
-1136.0
 31
0.0
1001
ACDBBLOCKREPETAG
1070
     1
1071
       24
1005
1274BC
  0
LINE
  5
1274BD
  8
OBJECT
 10
4584.5
 20
-1030.500000000065
 30
0.0
 11
4584.5
 21
-1133.5
 31
0.0
1001
ACDBBLOCKREPETAG
1070
     1
1071
       25
1005
1274BD
  0
ARC
  5
1274BE
  8
OBJECT
 10
4581.5
 20
-1030.500000000065
 30
0.0
 40
3.0
 50
0.0
 51
90.0
1001
ACDBBLOCKREPETAG
1070
     1
1071
       26
1005
1274BE
  0
LINE
  5
1274BF
  8
OBJECT
 10
4633.0
 20
-1136.0
 30
0.0
 11
4633.0
 21
-1029.0
 31
0.0
1001
ACDBBLOCKREPETAG
1070
     1
1071
       27
1005
1274BF
  0
LINE
  5
1274C0
  8
CENTER
 10
4655.0
 20
-1084.0
 30
0.0
 11
4541.3449199130037
 21
-1084.000000000065
 31
0.0
1001
ACDBBLOCKREPETAG
1070
     1
1071
       28
1005
1274C0
  0
LINE
  5
1274C1
  8
OBJECT
 10
4633.0
 20
-1032.0
 30
0.0
 11
4597.0
 21
-1032.0
 31
0.0
1001
ACDBBLOCKREPETAG
1070
     1
1071
       29
1005
1274C1
  0
LINE
  5
1274C2
  8
OBJECT
 10
4597.0
 20
-1032.0
 30
0.0
 11
4597.0
 21
-1136.0
 31
0.0
1001
ACDBBLOCKREPETAG
1070
     1
1071
       30
1005
1274C2
  0
LINE
  5
1274C3
  8
OBJECT
 10
4597.0
 20
-1136.0
 30
0.0
 11
4640.0
 21
-1136.0
 31
0.0
1001
ACDBBLOCKREPETAG
1070
     1
1071
       31
1005
1274C3
  0
LINE
  5
1274C4
  8
OBJECT
 10
4593.0
 20
-1036.5
 30
0.0
 11
4584.5
 21
-1036.5
 31
0.0
1001
ACDBBLOCKREPETAG
1070
     1
1071
       32
1005
1274C4
  0
LINE
  5
1274C5
  8
OBJECT
 10
4584.5
 20
-1131.5
 30
0.0
 11
4593.0
 21
-1131.5
 31
0.0
1001
ACDBBLOCKREPETAG
1070
     1
1071
       33
1005
1274C5
  0
LINE
  5
1274C6
  8
OBJECT
 10
4593.0
 20
-1131.5
 30
0.0
 11
4593.0
 21
-1036.5
 31
0.0
1001
ACDBBLOCKREPETAG
1070
     1
1071
       34
1005
1274C6
  0
LINE
  5
1274C7
  8
OBJECT
 10
4597.0
 20
-1032.0
 30
0.0
 11
4593.0
 21
-1036.5
 31
0.0
1001
ACDBBLOCKREPETAG
1070
     1
1071
       35
1005
1274C7
  0
LINE
  5
1274C8
  8
OBJECT
 10
4597.0
 20
-1136.0
 30
0.0
 11
4593.0
 21
-1131.5
 31
0.0
1001
ACDBBLOCKREPETAG
1070
     1
1071
       36
1005
1274C8
  0
LINE
  5
1274C9
  8
HIDDEN
 10
4588.0
 20
-1046.0
 30
0.0
 11
4588.0
 21
-1122.0
 31
0.0
1001
ACDBBLOCKREPETAG
1070
     1
1071
       37
1005
1274C9
  0
ARC
  5
1274CA
  8
OBJECT
 10
4664.8782728787719
 20
-1092.409507261229
 30
0.0
 40
110.86635228309
 50
144.1634274193047
 51
163.04035380434561
1001
ACDBBLOCKREPETAG
1070
     1
1071
       38
1005
1274CA
  0
ARC
  5
1274CB
  8
OBJECT
 10
4617.1359887769049
 20
-1077.287749718449
 30
0.0
 40
60.791749880358971
 50
163.54720465221311
 51
179.72879698282651
1001
ACDBBLOCKREPETAG
1070
     1
1071
       39
1005
1274CB
  0
ARC
  5
1274CC
  8
OBJECT
 10
4617.1359956562483
 20
-1083.7122497599
 30
0.0
 40
60.79175676209487
 50
180.2712034781452
 51
196.45277946052011
1001
ACDBBLOCKREPETAG
1070
     1
1071
       40
1005
1274CC
  0
ARC
  5
1274CD
  8
OBJECT
 10
4664.8782728787719
 20
-1068.590492738836
 30
0.0
 40
110.8663522830916
 50
196.95964619565439
 51
215.8365725806953
1001
ACDBBLOCKREPETAG
1070
     1
1071
       41
1005
1274CD
  0
LINE
  5
1274CE
  8
OBJECT
 10
4556.3449199130037
 20
-1077.0000000000359
 30
0.0
 11
4556.3449199130037
 21
-1084.000000000033
 31
0.0
1001
ACDBBLOCKREPETAG
1070
     1
1071
       42
1005
1274CE
  0
LINE
  5
1274CF
  8
OBJECT
 10
4575.0
 20
-1027.500000000065
 30
0.0
 11
4581.5
 21
-1027.500000000065
 31
0.0
1001
ACDBBLOCKREPETAG
1070
     1
1071
       43
1005
1274CF
  0
LINE
  5
1274D0
  8
OBJECT
 10
4575.0
 20
-1133.5
 30
0.0
 11
4584.5
 21
-1133.5
 31
0.0
1001
ACDBBLOCKREPETAG
1070
     1
1071
       44
1005
1274D0
  0
LINE
  5
1274D1
  8
OBJECT
 10
4575.0
 20
-1133.5
 30
0.0
 11
4575.0
 21
-1163.0
 31
0.0
1001
ACDBBLOCKREPETAG
1070
     1
1071
        1
1005
1274B4
  0
POINT
  5
1274D2
  8
DOTS
 10
4500.0
 20
-1136.0
 30
0.0
  0
LINE
  5
1274D3
  8
OBJECT
 10
2575.0
 20
-890.0
 30
0.0
 11
2575.0
 21
-1027.500000000065
 31
0.0
1001
ACDBBLOCKREPETAG
1070
     1
1071
        1
1005
1274D3
  0
LINE
  5
1274D4
  8
OBJECT
 10
2425.0
 20
-889.99999999999409
 30
0.0
 11
2425.0
 21
-1163.0
 31
0.0
1001
ACDBBLOCKREPETAG
1070
     1
1071
        3
1005
1274D4
  0
LINE
  5
1274D5
  8
CENTER
 10
2500.0
 20
-890.0
 30
0.0
 11
2500.0
 21
-1175.0
 31
0.0
1001
ACDBBLOCKREPETAG
1070
     1
1071
        6
1005
1274D5
  0
LINE
  5
1274D6
  8
OBJECT
 10
2420.0
 20
-1175.0
 30
0.0
 11
2580.0
 21
-1175.0
 31
0.0
1001
ACDBBLOCKREPETAG
1070
     1
1071
        7
1005
1274D6
  0
LINE
  5
1274D7
  8
OBJECT
 10
2420.0
 20
-1163.0
 30
0.0
 11
2580.0
 21
-1163.0
 31
0.0
1001
ACDBBLOCKREPETAG
1070
     1
1071
        8
1005
1274D7
  0
LINE
  5
1274D8
  8
OBJECT
 10
2420.0
 20
-1163.0
 30
0.0
 11
2420.0
 21
-1175.0
 31
0.0
1001
ACDBBLOCKREPETAG
1070
     1
1071
        9
1005
1274D8
  0
LINE
  5
1274D9
  8
OBJECT
 10
2580.0
 20
-1163.0
 30
0.0
 11
2580.0
 21
-1175.0
 31
0.0
1001
ACDBBLOCKREPETAG
1070
     1
1071
       10
1005
1274D9
  0
LINE
  5
1274DA
  8
OBJECT
 10
2633.0
 20
-1029.0
 30
0.0
 11
2640.0
 21
-1029.0
 31
0.0
1001
ACDBBLOCKREPETAG
1070
     1
1071
       23
1005
1274DA
  0
LINE
  5
1274DB
  8
OBJECT
 10
2640.0
 20
-1029.0
 30
0.0
 11
2640.0
 21
-1136.0
 31
0.0
1001
ACDBBLOCKREPETAG
1070
     1
1071
       24
1005
1274DB
  0
LINE
  5
1274DC
  8
OBJECT
 10
2584.5
 20
-1030.500000000065
 30
0.0
 11
2584.5
 21
-1133.5
 31
0.0
1001
ACDBBLOCKREPETAG
1070
     1
1071
       25
1005
1274DC
  0
ARC
  5
1274DD
  8
OBJECT
 10
2581.5
 20
-1030.500000000065
 30
0.0
 40
3.0
 50
0.0
 51
90.0
1001
ACDBBLOCKREPETAG
1070
     1
1071
       26
1005
1274DD
  0
LINE
  5
1274DE
  8
OBJECT
 10
2633.0
 20
-1136.0
 30
0.0
 11
2633.0
 21
-1029.0
 31
0.0
1001
ACDBBLOCKREPETAG
1070
     1
1071
       27
1005
1274DE
  0
LINE
  5
1274DF
  8
CENTER
 10
2655.0
 20
-1084.0
 30
0.0
 11
2541.344919913005
 21
-1084.000000000065
 31
0.0
1001
ACDBBLOCKREPETAG
1070
     1
1071
       28
1005
1274DF
  0
LINE
  5
1274E0
  8
OBJECT
 10
2633.0
 20
-1032.0
 30
0.0
 11
2597.0
 21
-1032.0
 31
0.0
1001
ACDBBLOCKREPETAG
1070
     1
1071
       29
1005
1274E0
  0
LINE
  5
1274E1
  8
OBJECT
 10
2597.0
 20
-1032.0
 30
0.0
 11
2597.0
 21
-1136.0
 31
0.0
1001
ACDBBLOCKREPETAG
1070
     1
1071
       30
1005
1274E1
  0
LINE
  5
1274E2
  8
OBJECT
 10
2597.0
 20
-1136.0
 30
0.0
 11
2640.0
 21
-1136.0
 31
0.0
1001
ACDBBLOCKREPETAG
1070
     1
1071
       31
1005
1274E2
  0
LINE
  5
1274E3
  8
OBJECT
 10
2593.0
 20
-1036.5
 30
0.0
 11
2584.5
 21
-1036.5
 31
0.0
1001
ACDBBLOCKREPETAG
1070
     1
1071
       32
1005
1274E3
  0
LINE
  5
1274E4
  8
OBJECT
 10
2584.5
 20
-1131.5
 30
0.0
 11
2593.0
 21
-1131.5
 31
0.0
1001
ACDBBLOCKREPETAG
1070
     1
1071
       33
1005
1274E4
  0
LINE
  5
1274E5
  8
OBJECT
 10
2593.0
 20
-1131.5
 30
0.0
 11
2593.0
 21
-1036.5
 31
0.0
1001
ACDBBLOCKREPETAG
1070
     1
1071
       34
1005
1274E5
  0
LINE
  5
1274E6
  8
OBJECT
 10
2597.0
 20
-1032.0
 30
0.0
 11
2593.0
 21
-1036.5
 31
0.0
1001
ACDBBLOCKREPETAG
1070
     1
1071
       35
1005
1274E6
  0
LINE
  5
1274E7
  8
OBJECT
 10
2597.0
 20
-1136.0
 30
0.0
 11
2593.0
 21
-1131.5
 31
0.0
1001
ACDBBLOCKREPETAG
1070
     1
1071
       36
1005
1274E7
  0
LINE
  5
1274E8
  8
HIDDEN
 10
2588.0
 20
-1046.0
 30
0.0
 11
2588.0
 21
-1122.0
 31
0.0
1001
ACDBBLOCKREPETAG
1070
     1
1071
       37
1005
1274E8
  0
ARC
  5
1274E9
  8
OBJECT
 10
2664.8782728787751
 20
-1092.409507261229
 30
0.0
 40
110.86635228309
 50
144.1634274193047
 51
163.040353804338
1001
ACDBBLOCKREPETAG
1070
     1
1071
       38
1005
1274E9
  0
ARC
  5
1274EA
  8
OBJECT
 10
2617.1359887769072
 20
-1077.287749718449
 30
0.0
 40
60.791749880358971
 50
163.5472046522205
 51
179.72879698282679
1001
ACDBBLOCKREPETAG
1070
     1
1071
       39
1005
1274EA
  0
ARC
  5
1274EB
  8
OBJECT
 10
2617.1359956562478
 20
-1083.7122497599
 30
0.0
 40
60.79175676209487
 50
180.2712034781452
 51
196.45277946052761
1001
ACDBBLOCKREPETAG
1070
     1
1071
       40
1005
1274EB
  0
ARC
  5
1274EC
  8
OBJECT
 10
2664.8782728787751
 20
-1068.590492738836
 30
0.0
 40
110.8663522830916
 50
196.95964619566189
 51
215.8365725806953
1001
ACDBBLOCKREPETAG
1070
     1
1071
       41
1005
1274EC
  0
LINE
  5
1274ED
  8
OBJECT
 10
2556.344919913005
 20
-1077.0000000000359
 30
0.0
 11
2556.344919913005
 21
-1084.000000000033
 31
0.0
1001
ACDBBLOCKREPETAG
1070
     1
1071
       42
1005
1274ED
  0
LINE
  5
1274EE
  8
OBJECT
 10
2575.0
 20
-1027.500000000065
 30
0.0
 11
2581.5
 21
-1027.500000000065
 31
0.0
1001
ACDBBLOCKREPETAG
1070
     1
1071
       43
1005
1274EE
  0
LINE
  5
1274EF
  8
OBJECT
 10
2575.0
 20
-1133.5
 30
0.0
 11
2584.5
 21
-1133.5
 31
0.0
1001
ACDBBLOCKREPETAG
1070
     1
1071
       44
1005
1274EF
  0
LINE
  5
1274F0
  8
OBJECT
 10
2575.0
 20
-1133.5
 30
0.0
 11
2575.0
 21
-1163.0
 31
0.0
1001
ACDBBLOCKREPETAG
1070
     1
1071
        1
1005
1274D3
  0
POINT
  5
1274F1
  8
DOTS
 10
2500.0
 20
-1136.0
 30
0.0
  0
LINE
  5
1274F2
  8
DIM
 10
2665.0
 20
-696.0
 30
0.0
 11
2719.424581672758
 21
-696.0
 31
0.0
  0
LINE
  5
1274F3
  8
DIM
 10
2650.0
 20
-1136.0
 30
0.0
 11
2719.4245816727562
 21
-1136.0
 31
0.0
  0
LINE
  5
1274F4
  8
DIM
 10
2709.4245816727571
 20
-716.0
 30
0.0
 11
2709.4245816727562
 21
-1116.0
 31
0.0
  0
INSERT
  5
1274F5
  8
DIM
  2
_OPEN30
 10
2709.4245816727571
 20
-696.0
 30
0.0
 41
20.0
 42
20.0
 43
20.0
 50
90.0
  0
INSERT
  5
1274F6
  8
DIM
  2
_OPEN30
 10
2709.4245816727562
 20
-1136.0
 30
0.0
 41
20.0
 42
20.0
 43
20.0
 50
270.0
  0
INSERT
  5
1274F7
  8
SLIM
  2
*U24
 10
0.0
 20
0.0
 30
0.0
  0
LINE
  5
1274F8
  8
CENTER
 10
4977.0
 20
-3805.9999999999968
 30
0.0
 11
4823.0
 21
-3805.9999999999968
 31
0.0
1001
ACDBBLOCKREPETAG
1070
     1
1071
       17
1005
1274F8
  0
CIRCLE
  5
1274F9
  8
OBJECT
 10
4900.0
 20
-3805.9999999999968
 30
0.0
 40
41.5
1001
ACDBBLOCKREPETAG
1070
     1
1071
       18
1005
1274F9
  0
CIRCLE
  5
1274FA
  8
OBJECT
 10
4900.0
 20
-3805.9999999999968
 30
0.0
 40
54.0
1001
ACDBBLOCKREPETAG
1070
     1
1071
       19
1005
1274FA
  0
ARC
  5
1274FB
  8
OBJECT
 10
4900.0
 20
-3805.9999999999968
 30
0.0
 40
62.0
 50
287.89655112921122
 51
252.1034488707887
1001
ACDBBLOCKREPETAG
1070
     1
1071
       20
1005
1274FB
  0
LINE
  5
1274FC
  8
OBJECT
 10
4880.947441116743
 20
-3864.9999999999968
 30
0.0
 11
4919.052558883257
 21
-3864.9999999999968
 31
0.0
1001
ACDBBLOCKREPETAG
1070
     1
1071
       21
1005
1274FC
  0
POINT
  5
1274FD
  8
DOTS
 10
4900.0
 20
-3864.9999999999968
 30
0.0
1001
ACDBBLOCKREPETAG
1070
     1
1071
       23
1005
1274FD
  0
LINE
  5
1274FE
  8
OBJECT
 10
4633.0
 20
-3743.9999999999959
 30
0.0
 11
4640.0
 21
-3743.9999999999959
 31
0.0
1001
ACDBBLOCKREPETAG
1070
     1
1071
       46
1005
1274FE
  0
LINE
  5
1274FF
  8
OBJECT
 10
4640.0
 20
-3743.9999999999959
 30
0.0
 11
4640.0
 21
-3864.9999999999968
 31
0.0
1001
ACDBBLOCKREPETAG
1070
     1
1071
       47
1005
1274FF
  0
LINE
  5
127500
  8
OBJECT
 10
4633.0
 20
-3864.9999999999968
 30
0.0
 11
4633.0
 21
-3743.9999999999959
 31
0.0
1001
ACDBBLOCKREPETAG
1070
     1
1071
       48
1005
127500
  0
LINE
  5
127501
  8
CENTER
 10
4655.0
 20
-3805.9999999999968
 30
0.0
 11
4541.3449199130037
 21
-3806.0000000000618
 31
0.0
1001
ACDBBLOCKREPETAG
1070
     1
1071
       49
1005
127501
  0
LINE
  5
127502
  8
OBJECT
 10
4633.0
 20
-3746.9999999999959
 30
0.0
 11
4597.0
 21
-3746.9999999999959
 31
0.0
1001
ACDBBLOCKREPETAG
1070
     1
1071
       50
1005
127502
  0
LINE
  5
127503
  8
OBJECT
 10
4597.0
 20
-3746.9999999999959
 30
0.0
 11
4597.0
 21
-3864.9999999999968
 31
0.0
1001
ACDBBLOCKREPETAG
1070
     1
1071
       51
1005
127503
  0
LINE
  5
127504
  8
OBJECT
 10
4597.0
 20
-3864.9999999999968
 30
0.0
 11
4640.0
 21
-3864.9999999999968
 31
0.0
1001
ACDBBLOCKREPETAG
1070
     1
1071
       52
1005
127504
  0
LINE
  5
127505
  8
OBJECT
 10
4593.0
 20
-3751.4999999999959
 30
0.0
 11
4582.5
 21
-3751.4999999999959
 31
0.0
1001
ACDBBLOCKREPETAG
1070
     1
1071
       53
1005
127505
  0
LINE
  5
127506
  8
OBJECT
 10
4582.5
 20
-3860.4999999999959
 30
0.0
 11
4593.0
 21
-3860.4999999999959
 31
0.0
1001
ACDBBLOCKREPETAG
1070
     1
1071
       54
1005
127506
  0
LINE
  5
127507
  8
OBJECT
 10
4593.0
 20
-3860.4999999999959
 30
0.0
 11
4593.0
 21
-3751.4999999999959
 31
0.0
1001
ACDBBLOCKREPETAG
1070
     1
1071
       55
1005
127507
  0
LINE
  5
127508
  8
OBJECT
 10
4597.0
 20
-3746.9999999999959
 30
0.0
 11
4593.0
 21
-3751.4999999999959
 31
0.0
1001
ACDBBLOCKREPETAG
1070
     1
1071
       56
1005
127508
  0
LINE
  5
127509
  8
OBJECT
 10
4597.0
 20
-3864.9999999999968
 30
0.0
 11
4593.0
 21
-3860.4999999999959
 31
0.0
1001
ACDBBLOCKREPETAG
1070
     1
1071
       57
1005
127509
  0
LINE
  5
12750A
  8
HIDDEN
 10
4588.0
 20
-3761.4999999999968
 30
0.0
 11
4588.0
 21
-3850.4999999999968
 31
0.0
1001
ACDBBLOCKREPETAG
1070
     1
1071
       58
1005
12750A
  0
ARC
  5
12750B
  8
OBJECT
 10
4664.8782728787719
 20
-3821.4095072612249
 30
0.0
 40
110.86635228309
 50
144.16342741928889
 51
163.04035380433939
1001
ACDBBLOCKREPETAG
1070
     1
1071
       59
1005
12750B
  0
ARC
  5
12750C
  8
OBJECT
 10
4617.1359887769049
 20
-3806.287749718445
 30
0.0
 40
60.791749880358971
 50
163.54720465221931
 51
179.72879698282651
1001
ACDBBLOCKREPETAG
1070
     1
1071
       60
1005
12750C
  0
ARC
  5
12750D
  8
OBJECT
 10
4617.1359956562483
 20
-3812.7122497598971
 30
0.0
 40
60.79175676209487
 50
180.2712034781452
 51
196.4527794605265
1001
ACDBBLOCKREPETAG
1070
     1
1071
       61
1005
12750D
  0
ARC
  5
12750E
  8
OBJECT
 10
4664.8782728787719
 20
-3797.5904927388328
 30
0.0
 40
110.8663522830916
 50
196.9596461956605
 51
215.83657258071111
1001
ACDBBLOCKREPETAG
1070
     1
1071
       62
1005
12750E
  0
LINE
  5
12750F
  8
OBJECT
 10
4556.3449199130037
 20
-3806.0000000000332
 30
0.0
 11
4556.3449199130037
 21
-3813.0000000000291
 31
0.0
1001
ACDBBLOCKREPETAG
1070
     1
1071
       63
1005
12750F
  0
LINE
  5
127510
  8
OBJECT
 10
4574.9999999998336
 20
-3756.500000000291
 30
0.0
 11
4577.4999999998363
 21
-3756.500000000291
 31
0.0
1001
ACDBBLOCKREPETAG
1070
     1
1071
       65
1005
127510
  0
LINE
  5
127511
  8
OBJECT
 10
4574.9999999998327
 20
-3862.4999999997672
 30
0.0
 11
4579.4999999998308
 21
-3862.4999999997672
 31
0.0
1001
ACDBBLOCKREPETAG
1070
     1
1071
       66
1005
127511
  0
LINE
  5
127512
  8
OBJECT
 10
4579.4999999998308
 20
-3862.4999999997672
 30
0.0
 11
4577.4999999998363
 21
-3756.500000000291
 31
0.0
1001
ACDBBLOCKREPETAG
1070
     1
1071
       67
1005
127512
  0
LINE
  5
127513
  8
OBJECT
 10
4579.4999999998308
 20
-3862.4999999997672
 30
0.0
 11
4582.5
 21
-3860.4999999999959
 31
0.0
1001
ACDBBLOCKREPETAG
1070
     1
1071
       68
1005
127513
  0
LINE
  5
127514
  8
OBJECT
 10
4582.5
 20
-3860.4999999999959
 30
0.0
 11
4582.5
 21
-3751.4999999999959
 31
0.0
1001
ACDBBLOCKREPETAG
1070
     1
1071
       69
1005
127514
  0
LINE
  5
127515
  8
OBJECT
 10
4582.5
 20
-3751.4999999999959
 30
0.0
 11
4577.4999999998363
 21
-3756.500000000291
 31
0.0
1001
ACDBBLOCKREPETAG
1070
     1
1071
       70
1005
127515
  0
LINE
  5
127516
  8
OBJECT
 10
4633.0000000000009
 20
-3397.9999999999959
 30
0.0
 11
4640.0000000000018
 21
-3397.9999999999959
 31
0.0
1001
ACDBBLOCKREPETAG
1070
     1
1071
       38
1005
127516
  0
LINE
  5
127517
  8
OBJECT
 10
4640.0000000000018
 20
-3397.9999999999959
 30
0.0
 11
4640.0
 21
-3521.9999999999968
 31
0.0
1001
ACDBBLOCKREPETAG
1070
     1
1071
       39
1005
127517
  0
LINE
  5
127518
  8
OBJECT
 10
4640.0
 20
-3521.9999999999968
 30
0.0
 11
4633.0
 21
-3521.9999999999968
 31
0.0
1001
ACDBBLOCKREPETAG
1070
     1
1071
       40
1005
127518
  0
LINE
  5
127519
  8
OBJECT
 10
4633.0
 20
-3521.9999999999968
 30
0.0
 11
4633.0000000000009
 21
-3397.9999999999959
 31
0.0
1001
ACDBBLOCKREPETAG
1070
     1
1071
       41
1005
127519
  0
LINE
  5
12751A
  8
CENTER
 10
4655.0
 20
-3459.9999999999968
 30
0.0
 11
4580.0
 21
-3459.9999999999968
 31
0.0
1001
ACDBBLOCKREPETAG
1070
     1
1071
       42
1005
12751A
  0
LINE
  5
12751B
  8
OBJECT
 10
4633.0000000000009
 20
-3400.9999999999959
 30
0.0
 11
4597.0000000000018
 21
-3400.9999999999959
 31
0.0
1001
ACDBBLOCKREPETAG
1070
     1
1071
       43
1005
12751B
  0
LINE
  5
12751C
  8
OBJECT
 10
4597.0000000000018
 20
-3400.9999999999959
 30
0.0
 11
4597.0
 21
-3518.9999999999968
 31
0.0
1001
ACDBBLOCKREPETAG
1070
     1
1071
       44
1005
12751C
  0
LINE
  5
12751D
  8
OBJECT
 10
4597.0
 20
-3518.9999999999968
 30
0.0
 11
4633.0
 21
-3518.9999999999968
 31
0.0
1001
ACDBBLOCKREPETAG
1070
     1
1071
       45
1005
12751D
  0
LINE
  5
12751E
  8
OBJECT
 10
4593.0000000000018
 20
-3405.4999999999959
 30
0.0
 11
4582.5000000000018
 21
-3405.4999999999959
 31
0.0
1001
ACDBBLOCKREPETAG
1070
     1
1071
       46
1005
12751E
  0
LINE
  5
12751F
  8
OBJECT
 10
4582.5
 20
-3514.4999999999968
 30
0.0
 11
4593.0
 21
-3514.4999999999968
 31
0.0
1001
ACDBBLOCKREPETAG
1070
     1
1071
       47
1005
12751F
  0
LINE
  5
127520
  8
OBJECT
 10
4593.0
 20
-3514.4999999999968
 30
0.0
 11
4593.0000000000018
 21
-3405.4999999999959
 31
0.0
1001
ACDBBLOCKREPETAG
1070
     1
1071
       48
1005
127520
  0
LINE
  5
127521
  8
OBJECT
 10
4597.0000000000018
 20
-3400.9999999999959
 30
0.0
 11
4593.0000000000018
 21
-3405.4999999999959
 31
0.0
1001
ACDBBLOCKREPETAG
1070
     1
1071
       49
1005
127521
  0
LINE
  5
127522
  8
OBJECT
 10
4597.0
 20
-3518.9999999999968
 30
0.0
 11
4593.0
 21
-3514.4999999999968
 31
0.0
1001
ACDBBLOCKREPETAG
1070
     1
1071
       50
1005
127522
  0
LINE
  5
127523
  8
HIDDEN
 10
4588.0
 20
-3415.4999999999968
 30
0.0
 11
4588.0
 21
-3504.4999999999968
 31
0.0
1001
ACDBBLOCKREPETAG
1070
     1
1071
       51
1005
127523
  0
LINE
  5
127524
  8
OBJECT
 10
4577.5000000000018
 20
-3410.4999999999959
 30
0.0
 11
4556.3449199129791
 21
-3410.4999999999959
 31
0.0
1001
ACDBBLOCKREPETAG
1070
     1
1071
       52
1005
127524
  0
LINE
  5
127525
  8
OBJECT
 10
4577.4999999999991
 20
-3509.4999999999959
 30
0.0
 11
4556.3449199129791
 21
-3509.4999999999959
 31
0.0
1001
ACDBBLOCKREPETAG
1070
     1
1071
       53
1005
127525
  0
LINE
  5
127526
  8
OBJECT
 10
4582.5000000000018
 20
-3405.4999999999959
 30
0.0
 11
4582.5
 21
-3514.4999999999968
 31
0.0
1001
ACDBBLOCKREPETAG
1070
     1
1071
       54
1005
127526
  0
LINE
  5
127527
  8
OBJECT
 10
4577.5000000000018
 20
-3410.4999999999959
 30
0.0
 11
4577.4999999999991
 21
-3509.4999999999959
 31
0.0
1001
ACDBBLOCKREPETAG
1070
     1
1071
       55
1005
127527
  0
LINE
  5
127528
  8
OBJECT
 10
4582.5000000000018
 20
-3405.4999999999959
 30
0.0
 11
4577.5000000000018
 21
-3410.4999999999959
 31
0.0
1001
ACDBBLOCKREPETAG
1070
     1
1071
       56
1005
127528
  0
LINE
  5
127529
  8
OBJECT
 10
4577.4999999999991
 20
-3509.4999999999959
 30
0.0
 11
4582.5
 21
-3514.4999999999932
 31
0.0
1001
ACDBBLOCKREPETAG
1070
     1
1071
       57
1005
127529
  0
CIRCLE
  5
12752A
  8
OBJECT
 10
3900.0
 20
-3812.9999999999968
 30
0.0
 40
35.5
1001
ACDBBLOCKREPETAG
1070
     1
1071
       11
1005
12752A
  0
LINE
  5
12752B
  8
CENTER
 10
3830.0
 20
-3812.9999999999968
 30
0.0
 11
3970.0
 21
-3812.9999999999968
 31
0.0
1001
ACDBBLOCKREPETAG
1070
     1
1071
       12
1005
12752B
  0
CIRCLE
  5
12752C
  8
OBJECT
 10
3900.0
 20
-3812.9999999999968
 30
0.0
 40
47.0
1001
ACDBBLOCKREPETAG
1070
     1
1071
       14
1005
12752C
  0
ARC
  5
12752D
  8
OBJECT
 10
3900.0
 20
-3812.9999999999968
 30
0.0
 40
55.0
 50
289.01126526008892
 51
250.98873473991111
1001
ACDBBLOCKREPETAG
1070
     1
1071
       15
1005
12752D
  0
LINE
  5
12752E
  8
OBJECT
 10
3882.0835271328319
 20
-3864.9999999999968
 30
0.0
 11
3917.9164728671672
 21
-3864.9999999999968
 31
0.0
1001
ACDBBLOCKREPETAG
1070
     1
1071
       16
1005
12752E
  0
POINT
  5
12752F
  8
DOTS
 10
3900.0
 20
-3864.9999999999968
 30
0.0
1001
ACDBBLOCKREPETAG
1070
     1
1071
       24
1005
12752F
  0
LINE
  5
127530
  8
OBJECT
 10
3633.0
 20
-3757.9999999999959
 30
0.0
 11
3640.0
 21
-3757.9999999999959
 31
0.0
1001
ACDBBLOCKREPETAG
1070
     1
1071
       23
1005
127530
  0
LINE
  5
127531
  8
OBJECT
 10
3640.0
 20
-3757.9999999999959
 30
0.0
 11
3640.0
 21
-3864.9999999999968
 31
0.0
1001
ACDBBLOCKREPETAG
1070
     1
1071
       24
1005
127531
  0
LINE
  5
127532
  8
OBJECT
 10
3584.5
 20
-3759.5000000000618
 30
0.0
 11
3584.5
 21
-3862.4999999999968
 31
0.0
1001
ACDBBLOCKREPETAG
1070
     1
1071
       25
1005
127532
  0
ARC
  5
127533
  8
OBJECT
 10
3581.5
 20
-3759.5000000000618
 30
0.0
 40
3.0
 50
0.0
 51
90.0
1001
ACDBBLOCKREPETAG
1070
     1
1071
       26
1005
127533
  0
LINE
  5
127534
  8
OBJECT
 10
3633.0
 20
-3864.9999999999968
 30
0.0
 11
3633.0
 21
-3757.9999999999959
 31
0.0
1001
ACDBBLOCKREPETAG
1070
     1
1071
       27
1005
127534
  0
LINE
  5
127535
  8
CENTER
 10
3655.0
 20
-3812.9999999999968
 30
0.0
 11
3541.3449199130041
 21
-3813.0000000000618
 31
0.0
1001
ACDBBLOCKREPETAG
1070
     1
1071
       28
1005
127535
  0
LINE
  5
127536
  8
OBJECT
 10
3633.0
 20
-3760.9999999999968
 30
0.0
 11
3597.0
 21
-3760.9999999999968
 31
0.0
1001
ACDBBLOCKREPETAG
1070
     1
1071
       29
1005
127536
  0
LINE
  5
127537
  8
OBJECT
 10
3597.0
 20
-3760.9999999999968
 30
0.0
 11
3597.0
 21
-3864.9999999999968
 31
0.0
1001
ACDBBLOCKREPETAG
1070
     1
1071
       30
1005
127537
  0
LINE
  5
127538
  8
OBJECT
 10
3597.0
 20
-3864.9999999999968
 30
0.0
 11
3640.0
 21
-3864.9999999999968
 31
0.0
1001
ACDBBLOCKREPETAG
1070
     1
1071
       31
1005
127538
  0
LINE
  5
127539
  8
OBJECT
 10
3593.0
 20
-3765.4999999999968
 30
0.0
 11
3584.5
 21
-3765.4999999999968
 31
0.0
1001
ACDBBLOCKREPETAG
1070
     1
1071
       32
1005
127539
  0
LINE
  5
12753A
  8
OBJECT
 10
3584.5
 20
-3860.4999999999959
 30
0.0
 11
3593.0
 21
-3860.4999999999959
 31
0.0
1001
ACDBBLOCKREPETAG
1070
     1
1071
       33
1005
12753A
  0
LINE
  5
12753B
  8
OBJECT
 10
3593.0
 20
-3860.4999999999959
 30
0.0
 11
3593.0
 21
-3765.4999999999968
 31
0.0
1001
ACDBBLOCKREPETAG
1070
     1
1071
       34
1005
12753B
  0
LINE
  5
12753C
  8
OBJECT
 10
3597.0
 20
-3760.9999999999968
 30
0.0
 11
3593.0
 21
-3765.4999999999968
 31
0.0
1001
ACDBBLOCKREPETAG
1070
     1
1071
       35
1005
12753C
  0
LINE
  5
12753D
  8
OBJECT
 10
3597.0
 20
-3864.9999999999968
 30
0.0
 11
3593.0
 21
-3860.4999999999959
 31
0.0
1001
ACDBBLOCKREPETAG
1070
     1
1071
       36
1005
12753D
  0
LINE
  5
12753E
  8
HIDDEN
 10
3588.0
 20
-3774.9999999999968
 30
0.0
 11
3588.0
 21
-3850.9999999999959
 31
0.0
1001
ACDBBLOCKREPETAG
1070
     1
1071
       37
1005
12753E
  0
ARC
  5
12753F
  8
OBJECT
 10
3664.8782728787742
 20
-3821.4095072612249
 30
0.0
 40
110.86635228309
 50
144.16342741928889
 51
163.04035380433169
1001
ACDBBLOCKREPETAG
1070
     1
1071
       38
1005
12753F
  0
ARC
  5
127540
  8
OBJECT
 10
3617.1359887769072
 20
-3806.287749718445
 30
0.0
 40
60.791749880358971
 50
163.5472046522267
 51
179.72879698282679
1001
ACDBBLOCKREPETAG
1070
     1
1071
       39
1005
127540
  0
ARC
  5
127541
  8
OBJECT
 10
3617.1359956562478
 20
-3812.7122497598971
 30
0.0
 40
60.79175676209487
 50
180.2712034781452
 51
196.4527794605338
1001
ACDBBLOCKREPETAG
1070
     1
1071
       40
1005
127541
  0
ARC
  5
127542
  8
OBJECT
 10
3664.8782728787742
 20
-3797.5904927388328
 30
0.0
 40
110.8663522830916
 50
196.95964619566811
 51
215.83657258071111
1001
ACDBBLOCKREPETAG
1070
     1
1071
       41
1005
127542
  0
LINE
  5
127543
  8
OBJECT
 10
3556.3449199130041
 20
-3806.0000000000332
 30
0.0
 11
3556.3449199130041
 21
-3813.0000000000291
 31
0.0
1001
ACDBBLOCKREPETAG
1070
     1
1071
       42
1005
127543
  0
LINE
  5
127544
  8
OBJECT
 10
3574.9999999999991
 20
-3756.5000000000618
 30
0.0
 11
3581.5
 21
-3756.5000000000618
 31
0.0
1001
ACDBBLOCKREPETAG
1070
     1
1071
       43
1005
127544
  0
LINE
  5
127545
  8
OBJECT
 10
3574.9999999999991
 20
-3862.4999999999968
 30
0.0
 11
3584.5
 21
-3862.4999999999968
 31
0.0
1001
ACDBBLOCKREPETAG
1070
     1
1071
       44
1005
127545
  0
LINE
  5
127546
  8
OBJECT
 10
3633.0
 20
-3404.9999999999959
 30
0.0
 11
3640.0
 21
-3404.9999999999959
 31
0.0
1001
ACDBBLOCKREPETAG
1070
     1
1071
       20
1005
127546
  0
LINE
  5
127547
  8
OBJECT
 10
3640.0
 20
-3404.9999999999959
 30
0.0
 11
3640.0
 21
-3514.9999999999968
 31
0.0
1001
ACDBBLOCKREPETAG
1070
     1
1071
       21
1005
127547
  0
LINE
  5
127548
  8
OBJECT
 10
3640.0
 20
-3514.9999999999968
 30
0.0
 11
3633.0
 21
-3514.9999999999968
 31
0.0
1001
ACDBBLOCKREPETAG
1070
     1
1071
       22
1005
127548
  0
LINE
  5
127549
  8
OBJECT
 10
3633.0
 20
-3514.9999999999968
 30
0.0
 11
3633.0
 21
-3404.9999999999959
 31
0.0
1001
ACDBBLOCKREPETAG
1070
     1
1071
       23
1005
127549
  0
LINE
  5
12754A
  8
CENTER
 10
3655.0
 20
-3459.9999999999968
 30
0.0
 11
3580.0
 21
-3459.9999999999968
 31
0.0
1001
ACDBBLOCKREPETAG
1070
     1
1071
       24
1005
12754A
  0
LINE
  5
12754B
  8
OBJECT
 10
3633.0
 20
-3407.9999999999959
 30
0.0
 11
3597.0
 21
-3407.9999999999959
 31
0.0
1001
ACDBBLOCKREPETAG
1070
     1
1071
       25
1005
12754B
  0
LINE
  5
12754C
  8
OBJECT
 10
3597.0
 20
-3407.9999999999959
 30
0.0
 11
3597.0
 21
-3511.9999999999959
 31
0.0
1001
ACDBBLOCKREPETAG
1070
     1
1071
       26
1005
12754C
  0
LINE
  5
12754D
  8
OBJECT
 10
3597.0
 20
-3511.9999999999959
 30
0.0
 11
3633.0
 21
-3511.9999999999959
 31
0.0
1001
ACDBBLOCKREPETAG
1070
     1
1071
       27
1005
12754D
  0
LINE
  5
12754E
  8
OBJECT
 10
3593.0
 20
-3412.4999999999959
 30
0.0
 11
3584.5
 21
-3412.4999999999959
 31
0.0
1001
ACDBBLOCKREPETAG
1070
     1
1071
       28
1005
12754E
  0
LINE
  5
12754F
  8
OBJECT
 10
3584.5
 20
-3507.4999999999968
 30
0.0
 11
3593.0
 21
-3507.4999999999968
 31
0.0
1001
ACDBBLOCKREPETAG
1070
     1
1071
       29
1005
12754F
  0
LINE
  5
127550
  8
OBJECT
 10
3593.0
 20
-3507.4999999999968
 30
0.0
 11
3593.0
 21
-3412.4999999999959
 31
0.0
1001
ACDBBLOCKREPETAG
1070
     1
1071
       30
1005
127550
  0
LINE
  5
127551
  8
OBJECT
 10
3597.0
 20
-3407.9999999999959
 30
0.0
 11
3593.0
 21
-3412.4999999999959
 31
0.0
1001
ACDBBLOCKREPETAG
1070
     1
1071
       31
1005
127551
  0
LINE
  5
127552
  8
OBJECT
 10
3597.0
 20
-3511.9999999999959
 30
0.0
 11
3593.0
 21
-3507.4999999999968
 31
0.0
1001
ACDBBLOCKREPETAG
1070
     1
1071
       32
1005
127552
  0
LINE
  5
127553
  8
OBJECT
 10
3584.4999999999982
 20
-3509.4999999999959
 30
0.0
 11
3584.5
 21
-3410.4999999999959
 31
0.0
1001
ACDBBLOCKREPETAG
1070
     1
1071
       33
1005
127553
  0
LINE
  5
127554
  8
HIDDEN
 10
3588.0
 20
-3421.9999999999968
 30
0.0
 11
3588.0
 21
-3497.9999999999959
 31
0.0
1001
ACDBBLOCKREPETAG
1070
     1
1071
       34
1005
127554
  0
LINE
  5
127555
  8
OBJECT
 10
3584.5
 20
-3410.4999999999959
 30
0.0
 11
3556.3449199129791
 21
-3410.4999999999959
 31
0.0
1001
ACDBBLOCKREPETAG
1070
     1
1071
       35
1005
127555
  0
LINE
  5
127556
  8
OBJECT
 10
3584.4999999999982
 20
-3509.4999999999959
 30
0.0
 11
3556.3449199129791
 21
-3509.4999999999959
 31
0.0
1001
ACDBBLOCKREPETAG
1070
     1
1071
       36
1005
127556
  0
LINE
  5
127557
  8
CENTER
 10
2838.0
 20
-3820.9999999999968
 30
0.0
 11
2962.0
 21
-3820.9999999999968
 31
0.0
1001
ACDBBLOCKREPETAG
1070
     1
1071
        0
1005
127557
  0
CIRCLE
  5
127558
  8
OBJECT
 10
2900.0
 20
-3820.9999999999968
 30
0.0
 40
28.0
1001
ACDBBLOCKREPETAG
1070
     1
1071
        2
1005
127558
  0
CIRCLE
  5
127559
  8
OBJECT
 10
2900.0
 20
-3820.9999999999968
 30
0.0
 40
39.0
1001
ACDBBLOCKREPETAG
1070
     1
1071
        3
1005
127559
  0
ARC
  5
12755A
  8
OBJECT
 10
2900.0
 20
-3820.9999999999968
 30
0.0
 40
47.0
 50
290.58196921144412
 51
249.41803078855591
1001
ACDBBLOCKREPETAG
1070
     1
1071
        4
1005
12755A
  0
LINE
  5
12755B
  8
OBJECT
 10
2883.4772883581418
 20
-3864.9999999999968
 30
0.0
 11
2916.5227116418569
 21
-3864.9999999999968
 31
0.0
1001
ACDBBLOCKREPETAG
1070
     1
1071
        5
1005
12755B
  0
ARC
  5
12755C
  8
OBJECT
 10
2900.0
 20
-3805.9999999999932
 30
0.0
 40
49.5
 50
0.0
 51
180.0
1001
ACDBBLOCKREPETAG
1070
     1
1071
        6
1005
12755C
  0
LINE
  5
12755D
  8
OBJECT
 10
2850.5000000000032
 20
-3805.9999999999932
 30
0.0
 11
2850.5000000000032
 21
-3812.9999999999968
 31
0.0
1001
ACDBBLOCKREPETAG
1070
     1
1071
        7
1005
12755D
  0
LINE
  5
12755E
  8
OBJECT
 10
2949.5000000000068
 20
-3805.9999999999932
 30
0.0
 11
2949.5000000000068
 21
-3812.9999999999968
 31
0.0
1001
ACDBBLOCKREPETAG
1070
     1
1071
        8
1005
12755E
  0
ARC
  5
12755F
  8
OBJECT
 10
2900.0
 20
-3812.9999999999968
 30
0.0
 40
49.5
 50
180.0
 51
202.66956385104879
1001
ACDBBLOCKREPETAG
1070
     1
1071
        9
1005
12755F
  0
ARC
  5
127560
  8
OBJECT
 10
2900.0
 20
-3812.9999999999968
 30
0.0
 40
49.5
 50
337.33043614895121
 51
0.0
1001
ACDBBLOCKREPETAG
1070
     1
1071
       10
1005
127560
  0
POINT
  5
127561
  8
DOTS
 10
2900.0
 20
-3864.9999999999968
 30
0.0
1001
ACDBBLOCKREPETAG
1070
     1
1071
       25
1005
127561
  0
LINE
  5
127562
  8
OBJECT
 10
2633.0
 20
-3773.9999999999968
 30
0.0
 11
2640.0
 21
-3773.9999999999968
 31
0.0
1001
ACDBBLOCKREPETAG
1070
     1
1071
        0
1005
127562
  0
LINE
  5
127563
  8
OBJECT
 10
2640.0
 20
-3773.9999999999968
 30
0.0
 11
2640.0
 21
-3864.9999999999968
 31
0.0
1001
ACDBBLOCKREPETAG
1070
     1
1071
        1
1005
127563
  0
LINE
  5
127564
  8
OBJECT
 10
2584.5
 20
-3759.5000000000618
 30
0.0
 11
2584.5
 21
-3862.4999999999968
 31
0.0
1001
ACDBBLOCKREPETAG
1070
     1
1071
        2
1005
127564
  0
ARC
  5
127565
  8
OBJECT
 10
2581.5
 20
-3759.5000000000618
 30
0.0
 40
3.0
 50
0.0
 51
90.0
1001
ACDBBLOCKREPETAG
1070
     1
1071
        3
1005
127565
  0
LINE
  5
127566
  8
OBJECT
 10
2633.0
 20
-3864.9999999999968
 30
0.0
 11
2633.0
 21
-3773.9999999999968
 31
0.0
1001
ACDBBLOCKREPETAG
1070
     1
1071
        4
1005
127566
  0
LINE
  5
127567
  8
CENTER
 10
2655.0
 20
-3820.9999999999968
 30
0.0
 11
2541.911823713584
 21
-3820.9999999999968
 31
0.0
1001
ACDBBLOCKREPETAG
1070
     1
1071
        5
1005
127567
  0
LINE
  5
127568
  8
OBJECT
 10
2633.0
 20
-3776.9999999999968
 30
0.0
 11
2596.9999999999991
 21
-3776.9999999999968
 31
0.0
1001
ACDBBLOCKREPETAG
1070
     1
1071
        6
1005
127568
  0
LINE
  5
127569
  8
OBJECT
 10
2596.9999999999991
 20
-3776.9999999999968
 30
0.0
 11
2596.9999999999991
 21
-3864.9999999999968
 31
0.0
1001
ACDBBLOCKREPETAG
1070
     1
1071
        7
1005
127569
  0
LINE
  5
12756A
  8
OBJECT
 10
2596.9999999999991
 20
-3864.9999999999968
 30
0.0
 11
2640.0
 21
-3864.9999999999968
 31
0.0
1001
ACDBBLOCKREPETAG
1070
     1
1071
        8
1005
12756A
  0
LINE
  5
12756B
  8
OBJECT
 10
2593.0
 20
-3781.4999999999959
 30
0.0
 11
2584.5
 21
-3781.4999999999959
 31
0.0
1001
ACDBBLOCKREPETAG
1070
     1
1071
        9
1005
12756B
  0
LINE
  5
12756C
  8
OBJECT
 10
2584.5
 20
-3860.4999999999959
 30
0.0
 11
2593.0
 21
-3860.4999999999959
 31
0.0
1001
ACDBBLOCKREPETAG
1070
     1
1071
       10
1005
12756C
  0
LINE
  5
12756D
  8
OBJECT
 10
2593.0
 20
-3860.4999999999959
 30
0.0
 11
2593.0
 21
-3781.4999999999959
 31
0.0
1001
ACDBBLOCKREPETAG
1070
     1
1071
       11
1005
12756D
  0
LINE
  5
12756E
  8
OBJECT
 10
2596.9999999999991
 20
-3776.9999999999968
 30
0.0
 11
2593.0
 21
-3781.4999999999959
 31
0.0
1001
ACDBBLOCKREPETAG
1070
     1
1071
       12
1005
12756E
  0
LINE
  5
12756F
  8
OBJECT
 10
2596.9999999999991
 20
-3864.9999999999968
 30
0.0
 11
2593.0
 21
-3860.4999999999959
 31
0.0
1001
ACDBBLOCKREPETAG
1070
     1
1071
       13
1005
12756F
  0
LINE
  5
127570
  8
HIDDEN
 10
2588.0
 20
-3790.9999999999959
 30
0.0
 11
2588.0
 21
-3850.9999999999959
 31
0.0
1001
ACDBBLOCKREPETAG
1070
     1
1071
       14
1005
127570
  0
ARC
  5
127571
  8
OBJECT
 10
2664.8782728787751
 20
-3821.4095072612249
 30
0.0
 40
110.86635228309
 50
144.1634274191434
 51
163.04035380433169
1001
ACDBBLOCKREPETAG
1070
     1
1071
       15
1005
127571
  0
ARC
  5
127572
  8
OBJECT
 10
2617.1359887769072
 20
-3806.287749718445
 30
0.0
 40
60.791749880358971
 50
163.5472046522267
 51
179.72879698282679
1001
ACDBBLOCKREPETAG
1070
     1
1071
       16
1005
127572
  0
ARC
  5
127573
  8
OBJECT
 10
2617.1359956562478
 20
-3812.7122497598971
 30
0.0
 40
60.79175676209487
 50
180.2712034781452
 51
196.4527794605338
1001
ACDBBLOCKREPETAG
1070
     1
1071
       17
1005
127573
  0
ARC
  5
127574
  8
OBJECT
 10
2664.8782728787751
 20
-3797.5904927388328
 30
0.0
 40
110.8663522830916
 50
196.95964619566811
 51
215.8365725808566
1001
ACDBBLOCKREPETAG
1070
     1
1071
       18
1005
127574
  0
LINE
  5
127575
  8
OBJECT
 10
2556.3449199130041
 20
-3806.0000000000332
 30
0.0
 11
2556.3449199130041
 21
-3813.0000000000291
 31
0.0
1001
ACDBBLOCKREPETAG
1070
     1
1071
       19
1005
127575
  0
LINE
  5
127576
  8
OBJECT
 10
2575.0
 20
-3756.5000000000618
 30
0.0
 11
2581.5
 21
-3756.5000000000618
 31
0.0
1001
ACDBBLOCKREPETAG
1070
     1
1071
       20
1005
127576
  0
LINE
  5
127577
  8
OBJECT
 10
2575.0
 20
-3862.4999999999968
 30
0.0
 11
2584.5
 21
-3862.4999999999968
 31
0.0
1001
ACDBBLOCKREPETAG
1070
     1
1071
       21
1005
127577
  0
LINE
  5
127578
  8
OBJECT
 10
2633.0
 20
-3412.9999999999968
 30
0.0
 11
2640.0
 21
-3412.9999999999968
 31
0.0
1001
ACDBBLOCKREPETAG
1070
     1
1071
        0
1005
127578
  0
LINE
  5
127579
  8
OBJECT
 10
2640.0
 20
-3412.9999999999968
 30
0.0
 11
2640.0
 21
-3506.9999999999968
 31
0.0
1001
ACDBBLOCKREPETAG
1070
     1
1071
        1
1005
127579
  0
LINE
  5
12757A
  8
OBJECT
 10
2640.0
 20
-3506.9999999999968
 30
0.0
 11
2633.0
 21
-3506.9999999999968
 31
0.0
1001
ACDBBLOCKREPETAG
1070
     1
1071
        2
1005
12757A
  0
LINE
  5
12757B
  8
OBJECT
 10
2633.0
 20
-3506.9999999999968
 30
0.0
 11
2633.0
 21
-3412.9999999999968
 31
0.0
1001
ACDBBLOCKREPETAG
1070
     1
1071
        3
1005
12757B
  0
LINE
  5
12757C
  8
CENTER
 10
2655.0
 20
-3459.9999999999968
 30
0.0
 11
2580.0
 21
-3459.9999999999968
 31
0.0
1001
ACDBBLOCKREPETAG
1070
     1
1071
        4
1005
12757C
  0
LINE
  5
12757D
  8
OBJECT
 10
2633.0
 20
-3415.9999999999959
 30
0.0
 11
2596.9999999999991
 21
-3415.9999999999959
 31
0.0
1001
ACDBBLOCKREPETAG
1070
     1
1071
        5
1005
12757D
  0
LINE
  5
12757E
  8
OBJECT
 10
2596.9999999999991
 20
-3415.9999999999959
 30
0.0
 11
2596.9999999999991
 21
-3503.9999999999959
 31
0.0
1001
ACDBBLOCKREPETAG
1070
     1
1071
        6
1005
12757E
  0
LINE
  5
12757F
  8
OBJECT
 10
2596.9999999999991
 20
-3503.9999999999959
 30
0.0
 11
2633.0
 21
-3503.9999999999959
 31
0.0
1001
ACDBBLOCKREPETAG
1070
     1
1071
        7
1005
12757F
  0
LINE
  5
127580
  8
OBJECT
 10
2593.0
 20
-3420.4999999999959
 30
0.0
 11
2584.5
 21
-3420.4999999999959
 31
0.0
1001
ACDBBLOCKREPETAG
1070
     1
1071
        8
1005
127580
  0
LINE
  5
127581
  8
OBJECT
 10
2584.5
 20
-3499.4999999999959
 30
0.0
 11
2593.0
 21
-3499.4999999999959
 31
0.0
1001
ACDBBLOCKREPETAG
1070
     1
1071
        9
1005
127581
  0
LINE
  5
127582
  8
OBJECT
 10
2593.0
 20
-3499.4999999999959
 30
0.0
 11
2593.0
 21
-3420.4999999999959
 31
0.0
1001
ACDBBLOCKREPETAG
1070
     1
1071
       10
1005
127582
  0
LINE
  5
127583
  8
OBJECT
 10
2596.9999999999991
 20
-3415.9999999999959
 30
0.0
 11
2593.0
 21
-3420.4999999999959
 31
0.0
1001
ACDBBLOCKREPETAG
1070
     1
1071
       11
1005
127583
  0
LINE
  5
127584
  8
OBJECT
 10
2596.9999999999991
 20
-3503.9999999999959
 30
0.0
 11
2593.0
 21
-3499.4999999999959
 31
0.0
1001
ACDBBLOCKREPETAG
1070
     1
1071
       12
1005
127584
  0
LINE
  5
127585
  8
OBJECT
 10
2584.4999999999991
 20
-3506.4999999999959
 30
0.0
 11
2584.5
 21
-3413.4999999999959
 31
0.0
1001
ACDBBLOCKREPETAG
1070
     1
1071
       13
1005
127585
  0
ARC
  5
127586
  8
OBJECT
 10
2581.5
 20
-3413.4999999999959
 30
0.0
 40
3.0
 50
0.0
 51
90.0
1001
ACDBBLOCKREPETAG
1070
     1
1071
       14
1005
127586
  0
LINE
  5
127587
  8
HIDDEN
 10
2588.0
 20
-3429.9999999999959
 30
0.0
 11
2588.0
 21
-3489.9999999999968
 31
0.0
1001
ACDBBLOCKREPETAG
1070
     1
1071
       15
1005
127587
  0
LINE
  5
127588
  8
OBJECT
 10
2581.5
 20
-3410.4999999999959
 30
0.0
 11
2556.3449199129791
 21
-3410.4999999999959
 31
0.0
1001
ACDBBLOCKREPETAG
1070
     1
1071
       17
1005
127588
  0
LINE
  5
127589
  8
OBJECT
 10
2581.4999999999991
 20
-3509.4999999999959
 30
0.0
 11
2556.3449199129791
 21
-3509.4999999999959
 31
0.0
1001
ACDBBLOCKREPETAG
1070
     1
1071
       18
1005
127589
  0
ARC
  5
12758A
  8
OBJECT
 10
2581.4999999999991
 20
-3506.4999999999959
 30
0.0
 40
3.0
 50
270.0
 51
0.0
1001
ACDBBLOCKREPETAG
1070
     1
1071
       19
1005
12758A
  0
LINE
  5
12758B
  8
OBJECT
 10
4633.0
 20
-634.0
 30
0.0
 11
4640.0
 21
-634.0
 31
0.0
1001
ACDBBLOCKREPETAG
1070
     1
1071
       45
1005
12758B
  0
LINE
  5
12758C
  8
OBJECT
 10
4640.0
 20
-634.0
 30
0.0
 11
4640.0
 21
-755.0
 31
0.0
1001
ACDBBLOCKREPETAG
1070
     1
1071
       46
1005
12758C
  0
LINE
  5
12758D
  8
OBJECT
 10
4633.0
 20
-755.0
 30
0.0
 11
4633.0
 21
-634.0
 31
0.0
1001
ACDBBLOCKREPETAG
1070
     1
1071
       47
1005
12758D
  0
LINE
  5
12758E
  8
CENTER
 10
4655.0
 20
-696.0
 30
0.0
 11
4571.0
 21
-696.0
 31
0.0
1001
ACDBBLOCKREPETAG
1070
     1
1071
       48
1005
12758E
  0
LINE
  5
12758F
  8
OBJECT
 10
4633.0
 20
-637.0
 30
0.0
 11
4597.0
 21
-637.0
 31
0.0
1001
ACDBBLOCKREPETAG
1070
     1
1071
       49
1005
12758F
  0
LINE
  5
127590
  8
OBJECT
 10
4597.0
 20
-637.0
 30
0.0
 11
4597.0
 21
-755.0
 31
0.0
1001
ACDBBLOCKREPETAG
1070
     1
1071
       50
1005
127590
  0
LINE
  5
127591
  8
OBJECT
 10
4597.0
 20
-755.0
 30
0.0
 11
4640.0
 21
-755.0
 31
0.0
1001
ACDBBLOCKREPETAG
1070
     1
1071
       51
1005
127591
  0
LINE
  5
127592
  8
OBJECT
 10
4593.0
 20
-641.5
 30
0.0
 11
4586.0
 21
-641.5
 31
0.0
1001
ACDBBLOCKREPETAG
1070
     1
1071
       52
1005
127592
  0
LINE
  5
127593
  8
OBJECT
 10
4586.0
 20
-750.49999999999989
 30
0.0
 11
4593.0
 21
-750.49999999999989
 31
0.0
1001
ACDBBLOCKREPETAG
1070
     1
1071
       53
1005
127593
  0
LINE
  5
127594
  8
OBJECT
 10
4593.0
 20
-750.49999999999989
 30
0.0
 11
4593.0
 21
-641.5
 31
0.0
1001
ACDBBLOCKREPETAG
1070
     1
1071
       54
1005
127594
  0
LINE
  5
127595
  8
OBJECT
 10
4597.0
 20
-637.0
 30
0.0
 11
4593.0
 21
-641.5
 31
0.0
1001
ACDBBLOCKREPETAG
1070
     1
1071
       55
1005
127595
  0
LINE
  5
127596
  8
OBJECT
 10
4597.0
 20
-755.0
 30
0.0
 11
4593.0
 21
-750.49999999999989
 31
0.0
1001
ACDBBLOCKREPETAG
1070
     1
1071
       56
1005
127596
  0
LINE
  5
127597
  8
OBJECT
 10
4583.0
 20
-634.0
 30
0.0
 11
4580.0
 21
-634.0
 31
0.0
1001
ACDBBLOCKREPETAG
1070
     1
1071
       57
1005
127597
  0
ARC
  5
127598
  8
OBJECT
 10
4583.0
 20
-637.0
 30
0.0
 40
3.0
 50
0.0
 51
90.0
1001
ACDBBLOCKREPETAG
1070
     1
1071
       58
1005
127598
  0
LINE
  5
127599
  8
OBJECT
 10
4580.0
 20
-758.0
 30
0.0
 11
4583.0
 21
-758.0
 31
0.0
1001
ACDBBLOCKREPETAG
1070
     1
1071
       59
1005
127599
  0
ARC
  5
12759A
  8
OBJECT
 10
4583.0
 20
-755.0
 30
0.0
 40
3.0
 50
270.0
 51
0.0
1001
ACDBBLOCKREPETAG
1070
     1
1071
       60
1005
12759A
  0
LINE
  5
12759B
  8
OBJECT
 10
4586.0
 20
-755.0
 30
0.0
 11
4586.0
 21
-637.0
 31
0.0
1001
ACDBBLOCKREPETAG
1070
     1
1071
       61
1005
12759B
  0
LINE
  5
12759C
  8
HIDDEN
 10
4588.0
 20
-651.5
 30
0.0
 11
4588.0
 21
-740.5
 31
0.0
1001
ACDBBLOCKREPETAG
1070
     1
1071
       63
1005
12759C
  0
TEXT
  5
12759D
  8
SLIM
 10
149.1428571427966
 20
-443.99999999984971
 30
0.0
 40
48.0
  1
A3
 41
0.75
1001
ACDBBLOCKREPETAG
1070
     1
1071
      119
1005
0
  0
LINE
  5
12759E
  8
OBJECT
 10
2633.0
 20
-634.0
 30
0.0
 11
2640.0
 21
-634.0
 31
0.0
1001
ACDBBLOCKREPETAG
1070
     1
1071
       45
1005
12759E
  0
LINE
  5
12759F
  8
OBJECT
 10
2640.0
 20
-634.0
 30
0.0
 11
2640.0
 21
-755.0
 31
0.0
1001
ACDBBLOCKREPETAG
1070
     1
1071
       46
1005
12759F
  0
LINE
  5
1275A0
  8
OBJECT
 10
2633.0
 20
-755.0
 30
0.0
 11
2633.0
 21
-634.0
 31
0.0
1001
ACDBBLOCKREPETAG
1070
     1
1071
       47
1005
1275A0
  0
LINE
  5
1275A1
  8
CENTER
 10
2655.0
 20
-696.0
 30
0.0
 11
2571.0
 21
-696.0
 31
0.0
1001
ACDBBLOCKREPETAG
1070
     1
1071
       48
1005
1275A1
  0
LINE
  5
1275A2
  8
OBJECT
 10
2633.0
 20
-637.0
 30
0.0
 11
2597.0
 21
-637.0
 31
0.0
1001
ACDBBLOCKREPETAG
1070
     1
1071
       49
1005
1275A2
  0
LINE
  5
1275A3
  8
OBJECT
 10
2597.0
 20
-637.0
 30
0.0
 11
2597.0
 21
-755.0
 31
0.0
1001
ACDBBLOCKREPETAG
1070
     1
1071
       50
1005
1275A3
  0
LINE
  5
1275A4
  8
OBJECT
 10
2597.0
 20
-755.0
 30
0.0
 11
2640.0
 21
-755.0
 31
0.0
1001
ACDBBLOCKREPETAG
1070
     1
1071
       51
1005
1275A4
  0
LINE
  5
1275A5
  8
OBJECT
 10
2593.0
 20
-641.5
 30
0.0
 11
2586.0
 21
-641.5
 31
0.0
1001
ACDBBLOCKREPETAG
1070
     1
1071
       52
1005
1275A5
  0
LINE
  5
1275A6
  8
OBJECT
 10
2586.0
 20
-750.49999999999989
 30
0.0
 11
2593.0
 21
-750.49999999999989
 31
0.0
1001
ACDBBLOCKREPETAG
1070
     1
1071
       53
1005
1275A6
  0
LINE
  5
1275A7
  8
OBJECT
 10
2593.0
 20
-750.49999999999989
 30
0.0
 11
2593.0
 21
-641.5
 31
0.0
1001
ACDBBLOCKREPETAG
1070
     1
1071
       54
1005
1275A7
  0
LINE
  5
1275A8
  8
OBJECT
 10
2597.0
 20
-637.0
 30
0.0
 11
2593.0
 21
-641.5
 31
0.0
1001
ACDBBLOCKREPETAG
1070
     1
1071
       55
1005
1275A8
  0
LINE
  5
1275A9
  8
OBJECT
 10
2597.0
 20
-755.0
 30
0.0
 11
2593.0
 21
-750.49999999999989
 31
0.0
1001
ACDBBLOCKREPETAG
1070
     1
1071
       56
1005
1275A9
  0
LINE
  5
1275AA
  8
OBJECT
 10
2583.0
 20
-634.0
 30
0.0
 11
2580.0
 21
-634.0
 31
0.0
1001
ACDBBLOCKREPETAG
1070
     1
1071
       57
1005
1275AA
  0
ARC
  5
1275AB
  8
OBJECT
 10
2583.0
 20
-637.0
 30
0.0
 40
3.0
 50
0.0
 51
90.0
1001
ACDBBLOCKREPETAG
1070
     1
1071
       58
1005
1275AB
  0
LINE
  5
1275AC
  8
OBJECT
 10
2580.0
 20
-758.0
 30
0.0
 11
2583.0
 21
-758.0
 31
0.0
1001
ACDBBLOCKREPETAG
1070
     1
1071
       59
1005
1275AC
  0
ARC
  5
1275AD
  8
OBJECT
 10
2583.0
 20
-755.0
 30
0.0
 40
3.0
 50
270.0
 51
0.0
1001
ACDBBLOCKREPETAG
1070
     1
1071
       60
1005
1275AD
  0
LINE
  5
1275AE
  8
OBJECT
 10
2586.0
 20
-755.0
 30
0.0
 11
2586.0
 21
-637.0
 31
0.0
1001
ACDBBLOCKREPETAG
1070
     1
1071
       61
1005
1275AE
  0
LINE
  5
1275AF
  8
HIDDEN
 10
2588.0
 20
-651.5
 30
0.0
 11
2588.0
 21
-740.5
 31
0.0
1001
ACDBBLOCKREPETAG
1070
     1
1071
       63
1005
1275AF
  0
TEXT
  5
1275B0
  8
SLIM
 10
0.0000035665234464
 20
24.000004585317608
 30
0.0
 40
79.999999999972701
  1
上部枝管
 41
0.75
1001
ACDBBLOCKREPETAG
1070
     1
1071
      119
1005
120BCB
  0
LINE
  5
1275B1
  8
DIM
 10
2650.0
 20
-3506.9999999999968
 30
0.0
 11
2728.479620594459
 21
-3506.9999999999968
 31
0.0
  0
LINE
  5
1275B2
  8
DIM
 10
2650.0
 20
-3412.9999999999968
 30
0.0
 11
2728.479620594459
 21
-3412.9999999999968
 31
0.0
  0
LINE
  5
1275B3
  8
DIM
 10
2718.479620594459
 20
-3486.9999999999959
 30
0.0
 11
2718.479620594459
 21
-3432.9999999999959
 31
0.0
  0
INSERT
  5
1275B4
  8
DIM
  2
_OPEN30
 10
2718.479620594459
 20
-3506.9999999999968
 30
0.0
 41
20.0
 42
20.0
 43
20.0
 50
270.0
  0
INSERT
  5
1275B5
  8
DIM
  2
_OPEN30
 10
2718.479620594459
 20
-3412.9999999999968
 30
0.0
 41
20.0
 42
20.0
 43
20.0
 50
90.0
  0
INSERT
  5
1275B6
  8
SLIM
  2
*U25
 10
0.0
 20
0.0
 30
0.0
  0
LINE
  5
1275B7
  8
DIM
 10
2650.0
 20
-3864.9999999999968
 30
0.0
 11
2726.8409284037339
 21
-3864.9999999999968
 31
0.0
  0
LINE
  5
1275B8
  8
DIM
 10
2665.0
 20
-3820.9999999999968
 30
0.0
 11
2726.8409284037339
 21
-3820.9999999999968
 31
0.0
  0
LINE
  5
1275B9
  8
DIM
 10
2716.8409284037339
 20
-3884.9999999999991
 30
0.0
 11
2716.8409284037339
 21
-3904.9999999999968
 31
0.0
  0
LINE
  5
1275BA
  8
DIM
 10
2716.8409284037339
 20
-3800.9999999999982
 30
0.0
 11
2716.8409284037339
 21
-3780.9999999999968
 31
0.0
  0
LINE
  5
1275BB
  8
DIM
 10
2716.8409284037339
 20
-3864.9999999999968
 30
0.0
 11
2716.8409284037339
 21
-3820.9999999999968
 31
0.0
  0
INSERT
  5
1275BC
  8
DIM
  2
_OPEN30
 10
2716.8409284037339
 20
-3864.9999999999968
 30
0.0
 41
20.0
 42
20.0
 43
20.0
 50
90.0
  0
INSERT
  5
1275BD
  8
DIM
  2
_OPEN30
 10
2716.8409284037339
 20
-3820.9999999999968
 30
0.0
 41
20.0
 42
20.0
 43
20.0
 50
270.0
  0
INSERT
  5
1275BE
  8
SLIM
  2
*U26
 10
0.0
 20
0.0
 30
0.0
  0
LINE
  5
1275BF
  8
DIM
 10
2500.0
 20
-3359.9999999999968
 30
0.0
 11
2500.0
 21
-3322.208121984444
 31
0.0
  0
LINE
  5
1275C0
  8
DIM
 10
2640.0
 20
-3402.9999999999968
 30
0.0
 11
2640.0
 21
-3322.208121984444
 31
0.0
  0
LINE
  5
1275C1
  8
DIM
 10
2520.0
 20
-3332.208121984444
 30
0.0
 11
2620.0
 21
-3332.208121984444
 31
0.0
  0
INSERT
  5
1275C2
  8
DIM
  2
_OPEN30
 10
2500.0
 20
-3332.208121984444
 30
0.0
 41
20.0
 42
20.0
 43
20.0
 50
180.0
  0
INSERT
  5
1275C3
  8
DIM
  2
_OPEN30
 10
2640.0
 20
-3332.208121984444
 30
0.0
 41
20.0
 42
20.0
 43
20.0
  0
INSERT
  5
1275C4
  8
SLIM
  2
*U27
 10
0.0
 20
0.0
 30
0.0
  0
TEXT
  5
1275C5
  8
SLIM
 10
3270.9999999999991
 20
-3237.5000160472709
 30
0.0
 40
40.0
  1
C寸法
 41
0.75
  0
TEXT
  5
1275C6
  8
SLIM
 10
3270.9999999999991
 20
-3167.5000160472709
 30
0.0
 40
40.0
  1
B寸法
 41
0.75
  0
TEXT
  5
1275C7
  8
SLIM
 10
3270.2857142857151
 20
-3097.5000160472709
 30
0.0
 40
40.0
  1
A寸法
 41
0.75
  0
TEXT
  5
1275C8
  8
SLIM
 10
3669.2857142857142
 20
-3237.5000160472709
 30
0.0
 40
40.0
  1
140
 41
0.75
  0
TEXT
  5
1275C9
  8
SLIM
 10
3409.2857142857151
 20
-3237.5000160472709
 30
0.0
 40
40.0
  1
140
 41
0.75
  0
TEXT
  5
1275CA
  8
SLIM
 10
3539.2857142857151
 20
-3237.5000160472709
 30
0.0
 40
40.0
  1
140
 41
0.75
  0
TEXT
  5
1275CB
  8
SLIM
 10
3681.4285714285711
 20
-3167.5000160472709
 30
0.0
 40
40.0
  1
59
 41
0.75
  0
TEXT
  5
1275CC
  8
SLIM
 10
3420.0
 20
-3167.5000160472709
 30
0.0
 40
40.0
  1
44
 41
0.75
  0
TEXT
  5
1275CD
  8
SLIM
 10
3550.7142857142849
 20
-3167.5000160472709
 30
0.0
 40
40.0
  1
52
 41
0.75
  0
TEXT
  5
1275CE
  8
SLIM
 10
3471.0
 20
-2972.5000160472709
 30
0.0
 40
40.0
  1
横枝管サイズ
 41
0.75
  0
TEXT
  5
1275CF
  8
SLIM
 10
3654.8571428571422
 20
-3027.50001604727
 30
0.0
 40
30.0
  1
75（3）
 41
0.75
  0
TEXT
  5
1275D0
  8
SLIM
 10
3524.8571428571422
 20
-3027.50001604727
 30
0.0
 40
30.0
  1
65（2）
 41
0.75
  0
TEXT
  5
1275D1
  8
SLIM
 10
3397.0
 20
-3027.50001604727
 30
0.0
 40
30.0
  1
50（1）
 41
0.75
  0
TEXT
  5
1275D2
  8
SLIM
 10
3668.5714285714289
 20
-3097.5000160472709
 30
0.0
 40
40.0
  1
124
 41
0.75
  0
TEXT
  5
1275D3
  8
SLIM
 10
3420.0
 20
-3097.5000160472709
 30
0.0
 40
40.0
  1
94
 41
0.75
  0
TEXT
  5
1275D4
  8
SLIM
 10
3542.142857142856
 20
-3097.5000160472709
 30
0.0
 40
40.0
  1
110
 41
0.75
  0
TEXT
  5
1275D5
  8
SLIM
 10
2349.9999999999991
 20
-2997.5
 30
0.0
 40
75.0
  1
下部枝管サイズ毎の形状
 41
0.75
  0
TEXT
  5
1275D6
  8
SLIM
 10
4394.25
 20
-3982.4999999999968
 30
0.0
 40
35.0
  1
通常枝75（3）
 41
0.75
  0
TEXT
  5
1275D7
  8
SLIM
 10
3394.2499999999991
 20
-3982.4999999999968
 30
0.0
 40
35.0
  1
通常枝65（2）
 41
0.75
  0
TEXT
  5
1275D8
  8
SLIM
 10
2396.75
 20
-3982.4999999999968
 30
0.0
 40
35.0
  1
通常枝50（1）
 41
0.75
  0
TEXT
  5
1275D9
  8
SLIM
 10
2337.75
 20
282.50000000000011
 30
0.0
 40
35.0
  1
（枝管サイズ毎に寸法が異なります。管底の位置は全サイズで同じです）
 41
0.75
  0
TEXT
  5
1275DA
  8
SLIM
 10
2350.0
 20
532.5
 30
0.0
 40
75.0
  1
側面図の代表機種
 41
0.75
  0
TEXT
  5
1275DB
  8
SLIM
 10
2350.0
 20
369.99999999999989
 30
0.0
 40
100.0
  1
4SRT2-A3-A2000-P440
 41
0.75
  0
TEXT
  5
1275DC
  8
SLIM
 10
4241.6249999999991
 20
-1752.499999999998
 30
0.0
 40
35.0
  1
片受けスタイル（S）＋シンドカット
 41
0.75
  0
TEXT
  5
1275DD
  8
SLIM
 10
2356.25
 20
-1752.499999999998
 30
0.0
 40
35.0
  1
片受けスタイル（S）
 41
0.75
  0
TEXT
  5
1275DE
  8
SLIM
 10
0.0
 20
370.0
 30
0.0
 40
100.0
  1
4SRT2-A3-AX000-PXXX-S
 41
0.75
  0
VIEWPORT
  5
F6BA7
 67
     1
  8
0
 10
195.9179030619629
 20
101.8328354358673
 30
0.0
 40
435.17763301655992
 41
222.19657968139651
 68
     1
 69
     1
1001
ACAD
1000
MVIEW
1002
{
1070
    16
1010
0.0
1020
0.0
1030
0.0
1010
0.0
1020
0.0
1030
1.0
1040
0.0
1040
222.19657968139651
1040
195.9179030619629
1040
101.8328354358673
1040
50.0
1040
0.0
1040
0.0
1070
     0
1070
     0
1070
     1
1070
     1
1070
     0
1070
     0
1070
     0
1070
     0
1040
0.0
1040
0.0
1040
0.0
1040
10.0
1040
10.0
1040
10.0
1040
10.0
1070
     0
1002
{
1002
}
1002
}
  0
VIEWPORT
  5
F6BA9
 67
     1
  8
OBJECT
 10
145.3303314447403
 20
101.8328338861465
 30
0.0
 40
232.5285303115844
 41
162.93253421783439
 68
     2
 69
     2
1001
ACAD
1000
MVIEW
1002
{
1070
    16
1010
0.0
1020
0.0
1030
0.0
1010
0.0
1020
0.0
1030
1.0
1040
0.0
1040
25942.55904403147
1040
2377.604457077377
1040
-7591.5176687056619
1040
50.0
1040
0.0
1040
0.0
1070
     0
1070
   600
1070
     1
1070
     1
1070
     0
1070
     0
1070
     0
1070
     0
1040
0.0
1040
0.0
1040
0.0
1040
1.0
1040
1.0
1040
0.0
1040
0.0
1070
     0
1002
{
1002
}
1002
}
  0
ENDSEC
  0
EOF
