  0
SECTION
  2
HEADER
  9
$ACADVER
  1
AC1009
  9
$INSBASE
 10
0.0
 20
0.0
 30
0.0
  9
$EXTMIN
 10
-0.0000000000000027
 20
-4102.4999999999954525
 30
0.0
  9
$EXTMAX
 10
5107.5428571428556097
 20
607.5
 30
0.0
  9
$LIMMIN
 10
0.0
 20
0.0
  9
$LIMMAX
 10
210.0
 20
297.0
  9
$ORTHOMODE
 70
     0
  9
$REGENMODE
 70
     1
  9
$FILLMODE
 70
     1
  9
$QTEXTMODE
 70
     0
  9
$MIRRTEXT
 70
     0
  9
$DRAGMODE
 70
     2
  9
$LTSCALE
 40
1.0
  9
$OSMODE
 70
    39
  9
$ATTMODE
 70
     1
  9
$TEXTSIZE
 40
4.0
  9
$TRACEWID
 40
0.05
  9
$TEXTSTYLE
  7
STANDARD
  9
$CLAYER
  8
SLIM
  9
$CELTYPE
  6
BYLAYER
  9
$CECOLOR
 62
   256
  9
$DIMSCALE
 40
10.0
  9
$DIMASZ
 40
2.0
  9
$DIMEXO
 40
1.0
  9
$DIMDLI
 40
10.0
  9
$DIMRND
 40
0.0
  9
$DIMDLE
 40
0.0
  9
$DIMEXE
 40
1.0
  9
$DIMTP
 40
0.0
  9
$DIMTM
 40
0.0
  9
$DIMTXT
 40
3.2000000000000002
  9
$DIMCEN
 40
0.0
  9
$DIMTSZ
 40
0.0
  9
$DIMTOL
 70
     0
  9
$DIMLIM
 70
     0
  9
$DIMTIH
 70
     0
  9
$DIMTOH
 70
     0
  9
$DIMSE1
 70
     0
  9
$DIMSE2
 70
     0
  9
$DIMTAD
 70
     1
  9
$DIMZIN
 70
     8
  9
$DIMBLK
  1
OPEN30
  9
$DIMASO
 70
     1
  9
$DIMSHO
 70
     1
  9
$DIMPOST
  1

  9
$DIMAPOST
  1

  9
$DIMALT
 70
     0
  9
$DIMALTD
 70
     2
  9
$DIMALTF
 40
25.3999999999999986
  9
$DIMLFAC
 40
1.0
  9
$DIMTOFL
 70
     1
  9
$DIMTVP
 40
0.0
  9
$DIMTIX
 70
     0
  9
$DIMSOXD
 70
     0
  9
$DIMSAH
 70
     0
  9
$DIMBLK1
  1

  9
$DIMBLK2
  1

  9
$DIMSTYLE
  2
S10
  9
$DIMCLRD
 70
   256
  9
$DIMCLRE
 70
   256
  9
$DIMCLRT
 70
   256
  9
$DIMTFAC
 40
1.0
  9
$DIMGAP
 40
0.9
  9
$LUNITS
 70
     2
  9
$LUPREC
 70
     2
  9
$SKETCHINC
 40
0.1
  9
$FILLETRAD
 40
0.0
  9
$AUNITS
 70
     0
  9
$AUPREC
 70
     2
  9
$MENU
  1
ACAD
  9
$ELEVATION
 40
0.0
  9
$PELEVATION
 40
0.0
  9
$THICKNESS
 40
0.0
  9
$LIMCHECK
 70
     0
  9
$BLIPMODE
 70
     0
  9
$CHAMFERA
 40
2.0
  9
$CHAMFERB
 40
2.0
  9
$SKPOLY
 70
     0
  9
$TDCREATE
 40
2453095.4929398149251938
  9
$TDUPDATE
 40
2459424.6592013891786337
  9
$TDINDWG
 40
19.0160741434999991
  9
$TDUSRTIMER
 40
19.0160735995000003
  9
$USRTIMER
 70
     1
  9
$ANGBASE
 50
0.0
  9
$ANGDIR
 70
     0
  9
$PDMODE
 70
    35
  9
$PDSIZE
 40
2.0
  9
$PLINEWID
 40
0.0
  9
$COORDS
 70
     1
  9
$SPLFRAME
 70
     0
  9
$SPLINETYPE
 70
     6
  9
$SPLINESEGS
 70
     8
  9
$ATTDIA
 70
     1
  9
$ATTREQ
 70
     1
  9
$HANDLING
 70
     1
  9
$HANDSEED
  5
12B242
  9
$SURFTAB1
 70
     6
  9
$SURFTAB2
 70
     6
  9
$SURFTYPE
 70
     6
  9
$SURFU
 70
     6
  9
$SURFV
 70
     6
  9
$UCSNAME
  2

  9
$UCSORG
 10
0.0
 20
0.0
 30
0.0
  9
$UCSXDIR
 10
1.0
 20
0.0
 30
0.0
  9
$UCSYDIR
 10
0.0
 20
1.0
 30
0.0
  9
$PUCSNAME
  2

  9
$PUCSORG
 10
0.0
 20
0.0
 30
0.0
  9
$PUCSXDIR
 10
1.0
 20
0.0
 30
0.0
  9
$PUCSYDIR
 10
0.0
 20
1.0
 30
0.0
  9
$USERI1
 70
     0
  9
$USERI2
 70
     0
  9
$USERI3
 70
     0
  9
$USERI4
 70
     0
  9
$USERI5
 70
     0
  9
$USERR1
 40
0.0
  9
$USERR2
 40
0.0
  9
$USERR3
 40
0.0
  9
$USERR4
 40
0.0
  9
$USERR5
 40
0.0
  9
$WORLDVIEW
 70
     1
  9
$SHADEDGE
 70
     3
  9
$SHADEDIF
 70
    70
  9
$TILEMODE
 70
     1
  9
$MAXACTVP
 70
    64
  9
$PLIMCHECK
 70
     0
  9
$PEXTMIN
 10
29.0660662889480506
 20
20.3665667772293091
 30
0.0
  9
$PEXTMAX
 10
261.5945966005324976
 20
183.2991009950638102
 30
0.0
  9
$PLIMMIN
 10
-3.17498779296875
 20
-3.1749999523162842
  9
$PLIMMAX
 10
293.835662841796875
 20
206.8406708240509033
  9
$UNITMODE
 70
     0
  9
$VISRETAIN
 70
     1
  9
$PLINEGEN
 70
     0
  9
$PSLTSCALE
 70
     1
  0
ENDSEC
  0
SECTION
  2
TABLES
  0
TABLE
  2
VPORT
 70
     1
  0
VPORT
  2
*ACTIVE
 70
     0
 10
0.0
 20
0.0
 11
1.0
 21
1.0
 12
3958.0238653599558347
 22
-1963.3559847999410977
 13
0.0
 23
0.0
 14
1.0
 24
1.0
 15
0.0
 25
0.0
 16
0.0
 26
0.0
 36
1.0
 17
0.0
 27
0.0
 37
0.0
 40
1419.8304542290109111
 41
1.8952941176470579
 42
50.0
 43
0.0
 44
0.0
 50
0.0
 51
0.0
 71
     0
 72
   600
 73
     1
 74
     1
 75
     0
 76
     0
 77
     0
 78
     0
  0
ENDTAB
  0
TABLE
  2
LTYPE
 70
     4
  0
LTYPE
  2
CONTINUOUS
 70
     0
  3
Solid line
 72
    65
 73
     0
 40
0.0
  0
LTYPE
  2
ACAD_ISO08W100
 70
     0
  3
ISO long-dash short-dash ____ __ ____ __ ____ _
 72
    65
 73
     4
 40
36.0
 49
24.0
 49
-3.0
 49
6.0
 49
-3.0
  0
LTYPE
  2
ACAD_ISO02W100
 70
     0
  3
ISO dash __ __ __ __ __ __ __ __ __ __ __ __ __
 72
    65
 73
     2
 40
15.0
 49
12.0
 49
-3.0
  0
ENDTAB
  0
TABLE
  2
LAYER
 70
     8
  0
LAYER
  2
0
 70
     0
 62
     7
  6
CONTINUOUS
  0
LAYER
  2
SLIM
 70
     0
 62
     2
  6
CONTINUOUS
  0
LAYER
  2
DEFPOINTS
 70
     0
 62
     7
  6
CONTINUOUS
  0
LAYER
  2
DIM
 70
     0
 62
     7
  6
CONTINUOUS
  0
LAYER
  2
OBJECT
 70
     0
 62
     4
  6
CONTINUOUS
  0
LAYER
  2
HIDDEN
 70
     0
 62
     2
  6
ACAD_ISO02W100
  0
LAYER
  2
CENTER
 70
     0
 62
     2
  6
ACAD_ISO08W100
  0
LAYER
  2
DOTS
 70
     0
 62
     1
  6
CONTINUOUS
  0
ENDTAB
  0
TABLE
  2
STYLE
 70
     2
  0
STYLE
  2
STANDARD
 70
     0
 40
0.0
 41
0.75
 50
0.0
 71
     0
 42
4.0
  3
simplex.shx
  4
bigfont.shx
  0
STYLE
  2
ANNOTATIVE
 70
     0
 40
0.0
 41
1.0
 50
0.0
 71
     0
 42
0.2
  3
txt
  4

  0
ENDTAB
  0
TABLE
  2
VIEW
 70
     0
  0
ENDTAB
  0
TABLE
  2
UCS
 70
     0
  0
ENDTAB
  0
TABLE
  2
APPID
 70
    20
  0
APPID
  2
ACAD
 70
     0
  0
APPID
  2
ACADANNOTATIVE
 70
     0
  0
APPID
  2
ACAD_PSEXT
 70
     0
  0
APPID
  2
ACAD_EXEMPT_FROM_CAD_STANDARDS
 70
     0
  0
APPID
  2
ACAECLAYERSTANDARD
 70
     0
  0
APPID
  2
ACAUTHENVIRON
 70
     0
  0
APPID
  2
ACDBDYNAMICBLOCKTRUENAME
 70
     0
  0
APPID
  2
ACDBDYNAMICBLOCKGUID
 70
     0
  0
APPID
  2
ACDBBLOCKREPETAG
 70
     0
  0
APPID
  2
ACDBBLOCKREPBTAG
 70
     0
  0
APPID
  2
ACAD_NAV_VCDISPLAY
 70
     0
  0
APPID
  2
ACAD_DSTYLE_DIMRADIAL_EXTENSION
 70
     0
  0
APPID
  2
ACAD_DSTYLE_DIMJAG
 70
     0
  0
APPID
  2
ACAD_DSTYLE_DIMTALN
 70
     0
  0
APPID
  2
ACADANNOPO
 70
     0
  0
APPID
  2
GRADIENTCOLOR1ACI
 70
     0
  0
APPID
  2
GRADIENTCOLOR2ACI
 70
     0
  0
APPID
  2
ACADANNOMONITORALERTICONDI
 70
     0
  0
APPID
  2
CONTENTBLOCKICON
 70
     0
  0
APPID
  2
ACAD_MLEADERVER
 70
     0
  0
ENDTAB
  0
TABLE
  2
DIMSTYLE
 70
     3
  0
DIMSTYLE
  2
STANDARD
 70
     0
  3

  4

  5

  6

  7

 40
1.0
 41
0.18
 42
0.0625
 43
0.38
 44
0.18
 45
0.0
 46
0.0
 47
0.0
 48
0.0
140
0.18
141
0.09
142
0.0
143
25.3999999999999986
144
1.0
145
0.0
146
1.0
147
0.09
 71
     0
 72
     0
 73
     1
 74
     1
 75
     0
 76
     0
 77
     0
 78
     0
170
     0
171
     2
172
     0
173
     0
174
     0
175
     0
176
     0
177
     0
178
     0
  0
DIMSTYLE
  2
ANNOTATIVE
 70
     0
  3

  4

  5

  6

  7

 40
1.0
 41
0.18
 42
0.0625
 43
0.38
 44
0.18
 45
0.0
 46
0.0
 47
0.0
 48
0.0
140
0.18
141
0.09
142
0.0
143
25.3999999999999986
144
1.0
145
0.0
146
1.0
147
0.09
 71
     0
 72
     0
 73
     1
 74
     1
 75
     0
 76
     0
 77
     0
 78
     0
170
     0
171
     2
172
     0
173
     0
174
     0
175
     0
176
     0
177
     0
178
     0
  0
DIMSTYLE
  2
S10
 70
     0
  3

  4

  5

  6

  7

 40
10.0
 41
2.0
 42
1.0
 43
10.0
 44
1.0
 45
0.0
 46
0.0
 47
0.0
 48
0.0
140
3.2000000000000002
141
0.0
142
0.0
143
25.3999999999999986
144
1.0
145
0.0
146
1.0
147
0.9
 71
     0
 72
     0
 73
     0
 74
     0
 75
     0
 76
     0
 77
     1
 78
     8
170
     0
171
     2
172
     1
173
     0
174
     0
175
     0
176
   256
177
   256
178
   256
  0
ENDTAB
  0
ENDSEC
  0
SECTION
  2
BLOCKS
  0
BLOCK
  8
0
  2
$MODEL_SPACE
 70
     0
 10
0.0
 20
0.0
 30
0.0
  3
$MODEL_SPACE
  1

  0
ENDBLK
  5
12B136
  8
0
  0
BLOCK
 67
     1
  8
0
  2
$PAPER_SPACE
 70
     0
 10
0.0
 20
0.0
 30
0.0
  3
$PAPER_SPACE
  1

  0
ENDBLK
  5
12B132
 67
     1
  8
0
  0
BLOCK
  8
0
  2
_OPEN30
 70
     0
 10
0.0
 20
0.0
 30
0.0
  3
_OPEN30
  1

  0
LINE
  5
202
  8
0
  6
BYBLOCK
 62
     0
 10
-1.0
 20
0.26794919
 30
0.0
 11
0.0
 21
0.0
 31
0.0
  0
LINE
  5
203
  8
0
  6
BYBLOCK
 62
     0
 10
0.0
 20
0.0
 30
0.0
 11
-1.0
 21
-0.26794919
 31
0.0
  0
LINE
  5
204
  8
0
  6
BYBLOCK
 62
     0
 10
0.0
 20
0.0
 30
0.0
 11
-1.0
 21
0.0
 31
0.0
  0
ENDBLK
  5
206
  8
0
  0
BLOCK
  8
0
  2
*U3
 70
     1
 10
0.0
 20
0.0
 30
0.0
  3
*U3
  1

  0
TEXT
  5
12AEB9
  8
DIM
 10
2561.4285714285711038
 20
-3443.2081219844449151
 30
0.0
 40
32.0
  1
C
 41
0.75
  0
ENDBLK
  5
12AEBB
  8
0
  0
BLOCK
  8
0
  2
*U4
 70
     1
 10
0.0
 20
0.0
 30
0.0
  3
*U4
  1

  0
TEXT
  5
12AEBD
  8
DIM
 10
2707.8409284037338693
 20
-3970.9999999999968168
 30
0.0
 40
32.0
  1
B
 50
90.0
 41
0.75
  0
ENDBLK
  5
12AEBF
  8
0
  0
BLOCK
  8
0
  2
*U5
 70
     1
 10
0.0
 20
0.0
 30
0.0
  3
*U5
  1

  0
TEXT
  5
12AEC1
  8
DIM
 10
2709.4796205944589929
 20
-3589.1428571428527903
 30
0.0
 40
32.0
  1
A
 50
90.0
 41
0.75
  0
ENDBLK
  5
12AEC3
  8
0
  0
BLOCK
  8
0
  2
*U6
 70
     1
 10
0.0
 20
0.0
 30
0.0
  3
*U6
  1

  0
TEXT
  5
12AEC5
  8
SLIM
 10
158.9523809524228
 20
-130.0000000001718092
 30
0.0
 40
26.0
  1
75
  0
ENDBLK
  5
12AEC7
  8
0
  0
BLOCK
  8
0
  2
*U7
 70
     1
 10
0.0
 20
0.0
 30
0.0
  3
*U7
  1

  0
TEXT
  5
12AEFB
  8
SLIM
 10
154.9523809523809064
 20
-894.0
 30
0.0
 40
26.0
  1
50
  0
ENDBLK
  5
12AEFD
  8
0
  0
BLOCK
  8
0
  2
*U8
 70
     1
 10
0.0
 20
0.0
 30
0.0
  3
*U8
  1

  0
TEXT
  5
12AEFF
  8
SLIM
 10
154.9523809523809064
 20
-1124.0
 30
0.0
 40
26.0
  1
50
  0
ENDBLK
  5
12AF01
  8
0
  0
BLOCK
  8
0
  2
*U9
 70
     1
 10
0.0
 20
0.0
 30
0.0
  3
*U9
  1

  0
TEXT
  5
12AF03
  8
SLIM
 10
514.9523809523809632
 20
-894.0
 30
0.0
 40
26.0
  1
50
  0
ENDBLK
  5
12AF05
  8
0
  0
BLOCK
  8
0
  2
*U10
 70
     1
 10
0.0
 20
0.0
 30
0.0
  3
*U10
  1

  0
TEXT
  5
12AF07
  8
SLIM
 10
514.9523809523809632
 20
-1124.0
 30
0.0
 40
26.0
  1
65
  0
ENDBLK
  5
12AF09
  8
0
  0
BLOCK
  8
0
  2
*U11
 70
     1
 10
0.0
 20
0.0
 30
0.0
  3
*U11
  1

  0
TEXT
  5
12AF0B
  8
SLIM
 10
154.9523809523809064
 20
-1358.0
 30
0.0
 40
26.0
  1
50
  0
ENDBLK
  5
12AF0D
  8
0
  0
BLOCK
  8
0
  2
*U12
 70
     1
 10
0.0
 20
0.0
 30
0.0
  3
*U12
  1

  0
TEXT
  5
12AF0F
  8
SLIM
 10
154.9523809523809064
 20
-1588.0
 30
0.0
 40
26.0
  1
75
  0
ENDBLK
  5
12AF11
  8
0
  0
BLOCK
  8
0
  2
*U13
 70
     1
 10
0.0
 20
0.0
 30
0.0
  3
*U13
  1

  0
TEXT
  5
12AF13
  8
SLIM
 10
514.9523809523809632
 20
-1358.0
 30
0.0
 40
26.0
  1
65
  0
ENDBLK
  5
12AF15
  8
0
  0
BLOCK
  8
0
  2
*U14
 70
     1
 10
0.0
 20
0.0
 30
0.0
  3
*U14
  1

  0
TEXT
  5
12AF17
  8
SLIM
 10
514.9523809523809632
 20
-1588.0
 30
0.0
 40
26.0
  1
50
  0
ENDBLK
  5
12AF19
  8
0
  0
BLOCK
  8
0
  2
*U15
 70
     1
 10
0.0
 20
0.0
 30
0.0
  3
*U15
  1

  0
TEXT
  5
12AF1B
  8
SLIM
 10
154.9523809523809064
 20
-1822.0
 30
0.0
 40
26.0
  1
65
  0
ENDBLK
  5
12AF1D
  8
0
  0
BLOCK
  8
0
  2
*U16
 70
     1
 10
0.0
 20
0.0
 30
0.0
  3
*U16
  1

  0
TEXT
  5
12AF1F
  8
SLIM
 10
154.9523809523809064
 20
-2052.0
 30
0.0
 40
26.0
  1
65
  0
ENDBLK
  5
12AF21
  8
0
  0
BLOCK
  8
0
  2
*U17
 70
     1
 10
0.0
 20
0.0
 30
0.0
  3
*U17
  1

  0
TEXT
  5
12AF23
  8
SLIM
 10
514.9523809523809632
 20
-1822.0
 30
0.0
 40
26.0
  1
65
  0
ENDBLK
  5
12AF25
  8
0
  0
BLOCK
  8
0
  2
*U18
 70
     1
 10
0.0
 20
0.0
 30
0.0
  3
*U18
  1

  0
TEXT
  5
12AF27
  8
SLIM
 10
514.9523809523809632
 20
-2052.0
 30
0.0
 40
26.0
  1
75
  0
ENDBLK
  5
12AF29
  8
0
  0
BLOCK
  8
0
  2
*U19
 70
     1
 10
0.0
 20
0.0
 30
0.0
  3
*U19
  1

  0
TEXT
  5
12AF2B
  8
SLIM
 10
154.9523809523809064
 20
-2286.0
 30
0.0
 40
26.0
  1
75
  0
ENDBLK
  5
12AF2D
  8
0
  0
BLOCK
  8
0
  2
*U20
 70
     1
 10
0.0
 20
0.0
 30
0.0
  3
*U20
  1

  0
TEXT
  5
12AF2F
  8
SLIM
 10
154.9523809523809064
 20
-2516.0
 30
0.0
 40
26.0
  1
50
  0
ENDBLK
  5
12AF31
  8
0
  0
BLOCK
  8
0
  2
*U21
 70
     1
 10
0.0
 20
0.0
 30
0.0
  3
*U21
  1

  0
TEXT
  5
12AF33
  8
SLIM
 10
514.9523809523809632
 20
-2286.0
 30
0.0
 40
26.0
  1
75
  0
ENDBLK
  5
12AF35
  8
0
  0
BLOCK
  8
0
  2
*U22
 70
     1
 10
0.0
 20
0.0
 30
0.0
  3
*U22
  1

  0
TEXT
  5
12AF37
  8
SLIM
 10
514.9523809523809632
 20
-2516.0
 30
0.0
 40
26.0
  1
65
  0
ENDBLK
  5
12AF39
  8
0
  0
BLOCK
  8
0
  2
*U23
 70
     1
 10
0.0
 20
0.0
 30
0.0
  3
*U23
  1

  0
TEXT
  5
12AF3B
  8
SLIM
 10
154.9523809523809064
 20
-2750.0
 30
0.0
 40
26.0
  1
75
  0
ENDBLK
  5
12AF3D
  8
0
  0
BLOCK
  8
0
  2
*U24
 70
     1
 10
0.0
 20
0.0
 30
0.0
  3
*U24
  1

  0
TEXT
  5
12AF3F
  8
SLIM
 10
154.9523809523809064
 20
-2980.0
 30
0.0
 40
26.0
  1
75
  0
ENDBLK
  5
12AF41
  8
0
  0
BLOCK
  8
0
  2
*U25
 70
     1
 10
0.0
 20
0.0
 30
0.0
  3
*U25
  1

  0
TEXT
  5
12AF43
  8
DIM
 10
2700.4245816727570855
 20
-924.0000000000004547
 30
0.0
 40
32.0
  1
P
 50
90.0
 41
0.75
  0
ENDBLK
  5
12AF45
  8
0
  0
BLOCK
  8
0
  2
*U26
 70
     1
 10
0.0
 20
0.0
 30
0.0
  3
*U26
  1

  0
TEXT
  5
12AF47
  8
DIM
 10
4700.4245816727570855
 20
-924.0000000000015916
 30
0.0
 40
32.0
  1
P
 50
90.0
 41
0.75
  0
ENDBLK
  5
12AF49
  8
0
  0
BLOCK
  8
0
  2
*U27
 70
     1
 10
0.0
 20
0.0
 30
0.0
  3
*U27
  1

  0
TEXT
  5
12AF4B
  8
DIM
 10
4334.1164560757752042
 20
-1378.7428571428579289
 30
0.0
 40
32.0
  1
m（シンドカット）
 50
90.0
 41
0.75
  0
ENDBLK
  5
12AF4D
  8
0
  0
ENDSEC
  0
SECTION
  2
ENTITIES
  0
LINE
  5
11273E
  8
OBJECT
 10
2325.0
 20
-3984.9999999999968168
 30
0.0
 11
5075.0
 21
-3984.9999999999968168
 31
0.0
  0
LINE
  5
11412B
  8
SLIM
 10
3256.0
 20
-3042.5000160472709467
 30
0.0
 11
3256.0
 21
-3372.5000160472709467
 31
0.0
  0
LINE
  5
11412C
  8
SLIM
 10
3380.0
 20
-3042.5000160472709467
 30
0.0
 11
3380.0
 21
-3372.5000160472709467
 31
0.0
  0
LINE
  5
11412D
  8
SLIM
 10
3510.0
 20
-3102.5000160472709467
 30
0.0
 11
3510.0
 21
-3372.5000160472709467
 31
0.0
  0
LINE
  5
11412E
  8
SLIM
 10
3640.0
 20
-3102.5000160472709467
 30
0.0
 11
3640.0
 21
-3372.5000160472709467
 31
0.0
  0
LINE
  5
11412F
  8
SLIM
 10
3770.0
 20
-3372.5000160472709467
 30
0.0
 11
3770.0
 21
-3042.5000160472709467
 31
0.0
  0
LINE
  5
114131
  8
SLIM
 10
3770.0
 20
-3042.5000160472709467
 30
0.0
 11
3256.0
 21
-3042.5000160472709467
 31
0.0
  0
LINE
  5
114132
  8
SLIM
 10
3769.9999999999990905
 20
-3102.5000160472709467
 30
0.0
 11
3380.0
 21
-3102.5000160472709467
 31
0.0
  0
LINE
  5
114133
  8
SLIM
 10
3770.0
 20
-3162.5000160472709467
 30
0.0
 11
3256.0
 21
-3162.5000160472709467
 31
0.0
  0
LINE
  5
114134
  8
SLIM
 10
3770.0
 20
-3232.5000160472700372
 30
0.0
 11
3256.0
 21
-3232.5000160472700372
 31
0.0
  0
LINE
  5
114135
  8
SLIM
 10
3770.0
 20
-3302.5000160472709467
 30
0.0
 11
3256.0
 21
-3302.5000160472709467
 31
0.0
  0
LINE
  5
114136
  8
SLIM
 10
3770.0
 20
-3372.5000160472709467
 30
0.0
 11
3256.0
 21
-3372.5000160472709467
 31
0.0
  0
LINE
  5
11414B
  8
SLIM
 10
3380.0
 20
-3162.5000160472709467
 30
0.0
 11
3255.9999722746579209
 21
-3042.5
 31
0.0
  0
LINE
  5
1238B4
  8
CENTER
 10
2580.0
 20
-3579.9999999999959073
 30
0.0
 11
2410.0
 21
-3579.9999999999959073
 31
0.0
1001
ACDBBLOCKREPETAG
1070
     1
1071
       14
1005
122545
  0
LINE
  5
1238B5
  8
CENTER
 10
2500.0
 20
-3669.9999999999968168
 30
0.0
 11
2500.0
 21
-3489.9999999999968168
 31
0.0
1001
ACDBBLOCKREPETAG
1070
     1
1071
       15
1005
122546
  0
CIRCLE
  5
1238B6
  8
OBJECT
 10
2500.0
 20
-3579.9999999999959073
 30
0.0
 40
70.0
1001
ACDBBLOCKREPETAG
1070
     1
1071
       16
1005
122547
  0
CIRCLE
  5
1238B7
  8
OBJECT
 10
2500.0
 20
-3579.9999999999959073
 30
0.0
 40
75.0
1001
ACDBBLOCKREPETAG
1070
     1
1071
       17
1005
122548
  0
LINE
  5
123927
  8
CENTER
 10
2500.0
 20
-3764.9999999999968168
 30
0.0
 11
2500.0
 21
-4011.9999999999959073
 31
0.0
1001
ACDBBLOCKREPETAG
1070
     1
1071
       25
1005
123927
  0
LINE
  5
123928
  8
OBJECT
 10
2425.0
 20
-3779.9999999999990905
 30
0.0
 11
2425.0
 21
-3999.9999999999968168
 31
0.0
1001
ACDBBLOCKREPETAG
1070
     1
1071
       26
1005
123928
  0
LINE
  5
12392C
  8
OBJECT
 10
2575.0
 20
-3779.9999999999990905
 30
0.0
 11
2575.0
 21
-3876.5000000000600267
 31
0.0
1001
ACDBBLOCKREPETAG
1070
     1
1071
       34
1005
12392C
  0
LINE
  5
123A5C
  8
OBJECT
 10
2575.0
 20
-3982.4999999999990905
 30
0.0
 11
2575.0
 21
-3999.9999999999968168
 31
0.0
1001
ACDBBLOCKREPETAG
1070
     1
1071
       34
1005
12392C
  0
LINE
  5
123A5E
  8
CENTER
 10
2900.0
 20
-3764.9999999999968168
 30
0.0
 11
2900.0
 21
-4011.9999999999959073
 31
0.0
1001
ACDBBLOCKREPETAG
1070
     1
1071
       25
1005
123927
  0
LINE
  5
123A5F
  8
OBJECT
 10
2825.0
 20
-3779.9999999999990905
 30
0.0
 11
2825.0
 21
-3999.9999999999968168
 31
0.0
1001
ACDBBLOCKREPETAG
1070
     1
1071
       26
1005
123928
  0
LINE
  5
123A60
  8
OBJECT
 10
2975.0
 20
-3779.9999999999990905
 30
0.0
 11
2975.0
 21
-4000.0
 31
0.0
1001
ACDBBLOCKREPETAG
1070
     1
1071
       34
1005
12392C
  0
LINE
  5
123AD2
  8
CENTER
 10
3580.0
 20
-3579.9999999999959073
 30
0.0
 11
3410.0
 21
-3579.9999999999959073
 31
0.0
1001
ACDBBLOCKREPETAG
1070
     1
1071
       14
1005
122545
  0
LINE
  5
123AD3
  8
CENTER
 10
3500.0
 20
-3669.9999999999968168
 30
0.0
 11
3500.0
 21
-3489.9999999999968168
 31
0.0
1001
ACDBBLOCKREPETAG
1070
     1
1071
       15
1005
122546
  0
CIRCLE
  5
123AD4
  8
OBJECT
 10
3500.0
 20
-3579.9999999999959073
 30
0.0
 40
70.0
1001
ACDBBLOCKREPETAG
1070
     1
1071
       16
1005
122547
  0
CIRCLE
  5
123AD5
  8
OBJECT
 10
3500.0
 20
-3579.9999999999959073
 30
0.0
 40
75.0
1001
ACDBBLOCKREPETAG
1070
     1
1071
       17
1005
122548
  0
LINE
  5
123ADD
  8
CENTER
 10
3500.0
 20
-3764.9999999999968168
 30
0.0
 11
3500.0
 21
-4011.9999999999959073
 31
0.0
1001
ACDBBLOCKREPETAG
1070
     1
1071
       25
1005
123927
  0
LINE
  5
123ADE
  8
OBJECT
 10
3424.9999999999990905
 20
-3779.9999999999990905
 30
0.0
 11
3424.9999999999990905
 21
-3999.9999999999968168
 31
0.0
1001
ACDBBLOCKREPETAG
1070
     1
1071
       26
1005
123928
  0
LINE
  5
123ADF
  8
OBJECT
 10
3574.9999999999990905
 20
-3779.9999999999990905
 30
0.0
 11
3574.9999999999990905
 21
-3876.5000000000600267
 31
0.0
1001
ACDBBLOCKREPETAG
1070
     1
1071
       34
1005
12392C
  0
LINE
  5
123AE0
  8
OBJECT
 10
3574.9999999999990905
 20
-3982.4999999999990905
 30
0.0
 11
3574.9999999999990905
 21
-3999.9999999999968168
 31
0.0
1001
ACDBBLOCKREPETAG
1070
     1
1071
       34
1005
12392C
  0
LINE
  5
123AE8
  8
CENTER
 10
3900.0
 20
-3764.9999999999968168
 30
0.0
 11
3900.0
 21
-4011.9999999999959073
 31
0.0
1001
ACDBBLOCKREPETAG
1070
     1
1071
       25
1005
123927
  0
LINE
  5
123AE9
  8
OBJECT
 10
3824.9999999999990905
 20
-3779.9999999999990905
 30
0.0
 11
3824.9999999999990905
 21
-3999.9999999999968168
 31
0.0
1001
ACDBBLOCKREPETAG
1070
     1
1071
       26
1005
123928
  0
LINE
  5
123AEA
  8
OBJECT
 10
3975.0
 20
-3779.9999999999990905
 30
0.0
 11
3975.0
 21
-4000.0
 31
0.0
1001
ACDBBLOCKREPETAG
1070
     1
1071
       34
1005
12392C
  0
LINE
  5
123B38
  8
CENTER
 10
4579.9999999999990905
 20
-3579.9999999999959073
 30
0.0
 11
4409.9999999999990905
 21
-3579.9999999999959073
 31
0.0
1001
ACDBBLOCKREPETAG
1070
     1
1071
       14
1005
122545
  0
LINE
  5
123B39
  8
CENTER
 10
4499.9999999999990905
 20
-3669.9999999999968168
 30
0.0
 11
4499.9999999999990905
 21
-3489.9999999999968168
 31
0.0
1001
ACDBBLOCKREPETAG
1070
     1
1071
       15
1005
122546
  0
CIRCLE
  5
123B3A
  8
OBJECT
 10
4499.9999999999990905
 20
-3579.9999999999959073
 30
0.0
 40
70.0
1001
ACDBBLOCKREPETAG
1070
     1
1071
       16
1005
122547
  0
CIRCLE
  5
123B3B
  8
OBJECT
 10
4499.9999999999990905
 20
-3579.9999999999959073
 30
0.0
 40
75.0
1001
ACDBBLOCKREPETAG
1070
     1
1071
       17
1005
122548
  0
LINE
  5
123B43
  8
CENTER
 10
4500.0
 20
-3764.9999999999968168
 30
0.0
 11
4500.0
 21
-4011.9999999999959073
 31
0.0
1001
ACDBBLOCKREPETAG
1070
     1
1071
       25
1005
123927
  0
LINE
  5
123B44
  8
OBJECT
 10
4425.0
 20
-3779.9999999999990905
 30
0.0
 11
4425.0
 21
-3999.9999999999968168
 31
0.0
1001
ACDBBLOCKREPETAG
1070
     1
1071
       26
1005
123928
  0
LINE
  5
123B45
  8
OBJECT
 10
4575.0
 20
-3779.9999999999990905
 30
0.0
 11
4575.0
 21
-3876.5000000000600267
 31
0.0
1001
ACDBBLOCKREPETAG
1070
     1
1071
       34
1005
12392C
  0
LINE
  5
123B46
  8
OBJECT
 10
4575.0
 20
-3982.4999999999990905
 30
0.0
 11
4575.0
 21
-3999.9999999999968168
 31
0.0
1001
ACDBBLOCKREPETAG
1070
     1
1071
       34
1005
12392C
  0
LINE
  5
123B4E
  8
CENTER
 10
4900.0
 20
-3764.9999999999968168
 30
0.0
 11
4900.0
 21
-4011.9999999999959073
 31
0.0
1001
ACDBBLOCKREPETAG
1070
     1
1071
       25
1005
123927
  0
LINE
  5
123B4F
  8
OBJECT
 10
4825.0
 20
-3779.9999999999990905
 30
0.0
 11
4825.0
 21
-3999.9999999999968168
 31
0.0
1001
ACDBBLOCKREPETAG
1070
     1
1071
       26
1005
123928
  0
LINE
  5
123B50
  8
OBJECT
 10
4975.0
 20
-3779.9999999999990905
 30
0.0
 11
4974.9999999999990905
 21
-4000.0
 31
0.0
1001
ACDBBLOCKREPETAG
1070
     1
1071
       34
1005
12392C
  0
POINT
  5
124C02
  8
DOTS
 10
2500.0
 20
-3579.9999999999959073
 30
0.0
  0
POINT
  5
124C03
  8
DOTS
 10
2500.0
 20
-3984.9999999999968168
 30
0.0
  0
POINT
  5
124C05
  8
DOTS
 10
3500.0
 20
-3984.9999999999968168
 30
0.0
  0
POINT
  5
124C07
  8
DOTS
 10
3500.0
 20
-3579.9999999999959073
 30
0.0
  0
POINT
  5
124C08
  8
DOTS
 10
4499.9999999999990905
 20
-3579.9999999999959073
 30
0.0
  0
POINT
  5
124C09
  8
DOTS
 10
4499.9999999999990905
 20
-3984.9999999999968168
 30
0.0
  0
LINE
  5
12A6D4
  8
CENTER
 10
4580.0
 20
-199.9999999999990905
 30
0.0
 11
4400.0
 21
-199.9999999999990905
 31
0.0
1001
ACDBBLOCKREPETAG
1070
     1
1071
       14
1005
0
  0
CIRCLE
  5
12A6D5
  8
OBJECT
 10
4500.0
 20
-199.9999999999990905
 30
0.0
 40
53.5
1001
ACDBBLOCKREPETAG
1070
     1
1071
      344
1005
0
  0
LINE
  5
12A6D6
  8
CENTER
 10
4500.0
 20
-299.9999999999990905
 30
0.0
 11
4500.0
 21
-99.9999999999990763
 31
0.0
1001
ACDBBLOCKREPETAG
1070
     1
1071
       15
1005
0
  0
POINT
  5
12A6D7
  8
DOTS
 10
4500.0
 20
-199.9999999999990905
 30
0.0
 50
270.0
1001
ACDBBLOCKREPETAG
1070
     1
1071
      362
1005
0
  0
CIRCLE
  5
12A6D8
  8
OBJECT
 10
4500.0
 20
-199.9999999999990905
 30
0.0
 40
70.0
1001
ACDBBLOCKREPETAG
1070
     1
1071
       16
1005
0
  0
ARC
  5
12A6D9
  8
OBJECT
 10
4500.0
 20
-199.9999999999990905
 30
0.0
 40
80.0
 50
50.8050325738959003
 51
309.1949674259690255
1001
ACDBBLOCKREPETAG
1070
     1
1071
       18
1005
0
  0
LINE
  5
12A6DA
  8
OBJECT
 10
4403.0
 20
-148.0
 30
0.0
 11
4407.0
 21
-152.5
 31
0.0
1001
ACDBBLOCKREPETAG
1070
     1
1071
       32
1005
0
  0
CIRCLE
  5
12A6DB
  8
OBJECT
 10
4500.0
 20
-199.9999999999990905
 30
0.0
 40
77.0
1001
ACDBBLOCKREPETAG
1070
     1
1071
       17
1005
0
  0
LINE
  5
12A6DC
  8
OBJECT
 10
4545.6618002273244201
 20
-261.9999999999990905
 30
0.0
 11
4580.0
 21
-261.9999999999990905
 31
0.0
1001
ACDBBLOCKREPETAG
1070
     1
1071
       20
1005
0
  0
LINE
  5
12A6DD
  8
OBJECT
 10
4545.6618002273244201
 20
-137.9999999999990905
 30
0.0
 11
4580.0
 21
-137.9999999999990905
 31
0.0
1001
ACDBBLOCKREPETAG
1070
     1
1071
       19
1005
0
  0
LINE
  5
12A6DE
  8
OBJECT
 10
4367.0
 20
-255.0
 30
0.0
 11
4360.0
 21
-255.0
 31
0.0
1001
ACDBBLOCKREPETAG
1070
     1
1071
       20
1005
0
  0
LINE
  5
12A6DF
  8
OBJECT
 10
4360.0
 20
-255.0
 30
0.0
 11
4360.0
 21
-145.0
 31
0.0
1001
ACDBBLOCKREPETAG
1070
     1
1071
       21
1005
0
  0
LINE
  5
12A6E0
  8
OBJECT
 10
4360.0
 20
-145.0
 30
0.0
 11
4367.0
 21
-145.0
 31
0.0
1001
ACDBBLOCKREPETAG
1070
     1
1071
       22
1005
0
  0
LINE
  5
12A6E1
  8
OBJECT
 10
4367.0
 20
-145.0
 30
0.0
 11
4367.0
 21
-255.0
 31
0.0
1001
ACDBBLOCKREPETAG
1070
     1
1071
       23
1005
0
  0
LINE
  5
12A6E2
  8
CENTER
 10
4345.0
 20
-200.0
 30
0.0
 11
4420.0
 21
-200.0
 31
0.0
1001
ACDBBLOCKREPETAG
1070
     1
1071
       24
1005
0
  0
LINE
  5
12A6E3
  8
OBJECT
 10
4367.0
 20
-252.0
 30
0.0
 11
4403.0
 21
-252.0
 31
0.0
1001
ACDBBLOCKREPETAG
1070
     1
1071
       25
1005
0
  0
LINE
  5
12A6E4
  8
OBJECT
 10
4403.0
 20
-252.0
 30
0.0
 11
4403.0
 21
-148.0
 31
0.0
1001
ACDBBLOCKREPETAG
1070
     1
1071
       26
1005
0
  0
LINE
  5
12A6E5
  8
OBJECT
 10
4403.0
 20
-148.0
 30
0.0
 11
4367.0
 21
-148.0
 31
0.0
1001
ACDBBLOCKREPETAG
1070
     1
1071
       27
1005
0
  0
LINE
  5
12A6E6
  8
OBJECT
 10
4407.0
 20
-247.5
 30
0.0
 11
4415.5
 21
-247.5
 31
0.0
1001
ACDBBLOCKREPETAG
1070
     1
1071
       28
1005
0
  0
LINE
  5
12A6E7
  8
OBJECT
 10
4415.5
 20
-152.5
 30
0.0
 11
4407.0
 21
-152.5
 31
0.0
1001
ACDBBLOCKREPETAG
1070
     1
1071
       29
1005
0
  0
LINE
  5
12A6E8
  8
OBJECT
 10
4407.0
 20
-152.5
 30
0.0
 11
4407.0
 21
-247.5
 31
0.0
1001
ACDBBLOCKREPETAG
1070
     1
1071
       30
1005
0
  0
LINE
  5
12A6E9
  8
OBJECT
 10
4403.0
 20
-252.0
 30
0.0
 11
4407.0
 21
-247.5
 31
0.0
1001
ACDBBLOCKREPETAG
1070
     1
1071
       31
1005
0
  0
ARC
  5
12A6EA
  8
OBJECT
 10
4500.0
 20
-199.9999999999990905
 30
0.0
 40
85.0
 50
46.8371028597321768
 51
144.3837932714677947
1001
ACDBBLOCKREPETAG
1070
     1
1071
       18
1005
0
  0
LINE
  5
12A6EB
  8
OBJECT
 10
4415.5
 20
-150.5
 30
0.0
 11
4415.5
 21
-249.5
 31
0.0
1001
ACDBBLOCKREPETAG
1070
     1
1071
       33
1005
0
  0
LINE
  5
12A6EC
  8
HIDDEN
 10
4412.0
 20
-238.0
 30
0.0
 11
4412.0
 21
-162.0
 31
0.0
1001
ACDBBLOCKREPETAG
1070
     1
1071
       34
1005
0
  0
LINE
  5
12A6ED
  8
OBJECT
 10
4415.5
 20
-249.5
 30
0.0
 11
4437.1529634747967066
 21
-249.5
 31
0.0
1001
ACDBBLOCKREPETAG
1070
     1
1071
       35
1005
0
  0
LINE
  5
12A6EE
  8
OBJECT
 10
4415.5
 20
-150.5
 30
0.0
 11
4437.1529634747967066
 21
-150.5
 31
0.0
1001
ACDBBLOCKREPETAG
1070
     1
1071
       36
1005
0
  0
ARC
  5
12A6EF
  8
OBJECT
 10
4500.0
 20
-199.9999999999990905
 30
0.0
 40
85.0
 50
215.6162067285320916
 51
313.1628971402676029
1001
ACDBBLOCKREPETAG
1070
     1
1071
       18
1005
0
  0
LINE
  5
12A6F8
  8
CENTER
 10
2580.0
 20
-199.9999999999980105
 30
0.0
 11
2400.0
 21
-199.9999999999980105
 31
0.0
1001
ACDBBLOCKREPETAG
1070
     1
1071
       14
1005
0
  0
CIRCLE
  5
12A6F9
  8
OBJECT
 10
2500.0
 20
-199.9999999999980105
 30
0.0
 40
53.5
1001
ACDBBLOCKREPETAG
1070
     1
1071
      344
1005
0
  0
LINE
  5
12A6FA
  8
CENTER
 10
2500.0
 20
-294.9999999999980105
 30
0.0
 11
2500.0
 21
-104.9999999999979963
 31
0.0
1001
ACDBBLOCKREPETAG
1070
     1
1071
       15
1005
0
  0
POINT
  5
12A6FB
  8
DOTS
 10
2500.0
 20
-199.9999999999980105
 30
0.0
 50
270.0
1001
ACDBBLOCKREPETAG
1070
     1
1071
      362
1005
0
  0
CIRCLE
  5
12A6FC
  8
OBJECT
 10
2500.0
 20
-199.9999999999980105
 30
0.0
 40
70.0
1001
ACDBBLOCKREPETAG
1070
     1
1071
       16
1005
0
  0
ARC
  5
12A6FD
  8
OBJECT
 10
2500.0
 20
-199.9999999999980105
 30
0.0
 40
80.0
 50
50.8050325738965682
 51
309.1949674259690255
1001
ACDBBLOCKREPETAG
1070
     1
1071
       18
1005
0
  0
CIRCLE
  5
12A6FE
  8
OBJECT
 10
2500.0
 20
-199.9999999999980105
 30
0.0
 40
77.0
1001
ACDBBLOCKREPETAG
1070
     1
1071
       17
1005
0
  0
LINE
  5
12A6FF
  8
OBJECT
 10
2545.6618002273230559
 20
-261.9999999999980105
 30
0.0
 11
2580.0
 21
-261.9999999999980105
 31
0.0
1001
ACDBBLOCKREPETAG
1070
     1
1071
       20
1005
0
  0
LINE
  5
12A700
  8
OBJECT
 10
2545.6618002273230559
 20
-137.9999999999980105
 30
0.0
 11
2580.0
 21
-137.9999999999980105
 31
0.0
1001
ACDBBLOCKREPETAG
1070
     1
1071
       19
1005
0
  0
LINE
  5
12A701
  8
OBJECT
 10
2366.9999999999990905
 20
-254.9999999999988916
 30
0.0
 11
2359.9999999999990905
 21
-254.9999999999988916
 31
0.0
1001
ACDBBLOCKREPETAG
1070
     1
1071
       20
1005
0
  0
LINE
  5
12A702
  8
OBJECT
 10
2359.9999999999990905
 20
-254.9999999999988916
 30
0.0
 11
2359.9999999999990905
 21
-144.9999999999986926
 31
0.0
1001
ACDBBLOCKREPETAG
1070
     1
1071
       21
1005
0
  0
LINE
  5
12A703
  8
OBJECT
 10
2359.9999999999990905
 20
-144.9999999999986926
 30
0.0
 11
2366.9999999999990905
 21
-144.9999999999986926
 31
0.0
1001
ACDBBLOCKREPETAG
1070
     1
1071
       22
1005
0
  0
LINE
  5
12A704
  8
OBJECT
 10
2366.9999999999990905
 20
-144.9999999999986926
 30
0.0
 11
2366.9999999999990905
 21
-254.9999999999988916
 31
0.0
1001
ACDBBLOCKREPETAG
1070
     1
1071
       23
1005
0
  0
LINE
  5
12A705
  8
CENTER
 10
2345.0
 20
-199.9999999999986926
 30
0.0
 11
2420.0
 21
-199.9999999999986926
 31
0.0
1001
ACDBBLOCKREPETAG
1070
     1
1071
       24
1005
0
  0
LINE
  5
12A706
  8
OBJECT
 10
2366.9999999999990905
 20
-251.9999999999988063
 30
0.0
 11
2403.0
 21
-251.9999999999988063
 31
0.0
1001
ACDBBLOCKREPETAG
1070
     1
1071
       25
1005
0
  0
LINE
  5
12A707
  8
OBJECT
 10
2403.0
 20
-251.9999999999988063
 30
0.0
 11
2403.0
 21
-147.9999999999986926
 31
0.0
1001
ACDBBLOCKREPETAG
1070
     1
1071
       26
1005
0
  0
LINE
  5
12A708
  8
OBJECT
 10
2403.0
 20
-147.9999999999986926
 30
0.0
 11
2366.9999999999990905
 21
-147.9999999999986926
 31
0.0
1001
ACDBBLOCKREPETAG
1070
     1
1071
       27
1005
0
  0
LINE
  5
12A709
  8
OBJECT
 10
2407.0
 20
-247.4999999999988063
 30
0.0
 11
2415.5
 21
-247.4999999999988063
 31
0.0
1001
ACDBBLOCKREPETAG
1070
     1
1071
       28
1005
0
  0
LINE
  5
12A70A
  8
OBJECT
 10
2415.5
 20
-152.4999999999988063
 30
0.0
 11
2407.0
 21
-152.4999999999988063
 31
0.0
1001
ACDBBLOCKREPETAG
1070
     1
1071
       29
1005
0
  0
LINE
  5
12A70B
  8
OBJECT
 10
2407.0
 20
-152.4999999999988063
 30
0.0
 11
2407.0
 21
-247.4999999999988063
 31
0.0
1001
ACDBBLOCKREPETAG
1070
     1
1071
       30
1005
0
  0
LINE
  5
12A70C
  8
OBJECT
 10
2403.0
 20
-251.9999999999988063
 30
0.0
 11
2407.0
 21
-247.4999999999988063
 31
0.0
1001
ACDBBLOCKREPETAG
1070
     1
1071
       31
1005
0
  0
LINE
  5
12A70D
  8
OBJECT
 10
2403.0
 20
-147.9999999999986926
 30
0.0
 11
2407.0
 21
-152.4999999999988063
 31
0.0
1001
ACDBBLOCKREPETAG
1070
     1
1071
       32
1005
0
  0
LINE
  5
12A70E
  8
OBJECT
 10
2415.5000000000009095
 20
-150.4999999999988063
 30
0.0
 11
2415.5
 21
-249.4999999999988916
 31
0.0
1001
ACDBBLOCKREPETAG
1070
     1
1071
       33
1005
0
  0
LINE
  5
12A70F
  8
HIDDEN
 10
2412.0
 20
-237.9999999999988916
 30
0.0
 11
2412.0
 21
-161.9999999999988063
 31
0.0
1001
ACDBBLOCKREPETAG
1070
     1
1071
       34
1005
0
  0
LINE
  5
12A710
  8
OBJECT
 10
2415.5
 20
-249.4999999999988916
 30
0.0
 11
2437.1529634747980708
 21
-249.4999999999988916
 31
0.0
1001
ACDBBLOCKREPETAG
1070
     1
1071
       35
1005
0
  0
LINE
  5
12A711
  8
OBJECT
 10
2415.5000000000009095
 20
-150.4999999999988063
 30
0.0
 11
2437.1529634747980708
 21
-150.4999999999988063
 31
0.0
1001
ACDBBLOCKREPETAG
1070
     1
1071
       36
1005
0
  0
LINE
  5
12A712
  8
SLIM
 10
4954.0
 20
-764.9999999999959073
 30
0.0
 11
4954.0
 21
-1484.9999999999959073
 31
0.0
  0
LINE
  5
12A713
  8
SLIM
 10
5102.0
 20
-764.9999999999959073
 30
0.0
 11
5102.0
 21
-1484.9999999999959073
 31
0.0
  0
LINE
  5
12A714
  8
SLIM
 10
4850.0
 20
-1484.9999999999959073
 30
0.0
 11
4850.0
 21
-764.9999999999959073
 31
0.0
  0
LINE
  5
12A715
  8
SLIM
 10
5102.0
 20
-764.9999999999959073
 30
0.0
 11
4850.0
 21
-764.9999999999959073
 31
0.0
  0
LINE
  5
12A716
  8
SLIM
 10
5102.0
 20
-812.9999999999959073
 30
0.0
 11
4850.0
 21
-812.9999999999959073
 31
0.0
  0
LINE
  5
12A71A
  8
SLIM
 10
5102.0
 20
-860.9999999999962483
 30
0.0
 11
4850.0
 21
-860.9999999999962483
 31
0.0
  0
LINE
  5
12A71B
  8
SLIM
 10
5102.0
 20
-908.999999999996362
 30
0.0
 11
4850.0
 21
-908.999999999996362
 31
0.0
  0
LINE
  5
12A71C
  8
SLIM
 10
5102.0
 20
-956.9999999999961346
 30
0.0
 11
4850.0
 21
-956.9999999999961346
 31
0.0
  0
LINE
  5
12A722
  8
SLIM
 10
5102.0
 20
-1004.999999999996021
 30
0.0
 11
4850.0
 21
-1004.999999999996021
 31
0.0
  0
LINE
  5
12A725
  8
SLIM
 10
5102.0
 20
-1052.9999999999959073
 30
0.0
 11
4850.0
 21
-1052.9999999999959073
 31
0.0
  0
LINE
  5
12A728
  8
SLIM
 10
5102.0
 20
-1100.9999999999959073
 30
0.0
 11
4850.0
 21
-1100.9999999999959073
 31
0.0
  0
LINE
  5
12A72B
  8
SLIM
 10
5102.0
 20
-1148.9999999999959073
 30
0.0
 11
4850.0
 21
-1148.9999999999959073
 31
0.0
  0
LINE
  5
12A72E
  8
SLIM
 10
5102.0
 20
-1196.9999999999959073
 30
0.0
 11
4850.0
 21
-1196.9999999999959073
 31
0.0
  0
LINE
  5
12A730
  8
SLIM
 10
5102.0
 20
-1244.9999999999959073
 30
0.0
 11
4850.0
 21
-1244.9999999999959073
 31
0.0
  0
LINE
  5
12A732
  8
SLIM
 10
5102.0
 20
-1292.9999999999959073
 30
0.0
 11
4850.0
 21
-1292.9999999999959073
 31
0.0
  0
LINE
  5
12A734
  8
SLIM
 10
5102.0
 20
-1340.9999999999959073
 30
0.0
 11
4850.0
 21
-1340.9999999999959073
 31
0.0
  0
LINE
  5
12A736
  8
SLIM
 10
5102.0
 20
-1388.9999999999959073
 30
0.0
 11
4850.0
 21
-1388.9999999999959073
 31
0.0
  0
LINE
  5
12A738
  8
SLIM
 10
5102.0
 20
-1436.9999999999959073
 30
0.0
 11
4850.0
 21
-1436.9999999999959073
 31
0.0
  0
LINE
  5
12A73A
  8
SLIM
 10
5102.0
 20
-1484.9999999999959073
 30
0.0
 11
4850.0
 21
-1484.9999999999959073
 31
0.0
  0
TEXT
  5
12A90D
  8
SLIM
 10
0.0
 20
369.9999999999998863
 30
0.0
 40
100.0
  1
4SRT2-A3-BX0X0-PXXX-S
 41
0.75
  0
TEXT
  5
12A90E
  8
SLIM
 10
2350.0
 20
369.9999999999998863
 30
0.0
 40
100.0
  1
4SRT2-A3-B2020-P440
 41
0.75
  0
TEXT
  5
12A90F
  8
SLIM
 10
2350.0
 20
532.5
 30
0.0
 40
75.0
  1
側面図の代表機種
 41
0.75
  0
TEXT
  5
12A910
  8
SLIM
 10
2337.75
 20
282.5000000000001137
 30
0.0
 40
35.0
  1
（枝管サイズ毎に寸法が異なります。管底の位置は全サイズで同じです）
 41
0.75
  0
TEXT
  5
12A911
  8
SLIM
 10
2396.75
 20
-4102.4999999999954525
 30
0.0
 40
35.0
  1
通常枝50（1）
 41
0.75
  0
TEXT
  5
12A912
  8
SLIM
 10
3394.2499999999990905
 20
-4102.4999999999954525
 30
0.0
 40
35.0
  1
通常枝65（2）
 41
0.75
  0
TEXT
  5
12A913
  8
SLIM
 10
4394.25
 20
-4102.4999999999954525
 30
0.0
 40
35.0
  1
通常枝75（3）
 41
0.75
  0
TEXT
  5
12A914
  8
SLIM
 10
2350.0
 20
-3117.5000000000009095
 30
0.0
 40
75.0
  1
下部枝管サイズ毎の形状
 41
0.75
  0
TEXT
  5
12A915
  8
SLIM
 10
3542.1428571428559735
 20
-3217.5000160472709467
 30
0.0
 40
40.0
  1
110
 41
0.75
  0
TEXT
  5
12A916
  8
SLIM
 10
3420.0
 20
-3217.5000160472709467
 30
0.0
 40
40.0
  1
94
 41
0.75
  0
TEXT
  5
12A917
  8
SLIM
 10
3668.5714285714288962
 20
-3217.5000160472709467
 30
0.0
 40
40.0
  1
124
 41
0.75
  0
TEXT
  5
12A918
  8
SLIM
 10
3397.0
 20
-3147.5000160472709467
 30
0.0
 40
30.0
  1
50（1）
 41
0.75
  0
TEXT
  5
12A919
  8
SLIM
 10
3524.8571428571422075
 20
-3147.5000160472709467
 30
0.0
 40
30.0
  1
65（2）
 41
0.75
  0
TEXT
  5
12A91A
  8
SLIM
 10
3654.8571428571422075
 20
-3147.5000160472709467
 30
0.0
 40
30.0
  1
75（3）
 41
0.75
  0
TEXT
  5
12A91B
  8
SLIM
 10
3471.0
 20
-3092.5000160472709467
 30
0.0
 40
40.0
  1
横枝管サイズ
 41
0.75
  0
TEXT
  5
12A91C
  8
SLIM
 10
3550.7142857142848698
 20
-3287.5000160472709467
 30
0.0
 40
40.0
  1
52
 41
0.75
  0
TEXT
  5
12A91D
  8
SLIM
 10
3420.0
 20
-3287.5000160472709467
 30
0.0
 40
40.0
  1
44
 41
0.75
  0
TEXT
  5
12A91E
  8
SLIM
 10
3681.4285714285711038
 20
-3287.5000160472709467
 30
0.0
 40
40.0
  1
59
 41
0.75
  0
TEXT
  5
12A91F
  8
SLIM
 10
3539.2857142857160397
 20
-3357.5000160472700372
 30
0.0
 40
40.0
  1
140
 41
0.75
  0
TEXT
  5
12A920
  8
SLIM
 10
3409.2857142857160397
 20
-3357.5000160472700372
 30
0.0
 40
40.0
  1
140
 41
0.75
  0
TEXT
  5
12A921
  8
SLIM
 10
3669.2857142857142208
 20
-3357.5000160472700372
 30
0.0
 40
40.0
  1
140
 41
0.75
  0
TEXT
  5
12A922
  8
SLIM
 10
3270.2857142857160397
 20
-3217.5000160472709467
 30
0.0
 40
40.0
  1
A寸法
 41
0.75
  0
TEXT
  5
12A923
  8
SLIM
 10
3270.9999999999990905
 20
-3287.5000160472709467
 30
0.0
 40
40.0
  1
B寸法
 41
0.75
  0
TEXT
  5
12A924
  8
SLIM
 10
3270.9999999999990905
 20
-3357.5000160472700372
 30
0.0
 40
40.0
  1
C寸法
 41
0.75
  0
LINE
  5
12A925
  8
DIM
 10
2500.0
 20
-3479.9999999999959073
 30
0.0
 11
2500.0
 21
-3442.2081219844449151
 31
0.0
  0
LINE
  5
12A926
  8
DIM
 10
2640.0
 20
-3522.9999999999959073
 30
0.0
 11
2640.0
 21
-3442.2081219844449151
 31
0.0
  0
LINE
  5
12A927
  8
DIM
 10
2520.0
 20
-3452.2081219844440056
 30
0.0
 11
2620.0
 21
-3452.2081219844440056
 31
0.0
  0
INSERT
  5
12A928
  8
DIM
  2
_OPEN30
 10
2500.0
 20
-3452.2081219844440056
 30
0.0
 41
20.0
 42
20.0
 43
20.0
 50
180.0
  0
INSERT
  5
12A929
  8
DIM
  2
_OPEN30
 10
2640.0
 20
-3452.2081219844440056
 30
0.0
 41
20.0
 42
20.0
 43
20.0
  0
INSERT
  5
12A92A
  8
SLIM
  2
*U3
 10
0.0
 20
0.0
 30
0.0
  0
LINE
  5
12A92B
  8
DIM
 10
2650.0
 20
-3984.9999999999990905
 30
0.0
 11
2726.8409284037338693
 21
-3984.9999999999990905
 31
0.0
  0
LINE
  5
12A92C
  8
DIM
 10
2665.0
 20
-3940.9999999999990905
 30
0.0
 11
2726.8409284037338693
 21
-3940.9999999999990905
 31
0.0
  0
LINE
  5
12A92D
  8
DIM
 10
2716.8409284037338693
 20
-4004.9999999999990905
 30
0.0
 11
2716.8409284037338693
 21
-4024.9999999999968168
 31
0.0
  0
LINE
  5
12A92E
  8
DIM
 10
2716.8409284037338693
 20
-3920.9999999999968168
 30
0.0
 11
2716.8409284037338693
 21
-3900.999999999998181
 31
0.0
  0
LINE
  5
12A92F
  8
DIM
 10
2716.8409284037338693
 20
-3984.9999999999990905
 30
0.0
 11
2716.8409284037338693
 21
-3940.9999999999990905
 31
0.0
  0
INSERT
  5
12A930
  8
DIM
  2
_OPEN30
 10
2716.8409284037338693
 20
-3984.9999999999990905
 30
0.0
 41
20.0
 42
20.0
 43
20.0
 50
90.0
  0
INSERT
  5
12A931
  8
DIM
  2
_OPEN30
 10
2716.8409284037338693
 20
-3940.9999999999990905
 30
0.0
 41
20.0
 42
20.0
 43
20.0
 50
270.0
  0
INSERT
  5
12A932
  8
SLIM
  2
*U4
 10
0.0
 20
0.0
 30
0.0
  0
LINE
  5
12A933
  8
DIM
 10
2650.0
 20
-3626.9999999999968168
 30
0.0
 11
2728.4796205944589929
 21
-3626.9999999999968168
 31
0.0
  0
LINE
  5
12A934
  8
DIM
 10
2650.0
 20
-3532.9999999999959073
 30
0.0
 11
2728.4796205944589929
 21
-3532.9999999999959073
 31
0.0
  0
LINE
  5
12A935
  8
DIM
 10
2718.4796205944589929
 20
-3606.9999999999968168
 30
0.0
 11
2718.4796205944589929
 21
-3552.9999999999968168
 31
0.0
  0
INSERT
  5
12A936
  8
DIM
  2
_OPEN30
 10
2718.4796205944589929
 20
-3626.9999999999968168
 30
0.0
 41
20.0
 42
20.0
 43
20.0
 50
270.0
  0
INSERT
  5
12A937
  8
DIM
  2
_OPEN30
 10
2718.4796205944589929
 20
-3532.9999999999959073
 30
0.0
 41
20.0
 42
20.0
 43
20.0
 50
90.0
  0
INSERT
  5
12A938
  8
SLIM
  2
*U5
 10
0.0
 20
0.0
 30
0.0
  0
TEXT
  5
12A939
  8
SLIM
 10
0.0000035665234464
 20
24.0000045853176012
 30
0.0
 40
79.9999999999727152
  1
上部枝管
 41
0.75
1001
ACDBBLOCKREPETAG
1070
     1
1071
      119
1005
120BCB
  0
TEXT
  5
12A93A
  8
SLIM
 10
149.1428571427966006
 20
-443.999999999849706
 30
0.0
 40
48.0
  1
A3
 41
0.75
1001
ACDBBLOCKREPETAG
1070
     1
1071
      119
1005
0
  0
LINE
  5
12A93B
  8
OBJECT
 10
2633.0
 20
-3532.9999999999959073
 30
0.0
 11
2640.0
 21
-3532.9999999999959073
 31
0.0
1001
ACDBBLOCKREPETAG
1070
     1
1071
        0
1005
12A93B
  0
LINE
  5
12A93C
  8
OBJECT
 10
2640.0
 20
-3532.9999999999959073
 30
0.0
 11
2640.0
 21
-3626.9999999999968168
 31
0.0
1001
ACDBBLOCKREPETAG
1070
     1
1071
        1
1005
12A93C
  0
LINE
  5
12A93D
  8
OBJECT
 10
2640.0
 20
-3626.9999999999968168
 30
0.0
 11
2633.0
 21
-3626.9999999999968168
 31
0.0
1001
ACDBBLOCKREPETAG
1070
     1
1071
        2
1005
12A93D
  0
LINE
  5
12A93E
  8
OBJECT
 10
2633.0
 20
-3626.9999999999968168
 30
0.0
 11
2633.0
 21
-3532.9999999999959073
 31
0.0
1001
ACDBBLOCKREPETAG
1070
     1
1071
        3
1005
12A93E
  0
LINE
  5
12A93F
  8
CENTER
 10
2655.0
 20
-3579.9999999999959073
 30
0.0
 11
2580.0
 21
-3579.9999999999959073
 31
0.0
1001
ACDBBLOCKREPETAG
1070
     1
1071
        4
1005
12A93F
  0
LINE
  5
12A940
  8
OBJECT
 10
2633.0
 20
-3535.9999999999959073
 30
0.0
 11
2596.9999999999990905
 21
-3535.9999999999959073
 31
0.0
1001
ACDBBLOCKREPETAG
1070
     1
1071
        5
1005
12A940
  0
LINE
  5
12A941
  8
OBJECT
 10
2596.9999999999990905
 20
-3535.9999999999959073
 30
0.0
 11
2596.9999999999990905
 21
-3623.9999999999968168
 31
0.0
1001
ACDBBLOCKREPETAG
1070
     1
1071
        6
1005
12A941
  0
LINE
  5
12A942
  8
OBJECT
 10
2596.9999999999990905
 20
-3623.9999999999968168
 30
0.0
 11
2633.0
 21
-3623.9999999999968168
 31
0.0
1001
ACDBBLOCKREPETAG
1070
     1
1071
        7
1005
12A942
  0
LINE
  5
12A943
  8
OBJECT
 10
2593.0
 20
-3540.4999999999968168
 30
0.0
 11
2584.5
 21
-3540.4999999999968168
 31
0.0
1001
ACDBBLOCKREPETAG
1070
     1
1071
        8
1005
12A943
  0
LINE
  5
12A944
  8
OBJECT
 10
2584.5
 20
-3619.4999999999968168
 30
0.0
 11
2593.0
 21
-3619.4999999999968168
 31
0.0
1001
ACDBBLOCKREPETAG
1070
     1
1071
        9
1005
12A944
  0
LINE
  5
12A945
  8
OBJECT
 10
2593.0
 20
-3619.4999999999968168
 30
0.0
 11
2593.0
 21
-3540.4999999999968168
 31
0.0
1001
ACDBBLOCKREPETAG
1070
     1
1071
       10
1005
12A945
  0
LINE
  5
12A946
  8
OBJECT
 10
2596.9999999999990905
 20
-3535.9999999999959073
 30
0.0
 11
2593.0
 21
-3540.4999999999968168
 31
0.0
1001
ACDBBLOCKREPETAG
1070
     1
1071
       11
1005
12A946
  0
LINE
  5
12A947
  8
OBJECT
 10
2596.9999999999990905
 20
-3623.9999999999968168
 30
0.0
 11
2593.0
 21
-3619.4999999999968168
 31
0.0
1001
ACDBBLOCKREPETAG
1070
     1
1071
       12
1005
12A947
  0
LINE
  5
12A948
  8
OBJECT
 10
2584.499999999998181
 20
-3626.4999999999959073
 30
0.0
 11
2584.5
 21
-3533.4999999999959073
 31
0.0
1001
ACDBBLOCKREPETAG
1070
     1
1071
       13
1005
12A948
  0
ARC
  5
12A949
  8
OBJECT
 10
2581.5
 20
-3533.4999999999959073
 30
0.0
 40
3.0
 50
0.0
 51
90.0
1001
ACDBBLOCKREPETAG
1070
     1
1071
       14
1005
12A949
  0
LINE
  5
12A94A
  8
HIDDEN
 10
2588.0
 20
-3549.9999999999968168
 30
0.0
 11
2588.0
 21
-3609.9999999999968168
 31
0.0
1001
ACDBBLOCKREPETAG
1070
     1
1071
       15
1005
12A94A
  0
LINE
  5
12A94B
  8
OBJECT
 10
2581.5
 20
-3530.4999999999959073
 30
0.0
 11
2556.3449199129800036
 21
-3530.4999999999959073
 31
0.0
1001
ACDBBLOCKREPETAG
1070
     1
1071
       17
1005
12A94B
  0
LINE
  5
12A94C
  8
OBJECT
 10
2581.499999999998181
 20
-3629.4999999999968168
 30
0.0
 11
2556.3449199129800036
 21
-3629.4999999999968168
 31
0.0
1001
ACDBBLOCKREPETAG
1070
     1
1071
       18
1005
12A94C
  0
ARC
  5
12A94D
  8
OBJECT
 10
2581.499999999998181
 20
-3626.4999999999959073
 30
0.0
 40
3.0
 50
270.0
 51
0.0
1001
ACDBBLOCKREPETAG
1070
     1
1071
       19
1005
12A94D
  0
LINE
  5
12A94E
  8
OBJECT
 10
2633.0
 20
-3893.9999999999959073
 30
0.0
 11
2640.0
 21
-3893.9999999999959073
 31
0.0
1001
ACDBBLOCKREPETAG
1070
     1
1071
        0
1005
12A94E
  0
LINE
  5
12A94F
  8
OBJECT
 10
2640.0
 20
-3893.9999999999959073
 30
0.0
 11
2640.0
 21
-3984.9999999999968168
 31
0.0
1001
ACDBBLOCKREPETAG
1070
     1
1071
        1
1005
12A94F
  0
LINE
  5
12A950
  8
OBJECT
 10
2584.5
 20
-3879.5000000000600267
 30
0.0
 11
2584.5
 21
-3982.4999999999968168
 31
0.0
1001
ACDBBLOCKREPETAG
1070
     1
1071
        2
1005
12A950
  0
ARC
  5
12A951
  8
OBJECT
 10
2581.5
 20
-3879.5000000000600267
 30
0.0
 40
3.0
 50
0.0
 51
90.0
1001
ACDBBLOCKREPETAG
1070
     1
1071
        3
1005
12A951
  0
LINE
  5
12A952
  8
OBJECT
 10
2633.0
 20
-3984.9999999999968168
 30
0.0
 11
2633.0
 21
-3893.9999999999959073
 31
0.0
1001
ACDBBLOCKREPETAG
1070
     1
1071
        4
1005
12A952
  0
LINE
  5
12A953
  8
CENTER
 10
2655.0
 20
-3940.9999999999959073
 30
0.0
 11
2541.9118237135839991
 21
-3940.9999999999959073
 31
0.0
1001
ACDBBLOCKREPETAG
1070
     1
1071
        5
1005
12A953
  0
LINE
  5
12A954
  8
OBJECT
 10
2633.0
 20
-3896.9999999999968168
 30
0.0
 11
2596.9999999999990905
 21
-3896.9999999999968168
 31
0.0
1001
ACDBBLOCKREPETAG
1070
     1
1071
        6
1005
12A954
  0
LINE
  5
12A955
  8
OBJECT
 10
2596.9999999999990905
 20
-3896.9999999999968168
 30
0.0
 11
2596.9999999999990905
 21
-3984.9999999999968168
 31
0.0
1001
ACDBBLOCKREPETAG
1070
     1
1071
        7
1005
12A955
  0
LINE
  5
12A956
  8
OBJECT
 10
2596.9999999999990905
 20
-3984.9999999999968168
 30
0.0
 11
2640.0
 21
-3984.9999999999968168
 31
0.0
1001
ACDBBLOCKREPETAG
1070
     1
1071
        8
1005
12A956
  0
LINE
  5
12A957
  8
OBJECT
 10
2593.0
 20
-3901.4999999999968168
 30
0.0
 11
2584.5
 21
-3901.4999999999968168
 31
0.0
1001
ACDBBLOCKREPETAG
1070
     1
1071
        9
1005
12A957
  0
LINE
  5
12A958
  8
OBJECT
 10
2584.5
 20
-3980.4999999999968168
 30
0.0
 11
2593.0
 21
-3980.4999999999968168
 31
0.0
1001
ACDBBLOCKREPETAG
1070
     1
1071
       10
1005
12A958
  0
LINE
  5
12A959
  8
OBJECT
 10
2593.0
 20
-3980.4999999999968168
 30
0.0
 11
2593.0
 21
-3901.4999999999968168
 31
0.0
1001
ACDBBLOCKREPETAG
1070
     1
1071
       11
1005
12A959
  0
LINE
  5
12A95A
  8
OBJECT
 10
2596.9999999999990905
 20
-3896.9999999999968168
 30
0.0
 11
2593.0
 21
-3901.4999999999968168
 31
0.0
1001
ACDBBLOCKREPETAG
1070
     1
1071
       12
1005
12A95A
  0
LINE
  5
12A95B
  8
OBJECT
 10
2596.9999999999990905
 20
-3984.9999999999968168
 30
0.0
 11
2593.0
 21
-3980.4999999999968168
 31
0.0
1001
ACDBBLOCKREPETAG
1070
     1
1071
       13
1005
12A95B
  0
LINE
  5
12A95C
  8
HIDDEN
 10
2588.0
 20
-3910.9999999999959073
 30
0.0
 11
2588.0
 21
-3970.9999999999959073
 31
0.0
1001
ACDBBLOCKREPETAG
1070
     1
1071
       14
1005
12A95C
  0
ARC
  5
12A95D
  8
OBJECT
 10
2664.8782728787741689
 20
-3941.4095072612258264
 30
0.0
 40
110.866352283089995
 50
144.1634274191434031
 51
163.0403538043316871
1001
ACDBBLOCKREPETAG
1070
     1
1071
       15
1005
12A95D
  0
ARC
  5
12A95E
  8
OBJECT
 10
2617.1359887769071975
 20
-3926.2877497184458662
 30
0.0
 40
60.7917498803589567
 50
163.5472046522266965
 51
179.7287969828267933
1001
ACDBBLOCKREPETAG
1070
     1
1071
       16
1005
12A95E
  0
ARC
  5
12A95F
  8
OBJECT
 10
2617.1359956562478146
 20
-3932.7122497598979862
 30
0.0
 40
60.7917567620948702
 50
180.2712034781451962
 51
196.4527794605338045
1001
ACDBBLOCKREPETAG
1070
     1
1071
       17
1005
12A95F
  0
ARC
  5
12A960
  8
OBJECT
 10
2664.8782728787741689
 20
-3917.590492738832836
 30
0.0
 40
110.8663522830916008
 50
196.9596461956681139
 51
215.8365725808565969
1001
ACDBBLOCKREPETAG
1070
     1
1071
       18
1005
12A960
  0
LINE
  5
12A961
  8
OBJECT
 10
2556.3449199130041052
 20
-3926.0000000000331966
 30
0.0
 11
2556.3449199130041052
 21
-3933.0000000000291038
 31
0.0
1001
ACDBBLOCKREPETAG
1070
     1
1071
       19
1005
12A961
  0
LINE
  5
12A962
  8
OBJECT
 10
2575.0
 20
-3876.5000000000600267
 30
0.0
 11
2581.5
 21
-3876.5000000000600267
 31
0.0
1001
ACDBBLOCKREPETAG
1070
     1
1071
       20
1005
12A962
  0
LINE
  5
12A963
  8
OBJECT
 10
2575.0
 20
-3982.4999999999968168
 30
0.0
 11
2584.5
 21
-3982.4999999999968168
 31
0.0
1001
ACDBBLOCKREPETAG
1070
     1
1071
       21
1005
12A963
  0
LINE
  5
12A964
  8
CENTER
 10
2838.0
 20
-3940.9999999999959073
 30
0.0
 11
2962.0
 21
-3940.9999999999959073
 31
0.0
1001
ACDBBLOCKREPETAG
1070
     1
1071
        0
1005
12A964
  0
CIRCLE
  5
12A965
  8
OBJECT
 10
2900.0
 20
-3940.9999999999959073
 30
0.0
 40
28.0
1001
ACDBBLOCKREPETAG
1070
     1
1071
        2
1005
12A965
  0
CIRCLE
  5
12A966
  8
OBJECT
 10
2900.0
 20
-3940.9999999999959073
 30
0.0
 40
39.0
1001
ACDBBLOCKREPETAG
1070
     1
1071
        3
1005
12A966
  0
ARC
  5
12A967
  8
OBJECT
 10
2900.0
 20
-3940.9999999999959073
 30
0.0
 40
47.0
 50
290.5819692114441182
 51
249.4180307885559102
1001
ACDBBLOCKREPETAG
1070
     1
1071
        4
1005
12A967
  0
LINE
  5
12A968
  8
OBJECT
 10
2883.4772883581417773
 20
-3984.9999999999968168
 30
0.0
 11
2916.5227116418568585
 21
-3984.9999999999968168
 31
0.0
1001
ACDBBLOCKREPETAG
1070
     1
1071
        5
1005
12A968
  0
ARC
  5
12A969
  8
OBJECT
 10
2900.0
 20
-3925.9999999999931788
 30
0.0
 40
49.5
 50
0.0
 51
180.0
1001
ACDBBLOCKREPETAG
1070
     1
1071
        6
1005
12A969
  0
LINE
  5
12A96A
  8
OBJECT
 10
2850.5000000000031832
 20
-3925.9999999999931788
 30
0.0
 11
2850.5000000000031832
 21
-3932.9999999999959073
 31
0.0
1001
ACDBBLOCKREPETAG
1070
     1
1071
        7
1005
12A96A
  0
LINE
  5
12A96B
  8
OBJECT
 10
2949.5000000000068212
 20
-3925.9999999999931788
 30
0.0
 11
2949.5000000000068212
 21
-3932.9999999999959073
 31
0.0
1001
ACDBBLOCKREPETAG
1070
     1
1071
        8
1005
12A96B
  0
ARC
  5
12A96C
  8
OBJECT
 10
2900.0
 20
-3932.9999999999959073
 30
0.0
 40
49.5
 50
180.0
 51
202.6695638510487925
1001
ACDBBLOCKREPETAG
1070
     1
1071
        9
1005
12A96C
  0
ARC
  5
12A96D
  8
OBJECT
 10
2900.0
 20
-3932.9999999999959073
 30
0.0
 40
49.5
 50
337.3304361489512075
 51
0.0
1001
ACDBBLOCKREPETAG
1070
     1
1071
       10
1005
12A96D
  0
POINT
  5
12A96E
  8
DOTS
 10
2900.0
 20
-3984.9999999999968168
 30
0.0
1001
ACDBBLOCKREPETAG
1070
     1
1071
       25
1005
12A96E
  0
LINE
  5
12A96F
  8
OBJECT
 10
3633.0
 20
-3524.9999999999968168
 30
0.0
 11
3640.0
 21
-3524.9999999999968168
 31
0.0
1001
ACDBBLOCKREPETAG
1070
     1
1071
       20
1005
12A96F
  0
LINE
  5
12A970
  8
OBJECT
 10
3640.0
 20
-3524.9999999999968168
 30
0.0
 11
3640.0
 21
-3634.9999999999968168
 31
0.0
1001
ACDBBLOCKREPETAG
1070
     1
1071
       21
1005
12A970
  0
LINE
  5
12A971
  8
OBJECT
 10
3640.0
 20
-3634.9999999999968168
 30
0.0
 11
3633.0
 21
-3634.9999999999968168
 31
0.0
1001
ACDBBLOCKREPETAG
1070
     1
1071
       22
1005
12A971
  0
LINE
  5
12A972
  8
OBJECT
 10
3633.0
 20
-3634.9999999999968168
 30
0.0
 11
3633.0
 21
-3524.9999999999968168
 31
0.0
1001
ACDBBLOCKREPETAG
1070
     1
1071
       23
1005
12A972
  0
LINE
  5
12A973
  8
CENTER
 10
3655.0
 20
-3579.9999999999959073
 30
0.0
 11
3580.0
 21
-3579.9999999999959073
 31
0.0
1001
ACDBBLOCKREPETAG
1070
     1
1071
       24
1005
12A973
  0
LINE
  5
12A974
  8
OBJECT
 10
3633.0
 20
-3527.9999999999968168
 30
0.0
 11
3597.0
 21
-3527.9999999999968168
 31
0.0
1001
ACDBBLOCKREPETAG
1070
     1
1071
       25
1005
12A974
  0
LINE
  5
12A975
  8
OBJECT
 10
3597.0
 20
-3527.9999999999968168
 30
0.0
 11
3597.0
 21
-3631.9999999999968168
 31
0.0
1001
ACDBBLOCKREPETAG
1070
     1
1071
       26
1005
12A975
  0
LINE
  5
12A976
  8
OBJECT
 10
3597.0
 20
-3631.9999999999968168
 30
0.0
 11
3633.0
 21
-3631.9999999999968168
 31
0.0
1001
ACDBBLOCKREPETAG
1070
     1
1071
       27
1005
12A976
  0
LINE
  5
12A977
  8
OBJECT
 10
3593.0
 20
-3532.4999999999968168
 30
0.0
 11
3584.5
 21
-3532.4999999999968168
 31
0.0
1001
ACDBBLOCKREPETAG
1070
     1
1071
       28
1005
12A977
  0
LINE
  5
12A978
  8
OBJECT
 10
3584.5
 20
-3627.4999999999959073
 30
0.0
 11
3593.0
 21
-3627.4999999999959073
 31
0.0
1001
ACDBBLOCKREPETAG
1070
     1
1071
       29
1005
12A978
  0
LINE
  5
12A979
  8
OBJECT
 10
3593.0
 20
-3627.4999999999959073
 30
0.0
 11
3593.0
 21
-3532.4999999999968168
 31
0.0
1001
ACDBBLOCKREPETAG
1070
     1
1071
       30
1005
12A979
  0
LINE
  5
12A97A
  8
OBJECT
 10
3597.0
 20
-3527.9999999999968168
 30
0.0
 11
3593.0
 21
-3532.4999999999968168
 31
0.0
1001
ACDBBLOCKREPETAG
1070
     1
1071
       31
1005
12A97A
  0
LINE
  5
12A97B
  8
OBJECT
 10
3597.0
 20
-3631.9999999999968168
 30
0.0
 11
3593.0
 21
-3627.4999999999959073
 31
0.0
1001
ACDBBLOCKREPETAG
1070
     1
1071
       32
1005
12A97B
  0
LINE
  5
12A97C
  8
OBJECT
 10
3584.499999999998181
 20
-3629.4999999999968168
 30
0.0
 11
3584.5
 21
-3530.4999999999959073
 31
0.0
1001
ACDBBLOCKREPETAG
1070
     1
1071
       33
1005
12A97C
  0
LINE
  5
12A97D
  8
HIDDEN
 10
3588.0
 20
-3541.9999999999968168
 30
0.0
 11
3588.0
 21
-3617.9999999999968168
 31
0.0
1001
ACDBBLOCKREPETAG
1070
     1
1071
       34
1005
12A97D
  0
LINE
  5
12A97E
  8
OBJECT
 10
3584.5
 20
-3530.4999999999959073
 30
0.0
 11
3556.3449199129800036
 21
-3530.4999999999959073
 31
0.0
1001
ACDBBLOCKREPETAG
1070
     1
1071
       35
1005
12A97E
  0
LINE
  5
12A97F
  8
OBJECT
 10
3584.499999999998181
 20
-3629.4999999999968168
 30
0.0
 11
3556.3449199129800036
 21
-3629.4999999999968168
 31
0.0
1001
ACDBBLOCKREPETAG
1070
     1
1071
       36
1005
12A97F
  0
LINE
  5
12A980
  8
OBJECT
 10
3633.0
 20
-3877.9999999999959073
 30
0.0
 11
3640.0
 21
-3877.9999999999959073
 31
0.0
1001
ACDBBLOCKREPETAG
1070
     1
1071
       23
1005
12A980
  0
LINE
  5
12A981
  8
OBJECT
 10
3640.0
 20
-3877.9999999999959073
 30
0.0
 11
3640.0
 21
-3984.9999999999968168
 31
0.0
1001
ACDBBLOCKREPETAG
1070
     1
1071
       24
1005
12A981
  0
LINE
  5
12A982
  8
OBJECT
 10
3584.5
 20
-3879.5000000000600267
 30
0.0
 11
3584.5
 21
-3982.4999999999968168
 31
0.0
1001
ACDBBLOCKREPETAG
1070
     1
1071
       25
1005
12A982
  0
ARC
  5
12A983
  8
OBJECT
 10
3581.5
 20
-3879.5000000000600267
 30
0.0
 40
3.0
 50
0.0
 51
90.0
1001
ACDBBLOCKREPETAG
1070
     1
1071
       26
1005
12A983
  0
LINE
  5
12A984
  8
OBJECT
 10
3633.0
 20
-3984.9999999999968168
 30
0.0
 11
3633.0
 21
-3877.9999999999959073
 31
0.0
1001
ACDBBLOCKREPETAG
1070
     1
1071
       27
1005
12A984
  0
LINE
  5
12A985
  8
CENTER
 10
3655.0
 20
-3932.9999999999959073
 30
0.0
 11
3541.3449199130041052
 21
-3933.0000000000618456
 31
0.0
1001
ACDBBLOCKREPETAG
1070
     1
1071
       28
1005
12A985
  0
LINE
  5
12A986
  8
OBJECT
 10
3633.0
 20
-3880.9999999999968168
 30
0.0
 11
3597.0
 21
-3880.9999999999968168
 31
0.0
1001
ACDBBLOCKREPETAG
1070
     1
1071
       29
1005
12A986
  0
LINE
  5
12A987
  8
OBJECT
 10
3597.0
 20
-3880.9999999999968168
 30
0.0
 11
3597.0
 21
-3984.9999999999968168
 31
0.0
1001
ACDBBLOCKREPETAG
1070
     1
1071
       30
1005
12A987
  0
LINE
  5
12A988
  8
OBJECT
 10
3597.0
 20
-3984.9999999999968168
 30
0.0
 11
3640.0
 21
-3984.9999999999968168
 31
0.0
1001
ACDBBLOCKREPETAG
1070
     1
1071
       31
1005
12A988
  0
LINE
  5
12A989
  8
OBJECT
 10
3593.0
 20
-3885.4999999999959073
 30
0.0
 11
3584.5
 21
-3885.4999999999959073
 31
0.0
1001
ACDBBLOCKREPETAG
1070
     1
1071
       32
1005
12A989
  0
LINE
  5
12A98A
  8
OBJECT
 10
3584.5
 20
-3980.4999999999968168
 30
0.0
 11
3593.0
 21
-3980.4999999999968168
 31
0.0
1001
ACDBBLOCKREPETAG
1070
     1
1071
       33
1005
12A98A
  0
LINE
  5
12A98B
  8
OBJECT
 10
3593.0
 20
-3980.4999999999968168
 30
0.0
 11
3593.0
 21
-3885.4999999999959073
 31
0.0
1001
ACDBBLOCKREPETAG
1070
     1
1071
       34
1005
12A98B
  0
LINE
  5
12A98C
  8
OBJECT
 10
3597.0
 20
-3880.9999999999968168
 30
0.0
 11
3593.0
 21
-3885.4999999999959073
 31
0.0
1001
ACDBBLOCKREPETAG
1070
     1
1071
       35
1005
12A98C
  0
LINE
  5
12A98D
  8
OBJECT
 10
3597.0
 20
-3984.9999999999968168
 30
0.0
 11
3593.0
 21
-3980.4999999999968168
 31
0.0
1001
ACDBBLOCKREPETAG
1070
     1
1071
       36
1005
12A98D
  0
LINE
  5
12A98E
  8
HIDDEN
 10
3588.0
 20
-3894.9999999999968168
 30
0.0
 11
3588.0
 21
-3970.9999999999959073
 31
0.0
1001
ACDBBLOCKREPETAG
1070
     1
1071
       37
1005
12A98E
  0
ARC
  5
12A98F
  8
OBJECT
 10
3664.8782728787741689
 20
-3941.4095072612258264
 30
0.0
 40
110.866352283089995
 50
144.1634274192888938
 51
163.0403538043316871
1001
ACDBBLOCKREPETAG
1070
     1
1071
       38
1005
12A98F
  0
ARC
  5
12A990
  8
OBJECT
 10
3617.135988776908107
 20
-3926.2877497184458662
 30
0.0
 40
60.7917498803589567
 50
163.5472046522266965
 51
179.7287969828267933
1001
ACDBBLOCKREPETAG
1070
     1
1071
       39
1005
12A990
  0
ARC
  5
12A991
  8
OBJECT
 10
3617.1359956562491789
 20
-3932.7122497598979862
 30
0.0
 40
60.7917567620948702
 50
180.2712034781451962
 51
196.4527794605338045
1001
ACDBBLOCKREPETAG
1070
     1
1071
       40
1005
12A991
  0
ARC
  5
12A992
  8
OBJECT
 10
3664.8782728787741689
 20
-3917.590492738832836
 30
0.0
 40
110.8663522830916008
 50
196.9596461956681139
 51
215.8365725807111062
1001
ACDBBLOCKREPETAG
1070
     1
1071
       41
1005
12A992
  0
LINE
  5
12A993
  8
OBJECT
 10
3556.3449199130041052
 20
-3926.0000000000331966
 30
0.0
 11
3556.3449199130041052
 21
-3933.0000000000291038
 31
0.0
1001
ACDBBLOCKREPETAG
1070
     1
1071
       42
1005
12A993
  0
LINE
  5
12A994
  8
OBJECT
 10
3574.9999999999990905
 20
-3876.5000000000600267
 30
0.0
 11
3581.5
 21
-3876.5000000000600267
 31
0.0
1001
ACDBBLOCKREPETAG
1070
     1
1071
       43
1005
12A994
  0
LINE
  5
12A995
  8
OBJECT
 10
3574.9999999999990905
 20
-3982.4999999999968168
 30
0.0
 11
3584.5
 21
-3982.4999999999968168
 31
0.0
1001
ACDBBLOCKREPETAG
1070
     1
1071
       44
1005
12A995
  0
CIRCLE
  5
12A996
  8
OBJECT
 10
3900.0
 20
-3932.9999999999959073
 30
0.0
 40
35.5
1001
ACDBBLOCKREPETAG
1070
     1
1071
       11
1005
12A996
  0
LINE
  5
12A997
  8
CENTER
 10
3830.0
 20
-3932.9999999999959073
 30
0.0
 11
3970.0
 21
-3932.9999999999959073
 31
0.0
1001
ACDBBLOCKREPETAG
1070
     1
1071
       12
1005
12A997
  0
CIRCLE
  5
12A998
  8
OBJECT
 10
3900.0
 20
-3932.9999999999959073
 30
0.0
 40
47.0
1001
ACDBBLOCKREPETAG
1070
     1
1071
       14
1005
12A998
  0
ARC
  5
12A999
  8
OBJECT
 10
3900.0
 20
-3932.9999999999959073
 30
0.0
 40
55.0
 50
289.0112652600889191
 51
250.9887347399111093
1001
ACDBBLOCKREPETAG
1070
     1
1071
       15
1005
12A999
  0
LINE
  5
12A99A
  8
OBJECT
 10
3882.0835271328319322
 20
-3984.9999999999968168
 30
0.0
 11
3917.9164728671680678
 21
-3984.9999999999968168
 31
0.0
1001
ACDBBLOCKREPETAG
1070
     1
1071
       16
1005
12A99A
  0
POINT
  5
12A99B
  8
DOTS
 10
3900.0
 20
-3984.9999999999968168
 30
0.0
1001
ACDBBLOCKREPETAG
1070
     1
1071
       24
1005
12A99B
  0
LINE
  5
12A99C
  8
OBJECT
 10
4633.0000000000009095
 20
-3517.9999999999968168
 30
0.0
 11
4640.0000000000009095
 21
-3517.9999999999968168
 31
0.0
1001
ACDBBLOCKREPETAG
1070
     1
1071
       38
1005
12A99C
  0
LINE
  5
12A99D
  8
OBJECT
 10
4640.0000000000009095
 20
-3517.9999999999968168
 30
0.0
 11
4640.0
 21
-3641.9999999999968168
 31
0.0
1001
ACDBBLOCKREPETAG
1070
     1
1071
       39
1005
12A99D
  0
LINE
  5
12A99E
  8
OBJECT
 10
4640.0
 20
-3641.9999999999968168
 30
0.0
 11
4633.0
 21
-3641.9999999999968168
 31
0.0
1001
ACDBBLOCKREPETAG
1070
     1
1071
       40
1005
12A99E
  0
LINE
  5
12A99F
  8
OBJECT
 10
4633.0
 20
-3641.9999999999968168
 30
0.0
 11
4633.0000000000009095
 21
-3517.9999999999968168
 31
0.0
1001
ACDBBLOCKREPETAG
1070
     1
1071
       41
1005
12A99F
  0
LINE
  5
12A9A0
  8
CENTER
 10
4655.0
 20
-3579.9999999999959073
 30
0.0
 11
4580.0
 21
-3579.9999999999959073
 31
0.0
1001
ACDBBLOCKREPETAG
1070
     1
1071
       42
1005
12A9A0
  0
LINE
  5
12A9A1
  8
OBJECT
 10
4633.0000000000009095
 20
-3520.9999999999968168
 30
0.0
 11
4597.0000000000009095
 21
-3520.9999999999968168
 31
0.0
1001
ACDBBLOCKREPETAG
1070
     1
1071
       43
1005
12A9A1
  0
LINE
  5
12A9A2
  8
OBJECT
 10
4597.0000000000009095
 20
-3520.9999999999968168
 30
0.0
 11
4597.0
 21
-3638.9999999999990905
 31
0.0
1001
ACDBBLOCKREPETAG
1070
     1
1071
       44
1005
12A9A2
  0
LINE
  5
12A9A3
  8
OBJECT
 10
4597.0
 20
-3638.9999999999990905
 30
0.0
 11
4633.0
 21
-3638.9999999999990905
 31
0.0
1001
ACDBBLOCKREPETAG
1070
     1
1071
       45
1005
12A9A3
  0
LINE
  5
12A9A4
  8
OBJECT
 10
4593.0
 20
-3525.4999999999968168
 30
0.0
 11
4582.5000000000009095
 21
-3525.4999999999968168
 31
0.0
1001
ACDBBLOCKREPETAG
1070
     1
1071
       46
1005
12A9A4
  0
LINE
  5
12A9A5
  8
OBJECT
 10
4582.5
 20
-3634.4999999999959073
 30
0.0
 11
4593.0
 21
-3634.4999999999959073
 31
0.0
1001
ACDBBLOCKREPETAG
1070
     1
1071
       47
1005
12A9A5
  0
LINE
  5
12A9A6
  8
OBJECT
 10
4593.0
 20
-3634.4999999999959073
 30
0.0
 11
4593.0
 21
-3525.4999999999968168
 31
0.0
1001
ACDBBLOCKREPETAG
1070
     1
1071
       48
1005
12A9A6
  0
LINE
  5
12A9A7
  8
OBJECT
 10
4597.0000000000009095
 20
-3520.9999999999968168
 30
0.0
 11
4593.0
 21
-3525.4999999999968168
 31
0.0
1001
ACDBBLOCKREPETAG
1070
     1
1071
       49
1005
12A9A7
  0
LINE
  5
12A9A8
  8
OBJECT
 10
4597.0
 20
-3638.9999999999990905
 30
0.0
 11
4593.0
 21
-3634.4999999999959073
 31
0.0
1001
ACDBBLOCKREPETAG
1070
     1
1071
       50
1005
12A9A8
  0
LINE
  5
12A9A9
  8
HIDDEN
 10
4588.0
 20
-3535.4999999999959073
 30
0.0
 11
4588.0
 21
-3624.4999999999959073
 31
0.0
1001
ACDBBLOCKREPETAG
1070
     1
1071
       51
1005
12A9A9
  0
LINE
  5
12A9AA
  8
OBJECT
 10
4577.5000000000009095
 20
-3530.4999999999959073
 30
0.0
 11
4556.3449199129790941
 21
-3530.4999999999959073
 31
0.0
1001
ACDBBLOCKREPETAG
1070
     1
1071
       52
1005
12A9AA
  0
LINE
  5
12A9AB
  8
OBJECT
 10
4577.4999999999990905
 20
-3629.4999999999968168
 30
0.0
 11
4556.3449199129790941
 21
-3629.4999999999968168
 31
0.0
1001
ACDBBLOCKREPETAG
1070
     1
1071
       53
1005
12A9AB
  0
LINE
  5
12A9AC
  8
OBJECT
 10
4582.5000000000009095
 20
-3525.4999999999968168
 30
0.0
 11
4582.5
 21
-3634.4999999999959073
 31
0.0
1001
ACDBBLOCKREPETAG
1070
     1
1071
       54
1005
12A9AC
  0
LINE
  5
12A9AD
  8
OBJECT
 10
4577.5000000000009095
 20
-3530.4999999999959073
 30
0.0
 11
4577.4999999999990905
 21
-3629.4999999999968168
 31
0.0
1001
ACDBBLOCKREPETAG
1070
     1
1071
       55
1005
12A9AD
  0
LINE
  5
12A9AE
  8
OBJECT
 10
4582.5000000000009095
 20
-3525.4999999999968168
 30
0.0
 11
4577.5000000000009095
 21
-3530.4999999999959073
 31
0.0
1001
ACDBBLOCKREPETAG
1070
     1
1071
       56
1005
12A9AE
  0
LINE
  5
12A9AF
  8
OBJECT
 10
4577.4999999999990905
 20
-3629.4999999999968168
 30
0.0
 11
4582.5
 21
-3634.4999999999931788
 31
0.0
1001
ACDBBLOCKREPETAG
1070
     1
1071
       57
1005
12A9AF
  0
LINE
  5
12A9B0
  8
OBJECT
 10
4633.0
 20
-3863.9999999999968168
 30
0.0
 11
4640.0
 21
-3863.9999999999968168
 31
0.0
1001
ACDBBLOCKREPETAG
1070
     1
1071
       46
1005
12A9B0
  0
LINE
  5
12A9B1
  8
OBJECT
 10
4640.0
 20
-3863.9999999999968168
 30
0.0
 11
4640.0
 21
-3984.9999999999968168
 31
0.0
1001
ACDBBLOCKREPETAG
1070
     1
1071
       47
1005
12A9B1
  0
LINE
  5
12A9B2
  8
OBJECT
 10
4633.0
 20
-3984.9999999999968168
 30
0.0
 11
4633.0
 21
-3863.9999999999968168
 31
0.0
1001
ACDBBLOCKREPETAG
1070
     1
1071
       48
1005
12A9B2
  0
LINE
  5
12A9B3
  8
CENTER
 10
4655.0
 20
-3925.9999999999959073
 30
0.0
 11
4541.3449199130036504
 21
-3926.0000000000618456
 31
0.0
1001
ACDBBLOCKREPETAG
1070
     1
1071
       49
1005
12A9B3
  0
LINE
  5
12A9B4
  8
OBJECT
 10
4633.0
 20
-3866.9999999999968168
 30
0.0
 11
4597.0
 21
-3866.9999999999968168
 31
0.0
1001
ACDBBLOCKREPETAG
1070
     1
1071
       50
1005
12A9B4
  0
LINE
  5
12A9B5
  8
OBJECT
 10
4597.0
 20
-3866.9999999999968168
 30
0.0
 11
4597.0
 21
-3984.9999999999968168
 31
0.0
1001
ACDBBLOCKREPETAG
1070
     1
1071
       51
1005
12A9B5
  0
LINE
  5
12A9B6
  8
OBJECT
 10
4597.0
 20
-3984.9999999999968168
 30
0.0
 11
4640.0
 21
-3984.9999999999968168
 31
0.0
1001
ACDBBLOCKREPETAG
1070
     1
1071
       52
1005
12A9B6
  0
LINE
  5
12A9B7
  8
OBJECT
 10
4593.0
 20
-3871.4999999999968168
 30
0.0
 11
4582.5
 21
-3871.4999999999968168
 31
0.0
1001
ACDBBLOCKREPETAG
1070
     1
1071
       53
1005
12A9B7
  0
LINE
  5
12A9B8
  8
OBJECT
 10
4582.5
 20
-3980.4999999999968168
 30
0.0
 11
4593.0
 21
-3980.4999999999968168
 31
0.0
1001
ACDBBLOCKREPETAG
1070
     1
1071
       54
1005
12A9B8
  0
LINE
  5
12A9B9
  8
OBJECT
 10
4593.0
 20
-3980.4999999999968168
 30
0.0
 11
4593.0
 21
-3871.4999999999968168
 31
0.0
1001
ACDBBLOCKREPETAG
1070
     1
1071
       55
1005
12A9B9
  0
LINE
  5
12A9BA
  8
OBJECT
 10
4597.0
 20
-3866.9999999999968168
 30
0.0
 11
4593.0
 21
-3871.4999999999968168
 31
0.0
1001
ACDBBLOCKREPETAG
1070
     1
1071
       56
1005
12A9BA
  0
LINE
  5
12A9BB
  8
OBJECT
 10
4597.0
 20
-3984.9999999999968168
 30
0.0
 11
4593.0
 21
-3980.4999999999968168
 31
0.0
1001
ACDBBLOCKREPETAG
1070
     1
1071
       57
1005
12A9BB
  0
LINE
  5
12A9BC
  8
HIDDEN
 10
4588.0
 20
-3881.4999999999959073
 30
0.0
 11
4588.0
 21
-3970.4999999999959073
 31
0.0
1001
ACDBBLOCKREPETAG
1070
     1
1071
       58
1005
12A9BC
  0
ARC
  5
12A9BD
  8
OBJECT
 10
4664.8782728787718952
 20
-3941.4095072612258264
 30
0.0
 40
110.866352283089995
 50
144.1634274192888938
 51
163.0403538043393894
1001
ACDBBLOCKREPETAG
1070
     1
1071
       59
1005
12A9BD
  0
ARC
  5
12A9BE
  8
OBJECT
 10
4617.1359887769067427
 20
-3926.2877497184458662
 30
0.0
 40
60.7917498803589567
 50
163.5472046522193068
 51
179.7287969828265943
1001
ACDBBLOCKREPETAG
1070
     1
1071
       60
1005
12A9BE
  0
ARC
  5
12A9BF
  8
OBJECT
 10
4617.1359956562482694
 20
-3932.7122497598979862
 30
0.0
 40
60.7917567620948702
 50
180.2712034781451962
 51
196.4527794605265001
1001
ACDBBLOCKREPETAG
1070
     1
1071
       61
1005
12A9BF
  0
ARC
  5
12A9C0
  8
OBJECT
 10
4664.8782728787718952
 20
-3917.590492738832836
 30
0.0
 40
110.8663522830916008
 50
196.9596461956604969
 51
215.8365725807111062
1001
ACDBBLOCKREPETAG
1070
     1
1071
       62
1005
12A9C0
  0
LINE
  5
12A9C1
  8
OBJECT
 10
4556.3449199130036504
 20
-3926.0000000000331966
 30
0.0
 11
4556.3449199130036504
 21
-3933.0000000000291038
 31
0.0
1001
ACDBBLOCKREPETAG
1070
     1
1071
       63
1005
12A9C1
  0
LINE
  5
12A9C2
  8
OBJECT
 10
4574.9999999998335625
 20
-3876.5000000002910383
 30
0.0
 11
4577.499999999836291
 21
-3876.5000000002910383
 31
0.0
1001
ACDBBLOCKREPETAG
1070
     1
1071
       65
1005
12A9C2
  0
LINE
  5
12A9C3
  8
OBJECT
 10
4574.999999999832653
 20
-3982.4999999997671694
 30
0.0
 11
4579.499999999830834
 21
-3982.4999999997671694
 31
0.0
1001
ACDBBLOCKREPETAG
1070
     1
1071
       66
1005
12A9C3
  0
LINE
  5
12A9C4
  8
OBJECT
 10
4579.499999999830834
 20
-3982.4999999997671694
 30
0.0
 11
4577.499999999836291
 21
-3876.5000000002910383
 31
0.0
1001
ACDBBLOCKREPETAG
1070
     1
1071
       67
1005
12A9C4
  0
LINE
  5
12A9C5
  8
OBJECT
 10
4579.499999999830834
 20
-3982.4999999997671694
 30
0.0
 11
4582.5
 21
-3980.4999999999968168
 31
0.0
1001
ACDBBLOCKREPETAG
1070
     1
1071
       68
1005
12A9C5
  0
LINE
  5
12A9C6
  8
OBJECT
 10
4582.5
 20
-3980.4999999999968168
 30
0.0
 11
4582.5
 21
-3871.4999999999968168
 31
0.0
1001
ACDBBLOCKREPETAG
1070
     1
1071
       69
1005
12A9C6
  0
LINE
  5
12A9C7
  8
OBJECT
 10
4582.5
 20
-3871.4999999999968168
 30
0.0
 11
4577.499999999836291
 21
-3876.5000000002910383
 31
0.0
1001
ACDBBLOCKREPETAG
1070
     1
1071
       70
1005
12A9C7
  0
LINE
  5
12A9C8
  8
CENTER
 10
4977.0
 20
-3925.9999999999959073
 30
0.0
 11
4823.0
 21
-3925.9999999999959073
 31
0.0
1001
ACDBBLOCKREPETAG
1070
     1
1071
       17
1005
12A9C8
  0
CIRCLE
  5
12A9C9
  8
OBJECT
 10
4900.0
 20
-3925.9999999999959073
 30
0.0
 40
41.5
1001
ACDBBLOCKREPETAG
1070
     1
1071
       18
1005
12A9C9
  0
CIRCLE
  5
12A9CA
  8
OBJECT
 10
4900.0
 20
-3925.9999999999959073
 30
0.0
 40
54.0
1001
ACDBBLOCKREPETAG
1070
     1
1071
       19
1005
12A9CA
  0
ARC
  5
12A9CB
  8
OBJECT
 10
4900.0
 20
-3925.9999999999959073
 30
0.0
 40
62.0
 50
287.8965511292112751
 51
252.1034488707886965
1001
ACDBBLOCKREPETAG
1070
     1
1071
       20
1005
12A9CB
  0
LINE
  5
12A9CC
  8
OBJECT
 10
4880.947441116742084
 20
-3984.9999999999968168
 30
0.0
 11
4919.052558883257916
 21
-3984.9999999999968168
 31
0.0
1001
ACDBBLOCKREPETAG
1070
     1
1071
       21
1005
12A9CC
  0
POINT
  5
12A9CD
  8
DOTS
 10
4900.0
 20
-3984.9999999999968168
 30
0.0
1001
ACDBBLOCKREPETAG
1070
     1
1071
       23
1005
12A9CD
  0
TEXT
  5
12A9CE
  8
SLIM
 10
0.000003566523219
 20
-775.9999954146824166
 30
0.0
 40
79.9999999999727152
  1
下部枝管バリエーション
 41
0.75
1001
ACDBBLOCKREPETAG
1070
     1
1071
      119
1005
120BCB
  0
INSERT
  5
12A9CF
  8
SLIM
  2
*U6
 10
0.0
 20
0.0
 30
0.0
  0
LINE
  5
12A9D0
  8
OBJECT
 10
118.0000000000417941
 20
-99.0000000001718803
 30
0.0
 11
118.0000000000417941
 21
-92.0000000001718945
 31
0.0
1001
ACDBBLOCKREPETAG
1070
     1
1071
       39
1005
12A9D0
  0
LINE
  5
12A9D1
  8
OBJECT
 10
118.0000000000417941
 20
-92.0000000001718945
 30
0.0
 11
242.0000000000418083
 21
-92.0000000001718945
 31
0.0
1001
ACDBBLOCKREPETAG
1070
     1
1071
       40
1005
12A9D1
  0
LINE
  5
12A9D2
  8
OBJECT
 10
242.0000000000418083
 20
-92.0000000001718945
 30
0.0
 11
242.0000000000418083
 21
-99.0000000001718803
 31
0.0
1001
ACDBBLOCKREPETAG
1070
     1
1071
       41
1005
12A9D2
  0
LINE
  5
12A9D3
  8
OBJECT
 10
242.0000000000418083
 20
-99.0000000001718803
 30
0.0
 11
118.0000000000417941
 21
-99.0000000001718803
 31
0.0
1001
ACDBBLOCKREPETAG
1070
     1
1071
       42
1005
12A9D3
  0
LINE
  5
12A9D4
  8
OBJECT
 10
121.0000000000417941
 20
-99.0000000001718803
 30
0.0
 11
121.0000000000417941
 21
-135.0000000001718092
 31
0.0
1001
ACDBBLOCKREPETAG
1070
     1
1071
       43
1005
12A9D4
  0
LINE
  5
12A9D5
  8
OBJECT
 10
121.0000000000417941
 20
-135.0000000001718092
 30
0.0
 11
239.0000000000418083
 21
-135.0000000001718092
 31
0.0
1001
ACDBBLOCKREPETAG
1070
     1
1071
       44
1005
12A9D5
  0
LINE
  5
12A9D6
  8
OBJECT
 10
239.0000000000418083
 20
-135.0000000001718092
 30
0.0
 11
239.0000000000418083
 21
-99.0000000001718803
 31
0.0
1001
ACDBBLOCKREPETAG
1070
     1
1071
       45
1005
12A9D6
  0
LINE
  5
12A9D7
  8
OBJECT
 10
125.5000000000417941
 20
-139.0000000001718092
 30
0.0
 11
125.5000000000417941
 21
-146.0000000001718092
 31
0.0
1001
ACDBBLOCKREPETAG
1070
     1
1071
       46
1005
12A9D7
  0
LINE
  5
12A9D8
  8
OBJECT
 10
234.5000000000418083
 20
-146.0000000001718092
 30
0.0
 11
234.5000000000418083
 21
-139.0000000001718092
 31
0.0
1001
ACDBBLOCKREPETAG
1070
     1
1071
       47
1005
12A9D8
  0
LINE
  5
12A9D9
  8
OBJECT
 10
234.5000000000418083
 20
-139.0000000001718092
 30
0.0
 11
125.5000000000417941
 21
-139.0000000001718092
 31
0.0
1001
ACDBBLOCKREPETAG
1070
     1
1071
       48
1005
12A9D9
  0
LINE
  5
12A9DA
  8
OBJECT
 10
121.0000000000417941
 20
-135.0000000001718092
 30
0.0
 11
125.5000000000417941
 21
-139.0000000001718092
 31
0.0
1001
ACDBBLOCKREPETAG
1070
     1
1071
       49
1005
12A9DA
  0
LINE
  5
12A9DB
  8
OBJECT
 10
239.0000000000418083
 20
-135.0000000001718092
 30
0.0
 11
234.5000000000418083
 21
-139.0000000001718092
 31
0.0
1001
ACDBBLOCKREPETAG
1070
     1
1071
       50
1005
12A9DB
  0
LINE
  5
12A9DC
  8
OBJECT
 10
118.0000000000417941
 20
-149.0000000001710134
 30
0.0
 11
118.0000000000417941
 21
-152.0000000001718092
 31
0.0
1001
ACDBBLOCKREPETAG
1070
     1
1071
       51
1005
12A9DC
  0
ARC
  5
12A9DD
  8
OBJECT
 10
121.0000000000417941
 20
-149.0000000001710134
 30
0.0
 40
3.0
 50
90.0
 51
180.0
1001
ACDBBLOCKREPETAG
1070
     1
1071
       52
1005
12A9DD
  0
LINE
  5
12A9DE
  8
OBJECT
 10
242.0000000000418083
 20
-152.0000000001718092
 30
0.0
 11
242.0000000000418083
 21
-149.000000000172804
 31
0.0
1001
ACDBBLOCKREPETAG
1070
     1
1071
       53
1005
12A9DE
  0
ARC
  5
12A9DF
  8
OBJECT
 10
239.0000000000418083
 20
-149.000000000172804
 30
0.0
 40
3.0
 50
0.0
 51
90.0
1001
ACDBBLOCKREPETAG
1070
     1
1071
       54
1005
12A9DF
  0
LINE
  5
12A9E0
  8
OBJECT
 10
239.0000000000418083
 20
-146.000000000172804
 30
0.0
 11
121.0000000000417941
 21
-146.0000000001710134
 31
0.0
1001
ACDBBLOCKREPETAG
1070
     1
1071
       55
1005
12A9E0
  0
LINE
  5
12A9E1
  8
HIDDEN
 10
135.5000000000418083
 20
-144.0000000001718945
 30
0.0
 11
224.5000000000418083
 21
-144.0000000001718945
 31
0.0
1001
ACDBBLOCKREPETAG
1070
     1
1071
      426
1005
12A9E1
  0
POLYLINE
  5
12A9E2
  8
HIDDEN
 66
     1
 10
0.0
 20
0.0
 30
0.0
 70
     1
1001
ACDBBLOCKREPETAG
1070
     1
1071
      105
1005
0
  0
VERTEX
  5
12B1CA
  8
HIDDEN
 10
359.9999999998781277
 20
-800.0
 30
0.0
  0
VERTEX
  5
12B1CB
  8
HIDDEN
 10
719.9999999997562554
 20
-800.0
 30
0.0
  0
VERTEX
  5
12B1CC
  8
HIDDEN
 10
719.9999999997562554
 20
-1263.9999999998419753
 30
0.0
  0
VERTEX
  5
12B1CD
  8
HIDDEN
 10
359.9999999998781277
 20
-1263.9999999998419753
 30
0.0
  0
SEQEND
  5
12B1CE
  8
HIDDEN
  0
POLYLINE
  5
12A9E3
  8
HIDDEN
 66
     1
 10
0.0
 20
0.0
 30
0.0
 70
     1
1001
ACDBBLOCKREPETAG
1070
     1
1071
      110
1005
0
  0
VERTEX
  5
12B1CF
  8
HIDDEN
 10
0.0
 20
-800.0
 30
0.0
  0
VERTEX
  5
12B1D0
  8
HIDDEN
 10
359.9999999998781277
 20
-800.0
 30
0.0
  0
VERTEX
  5
12B1D1
  8
HIDDEN
 10
359.9999999998781277
 20
-1263.9999999998419753
 30
0.0
  0
VERTEX
  5
12B1D2
  8
HIDDEN
 10
0.0
 20
-1263.9999999998419753
 30
0.0
  0
SEQEND
  5
12B1D3
  8
HIDDEN
  0
POLYLINE
  5
12A9E4
  8
HIDDEN
 66
     1
 10
0.0
 20
0.0
 30
0.0
 70
     1
1001
ACDBBLOCKREPETAG
1070
     1
1071
      120
1005
0
  0
VERTEX
  5
12B1D4
  8
HIDDEN
 10
359.9999999998781277
 20
-1263.9999999998419753
 30
0.0
  0
VERTEX
  5
12B1D5
  8
HIDDEN
 10
719.9999999997562554
 20
-1263.9999999998419753
 30
0.0
  0
VERTEX
  5
12B1D6
  8
HIDDEN
 10
719.9999999997562554
 20
-1727.9999999996830411
 30
0.0
  0
VERTEX
  5
12B1D7
  8
HIDDEN
 10
359.9999999998781277
 20
-1727.9999999996830411
 30
0.0
  0
SEQEND
  5
12B1D8
  8
HIDDEN
  0
POLYLINE
  5
12A9E5
  8
HIDDEN
 66
     1
 10
0.0
 20
0.0
 30
0.0
 70
     1
1001
ACDBBLOCKREPETAG
1070
     1
1071
      125
1005
0
  0
VERTEX
  5
12B1D9
  8
HIDDEN
 10
0.0
 20
-1263.9999999998419753
 30
0.0
  0
VERTEX
  5
12B1DA
  8
HIDDEN
 10
359.9999999998781277
 20
-1263.9999999998419753
 30
0.0
  0
VERTEX
  5
12B1DB
  8
HIDDEN
 10
359.9999999998781277
 20
-1727.9999999996830411
 30
0.0
  0
VERTEX
  5
12B1DC
  8
HIDDEN
 10
0.0
 20
-1727.9999999996830411
 30
0.0
  0
SEQEND
  5
12B1DD
  8
HIDDEN
  0
POLYLINE
  5
12A9E6
  8
HIDDEN
 66
     1
 10
0.0
 20
0.0
 30
0.0
 70
     1
1001
ACDBBLOCKREPETAG
1070
     1
1071
      130
1005
0
  0
VERTEX
  5
12B1DE
  8
HIDDEN
 10
359.9999999998781277
 20
-1727.9999999996830411
 30
0.0
  0
VERTEX
  5
12B1DF
  8
HIDDEN
 10
719.9999999997562554
 20
-1727.9999999996830411
 30
0.0
  0
VERTEX
  5
12B1E0
  8
HIDDEN
 10
719.9999999997562554
 20
-2191.999999999524789
 30
0.0
  0
VERTEX
  5
12B1E1
  8
HIDDEN
 10
359.9999999998781277
 20
-2191.999999999524789
 30
0.0
  0
SEQEND
  5
12B1E2
  8
HIDDEN
  0
POLYLINE
  5
12A9E7
  8
HIDDEN
 66
     1
 10
0.0
 20
0.0
 30
0.0
 70
     1
1001
ACDBBLOCKREPETAG
1070
     1
1071
      135
1005
0
  0
VERTEX
  5
12B1E3
  8
HIDDEN
 10
0.0
 20
-1727.9999999996830411
 30
0.0
  0
VERTEX
  5
12B1E4
  8
HIDDEN
 10
359.9999999998781277
 20
-1727.9999999996830411
 30
0.0
  0
VERTEX
  5
12B1E5
  8
HIDDEN
 10
359.9999999998781277
 20
-2191.999999999524789
 30
0.0
  0
VERTEX
  5
12B1E6
  8
HIDDEN
 10
0.0
 20
-2191.999999999524789
 30
0.0
  0
SEQEND
  5
12B1E7
  8
HIDDEN
  0
POLYLINE
  5
12A9E8
  8
HIDDEN
 66
     1
 10
0.0
 20
0.0
 30
0.0
 70
     1
1001
ACDBBLOCKREPETAG
1070
     1
1071
      160
1005
0
  0
VERTEX
  5
12B1E8
  8
HIDDEN
 10
359.9999999998781277
 20
-2191.999999999524789
 30
0.0
  0
VERTEX
  5
12B1E9
  8
HIDDEN
 10
719.9999999997562554
 20
-2191.999999999524789
 30
0.0
  0
VERTEX
  5
12B1EA
  8
HIDDEN
 10
719.9999999997562554
 20
-2655.9999999993660822
 30
0.0
  0
VERTEX
  5
12B1EB
  8
HIDDEN
 10
359.9999999998781277
 20
-2655.9999999993660822
 30
0.0
  0
SEQEND
  5
12B1EC
  8
HIDDEN
  0
POLYLINE
  5
12A9E9
  8
HIDDEN
 66
     1
 10
0.0
 20
0.0
 30
0.0
 70
     1
1001
ACDBBLOCKREPETAG
1070
     1
1071
      165
1005
0
  0
VERTEX
  5
12B1ED
  8
HIDDEN
 10
0.0
 20
-2191.999999999524789
 30
0.0
  0
VERTEX
  5
12B1EE
  8
HIDDEN
 10
359.9999999998781277
 20
-2191.999999999524789
 30
0.0
  0
VERTEX
  5
12B1EF
  8
HIDDEN
 10
359.9999999998781277
 20
-2655.9999999993660822
 30
0.0
  0
VERTEX
  5
12B1F0
  8
HIDDEN
 10
0.0
 20
-2655.9999999993660822
 30
0.0
  0
SEQEND
  5
12B1F1
  8
HIDDEN
  0
POLYLINE
  5
12A9EA
  8
HIDDEN
 66
     1
 10
0.0
 20
0.0
 30
0.0
 70
     1
1001
ACDBBLOCKREPETAG
1070
     1
1071
      175
1005
0
  0
VERTEX
  5
12B1F2
  8
HIDDEN
 10
0.0
 20
-2655.9999999993660822
 30
0.0
  0
VERTEX
  5
12B1F3
  8
HIDDEN
 10
359.9999999998781277
 20
-2655.9999999993660822
 30
0.0
  0
VERTEX
  5
12B1F4
  8
HIDDEN
 10
359.9999999998781277
 20
-3119.9999999992091944
 30
0.0
  0
VERTEX
  5
12B1F5
  8
HIDDEN
 10
0.0
 20
-3119.9999999992091944
 30
0.0
  0
SEQEND
  5
12B1F6
  8
HIDDEN
  0
POLYLINE
  5
12A9EB
  8
HIDDEN
 66
     1
 10
0.0
 20
0.0
 30
0.0
 70
     1
1001
ACDBBLOCKREPETAG
1070
     1
1071
      110
1005
0
  0
VERTEX
  5
12B1F7
  8
HIDDEN
 10
0.0
 20
0.0
 30
0.0
  0
VERTEX
  5
12B1F8
  8
HIDDEN
 10
359.9999999998781277
 20
0.0
 30
0.0
  0
VERTEX
  5
12B1F9
  8
HIDDEN
 10
359.9999999998781277
 20
-463.9999999998415774
 30
0.0
  0
VERTEX
  5
12B1FA
  8
HIDDEN
 10
0.0
 20
-463.9999999998415774
 30
0.0
  0
SEQEND
  5
12B1FB
  8
HIDDEN
  0
TEXT
  5
12A9EC
  8
SLIM
 10
105.4285714285109066
 20
-1243.9999999998490239
 30
0.0
 40
48.0
  1
B1010
 41
0.75
1001
ACDBBLOCKREPETAG
1070
     1
1071
      119
1005
0
  0
TEXT
  5
12A9ED
  8
SLIM
 10
461.9999999998175895
 20
-1243.9999999998499334
 30
0.0
 40
48.0
  1
B1020
 41
0.75
1001
ACDBBLOCKREPETAG
1070
     1
1071
      119
1005
0
  0
TEXT
  5
12A9EE
  8
SLIM
 10
46.4571428570823173
 20
-1707.9999999996919087
 30
0.0
 40
48.0
  1
B1030（特）
 41
0.75
1001
ACDBBLOCKREPETAG
1070
     1
1071
      119
1005
0
  0
TEXT
  5
12A9EF
  8
SLIM
 10
461.9999999998175895
 20
-1707.9999999996919087
 30
0.0
 40
48.0
  1
B2010
 41
0.75
1001
ACDBBLOCKREPETAG
1070
     1
1071
      119
1005
0
  0
TEXT
  5
12A9F0
  8
SLIM
 10
98.5714285713681448
 20
-2171.9999999995329745
 30
0.0
 40
48.0
  1
B2020
 41
0.75
1001
ACDBBLOCKREPETAG
1070
     1
1071
      119
1005
0
  0
TEXT
  5
12A9F1
  8
SLIM
 10
403.0285714283888865
 20
-2171.9999999995329745
 30
0.0
 40
48.0
  1
B2030（特）
 41
0.75
1001
ACDBBLOCKREPETAG
1070
     1
1071
      119
1005
0
  0
TEXT
  5
12A9F2
  8
SLIM
 10
46.4571428570821112
 20
-2635.9999999993760866
 30
0.0
 40
48.0
  1
B3010（特）
 41
0.75
1001
ACDBBLOCKREPETAG
1070
     1
1071
      119
1005
0
  0
TEXT
  5
12A9F3
  8
SLIM
 10
403.0285714283888865
 20
-2635.9999999993760866
 30
0.0
 40
48.0
  1
B3020（特）
 41
0.75
1001
ACDBBLOCKREPETAG
1070
     1
1071
      119
1005
0
  0
TEXT
  5
12A9F4
  8
SLIM
 10
43.0285714285105527
 20
-3099.9999999992169251
 30
0.0
 40
48.0
  1
B3030（特）
 41
0.75
1001
ACDBBLOCKREPETAG
1070
     1
1071
      119
1005
0
  0
LINE
  5
12A9F5
  8
OBJECT
 10
129.0
 20
-863.0
 30
0.0
 11
129.0
 21
-855.9999999999997726
 31
0.0
1001
ACDBBLOCKREPETAG
1070
     1
1071
        0
1005
12A9F5
  0
LINE
  5
12A9F6
  8
OBJECT
 10
129.0
 20
-855.9999999999997726
 30
0.0
 11
223.0
 21
-855.9999999999997726
 31
0.0
1001
ACDBBLOCKREPETAG
1070
     1
1071
        1
1005
12A9F6
  0
LINE
  5
12A9F7
  8
OBJECT
 10
223.0
 20
-855.9999999999997726
 30
0.0
 11
223.0
 21
-863.0
 31
0.0
1001
ACDBBLOCKREPETAG
1070
     1
1071
        2
1005
12A9F7
  0
LINE
  5
12A9F8
  8
OBJECT
 10
223.0
 20
-863.0
 30
0.0
 11
129.0
 21
-863.0
 31
0.0
1001
ACDBBLOCKREPETAG
1070
     1
1071
        3
1005
12A9F8
  0
LINE
  5
12A9F9
  8
OBJECT
 10
132.0
 20
-863.0
 30
0.0
 11
132.0
 21
-898.9999999999997726
 31
0.0
1001
ACDBBLOCKREPETAG
1070
     1
1071
        4
1005
12A9F9
  0
LINE
  5
12A9FA
  8
OBJECT
 10
132.0
 20
-898.9999999999997726
 30
0.0
 11
220.0
 21
-898.9999999999997726
 31
0.0
1001
ACDBBLOCKREPETAG
1070
     1
1071
        5
1005
12A9FA
  0
LINE
  5
12A9FB
  8
OBJECT
 10
220.0
 20
-898.9999999999997726
 30
0.0
 11
220.0
 21
-863.0
 31
0.0
1001
ACDBBLOCKREPETAG
1070
     1
1071
        6
1005
12A9FB
  0
LINE
  5
12A9FC
  8
OBJECT
 10
136.5
 20
-903.0
 30
0.0
 11
136.5
 21
-911.4999999999994316
 31
0.0
1001
ACDBBLOCKREPETAG
1070
     1
1071
        7
1005
12A9FC
  0
LINE
  5
12A9FD
  8
OBJECT
 10
215.5
 20
-911.5
 30
0.0
 11
215.5
 21
-903.0
 31
0.0
1001
ACDBBLOCKREPETAG
1070
     1
1071
        8
1005
12A9FD
  0
LINE
  5
12A9FE
  8
OBJECT
 10
215.5
 20
-903.0
 30
0.0
 11
136.5
 21
-903.0
 31
0.0
1001
ACDBBLOCKREPETAG
1070
     1
1071
        9
1005
12A9FE
  0
LINE
  5
12A9FF
  8
OBJECT
 10
132.0
 20
-898.9999999999997726
 30
0.0
 11
136.5
 21
-903.0
 31
0.0
1001
ACDBBLOCKREPETAG
1070
     1
1071
       10
1005
12A9FF
  0
LINE
  5
12AA00
  8
OBJECT
 10
220.0
 20
-898.9999999999997726
 30
0.0
 11
215.5
 21
-903.0
 31
0.0
1001
ACDBBLOCKREPETAG
1070
     1
1071
       11
1005
12AA00
  0
LINE
  5
12AA01
  8
OBJECT
 10
222.5
 20
-911.5000000000001137
 30
0.0
 11
129.5
 21
-911.4999999999994316
 31
0.0
1001
ACDBBLOCKREPETAG
1070
     1
1071
       12
1005
12AA01
  0
ARC
  5
12AA02
  8
OBJECT
 10
129.5
 20
-914.4999999999994316
 30
0.0
 40
3.0
 50
90.0
 51
180.0
1001
ACDBBLOCKREPETAG
1070
     1
1071
       13
1005
12AA02
  0
LINE
  5
12AA03
  8
OBJECT
 10
126.5
 20
-914.4999999999994316
 30
0.0
 11
126.4999999999991047
 21
-939.655080087021247
 31
0.0
1001
ACDBBLOCKREPETAG
1070
     1
1071
       15
1005
12AA03
  0
LINE
  5
12AA04
  8
OBJECT
 10
225.5
 20
-914.5000000000010232
 30
0.0
 11
225.4999999999990905
 21
-939.6550800870204512
 31
0.0
1001
ACDBBLOCKREPETAG
1070
     1
1071
       16
1005
12AA04
  0
ARC
  5
12AA05
  8
OBJECT
 10
222.5
 20
-914.5000000000010232
 30
0.0
 40
3.0
 50
0.0
 51
90.0
1001
ACDBBLOCKREPETAG
1070
     1
1071
       17
1005
12AA05
  0
INSERT
  5
12AA06
  8
SLIM
  2
*U7
 10
0.0
 20
0.0
 30
0.0
  0
LINE
  5
12AA07
  8
HIDDEN
 10
146.0
 20
-907.9999999999997726
 30
0.0
 11
206.0
 21
-907.9999999999997726
 31
0.0
1001
ACDBBLOCKREPETAG
1070
     1
1071
       56
1005
12AA07
  0
LINE
  5
12AA08
  8
OBJECT
 10
223.0
 20
-1129.0
 30
0.0
 11
223.0
 21
-1136.0
 31
0.0
1001
ACDBBLOCKREPETAG
1070
     1
1071
        0
1005
12AA08
  0
LINE
  5
12AA09
  8
OBJECT
 10
223.0
 20
-1136.0
 30
0.0
 11
129.0
 21
-1136.0
 31
0.0
1001
ACDBBLOCKREPETAG
1070
     1
1071
        1
1005
12AA09
  0
LINE
  5
12AA0A
  8
OBJECT
 10
129.0
 20
-1136.0
 30
0.0
 11
129.0
 21
-1129.0
 31
0.0
1001
ACDBBLOCKREPETAG
1070
     1
1071
        2
1005
12AA0A
  0
LINE
  5
12AA0B
  8
OBJECT
 10
129.0
 20
-1129.0
 30
0.0
 11
223.0
 21
-1129.0
 31
0.0
1001
ACDBBLOCKREPETAG
1070
     1
1071
        3
1005
12AA0B
  0
LINE
  5
12AA0C
  8
OBJECT
 10
220.0
 20
-1129.0
 30
0.0
 11
220.0
 21
-1093.0
 31
0.0
1001
ACDBBLOCKREPETAG
1070
     1
1071
        4
1005
12AA0C
  0
LINE
  5
12AA0D
  8
OBJECT
 10
220.0
 20
-1093.0
 30
0.0
 11
132.0
 21
-1093.0
 31
0.0
1001
ACDBBLOCKREPETAG
1070
     1
1071
        5
1005
12AA0D
  0
LINE
  5
12AA0E
  8
OBJECT
 10
132.0
 20
-1093.0
 30
0.0
 11
132.0
 21
-1129.0
 31
0.0
1001
ACDBBLOCKREPETAG
1070
     1
1071
        6
1005
12AA0E
  0
LINE
  5
12AA0F
  8
OBJECT
 10
215.5
 20
-1089.0
 30
0.0
 11
215.5
 21
-1080.5
 31
0.0
1001
ACDBBLOCKREPETAG
1070
     1
1071
        7
1005
12AA0F
  0
LINE
  5
12AA10
  8
OBJECT
 10
136.5
 20
-1080.4999999999990905
 30
0.0
 11
136.5
 21
-1089.0
 31
0.0
1001
ACDBBLOCKREPETAG
1070
     1
1071
        8
1005
12AA10
  0
LINE
  5
12AA11
  8
OBJECT
 10
136.5
 20
-1089.0
 30
0.0
 11
215.5
 21
-1089.0
 31
0.0
1001
ACDBBLOCKREPETAG
1070
     1
1071
        9
1005
12AA11
  0
LINE
  5
12AA12
  8
OBJECT
 10
220.0
 20
-1093.0
 30
0.0
 11
215.5
 21
-1089.0
 31
0.0
1001
ACDBBLOCKREPETAG
1070
     1
1071
       10
1005
12AA12
  0
LINE
  5
12AA13
  8
OBJECT
 10
132.0
 20
-1093.0
 30
0.0
 11
136.5
 21
-1089.0
 31
0.0
1001
ACDBBLOCKREPETAG
1070
     1
1071
       11
1005
12AA13
  0
LINE
  5
12AA14
  8
OBJECT
 10
129.5
 20
-1080.4999999999990905
 30
0.0
 11
222.5
 21
-1080.5
 31
0.0
1001
ACDBBLOCKREPETAG
1070
     1
1071
       12
1005
12AA14
  0
ARC
  5
12AA15
  8
OBJECT
 10
222.5
 20
-1077.5
 30
0.0
 40
3.0
 50
270.0
 51
0.0
1001
ACDBBLOCKREPETAG
1070
     1
1071
       13
1005
12AA15
  0
LINE
  5
12AA16
  8
OBJECT
 10
225.5
 20
-1077.5
 30
0.0
 11
225.5000000000009095
 21
-1052.3449199129779572
 31
0.0
1001
ACDBBLOCKREPETAG
1070
     1
1071
       15
1005
12AA16
  0
LINE
  5
12AA17
  8
OBJECT
 10
126.5
 20
-1077.4999999999990905
 30
0.0
 11
126.5000000000008953
 21
-1052.3449199129790941
 31
0.0
1001
ACDBBLOCKREPETAG
1070
     1
1071
       16
1005
12AA17
  0
ARC
  5
12AA18
  8
OBJECT
 10
129.5
 20
-1077.4999999999990905
 30
0.0
 40
3.0
 50
180.0
 51
270.0
1001
ACDBBLOCKREPETAG
1070
     1
1071
       17
1005
12AA18
  0
INSERT
  5
12AA19
  8
SLIM
  2
*U8
 10
0.0
 20
0.0
 30
0.0
  0
LINE
  5
12AA1A
  8
HIDDEN
 10
206.0
 20
-1084.0
 30
0.0
 11
146.0
 21
-1084.0
 31
0.0
1001
ACDBBLOCKREPETAG
1070
     1
1071
       56
1005
12AA1A
  0
LINE
  5
12AA1B
  8
OBJECT
 10
489.0
 20
-863.0
 30
0.0
 11
489.0
 21
-855.9999999999997726
 31
0.0
1001
ACDBBLOCKREPETAG
1070
     1
1071
        0
1005
12AA1B
  0
LINE
  5
12AA1C
  8
OBJECT
 10
489.0
 20
-855.9999999999997726
 30
0.0
 11
583.0
 21
-855.9999999999997726
 31
0.0
1001
ACDBBLOCKREPETAG
1070
     1
1071
        1
1005
12AA1C
  0
LINE
  5
12AA1D
  8
OBJECT
 10
583.0
 20
-855.9999999999997726
 30
0.0
 11
583.0
 21
-863.0
 31
0.0
1001
ACDBBLOCKREPETAG
1070
     1
1071
        2
1005
12AA1D
  0
LINE
  5
12AA1E
  8
OBJECT
 10
583.0
 20
-863.0
 30
0.0
 11
489.0
 21
-863.0
 31
0.0
1001
ACDBBLOCKREPETAG
1070
     1
1071
        3
1005
12AA1E
  0
LINE
  5
12AA1F
  8
OBJECT
 10
492.0
 20
-863.0
 30
0.0
 11
492.0
 21
-898.9999999999997726
 31
0.0
1001
ACDBBLOCKREPETAG
1070
     1
1071
        4
1005
12AA1F
  0
LINE
  5
12AA20
  8
OBJECT
 10
492.0
 20
-898.9999999999997726
 30
0.0
 11
580.0
 21
-898.9999999999997726
 31
0.0
1001
ACDBBLOCKREPETAG
1070
     1
1071
        5
1005
12AA20
  0
LINE
  5
12AA21
  8
OBJECT
 10
580.0
 20
-898.9999999999997726
 30
0.0
 11
580.0
 21
-863.0
 31
0.0
1001
ACDBBLOCKREPETAG
1070
     1
1071
        6
1005
12AA21
  0
LINE
  5
12AA22
  8
OBJECT
 10
496.4999999999997726
 20
-903.0
 30
0.0
 11
496.4999999999997726
 21
-911.4999999999994316
 31
0.0
1001
ACDBBLOCKREPETAG
1070
     1
1071
        7
1005
12AA22
  0
LINE
  5
12AA23
  8
OBJECT
 10
575.4999999999998863
 20
-911.5
 30
0.0
 11
575.4999999999998863
 21
-903.0
 31
0.0
1001
ACDBBLOCKREPETAG
1070
     1
1071
        8
1005
12AA23
  0
LINE
  5
12AA24
  8
OBJECT
 10
575.4999999999998863
 20
-903.0
 30
0.0
 11
496.4999999999997726
 21
-903.0
 31
0.0
1001
ACDBBLOCKREPETAG
1070
     1
1071
        9
1005
12AA24
  0
LINE
  5
12AA25
  8
OBJECT
 10
492.0
 20
-898.9999999999997726
 30
0.0
 11
496.4999999999997726
 21
-903.0
 31
0.0
1001
ACDBBLOCKREPETAG
1070
     1
1071
       10
1005
12AA25
  0
LINE
  5
12AA26
  8
OBJECT
 10
580.0
 20
-898.9999999999997726
 30
0.0
 11
575.4999999999998863
 21
-903.0
 31
0.0
1001
ACDBBLOCKREPETAG
1070
     1
1071
       11
1005
12AA26
  0
LINE
  5
12AA27
  8
OBJECT
 10
582.5
 20
-911.5000000000001137
 30
0.0
 11
489.5
 21
-911.4999999999994316
 31
0.0
1001
ACDBBLOCKREPETAG
1070
     1
1071
       12
1005
12AA27
  0
ARC
  5
12AA28
  8
OBJECT
 10
489.5
 20
-914.4999999999994316
 30
0.0
 40
3.0
 50
90.0
 51
180.0
1001
ACDBBLOCKREPETAG
1070
     1
1071
       13
1005
12AA28
  0
LINE
  5
12AA29
  8
OBJECT
 10
486.5
 20
-914.4999999999994316
 30
0.0
 11
486.4999999999990905
 21
-939.655080087021247
 31
0.0
1001
ACDBBLOCKREPETAG
1070
     1
1071
       15
1005
12AA29
  0
LINE
  5
12AA2A
  8
OBJECT
 10
585.5
 20
-914.5000000000010232
 30
0.0
 11
585.4999999999987494
 21
-939.6550800870204512
 31
0.0
1001
ACDBBLOCKREPETAG
1070
     1
1071
       16
1005
12AA2A
  0
ARC
  5
12AA2B
  8
OBJECT
 10
582.5
 20
-914.5000000000010232
 30
0.0
 40
3.0
 50
0.0
 51
90.0
1001
ACDBBLOCKREPETAG
1070
     1
1071
       17
1005
12AA2B
  0
INSERT
  5
12AA2C
  8
SLIM
  2
*U9
 10
0.0
 20
0.0
 30
0.0
  0
LINE
  5
12AA2D
  8
HIDDEN
 10
506.0
 20
-907.9999999999997726
 30
0.0
 11
566.0
 21
-907.9999999999997726
 31
0.0
1001
ACDBBLOCKREPETAG
1070
     1
1071
       56
1005
12AA2D
  0
LINE
  5
12AA2E
  8
OBJECT
 10
591.0
 20
-1129.0
 30
0.0
 11
591.0
 21
-1136.0
 31
0.0
1001
ACDBBLOCKREPETAG
1070
     1
1071
       18
1005
12AA2E
  0
LINE
  5
12AA2F
  8
OBJECT
 10
591.0
 20
-1136.0
 30
0.0
 11
481.0
 21
-1136.0
 31
0.0
1001
ACDBBLOCKREPETAG
1070
     1
1071
       19
1005
12AA2F
  0
LINE
  5
12AA30
  8
OBJECT
 10
481.0
 20
-1136.0
 30
0.0
 11
481.0
 21
-1129.0
 31
0.0
1001
ACDBBLOCKREPETAG
1070
     1
1071
       20
1005
12AA30
  0
LINE
  5
12AA31
  8
OBJECT
 10
481.0
 20
-1129.0
 30
0.0
 11
591.0
 21
-1129.0
 31
0.0
1001
ACDBBLOCKREPETAG
1070
     1
1071
       21
1005
12AA31
  0
LINE
  5
12AA32
  8
OBJECT
 10
588.0
 20
-1129.0
 30
0.0
 11
588.0
 21
-1093.0
 31
0.0
1001
ACDBBLOCKREPETAG
1070
     1
1071
       22
1005
12AA32
  0
LINE
  5
12AA33
  8
OBJECT
 10
588.0
 20
-1093.0
 30
0.0
 11
484.0
 21
-1093.0
 31
0.0
1001
ACDBBLOCKREPETAG
1070
     1
1071
       23
1005
12AA33
  0
LINE
  5
12AA34
  8
OBJECT
 10
484.0
 20
-1093.0
 30
0.0
 11
484.0
 21
-1129.0
 31
0.0
1001
ACDBBLOCKREPETAG
1070
     1
1071
       24
1005
12AA34
  0
LINE
  5
12AA35
  8
OBJECT
 10
583.4999999999998863
 20
-1089.0
 30
0.0
 11
583.4999999999998863
 21
-1080.5
 31
0.0
1001
ACDBBLOCKREPETAG
1070
     1
1071
       25
1005
12AA35
  0
LINE
  5
12AA36
  8
OBJECT
 10
488.4999999999997726
 20
-1080.4999999999990905
 30
0.0
 11
488.4999999999997726
 21
-1089.0
 31
0.0
1001
ACDBBLOCKREPETAG
1070
     1
1071
       26
1005
12AA36
  0
LINE
  5
12AA37
  8
OBJECT
 10
488.4999999999997726
 20
-1089.0
 30
0.0
 11
583.4999999999998863
 21
-1089.0
 31
0.0
1001
ACDBBLOCKREPETAG
1070
     1
1071
       27
1005
12AA37
  0
LINE
  5
12AA38
  8
OBJECT
 10
588.0
 20
-1093.0
 30
0.0
 11
583.4999999999998863
 21
-1089.0
 31
0.0
1001
ACDBBLOCKREPETAG
1070
     1
1071
       28
1005
12AA38
  0
LINE
  5
12AA39
  8
OBJECT
 10
484.0
 20
-1093.0
 30
0.0
 11
488.4999999999997726
 21
-1089.0
 31
0.0
1001
ACDBBLOCKREPETAG
1070
     1
1071
       29
1005
12AA39
  0
LINE
  5
12AA3A
  8
OBJECT
 10
486.5
 20
-1080.4999999999979536
 30
0.0
 11
585.5
 21
-1080.5
 31
0.0
1001
ACDBBLOCKREPETAG
1070
     1
1071
       30
1005
12AA3A
  0
LINE
  5
12AA3B
  8
OBJECT
 10
585.5
 20
-1080.5
 30
0.0
 11
585.4999999999987494
 21
-1052.3449199129790941
 31
0.0
1001
ACDBBLOCKREPETAG
1070
     1
1071
       31
1005
12AA3B
  0
LINE
  5
12AA3C
  8
OBJECT
 10
486.5
 20
-1080.4999999999979536
 30
0.0
 11
486.4999999999990905
 21
-1052.3449199129779572
 31
0.0
1001
ACDBBLOCKREPETAG
1070
     1
1071
       32
1005
12AA3C
  0
INSERT
  5
12AA3D
  8
SLIM
  2
*U10
 10
0.0
 20
0.0
 30
0.0
  0
LINE
  5
12AA3E
  8
HIDDEN
 10
574.0
 20
-1084.0
 30
0.0
 11
498.0
 21
-1084.0
 31
0.0
1001
ACDBBLOCKREPETAG
1070
     1
1071
       57
1005
12AA3E
  0
LINE
  5
12AA3F
  8
OBJECT
 10
129.0
 20
-1327.0
 30
0.0
 11
129.0
 21
-1320.0
 31
0.0
1001
ACDBBLOCKREPETAG
1070
     1
1071
        0
1005
12AA3F
  0
LINE
  5
12AA40
  8
OBJECT
 10
129.0
 20
-1320.0
 30
0.0
 11
223.0
 21
-1320.0
 31
0.0
1001
ACDBBLOCKREPETAG
1070
     1
1071
        1
1005
12AA40
  0
LINE
  5
12AA41
  8
OBJECT
 10
223.0
 20
-1320.0
 30
0.0
 11
223.0
 21
-1327.0
 31
0.0
1001
ACDBBLOCKREPETAG
1070
     1
1071
        2
1005
12AA41
  0
LINE
  5
12AA42
  8
OBJECT
 10
223.0
 20
-1327.0
 30
0.0
 11
129.0
 21
-1327.0
 31
0.0
1001
ACDBBLOCKREPETAG
1070
     1
1071
        3
1005
12AA42
  0
LINE
  5
12AA43
  8
OBJECT
 10
132.0
 20
-1327.0
 30
0.0
 11
132.0
 21
-1363.0
 31
0.0
1001
ACDBBLOCKREPETAG
1070
     1
1071
        4
1005
12AA43
  0
LINE
  5
12AA44
  8
OBJECT
 10
132.0
 20
-1363.0
 30
0.0
 11
220.0
 21
-1363.0
 31
0.0
1001
ACDBBLOCKREPETAG
1070
     1
1071
        5
1005
12AA44
  0
LINE
  5
12AA45
  8
OBJECT
 10
220.0
 20
-1363.0
 30
0.0
 11
220.0
 21
-1327.0
 31
0.0
1001
ACDBBLOCKREPETAG
1070
     1
1071
        6
1005
12AA45
  0
LINE
  5
12AA46
  8
OBJECT
 10
136.5
 20
-1367.0
 30
0.0
 11
136.5
 21
-1375.4999999999990905
 31
0.0
1001
ACDBBLOCKREPETAG
1070
     1
1071
        7
1005
12AA46
  0
LINE
  5
12AA47
  8
OBJECT
 10
215.5
 20
-1375.5
 30
0.0
 11
215.5
 21
-1367.0
 31
0.0
1001
ACDBBLOCKREPETAG
1070
     1
1071
        8
1005
12AA47
  0
LINE
  5
12AA48
  8
OBJECT
 10
215.5
 20
-1367.0
 30
0.0
 11
136.5
 21
-1367.0
 31
0.0
1001
ACDBBLOCKREPETAG
1070
     1
1071
        9
1005
12AA48
  0
LINE
  5
12AA49
  8
OBJECT
 10
132.0
 20
-1363.0
 30
0.0
 11
136.5
 21
-1367.0
 31
0.0
1001
ACDBBLOCKREPETAG
1070
     1
1071
       10
1005
12AA49
  0
LINE
  5
12AA4A
  8
OBJECT
 10
220.0
 20
-1363.0
 30
0.0
 11
215.5
 21
-1367.0
 31
0.0
1001
ACDBBLOCKREPETAG
1070
     1
1071
       11
1005
12AA4A
  0
LINE
  5
12AA4B
  8
OBJECT
 10
222.5
 20
-1375.5000000000009095
 30
0.0
 11
129.5
 21
-1375.4999999999990905
 31
0.0
1001
ACDBBLOCKREPETAG
1070
     1
1071
       12
1005
12AA4B
  0
ARC
  5
12AA4C
  8
OBJECT
 10
129.5
 20
-1378.5
 30
0.0
 40
3.0
 50
90.0
 51
180.0
1001
ACDBBLOCKREPETAG
1070
     1
1071
       13
1005
12AA4C
  0
LINE
  5
12AA4D
  8
OBJECT
 10
126.5
 20
-1378.5
 30
0.0
 11
126.4999999999991047
 21
-1403.6550800870220428
 31
0.0
1001
ACDBBLOCKREPETAG
1070
     1
1071
       15
1005
12AA4D
  0
LINE
  5
12AA4E
  8
OBJECT
 10
225.5
 20
-1378.5000000000009095
 30
0.0
 11
225.4999999999990905
 21
-1403.6550800870209059
 31
0.0
1001
ACDBBLOCKREPETAG
1070
     1
1071
       16
1005
12AA4E
  0
ARC
  5
12AA4F
  8
OBJECT
 10
222.5
 20
-1378.5000000000009095
 30
0.0
 40
3.0
 50
0.0
 51
90.0
1001
ACDBBLOCKREPETAG
1070
     1
1071
       17
1005
12AA4F
  0
INSERT
  5
12AA50
  8
SLIM
  2
*U11
 10
0.0
 20
0.0
 30
0.0
  0
LINE
  5
12AA51
  8
HIDDEN
 10
146.0
 20
-1372.0
 30
0.0
 11
206.0
 21
-1372.0
 31
0.0
1001
ACDBBLOCKREPETAG
1070
     1
1071
       56
1005
12AA51
  0
LINE
  5
12AA52
  8
OBJECT
 10
238.0
 20
-1593.0
 30
0.0
 11
238.0
 21
-1600.0
 31
0.0
1001
ACDBBLOCKREPETAG
1070
     1
1071
       34
1005
12AA52
  0
LINE
  5
12AA53
  8
OBJECT
 10
238.0
 20
-1600.0
 30
0.0
 11
114.0
 21
-1600.0
 31
0.0
1001
ACDBBLOCKREPETAG
1070
     1
1071
       35
1005
12AA53
  0
LINE
  5
12AA54
  8
OBJECT
 10
114.0
 20
-1600.0
 30
0.0
 11
114.0
 21
-1593.0
 31
0.0
1001
ACDBBLOCKREPETAG
1070
     1
1071
       36
1005
12AA54
  0
LINE
  5
12AA55
  8
OBJECT
 10
114.0
 20
-1593.0
 30
0.0
 11
238.0
 21
-1593.0
 31
0.0
1001
ACDBBLOCKREPETAG
1070
     1
1071
       37
1005
12AA55
  0
LINE
  5
12AA56
  8
OBJECT
 10
235.0
 20
-1593.0
 30
0.0
 11
235.0
 21
-1557.0
 31
0.0
1001
ACDBBLOCKREPETAG
1070
     1
1071
       38
1005
12AA56
  0
LINE
  5
12AA57
  8
OBJECT
 10
235.0
 20
-1557.0
 30
0.0
 11
117.0
 21
-1557.0
 31
0.0
1001
ACDBBLOCKREPETAG
1070
     1
1071
       39
1005
12AA57
  0
LINE
  5
12AA58
  8
OBJECT
 10
117.0
 20
-1557.0
 30
0.0
 11
117.0
 21
-1593.0
 31
0.0
1001
ACDBBLOCKREPETAG
1070
     1
1071
       40
1005
12AA58
  0
LINE
  5
12AA59
  8
OBJECT
 10
230.5
 20
-1553.0
 30
0.0
 11
230.5
 21
-1542.5
 31
0.0
1001
ACDBBLOCKREPETAG
1070
     1
1071
       41
1005
12AA59
  0
LINE
  5
12AA5A
  8
OBJECT
 10
121.5
 20
-1542.5
 30
0.0
 11
121.5
 21
-1553.0
 31
0.0
1001
ACDBBLOCKREPETAG
1070
     1
1071
       42
1005
12AA5A
  0
LINE
  5
12AA5B
  8
OBJECT
 10
121.5
 20
-1553.0
 30
0.0
 11
230.5
 21
-1553.0
 31
0.0
1001
ACDBBLOCKREPETAG
1070
     1
1071
       43
1005
12AA5B
  0
LINE
  5
12AA5C
  8
OBJECT
 10
235.0
 20
-1557.0
 30
0.0
 11
230.5
 21
-1553.0
 31
0.0
1001
ACDBBLOCKREPETAG
1070
     1
1071
       44
1005
12AA5C
  0
LINE
  5
12AA5D
  8
OBJECT
 10
117.0
 20
-1557.0
 30
0.0
 11
121.5
 21
-1553.0
 31
0.0
1001
ACDBBLOCKREPETAG
1070
     1
1071
       45
1005
12AA5D
  0
LINE
  5
12AA5E
  8
OBJECT
 10
225.5
 20
-1537.5
 30
0.0
 11
225.4999999999990905
 21
-1516.3449199129779572
 31
0.0
1001
ACDBBLOCKREPETAG
1070
     1
1071
       46
1005
12AA5E
  0
LINE
  5
12AA5F
  8
OBJECT
 10
126.5
 20
-1537.5
 30
0.0
 11
126.5
 21
-1516.3449199129779572
 31
0.0
1001
ACDBBLOCKREPETAG
1070
     1
1071
       47
1005
12AA5F
  0
LINE
  5
12AA60
  8
OBJECT
 10
230.5
 20
-1542.5
 30
0.0
 11
121.5
 21
-1542.5
 31
0.0
1001
ACDBBLOCKREPETAG
1070
     1
1071
       48
1005
12AA60
  0
LINE
  5
12AA61
  8
OBJECT
 10
225.5
 20
-1537.5
 30
0.0
 11
126.5
 21
-1537.5
 31
0.0
1001
ACDBBLOCKREPETAG
1070
     1
1071
       49
1005
12AA61
  0
LINE
  5
12AA62
  8
OBJECT
 10
230.5
 20
-1542.5
 30
0.0
 11
225.5
 21
-1537.5
 31
0.0
1001
ACDBBLOCKREPETAG
1070
     1
1071
       50
1005
12AA62
  0
LINE
  5
12AA63
  8
OBJECT
 10
126.5
 20
-1537.5
 30
0.0
 11
121.5000000000035953
 21
-1542.5
 31
0.0
1001
ACDBBLOCKREPETAG
1070
     1
1071
       51
1005
12AA63
  0
INSERT
  5
12AA64
  8
SLIM
  2
*U12
 10
0.0
 20
0.0
 30
0.0
  0
LINE
  5
12AA65
  8
HIDDEN
 10
220.5
 20
-1548.0
 30
0.0
 11
131.5
 21
-1548.0
 31
0.0
1001
ACDBBLOCKREPETAG
1070
     1
1071
       65
1005
12AA65
  0
LINE
  5
12AA66
  8
OBJECT
 10
481.0
 20
-1327.0
 30
0.0
 11
481.0
 21
-1320.0
 31
0.0
1001
ACDBBLOCKREPETAG
1070
     1
1071
       18
1005
12AA66
  0
LINE
  5
12AA67
  8
OBJECT
 10
481.0
 20
-1320.0
 30
0.0
 11
591.0
 21
-1320.0
 31
0.0
1001
ACDBBLOCKREPETAG
1070
     1
1071
       19
1005
12AA67
  0
LINE
  5
12AA68
  8
OBJECT
 10
591.0
 20
-1320.0
 30
0.0
 11
591.0
 21
-1327.0
 31
0.0
1001
ACDBBLOCKREPETAG
1070
     1
1071
       20
1005
12AA68
  0
LINE
  5
12AA69
  8
OBJECT
 10
591.0
 20
-1327.0
 30
0.0
 11
481.0
 21
-1327.0
 31
0.0
1001
ACDBBLOCKREPETAG
1070
     1
1071
       21
1005
12AA69
  0
LINE
  5
12AA6A
  8
OBJECT
 10
484.0
 20
-1327.0
 30
0.0
 11
484.0
 21
-1363.0
 31
0.0
1001
ACDBBLOCKREPETAG
1070
     1
1071
       22
1005
12AA6A
  0
LINE
  5
12AA6B
  8
OBJECT
 10
484.0
 20
-1363.0
 30
0.0
 11
588.0
 21
-1363.0
 31
0.0
1001
ACDBBLOCKREPETAG
1070
     1
1071
       23
1005
12AA6B
  0
LINE
  5
12AA6C
  8
OBJECT
 10
588.0
 20
-1363.0
 30
0.0
 11
588.0
 21
-1327.0
 31
0.0
1001
ACDBBLOCKREPETAG
1070
     1
1071
       24
1005
12AA6C
  0
LINE
  5
12AA6D
  8
OBJECT
 10
488.4999999999997726
 20
-1367.0
 30
0.0
 11
488.4999999999997726
 21
-1375.4999999999990905
 31
0.0
1001
ACDBBLOCKREPETAG
1070
     1
1071
       25
1005
12AA6D
  0
LINE
  5
12AA6E
  8
OBJECT
 10
583.4999999999998863
 20
-1375.5
 30
0.0
 11
583.4999999999998863
 21
-1367.0
 31
0.0
1001
ACDBBLOCKREPETAG
1070
     1
1071
       26
1005
12AA6E
  0
LINE
  5
12AA6F
  8
OBJECT
 10
583.4999999999998863
 20
-1367.0
 30
0.0
 11
488.4999999999997726
 21
-1367.0
 31
0.0
1001
ACDBBLOCKREPETAG
1070
     1
1071
       27
1005
12AA6F
  0
LINE
  5
12AA70
  8
OBJECT
 10
484.0
 20
-1363.0
 30
0.0
 11
488.4999999999997726
 21
-1367.0
 31
0.0
1001
ACDBBLOCKREPETAG
1070
     1
1071
       28
1005
12AA70
  0
LINE
  5
12AA71
  8
OBJECT
 10
588.0
 20
-1363.0
 30
0.0
 11
583.4999999999998863
 21
-1367.0
 31
0.0
1001
ACDBBLOCKREPETAG
1070
     1
1071
       29
1005
12AA71
  0
LINE
  5
12AA72
  8
OBJECT
 10
585.5
 20
-1375.5000000000009095
 30
0.0
 11
486.5
 21
-1375.4999999999990905
 31
0.0
1001
ACDBBLOCKREPETAG
1070
     1
1071
       30
1005
12AA72
  0
LINE
  5
12AA73
  8
OBJECT
 10
486.5
 20
-1375.4999999999990905
 30
0.0
 11
486.5000000000009095
 21
-1403.6550800870199964
 31
0.0
1001
ACDBBLOCKREPETAG
1070
     1
1071
       31
1005
12AA73
  0
LINE
  5
12AA74
  8
OBJECT
 10
585.5
 20
-1375.5000000000009095
 30
0.0
 11
585.5000000000009095
 21
-1403.6550800870220428
 31
0.0
1001
ACDBBLOCKREPETAG
1070
     1
1071
       32
1005
12AA74
  0
INSERT
  5
12AA75
  8
SLIM
  2
*U13
 10
0.0
 20
0.0
 30
0.0
  0
LINE
  5
12AA76
  8
HIDDEN
 10
498.0
 20
-1372.0
 30
0.0
 11
574.0
 21
-1372.0
 31
0.0
1001
ACDBBLOCKREPETAG
1070
     1
1071
       57
1005
12AA76
  0
LINE
  5
12AA77
  8
OBJECT
 10
583.0
 20
-1593.0
 30
0.0
 11
583.0
 21
-1600.0
 31
0.0
1001
ACDBBLOCKREPETAG
1070
     1
1071
        0
1005
12AA77
  0
LINE
  5
12AA78
  8
OBJECT
 10
583.0
 20
-1600.0
 30
0.0
 11
489.0
 21
-1600.0
 31
0.0
1001
ACDBBLOCKREPETAG
1070
     1
1071
        1
1005
12AA78
  0
LINE
  5
12AA79
  8
OBJECT
 10
489.0
 20
-1600.0
 30
0.0
 11
489.0
 21
-1593.0
 31
0.0
1001
ACDBBLOCKREPETAG
1070
     1
1071
        2
1005
12AA79
  0
LINE
  5
12AA7A
  8
OBJECT
 10
489.0
 20
-1593.0
 30
0.0
 11
583.0
 21
-1593.0
 31
0.0
1001
ACDBBLOCKREPETAG
1070
     1
1071
        3
1005
12AA7A
  0
LINE
  5
12AA7B
  8
OBJECT
 10
580.0
 20
-1593.0
 30
0.0
 11
580.0
 21
-1557.0
 31
0.0
1001
ACDBBLOCKREPETAG
1070
     1
1071
        4
1005
12AA7B
  0
LINE
  5
12AA7C
  8
OBJECT
 10
580.0
 20
-1557.0
 30
0.0
 11
492.0
 21
-1557.0
 31
0.0
1001
ACDBBLOCKREPETAG
1070
     1
1071
        5
1005
12AA7C
  0
LINE
  5
12AA7D
  8
OBJECT
 10
492.0
 20
-1557.0
 30
0.0
 11
492.0
 21
-1593.0
 31
0.0
1001
ACDBBLOCKREPETAG
1070
     1
1071
        6
1005
12AA7D
  0
LINE
  5
12AA7E
  8
OBJECT
 10
575.4999999999998863
 20
-1553.0
 30
0.0
 11
575.4999999999998863
 21
-1544.5
 31
0.0
1001
ACDBBLOCKREPETAG
1070
     1
1071
        7
1005
12AA7E
  0
LINE
  5
12AA7F
  8
OBJECT
 10
496.4999999999997726
 20
-1544.4999999999990905
 30
0.0
 11
496.4999999999997726
 21
-1553.0
 31
0.0
1001
ACDBBLOCKREPETAG
1070
     1
1071
        8
1005
12AA7F
  0
LINE
  5
12AA80
  8
OBJECT
 10
496.4999999999997726
 20
-1553.0
 30
0.0
 11
575.4999999999998863
 21
-1553.0
 31
0.0
1001
ACDBBLOCKREPETAG
1070
     1
1071
        9
1005
12AA80
  0
LINE
  5
12AA81
  8
OBJECT
 10
580.0
 20
-1557.0
 30
0.0
 11
575.4999999999998863
 21
-1553.0
 31
0.0
1001
ACDBBLOCKREPETAG
1070
     1
1071
       10
1005
12AA81
  0
LINE
  5
12AA82
  8
OBJECT
 10
492.0
 20
-1557.0
 30
0.0
 11
496.4999999999997726
 21
-1553.0
 31
0.0
1001
ACDBBLOCKREPETAG
1070
     1
1071
       11
1005
12AA82
  0
LINE
  5
12AA83
  8
OBJECT
 10
489.5
 20
-1544.4999999999990905
 30
0.0
 11
582.5
 21
-1544.5
 31
0.0
1001
ACDBBLOCKREPETAG
1070
     1
1071
       12
1005
12AA83
  0
ARC
  5
12AA84
  8
OBJECT
 10
582.5
 20
-1541.5
 30
0.0
 40
3.0
 50
270.0
 51
0.0
1001
ACDBBLOCKREPETAG
1070
     1
1071
       13
1005
12AA84
  0
LINE
  5
12AA85
  8
OBJECT
 10
585.5
 20
-1541.5
 30
0.0
 11
585.5000000000009095
 21
-1516.3449199129779572
 31
0.0
1001
ACDBBLOCKREPETAG
1070
     1
1071
       15
1005
12AA85
  0
LINE
  5
12AA86
  8
OBJECT
 10
486.5
 20
-1541.4999999999990905
 30
0.0
 11
486.5000000000009095
 21
-1516.3449199129779572
 31
0.0
1001
ACDBBLOCKREPETAG
1070
     1
1071
       16
1005
12AA86
  0
ARC
  5
12AA87
  8
OBJECT
 10
489.5
 20
-1541.4999999999990905
 30
0.0
 40
3.0
 50
180.0
 51
270.0
1001
ACDBBLOCKREPETAG
1070
     1
1071
       17
1005
12AA87
  0
INSERT
  5
12AA88
  8
SLIM
  2
*U14
 10
0.0
 20
0.0
 30
0.0
  0
LINE
  5
12AA89
  8
HIDDEN
 10
566.0
 20
-1548.0
 30
0.0
 11
506.0
 21
-1548.0
 31
0.0
1001
ACDBBLOCKREPETAG
1070
     1
1071
       56
1005
12AA89
  0
LINE
  5
12AA8A
  8
OBJECT
 10
121.0
 20
-1791.0
 30
0.0
 11
121.0
 21
-1784.0
 31
0.0
1001
ACDBBLOCKREPETAG
1070
     1
1071
       18
1005
12AA8A
  0
LINE
  5
12AA8B
  8
OBJECT
 10
121.0
 20
-1784.0
 30
0.0
 11
231.0
 21
-1784.0
 31
0.0
1001
ACDBBLOCKREPETAG
1070
     1
1071
       19
1005
12AA8B
  0
LINE
  5
12AA8C
  8
OBJECT
 10
231.0
 20
-1784.0
 30
0.0
 11
231.0
 21
-1791.0
 31
0.0
1001
ACDBBLOCKREPETAG
1070
     1
1071
       20
1005
12AA8C
  0
LINE
  5
12AA8D
  8
OBJECT
 10
231.0
 20
-1791.0
 30
0.0
 11
121.0
 21
-1791.0
 31
0.0
1001
ACDBBLOCKREPETAG
1070
     1
1071
       21
1005
12AA8D
  0
LINE
  5
12AA8E
  8
OBJECT
 10
124.0
 20
-1791.0
 30
0.0
 11
124.0
 21
-1827.0
 31
0.0
1001
ACDBBLOCKREPETAG
1070
     1
1071
       22
1005
12AA8E
  0
LINE
  5
12AA8F
  8
OBJECT
 10
124.0
 20
-1827.0
 30
0.0
 11
228.0
 21
-1827.0
 31
0.0
1001
ACDBBLOCKREPETAG
1070
     1
1071
       23
1005
12AA8F
  0
LINE
  5
12AA90
  8
OBJECT
 10
228.0
 20
-1827.0
 30
0.0
 11
228.0
 21
-1791.0
 31
0.0
1001
ACDBBLOCKREPETAG
1070
     1
1071
       24
1005
12AA90
  0
LINE
  5
12AA91
  8
OBJECT
 10
128.5
 20
-1831.0
 30
0.0
 11
128.5
 21
-1839.4999999999990905
 31
0.0
1001
ACDBBLOCKREPETAG
1070
     1
1071
       25
1005
12AA91
  0
LINE
  5
12AA92
  8
OBJECT
 10
223.5
 20
-1839.5000000000009095
 30
0.0
 11
223.5
 21
-1831.0
 31
0.0
1001
ACDBBLOCKREPETAG
1070
     1
1071
       26
1005
12AA92
  0
LINE
  5
12AA93
  8
OBJECT
 10
223.5
 20
-1831.0
 30
0.0
 11
128.5
 21
-1831.0
 31
0.0
1001
ACDBBLOCKREPETAG
1070
     1
1071
       27
1005
12AA93
  0
LINE
  5
12AA94
  8
OBJECT
 10
124.0
 20
-1827.0
 30
0.0
 11
128.5
 21
-1831.0
 31
0.0
1001
ACDBBLOCKREPETAG
1070
     1
1071
       28
1005
12AA94
  0
LINE
  5
12AA95
  8
OBJECT
 10
228.0
 20
-1827.0
 30
0.0
 11
223.5
 21
-1831.0
 31
0.0
1001
ACDBBLOCKREPETAG
1070
     1
1071
       29
1005
12AA95
  0
LINE
  5
12AA96
  8
OBJECT
 10
225.5
 20
-1839.5000000000009095
 30
0.0
 11
126.5
 21
-1839.4999999999990905
 31
0.0
1001
ACDBBLOCKREPETAG
1070
     1
1071
       30
1005
12AA96
  0
LINE
  5
12AA97
  8
OBJECT
 10
126.5
 20
-1839.4999999999990905
 30
0.0
 11
126.5000000000008953
 21
-1867.6550800870199964
 31
0.0
1001
ACDBBLOCKREPETAG
1070
     1
1071
       31
1005
12AA97
  0
LINE
  5
12AA98
  8
OBJECT
 10
225.5
 20
-1839.5000000000009095
 30
0.0
 11
225.5000000000009095
 21
-1867.6550800870220428
 31
0.0
1001
ACDBBLOCKREPETAG
1070
     1
1071
       32
1005
12AA98
  0
INSERT
  5
12AA99
  8
SLIM
  2
*U15
 10
0.0
 20
0.0
 30
0.0
  0
LINE
  5
12AA9A
  8
HIDDEN
 10
138.0
 20
-1836.0
 30
0.0
 11
214.0
 21
-1836.0
 31
0.0
1001
ACDBBLOCKREPETAG
1070
     1
1071
       57
1005
12AA9A
  0
LINE
  5
12AA9B
  8
OBJECT
 10
231.0
 20
-2057.0
 30
0.0
 11
231.0
 21
-2064.0
 31
0.0
1001
ACDBBLOCKREPETAG
1070
     1
1071
       18
1005
12AA9B
  0
LINE
  5
12AA9C
  8
OBJECT
 10
231.0
 20
-2064.0
 30
0.0
 11
121.0
 21
-2064.0
 31
0.0
1001
ACDBBLOCKREPETAG
1070
     1
1071
       19
1005
12AA9C
  0
LINE
  5
12AA9D
  8
OBJECT
 10
121.0
 20
-2064.0
 30
0.0
 11
121.0
 21
-2057.0
 31
0.0
1001
ACDBBLOCKREPETAG
1070
     1
1071
       20
1005
12AA9D
  0
LINE
  5
12AA9E
  8
OBJECT
 10
121.0
 20
-2057.0
 30
0.0
 11
231.0
 21
-2057.0
 31
0.0
1001
ACDBBLOCKREPETAG
1070
     1
1071
       21
1005
12AA9E
  0
LINE
  5
12AA9F
  8
OBJECT
 10
228.0
 20
-2057.0
 30
0.0
 11
228.0
 21
-2021.0
 31
0.0
1001
ACDBBLOCKREPETAG
1070
     1
1071
       22
1005
12AA9F
  0
LINE
  5
12AAA0
  8
OBJECT
 10
228.0
 20
-2021.0
 30
0.0
 11
124.0
 21
-2021.0
 31
0.0
1001
ACDBBLOCKREPETAG
1070
     1
1071
       23
1005
12AAA0
  0
LINE
  5
12AAA1
  8
OBJECT
 10
124.0
 20
-2021.0
 30
0.0
 11
124.0
 21
-2057.0
 31
0.0
1001
ACDBBLOCKREPETAG
1070
     1
1071
       24
1005
12AAA1
  0
LINE
  5
12AAA2
  8
OBJECT
 10
223.5
 20
-2017.0
 30
0.0
 11
223.5
 21
-2008.5000000000009095
 31
0.0
1001
ACDBBLOCKREPETAG
1070
     1
1071
       25
1005
12AAA2
  0
LINE
  5
12AAA3
  8
OBJECT
 10
128.5
 20
-2008.5
 30
0.0
 11
128.5
 21
-2017.0
 31
0.0
1001
ACDBBLOCKREPETAG
1070
     1
1071
       26
1005
12AAA3
  0
LINE
  5
12AAA4
  8
OBJECT
 10
128.5
 20
-2017.0
 30
0.0
 11
223.5
 21
-2017.0
 31
0.0
1001
ACDBBLOCKREPETAG
1070
     1
1071
       27
1005
12AAA4
  0
LINE
  5
12AAA5
  8
OBJECT
 10
228.0
 20
-2021.0
 30
0.0
 11
223.5
 21
-2017.0
 31
0.0
1001
ACDBBLOCKREPETAG
1070
     1
1071
       28
1005
12AAA5
  0
LINE
  5
12AAA6
  8
OBJECT
 10
124.0
 20
-2021.0
 30
0.0
 11
128.5
 21
-2017.0
 31
0.0
1001
ACDBBLOCKREPETAG
1070
     1
1071
       29
1005
12AAA6
  0
LINE
  5
12AAA7
  8
OBJECT
 10
126.5
 20
-2008.5
 30
0.0
 11
225.5
 21
-2008.5000000000009095
 31
0.0
1001
ACDBBLOCKREPETAG
1070
     1
1071
       30
1005
12AAA7
  0
LINE
  5
12AAA8
  8
OBJECT
 10
225.5
 20
-2008.5000000000009095
 30
0.0
 11
225.4999999999990905
 21
-1980.3449199129800036
 31
0.0
1001
ACDBBLOCKREPETAG
1070
     1
1071
       31
1005
12AAA8
  0
LINE
  5
12AAA9
  8
OBJECT
 10
126.5
 20
-2008.5
 30
0.0
 11
126.4999999999991047
 21
-1980.3449199129770477
 31
0.0
1001
ACDBBLOCKREPETAG
1070
     1
1071
       32
1005
12AAA9
  0
INSERT
  5
12AAAA
  8
SLIM
  2
*U16
 10
0.0
 20
0.0
 30
0.0
  0
LINE
  5
12AAAB
  8
HIDDEN
 10
214.0
 20
-2012.0
 30
0.0
 11
138.0
 21
-2012.0
 31
0.0
1001
ACDBBLOCKREPETAG
1070
     1
1071
       57
1005
12AAAB
  0
LINE
  5
12AAAC
  8
OBJECT
 10
481.0
 20
-1791.0
 30
0.0
 11
481.0
 21
-1784.0
 31
0.0
1001
ACDBBLOCKREPETAG
1070
     1
1071
       18
1005
12AAAC
  0
LINE
  5
12AAAD
  8
OBJECT
 10
481.0
 20
-1784.0
 30
0.0
 11
591.0
 21
-1784.0
 31
0.0
1001
ACDBBLOCKREPETAG
1070
     1
1071
       19
1005
12AAAD
  0
LINE
  5
12AAAE
  8
OBJECT
 10
591.0
 20
-1784.0
 30
0.0
 11
591.0
 21
-1791.0
 31
0.0
1001
ACDBBLOCKREPETAG
1070
     1
1071
       20
1005
12AAAE
  0
LINE
  5
12AAAF
  8
OBJECT
 10
591.0
 20
-1791.0
 30
0.0
 11
481.0
 21
-1791.0
 31
0.0
1001
ACDBBLOCKREPETAG
1070
     1
1071
       21
1005
12AAAF
  0
LINE
  5
12AAB0
  8
OBJECT
 10
484.0
 20
-1791.0
 30
0.0
 11
484.0
 21
-1827.0
 31
0.0
1001
ACDBBLOCKREPETAG
1070
     1
1071
       22
1005
12AAB0
  0
LINE
  5
12AAB1
  8
OBJECT
 10
484.0
 20
-1827.0
 30
0.0
 11
588.0
 21
-1827.0
 31
0.0
1001
ACDBBLOCKREPETAG
1070
     1
1071
       23
1005
12AAB1
  0
LINE
  5
12AAB2
  8
OBJECT
 10
588.0
 20
-1827.0
 30
0.0
 11
588.0
 21
-1791.0
 31
0.0
1001
ACDBBLOCKREPETAG
1070
     1
1071
       24
1005
12AAB2
  0
LINE
  5
12AAB3
  8
OBJECT
 10
488.4999999999997726
 20
-1831.0
 30
0.0
 11
488.4999999999997726
 21
-1839.4999999999990905
 31
0.0
1001
ACDBBLOCKREPETAG
1070
     1
1071
       25
1005
12AAB3
  0
LINE
  5
12AAB4
  8
OBJECT
 10
583.4999999999998863
 20
-1839.5000000000009095
 30
0.0
 11
583.4999999999998863
 21
-1831.0
 31
0.0
1001
ACDBBLOCKREPETAG
1070
     1
1071
       26
1005
12AAB4
  0
LINE
  5
12AAB5
  8
OBJECT
 10
583.4999999999998863
 20
-1831.0
 30
0.0
 11
488.4999999999997726
 21
-1831.0
 31
0.0
1001
ACDBBLOCKREPETAG
1070
     1
1071
       27
1005
12AAB5
  0
LINE
  5
12AAB6
  8
OBJECT
 10
484.0
 20
-1827.0
 30
0.0
 11
488.4999999999997726
 21
-1831.0
 31
0.0
1001
ACDBBLOCKREPETAG
1070
     1
1071
       28
1005
12AAB6
  0
LINE
  5
12AAB7
  8
OBJECT
 10
588.0
 20
-1827.0
 30
0.0
 11
583.4999999999998863
 21
-1831.0
 31
0.0
1001
ACDBBLOCKREPETAG
1070
     1
1071
       29
1005
12AAB7
  0
LINE
  5
12AAB8
  8
OBJECT
 10
585.5
 20
-1839.5000000000009095
 30
0.0
 11
486.5
 21
-1839.4999999999990905
 31
0.0
1001
ACDBBLOCKREPETAG
1070
     1
1071
       30
1005
12AAB8
  0
LINE
  5
12AAB9
  8
OBJECT
 10
486.5
 20
-1839.4999999999990905
 30
0.0
 11
486.5000000000009095
 21
-1867.6550800870199964
 31
0.0
1001
ACDBBLOCKREPETAG
1070
     1
1071
       31
1005
12AAB9
  0
LINE
  5
12AABA
  8
OBJECT
 10
585.5
 20
-1839.5000000000009095
 30
0.0
 11
585.5000000000009095
 21
-1867.6550800870220428
 31
0.0
1001
ACDBBLOCKREPETAG
1070
     1
1071
       32
1005
12AABA
  0
INSERT
  5
12AABB
  8
SLIM
  2
*U17
 10
0.0
 20
0.0
 30
0.0
  0
LINE
  5
12AABC
  8
HIDDEN
 10
498.0
 20
-1836.0
 30
0.0
 11
574.0
 21
-1836.0
 31
0.0
1001
ACDBBLOCKREPETAG
1070
     1
1071
       57
1005
12AABC
  0
LINE
  5
12AABD
  8
OBJECT
 10
598.0
 20
-2057.0
 30
0.0
 11
598.0
 21
-2064.0
 31
0.0
1001
ACDBBLOCKREPETAG
1070
     1
1071
       34
1005
12AABD
  0
LINE
  5
12AABE
  8
OBJECT
 10
598.0
 20
-2064.0
 30
0.0
 11
474.0
 21
-2064.0
 31
0.0
1001
ACDBBLOCKREPETAG
1070
     1
1071
       35
1005
12AABE
  0
LINE
  5
12AABF
  8
OBJECT
 10
474.0
 20
-2064.0
 30
0.0
 11
474.0
 21
-2057.0
 31
0.0
1001
ACDBBLOCKREPETAG
1070
     1
1071
       36
1005
12AABF
  0
LINE
  5
12AAC0
  8
OBJECT
 10
474.0
 20
-2057.0
 30
0.0
 11
598.0
 21
-2057.0
 31
0.0
1001
ACDBBLOCKREPETAG
1070
     1
1071
       37
1005
12AAC0
  0
LINE
  5
12AAC1
  8
OBJECT
 10
595.0
 20
-2057.0
 30
0.0
 11
595.0
 21
-2021.0
 31
0.0
1001
ACDBBLOCKREPETAG
1070
     1
1071
       38
1005
12AAC1
  0
LINE
  5
12AAC2
  8
OBJECT
 10
595.0
 20
-2021.0
 30
0.0
 11
477.0
 21
-2021.0
 31
0.0
1001
ACDBBLOCKREPETAG
1070
     1
1071
       39
1005
12AAC2
  0
LINE
  5
12AAC3
  8
OBJECT
 10
477.0
 20
-2021.0
 30
0.0
 11
477.0
 21
-2057.0
 31
0.0
1001
ACDBBLOCKREPETAG
1070
     1
1071
       40
1005
12AAC3
  0
LINE
  5
12AAC4
  8
OBJECT
 10
590.5
 20
-2017.0
 30
0.0
 11
590.5
 21
-2006.5
 31
0.0
1001
ACDBBLOCKREPETAG
1070
     1
1071
       41
1005
12AAC4
  0
LINE
  5
12AAC5
  8
OBJECT
 10
481.5
 20
-2006.5
 30
0.0
 11
481.5
 21
-2017.0
 31
0.0
1001
ACDBBLOCKREPETAG
1070
     1
1071
       42
1005
12AAC5
  0
LINE
  5
12AAC6
  8
OBJECT
 10
481.5
 20
-2017.0
 30
0.0
 11
590.5
 21
-2017.0
 31
0.0
1001
ACDBBLOCKREPETAG
1070
     1
1071
       43
1005
12AAC6
  0
LINE
  5
12AAC7
  8
OBJECT
 10
595.0
 20
-2021.0
 30
0.0
 11
590.5
 21
-2017.0
 31
0.0
1001
ACDBBLOCKREPETAG
1070
     1
1071
       44
1005
12AAC7
  0
LINE
  5
12AAC8
  8
OBJECT
 10
477.0
 20
-2021.0
 30
0.0
 11
481.5
 21
-2017.0
 31
0.0
1001
ACDBBLOCKREPETAG
1070
     1
1071
       45
1005
12AAC8
  0
LINE
  5
12AAC9
  8
OBJECT
 10
585.5
 20
-2001.5
 30
0.0
 11
585.4999999999987494
 21
-1980.3449199129790941
 31
0.0
1001
ACDBBLOCKREPETAG
1070
     1
1071
       46
1005
12AAC9
  0
LINE
  5
12AACA
  8
OBJECT
 10
486.5
 20
-2001.5
 30
0.0
 11
486.5
 21
-1980.3449199129770477
 31
0.0
1001
ACDBBLOCKREPETAG
1070
     1
1071
       47
1005
12AACA
  0
LINE
  5
12AACB
  8
OBJECT
 10
590.5
 20
-2006.5
 30
0.0
 11
481.5
 21
-2006.5
 31
0.0
1001
ACDBBLOCKREPETAG
1070
     1
1071
       48
1005
12AACB
  0
LINE
  5
12AACC
  8
OBJECT
 10
585.5
 20
-2001.5
 30
0.0
 11
486.5
 21
-2001.5
 31
0.0
1001
ACDBBLOCKREPETAG
1070
     1
1071
       49
1005
12AACC
  0
LINE
  5
12AACD
  8
OBJECT
 10
590.5
 20
-2006.5
 30
0.0
 11
585.5
 21
-2001.5
 31
0.0
1001
ACDBBLOCKREPETAG
1070
     1
1071
       50
1005
12AACD
  0
LINE
  5
12AACE
  8
OBJECT
 10
486.5
 20
-2001.5
 30
0.0
 11
481.5000000000035243
 21
-2006.5
 31
0.0
1001
ACDBBLOCKREPETAG
1070
     1
1071
       51
1005
12AACE
  0
INSERT
  5
12AACF
  8
SLIM
  2
*U18
 10
0.0
 20
0.0
 30
0.0
  0
LINE
  5
12AAD0
  8
HIDDEN
 10
580.4999999999996589
 20
-2012.0
 30
0.0
 11
491.5
 21
-2012.0
 31
0.0
1001
ACDBBLOCKREPETAG
1070
     1
1071
       65
1005
12AAD0
  0
LINE
  5
12AAD1
  8
OBJECT
 10
114.0
 20
-2255.0
 30
0.0
 11
114.0
 21
-2248.0
 31
0.0
1001
ACDBBLOCKREPETAG
1070
     1
1071
       34
1005
12AAD1
  0
LINE
  5
12AAD2
  8
OBJECT
 10
114.0
 20
-2248.0
 30
0.0
 11
238.0
 21
-2248.0
 31
0.0
1001
ACDBBLOCKREPETAG
1070
     1
1071
       35
1005
12AAD2
  0
LINE
  5
12AAD3
  8
OBJECT
 10
238.0
 20
-2248.0
 30
0.0
 11
238.0
 21
-2255.0
 31
0.0
1001
ACDBBLOCKREPETAG
1070
     1
1071
       36
1005
12AAD3
  0
LINE
  5
12AAD4
  8
OBJECT
 10
238.0
 20
-2255.0
 30
0.0
 11
114.0
 21
-2255.0
 31
0.0
1001
ACDBBLOCKREPETAG
1070
     1
1071
       37
1005
12AAD4
  0
LINE
  5
12AAD5
  8
OBJECT
 10
117.0
 20
-2255.0
 30
0.0
 11
117.0
 21
-2291.0
 31
0.0
1001
ACDBBLOCKREPETAG
1070
     1
1071
       38
1005
12AAD5
  0
LINE
  5
12AAD6
  8
OBJECT
 10
117.0
 20
-2291.0
 30
0.0
 11
235.0
 21
-2291.0
 31
0.0
1001
ACDBBLOCKREPETAG
1070
     1
1071
       39
1005
12AAD6
  0
LINE
  5
12AAD7
  8
OBJECT
 10
235.0
 20
-2291.0
 30
0.0
 11
235.0
 21
-2255.0
 31
0.0
1001
ACDBBLOCKREPETAG
1070
     1
1071
       40
1005
12AAD7
  0
LINE
  5
12AAD8
  8
OBJECT
 10
121.5
 20
-2295.0
 30
0.0
 11
121.5
 21
-2305.5
 31
0.0
1001
ACDBBLOCKREPETAG
1070
     1
1071
       41
1005
12AAD8
  0
LINE
  5
12AAD9
  8
OBJECT
 10
230.5
 20
-2305.5
 30
0.0
 11
230.5
 21
-2295.0
 31
0.0
1001
ACDBBLOCKREPETAG
1070
     1
1071
       42
1005
12AAD9
  0
LINE
  5
12AADA
  8
OBJECT
 10
230.5
 20
-2295.0
 30
0.0
 11
121.5
 21
-2295.0
 31
0.0
1001
ACDBBLOCKREPETAG
1070
     1
1071
       43
1005
12AADA
  0
LINE
  5
12AADB
  8
OBJECT
 10
117.0
 20
-2291.0
 30
0.0
 11
121.5
 21
-2295.0
 31
0.0
1001
ACDBBLOCKREPETAG
1070
     1
1071
       44
1005
12AADB
  0
LINE
  5
12AADC
  8
OBJECT
 10
235.0
 20
-2291.0
 30
0.0
 11
230.5
 21
-2295.0
 31
0.0
1001
ACDBBLOCKREPETAG
1070
     1
1071
       45
1005
12AADC
  0
LINE
  5
12AADD
  8
OBJECT
 10
126.5
 20
-2310.5
 30
0.0
 11
126.5000000000008953
 21
-2331.6550800870209059
 31
0.0
1001
ACDBBLOCKREPETAG
1070
     1
1071
       46
1005
12AADD
  0
LINE
  5
12AADE
  8
OBJECT
 10
225.5
 20
-2310.5
 30
0.0
 11
225.5
 21
-2331.6550800870209059
 31
0.0
1001
ACDBBLOCKREPETAG
1070
     1
1071
       47
1005
12AADE
  0
LINE
  5
12AADF
  8
OBJECT
 10
121.5
 20
-2305.5
 30
0.0
 11
230.5
 21
-2305.5
 31
0.0
1001
ACDBBLOCKREPETAG
1070
     1
1071
       48
1005
12AADF
  0
LINE
  5
12AAE0
  8
OBJECT
 10
126.5
 20
-2310.5
 30
0.0
 11
225.5
 21
-2310.5
 31
0.0
1001
ACDBBLOCKREPETAG
1070
     1
1071
       49
1005
12AAE0
  0
LINE
  5
12AAE1
  8
OBJECT
 10
121.5
 20
-2305.5
 30
0.0
 11
126.5
 21
-2310.5
 31
0.0
1001
ACDBBLOCKREPETAG
1070
     1
1071
       50
1005
12AAE1
  0
LINE
  5
12AAE2
  8
OBJECT
 10
225.5
 20
-2310.5
 30
0.0
 11
230.4999999999963904
 21
-2305.5
 31
0.0
1001
ACDBBLOCKREPETAG
1070
     1
1071
       51
1005
12AAE2
  0
INSERT
  5
12AAE3
  8
SLIM
  2
*U19
 10
0.0
 20
0.0
 30
0.0
  0
LINE
  5
12AAE4
  8
HIDDEN
 10
131.5
 20
-2300.0
 30
0.0
 11
220.5
 21
-2300.0
 31
0.0
1001
ACDBBLOCKREPETAG
1070
     1
1071
       65
1005
12AAE4
  0
LINE
  5
12AAE5
  8
OBJECT
 10
223.0
 20
-2521.0
 30
0.0
 11
223.0
 21
-2528.0
 31
0.0
1001
ACDBBLOCKREPETAG
1070
     1
1071
        0
1005
12AAE5
  0
LINE
  5
12AAE6
  8
OBJECT
 10
223.0
 20
-2528.0
 30
0.0
 11
129.0
 21
-2528.0
 31
0.0
1001
ACDBBLOCKREPETAG
1070
     1
1071
        1
1005
12AAE6
  0
LINE
  5
12AAE7
  8
OBJECT
 10
129.0
 20
-2528.0
 30
0.0
 11
129.0
 21
-2521.0
 31
0.0
1001
ACDBBLOCKREPETAG
1070
     1
1071
        2
1005
12AAE7
  0
LINE
  5
12AAE8
  8
OBJECT
 10
129.0
 20
-2521.0
 30
0.0
 11
223.0
 21
-2521.0
 31
0.0
1001
ACDBBLOCKREPETAG
1070
     1
1071
        3
1005
12AAE8
  0
LINE
  5
12AAE9
  8
OBJECT
 10
220.0
 20
-2521.0
 30
0.0
 11
220.0
 21
-2485.0
 31
0.0
1001
ACDBBLOCKREPETAG
1070
     1
1071
        4
1005
12AAE9
  0
LINE
  5
12AAEA
  8
OBJECT
 10
220.0
 20
-2485.0
 30
0.0
 11
132.0
 21
-2485.0
 31
0.0
1001
ACDBBLOCKREPETAG
1070
     1
1071
        5
1005
12AAEA
  0
LINE
  5
12AAEB
  8
OBJECT
 10
132.0
 20
-2485.0
 30
0.0
 11
132.0
 21
-2521.0
 31
0.0
1001
ACDBBLOCKREPETAG
1070
     1
1071
        6
1005
12AAEB
  0
LINE
  5
12AAEC
  8
OBJECT
 10
215.5
 20
-2481.0
 30
0.0
 11
215.5
 21
-2472.5000000000009095
 31
0.0
1001
ACDBBLOCKREPETAG
1070
     1
1071
        7
1005
12AAEC
  0
LINE
  5
12AAED
  8
OBJECT
 10
136.5
 20
-2472.5
 30
0.0
 11
136.5
 21
-2481.0
 31
0.0
1001
ACDBBLOCKREPETAG
1070
     1
1071
        8
1005
12AAED
  0
LINE
  5
12AAEE
  8
OBJECT
 10
136.5
 20
-2481.0
 30
0.0
 11
215.5
 21
-2481.0
 31
0.0
1001
ACDBBLOCKREPETAG
1070
     1
1071
        9
1005
12AAEE
  0
LINE
  5
12AAEF
  8
OBJECT
 10
220.0
 20
-2485.0
 30
0.0
 11
215.5
 21
-2481.0
 31
0.0
1001
ACDBBLOCKREPETAG
1070
     1
1071
       10
1005
12AAEF
  0
LINE
  5
12AAF0
  8
OBJECT
 10
132.0
 20
-2485.0
 30
0.0
 11
136.5
 21
-2481.0
 31
0.0
1001
ACDBBLOCKREPETAG
1070
     1
1071
       11
1005
12AAF0
  0
LINE
  5
12AAF1
  8
OBJECT
 10
129.5
 20
-2472.5
 30
0.0
 11
222.5
 21
-2472.5000000000009095
 31
0.0
1001
ACDBBLOCKREPETAG
1070
     1
1071
       12
1005
12AAF1
  0
ARC
  5
12AAF2
  8
OBJECT
 10
222.5
 20
-2469.5
 30
0.0
 40
3.0
 50
270.0
 51
0.0
1001
ACDBBLOCKREPETAG
1070
     1
1071
       13
1005
12AAF2
  0
LINE
  5
12AAF3
  8
OBJECT
 10
225.5
 20
-2469.5
 30
0.0
 11
225.5000000000009095
 21
-2444.3449199129800036
 31
0.0
1001
ACDBBLOCKREPETAG
1070
     1
1071
       15
1005
12AAF3
  0
LINE
  5
12AAF4
  8
OBJECT
 10
126.5
 20
-2469.5
 30
0.0
 11
126.5000000000008953
 21
-2444.3449199129800036
 31
0.0
1001
ACDBBLOCKREPETAG
1070
     1
1071
       16
1005
12AAF4
  0
ARC
  5
12AAF5
  8
OBJECT
 10
129.5
 20
-2469.5
 30
0.0
 40
3.0
 50
180.0
 51
270.0
1001
ACDBBLOCKREPETAG
1070
     1
1071
       17
1005
12AAF5
  0
INSERT
  5
12AAF6
  8
SLIM
  2
*U20
 10
0.0
 20
0.0
 30
0.0
  0
LINE
  5
12AAF7
  8
HIDDEN
 10
206.0
 20
-2476.0
 30
0.0
 11
146.0
 21
-2476.0
 31
0.0
1001
ACDBBLOCKREPETAG
1070
     1
1071
       56
1005
12AAF7
  0
LINE
  5
12AAF8
  8
OBJECT
 10
474.0
 20
-2255.0
 30
0.0
 11
474.0
 21
-2248.0
 31
0.0
1001
ACDBBLOCKREPETAG
1070
     1
1071
       34
1005
12AAF8
  0
LINE
  5
12AAF9
  8
OBJECT
 10
474.0
 20
-2248.0
 30
0.0
 11
598.0
 21
-2248.0
 31
0.0
1001
ACDBBLOCKREPETAG
1070
     1
1071
       35
1005
12AAF9
  0
LINE
  5
12AAFA
  8
OBJECT
 10
598.0
 20
-2248.0
 30
0.0
 11
598.0
 21
-2255.0
 31
0.0
1001
ACDBBLOCKREPETAG
1070
     1
1071
       36
1005
12AAFA
  0
LINE
  5
12AAFB
  8
OBJECT
 10
598.0
 20
-2255.0
 30
0.0
 11
474.0
 21
-2255.0
 31
0.0
1001
ACDBBLOCKREPETAG
1070
     1
1071
       37
1005
12AAFB
  0
LINE
  5
12AAFC
  8
OBJECT
 10
477.0
 20
-2255.0
 30
0.0
 11
477.0
 21
-2291.0
 31
0.0
1001
ACDBBLOCKREPETAG
1070
     1
1071
       38
1005
12AAFC
  0
LINE
  5
12AAFD
  8
OBJECT
 10
477.0
 20
-2291.0
 30
0.0
 11
595.0
 21
-2291.0
 31
0.0
1001
ACDBBLOCKREPETAG
1070
     1
1071
       39
1005
12AAFD
  0
LINE
  5
12AAFE
  8
OBJECT
 10
595.0
 20
-2291.0
 30
0.0
 11
595.0
 21
-2255.0
 31
0.0
1001
ACDBBLOCKREPETAG
1070
     1
1071
       40
1005
12AAFE
  0
LINE
  5
12AAFF
  8
OBJECT
 10
481.5
 20
-2295.0
 30
0.0
 11
481.5
 21
-2305.5
 31
0.0
1001
ACDBBLOCKREPETAG
1070
     1
1071
       41
1005
12AAFF
  0
LINE
  5
12AB00
  8
OBJECT
 10
590.5
 20
-2305.5
 30
0.0
 11
590.5
 21
-2295.0
 31
0.0
1001
ACDBBLOCKREPETAG
1070
     1
1071
       42
1005
12AB00
  0
LINE
  5
12AB01
  8
OBJECT
 10
590.5
 20
-2295.0
 30
0.0
 11
481.5
 21
-2295.0
 31
0.0
1001
ACDBBLOCKREPETAG
1070
     1
1071
       43
1005
12AB01
  0
LINE
  5
12AB02
  8
OBJECT
 10
477.0
 20
-2291.0
 30
0.0
 11
481.5
 21
-2295.0
 31
0.0
1001
ACDBBLOCKREPETAG
1070
     1
1071
       44
1005
12AB02
  0
LINE
  5
12AB03
  8
OBJECT
 10
595.0
 20
-2291.0
 30
0.0
 11
590.5
 21
-2295.0
 31
0.0
1001
ACDBBLOCKREPETAG
1070
     1
1071
       45
1005
12AB03
  0
LINE
  5
12AB04
  8
OBJECT
 10
486.5
 20
-2310.5
 30
0.0
 11
486.5000000000009095
 21
-2331.6550800870209059
 31
0.0
1001
ACDBBLOCKREPETAG
1070
     1
1071
       46
1005
12AB04
  0
LINE
  5
12AB05
  8
OBJECT
 10
585.5
 20
-2310.5
 30
0.0
 11
585.5
 21
-2331.6550800870209059
 31
0.0
1001
ACDBBLOCKREPETAG
1070
     1
1071
       47
1005
12AB05
  0
LINE
  5
12AB06
  8
OBJECT
 10
481.5
 20
-2305.5
 30
0.0
 11
590.5
 21
-2305.5
 31
0.0
1001
ACDBBLOCKREPETAG
1070
     1
1071
       48
1005
12AB06
  0
LINE
  5
12AB07
  8
OBJECT
 10
486.5
 20
-2310.5
 30
0.0
 11
585.5
 21
-2310.5
 31
0.0
1001
ACDBBLOCKREPETAG
1070
     1
1071
       49
1005
12AB07
  0
LINE
  5
12AB08
  8
OBJECT
 10
481.5
 20
-2305.5
 30
0.0
 11
486.5
 21
-2310.5
 31
0.0
1001
ACDBBLOCKREPETAG
1070
     1
1071
       50
1005
12AB08
  0
LINE
  5
12AB09
  8
OBJECT
 10
585.5
 20
-2310.5
 30
0.0
 11
590.499999999996021
 21
-2305.5
 31
0.0
1001
ACDBBLOCKREPETAG
1070
     1
1071
       51
1005
12AB09
  0
INSERT
  5
12AB0A
  8
SLIM
  2
*U21
 10
0.0
 20
0.0
 30
0.0
  0
LINE
  5
12AB0B
  8
HIDDEN
 10
491.5
 20
-2300.0
 30
0.0
 11
580.4999999999996589
 21
-2300.0
 31
0.0
1001
ACDBBLOCKREPETAG
1070
     1
1071
       65
1005
12AB0B
  0
LINE
  5
12AB0C
  8
OBJECT
 10
591.0
 20
-2521.0
 30
0.0
 11
591.0
 21
-2528.0
 31
0.0
1001
ACDBBLOCKREPETAG
1070
     1
1071
       18
1005
12AB0C
  0
LINE
  5
12AB0D
  8
OBJECT
 10
591.0
 20
-2528.0
 30
0.0
 11
481.0
 21
-2528.0
 31
0.0
1001
ACDBBLOCKREPETAG
1070
     1
1071
       19
1005
12AB0D
  0
LINE
  5
12AB0E
  8
OBJECT
 10
481.0
 20
-2528.0
 30
0.0
 11
481.0
 21
-2521.0
 31
0.0
1001
ACDBBLOCKREPETAG
1070
     1
1071
       20
1005
12AB0E
  0
LINE
  5
12AB0F
  8
OBJECT
 10
481.0
 20
-2521.0
 30
0.0
 11
591.0
 21
-2521.0
 31
0.0
1001
ACDBBLOCKREPETAG
1070
     1
1071
       21
1005
12AB0F
  0
LINE
  5
12AB10
  8
OBJECT
 10
588.0
 20
-2521.0
 30
0.0
 11
588.0
 21
-2485.0
 31
0.0
1001
ACDBBLOCKREPETAG
1070
     1
1071
       22
1005
12AB10
  0
LINE
  5
12AB11
  8
OBJECT
 10
588.0
 20
-2485.0
 30
0.0
 11
484.0
 21
-2485.0
 31
0.0
1001
ACDBBLOCKREPETAG
1070
     1
1071
       23
1005
12AB11
  0
LINE
  5
12AB12
  8
OBJECT
 10
484.0
 20
-2485.0
 30
0.0
 11
484.0
 21
-2521.0
 31
0.0
1001
ACDBBLOCKREPETAG
1070
     1
1071
       24
1005
12AB12
  0
LINE
  5
12AB13
  8
OBJECT
 10
583.4999999999998863
 20
-2481.0
 30
0.0
 11
583.4999999999998863
 21
-2472.5000000000009095
 31
0.0
1001
ACDBBLOCKREPETAG
1070
     1
1071
       25
1005
12AB13
  0
LINE
  5
12AB14
  8
OBJECT
 10
488.4999999999997726
 20
-2472.5
 30
0.0
 11
488.4999999999997726
 21
-2481.0
 31
0.0
1001
ACDBBLOCKREPETAG
1070
     1
1071
       26
1005
12AB14
  0
LINE
  5
12AB15
  8
OBJECT
 10
488.4999999999997726
 20
-2481.0
 30
0.0
 11
583.4999999999998863
 21
-2481.0
 31
0.0
1001
ACDBBLOCKREPETAG
1070
     1
1071
       27
1005
12AB15
  0
LINE
  5
12AB16
  8
OBJECT
 10
588.0
 20
-2485.0
 30
0.0
 11
583.4999999999998863
 21
-2481.0
 31
0.0
1001
ACDBBLOCKREPETAG
1070
     1
1071
       28
1005
12AB16
  0
LINE
  5
12AB17
  8
OBJECT
 10
484.0
 20
-2485.0
 30
0.0
 11
488.4999999999997726
 21
-2481.0
 31
0.0
1001
ACDBBLOCKREPETAG
1070
     1
1071
       29
1005
12AB17
  0
LINE
  5
12AB18
  8
OBJECT
 10
486.5
 20
-2472.5
 30
0.0
 11
585.5
 21
-2472.5000000000009095
 31
0.0
1001
ACDBBLOCKREPETAG
1070
     1
1071
       30
1005
12AB18
  0
LINE
  5
12AB19
  8
OBJECT
 10
585.5
 20
-2472.5000000000009095
 30
0.0
 11
585.4999999999987494
 21
-2444.3449199129800036
 31
0.0
1001
ACDBBLOCKREPETAG
1070
     1
1071
       31
1005
12AB19
  0
LINE
  5
12AB1A
  8
OBJECT
 10
486.5
 20
-2472.5
 30
0.0
 11
486.4999999999990905
 21
-2444.3449199129800036
 31
0.0
1001
ACDBBLOCKREPETAG
1070
     1
1071
       32
1005
12AB1A
  0
INSERT
  5
12AB1B
  8
SLIM
  2
*U22
 10
0.0
 20
0.0
 30
0.0
  0
LINE
  5
12AB1C
  8
HIDDEN
 10
574.0
 20
-2476.0
 30
0.0
 11
498.0
 21
-2476.0
 31
0.0
1001
ACDBBLOCKREPETAG
1070
     1
1071
       57
1005
12AB1C
  0
LINE
  5
12AB1D
  8
OBJECT
 10
114.0
 20
-2719.0
 30
0.0
 11
114.0
 21
-2712.0
 31
0.0
1001
ACDBBLOCKREPETAG
1070
     1
1071
       34
1005
12AB1D
  0
LINE
  5
12AB1E
  8
OBJECT
 10
114.0
 20
-2712.0
 30
0.0
 11
238.0
 21
-2712.0
 31
0.0
1001
ACDBBLOCKREPETAG
1070
     1
1071
       35
1005
12AB1E
  0
LINE
  5
12AB1F
  8
OBJECT
 10
238.0
 20
-2712.0
 30
0.0
 11
238.0
 21
-2719.0
 31
0.0
1001
ACDBBLOCKREPETAG
1070
     1
1071
       36
1005
12AB1F
  0
LINE
  5
12AB20
  8
OBJECT
 10
238.0
 20
-2719.0
 30
0.0
 11
114.0
 21
-2719.0
 31
0.0
1001
ACDBBLOCKREPETAG
1070
     1
1071
       37
1005
12AB20
  0
LINE
  5
12AB21
  8
OBJECT
 10
117.0
 20
-2719.0
 30
0.0
 11
117.0
 21
-2755.0
 31
0.0
1001
ACDBBLOCKREPETAG
1070
     1
1071
       38
1005
12AB21
  0
LINE
  5
12AB22
  8
OBJECT
 10
117.0
 20
-2755.0
 30
0.0
 11
235.0
 21
-2755.0
 31
0.0
1001
ACDBBLOCKREPETAG
1070
     1
1071
       39
1005
12AB22
  0
LINE
  5
12AB23
  8
OBJECT
 10
235.0
 20
-2755.0
 30
0.0
 11
235.0
 21
-2719.0
 31
0.0
1001
ACDBBLOCKREPETAG
1070
     1
1071
       40
1005
12AB23
  0
LINE
  5
12AB24
  8
OBJECT
 10
121.5
 20
-2759.0
 30
0.0
 11
121.5
 21
-2769.5
 31
0.0
1001
ACDBBLOCKREPETAG
1070
     1
1071
       41
1005
12AB24
  0
LINE
  5
12AB25
  8
OBJECT
 10
230.5
 20
-2769.5
 30
0.0
 11
230.5
 21
-2759.0
 31
0.0
1001
ACDBBLOCKREPETAG
1070
     1
1071
       42
1005
12AB25
  0
LINE
  5
12AB26
  8
OBJECT
 10
230.5
 20
-2759.0
 30
0.0
 11
121.5
 21
-2759.0
 31
0.0
1001
ACDBBLOCKREPETAG
1070
     1
1071
       43
1005
12AB26
  0
LINE
  5
12AB27
  8
OBJECT
 10
117.0
 20
-2755.0
 30
0.0
 11
121.5
 21
-2759.0
 31
0.0
1001
ACDBBLOCKREPETAG
1070
     1
1071
       44
1005
12AB27
  0
LINE
  5
12AB28
  8
OBJECT
 10
235.0
 20
-2755.0
 30
0.0
 11
230.5
 21
-2759.0
 31
0.0
1001
ACDBBLOCKREPETAG
1070
     1
1071
       45
1005
12AB28
  0
LINE
  5
12AB29
  8
OBJECT
 10
126.5
 20
-2774.5
 30
0.0
 11
126.5000000000008953
 21
-2795.6550800870209059
 31
0.0
1001
ACDBBLOCKREPETAG
1070
     1
1071
       46
1005
12AB29
  0
LINE
  5
12AB2A
  8
OBJECT
 10
225.5
 20
-2774.5
 30
0.0
 11
225.5
 21
-2795.6550800870209059
 31
0.0
1001
ACDBBLOCKREPETAG
1070
     1
1071
       47
1005
12AB2A
  0
LINE
  5
12AB2B
  8
OBJECT
 10
121.5
 20
-2769.5
 30
0.0
 11
230.5
 21
-2769.5
 31
0.0
1001
ACDBBLOCKREPETAG
1070
     1
1071
       48
1005
12AB2B
  0
LINE
  5
12AB2C
  8
OBJECT
 10
126.5
 20
-2774.5
 30
0.0
 11
225.5
 21
-2774.5
 31
0.0
1001
ACDBBLOCKREPETAG
1070
     1
1071
       49
1005
12AB2C
  0
LINE
  5
12AB2D
  8
OBJECT
 10
121.5
 20
-2769.5
 30
0.0
 11
126.5
 21
-2774.5
 31
0.0
1001
ACDBBLOCKREPETAG
1070
     1
1071
       50
1005
12AB2D
  0
LINE
  5
12AB2E
  8
OBJECT
 10
225.5
 20
-2774.5
 30
0.0
 11
230.4999999999963904
 21
-2769.5
 31
0.0
1001
ACDBBLOCKREPETAG
1070
     1
1071
       51
1005
12AB2E
  0
INSERT
  5
12AB2F
  8
SLIM
  2
*U23
 10
0.0
 20
0.0
 30
0.0
  0
LINE
  5
12AB30
  8
HIDDEN
 10
131.5
 20
-2764.0
 30
0.0
 11
220.5
 21
-2764.0
 31
0.0
1001
ACDBBLOCKREPETAG
1070
     1
1071
       65
1005
12AB30
  0
LINE
  5
12AB31
  8
OBJECT
 10
238.0
 20
-2985.0
 30
0.0
 11
238.0
 21
-2992.0
 31
0.0
1001
ACDBBLOCKREPETAG
1070
     1
1071
       34
1005
12AB31
  0
LINE
  5
12AB32
  8
OBJECT
 10
238.0
 20
-2992.0
 30
0.0
 11
114.0
 21
-2992.0
 31
0.0
1001
ACDBBLOCKREPETAG
1070
     1
1071
       35
1005
12AB32
  0
LINE
  5
12AB33
  8
OBJECT
 10
114.0
 20
-2992.0
 30
0.0
 11
114.0
 21
-2985.0
 31
0.0
1001
ACDBBLOCKREPETAG
1070
     1
1071
       36
1005
12AB33
  0
LINE
  5
12AB34
  8
OBJECT
 10
114.0
 20
-2985.0
 30
0.0
 11
238.0
 21
-2985.0
 31
0.0
1001
ACDBBLOCKREPETAG
1070
     1
1071
       37
1005
12AB34
  0
LINE
  5
12AB35
  8
OBJECT
 10
235.0
 20
-2985.0
 30
0.0
 11
235.0
 21
-2949.0
 31
0.0
1001
ACDBBLOCKREPETAG
1070
     1
1071
       38
1005
12AB35
  0
LINE
  5
12AB36
  8
OBJECT
 10
235.0
 20
-2949.0
 30
0.0
 11
117.0
 21
-2949.0
 31
0.0
1001
ACDBBLOCKREPETAG
1070
     1
1071
       39
1005
12AB36
  0
LINE
  5
12AB37
  8
OBJECT
 10
117.0
 20
-2949.0
 30
0.0
 11
117.0
 21
-2985.0
 31
0.0
1001
ACDBBLOCKREPETAG
1070
     1
1071
       40
1005
12AB37
  0
LINE
  5
12AB38
  8
OBJECT
 10
230.5
 20
-2945.0
 30
0.0
 11
230.5
 21
-2934.5
 31
0.0
1001
ACDBBLOCKREPETAG
1070
     1
1071
       41
1005
12AB38
  0
LINE
  5
12AB39
  8
OBJECT
 10
121.5
 20
-2934.5
 30
0.0
 11
121.5
 21
-2945.0
 31
0.0
1001
ACDBBLOCKREPETAG
1070
     1
1071
       42
1005
12AB39
  0
LINE
  5
12AB3A
  8
OBJECT
 10
121.5
 20
-2945.0
 30
0.0
 11
230.5
 21
-2945.0
 31
0.0
1001
ACDBBLOCKREPETAG
1070
     1
1071
       43
1005
12AB3A
  0
LINE
  5
12AB3B
  8
OBJECT
 10
235.0
 20
-2949.0
 30
0.0
 11
230.5
 21
-2945.0
 31
0.0
1001
ACDBBLOCKREPETAG
1070
     1
1071
       44
1005
12AB3B
  0
LINE
  5
12AB3C
  8
OBJECT
 10
117.0
 20
-2949.0
 30
0.0
 11
121.5
 21
-2945.0
 31
0.0
1001
ACDBBLOCKREPETAG
1070
     1
1071
       45
1005
12AB3C
  0
LINE
  5
12AB3D
  8
OBJECT
 10
225.5
 20
-2929.5
 30
0.0
 11
225.4999999999990905
 21
-2908.3449199129800036
 31
0.0
1001
ACDBBLOCKREPETAG
1070
     1
1071
       46
1005
12AB3D
  0
LINE
  5
12AB3E
  8
OBJECT
 10
126.5
 20
-2929.5
 30
0.0
 11
126.5
 21
-2908.3449199129781846
 31
0.0
1001
ACDBBLOCKREPETAG
1070
     1
1071
       47
1005
12AB3E
  0
LINE
  5
12AB3F
  8
OBJECT
 10
230.5
 20
-2934.5
 30
0.0
 11
121.5
 21
-2934.5
 31
0.0
1001
ACDBBLOCKREPETAG
1070
     1
1071
       48
1005
12AB3F
  0
LINE
  5
12AB40
  8
OBJECT
 10
225.5
 20
-2929.5
 30
0.0
 11
126.5
 21
-2929.5
 31
0.0
1001
ACDBBLOCKREPETAG
1070
     1
1071
       49
1005
12AB40
  0
LINE
  5
12AB41
  8
OBJECT
 10
230.5
 20
-2934.5
 30
0.0
 11
225.5
 21
-2929.5
 31
0.0
1001
ACDBBLOCKREPETAG
1070
     1
1071
       50
1005
12AB41
  0
LINE
  5
12AB42
  8
OBJECT
 10
126.5
 20
-2929.5
 30
0.0
 11
121.5000000000035953
 21
-2934.5
 31
0.0
1001
ACDBBLOCKREPETAG
1070
     1
1071
       51
1005
12AB42
  0
INSERT
  5
12AB43
  8
SLIM
  2
*U24
 10
0.0
 20
0.0
 30
0.0
  0
LINE
  5
12AB44
  8
HIDDEN
 10
220.5
 20
-2940.0
 30
0.0
 11
131.5
 21
-2940.0
 31
0.0
1001
ACDBBLOCKREPETAG
1070
     1
1071
       65
1005
12AB44
  0
TEXT
  5
12AB45
  8
SLIM
 10
-18.1999999999937891
 20
-3195.999999999182819
 30
0.0
 40
51.9999999999822577
  1
（特）：特注品。対向枝への排水の流入
 41
0.75
1001
ACDBBLOCKREPETAG
1070
     1
1071
      118
1005
128C29
  0
TEXT
  5
12AB46
  8
SLIM
 10
0.0
 20
-3265.3333333324931118
 30
0.0
 40
51.9999999999822577
  1
が無いことを確認した場合のみ製作。
 41
0.75
1001
ACDBBLOCKREPETAG
1070
     1
1071
      118
1005
128C29
  0
CIRCLE
  5
12AB47
  8
OBJECT
 10
180.0000000000418083
 20
-232.0000000001718945
 30
0.0
 40
70.0
1001
ACDBBLOCKREPETAG
1070
     1
1071
       50
1005
12AB47
  0
CIRCLE
  5
12AB48
  8
OBJECT
 10
180.0000000000418083
 20
-232.0000000001718945
 30
0.0
 40
77.0
1001
ACDBBLOCKREPETAG
1070
     1
1071
       51
1005
12AB48
  0
ARC
  5
12AB49
  8
OBJECT
 10
180.0000000000418083
 20
-232.0000000001718945
 30
0.0
 40
80.0
 50
140.8050325737796982
 51
39.1949674262202521
1001
ACDBBLOCKREPETAG
1070
     1
1071
       52
1005
12AB49
  0
LINE
  5
12AB4A
  8
OBJECT
 10
118.0000000000417941
 20
-186.3381997728473038
 30
0.0
 11
118.0000000000417941
 21
-152.0000000001718092
 31
0.0
1001
ACDBBLOCKREPETAG
1070
     1
1071
       53
1005
12AB4A
  0
LINE
  5
12AB4B
  8
OBJECT
 10
242.0000000000418083
 20
-186.3381997728473038
 30
0.0
 11
242.0000000000418083
 21
-152.0000000001718092
 31
0.0
1001
ACDBBLOCKREPETAG
1070
     1
1071
       54
1005
12AB4B
  0
POINT
  5
12AB4C
  8
DOTS
 10
180.0000000000418083
 20
-232.0000000001718945
 30
0.0
1001
ACDBBLOCKREPETAG
1070
     1
1071
       63
1005
12AB4C
  0
CIRCLE
  5
12AB4D
  8
OBJECT
 10
180.0000000000418083
 20
-232.0000000001718945
 30
0.0
 40
53.5
1001
ACDBBLOCKREPETAG
1070
     1
1071
      157
1005
12AB4D
  0
CIRCLE
  5
12AB4E
  8
OBJECT
 10
176.0
 20
-996.0
 30
0.0
 40
70.0
1001
ACDBBLOCKREPETAG
1070
     1
1071
       50
1005
12AB4E
  0
CIRCLE
  5
12AB4F
  8
OBJECT
 10
176.0
 20
-996.0
 30
0.0
 40
75.0
1001
ACDBBLOCKREPETAG
1070
     1
1071
       51
1005
12AB4F
  0
POINT
  5
12AB50
  8
DOTS
 10
176.0
 20
-996.0
 30
0.0
1001
ACDBBLOCKREPETAG
1070
     1
1071
       63
1005
12AB50
  0
ARC
  5
12AB51
  8
OBJECT
 10
176.0
 20
-996.0
 30
0.0
 40
55.0
 50
299.3022457642870222
 51
240.6977542359811935
1001
ACDBBLOCKREPETAG
1070
     1
1071
       50
1005
12AB4E
  0
LINE
  5
12AB52
  8
OBJECT
 10
152.1757960752509007
 20
-1041.6779614447550557
 30
0.0
 11
144.1876176729984138
 21
-1047.5774584435469023
 31
0.0
  0
ARC
  5
12AB53
  8
OBJECT
 10
155.1461853586351936
 20
-1045.6999991752020378
 30
0.0
 40
5.0
 50
90.0
 51
126.4469224760729986
  0
LINE
  5
12AB54
  8
OBJECT
 10
199.8242039246960076
 20
-1041.6779614446270443
 30
0.0
 11
207.8124539800938066
 21
-1047.5775113607780895
 31
0.0
  0
ARC
  5
12AB55
  8
OBJECT
 10
196.8538146414830123
 20
-1045.6999991752020378
 30
0.0
 40
5.0
 50
53.5530775262745422
 51
90.0
  0
LINE
  5
12AB56
  8
OBJECT
 10
196.8538146414830123
 20
-1040.6999991752029473
 30
0.0
 11
155.1461853586351936
 21
-1040.6999991752029473
 31
0.0
  0
ARC
  5
12AB57
  8
OBJECT
 10
203.0598311269532132
 20
-1054.0127717297000345
 30
0.0
 40
8.0
 50
16.4762162479585612
 51
53.5530775262745422
  0
ARC
  5
12AB58
  8
OBJECT
 10
148.9401688730449109
 20
-1054.0127717297000345
 30
0.0
 40
8.0
 50
126.4469224737253938
 51
163.5237837520413962
  0
LINE
  5
12AB59
  8
OBJECT
 10
141.2686684859745014
 20
-1051.7438332529759464
 30
0.0
 11
140.0
 21
-1056.0333240792169818
 31
0.0
  0
LINE
  5
12AB5A
  8
OBJECT
 10
210.7313315140254133
 20
-1051.7438332529759464
 30
0.0
 11
212.0
 21
-1056.0333240792169818
 31
0.0
  0
CIRCLE
  5
12AB5B
  8
OBJECT
 10
535.9999999998779003
 20
-996.0
 30
0.0
 40
70.0
1001
ACDBBLOCKREPETAG
1070
     1
1071
       50
1005
12AB5B
  0
CIRCLE
  5
12AB5C
  8
OBJECT
 10
535.9999999998779003
 20
-996.0
 30
0.0
 40
75.0
1001
ACDBBLOCKREPETAG
1070
     1
1071
       51
1005
12AB5C
  0
POINT
  5
12AB5D
  8
DOTS
 10
535.9999999998779003
 20
-996.0
 30
0.0
1001
ACDBBLOCKREPETAG
1070
     1
1071
       63
1005
12AB5D
  0
ARC
  5
12AB5E
  8
OBJECT
 10
535.9999999998779003
 20
-996.0
 30
0.0
 40
55.0
 50
299.3022457642854874
 51
240.6977542359825009
1001
ACDBBLOCKREPETAG
1070
     1
1071
       50
1005
12AB5B
  0
LINE
  5
12AB5F
  8
OBJECT
 10
512.1757960751292558
 20
-1041.6779614447550557
 30
0.0
 11
504.1876176728763994
 21
-1047.5774584435469023
 31
0.0
  0
ARC
  5
12AB60
  8
OBJECT
 10
515.1461853585129802
 20
-1045.6999991752020378
 30
0.0
 40
5.0
 50
90.0
 51
126.4469224760718049
  0
LINE
  5
12AB61
  8
OBJECT
 10
559.824203924574249
 20
-1041.6779614446270443
 30
0.0
 11
567.8124539799719059
 21
-1047.5775113607780895
 31
0.0
  0
ARC
  5
12AB62
  8
OBJECT
 10
556.8538146413611685
 20
-1045.6999991752020378
 30
0.0
 40
5.0
 50
53.5530775262758425
 51
90.0
  0
LINE
  5
12AB63
  8
OBJECT
 10
556.8538146413611685
 20
-1040.6999991752029473
 30
0.0
 11
515.1461853585129802
 21
-1040.6999991752029473
 31
0.0
  0
ARC
  5
12AB64
  8
OBJECT
 10
563.059831126831341
 20
-1054.0127717297000345
 30
0.0
 40
8.0
 50
16.4762162479585612
 51
53.5530775262758425
  0
ARC
  5
12AB65
  8
OBJECT
 10
508.9401688729230955
 20
-1054.0127717297000345
 30
0.0
 40
8.0
 50
126.4469224737241007
 51
163.5237837520413962
  0
LINE
  5
12AB66
  8
OBJECT
 10
501.2686684858524018
 20
-1051.7438332529759464
 30
0.0
 11
499.999999999878014
 21
-1056.0333240792169818
 31
0.0
  0
LINE
  5
12AB67
  8
OBJECT
 10
570.7313315139034557
 20
-1051.7438332529759464
 30
0.0
 11
571.999999999878014
 21
-1056.0333240792169818
 31
0.0
  0
CIRCLE
  5
12AB68
  8
OBJECT
 10
176.0
 20
-1459.9999999998419753
 30
0.0
 40
70.0
1001
ACDBBLOCKREPETAG
1070
     1
1071
       50
1005
12AB68
  0
CIRCLE
  5
12AB69
  8
OBJECT
 10
176.0
 20
-1459.9999999998419753
 30
0.0
 40
75.0
1001
ACDBBLOCKREPETAG
1070
     1
1071
       51
1005
12AB69
  0
POINT
  5
12AB6A
  8
DOTS
 10
176.0
 20
-1459.9999999998419753
 30
0.0
1001
ACDBBLOCKREPETAG
1070
     1
1071
       63
1005
12AB6A
  0
ARC
  5
12AB6B
  8
OBJECT
 10
176.0
 20
-1459.9999999998419753
 30
0.0
 40
55.0
 50
299.3022457642870222
 51
240.6977542359811935
1001
ACDBBLOCKREPETAG
1070
     1
1071
       50
1005
12AB68
  0
LINE
  5
12AB6C
  8
OBJECT
 10
152.1757960752509007
 20
-1505.677961444597031
 30
0.0
 11
144.1876176729984138
 21
-1511.577458443389105
 31
0.0
  0
ARC
  5
12AB6D
  8
OBJECT
 10
155.1461853586351936
 20
-1509.6999991750449226
 30
0.0
 40
5.0
 50
90.0
 51
126.4469224760729986
  0
LINE
  5
12AB6E
  8
OBJECT
 10
199.8242039246960076
 20
-1505.6779614444690196
 30
0.0
 11
207.8124539800938066
 21
-1511.5775113606189279
 31
0.0
  0
ARC
  5
12AB6F
  8
OBJECT
 10
196.8538146414830123
 20
-1509.6999991750449226
 30
0.0
 40
5.0
 50
53.5530775262745422
 51
90.0
  0
LINE
  5
12AB70
  8
OBJECT
 10
196.8538146414830123
 20
-1504.6999991750449226
 30
0.0
 11
155.1461853586351936
 21
-1504.6999991750449226
 31
0.0
  0
ARC
  5
12AB71
  8
OBJECT
 10
203.0598311269532132
 20
-1518.0127717295420098
 30
0.0
 40
8.0
 50
16.4762162479585612
 51
53.5530775262745422
  0
ARC
  5
12AB72
  8
OBJECT
 10
148.9401688730449109
 20
-1518.0127717295420098
 30
0.0
 40
8.0
 50
126.4469224737253938
 51
163.5237837520413962
  0
LINE
  5
12AB73
  8
OBJECT
 10
141.2686684859745014
 20
-1515.7438332528179217
 30
0.0
 11
140.0
 21
-1520.0333240790589571
 31
0.0
  0
LINE
  5
12AB74
  8
OBJECT
 10
210.7313315140254133
 20
-1515.7438332528179217
 30
0.0
 11
212.0
 21
-1520.0333240790589571
 31
0.0
  0
CIRCLE
  5
12AB75
  8
OBJECT
 10
535.9999999998779003
 20
-1459.9999999998419753
 30
0.0
 40
70.0
1001
ACDBBLOCKREPETAG
1070
     1
1071
       50
1005
12AB75
  0
CIRCLE
  5
12AB76
  8
OBJECT
 10
535.9999999998779003
 20
-1459.9999999998419753
 30
0.0
 40
75.0
1001
ACDBBLOCKREPETAG
1070
     1
1071
       51
1005
12AB76
  0
POINT
  5
12AB77
  8
DOTS
 10
535.9999999998779003
 20
-1459.9999999998419753
 30
0.0
1001
ACDBBLOCKREPETAG
1070
     1
1071
       63
1005
12AB77
  0
ARC
  5
12AB78
  8
OBJECT
 10
535.9999999998779003
 20
-1459.9999999998419753
 30
0.0
 40
55.0
 50
299.3022457642854874
 51
240.6977542359825009
1001
ACDBBLOCKREPETAG
1070
     1
1071
       50
1005
12AB75
  0
LINE
  5
12AB79
  8
OBJECT
 10
512.1757960751292558
 20
-1505.677961444597031
 30
0.0
 11
504.1876176728763994
 21
-1511.577458443389105
 31
0.0
  0
ARC
  5
12AB7A
  8
OBJECT
 10
515.1461853585129802
 20
-1509.6999991750449226
 30
0.0
 40
5.0
 50
90.0
 51
126.4469224760718049
  0
LINE
  5
12AB7B
  8
OBJECT
 10
559.824203924574249
 20
-1505.6779614444690196
 30
0.0
 11
567.8124539799719059
 21
-1511.5775113606189279
 31
0.0
  0
ARC
  5
12AB7C
  8
OBJECT
 10
556.8538146413611685
 20
-1509.6999991750449226
 30
0.0
 40
5.0
 50
53.5530775262758425
 51
90.0
  0
LINE
  5
12AB7D
  8
OBJECT
 10
556.8538146413611685
 20
-1504.6999991750449226
 30
0.0
 11
515.1461853585129802
 21
-1504.6999991750449226
 31
0.0
  0
ARC
  5
12AB7E
  8
OBJECT
 10
563.059831126831341
 20
-1518.0127717295420098
 30
0.0
 40
8.0
 50
16.4762162479585612
 51
53.5530775262758425
  0
ARC
  5
12AB7F
  8
OBJECT
 10
508.9401688729230955
 20
-1518.0127717295420098
 30
0.0
 40
8.0
 50
126.4469224737241007
 51
163.5237837520413962
  0
LINE
  5
12AB80
  8
OBJECT
 10
501.2686684858524018
 20
-1515.7438332528179217
 30
0.0
 11
499.999999999878014
 21
-1520.0333240790589571
 31
0.0
  0
LINE
  5
12AB81
  8
OBJECT
 10
570.7313315139034557
 20
-1515.7438332528179217
 30
0.0
 11
571.999999999878014
 21
-1520.0333240790589571
 31
0.0
  0
CIRCLE
  5
12AB82
  8
OBJECT
 10
176.0
 20
-1923.9999999996839506
 30
0.0
 40
70.0
1001
ACDBBLOCKREPETAG
1070
     1
1071
       50
1005
12AB82
  0
CIRCLE
  5
12AB83
  8
OBJECT
 10
176.0
 20
-1923.9999999996839506
 30
0.0
 40
75.0
1001
ACDBBLOCKREPETAG
1070
     1
1071
       51
1005
12AB83
  0
POINT
  5
12AB84
  8
DOTS
 10
176.0
 20
-1923.9999999996839506
 30
0.0
1001
ACDBBLOCKREPETAG
1070
     1
1071
       63
1005
12AB84
  0
ARC
  5
12AB85
  8
OBJECT
 10
176.0
 20
-1923.9999999996839506
 30
0.0
 40
55.0
 50
299.3022457642870222
 51
240.6977542359811935
1001
ACDBBLOCKREPETAG
1070
     1
1071
       50
1005
12AB82
  0
LINE
  5
12AB86
  8
OBJECT
 10
152.1757960752509007
 20
-1969.6779614444380968
 30
0.0
 11
144.1876176729984138
 21
-1975.5774584432310803
 31
0.0
  0
ARC
  5
12AB87
  8
OBJECT
 10
155.1461853586351936
 20
-1973.6999991748850789
 30
0.0
 40
5.0
 50
90.0
 51
126.4469224760729986
  0
LINE
  5
12AB88
  8
OBJECT
 10
199.8242039246960076
 20
-1969.6779614443100854
 30
0.0
 11
207.8124539800938066
 21
-1975.5775113604609032
 31
0.0
  0
ARC
  5
12AB89
  8
OBJECT
 10
196.8538146414830123
 20
-1973.6999991748850789
 30
0.0
 40
5.0
 50
53.5530775262745422
 51
90.0
  0
LINE
  5
12AB8A
  8
OBJECT
 10
196.8538146414830123
 20
-1968.6999991748859884
 30
0.0
 11
155.1461853586351936
 21
-1968.6999991748859884
 31
0.0
  0
ARC
  5
12AB8B
  8
OBJECT
 10
203.0598311269532132
 20
-1982.0127717293830756
 30
0.0
 40
8.0
 50
16.4762162479585612
 51
53.5530775262745422
  0
ARC
  5
12AB8C
  8
OBJECT
 10
148.9401688730449109
 20
-1982.0127717293830756
 30
0.0
 40
8.0
 50
126.4469224737253938
 51
163.5237837520413962
  0
LINE
  5
12AB8D
  8
OBJECT
 10
141.2686684859745014
 20
-1979.7438332526589875
 30
0.0
 11
140.0
 21
-1984.0333240789000229
 31
0.0
  0
LINE
  5
12AB8E
  8
OBJECT
 10
210.7313315140254133
 20
-1979.7438332526589875
 30
0.0
 11
212.0
 21
-1984.0333240789000229
 31
0.0
  0
CIRCLE
  5
12AB8F
  8
OBJECT
 10
535.9999999998779003
 20
-1923.9999999996839506
 30
0.0
 40
70.0
1001
ACDBBLOCKREPETAG
1070
     1
1071
       50
1005
12AB8F
  0
CIRCLE
  5
12AB90
  8
OBJECT
 10
535.9999999998779003
 20
-1923.9999999996839506
 30
0.0
 40
75.0
1001
ACDBBLOCKREPETAG
1070
     1
1071
       51
1005
12AB90
  0
POINT
  5
12AB91
  8
DOTS
 10
535.9999999998779003
 20
-1923.9999999996839506
 30
0.0
1001
ACDBBLOCKREPETAG
1070
     1
1071
       63
1005
12AB91
  0
ARC
  5
12AB92
  8
OBJECT
 10
535.9999999998779003
 20
-1923.9999999996839506
 30
0.0
 40
55.0
 50
299.3022457642854874
 51
240.6977542359825009
1001
ACDBBLOCKREPETAG
1070
     1
1071
       50
1005
12AB8F
  0
LINE
  5
12AB93
  8
OBJECT
 10
512.1757960751292558
 20
-1969.6779614444380968
 30
0.0
 11
504.1876176728763994
 21
-1975.5774584432310803
 31
0.0
  0
ARC
  5
12AB94
  8
OBJECT
 10
515.1461853585129802
 20
-1973.6999991748850789
 30
0.0
 40
5.0
 50
90.0
 51
126.4469224760718049
  0
LINE
  5
12AB95
  8
OBJECT
 10
559.824203924574249
 20
-1969.6779614443100854
 30
0.0
 11
567.8124539799719059
 21
-1975.5775113604609032
 31
0.0
  0
ARC
  5
12AB96
  8
OBJECT
 10
556.8538146413611685
 20
-1973.6999991748850789
 30
0.0
 40
5.0
 50
53.5530775262758425
 51
90.0
  0
LINE
  5
12AB97
  8
OBJECT
 10
556.8538146413611685
 20
-1968.6999991748859884
 30
0.0
 11
515.1461853585129802
 21
-1968.6999991748859884
 31
0.0
  0
ARC
  5
12AB98
  8
OBJECT
 10
563.059831126831341
 20
-1982.0127717293830756
 30
0.0
 40
8.0
 50
16.4762162479585612
 51
53.5530775262758425
  0
ARC
  5
12AB99
  8
OBJECT
 10
508.9401688729230955
 20
-1982.0127717293830756
 30
0.0
 40
8.0
 50
126.4469224737241007
 51
163.5237837520413962
  0
LINE
  5
12AB9A
  8
OBJECT
 10
501.2686684858524018
 20
-1979.7438332526589875
 30
0.0
 11
499.999999999878014
 21
-1984.0333240789000229
 31
0.0
  0
LINE
  5
12AB9B
  8
OBJECT
 10
570.7313315139034557
 20
-1979.7438332526589875
 30
0.0
 11
571.999999999878014
 21
-1984.0333240789000229
 31
0.0
  0
CIRCLE
  5
12AB9C
  8
OBJECT
 10
176.0
 20
-2387.999999999524789
 30
0.0
 40
70.0
1001
ACDBBLOCKREPETAG
1070
     1
1071
       50
1005
12AB9C
  0
CIRCLE
  5
12AB9D
  8
OBJECT
 10
176.0
 20
-2387.999999999524789
 30
0.0
 40
75.0
1001
ACDBBLOCKREPETAG
1070
     1
1071
       51
1005
12AB9D
  0
POINT
  5
12AB9E
  8
DOTS
 10
176.0
 20
-2387.999999999524789
 30
0.0
1001
ACDBBLOCKREPETAG
1070
     1
1071
       63
1005
12AB9E
  0
ARC
  5
12AB9F
  8
OBJECT
 10
176.0
 20
-2387.999999999524789
 30
0.0
 40
55.0
 50
299.3022457642807126
 51
240.6977542359875883
1001
ACDBBLOCKREPETAG
1070
     1
1071
       50
1005
12AB9C
  0
LINE
  5
12ABA0
  8
OBJECT
 10
152.1757960752509007
 20
-2433.6779614442798447
 30
0.0
 11
144.1876176729984138
 21
-2439.5774584430728282
 31
0.0
  0
ARC
  5
12ABA1
  8
OBJECT
 10
155.1461853586351936
 20
-2437.6999991747288732
 30
0.0
 40
5.0
 50
90.0
 51
126.4469224760808004
  0
LINE
  5
12ABA2
  8
OBJECT
 10
199.8242039246960076
 20
-2433.6779614441529702
 30
0.0
 11
207.8124539800938066
 21
-2439.5775113603031059
 31
0.0
  0
ARC
  5
12ABA3
  8
OBJECT
 10
196.8538146414830123
 20
-2437.6999991747288732
 30
0.0
 40
5.0
 50
53.5530775262745422
 51
90.0
  0
LINE
  5
12ABA4
  8
OBJECT
 10
196.8538146414830123
 20
-2432.6999991747288732
 30
0.0
 11
155.1461853586351936
 21
-2432.6999991747288732
 31
0.0
  0
ARC
  5
12ABA5
  8
OBJECT
 10
203.0598311269532132
 20
-2446.0127717292248235
 30
0.0
 40
8.0
 50
16.4762162479710383
 51
53.5530775262745422
  0
ARC
  5
12ABA6
  8
OBJECT
 10
148.9401688730449109
 20
-2446.0127717292248235
 30
0.0
 40
8.0
 50
126.4469224737253938
 51
163.5237837520288906
  0
LINE
  5
12ABA7
  8
OBJECT
 10
141.2686684859745014
 20
-2443.7438332525020996
 30
0.0
 11
140.0
 21
-2448.033324078743135
 31
0.0
  0
LINE
  5
12ABA8
  8
OBJECT
 10
210.7313315140254133
 20
-2443.7438332525020996
 30
0.0
 11
212.0
 21
-2448.033324078743135
 31
0.0
  0
CIRCLE
  5
12ABA9
  8
OBJECT
 10
535.9999999998779003
 20
-2387.999999999524789
 30
0.0
 40
70.0
1001
ACDBBLOCKREPETAG
1070
     1
1071
       50
1005
12ABA9
  0
CIRCLE
  5
12ABAA
  8
OBJECT
 10
535.9999999998779003
 20
-2387.999999999524789
 30
0.0
 40
75.0
1001
ACDBBLOCKREPETAG
1070
     1
1071
       51
1005
12ABAA
  0
POINT
  5
12ABAB
  8
DOTS
 10
535.9999999998779003
 20
-2387.999999999524789
 30
0.0
1001
ACDBBLOCKREPETAG
1070
     1
1071
       63
1005
12ABAB
  0
ARC
  5
12ABAC
  8
OBJECT
 10
535.9999999998779003
 20
-2387.999999999524789
 30
0.0
 40
55.0
 50
299.3022457642791778
 51
240.6977542359890094
1001
ACDBBLOCKREPETAG
1070
     1
1071
       50
1005
12ABA9
  0
LINE
  5
12ABAD
  8
OBJECT
 10
512.1757960751292558
 20
-2433.6779614442798447
 30
0.0
 11
504.1876176728763994
 21
-2439.5774584430728282
 31
0.0
  0
ARC
  5
12ABAE
  8
OBJECT
 10
515.1461853585129802
 20
-2437.6999991747288732
 30
0.0
 40
5.0
 50
90.0
 51
126.4469224760793935
  0
LINE
  5
12ABAF
  8
OBJECT
 10
559.824203924574249
 20
-2433.6779614441529702
 30
0.0
 11
567.8124539799719059
 21
-2439.5775113603031059
 31
0.0
  0
ARC
  5
12ABB0
  8
OBJECT
 10
556.8538146413611685
 20
-2437.6999991747288732
 30
0.0
 40
5.0
 50
53.5530775262758425
 51
90.0
  0
LINE
  5
12ABB1
  8
OBJECT
 10
556.8538146413611685
 20
-2432.6999991747288732
 30
0.0
 11
515.1461853585129802
 21
-2432.6999991747288732
 31
0.0
  0
ARC
  5
12ABB2
  8
OBJECT
 10
563.059831126831341
 20
-2446.0127717292248235
 30
0.0
 40
8.0
 50
16.4762162479710383
 51
53.5530775262758425
  0
ARC
  5
12ABB3
  8
OBJECT
 10
508.9401688729230955
 20
-2446.0127717292248235
 30
0.0
 40
8.0
 50
126.4469224737241007
 51
163.5237837520288906
  0
LINE
  5
12ABB4
  8
OBJECT
 10
501.2686684858524018
 20
-2443.7438332525020996
 30
0.0
 11
499.999999999878014
 21
-2448.033324078743135
 31
0.0
  0
LINE
  5
12ABB5
  8
OBJECT
 10
570.7313315139034557
 20
-2443.7438332525020996
 30
0.0
 11
571.999999999878014
 21
-2448.033324078743135
 31
0.0
  0
CIRCLE
  5
12ABB6
  8
OBJECT
 10
176.0
 20
-2851.9999999993669917
 30
0.0
 40
70.0
1001
ACDBBLOCKREPETAG
1070
     1
1071
       50
1005
12ABB6
  0
CIRCLE
  5
12ABB7
  8
OBJECT
 10
176.0
 20
-2851.9999999993669917
 30
0.0
 40
75.0
1001
ACDBBLOCKREPETAG
1070
     1
1071
       51
1005
12ABB7
  0
POINT
  5
12ABB8
  8
DOTS
 10
176.0
 20
-2851.9999999993669917
 30
0.0
1001
ACDBBLOCKREPETAG
1070
     1
1071
       63
1005
12ABB8
  0
ARC
  5
12ABB9
  8
OBJECT
 10
176.0
 20
-2851.9999999993669917
 30
0.0
 40
55.0
 50
299.3022457642807126
 51
240.6977542359875883
1001
ACDBBLOCKREPETAG
1070
     1
1071
       50
1005
12ABB6
  0
LINE
  5
12ABBA
  8
OBJECT
 10
152.1757960752509007
 20
-2897.6779614441220474
 30
0.0
 11
144.1876176729984138
 21
-2903.5774584429159404
 31
0.0
  0
ARC
  5
12ABBB
  8
OBJECT
 10
155.1461853586351936
 20
-2901.6999991745719853
 30
0.0
 40
5.0
 50
90.0
 51
126.4469224760808004
  0
LINE
  5
12ABBC
  8
OBJECT
 10
199.8242039246960076
 20
-2897.6779614439951729
 30
0.0
 11
207.8124539800938066
 21
-2903.5775113601448538
 31
0.0
  0
ARC
  5
12ABBD
  8
OBJECT
 10
196.8538146414830123
 20
-2901.6999991745719853
 30
0.0
 40
5.0
 50
53.5530775262745422
 51
90.0
  0
LINE
  5
12ABBE
  8
OBJECT
 10
196.8538146414830123
 20
-2896.6999991745701664
 30
0.0
 11
155.1461853586351936
 21
-2896.6999991745701664
 31
0.0
  0
ARC
  5
12ABBF
  8
OBJECT
 10
203.0598311269532132
 20
-2910.0127717290679357
 30
0.0
 40
8.0
 50
16.4762162479710383
 51
53.5530775262745422
  0
ARC
  5
12ABC0
  8
OBJECT
 10
148.9401688730449109
 20
-2910.0127717290679357
 30
0.0
 40
8.0
 50
126.4469224737253938
 51
163.5237837520288906
  0
LINE
  5
12ABC1
  8
OBJECT
 10
141.2686684859745014
 20
-2907.7438332523429381
 30
0.0
 11
140.0
 21
-2912.033324078584883
 31
0.0
  0
LINE
  5
12ABC2
  8
OBJECT
 10
210.7313315140254133
 20
-2907.7438332523429381
 30
0.0
 11
212.0
 21
-2912.033324078584883
 31
0.0
  0
TEXT
  5
12ABC3
  8
SLIM
 10
2356.25
 20
-1752.4999999999979536
 30
0.0
 40
35.0
  1
片受けスタイル（S）
 41
0.75
  0
TEXT
  5
12ABC4
  8
SLIM
 10
4241.6249999999990905
 20
-1752.4999999999979536
 30
0.0
 40
35.0
  1
片受けスタイル（S）＋シンドカット
 41
0.75
  0
LINE
  5
12ABC5
  8
OBJECT
 10
2633.0
 20
-634.0
 30
0.0
 11
2640.0
 21
-634.0
 31
0.0
1001
ACDBBLOCKREPETAG
1070
     1
1071
       45
1005
12ABC5
  0
LINE
  5
12ABC6
  8
OBJECT
 10
2640.0
 20
-634.0
 30
0.0
 11
2640.0
 21
-755.0
 31
0.0
1001
ACDBBLOCKREPETAG
1070
     1
1071
       46
1005
12ABC6
  0
LINE
  5
12ABC7
  8
OBJECT
 10
2633.0
 20
-755.0
 30
0.0
 11
2633.0
 21
-634.0
 31
0.0
1001
ACDBBLOCKREPETAG
1070
     1
1071
       47
1005
12ABC7
  0
LINE
  5
12ABC8
  8
CENTER
 10
2655.0
 20
-696.0
 30
0.0
 11
2571.0
 21
-696.0
 31
0.0
1001
ACDBBLOCKREPETAG
1070
     1
1071
       48
1005
12ABC8
  0
LINE
  5
12ABC9
  8
OBJECT
 10
2633.0
 20
-637.0
 30
0.0
 11
2597.0
 21
-637.0
 31
0.0
1001
ACDBBLOCKREPETAG
1070
     1
1071
       49
1005
12ABC9
  0
LINE
  5
12ABCA
  8
OBJECT
 10
2597.0
 20
-637.0
 30
0.0
 11
2597.0
 21
-755.0
 31
0.0
1001
ACDBBLOCKREPETAG
1070
     1
1071
       50
1005
12ABCA
  0
LINE
  5
12ABCB
  8
OBJECT
 10
2597.0
 20
-755.0
 30
0.0
 11
2640.0
 21
-755.0
 31
0.0
1001
ACDBBLOCKREPETAG
1070
     1
1071
       51
1005
12ABCB
  0
LINE
  5
12ABCC
  8
OBJECT
 10
2593.0
 20
-641.5
 30
0.0
 11
2586.0
 21
-641.5
 31
0.0
1001
ACDBBLOCKREPETAG
1070
     1
1071
       52
1005
12ABCC
  0
LINE
  5
12ABCD
  8
OBJECT
 10
2586.0
 20
-750.4999999999998863
 30
0.0
 11
2593.0
 21
-750.4999999999998863
 31
0.0
1001
ACDBBLOCKREPETAG
1070
     1
1071
       53
1005
12ABCD
  0
LINE
  5
12ABCE
  8
OBJECT
 10
2593.0
 20
-750.4999999999998863
 30
0.0
 11
2593.0
 21
-641.5
 31
0.0
1001
ACDBBLOCKREPETAG
1070
     1
1071
       54
1005
12ABCE
  0
LINE
  5
12ABCF
  8
OBJECT
 10
2597.0
 20
-637.0
 30
0.0
 11
2593.0
 21
-641.5
 31
0.0
1001
ACDBBLOCKREPETAG
1070
     1
1071
       55
1005
12ABCF
  0
LINE
  5
12ABD0
  8
OBJECT
 10
2597.0
 20
-755.0
 30
0.0
 11
2593.0
 21
-750.4999999999998863
 31
0.0
1001
ACDBBLOCKREPETAG
1070
     1
1071
       56
1005
12ABD0
  0
LINE
  5
12ABD1
  8
OBJECT
 10
2583.0
 20
-634.0
 30
0.0
 11
2580.0
 21
-634.0
 31
0.0
1001
ACDBBLOCKREPETAG
1070
     1
1071
       57
1005
12ABD1
  0
ARC
  5
12ABD2
  8
OBJECT
 10
2583.0
 20
-637.0
 30
0.0
 40
3.0
 50
0.0
 51
90.0
1001
ACDBBLOCKREPETAG
1070
     1
1071
       58
1005
12ABD2
  0
LINE
  5
12ABD3
  8
OBJECT
 10
2580.0
 20
-758.0
 30
0.0
 11
2583.0
 21
-758.0
 31
0.0
1001
ACDBBLOCKREPETAG
1070
     1
1071
       59
1005
12ABD3
  0
ARC
  5
12ABD4
  8
OBJECT
 10
2583.0
 20
-755.0
 30
0.0
 40
3.0
 50
270.0
 51
0.0
1001
ACDBBLOCKREPETAG
1070
     1
1071
       60
1005
12ABD4
  0
LINE
  5
12ABD5
  8
OBJECT
 10
2586.0
 20
-755.0
 30
0.0
 11
2586.0
 21
-637.0
 31
0.0
1001
ACDBBLOCKREPETAG
1070
     1
1071
       61
1005
12ABD5
  0
LINE
  5
12ABD6
  8
HIDDEN
 10
2588.0
 20
-651.5
 30
0.0
 11
2588.0
 21
-740.5
 31
0.0
1001
ACDBBLOCKREPETAG
1070
     1
1071
       63
1005
12ABD6
  0
LINE
  5
12ABD7
  8
OBJECT
 10
4633.0
 20
-634.0
 30
0.0
 11
4640.0
 21
-634.0
 31
0.0
1001
ACDBBLOCKREPETAG
1070
     1
1071
       45
1005
12ABD7
  0
LINE
  5
12ABD8
  8
OBJECT
 10
4640.0
 20
-634.0
 30
0.0
 11
4640.0
 21
-755.0
 31
0.0
1001
ACDBBLOCKREPETAG
1070
     1
1071
       46
1005
12ABD8
  0
LINE
  5
12ABD9
  8
OBJECT
 10
4633.0
 20
-755.0
 30
0.0
 11
4633.0
 21
-634.0
 31
0.0
1001
ACDBBLOCKREPETAG
1070
     1
1071
       47
1005
12ABD9
  0
LINE
  5
12ABDA
  8
CENTER
 10
4655.0
 20
-696.0
 30
0.0
 11
4571.0
 21
-696.0
 31
0.0
1001
ACDBBLOCKREPETAG
1070
     1
1071
       48
1005
12ABDA
  0
LINE
  5
12ABDB
  8
OBJECT
 10
4633.0
 20
-637.0
 30
0.0
 11
4597.0
 21
-637.0
 31
0.0
1001
ACDBBLOCKREPETAG
1070
     1
1071
       49
1005
12ABDB
  0
LINE
  5
12ABDC
  8
OBJECT
 10
4597.0
 20
-637.0
 30
0.0
 11
4597.0
 21
-755.0
 31
0.0
1001
ACDBBLOCKREPETAG
1070
     1
1071
       50
1005
12ABDC
  0
LINE
  5
12ABDD
  8
OBJECT
 10
4597.0
 20
-755.0
 30
0.0
 11
4640.0
 21
-755.0
 31
0.0
1001
ACDBBLOCKREPETAG
1070
     1
1071
       51
1005
12ABDD
  0
LINE
  5
12ABDE
  8
OBJECT
 10
4593.0
 20
-641.5
 30
0.0
 11
4586.0
 21
-641.5
 31
0.0
1001
ACDBBLOCKREPETAG
1070
     1
1071
       52
1005
12ABDE
  0
LINE
  5
12ABDF
  8
OBJECT
 10
4586.0
 20
-750.4999999999998863
 30
0.0
 11
4593.0
 21
-750.4999999999998863
 31
0.0
1001
ACDBBLOCKREPETAG
1070
     1
1071
       53
1005
12ABDF
  0
LINE
  5
12ABE0
  8
OBJECT
 10
4593.0
 20
-750.4999999999998863
 30
0.0
 11
4593.0
 21
-641.5
 31
0.0
1001
ACDBBLOCKREPETAG
1070
     1
1071
       54
1005
12ABE0
  0
LINE
  5
12ABE1
  8
OBJECT
 10
4597.0
 20
-637.0
 30
0.0
 11
4593.0
 21
-641.5
 31
0.0
1001
ACDBBLOCKREPETAG
1070
     1
1071
       55
1005
12ABE1
  0
LINE
  5
12ABE2
  8
OBJECT
 10
4597.0
 20
-755.0
 30
0.0
 11
4593.0
 21
-750.4999999999998863
 31
0.0
1001
ACDBBLOCKREPETAG
1070
     1
1071
       56
1005
12ABE2
  0
LINE
  5
12ABE3
  8
OBJECT
 10
4583.0
 20
-634.0
 30
0.0
 11
4580.0
 21
-634.0
 31
0.0
1001
ACDBBLOCKREPETAG
1070
     1
1071
       57
1005
12ABE3
  0
ARC
  5
12ABE4
  8
OBJECT
 10
4583.0
 20
-637.0
 30
0.0
 40
3.0
 50
0.0
 51
90.0
1001
ACDBBLOCKREPETAG
1070
     1
1071
       58
1005
12ABE4
  0
LINE
  5
12ABE5
  8
OBJECT
 10
4580.0
 20
-758.0
 30
0.0
 11
4583.0
 21
-758.0
 31
0.0
1001
ACDBBLOCKREPETAG
1070
     1
1071
       59
1005
12ABE5
  0
ARC
  5
12ABE6
  8
OBJECT
 10
4583.0
 20
-755.0
 30
0.0
 40
3.0
 50
270.0
 51
0.0
1001
ACDBBLOCKREPETAG
1070
     1
1071
       60
1005
12ABE6
  0
LINE
  5
12ABE7
  8
OBJECT
 10
4586.0
 20
-755.0
 30
0.0
 11
4586.0
 21
-637.0
 31
0.0
1001
ACDBBLOCKREPETAG
1070
     1
1071
       61
1005
12ABE7
  0
LINE
  5
12ABE8
  8
HIDDEN
 10
4588.0
 20
-651.5
 30
0.0
 11
4588.0
 21
-740.5
 31
0.0
1001
ACDBBLOCKREPETAG
1070
     1
1071
       63
1005
12ABE8
  0
LINE
  5
12ABE9
  8
DIM
 10
2665.0000000000009095
 20
-696.0
 30
0.0
 11
2719.424581672757995
 21
-696.0
 31
0.0
  0
LINE
  5
12ABEA
  8
DIM
 10
2650.0
 20
-1136.0
 30
0.0
 11
2719.424581672757995
 21
-1136.0
 31
0.0
  0
LINE
  5
12ABEB
  8
DIM
 10
2709.424581672757995
 20
-716.0000000000001137
 30
0.0
 11
2709.424581672757995
 21
-1116.0
 31
0.0
  0
INSERT
  5
12ABEC
  8
DIM
  2
_OPEN30
 10
2709.424581672757995
 20
-696.0
 30
0.0
 41
20.0
 42
20.0
 43
20.0
 50
90.0
  0
INSERT
  5
12ABED
  8
DIM
  2
_OPEN30
 10
2709.424581672757995
 20
-1136.0
 30
0.0
 41
20.0
 42
20.0
 43
20.0
 50
270.0
  0
INSERT
  5
12ABEE
  8
SLIM
  2
*U25
 10
0.0
 20
0.0
 30
0.0
  0
LINE
  5
12ABEF
  8
DIM
 10
4665.0000000000009095
 20
-696.0
 30
0.0
 11
4719.424581672759814
 21
-696.0
 31
0.0
  0
LINE
  5
12ABF0
  8
DIM
 10
4650.0000000000009095
 20
-1136.0
 30
0.0
 11
4719.424581672759814
 21
-1136.0
 31
0.0
  0
LINE
  5
12ABF1
  8
DIM
 10
4709.424581672759814
 20
-716.0000000000001137
 30
0.0
 11
4709.424581672759814
 21
-1116.0
 31
0.0
  0
INSERT
  5
12ABF2
  8
DIM
  2
_OPEN30
 10
4709.424581672759814
 20
-696.0
 30
0.0
 41
20.0
 42
20.0
 43
20.0
 50
90.0
  0
INSERT
  5
12ABF3
  8
DIM
  2
_OPEN30
 10
4709.424581672759814
 20
-1136.0
 30
0.0
 41
20.0
 42
20.0
 43
20.0
 50
270.0
  0
INSERT
  5
12ABF4
  8
SLIM
  2
*U26
 10
0.0
 20
0.0
 30
0.0
  0
LINE
  5
12ABF5
  8
DIM
 10
4404.9999999999936335
 20
-1136.0
 30
0.0
 11
4333.1164560757761137
 21
-1136.0
 31
0.0
  0
LINE
  5
12ABF6
  8
DIM
 10
4410.0000000000009095
 20
-1376.0
 30
0.0
 11
4333.1164560757761137
 21
-1376.0
 31
0.0
  0
LINE
  5
12ABF7
  8
DIM
 10
4343.1164560757761137
 20
-1156.0
 30
0.0
 11
4343.1164560757761137
 21
-1356.0
 31
0.0
  0
INSERT
  5
12ABF8
  8
DIM
  2
_OPEN30
 10
4343.1164560757761137
 20
-1136.0
 30
0.0
 41
20.0
 42
20.0
 43
20.0
 50
90.0
  0
INSERT
  5
12ABF9
  8
DIM
  2
_OPEN30
 10
4343.1164560757761137
 20
-1376.0
 30
0.0
 41
20.0
 42
20.0
 43
20.0
 50
270.0
  0
INSERT
  5
12ABFA
  8
SLIM
  2
*U27
 10
0.0
 20
0.0
 30
0.0
  0
LINE
  5
12ABFB
  8
OBJECT
 10
2430.0
 20
-1484.9999999999979536
 30
0.0
 11
2570.0
 21
-1484.9999999999979536
 31
0.0
1001
ACDBBLOCKREPETAG
1070
     1
1071
        0
1005
12ABFB
  0
LINE
  5
12ABFC
  8
OBJECT
 10
2430.0
 20
-1484.9999999999979536
 30
0.0
 11
2430.0
 21
-1244.9999999999979536
 31
0.0
1001
ACDBBLOCKREPETAG
1070
     1
1071
        1
1005
12ABFC
  0
LINE
  5
12ABFD
  8
OBJECT
 10
2570.0
 20
-1484.9999999999979536
 30
0.0
 11
2570.0
 21
-1244.9999999999979536
 31
0.0
1001
ACDBBLOCKREPETAG
1070
     1
1071
        2
1005
12ABFD
  0
LINE
  5
12ABFE
  8
OBJECT
 10
2430.0
 20
-1244.9999999999979536
 30
0.0
 11
2570.0
 21
-1244.9999999999979536
 31
0.0
1001
ACDBBLOCKREPETAG
1070
     1
1071
        3
1005
12ABFE
  0
LINE
  5
12ABFF
  8
HIDDEN
 10
2437.5
 20
-1244.9999999999979536
 30
0.0
 11
2437.5
 21
-1484.9999999999979536
 31
0.0
1001
ACDBBLOCKREPETAG
1070
     1
1071
        4
1005
12ABFF
  0
LINE
  5
12AC00
  8
HIDDEN
 10
2562.5
 20
-1244.9999999999979536
 30
0.0
 11
2562.5
 21
-1484.9999999999979536
 31
0.0
1001
ACDBBLOCKREPETAG
1070
     1
1071
        5
1005
12AC00
  0
LINE
  5
12AC01
  8
CENTER
 10
2500.0
 20
-1175.0
 30
0.0
 11
2500.0
 21
-1499.9999999999979536
 31
0.0
1001
ACDBBLOCKREPETAG
1070
     1
1071
        6
1005
12AC01
  0
LINE
  5
12AC02
  8
OBJECT
 10
2425.0
 20
-1175.0
 30
0.0
 11
2425.0
 21
-1204.9999999999979536
 31
0.0
1001
ACDBBLOCKREPETAG
1070
     1
1071
        7
1005
12AC02
  0
LINE
  5
12AC03
  8
OBJECT
 10
2575.0000000000050022
 20
-1175.0
 30
0.0
 11
2575.0
 21
-1204.9999999999979536
 31
0.0
1001
ACDBBLOCKREPETAG
1070
     1
1071
        8
1005
12AC03
  0
LINE
  5
12AC04
  8
OBJECT
 10
2425.0
 20
-1204.9999999999979536
 30
0.0
 11
2575.0
 21
-1204.9999999999979536
 31
0.0
1001
ACDBBLOCKREPETAG
1070
     1
1071
        9
1005
12AC04
  0
LINE
  5
12AC05
  8
OBJECT
 10
2425.0
 20
-1204.9999999999979536
 30
0.0
 11
2430.0
 21
-1244.9999999999979536
 31
0.0
1001
ACDBBLOCKREPETAG
1070
     1
1071
       10
1005
12AC05
  0
LINE
  5
12AC06
  8
OBJECT
 10
2570.0
 20
-1244.9999999999979536
 30
0.0
 11
2575.0
 21
-1204.9999999999979536
 31
0.0
1001
ACDBBLOCKREPETAG
1070
     1
1071
       11
1005
12AC06
  0
LINE
  5
12AC07
  8
OBJECT
 10
4430.0
 20
-1484.9999999999979536
 30
0.0
 11
4570.0
 21
-1484.9999999999979536
 31
0.0
1001
ACDBBLOCKREPETAG
1070
     1
1071
        0
1005
12AC07
  0
LINE
  5
12AC08
  8
OBJECT
 10
4430.0
 20
-1484.9999999999979536
 30
0.0
 11
4430.0
 21
-1244.9999999999979536
 31
0.0
1001
ACDBBLOCKREPETAG
1070
     1
1071
        1
1005
12AC08
  0
LINE
  5
12AC09
  8
OBJECT
 10
4570.0
 20
-1484.9999999999979536
 30
0.0
 11
4570.0
 21
-1244.9999999999979536
 31
0.0
1001
ACDBBLOCKREPETAG
1070
     1
1071
        2
1005
12AC09
  0
LINE
  5
12AC0A
  8
OBJECT
 10
4430.0
 20
-1244.9999999999979536
 30
0.0
 11
4570.0
 21
-1244.9999999999979536
 31
0.0
1001
ACDBBLOCKREPETAG
1070
     1
1071
        3
1005
12AC0A
  0
LINE
  5
12AC0B
  8
HIDDEN
 10
4437.5
 20
-1244.9999999999979536
 30
0.0
 11
4437.5
 21
-1484.9999999999979536
 31
0.0
1001
ACDBBLOCKREPETAG
1070
     1
1071
        4
1005
12AC0B
  0
LINE
  5
12AC0C
  8
HIDDEN
 10
4562.5
 20
-1244.9999999999979536
 30
0.0
 11
4562.5
 21
-1484.9999999999979536
 31
0.0
1001
ACDBBLOCKREPETAG
1070
     1
1071
        5
1005
12AC0C
  0
LINE
  5
12AC0D
  8
CENTER
 10
4500.0
 20
-1175.0
 30
0.0
 11
4500.0
 21
-1499.9999999999979536
 31
0.0
1001
ACDBBLOCKREPETAG
1070
     1
1071
        6
1005
12AC0D
  0
LINE
  5
12AC0E
  8
OBJECT
 10
4425.0
 20
-1175.0
 30
0.0
 11
4425.0
 21
-1204.9999999999979536
 31
0.0
1001
ACDBBLOCKREPETAG
1070
     1
1071
        7
1005
12AC0E
  0
LINE
  5
12AC0F
  8
OBJECT
 10
4575.0000000000009095
 20
-1175.0
 30
0.0
 11
4575.0
 21
-1204.9999999999979536
 31
0.0
1001
ACDBBLOCKREPETAG
1070
     1
1071
        8
1005
12AC0F
  0
LINE
  5
12AC10
  8
OBJECT
 10
4425.0
 20
-1204.9999999999979536
 30
0.0
 11
4575.0
 21
-1204.9999999999979536
 31
0.0
1001
ACDBBLOCKREPETAG
1070
     1
1071
        9
1005
12AC10
  0
LINE
  5
12AC11
  8
OBJECT
 10
4425.0
 20
-1204.9999999999979536
 30
0.0
 11
4430.0
 21
-1244.9999999999979536
 31
0.0
1001
ACDBBLOCKREPETAG
1070
     1
1071
       10
1005
12AC11
  0
LINE
  5
12AC12
  8
OBJECT
 10
4570.0
 20
-1244.9999999999979536
 30
0.0
 11
4575.0
 21
-1204.9999999999979536
 31
0.0
1001
ACDBBLOCKREPETAG
1070
     1
1071
       11
1005
12AC12
  0
LINE
  5
12AC13
  8
SLIM
 10
4414.999999999992724
 20
-1152.2369265471770632
 30
0.0
 11
4431.2369265471679682
 21
-1136.0
 31
0.0
1001
GRADIENTCOLOR1ACI
1070
     5
1001
GRADIENTCOLOR2ACI
1070
     2
1001
ACAD
1010
0.0
1020
0.0
1030
0.0
  0
LINE
  5
12AC14
  8
SLIM
 10
4414.999999999992724
 20
-1170.1974387893139919
 30
0.0
 11
4449.1974387893078529
 21
-1136.0
 31
0.0
1001
GRADIENTCOLOR1ACI
1070
     5
1001
GRADIENTCOLOR2ACI
1070
     2
1001
ACAD
1010
0.0
1020
0.0
1030
0.0
  0
LINE
  5
12AC15
  8
SLIM
 10
4414.9999999999954525
 20
-1188.1579510314509207
 30
0.0
 11
4467.1579510314440995
 21
-1136.0
 31
0.0
1001
GRADIENTCOLOR1ACI
1070
     5
1001
GRADIENTCOLOR2ACI
1070
     2
1001
ACAD
1010
0.0
1020
0.0
1030
0.0
  0
LINE
  5
12AC16
  8
SLIM
 10
4415.1454972543142503
 20
-1205.9729660192690517
 30
0.0
 11
4485.1184632735839841
 21
-1136.0
 31
0.0
1001
GRADIENTCOLOR1ACI
1070
     5
1001
GRADIENTCOLOR2ACI
1070
     2
1001
ACAD
1010
0.0
1020
0.0
1030
0.0
  0
LINE
  5
12AC17
  8
SLIM
 10
4417.1046274952450403
 20
-1221.9743480204799653
 30
0.0
 11
4503.0789755157220497
 21
-1136.0
 31
0.0
1001
GRADIENTCOLOR1ACI
1070
     5
1001
GRADIENTCOLOR2ACI
1070
     2
1001
ACAD
1010
0.0
1020
0.0
1030
0.0
  0
LINE
  5
12AC18
  8
SLIM
 10
4419.0637577361712829
 20
-1237.9757300216899694
 30
0.0
 11
4521.0394877578619344
 21
-1136.0
 31
0.0
1001
GRADIENTCOLOR1ACI
1070
     5
1001
GRADIENTCOLOR2ACI
1070
     2
1001
ACAD
1010
0.0
1020
0.0
1030
0.0
  0
LINE
  5
12AC19
  8
SLIM
 10
4420.0
 20
-1255.0
 30
0.0
 11
4539.0
 21
-1136.0
 31
0.0
1001
GRADIENTCOLOR1ACI
1070
     5
1001
GRADIENTCOLOR2ACI
1070
     2
1001
ACAD
1010
0.0
1020
0.0
1030
0.0
  0
LINE
  5
12AC1A
  8
SLIM
 10
4420.0
 20
-1272.9605122421380656
 30
0.0
 11
4556.9605122421371561
 21
-1136.0
 31
0.0
1001
GRADIENTCOLOR1ACI
1070
     5
1001
GRADIENTCOLOR2ACI
1070
     2
1001
ACAD
1010
0.0
1020
0.0
1030
0.0
  0
LINE
  5
12AC1B
  8
SLIM
 10
4420.0
 20
-1290.9210244842770408
 30
0.0
 11
4574.9210244842770408
 21
-1136.0
 31
0.0
1001
GRADIENTCOLOR1ACI
1070
     5
1001
GRADIENTCOLOR2ACI
1070
     2
1001
ACAD
1010
0.0
1020
0.0
1030
0.0
  0
LINE
  5
12AC1C
  8
SLIM
 10
4420.0
 20
-1308.8815367264151064
 30
0.0
 11
4585.000000000007276
 21
-1143.8815367264080578
 31
0.0
1001
GRADIENTCOLOR1ACI
1070
     5
1001
GRADIENTCOLOR2ACI
1070
     2
1001
ACAD
1010
0.0
1020
0.0
1030
0.0
  0
LINE
  5
12AC1D
  8
SLIM
 10
4420.0
 20
-1326.8420489685529446
 30
0.0
 11
4585.000000000007276
 21
-1161.8420489685470329
 31
0.0
1001
GRADIENTCOLOR1ACI
1070
     5
1001
GRADIENTCOLOR2ACI
1070
     2
1001
ACAD
1010
0.0
1020
0.0
1030
0.0
  0
LINE
  5
12AC1E
  8
SLIM
 10
4420.0
 20
-1344.8025612106910103
 30
0.0
 11
4585.000000000003638
 21
-1179.8025612106869175
 31
0.0
1001
GRADIENTCOLOR1ACI
1070
     5
1001
GRADIENTCOLOR2ACI
1070
     2
1001
ACAD
1010
0.0
1020
0.0
1030
0.0
  0
LINE
  5
12AC1F
  8
SLIM
 10
4420.0
 20
-1362.7630734528290759
 30
0.0
 11
4585.0000000000027285
 21
-1197.7630734528258927
 31
0.0
1001
GRADIENTCOLOR1ACI
1070
     5
1001
GRADIENTCOLOR2ACI
1070
     2
1001
ACAD
1010
0.0
1020
0.0
1030
0.0
  0
LINE
  5
12AC20
  8
SLIM
 10
4424.7235856949691879
 20
-1376.0
 30
0.0
 11
4583.4738280308083631
 21
-1217.2497576641590058
 31
0.0
1001
GRADIENTCOLOR1ACI
1070
     5
1001
GRADIENTCOLOR2ACI
1070
     2
1001
ACAD
1010
0.0
1020
0.0
1030
0.0
  0
LINE
  5
12AC21
  8
SLIM
 10
4430.0
 20
-1388.6840979371058893
 30
0.0
 11
4442.684097937106344
 21
-1376.0
 31
0.0
1001
GRADIENTCOLOR1ACI
1070
     5
1001
GRADIENTCOLOR2ACI
1070
     2
1001
ACAD
1010
0.0
1020
0.0
1030
0.0
  0
LINE
  5
12AC22
  8
SLIM
 10
4442.684097937106344
 20
-1376.0
 30
0.0
 11
4580.9680345671367832
 21
-1237.7160633699691061
 31
0.0
1001
GRADIENTCOLOR1ACI
1070
     5
1001
GRADIENTCOLOR2ACI
1070
     2
1001
ACAD
1010
0.0
1020
0.0
1030
0.0
  0
LINE
  5
12AC23
  8
SLIM
 10
4441.6446101792453192
 20
-1395.0
 30
0.0
 11
4460.6446101792444097
 21
-1376.0
 31
0.0
1001
GRADIENTCOLOR1ACI
1070
     5
1001
GRADIENTCOLOR2ACI
1070
     2
1001
ACAD
1010
0.0
1020
0.0
1030
0.0
  0
LINE
  5
12AC24
  8
SLIM
 10
4460.6446101792444097
 20
-1376.0
 30
0.0
 11
4580.0
 21
-1256.6446101792450918
 31
0.0
1001
GRADIENTCOLOR1ACI
1070
     5
1001
GRADIENTCOLOR2ACI
1070
     2
1001
ACAD
1010
0.0
1020
0.0
1030
0.0
  0
LINE
  5
12AC25
  8
SLIM
 10
4459.6051224213833848
 20
-1395.0
 30
0.0
 11
4478.6051224213842943
 21
-1376.0
 31
0.0
1001
GRADIENTCOLOR1ACI
1070
     5
1001
GRADIENTCOLOR2ACI
1070
     2
1001
ACAD
1010
0.0
1020
0.0
1030
0.0
  0
LINE
  5
12AC26
  8
SLIM
 10
4478.6051224213842943
 20
-1376.0
 30
0.0
 11
4580.0
 21
-1274.60512242138293
 31
0.0
1001
GRADIENTCOLOR1ACI
1070
     5
1001
GRADIENTCOLOR2ACI
1070
     2
1001
ACAD
1010
0.0
1020
0.0
1030
0.0
  0
LINE
  5
12AC27
  8
SLIM
 10
4477.5656346635214504
 20
-1395.0
 30
0.0
 11
4496.5656346635214504
 21
-1376.0
 31
0.0
1001
GRADIENTCOLOR1ACI
1070
     5
1001
GRADIENTCOLOR2ACI
1070
     2
1001
ACAD
1010
0.0
1020
0.0
1030
0.0
  0
LINE
  5
12AC28
  8
SLIM
 10
4496.5656346635214504
 20
-1376.0
 30
0.0
 11
4579.9999999999990905
 21
-1292.5656346635219052
 31
0.0
1001
GRADIENTCOLOR1ACI
1070
     5
1001
GRADIENTCOLOR2ACI
1070
     2
1001
ACAD
1010
0.0
1020
0.0
1030
0.0
  0
LINE
  5
12AC29
  8
SLIM
 10
4495.5261469056586066
 20
-1395.0
 30
0.0
 11
4514.526146905661335
 21
-1376.0
 31
0.0
1001
GRADIENTCOLOR1ACI
1070
     5
1001
GRADIENTCOLOR2ACI
1070
     2
1001
ACAD
1010
0.0
1020
0.0
1030
0.0
  0
LINE
  5
12AC2A
  8
SLIM
 10
4514.526146905661335
 20
-1376.0
 30
0.0
 11
4579.9999999999990905
 21
-1310.5261469056611077
 31
0.0
1001
GRADIENTCOLOR1ACI
1070
     5
1001
GRADIENTCOLOR2ACI
1070
     2
1001
ACAD
1010
0.0
1020
0.0
1030
0.0
  0
LINE
  5
12AC2B
  8
SLIM
 10
4513.4866591477975817
 20
-1395.0
 30
0.0
 11
4532.4866591478003102
 21
-1376.0
 31
0.0
1001
GRADIENTCOLOR1ACI
1070
     5
1001
GRADIENTCOLOR2ACI
1070
     2
1001
ACAD
1010
0.0
1020
0.0
1030
0.0
  0
LINE
  5
12AC2C
  8
SLIM
 10
4532.4866591478003102
 20
-1376.0
 30
0.0
 11
4579.9999999999990905
 21
-1328.4866591477989459
 31
0.0
1001
GRADIENTCOLOR1ACI
1070
     5
1001
GRADIENTCOLOR2ACI
1070
     2
1001
ACAD
1010
0.0
1020
0.0
1030
0.0
  0
LINE
  5
12AC2D
  8
SLIM
 10
4531.4471713899356473
 20
-1395.0
 30
0.0
 11
4550.4471713899356473
 21
-1376.0
 31
0.0
1001
GRADIENTCOLOR1ACI
1070
     5
1001
GRADIENTCOLOR2ACI
1070
     2
1001
ACAD
1010
0.0
1020
0.0
1030
0.0
  0
LINE
  5
12AC2E
  8
SLIM
 10
4550.4471713899356473
 20
-1376.0
 30
0.0
 11
4579.9999999999990905
 21
-1346.4471713899370116
 31
0.0
1001
GRADIENTCOLOR1ACI
1070
     5
1001
GRADIENTCOLOR2ACI
1070
     2
1001
ACAD
1010
0.0
1020
0.0
1030
0.0
  0
LINE
  5
12AC2F
  8
SLIM
 10
4549.4076836320737129
 20
-1395.0
 30
0.0
 11
4568.407683632071894
 21
-1376.0
 31
0.0
1001
GRADIENTCOLOR1ACI
1070
     5
1001
GRADIENTCOLOR2ACI
1070
     2
1001
ACAD
1010
0.0
1020
0.0
1030
0.0
  0
LINE
  5
12AC30
  8
SLIM
 10
4568.407683632071894
 20
-1376.0
 30
0.0
 11
4579.9999999999990905
 21
-1364.4076836320759867
 31
0.0
1001
GRADIENTCOLOR1ACI
1070
     5
1001
GRADIENTCOLOR2ACI
1070
     2
1001
ACAD
1010
0.0
1020
0.0
1030
0.0
  0
LINE
  5
12AC31
  8
SLIM
 10
4567.3681958742117786
 20
-1395.0
 30
0.0
 11
4570.0
 21
-1392.3681958742129154
 31
0.0
1001
GRADIENTCOLOR1ACI
1070
     5
1001
GRADIENTCOLOR2ACI
1070
     2
1001
ACAD
1010
0.0
1020
0.0
1030
0.0
  0
LINE
  5
12AC32
  8
OBJECT
 10
4414.9999999999918145
 20
-1136.0
 30
0.0
 11
4414.9999999999954525
 21
-1204.7846033990349497
 31
0.0
1001
ACDBBLOCKREPETAG
1070
     1
1071
        1
1005
12AC32
  0
LINE
  5
12AC33
  8
OBJECT
 10
4585.000000000007276
 20
-1136.0
 30
0.0
 11
4585.0000000000027285
 21
-1204.7846033990419983
 31
0.0
1001
ACDBBLOCKREPETAG
1070
     1
1071
        2
1005
12AC33
  0
LINE
  5
12AC34
  8
OBJECT
 10
4585.000000000007276
 20
-1136.0
 30
0.0
 11
4414.9999999999918145
 21
-1136.0
 31
0.0
1001
ACDBBLOCKREPETAG
1070
     1
1071
        3
1005
12AC34
  0
LINE
  5
12AC35
  8
OBJECT
 10
4579.9999999999990905
 20
-1376.0
 30
0.0
 11
4420.0
 21
-1376.0
 31
0.0
1001
ACDBBLOCKREPETAG
1070
     1
1071
        4
1005
12AC35
  0
LINE
  5
12AC36
  8
OBJECT
 10
4414.9999999999954525
 20
-1204.7846033990349497
 30
0.0
 11
4420.0
 21
-1245.6225774829858892
 31
0.0
1001
ACDBBLOCKREPETAG
1070
     1
1071
        6
1005
12AC36
  0
LINE
  5
12AC37
  8
OBJECT
 10
4420.0
 20
-1245.6225774829858892
 30
0.0
 11
4420.0
 21
-1376.0
 31
0.0
1001
ACDBBLOCKREPETAG
1070
     1
1071
        7
1005
12AC37
  0
LINE
  5
12AC38
  8
OBJECT
 10
4585.0000000000027285
 20
-1204.7846033990419983
 30
0.0
 11
4580.0
 21
-1245.6225774829858892
 31
0.0
1001
ACDBBLOCKREPETAG
1070
     1
1071
        8
1005
12AC38
  0
LINE
  5
12AC39
  8
OBJECT
 10
4580.0
 20
-1245.6225774829858892
 30
0.0
 11
4579.9999999999990905
 21
-1376.0
 31
0.0
1001
ACDBBLOCKREPETAG
1070
     1
1071
        9
1005
12AC39
  0
LINE
  5
12AC3A
  8
OBJECT
 10
4430.0
 20
-1376.0
 30
0.0
 11
4430.0
 21
-1395.0
 31
0.0
1001
ACDBBLOCKREPETAG
1070
     1
1071
       10
1005
12AC3A
  0
LINE
  5
12AC3B
  8
OBJECT
 10
4430.0
 20
-1395.0
 30
0.0
 11
4570.0
 21
-1395.0
 31
0.0
1001
ACDBBLOCKREPETAG
1070
     1
1071
       11
1005
12AC3B
  0
LINE
  5
12AC3C
  8
OBJECT
 10
4570.0
 20
-1395.0
 30
0.0
 11
4570.0
 21
-1376.0
 31
0.0
1001
ACDBBLOCKREPETAG
1070
     1
1071
       12
1005
12AC3C
  0
LINE
  5
12AC3D
  8
OBJECT
 10
4633.0
 20
-137.9999999999990905
 30
0.0
 11
4640.0
 21
-137.9999999999990905
 31
0.0
1001
ACDBBLOCKREPETAG
1070
     1
1071
       47
1005
12AC3D
  0
LINE
  5
12AC3E
  8
OBJECT
 10
4640.0
 20
-137.9999999999990905
 30
0.0
 11
4640.0
 21
-261.9999999999990905
 31
0.0
1001
ACDBBLOCKREPETAG
1070
     1
1071
       48
1005
12AC3E
  0
LINE
  5
12AC3F
  8
OBJECT
 10
4640.0
 20
-261.9999999999990905
 30
0.0
 11
4633.0
 21
-261.9999999999990905
 31
0.0
1001
ACDBBLOCKREPETAG
1070
     1
1071
       49
1005
12AC3F
  0
LINE
  5
12AC40
  8
OBJECT
 10
4633.0
 20
-261.9999999999990905
 30
0.0
 11
4633.0
 21
-137.9999999999990905
 31
0.0
1001
ACDBBLOCKREPETAG
1070
     1
1071
       50
1005
12AC40
  0
LINE
  5
12AC41
  8
CENTER
 10
4655.0
 20
-199.9999999999990905
 30
0.0
 11
4580.0
 21
-199.9999999999990905
 31
0.0
1001
ACDBBLOCKREPETAG
1070
     1
1071
       51
1005
12AC41
  0
LINE
  5
12AC42
  8
OBJECT
 10
4633.0
 20
-140.9999999999990905
 30
0.0
 11
4597.0
 21
-140.9999999999990905
 31
0.0
1001
ACDBBLOCKREPETAG
1070
     1
1071
       52
1005
12AC42
  0
LINE
  5
12AC43
  8
OBJECT
 10
4597.0
 20
-140.9999999999990905
 30
0.0
 11
4597.0
 21
-258.9999999999990905
 31
0.0
1001
ACDBBLOCKREPETAG
1070
     1
1071
       53
1005
12AC43
  0
LINE
  5
12AC44
  8
OBJECT
 10
4597.0
 20
-258.9999999999990905
 30
0.0
 11
4633.0
 21
-258.9999999999990905
 31
0.0
1001
ACDBBLOCKREPETAG
1070
     1
1071
       54
1005
12AC44
  0
LINE
  5
12AC45
  8
OBJECT
 10
4593.0
 20
-145.4999999999990905
 30
0.0
 11
4586.0
 21
-145.4999999999990905
 31
0.0
1001
ACDBBLOCKREPETAG
1070
     1
1071
       55
1005
12AC45
  0
LINE
  5
12AC46
  8
OBJECT
 10
4586.0
 20
-254.4999999999990905
 30
0.0
 11
4593.0
 21
-254.4999999999990905
 31
0.0
1001
ACDBBLOCKREPETAG
1070
     1
1071
       56
1005
12AC46
  0
LINE
  5
12AC47
  8
OBJECT
 10
4593.0
 20
-254.4999999999990905
 30
0.0
 11
4593.0
 21
-145.4999999999990905
 31
0.0
1001
ACDBBLOCKREPETAG
1070
     1
1071
       57
1005
12AC47
  0
LINE
  5
12AC48
  8
OBJECT
 10
4597.0
 20
-140.9999999999990905
 30
0.0
 11
4593.0
 21
-145.4999999999990905
 31
0.0
1001
ACDBBLOCKREPETAG
1070
     1
1071
       58
1005
12AC48
  0
LINE
  5
12AC49
  8
OBJECT
 10
4597.0
 20
-258.9999999999990905
 30
0.0
 11
4593.0
 21
-254.4999999999990905
 31
0.0
1001
ACDBBLOCKREPETAG
1070
     1
1071
       59
1005
12AC49
  0
LINE
  5
12AC4A
  8
OBJECT
 10
4583.0
 20
-137.9999999999990905
 30
0.0
 11
4580.0
 21
-137.9999999999990905
 31
0.0
1001
ACDBBLOCKREPETAG
1070
     1
1071
       60
1005
12AC4A
  0
ARC
  5
12AC4B
  8
OBJECT
 10
4583.0
 20
-140.9999999999990905
 30
0.0
 40
3.0
 50
0.0
 51
90.0
1001
ACDBBLOCKREPETAG
1070
     1
1071
       61
1005
12AC4B
  0
LINE
  5
12AC4C
  8
OBJECT
 10
4580.0
 20
-261.9999999999990905
 30
0.0
 11
4583.0
 21
-261.9999999999990905
 31
0.0
1001
ACDBBLOCKREPETAG
1070
     1
1071
       62
1005
12AC4C
  0
ARC
  5
12AC4D
  8
OBJECT
 10
4583.0
 20
-258.9999999999990905
 30
0.0
 40
3.0
 50
270.0
 51
0.0
1001
ACDBBLOCKREPETAG
1070
     1
1071
       63
1005
12AC4D
  0
LINE
  5
12AC4E
  8
OBJECT
 10
4586.0
 20
-258.9999999999990905
 30
0.0
 11
4586.0
 21
-140.9999999999990905
 31
0.0
1001
ACDBBLOCKREPETAG
1070
     1
1071
       64
1005
12AC4E
  0
LINE
  5
12AC4F
  8
HIDDEN
 10
4588.0
 20
-155.4999999999990905
 30
0.0
 11
4588.0
 21
-244.4999999999990905
 31
0.0
1001
ACDBBLOCKREPETAG
1070
     1
1071
       65
1005
12AC4F
  0
LINE
  5
12AC50
  8
SLIM
  6
CONTINUOUS
 10
4434.6248517421099677
 20
-150.4999999999990905
 30
0.0
 11
4460.2662412276949908
 21
-124.8586105144150054
 31
0.0
1001
GRADIENTCOLOR1ACI
1070
     5
1001
GRADIENTCOLOR2ACI
1070
     2
1001
ACAD
1010
0.0
1020
0.0
1030
0.0
  0
LINE
  5
12AC51
  8
SLIM
  6
CONTINUOUS
 10
4466.9665679627396457
 20
-127.1385399004411028
 30
0.0
 11
4475.4966737955073768
 21
-118.6084340676741959
 31
0.0
1001
GRADIENTCOLOR1ACI
1070
     5
1001
GRADIENTCOLOR2ACI
1070
     2
1001
ACAD
1010
0.0
1020
0.0
1030
0.0
  0
LINE
  5
12AC52
  8
SLIM
  6
CONTINUOUS
 10
4480.7298081179296787
 20
-122.3555558663202021
 30
0.0
 11
4487.1009205801610733
 21
-115.9844434040886938
 31
0.0
1001
GRADIENTCOLOR1ACI
1070
     5
1001
GRADIENTCOLOR2ACI
1070
     2
1001
ACAD
1010
0.0
1020
0.0
1030
0.0
  0
LINE
  5
12AC53
  8
SLIM
  6
CONTINUOUS
 10
4491.6261550504887055
 20
-120.4394650548301939
 30
0.0
 11
4497.013124938400324
 21
-115.0524951669185043
 31
0.0
1001
GRADIENTCOLOR1ACI
1070
     5
1001
GRADIENTCOLOR2ACI
1070
     2
1001
ACAD
1010
0.0
1020
0.0
1030
0.0
  0
LINE
  5
12AC54
  8
SLIM
  6
CONTINUOUS
 10
4501.0391272822816973
 20
-120.0067489441062065
 30
0.0
 11
4505.8446943102489968
 21
-115.201181916138907
 31
0.0
1001
GRADIENTCOLOR1ACI
1070
     5
1001
GRADIENTCOLOR2ACI
1070
     2
1001
ACAD
1010
0.0
1020
0.0
1030
0.0
  0
LINE
  5
12AC55
  8
SLIM
  6
CONTINUOUS
 10
4509.4643255646178659
 20
-120.5618067828390991
 30
0.0
 11
4513.8844735755637885
 21
-116.1416587718931055
 31
0.0
1001
GRADIENTCOLOR1ACI
1070
     5
1001
GRADIENTCOLOR2ACI
1070
     2
1001
ACAD
1010
0.0
1020
0.0
1030
0.0
  0
LINE
  5
12AC56
  8
SLIM
  6
CONTINUOUS
 10
4517.1471323385685537
 20
-121.8592561299565062
 30
0.0
 11
4521.2955183575031697
 21
-117.7108701110200997
 31
0.0
1001
GRADIENTCOLOR1ACI
1070
     5
1001
GRADIENTCOLOR2ACI
1070
     2
1001
ACAD
1010
0.0
1020
0.0
1030
0.0
  0
LINE
  5
12AC57
  8
SLIM
  6
CONTINUOUS
 10
4524.2292926222189635
 20
-123.7573519673731965
 30
0.0
 11
4528.1796002140081328
 21
-119.8070443755877932
 31
0.0
1001
GRADIENTCOLOR1ACI
1070
     5
1001
GRADIENTCOLOR2ACI
1070
     2
1001
ACAD
1010
0.0
1020
0.0
1030
0.0
  0
LINE
  5
12AC58
  8
SLIM
  6
CONTINUOUS
 10
4530.8001598408181962
 20
-126.1667408698467057
 30
0.0
 11
4534.604195997104398
 21
-122.3627047135578039
 31
0.0
1001
GRADIENTCOLOR1ACI
1070
     5
1001
GRADIENTCOLOR2ACI
1070
     2
1001
ACAD
1010
0.0
1020
0.0
1030
0.0
  0
LINE
  5
12AC59
  8
SLIM
  6
CONTINUOUS
 10
4536.9189300973521313
 20
-129.0282267343781939
 30
0.0
 11
4540.6155853902901072
 21
-125.3315714414430033
 31
0.0
1001
GRADIENTCOLOR1ACI
1070
     5
1001
GRADIENTCOLOR2ACI
1070
     2
1001
ACAD
1010
0.0
1020
0.0
1030
0.0
  0
LINE
  5
12AC5A
  8
SLIM
  6
CONTINUOUS
 10
4542.6256620680069318
 20
-132.3017508847952115
 30
0.0
 11
4546.245858059091006
 21
-128.6815548937111089
 31
0.0
1001
GRADIENTCOLOR1ACI
1070
     5
1001
GRADIENTCOLOR2ACI
1070
     2
1001
ACAD
1010
0.0
1020
0.0
1030
0.0
  0
LINE
  5
12AC5B
  8
SLIM
  6
CONTINUOUS
 10
4432.3907652629231961
 20
-251.5169038109480084
 30
0.0
 11
4434.4076690738720572
 21
-249.4999999999996021
 31
0.0
1001
GRADIENTCOLOR1ACI
1070
     5
1001
GRADIENTCOLOR2ACI
1070
     2
1001
ACAD
1010
0.0
1020
0.0
1030
0.0
  0
LINE
  5
12AC5C
  8
SLIM
  6
CONTINUOUS
 10
4547.9472200511290794
 20
-135.960449022741102
 30
0.0
 11
4551.5169038109488611
 21
-132.3907652629204108
 31
0.0
1001
GRADIENTCOLOR1ACI
1070
     5
1001
GRADIENTCOLOR2ACI
1070
     2
1001
ACAD
1010
0.0
1020
0.0
1030
0.0
  0
LINE
  5
12AC5D
  8
SLIM
  6
CONTINUOUS
 10
4436.445174293106902
 20
-256.4427509018315163
 30
0.0
 11
4439.9873013608048495
 21
-252.9006238341358141
 31
0.0
1001
GRADIENTCOLOR1ACI
1070
     5
1001
GRADIENTCOLOR2ACI
1070
     2
1001
ACAD
1010
0.0
1020
0.0
1030
0.0
  0
LINE
  5
12AC5E
  8
SLIM
  6
CONTINUOUS
 10
4554.88792519494109
 20
-137.9999999999990905
 30
0.0
 11
4556.442750901836007
 21
-136.4451742931049978
 31
0.0
1001
GRADIENTCOLOR1ACI
1070
     5
1001
GRADIENTCOLOR2ACI
1070
     2
1001
ACAD
1010
0.0
1020
0.0
1030
0.0
  0
LINE
  5
12AC5F
  8
SLIM
  6
CONTINUOUS
 10
4440.8372731495674088
 20
-261.0309081664418045
 30
0.0
 11
4444.3732607963193004
 21
-257.4949205196899129
 31
0.0
1001
GRADIENTCOLOR1ACI
1070
     5
1001
GRADIENTCOLOR2ACI
1070
     2
1001
ACAD
1010
0.0
1020
0.0
1030
0.0
  0
LINE
  5
12AC60
  8
SLIM
  6
CONTINUOUS
 10
4445.5654027321443209
 20
-265.2830347049348916
 30
0.0
 11
4449.1163342680174537
 21
-261.7321031690607924
 31
0.0
1001
GRADIENTCOLOR1ACI
1070
     5
1001
GRADIENTCOLOR2ACI
1070
     2
1001
ACAD
1010
0.0
1020
0.0
1030
0.0
  0
LINE
  5
12AC61
  8
SLIM
  6
CONTINUOUS
 10
4450.6336102119221323
 20
-269.1950833462256014
 30
0.0
 11
4454.2213873681739642
 21
-265.6073061899733148
 31
0.0
1001
GRADIENTCOLOR1ACI
1070
     5
1001
GRADIENTCOLOR2ACI
1070
     2
1001
ACAD
1010
0.0
1020
0.0
1030
0.0
  0
LINE
  5
12AC62
  8
SLIM
  6
CONTINUOUS
 10
4456.0520018449296913
 20
-272.7569478342888942
 30
0.0
 11
4459.7006257556995479
 21
-269.1083239235172186
 31
0.0
1001
GRADIENTCOLOR1ACI
1070
     5
1001
GRADIENTCOLOR2ACI
1070
     2
1001
ACAD
1010
0.0
1020
0.0
1030
0.0
  0
LINE
  5
12AC63
  8
SLIM
  6
CONTINUOUS
 10
4461.8376665887199124
 20
-275.9515392115658869
 30
0.0
 11
4465.5748693932528113
 21
-272.214336407033386
 31
0.0
1001
GRADIENTCOLOR1ACI
1070
     5
1001
GRADIENTCOLOR2ACI
1070
     2
1001
ACAD
1010
0.0
1020
0.0
1030
0.0
  0
LINE
  5
12AC64
  8
SLIM
  6
CONTINUOUS
 10
4468.0163793697502115
 20
-278.7530825516054733
 30
0.0
 11
4471.8759515352576273
 21
-274.893510386098626
 31
0.0
1001
GRADIENTCOLOR1ACI
1070
     5
1001
GRADIENTCOLOR2ACI
1070
     2
1001
ACAD
1010
0.0
1020
0.0
1030
0.0
  0
LINE
  5
12AC65
  8
SLIM
  6
CONTINUOUS
 10
4474.6255187948081584
 20
-281.1241992476171276
 30
0.0
 11
4478.6509600030767615
 21
-277.0987580393465919
 31
0.0
1001
GRADIENTCOLOR1ACI
1070
     5
1001
GRADIENTCOLOR2ACI
1070
     2
1001
ACAD
1010
0.0
1020
0.0
1030
0.0
  0
LINE
  5
12AC66
  8
SLIM
  6
CONTINUOUS
 10
4481.7190828919883643
 20
-283.0108912715048746
 30
0.0
 11
4485.9698622171854367
 21
-278.7601119463088253
 31
0.0
1001
GRADIENTCOLOR1ACI
1070
     5
1001
GRADIENTCOLOR2ACI
1070
     2
1001
ACAD
1010
0.0
1020
0.0
1030
0.0
  0
LINE
  5
12AC67
  8
SLIM
  6
CONTINUOUS
 10
4489.376693855881058
 20
-284.33353642868218
 30
0.0
 11
4493.9400771270447876
 21
-279.7701531575175977
 31
0.0
1001
GRADIENTCOLOR1ACI
1070
     5
1001
GRADIENTCOLOR2ACI
1070
     2
1001
ACAD
1010
0.0
1020
0.0
1030
0.0
  0
LINE
  5
12AC68
  8
SLIM
  6
CONTINUOUS
 10
4497.7210427574209461
 20
-284.9694436482096194
 30
0.0
 11
4500.0
 21
-282.690486405630395
 31
0.0
1001
GRADIENTCOLOR1ACI
1070
     5
1001
GRADIENTCOLOR2ACI
1070
     2
1001
ACAD
1010
0.0
1020
0.0
1030
0.0
  0
LINE
  5
12AC69
  8
SLIM
  6
CONTINUOUS
 10
4500.0
 20
-282.690486405630395
 30
0.0
 11
4502.73733126109164
 21
-279.9531551445406876
 31
0.0
1001
GRADIENTCOLOR1ACI
1070
     5
1001
GRADIENTCOLOR2ACI
1070
     2
1001
ACAD
1010
0.0
1020
0.0
1030
0.0
  0
LINE
  5
12AC6A
  8
SLIM
  6
CONTINUOUS
 10
4506.9558298417923652
 20
-284.7149126849088816
 30
0.0
 11
4512.6824114987839494
 21
-278.9883310279146826
 31
0.0
1001
GRADIENTCOLOR1ACI
1070
     5
1001
GRADIENTCOLOR2ACI
1070
     2
1001
ACAD
1010
0.0
1020
0.0
1030
0.0
  0
LINE
  5
12AC6B
  8
SLIM
  6
CONTINUOUS
 10
4517.4645176312833428
 20
-283.1864810164871074
 30
0.0
 11
4524.4924948954112551
 21
-276.1585037523599908
 31
0.0
1001
GRADIENTCOLOR1ACI
1070
     5
1001
GRADIENTCOLOR2ACI
1070
     2
1001
ACAD
1010
0.0
1020
0.0
1030
0.0
  0
LINE
  5
12AC6C
  8
SLIM
  6
CONTINUOUS
 10
4530.1631022713127095
 20
-279.4681524975267166
 30
0.0
 11
4540.8425463192979805
 21
-268.7887084495415024
 31
0.0
1001
GRADIENTCOLOR1ACI
1070
     5
1001
GRADIENTCOLOR2ACI
1070
     2
1001
ACAD
1010
0.0
1020
0.0
1030
0.0
  0
LINE
  5
12AC6D
  8
SLIM
  6
CONTINUOUS
 10
4549.5421817599126371
 20
-269.0693291299958219
 30
0.0
 11
4556.6115108899066399
 21
-262.0
 31
0.0
1001
GRADIENTCOLOR1ACI
1070
     5
1001
GRADIENTCOLOR2ACI
1070
     2
1001
ACAD
1010
0.0
1020
0.0
1030
0.0
  0
LINE
  5
12AC6E
  8
OBJECT
 10
2633.0
 20
-137.9999999999980105
 30
0.0
 11
2640.0
 21
-137.9999999999980105
 31
0.0
1001
ACDBBLOCKREPETAG
1070
     1
1071
       47
1005
12AC6E
  0
LINE
  5
12AC6F
  8
OBJECT
 10
2640.0
 20
-137.9999999999980105
 30
0.0
 11
2640.0
 21
-261.9999999999980105
 31
0.0
1001
ACDBBLOCKREPETAG
1070
     1
1071
       48
1005
12AC6F
  0
LINE
  5
12AC70
  8
OBJECT
 10
2640.0
 20
-261.9999999999980105
 30
0.0
 11
2633.0
 21
-261.9999999999980105
 31
0.0
1001
ACDBBLOCKREPETAG
1070
     1
1071
       49
1005
12AC70
  0
LINE
  5
12AC71
  8
OBJECT
 10
2633.0
 20
-261.9999999999980105
 30
0.0
 11
2633.0
 21
-137.9999999999980105
 31
0.0
1001
ACDBBLOCKREPETAG
1070
     1
1071
       50
1005
12AC71
  0
LINE
  5
12AC72
  8
CENTER
 10
2655.0
 20
-199.9999999999980105
 30
0.0
 11
2580.0
 21
-199.9999999999980105
 31
0.0
1001
ACDBBLOCKREPETAG
1070
     1
1071
       51
1005
12AC72
  0
LINE
  5
12AC73
  8
OBJECT
 10
2633.0
 20
-140.9999999999980105
 30
0.0
 11
2596.9999999999990905
 21
-140.9999999999980105
 31
0.0
1001
ACDBBLOCKREPETAG
1070
     1
1071
       52
1005
12AC73
  0
LINE
  5
12AC74
  8
OBJECT
 10
2596.9999999999990905
 20
-140.9999999999980105
 30
0.0
 11
2596.9999999999990905
 21
-258.9999999999980105
 31
0.0
1001
ACDBBLOCKREPETAG
1070
     1
1071
       53
1005
12AC74
  0
LINE
  5
12AC75
  8
OBJECT
 10
2596.9999999999990905
 20
-258.9999999999980105
 30
0.0
 11
2633.0
 21
-258.9999999999980105
 31
0.0
1001
ACDBBLOCKREPETAG
1070
     1
1071
       54
1005
12AC75
  0
LINE
  5
12AC76
  8
OBJECT
 10
2593.0
 20
-145.4999999999980105
 30
0.0
 11
2586.0
 21
-145.4999999999980105
 31
0.0
1001
ACDBBLOCKREPETAG
1070
     1
1071
       55
1005
12AC76
  0
LINE
  5
12AC77
  8
OBJECT
 10
2586.0
 20
-254.4999999999980105
 30
0.0
 11
2593.0
 21
-254.4999999999980105
 31
0.0
1001
ACDBBLOCKREPETAG
1070
     1
1071
       56
1005
12AC77
  0
LINE
  5
12AC78
  8
OBJECT
 10
2593.0
 20
-254.4999999999980105
 30
0.0
 11
2593.0
 21
-145.4999999999980105
 31
0.0
1001
ACDBBLOCKREPETAG
1070
     1
1071
       57
1005
12AC78
  0
LINE
  5
12AC79
  8
OBJECT
 10
2596.9999999999990905
 20
-140.9999999999980105
 30
0.0
 11
2593.0
 21
-145.4999999999980105
 31
0.0
1001
ACDBBLOCKREPETAG
1070
     1
1071
       58
1005
12AC79
  0
LINE
  5
12AC7A
  8
OBJECT
 10
2596.9999999999990905
 20
-258.9999999999980105
 30
0.0
 11
2593.0
 21
-254.4999999999980105
 31
0.0
1001
ACDBBLOCKREPETAG
1070
     1
1071
       59
1005
12AC7A
  0
LINE
  5
12AC7B
  8
OBJECT
 10
2583.0
 20
-137.9999999999980105
 30
0.0
 11
2580.0
 21
-137.9999999999980105
 31
0.0
1001
ACDBBLOCKREPETAG
1070
     1
1071
       60
1005
12AC7B
  0
ARC
  5
12AC7C
  8
OBJECT
 10
2583.0
 20
-140.9999999999980105
 30
0.0
 40
3.0
 50
0.0
 51
90.0
1001
ACDBBLOCKREPETAG
1070
     1
1071
       61
1005
12AC7C
  0
LINE
  5
12AC7D
  8
OBJECT
 10
2580.0
 20
-261.9999999999980105
 30
0.0
 11
2583.0
 21
-261.9999999999980105
 31
0.0
1001
ACDBBLOCKREPETAG
1070
     1
1071
       62
1005
12AC7D
  0
ARC
  5
12AC7E
  8
OBJECT
 10
2583.0
 20
-258.9999999999980105
 30
0.0
 40
3.0
 50
270.0
 51
0.0
1001
ACDBBLOCKREPETAG
1070
     1
1071
       63
1005
12AC7E
  0
LINE
  5
12AC7F
  8
OBJECT
 10
2586.0
 20
-258.9999999999980105
 30
0.0
 11
2586.0
 21
-140.9999999999980105
 31
0.0
1001
ACDBBLOCKREPETAG
1070
     1
1071
       64
1005
12AC7F
  0
LINE
  5
12AC80
  8
HIDDEN
 10
2588.0
 20
-155.4999999999980105
 30
0.0
 11
2588.0
 21
-244.4999999999980105
 31
0.0
1001
ACDBBLOCKREPETAG
1070
     1
1071
       65
1005
12AC80
  0
TEXT
  5
12AC81
  8
SLIM
 10
4974.3428571428567011
 20
-800.9999999999957936
 30
0.0
 40
24.0
  1
対応m寸法
 41
0.75
  0
TEXT
  5
12AC82
  8
SLIM
 10
4968.3428571428567011
 20
-848.9999999999959073
 30
0.0
 40
24.0
  1
240～370
 41
0.75
  0
TEXT
  5
12AC83
  8
SLIM
 10
4880.5714285714284415
 20
-848.9999999999959073
 30
0.0
 40
24.0
  1
310
 41
0.75
  0
TEXT
  5
12AC84
  8
SLIM
 10
4873.8000000000001819
 20
-800.9999999999957936
 30
0.0
 40
24.0
  1
P寸法
 41
0.75
  0
TEXT
  5
12AC85
  8
SLIM
 10
4968.3428571428567011
 20
-896.9999999999961346
 30
0.0
 40
24.0
  1
230～360
 41
0.75
  0
TEXT
  5
12AC86
  8
SLIM
 10
4878.857142857143117
 20
-896.9999999999961346
 30
0.0
 40
24.0
  1
320
 41
0.75
  0
TEXT
  5
12AC87
  8
SLIM
 10
4968.3428571428567011
 20
-944.9999999999961346
 30
0.0
 40
24.0
  1
220～350
 41
0.75
  0
TEXT
  5
12AC88
  8
SLIM
 10
4878.857142857143117
 20
-944.9999999999961346
 30
0.0
 40
24.0
  1
330
 41
0.75
  0
TEXT
  5
12AC89
  8
SLIM
 10
4970.0571428571429351
 20
-992.999999999996362
 30
0.0
 40
24.0
  1
210～340
 41
0.75
  0
TEXT
  5
12AC8A
  8
SLIM
 10
4878.857142857143117
 20
-992.999999999996362
 30
0.0
 40
24.0
  1
340
 41
0.75
  0
TEXT
  5
12AC8B
  8
SLIM
 10
4968.3428571428567011
 20
-1040.9999999999959073
 30
0.0
 40
24.0
  1
200～330
 41
0.75
  0
TEXT
  5
12AC8C
  8
SLIM
 10
4878.857142857143117
 20
-1040.9999999999959073
 30
0.0
 40
24.0
  1
350
 41
0.75
  0
TEXT
  5
12AC8D
  8
SLIM
 10
4970.0571428571429351
 20
-1088.9999999999959073
 30
0.0
 40
24.0
  1
190～320
 41
0.75
  0
TEXT
  5
12AC8E
  8
SLIM
 10
4878.857142857143117
 20
-1088.9999999999959073
 30
0.0
 40
24.0
  1
360
 41
0.75
  0
TEXT
  5
12AC8F
  8
SLIM
 10
4971.7714285714291691
 20
-1136.9999999999959073
 30
0.0
 40
24.0
  1
190～310
 41
0.75
  0
TEXT
  5
12AC90
  8
SLIM
 10
4878.857142857143117
 20
-1136.9999999999959073
 30
0.0
 40
24.0
  1
370
 41
0.75
  0
TEXT
  5
12AC91
  8
SLIM
 10
4878.857142857143117
 20
-1184.9999999999959073
 30
0.0
 40
24.0
  1
380
 41
0.75
  0
TEXT
  5
12AC92
  8
SLIM
 10
4878.857142857143117
 20
-1232.9999999999959073
 30
0.0
 40
24.0
  1
390
 41
0.75
  0
TEXT
  5
12AC93
  8
SLIM
 10
4878.857142857143117
 20
-1280.9999999999959073
 30
0.0
 40
24.0
  1
400
 41
0.75
  0
TEXT
  5
12AC94
  8
SLIM
 10
4880.5714285714284415
 20
-1328.9999999999959073
 30
0.0
 40
24.0
  1
410
 41
0.75
  0
TEXT
  5
12AC95
  8
SLIM
 10
4878.857142857143117
 20
-1376.9999999999959073
 30
0.0
 40
24.0
  1
420
 41
0.75
  0
TEXT
  5
12AC96
  8
SLIM
 10
4878.857142857143117
 20
-1424.9999999999959073
 30
0.0
 40
24.0
  1
430
 41
0.75
  0
TEXT
  5
12AC97
  8
SLIM
 10
4878.857142857143117
 20
-1472.9999999999959073
 30
0.0
 40
24.0
  1
440
 41
0.75
  0
TEXT
  5
12AC98
  8
SLIM
 10
4948.4571428571443903
 20
-1530.9999999999959073
 30
0.0
 40
24.0
  1
標準：m=240
 41
0.75
  0
TEXT
  5
12AC99
  8
SLIM
 10
4970.0571428571429351
 20
-1184.9999999999959073
 30
0.0
 40
24.0
  1
190～300
 41
0.75
  0
TEXT
  5
12AC9A
  8
SLIM
 10
4970.0571428571429351
 20
-1232.9999999999959073
 30
0.0
 40
24.0
  1
190～290
 41
0.75
  0
TEXT
  5
12AC9B
  8
SLIM
 10
4970.0571428571429351
 20
-1280.9999999999959073
 30
0.0
 40
24.0
  1
190～280
 41
0.75
  0
TEXT
  5
12AC9C
  8
SLIM
 10
4970.0571428571429351
 20
-1328.9999999999959073
 30
0.0
 40
24.0
  1
190～270
 41
0.75
  0
TEXT
  5
12AC9D
  8
SLIM
 10
4970.0571428571429351
 20
-1376.9999999999959073
 30
0.0
 40
24.0
  1
190～260
 41
0.75
  0
TEXT
  5
12AC9E
  8
SLIM
 10
4970.0571428571429351
 20
-1424.9999999999959073
 30
0.0
 40
24.0
  1
190～250
 41
0.75
  0
TEXT
  5
12AC9F
  8
SLIM
 10
4970.0571428571429351
 20
-1472.9999999999959073
 30
0.0
 40
24.0
  1
190～240
 41
0.75
  0
TEXT
  5
12ACA0
  8
SLIM
 10
4026.5999999999999091
 20
-1818.0000266666650077
 30
0.0
 40
28.0
  1
※ 対応P寸法　　310＜320＞～440（10mm単位。＜＞内は下枝75の場合）
 41
0.75
  0
TEXT
  5
12ACA1
  8
SLIM
 10
4026.5999999999999091
 20
-1864.6666933333310681
 30
0.0
 40
28.0
  1
※ 対応スラブ厚　170～（m-10）
 41
0.75
  0
TEXT
  5
12ACA2
  8
SLIM
 10
4026.5999999999999091
 20
-1911.3333599999980379
 30
0.0
 40
28.0
  1
※ 足切り可能寸法（最大）　680-P-m（コンパクトＬベンド使用なら+10）
 41
0.75
  0
TEXT
  5
12ACA3
  8
SLIM
 10
4098.8999999999987267
 20
-1983.3333066666650666
 30
0.0
 40
28.0
  1
国土交通大臣認定・（一財）日本消防設備安全センター性能評定取得品
 41
0.75
  0
TEXT
  5
12ACA4
  8
SLIM
 10
4131.1000000000003638
 20
-2029.9999733333320364
 30
0.0
 40
28.0
  1
注）ご採用にあたり、認定書及び評定書の内容をご確認ください。
 41
0.75
  0
TEXT
  5
12ACA5
  8
SLIM
 10
2032.5
 20
-1828.9999999999970441
 30
0.0
 40
28.0
  1
※ 対応P寸法　　310＜320＞～460（10mm単位。＜＞内は下枝75の場合）
 41
0.75
  0
LINE
  5
12ACA6
  8
OBJECT
 10
2423.0
 20
-571.0
 30
0.0
 11
2423.0
 21
-550.0
 31
0.0
1001
ACDBBLOCKREPETAG
1070
     1
1071
        0
1005
12ACA6
  0
LINE
  5
12ACA7
  8
OBJECT
 10
2423.0
 20
-550.0
 30
0.0
 11
2577.0
 21
-550.0
 31
0.0
1001
ACDBBLOCKREPETAG
1070
     1
1071
        1
1005
12ACA7
  0
LINE
  5
12ACA8
  8
HIDDEN
 10
2443.0
 20
-620.0
 30
0.0
 11
2557.0
 21
-620.0
 31
0.0
1001
ACDBBLOCKREPETAG
1070
     1
1071
        2
1005
12ACA8
  0
LINE
  5
12ACA9
  8
OBJECT
 10
2577.0
 20
-550.0
 30
0.0
 11
2577.0
 21
-571.0
 31
0.0
1001
ACDBBLOCKREPETAG
1070
     1
1071
        3
1005
12ACA9
  0
LINE
  5
12ACAA
  8
OBJECT
 10
2577.0
 20
-571.0
 30
0.0
 11
2423.0
 21
-571.0
 31
0.0
1001
ACDBBLOCKREPETAG
1070
     1
1071
        4
1005
12ACAA
  0
LINE
  5
12ACAB
  8
CENTER
 10
2500.0
 20
-535.0
 30
0.0
 11
2500.0
 21
-890.0
 31
0.0
1001
ACDBBLOCKREPETAG
1070
     1
1071
        5
1005
12ACAB
  0
LINE
  5
12ACAC
  8
OBJECT
 10
2425.0
 20
-634.0
 30
0.0
 11
2425.0
 21
-878.0
 31
0.0
1001
ACDBBLOCKREPETAG
1070
     1
1071
        6
1005
12ACAC
  0
LINE
  5
12ACAD
  8
OBJECT
 10
2428.0
 20
-571.0
 30
0.0
 11
2428.0
 21
-634.0
 31
0.0
1001
ACDBBLOCKREPETAG
1070
     1
1071
        7
1005
12ACAD
  0
LINE
  5
12ACAE
  8
OBJECT
 10
2572.0
 20
-634.0
 30
0.0
 11
2572.0
 21
-571.0
 31
0.0
1001
ACDBBLOCKREPETAG
1070
     1
1071
        8
1005
12ACAE
  0
LINE
  5
12ACAF
  8
OBJECT
 10
2420.0
 20
-878.0
 30
0.0
 11
2580.0
 21
-878.0
 31
0.0
1001
ACDBBLOCKREPETAG
1070
     1
1071
        9
1005
12ACAF
  0
LINE
  5
12ACB0
  8
OBJECT
 10
2580.0
 20
-634.0
 30
0.0
 11
2425.0
 21
-634.0
 31
0.0
1001
ACDBBLOCKREPETAG
1070
     1
1071
       10
1005
12ACB0
  0
LINE
  5
12ACB1
  8
OBJECT
 10
2420.0
 20
-878.0
 30
0.0
 11
2420.0
 21
-890.0
 31
0.0
1001
ACDBBLOCKREPETAG
1070
     1
1071
       11
1005
12ACB1
  0
LINE
  5
12ACB2
  8
OBJECT
 10
2420.0
 20
-890.0
 30
0.0
 11
2580.0
 21
-890.0
 31
0.0
1001
ACDBBLOCKREPETAG
1070
     1
1071
       12
1005
12ACB2
  0
LINE
  5
12ACB3
  8
OBJECT
 10
2580.0
 20
-890.0
 30
0.0
 11
2580.0
 21
-878.0
 31
0.0
1001
ACDBBLOCKREPETAG
1070
     1
1071
       13
1005
12ACB3
  0
LINE
  5
12ACB4
  8
OBJECT
 10
2574.9999999998622116
 20
-757.9999999998509566
 30
0.0
 11
2575.0
 21
-878.0
 31
0.0
1001
ACDBBLOCKREPETAG
1070
     1
1071
       15
1005
12ACB4
  0
LINE
  5
12ACB5
  8
OBJECT
 10
2574.9999908029849394
 20
-757.9999860270218051
 30
0.0
 11
2580.0
 21
-757.9999860270218051
 31
0.0
1001
ACDBBLOCKREPETAG
1070
     1
1071
       16
1005
12ACB5
  0
ARC
  5
12ACB6
  8
OBJECT
 10
2700.6872746716730944
 20
-749.4080994101075248
 30
0.0
 40
170.6350503965855978
 50
137.4413445918430057
 51
149.9194958133722082
1001
ACDBBLOCKREPETAG
1070
     1
1071
       17
1005
12ACB6
  0
ARC
  5
12ACB7
  8
OBJECT
 10
2618.845598704051099
 20
-705.882726695364795
 30
0.0
 40
78.0722220217636647
 50
147.4551531038623011
 51
164.6636599771798046
1001
ACDBBLOCKREPETAG
1070
     1
1071
       18
1005
12ACB7
  0
ARC
  5
12ACB8
  8
OBJECT
 10
2585.7554349608731172
 20
-696.0
 30
0.0
 40
43.5535392688561771
 50
165.6884523007466044
 51
194.3115476992531967
1001
ACDBBLOCKREPETAG
1070
     1
1071
       19
1005
12ACB8
  0
ARC
  5
12ACB9
  8
OBJECT
 10
2700.6872746716730944
 20
-642.5919005898921341
 30
0.0
 40
170.6350503965855978
 50
210.0805041866277918
 51
222.5586554081569943
1001
ACDBBLOCKREPETAG
1070
     1
1071
       20
1005
12ACB9
  0
ARC
  5
12ACBA
  8
OBJECT
 10
2618.845598704051099
 20
-686.117273304635205
 30
0.0
 40
78.0722220217636647
 50
195.3363400228201101
 51
212.5448468961376989
1001
ACDBBLOCKREPETAG
1070
     1
1071
       21
1005
12ACBA
  0
LINE
  5
12ACBB
  8
OBJECT
 10
4423.0
 20
-571.0
 30
0.0
 11
4423.0
 21
-550.0
 31
0.0
1001
ACDBBLOCKREPETAG
1070
     1
1071
        0
1005
12ACBB
  0
LINE
  5
12ACBC
  8
OBJECT
 10
4423.0
 20
-550.0
 30
0.0
 11
4577.0
 21
-550.0
 31
0.0
1001
ACDBBLOCKREPETAG
1070
     1
1071
        1
1005
12ACBC
  0
LINE
  5
12ACBD
  8
HIDDEN
 10
4443.0
 20
-620.0
 30
0.0
 11
4557.0
 21
-620.0
 31
0.0
1001
ACDBBLOCKREPETAG
1070
     1
1071
        2
1005
12ACBD
  0
LINE
  5
12ACBE
  8
OBJECT
 10
4577.0
 20
-550.0
 30
0.0
 11
4577.0
 21
-571.0
 31
0.0
1001
ACDBBLOCKREPETAG
1070
     1
1071
        3
1005
12ACBE
  0
LINE
  5
12ACBF
  8
OBJECT
 10
4577.0
 20
-571.0
 30
0.0
 11
4423.0
 21
-571.0
 31
0.0
1001
ACDBBLOCKREPETAG
1070
     1
1071
        4
1005
12ACBF
  0
LINE
  5
12ACC0
  8
CENTER
 10
4500.0
 20
-535.0
 30
0.0
 11
4500.0
 21
-890.0
 31
0.0
1001
ACDBBLOCKREPETAG
1070
     1
1071
        5
1005
12ACC0
  0
LINE
  5
12ACC1
  8
OBJECT
 10
4425.0
 20
-634.0
 30
0.0
 11
4425.0
 21
-878.0
 31
0.0
1001
ACDBBLOCKREPETAG
1070
     1
1071
        6
1005
12ACC1
  0
LINE
  5
12ACC2
  8
OBJECT
 10
4428.0
 20
-571.0
 30
0.0
 11
4428.0
 21
-634.0
 31
0.0
1001
ACDBBLOCKREPETAG
1070
     1
1071
        7
1005
12ACC2
  0
LINE
  5
12ACC3
  8
OBJECT
 10
4572.0
 20
-634.0
 30
0.0
 11
4572.0
 21
-571.0
 31
0.0
1001
ACDBBLOCKREPETAG
1070
     1
1071
        8
1005
12ACC3
  0
LINE
  5
12ACC4
  8
OBJECT
 10
4420.0
 20
-878.0
 30
0.0
 11
4580.0
 21
-878.0
 31
0.0
1001
ACDBBLOCKREPETAG
1070
     1
1071
        9
1005
12ACC4
  0
LINE
  5
12ACC5
  8
OBJECT
 10
4580.0
 20
-634.0
 30
0.0
 11
4425.0
 21
-634.0
 31
0.0
1001
ACDBBLOCKREPETAG
1070
     1
1071
       10
1005
12ACC5
  0
LINE
  5
12ACC6
  8
OBJECT
 10
4420.0
 20
-878.0
 30
0.0
 11
4420.0
 21
-890.0
 31
0.0
1001
ACDBBLOCKREPETAG
1070
     1
1071
       11
1005
12ACC6
  0
LINE
  5
12ACC7
  8
OBJECT
 10
4420.0
 20
-890.0
 30
0.0
 11
4580.0
 21
-890.0
 31
0.0
1001
ACDBBLOCKREPETAG
1070
     1
1071
       12
1005
12ACC7
  0
LINE
  5
12ACC8
  8
OBJECT
 10
4580.0
 20
-890.0
 30
0.0
 11
4580.0
 21
-878.0
 31
0.0
1001
ACDBBLOCKREPETAG
1070
     1
1071
       13
1005
12ACC8
  0
LINE
  5
12ACC9
  8
OBJECT
 10
4574.9999999998617568
 20
-757.9999999998509566
 30
0.0
 11
4575.0
 21
-878.0
 31
0.0
1001
ACDBBLOCKREPETAG
1070
     1
1071
       15
1005
12ACC9
  0
LINE
  5
12ACCA
  8
OBJECT
 10
4574.9999908029849394
 20
-757.9999860270218051
 30
0.0
 11
4580.0
 21
-757.9999860270218051
 31
0.0
1001
ACDBBLOCKREPETAG
1070
     1
1071
       16
1005
12ACCA
  0
ARC
  5
12ACCB
  8
OBJECT
 10
4700.6872746716735492
 20
-749.4080994101075248
 30
0.0
 40
170.6350503965855978
 50
137.4413445918430057
 51
149.9194958133722082
1001
ACDBBLOCKREPETAG
1070
     1
1071
       17
1005
12ACCB
  0
ARC
  5
12ACCC
  8
OBJECT
 10
4618.8455987040497348
 20
-705.882726695364795
 30
0.0
 40
78.0722220217636647
 50
147.4551531038623011
 51
164.6636599771867111
1001
ACDBBLOCKREPETAG
1070
     1
1071
       18
1005
12ACCC
  0
ARC
  5
12ACCD
  8
OBJECT
 10
4585.755434960871753
 20
-696.0
 30
0.0
 40
43.5535392688561771
 50
165.6884523007529992
 51
194.3115476992468871
1001
ACDBBLOCKREPETAG
1070
     1
1071
       19
1005
12ACCD
  0
ARC
  5
12ACCE
  8
OBJECT
 10
4700.6872746716735492
 20
-642.5919005898921341
 30
0.0
 40
170.6350503965855978
 50
210.0805041866277918
 51
222.5586554081569943
1001
ACDBBLOCKREPETAG
1070
     1
1071
       20
1005
12ACCE
  0
ARC
  5
12ACCF
  8
OBJECT
 10
4618.8455987040497348
 20
-686.117273304635205
 30
0.0
 40
78.0722220217636647
 50
195.3363400228132889
 51
212.5448468961376989
1001
ACDBBLOCKREPETAG
1070
     1
1071
       21
1005
12ACCF
  0
LINE
  5
12ACD0
  8
OBJECT
 10
2575.0
 20
-890.0
 30
0.0
 11
2575.0
 21
-1027.5000000000650289
 31
0.0
1001
ACDBBLOCKREPETAG
1070
     1
1071
        1
1005
12ACD0
  0
LINE
  5
12ACD1
  8
CENTER
 10
2500.0
 20
-890.0
 30
0.0
 11
2500.0
 21
-1175.0
 31
0.0
1001
ACDBBLOCKREPETAG
1070
     1
1071
        6
1005
12ACD1
  0
LINE
  5
12ACD2
  8
OBJECT
 10
2420.0
 20
-1175.0
 30
0.0
 11
2580.0
 21
-1175.0
 31
0.0
1001
ACDBBLOCKREPETAG
1070
     1
1071
        7
1005
12ACD2
  0
LINE
  5
12ACD3
  8
OBJECT
 10
2420.0
 20
-1163.0
 30
0.0
 11
2580.0
 21
-1163.0
 31
0.0
1001
ACDBBLOCKREPETAG
1070
     1
1071
        8
1005
12ACD3
  0
LINE
  5
12ACD4
  8
OBJECT
 10
2420.0
 20
-1163.0
 30
0.0
 11
2420.0
 21
-1175.0
 31
0.0
1001
ACDBBLOCKREPETAG
1070
     1
1071
        9
1005
12ACD4
  0
LINE
  5
12ACD5
  8
OBJECT
 10
2580.0
 20
-1163.0
 30
0.0
 11
2580.0
 21
-1175.0
 31
0.0
1001
ACDBBLOCKREPETAG
1070
     1
1071
       10
1005
12ACD5
  0
LINE
  5
12ACD6
  8
OBJECT
 10
2633.0
 20
-1029.0
 30
0.0
 11
2640.0
 21
-1029.0
 31
0.0
1001
ACDBBLOCKREPETAG
1070
     1
1071
       23
1005
12ACD6
  0
LINE
  5
12ACD7
  8
OBJECT
 10
2640.0
 20
-1029.0
 30
0.0
 11
2640.0
 21
-1136.0
 31
0.0
1001
ACDBBLOCKREPETAG
1070
     1
1071
       24
1005
12ACD7
  0
LINE
  5
12ACD8
  8
OBJECT
 10
2584.5
 20
-1030.5000000000650289
 30
0.0
 11
2584.5
 21
-1133.5
 31
0.0
1001
ACDBBLOCKREPETAG
1070
     1
1071
       25
1005
12ACD8
  0
ARC
  5
12ACD9
  8
OBJECT
 10
2581.5
 20
-1030.5000000000650289
 30
0.0
 40
3.0
 50
0.0
 51
90.0
1001
ACDBBLOCKREPETAG
1070
     1
1071
       26
1005
12ACD9
  0
LINE
  5
12ACDA
  8
OBJECT
 10
2633.0
 20
-1136.0
 30
0.0
 11
2633.0
 21
-1029.0
 31
0.0
1001
ACDBBLOCKREPETAG
1070
     1
1071
       27
1005
12ACDA
  0
LINE
  5
12ACDB
  8
CENTER
 10
2655.0
 20
-1084.0
 30
0.0
 11
2541.3449199130050147
 21
-1084.0000000000650289
 31
0.0
1001
ACDBBLOCKREPETAG
1070
     1
1071
       28
1005
12ACDB
  0
LINE
  5
12ACDC
  8
OBJECT
 10
2633.0
 20
-1032.0
 30
0.0
 11
2597.0
 21
-1032.0
 31
0.0
1001
ACDBBLOCKREPETAG
1070
     1
1071
       29
1005
12ACDC
  0
LINE
  5
12ACDD
  8
OBJECT
 10
2597.0
 20
-1032.0
 30
0.0
 11
2597.0
 21
-1136.0
 31
0.0
1001
ACDBBLOCKREPETAG
1070
     1
1071
       30
1005
12ACDD
  0
LINE
  5
12ACDE
  8
OBJECT
 10
2597.0
 20
-1136.0
 30
0.0
 11
2640.0
 21
-1136.0
 31
0.0
1001
ACDBBLOCKREPETAG
1070
     1
1071
       31
1005
12ACDE
  0
LINE
  5
12ACDF
  8
OBJECT
 10
2593.0
 20
-1036.5
 30
0.0
 11
2584.5
 21
-1036.5
 31
0.0
1001
ACDBBLOCKREPETAG
1070
     1
1071
       32
1005
12ACDF
  0
LINE
  5
12ACE0
  8
OBJECT
 10
2584.5
 20
-1131.5
 30
0.0
 11
2593.0
 21
-1131.5
 31
0.0
1001
ACDBBLOCKREPETAG
1070
     1
1071
       33
1005
12ACE0
  0
LINE
  5
12ACE1
  8
OBJECT
 10
2593.0
 20
-1131.5
 30
0.0
 11
2593.0
 21
-1036.5
 31
0.0
1001
ACDBBLOCKREPETAG
1070
     1
1071
       34
1005
12ACE1
  0
LINE
  5
12ACE2
  8
OBJECT
 10
2597.0
 20
-1032.0
 30
0.0
 11
2593.0
 21
-1036.5
 31
0.0
1001
ACDBBLOCKREPETAG
1070
     1
1071
       35
1005
12ACE2
  0
LINE
  5
12ACE3
  8
OBJECT
 10
2597.0
 20
-1136.0
 30
0.0
 11
2593.0
 21
-1131.5
 31
0.0
1001
ACDBBLOCKREPETAG
1070
     1
1071
       36
1005
12ACE3
  0
LINE
  5
12ACE4
  8
HIDDEN
 10
2588.0
 20
-1046.0
 30
0.0
 11
2588.0
 21
-1122.0
 31
0.0
1001
ACDBBLOCKREPETAG
1070
     1
1071
       37
1005
12ACE4
  0
ARC
  5
12ACE5
  8
OBJECT
 10
2664.8782728787741689
 20
-1092.4095072612281001
 30
0.0
 40
110.866352283089995
 50
144.16342741930481
 51
163.0403538043379115
1001
ACDBBLOCKREPETAG
1070
     1
1071
       38
1005
12ACE5
  0
ARC
  5
12ACE6
  8
OBJECT
 10
2617.1359887769071975
 20
-1077.2877497184490494
 30
0.0
 40
60.7917498803589567
 50
163.5472046522205005
 51
179.7287969828267933
1001
ACDBBLOCKREPETAG
1070
     1
1071
       39
1005
12ACE6
  0
ARC
  5
12ACE7
  8
OBJECT
 10
2617.1359956562478146
 20
-1083.7122497599009421
 30
0.0
 40
60.7917567620948702
 50
180.2712034781451962
 51
196.4527794605276085
1001
ACDBBLOCKREPETAG
1070
     1
1071
       40
1005
12ACE7
  0
ARC
  5
12ACE8
  8
OBJECT
 10
2664.8782728787741689
 20
-1068.5904927388360193
 30
0.0
 40
110.8663522830916008
 50
196.9596461956618043
 51
215.83657258069519
1001
ACDBBLOCKREPETAG
1070
     1
1071
       41
1005
12ACE8
  0
LINE
  5
12ACE9
  8
OBJECT
 10
2556.3449199130050147
 20
-1077.000000000035925
 30
0.0
 11
2556.3449199130050147
 21
-1084.0000000000329692
 31
0.0
1001
ACDBBLOCKREPETAG
1070
     1
1071
       42
1005
12ACE9
  0
LINE
  5
12ACEA
  8
OBJECT
 10
2575.0
 20
-1027.5000000000650289
 30
0.0
 11
2581.5
 21
-1027.5000000000650289
 31
0.0
1001
ACDBBLOCKREPETAG
1070
     1
1071
       43
1005
12ACEA
  0
LINE
  5
12ACEB
  8
OBJECT
 10
2575.0
 20
-1133.5
 30
0.0
 11
2584.5
 21
-1133.5
 31
0.0
1001
ACDBBLOCKREPETAG
1070
     1
1071
       44
1005
12ACEB
  0
LINE
  5
12ACEC
  8
OBJECT
 10
2575.0
 20
-1133.5
 30
0.0
 11
2575.0
 21
-1163.0
 31
0.0
1001
ACDBBLOCKREPETAG
1070
     1
1071
        1
1005
12ACD0
  0
POINT
  5
12ACED
  8
DOTS
 10
2500.0
 20
-1136.0
 30
0.0
  0
LINE
  5
12ACEE
  8
OBJECT
 10
2425.0
 20
-890.0
 30
0.0
 11
2425.0
 21
-1027.5000000000650289
 31
0.0
1001
ACDBBLOCKREPETAG
1070
     1
1071
        1
1005
12ACD0
  0
LINE
  5
12ACEF
  8
OBJECT
 10
2367.0
 20
-1029.0
 30
0.0
 11
2360.0
 21
-1029.0
 31
0.0
1001
ACDBBLOCKREPETAG
1070
     1
1071
       23
1005
12ACD6
  0
LINE
  5
12ACF0
  8
OBJECT
 10
2360.0
 20
-1029.0
 30
0.0
 11
2360.0
 21
-1136.0
 31
0.0
1001
ACDBBLOCKREPETAG
1070
     1
1071
       24
1005
12ACD7
  0
LINE
  5
12ACF1
  8
OBJECT
 10
2415.5
 20
-1030.5000000000650289
 30
0.0
 11
2415.5
 21
-1133.5
 31
0.0
1001
ACDBBLOCKREPETAG
1070
     1
1071
       25
1005
12ACD8
  0
ARC
  5
12ACF2
  8
OBJECT
 10
2418.5
 20
-1030.5000000000650289
 30
0.0
 40
3.0
 50
90.0
 51
180.0
1001
ACDBBLOCKREPETAG
1070
     1
1071
       26
1005
12ACD9
  0
LINE
  5
12ACF3
  8
OBJECT
 10
2367.0
 20
-1136.0
 30
0.0
 11
2367.0
 21
-1029.0
 31
0.0
1001
ACDBBLOCKREPETAG
1070
     1
1071
       27
1005
12ACDA
  0
LINE
  5
12ACF4
  8
CENTER
 10
2345.0
 20
-1084.0
 30
0.0
 11
2458.6550800869949853
 21
-1084.0000000000650289
 31
0.0
1001
ACDBBLOCKREPETAG
1070
     1
1071
       28
1005
12ACDB
  0
LINE
  5
12ACF5
  8
OBJECT
 10
2367.0
 20
-1032.0
 30
0.0
 11
2403.0
 21
-1032.0
 31
0.0
1001
ACDBBLOCKREPETAG
1070
     1
1071
       29
1005
12ACDC
  0
LINE
  5
12ACF6
  8
OBJECT
 10
2403.0
 20
-1032.0
 30
0.0
 11
2403.0
 21
-1136.0
 31
0.0
1001
ACDBBLOCKREPETAG
1070
     1
1071
       30
1005
12ACDD
  0
LINE
  5
12ACF7
  8
OBJECT
 10
2403.0
 20
-1136.0
 30
0.0
 11
2360.0
 21
-1136.0
 31
0.0
1001
ACDBBLOCKREPETAG
1070
     1
1071
       31
1005
12ACDE
  0
LINE
  5
12ACF8
  8
OBJECT
 10
2407.0
 20
-1036.5
 30
0.0
 11
2415.5
 21
-1036.5
 31
0.0
1001
ACDBBLOCKREPETAG
1070
     1
1071
       32
1005
12ACDF
  0
LINE
  5
12ACF9
  8
OBJECT
 10
2415.5
 20
-1131.5
 30
0.0
 11
2407.0
 21
-1131.5
 31
0.0
1001
ACDBBLOCKREPETAG
1070
     1
1071
       33
1005
12ACE0
  0
LINE
  5
12ACFA
  8
OBJECT
 10
2407.0
 20
-1131.5
 30
0.0
 11
2407.0
 21
-1036.5
 31
0.0
1001
ACDBBLOCKREPETAG
1070
     1
1071
       34
1005
12ACE1
  0
LINE
  5
12ACFB
  8
OBJECT
 10
2403.0
 20
-1032.0
 30
0.0
 11
2407.0
 21
-1036.5
 31
0.0
1001
ACDBBLOCKREPETAG
1070
     1
1071
       35
1005
12ACE2
  0
LINE
  5
12ACFC
  8
OBJECT
 10
2403.0
 20
-1136.0
 30
0.0
 11
2407.0
 21
-1131.5
 31
0.0
1001
ACDBBLOCKREPETAG
1070
     1
1071
       36
1005
12ACE3
  0
LINE
  5
12ACFD
  8
HIDDEN
 10
2412.0
 20
-1046.0
 30
0.0
 11
2412.0
 21
-1122.0
 31
0.0
1001
ACDBBLOCKREPETAG
1070
     1
1071
       37
1005
12ACE4
  0
ARC
  5
12ACFE
  8
OBJECT
 10
2335.1217271212258311
 20
-1092.4095072612281001
 30
0.0
 40
110.866352283089995
 50
16.9596461956619784
 51
35.8365725806952398
1001
ACDBBLOCKREPETAG
1070
     1
1071
       38
1005
12ACE5
  0
ARC
  5
12ACFF
  8
OBJECT
 10
2382.8640112230928025
 20
-1077.2877497184490494
 30
0.0
 40
60.7917498803589567
 50
0.2712030171732199
 51
16.4527953477794995
1001
ACDBBLOCKREPETAG
1070
     1
1071
       39
1005
12ACE6
  0
ARC
  5
12AD00
  8
OBJECT
 10
2382.8640043437530949
 20
-1083.7122497599009421
 30
0.0
 40
60.7917567620948702
 50
343.5472205394723915
 51
359.7287965218546901
1001
ACDBBLOCKREPETAG
1070
     1
1071
       40
1005
12ACE7
  0
ARC
  5
12AD01
  8
OBJECT
 10
2335.1217271212258311
 20
-1068.5904927388360193
 30
0.0
 40
110.8663522830916008
 50
324.16342741930481
 51
343.0403538043379967
1001
ACDBBLOCKREPETAG
1070
     1
1071
       41
1005
12ACE8
  0
LINE
  5
12AD02
  8
OBJECT
 10
2443.6550800869958948
 20
-1077.000000000035925
 30
0.0
 11
2443.6550800869958948
 21
-1084.0000000000329692
 31
0.0
1001
ACDBBLOCKREPETAG
1070
     1
1071
       42
1005
12ACE9
  0
LINE
  5
12AD03
  8
OBJECT
 10
2425.0
 20
-1027.5000000000650289
 30
0.0
 11
2418.5
 21
-1027.5000000000650289
 31
0.0
1001
ACDBBLOCKREPETAG
1070
     1
1071
       43
1005
12ACEA
  0
LINE
  5
12AD04
  8
OBJECT
 10
2425.0
 20
-1133.5
 30
0.0
 11
2415.5
 21
-1133.5
 31
0.0
1001
ACDBBLOCKREPETAG
1070
     1
1071
       44
1005
12ACEB
  0
LINE
  5
12AD05
  8
OBJECT
 10
2425.0
 20
-1133.5
 30
0.0
 11
2425.0
 21
-1163.0
 31
0.0
1001
ACDBBLOCKREPETAG
1070
     1
1071
        1
1005
12ACD0
  0
LINE
  5
12AD06
  8
OBJECT
 10
4575.0
 20
-890.0
 30
0.0
 11
4575.0
 21
-1027.5000000000650289
 31
0.0
1001
ACDBBLOCKREPETAG
1070
     1
1071
        1
1005
12AD06
  0
LINE
  5
12AD07
  8
CENTER
 10
4500.0
 20
-890.0
 30
0.0
 11
4500.0
 21
-1175.0
 31
0.0
1001
ACDBBLOCKREPETAG
1070
     1
1071
        6
1005
12AD07
  0
LINE
  5
12AD08
  8
OBJECT
 10
4420.0
 20
-1175.0
 30
0.0
 11
4580.0
 21
-1175.0
 31
0.0
1001
ACDBBLOCKREPETAG
1070
     1
1071
        7
1005
12AD08
  0
LINE
  5
12AD09
  8
OBJECT
 10
4420.0
 20
-1163.0
 30
0.0
 11
4580.0
 21
-1163.0
 31
0.0
1001
ACDBBLOCKREPETAG
1070
     1
1071
        8
1005
12AD09
  0
LINE
  5
12AD0A
  8
OBJECT
 10
4420.0
 20
-1163.0
 30
0.0
 11
4420.0
 21
-1175.0
 31
0.0
1001
ACDBBLOCKREPETAG
1070
     1
1071
        9
1005
12AD0A
  0
LINE
  5
12AD0B
  8
OBJECT
 10
4580.0
 20
-1163.0
 30
0.0
 11
4580.0
 21
-1175.0
 31
0.0
1001
ACDBBLOCKREPETAG
1070
     1
1071
       10
1005
12AD0B
  0
LINE
  5
12AD0C
  8
OBJECT
 10
4633.0
 20
-1029.0
 30
0.0
 11
4640.0
 21
-1029.0
 31
0.0
1001
ACDBBLOCKREPETAG
1070
     1
1071
       23
1005
12AD0C
  0
LINE
  5
12AD0D
  8
OBJECT
 10
4640.0
 20
-1029.0
 30
0.0
 11
4640.0
 21
-1136.0
 31
0.0
1001
ACDBBLOCKREPETAG
1070
     1
1071
       24
1005
12AD0D
  0
LINE
  5
12AD0E
  8
OBJECT
 10
4584.5
 20
-1030.5000000000650289
 30
0.0
 11
4584.5
 21
-1133.5
 31
0.0
1001
ACDBBLOCKREPETAG
1070
     1
1071
       25
1005
12AD0E
  0
ARC
  5
12AD0F
  8
OBJECT
 10
4581.5
 20
-1030.5000000000650289
 30
0.0
 40
3.0
 50
0.0
 51
90.0
1001
ACDBBLOCKREPETAG
1070
     1
1071
       26
1005
12AD0F
  0
LINE
  5
12AD10
  8
OBJECT
 10
4633.0
 20
-1136.0
 30
0.0
 11
4633.0
 21
-1029.0
 31
0.0
1001
ACDBBLOCKREPETAG
1070
     1
1071
       27
1005
12AD10
  0
LINE
  5
12AD11
  8
CENTER
 10
4655.0
 20
-1084.0
 30
0.0
 11
4541.3449199130036504
 21
-1084.0000000000650289
 31
0.0
1001
ACDBBLOCKREPETAG
1070
     1
1071
       28
1005
12AD11
  0
LINE
  5
12AD12
  8
OBJECT
 10
4633.0
 20
-1032.0
 30
0.0
 11
4597.0
 21
-1032.0
 31
0.0
1001
ACDBBLOCKREPETAG
1070
     1
1071
       29
1005
12AD12
  0
LINE
  5
12AD13
  8
OBJECT
 10
4597.0
 20
-1032.0
 30
0.0
 11
4597.0
 21
-1136.0
 31
0.0
1001
ACDBBLOCKREPETAG
1070
     1
1071
       30
1005
12AD13
  0
LINE
  5
12AD14
  8
OBJECT
 10
4597.0
 20
-1136.0
 30
0.0
 11
4640.0
 21
-1136.0
 31
0.0
1001
ACDBBLOCKREPETAG
1070
     1
1071
       31
1005
12AD14
  0
LINE
  5
12AD15
  8
OBJECT
 10
4593.0
 20
-1036.5
 30
0.0
 11
4584.5
 21
-1036.5
 31
0.0
1001
ACDBBLOCKREPETAG
1070
     1
1071
       32
1005
12AD15
  0
LINE
  5
12AD16
  8
OBJECT
 10
4584.5
 20
-1131.5
 30
0.0
 11
4593.0
 21
-1131.5
 31
0.0
1001
ACDBBLOCKREPETAG
1070
     1
1071
       33
1005
12AD16
  0
LINE
  5
12AD17
  8
OBJECT
 10
4593.0
 20
-1131.5
 30
0.0
 11
4593.0
 21
-1036.5
 31
0.0
1001
ACDBBLOCKREPETAG
1070
     1
1071
       34
1005
12AD17
  0
LINE
  5
12AD18
  8
OBJECT
 10
4597.0
 20
-1032.0
 30
0.0
 11
4593.0
 21
-1036.5
 31
0.0
1001
ACDBBLOCKREPETAG
1070
     1
1071
       35
1005
12AD18
  0
LINE
  5
12AD19
  8
OBJECT
 10
4597.0
 20
-1136.0
 30
0.0
 11
4593.0
 21
-1131.5
 31
0.0
1001
ACDBBLOCKREPETAG
1070
     1
1071
       36
1005
12AD19
  0
LINE
  5
12AD1A
  8
HIDDEN
 10
4588.0
 20
-1046.0
 30
0.0
 11
4588.0
 21
-1122.0
 31
0.0
1001
ACDBBLOCKREPETAG
1070
     1
1071
       37
1005
12AD1A
  0
ARC
  5
12AD1B
  8
OBJECT
 10
4664.8782728787718952
 20
-1092.4095072612281001
 30
0.0
 40
110.866352283089995
 50
144.16342741930481
 51
163.0403538043456138
1001
ACDBBLOCKREPETAG
1070
     1
1071
       38
1005
12AD1B
  0
ARC
  5
12AD1C
  8
OBJECT
 10
4617.1359887769067427
 20
-1077.2877497184490494
 30
0.0
 40
60.7917498803589567
 50
163.5472046522131109
 51
179.7287969828265943
1001
ACDBBLOCKREPETAG
1070
     1
1071
       39
1005
12AD1C
  0
ARC
  5
12AD1D
  8
OBJECT
 10
4617.1359956562482694
 20
-1083.7122497599009421
 30
0.0
 40
60.7917567620948702
 50
180.2712034781451962
 51
196.4527794605201052
1001
ACDBBLOCKREPETAG
1070
     1
1071
       40
1005
12AD1D
  0
ARC
  5
12AD1E
  8
OBJECT
 10
4664.8782728787718952
 20
-1068.5904927388360193
 30
0.0
 40
110.8663522830916008
 50
196.9596461956543862
 51
215.83657258069519
1001
ACDBBLOCKREPETAG
1070
     1
1071
       41
1005
12AD1E
  0
LINE
  5
12AD1F
  8
OBJECT
 10
4556.3449199130036504
 20
-1077.000000000035925
 30
0.0
 11
4556.3449199130036504
 21
-1084.0000000000329692
 31
0.0
1001
ACDBBLOCKREPETAG
1070
     1
1071
       42
1005
12AD1F
  0
LINE
  5
12AD20
  8
OBJECT
 10
4575.0
 20
-1027.5000000000650289
 30
0.0
 11
4581.5
 21
-1027.5000000000650289
 31
0.0
1001
ACDBBLOCKREPETAG
1070
     1
1071
       43
1005
12AD20
  0
LINE
  5
12AD21
  8
OBJECT
 10
4575.0
 20
-1133.5
 30
0.0
 11
4584.5
 21
-1133.5
 31
0.0
1001
ACDBBLOCKREPETAG
1070
     1
1071
       44
1005
12AD21
  0
LINE
  5
12AD22
  8
OBJECT
 10
4575.0
 20
-1133.5
 30
0.0
 11
4575.0
 21
-1163.0
 31
0.0
1001
ACDBBLOCKREPETAG
1070
     1
1071
        1
1005
12AD06
  0
POINT
  5
12AD23
  8
DOTS
 10
4500.0
 20
-1136.0
 30
0.0
  0
LINE
  5
12AD24
  8
OBJECT
 10
4425.0
 20
-890.0
 30
0.0
 11
4425.0
 21
-1027.5000000000650289
 31
0.0
1001
ACDBBLOCKREPETAG
1070
     1
1071
        1
1005
12AD06
  0
LINE
  5
12AD25
  8
OBJECT
 10
4367.0
 20
-1029.0
 30
0.0
 11
4360.0
 21
-1029.0
 31
0.0
1001
ACDBBLOCKREPETAG
1070
     1
1071
       23
1005
12AD0C
  0
LINE
  5
12AD26
  8
OBJECT
 10
4360.0
 20
-1029.0
 30
0.0
 11
4360.0
 21
-1136.0
 31
0.0
1001
ACDBBLOCKREPETAG
1070
     1
1071
       24
1005
12AD0D
  0
LINE
  5
12AD27
  8
OBJECT
 10
4415.5
 20
-1030.5000000000650289
 30
0.0
 11
4415.5
 21
-1133.5
 31
0.0
1001
ACDBBLOCKREPETAG
1070
     1
1071
       25
1005
12AD0E
  0
ARC
  5
12AD28
  8
OBJECT
 10
4418.5
 20
-1030.5000000000650289
 30
0.0
 40
3.0
 50
90.0
 51
180.0
1001
ACDBBLOCKREPETAG
1070
     1
1071
       26
1005
12AD0F
  0
LINE
  5
12AD29
  8
OBJECT
 10
4367.0
 20
-1136.0
 30
0.0
 11
4367.0
 21
-1029.0
 31
0.0
1001
ACDBBLOCKREPETAG
1070
     1
1071
       27
1005
12AD10
  0
LINE
  5
12AD2A
  8
CENTER
 10
4345.0
 20
-1084.0
 30
0.0
 11
4458.6550800869936211
 21
-1084.0000000000650289
 31
0.0
1001
ACDBBLOCKREPETAG
1070
     1
1071
       28
1005
12AD11
  0
LINE
  5
12AD2B
  8
OBJECT
 10
4367.0
 20
-1032.0
 30
0.0
 11
4403.0
 21
-1032.0
 31
0.0
1001
ACDBBLOCKREPETAG
1070
     1
1071
       29
1005
12AD12
  0
LINE
  5
12AD2C
  8
OBJECT
 10
4403.0
 20
-1032.0
 30
0.0
 11
4403.0
 21
-1136.0
 31
0.0
1001
ACDBBLOCKREPETAG
1070
     1
1071
       30
1005
12AD13
  0
LINE
  5
12AD2D
  8
OBJECT
 10
4403.0
 20
-1136.0
 30
0.0
 11
4360.0
 21
-1136.0
 31
0.0
1001
ACDBBLOCKREPETAG
1070
     1
1071
       31
1005
12AD14
  0
LINE
  5
12AD2E
  8
OBJECT
 10
4407.0
 20
-1036.5
 30
0.0
 11
4415.5
 21
-1036.5
 31
0.0
1001
ACDBBLOCKREPETAG
1070
     1
1071
       32
1005
12AD15
  0
LINE
  5
12AD2F
  8
OBJECT
 10
4415.5
 20
-1131.5
 30
0.0
 11
4407.0
 21
-1131.5
 31
0.0
1001
ACDBBLOCKREPETAG
1070
     1
1071
       33
1005
12AD16
  0
LINE
  5
12AD30
  8
OBJECT
 10
4407.0
 20
-1131.5
 30
0.0
 11
4407.0
 21
-1036.5
 31
0.0
1001
ACDBBLOCKREPETAG
1070
     1
1071
       34
1005
12AD17
  0
LINE
  5
12AD31
  8
OBJECT
 10
4403.0
 20
-1032.0
 30
0.0
 11
4407.0
 21
-1036.5
 31
0.0
1001
ACDBBLOCKREPETAG
1070
     1
1071
       35
1005
12AD18
  0
LINE
  5
12AD32
  8
OBJECT
 10
4403.0
 20
-1136.0
 30
0.0
 11
4407.0
 21
-1131.5
 31
0.0
1001
ACDBBLOCKREPETAG
1070
     1
1071
       36
1005
12AD19
  0
LINE
  5
12AD33
  8
HIDDEN
 10
4412.0
 20
-1046.0
 30
0.0
 11
4412.0
 21
-1122.0
 31
0.0
1001
ACDBBLOCKREPETAG
1070
     1
1071
       37
1005
12AD1A
  0
ARC
  5
12AD34
  8
OBJECT
 10
4335.1217271212262858
 20
-1092.4095072612281001
 30
0.0
 40
110.866352283089995
 50
16.9596461956543791
 51
35.8365725806952398
1001
ACDBBLOCKREPETAG
1070
     1
1071
       38
1005
12AD1B
  0
ARC
  5
12AD35
  8
OBJECT
 10
4382.8640112230941668
 20
-1077.2877497184490494
 30
0.0
 40
60.7917498803589567
 50
0.2712030171733432
 51
16.4527953477868785
1001
ACDBBLOCKREPETAG
1070
     1
1071
       39
1005
12AD1C
  0
ARC
  5
12AD36
  8
OBJECT
 10
4382.8640043437508211
 20
-1083.7122497599009421
 30
0.0
 40
60.7917567620948702
 50
343.5472205394797811
 51
359.7287965218546901
1001
ACDBBLOCKREPETAG
1070
     1
1071
       40
1005
12AD1D
  0
ARC
  5
12AD37
  8
OBJECT
 10
4335.1217271212262858
 20
-1068.5904927388360193
 30
0.0
 40
110.8663522830916008
 50
324.16342741930481
 51
343.0403538043456138
1001
ACDBBLOCKREPETAG
1070
     1
1071
       41
1005
12AD1E
  0
LINE
  5
12AD38
  8
OBJECT
 10
4443.6550800869936211
 20
-1077.000000000035925
 30
0.0
 11
4443.6550800869936211
 21
-1084.0000000000329692
 31
0.0
1001
ACDBBLOCKREPETAG
1070
     1
1071
       42
1005
12AD1F
  0
LINE
  5
12AD39
  8
OBJECT
 10
4425.0
 20
-1027.5000000000650289
 30
0.0
 11
4418.5
 21
-1027.5000000000650289
 31
0.0
1001
ACDBBLOCKREPETAG
1070
     1
1071
       43
1005
12AD20
  0
LINE
  5
12AD3A
  8
OBJECT
 10
4425.0
 20
-1133.5
 30
0.0
 11
4415.5
 21
-1133.5
 31
0.0
1001
ACDBBLOCKREPETAG
1070
     1
1071
       44
1005
12AD21
  0
LINE
  5
12AD3B
  8
OBJECT
 10
4425.0
 20
-1133.5
 30
0.0
 11
4425.0
 21
-1163.0
 31
0.0
1001
ACDBBLOCKREPETAG
1070
     1
1071
        1
1005
12AD06
  0
LINE
  5
12B1AD
  8
OBJECT
 10
2454.3220385552458538
 20
-176.1757960752491101
 30
0.0
 11
2453.0174047416508074
 21
-174.409264512517808
 31
0.0
  0
ARC
  5
12B1AE
  8
OBJECT
 10
2450.3000008247968253
 20
-179.146185358633204
 30
0.0
 40
5.0
 50
0.0
 51
36.4469224760874084
  0
LINE
  5
12B1AF
  8
OBJECT
 10
2454.322038555373183
 20
-223.8242039246941033
 30
0.0
 11
2453.0174047417381189
 21
-225.5907354876378861
 31
0.0
  0
ARC
  5
12B1B0
  8
OBJECT
 10
2450.3000008247968253
 20
-220.8538146414809944
 30
0.0
 40
5.0
 50
323.5530775262756151
 51
0.0
  0
LINE
  5
12B1B1
  8
OBJECT
 10
2455.3000008247968253
 20
-220.8538146414809944
 30
0.0
 11
2455.3000008247968253
 21
-179.146185358633204
 31
0.0
  0
LINE
  5
12B1B2
  8
OBJECT
 10
4454.3220385552458538
 20
-176.1757960752501901
 30
0.0
 11
4453.0174047416512622
 21
-174.4092645125188881
 31
0.0
  0
ARC
  5
12B1B3
  8
OBJECT
 10
4450.3000008247972801
 20
-179.1461853586343125
 30
0.0
 40
5.0
 50
0.0
 51
36.4469224760893482
  0
LINE
  5
12B1B4
  8
OBJECT
 10
4454.322038555373183
 20
-223.8242039246952118
 30
0.0
 11
4453.0174047417376642
 21
-225.5907354876389093
 31
0.0
  0
ARC
  5
12B1B5
  8
OBJECT
 10
4450.3000008247972801
 20
-220.8538146414821028
 30
0.0
 40
5.0
 50
323.5530775262756151
 51
0.0
  0
LINE
  5
12B1B6
  8
OBJECT
 10
4455.3000008247972801
 20
-220.8538146414821028
 30
0.0
 11
4455.3000008247972801
 21
-179.1461853586343125
 31
0.0
  0
VIEWPORT
  5
F6BA7
 67
     1
  8
0
 10
195.9179030619629032
 20
101.8328354358671959
 30
0.0
 40
435.1776330165599802
 41
222.1965796813965142
 68
     1
 69
     1
1001
ACAD
1000
MVIEW
1002
{
1070
    16
1010
0.0
1020
0.0
1030
0.0
1010
0.0
1020
0.0
1030
1.0
1040
0.0
1040
222.1965796813965142
1040
195.9179030619629032
1040
101.8328354358671959
1040
50.0
1040
0.0
1040
0.0
1070
     0
1070
     0
1070
     1
1070
     1
1070
     0
1070
     0
1070
     0
1070
     0
1040
0.0
1040
0.0
1040
0.0
1040
10.0
1040
10.0
1040
10.0
1040
10.0
1070
     0
1002
{
1002
}
1002
}
  0
VIEWPORT
  5
F6BA9
 67
     1
  8
OBJECT
 10
145.3303314447402954
 20
101.8328338861465028
 30
0.0
 40
232.5285303115844044
 41
162.9325342178343021
 68
     2
 69
     2
1001
ACAD
1000
MVIEW
1002
{
1070
    16
1010
0.0
1020
0.0
1030
0.0
1010
0.0
1020
0.0
1030
1.0
1040
0.0
1040
25942.5590440314699663
1040
2377.6044570773769919
1040
-7591.5176687056618903
1040
50.0
1040
0.0
1040
0.0
1070
     0
1070
   600
1070
     1
1070
     1
1070
     0
1070
     0
1070
     0
1070
     0
1040
0.0
1040
0.0
1040
0.0
1040
1.0
1040
1.0
1040
0.0
1040
0.0
1070
     0
1002
{
1002
}
1002
}
  0
ENDSEC
  0
EOF
