  0
SECTION
  2
HEADER
  9
$ACADVER
  1
AC1009
  9
$INSBASE
 10
0.0
 20
0.0
 30
0.0
  9
$EXTMIN
 10
0.0
 20
-3982.499999999998181
 30
0.0
  9
$EXTMAX
 10
5607.5428571428556097
 20
607.5
 30
0.0
  9
$LIMMIN
 10
0.0
 20
0.0
  9
$LIMMAX
 10
210.0
 20
297.0
  9
$ORTHOMODE
 70
     0
  9
$REGENMODE
 70
     1
  9
$FILLMODE
 70
     1
  9
$QTEXTMODE
 70
     0
  9
$MIRRTEXT
 70
     0
  9
$DRAGMODE
 70
     2
  9
$LTSCALE
 40
1.0
  9
$OSMODE
 70
   381
  9
$ATTMODE
 70
     1
  9
$TEXTSIZE
 40
4.0
  9
$TRACEWID
 40
0.05
  9
$TEXTSTYLE
  7
STANDARD
  9
$CLAYER
  8
SLIM
  9
$CELTYPE
  6
BYLAYER
  9
$CECOLOR
 62
   256
  9
$DIMSCALE
 40
10.0
  9
$DIMASZ
 40
2.0
  9
$DIMEXO
 40
1.0
  9
$DIMDLI
 40
10.0
  9
$DIMRND
 40
0.0
  9
$DIMDLE
 40
0.0
  9
$DIMEXE
 40
1.0
  9
$DIMTP
 40
0.0
  9
$DIMTM
 40
0.0
  9
$DIMTXT
 40
3.2000000000000002
  9
$DIMCEN
 40
0.0
  9
$DIMTSZ
 40
0.0
  9
$DIMTOL
 70
     0
  9
$DIMLIM
 70
     0
  9
$DIMTIH
 70
     0
  9
$DIMTOH
 70
     0
  9
$DIMSE1
 70
     0
  9
$DIMSE2
 70
     0
  9
$DIMTAD
 70
     1
  9
$DIMZIN
 70
     8
  9
$DIMBLK
  1
OPEN30
  9
$DIMASO
 70
     1
  9
$DIMSHO
 70
     1
  9
$DIMPOST
  1

  9
$DIMAPOST
  1

  9
$DIMALT
 70
     0
  9
$DIMALTD
 70
     2
  9
$DIMALTF
 40
25.3999999999999986
  9
$DIMLFAC
 40
1.0
  9
$DIMTOFL
 70
     1
  9
$DIMTVP
 40
0.0
  9
$DIMTIX
 70
     0
  9
$DIMSOXD
 70
     0
  9
$DIMSAH
 70
     0
  9
$DIMBLK1
  1

  9
$DIMBLK2
  1

  9
$DIMSTYLE
  2
S10
  9
$DIMCLRD
 70
   256
  9
$DIMCLRE
 70
   256
  9
$DIMCLRT
 70
   256
  9
$DIMTFAC
 40
1.0
  9
$DIMGAP
 40
0.9
  9
$LUNITS
 70
     2
  9
$LUPREC
 70
     2
  9
$SKETCHINC
 40
0.1
  9
$FILLETRAD
 40
0.0
  9
$AUNITS
 70
     0
  9
$AUPREC
 70
     2
  9
$MENU
  1
ACAD
  9
$ELEVATION
 40
0.0
  9
$PELEVATION
 40
0.0
  9
$THICKNESS
 40
0.0
  9
$LIMCHECK
 70
     0
  9
$BLIPMODE
 70
     0
  9
$CHAMFERA
 40
2.0
  9
$CHAMFERB
 40
2.0
  9
$SKPOLY
 70
     0
  9
$TDCREATE
 40
2453095.4929398149251938
  9
$TDUPDATE
 40
2458669.4816319439560175
  9
$TDINDWG
 40
21.4414369907000015
  9
$TDUSRTIMER
 40
21.4414364468000009
  9
$USRTIMER
 70
     1
  9
$ANGBASE
 50
0.0
  9
$ANGDIR
 70
     0
  9
$PDMODE
 70
    35
  9
$PDSIZE
 40
2.0
  9
$PLINEWID
 40
0.0
  9
$COORDS
 70
     1
  9
$SPLFRAME
 70
     0
  9
$SPLINETYPE
 70
     6
  9
$SPLINESEGS
 70
     8
  9
$ATTDIA
 70
     1
  9
$ATTREQ
 70
     1
  9
$HANDLING
 70
     1
  9
$HANDSEED
  5
12747C
  9
$SURFTAB1
 70
     6
  9
$SURFTAB2
 70
     6
  9
$SURFTYPE
 70
     6
  9
$SURFU
 70
     6
  9
$SURFV
 70
     6
  9
$UCSNAME
  2

  9
$UCSORG
 10
0.0
 20
0.0
 30
0.0
  9
$UCSXDIR
 10
1.0
 20
0.0
 30
0.0
  9
$UCSYDIR
 10
0.0
 20
1.0
 30
0.0
  9
$PUCSNAME
  2

  9
$PUCSORG
 10
0.0
 20
0.0
 30
0.0
  9
$PUCSXDIR
 10
1.0
 20
0.0
 30
0.0
  9
$PUCSYDIR
 10
0.0
 20
1.0
 30
0.0
  9
$USERI1
 70
     0
  9
$USERI2
 70
     0
  9
$USERI3
 70
     0
  9
$USERI4
 70
     0
  9
$USERI5
 70
     0
  9
$USERR1
 40
0.0
  9
$USERR2
 40
0.0
  9
$USERR3
 40
0.0
  9
$USERR4
 40
0.0
  9
$USERR5
 40
0.0
  9
$WORLDVIEW
 70
     1
  9
$SHADEDGE
 70
     3
  9
$SHADEDIF
 70
    70
  9
$TILEMODE
 70
     1
  9
$MAXACTVP
 70
    64
  9
$PLIMCHECK
 70
     0
  9
$PEXTMIN
 10
29.0660662889480506
 20
20.3665667772293091
 30
0.0
  9
$PEXTMAX
 10
261.5945966005324976
 20
183.2991009950638102
 30
0.0
  9
$PLIMMIN
 10
-3.17498779296875
 20
-3.1749999523162842
  9
$PLIMMAX
 10
293.835662841796875
 20
206.8406708240509033
  9
$UNITMODE
 70
     0
  9
$VISRETAIN
 70
     1
  9
$PLINEGEN
 70
     0
  9
$PSLTSCALE
 70
     1
  0
ENDSEC
  0
SECTION
  2
TABLES
  0
TABLE
  2
VPORT
 70
     1
  0
VPORT
  2
*ACTIVE
 70
     0
 10
0.0
 20
0.0
 11
1.0
 21
1.0
 12
3183.1469169384240558
 22
-1975.488264001998914
 13
0.0
 23
0.0
 14
1.0
 24
1.0
 15
0.0
 25
0.0
 16
0.0
 26
0.0
 36
1.0
 17
0.0
 27
0.0
 37
0.0
 40
8259.990067175049262
 41
1.8275862068965509
 42
50.0
 43
0.0
 44
0.0
 50
0.0
 51
0.0
 71
     0
 72
   600
 73
     1
 74
     1
 75
     0
 76
     0
 77
     0
 78
     0
  0
ENDTAB
  0
TABLE
  2
LTYPE
 70
     3
  0
LTYPE
  2
CONTINUOUS
 70
     0
  3
Solid line
 72
    65
 73
     0
 40
0.0
  0
LTYPE
  2
ACAD_ISO08W100
 70
     0
  3
ISO long-dash short-dash ____ __ ____ __ ____ _
 72
    65
 73
     4
 40
36.0
 49
24.0
 49
-3.0
 49
6.0
 49
-3.0
  0
LTYPE
  2
ACAD_ISO02W100
 70
     0
  3
ISO dash __ __ __ __ __ __ __ __ __ __ __ __ __
 72
    65
 73
     2
 40
15.0
 49
12.0
 49
-3.0
  0
ENDTAB
  0
TABLE
  2
LAYER
 70
     8
  0
LAYER
  2
0
 70
     0
 62
     7
  6
CONTINUOUS
  0
LAYER
  2
SLIM
 70
     0
 62
     2
  6
CONTINUOUS
  0
LAYER
  2
DEFPOINTS
 70
     0
 62
     7
  6
CONTINUOUS
  0
LAYER
  2
DIM
 70
     0
 62
     7
  6
CONTINUOUS
  0
LAYER
  2
OBJECT
 70
     0
 62
     4
  6
CONTINUOUS
  0
LAYER
  2
HIDDEN
 70
     0
 62
     2
  6
ACAD_ISO02W100
  0
LAYER
  2
CENTER
 70
     0
 62
     2
  6
ACAD_ISO08W100
  0
LAYER
  2
DOTS
 70
     0
 62
     1
  6
CONTINUOUS
  0
ENDTAB
  0
TABLE
  2
STYLE
 70
     2
  0
STYLE
  2
STANDARD
 70
     0
 40
0.0
 41
0.75
 50
0.0
 71
     0
 42
4.0
  3
simplex.shx
  4
bigfont.shx
  0
ENDTAB
  0
TABLE
  2
VIEW
 70
     0
  0
ENDTAB
  0
TABLE
  2
UCS
 70
     0
  0
ENDTAB
  0
TABLE
  2
APPID
 70
    20
  0
APPID
  2
ACAD
 70
     0
  0
APPID
  2
ACADANNOTATIVE
 70
     0
  0
APPID
  2
ACAD_PSEXT
 70
     0
  0
APPID
  2
ACAD_EXEMPT_FROM_CAD_STANDARDS
 70
     0
  0
APPID
  2
ACAECLAYERSTANDARD
 70
     0
  0
APPID
  2
ACAUTHENVIRON
 70
     0
  0
APPID
  2
ACDBDYNAMICBLOCKTRUENAME
 70
     0
  0
APPID
  2
ACDBDYNAMICBLOCKGUID
 70
     0
  0
APPID
  2
ACDBBLOCKREPETAG
 70
     0
  0
APPID
  2
ACDBBLOCKREPBTAG
 70
     0
  0
APPID
  2
ACAD_NAV_VCDISPLAY
 70
     0
  0
APPID
  2
ACAD_DSTYLE_DIMRADIAL_EXTENSION
 70
     0
  0
APPID
  2
ACAD_DSTYLE_DIMJAG
 70
     0
  0
APPID
  2
ACAD_DSTYLE_DIMTALN
 70
     0
  0
APPID
  2
ACADANNOPO
 70
     0
  0
APPID
  2
GRADIENTCOLOR1ACI
 70
     0
  0
APPID
  2
GRADIENTCOLOR2ACI
 70
     0
  0
APPID
  2
ACADANNOMONITORALERTICONDI
 70
     0
  0
APPID
  2
CONTENTBLOCKICON
 70
     0
  0
APPID
  2
ACAD_MLEADERVER
 70
     0
  0
ENDTAB
  0
TABLE
  2
DIMSTYLE
 70
     3
  0
DIMSTYLE
  2
STANDARD
 70
     0
  3

  4

  5

  6

  7

 40
1.0
 41
0.18
 42
0.0625
 43
0.38
 44
0.18
 45
0.0
 46
0.0
 47
0.0
 48
0.0
140
0.18
141
0.09
142
0.0
143
25.3999999999999986
144
1.0
145
0.0
146
1.0
147
0.09
 71
     0
 72
     0
 73
     1
 74
     1
 75
     0
 76
     0
 77
     0
 78
     0
170
     0
171
     2
172
     0
173
     0
174
     0
175
     0
176
     0
177
     0
178
     0
  0
DIMSTYLE
  2
S10
 70
     0
  3

  4

  5

  6

  7

 40
10.0
 41
2.0
 42
1.0
 43
10.0
 44
1.0
 45
0.0
 46
0.0
 47
0.0
 48
0.0
140
3.2000000000000002
141
0.0
142
0.0
143
25.3999999999999986
144
1.0
145
0.0
146
1.0
147
0.9
 71
     0
 72
     0
 73
     0
 74
     0
 75
     0
 76
     0
 77
     1
 78
     8
170
     0
171
     2
172
     1
173
     0
174
     0
175
     0
176
   256
177
   256
178
   256
  0
ENDTAB
  0
ENDSEC
  0
SECTION
  2
BLOCKS
  0
BLOCK
  8
0
  2
$MODEL_SPACE
 70
     0
 10
0.0
 20
0.0
 30
0.0
  3
$MODEL_SPACE
  1

  0
ENDBLK
  5
127378
  8
0
  0
BLOCK
 67
     1
  8
0
  2
$PAPER_SPACE
 70
     0
 10
0.0
 20
0.0
 30
0.0
  3
$PAPER_SPACE
  1

  0
ENDBLK
  5
127374
 67
     1
  8
0
  0
BLOCK
  8
0
  2
_OPEN30
 70
     0
 10
0.0
 20
0.0
 30
0.0
  3
_OPEN30
  1

  0
LINE
  5
202
  8
0
  6
BYBLOCK
 62
     0
 10
-1.0
 20
0.26794919
 30
0.0
 11
0.0
 21
0.0
 31
0.0
  0
LINE
  5
203
  8
0
  6
BYBLOCK
 62
     0
 10
0.0
 20
0.0
 30
0.0
 11
-1.0
 21
-0.26794919
 31
0.0
  0
LINE
  5
204
  8
0
  6
BYBLOCK
 62
     0
 10
0.0
 20
0.0
 30
0.0
 11
-1.0
 21
0.0
 31
0.0
  0
ENDBLK
  5
206
  8
0
  0
BLOCK
  8
0
  2
*U13
 70
     1
 10
0.0
 20
0.0
 30
0.0
  3
*U13
  1

  0
TEXT
  5
127273
  8
SLIM
 10
102.0
 20
-2833.0476190469880748
 30
0.0
 40
26.0
  1
75
 50
90.0
  0
ENDBLK
  5
127275
  8
0
  0
BLOCK
  8
0
  2
*U14
 70
     1
 10
0.0
 20
0.0
 30
0.0
  3
*U14
  1

  0
TEXT
  5
127277
  8
SLIM
 10
182.9523809523809064
 20
-2939.9999999993669917
 30
0.0
 40
26.0
  1
75
  0
ENDBLK
  5
127279
  8
0
  0
BLOCK
  8
0
  2
*U15
 70
     1
 10
0.0
 20
0.0
 30
0.0
  3
*U15
  1

  0
TEXT
  5
12727B
  8
SLIM
 10
461.999999999878014
 20
-2369.0476190471449627
 30
0.0
 40
26.0
  1
65
 50
90.0
  0
ENDBLK
  5
12727D
  8
0
  0
BLOCK
  8
0
  2
*U16
 70
     1
 10
0.0
 20
0.0
 30
0.0
  3
*U16
  1

  0
TEXT
  5
12727F
  8
SLIM
 10
542.9523809522588635
 20
-2475.999999999524789
 30
0.0
 40
26.0
  1
75
  0
ENDBLK
  5
127281
  8
0
  0
BLOCK
  8
0
  2
*U17
 70
     1
 10
0.0
 20
0.0
 30
0.0
  3
*U17
  1

  0
TEXT
  5
127283
  8
SLIM
 10
101.9999999999996021
 20
-2369.0476190471449627
 30
0.0
 40
26.0
  1
50
 50
90.0
  0
ENDBLK
  5
127285
  8
0
  0
BLOCK
  8
0
  2
*U18
 70
     1
 10
0.0
 20
0.0
 30
0.0
  3
*U18
  1

  0
TEXT
  5
127287
  8
SLIM
 10
182.9523809523805085
 20
-2475.999999999524789
 30
0.0
 40
26.0
  1
75
  0
ENDBLK
  5
127289
  8
0
  0
BLOCK
  8
0
  2
*U19
 70
     1
 10
0.0
 20
0.0
 30
0.0
  3
*U19
  1

  0
TEXT
  5
12728B
  8
SLIM
 10
461.999999999878014
 20
-1905.0476190473029874
 30
0.0
 40
26.0
  1
75
 50
90.0
  0
ENDBLK
  5
12728D
  8
0
  0
BLOCK
  8
0
  2
*U20
 70
     1
 10
0.0
 20
0.0
 30
0.0
  3
*U20
  1

  0
TEXT
  5
12728F
  8
SLIM
 10
542.9523809522588635
 20
-2011.9999999996839506
 30
0.0
 40
26.0
  1
65
  0
ENDBLK
  5
127291
  8
0
  0
BLOCK
  8
0
  2
*U21
 70
     1
 10
0.0
 20
0.0
 30
0.0
  3
*U21
  1

  0
TEXT
  5
127293
  8
SLIM
 10
102.0
 20
-1905.0476190473029874
 30
0.0
 40
26.0
  1
65
 50
90.0
  0
ENDBLK
  5
127295
  8
0
  0
BLOCK
  8
0
  2
*U22
 70
     1
 10
0.0
 20
0.0
 30
0.0
  3
*U22
  1

  0
TEXT
  5
127297
  8
SLIM
 10
182.9523809523809064
 20
-2011.9999999996839506
 30
0.0
 40
26.0
  1
65
  0
ENDBLK
  5
127299
  8
0
  0
BLOCK
  8
0
  2
*U23
 70
     1
 10
0.0
 20
0.0
 30
0.0
  3
*U23
  1

  0
TEXT
  5
12729B
  8
SLIM
 10
461.999999999878014
 20
-1441.0476190474610121
 30
0.0
 40
26.0
  1
50
 50
90.0
  0
ENDBLK
  5
12729D
  8
0
  0
BLOCK
  8
0
  2
*U24
 70
     1
 10
0.0
 20
0.0
 30
0.0
  3
*U24
  1

  0
TEXT
  5
12729F
  8
SLIM
 10
542.9523809522588635
 20
-1547.9999999998419753
 30
0.0
 40
26.0
  1
65
  0
ENDBLK
  5
1272A1
  8
0
  0
BLOCK
  8
0
  2
*U25
 70
     1
 10
0.0
 20
0.0
 30
0.0
  3
*U25
  1

  0
TEXT
  5
1272A3
  8
SLIM
 10
102.0
 20
-1441.0476190474610121
 30
0.0
 40
26.0
  1
75
 50
90.0
  0
ENDBLK
  5
1272A5
  8
0
  0
BLOCK
  8
0
  2
*U26
 70
     1
 10
0.0
 20
0.0
 30
0.0
  3
*U26
  1

  0
TEXT
  5
1272A7
  8
SLIM
 10
182.9523809523809064
 20
-1547.9999999998419753
 30
0.0
 40
26.0
  1
50
  0
ENDBLK
  5
1272A9
  8
0
  0
BLOCK
  8
0
  2
*U27
 70
     1
 10
0.0
 20
0.0
 30
0.0
  3
*U27
  1

  0
TEXT
  5
1272AB
  8
SLIM
 10
461.999999999878014
 20
-977.0476190476188094
 30
0.0
 40
26.0
  1
65
 50
90.0
  0
ENDBLK
  5
1272AD
  8
0
  0
BLOCK
  8
0
  2
*U28
 70
     1
 10
0.0
 20
0.0
 30
0.0
  3
*U28
  1

  0
TEXT
  5
1272AF
  8
SLIM
 10
542.9523809522588635
 20
-1084.0
 30
0.0
 40
26.0
  1
50
  0
ENDBLK
  5
1272B1
  8
0
  0
BLOCK
  8
0
  2
*U29
 70
     1
 10
0.0
 20
0.0
 30
0.0
  3
*U29
  1

  0
TEXT
  5
1272B3
  8
SLIM
 10
102.0
 20
-977.0476190476188094
 30
0.0
 40
26.0
  1
50
 50
90.0
  0
ENDBLK
  5
1272B5
  8
0
  0
BLOCK
  8
0
  2
*U30
 70
     1
 10
0.0
 20
0.0
 30
0.0
  3
*U30
  1

  0
TEXT
  5
1272B7
  8
SLIM
 10
182.9523809523809064
 20
-1084.0
 30
0.0
 40
26.0
  1
50
  0
ENDBLK
  5
1272B9
  8
0
  0
BLOCK
  8
0
  2
*U31
 70
     1
 10
0.0
 20
0.0
 30
0.0
  3
*U31
  1

  0
TEXT
  5
1272ED
  8
SLIM
 10
158.9523809524228
 20
-130.0000000001718092
 30
0.0
 40
26.0
  1
75
  0
ENDBLK
  5
1272EF
  8
0
  0
BLOCK
  8
0
  2
*U32
 70
     1
 10
0.0
 20
0.0
 30
0.0
  3
*U32
  1

  0
TEXT
  5
1272F1
  8
DIM
 10
4334.1164560757752042
 20
-1378.7428571428561099
 30
0.0
 40
32.0
  1
m（シンドカット）
 50
90.0
 41
0.75
  0
ENDBLK
  5
1272F3
  8
0
  0
BLOCK
  8
0
  2
*U33
 70
     1
 10
0.0
 20
0.0
 30
0.0
  3
*U33
  1

  0
TEXT
  5
1272F5
  8
DIM
 10
4700.424581672756176
 20
-924.0000000000012506
 30
0.0
 40
32.0
  1
P
 50
90.0
 41
0.75
  0
ENDBLK
  5
1272F7
  8
0
  0
BLOCK
  8
0
  2
*U34
 70
     1
 10
0.0
 20
0.0
 30
0.0
  3
*U34
  1

  0
TEXT
  5
1272F9
  8
DIM
 10
2700.4245816727570855
 20
-923.9999999999997726
 30
0.0
 40
32.0
  1
P
 50
90.0
 41
0.75
  0
ENDBLK
  5
1272FB
  8
0
  0
BLOCK
  8
0
  2
*U35
 70
     1
 10
0.0
 20
0.0
 30
0.0
  3
*U35
  1

  0
TEXT
  5
1272FD
  8
DIM
 10
2709.4796205944589929
 20
-3469.1428571428527903
 30
0.0
 40
32.0
  1
A
 50
90.0
 41
0.75
  0
ENDBLK
  5
1272FF
  8
0
  0
BLOCK
  8
0
  2
*U36
 70
     1
 10
0.0
 20
0.0
 30
0.0
  3
*U36
  1

  0
TEXT
  5
127301
  8
DIM
 10
2707.8409284037338693
 20
-3850.9999999999968168
 30
0.0
 40
32.0
  1
B
 50
90.0
 41
0.75
  0
ENDBLK
  5
127303
  8
0
  0
BLOCK
  8
0
  2
*U37
 70
     1
 10
0.0
 20
0.0
 30
0.0
  3
*U37
  1

  0
TEXT
  5
127305
  8
DIM
 10
2561.4285714285711038
 20
-3323.2081219844449151
 30
0.0
 40
32.0
  1
C
 41
0.75
  0
ENDBLK
  5
127307
  8
0
  0
ENDSEC
  0
SECTION
  2
ENTITIES
  0
LINE
  5
11273E
  8
OBJECT
 10
2325.0
 20
-3864.9999999999968168
 30
0.0
 11
5075.0
 21
-3864.9999999999968168
 31
0.0
  0
LINE
  5
11412B
  8
SLIM
 10
3256.0
 20
-2922.5000160472709467
 30
0.0
 11
3256.0
 21
-3252.5000160472709467
 31
0.0
  0
LINE
  5
11412C
  8
SLIM
 10
3380.0
 20
-2922.5000160472709467
 30
0.0
 11
3380.0
 21
-3252.5000160472709467
 31
0.0
  0
LINE
  5
11412D
  8
SLIM
 10
3510.0
 20
-2982.5000160472700372
 30
0.0
 11
3510.0
 21
-3252.5000160472709467
 31
0.0
  0
LINE
  5
11412E
  8
SLIM
 10
3640.0
 20
-2982.5000160472700372
 30
0.0
 11
3640.0
 21
-3252.5000160472709467
 31
0.0
  0
LINE
  5
11412F
  8
SLIM
 10
3770.0
 20
-3252.5000160472709467
 30
0.0
 11
3770.0
 21
-2922.5000160472709467
 31
0.0
  0
LINE
  5
114131
  8
SLIM
 10
3770.0
 20
-2922.5000160472709467
 30
0.0
 11
3256.0
 21
-2922.5000160472709467
 31
0.0
  0
LINE
  5
114132
  8
SLIM
 10
3769.9999999999990905
 20
-2982.5000160472700372
 30
0.0
 11
3380.0
 21
-2982.5000160472700372
 31
0.0
  0
LINE
  5
114133
  8
SLIM
 10
3770.0
 20
-3042.5000160472709467
 30
0.0
 11
3256.0
 21
-3042.5000160472709467
 31
0.0
  0
LINE
  5
114134
  8
SLIM
 10
3770.0
 20
-3112.5000160472709467
 30
0.0
 11
3256.0
 21
-3112.5000160472709467
 31
0.0
  0
LINE
  5
114135
  8
SLIM
 10
3770.0
 20
-3182.5000160472709467
 30
0.0
 11
3256.0
 21
-3182.5000160472709467
 31
0.0
  0
LINE
  5
114136
  8
SLIM
 10
3770.0
 20
-3252.5000160472709467
 30
0.0
 11
3256.0
 21
-3252.5000160472709467
 31
0.0
  0
LINE
  5
11414B
  8
SLIM
 10
3380.0
 20
-3042.5000160472709467
 30
0.0
 11
3255.9999722746579209
 21
-2922.5000000000009095
 31
0.0
  0
LINE
  5
12250A
  8
OBJECT
 10
2555.0
 20
-66.9999999999990905
 30
0.0
 11
2555.0
 21
-59.9999999999990905
 31
0.0
1001
ACDBBLOCKREPETAG
1070
     1
1071
       20
1005
12250A
  0
LINE
  5
12250B
  8
OBJECT
 10
2555.0
 20
-59.9999999999990905
 30
0.0
 11
2445.0
 21
-59.9999999999990905
 31
0.0
1001
ACDBBLOCKREPETAG
1070
     1
1071
       21
1005
12250B
  0
LINE
  5
12250C
  8
OBJECT
 10
2445.0
 20
-59.9999999999990905
 30
0.0
 11
2445.0
 21
-66.9999999999990905
 31
0.0
1001
ACDBBLOCKREPETAG
1070
     1
1071
       22
1005
12250C
  0
LINE
  5
12250D
  8
OBJECT
 10
2445.0
 20
-66.9999999999990905
 30
0.0
 11
2555.0
 21
-66.9999999999990905
 31
0.0
1001
ACDBBLOCKREPETAG
1070
     1
1071
       23
1005
12250D
  0
LINE
  5
12250E
  8
CENTER
 10
2500.0
 20
-44.9999999999990905
 30
0.0
 11
2500.0
 21
-119.9999999999991047
 31
0.0
1001
ACDBBLOCKREPETAG
1070
     1
1071
       24
1005
12250E
  0
LINE
  5
12250F
  8
OBJECT
 10
2552.0
 20
-66.9999999999990905
 30
0.0
 11
2552.0
 21
-102.9999999999991047
 31
0.0
1001
ACDBBLOCKREPETAG
1070
     1
1071
       25
1005
12250F
  0
LINE
  5
122510
  8
OBJECT
 10
2552.0
 20
-102.9999999999991047
 30
0.0
 11
2448.0
 21
-102.9999999999991047
 31
0.0
1001
ACDBBLOCKREPETAG
1070
     1
1071
       26
1005
122510
  0
LINE
  5
122511
  8
OBJECT
 10
2448.0
 20
-102.9999999999991047
 30
0.0
 11
2448.0
 21
-66.9999999999990905
 31
0.0
1001
ACDBBLOCKREPETAG
1070
     1
1071
       27
1005
122511
  0
LINE
  5
122512
  8
OBJECT
 10
2547.5
 20
-106.9999999999991047
 30
0.0
 11
2547.5
 21
-115.4999999999991047
 31
0.0
1001
ACDBBLOCKREPETAG
1070
     1
1071
       28
1005
122512
  0
LINE
  5
122513
  8
OBJECT
 10
2452.5000000000009095
 20
-115.4999999999991047
 30
0.0
 11
2452.5000000000009095
 21
-106.9999999999991047
 31
0.0
1001
ACDBBLOCKREPETAG
1070
     1
1071
       29
1005
122513
  0
LINE
  5
122514
  8
OBJECT
 10
2452.5000000000009095
 20
-106.9999999999991047
 30
0.0
 11
2547.5
 21
-106.9999999999991047
 31
0.0
1001
ACDBBLOCKREPETAG
1070
     1
1071
       30
1005
122514
  0
LINE
  5
122515
  8
OBJECT
 10
2552.0
 20
-102.9999999999991047
 30
0.0
 11
2547.5
 21
-106.9999999999991047
 31
0.0
1001
ACDBBLOCKREPETAG
1070
     1
1071
       31
1005
122515
  0
LINE
  5
122516
  8
OBJECT
 10
2448.0
 20
-102.9999999999991047
 30
0.0
 11
2452.5000000000009095
 21
-106.9999999999991047
 31
0.0
1001
ACDBBLOCKREPETAG
1070
     1
1071
       32
1005
122516
  0
LINE
  5
122517
  8
OBJECT
 10
2450.5
 20
-115.5000000000007958
 30
0.0
 11
2549.5
 21
-115.4999999999991047
 31
0.0
1001
ACDBBLOCKREPETAG
1070
     1
1071
       33
1005
122517
  0
LINE
  5
122518
  8
HIDDEN
 10
2538.0
 20
-111.9999999999991047
 30
0.0
 11
2462.0
 21
-111.9999999999991047
 31
0.0
1001
ACDBBLOCKREPETAG
1070
     1
1071
       34
1005
122518
  0
LINE
  5
122519
  8
OBJECT
 10
2549.5
 20
-115.4999999999991047
 30
0.0
 11
2549.5
 21
-137.1529634747977013
 31
0.0
1001
ACDBBLOCKREPETAG
1070
     1
1071
       35
1005
122519
  0
LINE
  5
12251A
  8
OBJECT
 10
2450.5
 20
-115.5000000000007958
 30
0.0
 11
2450.5
 21
-137.1529634747977013
 31
0.0
1001
ACDBBLOCKREPETAG
1070
     1
1071
       36
1005
12251A
  0
CIRCLE
  5
122542
  8
OBJECT
 10
2500.0
 20
-199.9999999999990905
 30
0.0
 40
53.5
1001
ACDBBLOCKREPETAG
1070
     1
1071
      344
1005
122542
  0
POINT
  5
122543
  8
DOTS
 10
2500.0
 20
-199.9999999999990905
 30
0.0
 50
270.0
1001
ACDBBLOCKREPETAG
1070
     1
1071
      362
1005
122543
  0
LINE
  5
122545
  8
CENTER
 10
2580.0
 20
-199.9999999999990905
 30
0.0
 11
2405.0
 21
-199.9999999999990905
 31
0.0
1001
ACDBBLOCKREPETAG
1070
     1
1071
       14
1005
122545
  0
LINE
  5
122546
  8
CENTER
 10
2500.0
 20
-294.9999999999990905
 30
0.0
 11
2500.0
 21
-104.9999999999991047
 31
0.0
1001
ACDBBLOCKREPETAG
1070
     1
1071
       15
1005
122546
  0
CIRCLE
  5
122547
  8
OBJECT
 10
2500.0
 20
-199.9999999999990905
 30
0.0
 40
70.0
1001
ACDBBLOCKREPETAG
1070
     1
1071
       16
1005
122547
  0
CIRCLE
  5
122548
  8
OBJECT
 10
2500.0
 20
-199.9999999999990905
 30
0.0
 40
77.0
1001
ACDBBLOCKREPETAG
1070
     1
1071
       17
1005
122548
  0
ARC
  5
122549
  8
OBJECT
 10
2500.0
 20
-199.9999999999990905
 30
0.0
 40
80.0
 50
50.8050325740170905
 51
309.1949674261352925
1001
ACDBBLOCKREPETAG
1070
     1
1071
       18
1005
122549
  0
LINE
  5
12254A
  8
OBJECT
 10
2545.6618002273248749
 20
-137.9999999999990905
 30
0.0
 11
2580.0
 21
-137.9999999999990905
 31
0.0
1001
ACDBBLOCKREPETAG
1070
     1
1071
       19
1005
12254A
  0
LINE
  5
12254B
  8
OBJECT
 10
2545.6618002273248749
 20
-261.9999999999990905
 30
0.0
 11
2580.0
 21
-261.9999999999990905
 31
0.0
1001
ACDBBLOCKREPETAG
1070
     1
1071
       20
1005
12254B
  0
LINE
  5
1238B4
  8
CENTER
 10
2580.0
 20
-3459.9999999999968168
 30
0.0
 11
2410.0
 21
-3459.9999999999968168
 31
0.0
1001
ACDBBLOCKREPETAG
1070
     1
1071
       14
1005
122545
  0
LINE
  5
1238B5
  8
CENTER
 10
2500.0
 20
-3549.9999999999968168
 30
0.0
 11
2500.0
 21
-3369.9999999999968168
 31
0.0
1001
ACDBBLOCKREPETAG
1070
     1
1071
       15
1005
122546
  0
CIRCLE
  5
1238B6
  8
OBJECT
 10
2500.0
 20
-3459.9999999999968168
 30
0.0
 40
70.0
1001
ACDBBLOCKREPETAG
1070
     1
1071
       16
1005
122547
  0
CIRCLE
  5
1238B7
  8
OBJECT
 10
2500.0
 20
-3459.9999999999968168
 30
0.0
 40
75.0
1001
ACDBBLOCKREPETAG
1070
     1
1071
       17
1005
122548
  0
LINE
  5
123927
  8
CENTER
 10
2500.0
 20
-3644.9999999999990905
 30
0.0
 11
2500.0
 21
-3891.9999999999990905
 31
0.0
1001
ACDBBLOCKREPETAG
1070
     1
1071
       25
1005
123927
  0
LINE
  5
123928
  8
OBJECT
 10
2425.0
 20
-3659.9999999999968168
 30
0.0
 11
2425.0
 21
-3879.9999999999990905
 31
0.0
1001
ACDBBLOCKREPETAG
1070
     1
1071
       26
1005
123928
  0
LINE
  5
12392C
  8
OBJECT
 10
2575.0
 20
-3659.9999999999968168
 30
0.0
 11
2575.0
 21
-3756.5000000000618456
 31
0.0
1001
ACDBBLOCKREPETAG
1070
     1
1071
       34
1005
12392C
  0
LINE
  5
123A5C
  8
OBJECT
 10
2575.0
 20
-3862.4999999999990905
 30
0.0
 11
2575.0
 21
-3879.9999999999990905
 31
0.0
1001
ACDBBLOCKREPETAG
1070
     1
1071
       34
1005
12392C
  0
LINE
  5
123A5E
  8
CENTER
 10
2900.0
 20
-3644.9999999999990905
 30
0.0
 11
2900.0
 21
-3891.9999999999990905
 31
0.0
1001
ACDBBLOCKREPETAG
1070
     1
1071
       25
1005
123927
  0
LINE
  5
123A5F
  8
OBJECT
 10
2825.0
 20
-3659.9999999999968168
 30
0.0
 11
2825.0
 21
-3879.9999999999990905
 31
0.0
1001
ACDBBLOCKREPETAG
1070
     1
1071
       26
1005
123928
  0
LINE
  5
123A60
  8
OBJECT
 10
2975.0
 20
-3659.9999999999968168
 30
0.0
 11
2975.0
 21
-3879.9999999999990905
 31
0.0
1001
ACDBBLOCKREPETAG
1070
     1
1071
       34
1005
12392C
  0
LINE
  5
123AD2
  8
CENTER
 10
3580.0
 20
-3459.9999999999968168
 30
0.0
 11
3410.0
 21
-3459.9999999999968168
 31
0.0
1001
ACDBBLOCKREPETAG
1070
     1
1071
       14
1005
122545
  0
LINE
  5
123AD3
  8
CENTER
 10
3500.0
 20
-3549.9999999999968168
 30
0.0
 11
3500.0
 21
-3369.9999999999968168
 31
0.0
1001
ACDBBLOCKREPETAG
1070
     1
1071
       15
1005
122546
  0
CIRCLE
  5
123AD4
  8
OBJECT
 10
3500.0
 20
-3459.9999999999968168
 30
0.0
 40
70.0
1001
ACDBBLOCKREPETAG
1070
     1
1071
       16
1005
122547
  0
CIRCLE
  5
123AD5
  8
OBJECT
 10
3500.0
 20
-3459.9999999999968168
 30
0.0
 40
75.0
1001
ACDBBLOCKREPETAG
1070
     1
1071
       17
1005
122548
  0
LINE
  5
123ADD
  8
CENTER
 10
3500.0
 20
-3644.9999999999990905
 30
0.0
 11
3500.0
 21
-3891.9999999999990905
 31
0.0
1001
ACDBBLOCKREPETAG
1070
     1
1071
       25
1005
123927
  0
LINE
  5
123ADE
  8
OBJECT
 10
3424.9999999999990905
 20
-3659.9999999999968168
 30
0.0
 11
3424.9999999999990905
 21
-3879.9999999999990905
 31
0.0
1001
ACDBBLOCKREPETAG
1070
     1
1071
       26
1005
123928
  0
LINE
  5
123ADF
  8
OBJECT
 10
3574.9999999999990905
 20
-3659.9999999999968168
 30
0.0
 11
3574.9999999999990905
 21
-3756.5000000000618456
 31
0.0
1001
ACDBBLOCKREPETAG
1070
     1
1071
       34
1005
12392C
  0
LINE
  5
123AE0
  8
OBJECT
 10
3574.9999999999990905
 20
-3862.4999999999990905
 30
0.0
 11
3574.9999999999990905
 21
-3879.9999999999990905
 31
0.0
1001
ACDBBLOCKREPETAG
1070
     1
1071
       34
1005
12392C
  0
LINE
  5
123AE8
  8
CENTER
 10
3900.0
 20
-3644.9999999999990905
 30
0.0
 11
3900.0
 21
-3891.9999999999990905
 31
0.0
1001
ACDBBLOCKREPETAG
1070
     1
1071
       25
1005
123927
  0
LINE
  5
123AE9
  8
OBJECT
 10
3824.9999999999990905
 20
-3659.9999999999968168
 30
0.0
 11
3824.9999999999990905
 21
-3879.9999999999990905
 31
0.0
1001
ACDBBLOCKREPETAG
1070
     1
1071
       26
1005
123928
  0
LINE
  5
123AEA
  8
OBJECT
 10
3975.0
 20
-3659.9999999999968168
 30
0.0
 11
3975.0
 21
-3879.9999999999990905
 31
0.0
1001
ACDBBLOCKREPETAG
1070
     1
1071
       34
1005
12392C
  0
LINE
  5
123B38
  8
CENTER
 10
4579.9999999999990905
 20
-3459.9999999999968168
 30
0.0
 11
4409.9999999999990905
 21
-3459.9999999999968168
 31
0.0
1001
ACDBBLOCKREPETAG
1070
     1
1071
       14
1005
122545
  0
LINE
  5
123B39
  8
CENTER
 10
4499.9999999999990905
 20
-3549.9999999999968168
 30
0.0
 11
4499.9999999999990905
 21
-3369.9999999999968168
 31
0.0
1001
ACDBBLOCKREPETAG
1070
     1
1071
       15
1005
122546
  0
CIRCLE
  5
123B3A
  8
OBJECT
 10
4499.9999999999990905
 20
-3459.9999999999968168
 30
0.0
 40
70.0
1001
ACDBBLOCKREPETAG
1070
     1
1071
       16
1005
122547
  0
CIRCLE
  5
123B3B
  8
OBJECT
 10
4499.9999999999990905
 20
-3459.9999999999968168
 30
0.0
 40
75.0
1001
ACDBBLOCKREPETAG
1070
     1
1071
       17
1005
122548
  0
LINE
  5
123B43
  8
CENTER
 10
4500.0
 20
-3644.9999999999990905
 30
0.0
 11
4500.0
 21
-3891.9999999999990905
 31
0.0
1001
ACDBBLOCKREPETAG
1070
     1
1071
       25
1005
123927
  0
LINE
  5
123B44
  8
OBJECT
 10
4425.0
 20
-3659.9999999999968168
 30
0.0
 11
4425.0
 21
-3879.9999999999990905
 31
0.0
1001
ACDBBLOCKREPETAG
1070
     1
1071
       26
1005
123928
  0
LINE
  5
123B45
  8
OBJECT
 10
4575.0
 20
-3659.9999999999968168
 30
0.0
 11
4575.0
 21
-3756.5000000000618456
 31
0.0
1001
ACDBBLOCKREPETAG
1070
     1
1071
       34
1005
12392C
  0
LINE
  5
123B46
  8
OBJECT
 10
4575.0
 20
-3862.4999999999990905
 30
0.0
 11
4575.0
 21
-3879.9999999999990905
 31
0.0
1001
ACDBBLOCKREPETAG
1070
     1
1071
       34
1005
12392C
  0
LINE
  5
123B4E
  8
CENTER
 10
4900.0
 20
-3644.9999999999990905
 30
0.0
 11
4900.0
 21
-3891.9999999999990905
 31
0.0
1001
ACDBBLOCKREPETAG
1070
     1
1071
       25
1005
123927
  0
LINE
  5
123B4F
  8
OBJECT
 10
4825.0
 20
-3659.9999999999968168
 30
0.0
 11
4825.0
 21
-3879.9999999999990905
 31
0.0
1001
ACDBBLOCKREPETAG
1070
     1
1071
       26
1005
123928
  0
LINE
  5
123B50
  8
OBJECT
 10
4975.0
 20
-3659.9999999999968168
 30
0.0
 11
4974.9999999999990905
 21
-3879.9999999999990905
 31
0.0
1001
ACDBBLOCKREPETAG
1070
     1
1071
       34
1005
12392C
  0
POINT
  5
124C02
  8
DOTS
 10
2500.0
 20
-3459.9999999999968168
 30
0.0
  0
POINT
  5
124C03
  8
DOTS
 10
2500.0
 20
-3864.9999999999968168
 30
0.0
  0
POINT
  5
124C05
  8
DOTS
 10
3500.0
 20
-3864.9999999999968168
 30
0.0
  0
POINT
  5
124C07
  8
DOTS
 10
3500.0
 20
-3459.9999999999968168
 30
0.0
  0
POINT
  5
124C08
  8
DOTS
 10
4499.9999999999990905
 20
-3459.9999999999968168
 30
0.0
  0
POINT
  5
124C09
  8
DOTS
 10
4499.9999999999990905
 20
-3864.9999999999968168
 30
0.0
  0
LINE
  5
124F81
  8
OBJECT
 10
4555.0
 20
-66.9999999999990905
 30
0.0
 11
4555.0
 21
-59.9999999999990905
 31
0.0
1001
ACDBBLOCKREPETAG
1070
     1
1071
       20
1005
12250A
  0
LINE
  5
124F82
  8
OBJECT
 10
4555.0
 20
-59.9999999999990905
 30
0.0
 11
4445.0
 21
-59.9999999999990905
 31
0.0
1001
ACDBBLOCKREPETAG
1070
     1
1071
       21
1005
12250B
  0
LINE
  5
124F83
  8
OBJECT
 10
4445.0
 20
-59.9999999999990905
 30
0.0
 11
4445.0
 21
-66.9999999999990905
 31
0.0
1001
ACDBBLOCKREPETAG
1070
     1
1071
       22
1005
12250C
  0
LINE
  5
124F84
  8
OBJECT
 10
4445.0
 20
-66.9999999999990905
 30
0.0
 11
4555.0
 21
-66.9999999999990905
 31
0.0
1001
ACDBBLOCKREPETAG
1070
     1
1071
       23
1005
12250D
  0
LINE
  5
124F85
  8
CENTER
 10
4500.0
 20
-44.9999999999990905
 30
0.0
 11
4500.0
 21
-119.9999999999991047
 31
0.0
1001
ACDBBLOCKREPETAG
1070
     1
1071
       24
1005
12250E
  0
LINE
  5
124F86
  8
OBJECT
 10
4552.0
 20
-66.9999999999990905
 30
0.0
 11
4552.0
 21
-102.9999999999991047
 31
0.0
1001
ACDBBLOCKREPETAG
1070
     1
1071
       25
1005
12250F
  0
LINE
  5
124F87
  8
OBJECT
 10
4552.0
 20
-102.9999999999991047
 30
0.0
 11
4448.0
 21
-102.9999999999991047
 31
0.0
1001
ACDBBLOCKREPETAG
1070
     1
1071
       26
1005
122510
  0
LINE
  5
124F88
  8
OBJECT
 10
4448.0
 20
-102.9999999999991047
 30
0.0
 11
4448.0
 21
-66.9999999999990905
 31
0.0
1001
ACDBBLOCKREPETAG
1070
     1
1071
       27
1005
122511
  0
LINE
  5
124F89
  8
OBJECT
 10
4547.5
 20
-106.9999999999991047
 30
0.0
 11
4547.5
 21
-115.4999999999991047
 31
0.0
1001
ACDBBLOCKREPETAG
1070
     1
1071
       28
1005
122512
  0
LINE
  5
124F8A
  8
OBJECT
 10
4452.4999999999990905
 20
-115.4999999999991047
 30
0.0
 11
4452.4999999999990905
 21
-106.9999999999991047
 31
0.0
1001
ACDBBLOCKREPETAG
1070
     1
1071
       29
1005
122513
  0
LINE
  5
124F8B
  8
OBJECT
 10
4452.4999999999990905
 20
-106.9999999999991047
 30
0.0
 11
4547.5
 21
-106.9999999999991047
 31
0.0
1001
ACDBBLOCKREPETAG
1070
     1
1071
       30
1005
122514
  0
LINE
  5
124F8C
  8
OBJECT
 10
4552.0
 20
-102.9999999999991047
 30
0.0
 11
4547.5
 21
-106.9999999999991047
 31
0.0
1001
ACDBBLOCKREPETAG
1070
     1
1071
       31
1005
122515
  0
LINE
  5
124F8D
  8
OBJECT
 10
4448.0
 20
-102.9999999999991047
 30
0.0
 11
4452.4999999999990905
 21
-106.9999999999991047
 31
0.0
1001
ACDBBLOCKREPETAG
1070
     1
1071
       32
1005
122516
  0
LINE
  5
124F8E
  8
OBJECT
 10
4450.5
 20
-115.5000000000007958
 30
0.0
 11
4549.5
 21
-115.4999999999991047
 31
0.0
1001
ACDBBLOCKREPETAG
1070
     1
1071
       33
1005
122517
  0
LINE
  5
124F8F
  8
HIDDEN
 10
4538.0
 20
-111.9999999999991047
 30
0.0
 11
4462.0
 21
-111.9999999999991047
 31
0.0
1001
ACDBBLOCKREPETAG
1070
     1
1071
       34
1005
122518
  0
LINE
  5
124F90
  8
OBJECT
 10
4549.5
 20
-115.4999999999991047
 30
0.0
 11
4549.5
 21
-137.1529634747977013
 31
0.0
1001
ACDBBLOCKREPETAG
1070
     1
1071
       35
1005
122519
  0
LINE
  5
124F91
  8
OBJECT
 10
4450.5
 20
-115.5000000000007958
 30
0.0
 11
4450.5
 21
-137.1529634747977013
 31
0.0
1001
ACDBBLOCKREPETAG
1070
     1
1071
       36
1005
12251A
  0
CIRCLE
  5
124F99
  8
OBJECT
 10
4500.0
 20
-199.9999999999990905
 30
0.0
 40
53.5
1001
ACDBBLOCKREPETAG
1070
     1
1071
      344
1005
122542
  0
POINT
  5
124F9A
  8
DOTS
 10
4500.0
 20
-199.9999999999990905
 30
0.0
 50
270.0
1001
ACDBBLOCKREPETAG
1070
     1
1071
      362
1005
122543
  0
LINE
  5
124F9C
  8
CENTER
 10
4580.0
 20
-199.9999999999990905
 30
0.0
 11
4400.0
 21
-199.9999999999990905
 31
0.0
1001
ACDBBLOCKREPETAG
1070
     1
1071
       14
1005
122545
  0
LINE
  5
124F9D
  8
CENTER
 10
4500.0
 20
-299.9999999999990905
 30
0.0
 11
4500.0
 21
-104.9999999999991047
 31
0.0
1001
ACDBBLOCKREPETAG
1070
     1
1071
       15
1005
122546
  0
CIRCLE
  5
124F9E
  8
OBJECT
 10
4500.0
 20
-199.9999999999990905
 30
0.0
 40
70.0
1001
ACDBBLOCKREPETAG
1070
     1
1071
       16
1005
122547
  0
CIRCLE
  5
124F9F
  8
OBJECT
 10
4500.0
 20
-199.9999999999990905
 30
0.0
 40
77.0
1001
ACDBBLOCKREPETAG
1070
     1
1071
       17
1005
122548
  0
ARC
  5
124FA0
  8
OBJECT
 10
4500.0
 20
-199.9999999999990905
 30
0.0
 40
80.0
 50
50.805032574025482
 51
309.1949674261081782
1001
ACDBBLOCKREPETAG
1070
     1
1071
       18
1005
122549
  0
LINE
  5
124FA1
  8
OBJECT
 10
4545.6618002273244201
 20
-137.9999999999990905
 30
0.0
 11
4580.0
 21
-137.9999999999990905
 31
0.0
1001
ACDBBLOCKREPETAG
1070
     1
1071
       19
1005
12254A
  0
LINE
  5
124FA2
  8
OBJECT
 10
4545.6618002273244201
 20
-261.9999999999990905
 30
0.0
 11
4580.0
 21
-261.9999999999990905
 31
0.0
1001
ACDBBLOCKREPETAG
1070
     1
1071
       20
1005
12254B
  0
ARC
  5
124FA4
  8
OBJECT
 10
4500.0
 20
-199.9999999999990905
 30
0.0
 40
85.0
 50
125.6162067285033999
 51
144.3837932714932037
1001
ACDBBLOCKREPETAG
1070
     1
1071
       18
1005
122549
  0
ARC
  5
124FA5
  8
OBJECT
 10
4500.0
 20
-199.9999999999990905
 30
0.0
 40
85.0
 50
46.8371028597028172
 51
54.3837932714965433
1001
ACDBBLOCKREPETAG
1070
     1
1071
       18
1005
122549
  0
LINE
  5
125B42
  8
SLIM
 10
5454.0
 20
-764.9999999999959073
 30
0.0
 11
5454.0
 21
-1484.9999999999959073
 31
0.0
  0
LINE
  5
125B43
  8
SLIM
 10
5602.0
 20
-764.9999999999959073
 30
0.0
 11
5602.0
 21
-1484.9999999999959073
 31
0.0
  0
LINE
  5
125B44
  8
SLIM
 10
5350.0
 20
-1484.9999999999959073
 30
0.0
 11
5350.0
 21
-764.9999999999959073
 31
0.0
  0
LINE
  5
125B45
  8
SLIM
 10
5602.0
 20
-764.9999999999959073
 30
0.0
 11
5350.0
 21
-764.9999999999959073
 31
0.0
  0
LINE
  5
125B46
  8
SLIM
 10
5602.0
 20
-812.9999999999959073
 30
0.0
 11
5350.0
 21
-812.9999999999959073
 31
0.0
  0
LINE
  5
125B4A
  8
SLIM
 10
5602.0
 20
-860.9999999999962483
 30
0.0
 11
5350.0
 21
-860.9999999999962483
 31
0.0
  0
LINE
  5
125B4B
  8
SLIM
 10
5602.0
 20
-908.999999999996362
 30
0.0
 11
5350.0
 21
-908.999999999996362
 31
0.0
  0
LINE
  5
125B4C
  8
SLIM
 10
5602.0
 20
-956.9999999999961346
 30
0.0
 11
5350.0
 21
-956.9999999999961346
 31
0.0
  0
LINE
  5
125B52
  8
SLIM
 10
5602.0
 20
-1004.999999999996021
 30
0.0
 11
5350.0
 21
-1004.999999999996021
 31
0.0
  0
LINE
  5
125B55
  8
SLIM
 10
5602.0
 20
-1052.9999999999959073
 30
0.0
 11
5350.0
 21
-1052.9999999999959073
 31
0.0
  0
LINE
  5
125B58
  8
SLIM
 10
5602.0
 20
-1100.9999999999959073
 30
0.0
 11
5350.0
 21
-1100.9999999999959073
 31
0.0
  0
LINE
  5
125B5B
  8
SLIM
 10
5602.0
 20
-1148.9999999999959073
 30
0.0
 11
5350.0
 21
-1148.9999999999959073
 31
0.0
  0
LINE
  5
125B5E
  8
SLIM
 10
5602.0
 20
-1196.9999999999959073
 30
0.0
 11
5350.0
 21
-1196.9999999999959073
 31
0.0
  0
LINE
  5
125B60
  8
SLIM
 10
5602.0
 20
-1244.9999999999959073
 30
0.0
 11
5350.0
 21
-1244.9999999999959073
 31
0.0
  0
LINE
  5
125B62
  8
SLIM
 10
5602.0
 20
-1292.9999999999959073
 30
0.0
 11
5350.0
 21
-1292.9999999999959073
 31
0.0
  0
LINE
  5
125B64
  8
SLIM
 10
5602.0
 20
-1340.9999999999959073
 30
0.0
 11
5350.0
 21
-1340.9999999999959073
 31
0.0
  0
LINE
  5
125B66
  8
SLIM
 10
5602.0
 20
-1388.9999999999959073
 30
0.0
 11
5350.0
 21
-1388.9999999999959073
 31
0.0
  0
LINE
  5
125B68
  8
SLIM
 10
5602.0
 20
-1436.9999999999959073
 30
0.0
 11
5350.0
 21
-1436.9999999999959073
 31
0.0
  0
LINE
  5
125B6A
  8
SLIM
 10
5602.0
 20
-1484.9999999999959073
 30
0.0
 11
5350.0
 21
-1484.9999999999959073
 31
0.0
  0
LINE
  5
126BE4
  8
OBJECT
 10
2454.322038555249037
 20
-176.1757960752501901
 30
0.0
 11
2453.0174047416530811
 21
-174.4092645125165006
 31
0.0
1001
ACDBBLOCKREPETAG
1070
     1
1071
      434
1005
0
  0
ARC
  5
126BE5
  8
OBJECT
 10
2450.3000008248000086
 20
-179.1461853586345114
 30
0.0
 40
5.0
 50
0.0
 51
36.4469224761369333
1001
ACDBBLOCKREPETAG
1070
     1
1071
      435
1005
0
  0
LINE
  5
126BE6
  8
OBJECT
 10
2454.3220385553759115
 20
-223.8242039246950128
 30
0.0
 11
2453.0174047417390284
 21
-225.5907354876406998
 31
0.0
1001
ACDBBLOCKREPETAG
1070
     1
1071
      436
1005
0
  0
ARC
  5
126BE7
  8
OBJECT
 10
2450.3000008248000086
 20
-220.8538146414828134
 30
0.0
 40
5.0
 50
323.5530775263175087
 51
0.0
1001
ACDBBLOCKREPETAG
1070
     1
1071
      437
1005
0
  0
LINE
  5
126BE8
  8
OBJECT
 10
2455.3000008248000086
 20
-220.8538146414828134
 30
0.0
 11
2455.3000008248000086
 21
-179.1461853586345114
 31
0.0
1001
ACDBBLOCKREPETAG
1070
     1
1071
      438
1005
0
  0
LINE
  5
126BF4
  8
OBJECT
 10
4454.3220385552485823
 20
-176.1757960752501901
 30
0.0
 11
4453.0174047416521717
 21
-174.4092645125165006
 31
0.0
1001
ACDBBLOCKREPETAG
1070
     1
1071
      434
1005
0
  0
ARC
  5
126BF5
  8
OBJECT
 10
4450.3000008248000086
 20
-179.1461853586345114
 30
0.0
 40
5.0
 50
0.0
 51
36.4469224761369333
1001
ACDBBLOCKREPETAG
1070
     1
1071
      435
1005
0
  0
LINE
  5
126BF6
  8
OBJECT
 10
4454.3220385553759115
 20
-223.8242039246950128
 30
0.0
 11
4453.0174047417367547
 21
-225.5907354876406998
 31
0.0
1001
ACDBBLOCKREPETAG
1070
     1
1071
      436
1005
0
  0
ARC
  5
126BF7
  8
OBJECT
 10
4450.3000008248000086
 20
-220.8538146414828134
 30
0.0
 40
5.0
 50
323.5530775263175087
 51
0.0
1001
ACDBBLOCKREPETAG
1070
     1
1071
      437
1005
0
  0
LINE
  5
126BF8
  8
OBJECT
 10
4455.3000008248000086
 20
-220.8538146414828134
 30
0.0
 11
4455.3000008248000086
 21
-179.1461853586345114
 31
0.0
1001
ACDBBLOCKREPETAG
1070
     1
1071
      438
1005
0
  0
LINE
  5
126C11
  8
OBJECT
 10
2367.0
 20
-144.9999999999990905
 30
0.0
 11
2360.0
 21
-144.9999999999990905
 31
0.0
1001
ACDBBLOCKREPETAG
1070
     1
1071
       20
1005
126C11
  0
LINE
  5
126C12
  8
OBJECT
 10
2360.0
 20
-144.9999999999990905
 30
0.0
 11
2360.0
 21
-254.9999999999990905
 31
0.0
1001
ACDBBLOCKREPETAG
1070
     1
1071
       21
1005
126C12
  0
LINE
  5
126C13
  8
OBJECT
 10
2360.0
 20
-254.9999999999990905
 30
0.0
 11
2367.0
 21
-254.9999999999990905
 31
0.0
1001
ACDBBLOCKREPETAG
1070
     1
1071
       22
1005
126C13
  0
LINE
  5
126C14
  8
OBJECT
 10
2367.0
 20
-254.9999999999990905
 30
0.0
 11
2367.0
 21
-144.9999999999990905
 31
0.0
1001
ACDBBLOCKREPETAG
1070
     1
1071
       23
1005
126C14
  0
LINE
  5
126C15
  8
CENTER
 10
2345.0
 20
-199.9999999999990905
 30
0.0
 11
2420.0
 21
-199.9999999999990905
 31
0.0
1001
ACDBBLOCKREPETAG
1070
     1
1071
       24
1005
126C15
  0
LINE
  5
126C16
  8
OBJECT
 10
2367.0
 20
-147.9999999999990905
 30
0.0
 11
2403.0
 21
-147.9999999999990905
 31
0.0
1001
ACDBBLOCKREPETAG
1070
     1
1071
       25
1005
126C16
  0
LINE
  5
126C17
  8
OBJECT
 10
2403.0
 20
-147.9999999999990905
 30
0.0
 11
2403.0
 21
-251.9999999999990905
 31
0.0
1001
ACDBBLOCKREPETAG
1070
     1
1071
       26
1005
126C17
  0
LINE
  5
126C18
  8
OBJECT
 10
2403.0
 20
-251.9999999999990905
 30
0.0
 11
2367.0
 21
-251.9999999999990905
 31
0.0
1001
ACDBBLOCKREPETAG
1070
     1
1071
       27
1005
126C18
  0
LINE
  5
126C19
  8
OBJECT
 10
2407.0
 20
-152.4999999999990905
 30
0.0
 11
2415.5
 21
-152.4999999999990905
 31
0.0
1001
ACDBBLOCKREPETAG
1070
     1
1071
       28
1005
126C19
  0
LINE
  5
126C1A
  8
OBJECT
 10
2415.5
 20
-247.4999999999990905
 30
0.0
 11
2407.0
 21
-247.4999999999990905
 31
0.0
1001
ACDBBLOCKREPETAG
1070
     1
1071
       29
1005
126C1A
  0
LINE
  5
126C1B
  8
OBJECT
 10
2407.0
 20
-247.4999999999990905
 30
0.0
 11
2407.0
 21
-152.4999999999990905
 31
0.0
1001
ACDBBLOCKREPETAG
1070
     1
1071
       30
1005
126C1B
  0
LINE
  5
126C1C
  8
OBJECT
 10
2403.0
 20
-147.9999999999990905
 30
0.0
 11
2407.0
 21
-152.4999999999990905
 31
0.0
1001
ACDBBLOCKREPETAG
1070
     1
1071
       31
1005
126C1C
  0
LINE
  5
126C1D
  8
OBJECT
 10
2403.0
 20
-251.9999999999990905
 30
0.0
 11
2407.0
 21
-247.4999999999990905
 31
0.0
1001
ACDBBLOCKREPETAG
1070
     1
1071
       32
1005
126C1D
  0
LINE
  5
126C1E
  8
OBJECT
 10
2415.5000000000009095
 20
-249.4999999999990905
 30
0.0
 11
2415.5
 21
-150.4999999999990905
 31
0.0
1001
ACDBBLOCKREPETAG
1070
     1
1071
       33
1005
126C1E
  0
LINE
  5
126C1F
  8
HIDDEN
 10
2412.0
 20
-161.9999999999990905
 30
0.0
 11
2412.0
 21
-237.9999999999990905
 31
0.0
1001
ACDBBLOCKREPETAG
1070
     1
1071
       34
1005
126C1F
  0
LINE
  5
126C20
  8
OBJECT
 10
2415.5
 20
-150.4999999999990905
 30
0.0
 11
2437.1529634747989803
 21
-150.4999999999990905
 31
0.0
1001
ACDBBLOCKREPETAG
1070
     1
1071
       35
1005
126C20
  0
LINE
  5
126C21
  8
OBJECT
 10
2415.5000000000009095
 20
-249.4999999999990905
 30
0.0
 11
2437.1529634747989803
 21
-249.4999999999990905
 31
0.0
1001
ACDBBLOCKREPETAG
1070
     1
1071
       36
1005
126C21
  0
LINE
  5
126C62
  8
OBJECT
 10
4367.0
 20
-144.9999999999990905
 30
0.0
 11
4360.0
 21
-144.9999999999990905
 31
0.0
1001
ACDBBLOCKREPETAG
1070
     1
1071
       20
1005
126C62
  0
LINE
  5
126C63
  8
OBJECT
 10
4360.0
 20
-144.9999999999990905
 30
0.0
 11
4360.0
 21
-254.9999999999990905
 31
0.0
1001
ACDBBLOCKREPETAG
1070
     1
1071
       21
1005
126C63
  0
LINE
  5
126C64
  8
OBJECT
 10
4360.0
 20
-254.9999999999990905
 30
0.0
 11
4367.0
 21
-254.9999999999990905
 31
0.0
1001
ACDBBLOCKREPETAG
1070
     1
1071
       22
1005
126C64
  0
LINE
  5
126C65
  8
OBJECT
 10
4367.0
 20
-254.9999999999990905
 30
0.0
 11
4367.0
 21
-144.9999999999990905
 31
0.0
1001
ACDBBLOCKREPETAG
1070
     1
1071
       23
1005
126C65
  0
LINE
  5
126C66
  8
CENTER
 10
4345.0
 20
-199.9999999999990905
 30
0.0
 11
4420.0
 21
-199.9999999999990905
 31
0.0
1001
ACDBBLOCKREPETAG
1070
     1
1071
       24
1005
126C66
  0
LINE
  5
126C67
  8
OBJECT
 10
4367.0
 20
-147.9999999999990905
 30
0.0
 11
4403.0
 21
-147.9999999999990905
 31
0.0
1001
ACDBBLOCKREPETAG
1070
     1
1071
       25
1005
126C67
  0
LINE
  5
126C68
  8
OBJECT
 10
4403.0
 20
-147.9999999999990905
 30
0.0
 11
4403.0
 21
-251.9999999999990905
 31
0.0
1001
ACDBBLOCKREPETAG
1070
     1
1071
       26
1005
126C68
  0
LINE
  5
126C69
  8
OBJECT
 10
4403.0
 20
-251.9999999999990905
 30
0.0
 11
4367.0
 21
-251.9999999999990905
 31
0.0
1001
ACDBBLOCKREPETAG
1070
     1
1071
       27
1005
126C69
  0
LINE
  5
126C6A
  8
OBJECT
 10
4407.0
 20
-152.4999999999990905
 30
0.0
 11
4415.5
 21
-152.4999999999990905
 31
0.0
1001
ACDBBLOCKREPETAG
1070
     1
1071
       28
1005
126C6A
  0
LINE
  5
126C6B
  8
OBJECT
 10
4415.5
 20
-247.4999999999990905
 30
0.0
 11
4407.0
 21
-247.4999999999990905
 31
0.0
1001
ACDBBLOCKREPETAG
1070
     1
1071
       29
1005
126C6B
  0
LINE
  5
126C6C
  8
OBJECT
 10
4407.0
 20
-247.4999999999990905
 30
0.0
 11
4407.0
 21
-152.4999999999990905
 31
0.0
1001
ACDBBLOCKREPETAG
1070
     1
1071
       30
1005
126C6C
  0
LINE
  5
126C6D
  8
OBJECT
 10
4403.0
 20
-147.9999999999990905
 30
0.0
 11
4407.0
 21
-152.4999999999990905
 31
0.0
1001
ACDBBLOCKREPETAG
1070
     1
1071
       31
1005
126C6D
  0
LINE
  5
126C6E
  8
OBJECT
 10
4403.0
 20
-251.9999999999990905
 30
0.0
 11
4407.0
 21
-247.4999999999990905
 31
0.0
1001
ACDBBLOCKREPETAG
1070
     1
1071
       32
1005
126C6E
  0
LINE
  5
126C6F
  8
OBJECT
 10
4415.5
 20
-249.4999999999990905
 30
0.0
 11
4415.5
 21
-150.4999999999990905
 31
0.0
1001
ACDBBLOCKREPETAG
1070
     1
1071
       33
1005
126C6F
  0
LINE
  5
126C70
  8
HIDDEN
 10
4412.0
 20
-161.9999999999990905
 30
0.0
 11
4412.0
 21
-237.9999999999990905
 31
0.0
1001
ACDBBLOCKREPETAG
1070
     1
1071
       34
1005
126C70
  0
LINE
  5
126C71
  8
OBJECT
 10
4415.5
 20
-150.4999999999990905
 30
0.0
 11
4437.1529634747967066
 21
-150.4999999999990905
 31
0.0
1001
ACDBBLOCKREPETAG
1070
     1
1071
       35
1005
126C71
  0
LINE
  5
126C72
  8
OBJECT
 10
4415.5
 20
-249.4999999999990905
 30
0.0
 11
4437.1529634747967066
 21
-249.4999999999990905
 31
0.0
1001
ACDBBLOCKREPETAG
1070
     1
1071
       36
1005
126C72
  0
ARC
  5
126C73
  8
OBJECT
 10
4500.0
 20
-199.9999999999990905
 30
0.0
 40
85.0
 50
215.6162067285071942
 51
313.1628971402971047
1001
ACDBBLOCKREPETAG
1070
     1
1071
       18
1005
122549
  0
LINE
  5
126D36
  8
OBJECT
 10
4925.0
 20
-890.0
 30
0.0
 11
4925.0
 21
-1163.0
 31
0.0
1001
ACDBBLOCKREPETAG
1070
     1
1071
        1
1005
126D36
  0
LINE
  5
126D37
  8
CENTER
 10
5000.0
 20
-890.0
 30
0.0
 11
5000.0
 21
-1175.0
 31
0.0
1001
ACDBBLOCKREPETAG
1070
     1
1071
        6
1005
126D37
  0
LINE
  5
126D38
  8
OBJECT
 10
4920.0
 20
-1175.0
 30
0.0
 11
5080.0
 21
-1175.0
 31
0.0
1001
ACDBBLOCKREPETAG
1070
     1
1071
        7
1005
126D38
  0
LINE
  5
126D39
  8
OBJECT
 10
4920.0
 20
-1163.0
 30
0.0
 11
5080.0
 21
-1163.0
 31
0.0
1001
ACDBBLOCKREPETAG
1070
     1
1071
        8
1005
126D39
  0
LINE
  5
126D3A
  8
OBJECT
 10
4920.0
 20
-1163.0
 30
0.0
 11
4920.0
 21
-1175.0
 31
0.0
1001
ACDBBLOCKREPETAG
1070
     1
1071
        9
1005
126D3A
  0
LINE
  5
126D3B
  8
OBJECT
 10
5080.0
 20
-1163.0
 30
0.0
 11
5080.0
 21
-1175.0
 31
0.0
1001
ACDBBLOCKREPETAG
1070
     1
1071
       10
1005
126D3B
  0
POINT
  5
126D3C
  8
DOTS
 10
5000.0
 20
-1136.0
 30
0.0
  0
LINE
  5
126D3D
  8
OBJECT
 10
5075.0
 20
-890.0
 30
0.0
 11
5075.0
 21
-1027.5000000000650289
 31
0.0
1001
ACDBBLOCKREPETAG
1070
     1
1071
        1
1005
126D36
  0
LINE
  5
126D3E
  8
OBJECT
 10
5133.0
 20
-1029.0
 30
0.0
 11
5140.0
 21
-1029.0
 31
0.0
1001
ACDBBLOCKREPETAG
1070
     1
1071
       23
1005
0
  0
LINE
  5
126D3F
  8
OBJECT
 10
5140.0
 20
-1029.0
 30
0.0
 11
5140.0
 21
-1136.0
 31
0.0
1001
ACDBBLOCKREPETAG
1070
     1
1071
       24
1005
0
  0
LINE
  5
126D40
  8
OBJECT
 10
5084.5
 20
-1030.5000000000650289
 30
0.0
 11
5084.5
 21
-1133.5
 31
0.0
1001
ACDBBLOCKREPETAG
1070
     1
1071
       25
1005
0
  0
ARC
  5
126D41
  8
OBJECT
 10
5081.5
 20
-1030.5000000000650289
 30
0.0
 40
3.0
 50
0.0
 51
90.0
1001
ACDBBLOCKREPETAG
1070
     1
1071
       26
1005
0
  0
LINE
  5
126D42
  8
OBJECT
 10
5133.0
 20
-1136.0
 30
0.0
 11
5133.0
 21
-1029.0
 31
0.0
1001
ACDBBLOCKREPETAG
1070
     1
1071
       27
1005
0
  0
LINE
  5
126D43
  8
CENTER
 10
5155.0
 20
-1084.0
 30
0.0
 11
5041.3449199130036504
 21
-1084.0000000000650289
 31
0.0
1001
ACDBBLOCKREPETAG
1070
     1
1071
       28
1005
0
  0
LINE
  5
126D44
  8
OBJECT
 10
5133.0
 20
-1032.0
 30
0.0
 11
5097.0
 21
-1032.0
 31
0.0
1001
ACDBBLOCKREPETAG
1070
     1
1071
       29
1005
0
  0
LINE
  5
126D45
  8
OBJECT
 10
5097.0
 20
-1032.0
 30
0.0
 11
5097.0
 21
-1136.0
 31
0.0
1001
ACDBBLOCKREPETAG
1070
     1
1071
       30
1005
0
  0
LINE
  5
126D46
  8
OBJECT
 10
5097.0
 20
-1136.0
 30
0.0
 11
5140.0
 21
-1136.0
 31
0.0
1001
ACDBBLOCKREPETAG
1070
     1
1071
       31
1005
0
  0
LINE
  5
126D47
  8
OBJECT
 10
5093.0
 20
-1036.5
 30
0.0
 11
5084.5
 21
-1036.5
 31
0.0
1001
ACDBBLOCKREPETAG
1070
     1
1071
       32
1005
0
  0
LINE
  5
126D48
  8
OBJECT
 10
5084.5
 20
-1131.5
 30
0.0
 11
5093.0
 21
-1131.5
 31
0.0
1001
ACDBBLOCKREPETAG
1070
     1
1071
       33
1005
0
  0
LINE
  5
126D49
  8
OBJECT
 10
5093.0
 20
-1131.5
 30
0.0
 11
5093.0
 21
-1036.5
 31
0.0
1001
ACDBBLOCKREPETAG
1070
     1
1071
       34
1005
0
  0
LINE
  5
126D4A
  8
OBJECT
 10
5097.0
 20
-1032.0
 30
0.0
 11
5093.0
 21
-1036.5
 31
0.0
1001
ACDBBLOCKREPETAG
1070
     1
1071
       35
1005
0
  0
LINE
  5
126D4B
  8
OBJECT
 10
5097.0
 20
-1136.0
 30
0.0
 11
5093.0
 21
-1131.5
 31
0.0
1001
ACDBBLOCKREPETAG
1070
     1
1071
       36
1005
0
  0
LINE
  5
126D4C
  8
HIDDEN
 10
5088.0
 20
-1046.0
 30
0.0
 11
5088.0
 21
-1122.0
 31
0.0
1001
ACDBBLOCKREPETAG
1070
     1
1071
       37
1005
0
  0
ARC
  5
126D4D
  8
OBJECT
 10
5164.8782728787718952
 20
-1092.4095072612281001
 30
0.0
 40
110.866352283089995
 50
144.16342741930481
 51
163.0403538043518097
1001
ACDBBLOCKREPETAG
1070
     1
1071
       38
1005
0
  0
ARC
  5
126D4E
  8
OBJECT
 10
5117.1359887769067427
 20
-1077.2877497184490494
 30
0.0
 40
60.7917498803589567
 50
163.5472046522068865
 51
179.7287969828265943
1001
ACDBBLOCKREPETAG
1070
     1
1071
       39
1005
0
  0
ARC
  5
126D4F
  8
OBJECT
 10
5117.1359956562482694
 20
-1083.7122497599009421
 30
0.0
 40
60.7917567620948702
 50
180.2712034781451962
 51
196.4527794605139093
1001
ACDBBLOCKREPETAG
1070
     1
1071
       40
1005
0
  0
ARC
  5
126D50
  8
OBJECT
 10
5164.8782728787718952
 20
-1068.5904927388360193
 30
0.0
 40
110.8663522830916008
 50
196.959646195648105
 51
215.83657258069519
1001
ACDBBLOCKREPETAG
1070
     1
1071
       41
1005
0
  0
LINE
  5
126D51
  8
OBJECT
 10
5056.3449199130045599
 20
-1077.000000000035925
 30
0.0
 11
5056.3449199130045599
 21
-1084.0000000000329692
 31
0.0
1001
ACDBBLOCKREPETAG
1070
     1
1071
       42
1005
0
  0
LINE
  5
126D52
  8
OBJECT
 10
5075.0
 20
-1027.5000000000650289
 30
0.0
 11
5081.5
 21
-1027.5000000000650289
 31
0.0
1001
ACDBBLOCKREPETAG
1070
     1
1071
       43
1005
0
  0
LINE
  5
126D53
  8
OBJECT
 10
5075.0
 20
-1133.5
 30
0.0
 11
5084.5
 21
-1133.5
 31
0.0
1001
ACDBBLOCKREPETAG
1070
     1
1071
       44
1005
0
  0
LINE
  5
126D54
  8
OBJECT
 10
5075.0
 20
-1133.5
 30
0.0
 11
5075.0
 21
-1163.0
 31
0.0
1001
ACDBBLOCKREPETAG
1070
     1
1071
        1
1005
126D36
  0
CIRCLE
  5
126D55
  8
HIDDEN
 10
5000.0
 20
-1084.0
 30
0.0
 40
35.5
1001
ACDBBLOCKREPETAG
1070
     1
1071
       11
1005
126D55
  0
LINE
  5
126D56
  8
CENTER
 10
4930.0
 20
-1084.0
 30
0.0
 11
5070.0
 21
-1084.0
 31
0.0
1001
ACDBBLOCKREPETAG
1070
     1
1071
       12
1005
126D56
  0
CIRCLE
  5
126D57
  8
HIDDEN
 10
5000.0
 20
-1084.0
 30
0.0
 40
47.0
1001
ACDBBLOCKREPETAG
1070
     1
1071
       14
1005
126D57
  0
ARC
  5
126D58
  8
HIDDEN
 10
5000.0
 20
-1084.0
 30
0.0
 40
55.0
 50
289.0112652601093259
 51
250.9887347398907878
1001
ACDBBLOCKREPETAG
1070
     1
1071
       15
1005
126D58
  0
LINE
  5
126D59
  8
HIDDEN
 10
4982.083527132832387
 20
-1136.0
 30
0.0
 11
5017.916472867167613
 21
-1136.0
 31
0.0
1001
ACDBBLOCKREPETAG
1070
     1
1071
       16
1005
126D59
  0
LINE
  5
126D5A
  8
OBJECT
 10
2925.0
 20
-890.0
 30
0.0
 11
2925.0
 21
-1163.0
 31
0.0
1001
ACDBBLOCKREPETAG
1070
     1
1071
        1
1005
126D5A
  0
LINE
  5
126D5B
  8
CENTER
 10
3000.0
 20
-890.0
 30
0.0
 11
3000.0
 21
-1175.0
 31
0.0
1001
ACDBBLOCKREPETAG
1070
     1
1071
        6
1005
126D5B
  0
LINE
  5
126D5C
  8
OBJECT
 10
2920.0
 20
-1175.0
 30
0.0
 11
3080.0
 21
-1175.0
 31
0.0
1001
ACDBBLOCKREPETAG
1070
     1
1071
        7
1005
126D5C
  0
LINE
  5
126D5D
  8
OBJECT
 10
2920.0
 20
-1163.0
 30
0.0
 11
3080.0
 21
-1163.0
 31
0.0
1001
ACDBBLOCKREPETAG
1070
     1
1071
        8
1005
126D5D
  0
LINE
  5
126D5E
  8
OBJECT
 10
2920.0
 20
-1163.0
 30
0.0
 11
2920.0
 21
-1175.0
 31
0.0
1001
ACDBBLOCKREPETAG
1070
     1
1071
        9
1005
126D5E
  0
LINE
  5
126D5F
  8
OBJECT
 10
3080.0
 20
-1163.0
 30
0.0
 11
3080.0
 21
-1175.0
 31
0.0
1001
ACDBBLOCKREPETAG
1070
     1
1071
       10
1005
126D5F
  0
POINT
  5
126D60
  8
DOTS
 10
3000.0
 20
-1136.0
 30
0.0
  0
LINE
  5
126D61
  8
OBJECT
 10
3075.0
 20
-890.0
 30
0.0
 11
3075.0
 21
-1027.5000000000650289
 31
0.0
1001
ACDBBLOCKREPETAG
1070
     1
1071
        1
1005
126D5A
  0
LINE
  5
126D62
  8
OBJECT
 10
3133.0
 20
-1029.0
 30
0.0
 11
3140.0
 21
-1029.0
 31
0.0
1001
ACDBBLOCKREPETAG
1070
     1
1071
       23
1005
0
  0
LINE
  5
126D63
  8
OBJECT
 10
3140.0
 20
-1029.0
 30
0.0
 11
3140.0
 21
-1136.0
 31
0.0
1001
ACDBBLOCKREPETAG
1070
     1
1071
       24
1005
0
  0
LINE
  5
126D64
  8
OBJECT
 10
3084.5
 20
-1030.5000000000650289
 30
0.0
 11
3084.5
 21
-1133.5
 31
0.0
1001
ACDBBLOCKREPETAG
1070
     1
1071
       25
1005
0
  0
ARC
  5
126D65
  8
OBJECT
 10
3081.5
 20
-1030.5000000000650289
 30
0.0
 40
3.0
 50
0.0
 51
90.0
1001
ACDBBLOCKREPETAG
1070
     1
1071
       26
1005
0
  0
LINE
  5
126D66
  8
OBJECT
 10
3133.0
 20
-1136.0
 30
0.0
 11
3133.0
 21
-1029.0
 31
0.0
1001
ACDBBLOCKREPETAG
1070
     1
1071
       27
1005
0
  0
LINE
  5
126D67
  8
CENTER
 10
3155.0
 20
-1084.0
 30
0.0
 11
3041.3449199130050147
 21
-1084.0000000000650289
 31
0.0
1001
ACDBBLOCKREPETAG
1070
     1
1071
       28
1005
0
  0
LINE
  5
126D68
  8
OBJECT
 10
3133.0
 20
-1032.0
 30
0.0
 11
3097.0
 21
-1032.0
 31
0.0
1001
ACDBBLOCKREPETAG
1070
     1
1071
       29
1005
0
  0
LINE
  5
126D69
  8
OBJECT
 10
3097.0
 20
-1032.0
 30
0.0
 11
3097.0
 21
-1136.0
 31
0.0
1001
ACDBBLOCKREPETAG
1070
     1
1071
       30
1005
0
  0
LINE
  5
126D6A
  8
OBJECT
 10
3097.0
 20
-1136.0
 30
0.0
 11
3140.0
 21
-1136.0
 31
0.0
1001
ACDBBLOCKREPETAG
1070
     1
1071
       31
1005
0
  0
LINE
  5
126D6B
  8
OBJECT
 10
3093.0
 20
-1036.5
 30
0.0
 11
3084.5
 21
-1036.5
 31
0.0
1001
ACDBBLOCKREPETAG
1070
     1
1071
       32
1005
0
  0
LINE
  5
126D6C
  8
OBJECT
 10
3084.5
 20
-1131.5
 30
0.0
 11
3093.0
 21
-1131.5
 31
0.0
1001
ACDBBLOCKREPETAG
1070
     1
1071
       33
1005
0
  0
LINE
  5
126D6D
  8
OBJECT
 10
3093.0
 20
-1131.5
 30
0.0
 11
3093.0
 21
-1036.5
 31
0.0
1001
ACDBBLOCKREPETAG
1070
     1
1071
       34
1005
0
  0
LINE
  5
126D6E
  8
OBJECT
 10
3097.0
 20
-1032.0
 30
0.0
 11
3093.0
 21
-1036.5
 31
0.0
1001
ACDBBLOCKREPETAG
1070
     1
1071
       35
1005
0
  0
LINE
  5
126D6F
  8
OBJECT
 10
3097.0
 20
-1136.0
 30
0.0
 11
3093.0
 21
-1131.5
 31
0.0
1001
ACDBBLOCKREPETAG
1070
     1
1071
       36
1005
0
  0
LINE
  5
126D70
  8
HIDDEN
 10
3088.0
 20
-1046.0
 30
0.0
 11
3088.0
 21
-1122.0
 31
0.0
1001
ACDBBLOCKREPETAG
1070
     1
1071
       37
1005
0
  0
ARC
  5
126D71
  8
OBJECT
 10
3164.8782728787741689
 20
-1092.4095072612281001
 30
0.0
 40
110.866352283089995
 50
144.16342741930481
 51
163.0403538043441927
1001
ACDBBLOCKREPETAG
1070
     1
1071
       38
1005
0
  0
ARC
  5
126D72
  8
OBJECT
 10
3117.135988776908107
 20
-1077.2877497184490494
 30
0.0
 40
60.7917498803589567
 50
163.5472046522141909
 51
179.7287969828267933
1001
ACDBBLOCKREPETAG
1070
     1
1071
       39
1005
0
  0
ARC
  5
126D73
  8
OBJECT
 10
3117.1359956562491789
 20
-1083.7122497599009421
 30
0.0
 40
60.7917567620948702
 50
180.2712034781451962
 51
196.4527794605212137
1001
ACDBBLOCKREPETAG
1070
     1
1071
       40
1005
0
  0
ARC
  5
126D74
  8
OBJECT
 10
3164.8782728787741689
 20
-1068.5904927388360193
 30
0.0
 40
110.8663522830916008
 50
196.9596461956556936
 51
215.83657258069519
1001
ACDBBLOCKREPETAG
1070
     1
1071
       41
1005
0
  0
LINE
  5
126D75
  8
OBJECT
 10
3056.3449199130050147
 20
-1077.000000000035925
 30
0.0
 11
3056.3449199130050147
 21
-1084.0000000000329692
 31
0.0
1001
ACDBBLOCKREPETAG
1070
     1
1071
       42
1005
0
  0
LINE
  5
126D76
  8
OBJECT
 10
3075.0
 20
-1027.5000000000650289
 30
0.0
 11
3081.5
 21
-1027.5000000000650289
 31
0.0
1001
ACDBBLOCKREPETAG
1070
     1
1071
       43
1005
0
  0
LINE
  5
126D77
  8
OBJECT
 10
3075.0
 20
-1133.5
 30
0.0
 11
3084.5
 21
-1133.5
 31
0.0
1001
ACDBBLOCKREPETAG
1070
     1
1071
       44
1005
0
  0
LINE
  5
126D78
  8
OBJECT
 10
3075.0
 20
-1133.5
 30
0.0
 11
3075.0
 21
-1163.0
 31
0.0
1001
ACDBBLOCKREPETAG
1070
     1
1071
        1
1005
126D5A
  0
CIRCLE
  5
126D79
  8
HIDDEN
 10
3000.0
 20
-1084.0
 30
0.0
 40
35.5
1001
ACDBBLOCKREPETAG
1070
     1
1071
       11
1005
126D79
  0
LINE
  5
126D7A
  8
CENTER
 10
2930.0
 20
-1084.0
 30
0.0
 11
3070.0
 21
-1084.0
 31
0.0
1001
ACDBBLOCKREPETAG
1070
     1
1071
       12
1005
126D7A
  0
CIRCLE
  5
126D7B
  8
HIDDEN
 10
3000.0
 20
-1084.0
 30
0.0
 40
47.0
1001
ACDBBLOCKREPETAG
1070
     1
1071
       14
1005
126D7B
  0
ARC
  5
126D7C
  8
HIDDEN
 10
3000.0
 20
-1084.0
 30
0.0
 40
55.0
 50
289.011265260084599
 51
250.9887347399152873
1001
ACDBBLOCKREPETAG
1070
     1
1071
       15
1005
126D7C
  0
LINE
  5
126D7D
  8
HIDDEN
 10
2982.0835271328328417
 20
-1136.0
 30
0.0
 11
3017.9164728671680678
 21
-1136.0
 31
0.0
1001
ACDBBLOCKREPETAG
1070
     1
1071
       16
1005
126D7D
  0
LINE
  5
126D7E
  8
OBJECT
 10
2575.0
 20
-890.0000000000002274
 30
0.0
 11
2575.0
 21
-1163.0
 31
0.0
1001
ACDBBLOCKREPETAG
1070
     1
1071
        1
1005
126D7E
  0
LINE
  5
126D7F
  8
CENTER
 10
2500.0
 20
-890.0000000000002274
 30
0.0
 11
2500.0
 21
-1175.0
 31
0.0
1001
ACDBBLOCKREPETAG
1070
     1
1071
        6
1005
126D7F
  0
LINE
  5
126D80
  8
OBJECT
 10
2420.0
 20
-1175.0
 30
0.0
 11
2580.0
 21
-1175.0
 31
0.0
1001
ACDBBLOCKREPETAG
1070
     1
1071
        7
1005
126D80
  0
LINE
  5
126D81
  8
OBJECT
 10
2420.0
 20
-1163.0
 30
0.0
 11
2580.0
 21
-1163.0
 31
0.0
1001
ACDBBLOCKREPETAG
1070
     1
1071
        8
1005
126D81
  0
LINE
  5
126D82
  8
OBJECT
 10
2420.0
 20
-1163.0
 30
0.0
 11
2420.0
 21
-1175.0
 31
0.0
1001
ACDBBLOCKREPETAG
1070
     1
1071
        9
1005
126D82
  0
LINE
  5
126D83
  8
OBJECT
 10
2580.0
 20
-1163.0
 30
0.0
 11
2580.0
 21
-1175.0
 31
0.0
1001
ACDBBLOCKREPETAG
1070
     1
1071
       10
1005
126D83
  0
POINT
  5
126D84
  8
DOTS
 10
2500.0
 20
-1136.0
 30
0.0
  0
LINE
  5
126D85
  8
OBJECT
 10
2425.0
 20
-890.0000000000002274
 30
0.0
 11
2425.0
 21
-1027.5000000000659384
 31
0.0
1001
ACDBBLOCKREPETAG
1070
     1
1071
        1
1005
126D7E
  0
LINE
  5
126D86
  8
OBJECT
 10
2367.0
 20
-1029.0
 30
0.0
 11
2360.0
 21
-1029.0
 31
0.0
1001
ACDBBLOCKREPETAG
1070
     1
1071
       23
1005
0
  0
LINE
  5
126D87
  8
OBJECT
 10
2360.0
 20
-1029.0
 30
0.0
 11
2360.0
 21
-1136.0
 31
0.0
1001
ACDBBLOCKREPETAG
1070
     1
1071
       24
1005
0
  0
LINE
  5
126D88
  8
OBJECT
 10
2415.5
 20
-1030.5000000000650289
 30
0.0
 11
2415.5
 21
-1133.5
 31
0.0
1001
ACDBBLOCKREPETAG
1070
     1
1071
       25
1005
0
  0
ARC
  5
126D89
  8
OBJECT
 10
2418.5
 20
-1030.5000000000650289
 30
0.0
 40
3.0
 50
90.0
 51
180.0
1001
ACDBBLOCKREPETAG
1070
     1
1071
       26
1005
0
  0
LINE
  5
126D8A
  8
OBJECT
 10
2367.0
 20
-1136.0
 30
0.0
 11
2367.0
 21
-1029.0
 31
0.0
1001
ACDBBLOCKREPETAG
1070
     1
1071
       27
1005
0
  0
LINE
  5
126D8B
  8
CENTER
 10
2345.0
 20
-1084.0
 30
0.0
 11
2458.6550800869949853
 21
-1084.0000000000659384
 31
0.0
1001
ACDBBLOCKREPETAG
1070
     1
1071
       28
1005
0
  0
LINE
  5
126D8C
  8
OBJECT
 10
2367.0
 20
-1032.0
 30
0.0
 11
2403.0
 21
-1032.0
 31
0.0
1001
ACDBBLOCKREPETAG
1070
     1
1071
       29
1005
0
  0
LINE
  5
126D8D
  8
OBJECT
 10
2403.0
 20
-1032.0
 30
0.0
 11
2403.0
 21
-1136.0
 31
0.0
1001
ACDBBLOCKREPETAG
1070
     1
1071
       30
1005
0
  0
LINE
  5
126D8E
  8
OBJECT
 10
2403.0
 20
-1136.0
 30
0.0
 11
2360.0
 21
-1136.0
 31
0.0
1001
ACDBBLOCKREPETAG
1070
     1
1071
       31
1005
0
  0
LINE
  5
126D8F
  8
OBJECT
 10
2407.0
 20
-1036.5
 30
0.0
 11
2415.5
 21
-1036.5
 31
0.0
1001
ACDBBLOCKREPETAG
1070
     1
1071
       32
1005
0
  0
LINE
  5
126D90
  8
OBJECT
 10
2415.5
 20
-1131.5
 30
0.0
 11
2407.0
 21
-1131.5
 31
0.0
1001
ACDBBLOCKREPETAG
1070
     1
1071
       33
1005
0
  0
LINE
  5
126D91
  8
OBJECT
 10
2407.0
 20
-1131.5
 30
0.0
 11
2407.0
 21
-1036.5
 31
0.0
1001
ACDBBLOCKREPETAG
1070
     1
1071
       34
1005
0
  0
LINE
  5
126D92
  8
OBJECT
 10
2403.0
 20
-1032.0
 30
0.0
 11
2407.0
 21
-1036.5
 31
0.0
1001
ACDBBLOCKREPETAG
1070
     1
1071
       35
1005
0
  0
LINE
  5
126D93
  8
OBJECT
 10
2403.0
 20
-1136.0
 30
0.0
 11
2407.0
 21
-1131.5
 31
0.0
1001
ACDBBLOCKREPETAG
1070
     1
1071
       36
1005
0
  0
LINE
  5
126D94
  8
HIDDEN
 10
2412.0
 20
-1046.0
 30
0.0
 11
2412.0
 21
-1122.0
 31
0.0
1001
ACDBBLOCKREPETAG
1070
     1
1071
       37
1005
0
  0
ARC
  5
126D95
  8
OBJECT
 10
2335.1217271212258311
 20
-1092.4095072612281001
 30
0.0
 40
110.866352283089995
 50
16.9596461956619784
 51
35.8365725806952398
1001
ACDBBLOCKREPETAG
1070
     1
1071
       38
1005
0
  0
ARC
  5
126D96
  8
OBJECT
 10
2382.8640112230928025
 20
-1077.2877497184490494
 30
0.0
 40
60.7917498803589567
 50
0.2712030171732199
 51
16.4527953477794995
1001
ACDBBLOCKREPETAG
1070
     1
1071
       39
1005
0
  0
ARC
  5
126D97
  8
OBJECT
 10
2382.8640043437530949
 20
-1083.7122497599009421
 30
0.0
 40
60.7917567620948702
 50
343.5472205394723915
 51
359.7287965218546901
1001
ACDBBLOCKREPETAG
1070
     1
1071
       40
1005
0
  0
ARC
  5
126D98
  8
OBJECT
 10
2335.1217271212258311
 20
-1068.5904927388360193
 30
0.0
 40
110.8663522830916008
 50
324.16342741930481
 51
343.0403538043379967
1001
ACDBBLOCKREPETAG
1070
     1
1071
       41
1005
0
  0
LINE
  5
126D99
  8
OBJECT
 10
2443.6550800869958948
 20
-1077.000000000035925
 30
0.0
 11
2443.6550800869958948
 21
-1084.0000000000329692
 31
0.0
1001
ACDBBLOCKREPETAG
1070
     1
1071
       42
1005
0
  0
LINE
  5
126D9A
  8
OBJECT
 10
2425.0
 20
-1027.5000000000659384
 30
0.0
 11
2418.5
 21
-1027.5000000000659384
 31
0.0
1001
ACDBBLOCKREPETAG
1070
     1
1071
       43
1005
0
  0
LINE
  5
126D9B
  8
OBJECT
 10
2425.0
 20
-1133.5
 30
0.0
 11
2415.5
 21
-1133.5
 31
0.0
1001
ACDBBLOCKREPETAG
1070
     1
1071
       44
1005
0
  0
LINE
  5
126D9C
  8
OBJECT
 10
2425.0
 20
-1133.5
 30
0.0
 11
2425.0
 21
-1163.0
 31
0.0
1001
ACDBBLOCKREPETAG
1070
     1
1071
        1
1005
126D7E
  0
CIRCLE
  5
126D9D
  8
HIDDEN
 10
2500.0
 20
-1084.0
 30
0.0
 40
35.5
1001
ACDBBLOCKREPETAG
1070
     1
1071
       11
1005
126D9D
  0
LINE
  5
126D9E
  8
CENTER
 10
2430.0
 20
-1084.0
 30
0.0
 11
2570.0
 21
-1084.0
 31
0.0
1001
ACDBBLOCKREPETAG
1070
     1
1071
       12
1005
126D9E
  0
CIRCLE
  5
126D9F
  8
HIDDEN
 10
2500.0
 20
-1084.0
 30
0.0
 40
47.0
1001
ACDBBLOCKREPETAG
1070
     1
1071
       14
1005
126D9F
  0
ARC
  5
126DA0
  8
HIDDEN
 10
2500.0
 20
-1084.0
 30
0.0
 40
55.0
 50
289.011265260084599
 51
250.9887347399152873
1001
ACDBBLOCKREPETAG
1070
     1
1071
       15
1005
126DA0
  0
LINE
  5
126DA1
  8
HIDDEN
 10
2482.0835271328328417
 20
-1136.0
 30
0.0
 11
2517.9164728671680678
 21
-1136.0
 31
0.0
1001
ACDBBLOCKREPETAG
1070
     1
1071
       16
1005
126DA1
  0
LINE
  5
126DA2
  8
OBJECT
 10
4575.0
 20
-890.0
 30
0.0
 11
4575.0
 21
-1163.0
 31
0.0
1001
ACDBBLOCKREPETAG
1070
     1
1071
        1
1005
126DA2
  0
LINE
  5
126DA3
  8
CENTER
 10
4500.0
 20
-890.0
 30
0.0
 11
4500.0
 21
-1175.0
 31
0.0
1001
ACDBBLOCKREPETAG
1070
     1
1071
        6
1005
126DA3
  0
LINE
  5
126DA4
  8
OBJECT
 10
4420.0
 20
-1175.0
 30
0.0
 11
4580.0
 21
-1175.0
 31
0.0
1001
ACDBBLOCKREPETAG
1070
     1
1071
        7
1005
126DA4
  0
LINE
  5
126DA5
  8
OBJECT
 10
4420.0
 20
-1163.0
 30
0.0
 11
4580.0
 21
-1163.0
 31
0.0
1001
ACDBBLOCKREPETAG
1070
     1
1071
        8
1005
126DA5
  0
LINE
  5
126DA6
  8
OBJECT
 10
4420.0
 20
-1163.0
 30
0.0
 11
4420.0
 21
-1175.0
 31
0.0
1001
ACDBBLOCKREPETAG
1070
     1
1071
        9
1005
126DA6
  0
LINE
  5
126DA7
  8
OBJECT
 10
4580.0
 20
-1163.0
 30
0.0
 11
4580.0
 21
-1175.0
 31
0.0
1001
ACDBBLOCKREPETAG
1070
     1
1071
       10
1005
126DA7
  0
POINT
  5
126DA8
  8
DOTS
 10
4500.0
 20
-1136.0
 30
0.0
  0
LINE
  5
126DA9
  8
OBJECT
 10
4425.0
 20
-890.0
 30
0.0
 11
4425.0
 21
-1027.5000000000650289
 31
0.0
1001
ACDBBLOCKREPETAG
1070
     1
1071
        1
1005
126DA2
  0
LINE
  5
126DAA
  8
OBJECT
 10
4367.0
 20
-1029.0
 30
0.0
 11
4360.0
 21
-1029.0
 31
0.0
1001
ACDBBLOCKREPETAG
1070
     1
1071
       23
1005
0
  0
LINE
  5
126DAB
  8
OBJECT
 10
4360.0
 20
-1029.0
 30
0.0
 11
4360.0
 21
-1136.0
 31
0.0
1001
ACDBBLOCKREPETAG
1070
     1
1071
       24
1005
0
  0
LINE
  5
126DAC
  8
OBJECT
 10
4415.5
 20
-1030.5000000000650289
 30
0.0
 11
4415.5
 21
-1133.5
 31
0.0
1001
ACDBBLOCKREPETAG
1070
     1
1071
       25
1005
0
  0
ARC
  5
126DAD
  8
OBJECT
 10
4418.5
 20
-1030.5000000000650289
 30
0.0
 40
3.0
 50
90.0
 51
180.0
1001
ACDBBLOCKREPETAG
1070
     1
1071
       26
1005
0
  0
LINE
  5
126DAE
  8
OBJECT
 10
4367.0
 20
-1136.0
 30
0.0
 11
4367.0
 21
-1029.0
 31
0.0
1001
ACDBBLOCKREPETAG
1070
     1
1071
       27
1005
0
  0
LINE
  5
126DAF
  8
CENTER
 10
4345.0
 20
-1084.0
 30
0.0
 11
4458.6550800869936211
 21
-1084.0000000000650289
 31
0.0
1001
ACDBBLOCKREPETAG
1070
     1
1071
       28
1005
0
  0
LINE
  5
126DB0
  8
OBJECT
 10
4367.0
 20
-1032.0
 30
0.0
 11
4403.0
 21
-1032.0
 31
0.0
1001
ACDBBLOCKREPETAG
1070
     1
1071
       29
1005
0
  0
LINE
  5
126DB1
  8
OBJECT
 10
4403.0
 20
-1032.0
 30
0.0
 11
4403.0
 21
-1136.0
 31
0.0
1001
ACDBBLOCKREPETAG
1070
     1
1071
       30
1005
0
  0
LINE
  5
126DB2
  8
OBJECT
 10
4403.0
 20
-1136.0
 30
0.0
 11
4360.0
 21
-1136.0
 31
0.0
1001
ACDBBLOCKREPETAG
1070
     1
1071
       31
1005
0
  0
LINE
  5
126DB3
  8
OBJECT
 10
4407.0
 20
-1036.5
 30
0.0
 11
4415.5
 21
-1036.5
 31
0.0
1001
ACDBBLOCKREPETAG
1070
     1
1071
       32
1005
0
  0
LINE
  5
126DB4
  8
OBJECT
 10
4415.5
 20
-1131.5
 30
0.0
 11
4407.0
 21
-1131.5
 31
0.0
1001
ACDBBLOCKREPETAG
1070
     1
1071
       33
1005
0
  0
LINE
  5
126DB5
  8
OBJECT
 10
4407.0
 20
-1131.5
 30
0.0
 11
4407.0
 21
-1036.5
 31
0.0
1001
ACDBBLOCKREPETAG
1070
     1
1071
       34
1005
0
  0
LINE
  5
126DB6
  8
OBJECT
 10
4403.0
 20
-1032.0
 30
0.0
 11
4407.0
 21
-1036.5
 31
0.0
1001
ACDBBLOCKREPETAG
1070
     1
1071
       35
1005
0
  0
LINE
  5
126DB7
  8
OBJECT
 10
4403.0
 20
-1136.0
 30
0.0
 11
4407.0
 21
-1131.5
 31
0.0
1001
ACDBBLOCKREPETAG
1070
     1
1071
       36
1005
0
  0
LINE
  5
126DB8
  8
HIDDEN
 10
4412.0
 20
-1046.0
 30
0.0
 11
4412.0
 21
-1122.0
 31
0.0
1001
ACDBBLOCKREPETAG
1070
     1
1071
       37
1005
0
  0
ARC
  5
126DB9
  8
OBJECT
 10
4335.1217271212262858
 20
-1092.4095072612281001
 30
0.0
 40
110.866352283089995
 50
16.9596461956543791
 51
35.8365725806952398
1001
ACDBBLOCKREPETAG
1070
     1
1071
       38
1005
0
  0
ARC
  5
126DBA
  8
OBJECT
 10
4382.8640112230941668
 20
-1077.2877497184490494
 30
0.0
 40
60.7917498803589567
 50
0.2712030171733432
 51
16.4527953477868785
1001
ACDBBLOCKREPETAG
1070
     1
1071
       39
1005
0
  0
ARC
  5
126DBB
  8
OBJECT
 10
4382.8640043437508211
 20
-1083.7122497599009421
 30
0.0
 40
60.7917567620948702
 50
343.5472205394797811
 51
359.7287965218546901
1001
ACDBBLOCKREPETAG
1070
     1
1071
       40
1005
0
  0
ARC
  5
126DBC
  8
OBJECT
 10
4335.1217271212262858
 20
-1068.5904927388360193
 30
0.0
 40
110.8663522830916008
 50
324.16342741930481
 51
343.0403538043456138
1001
ACDBBLOCKREPETAG
1070
     1
1071
       41
1005
0
  0
LINE
  5
126DBD
  8
OBJECT
 10
4443.6550800869936211
 20
-1077.000000000035925
 30
0.0
 11
4443.6550800869936211
 21
-1084.0000000000329692
 31
0.0
1001
ACDBBLOCKREPETAG
1070
     1
1071
       42
1005
0
  0
LINE
  5
126DBE
  8
OBJECT
 10
4425.0
 20
-1027.5000000000650289
 30
0.0
 11
4418.5
 21
-1027.5000000000650289
 31
0.0
1001
ACDBBLOCKREPETAG
1070
     1
1071
       43
1005
0
  0
LINE
  5
126DBF
  8
OBJECT
 10
4425.0
 20
-1133.5
 30
0.0
 11
4415.5
 21
-1133.5
 31
0.0
1001
ACDBBLOCKREPETAG
1070
     1
1071
       44
1005
0
  0
LINE
  5
126DC0
  8
OBJECT
 10
4425.0
 20
-1133.5
 30
0.0
 11
4425.0
 21
-1163.0
 31
0.0
1001
ACDBBLOCKREPETAG
1070
     1
1071
        1
1005
126DA2
  0
CIRCLE
  5
126DC1
  8
HIDDEN
 10
4500.0
 20
-1084.0
 30
0.0
 40
35.5
1001
ACDBBLOCKREPETAG
1070
     1
1071
       11
1005
126DC1
  0
LINE
  5
126DC2
  8
CENTER
 10
4430.0
 20
-1084.0
 30
0.0
 11
4570.0
 21
-1084.0
 31
0.0
1001
ACDBBLOCKREPETAG
1070
     1
1071
       12
1005
126DC2
  0
CIRCLE
  5
126DC3
  8
HIDDEN
 10
4500.0
 20
-1084.0
 30
0.0
 40
47.0
1001
ACDBBLOCKREPETAG
1070
     1
1071
       14
1005
126DC3
  0
ARC
  5
126DC4
  8
HIDDEN
 10
4500.0
 20
-1084.0
 30
0.0
 40
55.0
 50
289.0112652601093259
 51
250.9887347398907878
1001
ACDBBLOCKREPETAG
1070
     1
1071
       15
1005
126DC4
  0
LINE
  5
126DC5
  8
HIDDEN
 10
4482.083527132832387
 20
-1136.0
 30
0.0
 11
4517.916472867167613
 21
-1136.0
 31
0.0
1001
ACDBBLOCKREPETAG
1070
     1
1071
       16
1005
126DC5
  0
LINE
  5
126DC6
  8
SLIM
  6
CONTINUOUS
 10
4437.0780801266409981
 20
-142.8525416186271002
 30
0.0
 11
4442.8525416186257644
 21
-137.0780801266436981
 31
0.0
1001
GRADIENTCOLOR1ACI
1070
     5
1001
GRADIENTCOLOR2ACI
1070
     2
1001
ACAD
1010
0.0
1020
0.0
1030
0.0
  0
LINE
  5
126DC7
  8
SLIM
  6
CONTINUOUS
 10
4434.0585651723840783
 20
-253.6351300257138064
 30
0.0
 11
4437.6139505055289192
 21
-250.079744692570813
 31
0.0
1001
GRADIENTCOLOR1ACI
1070
     5
1001
GRADIENTCOLOR2ACI
1070
     2
1001
ACAD
1010
0.0
1020
0.0
1030
0.0
  0
LINE
  5
126DC8
  8
SLIM
  6
CONTINUOUS
 10
4550.0797446925707845
 20
-137.6139505055261907
 30
0.0
 11
4553.6351300257156254
 21
-134.0585651723835952
 31
0.0
1001
GRADIENTCOLOR1ACI
1070
     5
1001
GRADIENTCOLOR2ACI
1070
     2
1001
ACAD
1010
0.0
1020
0.0
1030
0.0
  0
LINE
  5
126DC9
  8
SLIM
  6
CONTINUOUS
 10
4438.2559108384339197
 20
-258.4180404807324862
 30
0.0
 11
4441.792883571699349
 21
-254.8810677474679949
 31
0.0
1001
GRADIENTCOLOR1ACI
1070
     5
1001
GRADIENTCOLOR2ACI
1070
     2
1001
ACAD
1010
0.0
1020
0.0
1030
0.0
  0
LINE
  5
126DCA
  8
SLIM
  6
CONTINUOUS
 10
4442.7895530992300337
 20
-262.8646543410059166
 30
0.0
 11
4446.3292499152557866
 21
-259.324957524981528
 31
0.0
1001
GRADIENTCOLOR1ACI
1070
     5
1001
GRADIENTCOLOR2ACI
1070
     2
1001
ACAD
1010
0.0
1020
0.0
1030
0.0
  0
LINE
  5
126DCB
  8
SLIM
  6
CONTINUOUS
 10
4447.6602278408981874
 20
-266.9742357204095242
 30
0.0
 11
4451.2239334370169672
 21
-263.4105301242889254
 31
0.0
1001
GRADIENTCOLOR1ACI
1070
     5
1001
GRADIENTCOLOR2ACI
1070
     2
1001
ACAD
1010
0.0
1020
0.0
1030
0.0
  0
LINE
  5
126DCC
  8
SLIM
  6
CONTINUOUS
 10
4452.8744636491574056
 20
-270.7402560332179746
 30
0.0
 11
4456.4847943404729449
 21
-267.1299253419006163
 31
0.0
1001
GRADIENTCOLOR1ACI
1070
     5
1001
GRADIENTCOLOR2ACI
1070
     2
1001
ACAD
1010
0.0
1020
0.0
1030
0.0
  0
LINE
  5
126DCD
  8
SLIM
  6
CONTINUOUS
 10
4458.4451596158778557
 20
-274.1498161875670121
 30
0.0
 11
4462.1274603210285932
 21
-270.4675154824162746
 31
0.0
1001
GRADIENTCOLOR1ACI
1070
     5
1001
GRADIENTCOLOR2ACI
1070
     2
1001
ACAD
1010
0.0
1020
0.0
1030
0.0
  0
LINE
  5
126DCE
  8
SLIM
  6
CONTINUOUS
 10
4464.3928021705123683
 20
-277.182429754001987
 30
0.0
 11
4468.177017955717929
 21
-273.3982139687959716
 31
0.0
1001
GRADIENTCOLOR1ACI
1070
     5
1001
GRADIENTCOLOR2ACI
1070
     2
1001
ACAD
1010
0.0
1020
0.0
1030
0.0
  0
LINE
  5
126DCF
  8
SLIM
  6
CONTINUOUS
 10
4470.7476087110389926
 20
-279.8078793345449071
 30
0.0
 11
4474.6710680094620329
 21
-275.8844200361214121
 31
0.0
1001
GRADIENTCOLOR1ACI
1070
     5
1001
GRADIENTCOLOR2ACI
1070
     2
1001
ACAD
1010
0.0
1020
0.0
1030
0.0
  0
LINE
  5
126DD0
  8
SLIM
  6
CONTINUOUS
 10
4477.5531826594624363
 20
-281.9825615071908942
 30
0.0
 11
4481.6651300447410904
 21
-277.8706141219108758
 31
0.0
1001
GRADIENTCOLOR1ACI
1070
     5
1001
GRADIENTCOLOR2ACI
1070
     2
1001
ACAD
1010
0.0
1020
0.0
1030
0.0
  0
LINE
  5
126DD1
  8
SLIM
  6
CONTINUOUS
 10
4484.872886737661247
 20
-283.6431135500602068
 30
0.0
 11
4489.2425647228483285
 21
-279.2734355648711926
 31
0.0
1001
GRADIENTCOLOR1ACI
1070
     5
1001
GRADIENTCOLOR2ACI
1070
     2
1001
ACAD
1010
0.0
1020
0.0
1030
0.0
  0
LINE
  5
126DD2
  8
SLIM
  6
CONTINUOUS
 10
4492.8016097219697258
 20
-284.694646686818885
 30
0.0
 11
4497.5342645095697662
 21
-279.961991899221573
 31
0.0
1001
GRADIENTCOLOR1ACI
1070
     5
1001
GRADIENTCOLOR2ACI
1070
     2
1001
ACAD
1010
0.0
1020
0.0
1030
0.0
  0
LINE
  5
126DD3
  8
SLIM
  6
CONTINUOUS
 10
4501.4895653253533965
 20
-284.986947204505725
 30
0.0
 11
4506.7628783344925978
 21
-279.7136341953673764
 31
0.0
1001
GRADIENTCOLOR1ACI
1070
     5
1001
GRADIENTCOLOR2ACI
1070
     2
1001
ACAD
1010
0.0
1020
0.0
1030
0.0
  0
LINE
  5
126DD4
  8
SLIM
  6
CONTINUOUS
 10
4511.1975572108103734
 20
-284.2592114401177241
 30
0.0
 11
4517.3639095287417149
 21
-278.0928591221863826
 31
0.0
1001
GRADIENTCOLOR1ACI
1070
     5
1001
GRADIENTCOLOR2ACI
1070
     2
1001
ACAD
1010
0.0
1020
0.0
1030
0.0
  0
LINE
  5
126DD5
  8
SLIM
  6
CONTINUOUS
 10
4522.4573470157847623
 20
-281.9796777562128227
 30
0.0
 11
4530.4647319284949845
 21
-273.9722928435026006
 31
0.0
1001
GRADIENTCOLOR1ACI
1070
     5
1001
GRADIENTCOLOR2ACI
1070
     2
1001
ACAD
1010
0.0
1020
0.0
1030
0.0
  0
LINE
  5
126DD6
  8
SLIM
  6
CONTINUOUS
 10
4536.7930661714653979
 20
-276.624214721600822
 30
0.0
 11
4551.4172808930679821
 21
-261.9999999999990905
 31
0.0
1001
GRADIENTCOLOR1ACI
1070
     5
1001
GRADIENTCOLOR2ACI
1070
     2
1001
ACAD
1010
0.0
1020
0.0
1030
0.0
  0
LINE
  5
126DD7
  8
OBJECT
 10
71.0
 20
-2873.9999999993669917
 30
0.0
 11
64.0
 21
-2873.9999999993669917
 31
0.0
1001
ACDBBLOCKREPETAG
1070
     1
1071
       34
1005
126DD7
  0
LINE
  5
126DD8
  8
OBJECT
 10
64.0
 20
-2873.9999999993669917
 30
0.0
 11
64.0
 21
-2749.9999999993669917
 31
0.0
1001
ACDBBLOCKREPETAG
1070
     1
1071
       35
1005
126DD8
  0
LINE
  5
126DD9
  8
OBJECT
 10
64.0
 20
-2749.9999999993669917
 30
0.0
 11
71.0
 21
-2749.9999999993669917
 31
0.0
1001
ACDBBLOCKREPETAG
1070
     1
1071
       36
1005
126DD9
  0
LINE
  5
126DDA
  8
OBJECT
 10
71.0
 20
-2749.9999999993669917
 30
0.0
 11
71.0
 21
-2873.9999999993669917
 31
0.0
1001
ACDBBLOCKREPETAG
1070
     1
1071
       37
1005
126DDA
  0
LINE
  5
126DDB
  8
OBJECT
 10
71.0
 20
-2870.9999999993669917
 30
0.0
 11
107.0
 21
-2870.9999999993669917
 31
0.0
1001
ACDBBLOCKREPETAG
1070
     1
1071
       38
1005
126DDB
  0
LINE
  5
126DDC
  8
OBJECT
 10
107.0
 20
-2870.9999999993669917
 30
0.0
 11
107.0
 21
-2752.9999999993669917
 31
0.0
1001
ACDBBLOCKREPETAG
1070
     1
1071
       39
1005
126DDC
  0
LINE
  5
126DDD
  8
OBJECT
 10
107.0
 20
-2752.9999999993669917
 30
0.0
 11
71.0
 21
-2752.9999999993669917
 31
0.0
1001
ACDBBLOCKREPETAG
1070
     1
1071
       40
1005
126DDD
  0
LINE
  5
126DDE
  8
OBJECT
 10
111.0
 20
-2866.4999999993660822
 30
0.0
 11
121.5
 21
-2866.4999999993660822
 31
0.0
1001
ACDBBLOCKREPETAG
1070
     1
1071
       41
1005
126DDE
  0
LINE
  5
126DDF
  8
OBJECT
 10
121.5
 20
-2757.4999999993669917
 30
0.0
 11
111.0
 21
-2757.4999999993669917
 31
0.0
1001
ACDBBLOCKREPETAG
1070
     1
1071
       42
1005
126DDF
  0
LINE
  5
126DE0
  8
OBJECT
 10
111.0
 20
-2757.4999999993669917
 30
0.0
 11
111.0
 21
-2866.4999999993660822
 31
0.0
1001
ACDBBLOCKREPETAG
1070
     1
1071
       43
1005
126DE0
  0
LINE
  5
126DE1
  8
OBJECT
 10
107.0
 20
-2870.9999999993669917
 30
0.0
 11
111.0
 21
-2866.4999999993660822
 31
0.0
1001
ACDBBLOCKREPETAG
1070
     1
1071
       44
1005
126DE1
  0
LINE
  5
126DE2
  8
OBJECT
 10
107.0
 20
-2752.9999999993669917
 30
0.0
 11
111.0
 21
-2757.4999999993669917
 31
0.0
1001
ACDBBLOCKREPETAG
1070
     1
1071
       45
1005
126DE2
  0
LINE
  5
126DE3
  8
OBJECT
 10
126.5
 20
-2861.4999999993669917
 30
0.0
 11
147.655080087021787
 21
-2861.4999999993660822
 31
0.0
1001
ACDBBLOCKREPETAG
1070
     1
1071
       46
1005
126DE3
  0
LINE
  5
126DE4
  8
OBJECT
 10
126.5
 20
-2762.4999999993669917
 30
0.0
 11
147.6550800870226965
 21
-2762.4999999993669917
 31
0.0
1001
ACDBBLOCKREPETAG
1070
     1
1071
       47
1005
126DE4
  0
LINE
  5
126DE5
  8
OBJECT
 10
121.5
 20
-2866.4999999993660822
 30
0.0
 11
121.5
 21
-2757.4999999993669917
 31
0.0
1001
ACDBBLOCKREPETAG
1070
     1
1071
       48
1005
126DE5
  0
LINE
  5
126DE6
  8
OBJECT
 10
126.5
 20
-2861.4999999993669917
 30
0.0
 11
126.5
 21
-2762.4999999993669917
 31
0.0
1001
ACDBBLOCKREPETAG
1070
     1
1071
       49
1005
126DE6
  0
LINE
  5
126DE7
  8
OBJECT
 10
121.5
 20
-2866.4999999993660822
 30
0.0
 11
126.5
 21
-2861.4999999993669917
 31
0.0
1001
ACDBBLOCKREPETAG
1070
     1
1071
       50
1005
126DE7
  0
LINE
  5
126DE8
  8
OBJECT
 10
126.5
 20
-2762.4999999993669917
 30
0.0
 11
121.5
 21
-2757.4999999993710844
 31
0.0
1001
ACDBBLOCKREPETAG
1070
     1
1071
       51
1005
126DE8
  0
INSERT
  5
126DE9
  8
SLIM
  2
*U13
 10
0.0
 20
0.0
 30
0.0
  0
LINE
  5
126DEA
  8
HIDDEN
 10
116.0
 20
-2856.4999999993669917
 30
0.0
 11
116.0
 21
-2767.4999999993669917
 31
0.0
1001
ACDBBLOCKREPETAG
1070
     1
1071
       65
1005
126DEA
  0
LINE
  5
126DEB
  8
OBJECT
 10
266.0
 20
-2944.9999999993669917
 30
0.0
 11
266.0
 21
-2951.9999999993669917
 31
0.0
1001
ACDBBLOCKREPETAG
1070
     1
1071
       34
1005
126DEB
  0
LINE
  5
126DEC
  8
OBJECT
 10
266.0
 20
-2951.9999999993669917
 30
0.0
 11
142.0
 21
-2951.9999999993669917
 31
0.0
1001
ACDBBLOCKREPETAG
1070
     1
1071
       35
1005
126DEC
  0
LINE
  5
126DED
  8
OBJECT
 10
142.0
 20
-2951.9999999993669917
 30
0.0
 11
142.0
 21
-2944.9999999993669917
 31
0.0
1001
ACDBBLOCKREPETAG
1070
     1
1071
       36
1005
126DED
  0
LINE
  5
126DEE
  8
OBJECT
 10
142.0
 20
-2944.9999999993669917
 30
0.0
 11
266.0
 21
-2944.9999999993669917
 31
0.0
1001
ACDBBLOCKREPETAG
1070
     1
1071
       37
1005
126DEE
  0
LINE
  5
126DEF
  8
OBJECT
 10
263.0
 20
-2944.9999999993669917
 30
0.0
 11
263.0
 21
-2908.9999999993669917
 31
0.0
1001
ACDBBLOCKREPETAG
1070
     1
1071
       38
1005
126DEF
  0
LINE
  5
126DF0
  8
OBJECT
 10
263.0
 20
-2908.9999999993669917
 30
0.0
 11
145.0
 21
-2908.9999999993669917
 31
0.0
1001
ACDBBLOCKREPETAG
1070
     1
1071
       39
1005
126DF0
  0
LINE
  5
126DF1
  8
OBJECT
 10
145.0
 20
-2908.9999999993669917
 30
0.0
 11
145.0
 21
-2944.9999999993669917
 31
0.0
1001
ACDBBLOCKREPETAG
1070
     1
1071
       40
1005
126DF1
  0
LINE
  5
126DF2
  8
OBJECT
 10
258.5
 20
-2904.9999999993669917
 30
0.0
 11
258.5
 21
-2894.4999999993669917
 31
0.0
1001
ACDBBLOCKREPETAG
1070
     1
1071
       41
1005
126DF2
  0
LINE
  5
126DF3
  8
OBJECT
 10
149.5
 20
-2894.4999999993669917
 30
0.0
 11
149.5
 21
-2904.9999999993669917
 31
0.0
1001
ACDBBLOCKREPETAG
1070
     1
1071
       42
1005
126DF3
  0
LINE
  5
126DF4
  8
OBJECT
 10
149.5
 20
-2904.9999999993669917
 30
0.0
 11
258.5
 21
-2904.9999999993669917
 31
0.0
1001
ACDBBLOCKREPETAG
1070
     1
1071
       43
1005
126DF4
  0
LINE
  5
126DF5
  8
OBJECT
 10
263.0
 20
-2908.9999999993669917
 30
0.0
 11
258.5
 21
-2904.9999999993669917
 31
0.0
1001
ACDBBLOCKREPETAG
1070
     1
1071
       44
1005
126DF5
  0
LINE
  5
126DF6
  8
OBJECT
 10
145.0
 20
-2908.9999999993669917
 30
0.0
 11
149.5
 21
-2904.9999999993669917
 31
0.0
1001
ACDBBLOCKREPETAG
1070
     1
1071
       45
1005
126DF6
  0
LINE
  5
126DF7
  8
OBJECT
 10
253.5
 20
-2889.4999999993669917
 30
0.0
 11
253.4999999999990905
 21
-2868.3449199123460858
 31
0.0
1001
ACDBBLOCKREPETAG
1070
     1
1071
       46
1005
126DF7
  0
LINE
  5
126DF8
  8
OBJECT
 10
154.5
 20
-2889.4999999993669917
 30
0.0
 11
154.5
 21
-2868.3449199123451763
 31
0.0
1001
ACDBBLOCKREPETAG
1070
     1
1071
       47
1005
126DF8
  0
LINE
  5
126DF9
  8
OBJECT
 10
258.5
 20
-2894.4999999993669917
 30
0.0
 11
149.5
 21
-2894.4999999993669917
 31
0.0
1001
ACDBBLOCKREPETAG
1070
     1
1071
       48
1005
126DF9
  0
LINE
  5
126DFA
  8
OBJECT
 10
253.5
 20
-2889.4999999993669917
 30
0.0
 11
154.5
 21
-2889.4999999993669917
 31
0.0
1001
ACDBBLOCKREPETAG
1070
     1
1071
       49
1005
126DFA
  0
LINE
  5
126DFB
  8
OBJECT
 10
258.5
 20
-2894.4999999993669917
 30
0.0
 11
253.5
 21
-2889.4999999993669917
 31
0.0
1001
ACDBBLOCKREPETAG
1070
     1
1071
       50
1005
126DFB
  0
LINE
  5
126DFC
  8
OBJECT
 10
154.5
 20
-2889.4999999993669917
 30
0.0
 11
149.5000000000036096
 21
-2894.4999999993669917
 31
0.0
1001
ACDBBLOCKREPETAG
1070
     1
1071
       51
1005
126DFC
  0
INSERT
  5
126DFD
  8
SLIM
  2
*U14
 10
0.0
 20
0.0
 30
0.0
  0
LINE
  5
126DFE
  8
HIDDEN
 10
248.5
 20
-2899.9999999993669917
 30
0.0
 11
159.5
 21
-2899.9999999993669917
 31
0.0
1001
ACDBBLOCKREPETAG
1070
     1
1071
       65
1005
126DFE
  0
CIRCLE
  5
126DFF
  8
OBJECT
 10
204.0
 20
-2811.9999999993669917
 30
0.0
 40
70.0
1001
ACDBBLOCKREPETAG
1070
     1
1071
       50
1005
126DFF
  0
CIRCLE
  5
126E00
  8
OBJECT
 10
204.0
 20
-2811.9999999993669917
 30
0.0
 40
75.0
1001
ACDBBLOCKREPETAG
1070
     1
1071
       51
1005
126E00
  0
POINT
  5
126E01
  8
DOTS
 10
204.0
 20
-2811.9999999993669917
 30
0.0
1001
ACDBBLOCKREPETAG
1070
     1
1071
       63
1005
126E01
  0
ARC
  5
126E02
  8
OBJECT
 10
204.0
 20
-2811.9999999993669917
 30
0.0
 40
55.0
 50
299.3022457642807126
 51
240.6977542359875883
1001
ACDBBLOCKREPETAG
1070
     1
1071
       50
1005
126DFF
  0
LINE
  5
126E03
  8
OBJECT
 10
180.175796075250986
 20
-2857.6779614441220474
 30
0.0
 11
172.1876176729984138
 21
-2863.5774584429159404
 31
0.0
  0
ARC
  5
126E04
  8
OBJECT
 10
183.1461853586351936
 20
-2861.6999991745710759
 30
0.0
 40
5.0
 50
90.0
 51
126.4469224760808004
  0
LINE
  5
126E05
  8
OBJECT
 10
227.8242039246960928
 20
-2857.6779614439951729
 30
0.0
 11
235.8124539800938066
 21
-2863.5775113601448538
 31
0.0
  0
ARC
  5
126E06
  8
OBJECT
 10
224.8538146414830123
 20
-2861.6999991745710759
 30
0.0
 40
5.0
 50
53.5530775262745422
 51
90.0
  0
LINE
  5
126E07
  8
OBJECT
 10
224.8538146414830123
 20
-2856.6999991745710759
 30
0.0
 11
183.1461853586351936
 21
-2856.6999991745710759
 31
0.0
  0
ARC
  5
126E08
  8
OBJECT
 10
231.0598311269532132
 20
-2870.0127717290670262
 30
0.0
 40
8.0
 50
16.4762162479710383
 51
53.5530775262745422
  0
ARC
  5
126E09
  8
OBJECT
 10
176.9401688730449109
 20
-2870.0127717290670262
 30
0.0
 40
8.0
 50
126.4469224737253938
 51
163.5237837520288906
  0
LINE
  5
126E0A
  8
OBJECT
 10
169.2686684859745014
 20
-2867.7438332523438476
 30
0.0
 11
168.0
 21
-2872.0333240785839735
 31
0.0
  0
LINE
  5
126E0B
  8
OBJECT
 10
238.7313315140254986
 20
-2867.7438332523438476
 30
0.0
 11
240.0
 21
-2872.0333240785839735
 31
0.0
  0
LINE
  5
126E0C
  8
OBJECT
 10
430.9999999998781277
 20
-2402.9999999995261533
 30
0.0
 11
423.999999999878014
 21
-2402.9999999995261533
 31
0.0
1001
ACDBBLOCKREPETAG
1070
     1
1071
       18
1005
126E0C
  0
LINE
  5
126E0D
  8
OBJECT
 10
423.999999999878014
 20
-2402.9999999995261533
 30
0.0
 11
423.999999999878014
 21
-2292.999999999524789
 31
0.0
1001
ACDBBLOCKREPETAG
1070
     1
1071
       19
1005
126E0D
  0
LINE
  5
126E0E
  8
OBJECT
 10
423.999999999878014
 20
-2292.999999999524789
 30
0.0
 11
430.9999999998781277
 21
-2292.999999999524789
 31
0.0
1001
ACDBBLOCKREPETAG
1070
     1
1071
       20
1005
126E0E
  0
LINE
  5
126E0F
  8
OBJECT
 10
430.9999999998781277
 20
-2292.999999999524789
 30
0.0
 11
430.9999999998781277
 21
-2402.9999999995261533
 31
0.0
1001
ACDBBLOCKREPETAG
1070
     1
1071
       21
1005
126E0F
  0
LINE
  5
126E10
  8
OBJECT
 10
430.9999999998781277
 20
-2399.9999999995261533
 30
0.0
 11
466.999999999878014
 21
-2399.9999999995261533
 31
0.0
1001
ACDBBLOCKREPETAG
1070
     1
1071
       22
1005
126E10
  0
LINE
  5
126E11
  8
OBJECT
 10
466.999999999878014
 20
-2399.9999999995261533
 30
0.0
 11
466.999999999878014
 21
-2295.999999999524789
 31
0.0
1001
ACDBBLOCKREPETAG
1070
     1
1071
       23
1005
126E11
  0
LINE
  5
126E12
  8
OBJECT
 10
466.999999999878014
 20
-2295.999999999524789
 30
0.0
 11
430.9999999998781277
 21
-2295.999999999524789
 31
0.0
1001
ACDBBLOCKREPETAG
1070
     1
1071
       24
1005
126E12
  0
LINE
  5
126E13
  8
OBJECT
 10
470.999999999878014
 20
-2395.499999999524789
 30
0.0
 11
479.499999999878014
 21
-2395.499999999524789
 31
0.0
1001
ACDBBLOCKREPETAG
1070
     1
1071
       25
1005
126E13
  0
LINE
  5
126E14
  8
OBJECT
 10
479.499999999878014
 20
-2300.499999999524789
 30
0.0
 11
470.999999999878014
 21
-2300.499999999524789
 31
0.0
1001
ACDBBLOCKREPETAG
1070
     1
1071
       26
1005
126E14
  0
LINE
  5
126E15
  8
OBJECT
 10
470.999999999878014
 20
-2300.499999999524789
 30
0.0
 11
470.999999999878014
 21
-2395.499999999524789
 31
0.0
1001
ACDBBLOCKREPETAG
1070
     1
1071
       27
1005
126E15
  0
LINE
  5
126E16
  8
OBJECT
 10
466.999999999878014
 20
-2399.9999999995261533
 30
0.0
 11
470.999999999878014
 21
-2395.499999999524789
 31
0.0
1001
ACDBBLOCKREPETAG
1070
     1
1071
       28
1005
126E16
  0
LINE
  5
126E17
  8
OBJECT
 10
466.999999999878014
 20
-2295.999999999524789
 30
0.0
 11
470.999999999878014
 21
-2300.499999999524789
 31
0.0
1001
ACDBBLOCKREPETAG
1070
     1
1071
       29
1005
126E17
  0
LINE
  5
126E18
  8
OBJECT
 10
479.4999999998798899
 20
-2298.499999999524789
 30
0.0
 11
479.499999999878014
 21
-2397.499999999524789
 31
0.0
1001
ACDBBLOCKREPETAG
1070
     1
1071
       30
1005
126E18
  0
LINE
  5
126E19
  8
OBJECT
 10
479.499999999878014
 20
-2397.499999999524789
 30
0.0
 11
507.6550800868989199
 21
-2397.4999999995238795
 31
0.0
1001
ACDBBLOCKREPETAG
1070
     1
1071
       31
1005
126E19
  0
LINE
  5
126E1A
  8
OBJECT
 10
479.4999999998798899
 20
-2298.499999999524789
 30
0.0
 11
507.6550800868998863
 21
-2298.4999999995238795
 31
0.0
1001
ACDBBLOCKREPETAG
1070
     1
1071
       32
1005
126E1A
  0
INSERT
  5
126E1B
  8
SLIM
  2
*U15
 10
0.0
 20
0.0
 30
0.0
  0
LINE
  5
126E1C
  8
HIDDEN
 10
475.999999999878014
 20
-2385.999999999524789
 30
0.0
 11
475.999999999878014
 21
-2309.999999999524789
 31
0.0
1001
ACDBBLOCKREPETAG
1070
     1
1071
       57
1005
126E1C
  0
LINE
  5
126E1D
  8
OBJECT
 10
625.9999999998781277
 20
-2480.9999999995261533
 30
0.0
 11
625.9999999998781277
 21
-2487.999999999524789
 31
0.0
1001
ACDBBLOCKREPETAG
1070
     1
1071
       34
1005
126E1D
  0
LINE
  5
126E1E
  8
OBJECT
 10
625.9999999998781277
 20
-2487.999999999524789
 30
0.0
 11
501.999999999878014
 21
-2487.999999999524789
 31
0.0
1001
ACDBBLOCKREPETAG
1070
     1
1071
       35
1005
126E1E
  0
LINE
  5
126E1F
  8
OBJECT
 10
501.999999999878014
 20
-2487.999999999524789
 30
0.0
 11
501.999999999878014
 21
-2480.9999999995261533
 31
0.0
1001
ACDBBLOCKREPETAG
1070
     1
1071
       36
1005
126E1F
  0
LINE
  5
126E20
  8
OBJECT
 10
501.999999999878014
 20
-2480.9999999995261533
 30
0.0
 11
625.9999999998781277
 21
-2480.9999999995261533
 31
0.0
1001
ACDBBLOCKREPETAG
1070
     1
1071
       37
1005
126E20
  0
LINE
  5
126E21
  8
OBJECT
 10
622.9999999998781277
 20
-2480.9999999995261533
 30
0.0
 11
622.9999999998781277
 21
-2444.999999999524789
 31
0.0
1001
ACDBBLOCKREPETAG
1070
     1
1071
       38
1005
126E21
  0
LINE
  5
126E22
  8
OBJECT
 10
622.9999999998781277
 20
-2444.999999999524789
 30
0.0
 11
504.999999999878014
 21
-2444.999999999524789
 31
0.0
1001
ACDBBLOCKREPETAG
1070
     1
1071
       39
1005
126E22
  0
LINE
  5
126E23
  8
OBJECT
 10
504.999999999878014
 20
-2444.999999999524789
 30
0.0
 11
504.999999999878014
 21
-2480.9999999995261533
 31
0.0
1001
ACDBBLOCKREPETAG
1070
     1
1071
       40
1005
126E23
  0
LINE
  5
126E24
  8
OBJECT
 10
618.4999999998781277
 20
-2440.999999999524789
 30
0.0
 11
618.4999999998781277
 21
-2430.4999999995261533
 31
0.0
1001
ACDBBLOCKREPETAG
1070
     1
1071
       41
1005
126E24
  0
LINE
  5
126E25
  8
OBJECT
 10
509.499999999878014
 20
-2430.4999999995261533
 30
0.0
 11
509.499999999878014
 21
-2440.999999999524789
 31
0.0
1001
ACDBBLOCKREPETAG
1070
     1
1071
       42
1005
126E25
  0
LINE
  5
126E26
  8
OBJECT
 10
509.499999999878014
 20
-2440.999999999524789
 30
0.0
 11
618.4999999998781277
 21
-2440.999999999524789
 31
0.0
1001
ACDBBLOCKREPETAG
1070
     1
1071
       43
1005
126E26
  0
LINE
  5
126E27
  8
OBJECT
 10
622.9999999998781277
 20
-2444.999999999524789
 30
0.0
 11
618.4999999998781277
 21
-2440.999999999524789
 31
0.0
1001
ACDBBLOCKREPETAG
1070
     1
1071
       44
1005
126E27
  0
LINE
  5
126E28
  8
OBJECT
 10
504.999999999878014
 20
-2444.999999999524789
 30
0.0
 11
509.499999999878014
 21
-2440.999999999524789
 31
0.0
1001
ACDBBLOCKREPETAG
1070
     1
1071
       45
1005
126E28
  0
LINE
  5
126E29
  8
OBJECT
 10
613.4999999998781277
 20
-2425.499999999524789
 30
0.0
 11
613.4999999998772182
 21
-2404.3449199125038831
 31
0.0
1001
ACDBBLOCKREPETAG
1070
     1
1071
       46
1005
126E29
  0
LINE
  5
126E2A
  8
OBJECT
 10
514.499999999878014
 20
-2425.499999999524789
 30
0.0
 11
514.499999999878014
 21
-2404.3449199125029736
 31
0.0
1001
ACDBBLOCKREPETAG
1070
     1
1071
       47
1005
126E2A
  0
LINE
  5
126E2B
  8
OBJECT
 10
618.4999999998781277
 20
-2430.4999999995261533
 30
0.0
 11
509.499999999878014
 21
-2430.4999999995261533
 31
0.0
1001
ACDBBLOCKREPETAG
1070
     1
1071
       48
1005
126E2B
  0
LINE
  5
126E2C
  8
OBJECT
 10
613.4999999998781277
 20
-2425.499999999524789
 30
0.0
 11
514.499999999878014
 21
-2425.499999999524789
 31
0.0
1001
ACDBBLOCKREPETAG
1070
     1
1071
       49
1005
126E2C
  0
LINE
  5
126E2D
  8
OBJECT
 10
618.4999999998781277
 20
-2430.4999999995261533
 30
0.0
 11
613.4999999998781277
 21
-2425.499999999524789
 31
0.0
1001
ACDBBLOCKREPETAG
1070
     1
1071
       50
1005
126E2D
  0
LINE
  5
126E2E
  8
OBJECT
 10
514.499999999878014
 20
-2425.499999999524789
 30
0.0
 11
509.4999999998815952
 21
-2430.4999999995261533
 31
0.0
1001
ACDBBLOCKREPETAG
1070
     1
1071
       51
1005
126E2E
  0
INSERT
  5
126E2F
  8
SLIM
  2
*U16
 10
0.0
 20
0.0
 30
0.0
  0
LINE
  5
126E30
  8
HIDDEN
 10
608.4999999998781277
 20
-2435.9999999995261533
 30
0.0
 11
519.4999999998779003
 21
-2435.9999999995261533
 31
0.0
1001
ACDBBLOCKREPETAG
1070
     1
1071
       65
1005
126E30
  0
CIRCLE
  5
126E31
  8
OBJECT
 10
563.999999999878014
 20
-2347.9999999995261533
 30
0.0
 40
70.0
1001
ACDBBLOCKREPETAG
1070
     1
1071
       50
1005
126E31
  0
CIRCLE
  5
126E32
  8
OBJECT
 10
563.999999999878014
 20
-2347.9999999995261533
 30
0.0
 40
75.0
1001
ACDBBLOCKREPETAG
1070
     1
1071
       51
1005
126E32
  0
POINT
  5
126E33
  8
DOTS
 10
563.999999999878014
 20
-2347.9999999995261533
 30
0.0
1001
ACDBBLOCKREPETAG
1070
     1
1071
       63
1005
126E33
  0
ARC
  5
126E34
  8
OBJECT
 10
563.999999999878014
 20
-2347.9999999995261533
 30
0.0
 40
55.0
 50
299.3022457642791778
 51
240.6977542359890094
1001
ACDBBLOCKREPETAG
1070
     1
1071
       50
1005
126E31
  0
LINE
  5
126E35
  8
OBJECT
 10
540.1757960751292558
 20
-2393.6779614442798447
 30
0.0
 11
532.1876176728762857
 21
-2399.5774584430719187
 31
0.0
  0
ARC
  5
126E36
  8
OBJECT
 10
543.1461853585132076
 20
-2397.6999991747288732
 30
0.0
 40
5.0
 50
90.0
 51
126.4469224760793935
  0
LINE
  5
126E37
  8
OBJECT
 10
587.824203924574249
 20
-2393.6779614441529702
 30
0.0
 11
595.8124539799720196
 21
-2399.5775113603031059
 31
0.0
  0
ARC
  5
126E38
  8
OBJECT
 10
584.8538146413610548
 20
-2397.6999991747288732
 30
0.0
 40
5.0
 50
53.5530775262758425
 51
90.0
  0
LINE
  5
126E39
  8
OBJECT
 10
584.8538146413610548
 20
-2392.6999991747288732
 30
0.0
 11
543.1461853585132076
 21
-2392.6999991747288732
 31
0.0
  0
ARC
  5
126E3A
  8
OBJECT
 10
591.059831126831341
 20
-2406.0127717292248235
 30
0.0
 40
8.0
 50
16.4762162479710383
 51
53.5530775262758425
  0
ARC
  5
126E3B
  8
OBJECT
 10
536.9401688729228681
 20
-2406.0127717292248235
 30
0.0
 40
8.0
 50
126.4469224737241007
 51
163.5237837520288906
  0
LINE
  5
126E3C
  8
OBJECT
 10
529.268668485852686
 20
-2403.7438332525020996
 30
0.0
 11
527.9999999998779003
 21
-2408.033324078743135
 31
0.0
  0
LINE
  5
126E3D
  8
OBJECT
 10
598.7313315139035694
 20
-2403.7438332525020996
 30
0.0
 11
599.9999999998781277
 21
-2408.033324078743135
 31
0.0
  0
LINE
  5
126E3E
  8
OBJECT
 10
70.9999999999996447
 20
-2394.999999999524789
 30
0.0
 11
63.9999999999996518
 21
-2394.999999999524789
 31
0.0
1001
ACDBBLOCKREPETAG
1070
     1
1071
        0
1005
126E3E
  0
LINE
  5
126E3F
  8
OBJECT
 10
63.9999999999996518
 20
-2394.999999999524789
 30
0.0
 11
63.9999999999996518
 21
-2300.999999999524789
 31
0.0
1001
ACDBBLOCKREPETAG
1070
     1
1071
        1
1005
126E3F
  0
LINE
  5
126E40
  8
OBJECT
 10
63.9999999999996518
 20
-2300.999999999524789
 30
0.0
 11
70.9999999999996447
 21
-2300.999999999524789
 31
0.0
1001
ACDBBLOCKREPETAG
1070
     1
1071
        2
1005
126E40
  0
LINE
  5
126E41
  8
OBJECT
 10
70.9999999999996447
 20
-2300.999999999524789
 30
0.0
 11
70.9999999999996447
 21
-2394.999999999524789
 31
0.0
1001
ACDBBLOCKREPETAG
1070
     1
1071
        3
1005
126E41
  0
LINE
  5
126E42
  8
OBJECT
 10
70.9999999999996447
 20
-2391.999999999524789
 30
0.0
 11
106.9999999999996021
 21
-2391.999999999524789
 31
0.0
1001
ACDBBLOCKREPETAG
1070
     1
1071
        4
1005
126E42
  0
LINE
  5
126E43
  8
OBJECT
 10
106.9999999999996021
 20
-2391.999999999524789
 30
0.0
 11
106.9999999999996021
 21
-2303.999999999524789
 31
0.0
1001
ACDBBLOCKREPETAG
1070
     1
1071
        5
1005
126E43
  0
LINE
  5
126E44
  8
OBJECT
 10
106.9999999999996021
 20
-2303.999999999524789
 30
0.0
 11
70.9999999999996447
 21
-2303.999999999524789
 31
0.0
1001
ACDBBLOCKREPETAG
1070
     1
1071
        6
1005
126E44
  0
LINE
  5
126E45
  8
OBJECT
 10
110.9999999999996021
 20
-2387.499999999524789
 30
0.0
 11
119.4999999999987068
 21
-2387.499999999524789
 31
0.0
1001
ACDBBLOCKREPETAG
1070
     1
1071
        7
1005
126E45
  0
LINE
  5
126E46
  8
OBJECT
 10
119.4999999999996021
 20
-2308.4999999995261533
 30
0.0
 11
110.9999999999996021
 21
-2308.4999999995261533
 31
0.0
1001
ACDBBLOCKREPETAG
1070
     1
1071
        8
1005
126E46
  0
LINE
  5
126E47
  8
OBJECT
 10
110.9999999999996021
 20
-2308.4999999995261533
 30
0.0
 11
110.9999999999996021
 21
-2387.499999999524789
 31
0.0
1001
ACDBBLOCKREPETAG
1070
     1
1071
        9
1005
126E47
  0
LINE
  5
126E48
  8
OBJECT
 10
106.9999999999996021
 20
-2391.999999999524789
 30
0.0
 11
110.9999999999996021
 21
-2387.499999999524789
 31
0.0
1001
ACDBBLOCKREPETAG
1070
     1
1071
       10
1005
126E48
  0
LINE
  5
126E49
  8
OBJECT
 10
106.9999999999996021
 20
-2303.999999999524789
 30
0.0
 11
110.9999999999996021
 21
-2308.4999999995261533
 31
0.0
1001
ACDBBLOCKREPETAG
1070
     1
1071
       11
1005
126E49
  0
LINE
  5
126E4A
  8
OBJECT
 10
119.5000000000004974
 20
-2301.4999999995261533
 30
0.0
 11
119.4999999999987068
 21
-2394.4999999995261533
 31
0.0
1001
ACDBBLOCKREPETAG
1070
     1
1071
       12
1005
126E4A
  0
ARC
  5
126E4B
  8
OBJECT
 10
122.4999999999987068
 20
-2394.4999999995261533
 30
0.0
 40
3.0
 50
180.0
 51
270.0
1001
ACDBBLOCKREPETAG
1070
     1
1071
       13
1005
126E4B
  0
LINE
  5
126E4C
  8
OBJECT
 10
122.4999999999987068
 20
-2397.499999999524789
 30
0.0
 11
147.6550800870215028
 21
-2397.4999999995261533
 31
0.0
1001
ACDBBLOCKREPETAG
1070
     1
1071
       15
1005
126E4C
  0
LINE
  5
126E4D
  8
OBJECT
 10
122.5000000000003979
 20
-2298.499999999524789
 30
0.0
 11
147.6550800870205933
 21
-2298.4999999995261533
 31
0.0
1001
ACDBBLOCKREPETAG
1070
     1
1071
       16
1005
126E4D
  0
ARC
  5
126E4E
  8
OBJECT
 10
122.5000000000003979
 20
-2301.4999999995261533
 30
0.0
 40
3.0
 50
90.0
 51
180.0
1001
ACDBBLOCKREPETAG
1070
     1
1071
       17
1005
126E4E
  0
INSERT
  5
126E4F
  8
SLIM
  2
*U17
 10
0.0
 20
0.0
 30
0.0
  0
LINE
  5
126E50
  8
HIDDEN
 10
115.9999999999996021
 20
-2377.999999999524789
 30
0.0
 11
115.9999999999996021
 21
-2317.999999999524789
 31
0.0
1001
ACDBBLOCKREPETAG
1070
     1
1071
       56
1005
126E50
  0
LINE
  5
126E51
  8
OBJECT
 10
265.9999999999997158
 20
-2480.9999999995261533
 30
0.0
 11
265.9999999999997158
 21
-2487.999999999524789
 31
0.0
1001
ACDBBLOCKREPETAG
1070
     1
1071
       34
1005
126E51
  0
LINE
  5
126E52
  8
OBJECT
 10
265.9999999999997158
 20
-2487.999999999524789
 30
0.0
 11
141.9999999999996021
 21
-2487.999999999524789
 31
0.0
1001
ACDBBLOCKREPETAG
1070
     1
1071
       35
1005
126E52
  0
LINE
  5
126E53
  8
OBJECT
 10
141.9999999999996021
 20
-2487.999999999524789
 30
0.0
 11
141.9999999999996021
 21
-2480.9999999995261533
 31
0.0
1001
ACDBBLOCKREPETAG
1070
     1
1071
       36
1005
126E53
  0
LINE
  5
126E54
  8
OBJECT
 10
141.9999999999996021
 20
-2480.9999999995261533
 30
0.0
 11
265.9999999999997158
 21
-2480.9999999995261533
 31
0.0
1001
ACDBBLOCKREPETAG
1070
     1
1071
       37
1005
126E54
  0
LINE
  5
126E55
  8
OBJECT
 10
262.9999999999997158
 20
-2480.9999999995261533
 30
0.0
 11
262.9999999999997158
 21
-2444.999999999524789
 31
0.0
1001
ACDBBLOCKREPETAG
1070
     1
1071
       38
1005
126E55
  0
LINE
  5
126E56
  8
OBJECT
 10
262.9999999999997158
 20
-2444.999999999524789
 30
0.0
 11
144.9999999999996021
 21
-2444.999999999524789
 31
0.0
1001
ACDBBLOCKREPETAG
1070
     1
1071
       39
1005
126E56
  0
LINE
  5
126E57
  8
OBJECT
 10
144.9999999999996021
 20
-2444.999999999524789
 30
0.0
 11
144.9999999999996021
 21
-2480.9999999995261533
 31
0.0
1001
ACDBBLOCKREPETAG
1070
     1
1071
       40
1005
126E57
  0
LINE
  5
126E58
  8
OBJECT
 10
258.4999999999997158
 20
-2440.999999999524789
 30
0.0
 11
258.4999999999997158
 21
-2430.4999999995261533
 31
0.0
1001
ACDBBLOCKREPETAG
1070
     1
1071
       41
1005
126E58
  0
LINE
  5
126E59
  8
OBJECT
 10
149.4999999999996021
 20
-2430.4999999995261533
 30
0.0
 11
149.4999999999996021
 21
-2440.999999999524789
 31
0.0
1001
ACDBBLOCKREPETAG
1070
     1
1071
       42
1005
126E59
  0
LINE
  5
126E5A
  8
OBJECT
 10
149.4999999999996021
 20
-2440.999999999524789
 30
0.0
 11
258.4999999999997158
 21
-2440.999999999524789
 31
0.0
1001
ACDBBLOCKREPETAG
1070
     1
1071
       43
1005
126E5A
  0
LINE
  5
126E5B
  8
OBJECT
 10
262.9999999999997158
 20
-2444.999999999524789
 30
0.0
 11
258.4999999999997158
 21
-2440.999999999524789
 31
0.0
1001
ACDBBLOCKREPETAG
1070
     1
1071
       44
1005
126E5B
  0
LINE
  5
126E5C
  8
OBJECT
 10
144.9999999999996021
 20
-2444.999999999524789
 30
0.0
 11
149.4999999999996021
 21
-2440.999999999524789
 31
0.0
1001
ACDBBLOCKREPETAG
1070
     1
1071
       45
1005
126E5C
  0
LINE
  5
126E5D
  8
OBJECT
 10
253.4999999999996874
 20
-2425.499999999524789
 30
0.0
 11
253.4999999999988063
 21
-2404.3449199125038831
 31
0.0
1001
ACDBBLOCKREPETAG
1070
     1
1071
       46
1005
126E5D
  0
LINE
  5
126E5E
  8
OBJECT
 10
154.4999999999996021
 20
-2425.499999999524789
 30
0.0
 11
154.4999999999996021
 21
-2404.3449199125029736
 31
0.0
1001
ACDBBLOCKREPETAG
1070
     1
1071
       47
1005
126E5E
  0
LINE
  5
126E5F
  8
OBJECT
 10
258.4999999999997158
 20
-2430.4999999995261533
 30
0.0
 11
149.4999999999996021
 21
-2430.4999999995261533
 31
0.0
1001
ACDBBLOCKREPETAG
1070
     1
1071
       48
1005
126E5F
  0
LINE
  5
126E60
  8
OBJECT
 10
253.4999999999996874
 20
-2425.499999999524789
 30
0.0
 11
154.4999999999996021
 21
-2425.499999999524789
 31
0.0
1001
ACDBBLOCKREPETAG
1070
     1
1071
       49
1005
126E60
  0
LINE
  5
126E61
  8
OBJECT
 10
258.4999999999997158
 20
-2430.4999999995261533
 30
0.0
 11
253.4999999999996874
 21
-2425.499999999524789
 31
0.0
1001
ACDBBLOCKREPETAG
1070
     1
1071
       50
1005
126E61
  0
LINE
  5
126E62
  8
OBJECT
 10
154.4999999999996021
 20
-2425.499999999524789
 30
0.0
 11
149.5000000000032117
 21
-2430.4999999995261533
 31
0.0
1001
ACDBBLOCKREPETAG
1070
     1
1071
       51
1005
126E62
  0
INSERT
  5
126E63
  8
SLIM
  2
*U18
 10
0.0
 20
0.0
 30
0.0
  0
LINE
  5
126E64
  8
HIDDEN
 10
248.4999999999996874
 20
-2435.9999999995261533
 30
0.0
 11
159.4999999999996021
 21
-2435.9999999995261533
 31
0.0
1001
ACDBBLOCKREPETAG
1070
     1
1071
       65
1005
126E64
  0
CIRCLE
  5
126E65
  8
OBJECT
 10
203.9999999999996021
 20
-2347.9999999995261533
 30
0.0
 40
70.0
1001
ACDBBLOCKREPETAG
1070
     1
1071
       50
1005
126E65
  0
CIRCLE
  5
126E66
  8
OBJECT
 10
203.9999999999996021
 20
-2347.9999999995261533
 30
0.0
 40
75.0
1001
ACDBBLOCKREPETAG
1070
     1
1071
       51
1005
126E66
  0
POINT
  5
126E67
  8
DOTS
 10
203.9999999999996021
 20
-2347.9999999995261533
 30
0.0
1001
ACDBBLOCKREPETAG
1070
     1
1071
       63
1005
126E67
  0
ARC
  5
126E68
  8
OBJECT
 10
203.9999999999996021
 20
-2347.9999999995261533
 30
0.0
 40
55.0
 50
299.3022457642807126
 51
240.6977542359875883
1001
ACDBBLOCKREPETAG
1070
     1
1071
       50
1005
126E65
  0
LINE
  5
126E69
  8
OBJECT
 10
180.175796075250787
 20
-2393.6779614442798447
 30
0.0
 11
172.1876176729979875
 21
-2399.5774584430719187
 31
0.0
  0
ARC
  5
126E6A
  8
OBJECT
 10
183.1461853586347956
 20
-2397.6999991747288732
 30
0.0
 40
5.0
 50
90.0
 51
126.4469224760808004
  0
LINE
  5
126E6B
  8
OBJECT
 10
227.8242039246958086
 20
-2393.6779614441529702
 30
0.0
 11
235.8124539800934087
 21
-2399.5775113603031059
 31
0.0
  0
ARC
  5
126E6C
  8
OBJECT
 10
224.8538146414826997
 20
-2397.6999991747288732
 30
0.0
 40
5.0
 50
53.5530775262745422
 51
90.0
  0
LINE
  5
126E6D
  8
OBJECT
 10
224.8538146414826997
 20
-2392.6999991747288732
 30
0.0
 11
183.1461853586347956
 21
-2392.6999991747288732
 31
0.0
  0
ARC
  5
126E6E
  8
OBJECT
 10
231.0598311269529006
 20
-2406.0127717292248235
 30
0.0
 40
8.0
 50
16.4762162479710383
 51
53.5530775262745422
  0
ARC
  5
126E6F
  8
OBJECT
 10
176.9401688730445983
 20
-2406.0127717292248235
 30
0.0
 40
8.0
 50
126.4469224737253938
 51
163.5237837520288906
  0
LINE
  5
126E70
  8
OBJECT
 10
169.2686684859741035
 20
-2403.7438332525020996
 30
0.0
 11
167.9999999999996021
 21
-2408.033324078743135
 31
0.0
  0
LINE
  5
126E71
  8
OBJECT
 10
238.7313315140251007
 20
-2403.7438332525020996
 30
0.0
 11
239.9999999999996874
 21
-2408.033324078743135
 31
0.0
  0
LINE
  5
126E72
  8
OBJECT
 10
430.9999999998781277
 20
-1945.9999999996830411
 30
0.0
 11
423.999999999878014
 21
-1945.9999999996830411
 31
0.0
1001
ACDBBLOCKREPETAG
1070
     1
1071
       34
1005
126E72
  0
LINE
  5
126E73
  8
OBJECT
 10
423.999999999878014
 20
-1945.9999999996830411
 30
0.0
 11
423.999999999878014
 21
-1821.9999999996839506
 31
0.0
1001
ACDBBLOCKREPETAG
1070
     1
1071
       35
1005
126E73
  0
LINE
  5
126E74
  8
OBJECT
 10
423.999999999878014
 20
-1821.9999999996839506
 30
0.0
 11
430.9999999998781277
 21
-1821.9999999996839506
 31
0.0
1001
ACDBBLOCKREPETAG
1070
     1
1071
       36
1005
126E74
  0
LINE
  5
126E75
  8
OBJECT
 10
430.9999999998781277
 20
-1821.9999999996839506
 30
0.0
 11
430.9999999998781277
 21
-1945.9999999996830411
 31
0.0
1001
ACDBBLOCKREPETAG
1070
     1
1071
       37
1005
126E75
  0
LINE
  5
126E76
  8
OBJECT
 10
430.9999999998781277
 20
-1942.9999999996830411
 30
0.0
 11
466.999999999878014
 21
-1942.9999999996830411
 31
0.0
1001
ACDBBLOCKREPETAG
1070
     1
1071
       38
1005
126E76
  0
LINE
  5
126E77
  8
OBJECT
 10
466.999999999878014
 20
-1942.9999999996830411
 30
0.0
 11
466.999999999878014
 21
-1824.9999999996830411
 31
0.0
1001
ACDBBLOCKREPETAG
1070
     1
1071
       39
1005
126E77
  0
LINE
  5
126E78
  8
OBJECT
 10
466.999999999878014
 20
-1824.9999999996830411
 30
0.0
 11
430.9999999998781277
 21
-1824.9999999996830411
 31
0.0
1001
ACDBBLOCKREPETAG
1070
     1
1071
       40
1005
126E78
  0
LINE
  5
126E79
  8
OBJECT
 10
470.999999999878014
 20
-1938.4999999996830411
 30
0.0
 11
481.499999999878014
 21
-1938.4999999996830411
 31
0.0
1001
ACDBBLOCKREPETAG
1070
     1
1071
       41
1005
126E79
  0
LINE
  5
126E7A
  8
OBJECT
 10
481.499999999878014
 20
-1829.4999999996830411
 30
0.0
 11
470.999999999878014
 21
-1829.4999999996830411
 31
0.0
1001
ACDBBLOCKREPETAG
1070
     1
1071
       42
1005
126E7A
  0
LINE
  5
126E7B
  8
OBJECT
 10
470.999999999878014
 20
-1829.4999999996830411
 30
0.0
 11
470.999999999878014
 21
-1938.4999999996830411
 31
0.0
1001
ACDBBLOCKREPETAG
1070
     1
1071
       43
1005
126E7B
  0
LINE
  5
126E7C
  8
OBJECT
 10
466.999999999878014
 20
-1942.9999999996830411
 30
0.0
 11
470.999999999878014
 21
-1938.4999999996830411
 31
0.0
1001
ACDBBLOCKREPETAG
1070
     1
1071
       44
1005
126E7C
  0
LINE
  5
126E7D
  8
OBJECT
 10
466.999999999878014
 20
-1824.9999999996830411
 30
0.0
 11
470.999999999878014
 21
-1829.4999999996830411
 31
0.0
1001
ACDBBLOCKREPETAG
1070
     1
1071
       45
1005
126E7D
  0
LINE
  5
126E7E
  8
OBJECT
 10
486.4999999998779003
 20
-1933.4999999996830411
 30
0.0
 11
507.6550800868998863
 21
-1933.4999999996809947
 31
0.0
1001
ACDBBLOCKREPETAG
1070
     1
1071
       46
1005
126E7E
  0
LINE
  5
126E7F
  8
OBJECT
 10
486.4999999998779003
 20
-1834.4999999996839506
 30
0.0
 11
507.6550800869007958
 21
-1834.4999999996839506
 31
0.0
1001
ACDBBLOCKREPETAG
1070
     1
1071
       47
1005
126E7F
  0
LINE
  5
126E80
  8
OBJECT
 10
481.499999999878014
 20
-1938.4999999996830411
 30
0.0
 11
481.499999999878014
 21
-1829.4999999996830411
 31
0.0
1001
ACDBBLOCKREPETAG
1070
     1
1071
       48
1005
126E80
  0
LINE
  5
126E81
  8
OBJECT
 10
486.4999999998779003
 20
-1933.4999999996830411
 30
0.0
 11
486.4999999998779003
 21
-1834.4999999996839506
 31
0.0
1001
ACDBBLOCKREPETAG
1070
     1
1071
       49
1005
126E81
  0
LINE
  5
126E82
  8
OBJECT
 10
481.499999999878014
 20
-1938.4999999996830411
 30
0.0
 11
486.4999999998779003
 21
-1933.4999999996830411
 31
0.0
1001
ACDBBLOCKREPETAG
1070
     1
1071
       50
1005
126E82
  0
LINE
  5
126E83
  8
OBJECT
 10
486.4999999998779003
 20
-1834.4999999996839506
 30
0.0
 11
481.499999999878014
 21
-1829.499999999685997
 31
0.0
1001
ACDBBLOCKREPETAG
1070
     1
1071
       51
1005
126E83
  0
INSERT
  5
126E84
  8
SLIM
  2
*U19
 10
0.0
 20
0.0
 30
0.0
  0
LINE
  5
126E85
  8
HIDDEN
 10
475.999999999878014
 20
-1928.4999999996830411
 30
0.0
 11
475.999999999878014
 21
-1839.4999999996830411
 31
0.0
1001
ACDBBLOCKREPETAG
1070
     1
1071
       65
1005
126E85
  0
LINE
  5
126E86
  8
OBJECT
 10
618.9999999998781277
 20
-2016.9999999996839506
 30
0.0
 11
618.9999999998781277
 21
-2023.9999999996839506
 31
0.0
1001
ACDBBLOCKREPETAG
1070
     1
1071
       18
1005
126E86
  0
LINE
  5
126E87
  8
OBJECT
 10
618.9999999998781277
 20
-2023.9999999996839506
 30
0.0
 11
508.999999999878014
 21
-2023.9999999996839506
 31
0.0
1001
ACDBBLOCKREPETAG
1070
     1
1071
       19
1005
126E87
  0
LINE
  5
126E88
  8
OBJECT
 10
508.999999999878014
 20
-2023.9999999996839506
 30
0.0
 11
508.999999999878014
 21
-2016.9999999996839506
 31
0.0
1001
ACDBBLOCKREPETAG
1070
     1
1071
       20
1005
126E88
  0
LINE
  5
126E89
  8
OBJECT
 10
508.999999999878014
 20
-2016.9999999996839506
 30
0.0
 11
618.9999999998781277
 21
-2016.9999999996839506
 31
0.0
1001
ACDBBLOCKREPETAG
1070
     1
1071
       21
1005
126E89
  0
LINE
  5
126E8A
  8
OBJECT
 10
615.9999999998781277
 20
-2016.9999999996839506
 30
0.0
 11
615.9999999998781277
 21
-1980.9999999996830411
 31
0.0
1001
ACDBBLOCKREPETAG
1070
     1
1071
       22
1005
126E8A
  0
LINE
  5
126E8B
  8
OBJECT
 10
615.9999999998781277
 20
-1980.9999999996830411
 30
0.0
 11
511.999999999878014
 21
-1980.9999999996830411
 31
0.0
1001
ACDBBLOCKREPETAG
1070
     1
1071
       23
1005
126E8B
  0
LINE
  5
126E8C
  8
OBJECT
 10
511.999999999878014
 20
-1980.9999999996830411
 30
0.0
 11
511.999999999878014
 21
-2016.9999999996839506
 31
0.0
1001
ACDBBLOCKREPETAG
1070
     1
1071
       24
1005
126E8C
  0
LINE
  5
126E8D
  8
OBJECT
 10
611.4999999998781277
 20
-1976.9999999996830411
 30
0.0
 11
611.4999999998781277
 21
-1968.4999999996839506
 31
0.0
1001
ACDBBLOCKREPETAG
1070
     1
1071
       25
1005
126E8D
  0
LINE
  5
126E8E
  8
OBJECT
 10
516.499999999878014
 20
-1968.4999999996830411
 30
0.0
 11
516.499999999878014
 21
-1976.9999999996830411
 31
0.0
1001
ACDBBLOCKREPETAG
1070
     1
1071
       26
1005
126E8E
  0
LINE
  5
126E8F
  8
OBJECT
 10
516.499999999878014
 20
-1976.9999999996830411
 30
0.0
 11
611.4999999998781277
 21
-1976.9999999996830411
 31
0.0
1001
ACDBBLOCKREPETAG
1070
     1
1071
       27
1005
126E8F
  0
LINE
  5
126E90
  8
OBJECT
 10
615.9999999998781277
 20
-1980.9999999996830411
 30
0.0
 11
611.4999999998781277
 21
-1976.9999999996830411
 31
0.0
1001
ACDBBLOCKREPETAG
1070
     1
1071
       28
1005
126E90
  0
LINE
  5
126E91
  8
OBJECT
 10
511.999999999878014
 20
-1980.9999999996830411
 30
0.0
 11
516.499999999878014
 21
-1976.9999999996830411
 31
0.0
1001
ACDBBLOCKREPETAG
1070
     1
1071
       29
1005
126E91
  0
LINE
  5
126E92
  8
OBJECT
 10
514.499999999878014
 20
-1968.4999999996809947
 30
0.0
 11
613.4999999998781277
 21
-1968.4999999996839506
 31
0.0
1001
ACDBBLOCKREPETAG
1070
     1
1071
       30
1005
126E92
  0
LINE
  5
126E93
  8
OBJECT
 10
613.4999999998781277
 20
-1968.4999999996839506
 30
0.0
 11
613.4999999998772182
 21
-1940.3449199126630447
 31
0.0
1001
ACDBBLOCKREPETAG
1070
     1
1071
       31
1005
126E93
  0
LINE
  5
126E94
  8
OBJECT
 10
514.499999999878014
 20
-1968.4999999996809947
 30
0.0
 11
514.4999999998772182
 21
-1940.3449199126600888
 31
0.0
1001
ACDBBLOCKREPETAG
1070
     1
1071
       32
1005
126E94
  0
INSERT
  5
126E95
  8
SLIM
  2
*U20
 10
0.0
 20
0.0
 30
0.0
  0
LINE
  5
126E96
  8
HIDDEN
 10
601.999999999878014
 20
-1971.9999999996839506
 30
0.0
 11
525.999999999878014
 21
-1971.9999999996839506
 31
0.0
1001
ACDBBLOCKREPETAG
1070
     1
1071
       57
1005
126E96
  0
CIRCLE
  5
126E97
  8
OBJECT
 10
563.999999999878014
 20
-1883.9999999996830411
 30
0.0
 40
70.0
1001
ACDBBLOCKREPETAG
1070
     1
1071
       50
1005
126E97
  0
CIRCLE
  5
126E98
  8
OBJECT
 10
563.999999999878014
 20
-1883.9999999996830411
 30
0.0
 40
75.0
1001
ACDBBLOCKREPETAG
1070
     1
1071
       51
1005
126E98
  0
POINT
  5
126E99
  8
DOTS
 10
563.999999999878014
 20
-1883.9999999996830411
 30
0.0
1001
ACDBBLOCKREPETAG
1070
     1
1071
       63
1005
126E99
  0
ARC
  5
126E9A
  8
OBJECT
 10
563.999999999878014
 20
-1883.9999999996830411
 30
0.0
 40
55.0
 50
299.3022457642854874
 51
240.6977542359825009
1001
ACDBBLOCKREPETAG
1070
     1
1071
       50
1005
126E97
  0
LINE
  5
126E9B
  8
OBJECT
 10
540.1757960751292558
 20
-1929.6779614444380968
 30
0.0
 11
532.1876176728762857
 21
-1935.5774584432310803
 31
0.0
  0
ARC
  5
126E9C
  8
OBJECT
 10
543.1461853585132076
 20
-1933.6999991748868979
 30
0.0
 40
5.0
 50
90.0
 51
126.4469224760718049
  0
LINE
  5
126E9D
  8
OBJECT
 10
587.824203924574249
 20
-1929.6779614443100854
 30
0.0
 11
595.8124539799720196
 21
-1935.5775113604609032
 31
0.0
  0
ARC
  5
126E9E
  8
OBJECT
 10
584.8538146413610548
 20
-1933.6999991748868979
 30
0.0
 40
5.0
 50
53.5530775262758425
 51
90.0
  0
LINE
  5
126E9F
  8
OBJECT
 10
584.8538146413610548
 20
-1928.6999991748859884
 30
0.0
 11
543.1461853585132076
 21
-1928.6999991748859884
 31
0.0
  0
ARC
  5
126EA0
  8
OBJECT
 10
591.059831126831341
 20
-1942.0127717293830756
 30
0.0
 40
8.0
 50
16.4762162479585612
 51
53.5530775262758425
  0
ARC
  5
126EA1
  8
OBJECT
 10
536.9401688729228681
 20
-1942.0127717293830756
 30
0.0
 40
8.0
 50
126.4469224737241007
 51
163.5237837520413962
  0
LINE
  5
126EA2
  8
OBJECT
 10
529.268668485852686
 20
-1939.7438332526589875
 30
0.0
 11
527.9999999998779003
 21
-1944.0333240788991134
 31
0.0
  0
LINE
  5
126EA3
  8
OBJECT
 10
598.7313315139035694
 20
-1939.7438332526589875
 30
0.0
 11
599.9999999998781277
 21
-1944.0333240788991134
 31
0.0
  0
LINE
  5
126EA4
  8
OBJECT
 10
71.0
 20
-1938.9999999996830411
 30
0.0
 11
64.0
 21
-1938.9999999996830411
 31
0.0
1001
ACDBBLOCKREPETAG
1070
     1
1071
       18
1005
126EA4
  0
LINE
  5
126EA5
  8
OBJECT
 10
64.0
 20
-1938.9999999996830411
 30
0.0
 11
64.0
 21
-1828.9999999996830411
 31
0.0
1001
ACDBBLOCKREPETAG
1070
     1
1071
       19
1005
126EA5
  0
LINE
  5
126EA6
  8
OBJECT
 10
64.0
 20
-1828.9999999996830411
 30
0.0
 11
71.0
 21
-1828.9999999996830411
 31
0.0
1001
ACDBBLOCKREPETAG
1070
     1
1071
       20
1005
126EA6
  0
LINE
  5
126EA7
  8
OBJECT
 10
71.0
 20
-1828.9999999996830411
 30
0.0
 11
71.0
 21
-1938.9999999996830411
 31
0.0
1001
ACDBBLOCKREPETAG
1070
     1
1071
       21
1005
126EA7
  0
LINE
  5
126EA8
  8
OBJECT
 10
71.0
 20
-1935.9999999996830411
 30
0.0
 11
107.0
 21
-1935.9999999996830411
 31
0.0
1001
ACDBBLOCKREPETAG
1070
     1
1071
       22
1005
126EA8
  0
LINE
  5
126EA9
  8
OBJECT
 10
107.0
 20
-1935.9999999996830411
 30
0.0
 11
107.0
 21
-1831.9999999996830411
 31
0.0
1001
ACDBBLOCKREPETAG
1070
     1
1071
       23
1005
126EA9
  0
LINE
  5
126EAA
  8
OBJECT
 10
107.0
 20
-1831.9999999996830411
 30
0.0
 11
71.0
 21
-1831.9999999996830411
 31
0.0
1001
ACDBBLOCKREPETAG
1070
     1
1071
       24
1005
126EAA
  0
LINE
  5
126EAB
  8
OBJECT
 10
111.0
 20
-1931.4999999996830411
 30
0.0
 11
119.5
 21
-1931.4999999996830411
 31
0.0
1001
ACDBBLOCKREPETAG
1070
     1
1071
       25
1005
126EAB
  0
LINE
  5
126EAC
  8
OBJECT
 10
119.5
 20
-1836.4999999996839506
 30
0.0
 11
111.0
 21
-1836.4999999996839506
 31
0.0
1001
ACDBBLOCKREPETAG
1070
     1
1071
       26
1005
126EAC
  0
LINE
  5
126EAD
  8
OBJECT
 10
111.0
 20
-1836.4999999996839506
 30
0.0
 11
111.0
 21
-1931.4999999996830411
 31
0.0
1001
ACDBBLOCKREPETAG
1070
     1
1071
       27
1005
126EAD
  0
LINE
  5
126EAE
  8
OBJECT
 10
107.0
 20
-1935.9999999996830411
 30
0.0
 11
111.0
 21
-1931.4999999996830411
 31
0.0
1001
ACDBBLOCKREPETAG
1070
     1
1071
       28
1005
126EAE
  0
LINE
  5
126EAF
  8
OBJECT
 10
107.0
 20
-1831.9999999996830411
 30
0.0
 11
111.0
 21
-1836.4999999996839506
 31
0.0
1001
ACDBBLOCKREPETAG
1070
     1
1071
       29
1005
126EAF
  0
LINE
  5
126EB0
  8
OBJECT
 10
119.5000000000018048
 20
-1834.4999999996839506
 30
0.0
 11
119.5
 21
-1933.4999999996830411
 31
0.0
1001
ACDBBLOCKREPETAG
1070
     1
1071
       30
1005
126EB0
  0
LINE
  5
126EB1
  8
OBJECT
 10
119.5
 20
-1933.4999999996830411
 30
0.0
 11
147.6550800870209059
 21
-1933.4999999996809947
 31
0.0
1001
ACDBBLOCKREPETAG
1070
     1
1071
       31
1005
126EB1
  0
LINE
  5
126EB2
  8
OBJECT
 10
119.5000000000018048
 20
-1834.4999999996839506
 30
0.0
 11
147.655080087021787
 21
-1834.4999999996809947
 31
0.0
1001
ACDBBLOCKREPETAG
1070
     1
1071
       32
1005
126EB2
  0
INSERT
  5
126EB3
  8
SLIM
  2
*U21
 10
0.0
 20
0.0
 30
0.0
  0
LINE
  5
126EB4
  8
HIDDEN
 10
116.0
 20
-1921.9999999996839506
 30
0.0
 11
116.0
 21
-1845.9999999996830411
 31
0.0
1001
ACDBBLOCKREPETAG
1070
     1
1071
       57
1005
126EB4
  0
LINE
  5
126EB5
  8
OBJECT
 10
259.0
 20
-2016.9999999996839506
 30
0.0
 11
259.0
 21
-2023.9999999996839506
 31
0.0
1001
ACDBBLOCKREPETAG
1070
     1
1071
       18
1005
126EB5
  0
LINE
  5
126EB6
  8
OBJECT
 10
259.0
 20
-2023.9999999996839506
 30
0.0
 11
149.0
 21
-2023.9999999996839506
 31
0.0
1001
ACDBBLOCKREPETAG
1070
     1
1071
       19
1005
126EB6
  0
LINE
  5
126EB7
  8
OBJECT
 10
149.0
 20
-2023.9999999996839506
 30
0.0
 11
149.0
 21
-2016.9999999996839506
 31
0.0
1001
ACDBBLOCKREPETAG
1070
     1
1071
       20
1005
126EB7
  0
LINE
  5
126EB8
  8
OBJECT
 10
149.0
 20
-2016.9999999996839506
 30
0.0
 11
259.0
 21
-2016.9999999996839506
 31
0.0
1001
ACDBBLOCKREPETAG
1070
     1
1071
       21
1005
126EB8
  0
LINE
  5
126EB9
  8
OBJECT
 10
256.0
 20
-2016.9999999996839506
 30
0.0
 11
256.0
 21
-1980.9999999996830411
 31
0.0
1001
ACDBBLOCKREPETAG
1070
     1
1071
       22
1005
126EB9
  0
LINE
  5
126EBA
  8
OBJECT
 10
256.0
 20
-1980.9999999996830411
 30
0.0
 11
152.0
 21
-1980.9999999996830411
 31
0.0
1001
ACDBBLOCKREPETAG
1070
     1
1071
       23
1005
126EBA
  0
LINE
  5
126EBB
  8
OBJECT
 10
152.0
 20
-1980.9999999996830411
 30
0.0
 11
152.0
 21
-2016.9999999996839506
 31
0.0
1001
ACDBBLOCKREPETAG
1070
     1
1071
       24
1005
126EBB
  0
LINE
  5
126EBC
  8
OBJECT
 10
251.5
 20
-1976.9999999996830411
 30
0.0
 11
251.5
 21
-1968.4999999996839506
 31
0.0
1001
ACDBBLOCKREPETAG
1070
     1
1071
       25
1005
126EBC
  0
LINE
  5
126EBD
  8
OBJECT
 10
156.5
 20
-1968.4999999996830411
 30
0.0
 11
156.5
 21
-1976.9999999996830411
 31
0.0
1001
ACDBBLOCKREPETAG
1070
     1
1071
       26
1005
126EBD
  0
LINE
  5
126EBE
  8
OBJECT
 10
156.5
 20
-1976.9999999996830411
 30
0.0
 11
251.5
 21
-1976.9999999996830411
 31
0.0
1001
ACDBBLOCKREPETAG
1070
     1
1071
       27
1005
126EBE
  0
LINE
  5
126EBF
  8
OBJECT
 10
256.0
 20
-1980.9999999996830411
 30
0.0
 11
251.5
 21
-1976.9999999996830411
 31
0.0
1001
ACDBBLOCKREPETAG
1070
     1
1071
       28
1005
126EBF
  0
LINE
  5
126EC0
  8
OBJECT
 10
152.0
 20
-1980.9999999996830411
 30
0.0
 11
156.5
 21
-1976.9999999996830411
 31
0.0
1001
ACDBBLOCKREPETAG
1070
     1
1071
       29
1005
126EC0
  0
LINE
  5
126EC1
  8
OBJECT
 10
154.5
 20
-1968.4999999996809947
 30
0.0
 11
253.5
 21
-1968.4999999996839506
 31
0.0
1001
ACDBBLOCKREPETAG
1070
     1
1071
       30
1005
126EC1
  0
LINE
  5
126EC2
  8
OBJECT
 10
253.5
 20
-1968.4999999996839506
 30
0.0
 11
253.4999999999990905
 21
-1940.3449199126630447
 31
0.0
1001
ACDBBLOCKREPETAG
1070
     1
1071
       31
1005
126EC2
  0
LINE
  5
126EC3
  8
OBJECT
 10
154.5
 20
-1968.4999999996809947
 30
0.0
 11
154.4999999999990905
 21
-1940.3449199126600888
 31
0.0
1001
ACDBBLOCKREPETAG
1070
     1
1071
       32
1005
126EC3
  0
INSERT
  5
126EC4
  8
SLIM
  2
*U22
 10
0.0
 20
0.0
 30
0.0
  0
LINE
  5
126EC5
  8
HIDDEN
 10
242.0
 20
-1971.9999999996839506
 30
0.0
 11
166.0
 21
-1971.9999999996839506
 31
0.0
1001
ACDBBLOCKREPETAG
1070
     1
1071
       57
1005
126EC5
  0
CIRCLE
  5
126EC6
  8
OBJECT
 10
204.0
 20
-1883.9999999996830411
 30
0.0
 40
70.0
1001
ACDBBLOCKREPETAG
1070
     1
1071
       50
1005
126EC6
  0
CIRCLE
  5
126EC7
  8
OBJECT
 10
204.0
 20
-1883.9999999996830411
 30
0.0
 40
75.0
1001
ACDBBLOCKREPETAG
1070
     1
1071
       51
1005
126EC7
  0
POINT
  5
126EC8
  8
DOTS
 10
204.0
 20
-1883.9999999996830411
 30
0.0
1001
ACDBBLOCKREPETAG
1070
     1
1071
       63
1005
126EC8
  0
ARC
  5
126EC9
  8
OBJECT
 10
204.0
 20
-1883.9999999996830411
 30
0.0
 40
55.0
 50
299.3022457642870222
 51
240.6977542359811935
1001
ACDBBLOCKREPETAG
1070
     1
1071
       50
1005
126EC6
  0
LINE
  5
126ECA
  8
OBJECT
 10
180.175796075250986
 20
-1929.6779614444380968
 30
0.0
 11
172.1876176729984138
 21
-1935.5774584432310803
 31
0.0
  0
ARC
  5
126ECB
  8
OBJECT
 10
183.1461853586351936
 20
-1933.6999991748868979
 30
0.0
 40
5.0
 50
90.0
 51
126.4469224760729986
  0
LINE
  5
126ECC
  8
OBJECT
 10
227.8242039246960928
 20
-1929.6779614443100854
 30
0.0
 11
235.8124539800938066
 21
-1935.5775113604609032
 31
0.0
  0
ARC
  5
126ECD
  8
OBJECT
 10
224.8538146414830123
 20
-1933.6999991748868979
 30
0.0
 40
5.0
 50
53.5530775262745422
 51
90.0
  0
LINE
  5
126ECE
  8
OBJECT
 10
224.8538146414830123
 20
-1928.6999991748859884
 30
0.0
 11
183.1461853586351936
 21
-1928.6999991748859884
 31
0.0
  0
ARC
  5
126ECF
  8
OBJECT
 10
231.0598311269532132
 20
-1942.0127717293830756
 30
0.0
 40
8.0
 50
16.4762162479585612
 51
53.5530775262745422
  0
ARC
  5
126ED0
  8
OBJECT
 10
176.9401688730449109
 20
-1942.0127717293830756
 30
0.0
 40
8.0
 50
126.4469224737253938
 51
163.5237837520413962
  0
LINE
  5
126ED1
  8
OBJECT
 10
169.2686684859745014
 20
-1939.7438332526589875
 30
0.0
 11
168.0
 21
-1944.0333240788991134
 31
0.0
  0
LINE
  5
126ED2
  8
OBJECT
 10
238.7313315140254986
 20
-1939.7438332526589875
 30
0.0
 11
240.0
 21
-1944.0333240788991134
 31
0.0
  0
LINE
  5
126ED3
  8
OBJECT
 10
430.9999999998781277
 20
-1466.9999999998410658
 30
0.0
 11
423.999999999878014
 21
-1466.9999999998410658
 31
0.0
1001
ACDBBLOCKREPETAG
1070
     1
1071
        0
1005
126ED3
  0
LINE
  5
126ED4
  8
OBJECT
 10
423.999999999878014
 20
-1466.9999999998410658
 30
0.0
 11
423.999999999878014
 21
-1372.9999999998419753
 31
0.0
1001
ACDBBLOCKREPETAG
1070
     1
1071
        1
1005
126ED4
  0
LINE
  5
126ED5
  8
OBJECT
 10
423.999999999878014
 20
-1372.9999999998419753
 30
0.0
 11
430.9999999998781277
 21
-1372.9999999998419753
 31
0.0
1001
ACDBBLOCKREPETAG
1070
     1
1071
        2
1005
126ED5
  0
LINE
  5
126ED6
  8
OBJECT
 10
430.9999999998781277
 20
-1372.9999999998419753
 30
0.0
 11
430.9999999998781277
 21
-1466.9999999998410658
 31
0.0
1001
ACDBBLOCKREPETAG
1070
     1
1071
        3
1005
126ED6
  0
LINE
  5
126ED7
  8
OBJECT
 10
430.9999999998781277
 20
-1463.9999999998419753
 30
0.0
 11
466.999999999878014
 21
-1463.9999999998419753
 31
0.0
1001
ACDBBLOCKREPETAG
1070
     1
1071
        4
1005
126ED7
  0
LINE
  5
126ED8
  8
OBJECT
 10
466.999999999878014
 20
-1463.9999999998419753
 30
0.0
 11
466.999999999878014
 21
-1375.9999999998419753
 31
0.0
1001
ACDBBLOCKREPETAG
1070
     1
1071
        5
1005
126ED8
  0
LINE
  5
126ED9
  8
OBJECT
 10
466.999999999878014
 20
-1375.9999999998419753
 30
0.0
 11
430.9999999998781277
 21
-1375.9999999998419753
 31
0.0
1001
ACDBBLOCKREPETAG
1070
     1
1071
        6
1005
126ED9
  0
LINE
  5
126EDA
  8
OBJECT
 10
470.999999999878014
 20
-1459.4999999998419753
 30
0.0
 11
479.4999999998772182
 21
-1459.4999999998419753
 31
0.0
1001
ACDBBLOCKREPETAG
1070
     1
1071
        7
1005
126EDA
  0
LINE
  5
126EDB
  8
OBJECT
 10
479.499999999878014
 20
-1380.4999999998410658
 30
0.0
 11
470.999999999878014
 21
-1380.4999999998410658
 31
0.0
1001
ACDBBLOCKREPETAG
1070
     1
1071
        8
1005
126EDB
  0
LINE
  5
126EDC
  8
OBJECT
 10
470.999999999878014
 20
-1380.4999999998410658
 30
0.0
 11
470.999999999878014
 21
-1459.4999999998419753
 31
0.0
1001
ACDBBLOCKREPETAG
1070
     1
1071
        9
1005
126EDC
  0
LINE
  5
126EDD
  8
OBJECT
 10
466.999999999878014
 20
-1463.9999999998419753
 30
0.0
 11
470.999999999878014
 21
-1459.4999999998419753
 31
0.0
1001
ACDBBLOCKREPETAG
1070
     1
1071
       10
1005
126EDD
  0
LINE
  5
126EDE
  8
OBJECT
 10
466.999999999878014
 20
-1375.9999999998419753
 30
0.0
 11
470.999999999878014
 21
-1380.4999999998410658
 31
0.0
1001
ACDBBLOCKREPETAG
1070
     1
1071
       11
1005
126EDE
  0
LINE
  5
126EDF
  8
OBJECT
 10
479.4999999998789804
 20
-1373.4999999998419753
 30
0.0
 11
479.4999999998772182
 21
-1466.4999999998410658
 31
0.0
1001
ACDBBLOCKREPETAG
1070
     1
1071
       12
1005
126EDF
  0
ARC
  5
126EE0
  8
OBJECT
 10
482.4999999998772182
 20
-1466.4999999998410658
 30
0.0
 40
3.0
 50
180.0
 51
270.0
1001
ACDBBLOCKREPETAG
1070
     1
1071
       13
1005
126EE0
  0
LINE
  5
126EE1
  8
OBJECT
 10
482.4999999998772182
 20
-1469.4999999998419753
 30
0.0
 11
507.6550800868998863
 21
-1469.4999999998419753
 31
0.0
1001
ACDBBLOCKREPETAG
1070
     1
1071
       15
1005
126EE1
  0
LINE
  5
126EE2
  8
OBJECT
 10
482.4999999998789235
 20
-1370.4999999998410658
 30
0.0
 11
507.6550800868989199
 21
-1370.4999999998419753
 31
0.0
1001
ACDBBLOCKREPETAG
1070
     1
1071
       16
1005
126EE2
  0
ARC
  5
126EE3
  8
OBJECT
 10
482.4999999998789235
 20
-1373.4999999998419753
 30
0.0
 40
3.0
 50
90.0
 51
180.0
1001
ACDBBLOCKREPETAG
1070
     1
1071
       17
1005
126EE3
  0
INSERT
  5
126EE4
  8
SLIM
  2
*U23
 10
0.0
 20
0.0
 30
0.0
  0
LINE
  5
126EE5
  8
HIDDEN
 10
475.999999999878014
 20
-1449.9999999998419753
 30
0.0
 11
475.999999999878014
 21
-1389.9999999998419753
 31
0.0
1001
ACDBBLOCKREPETAG
1070
     1
1071
       56
1005
126EE5
  0
LINE
  5
126EE6
  8
OBJECT
 10
618.9999999998781277
 20
-1552.9999999998419753
 30
0.0
 11
618.9999999998781277
 21
-1559.9999999998419753
 31
0.0
1001
ACDBBLOCKREPETAG
1070
     1
1071
       18
1005
126EE6
  0
LINE
  5
126EE7
  8
OBJECT
 10
618.9999999998781277
 20
-1559.9999999998419753
 30
0.0
 11
508.999999999878014
 21
-1559.9999999998419753
 31
0.0
1001
ACDBBLOCKREPETAG
1070
     1
1071
       19
1005
126EE7
  0
LINE
  5
126EE8
  8
OBJECT
 10
508.999999999878014
 20
-1559.9999999998419753
 30
0.0
 11
508.999999999878014
 21
-1552.9999999998419753
 31
0.0
1001
ACDBBLOCKREPETAG
1070
     1
1071
       20
1005
126EE8
  0
LINE
  5
126EE9
  8
OBJECT
 10
508.999999999878014
 20
-1552.9999999998419753
 30
0.0
 11
618.9999999998781277
 21
-1552.9999999998419753
 31
0.0
1001
ACDBBLOCKREPETAG
1070
     1
1071
       21
1005
126EE9
  0
LINE
  5
126EEA
  8
OBJECT
 10
615.9999999998781277
 20
-1552.9999999998419753
 30
0.0
 11
615.9999999998781277
 21
-1516.9999999998419753
 31
0.0
1001
ACDBBLOCKREPETAG
1070
     1
1071
       22
1005
126EEA
  0
LINE
  5
126EEB
  8
OBJECT
 10
615.9999999998781277
 20
-1516.9999999998419753
 30
0.0
 11
511.999999999878014
 21
-1516.9999999998419753
 31
0.0
1001
ACDBBLOCKREPETAG
1070
     1
1071
       23
1005
126EEB
  0
LINE
  5
126EEC
  8
OBJECT
 10
511.999999999878014
 20
-1516.9999999998419753
 30
0.0
 11
511.999999999878014
 21
-1552.9999999998419753
 31
0.0
1001
ACDBBLOCKREPETAG
1070
     1
1071
       24
1005
126EEC
  0
LINE
  5
126EED
  8
OBJECT
 10
611.4999999998781277
 20
-1512.9999999998410658
 30
0.0
 11
611.4999999998781277
 21
-1504.4999999998419753
 31
0.0
1001
ACDBBLOCKREPETAG
1070
     1
1071
       25
1005
126EED
  0
LINE
  5
126EEE
  8
OBJECT
 10
516.499999999878014
 20
-1504.4999999998410658
 30
0.0
 11
516.499999999878014
 21
-1512.9999999998410658
 31
0.0
1001
ACDBBLOCKREPETAG
1070
     1
1071
       26
1005
126EEE
  0
LINE
  5
126EEF
  8
OBJECT
 10
516.499999999878014
 20
-1512.9999999998410658
 30
0.0
 11
611.4999999998781277
 21
-1512.9999999998410658
 31
0.0
1001
ACDBBLOCKREPETAG
1070
     1
1071
       27
1005
126EEF
  0
LINE
  5
126EF0
  8
OBJECT
 10
615.9999999998781277
 20
-1516.9999999998419753
 30
0.0
 11
611.4999999998781277
 21
-1512.9999999998410658
 31
0.0
1001
ACDBBLOCKREPETAG
1070
     1
1071
       28
1005
126EF0
  0
LINE
  5
126EF1
  8
OBJECT
 10
511.999999999878014
 20
-1516.9999999998419753
 30
0.0
 11
516.499999999878014
 21
-1512.9999999998410658
 31
0.0
1001
ACDBBLOCKREPETAG
1070
     1
1071
       29
1005
126EF1
  0
LINE
  5
126EF2
  8
OBJECT
 10
514.499999999878014
 20
-1504.4999999998399289
 30
0.0
 11
613.4999999998781277
 21
-1504.4999999998419753
 31
0.0
1001
ACDBBLOCKREPETAG
1070
     1
1071
       30
1005
126EF2
  0
LINE
  5
126EF3
  8
OBJECT
 10
613.4999999998781277
 20
-1504.4999999998419753
 30
0.0
 11
613.4999999998772182
 21
-1476.3449199128210694
 31
0.0
1001
ACDBBLOCKREPETAG
1070
     1
1071
       31
1005
126EF3
  0
LINE
  5
126EF4
  8
OBJECT
 10
514.499999999878014
 20
-1504.4999999998399289
 30
0.0
 11
514.4999999998772182
 21
-1476.344919912819023
 31
0.0
1001
ACDBBLOCKREPETAG
1070
     1
1071
       32
1005
126EF4
  0
INSERT
  5
126EF5
  8
SLIM
  2
*U24
 10
0.0
 20
0.0
 30
0.0
  0
LINE
  5
126EF6
  8
HIDDEN
 10
601.999999999878014
 20
-1507.9999999998419753
 30
0.0
 11
525.999999999878014
 21
-1507.9999999998419753
 31
0.0
1001
ACDBBLOCKREPETAG
1070
     1
1071
       57
1005
126EF6
  0
CIRCLE
  5
126EF7
  8
OBJECT
 10
563.999999999878014
 20
-1419.9999999998419753
 30
0.0
 40
70.0
1001
ACDBBLOCKREPETAG
1070
     1
1071
       50
1005
126EF7
  0
CIRCLE
  5
126EF8
  8
OBJECT
 10
563.999999999878014
 20
-1419.9999999998419753
 30
0.0
 40
75.0
1001
ACDBBLOCKREPETAG
1070
     1
1071
       51
1005
126EF8
  0
POINT
  5
126EF9
  8
DOTS
 10
563.999999999878014
 20
-1419.9999999998419753
 30
0.0
1001
ACDBBLOCKREPETAG
1070
     1
1071
       63
1005
126EF9
  0
ARC
  5
126EFA
  8
OBJECT
 10
563.999999999878014
 20
-1419.9999999998419753
 30
0.0
 40
55.0
 50
299.3022457642854874
 51
240.6977542359825009
1001
ACDBBLOCKREPETAG
1070
     1
1071
       50
1005
126EF7
  0
LINE
  5
126EFB
  8
OBJECT
 10
540.1757960751292558
 20
-1465.677961444597031
 30
0.0
 11
532.1876176728762857
 21
-1471.577458443389105
 31
0.0
  0
ARC
  5
126EFC
  8
OBJECT
 10
543.1461853585132076
 20
-1469.6999991750449226
 30
0.0
 40
5.0
 50
90.0
 51
126.4469224760718049
  0
LINE
  5
126EFD
  8
OBJECT
 10
587.824203924574249
 20
-1465.6779614444690196
 30
0.0
 11
595.8124539799720196
 21
-1471.5775113606189279
 31
0.0
  0
ARC
  5
126EFE
  8
OBJECT
 10
584.8538146413610548
 20
-1469.6999991750449226
 30
0.0
 40
5.0
 50
53.5530775262758425
 51
90.0
  0
LINE
  5
126EFF
  8
OBJECT
 10
584.8538146413610548
 20
-1464.6999991750449226
 30
0.0
 11
543.1461853585132076
 21
-1464.6999991750449226
 31
0.0
  0
ARC
  5
126F00
  8
OBJECT
 10
591.059831126831341
 20
-1478.0127717295420098
 30
0.0
 40
8.0
 50
16.4762162479585612
 51
53.5530775262758425
  0
ARC
  5
126F01
  8
OBJECT
 10
536.9401688729228681
 20
-1478.0127717295420098
 30
0.0
 40
8.0
 50
126.4469224737241007
 51
163.5237837520413962
  0
LINE
  5
126F02
  8
OBJECT
 10
529.268668485852686
 20
-1475.7438332528179217
 30
0.0
 11
527.9999999998779003
 21
-1480.0333240790589571
 31
0.0
  0
LINE
  5
126F03
  8
OBJECT
 10
598.7313315139035694
 20
-1475.7438332528179217
 30
0.0
 11
599.9999999998781277
 21
-1480.0333240790589571
 31
0.0
  0
LINE
  5
126F04
  8
OBJECT
 10
71.0
 20
-1481.9999999998419753
 30
0.0
 11
64.0
 21
-1481.9999999998419753
 31
0.0
1001
ACDBBLOCKREPETAG
1070
     1
1071
       34
1005
126F04
  0
LINE
  5
126F05
  8
OBJECT
 10
64.0
 20
-1481.9999999998419753
 30
0.0
 11
64.0
 21
-1357.9999999998419753
 31
0.0
1001
ACDBBLOCKREPETAG
1070
     1
1071
       35
1005
126F05
  0
LINE
  5
126F06
  8
OBJECT
 10
64.0
 20
-1357.9999999998419753
 30
0.0
 11
71.0
 21
-1357.9999999998419753
 31
0.0
1001
ACDBBLOCKREPETAG
1070
     1
1071
       36
1005
126F06
  0
LINE
  5
126F07
  8
OBJECT
 10
71.0
 20
-1357.9999999998419753
 30
0.0
 11
71.0
 21
-1481.9999999998419753
 31
0.0
1001
ACDBBLOCKREPETAG
1070
     1
1071
       37
1005
126F07
  0
LINE
  5
126F08
  8
OBJECT
 10
71.0
 20
-1478.9999999998419753
 30
0.0
 11
107.0
 21
-1478.9999999998419753
 31
0.0
1001
ACDBBLOCKREPETAG
1070
     1
1071
       38
1005
126F08
  0
LINE
  5
126F09
  8
OBJECT
 10
107.0
 20
-1478.9999999998419753
 30
0.0
 11
107.0
 21
-1360.9999999998419753
 31
0.0
1001
ACDBBLOCKREPETAG
1070
     1
1071
       39
1005
126F09
  0
LINE
  5
126F0A
  8
OBJECT
 10
107.0
 20
-1360.9999999998419753
 30
0.0
 11
71.0
 21
-1360.9999999998419753
 31
0.0
1001
ACDBBLOCKREPETAG
1070
     1
1071
       40
1005
126F0A
  0
LINE
  5
126F0B
  8
OBJECT
 10
111.0
 20
-1474.4999999998419753
 30
0.0
 11
121.5
 21
-1474.4999999998419753
 31
0.0
1001
ACDBBLOCKREPETAG
1070
     1
1071
       41
1005
126F0B
  0
LINE
  5
126F0C
  8
OBJECT
 10
121.5
 20
-1365.4999999998419753
 30
0.0
 11
111.0
 21
-1365.4999999998419753
 31
0.0
1001
ACDBBLOCKREPETAG
1070
     1
1071
       42
1005
126F0C
  0
LINE
  5
126F0D
  8
OBJECT
 10
111.0
 20
-1365.4999999998419753
 30
0.0
 11
111.0
 21
-1474.4999999998419753
 31
0.0
1001
ACDBBLOCKREPETAG
1070
     1
1071
       43
1005
126F0D
  0
LINE
  5
126F0E
  8
OBJECT
 10
107.0
 20
-1478.9999999998419753
 30
0.0
 11
111.0
 21
-1474.4999999998419753
 31
0.0
1001
ACDBBLOCKREPETAG
1070
     1
1071
       44
1005
126F0E
  0
LINE
  5
126F0F
  8
OBJECT
 10
107.0
 20
-1360.9999999998419753
 30
0.0
 11
111.0
 21
-1365.4999999998419753
 31
0.0
1001
ACDBBLOCKREPETAG
1070
     1
1071
       45
1005
126F0F
  0
LINE
  5
126F10
  8
OBJECT
 10
126.5
 20
-1469.4999999998419753
 30
0.0
 11
147.655080087021787
 21
-1469.4999999998410658
 31
0.0
1001
ACDBBLOCKREPETAG
1070
     1
1071
       46
1005
126F10
  0
LINE
  5
126F11
  8
OBJECT
 10
126.5
 20
-1370.4999999998410658
 30
0.0
 11
147.6550800870226965
 21
-1370.4999999998410658
 31
0.0
1001
ACDBBLOCKREPETAG
1070
     1
1071
       47
1005
126F11
  0
LINE
  5
126F12
  8
OBJECT
 10
121.5
 20
-1474.4999999998419753
 30
0.0
 11
121.5
 21
-1365.4999999998419753
 31
0.0
1001
ACDBBLOCKREPETAG
1070
     1
1071
       48
1005
126F12
  0
LINE
  5
126F13
  8
OBJECT
 10
126.5
 20
-1469.4999999998419753
 30
0.0
 11
126.5
 21
-1370.4999999998410658
 31
0.0
1001
ACDBBLOCKREPETAG
1070
     1
1071
       49
1005
126F13
  0
LINE
  5
126F14
  8
OBJECT
 10
121.5
 20
-1474.4999999998419753
 30
0.0
 11
126.5
 21
-1469.4999999998419753
 31
0.0
1001
ACDBBLOCKREPETAG
1070
     1
1071
       50
1005
126F14
  0
LINE
  5
126F15
  8
OBJECT
 10
126.5
 20
-1370.4999999998410658
 30
0.0
 11
121.5
 21
-1365.4999999998440217
 31
0.0
1001
ACDBBLOCKREPETAG
1070
     1
1071
       51
1005
126F15
  0
INSERT
  5
126F16
  8
SLIM
  2
*U25
 10
0.0
 20
0.0
 30
0.0
  0
LINE
  5
126F17
  8
HIDDEN
 10
116.0
 20
-1464.4999999998419753
 30
0.0
 11
116.0
 21
-1375.4999999998419753
 31
0.0
1001
ACDBBLOCKREPETAG
1070
     1
1071
       65
1005
126F17
  0
LINE
  5
126F18
  8
OBJECT
 10
251.0
 20
-1552.9999999998419753
 30
0.0
 11
251.0
 21
-1559.9999999998419753
 31
0.0
1001
ACDBBLOCKREPETAG
1070
     1
1071
        0
1005
126F18
  0
LINE
  5
126F19
  8
OBJECT
 10
251.0
 20
-1559.9999999998419753
 30
0.0
 11
157.0
 21
-1559.9999999998419753
 31
0.0
1001
ACDBBLOCKREPETAG
1070
     1
1071
        1
1005
126F19
  0
LINE
  5
126F1A
  8
OBJECT
 10
157.0
 20
-1559.9999999998419753
 30
0.0
 11
157.0
 21
-1552.9999999998419753
 31
0.0
1001
ACDBBLOCKREPETAG
1070
     1
1071
        2
1005
126F1A
  0
LINE
  5
126F1B
  8
OBJECT
 10
157.0
 20
-1552.9999999998419753
 30
0.0
 11
251.0
 21
-1552.9999999998419753
 31
0.0
1001
ACDBBLOCKREPETAG
1070
     1
1071
        3
1005
126F1B
  0
LINE
  5
126F1C
  8
OBJECT
 10
248.0
 20
-1552.9999999998419753
 30
0.0
 11
248.0
 21
-1516.9999999998419753
 31
0.0
1001
ACDBBLOCKREPETAG
1070
     1
1071
        4
1005
126F1C
  0
LINE
  5
126F1D
  8
OBJECT
 10
248.0
 20
-1516.9999999998419753
 30
0.0
 11
160.0
 21
-1516.9999999998419753
 31
0.0
1001
ACDBBLOCKREPETAG
1070
     1
1071
        5
1005
126F1D
  0
LINE
  5
126F1E
  8
OBJECT
 10
160.0
 20
-1516.9999999998419753
 30
0.0
 11
160.0
 21
-1552.9999999998419753
 31
0.0
1001
ACDBBLOCKREPETAG
1070
     1
1071
        6
1005
126F1E
  0
LINE
  5
126F1F
  8
OBJECT
 10
243.5
 20
-1512.9999999998410658
 30
0.0
 11
243.5
 21
-1504.4999999998419753
 31
0.0
1001
ACDBBLOCKREPETAG
1070
     1
1071
        7
1005
126F1F
  0
LINE
  5
126F20
  8
OBJECT
 10
164.5
 20
-1504.4999999998410658
 30
0.0
 11
164.5
 21
-1512.9999999998410658
 31
0.0
1001
ACDBBLOCKREPETAG
1070
     1
1071
        8
1005
126F20
  0
LINE
  5
126F21
  8
OBJECT
 10
164.5
 20
-1512.9999999998410658
 30
0.0
 11
243.5
 21
-1512.9999999998410658
 31
0.0
1001
ACDBBLOCKREPETAG
1070
     1
1071
        9
1005
126F21
  0
LINE
  5
126F22
  8
OBJECT
 10
248.0
 20
-1516.9999999998419753
 30
0.0
 11
243.5
 21
-1512.9999999998410658
 31
0.0
1001
ACDBBLOCKREPETAG
1070
     1
1071
       10
1005
126F22
  0
LINE
  5
126F23
  8
OBJECT
 10
160.0
 20
-1516.9999999998419753
 30
0.0
 11
164.5
 21
-1512.9999999998410658
 31
0.0
1001
ACDBBLOCKREPETAG
1070
     1
1071
       11
1005
126F23
  0
LINE
  5
126F24
  8
OBJECT
 10
157.5
 20
-1504.4999999998410658
 30
0.0
 11
250.5
 21
-1504.4999999998419753
 31
0.0
1001
ACDBBLOCKREPETAG
1070
     1
1071
       12
1005
126F24
  0
ARC
  5
126F25
  8
OBJECT
 10
250.5
 20
-1501.4999999998419753
 30
0.0
 40
3.0
 50
270.0
 51
0.0
1001
ACDBBLOCKREPETAG
1070
     1
1071
       13
1005
126F25
  0
LINE
  5
126F26
  8
OBJECT
 10
253.5
 20
-1501.4999999998419753
 30
0.0
 11
253.5000000000009095
 21
-1476.344919912819023
 31
0.0
1001
ACDBBLOCKREPETAG
1070
     1
1071
       15
1005
126F26
  0
LINE
  5
126F27
  8
OBJECT
 10
154.5
 20
-1501.4999999998410658
 30
0.0
 11
154.5000000000009095
 21
-1476.3449199128210694
 31
0.0
1001
ACDBBLOCKREPETAG
1070
     1
1071
       16
1005
126F27
  0
ARC
  5
126F28
  8
OBJECT
 10
157.5
 20
-1501.4999999998410658
 30
0.0
 40
3.0
 50
180.0
 51
270.0
1001
ACDBBLOCKREPETAG
1070
     1
1071
       17
1005
126F28
  0
INSERT
  5
126F29
  8
SLIM
  2
*U26
 10
0.0
 20
0.0
 30
0.0
  0
LINE
  5
126F2A
  8
HIDDEN
 10
234.0
 20
-1507.9999999998419753
 30
0.0
 11
174.0
 21
-1507.9999999998419753
 31
0.0
1001
ACDBBLOCKREPETAG
1070
     1
1071
       56
1005
126F2A
  0
CIRCLE
  5
126F2B
  8
OBJECT
 10
204.0
 20
-1419.9999999998419753
 30
0.0
 40
70.0
1001
ACDBBLOCKREPETAG
1070
     1
1071
       50
1005
126F2B
  0
CIRCLE
  5
126F2C
  8
OBJECT
 10
204.0
 20
-1419.9999999998419753
 30
0.0
 40
75.0
1001
ACDBBLOCKREPETAG
1070
     1
1071
       51
1005
126F2C
  0
POINT
  5
126F2D
  8
DOTS
 10
204.0
 20
-1419.9999999998419753
 30
0.0
1001
ACDBBLOCKREPETAG
1070
     1
1071
       63
1005
126F2D
  0
ARC
  5
126F2E
  8
OBJECT
 10
204.0
 20
-1419.9999999998419753
 30
0.0
 40
55.0
 50
299.3022457642870222
 51
240.6977542359811935
1001
ACDBBLOCKREPETAG
1070
     1
1071
       50
1005
126F2B
  0
LINE
  5
126F2F
  8
OBJECT
 10
180.175796075250986
 20
-1465.677961444597031
 30
0.0
 11
172.1876176729984138
 21
-1471.577458443389105
 31
0.0
  0
ARC
  5
126F30
  8
OBJECT
 10
183.1461853586351936
 20
-1469.6999991750449226
 30
0.0
 40
5.0
 50
90.0
 51
126.4469224760729986
  0
LINE
  5
126F31
  8
OBJECT
 10
227.8242039246960928
 20
-1465.6779614444690196
 30
0.0
 11
235.8124539800938066
 21
-1471.5775113606189279
 31
0.0
  0
ARC
  5
126F32
  8
OBJECT
 10
224.8538146414830123
 20
-1469.6999991750449226
 30
0.0
 40
5.0
 50
53.5530775262745422
 51
90.0
  0
LINE
  5
126F33
  8
OBJECT
 10
224.8538146414830123
 20
-1464.6999991750449226
 30
0.0
 11
183.1461853586351936
 21
-1464.6999991750449226
 31
0.0
  0
ARC
  5
126F34
  8
OBJECT
 10
231.0598311269532132
 20
-1478.0127717295420098
 30
0.0
 40
8.0
 50
16.4762162479585612
 51
53.5530775262745422
  0
ARC
  5
126F35
  8
OBJECT
 10
176.9401688730449109
 20
-1478.0127717295420098
 30
0.0
 40
8.0
 50
126.4469224737253938
 51
163.5237837520413962
  0
LINE
  5
126F36
  8
OBJECT
 10
169.2686684859745014
 20
-1475.7438332528179217
 30
0.0
 11
168.0
 21
-1480.0333240790589571
 31
0.0
  0
LINE
  5
126F37
  8
OBJECT
 10
238.7313315140254986
 20
-1475.7438332528179217
 30
0.0
 11
240.0
 21
-1480.0333240790589571
 31
0.0
  0
LINE
  5
126F38
  8
OBJECT
 10
430.9999999998781277
 20
-1011.0
 30
0.0
 11
423.999999999878014
 21
-1011.0
 31
0.0
1001
ACDBBLOCKREPETAG
1070
     1
1071
       18
1005
126F38
  0
LINE
  5
126F39
  8
OBJECT
 10
423.999999999878014
 20
-1011.0
 30
0.0
 11
423.999999999878014
 21
-901.0
 31
0.0
1001
ACDBBLOCKREPETAG
1070
     1
1071
       19
1005
126F39
  0
LINE
  5
126F3A
  8
OBJECT
 10
423.999999999878014
 20
-901.0
 30
0.0
 11
430.9999999998781277
 21
-901.0
 31
0.0
1001
ACDBBLOCKREPETAG
1070
     1
1071
       20
1005
126F3A
  0
LINE
  5
126F3B
  8
OBJECT
 10
430.9999999998781277
 20
-901.0
 30
0.0
 11
430.9999999998781277
 21
-1011.0
 31
0.0
1001
ACDBBLOCKREPETAG
1070
     1
1071
       21
1005
126F3B
  0
LINE
  5
126F3C
  8
OBJECT
 10
430.9999999998781277
 20
-1008.0
 30
0.0
 11
466.999999999878014
 21
-1008.0
 31
0.0
1001
ACDBBLOCKREPETAG
1070
     1
1071
       22
1005
126F3C
  0
LINE
  5
126F3D
  8
OBJECT
 10
466.999999999878014
 20
-1008.0
 30
0.0
 11
466.999999999878014
 21
-904.0
 31
0.0
1001
ACDBBLOCKREPETAG
1070
     1
1071
       23
1005
126F3D
  0
LINE
  5
126F3E
  8
OBJECT
 10
466.999999999878014
 20
-904.0
 30
0.0
 11
430.9999999998781277
 21
-904.0
 31
0.0
1001
ACDBBLOCKREPETAG
1070
     1
1071
       24
1005
126F3E
  0
LINE
  5
126F3F
  8
OBJECT
 10
470.999999999878014
 20
-1003.5
 30
0.0
 11
479.499999999878014
 21
-1003.5
 31
0.0
1001
ACDBBLOCKREPETAG
1070
     1
1071
       25
1005
126F3F
  0
LINE
  5
126F40
  8
OBJECT
 10
479.499999999878014
 20
-908.5
 30
0.0
 11
470.999999999878014
 21
-908.5
 31
0.0
1001
ACDBBLOCKREPETAG
1070
     1
1071
       26
1005
126F40
  0
LINE
  5
126F41
  8
OBJECT
 10
470.999999999878014
 20
-908.5
 30
0.0
 11
470.999999999878014
 21
-1003.5
 31
0.0
1001
ACDBBLOCKREPETAG
1070
     1
1071
       27
1005
126F41
  0
LINE
  5
126F42
  8
OBJECT
 10
466.999999999878014
 20
-1008.0
 30
0.0
 11
470.999999999878014
 21
-1003.5
 31
0.0
1001
ACDBBLOCKREPETAG
1070
     1
1071
       28
1005
126F42
  0
LINE
  5
126F43
  8
OBJECT
 10
466.999999999878014
 20
-904.0
 30
0.0
 11
470.999999999878014
 21
-908.5
 31
0.0
1001
ACDBBLOCKREPETAG
1070
     1
1071
       29
1005
126F43
  0
LINE
  5
126F44
  8
OBJECT
 10
479.4999999998798899
 20
-906.4999999999998863
 30
0.0
 11
479.499999999878014
 21
-1005.5
 31
0.0
1001
ACDBBLOCKREPETAG
1070
     1
1071
       30
1005
126F44
  0
LINE
  5
126F45
  8
OBJECT
 10
479.499999999878014
 20
-1005.5
 30
0.0
 11
507.6550800868989199
 21
-1005.4999999999979536
 31
0.0
1001
ACDBBLOCKREPETAG
1070
     1
1071
       31
1005
126F45
  0
LINE
  5
126F46
  8
OBJECT
 10
479.4999999998798899
 20
-906.4999999999998863
 30
0.0
 11
507.6550800868998863
 21
-906.4999999999987494
 31
0.0
1001
ACDBBLOCKREPETAG
1070
     1
1071
       32
1005
126F46
  0
INSERT
  5
126F47
  8
SLIM
  2
*U27
 10
0.0
 20
0.0
 30
0.0
  0
LINE
  5
126F48
  8
HIDDEN
 10
475.999999999878014
 20
-994.0
 30
0.0
 11
475.999999999878014
 21
-918.0
 31
0.0
1001
ACDBBLOCKREPETAG
1070
     1
1071
       57
1005
126F48
  0
LINE
  5
126F49
  8
OBJECT
 10
610.9999999998781277
 20
-1089.0
 30
0.0
 11
610.9999999998781277
 21
-1096.0
 31
0.0
1001
ACDBBLOCKREPETAG
1070
     1
1071
        0
1005
126F49
  0
LINE
  5
126F4A
  8
OBJECT
 10
610.9999999998781277
 20
-1096.0
 30
0.0
 11
516.999999999878014
 21
-1096.0
 31
0.0
1001
ACDBBLOCKREPETAG
1070
     1
1071
        1
1005
126F4A
  0
LINE
  5
126F4B
  8
OBJECT
 10
516.999999999878014
 20
-1096.0
 30
0.0
 11
516.999999999878014
 21
-1089.0
 31
0.0
1001
ACDBBLOCKREPETAG
1070
     1
1071
        2
1005
126F4B
  0
LINE
  5
126F4C
  8
OBJECT
 10
516.999999999878014
 20
-1089.0
 30
0.0
 11
610.9999999998781277
 21
-1089.0
 31
0.0
1001
ACDBBLOCKREPETAG
1070
     1
1071
        3
1005
126F4C
  0
LINE
  5
126F4D
  8
OBJECT
 10
607.9999999998781277
 20
-1089.0
 30
0.0
 11
607.9999999998781277
 21
-1053.0
 31
0.0
1001
ACDBBLOCKREPETAG
1070
     1
1071
        4
1005
126F4D
  0
LINE
  5
126F4E
  8
OBJECT
 10
607.9999999998781277
 20
-1053.0
 30
0.0
 11
519.9999999998779003
 21
-1053.0
 31
0.0
1001
ACDBBLOCKREPETAG
1070
     1
1071
        5
1005
126F4E
  0
LINE
  5
126F4F
  8
OBJECT
 10
519.9999999998779003
 20
-1053.0
 30
0.0
 11
519.9999999998779003
 21
-1089.0
 31
0.0
1001
ACDBBLOCKREPETAG
1070
     1
1071
        6
1005
126F4F
  0
LINE
  5
126F50
  8
OBJECT
 10
603.4999999998781277
 20
-1049.0
 30
0.0
 11
603.4999999998781277
 21
-1040.5
 31
0.0
1001
ACDBBLOCKREPETAG
1070
     1
1071
        7
1005
126F50
  0
LINE
  5
126F51
  8
OBJECT
 10
524.499999999878014
 20
-1040.4999999999990905
 30
0.0
 11
524.499999999878014
 21
-1049.0
 31
0.0
1001
ACDBBLOCKREPETAG
1070
     1
1071
        8
1005
126F51
  0
LINE
  5
126F52
  8
OBJECT
 10
524.499999999878014
 20
-1049.0
 30
0.0
 11
603.4999999998781277
 21
-1049.0
 31
0.0
1001
ACDBBLOCKREPETAG
1070
     1
1071
        9
1005
126F52
  0
LINE
  5
126F53
  8
OBJECT
 10
607.9999999998781277
 20
-1053.0
 30
0.0
 11
603.4999999998781277
 21
-1049.0
 31
0.0
1001
ACDBBLOCKREPETAG
1070
     1
1071
       10
1005
126F53
  0
LINE
  5
126F54
  8
OBJECT
 10
519.9999999998779003
 20
-1053.0
 30
0.0
 11
524.499999999878014
 21
-1049.0
 31
0.0
1001
ACDBBLOCKREPETAG
1070
     1
1071
       11
1005
126F54
  0
LINE
  5
126F55
  8
OBJECT
 10
517.499999999878014
 20
-1040.4999999999990905
 30
0.0
 11
610.4999999998781277
 21
-1040.5
 31
0.0
1001
ACDBBLOCKREPETAG
1070
     1
1071
       12
1005
126F55
  0
ARC
  5
126F56
  8
OBJECT
 10
610.4999999998781277
 20
-1037.5
 30
0.0
 40
3.0
 50
270.0
 51
0.0
1001
ACDBBLOCKREPETAG
1070
     1
1071
       13
1005
126F56
  0
LINE
  5
126F57
  8
OBJECT
 10
613.4999999998781277
 20
-1037.5
 30
0.0
 11
613.4999999998790372
 21
-1012.3449199129789804
 31
0.0
1001
ACDBBLOCKREPETAG
1070
     1
1071
       15
1005
126F57
  0
LINE
  5
126F58
  8
OBJECT
 10
514.499999999878014
 20
-1037.4999999999990905
 30
0.0
 11
514.4999999998790372
 21
-1012.3449199129789804
 31
0.0
1001
ACDBBLOCKREPETAG
1070
     1
1071
       16
1005
126F58
  0
ARC
  5
126F59
  8
OBJECT
 10
517.499999999878014
 20
-1037.4999999999990905
 30
0.0
 40
3.0
 50
180.0
 51
270.0
1001
ACDBBLOCKREPETAG
1070
     1
1071
       17
1005
126F59
  0
INSERT
  5
126F5A
  8
SLIM
  2
*U28
 10
0.0
 20
0.0
 30
0.0
  0
LINE
  5
126F5B
  8
HIDDEN
 10
593.9999999998781277
 20
-1044.0
 30
0.0
 11
533.999999999878014
 21
-1044.0
 31
0.0
1001
ACDBBLOCKREPETAG
1070
     1
1071
       56
1005
126F5B
  0
CIRCLE
  5
126F5C
  8
OBJECT
 10
563.999999999878014
 20
-955.9999999999997726
 30
0.0
 40
70.0
1001
ACDBBLOCKREPETAG
1070
     1
1071
       50
1005
126F5C
  0
CIRCLE
  5
126F5D
  8
OBJECT
 10
563.999999999878014
 20
-955.9999999999997726
 30
0.0
 40
75.0
1001
ACDBBLOCKREPETAG
1070
     1
1071
       51
1005
126F5D
  0
POINT
  5
126F5E
  8
DOTS
 10
563.999999999878014
 20
-955.9999999999997726
 30
0.0
1001
ACDBBLOCKREPETAG
1070
     1
1071
       63
1005
126F5E
  0
ARC
  5
126F5F
  8
OBJECT
 10
563.999999999878014
 20
-955.9999999999997726
 30
0.0
 40
55.0
 50
299.3022457642854874
 51
240.6977542359825009
1001
ACDBBLOCKREPETAG
1070
     1
1071
       50
1005
126F5C
  0
LINE
  5
126F60
  8
OBJECT
 10
540.1757960751292558
 20
-1001.6779614447550557
 30
0.0
 11
532.1876176728762857
 21
-1007.577458443547016
 31
0.0
  0
ARC
  5
126F61
  8
OBJECT
 10
543.1461853585132076
 20
-1005.6999991752029473
 30
0.0
 40
5.0
 50
90.0
 51
126.4469224760718049
  0
LINE
  5
126F62
  8
OBJECT
 10
587.824203924574249
 20
-1001.6779614446270443
 30
0.0
 11
595.8124539799720196
 21
-1007.5775113607779758
 31
0.0
  0
ARC
  5
126F63
  8
OBJECT
 10
584.8538146413610548
 20
-1005.6999991752029473
 30
0.0
 40
5.0
 50
53.5530775262758425
 51
90.0
  0
LINE
  5
126F64
  8
OBJECT
 10
584.8538146413610548
 20
-1000.6999991752029473
 30
0.0
 11
543.1461853585132076
 21
-1000.6999991752029473
 31
0.0
  0
ARC
  5
126F65
  8
OBJECT
 10
591.059831126831341
 20
-1014.0127717297000345
 30
0.0
 40
8.0
 50
16.4762162479585612
 51
53.5530775262758425
  0
ARC
  5
126F66
  8
OBJECT
 10
536.9401688729228681
 20
-1014.0127717297000345
 30
0.0
 40
8.0
 50
126.4469224737241007
 51
163.5237837520413962
  0
LINE
  5
126F67
  8
OBJECT
 10
529.268668485852686
 20
-1011.7438332529759464
 30
0.0
 11
527.9999999998779003
 21
-1016.0333240792159586
 31
0.0
  0
LINE
  5
126F68
  8
OBJECT
 10
598.7313315139035694
 20
-1011.7438332529759464
 30
0.0
 11
599.9999999998781277
 21
-1016.0333240792159586
 31
0.0
  0
LINE
  5
126F69
  8
OBJECT
 10
71.0
 20
-1003.0
 30
0.0
 11
64.0
 21
-1003.0
 31
0.0
1001
ACDBBLOCKREPETAG
1070
     1
1071
        0
1005
126F69
  0
LINE
  5
126F6A
  8
OBJECT
 10
64.0
 20
-1003.0
 30
0.0
 11
64.0
 21
-909.0
 31
0.0
1001
ACDBBLOCKREPETAG
1070
     1
1071
        1
1005
126F6A
  0
LINE
  5
126F6B
  8
OBJECT
 10
64.0
 20
-909.0
 30
0.0
 11
71.0
 21
-909.0
 31
0.0
1001
ACDBBLOCKREPETAG
1070
     1
1071
        2
1005
126F6B
  0
LINE
  5
126F6C
  8
OBJECT
 10
71.0
 20
-909.0
 30
0.0
 11
71.0
 21
-1003.0
 31
0.0
1001
ACDBBLOCKREPETAG
1070
     1
1071
        3
1005
126F6C
  0
LINE
  5
126F6D
  8
OBJECT
 10
71.0
 20
-999.9999999999997726
 30
0.0
 11
107.0
 21
-999.9999999999997726
 31
0.0
1001
ACDBBLOCKREPETAG
1070
     1
1071
        4
1005
126F6D
  0
LINE
  5
126F6E
  8
OBJECT
 10
107.0
 20
-999.9999999999997726
 30
0.0
 11
107.0
 21
-912.0
 31
0.0
1001
ACDBBLOCKREPETAG
1070
     1
1071
        5
1005
126F6E
  0
LINE
  5
126F6F
  8
OBJECT
 10
107.0
 20
-912.0
 30
0.0
 11
71.0
 21
-912.0
 31
0.0
1001
ACDBBLOCKREPETAG
1070
     1
1071
        6
1005
126F6F
  0
LINE
  5
126F70
  8
OBJECT
 10
111.0
 20
-995.4999999999997726
 30
0.0
 11
119.4999999999991047
 21
-995.4999999999997726
 31
0.0
1001
ACDBBLOCKREPETAG
1070
     1
1071
        7
1005
126F70
  0
LINE
  5
126F71
  8
OBJECT
 10
119.5
 20
-916.5
 30
0.0
 11
111.0
 21
-916.5
 31
0.0
1001
ACDBBLOCKREPETAG
1070
     1
1071
        8
1005
126F71
  0
LINE
  5
126F72
  8
OBJECT
 10
111.0
 20
-916.5
 30
0.0
 11
111.0
 21
-995.4999999999997726
 31
0.0
1001
ACDBBLOCKREPETAG
1070
     1
1071
        9
1005
126F72
  0
LINE
  5
126F73
  8
OBJECT
 10
107.0
 20
-999.9999999999997726
 30
0.0
 11
111.0
 21
-995.4999999999997726
 31
0.0
1001
ACDBBLOCKREPETAG
1070
     1
1071
       10
1005
126F73
  0
LINE
  5
126F74
  8
OBJECT
 10
107.0
 20
-912.0
 30
0.0
 11
111.0
 21
-916.5
 31
0.0
1001
ACDBBLOCKREPETAG
1070
     1
1071
       11
1005
126F74
  0
LINE
  5
126F75
  8
OBJECT
 10
119.5000000000007958
 20
-909.4999999999996589
 30
0.0
 11
119.4999999999991047
 21
-1002.5
 31
0.0
1001
ACDBBLOCKREPETAG
1070
     1
1071
       12
1005
126F75
  0
ARC
  5
126F76
  8
OBJECT
 10
122.4999999999991047
 20
-1002.5
 30
0.0
 40
3.0
 50
180.0
 51
270.0
1001
ACDBBLOCKREPETAG
1070
     1
1071
       13
1005
126F76
  0
LINE
  5
126F77
  8
OBJECT
 10
122.4999999999991047
 20
-1005.5
 30
0.0
 11
147.655080087021787
 21
-1005.5000000000010232
 31
0.0
1001
ACDBBLOCKREPETAG
1070
     1
1071
       15
1005
126F77
  0
LINE
  5
126F78
  8
OBJECT
 10
122.5000000000007958
 20
-906.4999999999998863
 30
0.0
 11
147.6550800870209059
 21
-906.5000000000010232
 31
0.0
1001
ACDBBLOCKREPETAG
1070
     1
1071
       16
1005
126F78
  0
ARC
  5
126F79
  8
OBJECT
 10
122.5000000000007958
 20
-909.4999999999996589
 30
0.0
 40
3.0
 50
90.0
 51
180.0
1001
ACDBBLOCKREPETAG
1070
     1
1071
       17
1005
126F79
  0
INSERT
  5
126F7A
  8
SLIM
  2
*U29
 10
0.0
 20
0.0
 30
0.0
  0
LINE
  5
126F7B
  8
HIDDEN
 10
116.0
 20
-986.0
 30
0.0
 11
116.0
 21
-926.0
 31
0.0
1001
ACDBBLOCKREPETAG
1070
     1
1071
       56
1005
126F7B
  0
LINE
  5
126F7C
  8
OBJECT
 10
251.0
 20
-1089.0
 30
0.0
 11
251.0
 21
-1096.0
 31
0.0
1001
ACDBBLOCKREPETAG
1070
     1
1071
        0
1005
126F7C
  0
LINE
  5
126F7D
  8
OBJECT
 10
251.0
 20
-1096.0
 30
0.0
 11
157.0
 21
-1096.0
 31
0.0
1001
ACDBBLOCKREPETAG
1070
     1
1071
        1
1005
126F7D
  0
LINE
  5
126F7E
  8
OBJECT
 10
157.0
 20
-1096.0
 30
0.0
 11
157.0
 21
-1089.0
 31
0.0
1001
ACDBBLOCKREPETAG
1070
     1
1071
        2
1005
126F7E
  0
LINE
  5
126F7F
  8
OBJECT
 10
157.0
 20
-1089.0
 30
0.0
 11
251.0
 21
-1089.0
 31
0.0
1001
ACDBBLOCKREPETAG
1070
     1
1071
        3
1005
126F7F
  0
LINE
  5
126F80
  8
OBJECT
 10
248.0
 20
-1089.0
 30
0.0
 11
248.0
 21
-1053.0
 31
0.0
1001
ACDBBLOCKREPETAG
1070
     1
1071
        4
1005
126F80
  0
LINE
  5
126F81
  8
OBJECT
 10
248.0
 20
-1053.0
 30
0.0
 11
160.0
 21
-1053.0
 31
0.0
1001
ACDBBLOCKREPETAG
1070
     1
1071
        5
1005
126F81
  0
LINE
  5
126F82
  8
OBJECT
 10
160.0
 20
-1053.0
 30
0.0
 11
160.0
 21
-1089.0
 31
0.0
1001
ACDBBLOCKREPETAG
1070
     1
1071
        6
1005
126F82
  0
LINE
  5
126F83
  8
OBJECT
 10
243.5
 20
-1049.0
 30
0.0
 11
243.5
 21
-1040.5
 31
0.0
1001
ACDBBLOCKREPETAG
1070
     1
1071
        7
1005
126F83
  0
LINE
  5
126F84
  8
OBJECT
 10
164.5
 20
-1040.4999999999990905
 30
0.0
 11
164.5
 21
-1049.0
 31
0.0
1001
ACDBBLOCKREPETAG
1070
     1
1071
        8
1005
126F84
  0
LINE
  5
126F85
  8
OBJECT
 10
164.5
 20
-1049.0
 30
0.0
 11
243.5
 21
-1049.0
 31
0.0
1001
ACDBBLOCKREPETAG
1070
     1
1071
        9
1005
126F85
  0
LINE
  5
126F86
  8
OBJECT
 10
248.0
 20
-1053.0
 30
0.0
 11
243.5
 21
-1049.0
 31
0.0
1001
ACDBBLOCKREPETAG
1070
     1
1071
       10
1005
126F86
  0
LINE
  5
126F87
  8
OBJECT
 10
160.0
 20
-1053.0
 30
0.0
 11
164.5
 21
-1049.0
 31
0.0
1001
ACDBBLOCKREPETAG
1070
     1
1071
       11
1005
126F87
  0
LINE
  5
126F88
  8
OBJECT
 10
157.5
 20
-1040.4999999999990905
 30
0.0
 11
250.5
 21
-1040.5
 31
0.0
1001
ACDBBLOCKREPETAG
1070
     1
1071
       12
1005
126F88
  0
ARC
  5
126F89
  8
OBJECT
 10
250.5
 20
-1037.5
 30
0.0
 40
3.0
 50
270.0
 51
0.0
1001
ACDBBLOCKREPETAG
1070
     1
1071
       13
1005
126F89
  0
LINE
  5
126F8A
  8
OBJECT
 10
253.5
 20
-1037.5
 30
0.0
 11
253.5000000000009095
 21
-1012.3449199129789804
 31
0.0
1001
ACDBBLOCKREPETAG
1070
     1
1071
       15
1005
126F8A
  0
LINE
  5
126F8B
  8
OBJECT
 10
154.5
 20
-1037.4999999999990905
 30
0.0
 11
154.5000000000009095
 21
-1012.3449199129789804
 31
0.0
1001
ACDBBLOCKREPETAG
1070
     1
1071
       16
1005
126F8B
  0
ARC
  5
126F8C
  8
OBJECT
 10
157.5
 20
-1037.4999999999990905
 30
0.0
 40
3.0
 50
180.0
 51
270.0
1001
ACDBBLOCKREPETAG
1070
     1
1071
       17
1005
126F8C
  0
INSERT
  5
126F8D
  8
SLIM
  2
*U30
 10
0.0
 20
0.0
 30
0.0
  0
LINE
  5
126F8E
  8
HIDDEN
 10
234.0
 20
-1044.0
 30
0.0
 11
174.0
 21
-1044.0
 31
0.0
1001
ACDBBLOCKREPETAG
1070
     1
1071
       56
1005
126F8E
  0
CIRCLE
  5
126F8F
  8
OBJECT
 10
204.0
 20
-955.9999999999997726
 30
0.0
 40
70.0
1001
ACDBBLOCKREPETAG
1070
     1
1071
       50
1005
126F8F
  0
CIRCLE
  5
126F90
  8
OBJECT
 10
204.0
 20
-955.9999999999997726
 30
0.0
 40
75.0
1001
ACDBBLOCKREPETAG
1070
     1
1071
       51
1005
126F90
  0
POINT
  5
126F91
  8
DOTS
 10
204.0
 20
-955.9999999999997726
 30
0.0
1001
ACDBBLOCKREPETAG
1070
     1
1071
       63
1005
126F91
  0
ARC
  5
126F92
  8
OBJECT
 10
204.0
 20
-955.9999999999997726
 30
0.0
 40
55.0
 50
299.3022457642870222
 51
240.6977542359811935
1001
ACDBBLOCKREPETAG
1070
     1
1071
       50
1005
126F8F
  0
LINE
  5
126F93
  8
OBJECT
 10
180.175796075250986
 20
-1001.6779614447550557
 30
0.0
 11
172.1876176729984138
 21
-1007.577458443547016
 31
0.0
  0
ARC
  5
126F94
  8
OBJECT
 10
183.1461853586351936
 20
-1005.6999991752029473
 30
0.0
 40
5.0
 50
90.0
 51
126.4469224760729986
  0
LINE
  5
126F95
  8
OBJECT
 10
227.8242039246960928
 20
-1001.6779614446270443
 30
0.0
 11
235.8124539800938066
 21
-1007.5775113607779758
 31
0.0
  0
ARC
  5
126F96
  8
OBJECT
 10
224.8538146414830123
 20
-1005.6999991752029473
 30
0.0
 40
5.0
 50
53.5530775262745422
 51
90.0
  0
LINE
  5
126F97
  8
OBJECT
 10
224.8538146414830123
 20
-1000.6999991752029473
 30
0.0
 11
183.1461853586351936
 21
-1000.6999991752029473
 31
0.0
  0
ARC
  5
126F98
  8
OBJECT
 10
231.0598311269532132
 20
-1014.0127717297000345
 30
0.0
 40
8.0
 50
16.4762162479585612
 51
53.5530775262745422
  0
ARC
  5
126F99
  8
OBJECT
 10
176.9401688730449109
 20
-1014.0127717297000345
 30
0.0
 40
8.0
 50
126.4469224737253938
 51
163.5237837520413962
  0
LINE
  5
126F9A
  8
OBJECT
 10
169.2686684859745014
 20
-1011.7438332529759464
 30
0.0
 11
168.0
 21
-1016.0333240792159586
 31
0.0
  0
LINE
  5
126F9B
  8
OBJECT
 10
238.7313315140254986
 20
-1011.7438332529759464
 30
0.0
 11
240.0
 21
-1016.0333240792159586
 31
0.0
  0
TEXT
  5
126F9C
  8
SLIM
 10
98.5714285713677469
 20
-3099.9999999992169251
 30
0.0
 40
48.0
  1
C0033
 41
0.75
1001
ACDBBLOCKREPETAG
1070
     1
1071
      119
1005
0
  0
TEXT
  5
126F9D
  8
SLIM
 10
458.5714285712460878
 20
-2635.9999999993760866
 30
0.0
 40
48.0
  1
C0032
 41
0.75
1001
ACDBBLOCKREPETAG
1070
     1
1071
      119
1005
0
  0
TEXT
  5
126F9E
  8
SLIM
 10
106.2857142856535972
 20
-2635.9999999993760866
 30
0.0
 40
48.0
  1
C0031
 41
0.75
1001
ACDBBLOCKREPETAG
1070
     1
1071
      119
1005
0
  0
TEXT
  5
126F9F
  8
SLIM
 10
458.5714285712460878
 20
-2171.9999999995329745
 30
0.0
 40
48.0
  1
C0023
 41
0.75
1001
ACDBBLOCKREPETAG
1070
     1
1071
      119
1005
0
  0
TEXT
  5
126FA0
  8
SLIM
 10
98.5714285713681022
 20
-2171.9999999995329745
 30
0.0
 40
48.0
  1
C0022
 41
0.75
1001
ACDBBLOCKREPETAG
1070
     1
1071
      119
1005
0
  0
TEXT
  5
126FA1
  8
SLIM
 10
466.2857142855319807
 20
-1707.9999999996919087
 30
0.0
 40
48.0
  1
C0021
 41
0.75
1001
ACDBBLOCKREPETAG
1070
     1
1071
      119
1005
0
  0
TEXT
  5
126FA2
  8
SLIM
 10
101.9999999999395044
 20
-1707.9999999996919087
 30
0.0
 40
48.0
  1
C0013
 41
0.75
1001
ACDBBLOCKREPETAG
1070
     1
1071
      119
1005
0
  0
TEXT
  5
126FA3
  8
SLIM
 10
461.9999999998175895
 20
-1243.9999999998499334
 30
0.0
 40
48.0
  1
C0012
 41
0.75
1001
ACDBBLOCKREPETAG
1070
     1
1071
      119
1005
0
  0
TEXT
  5
126FA4
  8
SLIM
 10
109.7142857142251984
 20
-1243.9999999998490239
 30
0.0
 40
48.0
  1
C0011
 41
0.75
1001
ACDBBLOCKREPETAG
1070
     1
1071
      119
1005
0
  0
POLYLINE
  5
126FA5
  8
HIDDEN
 66
     1
 10
0.0
 20
0.0
 30
0.0
 70
     1
1001
ACDBBLOCKREPETAG
1070
     1
1071
      105
1005
0
  0
VERTEX
  5
12740A
  8
HIDDEN
 10
359.9999999998781277
 20
-800.0
 30
0.0
  0
VERTEX
  5
12740B
  8
HIDDEN
 10
719.9999999997562554
 20
-800.0
 30
0.0
  0
VERTEX
  5
12740C
  8
HIDDEN
 10
719.9999999997562554
 20
-1263.9999999998419753
 30
0.0
  0
VERTEX
  5
12740D
  8
HIDDEN
 10
359.9999999998781277
 20
-1263.9999999998419753
 30
0.0
  0
SEQEND
  5
12740E
  8
HIDDEN
  0
POLYLINE
  5
126FA6
  8
HIDDEN
 66
     1
 10
0.0
 20
0.0
 30
0.0
 70
     1
1001
ACDBBLOCKREPETAG
1070
     1
1071
      110
1005
0
  0
VERTEX
  5
12740F
  8
HIDDEN
 10
0.0
 20
-800.0
 30
0.0
  0
VERTEX
  5
127410
  8
HIDDEN
 10
359.9999999998781277
 20
-800.0
 30
0.0
  0
VERTEX
  5
127411
  8
HIDDEN
 10
359.9999999998781277
 20
-1263.9999999998419753
 30
0.0
  0
VERTEX
  5
127412
  8
HIDDEN
 10
0.0
 20
-1263.9999999998419753
 30
0.0
  0
SEQEND
  5
127413
  8
HIDDEN
  0
POLYLINE
  5
126FA7
  8
HIDDEN
 66
     1
 10
0.0
 20
0.0
 30
0.0
 70
     1
1001
ACDBBLOCKREPETAG
1070
     1
1071
      120
1005
0
  0
VERTEX
  5
127414
  8
HIDDEN
 10
359.9999999998781277
 20
-1263.9999999998419753
 30
0.0
  0
VERTEX
  5
127415
  8
HIDDEN
 10
719.9999999997562554
 20
-1263.9999999998419753
 30
0.0
  0
VERTEX
  5
127416
  8
HIDDEN
 10
719.9999999997562554
 20
-1727.9999999996830411
 30
0.0
  0
VERTEX
  5
127417
  8
HIDDEN
 10
359.9999999998781277
 20
-1727.9999999996830411
 30
0.0
  0
SEQEND
  5
127418
  8
HIDDEN
  0
POLYLINE
  5
126FA8
  8
HIDDEN
 66
     1
 10
0.0
 20
0.0
 30
0.0
 70
     1
1001
ACDBBLOCKREPETAG
1070
     1
1071
      125
1005
0
  0
VERTEX
  5
127419
  8
HIDDEN
 10
0.0
 20
-1263.9999999998419753
 30
0.0
  0
VERTEX
  5
12741A
  8
HIDDEN
 10
359.9999999998781277
 20
-1263.9999999998419753
 30
0.0
  0
VERTEX
  5
12741B
  8
HIDDEN
 10
359.9999999998781277
 20
-1727.9999999996830411
 30
0.0
  0
VERTEX
  5
12741C
  8
HIDDEN
 10
0.0
 20
-1727.9999999996830411
 30
0.0
  0
SEQEND
  5
12741D
  8
HIDDEN
  0
POLYLINE
  5
126FA9
  8
HIDDEN
 66
     1
 10
0.0
 20
0.0
 30
0.0
 70
     1
1001
ACDBBLOCKREPETAG
1070
     1
1071
      130
1005
0
  0
VERTEX
  5
12741E
  8
HIDDEN
 10
359.9999999998781277
 20
-1727.9999999996830411
 30
0.0
  0
VERTEX
  5
12741F
  8
HIDDEN
 10
719.9999999997562554
 20
-1727.9999999996830411
 30
0.0
  0
VERTEX
  5
127420
  8
HIDDEN
 10
719.9999999997562554
 20
-2191.999999999524789
 30
0.0
  0
VERTEX
  5
127421
  8
HIDDEN
 10
359.9999999998781277
 20
-2191.999999999524789
 30
0.0
  0
SEQEND
  5
127422
  8
HIDDEN
  0
POLYLINE
  5
126FAA
  8
HIDDEN
 66
     1
 10
0.0
 20
0.0
 30
0.0
 70
     1
1001
ACDBBLOCKREPETAG
1070
     1
1071
      135
1005
0
  0
VERTEX
  5
127423
  8
HIDDEN
 10
0.0
 20
-1727.9999999996830411
 30
0.0
  0
VERTEX
  5
127424
  8
HIDDEN
 10
359.9999999998781277
 20
-1727.9999999996830411
 30
0.0
  0
VERTEX
  5
127425
  8
HIDDEN
 10
359.9999999998781277
 20
-2191.999999999524789
 30
0.0
  0
VERTEX
  5
127426
  8
HIDDEN
 10
0.0
 20
-2191.999999999524789
 30
0.0
  0
SEQEND
  5
127427
  8
HIDDEN
  0
POLYLINE
  5
126FAB
  8
HIDDEN
 66
     1
 10
0.0
 20
0.0
 30
0.0
 70
     1
1001
ACDBBLOCKREPETAG
1070
     1
1071
      160
1005
0
  0
VERTEX
  5
127428
  8
HIDDEN
 10
359.9999999998781277
 20
-2191.999999999524789
 30
0.0
  0
VERTEX
  5
127429
  8
HIDDEN
 10
719.9999999997562554
 20
-2191.999999999524789
 30
0.0
  0
VERTEX
  5
12742A
  8
HIDDEN
 10
719.9999999997562554
 20
-2655.9999999993660822
 30
0.0
  0
VERTEX
  5
12742B
  8
HIDDEN
 10
359.9999999998781277
 20
-2655.9999999993660822
 30
0.0
  0
SEQEND
  5
12742C
  8
HIDDEN
  0
POLYLINE
  5
126FAC
  8
HIDDEN
 66
     1
 10
0.0
 20
0.0
 30
0.0
 70
     1
1001
ACDBBLOCKREPETAG
1070
     1
1071
      165
1005
0
  0
VERTEX
  5
12742D
  8
HIDDEN
 10
0.0
 20
-2191.999999999524789
 30
0.0
  0
VERTEX
  5
12742E
  8
HIDDEN
 10
359.9999999998781277
 20
-2191.999999999524789
 30
0.0
  0
VERTEX
  5
12742F
  8
HIDDEN
 10
359.9999999998781277
 20
-2655.9999999993660822
 30
0.0
  0
VERTEX
  5
127430
  8
HIDDEN
 10
0.0
 20
-2655.9999999993660822
 30
0.0
  0
SEQEND
  5
127431
  8
HIDDEN
  0
POLYLINE
  5
126FAD
  8
HIDDEN
 66
     1
 10
0.0
 20
0.0
 30
0.0
 70
     1
1001
ACDBBLOCKREPETAG
1070
     1
1071
      175
1005
0
  0
VERTEX
  5
127432
  8
HIDDEN
 10
0.0
 20
-2655.9999999993660822
 30
0.0
  0
VERTEX
  5
127433
  8
HIDDEN
 10
359.9999999998781277
 20
-2655.9999999993660822
 30
0.0
  0
VERTEX
  5
127434
  8
HIDDEN
 10
359.9999999998781277
 20
-3119.9999999992091944
 30
0.0
  0
VERTEX
  5
127435
  8
HIDDEN
 10
0.0
 20
-3119.9999999992091944
 30
0.0
  0
SEQEND
  5
127436
  8
HIDDEN
  0
POLYLINE
  5
126FAE
  8
HIDDEN
 66
     1
 10
0.0
 20
0.0
 30
0.0
 70
     1
1001
ACDBBLOCKREPETAG
1070
     1
1071
      110
1005
0
  0
VERTEX
  5
127437
  8
HIDDEN
 10
0.0
 20
0.0
 30
0.0
  0
VERTEX
  5
127438
  8
HIDDEN
 10
359.9999999998781277
 20
0.0
 30
0.0
  0
VERTEX
  5
127439
  8
HIDDEN
 10
359.9999999998781277
 20
-463.9999999998415774
 30
0.0
  0
VERTEX
  5
12743A
  8
HIDDEN
 10
0.0
 20
-463.9999999998415774
 30
0.0
  0
SEQEND
  5
12743B
  8
HIDDEN
  0
TEXT
  5
126FAF
  8
SLIM
 10
0.000003566523219
 20
-775.9999954146824166
 30
0.0
 40
79.9999999999727152
  1
下部枝管バリエーション
 41
0.75
1001
ACDBBLOCKREPETAG
1070
     1
1071
      119
1005
0
  0
LINE
  5
126FB0
  8
OBJECT
 10
4923.0
 20
-571.0
 30
0.0
 11
4923.0
 21
-550.0
 31
0.0
1001
ACDBBLOCKREPETAG
1070
     1
1071
       22
1005
126FB0
  0
LINE
  5
126FB1
  8
OBJECT
 10
4923.0
 20
-550.0
 30
0.0
 11
5077.0
 21
-550.0
 31
0.0
1001
ACDBBLOCKREPETAG
1070
     1
1071
       23
1005
126FB1
  0
LINE
  5
126FB2
  8
HIDDEN
 10
4943.0
 20
-620.0
 30
0.0
 11
5057.0
 21
-620.0
 31
0.0
1001
ACDBBLOCKREPETAG
1070
     1
1071
       24
1005
126FB2
  0
LINE
  5
126FB3
  8
OBJECT
 10
5077.0
 20
-550.0
 30
0.0
 11
5077.0
 21
-571.0
 31
0.0
1001
ACDBBLOCKREPETAG
1070
     1
1071
       25
1005
126FB3
  0
LINE
  5
126FB4
  8
OBJECT
 10
5077.0
 20
-571.0
 30
0.0
 11
4923.0
 21
-571.0
 31
0.0
1001
ACDBBLOCKREPETAG
1070
     1
1071
       26
1005
126FB4
  0
LINE
  5
126FB5
  8
CENTER
 10
5000.0
 20
-535.0
 30
0.0
 11
5000.0
 21
-890.0
 31
0.0
1001
ACDBBLOCKREPETAG
1070
     1
1071
       27
1005
126FB5
  0
LINE
  5
126FB6
  8
OBJECT
 10
4925.0
 20
-634.0
 30
0.0
 11
4925.0
 21
-878.0
 31
0.0
1001
ACDBBLOCKREPETAG
1070
     1
1071
       28
1005
126FB6
  0
LINE
  5
126FB7
  8
OBJECT
 10
4928.0
 20
-571.0
 30
0.0
 11
4928.0
 21
-634.0
 31
0.0
1001
ACDBBLOCKREPETAG
1070
     1
1071
       29
1005
126FB7
  0
LINE
  5
126FB8
  8
OBJECT
 10
5072.0
 20
-634.0
 30
0.0
 11
5072.0
 21
-571.0
 31
0.0
1001
ACDBBLOCKREPETAG
1070
     1
1071
       30
1005
126FB8
  0
LINE
  5
126FB9
  8
OBJECT
 10
4920.0
 20
-878.0
 30
0.0
 11
5080.0
 21
-878.0
 31
0.0
1001
ACDBBLOCKREPETAG
1070
     1
1071
       31
1005
126FB9
  0
LINE
  5
126FBA
  8
OBJECT
 10
5074.9999999997198756
 20
-634.0
 30
0.0
 11
4925.0
 21
-634.0
 31
0.0
1001
ACDBBLOCKREPETAG
1070
     1
1071
       32
1005
126FBA
  0
LINE
  5
126FBB
  8
OBJECT
 10
4920.0
 20
-878.0
 30
0.0
 11
4920.0
 21
-890.0
 31
0.0
1001
ACDBBLOCKREPETAG
1070
     1
1071
       33
1005
126FBB
  0
LINE
  5
126FBC
  8
OBJECT
 10
4920.0
 20
-890.0
 30
0.0
 11
5080.0
 21
-890.0
 31
0.0
1001
ACDBBLOCKREPETAG
1070
     1
1071
       34
1005
126FBC
  0
LINE
  5
126FBD
  8
OBJECT
 10
5080.0
 20
-890.0
 30
0.0
 11
5080.0
 21
-878.0
 31
0.0
1001
ACDBBLOCKREPETAG
1070
     1
1071
       35
1005
126FBD
  0
LINE
  5
126FBE
  8
OBJECT
 10
5074.9999999997198756
 20
-634.0
 30
0.0
 11
5075.0
 21
-878.0
 31
0.0
1001
ACDBBLOCKREPETAG
1070
     1
1071
       37
1005
126FBE
  0
LINE
  5
126FBF
  8
OBJECT
 10
4423.0
 20
-571.0
 30
0.0
 11
4423.0
 21
-550.0
 31
0.0
1001
ACDBBLOCKREPETAG
1070
     1
1071
        0
1005
126FBF
  0
LINE
  5
126FC0
  8
OBJECT
 10
4423.0
 20
-550.0
 30
0.0
 11
4577.0
 21
-550.0
 31
0.0
1001
ACDBBLOCKREPETAG
1070
     1
1071
        1
1005
126FC0
  0
LINE
  5
126FC1
  8
HIDDEN
 10
4443.0
 20
-620.0
 30
0.0
 11
4557.0
 21
-620.0
 31
0.0
1001
ACDBBLOCKREPETAG
1070
     1
1071
        2
1005
126FC1
  0
LINE
  5
126FC2
  8
OBJECT
 10
4577.0
 20
-550.0
 30
0.0
 11
4577.0
 21
-571.0
 31
0.0
1001
ACDBBLOCKREPETAG
1070
     1
1071
        3
1005
126FC2
  0
LINE
  5
126FC3
  8
OBJECT
 10
4577.0
 20
-571.0
 30
0.0
 11
4423.0
 21
-571.0
 31
0.0
1001
ACDBBLOCKREPETAG
1070
     1
1071
        4
1005
126FC3
  0
LINE
  5
126FC4
  8
CENTER
 10
4500.0
 20
-535.0
 30
0.0
 11
4500.0
 21
-890.0
 31
0.0
1001
ACDBBLOCKREPETAG
1070
     1
1071
        5
1005
126FC4
  0
LINE
  5
126FC5
  8
OBJECT
 10
4425.0
 20
-634.0
 30
0.0
 11
4425.0
 21
-878.0
 31
0.0
1001
ACDBBLOCKREPETAG
1070
     1
1071
        6
1005
126FC5
  0
LINE
  5
126FC6
  8
OBJECT
 10
4428.0
 20
-571.0
 30
0.0
 11
4428.0
 21
-634.0
 31
0.0
1001
ACDBBLOCKREPETAG
1070
     1
1071
        7
1005
126FC6
  0
LINE
  5
126FC7
  8
OBJECT
 10
4572.0
 20
-634.0
 30
0.0
 11
4572.0
 21
-571.0
 31
0.0
1001
ACDBBLOCKREPETAG
1070
     1
1071
        8
1005
126FC7
  0
LINE
  5
126FC8
  8
OBJECT
 10
4420.0
 20
-878.0
 30
0.0
 11
4580.0
 21
-878.0
 31
0.0
1001
ACDBBLOCKREPETAG
1070
     1
1071
        9
1005
126FC8
  0
LINE
  5
126FC9
  8
OBJECT
 10
4580.0
 20
-634.0
 30
0.0
 11
4425.0
 21
-634.0
 31
0.0
1001
ACDBBLOCKREPETAG
1070
     1
1071
       10
1005
126FC9
  0
LINE
  5
126FCA
  8
OBJECT
 10
4420.0
 20
-878.0
 30
0.0
 11
4420.0
 21
-890.0
 31
0.0
1001
ACDBBLOCKREPETAG
1070
     1
1071
       11
1005
126FCA
  0
LINE
  5
126FCB
  8
OBJECT
 10
4420.0
 20
-890.0
 30
0.0
 11
4580.0
 21
-890.0
 31
0.0
1001
ACDBBLOCKREPETAG
1070
     1
1071
       12
1005
126FCB
  0
LINE
  5
126FCC
  8
OBJECT
 10
4580.0
 20
-890.0
 30
0.0
 11
4580.0
 21
-878.0
 31
0.0
1001
ACDBBLOCKREPETAG
1070
     1
1071
       13
1005
126FCC
  0
LINE
  5
126FCD
  8
OBJECT
 10
4574.9999999998617568
 20
-757.9999999998509566
 30
0.0
 11
4575.0
 21
-878.0
 31
0.0
1001
ACDBBLOCKREPETAG
1070
     1
1071
       15
1005
126FCD
  0
LINE
  5
126FCE
  8
OBJECT
 10
4574.9999908029849394
 20
-757.9999860270218051
 30
0.0
 11
4580.0
 21
-757.9999860270218051
 31
0.0
1001
ACDBBLOCKREPETAG
1070
     1
1071
       16
1005
126FCE
  0
ARC
  5
126FCF
  8
OBJECT
 10
4700.6872746716735492
 20
-749.4080994101076385
 30
0.0
 40
170.6350503965855978
 50
137.4413445918430057
 51
149.9194958133722082
1001
ACDBBLOCKREPETAG
1070
     1
1071
       17
1005
126FCF
  0
ARC
  5
126FD0
  8
OBJECT
 10
4618.8455987040497348
 20
-705.882726695364795
 30
0.0
 40
78.0722220217636647
 50
147.4551531038623011
 51
164.6636599771867111
1001
ACDBBLOCKREPETAG
1070
     1
1071
       18
1005
126FD0
  0
ARC
  5
126FD1
  8
OBJECT
 10
4585.755434960871753
 20
-696.0
 30
0.0
 40
43.5535392688561771
 50
165.6884523007529992
 51
194.3115476992468871
1001
ACDBBLOCKREPETAG
1070
     1
1071
       19
1005
126FD1
  0
ARC
  5
126FD2
  8
OBJECT
 10
4700.6872746716735492
 20
-642.5919005898921341
 30
0.0
 40
170.6350503965855978
 50
210.0805041866277918
 51
222.5586554081569943
1001
ACDBBLOCKREPETAG
1070
     1
1071
       20
1005
126FD2
  0
ARC
  5
126FD3
  8
OBJECT
 10
4618.8455987040497348
 20
-686.117273304635205
 30
0.0
 40
78.0722220217636647
 50
195.3363400228132889
 51
212.5448468961376989
1001
ACDBBLOCKREPETAG
1070
     1
1071
       21
1005
126FD3
  0
LINE
  5
126FD4
  8
OBJECT
 10
2923.0
 20
-571.0
 30
0.0
 11
2923.0
 21
-550.0
 31
0.0
1001
ACDBBLOCKREPETAG
1070
     1
1071
       22
1005
126FD4
  0
LINE
  5
126FD5
  8
OBJECT
 10
2923.0
 20
-550.0
 30
0.0
 11
3077.0
 21
-550.0
 31
0.0
1001
ACDBBLOCKREPETAG
1070
     1
1071
       23
1005
126FD5
  0
LINE
  5
126FD6
  8
HIDDEN
 10
2943.0
 20
-620.0
 30
0.0
 11
3057.0
 21
-620.0
 31
0.0
1001
ACDBBLOCKREPETAG
1070
     1
1071
       24
1005
126FD6
  0
LINE
  5
126FD7
  8
OBJECT
 10
3077.0
 20
-550.0
 30
0.0
 11
3077.0
 21
-571.0
 31
0.0
1001
ACDBBLOCKREPETAG
1070
     1
1071
       25
1005
126FD7
  0
LINE
  5
126FD8
  8
OBJECT
 10
3077.0
 20
-571.0
 30
0.0
 11
2923.0
 21
-571.0
 31
0.0
1001
ACDBBLOCKREPETAG
1070
     1
1071
       26
1005
126FD8
  0
LINE
  5
126FD9
  8
CENTER
 10
3000.0
 20
-535.0
 30
0.0
 11
3000.0
 21
-890.0
 31
0.0
1001
ACDBBLOCKREPETAG
1070
     1
1071
       27
1005
126FD9
  0
LINE
  5
126FDA
  8
OBJECT
 10
2925.0
 20
-634.0
 30
0.0
 11
2925.0
 21
-878.0
 31
0.0
1001
ACDBBLOCKREPETAG
1070
     1
1071
       28
1005
126FDA
  0
LINE
  5
126FDB
  8
OBJECT
 10
2928.0
 20
-571.0
 30
0.0
 11
2928.0
 21
-634.0
 31
0.0
1001
ACDBBLOCKREPETAG
1070
     1
1071
       29
1005
126FDB
  0
LINE
  5
126FDC
  8
OBJECT
 10
3072.0
 20
-634.0
 30
0.0
 11
3072.0
 21
-571.0
 31
0.0
1001
ACDBBLOCKREPETAG
1070
     1
1071
       30
1005
126FDC
  0
LINE
  5
126FDD
  8
OBJECT
 10
2920.0
 20
-878.0
 30
0.0
 11
3080.0
 21
-878.0
 31
0.0
1001
ACDBBLOCKREPETAG
1070
     1
1071
       31
1005
126FDD
  0
LINE
  5
126FDE
  8
OBJECT
 10
3074.9999999997189661
 20
-634.0
 30
0.0
 11
2925.0
 21
-634.0
 31
0.0
1001
ACDBBLOCKREPETAG
1070
     1
1071
       32
1005
126FDE
  0
LINE
  5
126FDF
  8
OBJECT
 10
2920.0
 20
-878.0
 30
0.0
 11
2920.0
 21
-890.0
 31
0.0
1001
ACDBBLOCKREPETAG
1070
     1
1071
       33
1005
126FDF
  0
LINE
  5
126FE0
  8
OBJECT
 10
2920.0
 20
-890.0
 30
0.0
 11
3080.0
 21
-890.0
 31
0.0
1001
ACDBBLOCKREPETAG
1070
     1
1071
       34
1005
126FE0
  0
LINE
  5
126FE1
  8
OBJECT
 10
3080.0
 20
-890.0
 30
0.0
 11
3080.0
 21
-878.0
 31
0.0
1001
ACDBBLOCKREPETAG
1070
     1
1071
       35
1005
126FE1
  0
LINE
  5
126FE2
  8
OBJECT
 10
3074.9999999997189661
 20
-634.0
 30
0.0
 11
3075.0
 21
-878.0
 31
0.0
1001
ACDBBLOCKREPETAG
1070
     1
1071
       37
1005
126FE2
  0
LINE
  5
126FE3
  8
OBJECT
 10
2423.0
 20
-571.0
 30
0.0
 11
2423.0
 21
-550.0
 31
0.0
1001
ACDBBLOCKREPETAG
1070
     1
1071
        0
1005
126FE3
  0
LINE
  5
126FE4
  8
OBJECT
 10
2423.0
 20
-550.0
 30
0.0
 11
2577.0
 21
-550.0
 31
0.0
1001
ACDBBLOCKREPETAG
1070
     1
1071
        1
1005
126FE4
  0
LINE
  5
126FE5
  8
HIDDEN
 10
2443.0
 20
-620.0
 30
0.0
 11
2557.0
 21
-620.0
 31
0.0
1001
ACDBBLOCKREPETAG
1070
     1
1071
        2
1005
126FE5
  0
LINE
  5
126FE6
  8
OBJECT
 10
2577.0
 20
-550.0
 30
0.0
 11
2577.0
 21
-571.0
 31
0.0
1001
ACDBBLOCKREPETAG
1070
     1
1071
        3
1005
126FE6
  0
LINE
  5
126FE7
  8
OBJECT
 10
2577.0
 20
-571.0
 30
0.0
 11
2423.0
 21
-571.0
 31
0.0
1001
ACDBBLOCKREPETAG
1070
     1
1071
        4
1005
126FE7
  0
LINE
  5
126FE8
  8
CENTER
 10
2500.0
 20
-535.0
 30
0.0
 11
2500.0
 21
-890.0
 31
0.0
1001
ACDBBLOCKREPETAG
1070
     1
1071
        5
1005
126FE8
  0
LINE
  5
126FE9
  8
OBJECT
 10
2425.0
 20
-634.0
 30
0.0
 11
2425.0
 21
-878.0
 31
0.0
1001
ACDBBLOCKREPETAG
1070
     1
1071
        6
1005
126FE9
  0
LINE
  5
126FEA
  8
OBJECT
 10
2428.0
 20
-571.0
 30
0.0
 11
2428.0
 21
-634.0
 31
0.0
1001
ACDBBLOCKREPETAG
1070
     1
1071
        7
1005
126FEA
  0
LINE
  5
126FEB
  8
OBJECT
 10
2572.0
 20
-634.0
 30
0.0
 11
2572.0
 21
-571.0
 31
0.0
1001
ACDBBLOCKREPETAG
1070
     1
1071
        8
1005
126FEB
  0
LINE
  5
126FEC
  8
OBJECT
 10
2420.0
 20
-878.0
 30
0.0
 11
2580.0
 21
-878.0
 31
0.0
1001
ACDBBLOCKREPETAG
1070
     1
1071
        9
1005
126FEC
  0
LINE
  5
126FED
  8
OBJECT
 10
2580.0
 20
-634.0
 30
0.0
 11
2425.0
 21
-634.0
 31
0.0
1001
ACDBBLOCKREPETAG
1070
     1
1071
       10
1005
126FED
  0
LINE
  5
126FEE
  8
OBJECT
 10
2420.0
 20
-878.0
 30
0.0
 11
2420.0
 21
-890.0
 31
0.0
1001
ACDBBLOCKREPETAG
1070
     1
1071
       11
1005
126FEE
  0
LINE
  5
126FEF
  8
OBJECT
 10
2420.0
 20
-890.0
 30
0.0
 11
2580.0
 21
-890.0
 31
0.0
1001
ACDBBLOCKREPETAG
1070
     1
1071
       12
1005
126FEF
  0
LINE
  5
126FF0
  8
OBJECT
 10
2580.0
 20
-890.0
 30
0.0
 11
2580.0
 21
-878.0
 31
0.0
1001
ACDBBLOCKREPETAG
1070
     1
1071
       13
1005
126FF0
  0
LINE
  5
126FF1
  8
OBJECT
 10
2574.9999999998622116
 20
-757.9999999998509566
 30
0.0
 11
2575.0
 21
-878.0
 31
0.0
1001
ACDBBLOCKREPETAG
1070
     1
1071
       15
1005
126FF1
  0
LINE
  5
126FF2
  8
OBJECT
 10
2574.9999908029849394
 20
-757.9999860270218051
 30
0.0
 11
2580.0
 21
-757.9999860270218051
 31
0.0
1001
ACDBBLOCKREPETAG
1070
     1
1071
       16
1005
126FF2
  0
ARC
  5
126FF3
  8
OBJECT
 10
2700.6872746716730944
 20
-749.4080994101076385
 30
0.0
 40
170.6350503965855978
 50
137.4413445918430057
 51
149.9194958133722082
1001
ACDBBLOCKREPETAG
1070
     1
1071
       17
1005
126FF3
  0
ARC
  5
126FF4
  8
OBJECT
 10
2618.845598704051099
 20
-705.882726695364795
 30
0.0
 40
78.0722220217636647
 50
147.4551531038623011
 51
164.6636599771798046
1001
ACDBBLOCKREPETAG
1070
     1
1071
       18
1005
126FF4
  0
ARC
  5
126FF5
  8
OBJECT
 10
2585.7554349608731172
 20
-696.0
 30
0.0
 40
43.5535392688561771
 50
165.6884523007466044
 51
194.3115476992531967
1001
ACDBBLOCKREPETAG
1070
     1
1071
       19
1005
126FF5
  0
ARC
  5
126FF6
  8
OBJECT
 10
2700.6872746716730944
 20
-642.5919005898921341
 30
0.0
 40
170.6350503965855978
 50
210.0805041866277918
 51
222.5586554081569943
1001
ACDBBLOCKREPETAG
1070
     1
1071
       20
1005
126FF6
  0
ARC
  5
126FF7
  8
OBJECT
 10
2618.845598704051099
 20
-686.117273304635205
 30
0.0
 40
78.0722220217636647
 50
195.3363400228201101
 51
212.5448468961376989
1001
ACDBBLOCKREPETAG
1070
     1
1071
       21
1005
126FF7
  0
TEXT
  5
126FF8
  8
SLIM
 10
2032.5
 20
-1828.9999999999970441
 30
0.0
 40
28.0
  1
※ 対応P寸法　　310＜320＞～460（10mm単位。＜＞内は下枝75の場合）
 41
0.75
  0
TEXT
  5
126FF9
  8
SLIM
 10
4026.5999999999999091
 20
-1818.0000266666650077
 30
0.0
 40
28.0
  1
※ 対応P寸法　　310＜320＞～440（10mm単位。＜＞内は下枝75の場合）
 41
0.75
  0
TEXT
  5
126FFA
  8
SLIM
 10
4026.5999999999999091
 20
-1864.6666933333310681
 30
0.0
 40
28.0
  1
※ 対応スラブ厚　180～（m-10）
 41
0.75
  0
TEXT
  5
126FFB
  8
SLIM
 10
4026.5999999999999091
 20
-1911.3333599999980379
 30
0.0
 40
28.0
  1
※ 足切り可能寸法（最大）　680-P-m（コンパクトＬベンド使用なら+10）
 41
0.75
  0
TEXT
  5
126FFC
  8
SLIM
 10
4098.8999999999987267
 20
-1983.3333066666650666
 30
0.0
 40
28.0
  1
国土交通大臣認定・（一財）日本消防設備安全センター性能評定取得品
 41
0.75
  0
TEXT
  5
126FFD
  8
SLIM
 10
4131.1000000000003638
 20
-2029.9999733333320364
 30
0.0
 40
28.0
  1
注）ご採用にあたり、認定書及び評定書の内容をご確認ください。
 41
0.75
  0
TEXT
  5
126FFE
  8
SLIM
 10
5470.0571428571429351
 20
-1472.9999999999959073
 30
0.0
 40
24.0
  1
190～240
 41
0.75
  0
TEXT
  5
126FFF
  8
SLIM
 10
5470.0571428571429351
 20
-1424.9999999999959073
 30
0.0
 40
24.0
  1
190～250
 41
0.75
  0
TEXT
  5
127000
  8
SLIM
 10
5470.0571428571429351
 20
-1376.9999999999959073
 30
0.0
 40
24.0
  1
190～260
 41
0.75
  0
TEXT
  5
127001
  8
SLIM
 10
5470.0571428571429351
 20
-1328.9999999999959073
 30
0.0
 40
24.0
  1
190～270
 41
0.75
  0
TEXT
  5
127002
  8
SLIM
 10
5470.0571428571429351
 20
-1280.9999999999959073
 30
0.0
 40
24.0
  1
190～280
 41
0.75
  0
TEXT
  5
127003
  8
SLIM
 10
5470.0571428571429351
 20
-1232.9999999999959073
 30
0.0
 40
24.0
  1
190～290
 41
0.75
  0
TEXT
  5
127004
  8
SLIM
 10
5470.0571428571429351
 20
-1184.9999999999959073
 30
0.0
 40
24.0
  1
190～300
 41
0.75
  0
TEXT
  5
127005
  8
SLIM
 10
5448.4571428571443903
 20
-1530.9999999999959073
 30
0.0
 40
24.0
  1
標準：m=240
 41
0.75
  0
TEXT
  5
127006
  8
SLIM
 10
5378.857142857143117
 20
-1472.9999999999959073
 30
0.0
 40
24.0
  1
440
 41
0.75
  0
TEXT
  5
127007
  8
SLIM
 10
5378.857142857143117
 20
-1424.9999999999959073
 30
0.0
 40
24.0
  1
430
 41
0.75
  0
TEXT
  5
127008
  8
SLIM
 10
5378.857142857143117
 20
-1376.9999999999959073
 30
0.0
 40
24.0
  1
420
 41
0.75
  0
TEXT
  5
127009
  8
SLIM
 10
5380.571428571429351
 20
-1328.9999999999959073
 30
0.0
 40
24.0
  1
410
 41
0.75
  0
TEXT
  5
12700A
  8
SLIM
 10
5378.857142857143117
 20
-1280.9999999999959073
 30
0.0
 40
24.0
  1
400
 41
0.75
  0
TEXT
  5
12700B
  8
SLIM
 10
5378.857142857143117
 20
-1232.9999999999959073
 30
0.0
 40
24.0
  1
390
 41
0.75
  0
TEXT
  5
12700C
  8
SLIM
 10
5378.857142857143117
 20
-1184.9999999999959073
 30
0.0
 40
24.0
  1
380
 41
0.75
  0
TEXT
  5
12700D
  8
SLIM
 10
5378.857142857143117
 20
-1136.9999999999959073
 30
0.0
 40
24.0
  1
370
 41
0.75
  0
TEXT
  5
12700E
  8
SLIM
 10
5471.7714285714291691
 20
-1136.9999999999959073
 30
0.0
 40
24.0
  1
190～310
 41
0.75
  0
TEXT
  5
12700F
  8
SLIM
 10
5378.857142857143117
 20
-1088.9999999999959073
 30
0.0
 40
24.0
  1
360
 41
0.75
  0
TEXT
  5
127010
  8
SLIM
 10
5470.0571428571429351
 20
-1088.9999999999959073
 30
0.0
 40
24.0
  1
190～320
 41
0.75
  0
TEXT
  5
127011
  8
SLIM
 10
5378.857142857143117
 20
-1040.9999999999959073
 30
0.0
 40
24.0
  1
350
 41
0.75
  0
TEXT
  5
127012
  8
SLIM
 10
5468.3428571428567011
 20
-1040.9999999999959073
 30
0.0
 40
24.0
  1
200～330
 41
0.75
  0
TEXT
  5
127013
  8
SLIM
 10
5378.857142857143117
 20
-992.999999999996362
 30
0.0
 40
24.0
  1
340
 41
0.75
  0
TEXT
  5
127014
  8
SLIM
 10
5470.0571428571429351
 20
-992.999999999996362
 30
0.0
 40
24.0
  1
210～340
 41
0.75
  0
TEXT
  5
127015
  8
SLIM
 10
5378.857142857143117
 20
-944.9999999999961346
 30
0.0
 40
24.0
  1
330
 41
0.75
  0
TEXT
  5
127016
  8
SLIM
 10
5468.3428571428567011
 20
-944.9999999999961346
 30
0.0
 40
24.0
  1
220～350
 41
0.75
  0
TEXT
  5
127017
  8
SLIM
 10
5378.857142857143117
 20
-896.9999999999961346
 30
0.0
 40
24.0
  1
320
 41
0.75
  0
TEXT
  5
127018
  8
SLIM
 10
5468.3428571428567011
 20
-896.9999999999961346
 30
0.0
 40
24.0
  1
230～360
 41
0.75
  0
TEXT
  5
127019
  8
SLIM
 10
5373.8000000000001819
 20
-800.9999999999957936
 30
0.0
 40
24.0
  1
P寸法
 41
0.75
  0
TEXT
  5
12701A
  8
SLIM
 10
5380.571428571429351
 20
-848.9999999999959073
 30
0.0
 40
24.0
  1
310
 41
0.75
  0
TEXT
  5
12701B
  8
SLIM
 10
5468.3428571428567011
 20
-848.9999999999959073
 30
0.0
 40
24.0
  1
240～370
 41
0.75
  0
TEXT
  5
12701C
  8
SLIM
 10
5474.3428571428567011
 20
-800.9999999999957936
 30
0.0
 40
24.0
  1
対応m寸法
 41
0.75
  0
LINE
  5
12701D
  8
SLIM
 10
4914.999999999992724
 20
-1152.2369265471770632
 30
0.0
 11
4931.2369265471679682
 21
-1136.0
 31
0.0
1001
GRADIENTCOLOR1ACI
1070
     5
1001
GRADIENTCOLOR2ACI
1070
     2
1001
ACAD
1010
0.0
1020
0.0
1030
0.0
  0
LINE
  5
12701E
  8
SLIM
 10
4914.9999999999954525
 20
-1170.1974387893139919
 30
0.0
 11
4949.1974387893078529
 21
-1136.0
 31
0.0
1001
GRADIENTCOLOR1ACI
1070
     5
1001
GRADIENTCOLOR2ACI
1070
     2
1001
ACAD
1010
0.0
1020
0.0
1030
0.0
  0
LINE
  5
12701F
  8
SLIM
 10
4914.9999999999954525
 20
-1188.1579510314509207
 30
0.0
 11
4967.1579510314477375
 21
-1136.0
 31
0.0
1001
GRADIENTCOLOR1ACI
1070
     5
1001
GRADIENTCOLOR2ACI
1070
     2
1001
ACAD
1010
0.0
1020
0.0
1030
0.0
  0
LINE
  5
127020
  8
SLIM
 10
4915.1454972543142503
 20
-1205.9729660192690517
 30
0.0
 11
4985.1184632735839841
 21
-1136.0
 31
0.0
1001
GRADIENTCOLOR1ACI
1070
     5
1001
GRADIENTCOLOR2ACI
1070
     2
1001
ACAD
1010
0.0
1020
0.0
1030
0.0
  0
LINE
  5
127021
  8
SLIM
 10
4917.1046274952450403
 20
-1221.9743480204799653
 30
0.0
 11
5003.0789755157220497
 21
-1136.0
 31
0.0
1001
GRADIENTCOLOR1ACI
1070
     5
1001
GRADIENTCOLOR2ACI
1070
     2
1001
ACAD
1010
0.0
1020
0.0
1030
0.0
  0
LINE
  5
127022
  8
SLIM
 10
4919.0637577361712829
 20
-1237.9757300216899694
 30
0.0
 11
5021.0394877578619344
 21
-1136.0
 31
0.0
1001
GRADIENTCOLOR1ACI
1070
     5
1001
GRADIENTCOLOR2ACI
1070
     2
1001
ACAD
1010
0.0
1020
0.0
1030
0.0
  0
LINE
  5
127023
  8
SLIM
 10
4920.0
 20
-1255.0
 30
0.0
 11
5039.0
 21
-1136.0
 31
0.0
1001
GRADIENTCOLOR1ACI
1070
     5
1001
GRADIENTCOLOR2ACI
1070
     2
1001
ACAD
1010
0.0
1020
0.0
1030
0.0
  0
LINE
  5
127024
  8
SLIM
 10
4920.0
 20
-1272.9605122421380656
 30
0.0
 11
5056.9605122421371561
 21
-1136.0
 31
0.0
1001
GRADIENTCOLOR1ACI
1070
     5
1001
GRADIENTCOLOR2ACI
1070
     2
1001
ACAD
1010
0.0
1020
0.0
1030
0.0
  0
LINE
  5
127025
  8
SLIM
 10
4920.0
 20
-1290.9210244842770408
 30
0.0
 11
5074.9210244842770408
 21
-1136.0
 31
0.0
1001
GRADIENTCOLOR1ACI
1070
     5
1001
GRADIENTCOLOR2ACI
1070
     2
1001
ACAD
1010
0.0
1020
0.0
1030
0.0
  0
LINE
  5
127026
  8
SLIM
 10
4920.0
 20
-1308.8815367264151064
 30
0.0
 11
5085.000000000007276
 21
-1143.8815367264080578
 31
0.0
1001
GRADIENTCOLOR1ACI
1070
     5
1001
GRADIENTCOLOR2ACI
1070
     2
1001
ACAD
1010
0.0
1020
0.0
1030
0.0
  0
LINE
  5
127027
  8
SLIM
 10
4920.0
 20
-1326.8420489685529446
 30
0.0
 11
5085.000000000007276
 21
-1161.8420489685470329
 31
0.0
1001
GRADIENTCOLOR1ACI
1070
     5
1001
GRADIENTCOLOR2ACI
1070
     2
1001
ACAD
1010
0.0
1020
0.0
1030
0.0
  0
LINE
  5
127028
  8
SLIM
 10
4920.0
 20
-1344.8025612106910103
 30
0.0
 11
5085.000000000003638
 21
-1179.8025612106869175
 31
0.0
1001
GRADIENTCOLOR1ACI
1070
     5
1001
GRADIENTCOLOR2ACI
1070
     2
1001
ACAD
1010
0.0
1020
0.0
1030
0.0
  0
LINE
  5
127029
  8
SLIM
 10
4920.0
 20
-1362.7630734528290759
 30
0.0
 11
5085.000000000003638
 21
-1197.7630734528258927
 31
0.0
1001
GRADIENTCOLOR1ACI
1070
     5
1001
GRADIENTCOLOR2ACI
1070
     2
1001
ACAD
1010
0.0
1020
0.0
1030
0.0
  0
LINE
  5
12702A
  8
SLIM
 10
4924.7235856949700974
 20
-1376.0
 30
0.0
 11
5083.4738280308083631
 21
-1217.2497576641590058
 31
0.0
1001
GRADIENTCOLOR1ACI
1070
     5
1001
GRADIENTCOLOR2ACI
1070
     2
1001
ACAD
1010
0.0
1020
0.0
1030
0.0
  0
LINE
  5
12702B
  8
SLIM
 10
4930.0
 20
-1388.6840979371058893
 30
0.0
 11
4942.6840979371072535
 21
-1376.0
 31
0.0
1001
GRADIENTCOLOR1ACI
1070
     5
1001
GRADIENTCOLOR2ACI
1070
     2
1001
ACAD
1010
0.0
1020
0.0
1030
0.0
  0
LINE
  5
12702C
  8
SLIM
 10
4942.6840979371072535
 20
-1376.0
 30
0.0
 11
5080.9680345671367832
 21
-1237.7160633699691061
 31
0.0
1001
GRADIENTCOLOR1ACI
1070
     5
1001
GRADIENTCOLOR2ACI
1070
     2
1001
ACAD
1010
0.0
1020
0.0
1030
0.0
  0
LINE
  5
12702D
  8
SLIM
 10
4941.6446101792453192
 20
-1395.0
 30
0.0
 11
4960.6446101792444097
 21
-1376.0
 31
0.0
1001
GRADIENTCOLOR1ACI
1070
     5
1001
GRADIENTCOLOR2ACI
1070
     2
1001
ACAD
1010
0.0
1020
0.0
1030
0.0
  0
LINE
  5
12702E
  8
SLIM
 10
4960.6446101792444097
 20
-1376.0
 30
0.0
 11
5080.0
 21
-1256.6446101792450918
 31
0.0
1001
GRADIENTCOLOR1ACI
1070
     5
1001
GRADIENTCOLOR2ACI
1070
     2
1001
ACAD
1010
0.0
1020
0.0
1030
0.0
  0
LINE
  5
12702F
  8
SLIM
 10
4959.6051224213833848
 20
-1395.0
 30
0.0
 11
4978.6051224213842943
 21
-1376.0
 31
0.0
1001
GRADIENTCOLOR1ACI
1070
     5
1001
GRADIENTCOLOR2ACI
1070
     2
1001
ACAD
1010
0.0
1020
0.0
1030
0.0
  0
LINE
  5
127030
  8
SLIM
 10
4978.6051224213842943
 20
-1376.0
 30
0.0
 11
5080.0
 21
-1274.60512242138293
 31
0.0
1001
GRADIENTCOLOR1ACI
1070
     5
1001
GRADIENTCOLOR2ACI
1070
     2
1001
ACAD
1010
0.0
1020
0.0
1030
0.0
  0
LINE
  5
127031
  8
SLIM
 10
4977.5656346635214504
 20
-1395.0
 30
0.0
 11
4996.5656346635223599
 21
-1376.0
 31
0.0
1001
GRADIENTCOLOR1ACI
1070
     5
1001
GRADIENTCOLOR2ACI
1070
     2
1001
ACAD
1010
0.0
1020
0.0
1030
0.0
  0
LINE
  5
127032
  8
SLIM
 10
4996.5656346635223599
 20
-1376.0
 30
0.0
 11
5079.9999999999990905
 21
-1292.5656346635219052
 31
0.0
1001
GRADIENTCOLOR1ACI
1070
     5
1001
GRADIENTCOLOR2ACI
1070
     2
1001
ACAD
1010
0.0
1020
0.0
1030
0.0
  0
LINE
  5
127033
  8
SLIM
 10
4995.5261469056586066
 20
-1395.0
 30
0.0
 11
5014.526146905661335
 21
-1376.0
 31
0.0
1001
GRADIENTCOLOR1ACI
1070
     5
1001
GRADIENTCOLOR2ACI
1070
     2
1001
ACAD
1010
0.0
1020
0.0
1030
0.0
  0
LINE
  5
127034
  8
SLIM
 10
5014.526146905661335
 20
-1376.0
 30
0.0
 11
5079.9999999999990905
 21
-1310.5261469056611077
 31
0.0
1001
GRADIENTCOLOR1ACI
1070
     5
1001
GRADIENTCOLOR2ACI
1070
     2
1001
ACAD
1010
0.0
1020
0.0
1030
0.0
  0
LINE
  5
127035
  8
SLIM
 10
5013.4866591477975817
 20
-1395.0
 30
0.0
 11
5032.4866591478003102
 21
-1376.0
 31
0.0
1001
GRADIENTCOLOR1ACI
1070
     5
1001
GRADIENTCOLOR2ACI
1070
     2
1001
ACAD
1010
0.0
1020
0.0
1030
0.0
  0
LINE
  5
127036
  8
SLIM
 10
5032.4866591478003102
 20
-1376.0
 30
0.0
 11
5079.9999999999990905
 21
-1328.4866591477989459
 31
0.0
1001
GRADIENTCOLOR1ACI
1070
     5
1001
GRADIENTCOLOR2ACI
1070
     2
1001
ACAD
1010
0.0
1020
0.0
1030
0.0
  0
LINE
  5
127037
  8
SLIM
 10
5031.4471713899356473
 20
-1395.0
 30
0.0
 11
5050.4471713899365568
 21
-1376.0
 31
0.0
1001
GRADIENTCOLOR1ACI
1070
     5
1001
GRADIENTCOLOR2ACI
1070
     2
1001
ACAD
1010
0.0
1020
0.0
1030
0.0
  0
LINE
  5
127038
  8
SLIM
 10
5050.4471713899365568
 20
-1376.0
 30
0.0
 11
5079.9999999999990905
 21
-1346.4471713899370116
 31
0.0
1001
GRADIENTCOLOR1ACI
1070
     5
1001
GRADIENTCOLOR2ACI
1070
     2
1001
ACAD
1010
0.0
1020
0.0
1030
0.0
  0
LINE
  5
127039
  8
SLIM
 10
5049.4076836320737129
 20
-1395.0
 30
0.0
 11
5068.4076836320746224
 21
-1376.0
 31
0.0
1001
GRADIENTCOLOR1ACI
1070
     5
1001
GRADIENTCOLOR2ACI
1070
     2
1001
ACAD
1010
0.0
1020
0.0
1030
0.0
  0
LINE
  5
12703A
  8
SLIM
 10
5068.4076836320746224
 20
-1376.0
 30
0.0
 11
5079.9999999999990905
 21
-1364.4076836320759867
 31
0.0
1001
GRADIENTCOLOR1ACI
1070
     5
1001
GRADIENTCOLOR2ACI
1070
     2
1001
ACAD
1010
0.0
1020
0.0
1030
0.0
  0
LINE
  5
12703B
  8
SLIM
 10
5067.3681958742117786
 20
-1395.0
 30
0.0
 11
5070.0
 21
-1392.3681958742129154
 31
0.0
1001
GRADIENTCOLOR1ACI
1070
     5
1001
GRADIENTCOLOR2ACI
1070
     2
1001
ACAD
1010
0.0
1020
0.0
1030
0.0
  0
LINE
  5
12703C
  8
OBJECT
 10
4914.9999999999918145
 20
-1136.0
 30
0.0
 11
4914.9999999999954525
 21
-1204.7846033990349497
 31
0.0
1001
ACDBBLOCKREPETAG
1070
     1
1071
        1
1005
12703C
  0
LINE
  5
12703D
  8
OBJECT
 10
5085.000000000007276
 20
-1136.0
 30
0.0
 11
5085.000000000003638
 21
-1204.7846033990419983
 31
0.0
1001
ACDBBLOCKREPETAG
1070
     1
1071
        2
1005
12703D
  0
LINE
  5
12703E
  8
OBJECT
 10
5085.000000000007276
 20
-1136.0
 30
0.0
 11
4914.9999999999918145
 21
-1136.0
 31
0.0
1001
ACDBBLOCKREPETAG
1070
     1
1071
        3
1005
12703E
  0
LINE
  5
12703F
  8
OBJECT
 10
5079.9999999999990905
 20
-1376.0
 30
0.0
 11
4920.0
 21
-1376.0
 31
0.0
1001
ACDBBLOCKREPETAG
1070
     1
1071
        4
1005
12703F
  0
LINE
  5
127040
  8
OBJECT
 10
4914.9999999999954525
 20
-1204.7846033990349497
 30
0.0
 11
4920.0
 21
-1245.6225774829858892
 31
0.0
1001
ACDBBLOCKREPETAG
1070
     1
1071
        6
1005
127040
  0
LINE
  5
127041
  8
OBJECT
 10
4920.0
 20
-1245.6225774829858892
 30
0.0
 11
4920.0
 21
-1376.0
 31
0.0
1001
ACDBBLOCKREPETAG
1070
     1
1071
        7
1005
127041
  0
LINE
  5
127042
  8
OBJECT
 10
5085.000000000003638
 20
-1204.7846033990419983
 30
0.0
 11
5080.0
 21
-1245.6225774829858892
 31
0.0
1001
ACDBBLOCKREPETAG
1070
     1
1071
        8
1005
127042
  0
LINE
  5
127043
  8
OBJECT
 10
5080.0
 20
-1245.6225774829858892
 30
0.0
 11
5079.9999999999990905
 21
-1376.0
 31
0.0
1001
ACDBBLOCKREPETAG
1070
     1
1071
        9
1005
127043
  0
LINE
  5
127044
  8
OBJECT
 10
4930.0
 20
-1376.0
 30
0.0
 11
4930.0
 21
-1395.0
 31
0.0
1001
ACDBBLOCKREPETAG
1070
     1
1071
       10
1005
127044
  0
LINE
  5
127045
  8
OBJECT
 10
4930.0
 20
-1395.0
 30
0.0
 11
5070.0
 21
-1395.0
 31
0.0
1001
ACDBBLOCKREPETAG
1070
     1
1071
       11
1005
127045
  0
LINE
  5
127046
  8
OBJECT
 10
5070.0
 20
-1395.0
 30
0.0
 11
5070.0
 21
-1376.0
 31
0.0
1001
ACDBBLOCKREPETAG
1070
     1
1071
       12
1005
127046
  0
LINE
  5
127047
  8
SLIM
 10
4414.999999999992724
 20
-1152.2369265471770632
 30
0.0
 11
4431.2369265471679682
 21
-1136.0
 31
0.0
1001
GRADIENTCOLOR1ACI
1070
     5
1001
GRADIENTCOLOR2ACI
1070
     2
1001
ACAD
1010
0.0
1020
0.0
1030
0.0
  0
LINE
  5
127048
  8
SLIM
 10
4414.999999999992724
 20
-1170.1974387893139919
 30
0.0
 11
4449.1974387893078529
 21
-1136.0
 31
0.0
1001
GRADIENTCOLOR1ACI
1070
     5
1001
GRADIENTCOLOR2ACI
1070
     2
1001
ACAD
1010
0.0
1020
0.0
1030
0.0
  0
LINE
  5
127049
  8
SLIM
 10
4414.9999999999954525
 20
-1188.1579510314509207
 30
0.0
 11
4467.1579510314440995
 21
-1136.0
 31
0.0
1001
GRADIENTCOLOR1ACI
1070
     5
1001
GRADIENTCOLOR2ACI
1070
     2
1001
ACAD
1010
0.0
1020
0.0
1030
0.0
  0
LINE
  5
12704A
  8
SLIM
 10
4415.1454972543142503
 20
-1205.9729660192690517
 30
0.0
 11
4485.1184632735839841
 21
-1136.0
 31
0.0
1001
GRADIENTCOLOR1ACI
1070
     5
1001
GRADIENTCOLOR2ACI
1070
     2
1001
ACAD
1010
0.0
1020
0.0
1030
0.0
  0
LINE
  5
12704B
  8
SLIM
 10
4417.1046274952450403
 20
-1221.9743480204799653
 30
0.0
 11
4503.0789755157220497
 21
-1136.0
 31
0.0
1001
GRADIENTCOLOR1ACI
1070
     5
1001
GRADIENTCOLOR2ACI
1070
     2
1001
ACAD
1010
0.0
1020
0.0
1030
0.0
  0
LINE
  5
12704C
  8
SLIM
 10
4419.0637577361712829
 20
-1237.9757300216899694
 30
0.0
 11
4521.0394877578619344
 21
-1136.0
 31
0.0
1001
GRADIENTCOLOR1ACI
1070
     5
1001
GRADIENTCOLOR2ACI
1070
     2
1001
ACAD
1010
0.0
1020
0.0
1030
0.0
  0
LINE
  5
12704D
  8
SLIM
 10
4420.0
 20
-1255.0
 30
0.0
 11
4539.0
 21
-1136.0
 31
0.0
1001
GRADIENTCOLOR1ACI
1070
     5
1001
GRADIENTCOLOR2ACI
1070
     2
1001
ACAD
1010
0.0
1020
0.0
1030
0.0
  0
LINE
  5
12704E
  8
SLIM
 10
4420.0
 20
-1272.9605122421380656
 30
0.0
 11
4556.9605122421371561
 21
-1136.0
 31
0.0
1001
GRADIENTCOLOR1ACI
1070
     5
1001
GRADIENTCOLOR2ACI
1070
     2
1001
ACAD
1010
0.0
1020
0.0
1030
0.0
  0
LINE
  5
12704F
  8
SLIM
 10
4420.0
 20
-1290.9210244842770408
 30
0.0
 11
4574.9210244842770408
 21
-1136.0
 31
0.0
1001
GRADIENTCOLOR1ACI
1070
     5
1001
GRADIENTCOLOR2ACI
1070
     2
1001
ACAD
1010
0.0
1020
0.0
1030
0.0
  0
LINE
  5
127050
  8
SLIM
 10
4420.0
 20
-1308.8815367264151064
 30
0.0
 11
4585.000000000007276
 21
-1143.8815367264080578
 31
0.0
1001
GRADIENTCOLOR1ACI
1070
     5
1001
GRADIENTCOLOR2ACI
1070
     2
1001
ACAD
1010
0.0
1020
0.0
1030
0.0
  0
LINE
  5
127051
  8
SLIM
 10
4420.0
 20
-1326.8420489685529446
 30
0.0
 11
4585.000000000007276
 21
-1161.8420489685470329
 31
0.0
1001
GRADIENTCOLOR1ACI
1070
     5
1001
GRADIENTCOLOR2ACI
1070
     2
1001
ACAD
1010
0.0
1020
0.0
1030
0.0
  0
LINE
  5
127052
  8
SLIM
 10
4420.0
 20
-1344.8025612106910103
 30
0.0
 11
4585.000000000003638
 21
-1179.8025612106869175
 31
0.0
1001
GRADIENTCOLOR1ACI
1070
     5
1001
GRADIENTCOLOR2ACI
1070
     2
1001
ACAD
1010
0.0
1020
0.0
1030
0.0
  0
LINE
  5
127053
  8
SLIM
 10
4420.0
 20
-1362.7630734528290759
 30
0.0
 11
4585.0000000000027285
 21
-1197.7630734528258927
 31
0.0
1001
GRADIENTCOLOR1ACI
1070
     5
1001
GRADIENTCOLOR2ACI
1070
     2
1001
ACAD
1010
0.0
1020
0.0
1030
0.0
  0
LINE
  5
127054
  8
SLIM
 10
4424.7235856949691879
 20
-1376.0
 30
0.0
 11
4583.4738280308083631
 21
-1217.2497576641590058
 31
0.0
1001
GRADIENTCOLOR1ACI
1070
     5
1001
GRADIENTCOLOR2ACI
1070
     2
1001
ACAD
1010
0.0
1020
0.0
1030
0.0
  0
LINE
  5
127055
  8
SLIM
 10
4430.0
 20
-1388.6840979371058893
 30
0.0
 11
4442.684097937106344
 21
-1376.0
 31
0.0
1001
GRADIENTCOLOR1ACI
1070
     5
1001
GRADIENTCOLOR2ACI
1070
     2
1001
ACAD
1010
0.0
1020
0.0
1030
0.0
  0
LINE
  5
127056
  8
SLIM
 10
4442.684097937106344
 20
-1376.0
 30
0.0
 11
4580.9680345671367832
 21
-1237.7160633699691061
 31
0.0
1001
GRADIENTCOLOR1ACI
1070
     5
1001
GRADIENTCOLOR2ACI
1070
     2
1001
ACAD
1010
0.0
1020
0.0
1030
0.0
  0
LINE
  5
127057
  8
SLIM
 10
4441.6446101792453192
 20
-1395.0
 30
0.0
 11
4460.6446101792444097
 21
-1376.0
 31
0.0
1001
GRADIENTCOLOR1ACI
1070
     5
1001
GRADIENTCOLOR2ACI
1070
     2
1001
ACAD
1010
0.0
1020
0.0
1030
0.0
  0
LINE
  5
127058
  8
SLIM
 10
4460.6446101792444097
 20
-1376.0
 30
0.0
 11
4580.0
 21
-1256.6446101792450918
 31
0.0
1001
GRADIENTCOLOR1ACI
1070
     5
1001
GRADIENTCOLOR2ACI
1070
     2
1001
ACAD
1010
0.0
1020
0.0
1030
0.0
  0
LINE
  5
127059
  8
SLIM
 10
4459.6051224213833848
 20
-1395.0
 30
0.0
 11
4478.6051224213842943
 21
-1376.0
 31
0.0
1001
GRADIENTCOLOR1ACI
1070
     5
1001
GRADIENTCOLOR2ACI
1070
     2
1001
ACAD
1010
0.0
1020
0.0
1030
0.0
  0
LINE
  5
12705A
  8
SLIM
 10
4478.6051224213842943
 20
-1376.0
 30
0.0
 11
4580.0
 21
-1274.60512242138293
 31
0.0
1001
GRADIENTCOLOR1ACI
1070
     5
1001
GRADIENTCOLOR2ACI
1070
     2
1001
ACAD
1010
0.0
1020
0.0
1030
0.0
  0
LINE
  5
12705B
  8
SLIM
 10
4477.5656346635214504
 20
-1395.0
 30
0.0
 11
4496.5656346635214504
 21
-1376.0
 31
0.0
1001
GRADIENTCOLOR1ACI
1070
     5
1001
GRADIENTCOLOR2ACI
1070
     2
1001
ACAD
1010
0.0
1020
0.0
1030
0.0
  0
LINE
  5
12705C
  8
SLIM
 10
4496.5656346635214504
 20
-1376.0
 30
0.0
 11
4579.9999999999990905
 21
-1292.5656346635219052
 31
0.0
1001
GRADIENTCOLOR1ACI
1070
     5
1001
GRADIENTCOLOR2ACI
1070
     2
1001
ACAD
1010
0.0
1020
0.0
1030
0.0
  0
LINE
  5
12705D
  8
SLIM
 10
4495.5261469056586066
 20
-1395.0
 30
0.0
 11
4514.526146905661335
 21
-1376.0
 31
0.0
1001
GRADIENTCOLOR1ACI
1070
     5
1001
GRADIENTCOLOR2ACI
1070
     2
1001
ACAD
1010
0.0
1020
0.0
1030
0.0
  0
LINE
  5
12705E
  8
SLIM
 10
4514.526146905661335
 20
-1376.0
 30
0.0
 11
4579.9999999999990905
 21
-1310.5261469056611077
 31
0.0
1001
GRADIENTCOLOR1ACI
1070
     5
1001
GRADIENTCOLOR2ACI
1070
     2
1001
ACAD
1010
0.0
1020
0.0
1030
0.0
  0
LINE
  5
12705F
  8
SLIM
 10
4513.4866591477975817
 20
-1395.0
 30
0.0
 11
4532.4866591478003102
 21
-1376.0
 31
0.0
1001
GRADIENTCOLOR1ACI
1070
     5
1001
GRADIENTCOLOR2ACI
1070
     2
1001
ACAD
1010
0.0
1020
0.0
1030
0.0
  0
LINE
  5
127060
  8
SLIM
 10
4532.4866591478003102
 20
-1376.0
 30
0.0
 11
4579.9999999999990905
 21
-1328.4866591477989459
 31
0.0
1001
GRADIENTCOLOR1ACI
1070
     5
1001
GRADIENTCOLOR2ACI
1070
     2
1001
ACAD
1010
0.0
1020
0.0
1030
0.0
  0
LINE
  5
127061
  8
SLIM
 10
4531.4471713899356473
 20
-1395.0
 30
0.0
 11
4550.4471713899356473
 21
-1376.0
 31
0.0
1001
GRADIENTCOLOR1ACI
1070
     5
1001
GRADIENTCOLOR2ACI
1070
     2
1001
ACAD
1010
0.0
1020
0.0
1030
0.0
  0
LINE
  5
127062
  8
SLIM
 10
4550.4471713899356473
 20
-1376.0
 30
0.0
 11
4579.9999999999990905
 21
-1346.4471713899370116
 31
0.0
1001
GRADIENTCOLOR1ACI
1070
     5
1001
GRADIENTCOLOR2ACI
1070
     2
1001
ACAD
1010
0.0
1020
0.0
1030
0.0
  0
LINE
  5
127063
  8
SLIM
 10
4549.4076836320737129
 20
-1395.0
 30
0.0
 11
4568.4076836320728034
 21
-1376.0
 31
0.0
1001
GRADIENTCOLOR1ACI
1070
     5
1001
GRADIENTCOLOR2ACI
1070
     2
1001
ACAD
1010
0.0
1020
0.0
1030
0.0
  0
LINE
  5
127064
  8
SLIM
 10
4568.4076836320728034
 20
-1376.0
 30
0.0
 11
4579.9999999999990905
 21
-1364.4076836320759867
 31
0.0
1001
GRADIENTCOLOR1ACI
1070
     5
1001
GRADIENTCOLOR2ACI
1070
     2
1001
ACAD
1010
0.0
1020
0.0
1030
0.0
  0
LINE
  5
127065
  8
SLIM
 10
4567.3681958742117786
 20
-1395.0
 30
0.0
 11
4570.0
 21
-1392.3681958742129154
 31
0.0
1001
GRADIENTCOLOR1ACI
1070
     5
1001
GRADIENTCOLOR2ACI
1070
     2
1001
ACAD
1010
0.0
1020
0.0
1030
0.0
  0
LINE
  5
127066
  8
OBJECT
 10
4414.9999999999918145
 20
-1136.0
 30
0.0
 11
4414.9999999999954525
 21
-1204.7846033990349497
 31
0.0
1001
ACDBBLOCKREPETAG
1070
     1
1071
        1
1005
127066
  0
LINE
  5
127067
  8
OBJECT
 10
4585.000000000007276
 20
-1136.0
 30
0.0
 11
4585.0000000000027285
 21
-1204.7846033990419983
 31
0.0
1001
ACDBBLOCKREPETAG
1070
     1
1071
        2
1005
127067
  0
LINE
  5
127068
  8
OBJECT
 10
4585.000000000007276
 20
-1136.0
 30
0.0
 11
4414.9999999999918145
 21
-1136.0
 31
0.0
1001
ACDBBLOCKREPETAG
1070
     1
1071
        3
1005
127068
  0
LINE
  5
127069
  8
OBJECT
 10
4579.9999999999990905
 20
-1376.0
 30
0.0
 11
4420.0
 21
-1376.0
 31
0.0
1001
ACDBBLOCKREPETAG
1070
     1
1071
        4
1005
127069
  0
LINE
  5
12706A
  8
OBJECT
 10
4414.9999999999954525
 20
-1204.7846033990349497
 30
0.0
 11
4420.0
 21
-1245.6225774829858892
 31
0.0
1001
ACDBBLOCKREPETAG
1070
     1
1071
        6
1005
12706A
  0
LINE
  5
12706B
  8
OBJECT
 10
4420.0
 20
-1245.6225774829858892
 30
0.0
 11
4420.0
 21
-1376.0
 31
0.0
1001
ACDBBLOCKREPETAG
1070
     1
1071
        7
1005
12706B
  0
LINE
  5
12706C
  8
OBJECT
 10
4585.0000000000027285
 20
-1204.7846033990419983
 30
0.0
 11
4580.0
 21
-1245.6225774829858892
 31
0.0
1001
ACDBBLOCKREPETAG
1070
     1
1071
        8
1005
12706C
  0
LINE
  5
12706D
  8
OBJECT
 10
4580.0
 20
-1245.6225774829858892
 30
0.0
 11
4579.9999999999990905
 21
-1376.0
 31
0.0
1001
ACDBBLOCKREPETAG
1070
     1
1071
        9
1005
12706D
  0
LINE
  5
12706E
  8
OBJECT
 10
4430.0
 20
-1376.0
 30
0.0
 11
4430.0
 21
-1395.0
 31
0.0
1001
ACDBBLOCKREPETAG
1070
     1
1071
       10
1005
12706E
  0
LINE
  5
12706F
  8
OBJECT
 10
4430.0
 20
-1395.0
 30
0.0
 11
4570.0
 21
-1395.0
 31
0.0
1001
ACDBBLOCKREPETAG
1070
     1
1071
       11
1005
12706F
  0
LINE
  5
127070
  8
OBJECT
 10
4570.0
 20
-1395.0
 30
0.0
 11
4570.0
 21
-1376.0
 31
0.0
1001
ACDBBLOCKREPETAG
1070
     1
1071
       12
1005
127070
  0
LINE
  5
127071
  8
OBJECT
 10
4930.0
 20
-1484.9999999999979536
 30
0.0
 11
5070.0
 21
-1484.9999999999979536
 31
0.0
1001
ACDBBLOCKREPETAG
1070
     1
1071
        0
1005
127071
  0
LINE
  5
127072
  8
OBJECT
 10
4930.0
 20
-1484.9999999999979536
 30
0.0
 11
4930.0
 21
-1244.9999999999979536
 31
0.0
1001
ACDBBLOCKREPETAG
1070
     1
1071
        1
1005
127072
  0
LINE
  5
127073
  8
OBJECT
 10
5070.0
 20
-1484.9999999999979536
 30
0.0
 11
5070.0
 21
-1244.9999999999979536
 31
0.0
1001
ACDBBLOCKREPETAG
1070
     1
1071
        2
1005
127073
  0
LINE
  5
127074
  8
OBJECT
 10
4930.0
 20
-1244.9999999999979536
 30
0.0
 11
5070.0
 21
-1244.9999999999979536
 31
0.0
1001
ACDBBLOCKREPETAG
1070
     1
1071
        3
1005
127074
  0
LINE
  5
127075
  8
HIDDEN
 10
4937.5
 20
-1244.9999999999979536
 30
0.0
 11
4937.5
 21
-1484.9999999999979536
 31
0.0
1001
ACDBBLOCKREPETAG
1070
     1
1071
        4
1005
127075
  0
LINE
  5
127076
  8
HIDDEN
 10
5062.5
 20
-1244.9999999999979536
 30
0.0
 11
5062.5
 21
-1484.9999999999979536
 31
0.0
1001
ACDBBLOCKREPETAG
1070
     1
1071
        5
1005
127076
  0
LINE
  5
127077
  8
CENTER
 10
5000.0
 20
-1175.0
 30
0.0
 11
5000.0
 21
-1499.9999999999979536
 31
0.0
1001
ACDBBLOCKREPETAG
1070
     1
1071
        6
1005
127077
  0
LINE
  5
127078
  8
OBJECT
 10
4925.0
 20
-1175.0
 30
0.0
 11
4925.0
 21
-1204.9999999999979536
 31
0.0
1001
ACDBBLOCKREPETAG
1070
     1
1071
        7
1005
127078
  0
LINE
  5
127079
  8
OBJECT
 10
5075.000000000001819
 20
-1175.0
 30
0.0
 11
5075.0
 21
-1204.9999999999979536
 31
0.0
1001
ACDBBLOCKREPETAG
1070
     1
1071
        8
1005
127079
  0
LINE
  5
12707A
  8
OBJECT
 10
4925.0
 20
-1204.9999999999979536
 30
0.0
 11
5075.0
 21
-1204.9999999999979536
 31
0.0
1001
ACDBBLOCKREPETAG
1070
     1
1071
        9
1005
12707A
  0
LINE
  5
12707B
  8
OBJECT
 10
4925.0
 20
-1204.9999999999979536
 30
0.0
 11
4930.0
 21
-1244.9999999999979536
 31
0.0
1001
ACDBBLOCKREPETAG
1070
     1
1071
       10
1005
12707B
  0
LINE
  5
12707C
  8
OBJECT
 10
5070.0
 20
-1244.9999999999979536
 30
0.0
 11
5075.0
 21
-1204.9999999999979536
 31
0.0
1001
ACDBBLOCKREPETAG
1070
     1
1071
       11
1005
12707C
  0
LINE
  5
12707D
  8
OBJECT
 10
4430.0
 20
-1484.9999999999979536
 30
0.0
 11
4570.0
 21
-1484.9999999999979536
 31
0.0
1001
ACDBBLOCKREPETAG
1070
     1
1071
        0
1005
12707D
  0
LINE
  5
12707E
  8
OBJECT
 10
4430.0
 20
-1484.9999999999979536
 30
0.0
 11
4430.0
 21
-1244.9999999999979536
 31
0.0
1001
ACDBBLOCKREPETAG
1070
     1
1071
        1
1005
12707E
  0
LINE
  5
12707F
  8
OBJECT
 10
4570.0
 20
-1484.9999999999979536
 30
0.0
 11
4570.0
 21
-1244.9999999999979536
 31
0.0
1001
ACDBBLOCKREPETAG
1070
     1
1071
        2
1005
12707F
  0
LINE
  5
127080
  8
OBJECT
 10
4430.0
 20
-1244.9999999999979536
 30
0.0
 11
4570.0
 21
-1244.9999999999979536
 31
0.0
1001
ACDBBLOCKREPETAG
1070
     1
1071
        3
1005
127080
  0
LINE
  5
127081
  8
HIDDEN
 10
4437.5
 20
-1244.9999999999979536
 30
0.0
 11
4437.5
 21
-1484.9999999999979536
 31
0.0
1001
ACDBBLOCKREPETAG
1070
     1
1071
        4
1005
127081
  0
LINE
  5
127082
  8
HIDDEN
 10
4562.5
 20
-1244.9999999999979536
 30
0.0
 11
4562.5
 21
-1484.9999999999979536
 31
0.0
1001
ACDBBLOCKREPETAG
1070
     1
1071
        5
1005
127082
  0
LINE
  5
127083
  8
CENTER
 10
4500.0
 20
-1175.0
 30
0.0
 11
4500.0
 21
-1499.9999999999979536
 31
0.0
1001
ACDBBLOCKREPETAG
1070
     1
1071
        6
1005
127083
  0
LINE
  5
127084
  8
OBJECT
 10
4425.0
 20
-1175.0
 30
0.0
 11
4425.0
 21
-1204.9999999999979536
 31
0.0
1001
ACDBBLOCKREPETAG
1070
     1
1071
        7
1005
127084
  0
LINE
  5
127085
  8
OBJECT
 10
4575.000000000001819
 20
-1175.0
 30
0.0
 11
4575.0
 21
-1204.9999999999979536
 31
0.0
1001
ACDBBLOCKREPETAG
1070
     1
1071
        8
1005
127085
  0
LINE
  5
127086
  8
OBJECT
 10
4425.0
 20
-1204.9999999999979536
 30
0.0
 11
4575.0
 21
-1204.9999999999979536
 31
0.0
1001
ACDBBLOCKREPETAG
1070
     1
1071
        9
1005
127086
  0
LINE
  5
127087
  8
OBJECT
 10
4425.0
 20
-1204.9999999999979536
 30
0.0
 11
4430.0
 21
-1244.9999999999979536
 31
0.0
1001
ACDBBLOCKREPETAG
1070
     1
1071
       10
1005
127087
  0
LINE
  5
127088
  8
OBJECT
 10
4570.0
 20
-1244.9999999999979536
 30
0.0
 11
4575.0
 21
-1204.9999999999979536
 31
0.0
1001
ACDBBLOCKREPETAG
1070
     1
1071
       11
1005
127088
  0
LINE
  5
127089
  8
OBJECT
 10
2930.0
 20
-1484.9999999999979536
 30
0.0
 11
3070.0
 21
-1484.9999999999979536
 31
0.0
1001
ACDBBLOCKREPETAG
1070
     1
1071
        0
1005
127089
  0
LINE
  5
12708A
  8
OBJECT
 10
2930.0
 20
-1484.9999999999979536
 30
0.0
 11
2930.0
 21
-1244.9999999999979536
 31
0.0
1001
ACDBBLOCKREPETAG
1070
     1
1071
        1
1005
12708A
  0
LINE
  5
12708B
  8
OBJECT
 10
3070.0
 20
-1484.9999999999979536
 30
0.0
 11
3070.0
 21
-1244.9999999999979536
 31
0.0
1001
ACDBBLOCKREPETAG
1070
     1
1071
        2
1005
12708B
  0
LINE
  5
12708C
  8
OBJECT
 10
2930.0
 20
-1244.9999999999979536
 30
0.0
 11
3070.0
 21
-1244.9999999999979536
 31
0.0
1001
ACDBBLOCKREPETAG
1070
     1
1071
        3
1005
12708C
  0
LINE
  5
12708D
  8
HIDDEN
 10
2937.5
 20
-1244.9999999999979536
 30
0.0
 11
2937.5
 21
-1484.9999999999979536
 31
0.0
1001
ACDBBLOCKREPETAG
1070
     1
1071
        4
1005
12708D
  0
LINE
  5
12708E
  8
HIDDEN
 10
3062.5
 20
-1244.9999999999979536
 30
0.0
 11
3062.5
 21
-1484.9999999999979536
 31
0.0
1001
ACDBBLOCKREPETAG
1070
     1
1071
        5
1005
12708E
  0
LINE
  5
12708F
  8
CENTER
 10
3000.0
 20
-1175.0
 30
0.0
 11
3000.0
 21
-1499.9999999999979536
 31
0.0
1001
ACDBBLOCKREPETAG
1070
     1
1071
        6
1005
12708F
  0
LINE
  5
127090
  8
OBJECT
 10
2925.0
 20
-1175.0
 30
0.0
 11
2925.0
 21
-1204.9999999999979536
 31
0.0
1001
ACDBBLOCKREPETAG
1070
     1
1071
        7
1005
127090
  0
LINE
  5
127091
  8
OBJECT
 10
3075.0000000000050022
 20
-1175.0
 30
0.0
 11
3075.0
 21
-1204.9999999999979536
 31
0.0
1001
ACDBBLOCKREPETAG
1070
     1
1071
        8
1005
127091
  0
LINE
  5
127092
  8
OBJECT
 10
2925.0
 20
-1204.9999999999979536
 30
0.0
 11
3075.0
 21
-1204.9999999999979536
 31
0.0
1001
ACDBBLOCKREPETAG
1070
     1
1071
        9
1005
127092
  0
LINE
  5
127093
  8
OBJECT
 10
2925.0
 20
-1204.9999999999979536
 30
0.0
 11
2930.0
 21
-1244.9999999999979536
 31
0.0
1001
ACDBBLOCKREPETAG
1070
     1
1071
       10
1005
127093
  0
LINE
  5
127094
  8
OBJECT
 10
3070.0
 20
-1244.9999999999979536
 30
0.0
 11
3075.0
 21
-1204.9999999999979536
 31
0.0
1001
ACDBBLOCKREPETAG
1070
     1
1071
       11
1005
127094
  0
LINE
  5
127095
  8
OBJECT
 10
2430.0
 20
-1484.9999999999979536
 30
0.0
 11
2570.0
 21
-1484.9999999999979536
 31
0.0
1001
ACDBBLOCKREPETAG
1070
     1
1071
        0
1005
127095
  0
LINE
  5
127096
  8
OBJECT
 10
2430.0
 20
-1484.9999999999979536
 30
0.0
 11
2430.0
 21
-1244.9999999999979536
 31
0.0
1001
ACDBBLOCKREPETAG
1070
     1
1071
        1
1005
127096
  0
LINE
  5
127097
  8
OBJECT
 10
2570.0
 20
-1484.9999999999979536
 30
0.0
 11
2570.0
 21
-1244.9999999999979536
 31
0.0
1001
ACDBBLOCKREPETAG
1070
     1
1071
        2
1005
127097
  0
LINE
  5
127098
  8
OBJECT
 10
2430.0
 20
-1244.9999999999979536
 30
0.0
 11
2570.0
 21
-1244.9999999999979536
 31
0.0
1001
ACDBBLOCKREPETAG
1070
     1
1071
        3
1005
127098
  0
LINE
  5
127099
  8
HIDDEN
 10
2437.5
 20
-1244.9999999999979536
 30
0.0
 11
2437.5
 21
-1484.9999999999979536
 31
0.0
1001
ACDBBLOCKREPETAG
1070
     1
1071
        4
1005
127099
  0
LINE
  5
12709A
  8
HIDDEN
 10
2562.5
 20
-1244.9999999999979536
 30
0.0
 11
2562.5
 21
-1484.9999999999979536
 31
0.0
1001
ACDBBLOCKREPETAG
1070
     1
1071
        5
1005
12709A
  0
LINE
  5
12709B
  8
CENTER
 10
2500.0
 20
-1175.0
 30
0.0
 11
2500.0
 21
-1499.9999999999979536
 31
0.0
1001
ACDBBLOCKREPETAG
1070
     1
1071
        6
1005
12709B
  0
LINE
  5
12709C
  8
OBJECT
 10
2425.0
 20
-1175.0
 30
0.0
 11
2425.0
 21
-1204.9999999999979536
 31
0.0
1001
ACDBBLOCKREPETAG
1070
     1
1071
        7
1005
12709C
  0
LINE
  5
12709D
  8
OBJECT
 10
2575.0000000000050022
 20
-1175.0
 30
0.0
 11
2575.0
 21
-1204.9999999999979536
 31
0.0
1001
ACDBBLOCKREPETAG
1070
     1
1071
        8
1005
12709D
  0
LINE
  5
12709E
  8
OBJECT
 10
2425.0
 20
-1204.9999999999979536
 30
0.0
 11
2575.0
 21
-1204.9999999999979536
 31
0.0
1001
ACDBBLOCKREPETAG
1070
     1
1071
        9
1005
12709E
  0
LINE
  5
12709F
  8
OBJECT
 10
2425.0
 20
-1204.9999999999979536
 30
0.0
 11
2430.0
 21
-1244.9999999999979536
 31
0.0
1001
ACDBBLOCKREPETAG
1070
     1
1071
       10
1005
12709F
  0
LINE
  5
1270A0
  8
OBJECT
 10
2570.0
 20
-1244.9999999999979536
 30
0.0
 11
2575.0
 21
-1204.9999999999979536
 31
0.0
1001
ACDBBLOCKREPETAG
1070
     1
1071
       11
1005
1270A0
  0
CIRCLE
  5
1270A1
  8
OBJECT
 10
180.0000000000418083
 20
-232.0000000001718945
 30
0.0
 40
70.0
1001
ACDBBLOCKREPETAG
1070
     1
1071
       50
1005
1270A1
  0
CIRCLE
  5
1270A2
  8
OBJECT
 10
180.0000000000418083
 20
-232.0000000001718945
 30
0.0
 40
77.0
1001
ACDBBLOCKREPETAG
1070
     1
1071
       51
1005
1270A2
  0
ARC
  5
1270A3
  8
OBJECT
 10
180.0000000000418083
 20
-232.0000000001718945
 30
0.0
 40
80.0
 50
140.8050325737796982
 51
39.1949674262202521
1001
ACDBBLOCKREPETAG
1070
     1
1071
       52
1005
1270A3
  0
LINE
  5
1270A4
  8
OBJECT
 10
118.0000000000417941
 20
-186.3381997728473038
 30
0.0
 11
118.0000000000417941
 21
-152.0000000001718092
 31
0.0
1001
ACDBBLOCKREPETAG
1070
     1
1071
       53
1005
1270A4
  0
LINE
  5
1270A5
  8
OBJECT
 10
242.0000000000418083
 20
-186.3381997728473038
 30
0.0
 11
242.0000000000418083
 21
-152.0000000001718092
 31
0.0
1001
ACDBBLOCKREPETAG
1070
     1
1071
       54
1005
1270A5
  0
POINT
  5
1270A6
  8
DOTS
 10
180.0000000000418083
 20
-232.0000000001718945
 30
0.0
1001
ACDBBLOCKREPETAG
1070
     1
1071
       63
1005
1270A6
  0
CIRCLE
  5
1270A7
  8
OBJECT
 10
180.0000000000418083
 20
-232.0000000001718945
 30
0.0
 40
53.5
1001
ACDBBLOCKREPETAG
1070
     1
1071
      157
1005
1270A7
  0
LINE
  5
1270A8
  8
OBJECT
 10
156.175796075292908
 20
-277.6779614449233122
 30
0.0
 11
154.4092645125591901
 21
-278.9825952585188134
 31
0.0
1001
ACDBBLOCKREPETAG
1070
     1
1071
      162
1005
1270A8
  0
ARC
  5
1270A9
  8
OBJECT
 10
159.1461853586772008
 20
-281.6999991753718859
 30
0.0
 40
5.0
 50
90.0
 51
126.4469224761369048
1001
ACDBBLOCKREPETAG
1070
     1
1071
      163
1005
1270A9
  0
LINE
  5
1270AA
  8
OBJECT
 10
203.8242039247377022
 20
-277.677961444795983
 30
0.0
 11
205.5907354876833892
 21
-278.9825952584333209
 31
0.0
1001
ACDBBLOCKREPETAG
1070
     1
1071
      164
1005
1270AA
  0
ARC
  5
1270AB
  8
OBJECT
 10
200.8538146415255881
 20
-281.6999991753718859
 30
0.0
 40
5.0
 50
53.5530775263175229
 51
90.0
1001
ACDBBLOCKREPETAG
1070
     1
1071
      165
1005
1270AB
  0
LINE
  5
1270AC
  8
OBJECT
 10
200.8538146415255881
 20
-276.6999991753718859
 30
0.0
 11
159.1461853586772008
 21
-276.6999991753718859
 31
0.0
1001
ACDBBLOCKREPETAG
1070
     1
1071
      166
1005
1270AC
  0
INSERT
  5
1270AD
  8
SLIM
  2
*U31
 10
0.0
 20
0.0
 30
0.0
  0
LINE
  5
1270AE
  8
OBJECT
 10
118.0000000000417941
 20
-99.0000000001718803
 30
0.0
 11
118.0000000000417941
 21
-92.0000000001718945
 31
0.0
1001
ACDBBLOCKREPETAG
1070
     1
1071
       39
1005
1270AE
  0
LINE
  5
1270AF
  8
OBJECT
 10
118.0000000000417941
 20
-92.0000000001718945
 30
0.0
 11
242.0000000000418083
 21
-92.0000000001718945
 31
0.0
1001
ACDBBLOCKREPETAG
1070
     1
1071
       40
1005
1270AF
  0
LINE
  5
1270B0
  8
OBJECT
 10
242.0000000000418083
 20
-92.0000000001718945
 30
0.0
 11
242.0000000000418083
 21
-99.0000000001718803
 31
0.0
1001
ACDBBLOCKREPETAG
1070
     1
1071
       41
1005
1270B0
  0
LINE
  5
1270B1
  8
OBJECT
 10
242.0000000000418083
 20
-99.0000000001718803
 30
0.0
 11
118.0000000000417941
 21
-99.0000000001718803
 31
0.0
1001
ACDBBLOCKREPETAG
1070
     1
1071
       42
1005
1270B1
  0
LINE
  5
1270B2
  8
OBJECT
 10
121.0000000000417941
 20
-99.0000000001718803
 30
0.0
 11
121.0000000000417941
 21
-135.0000000001718092
 31
0.0
1001
ACDBBLOCKREPETAG
1070
     1
1071
       43
1005
1270B2
  0
LINE
  5
1270B3
  8
OBJECT
 10
121.0000000000417941
 20
-135.0000000001718092
 30
0.0
 11
239.0000000000418083
 21
-135.0000000001718092
 31
0.0
1001
ACDBBLOCKREPETAG
1070
     1
1071
       44
1005
1270B3
  0
LINE
  5
1270B4
  8
OBJECT
 10
239.0000000000418083
 20
-135.0000000001718092
 30
0.0
 11
239.0000000000418083
 21
-99.0000000001718803
 31
0.0
1001
ACDBBLOCKREPETAG
1070
     1
1071
       45
1005
1270B4
  0
LINE
  5
1270B5
  8
OBJECT
 10
125.5000000000417941
 20
-139.0000000001718092
 30
0.0
 11
125.5000000000417941
 21
-146.0000000001718092
 31
0.0
1001
ACDBBLOCKREPETAG
1070
     1
1071
       46
1005
1270B5
  0
LINE
  5
1270B6
  8
OBJECT
 10
234.5000000000418083
 20
-146.0000000001718092
 30
0.0
 11
234.5000000000418083
 21
-139.0000000001718092
 31
0.0
1001
ACDBBLOCKREPETAG
1070
     1
1071
       47
1005
1270B6
  0
LINE
  5
1270B7
  8
OBJECT
 10
234.5000000000418083
 20
-139.0000000001718092
 30
0.0
 11
125.5000000000417941
 21
-139.0000000001718092
 31
0.0
1001
ACDBBLOCKREPETAG
1070
     1
1071
       48
1005
1270B7
  0
LINE
  5
1270B8
  8
OBJECT
 10
121.0000000000417941
 20
-135.0000000001718092
 30
0.0
 11
125.5000000000417941
 21
-139.0000000001718092
 31
0.0
1001
ACDBBLOCKREPETAG
1070
     1
1071
       49
1005
1270B8
  0
LINE
  5
1270B9
  8
OBJECT
 10
239.0000000000418083
 20
-135.0000000001718092
 30
0.0
 11
234.5000000000418083
 21
-139.0000000001718092
 31
0.0
1001
ACDBBLOCKREPETAG
1070
     1
1071
       50
1005
1270B9
  0
LINE
  5
1270BA
  8
OBJECT
 10
118.0000000000417941
 20
-149.0000000001710134
 30
0.0
 11
118.0000000000417941
 21
-152.0000000001718092
 31
0.0
1001
ACDBBLOCKREPETAG
1070
     1
1071
       51
1005
1270BA
  0
ARC
  5
1270BB
  8
OBJECT
 10
121.0000000000417941
 20
-149.0000000001710134
 30
0.0
 40
3.0
 50
90.0
 51
180.0
1001
ACDBBLOCKREPETAG
1070
     1
1071
       52
1005
1270BB
  0
LINE
  5
1270BC
  8
OBJECT
 10
242.0000000000418083
 20
-152.0000000001718092
 30
0.0
 11
242.0000000000418083
 21
-149.000000000172804
 31
0.0
1001
ACDBBLOCKREPETAG
1070
     1
1071
       53
1005
1270BC
  0
ARC
  5
1270BD
  8
OBJECT
 10
239.0000000000418083
 20
-149.000000000172804
 30
0.0
 40
3.0
 50
0.0
 51
90.0
1001
ACDBBLOCKREPETAG
1070
     1
1071
       54
1005
1270BD
  0
LINE
  5
1270BE
  8
OBJECT
 10
239.0000000000418083
 20
-146.000000000172804
 30
0.0
 11
121.0000000000417941
 21
-146.0000000001710134
 31
0.0
1001
ACDBBLOCKREPETAG
1070
     1
1071
       55
1005
1270BE
  0
LINE
  5
1270BF
  8
HIDDEN
 10
135.5000000000418083
 20
-144.0000000001718945
 30
0.0
 11
224.5000000000418083
 21
-144.0000000001718945
 31
0.0
1001
ACDBBLOCKREPETAG
1070
     1
1071
      426
1005
1270BF
  0
LINE
  5
1270C0
  8
OBJECT
 10
4633.0
 20
-137.9999999999990905
 30
0.0
 11
4640.0
 21
-137.9999999999990905
 31
0.0
1001
ACDBBLOCKREPETAG
1070
     1
1071
       47
1005
1270C0
  0
LINE
  5
1270C1
  8
OBJECT
 10
4640.0
 20
-137.9999999999990905
 30
0.0
 11
4640.0
 21
-261.9999999999990905
 31
0.0
1001
ACDBBLOCKREPETAG
1070
     1
1071
       48
1005
1270C1
  0
LINE
  5
1270C2
  8
OBJECT
 10
4640.0
 20
-261.9999999999990905
 30
0.0
 11
4633.0
 21
-261.9999999999990905
 31
0.0
1001
ACDBBLOCKREPETAG
1070
     1
1071
       49
1005
1270C2
  0
LINE
  5
1270C3
  8
OBJECT
 10
4633.0
 20
-261.9999999999990905
 30
0.0
 11
4633.0
 21
-137.9999999999990905
 31
0.0
1001
ACDBBLOCKREPETAG
1070
     1
1071
       50
1005
1270C3
  0
LINE
  5
1270C4
  8
CENTER
 10
4655.0
 20
-199.9999999999990905
 30
0.0
 11
4580.0
 21
-199.9999999999990905
 31
0.0
1001
ACDBBLOCKREPETAG
1070
     1
1071
       51
1005
1270C4
  0
LINE
  5
1270C5
  8
OBJECT
 10
4633.0
 20
-140.9999999999990905
 30
0.0
 11
4597.0
 21
-140.9999999999990905
 31
0.0
1001
ACDBBLOCKREPETAG
1070
     1
1071
       52
1005
1270C5
  0
LINE
  5
1270C6
  8
OBJECT
 10
4597.0
 20
-140.9999999999990905
 30
0.0
 11
4597.0
 21
-258.9999999999990905
 31
0.0
1001
ACDBBLOCKREPETAG
1070
     1
1071
       53
1005
1270C6
  0
LINE
  5
1270C7
  8
OBJECT
 10
4597.0
 20
-258.9999999999990905
 30
0.0
 11
4633.0
 21
-258.9999999999990905
 31
0.0
1001
ACDBBLOCKREPETAG
1070
     1
1071
       54
1005
1270C7
  0
LINE
  5
1270C8
  8
OBJECT
 10
4593.0
 20
-145.4999999999990905
 30
0.0
 11
4586.0
 21
-145.4999999999990905
 31
0.0
1001
ACDBBLOCKREPETAG
1070
     1
1071
       55
1005
1270C8
  0
LINE
  5
1270C9
  8
OBJECT
 10
4586.0
 20
-254.4999999999990905
 30
0.0
 11
4593.0
 21
-254.4999999999990905
 31
0.0
1001
ACDBBLOCKREPETAG
1070
     1
1071
       56
1005
1270C9
  0
LINE
  5
1270CA
  8
OBJECT
 10
4593.0
 20
-254.4999999999990905
 30
0.0
 11
4593.0
 21
-145.4999999999990905
 31
0.0
1001
ACDBBLOCKREPETAG
1070
     1
1071
       57
1005
1270CA
  0
LINE
  5
1270CB
  8
OBJECT
 10
4597.0
 20
-140.9999999999990905
 30
0.0
 11
4593.0
 21
-145.4999999999990905
 31
0.0
1001
ACDBBLOCKREPETAG
1070
     1
1071
       58
1005
1270CB
  0
LINE
  5
1270CC
  8
OBJECT
 10
4597.0
 20
-258.9999999999990905
 30
0.0
 11
4593.0
 21
-254.4999999999990905
 31
0.0
1001
ACDBBLOCKREPETAG
1070
     1
1071
       59
1005
1270CC
  0
LINE
  5
1270CD
  8
OBJECT
 10
4583.0
 20
-137.9999999999990905
 30
0.0
 11
4580.0
 21
-137.9999999999990905
 31
0.0
1001
ACDBBLOCKREPETAG
1070
     1
1071
       60
1005
1270CD
  0
ARC
  5
1270CE
  8
OBJECT
 10
4583.0
 20
-140.9999999999990905
 30
0.0
 40
3.0
 50
0.0
 51
90.0
1001
ACDBBLOCKREPETAG
1070
     1
1071
       61
1005
1270CE
  0
LINE
  5
1270CF
  8
OBJECT
 10
4580.0
 20
-261.9999999999990905
 30
0.0
 11
4583.0
 21
-261.9999999999990905
 31
0.0
1001
ACDBBLOCKREPETAG
1070
     1
1071
       62
1005
1270CF
  0
ARC
  5
1270D0
  8
OBJECT
 10
4583.0
 20
-258.9999999999990905
 30
0.0
 40
3.0
 50
270.0
 51
0.0
1001
ACDBBLOCKREPETAG
1070
     1
1071
       63
1005
1270D0
  0
LINE
  5
1270D1
  8
OBJECT
 10
4586.0
 20
-258.9999999999990905
 30
0.0
 11
4586.0
 21
-140.9999999999990905
 31
0.0
1001
ACDBBLOCKREPETAG
1070
     1
1071
       64
1005
1270D1
  0
LINE
  5
1270D2
  8
HIDDEN
 10
4588.0
 20
-155.4999999999990905
 30
0.0
 11
4588.0
 21
-244.4999999999990905
 31
0.0
1001
ACDBBLOCKREPETAG
1070
     1
1071
       65
1005
1270D2
  0
LINE
  5
1270D3
  8
DIM
 10
4404.9999999999936335
 20
-1135.9999999999990905
 30
0.0
 11
4333.1164560757752042
 21
-1135.9999999999990905
 31
0.0
  0
LINE
  5
1270D4
  8
DIM
 10
4410.0
 20
-1376.0
 30
0.0
 11
4333.1164560757752042
 21
-1376.0
 31
0.0
  0
LINE
  5
1270D5
  8
DIM
 10
4343.1164560757752042
 20
-1155.9999999999990905
 30
0.0
 11
4343.1164560757752042
 21
-1356.0
 31
0.0
  0
INSERT
  5
1270D6
  8
DIM
  2
_OPEN30
 10
4343.1164560757752042
 20
-1135.9999999999990905
 30
0.0
 41
20.0
 42
20.0
 43
20.0
 50
90.0
  0
INSERT
  5
1270D7
  8
DIM
  2
_OPEN30
 10
4343.1164560757752042
 20
-1376.0
 30
0.0
 41
20.0
 42
20.0
 43
20.0
 50
270.0
  0
INSERT
  5
1270D8
  8
SLIM
  2
*U32
 10
0.0
 20
0.0
 30
0.0
  0
LINE
  5
1270D9
  8
DIM
 10
4665.0
 20
-696.0
 30
0.0
 11
4719.4245816727570855
 21
-696.0
 31
0.0
  0
LINE
  5
1270DA
  8
DIM
 10
4595.0000000000063665
 20
-1136.0000000000040927
 30
0.0
 11
4719.4245816727570855
 21
-1136.0000000000040927
 31
0.0
  0
LINE
  5
1270DB
  8
DIM
 10
4709.424581672756176
 20
-716.0
 30
0.0
 11
4709.424581672756176
 21
-1116.0000000000040927
 31
0.0
  0
INSERT
  5
1270DC
  8
DIM
  2
_OPEN30
 10
4709.424581672756176
 20
-696.0
 30
0.0
 41
20.0
 42
20.0
 43
20.0
 50
90.0
  0
INSERT
  5
1270DD
  8
DIM
  2
_OPEN30
 10
4709.424581672756176
 20
-1136.0000000000040927
 30
0.0
 41
20.0
 42
20.0
 43
20.0
 50
270.0
  0
INSERT
  5
1270DE
  8
SLIM
  2
*U33
 10
0.0
 20
0.0
 30
0.0
  0
LINE
  5
1270DF
  8
DIM
 10
2665.0
 20
-696.0
 30
0.0
 11
2719.4245816727570855
 21
-696.0
 31
0.0
  0
LINE
  5
1270E0
  8
DIM
 10
2527.9164728671689772
 20
-1136.0
 30
0.0
 11
2719.424581672756176
 21
-1136.0
 31
0.0
  0
LINE
  5
1270E1
  8
DIM
 10
2709.4245816727570855
 20
-716.0
 30
0.0
 11
2709.424581672756176
 21
-1116.0
 31
0.0
  0
INSERT
  5
1270E2
  8
DIM
  2
_OPEN30
 10
2709.4245816727570855
 20
-696.0
 30
0.0
 41
20.0
 42
20.0
 43
20.0
 50
90.0
  0
INSERT
  5
1270E3
  8
DIM
  2
_OPEN30
 10
2709.424581672756176
 20
-1136.0
 30
0.0
 41
20.0
 42
20.0
 43
20.0
 50
270.0
  0
INSERT
  5
1270E4
  8
SLIM
  2
*U34
 10
0.0
 20
0.0
 30
0.0
  0
LINE
  5
1270E5
  8
CENTER
 10
4977.0
 20
-3805.9999999999968168
 30
0.0
 11
4823.0
 21
-3805.9999999999968168
 31
0.0
1001
ACDBBLOCKREPETAG
1070
     1
1071
       17
1005
1270E5
  0
CIRCLE
  5
1270E6
  8
OBJECT
 10
4900.0
 20
-3805.9999999999968168
 30
0.0
 40
41.5
1001
ACDBBLOCKREPETAG
1070
     1
1071
       18
1005
1270E6
  0
CIRCLE
  5
1270E7
  8
OBJECT
 10
4900.0
 20
-3805.9999999999968168
 30
0.0
 40
54.0
1001
ACDBBLOCKREPETAG
1070
     1
1071
       19
1005
1270E7
  0
ARC
  5
1270E8
  8
OBJECT
 10
4900.0
 20
-3805.9999999999968168
 30
0.0
 40
62.0
 50
287.8965511292112751
 51
252.1034488707886965
1001
ACDBBLOCKREPETAG
1070
     1
1071
       20
1005
1270E8
  0
LINE
  5
1270E9
  8
OBJECT
 10
4880.947441116742084
 20
-3864.9999999999968168
 30
0.0
 11
4919.052558883257916
 21
-3864.9999999999968168
 31
0.0
1001
ACDBBLOCKREPETAG
1070
     1
1071
       21
1005
1270E9
  0
POINT
  5
1270EA
  8
DOTS
 10
4900.0
 20
-3864.9999999999968168
 30
0.0
1001
ACDBBLOCKREPETAG
1070
     1
1071
       23
1005
1270EA
  0
LINE
  5
1270EB
  8
OBJECT
 10
4633.0
 20
-3743.9999999999959073
 30
0.0
 11
4640.0
 21
-3743.9999999999959073
 31
0.0
1001
ACDBBLOCKREPETAG
1070
     1
1071
       46
1005
1270EB
  0
LINE
  5
1270EC
  8
OBJECT
 10
4640.0
 20
-3743.9999999999959073
 30
0.0
 11
4640.0
 21
-3864.9999999999968168
 31
0.0
1001
ACDBBLOCKREPETAG
1070
     1
1071
       47
1005
1270EC
  0
LINE
  5
1270ED
  8
OBJECT
 10
4633.0
 20
-3864.9999999999968168
 30
0.0
 11
4633.0
 21
-3743.9999999999959073
 31
0.0
1001
ACDBBLOCKREPETAG
1070
     1
1071
       48
1005
1270ED
  0
LINE
  5
1270EE
  8
CENTER
 10
4655.0
 20
-3805.9999999999968168
 30
0.0
 11
4541.3449199130036504
 21
-3806.0000000000609361
 31
0.0
1001
ACDBBLOCKREPETAG
1070
     1
1071
       49
1005
1270EE
  0
LINE
  5
1270EF
  8
OBJECT
 10
4633.0
 20
-3746.9999999999959073
 30
0.0
 11
4597.0
 21
-3746.9999999999959073
 31
0.0
1001
ACDBBLOCKREPETAG
1070
     1
1071
       50
1005
1270EF
  0
LINE
  5
1270F0
  8
OBJECT
 10
4597.0
 20
-3746.9999999999959073
 30
0.0
 11
4597.0
 21
-3864.9999999999968168
 31
0.0
1001
ACDBBLOCKREPETAG
1070
     1
1071
       51
1005
1270F0
  0
LINE
  5
1270F1
  8
OBJECT
 10
4597.0
 20
-3864.9999999999968168
 30
0.0
 11
4640.0
 21
-3864.9999999999968168
 31
0.0
1001
ACDBBLOCKREPETAG
1070
     1
1071
       52
1005
1270F1
  0
LINE
  5
1270F2
  8
OBJECT
 10
4593.0
 20
-3751.4999999999959073
 30
0.0
 11
4582.5
 21
-3751.4999999999959073
 31
0.0
1001
ACDBBLOCKREPETAG
1070
     1
1071
       53
1005
1270F2
  0
LINE
  5
1270F3
  8
OBJECT
 10
4582.5
 20
-3860.4999999999959073
 30
0.0
 11
4593.0
 21
-3860.4999999999959073
 31
0.0
1001
ACDBBLOCKREPETAG
1070
     1
1071
       54
1005
1270F3
  0
LINE
  5
1270F4
  8
OBJECT
 10
4593.0
 20
-3860.4999999999959073
 30
0.0
 11
4593.0
 21
-3751.4999999999959073
 31
0.0
1001
ACDBBLOCKREPETAG
1070
     1
1071
       55
1005
1270F4
  0
LINE
  5
1270F5
  8
OBJECT
 10
4597.0
 20
-3746.9999999999959073
 30
0.0
 11
4593.0
 21
-3751.4999999999959073
 31
0.0
1001
ACDBBLOCKREPETAG
1070
     1
1071
       56
1005
1270F5
  0
LINE
  5
1270F6
  8
OBJECT
 10
4597.0
 20
-3864.9999999999968168
 30
0.0
 11
4593.0
 21
-3860.4999999999959073
 31
0.0
1001
ACDBBLOCKREPETAG
1070
     1
1071
       57
1005
1270F6
  0
LINE
  5
1270F7
  8
HIDDEN
 10
4588.0
 20
-3761.4999999999968168
 30
0.0
 11
4588.0
 21
-3850.4999999999968168
 31
0.0
1001
ACDBBLOCKREPETAG
1070
     1
1071
       58
1005
1270F7
  0
ARC
  5
1270F8
  8
OBJECT
 10
4664.8782728787718952
 20
-3821.4095072612249169
 30
0.0
 40
110.866352283089995
 50
144.1634274192888938
 51
163.0403538043393894
1001
ACDBBLOCKREPETAG
1070
     1
1071
       59
1005
1270F8
  0
ARC
  5
1270F9
  8
OBJECT
 10
4617.1359887769067427
 20
-3806.2877497184449567
 30
0.0
 40
60.7917498803589567
 50
163.5472046522193068
 51
179.7287969828265943
1001
ACDBBLOCKREPETAG
1070
     1
1071
       60
1005
1270F9
  0
ARC
  5
1270FA
  8
OBJECT
 10
4617.1359956562482694
 20
-3812.7122497598970767
 30
0.0
 40
60.7917567620948702
 50
180.2712034781451962
 51
196.4527794605265001
1001
ACDBBLOCKREPETAG
1070
     1
1071
       61
1005
1270FA
  0
ARC
  5
1270FB
  8
OBJECT
 10
4664.8782728787718952
 20
-3797.590492738832836
 30
0.0
 40
110.8663522830916008
 50
196.9596461956604969
 51
215.8365725807111062
1001
ACDBBLOCKREPETAG
1070
     1
1071
       62
1005
1270FB
  0
LINE
  5
1270FC
  8
OBJECT
 10
4556.3449199130036504
 20
-3806.0000000000331966
 30
0.0
 11
4556.3449199130036504
 21
-3813.0000000000291038
 31
0.0
1001
ACDBBLOCKREPETAG
1070
     1
1071
       63
1005
1270FC
  0
LINE
  5
1270FD
  8
OBJECT
 10
4574.9999999998335625
 20
-3756.5000000002919478
 30
0.0
 11
4577.499999999836291
 21
-3756.5000000002919478
 31
0.0
1001
ACDBBLOCKREPETAG
1070
     1
1071
       65
1005
1270FD
  0
LINE
  5
1270FE
  8
OBJECT
 10
4574.999999999832653
 20
-3862.4999999997671694
 30
0.0
 11
4579.499999999830834
 21
-3862.4999999997671694
 31
0.0
1001
ACDBBLOCKREPETAG
1070
     1
1071
       66
1005
1270FE
  0
LINE
  5
1270FF
  8
OBJECT
 10
4579.499999999830834
 20
-3862.4999999997671694
 30
0.0
 11
4577.499999999836291
 21
-3756.5000000002919478
 31
0.0
1001
ACDBBLOCKREPETAG
1070
     1
1071
       67
1005
1270FF
  0
LINE
  5
127100
  8
OBJECT
 10
4579.499999999830834
 20
-3862.4999999997671694
 30
0.0
 11
4582.5
 21
-3860.4999999999959073
 31
0.0
1001
ACDBBLOCKREPETAG
1070
     1
1071
       68
1005
127100
  0
LINE
  5
127101
  8
OBJECT
 10
4582.5
 20
-3860.4999999999959073
 30
0.0
 11
4582.5
 21
-3751.4999999999959073
 31
0.0
1001
ACDBBLOCKREPETAG
1070
     1
1071
       69
1005
127101
  0
LINE
  5
127102
  8
OBJECT
 10
4582.5
 20
-3751.4999999999959073
 30
0.0
 11
4577.499999999836291
 21
-3756.5000000002919478
 31
0.0
1001
ACDBBLOCKREPETAG
1070
     1
1071
       70
1005
127102
  0
LINE
  5
127103
  8
OBJECT
 10
4633.0000000000009095
 20
-3397.9999999999959073
 30
0.0
 11
4640.0000000000009095
 21
-3397.9999999999959073
 31
0.0
1001
ACDBBLOCKREPETAG
1070
     1
1071
       38
1005
127103
  0
LINE
  5
127104
  8
OBJECT
 10
4640.0000000000009095
 20
-3397.9999999999959073
 30
0.0
 11
4640.0
 21
-3521.9999999999968168
 31
0.0
1001
ACDBBLOCKREPETAG
1070
     1
1071
       39
1005
127104
  0
LINE
  5
127105
  8
OBJECT
 10
4640.0
 20
-3521.9999999999968168
 30
0.0
 11
4633.0
 21
-3521.9999999999968168
 31
0.0
1001
ACDBBLOCKREPETAG
1070
     1
1071
       40
1005
127105
  0
LINE
  5
127106
  8
OBJECT
 10
4633.0
 20
-3521.9999999999968168
 30
0.0
 11
4633.0000000000009095
 21
-3397.9999999999959073
 31
0.0
1001
ACDBBLOCKREPETAG
1070
     1
1071
       41
1005
127106
  0
LINE
  5
127107
  8
CENTER
 10
4655.0
 20
-3459.9999999999968168
 30
0.0
 11
4580.0
 21
-3459.9999999999968168
 31
0.0
1001
ACDBBLOCKREPETAG
1070
     1
1071
       42
1005
127107
  0
LINE
  5
127108
  8
OBJECT
 10
4633.0000000000009095
 20
-3400.9999999999959073
 30
0.0
 11
4597.0000000000009095
 21
-3400.9999999999959073
 31
0.0
1001
ACDBBLOCKREPETAG
1070
     1
1071
       43
1005
127108
  0
LINE
  5
127109
  8
OBJECT
 10
4597.0000000000009095
 20
-3400.9999999999959073
 30
0.0
 11
4597.0
 21
-3518.9999999999968168
 31
0.0
1001
ACDBBLOCKREPETAG
1070
     1
1071
       44
1005
127109
  0
LINE
  5
12710A
  8
OBJECT
 10
4597.0
 20
-3518.9999999999968168
 30
0.0
 11
4633.0
 21
-3518.9999999999968168
 31
0.0
1001
ACDBBLOCKREPETAG
1070
     1
1071
       45
1005
12710A
  0
LINE
  5
12710B
  8
OBJECT
 10
4593.0
 20
-3405.4999999999959073
 30
0.0
 11
4582.5000000000009095
 21
-3405.4999999999959073
 31
0.0
1001
ACDBBLOCKREPETAG
1070
     1
1071
       46
1005
12710B
  0
LINE
  5
12710C
  8
OBJECT
 10
4582.5
 20
-3514.4999999999968168
 30
0.0
 11
4593.0
 21
-3514.4999999999968168
 31
0.0
1001
ACDBBLOCKREPETAG
1070
     1
1071
       47
1005
12710C
  0
LINE
  5
12710D
  8
OBJECT
 10
4593.0
 20
-3514.4999999999968168
 30
0.0
 11
4593.0
 21
-3405.4999999999959073
 31
0.0
1001
ACDBBLOCKREPETAG
1070
     1
1071
       48
1005
12710D
  0
LINE
  5
12710E
  8
OBJECT
 10
4597.0000000000009095
 20
-3400.9999999999959073
 30
0.0
 11
4593.0
 21
-3405.4999999999959073
 31
0.0
1001
ACDBBLOCKREPETAG
1070
     1
1071
       49
1005
12710E
  0
LINE
  5
12710F
  8
OBJECT
 10
4597.0
 20
-3518.9999999999968168
 30
0.0
 11
4593.0
 21
-3514.4999999999968168
 31
0.0
1001
ACDBBLOCKREPETAG
1070
     1
1071
       50
1005
12710F
  0
LINE
  5
127110
  8
HIDDEN
 10
4588.0
 20
-3415.4999999999968168
 30
0.0
 11
4588.0
 21
-3504.4999999999968168
 31
0.0
1001
ACDBBLOCKREPETAG
1070
     1
1071
       51
1005
127110
  0
LINE
  5
127111
  8
OBJECT
 10
4577.5000000000009095
 20
-3410.4999999999959073
 30
0.0
 11
4556.3449199129790941
 21
-3410.4999999999959073
 31
0.0
1001
ACDBBLOCKREPETAG
1070
     1
1071
       52
1005
127111
  0
LINE
  5
127112
  8
OBJECT
 10
4577.4999999999990905
 20
-3509.4999999999959073
 30
0.0
 11
4556.3449199129790941
 21
-3509.4999999999959073
 31
0.0
1001
ACDBBLOCKREPETAG
1070
     1
1071
       53
1005
127112
  0
LINE
  5
127113
  8
OBJECT
 10
4582.5000000000009095
 20
-3405.4999999999959073
 30
0.0
 11
4582.5
 21
-3514.4999999999968168
 31
0.0
1001
ACDBBLOCKREPETAG
1070
     1
1071
       54
1005
127113
  0
LINE
  5
127114
  8
OBJECT
 10
4577.5000000000009095
 20
-3410.4999999999959073
 30
0.0
 11
4577.4999999999990905
 21
-3509.4999999999959073
 31
0.0
1001
ACDBBLOCKREPETAG
1070
     1
1071
       55
1005
127114
  0
LINE
  5
127115
  8
OBJECT
 10
4582.5000000000009095
 20
-3405.4999999999959073
 30
0.0
 11
4577.5000000000009095
 21
-3410.4999999999959073
 31
0.0
1001
ACDBBLOCKREPETAG
1070
     1
1071
       56
1005
127115
  0
LINE
  5
127116
  8
OBJECT
 10
4577.4999999999990905
 20
-3509.4999999999959073
 30
0.0
 11
4582.5
 21
-3514.4999999999931788
 31
0.0
1001
ACDBBLOCKREPETAG
1070
     1
1071
       57
1005
127116
  0
CIRCLE
  5
127117
  8
OBJECT
 10
3900.0
 20
-3812.9999999999968168
 30
0.0
 40
35.5
1001
ACDBBLOCKREPETAG
1070
     1
1071
       11
1005
127117
  0
LINE
  5
127118
  8
CENTER
 10
3830.0
 20
-3812.9999999999968168
 30
0.0
 11
3970.0
 21
-3812.9999999999968168
 31
0.0
1001
ACDBBLOCKREPETAG
1070
     1
1071
       12
1005
127118
  0
CIRCLE
  5
127119
  8
OBJECT
 10
3900.0
 20
-3812.9999999999968168
 30
0.0
 40
47.0
1001
ACDBBLOCKREPETAG
1070
     1
1071
       14
1005
127119
  0
ARC
  5
12711A
  8
OBJECT
 10
3900.0
 20
-3812.9999999999968168
 30
0.0
 40
55.0
 50
289.0112652600889191
 51
250.9887347399111093
1001
ACDBBLOCKREPETAG
1070
     1
1071
       15
1005
12711A
  0
LINE
  5
12711B
  8
OBJECT
 10
3882.0835271328319322
 20
-3864.9999999999968168
 30
0.0
 11
3917.9164728671680678
 21
-3864.9999999999968168
 31
0.0
1001
ACDBBLOCKREPETAG
1070
     1
1071
       16
1005
12711B
  0
POINT
  5
12711C
  8
DOTS
 10
3900.0
 20
-3864.9999999999968168
 30
0.0
1001
ACDBBLOCKREPETAG
1070
     1
1071
       24
1005
12711C
  0
LINE
  5
12711D
  8
OBJECT
 10
3633.0
 20
-3757.9999999999959073
 30
0.0
 11
3640.0
 21
-3757.9999999999959073
 31
0.0
1001
ACDBBLOCKREPETAG
1070
     1
1071
       23
1005
12711D
  0
LINE
  5
12711E
  8
OBJECT
 10
3640.0
 20
-3757.9999999999959073
 30
0.0
 11
3640.0
 21
-3864.9999999999968168
 31
0.0
1001
ACDBBLOCKREPETAG
1070
     1
1071
       24
1005
12711E
  0
LINE
  5
12711F
  8
OBJECT
 10
3584.5
 20
-3759.5000000000618456
 30
0.0
 11
3584.5
 21
-3862.4999999999968168
 31
0.0
1001
ACDBBLOCKREPETAG
1070
     1
1071
       25
1005
12711F
  0
ARC
  5
127120
  8
OBJECT
 10
3581.5
 20
-3759.5000000000618456
 30
0.0
 40
3.0
 50
0.0
 51
90.0
1001
ACDBBLOCKREPETAG
1070
     1
1071
       26
1005
127120
  0
LINE
  5
127121
  8
OBJECT
 10
3633.0
 20
-3864.9999999999968168
 30
0.0
 11
3633.0
 21
-3757.9999999999959073
 31
0.0
1001
ACDBBLOCKREPETAG
1070
     1
1071
       27
1005
127121
  0
LINE
  5
127122
  8
CENTER
 10
3655.0
 20
-3812.9999999999968168
 30
0.0
 11
3541.3449199130041052
 21
-3813.0000000000609361
 31
0.0
1001
ACDBBLOCKREPETAG
1070
     1
1071
       28
1005
127122
  0
LINE
  5
127123
  8
OBJECT
 10
3633.0
 20
-3760.9999999999968168
 30
0.0
 11
3597.0
 21
-3760.9999999999968168
 31
0.0
1001
ACDBBLOCKREPETAG
1070
     1
1071
       29
1005
127123
  0
LINE
  5
127124
  8
OBJECT
 10
3597.0
 20
-3760.9999999999968168
 30
0.0
 11
3597.0
 21
-3864.9999999999968168
 31
0.0
1001
ACDBBLOCKREPETAG
1070
     1
1071
       30
1005
127124
  0
LINE
  5
127125
  8
OBJECT
 10
3597.0
 20
-3864.9999999999968168
 30
0.0
 11
3640.0
 21
-3864.9999999999968168
 31
0.0
1001
ACDBBLOCKREPETAG
1070
     1
1071
       31
1005
127125
  0
LINE
  5
127126
  8
OBJECT
 10
3593.0
 20
-3765.4999999999968168
 30
0.0
 11
3584.5
 21
-3765.4999999999968168
 31
0.0
1001
ACDBBLOCKREPETAG
1070
     1
1071
       32
1005
127126
  0
LINE
  5
127127
  8
OBJECT
 10
3584.5
 20
-3860.4999999999959073
 30
0.0
 11
3593.0
 21
-3860.4999999999959073
 31
0.0
1001
ACDBBLOCKREPETAG
1070
     1
1071
       33
1005
127127
  0
LINE
  5
127128
  8
OBJECT
 10
3593.0
 20
-3860.4999999999959073
 30
0.0
 11
3593.0
 21
-3765.4999999999968168
 31
0.0
1001
ACDBBLOCKREPETAG
1070
     1
1071
       34
1005
127128
  0
LINE
  5
127129
  8
OBJECT
 10
3597.0
 20
-3760.9999999999968168
 30
0.0
 11
3593.0
 21
-3765.4999999999968168
 31
0.0
1001
ACDBBLOCKREPETAG
1070
     1
1071
       35
1005
127129
  0
LINE
  5
12712A
  8
OBJECT
 10
3597.0
 20
-3864.9999999999968168
 30
0.0
 11
3593.0
 21
-3860.4999999999959073
 31
0.0
1001
ACDBBLOCKREPETAG
1070
     1
1071
       36
1005
12712A
  0
LINE
  5
12712B
  8
HIDDEN
 10
3588.0
 20
-3774.9999999999968168
 30
0.0
 11
3588.0
 21
-3850.9999999999959073
 31
0.0
1001
ACDBBLOCKREPETAG
1070
     1
1071
       37
1005
12712B
  0
ARC
  5
12712C
  8
OBJECT
 10
3664.8782728787741689
 20
-3821.4095072612249169
 30
0.0
 40
110.866352283089995
 50
144.1634274192888938
 51
163.0403538043316871
1001
ACDBBLOCKREPETAG
1070
     1
1071
       38
1005
12712C
  0
ARC
  5
12712D
  8
OBJECT
 10
3617.135988776908107
 20
-3806.2877497184449567
 30
0.0
 40
60.7917498803589567
 50
163.5472046522266965
 51
179.7287969828267933
1001
ACDBBLOCKREPETAG
1070
     1
1071
       39
1005
12712D
  0
ARC
  5
12712E
  8
OBJECT
 10
3617.1359956562491789
 20
-3812.7122497598970767
 30
0.0
 40
60.7917567620948702
 50
180.2712034781451962
 51
196.4527794605338045
1001
ACDBBLOCKREPETAG
1070
     1
1071
       40
1005
12712E
  0
ARC
  5
12712F
  8
OBJECT
 10
3664.8782728787741689
 20
-3797.590492738832836
 30
0.0
 40
110.8663522830916008
 50
196.9596461956681139
 51
215.8365725807111062
1001
ACDBBLOCKREPETAG
1070
     1
1071
       41
1005
12712F
  0
LINE
  5
127130
  8
OBJECT
 10
3556.3449199130041052
 20
-3806.0000000000331966
 30
0.0
 11
3556.3449199130041052
 21
-3813.0000000000291038
 31
0.0
1001
ACDBBLOCKREPETAG
1070
     1
1071
       42
1005
127130
  0
LINE
  5
127131
  8
OBJECT
 10
3574.9999999999990905
 20
-3756.5000000000618456
 30
0.0
 11
3581.5
 21
-3756.5000000000618456
 31
0.0
1001
ACDBBLOCKREPETAG
1070
     1
1071
       43
1005
127131
  0
LINE
  5
127132
  8
OBJECT
 10
3574.9999999999990905
 20
-3862.4999999999968168
 30
0.0
 11
3584.5
 21
-3862.4999999999968168
 31
0.0
1001
ACDBBLOCKREPETAG
1070
     1
1071
       44
1005
127132
  0
LINE
  5
127133
  8
OBJECT
 10
3633.0
 20
-3404.9999999999959073
 30
0.0
 11
3640.0
 21
-3404.9999999999959073
 31
0.0
1001
ACDBBLOCKREPETAG
1070
     1
1071
       20
1005
127133
  0
LINE
  5
127134
  8
OBJECT
 10
3640.0
 20
-3404.9999999999959073
 30
0.0
 11
3640.0
 21
-3514.9999999999968168
 31
0.0
1001
ACDBBLOCKREPETAG
1070
     1
1071
       21
1005
127134
  0
LINE
  5
127135
  8
OBJECT
 10
3640.0
 20
-3514.9999999999968168
 30
0.0
 11
3633.0
 21
-3514.9999999999968168
 31
0.0
1001
ACDBBLOCKREPETAG
1070
     1
1071
       22
1005
127135
  0
LINE
  5
127136
  8
OBJECT
 10
3633.0
 20
-3514.9999999999968168
 30
0.0
 11
3633.0
 21
-3404.9999999999959073
 31
0.0
1001
ACDBBLOCKREPETAG
1070
     1
1071
       23
1005
127136
  0
LINE
  5
127137
  8
CENTER
 10
3655.0
 20
-3459.9999999999968168
 30
0.0
 11
3580.0
 21
-3459.9999999999968168
 31
0.0
1001
ACDBBLOCKREPETAG
1070
     1
1071
       24
1005
127137
  0
LINE
  5
127138
  8
OBJECT
 10
3633.0
 20
-3407.9999999999959073
 30
0.0
 11
3597.0
 21
-3407.9999999999959073
 31
0.0
1001
ACDBBLOCKREPETAG
1070
     1
1071
       25
1005
127138
  0
LINE
  5
127139
  8
OBJECT
 10
3597.0
 20
-3407.9999999999959073
 30
0.0
 11
3597.0
 21
-3511.9999999999959073
 31
0.0
1001
ACDBBLOCKREPETAG
1070
     1
1071
       26
1005
127139
  0
LINE
  5
12713A
  8
OBJECT
 10
3597.0
 20
-3511.9999999999959073
 30
0.0
 11
3633.0
 21
-3511.9999999999959073
 31
0.0
1001
ACDBBLOCKREPETAG
1070
     1
1071
       27
1005
12713A
  0
LINE
  5
12713B
  8
OBJECT
 10
3593.0
 20
-3412.4999999999959073
 30
0.0
 11
3584.5
 21
-3412.4999999999959073
 31
0.0
1001
ACDBBLOCKREPETAG
1070
     1
1071
       28
1005
12713B
  0
LINE
  5
12713C
  8
OBJECT
 10
3584.5
 20
-3507.4999999999968168
 30
0.0
 11
3593.0
 21
-3507.4999999999968168
 31
0.0
1001
ACDBBLOCKREPETAG
1070
     1
1071
       29
1005
12713C
  0
LINE
  5
12713D
  8
OBJECT
 10
3593.0
 20
-3507.4999999999968168
 30
0.0
 11
3593.0
 21
-3412.4999999999959073
 31
0.0
1001
ACDBBLOCKREPETAG
1070
     1
1071
       30
1005
12713D
  0
LINE
  5
12713E
  8
OBJECT
 10
3597.0
 20
-3407.9999999999959073
 30
0.0
 11
3593.0
 21
-3412.4999999999959073
 31
0.0
1001
ACDBBLOCKREPETAG
1070
     1
1071
       31
1005
12713E
  0
LINE
  5
12713F
  8
OBJECT
 10
3597.0
 20
-3511.9999999999959073
 30
0.0
 11
3593.0
 21
-3507.4999999999968168
 31
0.0
1001
ACDBBLOCKREPETAG
1070
     1
1071
       32
1005
12713F
  0
LINE
  5
127140
  8
OBJECT
 10
3584.499999999998181
 20
-3509.4999999999959073
 30
0.0
 11
3584.5
 21
-3410.4999999999959073
 31
0.0
1001
ACDBBLOCKREPETAG
1070
     1
1071
       33
1005
127140
  0
LINE
  5
127141
  8
HIDDEN
 10
3588.0
 20
-3421.9999999999968168
 30
0.0
 11
3588.0
 21
-3497.9999999999959073
 31
0.0
1001
ACDBBLOCKREPETAG
1070
     1
1071
       34
1005
127141
  0
LINE
  5
127142
  8
OBJECT
 10
3584.5
 20
-3410.4999999999959073
 30
0.0
 11
3556.3449199129800036
 21
-3410.4999999999959073
 31
0.0
1001
ACDBBLOCKREPETAG
1070
     1
1071
       35
1005
127142
  0
LINE
  5
127143
  8
OBJECT
 10
3584.499999999998181
 20
-3509.4999999999959073
 30
0.0
 11
3556.3449199129800036
 21
-3509.4999999999959073
 31
0.0
1001
ACDBBLOCKREPETAG
1070
     1
1071
       36
1005
127143
  0
LINE
  5
127144
  8
CENTER
 10
2838.0
 20
-3820.9999999999968168
 30
0.0
 11
2962.0
 21
-3820.9999999999968168
 31
0.0
1001
ACDBBLOCKREPETAG
1070
     1
1071
        0
1005
127144
  0
CIRCLE
  5
127145
  8
OBJECT
 10
2900.0
 20
-3820.9999999999968168
 30
0.0
 40
28.0
1001
ACDBBLOCKREPETAG
1070
     1
1071
        2
1005
127145
  0
CIRCLE
  5
127146
  8
OBJECT
 10
2900.0
 20
-3820.9999999999968168
 30
0.0
 40
39.0
1001
ACDBBLOCKREPETAG
1070
     1
1071
        3
1005
127146
  0
ARC
  5
127147
  8
OBJECT
 10
2900.0
 20
-3820.9999999999968168
 30
0.0
 40
47.0
 50
290.5819692114441182
 51
249.4180307885559102
1001
ACDBBLOCKREPETAG
1070
     1
1071
        4
1005
127147
  0
LINE
  5
127148
  8
OBJECT
 10
2883.4772883581417773
 20
-3864.9999999999968168
 30
0.0
 11
2916.5227116418568585
 21
-3864.9999999999968168
 31
0.0
1001
ACDBBLOCKREPETAG
1070
     1
1071
        5
1005
127148
  0
ARC
  5
127149
  8
OBJECT
 10
2900.0
 20
-3805.9999999999931788
 30
0.0
 40
49.5
 50
0.0
 51
180.0
1001
ACDBBLOCKREPETAG
1070
     1
1071
        6
1005
127149
  0
LINE
  5
12714A
  8
OBJECT
 10
2850.5000000000031832
 20
-3805.9999999999931788
 30
0.0
 11
2850.5000000000031832
 21
-3812.9999999999968168
 31
0.0
1001
ACDBBLOCKREPETAG
1070
     1
1071
        7
1005
12714A
  0
LINE
  5
12714B
  8
OBJECT
 10
2949.5000000000068212
 20
-3805.9999999999931788
 30
0.0
 11
2949.5000000000068212
 21
-3812.9999999999968168
 31
0.0
1001
ACDBBLOCKREPETAG
1070
     1
1071
        8
1005
12714B
  0
ARC
  5
12714C
  8
OBJECT
 10
2900.0
 20
-3812.9999999999968168
 30
0.0
 40
49.5
 50
180.0
 51
202.6695638510487925
1001
ACDBBLOCKREPETAG
1070
     1
1071
        9
1005
12714C
  0
ARC
  5
12714D
  8
OBJECT
 10
2900.0
 20
-3812.9999999999968168
 30
0.0
 40
49.5
 50
337.3304361489512075
 51
0.0
1001
ACDBBLOCKREPETAG
1070
     1
1071
       10
1005
12714D
  0
POINT
  5
12714E
  8
DOTS
 10
2900.0
 20
-3864.9999999999968168
 30
0.0
1001
ACDBBLOCKREPETAG
1070
     1
1071
       25
1005
12714E
  0
LINE
  5
12714F
  8
OBJECT
 10
2633.0
 20
-3773.9999999999968168
 30
0.0
 11
2640.0
 21
-3773.9999999999968168
 31
0.0
1001
ACDBBLOCKREPETAG
1070
     1
1071
        0
1005
12714F
  0
LINE
  5
127150
  8
OBJECT
 10
2640.0
 20
-3773.9999999999968168
 30
0.0
 11
2640.0
 21
-3864.9999999999968168
 31
0.0
1001
ACDBBLOCKREPETAG
1070
     1
1071
        1
1005
127150
  0
LINE
  5
127151
  8
OBJECT
 10
2584.5
 20
-3759.5000000000618456
 30
0.0
 11
2584.5
 21
-3862.4999999999968168
 31
0.0
1001
ACDBBLOCKREPETAG
1070
     1
1071
        2
1005
127151
  0
ARC
  5
127152
  8
OBJECT
 10
2581.5
 20
-3759.5000000000618456
 30
0.0
 40
3.0
 50
0.0
 51
90.0
1001
ACDBBLOCKREPETAG
1070
     1
1071
        3
1005
127152
  0
LINE
  5
127153
  8
OBJECT
 10
2633.0
 20
-3864.9999999999968168
 30
0.0
 11
2633.0
 21
-3773.9999999999968168
 31
0.0
1001
ACDBBLOCKREPETAG
1070
     1
1071
        4
1005
127153
  0
LINE
  5
127154
  8
CENTER
 10
2655.0
 20
-3820.9999999999968168
 30
0.0
 11
2541.9118237135839991
 21
-3820.9999999999968168
 31
0.0
1001
ACDBBLOCKREPETAG
1070
     1
1071
        5
1005
127154
  0
LINE
  5
127155
  8
OBJECT
 10
2633.0
 20
-3776.9999999999968168
 30
0.0
 11
2596.9999999999990905
 21
-3776.9999999999968168
 31
0.0
1001
ACDBBLOCKREPETAG
1070
     1
1071
        6
1005
127155
  0
LINE
  5
127156
  8
OBJECT
 10
2596.9999999999990905
 20
-3776.9999999999968168
 30
0.0
 11
2596.9999999999990905
 21
-3864.9999999999968168
 31
0.0
1001
ACDBBLOCKREPETAG
1070
     1
1071
        7
1005
127156
  0
LINE
  5
127157
  8
OBJECT
 10
2596.9999999999990905
 20
-3864.9999999999968168
 30
0.0
 11
2640.0
 21
-3864.9999999999968168
 31
0.0
1001
ACDBBLOCKREPETAG
1070
     1
1071
        8
1005
127157
  0
LINE
  5
127158
  8
OBJECT
 10
2593.0
 20
-3781.4999999999959073
 30
0.0
 11
2584.5
 21
-3781.4999999999959073
 31
0.0
1001
ACDBBLOCKREPETAG
1070
     1
1071
        9
1005
127158
  0
LINE
  5
127159
  8
OBJECT
 10
2584.5
 20
-3860.4999999999959073
 30
0.0
 11
2593.0
 21
-3860.4999999999959073
 31
0.0
1001
ACDBBLOCKREPETAG
1070
     1
1071
       10
1005
127159
  0
LINE
  5
12715A
  8
OBJECT
 10
2593.0
 20
-3860.4999999999959073
 30
0.0
 11
2593.0
 21
-3781.4999999999959073
 31
0.0
1001
ACDBBLOCKREPETAG
1070
     1
1071
       11
1005
12715A
  0
LINE
  5
12715B
  8
OBJECT
 10
2596.9999999999990905
 20
-3776.9999999999968168
 30
0.0
 11
2593.0
 21
-3781.4999999999959073
 31
0.0
1001
ACDBBLOCKREPETAG
1070
     1
1071
       12
1005
12715B
  0
LINE
  5
12715C
  8
OBJECT
 10
2596.9999999999990905
 20
-3864.9999999999968168
 30
0.0
 11
2593.0
 21
-3860.4999999999959073
 31
0.0
1001
ACDBBLOCKREPETAG
1070
     1
1071
       13
1005
12715C
  0
LINE
  5
12715D
  8
HIDDEN
 10
2588.0
 20
-3790.9999999999959073
 30
0.0
 11
2588.0
 21
-3850.9999999999959073
 31
0.0
1001
ACDBBLOCKREPETAG
1070
     1
1071
       14
1005
12715D
  0
ARC
  5
12715E
  8
OBJECT
 10
2664.8782728787741689
 20
-3821.4095072612249169
 30
0.0
 40
110.866352283089995
 50
144.1634274191434031
 51
163.0403538043316871
1001
ACDBBLOCKREPETAG
1070
     1
1071
       15
1005
12715E
  0
ARC
  5
12715F
  8
OBJECT
 10
2617.1359887769071975
 20
-3806.2877497184449567
 30
0.0
 40
60.7917498803589567
 50
163.5472046522266965
 51
179.7287969828267933
1001
ACDBBLOCKREPETAG
1070
     1
1071
       16
1005
12715F
  0
ARC
  5
127160
  8
OBJECT
 10
2617.1359956562478146
 20
-3812.7122497598970767
 30
0.0
 40
60.7917567620948702
 50
180.2712034781451962
 51
196.4527794605338045
1001
ACDBBLOCKREPETAG
1070
     1
1071
       17
1005
127160
  0
ARC
  5
127161
  8
OBJECT
 10
2664.8782728787741689
 20
-3797.590492738832836
 30
0.0
 40
110.8663522830916008
 50
196.9596461956681139
 51
215.8365725808565969
1001
ACDBBLOCKREPETAG
1070
     1
1071
       18
1005
127161
  0
LINE
  5
127162
  8
OBJECT
 10
2556.3449199130041052
 20
-3806.0000000000331966
 30
0.0
 11
2556.3449199130041052
 21
-3813.0000000000291038
 31
0.0
1001
ACDBBLOCKREPETAG
1070
     1
1071
       19
1005
127162
  0
LINE
  5
127163
  8
OBJECT
 10
2575.0
 20
-3756.5000000000618456
 30
0.0
 11
2581.5
 21
-3756.5000000000618456
 31
0.0
1001
ACDBBLOCKREPETAG
1070
     1
1071
       20
1005
127163
  0
LINE
  5
127164
  8
OBJECT
 10
2575.0
 20
-3862.4999999999968168
 30
0.0
 11
2584.5
 21
-3862.4999999999968168
 31
0.0
1001
ACDBBLOCKREPETAG
1070
     1
1071
       21
1005
127164
  0
LINE
  5
127165
  8
OBJECT
 10
2633.0
 20
-3412.9999999999968168
 30
0.0
 11
2640.0
 21
-3412.9999999999968168
 31
0.0
1001
ACDBBLOCKREPETAG
1070
     1
1071
        0
1005
127165
  0
LINE
  5
127166
  8
OBJECT
 10
2640.0
 20
-3412.9999999999968168
 30
0.0
 11
2640.0
 21
-3506.9999999999968168
 31
0.0
1001
ACDBBLOCKREPETAG
1070
     1
1071
        1
1005
127166
  0
LINE
  5
127167
  8
OBJECT
 10
2640.0
 20
-3506.9999999999968168
 30
0.0
 11
2633.0
 21
-3506.9999999999968168
 31
0.0
1001
ACDBBLOCKREPETAG
1070
     1
1071
        2
1005
127167
  0
LINE
  5
127168
  8
OBJECT
 10
2633.0
 20
-3506.9999999999968168
 30
0.0
 11
2633.0
 21
-3412.9999999999968168
 31
0.0
1001
ACDBBLOCKREPETAG
1070
     1
1071
        3
1005
127168
  0
LINE
  5
127169
  8
CENTER
 10
2655.0
 20
-3459.9999999999968168
 30
0.0
 11
2580.0
 21
-3459.9999999999968168
 31
0.0
1001
ACDBBLOCKREPETAG
1070
     1
1071
        4
1005
127169
  0
LINE
  5
12716A
  8
OBJECT
 10
2633.0
 20
-3415.9999999999959073
 30
0.0
 11
2596.9999999999990905
 21
-3415.9999999999959073
 31
0.0
1001
ACDBBLOCKREPETAG
1070
     1
1071
        5
1005
12716A
  0
LINE
  5
12716B
  8
OBJECT
 10
2596.9999999999990905
 20
-3415.9999999999959073
 30
0.0
 11
2596.9999999999990905
 21
-3503.9999999999959073
 31
0.0
1001
ACDBBLOCKREPETAG
1070
     1
1071
        6
1005
12716B
  0
LINE
  5
12716C
  8
OBJECT
 10
2596.9999999999990905
 20
-3503.9999999999959073
 30
0.0
 11
2633.0
 21
-3503.9999999999959073
 31
0.0
1001
ACDBBLOCKREPETAG
1070
     1
1071
        7
1005
12716C
  0
LINE
  5
12716D
  8
OBJECT
 10
2593.0
 20
-3420.4999999999959073
 30
0.0
 11
2584.5
 21
-3420.4999999999959073
 31
0.0
1001
ACDBBLOCKREPETAG
1070
     1
1071
        8
1005
12716D
  0
LINE
  5
12716E
  8
OBJECT
 10
2584.5
 20
-3499.4999999999959073
 30
0.0
 11
2593.0
 21
-3499.4999999999959073
 31
0.0
1001
ACDBBLOCKREPETAG
1070
     1
1071
        9
1005
12716E
  0
LINE
  5
12716F
  8
OBJECT
 10
2593.0
 20
-3499.4999999999959073
 30
0.0
 11
2593.0
 21
-3420.4999999999959073
 31
0.0
1001
ACDBBLOCKREPETAG
1070
     1
1071
       10
1005
12716F
  0
LINE
  5
127170
  8
OBJECT
 10
2596.9999999999990905
 20
-3415.9999999999959073
 30
0.0
 11
2593.0
 21
-3420.4999999999959073
 31
0.0
1001
ACDBBLOCKREPETAG
1070
     1
1071
       11
1005
127170
  0
LINE
  5
127171
  8
OBJECT
 10
2596.9999999999990905
 20
-3503.9999999999959073
 30
0.0
 11
2593.0
 21
-3499.4999999999959073
 31
0.0
1001
ACDBBLOCKREPETAG
1070
     1
1071
       12
1005
127171
  0
LINE
  5
127172
  8
OBJECT
 10
2584.499999999998181
 20
-3506.4999999999959073
 30
0.0
 11
2584.5
 21
-3413.4999999999959073
 31
0.0
1001
ACDBBLOCKREPETAG
1070
     1
1071
       13
1005
127172
  0
ARC
  5
127173
  8
OBJECT
 10
2581.5
 20
-3413.4999999999959073
 30
0.0
 40
3.0
 50
0.0
 51
90.0
1001
ACDBBLOCKREPETAG
1070
     1
1071
       14
1005
127173
  0
LINE
  5
127174
  8
HIDDEN
 10
2588.0
 20
-3429.9999999999959073
 30
0.0
 11
2588.0
 21
-3489.9999999999968168
 31
0.0
1001
ACDBBLOCKREPETAG
1070
     1
1071
       15
1005
127174
  0
LINE
  5
127175
  8
OBJECT
 10
2581.5
 20
-3410.4999999999959073
 30
0.0
 11
2556.3449199129800036
 21
-3410.4999999999959073
 31
0.0
1001
ACDBBLOCKREPETAG
1070
     1
1071
       17
1005
127175
  0
LINE
  5
127176
  8
OBJECT
 10
2581.499999999998181
 20
-3509.4999999999959073
 30
0.0
 11
2556.3449199129800036
 21
-3509.4999999999959073
 31
0.0
1001
ACDBBLOCKREPETAG
1070
     1
1071
       18
1005
127176
  0
ARC
  5
127177
  8
OBJECT
 10
2581.499999999998181
 20
-3506.4999999999959073
 30
0.0
 40
3.0
 50
270.0
 51
0.0
1001
ACDBBLOCKREPETAG
1070
     1
1071
       19
1005
127177
  0
LINE
  5
127178
  8
CENTER
 10
5077.0
 20
-695.9999999999943157
 30
0.0
 11
4923.0
 21
-695.9999999999943157
 31
0.0
1001
ACDBBLOCKREPETAG
1070
     1
1071
       17
1005
127178
  0
CIRCLE
  5
127179
  8
OBJECT
 10
5000.0
 20
-695.9999999999943157
 30
0.0
 40
41.5
1001
ACDBBLOCKREPETAG
1070
     1
1071
       19
1005
127179
  0
CIRCLE
  5
12717A
  8
OBJECT
 10
5000.0
 20
-695.9999999999943157
 30
0.0
 40
54.0
1001
ACDBBLOCKREPETAG
1070
     1
1071
       20
1005
12717A
  0
ARC
  5
12717B
  8
OBJECT
 10
5000.0
 20
-695.9999999999943157
 30
0.0
 40
62.0
 50
287.8965511292071824
 51
252.1034488707927892
1001
ACDBBLOCKREPETAG
1070
     1
1071
       21
1005
12717B
  0
LINE
  5
12717C
  8
OBJECT
 10
4980.947441116742084
 20
-754.999999999994202
 30
0.0
 11
5019.052558883257916
 21
-754.999999999994202
 31
0.0
1001
ACDBBLOCKREPETAG
1070
     1
1071
       22
1005
12717C
  0
LINE
  5
12717D
  8
OBJECT
 10
4633.0
 20
-634.0
 30
0.0
 11
4640.0
 21
-634.0
 31
0.0
1001
ACDBBLOCKREPETAG
1070
     1
1071
       45
1005
12717D
  0
LINE
  5
12717E
  8
OBJECT
 10
4640.0
 20
-634.0
 30
0.0
 11
4640.0
 21
-755.0
 31
0.0
1001
ACDBBLOCKREPETAG
1070
     1
1071
       46
1005
12717E
  0
LINE
  5
12717F
  8
OBJECT
 10
4633.0
 20
-755.0
 30
0.0
 11
4633.0
 21
-634.0
 31
0.0
1001
ACDBBLOCKREPETAG
1070
     1
1071
       47
1005
12717F
  0
LINE
  5
127180
  8
CENTER
 10
4655.0
 20
-696.0
 30
0.0
 11
4571.0
 21
-696.0
 31
0.0
1001
ACDBBLOCKREPETAG
1070
     1
1071
       48
1005
127180
  0
LINE
  5
127181
  8
OBJECT
 10
4633.0
 20
-637.0
 30
0.0
 11
4597.0
 21
-637.0
 31
0.0
1001
ACDBBLOCKREPETAG
1070
     1
1071
       49
1005
127181
  0
LINE
  5
127182
  8
OBJECT
 10
4597.0
 20
-637.0
 30
0.0
 11
4597.0
 21
-755.0
 31
0.0
1001
ACDBBLOCKREPETAG
1070
     1
1071
       50
1005
127182
  0
LINE
  5
127183
  8
OBJECT
 10
4597.0
 20
-755.0
 30
0.0
 11
4640.0
 21
-755.0
 31
0.0
1001
ACDBBLOCKREPETAG
1070
     1
1071
       51
1005
127183
  0
LINE
  5
127184
  8
OBJECT
 10
4593.0
 20
-641.5
 30
0.0
 11
4586.0
 21
-641.5
 31
0.0
1001
ACDBBLOCKREPETAG
1070
     1
1071
       52
1005
127184
  0
LINE
  5
127185
  8
OBJECT
 10
4586.0
 20
-750.4999999999998863
 30
0.0
 11
4593.0
 21
-750.4999999999998863
 31
0.0
1001
ACDBBLOCKREPETAG
1070
     1
1071
       53
1005
127185
  0
LINE
  5
127186
  8
OBJECT
 10
4593.0
 20
-750.4999999999998863
 30
0.0
 11
4593.0
 21
-641.5
 31
0.0
1001
ACDBBLOCKREPETAG
1070
     1
1071
       54
1005
127186
  0
LINE
  5
127187
  8
OBJECT
 10
4597.0
 20
-637.0
 30
0.0
 11
4593.0
 21
-641.5
 31
0.0
1001
ACDBBLOCKREPETAG
1070
     1
1071
       55
1005
127187
  0
LINE
  5
127188
  8
OBJECT
 10
4597.0
 20
-755.0
 30
0.0
 11
4593.0
 21
-750.4999999999998863
 31
0.0
1001
ACDBBLOCKREPETAG
1070
     1
1071
       56
1005
127188
  0
LINE
  5
127189
  8
OBJECT
 10
4583.0
 20
-634.0
 30
0.0
 11
4580.0
 21
-634.0
 31
0.0
1001
ACDBBLOCKREPETAG
1070
     1
1071
       57
1005
127189
  0
ARC
  5
12718A
  8
OBJECT
 10
4583.0
 20
-637.0
 30
0.0
 40
3.0
 50
0.0
 51
90.0
1001
ACDBBLOCKREPETAG
1070
     1
1071
       58
1005
12718A
  0
LINE
  5
12718B
  8
OBJECT
 10
4580.0
 20
-758.0
 30
0.0
 11
4583.0
 21
-758.0
 31
0.0
1001
ACDBBLOCKREPETAG
1070
     1
1071
       59
1005
12718B
  0
ARC
  5
12718C
  8
OBJECT
 10
4583.0
 20
-755.0
 30
0.0
 40
3.0
 50
270.0
 51
0.0
1001
ACDBBLOCKREPETAG
1070
     1
1071
       60
1005
12718C
  0
LINE
  5
12718D
  8
OBJECT
 10
4586.0
 20
-755.0
 30
0.0
 11
4586.0
 21
-637.0
 31
0.0
1001
ACDBBLOCKREPETAG
1070
     1
1071
       61
1005
12718D
  0
LINE
  5
12718E
  8
HIDDEN
 10
4588.0
 20
-651.5
 30
0.0
 11
4588.0
 21
-740.5
 31
0.0
1001
ACDBBLOCKREPETAG
1070
     1
1071
       63
1005
12718E
  0
LINE
  5
12718F
  8
CENTER
 10
3077.0
 20
-695.9999999999943157
 30
0.0
 11
2923.0
 21
-695.9999999999943157
 31
0.0
1001
ACDBBLOCKREPETAG
1070
     1
1071
       17
1005
12718F
  0
CIRCLE
  5
127190
  8
OBJECT
 10
3000.0
 20
-695.9999999999943157
 30
0.0
 40
41.5
1001
ACDBBLOCKREPETAG
1070
     1
1071
       19
1005
127190
  0
CIRCLE
  5
127191
  8
OBJECT
 10
3000.0
 20
-695.9999999999943157
 30
0.0
 40
54.0
1001
ACDBBLOCKREPETAG
1070
     1
1071
       20
1005
127191
  0
ARC
  5
127192
  8
OBJECT
 10
3000.0
 20
-695.9999999999943157
 30
0.0
 40
62.0
 50
287.8965511292071824
 51
252.1034488707927892
1001
ACDBBLOCKREPETAG
1070
     1
1071
       21
1005
127192
  0
LINE
  5
127193
  8
OBJECT
 10
2980.9474411167429935
 20
-754.999999999994202
 30
0.0
 11
3019.0525588832570065
 21
-754.999999999994202
 31
0.0
1001
ACDBBLOCKREPETAG
1070
     1
1071
       22
1005
127193
  0
TEXT
  5
127194
  8
SLIM
 10
149.1428571427966006
 20
-443.999999999849706
 30
0.0
 40
48.0
  1
A3
 41
0.75
1001
ACDBBLOCKREPETAG
1070
     1
1071
      119
1005
0
  0
LINE
  5
127195
  8
OBJECT
 10
2633.0
 20
-137.9999999999990905
 30
0.0
 11
2640.0
 21
-137.9999999999990905
 31
0.0
1001
ACDBBLOCKREPETAG
1070
     1
1071
       47
1005
127195
  0
LINE
  5
127196
  8
OBJECT
 10
2640.0
 20
-137.9999999999990905
 30
0.0
 11
2640.0
 21
-261.9999999999990905
 31
0.0
1001
ACDBBLOCKREPETAG
1070
     1
1071
       48
1005
127196
  0
LINE
  5
127197
  8
OBJECT
 10
2640.0
 20
-261.9999999999990905
 30
0.0
 11
2633.0
 21
-261.9999999999990905
 31
0.0
1001
ACDBBLOCKREPETAG
1070
     1
1071
       49
1005
127197
  0
LINE
  5
127198
  8
OBJECT
 10
2633.0
 20
-261.9999999999990905
 30
0.0
 11
2633.0
 21
-137.9999999999990905
 31
0.0
1001
ACDBBLOCKREPETAG
1070
     1
1071
       50
1005
127198
  0
LINE
  5
127199
  8
CENTER
 10
2655.0
 20
-199.9999999999990905
 30
0.0
 11
2580.0
 21
-199.9999999999990905
 31
0.0
1001
ACDBBLOCKREPETAG
1070
     1
1071
       51
1005
127199
  0
LINE
  5
12719A
  8
OBJECT
 10
2633.0
 20
-140.9999999999990905
 30
0.0
 11
2597.0
 21
-140.9999999999990905
 31
0.0
1001
ACDBBLOCKREPETAG
1070
     1
1071
       52
1005
12719A
  0
LINE
  5
12719B
  8
OBJECT
 10
2597.0
 20
-140.9999999999990905
 30
0.0
 11
2597.0
 21
-258.9999999999990905
 31
0.0
1001
ACDBBLOCKREPETAG
1070
     1
1071
       53
1005
12719B
  0
LINE
  5
12719C
  8
OBJECT
 10
2597.0
 20
-258.9999999999990905
 30
0.0
 11
2633.0
 21
-258.9999999999990905
 31
0.0
1001
ACDBBLOCKREPETAG
1070
     1
1071
       54
1005
12719C
  0
LINE
  5
12719D
  8
OBJECT
 10
2593.0
 20
-145.4999999999990905
 30
0.0
 11
2586.0
 21
-145.4999999999990905
 31
0.0
1001
ACDBBLOCKREPETAG
1070
     1
1071
       55
1005
12719D
  0
LINE
  5
12719E
  8
OBJECT
 10
2586.0
 20
-254.4999999999990905
 30
0.0
 11
2593.0
 21
-254.4999999999990905
 31
0.0
1001
ACDBBLOCKREPETAG
1070
     1
1071
       56
1005
12719E
  0
LINE
  5
12719F
  8
OBJECT
 10
2593.0
 20
-254.4999999999990905
 30
0.0
 11
2593.0
 21
-145.4999999999990905
 31
0.0
1001
ACDBBLOCKREPETAG
1070
     1
1071
       57
1005
12719F
  0
LINE
  5
1271A0
  8
OBJECT
 10
2597.0
 20
-140.9999999999990905
 30
0.0
 11
2593.0
 21
-145.4999999999990905
 31
0.0
1001
ACDBBLOCKREPETAG
1070
     1
1071
       58
1005
1271A0
  0
LINE
  5
1271A1
  8
OBJECT
 10
2597.0
 20
-258.9999999999990905
 30
0.0
 11
2593.0
 21
-254.4999999999990905
 31
0.0
1001
ACDBBLOCKREPETAG
1070
     1
1071
       59
1005
1271A1
  0
LINE
  5
1271A2
  8
OBJECT
 10
2583.0
 20
-137.9999999999990905
 30
0.0
 11
2580.0
 21
-137.9999999999990905
 31
0.0
1001
ACDBBLOCKREPETAG
1070
     1
1071
       60
1005
1271A2
  0
ARC
  5
1271A3
  8
OBJECT
 10
2583.0
 20
-140.9999999999990905
 30
0.0
 40
3.0
 50
0.0
 51
90.0
1001
ACDBBLOCKREPETAG
1070
     1
1071
       61
1005
1271A3
  0
LINE
  5
1271A4
  8
OBJECT
 10
2580.0
 20
-261.9999999999990905
 30
0.0
 11
2583.0
 21
-261.9999999999990905
 31
0.0
1001
ACDBBLOCKREPETAG
1070
     1
1071
       62
1005
1271A4
  0
ARC
  5
1271A5
  8
OBJECT
 10
2583.0
 20
-258.9999999999990905
 30
0.0
 40
3.0
 50
270.0
 51
0.0
1001
ACDBBLOCKREPETAG
1070
     1
1071
       63
1005
1271A5
  0
LINE
  5
1271A6
  8
OBJECT
 10
2586.0
 20
-258.9999999999990905
 30
0.0
 11
2586.0
 21
-140.9999999999990905
 31
0.0
1001
ACDBBLOCKREPETAG
1070
     1
1071
       64
1005
1271A6
  0
LINE
  5
1271A7
  8
HIDDEN
 10
2588.0
 20
-155.4999999999990905
 30
0.0
 11
2588.0
 21
-244.4999999999990905
 31
0.0
1001
ACDBBLOCKREPETAG
1070
     1
1071
       65
1005
1271A7
  0
LINE
  5
1271A8
  8
OBJECT
 10
2633.0
 20
-634.0
 30
0.0
 11
2640.0
 21
-634.0
 31
0.0
1001
ACDBBLOCKREPETAG
1070
     1
1071
       45
1005
1271A8
  0
LINE
  5
1271A9
  8
OBJECT
 10
2640.0
 20
-634.0
 30
0.0
 11
2640.0
 21
-755.0
 31
0.0
1001
ACDBBLOCKREPETAG
1070
     1
1071
       46
1005
1271A9
  0
LINE
  5
1271AA
  8
OBJECT
 10
2633.0
 20
-755.0
 30
0.0
 11
2633.0
 21
-634.0
 31
0.0
1001
ACDBBLOCKREPETAG
1070
     1
1071
       47
1005
1271AA
  0
LINE
  5
1271AB
  8
CENTER
 10
2655.0
 20
-696.0
 30
0.0
 11
2571.0
 21
-696.0
 31
0.0
1001
ACDBBLOCKREPETAG
1070
     1
1071
       48
1005
1271AB
  0
LINE
  5
1271AC
  8
OBJECT
 10
2633.0
 20
-637.0
 30
0.0
 11
2597.0
 21
-637.0
 31
0.0
1001
ACDBBLOCKREPETAG
1070
     1
1071
       49
1005
1271AC
  0
LINE
  5
1271AD
  8
OBJECT
 10
2597.0
 20
-637.0
 30
0.0
 11
2597.0
 21
-755.0
 31
0.0
1001
ACDBBLOCKREPETAG
1070
     1
1071
       50
1005
1271AD
  0
LINE
  5
1271AE
  8
OBJECT
 10
2597.0
 20
-755.0
 30
0.0
 11
2640.0
 21
-755.0
 31
0.0
1001
ACDBBLOCKREPETAG
1070
     1
1071
       51
1005
1271AE
  0
LINE
  5
1271AF
  8
OBJECT
 10
2593.0
 20
-641.5
 30
0.0
 11
2586.0
 21
-641.5
 31
0.0
1001
ACDBBLOCKREPETAG
1070
     1
1071
       52
1005
1271AF
  0
LINE
  5
1271B0
  8
OBJECT
 10
2586.0
 20
-750.4999999999998863
 30
0.0
 11
2593.0
 21
-750.4999999999998863
 31
0.0
1001
ACDBBLOCKREPETAG
1070
     1
1071
       53
1005
1271B0
  0
LINE
  5
1271B1
  8
OBJECT
 10
2593.0
 20
-750.4999999999998863
 30
0.0
 11
2593.0
 21
-641.5
 31
0.0
1001
ACDBBLOCKREPETAG
1070
     1
1071
       54
1005
1271B1
  0
LINE
  5
1271B2
  8
OBJECT
 10
2597.0
 20
-637.0
 30
0.0
 11
2593.0
 21
-641.5
 31
0.0
1001
ACDBBLOCKREPETAG
1070
     1
1071
       55
1005
1271B2
  0
LINE
  5
1271B3
  8
OBJECT
 10
2597.0
 20
-755.0
 30
0.0
 11
2593.0
 21
-750.4999999999998863
 31
0.0
1001
ACDBBLOCKREPETAG
1070
     1
1071
       56
1005
1271B3
  0
LINE
  5
1271B4
  8
OBJECT
 10
2583.0
 20
-634.0
 30
0.0
 11
2580.0
 21
-634.0
 31
0.0
1001
ACDBBLOCKREPETAG
1070
     1
1071
       57
1005
1271B4
  0
ARC
  5
1271B5
  8
OBJECT
 10
2583.0
 20
-637.0
 30
0.0
 40
3.0
 50
0.0
 51
90.0
1001
ACDBBLOCKREPETAG
1070
     1
1071
       58
1005
1271B5
  0
LINE
  5
1271B6
  8
OBJECT
 10
2580.0
 20
-758.0
 30
0.0
 11
2583.0
 21
-758.0
 31
0.0
1001
ACDBBLOCKREPETAG
1070
     1
1071
       59
1005
1271B6
  0
ARC
  5
1271B7
  8
OBJECT
 10
2583.0
 20
-755.0
 30
0.0
 40
3.0
 50
270.0
 51
0.0
1001
ACDBBLOCKREPETAG
1070
     1
1071
       60
1005
1271B7
  0
LINE
  5
1271B8
  8
OBJECT
 10
2586.0
 20
-755.0
 30
0.0
 11
2586.0
 21
-637.0
 31
0.0
1001
ACDBBLOCKREPETAG
1070
     1
1071
       61
1005
1271B8
  0
LINE
  5
1271B9
  8
HIDDEN
 10
2588.0
 20
-651.5
 30
0.0
 11
2588.0
 21
-740.5
 31
0.0
1001
ACDBBLOCKREPETAG
1070
     1
1071
       63
1005
1271B9
  0
TEXT
  5
1271BA
  8
SLIM
 10
0.0000035665234464
 20
24.0000045853176012
 30
0.0
 40
79.9999999999727152
  1
上部枝管
 41
0.75
1001
ACDBBLOCKREPETAG
1070
     1
1071
      119
1005
120BCB
  0
LINE
  5
1271BB
  8
DIM
 10
2650.0
 20
-3506.9999999999968168
 30
0.0
 11
2728.4796205944589929
 21
-3506.9999999999968168
 31
0.0
  0
LINE
  5
1271BC
  8
DIM
 10
2650.0
 20
-3412.9999999999968168
 30
0.0
 11
2728.4796205944589929
 21
-3412.9999999999968168
 31
0.0
  0
LINE
  5
1271BD
  8
DIM
 10
2718.4796205944589929
 20
-3486.9999999999959073
 30
0.0
 11
2718.4796205944589929
 21
-3432.9999999999959073
 31
0.0
  0
INSERT
  5
1271BE
  8
DIM
  2
_OPEN30
 10
2718.4796205944589929
 20
-3506.9999999999968168
 30
0.0
 41
20.0
 42
20.0
 43
20.0
 50
270.0
  0
INSERT
  5
1271BF
  8
DIM
  2
_OPEN30
 10
2718.4796205944589929
 20
-3412.9999999999968168
 30
0.0
 41
20.0
 42
20.0
 43
20.0
 50
90.0
  0
INSERT
  5
1271C0
  8
SLIM
  2
*U35
 10
0.0
 20
0.0
 30
0.0
  0
LINE
  5
1271C1
  8
DIM
 10
2650.0
 20
-3864.9999999999968168
 30
0.0
 11
2726.8409284037338693
 21
-3864.9999999999968168
 31
0.0
  0
LINE
  5
1271C2
  8
DIM
 10
2665.0
 20
-3820.9999999999968168
 30
0.0
 11
2726.8409284037338693
 21
-3820.9999999999968168
 31
0.0
  0
LINE
  5
1271C3
  8
DIM
 10
2716.8409284037338693
 20
-3884.9999999999990905
 30
0.0
 11
2716.8409284037338693
 21
-3904.9999999999968168
 31
0.0
  0
LINE
  5
1271C4
  8
DIM
 10
2716.8409284037338693
 20
-3800.999999999998181
 30
0.0
 11
2716.8409284037338693
 21
-3780.9999999999968168
 31
0.0
  0
LINE
  5
1271C5
  8
DIM
 10
2716.8409284037338693
 20
-3864.9999999999968168
 30
0.0
 11
2716.8409284037338693
 21
-3820.9999999999968168
 31
0.0
  0
INSERT
  5
1271C6
  8
DIM
  2
_OPEN30
 10
2716.8409284037338693
 20
-3864.9999999999968168
 30
0.0
 41
20.0
 42
20.0
 43
20.0
 50
90.0
  0
INSERT
  5
1271C7
  8
DIM
  2
_OPEN30
 10
2716.8409284037338693
 20
-3820.9999999999968168
 30
0.0
 41
20.0
 42
20.0
 43
20.0
 50
270.0
  0
INSERT
  5
1271C8
  8
SLIM
  2
*U36
 10
0.0
 20
0.0
 30
0.0
  0
LINE
  5
1271C9
  8
DIM
 10
2500.0
 20
-3359.9999999999968168
 30
0.0
 11
2500.0
 21
-3322.2081219844449151
 31
0.0
  0
LINE
  5
1271CA
  8
DIM
 10
2640.0
 20
-3402.9999999999968168
 30
0.0
 11
2640.0
 21
-3322.2081219844449151
 31
0.0
  0
LINE
  5
1271CB
  8
DIM
 10
2520.0
 20
-3332.2081219844440056
 30
0.0
 11
2620.0
 21
-3332.2081219844440056
 31
0.0
  0
INSERT
  5
1271CC
  8
DIM
  2
_OPEN30
 10
2500.0
 20
-3332.2081219844440056
 30
0.0
 41
20.0
 42
20.0
 43
20.0
 50
180.0
  0
INSERT
  5
1271CD
  8
DIM
  2
_OPEN30
 10
2640.0
 20
-3332.2081219844440056
 30
0.0
 41
20.0
 42
20.0
 43
20.0
  0
INSERT
  5
1271CE
  8
SLIM
  2
*U37
 10
0.0
 20
0.0
 30
0.0
  0
TEXT
  5
1271CF
  8
SLIM
 10
3270.9999999999990905
 20
-3237.5000160472709467
 30
0.0
 40
40.0
  1
C寸法
 41
0.75
  0
TEXT
  5
1271D0
  8
SLIM
 10
3270.9999999999990905
 20
-3167.5000160472709467
 30
0.0
 40
40.0
  1
B寸法
 41
0.75
  0
TEXT
  5
1271D1
  8
SLIM
 10
3270.2857142857151302
 20
-3097.5000160472709467
 30
0.0
 40
40.0
  1
A寸法
 41
0.75
  0
TEXT
  5
1271D2
  8
SLIM
 10
3669.2857142857142208
 20
-3237.5000160472709467
 30
0.0
 40
40.0
  1
140
 41
0.75
  0
TEXT
  5
1271D3
  8
SLIM
 10
3409.2857142857151302
 20
-3237.5000160472709467
 30
0.0
 40
40.0
  1
140
 41
0.75
  0
TEXT
  5
1271D4
  8
SLIM
 10
3539.2857142857151302
 20
-3237.5000160472709467
 30
0.0
 40
40.0
  1
140
 41
0.75
  0
TEXT
  5
1271D5
  8
SLIM
 10
3681.4285714285711038
 20
-3167.5000160472709467
 30
0.0
 40
40.0
  1
59
 41
0.75
  0
TEXT
  5
1271D6
  8
SLIM
 10
3420.0
 20
-3167.5000160472709467
 30
0.0
 40
40.0
  1
44
 41
0.75
  0
TEXT
  5
1271D7
  8
SLIM
 10
3550.7142857142848698
 20
-3167.5000160472709467
 30
0.0
 40
40.0
  1
52
 41
0.75
  0
TEXT
  5
1271D8
  8
SLIM
 10
3471.0
 20
-2972.5000160472709467
 30
0.0
 40
40.0
  1
横枝管サイズ
 41
0.75
  0
TEXT
  5
1271D9
  8
SLIM
 10
3654.8571428571422075
 20
-3027.5000160472700372
 30
0.0
 40
30.0
  1
75（3）
 41
0.75
  0
TEXT
  5
1271DA
  8
SLIM
 10
3524.8571428571422075
 20
-3027.5000160472700372
 30
0.0
 40
30.0
  1
65（2）
 41
0.75
  0
TEXT
  5
1271DB
  8
SLIM
 10
3397.0
 20
-3027.5000160472700372
 30
0.0
 40
30.0
  1
50（1）
 41
0.75
  0
TEXT
  5
1271DC
  8
SLIM
 10
3668.5714285714288962
 20
-3097.5000160472709467
 30
0.0
 40
40.0
  1
124
 41
0.75
  0
TEXT
  5
1271DD
  8
SLIM
 10
3420.0
 20
-3097.5000160472709467
 30
0.0
 40
40.0
  1
94
 41
0.75
  0
TEXT
  5
1271DE
  8
SLIM
 10
3542.1428571428559735
 20
-3097.5000160472709467
 30
0.0
 40
40.0
  1
110
 41
0.75
  0
TEXT
  5
1271DF
  8
SLIM
 10
2350.0
 20
-2997.5
 30
0.0
 40
75.0
  1
下部枝管サイズ毎の形状
 41
0.75
  0
TEXT
  5
1271E0
  8
SLIM
 10
4394.25
 20
-3982.4999999999968168
 30
0.0
 40
35.0
  1
通常枝75（3）
 41
0.75
  0
TEXT
  5
1271E1
  8
SLIM
 10
3394.2499999999990905
 20
-3982.4999999999968168
 30
0.0
 40
35.0
  1
通常枝65（2）
 41
0.75
  0
TEXT
  5
1271E2
  8
SLIM
 10
2396.75
 20
-3982.4999999999968168
 30
0.0
 40
35.0
  1
通常枝50（1）
 41
0.75
  0
TEXT
  5
1271E3
  8
SLIM
 10
2337.75
 20
282.5000000000001137
 30
0.0
 40
35.0
  1
（枝管サイズ毎に寸法が異なります。管底の位置は全サイズで同じです）
 41
0.75
  0
TEXT
  5
1271E4
  8
SLIM
 10
2350.0
 20
532.5
 30
0.0
 40
75.0
  1
側面図の代表機種
 41
0.75
  0
TEXT
  5
1271E5
  8
SLIM
 10
2350.0
 20
369.9999999999998863
 30
0.0
 40
100.0
  1
4SRT2-A3-C0022-P440
 41
0.75
  0
TEXT
  5
1271E6
  8
SLIM
 10
4241.6249999999990905
 20
-1752.4999999999979536
 30
0.0
 40
35.0
  1
片受けスタイル（S）＋シンドカット
 41
0.75
  0
TEXT
  5
1271E7
  8
SLIM
 10
2356.25
 20
-1752.4999999999979536
 30
0.0
 40
35.0
  1
片受けスタイル（S）
 41
0.75
  0
TEXT
  5
1271E8
  8
SLIM
 10
0.0
 20
369.9999999999998863
 30
0.0
 40
100.0
  1
4SRT2-A3-C00XX-PXXX-S
 41
0.75
  0
VIEWPORT
  5
F6BA7
 67
     1
  8
0
 10
195.9179030619629032
 20
101.8328354358671959
 30
0.0
 40
435.1776330165599802
 41
222.1965796813965142
 68
     1
 69
     1
1001
ACAD
1000
MVIEW
1002
{
1070
    16
1010
0.0
1020
0.0
1030
0.0
1010
0.0
1020
0.0
1030
1.0
1040
0.0
1040
222.1965796813965142
1040
195.9179030619629032
1040
101.8328354358671959
1040
50.0
1040
0.0
1040
0.0
1070
     0
1070
     0
1070
     1
1070
     1
1070
     0
1070
     0
1070
     0
1070
     0
1040
0.0
1040
0.0
1040
0.0
1040
10.0
1040
10.0
1040
10.0
1040
10.0
1070
     0
1002
{
1002
}
1002
}
  0
VIEWPORT
  5
F6BA9
 67
     1
  8
OBJECT
 10
145.3303314447402954
 20
101.8328338861465028
 30
0.0
 40
232.5285303115844044
 41
162.9325342178343021
 68
     2
 69
     2
1001
ACAD
1000
MVIEW
1002
{
1070
    16
1010
0.0
1020
0.0
1030
0.0
1010
0.0
1020
0.0
1030
1.0
1040
0.0
1040
25942.5590440314699663
1040
2377.6044570773769919
1040
-7591.5176687056618903
1040
50.0
1040
0.0
1040
0.0
1070
     0
1070
   600
1070
     1
1070
     1
1070
     0
1070
     0
1070
     0
1070
     0
1040
0.0
1040
0.0
1040
0.0
1040
1.0
1040
1.0
1040
0.0
1040
0.0
1070
     0
1002
{
1002
}
1002
}
  0
ENDSEC
  0
EOF
