  0
SECTION
  2
HEADER
  9
$ACADVER
  1
AC1009
  9
$INSBASE
 10
0.0
 20
0.0
 30
0.0
  9
$EXTMIN
 10
0.0
 20
-3982.4999999999968168
 30
0.0
  9
$EXTMAX
 10
5107.5428571428556097
 20
607.5
 30
0.0
  9
$LIMMIN
 10
0.0
 20
0.0
  9
$LIMMAX
 10
210.0
 20
297.0
  9
$ORTHOMODE
 70
     0
  9
$REGENMODE
 70
     1
  9
$FILLMODE
 70
     1
  9
$QTEXTMODE
 70
     0
  9
$MIRRTEXT
 70
     0
  9
$DRAGMODE
 70
     2
  9
$LTSCALE
 40
1.0
  9
$OSMODE
 70
   295
  9
$ATTMODE
 70
     1
  9
$TEXTSIZE
 40
4.0
  9
$TRACEWID
 40
0.05
  9
$TEXTSTYLE
  7
STANDARD
  9
$CLAYER
  8
SLIM
  9
$CELTYPE
  6
BYLAYER
  9
$CECOLOR
 62
   256
  9
$DIMSCALE
 40
10.0
  9
$DIMASZ
 40
2.0
  9
$DIMEXO
 40
1.0
  9
$DIMDLI
 40
10.0
  9
$DIMRND
 40
0.0
  9
$DIMDLE
 40
0.0
  9
$DIMEXE
 40
1.0
  9
$DIMTP
 40
0.0
  9
$DIMTM
 40
0.0
  9
$DIMTXT
 40
3.2000000000000002
  9
$DIMCEN
 40
0.0
  9
$DIMTSZ
 40
0.0
  9
$DIMTOL
 70
     0
  9
$DIMLIM
 70
     0
  9
$DIMTIH
 70
     0
  9
$DIMTOH
 70
     0
  9
$DIMSE1
 70
     0
  9
$DIMSE2
 70
     0
  9
$DIMTAD
 70
     1
  9
$DIMZIN
 70
     8
  9
$DIMBLK
  1
OPEN30
  9
$DIMASO
 70
     1
  9
$DIMSHO
 70
     1
  9
$DIMPOST
  1

  9
$DIMAPOST
  1

  9
$DIMALT
 70
     0
  9
$DIMALTD
 70
     2
  9
$DIMALTF
 40
25.3999999999999986
  9
$DIMLFAC
 40
1.0
  9
$DIMTOFL
 70
     1
  9
$DIMTVP
 40
0.0
  9
$DIMTIX
 70
     0
  9
$DIMSOXD
 70
     0
  9
$DIMSAH
 70
     0
  9
$DIMBLK1
  1

  9
$DIMBLK2
  1

  9
$DIMSTYLE
  2
S10
  9
$DIMCLRD
 70
   256
  9
$DIMCLRE
 70
   256
  9
$DIMCLRT
 70
   256
  9
$DIMTFAC
 40
1.0
  9
$DIMGAP
 40
0.9
  9
$LUNITS
 70
     2
  9
$LUPREC
 70
     2
  9
$SKETCHINC
 40
0.1
  9
$FILLETRAD
 40
0.0
  9
$AUNITS
 70
     0
  9
$AUPREC
 70
     2
  9
$MENU
  1
ACAD
  9
$ELEVATION
 40
0.0
  9
$PELEVATION
 40
0.0
  9
$THICKNESS
 40
0.0
  9
$LIMCHECK
 70
     0
  9
$BLIPMODE
 70
     0
  9
$CHAMFERA
 40
2.0
  9
$CHAMFERB
 40
2.0
  9
$SKPOLY
 70
     0
  9
$TDCREATE
 40
2453095.4929398149251938
  9
$TDUPDATE
 40
2459942.6168518518097699
  9
$TDINDWG
 40
21.4652528935000007
  9
$TDUSRTIMER
 40
21.4652523494999983
  9
$USRTIMER
 70
     1
  9
$ANGBASE
 50
0.0
  9
$ANGDIR
 70
     0
  9
$PDMODE
 70
    35
  9
$PDSIZE
 40
2.0
  9
$PLINEWID
 40
0.0
  9
$COORDS
 70
     1
  9
$SPLFRAME
 70
     0
  9
$SPLINETYPE
 70
     6
  9
$SPLINESEGS
 70
     8
  9
$ATTDIA
 70
     1
  9
$ATTREQ
 70
     1
  9
$HANDLING
 70
     1
  9
$HANDSEED
  5
129255
  9
$SURFTAB1
 70
     6
  9
$SURFTAB2
 70
     6
  9
$SURFTYPE
 70
     6
  9
$SURFU
 70
     6
  9
$SURFV
 70
     6
  9
$UCSNAME
  2

  9
$UCSORG
 10
0.0
 20
0.0
 30
0.0
  9
$UCSXDIR
 10
1.0
 20
0.0
 30
0.0
  9
$UCSYDIR
 10
0.0
 20
1.0
 30
0.0
  9
$PUCSNAME
  2

  9
$PUCSORG
 10
0.0
 20
0.0
 30
0.0
  9
$PUCSXDIR
 10
1.0
 20
0.0
 30
0.0
  9
$PUCSYDIR
 10
0.0
 20
1.0
 30
0.0
  9
$USERI1
 70
     0
  9
$USERI2
 70
     0
  9
$USERI3
 70
     0
  9
$USERI4
 70
     0
  9
$USERI5
 70
     0
  9
$USERR1
 40
0.0
  9
$USERR2
 40
0.0
  9
$USERR3
 40
0.0
  9
$USERR4
 40
0.0
  9
$USERR5
 40
0.0
  9
$WORLDVIEW
 70
     1
  9
$SHADEDGE
 70
     3
  9
$SHADEDIF
 70
    70
  9
$TILEMODE
 70
     1
  9
$MAXACTVP
 70
    64
  9
$PLIMCHECK
 70
     0
  9
$PEXTMIN
 10
29.0660662889480506
 20
20.3665667772293091
 30
0.0
  9
$PEXTMAX
 10
261.5945966005324976
 20
183.2991009950638102
 30
0.0
  9
$PLIMMIN
 10
-3.17498779296875
 20
-3.1749999523162842
  9
$PLIMMAX
 10
293.835662841796875
 20
206.8406708240509033
  9
$UNITMODE
 70
     0
  9
$VISRETAIN
 70
     1
  9
$PLINEGEN
 70
     0
  9
$PSLTSCALE
 70
     1
  0
ENDSEC
  0
SECTION
  2
TABLES
  0
TABLE
  2
VPORT
 70
     1
  0
VPORT
  2
*ACTIVE
 70
     0
 10
0.0
 20
0.0
 11
1.0
 21
1.0
 12
3788.3181564765700386
 22
-1589.7872984779869512
 13
0.0
 23
0.0
 14
1.0
 24
1.0
 15
0.0
 25
0.0
 16
0.0
 26
0.0
 36
1.0
 17
0.0
 27
0.0
 37
0.0
 40
5029.4710724889064295
 41
2.1135135135135128
 42
50.0
 43
0.0
 44
0.0
 50
0.0
 51
0.0
 71
     0
 72
   600
 73
     1
 74
     1
 75
     0
 76
     0
 77
     0
 78
     0
  0
ENDTAB
  0
TABLE
  2
LTYPE
 70
     5
  0
LTYPE
  2
CONTINUOUS
 70
     0
  3
Solid line
 72
    65
 73
     0
 40
0.0
  0
LTYPE
  2
ACAD_ISO08W100
 70
     0
  3
ISO long-dash short-dash ____ __ ____ __ ____ _
 72
    65
 73
     4
 40
36.0
 49
24.0
 49
-3.0
 49
6.0
 49
-3.0
  0
LTYPE
  2
ACAD_ISO02W100
 70
     0
  3
ISO dash __ __ __ __ __ __ __ __ __ __ __ __ __
 72
    65
 73
     2
 40
15.0
 49
12.0
 49
-3.0
  0
ENDTAB
  0
TABLE
  2
LAYER
 70
    11
  0
LAYER
  2
0
 70
     0
 62
     7
  6
CONTINUOUS
  0
LAYER
  2
DEFPOINTS
 70
     0
 62
     7
  6
CONTINUOUS
  0
LAYER
  2
DIM
 70
     0
 62
     7
  6
CONTINUOUS
  0
LAYER
  2
OBJECT
 70
     0
 62
     4
  6
CONTINUOUS
  0
LAYER
  2
HIDDEN
 70
     0
 62
     2
  6
ACAD_ISO02W100
  0
LAYER
  2
CENTER
 70
     0
 62
     2
  6
ACAD_ISO08W100
  0
LAYER
  2
DOTS
 70
     0
 62
     1
  6
CONTINUOUS
  0
LAYER
  2
SLIM
 70
     0
 62
     2
  6
CONTINUOUS
  0
ENDTAB
  0
TABLE
  2
STYLE
 70
     4
  0
STYLE
  2
STANDARD
 70
     0
 40
0.0
 41
0.75
 50
0.0
 71
     0
 42
4.0
  3
simplex.shx
  4
bigfont.shx
  0
ENDTAB
  0
TABLE
  2
VIEW
 70
     1
  0
ENDTAB
  0
TABLE
  2
UCS
 70
     0
  0
ENDTAB
  0
TABLE
  2
APPID
 70
    20
  0
APPID
  2
ACAD
 70
     0
  0
APPID
  2
ACAD_PSEXT
 70
     0
  0
APPID
  2
ACAD_EXEMPT_FROM_CAD_STANDARDS
 70
     0
  0
APPID
  2
ACAECLAYERSTANDARD
 70
     0
  0
APPID
  2
ACAUTHENVIRON
 70
     0
  0
APPID
  2
ACDBDYNAMICBLOCKTRUENAME
 70
     0
  0
APPID
  2
ACDBDYNAMICBLOCKGUID
 70
     0
  0
APPID
  2
ACDBBLOCKREPETAG
 70
     0
  0
APPID
  2
ACDBBLOCKREPBTAG
 70
     0
  0
APPID
  2
ACAD_NAV_VCDISPLAY
 70
     0
  0
APPID
  2
ACAD_DSTYLE_DIMRADIAL_EXTENSION
 70
     0
  0
APPID
  2
ACAD_DSTYLE_DIMJAG
 70
     0
  0
APPID
  2
ACAD_DSTYLE_DIMTALN
 70
     0
  0
APPID
  2
ACADANNOTATIVE
 70
     0
  0
APPID
  2
ACADANNOPO
 70
     0
  0
APPID
  2
GRADIENTCOLOR1ACI
 70
     0
  0
APPID
  2
GRADIENTCOLOR2ACI
 70
     0
  0
APPID
  2
ACADANNOMONITORALERTICONDI
 70
     0
  0
APPID
  2
CONTENTBLOCKICON
 70
     0
  0
APPID
  2
ACAD_MLEADERVER
 70
     0
  0
ENDTAB
  0
TABLE
  2
DIMSTYLE
 70
     3
  0
DIMSTYLE
  2
STANDARD
 70
     0
  3

  4

  5

  6

  7

 40
1.0
 41
0.18
 42
0.0625
 43
0.38
 44
0.18
 45
0.0
 46
0.0
 47
0.0
 48
0.0
140
0.18
141
0.09
142
0.0
143
25.3999999999999986
144
1.0
145
0.0
146
1.0
147
0.09
 71
     0
 72
     0
 73
     1
 74
     1
 75
     0
 76
     0
 77
     0
 78
     0
170
     0
171
     2
172
     0
173
     0
174
     0
175
     0
176
     0
177
     0
178
     0
  0
DIMSTYLE
  2
S10
 70
     0
  3

  4

  5
OPEN30
  6

  7

 40
10.0
 41
2.0
 42
1.0
 43
10.0
 44
1.0
 45
0.0
 46
0.0
 47
0.0
 48
0.0
140
3.2000000000000002
141
0.0
142
0.0
143
25.3999999999999986
144
1.0
145
0.0
146
1.0
147
0.9
 71
     0
 72
     0
 73
     0
 74
     0
 75
     0
 76
     0
 77
     1
 78
     8
170
     0
171
     2
172
     1
173
     0
174
     0
175
     0
176
   256
177
   256
178
   256
  0
ENDTAB
  0
ENDSEC
  0
SECTION
  2
BLOCKS
  0
BLOCK
  8
0
  2
$MODEL_SPACE
 70
     0
 10
0.0
 20
0.0
 30
0.0
  3
$MODEL_SPACE
  1

  0
ENDBLK
  5
20
  8
0
  0
BLOCK
 67
     1
  8
0
  2
$PAPER_SPACE
 70
     0
 10
0.0
 20
0.0
 30
0.0
  3
$PAPER_SPACE
  1

  0
ENDBLK
  5
F6BA3
 67
     1
  8
0
  0
BLOCK
  8
0
  2
_OPEN30
 70
     0
 10
0.0
 20
0.0
 30
0.0
  3
_OPEN30
  1

  0
LINE
  5
202
  8
0
  6
BYBLOCK
 62
     0
 10
-1.0
 20
0.26794919
 30
0.0
 11
0.0
 21
0.0
 31
0.0
  0
LINE
  5
203
  8
0
  6
BYBLOCK
 62
     0
 10
0.0
 20
0.0
 30
0.0
 11
-1.0
 21
-0.26794919
 31
0.0
  0
LINE
  5
204
  8
0
  6
BYBLOCK
 62
     0
 10
0.0
 20
0.0
 30
0.0
 11
-1.0
 21
0.0
 31
0.0
  0
ENDBLK
  5
206
  8
0
  0
BLOCK
  8
0
  2
*U121
 70
     1
 10
0.0
 20
0.0
 30
0.0
  3
*U121
  1

  0
TEXT
  5
128F27
  8
SLIM
 10
-21.047619047619051
 20
22.0
 30
0.0
 40
26.0
  1
50
  0
ENDBLK
  5
128F29
  8
0
  0
BLOCK
  8
0
  2
*U122
 70
     1
 10
0.0
 20
0.0
 30
0.0
  3
*U122
  1

  0
TEXT
  5
128F2B
  8
SLIM
 10
-21.047619047619051
 20
22.0
 30
0.0
 40
26.0
  1
65
  0
ENDBLK
  5
128F2D
  8
0
  0
BLOCK
  8
0
  2
*U123
 70
     1
 10
0.0
 20
0.0
 30
0.0
  3
*U123
  1

  0
TEXT
  5
128F2F
  8
SLIM
 10
-21.047619047619051
 20
22.0
 30
0.0
 40
26.0
  1
75
  0
ENDBLK
  5
128F31
  8
0
  0
BLOCK
  8
0
  2
*U124
 70
     1
 10
0.0
 20
0.0
 30
0.0
  3
*U124
  1

  0
TEXT
  5
128F33
  8
SLIM
 10
-30.952380952380949
 20
29.25
 30
0.0
 40
26.0
  1
100
  0
ENDBLK
  5
128F35
  8
0
  0
BLOCK
  8
0
  2
*U125
 70
     1
 10
0.0
 20
0.0
 30
0.0
  3
*U125
  1

  0
TEXT
  5
128F37
  8
SLIM
 10
-33.4285714285714306
 20
91.9999999999854339
 30
0.0
 40
26.0
  1
75Z
  0
ENDBLK
  5
128F39
  8
0
  0
BLOCK
  8
0
  2
*U126
 70
     1
 10
0.0
 20
0.0
 30
0.0
  3
*U126
  1

  0
TEXT
  5
128F3B
  8
SLIM
 10
-33.4285714285714235
 20
101.9999999999821938
 30
0.0
 40
26.0
  1
75Z
  0
ENDBLK
  5
128F3D
  8
0
  0
BLOCK
  8
0
  2
*U127
 70
     1
 10
0.0
 20
0.0
 30
0.0
  3
*U127
  1

  0
TEXT
  5
128F3F
  8
SLIM
 10
-43.3333333333333286
 20
79.25
 30
0.0
 40
26.0
  1
100Z
  0
ENDBLK
  5
128F41
  8
0
  0
BLOCK
  8
0
  2
*U128
 70
     1
 10
0.0
 20
0.0
 30
0.0
  3
*U128
  1

  0
TEXT
  5
128F58
  8
SLIM
 10
-33.4285714285714306
 20
57.0
 30
0.0
 40
26.0
  1
75U
  0
ENDBLK
  5
128F5A
  8
0
  0
BLOCK
  8
0
  2
*U129
 70
     1
 10
0.0
 20
0.0
 30
0.0
  3
*U129
  1

  0
TEXT
  5
128F5C
  8
SLIM
 10
62.0000000000000071
 20
92.190476190476204
 30
0.0
 40
26.0
  1
50L
 50
270.0
  0
ENDBLK
  5
128F5E
  8
0
  0
BLOCK
  8
0
  2
*U130
 70
     1
 10
0.0
 20
0.0
 30
0.0
  3
*U130
  1

  0
TEXT
  5
128F60
  8
SLIM
 10
62.0000000000000071
 20
92.190476190476204
 30
0.0
 40
26.0
  1
65L
 50
270.0
  0
ENDBLK
  5
128F62
  8
0
  0
BLOCK
  8
0
  2
*U131
 70
     1
 10
0.0
 20
0.0
 30
0.0
  3
*U131
  1

  0
TEXT
  5
128F64
  8
SLIM
 10
72.0000000000000142
 20
102.190476190476204
 30
0.0
 40
26.0
  1
75L
 50
270.0
  0
ENDBLK
  5
128F66
  8
0
  0
BLOCK
  8
0
  2
*U132
 70
     1
 10
0.0
 20
0.0
 30
0.0
  3
*U132
  1

  0
TEXT
  5
128F68
  8
SLIM
 10
-62.0
 20
26.5714285714285801
 30
0.0
 40
26.0
  1
50R
 50
90.0000000000000284
  0
ENDBLK
  5
128F6A
  8
0
  0
BLOCK
  8
0
  2
*U133
 70
     1
 10
0.0
 20
0.0
 30
0.0
  3
*U133
  1

  0
TEXT
  5
128F6C
  8
SLIM
 10
-62.0
 20
26.5714285714285801
 30
0.0
 40
26.0
  1
65R
 50
90.0000000000000284
  0
ENDBLK
  5
128F6E
  8
0
  0
BLOCK
  8
0
  2
*U134
 70
     1
 10
0.0
 20
0.0
 30
0.0
  3
*U134
  1

  0
TEXT
  5
128F70
  8
SLIM
 10
-72.0
 20
36.5714285714285694
 30
0.0
 40
26.0
  1
75R
 50
90.0000000000000284
  0
ENDBLK
  5
128F72
  8
0
  0
BLOCK
  8
0
  2
*U135
 70
     1
 10
0.0
 20
0.0
 30
0.0
  3
*U135
  1

  0
TEXT
  5
128F74
  8
SLIM
 10
-22.9047619047619087
 20
60.0
 30
0.0
 40
26.0
  1
CO
  0
ENDBLK
  5
128F76
  8
0
  0
BLOCK
  8
0
  2
*U136
 70
     1
 10
0.0
 20
0.0
 30
0.0
  3
*U136
  1

  0
TEXT
  5
128F78
  8
SLIM
 10
-33.4285714285714306
 20
91.9999999999854339
 30
0.0
 40
26.0
  1
75Z
  0
ENDBLK
  5
128F7A
  8
0
  0
BLOCK
  8
0
  2
*U137
 70
     1
 10
0.0
 20
0.0
 30
0.0
  3
*U137
  1

  0
TEXT
  5
128F7C
  8
SLIM
 10
-27.7333333333333307
 20
140.9999999999853912
 30
0.0
 40
26.0
  1
通気
  0
ENDBLK
  5
128F7E
  8
0
  0
BLOCK
  8
0
  2
*U138
 70
     1
 10
0.0
 20
0.0
 30
0.0
  3
*U138
  1

  0
TEXT
  5
128F80
  8
SLIM
 10
-33.4285714285714306
 20
91.9999999999854339
 30
0.0
 40
26.0
  1
75Z
  0
ENDBLK
  5
128F82
  8
0
  0
BLOCK
  8
0
  2
*U139
 70
     1
 10
0.0
 20
0.0
 30
0.0
  3
*U139
  1

  0
TEXT
  5
128F84
  8
SLIM
 10
72.2666666666666657
 20
91.9999999999854339
 30
0.0
 40
26.0
  1
通気
  0
ENDBLK
  5
128F86
  8
0
  0
BLOCK
  8
0
  2
*U140
 70
     1
 10
0.0
 20
0.0
 30
0.0
  3
*U140
  1

  0
TEXT
  5
128F88
  8
SLIM
 10
-27.7333333333333307
 20
131.0
 30
0.0
 40
26.0
  1
通気
  0
ENDBLK
  5
128F8A
  8
0
  0
BLOCK
  8
0
  2
*U141
 70
     1
 10
0.0
 20
0.0
 30
0.0
  3
*U141
  1

  0
TEXT
  5
128F8C
  8
SLIM
 10
-43.3333333333333286
 20
79.25
 30
0.0
 40
26.0
  1
100Z
  0
ENDBLK
  5
128F8E
  8
0
  0
BLOCK
  8
0
  2
*U142
 70
     1
 10
0.0
 20
0.0
 30
0.0
  3
*U142
  1

  0
TEXT
  5
128F90
  8
SLIM
 10
85.2666666666666657
 20
79.25
 30
0.0
 40
26.0
  1
通気
  0
ENDBLK
  5
128F92
  8
0
  0
BLOCK
  8
0
  2
*U143
 70
     1
 10
0.0
 20
0.0
 30
0.0
  3
*U143
  1

  0
TEXT
  5
128F94
  8
SLIM
 10
-21.0476190476190617
 20
-53.0
 30
0.0
 40
26.0
  1
50
  0
ENDBLK
  5
128F96
  8
0
  0
BLOCK
  8
0
  2
*U144
 70
     1
 10
0.0
 20
0.0
 30
0.0
  3
*U144
  1

  0
TEXT
  5
128F98
  8
SLIM
 10
-21.0476190476190617
 20
-53.0
 30
0.0
 40
26.0
  1
65
  0
ENDBLK
  5
128F9A
  8
0
  0
BLOCK
  8
0
  2
*U145
 70
     1
 10
0.0
 20
0.0
 30
0.0
  3
*U145
  1

  0
TEXT
  5
128F9C
  8
SLIM
 10
-21.0476190476190617
 20
-53.0
 30
0.0
 40
26.0
  1
75
  0
ENDBLK
  5
128F9E
  8
0
  0
BLOCK
  8
0
  2
*U146
 70
     1
 10
0.0
 20
0.0
 30
0.0
  3
*U146
  1

  0
TEXT
  5
128FA0
  8
SLIM
 10
-21.0476190476190617
 20
-53.0
 30
0.0
 40
26.0
  1
50
  0
ENDBLK
  5
128FA2
  8
0
  0
BLOCK
  8
0
  2
*U147
 70
     1
 10
0.0
 20
0.0
 30
0.0
  3
*U147
  1

  0
TEXT
  5
128FA4
  8
SLIM
 10
-21.0476190476190617
 20
-53.0
 30
0.0
 40
26.0
  1
65
  0
ENDBLK
  5
128FA6
  8
0
  0
BLOCK
  8
0
  2
*U148
 70
     1
 10
0.0
 20
0.0
 30
0.0
  3
*U148
  1

  0
TEXT
  5
128FA8
  8
SLIM
 10
-21.0476190476190617
 20
-53.0
 30
0.0
 40
26.0
  1
75
  0
ENDBLK
  5
128FAA
  8
0
  0
BLOCK
  8
0
  2
*U149
 70
     1
 10
0.0
 20
0.0
 30
0.0
  3
*U149
  1

  0
TEXT
  5
128FAC
  8
SLIM
 10
-21.047619047619051
 20
22.0
 30
0.0
 40
26.0
  1
50
  0
ENDBLK
  5
128FAE
  8
0
  0
BLOCK
  8
0
  2
*U150
 70
     1
 10
0.0
 20
0.0
 30
0.0
  3
*U150
  1

  0
TEXT
  5
128FB0
  8
SLIM
 10
-21.047619047619051
 20
22.0
 30
0.0
 40
26.0
  1
65
  0
ENDBLK
  5
128FB2
  8
0
  0
BLOCK
  8
0
  2
*U151
 70
     1
 10
0.0
 20
0.0
 30
0.0
  3
*U151
  1

  0
TEXT
  5
128FB4
  8
SLIM
 10
-21.047619047619051
 20
22.0
 30
0.0
 40
26.0
  1
75
  0
ENDBLK
  5
128FB6
  8
0
  0
BLOCK
  8
0
  2
*U152
 70
     1
 10
0.0
 20
0.0
 30
0.0
  3
*U152
  1

  0
TEXT
  5
128FB8
  8
SLIM
 10
-30.952380952380949
 20
29.25
 30
0.0
 40
26.0
  1
100
  0
ENDBLK
  5
128FBA
  8
0
  0
BLOCK
  8
0
  2
*U153
 70
     1
 10
0.0
 20
0.0
 30
0.0
  3
*U153
  1

  0
TEXT
  5
128FBC
  8
SLIM
 10
-33.4285714285714306
 20
91.9999999999854339
 30
0.0
 40
26.0
  1
75Z
  0
ENDBLK
  5
128FBE
  8
0
  0
BLOCK
  8
0
  2
*U154
 70
     1
 10
0.0
 20
0.0
 30
0.0
  3
*U154
  1

  0
TEXT
  5
128FC0
  8
SLIM
 10
-33.4285714285714235
 20
101.9999999999821938
 30
0.0
 40
26.0
  1
75Z
  0
ENDBLK
  5
128FC2
  8
0
  0
BLOCK
  8
0
  2
*U155
 70
     1
 10
0.0
 20
0.0
 30
0.0
  3
*U155
  1

  0
TEXT
  5
128FC4
  8
SLIM
 10
-43.3333333333333286
 20
79.25
 30
0.0
 40
26.0
  1
100Z
  0
ENDBLK
  5
128FC6
  8
0
  0
BLOCK
  8
0
  2
*U156
 70
     1
 10
0.0
 20
0.0
 30
0.0
  3
*U156
  1

  0
TEXT
  5
128FDD
  8
SLIM
 10
-33.4285714285714306
 20
57.0
 30
0.0
 40
26.0
  1
75U
  0
ENDBLK
  5
128FDF
  8
0
  0
BLOCK
  8
0
  2
*U157
 70
     1
 10
0.0
 20
0.0
 30
0.0
  3
*U157
  1

  0
TEXT
  5
128FE1
  8
SLIM
 10
62.0000000000000071
 20
92.190476190476204
 30
0.0
 40
26.0
  1
50L
 50
270.0
  0
ENDBLK
  5
128FE3
  8
0
  0
BLOCK
  8
0
  2
*U158
 70
     1
 10
0.0
 20
0.0
 30
0.0
  3
*U158
  1

  0
TEXT
  5
128FE5
  8
SLIM
 10
62.0000000000000071
 20
92.190476190476204
 30
0.0
 40
26.0
  1
65L
 50
270.0
  0
ENDBLK
  5
128FE7
  8
0
  0
BLOCK
  8
0
  2
*U159
 70
     1
 10
0.0
 20
0.0
 30
0.0
  3
*U159
  1

  0
TEXT
  5
128FE9
  8
SLIM
 10
72.0000000000000142
 20
102.190476190476204
 30
0.0
 40
26.0
  1
75L
 50
270.0
  0
ENDBLK
  5
128FEB
  8
0
  0
BLOCK
  8
0
  2
*U160
 70
     1
 10
0.0
 20
0.0
 30
0.0
  3
*U160
  1

  0
TEXT
  5
128FED
  8
SLIM
 10
-62.0
 20
26.5714285714285801
 30
0.0
 40
26.0
  1
50R
 50
90.0000000000000284
  0
ENDBLK
  5
128FEF
  8
0
  0
BLOCK
  8
0
  2
*U161
 70
     1
 10
0.0
 20
0.0
 30
0.0
  3
*U161
  1

  0
TEXT
  5
128FF1
  8
SLIM
 10
-62.0
 20
26.5714285714285801
 30
0.0
 40
26.0
  1
65R
 50
90.0000000000000284
  0
ENDBLK
  5
128FF3
  8
0
  0
BLOCK
  8
0
  2
*U162
 70
     1
 10
0.0
 20
0.0
 30
0.0
  3
*U162
  1

  0
TEXT
  5
128FF5
  8
SLIM
 10
-72.0
 20
36.5714285714285694
 30
0.0
 40
26.0
  1
75R
 50
90.0000000000000284
  0
ENDBLK
  5
128FF7
  8
0
  0
BLOCK
  8
0
  2
*U163
 70
     1
 10
0.0
 20
0.0
 30
0.0
  3
*U163
  1

  0
TEXT
  5
128FF9
  8
SLIM
 10
-22.9047619047619087
 20
60.0
 30
0.0
 40
26.0
  1
CO
  0
ENDBLK
  5
128FFB
  8
0
  0
BLOCK
  8
0
  2
*U164
 70
     1
 10
0.0
 20
0.0
 30
0.0
  3
*U164
  1

  0
TEXT
  5
128FFD
  8
SLIM
 10
-33.4285714285714306
 20
91.9999999999854339
 30
0.0
 40
26.0
  1
75Z
  0
ENDBLK
  5
128FFF
  8
0
  0
BLOCK
  8
0
  2
*U165
 70
     1
 10
0.0
 20
0.0
 30
0.0
  3
*U165
  1

  0
TEXT
  5
129001
  8
SLIM
 10
-27.7333333333333307
 20
140.9999999999853912
 30
0.0
 40
26.0
  1
通気
  0
ENDBLK
  5
129003
  8
0
  0
BLOCK
  8
0
  2
*U166
 70
     1
 10
0.0
 20
0.0
 30
0.0
  3
*U166
  1

  0
TEXT
  5
129005
  8
SLIM
 10
-33.4285714285714306
 20
91.9999999999854339
 30
0.0
 40
26.0
  1
75Z
  0
ENDBLK
  5
129007
  8
0
  0
BLOCK
  8
0
  2
*U167
 70
     1
 10
0.0
 20
0.0
 30
0.0
  3
*U167
  1

  0
TEXT
  5
129009
  8
SLIM
 10
72.2666666666666657
 20
91.9999999999854339
 30
0.0
 40
26.0
  1
通気
  0
ENDBLK
  5
12900B
  8
0
  0
BLOCK
  8
0
  2
*U168
 70
     1
 10
0.0
 20
0.0
 30
0.0
  3
*U168
  1

  0
TEXT
  5
12900D
  8
SLIM
 10
-27.7333333333333307
 20
131.0
 30
0.0
 40
26.0
  1
通気
  0
ENDBLK
  5
12900F
  8
0
  0
BLOCK
  8
0
  2
*U169
 70
     1
 10
0.0
 20
0.0
 30
0.0
  3
*U169
  1

  0
TEXT
  5
129011
  8
SLIM
 10
-43.3333333333333286
 20
79.25
 30
0.0
 40
26.0
  1
100Z
  0
ENDBLK
  5
129013
  8
0
  0
BLOCK
  8
0
  2
*U170
 70
     1
 10
0.0
 20
0.0
 30
0.0
  3
*U170
  1

  0
TEXT
  5
129015
  8
SLIM
 10
85.2666666666666657
 20
79.25
 30
0.0
 40
26.0
  1
通気
  0
ENDBLK
  5
129017
  8
0
  0
BLOCK
  8
0
  2
*U171
 70
     1
 10
0.0
 20
0.0
 30
0.0
  3
*U171
  1

  0
TEXT
  5
129019
  8
SLIM
 10
-21.0476190476190617
 20
-53.0
 30
0.0
 40
26.0
  1
50
  0
ENDBLK
  5
12901B
  8
0
  0
BLOCK
  8
0
  2
*U172
 70
     1
 10
0.0
 20
0.0
 30
0.0
  3
*U172
  1

  0
TEXT
  5
12901D
  8
SLIM
 10
-21.0476190476190617
 20
-53.0
 30
0.0
 40
26.0
  1
65
  0
ENDBLK
  5
12901F
  8
0
  0
BLOCK
  8
0
  2
*U173
 70
     1
 10
0.0
 20
0.0
 30
0.0
  3
*U173
  1

  0
TEXT
  5
129021
  8
SLIM
 10
-21.0476190476190617
 20
-53.0
 30
0.0
 40
26.0
  1
75
  0
ENDBLK
  5
129023
  8
0
  0
BLOCK
  8
0
  2
*U174
 70
     1
 10
0.0
 20
0.0
 30
0.0
  3
*U174
  1

  0
TEXT
  5
129025
  8
SLIM
 10
-21.0476190476190617
 20
-53.0
 30
0.0
 40
26.0
  1
50
  0
ENDBLK
  5
129027
  8
0
  0
BLOCK
  8
0
  2
*U175
 70
     1
 10
0.0
 20
0.0
 30
0.0
  3
*U175
  1

  0
TEXT
  5
129029
  8
SLIM
 10
-21.0476190476190617
 20
-53.0
 30
0.0
 40
26.0
  1
65
  0
ENDBLK
  5
12902B
  8
0
  0
BLOCK
  8
0
  2
*U176
 70
     1
 10
0.0
 20
0.0
 30
0.0
  3
*U176
  1

  0
TEXT
  5
12902D
  8
SLIM
 10
-21.0476190476190617
 20
-53.0
 30
0.0
 40
26.0
  1
75
  0
ENDBLK
  5
12902F
  8
0
  0
BLOCK
  8
0
  2
*U177
 70
     1
 10
0.0
 20
0.0
 30
0.0
  3
*U177
  1

  0
TEXT
  5
129031
  8
SLIM
 10
27.0
 20
21.0476190476190403
 30
0.0
 40
26.0
  1
50
 50
270.0
  0
ENDBLK
  5
129033
  8
0
  0
BLOCK
  8
0
  2
*U178
 70
     1
 10
0.0
 20
0.0
 30
0.0
  3
*U178
  1

  0
TEXT
  5
129035
  8
SLIM
 10
27.0
 20
21.047619047619051
 30
0.0
 40
26.0
  1
75
 50
270.0
  0
ENDBLK
  5
129037
  8
0
  0
BLOCK
  8
0
  2
*U179
 70
     1
 10
0.0
 20
0.0
 30
0.0
  3
*U179
  1

  0
TEXT
  5
129039
  8
SLIM
 10
27.0
 20
21.0476190476190403
 30
0.0
 40
26.0
  1
65
 50
270.0
  0
ENDBLK
  5
12903B
  8
0
  0
BLOCK
  8
0
  2
*U180
 70
     1
 10
0.0
 20
0.0
 30
0.0
  3
*U180
  1

  0
TEXT
  5
12903D
  8
SLIM
 10
27.0
 20
21.0476190476190403
 30
0.0
 40
26.0
  1
50
 50
270.0
  0
ENDBLK
  5
12903F
  8
0
  0
BLOCK
  8
0
  2
*U181
 70
     1
 10
0.0
 20
0.0
 30
0.0
  3
*U181
  1

  0
TEXT
  5
129041
  8
SLIM
 10
27.0
 20
21.047619047619051
 30
0.0
 40
26.0
  1
75
 50
270.0
  0
ENDBLK
  5
129043
  8
0
  0
BLOCK
  8
0
  2
*U182
 70
     1
 10
0.0
 20
0.0
 30
0.0
  3
*U182
  1

  0
TEXT
  5
129045
  8
SLIM
 10
27.0
 20
21.0476190476190403
 30
0.0
 40
26.0
  1
65
 50
270.0
  0
ENDBLK
  5
129047
  8
0
  0
BLOCK
  8
0
  2
*X183
 70
     1
 10
0.0
 20
0.0
 30
0.0
  3
*X183
  1

  0
LINE
  5
129049
  8
0
 62
     0
 10
37.6366622925280723
 20
76.0952570489552045
 30
0.0
 11
37.4041347119712171
 21
76.3277846295120526
 31
0.0
  0
LINE
  5
12904A
  8
0
 62
     0
 10
46.6169184135972117
 20
67.115000927886058
 30
0.0
 11
42.1267903530626384
 21
71.6051289884206312
 31
0.0
  0
LINE
  5
12904B
  8
0
 62
     0
 10
51.7319193414850815
 20
61.999999999998181
 30
0.0
 11
51.107046474131792
 21
62.6248728673514705
 31
0.0
  0
LINE
  5
12904C
  8
0
 62
     0
 10
28.6564061714586806
 20
76.0952570489573645
 30
0.0
 11
24.1662781109241109
 21
80.5853851094919378
 31
0.0
  0
LINE
  5
12904D
  8
0
 62
     0
 10
17.7699369887332104
 20
78.0014701106156281
 30
0.0
 11
15.1860219898579807
 21
80.5853851094908578
 31
0.0
  0
LINE
  5
12904E
  8
0
 62
     0
 10
7.1075054389575589
 20
79.6836455393167853
 30
0.0
 11
6.2057658687818309
 21
80.5853851094925346
 31
0.0
  0
LINE
  5
12904F
  8
0
 62
     0
 10
-2.1599414089596389
 20
79.9708362661667707
 30
0.0
 11
-2.7744902522855921
 21
80.5853851094927194
 31
0.0
  0
LINE
  5
129050
  8
0
 62
     0
 10
-10.4799564724226002
 20
79.3105952085625034
 30
0.0
 11
-11.7547463733521607
 21
80.5853851094920799
 31
0.0
  0
LINE
  5
129051
  8
0
 62
     0
 10
-18.0798388998073207
 20
77.9302215148727555
 30
0.0
 11
-20.735002494429569
 21
80.5853851094949931
 31
0.0
  0
LINE
  5
129052
  8
0
 62
     0
 10
-25.2251305549600602
 20
76.095257048958274
 30
0.0
 11
-29.0218698067569782
 21
79.8919963007551956
 31
0.0
  0
LINE
  5
129053
  8
0
 62
     0
 10
-34.2053866760284535
 20
76.0952570489594535
 30
0.0
 11
-35.3916398783627599
 21
77.2815102512937671
 31
0.0
  0
LINE
  5
129054
  8
0
 62
     0
 10
-37.6676403653700618
 20
70.577254617233848
 30
0.0
 11
-38.6955147365617975
 21
71.6051289884255908
 31
0.0
  0
LINE
  5
129055
  8
0
 62
     0
 10
-43.3240761644210579
 20
67.2534342952103543
 30
0.0
 11
-46.9364792836749274
 21
70.8658374144642238
 31
0.0
  0
LINE
  5
129056
  8
0
 62
     0
 10
-56.0311541113451312
 20
62.0
 30
0.0
 11
-56.6560269786984279
 21
62.6248728673532895
 31
0.0
  0
LINE
  5
129057
  8
0
 62
     0
 10
53.9133765119636621
 20
65.4312029051848043
 30
0.0
 11
52.4807779804299486
 21
66.8638014367185036
 31
0.0
  0
LINE
  5
129058
  8
0
 62
     0
 10
35.9528642698253691
 20
74.4114590262558693
 30
0.0
 11
31.4627362092907994
 21
78.9015870867904425
 31
0.0
  0
LINE
  5
129059
  8
0
 62
     0
 10
42.7351123651669624
 20
67.6292109309142688
 30
0.0
 11
40.4429923303599423
 21
69.921330965721296
 31
0.0
  0
LINE
  5
12905A
  8
0
 62
     0
 10
25.5859042409947506
 20
75.798162934019274
 30
0.0
 11
22.4824800882232907
 21
78.901587086790741
 31
0.0
  0
LINE
  5
12905B
  8
0
 62
     0
 10
9.0120959066214787
 20
83.3917151473253142
 30
0.0
 11
7.758649607671857
 21
84.6451614462749546
 31
0.0
  0
LINE
  5
12905C
  8
0
 62
     0
 10
13.5616860779973596
 20
78.8421249759494458
 30
0.0
 11
13.5022239671560502
 21
78.9015870867907552
 31
0.0
  0
LINE
  5
12905D
  8
0
 62
     0
 10
-0.0000000000009095
 20
83.4235549328732304
 30
0.0
 11
-1.5620901743300619
 21
84.9856451072023873
 31
0.0
  0
LINE
  5
12905E
  8
0
 62
     0
 10
0.0318397855459001
 20
83.3917151473264227
 30
0.0
 11
0.0000000000010791
 21
83.4235549328712409
 31
0.0
  0
LINE
  5
12905F
  8
0
 62
     0
 10
-8.948416335520438
 20
83.3917151473255274
 30
0.0
 11
-9.9699686581583808
 21
84.4132674699634862
 31
0.0
  0
LINE
  5
129060
  8
0
 62
     0
 10
-13.4057467837456006
 20
78.8687894744834921
 30
0.0
 11
-13.4385443960543505
 21
78.9015870867922331
 31
0.0
  0
LINE
  5
129061
  8
0
 62
     0
 10
-20.7731321676446896
 20
77.2559187373080931
 30
0.0
 11
-22.41880051712781
 21
78.9015870867912099
 31
0.0
  0
LINE
  5
129062
  8
0
 62
     0
 10
-27.5895314216941188
 20
75.0920618702903084
 30
0.0
 11
-31.3990566381944305
 21
78.9015870867906131
 31
0.0
  0
LINE
  5
129063
  8
0
 62
     0
 10
-35.8891846987258205
 20
74.4114590262548035
 30
0.0
 11
-37.673110834770327
 21
76.1953851622993028
 31
0.0
  0
LINE
  5
129064
  8
0
 62
     0
 10
-39.8350097048860405
 20
69.3770279113487049
 30
0.0
 11
-40.3793127592588519
 21
69.9213309657215234
 31
0.0
  0
LINE
  5
129065
  8
0
 62
     0
 10
-45.3455828480318814
 20
65.9073449334191537
 30
0.0
 11
-48.9373888153990109
 21
69.4991509007862902
 31
0.0
  0
LINE
  5
129066
  8
0
 62
     0
 10
-53.8496969408650088
 20
65.4312029051850743
 30
0.0
 11
-54.0337167597407984
 21
65.6152227240608568
 31
0.0
  0
LINE
  5
129067
  8
0
 62
     0
 10
43.2493223681916135
 20
72.7276610035548146
 30
0.0
 11
42.1823273188496586
 21
73.7946560528967694
 31
0.0
  0
LINE
  5
129068
  8
0
 62
     0
 10
52.2295784892607529
 20
63.7474048824856681
 30
0.0
 11
47.7394504287261725
 21
68.2375329430202555
 31
0.0
  0
LINE
  5
129069
  8
0
 62
     0
 10
34.2690662471243996
 20
72.7276610035557241
 30
0.0
 11
29.7789381865898193
 21
77.2177890640902973
 31
0.0
  0
LINE
  5
12906A
  8
0
 62
     0
 10
16.3085540049882098
 20
81.7079171246238047
 30
0.0
 11
14.2132237552879293
 21
83.8032473743240871
 31
0.0
  0
LINE
  5
12906B
  8
0
 62
     0
 10
7.328297883921711
 20
81.7079171246239895
 30
0.0
 11
4.1369472406276957
 21
84.8992677679180048
 31
0.0
  0
LINE
  5
12906C
  8
0
 62
     0
 10
-1.6519582371562791
 20
81.7079171246265759
 30
0.0
 11
-4.8079532626625179
 21
84.8639121501328191
 31
0.0
  0
LINE
  5
12906D
  8
0
 62
     0
 10
-10.6322143582215105
 20
81.7079171246245863
 30
0.0
 11
-12.9344202683921097
 21
84.0101230347951855
 31
0.0
  0
LINE
  5
12906E
  8
0
 62
     0
 10
-19.6124704792899216
 20
81.7079171246257943
 30
0.0
 11
-20.4162337393348317
 21
82.511680384670683
 31
0.0
  0
LINE
  5
12906F
  8
0
 62
     0
 10
-23.3893178946673288
 20
76.5045084189287081
 30
0.0
 11
-24.1025985398317211
 21
77.2177890640930968
 31
0.0
  0
LINE
  5
129070
  8
0
 62
     0
 10
-30.0192575111968907
 20
74.1541919143910491
 30
0.0
 11
-33.0828546608989313
 21
77.2177890640930968
 31
0.0
  0
LINE
  5
129071
  8
0
 62
     0
 10
-37.5729827214312735
 20
72.727661003558211
 30
0.0
 11
-39.8990660067920331
 21
75.0537442889189634
 31
0.0
  0
LINE
  5
129072
  8
0
 62
     0
 10
-41.9466412844813021
 20
68.12106344554104
 30
0.0
 11
-42.0631107819621377
 21
68.2375329430218756
 31
0.0
  0
LINE
  5
129073
  8
0
 62
     0
 10
-47.3143662864558792
 20
64.5085323264411272
 30
0.0
 11
-50.8889671392467307
 21
68.0831331792319787
 31
0.0
  0
LINE
  5
129074
  8
0
 62
     0
 10
-55.533494963568387
 20
63.7474048824873307
 30
0.0
 11
-55.8566416718403431
 21
64.0705515907592797
 31
0.0
  0
LINE
  5
129075
  8
0
 62
     0
 10
52.2295784892621526
 20
62.6248728673481168
 30
0.0
 11
54.6812678286611202
 21
65.0765622067470844
 31
0.0
  0
LINE
  5
129076
  8
0
 62
     0
 10
46.0450428266121889
 20
65.4205933257690049
 30
0.0
 11
47.7394504287264922
 21
67.1150009278833153
 31
0.0
  0
LINE
  5
129077
  8
0
 62
     0
 10
43.2493223681939511
 20
71.6051289884179738
 30
0.0
 11
44.2300332886816605
 21
72.5858399089056974
 31
0.0
  0
LINE
  5
129078
  8
0
 62
     0
 10
34.7314499446693006
 20
72.0675126859605371
 30
0.0
 11
38.4634363572585869
 21
75.7994990985498305
 31
0.0
  0
LINE
  5
129079
  8
0
 62
     0
 10
28.4528825245834014
 20
74.7692013869454968
 30
0.0
 11
29.7789381865928391
 21
76.0952570489549345
 31
0.0
  0
LINE
  5
12907A
  8
0
 62
     0
 10
25.2888101260528018
 20
80.5853851094821181
 30
0.0
 11
25.7190452013776394
 21
81.0156201848069486
 31
0.0
  0
LINE
  5
12907B
  8
0
 62
     0
 10
16.3085540049845896
 20
80.5853851094847471
 30
0.0
 11
18.6515661940630402
 21
82.9283972985631976
 31
0.0
  0
LINE
  5
12907C
  8
0
 62
     0
 10
7.328297883921822
 20
80.5853851094928331
 30
0.0
 11
11.0248906056008007
 21
84.2819778311718153
 31
0.0
  0
LINE
  5
12907D
  8
0
 62
     0
 10
-0.000000000003638
 20
82.2373433466345887
 30
0.0
 11
2.7191526319691341
 21
84.9564959786073643
 31
0.0
  0
LINE
  5
12907E
  8
0
 62
     0
 10
-1.6519582371506309
 20
80.5853851094875893
 30
0.0
 11
-0.0000000000052749
 21
82.2373433466329402
 31
0.0
  0
LINE
  5
12907F
  8
0
 62
     0
 10
-10.6322143582215407
 20
80.5853851094875324
 30
0.0
 11
-6.4637184740424498
 21
84.7538809936666269
 31
0.0
  0
LINE
  5
129080
  8
0
 62
     0
 10
-19.6124704792889517
 20
80.5853851094873335
 30
0.0
 11
-16.893545190773569
 21
83.3043103980027269
 31
0.0
  0
LINE
  5
129081
  8
0
 62
     0
 10
-37.5729827214292698
 20
71.6051289884178743
 30
0.0
 11
-33.0828546608946965
 21
76.0952570489524334
 31
0.0
  0
LINE
  5
129082
  8
0
 62
     0
 10
-55.5334949635662412
 20
62.6248728673481168
 30
0.0
 11
-51.0433669030316679
 21
67.11500092788269
 31
0.0
  0
LINE
  5
129083
  8
0
 62
     0
 10
54.9723016673124221
 20
61.999999999996362
 30
0.0
 11
56.4874246871016084
 21
63.5151230197855483
 31
0.0
  0
LINE
  5
129084
  8
0
 62
     0
 10
47.9954544537358672
 20
64.003408907490666
 30
0.0
 11
49.4232484514308723
 21
65.431202905185657
 31
0.0
  0
LINE
  5
129085
  8
0
 62
     0
 10
44.933120390899127
 20
69.9213309657211397
 30
0.0
 11
46.2970278286185675
 21
71.2852384034405731
 31
0.0
  0
LINE
  5
129086
  8
0
 62
     0
 10
36.9744157973254914
 20
70.9428824932183346
 30
0.0
 11
40.4429923303662591
 21
74.4114590262591094
 31
0.0
  0
LINE
  5
129087
  8
0
 62
     0
 10
30.8596791588024608
 20
73.8084019757625356
 30
0.0
 11
31.4627362092907106
 21
74.4114590262507818
 31
0.0
  0
LINE
  5
129088
  8
0
 62
     0
 10
26.9726081487590399
 20
78.9015870867863214
 30
0.0
 11
28.2420164745816002
 21
80.1709954126088746
 31
0.0
  0
LINE
  5
129089
  8
0
 62
     0
 10
17.9923520276839106
 20
78.9015870867820581
 30
0.0
 11
21.3625251080789802
 21
82.2717601671771064
 31
0.0
  0
LINE
  5
12908A
  8
0
 62
     0
 10
9.5396871436751098
 20
79.4291783238404605
 30
0.0
 11
13.5022239671547695
 21
83.3917151473201272
 31
0.0
  0
LINE
  5
12908B
  8
0
 62
     0
 10
1.122378970332647
 20
79.9921262715688499
 30
0.0
 11
4.5219678460867172
 21
83.3917151473228984
 31
0.0
  0
LINE
  5
12908C
  8
0
 62
     0
 10
-8.2796061505032412
 20
79.5703972718038131
 30
0.0
 11
-4.4582882749790533
 21
83.3917151473280001
 31
0.0
  0
LINE
  5
12908D
  8
0
 62
     0
 10
-17.9286724565806104
 20
78.9015870867972922
 30
0.0
 11
-13.43854439604603
 21
83.3917151473318654
 31
0.0
  0
LINE
  5
12908E
  8
0
 62
     0
 10
-26.9089285776611113
 20
78.901587086784005
 30
0.0
 11
-24.3827457811070296
 21
81.4277698833380867
 31
0.0
  0
LINE
  5
12908F
  8
0
 62
     0
 10
-32.8794321636960376
 20
72.9310835007490823
 30
0.0
 11
-31.3990566381956917
 21
74.4114590262494318
 31
0.0
  0
LINE
  5
129090
  8
0
 62
     0
 10
-44.8694408197877621
 20
69.9213309657245503
 30
0.0
 11
-40.3793127592531889
 21
74.4114590262591236
 31
0.0
  0
LINE
  5
129091
  8
0
 62
     0
 10
-52.7907717855123266
 20
62.0
 30
0.0
 11
-49.3595688803223496
 21
65.4312029051899771
 31
0.0
  0
LINE
  5
129092
  8
0
 62
     0
 10
49.8941902650876727
 20
62.5345486734440783
 30
0.0
 11
51.1070464741275288
 21
63.7474048824839414
 31
0.0
  0
LINE
  5
129093
  8
0
 62
     0
 10
46.6169184135992509
 20
68.2375329430228845
 30
0.0
 11
48.3136071595047625
 21
69.934221688928389
 31
0.0
  0
LINE
  5
129094
  8
0
 62
     0
 10
39.1596113039813574
 20
69.7604819544758357
 30
0.0
 11
42.1267903530636119
 21
72.7276610035580831
 31
0.0
  0
LINE
  5
129095
  8
0
 62
     0
 10
28.6564061714582117
 20
77.2177890640871141
 30
0.0
 11
30.700651051741481
 21
79.2620339443703728
 31
0.0
  0
LINE
  5
129096
  8
0
 62
     0
 10
19.9348264174623218
 20
77.4764654311620689
 30
0.0
 11
23.999815745194109
 21
81.5414547588938632
 31
0.0
  0
LINE
  5
129097
  8
0
 62
     0
 10
12.4961214703034802
 20
79.0180166050704429
 30
0.0
 11
15.1860219898566307
 21
81.7079171246235774
 31
0.0
  0
LINE
  5
129098
  8
0
 62
     0
 10
4.3779676668782477
 20
79.8801189227160648
 30
0.0
 11
6.2057658687862736
 21
81.7079171246240747
 31
0.0
  0
LINE
  5
129099
  8
0
 62
     0
 10
-4.6156709885653981
 20
79.8667363883432699
 30
0.0
 11
-2.7744902522804189
 21
81.7079171246282527
 31
0.0
  0
LINE
  5
12909A
  8
0
 62
     0
 10
-14.8537121238368801
 20
78.6089513741426344
 30
0.0
 11
-11.7547463733530293
 21
81.7079171246265048
 31
0.0
  0
LINE
  5
12909B
  8
0
 62
     0
 10
-25.2251305549616092
 20
77.2177890640851246
 30
0.0
 11
-20.7350024944270288
 21
81.7079171246196836
 31
0.0
  0
LINE
  5
12909C
  8
0
 62
     0
 10
-34.2053866760192022
 20
77.2177890640947453
 30
0.0
 11
-33.1567884473876191
 21
78.2663872927263355
 31
0.0
  0
LINE
  5
12909D
  8
0
 62
     0
 10
-43.1856427970883487
 20
68.2375329430255988
 30
0.0
 11
-38.6955147365537684
 21
72.727661003560172
 31
0.0
  0
ENDBLK
  5
12909F
  8
0
  0
BLOCK
  8
0
  2
*X184
 70
     1
 10
0.0
 20
0.0
 30
0.0
  3
*X184
  1

  0
LINE
  5
1290A1
  8
0
 62
     0
 10
55.5971745346614128
 20
64.2206581480159571
 30
0.0
 11
55.0693148281850426
 21
64.7485178544923201
 31
0.0
  0
LINE
  5
1290A2
  8
0
 62
     0
 10
37.6366622925242993
 20
73.2009142690858425
 30
0.0
 11
33.1465342319897331
 21
77.6910423296204158
 31
0.0
  0
LINE
  5
1290A3
  8
0
 62
     0
 10
44.0716342108398678
 20
66.7659423507702741
 30
0.0
 11
42.1267903530588725
 21
68.7107862085512693
 31
0.0
  0
LINE
  5
1290A4
  8
0
 62
     0
 10
19.6761500503881983
 20
82.181170390154719
 30
0.0
 11
19.0104590151894683
 21
82.8468614253534668
 31
0.0
  0
LINE
  5
1290A5
  8
0
 62
     0
 10
26.3060777365344691
 20
75.5512427040084731
 30
0.0
 11
24.1662781109227787
 21
77.69104232962016
 31
0.0
  0
LINE
  5
1290A6
  8
0
 62
     0
 10
10.6958939293197606
 20
82.1811703901559554
 30
0.0
 11
8.2814524647567964
 21
84.5956118547189249
 31
0.0
  0
LINE
  5
1290A7
  8
0
 62
     0
 10
-0.000000000001819
 20
83.8968081984030647
 30
0.0
 11
-1.096123933178649
 21
84.9929321315798774
 31
0.0
  0
LINE
  5
1290A8
  8
0
 62
     0
 10
1.7156378082483199
 20
82.1811703901529143
 30
0.0
 11
-0.0000000000010827
 21
83.8968081984023115
 31
0.0
  0
LINE
  5
1290A9
  8
0
 62
     0
 10
-7.2646183128194668
 20
82.1811703901534827
 30
0.0
 11
-9.5457403451611675
 21
84.4622924224951817
 31
0.0
  0
LINE
  5
1290AA
  8
0
 62
     0
 10
-16.2448744338881816
 20
82.1811703901549748
 30
0.0
 11
-17.2872121229773903
 21
83.2235080792441835
 31
0.0
  0
LINE
  5
1290AB
  8
0
 62
     0
 10
-20.3994020845166197
 20
77.3554419197162133
 30
0.0
 11
-20.7350024944194899
 21
77.6910423296190658
 31
0.0
  0
LINE
  5
1290AC
  8
0
 62
     0
 10
-27.2427732201540493
 20
75.2185569342791496
 30
0.0
 11
-29.7152586154966905
 21
77.69104232962178
 31
0.0
  0
LINE
  5
1290AD
  8
0
 62
     0
 10
-34.2053866760277003
 20
73.2009142690855725
 30
0.0
 11
-37.3558834649694518
 21
76.3514110580273382
 31
0.0
  0
LINE
  5
1290AE
  8
0
 62
     0
 10
-43.1856427970951131
 20
73.2009142690857857
 30
0.0
 11
-43.1926294662846786
 21
73.2079009382753441
 31
0.0
  0
LINE
  5
1290AF
  8
0
 62
     0
 10
-45.0647019990110422
 20
66.0997173499272321
 30
0.0
 11
-47.6757708576374597
 21
68.7107862085536425
 31
0.0
  0
LINE
  5
1290B0
  8
0
 62
     0
 10
-52.1658989181694182
 20
64.2206581480183871
 30
0.0
 11
-53.7737131424630803
 21
65.8284723723120493
 31
0.0
  0
LINE
  5
1290B1
  8
0
 62
     0
 10
-55.0103996581792671
 20
58.0849027669610223
 30
0.0
 11
-56.6560269787008934
 21
59.7305300874826486
 31
0.0
  0
LINE
  5
1290B2
  8
0
 62
     0
 10
-61.1461550392357083
 20
55.2404020269502567
 30
0.0
 11
-62.984372575617499
 21
57.0786195633320474
 31
0.0
  0
LINE
  5
1290B3
  8
0
 62
     0
 10
-63.5197527161608306
 20
48.6337435828008893
 30
0.0
 11
-65.6362830997732232
 21
50.7502739664132818
 31
0.0
  0
LINE
  5
1290B4
  8
0
 62
     0
 10
52.1984380971271094
 20
-67.0844472304870578
 30
0.0
 11
51.1070464741267116
 21
-65.9930556074866672
 31
0.0
  0
LINE
  5
1290B5
  8
0
 62
     0
 10
-70.1264111603052669
 20
46.2601459058780975
 30
0.0
 11
-70.8406902552579538
 21
46.9744250008307773
 31
0.0
  0
LINE
  5
1290B6
  8
0
 62
     0
 10
46.616918413593659
 20
-70.4831836680208141
 30
0.0
 11
43.3624399414954809
 21
-67.2287051959226432
 31
0.0
  0
LINE
  5
1290B7
  8
0
 62
     0
 10
-70.5552891771922077
 20
37.7087678016978316
 30
0.0
 11
-74.2400100635319262
 21
41.3934886880375572
 31
0.0
  0
LINE
  5
1290B8
  8
0
 62
     0
 10
-73.4741171589785154
 20
31.647339662416929
 30
0.0
 11
-74.6165392208376943
 21
32.7897617242760973
 31
0.0
  0
LINE
  5
1290B9
  8
0
 62
     0
 10
35.434904669205018
 20
-77.2616821657666151
 30
0.0
 11
33.1465342319938898
 21
-74.9733117285554869
 31
0.0
  0
LINE
  5
1290BA
  8
0
 62
     0
 10
-79.1066672813756071
 20
28.2996336637395309
 30
0.0
 11
-79.8751730507954392
 21
29.0681394331593594
 31
0.0
  0
LINE
  5
1290BB
  8
0
 62
     0
 10
28.6564061714536997
 20
-79.4634397890897901
 30
0.0
 11
25.14014089166999
 21
-75.9471745093060804
 31
0.0
  0
LINE
  5
1290BC
  8
0
 62
     0
 10
-79.1066672813734897
 20
19.3193775426701997
 30
0.0
 11
-82.0364295708357361
 21
22.249139832132439
 31
0.0
  0
LINE
  5
1290BD
  8
0
 62
     0
 10
19.6761500503851217
 20
-79.4634397890884259
 30
0.0
 11
18.1310362480162901
 21
-77.9183259867195801
 31
0.0
  0
LINE
  5
1290BE
  8
0
 62
     0
 10
-79.3032137000673174
 20
10.53566784029681
 30
0.0
 11
-83.5967953419048087
 21
14.8292494821342995
 31
0.0
  0
LINE
  5
1290BF
  8
0
 62
     0
 10
10.6958939293197997
 20
-79.4634397890903017
 30
0.0
 11
10.5356678402973696
 21
-79.3032137000678716
 31
0.0
  0
LINE
  5
1290C0
  8
0
 62
     0
 10
-79.969154022694056
 20
2.2213520418563339
 30
0.0
 11
-83.5967953419041834
 21
5.8489933610664844
 31
0.0
  0
LINE
  5
1290C1
  8
0
 62
     0
 10
6.966254133521943
 20
-84.7140561143596642
 30
0.0
 11
6.2057658687857664
 21
-83.9535678496234823
 31
0.0
  0
LINE
  5
1290C2
  8
0
 62
     0
 10
-79.6897910452680662
 20
-7.0382670566441439
 30
0.0
 11
-83.5967953419118146
 21
-3.1312627600003999
 31
0.0
  0
LINE
  5
1290C3
  8
0
 62
     0
 10
-1.7459922824100429
 20
-84.9820658195021679
 30
0.0
 11
-2.7744902522885271
 21
-83.9535678496236812
 31
0.0
  0
LINE
  5
1290C4
  8
0
 62
     0
 10
-79.1066672813729355
 20
-16.6016469416064787
 30
0.0
 11
-83.5967953419075087
 21
-12.1115188810719108
 31
0.0
  0
LINE
  5
1290C5
  8
0
 62
     0
 10
-16.2448744338907609
 20
-79.4634397890886675
 30
0.0
 11
-17.6882882006068414
 21
-78.0200260223725763
 31
0.0
  0
LINE
  5
1290C6
  8
0
 62
     0
 10
-11.4882438526556108
 20
-84.2200703703238105
 30
0.0
 11
-11.7547463733561806
 21
-83.9535678496232407
 31
0.0
  0
LINE
  5
1290C7
  8
0
 62
     0
 10
-79.1066672813716991
 20
-25.5819030626749395
 30
0.0
 11
-81.8836793741800335
 21
-22.8048909698666087
 31
0.0
  0
LINE
  5
1290C8
  8
0
 62
     0
 10
-73.7936630144995434
 20
-30.8949073295470988
 30
0.0
 11
-74.6165392208371259
 21
-30.0720311232095199
 31
0.0
  0
LINE
  5
1290C9
  8
0
 62
     0
 10
-25.2251305549584899
 20
-79.4634397890881559
 30
0.0
 11
-29.7152586154930596
 21
-74.9733117285535826
 31
0.0
  0
LINE
  5
1290CA
  8
0
 62
     0
 10
-70.1264111603093596
 20
-43.5424153048117688
 30
0.0
 11
-74.6165392208439329
 21
-39.0522872442772027
 31
0.0
  0
LINE
  5
1290CB
  8
0
 62
     0
 10
-61.1461550392402131
 20
-52.5226714258809224
 30
0.0
 11
-65.6362830997747864
 21
-48.0325433653463421
 31
0.0
  0
LINE
  5
1290CC
  8
0
 62
     0
 10
-52.1658989181710666
 20
-61.5029275469500618
 30
0.0
 11
-56.6560269787056399
 21
-57.0127994864154815
 31
0.0
  0
LINE
  5
1290CD
  8
0
 62
     0
 10
-43.1856427971019201
 20
-70.4831836680192083
 30
0.0
 11
-47.6757708576364934
 21
-65.9930556074846351
 31
0.0
  0
LINE
  5
1290CE
  8
0
 62
     0
 10
-37.2806547061027231
 20
-76.3881717590184053
 30
0.0
 11
-38.6955147365673469
 21
-74.9733117285537816
 31
0.0
  0
LINE
  5
1290CF
  8
0
 62
     0
 10
44.9331203908948069
 20
71.5171162463805246
 30
0.0
 11
43.3141962552572082
 21
73.1360403820181233
 31
0.0
  0
LINE
  5
1290D0
  8
0
 62
     0
 10
53.9133765119639605
 20
62.536860125311371
 30
0.0
 11
49.4232484514293802
 21
67.0269881858459513
 31
0.0
  0
LINE
  5
1290D1
  8
0
 62
     0
 10
26.9726081487571783
 20
80.4973723674509358
 30
0.0
 11
26.8082224988425217
 21
80.6617580173655853
 31
0.0
  0
LINE
  5
1290D2
  8
0
 62
     0
 10
35.9528642698263283
 20
71.5171162463817893
 30
0.0
 11
31.4627362092917515
 21
76.0072443069163626
 31
0.0
  0
LINE
  5
1290D3
  8
0
 62
     0
 10
17.9923520276899715
 20
80.4973723674509358
 30
0.0
 11
14.7855594312329792
 21
83.7041649639079282
 31
0.0
  0
LINE
  5
1290D4
  8
0
 62
     0
 10
9.0120959066214148
 20
80.4973723674522859
 30
0.0
 11
4.6359882403447514
 21
84.8734800337289528
 31
0.0
  0
LINE
  5
1290D5
  8
0
 62
     0
 10
0.0000000000009095
 20
80.5292121529982978
 30
0.0
 11
-4.3589470933702961
 21
84.8881592463694972
 31
0.0
  0
LINE
  5
1290D6
  8
0
 62
     0
 10
0.0318397855472008
 20
80.4973723674519874
 30
0.0
 11
0.0000000000023798
 21
80.5292121529968057
 31
0.0
  0
LINE
  5
1290D7
  8
0
 62
     0
 10
-8.9484163355201414
 20
80.4973723674521437
 30
0.0
 11
-12.5234176181594599
 21
84.0723736500914356
 31
0.0
  0
LINE
  5
1290D8
  8
0
 62
     0
 10
-17.9286724565876483
 20
80.4973723674524138
 30
0.0
 11
-20.0361084200146493
 21
82.6048083308794361
 31
0.0
  0
LINE
  5
1290D9
  8
0
 62
     0
 10
-26.9089285776562015
 20
80.4973723674537638
 30
0.0
 11
-27.0069832314469593
 21
80.5954270212445039
 31
0.0
  0
LINE
  5
1290DA
  8
0
 62
     0
 10
-29.6817446048526108
 20
74.2899322735756868
 30
0.0
 11
-31.399056638193219
 21
76.0072443069162915
 31
0.0
  0
LINE
  5
1290DB
  8
0
 62
     0
 10
-35.8891846987254866
 20
71.517116246381363
 30
0.0
 11
-39.5895412915847231
 21
75.2174728392405854
 31
0.0
  0
LINE
  5
1290DC
  8
0
 62
     0
 10
-44.869440819792203
 20
71.5171162463808514
 30
0.0
 11
-45.2848250302766502
 21
71.9325004568652986
 31
0.0
  0
LINE
  5
1290DD
  8
0
 62
     0
 10
-47.0408424597280828
 20
64.7082617652422414
 30
0.0
 11
-49.3595688803323398
 21
67.0269881858465055
 31
0.0
  0
LINE
  5
1290DE
  8
0
 62
     0
 10
-53.8496969408632609
 20
62.5368601253101986
 30
0.0
 11
-55.6033390872543265
 21
64.2905022717012713
 31
0.0
  0
LINE
  5
1290DF
  8
0
 62
     0
 10
-56.7148991412723191
 20
56.4218062046520572
 30
0.0
 11
-58.3398250013962212
 21
58.0467320647759593
 31
0.0
  0
LINE
  5
1290E0
  8
0
 62
     0
 10
-62.8299530619306594
 20
53.5566040042431766
 30
0.0
 11
-64.5616380191424213
 21
55.2882889614549384
 31
0.0
  0
LINE
  5
1290E1
  8
0
 62
     0
 10
53.9133765119689485
 20
-63.1867255696564314
 30
0.0
 11
52.7266509423088081
 21
-61.999999999996291
 31
0.0
  0
LINE
  5
1290E2
  8
0
 62
     0
 10
-64.9542284166072932
 20
46.7006232378453205
 30
0.0
 11
-67.3200811224721463
 21
49.0664759437101665
 31
0.0
  0
LINE
  5
1290E3
  8
0
 62
     0
 10
50.2802801069983616
 20
-68.5338852857603342
 30
0.0
 11
49.423248451427483
 21
-67.6768536301894557
 31
0.0
  0
LINE
  5
1290E4
  8
0
 62
     0
 10
-71.8102091830036642
 20
44.5763478831744777
 30
0.0
 11
-72.158191310029224
 21
44.9243300102000376
 31
0.0
  0
LINE
  5
1290E5
  8
0
 62
     0
 10
44.9243300101989007
 20
-72.1581913100280872
 30
0.0
 11
41.2882530732591206
 21
-68.5221143730883
 31
0.0
  0
LINE
  5
1290E6
  8
0
 62
     0
 10
-71.8102091830018452
 20
35.596091762105452
 30
0.0
 11
-75.4187889657494139
 21
39.2046715448530065
 31
0.0
  0
LINE
  5
1290E7
  8
0
 62
     0
 10
35.9528642698273586
 20
-72.1669816907237589
 30
0.0
 11
35.4852394755411495
 21
-71.6993568964375356
 31
0.0
  0
LINE
  5
1290E8
  8
0
 62
     0
 10
-74.456295421606228
 20
29.2619218796426104
 30
0.0
 11
-76.3003372435351821
 21
31.1059637015715715
 31
0.0
  0
LINE
  5
1290E9
  8
0
 62
     0
 10
33.0972218356028023
 20
-78.2915953775664093
 30
0.0
 11
31.4627362092951515
 21
-76.6571097512587443
 31
0.0
  0
LINE
  5
1290EA
  8
0
 62
     0
 10
26.5669242854255607
 20
-80.7415539484636611
 30
0.0
 11
22.5743139699822315
 21
-76.7489436330203318
 31
0.0
  0
LINE
  5
1290EB
  8
0
 62
     0
 10
-80.7904653040734928
 20
17.6355795199681786
 30
0.0
 11
-82.7180832908525758
 21
19.5631975067472688
 31
0.0
  0
LINE
  5
1290EC
  8
0
 62
     0
 10
17.9923520276846496
 20
-81.147237811789978
 30
0.0
 11
15.3572468416495393
 21
-78.5121326257548589
 31
0.0
  0
LINE
  5
1290ED
  8
0
 62
     0
 10
-80.7904653040737344
 20
8.6553233989012011
 30
0.0
 11
-84.146987812405996
 21
12.0118459072334591
 31
0.0
  0
LINE
  5
1290EE
  8
0
 62
     0
 10
9.0120959066170698
 20
-81.1472378117896085
 30
0.0
 11
7.5114414912479814
 21
-79.6465833964205245
 31
0.0
  0
LINE
  5
1290EF
  8
0
 62
     0
 10
-80.7904653040705796
 20
-0.324932722169168
 30
0.0
 11
-81.1153980262432128
 21
0.0000000000034687
 31
0.0
  0
LINE
  5
1290F0
  8
0
 62
     0
 10
0.0000000000027285
 20
-81.1153980262424739
 30
0.0
 11
-1.1232844648995131
 21
-79.9921135613402328
 31
0.0
  0
LINE
  5
1290F1
  8
0
 62
     0
 10
-81.1153980262424739
 20
0.0000000000027285
 30
0.0
 11
-84.915032688185363
 21
3.7996346619456149
 31
0.0
  0
LINE
  5
1290F2
  8
0
 62
     0
 10
0.0318397855501815
 20
-81.1472378117899353
 30
0.0
 11
0.0000000000027881
 21
-81.1153980262425307
 31
0.0
  0
LINE
  5
1290F3
  8
0
 62
     0
 10
-80.7904653040733649
 20
-9.3051888432408596
 30
0.0
 11
-84.8371884148820641
 21
-5.2584657324321693
 31
0.0
  0
LINE
  5
1290F4
  8
0
 62
     0
 10
-8.9484163355213138
 20
-81.1472378117929054
 30
0.0
 11
-10.8324317677169102
 21
-79.2632223795973232
 31
0.0
  0
LINE
  5
1290F5
  8
0
 62
     0
 10
-80.7904653040723844
 20
-18.2854449643090504
 30
0.0
 11
-83.5745677906163991
 21
-15.5013424777650304
 31
0.0
  0
LINE
  5
1290F6
  8
0
 62
     0
 10
-17.9286724565896201
 20
-81.1472378117918254
 30
0.0
 11
-22.2251193033462187
 21
-76.8507909650352303
 31
0.0
  0
LINE
  5
1290F7
  8
0
 62
     0
 10
-71.8102091830022999
 20
-36.24595720644637
 30
0.0
 11
-76.3003372435368732
 21
-31.7558291459118003
 31
0.0
  0
LINE
  5
1290F8
  8
0
 62
     0
 10
-35.8891846987231133
 20
-72.1669816907255495
 30
0.0
 11
-37.2660359956648293
 21
-70.7901303937838264
 31
0.0
  0
LINE
  5
1290F9
  8
0
 62
     0
 10
-27.6943362850242885
 20
-80.3618301044243708
 30
0.0
 11
-31.3990566381885294
 21
-76.6571097512601227
 31
0.0
  0
LINE
  5
1290FA
  8
0
 62
     0
 10
-71.8102091830042326
 20
-45.2262133275189129
 30
0.0
 11
-72.2338574844905992
 21
-44.8025650260325392
 31
0.0
  0
LINE
  5
1290FB
  8
0
 62
     0
 10
-62.829953061935079
 20
-54.2064694485880594
 30
0.0
 11
-67.3200811224696452
 21
-49.7163413880534932
 31
0.0
  0
LINE
  5
1290FC
  8
0
 62
     0
 10
-53.8496969408659325
 20
-63.186725569657213
 30
0.0
 11
-58.3398250014004986
 21
-58.6965975091226397
 31
0.0
  0
LINE
  5
1290FD
  8
0
 62
     0
 10
-44.8694408197967789
 20
-72.1669816907263453
 30
0.0
 11
-49.3595688803313521
 21
-67.6768536301917862
 31
0.0
  0
LINE
  5
1290FE
  8
0
 62
     0
 10
43.2493223681933685
 20
69.8333182236799246
 30
0.0
 11
38.7591943076587881
 21
74.323446284214512
 31
0.0
  0
LINE
  5
1290FF
  8
0
 62
     0
 10
51.0826405918733073
 20
62.0
 30
0.0
 11
47.7394504287279418
 21
65.3431901631453655
 31
0.0
  0
LINE
  5
129100
  8
0
 62
     0
 10
25.2888101260552105
 20
78.8135743447508901
 30
0.0
 11
21.9983489943185688
 21
82.1040354764875246
 31
0.0
  0
LINE
  5
129101
  8
0
 62
     0
 10
29.9000435773023092
 20
74.2023408935037878
 30
0.0
 11
29.7789381865897909
 21
74.3234462842163168
 31
0.0
  0
LINE
  5
129102
  8
0
 62
     0
 10
16.3085540049894711
 20
78.8135743447494121
 30
0.0
 11
11.8184259444548907
 21
83.3037024052839854
 31
0.0
  0
LINE
  5
129103
  8
0
 62
     0
 10
6.3981333548645116
 20
79.7437388738071604
 30
0.0
 11
2.8381698233864721
 21
83.3037024052852075
 31
0.0
  0
LINE
  5
129104
  8
0
 62
     0
 10
-2.7897279581529801
 20
79.9513440657501633
 30
0.0
 11
-6.1420862976912352
 21
83.303702405288405
 31
0.0
  0
LINE
  5
129105
  8
0
 62
     0
 10
-11.0516010478731896
 20
79.2329610344031607
 30
0.0
 11
-15.1223424187583895
 21
83.3037024052883623
 31
0.0
  0
LINE
  5
129106
  8
0
 62
     0
 10
-19.6124704792888416
 20
78.8135743447515864
 30
0.0
 11
-22.7091730261888713
 21
81.9102768916516197
 31
0.0
  0
LINE
  5
129107
  8
0
 62
     0
 10
-28.5927266003563396
 20
78.8135743447518848
 30
0.0
 11
-29.4969621937819397
 21
79.7178099381774814
 31
0.0
  0
LINE
  5
129108
  8
0
 62
     0
 10
-32.0561068810056895
 20
73.2966985043267414
 30
0.0
 11
-33.0828546608966434
 21
74.3234462842176953
 31
0.0
  0
LINE
  5
129109
  8
0
 62
     0
 10
-38.0899179028147117
 20
70.3502534050685426
 30
0.0
 11
-41.7690350786249667
 21
74.0293705808788047
 31
0.0
  0
LINE
  5
12910A
  8
0
 62
     0
 10
-46.5532388424978834
 20
69.8333182236845147
 30
0.0
 11
-47.3261326118538719
 21
70.6062119930405032
 31
0.0
  0
LINE
  5
12910B
  8
0
 62
     0
 10
-48.9649595155024073
 20
63.2647827756145489
 30
0.0
 11
-51.0433669030345669
 21
65.3431901631467014
 31
0.0
  0
LINE
  5
12910C
  8
0
 62
     0
 10
-55.5334949635677688
 20
60.8530621026126894
 30
0.0
 11
-57.385412336258149
 21
62.7049794753030696
 31
0.0
  0
LINE
  5
12910D
  8
0
 62
     0
 10
-58.369267712491812
 20
54.7085787304695188
 30
0.0
 11
-60.0236230241010631
 21
56.3629340420787699
 31
0.0
  0
LINE
  5
12910E
  8
0
 62
     0
 10
-64.5137510846357713
 20
51.8728059815462714
 30
0.0
 11
-66.0912984344567462
 21
53.4503533313672392
 31
0.0
  0
LINE
  5
12910F
  8
0
 62
     0
 10
52.2295784892645329
 20
-64.8705235923540471
 30
0.0
 11
49.8938639359105025
 21
-62.5348090390000166
 31
0.0
  0
LINE
  5
129110
  8
0
 62
     0
 10
-66.3365487301134635
 20
44.7153475059494667
 30
0.0
 11
-69.0038791451726041
 21
47.3826779210086002
 31
0.0
  0
LINE
  5
129111
  8
0
 62
     0
 10
48.3132601753031921
 20
-69.9344613994671818
 30
0.0
 11
47.7394504287262365
 21
-69.3606516528902404
 31
0.0
  0
LINE
  5
129112
  8
0
 62
     0
 10
42.8231709048132032
 20
-73.4246282500444067
 30
0.0
 11
39.1592355404338619
 21
-69.7606928856650654
 31
0.0
  0
LINE
  5
129113
  8
0
 62
     0
 10
-73.4940072057034968
 20
33.9122937394050794
 30
0.0
 11
-76.5431429405617507
 21
36.9614294742633405
 31
0.0
  0
LINE
  5
129114
  8
0
 62
     0
 10
34.2690662471266805
 20
-73.8507797134250978
 30
0.0
 11
33.2027465578851135
 21
-72.7844600241835309
 31
0.0
  0
LINE
  5
129115
  8
0
 62
     0
 10
-75.3733890965631872
 20
26.8114195091975489
 30
0.0
 11
-77.9841352662352705
 21
29.4221656788696393
 31
0.0
  0
LINE
  5
129116
  8
0
 62
     0
 10
30.7002281562781683
 20
-79.2621977436438101
 30
0.0
 11
29.7789381865952407
 21
-78.340907773960879
 31
0.0
  0
LINE
  5
129117
  8
0
 62
     0
 10
-77.4765854946726904
 20
19.9343597862325588
 30
0.0
 11
-77.9841352662420064
 21
20.4419095578018783
 31
0.0
  0
LINE
  5
129118
  8
0
 62
     0
 10
23.9993624622857205
 20
-81.541588170725845
 30
0.0
 11
20.7986820655185909
 21
-78.3409077739587048
 31
0.0
  0
LINE
  5
129119
  8
0
 62
     0
 10
-82.4742633267750733
 20
15.9517814972677296
 30
0.0
 11
-83.3231011759430942
 21
16.8006193464357487
 31
0.0
  0
LINE
  5
12911A
  8
0
 62
     0
 10
16.3085540049856093
 20
-82.8310358344929369
 30
0.0
 11
12.4956148864326995
 21
-79.0180967159400325
 31
0.0
  0
LINE
  5
12911B
  8
0
 62
     0
 10
-82.4742633267740217
 20
6.9715253761994598
 30
0.0
 11
-84.5203131636228875
 21
9.0175752130483318
 31
0.0
  0
LINE
  5
12911C
  8
0
 62
     0
 10
7.3282978839184798
 20
-82.8310358344930364
 30
0.0
 11
4.3774114543840019
 21
-79.8801494049585585
 31
0.0
  0
LINE
  5
12911D
  8
0
 62
     0
 10
-82.4742633267730554
 20
-2.0087307448687288
 30
0.0
 11
-84.4829940716450949
 21
0.0000000000033444
 31
0.0
  0
LINE
  5
12911E
  8
0
 62
     0
 10
-1.6519582371493149
 20
-82.8310358344924538
 30
0.0
 11
-4.6162936719503618
 21
-79.8667003996914104
 31
0.0
  0
LINE
  5
12911F
  8
0
 62
     0
 10
-84.482994071644498
 20
0.0000000000027285
 30
0.0
 11
-84.9984371528672682
 21
0.5154430812255199
 31
0.0
  0
LINE
  5
129120
  8
0
 62
     0
 10
-82.4742633267768781
 20
-10.9889868659393706
 30
0.0
 11
-84.5291807825895063
 21
-8.9340694101267335
 31
0.0
  0
LINE
  5
129121
  8
0
 62
     0
 10
-10.6322143582262694
 20
-82.8310358344899953
 30
0.0
 11
-14.8544355111166393
 21
-78.6088146815996254
 31
0.0
  0
LINE
  5
129122
  8
0
 62
     0
 10
-82.474263326775457
 20
-19.9692429870079913
 30
0.0
 11
-82.6674524420842971
 21
-19.776053871699169
 31
0.0
  0
LINE
  5
129123
  8
0
 62
     0
 10
-75.228668900776924
 20
-27.2148374130065385
 30
0.0
 11
-77.984135266240898
 21
-24.4593710475425716
 31
0.0
  0
LINE
  5
129124
  8
0
 62
     0
 10
-19.7760538717056988
 20
-82.6674524420777743
 30
0.0
 11
-24.1025985398244416
 21
-78.3409077739590316
 31
0.0
  0
LINE
  5
129125
  8
0
 62
     0
 10
-73.4940072057067937
 20
-37.9297552291438933
 30
0.0
 11
-77.9841352662413669
 21
-33.4396271686093201
 31
0.0
  0
LINE
  5
129126
  8
0
 62
     0
 10
-65.5193422147985984
 20
-45.9044202200520814
 30
0.0
 11
-69.0038791451722204
 21
-42.4198832896784666
 31
0.0
  0
LINE
  5
129127
  8
0
 62
     0
 10
-37.5729827214264276
 20
-73.8507797134242452
 30
0.0
 11
-42.0631107819610008
 21
-69.3606516528896861
 31
0.0
  0
LINE
  5
129128
  8
0
 62
     0
 10
52.2295784892645472
 20
-65.9930556074926926
 30
0.0
 11
56.2226340967510794
 21
-62.0000000000061675
 31
0.0
  0
LINE
  5
129129
  8
0
 62
     0
 10
34.269066247123547
 20
-74.9733117285628339
 30
0.0
 11
38.7591943076581202
 21
-70.4831836680282748
 31
0.0
  0
LINE
  5
12912A
  8
0
 62
     0
 10
29.5408039518370096
 20
-79.7015740238493891
 30
0.0
 11
29.7789381865889702
 21
-79.4634397890974213
 31
0.0
  0
LINE
  5
12912B
  8
0
 62
     0
 10
16.9742104993383691
 20
-83.2879113552771742
 30
0.0
 11
20.7986820655219589
 21
-79.4634397890935844
 31
0.0
  0
LINE
  5
12912C
  8
0
 62
     0
 10
7.3282978839146571
 20
-83.9535678496336573
 30
0.0
 11
11.8184259444492294
 21
-79.4634397890990982
 31
0.0
  0
LINE
  5
12912D
  8
0
 62
     0
 10
-0.000000000003638
 20
-82.3016096124811156
 30
0.0
 11
2.3357141352281281
 21
-79.9658954772493331
 31
0.0
  0
LINE
  5
12912E
  8
0
 62
     0
 10
-1.6519582371513131
 20
-83.9535678496287971
 30
0.0
 11
-0.0000000000008116
 21
-82.3016096124783161
 31
0.0
  0
LINE
  5
12912F
  8
0
 62
     0
 10
-10.6322143582179898
 20
-83.9535678496282571
 30
0.0
 11
-6.4205811345711368
 21
-79.7419346259814006
 31
0.0
  0
LINE
  5
129130
  8
0
 62
     0
 10
-18.5990859136290894
 20
-82.9401832839684943
 30
0.0
 11
-15.1223424187547497
 21
-79.4634397890941671
 31
0.0
  0
LINE
  5
129131
  8
0
 62
     0
 10
-25.6702524174506799
 20
-81.0310936667228816
 30
0.0
 11
-24.1025985398233011
 21
-79.4634397890955029
 31
0.0
  0
LINE
  5
129132
  8
0
 62
     0
 10
-28.5927266003572811
 20
-74.9733117285586133
 30
0.0
 11
-28.4063190571205091
 21
-74.786904185321859
 31
0.0
  0
LINE
  5
129133
  8
0
 62
     0
 10
-37.572982721429149
 20
-74.9733117285596506
 30
0.0
 11
-34.6880724736882868
 21
-72.0884014808188027
 31
0.0
  0
LINE
  5
129134
  8
0
 62
     0
 10
-44.1900908195712034
 20
-72.6101637056344771
 30
0.0
 11
-42.0631107819616119
 21
-70.4831836680248927
 31
0.0
  0
LINE
  5
129135
  8
0
 62
     0
 10
-46.5532388425007895
 20
-65.9930556074932042
 30
0.0
 11
-46.0073145972656619
 21
-65.4471313622580908
 31
0.0
  0
LINE
  5
129136
  8
0
 62
     0
 10
-54.6463367681135423
 20
-65.1058974120387575
 30
0.0
 11
-51.0964959421723677
 21
-61.5560565860975828
 31
0.0
  0
LINE
  5
129137
  8
0
 62
     0
 10
54.4990484017835115
 20
61.999999999996362
 30
0.0
 11
56.2364722086040913
 21
63.7374238068169419
 31
0.0
  0
LINE
  5
129138
  8
0
 62
     0
 10
-63.7374238068259729
 20
-56.2364722086131223
 30
0.0
 11
-60.1945537106136896
 21
-52.6936021124008391
 31
0.0
  0
LINE
  5
129139
  8
0
 62
     0
 10
47.7244964085475587
 20
64.2057041278276301
 30
0.0
 11
47.7394504287293486
 21
64.2206581480094201
 31
0.0
  0
LINE
  5
12913A
  8
0
 62
     0
 10
-64.5137510846337108
 20
-48.0325433653536322
 30
0.0
 11
-64.2057041278323339
 21
-47.7244964085522625
 31
0.0
  0
LINE
  5
12913B
  8
0
 62
     0
 10
43.2493223681981434
 20
68.7107862085490666
 30
0.0
 11
46.0096159233329303
 21
71.4710797636838464
 31
0.0
  0
LINE
  5
12913C
  8
0
 62
     0
 10
-71.4710797636907955
 20
-46.0096159233398723
 30
0.0
 11
-69.0038791451704583
 21
-43.5424153048195279
 31
0.0
  0
LINE
  5
12913D
  8
0
 62
     0
 10
36.6627366097600316
 20
71.1044565711817995
 30
0.0
 11
38.7591943076617795
 21
73.2009142690835546
 31
0.0
  0
LINE
  5
12913E
  8
0
 62
     0
 10
-73.4940072057061258
 20
-39.052287244284372
 30
0.0
 11
-71.1044565711848122
 21
-36.6627366097630372
 31
0.0
  0
LINE
  5
12913F
  8
0
 62
     0
 10
34.2690662471223888
 20
77.6910423296113635
 30
0.0
 11
34.3348235620531668
 21
77.7567996445421556
 31
0.0
  0
LINE
  5
129140
  8
0
 62
     0
 10
25.2888101260518816
 20
77.6910423296117045
 30
0.0
 11
27.891411247385399
 21
80.2936434509452255
 31
0.0
  0
LINE
  5
129141
  8
0
 62
     0
 10
-80.293643450957461
 20
-27.891411247397631
 30
0.0
 11
-77.984135266243527
 21
-25.5819030626836899
 31
0.0
  0
LINE
  5
129142
  8
0
 62
     0
 10
16.8276734576102101
 20
78.2101617822372646
 30
0.0
 11
20.7986820655241296
 21
82.1811703901511663
 31
0.0
  0
LINE
  5
129143
  8
0
 62
     0
 10
-82.3685847650376672
 20
-20.9860964404106198
 30
0.0
 11
-78.210161782237833
 21
-16.8276734576107785
 31
0.0
  0
LINE
  5
129144
  8
0
 62
     0
 10
9.1161564725189237
 20
79.4789009182168229
 30
0.0
 11
11.8184259444521604
 21
82.1811703901500437
 31
0.0
  0
LINE
  5
129145
  8
0
 62
     0
 10
-82.4742633267740217
 20
-12.1115188810761207
 30
0.0
 11
-79.4789009182263442
 21
-9.1161564725284503
 31
0.0
  0
LINE
  5
129146
  8
0
 62
     0
 10
0.6543235180615738
 20
79.9973240848266869
 30
0.0
 11
2.8381698233817172
 21
82.1811703901468462
 31
0.0
  0
LINE
  5
129147
  8
0
 62
     0
 10
-82.4742633267752865
 20
-3.1312627600101668
 30
0.0
 11
-79.9973240848304101
 21
-0.6543235180652945
 31
0.0
  0
LINE
  5
129148
  8
0
 62
     0
 10
-8.8098167635507707
 20
79.5134399242851941
 30
0.0
 11
-6.1420862976823436
 21
82.1811703901536248
 31
0.0
  0
LINE
  5
129149
  8
0
 62
     0
 10
-82.4742633267710659
 20
5.8489933610649114
 30
0.0
 11
-79.5134399242881926
 21
8.8098167635477775
 31
0.0
  0
LINE
  5
12914A
  8
0
 62
     0
 10
-19.61247047929308
 20
77.6910423296137367
 30
0.0
 11
-15.1223424187585103
 21
82.1811703901483099
 31
0.0
  0
LINE
  5
12914B
  8
0
 62
     0
 10
-82.4742633267794361
 20
14.8292494821273593
 30
0.0
 11
-77.984135266244877
 21
19.3193775426619396
 31
0.0
  0
LINE
  5
12914C
  8
0
 62
     0
 10
-28.5927266003613987
 20
77.6910423296126282
 30
0.0
 11
-25.0627086311101017
 21
81.2210602988639181
 31
0.0
  0
LINE
  5
12914D
  8
0
 62
     0
 10
-33.7527092501950392
 20
72.5310596797789913
 30
0.0
 11
-33.0828546608959826
 21
73.200914269078055
 31
0.0
  0
LINE
  5
12914E
  8
0
 62
     0
 10
-73.4940072057044347
 20
32.7897617242696029
 30
0.0
 11
-72.5310596797806397
 21
33.7527092501933765
 31
0.0
  0
LINE
  5
12914F
  8
0
 62
     0
 10
-81.2210602988707251
 20
25.0627086311032983
 30
0.0
 11
-77.9841352662389937
 21
28.2996336637350083
 31
0.0
  0
LINE
  5
129150
  8
0
 62
     0
 10
-46.5532388425064312
 20
68.7107862085384653
 30
0.0
 11
-42.0631107819718508
 21
73.2009142690730243
 31
0.0
  0
LINE
  5
129151
  8
0
 62
     0
 10
-55.5334949635755777
 20
59.7305300874693188
 30
0.0
 11
-51.0433669030409973
 21
64.2206581480038921
 31
0.0
  0
LINE
  5
129152
  8
0
 62
     0
 10
-64.5137510846447242
 20
50.7502739664001723
 30
0.0
 11
-60.0236230241101509
 21
55.2404020269347384
 31
0.0
  0
LINE
  5
129153
  8
0
 62
     0
 10
-73.4940072057138707
 20
41.7700178453310187
 30
0.0
 11
-69.0038791451792974
 21
46.2601459058655919
 31
0.0
  0
LINE
  5
129154
  8
0
 62
     0
 10
44.933120390903099
 20
-67.6768536301853203
 30
0.0
 11
49.4232484514376722
 21
-63.186725569650747
 31
0.0
  0
LINE
  5
129155
  8
0
 62
     0
 10
35.9528642698339524
 20
-76.6571097512544668
 30
0.0
 11
40.4429923303685186
 21
-72.1669816907198935
 31
0.0
  0
LINE
  5
129156
  8
0
 62
     0
 10
26.9726081487577609
 20
-76.6571097512634338
 30
0.0
 11
29.1163922178627388
 21
-74.5133256821584666
 31
0.0
  0
LINE
  5
129157
  8
0
 62
     0
 10
21.3563561635855912
 20
-82.2733617364356178
 30
0.0
 11
22.4824800882231912
 21
-81.1472378117980355
 31
0.0
  0
LINE
  5
129158
  8
0
 62
     0
 10
10.27247257450653
 20
-84.3769892044438166
 30
0.0
 11
13.5022239671540198
 21
-81.147237811796316
 31
0.0
  0
LINE
  5
129159
  8
0
 62
     0
 10
0.6718609768358875
 20
-84.9973446810436144
 30
0.0
 11
4.5219678460822736
 21
-81.1472378117972255
 31
0.0
  0
LINE
  5
12915A
  8
0
 62
     0
 10
-7.9394452766355244
 20
-84.6283948134441744
 30
0.0
 11
-4.458288274981383
 21
-81.1472378117900348
 31
0.0
  0
LINE
  5
12915B
  8
0
 62
     0
 10
-15.8083476308747795
 20
-83.5170410466162139
 30
0.0
 11
-13.4385443960515101
 21
-81.147237811792948
 31
0.0
  0
LINE
  5
12915C
  8
0
 62
     0
 10
-23.0785374132647085
 20
-81.8069747079389344
 30
0.0
 11
-22.4188005171211593
 21
-81.1472378117953781
 31
0.0
  0
LINE
  5
12915D
  8
0
 62
     0
 10
-26.9089285776587808
 20
-76.6571097512621407
 30
0.0
 11
-25.9322044707999986
 21
-75.6803856444033727
 31
0.0
  0
LINE
  5
12915E
  8
0
 62
     0
 10
-35.8891846987211665
 20
-76.6571097512573232
 30
0.0
 11
-32.3843430342443028
 21
-73.1522680867804524
 31
0.0
  0
LINE
  5
12915F
  8
0
 62
     0
 10
-42.0706893913375026
 20
-73.8583583228028147
 30
0.0
 11
-40.3793127592594914
 21
-72.1669816907247963
 31
0.0
  0
LINE
  5
129160
  8
0
 62
     0
 10
-44.8694408197962318
 20
-67.6768536301906778
 30
0.0
 11
-44.0034725540686225
 21
-66.8108853644630756
 31
0.0
  0
LINE
  5
129161
  8
0
 62
     0
 10
-52.7915507019497383
 20
-66.6187073912769847
 30
0.0
 11
-49.3595688803276573
 21
-63.1867255696548966
 31
0.0
  0
LINE
  5
129162
  8
0
 62
     0
 10
57.8666444471891666
 20
62.0
 30
0.0
 11
58.0018567734589965
 21
62.1352123262698228
 31
0.0
  0
LINE
  5
129163
  8
0
 62
     0
 10
-62.1352123262804525
 20
-58.0018567734696333
 30
0.0
 11
-58.597455614397802
 21
-54.4641000615869615
 31
0.0
  0
LINE
  5
129164
  8
0
 62
     0
 10
-62.8299530619295794
 20
-49.7163413880515321
 30
0.0
 11
-62.7440668238946486
 21
-49.6304551500166085
 31
0.0
  0
LINE
  5
129165
  8
0
 62
     0
 10
44.9331203909030208
 20
67.0269881858519199
 30
0.0
 11
48.033225644159657
 21
70.127093439108549
 31
0.0
  0
LINE
  5
129166
  8
0
 62
     0
 10
-70.1270934391141054
 20
-48.0332256441652206
 30
0.0
 11
-67.3200811224616302
 21
-45.2262133275127312
 31
0.0
  0
LINE
  5
129167
  8
0
 62
     0
 10
38.8559495941481217
 20
69.9300735101642204
 30
0.0
 11
40.4429923303663372
 21
71.517116246382443
 31
0.0
  0
LINE
  5
129168
  8
0
 62
     0
 10
-71.81020918300716
 20
-40.7360852669910471
 30
0.0
 11
-69.9300735101642061
 21
-38.8559495941481003
 31
0.0
  0
LINE
  5
129169
  8
0
 62
     0
 10
35.9528642698298668
 20
76.0072443069168031
 30
0.0
 11
36.6421284876908402
 21
76.6965085247777836
 31
0.0
  0
LINE
  5
12916A
  8
0
 62
     0
 10
-76.6965085247902607
 20
-36.6421284877033031
 30
0.0
 11
-76.3003372435334342
 21
-36.2459572064464766
 31
0.0
  0
LINE
  5
12916B
  8
0
 62
     0
 10
26.9726081487559703
 20
76.0072443069137762
 30
0.0
 11
30.3589164328610011
 21
79.3935525910188034
 31
0.0
  0
LINE
  5
12916C
  8
0
 62
     0
 10
-79.3935525910237629
 20
-30.35891643286595
 30
0.0
 11
-76.300337243543467
 21
-27.2657010853856612
 31
0.0
  0
LINE
  5
12916D
  8
0
 62
     0
 10
19.5576449079380801
 20
77.5725371871667448
 30
0.0
 11
22.4824800882247402
 21
80.4973723674534085
 31
0.0
  0
LINE
  5
12916E
  8
0
 62
     0
 10
-80.7904653040729102
 20
-22.7755730248442383
 30
0.0
 11
-77.5725371871666596
 21
-19.5576449079379984
 31
0.0
  0
LINE
  5
12916F
  8
0
 62
     0
 10
12.0865515752266202
 20
79.081699975522497
 30
0.0
 11
13.5022239671576596
 21
80.4973723674535364
 31
0.0
  0
LINE
  5
129170
  8
0
 62
     0
 10
-80.790465304068249
 20
-13.7953169037723793
 30
0.0
 11
-79.081699975522767
 21
-12.0865515752268902
 31
0.0
  0
LINE
  5
129171
  8
0
 62
     0
 10
3.928099973720236
 20
79.9035044950833253
 30
0.0
 11
4.5219678460826529
 21
80.4973723674457347
 31
0.0
  0
LINE
  5
129172
  8
0
 62
     0
 10
-80.7904653040732939
 20
-4.8150607827102077
 30
0.0
 11
-79.9035044950810089
 21
-3.9280999737179161
 31
0.0
  0
LINE
  5
129173
  8
0
 62
     0
 10
-5.1196460612445662
 20
79.8360145811893744
 30
0.0
 11
-4.4582882749795187
 21
80.4973723674544033
 31
0.0
  0
LINE
  5
129174
  8
0
 62
     0
 10
-80.7904653040678795
 20
4.1651953383660549
 30
0.0
 11
-79.8360145811883939
 21
5.1196460612455423
 31
0.0
  0
LINE
  5
129175
  8
0
 62
     0
 10
0.0318397855555877
 20
84.9875004279895307
 30
0.0
 11
0.0443277990146077
 21
84.9999884414485507
 31
0.0
  0
LINE
  5
129176
  8
0
 62
     0
 10
-15.4400202085962501
 20
78.4958965549049026
 30
0.0
 11
-13.4385443960497302
 21
80.497372367451419
 31
0.0
  0
LINE
  5
129177
  8
0
 62
     0
 10
-80.7904653040673679
 20
13.1454514594337795
 30
0.0
 11
-78.4958965549012646
 21
15.4400202085998792
 31
0.0
  0
LINE
  5
129178
  8
0
 62
     0
 10
-26.9089285776573099
 20
76.0072443069146999
 30
0.0
 11
-22.4188005171227296
 21
80.4973723674492732
 31
0.0
  0
LINE
  5
129179
  8
0
 62
     0
 10
-80.790465304069599
 20
22.1257075805023895
 30
0.0
 11
-76.30033724353504
 21
26.6158356410369699
 31
0.0
  0
LINE
  5
12917A
  8
0
 62
     0
 10
-35.8891846987239518
 20
76.0072443069189063
 30
0.0
 11
-33.9869464623244824
 21
77.9094825433183757
 31
0.0
  0
LINE
  5
12917B
  8
0
 62
     0
 10
-44.8694408197930983
 20
67.0269881858497598
 30
0.0
 11
-40.3793127592585179
 21
71.5171162463843331
 31
0.0
  0
LINE
  5
12917C
  8
0
 62
     0
 10
-71.8102091830038205
 20
40.0862198226390305
 30
0.0
 11
-67.3200811224692472
 21
44.5763478831736109
 31
0.0
  0
LINE
  5
12917D
  8
0
 62
     0
 10
-77.9094825433203368
 20
33.9869464623225213
 30
0.0
 11
-76.3003372435383937
 21
35.5960917621044715
 31
0.0
  0
LINE
  5
12917E
  8
0
 62
     0
 10
46.6169184136045089
 20
-69.3606516528822823
 30
0.0
 11
51.1070464741391035
 21
-64.870523592347709
 31
0.0
  0
LINE
  5
12917F
  8
0
 62
     0
 10
28.6564061714592491
 20
-78.340907773960339
 30
0.0
 11
33.146534231993833
 21
-73.8507797134257657
 31
0.0
  0
LINE
  5
129180
  8
0
 62
     0
 10
19.6761500503874807
 20
-78.3409077739612627
 30
0.0
 11
20.7567308478987513
 21
-77.2603269764499885
 31
0.0
  0
LINE
  5
129181
  8
0
 62
     0
 10
14.2139302815739903
 20
-83.803127542774746
 30
0.0
 11
15.1860219898529003
 21
-82.831035834495836
 31
0.0
  0
LINE
  5
129182
  8
0
 62
     0
 10
4.137563990414491
 20
-84.8992377128633962
 30
0.0
 11
6.20576586877878
 21
-82.8310358344991045
 31
0.0
  0
LINE
  5
129183
  8
0
 62
     0
 10
-4.8073980231201849
 20
-84.863943605327222
 30
0.0
 11
-2.774490252282046
 21
-82.8310358344890858
 31
0.0
  0
LINE
  5
129184
  8
0
 62
     0
 10
-12.9339118495845398
 20
-84.0102013107243693
 30
0.0
 11
-11.7547463733502298
 21
-82.8310358344900521
 31
0.0
  0
LINE
  5
129185
  8
0
 62
     0
 10
-16.2448744338868813
 20
-78.3409077739594863
 30
0.0
 11
-16.2385634648968313
 21
-78.3345968049694363
 31
0.0
  0
LINE
  5
129186
  8
0
 62
     0
 10
-25.2251305549594385
 20
-78.3409077739612059
 30
0.0
 11
-23.3888685685726294
 21
-76.5046457875744039
 31
0.0
  0
LINE
  5
129187
  8
0
 62
     0
 10
-33.8385355575883295
 20
-77.9740566555228725
 30
0.0
 11
-30.0188398810181489
 21
-74.1543609789526954
 31
0.0
  0
LINE
  5
129188
  8
0
 62
     0
 10
-39.8986829476016283
 20
-75.0539479244653194
 30
0.0
 11
-38.6955147365603978
 21
-73.8507797134240889
 31
0.0
  0
LINE
  5
129189
  8
0
 62
     0
 10
-43.1856427970958592
 20
-69.3606516528887056
 30
0.0
 11
-41.9462781774268265
 21
-68.1212870332196587
 31
0.0
  0
LINE
  5
12918A
  8
0
 62
     0
 10
-50.8886313957955281
 20
-68.0833841305211536
 30
0.0
 11
-47.6757708576277892
 21
-64.8705235923534076
 31
0.0
  0
LINE
  5
12918B
  8
0
 62
     0
 10
-60.4857366167125292
 20
-59.7199771093000891
 30
0.0
 11
-56.95012648796245
 21
-56.1843669805500099
 31
0.0
  0
LINE
  5
12918C
  8
0
 62
     0
 10
46.6169184136039974
 20
65.3431901631545173
 30
0.0
 11
50.0071570888857408
 21
68.7334288384362537
 31
0.0
  0
LINE
  5
12918D
  8
0
 62
     0
 10
-68.7334288384408865
 20
-50.0071570888903807
 30
0.0
 11
-65.636283099763304
 21
-46.9100113502127982
 31
0.0
  0
LINE
  5
12918E
  8
0
 62
     0
 10
40.992766717223283
 20
68.6992945878409955
 30
0.0
 11
42.1267903530644716
 21
69.8333182236821983
 31
0.0
  0
LINE
  5
12918F
  8
0
 62
     0
 10
-70.1264111603067732
 20
-42.4198832896890607
 30
0.0
 11
-68.6992945878408534
 21
-40.9927667172231267
 31
0.0
  0
LINE
  5
129190
  8
0
 62
     0
 10
37.6366622925299765
 20
74.3234462842185479
 30
0.0
 11
38.8931345417346606
 21
75.5799185334232249
 31
0.0
  0
LINE
  5
129191
  8
0
 62
     0
 10
-75.5799185334290087
 20
-38.8931345417404373
 30
0.0
 11
-74.6165392208387743
 21
-37.9297552291502029
 31
0.0
  0
LINE
  5
129192
  8
0
 62
     0
 10
28.9219662405812414
 20
74.5890063533406646
 30
0.0
 11
32.7644148138573712
 21
78.4314549266167944
 31
0.0
  0
LINE
  5
129193
  8
0
 62
     0
 10
-78.4314549266237009
 20
-32.7644148138642777
 30
0.0
 11
-74.6165392208452545
 21
-28.9494991080858313
 31
0.0
  0
LINE
  5
129194
  8
0
 62
     0
 10
22.2083441061185987
 20
76.8556403399488772
 30
0.0
 11
24.1662781109255285
 21
78.813574344755807
 31
0.0
  0
LINE
  5
129195
  8
0
 62
     0
 10
-79.1066672813716707
 20
-24.4593710475413886
 30
0.0
 11
-76.855640339945154
 21
-22.208344106114879
 31
0.0
  0
LINE
  5
129196
  8
0
 62
     0
 10
14.9610423185222299
 20
78.5885946734197205
 30
0.0
 11
15.1860219898580198
 21
78.8135743447555086
 31
0.0
  0
LINE
  5
129197
  8
0
 62
     0
 10
-79.1066672813700649
 20
-15.4791149264725796
 30
0.0
 11
-78.5885946734198342
 21
-14.9610423185223507
 31
0.0
  0
LINE
  5
129198
  8
0
 62
     0
 10
10.6958939293202899
 20
83.3037024052849944
 30
0.0
 11
11.5973122087777991
 21
84.2051206847424965
 31
0.0
  0
LINE
  5
129199
  8
0
 62
     0
 10
-84.2051206847536378
 20
-11.5973122087889298
 30
0.0
 11
-83.5967953419054197
 21
-10.9889868659407206
 31
0.0
  0
LINE
  5
12919A
  8
0
 62
     0
 10
1.7156378082550241
 20
83.3037024052905792
 30
0.0
 11
3.3460507193869291
 21
84.9341153164224778
 31
0.0
  0
LINE
  5
12919B
  8
0
 62
     0
 10
-84.9341153164350544
 20
-3.3460507193994991
 30
0.0
 11
-83.5967953419021512
 21
-2.0087307448665999
 31
0.0
  0
LINE
  5
12919C
  8
0
 62
     0
 10
-7.2646183128180137
 20
83.3037024052847528
 30
0.0
 11
-5.7639779129198443
 21
84.8043428051829267
 31
0.0
  0
LINE
  5
12919D
  8
0
 62
     0
 10
-84.8043428051860246
 20
5.7639779129167428
 30
0.0
 11
-83.5967953419022933
 21
6.9715253762004741
 31
0.0
  0
LINE
  5
12919E
  8
0
 62
     0
 10
-16.2448744338842204
 20
83.3037024052894139
 30
0.0
 11
-16.0842273878213788
 21
83.4643494513522342
 31
0.0
  0
LINE
  5
12919F
  8
0
 62
     0
 10
-22.8945523285474302
 20
76.6540245106261864
 30
0.0
 11
-20.7350024944187901
 21
78.8135743447548265
 31
0.0
  0
LINE
  5
1291A0
  8
0
 62
     0
 10
-79.106667281371827
 20
20.4419095578018002
 30
0.0
 11
-76.6540245106287443
 21
22.8945523285448793
 31
0.0
  0
LINE
  5
1291A1
  8
0
 62
     0
 10
-34.2053866760304004
 20
74.3234462842140715
 30
0.0
 11
-29.71525861549582
 21
78.8135743447486448
 31
0.0
  0
LINE
  5
1291A2
  8
0
 62
     0
 10
-79.1066672813737597
 20
29.4221656788707087
 30
0.0
 11
-74.6165392208391864
 21
33.9122937394052926
 31
0.0
  0
LINE
  5
1291A3
  8
0
 62
     0
 10
-52.1658989181666612
 20
65.3431901631450245
 30
0.0
 11
-47.675770857632088
 21
69.8333182236795977
 31
0.0
  0
LINE
  5
1291A4
  8
0
 62
     0
 10
-61.1461550392358006
 20
56.362934042075878
 30
0.0
 11
-56.6560269787012416
 21
60.8530621026104512
 31
0.0
  0
LINE
  5
1291A5
  8
0
 62
     0
 10
-70.1264111603049543
 20
47.3826779210067315
 30
0.0
 11
-65.636283099770381
 21
51.8728059815413118
 31
0.0
  0
ENDBLK
  5
1291A7
  8
0
  0
BLOCK
  8
0
  2
*X185
 70
     1
 10
0.0
 20
0.0
 30
0.0
  3
*X185
  1

  0
LINE
  5
1291A9
  8
0
 62
     0
 10
46.6169184135963022
 20
67.4122287093412069
 30
0.0
 11
44.4999969103917721
 21
69.5291502125457299
 31
0.0
  0
LINE
  5
1291AA
  8
0
 62
     0
 10
52.029147122935683
 20
62.000000000001819
 30
0.0
 11
51.1070464741308683
 21
62.9221006488066266
 31
0.0
  0
LINE
  5
1291AB
  8
0
 62
     0
 10
-44.5000030896108001
 20
68.7265890018552454
 30
0.0
 11
-46.7574819135820121
 21
70.9840678258264717
 31
0.0
  0
LINE
  5
1291AC
  8
0
 62
     0
 10
-55.7339263298972583
 20
62.0
 30
0.0
 11
-56.656026978704638
 21
62.9221006488073726
 31
0.0
  0
LINE
  5
1291AD
  8
0
 62
     0
 10
-45.1692967390044871
 20
66.0282866058469153
 30
0.0
 11
-48.7627818890985623
 21
69.6217717559409834
 31
0.0
  0
LINE
  5
1291AE
  8
0
 62
     0
 10
-53.8496969408651083
 20
65.7284306866403227
 30
0.0
 11
-53.8705313141926823
 21
65.7492650599678825
 31
0.0
  0
LINE
  5
1291AF
  8
0
 62
     0
 10
52.2295784892619821
 20
64.0446326639395949
 30
0.0
 11
47.7394504287274088
 21
68.5347607244741681
 31
0.0
  0
LINE
  5
1291B0
  8
0
 62
     0
 10
-47.1426988932907989
 20
64.6340927147311959
 30
0.0
 11
-50.7186855845692293
 21
68.2100794060096263
 31
0.0
  0
LINE
  5
1291B1
  8
0
 62
     0
 10
-55.5334949635674775
 20
64.0446326639406607
 30
0.0
 11
-55.6976640381370629
 21
64.2088017385102461
 31
0.0
  0
LINE
  5
1291B2
  8
0
 62
     0
 10
52.2295784892621526
 20
62.9221006487996277
 30
0.0
 11
54.5195680088355701
 21
65.2120901683730239
 31
0.0
  0
LINE
  5
1291B3
  8
0
 62
     0
 10
45.8703918533974502
 20
65.5431701340057771
 30
0.0
 11
47.7394504287297607
 21
67.4122287093380805
 31
0.0
  0
LINE
  5
1291B4
  8
0
 62
     0
 10
-55.5334949635626032
 20
62.9221006488032586
 30
0.0
 11
-51.0433669030280299
 21
67.4122287093378389
 31
0.0
  0
LINE
  5
1291B5
  8
0
 62
     0
 10
54.675073885864542
 20
62.0
 30
0.0
 11
56.3299228294322702
 21
63.6548489435677212
 31
0.0
  0
LINE
  5
1291B6
  8
0
 62
     0
 10
47.8253979322835221
 20
64.1305801674861868
 30
0.0
 11
49.423248451429842
 21
65.7284306866325068
 31
0.0
  0
LINE
  5
1291B7
  8
0
 62
     0
 10
44.9331203909030776
 20
70.2185587471766013
 30
0.0
 11
46.1166345604986887
 21
71.4020729167722124
 31
0.0
  0
LINE
  5
1291B8
  8
0
 62
     0
 10
-44.8694408197914072
 20
70.2185587471760613
 30
0.0
 11
-44.5000030896189713
 21
70.5879964773485113
 31
0.0
  0
LINE
  5
1291B9
  8
0
 62
     0
 10
-53.0879995669674827
 20
62.0
 30
0.0
 11
-49.3595688803259875
 21
65.7284306866414738
 31
0.0
  0
LINE
  5
1291BA
  8
0
 62
     0
 10
58.0426699312629424
 20
62.0
 30
0.0
 11
58.0928330714807473
 21
62.0501631402178191
 31
0.0
  0
LINE
  5
1291BB
  8
0
 62
     0
 10
49.7286687329724373
 20
62.6662549227767229
 30
0.0
 11
51.107046474134691
 21
64.0446326639389554
 31
0.0
  0
LINE
  5
1291BC
  8
0
 62
     0
 10
46.6169184135981212
 20
68.5347607244732586
 30
0.0
 11
48.137627365674831
 21
70.0554696765499614
 31
0.0
  0
ENDBLK
  5
1291BE
  8
0
  0
BLOCK
  8
0
  2
*U186
 70
     1
 10
0.0
 20
0.0
 30
0.0
  3
*U186
  1

  0
TEXT
  5
1291C0
  8
DIM
 10
2561.4285714285711038
 20
-3323.2081219844440056
 30
0.0
 40
32.0
  1
C
 41
0.75
  0
ENDBLK
  5
1291C2
  8
0
  0
BLOCK
  8
0
  2
*U187
 70
     1
 10
0.0
 20
0.0
 30
0.0
  3
*U187
  1

  0
TEXT
  5
1291C4
  8
DIM
 10
2707.8409284037338693
 20
-3850.9999999999968168
 30
0.0
 40
32.0
  1
B
 50
90.0
 41
0.75
  0
ENDBLK
  5
1291C6
  8
0
  0
BLOCK
  8
0
  2
*U188
 70
     1
 10
0.0
 20
0.0
 30
0.0
  3
*U188
  1

  0
TEXT
  5
1291C8
  8
DIM
 10
2709.4796205944589929
 20
-3469.1428571428527903
 30
0.0
 40
32.0
  1
A
 50
90.0
 41
0.75
  0
ENDBLK
  5
1291CA
  8
0
  0
BLOCK
  8
0
  2
*U189
 70
     1
 10
0.0
 20
0.0
 30
0.0
  3
*U189
  1

  0
TEXT
  5
1291CC
  8
DIM
 10
2700.424581672756176
 20
-924.0000000000006821
 30
0.0
 40
32.0
  1
P
 50
90.0
 41
0.75
  0
ENDBLK
  5
1291CE
  8
0
  0
BLOCK
  8
0
  2
*U190
 70
     1
 10
0.0
 20
0.0
 30
0.0
  3
*U190
  1

  0
TEXT
  5
1291D0
  8
DIM
 10
4700.4245816727570855
 20
-924.0000000000013642
 30
0.0
 40
32.0
  1
P
 50
90.0
 41
0.75
  0
ENDBLK
  5
1291D2
  8
0
  0
BLOCK
  8
0
  2
*U191
 70
     1
 10
0.0
 20
0.0
 30
0.0
  3
*U191
  1

  0
TEXT
  5
1291D4
  8
DIM
 10
4334.1164560757752042
 20
-1378.7428571428561099
 30
0.0
 40
32.0
  1
m（シンドカット）
 50
90.0
 41
0.75
  0
ENDBLK
  5
1291D6
  8
0
  0
BLOCK
  8
0
  2
*U192
 70
     1
 10
0.0
 20
0.0
 30
0.0
  3
*U192
  1

  0
TEXT
  5
1291D8
  8
SLIM
 10
158.9523809524228
 20
-130.0000000001718945
 30
0.0
 40
26.0
  1
75
  0
ENDBLK
  5
1291DA
  8
0
  0
BLOCK
  8
0
  2
*U193
 70
     1
 10
0.0
 20
0.0
 30
0.0
  3
*U193
  1

  0
TEXT
  5
12920E
  8
SLIM
 10
134.9523809523809064
 20
-1084.0
 30
0.0
 40
26.0
  1
50
  0
ENDBLK
  5
129210
  8
0
  0
BLOCK
  8
0
  2
*U194
 70
     1
 10
0.0
 20
0.0
 30
0.0
  3
*U194
  1

  0
TEXT
  5
129212
  8
SLIM
 10
494.9523809523809064
 20
-1084.0
 30
0.0
 40
26.0
  1
65
  0
ENDBLK
  5
129214
  8
0
  0
BLOCK
  8
0
  2
*U195
 70
     1
 10
0.0
 20
0.0
 30
0.0
  3
*U195
  1

  0
TEXT
  5
129216
  8
SLIM
 10
134.9523809523809064
 20
-1548.0
 30
0.0
 40
26.0
  1
75
  0
ENDBLK
  5
129218
  8
0
  0
BLOCK
  8
0
  2
*U196
 70
     1
 10
0.0
 20
0.0
 30
0.0
  3
*U196
  1

  0
TEXT
  5
12921A
  8
SLIM
 10
494.9523809523809064
 20
-1548.0
 30
0.0
 40
26.0
  1
50
  0
ENDBLK
  5
12921C
  8
0
  0
BLOCK
  8
0
  2
*U197
 70
     1
 10
0.0
 20
0.0
 30
0.0
  3
*U197
  1

  0
TEXT
  5
12921E
  8
SLIM
 10
134.9523809523809064
 20
-2012.0
 30
0.0
 40
26.0
  1
65
  0
ENDBLK
  5
129220
  8
0
  0
BLOCK
  8
0
  2
*U198
 70
     1
 10
0.0
 20
0.0
 30
0.0
  3
*U198
  1

  0
TEXT
  5
129222
  8
SLIM
 10
494.9523809523809064
 20
-2012.0
 30
0.0
 40
26.0
  1
75
  0
ENDBLK
  5
129224
  8
0
  0
BLOCK
  8
0
  2
*U199
 70
     1
 10
0.0
 20
0.0
 30
0.0
  3
*U199
  1

  0
TEXT
  5
129226
  8
SLIM
 10
134.9523809523809064
 20
-2476.0
 30
0.0
 40
26.0
  1
50
  0
ENDBLK
  5
129228
  8
0
  0
BLOCK
  8
0
  2
*U200
 70
     1
 10
0.0
 20
0.0
 30
0.0
  3
*U200
  1

  0
TEXT
  5
12922A
  8
SLIM
 10
494.9523809523809064
 20
-2476.0
 30
0.0
 40
26.0
  1
65
  0
ENDBLK
  5
12922C
  8
0
  0
BLOCK
  8
0
  2
*U201
 70
     1
 10
0.0
 20
0.0
 30
0.0
  3
*U201
  1

  0
TEXT
  5
12922E
  8
SLIM
 10
134.9523809523809064
 20
-2940.0
 30
0.0
 40
26.0
  1
75
  0
ENDBLK
  5
129230
  8
0
  0
BLOCK
  8
0
  2
*U202
 70
     1
 10
0.0
 20
0.0
 30
0.0
  3
*U202
  1

  0
TEXT
  5
129232
  8
SLIM
 10
258.0
 20
-934.9523809523808495
 30
0.0
 40
26.0
  1
50
 50
270.0
  0
ENDBLK
  5
129234
  8
0
  0
BLOCK
  8
0
  2
*U203
 70
     1
 10
0.0
 20
0.0
 30
0.0
  3
*U203
  1

  0
TEXT
  5
129236
  8
SLIM
 10
617.9999999998781277
 20
-934.9523809523816453
 30
0.0
 40
26.0
  1
50
 50
270.0
  0
ENDBLK
  5
129238
  8
0
  0
BLOCK
  8
0
  2
*U204
 70
     1
 10
0.0
 20
0.0
 30
0.0
  3
*U204
  1

  0
TEXT
  5
12923A
  8
SLIM
 10
258.0
 20
-1398.9523809522229385
 30
0.0
 40
26.0
  1
50
 50
270.0
  0
ENDBLK
  5
12923C
  8
0
  0
BLOCK
  8
0
  2
*U205
 70
     1
 10
0.0
 20
0.0
 30
0.0
  3
*U205
  1

  0
TEXT
  5
12923E
  8
SLIM
 10
617.9999999998781277
 20
-1398.9523809522229385
 30
0.0
 40
26.0
  1
65
 50
270.0
  0
ENDBLK
  5
129240
  8
0
  0
BLOCK
  8
0
  2
*U206
 70
     1
 10
0.0
 20
0.0
 30
0.0
  3
*U206
  1

  0
TEXT
  5
129242
  8
SLIM
 10
258.0
 20
-1862.9523809520649138
 30
0.0
 40
26.0
  1
65
 50
270.0
  0
ENDBLK
  5
129244
  8
0
  0
BLOCK
  8
0
  2
*U207
 70
     1
 10
0.0
 20
0.0
 30
0.0
  3
*U207
  1

  0
TEXT
  5
129246
  8
SLIM
 10
617.9999999998781277
 20
-1862.9523809520649138
 30
0.0
 40
26.0
  1
65
 50
270.0
  0
ENDBLK
  5
129248
  8
0
  0
BLOCK
  8
0
  2
*U208
 70
     1
 10
0.0
 20
0.0
 30
0.0
  3
*U208
  1

  0
TEXT
  5
12924A
  8
SLIM
 10
258.0
 20
-2326.9523809519068891
 30
0.0
 40
26.0
  1
75
 50
270.0
  0
ENDBLK
  5
12924C
  8
0
  0
BLOCK
  8
0
  2
*U209
 70
     1
 10
0.0
 20
0.0
 30
0.0
  3
*U209
  1

  0
TEXT
  5
12924E
  8
SLIM
 10
617.9999999998781277
 20
-2326.9523809519068891
 30
0.0
 40
26.0
  1
75
 50
270.0
  0
ENDBLK
  5
129250
  8
0
  0
BLOCK
  8
0
  2
*U210
 70
     1
 10
0.0
 20
0.0
 30
0.0
  3
*U210
  1

  0
TEXT
  5
129252
  8
SLIM
 10
258.0
 20
-2790.9523809517490918
 30
0.0
 40
26.0
  1
75
 50
270.0
  0
ENDBLK
  5
129254
  8
0
  0
ENDSEC
  0
SECTION
  2
ENTITIES
  0
LINE
  5
11273E
  8
OBJECT
 10
2325.0
 20
-3864.9999999999968168
 30
0.0
 11
5075.0
 21
-3864.9999999999968168
 31
0.0
  0
LINE
  5
11412B
  8
SLIM
 10
3256.0
 20
-2922.5000160472709467
 30
0.0
 11
3256.0
 21
-3252.5000160472709467
 31
0.0
  0
LINE
  5
11412C
  8
SLIM
 10
3380.0
 20
-2922.5000160472709467
 30
0.0
 11
3380.0
 21
-3252.5000160472709467
 31
0.0
  0
LINE
  5
11412D
  8
SLIM
 10
3510.0
 20
-2982.5000160472700372
 30
0.0
 11
3510.0
 21
-3252.5000160472709467
 31
0.0
  0
LINE
  5
11412E
  8
SLIM
 10
3640.0
 20
-2982.5000160472700372
 30
0.0
 11
3640.0
 21
-3252.5000160472709467
 31
0.0
  0
LINE
  5
11412F
  8
SLIM
 10
3770.0
 20
-3252.5000160472709467
 30
0.0
 11
3770.0
 21
-2922.5000160472709467
 31
0.0
  0
LINE
  5
114131
  8
SLIM
 10
3770.0
 20
-2922.5000160472709467
 30
0.0
 11
3256.0
 21
-2922.5000160472709467
 31
0.0
  0
LINE
  5
114132
  8
SLIM
 10
3769.9999999999990905
 20
-2982.5000160472700372
 30
0.0
 11
3380.0
 21
-2982.5000160472700372
 31
0.0
  0
LINE
  5
114133
  8
SLIM
 10
3770.0
 20
-3042.5000160472709467
 30
0.0
 11
3256.0
 21
-3042.5000160472709467
 31
0.0
  0
LINE
  5
114134
  8
SLIM
 10
3770.0
 20
-3112.5000160472709467
 30
0.0
 11
3256.0
 21
-3112.5000160472709467
 31
0.0
  0
LINE
  5
114135
  8
SLIM
 10
3770.0
 20
-3182.5000160472709467
 30
0.0
 11
3256.0
 21
-3182.5000160472709467
 31
0.0
  0
LINE
  5
114136
  8
SLIM
 10
3770.0
 20
-3252.5000160472709467
 30
0.0
 11
3256.0
 21
-3252.5000160472709467
 31
0.0
  0
LINE
  5
11414B
  8
SLIM
 10
3380.0
 20
-3042.5000160472709467
 30
0.0
 11
3255.9999722746579209
 21
-2922.5000000000009095
 31
0.0
  0
LINE
  5
1238B4
  8
CENTER
 10
2579.9999999999990905
 20
-3459.9999999999968168
 30
0.0
 11
2409.9999999999990905
 21
-3459.9999999999968168
 31
0.0
1001
ACDBBLOCKREPETAG
1070
     1
1071
       14
1005
122545
  0
LINE
  5
1238B5
  8
CENTER
 10
2500.0
 20
-3549.9999999999968168
 30
0.0
 11
2500.0
 21
-3369.9999999999968168
 31
0.0
1001
ACDBBLOCKREPETAG
1070
     1
1071
       15
1005
122546
  0
CIRCLE
  5
1238B6
  8
OBJECT
 10
2500.0
 20
-3459.9999999999968168
 30
0.0
 40
70.0
1001
ACDBBLOCKREPETAG
1070
     1
1071
       16
1005
122547
  0
CIRCLE
  5
1238B7
  8
OBJECT
 10
2500.0
 20
-3459.9999999999968168
 30
0.0
 40
75.0
1001
ACDBBLOCKREPETAG
1070
     1
1071
       17
1005
122548
  0
LINE
  5
123927
  8
CENTER
 10
2500.0
 20
-3644.999999999998181
 30
0.0
 11
2500.0
 21
-3891.999999999998181
 31
0.0
1001
ACDBBLOCKREPETAG
1070
     1
1071
       25
1005
123927
  0
LINE
  5
123928
  8
OBJECT
 10
2425.0
 20
-3659.9999999999968168
 30
0.0
 11
2425.0
 21
-3879.999999999998181
 31
0.0
1001
ACDBBLOCKREPETAG
1070
     1
1071
       26
1005
123928
  0
LINE
  5
12392C
  8
OBJECT
 10
2575.0
 20
-3659.9999999999968168
 30
0.0
 11
2575.0
 21
-3756.5000000000618456
 31
0.0
1001
ACDBBLOCKREPETAG
1070
     1
1071
       34
1005
12392C
  0
LINE
  5
123A5C
  8
OBJECT
 10
2575.0
 20
-3862.4999999999990905
 30
0.0
 11
2575.0
 21
-3879.999999999998181
 31
0.0
1001
ACDBBLOCKREPETAG
1070
     1
1071
       34
1005
12392C
  0
LINE
  5
123A5E
  8
CENTER
 10
2900.0
 20
-3644.999999999998181
 30
0.0
 11
2900.0
 21
-3891.999999999998181
 31
0.0
1001
ACDBBLOCKREPETAG
1070
     1
1071
       25
1005
123927
  0
LINE
  5
123A5F
  8
OBJECT
 10
2825.0
 20
-3659.9999999999968168
 30
0.0
 11
2825.0
 21
-3879.999999999998181
 31
0.0
1001
ACDBBLOCKREPETAG
1070
     1
1071
       26
1005
123928
  0
LINE
  5
123A60
  8
OBJECT
 10
2975.0
 20
-3659.9999999999968168
 30
0.0
 11
2975.0
 21
-3879.999999999998181
 31
0.0
1001
ACDBBLOCKREPETAG
1070
     1
1071
       34
1005
12392C
  0
LINE
  5
123AD2
  8
CENTER
 10
3579.9999999999990905
 20
-3459.9999999999968168
 30
0.0
 11
3410.0
 21
-3459.9999999999968168
 31
0.0
1001
ACDBBLOCKREPETAG
1070
     1
1071
       14
1005
122545
  0
LINE
  5
123AD3
  8
CENTER
 10
3500.0
 20
-3549.9999999999968168
 30
0.0
 11
3500.0
 21
-3369.9999999999968168
 31
0.0
1001
ACDBBLOCKREPETAG
1070
     1
1071
       15
1005
122546
  0
CIRCLE
  5
123AD4
  8
OBJECT
 10
3500.0
 20
-3459.9999999999968168
 30
0.0
 40
70.0
1001
ACDBBLOCKREPETAG
1070
     1
1071
       16
1005
122547
  0
CIRCLE
  5
123AD5
  8
OBJECT
 10
3500.0
 20
-3459.9999999999968168
 30
0.0
 40
75.0
1001
ACDBBLOCKREPETAG
1070
     1
1071
       17
1005
122548
  0
LINE
  5
123ADD
  8
CENTER
 10
3500.0
 20
-3644.999999999998181
 30
0.0
 11
3500.0
 21
-3891.999999999998181
 31
0.0
1001
ACDBBLOCKREPETAG
1070
     1
1071
       25
1005
123927
  0
LINE
  5
123ADE
  8
OBJECT
 10
3424.9999999999990905
 20
-3659.9999999999968168
 30
0.0
 11
3424.9999999999990905
 21
-3879.999999999998181
 31
0.0
1001
ACDBBLOCKREPETAG
1070
     1
1071
       26
1005
123928
  0
LINE
  5
123ADF
  8
OBJECT
 10
3574.9999999999990905
 20
-3659.9999999999968168
 30
0.0
 11
3574.9999999999990905
 21
-3756.5000000000618456
 31
0.0
1001
ACDBBLOCKREPETAG
1070
     1
1071
       34
1005
12392C
  0
LINE
  5
123AE0
  8
OBJECT
 10
3574.9999999999990905
 20
-3862.4999999999990905
 30
0.0
 11
3574.9999999999990905
 21
-3879.999999999998181
 31
0.0
1001
ACDBBLOCKREPETAG
1070
     1
1071
       34
1005
12392C
  0
LINE
  5
123AE8
  8
CENTER
 10
3900.0
 20
-3644.999999999998181
 30
0.0
 11
3900.0
 21
-3891.999999999998181
 31
0.0
1001
ACDBBLOCKREPETAG
1070
     1
1071
       25
1005
123927
  0
LINE
  5
123AE9
  8
OBJECT
 10
3824.9999999999990905
 20
-3659.9999999999968168
 30
0.0
 11
3824.9999999999990905
 21
-3879.999999999998181
 31
0.0
1001
ACDBBLOCKREPETAG
1070
     1
1071
       26
1005
123928
  0
LINE
  5
123AEA
  8
OBJECT
 10
3975.0
 20
-3659.9999999999968168
 30
0.0
 11
3975.0
 21
-3879.999999999998181
 31
0.0
1001
ACDBBLOCKREPETAG
1070
     1
1071
       34
1005
12392C
  0
LINE
  5
123B38
  8
CENTER
 10
4579.9999999999990905
 20
-3459.9999999999968168
 30
0.0
 11
4409.9999999999990905
 21
-3459.9999999999968168
 31
0.0
1001
ACDBBLOCKREPETAG
1070
     1
1071
       14
1005
122545
  0
LINE
  5
123B39
  8
CENTER
 10
4499.9999999999990905
 20
-3549.9999999999968168
 30
0.0
 11
4499.9999999999990905
 21
-3369.9999999999968168
 31
0.0
1001
ACDBBLOCKREPETAG
1070
     1
1071
       15
1005
122546
  0
CIRCLE
  5
123B3A
  8
OBJECT
 10
4499.9999999999990905
 20
-3459.9999999999968168
 30
0.0
 40
70.0
1001
ACDBBLOCKREPETAG
1070
     1
1071
       16
1005
122547
  0
CIRCLE
  5
123B3B
  8
OBJECT
 10
4499.9999999999990905
 20
-3459.9999999999968168
 30
0.0
 40
75.0
1001
ACDBBLOCKREPETAG
1070
     1
1071
       17
1005
122548
  0
LINE
  5
123B43
  8
CENTER
 10
4500.0
 20
-3644.999999999998181
 30
0.0
 11
4500.0
 21
-3891.999999999998181
 31
0.0
1001
ACDBBLOCKREPETAG
1070
     1
1071
       25
1005
123927
  0
LINE
  5
123B44
  8
OBJECT
 10
4425.0
 20
-3659.9999999999968168
 30
0.0
 11
4425.0
 21
-3879.999999999998181
 31
0.0
1001
ACDBBLOCKREPETAG
1070
     1
1071
       26
1005
123928
  0
LINE
  5
123B45
  8
OBJECT
 10
4575.0
 20
-3659.9999999999968168
 30
0.0
 11
4575.0
 21
-3756.5000000000618456
 31
0.0
1001
ACDBBLOCKREPETAG
1070
     1
1071
       34
1005
12392C
  0
LINE
  5
123B46
  8
OBJECT
 10
4575.0
 20
-3862.4999999999990905
 30
0.0
 11
4575.0
 21
-3879.999999999998181
 31
0.0
1001
ACDBBLOCKREPETAG
1070
     1
1071
       34
1005
12392C
  0
LINE
  5
123B4E
  8
CENTER
 10
4900.0
 20
-3644.999999999998181
 30
0.0
 11
4900.0
 21
-3891.999999999998181
 31
0.0
1001
ACDBBLOCKREPETAG
1070
     1
1071
       25
1005
123927
  0
LINE
  5
123B4F
  8
OBJECT
 10
4825.0
 20
-3659.9999999999968168
 30
0.0
 11
4825.0
 21
-3879.999999999998181
 31
0.0
1001
ACDBBLOCKREPETAG
1070
     1
1071
       26
1005
123928
  0
LINE
  5
123B50
  8
OBJECT
 10
4975.0
 20
-3659.9999999999968168
 30
0.0
 11
4974.9999999999990905
 21
-3879.999999999998181
 31
0.0
1001
ACDBBLOCKREPETAG
1070
     1
1071
       34
1005
12392C
  0
POINT
  5
124C02
  8
DOTS
 10
2500.0
 20
-3459.9999999999968168
 30
0.0
  0
POINT
  5
124C03
  8
DOTS
 10
2500.0
 20
-3864.9999999999968168
 30
0.0
  0
POINT
  5
124C05
  8
DOTS
 10
3500.0
 20
-3864.9999999999968168
 30
0.0
  0
POINT
  5
124C07
  8
DOTS
 10
3500.0
 20
-3459.9999999999968168
 30
0.0
  0
POINT
  5
124C08
  8
DOTS
 10
4499.9999999999990905
 20
-3459.9999999999968168
 30
0.0
  0
POINT
  5
124C09
  8
DOTS
 10
4499.9999999999990905
 20
-3864.9999999999968168
 30
0.0
  0
LINE
  5
1270E3
  8
CENTER
 10
4580.0
 20
-199.9999999999990905
 30
0.0
 11
4400.0
 21
-199.9999999999990905
 31
0.0
1001
ACDBBLOCKREPETAG
1070
     1
1071
       14
1005
0
  0
CIRCLE
  5
1270E4
  8
OBJECT
 10
4500.0
 20
-199.9999999999990905
 30
0.0
 40
53.5
1001
ACDBBLOCKREPETAG
1070
     1
1071
      344
1005
0
  0
LINE
  5
1270E5
  8
CENTER
 10
4500.0
 20
-299.9999999999990905
 30
0.0
 11
4500.0
 21
-99.9999999999990905
 31
0.0
1001
ACDBBLOCKREPETAG
1070
     1
1071
       15
1005
0
  0
POINT
  5
1270E7
  8
DOTS
 10
4500.0
 20
-199.9999999999990905
 30
0.0
 50
270.0
1001
ACDBBLOCKREPETAG
1070
     1
1071
      362
1005
0
  0
CIRCLE
  5
1270E8
  8
OBJECT
 10
4500.0
 20
-199.9999999999990905
 30
0.0
 40
70.0
1001
ACDBBLOCKREPETAG
1070
     1
1071
       16
1005
0
  0
ARC
  5
1270E9
  8
OBJECT
 10
4500.0
 20
-199.9999999999990905
 30
0.0
 40
80.0
 50
50.805032573890557
 51
309.1949674259710719
1001
ACDBBLOCKREPETAG
1070
     1
1071
       18
1005
0
  0
LINE
  5
1270EA
  8
OBJECT
 10
4403.0
 20
-148.0
 30
0.0
 11
4407.0
 21
-152.5
 31
0.0
1001
ACDBBLOCKREPETAG
1070
     1
1071
       32
1005
0
  0
CIRCLE
  5
1270EB
  8
OBJECT
 10
4500.0
 20
-199.9999999999990905
 30
0.0
 40
77.0
1001
ACDBBLOCKREPETAG
1070
     1
1071
       17
1005
0
  0
LINE
  5
1270EC
  8
OBJECT
 10
4545.6618002273244201
 20
-261.9999999999990905
 30
0.0
 11
4580.0
 21
-261.9999999999990905
 31
0.0
1001
ACDBBLOCKREPETAG
1070
     1
1071
       20
1005
0
  0
LINE
  5
1270ED
  8
OBJECT
 10
4545.6618002273244201
 20
-137.9999999999990905
 30
0.0
 11
4580.0
 21
-137.9999999999990905
 31
0.0
1001
ACDBBLOCKREPETAG
1070
     1
1071
       19
1005
0
  0
LINE
  5
1270EE
  8
OBJECT
 10
4367.0
 20
-255.0
 30
0.0
 11
4360.0
 21
-255.0
 31
0.0
1001
ACDBBLOCKREPETAG
1070
     1
1071
       20
1005
0
  0
LINE
  5
1270EF
  8
OBJECT
 10
4360.0
 20
-255.0
 30
0.0
 11
4360.0
 21
-145.0
 31
0.0
1001
ACDBBLOCKREPETAG
1070
     1
1071
       21
1005
0
  0
LINE
  5
1270F0
  8
OBJECT
 10
4360.0
 20
-145.0
 30
0.0
 11
4367.0
 21
-145.0
 31
0.0
1001
ACDBBLOCKREPETAG
1070
     1
1071
       22
1005
0
  0
LINE
  5
1270F1
  8
OBJECT
 10
4367.0
 20
-145.0
 30
0.0
 11
4367.0
 21
-255.0
 31
0.0
1001
ACDBBLOCKREPETAG
1070
     1
1071
       23
1005
0
  0
LINE
  5
1270F2
  8
CENTER
 10
4345.0
 20
-200.0
 30
0.0
 11
4420.0
 21
-200.0
 31
0.0
1001
ACDBBLOCKREPETAG
1070
     1
1071
       24
1005
0
  0
LINE
  5
1270F3
  8
OBJECT
 10
4367.0
 20
-252.0
 30
0.0
 11
4403.0
 21
-252.0
 31
0.0
1001
ACDBBLOCKREPETAG
1070
     1
1071
       25
1005
0
  0
LINE
  5
1270F4
  8
OBJECT
 10
4403.0
 20
-252.0
 30
0.0
 11
4403.0
 21
-148.0
 31
0.0
1001
ACDBBLOCKREPETAG
1070
     1
1071
       26
1005
0
  0
LINE
  5
1270F5
  8
OBJECT
 10
4403.0
 20
-148.0
 30
0.0
 11
4367.0
 21
-148.0
 31
0.0
1001
ACDBBLOCKREPETAG
1070
     1
1071
       27
1005
0
  0
LINE
  5
1270F6
  8
OBJECT
 10
4407.0
 20
-247.5
 30
0.0
 11
4415.5
 21
-247.5
 31
0.0
1001
ACDBBLOCKREPETAG
1070
     1
1071
       28
1005
0
  0
LINE
  5
1270F7
  8
OBJECT
 10
4415.5
 20
-152.5
 30
0.0
 11
4407.0
 21
-152.5
 31
0.0
1001
ACDBBLOCKREPETAG
1070
     1
1071
       29
1005
0
  0
LINE
  5
1270F8
  8
OBJECT
 10
4407.0
 20
-152.5
 30
0.0
 11
4407.0
 21
-247.5
 31
0.0
1001
ACDBBLOCKREPETAG
1070
     1
1071
       30
1005
0
  0
LINE
  5
1270F9
  8
OBJECT
 10
4403.0
 20
-252.0
 30
0.0
 11
4407.0
 21
-247.5
 31
0.0
1001
ACDBBLOCKREPETAG
1070
     1
1071
       31
1005
0
  0
ARC
  5
1270FA
  8
OBJECT
 10
4500.0
 20
-199.9999999999990905
 30
0.0
 40
85.0
 50
46.8371028597269969
 51
144.3837932714754118
1001
ACDBBLOCKREPETAG
1070
     1
1071
       18
1005
0
  0
LINE
  5
1270FB
  8
OBJECT
 10
4415.500000000001819
 20
-150.5
 30
0.0
 11
4415.5
 21
-249.5
 31
0.0
1001
ACDBBLOCKREPETAG
1070
     1
1071
       33
1005
0
  0
LINE
  5
1270FC
  8
HIDDEN
 10
4412.0
 20
-238.0
 30
0.0
 11
4412.0
 21
-162.0
 31
0.0
1001
ACDBBLOCKREPETAG
1070
     1
1071
       34
1005
0
  0
LINE
  5
1270FD
  8
OBJECT
 10
4415.5
 20
-249.5
 30
0.0
 11
4437.1529634747976161
 21
-249.5
 31
0.0
1001
ACDBBLOCKREPETAG
1070
     1
1071
       35
1005
0
  0
LINE
  5
1270FE
  8
OBJECT
 10
4415.500000000001819
 20
-150.5
 30
0.0
 11
4437.1529634747976161
 21
-150.5
 31
0.0
1001
ACDBBLOCKREPETAG
1070
     1
1071
       36
1005
0
  0
ARC
  5
1270FF
  8
OBJECT
 10
4500.0
 20
-199.9999999999990905
 30
0.0
 40
85.0
 50
215.6162067285245882
 51
234.3837932714938859
1001
ACDBBLOCKREPETAG
1070
     1
1071
       18
1005
0
  0
LINE
  5
127116
  8
CENTER
 10
2579.9999999999990905
 20
-199.9999999999980105
 30
0.0
 11
2399.9999999999990905
 21
-199.9999999999980105
 31
0.0
1001
ACDBBLOCKREPETAG
1070
     1
1071
       14
1005
0
  0
CIRCLE
  5
127117
  8
OBJECT
 10
2500.0
 20
-199.9999999999980105
 30
0.0
 40
53.5
1001
ACDBBLOCKREPETAG
1070
     1
1071
      344
1005
0
  0
LINE
  5
127118
  8
CENTER
 10
2500.0
 20
-294.9999999999980105
 30
0.0
 11
2500.0
 21
-104.9999999999979963
 31
0.0
1001
ACDBBLOCKREPETAG
1070
     1
1071
       15
1005
0
  0
POINT
  5
12711A
  8
DOTS
 10
2500.0
 20
-199.9999999999980105
 30
0.0
 50
270.0
1001
ACDBBLOCKREPETAG
1070
     1
1071
      362
1005
0
  0
CIRCLE
  5
12711B
  8
OBJECT
 10
2500.0
 20
-199.9999999999980105
 30
0.0
 40
70.0
1001
ACDBBLOCKREPETAG
1070
     1
1071
       16
1005
0
  0
ARC
  5
12711C
  8
OBJECT
 10
2500.0
 20
-199.9999999999980105
 30
0.0
 40
80.0
 50
50.8050325738946924
 51
309.1949674259710719
1001
ACDBBLOCKREPETAG
1070
     1
1071
       18
1005
0
  0
CIRCLE
  5
12711D
  8
OBJECT
 10
2500.0
 20
-199.9999999999980105
 30
0.0
 40
77.0
1001
ACDBBLOCKREPETAG
1070
     1
1071
       17
1005
0
  0
LINE
  5
12711E
  8
OBJECT
 10
2545.6618002273230559
 20
-261.9999999999980105
 30
0.0
 11
2579.9999999999990905
 21
-261.9999999999980105
 31
0.0
1001
ACDBBLOCKREPETAG
1070
     1
1071
       20
1005
0
  0
LINE
  5
12711F
  8
OBJECT
 10
2545.6618002273230559
 20
-137.9999999999980105
 30
0.0
 11
2579.9999999999990905
 21
-137.9999999999980105
 31
0.0
1001
ACDBBLOCKREPETAG
1070
     1
1071
       19
1005
0
  0
LINE
  5
127120
  8
OBJECT
 10
2366.9999999999990905
 20
-254.9999999999988916
 30
0.0
 11
2359.9999999999990905
 21
-254.9999999999988916
 31
0.0
1001
ACDBBLOCKREPETAG
1070
     1
1071
       20
1005
0
  0
LINE
  5
127121
  8
OBJECT
 10
2359.9999999999990905
 20
-254.9999999999988916
 30
0.0
 11
2359.9999999999990905
 21
-144.9999999999988916
 31
0.0
1001
ACDBBLOCKREPETAG
1070
     1
1071
       21
1005
0
  0
LINE
  5
127122
  8
OBJECT
 10
2359.9999999999990905
 20
-144.9999999999988916
 30
0.0
 11
2366.9999999999990905
 21
-144.9999999999988916
 31
0.0
1001
ACDBBLOCKREPETAG
1070
     1
1071
       22
1005
0
  0
LINE
  5
127123
  8
OBJECT
 10
2366.9999999999990905
 20
-144.9999999999988916
 30
0.0
 11
2366.9999999999990905
 21
-254.9999999999988916
 31
0.0
1001
ACDBBLOCKREPETAG
1070
     1
1071
       23
1005
0
  0
LINE
  5
127124
  8
CENTER
 10
2344.9999999999990905
 20
-199.9999999999988916
 30
0.0
 11
2419.9999999999990905
 21
-199.9999999999988916
 31
0.0
1001
ACDBBLOCKREPETAG
1070
     1
1071
       24
1005
0
  0
LINE
  5
127125
  8
OBJECT
 10
2366.9999999999990905
 20
-251.9999999999988916
 30
0.0
 11
2402.9999999999990905
 21
-251.9999999999988916
 31
0.0
1001
ACDBBLOCKREPETAG
1070
     1
1071
       25
1005
0
  0
LINE
  5
127126
  8
OBJECT
 10
2402.9999999999990905
 20
-251.9999999999988916
 30
0.0
 11
2402.9999999999990905
 21
-147.9999999999988916
 31
0.0
1001
ACDBBLOCKREPETAG
1070
     1
1071
       26
1005
0
  0
LINE
  5
127127
  8
OBJECT
 10
2402.9999999999990905
 20
-147.9999999999988916
 30
0.0
 11
2366.9999999999990905
 21
-147.9999999999988916
 31
0.0
1001
ACDBBLOCKREPETAG
1070
     1
1071
       27
1005
0
  0
LINE
  5
127128
  8
OBJECT
 10
2407.0
 20
-247.4999999999988916
 30
0.0
 11
2415.4999999999990905
 21
-247.4999999999988916
 31
0.0
1001
ACDBBLOCKREPETAG
1070
     1
1071
       28
1005
0
  0
LINE
  5
127129
  8
OBJECT
 10
2415.4999999999990905
 20
-152.4999999999988916
 30
0.0
 11
2407.0
 21
-152.4999999999988916
 31
0.0
1001
ACDBBLOCKREPETAG
1070
     1
1071
       29
1005
0
  0
LINE
  5
12712A
  8
OBJECT
 10
2407.0
 20
-152.4999999999988916
 30
0.0
 11
2407.0
 21
-247.4999999999988916
 31
0.0
1001
ACDBBLOCKREPETAG
1070
     1
1071
       30
1005
0
  0
LINE
  5
12712B
  8
OBJECT
 10
2402.9999999999990905
 20
-251.9999999999988916
 30
0.0
 11
2407.0
 21
-247.4999999999988916
 31
0.0
1001
ACDBBLOCKREPETAG
1070
     1
1071
       31
1005
0
  0
LINE
  5
12712C
  8
OBJECT
 10
2402.9999999999990905
 20
-147.9999999999988916
 30
0.0
 11
2407.0
 21
-152.4999999999988916
 31
0.0
1001
ACDBBLOCKREPETAG
1070
     1
1071
       32
1005
0
  0
LINE
  5
12712D
  8
OBJECT
 10
2415.5000000000009095
 20
-150.4999999999988916
 30
0.0
 11
2415.4999999999990905
 21
-249.4999999999988916
 31
0.0
1001
ACDBBLOCKREPETAG
1070
     1
1071
       33
1005
0
  0
LINE
  5
12712E
  8
HIDDEN
 10
2411.9999999999990905
 20
-237.9999999999988916
 30
0.0
 11
2411.9999999999990905
 21
-161.9999999999988916
 31
0.0
1001
ACDBBLOCKREPETAG
1070
     1
1071
       34
1005
0
  0
LINE
  5
12712F
  8
OBJECT
 10
2415.4999999999990905
 20
-249.4999999999988916
 30
0.0
 11
2437.1529634747980708
 21
-249.4999999999988916
 31
0.0
1001
ACDBBLOCKREPETAG
1070
     1
1071
       35
1005
0
  0
LINE
  5
127130
  8
OBJECT
 10
2415.5000000000009095
 20
-150.4999999999988916
 30
0.0
 11
2437.1529634747980708
 21
-150.4999999999988916
 31
0.0
1001
ACDBBLOCKREPETAG
1070
     1
1071
       36
1005
0
  0
LINE
  5
1271C5
  8
SLIM
 10
4954.0
 20
-764.9999999999959073
 30
0.0
 11
4954.0
 21
-1484.9999999999959073
 31
0.0
  0
LINE
  5
1271C6
  8
SLIM
 10
5102.0
 20
-764.9999999999959073
 30
0.0
 11
5102.0
 21
-1484.9999999999959073
 31
0.0
  0
LINE
  5
1271C7
  8
SLIM
 10
4850.0
 20
-1484.9999999999959073
 30
0.0
 11
4850.0
 21
-764.9999999999959073
 31
0.0
  0
LINE
  5
1271C8
  8
SLIM
 10
5102.0
 20
-764.9999999999959073
 30
0.0
 11
4850.0
 21
-764.9999999999959073
 31
0.0
  0
LINE
  5
1271C9
  8
SLIM
 10
5102.0
 20
-812.9999999999959073
 30
0.0
 11
4850.0
 21
-812.9999999999959073
 31
0.0
  0
LINE
  5
1271CD
  8
SLIM
 10
5102.0
 20
-860.9999999999962483
 30
0.0
 11
4850.0
 21
-860.9999999999962483
 31
0.0
  0
LINE
  5
1271CE
  8
SLIM
 10
5102.0
 20
-908.999999999996362
 30
0.0
 11
4850.0
 21
-908.999999999996362
 31
0.0
  0
LINE
  5
1271CF
  8
SLIM
 10
5102.0
 20
-956.9999999999962483
 30
0.0
 11
4850.0
 21
-956.9999999999962483
 31
0.0
  0
LINE
  5
1271D5
  8
SLIM
 10
5102.0
 20
-1004.999999999996021
 30
0.0
 11
4850.0
 21
-1004.999999999996021
 31
0.0
  0
LINE
  5
1271D8
  8
SLIM
 10
5102.0
 20
-1052.9999999999959073
 30
0.0
 11
4850.0
 21
-1052.9999999999959073
 31
0.0
  0
LINE
  5
1271DB
  8
SLIM
 10
5102.0
 20
-1100.9999999999959073
 30
0.0
 11
4850.0
 21
-1100.9999999999959073
 31
0.0
  0
LINE
  5
1271DE
  8
SLIM
 10
5102.0
 20
-1148.9999999999959073
 30
0.0
 11
4850.0
 21
-1148.9999999999959073
 31
0.0
  0
LINE
  5
1271E1
  8
SLIM
 10
5102.0
 20
-1196.9999999999959073
 30
0.0
 11
4850.0
 21
-1196.9999999999959073
 31
0.0
  0
LINE
  5
1271E3
  8
SLIM
 10
5102.0
 20
-1244.9999999999959073
 30
0.0
 11
4850.0
 21
-1244.9999999999959073
 31
0.0
  0
LINE
  5
1271E5
  8
SLIM
 10
5102.0
 20
-1292.9999999999959073
 30
0.0
 11
4850.0
 21
-1292.9999999999959073
 31
0.0
  0
LINE
  5
1271E7
  8
SLIM
 10
5102.0
 20
-1340.9999999999959073
 30
0.0
 11
4850.0
 21
-1340.9999999999959073
 31
0.0
  0
LINE
  5
1271E9
  8
SLIM
 10
5102.0
 20
-1388.9999999999959073
 30
0.0
 11
4850.0
 21
-1388.9999999999959073
 31
0.0
  0
LINE
  5
1271EB
  8
SLIM
 10
5102.0
 20
-1436.9999999999959073
 30
0.0
 11
4850.0
 21
-1436.9999999999959073
 31
0.0
  0
LINE
  5
1271ED
  8
SLIM
 10
5102.0
 20
-1484.9999999999959073
 30
0.0
 11
4850.0
 21
-1484.9999999999959073
 31
0.0
  0
LINE
  5
1282AC
  8
OBJECT
 10
2555.0000000000009095
 20
-332.99999999999892
 30
0.0
 11
2555.0000000000009095
 21
-339.99999999999892
 31
0.0
1001
ACDBBLOCKREPETAG
1070
     1
1071
       20
1005
0
  0
LINE
  5
1282AD
  8
OBJECT
 10
2555.0000000000009095
 20
-339.99999999999892
 30
0.0
 11
2445.0000000000009095
 21
-339.99999999999892
 31
0.0
1001
ACDBBLOCKREPETAG
1070
     1
1071
       21
1005
0
  0
LINE
  5
1282AE
  8
OBJECT
 10
2445.0000000000009095
 20
-339.99999999999892
 30
0.0
 11
2445.0000000000009095
 21
-332.99999999999892
 31
0.0
1001
ACDBBLOCKREPETAG
1070
     1
1071
       22
1005
0
  0
LINE
  5
1282AF
  8
OBJECT
 10
2445.0000000000009095
 20
-332.99999999999892
 30
0.0
 11
2555.0000000000009095
 21
-332.99999999999892
 31
0.0
1001
ACDBBLOCKREPETAG
1070
     1
1071
       23
1005
0
  0
LINE
  5
1282B0
  8
CENTER
 10
2500.0000000000009095
 20
-354.99999999999892
 30
0.0
 11
2500.0000000000009095
 21
-279.99999999999892
 31
0.0
1001
ACDBBLOCKREPETAG
1070
     1
1071
       24
1005
0
  0
LINE
  5
1282B1
  8
OBJECT
 10
2552.0000000000009095
 20
-332.99999999999892
 30
0.0
 11
2552.0000000000009095
 21
-296.99999999999892
 31
0.0
1001
ACDBBLOCKREPETAG
1070
     1
1071
       25
1005
0
  0
LINE
  5
1282B2
  8
OBJECT
 10
2552.0000000000009095
 20
-296.99999999999892
 30
0.0
 11
2448.0000000000009095
 21
-296.99999999999892
 31
0.0
1001
ACDBBLOCKREPETAG
1070
     1
1071
       26
1005
0
  0
LINE
  5
1282B3
  8
OBJECT
 10
2448.0000000000009095
 20
-296.99999999999892
 30
0.0
 11
2448.0000000000009095
 21
-332.99999999999892
 31
0.0
1001
ACDBBLOCKREPETAG
1070
     1
1071
       27
1005
0
  0
LINE
  5
1282B4
  8
OBJECT
 10
2547.5000000000009095
 20
-292.99999999999892
 30
0.0
 11
2547.5000000000009095
 21
-284.49999999999892
 31
0.0
1001
ACDBBLOCKREPETAG
1070
     1
1071
       28
1005
0
  0
LINE
  5
1282B5
  8
OBJECT
 10
2452.5000000000009095
 20
-284.49999999999892
 30
0.0
 11
2452.5000000000009095
 21
-292.99999999999892
 31
0.0
1001
ACDBBLOCKREPETAG
1070
     1
1071
       29
1005
0
  0
LINE
  5
1282B6
  8
OBJECT
 10
2452.5000000000009095
 20
-292.99999999999892
 30
0.0
 11
2547.5000000000009095
 21
-292.99999999999892
 31
0.0
1001
ACDBBLOCKREPETAG
1070
     1
1071
       30
1005
0
  0
LINE
  5
1282B7
  8
OBJECT
 10
2552.0000000000009095
 20
-296.99999999999892
 30
0.0
 11
2547.5000000000009095
 21
-292.99999999999892
 31
0.0
1001
ACDBBLOCKREPETAG
1070
     1
1071
       31
1005
0
  0
LINE
  5
1282B8
  8
OBJECT
 10
2448.0000000000009095
 20
-296.99999999999892
 30
0.0
 11
2452.5000000000009095
 21
-292.99999999999892
 31
0.0
1001
ACDBBLOCKREPETAG
1070
     1
1071
       32
1005
0
  0
LINE
  5
1282B9
  8
OBJECT
 10
2450.5000000000009095
 20
-284.499999999997101
 30
0.0
 11
2549.5000000000009095
 21
-284.49999999999892
 31
0.0
1001
ACDBBLOCKREPETAG
1070
     1
1071
       33
1005
0
  0
LINE
  5
1282BA
  8
HIDDEN
 10
2538.0000000000009095
 20
-287.99999999999892
 30
0.0
 11
2462.0000000000009095
 21
-287.99999999999892
 31
0.0
1001
ACDBBLOCKREPETAG
1070
     1
1071
       34
1005
0
  0
LINE
  5
1282BB
  8
OBJECT
 10
2549.5000000000009095
 20
-284.49999999999892
 30
0.0
 11
2549.5000000000009095
 21
-262.8470365252003944
 31
0.0
1001
ACDBBLOCKREPETAG
1070
     1
1071
       35
1005
0
  0
LINE
  5
1282BC
  8
OBJECT
 10
2450.5000000000009095
 20
-284.499999999997101
 30
0.0
 11
2450.5000000000009095
 21
-262.8470365252003944
 31
0.0
1001
ACDBBLOCKREPETAG
1070
     1
1071
       36
1005
0
  0
LINE
  5
1282D4
  8
OBJECT
 10
4555.0000000000009095
 20
-333.0
 30
0.0
 11
4555.0000000000009095
 21
-340.0
 31
0.0
1001
ACDBBLOCKREPETAG
1070
     1
1071
       20
1005
0
  0
LINE
  5
1282D5
  8
OBJECT
 10
4555.0000000000009095
 20
-340.0
 30
0.0
 11
4445.0000000000009095
 21
-340.0
 31
0.0
1001
ACDBBLOCKREPETAG
1070
     1
1071
       21
1005
0
  0
LINE
  5
1282D6
  8
OBJECT
 10
4445.0000000000009095
 20
-340.0
 30
0.0
 11
4445.0000000000009095
 21
-333.0
 31
0.0
1001
ACDBBLOCKREPETAG
1070
     1
1071
       22
1005
0
  0
LINE
  5
1282D7
  8
OBJECT
 10
4445.0000000000009095
 20
-333.0
 30
0.0
 11
4555.0000000000009095
 21
-333.0
 31
0.0
1001
ACDBBLOCKREPETAG
1070
     1
1071
       23
1005
0
  0
LINE
  5
1282D8
  8
CENTER
 10
4500.0
 20
-355.0
 30
0.0
 11
4500.0
 21
-280.0
 31
0.0
1001
ACDBBLOCKREPETAG
1070
     1
1071
       24
1005
0
  0
LINE
  5
1282D9
  8
OBJECT
 10
4552.0000000000009095
 20
-333.0
 30
0.0
 11
4552.0000000000009095
 21
-297.0
 31
0.0
1001
ACDBBLOCKREPETAG
1070
     1
1071
       25
1005
0
  0
LINE
  5
1282DA
  8
OBJECT
 10
4552.0000000000009095
 20
-297.0
 30
0.0
 11
4448.0000000000009095
 21
-297.0
 31
0.0
1001
ACDBBLOCKREPETAG
1070
     1
1071
       26
1005
0
  0
LINE
  5
1282DB
  8
OBJECT
 10
4448.0000000000009095
 20
-297.0
 30
0.0
 11
4448.0000000000009095
 21
-333.0
 31
0.0
1001
ACDBBLOCKREPETAG
1070
     1
1071
       27
1005
0
  0
LINE
  5
1282DC
  8
OBJECT
 10
4547.5000000000009095
 20
-293.0
 30
0.0
 11
4547.5000000000009095
 21
-284.5
 31
0.0
1001
ACDBBLOCKREPETAG
1070
     1
1071
       28
1005
0
  0
LINE
  5
1282DD
  8
OBJECT
 10
4452.5000000000009095
 20
-284.5
 30
0.0
 11
4452.5000000000009095
 21
-293.0
 31
0.0
1001
ACDBBLOCKREPETAG
1070
     1
1071
       29
1005
0
  0
LINE
  5
1282DE
  8
OBJECT
 10
4452.5000000000009095
 20
-293.0
 30
0.0
 11
4547.5000000000009095
 21
-293.0
 31
0.0
1001
ACDBBLOCKREPETAG
1070
     1
1071
       30
1005
0
  0
LINE
  5
1282DF
  8
OBJECT
 10
4552.0000000000009095
 20
-297.0
 30
0.0
 11
4547.5000000000009095
 21
-293.0
 31
0.0
1001
ACDBBLOCKREPETAG
1070
     1
1071
       31
1005
0
  0
LINE
  5
1282E0
  8
OBJECT
 10
4448.0000000000009095
 20
-297.0
 30
0.0
 11
4452.5000000000009095
 21
-293.0
 31
0.0
1001
ACDBBLOCKREPETAG
1070
     1
1071
       32
1005
0
  0
LINE
  5
1282E1
  8
OBJECT
 10
4450.5
 20
-284.499999999998181
 30
0.0
 11
4549.5
 21
-284.5
 31
0.0
1001
ACDBBLOCKREPETAG
1070
     1
1071
       33
1005
0
  0
LINE
  5
1282E2
  8
HIDDEN
 10
4538.0000000000009095
 20
-288.0
 30
0.0
 11
4462.0000000000009095
 21
-288.0
 31
0.0
1001
ACDBBLOCKREPETAG
1070
     1
1071
       34
1005
0
  0
LINE
  5
1282E3
  8
OBJECT
 10
4549.5
 20
-284.5
 30
0.0
 11
4549.5
 21
-262.8470365252014744
 31
0.0
1001
ACDBBLOCKREPETAG
1070
     1
1071
       35
1005
0
  0
LINE
  5
1282E4
  8
OBJECT
 10
4450.5
 20
-284.499999999998181
 30
0.0
 11
4450.5
 21
-262.8470365252014744
 31
0.0
1001
ACDBBLOCKREPETAG
1070
     1
1071
       36
1005
0
  0
ARC
  5
1282E5
  8
OBJECT
 10
4500.0
 20
-199.9999999999990905
 30
0.0
 40
85.0
 50
305.6162067285076773
 51
313.1628971402730031
1001
ACDBBLOCKREPETAG
1070
     1
1071
       18
1005
0
  0
TEXT
  5
128AC7
  8
SLIM
 10
0.0
 20
369.9999999999998863
 30
0.0
 40
100.0
  1
4SRT2-A3-C0XX0-PXXX-S
 41
0.75
  0
TEXT
  5
128AC8
  8
SLIM
 10
2356.25
 20
-1752.4999999999979536
 30
0.0
 40
35.0
  1
片受けスタイル（S）
 41
0.75
  0
TEXT
  5
128AC9
  8
SLIM
 10
4241.6249999999990905
 20
-1752.4999999999979536
 30
0.0
 40
35.0
  1
片受けスタイル（S）＋シンドカット
 41
0.75
  0
TEXT
  5
128ACA
  8
SLIM
 10
2350.0
 20
369.9999999999998863
 30
0.0
 40
100.0
  1
4SRT2-A3-C0220-P440
 41
0.75
  0
TEXT
  5
128ACB
  8
SLIM
 10
2350.0
 20
532.5
 30
0.0
 40
75.0
  1
側面図の代表機種
 41
0.75
  0
TEXT
  5
128ACC
  8
SLIM
 10
2337.75
 20
282.5000000000001137
 30
0.0
 40
35.0
  1
（枝管サイズ毎に寸法が異なります。管底の位置は全サイズで同じです）
 41
0.75
  0
TEXT
  5
128ACD
  8
SLIM
 10
2396.75
 20
-3982.4999999999968168
 30
0.0
 40
35.0
  1
通常枝50（1）
 41
0.75
  0
TEXT
  5
128ACE
  8
SLIM
 10
3394.2499999999990905
 20
-3982.4999999999968168
 30
0.0
 40
35.0
  1
通常枝65（2）
 41
0.75
  0
TEXT
  5
128ACF
  8
SLIM
 10
4394.25
 20
-3982.4999999999968168
 30
0.0
 40
35.0
  1
通常枝75（3）
 41
0.75
  0
TEXT
  5
128AD0
  8
SLIM
 10
2349.9999999999990905
 20
-2997.5
 30
0.0
 40
75.0
  1
下部枝管サイズ毎の形状
 41
0.75
  0
TEXT
  5
128AD1
  8
SLIM
 10
3542.1428571428559735
 20
-3097.5000160472709467
 30
0.0
 40
40.0
  1
110
 41
0.75
  0
TEXT
  5
128AD2
  8
SLIM
 10
3420.0
 20
-3097.5000160472709467
 30
0.0
 40
40.0
  1
94
 41
0.75
  0
TEXT
  5
128AD3
  8
SLIM
 10
3668.5714285714288962
 20
-3097.5000160472709467
 30
0.0
 40
40.0
  1
124
 41
0.75
  0
TEXT
  5
128AD4
  8
SLIM
 10
3397.0
 20
-3027.5000160472700372
 30
0.0
 40
30.0
  1
50（1）
 41
0.75
  0
TEXT
  5
128AD5
  8
SLIM
 10
3524.8571428571422075
 20
-3027.5000160472700372
 30
0.0
 40
30.0
  1
65（2）
 41
0.75
  0
TEXT
  5
128AD6
  8
SLIM
 10
3654.8571428571422075
 20
-3027.5000160472700372
 30
0.0
 40
30.0
  1
75（3）
 41
0.75
  0
TEXT
  5
128AD7
  8
SLIM
 10
3471.0
 20
-2972.5000160472709467
 30
0.0
 40
40.0
  1
横枝管サイズ
 41
0.75
  0
TEXT
  5
128AD8
  8
SLIM
 10
3550.7142857142848698
 20
-3167.5000160472709467
 30
0.0
 40
40.0
  1
52
 41
0.75
  0
TEXT
  5
128AD9
  8
SLIM
 10
3420.0
 20
-3167.5000160472709467
 30
0.0
 40
40.0
  1
44
 41
0.75
  0
TEXT
  5
128ADA
  8
SLIM
 10
3681.4285714285711038
 20
-3167.5000160472709467
 30
0.0
 40
40.0
  1
59
 41
0.75
  0
TEXT
  5
128ADB
  8
SLIM
 10
3539.2857142857142208
 20
-3237.5000160472709467
 30
0.0
 40
40.0
  1
140
 41
0.75
  0
TEXT
  5
128ADC
  8
SLIM
 10
3409.2857142857142208
 20
-3237.5000160472709467
 30
0.0
 40
40.0
  1
140
 41
0.75
  0
TEXT
  5
128ADD
  8
SLIM
 10
3669.2857142857142208
 20
-3237.5000160472709467
 30
0.0
 40
40.0
  1
140
 41
0.75
  0
TEXT
  5
128ADE
  8
SLIM
 10
3270.2857142857142208
 20
-3097.5000160472709467
 30
0.0
 40
40.0
  1
A寸法
 41
0.75
  0
TEXT
  5
128ADF
  8
SLIM
 10
3270.9999999999990905
 20
-3167.5000160472709467
 30
0.0
 40
40.0
  1
B寸法
 41
0.75
  0
TEXT
  5
128AE0
  8
SLIM
 10
3270.9999999999990905
 20
-3237.5000160472709467
 30
0.0
 40
40.0
  1
C寸法
 41
0.75
  0
LINE
  5
128AE1
  8
DIM
 10
2500.0
 20
-3359.9999999999968168
 30
0.0
 11
2500.0
 21
-3322.2081219844440056
 31
0.0
  0
LINE
  5
128AE2
  8
DIM
 10
2640.0
 20
-3402.9999999999968168
 30
0.0
 11
2640.0
 21
-3322.2081219844440056
 31
0.0
  0
LINE
  5
128AE3
  8
DIM
 10
2520.0
 20
-3332.2081219844440056
 30
0.0
 11
2620.0
 21
-3332.2081219844440056
 31
0.0
  0
INSERT
  5
128AE4
  8
DIM
  2
_OPEN30
 10
2500.0
 20
-3332.2081219844440056
 30
0.0
 41
20.0
 42
20.0
 43
20.0
 50
180.0
  0
INSERT
  5
128AE5
  8
DIM
  2
_OPEN30
 10
2640.0
 20
-3332.2081219844440056
 30
0.0
 41
20.0
 42
20.0
 43
20.0
  0
INSERT
  5
128AE6
  8
SLIM
  2
*U186
 10
0.0
 20
0.0
 30
0.0
  0
LINE
  5
128AE7
  8
DIM
 10
2650.0
 20
-3864.9999999999968168
 30
0.0
 11
2726.8409284037338693
 21
-3864.9999999999968168
 31
0.0
  0
LINE
  5
128AE8
  8
DIM
 10
2665.0
 20
-3820.9999999999968168
 30
0.0
 11
2726.8409284037338693
 21
-3820.9999999999968168
 31
0.0
  0
LINE
  5
128AE9
  8
DIM
 10
2716.8409284037338693
 20
-3884.999999999998181
 30
0.0
 11
2716.8409284037338693
 21
-3904.9999999999968168
 31
0.0
  0
LINE
  5
128AEA
  8
DIM
 10
2716.8409284037338693
 20
-3800.999999999998181
 30
0.0
 11
2716.8409284037338693
 21
-3780.9999999999968168
 31
0.0
  0
LINE
  5
128AEB
  8
DIM
 10
2716.8409284037338693
 20
-3864.9999999999968168
 30
0.0
 11
2716.8409284037338693
 21
-3820.9999999999968168
 31
0.0
  0
INSERT
  5
128AEC
  8
DIM
  2
_OPEN30
 10
2716.8409284037338693
 20
-3864.9999999999968168
 30
0.0
 41
20.0
 42
20.0
 43
20.0
 50
90.0
  0
INSERT
  5
128AED
  8
DIM
  2
_OPEN30
 10
2716.8409284037338693
 20
-3820.9999999999968168
 30
0.0
 41
20.0
 42
20.0
 43
20.0
 50
270.0
  0
INSERT
  5
128AEE
  8
SLIM
  2
*U187
 10
0.0
 20
0.0
 30
0.0
  0
LINE
  5
128AEF
  8
DIM
 10
2650.0
 20
-3506.9999999999968168
 30
0.0
 11
2728.4796205944589929
 21
-3506.9999999999968168
 31
0.0
  0
LINE
  5
128AF0
  8
DIM
 10
2650.0
 20
-3412.9999999999968168
 30
0.0
 11
2728.4796205944589929
 21
-3412.9999999999968168
 31
0.0
  0
LINE
  5
128AF1
  8
DIM
 10
2718.4796205944589929
 20
-3486.9999999999959073
 30
0.0
 11
2718.4796205944589929
 21
-3432.9999999999959073
 31
0.0
  0
INSERT
  5
128AF2
  8
DIM
  2
_OPEN30
 10
2718.4796205944589929
 20
-3506.9999999999968168
 30
0.0
 41
20.0
 42
20.0
 43
20.0
 50
270.0
  0
INSERT
  5
128AF3
  8
DIM
  2
_OPEN30
 10
2718.4796205944589929
 20
-3412.9999999999968168
 30
0.0
 41
20.0
 42
20.0
 43
20.0
 50
90.0
  0
INSERT
  5
128AF4
  8
SLIM
  2
*U188
 10
0.0
 20
0.0
 30
0.0
  0
LINE
  5
128AF5
  8
OBJECT
 10
2633.0
 20
-634.0
 30
0.0
 11
2640.0
 21
-634.0
 31
0.0
1001
ACDBBLOCKREPETAG
1070
     1
1071
       45
1005
128AF5
  0
LINE
  5
128AF6
  8
OBJECT
 10
2640.0
 20
-634.0
 30
0.0
 11
2640.0
 21
-755.0
 31
0.0
1001
ACDBBLOCKREPETAG
1070
     1
1071
       46
1005
128AF6
  0
LINE
  5
128AF7
  8
OBJECT
 10
2633.0
 20
-755.0
 30
0.0
 11
2633.0
 21
-634.0
 31
0.0
1001
ACDBBLOCKREPETAG
1070
     1
1071
       47
1005
128AF7
  0
LINE
  5
128AF8
  8
CENTER
 10
2655.0
 20
-696.0
 30
0.0
 11
2571.0
 21
-696.0
 31
0.0
1001
ACDBBLOCKREPETAG
1070
     1
1071
       48
1005
128AF8
  0
LINE
  5
128AF9
  8
OBJECT
 10
2633.0
 20
-637.0
 30
0.0
 11
2597.0
 21
-637.0
 31
0.0
1001
ACDBBLOCKREPETAG
1070
     1
1071
       49
1005
128AF9
  0
LINE
  5
128AFA
  8
OBJECT
 10
2597.0
 20
-637.0
 30
0.0
 11
2597.0
 21
-755.0
 31
0.0
1001
ACDBBLOCKREPETAG
1070
     1
1071
       50
1005
128AFA
  0
LINE
  5
128AFB
  8
OBJECT
 10
2597.0
 20
-755.0
 30
0.0
 11
2640.0
 21
-755.0
 31
0.0
1001
ACDBBLOCKREPETAG
1070
     1
1071
       51
1005
128AFB
  0
LINE
  5
128AFC
  8
OBJECT
 10
2593.0
 20
-641.5
 30
0.0
 11
2586.0
 21
-641.5
 31
0.0
1001
ACDBBLOCKREPETAG
1070
     1
1071
       52
1005
128AFC
  0
LINE
  5
128AFD
  8
OBJECT
 10
2586.0
 20
-750.4999999999998863
 30
0.0
 11
2593.0
 21
-750.4999999999998863
 31
0.0
1001
ACDBBLOCKREPETAG
1070
     1
1071
       53
1005
128AFD
  0
LINE
  5
128AFE
  8
OBJECT
 10
2593.0
 20
-750.4999999999998863
 30
0.0
 11
2593.0
 21
-641.5
 31
0.0
1001
ACDBBLOCKREPETAG
1070
     1
1071
       54
1005
128AFE
  0
LINE
  5
128AFF
  8
OBJECT
 10
2597.0
 20
-637.0
 30
0.0
 11
2593.0
 21
-641.5
 31
0.0
1001
ACDBBLOCKREPETAG
1070
     1
1071
       55
1005
128AFF
  0
LINE
  5
128B00
  8
OBJECT
 10
2597.0
 20
-755.0
 30
0.0
 11
2593.0
 21
-750.4999999999998863
 31
0.0
1001
ACDBBLOCKREPETAG
1070
     1
1071
       56
1005
128B00
  0
LINE
  5
128B01
  8
OBJECT
 10
2583.0
 20
-634.0
 30
0.0
 11
2580.0
 21
-634.0
 31
0.0
1001
ACDBBLOCKREPETAG
1070
     1
1071
       57
1005
128B01
  0
ARC
  5
128B02
  8
OBJECT
 10
2583.0
 20
-637.0
 30
0.0
 40
3.0
 50
0.0
 51
90.0
1001
ACDBBLOCKREPETAG
1070
     1
1071
       58
1005
128B02
  0
LINE
  5
128B03
  8
OBJECT
 10
2580.0
 20
-758.0
 30
0.0
 11
2583.0
 21
-758.0
 31
0.0
1001
ACDBBLOCKREPETAG
1070
     1
1071
       59
1005
128B03
  0
ARC
  5
128B04
  8
OBJECT
 10
2583.0
 20
-755.0
 30
0.0
 40
3.0
 50
270.0
 51
0.0
1001
ACDBBLOCKREPETAG
1070
     1
1071
       60
1005
128B04
  0
LINE
  5
128B05
  8
OBJECT
 10
2586.0
 20
-755.0
 30
0.0
 11
2586.0
 21
-637.0
 31
0.0
1001
ACDBBLOCKREPETAG
1070
     1
1071
       61
1005
128B05
  0
LINE
  5
128B06
  8
HIDDEN
 10
2588.0
 20
-651.5
 30
0.0
 11
2588.0
 21
-740.5
 31
0.0
1001
ACDBBLOCKREPETAG
1070
     1
1071
       63
1005
128B06
  0
LINE
  5
128B07
  8
OBJECT
 10
4633.0
 20
-634.0
 30
0.0
 11
4640.0
 21
-634.0
 31
0.0
1001
ACDBBLOCKREPETAG
1070
     1
1071
       45
1005
128B07
  0
LINE
  5
128B08
  8
OBJECT
 10
4640.0
 20
-634.0
 30
0.0
 11
4640.0
 21
-755.0
 31
0.0
1001
ACDBBLOCKREPETAG
1070
     1
1071
       46
1005
128B08
  0
LINE
  5
128B09
  8
OBJECT
 10
4633.0
 20
-755.0
 30
0.0
 11
4633.0
 21
-634.0
 31
0.0
1001
ACDBBLOCKREPETAG
1070
     1
1071
       47
1005
128B09
  0
LINE
  5
128B0A
  8
CENTER
 10
4655.0
 20
-696.0
 30
0.0
 11
4571.0
 21
-696.0
 31
0.0
1001
ACDBBLOCKREPETAG
1070
     1
1071
       48
1005
128B0A
  0
LINE
  5
128B0B
  8
OBJECT
 10
4633.0
 20
-637.0
 30
0.0
 11
4597.0
 21
-637.0
 31
0.0
1001
ACDBBLOCKREPETAG
1070
     1
1071
       49
1005
128B0B
  0
LINE
  5
128B0C
  8
OBJECT
 10
4597.0
 20
-637.0
 30
0.0
 11
4597.0
 21
-755.0
 31
0.0
1001
ACDBBLOCKREPETAG
1070
     1
1071
       50
1005
128B0C
  0
LINE
  5
128B0D
  8
OBJECT
 10
4597.0
 20
-755.0
 30
0.0
 11
4640.0
 21
-755.0
 31
0.0
1001
ACDBBLOCKREPETAG
1070
     1
1071
       51
1005
128B0D
  0
LINE
  5
128B0E
  8
OBJECT
 10
4593.0
 20
-641.5
 30
0.0
 11
4586.0
 21
-641.5
 31
0.0
1001
ACDBBLOCKREPETAG
1070
     1
1071
       52
1005
128B0E
  0
LINE
  5
128B0F
  8
OBJECT
 10
4586.0
 20
-750.4999999999998863
 30
0.0
 11
4593.0
 21
-750.4999999999998863
 31
0.0
1001
ACDBBLOCKREPETAG
1070
     1
1071
       53
1005
128B0F
  0
LINE
  5
128B10
  8
OBJECT
 10
4593.0
 20
-750.4999999999998863
 30
0.0
 11
4593.0
 21
-641.5
 31
0.0
1001
ACDBBLOCKREPETAG
1070
     1
1071
       54
1005
128B10
  0
LINE
  5
128B11
  8
OBJECT
 10
4597.0
 20
-637.0
 30
0.0
 11
4593.0
 21
-641.5
 31
0.0
1001
ACDBBLOCKREPETAG
1070
     1
1071
       55
1005
128B11
  0
LINE
  5
128B12
  8
OBJECT
 10
4597.0
 20
-755.0
 30
0.0
 11
4593.0
 21
-750.4999999999998863
 31
0.0
1001
ACDBBLOCKREPETAG
1070
     1
1071
       56
1005
128B12
  0
LINE
  5
128B13
  8
OBJECT
 10
4583.0
 20
-634.0
 30
0.0
 11
4580.0
 21
-634.0
 31
0.0
1001
ACDBBLOCKREPETAG
1070
     1
1071
       57
1005
128B13
  0
ARC
  5
128B14
  8
OBJECT
 10
4583.0
 20
-637.0
 30
0.0
 40
3.0
 50
0.0
 51
90.0
1001
ACDBBLOCKREPETAG
1070
     1
1071
       58
1005
128B14
  0
LINE
  5
128B15
  8
OBJECT
 10
4580.0
 20
-758.0
 30
0.0
 11
4583.0
 21
-758.0
 31
0.0
1001
ACDBBLOCKREPETAG
1070
     1
1071
       59
1005
128B15
  0
ARC
  5
128B16
  8
OBJECT
 10
4583.0
 20
-755.0
 30
0.0
 40
3.0
 50
270.0
 51
0.0
1001
ACDBBLOCKREPETAG
1070
     1
1071
       60
1005
128B16
  0
LINE
  5
128B17
  8
OBJECT
 10
4586.0
 20
-755.0
 30
0.0
 11
4586.0
 21
-637.0
 31
0.0
1001
ACDBBLOCKREPETAG
1070
     1
1071
       61
1005
128B17
  0
LINE
  5
128B18
  8
HIDDEN
 10
4588.0
 20
-651.5
 30
0.0
 11
4588.0
 21
-740.5
 31
0.0
1001
ACDBBLOCKREPETAG
1070
     1
1071
       63
1005
128B18
  0
LINE
  5
128B19
  8
OBJECT
 10
2633.0
 20
-3412.9999999999968168
 30
0.0
 11
2640.0
 21
-3412.9999999999968168
 31
0.0
1001
ACDBBLOCKREPETAG
1070
     1
1071
        0
1005
128B19
  0
LINE
  5
128B1A
  8
OBJECT
 10
2640.0
 20
-3412.9999999999968168
 30
0.0
 11
2640.0
 21
-3506.9999999999968168
 31
0.0
1001
ACDBBLOCKREPETAG
1070
     1
1071
        1
1005
128B1A
  0
LINE
  5
128B1B
  8
OBJECT
 10
2640.0
 20
-3506.9999999999968168
 30
0.0
 11
2633.0
 21
-3506.9999999999968168
 31
0.0
1001
ACDBBLOCKREPETAG
1070
     1
1071
        2
1005
128B1B
  0
LINE
  5
128B1C
  8
OBJECT
 10
2633.0
 20
-3506.9999999999968168
 30
0.0
 11
2633.0
 21
-3412.9999999999968168
 31
0.0
1001
ACDBBLOCKREPETAG
1070
     1
1071
        3
1005
128B1C
  0
LINE
  5
128B1D
  8
CENTER
 10
2655.0
 20
-3459.9999999999968168
 30
0.0
 11
2580.0
 21
-3459.9999999999968168
 31
0.0
1001
ACDBBLOCKREPETAG
1070
     1
1071
        4
1005
128B1D
  0
LINE
  5
128B1E
  8
OBJECT
 10
2633.0
 20
-3415.9999999999959073
 30
0.0
 11
2596.9999999999990905
 21
-3415.9999999999959073
 31
0.0
1001
ACDBBLOCKREPETAG
1070
     1
1071
        5
1005
128B1E
  0
LINE
  5
128B1F
  8
OBJECT
 10
2596.9999999999990905
 20
-3415.9999999999959073
 30
0.0
 11
2596.9999999999990905
 21
-3503.9999999999959073
 31
0.0
1001
ACDBBLOCKREPETAG
1070
     1
1071
        6
1005
128B1F
  0
LINE
  5
128B20
  8
OBJECT
 10
2596.9999999999990905
 20
-3503.9999999999959073
 30
0.0
 11
2633.0
 21
-3503.9999999999959073
 31
0.0
1001
ACDBBLOCKREPETAG
1070
     1
1071
        7
1005
128B20
  0
LINE
  5
128B21
  8
OBJECT
 10
2593.0
 20
-3420.4999999999959073
 30
0.0
 11
2584.5
 21
-3420.4999999999959073
 31
0.0
1001
ACDBBLOCKREPETAG
1070
     1
1071
        8
1005
128B21
  0
LINE
  5
128B22
  8
OBJECT
 10
2584.5
 20
-3499.4999999999959073
 30
0.0
 11
2593.0
 21
-3499.4999999999959073
 31
0.0
1001
ACDBBLOCKREPETAG
1070
     1
1071
        9
1005
128B22
  0
LINE
  5
128B23
  8
OBJECT
 10
2593.0
 20
-3499.4999999999959073
 30
0.0
 11
2593.0
 21
-3420.4999999999959073
 31
0.0
1001
ACDBBLOCKREPETAG
1070
     1
1071
       10
1005
128B23
  0
LINE
  5
128B24
  8
OBJECT
 10
2596.9999999999990905
 20
-3415.9999999999959073
 30
0.0
 11
2593.0
 21
-3420.4999999999959073
 31
0.0
1001
ACDBBLOCKREPETAG
1070
     1
1071
       11
1005
128B24
  0
LINE
  5
128B25
  8
OBJECT
 10
2596.9999999999990905
 20
-3503.9999999999959073
 30
0.0
 11
2593.0
 21
-3499.4999999999959073
 31
0.0
1001
ACDBBLOCKREPETAG
1070
     1
1071
       12
1005
128B25
  0
LINE
  5
128B26
  8
OBJECT
 10
2584.499999999998181
 20
-3506.4999999999959073
 30
0.0
 11
2584.5
 21
-3413.4999999999959073
 31
0.0
1001
ACDBBLOCKREPETAG
1070
     1
1071
       13
1005
128B26
  0
ARC
  5
128B27
  8
OBJECT
 10
2581.5
 20
-3413.4999999999959073
 30
0.0
 40
3.0
 50
0.0
 51
90.0
1001
ACDBBLOCKREPETAG
1070
     1
1071
       14
1005
128B27
  0
LINE
  5
128B28
  8
HIDDEN
 10
2588.0
 20
-3429.9999999999959073
 30
0.0
 11
2588.0
 21
-3489.9999999999968168
 31
0.0
1001
ACDBBLOCKREPETAG
1070
     1
1071
       15
1005
128B28
  0
LINE
  5
128B29
  8
OBJECT
 10
2581.5
 20
-3410.4999999999959073
 30
0.0
 11
2556.3449199129790941
 21
-3410.4999999999959073
 31
0.0
1001
ACDBBLOCKREPETAG
1070
     1
1071
       17
1005
128B29
  0
LINE
  5
128B2A
  8
OBJECT
 10
2581.499999999998181
 20
-3509.4999999999959073
 30
0.0
 11
2556.3449199129790941
 21
-3509.4999999999959073
 31
0.0
1001
ACDBBLOCKREPETAG
1070
     1
1071
       18
1005
128B2A
  0
ARC
  5
128B2B
  8
OBJECT
 10
2581.499999999998181
 20
-3506.4999999999959073
 30
0.0
 40
3.0
 50
270.0
 51
0.0
1001
ACDBBLOCKREPETAG
1070
     1
1071
       19
1005
128B2B
  0
LINE
  5
128B2C
  8
OBJECT
 10
2633.0
 20
-3773.9999999999968168
 30
0.0
 11
2640.0
 21
-3773.9999999999968168
 31
0.0
1001
ACDBBLOCKREPETAG
1070
     1
1071
        0
1005
128B2C
  0
LINE
  5
128B2D
  8
OBJECT
 10
2640.0
 20
-3773.9999999999968168
 30
0.0
 11
2640.0
 21
-3864.9999999999968168
 31
0.0
1001
ACDBBLOCKREPETAG
1070
     1
1071
        1
1005
128B2D
  0
LINE
  5
128B2E
  8
OBJECT
 10
2584.5
 20
-3759.5000000000618456
 30
0.0
 11
2584.5
 21
-3862.4999999999968168
 31
0.0
1001
ACDBBLOCKREPETAG
1070
     1
1071
        2
1005
128B2E
  0
ARC
  5
128B2F
  8
OBJECT
 10
2581.5
 20
-3759.5000000000618456
 30
0.0
 40
3.0
 50
0.0
 51
90.0
1001
ACDBBLOCKREPETAG
1070
     1
1071
        3
1005
128B2F
  0
LINE
  5
128B30
  8
OBJECT
 10
2633.0
 20
-3864.9999999999968168
 30
0.0
 11
2633.0
 21
-3773.9999999999968168
 31
0.0
1001
ACDBBLOCKREPETAG
1070
     1
1071
        4
1005
128B30
  0
LINE
  5
128B31
  8
CENTER
 10
2655.0
 20
-3820.9999999999968168
 30
0.0
 11
2541.9118237135839991
 21
-3820.9999999999968168
 31
0.0
1001
ACDBBLOCKREPETAG
1070
     1
1071
        5
1005
128B31
  0
LINE
  5
128B32
  8
OBJECT
 10
2633.0
 20
-3776.9999999999968168
 30
0.0
 11
2596.9999999999990905
 21
-3776.9999999999968168
 31
0.0
1001
ACDBBLOCKREPETAG
1070
     1
1071
        6
1005
128B32
  0
LINE
  5
128B33
  8
OBJECT
 10
2596.9999999999990905
 20
-3776.9999999999968168
 30
0.0
 11
2596.9999999999990905
 21
-3864.9999999999968168
 31
0.0
1001
ACDBBLOCKREPETAG
1070
     1
1071
        7
1005
128B33
  0
LINE
  5
128B34
  8
OBJECT
 10
2596.9999999999990905
 20
-3864.9999999999968168
 30
0.0
 11
2640.0
 21
-3864.9999999999968168
 31
0.0
1001
ACDBBLOCKREPETAG
1070
     1
1071
        8
1005
128B34
  0
LINE
  5
128B35
  8
OBJECT
 10
2593.0
 20
-3781.4999999999959073
 30
0.0
 11
2584.5
 21
-3781.4999999999959073
 31
0.0
1001
ACDBBLOCKREPETAG
1070
     1
1071
        9
1005
128B35
  0
LINE
  5
128B36
  8
OBJECT
 10
2584.5
 20
-3860.4999999999959073
 30
0.0
 11
2593.0
 21
-3860.4999999999959073
 31
0.0
1001
ACDBBLOCKREPETAG
1070
     1
1071
       10
1005
128B36
  0
LINE
  5
128B37
  8
OBJECT
 10
2593.0
 20
-3860.4999999999959073
 30
0.0
 11
2593.0
 21
-3781.4999999999959073
 31
0.0
1001
ACDBBLOCKREPETAG
1070
     1
1071
       11
1005
128B37
  0
LINE
  5
128B38
  8
OBJECT
 10
2596.9999999999990905
 20
-3776.9999999999968168
 30
0.0
 11
2593.0
 21
-3781.4999999999959073
 31
0.0
1001
ACDBBLOCKREPETAG
1070
     1
1071
       12
1005
128B38
  0
LINE
  5
128B39
  8
OBJECT
 10
2596.9999999999990905
 20
-3864.9999999999968168
 30
0.0
 11
2593.0
 21
-3860.4999999999959073
 31
0.0
1001
ACDBBLOCKREPETAG
1070
     1
1071
       13
1005
128B39
  0
LINE
  5
128B3A
  8
HIDDEN
 10
2588.0
 20
-3790.9999999999959073
 30
0.0
 11
2588.0
 21
-3850.9999999999959073
 31
0.0
1001
ACDBBLOCKREPETAG
1070
     1
1071
       14
1005
128B3A
  0
ARC
  5
128B3B
  8
OBJECT
 10
2664.8782728787741689
 20
-3821.4095072612249169
 30
0.0
 40
110.866352283089995
 50
144.1634274191434031
 51
163.0403538043316871
1001
ACDBBLOCKREPETAG
1070
     1
1071
       15
1005
128B3B
  0
ARC
  5
128B3C
  8
OBJECT
 10
2617.1359887769071975
 20
-3806.2877497184449567
 30
0.0
 40
60.7917498803589709
 50
163.5472046522266965
 51
179.7287969828267933
1001
ACDBBLOCKREPETAG
1070
     1
1071
       16
1005
128B3C
  0
ARC
  5
128B3D
  8
OBJECT
 10
2617.1359956562478146
 20
-3812.7122497598970767
 30
0.0
 40
60.7917567620948773
 50
180.2712034781453099
 51
196.4527794605338045
1001
ACDBBLOCKREPETAG
1070
     1
1071
       17
1005
128B3D
  0
ARC
  5
128B3E
  8
OBJECT
 10
2664.8782728787741689
 20
-3797.590492738832836
 30
0.0
 40
110.8663522830916008
 50
196.9596461956681992
 51
215.8365725808565969
1001
ACDBBLOCKREPETAG
1070
     1
1071
       18
1005
128B3E
  0
LINE
  5
128B3F
  8
OBJECT
 10
2556.3449199130041052
 20
-3806.0000000000331966
 30
0.0
 11
2556.3449199130041052
 21
-3813.0000000000291038
 31
0.0
1001
ACDBBLOCKREPETAG
1070
     1
1071
       19
1005
128B3F
  0
LINE
  5
128B40
  8
OBJECT
 10
2575.0
 20
-3756.5000000000618456
 30
0.0
 11
2581.5
 21
-3756.5000000000618456
 31
0.0
1001
ACDBBLOCKREPETAG
1070
     1
1071
       20
1005
128B40
  0
LINE
  5
128B41
  8
OBJECT
 10
2575.0
 20
-3862.4999999999968168
 30
0.0
 11
2584.5
 21
-3862.4999999999968168
 31
0.0
1001
ACDBBLOCKREPETAG
1070
     1
1071
       21
1005
128B41
  0
LINE
  5
128B42
  8
CENTER
 10
2838.0
 20
-3820.9999999999968168
 30
0.0
 11
2962.0
 21
-3820.9999999999968168
 31
0.0
1001
ACDBBLOCKREPETAG
1070
     1
1071
        0
1005
128B42
  0
CIRCLE
  5
128B43
  8
OBJECT
 10
2900.0
 20
-3820.9999999999968168
 30
0.0
 40
28.0
1001
ACDBBLOCKREPETAG
1070
     1
1071
        2
1005
128B43
  0
CIRCLE
  5
128B44
  8
OBJECT
 10
2900.0
 20
-3820.9999999999968168
 30
0.0
 40
39.0
1001
ACDBBLOCKREPETAG
1070
     1
1071
        3
1005
128B44
  0
ARC
  5
128B45
  8
OBJECT
 10
2900.0
 20
-3820.9999999999968168
 30
0.0
 40
47.0
 50
290.5819692114441182
 51
249.4180307885559102
1001
ACDBBLOCKREPETAG
1070
     1
1071
        4
1005
128B45
  0
LINE
  5
128B46
  8
OBJECT
 10
2883.4772883581417773
 20
-3864.9999999999968168
 30
0.0
 11
2916.5227116418568585
 21
-3864.9999999999968168
 31
0.0
1001
ACDBBLOCKREPETAG
1070
     1
1071
        5
1005
128B46
  0
ARC
  5
128B47
  8
OBJECT
 10
2900.0
 20
-3805.9999999999931788
 30
0.0
 40
49.5
 50
0.0
 51
180.0
1001
ACDBBLOCKREPETAG
1070
     1
1071
        6
1005
128B47
  0
LINE
  5
128B48
  8
OBJECT
 10
2850.5000000000031832
 20
-3805.9999999999931788
 30
0.0
 11
2850.5000000000031832
 21
-3812.9999999999968168
 31
0.0
1001
ACDBBLOCKREPETAG
1070
     1
1071
        7
1005
128B48
  0
LINE
  5
128B49
  8
OBJECT
 10
2949.5000000000068212
 20
-3805.9999999999931788
 30
0.0
 11
2949.5000000000068212
 21
-3812.9999999999968168
 31
0.0
1001
ACDBBLOCKREPETAG
1070
     1
1071
        8
1005
128B49
  0
ARC
  5
128B4A
  8
OBJECT
 10
2900.0
 20
-3812.9999999999968168
 30
0.0
 40
49.5
 50
180.0
 51
202.6695638510487925
1001
ACDBBLOCKREPETAG
1070
     1
1071
        9
1005
128B4A
  0
ARC
  5
128B4B
  8
OBJECT
 10
2900.0
 20
-3812.9999999999968168
 30
0.0
 40
49.5
 50
337.3304361489512075
 51
0.0
1001
ACDBBLOCKREPETAG
1070
     1
1071
       10
1005
128B4B
  0
POINT
  5
128B4C
  8
DOTS
 10
2900.0
 20
-3864.9999999999968168
 30
0.0
1001
ACDBBLOCKREPETAG
1070
     1
1071
       25
1005
128B4C
  0
LINE
  5
128B4D
  8
OBJECT
 10
3633.0
 20
-3404.9999999999959073
 30
0.0
 11
3640.0
 21
-3404.9999999999959073
 31
0.0
1001
ACDBBLOCKREPETAG
1070
     1
1071
       20
1005
128B4D
  0
LINE
  5
128B4E
  8
OBJECT
 10
3640.0
 20
-3404.9999999999959073
 30
0.0
 11
3640.0
 21
-3514.9999999999968168
 31
0.0
1001
ACDBBLOCKREPETAG
1070
     1
1071
       21
1005
128B4E
  0
LINE
  5
128B4F
  8
OBJECT
 10
3640.0
 20
-3514.9999999999968168
 30
0.0
 11
3633.0
 21
-3514.9999999999968168
 31
0.0
1001
ACDBBLOCKREPETAG
1070
     1
1071
       22
1005
128B4F
  0
LINE
  5
128B50
  8
OBJECT
 10
3633.0
 20
-3514.9999999999968168
 30
0.0
 11
3633.0
 21
-3404.9999999999959073
 31
0.0
1001
ACDBBLOCKREPETAG
1070
     1
1071
       23
1005
128B50
  0
LINE
  5
128B51
  8
CENTER
 10
3655.0
 20
-3459.9999999999968168
 30
0.0
 11
3580.0
 21
-3459.9999999999968168
 31
0.0
1001
ACDBBLOCKREPETAG
1070
     1
1071
       24
1005
128B51
  0
LINE
  5
128B52
  8
OBJECT
 10
3633.0
 20
-3407.9999999999959073
 30
0.0
 11
3597.0
 21
-3407.9999999999959073
 31
0.0
1001
ACDBBLOCKREPETAG
1070
     1
1071
       25
1005
128B52
  0
LINE
  5
128B53
  8
OBJECT
 10
3597.0
 20
-3407.9999999999959073
 30
0.0
 11
3597.0
 21
-3511.9999999999959073
 31
0.0
1001
ACDBBLOCKREPETAG
1070
     1
1071
       26
1005
128B53
  0
LINE
  5
128B54
  8
OBJECT
 10
3597.0
 20
-3511.9999999999959073
 30
0.0
 11
3633.0
 21
-3511.9999999999959073
 31
0.0
1001
ACDBBLOCKREPETAG
1070
     1
1071
       27
1005
128B54
  0
LINE
  5
128B55
  8
OBJECT
 10
3593.0
 20
-3412.4999999999959073
 30
0.0
 11
3584.5
 21
-3412.4999999999959073
 31
0.0
1001
ACDBBLOCKREPETAG
1070
     1
1071
       28
1005
128B55
  0
LINE
  5
128B56
  8
OBJECT
 10
3584.5
 20
-3507.4999999999968168
 30
0.0
 11
3593.0
 21
-3507.4999999999968168
 31
0.0
1001
ACDBBLOCKREPETAG
1070
     1
1071
       29
1005
128B56
  0
LINE
  5
128B57
  8
OBJECT
 10
3593.0
 20
-3507.4999999999968168
 30
0.0
 11
3593.0
 21
-3412.4999999999959073
 31
0.0
1001
ACDBBLOCKREPETAG
1070
     1
1071
       30
1005
128B57
  0
LINE
  5
128B58
  8
OBJECT
 10
3597.0
 20
-3407.9999999999959073
 30
0.0
 11
3593.0
 21
-3412.4999999999959073
 31
0.0
1001
ACDBBLOCKREPETAG
1070
     1
1071
       31
1005
128B58
  0
LINE
  5
128B59
  8
OBJECT
 10
3597.0
 20
-3511.9999999999959073
 30
0.0
 11
3593.0
 21
-3507.4999999999968168
 31
0.0
1001
ACDBBLOCKREPETAG
1070
     1
1071
       32
1005
128B59
  0
LINE
  5
128B5A
  8
OBJECT
 10
3584.499999999998181
 20
-3509.4999999999959073
 30
0.0
 11
3584.5
 21
-3410.4999999999959073
 31
0.0
1001
ACDBBLOCKREPETAG
1070
     1
1071
       33
1005
128B5A
  0
LINE
  5
128B5B
  8
HIDDEN
 10
3588.0
 20
-3421.9999999999968168
 30
0.0
 11
3588.0
 21
-3497.9999999999959073
 31
0.0
1001
ACDBBLOCKREPETAG
1070
     1
1071
       34
1005
128B5B
  0
LINE
  5
128B5C
  8
OBJECT
 10
3584.5
 20
-3410.4999999999959073
 30
0.0
 11
3556.3449199129790941
 21
-3410.4999999999959073
 31
0.0
1001
ACDBBLOCKREPETAG
1070
     1
1071
       35
1005
128B5C
  0
LINE
  5
128B5D
  8
OBJECT
 10
3584.499999999998181
 20
-3509.4999999999959073
 30
0.0
 11
3556.3449199129790941
 21
-3509.4999999999959073
 31
0.0
1001
ACDBBLOCKREPETAG
1070
     1
1071
       36
1005
128B5D
  0
LINE
  5
128B5E
  8
OBJECT
 10
3633.0
 20
-3757.9999999999959073
 30
0.0
 11
3640.0
 21
-3757.9999999999959073
 31
0.0
1001
ACDBBLOCKREPETAG
1070
     1
1071
       23
1005
128B5E
  0
LINE
  5
128B5F
  8
OBJECT
 10
3640.0
 20
-3757.9999999999959073
 30
0.0
 11
3640.0
 21
-3864.9999999999968168
 31
0.0
1001
ACDBBLOCKREPETAG
1070
     1
1071
       24
1005
128B5F
  0
LINE
  5
128B60
  8
OBJECT
 10
3584.5
 20
-3759.5000000000618456
 30
0.0
 11
3584.5
 21
-3862.4999999999968168
 31
0.0
1001
ACDBBLOCKREPETAG
1070
     1
1071
       25
1005
128B60
  0
ARC
  5
128B61
  8
OBJECT
 10
3581.5
 20
-3759.5000000000618456
 30
0.0
 40
3.0
 50
0.0
 51
90.0
1001
ACDBBLOCKREPETAG
1070
     1
1071
       26
1005
128B61
  0
LINE
  5
128B62
  8
OBJECT
 10
3633.0
 20
-3864.9999999999968168
 30
0.0
 11
3633.0
 21
-3757.9999999999959073
 31
0.0
1001
ACDBBLOCKREPETAG
1070
     1
1071
       27
1005
128B62
  0
LINE
  5
128B63
  8
CENTER
 10
3655.0
 20
-3812.9999999999968168
 30
0.0
 11
3541.3449199130041052
 21
-3813.0000000000618456
 31
0.0
1001
ACDBBLOCKREPETAG
1070
     1
1071
       28
1005
128B63
  0
LINE
  5
128B64
  8
OBJECT
 10
3633.0
 20
-3760.9999999999968168
 30
0.0
 11
3597.0
 21
-3760.9999999999968168
 31
0.0
1001
ACDBBLOCKREPETAG
1070
     1
1071
       29
1005
128B64
  0
LINE
  5
128B65
  8
OBJECT
 10
3597.0
 20
-3760.9999999999968168
 30
0.0
 11
3597.0
 21
-3864.9999999999968168
 31
0.0
1001
ACDBBLOCKREPETAG
1070
     1
1071
       30
1005
128B65
  0
LINE
  5
128B66
  8
OBJECT
 10
3597.0
 20
-3864.9999999999968168
 30
0.0
 11
3640.0
 21
-3864.9999999999968168
 31
0.0
1001
ACDBBLOCKREPETAG
1070
     1
1071
       31
1005
128B66
  0
LINE
  5
128B67
  8
OBJECT
 10
3593.0
 20
-3765.4999999999968168
 30
0.0
 11
3584.5
 21
-3765.4999999999968168
 31
0.0
1001
ACDBBLOCKREPETAG
1070
     1
1071
       32
1005
128B67
  0
LINE
  5
128B68
  8
OBJECT
 10
3584.5
 20
-3860.4999999999959073
 30
0.0
 11
3593.0
 21
-3860.4999999999959073
 31
0.0
1001
ACDBBLOCKREPETAG
1070
     1
1071
       33
1005
128B68
  0
LINE
  5
128B69
  8
OBJECT
 10
3593.0
 20
-3860.4999999999959073
 30
0.0
 11
3593.0
 21
-3765.4999999999968168
 31
0.0
1001
ACDBBLOCKREPETAG
1070
     1
1071
       34
1005
128B69
  0
LINE
  5
128B6A
  8
OBJECT
 10
3597.0
 20
-3760.9999999999968168
 30
0.0
 11
3593.0
 21
-3765.4999999999968168
 31
0.0
1001
ACDBBLOCKREPETAG
1070
     1
1071
       35
1005
128B6A
  0
LINE
  5
128B6B
  8
OBJECT
 10
3597.0
 20
-3864.9999999999968168
 30
0.0
 11
3593.0
 21
-3860.4999999999959073
 31
0.0
1001
ACDBBLOCKREPETAG
1070
     1
1071
       36
1005
128B6B
  0
LINE
  5
128B6C
  8
HIDDEN
 10
3588.0
 20
-3774.9999999999968168
 30
0.0
 11
3588.0
 21
-3850.9999999999959073
 31
0.0
1001
ACDBBLOCKREPETAG
1070
     1
1071
       37
1005
128B6C
  0
ARC
  5
128B6D
  8
OBJECT
 10
3664.8782728787741689
 20
-3821.4095072612249169
 30
0.0
 40
110.866352283089995
 50
144.1634274192888938
 51
163.0403538043316871
1001
ACDBBLOCKREPETAG
1070
     1
1071
       38
1005
128B6D
  0
ARC
  5
128B6E
  8
OBJECT
 10
3617.1359887769071975
 20
-3806.2877497184449567
 30
0.0
 40
60.7917498803589709
 50
163.5472046522266965
 51
179.7287969828267933
1001
ACDBBLOCKREPETAG
1070
     1
1071
       39
1005
128B6E
  0
ARC
  5
128B6F
  8
OBJECT
 10
3617.1359956562478146
 20
-3812.7122497598970767
 30
0.0
 40
60.7917567620948773
 50
180.2712034781453099
 51
196.4527794605338045
1001
ACDBBLOCKREPETAG
1070
     1
1071
       40
1005
128B6F
  0
ARC
  5
128B70
  8
OBJECT
 10
3664.8782728787741689
 20
-3797.590492738832836
 30
0.0
 40
110.8663522830916008
 50
196.9596461956681992
 51
215.8365725807111062
1001
ACDBBLOCKREPETAG
1070
     1
1071
       41
1005
128B70
  0
LINE
  5
128B71
  8
OBJECT
 10
3556.3449199130041052
 20
-3806.0000000000331966
 30
0.0
 11
3556.3449199130041052
 21
-3813.0000000000291038
 31
0.0
1001
ACDBBLOCKREPETAG
1070
     1
1071
       42
1005
128B71
  0
LINE
  5
128B72
  8
OBJECT
 10
3574.9999999999990905
 20
-3756.5000000000618456
 30
0.0
 11
3581.5
 21
-3756.5000000000618456
 31
0.0
1001
ACDBBLOCKREPETAG
1070
     1
1071
       43
1005
128B72
  0
LINE
  5
128B73
  8
OBJECT
 10
3574.9999999999990905
 20
-3862.4999999999968168
 30
0.0
 11
3584.5
 21
-3862.4999999999968168
 31
0.0
1001
ACDBBLOCKREPETAG
1070
     1
1071
       44
1005
128B73
  0
CIRCLE
  5
128B74
  8
OBJECT
 10
3900.0
 20
-3812.9999999999968168
 30
0.0
 40
35.5
1001
ACDBBLOCKREPETAG
1070
     1
1071
       11
1005
128B74
  0
LINE
  5
128B75
  8
CENTER
 10
3830.0
 20
-3812.9999999999968168
 30
0.0
 11
3970.0
 21
-3812.9999999999968168
 31
0.0
1001
ACDBBLOCKREPETAG
1070
     1
1071
       12
1005
128B75
  0
CIRCLE
  5
128B76
  8
OBJECT
 10
3900.0
 20
-3812.9999999999968168
 30
0.0
 40
47.0
1001
ACDBBLOCKREPETAG
1070
     1
1071
       14
1005
128B76
  0
ARC
  5
128B77
  8
OBJECT
 10
3900.0
 20
-3812.9999999999968168
 30
0.0
 40
55.0
 50
289.0112652600889191
 51
250.9887347399111093
1001
ACDBBLOCKREPETAG
1070
     1
1071
       15
1005
128B77
  0
LINE
  5
128B78
  8
OBJECT
 10
3882.0835271328319322
 20
-3864.9999999999968168
 30
0.0
 11
3917.9164728671671583
 21
-3864.9999999999968168
 31
0.0
1001
ACDBBLOCKREPETAG
1070
     1
1071
       16
1005
128B78
  0
POINT
  5
128B79
  8
DOTS
 10
3900.0
 20
-3864.9999999999968168
 30
0.0
1001
ACDBBLOCKREPETAG
1070
     1
1071
       24
1005
128B79
  0
LINE
  5
128B7A
  8
OBJECT
 10
4633.0000000000009095
 20
-3397.9999999999959073
 30
0.0
 11
4640.000000000001819
 21
-3397.9999999999959073
 31
0.0
1001
ACDBBLOCKREPETAG
1070
     1
1071
       38
1005
128B7A
  0
LINE
  5
128B7B
  8
OBJECT
 10
4640.000000000001819
 20
-3397.9999999999959073
 30
0.0
 11
4640.0
 21
-3521.9999999999968168
 31
0.0
1001
ACDBBLOCKREPETAG
1070
     1
1071
       39
1005
128B7B
  0
LINE
  5
128B7C
  8
OBJECT
 10
4640.0
 20
-3521.9999999999968168
 30
0.0
 11
4633.0
 21
-3521.9999999999968168
 31
0.0
1001
ACDBBLOCKREPETAG
1070
     1
1071
       40
1005
128B7C
  0
LINE
  5
128B7D
  8
OBJECT
 10
4633.0
 20
-3521.9999999999968168
 30
0.0
 11
4633.0000000000009095
 21
-3397.9999999999959073
 31
0.0
1001
ACDBBLOCKREPETAG
1070
     1
1071
       41
1005
128B7D
  0
LINE
  5
128B7E
  8
CENTER
 10
4655.0
 20
-3459.9999999999968168
 30
0.0
 11
4580.0
 21
-3459.9999999999968168
 31
0.0
1001
ACDBBLOCKREPETAG
1070
     1
1071
       42
1005
128B7E
  0
LINE
  5
128B7F
  8
OBJECT
 10
4633.0000000000009095
 20
-3400.9999999999959073
 30
0.0
 11
4597.000000000001819
 21
-3400.9999999999959073
 31
0.0
1001
ACDBBLOCKREPETAG
1070
     1
1071
       43
1005
128B7F
  0
LINE
  5
128B80
  8
OBJECT
 10
4597.000000000001819
 20
-3400.9999999999959073
 30
0.0
 11
4597.0
 21
-3518.9999999999968168
 31
0.0
1001
ACDBBLOCKREPETAG
1070
     1
1071
       44
1005
128B80
  0
LINE
  5
128B81
  8
OBJECT
 10
4597.0
 20
-3518.9999999999968168
 30
0.0
 11
4633.0
 21
-3518.9999999999968168
 31
0.0
1001
ACDBBLOCKREPETAG
1070
     1
1071
       45
1005
128B81
  0
LINE
  5
128B82
  8
OBJECT
 10
4593.000000000001819
 20
-3405.4999999999959073
 30
0.0
 11
4582.500000000001819
 21
-3405.4999999999959073
 31
0.0
1001
ACDBBLOCKREPETAG
1070
     1
1071
       46
1005
128B82
  0
LINE
  5
128B83
  8
OBJECT
 10
4582.5
 20
-3514.4999999999968168
 30
0.0
 11
4593.0
 21
-3514.4999999999968168
 31
0.0
1001
ACDBBLOCKREPETAG
1070
     1
1071
       47
1005
128B83
  0
LINE
  5
128B84
  8
OBJECT
 10
4593.0
 20
-3514.4999999999968168
 30
0.0
 11
4593.000000000001819
 21
-3405.4999999999959073
 31
0.0
1001
ACDBBLOCKREPETAG
1070
     1
1071
       48
1005
128B84
  0
LINE
  5
128B85
  8
OBJECT
 10
4597.000000000001819
 20
-3400.9999999999959073
 30
0.0
 11
4593.000000000001819
 21
-3405.4999999999959073
 31
0.0
1001
ACDBBLOCKREPETAG
1070
     1
1071
       49
1005
128B85
  0
LINE
  5
128B86
  8
OBJECT
 10
4597.0
 20
-3518.9999999999968168
 30
0.0
 11
4593.0
 21
-3514.4999999999968168
 31
0.0
1001
ACDBBLOCKREPETAG
1070
     1
1071
       50
1005
128B86
  0
LINE
  5
128B87
  8
HIDDEN
 10
4588.0000000000009095
 20
-3415.4999999999968168
 30
0.0
 11
4588.0
 21
-3504.4999999999968168
 31
0.0
1001
ACDBBLOCKREPETAG
1070
     1
1071
       51
1005
128B87
  0
LINE
  5
128B88
  8
OBJECT
 10
4577.500000000001819
 20
-3410.4999999999959073
 30
0.0
 11
4556.3449199129790941
 21
-3410.4999999999959073
 31
0.0
1001
ACDBBLOCKREPETAG
1070
     1
1071
       52
1005
128B88
  0
LINE
  5
128B89
  8
OBJECT
 10
4577.4999999999990905
 20
-3509.4999999999959073
 30
0.0
 11
4556.3449199129790941
 21
-3509.4999999999959073
 31
0.0
1001
ACDBBLOCKREPETAG
1070
     1
1071
       53
1005
128B89
  0
LINE
  5
128B8A
  8
OBJECT
 10
4582.500000000001819
 20
-3405.4999999999959073
 30
0.0
 11
4582.5
 21
-3514.4999999999968168
 31
0.0
1001
ACDBBLOCKREPETAG
1070
     1
1071
       54
1005
128B8A
  0
LINE
  5
128B8B
  8
OBJECT
 10
4577.500000000001819
 20
-3410.4999999999959073
 30
0.0
 11
4577.4999999999990905
 21
-3509.4999999999959073
 31
0.0
1001
ACDBBLOCKREPETAG
1070
     1
1071
       55
1005
128B8B
  0
LINE
  5
128B8C
  8
OBJECT
 10
4582.500000000001819
 20
-3405.4999999999959073
 30
0.0
 11
4577.500000000001819
 21
-3410.4999999999959073
 31
0.0
1001
ACDBBLOCKREPETAG
1070
     1
1071
       56
1005
128B8C
  0
LINE
  5
128B8D
  8
OBJECT
 10
4577.4999999999990905
 20
-3509.4999999999959073
 30
0.0
 11
4582.5
 21
-3514.4999999999931788
 31
0.0
1001
ACDBBLOCKREPETAG
1070
     1
1071
       57
1005
128B8D
  0
LINE
  5
128B8E
  8
OBJECT
 10
4633.0
 20
-3743.9999999999959073
 30
0.0
 11
4640.0
 21
-3743.9999999999959073
 31
0.0
1001
ACDBBLOCKREPETAG
1070
     1
1071
       46
1005
128B8E
  0
LINE
  5
128B8F
  8
OBJECT
 10
4640.0
 20
-3743.9999999999959073
 30
0.0
 11
4640.0
 21
-3864.9999999999968168
 31
0.0
1001
ACDBBLOCKREPETAG
1070
     1
1071
       47
1005
128B8F
  0
LINE
  5
128B90
  8
OBJECT
 10
4633.0
 20
-3864.9999999999968168
 30
0.0
 11
4633.0
 21
-3743.9999999999959073
 31
0.0
1001
ACDBBLOCKREPETAG
1070
     1
1071
       48
1005
128B90
  0
LINE
  5
128B91
  8
CENTER
 10
4655.0
 20
-3805.9999999999968168
 30
0.0
 11
4541.3449199130036504
 21
-3806.0000000000618456
 31
0.0
1001
ACDBBLOCKREPETAG
1070
     1
1071
       49
1005
128B91
  0
LINE
  5
128B92
  8
OBJECT
 10
4633.0
 20
-3746.9999999999959073
 30
0.0
 11
4597.0
 21
-3746.9999999999959073
 31
0.0
1001
ACDBBLOCKREPETAG
1070
     1
1071
       50
1005
128B92
  0
LINE
  5
128B93
  8
OBJECT
 10
4597.0
 20
-3746.9999999999959073
 30
0.0
 11
4597.0
 21
-3864.9999999999968168
 31
0.0
1001
ACDBBLOCKREPETAG
1070
     1
1071
       51
1005
128B93
  0
LINE
  5
128B94
  8
OBJECT
 10
4597.0
 20
-3864.9999999999968168
 30
0.0
 11
4640.0
 21
-3864.9999999999968168
 31
0.0
1001
ACDBBLOCKREPETAG
1070
     1
1071
       52
1005
128B94
  0
LINE
  5
128B95
  8
OBJECT
 10
4593.0
 20
-3751.4999999999959073
 30
0.0
 11
4582.5
 21
-3751.4999999999959073
 31
0.0
1001
ACDBBLOCKREPETAG
1070
     1
1071
       53
1005
128B95
  0
LINE
  5
128B96
  8
OBJECT
 10
4582.5
 20
-3860.4999999999959073
 30
0.0
 11
4593.0
 21
-3860.4999999999959073
 31
0.0
1001
ACDBBLOCKREPETAG
1070
     1
1071
       54
1005
128B96
  0
LINE
  5
128B97
  8
OBJECT
 10
4593.0
 20
-3860.4999999999959073
 30
0.0
 11
4593.0
 21
-3751.4999999999959073
 31
0.0
1001
ACDBBLOCKREPETAG
1070
     1
1071
       55
1005
128B97
  0
LINE
  5
128B98
  8
OBJECT
 10
4597.0
 20
-3746.9999999999959073
 30
0.0
 11
4593.0
 21
-3751.4999999999959073
 31
0.0
1001
ACDBBLOCKREPETAG
1070
     1
1071
       56
1005
128B98
  0
LINE
  5
128B99
  8
OBJECT
 10
4597.0
 20
-3864.9999999999968168
 30
0.0
 11
4593.0
 21
-3860.4999999999959073
 31
0.0
1001
ACDBBLOCKREPETAG
1070
     1
1071
       57
1005
128B99
  0
LINE
  5
128B9A
  8
HIDDEN
 10
4588.0
 20
-3761.4999999999968168
 30
0.0
 11
4588.0
 21
-3850.4999999999968168
 31
0.0
1001
ACDBBLOCKREPETAG
1070
     1
1071
       58
1005
128B9A
  0
ARC
  5
128B9B
  8
OBJECT
 10
4664.8782728787728047
 20
-3821.4095072612249169
 30
0.0
 40
110.866352283089995
 50
144.1634274192888938
 51
163.0403538043393894
1001
ACDBBLOCKREPETAG
1070
     1
1071
       59
1005
128B9B
  0
ARC
  5
128B9C
  8
OBJECT
 10
4617.1359887769067427
 20
-3806.2877497184449567
 30
0.0
 40
60.7917498803589709
 50
163.5472046522193068
 51
179.7287969828265943
1001
ACDBBLOCKREPETAG
1070
     1
1071
       60
1005
128B9C
  0
ARC
  5
128B9D
  8
OBJECT
 10
4617.1359956562482694
 20
-3812.7122497598970767
 30
0.0
 40
60.7917567620948773
 50
180.2712034781451962
 51
196.4527794605265001
1001
ACDBBLOCKREPETAG
1070
     1
1071
       61
1005
128B9D
  0
ARC
  5
128B9E
  8
OBJECT
 10
4664.8782728787728047
 20
-3797.590492738832836
 30
0.0
 40
110.8663522830916008
 50
196.9596461956606106
 51
215.8365725807111062
1001
ACDBBLOCKREPETAG
1070
     1
1071
       62
1005
128B9E
  0
LINE
  5
128B9F
  8
OBJECT
 10
4556.3449199130036504
 20
-3806.0000000000331966
 30
0.0
 11
4556.3449199130036504
 21
-3813.0000000000291038
 31
0.0
1001
ACDBBLOCKREPETAG
1070
     1
1071
       63
1005
128B9F
  0
LINE
  5
128BA0
  8
OBJECT
 10
4574.999999999836291
 20
-3756.5000000002910383
 30
0.0
 11
4577.499999999836291
 21
-3756.5000000002910383
 31
0.0
1001
ACDBBLOCKREPETAG
1070
     1
1071
       65
1005
128BA0
  0
LINE
  5
128BA1
  8
OBJECT
 10
4574.999999999832653
 20
-3862.4999999997671694
 30
0.0
 11
4579.4999999998317435
 21
-3862.4999999997671694
 31
0.0
1001
ACDBBLOCKREPETAG
1070
     1
1071
       66
1005
128BA1
  0
LINE
  5
128BA2
  8
OBJECT
 10
4579.4999999998317435
 20
-3862.4999999997671694
 30
0.0
 11
4577.499999999836291
 21
-3756.5000000002910383
 31
0.0
1001
ACDBBLOCKREPETAG
1070
     1
1071
       67
1005
128BA2
  0
LINE
  5
128BA3
  8
OBJECT
 10
4579.4999999998317435
 20
-3862.4999999997671694
 30
0.0
 11
4582.5
 21
-3860.4999999999959073
 31
0.0
1001
ACDBBLOCKREPETAG
1070
     1
1071
       68
1005
128BA3
  0
LINE
  5
128BA4
  8
OBJECT
 10
4582.5
 20
-3860.4999999999959073
 30
0.0
 11
4582.5
 21
-3751.4999999999959073
 31
0.0
1001
ACDBBLOCKREPETAG
1070
     1
1071
       69
1005
128BA4
  0
LINE
  5
128BA5
  8
OBJECT
 10
4582.5
 20
-3751.4999999999959073
 30
0.0
 11
4577.499999999836291
 21
-3756.5000000002910383
 31
0.0
1001
ACDBBLOCKREPETAG
1070
     1
1071
       70
1005
128BA5
  0
LINE
  5
128BA6
  8
CENTER
 10
4977.0
 20
-3805.9999999999968168
 30
0.0
 11
4823.0
 21
-3805.9999999999968168
 31
0.0
1001
ACDBBLOCKREPETAG
1070
     1
1071
       17
1005
128BA6
  0
CIRCLE
  5
128BA7
  8
OBJECT
 10
4900.0
 20
-3805.9999999999968168
 30
0.0
 40
41.5
1001
ACDBBLOCKREPETAG
1070
     1
1071
       18
1005
128BA7
  0
CIRCLE
  5
128BA8
  8
OBJECT
 10
4900.0
 20
-3805.9999999999968168
 30
0.0
 40
54.0
1001
ACDBBLOCKREPETAG
1070
     1
1071
       19
1005
128BA8
  0
ARC
  5
128BA9
  8
OBJECT
 10
4900.0
 20
-3805.9999999999968168
 30
0.0
 40
62.0
 50
287.8965511292112751
 51
252.1034488707886965
1001
ACDBBLOCKREPETAG
1070
     1
1071
       20
1005
128BA9
  0
LINE
  5
128BAA
  8
OBJECT
 10
4880.9474411167429935
 20
-3864.9999999999968168
 30
0.0
 11
4919.0525588832570065
 21
-3864.9999999999968168
 31
0.0
1001
ACDBBLOCKREPETAG
1070
     1
1071
       21
1005
128BAA
  0
POINT
  5
128BAB
  8
DOTS
 10
4900.0
 20
-3864.9999999999968168
 30
0.0
1001
ACDBBLOCKREPETAG
1070
     1
1071
       23
1005
128BAB
  0
LINE
  5
128BAC
  8
DIM
 10
2665.0000000000009095
 20
-696.0000000000002274
 30
0.0
 11
2719.4245816727570855
 21
-696.0000000000002274
 31
0.0
  0
LINE
  5
128BAD
  8
DIM
 10
2527.9164728671698867
 20
-1136.0
 30
0.0
 11
2719.424581672757995
 21
-1136.0
 31
0.0
  0
LINE
  5
128BAE
  8
DIM
 10
2709.4245816727570855
 20
-716.0000000000002274
 30
0.0
 11
2709.4245816727570855
 21
-1116.0
 31
0.0
  0
INSERT
  5
128BAF
  8
DIM
  2
_OPEN30
 10
2709.4245816727570855
 20
-696.0000000000002274
 30
0.0
 41
20.0
 42
20.0
 43
20.0
 50
90.0
  0
INSERT
  5
128BB0
  8
DIM
  2
_OPEN30
 10
2709.4245816727570855
 20
-1136.0
 30
0.0
 41
20.0
 42
20.0
 43
20.0
 50
270.0
  0
INSERT
  5
128BB1
  8
SLIM
  2
*U189
 10
0.0
 20
0.0
 30
0.0
  0
LINE
  5
128BB2
  8
DIM
 10
4665.0000000000009095
 20
-696.0000000000002274
 30
0.0
 11
4719.424581672757995
 21
-696.0000000000002274
 31
0.0
  0
LINE
  5
128BB3
  8
DIM
 10
4527.916472867169432
 20
-1136.0
 30
0.0
 11
4719.424581672757995
 21
-1136.0
 31
0.0
  0
LINE
  5
128BB4
  8
DIM
 10
4709.424581672757995
 20
-716.0000000000002274
 30
0.0
 11
4709.424581672757995
 21
-1116.0
 31
0.0
  0
INSERT
  5
128BB5
  8
DIM
  2
_OPEN30
 10
4709.424581672757995
 20
-696.0000000000002274
 30
0.0
 41
20.0
 42
20.0
 43
20.0
 50
90.0
  0
INSERT
  5
128BB6
  8
DIM
  2
_OPEN30
 10
4709.424581672757995
 20
-1136.0
 30
0.0
 41
20.0
 42
20.0
 43
20.0
 50
270.0
  0
INSERT
  5
128BB7
  8
SLIM
  2
*U190
 10
0.0
 20
0.0
 30
0.0
  0
LINE
  5
128BB8
  8
DIM
 10
4404.999999999992724
 20
-1135.9999999999990905
 30
0.0
 11
4333.1164560757752042
 21
-1135.9999999999990905
 31
0.0
  0
LINE
  5
128BB9
  8
DIM
 10
4410.0
 20
-1376.0
 30
0.0
 11
4333.1164560757752042
 21
-1376.0
 31
0.0
  0
LINE
  5
128BBA
  8
DIM
 10
4343.1164560757752042
 20
-1155.9999999999990905
 30
0.0
 11
4343.1164560757752042
 21
-1356.0
 31
0.0
  0
INSERT
  5
128BBB
  8
DIM
  2
_OPEN30
 10
4343.1164560757752042
 20
-1135.9999999999990905
 30
0.0
 41
20.0
 42
20.0
 43
20.0
 50
90.0
  0
INSERT
  5
128BBC
  8
DIM
  2
_OPEN30
 10
4343.1164560757752042
 20
-1376.0
 30
0.0
 41
20.0
 42
20.0
 43
20.0
 50
270.0
  0
INSERT
  5
128BBD
  8
SLIM
  2
*U191
 10
0.0
 20
0.0
 30
0.0
  0
LINE
  5
128BBE
  8
OBJECT
 10
2430.0
 20
-1484.9999999999979536
 30
0.0
 11
2570.0
 21
-1484.9999999999979536
 31
0.0
1001
ACDBBLOCKREPETAG
1070
     1
1071
        0
1005
128BBE
  0
LINE
  5
128BBF
  8
OBJECT
 10
2430.0
 20
-1484.9999999999979536
 30
0.0
 11
2430.0
 21
-1244.9999999999979536
 31
0.0
1001
ACDBBLOCKREPETAG
1070
     1
1071
        1
1005
128BBF
  0
LINE
  5
128BC0
  8
OBJECT
 10
2570.0
 20
-1484.9999999999979536
 30
0.0
 11
2570.0
 21
-1244.9999999999979536
 31
0.0
1001
ACDBBLOCKREPETAG
1070
     1
1071
        2
1005
128BC0
  0
LINE
  5
128BC1
  8
OBJECT
 10
2430.0
 20
-1244.9999999999979536
 30
0.0
 11
2570.0
 21
-1244.9999999999979536
 31
0.0
1001
ACDBBLOCKREPETAG
1070
     1
1071
        3
1005
128BC1
  0
LINE
  5
128BC2
  8
HIDDEN
 10
2437.5
 20
-1244.9999999999979536
 30
0.0
 11
2437.5
 21
-1484.9999999999979536
 31
0.0
1001
ACDBBLOCKREPETAG
1070
     1
1071
        4
1005
128BC2
  0
LINE
  5
128BC3
  8
HIDDEN
 10
2562.5
 20
-1244.9999999999979536
 30
0.0
 11
2562.5
 21
-1484.9999999999979536
 31
0.0
1001
ACDBBLOCKREPETAG
1070
     1
1071
        5
1005
128BC3
  0
LINE
  5
128BC4
  8
CENTER
 10
2500.0
 20
-1175.0
 30
0.0
 11
2500.0
 21
-1499.9999999999979536
 31
0.0
1001
ACDBBLOCKREPETAG
1070
     1
1071
        6
1005
128BC4
  0
LINE
  5
128BC5
  8
OBJECT
 10
2425.0
 20
-1175.0
 30
0.0
 11
2425.0
 21
-1204.9999999999979536
 31
0.0
1001
ACDBBLOCKREPETAG
1070
     1
1071
        7
1005
128BC5
  0
LINE
  5
128BC6
  8
OBJECT
 10
2575.0000000000040927
 20
-1175.0
 30
0.0
 11
2575.0
 21
-1204.9999999999979536
 31
0.0
1001
ACDBBLOCKREPETAG
1070
     1
1071
        8
1005
128BC6
  0
LINE
  5
128BC7
  8
OBJECT
 10
2425.0
 20
-1204.9999999999979536
 30
0.0
 11
2575.0
 21
-1204.9999999999979536
 31
0.0
1001
ACDBBLOCKREPETAG
1070
     1
1071
        9
1005
128BC7
  0
LINE
  5
128BC8
  8
OBJECT
 10
2425.0
 20
-1204.9999999999979536
 30
0.0
 11
2430.0
 21
-1244.9999999999979536
 31
0.0
1001
ACDBBLOCKREPETAG
1070
     1
1071
       10
1005
128BC8
  0
LINE
  5
128BC9
  8
OBJECT
 10
2570.0
 20
-1244.9999999999979536
 30
0.0
 11
2575.0
 21
-1204.9999999999979536
 31
0.0
1001
ACDBBLOCKREPETAG
1070
     1
1071
       11
1005
128BC9
  0
LINE
  5
128BCA
  8
OBJECT
 10
4430.0
 20
-1484.9999999999979536
 30
0.0
 11
4570.0
 21
-1484.9999999999979536
 31
0.0
1001
ACDBBLOCKREPETAG
1070
     1
1071
        0
1005
128BCA
  0
LINE
  5
128BCB
  8
OBJECT
 10
4430.0
 20
-1484.9999999999979536
 30
0.0
 11
4430.0
 21
-1244.9999999999979536
 31
0.0
1001
ACDBBLOCKREPETAG
1070
     1
1071
        1
1005
128BCB
  0
LINE
  5
128BCC
  8
OBJECT
 10
4570.0
 20
-1484.9999999999979536
 30
0.0
 11
4570.0
 21
-1244.9999999999979536
 31
0.0
1001
ACDBBLOCKREPETAG
1070
     1
1071
        2
1005
128BCC
  0
LINE
  5
128BCD
  8
OBJECT
 10
4430.0
 20
-1244.9999999999979536
 30
0.0
 11
4570.0
 21
-1244.9999999999979536
 31
0.0
1001
ACDBBLOCKREPETAG
1070
     1
1071
        3
1005
128BCD
  0
LINE
  5
128BCE
  8
HIDDEN
 10
4437.5
 20
-1244.9999999999979536
 30
0.0
 11
4437.5
 21
-1484.9999999999979536
 31
0.0
1001
ACDBBLOCKREPETAG
1070
     1
1071
        4
1005
128BCE
  0
LINE
  5
128BCF
  8
HIDDEN
 10
4562.5
 20
-1244.9999999999979536
 30
0.0
 11
4562.5
 21
-1484.9999999999979536
 31
0.0
1001
ACDBBLOCKREPETAG
1070
     1
1071
        5
1005
128BCF
  0
LINE
  5
128BD0
  8
CENTER
 10
4500.0
 20
-1175.0
 30
0.0
 11
4500.0
 21
-1499.9999999999979536
 31
0.0
1001
ACDBBLOCKREPETAG
1070
     1
1071
        6
1005
128BD0
  0
LINE
  5
128BD1
  8
OBJECT
 10
4425.0
 20
-1175.0
 30
0.0
 11
4425.0
 21
-1204.9999999999979536
 31
0.0
1001
ACDBBLOCKREPETAG
1070
     1
1071
        7
1005
128BD1
  0
LINE
  5
128BD2
  8
OBJECT
 10
4575.0000000000027285
 20
-1175.0
 30
0.0
 11
4575.0
 21
-1204.9999999999979536
 31
0.0
1001
ACDBBLOCKREPETAG
1070
     1
1071
        8
1005
128BD2
  0
LINE
  5
128BD3
  8
OBJECT
 10
4425.0
 20
-1204.9999999999979536
 30
0.0
 11
4575.0
 21
-1204.9999999999979536
 31
0.0
1001
ACDBBLOCKREPETAG
1070
     1
1071
        9
1005
128BD3
  0
LINE
  5
128BD4
  8
OBJECT
 10
4425.0
 20
-1204.9999999999979536
 30
0.0
 11
4430.0
 21
-1244.9999999999979536
 31
0.0
1001
ACDBBLOCKREPETAG
1070
     1
1071
       10
1005
128BD4
  0
LINE
  5
128BD5
  8
OBJECT
 10
4570.0
 20
-1244.9999999999979536
 30
0.0
 11
4575.0
 21
-1204.9999999999979536
 31
0.0
1001
ACDBBLOCKREPETAG
1070
     1
1071
       11
1005
128BD5
  0
LINE
  5
128BD6
  8
SLIM
 10
4414.999999999992724
 20
-1152.2369265471770632
 30
0.0
 11
4431.2369265471697872
 21
-1136.0
 31
0.0
1001
GRADIENTCOLOR1ACI
1070
     5
1001
GRADIENTCOLOR2ACI
1070
     2
1001
ACAD
1010
0.0
1020
0.0
1030
0.0
  0
LINE
  5
128BD7
  8
SLIM
 10
4414.9999999999936335
 20
-1170.1974387893139919
 30
0.0
 11
4449.1974387893078529
 21
-1136.0
 31
0.0
1001
GRADIENTCOLOR1ACI
1070
     5
1001
GRADIENTCOLOR2ACI
1070
     2
1001
ACAD
1010
0.0
1020
0.0
1030
0.0
  0
LINE
  5
128BD8
  8
SLIM
 10
4414.9999999999954525
 20
-1188.1579510314509207
 30
0.0
 11
4467.1579510314459185
 21
-1136.0
 31
0.0
1001
GRADIENTCOLOR1ACI
1070
     5
1001
GRADIENTCOLOR2ACI
1070
     2
1001
ACAD
1010
0.0
1020
0.0
1030
0.0
  0
LINE
  5
128BD9
  8
SLIM
 10
4415.1454972543142503
 20
-1205.9729660192690517
 30
0.0
 11
4485.1184632735848936
 21
-1136.0
 31
0.0
1001
GRADIENTCOLOR1ACI
1070
     5
1001
GRADIENTCOLOR2ACI
1070
     2
1001
ACAD
1010
0.0
1020
0.0
1030
0.0
  0
LINE
  5
128BDA
  8
SLIM
 10
4417.1046274952441308
 20
-1221.9743480204799653
 30
0.0
 11
4503.0789755157220497
 21
-1136.0
 31
0.0
1001
GRADIENTCOLOR1ACI
1070
     5
1001
GRADIENTCOLOR2ACI
1070
     2
1001
ACAD
1010
0.0
1020
0.0
1030
0.0
  0
LINE
  5
128BDB
  8
SLIM
 10
4419.0637577361712829
 20
-1237.9757300216899694
 30
0.0
 11
4521.0394877578619344
 21
-1136.0
 31
0.0
1001
GRADIENTCOLOR1ACI
1070
     5
1001
GRADIENTCOLOR2ACI
1070
     2
1001
ACAD
1010
0.0
1020
0.0
1030
0.0
  0
LINE
  5
128BDC
  8
SLIM
 10
4420.0
 20
-1255.0
 30
0.0
 11
4539.0
 21
-1136.0
 31
0.0
1001
GRADIENTCOLOR1ACI
1070
     5
1001
GRADIENTCOLOR2ACI
1070
     2
1001
ACAD
1010
0.0
1020
0.0
1030
0.0
  0
LINE
  5
128BDD
  8
SLIM
 10
4420.0
 20
-1272.9605122421380656
 30
0.0
 11
4556.9605122421371561
 21
-1136.0
 31
0.0
1001
GRADIENTCOLOR1ACI
1070
     5
1001
GRADIENTCOLOR2ACI
1070
     2
1001
ACAD
1010
0.0
1020
0.0
1030
0.0
  0
LINE
  5
128BDE
  8
SLIM
 10
4420.0
 20
-1290.9210244842770408
 30
0.0
 11
4574.9210244842770408
 21
-1136.0
 31
0.0
1001
GRADIENTCOLOR1ACI
1070
     5
1001
GRADIENTCOLOR2ACI
1070
     2
1001
ACAD
1010
0.0
1020
0.0
1030
0.0
  0
LINE
  5
128BDF
  8
SLIM
 10
4420.0
 20
-1308.8815367264151064
 30
0.0
 11
4585.000000000007276
 21
-1143.8815367264080578
 31
0.0
1001
GRADIENTCOLOR1ACI
1070
     5
1001
GRADIENTCOLOR2ACI
1070
     2
1001
ACAD
1010
0.0
1020
0.0
1030
0.0
  0
LINE
  5
128BE0
  8
SLIM
 10
4420.0
 20
-1326.8420489685529446
 30
0.0
 11
4585.0000000000063665
 21
-1161.8420489685470329
 31
0.0
1001
GRADIENTCOLOR1ACI
1070
     5
1001
GRADIENTCOLOR2ACI
1070
     2
1001
ACAD
1010
0.0
1020
0.0
1030
0.0
  0
LINE
  5
128BE1
  8
SLIM
 10
4420.0
 20
-1344.8025612106910103
 30
0.0
 11
4585.000000000003638
 21
-1179.8025612106869175
 31
0.0
1001
GRADIENTCOLOR1ACI
1070
     5
1001
GRADIENTCOLOR2ACI
1070
     2
1001
ACAD
1010
0.0
1020
0.0
1030
0.0
  0
LINE
  5
128BE2
  8
SLIM
 10
4420.0
 20
-1362.7630734528290759
 30
0.0
 11
4585.0000000000027285
 21
-1197.7630734528258927
 31
0.0
1001
GRADIENTCOLOR1ACI
1070
     5
1001
GRADIENTCOLOR2ACI
1070
     2
1001
ACAD
1010
0.0
1020
0.0
1030
0.0
  0
LINE
  5
128BE3
  8
SLIM
 10
4424.7235856949691879
 20
-1376.0
 30
0.0
 11
4583.4738280308083631
 21
-1217.2497576641590058
 31
0.0
1001
GRADIENTCOLOR1ACI
1070
     5
1001
GRADIENTCOLOR2ACI
1070
     2
1001
ACAD
1010
0.0
1020
0.0
1030
0.0
  0
LINE
  5
128BE4
  8
SLIM
 10
4430.0
 20
-1388.6840979371058893
 30
0.0
 11
4442.684097937106344
 21
-1376.0
 31
0.0
1001
GRADIENTCOLOR1ACI
1070
     5
1001
GRADIENTCOLOR2ACI
1070
     2
1001
ACAD
1010
0.0
1020
0.0
1030
0.0
  0
LINE
  5
128BE5
  8
SLIM
 10
4442.684097937106344
 20
-1376.0
 30
0.0
 11
4580.9680345671367832
 21
-1237.7160633699691061
 31
0.0
1001
GRADIENTCOLOR1ACI
1070
     5
1001
GRADIENTCOLOR2ACI
1070
     2
1001
ACAD
1010
0.0
1020
0.0
1030
0.0
  0
LINE
  5
128BE6
  8
SLIM
 10
4441.6446101792453192
 20
-1395.0
 30
0.0
 11
4460.6446101792444097
 21
-1376.0
 31
0.0
1001
GRADIENTCOLOR1ACI
1070
     5
1001
GRADIENTCOLOR2ACI
1070
     2
1001
ACAD
1010
0.0
1020
0.0
1030
0.0
  0
LINE
  5
128BE7
  8
SLIM
 10
4460.6446101792444097
 20
-1376.0
 30
0.0
 11
4580.0
 21
-1256.6446101792450918
 31
0.0
1001
GRADIENTCOLOR1ACI
1070
     5
1001
GRADIENTCOLOR2ACI
1070
     2
1001
ACAD
1010
0.0
1020
0.0
1030
0.0
  0
LINE
  5
128BE8
  8
SLIM
 10
4459.6051224213833848
 20
-1395.0
 30
0.0
 11
4478.6051224213842943
 21
-1376.0
 31
0.0
1001
GRADIENTCOLOR1ACI
1070
     5
1001
GRADIENTCOLOR2ACI
1070
     2
1001
ACAD
1010
0.0
1020
0.0
1030
0.0
  0
LINE
  5
128BE9
  8
SLIM
 10
4478.6051224213842943
 20
-1376.0
 30
0.0
 11
4580.0
 21
-1274.60512242138293
 31
0.0
1001
GRADIENTCOLOR1ACI
1070
     5
1001
GRADIENTCOLOR2ACI
1070
     2
1001
ACAD
1010
0.0
1020
0.0
1030
0.0
  0
LINE
  5
128BEA
  8
SLIM
 10
4477.5656346635214504
 20
-1395.0
 30
0.0
 11
4496.5656346635214504
 21
-1376.0
 31
0.0
1001
GRADIENTCOLOR1ACI
1070
     5
1001
GRADIENTCOLOR2ACI
1070
     2
1001
ACAD
1010
0.0
1020
0.0
1030
0.0
  0
LINE
  5
128BEB
  8
SLIM
 10
4496.5656346635214504
 20
-1376.0
 30
0.0
 11
4579.9999999999990905
 21
-1292.5656346635219052
 31
0.0
1001
GRADIENTCOLOR1ACI
1070
     5
1001
GRADIENTCOLOR2ACI
1070
     2
1001
ACAD
1010
0.0
1020
0.0
1030
0.0
  0
LINE
  5
128BEC
  8
SLIM
 10
4495.5261469056586066
 20
-1395.0
 30
0.0
 11
4514.5261469056604255
 21
-1376.0
 31
0.0
1001
GRADIENTCOLOR1ACI
1070
     5
1001
GRADIENTCOLOR2ACI
1070
     2
1001
ACAD
1010
0.0
1020
0.0
1030
0.0
  0
LINE
  5
128BED
  8
SLIM
 10
4514.5261469056604255
 20
-1376.0
 30
0.0
 11
4579.9999999999990905
 21
-1310.5261469056611077
 31
0.0
1001
GRADIENTCOLOR1ACI
1070
     5
1001
GRADIENTCOLOR2ACI
1070
     2
1001
ACAD
1010
0.0
1020
0.0
1030
0.0
  0
LINE
  5
128BEE
  8
SLIM
 10
4513.4866591477975817
 20
-1395.0
 30
0.0
 11
4532.4866591477994007
 21
-1376.0
 31
0.0
1001
GRADIENTCOLOR1ACI
1070
     5
1001
GRADIENTCOLOR2ACI
1070
     2
1001
ACAD
1010
0.0
1020
0.0
1030
0.0
  0
LINE
  5
128BEF
  8
SLIM
 10
4532.4866591477994007
 20
-1376.0
 30
0.0
 11
4579.9999999999990905
 21
-1328.4866591477989459
 31
0.0
1001
GRADIENTCOLOR1ACI
1070
     5
1001
GRADIENTCOLOR2ACI
1070
     2
1001
ACAD
1010
0.0
1020
0.0
1030
0.0
  0
LINE
  5
128BF0
  8
SLIM
 10
4531.4471713899356473
 20
-1395.0
 30
0.0
 11
4550.4471713899356473
 21
-1376.0
 31
0.0
1001
GRADIENTCOLOR1ACI
1070
     5
1001
GRADIENTCOLOR2ACI
1070
     2
1001
ACAD
1010
0.0
1020
0.0
1030
0.0
  0
LINE
  5
128BF1
  8
SLIM
 10
4550.4471713899356473
 20
-1376.0
 30
0.0
 11
4579.999999999998181
 21
-1346.4471713899370116
 31
0.0
1001
GRADIENTCOLOR1ACI
1070
     5
1001
GRADIENTCOLOR2ACI
1070
     2
1001
ACAD
1010
0.0
1020
0.0
1030
0.0
  0
LINE
  5
128BF2
  8
SLIM
 10
4549.4076836320737129
 20
-1395.0
 30
0.0
 11
4568.4076836320746224
 21
-1376.0
 31
0.0
1001
GRADIENTCOLOR1ACI
1070
     5
1001
GRADIENTCOLOR2ACI
1070
     2
1001
ACAD
1010
0.0
1020
0.0
1030
0.0
  0
LINE
  5
128BF3
  8
SLIM
 10
4568.4076836320746224
 20
-1376.0
 30
0.0
 11
4579.999999999998181
 21
-1364.4076836320759867
 31
0.0
1001
GRADIENTCOLOR1ACI
1070
     5
1001
GRADIENTCOLOR2ACI
1070
     2
1001
ACAD
1010
0.0
1020
0.0
1030
0.0
  0
LINE
  5
128BF4
  8
SLIM
 10
4567.3681958742117786
 20
-1395.0
 30
0.0
 11
4570.0
 21
-1392.3681958742129154
 31
0.0
1001
GRADIENTCOLOR1ACI
1070
     5
1001
GRADIENTCOLOR2ACI
1070
     2
1001
ACAD
1010
0.0
1020
0.0
1030
0.0
  0
LINE
  5
128BF5
  8
OBJECT
 10
4414.9999999999918145
 20
-1136.0
 30
0.0
 11
4414.999999999996362
 21
-1204.7846033990349497
 31
0.0
1001
ACDBBLOCKREPETAG
1070
     1
1071
        1
1005
128BF5
  0
LINE
  5
128BF6
  8
OBJECT
 10
4585.000000000007276
 20
-1136.0
 30
0.0
 11
4585.0000000000027285
 21
-1204.7846033990419983
 31
0.0
1001
ACDBBLOCKREPETAG
1070
     1
1071
        2
1005
128BF6
  0
LINE
  5
128BF7
  8
OBJECT
 10
4585.000000000007276
 20
-1136.0
 30
0.0
 11
4414.9999999999918145
 21
-1136.0
 31
0.0
1001
ACDBBLOCKREPETAG
1070
     1
1071
        3
1005
128BF7
  0
LINE
  5
128BF8
  8
OBJECT
 10
4579.999999999998181
 20
-1376.0
 30
0.0
 11
4420.0
 21
-1376.0
 31
0.0
1001
ACDBBLOCKREPETAG
1070
     1
1071
        4
1005
128BF8
  0
LINE
  5
128BF9
  8
OBJECT
 10
4414.999999999996362
 20
-1204.7846033990349497
 30
0.0
 11
4420.0
 21
-1245.6225774829858892
 31
0.0
1001
ACDBBLOCKREPETAG
1070
     1
1071
        6
1005
128BF9
  0
LINE
  5
128BFA
  8
OBJECT
 10
4420.0
 20
-1245.6225774829858892
 30
0.0
 11
4420.0
 21
-1376.0
 31
0.0
1001
ACDBBLOCKREPETAG
1070
     1
1071
        7
1005
128BFA
  0
LINE
  5
128BFB
  8
OBJECT
 10
4585.0000000000027285
 20
-1204.7846033990419983
 30
0.0
 11
4580.0
 21
-1245.6225774829858892
 31
0.0
1001
ACDBBLOCKREPETAG
1070
     1
1071
        8
1005
128BFB
  0
LINE
  5
128BFC
  8
OBJECT
 10
4580.0
 20
-1245.6225774829858892
 30
0.0
 11
4579.999999999998181
 21
-1376.0
 31
0.0
1001
ACDBBLOCKREPETAG
1070
     1
1071
        9
1005
128BFC
  0
LINE
  5
128BFD
  8
OBJECT
 10
4430.0
 20
-1376.0
 30
0.0
 11
4430.0
 21
-1395.0
 31
0.0
1001
ACDBBLOCKREPETAG
1070
     1
1071
       10
1005
128BFD
  0
LINE
  5
128BFE
  8
OBJECT
 10
4430.0
 20
-1395.0
 30
0.0
 11
4570.0
 21
-1395.0
 31
0.0
1001
ACDBBLOCKREPETAG
1070
     1
1071
       11
1005
128BFE
  0
LINE
  5
128BFF
  8
OBJECT
 10
4570.0
 20
-1395.0
 30
0.0
 11
4570.0
 21
-1376.0
 31
0.0
1001
ACDBBLOCKREPETAG
1070
     1
1071
       12
1005
128BFF
  0
LINE
  5
128C00
  8
OBJECT
 10
4633.0
 20
-137.9999999999990905
 30
0.0
 11
4640.0
 21
-137.9999999999990905
 31
0.0
1001
ACDBBLOCKREPETAG
1070
     1
1071
       47
1005
128C00
  0
LINE
  5
128C01
  8
OBJECT
 10
4640.0
 20
-137.9999999999990905
 30
0.0
 11
4640.0
 21
-261.9999999999990905
 31
0.0
1001
ACDBBLOCKREPETAG
1070
     1
1071
       48
1005
128C01
  0
LINE
  5
128C02
  8
OBJECT
 10
4640.0
 20
-261.9999999999990905
 30
0.0
 11
4633.0
 21
-261.9999999999990905
 31
0.0
1001
ACDBBLOCKREPETAG
1070
     1
1071
       49
1005
128C02
  0
LINE
  5
128C03
  8
OBJECT
 10
4633.0
 20
-261.9999999999990905
 30
0.0
 11
4633.0
 21
-137.9999999999990905
 31
0.0
1001
ACDBBLOCKREPETAG
1070
     1
1071
       50
1005
128C03
  0
LINE
  5
128C04
  8
CENTER
 10
4655.0
 20
-199.9999999999990905
 30
0.0
 11
4580.0
 21
-199.9999999999990905
 31
0.0
1001
ACDBBLOCKREPETAG
1070
     1
1071
       51
1005
128C04
  0
LINE
  5
128C05
  8
OBJECT
 10
4633.0
 20
-140.9999999999990905
 30
0.0
 11
4597.0
 21
-140.9999999999990905
 31
0.0
1001
ACDBBLOCKREPETAG
1070
     1
1071
       52
1005
128C05
  0
LINE
  5
128C06
  8
OBJECT
 10
4597.0
 20
-140.9999999999990905
 30
0.0
 11
4597.0
 21
-258.9999999999990905
 31
0.0
1001
ACDBBLOCKREPETAG
1070
     1
1071
       53
1005
128C06
  0
LINE
  5
128C07
  8
OBJECT
 10
4597.0
 20
-258.9999999999990905
 30
0.0
 11
4633.0
 21
-258.9999999999990905
 31
0.0
1001
ACDBBLOCKREPETAG
1070
     1
1071
       54
1005
128C07
  0
LINE
  5
128C08
  8
OBJECT
 10
4593.0
 20
-145.4999999999990905
 30
0.0
 11
4586.0
 21
-145.4999999999990905
 31
0.0
1001
ACDBBLOCKREPETAG
1070
     1
1071
       55
1005
128C08
  0
LINE
  5
128C09
  8
OBJECT
 10
4586.0
 20
-254.4999999999990905
 30
0.0
 11
4593.0
 21
-254.4999999999990905
 31
0.0
1001
ACDBBLOCKREPETAG
1070
     1
1071
       56
1005
128C09
  0
LINE
  5
128C0A
  8
OBJECT
 10
4593.0
 20
-254.4999999999990905
 30
0.0
 11
4593.0
 21
-145.4999999999990905
 31
0.0
1001
ACDBBLOCKREPETAG
1070
     1
1071
       57
1005
128C0A
  0
LINE
  5
128C0B
  8
OBJECT
 10
4597.0
 20
-140.9999999999990905
 30
0.0
 11
4593.0
 21
-145.4999999999990905
 31
0.0
1001
ACDBBLOCKREPETAG
1070
     1
1071
       58
1005
128C0B
  0
LINE
  5
128C0C
  8
OBJECT
 10
4597.0
 20
-258.9999999999990905
 30
0.0
 11
4593.0
 21
-254.4999999999990905
 31
0.0
1001
ACDBBLOCKREPETAG
1070
     1
1071
       59
1005
128C0C
  0
LINE
  5
128C0D
  8
OBJECT
 10
4583.0
 20
-137.9999999999990905
 30
0.0
 11
4580.0
 21
-137.9999999999990905
 31
0.0
1001
ACDBBLOCKREPETAG
1070
     1
1071
       60
1005
128C0D
  0
ARC
  5
128C0E
  8
OBJECT
 10
4583.0
 20
-140.9999999999990905
 30
0.0
 40
3.0
 50
0.0
 51
90.0
1001
ACDBBLOCKREPETAG
1070
     1
1071
       61
1005
128C0E
  0
LINE
  5
128C0F
  8
OBJECT
 10
4580.0
 20
-261.9999999999990905
 30
0.0
 11
4583.0
 21
-261.9999999999990905
 31
0.0
1001
ACDBBLOCKREPETAG
1070
     1
1071
       62
1005
128C0F
  0
ARC
  5
128C10
  8
OBJECT
 10
4583.0
 20
-258.9999999999990905
 30
0.0
 40
3.0
 50
270.0
 51
0.0
1001
ACDBBLOCKREPETAG
1070
     1
1071
       63
1005
128C10
  0
LINE
  5
128C11
  8
OBJECT
 10
4586.0
 20
-258.9999999999990905
 30
0.0
 11
4586.0
 21
-140.9999999999990905
 31
0.0
1001
ACDBBLOCKREPETAG
1070
     1
1071
       64
1005
128C11
  0
LINE
  5
128C12
  8
HIDDEN
 10
4588.0
 20
-155.4999999999990905
 30
0.0
 11
4588.0
 21
-244.4999999999990905
 31
0.0
1001
ACDBBLOCKREPETAG
1070
     1
1071
       65
1005
128C12
  0
LINE
  5
128C13
  8
SLIM
  6
CONTINUOUS
 10
4437.078080126651912
 20
-142.8525416186180053
 30
0.0
 11
4442.8525416186193979
 21
-137.078080126650093
 31
0.0
1001
GRADIENTCOLOR1ACI
1070
     5
1001
GRADIENTCOLOR2ACI
1070
     2
1001
ACAD
1010
0.0
1020
0.0
1030
0.0
  0
LINE
  5
128C14
  8
SLIM
  6
CONTINUOUS
 10
4455.1699961285521567
 20
-133.7408817377867933
 30
0.0
 11
4467.4184904702151471
 21
-121.4923873961219982
 31
0.0
1001
GRADIENTCOLOR1ACI
1070
     5
1001
GRADIENTCOLOR2ACI
1070
     2
1001
ACAD
1010
0.0
1020
0.0
1030
0.0
  0
LINE
  5
128C15
  8
SLIM
  6
CONTINUOUS
 10
4473.3062909239488363
 20
-124.5848430634577966
 30
0.0
 11
4480.6622009639977477
 21
-117.2289330234092972
 31
0.0
1001
GRADIENTCOLOR1ACI
1070
     5
1001
GRADIENTCOLOR2ACI
1070
     2
1001
ACAD
1010
0.0
1020
0.0
1030
0.0
  0
LINE
  5
128C16
  8
SLIM
  6
CONTINUOUS
 10
4485.5568018987751202
 20
-121.3145882097013981
 30
0.0
 11
4491.4391883794332898
 21
-115.4322017290432996
 31
0.0
1001
GRADIENTCOLOR1ACI
1070
     5
1001
GRADIENTCOLOR2ACI
1070
     2
1001
ACAD
1010
0.0
1020
0.0
1030
0.0
  0
LINE
  5
128C17
  8
SLIM
  6
CONTINUOUS
 10
4495.7380385937767642
 20
-120.1136076357684033
 30
0.0
 11
4500.0
 21
-115.8516462295451959
 31
0.0
1001
GRADIENTCOLOR1ACI
1070
     5
1001
GRADIENTCOLOR2ACI
1070
     2
1001
ACAD
1010
0.0
1020
0.0
1030
0.0
  0
LINE
  5
128C18
  8
SLIM
  6
CONTINUOUS
 10
4500.0
 20
-115.8516462295451959
 30
0.0
 11
4500.8474218668070534
 21
-115.0042243627380998
 31
0.0
1001
GRADIENTCOLOR1ACI
1070
     5
1001
GRADIENTCOLOR2ACI
1070
     2
1001
ACAD
1010
0.0
1020
0.0
1030
0.0
  0
LINE
  5
128C19
  8
SLIM
  6
CONTINUOUS
 10
4504.6940693210235622
 20
-120.1378330295905954
 30
0.0
 11
4509.3194614271342289
 21
-115.5124409234807956
 31
0.0
1001
GRADIENTCOLOR1ACI
1070
     5
1001
GRADIENTCOLOR2ACI
1070
     2
1001
ACAD
1010
0.0
1020
0.0
1030
0.0
  0
LINE
  5
128C1A
  8
SLIM
  6
CONTINUOUS
 10
4512.7840958500737543
 20
-121.0280626216108004
 30
0.0
 11
4517.0787053227413708
 21
-116.7334531489440934
 31
0.0
1001
GRADIENTCOLOR1ACI
1070
     5
1001
GRADIENTCOLOR2ACI
1070
     2
1001
ACAD
1010
0.0
1020
0.0
1030
0.0
  0
LINE
  5
128C1B
  8
SLIM
  6
CONTINUOUS
 10
4520.2001317591511906
 20
-122.592282833601999
 30
0.0
 11
4524.2575640985642167
 21
-118.5348504941889018
 31
0.0
1001
GRADIENTCOLOR1ACI
1070
     5
1001
GRADIENTCOLOR2ACI
1070
     2
1001
ACAD
1010
0.0
1020
0.0
1030
0.0
  0
LINE
  5
128C1C
  8
SLIM
  6
CONTINUOUS
 10
4527.0579210024689019
 20
-124.7147497113523968
 30
0.0
 11
4530.9411369411573105
 21
-120.8315337726648977
 31
0.0
1001
GRADIENTCOLOR1ACI
1070
     5
1001
GRADIENTCOLOR2ACI
1070
     2
1001
ACAD
1010
0.0
1020
0.0
1030
0.0
  0
LINE
  5
128C1D
  8
SLIM
  6
CONTINUOUS
 10
4533.4322530354811533
 20
-127.3206737994101019
 30
0.0
 11
4537.1868217334540532
 21
-123.5661051014380973
 31
0.0
1001
GRADIENTCOLOR1ACI
1070
     5
1001
GRADIENTCOLOR2ACI
1070
     2
1001
ACAD
1010
0.0
1020
0.0
1030
0.0
  0
LINE
  5
128C1E
  8
SLIM
  6
CONTINUOUS
 10
4539.3732878235277894
 20
-130.3598951324325128
 30
0.0
 11
4543.0342796433669719
 21
-126.698903312593302
 31
0.0
1001
GRADIENTCOLOR1ACI
1070
     5
1001
GRADIENTCOLOR2ACI
1070
     2
1001
ACAD
1010
0.0
1020
0.0
1030
0.0
  0
LINE
  5
128C1F
  8
SLIM
  6
CONTINUOUS
 10
4544.9149824794876622
 20
-133.7984565975420992
 30
0.0
 11
4548.5109297100498225
 21
-130.202509366979001
 31
0.0
1001
GRADIENTCOLOR1ACI
1070
     5
1001
GRADIENTCOLOR2ACI
1070
     2
1001
ACAD
1010
0.0
1020
0.0
1030
0.0
  0
LINE
  5
128C20
  8
SLIM
  6
CONTINUOUS
 10
4434.0585651723840783
 20
-253.6351300257138064
 30
0.0
 11
4437.6139505055271002
 21
-250.0797446925712109
 31
0.0
1001
GRADIENTCOLOR1ACI
1070
     5
1001
GRADIENTCOLOR2ACI
1070
     2
1001
ACAD
1010
0.0
1020
0.0
1030
0.0
  0
LINE
  5
128C21
  8
SLIM
  6
CONTINUOUS
 10
4550.079744692571694
 20
-137.6139505055261907
 30
0.0
 11
4553.6351300257156254
 21
-134.0585651723835952
 31
0.0
1001
GRADIENTCOLOR1ACI
1070
     5
1001
GRADIENTCOLOR2ACI
1070
     2
1001
ACAD
1010
0.0
1020
0.0
1030
0.0
  0
LINE
  5
128C22
  8
SLIM
  6
CONTINUOUS
 10
4438.2559108384348292
 20
-258.4180404807324862
 30
0.0
 11
4441.792883571699349
 21
-254.8810677474679949
 31
0.0
1001
GRADIENTCOLOR1ACI
1070
     5
1001
GRADIENTCOLOR2ACI
1070
     2
1001
ACAD
1010
0.0
1020
0.0
1030
0.0
  0
LINE
  5
128C23
  8
SLIM
  6
CONTINUOUS
 10
4442.7895530992309432
 20
-262.8646543410064282
 30
0.0
 11
4446.3292499152557866
 21
-259.324957524981528
 31
0.0
1001
GRADIENTCOLOR1ACI
1070
     5
1001
GRADIENTCOLOR2ACI
1070
     2
1001
ACAD
1010
0.0
1020
0.0
1030
0.0
  0
LINE
  5
128C24
  8
SLIM
  6
CONTINUOUS
 10
4447.6602278408981874
 20
-266.9742357204095242
 30
0.0
 11
4450.5000000000009095
 21
-264.1344635613053811
 31
0.0
1001
GRADIENTCOLOR1ACI
1070
     5
1001
GRADIENTCOLOR2ACI
1070
     2
1001
ACAD
1010
0.0
1020
0.0
1030
0.0
  0
LINE
  5
128C25
  8
SLIM
  6
CONTINUOUS
 10
4549.5000000000009095
 20
-263.9172808930657084
 30
0.0
 11
4551.4172808930679821
 21
-261.9999999999990905
 31
0.0
1001
GRADIENTCOLOR1ACI
1070
     5
1001
GRADIENTCOLOR2ACI
1070
     2
1001
ACAD
1010
0.0
1020
0.0
1030
0.0
  0
LINE
  5
128C26
  8
OBJECT
 10
2632.9999999999990905
 20
-137.9999999999980105
 30
0.0
 11
2639.9999999999990905
 21
-137.9999999999980105
 31
0.0
1001
ACDBBLOCKREPETAG
1070
     1
1071
       47
1005
128C26
  0
LINE
  5
128C27
  8
OBJECT
 10
2639.9999999999990905
 20
-137.9999999999980105
 30
0.0
 11
2639.9999999999990905
 21
-261.9999999999980105
 31
0.0
1001
ACDBBLOCKREPETAG
1070
     1
1071
       48
1005
128C27
  0
LINE
  5
128C28
  8
OBJECT
 10
2639.9999999999990905
 20
-261.9999999999980105
 30
0.0
 11
2632.9999999999990905
 21
-261.9999999999980105
 31
0.0
1001
ACDBBLOCKREPETAG
1070
     1
1071
       49
1005
128C28
  0
LINE
  5
128C29
  8
OBJECT
 10
2632.9999999999990905
 20
-261.9999999999980105
 30
0.0
 11
2632.9999999999990905
 21
-137.9999999999980105
 31
0.0
1001
ACDBBLOCKREPETAG
1070
     1
1071
       50
1005
128C29
  0
LINE
  5
128C2A
  8
CENTER
 10
2654.9999999999990905
 20
-199.9999999999980105
 30
0.0
 11
2579.9999999999990905
 21
-199.9999999999980105
 31
0.0
1001
ACDBBLOCKREPETAG
1070
     1
1071
       51
1005
128C2A
  0
LINE
  5
128C2B
  8
OBJECT
 10
2632.9999999999990905
 20
-140.9999999999980105
 30
0.0
 11
2596.9999999999990905
 21
-140.9999999999980105
 31
0.0
1001
ACDBBLOCKREPETAG
1070
     1
1071
       52
1005
128C2B
  0
LINE
  5
128C2C
  8
OBJECT
 10
2596.9999999999990905
 20
-140.9999999999980105
 30
0.0
 11
2596.9999999999990905
 21
-258.9999999999980105
 31
0.0
1001
ACDBBLOCKREPETAG
1070
     1
1071
       53
1005
128C2C
  0
LINE
  5
128C2D
  8
OBJECT
 10
2596.9999999999990905
 20
-258.9999999999980105
 30
0.0
 11
2632.9999999999990905
 21
-258.9999999999980105
 31
0.0
1001
ACDBBLOCKREPETAG
1070
     1
1071
       54
1005
128C2D
  0
LINE
  5
128C2E
  8
OBJECT
 10
2592.9999999999990905
 20
-145.4999999999980105
 30
0.0
 11
2585.9999999999990905
 21
-145.4999999999980105
 31
0.0
1001
ACDBBLOCKREPETAG
1070
     1
1071
       55
1005
128C2E
  0
LINE
  5
128C2F
  8
OBJECT
 10
2585.9999999999990905
 20
-254.4999999999980105
 30
0.0
 11
2592.9999999999990905
 21
-254.4999999999980105
 31
0.0
1001
ACDBBLOCKREPETAG
1070
     1
1071
       56
1005
128C2F
  0
LINE
  5
128C30
  8
OBJECT
 10
2592.9999999999990905
 20
-254.4999999999980105
 30
0.0
 11
2592.9999999999990905
 21
-145.4999999999980105
 31
0.0
1001
ACDBBLOCKREPETAG
1070
     1
1071
       57
1005
128C30
  0
LINE
  5
128C31
  8
OBJECT
 10
2596.9999999999990905
 20
-140.9999999999980105
 30
0.0
 11
2592.9999999999990905
 21
-145.4999999999980105
 31
0.0
1001
ACDBBLOCKREPETAG
1070
     1
1071
       58
1005
128C31
  0
LINE
  5
128C32
  8
OBJECT
 10
2596.9999999999990905
 20
-258.9999999999980105
 30
0.0
 11
2592.9999999999990905
 21
-254.4999999999980105
 31
0.0
1001
ACDBBLOCKREPETAG
1070
     1
1071
       59
1005
128C32
  0
LINE
  5
128C33
  8
OBJECT
 10
2582.9999999999990905
 20
-137.9999999999980105
 30
0.0
 11
2579.9999999999990905
 21
-137.9999999999980105
 31
0.0
1001
ACDBBLOCKREPETAG
1070
     1
1071
       60
1005
128C33
  0
ARC
  5
128C34
  8
OBJECT
 10
2582.9999999999990905
 20
-140.9999999999980105
 30
0.0
 40
3.0
 50
0.0
 51
90.0
1001
ACDBBLOCKREPETAG
1070
     1
1071
       61
1005
128C34
  0
LINE
  5
128C35
  8
OBJECT
 10
2579.9999999999990905
 20
-261.9999999999980105
 30
0.0
 11
2582.9999999999990905
 21
-261.9999999999980105
 31
0.0
1001
ACDBBLOCKREPETAG
1070
     1
1071
       62
1005
128C35
  0
ARC
  5
128C36
  8
OBJECT
 10
2582.9999999999990905
 20
-258.9999999999980105
 30
0.0
 40
3.0
 50
270.0
 51
0.0
1001
ACDBBLOCKREPETAG
1070
     1
1071
       63
1005
128C36
  0
LINE
  5
128C37
  8
OBJECT
 10
2585.9999999999990905
 20
-258.9999999999980105
 30
0.0
 11
2585.9999999999990905
 21
-140.9999999999980105
 31
0.0
1001
ACDBBLOCKREPETAG
1070
     1
1071
       64
1005
128C37
  0
LINE
  5
128C38
  8
HIDDEN
 10
2587.9999999999990905
 20
-155.4999999999980105
 30
0.0
 11
2587.9999999999990905
 21
-244.4999999999980105
 31
0.0
1001
ACDBBLOCKREPETAG
1070
     1
1071
       65
1005
128C38
  0
TEXT
  5
128C39
  8
SLIM
 10
4974.3428571428567011
 20
-800.9999999999957936
 30
0.0
 40
24.0
  1
対応m寸法
 41
0.75
  0
TEXT
  5
128C3A
  8
SLIM
 10
4968.3428571428567011
 20
-848.9999999999959073
 30
0.0
 40
24.0
  1
240～370
 41
0.75
  0
TEXT
  5
128C3B
  8
SLIM
 10
4880.5714285714284415
 20
-848.9999999999959073
 30
0.0
 40
24.0
  1
310
 41
0.75
  0
TEXT
  5
128C3C
  8
SLIM
 10
4873.8000000000001819
 20
-800.9999999999957936
 30
0.0
 40
24.0
  1
P寸法
 41
0.75
  0
TEXT
  5
128C3D
  8
SLIM
 10
4968.3428571428567011
 20
-896.9999999999962483
 30
0.0
 40
24.0
  1
230～360
 41
0.75
  0
TEXT
  5
128C3E
  8
SLIM
 10
4878.857142857143117
 20
-896.9999999999962483
 30
0.0
 40
24.0
  1
320
 41
0.75
  0
TEXT
  5
128C3F
  8
SLIM
 10
4968.3428571428567011
 20
-944.9999999999962483
 30
0.0
 40
24.0
  1
220～350
 41
0.75
  0
TEXT
  5
128C40
  8
SLIM
 10
4878.857142857143117
 20
-944.9999999999962483
 30
0.0
 40
24.0
  1
330
 41
0.75
  0
TEXT
  5
128C41
  8
SLIM
 10
4970.0571428571429351
 20
-992.999999999996362
 30
0.0
 40
24.0
  1
210～340
 41
0.75
  0
TEXT
  5
128C42
  8
SLIM
 10
4878.857142857143117
 20
-992.999999999996362
 30
0.0
 40
24.0
  1
340
 41
0.75
  0
TEXT
  5
128C43
  8
SLIM
 10
4968.3428571428567011
 20
-1040.9999999999959073
 30
0.0
 40
24.0
  1
200～330
 41
0.75
  0
TEXT
  5
128C44
  8
SLIM
 10
4878.857142857143117
 20
-1040.9999999999959073
 30
0.0
 40
24.0
  1
350
 41
0.75
  0
TEXT
  5
128C45
  8
SLIM
 10
4970.0571428571429351
 20
-1088.9999999999959073
 30
0.0
 40
24.0
  1
190～320
 41
0.75
  0
TEXT
  5
128C46
  8
SLIM
 10
4878.857142857143117
 20
-1088.9999999999959073
 30
0.0
 40
24.0
  1
360
 41
0.75
  0
TEXT
  5
128C47
  8
SLIM
 10
4971.7714285714291691
 20
-1136.9999999999959073
 30
0.0
 40
24.0
  1
190～310
 41
0.75
  0
TEXT
  5
128C48
  8
SLIM
 10
4878.857142857143117
 20
-1136.9999999999959073
 30
0.0
 40
24.0
  1
370
 41
0.75
  0
TEXT
  5
128C49
  8
SLIM
 10
4878.857142857143117
 20
-1184.9999999999959073
 30
0.0
 40
24.0
  1
380
 41
0.75
  0
TEXT
  5
128C4A
  8
SLIM
 10
4878.857142857143117
 20
-1232.9999999999959073
 30
0.0
 40
24.0
  1
390
 41
0.75
  0
TEXT
  5
128C4B
  8
SLIM
 10
4878.857142857143117
 20
-1280.9999999999959073
 30
0.0
 40
24.0
  1
400
 41
0.75
  0
TEXT
  5
128C4C
  8
SLIM
 10
4880.5714285714284415
 20
-1328.9999999999959073
 30
0.0
 40
24.0
  1
410
 41
0.75
  0
TEXT
  5
128C4D
  8
SLIM
 10
4878.857142857143117
 20
-1376.9999999999959073
 30
0.0
 40
24.0
  1
420
 41
0.75
  0
TEXT
  5
128C4E
  8
SLIM
 10
4878.857142857143117
 20
-1424.9999999999959073
 30
0.0
 40
24.0
  1
430
 41
0.75
  0
TEXT
  5
128C4F
  8
SLIM
 10
4878.857142857143117
 20
-1472.9999999999959073
 30
0.0
 40
24.0
  1
440
 41
0.75
  0
TEXT
  5
128C50
  8
SLIM
 10
4948.4571428571443903
 20
-1530.9999999999959073
 30
0.0
 40
24.0
  1
標準：m=240
 41
0.75
  0
TEXT
  5
128C51
  8
SLIM
 10
4970.0571428571429351
 20
-1184.9999999999959073
 30
0.0
 40
24.0
  1
190～300
 41
0.75
  0
TEXT
  5
128C52
  8
SLIM
 10
4970.0571428571429351
 20
-1232.9999999999959073
 30
0.0
 40
24.0
  1
190～290
 41
0.75
  0
TEXT
  5
128C53
  8
SLIM
 10
4970.0571428571429351
 20
-1280.9999999999959073
 30
0.0
 40
24.0
  1
190～280
 41
0.75
  0
TEXT
  5
128C54
  8
SLIM
 10
4970.0571428571429351
 20
-1328.9999999999959073
 30
0.0
 40
24.0
  1
190～270
 41
0.75
  0
TEXT
  5
128C55
  8
SLIM
 10
4970.0571428571429351
 20
-1376.9999999999959073
 30
0.0
 40
24.0
  1
190～260
 41
0.75
  0
TEXT
  5
128C56
  8
SLIM
 10
4970.0571428571429351
 20
-1424.9999999999959073
 30
0.0
 40
24.0
  1
190～250
 41
0.75
  0
TEXT
  5
128C57
  8
SLIM
 10
4970.0571428571429351
 20
-1472.9999999999959073
 30
0.0
 40
24.0
  1
190～240
 41
0.75
  0
TEXT
  5
128C58
  8
SLIM
 10
4026.5999999999999091
 20
-1818.0000266666650077
 30
0.0
 40
28.0
  1
※ 対応P寸法　　310＜320＞～440（10mm単位。＜＞内は下枝75の場合）
 41
0.75
  0
TEXT
  5
128C59
  8
SLIM
 10
4026.5999999999999091
 20
-1864.6666933333310681
 30
0.0
 40
28.0
  1
※ 最大対応スラブ厚　m-10
 41
0.75
  0
TEXT
  5
128C5A
  8
SLIM
 10
4026.5999999999999091
 20
-1911.3333599999980379
 30
0.0
 40
28.0
  1
※ 足切り可能寸法（最大）　680-P-m（コンパクトＬベンド使用なら+10）
 41
0.75
  0
TEXT
  5
128C5B
  8
SLIM
 10
4098.8999999999996362
 20
-1983.3333066666650666
 30
0.0
 40
28.0
  1
国土交通大臣認定・（一財）日本消防設備安全センター性能評定取得品
 41
0.75
  0
TEXT
  5
128C5C
  8
SLIM
 10
4131.1000000000003638
 20
-2029.9999733333320364
 30
0.0
 40
28.0
  1
注）ご採用にあたり、認定書及び評定書の内容をご確認ください。
 41
0.75
  0
TEXT
  5
128C5D
  8
SLIM
 10
2032.5
 20
-1828.9999999999979536
 30
0.0
 40
28.0
  1
※ 対応P寸法　　310＜320＞～460（10mm単位。＜＞内は下枝75の場合）
 41
0.75
  0
LINE
  5
128C5E
  8
OBJECT
 10
2423.0
 20
-571.0
 30
0.0
 11
2423.0
 21
-550.0
 31
0.0
1001
ACDBBLOCKREPETAG
1070
     1
1071
        0
1005
128C5E
  0
LINE
  5
128C5F
  8
OBJECT
 10
2423.0
 20
-550.0
 30
0.0
 11
2577.0
 21
-550.0
 31
0.0
1001
ACDBBLOCKREPETAG
1070
     1
1071
        1
1005
128C5F
  0
LINE
  5
128C60
  8
HIDDEN
 10
2443.0
 20
-620.0
 30
0.0
 11
2557.0
 21
-620.0
 31
0.0
1001
ACDBBLOCKREPETAG
1070
     1
1071
        2
1005
128C60
  0
LINE
  5
128C61
  8
OBJECT
 10
2577.0
 20
-550.0
 30
0.0
 11
2577.0
 21
-571.0
 31
0.0
1001
ACDBBLOCKREPETAG
1070
     1
1071
        3
1005
128C61
  0
LINE
  5
128C62
  8
OBJECT
 10
2577.0
 20
-571.0
 30
0.0
 11
2423.0
 21
-571.0
 31
0.0
1001
ACDBBLOCKREPETAG
1070
     1
1071
        4
1005
128C62
  0
LINE
  5
128C63
  8
CENTER
 10
2500.0
 20
-535.0
 30
0.0
 11
2500.0
 21
-890.0
 31
0.0
1001
ACDBBLOCKREPETAG
1070
     1
1071
        5
1005
128C63
  0
LINE
  5
128C64
  8
OBJECT
 10
2425.0
 20
-634.0
 30
0.0
 11
2425.0
 21
-878.0
 31
0.0
1001
ACDBBLOCKREPETAG
1070
     1
1071
        6
1005
128C64
  0
LINE
  5
128C65
  8
OBJECT
 10
2428.0
 20
-571.0
 30
0.0
 11
2428.0
 21
-634.0
 31
0.0
1001
ACDBBLOCKREPETAG
1070
     1
1071
        7
1005
128C65
  0
LINE
  5
128C66
  8
OBJECT
 10
2572.0
 20
-634.0
 30
0.0
 11
2572.0
 21
-571.0
 31
0.0
1001
ACDBBLOCKREPETAG
1070
     1
1071
        8
1005
128C66
  0
LINE
  5
128C67
  8
OBJECT
 10
2420.0
 20
-878.0
 30
0.0
 11
2580.0
 21
-878.0
 31
0.0
1001
ACDBBLOCKREPETAG
1070
     1
1071
        9
1005
128C67
  0
LINE
  5
128C68
  8
OBJECT
 10
2580.0
 20
-634.0
 30
0.0
 11
2425.0
 21
-634.0
 31
0.0
1001
ACDBBLOCKREPETAG
1070
     1
1071
       10
1005
128C68
  0
LINE
  5
128C69
  8
OBJECT
 10
2420.0
 20
-878.0
 30
0.0
 11
2420.0
 21
-890.0
 31
0.0
1001
ACDBBLOCKREPETAG
1070
     1
1071
       11
1005
128C69
  0
LINE
  5
128C6A
  8
OBJECT
 10
2420.0
 20
-890.0
 30
0.0
 11
2580.0
 21
-890.0
 31
0.0
1001
ACDBBLOCKREPETAG
1070
     1
1071
       12
1005
128C6A
  0
LINE
  5
128C6B
  8
OBJECT
 10
2580.0
 20
-890.0
 30
0.0
 11
2580.0
 21
-878.0
 31
0.0
1001
ACDBBLOCKREPETAG
1070
     1
1071
       13
1005
128C6B
  0
LINE
  5
128C6C
  8
OBJECT
 10
2574.9999999998622116
 20
-757.9999999998508429
 30
0.0
 11
2575.0
 21
-878.0
 31
0.0
1001
ACDBBLOCKREPETAG
1070
     1
1071
       15
1005
128C6C
  0
LINE
  5
128C6D
  8
OBJECT
 10
2574.9999908029858489
 20
-757.9999860270218051
 30
0.0
 11
2580.0
 21
-757.9999860270218051
 31
0.0
1001
ACDBBLOCKREPETAG
1070
     1
1071
       16
1005
128C6D
  0
ARC
  5
128C6E
  8
OBJECT
 10
2700.6872746716730944
 20
-749.4080994101077522
 30
0.0
 40
170.6350503965855978
 50
137.4413445918430057
 51
149.9194958133722082
1001
ACDBBLOCKREPETAG
1070
     1
1071
       17
1005
128C6E
  0
ARC
  5
128C6F
  8
OBJECT
 10
2618.845598704051099
 20
-705.8827266953649087
 30
0.0
 40
78.0722220217636647
 50
147.4551531038623011
 51
164.6636599771798046
1001
ACDBBLOCKREPETAG
1070
     1
1071
       18
1005
128C6F
  0
ARC
  5
128C70
  8
OBJECT
 10
2585.7554349608731172
 20
-696.0
 30
0.0
 40
43.5535392688561771
 50
165.6884523007466044
 51
194.3115476992533104
1001
ACDBBLOCKREPETAG
1070
     1
1071
       19
1005
128C70
  0
ARC
  5
128C71
  8
OBJECT
 10
2700.6872746716730944
 20
-642.5919005898922478
 30
0.0
 40
170.6350503965855978
 50
210.0805041866277918
 51
222.5586554081569943
1001
ACDBBLOCKREPETAG
1070
     1
1071
       20
1005
128C71
  0
ARC
  5
128C72
  8
OBJECT
 10
2618.845598704051099
 20
-686.1172733046350913
 30
0.0
 40
78.0722220217636647
 50
195.3363400228201954
 51
212.5448468961376989
1001
ACDBBLOCKREPETAG
1070
     1
1071
       21
1005
128C72
  0
LINE
  5
128C73
  8
OBJECT
 10
4423.0
 20
-571.0
 30
0.0
 11
4423.0
 21
-550.0
 31
0.0
1001
ACDBBLOCKREPETAG
1070
     1
1071
        0
1005
128C73
  0
LINE
  5
128C74
  8
OBJECT
 10
4423.0
 20
-550.0
 30
0.0
 11
4577.0
 21
-550.0
 31
0.0
1001
ACDBBLOCKREPETAG
1070
     1
1071
        1
1005
128C74
  0
LINE
  5
128C75
  8
HIDDEN
 10
4443.0
 20
-620.0
 30
0.0
 11
4557.0
 21
-620.0
 31
0.0
1001
ACDBBLOCKREPETAG
1070
     1
1071
        2
1005
128C75
  0
LINE
  5
128C76
  8
OBJECT
 10
4577.0
 20
-550.0
 30
0.0
 11
4577.0
 21
-571.0
 31
0.0
1001
ACDBBLOCKREPETAG
1070
     1
1071
        3
1005
128C76
  0
LINE
  5
128C77
  8
OBJECT
 10
4577.0
 20
-571.0
 30
0.0
 11
4423.0
 21
-571.0
 31
0.0
1001
ACDBBLOCKREPETAG
1070
     1
1071
        4
1005
128C77
  0
LINE
  5
128C78
  8
CENTER
 10
4500.0
 20
-535.0
 30
0.0
 11
4500.0
 21
-890.0
 31
0.0
1001
ACDBBLOCKREPETAG
1070
     1
1071
        5
1005
128C78
  0
LINE
  5
128C79
  8
OBJECT
 10
4425.0
 20
-634.0
 30
0.0
 11
4425.0
 21
-878.0
 31
0.0
1001
ACDBBLOCKREPETAG
1070
     1
1071
        6
1005
128C79
  0
LINE
  5
128C7A
  8
OBJECT
 10
4428.0
 20
-571.0
 30
0.0
 11
4428.0
 21
-634.0
 31
0.0
1001
ACDBBLOCKREPETAG
1070
     1
1071
        7
1005
128C7A
  0
LINE
  5
128C7B
  8
OBJECT
 10
4572.0
 20
-634.0
 30
0.0
 11
4572.0
 21
-571.0
 31
0.0
1001
ACDBBLOCKREPETAG
1070
     1
1071
        8
1005
128C7B
  0
LINE
  5
128C7C
  8
OBJECT
 10
4420.0
 20
-878.0
 30
0.0
 11
4580.0
 21
-878.0
 31
0.0
1001
ACDBBLOCKREPETAG
1070
     1
1071
        9
1005
128C7C
  0
LINE
  5
128C7D
  8
OBJECT
 10
4580.0
 20
-634.0
 30
0.0
 11
4425.0
 21
-634.0
 31
0.0
1001
ACDBBLOCKREPETAG
1070
     1
1071
       10
1005
128C7D
  0
LINE
  5
128C7E
  8
OBJECT
 10
4420.0
 20
-878.0
 30
0.0
 11
4420.0
 21
-890.0
 31
0.0
1001
ACDBBLOCKREPETAG
1070
     1
1071
       11
1005
128C7E
  0
LINE
  5
128C7F
  8
OBJECT
 10
4420.0
 20
-890.0
 30
0.0
 11
4580.0
 21
-890.0
 31
0.0
1001
ACDBBLOCKREPETAG
1070
     1
1071
       12
1005
128C7F
  0
LINE
  5
128C80
  8
OBJECT
 10
4580.0
 20
-890.0
 30
0.0
 11
4580.0
 21
-878.0
 31
0.0
1001
ACDBBLOCKREPETAG
1070
     1
1071
       13
1005
128C80
  0
LINE
  5
128C81
  8
OBJECT
 10
4574.9999999998617568
 20
-757.9999999998508429
 30
0.0
 11
4575.0
 21
-878.0
 31
0.0
1001
ACDBBLOCKREPETAG
1070
     1
1071
       15
1005
128C81
  0
LINE
  5
128C82
  8
OBJECT
 10
4574.9999908029849394
 20
-757.9999860270218051
 30
0.0
 11
4580.0
 21
-757.9999860270218051
 31
0.0
1001
ACDBBLOCKREPETAG
1070
     1
1071
       16
1005
128C82
  0
ARC
  5
128C83
  8
OBJECT
 10
4700.6872746716726397
 20
-749.4080994101077522
 30
0.0
 40
170.6350503965855978
 50
137.4413445918430057
 51
149.9194958133722082
1001
ACDBBLOCKREPETAG
1070
     1
1071
       17
1005
128C83
  0
ARC
  5
128C84
  8
OBJECT
 10
4618.8455987040506443
 20
-705.8827266953649087
 30
0.0
 40
78.0722220217636647
 50
147.4551531038623011
 51
164.6636599771867111
1001
ACDBBLOCKREPETAG
1070
     1
1071
       18
1005
128C84
  0
ARC
  5
128C85
  8
OBJECT
 10
4585.755434960871753
 20
-696.0
 30
0.0
 40
43.5535392688561771
 50
165.6884523007529992
 51
194.3115476992468871
1001
ACDBBLOCKREPETAG
1070
     1
1071
       19
1005
128C85
  0
ARC
  5
128C86
  8
OBJECT
 10
4700.6872746716726397
 20
-642.5919005898922478
 30
0.0
 40
170.6350503965855978
 50
210.0805041866277918
 51
222.5586554081569943
1001
ACDBBLOCKREPETAG
1070
     1
1071
       20
1005
128C86
  0
ARC
  5
128C87
  8
OBJECT
 10
4618.8455987040506443
 20
-686.1172733046350913
 30
0.0
 40
78.0722220217636647
 50
195.3363400228132889
 51
212.5448468961376989
1001
ACDBBLOCKREPETAG
1070
     1
1071
       21
1005
128C87
  0
TEXT
  5
128C88
  8
SLIM
 10
0.0000035665234464
 20
24.0000045853176083
 30
0.0
 40
79.9999999999727152
  1
上部枝管
 41
0.75
1001
ACDBBLOCKREPETAG
1070
     1
1071
      119
1005
128196
  0
TEXT
  5
128C89
  8
SLIM
 10
149.1428571427966006
 20
-443.9999999998498197
 30
0.0
 40
48.0
  1
A3
 41
0.75
1001
ACDBBLOCKREPETAG
1070
     1
1071
      119
1005
0
  0
TEXT
  5
128C8A
  8
SLIM
 10
0.000003566523219
 20
-775.9999954146824166
 30
0.0
 40
79.9999999999727152
  1
下部枝管バリエーション
 41
0.75
1001
ACDBBLOCKREPETAG
1070
     1
1071
      119
1005
128196
  0
INSERT
  5
128C8B
  8
SLIM
  2
*U192
 10
0.0
 20
0.0
 30
0.0
  0
LINE
  5
128C8C
  8
OBJECT
 10
118.0000000000417941
 20
-99.0000000001718945
 30
0.0
 11
118.0000000000417941
 21
-92.0000000001718945
 31
0.0
1001
ACDBBLOCKREPETAG
1070
     1
1071
       39
1005
128C8C
  0
LINE
  5
128C8D
  8
OBJECT
 10
118.0000000000417941
 20
-92.0000000001718945
 30
0.0
 11
242.0000000000418083
 21
-92.0000000001718945
 31
0.0
1001
ACDBBLOCKREPETAG
1070
     1
1071
       40
1005
128C8D
  0
LINE
  5
128C8E
  8
OBJECT
 10
242.0000000000418083
 20
-92.0000000001718945
 30
0.0
 11
242.0000000000418083
 21
-99.0000000001718945
 31
0.0
1001
ACDBBLOCKREPETAG
1070
     1
1071
       41
1005
128C8E
  0
LINE
  5
128C8F
  8
OBJECT
 10
242.0000000000418083
 20
-99.0000000001718945
 30
0.0
 11
118.0000000000417941
 21
-99.0000000001718945
 31
0.0
1001
ACDBBLOCKREPETAG
1070
     1
1071
       42
1005
128C8F
  0
LINE
  5
128C90
  8
OBJECT
 10
121.0000000000417941
 20
-99.0000000001718945
 30
0.0
 11
121.0000000000417941
 21
-135.0000000001718945
 31
0.0
1001
ACDBBLOCKREPETAG
1070
     1
1071
       43
1005
128C90
  0
LINE
  5
128C91
  8
OBJECT
 10
121.0000000000417941
 20
-135.0000000001718945
 30
0.0
 11
239.0000000000418083
 21
-135.0000000001718945
 31
0.0
1001
ACDBBLOCKREPETAG
1070
     1
1071
       44
1005
128C91
  0
LINE
  5
128C92
  8
OBJECT
 10
239.0000000000418083
 20
-135.0000000001718945
 30
0.0
 11
239.0000000000418083
 21
-99.0000000001718945
 31
0.0
1001
ACDBBLOCKREPETAG
1070
     1
1071
       45
1005
128C92
  0
LINE
  5
128C93
  8
OBJECT
 10
125.5000000000417941
 20
-139.0000000001718945
 30
0.0
 11
125.5000000000417941
 21
-146.0000000001718945
 31
0.0
1001
ACDBBLOCKREPETAG
1070
     1
1071
       46
1005
128C93
  0
LINE
  5
128C94
  8
OBJECT
 10
234.5000000000418083
 20
-146.0000000001718945
 30
0.0
 11
234.5000000000418083
 21
-139.0000000001718945
 31
0.0
1001
ACDBBLOCKREPETAG
1070
     1
1071
       47
1005
128C94
  0
LINE
  5
128C95
  8
OBJECT
 10
234.5000000000418083
 20
-139.0000000001718945
 30
0.0
 11
125.5000000000417941
 21
-139.0000000001718945
 31
0.0
1001
ACDBBLOCKREPETAG
1070
     1
1071
       48
1005
128C95
  0
LINE
  5
128C96
  8
OBJECT
 10
121.0000000000417941
 20
-135.0000000001718945
 30
0.0
 11
125.5000000000417941
 21
-139.0000000001718945
 31
0.0
1001
ACDBBLOCKREPETAG
1070
     1
1071
       49
1005
128C96
  0
LINE
  5
128C97
  8
OBJECT
 10
239.0000000000418083
 20
-135.0000000001718945
 30
0.0
 11
234.5000000000418083
 21
-139.0000000001718945
 31
0.0
1001
ACDBBLOCKREPETAG
1070
     1
1071
       50
1005
128C97
  0
LINE
  5
128C98
  8
OBJECT
 10
118.0000000000417941
 20
-149.0000000001710134
 30
0.0
 11
118.0000000000417941
 21
-152.0000000001718945
 31
0.0
1001
ACDBBLOCKREPETAG
1070
     1
1071
       51
1005
128C98
  0
ARC
  5
128C99
  8
OBJECT
 10
121.0000000000417941
 20
-149.0000000001710134
 30
0.0
 40
3.0
 50
90.0
 51
180.0
1001
ACDBBLOCKREPETAG
1070
     1
1071
       52
1005
128C99
  0
LINE
  5
128C9A
  8
OBJECT
 10
242.0000000000418083
 20
-152.0000000001718945
 30
0.0
 11
242.0000000000418083
 21
-149.000000000172804
 31
0.0
1001
ACDBBLOCKREPETAG
1070
     1
1071
       53
1005
128C9A
  0
ARC
  5
128C9B
  8
OBJECT
 10
239.0000000000418083
 20
-149.000000000172804
 30
0.0
 40
3.0
 50
0.0
 51
90.0
1001
ACDBBLOCKREPETAG
1070
     1
1071
       54
1005
128C9B
  0
LINE
  5
128C9C
  8
OBJECT
 10
239.0000000000418083
 20
-146.000000000172804
 30
0.0
 11
121.0000000000417941
 21
-146.0000000001710134
 31
0.0
1001
ACDBBLOCKREPETAG
1070
     1
1071
       55
1005
128C9C
  0
LINE
  5
128C9D
  8
HIDDEN
 10
135.5000000000418083
 20
-144.0000000001718945
 30
0.0
 11
224.5000000000418083
 21
-144.0000000001718945
 31
0.0
1001
ACDBBLOCKREPETAG
1070
     1
1071
      426
1005
128C9D
  0
POLYLINE
  5
128C9E
  8
HIDDEN
 66
     1
 10
0.0
 20
0.0
 30
0.0
 70
     1
1001
ACDBBLOCKREPETAG
1070
     1
1071
      105
1005
0
  0
VERTEX
  5
1291DB
  8
HIDDEN
 10
359.9999999998781277
 20
-799.9999999999998863
 30
0.0
  0
VERTEX
  5
1291DC
  8
HIDDEN
 10
719.9999999997562554
 20
-799.9999999999998863
 30
0.0
  0
VERTEX
  5
1291DD
  8
HIDDEN
 10
719.9999999997562554
 20
-1263.9999999998419753
 30
0.0
  0
VERTEX
  5
1291DE
  8
HIDDEN
 10
359.9999999998781277
 20
-1263.9999999998419753
 30
0.0
  0
SEQEND
  5
1291DF
  8
HIDDEN
  0
POLYLINE
  5
128C9F
  8
HIDDEN
 66
     1
 10
0.0
 20
0.0
 30
0.0
 70
     1
1001
ACDBBLOCKREPETAG
1070
     1
1071
      110
1005
0
  0
VERTEX
  5
1291E0
  8
HIDDEN
 10
0.0
 20
-799.9999999999998863
 30
0.0
  0
VERTEX
  5
1291E1
  8
HIDDEN
 10
359.9999999998781277
 20
-799.9999999999998863
 30
0.0
  0
VERTEX
  5
1291E2
  8
HIDDEN
 10
359.9999999998781277
 20
-1263.9999999998419753
 30
0.0
  0
VERTEX
  5
1291E3
  8
HIDDEN
 10
0.0
 20
-1263.9999999998419753
 30
0.0
  0
SEQEND
  5
1291E4
  8
HIDDEN
  0
POLYLINE
  5
128CA0
  8
HIDDEN
 66
     1
 10
0.0
 20
0.0
 30
0.0
 70
     1
1001
ACDBBLOCKREPETAG
1070
     1
1071
      120
1005
0
  0
VERTEX
  5
1291E5
  8
HIDDEN
 10
359.9999999998781277
 20
-1263.9999999998419753
 30
0.0
  0
VERTEX
  5
1291E6
  8
HIDDEN
 10
719.9999999997562554
 20
-1263.9999999998419753
 30
0.0
  0
VERTEX
  5
1291E7
  8
HIDDEN
 10
719.9999999997562554
 20
-1727.9999999996830411
 30
0.0
  0
VERTEX
  5
1291E8
  8
HIDDEN
 10
359.9999999998781277
 20
-1727.9999999996830411
 30
0.0
  0
SEQEND
  5
1291E9
  8
HIDDEN
  0
POLYLINE
  5
128CA1
  8
HIDDEN
 66
     1
 10
0.0
 20
0.0
 30
0.0
 70
     1
1001
ACDBBLOCKREPETAG
1070
     1
1071
      125
1005
0
  0
VERTEX
  5
1291EA
  8
HIDDEN
 10
0.0
 20
-1263.9999999998419753
 30
0.0
  0
VERTEX
  5
1291EB
  8
HIDDEN
 10
359.9999999998781277
 20
-1263.9999999998419753
 30
0.0
  0
VERTEX
  5
1291EC
  8
HIDDEN
 10
359.9999999998781277
 20
-1727.9999999996830411
 30
0.0
  0
VERTEX
  5
1291ED
  8
HIDDEN
 10
0.0
 20
-1727.9999999996830411
 30
0.0
  0
SEQEND
  5
1291EE
  8
HIDDEN
  0
POLYLINE
  5
128CA2
  8
HIDDEN
 66
     1
 10
0.0
 20
0.0
 30
0.0
 70
     1
1001
ACDBBLOCKREPETAG
1070
     1
1071
      130
1005
0
  0
VERTEX
  5
1291EF
  8
HIDDEN
 10
359.9999999998781277
 20
-1727.9999999996830411
 30
0.0
  0
VERTEX
  5
1291F0
  8
HIDDEN
 10
719.9999999997562554
 20
-1727.9999999996830411
 30
0.0
  0
VERTEX
  5
1291F1
  8
HIDDEN
 10
719.9999999997562554
 20
-2191.999999999524789
 30
0.0
  0
VERTEX
  5
1291F2
  8
HIDDEN
 10
359.9999999998781277
 20
-2191.999999999524789
 30
0.0
  0
SEQEND
  5
1291F3
  8
HIDDEN
  0
POLYLINE
  5
128CA3
  8
HIDDEN
 66
     1
 10
0.0
 20
0.0
 30
0.0
 70
     1
1001
ACDBBLOCKREPETAG
1070
     1
1071
      135
1005
0
  0
VERTEX
  5
1291F4
  8
HIDDEN
 10
0.0
 20
-1727.9999999996830411
 30
0.0
  0
VERTEX
  5
1291F5
  8
HIDDEN
 10
359.9999999998781277
 20
-1727.9999999996830411
 30
0.0
  0
VERTEX
  5
1291F6
  8
HIDDEN
 10
359.9999999998781277
 20
-2191.999999999524789
 30
0.0
  0
VERTEX
  5
1291F7
  8
HIDDEN
 10
0.0
 20
-2191.999999999524789
 30
0.0
  0
SEQEND
  5
1291F8
  8
HIDDEN
  0
POLYLINE
  5
128CA4
  8
HIDDEN
 66
     1
 10
0.0
 20
0.0
 30
0.0
 70
     1
1001
ACDBBLOCKREPETAG
1070
     1
1071
      160
1005
0
  0
VERTEX
  5
1291F9
  8
HIDDEN
 10
359.9999999998781277
 20
-2191.999999999524789
 30
0.0
  0
VERTEX
  5
1291FA
  8
HIDDEN
 10
719.9999999997562554
 20
-2191.999999999524789
 30
0.0
  0
VERTEX
  5
1291FB
  8
HIDDEN
 10
719.9999999997562554
 20
-2655.9999999993669917
 30
0.0
  0
VERTEX
  5
1291FC
  8
HIDDEN
 10
359.9999999998781277
 20
-2655.9999999993669917
 30
0.0
  0
SEQEND
  5
1291FD
  8
HIDDEN
  0
POLYLINE
  5
128CA5
  8
HIDDEN
 66
     1
 10
0.0
 20
0.0
 30
0.0
 70
     1
1001
ACDBBLOCKREPETAG
1070
     1
1071
      165
1005
0
  0
VERTEX
  5
1291FE
  8
HIDDEN
 10
0.0
 20
-2191.999999999524789
 30
0.0
  0
VERTEX
  5
1291FF
  8
HIDDEN
 10
359.9999999998781277
 20
-2191.999999999524789
 30
0.0
  0
VERTEX
  5
129200
  8
HIDDEN
 10
359.9999999998781277
 20
-2655.9999999993669917
 30
0.0
  0
VERTEX
  5
129201
  8
HIDDEN
 10
0.0
 20
-2655.9999999993669917
 30
0.0
  0
SEQEND
  5
129202
  8
HIDDEN
  0
POLYLINE
  5
128CA6
  8
HIDDEN
 66
     1
 10
0.0
 20
0.0
 30
0.0
 70
     1
1001
ACDBBLOCKREPETAG
1070
     1
1071
      175
1005
0
  0
VERTEX
  5
129203
  8
HIDDEN
 10
0.0
 20
-2655.9999999993669917
 30
0.0
  0
VERTEX
  5
129204
  8
HIDDEN
 10
359.9999999998781277
 20
-2655.9999999993669917
 30
0.0
  0
VERTEX
  5
129205
  8
HIDDEN
 10
359.9999999998781277
 20
-3119.9999999992091944
 30
0.0
  0
VERTEX
  5
129206
  8
HIDDEN
 10
0.0
 20
-3119.9999999992091944
 30
0.0
  0
SEQEND
  5
129207
  8
HIDDEN
  0
POLYLINE
  5
128CA7
  8
HIDDEN
 66
     1
 10
0.0
 20
0.0
 30
0.0
 70
     1
1001
ACDBBLOCKREPETAG
1070
     1
1071
      110
1005
0
  0
VERTEX
  5
129208
  8
HIDDEN
 10
0.0
 20
0.0
 30
0.0
  0
VERTEX
  5
129209
  8
HIDDEN
 10
359.9999999998781277
 20
0.0
 30
0.0
  0
VERTEX
  5
12920A
  8
HIDDEN
 10
359.9999999998781277
 20
-463.9999999998416911
 30
0.0
  0
VERTEX
  5
12920B
  8
HIDDEN
 10
0.0
 20
-463.9999999998416911
 30
0.0
  0
SEQEND
  5
12920C
  8
HIDDEN
  0
TEXT
  5
128CA8
  8
SLIM
 10
105.428571428511006
 20
-1243.9999999998490239
 30
0.0
 40
48.0
  1
C0110
 41
0.75
1001
ACDBBLOCKREPETAG
1070
     1
1071
      119
1005
0
  0
TEXT
  5
128CA9
  8
SLIM
 10
461.9999999998175895
 20
-1243.9999999998499334
 30
0.0
 40
48.0
  1
C0120
 41
0.75
1001
ACDBBLOCKREPETAG
1070
     1
1071
      119
1005
0
  0
TEXT
  5
128CAA
  8
SLIM
 10
101.9999999999395044
 20
-1707.9999999996919087
 30
0.0
 40
48.0
  1
C0130
 41
0.75
1001
ACDBBLOCKREPETAG
1070
     1
1071
      119
1005
0
  0
TEXT
  5
128CAB
  8
SLIM
 10
461.9999999998175895
 20
-1707.9999999996919087
 30
0.0
 40
48.0
  1
C0210
 41
0.75
1001
ACDBBLOCKREPETAG
1070
     1
1071
      119
1005
0
  0
TEXT
  5
128CAC
  8
SLIM
 10
98.5714285713681164
 20
-2171.9999999995329745
 30
0.0
 40
48.0
  1
C0220
 41
0.75
1001
ACDBBLOCKREPETAG
1070
     1
1071
      119
1005
0
  0
TEXT
  5
128CAD
  8
SLIM
 10
458.5714285712460878
 20
-2171.9999999995329745
 30
0.0
 40
48.0
  1
C0230
 41
0.75
1001
ACDBBLOCKREPETAG
1070
     1
1071
      119
1005
0
  0
TEXT
  5
128CAE
  8
SLIM
 10
101.9999999999393054
 20
-2635.9999999993760866
 30
0.0
 40
48.0
  1
C0310
 41
0.75
1001
ACDBBLOCKREPETAG
1070
     1
1071
      119
1005
0
  0
TEXT
  5
128CAF
  8
SLIM
 10
458.5714285712462015
 20
-2635.9999999993760866
 30
0.0
 40
48.0
  1
C0320
 41
0.75
1001
ACDBBLOCKREPETAG
1070
     1
1071
      119
1005
0
  0
TEXT
  5
128CB0
  8
SLIM
 10
98.5714285713677469
 20
-3099.9999999992169251
 30
0.0
 40
48.0
  1
C0330
 41
0.75
1001
ACDBBLOCKREPETAG
1070
     1
1071
      119
1005
0
  0
CIRCLE
  5
128CB1
  8
OBJECT
 10
156.0
 20
-955.9999999999997726
 30
0.0
 40
70.0
1001
ACDBBLOCKREPETAG
1070
     1
1071
       50
1005
128CB1
  0
CIRCLE
  5
128CB2
  8
OBJECT
 10
156.0
 20
-955.9999999999997726
 30
0.0
 40
75.0
1001
ACDBBLOCKREPETAG
1070
     1
1071
       51
1005
128CB2
  0
POINT
  5
128CB3
  8
DOTS
 10
156.0
 20
-955.9999999999997726
 30
0.0
1001
ACDBBLOCKREPETAG
1070
     1
1071
       63
1005
128CB3
  0
ARC
  5
128CB4
  8
OBJECT
 10
156.0
 20
-955.9999999999997726
 30
0.0
 40
55.0
 50
299.3022457642870222
 51
240.6977542359811935
1001
ACDBBLOCKREPETAG
1070
     1
1071
       50
1005
128CB1
  0
LINE
  5
128CB5
  8
OBJECT
 10
132.1757960752510996
 20
-1001.6779614447550557
 30
0.0
 11
124.1876176729983996
 21
-1007.577458443547016
 31
0.0
  0
ARC
  5
128CB6
  8
OBJECT
 10
135.1461853586351936
 20
-1005.6999991752029473
 30
0.0
 40
5.0
 50
90.0
 51
126.4469224760730981
  0
LINE
  5
128CB7
  8
OBJECT
 10
179.8242039246960928
 20
-1001.6779614446270443
 30
0.0
 11
187.8124539800938066
 21
-1007.5775113607779758
 31
0.0
  0
ARC
  5
128CB8
  8
OBJECT
 10
176.8538146414830123
 20
-1005.6999991752029473
 30
0.0
 40
5.0
 50
53.5530775262745422
 51
90.0
  0
LINE
  5
128CB9
  8
OBJECT
 10
176.8538146414830123
 20
-1000.6999991752029473
 30
0.0
 11
135.1461853586351936
 21
-1000.6999991752029473
 31
0.0
  0
ARC
  5
128CBA
  8
OBJECT
 10
183.0598311269532132
 20
-1014.0127717297000345
 30
0.0
 40
8.0
 50
16.4762162479585612
 51
53.5530775262745422
  0
ARC
  5
128CBB
  8
OBJECT
 10
128.9401688730449962
 20
-1014.0127717297000345
 30
0.0
 40
8.0
 50
126.4469224737253938
 51
163.5237837520413962
  0
LINE
  5
128CBC
  8
OBJECT
 10
121.2686684859745014
 20
-1011.7438332529759464
 30
0.0
 11
120.0
 21
-1016.0333240792159586
 31
0.0
  0
LINE
  5
128CBD
  8
OBJECT
 10
190.7313315140254133
 20
-1011.7438332529759464
 30
0.0
 11
192.0
 21
-1016.0333240792159586
 31
0.0
  0
LINE
  5
128CBE
  8
OBJECT
 10
203.0
 20
-1089.0
 30
0.0
 11
203.0
 21
-1096.0
 31
0.0
1001
ACDBBLOCKREPETAG
1070
     1
1071
        0
1005
128CBE
  0
LINE
  5
128CBF
  8
OBJECT
 10
203.0
 20
-1096.0
 30
0.0
 11
109.0
 21
-1096.0
 31
0.0
1001
ACDBBLOCKREPETAG
1070
     1
1071
        1
1005
128CBF
  0
LINE
  5
128CC0
  8
OBJECT
 10
109.0
 20
-1096.0
 30
0.0
 11
109.0
 21
-1089.0
 31
0.0
1001
ACDBBLOCKREPETAG
1070
     1
1071
        2
1005
128CC0
  0
LINE
  5
128CC1
  8
OBJECT
 10
109.0
 20
-1089.0
 30
0.0
 11
203.0
 21
-1089.0
 31
0.0
1001
ACDBBLOCKREPETAG
1070
     1
1071
        3
1005
128CC1
  0
LINE
  5
128CC2
  8
OBJECT
 10
200.0
 20
-1089.0
 30
0.0
 11
200.0
 21
-1053.0
 31
0.0
1001
ACDBBLOCKREPETAG
1070
     1
1071
        4
1005
128CC2
  0
LINE
  5
128CC3
  8
OBJECT
 10
200.0
 20
-1053.0
 30
0.0
 11
112.0
 21
-1053.0
 31
0.0
1001
ACDBBLOCKREPETAG
1070
     1
1071
        5
1005
128CC3
  0
LINE
  5
128CC4
  8
OBJECT
 10
112.0
 20
-1053.0
 30
0.0
 11
112.0
 21
-1089.0
 31
0.0
1001
ACDBBLOCKREPETAG
1070
     1
1071
        6
1005
128CC4
  0
LINE
  5
128CC5
  8
OBJECT
 10
195.5
 20
-1049.0
 30
0.0
 11
195.5
 21
-1040.5
 31
0.0
1001
ACDBBLOCKREPETAG
1070
     1
1071
        7
1005
128CC5
  0
LINE
  5
128CC6
  8
OBJECT
 10
116.5
 20
-1040.4999999999990905
 30
0.0
 11
116.5
 21
-1049.0
 31
0.0
1001
ACDBBLOCKREPETAG
1070
     1
1071
        8
1005
128CC6
  0
LINE
  5
128CC7
  8
OBJECT
 10
116.5
 20
-1049.0
 30
0.0
 11
195.5
 21
-1049.0
 31
0.0
1001
ACDBBLOCKREPETAG
1070
     1
1071
        9
1005
128CC7
  0
LINE
  5
128CC8
  8
OBJECT
 10
200.0
 20
-1053.0
 30
0.0
 11
195.5
 21
-1049.0
 31
0.0
1001
ACDBBLOCKREPETAG
1070
     1
1071
       10
1005
128CC8
  0
LINE
  5
128CC9
  8
OBJECT
 10
112.0
 20
-1053.0
 30
0.0
 11
116.5
 21
-1049.0
 31
0.0
1001
ACDBBLOCKREPETAG
1070
     1
1071
       11
1005
128CC9
  0
LINE
  5
128CCA
  8
OBJECT
 10
109.5
 20
-1040.4999999999990905
 30
0.0
 11
202.5
 21
-1040.5
 31
0.0
1001
ACDBBLOCKREPETAG
1070
     1
1071
       12
1005
128CCA
  0
ARC
  5
128CCB
  8
OBJECT
 10
202.5
 20
-1037.5
 30
0.0
 40
3.0
 50
270.0
 51
0.0
1001
ACDBBLOCKREPETAG
1070
     1
1071
       13
1005
128CCB
  0
LINE
  5
128CCC
  8
OBJECT
 10
205.5
 20
-1037.5
 30
0.0
 11
205.5000000000009095
 21
-1012.3449199129789804
 31
0.0
1001
ACDBBLOCKREPETAG
1070
     1
1071
       15
1005
128CCC
  0
LINE
  5
128CCD
  8
OBJECT
 10
106.5
 20
-1037.4999999999990905
 30
0.0
 11
106.5000000000008953
 21
-1012.3449199129789804
 31
0.0
1001
ACDBBLOCKREPETAG
1070
     1
1071
       16
1005
128CCD
  0
ARC
  5
128CCE
  8
OBJECT
 10
109.5
 20
-1037.4999999999990905
 30
0.0
 40
3.0
 50
180.0
 51
270.0
1001
ACDBBLOCKREPETAG
1070
     1
1071
       17
1005
128CCE
  0
INSERT
  5
128CCF
  8
SLIM
  2
*U193
 10
0.0
 20
0.0
 30
0.0
  0
LINE
  5
128CD0
  8
HIDDEN
 10
186.0
 20
-1044.0
 30
0.0
 11
126.0
 21
-1044.0
 31
0.0
1001
ACDBBLOCKREPETAG
1070
     1
1071
       56
1005
128CD0
  0
CIRCLE
  5
128CD1
  8
OBJECT
 10
516.0
 20
-955.9999999999997726
 30
0.0
 40
70.0
1001
ACDBBLOCKREPETAG
1070
     1
1071
       50
1005
128CD1
  0
CIRCLE
  5
128CD2
  8
OBJECT
 10
516.0
 20
-955.9999999999997726
 30
0.0
 40
75.0
1001
ACDBBLOCKREPETAG
1070
     1
1071
       51
1005
128CD2
  0
POINT
  5
128CD3
  8
DOTS
 10
516.0
 20
-955.9999999999997726
 30
0.0
1001
ACDBBLOCKREPETAG
1070
     1
1071
       63
1005
128CD3
  0
ARC
  5
128CD4
  8
OBJECT
 10
516.0
 20
-955.9999999999997726
 30
0.0
 40
55.0
 50
299.3022457642854874
 51
240.6977542359825861
1001
ACDBBLOCKREPETAG
1070
     1
1071
       50
1005
128CD1
  0
LINE
  5
128CD5
  8
OBJECT
 10
492.1757960752511281
 20
-1001.6779614447550557
 30
0.0
 11
484.1876176729982717
 21
-1007.577458443547016
 31
0.0
  0
ARC
  5
128CD6
  8
OBJECT
 10
495.1461853586350799
 20
-1005.6999991752029473
 30
0.0
 40
5.0
 50
90.0
 51
126.4469224760718049
  0
LINE
  5
128CD7
  8
OBJECT
 10
539.8242039246960076
 20
-1001.6779614446270443
 30
0.0
 11
547.8124539800936645
 21
-1007.5775113607779758
 31
0.0
  0
ARC
  5
128CD8
  8
OBJECT
 10
536.8538146414830408
 20
-1005.6999991752029473
 30
0.0
 40
5.0
 50
53.5530775262758496
 51
90.0
  0
LINE
  5
128CD9
  8
OBJECT
 10
536.8538146414830408
 20
-1000.6999991752029473
 30
0.0
 11
495.1461853586350799
 21
-1000.6999991752029473
 31
0.0
  0
ARC
  5
128CDA
  8
OBJECT
 10
543.0598311269532132
 20
-1014.0127717297000345
 30
0.0
 40
8.0
 50
16.4762162479585612
 51
53.5530775262758496
  0
ARC
  5
128CDB
  8
OBJECT
 10
488.9401688730449109
 20
-1014.0127717297000345
 30
0.0
 40
8.0
 50
126.4469224737241007
 51
163.5237837520413962
  0
LINE
  5
128CDC
  8
OBJECT
 10
481.2686684859746151
 20
-1011.7438332529759464
 30
0.0
 11
480.0
 21
-1016.0333240792159586
 31
0.0
  0
LINE
  5
128CDD
  8
OBJECT
 10
550.7313315140254417
 20
-1011.7438332529759464
 30
0.0
 11
552.0
 21
-1016.0333240792159586
 31
0.0
  0
LINE
  5
128CDE
  8
OBJECT
 10
571.0
 20
-1089.0
 30
0.0
 11
571.0
 21
-1096.0
 31
0.0
1001
ACDBBLOCKREPETAG
1070
     1
1071
       18
1005
128CDE
  0
LINE
  5
128CDF
  8
OBJECT
 10
571.0
 20
-1096.0
 30
0.0
 11
461.0
 21
-1096.0
 31
0.0
1001
ACDBBLOCKREPETAG
1070
     1
1071
       19
1005
128CDF
  0
LINE
  5
128CE0
  8
OBJECT
 10
461.0
 20
-1096.0
 30
0.0
 11
461.0
 21
-1089.0
 31
0.0
1001
ACDBBLOCKREPETAG
1070
     1
1071
       20
1005
128CE0
  0
LINE
  5
128CE1
  8
OBJECT
 10
461.0
 20
-1089.0
 30
0.0
 11
571.0
 21
-1089.0
 31
0.0
1001
ACDBBLOCKREPETAG
1070
     1
1071
       21
1005
128CE1
  0
LINE
  5
128CE2
  8
OBJECT
 10
568.0
 20
-1089.0
 30
0.0
 11
568.0
 21
-1053.0
 31
0.0
1001
ACDBBLOCKREPETAG
1070
     1
1071
       22
1005
128CE2
  0
LINE
  5
128CE3
  8
OBJECT
 10
568.0
 20
-1053.0
 30
0.0
 11
464.0
 21
-1053.0
 31
0.0
1001
ACDBBLOCKREPETAG
1070
     1
1071
       23
1005
128CE3
  0
LINE
  5
128CE4
  8
OBJECT
 10
464.0
 20
-1053.0
 30
0.0
 11
464.0
 21
-1089.0
 31
0.0
1001
ACDBBLOCKREPETAG
1070
     1
1071
       24
1005
128CE4
  0
LINE
  5
128CE5
  8
OBJECT
 10
563.4999999999998863
 20
-1049.0
 30
0.0
 11
563.4999999999998863
 21
-1040.5
 31
0.0
1001
ACDBBLOCKREPETAG
1070
     1
1071
       25
1005
128CE5
  0
LINE
  5
128CE6
  8
OBJECT
 10
468.5
 20
-1040.4999999999990905
 30
0.0
 11
468.5
 21
-1049.0
 31
0.0
1001
ACDBBLOCKREPETAG
1070
     1
1071
       26
1005
128CE6
  0
LINE
  5
128CE7
  8
OBJECT
 10
468.5
 20
-1049.0
 30
0.0
 11
563.4999999999998863
 21
-1049.0
 31
0.0
1001
ACDBBLOCKREPETAG
1070
     1
1071
       27
1005
128CE7
  0
LINE
  5
128CE8
  8
OBJECT
 10
568.0
 20
-1053.0
 30
0.0
 11
563.4999999999998863
 21
-1049.0
 31
0.0
1001
ACDBBLOCKREPETAG
1070
     1
1071
       28
1005
128CE8
  0
LINE
  5
128CE9
  8
OBJECT
 10
464.0
 20
-1053.0
 30
0.0
 11
468.5
 21
-1049.0
 31
0.0
1001
ACDBBLOCKREPETAG
1070
     1
1071
       29
1005
128CE9
  0
LINE
  5
128CEA
  8
OBJECT
 10
466.5
 20
-1040.4999999999979536
 30
0.0
 11
565.5
 21
-1040.5
 31
0.0
1001
ACDBBLOCKREPETAG
1070
     1
1071
       30
1005
128CEA
  0
LINE
  5
128CEB
  8
OBJECT
 10
565.5
 20
-1040.5
 30
0.0
 11
565.4999999999990905
 21
-1012.3449199129789804
 31
0.0
1001
ACDBBLOCKREPETAG
1070
     1
1071
       31
1005
128CEB
  0
LINE
  5
128CEC
  8
OBJECT
 10
466.5
 20
-1040.4999999999979536
 30
0.0
 11
466.4999999999990905
 21
-1012.3449199129779572
 31
0.0
1001
ACDBBLOCKREPETAG
1070
     1
1071
       32
1005
128CEC
  0
INSERT
  5
128CED
  8
SLIM
  2
*U194
 10
0.0
 20
0.0
 30
0.0
  0
LINE
  5
128CEE
  8
HIDDEN
 10
554.0
 20
-1044.0
 30
0.0
 11
478.0
 21
-1044.0
 31
0.0
1001
ACDBBLOCKREPETAG
1070
     1
1071
       57
1005
128CEE
  0
CIRCLE
  5
128CEF
  8
OBJECT
 10
156.0
 20
-1420.0
 30
0.0
 40
70.0
1001
ACDBBLOCKREPETAG
1070
     1
1071
       50
1005
128CEF
  0
CIRCLE
  5
128CF0
  8
OBJECT
 10
156.0
 20
-1420.0
 30
0.0
 40
75.0
1001
ACDBBLOCKREPETAG
1070
     1
1071
       51
1005
128CF0
  0
POINT
  5
128CF1
  8
DOTS
 10
156.0
 20
-1420.0
 30
0.0
1001
ACDBBLOCKREPETAG
1070
     1
1071
       63
1005
128CF1
  0
ARC
  5
128CF2
  8
OBJECT
 10
156.0
 20
-1420.0
 30
0.0
 40
55.0
 50
299.3022457642870222
 51
240.6977542359811935
1001
ACDBBLOCKREPETAG
1070
     1
1071
       50
1005
128CEF
  0
LINE
  5
128CF3
  8
OBJECT
 10
132.1757960752510996
 20
-1465.6779614447550557
 30
0.0
 11
124.1876176729983996
 21
-1471.5774584435469023
 31
0.0
  0
ARC
  5
128CF4
  8
OBJECT
 10
135.1461853586351936
 20
-1469.6999991752040842
 30
0.0
 40
5.0
 50
90.0
 51
126.4469224760730981
  0
LINE
  5
128CF5
  8
OBJECT
 10
179.8242039246960928
 20
-1465.6779614446279538
 30
0.0
 11
187.8124539800938066
 21
-1471.5775113607780895
 31
0.0
  0
ARC
  5
128CF6
  8
OBJECT
 10
176.8538146414830123
 20
-1469.6999991752040842
 30
0.0
 40
5.0
 50
53.5530775262745422
 51
90.0
  0
LINE
  5
128CF7
  8
OBJECT
 10
176.8538146414830123
 20
-1464.6999991752029473
 30
0.0
 11
135.1461853586351936
 21
-1464.6999991752029473
 31
0.0
  0
ARC
  5
128CF8
  8
OBJECT
 10
183.0598311269532132
 20
-1478.0127717297000345
 30
0.0
 40
8.0
 50
16.4762162479585612
 51
53.5530775262745422
  0
ARC
  5
128CF9
  8
OBJECT
 10
128.9401688730449962
 20
-1478.0127717297000345
 30
0.0
 40
8.0
 50
126.4469224737253938
 51
163.5237837520413962
  0
LINE
  5
128CFA
  8
OBJECT
 10
121.2686684859745014
 20
-1475.7438332529759464
 30
0.0
 11
120.0
 21
-1480.0333240792169818
 31
0.0
  0
LINE
  5
128CFB
  8
OBJECT
 10
190.7313315140254133
 20
-1475.7438332529759464
 30
0.0
 11
192.0
 21
-1480.0333240792169818
 31
0.0
  0
LINE
  5
128CFC
  8
OBJECT
 10
218.0
 20
-1553.0
 30
0.0
 11
218.0
 21
-1560.0
 31
0.0
1001
ACDBBLOCKREPETAG
1070
     1
1071
       34
1005
128CFC
  0
LINE
  5
128CFD
  8
OBJECT
 10
218.0
 20
-1560.0
 30
0.0
 11
94.0
 21
-1560.0
 31
0.0
1001
ACDBBLOCKREPETAG
1070
     1
1071
       35
1005
128CFD
  0
LINE
  5
128CFE
  8
OBJECT
 10
94.0
 20
-1560.0
 30
0.0
 11
94.0
 21
-1553.0
 31
0.0
1001
ACDBBLOCKREPETAG
1070
     1
1071
       36
1005
128CFE
  0
LINE
  5
128CFF
  8
OBJECT
 10
94.0
 20
-1553.0
 30
0.0
 11
218.0
 21
-1553.0
 31
0.0
1001
ACDBBLOCKREPETAG
1070
     1
1071
       37
1005
128CFF
  0
LINE
  5
128D00
  8
OBJECT
 10
215.0
 20
-1553.0
 30
0.0
 11
215.0
 21
-1517.0
 31
0.0
1001
ACDBBLOCKREPETAG
1070
     1
1071
       38
1005
128D00
  0
LINE
  5
128D01
  8
OBJECT
 10
215.0
 20
-1517.0
 30
0.0
 11
97.0
 21
-1517.0
 31
0.0
1001
ACDBBLOCKREPETAG
1070
     1
1071
       39
1005
128D01
  0
LINE
  5
128D02
  8
OBJECT
 10
97.0
 20
-1517.0
 30
0.0
 11
97.0
 21
-1553.0
 31
0.0
1001
ACDBBLOCKREPETAG
1070
     1
1071
       40
1005
128D02
  0
LINE
  5
128D03
  8
OBJECT
 10
210.5
 20
-1513.0
 30
0.0
 11
210.5
 21
-1502.5
 31
0.0
1001
ACDBBLOCKREPETAG
1070
     1
1071
       41
1005
128D03
  0
LINE
  5
128D04
  8
OBJECT
 10
101.5
 20
-1502.5
 30
0.0
 11
101.5
 21
-1513.0
 31
0.0
1001
ACDBBLOCKREPETAG
1070
     1
1071
       42
1005
128D04
  0
LINE
  5
128D05
  8
OBJECT
 10
101.5
 20
-1513.0
 30
0.0
 11
210.5
 21
-1513.0
 31
0.0
1001
ACDBBLOCKREPETAG
1070
     1
1071
       43
1005
128D05
  0
LINE
  5
128D06
  8
OBJECT
 10
215.0
 20
-1517.0
 30
0.0
 11
210.5
 21
-1513.0
 31
0.0
1001
ACDBBLOCKREPETAG
1070
     1
1071
       44
1005
128D06
  0
LINE
  5
128D07
  8
OBJECT
 10
97.0
 20
-1517.0
 30
0.0
 11
101.5
 21
-1513.0
 31
0.0
1001
ACDBBLOCKREPETAG
1070
     1
1071
       45
1005
128D07
  0
LINE
  5
128D08
  8
OBJECT
 10
205.5
 20
-1497.5
 30
0.0
 11
205.4999999999990905
 21
-1476.3449199129779572
 31
0.0
1001
ACDBBLOCKREPETAG
1070
     1
1071
       46
1005
128D08
  0
LINE
  5
128D09
  8
OBJECT
 10
106.5
 20
-1497.5
 30
0.0
 11
106.5
 21
-1476.3449199129779572
 31
0.0
1001
ACDBBLOCKREPETAG
1070
     1
1071
       47
1005
128D09
  0
LINE
  5
128D0A
  8
OBJECT
 10
210.5
 20
-1502.5
 30
0.0
 11
101.5
 21
-1502.5
 31
0.0
1001
ACDBBLOCKREPETAG
1070
     1
1071
       48
1005
128D0A
  0
LINE
  5
128D0B
  8
OBJECT
 10
205.5
 20
-1497.5
 30
0.0
 11
106.5
 21
-1497.5
 31
0.0
1001
ACDBBLOCKREPETAG
1070
     1
1071
       49
1005
128D0B
  0
LINE
  5
128D0C
  8
OBJECT
 10
210.5
 20
-1502.5
 30
0.0
 11
205.5
 21
-1497.5
 31
0.0
1001
ACDBBLOCKREPETAG
1070
     1
1071
       50
1005
128D0C
  0
LINE
  5
128D0D
  8
OBJECT
 10
106.5
 20
-1497.5
 30
0.0
 11
101.5000000000035953
 21
-1502.5
 31
0.0
1001
ACDBBLOCKREPETAG
1070
     1
1071
       51
1005
128D0D
  0
INSERT
  5
128D0E
  8
SLIM
  2
*U195
 10
0.0
 20
0.0
 30
0.0
  0
LINE
  5
128D0F
  8
HIDDEN
 10
200.5
 20
-1508.0
 30
0.0
 11
111.5
 21
-1508.0
 31
0.0
1001
ACDBBLOCKREPETAG
1070
     1
1071
       65
1005
128D0F
  0
CIRCLE
  5
128D10
  8
OBJECT
 10
516.0
 20
-1420.0
 30
0.0
 40
70.0
1001
ACDBBLOCKREPETAG
1070
     1
1071
       50
1005
128D10
  0
CIRCLE
  5
128D11
  8
OBJECT
 10
516.0
 20
-1420.0
 30
0.0
 40
75.0
1001
ACDBBLOCKREPETAG
1070
     1
1071
       51
1005
128D11
  0
POINT
  5
128D12
  8
DOTS
 10
516.0
 20
-1420.0
 30
0.0
1001
ACDBBLOCKREPETAG
1070
     1
1071
       63
1005
128D12
  0
ARC
  5
128D13
  8
OBJECT
 10
516.0
 20
-1420.0
 30
0.0
 40
55.0
 50
299.3022457642854874
 51
240.6977542359825861
1001
ACDBBLOCKREPETAG
1070
     1
1071
       50
1005
128D10
  0
LINE
  5
128D14
  8
OBJECT
 10
492.1757960752511281
 20
-1465.6779614447550557
 30
0.0
 11
484.1876176729982717
 21
-1471.5774584435469023
 31
0.0
  0
ARC
  5
128D15
  8
OBJECT
 10
495.1461853586350799
 20
-1469.6999991752040842
 30
0.0
 40
5.0
 50
90.0
 51
126.4469224760718049
  0
LINE
  5
128D16
  8
OBJECT
 10
539.8242039246960076
 20
-1465.6779614446279538
 30
0.0
 11
547.8124539800936645
 21
-1471.5775113607780895
 31
0.0
  0
ARC
  5
128D17
  8
OBJECT
 10
536.8538146414830408
 20
-1469.6999991752040842
 30
0.0
 40
5.0
 50
53.5530775262758496
 51
90.0
  0
LINE
  5
128D18
  8
OBJECT
 10
536.8538146414830408
 20
-1464.6999991752029473
 30
0.0
 11
495.1461853586350799
 21
-1464.6999991752029473
 31
0.0
  0
ARC
  5
128D19
  8
OBJECT
 10
543.0598311269532132
 20
-1478.0127717297000345
 30
0.0
 40
8.0
 50
16.4762162479585612
 51
53.5530775262758496
  0
ARC
  5
128D1A
  8
OBJECT
 10
488.9401688730449109
 20
-1478.0127717297000345
 30
0.0
 40
8.0
 50
126.4469224737241007
 51
163.5237837520413962
  0
LINE
  5
128D1B
  8
OBJECT
 10
481.2686684859746151
 20
-1475.7438332529759464
 30
0.0
 11
480.0
 21
-1480.0333240792169818
 31
0.0
  0
LINE
  5
128D1C
  8
OBJECT
 10
550.7313315140254417
 20
-1475.7438332529759464
 30
0.0
 11
552.0
 21
-1480.0333240792169818
 31
0.0
  0
LINE
  5
128D1D
  8
OBJECT
 10
563.0
 20
-1553.0
 30
0.0
 11
563.0
 21
-1560.0
 31
0.0
1001
ACDBBLOCKREPETAG
1070
     1
1071
        0
1005
128D1D
  0
LINE
  5
128D1E
  8
OBJECT
 10
563.0
 20
-1560.0
 30
0.0
 11
469.0
 21
-1560.0
 31
0.0
1001
ACDBBLOCKREPETAG
1070
     1
1071
        1
1005
128D1E
  0
LINE
  5
128D1F
  8
OBJECT
 10
469.0
 20
-1560.0
 30
0.0
 11
469.0
 21
-1553.0
 31
0.0
1001
ACDBBLOCKREPETAG
1070
     1
1071
        2
1005
128D1F
  0
LINE
  5
128D20
  8
OBJECT
 10
469.0
 20
-1553.0
 30
0.0
 11
563.0
 21
-1553.0
 31
0.0
1001
ACDBBLOCKREPETAG
1070
     1
1071
        3
1005
128D20
  0
LINE
  5
128D21
  8
OBJECT
 10
560.0
 20
-1553.0
 30
0.0
 11
560.0
 21
-1517.0
 31
0.0
1001
ACDBBLOCKREPETAG
1070
     1
1071
        4
1005
128D21
  0
LINE
  5
128D22
  8
OBJECT
 10
560.0
 20
-1517.0
 30
0.0
 11
472.0
 21
-1517.0
 31
0.0
1001
ACDBBLOCKREPETAG
1070
     1
1071
        5
1005
128D22
  0
LINE
  5
128D23
  8
OBJECT
 10
472.0
 20
-1517.0
 30
0.0
 11
472.0
 21
-1553.0
 31
0.0
1001
ACDBBLOCKREPETAG
1070
     1
1071
        6
1005
128D23
  0
LINE
  5
128D24
  8
OBJECT
 10
555.4999999999998863
 20
-1513.0
 30
0.0
 11
555.4999999999998863
 21
-1504.5
 31
0.0
1001
ACDBBLOCKREPETAG
1070
     1
1071
        7
1005
128D24
  0
LINE
  5
128D25
  8
OBJECT
 10
476.4999999999998863
 20
-1504.4999999999990905
 30
0.0
 11
476.4999999999998863
 21
-1513.0
 31
0.0
1001
ACDBBLOCKREPETAG
1070
     1
1071
        8
1005
128D25
  0
LINE
  5
128D26
  8
OBJECT
 10
476.4999999999998863
 20
-1513.0
 30
0.0
 11
555.4999999999998863
 21
-1513.0
 31
0.0
1001
ACDBBLOCKREPETAG
1070
     1
1071
        9
1005
128D26
  0
LINE
  5
128D27
  8
OBJECT
 10
560.0
 20
-1517.0
 30
0.0
 11
555.4999999999998863
 21
-1513.0
 31
0.0
1001
ACDBBLOCKREPETAG
1070
     1
1071
       10
1005
128D27
  0
LINE
  5
128D28
  8
OBJECT
 10
472.0
 20
-1517.0
 30
0.0
 11
476.4999999999998863
 21
-1513.0
 31
0.0
1001
ACDBBLOCKREPETAG
1070
     1
1071
       11
1005
128D28
  0
LINE
  5
128D29
  8
OBJECT
 10
469.5
 20
-1504.4999999999990905
 30
0.0
 11
562.5
 21
-1504.5
 31
0.0
1001
ACDBBLOCKREPETAG
1070
     1
1071
       12
1005
128D29
  0
ARC
  5
128D2A
  8
OBJECT
 10
562.5
 20
-1501.5
 30
0.0
 40
3.0
 50
270.0
 51
0.0
1001
ACDBBLOCKREPETAG
1070
     1
1071
       13
1005
128D2A
  0
LINE
  5
128D2B
  8
OBJECT
 10
565.5
 20
-1501.5
 30
0.0
 11
565.5000000000009095
 21
-1476.3449199129779572
 31
0.0
1001
ACDBBLOCKREPETAG
1070
     1
1071
       15
1005
128D2B
  0
LINE
  5
128D2C
  8
OBJECT
 10
466.5
 20
-1501.4999999999990905
 30
0.0
 11
466.5000000000007958
 21
-1476.3449199129790941
 31
0.0
1001
ACDBBLOCKREPETAG
1070
     1
1071
       16
1005
128D2C
  0
ARC
  5
128D2D
  8
OBJECT
 10
469.5
 20
-1501.4999999999990905
 30
0.0
 40
3.0
 50
180.0
 51
270.0
1001
ACDBBLOCKREPETAG
1070
     1
1071
       17
1005
128D2D
  0
INSERT
  5
128D2E
  8
SLIM
  2
*U196
 10
0.0
 20
0.0
 30
0.0
  0
LINE
  5
128D2F
  8
HIDDEN
 10
546.0
 20
-1508.0
 30
0.0
 11
486.0
 21
-1508.0
 31
0.0
1001
ACDBBLOCKREPETAG
1070
     1
1071
       56
1005
128D2F
  0
CIRCLE
  5
128D30
  8
OBJECT
 10
156.0
 20
-1884.0
 30
0.0
 40
70.0
1001
ACDBBLOCKREPETAG
1070
     1
1071
       50
1005
128D30
  0
CIRCLE
  5
128D31
  8
OBJECT
 10
156.0
 20
-1884.0
 30
0.0
 40
75.0
1001
ACDBBLOCKREPETAG
1070
     1
1071
       51
1005
128D31
  0
POINT
  5
128D32
  8
DOTS
 10
156.0
 20
-1884.0
 30
0.0
1001
ACDBBLOCKREPETAG
1070
     1
1071
       63
1005
128D32
  0
ARC
  5
128D33
  8
OBJECT
 10
156.0
 20
-1884.0
 30
0.0
 40
55.0
 50
299.3022457642870222
 51
240.6977542359811935
1001
ACDBBLOCKREPETAG
1070
     1
1071
       50
1005
128D30
  0
LINE
  5
128D34
  8
OBJECT
 10
132.1757960752510996
 20
-1929.6779614447550557
 30
0.0
 11
124.1876176729983996
 21
-1935.5774584435469023
 31
0.0
  0
ARC
  5
128D35
  8
OBJECT
 10
135.1461853586351936
 20
-1933.6999991752029473
 30
0.0
 40
5.0
 50
90.0
 51
126.4469224760730981
  0
LINE
  5
128D36
  8
OBJECT
 10
179.8242039246960928
 20
-1929.6779614446270443
 30
0.0
 11
187.8124539800938066
 21
-1935.5775113607780895
 31
0.0
  0
ARC
  5
128D37
  8
OBJECT
 10
176.8538146414830123
 20
-1933.6999991752029473
 30
0.0
 40
5.0
 50
53.5530775262745422
 51
90.0
  0
LINE
  5
128D38
  8
OBJECT
 10
176.8538146414830123
 20
-1928.6999991752040842
 30
0.0
 11
135.1461853586351936
 21
-1928.6999991752040842
 31
0.0
  0
ARC
  5
128D39
  8
OBJECT
 10
183.0598311269532132
 20
-1942.0127717297000345
 30
0.0
 40
8.0
 50
16.4762162479585612
 51
53.5530775262745422
  0
ARC
  5
128D3A
  8
OBJECT
 10
128.9401688730449962
 20
-1942.0127717297000345
 30
0.0
 40
8.0
 50
126.4469224737253938
 51
163.5237837520413962
  0
LINE
  5
128D3B
  8
OBJECT
 10
121.2686684859745014
 20
-1939.7438332529759464
 30
0.0
 11
120.0
 21
-1944.0333240792169818
 31
0.0
  0
LINE
  5
128D3C
  8
OBJECT
 10
190.7313315140254133
 20
-1939.7438332529759464
 30
0.0
 11
192.0
 21
-1944.0333240792169818
 31
0.0
  0
LINE
  5
128D3D
  8
OBJECT
 10
211.0
 20
-2017.0
 30
0.0
 11
211.0
 21
-2024.0
 31
0.0
1001
ACDBBLOCKREPETAG
1070
     1
1071
       18
1005
128D3D
  0
LINE
  5
128D3E
  8
OBJECT
 10
211.0
 20
-2024.0
 30
0.0
 11
101.0
 21
-2024.0
 31
0.0
1001
ACDBBLOCKREPETAG
1070
     1
1071
       19
1005
128D3E
  0
LINE
  5
128D3F
  8
OBJECT
 10
101.0
 20
-2024.0
 30
0.0
 11
101.0
 21
-2017.0
 31
0.0
1001
ACDBBLOCKREPETAG
1070
     1
1071
       20
1005
128D3F
  0
LINE
  5
128D40
  8
OBJECT
 10
101.0
 20
-2017.0
 30
0.0
 11
211.0
 21
-2017.0
 31
0.0
1001
ACDBBLOCKREPETAG
1070
     1
1071
       21
1005
128D40
  0
LINE
  5
128D41
  8
OBJECT
 10
208.0
 20
-2017.0
 30
0.0
 11
208.0
 21
-1981.0
 31
0.0
1001
ACDBBLOCKREPETAG
1070
     1
1071
       22
1005
128D41
  0
LINE
  5
128D42
  8
OBJECT
 10
208.0
 20
-1981.0
 30
0.0
 11
104.0
 21
-1981.0
 31
0.0
1001
ACDBBLOCKREPETAG
1070
     1
1071
       23
1005
128D42
  0
LINE
  5
128D43
  8
OBJECT
 10
104.0
 20
-1981.0
 30
0.0
 11
104.0
 21
-2017.0
 31
0.0
1001
ACDBBLOCKREPETAG
1070
     1
1071
       24
1005
128D43
  0
LINE
  5
128D44
  8
OBJECT
 10
203.5
 20
-1977.0
 30
0.0
 11
203.5
 21
-1968.5
 31
0.0
1001
ACDBBLOCKREPETAG
1070
     1
1071
       25
1005
128D44
  0
LINE
  5
128D45
  8
OBJECT
 10
108.5
 20
-1968.4999999999990905
 30
0.0
 11
108.5
 21
-1977.0
 31
0.0
1001
ACDBBLOCKREPETAG
1070
     1
1071
       26
1005
128D45
  0
LINE
  5
128D46
  8
OBJECT
 10
108.5
 20
-1977.0
 30
0.0
 11
203.5
 21
-1977.0
 31
0.0
1001
ACDBBLOCKREPETAG
1070
     1
1071
       27
1005
128D46
  0
LINE
  5
128D47
  8
OBJECT
 10
208.0
 20
-1981.0
 30
0.0
 11
203.5
 21
-1977.0
 31
0.0
1001
ACDBBLOCKREPETAG
1070
     1
1071
       28
1005
128D47
  0
LINE
  5
128D48
  8
OBJECT
 10
104.0
 20
-1981.0
 30
0.0
 11
108.5
 21
-1977.0
 31
0.0
1001
ACDBBLOCKREPETAG
1070
     1
1071
       29
1005
128D48
  0
LINE
  5
128D49
  8
OBJECT
 10
106.5
 20
-1968.4999999999979536
 30
0.0
 11
205.5
 21
-1968.5
 31
0.0
1001
ACDBBLOCKREPETAG
1070
     1
1071
       30
1005
128D49
  0
LINE
  5
128D4A
  8
OBJECT
 10
205.5
 20
-1968.5
 30
0.0
 11
205.4999999999990905
 21
-1940.3449199129790941
 31
0.0
1001
ACDBBLOCKREPETAG
1070
     1
1071
       31
1005
128D4A
  0
LINE
  5
128D4B
  8
OBJECT
 10
106.5
 20
-1968.4999999999979536
 30
0.0
 11
106.4999999999991047
 21
-1940.3449199129779572
 31
0.0
1001
ACDBBLOCKREPETAG
1070
     1
1071
       32
1005
128D4B
  0
INSERT
  5
128D4C
  8
SLIM
  2
*U197
 10
0.0
 20
0.0
 30
0.0
  0
LINE
  5
128D4D
  8
HIDDEN
 10
194.0
 20
-1972.0
 30
0.0
 11
118.0
 21
-1972.0
 31
0.0
1001
ACDBBLOCKREPETAG
1070
     1
1071
       57
1005
128D4D
  0
CIRCLE
  5
128D4E
  8
OBJECT
 10
516.0
 20
-1884.0
 30
0.0
 40
70.0
1001
ACDBBLOCKREPETAG
1070
     1
1071
       50
1005
128D4E
  0
CIRCLE
  5
128D4F
  8
OBJECT
 10
516.0
 20
-1884.0
 30
0.0
 40
75.0
1001
ACDBBLOCKREPETAG
1070
     1
1071
       51
1005
128D4F
  0
POINT
  5
128D50
  8
DOTS
 10
516.0
 20
-1884.0
 30
0.0
1001
ACDBBLOCKREPETAG
1070
     1
1071
       63
1005
128D50
  0
ARC
  5
128D51
  8
OBJECT
 10
516.0
 20
-1884.0
 30
0.0
 40
55.0
 50
299.3022457642854874
 51
240.6977542359825861
1001
ACDBBLOCKREPETAG
1070
     1
1071
       50
1005
128D4E
  0
LINE
  5
128D52
  8
OBJECT
 10
492.1757960752511281
 20
-1929.6779614447550557
 30
0.0
 11
484.1876176729982717
 21
-1935.5774584435469023
 31
0.0
  0
ARC
  5
128D53
  8
OBJECT
 10
495.1461853586350799
 20
-1933.6999991752029473
 30
0.0
 40
5.0
 50
90.0
 51
126.4469224760718049
  0
LINE
  5
128D54
  8
OBJECT
 10
539.8242039246960076
 20
-1929.6779614446270443
 30
0.0
 11
547.8124539800936645
 21
-1935.5775113607780895
 31
0.0
  0
ARC
  5
128D55
  8
OBJECT
 10
536.8538146414830408
 20
-1933.6999991752029473
 30
0.0
 40
5.0
 50
53.5530775262758496
 51
90.0
  0
LINE
  5
128D56
  8
OBJECT
 10
536.8538146414830408
 20
-1928.6999991752040842
 30
0.0
 11
495.1461853586350799
 21
-1928.6999991752040842
 31
0.0
  0
ARC
  5
128D57
  8
OBJECT
 10
543.0598311269532132
 20
-1942.0127717297000345
 30
0.0
 40
8.0
 50
16.4762162479585612
 51
53.5530775262758496
  0
ARC
  5
128D58
  8
OBJECT
 10
488.9401688730449109
 20
-1942.0127717297000345
 30
0.0
 40
8.0
 50
126.4469224737241007
 51
163.5237837520413962
  0
LINE
  5
128D59
  8
OBJECT
 10
481.2686684859746151
 20
-1939.7438332529759464
 30
0.0
 11
480.0
 21
-1944.0333240792169818
 31
0.0
  0
LINE
  5
128D5A
  8
OBJECT
 10
550.7313315140254417
 20
-1939.7438332529759464
 30
0.0
 11
552.0
 21
-1944.0333240792169818
 31
0.0
  0
LINE
  5
128D5B
  8
OBJECT
 10
578.0
 20
-2017.0
 30
0.0
 11
578.0
 21
-2024.0
 31
0.0
1001
ACDBBLOCKREPETAG
1070
     1
1071
       34
1005
128D5B
  0
LINE
  5
128D5C
  8
OBJECT
 10
578.0
 20
-2024.0
 30
0.0
 11
454.0
 21
-2024.0
 31
0.0
1001
ACDBBLOCKREPETAG
1070
     1
1071
       35
1005
128D5C
  0
LINE
  5
128D5D
  8
OBJECT
 10
454.0
 20
-2024.0
 30
0.0
 11
454.0
 21
-2017.0
 31
0.0
1001
ACDBBLOCKREPETAG
1070
     1
1071
       36
1005
128D5D
  0
LINE
  5
128D5E
  8
OBJECT
 10
454.0
 20
-2017.0
 30
0.0
 11
578.0
 21
-2017.0
 31
0.0
1001
ACDBBLOCKREPETAG
1070
     1
1071
       37
1005
128D5E
  0
LINE
  5
128D5F
  8
OBJECT
 10
575.0
 20
-2017.0
 30
0.0
 11
575.0
 21
-1981.0
 31
0.0
1001
ACDBBLOCKREPETAG
1070
     1
1071
       38
1005
128D5F
  0
LINE
  5
128D60
  8
OBJECT
 10
575.0
 20
-1981.0
 30
0.0
 11
457.0
 21
-1981.0
 31
0.0
1001
ACDBBLOCKREPETAG
1070
     1
1071
       39
1005
128D60
  0
LINE
  5
128D61
  8
OBJECT
 10
457.0
 20
-1981.0
 30
0.0
 11
457.0
 21
-2017.0
 31
0.0
1001
ACDBBLOCKREPETAG
1070
     1
1071
       40
1005
128D61
  0
LINE
  5
128D62
  8
OBJECT
 10
570.5
 20
-1977.0
 30
0.0
 11
570.5
 21
-1966.5
 31
0.0
1001
ACDBBLOCKREPETAG
1070
     1
1071
       41
1005
128D62
  0
LINE
  5
128D63
  8
OBJECT
 10
461.5
 20
-1966.5
 30
0.0
 11
461.5
 21
-1977.0
 31
0.0
1001
ACDBBLOCKREPETAG
1070
     1
1071
       42
1005
128D63
  0
LINE
  5
128D64
  8
OBJECT
 10
461.5
 20
-1977.0
 30
0.0
 11
570.5
 21
-1977.0
 31
0.0
1001
ACDBBLOCKREPETAG
1070
     1
1071
       43
1005
128D64
  0
LINE
  5
128D65
  8
OBJECT
 10
575.0
 20
-1981.0
 30
0.0
 11
570.5
 21
-1977.0
 31
0.0
1001
ACDBBLOCKREPETAG
1070
     1
1071
       44
1005
128D65
  0
LINE
  5
128D66
  8
OBJECT
 10
457.0
 20
-1981.0
 30
0.0
 11
461.5
 21
-1977.0
 31
0.0
1001
ACDBBLOCKREPETAG
1070
     1
1071
       45
1005
128D66
  0
LINE
  5
128D67
  8
OBJECT
 10
565.5
 20
-1961.5
 30
0.0
 11
565.4999999999990905
 21
-1940.3449199129790941
 31
0.0
1001
ACDBBLOCKREPETAG
1070
     1
1071
       46
1005
128D67
  0
LINE
  5
128D68
  8
OBJECT
 10
466.5
 20
-1961.5
 30
0.0
 11
466.5
 21
-1940.3449199129779572
 31
0.0
1001
ACDBBLOCKREPETAG
1070
     1
1071
       47
1005
128D68
  0
LINE
  5
128D69
  8
OBJECT
 10
570.5
 20
-1966.5
 30
0.0
 11
461.5
 21
-1966.5
 31
0.0
1001
ACDBBLOCKREPETAG
1070
     1
1071
       48
1005
128D69
  0
LINE
  5
128D6A
  8
OBJECT
 10
565.5
 20
-1961.5
 30
0.0
 11
466.5
 21
-1961.5
 31
0.0
1001
ACDBBLOCKREPETAG
1070
     1
1071
       49
1005
128D6A
  0
LINE
  5
128D6B
  8
OBJECT
 10
570.5
 20
-1966.5
 30
0.0
 11
565.5
 21
-1961.5
 31
0.0
1001
ACDBBLOCKREPETAG
1070
     1
1071
       50
1005
128D6B
  0
LINE
  5
128D6C
  8
OBJECT
 10
466.5
 20
-1961.5
 30
0.0
 11
461.5000000000035811
 21
-1966.5
 31
0.0
1001
ACDBBLOCKREPETAG
1070
     1
1071
       51
1005
128D6C
  0
INSERT
  5
128D6D
  8
SLIM
  2
*U198
 10
0.0
 20
0.0
 30
0.0
  0
LINE
  5
128D6E
  8
HIDDEN
 10
560.5
 20
-1972.0
 30
0.0
 11
471.4999999999998863
 21
-1972.0
 31
0.0
1001
ACDBBLOCKREPETAG
1070
     1
1071
       65
1005
128D6E
  0
CIRCLE
  5
128D6F
  8
OBJECT
 10
156.0
 20
-2348.0
 30
0.0
 40
70.0
1001
ACDBBLOCKREPETAG
1070
     1
1071
       50
1005
128D6F
  0
CIRCLE
  5
128D70
  8
OBJECT
 10
156.0
 20
-2348.0
 30
0.0
 40
75.0
1001
ACDBBLOCKREPETAG
1070
     1
1071
       51
1005
128D70
  0
POINT
  5
128D71
  8
DOTS
 10
156.0
 20
-2348.0
 30
0.0
1001
ACDBBLOCKREPETAG
1070
     1
1071
       63
1005
128D71
  0
ARC
  5
128D72
  8
OBJECT
 10
156.0
 20
-2348.0
 30
0.0
 40
55.0
 50
299.3022457642807126
 51
240.6977542359875883
1001
ACDBBLOCKREPETAG
1070
     1
1071
       50
1005
128D6F
  0
LINE
  5
128D73
  8
OBJECT
 10
132.1757960752510996
 20
-2393.6779614447550557
 30
0.0
 11
124.1876176729983996
 21
-2399.5774584435480392
 31
0.0
  0
ARC
  5
128D74
  8
OBJECT
 10
135.1461853586351936
 20
-2397.6999991752040842
 30
0.0
 40
5.0
 50
90.0
 51
126.4469224760808004
  0
LINE
  5
128D75
  8
OBJECT
 10
179.8242039246960928
 20
-2393.6779614446281812
 30
0.0
 11
187.8124539800938066
 21
-2399.5775113607778621
 31
0.0
  0
ARC
  5
128D76
  8
OBJECT
 10
176.8538146414830123
 20
-2397.6999991752040842
 30
0.0
 40
5.0
 50
53.5530775262745422
 51
90.0
  0
LINE
  5
128D77
  8
OBJECT
 10
176.8538146414830123
 20
-2392.6999991752040842
 30
0.0
 11
135.1461853586351936
 21
-2392.6999991752040842
 31
0.0
  0
ARC
  5
128D78
  8
OBJECT
 10
183.0598311269532132
 20
-2406.0127717297000345
 30
0.0
 40
8.0
 50
16.476216247971049
 51
53.5530775262745422
  0
ARC
  5
128D79
  8
OBJECT
 10
128.9401688730449962
 20
-2406.0127717297000345
 30
0.0
 40
8.0
 50
126.4469224737253938
 51
163.5237837520288906
  0
LINE
  5
128D7A
  8
OBJECT
 10
121.2686684859745014
 20
-2403.7438332529759464
 30
0.0
 11
120.0
 21
-2408.0333240792169818
 31
0.0
  0
LINE
  5
128D7B
  8
OBJECT
 10
190.7313315140254133
 20
-2403.7438332529759464
 30
0.0
 11
192.0
 21
-2408.0333240792169818
 31
0.0
  0
LINE
  5
128D7C
  8
OBJECT
 10
203.0
 20
-2481.0
 30
0.0
 11
203.0
 21
-2488.0
 31
0.0
1001
ACDBBLOCKREPETAG
1070
     1
1071
        0
1005
128D7C
  0
LINE
  5
128D7D
  8
OBJECT
 10
203.0
 20
-2488.0
 30
0.0
 11
109.0
 21
-2488.0
 31
0.0
1001
ACDBBLOCKREPETAG
1070
     1
1071
        1
1005
128D7D
  0
LINE
  5
128D7E
  8
OBJECT
 10
109.0
 20
-2488.0
 30
0.0
 11
109.0
 21
-2481.0
 31
0.0
1001
ACDBBLOCKREPETAG
1070
     1
1071
        2
1005
128D7E
  0
LINE
  5
128D7F
  8
OBJECT
 10
109.0
 20
-2481.0
 30
0.0
 11
203.0
 21
-2481.0
 31
0.0
1001
ACDBBLOCKREPETAG
1070
     1
1071
        3
1005
128D7F
  0
LINE
  5
128D80
  8
OBJECT
 10
200.0
 20
-2481.0
 30
0.0
 11
200.0
 21
-2445.0
 31
0.0
1001
ACDBBLOCKREPETAG
1070
     1
1071
        4
1005
128D80
  0
LINE
  5
128D81
  8
OBJECT
 10
200.0
 20
-2445.0
 30
0.0
 11
112.0
 21
-2445.0
 31
0.0
1001
ACDBBLOCKREPETAG
1070
     1
1071
        5
1005
128D81
  0
LINE
  5
128D82
  8
OBJECT
 10
112.0
 20
-2445.0
 30
0.0
 11
112.0
 21
-2481.0
 31
0.0
1001
ACDBBLOCKREPETAG
1070
     1
1071
        6
1005
128D82
  0
LINE
  5
128D83
  8
OBJECT
 10
195.5
 20
-2441.0
 30
0.0
 11
195.5
 21
-2432.5000000000009095
 31
0.0
1001
ACDBBLOCKREPETAG
1070
     1
1071
        7
1005
128D83
  0
LINE
  5
128D84
  8
OBJECT
 10
116.5
 20
-2432.5
 30
0.0
 11
116.5
 21
-2441.0
 31
0.0
1001
ACDBBLOCKREPETAG
1070
     1
1071
        8
1005
128D84
  0
LINE
  5
128D85
  8
OBJECT
 10
116.5
 20
-2441.0
 30
0.0
 11
195.5
 21
-2441.0
 31
0.0
1001
ACDBBLOCKREPETAG
1070
     1
1071
        9
1005
128D85
  0
LINE
  5
128D86
  8
OBJECT
 10
200.0
 20
-2445.0
 30
0.0
 11
195.5
 21
-2441.0
 31
0.0
1001
ACDBBLOCKREPETAG
1070
     1
1071
       10
1005
128D86
  0
LINE
  5
128D87
  8
OBJECT
 10
112.0
 20
-2445.0
 30
0.0
 11
116.5
 21
-2441.0
 31
0.0
1001
ACDBBLOCKREPETAG
1070
     1
1071
       11
1005
128D87
  0
LINE
  5
128D88
  8
OBJECT
 10
109.5
 20
-2432.4999999999990905
 30
0.0
 11
202.5
 21
-2432.5000000000009095
 31
0.0
1001
ACDBBLOCKREPETAG
1070
     1
1071
       12
1005
128D88
  0
ARC
  5
128D89
  8
OBJECT
 10
202.5
 20
-2429.5000000000009095
 30
0.0
 40
3.0
 50
270.0
 51
0.0
1001
ACDBBLOCKREPETAG
1070
     1
1071
       13
1005
128D89
  0
LINE
  5
128D8A
  8
OBJECT
 10
205.5
 20
-2429.5000000000009095
 30
0.0
 11
205.5000000000009095
 21
-2404.3449199129790941
 31
0.0
1001
ACDBBLOCKREPETAG
1070
     1
1071
       15
1005
128D8A
  0
LINE
  5
128D8B
  8
OBJECT
 10
106.5
 20
-2429.4999999999990905
 30
0.0
 11
106.5000000000008953
 21
-2404.3449199129800036
 31
0.0
1001
ACDBBLOCKREPETAG
1070
     1
1071
       16
1005
128D8B
  0
ARC
  5
128D8C
  8
OBJECT
 10
109.5
 20
-2429.4999999999990905
 30
0.0
 40
3.0
 50
180.0
 51
270.0
1001
ACDBBLOCKREPETAG
1070
     1
1071
       17
1005
128D8C
  0
INSERT
  5
128D8D
  8
SLIM
  2
*U199
 10
0.0
 20
0.0
 30
0.0
  0
LINE
  5
128D8E
  8
HIDDEN
 10
186.0
 20
-2436.0
 30
0.0
 11
126.0
 21
-2436.0
 31
0.0
1001
ACDBBLOCKREPETAG
1070
     1
1071
       56
1005
128D8E
  0
CIRCLE
  5
128D8F
  8
OBJECT
 10
516.0
 20
-2348.0
 30
0.0
 40
70.0
1001
ACDBBLOCKREPETAG
1070
     1
1071
       50
1005
128D8F
  0
CIRCLE
  5
128D90
  8
OBJECT
 10
516.0
 20
-2348.0
 30
0.0
 40
75.0
1001
ACDBBLOCKREPETAG
1070
     1
1071
       51
1005
128D90
  0
POINT
  5
128D91
  8
DOTS
 10
516.0
 20
-2348.0
 30
0.0
1001
ACDBBLOCKREPETAG
1070
     1
1071
       63
1005
128D91
  0
ARC
  5
128D92
  8
OBJECT
 10
516.0
 20
-2348.0
 30
0.0
 40
55.0
 50
299.3022457642791778
 51
240.6977542359890094
1001
ACDBBLOCKREPETAG
1070
     1
1071
       50
1005
128D8F
  0
LINE
  5
128D93
  8
OBJECT
 10
492.1757960752511281
 20
-2393.6779614447550557
 30
0.0
 11
484.1876176729982717
 21
-2399.5774584435480392
 31
0.0
  0
ARC
  5
128D94
  8
OBJECT
 10
495.1461853586350799
 20
-2397.6999991752040842
 30
0.0
 40
5.0
 50
90.0
 51
126.446922476079493
  0
LINE
  5
128D95
  8
OBJECT
 10
539.8242039246960076
 20
-2393.6779614446281812
 30
0.0
 11
547.8124539800936645
 21
-2399.5775113607778621
 31
0.0
  0
ARC
  5
128D96
  8
OBJECT
 10
536.8538146414830408
 20
-2397.6999991752040842
 30
0.0
 40
5.0
 50
53.5530775262758496
 51
90.0
  0
LINE
  5
128D97
  8
OBJECT
 10
536.8538146414830408
 20
-2392.6999991752040842
 30
0.0
 11
495.1461853586350799
 21
-2392.6999991752040842
 31
0.0
  0
ARC
  5
128D98
  8
OBJECT
 10
543.0598311269532132
 20
-2406.0127717297000345
 30
0.0
 40
8.0
 50
16.476216247971049
 51
53.5530775262758496
  0
ARC
  5
128D99
  8
OBJECT
 10
488.9401688730449109
 20
-2406.0127717297000345
 30
0.0
 40
8.0
 50
126.4469224737241007
 51
163.5237837520288906
  0
LINE
  5
128D9A
  8
OBJECT
 10
481.2686684859746151
 20
-2403.7438332529759464
 30
0.0
 11
480.0
 21
-2408.0333240792169818
 31
0.0
  0
LINE
  5
128D9B
  8
OBJECT
 10
550.7313315140254417
 20
-2403.7438332529759464
 30
0.0
 11
552.0
 21
-2408.0333240792169818
 31
0.0
  0
LINE
  5
128D9C
  8
OBJECT
 10
571.0
 20
-2481.0
 30
0.0
 11
571.0
 21
-2488.0
 31
0.0
1001
ACDBBLOCKREPETAG
1070
     1
1071
       18
1005
128D9C
  0
LINE
  5
128D9D
  8
OBJECT
 10
571.0
 20
-2488.0
 30
0.0
 11
461.0
 21
-2488.0
 31
0.0
1001
ACDBBLOCKREPETAG
1070
     1
1071
       19
1005
128D9D
  0
LINE
  5
128D9E
  8
OBJECT
 10
461.0
 20
-2488.0
 30
0.0
 11
461.0
 21
-2481.0
 31
0.0
1001
ACDBBLOCKREPETAG
1070
     1
1071
       20
1005
128D9E
  0
LINE
  5
128D9F
  8
OBJECT
 10
461.0
 20
-2481.0
 30
0.0
 11
571.0
 21
-2481.0
 31
0.0
1001
ACDBBLOCKREPETAG
1070
     1
1071
       21
1005
128D9F
  0
LINE
  5
128DA0
  8
OBJECT
 10
568.0
 20
-2481.0
 30
0.0
 11
568.0
 21
-2445.0
 31
0.0
1001
ACDBBLOCKREPETAG
1070
     1
1071
       22
1005
128DA0
  0
LINE
  5
128DA1
  8
OBJECT
 10
568.0
 20
-2445.0
 30
0.0
 11
464.0
 21
-2445.0
 31
0.0
1001
ACDBBLOCKREPETAG
1070
     1
1071
       23
1005
128DA1
  0
LINE
  5
128DA2
  8
OBJECT
 10
464.0
 20
-2445.0
 30
0.0
 11
464.0
 21
-2481.0
 31
0.0
1001
ACDBBLOCKREPETAG
1070
     1
1071
       24
1005
128DA2
  0
LINE
  5
128DA3
  8
OBJECT
 10
563.4999999999998863
 20
-2441.0
 30
0.0
 11
563.4999999999998863
 21
-2432.5000000000009095
 31
0.0
1001
ACDBBLOCKREPETAG
1070
     1
1071
       25
1005
128DA3
  0
LINE
  5
128DA4
  8
OBJECT
 10
468.5
 20
-2432.5
 30
0.0
 11
468.5
 21
-2441.0
 31
0.0
1001
ACDBBLOCKREPETAG
1070
     1
1071
       26
1005
128DA4
  0
LINE
  5
128DA5
  8
OBJECT
 10
468.5
 20
-2441.0
 30
0.0
 11
563.4999999999998863
 21
-2441.0
 31
0.0
1001
ACDBBLOCKREPETAG
1070
     1
1071
       27
1005
128DA5
  0
LINE
  5
128DA6
  8
OBJECT
 10
568.0
 20
-2445.0
 30
0.0
 11
563.4999999999998863
 21
-2441.0
 31
0.0
1001
ACDBBLOCKREPETAG
1070
     1
1071
       28
1005
128DA6
  0
LINE
  5
128DA7
  8
OBJECT
 10
464.0
 20
-2445.0
 30
0.0
 11
468.5
 21
-2441.0
 31
0.0
1001
ACDBBLOCKREPETAG
1070
     1
1071
       29
1005
128DA7
  0
LINE
  5
128DA8
  8
OBJECT
 10
466.5
 20
-2432.4999999999990905
 30
0.0
 11
565.5
 21
-2432.5000000000009095
 31
0.0
1001
ACDBBLOCKREPETAG
1070
     1
1071
       30
1005
128DA8
  0
LINE
  5
128DA9
  8
OBJECT
 10
565.5
 20
-2432.5000000000009095
 30
0.0
 11
565.4999999999990905
 21
-2404.3449199129800036
 31
0.0
1001
ACDBBLOCKREPETAG
1070
     1
1071
       31
1005
128DA9
  0
LINE
  5
128DAA
  8
OBJECT
 10
466.5
 20
-2432.4999999999990905
 30
0.0
 11
466.4999999999990905
 21
-2404.3449199129781846
 31
0.0
1001
ACDBBLOCKREPETAG
1070
     1
1071
       32
1005
128DAA
  0
INSERT
  5
128DAB
  8
SLIM
  2
*U200
 10
0.0
 20
0.0
 30
0.0
  0
LINE
  5
128DAC
  8
HIDDEN
 10
554.0
 20
-2436.0
 30
0.0
 11
478.0
 21
-2436.0
 31
0.0
1001
ACDBBLOCKREPETAG
1070
     1
1071
       57
1005
128DAC
  0
CIRCLE
  5
128DAD
  8
OBJECT
 10
156.0
 20
-2812.0
 30
0.0
 40
70.0
1001
ACDBBLOCKREPETAG
1070
     1
1071
       50
1005
128DAD
  0
CIRCLE
  5
128DAE
  8
OBJECT
 10
156.0
 20
-2812.0
 30
0.0
 40
75.0
1001
ACDBBLOCKREPETAG
1070
     1
1071
       51
1005
128DAE
  0
POINT
  5
128DAF
  8
DOTS
 10
156.0
 20
-2812.0
 30
0.0
1001
ACDBBLOCKREPETAG
1070
     1
1071
       63
1005
128DAF
  0
ARC
  5
128DB0
  8
OBJECT
 10
156.0
 20
-2812.0
 30
0.0
 40
55.0
 50
299.3022457642807126
 51
240.6977542359875883
1001
ACDBBLOCKREPETAG
1070
     1
1071
       50
1005
128DAD
  0
LINE
  5
128DB1
  8
OBJECT
 10
132.1757960752510996
 20
-2857.6779614447550557
 30
0.0
 11
124.1876176729983996
 21
-2863.5774584435480392
 31
0.0
  0
ARC
  5
128DB2
  8
OBJECT
 10
135.1461853586351936
 20
-2861.6999991752040842
 30
0.0
 40
5.0
 50
90.0
 51
126.4469224760808004
  0
LINE
  5
128DB3
  8
OBJECT
 10
179.8242039246960928
 20
-2857.6779614446281812
 30
0.0
 11
187.8124539800938066
 21
-2863.5775113607778621
 31
0.0
  0
ARC
  5
128DB4
  8
OBJECT
 10
176.8538146414830123
 20
-2861.6999991752040842
 30
0.0
 40
5.0
 50
53.5530775262745422
 51
90.0
  0
LINE
  5
128DB5
  8
OBJECT
 10
176.8538146414830123
 20
-2856.6999991752040842
 30
0.0
 11
135.1461853586351936
 21
-2856.6999991752040842
 31
0.0
  0
ARC
  5
128DB6
  8
OBJECT
 10
183.0598311269532132
 20
-2870.0127717297000345
 30
0.0
 40
8.0
 50
16.476216247971049
 51
53.5530775262745422
  0
ARC
  5
128DB7
  8
OBJECT
 10
128.9401688730449962
 20
-2870.0127717297000345
 30
0.0
 40
8.0
 50
126.4469224737253938
 51
163.5237837520288906
  0
LINE
  5
128DB8
  8
OBJECT
 10
121.2686684859745014
 20
-2867.7438332529768559
 30
0.0
 11
120.0
 21
-2872.0333240792169818
 31
0.0
  0
LINE
  5
128DB9
  8
OBJECT
 10
190.7313315140254133
 20
-2867.7438332529768559
 30
0.0
 11
192.0
 21
-2872.0333240792169818
 31
0.0
  0
LINE
  5
128DBA
  8
OBJECT
 10
218.0
 20
-2945.0
 30
0.0
 11
218.0
 21
-2952.0
 31
0.0
1001
ACDBBLOCKREPETAG
1070
     1
1071
       34
1005
128DBA
  0
LINE
  5
128DBB
  8
OBJECT
 10
218.0
 20
-2952.0
 30
0.0
 11
94.0
 21
-2952.0
 31
0.0
1001
ACDBBLOCKREPETAG
1070
     1
1071
       35
1005
128DBB
  0
LINE
  5
128DBC
  8
OBJECT
 10
94.0
 20
-2952.0
 30
0.0
 11
94.0
 21
-2945.0
 31
0.0
1001
ACDBBLOCKREPETAG
1070
     1
1071
       36
1005
128DBC
  0
LINE
  5
128DBD
  8
OBJECT
 10
94.0
 20
-2945.0
 30
0.0
 11
218.0
 21
-2945.0
 31
0.0
1001
ACDBBLOCKREPETAG
1070
     1
1071
       37
1005
128DBD
  0
LINE
  5
128DBE
  8
OBJECT
 10
215.0
 20
-2945.0
 30
0.0
 11
215.0
 21
-2909.0
 31
0.0
1001
ACDBBLOCKREPETAG
1070
     1
1071
       38
1005
128DBE
  0
LINE
  5
128DBF
  8
OBJECT
 10
215.0
 20
-2909.0
 30
0.0
 11
97.0
 21
-2909.0
 31
0.0
1001
ACDBBLOCKREPETAG
1070
     1
1071
       39
1005
128DBF
  0
LINE
  5
128DC0
  8
OBJECT
 10
97.0
 20
-2909.0
 30
0.0
 11
97.0
 21
-2945.0
 31
0.0
1001
ACDBBLOCKREPETAG
1070
     1
1071
       40
1005
128DC0
  0
LINE
  5
128DC1
  8
OBJECT
 10
210.5
 20
-2905.0
 30
0.0
 11
210.5
 21
-2894.5
 31
0.0
1001
ACDBBLOCKREPETAG
1070
     1
1071
       41
1005
128DC1
  0
LINE
  5
128DC2
  8
OBJECT
 10
101.5
 20
-2894.5
 30
0.0
 11
101.5
 21
-2905.0
 31
0.0
1001
ACDBBLOCKREPETAG
1070
     1
1071
       42
1005
128DC2
  0
LINE
  5
128DC3
  8
OBJECT
 10
101.5
 20
-2905.0
 30
0.0
 11
210.5
 21
-2905.0
 31
0.0
1001
ACDBBLOCKREPETAG
1070
     1
1071
       43
1005
128DC3
  0
LINE
  5
128DC4
  8
OBJECT
 10
215.0
 20
-2909.0
 30
0.0
 11
210.5
 21
-2905.0
 31
0.0
1001
ACDBBLOCKREPETAG
1070
     1
1071
       44
1005
128DC4
  0
LINE
  5
128DC5
  8
OBJECT
 10
97.0
 20
-2909.0
 30
0.0
 11
101.5
 21
-2905.0
 31
0.0
1001
ACDBBLOCKREPETAG
1070
     1
1071
       45
1005
128DC5
  0
LINE
  5
128DC6
  8
OBJECT
 10
205.5
 20
-2889.5
 30
0.0
 11
205.4999999999990905
 21
-2868.3449199129790941
 31
0.0
1001
ACDBBLOCKREPETAG
1070
     1
1071
       46
1005
128DC6
  0
LINE
  5
128DC7
  8
OBJECT
 10
106.5
 20
-2889.5
 30
0.0
 11
106.5
 21
-2868.3449199129781846
 31
0.0
1001
ACDBBLOCKREPETAG
1070
     1
1071
       47
1005
128DC7
  0
LINE
  5
128DC8
  8
OBJECT
 10
210.5
 20
-2894.5
 30
0.0
 11
101.5
 21
-2894.5
 31
0.0
1001
ACDBBLOCKREPETAG
1070
     1
1071
       48
1005
128DC8
  0
LINE
  5
128DC9
  8
OBJECT
 10
205.5
 20
-2889.5
 30
0.0
 11
106.5
 21
-2889.5
 31
0.0
1001
ACDBBLOCKREPETAG
1070
     1
1071
       49
1005
128DC9
  0
LINE
  5
128DCA
  8
OBJECT
 10
210.5
 20
-2894.5
 30
0.0
 11
205.5
 21
-2889.5
 31
0.0
1001
ACDBBLOCKREPETAG
1070
     1
1071
       50
1005
128DCA
  0
LINE
  5
128DCB
  8
OBJECT
 10
106.5
 20
-2889.5
 30
0.0
 11
101.5000000000035953
 21
-2894.5
 31
0.0
1001
ACDBBLOCKREPETAG
1070
     1
1071
       51
1005
128DCB
  0
INSERT
  5
128DCC
  8
SLIM
  2
*U201
 10
0.0
 20
0.0
 30
0.0
  0
LINE
  5
128DCD
  8
HIDDEN
 10
200.5
 20
-2900.0
 30
0.0
 11
111.5
 21
-2900.0
 31
0.0
1001
ACDBBLOCKREPETAG
1070
     1
1071
       65
1005
128DCD
  0
LINE
  5
128DCE
  8
OBJECT
 10
289.0
 20
-908.9999999999998863
 30
0.0
 11
296.0
 21
-908.9999999999998863
 31
0.0
1001
ACDBBLOCKREPETAG
1070
     1
1071
        0
1005
128DCE
  0
LINE
  5
128DCF
  8
OBJECT
 10
296.0
 20
-908.9999999999998863
 30
0.0
 11
296.0
 21
-1003.0
 31
0.0
1001
ACDBBLOCKREPETAG
1070
     1
1071
        1
1005
128DCF
  0
LINE
  5
128DD0
  8
OBJECT
 10
296.0
 20
-1003.0
 30
0.0
 11
289.0
 21
-1003.0
 31
0.0
1001
ACDBBLOCKREPETAG
1070
     1
1071
        2
1005
128DD0
  0
LINE
  5
128DD1
  8
OBJECT
 10
289.0
 20
-1003.0
 30
0.0
 11
289.0
 21
-908.9999999999998863
 31
0.0
1001
ACDBBLOCKREPETAG
1070
     1
1071
        3
1005
128DD1
  0
LINE
  5
128DD2
  8
OBJECT
 10
289.0
 20
-911.9999999999998863
 30
0.0
 11
253.0
 21
-911.9999999999998863
 31
0.0
1001
ACDBBLOCKREPETAG
1070
     1
1071
        4
1005
128DD2
  0
LINE
  5
128DD3
  8
OBJECT
 10
253.0
 20
-911.9999999999998863
 30
0.0
 11
253.0
 21
-999.9999999999997726
 31
0.0
1001
ACDBBLOCKREPETAG
1070
     1
1071
        5
1005
128DD3
  0
LINE
  5
128DD4
  8
OBJECT
 10
253.0
 20
-999.9999999999997726
 30
0.0
 11
289.0
 21
-999.9999999999997726
 31
0.0
1001
ACDBBLOCKREPETAG
1070
     1
1071
        6
1005
128DD4
  0
LINE
  5
128DD5
  8
OBJECT
 10
249.0
 20
-916.4999999999998863
 30
0.0
 11
240.5000000000005116
 21
-916.4999999999998863
 31
0.0
1001
ACDBBLOCKREPETAG
1070
     1
1071
        7
1005
128DD5
  0
LINE
  5
128DD6
  8
OBJECT
 10
240.4999999999994884
 20
-995.4999999999997726
 30
0.0
 11
249.0
 21
-995.4999999999997726
 31
0.0
1001
ACDBBLOCKREPETAG
1070
     1
1071
        8
1005
128DD6
  0
LINE
  5
128DD7
  8
OBJECT
 10
249.0
 20
-995.4999999999997726
 30
0.0
 11
249.0
 21
-916.4999999999998863
 31
0.0
1001
ACDBBLOCKREPETAG
1070
     1
1071
        9
1005
128DD7
  0
LINE
  5
128DD8
  8
OBJECT
 10
253.0
 20
-911.9999999999998863
 30
0.0
 11
249.0
 21
-916.4999999999998863
 31
0.0
1001
ACDBBLOCKREPETAG
1070
     1
1071
       10
1005
128DD8
  0
LINE
  5
128DD9
  8
OBJECT
 10
253.0
 20
-999.9999999999997726
 30
0.0
 11
249.0
 21
-995.4999999999997726
 31
0.0
1001
ACDBBLOCKREPETAG
1070
     1
1071
       11
1005
128DD9
  0
LINE
  5
128DDA
  8
OBJECT
 10
240.4999999999990905
 20
-1002.5
 30
0.0
 11
240.5000000000005116
 21
-909.4999999999997726
 31
0.0
1001
ACDBBLOCKREPETAG
1070
     1
1071
       12
1005
128DDA
  0
ARC
  5
128DDB
  8
OBJECT
 10
237.5000000000003979
 20
-909.4999999999997726
 30
0.0
 40
3.0
 50
0.0
 51
90.0
1001
ACDBBLOCKREPETAG
1070
     1
1071
       13
1005
128DDB
  0
LINE
  5
128DDC
  8
OBJECT
 10
237.5000000000003979
 20
-906.4999999999998863
 30
0.0
 11
212.344919912978412
 21
-906.4999999999989768
 31
0.0
1001
ACDBBLOCKREPETAG
1070
     1
1071
       15
1005
128DDC
  0
LINE
  5
128DDD
  8
OBJECT
 10
237.4999999999990905
 20
-1005.5
 30
0.0
 11
212.344919912979293
 21
-1005.4999999999989768
 31
0.0
1001
ACDBBLOCKREPETAG
1070
     1
1071
       16
1005
128DDD
  0
ARC
  5
128DDE
  8
OBJECT
 10
237.4999999999990905
 20
-1002.5
 30
0.0
 40
3.0
 50
270.0
 51
0.0
1001
ACDBBLOCKREPETAG
1070
     1
1071
       17
1005
128DDE
  0
INSERT
  5
128DDF
  8
SLIM
  2
*U202
 10
0.0
 20
0.0
 30
0.0
  0
LINE
  5
128DE0
  8
HIDDEN
 10
244.0
 20
-925.9999999999998863
 30
0.0
 11
244.0
 21
-985.9999999999998863
 31
0.0
1001
ACDBBLOCKREPETAG
1070
     1
1071
       56
1005
128DE0
  0
LINE
  5
128DE1
  8
OBJECT
 10
648.9999999998781277
 20
-909.0000000000005684
 30
0.0
 11
655.9999999998781277
 21
-909.0000000000005684
 31
0.0
1001
ACDBBLOCKREPETAG
1070
     1
1071
        0
1005
128DE1
  0
LINE
  5
128DE2
  8
OBJECT
 10
655.9999999998781277
 20
-909.0000000000005684
 30
0.0
 11
655.9999999998781277
 21
-1003.0000000000010232
 31
0.0
1001
ACDBBLOCKREPETAG
1070
     1
1071
        1
1005
128DE2
  0
LINE
  5
128DE3
  8
OBJECT
 10
655.9999999998781277
 20
-1003.0000000000010232
 30
0.0
 11
648.9999999998781277
 21
-1003.0000000000010232
 31
0.0
1001
ACDBBLOCKREPETAG
1070
     1
1071
        2
1005
128DE3
  0
LINE
  5
128DE4
  8
OBJECT
 10
648.9999999998781277
 20
-1003.0000000000010232
 30
0.0
 11
648.9999999998781277
 21
-909.0000000000005684
 31
0.0
1001
ACDBBLOCKREPETAG
1070
     1
1071
        3
1005
128DE4
  0
LINE
  5
128DE5
  8
OBJECT
 10
648.9999999998781277
 20
-912.0000000000005684
 30
0.0
 11
612.9999999998781277
 21
-912.0000000000005684
 31
0.0
1001
ACDBBLOCKREPETAG
1070
     1
1071
        4
1005
128DE5
  0
LINE
  5
128DE6
  8
OBJECT
 10
612.9999999998781277
 20
-912.0000000000005684
 30
0.0
 11
612.9999999998781277
 21
-1000.0
 31
0.0
1001
ACDBBLOCKREPETAG
1070
     1
1071
        5
1005
128DE6
  0
LINE
  5
128DE7
  8
OBJECT
 10
612.9999999998781277
 20
-1000.0
 30
0.0
 11
648.9999999998781277
 21
-1000.0
 31
0.0
1001
ACDBBLOCKREPETAG
1070
     1
1071
        6
1005
128DE7
  0
LINE
  5
128DE8
  8
OBJECT
 10
608.9999999998781277
 20
-916.5000000000005684
 30
0.0
 11
600.4999999998784688
 21
-916.5000000000005684
 31
0.0
1001
ACDBBLOCKREPETAG
1070
     1
1071
        7
1005
128DE8
  0
LINE
  5
128DE9
  8
OBJECT
 10
600.4999999998775593
 20
-995.5000000000006821
 30
0.0
 11
608.9999999998781277
 21
-995.5000000000006821
 31
0.0
1001
ACDBBLOCKREPETAG
1070
     1
1071
        8
1005
128DE9
  0
LINE
  5
128DEA
  8
OBJECT
 10
608.9999999998781277
 20
-995.5000000000006821
 30
0.0
 11
608.9999999998781277
 21
-916.5000000000005684
 31
0.0
1001
ACDBBLOCKREPETAG
1070
     1
1071
        9
1005
128DEA
  0
LINE
  5
128DEB
  8
OBJECT
 10
612.9999999998781277
 20
-912.0000000000005684
 30
0.0
 11
608.9999999998781277
 21
-916.5000000000005684
 31
0.0
1001
ACDBBLOCKREPETAG
1070
     1
1071
       10
1005
128DEB
  0
LINE
  5
128DEC
  8
OBJECT
 10
612.9999999998781277
 20
-1000.0
 30
0.0
 11
608.9999999998781277
 21
-995.5000000000006821
 31
0.0
1001
ACDBBLOCKREPETAG
1070
     1
1071
       11
1005
128DEC
  0
LINE
  5
128DED
  8
OBJECT
 10
600.4999999998772182
 20
-1002.5000000000010232
 30
0.0
 11
600.4999999998784688
 21
-909.5000000000006821
 31
0.0
1001
ACDBBLOCKREPETAG
1070
     1
1071
       12
1005
128DED
  0
ARC
  5
128DEE
  8
OBJECT
 10
597.4999999998785825
 20
-909.5000000000006821
 30
0.0
 40
3.0
 50
0.0
 51
90.0
1001
ACDBBLOCKREPETAG
1070
     1
1071
       13
1005
128DEE
  0
LINE
  5
128DEF
  8
OBJECT
 10
597.4999999998785825
 20
-906.5000000000005684
 30
0.0
 11
572.3449199128565397
 21
-906.4999999999996589
 31
0.0
1001
ACDBBLOCKREPETAG
1070
     1
1071
       15
1005
128DEF
  0
LINE
  5
128DF0
  8
OBJECT
 10
597.4999999998772182
 20
-1005.5
 30
0.0
 11
572.3449199128574492
 21
-1005.5
 31
0.0
1001
ACDBBLOCKREPETAG
1070
     1
1071
       16
1005
128DF0
  0
ARC
  5
128DF1
  8
OBJECT
 10
597.4999999998772182
 20
-1002.5000000000010232
 30
0.0
 40
3.0
 50
270.0
 51
0.0
1001
ACDBBLOCKREPETAG
1070
     1
1071
       17
1005
128DF1
  0
INSERT
  5
128DF2
  8
SLIM
  2
*U203
 10
0.0
 20
0.0
 30
0.0
  0
LINE
  5
128DF3
  8
HIDDEN
 10
603.9999999998781277
 20
-926.0000000000005684
 30
0.0
 11
603.9999999998781277
 21
-986.0000000000005684
 31
0.0
1001
ACDBBLOCKREPETAG
1070
     1
1071
       56
1005
128DF3
  0
LINE
  5
128DF4
  8
OBJECT
 10
289.0
 20
-1372.9999999998431122
 30
0.0
 11
296.0
 21
-1372.9999999998431122
 31
0.0
1001
ACDBBLOCKREPETAG
1070
     1
1071
        0
1005
128DF4
  0
LINE
  5
128DF5
  8
OBJECT
 10
296.0
 20
-1372.9999999998431122
 30
0.0
 11
296.0
 21
-1466.9999999998419753
 31
0.0
1001
ACDBBLOCKREPETAG
1070
     1
1071
        1
1005
128DF5
  0
LINE
  5
128DF6
  8
OBJECT
 10
296.0
 20
-1466.9999999998419753
 30
0.0
 11
289.0
 21
-1466.9999999998419753
 31
0.0
1001
ACDBBLOCKREPETAG
1070
     1
1071
        2
1005
128DF6
  0
LINE
  5
128DF7
  8
OBJECT
 10
289.0
 20
-1466.9999999998419753
 30
0.0
 11
289.0
 21
-1372.9999999998431122
 31
0.0
1001
ACDBBLOCKREPETAG
1070
     1
1071
        3
1005
128DF7
  0
LINE
  5
128DF8
  8
OBJECT
 10
289.0
 20
-1375.9999999998431122
 30
0.0
 11
253.0
 21
-1375.9999999998431122
 31
0.0
1001
ACDBBLOCKREPETAG
1070
     1
1071
        4
1005
128DF8
  0
LINE
  5
128DF9
  8
OBJECT
 10
253.0
 20
-1375.9999999998431122
 30
0.0
 11
253.0
 21
-1463.9999999998431122
 31
0.0
1001
ACDBBLOCKREPETAG
1070
     1
1071
        5
1005
128DF9
  0
LINE
  5
128DFA
  8
OBJECT
 10
253.0
 20
-1463.9999999998431122
 30
0.0
 11
289.0
 21
-1463.9999999998431122
 31
0.0
1001
ACDBBLOCKREPETAG
1070
     1
1071
        6
1005
128DFA
  0
LINE
  5
128DFB
  8
OBJECT
 10
249.0
 20
-1380.4999999998431122
 30
0.0
 11
240.5000000000005116
 21
-1380.4999999998431122
 31
0.0
1001
ACDBBLOCKREPETAG
1070
     1
1071
        7
1005
128DFB
  0
LINE
  5
128DFC
  8
OBJECT
 10
240.4999999999994884
 20
-1459.4999999998431122
 30
0.0
 11
249.0
 21
-1459.4999999998431122
 31
0.0
1001
ACDBBLOCKREPETAG
1070
     1
1071
        8
1005
128DFC
  0
LINE
  5
128DFD
  8
OBJECT
 10
249.0
 20
-1459.4999999998431122
 30
0.0
 11
249.0
 21
-1380.4999999998431122
 31
0.0
1001
ACDBBLOCKREPETAG
1070
     1
1071
        9
1005
128DFD
  0
LINE
  5
128DFE
  8
OBJECT
 10
253.0
 20
-1375.9999999998431122
 30
0.0
 11
249.0
 21
-1380.4999999998431122
 31
0.0
1001
ACDBBLOCKREPETAG
1070
     1
1071
       10
1005
128DFE
  0
LINE
  5
128DFF
  8
OBJECT
 10
253.0
 20
-1463.9999999998431122
 30
0.0
 11
249.0
 21
-1459.4999999998431122
 31
0.0
1001
ACDBBLOCKREPETAG
1070
     1
1071
       11
1005
128DFF
  0
LINE
  5
128E00
  8
OBJECT
 10
240.4999999999990905
 20
-1466.4999999998419753
 30
0.0
 11
240.5000000000005116
 21
-1373.4999999998419753
 31
0.0
1001
ACDBBLOCKREPETAG
1070
     1
1071
       12
1005
128E00
  0
ARC
  5
128E01
  8
OBJECT
 10
237.5000000000003979
 20
-1373.4999999998419753
 30
0.0
 40
3.0
 50
0.0
 51
90.0
1001
ACDBBLOCKREPETAG
1070
     1
1071
       13
1005
128E01
  0
LINE
  5
128E02
  8
OBJECT
 10
237.5000000000003979
 20
-1370.4999999998419753
 30
0.0
 11
212.344919912978412
 21
-1370.4999999998410658
 31
0.0
1001
ACDBBLOCKREPETAG
1070
     1
1071
       15
1005
128E02
  0
LINE
  5
128E03
  8
OBJECT
 10
237.4999999999990905
 20
-1469.4999999998419753
 30
0.0
 11
212.344919912979293
 21
-1469.4999999998419753
 31
0.0
1001
ACDBBLOCKREPETAG
1070
     1
1071
       16
1005
128E03
  0
ARC
  5
128E04
  8
OBJECT
 10
237.4999999999990905
 20
-1466.4999999998419753
 30
0.0
 40
3.0
 50
270.0
 51
0.0
1001
ACDBBLOCKREPETAG
1070
     1
1071
       17
1005
128E04
  0
INSERT
  5
128E05
  8
SLIM
  2
*U204
 10
0.0
 20
0.0
 30
0.0
  0
LINE
  5
128E06
  8
HIDDEN
 10
244.0
 20
-1389.9999999998419753
 30
0.0
 11
244.0
 21
-1449.9999999998419753
 31
0.0
1001
ACDBBLOCKREPETAG
1070
     1
1071
       56
1005
128E06
  0
LINE
  5
128E07
  8
OBJECT
 10
648.9999999998781277
 20
-1364.9999999998431122
 30
0.0
 11
655.9999999998781277
 21
-1364.9999999998431122
 31
0.0
1001
ACDBBLOCKREPETAG
1070
     1
1071
       18
1005
128E07
  0
LINE
  5
128E08
  8
OBJECT
 10
655.9999999998781277
 20
-1364.9999999998431122
 30
0.0
 11
655.9999999998781277
 21
-1474.9999999998419753
 31
0.0
1001
ACDBBLOCKREPETAG
1070
     1
1071
       19
1005
128E08
  0
LINE
  5
128E09
  8
OBJECT
 10
655.9999999998781277
 20
-1474.9999999998419753
 30
0.0
 11
648.9999999998781277
 21
-1474.9999999998419753
 31
0.0
1001
ACDBBLOCKREPETAG
1070
     1
1071
       20
1005
128E09
  0
LINE
  5
128E0A
  8
OBJECT
 10
648.9999999998781277
 20
-1474.9999999998419753
 30
0.0
 11
648.9999999998781277
 21
-1364.9999999998431122
 31
0.0
1001
ACDBBLOCKREPETAG
1070
     1
1071
       21
1005
128E0A
  0
LINE
  5
128E0B
  8
OBJECT
 10
648.9999999998781277
 20
-1367.9999999998431122
 30
0.0
 11
612.9999999998781277
 21
-1367.9999999998431122
 31
0.0
1001
ACDBBLOCKREPETAG
1070
     1
1071
       22
1005
128E0B
  0
LINE
  5
128E0C
  8
OBJECT
 10
612.9999999998781277
 20
-1367.9999999998431122
 30
0.0
 11
612.9999999998781277
 21
-1471.9999999998431122
 31
0.0
1001
ACDBBLOCKREPETAG
1070
     1
1071
       23
1005
128E0C
  0
LINE
  5
128E0D
  8
OBJECT
 10
612.9999999998781277
 20
-1471.9999999998431122
 30
0.0
 11
648.9999999998781277
 21
-1471.9999999998431122
 31
0.0
1001
ACDBBLOCKREPETAG
1070
     1
1071
       24
1005
128E0D
  0
LINE
  5
128E0E
  8
OBJECT
 10
608.9999999998781277
 20
-1372.4999999998431122
 30
0.0
 11
600.4999999998784688
 21
-1372.4999999998431122
 31
0.0
1001
ACDBBLOCKREPETAG
1070
     1
1071
       25
1005
128E0E
  0
LINE
  5
128E0F
  8
OBJECT
 10
600.4999999998775593
 20
-1467.4999999998431122
 30
0.0
 11
608.9999999998781277
 21
-1467.4999999998431122
 31
0.0
1001
ACDBBLOCKREPETAG
1070
     1
1071
       26
1005
128E0F
  0
LINE
  5
128E10
  8
OBJECT
 10
608.9999999998781277
 20
-1467.4999999998431122
 30
0.0
 11
608.9999999998781277
 21
-1372.4999999998431122
 31
0.0
1001
ACDBBLOCKREPETAG
1070
     1
1071
       27
1005
128E10
  0
LINE
  5
128E11
  8
OBJECT
 10
612.9999999998781277
 20
-1367.9999999998431122
 30
0.0
 11
608.9999999998781277
 21
-1372.4999999998431122
 31
0.0
1001
ACDBBLOCKREPETAG
1070
     1
1071
       28
1005
128E11
  0
LINE
  5
128E12
  8
OBJECT
 10
612.9999999998781277
 20
-1471.9999999998431122
 30
0.0
 11
608.9999999998781277
 21
-1467.4999999998431122
 31
0.0
1001
ACDBBLOCKREPETAG
1070
     1
1071
       29
1005
128E12
  0
LINE
  5
128E13
  8
OBJECT
 10
600.4999999998766498
 20
-1469.4999999998419753
 30
0.0
 11
600.4999999998784688
 21
-1370.4999999998419753
 31
0.0
1001
ACDBBLOCKREPETAG
1070
     1
1071
       30
1005
128E13
  0
LINE
  5
128E14
  8
OBJECT
 10
600.4999999998784688
 20
-1370.4999999998419753
 30
0.0
 11
572.3449199128576765
 21
-1370.4999999998431122
 31
0.0
1001
ACDBBLOCKREPETAG
1070
     1
1071
       31
1005
128E14
  0
LINE
  5
128E15
  8
OBJECT
 10
600.4999999998766498
 20
-1469.4999999998419753
 30
0.0
 11
572.3449199128565397
 21
-1469.4999999998431122
 31
0.0
1001
ACDBBLOCKREPETAG
1070
     1
1071
       32
1005
128E15
  0
INSERT
  5
128E16
  8
SLIM
  2
*U205
 10
0.0
 20
0.0
 30
0.0
  0
LINE
  5
128E17
  8
HIDDEN
 10
603.9999999998781277
 20
-1381.9999999998419753
 30
0.0
 11
603.9999999998781277
 21
-1457.9999999998419753
 31
0.0
1001
ACDBBLOCKREPETAG
1070
     1
1071
       57
1005
128E17
  0
LINE
  5
128E18
  8
OBJECT
 10
289.0
 20
-1828.9999999996839506
 30
0.0
 11
296.0
 21
-1828.9999999996839506
 31
0.0
1001
ACDBBLOCKREPETAG
1070
     1
1071
       18
1005
128E18
  0
LINE
  5
128E19
  8
OBJECT
 10
296.0
 20
-1828.9999999996839506
 30
0.0
 11
296.0
 21
-1938.9999999996839506
 31
0.0
1001
ACDBBLOCKREPETAG
1070
     1
1071
       19
1005
128E19
  0
LINE
  5
128E1A
  8
OBJECT
 10
296.0
 20
-1938.9999999996839506
 30
0.0
 11
289.0
 21
-1938.9999999996839506
 31
0.0
1001
ACDBBLOCKREPETAG
1070
     1
1071
       20
1005
128E1A
  0
LINE
  5
128E1B
  8
OBJECT
 10
289.0
 20
-1938.9999999996839506
 30
0.0
 11
289.0
 21
-1828.9999999996839506
 31
0.0
1001
ACDBBLOCKREPETAG
1070
     1
1071
       21
1005
128E1B
  0
LINE
  5
128E1C
  8
OBJECT
 10
289.0
 20
-1831.9999999996839506
 30
0.0
 11
253.0
 21
-1831.9999999996839506
 31
0.0
1001
ACDBBLOCKREPETAG
1070
     1
1071
       22
1005
128E1C
  0
LINE
  5
128E1D
  8
OBJECT
 10
253.0
 20
-1831.9999999996839506
 30
0.0
 11
253.0
 21
-1935.9999999996839506
 31
0.0
1001
ACDBBLOCKREPETAG
1070
     1
1071
       23
1005
128E1D
  0
LINE
  5
128E1E
  8
OBJECT
 10
253.0
 20
-1935.9999999996839506
 30
0.0
 11
289.0
 21
-1935.9999999996839506
 31
0.0
1001
ACDBBLOCKREPETAG
1070
     1
1071
       24
1005
128E1E
  0
LINE
  5
128E1F
  8
OBJECT
 10
249.0
 20
-1836.4999999996839506
 30
0.0
 11
240.5000000000005116
 21
-1836.4999999996839506
 31
0.0
1001
ACDBBLOCKREPETAG
1070
     1
1071
       25
1005
128E1F
  0
LINE
  5
128E20
  8
OBJECT
 10
240.4999999999994884
 20
-1931.4999999996839506
 30
0.0
 11
249.0
 21
-1931.4999999996839506
 31
0.0
1001
ACDBBLOCKREPETAG
1070
     1
1071
       26
1005
128E20
  0
LINE
  5
128E21
  8
OBJECT
 10
249.0
 20
-1931.4999999996839506
 30
0.0
 11
249.0
 21
-1836.4999999996839506
 31
0.0
1001
ACDBBLOCKREPETAG
1070
     1
1071
       27
1005
128E21
  0
LINE
  5
128E22
  8
OBJECT
 10
253.0
 20
-1831.9999999996839506
 30
0.0
 11
249.0
 21
-1836.4999999996839506
 31
0.0
1001
ACDBBLOCKREPETAG
1070
     1
1071
       28
1005
128E22
  0
LINE
  5
128E23
  8
OBJECT
 10
253.0
 20
-1935.9999999996839506
 30
0.0
 11
249.0
 21
-1931.4999999996839506
 31
0.0
1001
ACDBBLOCKREPETAG
1070
     1
1071
       29
1005
128E23
  0
LINE
  5
128E24
  8
OBJECT
 10
240.4999999999986073
 20
-1933.4999999996839506
 30
0.0
 11
240.5000000000005116
 21
-1834.4999999996839506
 31
0.0
1001
ACDBBLOCKREPETAG
1070
     1
1071
       30
1005
128E24
  0
LINE
  5
128E25
  8
OBJECT
 10
240.5000000000005116
 20
-1834.4999999996839506
 30
0.0
 11
212.3449199129796057
 21
-1834.4999999996850875
 31
0.0
1001
ACDBBLOCKREPETAG
1070
     1
1071
       31
1005
128E25
  0
LINE
  5
128E26
  8
OBJECT
 10
240.4999999999986073
 20
-1933.4999999996839506
 30
0.0
 11
212.344919912978412
 21
-1933.4999999996850875
 31
0.0
1001
ACDBBLOCKREPETAG
1070
     1
1071
       32
1005
128E26
  0
INSERT
  5
128E27
  8
SLIM
  2
*U206
 10
0.0
 20
0.0
 30
0.0
  0
LINE
  5
128E28
  8
HIDDEN
 10
244.0
 20
-1845.9999999996839506
 30
0.0
 11
244.0
 21
-1921.9999999996839506
 31
0.0
1001
ACDBBLOCKREPETAG
1070
     1
1071
       57
1005
128E28
  0
LINE
  5
128E29
  8
OBJECT
 10
648.9999999998781277
 20
-1828.9999999996839506
 30
0.0
 11
655.9999999998781277
 21
-1828.9999999996839506
 31
0.0
1001
ACDBBLOCKREPETAG
1070
     1
1071
       18
1005
128E29
  0
LINE
  5
128E2A
  8
OBJECT
 10
655.9999999998781277
 20
-1828.9999999996839506
 30
0.0
 11
655.9999999998781277
 21
-1938.9999999996839506
 31
0.0
1001
ACDBBLOCKREPETAG
1070
     1
1071
       19
1005
128E2A
  0
LINE
  5
128E2B
  8
OBJECT
 10
655.9999999998781277
 20
-1938.9999999996839506
 30
0.0
 11
648.9999999998781277
 21
-1938.9999999996839506
 31
0.0
1001
ACDBBLOCKREPETAG
1070
     1
1071
       20
1005
128E2B
  0
LINE
  5
128E2C
  8
OBJECT
 10
648.9999999998781277
 20
-1938.9999999996839506
 30
0.0
 11
648.9999999998781277
 21
-1828.9999999996839506
 31
0.0
1001
ACDBBLOCKREPETAG
1070
     1
1071
       21
1005
128E2C
  0
LINE
  5
128E2D
  8
OBJECT
 10
648.9999999998781277
 20
-1831.9999999996839506
 30
0.0
 11
612.9999999998781277
 21
-1831.9999999996839506
 31
0.0
1001
ACDBBLOCKREPETAG
1070
     1
1071
       22
1005
128E2D
  0
LINE
  5
128E2E
  8
OBJECT
 10
612.9999999998781277
 20
-1831.9999999996839506
 30
0.0
 11
612.9999999998781277
 21
-1935.9999999996839506
 31
0.0
1001
ACDBBLOCKREPETAG
1070
     1
1071
       23
1005
128E2E
  0
LINE
  5
128E2F
  8
OBJECT
 10
612.9999999998781277
 20
-1935.9999999996839506
 30
0.0
 11
648.9999999998781277
 21
-1935.9999999996839506
 31
0.0
1001
ACDBBLOCKREPETAG
1070
     1
1071
       24
1005
128E2F
  0
LINE
  5
128E30
  8
OBJECT
 10
608.9999999998781277
 20
-1836.4999999996839506
 30
0.0
 11
600.4999999998784688
 21
-1836.4999999996839506
 31
0.0
1001
ACDBBLOCKREPETAG
1070
     1
1071
       25
1005
128E30
  0
LINE
  5
128E31
  8
OBJECT
 10
600.4999999998775593
 20
-1931.4999999996839506
 30
0.0
 11
608.9999999998781277
 21
-1931.4999999996839506
 31
0.0
1001
ACDBBLOCKREPETAG
1070
     1
1071
       26
1005
128E31
  0
LINE
  5
128E32
  8
OBJECT
 10
608.9999999998781277
 20
-1931.4999999996839506
 30
0.0
 11
608.9999999998781277
 21
-1836.4999999996839506
 31
0.0
1001
ACDBBLOCKREPETAG
1070
     1
1071
       27
1005
128E32
  0
LINE
  5
128E33
  8
OBJECT
 10
612.9999999998781277
 20
-1831.9999999996839506
 30
0.0
 11
608.9999999998781277
 21
-1836.4999999996839506
 31
0.0
1001
ACDBBLOCKREPETAG
1070
     1
1071
       28
1005
128E33
  0
LINE
  5
128E34
  8
OBJECT
 10
612.9999999998781277
 20
-1935.9999999996839506
 30
0.0
 11
608.9999999998781277
 21
-1931.4999999996839506
 31
0.0
1001
ACDBBLOCKREPETAG
1070
     1
1071
       29
1005
128E34
  0
LINE
  5
128E35
  8
OBJECT
 10
600.4999999998766498
 20
-1933.4999999996839506
 30
0.0
 11
600.4999999998784688
 21
-1834.4999999996839506
 31
0.0
1001
ACDBBLOCKREPETAG
1070
     1
1071
       30
1005
128E35
  0
LINE
  5
128E36
  8
OBJECT
 10
600.4999999998784688
 20
-1834.4999999996839506
 30
0.0
 11
572.3449199128576765
 21
-1834.4999999996850875
 31
0.0
1001
ACDBBLOCKREPETAG
1070
     1
1071
       31
1005
128E36
  0
LINE
  5
128E37
  8
OBJECT
 10
600.4999999998766498
 20
-1933.4999999996839506
 30
0.0
 11
572.3449199128565397
 21
-1933.4999999996850875
 31
0.0
1001
ACDBBLOCKREPETAG
1070
     1
1071
       32
1005
128E37
  0
INSERT
  5
128E38
  8
SLIM
  2
*U207
 10
0.0
 20
0.0
 30
0.0
  0
LINE
  5
128E39
  8
HIDDEN
 10
603.9999999998781277
 20
-1845.9999999996839506
 30
0.0
 11
603.9999999998781277
 21
-1921.9999999996839506
 31
0.0
1001
ACDBBLOCKREPETAG
1070
     1
1071
       57
1005
128E39
  0
LINE
  5
128E3A
  8
OBJECT
 10
289.0
 20
-2285.9999999995270628
 30
0.0
 11
296.0
 21
-2285.9999999995270628
 31
0.0
1001
ACDBBLOCKREPETAG
1070
     1
1071
       34
1005
128E3A
  0
LINE
  5
128E3B
  8
OBJECT
 10
296.0
 20
-2285.9999999995270628
 30
0.0
 11
296.0
 21
-2409.9999999995261533
 31
0.0
1001
ACDBBLOCKREPETAG
1070
     1
1071
       35
1005
128E3B
  0
LINE
  5
128E3C
  8
OBJECT
 10
296.0
 20
-2409.9999999995261533
 30
0.0
 11
289.0
 21
-2409.9999999995261533
 31
0.0
1001
ACDBBLOCKREPETAG
1070
     1
1071
       36
1005
128E3C
  0
LINE
  5
128E3D
  8
OBJECT
 10
289.0
 20
-2409.9999999995261533
 30
0.0
 11
289.0
 21
-2285.9999999995270628
 31
0.0
1001
ACDBBLOCKREPETAG
1070
     1
1071
       37
1005
128E3D
  0
LINE
  5
128E3E
  8
OBJECT
 10
289.0
 20
-2288.9999999995261533
 30
0.0
 11
253.0
 21
-2288.9999999995261533
 31
0.0
1001
ACDBBLOCKREPETAG
1070
     1
1071
       38
1005
128E3E
  0
LINE
  5
128E3F
  8
OBJECT
 10
253.0
 20
-2288.9999999995261533
 30
0.0
 11
253.0
 21
-2406.9999999995261533
 31
0.0
1001
ACDBBLOCKREPETAG
1070
     1
1071
       39
1005
128E3F
  0
LINE
  5
128E40
  8
OBJECT
 10
253.0
 20
-2406.9999999995261533
 30
0.0
 11
289.0
 21
-2406.9999999995261533
 31
0.0
1001
ACDBBLOCKREPETAG
1070
     1
1071
       40
1005
128E40
  0
LINE
  5
128E41
  8
OBJECT
 10
249.0
 20
-2293.4999999995261533
 30
0.0
 11
238.5
 21
-2293.4999999995261533
 31
0.0
1001
ACDBBLOCKREPETAG
1070
     1
1071
       41
1005
128E41
  0
LINE
  5
128E42
  8
OBJECT
 10
238.5
 20
-2402.4999999995261533
 30
0.0
 11
249.0
 21
-2402.4999999995261533
 31
0.0
1001
ACDBBLOCKREPETAG
1070
     1
1071
       42
1005
128E42
  0
LINE
  5
128E43
  8
OBJECT
 10
249.0
 20
-2402.4999999995261533
 30
0.0
 11
249.0
 21
-2293.4999999995261533
 31
0.0
1001
ACDBBLOCKREPETAG
1070
     1
1071
       43
1005
128E43
  0
LINE
  5
128E44
  8
OBJECT
 10
253.0
 20
-2288.9999999995261533
 30
0.0
 11
249.0
 21
-2293.4999999995261533
 31
0.0
1001
ACDBBLOCKREPETAG
1070
     1
1071
       44
1005
128E44
  0
LINE
  5
128E45
  8
OBJECT
 10
253.0
 20
-2406.9999999995261533
 30
0.0
 11
249.0
 21
-2402.4999999995261533
 31
0.0
1001
ACDBBLOCKREPETAG
1070
     1
1071
       45
1005
128E45
  0
LINE
  5
128E46
  8
OBJECT
 10
233.5
 20
-2298.4999999995261533
 30
0.0
 11
212.3449199129786109
 21
-2298.4999999995270628
 31
0.0
1001
ACDBBLOCKREPETAG
1070
     1
1071
       46
1005
128E46
  0
LINE
  5
128E47
  8
OBJECT
 10
233.5
 20
-2397.4999999995261533
 30
0.0
 11
212.3449199129777014
 21
-2397.4999999995261533
 31
0.0
1001
ACDBBLOCKREPETAG
1070
     1
1071
       47
1005
128E47
  0
LINE
  5
128E48
  8
OBJECT
 10
238.5
 20
-2293.4999999995261533
 30
0.0
 11
238.5
 21
-2402.4999999995261533
 31
0.0
1001
ACDBBLOCKREPETAG
1070
     1
1071
       48
1005
128E48
  0
LINE
  5
128E49
  8
OBJECT
 10
233.5
 20
-2298.4999999995261533
 30
0.0
 11
233.5
 21
-2397.4999999995261533
 31
0.0
1001
ACDBBLOCKREPETAG
1070
     1
1071
       49
1005
128E49
  0
LINE
  5
128E4A
  8
OBJECT
 10
238.5
 20
-2293.4999999995261533
 30
0.0
 11
233.5
 21
-2298.4999999995261533
 31
0.0
1001
ACDBBLOCKREPETAG
1070
     1
1071
       50
1005
128E4A
  0
LINE
  5
128E4B
  8
OBJECT
 10
233.5
 20
-2397.4999999995261533
 30
0.0
 11
238.5
 21
-2402.49999999952297
 31
0.0
1001
ACDBBLOCKREPETAG
1070
     1
1071
       51
1005
128E4B
  0
INSERT
  5
128E4C
  8
SLIM
  2
*U208
 10
0.0
 20
0.0
 30
0.0
  0
LINE
  5
128E4D
  8
HIDDEN
 10
244.0
 20
-2303.4999999995261533
 30
0.0
 11
244.0
 21
-2392.4999999995261533
 31
0.0
1001
ACDBBLOCKREPETAG
1070
     1
1071
       65
1005
128E4D
  0
LINE
  5
128E4E
  8
OBJECT
 10
648.9999999998781277
 20
-2285.9999999995270628
 30
0.0
 11
655.9999999998781277
 21
-2285.9999999995270628
 31
0.0
1001
ACDBBLOCKREPETAG
1070
     1
1071
       34
1005
128E4E
  0
LINE
  5
128E4F
  8
OBJECT
 10
655.9999999998781277
 20
-2285.9999999995270628
 30
0.0
 11
655.9999999998781277
 21
-2409.9999999995261533
 31
0.0
1001
ACDBBLOCKREPETAG
1070
     1
1071
       35
1005
128E4F
  0
LINE
  5
128E50
  8
OBJECT
 10
655.9999999998781277
 20
-2409.9999999995261533
 30
0.0
 11
648.9999999998781277
 21
-2409.9999999995261533
 31
0.0
1001
ACDBBLOCKREPETAG
1070
     1
1071
       36
1005
128E50
  0
LINE
  5
128E51
  8
OBJECT
 10
648.9999999998781277
 20
-2409.9999999995261533
 30
0.0
 11
648.9999999998781277
 21
-2285.9999999995270628
 31
0.0
1001
ACDBBLOCKREPETAG
1070
     1
1071
       37
1005
128E51
  0
LINE
  5
128E52
  8
OBJECT
 10
648.9999999998781277
 20
-2288.9999999995261533
 30
0.0
 11
612.9999999998781277
 21
-2288.9999999995261533
 31
0.0
1001
ACDBBLOCKREPETAG
1070
     1
1071
       38
1005
128E52
  0
LINE
  5
128E53
  8
OBJECT
 10
612.9999999998781277
 20
-2288.9999999995261533
 30
0.0
 11
612.9999999998781277
 21
-2406.9999999995261533
 31
0.0
1001
ACDBBLOCKREPETAG
1070
     1
1071
       39
1005
128E53
  0
LINE
  5
128E54
  8
OBJECT
 10
612.9999999998781277
 20
-2406.9999999995261533
 30
0.0
 11
648.9999999998781277
 21
-2406.9999999995261533
 31
0.0
1001
ACDBBLOCKREPETAG
1070
     1
1071
       40
1005
128E54
  0
LINE
  5
128E55
  8
OBJECT
 10
608.9999999998781277
 20
-2293.4999999995261533
 30
0.0
 11
598.4999999998781277
 21
-2293.4999999995261533
 31
0.0
1001
ACDBBLOCKREPETAG
1070
     1
1071
       41
1005
128E55
  0
LINE
  5
128E56
  8
OBJECT
 10
598.4999999998781277
 20
-2402.4999999995261533
 30
0.0
 11
608.9999999998781277
 21
-2402.4999999995261533
 31
0.0
1001
ACDBBLOCKREPETAG
1070
     1
1071
       42
1005
128E56
  0
LINE
  5
128E57
  8
OBJECT
 10
608.9999999998781277
 20
-2402.4999999995261533
 30
0.0
 11
608.9999999998781277
 21
-2293.4999999995261533
 31
0.0
1001
ACDBBLOCKREPETAG
1070
     1
1071
       43
1005
128E57
  0
LINE
  5
128E58
  8
OBJECT
 10
612.9999999998781277
 20
-2288.9999999995261533
 30
0.0
 11
608.9999999998781277
 21
-2293.4999999995261533
 31
0.0
1001
ACDBBLOCKREPETAG
1070
     1
1071
       44
1005
128E58
  0
LINE
  5
128E59
  8
OBJECT
 10
612.9999999998781277
 20
-2406.9999999995261533
 30
0.0
 11
608.9999999998781277
 21
-2402.4999999995261533
 31
0.0
1001
ACDBBLOCKREPETAG
1070
     1
1071
       45
1005
128E59
  0
LINE
  5
128E5A
  8
OBJECT
 10
593.4999999998781277
 20
-2298.4999999995261533
 30
0.0
 11
572.3449199128566534
 21
-2298.4999999995270628
 31
0.0
1001
ACDBBLOCKREPETAG
1070
     1
1071
       46
1005
128E5A
  0
LINE
  5
128E5B
  8
OBJECT
 10
593.4999999998781277
 20
-2397.4999999995261533
 30
0.0
 11
572.3449199128557439
 21
-2397.4999999995261533
 31
0.0
1001
ACDBBLOCKREPETAG
1070
     1
1071
       47
1005
128E5B
  0
LINE
  5
128E5C
  8
OBJECT
 10
598.4999999998781277
 20
-2293.4999999995261533
 30
0.0
 11
598.4999999998781277
 21
-2402.4999999995261533
 31
0.0
1001
ACDBBLOCKREPETAG
1070
     1
1071
       48
1005
128E5C
  0
LINE
  5
128E5D
  8
OBJECT
 10
593.4999999998781277
 20
-2298.4999999995261533
 30
0.0
 11
593.4999999998781277
 21
-2397.4999999995261533
 31
0.0
1001
ACDBBLOCKREPETAG
1070
     1
1071
       49
1005
128E5D
  0
LINE
  5
128E5E
  8
OBJECT
 10
598.4999999998781277
 20
-2293.4999999995261533
 30
0.0
 11
593.4999999998781277
 21
-2298.4999999995261533
 31
0.0
1001
ACDBBLOCKREPETAG
1070
     1
1071
       50
1005
128E5E
  0
LINE
  5
128E5F
  8
OBJECT
 10
593.4999999998781277
 20
-2397.4999999995261533
 30
0.0
 11
598.4999999998781277
 21
-2402.49999999952297
 31
0.0
1001
ACDBBLOCKREPETAG
1070
     1
1071
       51
1005
128E5F
  0
INSERT
  5
128E60
  8
SLIM
  2
*U209
 10
0.0
 20
0.0
 30
0.0
  0
LINE
  5
128E61
  8
HIDDEN
 10
603.9999999998781277
 20
-2303.4999999995261533
 30
0.0
 11
603.9999999998781277
 21
-2392.4999999995261533
 31
0.0
1001
ACDBBLOCKREPETAG
1070
     1
1071
       65
1005
128E61
  0
LINE
  5
128E62
  8
OBJECT
 10
289.0
 20
-2749.9999999993679012
 30
0.0
 11
296.0
 21
-2749.9999999993679012
 31
0.0
1001
ACDBBLOCKREPETAG
1070
     1
1071
       34
1005
128E62
  0
LINE
  5
128E63
  8
OBJECT
 10
296.0
 20
-2749.9999999993679012
 30
0.0
 11
296.0
 21
-2873.9999999993679012
 31
0.0
1001
ACDBBLOCKREPETAG
1070
     1
1071
       35
1005
128E63
  0
LINE
  5
128E64
  8
OBJECT
 10
296.0
 20
-2873.9999999993679012
 30
0.0
 11
289.0
 21
-2873.9999999993679012
 31
0.0
1001
ACDBBLOCKREPETAG
1070
     1
1071
       36
1005
128E64
  0
LINE
  5
128E65
  8
OBJECT
 10
289.0
 20
-2873.9999999993679012
 30
0.0
 11
289.0
 21
-2749.9999999993679012
 31
0.0
1001
ACDBBLOCKREPETAG
1070
     1
1071
       37
1005
128E65
  0
LINE
  5
128E66
  8
OBJECT
 10
289.0
 20
-2752.9999999993679012
 30
0.0
 11
253.0
 21
-2752.9999999993679012
 31
0.0
1001
ACDBBLOCKREPETAG
1070
     1
1071
       38
1005
128E66
  0
LINE
  5
128E67
  8
OBJECT
 10
253.0
 20
-2752.9999999993679012
 30
0.0
 11
253.0
 21
-2870.9999999993679012
 31
0.0
1001
ACDBBLOCKREPETAG
1070
     1
1071
       39
1005
128E67
  0
LINE
  5
128E68
  8
OBJECT
 10
253.0
 20
-2870.9999999993679012
 30
0.0
 11
289.0
 21
-2870.9999999993679012
 31
0.0
1001
ACDBBLOCKREPETAG
1070
     1
1071
       40
1005
128E68
  0
LINE
  5
128E69
  8
OBJECT
 10
249.0
 20
-2757.4999999993679012
 30
0.0
 11
238.5
 21
-2757.4999999993679012
 31
0.0
1001
ACDBBLOCKREPETAG
1070
     1
1071
       41
1005
128E69
  0
LINE
  5
128E6A
  8
OBJECT
 10
238.5
 20
-2866.4999999993679012
 30
0.0
 11
249.0
 21
-2866.4999999993679012
 31
0.0
1001
ACDBBLOCKREPETAG
1070
     1
1071
       42
1005
128E6A
  0
LINE
  5
128E6B
  8
OBJECT
 10
249.0
 20
-2866.4999999993679012
 30
0.0
 11
249.0
 21
-2757.4999999993679012
 31
0.0
1001
ACDBBLOCKREPETAG
1070
     1
1071
       43
1005
128E6B
  0
LINE
  5
128E6C
  8
OBJECT
 10
253.0
 20
-2752.9999999993679012
 30
0.0
 11
249.0
 21
-2757.4999999993679012
 31
0.0
1001
ACDBBLOCKREPETAG
1070
     1
1071
       44
1005
128E6C
  0
LINE
  5
128E6D
  8
OBJECT
 10
253.0
 20
-2870.9999999993679012
 30
0.0
 11
249.0
 21
-2866.4999999993679012
 31
0.0
1001
ACDBBLOCKREPETAG
1070
     1
1071
       45
1005
128E6D
  0
LINE
  5
128E6E
  8
OBJECT
 10
233.5
 20
-2762.4999999993679012
 30
0.0
 11
212.3449199129786109
 21
-2762.4999999993688107
 31
0.0
1001
ACDBBLOCKREPETAG
1070
     1
1071
       46
1005
128E6E
  0
LINE
  5
128E6F
  8
OBJECT
 10
233.5
 20
-2861.4999999993679012
 30
0.0
 11
212.3449199129777014
 21
-2861.4999999993679012
 31
0.0
1001
ACDBBLOCKREPETAG
1070
     1
1071
       47
1005
128E6F
  0
LINE
  5
128E70
  8
OBJECT
 10
238.5
 20
-2757.4999999993679012
 30
0.0
 11
238.5
 21
-2866.4999999993679012
 31
0.0
1001
ACDBBLOCKREPETAG
1070
     1
1071
       48
1005
128E70
  0
LINE
  5
128E71
  8
OBJECT
 10
233.5
 20
-2762.4999999993679012
 30
0.0
 11
233.5
 21
-2861.4999999993679012
 31
0.0
1001
ACDBBLOCKREPETAG
1070
     1
1071
       49
1005
128E71
  0
LINE
  5
128E72
  8
OBJECT
 10
238.5
 20
-2757.4999999993679012
 30
0.0
 11
233.5
 21
-2762.4999999993679012
 31
0.0
1001
ACDBBLOCKREPETAG
1070
     1
1071
       50
1005
128E72
  0
LINE
  5
128E73
  8
OBJECT
 10
233.5
 20
-2861.4999999993679012
 30
0.0
 11
238.5
 21
-2866.4999999993638085
 31
0.0
1001
ACDBBLOCKREPETAG
1070
     1
1071
       51
1005
128E73
  0
INSERT
  5
128E74
  8
SLIM
  2
*U210
 10
0.0
 20
0.0
 30
0.0
  0
LINE
  5
128E75
  8
HIDDEN
 10
244.0
 20
-2767.4999999993679012
 30
0.0
 11
244.0
 21
-2856.4999999993679012
 31
0.0
1001
ACDBBLOCKREPETAG
1070
     1
1071
       65
1005
128E75
  0
LINE
  5
128E76
  8
OBJECT
 10
2575.0
 20
-890.0000000000002274
 30
0.0
 11
2575.0
 21
-1163.0
 31
0.0
1001
ACDBBLOCKREPETAG
1070
     1
1071
        1
1005
128E76
  0
LINE
  5
128E77
  8
CENTER
 10
2500.0
 20
-890.0000000000002274
 30
0.0
 11
2500.0
 21
-1175.0
 31
0.0
1001
ACDBBLOCKREPETAG
1070
     1
1071
        6
1005
128E77
  0
LINE
  5
128E78
  8
OBJECT
 10
2420.0
 20
-1175.0
 30
0.0
 11
2580.0
 21
-1175.0
 31
0.0
1001
ACDBBLOCKREPETAG
1070
     1
1071
        7
1005
128E78
  0
LINE
  5
128E79
  8
OBJECT
 10
2420.0
 20
-1163.0
 30
0.0
 11
2580.0
 21
-1163.0
 31
0.0
1001
ACDBBLOCKREPETAG
1070
     1
1071
        8
1005
128E79
  0
LINE
  5
128E7A
  8
OBJECT
 10
2420.0
 20
-1163.0
 30
0.0
 11
2420.0
 21
-1175.0
 31
0.0
1001
ACDBBLOCKREPETAG
1070
     1
1071
        9
1005
128E7A
  0
LINE
  5
128E7B
  8
OBJECT
 10
2580.0
 20
-1163.0
 30
0.0
 11
2580.0
 21
-1175.0
 31
0.0
1001
ACDBBLOCKREPETAG
1070
     1
1071
       10
1005
128E7B
  0
POINT
  5
128E7C
  8
DOTS
 10
2500.0
 20
-1136.0
 30
0.0
  0
LINE
  5
128E7D
  8
OBJECT
 10
2425.0
 20
-890.0000000000002274
 30
0.0
 11
2425.0
 21
-1027.5000000000659384
 31
0.0
1001
ACDBBLOCKREPETAG
1070
     1
1071
        1
1005
128E76
  0
LINE
  5
128E7E
  8
OBJECT
 10
2367.0
 20
-1029.0
 30
0.0
 11
2360.0
 21
-1029.0
 31
0.0
1001
ACDBBLOCKREPETAG
1070
     1
1071
       23
1005
0
  0
LINE
  5
128E7F
  8
OBJECT
 10
2360.0
 20
-1029.0
 30
0.0
 11
2360.0
 21
-1136.0
 31
0.0
1001
ACDBBLOCKREPETAG
1070
     1
1071
       24
1005
0
  0
LINE
  5
128E80
  8
OBJECT
 10
2415.5
 20
-1030.5000000000650289
 30
0.0
 11
2415.5
 21
-1133.5
 31
0.0
1001
ACDBBLOCKREPETAG
1070
     1
1071
       25
1005
0
  0
ARC
  5
128E81
  8
OBJECT
 10
2418.5
 20
-1030.5000000000650289
 30
0.0
 40
3.0
 50
90.0
 51
180.0
1001
ACDBBLOCKREPETAG
1070
     1
1071
       26
1005
0
  0
LINE
  5
128E82
  8
OBJECT
 10
2367.0
 20
-1136.0
 30
0.0
 11
2367.0
 21
-1029.0
 31
0.0
1001
ACDBBLOCKREPETAG
1070
     1
1071
       27
1005
0
  0
LINE
  5
128E83
  8
CENTER
 10
2345.0
 20
-1084.0
 30
0.0
 11
2458.6550800869949853
 21
-1084.0000000000659384
 31
0.0
1001
ACDBBLOCKREPETAG
1070
     1
1071
       28
1005
0
  0
LINE
  5
128E84
  8
OBJECT
 10
2367.0
 20
-1032.0
 30
0.0
 11
2403.0
 21
-1032.0
 31
0.0
1001
ACDBBLOCKREPETAG
1070
     1
1071
       29
1005
0
  0
LINE
  5
128E85
  8
OBJECT
 10
2403.0
 20
-1032.0
 30
0.0
 11
2403.0
 21
-1136.0
 31
0.0
1001
ACDBBLOCKREPETAG
1070
     1
1071
       30
1005
0
  0
LINE
  5
128E86
  8
OBJECT
 10
2403.0
 20
-1136.0
 30
0.0
 11
2360.0
 21
-1136.0
 31
0.0
1001
ACDBBLOCKREPETAG
1070
     1
1071
       31
1005
0
  0
LINE
  5
128E87
  8
OBJECT
 10
2407.0
 20
-1036.5
 30
0.0
 11
2415.5
 21
-1036.5
 31
0.0
1001
ACDBBLOCKREPETAG
1070
     1
1071
       32
1005
0
  0
LINE
  5
128E88
  8
OBJECT
 10
2415.5
 20
-1131.5
 30
0.0
 11
2407.0
 21
-1131.5
 31
0.0
1001
ACDBBLOCKREPETAG
1070
     1
1071
       33
1005
0
  0
LINE
  5
128E89
  8
OBJECT
 10
2407.0
 20
-1131.5
 30
0.0
 11
2407.0
 21
-1036.5
 31
0.0
1001
ACDBBLOCKREPETAG
1070
     1
1071
       34
1005
0
  0
LINE
  5
128E8A
  8
OBJECT
 10
2403.0
 20
-1032.0
 30
0.0
 11
2407.0
 21
-1036.5
 31
0.0
1001
ACDBBLOCKREPETAG
1070
     1
1071
       35
1005
0
  0
LINE
  5
128E8B
  8
OBJECT
 10
2403.0
 20
-1136.0
 30
0.0
 11
2407.0
 21
-1131.5
 31
0.0
1001
ACDBBLOCKREPETAG
1070
     1
1071
       36
1005
0
  0
LINE
  5
128E8C
  8
HIDDEN
 10
2412.0
 20
-1046.0
 30
0.0
 11
2412.0
 21
-1122.0
 31
0.0
1001
ACDBBLOCKREPETAG
1070
     1
1071
       37
1005
0
  0
ARC
  5
128E8D
  8
OBJECT
 10
2335.1217271212258311
 20
-1092.4095072612290096
 30
0.0
 40
110.866352283089995
 50
16.9596461956619891
 51
35.8365725806952327
1001
ACDBBLOCKREPETAG
1070
     1
1071
       38
1005
0
  0
ARC
  5
128E8E
  8
OBJECT
 10
2382.8640112230928025
 20
-1077.2877497184490494
 30
0.0
 40
60.7917498803589709
 50
0.2712030171732199
 51
16.4527953477794995
1001
ACDBBLOCKREPETAG
1070
     1
1071
       39
1005
0
  0
ARC
  5
128E8F
  8
OBJECT
 10
2382.8640043437521854
 20
-1083.7122497599009421
 30
0.0
 40
60.7917567620948773
 50
343.5472205394723915
 51
359.7287965218546901
1001
ACDBBLOCKREPETAG
1070
     1
1071
       40
1005
0
  0
ARC
  5
128E90
  8
OBJECT
 10
2335.1217271212258311
 20
-1068.5904927388360193
 30
0.0
 40
110.8663522830916008
 50
324.16342741930481
 51
343.0403538043379967
1001
ACDBBLOCKREPETAG
1070
     1
1071
       41
1005
0
  0
LINE
  5
128E91
  8
OBJECT
 10
2443.6550800869958948
 20
-1077.000000000035925
 30
0.0
 11
2443.6550800869958948
 21
-1084.0000000000329692
 31
0.0
1001
ACDBBLOCKREPETAG
1070
     1
1071
       42
1005
0
  0
LINE
  5
128E92
  8
OBJECT
 10
2425.0
 20
-1027.5000000000659384
 30
0.0
 11
2418.5
 21
-1027.5000000000659384
 31
0.0
1001
ACDBBLOCKREPETAG
1070
     1
1071
       43
1005
0
  0
LINE
  5
128E93
  8
OBJECT
 10
2425.0
 20
-1133.5
 30
0.0
 11
2415.5
 21
-1133.5
 31
0.0
1001
ACDBBLOCKREPETAG
1070
     1
1071
       44
1005
0
  0
LINE
  5
128E94
  8
OBJECT
 10
2425.0
 20
-1133.5
 30
0.0
 11
2425.0
 21
-1163.0
 31
0.0
1001
ACDBBLOCKREPETAG
1070
     1
1071
        1
1005
128E76
  0
CIRCLE
  5
128E95
  8
OBJECT
 10
2500.0
 20
-1084.0
 30
0.0
 40
35.5
1001
ACDBBLOCKREPETAG
1070
     1
1071
       11
1005
128E95
  0
LINE
  5
128E96
  8
CENTER
 10
2430.0
 20
-1084.0
 30
0.0
 11
2570.0
 21
-1084.0
 31
0.0
1001
ACDBBLOCKREPETAG
1070
     1
1071
       12
1005
128E96
  0
CIRCLE
  5
128E97
  8
OBJECT
 10
2500.0
 20
-1084.0
 30
0.0
 40
47.0
1001
ACDBBLOCKREPETAG
1070
     1
1071
       14
1005
128E97
  0
ARC
  5
128E98
  8
OBJECT
 10
2500.0
 20
-1084.0
 30
0.0
 40
55.0
 50
289.011265260084599
 51
250.9887347399152873
1001
ACDBBLOCKREPETAG
1070
     1
1071
       15
1005
128E98
  0
LINE
  5
128E99
  8
OBJECT
 10
2482.0835271328328417
 20
-1136.0
 30
0.0
 11
2517.9164728671680678
 21
-1136.0
 31
0.0
1001
ACDBBLOCKREPETAG
1070
     1
1071
       16
1005
128E99
  0
LINE
  5
128E9A
  8
OBJECT
 10
4575.0
 20
-890.0
 30
0.0
 11
4575.0
 21
-1163.0
 31
0.0
1001
ACDBBLOCKREPETAG
1070
     1
1071
        1
1005
128E9A
  0
LINE
  5
128E9B
  8
CENTER
 10
4500.0
 20
-890.0
 30
0.0
 11
4500.0
 21
-1175.0
 31
0.0
1001
ACDBBLOCKREPETAG
1070
     1
1071
        6
1005
128E9B
  0
LINE
  5
128E9C
  8
OBJECT
 10
4420.0
 20
-1175.0
 30
0.0
 11
4580.0
 21
-1175.0
 31
0.0
1001
ACDBBLOCKREPETAG
1070
     1
1071
        7
1005
128E9C
  0
LINE
  5
128E9D
  8
OBJECT
 10
4420.0
 20
-1163.0
 30
0.0
 11
4580.0
 21
-1163.0
 31
0.0
1001
ACDBBLOCKREPETAG
1070
     1
1071
        8
1005
128E9D
  0
LINE
  5
128E9E
  8
OBJECT
 10
4420.0
 20
-1163.0
 30
0.0
 11
4420.0
 21
-1175.0
 31
0.0
1001
ACDBBLOCKREPETAG
1070
     1
1071
        9
1005
128E9E
  0
LINE
  5
128E9F
  8
OBJECT
 10
4580.0
 20
-1163.0
 30
0.0
 11
4580.0
 21
-1175.0
 31
0.0
1001
ACDBBLOCKREPETAG
1070
     1
1071
       10
1005
128E9F
  0
POINT
  5
128EA0
  8
DOTS
 10
4500.0
 20
-1136.0
 30
0.0
  0
LINE
  5
128EA1
  8
OBJECT
 10
4425.0
 20
-890.0
 30
0.0
 11
4425.0
 21
-1027.5000000000650289
 31
0.0
1001
ACDBBLOCKREPETAG
1070
     1
1071
        1
1005
128E9A
  0
LINE
  5
128EA2
  8
OBJECT
 10
4367.0
 20
-1029.0
 30
0.0
 11
4360.0
 21
-1029.0
 31
0.0
1001
ACDBBLOCKREPETAG
1070
     1
1071
       23
1005
0
  0
LINE
  5
128EA3
  8
OBJECT
 10
4360.0
 20
-1029.0
 30
0.0
 11
4360.0
 21
-1136.0
 31
0.0
1001
ACDBBLOCKREPETAG
1070
     1
1071
       24
1005
0
  0
LINE
  5
128EA4
  8
OBJECT
 10
4415.5
 20
-1030.5000000000650289
 30
0.0
 11
4415.5
 21
-1133.5
 31
0.0
1001
ACDBBLOCKREPETAG
1070
     1
1071
       25
1005
0
  0
ARC
  5
128EA5
  8
OBJECT
 10
4418.5
 20
-1030.5000000000650289
 30
0.0
 40
3.0
 50
90.0
 51
180.0
1001
ACDBBLOCKREPETAG
1070
     1
1071
       26
1005
0
  0
LINE
  5
128EA6
  8
OBJECT
 10
4367.0
 20
-1136.0
 30
0.0
 11
4367.0
 21
-1029.0
 31
0.0
1001
ACDBBLOCKREPETAG
1070
     1
1071
       27
1005
0
  0
LINE
  5
128EA7
  8
CENTER
 10
4345.0
 20
-1084.0
 30
0.0
 11
4458.6550800869954401
 21
-1084.0000000000650289
 31
0.0
1001
ACDBBLOCKREPETAG
1070
     1
1071
       28
1005
0
  0
LINE
  5
128EA8
  8
OBJECT
 10
4367.0
 20
-1032.0
 30
0.0
 11
4403.0
 21
-1032.0
 31
0.0
1001
ACDBBLOCKREPETAG
1070
     1
1071
       29
1005
0
  0
LINE
  5
128EA9
  8
OBJECT
 10
4403.0
 20
-1032.0
 30
0.0
 11
4403.0
 21
-1136.0
 31
0.0
1001
ACDBBLOCKREPETAG
1070
     1
1071
       30
1005
0
  0
LINE
  5
128EAA
  8
OBJECT
 10
4403.0
 20
-1136.0
 30
0.0
 11
4360.0
 21
-1136.0
 31
0.0
1001
ACDBBLOCKREPETAG
1070
     1
1071
       31
1005
0
  0
LINE
  5
128EAB
  8
OBJECT
 10
4407.0
 20
-1036.5
 30
0.0
 11
4415.5
 21
-1036.5
 31
0.0
1001
ACDBBLOCKREPETAG
1070
     1
1071
       32
1005
0
  0
LINE
  5
128EAC
  8
OBJECT
 10
4415.5
 20
-1131.5
 30
0.0
 11
4407.0
 21
-1131.5
 31
0.0
1001
ACDBBLOCKREPETAG
1070
     1
1071
       33
1005
0
  0
LINE
  5
128EAD
  8
OBJECT
 10
4407.0
 20
-1131.5
 30
0.0
 11
4407.0
 21
-1036.5
 31
0.0
1001
ACDBBLOCKREPETAG
1070
     1
1071
       34
1005
0
  0
LINE
  5
128EAE
  8
OBJECT
 10
4403.0
 20
-1032.0
 30
0.0
 11
4407.0
 21
-1036.5
 31
0.0
1001
ACDBBLOCKREPETAG
1070
     1
1071
       35
1005
0
  0
LINE
  5
128EAF
  8
OBJECT
 10
4403.0
 20
-1136.0
 30
0.0
 11
4407.0
 21
-1131.5
 31
0.0
1001
ACDBBLOCKREPETAG
1070
     1
1071
       36
1005
0
  0
LINE
  5
128EB0
  8
HIDDEN
 10
4412.0
 20
-1046.0
 30
0.0
 11
4412.0
 21
-1122.0
 31
0.0
1001
ACDBBLOCKREPETAG
1070
     1
1071
       37
1005
0
  0
ARC
  5
128EB1
  8
OBJECT
 10
4335.1217271212262858
 20
-1092.4095072612290096
 30
0.0
 40
110.866352283089995
 50
16.9596461956543898
 51
35.8365725806952327
1001
ACDBBLOCKREPETAG
1070
     1
1071
       38
1005
0
  0
ARC
  5
128EB2
  8
OBJECT
 10
4382.8640112230941668
 20
-1077.2877497184490494
 30
0.0
 40
60.7917498803589709
 50
0.2712030171733432
 51
16.4527953477868785
1001
ACDBBLOCKREPETAG
1070
     1
1071
       39
1005
0
  0
ARC
  5
128EB3
  8
OBJECT
 10
4382.8640043437508211
 20
-1083.7122497599009421
 30
0.0
 40
60.7917567620948773
 50
343.5472205394797811
 51
359.7287965218548038
1001
ACDBBLOCKREPETAG
1070
     1
1071
       40
1005
0
  0
ARC
  5
128EB4
  8
OBJECT
 10
4335.1217271212262858
 20
-1068.5904927388360193
 30
0.0
 40
110.8663522830916008
 50
324.16342741930481
 51
343.0403538043456138
1001
ACDBBLOCKREPETAG
1070
     1
1071
       41
1005
0
  0
LINE
  5
128EB5
  8
OBJECT
 10
4443.6550800869954401
 20
-1077.000000000035925
 30
0.0
 11
4443.6550800869954401
 21
-1084.0000000000329692
 31
0.0
1001
ACDBBLOCKREPETAG
1070
     1
1071
       42
1005
0
  0
LINE
  5
128EB6
  8
OBJECT
 10
4425.0
 20
-1027.5000000000650289
 30
0.0
 11
4418.5
 21
-1027.5000000000650289
 31
0.0
1001
ACDBBLOCKREPETAG
1070
     1
1071
       43
1005
0
  0
LINE
  5
128EB7
  8
OBJECT
 10
4425.0
 20
-1133.5
 30
0.0
 11
4415.5
 21
-1133.5
 31
0.0
1001
ACDBBLOCKREPETAG
1070
     1
1071
       44
1005
0
  0
LINE
  5
128EB8
  8
OBJECT
 10
4425.0
 20
-1133.5
 30
0.0
 11
4425.0
 21
-1163.0
 31
0.0
1001
ACDBBLOCKREPETAG
1070
     1
1071
        1
1005
128E9A
  0
CIRCLE
  5
128EB9
  8
OBJECT
 10
4500.0
 20
-1084.0
 30
0.0
 40
35.5
1001
ACDBBLOCKREPETAG
1070
     1
1071
       11
1005
128EB9
  0
LINE
  5
128EBA
  8
CENTER
 10
4430.0
 20
-1084.0
 30
0.0
 11
4570.0
 21
-1084.0
 31
0.0
1001
ACDBBLOCKREPETAG
1070
     1
1071
       12
1005
128EBA
  0
CIRCLE
  5
128EBB
  8
OBJECT
 10
4500.0
 20
-1084.0
 30
0.0
 40
47.0
1001
ACDBBLOCKREPETAG
1070
     1
1071
       14
1005
128EBB
  0
ARC
  5
128EBC
  8
OBJECT
 10
4500.0
 20
-1084.0
 30
0.0
 40
55.0
 50
289.0112652601093259
 51
250.9887347398907025
1001
ACDBBLOCKREPETAG
1070
     1
1071
       15
1005
128EBC
  0
LINE
  5
128EBD
  8
OBJECT
 10
4482.083527132832387
 20
-1136.0
 30
0.0
 11
4517.916472867167613
 21
-1136.0
 31
0.0
1001
ACDBBLOCKREPETAG
1070
     1
1071
       16
1005
128EBD
  0
CIRCLE
  5
128EBE
  8
OBJECT
 10
180.0000000000418083
 20
-232.0000000001718945
 30
0.0
 40
70.0
1001
ACDBBLOCKREPETAG
1070
     1
1071
       50
1005
128EBE
  0
CIRCLE
  5
128EBF
  8
OBJECT
 10
180.0000000000418083
 20
-232.0000000001718945
 30
0.0
 40
77.0
1001
ACDBBLOCKREPETAG
1070
     1
1071
       51
1005
128EBF
  0
ARC
  5
128EC0
  8
OBJECT
 10
180.0000000000418083
 20
-232.0000000001718945
 30
0.0
 40
80.0
 50
140.8050325737796982
 51
39.1949674262202521
1001
ACDBBLOCKREPETAG
1070
     1
1071
       52
1005
128EC0
  0
LINE
  5
128EC1
  8
OBJECT
 10
118.0000000000417941
 20
-186.3381997728473891
 30
0.0
 11
118.0000000000417941
 21
-152.0000000001718945
 31
0.0
1001
ACDBBLOCKREPETAG
1070
     1
1071
       53
1005
128EC1
  0
LINE
  5
128EC2
  8
OBJECT
 10
242.0000000000418083
 20
-186.3381997728473891
 30
0.0
 11
242.0000000000418083
 21
-152.0000000001718945
 31
0.0
1001
ACDBBLOCKREPETAG
1070
     1
1071
       54
1005
128EC2
  0
POINT
  5
128EC3
  8
DOTS
 10
180.0000000000418083
 20
-232.0000000001718945
 30
0.0
1001
ACDBBLOCKREPETAG
1070
     1
1071
       63
1005
128EC3
  0
CIRCLE
  5
128EC4
  8
OBJECT
 10
180.0000000000418083
 20
-232.0000000001718945
 30
0.0
 40
53.5
1001
ACDBBLOCKREPETAG
1070
     1
1071
      157
1005
128EC4
  0
VIEWPORT
  5
F6BA7
 67
     1
  8
0
 10
195.9179030619629032
 20
101.8328354358672954
 30
0.0
 40
435.1776330165599802
 41
222.1965796813965142
 68
     1
 69
     1
1001
ACAD
1000
MVIEW
1002
{
1070
    16
1010
0.0
1020
0.0
1030
0.0
1010
0.0
1020
0.0
1030
1.0
1040
0.0
1040
222.1965796813965142
1040
195.9179030619629032
1040
101.8328354358672954
1040
50.0
1040
0.0
1040
0.0
1070
     0
1070
     0
1070
     1
1070
     1
1070
     0
1070
     0
1070
     0
1070
     0
1040
0.0
1040
0.0
1040
0.0
1040
10.0
1040
10.0
1040
10.0
1040
10.0
1070
     0
1002
{
1002
}
1002
}
  0
VIEWPORT
  5
F6BA9
 67
     1
  8
OBJECT
 10
145.3303314447402954
 20
101.8328338861465028
 30
0.0
 40
232.5285303115844897
 41
162.9325342178343874
 68
     2
 69
     2
1001
ACAD
1000
MVIEW
1002
{
1070
    16
1010
0.0
1020
0.0
1030
0.0
1010
0.0
1020
0.0
1030
1.0
1040
0.0
1040
25942.5590440314699663
1040
2377.6044570773769919
1040
-7591.5176687056618903
1040
50.0
1040
0.0
1040
0.0
1070
     0
1070
   600
1070
     1
1070
     1
1070
     0
1070
     0
1070
     0
1070
     0
1040
0.0
1040
0.0
1040
0.0
1040
1.0
1040
1.0
1040
0.0
1040
0.0
1070
     0
1002
{
1002
}
1002
}
  0
ENDSEC
  0
EOF
