  0
SECTION
  2
HEADER
  9
$ACADVER
  1
AC1009
  9
$INSBASE
 10
0.0
 20
0.0
 30
0.0
  9
$EXTMIN
 10
-0.0000000000002274
 20
-3817.4999999999959
 30
0.0
  9
$EXTMAX
 10
5602.0
 20
607.5
 30
0.0
  9
$LIMMIN
 10
0.0
 20
0.0
  9
$LIMMAX
 10
210.0
 20
297.0
  9
$ORTHOMODE
 70
     0
  9
$REGENMODE
 70
     1
  9
$FILLMODE
 70
     1
  9
$QTEXTMODE
 70
     0
  9
$MIRRTEXT
 70
     0
  9
$DRAGMODE
 70
     2
  9
$LTSCALE
 40
1.0
  9
$OSMODE
 70
    37
  9
$ATTMODE
 70
     1
  9
$TEXTSIZE
 40
4.0
  9
$TRACEWID
 40
0.05
  9
$TEXTSTYLE
  7
STANDARD
  9
$CLAYER
  8
OBJECT
  9
$CELTYPE
  6
BYLAYER
  9
$CECOLOR
 62
   256
  9
$DIMSCALE
 40
10.0
  9
$DIMASZ
 40
2.0
  9
$DIMEXO
 40
1.0
  9
$DIMDLI
 40
10.0
  9
$DIMRND
 40
0.0
  9
$DIMDLE
 40
0.0
  9
$DIMEXE
 40
1.0
  9
$DIMTP
 40
0.0
  9
$DIMTM
 40
0.0
  9
$DIMTXT
 40
3.2000000000000002
  9
$DIMCEN
 40
0.0
  9
$DIMTSZ
 40
0.0
  9
$DIMTOL
 70
     0
  9
$DIMLIM
 70
     0
  9
$DIMTIH
 70
     0
  9
$DIMTOH
 70
     0
  9
$DIMSE1
 70
     0
  9
$DIMSE2
 70
     0
  9
$DIMTAD
 70
     1
  9
$DIMZIN
 70
     8
  9
$DIMBLK
  1
OPEN30
  9
$DIMASO
 70
     1
  9
$DIMSHO
 70
     1
  9
$DIMPOST
  1

  9
$DIMAPOST
  1

  9
$DIMALT
 70
     0
  9
$DIMALTD
 70
     2
  9
$DIMALTF
 40
25.399999999999999
  9
$DIMLFAC
 40
1.0
  9
$DIMTOFL
 70
     1
  9
$DIMTVP
 40
0.0
  9
$DIMTIX
 70
     0
  9
$DIMSOXD
 70
     0
  9
$DIMSAH
 70
     0
  9
$DIMBLK1
  1

  9
$DIMBLK2
  1

  9
$DIMSTYLE
  2
S10
  9
$DIMCLRD
 70
   256
  9
$DIMCLRE
 70
   256
  9
$DIMCLRT
 70
   256
  9
$DIMTFAC
 40
1.0
  9
$DIMGAP
 40
0.9
  9
$LUNITS
 70
     2
  9
$LUPREC
 70
     2
  9
$SKETCHINC
 40
0.1
  9
$FILLETRAD
 40
0.0
  9
$AUNITS
 70
     0
  9
$AUPREC
 70
     2
  9
$MENU
  1
ACAD
  9
$ELEVATION
 40
0.0
  9
$PELEVATION
 40
0.0
  9
$THICKNESS
 40
0.0
  9
$LIMCHECK
 70
     0
  9
$BLIPMODE
 70
     0
  9
$CHAMFERA
 40
2.0
  9
$CHAMFERB
 40
2.0
  9
$SKPOLY
 70
     0
  9
$TDCREATE
 40
2453095.4929404748
  9
$TDUPDATE
 40
2457604.6919818521
  9
$TDINDWG
 40
19.939640370399999
  9
$TDUSRTIMER
 40
19.939639687500001
  9
$USRTIMER
 70
     1
  9
$ANGBASE
 50
0.0
  9
$ANGDIR
 70
     0
  9
$PDMODE
 70
    35
  9
$PDSIZE
 40
2.0
  9
$PLINEWID
 40
0.0
  9
$COORDS
 70
     1
  9
$SPLFRAME
 70
     0
  9
$SPLINETYPE
 70
     6
  9
$SPLINESEGS
 70
     8
  9
$ATTDIA
 70
     0
  9
$ATTREQ
 70
     1
  9
$HANDLING
 70
     1
  9
$HANDSEED
  5
1281F3
  9
$SURFTAB1
 70
     6
  9
$SURFTAB2
 70
     6
  9
$SURFTYPE
 70
     6
  9
$SURFU
 70
     6
  9
$SURFV
 70
     6
  9
$UCSNAME
  2

  9
$UCSORG
 10
0.0
 20
0.0
 30
0.0
  9
$UCSXDIR
 10
1.0
 20
0.0
 30
0.0
  9
$UCSYDIR
 10
0.0
 20
1.0
 30
0.0
  9
$PUCSNAME
  2

  9
$PUCSORG
 10
0.0
 20
0.0
 30
0.0
  9
$PUCSXDIR
 10
1.0
 20
0.0
 30
0.0
  9
$PUCSYDIR
 10
0.0
 20
1.0
 30
0.0
  9
$USERI1
 70
     0
  9
$USERI2
 70
     0
  9
$USERI3
 70
     0
  9
$USERI4
 70
     0
  9
$USERI5
 70
     0
  9
$USERR1
 40
0.0
  9
$USERR2
 40
0.0
  9
$USERR3
 40
0.0
  9
$USERR4
 40
0.0
  9
$USERR5
 40
0.0
  9
$WORLDVIEW
 70
     1
  9
$SHADEDGE
 70
     3
  9
$SHADEDIF
 70
    70
  9
$TILEMODE
 70
     1
  9
$MAXACTVP
 70
    64
  9
$PLIMCHECK
 70
     0
  9
$PEXTMIN
 10
29.066066288948051
 20
20.366566777229309
 30
0.0
  9
$PEXTMAX
 10
261.5945966005325
 20
183.29910099506381
 30
0.0
  9
$PLIMMIN
 10
-3.17498779296875
 20
-3.1749999523162842
  9
$PLIMMAX
 10
293.83566284179687
 20
206.8406708240509
  9
$UNITMODE
 70
     0
  9
$VISRETAIN
 70
     1
  9
$PLINEGEN
 70
     0
  9
$PSLTSCALE
 70
     1
  0
ENDSEC
  0
SECTION
  2
TABLES
  0
TABLE
  2
VPORT
 70
     1
  0
VPORT
  2
*ACTIVE
 70
     0
 10
0.0
 20
0.0
 11
1.0
 21
1.0
 12
5349.4770181237127
 22
450.77988148457729
 13
0.0
 23
0.0
 14
1.0
 24
1.0
 15
0.0
 25
0.0
 16
0.0
 26
0.0
 36
1.0
 17
0.0
 27
0.0
 37
0.0
 40
11704.899171488711
 41
1.6494178525226391
 42
50.0
 43
0.0
 44
0.0
 50
0.0
 51
0.0
 71
     0
 72
   600
 73
     1
 74
     1
 75
     0
 76
     0
 77
     0
 78
     0
  0
ENDTAB
  0
TABLE
  2
LTYPE
 70
     4
  0
LTYPE
  2
CONTINUOUS
 70
     0
  3
Solid line
 72
    65
 73
     0
 40
0.0
  0
LTYPE
  2
PHANTOM2
 70
     0
  3
___ _ _ ___ _ _ ___ _ _ ___ _ _
 72
    65
 73
     6
 40
1.25
 49
0.625
 49
-0.125
 49
0.125
 49
-0.125
 49
0.125
 49
-0.125
  0
LTYPE
  2
ACAD_ISO08W100
 70
     0
  3
ISO long-dash short-dash ____ __ ____ __ ____ _
 72
    65
 73
     4
 40
36.0
 49
24.0
 49
-3.0
 49
6.0
 49
-3.0
  0
LTYPE
  2
ACAD_ISO02W100
 70
     0
  3
ISO dash __ __ __ __ __ __ __ __ __ __ __ __ __
 72
    65
 73
     2
 40
15.0
 49
12.0
 49
-3.0
  0
ENDTAB
  0
TABLE
  2
LAYER
 70
     8
  0
LAYER
  2
0
 70
     0
 62
     7
  6
CONTINUOUS
  0
LAYER
  2
OBJECT
 70
     0
 62
     4
  6
CONTINUOUS
  0
LAYER
  2
DEFPOINTS
 70
     0
 62
     7
  6
CONTINUOUS
  0
LAYER
  2
DIM
 70
     0
 62
     7
  6
CONTINUOUS
  0
LAYER
  2
HIDDEN
 70
     0
 62
     2
  6
ACAD_ISO02W100
  0
LAYER
  2
CENTER
 70
     0
 62
     2
  6
ACAD_ISO08W100
  0
LAYER
  2
DOTS
 70
     0
 62
     1
  6
CONTINUOUS
  0
LAYER
  2
SLIM
 70
     0
 62
     2
  6
CONTINUOUS
  0
ENDTAB
  0
TABLE
  2
STYLE
 70
     2
  0
STYLE
  2
STANDARD
 70
     0
 40
0.0
 41
0.75
 50
0.0
 71
     0
 42
4.0
  3
simplex.shx
  4
bigfont.shx
  0
ENDTAB
  0
TABLE
  2
VIEW
 70
     0
  0
ENDTAB
  0
TABLE
  2
UCS
 70
     0
  0
ENDTAB
  0
TABLE
  2
APPID
 70
    20
  0
APPID
  2
ACAD
 70
     0
  0
APPID
  2
ACADANNOTATIVE
 70
     0
  0
APPID
  2
ACAD_PSEXT
 70
     0
  0
APPID
  2
ACAD_EXEMPT_FROM_CAD_STANDARDS
 70
     0
  0
APPID
  2
ACAECLAYERSTANDARD
 70
     0
  0
APPID
  2
ACAUTHENVIRON
 70
     0
  0
APPID
  2
ACDBDYNAMICBLOCKTRUENAME
 70
     0
  0
APPID
  2
ACDBDYNAMICBLOCKGUID
 70
     0
  0
APPID
  2
ACDBBLOCKREPETAG
 70
     0
  0
APPID
  2
ACDBBLOCKREPBTAG
 70
     0
  0
APPID
  2
ACAD_NAV_VCDISPLAY
 70
     0
  0
APPID
  2
ACAD_DSTYLE_DIMRADIAL_EXTENSION
 70
     0
  0
APPID
  2
ACAD_DSTYLE_DIMJAG
 70
     0
  0
APPID
  2
ACAD_DSTYLE_DIMTALN
 70
     0
  0
APPID
  2
ACADANNOPO
 70
     0
  0
APPID
  2
GRADIENTCOLOR1ACI
 70
     0
  0
APPID
  2
GRADIENTCOLOR2ACI
 70
     0
  0
APPID
  2
ACADANNOMONITORALERTICONDI
 70
     0
  0
APPID
  2
CONTENTBLOCKICON
 70
     0
  0
APPID
  2
ACAD_MLEADERVER
 70
     0
  0
ENDTAB
  0
TABLE
  2
DIMSTYLE
 70
     3
  0
DIMSTYLE
  2
STANDARD
 70
     0
  3

  4

  5

  6

  7

 40
1.0
 41
0.18
 42
0.0625
 43
0.38
 44
0.18
 45
0.0
 46
0.0
 47
0.0
 48
0.0
140
0.18
141
0.09
142
0.0
143
25.399999999999999
144
1.0
145
0.0
146
1.0
147
0.09
 71
     0
 72
     0
 73
     1
 74
     1
 75
     0
 76
     0
 77
     0
 78
     0
170
     0
171
     2
172
     0
173
     0
174
     0
175
     0
176
     0
177
     0
178
     0
  0
DIMSTYLE
  2
S10
 70
     0
  3

  4

  5

  6

  7

 40
10.0
 41
2.0
 42
1.0
 43
10.0
 44
1.0
 45
0.0
 46
0.0
 47
0.0
 48
0.0
140
3.2000000000000002
141
0.0
142
0.0
143
25.399999999999999
144
1.0
145
0.0
146
1.0
147
0.9
 71
     0
 72
     0
 73
     0
 74
     0
 75
     0
 76
     0
 77
     1
 78
     8
170
     0
171
     2
172
     1
173
     0
174
     0
175
     0
176
   256
177
   256
178
   256
  0
ENDTAB
  0
ENDSEC
  0
SECTION
  2
BLOCKS
  0
BLOCK
  8
0
  2
$MODEL_SPACE
 70
     0
 10
0.0
 20
0.0
 30
0.0
  3
$MODEL_SPACE
  1

  0
ENDBLK
  5
12813F
  8
0
  0
BLOCK
 67
     1
  8
0
  2
$PAPER_SPACE
 70
     0
 10
0.0
 20
0.0
 30
0.0
  3
$PAPER_SPACE
  1

  0
ENDBLK
  5
12813B
 67
     1
  8
0
  0
BLOCK
  8
0
  2
_OPEN30
 70
     0
 10
0.0
 20
0.0
 30
0.0
  3
_OPEN30
  1

  0
LINE
  5
202
  8
0
  6
BYBLOCK
 62
     0
 10
-1.0
 20
0.26794919
 30
0.0
 11
0.0
 21
0.0
 31
0.0
  0
LINE
  5
203
  8
0
  6
BYBLOCK
 62
     0
 10
0.0
 20
0.0
 30
0.0
 11
-1.0
 21
-0.26794919
 31
0.0
  0
LINE
  5
204
  8
0
  6
BYBLOCK
 62
     0
 10
0.0
 20
0.0
 30
0.0
 11
-1.0
 21
0.0
 31
0.0
  0
ENDBLK
  5
206
  8
0
  0
BLOCK
  8
0
  2
*U5
 70
     1
 10
0.0
 20
0.0
 30
0.0
  3
*U5
  1

  0
TEXT
  5
128093
  8
DIM
 10
4334.1164560757752
 20
-1168.74285714285
 30
0.0
 40
32.0
  1
m（シンドカット）
 50
90.0
 41
0.75
  0
ENDBLK
  5
128095
  8
0
  0
BLOCK
  8
0
  2
*U6
 70
     1
 10
0.0
 20
0.0
 30
0.0
  3
*U6
  1

  0
TEXT
  5
128097
  8
SLIM
 10
257.9999999999996
 20
-1438.952380952222
 30
0.0
 40
26.0
  1
75
 50
270.0
  0
ENDBLK
  5
128099
  8
0
  0
BLOCK
  8
0
  2
*U7
 70
     1
 10
0.0
 20
0.0
 30
0.0
  3
*U7
  1

  0
TEXT
  5
12809B
  8
SLIM
 10
617.99999999987756
 20
-974.95238095238005
 30
0.0
 40
26.0
  1
65
 50
270.0
  0
ENDBLK
  5
12809D
  8
0
  0
BLOCK
  8
0
  2
*U8
 70
     1
 10
0.0
 20
0.0
 30
0.0
  3
*U8
  1

  0
TEXT
  5
12809F
  8
SLIM
 10
257.99999999999972
 20
-974.95238095238062
 30
0.0
 40
26.0
  1
50
 50
270.0
  0
ENDBLK
  5
1280A1
  8
0
  0
BLOCK
  8
0
  2
*U9
 70
     1
 10
0.0
 20
0.0
 30
0.0
  3
*U9
  1

  0
TEXT
  5
1280A3
  8
DIM
 10
4700.4245816727553
 20
-779.00000000000239
 30
0.0
 40
32.0
  1
P
 50
90.0
 41
0.75
  0
ENDBLK
  5
1280A5
  8
0
  0
BLOCK
  8
0
  2
*U10
 70
     1
 10
0.0
 20
0.0
 30
0.0
  3
*U10
  1

  0
TEXT
  5
1280A7
  8
DIM
 10
2700.4245816727562
 20
-778.99999999999682
 30
0.0
 40
32.0
  1
P
 50
90.0
 41
0.75
  0
ENDBLK
  5
1280A9
  8
0
  0
BLOCK
  8
0
  2
*U11
 70
     1
 10
0.0
 20
0.0
 30
0.0
  3
*U11
  1

  0
TEXT
  5
1280AB
  8
DIM
 10
2709.4796205944622
 20
-3304.1428571428528
 30
0.0
 40
32.0
  1
A
 50
90.0
 41
0.75
  0
ENDBLK
  5
1280AD
  8
0
  0
BLOCK
  8
0
  2
*U12
 70
     1
 10
0.0
 20
0.0
 30
0.0
  3
*U12
  1

  0
TEXT
  5
1280AF
  8
DIM
 10
2707.8409284037348
 20
-3685.9999999999968
 30
0.0
 40
32.0
  1
B
 50
90.0
 41
0.75
  0
ENDBLK
  5
1280B1
  8
0
  0
BLOCK
  8
0
  2
*U13
 70
     1
 10
0.0
 20
0.0
 30
0.0
  3
*U13
  1

  0
TEXT
  5
1280B3
  8
DIM
 10
2561.428571428572
 20
-3158.208121984444
 30
0.0
 40
32.0
  1
C
 41
0.75
  0
ENDBLK
  5
1280B5
  8
0
  0
BLOCK
  8
0
  2
*U14
 70
     1
 10
0.0
 20
0.0
 30
0.0
  3
*U14
  1

  0
TEXT
  5
1280CB
  8
SLIM
 10
158.9523809524228
 20
-130.00000000017181
 30
0.0
 40
26.0
  1
75
  0
ENDBLK
  5
1280CD
  8
0
  0
ENDSEC
  0
SECTION
  2
ENTITIES
  0
LINE
  5
12250A
  8
OBJECT
 10
2555.0
 20
-332.9999999999992
 30
0.0
 11
2555.0
 21
-339.99999999999909
 31
0.0
1001
ACDBBLOCKREPETAG
1070
     1
1071
       20
1005
12250A
  0
LINE
  5
12250B
  8
OBJECT
 10
2555.0
 20
-339.99999999999909
 30
0.0
 11
2445.0
 21
-339.99999999999909
 31
0.0
1001
ACDBBLOCKREPETAG
1070
     1
1071
       21
1005
12250B
  0
LINE
  5
12250C
  8
OBJECT
 10
2445.0
 20
-339.99999999999909
 30
0.0
 11
2445.0
 21
-332.99999999999898
 31
0.0
1001
ACDBBLOCKREPETAG
1070
     1
1071
       22
1005
12250C
  0
LINE
  5
12250D
  8
OBJECT
 10
2445.0
 20
-332.99999999999898
 30
0.0
 11
2555.0
 21
-332.9999999999992
 31
0.0
1001
ACDBBLOCKREPETAG
1070
     1
1071
       23
1005
12250D
  0
LINE
  5
12250E
  8
CENTER
 10
2500.0
 20
-354.99999999999909
 30
0.0
 11
2500.0
 21
-279.99999999999909
 31
0.0
1001
ACDBBLOCKREPETAG
1070
     1
1071
       24
1005
12250E
  0
LINE
  5
12250F
  8
OBJECT
 10
2552.0
 20
-332.9999999999992
 30
0.0
 11
2552.0
 21
-296.99999999999898
 31
0.0
1001
ACDBBLOCKREPETAG
1070
     1
1071
       25
1005
12250F
  0
LINE
  5
122510
  8
OBJECT
 10
2552.0
 20
-296.99999999999898
 30
0.0
 11
2448.0
 21
-296.99999999999898
 31
0.0
1001
ACDBBLOCKREPETAG
1070
     1
1071
       26
1005
122510
  0
LINE
  5
122511
  8
OBJECT
 10
2448.0
 20
-296.99999999999898
 30
0.0
 11
2448.0
 21
-332.99999999999898
 31
0.0
1001
ACDBBLOCKREPETAG
1070
     1
1071
       27
1005
122511
  0
LINE
  5
122512
  8
OBJECT
 10
2547.5
 20
-292.9999999999992
 30
0.0
 11
2547.5
 21
-284.49999999999898
 31
0.0
1001
ACDBBLOCKREPETAG
1070
     1
1071
       28
1005
122512
  0
LINE
  5
122513
  8
OBJECT
 10
2452.5000000000009
 20
-284.49999999999898
 30
0.0
 11
2452.5000000000009
 21
-292.99999999999898
 31
0.0
1001
ACDBBLOCKREPETAG
1070
     1
1071
       29
1005
122513
  0
LINE
  5
122514
  8
OBJECT
 10
2452.5000000000009
 20
-292.99999999999898
 30
0.0
 11
2547.5
 21
-292.9999999999992
 31
0.0
1001
ACDBBLOCKREPETAG
1070
     1
1071
       30
1005
122514
  0
LINE
  5
122515
  8
OBJECT
 10
2552.0
 20
-296.99999999999898
 30
0.0
 11
2547.5
 21
-292.9999999999992
 31
0.0
1001
ACDBBLOCKREPETAG
1070
     1
1071
       31
1005
122515
  0
LINE
  5
122516
  8
OBJECT
 10
2448.0
 20
-296.99999999999898
 30
0.0
 11
2452.5000000000009
 21
-292.99999999999898
 31
0.0
1001
ACDBBLOCKREPETAG
1070
     1
1071
       32
1005
122516
  0
LINE
  5
122517
  8
OBJECT
 10
2450.5
 20
-284.49999999999733
 30
0.0
 11
2549.5
 21
-284.49999999999898
 31
0.0
1001
ACDBBLOCKREPETAG
1070
     1
1071
       33
1005
122517
  0
LINE
  5
122518
  8
HIDDEN
 10
2538.0
 20
-287.99999999999909
 30
0.0
 11
2462.0
 21
-287.99999999999909
 31
0.0
1001
ACDBBLOCKREPETAG
1070
     1
1071
       34
1005
122518
  0
LINE
  5
122519
  8
OBJECT
 10
2549.5
 20
-284.49999999999898
 30
0.0
 11
2549.5
 21
-261.99999999999909
 31
0.0
1001
ACDBBLOCKREPETAG
1070
     1
1071
       35
1005
122519
  0
LINE
  5
12251A
  8
OBJECT
 10
2450.5
 20
-284.49999999999733
 30
0.0
 11
2450.5
 21
-258.98092912119893
 31
0.0
1001
ACDBBLOCKREPETAG
1070
     1
1071
       36
1005
12251A
  0
CIRCLE
  5
122542
  8
OBJECT
 10
2500.0
 20
-199.99999999999909
 30
0.0
 40
53.5
1001
ACDBBLOCKREPETAG
1070
     1
1071
      344
1005
122542
  0
POINT
  5
122543
  8
DOTS
 10
2500.0
 20
-199.99999999999909
 30
0.0
 50
270.0
1001
ACDBBLOCKREPETAG
1070
     1
1071
      362
1005
122543
  0
LINE
  5
122545
  8
CENTER
 10
2580.0
 20
-199.99999999999909
 30
0.0
 11
2405.0
 21
-199.99999999999909
 31
0.0
1001
ACDBBLOCKREPETAG
1070
     1
1071
       14
1005
122545
  0
LINE
  5
122546
  8
CENTER
 10
2500.0
 20
-294.99999999999898
 30
0.0
 11
2500.0
 21
-104.9999999999991
 31
0.0
1001
ACDBBLOCKREPETAG
1070
     1
1071
       15
1005
122546
  0
CIRCLE
  5
122547
  8
OBJECT
 10
2500.0
 20
-199.99999999999909
 30
0.0
 40
70.0
1001
ACDBBLOCKREPETAG
1070
     1
1071
       16
1005
122547
  0
CIRCLE
  5
122548
  8
OBJECT
 10
2500.0
 20
-199.99999999999909
 30
0.0
 40
77.0
1001
ACDBBLOCKREPETAG
1070
     1
1071
       17
1005
122548
  0
ARC
  5
122549
  8
OBJECT
 10
2500.0
 20
-199.99999999999909
 30
0.0
 40
80.0
 50
50.805032573864523
 51
231.77508979844799
1001
ACDBBLOCKREPETAG
1070
     1
1071
       18
1005
122549
  0
LINE
  5
12254A
  8
OBJECT
 10
2545.6618002273249
 20
-137.99999999999909
 30
0.0
 11
2580.0
 21
-137.99999999999909
 31
0.0
1001
ACDBBLOCKREPETAG
1070
     1
1071
       19
1005
12254A
  0
LINE
  5
12254B
  8
OBJECT
 10
2545.6618002273249
 20
-261.99999999999909
 30
0.0
 11
2580.0
 21
-261.99999999999909
 31
0.0
1001
ACDBBLOCKREPETAG
1070
     1
1071
       20
1005
12254B
  0
ARC
  5
12254C
  8
OBJECT
 10
2500.0
 20
-199.99999999999909
 30
0.0
 40
80.0
 50
308.22491020155201
 51
309.19496742613529
1001
ACDBBLOCKREPETAG
1070
     1
1071
       18
1005
122549
  0
LINE
  5
1251AE
  8
OBJECT
 10
2325.0000000000009
 20
-3699.9999999999968
 30
0.0
 11
5075.0000000000009
 21
-3699.9999999999968
 31
0.0
  0
LINE
  5
1251B0
  8
SLIM
 10
3256.0
 20
-2757.50001604727
 30
0.0
 11
3256.0
 21
-3087.50001604727
 31
0.0
  0
LINE
  5
1251B1
  8
SLIM
 10
3380.0000000000009
 20
-2757.50001604727
 30
0.0
 11
3380.0000000000009
 21
-3087.50001604727
 31
0.0
  0
LINE
  5
1251B2
  8
SLIM
 10
3510.0000000000018
 20
-2817.5000160472709
 30
0.0
 11
3510.0000000000018
 21
-3087.50001604727
 31
0.0
  0
LINE
  5
1251B3
  8
SLIM
 10
3640.0000000000009
 20
-2817.5000160472709
 30
0.0
 11
3640.0000000000009
 21
-3087.50001604727
 31
0.0
  0
LINE
  5
1251B4
  8
SLIM
 10
3770.0
 20
-3087.50001604727
 30
0.0
 11
3770.0
 21
-2757.50001604727
 31
0.0
  0
LINE
  5
1251B5
  8
SLIM
 10
3770.0
 20
-2757.50001604727
 30
0.0
 11
3256.0
 21
-2757.50001604727
 31
0.0
  0
LINE
  5
1251B6
  8
SLIM
 10
3770.0
 20
-2817.5000160472709
 30
0.0
 11
3380.0000000000009
 21
-2817.5000160472709
 31
0.0
  0
LINE
  5
1251B7
  8
SLIM
 10
3770.0
 20
-2877.5000160472709
 30
0.0
 11
3256.0
 21
-2877.5000160472709
 31
0.0
  0
LINE
  5
1251B8
  8
SLIM
 10
3770.0
 20
-2947.5000160472709
 30
0.0
 11
3256.0
 21
-2947.5000160472709
 31
0.0
  0
LINE
  5
1251B9
  8
SLIM
 10
3770.0
 20
-3017.5000160472709
 30
0.0
 11
3256.0
 21
-3017.5000160472709
 31
0.0
  0
LINE
  5
1251BA
  8
SLIM
 10
3770.0
 20
-3087.50001604727
 30
0.0
 11
3256.0
 21
-3087.50001604727
 31
0.0
  0
LINE
  5
1251CB
  8
SLIM
 10
3380.0000000000009
 20
-2877.5000160472709
 30
0.0
 11
3255.9999722746579
 21
-2757.5000000000018
 31
0.0
  0
LINE
  5
1251CF
  8
CENTER
 10
2580.0
 20
-3294.9999999999968
 30
0.0
 11
2410.0
 21
-3294.9999999999968
 31
0.0
1001
ACDBBLOCKREPETAG
1070
     1
1071
       14
1005
0
  0
LINE
  5
1251D0
  8
CENTER
 10
2500.0
 20
-3384.9999999999968
 30
0.0
 11
2500.0
 21
-3204.9999999999959
 31
0.0
1001
ACDBBLOCKREPETAG
1070
     1
1071
       15
1005
0
  0
CIRCLE
  5
1251D1
  8
OBJECT
 10
2500.0
 20
-3294.9999999999968
 30
0.0
 40
70.0
1001
ACDBBLOCKREPETAG
1070
     1
1071
       16
1005
0
  0
CIRCLE
  5
1251D2
  8
OBJECT
 10
2500.0
 20
-3294.9999999999968
 30
0.0
 40
75.0
1001
ACDBBLOCKREPETAG
1070
     1
1071
       17
1005
0
  0
LINE
  5
1251DA
  8
CENTER
 10
2500.0
 20
-3479.9999999999991
 30
0.0
 11
2500.0
 21
-3726.9999999999991
 31
0.0
1001
ACDBBLOCKREPETAG
1070
     1
1071
       25
1005
1251DA
  0
LINE
  5
1251DB
  8
OBJECT
 10
2425.0000000000009
 20
-3494.9999999999968
 30
0.0
 11
2425.0000000000009
 21
-3714.9999999999968
 31
0.0
1001
ACDBBLOCKREPETAG
1070
     1
1071
       26
1005
1251DB
  0
LINE
  5
1251DC
  8
OBJECT
 10
2575.0000000000009
 20
-3494.9999999999968
 30
0.0
 11
2575.0000000000009
 21
-3591.5000000000618
 31
0.0
1001
ACDBBLOCKREPETAG
1070
     1
1071
       34
1005
1251DC
  0
LINE
  5
1251E4
  8
OBJECT
 10
2575.0000000000009
 20
-3697.4999999999991
 30
0.0
 11
2575.0000000000009
 21
-3714.9999999999968
 31
0.0
1001
ACDBBLOCKREPETAG
1070
     1
1071
       34
1005
1251DC
  0
LINE
  5
1251E5
  8
CENTER
 10
2900.0
 20
-3479.9999999999991
 30
0.0
 11
2900.0
 21
-3726.9999999999991
 31
0.0
1001
ACDBBLOCKREPETAG
1070
     1
1071
       25
1005
1251DA
  0
LINE
  5
1251E6
  8
OBJECT
 10
2825.0000000000009
 20
-3494.9999999999968
 30
0.0
 11
2825.0000000000009
 21
-3714.9999999999968
 31
0.0
1001
ACDBBLOCKREPETAG
1070
     1
1071
       26
1005
1251DB
  0
LINE
  5
1251E7
  8
OBJECT
 10
2975.0000000000009
 20
-3494.9999999999968
 30
0.0
 11
2975.0
 21
-3714.9999999999982
 31
0.0
1001
ACDBBLOCKREPETAG
1070
     1
1071
       34
1005
1251DC
  0
LINE
  5
1251EF
  8
CENTER
 10
3580.0
 20
-3294.9999999999968
 30
0.0
 11
3410.0
 21
-3294.9999999999968
 31
0.0
1001
ACDBBLOCKREPETAG
1070
     1
1071
       14
1005
0
  0
LINE
  5
1251F0
  8
CENTER
 10
3500.0
 20
-3384.9999999999968
 30
0.0
 11
3500.0
 21
-3204.9999999999959
 31
0.0
1001
ACDBBLOCKREPETAG
1070
     1
1071
       15
1005
0
  0
CIRCLE
  5
1251F1
  8
OBJECT
 10
3500.0
 20
-3294.9999999999968
 30
0.0
 40
70.0
1001
ACDBBLOCKREPETAG
1070
     1
1071
       16
1005
0
  0
CIRCLE
  5
1251F2
  8
OBJECT
 10
3500.0
 20
-3294.9999999999968
 30
0.0
 40
75.0
1001
ACDBBLOCKREPETAG
1070
     1
1071
       17
1005
0
  0
LINE
  5
1251FA
  8
CENTER
 10
3500.0000000000018
 20
-3479.9999999999991
 30
0.0
 11
3500.0000000000018
 21
-3726.9999999999991
 31
0.0
1001
ACDBBLOCKREPETAG
1070
     1
1071
       25
1005
1251DA
  0
LINE
  5
1251FB
  8
OBJECT
 10
3425.0000000000018
 20
-3494.9999999999968
 30
0.0
 11
3425.0000000000018
 21
-3714.9999999999968
 31
0.0
1001
ACDBBLOCKREPETAG
1070
     1
1071
       26
1005
1251DB
  0
LINE
  5
1251FC
  8
OBJECT
 10
3575.0000000000009
 20
-3494.9999999999968
 30
0.0
 11
3575.0000000000009
 21
-3591.5000000000618
 31
0.0
1001
ACDBBLOCKREPETAG
1070
     1
1071
       34
1005
1251DC
  0
LINE
  5
1251FD
  8
OBJECT
 10
3575.0000000000009
 20
-3697.4999999999991
 30
0.0
 11
3575.0000000000009
 21
-3714.9999999999968
 31
0.0
1001
ACDBBLOCKREPETAG
1070
     1
1071
       34
1005
1251DC
  0
LINE
  5
125205
  8
CENTER
 10
3900.0000000000018
 20
-3479.9999999999991
 30
0.0
 11
3900.0000000000018
 21
-3726.9999999999991
 31
0.0
1001
ACDBBLOCKREPETAG
1070
     1
1071
       25
1005
1251DA
  0
LINE
  5
125206
  8
OBJECT
 10
3825.0000000000009
 20
-3494.9999999999968
 30
0.0
 11
3825.0000000000009
 21
-3714.9999999999968
 31
0.0
1001
ACDBBLOCKREPETAG
1070
     1
1071
       26
1005
1251DB
  0
LINE
  5
125207
  8
OBJECT
 10
3975.0000000000009
 20
-3494.9999999999968
 30
0.0
 11
3975.0
 21
-3714.9999999999982
 31
0.0
1001
ACDBBLOCKREPETAG
1070
     1
1071
       34
1005
1251DC
  0
LINE
  5
12520F
  8
CENTER
 10
4580.0
 20
-3294.9999999999968
 30
0.0
 11
4410.0
 21
-3294.9999999999968
 31
0.0
1001
ACDBBLOCKREPETAG
1070
     1
1071
       14
1005
0
  0
LINE
  5
125210
  8
CENTER
 10
4500.0
 20
-3384.9999999999968
 30
0.0
 11
4500.0
 21
-3204.9999999999959
 31
0.0
1001
ACDBBLOCKREPETAG
1070
     1
1071
       15
1005
0
  0
CIRCLE
  5
125211
  8
OBJECT
 10
4500.0
 20
-3294.9999999999968
 30
0.0
 40
70.0
1001
ACDBBLOCKREPETAG
1070
     1
1071
       16
1005
0
  0
CIRCLE
  5
125212
  8
OBJECT
 10
4500.0
 20
-3294.9999999999968
 30
0.0
 40
75.0
1001
ACDBBLOCKREPETAG
1070
     1
1071
       17
1005
0
  0
LINE
  5
12521A
  8
CENTER
 10
4500.0
 20
-3479.9999999999991
 30
0.0
 11
4500.0
 21
-3726.9999999999991
 31
0.0
1001
ACDBBLOCKREPETAG
1070
     1
1071
       25
1005
1251DA
  0
LINE
  5
12521B
  8
OBJECT
 10
4425.0
 20
-3494.9999999999968
 30
0.0
 11
4425.0
 21
-3714.9999999999968
 31
0.0
1001
ACDBBLOCKREPETAG
1070
     1
1071
       26
1005
1251DB
  0
LINE
  5
12521C
  8
OBJECT
 10
4575.0000000000009
 20
-3494.9999999999968
 30
0.0
 11
4575.0000000000009
 21
-3591.5000000000618
 31
0.0
1001
ACDBBLOCKREPETAG
1070
     1
1071
       34
1005
1251DC
  0
LINE
  5
12521D
  8
OBJECT
 10
4575.0000000000009
 20
-3697.4999999999991
 30
0.0
 11
4575.0000000000009
 21
-3714.9999999999968
 31
0.0
1001
ACDBBLOCKREPETAG
1070
     1
1071
       34
1005
1251DC
  0
LINE
  5
125225
  8
CENTER
 10
4900.0000000000009
 20
-3479.9999999999991
 30
0.0
 11
4900.0000000000009
 21
-3726.9999999999991
 31
0.0
1001
ACDBBLOCKREPETAG
1070
     1
1071
       25
1005
1251DA
  0
LINE
  5
125226
  8
OBJECT
 10
4825.0000000000009
 20
-3494.9999999999968
 30
0.0
 11
4825.0000000000009
 21
-3714.9999999999968
 31
0.0
1001
ACDBBLOCKREPETAG
1070
     1
1071
       26
1005
1251DB
  0
LINE
  5
125227
  8
OBJECT
 10
4975.0000000000009
 20
-3494.9999999999968
 30
0.0
 11
4975.0
 21
-3714.9999999999982
 31
0.0
1001
ACDBBLOCKREPETAG
1070
     1
1071
       34
1005
1251DC
  0
POINT
  5
12522F
  8
DOTS
 10
2500.0
 20
-3294.9999999999968
 30
0.0
  0
POINT
  5
125230
  8
DOTS
 10
2500.0
 20
-3699.9999999999968
 30
0.0
  0
POINT
  5
125231
  8
DOTS
 10
3500.0000000000018
 20
-3699.9999999999968
 30
0.0
  0
POINT
  5
125232
  8
DOTS
 10
3500.0
 20
-3294.9999999999968
 30
0.0
  0
POINT
  5
125233
  8
DOTS
 10
4500.0
 20
-3294.9999999999968
 30
0.0
  0
POINT
  5
125234
  8
DOTS
 10
4500.0
 20
-3699.9999999999968
 30
0.0
  0
LINE
  5
126686
  8
CENTER
 10
4580.0
 20
-199.99999999999909
 30
0.0
 11
4400.0
 21
-199.99999999999909
 31
0.0
1001
ACDBBLOCKREPETAG
1070
     1
1071
       14
1005
0
  0
LINE
  5
126687
  8
CENTER
 10
4500.0
 20
-294.99999999999898
 30
0.0
 11
4500.0
 21
-99.999999999999091
 31
0.0
1001
ACDBBLOCKREPETAG
1070
     1
1071
       15
1005
0
  0
CIRCLE
  5
126688
  8
OBJECT
 10
4500.0
 20
-199.99999999999909
 30
0.0
 40
53.5
1001
ACDBBLOCKREPETAG
1070
     1
1071
      344
1005
0
  0
POINT
  5
126689
  8
DOTS
 10
4500.0
 20
-199.99999999999909
 30
0.0
 50
270.0
1001
ACDBBLOCKREPETAG
1070
     1
1071
      362
1005
0
  0
CIRCLE
  5
12668A
  8
OBJECT
 10
4500.0
 20
-199.99999999999909
 30
0.0
 40
70.0
1001
ACDBBLOCKREPETAG
1070
     1
1071
       16
1005
0
  0
CIRCLE
  5
12668C
  8
OBJECT
 10
4500.0
 20
-199.99999999999909
 30
0.0
 40
77.0
1001
ACDBBLOCKREPETAG
1070
     1
1071
       17
1005
0
  0
LINE
  5
12668D
  8
OBJECT
 10
4545.6618002273244
 20
-261.99999999999909
 30
0.0
 11
4580.0
 21
-261.99999999999909
 31
0.0
1001
ACDBBLOCKREPETAG
1070
     1
1071
       20
1005
0
  0
LINE
  5
12668E
  8
OBJECT
 10
4545.6618002273244
 20
-137.99999999999909
 30
0.0
 11
4580.0
 21
-137.99999999999909
 31
0.0
1001
ACDBBLOCKREPETAG
1070
     1
1071
       19
1005
0
  0
LINE
  5
12668F
  8
OBJECT
 10
4555.0
 20
-332.99999999999898
 30
0.0
 11
4555.0
 21
-339.99999999999909
 31
0.0
1001
ACDBBLOCKREPETAG
1070
     1
1071
       20
1005
0
  0
LINE
  5
126690
  8
OBJECT
 10
4555.0
 20
-339.99999999999909
 30
0.0
 11
4445.0
 21
-339.99999999999909
 31
0.0
1001
ACDBBLOCKREPETAG
1070
     1
1071
       21
1005
0
  0
LINE
  5
126691
  8
OBJECT
 10
4445.0
 20
-339.99999999999909
 30
0.0
 11
4445.0
 21
-332.99999999999898
 31
0.0
1001
ACDBBLOCKREPETAG
1070
     1
1071
       22
1005
0
  0
LINE
  5
126692
  8
OBJECT
 10
4445.0
 20
-332.99999999999898
 30
0.0
 11
4555.0
 21
-332.99999999999898
 31
0.0
1001
ACDBBLOCKREPETAG
1070
     1
1071
       23
1005
0
  0
LINE
  5
126693
  8
CENTER
 10
4500.0
 20
-354.99999999999909
 30
0.0
 11
4500.0
 21
-279.99999999999909
 31
0.0
1001
ACDBBLOCKREPETAG
1070
     1
1071
       24
1005
0
  0
LINE
  5
126694
  8
OBJECT
 10
4552.0
 20
-332.99999999999898
 30
0.0
 11
4552.0
 21
-296.99999999999898
 31
0.0
1001
ACDBBLOCKREPETAG
1070
     1
1071
       25
1005
0
  0
LINE
  5
126695
  8
OBJECT
 10
4552.0
 20
-296.99999999999898
 30
0.0
 11
4448.0
 21
-296.99999999999898
 31
0.0
1001
ACDBBLOCKREPETAG
1070
     1
1071
       26
1005
0
  0
LINE
  5
126696
  8
OBJECT
 10
4448.0
 20
-296.99999999999898
 30
0.0
 11
4448.0
 21
-332.99999999999898
 31
0.0
1001
ACDBBLOCKREPETAG
1070
     1
1071
       27
1005
0
  0
LINE
  5
126697
  8
OBJECT
 10
4547.5
 20
-292.99999999999898
 30
0.0
 11
4547.5
 21
-284.49999999999898
 31
0.0
1001
ACDBBLOCKREPETAG
1070
     1
1071
       28
1005
0
  0
LINE
  5
126698
  8
OBJECT
 10
4452.4999999999991
 20
-284.49999999999898
 30
0.0
 11
4452.4999999999991
 21
-292.99999999999898
 31
0.0
1001
ACDBBLOCKREPETAG
1070
     1
1071
       29
1005
0
  0
LINE
  5
126699
  8
OBJECT
 10
4452.4999999999991
 20
-292.99999999999898
 30
0.0
 11
4547.5
 21
-292.99999999999898
 31
0.0
1001
ACDBBLOCKREPETAG
1070
     1
1071
       30
1005
0
  0
LINE
  5
12669A
  8
OBJECT
 10
4552.0
 20
-296.99999999999898
 30
0.0
 11
4547.5
 21
-292.99999999999898
 31
0.0
1001
ACDBBLOCKREPETAG
1070
     1
1071
       31
1005
0
  0
LINE
  5
12669B
  8
OBJECT
 10
4448.0
 20
-296.99999999999898
 30
0.0
 11
4452.4999999999991
 21
-292.99999999999898
 31
0.0
1001
ACDBBLOCKREPETAG
1070
     1
1071
       32
1005
0
  0
LINE
  5
12669C
  8
OBJECT
 10
4450.5
 20
-284.49999999999733
 30
0.0
 11
4549.5
 21
-284.49999999999898
 31
0.0
1001
ACDBBLOCKREPETAG
1070
     1
1071
       33
1005
0
  0
LINE
  5
12669D
  8
HIDDEN
 10
4538.0
 20
-287.99999999999909
 30
0.0
 11
4462.0
 21
-287.99999999999909
 31
0.0
1001
ACDBBLOCKREPETAG
1070
     1
1071
       34
1005
0
  0
LINE
  5
12669E
  8
OBJECT
 10
4549.5
 20
-284.49999999999898
 30
0.0
 11
4549.5
 21
-261.99999999999909
 31
0.0
1001
ACDBBLOCKREPETAG
1070
     1
1071
       35
1005
0
  0
LINE
  5
12669F
  8
OBJECT
 10
4450.5
 20
-284.49999999999733
 30
0.0
 11
4450.5
 21
-258.98092912119893
 31
0.0
1001
ACDBBLOCKREPETAG
1070
     1
1071
       36
1005
0
  0
ARC
  5
1266A0
  8
OBJECT
 10
4500.0
 20
-199.99999999999909
 30
0.0
 40
85.0
 50
46.837102859699002
 51
234.38379327149801
1001
ACDBBLOCKREPETAG
1070
     1
1071
       18
1005
0
  0
ARC
  5
1266A1
  8
OBJECT
 10
4500.0
 20
-199.99999999999909
 30
0.0
 40
85.0
 50
305.61620672850188
 51
313.16289714030108
1001
ACDBBLOCKREPETAG
1070
     1
1071
       18
1005
0
  0
LINE
  5
127C2C
  8
SLIM
 10
5350.0
 20
-1100.999999999992
 30
0.0
 11
5350.0
 21
-1484.999999999992
 31
0.0
  0
LINE
  5
127C2D
  8
SLIM
 10
5454.0
 20
-1484.999999999992
 30
0.0
 11
5454.0
 21
-1100.999999999992
 31
0.0
  0
LINE
  5
127C2E
  8
SLIM
 10
5602.0
 20
-1100.999999999992
 30
0.0
 11
5350.0
 21
-1100.999999999992
 31
0.0
  0
LINE
  5
127C2F
  8
SLIM
 10
5602.0
 20
-1148.999999999992
 30
0.0
 11
5350.0
 21
-1148.999999999992
 31
0.0
  0
LINE
  5
127C31
  8
SLIM
 10
5602.0
 20
-1196.999999999992
 30
0.0
 11
5350.0
 21
-1196.999999999992
 31
0.0
  0
LINE
  5
127C32
  8
SLIM
 10
5602.0
 20
-1244.999999999992
 30
0.0
 11
5350.0
 21
-1244.999999999992
 31
0.0
  0
LINE
  5
127C33
  8
SLIM
 10
5602.0
 20
-1292.999999999992
 30
0.0
 11
5350.0
 21
-1292.999999999992
 31
0.0
  0
LINE
  5
127C37
  8
SLIM
 10
5602.0
 20
-1340.999999999992
 30
0.0
 11
5350.0
 21
-1340.999999999992
 31
0.0
  0
LINE
  5
127C39
  8
SLIM
 10
5602.0
 20
-1388.999999999992
 30
0.0
 11
5350.0
 21
-1388.999999999992
 31
0.0
  0
LINE
  5
127C3B
  8
SLIM
 10
5602.0
 20
-1436.999999999992
 30
0.0
 11
5350.0
 21
-1436.999999999992
 31
0.0
  0
LINE
  5
127C3D
  8
SLIM
 10
5602.0
 20
-1484.999999999992
 30
0.0
 11
5350.0
 21
-1484.999999999992
 31
0.0
  0
LINE
  5
127C40
  8
SLIM
 10
5602.0
 20
-1100.999999999992
 30
0.0
 11
5602.0
 21
-1484.999999999992
 31
0.0
  0
LINE
  5
127D35
  8
SLIM
 10
4914.9999999999918
 20
-849.27641430503331
 30
0.0
 11
4918.2764143050317
 21
-845.99999999999443
 31
0.0
1001
GRADIENTCOLOR1ACI
1070
     5
1001
GRADIENTCOLOR2ACI
1070
     2
1001
ACAD
1010
0.0
1020
0.0
1030
0.0
  0
LINE
  5
127D36
  8
SLIM
 10
4914.9999999999918
 20
-867.23692654717149
 30
0.0
 11
4936.2369265471698
 21
-845.99999999999443
 31
0.0
1001
GRADIENTCOLOR1ACI
1070
     5
1001
GRADIENTCOLOR2ACI
1070
     2
1001
ACAD
1010
0.0
1020
0.0
1030
0.0
  0
LINE
  5
127D37
  8
SLIM
 10
4914.9999999999918
 20
-885.19743878930967
 30
0.0
 11
4954.1974387893088
 21
-845.99999999999443
 31
0.0
1001
GRADIENTCOLOR1ACI
1070
     5
1001
GRADIENTCOLOR2ACI
1070
     2
1001
ACAD
1010
0.0
1020
0.0
1030
0.0
  0
LINE
  5
127D38
  8
SLIM
 10
4914.9999999999927
 20
-903.15795103144751
 30
0.0
 11
4972.1579510314468
 21
-845.99999999999443
 31
0.0
1001
GRADIENTCOLOR1ACI
1070
     5
1001
GRADIENTCOLOR2ACI
1070
     2
1001
ACAD
1010
0.0
1020
0.0
1030
0.0
  0
LINE
  5
127D39
  8
SLIM
 10
4914.9999999999927
 20
-921.11846327358569
 30
0.0
 11
4990.1184632735849
 21
-845.99999999999443
 31
0.0
1001
GRADIENTCOLOR1ACI
1070
     5
1001
GRADIENTCOLOR2ACI
1070
     2
1001
ACAD
1010
0.0
1020
0.0
1030
0.0
  0
LINE
  5
127D3A
  8
SLIM
 10
4914.9999999999927
 20
-939.07897551572387
 30
0.0
 11
5008.078975515723
 21
-845.99999999999443
 31
0.0
1001
GRADIENTCOLOR1ACI
1070
     5
1001
GRADIENTCOLOR2ACI
1070
     2
1001
ACAD
1010
0.0
1020
0.0
1030
0.0
  0
LINE
  5
127D3B
  8
SLIM
 10
4914.9999999999927
 20
-957.03948775786193
 30
0.0
 11
5026.0394877578619
 21
-845.99999999999443
 31
0.0
1001
GRADIENTCOLOR1ACI
1070
     5
1001
GRADIENTCOLOR2ACI
1070
     2
1001
ACAD
1010
0.0
1020
0.0
1030
0.0
  0
LINE
  5
127D3C
  8
SLIM
 10
4914.9999999999927
 20
-975.0
 30
0.0
 11
5044.0
 21
-845.99999999999443
 31
0.0
1001
GRADIENTCOLOR1ACI
1070
     5
1001
GRADIENTCOLOR2ACI
1070
     2
1001
ACAD
1010
0.0
1020
0.0
1030
0.0
  0
LINE
  5
127D3D
  8
SLIM
 10
4914.9999999999955
 20
-992.96051224213829
 30
0.0
 11
5061.9605122421381
 21
-845.99999999999443
 31
0.0
1001
GRADIENTCOLOR1ACI
1070
     5
1001
GRADIENTCOLOR2ACI
1070
     2
1001
ACAD
1010
0.0
1020
0.0
1030
0.0
  0
LINE
  5
127D3E
  8
SLIM
 10
4914.9999999999955
 20
-1010.921024484276
 30
0.0
 11
5079.921024484277
 21
-845.99999999999443
 31
0.0
1001
GRADIENTCOLOR1ACI
1070
     5
1001
GRADIENTCOLOR2ACI
1070
     2
1001
ACAD
1010
0.0
1020
0.0
1030
0.0
  0
LINE
  5
127D3F
  8
SLIM
 10
4914.9999999999955
 20
-1028.8815367264151
 30
0.0
 11
5085.0000000000073
 21
-858.88153672640215
 31
0.0
1001
GRADIENTCOLOR1ACI
1070
     5
1001
GRADIENTCOLOR2ACI
1070
     2
1001
ACAD
1010
0.0
1020
0.0
1030
0.0
  0
LINE
  5
127D40
  8
SLIM
 10
4914.9999999999955
 20
-1046.8420489685529
 30
0.0
 11
5085.0000000000073
 21
-876.84204896854067
 31
0.0
1001
GRADIENTCOLOR1ACI
1070
     5
1001
GRADIENTCOLOR2ACI
1070
     2
1001
ACAD
1010
0.0
1020
0.0
1030
0.0
  0
LINE
  5
127D41
  8
SLIM
 10
4914.9999999999955
 20
-1064.802561210691
 30
0.0
 11
5085.0000000000073
 21
-894.80256121067885
 31
0.0
1001
GRADIENTCOLOR1ACI
1070
     5
1001
GRADIENTCOLOR2ACI
1070
     2
1001
ACAD
1010
0.0
1020
0.0
1030
0.0
  0
LINE
  5
127D42
  8
SLIM
 10
4914.9999999999955
 20
-1082.7630734528291
 30
0.0
 11
5085.0000000000073
 21
-912.76307345281759
 31
0.0
1001
GRADIENTCOLOR1ACI
1070
     5
1001
GRADIENTCOLOR2ACI
1070
     2
1001
ACAD
1010
0.0
1020
0.0
1030
0.0
  0
LINE
  5
127D43
  8
SLIM
 10
4914.9999999999955
 20
-1100.723585694966
 30
0.0
 11
5085.0000000000073
 21
-930.723585694956
 31
0.0
1001
GRADIENTCOLOR1ACI
1070
     5
1001
GRADIENTCOLOR2ACI
1070
     2
1001
ACAD
1010
0.0
1020
0.0
1030
0.0
  0
LINE
  5
127D44
  8
SLIM
 10
4914.9999999999955
 20
-1118.684097937105
 30
0.0
 11
5085.0000000000073
 21
-948.68409793709463
 31
0.0
1001
GRADIENTCOLOR1ACI
1070
     5
1001
GRADIENTCOLOR2ACI
1070
     2
1001
ACAD
1010
0.0
1020
0.0
1030
0.0
  0
LINE
  5
127D45
  8
SLIM
 10
4914.9999999999955
 20
-1136.644610179243
 30
0.0
 11
5085.0000000000073
 21
-966.6446101792327
 31
0.0
1001
GRADIENTCOLOR1ACI
1070
     5
1001
GRADIENTCOLOR2ACI
1070
     2
1001
ACAD
1010
0.0
1020
0.0
1030
0.0
  0
LINE
  5
127D46
  8
SLIM
 10
4914.9999999999982
 20
-1154.6051224213811
 30
0.0
 11
5085.0000000000073
 21
-984.60512242137133
 31
0.0
1001
GRADIENTCOLOR1ACI
1070
     5
1001
GRADIENTCOLOR2ACI
1070
     2
1001
ACAD
1010
0.0
1020
0.0
1030
0.0
  0
LINE
  5
127D47
  8
SLIM
 10
4914.9999999999982
 20
-1172.565634663518
 30
0.0
 11
5085.0000000000073
 21
-1002.56563466351
 31
0.0
1001
GRADIENTCOLOR1ACI
1070
     5
1001
GRADIENTCOLOR2ACI
1070
     2
1001
ACAD
1010
0.0
1020
0.0
1030
0.0
  0
LINE
  5
127D48
  8
SLIM
 10
4914.9999999999982
 20
-1190.5261469056579
 30
0.0
 11
5085.0000000000073
 21
-1020.526146905648
 31
0.0
1001
GRADIENTCOLOR1ACI
1070
     5
1001
GRADIENTCOLOR2ACI
1070
     2
1001
ACAD
1010
0.0
1020
0.0
1030
0.0
  0
LINE
  5
127D49
  8
SLIM
 10
4915.3182312960898
 20
-1208.1684278517021
 30
0.0
 11
5085.0000000000073
 21
-1038.486659147786
 31
0.0
1001
GRADIENTCOLOR1ACI
1070
     5
1001
GRADIENTCOLOR2ACI
1070
     2
1001
ACAD
1010
0.0
1020
0.0
1030
0.0
  0
LINE
  5
127D4A
  8
SLIM
 10
4917.3138437674388
 20
-1224.1333276224909
 30
0.0
 11
5085.0000000000073
 21
-1056.447171389925
 31
0.0
1001
GRADIENTCOLOR1ACI
1070
     5
1001
GRADIENTCOLOR2ACI
1070
     2
1001
ACAD
1010
0.0
1020
0.0
1030
0.0
  0
LINE
  5
127D4B
  8
SLIM
 10
4919.3094562387878
 20
-1240.0982273932809
 30
0.0
 11
5085.0000000000036
 21
-1074.4076836320639
 31
0.0
1001
GRADIENTCOLOR1ACI
1070
     5
1001
GRADIENTCOLOR2ACI
1070
     2
1001
ACAD
1010
0.0
1020
0.0
1030
0.0
  0
LINE
  5
127D4C
  8
SLIM
 10
4930.0
 20
-1247.368195874207
 30
0.0
 11
4931.3681958742127
 21
-1245.9999999999941
 31
0.0
1001
GRADIENTCOLOR1ACI
1070
     5
1001
GRADIENTCOLOR2ACI
1070
     2
1001
ACAD
1010
0.0
1020
0.0
1030
0.0
  0
LINE
  5
127D4D
  8
SLIM
 10
4931.3681958742127
 20
-1245.9999999999941
 30
0.0
 11
5085.0000000000036
 21
-1092.368195874202
 31
0.0
1001
GRADIENTCOLOR1ACI
1070
     5
1001
GRADIENTCOLOR2ACI
1070
     2
1001
ACAD
1010
0.0
1020
0.0
1030
0.0
  0
LINE
  5
127D4E
  8
SLIM
 10
4930.3287081163517
 20
-1264.9999999999941
 30
0.0
 11
4949.3287081163498
 21
-1245.9999999999941
 31
0.0
1001
GRADIENTCOLOR1ACI
1070
     5
1001
GRADIENTCOLOR2ACI
1070
     2
1001
ACAD
1010
0.0
1020
0.0
1030
0.0
  0
LINE
  5
127D4F
  8
SLIM
 10
4949.3287081163498
 20
-1245.9999999999941
 30
0.0
 11
5085.0000000000036
 21
-1110.328708116341
 31
0.0
1001
GRADIENTCOLOR1ACI
1070
     5
1001
GRADIENTCOLOR2ACI
1070
     2
1001
ACAD
1010
0.0
1020
0.0
1030
0.0
  0
LINE
  5
127D50
  8
SLIM
 10
4948.2892203584888
 20
-1264.9999999999941
 30
0.0
 11
4967.2892203584897
 21
-1245.9999999999941
 31
0.0
1001
GRADIENTCOLOR1ACI
1070
     5
1001
GRADIENTCOLOR2ACI
1070
     2
1001
ACAD
1010
0.0
1020
0.0
1030
0.0
  0
LINE
  5
127D51
  8
SLIM
 10
4967.2892203584897
 20
-1245.9999999999941
 30
0.0
 11
5085.0000000000036
 21
-1128.289220358479
 31
0.0
1001
GRADIENTCOLOR1ACI
1070
     5
1001
GRADIENTCOLOR2ACI
1070
     2
1001
ACAD
1010
0.0
1020
0.0
1030
0.0
  0
LINE
  5
127D52
  8
SLIM
 10
4966.2497326006278
 20
-1264.9999999999941
 30
0.0
 11
4985.2497326006278
 21
-1245.9999999999941
 31
0.0
1001
GRADIENTCOLOR1ACI
1070
     5
1001
GRADIENTCOLOR2ACI
1070
     2
1001
ACAD
1010
0.0
1020
0.0
1030
0.0
  0
LINE
  5
127D53
  8
SLIM
 10
4985.2497326006278
 20
-1245.9999999999941
 30
0.0
 11
5085.0000000000036
 21
-1146.249732600618
 31
0.0
1001
GRADIENTCOLOR1ACI
1070
     5
1001
GRADIENTCOLOR2ACI
1070
     2
1001
ACAD
1010
0.0
1020
0.0
1030
0.0
  0
LINE
  5
127D54
  8
SLIM
 10
4984.2102448427659
 20
-1264.9999999999941
 30
0.0
 11
5003.2102448427668
 21
-1245.9999999999941
 31
0.0
1001
GRADIENTCOLOR1ACI
1070
     5
1001
GRADIENTCOLOR2ACI
1070
     2
1001
ACAD
1010
0.0
1020
0.0
1030
0.0
  0
LINE
  5
127D55
  8
SLIM
 10
5003.2102448427668
 20
-1245.9999999999941
 30
0.0
 11
5085.0000000000036
 21
-1164.2102448427561
 31
0.0
1001
GRADIENTCOLOR1ACI
1070
     5
1001
GRADIENTCOLOR2ACI
1070
     2
1001
ACAD
1010
0.0
1020
0.0
1030
0.0
  0
LINE
  5
127D56
  8
SLIM
 10
5002.1707570849048
 20
-1264.9999999999941
 30
0.0
 11
5021.1707570849048
 21
-1245.9999999999941
 31
0.0
1001
GRADIENTCOLOR1ACI
1070
     5
1001
GRADIENTCOLOR2ACI
1070
     2
1001
ACAD
1010
0.0
1020
0.0
1030
0.0
  0
LINE
  5
127D57
  8
SLIM
 10
5021.1707570849048
 20
-1245.9999999999941
 30
0.0
 11
5085.0000000000036
 21
-1182.1707570848951
 31
0.0
1001
GRADIENTCOLOR1ACI
1070
     5
1001
GRADIENTCOLOR2ACI
1070
     2
1001
ACAD
1010
0.0
1020
0.0
1030
0.0
  0
LINE
  5
127D58
  8
SLIM
 10
5020.131269327042
 20
-1264.9999999999941
 30
0.0
 11
5039.131269327042
 21
-1245.9999999999941
 31
0.0
1001
GRADIENTCOLOR1ACI
1070
     5
1001
GRADIENTCOLOR2ACI
1070
     2
1001
ACAD
1010
0.0
1020
0.0
1030
0.0
  0
LINE
  5
127D59
  8
SLIM
 10
5039.131269327042
 20
-1245.9999999999941
 30
0.0
 11
5085.0000000000036
 21
-1200.131269327032
 31
0.0
1001
GRADIENTCOLOR1ACI
1070
     5
1001
GRADIENTCOLOR2ACI
1070
     2
1001
ACAD
1010
0.0
1020
0.0
1030
0.0
  0
LINE
  5
127D5A
  8
SLIM
 10
5038.091781569181
 20
-1264.9999999999941
 30
0.0
 11
5057.091781569181
 21
-1245.9999999999941
 31
0.0
1001
GRADIENTCOLOR1ACI
1070
     5
1001
GRADIENTCOLOR2ACI
1070
     2
1001
ACAD
1010
0.0
1020
0.0
1030
0.0
  0
LINE
  5
127D5B
  8
SLIM
 10
5057.091781569181
 20
-1245.9999999999941
 30
0.0
 11
5083.2186851305432
 21
-1219.873096438632
 31
0.0
1001
GRADIENTCOLOR1ACI
1070
     5
1001
GRADIENTCOLOR2ACI
1070
     2
1001
ACAD
1010
0.0
1020
0.0
1030
0.0
  0
LINE
  5
127D5C
  8
SLIM
 10
5056.052293811319
 20
-1264.9999999999941
 30
0.0
 11
5070.0
 21
-1251.052293811312
 31
0.0
1001
GRADIENTCOLOR1ACI
1070
     5
1001
GRADIENTCOLOR2ACI
1070
     2
1001
ACAD
1010
0.0
1020
0.0
1030
0.0
  0
LINE
  5
127D5D
  8
SLIM
 10
5075.0522938113199
 20
-1245.9999999999941
 30
0.0
 11
5080.6528976673808
 21
-1240.399396143933
 31
0.0
1001
GRADIENTCOLOR1ACI
1070
     5
1001
GRADIENTCOLOR2ACI
1070
     2
1001
ACAD
1010
0.0
1020
0.0
1030
0.0
  0
LINE
  5
127D5E
  8
OBJECT
 10
5085.0000000000073
 20
-845.99999999999443
 30
0.0
 11
5085.0000000000036
 21
-1205.6225774829529
 31
0.0
1001
ACDBBLOCKREPETAG
1070
     1
1071
        2
1005
0
  0
LINE
  5
127D5F
  8
OBJECT
 10
5085.0000000000073
 20
-845.99999999999443
 30
0.0
 11
4914.9999999999918
 21
-845.99999999999443
 31
0.0
1001
ACDBBLOCKREPETAG
1070
     1
1071
        3
1005
0
  0
LINE
  5
127D60
  8
OBJECT
 10
4920.0471778146257
 20
-1245.9999999999941
 30
0.0
 11
5079.9528221853716
 21
-1245.9999999999941
 31
0.0
1001
ACDBBLOCKREPETAG
1070
     1
1071
        3
1005
0
  0
LINE
  5
127D61
  8
OBJECT
 10
5079.9528221853716
 20
-1245.9999999999941
 30
0.0
 11
5085.0000000000036
 21
-1205.6225774829529
 31
0.0
1001
ACDBBLOCKREPETAG
1070
     1
1071
       11
1005
0
  0
LINE
  5
127D62
  8
OBJECT
 10
4914.9999999999918
 20
-845.99999999999443
 30
0.0
 11
4914.9999999999982
 21
-1205.6225774829529
 31
0.0
1001
ACDBBLOCKREPETAG
1070
     1
1071
        2
1005
0
  0
LINE
  5
127D63
  8
OBJECT
 10
4920.0471778146257
 20
-1245.9999999999941
 30
0.0
 11
4914.9999999999982
 21
-1205.6225774829529
 31
0.0
1001
ACDBBLOCKREPETAG
1070
     1
1071
       11
1005
0
  0
LINE
  5
127D64
  8
OBJECT
 10
4930.0
 20
-1245.9999999999941
 30
0.0
 11
4930.0
 21
-1264.9999999999941
 31
0.0
1001
ACDBBLOCKREPETAG
1070
     1
1071
       10
1005
0
  0
LINE
  5
127D65
  8
OBJECT
 10
4930.0
 20
-1264.9999999999941
 30
0.0
 11
5070.0
 21
-1264.9999999999941
 31
0.0
1001
ACDBBLOCKREPETAG
1070
     1
1071
       11
1005
0
  0
LINE
  5
127D66
  8
OBJECT
 10
5070.0
 20
-1264.9999999999941
 30
0.0
 11
5070.0
 21
-1245.9999999999941
 31
0.0
1001
ACDBBLOCKREPETAG
1070
     1
1071
       12
1005
0
  0
LINE
  5
127D67
  8
OBJECT
 10
4925.0
 20
-889.99999999999409
 30
0.0
 11
4925.0
 21
-1162.9999999999941
 31
0.0
1001
ACDBBLOCKREPETAG
1070
     1
1071
        1
1005
127D67
  0
LINE
  5
127D68
  8
OBJECT
 10
5075.0
 20
-889.9999999999884
 30
0.0
 11
5075.0
 21
-1162.9999999999941
 31
0.0
1001
ACDBBLOCKREPETAG
1070
     1
1071
        3
1005
127D68
  0
LINE
  5
127D69
  8
CENTER
 10
5000.0
 20
-889.99999999999409
 30
0.0
 11
5000.0
 21
-1174.9999999999941
 31
0.0
1001
ACDBBLOCKREPETAG
1070
     1
1071
        6
1005
127D69
  0
LINE
  5
127D6A
  8
OBJECT
 10
4920.0
 20
-1174.9999999999941
 30
0.0
 11
5080.0
 21
-1174.9999999999941
 31
0.0
1001
ACDBBLOCKREPETAG
1070
     1
1071
        7
1005
127D6A
  0
LINE
  5
127D6B
  8
OBJECT
 10
4920.0
 20
-1162.9999999999941
 30
0.0
 11
5080.0
 21
-1162.9999999999941
 31
0.0
1001
ACDBBLOCKREPETAG
1070
     1
1071
        8
1005
127D6B
  0
LINE
  5
127D6C
  8
OBJECT
 10
4920.0
 20
-1162.9999999999941
 30
0.0
 11
4920.0
 21
-1174.9999999999941
 31
0.0
1001
ACDBBLOCKREPETAG
1070
     1
1071
        9
1005
127D6C
  0
LINE
  5
127D6D
  8
OBJECT
 10
5080.0
 20
-1162.9999999999941
 30
0.0
 11
5080.0
 21
-1174.9999999999941
 31
0.0
1001
ACDBBLOCKREPETAG
1070
     1
1071
       10
1005
127D6D
  0
LINE
  5
127D6E
  8
OBJECT
 10
4425.0
 20
-889.99999999999409
 30
0.0
 11
4425.0
 21
-1162.9999999999941
 31
0.0
1001
ACDBBLOCKREPETAG
1070
     1
1071
        1
1005
127D6E
  0
LINE
  5
127D6F
  8
OBJECT
 10
4575.0
 20
-889.9999999999884
 30
0.0
 11
4575.0
 21
-1162.9999999999941
 31
0.0
1001
ACDBBLOCKREPETAG
1070
     1
1071
        3
1005
127D6F
  0
LINE
  5
127D70
  8
CENTER
 10
4500.0
 20
-889.99999999999409
 30
0.0
 11
4500.0
 21
-1174.9999999999941
 31
0.0
1001
ACDBBLOCKREPETAG
1070
     1
1071
        6
1005
127D70
  0
LINE
  5
127D71
  8
OBJECT
 10
4420.0
 20
-1174.9999999999941
 30
0.0
 11
4580.0
 21
-1174.9999999999941
 31
0.0
1001
ACDBBLOCKREPETAG
1070
     1
1071
        7
1005
127D71
  0
LINE
  5
127D72
  8
OBJECT
 10
4420.0
 20
-1162.9999999999941
 30
0.0
 11
4580.0
 21
-1162.9999999999941
 31
0.0
1001
ACDBBLOCKREPETAG
1070
     1
1071
        8
1005
127D72
  0
LINE
  5
127D73
  8
OBJECT
 10
4420.0
 20
-1162.9999999999941
 30
0.0
 11
4420.0
 21
-1174.9999999999941
 31
0.0
1001
ACDBBLOCKREPETAG
1070
     1
1071
        9
1005
127D73
  0
LINE
  5
127D74
  8
OBJECT
 10
4580.0
 20
-1162.9999999999941
 30
0.0
 11
4580.0
 21
-1174.9999999999941
 31
0.0
1001
ACDBBLOCKREPETAG
1070
     1
1071
       10
1005
127D74
  0
LINE
  5
127D75
  8
OBJECT
 10
2925.0
 20
-889.99999999999409
 30
0.0
 11
2925.0
 21
-1162.9999999999941
 31
0.0
1001
ACDBBLOCKREPETAG
1070
     1
1071
        1
1005
127D75
  0
LINE
  5
127D76
  8
OBJECT
 10
3075.0
 20
-889.9999999999884
 30
0.0
 11
3075.0
 21
-1162.9999999999941
 31
0.0
1001
ACDBBLOCKREPETAG
1070
     1
1071
        3
1005
127D76
  0
LINE
  5
127D77
  8
CENTER
 10
3000.0
 20
-889.99999999999409
 30
0.0
 11
3000.0
 21
-1174.9999999999941
 31
0.0
1001
ACDBBLOCKREPETAG
1070
     1
1071
        6
1005
127D77
  0
LINE
  5
127D78
  8
OBJECT
 10
2920.0
 20
-1174.9999999999941
 30
0.0
 11
3080.0
 21
-1174.9999999999941
 31
0.0
1001
ACDBBLOCKREPETAG
1070
     1
1071
        7
1005
127D78
  0
LINE
  5
127D79
  8
OBJECT
 10
2920.0
 20
-1162.9999999999941
 30
0.0
 11
3080.0
 21
-1162.9999999999941
 31
0.0
1001
ACDBBLOCKREPETAG
1070
     1
1071
        8
1005
127D79
  0
LINE
  5
127D7A
  8
OBJECT
 10
2920.0
 20
-1162.9999999999941
 30
0.0
 11
2920.0
 21
-1174.9999999999941
 31
0.0
1001
ACDBBLOCKREPETAG
1070
     1
1071
        9
1005
127D7A
  0
LINE
  5
127D7B
  8
OBJECT
 10
3080.0
 20
-1162.9999999999941
 30
0.0
 11
3080.0
 21
-1174.9999999999941
 31
0.0
1001
ACDBBLOCKREPETAG
1070
     1
1071
       10
1005
127D7B
  0
LINE
  5
127D7C
  8
OBJECT
 10
2425.0
 20
-889.99999999999409
 30
0.0
 11
2425.0
 21
-1162.9999999999941
 31
0.0
1001
ACDBBLOCKREPETAG
1070
     1
1071
        1
1005
127D7C
  0
LINE
  5
127D7D
  8
OBJECT
 10
2575.0
 20
-889.9999999999884
 30
0.0
 11
2575.0
 21
-1162.9999999999941
 31
0.0
1001
ACDBBLOCKREPETAG
1070
     1
1071
        3
1005
127D7D
  0
LINE
  5
127D7E
  8
CENTER
 10
2500.0
 20
-889.99999999999409
 30
0.0
 11
2500.0
 21
-1174.9999999999941
 31
0.0
1001
ACDBBLOCKREPETAG
1070
     1
1071
        6
1005
127D7E
  0
LINE
  5
127D7F
  8
OBJECT
 10
2420.0
 20
-1174.9999999999941
 30
0.0
 11
2580.0
 21
-1174.9999999999941
 31
0.0
1001
ACDBBLOCKREPETAG
1070
     1
1071
        7
1005
127D7F
  0
LINE
  5
127D80
  8
OBJECT
 10
2420.0
 20
-1162.9999999999941
 30
0.0
 11
2580.0
 21
-1162.9999999999941
 31
0.0
1001
ACDBBLOCKREPETAG
1070
     1
1071
        8
1005
127D80
  0
LINE
  5
127D81
  8
OBJECT
 10
2420.0
 20
-1162.9999999999941
 30
0.0
 11
2420.0
 21
-1174.9999999999941
 31
0.0
1001
ACDBBLOCKREPETAG
1070
     1
1071
        9
1005
127D81
  0
LINE
  5
127D82
  8
OBJECT
 10
2580.0
 20
-1162.9999999999941
 30
0.0
 11
2580.0
 21
-1174.9999999999941
 31
0.0
1001
ACDBBLOCKREPETAG
1070
     1
1071
       10
1005
127D82
  0
TEXT
  5
127D83
  8
SLIM
 10
5468.3428571428567
 20
-1472.999999999992
 30
0.0
 40
24.0
  1
400～530
 41
0.75
  0
TEXT
  5
127D84
  8
SLIM
 10
5470.0571428571429
 20
-1424.999999999992
 30
0.0
 40
24.0
  1
410～540
 41
0.75
  0
TEXT
  5
127D85
  8
SLIM
 10
5468.3428571428567
 20
-1376.999999999992
 30
0.0
 40
24.0
  1
420～550
 41
0.75
  0
TEXT
  5
127D86
  8
SLIM
 10
5468.3428571428567
 20
-1328.999999999992
 30
0.0
 40
24.0
  1
430～560
 41
0.75
  0
TEXT
  5
127D87
  8
SLIM
 10
5468.3428571428567
 20
-1280.999999999992
 30
0.0
 40
24.0
  1
440～570
 41
0.75
  0
TEXT
  5
127D88
  8
SLIM
 10
5468.3428571428567
 20
-1232.999999999992
 30
0.0
 40
24.0
  1
450～580
 41
0.75
  0
TEXT
  5
127D89
  8
SLIM
 10
5468.3428571428567
 20
-1184.999999999992
 30
0.0
 40
24.0
  1
460～590
 41
0.75
  0
TEXT
  5
127D8A
  8
SLIM
 10
5474.3428571428567
 20
-1136.999999999992
 30
0.0
 40
24.0
  1
対応m寸法
 41
0.75
  0
TEXT
  5
127D8B
  8
SLIM
 10
5376.7428571428582
 20
-1530.999999999992
 30
0.0
 40
24.0
  1
標準：m=550-P
 41
0.75
  0
TEXT
  5
127D8C
  8
SLIM
 10
5380.5714285714284
 20
-1472.999999999992
 30
0.0
 40
24.0
  1
150
 41
0.75
  0
TEXT
  5
127D8D
  8
SLIM
 10
5380.5714285714284
 20
-1424.999999999992
 30
0.0
 40
24.0
  1
140
 41
0.75
  0
TEXT
  5
127D8E
  8
SLIM
 10
5380.5714285714284
 20
-1376.999999999992
 30
0.0
 40
24.0
  1
130
 41
0.75
  0
TEXT
  5
127D8F
  8
SLIM
 10
5380.5714285714284
 20
-1328.999999999992
 30
0.0
 40
24.0
  1
120
 41
0.75
  0
TEXT
  5
127D90
  8
SLIM
 10
5382.2857142857138
 20
-1280.999999999992
 30
0.0
 40
24.0
  1
110
 41
0.75
  0
TEXT
  5
127D91
  8
SLIM
 10
5380.5714285714284
 20
-1232.999999999992
 30
0.0
 40
24.0
  1
100
 41
0.75
  0
TEXT
  5
127D92
  8
SLIM
 10
5373.8000000000002
 20
-1136.999999999992
 30
0.0
 40
24.0
  1
P寸法
 41
0.75
  0
TEXT
  5
127D93
  8
SLIM
 10
5387.4285714285697
 20
-1184.999999999992
 30
0.0
 40
24.0
  1
90
 41
0.75
  0
TEXT
  5
127D94
  8
SLIM
 10
4054.6000000000031
 20
-1818.000026666665
 30
0.0
 40
28.0
  1
※ 対応P寸法　　90～150（10mm単位）
 41
0.75
  0
TEXT
  5
127D95
  8
SLIM
 10
4054.6000000000031
 20
-1864.6666933333311
 30
0.0
 40
28.0
  1
※ 対応スラブ厚　180～（m-10）
 41
0.75
  0
TEXT
  5
127D96
  8
SLIM
 10
4054.6000000000031
 20
-1911.333359999998
 30
0.0
 40
28.0
  1
※ 足切り可能寸法（最大）　680-P-m（コンパクトＬベンド使用なら+10）
 41
0.75
  0
TEXT
  5
127D97
  8
SLIM
 10
4098.9000000000033
 20
-1983.3333066666651
 30
0.0
 40
28.0
  1
国土交通大臣認定・（一財）日本消防設備安全センター性能評定取得品
 41
0.75
  0
TEXT
  5
127D98
  8
SLIM
 10
4131.1000000000013
 20
-2029.999973333332
 30
0.0
 40
28.0
  1
注）ご採用にあたり、認定書及び評定書の内容をご確認ください。
 41
0.75
  0
LINE
  5
127D99
  8
SLIM
 10
4414.9999999999918
 20
-849.27641430503331
 30
0.0
 11
4418.2764143050317
 21
-845.99999999999443
 31
0.0
1001
GRADIENTCOLOR1ACI
1070
     5
1001
GRADIENTCOLOR2ACI
1070
     2
1001
ACAD
1010
0.0
1020
0.0
1030
0.0
  0
LINE
  5
127D9A
  8
SLIM
 10
4414.9999999999918
 20
-867.23692654717149
 30
0.0
 11
4436.2369265471689
 21
-845.99999999999443
 31
0.0
1001
GRADIENTCOLOR1ACI
1070
     5
1001
GRADIENTCOLOR2ACI
1070
     2
1001
ACAD
1010
0.0
1020
0.0
1030
0.0
  0
LINE
  5
127D9B
  8
SLIM
 10
4414.9999999999918
 20
-885.19743878930967
 30
0.0
 11
4454.1974387893088
 21
-845.99999999999443
 31
0.0
1001
GRADIENTCOLOR1ACI
1070
     5
1001
GRADIENTCOLOR2ACI
1070
     2
1001
ACAD
1010
0.0
1020
0.0
1030
0.0
  0
LINE
  5
127D9C
  8
SLIM
 10
4414.9999999999927
 20
-903.15795103144751
 30
0.0
 11
4472.1579510314468
 21
-845.99999999999443
 31
0.0
1001
GRADIENTCOLOR1ACI
1070
     5
1001
GRADIENTCOLOR2ACI
1070
     2
1001
ACAD
1010
0.0
1020
0.0
1030
0.0
  0
LINE
  5
127D9D
  8
SLIM
 10
4414.9999999999927
 20
-921.11846327358569
 30
0.0
 11
4490.118463273584
 21
-845.99999999999443
 31
0.0
1001
GRADIENTCOLOR1ACI
1070
     5
1001
GRADIENTCOLOR2ACI
1070
     2
1001
ACAD
1010
0.0
1020
0.0
1030
0.0
  0
LINE
  5
127D9E
  8
SLIM
 10
4414.9999999999927
 20
-939.07897551572387
 30
0.0
 11
4508.078975515723
 21
-845.99999999999443
 31
0.0
1001
GRADIENTCOLOR1ACI
1070
     5
1001
GRADIENTCOLOR2ACI
1070
     2
1001
ACAD
1010
0.0
1020
0.0
1030
0.0
  0
LINE
  5
127D9F
  8
SLIM
 10
4414.9999999999927
 20
-957.03948775786193
 30
0.0
 11
4526.0394877578619
 21
-845.99999999999443
 31
0.0
1001
GRADIENTCOLOR1ACI
1070
     5
1001
GRADIENTCOLOR2ACI
1070
     2
1001
ACAD
1010
0.0
1020
0.0
1030
0.0
  0
LINE
  5
127DA0
  8
SLIM
 10
4414.9999999999927
 20
-975.0
 30
0.0
 11
4544.0
 21
-845.99999999999443
 31
0.0
1001
GRADIENTCOLOR1ACI
1070
     5
1001
GRADIENTCOLOR2ACI
1070
     2
1001
ACAD
1010
0.0
1020
0.0
1030
0.0
  0
LINE
  5
127DA1
  8
SLIM
 10
4414.9999999999927
 20
-992.96051224213829
 30
0.0
 11
4561.9605122421381
 21
-845.99999999999443
 31
0.0
1001
GRADIENTCOLOR1ACI
1070
     5
1001
GRADIENTCOLOR2ACI
1070
     2
1001
ACAD
1010
0.0
1020
0.0
1030
0.0
  0
LINE
  5
127DA2
  8
SLIM
 10
4414.9999999999927
 20
-1010.921024484276
 30
0.0
 11
4579.921024484277
 21
-845.99999999999443
 31
0.0
1001
GRADIENTCOLOR1ACI
1070
     5
1001
GRADIENTCOLOR2ACI
1070
     2
1001
ACAD
1010
0.0
1020
0.0
1030
0.0
  0
LINE
  5
127DA3
  8
SLIM
 10
4414.9999999999927
 20
-1028.8815367264151
 30
0.0
 11
4585.0000000000073
 21
-858.88153672640215
 31
0.0
1001
GRADIENTCOLOR1ACI
1070
     5
1001
GRADIENTCOLOR2ACI
1070
     2
1001
ACAD
1010
0.0
1020
0.0
1030
0.0
  0
LINE
  5
127DA4
  8
SLIM
 10
4414.9999999999927
 20
-1046.8420489685529
 30
0.0
 11
4585.0000000000073
 21
-876.84204896854067
 31
0.0
1001
GRADIENTCOLOR1ACI
1070
     5
1001
GRADIENTCOLOR2ACI
1070
     2
1001
ACAD
1010
0.0
1020
0.0
1030
0.0
  0
LINE
  5
127DA5
  8
SLIM
 10
4414.9999999999927
 20
-1064.802561210691
 30
0.0
 11
4585.0000000000073
 21
-894.80256121067885
 31
0.0
1001
GRADIENTCOLOR1ACI
1070
     5
1001
GRADIENTCOLOR2ACI
1070
     2
1001
ACAD
1010
0.0
1020
0.0
1030
0.0
  0
LINE
  5
127DA6
  8
SLIM
 10
4414.9999999999955
 20
-1082.7630734528291
 30
0.0
 11
4585.0000000000073
 21
-912.76307345281759
 31
0.0
1001
GRADIENTCOLOR1ACI
1070
     5
1001
GRADIENTCOLOR2ACI
1070
     2
1001
ACAD
1010
0.0
1020
0.0
1030
0.0
  0
LINE
  5
127DA7
  8
SLIM
 10
4414.9999999999955
 20
-1100.723585694966
 30
0.0
 11
4585.0000000000073
 21
-930.723585694956
 31
0.0
1001
GRADIENTCOLOR1ACI
1070
     5
1001
GRADIENTCOLOR2ACI
1070
     2
1001
ACAD
1010
0.0
1020
0.0
1030
0.0
  0
LINE
  5
127DA8
  8
SLIM
 10
4414.9999999999955
 20
-1118.684097937105
 30
0.0
 11
4585.0000000000073
 21
-948.68409793709463
 31
0.0
1001
GRADIENTCOLOR1ACI
1070
     5
1001
GRADIENTCOLOR2ACI
1070
     2
1001
ACAD
1010
0.0
1020
0.0
1030
0.0
  0
LINE
  5
127DA9
  8
SLIM
 10
4414.9999999999955
 20
-1136.644610179243
 30
0.0
 11
4585.0000000000073
 21
-966.6446101792327
 31
0.0
1001
GRADIENTCOLOR1ACI
1070
     5
1001
GRADIENTCOLOR2ACI
1070
     2
1001
ACAD
1010
0.0
1020
0.0
1030
0.0
  0
LINE
  5
127DAA
  8
SLIM
 10
4414.9999999999973
 20
-1154.6051224213811
 30
0.0
 11
4585.0000000000073
 21
-984.60512242137133
 31
0.0
1001
GRADIENTCOLOR1ACI
1070
     5
1001
GRADIENTCOLOR2ACI
1070
     2
1001
ACAD
1010
0.0
1020
0.0
1030
0.0
  0
LINE
  5
127DAB
  8
SLIM
 10
4414.9999999999973
 20
-1172.565634663518
 30
0.0
 11
4585.0000000000073
 21
-1002.56563466351
 31
0.0
1001
GRADIENTCOLOR1ACI
1070
     5
1001
GRADIENTCOLOR2ACI
1070
     2
1001
ACAD
1010
0.0
1020
0.0
1030
0.0
  0
LINE
  5
127DAC
  8
SLIM
 10
4414.9999999999973
 20
-1190.5261469056579
 30
0.0
 11
4585.0000000000073
 21
-1020.526146905648
 31
0.0
1001
GRADIENTCOLOR1ACI
1070
     5
1001
GRADIENTCOLOR2ACI
1070
     2
1001
ACAD
1010
0.0
1020
0.0
1030
0.0
  0
LINE
  5
127DAD
  8
SLIM
 10
4415.3182312960889
 20
-1208.1684278517021
 30
0.0
 11
4585.0000000000073
 21
-1038.486659147786
 31
0.0
1001
GRADIENTCOLOR1ACI
1070
     5
1001
GRADIENTCOLOR2ACI
1070
     2
1001
ACAD
1010
0.0
1020
0.0
1030
0.0
  0
LINE
  5
127DAE
  8
SLIM
 10
4417.3138437674388
 20
-1224.1333276224909
 30
0.0
 11
4585.0000000000073
 21
-1056.447171389925
 31
0.0
1001
GRADIENTCOLOR1ACI
1070
     5
1001
GRADIENTCOLOR2ACI
1070
     2
1001
ACAD
1010
0.0
1020
0.0
1030
0.0
  0
LINE
  5
127DAF
  8
SLIM
 10
4419.3094562387878
 20
-1240.0982273932809
 30
0.0
 11
4585.0000000000036
 21
-1074.4076836320639
 31
0.0
1001
GRADIENTCOLOR1ACI
1070
     5
1001
GRADIENTCOLOR2ACI
1070
     2
1001
ACAD
1010
0.0
1020
0.0
1030
0.0
  0
LINE
  5
127DB0
  8
SLIM
 10
4430.0
 20
-1247.368195874207
 30
0.0
 11
4431.3681958742109
 21
-1245.9999999999941
 31
0.0
1001
GRADIENTCOLOR1ACI
1070
     5
1001
GRADIENTCOLOR2ACI
1070
     2
1001
ACAD
1010
0.0
1020
0.0
1030
0.0
  0
LINE
  5
127DB1
  8
SLIM
 10
4431.3681958742109
 20
-1245.9999999999941
 30
0.0
 11
4585.0000000000036
 21
-1092.368195874202
 31
0.0
1001
GRADIENTCOLOR1ACI
1070
     5
1001
GRADIENTCOLOR2ACI
1070
     2
1001
ACAD
1010
0.0
1020
0.0
1030
0.0
  0
LINE
  5
127DB2
  8
SLIM
 10
4430.3287081163508
 20
-1264.9999999999941
 30
0.0
 11
4449.3287081163498
 21
-1245.9999999999941
 31
0.0
1001
GRADIENTCOLOR1ACI
1070
     5
1001
GRADIENTCOLOR2ACI
1070
     2
1001
ACAD
1010
0.0
1020
0.0
1030
0.0
  0
LINE
  5
127DB3
  8
SLIM
 10
4449.3287081163498
 20
-1245.9999999999941
 30
0.0
 11
4585.0000000000036
 21
-1110.328708116341
 31
0.0
1001
GRADIENTCOLOR1ACI
1070
     5
1001
GRADIENTCOLOR2ACI
1070
     2
1001
ACAD
1010
0.0
1020
0.0
1030
0.0
  0
LINE
  5
127DB4
  8
SLIM
 10
4448.2892203584879
 20
-1264.9999999999941
 30
0.0
 11
4467.2892203584897
 21
-1245.9999999999941
 31
0.0
1001
GRADIENTCOLOR1ACI
1070
     5
1001
GRADIENTCOLOR2ACI
1070
     2
1001
ACAD
1010
0.0
1020
0.0
1030
0.0
  0
LINE
  5
127DB5
  8
SLIM
 10
4467.2892203584897
 20
-1245.9999999999941
 30
0.0
 11
4585.0000000000036
 21
-1128.289220358479
 31
0.0
1001
GRADIENTCOLOR1ACI
1070
     5
1001
GRADIENTCOLOR2ACI
1070
     2
1001
ACAD
1010
0.0
1020
0.0
1030
0.0
  0
LINE
  5
127DB6
  8
SLIM
 10
4466.2497326006278
 20
-1264.9999999999941
 30
0.0
 11
4485.2497326006251
 21
-1245.9999999999941
 31
0.0
1001
GRADIENTCOLOR1ACI
1070
     5
1001
GRADIENTCOLOR2ACI
1070
     2
1001
ACAD
1010
0.0
1020
0.0
1030
0.0
  0
LINE
  5
127DB7
  8
SLIM
 10
4485.2497326006251
 20
-1245.9999999999941
 30
0.0
 11
4585.0000000000036
 21
-1146.249732600618
 31
0.0
1001
GRADIENTCOLOR1ACI
1070
     5
1001
GRADIENTCOLOR2ACI
1070
     2
1001
ACAD
1010
0.0
1020
0.0
1030
0.0
  0
LINE
  5
127DB8
  8
SLIM
 10
4484.2102448427659
 20
-1264.9999999999941
 30
0.0
 11
4503.2102448427668
 21
-1245.9999999999941
 31
0.0
1001
GRADIENTCOLOR1ACI
1070
     5
1001
GRADIENTCOLOR2ACI
1070
     2
1001
ACAD
1010
0.0
1020
0.0
1030
0.0
  0
LINE
  5
127DB9
  8
SLIM
 10
4503.2102448427668
 20
-1245.9999999999941
 30
0.0
 11
4585.0000000000009
 21
-1164.2102448427561
 31
0.0
1001
GRADIENTCOLOR1ACI
1070
     5
1001
GRADIENTCOLOR2ACI
1070
     2
1001
ACAD
1010
0.0
1020
0.0
1030
0.0
  0
LINE
  5
127DBA
  8
SLIM
 10
4502.1707570849048
 20
-1264.9999999999941
 30
0.0
 11
4521.1707570849048
 21
-1245.9999999999941
 31
0.0
1001
GRADIENTCOLOR1ACI
1070
     5
1001
GRADIENTCOLOR2ACI
1070
     2
1001
ACAD
1010
0.0
1020
0.0
1030
0.0
  0
LINE
  5
127DBB
  8
SLIM
 10
4521.1707570849048
 20
-1245.9999999999941
 30
0.0
 11
4585.0000000000009
 21
-1182.1707570848951
 31
0.0
1001
GRADIENTCOLOR1ACI
1070
     5
1001
GRADIENTCOLOR2ACI
1070
     2
1001
ACAD
1010
0.0
1020
0.0
1030
0.0
  0
LINE
  5
127DBC
  8
SLIM
 10
4520.131269327042
 20
-1264.9999999999941
 30
0.0
 11
4539.131269327042
 21
-1245.9999999999941
 31
0.0
1001
GRADIENTCOLOR1ACI
1070
     5
1001
GRADIENTCOLOR2ACI
1070
     2
1001
ACAD
1010
0.0
1020
0.0
1030
0.0
  0
LINE
  5
127DBD
  8
SLIM
 10
4539.131269327042
 20
-1245.9999999999941
 30
0.0
 11
4585.0000000000009
 21
-1200.131269327032
 31
0.0
1001
GRADIENTCOLOR1ACI
1070
     5
1001
GRADIENTCOLOR2ACI
1070
     2
1001
ACAD
1010
0.0
1020
0.0
1030
0.0
  0
LINE
  5
127DBE
  8
SLIM
 10
4538.091781569181
 20
-1264.9999999999941
 30
0.0
 11
4557.0917815691791
 21
-1245.9999999999941
 31
0.0
1001
GRADIENTCOLOR1ACI
1070
     5
1001
GRADIENTCOLOR2ACI
1070
     2
1001
ACAD
1010
0.0
1020
0.0
1030
0.0
  0
LINE
  5
127DBF
  8
SLIM
 10
4557.0917815691791
 20
-1245.9999999999941
 30
0.0
 11
4583.2186851305423
 21
-1219.873096438632
 31
0.0
1001
GRADIENTCOLOR1ACI
1070
     5
1001
GRADIENTCOLOR2ACI
1070
     2
1001
ACAD
1010
0.0
1020
0.0
1030
0.0
  0
LINE
  5
127DC0
  8
SLIM
 10
4556.0522938113181
 20
-1264.9999999999941
 30
0.0
 11
4570.0
 21
-1251.052293811312
 31
0.0
1001
GRADIENTCOLOR1ACI
1070
     5
1001
GRADIENTCOLOR2ACI
1070
     2
1001
ACAD
1010
0.0
1020
0.0
1030
0.0
  0
LINE
  5
127DC1
  8
SLIM
 10
4575.0522938113199
 20
-1245.9999999999941
 30
0.0
 11
4580.6528976673799
 21
-1240.399396143933
 31
0.0
1001
GRADIENTCOLOR1ACI
1070
     5
1001
GRADIENTCOLOR2ACI
1070
     2
1001
ACAD
1010
0.0
1020
0.0
1030
0.0
  0
LINE
  5
127DC2
  8
OBJECT
 10
4585.0000000000073
 20
-845.99999999999443
 30
0.0
 11
4585.0000000000009
 21
-1205.6225774829529
 31
0.0
1001
ACDBBLOCKREPETAG
1070
     1
1071
        2
1005
0
  0
LINE
  5
127DC3
  8
OBJECT
 10
4585.0000000000073
 20
-845.99999999999443
 30
0.0
 11
4414.9999999999918
 21
-845.99999999999443
 31
0.0
1001
ACDBBLOCKREPETAG
1070
     1
1071
        3
1005
0
  0
LINE
  5
127DC4
  8
OBJECT
 10
4420.0471778146257
 20
-1245.9999999999941
 30
0.0
 11
4579.9528221853707
 21
-1245.9999999999941
 31
0.0
1001
ACDBBLOCKREPETAG
1070
     1
1071
        3
1005
0
  0
LINE
  5
127DC5
  8
OBJECT
 10
4579.9528221853707
 20
-1245.9999999999941
 30
0.0
 11
4585.0000000000009
 21
-1205.6225774829529
 31
0.0
1001
ACDBBLOCKREPETAG
1070
     1
1071
       11
1005
0
  0
LINE
  5
127DC6
  8
OBJECT
 10
4414.9999999999918
 20
-845.99999999999443
 30
0.0
 11
4414.9999999999973
 21
-1205.6225774829529
 31
0.0
1001
ACDBBLOCKREPETAG
1070
     1
1071
        2
1005
0
  0
LINE
  5
127DC7
  8
OBJECT
 10
4420.0471778146257
 20
-1245.9999999999941
 30
0.0
 11
4414.9999999999973
 21
-1205.6225774829529
 31
0.0
1001
ACDBBLOCKREPETAG
1070
     1
1071
       11
1005
0
  0
LINE
  5
127DC8
  8
OBJECT
 10
4430.0
 20
-1245.9999999999941
 30
0.0
 11
4430.0
 21
-1264.9999999999941
 31
0.0
1001
ACDBBLOCKREPETAG
1070
     1
1071
       10
1005
0
  0
LINE
  5
127DC9
  8
OBJECT
 10
4430.0
 20
-1264.9999999999941
 30
0.0
 11
4570.0
 21
-1264.9999999999941
 31
0.0
1001
ACDBBLOCKREPETAG
1070
     1
1071
       11
1005
0
  0
LINE
  5
127DCA
  8
OBJECT
 10
4570.0
 20
-1264.9999999999941
 30
0.0
 11
4570.0
 21
-1245.9999999999941
 31
0.0
1001
ACDBBLOCKREPETAG
1070
     1
1071
       12
1005
0
  0
LINE
  5
127DCB
  8
DIM
 10
4404.9999999999936
 20
-845.9999999999942
 30
0.0
 11
4333.1164560757752
 21
-845.99999999999375
 31
0.0
  0
LINE
  5
127DCC
  8
DIM
 10
4410.0471778146293
 20
-1245.9999999999941
 30
0.0
 11
4333.1164560757752
 21
-1245.9999999999941
 31
0.0
  0
LINE
  5
127DCD
  8
DIM
 10
4343.1164560757752
 20
-865.99999999999409
 30
0.0
 11
4343.1164560757752
 21
-1225.9999999999941
 31
0.0
  0
INSERT
  5
127DCE
  8
DIM
  2
_OPEN30
 10
4343.1164560757752
 20
-845.99999999999375
 30
0.0
 41
20.0
 42
20.0
 43
20.0
 50
90.0
  0
INSERT
  5
127DCF
  8
DIM
  2
_OPEN30
 10
4343.1164560757752
 20
-1245.9999999999941
 30
0.0
 41
20.0
 42
20.0
 43
20.0
 50
270.0
  0
INSERT
  5
127DD0
  8
OBJECT
  2
*U5
 10
0.0
 20
0.0
 30
0.0
  0
LINE
  5
127DD1
  8
OBJECT
 10
4930.0
 20
-1484.999999999992
 30
0.0
 11
5070.0
 21
-1484.999999999992
 31
0.0
1001
ACDBBLOCKREPETAG
1070
     1
1071
        0
1005
127DD1
  0
LINE
  5
127DD2
  8
OBJECT
 10
4930.0
 20
-1484.999999999992
 30
0.0
 11
4930.0
 21
-1244.999999999993
 31
0.0
1001
ACDBBLOCKREPETAG
1070
     1
1071
        1
1005
127DD2
  0
LINE
  5
127DD3
  8
OBJECT
 10
5070.0
 20
-1484.999999999992
 30
0.0
 11
5070.0
 21
-1244.999999999993
 31
0.0
1001
ACDBBLOCKREPETAG
1070
     1
1071
        2
1005
127DD3
  0
LINE
  5
127DD4
  8
OBJECT
 10
4930.0
 20
-1244.999999999993
 30
0.0
 11
5070.0
 21
-1244.999999999993
 31
0.0
1001
ACDBBLOCKREPETAG
1070
     1
1071
        3
1005
127DD4
  0
LINE
  5
127DD5
  8
HIDDEN
 10
4937.5
 20
-1244.999999999993
 30
0.0
 11
4937.5
 21
-1484.999999999992
 31
0.0
1001
ACDBBLOCKREPETAG
1070
     1
1071
        4
1005
127DD5
  0
LINE
  5
127DD6
  8
HIDDEN
 10
5062.5
 20
-1244.999999999993
 30
0.0
 11
5062.5
 21
-1484.999999999992
 31
0.0
1001
ACDBBLOCKREPETAG
1070
     1
1071
        5
1005
127DD6
  0
LINE
  5
127DD7
  8
CENTER
 10
5000.0
 20
-1174.9999999999941
 30
0.0
 11
5000.0
 21
-1499.999999999992
 31
0.0
1001
ACDBBLOCKREPETAG
1070
     1
1071
        6
1005
127DD7
  0
LINE
  5
127DD8
  8
OBJECT
 10
4925.0
 20
-1174.9999999999941
 30
0.0
 11
4925.0
 21
-1204.999999999992
 31
0.0
1001
ACDBBLOCKREPETAG
1070
     1
1071
        7
1005
127DD8
  0
LINE
  5
127DD9
  8
OBJECT
 10
5075.0000000000018
 20
-1174.9999999999941
 30
0.0
 11
5075.0
 21
-1204.999999999992
 31
0.0
1001
ACDBBLOCKREPETAG
1070
     1
1071
        8
1005
127DD9
  0
LINE
  5
127DDA
  8
OBJECT
 10
4925.0
 20
-1204.999999999992
 30
0.0
 11
5075.0
 21
-1204.999999999992
 31
0.0
1001
ACDBBLOCKREPETAG
1070
     1
1071
        9
1005
127DDA
  0
LINE
  5
127DDB
  8
OBJECT
 10
4925.0
 20
-1204.999999999992
 30
0.0
 11
4930.0
 21
-1244.999999999993
 31
0.0
1001
ACDBBLOCKREPETAG
1070
     1
1071
       10
1005
127DDB
  0
LINE
  5
127DDC
  8
OBJECT
 10
5070.0
 20
-1244.999999999993
 30
0.0
 11
5075.0
 21
-1204.999999999992
 31
0.0
1001
ACDBBLOCKREPETAG
1070
     1
1071
       11
1005
127DDC
  0
LINE
  5
127DDD
  8
OBJECT
 10
4430.0
 20
-1484.999999999992
 30
0.0
 11
4570.0
 21
-1484.999999999992
 31
0.0
1001
ACDBBLOCKREPETAG
1070
     1
1071
        0
1005
127DDD
  0
LINE
  5
127DDE
  8
OBJECT
 10
4430.0
 20
-1484.999999999992
 30
0.0
 11
4430.0
 21
-1244.999999999993
 31
0.0
1001
ACDBBLOCKREPETAG
1070
     1
1071
        1
1005
127DDE
  0
LINE
  5
127DDF
  8
OBJECT
 10
4570.0
 20
-1484.999999999992
 30
0.0
 11
4570.0
 21
-1244.999999999993
 31
0.0
1001
ACDBBLOCKREPETAG
1070
     1
1071
        2
1005
127DDF
  0
LINE
  5
127DE0
  8
OBJECT
 10
4430.0
 20
-1244.999999999993
 30
0.0
 11
4570.0
 21
-1244.999999999993
 31
0.0
1001
ACDBBLOCKREPETAG
1070
     1
1071
        3
1005
127DE0
  0
LINE
  5
127DE1
  8
HIDDEN
 10
4437.5
 20
-1244.999999999993
 30
0.0
 11
4437.5
 21
-1484.999999999992
 31
0.0
1001
ACDBBLOCKREPETAG
1070
     1
1071
        4
1005
127DE1
  0
LINE
  5
127DE2
  8
HIDDEN
 10
4562.5
 20
-1244.999999999993
 30
0.0
 11
4562.5
 21
-1484.999999999992
 31
0.0
1001
ACDBBLOCKREPETAG
1070
     1
1071
        5
1005
127DE2
  0
LINE
  5
127DE3
  8
CENTER
 10
4500.0
 20
-1174.9999999999941
 30
0.0
 11
4500.0
 21
-1499.999999999992
 31
0.0
1001
ACDBBLOCKREPETAG
1070
     1
1071
        6
1005
127DE3
  0
LINE
  5
127DE4
  8
OBJECT
 10
4425.0
 20
-1174.9999999999941
 30
0.0
 11
4425.0
 21
-1204.999999999992
 31
0.0
1001
ACDBBLOCKREPETAG
1070
     1
1071
        7
1005
127DE4
  0
LINE
  5
127DE5
  8
OBJECT
 10
4575.0000000000009
 20
-1174.9999999999941
 30
0.0
 11
4575.0
 21
-1204.999999999992
 31
0.0
1001
ACDBBLOCKREPETAG
1070
     1
1071
        8
1005
127DE5
  0
LINE
  5
127DE6
  8
OBJECT
 10
4425.0
 20
-1204.999999999992
 30
0.0
 11
4575.0
 21
-1204.999999999992
 31
0.0
1001
ACDBBLOCKREPETAG
1070
     1
1071
        9
1005
127DE6
  0
LINE
  5
127DE7
  8
OBJECT
 10
4425.0
 20
-1204.999999999992
 30
0.0
 11
4430.0
 21
-1244.999999999993
 31
0.0
1001
ACDBBLOCKREPETAG
1070
     1
1071
       10
1005
127DE7
  0
LINE
  5
127DE8
  8
OBJECT
 10
4570.0
 20
-1244.999999999993
 30
0.0
 11
4575.0
 21
-1204.999999999992
 31
0.0
1001
ACDBBLOCKREPETAG
1070
     1
1071
       11
1005
127DE8
  0
LINE
  5
127DE9
  8
OBJECT
 10
2930.0
 20
-1484.999999999992
 30
0.0
 11
3070.0
 21
-1484.999999999992
 31
0.0
1001
ACDBBLOCKREPETAG
1070
     1
1071
        0
1005
127DE9
  0
LINE
  5
127DEA
  8
OBJECT
 10
2930.0
 20
-1484.999999999992
 30
0.0
 11
2930.0
 21
-1244.999999999993
 31
0.0
1001
ACDBBLOCKREPETAG
1070
     1
1071
        1
1005
127DEA
  0
LINE
  5
127DEB
  8
OBJECT
 10
3070.0
 20
-1484.999999999992
 30
0.0
 11
3070.0
 21
-1244.999999999993
 31
0.0
1001
ACDBBLOCKREPETAG
1070
     1
1071
        2
1005
127DEB
  0
LINE
  5
127DEC
  8
OBJECT
 10
2930.0
 20
-1244.999999999993
 30
0.0
 11
3070.0
 21
-1244.999999999993
 31
0.0
1001
ACDBBLOCKREPETAG
1070
     1
1071
        3
1005
127DEC
  0
LINE
  5
127DED
  8
HIDDEN
 10
2937.5
 20
-1244.999999999993
 30
0.0
 11
2937.5
 21
-1484.999999999992
 31
0.0
1001
ACDBBLOCKREPETAG
1070
     1
1071
        4
1005
127DED
  0
LINE
  5
127DEE
  8
HIDDEN
 10
3062.5
 20
-1244.999999999993
 30
0.0
 11
3062.5
 21
-1484.999999999992
 31
0.0
1001
ACDBBLOCKREPETAG
1070
     1
1071
        5
1005
127DEE
  0
LINE
  5
127DEF
  8
CENTER
 10
3000.0
 20
-1174.9999999999941
 30
0.0
 11
3000.0
 21
-1499.999999999992
 31
0.0
1001
ACDBBLOCKREPETAG
1070
     1
1071
        6
1005
127DEF
  0
LINE
  5
127DF0
  8
OBJECT
 10
2925.0
 20
-1174.9999999999941
 30
0.0
 11
2925.0
 21
-1204.999999999992
 31
0.0
1001
ACDBBLOCKREPETAG
1070
     1
1071
        7
1005
127DF0
  0
LINE
  5
127DF1
  8
OBJECT
 10
3075.000000000005
 20
-1174.9999999999941
 30
0.0
 11
3075.0
 21
-1204.999999999992
 31
0.0
1001
ACDBBLOCKREPETAG
1070
     1
1071
        8
1005
127DF1
  0
LINE
  5
127DF2
  8
OBJECT
 10
2925.0
 20
-1204.999999999992
 30
0.0
 11
3075.0
 21
-1204.999999999992
 31
0.0
1001
ACDBBLOCKREPETAG
1070
     1
1071
        9
1005
127DF2
  0
LINE
  5
127DF3
  8
OBJECT
 10
2925.0
 20
-1204.999999999992
 30
0.0
 11
2930.0
 21
-1244.999999999993
 31
0.0
1001
ACDBBLOCKREPETAG
1070
     1
1071
       10
1005
127DF3
  0
LINE
  5
127DF4
  8
OBJECT
 10
3070.0
 20
-1244.999999999993
 30
0.0
 11
3075.0
 21
-1204.999999999992
 31
0.0
1001
ACDBBLOCKREPETAG
1070
     1
1071
       11
1005
127DF4
  0
LINE
  5
127DF5
  8
OBJECT
 10
2430.0
 20
-1484.999999999992
 30
0.0
 11
2570.0
 21
-1484.999999999992
 31
0.0
1001
ACDBBLOCKREPETAG
1070
     1
1071
        0
1005
127DF5
  0
LINE
  5
127DF6
  8
OBJECT
 10
2430.0
 20
-1484.999999999992
 30
0.0
 11
2430.0
 21
-1244.999999999993
 31
0.0
1001
ACDBBLOCKREPETAG
1070
     1
1071
        1
1005
127DF6
  0
LINE
  5
127DF7
  8
OBJECT
 10
2570.0
 20
-1484.999999999992
 30
0.0
 11
2570.0
 21
-1244.999999999993
 31
0.0
1001
ACDBBLOCKREPETAG
1070
     1
1071
        2
1005
127DF7
  0
LINE
  5
127DF8
  8
OBJECT
 10
2430.0
 20
-1244.999999999993
 30
0.0
 11
2570.0
 21
-1244.999999999993
 31
0.0
1001
ACDBBLOCKREPETAG
1070
     1
1071
        3
1005
127DF8
  0
LINE
  5
127DF9
  8
HIDDEN
 10
2437.5
 20
-1244.999999999993
 30
0.0
 11
2437.5
 21
-1484.999999999992
 31
0.0
1001
ACDBBLOCKREPETAG
1070
     1
1071
        4
1005
127DF9
  0
LINE
  5
127DFA
  8
HIDDEN
 10
2562.5
 20
-1244.999999999993
 30
0.0
 11
2562.5
 21
-1484.999999999992
 31
0.0
1001
ACDBBLOCKREPETAG
1070
     1
1071
        5
1005
127DFA
  0
LINE
  5
127DFB
  8
CENTER
 10
2500.0
 20
-1174.9999999999941
 30
0.0
 11
2500.0
 21
-1499.999999999992
 31
0.0
1001
ACDBBLOCKREPETAG
1070
     1
1071
        6
1005
127DFB
  0
LINE
  5
127DFC
  8
OBJECT
 10
2425.0
 20
-1174.9999999999941
 30
0.0
 11
2425.0
 21
-1204.999999999992
 31
0.0
1001
ACDBBLOCKREPETAG
1070
     1
1071
        7
1005
127DFC
  0
LINE
  5
127DFD
  8
OBJECT
 10
2575.000000000005
 20
-1174.9999999999941
 30
0.0
 11
2575.0
 21
-1204.999999999992
 31
0.0
1001
ACDBBLOCKREPETAG
1070
     1
1071
        8
1005
127DFD
  0
LINE
  5
127DFE
  8
OBJECT
 10
2425.0
 20
-1204.999999999992
 30
0.0
 11
2575.0
 21
-1204.999999999992
 31
0.0
1001
ACDBBLOCKREPETAG
1070
     1
1071
        9
1005
127DFE
  0
LINE
  5
127DFF
  8
OBJECT
 10
2425.0
 20
-1204.999999999992
 30
0.0
 11
2430.0
 21
-1244.999999999993
 31
0.0
1001
ACDBBLOCKREPETAG
1070
     1
1071
       10
1005
127DFF
  0
LINE
  5
127E00
  8
OBJECT
 10
2570.0
 20
-1244.999999999993
 30
0.0
 11
2575.0
 21
-1204.999999999992
 31
0.0
1001
ACDBBLOCKREPETAG
1070
     1
1071
       11
1005
127E00
  0
TEXT
  5
127E01
  8
SLIM
 10
2256.3000000000002
 20
-1828.999999999998
 30
0.0
 40
28.0
  1
※ 対応P寸法　90～180（10mm単位）
 41
0.75
  0
LINE
  5
127E02
  8
SLIM
 10
4424.8586105144159
 20
-160.26624122769411
 30
0.0
 11
4460.2662412276968
 21
-124.858610514414
 31
0.0
1001
GRADIENTCOLOR1ACI
1070
     5
1001
GRADIENTCOLOR2ACI
1070
     2
1001
ACAD
1010
0.0
1020
0.0
1030
0.0
  0
LINE
  5
127E03
  8
SLIM
 10
4418.6084340676744
 20
-175.4966737955055
 30
0.0
 11
4434.3612988780997
 21
-159.7438089850811
 31
0.0
1001
GRADIENTCOLOR1ACI
1070
     5
1001
GRADIENTCOLOR2ACI
1070
     2
1001
ACAD
1010
0.0
1020
0.0
1030
0.0
  0
LINE
  5
127E04
  8
SLIM
 10
4459.7438089850821
 20
-134.36129887809781
 30
0.0
 11
4475.4966737955074
 21
-118.6084340676734
 31
0.0
1001
GRADIENTCOLOR1ACI
1070
     5
1001
GRADIENTCOLOR2ACI
1070
     2
1001
ACAD
1010
0.0
1020
0.0
1030
0.0
  0
LINE
  5
127E05
  8
SLIM
 10
4415.9844434040897
 20
-187.1009205801592
 30
0.0
 11
4426.7155127720243
 21
-176.36985121222639
 31
0.0
1001
GRADIENTCOLOR1ACI
1070
     5
1001
GRADIENTCOLOR2ACI
1070
     2
1001
ACAD
1010
0.0
1020
0.0
1030
0.0
  0
LINE
  5
127E06
  8
SLIM
 10
4476.3698512122273
 20
-126.71551277202251
 30
0.0
 11
4487.1009205801611
 21
-115.98444340408869
 31
0.0
1001
GRADIENTCOLOR1ACI
1070
     5
1001
GRADIENTCOLOR2ACI
1070
     2
1001
ACAD
1010
0.0
1020
0.0
1030
0.0
  0
LINE
  5
127E07
  8
SLIM
 10
4415.0524951669204
 20
-197.01312493839851
 30
0.0
 11
4416.0656201053189
 21
-196.0
 31
0.0
1001
GRADIENTCOLOR1ACI
1070
     5
1001
GRADIENTCOLOR2ACI
1070
     2
1001
ACAD
1010
0.0
1020
0.0
1030
0.0
  0
LINE
  5
127E08
  8
SLIM
 10
4488.1480121870763
 20
-123.9176079182425
 30
0.0
 11
4497.0131249384003
 21
-115.0524951669185
 31
0.0
1001
GRADIENTCOLOR1ACI
1070
     5
1001
GRADIENTCOLOR2ACI
1070
     2
1001
ACAD
1010
0.0
1020
0.0
1030
0.0
  0
LINE
  5
127E09
  8
SLIM
 10
4416.0656201053189
 20
-196.0
 30
0.0
 11
4423.9176079182453
 21
-188.1480121870745
 31
0.0
1001
GRADIENTCOLOR1ACI
1070
     5
1001
GRADIENTCOLOR2ACI
1070
     2
1001
ACAD
1010
0.0
1020
0.0
1030
0.0
  0
LINE
  5
127E0A
  8
SLIM
 10
4415.2011819161371
 20
-205.844694310249
 30
0.0
 11
4421.0458762263879
 21
-200.0
 31
0.0
1001
GRADIENTCOLOR1ACI
1070
     5
1001
GRADIENTCOLOR2ACI
1070
     2
1001
ACAD
1010
0.0
1020
0.0
1030
0.0
  0
LINE
  5
127E0B
  8
SLIM
 10
4499.9999999999991
 20
-121.0458762263879
 30
0.0
 11
4505.844694310249
 21
-115.20118191613891
 31
0.0
1001
GRADIENTCOLOR1ACI
1070
     5
1001
GRADIENTCOLOR2ACI
1070
     2
1001
ACAD
1010
0.0
1020
0.0
1030
0.0
  0
LINE
  5
127E0C
  8
SLIM
 10
4421.0458762263879
 20
-200.0
 30
0.0
 11
4423.0254504002114
 21
-198.02042582617551
 31
0.0
1001
GRADIENTCOLOR1ACI
1070
     5
1001
GRADIENTCOLOR2ACI
1070
     2
1001
ACAD
1010
0.0
1020
0.0
1030
0.0
  0
LINE
  5
127E0D
  8
SLIM
 10
4498.0204258261756
 20
-123.0254504002114
 30
0.0
 11
4499.9999999999991
 21
-121.0458762263879
 31
0.0
1001
GRADIENTCOLOR1ACI
1070
     5
1001
GRADIENTCOLOR2ACI
1070
     2
1001
ACAD
1010
0.0
1020
0.0
1030
0.0
  0
LINE
  5
127E0E
  8
SLIM
 10
4416.141658771895
 20
-213.88447357556291
 30
0.0
 11
4423.2947912640902
 21
-206.73134108336581
 31
0.0
1001
GRADIENTCOLOR1ACI
1070
     5
1001
GRADIENTCOLOR2ACI
1070
     2
1001
ACAD
1010
0.0
1020
0.0
1030
0.0
  0
LINE
  5
127E0F
  8
SLIM
 10
4506.7313410833667
 20
-123.29479126409019
 30
0.0
 11
4513.8844735755611
 21
-116.14165877189311
 31
0.0
1001
GRADIENTCOLOR1ACI
1070
     5
1001
GRADIENTCOLOR2ACI
1070
     2
1001
ACAD
1010
0.0
1020
0.0
1030
0.0
  0
LINE
  5
127E10
  8
SLIM
 10
4417.710870111021
 20
-221.2955183575032
 30
0.0
 11
4419.006388468526
 21
-220.0
 31
0.0
1001
GRADIENTCOLOR1ACI
1070
     5
1001
GRADIENTCOLOR2ACI
1070
     2
1001
ACAD
1010
0.0
1020
0.0
1030
0.0
  0
LINE
  5
127E11
  8
SLIM
 10
4514.6080147980001
 20
-124.3983736705258
 30
0.0
 11
4521.2955183575032
 21
-117.71087011102099
 31
0.0
1001
GRADIENTCOLOR1ACI
1070
     5
1001
GRADIENTCOLOR2ACI
1070
     2
1001
ACAD
1010
0.0
1020
0.0
1030
0.0
  0
LINE
  5
127E12
  8
SLIM
 10
4419.006388468526
 20
-220.0
 30
0.0
 11
4424.3983736705259
 21
-214.60801479800011
 31
0.0
1001
GRADIENTCOLOR1ACI
1070
     5
1001
GRADIENTCOLOR2ACI
1070
     2
1001
ACAD
1010
0.0
1020
0.0
1030
0.0
  0
LINE
  5
127E13
  8
SLIM
 10
4419.8070443755887
 20
-228.17960021400589
 30
0.0
 11
4426.1586830180368
 21
-221.8279615715565
 31
0.0
1001
GRADIENTCOLOR1ACI
1070
     5
1001
GRADIENTCOLOR2ACI
1070
     2
1001
ACAD
1010
0.0
1020
0.0
1030
0.0
  0
LINE
  5
127E14
  8
SLIM
 10
4521.8279615715574
 20
-126.1586830180367
 30
0.0
 11
4528.1796002140054
 21
-119.8070443755887
 31
0.0
1001
GRADIENTCOLOR1ACI
1070
     5
1001
GRADIENTCOLOR2ACI
1070
     2
1001
ACAD
1010
0.0
1020
0.0
1030
0.0
  0
LINE
  5
127E15
  8
SLIM
 10
4422.3627047135597
 20
-234.6041959971044
 30
0.0
 11
4424.9669007106631
 21
-232.00000000000091
 31
0.0
1001
GRADIENTCOLOR1ACI
1070
     5
1001
GRADIENTCOLOR2ACI
1070
     2
1001
ACAD
1010
0.0
1020
0.0
1030
0.0
  0
LINE
  5
127E16
  8
SLIM
 10
4528.4988289042203
 20
-128.4680718064437
 30
0.0
 11
4534.6041959971053
 21
-122.3627047135587
 31
0.0
1001
GRADIENTCOLOR1ACI
1070
     5
1001
GRADIENTCOLOR2ACI
1070
     2
1001
ACAD
1010
0.0
1020
0.0
1030
0.0
  0
LINE
  5
127E17
  8
SLIM
 10
4424.9669007106631
 20
-232.00000000000091
 30
0.0
 11
4428.4680718064428
 21
-228.4988289042185
 31
0.0
1001
GRADIENTCOLOR1ACI
1070
     5
1001
GRADIENTCOLOR2ACI
1070
     2
1001
ACAD
1010
0.0
1020
0.0
1030
0.0
  0
LINE
  5
127E18
  8
SLIM
 10
4425.3315714414439
 20
-240.61558539028869
 30
0.0
 11
4431.257033983361
 21
-234.69012284837211
 31
0.0
1001
GRADIENTCOLOR1ACI
1070
     5
1001
GRADIENTCOLOR2ACI
1070
     2
1001
ACAD
1010
0.0
1020
0.0
1030
0.0
  0
LINE
  5
127E19
  8
SLIM
 10
4534.6901228483721
 20
-131.25703398336009
 30
0.0
 11
4540.6155853902883
 21
-125.3315714414439
 31
0.0
1001
GRADIENTCOLOR1ACI
1070
     5
1001
GRADIENTCOLOR2ACI
1070
     2
1001
ACAD
1010
0.0
1020
0.0
1030
0.0
  0
LINE
  5
127E1A
  8
SLIM
 10
4428.681554893712
 20
-246.24585805908961
 30
0.0
 11
4434.4793564785941
 21
-240.44805647420799
 31
0.0
1001
GRADIENTCOLOR1ACI
1070
     5
1001
GRADIENTCOLOR2ACI
1070
     2
1001
ACAD
1010
0.0
1020
0.0
1030
0.0
  0
LINE
  5
127E1B
  8
SLIM
 10
4540.448056474208
 20
-134.47935647859231
 30
0.0
 11
4546.2458580590901
 21
-128.68155489371199
 31
0.0
1001
GRADIENTCOLOR1ACI
1070
     5
1001
GRADIENTCOLOR2ACI
1070
     2
1001
ACAD
1010
0.0
1020
0.0
1030
0.0
  0
LINE
  5
127E1C
  8
SLIM
 10
4432.3907652629223
 20
-251.51690381094889
 30
0.0
 11
4438.1044220857211
 21
-245.80324698814911
 31
0.0
1001
GRADIENTCOLOR1ACI
1070
     5
1001
GRADIENTCOLOR2ACI
1070
     2
1001
ACAD
1010
0.0
1020
0.0
1030
0.0
  0
LINE
  5
127E1D
  8
SLIM
 10
4545.9076690738721
 20
-137.99999999999821
 30
0.0
 11
4551.5169038109489
 21
-132.39076526292121
 31
0.0
1001
GRADIENTCOLOR1ACI
1070
     5
1001
GRADIENTCOLOR2ACI
1070
     2
1001
ACAD
1010
0.0
1020
0.0
1030
0.0
  0
LINE
  5
127E1E
  8
SLIM
 10
4436.4451742931069
 20
-256.44275090183328
 30
0.0
 11
4442.1129898655927
 21
-250.7749353293452
 31
0.0
1001
GRADIENTCOLOR1ACI
1070
     5
1001
GRADIENTCOLOR2ACI
1070
     2
1001
ACAD
1010
0.0
1020
0.0
1030
0.0
  0
LINE
  5
127E1F
  8
SLIM
 10
4554.887925194942
 20
-137.9999999999973
 30
0.0
 11
4556.4427509018342
 21
-136.44517429310599
 31
0.0
1001
GRADIENTCOLOR1ACI
1070
     5
1001
GRADIENTCOLOR2ACI
1070
     2
1001
ACAD
1010
0.0
1020
0.0
1030
0.0
  0
LINE
  5
127E20
  8
SLIM
 10
4440.8372731495638
 20
-261.03090816644323
 30
0.0
 11
4446.4948816754841
 21
-255.3732996405256
 31
0.0
1001
GRADIENTCOLOR1ACI
1070
     5
1001
GRADIENTCOLOR2ACI
1070
     2
1001
ACAD
1010
0.0
1020
0.0
1030
0.0
  0
LINE
  5
127E21
  8
SLIM
 10
4445.5654027321416
 20
-265.2830347049366
 30
0.0
 11
4450.5
 21
-260.3484374370787
 31
0.0
1001
GRADIENTCOLOR1ACI
1070
     5
1001
GRADIENTCOLOR2ACI
1070
     2
1001
ACAD
1010
0.0
1020
0.0
1030
0.0
  0
LINE
  5
127E22
  8
SLIM
 10
4549.5421817599126
 20
-269.06932912999582
 30
0.0
 11
4556.6115108899112
 21
-261.99999999999909
 31
0.0
1001
GRADIENTCOLOR1ACI
1070
     5
1001
GRADIENTCOLOR2ACI
1070
     2
1001
ACAD
1010
0.0
1020
0.0
1030
0.0
  0
LINE
  5
127E23
  8
OBJECT
 10
4633.0
 20
-137.99999999999909
 30
0.0
 11
4640.0
 21
-137.99999999999909
 31
0.0
1001
ACDBBLOCKREPETAG
1070
     1
1071
       47
1005
127E23
  0
LINE
  5
127E24
  8
OBJECT
 10
4640.0
 20
-137.99999999999909
 30
0.0
 11
4640.0
 21
-261.99999999999909
 31
0.0
1001
ACDBBLOCKREPETAG
1070
     1
1071
       48
1005
127E24
  0
LINE
  5
127E25
  8
OBJECT
 10
4640.0
 20
-261.99999999999909
 30
0.0
 11
4633.0
 21
-261.99999999999909
 31
0.0
1001
ACDBBLOCKREPETAG
1070
     1
1071
       49
1005
127E25
  0
LINE
  5
127E26
  8
OBJECT
 10
4633.0
 20
-261.99999999999909
 30
0.0
 11
4633.0
 21
-137.99999999999909
 31
0.0
1001
ACDBBLOCKREPETAG
1070
     1
1071
       50
1005
127E26
  0
LINE
  5
127E27
  8
CENTER
 10
4655.0
 20
-199.99999999999909
 30
0.0
 11
4580.0
 21
-199.99999999999909
 31
0.0
1001
ACDBBLOCKREPETAG
1070
     1
1071
       51
1005
127E27
  0
LINE
  5
127E28
  8
OBJECT
 10
4633.0
 20
-140.99999999999909
 30
0.0
 11
4597.0
 21
-140.99999999999909
 31
0.0
1001
ACDBBLOCKREPETAG
1070
     1
1071
       52
1005
127E28
  0
LINE
  5
127E29
  8
OBJECT
 10
4597.0
 20
-140.99999999999909
 30
0.0
 11
4597.0
 21
-258.99999999999909
 31
0.0
1001
ACDBBLOCKREPETAG
1070
     1
1071
       53
1005
127E29
  0
LINE
  5
127E2A
  8
OBJECT
 10
4597.0
 20
-258.99999999999909
 30
0.0
 11
4633.0
 21
-258.99999999999909
 31
0.0
1001
ACDBBLOCKREPETAG
1070
     1
1071
       54
1005
127E2A
  0
LINE
  5
127E2B
  8
OBJECT
 10
4593.0
 20
-145.49999999999909
 30
0.0
 11
4586.0
 21
-145.49999999999909
 31
0.0
1001
ACDBBLOCKREPETAG
1070
     1
1071
       55
1005
127E2B
  0
LINE
  5
127E2C
  8
OBJECT
 10
4586.0
 20
-254.49999999999909
 30
0.0
 11
4593.0
 21
-254.49999999999909
 31
0.0
1001
ACDBBLOCKREPETAG
1070
     1
1071
       56
1005
127E2C
  0
LINE
  5
127E2D
  8
OBJECT
 10
4593.0
 20
-254.49999999999909
 30
0.0
 11
4593.0
 21
-145.49999999999909
 31
0.0
1001
ACDBBLOCKREPETAG
1070
     1
1071
       57
1005
127E2D
  0
LINE
  5
127E2E
  8
OBJECT
 10
4597.0
 20
-140.99999999999909
 30
0.0
 11
4593.0
 21
-145.49999999999909
 31
0.0
1001
ACDBBLOCKREPETAG
1070
     1
1071
       58
1005
127E2E
  0
LINE
  5
127E2F
  8
OBJECT
 10
4597.0
 20
-258.99999999999909
 30
0.0
 11
4593.0
 21
-254.49999999999909
 31
0.0
1001
ACDBBLOCKREPETAG
1070
     1
1071
       59
1005
127E2F
  0
LINE
  5
127E30
  8
OBJECT
 10
4583.0
 20
-137.99999999999909
 30
0.0
 11
4580.0
 21
-137.99999999999909
 31
0.0
1001
ACDBBLOCKREPETAG
1070
     1
1071
       60
1005
127E30
  0
ARC
  5
127E31
  8
OBJECT
 10
4583.0
 20
-140.99999999999909
 30
0.0
 40
3.0
 50
0.0
 51
90.0
1001
ACDBBLOCKREPETAG
1070
     1
1071
       61
1005
127E31
  0
LINE
  5
127E32
  8
OBJECT
 10
4580.0
 20
-261.99999999999909
 30
0.0
 11
4583.0
 21
-261.99999999999909
 31
0.0
1001
ACDBBLOCKREPETAG
1070
     1
1071
       62
1005
127E32
  0
ARC
  5
127E33
  8
OBJECT
 10
4583.0
 20
-258.99999999999909
 30
0.0
 40
3.0
 50
270.0
 51
0.0
1001
ACDBBLOCKREPETAG
1070
     1
1071
       63
1005
127E33
  0
LINE
  5
127E34
  8
OBJECT
 10
4586.0
 20
-258.99999999999909
 30
0.0
 11
4586.0
 21
-140.99999999999909
 31
0.0
1001
ACDBBLOCKREPETAG
1070
     1
1071
       64
1005
127E34
  0
LINE
  5
127E35
  8
HIDDEN
 10
4588.0
 20
-155.49999999999909
 30
0.0
 11
4588.0
 21
-244.49999999999909
 31
0.0
1001
ACDBBLOCKREPETAG
1070
     1
1071
       65
1005
127E35
  0
LINE
  5
127E36
  8
OBJECT
 10
288.9999999999996
 20
-1397.9999999998411
 30
0.0
 11
295.99999999999949
 21
-1397.9999999998411
 31
0.0
1001
ACDBBLOCKREPETAG
1070
     1
1071
       34
1005
127E36
  0
LINE
  5
127E37
  8
OBJECT
 10
295.99999999999949
 20
-1397.9999999998411
 30
0.0
 11
295.99999999999949
 21
-1521.9999999998411
 31
0.0
1001
ACDBBLOCKREPETAG
1070
     1
1071
       35
1005
127E37
  0
LINE
  5
127E38
  8
OBJECT
 10
295.99999999999949
 20
-1521.9999999998411
 30
0.0
 11
288.9999999999996
 21
-1521.9999999998411
 31
0.0
1001
ACDBBLOCKREPETAG
1070
     1
1071
       36
1005
127E38
  0
LINE
  5
127E39
  8
OBJECT
 10
288.9999999999996
 20
-1521.9999999998411
 30
0.0
 11
288.9999999999996
 21
-1397.9999999998411
 31
0.0
1001
ACDBBLOCKREPETAG
1070
     1
1071
       37
1005
127E39
  0
LINE
  5
127E3A
  8
OBJECT
 10
288.9999999999996
 20
-1400.9999999998399
 30
0.0
 11
252.9999999999994
 21
-1400.9999999998399
 31
0.0
1001
ACDBBLOCKREPETAG
1070
     1
1071
       38
1005
127E3A
  0
LINE
  5
127E3B
  8
OBJECT
 10
252.9999999999994
 20
-1400.9999999998399
 30
0.0
 11
252.9999999999994
 21
-1518.9999999998411
 31
0.0
1001
ACDBBLOCKREPETAG
1070
     1
1071
       39
1005
127E3B
  0
LINE
  5
127E3C
  8
OBJECT
 10
252.9999999999994
 20
-1518.9999999998411
 30
0.0
 11
288.9999999999996
 21
-1518.9999999998411
 31
0.0
1001
ACDBBLOCKREPETAG
1070
     1
1071
       40
1005
127E3C
  0
LINE
  5
127E3D
  8
OBJECT
 10
248.9999999999994
 20
-1405.4999999998411
 30
0.0
 11
238.4999999999994
 21
-1405.4999999998411
 31
0.0
1001
ACDBBLOCKREPETAG
1070
     1
1071
       41
1005
127E3D
  0
LINE
  5
127E3E
  8
OBJECT
 10
238.4999999999994
 20
-1514.4999999998411
 30
0.0
 11
248.9999999999994
 21
-1514.4999999998411
 31
0.0
1001
ACDBBLOCKREPETAG
1070
     1
1071
       42
1005
127E3E
  0
LINE
  5
127E3F
  8
OBJECT
 10
248.9999999999994
 20
-1514.4999999998411
 30
0.0
 11
248.9999999999994
 21
-1405.4999999998411
 31
0.0
1001
ACDBBLOCKREPETAG
1070
     1
1071
       43
1005
127E3F
  0
LINE
  5
127E40
  8
OBJECT
 10
252.9999999999994
 20
-1400.9999999998399
 30
0.0
 11
248.9999999999994
 21
-1405.4999999998411
 31
0.0
1001
ACDBBLOCKREPETAG
1070
     1
1071
       44
1005
127E40
  0
LINE
  5
127E41
  8
OBJECT
 10
252.9999999999994
 20
-1518.9999999998411
 30
0.0
 11
248.9999999999994
 21
-1514.4999999998411
 31
0.0
1001
ACDBBLOCKREPETAG
1070
     1
1071
       45
1005
127E41
  0
LINE
  5
127E42
  8
OBJECT
 10
233.49999999999949
 20
-1410.4999999998411
 30
0.0
 11
212.34491991297821
 21
-1410.4999999998411
 31
0.0
1001
ACDBBLOCKREPETAG
1070
     1
1071
       46
1005
127E42
  0
LINE
  5
127E43
  8
OBJECT
 10
233.49999999999949
 20
-1509.4999999998411
 30
0.0
 11
212.3449199129773
 21
-1509.4999999998411
 31
0.0
1001
ACDBBLOCKREPETAG
1070
     1
1071
       47
1005
127E43
  0
LINE
  5
127E44
  8
OBJECT
 10
238.4999999999994
 20
-1405.4999999998411
 30
0.0
 11
238.4999999999994
 21
-1514.4999999998411
 31
0.0
1001
ACDBBLOCKREPETAG
1070
     1
1071
       48
1005
127E44
  0
LINE
  5
127E45
  8
OBJECT
 10
233.49999999999949
 20
-1410.4999999998411
 30
0.0
 11
233.49999999999949
 21
-1509.4999999998411
 31
0.0
1001
ACDBBLOCKREPETAG
1070
     1
1071
       49
1005
127E45
  0
LINE
  5
127E46
  8
OBJECT
 10
238.4999999999994
 20
-1405.4999999998411
 30
0.0
 11
233.49999999999949
 21
-1410.4999999998411
 31
0.0
1001
ACDBBLOCKREPETAG
1070
     1
1071
       50
1005
127E46
  0
LINE
  5
127E47
  8
OBJECT
 10
233.49999999999949
 20
-1509.4999999998411
 30
0.0
 11
238.4999999999994
 21
-1514.499999999837
 31
0.0
1001
ACDBBLOCKREPETAG
1070
     1
1071
       51
1005
127E47
  0
INSERT
  5
127E48
  8
OBJECT
  2
*U6
 10
0.0
 20
0.0
 30
0.0
  0
LINE
  5
127E49
  8
HIDDEN
 10
243.9999999999996
 20
-1415.4999999998411
 30
0.0
 11
243.99999999999949
 21
-1504.4999999998411
 31
0.0
1001
ACDBBLOCKREPETAG
1070
     1
1071
       65
1005
127E49
  0
LINE
  5
127E4A
  8
OBJECT
 10
648.99999999987767
 20
-940.99999999999932
 30
0.0
 11
655.99999999987756
 21
-940.99999999999932
 31
0.0
1001
ACDBBLOCKREPETAG
1070
     1
1071
       18
1005
127E4A
  0
LINE
  5
127E4B
  8
OBJECT
 10
655.99999999987756
 20
-940.99999999999932
 30
0.0
 11
655.99999999987756
 21
-1050.9999999999991
 31
0.0
1001
ACDBBLOCKREPETAG
1070
     1
1071
       19
1005
127E4B
  0
LINE
  5
127E4C
  8
OBJECT
 10
655.99999999987756
 20
-1050.9999999999991
 30
0.0
 11
648.99999999987767
 21
-1050.9999999999991
 31
0.0
1001
ACDBBLOCKREPETAG
1070
     1
1071
       20
1005
127E4C
  0
LINE
  5
127E4D
  8
OBJECT
 10
648.99999999987767
 20
-1050.9999999999991
 30
0.0
 11
648.99999999987767
 21
-940.99999999999932
 31
0.0
1001
ACDBBLOCKREPETAG
1070
     1
1071
       21
1005
127E4D
  0
LINE
  5
127E4E
  8
OBJECT
 10
648.99999999987767
 20
-943.99999999999875
 30
0.0
 11
612.99999999987756
 21
-943.99999999999875
 31
0.0
1001
ACDBBLOCKREPETAG
1070
     1
1071
       22
1005
127E4E
  0
LINE
  5
127E4F
  8
OBJECT
 10
612.99999999987756
 20
-943.99999999999875
 30
0.0
 11
612.99999999987756
 21
-1047.9999999999991
 31
0.0
1001
ACDBBLOCKREPETAG
1070
     1
1071
       23
1005
127E4F
  0
LINE
  5
127E50
  8
OBJECT
 10
612.99999999987756
 20
-1047.9999999999991
 30
0.0
 11
648.99999999987767
 21
-1047.9999999999991
 31
0.0
1001
ACDBBLOCKREPETAG
1070
     1
1071
       24
1005
127E50
  0
LINE
  5
127E51
  8
OBJECT
 10
608.99999999987756
 20
-948.49999999999864
 30
0.0
 11
600.49999999987813
 21
-948.49999999999864
 31
0.0
1001
ACDBBLOCKREPETAG
1070
     1
1071
       25
1005
127E51
  0
LINE
  5
127E52
  8
OBJECT
 10
600.49999999987722
 20
-1043.4999999999991
 30
0.0
 11
608.99999999987756
 21
-1043.4999999999991
 31
0.0
1001
ACDBBLOCKREPETAG
1070
     1
1071
       26
1005
127E52
  0
LINE
  5
127E53
  8
OBJECT
 10
608.99999999987756
 20
-1043.4999999999991
 30
0.0
 11
608.99999999987756
 21
-948.49999999999864
 31
0.0
1001
ACDBBLOCKREPETAG
1070
     1
1071
       27
1005
127E53
  0
LINE
  5
127E54
  8
OBJECT
 10
612.99999999987756
 20
-943.99999999999875
 30
0.0
 11
608.99999999987756
 21
-948.49999999999864
 31
0.0
1001
ACDBBLOCKREPETAG
1070
     1
1071
       28
1005
127E54
  0
LINE
  5
127E55
  8
OBJECT
 10
612.99999999987756
 20
-1047.9999999999991
 30
0.0
 11
608.99999999987756
 21
-1043.4999999999991
 31
0.0
1001
ACDBBLOCKREPETAG
1070
     1
1071
       29
1005
127E55
  0
LINE
  5
127E56
  8
OBJECT
 10
600.49999999987642
 20
-1045.4999999999991
 30
0.0
 11
600.49999999987813
 21
-946.49999999999875
 31
0.0
1001
ACDBBLOCKREPETAG
1070
     1
1071
       30
1005
127E56
  0
LINE
  5
127E57
  8
OBJECT
 10
600.49999999987813
 20
-946.49999999999875
 30
0.0
 11
572.34491991285734
 21
-946.49999999999989
 31
0.0
1001
ACDBBLOCKREPETAG
1070
     1
1071
       31
1005
127E57
  0
LINE
  5
127E58
  8
OBJECT
 10
600.49999999987642
 20
-1045.4999999999991
 30
0.0
 11
572.34491991285608
 21
-1045.5
 31
0.0
1001
ACDBBLOCKREPETAG
1070
     1
1071
       32
1005
127E58
  0
INSERT
  5
127E59
  8
OBJECT
  2
*U7
 10
0.0
 20
0.0
 30
0.0
  0
LINE
  5
127E5A
  8
HIDDEN
 10
603.99999999987767
 20
-957.9999999999992
 30
0.0
 11
603.99999999987767
 21
-1033.9999999999991
 31
0.0
1001
ACDBBLOCKREPETAG
1070
     1
1071
       57
1005
127E5A
  0
LINE
  5
127E5B
  8
OBJECT
 10
288.99999999999972
 20
-949.0
 30
0.0
 11
295.99999999999972
 21
-949.0
 31
0.0
1001
ACDBBLOCKREPETAG
1070
     1
1071
        0
1005
127E5B
  0
LINE
  5
127E5C
  8
OBJECT
 10
295.99999999999972
 20
-949.0
 30
0.0
 11
295.99999999999972
 21
-1043.0
 31
0.0
1001
ACDBBLOCKREPETAG
1070
     1
1071
        1
1005
127E5C
  0
LINE
  5
127E5D
  8
OBJECT
 10
295.99999999999972
 20
-1043.0
 30
0.0
 11
288.99999999999972
 21
-1043.0
 31
0.0
1001
ACDBBLOCKREPETAG
1070
     1
1071
        2
1005
127E5D
  0
LINE
  5
127E5E
  8
OBJECT
 10
288.99999999999972
 20
-1043.0
 30
0.0
 11
288.99999999999972
 21
-949.0
 31
0.0
1001
ACDBBLOCKREPETAG
1070
     1
1071
        3
1005
127E5E
  0
LINE
  5
127E5F
  8
OBJECT
 10
288.99999999999972
 20
-952.0
 30
0.0
 11
252.9999999999998
 21
-952.0
 31
0.0
1001
ACDBBLOCKREPETAG
1070
     1
1071
        4
1005
127E5F
  0
LINE
  5
127E60
  8
OBJECT
 10
252.9999999999998
 20
-952.0
 30
0.0
 11
252.9999999999998
 21
-1040.0
 31
0.0
1001
ACDBBLOCKREPETAG
1070
     1
1071
        5
1005
127E60
  0
LINE
  5
127E61
  8
OBJECT
 10
252.9999999999998
 20
-1040.0
 30
0.0
 11
288.99999999999972
 21
-1040.0
 31
0.0
1001
ACDBBLOCKREPETAG
1070
     1
1071
        6
1005
127E61
  0
LINE
  5
127E62
  8
OBJECT
 10
248.9999999999998
 20
-956.49999999999989
 30
0.0
 11
240.5000000000002
 21
-956.49999999999989
 31
0.0
1001
ACDBBLOCKREPETAG
1070
     1
1071
        7
1005
127E62
  0
LINE
  5
127E63
  8
OBJECT
 10
240.49999999999929
 20
-1035.5
 30
0.0
 11
248.9999999999998
 21
-1035.5
 31
0.0
1001
ACDBBLOCKREPETAG
1070
     1
1071
        8
1005
127E63
  0
LINE
  5
127E64
  8
OBJECT
 10
248.9999999999998
 20
-1035.5
 30
0.0
 11
248.9999999999998
 21
-956.49999999999989
 31
0.0
1001
ACDBBLOCKREPETAG
1070
     1
1071
        9
1005
127E64
  0
LINE
  5
127E65
  8
OBJECT
 10
252.9999999999998
 20
-952.0
 30
0.0
 11
248.9999999999998
 21
-956.49999999999989
 31
0.0
1001
ACDBBLOCKREPETAG
1070
     1
1071
       10
1005
127E65
  0
LINE
  5
127E66
  8
OBJECT
 10
252.9999999999998
 20
-1040.0
 30
0.0
 11
248.9999999999998
 21
-1035.5
 31
0.0
1001
ACDBBLOCKREPETAG
1070
     1
1071
       11
1005
127E66
  0
LINE
  5
127E67
  8
OBJECT
 10
240.49999999999889
 20
-1042.5
 30
0.0
 11
240.5000000000002
 21
-949.5
 31
0.0
1001
ACDBBLOCKREPETAG
1070
     1
1071
       12
1005
127E67
  0
ARC
  5
127E68
  8
OBJECT
 10
237.5000000000002
 20
-949.5
 30
0.0
 40
3.0
 50
0.0
 51
90.0
1001
ACDBBLOCKREPETAG
1070
     1
1071
       13
1005
127E68
  0
LINE
  5
127E69
  8
OBJECT
 10
237.5000000000002
 20
-946.49999999999989
 30
0.0
 11
212.34491991297821
 21
-946.49999999999875
 31
0.0
1001
ACDBBLOCKREPETAG
1070
     1
1071
       15
1005
127E69
  0
LINE
  5
127E6A
  8
OBJECT
 10
237.49999999999889
 20
-1045.5
 30
0.0
 11
212.34491991297909
 21
-1045.4999999999991
 31
0.0
1001
ACDBBLOCKREPETAG
1070
     1
1071
       16
1005
127E6A
  0
ARC
  5
127E6B
  8
OBJECT
 10
237.49999999999889
 20
-1042.5
 30
0.0
 40
3.0
 50
270.0
 51
0.0
1001
ACDBBLOCKREPETAG
1070
     1
1071
       17
1005
127E6B
  0
INSERT
  5
127E6C
  8
OBJECT
  2
*U8
 10
0.0
 20
0.0
 30
0.0
  0
LINE
  5
127E6D
  8
HIDDEN
 10
243.9999999999998
 20
-966.0
 30
0.0
 11
243.9999999999998
 21
-1026.0
 31
0.0
1001
ACDBBLOCKREPETAG
1070
     1
1071
       56
1005
127E6D
  0
LINE
  5
127E6E
  8
DIM
 10
4665.0
 20
-696.0
 30
0.0
 11
4719.4245816727544
 21
-696.0
 31
0.0
  0
LINE
  5
127E6F
  8
DIM
 10
4527.9164728671331
 20
-846.00000000000659
 30
0.0
 11
4719.4245816727544
 21
-846.00000000000659
 31
0.0
  0
LINE
  5
127E70
  8
DIM
 10
4709.4245816727544
 20
-716.0
 30
0.0
 11
4709.4245816727544
 21
-826.00000000000625
 31
0.0
  0
INSERT
  5
127E71
  8
DIM
  2
_OPEN30
 10
4709.4245816727544
 20
-696.0
 30
0.0
 41
20.0
 42
20.0
 43
20.0
 50
90.0
  0
INSERT
  5
127E72
  8
DIM
  2
_OPEN30
 10
4709.4245816727544
 20
-846.00000000000659
 30
0.0
 41
20.0
 42
20.0
 43
20.0
 50
270.0
  0
INSERT
  5
127E73
  8
OBJECT
  2
*U9
 10
0.0
 20
0.0
 30
0.0
  0
LINE
  5
127E74
  8
DIM
 10
2665.0
 20
-696.0
 30
0.0
 11
2719.4245816727562
 21
-696.0
 31
0.0
  0
LINE
  5
127E75
  8
DIM
 10
2527.916472867169
 20
-845.99999999999443
 30
0.0
 11
2719.4245816727562
 21
-845.99999999999443
 31
0.0
  0
LINE
  5
127E76
  8
DIM
 10
2709.4245816727562
 20
-716.0
 30
0.0
 11
2709.4245816727562
 21
-825.9999999999942
 31
0.0
  0
INSERT
  5
127E77
  8
DIM
  2
_OPEN30
 10
2709.4245816727562
 20
-696.0
 30
0.0
 41
20.0
 42
20.0
 43
20.0
 50
90.0
  0
INSERT
  5
127E78
  8
DIM
  2
_OPEN30
 10
2709.4245816727562
 20
-845.99999999999443
 30
0.0
 41
20.0
 42
20.0
 43
20.0
 50
270.0
  0
INSERT
  5
127E79
  8
OBJECT
  2
*U10
 10
0.0
 20
0.0
 30
0.0
  0
LINE
  5
127E7A
  8
CENTER
 10
4977.0000000000009
 20
-3640.9999999999959
 30
0.0
 11
4823.0000000000009
 21
-3640.9999999999959
 31
0.0
1001
ACDBBLOCKREPETAG
1070
     1
1071
       17
1005
127E7A
  0
CIRCLE
  5
127E7B
  8
OBJECT
 10
4900.0000000000009
 20
-3640.9999999999959
 30
0.0
 40
41.5
1001
ACDBBLOCKREPETAG
1070
     1
1071
       18
1005
127E7B
  0
CIRCLE
  5
127E7C
  8
OBJECT
 10
4900.0000000000009
 20
-3640.9999999999959
 30
0.0
 40
54.0
1001
ACDBBLOCKREPETAG
1070
     1
1071
       19
1005
127E7C
  0
ARC
  5
127E7D
  8
OBJECT
 10
4900.0000000000009
 20
-3640.9999999999959
 30
0.0
 40
62.0
 50
287.89655112921122
 51
252.1034488707887
1001
ACDBBLOCKREPETAG
1070
     1
1071
       20
1005
127E7D
  0
LINE
  5
127E7E
  8
OBJECT
 10
4880.9474411167439
 20
-3699.9999999999968
 30
0.0
 11
4919.0525588832579
 21
-3699.9999999999968
 31
0.0
1001
ACDBBLOCKREPETAG
1070
     1
1071
       21
1005
127E7E
  0
POINT
  5
127E7F
  8
DOTS
 10
4900.0000000000009
 20
-3699.9999999999968
 30
0.0
1001
ACDBBLOCKREPETAG
1070
     1
1071
       24
1005
127E7F
  0
LINE
  5
127E80
  8
OBJECT
 10
4633.0000000000009
 20
-3578.9999999999968
 30
0.0
 11
4640.0000000000009
 21
-3578.9999999999968
 31
0.0
1001
ACDBBLOCKREPETAG
1070
     1
1071
       46
1005
127E80
  0
LINE
  5
127E81
  8
OBJECT
 10
4640.0000000000009
 20
-3578.9999999999968
 30
0.0
 11
4640.0000000000009
 21
-3699.9999999999968
 31
0.0
1001
ACDBBLOCKREPETAG
1070
     1
1071
       47
1005
127E81
  0
LINE
  5
127E82
  8
OBJECT
 10
4633.0000000000009
 20
-3699.9999999999968
 30
0.0
 11
4633.0000000000009
 21
-3578.9999999999968
 31
0.0
1001
ACDBBLOCKREPETAG
1070
     1
1071
       48
1005
127E82
  0
LINE
  5
127E83
  8
CENTER
 10
4655.0000000000009
 20
-3640.9999999999959
 30
0.0
 11
4541.3449199130037
 21
-3641.0000000000618
 31
0.0
1001
ACDBBLOCKREPETAG
1070
     1
1071
       49
1005
127E83
  0
LINE
  5
127E84
  8
OBJECT
 10
4633.0000000000009
 20
-3581.9999999999968
 30
0.0
 11
4597.0000000000009
 21
-3581.9999999999968
 31
0.0
1001
ACDBBLOCKREPETAG
1070
     1
1071
       50
1005
127E84
  0
LINE
  5
127E85
  8
OBJECT
 10
4597.0000000000009
 20
-3581.9999999999968
 30
0.0
 11
4597.0000000000009
 21
-3699.9999999999968
 31
0.0
1001
ACDBBLOCKREPETAG
1070
     1
1071
       51
1005
127E85
  0
LINE
  5
127E86
  8
OBJECT
 10
4597.0000000000009
 20
-3699.9999999999968
 30
0.0
 11
4640.0000000000009
 21
-3699.9999999999968
 31
0.0
1001
ACDBBLOCKREPETAG
1070
     1
1071
       52
1005
127E86
  0
LINE
  5
127E87
  8
OBJECT
 10
4593.0
 20
-3586.4999999999968
 30
0.0
 11
4582.5000000000009
 21
-3586.4999999999968
 31
0.0
1001
ACDBBLOCKREPETAG
1070
     1
1071
       53
1005
127E87
  0
LINE
  5
127E88
  8
OBJECT
 10
4582.5000000000009
 20
-3695.4999999999959
 30
0.0
 11
4593.0
 21
-3695.4999999999959
 31
0.0
1001
ACDBBLOCKREPETAG
1070
     1
1071
       54
1005
127E88
  0
LINE
  5
127E89
  8
OBJECT
 10
4593.0
 20
-3695.4999999999959
 30
0.0
 11
4593.0
 21
-3586.4999999999968
 31
0.0
1001
ACDBBLOCKREPETAG
1070
     1
1071
       55
1005
127E89
  0
LINE
  5
127E8A
  8
OBJECT
 10
4597.0000000000009
 20
-3581.9999999999968
 30
0.0
 11
4593.0
 21
-3586.4999999999968
 31
0.0
1001
ACDBBLOCKREPETAG
1070
     1
1071
       56
1005
127E8A
  0
LINE
  5
127E8B
  8
OBJECT
 10
4597.0000000000009
 20
-3699.9999999999968
 30
0.0
 11
4593.0
 21
-3695.4999999999959
 31
0.0
1001
ACDBBLOCKREPETAG
1070
     1
1071
       57
1005
127E8B
  0
LINE
  5
127E8C
  8
HIDDEN
 10
4588.0
 20
-3596.4999999999968
 30
0.0
 11
4588.0
 21
-3685.4999999999959
 31
0.0
1001
ACDBBLOCKREPETAG
1070
     1
1071
       58
1005
127E8C
  0
ARC
  5
127E8D
  8
OBJECT
 10
4664.8782728787728
 20
-3656.4095072612249
 30
0.0
 40
110.86635228309
 50
144.16342741928889
 51
163.04035380433939
1001
ACDBBLOCKREPETAG
1070
     1
1071
       59
1005
127E8D
  0
ARC
  5
127E8E
  8
OBJECT
 10
4617.1359887769049
 20
-3641.2877497184459
 30
0.0
 40
60.791749880358971
 50
163.54720465221931
 51
179.72879698282651
1001
ACDBBLOCKREPETAG
1070
     1
1071
       60
1005
127E8E
  0
ARC
  5
127E8F
  8
OBJECT
 10
4617.1359956562492
 20
-3647.712249759898
 30
0.0
 40
60.79175676209487
 50
180.2712034781452
 51
196.4527794605265
1001
ACDBBLOCKREPETAG
1070
     1
1071
       61
1005
127E8F
  0
ARC
  5
127E90
  8
OBJECT
 10
4664.8782728787728
 20
-3632.5904927388328
 30
0.0
 40
110.8663522830916
 50
196.9596461956605
 51
215.83657258071111
1001
ACDBBLOCKREPETAG
1070
     1
1071
       62
1005
127E90
  0
LINE
  5
127E91
  8
OBJECT
 10
4556.3449199130037
 20
-3641.0000000000332
 30
0.0
 11
4556.3449199130037
 21
-3648.00000000003
 31
0.0
1001
ACDBBLOCKREPETAG
1070
     1
1071
       63
1005
127E91
  0
LINE
  5
127E92
  8
OBJECT
 10
4574.9999999998372
 20
-3591.500000000291
 30
0.0
 11
4577.4999999998372
 21
-3591.500000000291
 31
0.0
1001
ACDBBLOCKREPETAG
1070
     1
1071
       65
1005
127E92
  0
LINE
  5
127E93
  8
OBJECT
 10
4574.9999999998336
 20
-3697.4999999997672
 30
0.0
 11
4579.4999999998336
 21
-3697.4999999997672
 31
0.0
1001
ACDBBLOCKREPETAG
1070
     1
1071
       66
1005
127E93
  0
LINE
  5
127E94
  8
OBJECT
 10
4579.4999999998336
 20
-3697.4999999997672
 30
0.0
 11
4577.4999999998372
 21
-3591.500000000291
 31
0.0
1001
ACDBBLOCKREPETAG
1070
     1
1071
       67
1005
127E94
  0
LINE
  5
127E95
  8
OBJECT
 10
4579.4999999998336
 20
-3697.4999999997672
 30
0.0
 11
4582.5000000000009
 21
-3695.4999999999959
 31
0.0
1001
ACDBBLOCKREPETAG
1070
     1
1071
       68
1005
127E95
  0
LINE
  5
127E96
  8
OBJECT
 10
4582.5000000000009
 20
-3695.4999999999959
 30
0.0
 11
4582.5000000000009
 21
-3586.4999999999968
 31
0.0
1001
ACDBBLOCKREPETAG
1070
     1
1071
       69
1005
127E96
  0
LINE
  5
127E97
  8
OBJECT
 10
4582.5000000000009
 20
-3586.4999999999968
 30
0.0
 11
4577.4999999998372
 21
-3591.500000000291
 31
0.0
1001
ACDBBLOCKREPETAG
1070
     1
1071
       70
1005
127E97
  0
LINE
  5
127E98
  8
OBJECT
 10
4633.0000000000009
 20
-3232.9999999999959
 30
0.0
 11
4640.0000000000018
 21
-3232.9999999999959
 31
0.0
1001
ACDBBLOCKREPETAG
1070
     1
1071
       38
1005
127E98
  0
LINE
  5
127E99
  8
OBJECT
 10
4640.0000000000018
 20
-3232.9999999999959
 30
0.0
 11
4640.0000000000009
 21
-3356.9999999999968
 31
0.0
1001
ACDBBLOCKREPETAG
1070
     1
1071
       39
1005
127E99
  0
LINE
  5
127E9A
  8
OBJECT
 10
4640.0000000000009
 20
-3356.9999999999968
 30
0.0
 11
4633.0000000000009
 21
-3356.9999999999968
 31
0.0
1001
ACDBBLOCKREPETAG
1070
     1
1071
       40
1005
127E9A
  0
LINE
  5
127E9B
  8
OBJECT
 10
4633.0000000000009
 20
-3356.9999999999968
 30
0.0
 11
4633.0000000000009
 21
-3232.9999999999959
 31
0.0
1001
ACDBBLOCKREPETAG
1070
     1
1071
       41
1005
127E9B
  0
LINE
  5
127E9C
  8
CENTER
 10
4655.0000000000009
 20
-3294.9999999999968
 30
0.0
 11
4580.0
 21
-3294.9999999999968
 31
0.0
1001
ACDBBLOCKREPETAG
1070
     1
1071
       42
1005
127E9C
  0
LINE
  5
127E9D
  8
OBJECT
 10
4633.0000000000009
 20
-3235.9999999999968
 30
0.0
 11
4597.0000000000018
 21
-3235.9999999999968
 31
0.0
1001
ACDBBLOCKREPETAG
1070
     1
1071
       43
1005
127E9D
  0
LINE
  5
127E9E
  8
OBJECT
 10
4597.0000000000018
 20
-3235.9999999999968
 30
0.0
 11
4597.0000000000009
 21
-3353.9999999999959
 31
0.0
1001
ACDBBLOCKREPETAG
1070
     1
1071
       44
1005
127E9E
  0
LINE
  5
127E9F
  8
OBJECT
 10
4597.0000000000009
 20
-3353.9999999999959
 30
0.0
 11
4633.0000000000009
 21
-3353.9999999999959
 31
0.0
1001
ACDBBLOCKREPETAG
1070
     1
1071
       45
1005
127E9F
  0
LINE
  5
127EA0
  8
OBJECT
 10
4593.0000000000018
 20
-3240.4999999999968
 30
0.0
 11
4582.5000000000018
 21
-3240.4999999999968
 31
0.0
1001
ACDBBLOCKREPETAG
1070
     1
1071
       46
1005
127EA0
  0
LINE
  5
127EA1
  8
OBJECT
 10
4582.5000000000009
 20
-3349.4999999999959
 30
0.0
 11
4593.0
 21
-3349.4999999999959
 31
0.0
1001
ACDBBLOCKREPETAG
1070
     1
1071
       47
1005
127EA1
  0
LINE
  5
127EA2
  8
OBJECT
 10
4593.0
 20
-3349.4999999999959
 30
0.0
 11
4593.0000000000018
 21
-3240.4999999999968
 31
0.0
1001
ACDBBLOCKREPETAG
1070
     1
1071
       48
1005
127EA2
  0
LINE
  5
127EA3
  8
OBJECT
 10
4597.0000000000018
 20
-3235.9999999999968
 30
0.0
 11
4593.0000000000018
 21
-3240.4999999999968
 31
0.0
1001
ACDBBLOCKREPETAG
1070
     1
1071
       49
1005
127EA3
  0
LINE
  5
127EA4
  8
OBJECT
 10
4597.0000000000009
 20
-3353.9999999999959
 30
0.0
 11
4593.0
 21
-3349.4999999999959
 31
0.0
1001
ACDBBLOCKREPETAG
1070
     1
1071
       50
1005
127EA4
  0
LINE
  5
127EA5
  8
HIDDEN
 10
4588.0000000000009
 20
-3250.4999999999968
 30
0.0
 11
4588.0
 21
-3339.4999999999968
 31
0.0
1001
ACDBBLOCKREPETAG
1070
     1
1071
       51
1005
127EA5
  0
LINE
  5
127EA6
  8
OBJECT
 10
4577.5000000000018
 20
-3245.4999999999959
 30
0.0
 11
4556.3449199129791
 21
-3245.4999999999959
 31
0.0
1001
ACDBBLOCKREPETAG
1070
     1
1071
       52
1005
127EA6
  0
LINE
  5
127EA7
  8
OBJECT
 10
4577.5000000000009
 20
-3344.4999999999959
 30
0.0
 11
4556.3449199129791
 21
-3344.4999999999959
 31
0.0
1001
ACDBBLOCKREPETAG
1070
     1
1071
       53
1005
127EA7
  0
LINE
  5
127EA8
  8
OBJECT
 10
4582.5000000000018
 20
-3240.4999999999968
 30
0.0
 11
4582.5000000000009
 21
-3349.4999999999959
 31
0.0
1001
ACDBBLOCKREPETAG
1070
     1
1071
       54
1005
127EA8
  0
LINE
  5
127EA9
  8
OBJECT
 10
4577.5000000000018
 20
-3245.4999999999959
 30
0.0
 11
4577.5000000000009
 21
-3344.4999999999959
 31
0.0
1001
ACDBBLOCKREPETAG
1070
     1
1071
       55
1005
127EA9
  0
LINE
  5
127EAA
  8
OBJECT
 10
4582.5000000000018
 20
-3240.4999999999968
 30
0.0
 11
4577.5000000000018
 21
-3245.4999999999959
 31
0.0
1001
ACDBBLOCKREPETAG
1070
     1
1071
       56
1005
127EAA
  0
LINE
  5
127EAB
  8
OBJECT
 10
4577.5000000000009
 20
-3344.4999999999959
 30
0.0
 11
4582.5000000000009
 21
-3349.4999999999941
 31
0.0
1001
ACDBBLOCKREPETAG
1070
     1
1071
       57
1005
127EAB
  0
CIRCLE
  5
127EAC
  8
OBJECT
 10
3900.0000000000018
 20
-3647.9999999999959
 30
0.0
 40
35.5
1001
ACDBBLOCKREPETAG
1070
     1
1071
       11
1005
127EAC
  0
LINE
  5
127EAD
  8
CENTER
 10
3830.0
 20
-3647.9999999999959
 30
0.0
 11
3970.0
 21
-3647.9999999999959
 31
0.0
1001
ACDBBLOCKREPETAG
1070
     1
1071
       12
1005
127EAD
  0
CIRCLE
  5
127EAE
  8
OBJECT
 10
3900.0000000000018
 20
-3647.9999999999959
 30
0.0
 40
47.0
1001
ACDBBLOCKREPETAG
1070
     1
1071
       14
1005
127EAE
  0
ARC
  5
127EAF
  8
OBJECT
 10
3900.0000000000018
 20
-3647.9999999999959
 30
0.0
 40
55.0
 50
289.01126526008892
 51
250.98873473991111
1001
ACDBBLOCKREPETAG
1070
     1
1071
       15
1005
127EAF
  0
LINE
  5
127EB0
  8
OBJECT
 10
3882.0835271328328
 20
-3699.9999999999968
 30
0.0
 11
3917.9164728671681
 21
-3699.9999999999968
 31
0.0
1001
ACDBBLOCKREPETAG
1070
     1
1071
       16
1005
127EB0
  0
POINT
  5
127EB1
  8
DOTS
 10
3900.0000000000018
 20
-3699.9999999999968
 30
0.0
1001
ACDBBLOCKREPETAG
1070
     1
1071
       23
1005
127EB1
  0
LINE
  5
127EB2
  8
OBJECT
 10
3633.0000000000009
 20
-3592.9999999999959
 30
0.0
 11
3640.0000000000009
 21
-3592.9999999999959
 31
0.0
1001
ACDBBLOCKREPETAG
1070
     1
1071
       23
1005
127EB2
  0
LINE
  5
127EB3
  8
OBJECT
 10
3640.0000000000009
 20
-3592.9999999999959
 30
0.0
 11
3640.0000000000009
 21
-3699.9999999999968
 31
0.0
1001
ACDBBLOCKREPETAG
1070
     1
1071
       24
1005
127EB3
  0
LINE
  5
127EB4
  8
OBJECT
 10
3584.5000000000018
 20
-3594.5000000000618
 30
0.0
 11
3584.5000000000018
 21
-3697.4999999999968
 31
0.0
1001
ACDBBLOCKREPETAG
1070
     1
1071
       25
1005
127EB4
  0
ARC
  5
127EB5
  8
OBJECT
 10
3581.5000000000009
 20
-3594.5000000000618
 30
0.0
 40
3.0
 50
0.0
 51
90.0
1001
ACDBBLOCKREPETAG
1070
     1
1071
       26
1005
127EB5
  0
LINE
  5
127EB6
  8
OBJECT
 10
3633.0000000000009
 20
-3699.9999999999968
 30
0.0
 11
3633.0000000000009
 21
-3592.9999999999959
 31
0.0
1001
ACDBBLOCKREPETAG
1070
     1
1071
       27
1005
127EB6
  0
LINE
  5
127EB7
  8
CENTER
 10
3655.0000000000009
 20
-3647.9999999999959
 30
0.0
 11
3541.344919913005
 21
-3648.0000000000618
 31
0.0
1001
ACDBBLOCKREPETAG
1070
     1
1071
       28
1005
127EB7
  0
LINE
  5
127EB8
  8
OBJECT
 10
3633.0000000000009
 20
-3595.9999999999959
 30
0.0
 11
3597.0000000000009
 21
-3595.9999999999959
 31
0.0
1001
ACDBBLOCKREPETAG
1070
     1
1071
       29
1005
127EB8
  0
LINE
  5
127EB9
  8
OBJECT
 10
3597.0000000000009
 20
-3595.9999999999959
 30
0.0
 11
3597.0000000000009
 21
-3699.9999999999968
 31
0.0
1001
ACDBBLOCKREPETAG
1070
     1
1071
       30
1005
127EB9
  0
LINE
  5
127EBA
  8
OBJECT
 10
3597.0000000000009
 20
-3699.9999999999968
 30
0.0
 11
3640.0000000000009
 21
-3699.9999999999968
 31
0.0
1001
ACDBBLOCKREPETAG
1070
     1
1071
       31
1005
127EBA
  0
LINE
  5
127EBB
  8
OBJECT
 10
3593.0000000000018
 20
-3600.4999999999968
 30
0.0
 11
3584.5000000000018
 21
-3600.4999999999968
 31
0.0
1001
ACDBBLOCKREPETAG
1070
     1
1071
       32
1005
127EBB
  0
LINE
  5
127EBC
  8
OBJECT
 10
3584.5000000000018
 20
-3695.4999999999959
 30
0.0
 11
3593.0000000000018
 21
-3695.4999999999959
 31
0.0
1001
ACDBBLOCKREPETAG
1070
     1
1071
       33
1005
127EBC
  0
LINE
  5
127EBD
  8
OBJECT
 10
3593.0000000000018
 20
-3695.4999999999959
 30
0.0
 11
3593.0000000000018
 21
-3600.4999999999968
 31
0.0
1001
ACDBBLOCKREPETAG
1070
     1
1071
       34
1005
127EBD
  0
LINE
  5
127EBE
  8
OBJECT
 10
3597.0000000000009
 20
-3595.9999999999959
 30
0.0
 11
3593.0000000000018
 21
-3600.4999999999968
 31
0.0
1001
ACDBBLOCKREPETAG
1070
     1
1071
       35
1005
127EBE
  0
LINE
  5
127EBF
  8
OBJECT
 10
3597.0000000000009
 20
-3699.9999999999968
 30
0.0
 11
3593.0000000000018
 21
-3695.4999999999959
 31
0.0
1001
ACDBBLOCKREPETAG
1070
     1
1071
       36
1005
127EBF
  0
LINE
  5
127EC0
  8
HIDDEN
 10
3588.0
 20
-3609.9999999999968
 30
0.0
 11
3588.0
 21
-3685.9999999999959
 31
0.0
1001
ACDBBLOCKREPETAG
1070
     1
1071
       37
1005
127EC0
  0
ARC
  5
127EC1
  8
OBJECT
 10
3664.8782728787742
 20
-3656.4095072612249
 30
0.0
 40
110.86635228309
 50
144.16342741928889
 51
163.04035380433169
1001
ACDBBLOCKREPETAG
1070
     1
1071
       38
1005
127EC1
  0
ARC
  5
127EC2
  8
OBJECT
 10
3617.1359887769072
 20
-3641.2877497184459
 30
0.0
 40
60.791749880358971
 50
163.5472046522267
 51
179.72879698282679
1001
ACDBBLOCKREPETAG
1070
     1
1071
       39
1005
127EC2
  0
ARC
  5
127EC3
  8
OBJECT
 10
3617.1359956562492
 20
-3647.712249759898
 30
0.0
 40
60.79175676209487
 50
180.2712034781452
 51
196.4527794605338
1001
ACDBBLOCKREPETAG
1070
     1
1071
       40
1005
127EC3
  0
ARC
  5
127EC4
  8
OBJECT
 10
3664.8782728787742
 20
-3632.5904927388328
 30
0.0
 40
110.8663522830916
 50
196.95964619566811
 51
215.83657258071111
1001
ACDBBLOCKREPETAG
1070
     1
1071
       41
1005
127EC4
  0
LINE
  5
127EC5
  8
OBJECT
 10
3556.344919913005
 20
-3641.0000000000332
 30
0.0
 11
3556.344919913005
 21
-3648.00000000003
 31
0.0
1001
ACDBBLOCKREPETAG
1070
     1
1071
       42
1005
127EC5
  0
LINE
  5
127EC6
  8
OBJECT
 10
3575.0000000000009
 20
-3591.5000000000618
 30
0.0
 11
3581.5000000000009
 21
-3591.5000000000618
 31
0.0
1001
ACDBBLOCKREPETAG
1070
     1
1071
       43
1005
127EC6
  0
LINE
  5
127EC7
  8
OBJECT
 10
3575.0000000000009
 20
-3697.4999999999968
 30
0.0
 11
3584.5000000000018
 21
-3697.4999999999968
 31
0.0
1001
ACDBBLOCKREPETAG
1070
     1
1071
       44
1005
127EC7
  0
LINE
  5
127EC8
  8
OBJECT
 10
3633.0000000000009
 20
-3239.9999999999968
 30
0.0
 11
3640.0000000000009
 21
-3239.9999999999968
 31
0.0
1001
ACDBBLOCKREPETAG
1070
     1
1071
       20
1005
127EC8
  0
LINE
  5
127EC9
  8
OBJECT
 10
3640.0000000000009
 20
-3239.9999999999968
 30
0.0
 11
3640.0000000000009
 21
-3349.9999999999959
 31
0.0
1001
ACDBBLOCKREPETAG
1070
     1
1071
       21
1005
127EC9
  0
LINE
  5
127ECA
  8
OBJECT
 10
3640.0000000000009
 20
-3349.9999999999959
 30
0.0
 11
3633.0000000000009
 21
-3349.9999999999959
 31
0.0
1001
ACDBBLOCKREPETAG
1070
     1
1071
       22
1005
127ECA
  0
LINE
  5
127ECB
  8
OBJECT
 10
3633.0000000000009
 20
-3349.9999999999959
 30
0.0
 11
3633.0000000000009
 21
-3239.9999999999968
 31
0.0
1001
ACDBBLOCKREPETAG
1070
     1
1071
       23
1005
127ECB
  0
LINE
  5
127ECC
  8
CENTER
 10
3655.0000000000009
 20
-3294.9999999999968
 30
0.0
 11
3580.0
 21
-3294.9999999999968
 31
0.0
1001
ACDBBLOCKREPETAG
1070
     1
1071
       24
1005
127ECC
  0
LINE
  5
127ECD
  8
OBJECT
 10
3633.0000000000009
 20
-3242.9999999999968
 30
0.0
 11
3597.0000000000009
 21
-3242.9999999999968
 31
0.0
1001
ACDBBLOCKREPETAG
1070
     1
1071
       25
1005
127ECD
  0
LINE
  5
127ECE
  8
OBJECT
 10
3597.0000000000009
 20
-3242.9999999999968
 30
0.0
 11
3597.0000000000009
 21
-3346.9999999999959
 31
0.0
1001
ACDBBLOCKREPETAG
1070
     1
1071
       26
1005
127ECE
  0
LINE
  5
127ECF
  8
OBJECT
 10
3597.0000000000009
 20
-3346.9999999999959
 30
0.0
 11
3633.0000000000009
 21
-3346.9999999999959
 31
0.0
1001
ACDBBLOCKREPETAG
1070
     1
1071
       27
1005
127ECF
  0
LINE
  5
127ED0
  8
OBJECT
 10
3593.0000000000018
 20
-3247.4999999999968
 30
0.0
 11
3584.5000000000018
 21
-3247.4999999999968
 31
0.0
1001
ACDBBLOCKREPETAG
1070
     1
1071
       28
1005
127ED0
  0
LINE
  5
127ED1
  8
OBJECT
 10
3584.5000000000018
 20
-3342.4999999999959
 30
0.0
 11
3593.0000000000018
 21
-3342.4999999999959
 31
0.0
1001
ACDBBLOCKREPETAG
1070
     1
1071
       29
1005
127ED1
  0
LINE
  5
127ED2
  8
OBJECT
 10
3593.0000000000018
 20
-3342.4999999999959
 30
0.0
 11
3593.0000000000018
 21
-3247.4999999999968
 31
0.0
1001
ACDBBLOCKREPETAG
1070
     1
1071
       30
1005
127ED2
  0
LINE
  5
127ED3
  8
OBJECT
 10
3597.0000000000009
 20
-3242.9999999999968
 30
0.0
 11
3593.0000000000018
 21
-3247.4999999999968
 31
0.0
1001
ACDBBLOCKREPETAG
1070
     1
1071
       31
1005
127ED3
  0
LINE
  5
127ED4
  8
OBJECT
 10
3597.0000000000009
 20
-3346.9999999999959
 30
0.0
 11
3593.0000000000018
 21
-3342.4999999999959
 31
0.0
1001
ACDBBLOCKREPETAG
1070
     1
1071
       32
1005
127ED4
  0
LINE
  5
127ED5
  8
OBJECT
 10
3584.4999999999982
 20
-3344.4999999999959
 30
0.0
 11
3584.5000000000018
 21
-3245.4999999999959
 31
0.0
1001
ACDBBLOCKREPETAG
1070
     1
1071
       33
1005
127ED5
  0
LINE
  5
127ED6
  8
HIDDEN
 10
3588.0
 20
-3256.9999999999968
 30
0.0
 11
3588.0
 21
-3332.9999999999968
 31
0.0
1001
ACDBBLOCKREPETAG
1070
     1
1071
       34
1005
127ED6
  0
LINE
  5
127ED7
  8
OBJECT
 10
3584.5000000000018
 20
-3245.4999999999959
 30
0.0
 11
3556.34491991298
 21
-3245.4999999999959
 31
0.0
1001
ACDBBLOCKREPETAG
1070
     1
1071
       35
1005
127ED7
  0
LINE
  5
127ED8
  8
OBJECT
 10
3584.4999999999982
 20
-3344.4999999999959
 30
0.0
 11
3556.34491991298
 21
-3344.4999999999959
 31
0.0
1001
ACDBBLOCKREPETAG
1070
     1
1071
       36
1005
127ED8
  0
LINE
  5
127ED9
  8
CENTER
 10
2838.0000000000009
 20
-3655.9999999999968
 30
0.0
 11
2962.0000000000009
 21
-3655.9999999999968
 31
0.0
1001
ACDBBLOCKREPETAG
1070
     1
1071
        0
1005
127ED9
  0
CIRCLE
  5
127EDA
  8
OBJECT
 10
2900.0
 20
-3655.9999999999968
 30
0.0
 40
28.0
1001
ACDBBLOCKREPETAG
1070
     1
1071
        2
1005
127EDA
  0
CIRCLE
  5
127EDB
  8
OBJECT
 10
2900.0
 20
-3655.9999999999968
 30
0.0
 40
39.0
1001
ACDBBLOCKREPETAG
1070
     1
1071
        3
1005
127EDB
  0
ARC
  5
127EDC
  8
OBJECT
 10
2900.0
 20
-3655.9999999999968
 30
0.0
 40
47.0
 50
290.58196921144412
 51
249.41803078855591
1001
ACDBBLOCKREPETAG
1070
     1
1071
        4
1005
127EDC
  0
LINE
  5
127EDD
  8
OBJECT
 10
2883.4772883581441
 20
-3699.9999999999968
 30
0.0
 11
2916.5227116418591
 21
-3699.9999999999968
 31
0.0
1001
ACDBBLOCKREPETAG
1070
     1
1071
        5
1005
127EDD
  0
ARC
  5
127EDE
  8
OBJECT
 10
2900.0
 20
-3640.9999999999932
 30
0.0
 40
49.5
 50
0.0
 51
180.0
1001
ACDBBLOCKREPETAG
1070
     1
1071
        6
1005
127EDE
  0
LINE
  5
127EDF
  8
OBJECT
 10
2850.5000000000041
 20
-3640.9999999999932
 30
0.0
 11
2850.5000000000041
 21
-3647.9999999999959
 31
0.0
1001
ACDBBLOCKREPETAG
1070
     1
1071
        7
1005
127EDF
  0
LINE
  5
127EE0
  8
OBJECT
 10
2949.5000000000082
 20
-3640.9999999999932
 30
0.0
 11
2949.5000000000082
 21
-3647.9999999999959
 31
0.0
1001
ACDBBLOCKREPETAG
1070
     1
1071
        8
1005
127EE0
  0
ARC
  5
127EE1
  8
OBJECT
 10
2900.0
 20
-3647.9999999999959
 30
0.0
 40
49.5
 50
180.0
 51
202.66956385104879
1001
ACDBBLOCKREPETAG
1070
     1
1071
        9
1005
127EE1
  0
ARC
  5
127EE2
  8
OBJECT
 10
2900.0
 20
-3647.9999999999959
 30
0.0
 40
49.5
 50
337.33043614895121
 51
0.0
1001
ACDBBLOCKREPETAG
1070
     1
1071
       10
1005
127EE2
  0
POINT
  5
127EE3
  8
DOTS
 10
2900.0
 20
-3699.9999999999968
 30
0.0
1001
ACDBBLOCKREPETAG
1070
     1
1071
       25
1005
127EE3
  0
LINE
  5
127EE4
  8
OBJECT
 10
2633.0000000000009
 20
-3608.9999999999968
 30
0.0
 11
2640.0000000000009
 21
-3608.9999999999968
 31
0.0
1001
ACDBBLOCKREPETAG
1070
     1
1071
        0
1005
127EE4
  0
LINE
  5
127EE5
  8
OBJECT
 10
2640.0000000000009
 20
-3608.9999999999968
 30
0.0
 11
2640.0000000000009
 21
-3699.9999999999968
 31
0.0
1001
ACDBBLOCKREPETAG
1070
     1
1071
        1
1005
127EE5
  0
LINE
  5
127EE6
  8
OBJECT
 10
2584.5000000000009
 20
-3594.5000000000618
 30
0.0
 11
2584.5000000000009
 21
-3697.4999999999968
 31
0.0
1001
ACDBBLOCKREPETAG
1070
     1
1071
        2
1005
127EE6
  0
ARC
  5
127EE7
  8
OBJECT
 10
2581.5000000000009
 20
-3594.5000000000618
 30
0.0
 40
3.0
 50
0.0
 51
90.0
1001
ACDBBLOCKREPETAG
1070
     1
1071
        3
1005
127EE7
  0
LINE
  5
127EE8
  8
OBJECT
 10
2633.0000000000009
 20
-3699.9999999999968
 30
0.0
 11
2633.0000000000009
 21
-3608.9999999999968
 31
0.0
1001
ACDBBLOCKREPETAG
1070
     1
1071
        4
1005
127EE8
  0
LINE
  5
127EE9
  8
CENTER
 10
2655.0000000000009
 20
-3655.9999999999968
 30
0.0
 11
2541.9118237135849
 21
-3655.9999999999968
 31
0.0
1001
ACDBBLOCKREPETAG
1070
     1
1071
        5
1005
127EE9
  0
LINE
  5
127EEA
  8
OBJECT
 10
2633.0000000000009
 20
-3611.9999999999959
 30
0.0
 11
2597.0000000000009
 21
-3611.9999999999959
 31
0.0
1001
ACDBBLOCKREPETAG
1070
     1
1071
        6
1005
127EEA
  0
LINE
  5
127EEB
  8
OBJECT
 10
2597.0000000000009
 20
-3611.9999999999959
 30
0.0
 11
2597.0000000000009
 21
-3699.9999999999968
 31
0.0
1001
ACDBBLOCKREPETAG
1070
     1
1071
        7
1005
127EEB
  0
LINE
  5
127EEC
  8
OBJECT
 10
2597.0000000000009
 20
-3699.9999999999968
 30
0.0
 11
2640.0000000000009
 21
-3699.9999999999968
 31
0.0
1001
ACDBBLOCKREPETAG
1070
     1
1071
        8
1005
127EEC
  0
LINE
  5
127EED
  8
OBJECT
 10
2593.0000000000009
 20
-3616.4999999999968
 30
0.0
 11
2584.5000000000009
 21
-3616.4999999999968
 31
0.0
1001
ACDBBLOCKREPETAG
1070
     1
1071
        9
1005
127EED
  0
LINE
  5
127EEE
  8
OBJECT
 10
2584.5000000000009
 20
-3695.4999999999959
 30
0.0
 11
2593.0000000000009
 21
-3695.4999999999959
 31
0.0
1001
ACDBBLOCKREPETAG
1070
     1
1071
       10
1005
127EEE
  0
LINE
  5
127EEF
  8
OBJECT
 10
2593.0000000000009
 20
-3695.4999999999959
 30
0.0
 11
2593.0000000000009
 21
-3616.4999999999968
 31
0.0
1001
ACDBBLOCKREPETAG
1070
     1
1071
       11
1005
127EEF
  0
LINE
  5
127EF0
  8
OBJECT
 10
2597.0000000000009
 20
-3611.9999999999959
 30
0.0
 11
2593.0000000000009
 21
-3616.4999999999968
 31
0.0
1001
ACDBBLOCKREPETAG
1070
     1
1071
       12
1005
127EF0
  0
LINE
  5
127EF1
  8
OBJECT
 10
2597.0000000000009
 20
-3699.9999999999968
 30
0.0
 11
2593.0000000000009
 21
-3695.4999999999959
 31
0.0
1001
ACDBBLOCKREPETAG
1070
     1
1071
       13
1005
127EF1
  0
LINE
  5
127EF2
  8
HIDDEN
 10
2588.0000000000009
 20
-3625.9999999999959
 30
0.0
 11
2588.0000000000009
 21
-3685.9999999999959
 31
0.0
1001
ACDBBLOCKREPETAG
1070
     1
1071
       14
1005
127EF2
  0
ARC
  5
127EF3
  8
OBJECT
 10
2664.8782728787751
 20
-3656.4095072612249
 30
0.0
 40
110.86635228309
 50
144.1634274191434
 51
163.04035380433169
1001
ACDBBLOCKREPETAG
1070
     1
1071
       15
1005
127EF3
  0
ARC
  5
127EF4
  8
OBJECT
 10
2617.1359887769072
 20
-3641.2877497184459
 30
0.0
 40
60.791749880358971
 50
163.5472046522267
 51
179.72879698282679
1001
ACDBBLOCKREPETAG
1070
     1
1071
       16
1005
127EF4
  0
ARC
  5
127EF5
  8
OBJECT
 10
2617.1359956562501
 20
-3647.712249759898
 30
0.0
 40
60.79175676209487
 50
180.2712034781452
 51
196.4527794605338
1001
ACDBBLOCKREPETAG
1070
     1
1071
       17
1005
127EF5
  0
ARC
  5
127EF6
  8
OBJECT
 10
2664.8782728787751
 20
-3632.5904927388328
 30
0.0
 40
110.8663522830916
 50
196.95964619566811
 51
215.8365725808566
1001
ACDBBLOCKREPETAG
1070
     1
1071
       18
1005
127EF6
  0
LINE
  5
127EF7
  8
OBJECT
 10
2556.344919913005
 20
-3641.0000000000332
 30
0.0
 11
2556.344919913005
 21
-3648.00000000003
 31
0.0
1001
ACDBBLOCKREPETAG
1070
     1
1071
       19
1005
127EF7
  0
LINE
  5
127EF8
  8
OBJECT
 10
2575.0000000000009
 20
-3591.5000000000618
 30
0.0
 11
2581.5000000000009
 21
-3591.5000000000618
 31
0.0
1001
ACDBBLOCKREPETAG
1070
     1
1071
       20
1005
127EF8
  0
LINE
  5
127EF9
  8
OBJECT
 10
2575.0000000000009
 20
-3697.4999999999968
 30
0.0
 11
2584.5000000000009
 21
-3697.4999999999968
 31
0.0
1001
ACDBBLOCKREPETAG
1070
     1
1071
       21
1005
127EF9
  0
LINE
  5
127EFA
  8
OBJECT
 10
2633.0000000000009
 20
-3247.9999999999959
 30
0.0
 11
2640.0000000000009
 21
-3247.9999999999959
 31
0.0
1001
ACDBBLOCKREPETAG
1070
     1
1071
        0
1005
127EFA
  0
LINE
  5
127EFB
  8
OBJECT
 10
2640.0000000000009
 20
-3247.9999999999959
 30
0.0
 11
2640.0000000000009
 21
-3341.9999999999968
 31
0.0
1001
ACDBBLOCKREPETAG
1070
     1
1071
        1
1005
127EFB
  0
LINE
  5
127EFC
  8
OBJECT
 10
2640.0000000000009
 20
-3341.9999999999968
 30
0.0
 11
2633.0000000000009
 21
-3341.9999999999968
 31
0.0
1001
ACDBBLOCKREPETAG
1070
     1
1071
        2
1005
127EFC
  0
LINE
  5
127EFD
  8
OBJECT
 10
2633.0000000000009
 20
-3341.9999999999968
 30
0.0
 11
2633.0000000000009
 21
-3247.9999999999959
 31
0.0
1001
ACDBBLOCKREPETAG
1070
     1
1071
        3
1005
127EFD
  0
LINE
  5
127EFE
  8
CENTER
 10
2655.0000000000009
 20
-3294.9999999999968
 30
0.0
 11
2580.0
 21
-3294.9999999999968
 31
0.0
1001
ACDBBLOCKREPETAG
1070
     1
1071
        4
1005
127EFE
  0
LINE
  5
127EFF
  8
OBJECT
 10
2633.0000000000009
 20
-3250.9999999999959
 30
0.0
 11
2597.0000000000009
 21
-3250.9999999999959
 31
0.0
1001
ACDBBLOCKREPETAG
1070
     1
1071
        5
1005
127EFF
  0
LINE
  5
127F00
  8
OBJECT
 10
2597.0000000000009
 20
-3250.9999999999959
 30
0.0
 11
2597.0000000000009
 21
-3338.9999999999968
 31
0.0
1001
ACDBBLOCKREPETAG
1070
     1
1071
        6
1005
127F00
  0
LINE
  5
127F01
  8
OBJECT
 10
2597.0000000000009
 20
-3338.9999999999968
 30
0.0
 11
2633.0000000000009
 21
-3338.9999999999968
 31
0.0
1001
ACDBBLOCKREPETAG
1070
     1
1071
        7
1005
127F01
  0
LINE
  5
127F02
  8
OBJECT
 10
2593.0000000000009
 20
-3255.4999999999959
 30
0.0
 11
2584.5000000000009
 21
-3255.4999999999959
 31
0.0
1001
ACDBBLOCKREPETAG
1070
     1
1071
        8
1005
127F02
  0
LINE
  5
127F03
  8
OBJECT
 10
2584.5000000000009
 20
-3334.4999999999968
 30
0.0
 11
2593.0000000000009
 21
-3334.4999999999968
 31
0.0
1001
ACDBBLOCKREPETAG
1070
     1
1071
        9
1005
127F03
  0
LINE
  5
127F04
  8
OBJECT
 10
2593.0000000000009
 20
-3334.4999999999968
 30
0.0
 11
2593.0000000000009
 21
-3255.4999999999959
 31
0.0
1001
ACDBBLOCKREPETAG
1070
     1
1071
       10
1005
127F04
  0
LINE
  5
127F05
  8
OBJECT
 10
2597.0000000000009
 20
-3250.9999999999959
 30
0.0
 11
2593.0000000000009
 21
-3255.4999999999959
 31
0.0
1001
ACDBBLOCKREPETAG
1070
     1
1071
       11
1005
127F05
  0
LINE
  5
127F06
  8
OBJECT
 10
2597.0000000000009
 20
-3338.9999999999968
 30
0.0
 11
2593.0000000000009
 21
-3334.4999999999968
 31
0.0
1001
ACDBBLOCKREPETAG
1070
     1
1071
       12
1005
127F06
  0
LINE
  5
127F07
  8
OBJECT
 10
2584.4999999999991
 20
-3341.4999999999959
 30
0.0
 11
2584.5000000000009
 21
-3248.4999999999959
 31
0.0
1001
ACDBBLOCKREPETAG
1070
     1
1071
       13
1005
127F07
  0
ARC
  5
127F08
  8
OBJECT
 10
2581.5000000000009
 20
-3248.4999999999959
 30
0.0
 40
3.0
 50
0.0
 51
90.0
1001
ACDBBLOCKREPETAG
1070
     1
1071
       14
1005
127F08
  0
LINE
  5
127F09
  8
HIDDEN
 10
2588.0000000000009
 20
-3264.9999999999968
 30
0.0
 11
2588.0000000000009
 21
-3324.9999999999968
 31
0.0
1001
ACDBBLOCKREPETAG
1070
     1
1071
       15
1005
127F09
  0
LINE
  5
127F0A
  8
OBJECT
 10
2581.5000000000009
 20
-3245.4999999999959
 30
0.0
 11
2556.34491991298
 21
-3245.4999999999959
 31
0.0
1001
ACDBBLOCKREPETAG
1070
     1
1071
       17
1005
127F0A
  0
LINE
  5
127F0B
  8
OBJECT
 10
2581.4999999999991
 20
-3344.4999999999959
 30
0.0
 11
2556.34491991298
 21
-3344.4999999999959
 31
0.0
1001
ACDBBLOCKREPETAG
1070
     1
1071
       18
1005
127F0B
  0
ARC
  5
127F0C
  8
OBJECT
 10
2581.4999999999991
 20
-3341.4999999999959
 30
0.0
 40
3.0
 50
270.0
 51
0.0
1001
ACDBBLOCKREPETAG
1070
     1
1071
       19
1005
127F0C
  0
LINE
  5
127F0D
  8
DIM
 10
2650.0
 20
-3341.9999999999968
 30
0.0
 11
2728.479620594459
 21
-3341.9999999999968
 31
0.0
  0
LINE
  5
127F0E
  8
DIM
 10
2650.0
 20
-3247.9999999999959
 30
0.0
 11
2728.479620594459
 21
-3247.9999999999959
 31
0.0
  0
LINE
  5
127F0F
  8
DIM
 10
2718.4796205944608
 20
-3321.9999999999959
 30
0.0
 11
2718.4796205944608
 21
-3267.9999999999968
 31
0.0
  0
INSERT
  5
127F10
  8
DIM
  2
_OPEN30
 10
2718.4796205944608
 20
-3341.9999999999968
 30
0.0
 41
20.0
 42
20.0
 43
20.0
 50
270.0
  0
INSERT
  5
127F11
  8
DIM
  2
_OPEN30
 10
2718.4796205944608
 20
-3247.9999999999959
 30
0.0
 41
20.0
 42
20.0
 43
20.0
 50
90.0
  0
INSERT
  5
127F12
  8
OBJECT
  2
*U11
 10
0.0
 20
0.0
 30
0.0
  0
LINE
  5
127F13
  8
DIM
 10
2650.0
 20
-3699.9999999999968
 30
0.0
 11
2726.8409284037339
 21
-3699.9999999999968
 31
0.0
  0
LINE
  5
127F14
  8
DIM
 10
2665.0000000000009
 20
-3655.9999999999968
 30
0.0
 11
2726.8409284037339
 21
-3655.9999999999968
 31
0.0
  0
LINE
  5
127F15
  8
DIM
 10
2716.8409284037361
 20
-3719.9999999999968
 30
0.0
 11
2716.8409284037361
 21
-3739.9999999999968
 31
0.0
  0
LINE
  5
127F16
  8
DIM
 10
2716.8409284037361
 20
-3635.9999999999968
 30
0.0
 11
2716.8409284037361
 21
-3615.9999999999991
 31
0.0
  0
LINE
  5
127F17
  8
DIM
 10
2716.8409284037361
 20
-3699.9999999999968
 30
0.0
 11
2716.8409284037361
 21
-3655.9999999999968
 31
0.0
  0
INSERT
  5
127F18
  8
DIM
  2
_OPEN30
 10
2716.8409284037361
 20
-3699.9999999999968
 30
0.0
 41
20.0
 42
20.0
 43
20.0
 50
90.0
  0
INSERT
  5
127F19
  8
DIM
  2
_OPEN30
 10
2716.8409284037361
 20
-3655.9999999999968
 30
0.0
 41
20.0
 42
20.0
 43
20.0
 50
270.0
  0
INSERT
  5
127F1A
  8
OBJECT
  2
*U12
 10
0.0
 20
0.0
 30
0.0
  0
LINE
  5
127F1B
  8
DIM
 10
2500.0
 20
-3194.9999999999968
 30
0.0
 11
2500.0
 21
-3157.2081219844449
 31
0.0
  0
LINE
  5
127F1C
  8
DIM
 10
2640.0000000000009
 20
-3237.9999999999968
 30
0.0
 11
2640.0000000000009
 21
-3157.2081219844449
 31
0.0
  0
LINE
  5
127F1D
  8
DIM
 10
2520.0
 20
-3167.208121984444
 30
0.0
 11
2620.0000000000009
 21
-3167.208121984444
 31
0.0
  0
INSERT
  5
127F1E
  8
DIM
  2
_OPEN30
 10
2500.0
 20
-3167.208121984444
 30
0.0
 41
20.0
 42
20.0
 43
20.0
 50
180.0
  0
INSERT
  5
127F1F
  8
DIM
  2
_OPEN30
 10
2640.0000000000009
 20
-3167.208121984444
 30
0.0
 41
20.0
 42
20.0
 43
20.0
  0
INSERT
  5
127F20
  8
OBJECT
  2
*U13
 10
0.0
 20
0.0
 30
0.0
  0
TEXT
  5
127F21
  8
SLIM
 10
3271.0000000000018
 20
-3072.5000160472709
 30
0.0
 40
40.0
  1
C寸法
 41
0.75
  0
TEXT
  5
127F22
  8
SLIM
 10
3271.0000000000018
 20
-3002.5000160472709
 30
0.0
 40
40.0
  1
B寸法
 41
0.75
  0
TEXT
  5
127F23
  8
SLIM
 10
3270.2857142857151
 20
-2932.5000160472709
 30
0.0
 40
40.0
  1
A寸法
 41
0.75
  0
TEXT
  5
127F24
  8
SLIM
 10
3669.2857142857151
 20
-3072.5000160472709
 30
0.0
 40
40.0
  1
140
 41
0.75
  0
TEXT
  5
127F25
  8
SLIM
 10
3409.2857142857151
 20
-3072.5000160472709
 30
0.0
 40
40.0
  1
140
 41
0.75
  0
TEXT
  5
127F26
  8
SLIM
 10
3539.2857142857151
 20
-3072.5000160472709
 30
0.0
 40
40.0
  1
140
 41
0.75
  0
TEXT
  5
127F27
  8
SLIM
 10
3681.428571428572
 20
-3002.5000160472709
 30
0.0
 40
40.0
  1
59
 41
0.75
  0
TEXT
  5
127F28
  8
SLIM
 10
3420.0
 20
-3002.5000160472709
 30
0.0
 40
40.0
  1
44
 41
0.75
  0
TEXT
  5
127F29
  8
SLIM
 10
3550.7142857142849
 20
-3002.5000160472709
 30
0.0
 40
40.0
  1
52
 41
0.75
  0
TEXT
  5
127F2A
  8
SLIM
 10
3471.0000000000018
 20
-2807.5000160472709
 30
0.0
 40
40.0
  1
横枝管サイズ
 41
0.75
  0
TEXT
  5
127F2B
  8
SLIM
 10
3654.8571428571449
 20
-2862.5000160472709
 30
0.0
 40
30.0
  1
75（3）
 41
0.75
  0
TEXT
  5
127F2C
  8
SLIM
 10
3524.8571428571431
 20
-2862.5000160472709
 30
0.0
 40
30.0
  1
65（2）
 41
0.75
  0
TEXT
  5
127F2D
  8
SLIM
 10
3397.0000000000018
 20
-2862.5000160472709
 30
0.0
 40
30.0
  1
50（1）
 41
0.75
  0
TEXT
  5
127F2E
  8
SLIM
 10
3668.5714285714289
 20
-2932.5000160472709
 30
0.0
 40
40.0
  1
124
 41
0.75
  0
TEXT
  5
127F2F
  8
SLIM
 10
3420.0
 20
-2932.5000160472709
 30
0.0
 40
40.0
  1
94
 41
0.75
  0
TEXT
  5
127F30
  8
SLIM
 10
3542.1428571428569
 20
-2932.5000160472709
 30
0.0
 40
40.0
  1
110
 41
0.75
  0
TEXT
  5
127F31
  8
SLIM
 10
2350.0
 20
-2832.5000000000009
 30
0.0
 40
75.0
  1
下部枝管サイズ毎の形状
 41
0.75
  0
TEXT
  5
127F32
  8
SLIM
 10
4394.2500000000009
 20
-3817.4999999999959
 30
0.0
 40
35.0
  1
通常枝75（3）
 41
0.75
  0
TEXT
  5
127F33
  8
SLIM
 10
3394.25
 20
-3817.4999999999959
 30
0.0
 40
35.0
  1
通常枝65（2）
 41
0.75
  0
TEXT
  5
127F34
  8
SLIM
 10
2396.75
 20
-3817.4999999999959
 30
0.0
 40
35.0
  1
通常枝50（1）
 41
0.75
  0
POLYLINE
  5
127F35
  8
HIDDEN
 66
     1
 10
0.0
 20
0.0
 30
0.0
 70
     1
1001
ACDBBLOCKREPETAG
1070
     1
1071
      105
1005
0
  0
VERTEX
  5
1281A3
  8
HIDDEN
 10
359.99999999987779
 20
-799.99999999999818
 30
0.0
  0
VERTEX
  5
1281A4
  8
HIDDEN
 10
719.99999999975603
 20
-799.99999999999818
 30
0.0
  0
VERTEX
  5
1281A5
  8
HIDDEN
 10
719.99999999975603
 20
-1263.9999999998399
 30
0.0
  0
VERTEX
  5
1281A6
  8
HIDDEN
 10
359.99999999987779
 20
-1263.9999999998399
 30
0.0
  0
SEQEND
  5
1281A7
  8
HIDDEN
  0
POLYLINE
  5
127F36
  8
HIDDEN
 66
     1
 10
0.0
 20
0.0
 30
0.0
 70
     1
1001
ACDBBLOCKREPETAG
1070
     1
1071
      110
1005
0
  0
VERTEX
  5
1281A8
  8
HIDDEN
 10
-0.0000000000002274
 20
-799.99999999999818
 30
0.0
  0
VERTEX
  5
1281A9
  8
HIDDEN
 10
359.99999999987779
 20
-799.99999999999818
 30
0.0
  0
VERTEX
  5
1281AA
  8
HIDDEN
 10
359.99999999987779
 20
-1263.9999999998399
 30
0.0
  0
VERTEX
  5
1281AB
  8
HIDDEN
 10
-0.0000000000002274
 20
-1263.9999999998399
 30
0.0
  0
SEQEND
  5
1281AC
  8
HIDDEN
  0
POLYLINE
  5
127F37
  8
HIDDEN
 66
     1
 10
0.0
 20
0.0
 30
0.0
 70
     1
1001
ACDBBLOCKREPETAG
1070
     1
1071
      125
1005
0
  0
VERTEX
  5
1281AD
  8
HIDDEN
 10
-0.0000000000002274
 20
-1263.9999999998399
 30
0.0
  0
VERTEX
  5
1281AE
  8
HIDDEN
 10
359.99999999987779
 20
-1263.9999999998399
 30
0.0
  0
VERTEX
  5
1281AF
  8
HIDDEN
 10
359.99999999987779
 20
-1727.999999999681
 30
0.0
  0
VERTEX
  5
1281B0
  8
HIDDEN
 10
-0.0000000000002274
 20
-1727.999999999681
 30
0.0
  0
SEQEND
  5
1281B1
  8
HIDDEN
  0
POLYLINE
  5
127F38
  8
HIDDEN
 66
     1
 10
0.0
 20
0.0
 30
0.0
 70
     1
1001
ACDBBLOCKREPETAG
1070
     1
1071
      110
1005
0
  0
VERTEX
  5
1281B2
  8
HIDDEN
 10
-0.0000000000002274
 20
0.0000000000009095
 30
0.0
  0
VERTEX
  5
1281B3
  8
HIDDEN
 10
359.99999999987779
 20
0.0000000000009095
 30
0.0
  0
VERTEX
  5
1281B4
  8
HIDDEN
 10
359.99999999987779
 20
-463.99999999984078
 30
0.0
  0
VERTEX
  5
1281B5
  8
HIDDEN
 10
-0.0000000000002274
 20
-463.99999999984078
 30
0.0
  0
SEQEND
  5
1281B6
  8
HIDDEN
  0
INSERT
  5
127F39
  8
OBJECT
  2
*U14
 10
0.0
 20
0.0
 30
0.0
  0
LINE
  5
127F3A
  8
OBJECT
 10
118.00000000004179
 20
-99.000000000171866
 30
0.0
 11
118.00000000004179
 21
-92.000000000171866
 31
0.0
1001
ACDBBLOCKREPETAG
1070
     1
1071
       39
1005
127F3A
  0
LINE
  5
127F3B
  8
OBJECT
 10
118.00000000004179
 20
-92.000000000171866
 30
0.0
 11
242.00000000004181
 21
-92.000000000171866
 31
0.0
1001
ACDBBLOCKREPETAG
1070
     1
1071
       40
1005
127F3B
  0
LINE
  5
127F3C
  8
OBJECT
 10
242.00000000004181
 20
-92.000000000171866
 30
0.0
 11
242.00000000004181
 21
-99.000000000171866
 31
0.0
1001
ACDBBLOCKREPETAG
1070
     1
1071
       41
1005
127F3C
  0
LINE
  5
127F3D
  8
OBJECT
 10
242.00000000004181
 20
-99.000000000171866
 30
0.0
 11
118.00000000004179
 21
-99.000000000171866
 31
0.0
1001
ACDBBLOCKREPETAG
1070
     1
1071
       42
1005
127F3D
  0
LINE
  5
127F3E
  8
OBJECT
 10
121.00000000004179
 20
-99.000000000171866
 30
0.0
 11
121.00000000004179
 21
-135.00000000017181
 31
0.0
1001
ACDBBLOCKREPETAG
1070
     1
1071
       43
1005
127F3E
  0
LINE
  5
127F3F
  8
OBJECT
 10
121.00000000004179
 20
-135.00000000017181
 30
0.0
 11
239.00000000004181
 21
-135.00000000017181
 31
0.0
1001
ACDBBLOCKREPETAG
1070
     1
1071
       44
1005
127F3F
  0
LINE
  5
127F40
  8
OBJECT
 10
239.00000000004181
 20
-135.00000000017181
 30
0.0
 11
239.00000000004181
 21
-99.000000000171866
 31
0.0
1001
ACDBBLOCKREPETAG
1070
     1
1071
       45
1005
127F40
  0
LINE
  5
127F41
  8
OBJECT
 10
125.50000000004179
 20
-139.00000000017181
 30
0.0
 11
125.50000000004179
 21
-146.00000000017181
 31
0.0
1001
ACDBBLOCKREPETAG
1070
     1
1071
       46
1005
127F41
  0
LINE
  5
127F42
  8
OBJECT
 10
234.50000000004181
 20
-146.00000000017181
 30
0.0
 11
234.50000000004181
 21
-139.00000000017181
 31
0.0
1001
ACDBBLOCKREPETAG
1070
     1
1071
       47
1005
127F42
  0
LINE
  5
127F43
  8
OBJECT
 10
234.50000000004181
 20
-139.00000000017181
 30
0.0
 11
125.50000000004179
 21
-139.00000000017181
 31
0.0
1001
ACDBBLOCKREPETAG
1070
     1
1071
       48
1005
127F43
  0
LINE
  5
127F44
  8
OBJECT
 10
121.00000000004179
 20
-135.00000000017181
 30
0.0
 11
125.50000000004179
 21
-139.00000000017181
 31
0.0
1001
ACDBBLOCKREPETAG
1070
     1
1071
       49
1005
127F44
  0
LINE
  5
127F45
  8
OBJECT
 10
239.00000000004181
 20
-135.00000000017181
 30
0.0
 11
234.50000000004181
 21
-139.00000000017181
 31
0.0
1001
ACDBBLOCKREPETAG
1070
     1
1071
       50
1005
127F45
  0
LINE
  5
127F46
  8
OBJECT
 10
118.00000000004179
 20
-149.00000000017101
 30
0.0
 11
118.00000000004179
 21
-152.00000000017181
 31
0.0
1001
ACDBBLOCKREPETAG
1070
     1
1071
       51
1005
127F46
  0
ARC
  5
127F47
  8
OBJECT
 10
121.00000000004179
 20
-149.00000000017101
 30
0.0
 40
3.0
 50
90.0
 51
180.0
1001
ACDBBLOCKREPETAG
1070
     1
1071
       52
1005
127F47
  0
LINE
  5
127F48
  8
OBJECT
 10
242.00000000004181
 20
-152.00000000017181
 30
0.0
 11
242.00000000004181
 21
-149.0000000001728
 31
0.0
1001
ACDBBLOCKREPETAG
1070
     1
1071
       53
1005
127F48
  0
ARC
  5
127F49
  8
OBJECT
 10
239.00000000004181
 20
-149.0000000001728
 30
0.0
 40
3.0
 50
0.0
 51
90.0
1001
ACDBBLOCKREPETAG
1070
     1
1071
       54
1005
127F49
  0
LINE
  5
127F4A
  8
OBJECT
 10
239.00000000004181
 20
-146.0000000001728
 30
0.0
 11
121.00000000004179
 21
-146.00000000017101
 31
0.0
1001
ACDBBLOCKREPETAG
1070
     1
1071
       55
1005
127F4A
  0
LINE
  5
127F4B
  8
HIDDEN
 10
135.50000000004181
 20
-144.00000000017189
 30
0.0
 11
224.50000000004181
 21
-144.00000000017189
 31
0.0
1001
ACDBBLOCKREPETAG
1070
     1
1071
      426
1005
127F4B
  0
CIRCLE
  5
127F4C
  8
OBJECT
 10
180.00000000004181
 20
-232.00000000017189
 30
0.0
 40
70.0
1001
ACDBBLOCKREPETAG
1070
     1
1071
       50
1005
127F4C
  0
CIRCLE
  5
127F4D
  8
OBJECT
 10
180.00000000004181
 20
-232.00000000017189
 30
0.0
 40
77.0
1001
ACDBBLOCKREPETAG
1070
     1
1071
       51
1005
127F4D
  0
ARC
  5
127F4E
  8
OBJECT
 10
180.00000000004181
 20
-232.00000000017189
 30
0.0
 40
80.0
 50
140.80503257377961
 51
39.194967426220252
1001
ACDBBLOCKREPETAG
1070
     1
1071
       52
1005
127F4E
  0
LINE
  5
127F4F
  8
OBJECT
 10
118.00000000004179
 20
-186.3381997728473
 30
0.0
 11
118.00000000004179
 21
-152.00000000017181
 31
0.0
1001
ACDBBLOCKREPETAG
1070
     1
1071
       53
1005
127F4F
  0
LINE
  5
127F50
  8
OBJECT
 10
242.00000000004181
 20
-186.3381997728473
 30
0.0
 11
242.00000000004181
 21
-152.00000000017181
 31
0.0
1001
ACDBBLOCKREPETAG
1070
     1
1071
       54
1005
127F50
  0
CIRCLE
  5
127F51
  8
OBJECT
 10
180.00000000004181
 20
-232.00000000017189
 30
0.0
 40
53.5
1001
ACDBBLOCKREPETAG
1070
     1
1071
      157
1005
127F51
  0
POINT
  5
127F52
  8
DOTS
 10
180.00000000004181
 20
-232.00000000017189
 30
0.0
1001
ACDBBLOCKREPETAG
1070
     1
1071
      162
1005
127F52
  0
CIRCLE
  5
127F53
  8
OBJECT
 10
155.9999999999998
 20
-1460.0
 30
0.0
 40
70.0
1001
ACDBBLOCKREPETAG
1070
     1
1071
       50
1005
127F53
  0
CIRCLE
  5
127F54
  8
OBJECT
 10
155.9999999999998
 20
-1460.0
 30
0.0
 40
75.0
1001
ACDBBLOCKREPETAG
1070
     1
1071
       51
1005
127F54
  0
POINT
  5
127F55
  8
DOTS
 10
155.9999999999998
 20
-1460.0
 30
0.0
1001
ACDBBLOCKREPETAG
1070
     1
1071
       63
1005
127F55
  0
CIRCLE
  5
127F56
  8
OBJECT
 10
155.9999999999998
 20
-1460.0
 30
0.0
 40
55.0
1001
ACDBBLOCKREPETAG
1070
     1
1071
       50
1005
127F56
  0
CIRCLE
  5
127F57
  8
OBJECT
 10
515.99999999999955
 20
-996.0
 30
0.0
 40
70.0
1001
ACDBBLOCKREPETAG
1070
     1
1071
       50
1005
127F57
  0
CIRCLE
  5
127F58
  8
OBJECT
 10
515.99999999999955
 20
-996.0
 30
0.0
 40
75.0
1001
ACDBBLOCKREPETAG
1070
     1
1071
       51
1005
127F58
  0
POINT
  5
127F59
  8
DOTS
 10
515.99999999999955
 20
-996.0
 30
0.0
1001
ACDBBLOCKREPETAG
1070
     1
1071
       63
1005
127F59
  0
CIRCLE
  5
127F5A
  8
OBJECT
 10
515.99999999999955
 20
-996.0
 30
0.0
 40
55.0
1001
ACDBBLOCKREPETAG
1070
     1
1071
       50
1005
127F5A
  0
CIRCLE
  5
127F5B
  8
OBJECT
 10
155.9999999999998
 20
-996.0
 30
0.0
 40
70.0
1001
ACDBBLOCKREPETAG
1070
     1
1071
       50
1005
127F5B
  0
CIRCLE
  5
127F5C
  8
OBJECT
 10
155.9999999999998
 20
-996.0
 30
0.0
 40
75.0
1001
ACDBBLOCKREPETAG
1070
     1
1071
       51
1005
127F5C
  0
POINT
  5
127F5D
  8
DOTS
 10
155.9999999999998
 20
-996.0
 30
0.0
1001
ACDBBLOCKREPETAG
1070
     1
1071
       63
1005
127F5D
  0
CIRCLE
  5
127F5E
  8
OBJECT
 10
155.9999999999998
 20
-996.0
 30
0.0
 40
55.0
1001
ACDBBLOCKREPETAG
1070
     1
1071
       50
1005
127F5E
  0
TEXT
  5
127F5F
  8
SLIM
 10
97.714285714224999
 20
-1707.9999999996919
 30
0.0
 40
48.0
  1
A0300
 41
0.75
1001
ACDBBLOCKREPETAG
1070
     1
1071
      119
1005
0
  0
TEXT
  5
127F60
  8
SLIM
 10
457.71428571410308
 20
-1243.9999999998499
 30
0.0
 40
48.0
  1
A0200
 41
0.75
1001
ACDBBLOCKREPETAG
1070
     1
1071
      119
1005
0
  0
TEXT
  5
127F61
  8
SLIM
 10
101.1428571427964
 20
-1243.9999999998499
 30
0.0
 40
48.0
  1
A0100
 41
0.75
1001
ACDBBLOCKREPETAG
1070
     1
1071
      119
1005
0
  0
TEXT
  5
127F62
  8
SLIM
 10
0.000003566523219
 20
-775.9999954146823
 30
0.0
 40
79.999999999972701
  1
下部枝管バリエーション
 41
0.75
1001
ACDBBLOCKREPETAG
1070
     1
1071
      119
1005
124B78
  0
TEXT
  5
127F63
  8
SLIM
 10
149.1428571427966
 20
-443.99999999984971
 30
0.0
 40
48.0
  1
A3
 41
0.75
1001
ACDBBLOCKREPETAG
1070
     1
1071
      119
1005
0
  0
TEXT
  5
127F64
  8
SLIM
 10
0.0000035665234464
 20
24.000004585317608
 30
0.0
 40
79.999999999972701
  1
上部枝管
 41
0.75
1001
ACDBBLOCKREPETAG
1070
     1
1071
      119
1005
124B78
  0
LINE
  5
127F65
  8
OBJECT
 10
4923.0
 20
-570.99999999999432
 30
0.0
 11
4923.0
 21
-549.99999999999432
 31
0.0
1001
ACDBBLOCKREPETAG
1070
     1
1071
       22
1005
127F65
  0
LINE
  5
127F66
  8
OBJECT
 10
4923.0
 20
-549.99999999999432
 30
0.0
 11
5077.0
 21
-549.99999999999432
 31
0.0
1001
ACDBBLOCKREPETAG
1070
     1
1071
       23
1005
127F66
  0
LINE
  5
127F67
  8
HIDDEN
 10
4943.0
 20
-619.99999999999432
 30
0.0
 11
5057.0
 21
-619.99999999999432
 31
0.0
1001
ACDBBLOCKREPETAG
1070
     1
1071
       24
1005
127F67
  0
LINE
  5
127F68
  8
OBJECT
 10
5077.0
 20
-549.99999999999432
 30
0.0
 11
5077.0
 21
-570.99999999999432
 31
0.0
1001
ACDBBLOCKREPETAG
1070
     1
1071
       25
1005
127F68
  0
LINE
  5
127F69
  8
OBJECT
 10
5077.0
 20
-570.99999999999432
 30
0.0
 11
4923.0
 21
-570.99999999999432
 31
0.0
1001
ACDBBLOCKREPETAG
1070
     1
1071
       26
1005
127F69
  0
LINE
  5
127F6A
  8
CENTER
 10
5000.0
 20
-534.99999999999432
 30
0.0
 11
5000.0
 21
-889.99999999999409
 31
0.0
1001
ACDBBLOCKREPETAG
1070
     1
1071
       27
1005
127F6A
  0
LINE
  5
127F6B
  8
OBJECT
 10
4925.0
 20
-633.99999999999432
 30
0.0
 11
4925.0
 21
-737.50000000005957
 31
0.0
1001
ACDBBLOCKREPETAG
1070
     1
1071
       28
1005
127F6B
  0
LINE
  5
127F6C
  8
OBJECT
 10
4925.0
 20
-843.49999999999409
 30
0.0
 11
4925.0
 21
-877.9999999999942
 31
0.0
1001
ACDBBLOCKREPETAG
1070
     1
1071
      218
1005
127F6C
  0
LINE
  5
127F6D
  8
OBJECT
 10
4928.0
 20
-570.99999999999432
 30
0.0
 11
4928.0
 21
-633.99999999999432
 31
0.0
1001
ACDBBLOCKREPETAG
1070
     1
1071
       29
1005
127F6D
  0
LINE
  5
127F6E
  8
OBJECT
 10
5072.0
 20
-633.99999999999432
 30
0.0
 11
5072.0
 21
-570.99999999999432
 31
0.0
1001
ACDBBLOCKREPETAG
1070
     1
1071
       30
1005
127F6E
  0
LINE
  5
127F6F
  8
OBJECT
 10
4920.0
 20
-877.9999999999942
 30
0.0
 11
5080.0
 21
-877.9999999999942
 31
0.0
1001
ACDBBLOCKREPETAG
1070
     1
1071
       31
1005
127F6F
  0
LINE
  5
127F70
  8
OBJECT
 10
5074.9999999997199
 20
-633.99999999999432
 30
0.0
 11
4925.0
 21
-633.99999999999432
 31
0.0
1001
ACDBBLOCKREPETAG
1070
     1
1071
       32
1005
127F70
  0
LINE
  5
127F71
  8
OBJECT
 10
4920.0
 20
-877.9999999999942
 30
0.0
 11
4920.0
 21
-889.99999999999409
 31
0.0
1001
ACDBBLOCKREPETAG
1070
     1
1071
       33
1005
127F71
  0
LINE
  5
127F72
  8
OBJECT
 10
4920.0
 20
-889.99999999999409
 30
0.0
 11
5080.0
 21
-889.99999999999409
 31
0.0
1001
ACDBBLOCKREPETAG
1070
     1
1071
       34
1005
127F72
  0
LINE
  5
127F73
  8
OBJECT
 10
5080.0
 20
-889.99999999999409
 30
0.0
 11
5080.0
 21
-877.9999999999942
 31
0.0
1001
ACDBBLOCKREPETAG
1070
     1
1071
       35
1005
127F73
  0
LINE
  5
127F74
  8
OBJECT
 10
5074.9999999997199
 20
-633.99999999999432
 30
0.0
 11
5075.0
 21
-877.9999999999942
 31
0.0
1001
ACDBBLOCKREPETAG
1070
     1
1071
       37
1005
127F74
  0
LINE
  5
127F75
  8
OBJECT
 10
4867.0
 20
-738.99999999999409
 30
0.0
 11
4860.0
 21
-738.99999999999409
 31
0.0
1001
ACDBBLOCKREPETAG
1070
     1
1071
      197
1005
127F75
  0
LINE
  5
127F76
  8
OBJECT
 10
4860.0
 20
-738.99999999999409
 30
0.0
 11
4860.0
 21
-845.99999999999443
 31
0.0
1001
ACDBBLOCKREPETAG
1070
     1
1071
      198
1005
127F76
  0
LINE
  5
127F77
  8
OBJECT
 10
4915.5
 20
-740.50000000005969
 30
0.0
 11
4915.5
 21
-843.49999999999409
 31
0.0
1001
ACDBBLOCKREPETAG
1070
     1
1071
      199
1005
127F77
  0
ARC
  5
127F78
  8
OBJECT
 10
4918.5
 20
-740.50000000005969
 30
0.0
 40
3.0
 50
90.0
 51
180.0
1001
ACDBBLOCKREPETAG
1070
     1
1071
      200
1005
127F78
  0
LINE
  5
127F79
  8
OBJECT
 10
4867.0
 20
-845.99999999999443
 30
0.0
 11
4867.0
 21
-738.99999999999409
 31
0.0
1001
ACDBBLOCKREPETAG
1070
     1
1071
      201
1005
127F79
  0
LINE
  5
127F7A
  8
CENTER
 10
4845.0
 20
-793.99999999999409
 30
0.0
 11
4958.6550800869954
 21
-794.0000000000598
 31
0.0
1001
ACDBBLOCKREPETAG
1070
     1
1071
      202
1005
127F7A
  0
LINE
  5
127F7B
  8
OBJECT
 10
4867.0
 20
-741.9999999999942
 30
0.0
 11
4903.0
 21
-741.9999999999942
 31
0.0
1001
ACDBBLOCKREPETAG
1070
     1
1071
      203
1005
127F7B
  0
LINE
  5
127F7C
  8
OBJECT
 10
4903.0
 20
-741.9999999999942
 30
0.0
 11
4903.0
 21
-845.99999999999443
 31
0.0
1001
ACDBBLOCKREPETAG
1070
     1
1071
      204
1005
127F7C
  0
LINE
  5
127F7D
  8
OBJECT
 10
4903.0
 20
-845.99999999999443
 30
0.0
 11
4860.0
 21
-845.99999999999443
 31
0.0
1001
ACDBBLOCKREPETAG
1070
     1
1071
      205
1005
127F7D
  0
LINE
  5
127F7E
  8
OBJECT
 10
4907.0
 20
-746.4999999999942
 30
0.0
 11
4915.5
 21
-746.4999999999942
 31
0.0
1001
ACDBBLOCKREPETAG
1070
     1
1071
      206
1005
127F7E
  0
LINE
  5
127F7F
  8
OBJECT
 10
4915.5
 20
-841.49999999999443
 30
0.0
 11
4907.0
 21
-841.49999999999443
 31
0.0
1001
ACDBBLOCKREPETAG
1070
     1
1071
      207
1005
127F7F
  0
LINE
  5
127F80
  8
OBJECT
 10
4907.0
 20
-841.49999999999443
 30
0.0
 11
4907.0
 21
-746.4999999999942
 31
0.0
1001
ACDBBLOCKREPETAG
1070
     1
1071
      208
1005
127F80
  0
LINE
  5
127F81
  8
OBJECT
 10
4903.0
 20
-741.9999999999942
 30
0.0
 11
4907.0
 21
-746.4999999999942
 31
0.0
1001
ACDBBLOCKREPETAG
1070
     1
1071
      209
1005
127F81
  0
LINE
  5
127F82
  8
OBJECT
 10
4903.0
 20
-845.99999999999443
 30
0.0
 11
4907.0
 21
-841.49999999999443
 31
0.0
1001
ACDBBLOCKREPETAG
1070
     1
1071
       36
1005
127F82
  0
LINE
  5
127F83
  8
HIDDEN
 10
4912.0
 20
-755.99999999999409
 30
0.0
 11
4912.0
 21
-831.99999999999409
 31
0.0
1001
ACDBBLOCKREPETAG
1070
     1
1071
      210
1005
127F83
  0
ARC
  5
127F84
  8
OBJECT
 10
4835.1217271212263
 20
-802.40950726122355
 30
0.0
 40
110.86635228309
 50
16.95964619565439
 51
35.836572580695218
1001
ACDBBLOCKREPETAG
1070
     1
1071
      211
1005
127F84
  0
ARC
  5
127F85
  8
OBJECT
 10
4882.8640112230942
 20
-787.28774971844325
 30
0.0
 40
60.791749880358971
 50
0.2712030171733432
 51
16.452795347786878
1001
ACDBBLOCKREPETAG
1070
     1
1071
      212
1005
127F85
  0
ARC
  5
127F86
  8
OBJECT
 10
4882.8640043437508
 20
-793.71224975989549
 30
0.0
 40
60.79175676209487
 50
343.54722053947972
 51
359.7287965218548
1001
ACDBBLOCKREPETAG
1070
     1
1071
      213
1005
127F86
  0
ARC
  5
127F87
  8
OBJECT
 10
4835.1217271212263
 20
-778.59049273883056
 30
0.0
 40
110.8663522830916
 50
324.16342741930481
 51
343.04035380434561
1001
ACDBBLOCKREPETAG
1070
     1
1071
      214
1005
127F87
  0
LINE
  5
127F88
  8
OBJECT
 10
4943.6550800869954
 20
-787.00000000003081
 30
0.0
 11
4943.6550800869954
 21
-794.00000000002683
 31
0.0
1001
ACDBBLOCKREPETAG
1070
     1
1071
      215
1005
127F88
  0
LINE
  5
127F89
  8
OBJECT
 10
4925.0
 20
-737.50000000005957
 30
0.0
 11
4918.5
 21
-737.50000000005957
 31
0.0
1001
ACDBBLOCKREPETAG
1070
     1
1071
      216
1005
127F89
  0
LINE
  5
127F8A
  8
OBJECT
 10
4925.0
 20
-843.49999999999409
 30
0.0
 11
4915.5
 21
-843.49999999999409
 31
0.0
1001
ACDBBLOCKREPETAG
1070
     1
1071
      217
1005
127F8A
  0
POINT
  5
127F8B
  8
DOTS
 10
5000.0
 20
-845.99999999999443
 30
0.0
1001
ACDBBLOCKREPETAG
1070
     1
1071
      219
1005
127F8B
  0
LINE
  5
127F8C
  8
OBJECT
 10
4423.0
 20
-570.99999999999432
 30
0.0
 11
4423.0
 21
-549.99999999999432
 31
0.0
1001
ACDBBLOCKREPETAG
1070
     1
1071
        0
1005
127F8C
  0
LINE
  5
127F8D
  8
OBJECT
 10
4423.0
 20
-549.99999999999432
 30
0.0
 11
4577.0
 21
-549.99999999999432
 31
0.0
1001
ACDBBLOCKREPETAG
1070
     1
1071
        1
1005
127F8D
  0
LINE
  5
127F8E
  8
HIDDEN
 10
4443.0
 20
-619.99999999999432
 30
0.0
 11
4557.0
 21
-619.99999999999432
 31
0.0
1001
ACDBBLOCKREPETAG
1070
     1
1071
        2
1005
127F8E
  0
LINE
  5
127F8F
  8
OBJECT
 10
4577.0
 20
-549.99999999999432
 30
0.0
 11
4577.0
 21
-570.99999999999432
 31
0.0
1001
ACDBBLOCKREPETAG
1070
     1
1071
        3
1005
127F8F
  0
LINE
  5
127F90
  8
OBJECT
 10
4577.0
 20
-570.99999999999432
 30
0.0
 11
4423.0
 21
-570.99999999999432
 31
0.0
1001
ACDBBLOCKREPETAG
1070
     1
1071
        4
1005
127F90
  0
LINE
  5
127F91
  8
CENTER
 10
4500.0
 20
-534.99999999999432
 30
0.0
 11
4500.0
 21
-889.99999999999409
 31
0.0
1001
ACDBBLOCKREPETAG
1070
     1
1071
        5
1005
127F91
  0
LINE
  5
127F92
  8
OBJECT
 10
4425.0
 20
-633.99999999999432
 30
0.0
 11
4425.0
 21
-877.9999999999942
 31
0.0
1001
ACDBBLOCKREPETAG
1070
     1
1071
        6
1005
127F92
  0
LINE
  5
127F93
  8
OBJECT
 10
4428.0
 20
-570.99999999999432
 30
0.0
 11
4428.0
 21
-633.99999999999432
 31
0.0
1001
ACDBBLOCKREPETAG
1070
     1
1071
        7
1005
127F93
  0
LINE
  5
127F94
  8
OBJECT
 10
4572.0
 20
-633.99999999999432
 30
0.0
 11
4572.0
 21
-570.99999999999432
 31
0.0
1001
ACDBBLOCKREPETAG
1070
     1
1071
        8
1005
127F94
  0
LINE
  5
127F95
  8
OBJECT
 10
4420.0
 20
-877.9999999999942
 30
0.0
 11
4580.0
 21
-877.9999999999942
 31
0.0
1001
ACDBBLOCKREPETAG
1070
     1
1071
        9
1005
127F95
  0
LINE
  5
127F96
  8
OBJECT
 10
4580.0
 20
-633.99999999999432
 30
0.0
 11
4425.0
 21
-633.99999999999432
 31
0.0
1001
ACDBBLOCKREPETAG
1070
     1
1071
       10
1005
127F96
  0
LINE
  5
127F97
  8
OBJECT
 10
4420.0
 20
-877.9999999999942
 30
0.0
 11
4420.0
 21
-889.99999999999409
 31
0.0
1001
ACDBBLOCKREPETAG
1070
     1
1071
       11
1005
127F97
  0
LINE
  5
127F98
  8
OBJECT
 10
4420.0
 20
-889.99999999999409
 30
0.0
 11
4580.0
 21
-889.99999999999409
 31
0.0
1001
ACDBBLOCKREPETAG
1070
     1
1071
       12
1005
127F98
  0
LINE
  5
127F99
  8
OBJECT
 10
4580.0
 20
-889.99999999999409
 30
0.0
 11
4580.0
 21
-877.9999999999942
 31
0.0
1001
ACDBBLOCKREPETAG
1070
     1
1071
       13
1005
127F99
  0
LINE
  5
127F9A
  8
OBJECT
 10
4574.9999999998618
 20
-757.99999999984493
 30
0.0
 11
4575.0
 21
-877.9999999999942
 31
0.0
1001
ACDBBLOCKREPETAG
1070
     1
1071
       15
1005
127F9A
  0
LINE
  5
127F9B
  8
OBJECT
 10
4574.9999908029849
 20
-757.99998602701612
 30
0.0
 11
4580.0
 21
-757.99998602701612
 31
0.0
1001
ACDBBLOCKREPETAG
1070
     1
1071
       16
1005
127F9B
  0
ARC
  5
127F9C
  8
OBJECT
 10
4700.6872746716726
 20
-749.40809941010195
 30
0.0
 40
170.6350503965856
 50
137.44134459184301
 51
149.91949581337221
1001
ACDBBLOCKREPETAG
1070
     1
1071
       17
1005
127F9C
  0
ARC
  5
127F9D
  8
OBJECT
 10
4618.8455987040506
 20
-705.88272669535922
 30
0.0
 40
78.072222021763665
 50
147.4551531038623
 51
164.66365997718671
1001
ACDBBLOCKREPETAG
1070
     1
1071
       18
1005
127F9D
  0
ARC
  5
127F9E
  8
OBJECT
 10
4585.7554349608718
 20
-695.99999999999432
 30
0.0
 40
43.55353926885617
 50
165.688452300753
 51
194.3115476992468
1001
ACDBBLOCKREPETAG
1070
     1
1071
       19
1005
127F9E
  0
ARC
  5
127F9F
  8
OBJECT
 10
4700.6872746716726
 20
-642.59190058988645
 30
0.0
 40
170.6350503965856
 50
210.08050418662771
 51
222.55865540815699
1001
ACDBBLOCKREPETAG
1070
     1
1071
       20
1005
127F9F
  0
ARC
  5
127FA0
  8
OBJECT
 10
4618.8455987040506
 20
-686.11727330462952
 30
0.0
 40
78.072222021763665
 50
195.3363400228132
 51
212.5448468961377
1001
ACDBBLOCKREPETAG
1070
     1
1071
       21
1005
127FA0
  0
CIRCLE
  5
127FA1
  8
OBJECT
 10
4500.0
 20
-793.99999999999409
 30
0.0
 40
35.5
1001
ACDBBLOCKREPETAG
1070
     1
1071
      192
1005
127FA1
  0
LINE
  5
127FA2
  8
CENTER
 10
4430.0
 20
-793.99999999999409
 30
0.0
 11
4570.0
 21
-793.99999999999409
 31
0.0
1001
ACDBBLOCKREPETAG
1070
     1
1071
      193
1005
127FA2
  0
CIRCLE
  5
127FA3
  8
OBJECT
 10
4500.0
 20
-793.99999999999409
 30
0.0
 40
47.0
1001
ACDBBLOCKREPETAG
1070
     1
1071
       14
1005
127FA3
  0
ARC
  5
127FA4
  8
OBJECT
 10
4500.0
 20
-793.99999999999409
 30
0.0
 40
55.0
 50
289.01126526010933
 51
250.9887347398907
1001
ACDBBLOCKREPETAG
1070
     1
1071
      194
1005
127FA4
  0
LINE
  5
127FA5
  8
OBJECT
 10
4482.0835271328324
 20
-845.99999999999443
 30
0.0
 11
4517.9164728671676
 21
-845.99999999999443
 31
0.0
1001
ACDBBLOCKREPETAG
1070
     1
1071
      195
1005
127FA5
  0
POINT
  5
127FA6
  8
DOTS
 10
4500.0
 20
-845.99999999999443
 30
0.0
1001
ACDBBLOCKREPETAG
1070
     1
1071
      196
1005
127FA6
  0
LINE
  5
127FA7
  8
CENTER
 10
5077.0
 20
-695.99999999999432
 30
0.0
 11
4923.0
 21
-695.99999999999432
 31
0.0
1001
ACDBBLOCKREPETAG
1070
     1
1071
       17
1005
127FA7
  0
CIRCLE
  5
127FA8
  8
OBJECT
 10
5000.0
 20
-695.99999999999432
 30
0.0
 40
41.5
1001
ACDBBLOCKREPETAG
1070
     1
1071
       19
1005
127FA8
  0
CIRCLE
  5
127FA9
  8
OBJECT
 10
5000.0
 20
-695.99999999999432
 30
0.0
 40
54.0
1001
ACDBBLOCKREPETAG
1070
     1
1071
       20
1005
127FA9
  0
ARC
  5
127FAA
  8
OBJECT
 10
5000.0
 20
-695.99999999999432
 30
0.0
 40
62.0
 50
287.89655112920718
 51
252.10344887079279
1001
ACDBBLOCKREPETAG
1070
     1
1071
       21
1005
127FAA
  0
LINE
  5
127FAB
  8
OBJECT
 10
4980.947441116743
 20
-754.9999999999942
 30
0.0
 11
5019.052558883257
 21
-754.9999999999942
 31
0.0
1001
ACDBBLOCKREPETAG
1070
     1
1071
       22
1005
127FAB
  0
LINE
  5
127FAC
  8
OBJECT
 10
4633.0
 20
-634.0
 30
0.0
 11
4640.0
 21
-634.0
 31
0.0
1001
ACDBBLOCKREPETAG
1070
     1
1071
       45
1005
127FAC
  0
LINE
  5
127FAD
  8
OBJECT
 10
4640.0
 20
-634.0
 30
0.0
 11
4640.0
 21
-755.0
 31
0.0
1001
ACDBBLOCKREPETAG
1070
     1
1071
       46
1005
127FAD
  0
LINE
  5
127FAE
  8
OBJECT
 10
4633.0
 20
-755.0
 30
0.0
 11
4633.0
 21
-634.0
 31
0.0
1001
ACDBBLOCKREPETAG
1070
     1
1071
       47
1005
127FAE
  0
LINE
  5
127FAF
  8
CENTER
 10
4655.0
 20
-696.0
 30
0.0
 11
4571.0
 21
-696.0
 31
0.0
1001
ACDBBLOCKREPETAG
1070
     1
1071
       48
1005
127FAF
  0
LINE
  5
127FB0
  8
OBJECT
 10
4633.0
 20
-637.0
 30
0.0
 11
4597.0
 21
-637.0
 31
0.0
1001
ACDBBLOCKREPETAG
1070
     1
1071
       49
1005
127FB0
  0
LINE
  5
127FB1
  8
OBJECT
 10
4597.0
 20
-637.0
 30
0.0
 11
4597.0
 21
-755.0
 31
0.0
1001
ACDBBLOCKREPETAG
1070
     1
1071
       50
1005
127FB1
  0
LINE
  5
127FB2
  8
OBJECT
 10
4597.0
 20
-755.0
 30
0.0
 11
4640.0
 21
-755.0
 31
0.0
1001
ACDBBLOCKREPETAG
1070
     1
1071
       51
1005
127FB2
  0
LINE
  5
127FB3
  8
OBJECT
 10
4593.0
 20
-641.5
 30
0.0
 11
4586.0
 21
-641.5
 31
0.0
1001
ACDBBLOCKREPETAG
1070
     1
1071
       52
1005
127FB3
  0
LINE
  5
127FB4
  8
OBJECT
 10
4586.0
 20
-750.49999999999989
 30
0.0
 11
4593.0
 21
-750.49999999999989
 31
0.0
1001
ACDBBLOCKREPETAG
1070
     1
1071
       53
1005
127FB4
  0
LINE
  5
127FB5
  8
OBJECT
 10
4593.0
 20
-750.49999999999989
 30
0.0
 11
4593.0
 21
-641.5
 31
0.0
1001
ACDBBLOCKREPETAG
1070
     1
1071
       54
1005
127FB5
  0
LINE
  5
127FB6
  8
OBJECT
 10
4597.0
 20
-637.0
 30
0.0
 11
4593.0
 21
-641.5
 31
0.0
1001
ACDBBLOCKREPETAG
1070
     1
1071
       55
1005
127FB6
  0
LINE
  5
127FB7
  8
OBJECT
 10
4597.0
 20
-755.0
 30
0.0
 11
4593.0
 21
-750.49999999999989
 31
0.0
1001
ACDBBLOCKREPETAG
1070
     1
1071
       56
1005
127FB7
  0
LINE
  5
127FB8
  8
OBJECT
 10
4583.0
 20
-634.0
 30
0.0
 11
4580.0
 21
-634.0
 31
0.0
1001
ACDBBLOCKREPETAG
1070
     1
1071
       57
1005
127FB8
  0
ARC
  5
127FB9
  8
OBJECT
 10
4583.0
 20
-637.0
 30
0.0
 40
3.0
 50
0.0
 51
90.0
1001
ACDBBLOCKREPETAG
1070
     1
1071
       58
1005
127FB9
  0
LINE
  5
127FBA
  8
OBJECT
 10
4580.0
 20
-758.0
 30
0.0
 11
4583.0
 21
-758.0
 31
0.0
1001
ACDBBLOCKREPETAG
1070
     1
1071
       59
1005
127FBA
  0
ARC
  5
127FBB
  8
OBJECT
 10
4583.0
 20
-755.0
 30
0.0
 40
3.0
 50
270.0
 51
0.0
1001
ACDBBLOCKREPETAG
1070
     1
1071
       60
1005
127FBB
  0
LINE
  5
127FBC
  8
OBJECT
 10
4586.0
 20
-755.0
 30
0.0
 11
4586.0
 21
-637.0
 31
0.0
1001
ACDBBLOCKREPETAG
1070
     1
1071
       61
1005
127FBC
  0
LINE
  5
127FBD
  8
HIDDEN
 10
4588.0
 20
-651.5
 30
0.0
 11
4588.0
 21
-740.5
 31
0.0
1001
ACDBBLOCKREPETAG
1070
     1
1071
       63
1005
127FBD
  0
LINE
  5
127FBE
  8
OBJECT
 10
2923.0
 20
-570.99999999999432
 30
0.0
 11
2923.0
 21
-549.99999999999432
 31
0.0
1001
ACDBBLOCKREPETAG
1070
     1
1071
       22
1005
127FBE
  0
LINE
  5
127FBF
  8
OBJECT
 10
2923.0
 20
-549.99999999999432
 30
0.0
 11
3077.0
 21
-549.99999999999432
 31
0.0
1001
ACDBBLOCKREPETAG
1070
     1
1071
       23
1005
127FBF
  0
LINE
  5
127FC0
  8
HIDDEN
 10
2943.0
 20
-619.99999999999432
 30
0.0
 11
3057.0
 21
-619.99999999999432
 31
0.0
1001
ACDBBLOCKREPETAG
1070
     1
1071
       24
1005
127FC0
  0
LINE
  5
127FC1
  8
OBJECT
 10
3077.0
 20
-549.99999999999432
 30
0.0
 11
3077.0
 21
-570.99999999999432
 31
0.0
1001
ACDBBLOCKREPETAG
1070
     1
1071
       25
1005
127FC1
  0
LINE
  5
127FC2
  8
OBJECT
 10
3077.0
 20
-570.99999999999432
 30
0.0
 11
2923.0
 21
-570.99999999999432
 31
0.0
1001
ACDBBLOCKREPETAG
1070
     1
1071
       26
1005
127FC2
  0
LINE
  5
127FC3
  8
CENTER
 10
3000.0
 20
-534.99999999999432
 30
0.0
 11
3000.0
 21
-889.99999999999409
 31
0.0
1001
ACDBBLOCKREPETAG
1070
     1
1071
       27
1005
127FC3
  0
LINE
  5
127FC4
  8
OBJECT
 10
2925.0
 20
-633.99999999999432
 30
0.0
 11
2925.0
 21
-737.50000000005957
 31
0.0
1001
ACDBBLOCKREPETAG
1070
     1
1071
       28
1005
127FC4
  0
LINE
  5
127FC5
  8
OBJECT
 10
2925.0
 20
-843.49999999999409
 30
0.0
 11
2925.0
 21
-877.9999999999942
 31
0.0
1001
ACDBBLOCKREPETAG
1070
     1
1071
      218
1005
127FC5
  0
LINE
  5
127FC6
  8
OBJECT
 10
2928.0
 20
-570.99999999999432
 30
0.0
 11
2928.0
 21
-633.99999999999432
 31
0.0
1001
ACDBBLOCKREPETAG
1070
     1
1071
       29
1005
127FC6
  0
LINE
  5
127FC7
  8
OBJECT
 10
3072.0
 20
-633.99999999999432
 30
0.0
 11
3072.0
 21
-570.99999999999432
 31
0.0
1001
ACDBBLOCKREPETAG
1070
     1
1071
       30
1005
127FC7
  0
LINE
  5
127FC8
  8
OBJECT
 10
2920.0
 20
-877.9999999999942
 30
0.0
 11
3080.0
 21
-877.9999999999942
 31
0.0
1001
ACDBBLOCKREPETAG
1070
     1
1071
       31
1005
127FC8
  0
LINE
  5
127FC9
  8
OBJECT
 10
3074.9999999997199
 20
-633.99999999999432
 30
0.0
 11
2925.0
 21
-633.99999999999432
 31
0.0
1001
ACDBBLOCKREPETAG
1070
     1
1071
       32
1005
127FC9
  0
LINE
  5
127FCA
  8
OBJECT
 10
2920.0
 20
-877.9999999999942
 30
0.0
 11
2920.0
 21
-889.99999999999409
 31
0.0
1001
ACDBBLOCKREPETAG
1070
     1
1071
       33
1005
127FCA
  0
LINE
  5
127FCB
  8
OBJECT
 10
2920.0
 20
-889.99999999999409
 30
0.0
 11
3080.0
 21
-889.99999999999409
 31
0.0
1001
ACDBBLOCKREPETAG
1070
     1
1071
       34
1005
127FCB
  0
LINE
  5
127FCC
  8
OBJECT
 10
3080.0
 20
-889.99999999999409
 30
0.0
 11
3080.0
 21
-877.9999999999942
 31
0.0
1001
ACDBBLOCKREPETAG
1070
     1
1071
       35
1005
127FCC
  0
LINE
  5
127FCD
  8
OBJECT
 10
3074.9999999997199
 20
-633.99999999999432
 30
0.0
 11
3075.0
 21
-877.9999999999942
 31
0.0
1001
ACDBBLOCKREPETAG
1070
     1
1071
       37
1005
127FCD
  0
LINE
  5
127FCE
  8
OBJECT
 10
2867.0
 20
-738.99999999999409
 30
0.0
 11
2860.0
 21
-738.99999999999409
 31
0.0
1001
ACDBBLOCKREPETAG
1070
     1
1071
      197
1005
127FCE
  0
LINE
  5
127FCF
  8
OBJECT
 10
2860.0
 20
-738.99999999999409
 30
0.0
 11
2860.0
 21
-845.99999999999443
 31
0.0
1001
ACDBBLOCKREPETAG
1070
     1
1071
      198
1005
127FCF
  0
LINE
  5
127FD0
  8
OBJECT
 10
2915.5
 20
-740.50000000005969
 30
0.0
 11
2915.5
 21
-843.49999999999409
 31
0.0
1001
ACDBBLOCKREPETAG
1070
     1
1071
      199
1005
127FD0
  0
ARC
  5
127FD1
  8
OBJECT
 10
2918.5
 20
-740.50000000005969
 30
0.0
 40
3.0
 50
90.0
 51
180.0
1001
ACDBBLOCKREPETAG
1070
     1
1071
      200
1005
127FD1
  0
LINE
  5
127FD2
  8
OBJECT
 10
2867.0
 20
-845.99999999999443
 30
0.0
 11
2867.0
 21
-738.99999999999409
 31
0.0
1001
ACDBBLOCKREPETAG
1070
     1
1071
      201
1005
127FD2
  0
LINE
  5
127FD3
  8
CENTER
 10
2845.0
 20
-793.99999999999409
 30
0.0
 11
2958.655080086995
 21
-794.0000000000598
 31
0.0
1001
ACDBBLOCKREPETAG
1070
     1
1071
      202
1005
127FD3
  0
LINE
  5
127FD4
  8
OBJECT
 10
2867.0
 20
-741.9999999999942
 30
0.0
 11
2903.0
 21
-741.9999999999942
 31
0.0
1001
ACDBBLOCKREPETAG
1070
     1
1071
      203
1005
127FD4
  0
LINE
  5
127FD5
  8
OBJECT
 10
2903.0
 20
-741.9999999999942
 30
0.0
 11
2903.0
 21
-845.99999999999443
 31
0.0
1001
ACDBBLOCKREPETAG
1070
     1
1071
      204
1005
127FD5
  0
LINE
  5
127FD6
  8
OBJECT
 10
2903.0
 20
-845.99999999999443
 30
0.0
 11
2860.0
 21
-845.99999999999443
 31
0.0
1001
ACDBBLOCKREPETAG
1070
     1
1071
      205
1005
127FD6
  0
LINE
  5
127FD7
  8
OBJECT
 10
2907.0
 20
-746.4999999999942
 30
0.0
 11
2915.5
 21
-746.4999999999942
 31
0.0
1001
ACDBBLOCKREPETAG
1070
     1
1071
      206
1005
127FD7
  0
LINE
  5
127FD8
  8
OBJECT
 10
2915.5
 20
-841.49999999999443
 30
0.0
 11
2907.0
 21
-841.49999999999443
 31
0.0
1001
ACDBBLOCKREPETAG
1070
     1
1071
      207
1005
127FD8
  0
LINE
  5
127FD9
  8
OBJECT
 10
2907.0
 20
-841.49999999999443
 30
0.0
 11
2907.0
 21
-746.4999999999942
 31
0.0
1001
ACDBBLOCKREPETAG
1070
     1
1071
      208
1005
127FD9
  0
LINE
  5
127FDA
  8
OBJECT
 10
2903.0
 20
-741.9999999999942
 30
0.0
 11
2907.0
 21
-746.4999999999942
 31
0.0
1001
ACDBBLOCKREPETAG
1070
     1
1071
      209
1005
127FDA
  0
LINE
  5
127FDB
  8
OBJECT
 10
2903.0
 20
-845.99999999999443
 30
0.0
 11
2907.0
 21
-841.49999999999443
 31
0.0
1001
ACDBBLOCKREPETAG
1070
     1
1071
       36
1005
127FDB
  0
LINE
  5
127FDC
  8
HIDDEN
 10
2912.0
 20
-755.99999999999409
 30
0.0
 11
2912.0
 21
-831.99999999999409
 31
0.0
1001
ACDBBLOCKREPETAG
1070
     1
1071
      210
1005
127FDC
  0
ARC
  5
127FDD
  8
OBJECT
 10
2835.1217271212249
 20
-802.40950726122355
 30
0.0
 40
110.86635228309
 50
16.959646195661989
 51
35.836572580695218
1001
ACDBBLOCKREPETAG
1070
     1
1071
      211
1005
127FDD
  0
ARC
  5
127FDE
  8
OBJECT
 10
2882.8640112230928
 20
-787.28774971844325
 30
0.0
 40
60.791749880358971
 50
0.2712030171732199
 51
16.452795347779499
1001
ACDBBLOCKREPETAG
1070
     1
1071
      212
1005
127FDE
  0
ARC
  5
127FDF
  8
OBJECT
 10
2882.8640043437522
 20
-793.71224975989549
 30
0.0
 40
60.79175676209487
 50
343.54722053947239
 51
359.72879652185469
1001
ACDBBLOCKREPETAG
1070
     1
1071
      213
1005
127FDF
  0
ARC
  5
127FE0
  8
OBJECT
 10
2835.1217271212249
 20
-778.59049273883056
 30
0.0
 40
110.8663522830916
 50
324.16342741930481
 51
343.040353804338
1001
ACDBBLOCKREPETAG
1070
     1
1071
      214
1005
127FE0
  0
LINE
  5
127FE1
  8
OBJECT
 10
2943.6550800869959
 20
-787.00000000003081
 30
0.0
 11
2943.6550800869959
 21
-794.00000000002683
 31
0.0
1001
ACDBBLOCKREPETAG
1070
     1
1071
      215
1005
127FE1
  0
LINE
  5
127FE2
  8
OBJECT
 10
2925.0
 20
-737.50000000005957
 30
0.0
 11
2918.5
 21
-737.50000000005957
 31
0.0
1001
ACDBBLOCKREPETAG
1070
     1
1071
      216
1005
127FE2
  0
LINE
  5
127FE3
  8
OBJECT
 10
2925.0
 20
-843.49999999999409
 30
0.0
 11
2915.5
 21
-843.49999999999409
 31
0.0
1001
ACDBBLOCKREPETAG
1070
     1
1071
      217
1005
127FE3
  0
POINT
  5
127FE4
  8
DOTS
 10
3000.0
 20
-845.99999999999443
 30
0.0
1001
ACDBBLOCKREPETAG
1070
     1
1071
      219
1005
127FE4
  0
LINE
  5
127FE5
  8
OBJECT
 10
2423.0
 20
-570.99999999999432
 30
0.0
 11
2423.0
 21
-549.99999999999432
 31
0.0
1001
ACDBBLOCKREPETAG
1070
     1
1071
        0
1005
127FE5
  0
LINE
  5
127FE6
  8
OBJECT
 10
2423.0
 20
-549.99999999999432
 30
0.0
 11
2577.0
 21
-549.99999999999432
 31
0.0
1001
ACDBBLOCKREPETAG
1070
     1
1071
        1
1005
127FE6
  0
LINE
  5
127FE7
  8
HIDDEN
 10
2443.0
 20
-619.99999999999432
 30
0.0
 11
2557.0
 21
-619.99999999999432
 31
0.0
1001
ACDBBLOCKREPETAG
1070
     1
1071
        2
1005
127FE7
  0
LINE
  5
127FE8
  8
OBJECT
 10
2577.0
 20
-549.99999999999432
 30
0.0
 11
2577.0
 21
-570.99999999999432
 31
0.0
1001
ACDBBLOCKREPETAG
1070
     1
1071
        3
1005
127FE8
  0
LINE
  5
127FE9
  8
OBJECT
 10
2577.0
 20
-570.99999999999432
 30
0.0
 11
2423.0
 21
-570.99999999999432
 31
0.0
1001
ACDBBLOCKREPETAG
1070
     1
1071
        4
1005
127FE9
  0
LINE
  5
127FEA
  8
CENTER
 10
2500.0
 20
-534.99999999999432
 30
0.0
 11
2500.0
 21
-889.99999999999409
 31
0.0
1001
ACDBBLOCKREPETAG
1070
     1
1071
        5
1005
127FEA
  0
LINE
  5
127FEB
  8
OBJECT
 10
2425.0
 20
-633.99999999999432
 30
0.0
 11
2425.0
 21
-877.9999999999942
 31
0.0
1001
ACDBBLOCKREPETAG
1070
     1
1071
        6
1005
127FEB
  0
LINE
  5
127FEC
  8
OBJECT
 10
2428.0
 20
-570.99999999999432
 30
0.0
 11
2428.0
 21
-633.99999999999432
 31
0.0
1001
ACDBBLOCKREPETAG
1070
     1
1071
        7
1005
127FEC
  0
LINE
  5
127FED
  8
OBJECT
 10
2572.0
 20
-633.99999999999432
 30
0.0
 11
2572.0
 21
-570.99999999999432
 31
0.0
1001
ACDBBLOCKREPETAG
1070
     1
1071
        8
1005
127FED
  0
LINE
  5
127FEE
  8
OBJECT
 10
2420.0
 20
-877.9999999999942
 30
0.0
 11
2580.0
 21
-877.9999999999942
 31
0.0
1001
ACDBBLOCKREPETAG
1070
     1
1071
        9
1005
127FEE
  0
LINE
  5
127FEF
  8
OBJECT
 10
2580.0
 20
-633.99999999999432
 30
0.0
 11
2425.0
 21
-633.99999999999432
 31
0.0
1001
ACDBBLOCKREPETAG
1070
     1
1071
       10
1005
127FEF
  0
LINE
  5
127FF0
  8
OBJECT
 10
2420.0
 20
-877.9999999999942
 30
0.0
 11
2420.0
 21
-889.99999999999409
 31
0.0
1001
ACDBBLOCKREPETAG
1070
     1
1071
       11
1005
127FF0
  0
LINE
  5
127FF1
  8
OBJECT
 10
2420.0
 20
-889.99999999999409
 30
0.0
 11
2580.0
 21
-889.99999999999409
 31
0.0
1001
ACDBBLOCKREPETAG
1070
     1
1071
       12
1005
127FF1
  0
LINE
  5
127FF2
  8
OBJECT
 10
2580.0
 20
-889.99999999999409
 30
0.0
 11
2580.0
 21
-877.9999999999942
 31
0.0
1001
ACDBBLOCKREPETAG
1070
     1
1071
       13
1005
127FF2
  0
LINE
  5
127FF3
  8
OBJECT
 10
2574.9999999998622
 20
-757.99999999984493
 30
0.0
 11
2575.0
 21
-877.9999999999942
 31
0.0
1001
ACDBBLOCKREPETAG
1070
     1
1071
       15
1005
127FF3
  0
LINE
  5
127FF4
  8
OBJECT
 10
2574.9999908029849
 20
-757.99998602701612
 30
0.0
 11
2580.0
 21
-757.99998602701612
 31
0.0
1001
ACDBBLOCKREPETAG
1070
     1
1071
       16
1005
127FF4
  0
ARC
  5
127FF5
  8
OBJECT
 10
2700.6872746716731
 20
-749.40809941010195
 30
0.0
 40
170.6350503965856
 50
137.44134459184301
 51
149.91949581337221
1001
ACDBBLOCKREPETAG
1070
     1
1071
       17
1005
127FF5
  0
ARC
  5
127FF6
  8
OBJECT
 10
2618.8455987040511
 20
-705.88272669535922
 30
0.0
 40
78.072222021763665
 50
147.4551531038623
 51
164.6636599771798
1001
ACDBBLOCKREPETAG
1070
     1
1071
       18
1005
127FF6
  0
ARC
  5
127FF7
  8
OBJECT
 10
2585.7554349608731
 20
-695.99999999999432
 30
0.0
 40
43.55353926885617
 50
165.6884523007466
 51
194.3115476992534
1001
ACDBBLOCKREPETAG
1070
     1
1071
       19
1005
127FF7
  0
ARC
  5
127FF8
  8
OBJECT
 10
2700.6872746716731
 20
-642.59190058988645
 30
0.0
 40
170.6350503965856
 50
210.08050418662771
 51
222.55865540815699
1001
ACDBBLOCKREPETAG
1070
     1
1071
       20
1005
127FF8
  0
ARC
  5
127FF9
  8
OBJECT
 10
2618.8455987040511
 20
-686.11727330462952
 30
0.0
 40
78.072222021763665
 50
195.3363400228202
 51
212.5448468961377
1001
ACDBBLOCKREPETAG
1070
     1
1071
       21
1005
127FF9
  0
CIRCLE
  5
127FFA
  8
OBJECT
 10
2500.0
 20
-793.99999999999409
 30
0.0
 40
35.5
1001
ACDBBLOCKREPETAG
1070
     1
1071
      192
1005
127FFA
  0
LINE
  5
127FFB
  8
CENTER
 10
2430.0
 20
-793.99999999999409
 30
0.0
 11
2570.0
 21
-793.99999999999409
 31
0.0
1001
ACDBBLOCKREPETAG
1070
     1
1071
      193
1005
127FFB
  0
CIRCLE
  5
127FFC
  8
OBJECT
 10
2500.0
 20
-793.99999999999409
 30
0.0
 40
47.0
1001
ACDBBLOCKREPETAG
1070
     1
1071
       14
1005
127FFC
  0
ARC
  5
127FFD
  8
OBJECT
 10
2500.0
 20
-793.99999999999409
 30
0.0
 40
55.0
 50
289.0112652600846
 51
250.98873473991529
1001
ACDBBLOCKREPETAG
1070
     1
1071
      194
1005
127FFD
  0
LINE
  5
127FFE
  8
OBJECT
 10
2482.0835271328328
 20
-845.99999999999443
 30
0.0
 11
2517.9164728671681
 21
-845.99999999999443
 31
0.0
1001
ACDBBLOCKREPETAG
1070
     1
1071
      195
1005
127FFE
  0
POINT
  5
127FFF
  8
DOTS
 10
2500.0
 20
-845.99999999999443
 30
0.0
1001
ACDBBLOCKREPETAG
1070
     1
1071
      196
1005
127FFF
  0
LINE
  5
128000
  8
CENTER
 10
3077.0
 20
-695.99999999999432
 30
0.0
 11
2923.0
 21
-695.99999999999432
 31
0.0
1001
ACDBBLOCKREPETAG
1070
     1
1071
       17
1005
128000
  0
CIRCLE
  5
128001
  8
OBJECT
 10
3000.0
 20
-695.99999999999432
 30
0.0
 40
41.5
1001
ACDBBLOCKREPETAG
1070
     1
1071
       19
1005
128001
  0
CIRCLE
  5
128002
  8
OBJECT
 10
3000.0
 20
-695.99999999999432
 30
0.0
 40
54.0
1001
ACDBBLOCKREPETAG
1070
     1
1071
       20
1005
128002
  0
ARC
  5
128003
  8
OBJECT
 10
3000.0
 20
-695.99999999999432
 30
0.0
 40
62.0
 50
287.89655112920718
 51
252.10344887079279
1001
ACDBBLOCKREPETAG
1070
     1
1071
       21
1005
128003
  0
LINE
  5
128004
  8
OBJECT
 10
2980.947441116743
 20
-754.9999999999942
 30
0.0
 11
3019.052558883257
 21
-754.9999999999942
 31
0.0
1001
ACDBBLOCKREPETAG
1070
     1
1071
       22
1005
128004
  0
LINE
  5
128005
  8
OBJECT
 10
2633.0
 20
-137.99999999999909
 30
0.0
 11
2640.0
 21
-137.99999999999909
 31
0.0
1001
ACDBBLOCKREPETAG
1070
     1
1071
       47
1005
128005
  0
LINE
  5
128006
  8
OBJECT
 10
2640.0
 20
-137.99999999999909
 30
0.0
 11
2640.0
 21
-261.99999999999909
 31
0.0
1001
ACDBBLOCKREPETAG
1070
     1
1071
       48
1005
128006
  0
LINE
  5
128007
  8
OBJECT
 10
2640.0
 20
-261.99999999999909
 30
0.0
 11
2633.0
 21
-261.99999999999909
 31
0.0
1001
ACDBBLOCKREPETAG
1070
     1
1071
       49
1005
128007
  0
LINE
  5
128008
  8
OBJECT
 10
2633.0
 20
-261.99999999999909
 30
0.0
 11
2633.0
 21
-137.99999999999909
 31
0.0
1001
ACDBBLOCKREPETAG
1070
     1
1071
       50
1005
128008
  0
LINE
  5
128009
  8
CENTER
 10
2655.0
 20
-199.99999999999909
 30
0.0
 11
2580.0
 21
-199.99999999999909
 31
0.0
1001
ACDBBLOCKREPETAG
1070
     1
1071
       51
1005
128009
  0
LINE
  5
12800A
  8
OBJECT
 10
2633.0
 20
-140.99999999999909
 30
0.0
 11
2597.0
 21
-140.99999999999909
 31
0.0
1001
ACDBBLOCKREPETAG
1070
     1
1071
       52
1005
12800A
  0
LINE
  5
12800B
  8
OBJECT
 10
2597.0
 20
-140.99999999999909
 30
0.0
 11
2597.0
 21
-258.99999999999909
 31
0.0
1001
ACDBBLOCKREPETAG
1070
     1
1071
       53
1005
12800B
  0
LINE
  5
12800C
  8
OBJECT
 10
2597.0
 20
-258.99999999999909
 30
0.0
 11
2633.0
 21
-258.99999999999909
 31
0.0
1001
ACDBBLOCKREPETAG
1070
     1
1071
       54
1005
12800C
  0
LINE
  5
12800D
  8
OBJECT
 10
2593.0
 20
-145.49999999999909
 30
0.0
 11
2586.0
 21
-145.49999999999909
 31
0.0
1001
ACDBBLOCKREPETAG
1070
     1
1071
       55
1005
12800D
  0
LINE
  5
12800E
  8
OBJECT
 10
2586.0
 20
-254.49999999999909
 30
0.0
 11
2593.0
 21
-254.49999999999909
 31
0.0
1001
ACDBBLOCKREPETAG
1070
     1
1071
       56
1005
12800E
  0
LINE
  5
12800F
  8
OBJECT
 10
2593.0
 20
-254.49999999999909
 30
0.0
 11
2593.0
 21
-145.49999999999909
 31
0.0
1001
ACDBBLOCKREPETAG
1070
     1
1071
       57
1005
12800F
  0
LINE
  5
128010
  8
OBJECT
 10
2597.0
 20
-140.99999999999909
 30
0.0
 11
2593.0
 21
-145.49999999999909
 31
0.0
1001
ACDBBLOCKREPETAG
1070
     1
1071
       58
1005
128010
  0
LINE
  5
128011
  8
OBJECT
 10
2597.0
 20
-258.99999999999909
 30
0.0
 11
2593.0
 21
-254.49999999999909
 31
0.0
1001
ACDBBLOCKREPETAG
1070
     1
1071
       59
1005
128011
  0
LINE
  5
128012
  8
OBJECT
 10
2583.0
 20
-137.99999999999909
 30
0.0
 11
2580.0
 21
-137.99999999999909
 31
0.0
1001
ACDBBLOCKREPETAG
1070
     1
1071
       60
1005
128012
  0
ARC
  5
128013
  8
OBJECT
 10
2583.0
 20
-140.99999999999909
 30
0.0
 40
3.0
 50
0.0
 51
90.0
1001
ACDBBLOCKREPETAG
1070
     1
1071
       61
1005
128013
  0
LINE
  5
128014
  8
OBJECT
 10
2580.0
 20
-261.99999999999909
 30
0.0
 11
2583.0
 21
-261.99999999999909
 31
0.0
1001
ACDBBLOCKREPETAG
1070
     1
1071
       62
1005
128014
  0
ARC
  5
128015
  8
OBJECT
 10
2583.0
 20
-258.99999999999909
 30
0.0
 40
3.0
 50
270.0
 51
0.0
1001
ACDBBLOCKREPETAG
1070
     1
1071
       63
1005
128015
  0
LINE
  5
128016
  8
OBJECT
 10
2586.0
 20
-258.99999999999909
 30
0.0
 11
2586.0
 21
-140.99999999999909
 31
0.0
1001
ACDBBLOCKREPETAG
1070
     1
1071
       64
1005
128016
  0
LINE
  5
128017
  8
HIDDEN
 10
2588.0
 20
-155.49999999999909
 30
0.0
 11
2588.0
 21
-244.49999999999909
 31
0.0
1001
ACDBBLOCKREPETAG
1070
     1
1071
       65
1005
128017
  0
LINE
  5
128018
  8
OBJECT
 10
2633.0
 20
-634.0
 30
0.0
 11
2640.0
 21
-634.0
 31
0.0
1001
ACDBBLOCKREPETAG
1070
     1
1071
       45
1005
128018
  0
LINE
  5
128019
  8
OBJECT
 10
2640.0
 20
-634.0
 30
0.0
 11
2640.0
 21
-755.0
 31
0.0
1001
ACDBBLOCKREPETAG
1070
     1
1071
       46
1005
128019
  0
LINE
  5
12801A
  8
OBJECT
 10
2633.0
 20
-755.0
 30
0.0
 11
2633.0
 21
-634.0
 31
0.0
1001
ACDBBLOCKREPETAG
1070
     1
1071
       47
1005
12801A
  0
LINE
  5
12801B
  8
CENTER
 10
2655.0
 20
-696.0
 30
0.0
 11
2571.0
 21
-696.0
 31
0.0
1001
ACDBBLOCKREPETAG
1070
     1
1071
       48
1005
12801B
  0
LINE
  5
12801C
  8
OBJECT
 10
2633.0
 20
-637.0
 30
0.0
 11
2597.0
 21
-637.0
 31
0.0
1001
ACDBBLOCKREPETAG
1070
     1
1071
       49
1005
12801C
  0
LINE
  5
12801D
  8
OBJECT
 10
2597.0
 20
-637.0
 30
0.0
 11
2597.0
 21
-755.0
 31
0.0
1001
ACDBBLOCKREPETAG
1070
     1
1071
       50
1005
12801D
  0
LINE
  5
12801E
  8
OBJECT
 10
2597.0
 20
-755.0
 30
0.0
 11
2640.0
 21
-755.0
 31
0.0
1001
ACDBBLOCKREPETAG
1070
     1
1071
       51
1005
12801E
  0
LINE
  5
12801F
  8
OBJECT
 10
2593.0
 20
-641.5
 30
0.0
 11
2586.0
 21
-641.5
 31
0.0
1001
ACDBBLOCKREPETAG
1070
     1
1071
       52
1005
12801F
  0
LINE
  5
128020
  8
OBJECT
 10
2586.0
 20
-750.49999999999989
 30
0.0
 11
2593.0
 21
-750.49999999999989
 31
0.0
1001
ACDBBLOCKREPETAG
1070
     1
1071
       53
1005
128020
  0
LINE
  5
128021
  8
OBJECT
 10
2593.0
 20
-750.49999999999989
 30
0.0
 11
2593.0
 21
-641.5
 31
0.0
1001
ACDBBLOCKREPETAG
1070
     1
1071
       54
1005
128021
  0
LINE
  5
128022
  8
OBJECT
 10
2597.0
 20
-637.0
 30
0.0
 11
2593.0
 21
-641.5
 31
0.0
1001
ACDBBLOCKREPETAG
1070
     1
1071
       55
1005
128022
  0
LINE
  5
128023
  8
OBJECT
 10
2597.0
 20
-755.0
 30
0.0
 11
2593.0
 21
-750.49999999999989
 31
0.0
1001
ACDBBLOCKREPETAG
1070
     1
1071
       56
1005
128023
  0
LINE
  5
128024
  8
OBJECT
 10
2583.0
 20
-634.0
 30
0.0
 11
2580.0
 21
-634.0
 31
0.0
1001
ACDBBLOCKREPETAG
1070
     1
1071
       57
1005
128024
  0
ARC
  5
128025
  8
OBJECT
 10
2583.0
 20
-637.0
 30
0.0
 40
3.0
 50
0.0
 51
90.0
1001
ACDBBLOCKREPETAG
1070
     1
1071
       58
1005
128025
  0
LINE
  5
128026
  8
OBJECT
 10
2580.0
 20
-758.0
 30
0.0
 11
2583.0
 21
-758.0
 31
0.0
1001
ACDBBLOCKREPETAG
1070
     1
1071
       59
1005
128026
  0
ARC
  5
128027
  8
OBJECT
 10
2583.0
 20
-755.0
 30
0.0
 40
3.0
 50
270.0
 51
0.0
1001
ACDBBLOCKREPETAG
1070
     1
1071
       60
1005
128027
  0
LINE
  5
128028
  8
OBJECT
 10
2586.0
 20
-755.0
 30
0.0
 11
2586.0
 21
-637.0
 31
0.0
1001
ACDBBLOCKREPETAG
1070
     1
1071
       61
1005
128028
  0
LINE
  5
128029
  8
HIDDEN
 10
2588.0
 20
-651.5
 30
0.0
 11
2588.0
 21
-740.5
 31
0.0
1001
ACDBBLOCKREPETAG
1070
     1
1071
       63
1005
128029
  0
TEXT
  5
12802A
  8
SLIM
 10
2337.75
 20
282.50000000000011
 30
0.0
 40
35.0
  1
（枝管サイズ毎に寸法が異なります。管底の位置は全サイズで同じです）
 41
0.75
  0
TEXT
  5
12802B
  8
SLIM
 10
2350.0
 20
532.5
 30
0.0
 40
75.0
  1
側面図の代表機種
 41
0.75
  0
TEXT
  5
12802C
  8
SLIM
 10
2350.0
 20
369.99999999999989
 30
0.0
 40
100.0
  1
4SRTG2-A3-A0200-P150
 41
0.75
  0
TEXT
  5
12802D
  8
SLIM
 10
0.0
 20
370.0
 30
0.0
 40
100.0
  1
4SRTG2-A3-A0X00-PXXX-S
 41
0.75
  0
TEXT
  5
12802E
  8
SLIM
 10
4241.6249999999991
 20
-1752.499999999998
 30
0.0
 40
35.0
  1
片受けスタイル（S）＋シンドカット
 41
0.75
  0
TEXT
  5
12802F
  8
SLIM
 10
2356.25
 20
-1752.499999999998
 30
0.0
 40
35.0
  1
片受けスタイル（S）
 41
0.75
  0
VIEWPORT
  5
F6BA7
 67
     1
  8
0
 10
145.33033752441401
 20
101.8328354358673
 30
0.0
 40
334.0025019414623
 41
222.19657968139651
 68
     1
 69
     1
1001
ACAD
1000
MVIEW
1002
{
1070
    16
1010
0.0
1020
0.0
1030
0.0
1010
0.0
1020
0.0
1030
1.0
1040
0.0
1040
222.19657968139651
1040
145.33033752441401
1040
101.8328354358673
1040
50.0
1040
0.0
1040
0.0
1070
     0
1070
     0
1070
     1
1070
     1
1070
     0
1070
     0
1070
     0
1070
     0
1040
0.0
1040
0.0
1040
0.0
1040
10.0
1040
10.0
1040
10.0
1040
10.0
1070
     0
1002
{
1002
}
1002
}
  0
VIEWPORT
  5
F6BA9
 67
     1
  8
OBJECT
 10
145.3303314447403
 20
101.8328338861465
 30
0.0
 40
232.5285303115844
 41
162.93253421783439
 68
     2
 69
     2
1001
ACAD
1000
MVIEW
1002
{
1070
    16
1010
0.0
1020
0.0
1030
0.0
1010
0.0
1020
0.0
1030
1.0
1040
0.0
1040
25942.55904403147
1040
2377.604457077377
1040
-7591.5176687056619
1040
50.0
1040
0.0
1040
0.0
1070
     0
1070
   600
1070
     1
1070
     1
1070
     0
1070
     0
1070
     0
1070
     0
1040
0.0
1040
0.0
1040
0.0
1040
1.0
1040
1.0
1040
0.0
1040
0.0
1070
     0
1002
{
1002
}
1002
}
  0
ENDSEC
  0
EOF
