  0
SECTION
  2
HEADER
  9
$ACADVER
  1
AC1009
  9
$INSBASE
 10
0.0
 20
0.0
 30
0.0
  9
$EXTMIN
 10
0.0
 20
-1497.3333333333309838
 30
0.0
  9
$EXTMAX
 10
4399.6999999999943611
 20
470.0000000000001137
 30
0.0
  9
$LIMMIN
 10
0.0
 20
0.0
  9
$LIMMAX
 10
210.0
 20
297.0
  9
$ORTHOMODE
 70
     0
  9
$REGENMODE
 70
     1
  9
$FILLMODE
 70
     1
  9
$QTEXTMODE
 70
     0
  9
$MIRRTEXT
 70
     0
  9
$DRAGMODE
 70
     2
  9
$LTSCALE
 40
1.0
  9
$OSMODE
 70
   295
  9
$ATTMODE
 70
     1
  9
$TEXTSIZE
 40
4.0
  9
$TRACEWID
 40
0.05
  9
$TEXTSTYLE
  7
STANDARD
  9
$CLAYER
  8
OBJECT
  9
$CELTYPE
  6
BYLAYER
  9
$CECOLOR
 62
   256
  9
$DIMSCALE
 40
10.0
  9
$DIMASZ
 40
2.0
  9
$DIMEXO
 40
1.0
  9
$DIMDLI
 40
10.0
  9
$DIMRND
 40
0.0
  9
$DIMDLE
 40
0.0
  9
$DIMEXE
 40
1.0
  9
$DIMTP
 40
0.0
  9
$DIMTM
 40
0.0
  9
$DIMTXT
 40
3.2000000000000002
  9
$DIMCEN
 40
0.0
  9
$DIMTSZ
 40
0.0
  9
$DIMTOL
 70
     0
  9
$DIMLIM
 70
     0
  9
$DIMTIH
 70
     0
  9
$DIMTOH
 70
     0
  9
$DIMSE1
 70
     0
  9
$DIMSE2
 70
     0
  9
$DIMTAD
 70
     1
  9
$DIMZIN
 70
     8
  9
$DIMBLK
  1
OPEN30
  9
$DIMASO
 70
     1
  9
$DIMSHO
 70
     1
  9
$DIMPOST
  1

  9
$DIMAPOST
  1

  9
$DIMALT
 70
     0
  9
$DIMALTD
 70
     2
  9
$DIMALTF
 40
25.3999999999999986
  9
$DIMLFAC
 40
1.0
  9
$DIMTOFL
 70
     1
  9
$DIMTVP
 40
0.0
  9
$DIMTIX
 70
     0
  9
$DIMSOXD
 70
     0
  9
$DIMSAH
 70
     0
  9
$DIMBLK1
  1

  9
$DIMBLK2
  1

  9
$DIMSTYLE
  2
S10
  9
$DIMCLRD
 70
   256
  9
$DIMCLRE
 70
   256
  9
$DIMCLRT
 70
   256
  9
$DIMTFAC
 40
1.0
  9
$DIMGAP
 40
0.9
  9
$LUNITS
 70
     2
  9
$LUPREC
 70
     2
  9
$SKETCHINC
 40
0.1
  9
$FILLETRAD
 40
0.0
  9
$AUNITS
 70
     0
  9
$AUPREC
 70
     2
  9
$MENU
  1
ACAD
  9
$ELEVATION
 40
0.0
  9
$PELEVATION
 40
0.0
  9
$THICKNESS
 40
0.0
  9
$LIMCHECK
 70
     0
  9
$BLIPMODE
 70
     0
  9
$CHAMFERA
 40
2.0
  9
$CHAMFERB
 40
2.0
  9
$SKPOLY
 70
     0
  9
$TDCREATE
 40
2453095.4929398149251938
  9
$TDUPDATE
 40
2459942.6215625000186265
  9
$TDINDWG
 40
18.4280805902999987
  9
$TDUSRTIMER
 40
18.4280800462999999
  9
$USRTIMER
 70
     1
  9
$ANGBASE
 50
0.0
  9
$ANGDIR
 70
     0
  9
$PDMODE
 70
    35
  9
$PDSIZE
 40
2.0
  9
$PLINEWID
 40
0.0
  9
$COORDS
 70
     1
  9
$SPLFRAME
 70
     0
  9
$SPLINETYPE
 70
     6
  9
$SPLINESEGS
 70
     8
  9
$ATTDIA
 70
     1
  9
$ATTREQ
 70
     1
  9
$HANDLING
 70
     1
  9
$HANDSEED
  5
1238C6
  9
$SURFTAB1
 70
     6
  9
$SURFTAB2
 70
     6
  9
$SURFTYPE
 70
     6
  9
$SURFU
 70
     6
  9
$SURFV
 70
     6
  9
$UCSNAME
  2

  9
$UCSORG
 10
0.0
 20
0.0
 30
0.0
  9
$UCSXDIR
 10
1.0
 20
0.0
 30
0.0
  9
$UCSYDIR
 10
0.0
 20
1.0
 30
0.0
  9
$PUCSNAME
  2

  9
$PUCSORG
 10
0.0
 20
0.0
 30
0.0
  9
$PUCSXDIR
 10
1.0
 20
0.0
 30
0.0
  9
$PUCSYDIR
 10
0.0
 20
1.0
 30
0.0
  9
$USERI1
 70
     0
  9
$USERI2
 70
     0
  9
$USERI3
 70
     0
  9
$USERI4
 70
     0
  9
$USERI5
 70
     0
  9
$USERR1
 40
0.0
  9
$USERR2
 40
0.0
  9
$USERR3
 40
0.0
  9
$USERR4
 40
0.0
  9
$USERR5
 40
0.0
  9
$WORLDVIEW
 70
     1
  9
$SHADEDGE
 70
     3
  9
$SHADEDIF
 70
    70
  9
$TILEMODE
 70
     1
  9
$MAXACTVP
 70
    64
  9
$PLIMCHECK
 70
     0
  9
$PEXTMIN
 10
29.0660662889480506
 20
20.3665667772293091
 30
0.0
  9
$PEXTMAX
 10
261.5945966005324976
 20
183.2991009950638102
 30
0.0
  9
$PLIMMIN
 10
-3.17498779296875
 20
-3.1749999523162842
  9
$PLIMMAX
 10
293.835662841796875
 20
206.8406708240509033
  9
$UNITMODE
 70
     0
  9
$VISRETAIN
 70
     1
  9
$PLINEGEN
 70
     0
  9
$PSLTSCALE
 70
     1
  0
ENDSEC
  0
SECTION
  2
TABLES
  0
TABLE
  2
VPORT
 70
     1
  0
VPORT
  2
*ACTIVE
 70
     0
 10
0.0
 20
0.0
 11
1.0
 21
1.0
 12
2972.4909278654090485
 22
-314.9707730265823216
 13
0.0
 23
0.0
 14
1.0
 24
1.0
 15
0.0
 25
0.0
 16
0.0
 26
0.0
 36
1.0
 17
0.0
 27
0.0
 37
0.0
 40
4564.2235570168231789
 41
2.1135135135135128
 42
50.0
 43
0.0
 44
0.0
 50
0.0
 51
0.0
 71
     0
 72
   600
 73
     1
 74
     1
 75
     0
 76
     0
 77
     0
 78
     0
  0
ENDTAB
  0
TABLE
  2
LTYPE
 70
     5
  0
LTYPE
  2
CONTINUOUS
 70
     0
  3
Solid line
 72
    65
 73
     0
 40
0.0
  0
LTYPE
  2
ACAD_ISO08W100
 70
     0
  3
ISO long-dash short-dash ____ __ ____ __ ____ _
 72
    65
 73
     4
 40
36.0
 49
24.0
 49
-3.0
 49
6.0
 49
-3.0
  0
LTYPE
  2
ACAD_ISO02W100
 70
     0
  3
ISO dash __ __ __ __ __ __ __ __ __ __ __ __ __
 72
    65
 73
     2
 40
15.0
 49
12.0
 49
-3.0
  0
ENDTAB
  0
TABLE
  2
LAYER
 70
    11
  0
LAYER
  2
0
 70
     0
 62
     7
  6
CONTINUOUS
  0
LAYER
  2
DEFPOINTS
 70
     0
 62
     7
  6
CONTINUOUS
  0
LAYER
  2
OBJECT
 70
     0
 62
     4
  6
CONTINUOUS
  0
LAYER
  2
HIDDEN
 70
     0
 62
     2
  6
ACAD_ISO02W100
  0
LAYER
  2
CENTER
 70
     0
 62
     2
  6
ACAD_ISO08W100
  0
LAYER
  2
DOTS
 70
     0
 62
     1
  6
CONTINUOUS
  0
LAYER
  2
SLIM
 70
     0
 62
     2
  6
CONTINUOUS
  0
ENDTAB
  0
TABLE
  2
STYLE
 70
     4
  0
STYLE
  2
STANDARD
 70
     0
 40
0.0
 41
0.75
 50
0.0
 71
     0
 42
4.0
  3
simplex.shx
  4
bigfont.shx
  0
ENDTAB
  0
TABLE
  2
VIEW
 70
     1
  0
ENDTAB
  0
TABLE
  2
UCS
 70
     0
  0
ENDTAB
  0
TABLE
  2
APPID
 70
    18
  0
APPID
  2
ACAD
 70
     0
  0
APPID
  2
ACAD_PSEXT
 70
     0
  0
APPID
  2
ACAD_EXEMPT_FROM_CAD_STANDARDS
 70
     0
  0
APPID
  2
ACAECLAYERSTANDARD
 70
     0
  0
APPID
  2
ACAUTHENVIRON
 70
     0
  0
APPID
  2
ACDBDYNAMICBLOCKTRUENAME
 70
     0
  0
APPID
  2
ACDBDYNAMICBLOCKGUID
 70
     0
  0
APPID
  2
ACDBBLOCKREPETAG
 70
     0
  0
APPID
  2
ACDBBLOCKREPBTAG
 70
     0
  0
APPID
  2
ACAD_NAV_VCDISPLAY
 70
     0
  0
APPID
  2
ACAD_DSTYLE_DIMRADIAL_EXTENSION
 70
     0
  0
APPID
  2
ACAD_DSTYLE_DIMJAG
 70
     0
  0
APPID
  2
ACAD_DSTYLE_DIMTALN
 70
     0
  0
APPID
  2
ACADANNOTATIVE
 70
     0
  0
APPID
  2
ACADANNOPO
 70
     0
  0
APPID
  2
GRADIENTCOLOR1ACI
 70
     0
  0
APPID
  2
GRADIENTCOLOR2ACI
 70
     0
  0
APPID
  2
ACAD_MLEADERVER
 70
     0
  0
ENDTAB
  0
TABLE
  2
DIMSTYLE
 70
     3
  0
DIMSTYLE
  2
STANDARD
 70
     0
  3

  4

  5

  6

  7

 40
1.0
 41
0.18
 42
0.0625
 43
0.38
 44
0.18
 45
0.0
 46
0.0
 47
0.0
 48
0.0
140
0.18
141
0.09
142
0.0
143
25.3999999999999986
144
1.0
145
0.0
146
1.0
147
0.09
 71
     0
 72
     0
 73
     1
 74
     1
 75
     0
 76
     0
 77
     0
 78
     0
170
     0
171
     2
172
     0
173
     0
174
     0
175
     0
176
     0
177
     0
178
     0
  0
DIMSTYLE
  2
S10
 70
     0
  3

  4

  5
OPEN30
  6

  7

 40
10.0
 41
2.0
 42
1.0
 43
10.0
 44
1.0
 45
0.0
 46
0.0
 47
0.0
 48
0.0
140
3.2000000000000002
141
0.0
142
0.0
143
25.3999999999999986
144
1.0
145
0.0
146
1.0
147
0.9
 71
     0
 72
     0
 73
     0
 74
     0
 75
     0
 76
     0
 77
     1
 78
     8
170
     0
171
     2
172
     1
173
     0
174
     0
175
     0
176
   256
177
   256
178
   256
  0
ENDTAB
  0
ENDSEC
  0
SECTION
  2
BLOCKS
  0
BLOCK
  8
0
  2
$MODEL_SPACE
 70
     0
 10
0.0
 20
0.0
 30
0.0
  3
$MODEL_SPACE
  1

  0
ENDBLK
  5
20
  8
0
  0
BLOCK
 67
     1
  8
0
  2
$PAPER_SPACE
 70
     0
 10
0.0
 20
0.0
 30
0.0
  3
$PAPER_SPACE
  1

  0
ENDBLK
  5
F6BA3
 67
     1
  8
0
  0
BLOCK
  8
0
  2
_OPEN30
 70
     0
 10
0.0
 20
0.0
 30
0.0
  3
_OPEN30
  1

  0
LINE
  5
202
  8
0
  6
BYBLOCK
 62
     0
 10
-1.0
 20
0.26794919
 30
0.0
 11
0.0
 21
0.0
 31
0.0
  0
LINE
  5
203
  8
0
  6
BYBLOCK
 62
     0
 10
0.0
 20
0.0
 30
0.0
 11
-1.0
 21
-0.26794919
 31
0.0
  0
LINE
  5
204
  8
0
  6
BYBLOCK
 62
     0
 10
0.0
 20
0.0
 30
0.0
 11
-1.0
 21
0.0
 31
0.0
  0
ENDBLK
  5
206
  8
0
  0
ENDSEC
  0
SECTION
  2
ENTITIES
  0
TEXT
  5
123790
  8
SLIM
 10
0.0
 20
370.0
 30
0.0
 40
100.0
  1
4SSL-0-S
 41
0.75
  0
TEXT
  5
123791
  8
SLIM
 10
1856.25
 20
-1247.4999999999979536
 30
0.0
 40
35.0
  1
片受けスタイル（S）
 41
0.75
  0
TEXT
  5
123792
  8
SLIM
 10
3741.625
 20
-1247.4999999999970441
 30
0.0
 40
35.0
  1
片受けスタイル（S）＋シンドカット
 41
0.75
  0
TEXT
  5
123793
  8
SLIM
 10
3840.0
 20
-1305.4245559579881046
 30
0.0
 40
28.0
  1
※ 最大対応スラブ厚　220
 41
0.75
  0
TEXT
  5
123794
  8
SLIM
 10
3598.9000000000000909
 20
-1398.7578892913209074
 30
0.0
 40
28.0
  1
国土交通大臣認定・（一財）日本消防設備安全センター性能評定取得品
 41
0.75
  0
TEXT
  5
123795
  8
SLIM
 10
3631.1000000000008185
 20
-1445.4245559579881046
 30
0.0
 40
28.0
  1
注）ご採用にあたり、認定書及び評定書の内容をご確認ください。
 41
0.75
  0
LINE
  5
123796
  8
CENTER
 10
2101.0
 20
-199.9999999999990905
 30
0.0
 11
2080.0
 21
-199.9999999999990905
 31
0.0
1001
ACDBBLOCKREPETAG
1070
     1
1071
        0
1005
123796
  0
LINE
  5
123797
  8
OBJECT
 10
2083.0
 20
-137.9999999999990905
 30
0.0
 11
2080.0
 21
-137.9999999999990905
 31
0.0
1001
ACDBBLOCKREPETAG
1070
     1
1071
        1
1005
123797
  0
ARC
  5
123798
  8
OBJECT
 10
2083.0
 20
-140.9999999999990905
 30
0.0
 40
3.0
 50
0.0
 51
90.0
1001
ACDBBLOCKREPETAG
1070
     1
1071
        2
1005
123798
  0
LINE
  5
123799
  8
OBJECT
 10
2080.0
 20
-261.9999999999990905
 30
0.0
 11
2083.0
 21
-261.9999999999990905
 31
0.0
1001
ACDBBLOCKREPETAG
1070
     1
1071
        3
1005
123799
  0
ARC
  5
12379A
  8
OBJECT
 10
2083.0
 20
-258.9999999999990905
 30
0.0
 40
3.0
 50
270.0
 51
0.0
1001
ACDBBLOCKREPETAG
1070
     1
1071
        4
1005
12379A
  0
LINE
  5
12379B
  8
OBJECT
 10
2086.0
 20
-258.9999999999990905
 30
0.0
 11
2086.0
 21
-140.9999999999990905
 31
0.0
1001
ACDBBLOCKREPETAG
1070
     1
1071
        5
1005
12379B
  0
LINE
  5
12379C
  8
OBJECT
 10
2083.0
 20
-534.0
 30
0.0
 11
2080.0
 21
-534.0
 31
0.0
1001
ACDBBLOCKREPETAG
1070
     1
1071
        1
1005
12379C
  0
ARC
  5
12379D
  8
OBJECT
 10
2083.0
 20
-537.0
 30
0.0
 40
3.0
 50
0.0
 51
90.0
1001
ACDBBLOCKREPETAG
1070
     1
1071
        2
1005
12379D
  0
LINE
  5
12379E
  8
OBJECT
 10
2080.0
 20
-658.0
 30
0.0
 11
2083.0
 21
-658.0
 31
0.0
1001
ACDBBLOCKREPETAG
1070
     1
1071
        3
1005
12379E
  0
ARC
  5
12379F
  8
OBJECT
 10
2083.0
 20
-655.0
 30
0.0
 40
3.0
 50
270.0
 51
0.0
1001
ACDBBLOCKREPETAG
1070
     1
1071
        4
1005
12379F
  0
LINE
  5
1237A0
  8
OBJECT
 10
2086.0
 20
-655.0
 30
0.0
 11
2086.0
 21
-537.0
 31
0.0
1001
ACDBBLOCKREPETAG
1070
     1
1071
        5
1005
1237A0
  0
LINE
  5
1237A1
  8
OBJECT
 10
1943.0
 20
-979.9999999999959073
 30
0.0
 11
2057.0
 21
-979.9999999999959073
 31
0.0
1001
ACDBBLOCKREPETAG
1070
     1
1071
        0
1005
1237A1
  0
LINE
  5
1237A2
  8
OBJECT
 10
1943.0
 20
-979.9999999999959073
 30
0.0
 11
1943.0
 21
-879.9999999999959073
 31
0.0
1001
ACDBBLOCKREPETAG
1070
     1
1071
        1
1005
1237A2
  0
LINE
  5
1237A3
  8
OBJECT
 10
2057.0
 20
-979.9999999999959073
 30
0.0
 11
2057.0
 21
-879.9999999999959073
 31
0.0
1001
ACDBBLOCKREPETAG
1070
     1
1071
        2
1005
1237A3
  0
LINE
  5
1237A4
  8
OBJECT
 10
1943.0
 20
-879.9999999999959073
 30
0.0
 11
2057.0
 21
-879.9999999999959073
 31
0.0
1001
ACDBBLOCKREPETAG
1070
     1
1071
        3
1005
1237A4
  0
LINE
  5
1237A5
  8
HIDDEN
 10
1950.0
 20
-879.9999999999959073
 30
0.0
 11
1950.0
 21
-979.9999999999959073
 31
0.0
1001
ACDBBLOCKREPETAG
1070
     1
1071
        4
1005
1237A5
  0
LINE
  5
1237A6
  8
HIDDEN
 10
2050.0
 20
-879.9999999999959073
 30
0.0
 11
2050.0
 21
-979.9999999999959073
 31
0.0
1001
ACDBBLOCKREPETAG
1070
     1
1071
        5
1005
1237A6
  0
LINE
  5
1237A7
  8
CENTER
 10
2000.0
 20
-669.9999999999995453
 30
0.0
 11
2000.0
 21
-994.9999999999957936
 31
0.0
1001
ACDBBLOCKREPETAG
1070
     1
1071
        6
1005
1237A7
  0
LINE
  5
1237A8
  8
OBJECT
 10
1925.0
 20
-669.9999999999995453
 30
0.0
 11
1925.0
 21
-751.9999999999959073
 31
0.0
1001
ACDBBLOCKREPETAG
1070
     1
1071
        7
1005
1237A8
  0
LINE
  5
1237A9
  8
OBJECT
 10
2075.0
 20
-669.9999999999995453
 30
0.0
 11
2075.0
 21
-751.9999999999959073
 31
0.0
1001
ACDBBLOCKREPETAG
1070
     1
1071
        8
1005
1237A9
  0
LINE
  5
1237AA
  8
OBJECT
 10
1925.0
 20
-751.9999999999959073
 30
0.0
 11
2075.0
 21
-751.9999999999959073
 31
0.0
1001
ACDBBLOCKREPETAG
1070
     1
1071
        9
1005
1237AA
  0
LINE
  5
1237AB
  8
OBJECT
 10
1925.0
 20
-751.9999999999959073
 30
0.0
 11
1943.0
 21
-879.9999999999959073
 31
0.0
1001
ACDBBLOCKREPETAG
1070
     1
1071
       10
1005
1237AB
  0
LINE
  5
1237AC
  8
OBJECT
 10
2057.0
 20
-879.9999999999959073
 30
0.0
 11
2075.0
 21
-751.9999999999959073
 31
0.0
1001
ACDBBLOCKREPETAG
1070
     1
1071
       11
1005
1237AC
  0
LINE
  5
1237AD
  8
OBJECT
 10
3943.0
 20
-979.9999999999954525
 30
0.0
 11
4057.0
 21
-979.9999999999954525
 31
0.0
1001
ACDBBLOCKREPETAG
1070
     1
1071
        0
1005
1237AD
  0
LINE
  5
1237AE
  8
OBJECT
 10
3943.0
 20
-979.9999999999954525
 30
0.0
 11
3943.0
 21
-879.9999999999954525
 31
0.0
1001
ACDBBLOCKREPETAG
1070
     1
1071
        1
1005
1237AE
  0
LINE
  5
1237AF
  8
OBJECT
 10
4057.0
 20
-979.9999999999954525
 30
0.0
 11
4057.0
 21
-879.9999999999954525
 31
0.0
1001
ACDBBLOCKREPETAG
1070
     1
1071
        2
1005
1237AF
  0
LINE
  5
1237B0
  8
OBJECT
 10
3943.0
 20
-879.9999999999954525
 30
0.0
 11
4057.0
 21
-879.9999999999954525
 31
0.0
1001
ACDBBLOCKREPETAG
1070
     1
1071
        3
1005
1237B0
  0
LINE
  5
1237B1
  8
HIDDEN
 10
3950.0
 20
-879.9999999999954525
 30
0.0
 11
3950.0
 21
-979.9999999999954525
 31
0.0
1001
ACDBBLOCKREPETAG
1070
     1
1071
        4
1005
1237B1
  0
LINE
  5
1237B2
  8
HIDDEN
 10
4050.0
 20
-879.9999999999954525
 30
0.0
 11
4050.0
 21
-979.9999999999954525
 31
0.0
1001
ACDBBLOCKREPETAG
1070
     1
1071
        5
1005
1237B2
  0
LINE
  5
1237B3
  8
CENTER
 10
4000.0
 20
-669.9999999999990905
 30
0.0
 11
4000.0
 21
-994.9999999999954525
 31
0.0
1001
ACDBBLOCKREPETAG
1070
     1
1071
        6
1005
1237B3
  0
LINE
  5
1237B4
  8
OBJECT
 10
3925.0
 20
-669.9999999999990905
 30
0.0
 11
3925.0
 21
-751.9999999999954525
 31
0.0
1001
ACDBBLOCKREPETAG
1070
     1
1071
        7
1005
1237B4
  0
LINE
  5
1237B5
  8
OBJECT
 10
4075.0
 20
-669.9999999999990905
 30
0.0
 11
4075.0
 21
-751.9999999999954525
 31
0.0
1001
ACDBBLOCKREPETAG
1070
     1
1071
        8
1005
1237B5
  0
LINE
  5
1237B6
  8
OBJECT
 10
3925.0
 20
-751.9999999999954525
 30
0.0
 11
4075.0
 21
-751.9999999999954525
 31
0.0
1001
ACDBBLOCKREPETAG
1070
     1
1071
        9
1005
1237B6
  0
LINE
  5
1237B7
  8
OBJECT
 10
3925.0
 20
-751.9999999999954525
 30
0.0
 11
3943.0
 21
-879.9999999999954525
 31
0.0
1001
ACDBBLOCKREPETAG
1070
     1
1071
       10
1005
1237B7
  0
LINE
  5
1237B8
  8
OBJECT
 10
4057.0
 20
-879.9999999999954525
 30
0.0
 11
4075.0
 21
-751.9999999999954525
 31
0.0
1001
ACDBBLOCKREPETAG
1070
     1
1071
       11
1005
1237B8
  0
CIRCLE
  5
1237B9
  8
OBJECT
 10
2000.0
 20
-199.9999999999990905
 30
0.0
 40
75.0
1001
ACDBBLOCKREPETAG
1070
     1
1071
      363
1005
1237B9
  0
CIRCLE
  5
1237BA
  8
OBJECT
 10
2000.0
 20
-199.9999999999990905
 30
0.0
 40
52.5
1001
ACDBBLOCKREPETAG
1070
     1
1071
      364
1005
1237BA
  0
CIRCLE
  5
1237BB
  8
OBJECT
 10
2000.0
 20
-199.9999999999990905
 30
0.0
 40
57.0
1001
ACDBBLOCKREPETAG
1070
     1
1071
      365
1005
1237BB
  0
LINE
  5
1237BC
  8
OBJECT
 10
1969.8635289348580955
 20
-242.9888719523997906
 30
0.0
 11
1979.8564918232370928
 21
-222.4868825335680071
 31
0.0
1001
ACDBBLOCKREPETAG
1070
     1
1071
      381
1005
1237BC
  0
LINE
  5
1237BD
  8
OBJECT
 10
1965.749966039157016
 20
-239.7892595266741012
 30
0.0
 11
1973.9071022665079909
 21
-223.0537300443075139
 31
0.0
1001
ACDBBLOCKREPETAG
1070
     1
1071
      382
1005
1237BD
  0
LINE
  5
1237BE
  8
OBJECT
 10
2024.1029330933019992
 20
-243.8069471237168102
 30
0.0
 11
2020.6596569999969688
 21
-232.5546219999988011
 31
0.0
1001
ACDBBLOCKREPETAG
1070
     1
1071
      383
1005
1237BE
  0
ARC
  5
1237BF
  8
OBJECT
 10
1976.579695307314978
 20
-207.1289369828436975
 30
0.0
 40
60.0311132460326107
 50
316.4174422677544953
 51
322.3393610609127791
1001
ACDBBLOCKREPETAG
1070
     1
1071
      384
1005
1237BF
  0
LINE
  5
1237C0
  8
OBJECT
 10
1986.7927499013749184
 20
-218.2255337420801879
 30
0.0
 11
2020.6596569999969688
 21
-232.5546219999968969
 31
0.0
1001
ACDBBLOCKREPETAG
1070
     1
1071
      385
1005
1237C0
  0
ARC
  5
1237C1
  8
OBJECT
 10
1982.896169761901092
 20
-227.4351299990566986
 30
0.0
 40
10.0
 50
67.0667782929233738
 51
154.0147343702934961
1001
ACDBBLOCKREPETAG
1070
     1
1071
      386
1005
1237C1
  0
ARC
  5
1237C2
  8
OBJECT
 10
1986.1488390381271074
 20
-225.5538625672915884
 30
0.0
 40
7.0
 50
67.0667782929233738
 51
154.0147337749712051
1001
ACDBBLOCKREPETAG
1070
     1
1071
      387
1005
1237C2
  0
LINE
  5
1237C3
  8
CENTER
 10
2080.0
 20
-199.9999999999990905
 30
0.0
 11
1905.0
 21
-199.9999999999990905
 31
0.0
1001
ACDBBLOCKREPETAG
1070
     1
1071
       14
1005
1237C3
  0
LINE
  5
1237C4
  8
CENTER
 10
2000.0
 20
-294.9999999999990905
 30
0.0
 11
2000.0
 21
-104.9999999999991047
 31
0.0
1001
ACDBBLOCKREPETAG
1070
     1
1071
       15
1005
1237C4
  0
ARC
  5
1237C5
  8
OBJECT
 10
2000.0
 20
-199.9999999999990905
 30
0.0
 40
80.0
 50
50.8050325738641888
 51
309.1949674261358041
1001
ACDBBLOCKREPETAG
1070
     1
1071
       18
1005
1237C5
  0
LINE
  5
1237C6
  8
OBJECT
 10
2042.2018956920180699
 20
-137.9999999999990905
 30
0.0
 11
2080.0
 21
-137.9999999999990905
 31
0.0
1001
ACDBBLOCKREPETAG
1070
     1
1071
       19
1005
1237C6
  0
LINE
  5
1237C7
  8
OBJECT
 10
2042.2018956920180699
 20
-261.9999999999990905
 30
0.0
 11
2080.0
 21
-261.9999999999990905
 31
0.0
1001
ACDBBLOCKREPETAG
1070
     1
1071
       20
1005
1237C7
  0
POINT
  5
1237C8
  8
DOTS
 10
2000.0
 20
-199.9999999999990905
 30
0.0
1001
ACDBBLOCKREPETAG
1070
     1
1071
      417
1005
1237C8
  0
ARC
  5
1237C9
  8
OBJECT
 10
2000.0
 20
-199.9999999999990905
 30
0.0
 40
50.0
 50
298.8199430000042867
 51
228.5237695596246112
1001
ACDBBLOCKREPETAG
1070
     1
1071
      421
1005
1237C9
  0
LINE
  5
1237CA
  8
CENTER
 10
4101.0
 20
-199.9999999999984936
 30
0.0
 11
4080.0
 21
-199.9999999999984936
 31
0.0
1001
ACDBBLOCKREPETAG
1070
     1
1071
        0
1005
1237CA
  0
LINE
  5
1237CB
  8
OBJECT
 10
4083.0
 20
-137.9999999999986073
 30
0.0
 11
4080.0
 21
-137.9999999999986073
 31
0.0
1001
ACDBBLOCKREPETAG
1070
     1
1071
        1
1005
1237CB
  0
ARC
  5
1237CC
  8
OBJECT
 10
4083.0
 20
-140.9999999999984936
 30
0.0
 40
3.0
 50
0.0
 51
90.0
1001
ACDBBLOCKREPETAG
1070
     1
1071
        2
1005
1237CC
  0
LINE
  5
1237CD
  8
OBJECT
 10
4080.0
 20
-261.9999999999985789
 30
0.0
 11
4083.0
 21
-261.9999999999985789
 31
0.0
1001
ACDBBLOCKREPETAG
1070
     1
1071
        3
1005
1237CD
  0
ARC
  5
1237CE
  8
OBJECT
 10
4083.0
 20
-258.9999999999985789
 30
0.0
 40
3.0
 50
270.0
 51
0.0
1001
ACDBBLOCKREPETAG
1070
     1
1071
        4
1005
1237CE
  0
LINE
  5
1237CF
  8
OBJECT
 10
4086.0
 20
-258.9999999999985789
 30
0.0
 11
4086.0
 21
-140.9999999999984936
 31
0.0
1001
ACDBBLOCKREPETAG
1070
     1
1071
        5
1005
1237CF
  0
LINE
  5
1237D0
  8
OBJECT
 10
4083.0
 20
-533.9999999999995453
 30
0.0
 11
4080.0
 21
-533.9999999999995453
 31
0.0
1001
ACDBBLOCKREPETAG
1070
     1
1071
        1
1005
1237D0
  0
ARC
  5
1237D1
  8
OBJECT
 10
4083.0
 20
-536.9999999999995453
 30
0.0
 40
3.0
 50
0.0
 51
90.0
1001
ACDBBLOCKREPETAG
1070
     1
1071
        2
1005
1237D1
  0
LINE
  5
1237D2
  8
OBJECT
 10
4080.0
 20
-657.9999999999995453
 30
0.0
 11
4083.0
 21
-657.9999999999995453
 31
0.0
1001
ACDBBLOCKREPETAG
1070
     1
1071
        3
1005
1237D2
  0
ARC
  5
1237D3
  8
OBJECT
 10
4083.0
 20
-654.9999999999995453
 30
0.0
 40
3.0
 50
270.0
 51
0.0
1001
ACDBBLOCKREPETAG
1070
     1
1071
        4
1005
1237D3
  0
LINE
  5
1237D4
  8
OBJECT
 10
4086.0
 20
-654.9999999999995453
 30
0.0
 11
4086.0
 21
-536.9999999999995453
 31
0.0
1001
ACDBBLOCKREPETAG
1070
     1
1071
        5
1005
1237D4
  0
LINE
  5
1237D5
  8
SLIM
  6
CONTINUOUS
 10
3927.3018300565231584
 20
-155.9548403695764023
 30
0.0
 11
3955.9548403695780507
 21
-127.3018300565216947
 31
0.0
1001
GRADIENTCOLOR1ACI
1070
     5
1001
GRADIENTCOLOR2ACI
1070
     2
1001
ACAD
1010
0.0
1020
0.0
1030
0.0
1001
ACDBBLOCKREPETAG
1070
     1
1071
      438
1005
1237D5
  0
LINE
  5
1237D6
  8
SLIM
  6
CONTINUOUS
 10
3919.4861520708368516
 20
-172.7507744763314008
 30
0.0
 11
3972.7507744763329356
 21
-119.4861520708358995
 31
0.0
1001
GRADIENTCOLOR1ACI
1070
     5
1001
GRADIENTCOLOR2ACI
1070
     2
1001
ACAD
1010
0.0
1020
0.0
1030
0.0
1001
ACDBBLOCKREPETAG
1070
     1
1071
      489
1005
1237D6
  0
LINE
  5
1237D7
  8
SLIM
  6
CONTINUOUS
 10
3916.3596679933780251
 20
-184.8575146748599991
 30
0.0
 11
3931.295674671947836
 21
-169.9215079962901882
 31
0.0
1001
GRADIENTCOLOR1ACI
1070
     5
1001
GRADIENTCOLOR2ACI
1070
     2
1001
ACAD
1010
0.0
1020
0.0
1030
0.0
1001
ACDBBLOCKREPETAG
1070
     1
1071
      490
1005
1237D7
  0
LINE
  5
1237D8
  8
SLIM
  6
CONTINUOUS
 10
3969.9215079962918935
 20
-131.2956746719461876
 30
0.0
 11
3984.8575146748621592
 21
-116.3596679933765046
 31
0.0
1001
GRADIENTCOLOR1ACI
1070
     5
1001
GRADIENTCOLOR2ACI
1070
     2
1001
ACAD
1010
0.0
1020
0.0
1030
0.0
1001
ACDBBLOCKREPETAG
1070
     1
1071
      491
1005
1237D8
  0
LINE
  5
1237D9
  8
SLIM
  6
CONTINUOUS
 10
3915.1440575890528635
 20
-195.0533812002545062
 30
0.0
 11
3926.8786024565551998
 21
-183.3188363327521131
 31
0.0
1001
GRADIENTCOLOR1ACI
1070
     5
1001
GRADIENTCOLOR2ACI
1070
     2
1001
ACAD
1010
0.0
1020
0.0
1030
0.0
1001
ACDBBLOCKREPETAG
1070
     1
1071
      492
1005
1237D9
  0
LINE
  5
1237DA
  8
SLIM
  6
CONTINUOUS
 10
3983.3188363327540173
 20
-126.8786024565534944
 30
0.0
 11
3995.0533812002558989
 21
-115.1440575890511013
 31
0.0
1001
GRADIENTCOLOR1ACI
1070
     5
1001
GRADIENTCOLOR2ACI
1070
     2
1001
ACAD
1010
0.0
1020
0.0
1030
0.0
1001
ACDBBLOCKREPETAG
1070
     1
1071
      436
1005
1237DA
  0
LINE
  5
1237DB
  8
SLIM
  6
CONTINUOUS
 10
3915.0979635574740314
 20
-204.0797313529029111
 30
0.0
 11
3919.1776949103768857
 21
-199.9999999999984936
 31
0.0
1001
GRADIENTCOLOR1ACI
1070
     5
1001
GRADIENTCOLOR2ACI
1070
     2
1001
ACAD
1010
0.0
1020
0.0
1030
0.0
1001
ACDBBLOCKREPETAG
1070
     1
1071
      439
1005
1237DB
  0
LINE
  5
1237DC
  8
SLIM
  6
CONTINUOUS
 10
4000.0
 20
-119.1776949103761041
 30
0.0
 11
4004.0797313529042185
 21
-115.0979635574718998
 31
0.0
1001
GRADIENTCOLOR1ACI
1070
     5
1001
GRADIENTCOLOR2ACI
1070
     2
1001
ACAD
1010
0.0
1020
0.0
1030
0.0
1001
ACDBBLOCKREPETAG
1070
     1
1071
      440
1005
1237DC
  0
LINE
  5
1237DD
  8
SLIM
  6
CONTINUOUS
 10
3919.1776949103768857
 20
-199.9999999999984936
 30
0.0
 11
3925.2458896617768005
 21
-193.9318052485982093
 31
0.0
1001
GRADIENTCOLOR1ACI
1070
     5
1001
GRADIENTCOLOR2ACI
1070
     2
1001
ACAD
1010
0.0
1020
0.0
1030
0.0
1001
ACDBBLOCKREPETAG
1070
     1
1071
      441
1005
1237DD
  0
LINE
  5
1237DE
  8
SLIM
  6
CONTINUOUS
 10
3993.9318052486000852
 20
-125.2458896617765021
 30
0.0
 11
4000.0
 21
-119.1776949103761041
 31
0.0
1001
GRADIENTCOLOR1ACI
1070
     5
1001
GRADIENTCOLOR2ACI
1070
     2
1001
ACAD
1010
0.0
1020
0.0
1030
0.0
1001
ACDBBLOCKREPETAG
1070
     1
1071
      442
1005
1237DE
  0
LINE
  5
1237DF
  8
SLIM
  6
CONTINUOUS
 10
3915.889972620872868
 20
-212.2679784105733916
 30
0.0
 11
3925.0638502435940609
 21
-203.0941007878519997
 31
0.0
1001
GRADIENTCOLOR1ACI
1070
     5
1001
GRADIENTCOLOR2ACI
1070
     2
1001
ACAD
1010
0.0
1020
0.0
1030
0.0
1001
ACDBBLOCKREPETAG
1070
     1
1071
      443
1005
1237DF
  0
LINE
  5
1237E0
  8
SLIM
  6
CONTINUOUS
 10
4003.0941007878532218
 20
-125.0638502435919008
 30
0.0
 11
4012.2679784105748695
 21
-115.8899726208704948
 31
0.0
1001
GRADIENTCOLOR1ACI
1070
     5
1001
GRADIENTCOLOR2ACI
1070
     2
1001
ACAD
1010
0.0
1020
0.0
1030
0.0
1001
ACDBBLOCKREPETAG
1070
     1
1071
      444
1005
1237E0
  0
LINE
  5
1237E1
  8
SLIM
  6
CONTINUOUS
 10
3917.3382656951539502
 20
-219.7999414573608874
 30
0.0
 11
3925.8537813838638613
 21
-211.284425768650209
 31
0.0
1001
GRADIENTCOLOR1ACI
1070
     5
1001
GRADIENTCOLOR2ACI
1070
     2
1001
ACAD
1010
0.0
1020
0.0
1030
0.0
1001
ACDBBLOCKREPETAG
1070
     1
1071
      445
1005
1237E1
  0
LINE
  5
1237E2
  8
SLIM
  6
CONTINUOUS
 10
4011.2844257686519995
 20
-125.8537813838627955
 30
0.0
 11
4019.7999414573619106
 21
-117.3382656951521028
 31
0.0
1001
GRADIENTCOLOR1ACI
1070
     5
1001
GRADIENTCOLOR2ACI
1070
     2
1001
ACAD
1010
0.0
1020
0.0
1030
0.0
1001
ACDBBLOCKREPETAG
1070
     1
1071
      446
1005
1237E2
  0
LINE
  5
1237E3
  8
SLIM
  6
CONTINUOUS
 10
3919.3312594063049801
 20
-226.7872038672782935
 30
0.0
 11
3927.3788748080642108
 21
-218.7395884655200007
 31
0.0
1001
GRADIENTCOLOR1ACI
1070
     5
1001
GRADIENTCOLOR2ACI
1070
     2
1001
ACAD
1010
0.0
1020
0.0
1030
0.0
1001
ACDBBLOCKREPETAG
1070
     1
1071
      447
1005
1237E3
  0
LINE
  5
1237E4
  8
SLIM
  6
CONTINUOUS
 10
4018.7395884655211376
 20
-127.3788748080622071
 30
0.0
 11
4026.7872038672799135
 21
-119.3312594063039001
 31
0.0
1001
GRADIENTCOLOR1ACI
1070
     5
1001
GRADIENTCOLOR2ACI
1070
     2
1001
ACAD
1010
0.0
1020
0.0
1030
0.0
1001
ACDBBLOCKREPETAG
1070
     1
1071
      448
1005
1237E4
  0
LINE
  5
1237E5
  8
SLIM
  6
CONTINUOUS
 10
3921.7957163186210892
 20
-233.3030030760324109
 30
0.0
 11
3929.5028327676941444
 21
-225.5958866269592988
 31
0.0
1001
GRADIENTCOLOR1ACI
1070
     5
1001
GRADIENTCOLOR2ACI
1070
     2
1001
ACAD
1010
0.0
1020
0.0
1030
0.0
1001
ACDBBLOCKREPETAG
1070
     1
1071
      449
1005
1237E5
  0
LINE
  5
1237E6
  8
SLIM
  6
CONTINUOUS
 10
4025.5958866269611462
 20
-129.5028327676920981
 30
0.0
 11
4033.3030030760342015
 21
-121.7957163186190002
 31
0.0
1001
GRADIENTCOLOR1ACI
1070
     5
1001
GRADIENTCOLOR2ACI
1070
     2
1001
ACAD
1010
0.0
1020
0.0
1030
0.0
1001
ACDBBLOCKREPETAG
1070
     1
1071
      450
1005
1237E6
  0
LINE
  5
1237E7
  8
SLIM
  6
CONTINUOUS
 10
3924.6816635313448387
 20
-239.3973119843770974
 30
0.0
 11
3932.1403895696180371
 21
-231.938585946104098
 31
0.0
1001
GRADIENTCOLOR1ACI
1070
     5
1001
GRADIENTCOLOR2ACI
1070
     2
1001
ACAD
1010
0.0
1020
0.0
1030
0.0
1001
ACDBBLOCKREPETAG
1070
     1
1071
      451
1005
1237E7
  0
LINE
  5
1237E8
  8
SLIM
  6
CONTINUOUS
 10
4031.9385859461058317
 20
-132.1403895696163886
 30
0.0
 11
4039.3973119843781205
 21
-124.6816635313434034
 31
0.0
1001
GRADIENTCOLOR1ACI
1070
     5
1001
GRADIENTCOLOR2ACI
1070
     2
1001
ACAD
1010
0.0
1020
0.0
1030
0.0
1001
ACDBBLOCKREPETAG
1070
     1
1071
      452
1005
1237E8
  0
LINE
  5
1237E9
  8
SLIM
  6
CONTINUOUS
 10
3927.9544611024248297
 20
-245.1047705343663949
 30
0.0
 11
3935.2358661991688678
 21
-237.8233654376223001
 31
0.0
1001
GRADIENTCOLOR1ACI
1070
     5
1001
GRADIENTCOLOR2ACI
1070
     2
1001
ACAD
1010
0.0
1020
0.0
1030
0.0
1001
ACDBBLOCKREPETAG
1070
     1
1071
      453
1005
1237E9
  0
LINE
  5
1237EA
  8
SLIM
  6
CONTINUOUS
 10
4037.8233654376231243
 20
-135.2358661991673046
 30
0.0
 11
4045.1047705343680718
 21
-127.954461102423295
 31
0.0
1001
GRADIENTCOLOR1ACI
1070
     5
1001
GRADIENTCOLOR2ACI
1070
     2
1001
ACAD
1010
0.0
1020
0.0
1030
0.0
1001
ACDBBLOCKREPETAG
1070
     1
1071
      454
1005
1237EA
  0
LINE
  5
1237EB
  8
SLIM
  6
CONTINUOUS
 10
3931.5903319686658506
 20
-250.4491557891948901
 30
0.0
 11
3938.7525935835487871
 21
-243.2868941743109872
 31
0.0
1001
GRADIENTCOLOR1ACI
1070
     5
1001
GRADIENTCOLOR2ACI
1070
     2
1001
ACAD
1010
0.0
1020
0.0
1030
0.0
1001
ACDBBLOCKREPETAG
1070
     1
1071
      455
1005
1237EB
  0
LINE
  5
1237EC
  8
SLIM
  6
CONTINUOUS
 10
4044.0394877578619344
 20
-137.9999999999986073
 30
0.0
 11
4050.4491557891960838
 21
-131.5903319686640032
 31
0.0
1001
GRADIENTCOLOR1ACI
1070
     5
1001
GRADIENTCOLOR2ACI
1070
     2
1001
ACAD
1010
0.0
1020
0.0
1030
0.0
1001
ACDBBLOCKREPETAG
1070
     1
1071
      456
1005
1237EC
  0
LINE
  5
1237ED
  8
SLIM
  6
CONTINUOUS
 10
3935.5737496925257801
 20
-255.4459941864029133
 30
0.0
 11
3942.6672873130492007
 21
-248.3524565658806011
 31
0.0
1001
GRADIENTCOLOR1ACI
1070
     5
1001
GRADIENTCOLOR2ACI
1070
     2
1001
ACAD
1010
0.0
1020
0.0
1030
0.0
1001
ACDBBLOCKREPETAG
1070
     1
1071
      457
1005
1237ED
  0
LINE
  5
1237EE
  8
SLIM
  6
CONTINUOUS
 10
4053.0197438789300577
 20
-137.9999999999986073
 30
0.0
 11
4055.4459941864038228
 21
-135.573749692525098
 31
0.0
1001
GRADIENTCOLOR1ACI
1070
     5
1001
GRADIENTCOLOR2ACI
1070
     2
1001
ACAD
1010
0.0
1020
0.0
1030
0.0
1001
ACDBBLOCKREPETAG
1070
     1
1071
      458
1005
1237EE
  0
LINE
  5
1237EF
  8
SLIM
  6
CONTINUOUS
 10
3939.8959235991442256
 20
-260.1040764008550923
 30
0.0
 11
3946.9669914110090758
 21
-253.033008588989702
 31
0.0
1001
GRADIENTCOLOR1ACI
1070
     5
1001
GRADIENTCOLOR2ACI
1070
     2
1001
ACAD
1010
0.0
1020
0.0
1030
0.0
1001
ACDBBLOCKREPETAG
1070
     1
1071
      459
1005
1237EF
  0
LINE
  5
1237F0
  8
SLIM
  6
CONTINUOUS
 10
3944.5540058135961772
 20
-264.426250307472003
 30
0.0
 11
3951.6475434341177788
 21
-257.3327126869497761
 31
0.0
1001
GRADIENTCOLOR1ACI
1070
     5
1001
GRADIENTCOLOR2ACI
1070
     2
1001
ACAD
1010
0.0
1020
0.0
1030
0.0
1001
ACDBBLOCKREPETAG
1070
     1
1071
      460
1005
1237F0
  0
LINE
  5
1237F1
  8
SLIM
  6
CONTINUOUS
 10
3949.5508442108039162
 20
-268.4096680313331831
 30
0.0
 11
3956.713105825688217
 21
-261.2474064164492802
 31
0.0
1001
GRADIENTCOLOR1ACI
1070
     5
1001
GRADIENTCOLOR2ACI
1070
     2
1001
ACAD
1010
0.0
1020
0.0
1030
0.0
1001
ACDBBLOCKREPETAG
1070
     1
1071
      461
1005
1237F1
  0
LINE
  5
1237F2
  8
SLIM
  6
CONTINUOUS
 10
3954.8952294656328377
 20
-272.045538897573806
 30
0.0
 11
3962.1766345623759662
 21
-264.7641338008298248
 31
0.0
1001
GRADIENTCOLOR1ACI
1070
     5
1001
GRADIENTCOLOR2ACI
1070
     2
1001
ACAD
1010
0.0
1020
0.0
1030
0.0
1001
ACDBBLOCKREPETAG
1070
     1
1071
      462
1005
1237F2
  0
LINE
  5
1237F3
  8
SLIM
  6
CONTINUOUS
 10
3960.60268801562097
 20
-275.3183364686536834
 30
0.0
 11
3968.0614140538950778
 21
-267.8596104303807124
 31
0.0
1001
GRADIENTCOLOR1ACI
1070
     5
1001
GRADIENTCOLOR2ACI
1070
     2
1001
ACAD
1010
0.0
1020
0.0
1030
0.0
1001
ACDBBLOCKREPETAG
1070
     1
1071
      463
1005
1237F3
  0
LINE
  5
1237F4
  8
SLIM
  6
CONTINUOUS
 10
3966.6969969239671627
 20
-278.204283681378115
 30
0.0
 11
3974.4041133730388538
 21
-270.4971672323050029
 31
0.0
1001
GRADIENTCOLOR1ACI
1070
     5
1001
GRADIENTCOLOR2ACI
1070
     2
1001
ACAD
1010
0.0
1020
0.0
1030
0.0
1001
ACDBBLOCKREPETAG
1070
     1
1071
      464
1005
1237F4
  0
LINE
  5
1237F5
  8
SLIM
  6
CONTINUOUS
 10
3973.212796132720996
 20
-280.6687405936932009
 30
0.0
 11
3981.260411534477953
 21
-272.6211251919349934
 31
0.0
1001
GRADIENTCOLOR1ACI
1070
     5
1001
GRADIENTCOLOR2ACI
1070
     2
1001
ACAD
1010
0.0
1020
0.0
1030
0.0
1001
ACDBBLOCKREPETAG
1070
     1
1071
      465
1005
1237F5
  0
LINE
  5
1237F6
  8
SLIM
  6
CONTINUOUS
 10
3980.2000585426380894
 20
-282.6617343048450266
 30
0.0
 11
3988.71557423134891
 21
-274.1462186161343197
 31
0.0
1001
GRADIENTCOLOR1ACI
1070
     5
1001
GRADIENTCOLOR2ACI
1070
     2
1001
ACAD
1010
0.0
1020
0.0
1030
0.0
1001
ACDBBLOCKREPETAG
1070
     1
1071
      466
1005
1237F6
  0
LINE
  5
1237F7
  8
SLIM
  6
CONTINUOUS
 10
3987.7320215894251305
 20
-284.1100273791266204
 30
0.0
 11
3996.9058992121467782
 21
-274.9361497564053138
 31
0.0
1001
GRADIENTCOLOR1ACI
1070
     5
1001
GRADIENTCOLOR2ACI
1070
     2
1001
ACAD
1010
0.0
1020
0.0
1030
0.0
1001
ACDBBLOCKREPETAG
1070
     1
1071
      467
1005
1237F7
  0
LINE
  5
1237F8
  8
SLIM
  6
CONTINUOUS
 10
3995.9202686470957815
 20
-284.9020364425252865
 30
0.0
 11
4000.0
 21
-280.8223050896208974
 31
0.0
1001
GRADIENTCOLOR1ACI
1070
     5
1001
GRADIENTCOLOR2ACI
1070
     2
1001
ACAD
1010
0.0
1020
0.0
1030
0.0
1001
ACDBBLOCKREPETAG
1070
     1
1071
      468
1005
1237F8
  0
LINE
  5
1237F9
  8
SLIM
  6
CONTINUOUS
 10
4000.0
 20
-280.8223050896208974
 30
0.0
 11
4006.0681947513999148
 21
-274.7541103382205847
 31
0.0
1001
GRADIENTCOLOR1ACI
1070
     5
1001
GRADIENTCOLOR2ACI
1070
     2
1001
ACAD
1010
0.0
1020
0.0
1030
0.0
1001
ACDBBLOCKREPETAG
1070
     1
1071
      469
1005
1237F9
  0
LINE
  5
1237FA
  8
SLIM
  6
CONTINUOUS
 10
4004.9466187997441011
 20
-284.855942410945886
 30
0.0
 11
4016.6811636672459827
 21
-273.1213975434437202
 31
0.0
1001
GRADIENTCOLOR1ACI
1070
     5
1001
GRADIENTCOLOR2ACI
1070
     2
1001
ACAD
1010
0.0
1020
0.0
1030
0.0
1001
ACDBBLOCKREPETAG
1070
     1
1071
      470
1005
1237FA
  0
LINE
  5
1237FB
  8
SLIM
  6
CONTINUOUS
 10
4015.1424853251392051
 20
-283.6403320066206106
 30
0.0
 11
4030.078492003709016
 21
-268.7043253280509134
 31
0.0
1001
GRADIENTCOLOR1ACI
1070
     5
1001
GRADIENTCOLOR2ACI
1070
     2
1001
ACAD
1010
0.0
1020
0.0
1030
0.0
1001
ACDBBLOCKREPETAG
1070
     1
1071
      471
1005
1237FB
  0
LINE
  5
1237FC
  8
SLIM
  6
CONTINUOUS
 10
4027.2492255236670644
 20
-280.5138479291612157
 30
0.0
 11
4045.7630734528302128
 21
-261.9999999999985789
 31
0.0
1001
GRADIENTCOLOR1ACI
1070
     5
1001
GRADIENTCOLOR2ACI
1070
     2
1001
ACAD
1010
0.0
1020
0.0
1030
0.0
1001
ACDBBLOCKREPETAG
1070
     1
1071
      472
1005
1237FC
  0
LINE
  5
1237FD
  8
SLIM
  6
CONTINUOUS
 10
4044.0451596304219493
 20
-272.6981699434753068
 30
0.0
 11
4054.7433295738987908
 21
-261.9999999999985789
 31
0.0
1001
GRADIENTCOLOR1ACI
1070
     5
1001
GRADIENTCOLOR2ACI
1070
     2
1001
ACAD
1010
0.0
1020
0.0
1030
0.0
1001
ACDBBLOCKREPETAG
1070
     1
1071
      473
1005
1237FD
  0
LINE
  5
1237FE
  8
CENTER
 10
4080.0
 20
-199.9999999999984936
 30
0.0
 11
3900.0
 21
-199.9999999999984936
 31
0.0
1001
ACDBBLOCKREPETAG
1070
     1
1071
      187
1005
1237FE
  0
LINE
  5
1237FF
  8
CENTER
 10
4000.0
 20
-299.9999999999985789
 30
0.0
 11
4000.0
 21
-99.9999999999985647
 31
0.0
1001
ACDBBLOCKREPETAG
1070
     1
1071
      188
1005
1237FF
  0
LINE
  5
123800
  8
OBJECT
 10
4042.2018956920178425
 20
-137.9999999999986073
 30
0.0
 11
4080.0
 21
-137.9999999999986073
 31
0.0
1001
ACDBBLOCKREPETAG
1070
     1
1071
      192
1005
123800
  0
LINE
  5
123801
  8
OBJECT
 10
4042.2018956920178425
 20
-261.9999999999985789
 30
0.0
 11
4080.0
 21
-261.9999999999985789
 31
0.0
1001
ACDBBLOCKREPETAG
1070
     1
1071
      193
1005
123801
  0
ARC
  5
123802
  8
OBJECT
 10
4000.0
 20
-199.9999999999984936
 30
0.0
 40
85.0
 50
46.8371028598341468
 51
313.1628971401659101
1001
ACDBBLOCKREPETAG
1070
     1
1071
      202
1005
123802
  0
LINE
  5
123803
  8
SLIM
  6
CONTINUOUS
 10
4044.4999969103878357
 20
-137.5394908474719955
 30
0.0
 11
4050.4491557891969933
 21
-131.5903319686638895
 31
0.0
1001
GRADIENTCOLOR1ACI
1070
     5
1001
GRADIENTCOLOR2ACI
1070
     2
1001
ACAD
1010
0.0
1020
0.0
1030
0.0
1001
ACDBBLOCKREPETAG
1070
     1
1071
      489
1005
123803
  0
LINE
  5
123804
  8
SLIM
  6
CONTINUOUS
 10
4053.0197438789300577
 20
-137.9999999999986073
 30
0.0
 11
4055.4459941864038228
 21
-135.573749692525098
 31
0.0
1001
GRADIENTCOLOR1ACI
1070
     5
1001
GRADIENTCOLOR2ACI
1070
     2
1001
ACAD
1010
0.0
1020
0.0
1030
0.0
1001
ACDBBLOCKREPETAG
1070
     1
1071
      490
1005
123804
  0
CIRCLE
  5
123805
  8
OBJECT
 10
4000.0
 20
-199.9999999999984936
 30
0.0
 40
75.0
1001
ACDBBLOCKREPETAG
1070
     1
1071
      372
1005
123805
  0
CIRCLE
  5
123806
  8
OBJECT
 10
4000.0
 20
-199.9999999999984936
 30
0.0
 40
52.5
1001
ACDBBLOCKREPETAG
1070
     1
1071
      373
1005
123806
  0
CIRCLE
  5
123807
  8
OBJECT
 10
4000.0
 20
-199.9999999999984936
 30
0.0
 40
57.0
1001
ACDBBLOCKREPETAG
1070
     1
1071
      374
1005
123807
  0
LINE
  5
123808
  8
OBJECT
 10
3969.8635289348590049
 20
-242.9888719523993075
 30
0.0
 11
3979.8564918232368655
 21
-222.4868825335674103
 31
0.0
1001
ACDBBLOCKREPETAG
1070
     1
1071
      402
1005
123808
  0
LINE
  5
123809
  8
OBJECT
 10
3965.7499660391567886
 20
-239.7892595266735896
 30
0.0
 11
3973.9071022665089004
 21
-223.0537300443070023
 31
0.0
1001
ACDBBLOCKREPETAG
1070
     1
1071
      403
1005
123809
  0
LINE
  5
12380A
  8
OBJECT
 10
4024.1029330933019992
 20
-243.8069471237162986
 30
0.0
 11
4020.6596569999960593
 21
-232.5546219999982043
 31
0.0
1001
ACDBBLOCKREPETAG
1070
     1
1071
      404
1005
12380A
  0
ARC
  5
12380B
  8
OBJECT
 10
3976.579695307314978
 20
-207.1289369828431859
 30
0.0
 40
60.0311132460326107
 50
316.4174422677456278
 51
322.3393610609127791
1001
ACDBBLOCKREPETAG
1070
     1
1071
      405
1005
12380B
  0
LINE
  5
12380C
  8
OBJECT
 10
3986.7927499013749184
 20
-218.2255337420797048
 30
0.0
 11
4020.6596569999960593
 21
-232.5546219999964137
 31
0.0
1001
ACDBBLOCKREPETAG
1070
     1
1071
      406
1005
12380C
  0
ARC
  5
12380D
  8
OBJECT
 10
3982.8961697619020015
 20
-227.435129999056187
 30
0.0
 40
10.0
 50
67.0667782929113656
 51
154.0147343702934961
1001
ACDBBLOCKREPETAG
1070
     1
1071
      407
1005
12380D
  0
ARC
  5
12380E
  8
OBJECT
 10
3986.1488390381277895
 20
-225.5538625672911053
 30
0.0
 40
7.0
 50
67.0667782929113656
 51
154.0147337749712051
1001
ACDBBLOCKREPETAG
1070
     1
1071
      408
1005
12380E
  0
POINT
  5
12380F
  8
DOTS
 10
4000.0
 20
-199.9999999999984936
 30
0.0
1001
ACDBBLOCKREPETAG
1070
     1
1071
      413
1005
12380F
  0
ARC
  5
123810
  8
OBJECT
 10
4000.0
 20
-199.9999999999984936
 30
0.0
 40
50.0
 50
298.8199430000042867
 51
228.5237695596343883
1001
ACDBBLOCKREPETAG
1070
     1
1071
      430
1005
123810
  0
LINE
  5
123811
  8
CENTER
 10
2000.0
 20
-444.9999999999994884
 30
0.0
 11
2000.0
 21
-669.9999999999995453
 31
0.0
1001
ACDBBLOCKREPETAG
1070
     1
1071
        0
1005
123811
  0
LINE
  5
123812
  8
OBJECT
 10
1925.0
 20
-533.9999999999995453
 30
0.0
 11
1925.0
 21
-657.9999999999995453
 31
0.0
1001
ACDBBLOCKREPETAG
1070
     1
1071
        1
1005
123812
  0
LINE
  5
123813
  8
OBJECT
 10
1920.0
 20
-657.9999999999995453
 30
0.0
 11
2080.0
 21
-657.9999999999995453
 31
0.0
1001
ACDBBLOCKREPETAG
1070
     1
1071
        2
1005
123813
  0
LINE
  5
123814
  8
OBJECT
 10
2080.0
 20
-533.9999999999995453
 30
0.0
 11
1925.0
 21
-533.9999999999995453
 31
0.0
1001
ACDBBLOCKREPETAG
1070
     1
1071
        3
1005
123814
  0
LINE
  5
123815
  8
OBJECT
 10
1920.0
 20
-657.9999999999995453
 30
0.0
 11
1920.0
 21
-669.9999999999995453
 31
0.0
1001
ACDBBLOCKREPETAG
1070
     1
1071
        4
1005
123815
  0
LINE
  5
123816
  8
OBJECT
 10
1920.0
 20
-669.9999999999995453
 30
0.0
 11
2080.0
 21
-669.9999999999995453
 31
0.0
1001
ACDBBLOCKREPETAG
1070
     1
1071
        5
1005
123816
  0
LINE
  5
123817
  8
OBJECT
 10
2080.0
 20
-669.9999999999995453
 30
0.0
 11
2080.0
 21
-657.9999999999995453
 31
0.0
1001
ACDBBLOCKREPETAG
1070
     1
1071
        6
1005
123817
  0
POINT
  5
123818
  8
DOTS
 10
2080.0
 20
-595.9999999999995453
 30
0.0
1001
ACDBBLOCKREPETAG
1070
     1
1071
        7
1005
123818
  0
ARC
  5
123819
  8
OBJECT
 10
2200.6872746716730944
 20
-649.4080994101071838
 30
0.0
 40
170.6350503965855978
 50
137.4413445918430057
 51
149.9194958133655859
1001
ACDBBLOCKREPETAG
1070
     1
1071
       15
1005
123819
  0
ARC
  5
12381A
  8
OBJECT
 10
2118.845598704051099
 20
-605.8827266953644539
 30
0.0
 40
78.0722220217636647
 50
147.4551531038623011
 51
164.6636599771958061
1001
ACDBBLOCKREPETAG
1070
     1
1071
       16
1005
12381A
  0
ARC
  5
12381B
  8
OBJECT
 10
2085.7554349608731172
 20
-595.9999999999995453
 30
0.0
 40
43.5535392688561771
 50
165.6884523006802965
 51
194.3115476993197035
1001
ACDBBLOCKREPETAG
1070
     1
1071
       17
1005
12381B
  0
ARC
  5
12381C
  8
OBJECT
 10
2200.6872746716730944
 20
-542.5919005898917931
 30
0.0
 40
170.6350503965855978
 50
210.0805041866343004
 51
222.5586554081569943
1001
ACDBBLOCKREPETAG
1070
     1
1071
       18
1005
12381C
  0
ARC
  5
12381D
  8
OBJECT
 10
2118.845598704051099
 20
-586.1172733046346366
 30
0.0
 40
78.0722220217636647
 50
195.3363400228041939
 51
212.5448468961376989
1001
ACDBBLOCKREPETAG
1070
     1
1071
       19
1005
12381D
  0
LINE
  5
12381E
  8
OBJECT
 10
2060.0
 20
-527.9999999999995453
 30
0.0
 11
1940.0
 21
-527.9999999999995453
 31
0.0
1001
ACDBBLOCKREPETAG
1070
     1
1071
      136
1005
12381E
  0
ARC
  5
12381F
  8
OBJECT
 10
1940.0
 20
-530.9999999999995453
 30
0.0
 40
3.0
 50
90.0
 51
180.0
1001
ACDBBLOCKREPETAG
1070
     1
1071
      137
1005
12381F
  0
LINE
  5
123820
  8
OBJECT
 10
1937.0
 20
-530.9999999999995453
 30
0.0
 11
1937.0
 21
-533.9999999999995453
 31
0.0
1001
ACDBBLOCKREPETAG
1070
     1
1071
      138
1005
123820
  0
LINE
  5
123821
  8
OBJECT
 10
2063.0
 20
-530.9999999999995453
 30
0.0
 11
2063.0
 21
-533.9999999999995453
 31
0.0
1001
ACDBBLOCKREPETAG
1070
     1
1071
      139
1005
123821
  0
ARC
  5
123822
  8
OBJECT
 10
2060.0
 20
-530.9999999999995453
 30
0.0
 40
3.0
 50
0.0
 51
90.0
1001
ACDBBLOCKREPETAG
1070
     1
1071
      140
1005
123822
  0
LINE
  5
123823
  8
OBJECT
 10
1943.0
 20
-459.9999999999994884
 30
0.0
 11
1943.0
 21
-527.9999999999995453
 31
0.0
1001
ACDBBLOCKREPETAG
1070
     1
1071
      141
1005
123823
  0
LINE
  5
123824
  8
OBJECT
 10
2057.0
 20
-459.9999999999994884
 30
0.0
 11
1943.0
 21
-459.9999999999994884
 31
0.0
1001
ACDBBLOCKREPETAG
1070
     1
1071
      142
1005
123824
  0
LINE
  5
123825
  8
OBJECT
 10
2057.0
 20
-459.9999999999994884
 30
0.0
 11
2057.0
 21
-527.9999999999995453
 31
0.0
1001
ACDBBLOCKREPETAG
1070
     1
1071
      143
1005
123825
  0
LINE
  5
123826
  8
HIDDEN
 10
2052.5
 20
-459.9999999999994884
 30
0.0
 11
2052.5
 21
-533.9999999999995453
 31
0.0
1001
ACDBBLOCKREPETAG
1070
     1
1071
      180
1005
123826
  0
LINE
  5
123827
  8
HIDDEN
 10
1947.5
 20
-459.9999999999994884
 30
0.0
 11
1947.5
 21
-533.9999999999995453
 31
0.0
1001
ACDBBLOCKREPETAG
1070
     1
1071
      181
1005
123827
  0
LINE
  5
123828
  8
CENTER
 10
4000.0
 20
-444.9999999999994884
 30
0.0
 11
4000.0
 21
-669.9999999999995453
 31
0.0
1001
ACDBBLOCKREPETAG
1070
     1
1071
        0
1005
123828
  0
LINE
  5
123829
  8
OBJECT
 10
3925.0
 20
-533.9999999999995453
 30
0.0
 11
3925.0
 21
-657.9999999999995453
 31
0.0
1001
ACDBBLOCKREPETAG
1070
     1
1071
        1
1005
123829
  0
LINE
  5
12382A
  8
OBJECT
 10
3920.0
 20
-657.9999999999995453
 30
0.0
 11
4080.0
 21
-657.9999999999995453
 31
0.0
1001
ACDBBLOCKREPETAG
1070
     1
1071
        2
1005
12382A
  0
LINE
  5
12382B
  8
OBJECT
 10
4080.0
 20
-533.9999999999995453
 30
0.0
 11
3925.0
 21
-533.9999999999995453
 31
0.0
1001
ACDBBLOCKREPETAG
1070
     1
1071
        3
1005
12382B
  0
LINE
  5
12382C
  8
OBJECT
 10
3920.0
 20
-657.9999999999995453
 30
0.0
 11
3920.0
 21
-669.9999999999995453
 31
0.0
1001
ACDBBLOCKREPETAG
1070
     1
1071
        4
1005
12382C
  0
LINE
  5
12382D
  8
OBJECT
 10
3920.0
 20
-669.9999999999995453
 30
0.0
 11
4080.0
 21
-669.9999999999995453
 31
0.0
1001
ACDBBLOCKREPETAG
1070
     1
1071
        5
1005
12382D
  0
LINE
  5
12382E
  8
OBJECT
 10
4080.0
 20
-669.9999999999995453
 30
0.0
 11
4080.0
 21
-657.9999999999995453
 31
0.0
1001
ACDBBLOCKREPETAG
1070
     1
1071
        6
1005
12382E
  0
POINT
  5
12382F
  8
DOTS
 10
4080.0
 20
-595.9999999999995453
 30
0.0
1001
ACDBBLOCKREPETAG
1070
     1
1071
        7
1005
12382F
  0
ARC
  5
123830
  8
OBJECT
 10
4200.6872746716726397
 20
-649.4080994101071838
 30
0.0
 40
170.6350503965855978
 50
137.4413445918430057
 51
149.9194958133722082
1001
ACDBBLOCKREPETAG
1070
     1
1071
       15
1005
123830
  0
ARC
  5
123831
  8
OBJECT
 10
4118.8455987040506443
 20
-605.8827266953644539
 30
0.0
 40
78.0722220217636647
 50
147.4551531038623011
 51
164.6636599771923102
1001
ACDBBLOCKREPETAG
1070
     1
1071
       16
1005
123831
  0
ARC
  5
123832
  8
OBJECT
 10
4085.7554349608722077
 20
-595.9999999999995453
 30
0.0
 40
43.5535392688561771
 50
165.6884523006833945
 51
194.3115476993164918
1001
ACDBBLOCKREPETAG
1070
     1
1071
       17
1005
123832
  0
ARC
  5
123833
  8
OBJECT
 10
4200.6872746716726397
 20
-542.5919005898917931
 30
0.0
 40
170.6350503965855978
 50
210.0805041866277918
 51
222.5586554081569943
1001
ACDBBLOCKREPETAG
1070
     1
1071
       18
1005
123833
  0
ARC
  5
123834
  8
OBJECT
 10
4118.8455987040506443
 20
-586.1172733046346366
 30
0.0
 40
78.0722220217636647
 50
195.3363400228076046
 51
212.5448468961376989
1001
ACDBBLOCKREPETAG
1070
     1
1071
       19
1005
123834
  0
LINE
  5
123835
  8
OBJECT
 10
4060.0
 20
-527.9999999999995453
 30
0.0
 11
3940.0
 21
-527.9999999999995453
 31
0.0
1001
ACDBBLOCKREPETAG
1070
     1
1071
      136
1005
123835
  0
ARC
  5
123836
  8
OBJECT
 10
3940.0
 20
-530.9999999999995453
 30
0.0
 40
3.0
 50
90.0
 51
180.0
1001
ACDBBLOCKREPETAG
1070
     1
1071
      137
1005
123836
  0
LINE
  5
123837
  8
OBJECT
 10
3937.0
 20
-530.9999999999995453
 30
0.0
 11
3937.0
 21
-533.9999999999995453
 31
0.0
1001
ACDBBLOCKREPETAG
1070
     1
1071
      138
1005
123837
  0
LINE
  5
123838
  8
OBJECT
 10
4063.0
 20
-530.9999999999995453
 30
0.0
 11
4063.0
 21
-533.9999999999995453
 31
0.0
1001
ACDBBLOCKREPETAG
1070
     1
1071
      139
1005
123838
  0
ARC
  5
123839
  8
OBJECT
 10
4060.0
 20
-530.9999999999995453
 30
0.0
 40
3.0
 50
0.0
 51
90.0
1001
ACDBBLOCKREPETAG
1070
     1
1071
      140
1005
123839
  0
LINE
  5
12383A
  8
OBJECT
 10
3943.0
 20
-459.9999999999994884
 30
0.0
 11
3943.0
 21
-527.9999999999995453
 31
0.0
1001
ACDBBLOCKREPETAG
1070
     1
1071
      141
1005
12383A
  0
LINE
  5
12383B
  8
OBJECT
 10
4057.0
 20
-459.9999999999994884
 30
0.0
 11
3943.0
 21
-459.9999999999994884
 31
0.0
1001
ACDBBLOCKREPETAG
1070
     1
1071
      142
1005
12383B
  0
LINE
  5
12383C
  8
OBJECT
 10
4057.0
 20
-459.9999999999994884
 30
0.0
 11
4057.0
 21
-527.9999999999995453
 31
0.0
1001
ACDBBLOCKREPETAG
1070
     1
1071
      143
1005
12383C
  0
LINE
  5
12383D
  8
HIDDEN
 10
4052.5
 20
-459.9999999999994884
 30
0.0
 11
4052.5
 21
-533.9999999999995453
 31
0.0
1001
ACDBBLOCKREPETAG
1070
     1
1071
      180
1005
12383D
  0
LINE
  5
12383E
  8
HIDDEN
 10
3947.5
 20
-459.9999999999994884
 30
0.0
 11
3947.5
 21
-533.9999999999995453
 31
0.0
1001
ACDBBLOCKREPETAG
1070
     1
1071
      181
1005
12383E
  0
LINE
  5
12383F
  8
SLIM
 10
3914.9999999999940883
 20
-665.1974387893145604
 30
0.0
 11
3925.1974387893092171
 21
-654.9999999999995453
 31
0.0
1001
ACAD
1010
0.0
1020
0.0
1030
0.0
1001
ACDBBLOCKREPETAG
1070
     1
1071
       12
1005
12383F
  0
LINE
  5
123840
  8
SLIM
 10
3914.9999999999949978
 20
-683.1579510314513755
 30
0.0
 11
3943.157951031446828
 21
-654.9999999999995453
 31
0.0
1001
ACAD
1010
0.0
1020
0.0
1030
0.0
1001
ACDBBLOCKREPETAG
1070
     1
1071
       13
1005
123840
  0
LINE
  5
123841
  8
SLIM
 10
3914.9999999999968168
 20
-701.1184632735884179
 30
0.0
 11
3961.1184632735848936
 21
-654.9999999999995453
 31
0.0
1001
ACAD
1010
0.0
1020
0.0
1030
0.0
1001
ACDBBLOCKREPETAG
1070
     1
1071
       14
1005
123841
  0
LINE
  5
123842
  8
SLIM
 10
3914.9999999999968168
 20
-719.0789755157253467
 30
0.0
 11
3979.0789755157238687
 21
-654.9999999999995453
 31
0.0
1001
ACAD
1010
0.0
1020
0.0
1030
0.0
1001
ACDBBLOCKREPETAG
1070
     1
1071
       15
1005
123842
  0
LINE
  5
123843
  8
SLIM
 10
3914.9999999999990905
 20
-737.0394877578623891
 30
0.0
 11
3997.0394877578619344
 21
-654.9999999999995453
 31
0.0
1001
ACAD
1010
0.0
1020
0.0
1030
0.0
1001
ACDBBLOCKREPETAG
1070
     1
1071
       16
1005
123843
  0
LINE
  5
123844
  8
SLIM
 10
3915.2836007495579906
 20
-754.7163992504415546
 30
0.0
 11
4015.0
 21
-654.9999999999995453
 31
0.0
1001
ACAD
1010
0.0
1020
0.0
1030
0.0
1001
ACDBBLOCKREPETAG
1070
     1
1071
       17
1005
123844
  0
LINE
  5
123845
  8
SLIM
 10
3917.4979104780409216
 20
-770.4626017640969167
 30
0.0
 11
4032.9605122421380656
 21
-654.9999999999995453
 31
0.0
1001
ACAD
1010
0.0
1020
0.0
1030
0.0
1001
ACDBBLOCKREPETAG
1070
     1
1071
       18
1005
123845
  0
LINE
  5
123846
  8
SLIM
 10
3919.7122202065238525
 20
-786.2088042777520513
 30
0.0
 11
4050.9210244842770408
 21
-654.9999999999995453
 31
0.0
1001
ACAD
1010
0.0
1020
0.0
1030
0.0
1001
ACDBBLOCKREPETAG
1070
     1
1071
       19
1005
123846
  0
LINE
  5
123847
  8
SLIM
 10
3921.9265299350067835
 20
-801.9550067914074134
 30
0.0
 11
4068.8815367264151064
 21
-654.9999999999995453
 31
0.0
1001
ACAD
1010
0.0
1020
0.0
1030
0.0
1001
ACDBBLOCKREPETAG
1070
     1
1071
       20
1005
123847
  0
LINE
  5
123848
  8
SLIM
 10
3924.1408396634901692
 20
-817.7012093050625481
 30
0.0
 11
4085.0000000000068212
 21
-656.8420489685456687
 31
0.0
1001
ACAD
1010
0.0
1020
0.0
1030
0.0
1001
ACDBBLOCKREPETAG
1070
     1
1071
       21
1005
123848
  0
LINE
  5
123849
  8
SLIM
 10
3926.3551493919731001
 20
-833.4474118187179101
 30
0.0
 11
4085.0000000000059117
 21
-674.8025612106853259
 31
0.0
1001
ACAD
1010
0.0
1020
0.0
1030
0.0
1001
ACDBBLOCKREPETAG
1070
     1
1071
       22
1005
123849
  0
LINE
  5
12384A
  8
SLIM
 10
3928.5694591204560311
 20
-849.1936143323731585
 30
0.0
 11
4085.0000000000040927
 21
-692.7630734528247558
 31
0.0
1001
ACAD
1010
0.0
1020
0.0
1030
0.0
1001
ACDBBLOCKREPETAG
1070
     1
1071
       23
1005
12384A
  0
LINE
  5
12384B
  8
SLIM
 10
3930.783768848938962
 20
-864.9398168460285206
 30
0.0
 11
4085.0000000000031832
 21
-710.7235856949645267
 31
0.0
1001
ACAD
1010
0.0
1020
0.0
1030
0.0
1001
ACDBBLOCKREPETAG
1070
     1
1071
       24
1005
12384B
  0
LINE
  5
12384C
  8
SLIM
 10
3932.9980785774228025
 20
-880.6860193596837689
 30
0.0
 11
4085.0000000000009095
 21
-728.6840979371040703
 31
0.0
1001
ACAD
1010
0.0
1020
0.0
1030
0.0
1001
ACDBBLOCKREPETAG
1070
     1
1071
       25
1005
12384C
  0
LINE
  5
12384D
  8
SLIM
 10
3943.0
 20
-888.6446101792441823
 30
0.0
 11
3946.6446101792471381
 21
-884.99999999999784
 31
0.0
1001
ACAD
1010
0.0
1020
0.0
1030
0.0
1001
ACDBBLOCKREPETAG
1070
     1
1071
       26
1005
12384D
  0
LINE
  5
12384E
  8
SLIM
 10
3946.6446101792471381
 20
-884.99999999999784
 30
0.0
 11
4085.0
 21
-746.6446101792438412
 31
0.0
1001
ACAD
1010
0.0
1020
0.0
1030
0.0
1001
ACDBBLOCKREPETAG
1070
     1
1071
       27
1005
12384E
  0
LINE
  5
12384F
  8
SLIM
 10
3944.6051224213852038
 20
-904.9999999999977263
 30
0.0
 11
3964.6051224213852038
 21
-884.99999999999784
 31
0.0
1001
ACAD
1010
0.0
1020
0.0
1030
0.0
1001
ACDBBLOCKREPETAG
1070
     1
1071
       28
1005
12384F
  0
LINE
  5
123850
  8
SLIM
 10
3964.6051224213852038
 20
-884.99999999999784
 30
0.0
 11
4083.051837154365785
 21
-766.5532852670170314
 31
0.0
1001
ACAD
1010
0.0
1020
0.0
1030
0.0
1001
ACDBBLOCKREPETAG
1070
     1
1071
       29
1005
123850
  0
LINE
  5
123851
  8
SLIM
 10
3962.5656346635228147
 20
-904.9999999999977263
 30
0.0
 11
3982.5656346635241789
 21
-884.99999999999784
 31
0.0
1001
ACAD
1010
0.0
1020
0.0
1030
0.0
1001
ACDBBLOCKREPETAG
1070
     1
1071
       30
1005
123851
  0
LINE
  5
123852
  8
SLIM
 10
3982.5656346635241789
 20
-884.99999999999784
 30
0.0
 11
4080.112844242014944
 21
-787.4527904215050285
 31
0.0
1001
ACAD
1010
0.0
1020
0.0
1030
0.0
1001
ACDBBLOCKREPETAG
1070
     1
1071
       31
1005
123852
  0
LINE
  5
123853
  8
SLIM
 10
3980.5261469056617898
 20
-904.9999999999977263
 30
0.0
 11
4000.5261469056608803
 21
-884.99999999999784
 31
0.0
1001
ACAD
1010
0.0
1020
0.0
1030
0.0
1001
ACDBBLOCKREPETAG
1070
     1
1071
       32
1005
123853
  0
LINE
  5
123854
  8
SLIM
 10
4000.5261469056608803
 20
-884.99999999999784
 30
0.0
 11
4077.1738513296659221
 21
-808.3522955759931392
 31
0.0
1001
ACAD
1010
0.0
1020
0.0
1030
0.0
1001
ACDBBLOCKREPETAG
1070
     1
1071
       33
1005
123854
  0
LINE
  5
123855
  8
SLIM
 10
3998.4866591477998554
 20
-904.9999999999977263
 30
0.0
 11
4018.4866591477989459
 21
-884.99999999999784
 31
0.0
1001
ACAD
1010
0.0
1020
0.0
1030
0.0
1001
ACDBBLOCKREPETAG
1070
     1
1071
       34
1005
123855
  0
LINE
  5
123856
  8
SLIM
 10
4018.4866591477989459
 20
-884.99999999999784
 30
0.0
 11
4074.2348584173159907
 21
-829.25180073048125
 31
0.0
1001
ACAD
1010
0.0
1020
0.0
1030
0.0
1001
ACDBBLOCKREPETAG
1070
     1
1071
       35
1005
123856
  0
LINE
  5
123857
  8
SLIM
 10
4016.447171389937921
 20
-904.9999999999977263
 30
0.0
 11
4036.4471713899370116
 21
-884.99999999999784
 31
0.0
1001
ACAD
1010
0.0
1020
0.0
1030
0.0
1001
ACDBBLOCKREPETAG
1070
     1
1071
       36
1005
123857
  0
LINE
  5
123858
  8
SLIM
 10
4036.4471713899370116
 20
-884.99999999999784
 30
0.0
 11
4071.2958655049669687
 21
-850.151305884969247
 31
0.0
1001
ACAD
1010
0.0
1020
0.0
1030
0.0
1001
ACDBBLOCKREPETAG
1070
     1
1071
       37
1005
123858
  0
LINE
  5
123859
  8
SLIM
 10
4034.4076836320768962
 20
-904.9999999999977263
 30
0.0
 11
4054.4076836320759867
 21
-884.99999999999784
 31
0.0
1001
ACAD
1010
0.0
1020
0.0
1030
0.0
1001
ACDBBLOCKREPETAG
1070
     1
1071
       38
1005
123859
  0
LINE
  5
12385A
  8
SLIM
 10
4054.4076836320759867
 20
-884.99999999999784
 30
0.0
 11
4068.3568725926161278
 21
-871.0508110394573578
 31
0.0
1001
ACAD
1010
0.0
1020
0.0
1030
0.0
1001
ACDBBLOCKREPETAG
1070
     1
1071
       39
1005
12385A
  0
LINE
  5
12385B
  8
SLIM
 10
4052.3681958742149618
 20
-904.9999999999977263
 30
0.0
 11
4057.0
 21
-900.368195874212347
 31
0.0
1001
ACAD
1010
0.0
1020
0.0
1030
0.0
1001
ACDBBLOCKREPETAG
1070
     1
1071
       40
1005
12385B
  0
LINE
  5
12385C
  8
OBJECT
 10
3943.0
 20
-904.9999999999977263
 30
0.0
 11
4057.0
 21
-904.9999999999977263
 31
0.0
1001
ACDBBLOCKREPETAG
1070
     1
1071
        1
1005
12385C
  0
LINE
  5
12385D
  8
OBJECT
 10
3933.6047321049659331
 20
-884.99999999999784
 30
0.0
 11
4066.3952678950408881
 21
-884.99999999999784
 31
0.0
1001
ACDBBLOCKREPETAG
1070
     1
1071
        2
1005
12385D
  0
LINE
  5
12385E
  8
OBJECT
 10
3943.0
 20
-904.9999999999977263
 30
0.0
 11
3943.0
 21
-884.99999999999784
 31
0.0
1001
ACDBBLOCKREPETAG
1070
     1
1071
        3
1005
12385E
  0
LINE
  5
12385F
  8
OBJECT
 10
4057.0
 20
-904.9999999999977263
 30
0.0
 11
4057.0
 21
-884.99999999999784
 31
0.0
1001
ACDBBLOCKREPETAG
1070
     1
1071
        4
1005
12385F
  0
LINE
  5
123860
  8
OBJECT
 10
3914.9999999999931788
 20
-654.9999999999995453
 30
0.0
 11
3915.0
 21
-752.6996828091409952
 31
0.0
1001
ACDBBLOCKREPETAG
1070
     1
1071
        5
1005
123860
  0
LINE
  5
123861
  8
OBJECT
 10
4085.0000000000068212
 20
-654.9999999999995453
 30
0.0
 11
4085.0
 21
-752.6996828091719181
 31
0.0
1001
ACDBBLOCKREPETAG
1070
     1
1071
        6
1005
123861
  0
LINE
  5
123862
  8
OBJECT
 10
3915.0
 20
-752.6996828091409952
 30
0.0
 11
3933.6047321049659331
 21
-884.99999999999784
 31
0.0
1001
ACDBBLOCKREPETAG
1070
     1
1071
        7
1005
123862
  0
LINE
  5
123863
  8
OBJECT
 10
4066.3952678950408881
 20
-884.99999999999784
 30
0.0
 11
4085.0
 21
-752.6996828091719181
 31
0.0
1001
ACDBBLOCKREPETAG
1070
     1
1071
        8
1005
123863
  0
LINE
  5
123864
  8
OBJECT
 10
4085.0000000000068212
 20
-654.9999999999995453
 30
0.0
 11
3914.9999999999931788
 21
-654.9999999999995453
 31
0.0
1001
ACDBBLOCKREPETAG
1070
     1
1071
        9
1005
123864
  0
VIEWPORT
  5
F6BA7
 67
     1
  8
0
 10
163.002402778949488
 20
101.8328354358672954
 30
0.0
 40
369.3466324505333205
 41
222.1965796813965142
 68
     1
 69
     1
1001
ACAD
1000
MVIEW
1002
{
1070
    16
1010
0.0
1020
0.0
1030
0.0
1010
0.0
1020
0.0
1030
1.0
1040
0.0
1040
222.1965796813965142
1040
163.002402778949488
1040
101.8328354358672954
1040
50.0
1040
0.0
1040
0.0
1070
     0
1070
     0
1070
     1
1070
     1
1070
     0
1070
     0
1070
     0
1070
     0
1040
0.0
1040
0.0
1040
0.0
1040
10.0
1040
10.0
1040
10.0
1040
10.0
1070
     0
1002
{
1002
}
1002
}
  0
VIEWPORT
  5
F6BA9
 67
     1
  8
OBJECT
 10
145.3303314447402954
 20
101.8328338861465028
 30
0.0
 40
232.5285303115844897
 41
162.9325342178343874
 68
     2
 69
     2
1001
ACAD
1000
MVIEW
1002
{
1070
    16
1010
0.0
1020
0.0
1030
0.0
1010
0.0
1020
0.0
1030
1.0
1040
0.0
1040
25942.5590440314699663
1040
2377.6044570773769919
1040
-7591.5176687056618903
1040
50.0
1040
0.0
1040
0.0
1070
     0
1070
   600
1070
     1
1070
     1
1070
     0
1070
     0
1070
     0
1070
     0
1040
0.0
1040
0.0
1040
0.0
1040
1.0
1040
1.0
1040
0.0
1040
0.0
1070
     0
1002
{
1002
}
1002
}
  0
ENDSEC
  0
EOF
