  0
SECTION
  2
HEADER
  9
$ACADVER
  1
AC1009
  9
$INSBASE
 10
0.0
 20
0.0
 30
0.0
  9
$EXTMIN
 10
0.0
 20
-3882.4999999999968
 30
0.0
  9
$EXTMAX
 10
5575.0
 20
607.5
 30
0.0
  9
$LIMMIN
 10
0.0
 20
0.0
  9
$LIMMAX
 10
210.0
 20
297.0
  9
$ORTHOMODE
 70
     0
  9
$REGENMODE
 70
     1
  9
$FILLMODE
 70
     1
  9
$QTEXTMODE
 70
     0
  9
$MIRRTEXT
 70
     0
  9
$DRAGMODE
 70
     2
  9
$LTSCALE
 40
1.0
  9
$OSMODE
 70
   109
  9
$ATTMODE
 70
     1
  9
$TEXTSIZE
 40
4.0
  9
$TRACEWID
 40
0.05
  9
$TEXTSTYLE
  7
STANDARD
  9
$CLAYER
  8
OBJECT
  9
$CELTYPE
  6
BYLAYER
  9
$CECOLOR
 62
   256
  9
$DIMSCALE
 40
10.0
  9
$DIMASZ
 40
2.0
  9
$DIMEXO
 40
1.0
  9
$DIMDLI
 40
10.0
  9
$DIMRND
 40
0.0
  9
$DIMDLE
 40
0.0
  9
$DIMEXE
 40
1.0
  9
$DIMTP
 40
0.0
  9
$DIMTM
 40
0.0
  9
$DIMTXT
 40
3.2000000000000002
  9
$DIMCEN
 40
0.0
  9
$DIMTSZ
 40
0.0
  9
$DIMTOL
 70
     0
  9
$DIMLIM
 70
     0
  9
$DIMTIH
 70
     0
  9
$DIMTOH
 70
     0
  9
$DIMSE1
 70
     0
  9
$DIMSE2
 70
     0
  9
$DIMTAD
 70
     1
  9
$DIMZIN
 70
     8
  9
$DIMBLK
  1
OPEN30
  9
$DIMASO
 70
     1
  9
$DIMSHO
 70
     1
  9
$DIMPOST
  1

  9
$DIMAPOST
  1

  9
$DIMALT
 70
     0
  9
$DIMALTD
 70
     2
  9
$DIMALTF
 40
25.399999999999999
  9
$DIMLFAC
 40
1.0
  9
$DIMTOFL
 70
     1
  9
$DIMTVP
 40
0.0
  9
$DIMTIX
 70
     0
  9
$DIMSOXD
 70
     0
  9
$DIMSAH
 70
     0
  9
$DIMBLK1
  1

  9
$DIMBLK2
  1

  9
$DIMSTYLE
  2
S10
  9
$DIMCLRD
 70
   256
  9
$DIMCLRE
 70
   256
  9
$DIMCLRT
 70
   256
  9
$DIMTFAC
 40
1.0
  9
$DIMGAP
 40
0.9
  9
$LUNITS
 70
     2
  9
$LUPREC
 70
     2
  9
$SKETCHINC
 40
0.1
  9
$FILLETRAD
 40
0.0
  9
$AUNITS
 70
     0
  9
$AUPREC
 70
     2
  9
$MENU
  1
ACAD
  9
$ELEVATION
 40
0.0
  9
$PELEVATION
 40
0.0
  9
$THICKNESS
 40
0.0
  9
$LIMCHECK
 70
     0
  9
$BLIPMODE
 70
     0
  9
$CHAMFERA
 40
2.0
  9
$CHAMFERB
 40
2.0
  9
$SKPOLY
 70
     0
  9
$TDCREATE
 40
2453095.4929404748
  9
$TDUPDATE
 40
2457276.6084032641
  9
$TDINDWG
 40
18.3606493403
  9
$TDUSRTIMER
 40
18.3606484375
  9
$USRTIMER
 70
     1
  9
$ANGBASE
 50
0.0
  9
$ANGDIR
 70
     0
  9
$PDMODE
 70
    35
  9
$PDSIZE
 40
2.0
  9
$PLINEWID
 40
0.0
  9
$COORDS
 70
     1
  9
$SPLFRAME
 70
     0
  9
$SPLINETYPE
 70
     6
  9
$SPLINESEGS
 70
     8
  9
$ATTDIA
 70
     0
  9
$ATTREQ
 70
     1
  9
$HANDLING
 70
     1
  9
$HANDSEED
  5
12B423
  9
$SURFTAB1
 70
     6
  9
$SURFTAB2
 70
     6
  9
$SURFTYPE
 70
     6
  9
$SURFU
 70
     6
  9
$SURFV
 70
     6
  9
$UCSNAME
  2

  9
$UCSORG
 10
0.0
 20
0.0
 30
0.0
  9
$UCSXDIR
 10
1.0
 20
0.0
 30
0.0
  9
$UCSYDIR
 10
0.0
 20
1.0
 30
0.0
  9
$PUCSNAME
  2

  9
$PUCSORG
 10
0.0
 20
0.0
 30
0.0
  9
$PUCSXDIR
 10
1.0
 20
0.0
 30
0.0
  9
$PUCSYDIR
 10
0.0
 20
1.0
 30
0.0
  9
$USERI1
 70
     0
  9
$USERI2
 70
     0
  9
$USERI3
 70
     0
  9
$USERI4
 70
     0
  9
$USERI5
 70
     0
  9
$USERR1
 40
0.0
  9
$USERR2
 40
0.0
  9
$USERR3
 40
0.0
  9
$USERR4
 40
0.0
  9
$USERR5
 40
0.0
  9
$WORLDVIEW
 70
     1
  9
$SHADEDGE
 70
     3
  9
$SHADEDIF
 70
    70
  9
$TILEMODE
 70
     1
  9
$MAXACTVP
 70
    64
  9
$PLIMCHECK
 70
     0
  9
$PEXTMIN
 10
29.066066288948051
 20
20.366566777229309
 30
0.0
  9
$PEXTMAX
 10
261.5945966005325
 20
183.29910099506381
 30
0.0
  9
$PLIMMIN
 10
-3.17498779296875
 20
-3.1749999523162842
  9
$PLIMMAX
 10
293.83566284179687
 20
206.8406708240509
  9
$UNITMODE
 70
     0
  9
$VISRETAIN
 70
     1
  9
$PLINEGEN
 70
     0
  9
$PSLTSCALE
 70
     1
  0
ENDSEC
  0
SECTION
  2
TABLES
  0
TABLE
  2
VPORT
 70
     1
  0
VPORT
  2
*ACTIVE
 70
     0
 10
0.0
 20
0.0
 11
1.0
 21
1.0
 12
2554.1193149609421
 22
-982.83267287362105
 13
0.0
 23
0.0
 14
1.0
 24
1.0
 15
0.0
 25
0.0
 16
0.0
 26
0.0
 36
1.0
 17
0.0
 27
0.0
 37
0.0
 40
8703.3139447932554
 41
1.6494178525226391
 42
50.0
 43
0.0
 44
0.0
 50
0.0
 51
0.0
 71
     0
 72
   600
 73
     1
 74
     1
 75
     0
 76
     0
 77
     0
 78
     0
  0
ENDTAB
  0
TABLE
  2
LTYPE
 70
     4
  0
LTYPE
  2
CONTINUOUS
 70
     0
  3
Solid line
 72
    65
 73
     0
 40
0.0
  0
LTYPE
  2
PHANTOM2
 70
     0
  3
___ _ _ ___ _ _ ___ _ _ ___ _ _
 72
    65
 73
     6
 40
1.25
 49
0.625
 49
-0.125
 49
0.125
 49
-0.125
 49
0.125
 49
-0.125
  0
LTYPE
  2
ACAD_ISO08W100
 70
     0
  3
ISO long-dash short-dash ____ __ ____ __ ____ _
 72
    65
 73
     4
 40
36.0
 49
24.0
 49
-3.0
 49
6.0
 49
-3.0
  0
LTYPE
  2
ACAD_ISO02W100
 70
     0
  3
ISO dash __ __ __ __ __ __ __ __ __ __ __ __ __
 72
    65
 73
     2
 40
15.0
 49
12.0
 49
-3.0
  0
ENDTAB
  0
TABLE
  2
LAYER
 70
     8
  0
LAYER
  2
0
 70
     0
 62
     7
  6
CONTINUOUS
  0
LAYER
  2
OBJECT
 70
     0
 62
     4
  6
CONTINUOUS
  0
LAYER
  2
DEFPOINTS
 70
     0
 62
     7
  6
CONTINUOUS
  0
LAYER
  2
DIM
 70
     0
 62
     7
  6
CONTINUOUS
  0
LAYER
  2
HIDDEN
 70
     0
 62
     2
  6
ACAD_ISO02W100
  0
LAYER
  2
CENTER
 70
     0
 62
     2
  6
ACAD_ISO08W100
  0
LAYER
  2
DOTS
 70
     0
 62
     1
  6
CONTINUOUS
  0
LAYER
  2
SLIM
 70
     0
 62
     2
  6
CONTINUOUS
  0
ENDTAB
  0
TABLE
  2
STYLE
 70
     2
  0
STYLE
  2
STANDARD
 70
     0
 40
0.0
 41
0.75
 50
0.0
 71
     0
 42
4.0
  3
simplex.shx
  4
bigfont.shx
  0
ENDTAB
  0
TABLE
  2
VIEW
 70
     0
  0
ENDTAB
  0
TABLE
  2
UCS
 70
     0
  0
ENDTAB
  0
TABLE
  2
APPID
 70
    18
  0
APPID
  2
ACAD
 70
     0
  0
APPID
  2
ACADANNOTATIVE
 70
     0
  0
APPID
  2
ACAD_PSEXT
 70
     0
  0
APPID
  2
ACAD_EXEMPT_FROM_CAD_STANDARDS
 70
     0
  0
APPID
  2
ACAECLAYERSTANDARD
 70
     0
  0
APPID
  2
ACAUTHENVIRON
 70
     0
  0
APPID
  2
ACDBDYNAMICBLOCKTRUENAME
 70
     0
  0
APPID
  2
ACDBDYNAMICBLOCKGUID
 70
     0
  0
APPID
  2
ACDBBLOCKREPETAG
 70
     0
  0
APPID
  2
ACDBBLOCKREPBTAG
 70
     0
  0
APPID
  2
ACAD_NAV_VCDISPLAY
 70
     0
  0
APPID
  2
ACAD_DSTYLE_DIMRADIAL_EXTENSION
 70
     0
  0
APPID
  2
ACAD_DSTYLE_DIMJAG
 70
     0
  0
APPID
  2
ACAD_DSTYLE_DIMTALN
 70
     0
  0
APPID
  2
ACADANNOPO
 70
     0
  0
APPID
  2
GRADIENTCOLOR1ACI
 70
     0
  0
APPID
  2
GRADIENTCOLOR2ACI
 70
     0
  0
APPID
  2
ACAD_MLEADERVER
 70
     0
  0
ENDTAB
  0
TABLE
  2
DIMSTYLE
 70
     3
  0
DIMSTYLE
  2
STANDARD
 70
     0
  3

  4

  5

  6

  7

 40
1.0
 41
0.18
 42
0.0625
 43
0.38
 44
0.18
 45
0.0
 46
0.0
 47
0.0
 48
0.0
140
0.18
141
0.09
142
0.0
143
25.399999999999999
144
1.0
145
0.0
146
1.0
147
0.09
 71
     0
 72
     0
 73
     1
 74
     1
 75
     0
 76
     0
 77
     0
 78
     0
170
     0
171
     2
172
     0
173
     0
174
     0
175
     0
176
     0
177
     0
178
     0
  0
DIMSTYLE
  2
S10
 70
     0
  3

  4

  5

  6

  7

 40
10.0
 41
2.0
 42
1.0
 43
10.0
 44
1.0
 45
0.0
 46
0.0
 47
0.0
 48
0.0
140
3.2000000000000002
141
0.0
142
0.0
143
25.399999999999999
144
1.0
145
0.0
146
1.0
147
0.9
 71
     0
 72
     0
 73
     0
 74
     0
 75
     0
 76
     0
 77
     1
 78
     8
170
     0
171
     2
172
     1
173
     0
174
     0
175
     0
176
   256
177
   256
178
   256
  0
ENDTAB
  0
ENDSEC
  0
SECTION
  2
BLOCKS
  0
BLOCK
  8
0
  2
$MODEL_SPACE
 70
     0
 10
0.0
 20
0.0
 30
0.0
  3
$MODEL_SPACE
  1

  0
ENDBLK
  5
12B34F
  8
0
  0
BLOCK
 67
     1
  8
0
  2
$PAPER_SPACE
 70
     0
 10
0.0
 20
0.0
 30
0.0
  3
$PAPER_SPACE
  1

  0
ENDBLK
  5
12B34B
 67
     1
  8
0
  0
BLOCK
  8
0
  2
_OPEN30
 70
     0
 10
0.0
 20
0.0
 30
0.0
  3
_OPEN30
  1

  0
LINE
  5
202
  8
0
  6
BYBLOCK
 62
     0
 10
-1.0
 20
0.26794919
 30
0.0
 11
0.0
 21
0.0
 31
0.0
  0
LINE
  5
203
  8
0
  6
BYBLOCK
 62
     0
 10
0.0
 20
0.0
 30
0.0
 11
-1.0
 21
-0.26794919
 31
0.0
  0
LINE
  5
204
  8
0
  6
BYBLOCK
 62
     0
 10
0.0
 20
0.0
 30
0.0
 11
-1.0
 21
0.0
 31
0.0
  0
ENDBLK
  5
206
  8
0
  0
BLOCK
  8
0
  2
*U24
 70
     1
 10
0.0
 20
0.0
 30
0.0
  3
*U24
  1

  0
TEXT
  5
12B11F
  8
DIM
 10
2209.479620594459
 20
-3369.1428571428528
 30
0.0
 40
32.0
  1
A
 50
90.0
 41
0.75
  0
ENDBLK
  5
12B121
  8
0
  0
BLOCK
  8
0
  2
*U25
 70
     1
 10
0.0
 20
0.0
 30
0.0
  3
*U25
  1

  0
TEXT
  5
12B123
  8
DIM
 10
2207.840928403733
 20
-3750.9999999999959
 30
0.0
 40
32.0
  1
B
 50
90.0
 41
0.75
  0
ENDBLK
  5
12B125
  8
0
  0
BLOCK
  8
0
  2
*U26
 70
     1
 10
0.0
 20
0.0
 30
0.0
  3
*U26
  1

  0
TEXT
  5
12B127
  8
DIM
 10
2061.428571428572
 20
-3223.208121984444
 30
0.0
 40
32.0
  1
C
 41
0.75
  0
ENDBLK
  5
12B129
  8
0
  0
BLOCK
  8
0
  2
*X27
 70
     1
 10
0.0
 20
0.0
 30
0.0
  3
*X27
  1

  0
LINE
  5
12B12B
  8
0
 62
     0
 10
4044.9012806053461
 20
-129.28048304657929
 30
0.0
 11
4041.364797757567
 21
-125.74400019880041
 31
0.0
  0
LINE
  5
12B12C
  8
0
 62
     0
 10
4053.6207975587658
 20
-137.99999999999881
 30
0.0
 11
4049.3914086658801
 21
-133.77061110711381
 31
0.0
  0
LINE
  5
12B12D
  8
0
 62
     0
 10
4026.9407683632062
 20
-120.3002269255103
 30
0.0
 11
4025.5813318337941
 21
-118.9407903960974
 31
0.0
  0
LINE
  5
12B12E
  8
0
 62
     0
 10
4035.9210244842761
 20
-129.28048304657941
 30
0.0
 11
4031.4308964237398
 21
-124.7903549860448
 31
0.0
  0
LINE
  5
12B12F
  8
0
 62
     0
 10
4044.6405414376959
 20
-137.99999999999881
 30
0.0
 11
4040.4111525448111
 21
-133.77061110711401
 31
0.0
  0
LINE
  5
12B130
  8
0
 62
     0
 10
4017.9605122421381
 20
-120.3002269255104
 30
0.0
 11
4013.785639980023
 21
-116.1253546633947
 31
0.0
  0
LINE
  5
12B131
  8
0
 62
     0
 10
4026.9407683632062
 20
-129.28048304657941
 30
0.0
 11
4022.450640302673
 21
-124.790354986045
 31
0.0
  0
LINE
  5
12B132
  8
0
 62
     0
 10
4008.980256121069
 20
-120.3002269255104
 30
0.0
 11
4004.490128060535
 21
-115.8100988649758
 31
0.0
  0
LINE
  5
12B133
  8
0
 62
     0
 10
4015.2459755954542
 20
-126.56594639989611
 30
0.0
 11
4013.470384181604
 21
-124.790354986045
 31
0.0
  0
LINE
  5
12B134
  8
0
 62
     0
 10
4000.0
 20
-120.3002269255102
 30
0.0
 11
3995.5098719394659
 21
-115.8100988649757
 31
0.0
  0
LINE
  5
12B135
  8
0
 62
     0
 10
4004.857222406476
 20
-125.1574493319865
 30
0.0
 11
4004.4901280605341
 21
-124.7903549860449
 31
0.0
  0
LINE
  5
12B136
  8
0
 62
     0
 10
3991.0197438789319
 20
-120.3002269255101
 30
0.0
 11
3986.7574181990171
 21
-116.03790124559499
 31
0.0
  0
LINE
  5
12B137
  8
0
 62
     0
 10
3995.8352410164198
 20
-125.1157240629995
 30
0.0
 11
3995.5098719394659
 21
-124.7903549860446
 31
0.0
  0
LINE
  5
12B138
  8
0
 62
     0
 10
3982.039487757861
 20
-120.3002269255105
 30
0.0
 11
3979.2986509997559
 21
-117.5593901674046
 31
0.0
  0
LINE
  5
12B139
  8
0
 62
     0
 10
3987.7469459221788
 20
-126.0076850898276
 30
0.0
 11
3986.5296158183978
 21
-124.7903549860451
 31
0.0
  0
LINE
  5
12B13A
  8
0
 62
     0
 10
3973.059231636792
 20
-120.3002269255101
 30
0.0
 11
3972.3737447415801
 21
-119.6147400302971
 31
0.0
  0
LINE
  5
12B13B
  8
0
 62
     0
 10
3980.3727435536048
 20
-127.61373884232211
 30
0.0
 11
3977.5493596973279
 21
-124.7903549860447
 31
0.0
  0
LINE
  5
12B13C
  8
0
 62
     0
 10
3973.0592316367929
 20
-129.28048304657941
 30
0.0
 11
3968.5691035762588
 21
-124.7903549860449
 31
0.0
  0
LINE
  5
12B13D
  8
0
 62
     0
 10
3964.0789755157239
 20
-129.28048304657949
 30
0.0
 11
3959.8686784425822
 21
-125.0701859734376
 31
0.0
  0
LINE
  5
12B13E
  8
0
 62
     0
 10
3955.098719394653
 20
-129.28048304657929
 30
0.0
 11
3954.207715567552
 21
-128.38947921947619
 31
0.0
  0
LINE
  5
12B13F
  8
0
 62
     0
 10
3961.4712462510188
 20
-135.65300990294469
 30
0.0
 11
3959.5888474551889
 21
-133.77061110711381
 31
0.0
  0
LINE
  5
12B140
  8
0
 62
     0
 10
3955.098719394653
 20
-138.2607391676483
 30
0.0
 11
3950.6085913341199
 21
-133.77061110711369
 31
0.0
  0
LINE
  5
12B141
  8
0
 62
     0
 10
3946.1184632735858
 20
-138.26073916764861
 30
0.0
 11
3943.953333351933
 21
-136.09560924599609
 31
0.0
  0
LINE
  5
12B142
  8
0
 62
     0
 10
3951.0415852941028
 20
-143.18386118816659
 30
0.0
 11
3950.6085913341199
 21
-142.7508672281831
 31
0.0
  0
LINE
  5
12B143
  8
0
 62
     0
 10
3946.1184632735858
 20
-147.2409952887179
 30
0.0
 11
3941.6283352130508
 21
-142.7508672281833
 31
0.0
  0
LINE
  5
12B144
  8
0
 62
     0
 10
3937.1382071525159
 20
-147.24099528871739
 30
0.0
 11
3935.0571756770728
 21
-145.15996381327381
 31
0.0
  0
LINE
  5
12B145
  8
0
 62
     0
 10
3942.156718127344
 20
-152.25950626354521
 30
0.0
 11
3941.6283352130508
 21
-151.7311233492519
 31
0.0
  0
LINE
  5
12B146
  8
0
 62
     0
 10
4053.8815367264142
 20
-263.9843248626164
 30
0.0
 11
4051.8972118637971
 21
-261.99999999999892
 31
0.0
  0
LINE
  5
12B147
  8
0
 62
     0
 10
3937.1382071525159
 20
-156.22125140978679
 30
0.0
 11
3932.6480790919818
 21
-151.73112334925219
 31
0.0
  0
LINE
  5
12B148
  8
0
 62
     0
 10
4044.9012806053461
 20
-263.98432486261618
 30
0.0
 11
4042.9169557427281
 21
-261.99999999999881
 31
0.0
  0
LINE
  5
12B149
  8
0
 62
     0
 10
4049.800363209366
 20
-268.88340746663852
 30
0.0
 11
4049.3914086658801
 21
-268.47445292315081
 31
0.0
  0
LINE
  5
12B14A
  8
0
 62
     0
 10
3928.1579510314468
 20
-156.22125140978699
 30
0.0
 11
3927.5251056078532
 21
-155.58840598619329
 31
0.0
  0
LINE
  5
12B14B
  8
0
 62
     0
 10
3934.825287788999
 20
-162.88858816733961
 30
0.0
 11
3932.6480790919818
 21
-160.71137947032159
 31
0.0
  0
LINE
  5
12B14C
  8
0
 62
     0
 10
4044.4115940138049
 20
-272.4748943921461
 30
0.0
 11
4040.4111525448111
 21
-268.4744529231512
 31
0.0
  0
LINE
  5
12B14D
  8
0
 62
     0
 10
3928.1579510314468
 20
-165.20150753085591
 30
0.0
 11
3924.2991719989341
 21
-161.3427284983421
 31
0.0
  0
LINE
  5
12B14E
  8
0
 62
     0
 10
4035.9210244842761
 20
-272.96458098368601
 30
0.0
 11
4031.4308964237398
 21
-268.47445292315138
 31
0.0
  0
LINE
  5
12B14F
  8
0
 62
     0
 10
3928.1579510314468
 20
-174.181763651925
 30
0.0
 11
3923.6678229709119
 21
-169.69163559139051
 31
0.0
  0
LINE
  5
12B150
  8
0
 62
     0
 10
4026.9407683632062
 20
-272.96458098368612
 30
0.0
 11
4024.768342412101
 21
-270.79215503257979
 31
0.0
  0
LINE
  5
12B151
  8
0
 62
     0
 10
4032.5124322087249
 20
-278.53624482920497
 30
0.0
 11
4031.4308964237398
 21
-277.45470904422058
 31
0.0
  0
LINE
  5
12B152
  8
0
 62
     0
 10
3919.1776949103769
 20
-174.18176365192531
 30
0.0
 11
3919.0551166644791
 21
-174.05918540602639
 31
0.0
  0
LINE
  5
12B153
  8
0
 62
     0
 10
3927.1533065670092
 20
-182.1573753085558
 30
0.0
 11
3923.6678229709119
 21
-178.67189171245991
 31
0.0
  0
LINE
  5
12B154
  8
0
 62
     0
 10
4017.9605122421381
 20
-272.96458098368629
 30
0.0
 11
4017.8426246914419
 21
-272.84669343299117
 31
0.0
  0
LINE
  5
12B155
  8
0
 62
     0
 10
4025.9408145939719
 20
-280.94488333552027
 30
0.0
 11
4022.450640302673
 21
-277.45470904422081
 31
0.0
  0
LINE
  5
12B156
  8
0
 62
     0
 10
3919.1776949103769
 20
-183.1620197729942
 30
0.0
 11
3917.1256054736991
 21
-181.10993033631479
 31
0.0
  0
LINE
  5
12B157
  8
0
 62
     0
 10
3925.711247363703
 20
-189.6955722263192
 30
0.0
 11
3923.6678229709119
 21
-187.6521478335288
 31
0.0
  0
LINE
  5
12B158
  8
0
 62
     0
 10
4017.9605122421381
 20
-281.94483710475532
 30
0.0
 11
4013.470384181604
 21
-277.45470904422069
 31
0.0
  0
LINE
  5
12B159
  8
0
 62
     0
 10
3919.1776949103769
 20
-192.1422758940634
 30
0.0
 11
3915.7522148444491
 21
-188.71679582813411
 31
0.0
  0
LINE
  5
12B15A
  8
0
 62
     0
 10
3925.0268991702492
 20
-197.99148015393521
 30
0.0
 11
3923.6678229709119
 21
-196.63240395459809
 31
0.0
  0
LINE
  5
12B15B
  8
0
 62
     0
 10
4008.980256121069
 20
-281.94483710475549
 30
0.0
 11
4004.490128060535
 21
-277.45470904422081
 31
0.0
  0
LINE
  5
12B15C
  8
0
 62
     0
 10
3919.1776949103769
 20
-201.12253201513241
 30
0.0
 11
3918.0551628952448
 21
-199.99999999999881
 31
0.0
  0
LINE
  5
12B15D
  8
0
 62
     0
 10
3925.3562150071471
 20
-207.30105211190201
 30
0.0
 11
3923.6678229709119
 21
-205.61266007566701
 31
0.0
  0
LINE
  5
12B15E
  8
0
 62
     0
 10
4000.0
 20
-281.94483710475492
 30
0.0
 11
3995.5098719394659
 21
-277.45470904422041
 31
0.0
  0
LINE
  5
12B15F
  8
0
 62
     0
 10
3918.0551628952448
 20
-199.99999999999881
 30
0.0
 11
3915.0530329227231
 21
-196.99787002747709
 31
0.0
  0
LINE
  5
12B160
  8
0
 62
     0
 10
3919.1776949103769
 20
-210.1027881362015
 30
0.0
 11
3915.2226107005299
 21
-206.14770392635421
 31
0.0
  0
LINE
  5
12B161
  8
0
 62
     0
 10
3927.230735249077
 20
-218.1558284749012
 30
0.0
 11
3923.6678229709119
 21
-214.5929161967361
 31
0.0
  0
LINE
  5
12B162
  8
0
 62
     0
 10
3982.039487757861
 20
-272.96458098368578
 30
0.0
 11
3981.8441715250988
 21
-272.76926475092228
 31
0.0
  0
LINE
  5
12B163
  8
0
 62
     0
 10
3991.0197438789319
 20
-281.94483710475492
 30
0.0
 11
3986.5296158183978
 21
-277.45470904422041
 31
0.0
  0
LINE
  5
12B164
  8
0
 62
     0
 10
3919.1776949103769
 20
-219.0830442572709
 30
0.0
 11
3916.6223302933631
 21
-216.52767964025639
 31
0.0
  0
LINE
  5
12B165
  8
0
 62
     0
 10
3928.1579510314468
 20
-228.0633003783401
 30
0.0
 11
3923.6678229709119
 21
-223.5731723178055
 31
0.0
  0
LINE
  5
12B166
  8
0
 62
     0
 10
3973.059231636792
 20
-272.96458098368589
 30
0.0
 11
3968.569103576257
 21
-268.47445292315132
 31
0.0
  0
LINE
  5
12B167
  8
0
 62
     0
 10
3982.039487757861
 20
-281.94483710475492
 30
0.0
 11
3977.5493596973279
 21
-277.45470904422041
 31
0.0
  0
LINE
  5
12B168
  8
0
 62
     0
 10
3928.1579510314468
 20
-237.04355649940939
 30
0.0
 11
3923.6678229709141
 21
-232.55342843887479
 31
0.0
  0
LINE
  5
12B169
  8
0
 62
     0
 10
3937.1382071525159
 20
-246.02381262047851
 30
0.0
 11
3932.6480790919818
 21
-241.53368455994391
 31
0.0
  0
LINE
  5
12B16A
  8
0
 62
     0
 10
3946.1184632735858
 20
-255.00406874154771
 30
0.0
 11
3941.6283352130508
 21
-250.51394068101311
 31
0.0
  0
LINE
  5
12B16B
  8
0
 62
     0
 10
3955.0987193946548
 20
-263.9843248626168
 30
0.0
 11
3950.6085913341199
 21
-259.49419680208212
 31
0.0
  0
LINE
  5
12B16C
  8
0
 62
     0
 10
3964.0789755157239
 20
-272.96458098368589
 30
0.0
 11
3959.5888474551889
 21
-268.47445292315138
 31
0.0
  0
LINE
  5
12B16D
  8
0
 62
     0
 10
3971.0224918935851
 20
-279.90809736154699
 30
0.0
 11
3968.569103576257
 21
-277.45470904422041
 31
0.0
  0
LINE
  5
12B16E
  8
0
 62
     0
 10
3937.1382071525159
 20
-255.00406874154751
 30
0.0
 11
3932.6480790919818
 21
-250.51394068101291
 31
0.0
  0
LINE
  5
12B16F
  8
0
 62
     0
 10
3946.1184632735858
 20
-263.98432486261657
 30
0.0
 11
3941.6283352130508
 21
-259.49419680208212
 31
0.0
  0
LINE
  5
12B170
  8
0
 62
     0
 10
3952.8742563374281
 20
-270.74011792645962
 30
0.0
 11
3950.6085913341199
 21
-268.4744529231512
 31
0.0
  0
LINE
  5
12B171
  8
0
 62
     0
 10
4043.217482582646
 20
-130.9642810692803
 30
0.0
 11
4038.727354522111
 21
-126.4741530087457
 31
0.0
  0
LINE
  5
12B172
  8
0
 62
     0
 10
4050.2532015133638
 20
-137.99999999999901
 30
0.0
 11
4047.70761064318
 21
-135.45440912981479
 31
0.0
  0
LINE
  5
12B173
  8
0
 62
     0
 10
4025.256970340507
 20
-121.9840249482111
 30
0.0
 11
4020.8765200385119
 21
-117.60357464621541
 31
0.0
  0
LINE
  5
12B174
  8
0
 62
     0
 10
4034.237226461576
 20
-130.9642810692803
 30
0.0
 11
4029.747098401042
 21
-126.4741530087457
 31
0.0
  0
LINE
  5
12B175
  8
0
 62
     0
 10
4039.546200263319
 20
-136.2732548710234
 30
0.0
 11
4038.727354522111
 21
-135.45440912981479
 31
0.0
  0
LINE
  5
12B176
  8
0
 62
     0
 10
4016.276714219438
 20
-121.9840249482111
 30
0.0
 11
4011.7865861589039
 21
-117.4938968876765
 31
0.0
  0
LINE
  5
12B177
  8
0
 62
     0
 10
4022.8621483857878
 20
-128.56945911456131
 30
0.0
 11
4020.766842279972
 21
-126.4741530087457
 31
0.0
  0
LINE
  5
12B178
  8
0
 62
     0
 10
4007.2964580983689
 20
-121.9840249482111
 30
0.0
 11
4002.806330037834
 21
-117.4938968876766
 31
0.0
  0
LINE
  5
12B179
  8
0
 62
     0
 10
3998.3162019772999
 20
-121.9840249482109
 30
0.0
 11
3993.8260739167658
 21
-117.4938968876763
 31
0.0
  0
LINE
  5
12B17A
  8
0
 62
     0
 10
3989.3359458562309
 20
-121.9840249482111
 30
0.0
 11
3984.8458177956959
 21
-117.4938968876765
 31
0.0
  0
LINE
  5
12B17B
  8
0
 62
     0
 10
3980.3556897351609
 20
-121.9840249482111
 30
0.0
 11
3976.643590459008
 21
-118.2719256720581
 31
0.0
  0
LINE
  5
12B17C
  8
0
 62
     0
 10
3984.9061848395481
 20
-126.5345200525973
 30
0.0
 11
3984.8458177956959
 21
-126.4741530087457
 31
0.0
  0
LINE
  5
12B17D
  8
0
 62
     0
 10
3971.3754336140919
 20
-121.9840249482108
 30
0.0
 11
3969.899516623394
 21
-120.5081079575113
 31
0.0
  0
LINE
  5
12B17E
  8
0
 62
     0
 10
3977.763602446279
 20
-128.3721937803972
 30
0.0
 11
3975.8655616746269
 21
-126.4741530087454
 31
0.0
  0
LINE
  5
12B17F
  8
0
 62
     0
 10
3971.1725803665872
 20
-130.76142782177519
 30
0.0
 11
3966.8853055535569
 21
-126.4741530087454
 31
0.0
  0
LINE
  5
12B180
  8
0
 62
     0
 10
3962.3951774930229
 20
-130.96428106928039
 30
0.0
 11
3957.9050494324879
 21
-126.4741530087458
 31
0.0
  0
LINE
  5
12B181
  8
0
 62
     0
 10
3953.4149213719538
 20
-130.9642810692801
 30
0.0
 11
3952.1787945338201
 21
-129.72815423114619
 31
0.0
  0
LINE
  5
12B182
  8
0
 62
     0
 10
3959.393937886342
 20
-136.943297583668
 30
0.0
 11
3957.9050494324879
 21
-135.45440912981471
 31
0.0
  0
LINE
  5
12B183
  8
0
 62
     0
 10
3953.4149213719538
 20
-139.94453719034911
 30
0.0
 11
3948.9247933114189
 21
-135.45440912981459
 31
0.0
  0
LINE
  5
12B184
  8
0
 62
     0
 10
3944.4346652508839
 20
-139.94453719034911
 30
0.0
 11
3942.1829321375349
 21
-137.69280407699949
 31
0.0
  0
LINE
  5
12B185
  8
0
 62
     0
 10
3949.2595972728632
 20
-144.76946921232741
 30
0.0
 11
3948.9247933114189
 21
-144.4346652508836
 31
0.0
  0
LINE
  5
12B186
  8
0
 62
     0
 10
3944.4346652508839
 20
-148.92479331141831
 30
0.0
 11
3939.9445371903498
 21
-144.43466525088371
 31
0.0
  0
LINE
  5
12B187
  8
0
 62
     0
 10
4057.8170678624638
 20
-262.30719592299897
 30
0.0
 11
4057.509871939465
 21
-261.99999999999909
 31
0.0
  0
LINE
  5
12B188
  8
0
 62
     0
 10
3935.4544091298148
 20
-148.9247933114182
 30
0.0
 11
3933.5392925284159
 21
-147.00967671001919
 31
0.0
  0
LINE
  5
12B189
  8
0
 62
     0
 10
3940.6612225988802
 20
-154.13160678048209
 30
0.0
 11
3939.9445371903498
 21
-153.4149213719528
 31
0.0
  0
LINE
  5
12B18A
  8
0
 62
     0
 10
4052.1977387037132
 20
-265.6681228853173
 30
0.0
 11
4048.529615818396
 21
-261.99999999999909
 31
0.0
  0
LINE
  5
12B18B
  8
0
 62
     0
 10
3935.4544091298171
 20
-157.9050494324874
 30
0.0
 11
3930.9642810692808
 21
-153.414921371953
 31
0.0
  0
LINE
  5
12B18C
  8
0
 62
     0
 10
4043.217482582646
 20
-265.66812288531719
 30
0.0
 11
4040.606062113658
 21
-263.05670241633021
 31
0.0
  0
LINE
  5
12B18D
  8
0
 62
     0
 10
4047.8212054661799
 20
-270.27184576885168
 30
0.0
 11
4047.70761064318
 21
-270.15825094585188
 31
0.0
  0
LINE
  5
12B18E
  8
0
 62
     0
 10
3926.4741530087458
 20
-157.9050494324876
 30
0.0
 11
3926.271409419352
 21
-157.70230584309289
 31
0.0
  0
LINE
  5
12B18F
  8
0
 62
     0
 10
3933.6335430370682
 20
-165.06443946080969
 30
0.0
 11
3930.9642810692808
 21
-162.3951774930222
 31
0.0
  0
LINE
  5
12B190
  8
0
 62
     0
 10
4042.297694156905
 20
-273.72859058064722
 30
0.0
 11
4038.727354522111
 21
-270.15825094585227
 31
0.0
  0
LINE
  5
12B191
  8
0
 62
     0
 10
3926.4741530087458
 20
-166.88530555355689
 30
0.0
 11
3923.1884639044451
 21
-163.59961644925551
 31
0.0
  0
LINE
  5
12B192
  8
0
 62
     0
 10
4034.237226461576
 20
-274.64837900638662
 30
0.0
 11
4029.7470984010411
 21
-270.15825094585199
 31
0.0
  0
LINE
  5
12B193
  8
0
 62
     0
 10
3926.4741530087458
 20
-175.86556167462581
 30
0.0
 11
3921.9840249482122
 21
-171.37543361409129
 31
0.0
  0
LINE
  5
12B194
  8
0
 62
     0
 10
4025.256970340507
 20
-274.64837900638662
 30
0.0
 11
4022.2363975537201
 21
-271.6278062196011
 31
0.0
  0
LINE
  5
12B195
  8
0
 62
     0
 10
4030.1004833766069
 20
-279.49189204248711
 30
0.0
 11
4029.7470984010411
 21
-279.13850706692119
 31
0.0
  0
LINE
  5
12B196
  8
0
 62
     0
 10
3926.4741530087458
 20
-184.84581779569501
 30
0.0
 11
3921.9840249482122
 21
-180.3556897351605
 31
0.0
  0
LINE
  5
12B197
  8
0
 62
     0
 10
4016.276714219438
 20
-274.64837900638662
 30
0.0
 11
4015.0938151604519
 21
-273.46547994740098
 31
0.0
  0
LINE
  5
12B198
  8
0
 62
     0
 10
4023.3564095409911
 20
-281.72807432794031
 30
0.0
 11
4020.766842279972
 21
-279.13850706692108
 31
0.0
  0
LINE
  5
12B199
  8
0
 62
     0
 10
3917.4938968876768
 20
-184.8458177956949
 30
0.0
 11
3916.540209967503
 21
-183.89213087551991
 31
0.0
  0
LINE
  5
12B19A
  8
0
 62
     0
 10
3925.3553968115771
 20
-192.7073177195951
 30
0.0
 11
3921.9840249482122
 21
-189.3359458562295
 31
0.0
  0
LINE
  5
12B19B
  8
0
 62
     0
 10
4007.2964580983689
 20
-274.64837900638651
 30
0.0
 11
4007.2926822804038
 21
-274.6446031884218
 31
0.0
  0
LINE
  5
12B19C
  8
0
 62
     0
 10
4016.1078691244779
 20
-283.45979003249721
 30
0.0
 11
4011.7865861589039
 21
-279.13850706692108
 31
0.0
  0
LINE
  5
12B19D
  8
0
 62
     0
 10
3925.012047226568
 20
-201.34422425565469
 30
0.0
 11
3923.6678229709119
 21
-199.9999999999992
 31
0.0
  0
LINE
  5
12B19E
  8
0
 62
     0
 10
3917.4938968876768
 20
-193.82607391676399
 30
0.0
 11
3915.4027830531209
 21
-191.73496008220761
 31
0.0
  0
LINE
  5
12B19F
  8
0
 62
     0
 10
3923.6678229709119
 20
-199.99999999999901
 30
0.0
 11
3921.9840249482108
 21
-198.3162019772985
 31
0.0
  0
LINE
  5
12B1A0
  8
0
 62
     0
 10
4007.2964580983689
 20
-283.6286351274556
 30
0.0
 11
4002.806330037834
 21
-279.13850706692108
 31
0.0
  0
LINE
  5
12B1A1
  8
0
 62
     0
 10
3917.4938968876768
 20
-202.80633003783291
 30
0.0
 11
3915.0005763250811
 21
-200.31300947523701
 31
0.0
  0
LINE
  5
12B1A2
  8
0
 62
     0
 10
3925.8327188999019
 20
-211.14515205005731
 30
0.0
 11
3921.9840249482122
 21
-207.29645809836751
 31
0.0
  0
LINE
  5
12B1A3
  8
0
 62
     0
 10
3989.33594585623
 20
-274.64837900638599
 30
0.0
 11
3988.8548479499409
 21
-274.16728110009763
 31
0.0
  0
LINE
  5
12B1A4
  8
0
 62
     0
 10
3998.316201977299
 20
-283.62863512745508
 30
0.0
 11
3993.826073916764
 21
-279.13850706692062
 31
0.0
  0
LINE
  5
12B1A5
  8
0
 62
     0
 10
3917.4938968876768
 20
-211.7865861589022
 30
0.0
 11
3915.5746775417588
 21
-209.8673668129841
 31
0.0
  0
LINE
  5
12B1A6
  8
0
 62
     0
 10
3926.4741530087458
 20
-220.7668422799714
 30
0.0
 11
3921.9840249482122
 21
-216.2767142194368
 31
0.0
  0
LINE
  5
12B1A7
  8
0
 62
     0
 10
3980.3556897351609
 20
-274.64837900638628
 30
0.0
 11
3977.1378516142122
 21
-271.43054088543681
 31
0.0
  0
LINE
  5
12B1A8
  8
0
 62
     0
 10
3989.3359458562309
 20
-283.62863512745542
 30
0.0
 11
3984.8458177956959
 21
-279.13850706692091
 31
0.0
  0
LINE
  5
12B1A9
  8
0
 62
     0
 10
3926.4741530087458
 20
-229.7470984010408
 30
0.0
 11
3921.9840249482122
 21
-225.2569703405062
 31
0.0
  0
LINE
  5
12B1AA
  8
0
 62
     0
 10
3935.4544091298148
 20
-238.72735452210981
 30
0.0
 11
3930.9642810692808
 21
-234.2372264615754
 31
0.0
  0
LINE
  5
12B1AB
  8
0
 62
     0
 10
3962.3951774930242
 20
-265.66812288531742
 30
0.0
 11
3960.453799736681
 21
-263.72674512897458
 31
0.0
  0
LINE
  5
12B1AC
  8
0
 62
     0
 10
3971.3754336140919
 20
-274.64837900638662
 30
0.0
 11
3966.8853055535578
 21
-270.15825094585199
 31
0.0
  0
LINE
  5
12B1AD
  8
0
 62
     0
 10
3979.1234799614899
 20
-282.39642535378249
 30
0.0
 11
3975.8655616746269
 21
-279.13850706692108
 31
0.0
  0
LINE
  5
12B1AE
  8
0
 62
     0
 10
3926.4741530087472
 20
-238.72735452211001
 30
0.0
 11
3922.3721274786062
 21
-234.6253289919695
 31
0.0
  0
LINE
  5
12B1AF
  8
0
 62
     0
 10
3935.4544091298171
 20
-247.70761064317909
 30
0.0
 11
3930.9642810692808
 21
-243.21748258264461
 31
0.0
  0
LINE
  5
12B1B0
  8
0
 62
     0
 10
3944.4346652508848
 20
-256.68786676424838
 30
0.0
 11
3939.9445371903512
 21
-252.1977387037137
 31
0.0
  0
LINE
  5
12B1B1
  8
0
 62
     0
 10
3953.4149213719538
 20
-265.66812288531742
 30
0.0
 11
3948.9247933114189
 21
-261.17799482478279
 31
0.0
  0
LINE
  5
12B1B2
  8
0
 62
     0
 10
3962.3951774930229
 20
-274.64837900638662
 30
0.0
 11
3957.9050494324879
 21
-270.15825094585199
 31
0.0
  0
LINE
  5
12B1B3
  8
0
 62
     0
 10
4050.5139406810131
 20
-132.64807909198001
 30
0.0
 11
4047.1257436625701
 21
-129.25988207353819
 31
0.0
  0
LINE
  5
12B1B4
  8
0
 62
     0
 10
4055.8658615890322
 20
-137.9999999999992
 30
0.0
 11
4055.0040687415481
 21
-137.1382071525147
 31
0.0
  0
LINE
  5
12B1B5
  8
0
 62
     0
 10
4032.5534284388759
 20
-123.6678229709118
 30
0.0
 11
4028.977508106414
 21
-120.0919026384511
 31
0.0
  0
LINE
  5
12B1B6
  8
0
 62
     0
 10
4041.533684559944
 20
-132.64807909198089
 30
0.0
 11
4037.04355649941
 21
-128.1579510314464
 31
0.0
  0
LINE
  5
12B1B7
  8
0
 62
     0
 10
4046.8856054679632
 20
-137.99999999999901
 30
0.0
 11
4046.0238126204799
 21
-137.13820715251549
 31
0.0
  0
LINE
  5
12B1B8
  8
0
 62
     0
 10
4023.573172317806
 20
-123.6678229709115
 30
0.0
 11
4019.0830442572701
 21
-119.1776949103769
 31
0.0
  0
LINE
  5
12B1B9
  8
0
 62
     0
 10
4032.1417147619541
 20
-132.2363654150605
 30
0.0
 11
4028.063300378341
 21
-128.15795103144609
 31
0.0
  0
LINE
  5
12B1BA
  8
0
 62
     0
 10
4014.592916196737
 20
-123.6678229709114
 30
0.0
 11
4010.102788136202
 21
-119.1776949103769
 31
0.0
  0
LINE
  5
12B1BB
  8
0
 62
     0
 10
4005.6126600756679
 20
-123.6678229709113
 30
0.0
 11
4001.1225320151329
 21
-119.1776949103767
 31
0.0
  0
LINE
  5
12B1BC
  8
0
 62
     0
 10
3996.6324039545989
 20
-123.6678229709114
 30
0.0
 11
3992.1422758940639
 21
-119.1776949103769
 31
0.0
  0
LINE
  5
12B1BD
  8
0
 62
     0
 10
3987.6521478335299
 20
-123.6678229709111
 30
0.0
 11
3983.1620197729958
 21
-119.1776949103765
 31
0.0
  0
LINE
  5
12B1BE
  8
0
 62
     0
 10
3978.6718917124608
 20
-123.6678229709112
 30
0.0
 11
3974.1817636519272
 21
-119.1776949103766
 31
0.0
  0
LINE
  5
12B1BF
  8
0
 62
     0
 10
3969.6916355913918
 20
-123.6678229709111
 30
0.0
 11
3967.4875677912742
 21
-121.4637551707935
 31
0.0
  0
LINE
  5
12B1C0
  8
0
 62
     0
 10
3975.2316575878999
 20
-129.20784496741859
 30
0.0
 11
3974.1817636519258
 21
-128.15795103144569
 31
0.0
  0
LINE
  5
12B1C1
  8
0
 62
     0
 10
3968.8282803805801
 20
-131.78472388116879
 30
0.0
 11
3965.2015075308559
 21
-128.15795103144521
 31
0.0
  0
LINE
  5
12B1C2
  8
0
 62
     0
 10
3960.7113794703232
 20
-132.64807909198041
 30
0.0
 11
3956.2212514097891
 21
-128.1579510314458
 31
0.0
  0
LINE
  5
12B1C3
  8
0
 62
     0
 10
3951.7311233492551
 20
-132.64807909198069
 30
0.0
 11
3950.1996367906331
 21
-131.11659253336001
 31
0.0
  0
LINE
  5
12B1C4
  8
0
 62
     0
 10
3957.3739138312571
 20
-138.29086957398431
 30
0.0
 11
3956.2212514097891
 21
-137.13820715251521
 31
0.0
  0
LINE
  5
12B1C5
  8
0
 62
     0
 10
3951.7311233492551
 20
-141.62833521305001
 30
0.0
 11
3947.2409952887192
 21
-137.13820715251541
 31
0.0
  0
LINE
  5
12B1C6
  8
0
 62
     0
 10
3942.7508672281838
 20
-141.62833521304941
 30
0.0
 11
3940.4598102808641
 21
-139.33727826572991
 31
0.0
  0
LINE
  5
12B1C7
  8
0
 62
     0
 10
3947.5312275343699
 20
-146.40869551923541
 30
0.0
 11
3947.2409952887178
 21
-146.1184632735839
 31
0.0
  0
LINE
  5
12B1C8
  8
0
 62
     0
 10
3942.7508672281838
 20
-150.6085913341189
 30
0.0
 11
3938.2607391676502
 21
-146.1184632735843
 31
0.0
  0
LINE
  5
12B1C9
  8
0
 62
     0
 10
4056.046666648067
 20
-263.90439075400258
 30
0.0
 11
4055.0040687415481
 21
-262.86179284748329
 31
0.0
  0
LINE
  5
12B1CA
  8
0
 62
     0
 10
3933.7706111071152
 20
-150.6085913341187
 30
0.0
 11
3932.069493308034
 21
-148.9074735350377
 31
0.0
  0
LINE
  5
12B1CB
  8
0
 62
     0
 10
3939.220522823553
 20
-156.05850305055731
 30
0.0
 11
3938.2607391676488
 21
-155.09871939465319
 31
0.0
  0
LINE
  5
12B1CC
  8
0
 62
     0
 10
4050.5139406810131
 20
-267.35192090801792
 30
0.0
 11
4046.023812620479
 21
-262.86179284748329
 31
0.0
  0
LINE
  5
12B1CD
  8
0
 62
     0
 10
3933.7706111071138
 20
-159.5888474551875
 30
0.0
 11
3929.2804830465811
 21
-155.0987193946529
 31
0.0
  0
LINE
  5
12B1CE
  8
0
 62
     0
 10
4041.533684559944
 20
-267.35192090801752
 30
0.0
 11
4038.5287537489799
 21
-264.34699009705378
 31
0.0
  0
LINE
  5
12B1CF
  8
0
 62
     0
 10
3932.5031866541531
 20
-167.3016791232952
 30
0.0
 11
3929.2804830465811
 21
-164.0789755157231
 31
0.0
  0
LINE
  5
12B1D0
  8
0
 62
     0
 10
4040.1313215574169
 20
-274.92981402656062
 30
0.0
 11
4037.04355649941
 21
-271.84204896855249
 31
0.0
  0
LINE
  5
12B1D1
  8
0
 62
     0
 10
3924.7903549860471
 20
-168.56910357625699
 30
0.0
 11
3922.1342441411598
 21
-165.9129927313713
 31
0.0
  0
LINE
  5
12B1D2
  8
0
 62
     0
 10
3929.8058092476431
 20
-173.58455783785379
 30
0.0
 11
3929.2804830465811
 21
-173.05923163679159
 31
0.0
  0
LINE
  5
12B1D3
  8
0
 62
     0
 10
4032.5534284388759
 20
-276.33217702908701
 30
0.0
 11
4028.063300378341
 21
-271.84204896855238
 31
0.0
  0
LINE
  5
12B1D4
  8
0
 62
     0
 10
3924.7903549860471
 20
-177.54935969732591
 30
0.0
 11
3920.3002269255112
 21
-173.05923163679131
 31
0.0
  0
LINE
  5
12B1D5
  8
0
 62
     0
 10
4023.573172317806
 20
-276.33217702908678
 30
0.0
 11
4019.6272564463952
 21
-272.38626115767607
 31
0.0
  0
LINE
  5
12B1D6
  8
0
 62
     0
 10
3924.7903549860471
 20
-186.52961581839551
 30
0.0
 11
3920.3002269255121
 21
-182.039487757861
 31
0.0
  0
LINE
  5
12B1D7
  8
0
 62
     0
 10
4014.592916196737
 20
-276.33217702908712
 30
0.0
 11
4012.2530540778212
 21
-273.99231491017071
 31
0.0
  0
LINE
  5
12B1D8
  8
0
 62
     0
 10
4020.7013490002441
 20
-282.44060983259368
 30
0.0
 11
4019.0830442572701
 21
-280.82230508962169
 31
0.0
  0
LINE
  5
12B1D9
  8
0
 62
     0
 10
3924.7903549860471
 20
-195.5098719394644
 30
0.0
 11
3920.3002269255121
 21
-191.0197438789298
 31
0.0
  0
LINE
  5
12B1DA
  8
0
 62
     0
 10
4005.6126600756679
 20
-276.33217702908678
 30
0.0
 11
4004.1647589835802
 21
-274.88427593699879
 31
0.0
  0
LINE
  5
12B1DB
  8
0
 62
     0
 10
4013.2425818009829
 20
-283.96209875440292
 30
0.0
 11
4010.102788136202
 21
-280.82230508962141
 31
0.0
  0
LINE
  5
12B1DC
  8
0
 62
     0
 10
3924.7903549860471
 20
-204.49012806053369
 30
0.0
 11
3920.3002269255121
 21
-199.99999999999909
 31
0.0
  0
LINE
  5
12B1DD
  8
0
 62
     0
 10
3996.6324039545989
 20
-276.33217702908689
 30
0.0
 11
3995.1427775935249
 21
-274.84255066801131
 31
0.0
  0
LINE
  5
12B1DE
  8
0
 62
     0
 10
3915.8100988649771
 20
-195.5098719394644
 30
0.0
 11
3915.15581890257
 21
-194.8555919770578
 31
0.0
  0
LINE
  5
12B1DF
  8
0
 62
     0
 10
4005.1444080229421
 20
-284.8441810974291
 30
0.0
 11
4001.1225320151329
 21
-280.82230508962158
 31
0.0
  0
LINE
  5
12B1E0
  8
0
 62
     0
 10
3915.8100988649771
 20
-204.49012806053361
 30
0.0
 11
3915.0833528969388
 21
-203.7633820924957
 31
0.0
  0
LINE
  5
12B1E1
  8
0
 62
     0
 10
3924.7903549860471
 20
-213.4703841816027
 30
0.0
 11
3920.3002269255121
 21
-208.98025612106821
 31
0.0
  0
LINE
  5
12B1E2
  8
0
 62
     0
 10
3987.6521478335299
 20
-276.33217702908712
 30
0.0
 11
3984.7540244045458
 21
-273.4340536001024
 31
0.0
  0
LINE
  5
12B1E3
  8
0
 62
     0
 10
3996.2366179075038
 20
-284.91664710306048
 30
0.0
 11
3992.1422758940639
 21
-280.82230508962158
 31
0.0
  0
LINE
  5
12B1E4
  8
0
 62
     0
 10
3924.7903549860471
 20
-222.4506403026717
 30
0.0
 11
3920.3002269255121
 21
-217.96051224213721
 31
0.0
  0
LINE
  5
12B1E5
  8
0
 62
     0
 10
3930.4788649061188
 20
-228.13915022274449
 30
0.0
 11
3929.2804830465811
 21
-226.94076836320639
 31
0.0
  0
LINE
  5
12B1E6
  8
0
 62
     0
 10
3978.6718917124599
 20
-276.33217702908661
 30
0.0
 11
3974.1817636519258
 21
-271.84204896855198
 31
0.0
  0
LINE
  5
12B1E7
  8
0
 62
     0
 10
3986.214360019977
 20
-283.87464533660358
 30
0.0
 11
3983.1620197729949
 21
-280.82230508962118
 31
0.0
  0
LINE
  5
12B1E8
  8
0
 62
     0
 10
3924.7903549860471
 20
-231.4308964237413
 30
0.0
 11
3920.3002269255121
 21
-226.9407683632067
 31
0.0
  0
LINE
  5
12B1E9
  8
0
 62
     0
 10
3933.7706111071161
 20
-240.41115254481039
 30
0.0
 11
3929.2804830465811
 21
-235.9210244842757
 31
0.0
  0
LINE
  5
12B1EA
  8
0
 62
     0
 10
3942.7508672281838
 20
-249.3914086658796
 30
0.0
 11
3938.2607391676502
 21
-244.90128060534491
 31
0.0
  0
LINE
  5
12B1EB
  8
0
 62
     0
 10
3951.7311233492551
 20
-258.37166478694871
 30
0.0
 11
3947.2409952887192
 21
-253.88153672641411
 31
0.0
  0
LINE
  5
12B1EC
  8
0
 62
     0
 10
3960.7113794703232
 20
-267.35192090801792
 30
0.0
 11
3956.2212514097891
 21
-262.86179284748329
 31
0.0
  0
LINE
  5
12B1ED
  8
0
 62
     0
 10
3969.6916355913918
 20
-276.33217702908701
 30
0.0
 11
3965.2015075308582
 21
-271.84204896855238
 31
0.0
  0
LINE
  5
12B1EE
  8
0
 62
     0
 10
3974.4186681662059
 20
-281.05920960390091
 30
0.0
 11
3974.1817636519272
 21
-280.82230508962158
 31
0.0
  0
LINE
  5
12B1EF
  8
0
 62
     0
 10
3933.7706111071152
 20
-249.3914086658794
 30
0.0
 11
3929.2804830465811
 21
-244.90128060534479
 31
0.0
  0
LINE
  5
12B1F0
  8
0
 62
     0
 10
3942.7508672281838
 20
-258.37166478694849
 30
0.0
 11
3938.2607391676488
 21
-253.88153672641391
 31
0.0
  0
LINE
  5
12B1F1
  8
0
 62
     0
 10
3951.7311233492528
 20
-267.35192090801758
 30
0.0
 11
3947.2409952887178
 21
-262.86179284748312
 31
0.0
  0
LINE
  5
12B1F2
  8
0
 62
     0
 10
3958.635202242433
 20
-274.25599980119728
 30
0.0
 11
3956.221251409786
 21
-271.84204896855209
 31
0.0
  0
LINE
  5
12B1F3
  8
0
 62
     0
 10
4050.9536729964252
 20
-268.03472060773998
 30
0.0
 11
4055.0040687415481
 21
-263.98432486261697
 31
0.0
  0
LINE
  5
12B1F4
  8
0
 62
     0
 10
4041.533684559944
 20
-268.4744529231512
 30
0.0
 11
4046.023812620479
 21
-263.98432486261657
 31
0.0
  0
LINE
  5
12B1F5
  8
0
 62
     0
 10
4032.5534284388759
 20
-277.45470904422041
 30
0.0
 11
4037.04355649941
 21
-272.96458098368578
 31
0.0
  0
LINE
  5
12B1F6
  8
0
 62
     0
 10
4032.5534284388759
 20
-268.4744529231512
 30
0.0
 11
4034.3633432655911
 21
-266.66453809643377
 31
0.0
  0
LINE
  5
12B1F7
  8
0
 62
     0
 10
4023.573172317806
 20
-277.45470904422029
 30
0.0
 11
4028.063300378341
 21
-272.96458098368572
 31
0.0
  0
LINE
  5
12B1F8
  8
0
 62
     0
 10
4017.943374261697
 20
-283.08450710032798
 30
0.0
 11
4019.0830442572701
 21
-281.94483710475492
 31
0.0
  0
LINE
  5
12B1F9
  8
0
 62
     0
 10
4014.592916196737
 20
-277.45470904422001
 30
0.0
 11
4019.0830442572701
 21
-272.96458098368549
 31
0.0
  0
LINE
  5
12B1FA
  8
0
 62
     0
 10
4007.36752371589
 20
-284.68010152506679
 30
0.0
 11
4010.102788136202
 21
-281.94483710475458
 31
0.0
  0
LINE
  5
12B1FB
  8
0
 62
     0
 10
4005.6126600756679
 20
-277.45470904422041
 30
0.0
 11
4008.5571315733901
 21
-274.51023754649788
 31
0.0
  0
LINE
  5
12B1FC
  8
0
 62
     0
 10
4000.0
 20
-283.0673691198885
 30
0.0
 11
4001.1225320151329
 21
-281.94483710475492
 31
0.0
  0
LINE
  5
12B1FD
  8
0
 62
     0
 10
3998.0888569405961
 20
-284.97851217929349
 30
0.0
 11
4000.0
 21
-283.06736911988838
 31
0.0
  0
LINE
  5
12B1FE
  8
0
 62
     0
 10
3996.6324039545989
 20
-277.45470904422058
 30
0.0
 11
3999.0926023365032
 21
-274.99451066231558
 31
0.0
  0
LINE
  5
12B1FF
  8
0
 62
     0
 10
3989.7120139313201
 20
-284.37509906750012
 30
0.0
 11
3992.1422758940639
 21
-281.94483710475521
 31
0.0
  0
LINE
  5
12B200
  8
0
 62
     0
 10
3987.6521478335299
 20
-277.45470904422001
 30
0.0
 11
3990.687281053727
 21
-274.41957582402341
 31
0.0
  0
LINE
  5
12B201
  8
0
 62
     0
 10
3982.0284415821229
 20
-283.07841529562711
 30
0.0
 11
3983.1620197729958
 21
-281.94483710475458
 31
0.0
  0
LINE
  5
12B202
  8
0
 62
     0
 10
3978.6718917124608
 20
-277.45470904422029
 30
0.0
 11
3983.0638429163332
 21
-273.0627578403475
 31
0.0
  0
LINE
  5
12B203
  8
0
 62
     0
 10
3969.6916355913918
 20
-277.45470904422041
 30
0.0
 11
3974.1817636519258
 21
-272.96458098368589
 31
0.0
  0
LINE
  5
12B204
  8
0
 62
     0
 10
3962.0888566424378
 20
-276.07723187210598
 30
0.0
 11
3965.2015075308568
 21
-272.96458098368589
 31
0.0
  0
LINE
  5
12B205
  8
0
 62
     0
 10
3960.7113794703232
 20
-268.47445292315132
 30
0.0
 11
3963.60716527675
 21
-265.57866711672352
 31
0.0
  0
LINE
  5
12B206
  8
0
 62
     0
 10
3951.7311233492551
 20
-268.47445292315092
 30
0.0
 11
3956.2212514097891
 21
-263.9843248626164
 31
0.0
  0
LINE
  5
12B207
  8
0
 62
     0
 10
3951.7311233492551
 20
-259.49419680208177
 30
0.0
 11
3952.8774911001642
 21
-258.34782905117117
 31
0.0
  0
LINE
  5
12B208
  8
0
 62
     0
 10
3945.7712191933251
 20
-265.4541009580106
 30
0.0
 11
3947.2409952887192
 21
-263.9843248626164
 31
0.0
  0
LINE
  5
12B209
  8
0
 62
     0
 10
3942.7508672281838
 20
-259.49419680208212
 30
0.0
 11
3947.2409952887178
 21
-255.00406874154771
 31
0.0
  0
LINE
  5
12B20A
  8
0
 62
     0
 10
3942.7508672281838
 20
-250.51394068101291
 30
0.0
 11
3943.7064245411289
 21
-249.55838336806741
 31
0.0
  0
LINE
  5
12B20B
  8
0
 62
     0
 10
3936.622743924941
 20
-256.64206398425489
 30
0.0
 11
3938.2607391676488
 21
-255.00406874154751
 31
0.0
  0
LINE
  5
12B20C
  8
0
 62
     0
 10
4050.5139406810131
 20
-133.77061110711421
 30
0.0
 11
4051.7304976486612
 21
-132.5540541394667
 31
0.0
  0
LINE
  5
12B20D
  8
0
 62
     0
 10
3933.7706111071152
 20
-250.51394068101291
 30
0.0
 11
3938.2607391676488
 21
-246.02381262047831
 31
0.0
  0
LINE
  5
12B20E
  8
0
 62
     0
 10
4041.533684559944
 20
-133.77061110711401
 30
0.0
 11
4046.023812620479
 21
-129.28048304657941
 31
0.0
  0
LINE
  5
12B20F
  8
0
 62
     0
 10
3933.7706111071152
 20
-241.53368455994359
 30
0.0
 11
3936.0766638622199
 21
-239.22763180484009
 31
0.0
  0
LINE
  5
12B210
  8
0
 62
     0
 10
3928.8301234984651
 20
-246.47417216859409
 30
0.0
 11
3929.2804830465811
 21
-246.0238126204782
 31
0.0
  0
LINE
  5
12B211
  8
0
 62
     0
 10
4033.4510088449092
 20
-132.87303070108121
 30
0.0
 11
4037.04355649941
 21
-129.28048304657929
 31
0.0
  0
LINE
  5
12B212
  8
0
 62
     0
 10
3925.4646851562661
 20
-240.85935438972501
 30
0.0
 11
3929.2804830465811
 21
-237.04355649940939
 31
0.0
  0
LINE
  5
12B213
  8
0
 62
     0
 10
4032.5534284388759
 20
-124.7903549860448
 30
0.0
 11
4034.8645228741611
 21
-122.4792605507588
 31
0.0
  0
LINE
  5
12B214
  8
0
 62
     0
 10
4027.2271365051188
 20
-130.11664691980121
 30
0.0
 11
4028.063300378341
 21
-129.28048304657941
 31
0.0
  0
LINE
  5
12B215
  8
0
 62
     0
 10
3924.7903549860471
 20
-232.5534284388745
 30
0.0
 11
3929.2804830465811
 21
-228.0633003783399
 31
0.0
  0
LINE
  5
12B216
  8
0
 62
     0
 10
4023.573172317806
 20
-124.7903549860448
 30
0.0
 11
4028.063300378341
 21
-120.3002269255102
 31
0.0
  0
LINE
  5
12B217
  8
0
 62
     0
 10
3924.7903549860471
 20
-223.57317231780559
 30
0.0
 11
3927.8577021733058
 21
-220.50582513054559
 31
0.0
  0
LINE
  5
12B218
  8
0
 62
     0
 10
3919.905445870826
 20
-228.45808143302551
 30
0.0
 11
3920.3002269255112
 21
-228.0633003783401
 31
0.0
  0
LINE
  5
12B219
  8
0
 62
     0
 10
4014.592916196737
 20
-124.7903549860449
 30
0.0
 11
4019.0830442572701
 21
-120.3002269255104
 31
0.0
  0
LINE
  5
12B21A
  8
0
 62
     0
 10
3924.7903549860471
 20
-214.59291619673641
 30
0.0
 11
3926.172639200448
 21
-213.21063198233429
 31
0.0
  0
LINE
  5
12B21B
  8
0
 62
     0
 10
3917.788812480554
 20
-221.59445870222919
 30
0.0
 11
3920.3002269255112
 21
-219.08304425727101
 31
0.0
  0
LINE
  5
12B21C
  8
0
 62
     0
 10
4005.6126600756679
 20
-124.7903549860446
 30
0.0
 11
4010.102788136202
 21
-120.3002269255101
 31
0.0
  0
LINE
  5
12B21D
  8
0
 62
     0
 10
3924.7903549860471
 20
-205.61266007566701
 30
0.0
 11
3925.181950788246
 21
-205.2210642734662
 31
0.0
  0
LINE
  5
12B21E
  8
0
 62
     0
 10
3916.1957433609659
 20
-214.20727170074721
 30
0.0
 11
3920.3002269255121
 21
-210.10278813620161
 31
0.0
  0
LINE
  5
12B21F
  8
0
 62
     0
 10
3996.6324039545989
 20
-124.7903549860448
 30
0.0
 11
4000.0
 21
-121.422758940644
 31
0.0
  0
LINE
  5
12B220
  8
0
 62
     0
 10
3924.7903549860471
 20
-196.63240395459809
 30
0.0
 11
3925.0896965107122
 21
-196.33306242993169
 31
0.0
  0
LINE
  5
12B221
  8
0
 62
     0
 10
4005.6126600756679
 20
-115.8100988649755
 30
0.0
 11
4006.1965891199989
 21
-115.2261698206452
 31
0.0
  0
LINE
  5
12B222
  8
0
 62
     0
 10
4000.0
 20
-121.4227589406439
 30
0.0
 11
4001.1225320151329
 21
-120.3002269255101
 31
0.0
  0
LINE
  5
12B223
  8
0
 62
     0
 10
3915.8100988649771
 20
-205.61266007566701
 30
0.0
 11
3920.3002269255121
 21
-201.12253201513249
 31
0.0
  0
LINE
  5
12B224
  8
0
 62
     0
 10
3996.6324039545989
 20
-115.8100988649758
 30
0.0
 11
3997.402814904573
 21
-115.0396879150022
 31
0.0
  0
LINE
  5
12B225
  8
0
 62
     0
 10
3987.6521478335299
 20
-124.790354986045
 30
0.0
 11
3992.1422758940639
 21
-120.3002269255104
 31
0.0
  0
LINE
  5
12B226
  8
0
 62
     0
 10
3924.7903549860471
 20
-187.65214783352911
 30
0.0
 11
3926.2893090759699
 21
-186.1531937436045
 31
0.0
  0
LINE
  5
12B227
  8
0
 62
     0
 10
3915.8100988649771
 20
-196.6324039545982
 30
0.0
 11
3920.3002269255112
 21
-192.14227589406369
 31
0.0
  0
LINE
  5
12B228
  8
0
 62
     0
 10
3978.6718917124599
 20
-124.7903549860448
 30
0.0
 11
3983.1620197729949
 21
-120.3002269255103
 31
0.0
  0
LINE
  5
12B229
  8
0
 62
     0
 10
3973.6996359724371
 20
-129.7626107260684
 30
0.0
 11
3974.1817636519258
 21
-129.28048304657941
 31
0.0
  0
LINE
  5
12B22A
  8
0
 62
     0
 10
3924.7903549860471
 20
-178.67189171246
 30
0.0
 11
3929.2804830465811
 21
-174.18176365192551
 31
0.0
  0
LINE
  5
12B22B
  8
0
 62
     0
 10
3915.9175009846422
 20
-187.5447457138637
 30
0.0
 11
3920.3002269255121
 21
-183.1620197729946
 31
0.0
  0
LINE
  5
12B22C
  8
0
 62
     0
 10
3969.6916355913918
 20
-124.790354986045
 30
0.0
 11
3974.1817636519258
 21
-120.3002269255104
 31
0.0
  0
LINE
  5
12B22D
  8
0
 62
     0
 10
3960.7113794703232
 20
-133.77061110711409
 30
0.0
 11
3965.2015075308568
 21
-129.28048304657941
 31
0.0
  0
LINE
  5
12B22E
  8
0
 62
     0
 10
3952.6249921196049
 20
-141.85699845783171
 30
0.0
 11
3956.2212514097891
 21
-138.26073916764869
 31
0.0
  0
LINE
  5
12B22F
  8
0
 62
     0
 10
3933.7706111071152
 20
-160.7113794703217
 30
0.0
 11
3938.2607391676488
 21
-156.2212514097871
 31
0.0
  0
LINE
  5
12B230
  8
0
 62
     0
 10
3924.7903549860471
 20
-169.69163559139079
 30
0.0
 11
3929.2804830465811
 21
-165.20150753085619
 31
0.0
  0
LINE
  5
12B231
  8
0
 62
     0
 10
3918.448853619941
 20
-176.0331369574958
 30
0.0
 11
3920.3002269255121
 21
-174.18176365192539
 31
0.0
  0
LINE
  5
12B232
  8
0
 62
     0
 10
3960.7113794703218
 20
-124.7903549860447
 30
0.0
 11
3961.0548776323271
 21
-124.4468568240398
 31
0.0
  0
LINE
  5
12B233
  8
0
 62
     0
 10
3951.7311233492528
 20
-133.77061110711381
 30
0.0
 11
3956.221251409786
 21
-129.28048304657929
 31
0.0
  0
LINE
  5
12B234
  8
0
 62
     0
 10
3942.7508672281838
 20
-142.75086722818301
 30
0.0
 11
3947.2409952887178
 21
-138.26073916764841
 31
0.0
  0
LINE
  5
12B235
  8
0
 62
     0
 10
3933.7706111071152
 20
-151.7311233492521
 30
0.0
 11
3938.2607391676488
 21
-147.24099528871761
 31
0.0
  0
LINE
  5
12B236
  8
0
 62
     0
 10
3924.7903549860471
 20
-160.7113794703213
 30
0.0
 11
3929.2804830465811
 21
-156.2212514097867
 31
0.0
  0
LINE
  5
12B237
  8
0
 62
     0
 10
4043.2174825826451
 20
-270.15825094585188
 30
0.0
 11
4047.7076106431782
 21
-265.6681228853173
 31
0.0
  0
LINE
  5
12B238
  8
0
 62
     0
 10
4036.7132388148038
 20
-276.66249471369321
 30
0.0
 11
4038.7273545221101
 21
-274.64837900638639
 31
0.0
  0
LINE
  5
12B239
  8
0
 62
     0
 10
4034.2372264615742
 20
-270.1582509458521
 30
0.0
 11
4038.7273545221101
 21
-265.66812288531747
 31
0.0
  0
LINE
  5
12B23A
  8
0
 62
     0
 10
4025.2569703405052
 20
-279.13850706692131
 30
0.0
 11
4029.7470984010411
 21
-274.64837900638668
 31
0.0
  0
LINE
  5
12B23B
  8
0
 62
     0
 10
4016.2767142194361
 20
-279.13850706692102
 30
0.0
 11
4020.766842279972
 21
-274.64837900638651
 31
0.0
  0
LINE
  5
12B23C
  8
0
 62
     0
 10
4011.1496582016271
 20
-284.26556308473062
 30
0.0
 11
4011.786586158903
 21
-283.6286351274556
 31
0.0
  0
LINE
  5
12B23D
  8
0
 62
     0
 10
4007.2964580983689
 20
-279.13850706692102
 30
0.0
 11
4011.786586158903
 21
-274.64837900638639
 31
0.0
  0
LINE
  5
12B23E
  8
0
 62
     0
 10
4001.447287476341
 20
-284.98767768894908
 30
0.0
 11
4002.806330037834
 21
-283.62863512745548
 31
0.0
  0
LINE
  5
12B23F
  8
0
 62
     0
 10
4000.0
 20
-277.45470904422041
 30
0.0
 11
4002.4962627400669
 21
-274.95844630415212
 31
0.0
  0
LINE
  5
12B240
  8
0
 62
     0
 10
3998.3162019772999
 20
-279.13850706692102
 30
0.0
 11
4000.0
 21
-277.45470904422029
 31
0.0
  0
LINE
  5
12B241
  8
0
 62
     0
 10
3992.7633249803198
 20
-284.69138406390198
 30
0.0
 11
3993.8260739167658
 21
-283.6286351274556
 31
0.0
  0
LINE
  5
12B242
  8
0
 62
     0
 10
3989.33594585623
 20
-279.13850706692131
 30
0.0
 11
3993.7364570340851
 21
-274.73799588906581
 31
0.0
  0
LINE
  5
12B243
  8
0
 62
     0
 10
3984.8377090123272
 20
-283.6367439108252
 30
0.0
 11
3984.8458177956959
 21
-283.62863512745582
 31
0.0
  0
LINE
  5
12B244
  8
0
 62
     0
 10
3980.3556897351609
 20
-279.13850706692108
 30
0.0
 11
3984.8458177956959
 21
-274.64837900638651
 31
0.0
  0
LINE
  5
12B245
  8
0
 62
     0
 10
3971.3754336140919
 20
-279.13850706692131
 30
0.0
 11
3975.8655616746269
 21
-274.64837900638668
 31
0.0
  0
LINE
  5
12B246
  8
0
 62
     0
 10
3971.3754336140919
 20
-270.15825094585222
 30
0.0
 11
3971.9689093143361
 21
-269.56477524560819
 31
0.0
  0
LINE
  5
12B247
  8
0
 62
     0
 10
3964.3643754747118
 20
-277.16930908523398
 30
0.0
 11
3966.8853055535569
 21
-274.64837900638668
 31
0.0
  0
LINE
  5
12B248
  8
0
 62
     0
 10
3962.3951774930229
 20
-270.15825094585188
 30
0.0
 11
3965.803269971806
 21
-266.75015846706839
 31
0.0
  0
LINE
  5
12B249
  8
0
 62
     0
 10
3953.4149213719538
 20
-270.15825094585188
 30
0.0
 11
3957.9050494324879
 21
-265.66812288531742
 31
0.0
  0
LINE
  5
12B24A
  8
0
 62
     0
 10
3953.4149213719538
 20
-261.17799482478279
 30
0.0
 11
3954.767783079682
 21
-259.82513311705378
 31
0.0
  0
LINE
  5
12B24B
  8
0
 62
     0
 10
3947.636909833077
 20
-266.95600636366009
 30
0.0
 11
3948.9247933114189
 21
-265.66812288531742
 31
0.0
  0
LINE
  5
12B24C
  8
0
 62
     0
 10
3944.4346652508839
 20
-261.17799482478318
 30
0.0
 11
3948.9247933114189
 21
-256.6878667642485
 31
0.0
  0
LINE
  5
12B24D
  8
0
 62
     0
 10
3944.4346652508839
 20
-252.1977387037137
 30
0.0
 11
3945.3099304217681
 21
-251.32247353283
 31
0.0
  0
LINE
  5
12B24E
  8
0
 62
     0
 10
3938.2357157590709
 20
-258.39668819552708
 30
0.0
 11
3939.9445371903498
 21
-256.68786676424838
 31
0.0
  0
LINE
  5
12B24F
  8
0
 62
     0
 10
4052.1977387037132
 20
-135.45440912981459
 30
0.0
 11
4053.612214758256
 21
-134.0399330752719
 31
0.0
  0
LINE
  5
12B250
  8
0
 62
     0
 10
3935.4544091298148
 20
-252.19773870371341
 30
0.0
 11
3939.9445371903498
 21
-247.70761064317881
 31
0.0
  0
LINE
  5
12B251
  8
0
 62
     0
 10
4043.2174825826451
 20
-135.45440912981471
 30
0.0
 11
4047.7076106431782
 21
-130.9642810692801
 31
0.0
  0
LINE
  5
12B252
  8
0
 62
     0
 10
3935.4544091298148
 20
-243.21748258264469
 30
0.0
 11
3937.3861821491769
 21
-241.28570956328349
 31
0.0
  0
LINE
  5
12B253
  8
0
 62
     0
 10
3930.1854771411081
 20
-248.48641457135241
 30
0.0
 11
3930.9642810692808
 21
-247.70761064317929
 31
0.0
  0
LINE
  5
12B254
  8
0
 62
     0
 10
4035.6675726032449
 20
-134.02406298814469
 30
0.0
 11
4038.7273545221101
 21
-130.96428106928059
 31
0.0
  0
LINE
  5
12B255
  8
0
 62
     0
 10
3926.683538252003
 20
-243.00809733938831
 30
0.0
 11
3930.9642810692808
 21
-238.7273545221102
 31
0.0
  0
LINE
  5
12B256
  8
0
 62
     0
 10
4034.2372264615742
 20
-126.4741530087455
 30
0.0
 11
4037.158868116469
 21
-123.5525113538519
 31
0.0
  0
LINE
  5
12B257
  8
0
 62
     0
 10
4029.6162325074311
 20
-131.0951469628892
 30
0.0
 11
4029.7470984010411
 21
-130.9642810692801
 31
0.0
  0
LINE
  5
12B258
  8
0
 62
     0
 10
3926.4741530087458
 20
-234.23722646157529
 30
0.0
 11
3930.9642810692808
 21
-229.7470984010408
 31
0.0
  0
LINE
  5
12B259
  8
0
 62
     0
 10
4025.256970340507
 20
-126.4741530087452
 30
0.0
 11
4029.7470984010411
 21
-121.9840249482106
 31
0.0
  0
LINE
  5
12B25A
  8
0
 62
     0
 10
3926.4741530087458
 20
-225.256970340506
 30
0.0
 11
3928.6423800080051
 21
-223.08874334124749
 31
0.0
  0
LINE
  5
12B25B
  8
0
 62
     0
 10
3920.8198635073882
 20
-230.91125984186439
 30
0.0
 11
3921.9840249482108
 21
-229.7470984010406
 31
0.0
  0
LINE
  5
12B25C
  8
0
 62
     0
 10
4016.2767142194361
 20
-126.4741530087455
 30
0.0
 11
4020.766842279972
 21
-121.9840249482109
 31
0.0
  0
LINE
  5
12B25D
  8
0
 62
     0
 10
3926.4741530087458
 20
-216.276714219437
 30
0.0
 11
3926.7309020428152
 21
-216.01996518536791
 31
0.0
  0
LINE
  5
12B25E
  8
0
 62
     0
 10
3918.5253229309651
 20
-224.22554429721771
 30
0.0
 11
3921.9840249482108
 21
-220.7668422799716
 31
0.0
  0
LINE
  5
12B25F
  8
0
 62
     0
 10
4016.2767142194361
 20
-117.4938968876765
 30
0.0
 11
4017.0442231228062
 21
-116.72638798430749
 31
0.0
  0
LINE
  5
12B260
  8
0
 62
     0
 10
4008.3089342178669
 20
-125.4616768892453
 30
0.0
 11
4011.786586158903
 21
-121.984024948211
 31
0.0
  0
LINE
  5
12B261
  8
0
 62
     0
 10
3917.4938968876768
 20
-216.27671421943711
 30
0.0
 11
3921.9840249482108
 21
-211.78658615890251
 31
0.0
  0
LINE
  5
12B262
  8
0
 62
     0
 10
3999.7900611566838
 20
-125.0002938293609
 30
0.0
 11
4000.0
 21
-124.7903549860448
 31
0.0
  0
LINE
  5
12B263
  8
0
 62
     0
 10
4007.2964580983689
 20
-117.4938968876765
 30
0.0
 11
4009.2820341185061
 21
-115.50832086753741
 31
0.0
  0
LINE
  5
12B264
  8
0
 62
     0
 10
4000.0
 20
-124.7903549860449
 30
0.0
 11
4002.806330037834
 21
-121.9840249482111
 31
0.0
  0
LINE
  5
12B265
  8
0
 62
     0
 10
3917.4938968876768
 20
-207.29645809836811
 30
0.0
 11
3921.9840249482108
 21
-202.8063300378335
 31
0.0
  0
LINE
  5
12B266
  8
0
 62
     0
 10
3998.316201977299
 20
-117.4938968876764
 30
0.0
 11
4000.0
 21
-115.8100988649757
 31
0.0
  0
LINE
  5
12B267
  8
0
 62
     0
 10
3990.1620662926812
 20
-125.6480325722948
 30
0.0
 11
3993.826073916764
 21
-121.984024948211
 31
0.0
  0
LINE
  5
12B268
  8
0
 62
     0
 10
3917.4938968876768
 20
-198.3162019772989
 30
0.0
 11
3921.9840249482108
 21
-193.82607391676439
 31
0.0
  0
LINE
  5
12B269
  8
0
 62
     0
 10
4000.0
 20
-115.8100988649756
 30
0.0
 11
4000.8062747846711
 21
-115.0038240803046
 31
0.0
  0
LINE
  5
12B26A
  8
0
 62
     0
 10
3989.3359458562309
 20
-117.493896887676
 30
0.0
 11
3991.3929472450659
 21
-115.4368954988411
 31
0.0
  0
LINE
  5
12B26B
  8
0
 62
     0
 10
3980.3556897351609
 20
-126.4741530087452
 30
0.0
 11
3984.8458177956959
 21
-121.9840249482106
 31
0.0
  0
LINE
  5
12B26C
  8
0
 62
     0
 10
3926.4741530087458
 20
-180.3556897351605
 30
0.0
 11
3928.0706823970172
 21
-178.75916034689041
 31
0.0
  0
LINE
  5
12B26D
  8
0
 62
     0
 10
3917.4938968876768
 20
-189.33594585622961
 30
0.0
 11
3921.9840249482122
 21
-184.84581779569501
 31
0.0
  0
LINE
  5
12B26E
  8
0
 62
     0
 10
3980.3556897351609
 20
-117.4938968876763
 30
0.0
 11
3980.6079633188342
 21
-117.2416233040032
 31
0.0
  0
LINE
  5
12B26F
  8
0
 62
     0
 10
3971.3754336140919
 20
-126.4741530087454
 30
0.0
 11
3975.8655616746269
 21
-121.9840249482109
 31
0.0
  0
LINE
  5
12B270
  8
0
 62
     0
 10
3963.201461750476
 20
-134.6481248723619
 30
0.0
 11
3966.8853055535569
 21
-130.96428106927999
 31
0.0
  0
LINE
  5
12B271
  8
0
 62
     0
 10
3926.4741530087458
 20
-171.37543361409121
 30
0.0
 11
3930.9642810692808
 21
-166.88530555355661
 31
0.0
  0
LINE
  5
12B272
  8
0
 62
     0
 10
3917.4938968876768
 20
-180.35568973516041
 30
0.0
 11
3921.9840249482122
 21
-175.86556167462581
 31
0.0
  0
LINE
  5
12B273
  8
0
 62
     0
 10
3962.395177493021
 20
-126.4741530087453
 30
0.0
 11
3966.8853055535569
 21
-121.9840249482107
 31
0.0
  0
LINE
  5
12B274
  8
0
 62
     0
 10
3953.4149213719529
 20
-135.45440912981451
 30
0.0
 11
3957.9050494324879
 21
-130.96428106927991
 31
0.0
  0
LINE
  5
12B275
  8
0
 62
     0
 10
3944.4346652508839
 20
-144.4346652508836
 30
0.0
 11
3948.9247933114189
 21
-139.944537190349
 31
0.0
  0
LINE
  5
12B276
  8
0
 62
     0
 10
3935.4544091298148
 20
-153.4149213719528
 30
0.0
 11
3939.9445371903498
 21
-148.9247933114182
 31
0.0
  0
LINE
  5
12B277
  8
0
 62
     0
 10
3926.4741530087458
 20
-162.39517749302181
 30
0.0
 11
3930.9642810692808
 21
-157.90504943248729
 31
0.0
  0
LINE
  5
12B278
  8
0
 62
     0
 10
3921.5219269985778
 20
-167.34740350319089
 30
0.0
 11
3921.9840249482108
 21
-166.88530555355641
 31
0.0
  0
LINE
  5
12B279
  8
0
 62
     0
 10
3937.527641098512
 20
-142.3614332821879
 30
0.0
 11
3939.9445371903498
 21
-139.94453719034919
 31
0.0
  0
LINE
  5
12B27A
  8
0
 62
     0
 10
4053.8815367264142
 20
-262.8617928474834
 30
0.0
 11
4054.7433295738979
 21
-261.99999999999932
 31
0.0
  0
LINE
  5
12B27B
  8
0
 62
     0
 10
4044.9012806053461
 20
-271.84204896855249
 30
0.0
 11
4049.3914086658801
 21
-267.35192090801797
 31
0.0
  0
LINE
  5
12B27C
  8
0
 62
     0
 10
4044.9012806053461
 20
-262.861792847483
 30
0.0
 11
4045.7630734528302
 21
-261.99999999999898
 31
0.0
  0
LINE
  5
12B27D
  8
0
 62
     0
 10
4035.9210244842761
 20
-271.84204896855209
 30
0.0
 11
4040.411152544812
 21
-267.35192090801758
 31
0.0
  0
LINE
  5
12B27E
  8
0
 62
     0
 10
4027.2492255236671
 20
-280.51384792916173
 30
0.0
 11
4031.4308964237421
 21
-276.33217702908672
 31
0.0
  0
LINE
  5
12B27F
  8
0
 62
     0
 10
4026.9407683632062
 20
-271.84204896855238
 30
0.0
 11
4030.0784920037072
 21
-268.70432532805171
 31
0.0
  0
LINE
  5
12B280
  8
0
 62
     0
 10
4017.9605122421381
 20
-280.82230508962152
 30
0.0
 11
4022.450640302673
 21
-276.33217702908701
 31
0.0
  0
LINE
  5
12B281
  8
0
 62
     0
 10
4008.980256121069
 20
-280.8223050896213
 30
0.0
 11
4013.4703841816022
 21
-276.33217702908678
 31
0.0
  0
LINE
  5
12B282
  8
0
 62
     0
 10
4000.0
 20
-280.8223050896213
 30
0.0
 11
4004.4901280605341
 21
-276.33217702908678
 31
0.0
  0
LINE
  5
12B283
  8
0
 62
     0
 10
3991.0197438789319
 20
-280.82230508962141
 30
0.0
 11
3995.5098719394659
 21
-276.33217702908678
 31
0.0
  0
LINE
  5
12B284
  8
0
 62
     0
 10
3982.039487757861
 20
-280.82230508962152
 30
0.0
 11
3986.529615818396
 21
-276.33217702908689
 31
0.0
  0
LINE
  5
12B285
  8
0
 62
     0
 10
3973.212796132721
 20
-280.66874059369371
 30
0.0
 11
3977.5493596973279
 21
-276.33217702908701
 31
0.0
  0
LINE
  5
12B286
  8
0
 62
     0
 10
3973.059231636792
 20
-271.84204896855238
 30
0.0
 11
3974.4041133730389
 21
-270.4971672323058
 31
0.0
  0
LINE
  5
12B287
  8
0
 62
     0
 10
3966.6969969239681
 20
-278.20428368137863
 30
0.0
 11
3968.569103576257
 21
-276.33217702908701
 31
0.0
  0
LINE
  5
12B288
  8
0
 62
     0
 10
3964.0789755157239
 20
-271.84204896855277
 30
0.0
 11
3968.0614140538951
 21
-267.85961043038139
 31
0.0
  0
LINE
  5
12B289
  8
0
 62
     0
 10
3955.098719394653
 20
-271.84204896855238
 30
0.0
 11
3959.5888474551889
 21
-267.3519209080178
 31
0.0
  0
LINE
  5
12B28A
  8
0
 62
     0
 10
3955.098719394653
 20
-262.861792847483
 30
0.0
 11
3956.7131058256882
 21
-261.24740641644962
 31
0.0
  0
LINE
  5
12B28B
  8
0
 62
     0
 10
3949.550844210803
 20
-268.40966803133369
 30
0.0
 11
3950.6085913341199
 21
-267.35192090801752
 31
0.0
  0
LINE
  5
12B28C
  8
0
 62
     0
 10
3946.1184632735858
 20
-262.86179284748312
 30
0.0
 11
3950.6085913341199
 21
-258.37166478694849
 31
0.0
  0
LINE
  5
12B28D
  8
0
 62
     0
 10
3946.1184632735858
 20
-253.881536726414
 30
0.0
 11
3946.9669914110091
 21
-253.0330085889901
 31
0.0
  0
LINE
  5
12B28E
  8
0
 62
     0
 10
3939.8959235991442
 20
-260.1040764008556
 30
0.0
 11
3941.6283352130508
 21
-258.37166478694849
 31
0.0
  0
LINE
  5
12B28F
  8
0
 62
     0
 10
4053.8815367264142
 20
-137.13820715251521
 30
0.0
 11
4055.4459941864038
 21
-135.57374969252569
 31
0.0
  0
LINE
  5
12B290
  8
0
 62
     0
 10
3937.1382071525159
 20
-253.881536726414
 30
0.0
 11
3941.6283352130508
 21
-249.3914086658794
 31
0.0
  0
LINE
  5
12B291
  8
0
 62
     0
 10
4044.9012806053461
 20
-137.13820715251561
 30
0.0
 11
4049.3914086658801
 21
-132.648079091981
 31
0.0
  0
LINE
  5
12B292
  8
0
 62
     0
 10
3937.1382071525159
 20
-244.90128060534491
 30
0.0
 11
3938.7525935835511
 21
-243.2868941743113
 31
0.0
  0
LINE
  5
12B293
  8
0
 62
     0
 10
3931.5903319686659
 20
-250.4491557891954
 30
0.0
 11
3932.6480790919818
 21
-249.39140866587951
 31
0.0
  0
LINE
  5
12B294
  8
0
 62
     0
 10
4044.9012806053461
 20
-128.15795103144609
 30
0.0
 11
4045.1047705343681
 21
-127.95446110242381
 31
0.0
  0
LINE
  5
12B295
  8
0
 62
     0
 10
4037.8233654376231
 20
-135.2358661991679
 30
0.0
 11
4040.4111525448111
 21
-132.64807909198069
 31
0.0
  0
LINE
  5
12B296
  8
0
 62
     0
 10
3928.1579510314468
 20
-244.90128060534491
 30
0.0
 11
3932.6480790919818
 21
-240.41115254481039
 31
0.0
  0
LINE
  5
12B297
  8
0
 62
     0
 10
4035.9210244842761
 20
-128.15795103144561
 30
0.0
 11
4039.3973119843781
 21
-124.6816635313438
 31
0.0
  0
LINE
  5
12B298
  8
0
 62
     0
 10
3928.1579510314468
 20
-235.9210244842757
 30
0.0
 11
3932.140389569618
 21
-231.93858594610509
 31
0.0
  0
LINE
  5
12B299
  8
0
 62
     0
 10
4026.9407683632062
 20
-128.157951031446
 30
0.0
 11
4031.4308964237398
 21
-123.6678229709114
 31
0.0
  0
LINE
  5
12B29A
  8
0
 62
     0
 10
3928.1579510314468
 20
-226.94076836320639
 30
0.0
 11
3929.5028327676951
 21
-225.59588662695961
 31
0.0
  0
LINE
  5
12B29B
  8
0
 62
     0
 10
3921.795716318622
 20
-233.30300307603281
 30
0.0
 11
3923.6678229709119
 21
-231.4308964237409
 31
0.0
  0
LINE
  5
12B29C
  8
0
 62
     0
 10
4018.7395884655198
 20
-127.3788748080627
 30
0.0
 11
4022.450640302673
 21
-123.6678229709112
 31
0.0
  0
LINE
  5
12B29D
  8
0
 62
     0
 10
3919.331259406305
 20
-226.78720386727881
 30
0.0
 11
3923.6678229709119
 21
-222.4506403026721
 31
0.0
  0
LINE
  5
12B29E
  8
0
 62
     0
 10
4017.9605122421381
 20
-119.1776949103768
 30
0.0
 11
4019.799941457361
 21
-117.3382656951527
 31
0.0
  0
LINE
  5
12B29F
  8
0
 62
     0
 10
4011.284425768652
 20
-125.85378138386331
 30
0.0
 11
4013.4703841816022
 21
-123.6678229709113
 31
0.0
  0
LINE
  5
12B2A0
  8
0
 62
     0
 10
3919.1776949103769
 20
-217.9605122421377
 30
0.0
 11
3923.6678229709119
 21
-213.47038418160309
 31
0.0
  0
LINE
  5
12B2A1
  8
0
 62
     0
 10
4008.980256121069
 20
-119.1776949103765
 30
0.0
 11
4012.2679784105749
 21
-115.88997262087111
 31
0.0
  0
LINE
  5
12B2A2
  8
0
 62
     0
 10
4003.0941007878541
 20
-125.0638502435924
 30
0.0
 11
4004.490128060535
 21
-123.6678229709111
 31
0.0
  0
LINE
  5
12B2A3
  8
0
 62
     0
 10
3919.1776949103769
 20
-208.98025612106821
 30
0.0
 11
3923.6678229709119
 21
-204.49012806053369
 31
0.0
  0
LINE
  5
12B2A4
  8
0
 62
     0
 10
3993.9318052486001
 20
-125.245889661777
 30
0.0
 11
3995.5098719394659
 21
-123.6678229709112
 31
0.0
  0
LINE
  5
12B2A5
  8
0
 62
     0
 10
3919.1776949103769
 20
-199.99999999999909
 30
0.0
 11
3923.6678229709119
 21
-195.5098719394644
 31
0.0
  0
LINE
  5
12B2A6
  8
0
 62
     0
 10
4000.0
 20
-119.1776949103767
 30
0.0
 11
4004.0797313529042
 21
-115.0979635574724
 31
0.0
  0
LINE
  5
12B2A7
  8
0
 62
     0
 10
3991.0197438789319
 20
-119.1776949103768
 30
0.0
 11
3995.0533812002559
 21
-115.1440575890517
 31
0.0
  0
LINE
  5
12B2A8
  8
0
 62
     0
 10
3983.3188363327549
 20
-126.87860245655401
 30
0.0
 11
3986.529615818396
 21
-123.6678229709114
 31
0.0
  0
LINE
  5
12B2A9
  8
0
 62
     0
 10
3919.1776949103769
 20
-191.0197438789302
 30
0.0
 11
3923.6678229709119
 21
-186.52961581839551
 31
0.0
  0
LINE
  5
12B2AA
  8
0
 62
     0
 10
3982.039487757861
 20
-119.1776949103769
 30
0.0
 11
3984.8575146748631
 21
-116.359667993377
 31
0.0
  0
LINE
  5
12B2AB
  8
0
 62
     0
 10
3973.059231636792
 20
-128.15795103144609
 30
0.0
 11
3977.5493596973279
 21
-123.6678229709115
 31
0.0
  0
LINE
  5
12B2AC
  8
0
 62
     0
 10
3928.1579510314468
 20
-173.05923163679179
 30
0.0
 11
3931.2956746719469
 21
-169.92150799629059
 31
0.0
  0
LINE
  5
12B2AD
  8
0
 62
     0
 10
3919.1776949103769
 20
-182.03948775786091
 30
0.0
 11
3923.6678229709119
 21
-177.54935969732631
 31
0.0
  0
LINE
  5
12B2AE
  8
0
 62
     0
 10
3964.0789755157239
 20
-128.1579510314458
 30
0.0
 11
3968.569103576257
 21
-123.6678229709113
 31
0.0
  0
LINE
  5
12B2AF
  8
0
 62
     0
 10
3955.098719394653
 20
-137.13820715251509
 30
0.0
 11
3959.588847455188
 21
-132.64807909198041
 31
0.0
  0
LINE
  5
12B2B0
  8
0
 62
     0
 10
3946.1184632735858
 20
-146.1184632735841
 30
0.0
 11
3950.6085913341199
 21
-141.62833521304961
 31
0.0
  0
LINE
  5
12B2B1
  8
0
 62
     0
 10
3937.1382071525159
 20
-155.09871939465339
 30
0.0
 11
3941.6283352130499
 21
-150.60859133411881
 31
0.0
  0
LINE
  5
12B2B2
  8
0
 62
     0
 10
3928.1579510314468
 20
-164.0789755157225
 30
0.0
 11
3932.6480790919818
 21
-159.5888474551879
 31
0.0
  0
LINE
  5
12B2B3
  8
0
 62
     0
 10
3919.4861520708369
 20
-172.7507744763318
 30
0.0
 11
3923.6678229709119
 21
-168.56910357625711
 31
0.0
  0
LINE
  5
12B2B4
  8
0
 62
     0
 10
3955.098719394653
 20
-128.15795103144549
 30
0.0
 11
3955.9548403695771
 21
-127.30183005652231
 31
0.0
  0
LINE
  5
12B2B5
  8
0
 62
     0
 10
3946.1184632735858
 20
-137.1382071525147
 30
0.0
 11
3950.6085913341199
 21
-132.64807909198001
 31
0.0
  0
LINE
  5
12B2B6
  8
0
 62
     0
 10
3937.1382071525159
 20
-146.11846327358381
 30
0.0
 11
3941.6283352130508
 21
-141.62833521304921
 31
0.0
  0
LINE
  5
12B2B7
  8
0
 62
     0
 10
3928.1579510314468
 20
-155.09871939465299
 30
0.0
 11
3932.6480790919818
 21
-150.60859133411839
 31
0.0
  0
ENDBLK
  5
12B2B9
  8
0
  0
BLOCK
  8
0
  2
*U28
 70
     1
 10
0.0
 20
0.0
 30
0.0
  3
*U28
  1

  0
TEXT
  5
12B2BB
  8
SLIM
 10
509.0476190477408
 20
-586.75000000000955
 30
0.0
 40
26.0
  1
100
  0
ENDBLK
  5
12B2BD
  8
0
  0
BLOCK
  8
0
  2
*U29
 70
     1
 10
0.0
 20
0.0
 30
0.0
  3
*U29
  1

  0
TEXT
  5
12B2BF
  8
SLIM
 10
158.9523809524228
 20
-594.00000000000955
 30
0.0
 40
26.0
  1
75
  0
ENDBLK
  5
12B2C1
  8
0
  0
BLOCK
  8
0
  2
*U30
 70
     1
 10
0.0
 20
0.0
 30
0.0
  3
*U30
  1

  0
TEXT
  5
12B2C3
  8
SLIM
 10
518.95238095250295
 20
-130.00000000000321
 30
0.0
 40
26.0
  1
65
  0
ENDBLK
  5
12B2C5
  8
0
  0
BLOCK
  8
0
  2
*U31
 70
     1
 10
0.0
 20
0.0
 30
0.0
  3
*U31
  1

  0
TEXT
  5
12B2C7
  8
SLIM
 10
158.9523809524228
 20
-130.00000000000321
 30
0.0
 40
26.0
  1
50
  0
ENDBLK
  5
12B2C9
  8
0
  0
ENDSEC
  0
SECTION
  2
ENTITIES
  0
TEXT
  5
126543
  8
SLIM
 10
-0.0000000000000011
 20
282.5
 30
0.0
 40
35.0
  1
※ 100枝（4）がある場合、品名の最後に【管底】が付きます。
 41
0.9
 11
0.0
 21
300.0
 31
0.0
 73
     2
  0
LINE
  5
129B1B
  8
OBJECT
 10
1825.0
 20
-3764.9999999999968
 30
0.0
 11
5575.0
 21
-3764.9999999999968
 31
0.0
  0
LINE
  5
129B1D
  8
SLIM
 10
2616.0
 20
-2822.50001604727
 30
0.0
 11
2616.0
 21
-3152.50001604727
 31
0.0
  0
LINE
  5
129B1E
  8
SLIM
 10
2740.0
 20
-2822.50001604727
 30
0.0
 11
2740.0
 21
-3152.50001604727
 31
0.0
  0
LINE
  5
129B1F
  8
SLIM
 10
2870.0
 20
-2882.50001604727
 30
0.0
 11
2870.0
 21
-3152.50001604727
 31
0.0
  0
LINE
  5
129B20
  8
SLIM
 10
3000.0
 20
-2882.50001604727
 30
0.0
 11
3000.0
 21
-3152.50001604727
 31
0.0
  0
LINE
  5
129B21
  8
SLIM
 10
3130.0
 20
-3152.50001604727
 30
0.0
 11
3130.0
 21
-2882.50001604727
 31
0.0
  0
LINE
  5
129B22
  8
SLIM
 10
3260.0
 20
-3152.50001604727
 30
0.0
 11
3260.0
 21
-2822.50001604727
 31
0.0
  0
LINE
  5
129B23
  8
SLIM
 10
3260.0
 20
-2822.50001604727
 30
0.0
 11
2616.0
 21
-2822.50001604727
 31
0.0
  0
LINE
  5
129B24
  8
SLIM
 10
3260.0
 20
-2882.50001604727
 30
0.0
 11
2740.0
 21
-2882.50001604727
 31
0.0
  0
LINE
  5
129B25
  8
SLIM
 10
3260.0
 20
-2942.50001604727
 30
0.0
 11
2616.0
 21
-2942.50001604727
 31
0.0
  0
LINE
  5
129B26
  8
SLIM
 10
3260.0
 20
-3012.50001604727
 30
0.0
 11
2616.0
 21
-3012.50001604727
 31
0.0
  0
LINE
  5
129B27
  8
SLIM
 10
3260.0
 20
-3082.50001604727
 30
0.0
 11
2616.0
 21
-3082.50001604727
 31
0.0
  0
LINE
  5
129B28
  8
SLIM
 10
3260.0
 20
-3152.50001604727
 30
0.0
 11
2616.0
 21
-3152.50001604727
 31
0.0
  0
LINE
  5
129B3D
  8
SLIM
 10
2740.0
 20
-2942.50001604727
 30
0.0
 11
2615.9999722746579
 21
-2822.5
 31
0.0
  0
LINE
  5
129B72
  8
OBJECT
 10
5325.0
 20
-3643.9999999999968
 30
0.0
 11
5325.0
 21
-3767.9999999999968
 31
0.0
1001
ACDBBLOCKREPETAG
1070
     1
1071
       26
1005
129B72
  0
LINE
  5
129B73
  8
OBJECT
 10
5475.0
 20
-3643.9999999999968
 30
0.0
 11
5456.7802782663139
 21
-3643.9999999999968
 31
0.0
1001
ACDBBLOCKREPETAG
1070
     1
1071
       30
1005
129B73
  0
LINE
  5
129B74
  8
OBJECT
 10
5475.0
 20
-3643.9999999999968
 30
0.0
 11
5475.0
 21
-3767.9999999999968
 31
0.0
1001
ACDBBLOCKREPETAG
1070
     1
1071
       34
1005
129B74
  0
POINT
  5
129B75
  8
DOTS
 10
5400.0
 20
-3764.9999999999968
 30
0.0
1001
ACDBBLOCKREPETAG
1070
     1
1071
      187
1005
129B75
  0
LINE
  5
129B76
  8
CENTER
 10
5310.0
 20
-3692.9999999999968
 30
0.0
 11
5490.0
 21
-3692.9999999999968
 31
0.0
1001
ACDBBLOCKREPETAG
1070
     1
1071
       23
1005
129B76
  0
CIRCLE
  5
129B77
  8
OBJECT
 10
5400.0
 20
-3692.9999999999968
 30
0.0
 40
53.5
1001
ACDBBLOCKREPETAG
1070
     1
1071
       24
1005
129B77
  0
CIRCLE
  5
129B78
  8
OBJECT
 10
5400.0
 20
-3692.9999999999968
 30
0.0
 40
67.0
1001
ACDBBLOCKREPETAG
1070
     1
1071
       25
1005
129B78
  0
ARC
  5
129B79
  8
OBJECT
 10
5400.0
 20
-3692.9999999999968
 30
0.0
 40
75.0
 50
286.26020470824369
 51
253.73979529175631
1001
ACDBBLOCKREPETAG
1070
     1
1071
       27
1005
129B79
  0
LINE
  5
129B7A
  8
OBJECT
 10
5379.0
 20
-3764.9999999999968
 30
0.0
 11
5421.0
 21
-3764.9999999999968
 31
0.0
1001
ACDBBLOCKREPETAG
1070
     1
1071
       28
1005
129B7A
  0
LINE
  5
129B7B
  8
OBJECT
 10
5343.2197217336861
 20
-3643.9999999999968
 30
0.0
 11
5325.0
 21
-3643.9999999999968
 31
0.0
1001
ACDBBLOCKREPETAG
1070
     1
1071
       30
1005
129B73
  0
LINE
  5
129B98
  8
OBJECT
 10
5460.0
 20
-3637.9999999999968
 30
0.0
 11
5450.9901951359279
 21
-3637.9999999999968
 31
0.0
1001
ACDBBLOCKREPETAG
1070
     1
1071
      215
1005
129B98
  0
LINE
  5
129B99
  8
OBJECT
 10
5349.0098048640721
 20
-3637.9999999999968
 30
0.0
 11
5340.0
 21
-3637.9999999999968
 31
0.0
1001
ACDBBLOCKREPETAG
1070
     1
1071
      215
1005
129B98
  0
ARC
  5
129B9A
  8
OBJECT
 10
5340.0
 20
-3640.9999999999968
 30
0.0
 40
3.0
 50
90.0
 51
180.0
1001
ACDBBLOCKREPETAG
1070
     1
1071
      216
1005
129B9A
  0
LINE
  5
129B9B
  8
OBJECT
 10
5337.0
 20
-3640.9999999999968
 30
0.0
 11
5337.0
 21
-3643.9999999999968
 31
0.0
1001
ACDBBLOCKREPETAG
1070
     1
1071
      217
1005
129B9B
  0
LINE
  5
129B9C
  8
OBJECT
 10
5463.0
 20
-3640.9999999999968
 30
0.0
 11
5463.0
 21
-3643.9999999999968
 31
0.0
1001
ACDBBLOCKREPETAG
1070
     1
1071
      218
1005
129B9C
  0
ARC
  5
129B9D
  8
OBJECT
 10
5460.0
 20
-3640.9999999999968
 30
0.0
 40
3.0
 50
0.0
 51
90.0
1001
ACDBBLOCKREPETAG
1070
     1
1071
      219
1005
129B9D
  0
LINE
  5
129B9E
  8
OBJECT
 10
5343.0
 20
-3569.9999999999968
 30
0.0
 11
5343.0
 21
-3637.9999999999968
 31
0.0
1001
ACDBBLOCKREPETAG
1070
     1
1071
      220
1005
129B9E
  0
LINE
  5
129B9F
  8
OBJECT
 10
5457.0
 20
-3569.9999999999968
 30
0.0
 11
5343.0
 21
-3569.9999999999968
 31
0.0
1001
ACDBBLOCKREPETAG
1070
     1
1071
      221
1005
129B9F
  0
LINE
  5
129BA0
  8
OBJECT
 10
5457.0
 20
-3569.9999999999968
 30
0.0
 11
5457.0
 21
-3637.9999999999968
 31
0.0
1001
ACDBBLOCKREPETAG
1070
     1
1071
      222
1005
129BA0
  0
LINE
  5
129BA1
  8
CENTER
 10
5400.0
 20
-3554.9999999999968
 30
0.0
 11
5400.0
 21
-3779.9999999999968
 31
0.0
1001
ACDBBLOCKREPETAG
1070
     1
1071
      223
1005
129BA1
  0
LINE
  5
129BA2
  8
HIDDEN
 10
5452.5
 20
-3569.9999999999968
 30
0.0
 11
5452.5
 21
-3643.9999999999968
 31
0.0
1001
ACDBBLOCKREPETAG
1070
     1
1071
      224
1005
129BA2
  0
LINE
  5
129BA3
  8
HIDDEN
 10
5347.5
 20
-3569.9999999999968
 30
0.0
 11
5347.5
 21
-3643.9999999999968
 31
0.0
1001
ACDBBLOCKREPETAG
1070
     1
1071
      225
1005
129BA3
  0
CIRCLE
  5
12A0C0
  8
OBJECT
 10
5000.0
 20
-3359.9999999999959
 30
0.0
 40
75.0
1001
ACDBBLOCKREPETAG
1070
     1
1071
      363
1005
12A0C0
  0
CIRCLE
  5
12A0C1
  8
OBJECT
 10
5000.0
 20
-3359.9999999999959
 30
0.0
 40
52.5
1001
ACDBBLOCKREPETAG
1070
     1
1071
      364
1005
12A0C1
  0
CIRCLE
  5
12A0C2
  8
OBJECT
 10
5000.0
 20
-3359.9999999999959
 30
0.0
 40
57.0
1001
ACDBBLOCKREPETAG
1070
     1
1071
      365
1005
12A0C2
  0
LINE
  5
12A0C3
  8
OBJECT
 10
4969.8635289348576
 20
-3402.9888719523969
 30
0.0
 11
4979.8564918232369
 21
-3382.4868825335661
 31
0.0
1001
ACDBBLOCKREPETAG
1070
     1
1071
      381
1005
12A0C3
  0
LINE
  5
12A0C4
  8
OBJECT
 10
4965.7499660391568
 20
-3399.789259526669
 30
0.0
 11
4973.9071022665084
 21
-3383.0537300443038
 31
0.0
1001
ACDBBLOCKREPETAG
1070
     1
1071
      382
1005
12A0C4
  0
LINE
  5
12A0C5
  8
OBJECT
 10
5024.1029330933034
 20
-3403.8069471237141
 30
0.0
 11
5020.6596569999947
 21
-3392.554621999996
 31
0.0
1001
ACDBBLOCKREPETAG
1070
     1
1071
      383
1005
12A0C5
  0
ARC
  5
12A0C6
  8
OBJECT
 10
4976.5796953073141
 20
-3367.128936982841
 30
0.0
 40
60.031113246032611
 50
316.4174422677624
 51
322.33936106089038
1001
ACDBBLOCKREPETAG
1070
     1
1071
      384
1005
12A0C6
  0
LINE
  5
12A0C7
  8
OBJECT
 10
4986.7927499013749
 20
-3378.225533742077
 30
0.0
 11
5020.6596569999947
 21
-3392.5546219999951
 31
0.0
1001
ACDBBLOCKREPETAG
1070
     1
1071
      385
1005
12A0C7
  0
ARC
  5
12A0C8
  8
OBJECT
 10
4982.8961697619006
 20
-3387.4351299990549
 30
0.0
 40
10.0
 50
67.06677829291263
 51
154.01473437029199
1001
ACDBBLOCKREPETAG
1070
     1
1071
      386
1005
12A0C8
  0
ARC
  5
12A0C9
  8
OBJECT
 10
4986.1488390381273
 20
-3385.553862567288
 30
0.0
 40
7.0
 50
67.06677829291263
 51
154.01473377497379
1001
ACDBBLOCKREPETAG
1070
     1
1071
      387
1005
12A0C9
  0
ARC
  5
12A0CA
  8
OBJECT
 10
5000.0
 20
-3359.9999999999959
 30
0.0
 40
50.0
 50
298.81994299999963
 51
228.52376955965599
1001
ACDBBLOCKREPETAG
1070
     1
1071
        7
1005
12A0CA
  0
LINE
  5
12A0CB
  8
CENTER
 10
5080.0
 20
-3359.9999999999959
 30
0.0
 11
4905.0
 21
-3359.9999999999959
 31
0.0
1001
ACDBBLOCKREPETAG
1070
     1
1071
       14
1005
12A0CB
  0
LINE
  5
12A0CC
  8
CENTER
 10
5000.0
 20
-3454.9999999999959
 30
0.0
 11
5000.0
 21
-3264.9999999999968
 31
0.0
1001
ACDBBLOCKREPETAG
1070
     1
1071
       15
1005
12A0CC
  0
ARC
  5
12A0CD
  8
OBJECT
 10
5000.0
 20
-3359.9999999999959
 30
0.0
 40
80.0
 50
50.805032573882329
 51
309.19496742611773
1001
ACDBBLOCKREPETAG
1070
     1
1071
       18
1005
12A0CD
  0
LINE
  5
12A0CE
  8
OBJECT
 10
5042.2018956920174
 20
-3297.9999999999959
 30
0.0
 11
5080.0
 21
-3297.9999999999959
 31
0.0
1001
ACDBBLOCKREPETAG
1070
     1
1071
       19
1005
12A0CE
  0
LINE
  5
12A0CF
  8
OBJECT
 10
5042.2018956920174
 20
-3421.9999999999968
 30
0.0
 11
5080.0
 21
-3421.9999999999968
 31
0.0
1001
ACDBBLOCKREPETAG
1070
     1
1071
       20
1005
12A0CF
  0
POINT
  5
12A0D0
  8
DOTS
 10
5000.0
 20
-3359.9999999999959
 30
0.0
1001
ACDBBLOCKREPETAG
1070
     1
1071
      417
1005
12A0D0
  0
CIRCLE
  5
12A0D1
  8
OBJECT
 10
4000.0
 20
-3359.9999999999959
 30
0.0
 40
75.0
1001
ACDBBLOCKREPETAG
1070
     1
1071
      363
1005
12A0D1
  0
CIRCLE
  5
12A0D2
  8
OBJECT
 10
4000.0
 20
-3359.9999999999959
 30
0.0
 40
52.5
1001
ACDBBLOCKREPETAG
1070
     1
1071
      364
1005
12A0D2
  0
CIRCLE
  5
12A0D3
  8
OBJECT
 10
4000.0
 20
-3359.9999999999959
 30
0.0
 40
57.0
1001
ACDBBLOCKREPETAG
1070
     1
1071
      365
1005
12A0D3
  0
LINE
  5
12A0D4
  8
OBJECT
 10
3969.8635289348599
 20
-3402.9888719523969
 30
0.0
 11
3979.8564918232369
 21
-3382.4868825335661
 31
0.0
1001
ACDBBLOCKREPETAG
1070
     1
1071
      381
1005
12A0D4
  0
LINE
  5
12A0D5
  8
OBJECT
 10
3965.7499660391568
 20
-3399.789259526669
 30
0.0
 11
3973.9071022665089
 21
-3383.0537300443038
 31
0.0
1001
ACDBBLOCKREPETAG
1070
     1
1071
      382
1005
12A0D5
  0
LINE
  5
12A0D6
  8
OBJECT
 10
4024.102933093302
 20
-3403.8069471237141
 30
0.0
 11
4020.6596569999951
 21
-3392.554621999996
 31
0.0
1001
ACDBBLOCKREPETAG
1070
     1
1071
      383
1005
12A0D6
  0
ARC
  5
12A0D7
  8
OBJECT
 10
3976.579695307315
 20
-3367.128936982841
 30
0.0
 40
60.031113246032611
 50
316.41744226774438
 51
322.3393610609063
1001
ACDBBLOCKREPETAG
1070
     1
1071
      384
1005
12A0D7
  0
LINE
  5
12A0D8
  8
OBJECT
 10
3986.7927499013749
 20
-3378.225533742077
 30
0.0
 11
4020.6596569999951
 21
-3392.5546219999951
 31
0.0
1001
ACDBBLOCKREPETAG
1070
     1
1071
      385
1005
12A0D8
  0
ARC
  5
12A0D9
  8
OBJECT
 10
3982.896169761902
 20
-3387.4351299990549
 30
0.0
 40
10.0
 50
67.06677829291263
 51
154.01473437029199
1001
ACDBBLOCKREPETAG
1070
     1
1071
      386
1005
12A0D9
  0
ARC
  5
12A0DA
  8
OBJECT
 10
3986.1488390381278
 20
-3385.553862567288
 30
0.0
 40
7.0
 50
67.06677829291263
 51
154.01473377496239
1001
ACDBBLOCKREPETAG
1070
     1
1071
      387
1005
12A0DA
  0
ARC
  5
12A0DB
  8
OBJECT
 10
4000.0
 20
-3359.9999999999959
 30
0.0
 40
50.0
 50
298.81994299999963
 51
228.52376955967549
1001
ACDBBLOCKREPETAG
1070
     1
1071
        7
1005
12A0DB
  0
LINE
  5
12A0DC
  8
CENTER
 10
4080.0
 20
-3359.9999999999959
 30
0.0
 11
3905.0
 21
-3359.9999999999959
 31
0.0
1001
ACDBBLOCKREPETAG
1070
     1
1071
       14
1005
12A0DC
  0
LINE
  5
12A0DD
  8
CENTER
 10
4000.0
 20
-3454.9999999999959
 30
0.0
 11
4000.0
 21
-3264.9999999999968
 31
0.0
1001
ACDBBLOCKREPETAG
1070
     1
1071
       15
1005
12A0DD
  0
ARC
  5
12A0DE
  8
OBJECT
 10
4000.0
 20
-3359.9999999999959
 30
0.0
 40
80.0
 50
50.805032573862128
 51
309.19496742613791
1001
ACDBBLOCKREPETAG
1070
     1
1071
       18
1005
12A0DE
  0
LINE
  5
12A0DF
  8
OBJECT
 10
4042.2018956920169
 20
-3297.9999999999959
 30
0.0
 11
4080.0
 21
-3297.9999999999959
 31
0.0
1001
ACDBBLOCKREPETAG
1070
     1
1071
       19
1005
12A0DF
  0
LINE
  5
12A0E0
  8
OBJECT
 10
4042.2018956920169
 20
-3421.9999999999968
 30
0.0
 11
4080.0
 21
-3421.9999999999968
 31
0.0
1001
ACDBBLOCKREPETAG
1070
     1
1071
       20
1005
12A0E0
  0
POINT
  5
12A0E1
  8
DOTS
 10
4000.0
 20
-3359.9999999999959
 30
0.0
1001
ACDBBLOCKREPETAG
1070
     1
1071
      417
1005
12A0E1
  0
CIRCLE
  5
12A0E2
  8
OBJECT
 10
3000.0
 20
-3359.9999999999959
 30
0.0
 40
75.0
1001
ACDBBLOCKREPETAG
1070
     1
1071
      363
1005
12A0E2
  0
CIRCLE
  5
12A0E3
  8
OBJECT
 10
3000.0
 20
-3359.9999999999959
 30
0.0
 40
52.5
1001
ACDBBLOCKREPETAG
1070
     1
1071
      364
1005
12A0E3
  0
CIRCLE
  5
12A0E4
  8
OBJECT
 10
3000.0
 20
-3359.9999999999959
 30
0.0
 40
57.0
1001
ACDBBLOCKREPETAG
1070
     1
1071
      365
1005
12A0E4
  0
LINE
  5
12A0E5
  8
OBJECT
 10
2969.863528934859
 20
-3402.9888719523969
 30
0.0
 11
2979.8564918232369
 21
-3382.4868825335661
 31
0.0
1001
ACDBBLOCKREPETAG
1070
     1
1071
      381
1005
12A0E5
  0
LINE
  5
12A0E6
  8
OBJECT
 10
2965.7499660391568
 20
-3399.789259526669
 30
0.0
 11
2973.9071022665089
 21
-3383.0537300443038
 31
0.0
1001
ACDBBLOCKREPETAG
1070
     1
1071
      382
1005
12A0E6
  0
LINE
  5
12A0E7
  8
OBJECT
 10
3024.102933093302
 20
-3403.8069471237141
 30
0.0
 11
3020.659656999997
 21
-3392.554621999996
 31
0.0
1001
ACDBBLOCKREPETAG
1070
     1
1071
      383
1005
12A0E7
  0
ARC
  5
12A0E8
  8
OBJECT
 10
2976.579695307315
 20
-3367.128936982841
 30
0.0
 40
60.031113246032611
 50
316.41744226774438
 51
322.3393610609063
1001
ACDBBLOCKREPETAG
1070
     1
1071
      384
1005
12A0E8
  0
LINE
  5
12A0E9
  8
OBJECT
 10
2986.7927499013749
 20
-3378.225533742077
 30
0.0
 11
3020.659656999997
 21
-3392.5546219999951
 31
0.0
1001
ACDBBLOCKREPETAG
1070
     1
1071
      385
1005
12A0E9
  0
ARC
  5
12A0EA
  8
OBJECT
 10
2982.896169761902
 20
-3387.4351299990549
 30
0.0
 40
10.0
 50
67.06677829291263
 51
154.01473437029199
1001
ACDBBLOCKREPETAG
1070
     1
1071
      386
1005
12A0EA
  0
ARC
  5
12A0EB
  8
OBJECT
 10
2986.1488390381278
 20
-3385.553862567288
 30
0.0
 40
7.0
 50
67.06677829291263
 51
154.01473377496239
1001
ACDBBLOCKREPETAG
1070
     1
1071
      387
1005
12A0EB
  0
ARC
  5
12A0EC
  8
OBJECT
 10
3000.0
 20
-3359.9999999999959
 30
0.0
 40
50.0
 50
298.81994299999963
 51
228.52376955967549
1001
ACDBBLOCKREPETAG
1070
     1
1071
        7
1005
12A0EC
  0
LINE
  5
12A0ED
  8
CENTER
 10
3080.0
 20
-3359.9999999999959
 30
0.0
 11
2905.0
 21
-3359.9999999999959
 31
0.0
1001
ACDBBLOCKREPETAG
1070
     1
1071
       14
1005
12A0ED
  0
LINE
  5
12A0EE
  8
CENTER
 10
3000.0
 20
-3454.9999999999959
 30
0.0
 11
3000.0
 21
-3264.9999999999968
 31
0.0
1001
ACDBBLOCKREPETAG
1070
     1
1071
       15
1005
12A0EE
  0
ARC
  5
12A0EF
  8
OBJECT
 10
3000.0
 20
-3359.9999999999959
 30
0.0
 40
80.0
 50
50.805032573862128
 51
309.19496742613791
1001
ACDBBLOCKREPETAG
1070
     1
1071
       18
1005
12A0EF
  0
LINE
  5
12A0F0
  8
OBJECT
 10
3042.2018956920201
 20
-3297.9999999999959
 30
0.0
 11
3080.0
 21
-3297.9999999999959
 31
0.0
1001
ACDBBLOCKREPETAG
1070
     1
1071
       19
1005
12A0F0
  0
LINE
  5
12A0F1
  8
OBJECT
 10
3042.2018956920201
 20
-3421.9999999999968
 30
0.0
 11
3080.0
 21
-3421.9999999999968
 31
0.0
1001
ACDBBLOCKREPETAG
1070
     1
1071
       20
1005
12A0F1
  0
POINT
  5
12A0F2
  8
DOTS
 10
3000.0
 20
-3359.9999999999959
 30
0.0
1001
ACDBBLOCKREPETAG
1070
     1
1071
      417
1005
12A0F2
  0
CIRCLE
  5
12A0F3
  8
OBJECT
 10
2000.0
 20
-3359.9999999999959
 30
0.0
 40
75.0
1001
ACDBBLOCKREPETAG
1070
     1
1071
      363
1005
12A0F3
  0
CIRCLE
  5
12A0F4
  8
OBJECT
 10
2000.0
 20
-3359.9999999999959
 30
0.0
 40
52.5
1001
ACDBBLOCKREPETAG
1070
     1
1071
      364
1005
12A0F4
  0
CIRCLE
  5
12A0F5
  8
OBJECT
 10
2000.0
 20
-3359.9999999999959
 30
0.0
 40
57.0
1001
ACDBBLOCKREPETAG
1070
     1
1071
      365
1005
12A0F5
  0
LINE
  5
12A0F6
  8
OBJECT
 10
1969.8635289348581
 20
-3402.9888719523969
 30
0.0
 11
1979.856491823236
 21
-3382.4868825335661
 31
0.0
1001
ACDBBLOCKREPETAG
1070
     1
1071
      381
1005
12A0F6
  0
LINE
  5
12A0F7
  8
OBJECT
 10
1965.749966039157
 20
-3399.789259526669
 30
0.0
 11
1973.907102266508
 21
-3383.0537300443038
 31
0.0
1001
ACDBBLOCKREPETAG
1070
     1
1071
      382
1005
12A0F7
  0
LINE
  5
12A0F8
  8
OBJECT
 10
2024.1029330933011
 20
-3403.8069471237141
 30
0.0
 11
2020.6596569999961
 21
-3392.554621999996
 31
0.0
1001
ACDBBLOCKREPETAG
1070
     1
1071
      383
1005
12A0F8
  0
ARC
  5
12A0F9
  8
OBJECT
 10
1976.579695307315
 20
-3367.128936982841
 30
0.0
 40
60.031113246032611
 50
316.4174422677533
 51
322.3393610609063
1001
ACDBBLOCKREPETAG
1070
     1
1071
      384
1005
12A0F9
  0
LINE
  5
12A0FA
  8
OBJECT
 10
1986.792749901374
 20
-3378.225533742077
 30
0.0
 11
2020.6596569999961
 21
-3392.5546219999951
 31
0.0
1001
ACDBBLOCKREPETAG
1070
     1
1071
      385
1005
12A0FA
  0
ARC
  5
12A0FB
  8
OBJECT
 10
1982.8961697619
 20
-3387.4351299990549
 30
0.0
 40
10.0
 50
67.066778292924639
 51
154.01473437029199
1001
ACDBBLOCKREPETAG
1070
     1
1071
      386
1005
12A0FB
  0
ARC
  5
12A0FC
  8
OBJECT
 10
1986.1488390381271
 20
-3385.553862567288
 30
0.0
 40
7.0
 50
67.066778292924639
 51
154.01473377496239
1001
ACDBBLOCKREPETAG
1070
     1
1071
      387
1005
12A0FC
  0
ARC
  5
12A0FD
  8
OBJECT
 10
2000.0
 20
-3359.9999999999959
 30
0.0
 40
50.0
 50
298.81994299999963
 51
228.52376955967549
1001
ACDBBLOCKREPETAG
1070
     1
1071
        7
1005
12A0FD
  0
LINE
  5
12A0FE
  8
CENTER
 10
2080.0
 20
-3359.9999999999959
 30
0.0
 11
1905.0
 21
-3359.9999999999959
 31
0.0
1001
ACDBBLOCKREPETAG
1070
     1
1071
       14
1005
12A0FE
  0
LINE
  5
12A0FF
  8
CENTER
 10
2000.0
 20
-3454.9999999999959
 30
0.0
 11
2000.0
 21
-3264.9999999999968
 31
0.0
1001
ACDBBLOCKREPETAG
1070
     1
1071
       15
1005
12A0FF
  0
ARC
  5
12A100
  8
OBJECT
 10
2000.0
 20
-3359.9999999999959
 30
0.0
 40
80.0
 50
50.805032573862128
 51
309.19496742613791
1001
ACDBBLOCKREPETAG
1070
     1
1071
       18
1005
12A100
  0
LINE
  5
12A101
  8
OBJECT
 10
2042.2018956920181
 20
-3297.9999999999959
 30
0.0
 11
2080.0
 21
-3297.9999999999959
 31
0.0
1001
ACDBBLOCKREPETAG
1070
     1
1071
       19
1005
12A101
  0
LINE
  5
12A102
  8
OBJECT
 10
2042.2018956920181
 20
-3421.9999999999968
 30
0.0
 11
2080.0
 21
-3421.9999999999968
 31
0.0
1001
ACDBBLOCKREPETAG
1070
     1
1071
       20
1005
12A102
  0
POINT
  5
12A103
  8
DOTS
 10
2000.0
 20
-3359.9999999999959
 30
0.0
1001
ACDBBLOCKREPETAG
1070
     1
1071
      417
1005
12A103
  0
LINE
  5
12A104
  8
OBJECT
 10
4925.0
 20
-3643.9999999999968
 30
0.0
 11
4925.0
 21
-3767.9999999999968
 31
0.0
1001
ACDBBLOCKREPETAG
1070
     1
1071
        6
1005
12A104
  0
LINE
  5
12A105
  8
OBJECT
 10
5074.9999999997999
 20
-3767.9999999997758
 30
0.0
 11
5080.0
 21
-3767.9999999999968
 31
0.0
1001
ACDBBLOCKREPETAG
1070
     1
1071
        9
1005
12A105
  0
LINE
  5
12A106
  8
OBJECT
 10
5080.0
 20
-3643.9999999999968
 30
0.0
 11
4925.0
 21
-3643.9999999999968
 31
0.0
1001
ACDBBLOCKREPETAG
1070
     1
1071
       10
1005
12A106
  0
ARC
  5
12A107
  8
OBJECT
 10
5200.6872746716726
 20
-3759.408099410105
 30
0.0
 40
170.6350503965856
 50
137.44134459184301
 51
149.9194958133665
1001
ACDBBLOCKREPETAG
1070
     1
1071
       15
1005
12A107
  0
ARC
  5
12A108
  8
OBJECT
 10
5118.8455987040506
 20
-3715.8827266953622
 30
0.0
 40
78.072222021763665
 50
147.4551531037684
 51
164.66365997719291
1001
ACDBBLOCKREPETAG
1070
     1
1071
       16
1005
12A108
  0
ARC
  5
12A109
  8
OBJECT
 10
5085.7554349608727
 20
-3705.9999999999968
 30
0.0
 40
43.55353926885617
 50
165.6884523008477
 51
194.3115476991523
1001
ACDBBLOCKREPETAG
1070
     1
1071
       17
1005
12A109
  0
ARC
  5
12A10A
  8
OBJECT
 10
5200.6872746716726
 20
-3652.5919005898891
 30
0.0
 40
170.6350503965856
 50
210.0805041866335
 51
222.55865540815699
1001
ACDBBLOCKREPETAG
1070
     1
1071
       18
1005
12A10A
  0
ARC
  5
12A10B
  8
OBJECT
 10
5118.8455987040506
 20
-3696.1172733046319
 30
0.0
 40
78.072222021763665
 50
195.33634002280701
 51
212.5448468962316
1001
ACDBBLOCKREPETAG
1070
     1
1071
       19
1005
12A10B
  0
POINT
  5
12A10C
  8
DOTS
 10
5000.0
 20
-3764.9999999999968
 30
0.0
1001
ACDBBLOCKREPETAG
1070
     1
1071
      186
1005
12A10C
  0
LINE
  5
12A10D
  8
OBJECT
 10
5060.0
 20
-3637.9999999999968
 30
0.0
 11
4940.0
 21
-3637.9999999999968
 31
0.0
1001
ACDBBLOCKREPETAG
1070
     1
1071
      215
1005
12A10D
  0
ARC
  5
12A10E
  8
OBJECT
 10
4940.0
 20
-3640.9999999999968
 30
0.0
 40
3.0
 50
90.0
 51
180.0
1001
ACDBBLOCKREPETAG
1070
     1
1071
      216
1005
12A10E
  0
LINE
  5
12A10F
  8
OBJECT
 10
4937.0
 20
-3640.9999999999968
 30
0.0
 11
4937.0
 21
-3643.9999999999968
 31
0.0
1001
ACDBBLOCKREPETAG
1070
     1
1071
      217
1005
12A10F
  0
LINE
  5
12A110
  8
OBJECT
 10
5063.0
 20
-3640.9999999999968
 30
0.0
 11
5063.0
 21
-3643.9999999999968
 31
0.0
1001
ACDBBLOCKREPETAG
1070
     1
1071
      218
1005
12A110
  0
ARC
  5
12A111
  8
OBJECT
 10
5060.0
 20
-3640.9999999999968
 30
0.0
 40
3.0
 50
0.0
 51
90.0
1001
ACDBBLOCKREPETAG
1070
     1
1071
      219
1005
12A111
  0
LINE
  5
12A112
  8
OBJECT
 10
4943.0
 20
-3569.9999999999968
 30
0.0
 11
4943.0
 21
-3637.9999999999968
 31
0.0
1001
ACDBBLOCKREPETAG
1070
     1
1071
      220
1005
12A112
  0
LINE
  5
12A113
  8
OBJECT
 10
5057.0
 20
-3569.9999999999968
 30
0.0
 11
4943.0
 21
-3569.9999999999968
 31
0.0
1001
ACDBBLOCKREPETAG
1070
     1
1071
      221
1005
12A113
  0
LINE
  5
12A114
  8
OBJECT
 10
5057.0
 20
-3569.9999999999968
 30
0.0
 11
5057.0
 21
-3637.9999999999968
 31
0.0
1001
ACDBBLOCKREPETAG
1070
     1
1071
      222
1005
12A114
  0
LINE
  5
12A115
  8
CENTER
 10
5000.0
 20
-3554.9999999999968
 30
0.0
 11
5000.0
 21
-3779.9999999999968
 31
0.0
1001
ACDBBLOCKREPETAG
1070
     1
1071
      223
1005
12A115
  0
LINE
  5
12A116
  8
HIDDEN
 10
5052.5
 20
-3569.9999999999968
 30
0.0
 11
5052.5
 21
-3643.9999999999968
 31
0.0
1001
ACDBBLOCKREPETAG
1070
     1
1071
      224
1005
12A116
  0
LINE
  5
12A117
  8
HIDDEN
 10
4947.5
 20
-3569.9999999999968
 30
0.0
 11
4947.5
 21
-3643.9999999999968
 31
0.0
1001
ACDBBLOCKREPETAG
1070
     1
1071
      225
1005
12A117
  0
LINE
  5
12A118
  8
OBJECT
 10
4325.0
 20
-3643.9999999999968
 30
0.0
 11
4325.0
 21
-3767.9999999999968
 31
0.0
1001
ACDBBLOCKREPETAG
1070
     1
1071
       26
1005
12A118
  0
LINE
  5
12A119
  8
OBJECT
 10
4475.0
 20
-3643.9999999999968
 30
0.0
 11
4325.0
 21
-3643.9999999999968
 31
0.0
1001
ACDBBLOCKREPETAG
1070
     1
1071
       30
1005
12A119
  0
LINE
  5
12A11A
  8
OBJECT
 10
4475.0
 20
-3643.9999999999968
 30
0.0
 11
4475.0
 21
-3767.9999999999968
 31
0.0
1001
ACDBBLOCKREPETAG
1070
     1
1071
       34
1005
12A11A
  0
POINT
  5
12A11B
  8
DOTS
 10
4400.0
 20
-3764.9999999999968
 30
0.0
1001
ACDBBLOCKREPETAG
1070
     1
1071
      187
1005
12A11B
  0
LINE
  5
12A11C
  8
OBJECT
 10
4460.0
 20
-3637.9999999999968
 30
0.0
 11
4340.0
 21
-3637.9999999999968
 31
0.0
1001
ACDBBLOCKREPETAG
1070
     1
1071
      226
1005
12A11C
  0
ARC
  5
12A11D
  8
OBJECT
 10
4340.0
 20
-3640.9999999999968
 30
0.0
 40
3.0
 50
90.0
 51
180.0
1001
ACDBBLOCKREPETAG
1070
     1
1071
      227
1005
12A11D
  0
LINE
  5
12A11E
  8
OBJECT
 10
4337.0
 20
-3640.9999999999968
 30
0.0
 11
4337.0
 21
-3643.9999999999968
 31
0.0
1001
ACDBBLOCKREPETAG
1070
     1
1071
      228
1005
12A11E
  0
LINE
  5
12A11F
  8
OBJECT
 10
4463.0
 20
-3640.9999999999968
 30
0.0
 11
4463.0
 21
-3643.9999999999968
 31
0.0
1001
ACDBBLOCKREPETAG
1070
     1
1071
      229
1005
12A11F
  0
ARC
  5
12A120
  8
OBJECT
 10
4460.0
 20
-3640.9999999999968
 30
0.0
 40
3.0
 50
0.0
 51
90.0
1001
ACDBBLOCKREPETAG
1070
     1
1071
      230
1005
12A120
  0
LINE
  5
12A121
  8
OBJECT
 10
4343.0
 20
-3569.9999999999968
 30
0.0
 11
4343.0
 21
-3637.9999999999968
 31
0.0
1001
ACDBBLOCKREPETAG
1070
     1
1071
      231
1005
12A121
  0
LINE
  5
12A122
  8
OBJECT
 10
4457.0
 20
-3569.9999999999968
 30
0.0
 11
4343.0
 21
-3569.9999999999968
 31
0.0
1001
ACDBBLOCKREPETAG
1070
     1
1071
      232
1005
12A122
  0
LINE
  5
12A123
  8
OBJECT
 10
4457.0
 20
-3569.9999999999968
 30
0.0
 11
4457.0
 21
-3637.9999999999968
 31
0.0
1001
ACDBBLOCKREPETAG
1070
     1
1071
      233
1005
12A123
  0
LINE
  5
12A124
  8
CENTER
 10
4400.0
 20
-3554.9999999999968
 30
0.0
 11
4400.0
 21
-3779.9999999999968
 31
0.0
1001
ACDBBLOCKREPETAG
1070
     1
1071
      234
1005
12A124
  0
LINE
  5
12A125
  8
HIDDEN
 10
4452.4999999999991
 20
-3569.9999999999968
 30
0.0
 11
4452.4999999999991
 21
-3643.9999999999968
 31
0.0
1001
ACDBBLOCKREPETAG
1070
     1
1071
      235
1005
12A125
  0
LINE
  5
12A126
  8
HIDDEN
 10
4347.5
 20
-3569.9999999999968
 30
0.0
 11
4347.5
 21
-3643.9999999999968
 31
0.0
1001
ACDBBLOCKREPETAG
1070
     1
1071
      236
1005
12A126
  0
LINE
  5
12A127
  8
OBJECT
 10
3925.0
 20
-3643.9999999999968
 30
0.0
 11
3925.0
 21
-3767.9999999999968
 31
0.0
1001
ACDBBLOCKREPETAG
1070
     1
1071
        6
1005
12A127
  0
LINE
  5
12A128
  8
OBJECT
 10
4074.999999999799
 20
-3767.9999999997758
 30
0.0
 11
4080.0
 21
-3767.9999999999968
 31
0.0
1001
ACDBBLOCKREPETAG
1070
     1
1071
        9
1005
12A128
  0
LINE
  5
12A129
  8
OBJECT
 10
4080.0
 20
-3643.9999999999968
 30
0.0
 11
3925.0
 21
-3643.9999999999968
 31
0.0
1001
ACDBBLOCKREPETAG
1070
     1
1071
       10
1005
12A129
  0
ARC
  5
12A12A
  8
OBJECT
 10
4200.6872746716726
 20
-3759.408099410105
 30
0.0
 40
170.6350503965856
 50
137.44134459184301
 51
149.9194958133665
1001
ACDBBLOCKREPETAG
1070
     1
1071
       15
1005
12A12A
  0
ARC
  5
12A12B
  8
OBJECT
 10
4118.8455987040506
 20
-3715.8827266953622
 30
0.0
 40
78.072222021763665
 50
147.4551531037684
 51
164.663659977186
1001
ACDBBLOCKREPETAG
1070
     1
1071
       16
1005
12A12B
  0
ARC
  5
12A12C
  8
OBJECT
 10
4085.7554349608722
 20
-3705.9999999999968
 30
0.0
 40
43.55353926885617
 50
165.6884523008477
 51
194.3115476991523
1001
ACDBBLOCKREPETAG
1070
     1
1071
       17
1005
12A12C
  0
ARC
  5
12A12D
  8
OBJECT
 10
4200.6872746716726
 20
-3652.5919005898891
 30
0.0
 40
170.6350503965856
 50
210.0805041866335
 51
222.55865540815699
1001
ACDBBLOCKREPETAG
1070
     1
1071
       18
1005
12A12D
  0
ARC
  5
12A12E
  8
OBJECT
 10
4118.8455987040506
 20
-3696.1172733046319
 30
0.0
 40
78.072222021763665
 50
195.33634002281391
 51
212.5448468962316
1001
ACDBBLOCKREPETAG
1070
     1
1071
       19
1005
12A12E
  0
POINT
  5
12A12F
  8
DOTS
 10
4000.0
 20
-3764.9999999999968
 30
0.0
1001
ACDBBLOCKREPETAG
1070
     1
1071
      186
1005
12A12F
  0
LINE
  5
12A130
  8
OBJECT
 10
4060.0
 20
-3637.9999999999968
 30
0.0
 11
3940.0
 21
-3637.9999999999968
 31
0.0
1001
ACDBBLOCKREPETAG
1070
     1
1071
      215
1005
12A130
  0
ARC
  5
12A131
  8
OBJECT
 10
3940.0
 20
-3640.9999999999968
 30
0.0
 40
3.0
 50
90.0
 51
180.0
1001
ACDBBLOCKREPETAG
1070
     1
1071
      216
1005
12A131
  0
LINE
  5
12A132
  8
OBJECT
 10
3937.0
 20
-3640.9999999999968
 30
0.0
 11
3937.0
 21
-3643.9999999999968
 31
0.0
1001
ACDBBLOCKREPETAG
1070
     1
1071
      217
1005
12A132
  0
LINE
  5
12A133
  8
OBJECT
 10
4063.0
 20
-3640.9999999999968
 30
0.0
 11
4063.0
 21
-3643.9999999999968
 31
0.0
1001
ACDBBLOCKREPETAG
1070
     1
1071
      218
1005
12A133
  0
ARC
  5
12A134
  8
OBJECT
 10
4060.0
 20
-3640.9999999999968
 30
0.0
 40
3.0
 50
0.0
 51
90.0
1001
ACDBBLOCKREPETAG
1070
     1
1071
      219
1005
12A134
  0
LINE
  5
12A135
  8
OBJECT
 10
3943.0
 20
-3569.9999999999968
 30
0.0
 11
3943.0
 21
-3637.9999999999968
 31
0.0
1001
ACDBBLOCKREPETAG
1070
     1
1071
      220
1005
12A135
  0
LINE
  5
12A136
  8
OBJECT
 10
4057.0
 20
-3569.9999999999968
 30
0.0
 11
3943.0
 21
-3569.9999999999968
 31
0.0
1001
ACDBBLOCKREPETAG
1070
     1
1071
      221
1005
12A136
  0
LINE
  5
12A137
  8
OBJECT
 10
4057.0
 20
-3569.9999999999968
 30
0.0
 11
4057.0
 21
-3637.9999999999968
 31
0.0
1001
ACDBBLOCKREPETAG
1070
     1
1071
      222
1005
12A137
  0
LINE
  5
12A138
  8
CENTER
 10
4000.0
 20
-3554.9999999999968
 30
0.0
 11
4000.0
 21
-3779.9999999999968
 31
0.0
1001
ACDBBLOCKREPETAG
1070
     1
1071
      223
1005
12A138
  0
LINE
  5
12A139
  8
HIDDEN
 10
4052.5
 20
-3569.9999999999968
 30
0.0
 11
4052.5
 21
-3643.9999999999968
 31
0.0
1001
ACDBBLOCKREPETAG
1070
     1
1071
      224
1005
12A139
  0
LINE
  5
12A13A
  8
HIDDEN
 10
3947.5
 20
-3569.9999999999968
 30
0.0
 11
3947.5
 21
-3643.9999999999968
 31
0.0
1001
ACDBBLOCKREPETAG
1070
     1
1071
      225
1005
12A13A
  0
LINE
  5
12A13B
  8
OBJECT
 10
3325.0
 20
-3643.9999999999968
 30
0.0
 11
3325.0
 21
-3767.9999999999968
 31
0.0
1001
ACDBBLOCKREPETAG
1070
     1
1071
       26
1005
12A13B
  0
LINE
  5
12A13C
  8
OBJECT
 10
3475.0
 20
-3643.9999999999968
 30
0.0
 11
3325.0
 21
-3643.9999999999968
 31
0.0
1001
ACDBBLOCKREPETAG
1070
     1
1071
       30
1005
12A13C
  0
LINE
  5
12A13D
  8
OBJECT
 10
3475.0
 20
-3643.9999999999968
 30
0.0
 11
3475.0
 21
-3767.9999999999968
 31
0.0
1001
ACDBBLOCKREPETAG
1070
     1
1071
       34
1005
12A13D
  0
POINT
  5
12A13E
  8
DOTS
 10
3400.0
 20
-3764.9999999999968
 30
0.0
1001
ACDBBLOCKREPETAG
1070
     1
1071
      187
1005
12A13E
  0
LINE
  5
12A13F
  8
OBJECT
 10
3460.0
 20
-3637.9999999999968
 30
0.0
 11
3340.0
 21
-3637.9999999999968
 31
0.0
1001
ACDBBLOCKREPETAG
1070
     1
1071
      226
1005
12A13F
  0
ARC
  5
12A140
  8
OBJECT
 10
3340.0
 20
-3640.9999999999968
 30
0.0
 40
3.0
 50
90.0
 51
180.0
1001
ACDBBLOCKREPETAG
1070
     1
1071
      227
1005
12A140
  0
LINE
  5
12A141
  8
OBJECT
 10
3337.0
 20
-3640.9999999999968
 30
0.0
 11
3337.0
 21
-3643.9999999999968
 31
0.0
1001
ACDBBLOCKREPETAG
1070
     1
1071
      228
1005
12A141
  0
LINE
  5
12A142
  8
OBJECT
 10
3463.0
 20
-3640.9999999999968
 30
0.0
 11
3463.0
 21
-3643.9999999999968
 31
0.0
1001
ACDBBLOCKREPETAG
1070
     1
1071
      229
1005
12A142
  0
ARC
  5
12A143
  8
OBJECT
 10
3460.0
 20
-3640.9999999999968
 30
0.0
 40
3.0
 50
0.0
 51
90.0
1001
ACDBBLOCKREPETAG
1070
     1
1071
      230
1005
12A143
  0
LINE
  5
12A144
  8
OBJECT
 10
3343.0
 20
-3569.9999999999968
 30
0.0
 11
3343.0
 21
-3637.9999999999968
 31
0.0
1001
ACDBBLOCKREPETAG
1070
     1
1071
      231
1005
12A144
  0
LINE
  5
12A145
  8
OBJECT
 10
3457.0
 20
-3569.9999999999968
 30
0.0
 11
3343.0
 21
-3569.9999999999968
 31
0.0
1001
ACDBBLOCKREPETAG
1070
     1
1071
      232
1005
12A145
  0
LINE
  5
12A146
  8
OBJECT
 10
3457.0
 20
-3569.9999999999968
 30
0.0
 11
3457.0
 21
-3637.9999999999968
 31
0.0
1001
ACDBBLOCKREPETAG
1070
     1
1071
      233
1005
12A146
  0
LINE
  5
12A147
  8
CENTER
 10
3400.0
 20
-3554.9999999999968
 30
0.0
 11
3400.0
 21
-3779.9999999999968
 31
0.0
1001
ACDBBLOCKREPETAG
1070
     1
1071
      234
1005
12A147
  0
LINE
  5
12A148
  8
HIDDEN
 10
3452.5
 20
-3569.9999999999968
 30
0.0
 11
3452.5
 21
-3643.9999999999968
 31
0.0
1001
ACDBBLOCKREPETAG
1070
     1
1071
      235
1005
12A148
  0
LINE
  5
12A149
  8
HIDDEN
 10
3347.5
 20
-3569.9999999999968
 30
0.0
 11
3347.5
 21
-3643.9999999999968
 31
0.0
1001
ACDBBLOCKREPETAG
1070
     1
1071
      236
1005
12A149
  0
LINE
  5
12A14A
  8
OBJECT
 10
2925.0
 20
-3643.9999999999968
 30
0.0
 11
2925.0
 21
-3767.9999999999968
 31
0.0
1001
ACDBBLOCKREPETAG
1070
     1
1071
        6
1005
12A14A
  0
LINE
  5
12A14B
  8
OBJECT
 10
3074.9999999997999
 20
-3767.9999999997758
 30
0.0
 11
3080.0
 21
-3767.9999999999968
 31
0.0
1001
ACDBBLOCKREPETAG
1070
     1
1071
        9
1005
12A14B
  0
LINE
  5
12A14C
  8
OBJECT
 10
3080.0
 20
-3643.9999999999968
 30
0.0
 11
2925.0
 21
-3643.9999999999968
 31
0.0
1001
ACDBBLOCKREPETAG
1070
     1
1071
       10
1005
12A14C
  0
ARC
  5
12A14D
  8
OBJECT
 10
3200.6872746716722
 20
-3759.408099410105
 30
0.0
 40
170.6350503965856
 50
137.44134459184301
 51
149.9194958133665
1001
ACDBBLOCKREPETAG
1070
     1
1071
       15
1005
12A14D
  0
ARC
  5
12A14E
  8
OBJECT
 10
3118.8455987040511
 20
-3715.8827266953622
 30
0.0
 40
78.072222021763665
 50
147.4551531037684
 51
164.663659977186
1001
ACDBBLOCKREPETAG
1070
     1
1071
       16
1005
12A14E
  0
ARC
  5
12A14F
  8
OBJECT
 10
3085.7554349608731
 20
-3705.9999999999968
 30
0.0
 40
43.55353926885617
 50
165.6884523008477
 51
194.3115476991523
1001
ACDBBLOCKREPETAG
1070
     1
1071
       17
1005
12A14F
  0
ARC
  5
12A150
  8
OBJECT
 10
3200.6872746716722
 20
-3652.5919005898891
 30
0.0
 40
170.6350503965856
 50
210.0805041866335
 51
222.55865540815699
1001
ACDBBLOCKREPETAG
1070
     1
1071
       18
1005
12A150
  0
ARC
  5
12A151
  8
OBJECT
 10
3118.8455987040511
 20
-3696.1172733046319
 30
0.0
 40
78.072222021763665
 50
195.33634002281391
 51
212.5448468962316
1001
ACDBBLOCKREPETAG
1070
     1
1071
       19
1005
12A151
  0
POINT
  5
12A152
  8
DOTS
 10
3000.0
 20
-3764.9999999999968
 30
0.0
1001
ACDBBLOCKREPETAG
1070
     1
1071
      186
1005
12A152
  0
LINE
  5
12A153
  8
OBJECT
 10
3060.0
 20
-3637.9999999999968
 30
0.0
 11
2940.0
 21
-3637.9999999999968
 31
0.0
1001
ACDBBLOCKREPETAG
1070
     1
1071
      215
1005
12A153
  0
ARC
  5
12A154
  8
OBJECT
 10
2940.0
 20
-3640.9999999999968
 30
0.0
 40
3.0
 50
90.0
 51
180.0
1001
ACDBBLOCKREPETAG
1070
     1
1071
      216
1005
12A154
  0
LINE
  5
12A155
  8
OBJECT
 10
2937.0
 20
-3640.9999999999968
 30
0.0
 11
2937.0
 21
-3643.9999999999968
 31
0.0
1001
ACDBBLOCKREPETAG
1070
     1
1071
      217
1005
12A155
  0
LINE
  5
12A156
  8
OBJECT
 10
3063.0
 20
-3640.9999999999968
 30
0.0
 11
3063.0
 21
-3643.9999999999968
 31
0.0
1001
ACDBBLOCKREPETAG
1070
     1
1071
      218
1005
12A156
  0
ARC
  5
12A157
  8
OBJECT
 10
3060.0
 20
-3640.9999999999968
 30
0.0
 40
3.0
 50
0.0
 51
90.0
1001
ACDBBLOCKREPETAG
1070
     1
1071
      219
1005
12A157
  0
LINE
  5
12A158
  8
OBJECT
 10
2943.0
 20
-3569.9999999999968
 30
0.0
 11
2943.0
 21
-3637.9999999999968
 31
0.0
1001
ACDBBLOCKREPETAG
1070
     1
1071
      220
1005
12A158
  0
LINE
  5
12A159
  8
OBJECT
 10
3057.0
 20
-3569.9999999999968
 30
0.0
 11
2943.0
 21
-3569.9999999999968
 31
0.0
1001
ACDBBLOCKREPETAG
1070
     1
1071
      221
1005
12A159
  0
LINE
  5
12A15A
  8
OBJECT
 10
3057.0
 20
-3569.9999999999968
 30
0.0
 11
3057.0
 21
-3637.9999999999968
 31
0.0
1001
ACDBBLOCKREPETAG
1070
     1
1071
      222
1005
12A15A
  0
LINE
  5
12A15B
  8
CENTER
 10
3000.0
 20
-3554.9999999999968
 30
0.0
 11
3000.0
 21
-3779.9999999999968
 31
0.0
1001
ACDBBLOCKREPETAG
1070
     1
1071
      223
1005
12A15B
  0
LINE
  5
12A15C
  8
HIDDEN
 10
3052.5
 20
-3569.9999999999968
 30
0.0
 11
3052.5
 21
-3643.9999999999968
 31
0.0
1001
ACDBBLOCKREPETAG
1070
     1
1071
      224
1005
12A15C
  0
LINE
  5
12A15D
  8
HIDDEN
 10
2947.5
 20
-3569.9999999999968
 30
0.0
 11
2947.5
 21
-3643.9999999999968
 31
0.0
1001
ACDBBLOCKREPETAG
1070
     1
1071
      225
1005
12A15D
  0
LINE
  5
12A15E
  8
OBJECT
 10
2325.0
 20
-3643.9999999999968
 30
0.0
 11
2325.0
 21
-3767.9999999999968
 31
0.0
1001
ACDBBLOCKREPETAG
1070
     1
1071
       26
1005
12A15E
  0
LINE
  5
12A15F
  8
OBJECT
 10
2475.0
 20
-3643.9999999999968
 30
0.0
 11
2325.0
 21
-3643.9999999999968
 31
0.0
1001
ACDBBLOCKREPETAG
1070
     1
1071
       30
1005
12A15F
  0
LINE
  5
12A160
  8
OBJECT
 10
2475.0
 20
-3643.9999999999968
 30
0.0
 11
2475.0
 21
-3767.9999999999968
 31
0.0
1001
ACDBBLOCKREPETAG
1070
     1
1071
       34
1005
12A160
  0
POINT
  5
12A161
  8
DOTS
 10
2400.0
 20
-3764.9999999999968
 30
0.0
1001
ACDBBLOCKREPETAG
1070
     1
1071
      187
1005
12A161
  0
LINE
  5
12A162
  8
OBJECT
 10
2460.0
 20
-3637.9999999999968
 30
0.0
 11
2340.0
 21
-3637.9999999999968
 31
0.0
1001
ACDBBLOCKREPETAG
1070
     1
1071
      226
1005
12A162
  0
ARC
  5
12A163
  8
OBJECT
 10
2340.0
 20
-3640.9999999999968
 30
0.0
 40
3.0
 50
90.0
 51
180.0
1001
ACDBBLOCKREPETAG
1070
     1
1071
      227
1005
12A163
  0
LINE
  5
12A164
  8
OBJECT
 10
2337.0
 20
-3640.9999999999968
 30
0.0
 11
2337.0
 21
-3643.9999999999968
 31
0.0
1001
ACDBBLOCKREPETAG
1070
     1
1071
      228
1005
12A164
  0
LINE
  5
12A165
  8
OBJECT
 10
2463.0
 20
-3640.9999999999968
 30
0.0
 11
2463.0
 21
-3643.9999999999968
 31
0.0
1001
ACDBBLOCKREPETAG
1070
     1
1071
      229
1005
12A165
  0
ARC
  5
12A166
  8
OBJECT
 10
2460.0
 20
-3640.9999999999968
 30
0.0
 40
3.0
 50
0.0
 51
90.0
1001
ACDBBLOCKREPETAG
1070
     1
1071
      230
1005
12A166
  0
LINE
  5
12A167
  8
OBJECT
 10
2343.0
 20
-3569.9999999999968
 30
0.0
 11
2343.0
 21
-3637.9999999999968
 31
0.0
1001
ACDBBLOCKREPETAG
1070
     1
1071
      231
1005
12A167
  0
LINE
  5
12A168
  8
OBJECT
 10
2457.0
 20
-3569.9999999999968
 30
0.0
 11
2343.0
 21
-3569.9999999999968
 31
0.0
1001
ACDBBLOCKREPETAG
1070
     1
1071
      232
1005
12A168
  0
LINE
  5
12A169
  8
OBJECT
 10
2457.0
 20
-3569.9999999999968
 30
0.0
 11
2457.0
 21
-3637.9999999999968
 31
0.0
1001
ACDBBLOCKREPETAG
1070
     1
1071
      233
1005
12A169
  0
LINE
  5
12A16A
  8
CENTER
 10
2400.0
 20
-3554.9999999999968
 30
0.0
 11
2400.0
 21
-3779.9999999999968
 31
0.0
1001
ACDBBLOCKREPETAG
1070
     1
1071
      234
1005
12A16A
  0
LINE
  5
12A16B
  8
HIDDEN
 10
2452.5000000000009
 20
-3569.9999999999968
 30
0.0
 11
2452.5000000000009
 21
-3643.9999999999968
 31
0.0
1001
ACDBBLOCKREPETAG
1070
     1
1071
      235
1005
12A16B
  0
LINE
  5
12A16C
  8
HIDDEN
 10
2347.5
 20
-3569.9999999999968
 30
0.0
 11
2347.5
 21
-3643.9999999999968
 31
0.0
1001
ACDBBLOCKREPETAG
1070
     1
1071
      236
1005
12A16C
  0
LINE
  5
12A16D
  8
OBJECT
 10
1925.0
 20
-3643.9999999999968
 30
0.0
 11
1925.0
 21
-3767.9999999999968
 31
0.0
1001
ACDBBLOCKREPETAG
1070
     1
1071
        6
1005
12A16D
  0
LINE
  5
12A16E
  8
OBJECT
 10
2074.999999999799
 20
-3767.9999999997758
 30
0.0
 11
2080.0
 21
-3767.9999999999968
 31
0.0
1001
ACDBBLOCKREPETAG
1070
     1
1071
        9
1005
12A16E
  0
LINE
  5
12A16F
  8
OBJECT
 10
2080.0
 20
-3643.9999999999968
 30
0.0
 11
1925.0
 21
-3643.9999999999968
 31
0.0
1001
ACDBBLOCKREPETAG
1070
     1
1071
       10
1005
12A16F
  0
ARC
  5
12A170
  8
OBJECT
 10
2200.6872746716731
 20
-3759.408099410105
 30
0.0
 40
170.6350503965856
 50
137.44134459184301
 51
149.91949581335999
1001
ACDBBLOCKREPETAG
1070
     1
1071
       15
1005
12A170
  0
ARC
  5
12A171
  8
OBJECT
 10
2118.8455987040511
 20
-3715.8827266953622
 30
0.0
 40
78.072222021763665
 50
147.45515310377539
 51
164.663659977186
1001
ACDBBLOCKREPETAG
1070
     1
1071
       16
1005
12A171
  0
ARC
  5
12A172
  8
OBJECT
 10
2085.7554349608731
 20
-3705.9999999999968
 30
0.0
 40
43.55353926885617
 50
165.6884523008477
 51
194.3115476991523
1001
ACDBBLOCKREPETAG
1070
     1
1071
       17
1005
12A172
  0
ARC
  5
12A173
  8
OBJECT
 10
2200.6872746716731
 20
-3652.5919005898891
 30
0.0
 40
170.6350503965856
 50
210.08050418664001
 51
222.55865540815699
1001
ACDBBLOCKREPETAG
1070
     1
1071
       18
1005
12A173
  0
ARC
  5
12A174
  8
OBJECT
 10
2118.8455987040511
 20
-3696.1172733046319
 30
0.0
 40
78.072222021763665
 50
195.33634002281391
 51
212.54484689622461
1001
ACDBBLOCKREPETAG
1070
     1
1071
       19
1005
12A174
  0
POINT
  5
12A175
  8
DOTS
 10
2000.0
 20
-3764.9999999999968
 30
0.0
1001
ACDBBLOCKREPETAG
1070
     1
1071
      186
1005
12A175
  0
LINE
  5
12A176
  8
OBJECT
 10
2060.0
 20
-3637.9999999999968
 30
0.0
 11
1940.0
 21
-3637.9999999999968
 31
0.0
1001
ACDBBLOCKREPETAG
1070
     1
1071
      215
1005
12A176
  0
ARC
  5
12A177
  8
OBJECT
 10
1940.0
 20
-3640.9999999999968
 30
0.0
 40
3.0
 50
90.0
 51
180.0
1001
ACDBBLOCKREPETAG
1070
     1
1071
      216
1005
12A177
  0
LINE
  5
12A178
  8
OBJECT
 10
1937.0
 20
-3640.9999999999968
 30
0.0
 11
1937.0
 21
-3643.9999999999968
 31
0.0
1001
ACDBBLOCKREPETAG
1070
     1
1071
      217
1005
12A178
  0
LINE
  5
12A179
  8
OBJECT
 10
2063.0
 20
-3640.9999999999968
 30
0.0
 11
2063.0
 21
-3643.9999999999968
 31
0.0
1001
ACDBBLOCKREPETAG
1070
     1
1071
      218
1005
12A179
  0
ARC
  5
12A17A
  8
OBJECT
 10
2060.0
 20
-3640.9999999999968
 30
0.0
 40
3.0
 50
0.0
 51
90.0
1001
ACDBBLOCKREPETAG
1070
     1
1071
      219
1005
12A17A
  0
LINE
  5
12A17B
  8
OBJECT
 10
1943.0
 20
-3569.9999999999968
 30
0.0
 11
1943.0
 21
-3637.9999999999968
 31
0.0
1001
ACDBBLOCKREPETAG
1070
     1
1071
      220
1005
12A17B
  0
LINE
  5
12A17C
  8
OBJECT
 10
2057.0
 20
-3569.9999999999968
 30
0.0
 11
1943.0
 21
-3569.9999999999968
 31
0.0
1001
ACDBBLOCKREPETAG
1070
     1
1071
      221
1005
12A17C
  0
LINE
  5
12A17D
  8
OBJECT
 10
2057.0
 20
-3569.9999999999968
 30
0.0
 11
2057.0
 21
-3637.9999999999968
 31
0.0
1001
ACDBBLOCKREPETAG
1070
     1
1071
      222
1005
12A17D
  0
LINE
  5
12A17E
  8
CENTER
 10
2000.0
 20
-3554.9999999999968
 30
0.0
 11
2000.0
 21
-3779.9999999999968
 31
0.0
1001
ACDBBLOCKREPETAG
1070
     1
1071
      223
1005
12A17E
  0
LINE
  5
12A17F
  8
HIDDEN
 10
2052.5
 20
-3569.9999999999968
 30
0.0
 11
2052.5
 21
-3643.9999999999968
 31
0.0
1001
ACDBBLOCKREPETAG
1070
     1
1071
      224
1005
12A17F
  0
LINE
  5
12A180
  8
HIDDEN
 10
1947.4999999999991
 20
-3569.9999999999968
 30
0.0
 11
1947.4999999999991
 21
-3643.9999999999968
 31
0.0
1001
ACDBBLOCKREPETAG
1070
     1
1071
      225
1005
12A180
  0
LINE
  5
12A181
  8
DIM
 10
2150.0
 20
-3406.9999999999959
 30
0.0
 11
2228.479620594459
 21
-3406.9999999999959
 31
0.0
  0
LINE
  5
12A182
  8
DIM
 10
2150.0
 20
-3312.9999999999959
 30
0.0
 11
2228.479620594459
 21
-3312.9999999999959
 31
0.0
  0
LINE
  5
12A183
  8
DIM
 10
2218.479620594459
 20
-3386.9999999999959
 30
0.0
 11
2218.479620594459
 21
-3332.9999999999968
 31
0.0
  0
INSERT
  5
12A184
  8
DIM
  2
_OPEN30
 10
2218.479620594459
 20
-3406.9999999999959
 30
0.0
 41
20.0
 42
20.0
 43
20.0
 50
270.0
  0
INSERT
  5
12A185
  8
DIM
  2
_OPEN30
 10
2218.479620594459
 20
-3312.9999999999959
 30
0.0
 41
20.0
 42
20.0
 43
20.0
 50
90.0
  0
INSERT
  5
12A186
  8
OBJECT
  2
*U24
 10
0.0
 20
0.0
 30
0.0
  0
LINE
  5
12A187
  8
DIM
 10
2150.0
 20
-3764.9999999999968
 30
0.0
 11
2226.8409284037339
 21
-3764.9999999999968
 31
0.0
  0
LINE
  5
12A188
  8
DIM
 10
2165.0
 20
-3720.9999999999968
 30
0.0
 11
2226.8409284037339
 21
-3720.9999999999968
 31
0.0
  0
LINE
  5
12A189
  8
DIM
 10
2216.840928403733
 20
-3784.9999999999968
 30
0.0
 11
2216.840928403733
 21
-3804.9999999999968
 31
0.0
  0
LINE
  5
12A18A
  8
DIM
 10
2216.840928403733
 20
-3700.9999999999968
 30
0.0
 11
2216.840928403733
 21
-3680.9999999999968
 31
0.0
  0
LINE
  5
12A18B
  8
DIM
 10
2216.840928403733
 20
-3764.9999999999968
 30
0.0
 11
2216.840928403733
 21
-3720.9999999999968
 31
0.0
  0
INSERT
  5
12A18C
  8
DIM
  2
_OPEN30
 10
2216.840928403733
 20
-3764.9999999999968
 30
0.0
 41
20.0
 42
20.0
 43
20.0
 50
90.0
  0
INSERT
  5
12A18D
  8
DIM
  2
_OPEN30
 10
2216.840928403733
 20
-3720.9999999999968
 30
0.0
 41
20.0
 42
20.0
 43
20.0
 50
270.0
  0
INSERT
  5
12A18E
  8
OBJECT
  2
*U25
 10
0.0
 20
0.0
 30
0.0
  0
LINE
  5
12A18F
  8
DIM
 10
2000.0
 20
-3254.9999999999959
 30
0.0
 11
2000.0
 21
-3222.208121984444
 31
0.0
  0
LINE
  5
12A190
  8
DIM
 10
2140.0
 20
-3302.9999999999959
 30
0.0
 11
2140.0
 21
-3222.208121984444
 31
0.0
  0
LINE
  5
12A191
  8
DIM
 10
2020.0
 20
-3232.208121984444
 30
0.0
 11
2120.0
 21
-3232.208121984444
 31
0.0
  0
INSERT
  5
12A192
  8
DIM
  2
_OPEN30
 10
2000.0
 20
-3232.208121984444
 30
0.0
 41
20.0
 42
20.0
 43
20.0
 50
180.0
  0
INSERT
  5
12A193
  8
DIM
  2
_OPEN30
 10
2140.0
 20
-3232.208121984444
 30
0.0
 41
20.0
 42
20.0
 43
20.0
  0
INSERT
  5
12A194
  8
OBJECT
  2
*U26
 10
0.0
 20
0.0
 30
0.0
  0
TEXT
  5
12A195
  8
SLIM
 10
2631.0
 20
-3137.50001604727
 30
0.0
 40
40.0
  1
C寸法
 41
0.75
  0
TEXT
  5
12A196
  8
SLIM
 10
2631.0
 20
-3067.50001604727
 30
0.0
 40
40.0
  1
B寸法
 41
0.75
  0
TEXT
  5
12A197
  8
SLIM
 10
2630.2857142857142
 20
-2997.50001604727
 30
0.0
 40
40.0
  1
A寸法
 41
0.75
  0
TEXT
  5
12A198
  8
SLIM
 10
3159.2857142857151
 20
-3137.50001604727
 30
0.0
 40
40.0
  1
150
 41
0.75
  0
TEXT
  5
12A199
  8
SLIM
 10
3029.2857142857151
 20
-3137.50001604727
 30
0.0
 40
40.0
  1
140
 41
0.75
  0
TEXT
  5
12A19A
  8
SLIM
 10
2769.2857142857151
 20
-3137.50001604727
 30
0.0
 40
40.0
  1
140
 41
0.75
  0
TEXT
  5
12A19B
  8
SLIM
 10
2899.2857142857151
 20
-3137.50001604727
 30
0.0
 40
40.0
  1
140
 41
0.75
  0
TEXT
  5
12A19C
  8
SLIM
 10
3170.7142857142858
 20
-3067.50001604727
 30
0.0
 40
40.0
  1
72
 41
0.75
  0
TEXT
  5
12A19D
  8
SLIM
 10
3041.4285714285711
 20
-3067.50001604727
 30
0.0
 40
40.0
  1
59
 41
0.75
  0
TEXT
  5
12A19E
  8
SLIM
 10
2780.0
 20
-3067.50001604727
 30
0.0
 40
40.0
  1
44
 41
0.75
  0
TEXT
  5
12A19F
  8
SLIM
 10
2910.7142857142858
 20
-3067.50001604727
 30
0.0
 40
40.0
  1
52
 41
0.75
  0
TEXT
  5
12A1A0
  8
SLIM
 10
2891.0
 20
-2872.50001604727
 30
0.0
 40
40.0
  1
横枝管サイズ
 41
0.75
  0
TEXT
  5
12A1A1
  8
SLIM
 10
3136.2857142857151
 20
-2927.50001604727
 30
0.0
 40
30.0
  1
100（4）
 41
0.75
  0
TEXT
  5
12A1A2
  8
SLIM
 10
3014.857142857144
 20
-2927.50001604727
 30
0.0
 40
30.0
  1
75（3）
 41
0.75
  0
TEXT
  5
12A1A3
  8
SLIM
 10
2884.8571428571431
 20
-2927.50001604727
 30
0.0
 40
30.0
  1
65（2）
 41
0.75
  0
TEXT
  5
12A1A4
  8
SLIM
 10
2757.0
 20
-2927.50001604727
 30
0.0
 40
30.0
  1
50（1）
 41
0.75
  0
TEXT
  5
12A1A5
  8
SLIM
 10
3159.2857142857151
 20
-2997.50001604727
 30
0.0
 40
40.0
  1
150
 41
0.75
  0
TEXT
  5
12A1A6
  8
SLIM
 10
3028.571428571428
 20
-2997.50001604727
 30
0.0
 40
40.0
  1
124
 41
0.75
  0
TEXT
  5
12A1A7
  8
SLIM
 10
2780.0
 20
-2997.50001604727
 30
0.0
 40
40.0
  1
94
 41
0.75
  0
TEXT
  5
12A1A8
  8
SLIM
 10
2902.1428571428569
 20
-2997.50001604727
 30
0.0
 40
40.0
  1
110
 41
0.75
  0
TEXT
  5
12A1A9
  8
SLIM
 10
1849.9999999999991
 20
-2897.5
 30
0.0
 40
75.0
  1
枝管サイズ毎の形状
 41
0.75
  0
LINE
  5
12A1AA
  8
OBJECT
 10
5150.0
 20
-3617.9999999999968
 30
0.0
 11
5143.0
 21
-3617.9999999999968
 31
0.0
1001
ACDBBLOCKREPETAG
1070
     1
1071
       64
1005
12A1AA
  0
LINE
  5
12A1AB
  8
OBJECT
 10
5143.0
 20
-3617.9999999999968
 30
0.0
 11
5143.0
 21
-3764.9999999999968
 31
0.0
1001
ACDBBLOCKREPETAG
1070
     1
1071
       65
1005
12A1AB
  0
LINE
  5
12A1AC
  8
OBJECT
 10
5101.5
 20
-3620.9999999999968
 30
0.0
 11
5101.5
 21
-3764.9999999999968
 31
0.0
1001
ACDBBLOCKREPETAG
1070
     1
1071
       66
1005
12A1AC
  0
LINE
  5
12A1AD
  8
OBJECT
 10
5090.0
 20
-3627.4999999999968
 30
0.0
 11
5090.0
 21
-3758.4999999999968
 31
0.0
1001
ACDBBLOCKREPETAG
1070
     1
1071
       67
1005
12A1AD
  0
LINE
  5
12A1AE
  8
OBJECT
 10
5086.0
 20
-3699.5000000000041
 30
0.0
 11
5086.0
 21
-3764.9999999999968
 31
0.0
1001
ACDBBLOCKREPETAG
1070
     1
1071
       68
1005
12A1AE
  0
LINE
  5
12A1AF
  8
OBJECT
 10
5150.0
 20
-3764.9999999999968
 30
0.0
 11
5150.0
 21
-3617.9999999999968
 31
0.0
1001
ACDBBLOCKREPETAG
1070
     1
1071
       69
1005
12A1AF
  0
LINE
  5
12A1B0
  8
CENTER
 10
5165.0
 20
-3692.9999999999968
 30
0.0
 11
5070.4144144144157
 21
-3692.9999999999968
 31
0.0
1001
ACDBBLOCKREPETAG
1070
     1
1071
       70
1005
12A1B0
  0
LINE
  5
12A1B1
  8
OBJECT
 10
5083.0000000000045
 20
-3767.9999999999968
 30
0.0
 11
5080.0
 21
-3767.9999999999968
 31
0.0
1001
ACDBBLOCKREPETAG
1070
     1
1071
       71
1005
12A1B1
  0
ARC
  5
12A1B2
  8
OBJECT
 10
5091.8815171830656
 20
-3766.4555591801432
 30
0.0
 40
6.0
 50
60.52411099686767
 51
170.6927439126847
1001
ACDBBLOCKREPETAG
1070
     1
1071
       72
1005
12A1B2
  0
ARC
  5
12A1B3
  8
OBJECT
 10
5083.0
 20
-3764.9999999999968
 30
0.0
 40
3.0
 50
270.0
 51
350.69274391268482
1001
ACDBBLOCKREPETAG
1070
     1
1071
       73
1005
12A1B3
  0
LINE
  5
12A1B4
  8
OBJECT
 10
5081.0
 20
-3643.9999999999968
 30
0.0
 11
5080.0
 21
-3643.9999999999968
 31
0.0
1001
ACDBBLOCKREPETAG
1070
     1
1071
       74
1005
12A1B4
  0
LINE
  5
12A1B5
  8
OBJECT
 10
5150.0
 20
-3764.9999999999968
 30
0.0
 11
5101.5
 21
-3764.9999999999968
 31
0.0
1001
ACDBBLOCKREPETAG
1070
     1
1071
       75
1005
12A1B5
  0
LINE
  5
12A1B6
  8
OBJECT
 10
5101.5
 20
-3620.9999999999968
 30
0.0
 11
5090.0
 21
-3627.4999999999968
 31
0.0
1001
ACDBBLOCKREPETAG
1070
     1
1071
       76
1005
12A1B6
  0
LINE
  5
12A1B7
  8
OBJECT
 10
5143.0
 20
-3620.9999999999968
 30
0.0
 11
5101.5
 21
-3620.9999999999968
 31
0.0
1001
ACDBBLOCKREPETAG
1070
     1
1071
       77
1005
12A1B7
  0
LINE
  5
12A1B8
  8
OBJECT
 10
5086.0
 20
-3699.5000000000041
 30
0.0
 11
5081.0
 21
-3643.9999999999968
 31
0.0
1001
ACDBBLOCKREPETAG
1070
     1
1071
       78
1005
12A1B8
  0
LINE
  5
12A1B9
  8
OBJECT
 10
5090.0
 20
-3627.4999999999968
 30
0.0
 11
5081.0
 21
-3643.9999999999968
 31
0.0
1001
ACDBBLOCKREPETAG
1070
     1
1071
       79
1005
12A1B9
  0
LINE
  5
12A1BA
  8
OBJECT
 10
5101.5
 20
-3764.9999999999968
 30
0.0
 11
5094.8338607230708
 21
-3761.2321821478181
 31
0.0
1001
ACDBBLOCKREPETAG
1070
     1
1071
       80
1005
12A1BA
  0
LINE
  5
12A1BB
  8
HIDDEN
 10
5098.0
 20
-3749.9999999999968
 30
0.0
 11
5098.0
 21
-3635.9999999999968
 31
0.0
1001
ACDBBLOCKREPETAG
1070
     1
1071
       81
1005
12A1BB
  0
LINE
  5
12A1BC
  8
OBJECT
 10
5150.0
 20
-3284.9999999999959
 30
0.0
 11
5143.0
 21
-3284.9999999999959
 31
0.0
1001
ACDBBLOCKREPETAG
1070
     1
1071
       67
1005
12A1BC
  0
LINE
  5
12A1BD
  8
OBJECT
 10
5143.0
 20
-3284.9999999999959
 30
0.0
 11
5143.0
 21
-3434.9999999999959
 31
0.0
1001
ACDBBLOCKREPETAG
1070
     1
1071
       68
1005
12A1BD
  0
LINE
  5
12A1BE
  8
OBJECT
 10
5101.5
 20
-3287.9999999999959
 30
0.0
 11
5101.5
 21
-3431.9999999999959
 31
0.0
1001
ACDBBLOCKREPETAG
1070
     1
1071
       69
1005
12A1BE
  0
LINE
  5
12A1BF
  8
OBJECT
 10
5090.0
 20
-3294.4999999999959
 30
0.0
 11
5090.0
 21
-3425.4999999999959
 31
0.0
1001
ACDBBLOCKREPETAG
1070
     1
1071
       70
1005
12A1BF
  0
LINE
  5
12A1C0
  8
OBJECT
 10
5143.0
 20
-3434.9999999999959
 30
0.0
 11
5150.0
 21
-3434.9999999999959
 31
0.0
1001
ACDBBLOCKREPETAG
1070
     1
1071
       71
1005
12A1C0
  0
LINE
  5
12A1C1
  8
OBJECT
 10
5150.0
 20
-3434.9999999999959
 30
0.0
 11
5150.0
 21
-3284.9999999999959
 31
0.0
1001
ACDBBLOCKREPETAG
1070
     1
1071
       72
1005
12A1C1
  0
LINE
  5
12A1C2
  8
HIDDEN
 10
5098.0
 20
-3416.9999999999959
 30
0.0
 11
5098.0
 21
-3302.9999999999959
 31
0.0
1001
ACDBBLOCKREPETAG
1070
     1
1071
       73
1005
12A1C2
  0
LINE
  5
12A1C3
  8
CENTER
 10
5165.0
 20
-3359.9999999999959
 30
0.0
 11
5080.0
 21
-3359.9999999999959
 31
0.0
1001
ACDBBLOCKREPETAG
1070
     1
1071
       74
1005
12A1C3
  0
LINE
  5
12A1C4
  8
OBJECT
 10
5086.0
 20
-3421.9999999999968
 30
0.0
 11
5080.0
 21
-3421.9999999999968
 31
0.0
1001
ACDBBLOCKREPETAG
1070
     1
1071
       75
1005
12A1C4
  0
LINE
  5
12A1C5
  8
OBJECT
 10
5143.0
 20
-3431.9999999999959
 30
0.0
 11
5101.5
 21
-3431.9999999999959
 31
0.0
1001
ACDBBLOCKREPETAG
1070
     1
1071
       76
1005
12A1C5
  0
LINE
  5
12A1C6
  8
OBJECT
 10
5101.5
 20
-3431.9999999999959
 30
0.0
 11
5090.0
 21
-3425.4999999999959
 31
0.0
1001
ACDBBLOCKREPETAG
1070
     1
1071
       77
1005
12A1C6
  0
LINE
  5
12A1C7
  8
OBJECT
 10
5090.0
 20
-3425.4999999999959
 30
0.0
 11
5086.0
 21
-3421.9999999999968
 31
0.0
1001
ACDBBLOCKREPETAG
1070
     1
1071
       78
1005
12A1C7
  0
LINE
  5
12A1C8
  8
OBJECT
 10
5101.5
 20
-3287.9999999999959
 30
0.0
 11
5090.0
 21
-3294.4999999999959
 31
0.0
1001
ACDBBLOCKREPETAG
1070
     1
1071
       79
1005
12A1C8
  0
LINE
  5
12A1C9
  8
OBJECT
 10
5090.0
 20
-3294.4999999999959
 30
0.0
 11
5086.0
 21
-3297.9999999999959
 31
0.0
1001
ACDBBLOCKREPETAG
1070
     1
1071
       80
1005
12A1C9
  0
ARC
  5
12A1CA
  8
OBJECT
 10
5467.9000000000005
 20
-3359.9999999999959
 30
0.0
 40
386.89999999999998
 50
170.77870136260421
 51
189.22129863739571
1001
ACDBBLOCKREPETAG
1070
     1
1071
       81
1005
12A1CA
  0
LINE
  5
12A1CB
  8
OBJECT
 10
5086.0
 20
-3297.9999999999959
 30
0.0
 11
5080.0
 21
-3297.9999999999959
 31
0.0
1001
ACDBBLOCKREPETAG
1070
     1
1071
       82
1005
12A1CB
  0
LINE
  5
12A1CC
  8
OBJECT
 10
5143.0
 20
-3287.9999999999959
 30
0.0
 11
5101.5
 21
-3287.9999999999959
 31
0.0
1001
ACDBBLOCKREPETAG
1070
     1
1071
       83
1005
12A1CC
  0
TEXT
  5
12A1CD
  8
SLIM
 10
4884.25
 20
-3882.4999999999959
 30
0.0
 40
35.0
  1
通常枝100（4）
 41
0.75
  0
LINE
  5
12A1CE
  8
CENTER
 10
4477.0
 20
-3705.9999999999968
 30
0.0
 11
4323.0
 21
-3705.9999999999968
 31
0.0
1001
ACDBBLOCKREPETAG
1070
     1
1071
       17
1005
12A1CE
  0
CIRCLE
  5
12A1CF
  8
OBJECT
 10
4400.0
 20
-3705.9999999999968
 30
0.0
 40
41.5
1001
ACDBBLOCKREPETAG
1070
     1
1071
       19
1005
12A1CF
  0
CIRCLE
  5
12A1D0
  8
OBJECT
 10
4400.0
 20
-3705.9999999999968
 30
0.0
 40
54.0
1001
ACDBBLOCKREPETAG
1070
     1
1071
       20
1005
12A1D0
  0
ARC
  5
12A1D1
  8
OBJECT
 10
4400.0
 20
-3705.9999999999968
 30
0.0
 40
62.0
 50
287.89655112921122
 51
252.1034488707887
1001
ACDBBLOCKREPETAG
1070
     1
1071
       21
1005
12A1D1
  0
LINE
  5
12A1D2
  8
OBJECT
 10
4380.947441116743
 20
-3764.9999999999968
 30
0.0
 11
4419.052558883257
 21
-3764.9999999999968
 31
0.0
1001
ACDBBLOCKREPETAG
1070
     1
1071
       22
1005
12A1D2
  0
LINE
  5
12A1D3
  8
OBJECT
 10
4133.0
 20
-3643.9999999999968
 30
0.0
 11
4140.0
 21
-3643.9999999999968
 31
0.0
1001
ACDBBLOCKREPETAG
1070
     1
1071
       45
1005
12A1D3
  0
LINE
  5
12A1D4
  8
OBJECT
 10
4140.0
 20
-3643.9999999999968
 30
0.0
 11
4140.0
 21
-3764.9999999999968
 31
0.0
1001
ACDBBLOCKREPETAG
1070
     1
1071
       46
1005
12A1D4
  0
LINE
  5
12A1D5
  8
OBJECT
 10
4133.0
 20
-3764.9999999999968
 30
0.0
 11
4133.0
 21
-3643.9999999999968
 31
0.0
1001
ACDBBLOCKREPETAG
1070
     1
1071
       47
1005
12A1D5
  0
LINE
  5
12A1D6
  8
CENTER
 10
4155.0
 20
-3705.9999999999968
 30
0.0
 11
4071.0
 21
-3705.9999999999968
 31
0.0
1001
ACDBBLOCKREPETAG
1070
     1
1071
       48
1005
12A1D6
  0
LINE
  5
12A1D7
  8
OBJECT
 10
4133.0
 20
-3646.9999999999968
 30
0.0
 11
4097.0
 21
-3646.9999999999968
 31
0.0
1001
ACDBBLOCKREPETAG
1070
     1
1071
       49
1005
12A1D7
  0
LINE
  5
12A1D8
  8
OBJECT
 10
4097.0
 20
-3646.9999999999968
 30
0.0
 11
4097.0
 21
-3764.9999999999968
 31
0.0
1001
ACDBBLOCKREPETAG
1070
     1
1071
       50
1005
12A1D8
  0
LINE
  5
12A1D9
  8
OBJECT
 10
4097.0
 20
-3764.9999999999968
 30
0.0
 11
4140.0
 21
-3764.9999999999968
 31
0.0
1001
ACDBBLOCKREPETAG
1070
     1
1071
       51
1005
12A1D9
  0
LINE
  5
12A1DA
  8
OBJECT
 10
4093.0
 20
-3651.4999999999968
 30
0.0
 11
4086.0
 21
-3651.4999999999968
 31
0.0
1001
ACDBBLOCKREPETAG
1070
     1
1071
       52
1005
12A1DA
  0
LINE
  5
12A1DB
  8
OBJECT
 10
4086.0
 20
-3760.4999999999968
 30
0.0
 11
4093.0
 21
-3760.4999999999968
 31
0.0
1001
ACDBBLOCKREPETAG
1070
     1
1071
       53
1005
12A1DB
  0
LINE
  5
12A1DC
  8
OBJECT
 10
4093.0
 20
-3760.4999999999968
 30
0.0
 11
4093.0
 21
-3651.4999999999968
 31
0.0
1001
ACDBBLOCKREPETAG
1070
     1
1071
       54
1005
12A1DC
  0
LINE
  5
12A1DD
  8
OBJECT
 10
4097.0
 20
-3646.9999999999968
 30
0.0
 11
4093.0
 21
-3651.4999999999968
 31
0.0
1001
ACDBBLOCKREPETAG
1070
     1
1071
       55
1005
12A1DD
  0
LINE
  5
12A1DE
  8
OBJECT
 10
4097.0
 20
-3764.9999999999968
 30
0.0
 11
4093.0
 21
-3760.4999999999968
 31
0.0
1001
ACDBBLOCKREPETAG
1070
     1
1071
       56
1005
12A1DE
  0
LINE
  5
12A1DF
  8
OBJECT
 10
4083.0
 20
-3643.9999999999968
 30
0.0
 11
4080.0
 21
-3643.9999999999968
 31
0.0
1001
ACDBBLOCKREPETAG
1070
     1
1071
       57
1005
12A1DF
  0
ARC
  5
12A1E0
  8
OBJECT
 10
4083.0
 20
-3646.9999999999968
 30
0.0
 40
3.0
 50
0.0
 51
90.0
1001
ACDBBLOCKREPETAG
1070
     1
1071
       58
1005
12A1E0
  0
LINE
  5
12A1E1
  8
OBJECT
 10
4080.0
 20
-3767.9999999999968
 30
0.0
 11
4083.0
 21
-3767.9999999999968
 31
0.0
1001
ACDBBLOCKREPETAG
1070
     1
1071
       59
1005
12A1E1
  0
ARC
  5
12A1E2
  8
OBJECT
 10
4083.0
 20
-3764.9999999999968
 30
0.0
 40
3.0
 50
270.0
 51
0.0
1001
ACDBBLOCKREPETAG
1070
     1
1071
       60
1005
12A1E2
  0
LINE
  5
12A1E3
  8
OBJECT
 10
4086.0
 20
-3764.9999999999968
 30
0.0
 11
4086.0
 21
-3646.9999999999968
 31
0.0
1001
ACDBBLOCKREPETAG
1070
     1
1071
       61
1005
12A1E3
  0
LINE
  5
12A1E4
  8
HIDDEN
 10
4088.0
 20
-3661.4999999999968
 30
0.0
 11
4088.0
 21
-3750.4999999999968
 31
0.0
1001
ACDBBLOCKREPETAG
1070
     1
1071
       63
1005
12A1E4
  0
LINE
  5
12A1E5
  8
OBJECT
 10
4133.0
 20
-3297.9999999999959
 30
0.0
 11
4140.0
 21
-3297.9999999999959
 31
0.0
1001
ACDBBLOCKREPETAG
1070
     1
1071
       47
1005
12A1E5
  0
LINE
  5
12A1E6
  8
OBJECT
 10
4140.0
 20
-3297.9999999999959
 30
0.0
 11
4140.0
 21
-3421.9999999999968
 31
0.0
1001
ACDBBLOCKREPETAG
1070
     1
1071
       48
1005
12A1E6
  0
LINE
  5
12A1E7
  8
OBJECT
 10
4140.0
 20
-3421.9999999999968
 30
0.0
 11
4133.0
 21
-3421.9999999999968
 31
0.0
1001
ACDBBLOCKREPETAG
1070
     1
1071
       49
1005
12A1E7
  0
LINE
  5
12A1E8
  8
OBJECT
 10
4133.0
 20
-3421.9999999999968
 30
0.0
 11
4133.0
 21
-3297.9999999999959
 31
0.0
1001
ACDBBLOCKREPETAG
1070
     1
1071
       50
1005
12A1E8
  0
LINE
  5
12A1E9
  8
CENTER
 10
4155.0
 20
-3359.9999999999959
 30
0.0
 11
4080.0
 21
-3359.9999999999959
 31
0.0
1001
ACDBBLOCKREPETAG
1070
     1
1071
       51
1005
12A1E9
  0
LINE
  5
12A1EA
  8
OBJECT
 10
4133.0
 20
-3300.9999999999968
 30
0.0
 11
4097.0
 21
-3300.9999999999968
 31
0.0
1001
ACDBBLOCKREPETAG
1070
     1
1071
       52
1005
12A1EA
  0
LINE
  5
12A1EB
  8
OBJECT
 10
4097.0
 20
-3300.9999999999968
 30
0.0
 11
4097.0
 21
-3418.9999999999959
 31
0.0
1001
ACDBBLOCKREPETAG
1070
     1
1071
       53
1005
12A1EB
  0
LINE
  5
12A1EC
  8
OBJECT
 10
4097.0
 20
-3418.9999999999959
 30
0.0
 11
4133.0
 21
-3418.9999999999959
 31
0.0
1001
ACDBBLOCKREPETAG
1070
     1
1071
       54
1005
12A1EC
  0
LINE
  5
12A1ED
  8
OBJECT
 10
4093.0
 20
-3305.4999999999959
 30
0.0
 11
4086.0
 21
-3305.4999999999959
 31
0.0
1001
ACDBBLOCKREPETAG
1070
     1
1071
       55
1005
12A1ED
  0
LINE
  5
12A1EE
  8
OBJECT
 10
4086.0
 20
-3414.4999999999959
 30
0.0
 11
4093.0
 21
-3414.4999999999959
 31
0.0
1001
ACDBBLOCKREPETAG
1070
     1
1071
       56
1005
12A1EE
  0
LINE
  5
12A1EF
  8
OBJECT
 10
4093.0
 20
-3414.4999999999959
 30
0.0
 11
4093.0
 21
-3305.4999999999959
 31
0.0
1001
ACDBBLOCKREPETAG
1070
     1
1071
       57
1005
12A1EF
  0
LINE
  5
12A1F0
  8
OBJECT
 10
4097.0
 20
-3300.9999999999968
 30
0.0
 11
4093.0
 21
-3305.4999999999959
 31
0.0
1001
ACDBBLOCKREPETAG
1070
     1
1071
       58
1005
12A1F0
  0
LINE
  5
12A1F1
  8
OBJECT
 10
4097.0
 20
-3418.9999999999959
 30
0.0
 11
4093.0
 21
-3414.4999999999959
 31
0.0
1001
ACDBBLOCKREPETAG
1070
     1
1071
       59
1005
12A1F1
  0
LINE
  5
12A1F2
  8
OBJECT
 10
4083.0
 20
-3297.9999999999959
 30
0.0
 11
4080.0
 21
-3297.9999999999959
 31
0.0
1001
ACDBBLOCKREPETAG
1070
     1
1071
       60
1005
12A1F2
  0
ARC
  5
12A1F3
  8
OBJECT
 10
4083.0
 20
-3300.9999999999968
 30
0.0
 40
3.0
 50
0.0
 51
90.0
1001
ACDBBLOCKREPETAG
1070
     1
1071
       61
1005
12A1F3
  0
LINE
  5
12A1F4
  8
OBJECT
 10
4080.0
 20
-3421.9999999999968
 30
0.0
 11
4083.0
 21
-3421.9999999999968
 31
0.0
1001
ACDBBLOCKREPETAG
1070
     1
1071
       62
1005
12A1F4
  0
ARC
  5
12A1F5
  8
OBJECT
 10
4083.0
 20
-3418.9999999999959
 30
0.0
 40
3.0
 50
270.0
 51
0.0
1001
ACDBBLOCKREPETAG
1070
     1
1071
       63
1005
12A1F5
  0
LINE
  5
12A1F6
  8
OBJECT
 10
4086.0
 20
-3418.9999999999959
 30
0.0
 11
4086.0
 21
-3300.9999999999968
 31
0.0
1001
ACDBBLOCKREPETAG
1070
     1
1071
       64
1005
12A1F6
  0
LINE
  5
12A1F7
  8
HIDDEN
 10
4088.0
 20
-3315.4999999999959
 30
0.0
 11
4088.0
 21
-3404.4999999999959
 31
0.0
1001
ACDBBLOCKREPETAG
1070
     1
1071
       65
1005
12A1F7
  0
TEXT
  5
12A1F8
  8
SLIM
 10
3894.25
 20
-3882.4999999999959
 30
0.0
 40
35.0
  1
通常枝75（3）
 41
0.75
  0
CIRCLE
  5
12A1F9
  8
OBJECT
 10
3400.0
 20
-3712.9999999999968
 30
0.0
 40
35.5
1001
ACDBBLOCKREPETAG
1070
     1
1071
       10
1005
12A1F9
  0
CIRCLE
  5
12A1FA
  8
OBJECT
 10
3400.0
 20
-3705.9999999999968
 30
0.0
 40
62.0
1001
ACDBBLOCKREPETAG
1070
     1
1071
       11
1005
12A1FA
  0
LINE
  5
12A1FB
  8
CENTER
 10
3330.0
 20
-3712.9999999999968
 30
0.0
 11
3470.0
 21
-3712.9999999999968
 31
0.0
1001
ACDBBLOCKREPETAG
1070
     1
1071
       12
1005
12A1FB
  0
CIRCLE
  5
12A1FC
  8
OBJECT
 10
3400.0
 20
-3712.9999999999968
 30
0.0
 40
47.0
1001
ACDBBLOCKREPETAG
1070
     1
1071
       14
1005
12A1FC
  0
ARC
  5
12A1FD
  8
OBJECT
 10
3400.0
 20
-3712.9999999999968
 30
0.0
 40
55.0
 50
289.01126526011359
 51
250.98873473988641
1001
ACDBBLOCKREPETAG
1070
     1
1071
       15
1005
12A1FD
  0
LINE
  5
12A1FE
  8
OBJECT
 10
3382.0835271328328
 20
-3764.9999999999968
 30
0.0
 11
3417.9164728671681
 21
-3764.9999999999968
 31
0.0
1001
ACDBBLOCKREPETAG
1070
     1
1071
       16
1005
12A1FE
  0
LINE
  5
12A1FF
  8
OBJECT
 10
3133.0
 20
-3657.9999999999968
 30
0.0
 11
3140.0
 21
-3657.9999999999968
 31
0.0
1001
ACDBBLOCKREPETAG
1070
     1
1071
       26
1005
12A1FF
  0
LINE
  5
12A200
  8
OBJECT
 10
3140.0
 20
-3657.9999999999968
 30
0.0
 11
3140.0
 21
-3764.9999999999968
 31
0.0
1001
ACDBBLOCKREPETAG
1070
     1
1071
       27
1005
12A200
  0
LINE
  5
12A201
  8
OBJECT
 10
3133.0
 20
-3764.9999999999968
 30
0.0
 11
3133.0
 21
-3657.9999999999968
 31
0.0
1001
ACDBBLOCKREPETAG
1070
     1
1071
       28
1005
12A201
  0
LINE
  5
12A202
  8
CENTER
 10
3155.0
 20
-3712.9999999999968
 30
0.0
 11
3071.0
 21
-3712.9999999999968
 31
0.0
1001
ACDBBLOCKREPETAG
1070
     1
1071
       29
1005
12A202
  0
LINE
  5
12A203
  8
OBJECT
 10
3133.0
 20
-3660.9999999999968
 30
0.0
 11
3097.0
 21
-3660.9999999999968
 31
0.0
1001
ACDBBLOCKREPETAG
1070
     1
1071
       30
1005
12A203
  0
LINE
  5
12A204
  8
OBJECT
 10
3097.0
 20
-3660.9999999999968
 30
0.0
 11
3097.0
 21
-3764.9999999999968
 31
0.0
1001
ACDBBLOCKREPETAG
1070
     1
1071
       31
1005
12A204
  0
LINE
  5
12A205
  8
OBJECT
 10
3097.0
 20
-3764.9999999999968
 30
0.0
 11
3140.0
 21
-3764.9999999999968
 31
0.0
1001
ACDBBLOCKREPETAG
1070
     1
1071
       32
1005
12A205
  0
LINE
  5
12A206
  8
OBJECT
 10
3093.0
 20
-3665.4999999999968
 30
0.0
 11
3086.0
 21
-3665.4999999999968
 31
0.0
1001
ACDBBLOCKREPETAG
1070
     1
1071
       33
1005
12A206
  0
LINE
  5
12A207
  8
OBJECT
 10
3086.0
 20
-3760.4999999999968
 30
0.0
 11
3093.0
 21
-3760.4999999999968
 31
0.0
1001
ACDBBLOCKREPETAG
1070
     1
1071
       34
1005
12A207
  0
LINE
  5
12A208
  8
OBJECT
 10
3093.0
 20
-3760.4999999999968
 30
0.0
 11
3093.0
 21
-3665.4999999999968
 31
0.0
1001
ACDBBLOCKREPETAG
1070
     1
1071
       35
1005
12A208
  0
LINE
  5
12A209
  8
OBJECT
 10
3097.0
 20
-3660.9999999999968
 30
0.0
 11
3093.0
 21
-3665.4999999999968
 31
0.0
1001
ACDBBLOCKREPETAG
1070
     1
1071
       36
1005
12A209
  0
LINE
  5
12A20A
  8
OBJECT
 10
3097.0
 20
-3764.9999999999968
 30
0.0
 11
3093.0
 21
-3760.4999999999968
 31
0.0
1001
ACDBBLOCKREPETAG
1070
     1
1071
       37
1005
12A20A
  0
LINE
  5
12A20B
  8
OBJECT
 10
3083.0
 20
-3643.9999999999968
 30
0.0
 11
3080.0
 21
-3643.9999999999968
 31
0.0
1001
ACDBBLOCKREPETAG
1070
     1
1071
       38
1005
12A20B
  0
ARC
  5
12A20C
  8
OBJECT
 10
3083.0
 20
-3646.9999999999968
 30
0.0
 40
3.0
 50
0.0
 51
90.0
1001
ACDBBLOCKREPETAG
1070
     1
1071
       39
1005
12A20C
  0
LINE
  5
12A20D
  8
OBJECT
 10
3080.0
 20
-3767.9999999999968
 30
0.0
 11
3083.0
 21
-3767.9999999999968
 31
0.0
1001
ACDBBLOCKREPETAG
1070
     1
1071
       40
1005
12A20D
  0
ARC
  5
12A20E
  8
OBJECT
 10
3083.0
 20
-3764.9999999999968
 30
0.0
 40
3.0
 50
270.0
 51
0.0
1001
ACDBBLOCKREPETAG
1070
     1
1071
       41
1005
12A20E
  0
LINE
  5
12A20F
  8
OBJECT
 10
3086.0
 20
-3764.9999999999968
 30
0.0
 11
3086.0
 21
-3646.9999999999968
 31
0.0
1001
ACDBBLOCKREPETAG
1070
     1
1071
       42
1005
12A20F
  0
LINE
  5
12A210
  8
HIDDEN
 10
3088.0
 20
-3674.9999999999968
 30
0.0
 11
3088.0
 21
-3750.9999999999968
 31
0.0
1001
ACDBBLOCKREPETAG
1070
     1
1071
       43
1005
12A210
  0
LINE
  5
12A211
  8
OBJECT
 10
3133.0
 20
-3304.9999999999959
 30
0.0
 11
3140.0
 21
-3304.9999999999959
 31
0.0
1001
ACDBBLOCKREPETAG
1070
     1
1071
       27
1005
12A211
  0
LINE
  5
12A212
  8
OBJECT
 10
3140.0
 20
-3304.9999999999959
 30
0.0
 11
3140.0
 21
-3414.9999999999959
 31
0.0
1001
ACDBBLOCKREPETAG
1070
     1
1071
       28
1005
12A212
  0
LINE
  5
12A213
  8
OBJECT
 10
3140.0
 20
-3414.9999999999959
 30
0.0
 11
3133.0
 21
-3414.9999999999959
 31
0.0
1001
ACDBBLOCKREPETAG
1070
     1
1071
       29
1005
12A213
  0
LINE
  5
12A214
  8
OBJECT
 10
3133.0
 20
-3414.9999999999959
 30
0.0
 11
3133.0
 21
-3304.9999999999959
 31
0.0
1001
ACDBBLOCKREPETAG
1070
     1
1071
       30
1005
12A214
  0
LINE
  5
12A215
  8
CENTER
 10
3155.0
 20
-3359.9999999999959
 30
0.0
 11
3080.0
 21
-3359.9999999999959
 31
0.0
1001
ACDBBLOCKREPETAG
1070
     1
1071
       31
1005
12A215
  0
LINE
  5
12A216
  8
OBJECT
 10
3133.0
 20
-3307.9999999999959
 30
0.0
 11
3097.0
 21
-3307.9999999999959
 31
0.0
1001
ACDBBLOCKREPETAG
1070
     1
1071
       32
1005
12A216
  0
LINE
  5
12A217
  8
OBJECT
 10
3097.0
 20
-3307.9999999999959
 30
0.0
 11
3097.0
 21
-3411.9999999999959
 31
0.0
1001
ACDBBLOCKREPETAG
1070
     1
1071
       33
1005
12A217
  0
LINE
  5
12A218
  8
OBJECT
 10
3097.0
 20
-3411.9999999999959
 30
0.0
 11
3133.0
 21
-3411.9999999999959
 31
0.0
1001
ACDBBLOCKREPETAG
1070
     1
1071
       34
1005
12A218
  0
LINE
  5
12A219
  8
OBJECT
 10
3093.0
 20
-3312.4999999999959
 30
0.0
 11
3086.0
 21
-3312.4999999999959
 31
0.0
1001
ACDBBLOCKREPETAG
1070
     1
1071
       35
1005
12A219
  0
LINE
  5
12A21A
  8
OBJECT
 10
3086.0
 20
-3407.4999999999959
 30
0.0
 11
3093.0
 21
-3407.4999999999959
 31
0.0
1001
ACDBBLOCKREPETAG
1070
     1
1071
       36
1005
12A21A
  0
LINE
  5
12A21B
  8
OBJECT
 10
3093.0
 20
-3407.4999999999959
 30
0.0
 11
3093.0
 21
-3312.4999999999959
 31
0.0
1001
ACDBBLOCKREPETAG
1070
     1
1071
       37
1005
12A21B
  0
LINE
  5
12A21C
  8
OBJECT
 10
3097.0
 20
-3307.9999999999959
 30
0.0
 11
3093.0
 21
-3312.4999999999959
 31
0.0
1001
ACDBBLOCKREPETAG
1070
     1
1071
       38
1005
12A21C
  0
LINE
  5
12A21D
  8
OBJECT
 10
3097.0
 20
-3411.9999999999959
 30
0.0
 11
3093.0
 21
-3407.4999999999959
 31
0.0
1001
ACDBBLOCKREPETAG
1070
     1
1071
       39
1005
12A21D
  0
LINE
  5
12A21E
  8
OBJECT
 10
3083.0
 20
-3297.9999999999959
 30
0.0
 11
3080.0
 21
-3297.9999999999959
 31
0.0
1001
ACDBBLOCKREPETAG
1070
     1
1071
       40
1005
12A21E
  0
ARC
  5
12A21F
  8
OBJECT
 10
3083.0
 20
-3300.9999999999968
 30
0.0
 40
3.0
 50
0.0
 51
90.0
1001
ACDBBLOCKREPETAG
1070
     1
1071
       41
1005
12A21F
  0
LINE
  5
12A220
  8
OBJECT
 10
3080.0
 20
-3421.9999999999968
 30
0.0
 11
3083.0
 21
-3421.9999999999968
 31
0.0
1001
ACDBBLOCKREPETAG
1070
     1
1071
       42
1005
12A220
  0
ARC
  5
12A221
  8
OBJECT
 10
3083.0
 20
-3418.9999999999959
 30
0.0
 40
3.0
 50
270.0
 51
0.0
1001
ACDBBLOCKREPETAG
1070
     1
1071
       43
1005
12A221
  0
LINE
  5
12A222
  8
OBJECT
 10
3086.0
 20
-3418.9999999999959
 30
0.0
 11
3086.0
 21
-3300.9999999999968
 31
0.0
1001
ACDBBLOCKREPETAG
1070
     1
1071
       44
1005
12A222
  0
LINE
  5
12A223
  8
HIDDEN
 10
3088.0
 20
-3321.9999999999959
 30
0.0
 11
3088.0
 21
-3397.9999999999959
 31
0.0
1001
ACDBBLOCKREPETAG
1070
     1
1071
       45
1005
12A223
  0
TEXT
  5
12A224
  8
SLIM
 10
2894.25
 20
-3882.4999999999959
 30
0.0
 40
35.0
  1
通常枝65（2）
 41
0.75
  0
CIRCLE
  5
12A225
  8
OBJECT
 10
2400.0
 20
-3705.9999999999968
 30
0.0
 40
62.0
1001
ACDBBLOCKREPETAG
1070
     1
1071
        3
1005
12A225
  0
LINE
  5
12A226
  8
CENTER
 10
2338.0
 20
-3720.9999999999968
 30
0.0
 11
2462.0
 21
-3720.9999999999968
 31
0.0
1001
ACDBBLOCKREPETAG
1070
     1
1071
        4
1005
12A226
  0
CIRCLE
  5
12A227
  8
OBJECT
 10
2400.0
 20
-3720.9999999999968
 30
0.0
 40
28.0
1001
ACDBBLOCKREPETAG
1070
     1
1071
        6
1005
12A227
  0
CIRCLE
  5
12A228
  8
OBJECT
 10
2400.0
 20
-3720.9999999999968
 30
0.0
 40
39.0
1001
ACDBBLOCKREPETAG
1070
     1
1071
        7
1005
12A228
  0
ARC
  5
12A229
  8
OBJECT
 10
2400.0
 20
-3720.9999999999968
 30
0.0
 40
47.0
 50
290.58196921144412
 51
249.41803078855591
1001
ACDBBLOCKREPETAG
1070
     1
1071
        8
1005
12A229
  0
LINE
  5
12A22A
  8
OBJECT
 10
2383.4772883581431
 20
-3764.9999999999968
 30
0.0
 11
2416.5227116418569
 21
-3764.9999999999968
 31
0.0
1001
ACDBBLOCKREPETAG
1070
     1
1071
        9
1005
12A22A
  0
LINE
  5
12A22B
  8
OBJECT
 10
2133.0
 20
-3673.9999999999968
 30
0.0
 11
2140.0
 21
-3673.9999999999968
 31
0.0
1001
ACDBBLOCKREPETAG
1070
     1
1071
        7
1005
12A22B
  0
LINE
  5
12A22C
  8
OBJECT
 10
2140.0
 20
-3673.9999999999968
 30
0.0
 11
2140.0
 21
-3764.9999999999968
 31
0.0
1001
ACDBBLOCKREPETAG
1070
     1
1071
        8
1005
12A22C
  0
LINE
  5
12A22D
  8
OBJECT
 10
2133.0
 20
-3764.9999999999968
 30
0.0
 11
2133.0
 21
-3673.9999999999968
 31
0.0
1001
ACDBBLOCKREPETAG
1070
     1
1071
        9
1005
12A22D
  0
LINE
  5
12A22E
  8
CENTER
 10
2155.0
 20
-3720.9999999999968
 30
0.0
 11
2071.0
 21
-3720.9999999999968
 31
0.0
1001
ACDBBLOCKREPETAG
1070
     1
1071
       10
1005
12A22E
  0
LINE
  5
12A22F
  8
OBJECT
 10
2133.0
 20
-3676.9999999999968
 30
0.0
 11
2097.0
 21
-3676.9999999999968
 31
0.0
1001
ACDBBLOCKREPETAG
1070
     1
1071
       11
1005
12A22F
  0
LINE
  5
12A230
  8
OBJECT
 10
2097.0
 20
-3676.9999999999968
 30
0.0
 11
2097.0
 21
-3764.9999999999968
 31
0.0
1001
ACDBBLOCKREPETAG
1070
     1
1071
       12
1005
12A230
  0
LINE
  5
12A231
  8
OBJECT
 10
2097.0
 20
-3764.9999999999968
 30
0.0
 11
2140.0
 21
-3764.9999999999968
 31
0.0
1001
ACDBBLOCKREPETAG
1070
     1
1071
       13
1005
12A231
  0
LINE
  5
12A232
  8
OBJECT
 10
2093.0
 20
-3681.4999999999968
 30
0.0
 11
2086.0
 21
-3681.4999999999968
 31
0.0
1001
ACDBBLOCKREPETAG
1070
     1
1071
       14
1005
12A232
  0
LINE
  5
12A233
  8
OBJECT
 10
2086.0
 20
-3760.4999999999968
 30
0.0
 11
2093.0
 21
-3760.4999999999968
 31
0.0
1001
ACDBBLOCKREPETAG
1070
     1
1071
       15
1005
12A233
  0
LINE
  5
12A234
  8
OBJECT
 10
2093.0
 20
-3760.4999999999968
 30
0.0
 11
2093.0
 21
-3681.4999999999968
 31
0.0
1001
ACDBBLOCKREPETAG
1070
     1
1071
       16
1005
12A234
  0
LINE
  5
12A235
  8
OBJECT
 10
2097.0
 20
-3676.9999999999968
 30
0.0
 11
2093.0
 21
-3681.4999999999968
 31
0.0
1001
ACDBBLOCKREPETAG
1070
     1
1071
       17
1005
12A235
  0
LINE
  5
12A236
  8
OBJECT
 10
2097.0
 20
-3764.9999999999968
 30
0.0
 11
2093.0
 21
-3760.4999999999968
 31
0.0
1001
ACDBBLOCKREPETAG
1070
     1
1071
       18
1005
12A236
  0
LINE
  5
12A237
  8
OBJECT
 10
2083.0
 20
-3643.9999999999968
 30
0.0
 11
2080.0
 21
-3643.9999999999968
 31
0.0
1001
ACDBBLOCKREPETAG
1070
     1
1071
       19
1005
12A237
  0
ARC
  5
12A238
  8
OBJECT
 10
2083.0
 20
-3646.9999999999968
 30
0.0
 40
3.0
 50
0.0
 51
90.0
1001
ACDBBLOCKREPETAG
1070
     1
1071
       20
1005
12A238
  0
LINE
  5
12A239
  8
OBJECT
 10
2080.0
 20
-3767.9999999999968
 30
0.0
 11
2083.0
 21
-3767.9999999999968
 31
0.0
1001
ACDBBLOCKREPETAG
1070
     1
1071
       21
1005
12A239
  0
ARC
  5
12A23A
  8
OBJECT
 10
2083.0
 20
-3764.9999999999968
 30
0.0
 40
3.0
 50
270.0
 51
0.0
1001
ACDBBLOCKREPETAG
1070
     1
1071
       22
1005
12A23A
  0
LINE
  5
12A23B
  8
OBJECT
 10
2086.0
 20
-3764.9999999999968
 30
0.0
 11
2086.0
 21
-3646.9999999999968
 31
0.0
1001
ACDBBLOCKREPETAG
1070
     1
1071
       23
1005
12A23B
  0
LINE
  5
12A23C
  8
HIDDEN
 10
2088.0
 20
-3690.9999999999968
 30
0.0
 11
2088.0
 21
-3750.9999999999968
 31
0.0
1001
ACDBBLOCKREPETAG
1070
     1
1071
       24
1005
12A23C
  0
LINE
  5
12A23D
  8
OBJECT
 10
2133.0
 20
-3312.9999999999959
 30
0.0
 11
2140.0
 21
-3312.9999999999959
 31
0.0
1001
ACDBBLOCKREPETAG
1070
     1
1071
        7
1005
12A23D
  0
LINE
  5
12A23E
  8
OBJECT
 10
2140.0
 20
-3312.9999999999959
 30
0.0
 11
2140.0
 21
-3406.9999999999959
 31
0.0
1001
ACDBBLOCKREPETAG
1070
     1
1071
        8
1005
12A23E
  0
LINE
  5
12A23F
  8
OBJECT
 10
2140.0
 20
-3406.9999999999959
 30
0.0
 11
2133.0
 21
-3406.9999999999959
 31
0.0
1001
ACDBBLOCKREPETAG
1070
     1
1071
        9
1005
12A23F
  0
LINE
  5
12A240
  8
OBJECT
 10
2133.0
 20
-3406.9999999999959
 30
0.0
 11
2133.0
 21
-3312.9999999999959
 31
0.0
1001
ACDBBLOCKREPETAG
1070
     1
1071
       10
1005
12A240
  0
LINE
  5
12A241
  8
CENTER
 10
2155.0
 20
-3359.9999999999959
 30
0.0
 11
2080.0
 21
-3359.9999999999959
 31
0.0
1001
ACDBBLOCKREPETAG
1070
     1
1071
       11
1005
12A241
  0
LINE
  5
12A242
  8
OBJECT
 10
2133.0
 20
-3315.9999999999959
 30
0.0
 11
2097.0
 21
-3315.9999999999959
 31
0.0
1001
ACDBBLOCKREPETAG
1070
     1
1071
       12
1005
12A242
  0
LINE
  5
12A243
  8
OBJECT
 10
2097.0
 20
-3315.9999999999959
 30
0.0
 11
2097.0
 21
-3403.9999999999959
 31
0.0
1001
ACDBBLOCKREPETAG
1070
     1
1071
       13
1005
12A243
  0
LINE
  5
12A244
  8
OBJECT
 10
2097.0
 20
-3403.9999999999959
 30
0.0
 11
2133.0
 21
-3403.9999999999959
 31
0.0
1001
ACDBBLOCKREPETAG
1070
     1
1071
       14
1005
12A244
  0
LINE
  5
12A245
  8
OBJECT
 10
2093.0
 20
-3320.4999999999959
 30
0.0
 11
2086.0
 21
-3320.4999999999959
 31
0.0
1001
ACDBBLOCKREPETAG
1070
     1
1071
       15
1005
12A245
  0
LINE
  5
12A246
  8
OBJECT
 10
2086.0
 20
-3399.4999999999959
 30
0.0
 11
2093.0
 21
-3399.4999999999959
 31
0.0
1001
ACDBBLOCKREPETAG
1070
     1
1071
       16
1005
12A246
  0
LINE
  5
12A247
  8
OBJECT
 10
2093.0
 20
-3399.4999999999959
 30
0.0
 11
2093.0
 21
-3320.4999999999959
 31
0.0
1001
ACDBBLOCKREPETAG
1070
     1
1071
       17
1005
12A247
  0
LINE
  5
12A248
  8
OBJECT
 10
2097.0
 20
-3315.9999999999959
 30
0.0
 11
2093.0
 21
-3320.4999999999959
 31
0.0
1001
ACDBBLOCKREPETAG
1070
     1
1071
       18
1005
12A248
  0
LINE
  5
12A249
  8
OBJECT
 10
2097.0
 20
-3403.9999999999959
 30
0.0
 11
2093.0
 21
-3399.4999999999959
 31
0.0
1001
ACDBBLOCKREPETAG
1070
     1
1071
       19
1005
12A249
  0
LINE
  5
12A24A
  8
OBJECT
 10
2083.0
 20
-3297.9999999999959
 30
0.0
 11
2080.0
 21
-3297.9999999999959
 31
0.0
1001
ACDBBLOCKREPETAG
1070
     1
1071
       20
1005
12A24A
  0
ARC
  5
12A24B
  8
OBJECT
 10
2083.0
 20
-3300.9999999999968
 30
0.0
 40
3.0
 50
0.0
 51
90.0
1001
ACDBBLOCKREPETAG
1070
     1
1071
       21
1005
12A24B
  0
LINE
  5
12A24C
  8
OBJECT
 10
2080.0
 20
-3421.9999999999968
 30
0.0
 11
2083.0
 21
-3421.9999999999968
 31
0.0
1001
ACDBBLOCKREPETAG
1070
     1
1071
       22
1005
12A24C
  0
ARC
  5
12A24D
  8
OBJECT
 10
2083.0
 20
-3418.9999999999959
 30
0.0
 40
3.0
 50
270.0
 51
0.0
1001
ACDBBLOCKREPETAG
1070
     1
1071
       23
1005
12A24D
  0
LINE
  5
12A24E
  8
OBJECT
 10
2086.0
 20
-3418.9999999999959
 30
0.0
 11
2086.0
 21
-3300.9999999999968
 31
0.0
1001
ACDBBLOCKREPETAG
1070
     1
1071
       24
1005
12A24E
  0
LINE
  5
12A24F
  8
HIDDEN
 10
2088.0
 20
-3329.9999999999959
 30
0.0
 11
2088.0
 21
-3389.9999999999968
 31
0.0
1001
ACDBBLOCKREPETAG
1070
     1
1071
       25
1005
12A24F
  0
TEXT
  5
12A250
  8
SLIM
 10
1896.75
 20
-3882.4999999999959
 30
0.0
 40
35.0
  1
通常枝50（1）
 41
0.75
  0
LINE
  5
12A251
  8
OBJECT
 10
4560.0
 20
-527.99999999999955
 30
0.0
 11
4440.0
 21
-527.99999999999955
 31
0.0
1001
ACDBBLOCKREPETAG
1070
     1
1071
      144
1005
12A251
  0
ARC
  5
12A252
  8
OBJECT
 10
4440.0
 20
-530.99999999999955
 30
0.0
 40
3.0
 50
90.0
 51
180.0
1001
ACDBBLOCKREPETAG
1070
     1
1071
      145
1005
12A252
  0
LINE
  5
12A253
  8
OBJECT
 10
4437.0
 20
-530.99999999999955
 30
0.0
 11
4437.0
 21
-533.99999999999955
 31
0.0
1001
ACDBBLOCKREPETAG
1070
     1
1071
      146
1005
12A253
  0
LINE
  5
12A254
  8
OBJECT
 10
4563.0
 20
-530.99999999999955
 30
0.0
 11
4563.0
 21
-533.99999999999955
 31
0.0
1001
ACDBBLOCKREPETAG
1070
     1
1071
      147
1005
12A254
  0
ARC
  5
12A255
  8
OBJECT
 10
4560.0
 20
-530.99999999999955
 30
0.0
 40
3.0
 50
0.0
 51
90.0
1001
ACDBBLOCKREPETAG
1070
     1
1071
      148
1005
12A255
  0
LINE
  5
12A256
  8
OBJECT
 10
4443.0
 20
-459.99999999999949
 30
0.0
 11
4443.0
 21
-527.99999999999955
 31
0.0
1001
ACDBBLOCKREPETAG
1070
     1
1071
      149
1005
12A256
  0
LINE
  5
12A257
  8
OBJECT
 10
4557.0
 20
-459.99999999999949
 30
0.0
 11
4443.0
 21
-459.99999999999949
 31
0.0
1001
ACDBBLOCKREPETAG
1070
     1
1071
      150
1005
12A257
  0
LINE
  5
12A258
  8
OBJECT
 10
4557.0
 20
-459.99999999999949
 30
0.0
 11
4557.0
 21
-527.99999999999955
 31
0.0
1001
ACDBBLOCKREPETAG
1070
     1
1071
      151
1005
12A258
  0
LINE
  5
12A259
  8
CENTER
 10
4500.0
 20
-444.99999999999937
 30
0.0
 11
4500.0
 21
-669.99999999999955
 31
0.0
1001
ACDBBLOCKREPETAG
1070
     1
1071
       20
1005
12A259
  0
LINE
  5
12A25A
  8
OBJECT
 10
4425.0
 20
-533.99999999999955
 30
0.0
 11
4425.0
 21
-657.99999999999955
 31
0.0
1001
ACDBBLOCKREPETAG
1070
     1
1071
       21
1005
12A25A
  0
LINE
  5
12A25B
  8
OBJECT
 10
4420.0
 20
-657.99999999999955
 30
0.0
 11
4580.0
 21
-657.99999999999955
 31
0.0
1001
ACDBBLOCKREPETAG
1070
     1
1071
       22
1005
12A25B
  0
LINE
  5
12A25C
  8
OBJECT
 10
4574.9999999997144
 20
-533.99999999999955
 30
0.0
 11
4425.0
 21
-533.99999999999955
 31
0.0
1001
ACDBBLOCKREPETAG
1070
     1
1071
       23
1005
12A25C
  0
LINE
  5
12A25D
  8
OBJECT
 10
4420.0
 20
-657.99999999999955
 30
0.0
 11
4420.0
 21
-669.99999999999955
 31
0.0
1001
ACDBBLOCKREPETAG
1070
     1
1071
       24
1005
12A25D
  0
LINE
  5
12A25E
  8
OBJECT
 10
4420.0
 20
-669.99999999999955
 30
0.0
 11
4580.0
 21
-669.99999999999955
 31
0.0
1001
ACDBBLOCKREPETAG
1070
     1
1071
       25
1005
12A25E
  0
LINE
  5
12A25F
  8
OBJECT
 10
4580.0
 20
-669.99999999999955
 30
0.0
 11
4580.0
 21
-657.99999999999955
 31
0.0
1001
ACDBBLOCKREPETAG
1070
     1
1071
       26
1005
12A25F
  0
LINE
  5
12A260
  8
OBJECT
 10
4574.9999999997144
 20
-533.99999999999955
 30
0.0
 11
4575.0
 21
-657.99999999999955
 31
0.0
1001
ACDBBLOCKREPETAG
1070
     1
1071
       28
1005
12A260
  0
LINE
  5
12A261
  8
HIDDEN
 10
4552.5
 20
-459.99999999999949
 30
0.0
 11
4552.5
 21
-533.99999999999955
 31
0.0
1001
ACDBBLOCKREPETAG
1070
     1
1071
      182
1005
12A261
  0
LINE
  5
12A262
  8
HIDDEN
 10
4447.5
 20
-459.99999999999949
 30
0.0
 11
4447.5
 21
-533.99999999999955
 31
0.0
1001
ACDBBLOCKREPETAG
1070
     1
1071
      183
1005
12A262
  0
POINT
  5
12A263
  8
DOTS
 10
4500.0
 20
-654.99999999999966
 30
0.0
1001
ACDBBLOCKREPETAG
1070
     1
1071
      190
1005
12A263
  0
LINE
  5
12A264
  8
OBJECT
 10
4060.0
 20
-527.99999999999955
 30
0.0
 11
3940.0
 21
-527.99999999999955
 31
0.0
1001
ACDBBLOCKREPETAG
1070
     1
1071
      136
1005
12A264
  0
ARC
  5
12A265
  8
OBJECT
 10
3940.0
 20
-530.99999999999955
 30
0.0
 40
3.0
 50
90.0
 51
180.0
1001
ACDBBLOCKREPETAG
1070
     1
1071
      137
1005
12A265
  0
LINE
  5
12A266
  8
OBJECT
 10
3937.0
 20
-530.99999999999955
 30
0.0
 11
3937.0
 21
-533.99999999999955
 31
0.0
1001
ACDBBLOCKREPETAG
1070
     1
1071
      138
1005
12A266
  0
LINE
  5
12A267
  8
OBJECT
 10
4063.0
 20
-530.99999999999955
 30
0.0
 11
4063.0
 21
-533.99999999999955
 31
0.0
1001
ACDBBLOCKREPETAG
1070
     1
1071
      139
1005
12A267
  0
ARC
  5
12A268
  8
OBJECT
 10
4060.0
 20
-530.99999999999955
 30
0.0
 40
3.0
 50
0.0
 51
90.0
1001
ACDBBLOCKREPETAG
1070
     1
1071
      140
1005
12A268
  0
LINE
  5
12A269
  8
OBJECT
 10
3943.0
 20
-459.99999999999949
 30
0.0
 11
3943.0
 21
-527.99999999999955
 31
0.0
1001
ACDBBLOCKREPETAG
1070
     1
1071
      141
1005
12A269
  0
LINE
  5
12A26A
  8
OBJECT
 10
4057.0
 20
-459.99999999999949
 30
0.0
 11
3943.0
 21
-459.99999999999949
 31
0.0
1001
ACDBBLOCKREPETAG
1070
     1
1071
      142
1005
12A26A
  0
LINE
  5
12A26B
  8
OBJECT
 10
4057.0
 20
-459.99999999999949
 30
0.0
 11
4057.0
 21
-527.99999999999955
 31
0.0
1001
ACDBBLOCKREPETAG
1070
     1
1071
      143
1005
12A26B
  0
LINE
  5
12A26C
  8
CENTER
 10
4000.0
 20
-444.99999999999937
 30
0.0
 11
4000.0
 21
-669.99999999999955
 31
0.0
1001
ACDBBLOCKREPETAG
1070
     1
1071
        0
1005
12A26C
  0
LINE
  5
12A26D
  8
OBJECT
 10
3925.0
 20
-533.99999999999955
 30
0.0
 11
3925.0
 21
-657.99999999999955
 31
0.0
1001
ACDBBLOCKREPETAG
1070
     1
1071
        1
1005
12A26D
  0
LINE
  5
12A26E
  8
OBJECT
 10
3920.0
 20
-657.99999999999955
 30
0.0
 11
4080.0
 21
-657.99999999999955
 31
0.0
1001
ACDBBLOCKREPETAG
1070
     1
1071
        2
1005
12A26E
  0
LINE
  5
12A26F
  8
OBJECT
 10
4080.0
 20
-533.99999999999955
 30
0.0
 11
3925.0
 21
-533.99999999999955
 31
0.0
1001
ACDBBLOCKREPETAG
1070
     1
1071
        3
1005
12A26F
  0
LINE
  5
12A270
  8
OBJECT
 10
3920.0
 20
-657.99999999999955
 30
0.0
 11
3920.0
 21
-669.99999999999955
 31
0.0
1001
ACDBBLOCKREPETAG
1070
     1
1071
        4
1005
12A270
  0
LINE
  5
12A271
  8
OBJECT
 10
3920.0
 20
-669.99999999999955
 30
0.0
 11
4080.0
 21
-669.99999999999955
 31
0.0
1001
ACDBBLOCKREPETAG
1070
     1
1071
        5
1005
12A271
  0
LINE
  5
12A272
  8
OBJECT
 10
4080.0
 20
-669.99999999999955
 30
0.0
 11
4080.0
 21
-657.99999999999955
 31
0.0
1001
ACDBBLOCKREPETAG
1070
     1
1071
        6
1005
12A272
  0
ARC
  5
12A273
  8
OBJECT
 10
4200.6872746716726
 20
-649.40809941010718
 30
0.0
 40
170.6350503965856
 50
137.44134459184301
 51
149.91949581337221
1001
ACDBBLOCKREPETAG
1070
     1
1071
       15
1005
12A273
  0
ARC
  5
12A274
  8
OBJECT
 10
4118.8455987040506
 20
-605.88272669536445
 30
0.0
 40
78.072222021763665
 50
147.4551531038623
 51
164.66365997719231
1001
ACDBBLOCKREPETAG
1070
     1
1071
       16
1005
12A274
  0
ARC
  5
12A275
  8
OBJECT
 10
4085.7554349608722
 20
-595.99999999999955
 30
0.0
 40
43.55353926885617
 50
165.68845230068339
 51
194.31154769931649
1001
ACDBBLOCKREPETAG
1070
     1
1071
       17
1005
12A275
  0
ARC
  5
12A276
  8
OBJECT
 10
4200.6872746716726
 20
-542.59190058989179
 30
0.0
 40
170.6350503965856
 50
210.08050418662771
 51
222.55865540815699
1001
ACDBBLOCKREPETAG
1070
     1
1071
       18
1005
12A276
  0
ARC
  5
12A277
  8
OBJECT
 10
4118.8455987040506
 20
-586.11727330463452
 30
0.0
 40
78.072222021763665
 50
195.33634002280749
 51
212.5448468961377
1001
ACDBBLOCKREPETAG
1070
     1
1071
       19
1005
12A277
  0
LINE
  5
12A278
  8
HIDDEN
 10
4052.5
 20
-459.99999999999949
 30
0.0
 11
4052.5
 21
-533.99999999999955
 31
0.0
1001
ACDBBLOCKREPETAG
1070
     1
1071
      180
1005
12A278
  0
LINE
  5
12A279
  8
HIDDEN
 10
3947.5
 20
-459.99999999999949
 30
0.0
 11
3947.5
 21
-533.99999999999955
 31
0.0
1001
ACDBBLOCKREPETAG
1070
     1
1071
      181
1005
12A279
  0
POINT
  5
12A27A
  8
DOTS
 10
4000.0
 20
-654.99999999999966
 30
0.0
1001
ACDBBLOCKREPETAG
1070
     1
1071
      191
1005
12A27A
  0
LINE
  5
12A27B
  8
OBJECT
 10
2560.0
 20
-527.99999999999955
 30
0.0
 11
2440.0
 21
-527.99999999999955
 31
0.0
1001
ACDBBLOCKREPETAG
1070
     1
1071
      144
1005
12A27B
  0
ARC
  5
12A27C
  8
OBJECT
 10
2440.0
 20
-530.99999999999955
 30
0.0
 40
3.0
 50
90.0
 51
180.0
1001
ACDBBLOCKREPETAG
1070
     1
1071
      145
1005
12A27C
  0
LINE
  5
12A27D
  8
OBJECT
 10
2437.0
 20
-530.99999999999955
 30
0.0
 11
2437.0
 21
-533.99999999999955
 31
0.0
1001
ACDBBLOCKREPETAG
1070
     1
1071
      146
1005
12A27D
  0
LINE
  5
12A27E
  8
OBJECT
 10
2563.0
 20
-530.99999999999955
 30
0.0
 11
2563.0
 21
-533.99999999999955
 31
0.0
1001
ACDBBLOCKREPETAG
1070
     1
1071
      147
1005
12A27E
  0
ARC
  5
12A27F
  8
OBJECT
 10
2560.0
 20
-530.99999999999955
 30
0.0
 40
3.0
 50
0.0
 51
90.0
1001
ACDBBLOCKREPETAG
1070
     1
1071
      148
1005
12A27F
  0
LINE
  5
12A280
  8
OBJECT
 10
2443.0
 20
-459.99999999999949
 30
0.0
 11
2443.0
 21
-527.99999999999955
 31
0.0
1001
ACDBBLOCKREPETAG
1070
     1
1071
      149
1005
12A280
  0
LINE
  5
12A281
  8
OBJECT
 10
2557.0
 20
-459.99999999999949
 30
0.0
 11
2443.0
 21
-459.99999999999949
 31
0.0
1001
ACDBBLOCKREPETAG
1070
     1
1071
      150
1005
12A281
  0
LINE
  5
12A282
  8
OBJECT
 10
2557.0
 20
-459.99999999999949
 30
0.0
 11
2557.0
 21
-527.99999999999955
 31
0.0
1001
ACDBBLOCKREPETAG
1070
     1
1071
      151
1005
12A282
  0
LINE
  5
12A283
  8
CENTER
 10
2500.0
 20
-444.99999999999937
 30
0.0
 11
2500.0
 21
-669.99999999999955
 31
0.0
1001
ACDBBLOCKREPETAG
1070
     1
1071
       20
1005
12A283
  0
LINE
  5
12A284
  8
OBJECT
 10
2425.0
 20
-533.99999999999955
 30
0.0
 11
2425.0
 21
-657.99999999999955
 31
0.0
1001
ACDBBLOCKREPETAG
1070
     1
1071
       21
1005
12A284
  0
LINE
  5
12A285
  8
OBJECT
 10
2420.0
 20
-657.99999999999955
 30
0.0
 11
2580.0
 21
-657.99999999999955
 31
0.0
1001
ACDBBLOCKREPETAG
1070
     1
1071
       22
1005
12A285
  0
LINE
  5
12A286
  8
OBJECT
 10
2574.9999999997131
 20
-533.99999999999955
 30
0.0
 11
2425.0
 21
-533.99999999999955
 31
0.0
1001
ACDBBLOCKREPETAG
1070
     1
1071
       23
1005
12A286
  0
LINE
  5
12A287
  8
OBJECT
 10
2420.0
 20
-657.99999999999955
 30
0.0
 11
2420.0
 21
-669.99999999999955
 31
0.0
1001
ACDBBLOCKREPETAG
1070
     1
1071
       24
1005
12A287
  0
LINE
  5
12A288
  8
OBJECT
 10
2420.0
 20
-669.99999999999955
 30
0.0
 11
2580.0
 21
-669.99999999999955
 31
0.0
1001
ACDBBLOCKREPETAG
1070
     1
1071
       25
1005
12A288
  0
LINE
  5
12A289
  8
OBJECT
 10
2580.0
 20
-669.99999999999955
 30
0.0
 11
2580.0
 21
-657.99999999999955
 31
0.0
1001
ACDBBLOCKREPETAG
1070
     1
1071
       26
1005
12A289
  0
LINE
  5
12A28A
  8
OBJECT
 10
2574.9999999997131
 20
-533.99999999999955
 30
0.0
 11
2575.0
 21
-657.99999999999955
 31
0.0
1001
ACDBBLOCKREPETAG
1070
     1
1071
       28
1005
12A28A
  0
LINE
  5
12A28B
  8
HIDDEN
 10
2552.5
 20
-459.99999999999949
 30
0.0
 11
2552.5
 21
-533.99999999999955
 31
0.0
1001
ACDBBLOCKREPETAG
1070
     1
1071
      182
1005
12A28B
  0
LINE
  5
12A28C
  8
HIDDEN
 10
2447.5
 20
-459.99999999999949
 30
0.0
 11
2447.5
 21
-533.99999999999955
 31
0.0
1001
ACDBBLOCKREPETAG
1070
     1
1071
      183
1005
12A28C
  0
POINT
  5
12A28D
  8
DOTS
 10
2500.0
 20
-654.99999999999966
 30
0.0
1001
ACDBBLOCKREPETAG
1070
     1
1071
      190
1005
12A28D
  0
LINE
  5
12A28E
  8
OBJECT
 10
2060.0
 20
-527.99999999999955
 30
0.0
 11
1940.0
 21
-527.99999999999955
 31
0.0
1001
ACDBBLOCKREPETAG
1070
     1
1071
      136
1005
12A28E
  0
ARC
  5
12A28F
  8
OBJECT
 10
1940.0
 20
-530.99999999999955
 30
0.0
 40
3.0
 50
90.0
 51
180.0
1001
ACDBBLOCKREPETAG
1070
     1
1071
      137
1005
12A28F
  0
LINE
  5
12A290
  8
OBJECT
 10
1937.0
 20
-530.99999999999955
 30
0.0
 11
1937.0
 21
-533.99999999999955
 31
0.0
1001
ACDBBLOCKREPETAG
1070
     1
1071
      138
1005
12A290
  0
LINE
  5
12A291
  8
OBJECT
 10
2063.0
 20
-530.99999999999955
 30
0.0
 11
2063.0
 21
-533.99999999999955
 31
0.0
1001
ACDBBLOCKREPETAG
1070
     1
1071
      139
1005
12A291
  0
ARC
  5
12A292
  8
OBJECT
 10
2060.0
 20
-530.99999999999955
 30
0.0
 40
3.0
 50
0.0
 51
90.0
1001
ACDBBLOCKREPETAG
1070
     1
1071
      140
1005
12A292
  0
LINE
  5
12A293
  8
OBJECT
 10
1943.0
 20
-459.99999999999949
 30
0.0
 11
1943.0
 21
-527.99999999999955
 31
0.0
1001
ACDBBLOCKREPETAG
1070
     1
1071
      141
1005
12A293
  0
LINE
  5
12A294
  8
OBJECT
 10
2057.0
 20
-459.99999999999949
 30
0.0
 11
1943.0
 21
-459.99999999999949
 31
0.0
1001
ACDBBLOCKREPETAG
1070
     1
1071
      142
1005
12A294
  0
LINE
  5
12A295
  8
OBJECT
 10
2057.0
 20
-459.99999999999949
 30
0.0
 11
2057.0
 21
-527.99999999999955
 31
0.0
1001
ACDBBLOCKREPETAG
1070
     1
1071
      143
1005
12A295
  0
LINE
  5
12A296
  8
CENTER
 10
2000.0
 20
-444.99999999999937
 30
0.0
 11
2000.0
 21
-669.99999999999955
 31
0.0
1001
ACDBBLOCKREPETAG
1070
     1
1071
        0
1005
12A296
  0
LINE
  5
12A297
  8
OBJECT
 10
1925.0
 20
-533.99999999999955
 30
0.0
 11
1925.0
 21
-657.99999999999955
 31
0.0
1001
ACDBBLOCKREPETAG
1070
     1
1071
        1
1005
12A297
  0
LINE
  5
12A298
  8
OBJECT
 10
1920.0
 20
-657.99999999999955
 30
0.0
 11
2080.0
 21
-657.99999999999955
 31
0.0
1001
ACDBBLOCKREPETAG
1070
     1
1071
        2
1005
12A298
  0
LINE
  5
12A299
  8
OBJECT
 10
2080.0
 20
-533.99999999999955
 30
0.0
 11
1925.0
 21
-533.99999999999955
 31
0.0
1001
ACDBBLOCKREPETAG
1070
     1
1071
        3
1005
12A299
  0
LINE
  5
12A29A
  8
OBJECT
 10
1920.0
 20
-657.99999999999955
 30
0.0
 11
1920.0
 21
-669.99999999999955
 31
0.0
1001
ACDBBLOCKREPETAG
1070
     1
1071
        4
1005
12A29A
  0
LINE
  5
12A29B
  8
OBJECT
 10
1920.0
 20
-669.99999999999955
 30
0.0
 11
2080.0
 21
-669.99999999999955
 31
0.0
1001
ACDBBLOCKREPETAG
1070
     1
1071
        5
1005
12A29B
  0
LINE
  5
12A29C
  8
OBJECT
 10
2080.0
 20
-669.99999999999955
 30
0.0
 11
2080.0
 21
-657.99999999999955
 31
0.0
1001
ACDBBLOCKREPETAG
1070
     1
1071
        6
1005
12A29C
  0
ARC
  5
12A29D
  8
OBJECT
 10
2200.6872746716731
 20
-649.40809941010718
 30
0.0
 40
170.6350503965856
 50
137.44134459184301
 51
149.91949581336559
1001
ACDBBLOCKREPETAG
1070
     1
1071
       15
1005
12A29D
  0
ARC
  5
12A29E
  8
OBJECT
 10
2118.8455987040511
 20
-605.88272669536445
 30
0.0
 40
78.072222021763665
 50
147.4551531038623
 51
164.66365997719581
1001
ACDBBLOCKREPETAG
1070
     1
1071
       16
1005
12A29E
  0
ARC
  5
12A29F
  8
OBJECT
 10
2085.7554349608731
 20
-595.99999999999955
 30
0.0
 40
43.55353926885617
 50
165.6884523006803
 51
194.3115476993197
1001
ACDBBLOCKREPETAG
1070
     1
1071
       17
1005
12A29F
  0
ARC
  5
12A2A0
  8
OBJECT
 10
2200.6872746716731
 20
-542.59190058989179
 30
0.0
 40
170.6350503965856
 50
210.0805041866343
 51
222.55865540815699
1001
ACDBBLOCKREPETAG
1070
     1
1071
       18
1005
12A2A0
  0
ARC
  5
12A2A1
  8
OBJECT
 10
2118.8455987040511
 20
-586.11727330463452
 30
0.0
 40
78.072222021763665
 50
195.33634002280411
 51
212.5448468961377
1001
ACDBBLOCKREPETAG
1070
     1
1071
       19
1005
12A2A1
  0
LINE
  5
12A2A2
  8
HIDDEN
 10
2052.5
 20
-459.99999999999949
 30
0.0
 11
2052.5
 21
-533.99999999999955
 31
0.0
1001
ACDBBLOCKREPETAG
1070
     1
1071
      180
1005
12A2A2
  0
LINE
  5
12A2A3
  8
HIDDEN
 10
1947.5
 20
-459.99999999999949
 30
0.0
 11
1947.5
 21
-533.99999999999955
 31
0.0
1001
ACDBBLOCKREPETAG
1070
     1
1071
      181
1005
12A2A3
  0
POINT
  5
12A2A4
  8
DOTS
 10
2000.0
 20
-654.99999999999966
 30
0.0
1001
ACDBBLOCKREPETAG
1070
     1
1071
      191
1005
12A2A4
  0
TEXT
  5
12A2A5
  8
SLIM
 10
1837.75
 20
282.50000000000011
 30
0.0
 40
35.0
  1
（枝管サイズ毎に寸法が異なります。管底の位置は全サイズで同じです）
 41
0.75
  0
TEXT
  5
12A2A6
  8
SLIM
 10
1850.0
 20
532.5
 30
0.0
 40
75.0
  1
側面図の代表機種
 41
0.75
  0
TEXT
  5
12A2A7
  8
SLIM
 10
1850.0
 20
369.99999999999989
 30
0.0
 40
100.0
  1
4SSL2-A3-0
 41
0.75
  0
LINE
  5
12A2A8
  8
CENTER
 10
4577.0
 20
-596.0
 30
0.0
 11
4423.0
 21
-596.0
 31
0.0
1001
ACDBBLOCKREPETAG
1070
     1
1071
       17
1005
12A2A8
  0
CIRCLE
  5
12A2A9
  8
OBJECT
 10
4500.0
 20
-596.0
 30
0.0
 40
41.5
1001
ACDBBLOCKREPETAG
1070
     1
1071
       19
1005
12A2A9
  0
CIRCLE
  5
12A2AA
  8
OBJECT
 10
4500.0
 20
-596.0
 30
0.0
 40
54.0
1001
ACDBBLOCKREPETAG
1070
     1
1071
       20
1005
12A2AA
  0
ARC
  5
12A2AB
  8
OBJECT
 10
4500.0
 20
-596.0
 30
0.0
 40
62.0
 50
287.89655112920718
 51
252.10344887079279
1001
ACDBBLOCKREPETAG
1070
     1
1071
       21
1005
12A2AB
  0
LINE
  5
12A2AC
  8
OBJECT
 10
4480.9474411167421
 20
-655.0
 30
0.0
 11
4519.052558883257
 21
-655.0
 31
0.0
1001
ACDBBLOCKREPETAG
1070
     1
1071
       22
1005
12A2AC
  0
ARC
  5
12A2AD
  8
OBJECT
 10
4000.0
 20
-199.99999999999909
 30
0.0
 40
50.0
 50
298.81994300000417
 51
228.52376955964741
1001
ACDBBLOCKREPETAG
1070
     1
1071
      185
1005
12A2AD
  0
INSERT
  5
12A2AE
  8
SLIM
  6
CONTINUOUS
  2
*X27
 10
0.0
 20
0.0
 30
0.0
1001
GRADIENTCOLOR1ACI
1070
     5
1001
GRADIENTCOLOR2ACI
1070
     2
1001
ACDBBLOCKREPETAG
1070
     1
1071
      410
1005
12A2AE
1001
ACAD
1000
HATCH
1002
{
1070
    19
1000
EARTH
1040
1.0
1040
0.7853981633974483
1000
R14_HATCH_DATA
1000
12A2AE
1011
1.0
1021
0.0
1031
0.0
1021
0.0
1031
0.0
1011
0.0
1021
0.0
1031
0.0
1021
1.0
1031
0.0
1011
0.0
1021
0.0
1031
0.0
1021
0.0
1031
1.0
1040
0.0
1010
0.0
1020
0.0
1030
1.0
1000
EARTH
1070
     0
1070
     0
1071
        4
1071
        7
1070
     1
1070
     1
1071
        4
1040
4000.0
1040
-124.9999999999991
1040
0.0
1040
4000.0
1040
-114.9999999999991
1040
0.4142135623730951
1040
3915.0
1040
-199.99999999999909
1040
0.0
1040
3925.0
1040
-199.99999999999909
1040
-0.4142135623730951
1071
        0
1071
        7
1070
     1
1070
     1
1071
        4
1040
4000.0
1040
-114.9999999999991
1040
0.0
1040
4000.0
1040
-124.9999999999991
1040
-0.1505314338169883
1040
4042.2018956920169
1040
-137.99999999999909
1040
0.0
1040
4058.1463670404269
1040
-137.99999999999909
1040
0.1905924244794523
1071
        0
1071
        7
1070
     1
1070
     1
1071
        4
1040
3925.0
1040
-199.99999999999909
1040
0.0
1040
3915.0
1040
-199.99999999999909
1040
0.4142135623730951
1040
4000.0
1040
-284.99999999999898
1040
0.0
1040
4000.0
1040
-274.99999999999909
1040
-0.4142135623730951
1071
        0
1071
        7
1070
     1
1070
     1
1071
        4
1040
4058.1463670404269
1040
-261.99999999999909
1040
0.0
1040
4042.2018956920169
1040
-261.99999999999909
1040
-0.1505314338169883
1040
4000.0
1040
-274.99999999999909
1040
0.0
1040
4000.0
1040
-284.99999999999898
1040
0.1905924244794523
1071
        0
1070
     0
1070
     1
1040
0.7853981633974483
1040
1.0
1070
     0
1070
     6
1040
0.7853981633974483
1040
4000.0
1040
-199.99999999999909
1040
0.0000000000000009
1040
8.9802561210691536
1070
     2
1040
6.3499999999999979
1040
-6.3499999999999979
1040
0.7853981633974483
1040
3998.3162019772999
1040
-198.3162019772985
1040
0.0000000000000009
1040
8.9802561210691536
1070
     2
1040
6.3499999999999979
1040
-6.3499999999999979
1040
0.7853981633974483
1040
3996.6324039545989
1040
-196.63240395459809
1040
0.0000000000000009
1040
8.9802561210691536
1070
     2
1040
6.3499999999999979
1040
-6.3499999999999979
1040
2.3561944901923431
1040
3996.6324039545989
1040
-195.5098719394644
1040
-8.9802561210691536
1040
0.0000000000000009
1070
     2
1040
6.3499999999999979
1040
-6.3499999999999979
1040
2.3561944901923431
1040
3998.3162019772999
1040
-193.82607391676399
1040
-8.9802561210691536
1040
0.0000000000000009
1070
     2
1040
6.3499999999999979
1040
-6.3499999999999979
1040
2.3561944901923431
1040
4000.0
1040
-192.1422758940636
1040
-8.9802561210691536
1040
0.0000000000000009
1070
     2
1040
6.3499999999999979
1040
-6.3499999999999979
1040
0.3053229869521416
1071
        4
1040
3959.5892010489192
1040
-130.8712738544678
1040
0.0
1040
4014.281180558874
1040
-123.8488453063099
1040
0.0
1040
3923.229726966516
1040
-221.5522009330717
1040
0.0
1040
4010.920221300692
1040
-281.0901840473847
1040
0.0
1002
}
  0
LINE
  5
12A2AF
  8
CENTER
 10
4080.0
 20
-199.99999999999909
 30
0.0
 11
3900.0
 21
-199.99999999999909
 31
0.0
1001
ACDBBLOCKREPETAG
1070
     1
1071
      187
1005
12A2AF
  0
LINE
  5
12A2B0
  8
CENTER
 10
4000.0
 20
-299.99999999999898
 30
0.0
 11
4000.0
 21
-99.999999999999091
 31
0.0
1001
ACDBBLOCKREPETAG
1070
     1
1071
      188
1005
12A2B0
  0
LINE
  5
12A2B1
  8
OBJECT
 10
4042.2018956920169
 20
-137.99999999999909
 30
0.0
 11
4080.0
 21
-137.99999999999909
 31
0.0
1001
ACDBBLOCKREPETAG
1070
     1
1071
      192
1005
12A2B1
  0
LINE
  5
12A2B2
  8
OBJECT
 10
4042.2018956920169
 20
-261.99999999999909
 30
0.0
 11
4080.0
 21
-261.99999999999909
 31
0.0
1001
ACDBBLOCKREPETAG
1070
     1
1071
      193
1005
12A2B2
  0
ARC
  5
12A2B3
  8
OBJECT
 10
4000.0
 20
-199.99999999999909
 30
0.0
 40
85.0
 50
46.837102859834147
 51
313.16289714016602
1001
ACDBBLOCKREPETAG
1070
     1
1071
      202
1005
12A2B3
  0
CIRCLE
  5
12A2B4
  8
OBJECT
 10
4000.0
 20
-199.99999999999909
 30
0.0
 40
75.0
1001
ACDBBLOCKREPETAG
1070
     1
1071
      372
1005
12A2B4
  0
CIRCLE
  5
12A2B5
  8
OBJECT
 10
4000.0
 20
-199.99999999999909
 30
0.0
 40
52.5
1001
ACDBBLOCKREPETAG
1070
     1
1071
      373
1005
12A2B5
  0
CIRCLE
  5
12A2B6
  8
OBJECT
 10
4000.0
 20
-199.99999999999909
 30
0.0
 40
57.0
1001
ACDBBLOCKREPETAG
1070
     1
1071
      374
1005
12A2B6
  0
LINE
  5
12A2B7
  8
OBJECT
 10
3969.8635289348599
 20
-242.98887195239979
 30
0.0
 11
3979.8564918232369
 21
-222.48688253356801
 31
0.0
1001
ACDBBLOCKREPETAG
1070
     1
1071
      402
1005
12A2B7
  0
LINE
  5
12A2B8
  8
OBJECT
 10
3965.7499660391568
 20
-239.7892595266741
 30
0.0
 11
3973.9071022665089
 21
-223.05373004430751
 31
0.0
1001
ACDBBLOCKREPETAG
1070
     1
1071
      403
1005
12A2B8
  0
LINE
  5
12A2B9
  8
OBJECT
 10
4024.102933093302
 20
-243.80694712371681
 30
0.0
 11
4020.6596569999951
 21
-232.55462199999889
 31
0.0
1001
ACDBBLOCKREPETAG
1070
     1
1071
      404
1005
12A2B9
  0
ARC
  5
12A2BA
  8
OBJECT
 10
3976.579695307315
 20
-207.1289369828437
 30
0.0
 40
60.031113246032611
 50
316.41744226774563
 51
322.33936106091278
1001
ACDBBLOCKREPETAG
1070
     1
1071
      405
1005
12A2BA
  0
LINE
  5
12A2BB
  8
OBJECT
 10
3986.7927499013749
 20
-218.22553374208019
 30
0.0
 11
4020.6596569999951
 21
-232.5546219999969
 31
0.0
1001
ACDBBLOCKREPETAG
1070
     1
1071
      406
1005
12A2BB
  0
ARC
  5
12A2BC
  8
OBJECT
 10
3982.896169761902
 20
-227.4351299990567
 30
0.0
 40
10.0
 50
67.066778292911366
 51
154.0147343702935
1001
ACDBBLOCKREPETAG
1070
     1
1071
      407
1005
12A2BC
  0
ARC
  5
12A2BD
  8
OBJECT
 10
3986.1488390381278
 20
-225.55386256729159
 30
0.0
 40
7.0
 50
67.066778292911366
 51
154.01473377497121
1001
ACDBBLOCKREPETAG
1070
     1
1071
      408
1005
12A2BD
  0
POINT
  5
12A2BE
  8
DOTS
 10
4000.0
 20
-199.99999999999909
 30
0.0
1001
ACDBBLOCKREPETAG
1070
     1
1071
      413
1005
12A2BE
  0
CIRCLE
  5
12A2BF
  8
OBJECT
 10
2000.0
 20
-199.99999999999909
 30
0.0
 40
75.0
1001
ACDBBLOCKREPETAG
1070
     1
1071
      363
1005
12A2BF
  0
CIRCLE
  5
12A2C0
  8
OBJECT
 10
2000.0
 20
-199.99999999999909
 30
0.0
 40
52.5
1001
ACDBBLOCKREPETAG
1070
     1
1071
      364
1005
12A2C0
  0
CIRCLE
  5
12A2C1
  8
OBJECT
 10
2000.0
 20
-199.99999999999909
 30
0.0
 40
57.0
1001
ACDBBLOCKREPETAG
1070
     1
1071
      365
1005
12A2C1
  0
LINE
  5
12A2C2
  8
OBJECT
 10
1969.8635289348581
 20
-242.98887195239979
 30
0.0
 11
1979.856491823236
 21
-222.48688253356801
 31
0.0
1001
ACDBBLOCKREPETAG
1070
     1
1071
      381
1005
12A2C2
  0
LINE
  5
12A2C3
  8
OBJECT
 10
1965.749966039157
 20
-239.7892595266741
 30
0.0
 11
1973.907102266508
 21
-223.05373004430751
 31
0.0
1001
ACDBBLOCKREPETAG
1070
     1
1071
      382
1005
12A2C3
  0
LINE
  5
12A2C4
  8
OBJECT
 10
2024.102933093302
 20
-243.80694712371681
 30
0.0
 11
2020.659656999997
 21
-232.55462199999889
 31
0.0
1001
ACDBBLOCKREPETAG
1070
     1
1071
      383
1005
12A2C4
  0
ARC
  5
12A2C5
  8
OBJECT
 10
1976.579695307315
 20
-207.1289369828437
 30
0.0
 40
60.031113246032611
 50
316.4174422677545
 51
322.33936106091278
1001
ACDBBLOCKREPETAG
1070
     1
1071
      384
1005
12A2C5
  0
LINE
  5
12A2C6
  8
OBJECT
 10
1986.7927499013749
 20
-218.22553374208019
 30
0.0
 11
2020.659656999997
 21
-232.5546219999969
 31
0.0
1001
ACDBBLOCKREPETAG
1070
     1
1071
      385
1005
12A2C6
  0
ARC
  5
12A2C7
  8
OBJECT
 10
1982.8961697619
 20
-227.4351299990567
 30
0.0
 40
10.0
 50
67.066778292923374
 51
154.0147343702935
1001
ACDBBLOCKREPETAG
1070
     1
1071
      386
1005
12A2C7
  0
ARC
  5
12A2C8
  8
OBJECT
 10
1986.1488390381271
 20
-225.55386256729159
 30
0.0
 40
7.0
 50
67.066778292923374
 51
154.01473377497121
1001
ACDBBLOCKREPETAG
1070
     1
1071
      387
1005
12A2C8
  0
ARC
  5
12A2C9
  8
OBJECT
 10
2000.0
 20
-199.99999999999909
 30
0.0
 40
50.0
 50
298.81994300000417
 51
228.52376955967449
1001
ACDBBLOCKREPETAG
1070
     1
1071
        7
1005
12A2C9
  0
LINE
  5
12A2CA
  8
CENTER
 10
2080.0
 20
-199.99999999999909
 30
0.0
 11
1905.0
 21
-199.99999999999909
 31
0.0
1001
ACDBBLOCKREPETAG
1070
     1
1071
       14
1005
12A2CA
  0
LINE
  5
12A2CB
  8
CENTER
 10
2000.0
 20
-294.99999999999898
 30
0.0
 11
2000.0
 21
-104.9999999999991
 31
0.0
1001
ACDBBLOCKREPETAG
1070
     1
1071
       15
1005
12A2CB
  0
ARC
  5
12A2CC
  8
OBJECT
 10
2000.0
 20
-199.99999999999909
 30
0.0
 40
80.0
 50
50.805032573864182
 51
309.1949674261358
1001
ACDBBLOCKREPETAG
1070
     1
1071
       18
1005
12A2CC
  0
LINE
  5
12A2CD
  8
OBJECT
 10
2042.2018956920181
 20
-137.99999999999909
 30
0.0
 11
2080.0
 21
-137.99999999999909
 31
0.0
1001
ACDBBLOCKREPETAG
1070
     1
1071
       19
1005
12A2CD
  0
LINE
  5
12A2CE
  8
OBJECT
 10
2042.2018956920181
 20
-261.99999999999909
 30
0.0
 11
2080.0
 21
-261.99999999999909
 31
0.0
1001
ACDBBLOCKREPETAG
1070
     1
1071
       20
1005
12A2CE
  0
POINT
  5
12A2CF
  8
DOTS
 10
2000.0
 20
-199.99999999999909
 30
0.0
1001
ACDBBLOCKREPETAG
1070
     1
1071
      417
1005
12A2CF
  0
LINE
  5
12A2D0
  8
OBJECT
 10
4133.0
 20
-137.99999999999909
 30
0.0
 11
4140.0
 21
-137.99999999999909
 31
0.0
1001
ACDBBLOCKREPETAG
1070
     1
1071
       47
1005
12A2D0
  0
LINE
  5
12A2D1
  8
OBJECT
 10
4140.0
 20
-137.99999999999909
 30
0.0
 11
4140.0
 21
-261.99999999999909
 31
0.0
1001
ACDBBLOCKREPETAG
1070
     1
1071
       48
1005
12A2D1
  0
LINE
  5
12A2D2
  8
OBJECT
 10
4140.0
 20
-261.99999999999909
 30
0.0
 11
4133.0
 21
-261.99999999999909
 31
0.0
1001
ACDBBLOCKREPETAG
1070
     1
1071
       49
1005
12A2D2
  0
LINE
  5
12A2D3
  8
OBJECT
 10
4133.0
 20
-261.99999999999909
 30
0.0
 11
4133.0
 21
-137.99999999999909
 31
0.0
1001
ACDBBLOCKREPETAG
1070
     1
1071
       50
1005
12A2D3
  0
LINE
  5
12A2D4
  8
CENTER
 10
4155.0
 20
-199.99999999999909
 30
0.0
 11
4080.0
 21
-199.99999999999909
 31
0.0
1001
ACDBBLOCKREPETAG
1070
     1
1071
       51
1005
12A2D4
  0
LINE
  5
12A2D5
  8
OBJECT
 10
4133.0
 20
-140.99999999999909
 30
0.0
 11
4097.0
 21
-140.99999999999909
 31
0.0
1001
ACDBBLOCKREPETAG
1070
     1
1071
       52
1005
12A2D5
  0
LINE
  5
12A2D6
  8
OBJECT
 10
4097.0
 20
-140.99999999999909
 30
0.0
 11
4097.0
 21
-258.99999999999909
 31
0.0
1001
ACDBBLOCKREPETAG
1070
     1
1071
       53
1005
12A2D6
  0
LINE
  5
12A2D7
  8
OBJECT
 10
4097.0
 20
-258.99999999999909
 30
0.0
 11
4133.0
 21
-258.99999999999909
 31
0.0
1001
ACDBBLOCKREPETAG
1070
     1
1071
       54
1005
12A2D7
  0
LINE
  5
12A2D8
  8
OBJECT
 10
4093.0
 20
-145.49999999999909
 30
0.0
 11
4086.0
 21
-145.49999999999909
 31
0.0
1001
ACDBBLOCKREPETAG
1070
     1
1071
       55
1005
12A2D8
  0
LINE
  5
12A2D9
  8
OBJECT
 10
4086.0
 20
-254.49999999999909
 30
0.0
 11
4093.0
 21
-254.49999999999909
 31
0.0
1001
ACDBBLOCKREPETAG
1070
     1
1071
       56
1005
12A2D9
  0
LINE
  5
12A2DA
  8
OBJECT
 10
4093.0
 20
-254.49999999999909
 30
0.0
 11
4093.0
 21
-145.49999999999909
 31
0.0
1001
ACDBBLOCKREPETAG
1070
     1
1071
       57
1005
12A2DA
  0
LINE
  5
12A2DB
  8
OBJECT
 10
4097.0
 20
-140.99999999999909
 30
0.0
 11
4093.0
 21
-145.49999999999909
 31
0.0
1001
ACDBBLOCKREPETAG
1070
     1
1071
       58
1005
12A2DB
  0
LINE
  5
12A2DC
  8
OBJECT
 10
4097.0
 20
-258.99999999999909
 30
0.0
 11
4093.0
 21
-254.49999999999909
 31
0.0
1001
ACDBBLOCKREPETAG
1070
     1
1071
       59
1005
12A2DC
  0
LINE
  5
12A2DD
  8
OBJECT
 10
4083.0
 20
-137.99999999999909
 30
0.0
 11
4080.0
 21
-137.99999999999909
 31
0.0
1001
ACDBBLOCKREPETAG
1070
     1
1071
       60
1005
12A2DD
  0
ARC
  5
12A2DE
  8
OBJECT
 10
4083.0
 20
-140.99999999999909
 30
0.0
 40
3.0
 50
0.0
 51
90.0
1001
ACDBBLOCKREPETAG
1070
     1
1071
       61
1005
12A2DE
  0
LINE
  5
12A2DF
  8
OBJECT
 10
4080.0
 20
-261.99999999999909
 30
0.0
 11
4083.0
 21
-261.99999999999909
 31
0.0
1001
ACDBBLOCKREPETAG
1070
     1
1071
       62
1005
12A2DF
  0
ARC
  5
12A2E0
  8
OBJECT
 10
4083.0
 20
-258.99999999999909
 30
0.0
 40
3.0
 50
270.0
 51
0.0
1001
ACDBBLOCKREPETAG
1070
     1
1071
       63
1005
12A2E0
  0
LINE
  5
12A2E1
  8
OBJECT
 10
4086.0
 20
-258.99999999999909
 30
0.0
 11
4086.0
 21
-140.99999999999909
 31
0.0
1001
ACDBBLOCKREPETAG
1070
     1
1071
       64
1005
12A2E1
  0
LINE
  5
12A2E2
  8
HIDDEN
 10
4088.0
 20
-155.49999999999909
 30
0.0
 11
4088.0
 21
-244.49999999999909
 31
0.0
1001
ACDBBLOCKREPETAG
1070
     1
1071
       65
1005
12A2E2
  0
LINE
  5
12A2E3
  8
OBJECT
 10
4133.0
 20
-534.0
 30
0.0
 11
4140.0
 21
-534.0
 31
0.0
1001
ACDBBLOCKREPETAG
1070
     1
1071
       45
1005
12A2E3
  0
LINE
  5
12A2E4
  8
OBJECT
 10
4140.0
 20
-534.0
 30
0.0
 11
4140.0
 21
-655.0
 31
0.0
1001
ACDBBLOCKREPETAG
1070
     1
1071
       46
1005
12A2E4
  0
LINE
  5
12A2E5
  8
OBJECT
 10
4133.0
 20
-655.0
 30
0.0
 11
4133.0
 21
-534.0
 31
0.0
1001
ACDBBLOCKREPETAG
1070
     1
1071
       47
1005
12A2E5
  0
LINE
  5
12A2E6
  8
CENTER
 10
4155.0
 20
-596.0
 30
0.0
 11
4071.0
 21
-596.0
 31
0.0
1001
ACDBBLOCKREPETAG
1070
     1
1071
       48
1005
12A2E6
  0
LINE
  5
12A2E7
  8
OBJECT
 10
4133.0
 20
-537.0
 30
0.0
 11
4097.0
 21
-537.0
 31
0.0
1001
ACDBBLOCKREPETAG
1070
     1
1071
       49
1005
12A2E7
  0
LINE
  5
12A2E8
  8
OBJECT
 10
4097.0
 20
-537.0
 30
0.0
 11
4097.0
 21
-655.0
 31
0.0
1001
ACDBBLOCKREPETAG
1070
     1
1071
       50
1005
12A2E8
  0
LINE
  5
12A2E9
  8
OBJECT
 10
4097.0
 20
-655.0
 30
0.0
 11
4140.0
 21
-655.0
 31
0.0
1001
ACDBBLOCKREPETAG
1070
     1
1071
       51
1005
12A2E9
  0
LINE
  5
12A2EA
  8
OBJECT
 10
4093.0
 20
-541.5
 30
0.0
 11
4086.0
 21
-541.5
 31
0.0
1001
ACDBBLOCKREPETAG
1070
     1
1071
       52
1005
12A2EA
  0
LINE
  5
12A2EB
  8
OBJECT
 10
4086.0
 20
-650.49999999999989
 30
0.0
 11
4093.0
 21
-650.49999999999989
 31
0.0
1001
ACDBBLOCKREPETAG
1070
     1
1071
       53
1005
12A2EB
  0
LINE
  5
12A2EC
  8
OBJECT
 10
4093.0
 20
-650.49999999999989
 30
0.0
 11
4093.0
 21
-541.5
 31
0.0
1001
ACDBBLOCKREPETAG
1070
     1
1071
       54
1005
12A2EC
  0
LINE
  5
12A2ED
  8
OBJECT
 10
4097.0
 20
-537.0
 30
0.0
 11
4093.0
 21
-541.5
 31
0.0
1001
ACDBBLOCKREPETAG
1070
     1
1071
       55
1005
12A2ED
  0
LINE
  5
12A2EE
  8
OBJECT
 10
4097.0
 20
-655.0
 30
0.0
 11
4093.0
 21
-650.49999999999989
 31
0.0
1001
ACDBBLOCKREPETAG
1070
     1
1071
       56
1005
12A2EE
  0
LINE
  5
12A2EF
  8
OBJECT
 10
4083.0
 20
-534.0
 30
0.0
 11
4080.0
 21
-534.0
 31
0.0
1001
ACDBBLOCKREPETAG
1070
     1
1071
       57
1005
12A2EF
  0
ARC
  5
12A2F0
  8
OBJECT
 10
4083.0
 20
-537.0
 30
0.0
 40
3.0
 50
0.0
 51
90.0
1001
ACDBBLOCKREPETAG
1070
     1
1071
       58
1005
12A2F0
  0
LINE
  5
12A2F1
  8
OBJECT
 10
4080.0
 20
-658.0
 30
0.0
 11
4083.0
 21
-658.0
 31
0.0
1001
ACDBBLOCKREPETAG
1070
     1
1071
       59
1005
12A2F1
  0
ARC
  5
12A2F2
  8
OBJECT
 10
4083.0
 20
-655.0
 30
0.0
 40
3.0
 50
270.0
 51
0.0
1001
ACDBBLOCKREPETAG
1070
     1
1071
       60
1005
12A2F2
  0
LINE
  5
12A2F3
  8
OBJECT
 10
4086.0
 20
-655.0
 30
0.0
 11
4086.0
 21
-537.0
 31
0.0
1001
ACDBBLOCKREPETAG
1070
     1
1071
       61
1005
12A2F3
  0
LINE
  5
12A2F4
  8
HIDDEN
 10
4088.0
 20
-551.49999999999977
 30
0.0
 11
4088.0
 21
-640.5
 31
0.0
1001
ACDBBLOCKREPETAG
1070
     1
1071
       63
1005
12A2F4
  0
LINE
  5
12A2F5
  8
CENTER
 10
2577.0
 20
-596.0
 30
0.0
 11
2423.0
 21
-596.0
 31
0.0
1001
ACDBBLOCKREPETAG
1070
     1
1071
       17
1005
12A2F5
  0
CIRCLE
  5
12A2F6
  8
OBJECT
 10
2500.0
 20
-596.0
 30
0.0
 40
41.5
1001
ACDBBLOCKREPETAG
1070
     1
1071
       19
1005
12A2F6
  0
CIRCLE
  5
12A2F7
  8
OBJECT
 10
2500.0
 20
-596.0
 30
0.0
 40
54.0
1001
ACDBBLOCKREPETAG
1070
     1
1071
       20
1005
12A2F7
  0
ARC
  5
12A2F8
  8
OBJECT
 10
2500.0
 20
-596.0
 30
0.0
 40
62.0
 50
287.89655112920718
 51
252.10344887079279
1001
ACDBBLOCKREPETAG
1070
     1
1071
       21
1005
12A2F8
  0
LINE
  5
12A2F9
  8
OBJECT
 10
2480.947441116743
 20
-655.0
 30
0.0
 11
2519.052558883257
 21
-655.0
 31
0.0
1001
ACDBBLOCKREPETAG
1070
     1
1071
       22
1005
12A2F9
  0
LINE
  5
12A2FA
  8
OBJECT
 10
2133.0
 20
-534.0
 30
0.0
 11
2140.0
 21
-534.0
 31
0.0
1001
ACDBBLOCKREPETAG
1070
     1
1071
       45
1005
12A2FA
  0
LINE
  5
12A2FB
  8
OBJECT
 10
2140.0
 20
-534.0
 30
0.0
 11
2140.0
 21
-655.0
 31
0.0
1001
ACDBBLOCKREPETAG
1070
     1
1071
       46
1005
12A2FB
  0
LINE
  5
12A2FC
  8
OBJECT
 10
2133.0
 20
-655.0
 30
0.0
 11
2133.0
 21
-534.0
 31
0.0
1001
ACDBBLOCKREPETAG
1070
     1
1071
       47
1005
12A2FC
  0
LINE
  5
12A2FD
  8
CENTER
 10
2155.0
 20
-596.0
 30
0.0
 11
2071.0
 21
-596.0
 31
0.0
1001
ACDBBLOCKREPETAG
1070
     1
1071
       48
1005
12A2FD
  0
LINE
  5
12A2FE
  8
OBJECT
 10
2133.0
 20
-537.0
 30
0.0
 11
2097.0
 21
-537.0
 31
0.0
1001
ACDBBLOCKREPETAG
1070
     1
1071
       49
1005
12A2FE
  0
LINE
  5
12A2FF
  8
OBJECT
 10
2097.0
 20
-537.0
 30
0.0
 11
2097.0
 21
-655.0
 31
0.0
1001
ACDBBLOCKREPETAG
1070
     1
1071
       50
1005
12A2FF
  0
LINE
  5
12A300
  8
OBJECT
 10
2097.0
 20
-655.0
 30
0.0
 11
2140.0
 21
-655.0
 31
0.0
1001
ACDBBLOCKREPETAG
1070
     1
1071
       51
1005
12A300
  0
LINE
  5
12A301
  8
OBJECT
 10
2093.0
 20
-541.5
 30
0.0
 11
2086.0
 21
-541.5
 31
0.0
1001
ACDBBLOCKREPETAG
1070
     1
1071
       52
1005
12A301
  0
LINE
  5
12A302
  8
OBJECT
 10
2086.0
 20
-650.49999999999989
 30
0.0
 11
2093.0
 21
-650.49999999999989
 31
0.0
1001
ACDBBLOCKREPETAG
1070
     1
1071
       53
1005
12A302
  0
LINE
  5
12A303
  8
OBJECT
 10
2093.0
 20
-650.49999999999989
 30
0.0
 11
2093.0
 21
-541.5
 31
0.0
1001
ACDBBLOCKREPETAG
1070
     1
1071
       54
1005
12A303
  0
LINE
  5
12A304
  8
OBJECT
 10
2097.0
 20
-537.0
 30
0.0
 11
2093.0
 21
-541.5
 31
0.0
1001
ACDBBLOCKREPETAG
1070
     1
1071
       55
1005
12A304
  0
LINE
  5
12A305
  8
OBJECT
 10
2097.0
 20
-655.0
 30
0.0
 11
2093.0
 21
-650.49999999999989
 31
0.0
1001
ACDBBLOCKREPETAG
1070
     1
1071
       56
1005
12A305
  0
LINE
  5
12A306
  8
OBJECT
 10
2083.0
 20
-534.0
 30
0.0
 11
2080.0
 21
-534.0
 31
0.0
1001
ACDBBLOCKREPETAG
1070
     1
1071
       57
1005
12A306
  0
ARC
  5
12A307
  8
OBJECT
 10
2083.0
 20
-537.0
 30
0.0
 40
3.0
 50
0.0
 51
90.0
1001
ACDBBLOCKREPETAG
1070
     1
1071
       58
1005
12A307
  0
LINE
  5
12A308
  8
OBJECT
 10
2080.0
 20
-658.0
 30
0.0
 11
2083.0
 21
-658.0
 31
0.0
1001
ACDBBLOCKREPETAG
1070
     1
1071
       59
1005
12A308
  0
ARC
  5
12A309
  8
OBJECT
 10
2083.0
 20
-655.0
 30
0.0
 40
3.0
 50
270.0
 51
0.0
1001
ACDBBLOCKREPETAG
1070
     1
1071
       60
1005
12A309
  0
LINE
  5
12A30A
  8
OBJECT
 10
2086.0
 20
-655.0
 30
0.0
 11
2086.0
 21
-537.0
 31
0.0
1001
ACDBBLOCKREPETAG
1070
     1
1071
       61
1005
12A30A
  0
LINE
  5
12A30B
  8
HIDDEN
 10
2088.0
 20
-551.49999999999977
 30
0.0
 11
2088.0
 21
-640.5
 31
0.0
1001
ACDBBLOCKREPETAG
1070
     1
1071
       63
1005
12A30B
  0
LINE
  5
12A30C
  8
OBJECT
 10
2133.0
 20
-137.99999999999909
 30
0.0
 11
2140.0
 21
-137.99999999999909
 31
0.0
1001
ACDBBLOCKREPETAG
1070
     1
1071
       47
1005
12A30C
  0
LINE
  5
12A30D
  8
OBJECT
 10
2140.0
 20
-137.99999999999909
 30
0.0
 11
2140.0
 21
-261.99999999999909
 31
0.0
1001
ACDBBLOCKREPETAG
1070
     1
1071
       48
1005
12A30D
  0
LINE
  5
12A30E
  8
OBJECT
 10
2140.0
 20
-261.99999999999909
 30
0.0
 11
2133.0
 21
-261.99999999999909
 31
0.0
1001
ACDBBLOCKREPETAG
1070
     1
1071
       49
1005
12A30E
  0
LINE
  5
12A30F
  8
OBJECT
 10
2133.0
 20
-261.99999999999909
 30
0.0
 11
2133.0
 21
-137.99999999999909
 31
0.0
1001
ACDBBLOCKREPETAG
1070
     1
1071
       50
1005
12A30F
  0
LINE
  5
12A310
  8
CENTER
 10
2155.0
 20
-199.99999999999909
 30
0.0
 11
2080.0
 21
-199.99999999999909
 31
0.0
1001
ACDBBLOCKREPETAG
1070
     1
1071
       51
1005
12A310
  0
LINE
  5
12A311
  8
OBJECT
 10
2133.0
 20
-140.99999999999909
 30
0.0
 11
2097.0
 21
-140.99999999999909
 31
0.0
1001
ACDBBLOCKREPETAG
1070
     1
1071
       52
1005
12A311
  0
LINE
  5
12A312
  8
OBJECT
 10
2097.0
 20
-140.99999999999909
 30
0.0
 11
2097.0
 21
-258.99999999999909
 31
0.0
1001
ACDBBLOCKREPETAG
1070
     1
1071
       53
1005
12A312
  0
LINE
  5
12A313
  8
OBJECT
 10
2097.0
 20
-258.99999999999909
 30
0.0
 11
2133.0
 21
-258.99999999999909
 31
0.0
1001
ACDBBLOCKREPETAG
1070
     1
1071
       54
1005
12A313
  0
LINE
  5
12A314
  8
OBJECT
 10
2093.0
 20
-145.49999999999909
 30
0.0
 11
2086.0
 21
-145.49999999999909
 31
0.0
1001
ACDBBLOCKREPETAG
1070
     1
1071
       55
1005
12A314
  0
LINE
  5
12A315
  8
OBJECT
 10
2086.0
 20
-254.49999999999909
 30
0.0
 11
2093.0
 21
-254.49999999999909
 31
0.0
1001
ACDBBLOCKREPETAG
1070
     1
1071
       56
1005
12A315
  0
LINE
  5
12A316
  8
OBJECT
 10
2093.0
 20
-254.49999999999909
 30
0.0
 11
2093.0
 21
-145.49999999999909
 31
0.0
1001
ACDBBLOCKREPETAG
1070
     1
1071
       57
1005
12A316
  0
LINE
  5
12A317
  8
OBJECT
 10
2097.0
 20
-140.99999999999909
 30
0.0
 11
2093.0
 21
-145.49999999999909
 31
0.0
1001
ACDBBLOCKREPETAG
1070
     1
1071
       58
1005
12A317
  0
LINE
  5
12A318
  8
OBJECT
 10
2097.0
 20
-258.99999999999909
 30
0.0
 11
2093.0
 21
-254.49999999999909
 31
0.0
1001
ACDBBLOCKREPETAG
1070
     1
1071
       59
1005
12A318
  0
LINE
  5
12A319
  8
OBJECT
 10
2083.0
 20
-137.99999999999909
 30
0.0
 11
2080.0
 21
-137.99999999999909
 31
0.0
1001
ACDBBLOCKREPETAG
1070
     1
1071
       60
1005
12A319
  0
ARC
  5
12A31A
  8
OBJECT
 10
2083.0
 20
-140.99999999999909
 30
0.0
 40
3.0
 50
0.0
 51
90.0
1001
ACDBBLOCKREPETAG
1070
     1
1071
       61
1005
12A31A
  0
LINE
  5
12A31B
  8
OBJECT
 10
2080.0
 20
-261.99999999999909
 30
0.0
 11
2083.0
 21
-261.99999999999909
 31
0.0
1001
ACDBBLOCKREPETAG
1070
     1
1071
       62
1005
12A31B
  0
ARC
  5
12A31C
  8
OBJECT
 10
2083.0
 20
-258.99999999999909
 30
0.0
 40
3.0
 50
270.0
 51
0.0
1001
ACDBBLOCKREPETAG
1070
     1
1071
       63
1005
12A31C
  0
LINE
  5
12A31D
  8
OBJECT
 10
2086.0
 20
-258.99999999999909
 30
0.0
 11
2086.0
 21
-140.99999999999909
 31
0.0
1001
ACDBBLOCKREPETAG
1070
     1
1071
       64
1005
12A31D
  0
LINE
  5
12A31E
  8
HIDDEN
 10
2088.0
 20
-155.49999999999909
 30
0.0
 11
2088.0
 21
-244.49999999999909
 31
0.0
1001
ACDBBLOCKREPETAG
1070
     1
1071
       65
1005
12A31E
  0
LINE
  5
12A31F
  8
OBJECT
 10
465.00000000012182
 20
-546.00000000000955
 30
0.0
 11
465.00000000012182
 21
-553.00000000000966
 31
0.0
1001
ACDBBLOCKREPETAG
1070
     1
1071
       57
1005
12A31F
  0
LINE
  5
12A320
  8
OBJECT
 10
465.00000000012182
 20
-553.00000000000966
 30
0.0
 11
615.00000000012176
 21
-553.00000000000966
 31
0.0
1001
ACDBBLOCKREPETAG
1070
     1
1071
       58
1005
12A320
  0
LINE
  5
12A321
  8
OBJECT
 10
468.00000000012182
 20
-594.50000000000966
 30
0.0
 11
612.00000000012164
 21
-594.50000000000966
 31
0.0
1001
ACDBBLOCKREPETAG
1070
     1
1071
       59
1005
12A321
  0
LINE
  5
12A322
  8
OBJECT
 10
474.5000000001217
 20
-606.00000000000955
 30
0.0
 11
605.50000000012187
 21
-606.00000000000955
 31
0.0
1001
ACDBBLOCKREPETAG
1070
     1
1071
       60
1005
12A322
  0
LINE
  5
12A323
  8
OBJECT
 10
615.00000000012176
 20
-553.00000000000966
 30
0.0
 11
615.00000000012176
 21
-546.00000000000955
 31
0.0
1001
ACDBBLOCKREPETAG
1070
     1
1071
       61
1005
12A323
  0
LINE
  5
12A324
  8
OBJECT
 10
615.00000000012176
 20
-546.00000000000955
 30
0.0
 11
465.00000000012182
 21
-546.00000000000955
 31
0.0
1001
ACDBBLOCKREPETAG
1070
     1
1071
       62
1005
12A324
  0
LINE
  5
12A325
  8
OBJECT
 10
602.00000000012187
 20
-610.00000000000955
 30
0.0
 11
602.00000000012187
 21
-616.00000000000955
 31
0.0
1001
ACDBBLOCKREPETAG
1070
     1
1071
       63
1005
12A325
  0
LINE
  5
12A326
  8
OBJECT
 10
612.00000000012164
 20
-553.00000000000966
 30
0.0
 11
612.00000000012164
 21
-594.50000000000966
 31
0.0
1001
ACDBBLOCKREPETAG
1070
     1
1071
       64
1005
12A326
  0
LINE
  5
12A327
  8
OBJECT
 10
612.00000000012164
 20
-594.50000000000966
 30
0.0
 11
605.50000000012187
 21
-606.00000000000955
 31
0.0
1001
ACDBBLOCKREPETAG
1070
     1
1071
       65
1005
12A327
  0
LINE
  5
12A328
  8
OBJECT
 10
605.50000000012187
 20
-606.00000000000955
 30
0.0
 11
602.00000000012187
 21
-610.00000000000955
 31
0.0
1001
ACDBBLOCKREPETAG
1070
     1
1071
       66
1005
12A328
  0
LINE
  5
12A329
  8
OBJECT
 10
468.00000000012182
 20
-594.50000000000966
 30
0.0
 11
474.5000000001217
 21
-606.00000000000955
 31
0.0
1001
ACDBBLOCKREPETAG
1070
     1
1071
       67
1005
12A329
  0
LINE
  5
12A32A
  8
OBJECT
 10
474.5000000001217
 20
-606.00000000000955
 30
0.0
 11
478.0000000001217
 21
-610.00000000000955
 31
0.0
1001
ACDBBLOCKREPETAG
1070
     1
1071
       68
1005
12A32A
  0
ARC
  5
12A32B
  8
OBJECT
 10
540.00000000012176
 20
-228.10000000000809
 30
0.0
 40
386.89999999999998
 50
260.77870136257951
 51
279.22129863742049
1001
ACDBBLOCKREPETAG
1070
     1
1071
       69
1005
12A32B
  0
LINE
  5
12A32C
  8
OBJECT
 10
478.0000000001217
 20
-610.00000000000955
 30
0.0
 11
478.0000000001217
 21
-616.00000000000955
 31
0.0
1001
ACDBBLOCKREPETAG
1070
     1
1071
       70
1005
12A32C
  0
LINE
  5
12A32D
  8
OBJECT
 10
468.00000000012182
 20
-553.00000000000966
 30
0.0
 11
468.00000000012182
 21
-594.50000000000966
 31
0.0
1001
ACDBBLOCKREPETAG
1070
     1
1071
       71
1005
12A32D
  0
INSERT
  5
12A32E
  8
OBJECT
  2
*U28
 10
0.0
 20
0.0
 30
0.0
  0
LINE
  5
12A32F
  8
HIDDEN
 10
597.00000000012187
 20
-598.00000000000955
 30
0.0
 11
483.0000000001217
 21
-598.00000000000955
 31
0.0
1001
ACDBBLOCKREPETAG
1070
     1
1071
      431
1005
12A32F
  0
ARC
  5
12A330
  8
OBJECT
 10
540.00000000012176
 20
-696.00000000000955
 30
0.0
 40
50.0
 50
28.81994300000018
 51
318.52376955967549
1001
ACDBBLOCKREPETAG
1070
     1
1071
        7
1005
12A330
  0
ARC
  5
12A331
  8
OBJECT
 10
540.00000000012176
 20
-696.00000000000955
 30
0.0
 40
80.0
 50
140.80503257386621
 51
39.194967426133744
1001
ACDBBLOCKREPETAG
1070
     1
1071
       18
1005
12A331
  0
LINE
  5
12A332
  8
OBJECT
 10
478.0000000001217
 20
-653.79810430799125
 30
0.0
 11
478.0000000001217
 21
-616.00000000000955
 31
0.0
1001
ACDBBLOCKREPETAG
1070
     1
1071
       19
1005
12A332
  0
LINE
  5
12A333
  8
OBJECT
 10
602.00000000012187
 20
-653.79810430799125
 30
0.0
 11
602.00000000012187
 21
-616.00000000000955
 31
0.0
1001
ACDBBLOCKREPETAG
1070
     1
1071
       20
1005
12A333
  0
CIRCLE
  5
12A334
  8
OBJECT
 10
540.00000000012176
 20
-696.00000000000955
 30
0.0
 40
75.0
1001
ACDBBLOCKREPETAG
1070
     1
1071
      363
1005
12A334
  0
CIRCLE
  5
12A335
  8
OBJECT
 10
540.00000000012176
 20
-696.00000000000955
 30
0.0
 40
52.5
1001
ACDBBLOCKREPETAG
1070
     1
1071
      364
1005
12A335
  0
CIRCLE
  5
12A336
  8
OBJECT
 10
540.00000000012176
 20
-696.00000000000955
 30
0.0
 40
57.0
1001
ACDBBLOCKREPETAG
1070
     1
1071
      365
1005
12A336
  0
LINE
  5
12A337
  8
OBJECT
 10
582.98887195252235
 20
-726.13647106515043
 30
0.0
 11
562.48688253369073
 21
-716.14350817677246
 31
0.0
1001
ACDBBLOCKREPETAG
1070
     1
1071
      381
1005
12A337
  0
LINE
  5
12A338
  8
OBJECT
 10
579.78925952679697
 20
-730.25003396085253
 30
0.0
 11
563.05373004443015
 21
-722.09289773350099
 31
0.0
1001
ACDBBLOCKREPETAG
1070
     1
1071
      382
1005
12A338
  0
LINE
  5
12A339
  8
OBJECT
 10
583.80694712383945
 20
-671.89706690670801
 30
0.0
 11
572.55462200012153
 21
-675.34034300001292
 31
0.0
1001
ACDBBLOCKREPETAG
1070
     1
1071
      383
1005
12A339
  0
ARC
  5
12A33A
  8
OBJECT
 10
547.12893698296659
 20
-719.42030469269446
 30
0.0
 40
60.031113246032611
 50
46.417442267748868
 51
52.339361060911429
1001
ACDBBLOCKREPETAG
1070
     1
1071
      384
1005
12A33A
  0
LINE
  5
12A33B
  8
OBJECT
 10
558.22553374220286
 20
-709.20725009863452
 30
0.0
 11
572.55462200011959
 21
-675.34034300001292
 31
0.0
1001
ACDBBLOCKREPETAG
1070
     1
1071
      385
1005
12A33B
  0
ARC
  5
12A33C
  8
OBJECT
 10
567.43512999917925
 20
-713.10383023810812
 30
0.0
 40
10.0
 50
157.06677829292209
 51
244.01473437029199
1001
ACDBBLOCKREPETAG
1070
     1
1071
      386
1005
12A33C
  0
ARC
  5
12A33D
  8
OBJECT
 10
565.5538625674144
 20
-709.85116096188233
 30
0.0
 40
7.0
 50
157.06677829292209
 51
244.01473377497109
1001
ACDBBLOCKREPETAG
1070
     1
1071
      387
1005
12A33D
  0
POINT
  5
12A33E
  8
DOTS
 10
540.00000000012176
 20
-696.00000000000955
 30
0.0
1001
ACDBBLOCKREPETAG
1070
     1
1071
      410
1005
12A33E
  0
INSERT
  5
12A33F
  8
OBJECT
  2
*U29
 10
0.0
 20
0.0
 30
0.0
  0
LINE
  5
12A340
  8
OBJECT
 10
118.00000000004179
 20
-563.00000000000955
 30
0.0
 11
118.00000000004179
 21
-556.00000000000955
 31
0.0
1001
ACDBBLOCKREPETAG
1070
     1
1071
       39
1005
12A340
  0
LINE
  5
12A341
  8
OBJECT
 10
118.00000000004179
 20
-556.00000000000955
 30
0.0
 11
242.00000000004181
 21
-556.00000000000955
 31
0.0
1001
ACDBBLOCKREPETAG
1070
     1
1071
       40
1005
12A341
  0
LINE
  5
12A342
  8
OBJECT
 10
242.00000000004181
 20
-556.00000000000955
 30
0.0
 11
242.00000000004181
 21
-563.00000000000955
 31
0.0
1001
ACDBBLOCKREPETAG
1070
     1
1071
       41
1005
12A342
  0
LINE
  5
12A343
  8
OBJECT
 10
242.00000000004181
 20
-563.00000000000955
 30
0.0
 11
118.00000000004179
 21
-563.00000000000955
 31
0.0
1001
ACDBBLOCKREPETAG
1070
     1
1071
       42
1005
12A343
  0
LINE
  5
12A344
  8
OBJECT
 10
121.00000000004179
 20
-563.00000000000955
 30
0.0
 11
121.00000000004179
 21
-599.00000000000966
 31
0.0
1001
ACDBBLOCKREPETAG
1070
     1
1071
       43
1005
12A344
  0
LINE
  5
12A345
  8
OBJECT
 10
121.00000000004179
 20
-599.00000000000966
 30
0.0
 11
239.00000000004181
 21
-599.00000000000966
 31
0.0
1001
ACDBBLOCKREPETAG
1070
     1
1071
       44
1005
12A345
  0
LINE
  5
12A346
  8
OBJECT
 10
239.00000000004181
 20
-599.00000000000966
 30
0.0
 11
239.00000000004181
 21
-563.00000000000955
 31
0.0
1001
ACDBBLOCKREPETAG
1070
     1
1071
       45
1005
12A346
  0
LINE
  5
12A347
  8
OBJECT
 10
125.50000000004179
 20
-603.00000000000966
 30
0.0
 11
125.50000000004179
 21
-610.00000000000955
 31
0.0
1001
ACDBBLOCKREPETAG
1070
     1
1071
       46
1005
12A347
  0
LINE
  5
12A348
  8
OBJECT
 10
234.50000000004181
 20
-610.00000000000955
 30
0.0
 11
234.50000000004181
 21
-603.00000000000966
 31
0.0
1001
ACDBBLOCKREPETAG
1070
     1
1071
       47
1005
12A348
  0
LINE
  5
12A349
  8
OBJECT
 10
234.50000000004181
 20
-603.00000000000966
 30
0.0
 11
125.50000000004179
 21
-603.00000000000966
 31
0.0
1001
ACDBBLOCKREPETAG
1070
     1
1071
       48
1005
12A349
  0
LINE
  5
12A34A
  8
OBJECT
 10
121.00000000004179
 20
-599.00000000000966
 30
0.0
 11
125.50000000004179
 21
-603.00000000000966
 31
0.0
1001
ACDBBLOCKREPETAG
1070
     1
1071
       49
1005
12A34A
  0
LINE
  5
12A34B
  8
OBJECT
 10
239.00000000004181
 20
-599.00000000000966
 30
0.0
 11
234.50000000004181
 21
-603.00000000000966
 31
0.0
1001
ACDBBLOCKREPETAG
1070
     1
1071
       50
1005
12A34B
  0
LINE
  5
12A34C
  8
OBJECT
 10
118.00000000004179
 20
-613.00000000000864
 30
0.0
 11
118.00000000004179
 21
-616.00000000000955
 31
0.0
1001
ACDBBLOCKREPETAG
1070
     1
1071
       51
1005
12A34C
  0
ARC
  5
12A34D
  8
OBJECT
 10
121.00000000004179
 20
-613.00000000000864
 30
0.0
 40
3.0
 50
90.0
 51
180.0
1001
ACDBBLOCKREPETAG
1070
     1
1071
       52
1005
12A34D
  0
LINE
  5
12A34E
  8
OBJECT
 10
242.00000000004181
 20
-616.00000000000955
 30
0.0
 11
242.00000000004181
 21
-613.00000000001035
 31
0.0
1001
ACDBBLOCKREPETAG
1070
     1
1071
       53
1005
12A34E
  0
ARC
  5
12A34F
  8
OBJECT
 10
239.00000000004181
 20
-613.00000000001035
 30
0.0
 40
3.0
 50
0.0
 51
90.0
1001
ACDBBLOCKREPETAG
1070
     1
1071
       54
1005
12A34F
  0
LINE
  5
12A350
  8
OBJECT
 10
239.00000000004181
 20
-610.00000000001035
 30
0.0
 11
121.00000000004179
 21
-610.00000000000864
 31
0.0
1001
ACDBBLOCKREPETAG
1070
     1
1071
       55
1005
12A350
  0
LINE
  5
12A351
  8
HIDDEN
 10
135.50000000004181
 20
-608.00000000000955
 30
0.0
 11
224.50000000004181
 21
-608.00000000000955
 31
0.0
1001
ACDBBLOCKREPETAG
1070
     1
1071
      426
1005
12A351
  0
ARC
  5
12A352
  8
OBJECT
 10
180.00000000004181
 20
-696.00000000000955
 30
0.0
 40
50.0
 50
28.81994299999862
 51
318.52376955967441
1001
ACDBBLOCKREPETAG
1070
     1
1071
        7
1005
12A352
  0
ARC
  5
12A353
  8
OBJECT
 10
180.00000000004181
 20
-696.00000000000955
 30
0.0
 40
80.0
 50
140.8050325738642
 51
39.194967426135797
1001
ACDBBLOCKREPETAG
1070
     1
1071
       18
1005
12A353
  0
LINE
  5
12A354
  8
OBJECT
 10
118.00000000004179
 20
-653.79810430799125
 30
0.0
 11
118.00000000004179
 21
-616.00000000000955
 31
0.0
1001
ACDBBLOCKREPETAG
1070
     1
1071
       19
1005
12A354
  0
LINE
  5
12A355
  8
OBJECT
 10
242.00000000004181
 20
-653.79810430799125
 30
0.0
 11
242.00000000004181
 21
-616.00000000000955
 31
0.0
1001
ACDBBLOCKREPETAG
1070
     1
1071
       20
1005
12A355
  0
CIRCLE
  5
12A356
  8
OBJECT
 10
180.00000000004181
 20
-696.00000000000955
 30
0.0
 40
75.0
1001
ACDBBLOCKREPETAG
1070
     1
1071
      363
1005
12A356
  0
CIRCLE
  5
12A357
  8
OBJECT
 10
180.00000000004181
 20
-696.00000000000955
 30
0.0
 40
52.5
1001
ACDBBLOCKREPETAG
1070
     1
1071
      364
1005
12A357
  0
CIRCLE
  5
12A358
  8
OBJECT
 10
180.00000000004181
 20
-696.00000000000955
 30
0.0
 40
57.0
1001
ACDBBLOCKREPETAG
1070
     1
1071
      365
1005
12A358
  0
LINE
  5
12A359
  8
OBJECT
 10
222.98887195244251
 20
-726.13647106515043
 30
0.0
 11
202.4868825336107
 21
-716.14350817677246
 31
0.0
1001
ACDBBLOCKREPETAG
1070
     1
1071
      381
1005
12A359
  0
LINE
  5
12A35A
  8
OBJECT
 10
219.7892595267169
 20
-730.25003396085253
 30
0.0
 11
203.0537300443502
 21
-722.09289773350099
 31
0.0
1001
ACDBBLOCKREPETAG
1070
     1
1071
      382
1005
12A35A
  0
LINE
  5
12A35B
  8
OBJECT
 10
223.8069471237595
 20
-671.89706690670801
 30
0.0
 11
212.55462200004149
 21
-675.34034300001292
 31
0.0
1001
ACDBBLOCKREPETAG
1070
     1
1071
      383
1005
12A35B
  0
ARC
  5
12A35C
  8
OBJECT
 10
187.12893698288639
 20
-719.42030469269446
 30
0.0
 40
60.031113246032611
 50
46.41744226775004
 51
52.339361060912744
1001
ACDBBLOCKREPETAG
1070
     1
1071
      384
1005
12A35C
  0
LINE
  5
12A35D
  8
OBJECT
 10
198.22553374212291
 20
-709.20725009863452
 30
0.0
 11
212.5546220000397
 21
-675.34034300001292
 31
0.0
1001
ACDBBLOCKREPETAG
1070
     1
1071
      385
1005
12A35D
  0
ARC
  5
12A35E
  8
OBJECT
 10
207.43512999909939
 20
-713.10383023810812
 30
0.0
 40
10.0
 50
157.0667782929232
 51
244.0147343702935
1001
ACDBBLOCKREPETAG
1070
     1
1071
      386
1005
12A35E
  0
ARC
  5
12A35F
  8
OBJECT
 10
205.55386256733439
 20
-709.85116096188233
 30
0.0
 40
7.0
 50
157.0667782929232
 51
244.0147337749741
1001
ACDBBLOCKREPETAG
1070
     1
1071
      387
1005
12A35F
  0
POINT
  5
12A360
  8
DOTS
 10
180.00000000004181
 20
-696.00000000000955
 30
0.0
1001
ACDBBLOCKREPETAG
1070
     1
1071
      410
1005
12A360
  0
INSERT
  5
12A361
  8
OBJECT
  2
*U30
 10
0.0
 20
0.0
 30
0.0
  0
LINE
  5
12A362
  8
OBJECT
 10
485.00000000012182
 20
-99.000000000003183
 30
0.0
 11
485.00000000012182
 21
-92.000000000003183
 31
0.0
1001
ACDBBLOCKREPETAG
1070
     1
1071
       20
1005
12A362
  0
LINE
  5
12A363
  8
OBJECT
 10
485.00000000012182
 20
-92.000000000003183
 30
0.0
 11
595.00000000012164
 21
-92.000000000003183
 31
0.0
1001
ACDBBLOCKREPETAG
1070
     1
1071
       21
1005
12A363
  0
LINE
  5
12A364
  8
OBJECT
 10
595.00000000012164
 20
-92.000000000003183
 30
0.0
 11
595.00000000012164
 21
-99.000000000003183
 31
0.0
1001
ACDBBLOCKREPETAG
1070
     1
1071
       22
1005
12A364
  0
LINE
  5
12A365
  8
OBJECT
 10
595.00000000012164
 20
-99.000000000003183
 30
0.0
 11
485.00000000012182
 21
-99.000000000003183
 31
0.0
1001
ACDBBLOCKREPETAG
1070
     1
1071
       23
1005
12A365
  0
LINE
  5
12A366
  8
OBJECT
 10
488.0000000001217
 20
-99.000000000003183
 30
0.0
 11
488.0000000001217
 21
-135.00000000000321
 31
0.0
1001
ACDBBLOCKREPETAG
1070
     1
1071
       24
1005
12A366
  0
LINE
  5
12A367
  8
OBJECT
 10
488.0000000001217
 20
-135.00000000000321
 30
0.0
 11
592.00000000012164
 21
-135.00000000000321
 31
0.0
1001
ACDBBLOCKREPETAG
1070
     1
1071
       25
1005
12A367
  0
LINE
  5
12A368
  8
OBJECT
 10
592.00000000012164
 20
-135.00000000000321
 30
0.0
 11
592.00000000012164
 21
-99.000000000003183
 31
0.0
1001
ACDBBLOCKREPETAG
1070
     1
1071
       26
1005
12A368
  0
LINE
  5
12A369
  8
OBJECT
 10
492.5000000001217
 20
-139.00000000000321
 30
0.0
 11
492.5000000001217
 21
-146.00000000000321
 31
0.0
1001
ACDBBLOCKREPETAG
1070
     1
1071
       27
1005
12A369
  0
LINE
  5
12A36A
  8
OBJECT
 10
587.50000000012164
 20
-146.00000000000321
 30
0.0
 11
587.50000000012164
 21
-139.00000000000321
 31
0.0
1001
ACDBBLOCKREPETAG
1070
     1
1071
       28
1005
12A36A
  0
LINE
  5
12A36B
  8
OBJECT
 10
587.50000000012164
 20
-139.00000000000321
 30
0.0
 11
492.5000000001217
 21
-139.00000000000321
 31
0.0
1001
ACDBBLOCKREPETAG
1070
     1
1071
       29
1005
12A36B
  0
LINE
  5
12A36C
  8
OBJECT
 10
488.0000000001217
 20
-135.00000000000321
 30
0.0
 11
492.5000000001217
 21
-139.00000000000321
 31
0.0
1001
ACDBBLOCKREPETAG
1070
     1
1071
       30
1005
12A36C
  0
LINE
  5
12A36D
  8
OBJECT
 10
592.00000000012164
 20
-135.00000000000321
 30
0.0
 11
587.50000000012164
 21
-139.00000000000321
 31
0.0
1001
ACDBBLOCKREPETAG
1070
     1
1071
       31
1005
12A36D
  0
LINE
  5
12A36E
  8
OBJECT
 10
478.0000000001217
 20
-149.0000000000023
 30
0.0
 11
478.0000000001217
 21
-152.0000000000031
 31
0.0
1001
ACDBBLOCKREPETAG
1070
     1
1071
       32
1005
12A36E
  0
ARC
  5
12A36F
  8
OBJECT
 10
481.00000000012182
 20
-149.0000000000023
 30
0.0
 40
3.0
 50
90.0
 51
180.0
1001
ACDBBLOCKREPETAG
1070
     1
1071
       33
1005
12A36F
  0
LINE
  5
12A370
  8
OBJECT
 10
602.00000000012187
 20
-152.0000000000031
 30
0.0
 11
602.00000000012187
 21
-149.00000000000409
 31
0.0
1001
ACDBBLOCKREPETAG
1070
     1
1071
       34
1005
12A370
  0
ARC
  5
12A371
  8
OBJECT
 10
599.00000000012164
 20
-149.00000000000409
 30
0.0
 40
3.0
 50
0.0
 51
90.0
1001
ACDBBLOCKREPETAG
1070
     1
1071
       35
1005
12A371
  0
LINE
  5
12A372
  8
OBJECT
 10
599.00000000012164
 20
-146.00000000000409
 30
0.0
 11
481.00000000012182
 21
-146.0000000000023
 31
0.0
1001
ACDBBLOCKREPETAG
1070
     1
1071
       36
1005
12A372
  0
LINE
  5
12A373
  8
HIDDEN
 10
502.00000000012182
 20
-144.00000000000321
 30
0.0
 11
578.00000000012164
 21
-144.00000000000321
 31
0.0
1001
ACDBBLOCKREPETAG
1070
     1
1071
      423
1005
12A373
  0
ARC
  5
12A374
  8
OBJECT
 10
540.00000000012176
 20
-232.00000000000321
 30
0.0
 40
50.0
 50
28.81994300000018
 51
318.52376955967418
1001
ACDBBLOCKREPETAG
1070
     1
1071
        7
1005
12A374
  0
ARC
  5
12A375
  8
OBJECT
 10
540.00000000012176
 20
-232.00000000000321
 30
0.0
 40
80.0
 50
140.80503257386741
 51
39.1949674261325
1001
ACDBBLOCKREPETAG
1070
     1
1071
       18
1005
12A375
  0
LINE
  5
12A376
  8
OBJECT
 10
478.0000000001217
 20
-189.7981043079848
 30
0.0
 11
478.0000000001217
 21
-152.0000000000031
 31
0.0
1001
ACDBBLOCKREPETAG
1070
     1
1071
       19
1005
12A376
  0
LINE
  5
12A377
  8
OBJECT
 10
602.00000000012187
 20
-189.7981043079848
 30
0.0
 11
602.00000000012187
 21
-152.0000000000031
 31
0.0
1001
ACDBBLOCKREPETAG
1070
     1
1071
       20
1005
12A377
  0
CIRCLE
  5
12A378
  8
OBJECT
 10
540.00000000012176
 20
-232.00000000000321
 30
0.0
 40
75.0
1001
ACDBBLOCKREPETAG
1070
     1
1071
      363
1005
12A378
  0
CIRCLE
  5
12A379
  8
OBJECT
 10
540.00000000012176
 20
-232.00000000000321
 30
0.0
 40
52.5
1001
ACDBBLOCKREPETAG
1070
     1
1071
      364
1005
12A379
  0
CIRCLE
  5
12A37A
  8
OBJECT
 10
540.00000000012176
 20
-232.00000000000321
 30
0.0
 40
57.0
1001
ACDBBLOCKREPETAG
1070
     1
1071
      365
1005
12A37A
  0
LINE
  5
12A37B
  8
OBJECT
 10
582.98887195252235
 20
-262.13647106514452
 30
0.0
 11
562.48688253369073
 21
-252.14350817676629
 31
0.0
1001
ACDBBLOCKREPETAG
1070
     1
1071
      381
1005
12A37B
  0
LINE
  5
12A37C
  8
OBJECT
 10
579.78925952679697
 20
-266.25003396084622
 30
0.0
 11
563.05373004443015
 21
-258.09289773349468
 31
0.0
1001
ACDBBLOCKREPETAG
1070
     1
1071
      382
1005
12A37C
  0
LINE
  5
12A37D
  8
OBJECT
 10
583.80694712383945
 20
-207.89706690670161
 30
0.0
 11
572.55462200012153
 21
-211.3403430000067
 31
0.0
1001
ACDBBLOCKREPETAG
1070
     1
1071
      383
1005
12A37D
  0
ARC
  5
12A37E
  8
OBJECT
 10
547.12893698296659
 20
-255.42030469268821
 30
0.0
 40
60.031113246032611
 50
46.417442267748868
 51
52.339361060911429
1001
ACDBBLOCKREPETAG
1070
     1
1071
      384
1005
12A37E
  0
LINE
  5
12A37F
  8
OBJECT
 10
558.22553374220286
 20
-245.20725009862821
 30
0.0
 11
572.55462200011959
 21
-211.3403430000067
 31
0.0
1001
ACDBBLOCKREPETAG
1070
     1
1071
      385
1005
12A37F
  0
ARC
  5
12A380
  8
OBJECT
 10
567.43512999917925
 20
-249.10383023810161
 30
0.0
 40
10.0
 50
157.06677829292209
 51
244.01473437029199
1001
ACDBBLOCKREPETAG
1070
     1
1071
      386
1005
12A380
  0
ARC
  5
12A381
  8
OBJECT
 10
565.5538625674144
 20
-245.85116096187591
 30
0.0
 40
7.0
 50
157.06677829292209
 51
244.0147337749697
1001
ACDBBLOCKREPETAG
1070
     1
1071
      387
1005
12A381
  0
POINT
  5
12A382
  8
DOTS
 10
540.00000000012176
 20
-232.00000000000321
 30
0.0
1001
ACDBBLOCKREPETAG
1070
     1
1071
      410
1005
12A382
  0
INSERT
  5
12A383
  8
OBJECT
  2
*U31
 10
0.0
 20
0.0
 30
0.0
  0
LINE
  5
12A384
  8
OBJECT
 10
133.00000000004169
 20
-99.000000000003183
 30
0.0
 11
133.00000000004169
 21
-92.000000000003183
 31
0.0
1001
ACDBBLOCKREPETAG
1070
     1
1071
        1
1005
12A384
  0
LINE
  5
12A385
  8
OBJECT
 10
133.00000000004169
 20
-92.000000000003183
 30
0.0
 11
227.00000000004181
 21
-92.000000000003183
 31
0.0
1001
ACDBBLOCKREPETAG
1070
     1
1071
        2
1005
12A385
  0
LINE
  5
12A386
  8
OBJECT
 10
227.00000000004181
 20
-92.000000000003183
 30
0.0
 11
227.00000000004181
 21
-99.000000000003183
 31
0.0
1001
ACDBBLOCKREPETAG
1070
     1
1071
        3
1005
12A386
  0
LINE
  5
12A387
  8
OBJECT
 10
227.00000000004181
 20
-99.000000000003183
 30
0.0
 11
133.00000000004169
 21
-99.000000000003183
 31
0.0
1001
ACDBBLOCKREPETAG
1070
     1
1071
        4
1005
12A387
  0
LINE
  5
12A388
  8
OBJECT
 10
136.00000000004169
 20
-99.000000000003183
 30
0.0
 11
136.00000000004169
 21
-135.00000000000321
 31
0.0
1001
ACDBBLOCKREPETAG
1070
     1
1071
        5
1005
12A388
  0
LINE
  5
12A389
  8
OBJECT
 10
136.00000000004169
 20
-135.00000000000321
 30
0.0
 11
224.00000000004181
 21
-135.00000000000321
 31
0.0
1001
ACDBBLOCKREPETAG
1070
     1
1071
        6
1005
12A389
  0
LINE
  5
12A38A
  8
OBJECT
 10
224.00000000004181
 20
-135.00000000000321
 30
0.0
 11
224.00000000004181
 21
-99.000000000003183
 31
0.0
1001
ACDBBLOCKREPETAG
1070
     1
1071
        7
1005
12A38A
  0
LINE
  5
12A38B
  8
OBJECT
 10
140.50000000004181
 20
-139.00000000000321
 30
0.0
 11
140.50000000004181
 21
-146.00000000000321
 31
0.0
1001
ACDBBLOCKREPETAG
1070
     1
1071
        8
1005
12A38B
  0
LINE
  5
12A38C
  8
OBJECT
 10
219.50000000004189
 20
-146.00000000000321
 30
0.0
 11
219.50000000004189
 21
-139.00000000000321
 31
0.0
1001
ACDBBLOCKREPETAG
1070
     1
1071
        9
1005
12A38C
  0
LINE
  5
12A38D
  8
OBJECT
 10
219.50000000004189
 20
-139.00000000000321
 30
0.0
 11
140.50000000004181
 21
-139.00000000000321
 31
0.0
1001
ACDBBLOCKREPETAG
1070
     1
1071
       10
1005
12A38D
  0
LINE
  5
12A38E
  8
OBJECT
 10
136.00000000004169
 20
-135.00000000000321
 30
0.0
 11
140.50000000004181
 21
-139.00000000000321
 31
0.0
1001
ACDBBLOCKREPETAG
1070
     1
1071
       11
1005
12A38E
  0
LINE
  5
12A38F
  8
OBJECT
 10
224.00000000004181
 20
-135.00000000000321
 30
0.0
 11
219.50000000004189
 21
-139.00000000000321
 31
0.0
1001
ACDBBLOCKREPETAG
1070
     1
1071
       12
1005
12A38F
  0
LINE
  5
12A390
  8
OBJECT
 10
118.00000000004179
 20
-149.0000000000023
 30
0.0
 11
118.00000000004179
 21
-152.0000000000031
 31
0.0
1001
ACDBBLOCKREPETAG
1070
     1
1071
       13
1005
12A390
  0
ARC
  5
12A391
  8
OBJECT
 10
121.00000000004179
 20
-149.0000000000023
 30
0.0
 40
3.0
 50
90.0
 51
180.0
1001
ACDBBLOCKREPETAG
1070
     1
1071
       14
1005
12A391
  0
LINE
  5
12A392
  8
OBJECT
 10
242.00000000004181
 20
-152.0000000000031
 30
0.0
 11
242.00000000004181
 21
-149.00000000000409
 31
0.0
1001
ACDBBLOCKREPETAG
1070
     1
1071
       15
1005
12A392
  0
ARC
  5
12A393
  8
OBJECT
 10
239.00000000004181
 20
-149.00000000000409
 30
0.0
 40
3.0
 50
0.0
 51
90.0
1001
ACDBBLOCKREPETAG
1070
     1
1071
       16
1005
12A393
  0
LINE
  5
12A394
  8
OBJECT
 10
239.00000000004181
 20
-146.00000000000409
 30
0.0
 11
121.00000000004179
 21
-146.0000000000023
 31
0.0
1001
ACDBBLOCKREPETAG
1070
     1
1071
       17
1005
12A394
  0
LINE
  5
12A395
  8
HIDDEN
 10
150.00000000004181
 20
-144.00000000000321
 30
0.0
 11
210.00000000004181
 21
-144.00000000000321
 31
0.0
1001
ACDBBLOCKREPETAG
1070
     1
1071
      420
1005
12A395
  0
ARC
  5
12A396
  8
OBJECT
 10
180.00000000004181
 20
-232.00000000000321
 30
0.0
 40
50.0
 50
28.81994299999862
 51
318.52376955967321
1001
ACDBBLOCKREPETAG
1070
     1
1071
        7
1005
12A396
  0
ARC
  5
12A397
  8
OBJECT
 10
180.00000000004181
 20
-232.00000000000321
 30
0.0
 40
80.0
 50
140.80503257386539
 51
39.194967426134532
1001
ACDBBLOCKREPETAG
1070
     1
1071
       18
1005
12A397
  0
LINE
  5
12A398
  8
OBJECT
 10
118.00000000004179
 20
-189.7981043079848
 30
0.0
 11
118.00000000004179
 21
-152.0000000000031
 31
0.0
1001
ACDBBLOCKREPETAG
1070
     1
1071
       19
1005
12A398
  0
LINE
  5
12A399
  8
OBJECT
 10
242.00000000004181
 20
-189.7981043079848
 30
0.0
 11
242.00000000004181
 21
-152.0000000000031
 31
0.0
1001
ACDBBLOCKREPETAG
1070
     1
1071
       20
1005
12A399
  0
CIRCLE
  5
12A39A
  8
OBJECT
 10
180.00000000004181
 20
-232.00000000000321
 30
0.0
 40
75.0
1001
ACDBBLOCKREPETAG
1070
     1
1071
      363
1005
12A39A
  0
CIRCLE
  5
12A39B
  8
OBJECT
 10
180.00000000004181
 20
-232.00000000000321
 30
0.0
 40
52.5
1001
ACDBBLOCKREPETAG
1070
     1
1071
      364
1005
12A39B
  0
CIRCLE
  5
12A39C
  8
OBJECT
 10
180.00000000004181
 20
-232.00000000000321
 30
0.0
 40
57.0
1001
ACDBBLOCKREPETAG
1070
     1
1071
      365
1005
12A39C
  0
LINE
  5
12A39D
  8
OBJECT
 10
222.98887195244251
 20
-262.13647106514452
 30
0.0
 11
202.4868825336107
 21
-252.14350817676629
 31
0.0
1001
ACDBBLOCKREPETAG
1070
     1
1071
      381
1005
12A39D
  0
LINE
  5
12A39E
  8
OBJECT
 10
219.7892595267169
 20
-266.25003396084622
 30
0.0
 11
203.0537300443502
 21
-258.09289773349468
 31
0.0
1001
ACDBBLOCKREPETAG
1070
     1
1071
      382
1005
12A39E
  0
LINE
  5
12A39F
  8
OBJECT
 10
223.8069471237595
 20
-207.89706690670161
 30
0.0
 11
212.55462200004149
 21
-211.3403430000067
 31
0.0
1001
ACDBBLOCKREPETAG
1070
     1
1071
      383
1005
12A39F
  0
ARC
  5
12A3A0
  8
OBJECT
 10
187.12893698288639
 20
-255.42030469268821
 30
0.0
 40
60.031113246032611
 50
46.41744226775004
 51
52.339361060912744
1001
ACDBBLOCKREPETAG
1070
     1
1071
      384
1005
12A3A0
  0
LINE
  5
12A3A1
  8
OBJECT
 10
198.22553374212291
 20
-245.20725009862821
 30
0.0
 11
212.5546220000397
 21
-211.3403430000067
 31
0.0
1001
ACDBBLOCKREPETAG
1070
     1
1071
      385
1005
12A3A1
  0
ARC
  5
12A3A2
  8
OBJECT
 10
207.43512999909939
 20
-249.10383023810161
 30
0.0
 40
10.0
 50
157.0667782929232
 51
244.0147343702935
1001
ACDBBLOCKREPETAG
1070
     1
1071
      386
1005
12A3A2
  0
ARC
  5
12A3A3
  8
OBJECT
 10
205.55386256733439
 20
-245.85116096187591
 30
0.0
 40
7.0
 50
157.0667782929232
 51
244.01473377497271
1001
ACDBBLOCKREPETAG
1070
     1
1071
      387
1005
12A3A3
  0
POINT
  5
12A3A4
  8
DOTS
 10
180.00000000004181
 20
-232.00000000000321
 30
0.0
1001
ACDBBLOCKREPETAG
1070
     1
1071
      410
1005
12A3A4
  0
POLYLINE
  5
12A3A5
  8
HIDDEN
 66
     1
 10
0.0
 20
0.0
 30
0.0
 70
     1
1001
ACDBBLOCKREPETAG
1070
     1
1071
      105
1005
0
  0
VERTEX
  5
12B3D3
  8
HIDDEN
 10
359.99999999987818
 20
0.0
 30
0.0
  0
VERTEX
  5
12B3D4
  8
HIDDEN
 10
719.99999999975626
 20
0.0
 30
0.0
  0
VERTEX
  5
12B3D5
  8
HIDDEN
 10
719.99999999975626
 20
-463.99999999984158
 30
0.0
  0
VERTEX
  5
12B3D6
  8
HIDDEN
 10
359.99999999987818
 20
-463.99999999984158
 30
0.0
  0
SEQEND
  5
12B3D7
  8
HIDDEN
  0
POLYLINE
  5
12A3A6
  8
HIDDEN
 66
     1
 10
0.0
 20
0.0
 30
0.0
 70
     1
1001
ACDBBLOCKREPETAG
1070
     1
1071
      110
1005
0
  0
VERTEX
  5
12B3D8
  8
HIDDEN
 10
0.0
 20
0.0
 30
0.0
  0
VERTEX
  5
12B3D9
  8
HIDDEN
 10
359.99999999987818
 20
0.0
 30
0.0
  0
VERTEX
  5
12B3DA
  8
HIDDEN
 10
359.99999999987818
 20
-463.99999999984158
 30
0.0
  0
VERTEX
  5
12B3DB
  8
HIDDEN
 10
0.0
 20
-463.99999999984158
 30
0.0
  0
SEQEND
  5
12B3DC
  8
HIDDEN
  0
POLYLINE
  5
12A3A7
  8
HIDDEN
 66
     1
 10
0.0
 20
0.0
 30
0.0
 70
     1
1001
ACDBBLOCKREPETAG
1070
     1
1071
      120
1005
0
  0
VERTEX
  5
12B3DD
  8
HIDDEN
 10
359.99999999987818
 20
-463.99999999984158
 30
0.0
  0
VERTEX
  5
12B3DE
  8
HIDDEN
 10
719.99999999975626
 20
-463.99999999984158
 30
0.0
  0
VERTEX
  5
12B3DF
  8
HIDDEN
 10
719.99999999975626
 20
-927.99999999968372
 30
0.0
  0
VERTEX
  5
12B3E0
  8
HIDDEN
 10
359.99999999987818
 20
-927.99999999968372
 30
0.0
  0
SEQEND
  5
12B3E1
  8
HIDDEN
  0
POLYLINE
  5
12A3A8
  8
HIDDEN
 66
     1
 10
0.0
 20
0.0
 30
0.0
 70
     1
1001
ACDBBLOCKREPETAG
1070
     1
1071
      125
1005
0
  0
VERTEX
  5
12B3E2
  8
HIDDEN
 10
0.0
 20
-463.99999999984158
 30
0.0
  0
VERTEX
  5
12B3E3
  8
HIDDEN
 10
359.99999999987818
 20
-463.99999999984158
 30
0.0
  0
VERTEX
  5
12B3E4
  8
HIDDEN
 10
359.99999999987818
 20
-927.99999999968372
 30
0.0
  0
VERTEX
  5
12B3E5
  8
HIDDEN
 10
0.0
 20
-927.99999999968372
 30
0.0
  0
SEQEND
  5
12B3E6
  8
HIDDEN
  0
TEXT
  5
12A3A9
  8
SLIM
 10
508.28571428553232
 20
-907.999999999691
 30
0.0
 40
48.0
  1
A4
 41
0.75
1001
ACDBBLOCKREPETAG
1070
     1
1071
      119
1005
0
  0
TEXT
  5
12A3AA
  8
SLIM
 10
149.14285714279711
 20
-907.999999999691
 30
0.0
 40
48.0
  1
A3
 41
0.75
1001
ACDBBLOCKREPETAG
1070
     1
1071
      119
1005
0
  0
TEXT
  5
12A3AB
  8
SLIM
 10
509.1428571426751
 20
-443.99999999984919
 30
0.0
 40
48.0
  1
A2
 41
0.75
1001
ACDBBLOCKREPETAG
1070
     1
1071
      119
1005
0
  0
TEXT
  5
12A3AC
  8
SLIM
 10
156.85714285708281
 20
-443.99999999984919
 30
0.0
 40
48.0
  1
A1
 41
0.75
1001
ACDBBLOCKREPETAG
1070
     1
1071
      119
1005
0
  0
TEXT
  5
12A3AD
  8
SLIM
 10
0.0000035665234464
 20
24.000004585317601
 30
0.0
 40
79.999999999972701
  1
枝管バリエーション
 41
0.75
1001
ACDBBLOCKREPETAG
1070
     1
1071
      119
1005
12632E
  0
TEXT
  5
12A3AE
  8
SLIM
 10
0.0
 20
370.0
 30
0.0
 40
100.0
  1
4SSL2-AX-0-S
 41
0.75
  0
LINE
  5
12A3AF
  8
SLIM
 10
4414.9999999999918
 20
-665.19743878931513
 30
0.0
 11
4425.1974387893069
 21
-654.99999999999966
 31
0.0
1001
ACAD
1010
0.0
1020
0.0
1030
0.0
1001
ACDBBLOCKREPETAG
1070
     1
1071
        0
1005
0
  0
LINE
  5
12A3B0
  8
SLIM
 10
4414.9999999999927
 20
-683.15795103145285
 30
0.0
 11
4443.1579510314468
 21
-654.99999999999966
 31
0.0
1001
ACAD
1010
0.0
1020
0.0
1030
0.0
1001
ACDBBLOCKREPETAG
1070
     1
1071
       11
1005
12A3B0
  0
LINE
  5
12A3B1
  8
SLIM
 10
4414.9999999999927
 20
-701.11846327359103
 30
0.0
 11
4461.118463273584
 21
-654.99999999999966
 31
0.0
1001
ACAD
1010
0.0
1020
0.0
1030
0.0
1001
ACDBBLOCKREPETAG
1070
     1
1071
       12
1005
12A3B1
  0
LINE
  5
12A3B2
  8
SLIM
 10
4414.9999999999927
 20
-719.0789755157291
 30
0.0
 11
4479.0789755157211
 21
-654.99999999999966
 31
0.0
1001
ACAD
1010
0.0
1020
0.0
1030
0.0
1001
ACDBBLOCKREPETAG
1070
     1
1071
       13
1005
12A3B2
  0
LINE
  5
12A3B3
  8
SLIM
 10
4414.9999999999927
 20
-737.03948775786682
 30
0.0
 11
4497.039487757861
 21
-654.99999999999966
 31
0.0
1001
ACAD
1010
0.0
1020
0.0
1030
0.0
1001
ACDBBLOCKREPETAG
1070
     1
1071
       14
1005
12A3B3
  0
LINE
  5
12A3B4
  8
SLIM
 10
4414.9999999999927
 20
-755.00000000000455
 30
0.0
 11
4515.0
 21
-654.99999999999966
 31
0.0
1001
ACAD
1010
0.0
1020
0.0
1030
0.0
1001
ACDBBLOCKREPETAG
1070
     1
1071
       15
1005
12A3B4
  0
LINE
  5
12A3B5
  8
SLIM
 10
4414.9999999999927
 20
-772.96051224214284
 30
0.0
 11
4532.9605122421381
 21
-654.99999999999966
 31
0.0
1001
ACAD
1010
0.0
1020
0.0
1030
0.0
1001
ACDBBLOCKREPETAG
1070
     1
1071
       16
1005
12A3B5
  0
LINE
  5
12A3B6
  8
SLIM
 10
4414.9999999999955
 20
-790.92102448428068
 30
0.0
 11
4550.921024484277
 21
-654.99999999999966
 31
0.0
1001
ACAD
1010
0.0
1020
0.0
1030
0.0
1001
ACDBBLOCKREPETAG
1070
     1
1071
       17
1005
12A3B6
  0
LINE
  5
12A3B7
  8
SLIM
 10
4414.9999999999955
 20
-808.88153672641874
 30
0.0
 11
4568.8815367264151
 21
-654.99999999999966
 31
0.0
1001
ACAD
1010
0.0
1020
0.0
1030
0.0
1001
ACDBBLOCKREPETAG
1070
     1
1071
       18
1005
12A3B7
  0
LINE
  5
12A3B8
  8
SLIM
 10
4414.9999999999973
 20
-826.8420489685567
 30
0.0
 11
4585.0000000000073
 21
-656.84204896854555
 31
0.0
1001
ACAD
1010
0.0
1020
0.0
1030
0.0
1001
ACDBBLOCKREPETAG
1070
     1
1071
       19
1005
12A3B8
  0
LINE
  5
12A3B9
  8
SLIM
 10
4414.9999999999973
 20
-844.80256121069442
 30
0.0
 11
4585.0000000000073
 21
-674.80256121068396
 31
0.0
1001
ACAD
1010
0.0
1020
0.0
1030
0.0
1001
ACDBBLOCKREPETAG
1070
     1
1071
       20
1005
12A3B9
  0
LINE
  5
12A3BA
  8
SLIM
 10
4414.9999999999973
 20
-862.7630734528326
 30
0.0
 11
4585.0000000000073
 21
-692.76307345282271
 31
0.0
1001
ACAD
1010
0.0
1020
0.0
1030
0.0
1001
ACDBBLOCKREPETAG
1070
     1
1071
       21
1005
12A3BA
  0
LINE
  5
12A3BB
  8
SLIM
 10
4414.9999999999973
 20
-880.72358569497055
 30
0.0
 11
4585.0000000000073
 21
-710.72358569496123
 31
0.0
1001
ACAD
1010
0.0
1020
0.0
1030
0.0
1001
ACDBBLOCKREPETAG
1070
     1
1071
       22
1005
12A3BB
  0
LINE
  5
12A3BC
  8
SLIM
 10
4414.9999999999973
 20
-898.68409793710862
 30
0.0
 11
4585.0000000000073
 21
-728.68409793709986
 31
0.0
1001
ACAD
1010
0.0
1020
0.0
1030
0.0
1001
ACDBBLOCKREPETAG
1070
     1
1071
       23
1005
12A3BC
  0
LINE
  5
12A3BD
  8
SLIM
 10
4414.9999999999973
 20
-916.64461017924623
 30
0.0
 11
4585.0000000000073
 21
-746.64461017923873
 31
0.0
1001
ACAD
1010
0.0
1020
0.0
1030
0.0
1001
ACDBBLOCKREPETAG
1070
     1
1071
       24
1005
12A3BD
  0
LINE
  5
12A3BE
  8
SLIM
 10
4414.9999999999991
 20
-934.60512242138441
 30
0.0
 11
4585.0000000000073
 21
-764.60512242137725
 31
0.0
1001
ACAD
1010
0.0
1020
0.0
1030
0.0
1001
ACDBBLOCKREPETAG
1070
     1
1071
       25
1005
12A3BE
  0
LINE
  5
12A3BF
  8
SLIM
 10
4414.9999999999991
 20
-952.56563466352225
 30
0.0
 11
4585.0000000000036
 21
-782.56563466351588
 31
0.0
1001
ACAD
1010
0.0
1020
0.0
1030
0.0
1001
ACDBBLOCKREPETAG
1070
     1
1071
       26
1005
12A3BF
  0
LINE
  5
12A3C0
  8
SLIM
 10
4414.9999999999991
 20
-970.52614690566054
 30
0.0
 11
4585.0000000000036
 21
-800.52614690565474
 31
0.0
1001
ACAD
1010
0.0
1020
0.0
1030
0.0
1001
ACDBBLOCKREPETAG
1070
     1
1071
       27
1005
12A3C0
  0
LINE
  5
12A3C1
  8
SLIM
 10
4414.9999999999991
 20
-988.48665914779826
 30
0.0
 11
4585.0000000000036
 21
-818.48665914779315
 31
0.0
1001
ACAD
1010
0.0
1020
0.0
1030
0.0
1001
ACDBBLOCKREPETAG
1070
     1
1071
       28
1005
12A3C1
  0
LINE
  5
12A3C2
  8
SLIM
 10
4414.9999999999991
 20
-1006.447171389936
 30
0.0
 11
4585.0000000000009
 21
-836.44717138993178
 31
0.0
1001
ACAD
1010
0.0
1020
0.0
1030
0.0
1001
ACDBBLOCKREPETAG
1070
     1
1071
       29
1005
12A3C2
  0
LINE
  5
12A3C3
  8
SLIM
 10
4415.0
 20
-1024.4076836320739
 30
0.0
 11
4585.0000000000009
 21
-854.4076836320703
 31
0.0
1001
ACAD
1010
0.0
1020
0.0
1030
0.0
1001
ACDBBLOCKREPETAG
1070
     1
1071
       30
1005
12A3C3
  0
LINE
  5
12A3C4
  8
SLIM
 10
4415.5755701039116
 20
-1041.7926257703
 30
0.0
 11
4585.0000000000009
 21
-872.36819587420905
 31
0.0
1001
ACAD
1010
0.0
1020
0.0
1030
0.0
1001
ACDBBLOCKREPETAG
1070
     1
1071
       31
1005
12A3C4
  0
LINE
  5
12A3C5
  8
SLIM
 10
4417.789879832394
 20
-1057.5388282839549
 30
0.0
 11
4585.0000000000009
 21
-890.32870811634803
 31
0.0
1001
ACAD
1010
0.0
1020
0.0
1030
0.0
1001
ACDBBLOCKREPETAG
1070
     1
1071
       32
1005
12A3C5
  0
LINE
  5
12A3C6
  8
SLIM
 10
4420.0041895608783
 20
-1073.28503079761
 30
0.0
 11
4585.0000000000009
 21
-908.28922035848632
 31
0.0
1001
ACAD
1010
0.0
1020
0.0
1030
0.0
1001
ACDBBLOCKREPETAG
1070
     1
1071
       33
1005
12A3C6
  0
LINE
  5
12A3C7
  8
SLIM
 10
4422.2184992893599
 20
-1089.0312333112661
 30
0.0
 11
4585.0
 21
-926.24973260062518
 31
0.0
1001
ACAD
1010
0.0
1020
0.0
1030
0.0
1001
ACDBBLOCKREPETAG
1070
     1
1071
       34
1005
12A3C7
  0
LINE
  5
12A3C8
  8
SLIM
 10
4424.4328090178433
 20
-1104.7774358249219
 30
0.0
 11
4585.0
 21
-944.21024484276404
 31
0.0
1001
ACAD
1010
0.0
1020
0.0
1030
0.0
1001
ACDBBLOCKREPETAG
1070
     1
1071
       35
1005
12A3C8
  0
LINE
  5
12A3C9
  8
SLIM
 10
4426.6471187463258
 20
-1120.5236383385779
 30
0.0
 11
4585.0
 21
-962.17075708490233
 31
0.0
1001
ACAD
1010
0.0
1020
0.0
1030
0.0
1001
ACDBBLOCKREPETAG
1070
     1
1071
       36
1005
12A3C9
  0
LINE
  5
12A3CA
  8
SLIM
 10
4428.8614284748073
 20
-1136.269840852234
 30
0.0
 11
4585.0
 21
-980.1312693270412
 31
0.0
1001
ACAD
1010
0.0
1020
0.0
1030
0.0
1001
ACDBBLOCKREPETAG
1070
     1
1071
       37
1005
12A3CA
  0
LINE
  5
12A3CB
  8
SLIM
 10
4431.0757382032934
 20
-1152.0160433658889
 30
0.0
 11
4585.0
 21
-998.09178156917983
 31
0.0
1001
ACAD
1010
0.0
1020
0.0
1030
0.0
1001
ACDBBLOCKREPETAG
1070
     1
1071
       38
1005
12A3CB
  0
LINE
  5
12A3CC
  8
SLIM
 10
4436.052293811319
 20
-1164.9999999999991
 30
0.0
 11
4585.0
 21
-1016.052293811318
 31
0.0
1001
ACAD
1010
0.0
1020
0.0
1030
0.0
1001
ACDBBLOCKREPETAG
1070
     1
1071
       39
1005
12A3CC
  0
LINE
  5
12A3CD
  8
SLIM
 10
4443.0
 20
-1176.0128060534571
 30
0.0
 11
4454.012806053458
 21
-1164.9999999999991
 31
0.0
1001
ACAD
1010
0.0
1020
0.0
1030
0.0
1001
ACDBBLOCKREPETAG
1070
     1
1071
       40
1005
12A3CD
  0
LINE
  5
12A3CE
  8
SLIM
 10
4454.012806053458
 20
-1164.9999999999991
 30
0.0
 11
4585.0
 21
-1034.0128060534571
 31
0.0
1001
ACAD
1010
0.0
1020
0.0
1030
0.0
1001
ACDBBLOCKREPETAG
1070
     1
1071
       41
1005
12A3CE
  0
LINE
  5
12A3CF
  8
SLIM
 10
4446.9733182955961
 20
-1189.9999999999991
 30
0.0
 11
4471.9733182955961
 21
-1164.9999999999991
 31
0.0
1001
ACAD
1010
0.0
1020
0.0
1030
0.0
1001
ACDBBLOCKREPETAG
1070
     1
1071
       42
1005
12A3CF
  0
LINE
  5
12A3D0
  8
SLIM
 10
4471.9733182955961
 20
-1164.9999999999991
 30
0.0
 11
4582.6643141931299
 21
-1054.3090041024641
 31
0.0
1001
ACAD
1010
0.0
1020
0.0
1030
0.0
1001
ACDBBLOCKREPETAG
1070
     1
1071
       43
1005
12A3D0
  0
LINE
  5
12A3D1
  8
SLIM
 10
4464.9338305377332
 20
-1189.9999999999991
 30
0.0
 11
4489.9338305377341
 21
-1164.9999999999991
 31
0.0
1001
ACAD
1010
0.0
1020
0.0
1030
0.0
1001
ACDBBLOCKREPETAG
1070
     1
1071
       44
1005
12A3D1
  0
LINE
  5
12A3D2
  8
SLIM
 10
4489.9338305377341
 20
-1164.9999999999991
 30
0.0
 11
4579.7253212807809
 21
-1075.2085092569521
 31
0.0
1001
ACAD
1010
0.0
1020
0.0
1030
0.0
1001
ACDBBLOCKREPETAG
1070
     1
1071
       45
1005
12A3D2
  0
LINE
  5
12A3D3
  8
SLIM
 10
4482.8943427798713
 20
-1189.9999999999991
 30
0.0
 11
4507.8943427798722
 21
-1164.9999999999991
 31
0.0
1001
ACAD
1010
0.0
1020
0.0
1030
0.0
1001
ACDBBLOCKREPETAG
1070
     1
1071
       46
1005
12A3D3
  0
LINE
  5
12A3D4
  8
SLIM
 10
4507.8943427798722
 20
-1164.9999999999991
 30
0.0
 11
4576.786328368431
 21
-1096.108014411441
 31
0.0
1001
ACAD
1010
0.0
1020
0.0
1030
0.0
1001
ACDBBLOCKREPETAG
1070
     1
1071
       47
1005
12A3D4
  0
LINE
  5
12A3D5
  8
SLIM
 10
4500.8548550220112
 20
-1189.9999999999991
 30
0.0
 11
4525.8548550220112
 21
-1164.9999999999991
 31
0.0
1001
ACAD
1010
0.0
1020
0.0
1030
0.0
1001
ACDBBLOCKREPETAG
1070
     1
1071
       48
1005
12A3D5
  0
LINE
  5
12A3D6
  8
SLIM
 10
4525.8548550220112
 20
-1164.9999999999991
 30
0.0
 11
4573.847335456082
 21
-1117.007519565929
 31
0.0
1001
ACAD
1010
0.0
1020
0.0
1030
0.0
1001
ACDBBLOCKREPETAG
1070
     1
1071
       49
1005
12A3D6
  0
LINE
  5
12A3D7
  8
SLIM
 10
4518.8153672641483
 20
-1189.9999999999991
 30
0.0
 11
4543.8153672641492
 21
-1164.9999999999991
 31
0.0
1001
ACAD
1010
0.0
1020
0.0
1030
0.0
1001
ACDBBLOCKREPETAG
1070
     1
1071
       50
1005
12A3D7
  0
LINE
  5
12A3D8
  8
SLIM
 10
4543.8153672641492
 20
-1164.9999999999991
 30
0.0
 11
4570.908342543732
 21
-1137.907024720417
 31
0.0
1001
ACAD
1010
0.0
1020
0.0
1030
0.0
1001
ACDBBLOCKREPETAG
1070
     1
1071
       51
1005
12A3D8
  0
LINE
  5
12A3D9
  8
SLIM
 10
4536.7758795062873
 20
-1189.9999999999991
 30
0.0
 11
4557.0
 21
-1169.7758795062871
 31
0.0
1001
ACAD
1010
0.0
1020
0.0
1030
0.0
1001
ACDBBLOCKREPETAG
1070
     1
1071
       52
1005
12A3D9
  0
LINE
  5
12A3DA
  8
SLIM
 10
4561.7758795062882
 20
-1164.9999999999991
 30
0.0
 11
4567.9693496313821
 21
-1158.806529874905
 31
0.0
1001
ACAD
1010
0.0
1020
0.0
1030
0.0
1001
ACDBBLOCKREPETAG
1070
     1
1071
       53
1005
12A3DA
  0
LINE
  5
12A3DB
  8
SLIM
 10
4554.7363917484263
 20
-1189.9999999999991
 30
0.0
 11
4557.0
 21
-1187.736391748424
 31
0.0
1001
ACAD
1010
0.0
1020
0.0
1030
0.0
1001
ACDBBLOCKREPETAG
1070
     1
1071
       54
1005
12A3DB
  0
LINE
  5
12A3DC
  8
OBJECT
 10
4443.0
 20
-1189.9999999999991
 30
0.0
 11
4557.0
 21
-1189.9999999999991
 31
0.0
1001
ACDBBLOCKREPETAG
1070
     1
1071
        1
1005
12A3DC
  0
LINE
  5
12A3DD
  8
OBJECT
 10
4432.9016071049618
 20
-1164.9999999999991
 30
0.0
 11
4567.0983928950409
 21
-1164.9999999999991
 31
0.0
1001
ACDBBLOCKREPETAG
1070
     1
1071
        2
1005
12A3DD
  0
LINE
  5
12A3DE
  8
OBJECT
 10
4443.0
 20
-1189.9999999999991
 30
0.0
 11
4443.0
 21
-1164.9999999999991
 31
0.0
1001
ACDBBLOCKREPETAG
1070
     1
1071
        3
1005
12A3DE
  0
LINE
  5
12A3DF
  8
OBJECT
 10
4557.0
 20
-1189.9999999999991
 30
0.0
 11
4557.0
 21
-1164.9999999999991
 31
0.0
1001
ACDBBLOCKREPETAG
1070
     1
1071
        4
1005
12A3DF
  0
LINE
  5
12A3E0
  8
OBJECT
 10
4414.9999999999918
 20
-654.99999999999966
 30
0.0
 11
4415.0
 21
-1037.699682809143
 31
0.0
1001
ACDBBLOCKREPETAG
1070
     1
1071
        5
1005
12A3E0
  0
LINE
  5
12A3E1
  8
OBJECT
 10
4585.0000000000073
 20
-654.99999999999966
 30
0.0
 11
4585.0
 21
-1037.6996828091719
 31
0.0
1001
ACDBBLOCKREPETAG
1070
     1
1071
        6
1005
12A3E1
  0
LINE
  5
12A3E2
  8
OBJECT
 10
4415.0
 20
-1037.699682809143
 30
0.0
 11
4432.9016071049618
 21
-1164.9999999999991
 31
0.0
1001
ACDBBLOCKREPETAG
1070
     1
1071
        7
1005
12A3E2
  0
LINE
  5
12A3E3
  8
OBJECT
 10
4567.0983928950409
 20
-1164.9999999999991
 30
0.0
 11
4585.0
 21
-1037.6996828091719
 31
0.0
1001
ACDBBLOCKREPETAG
1070
     1
1071
        8
1005
12A3E3
  0
LINE
  5
12A3E4
  8
OBJECT
 10
4585.0000000000073
 20
-654.99999999999966
 30
0.0
 11
4414.9999999999918
 21
-654.99999999999966
 31
0.0
1001
ACDBBLOCKREPETAG
1070
     1
1071
        9
1005
12A3E4
  0
LINE
  5
12A3E5
  8
SLIM
 10
3914.9999999999941
 20
-665.19743878931513
 30
0.0
 11
3925.1974387893092
 21
-654.99999999999966
 31
0.0
1001
ACAD
1010
0.0
1020
0.0
1030
0.0
1001
ACDBBLOCKREPETAG
1070
     1
1071
        0
1005
0
  0
LINE
  5
12A3E6
  8
SLIM
 10
3914.9999999999941
 20
-683.15795103145285
 30
0.0
 11
3943.1579510314468
 21
-654.99999999999966
 31
0.0
1001
ACAD
1010
0.0
1020
0.0
1030
0.0
1001
ACDBBLOCKREPETAG
1070
     1
1071
       11
1005
12A3E6
  0
LINE
  5
12A3E7
  8
SLIM
 10
3914.9999999999941
 20
-701.11846327359103
 30
0.0
 11
3961.1184632735849
 21
-654.99999999999966
 31
0.0
1001
ACAD
1010
0.0
1020
0.0
1030
0.0
1001
ACDBBLOCKREPETAG
1070
     1
1071
       12
1005
12A3E7
  0
LINE
  5
12A3E8
  8
SLIM
 10
3914.9999999999941
 20
-719.0789755157291
 30
0.0
 11
3979.0789755157239
 21
-654.99999999999966
 31
0.0
1001
ACAD
1010
0.0
1020
0.0
1030
0.0
1001
ACDBBLOCKREPETAG
1070
     1
1071
       13
1005
12A3E8
  0
LINE
  5
12A3E9
  8
SLIM
 10
3914.9999999999941
 20
-737.03948775786682
 30
0.0
 11
3997.0394877578619
 21
-654.99999999999966
 31
0.0
1001
ACAD
1010
0.0
1020
0.0
1030
0.0
1001
ACDBBLOCKREPETAG
1070
     1
1071
       14
1005
12A3E9
  0
LINE
  5
12A3EA
  8
SLIM
 10
3914.999999999995
 20
-755.00000000000455
 30
0.0
 11
4015.0
 21
-654.99999999999966
 31
0.0
1001
ACAD
1010
0.0
1020
0.0
1030
0.0
1001
ACDBBLOCKREPETAG
1070
     1
1071
       15
1005
12A3EA
  0
LINE
  5
12A3EB
  8
SLIM
 10
3914.999999999995
 20
-772.96051224214284
 30
0.0
 11
4032.9605122421372
 21
-654.99999999999966
 31
0.0
1001
ACAD
1010
0.0
1020
0.0
1030
0.0
1001
ACDBBLOCKREPETAG
1070
     1
1071
       16
1005
12A3EB
  0
LINE
  5
12A3EC
  8
SLIM
 10
3914.999999999995
 20
-790.92102448428068
 30
0.0
 11
4050.921024484277
 21
-654.99999999999966
 31
0.0
1001
ACAD
1010
0.0
1020
0.0
1030
0.0
1001
ACDBBLOCKREPETAG
1070
     1
1071
       17
1005
12A3EC
  0
LINE
  5
12A3ED
  8
SLIM
 10
3914.999999999995
 20
-808.88153672641874
 30
0.0
 11
4068.8815367264142
 21
-654.99999999999966
 31
0.0
1001
ACAD
1010
0.0
1020
0.0
1030
0.0
1001
ACDBBLOCKREPETAG
1070
     1
1071
       18
1005
12A3ED
  0
LINE
  5
12A3EE
  8
SLIM
 10
3914.9999999999968
 20
-826.8420489685567
 30
0.0
 11
4085.0000000000068
 21
-656.84204896854555
 31
0.0
1001
ACAD
1010
0.0
1020
0.0
1030
0.0
1001
ACDBBLOCKREPETAG
1070
     1
1071
       19
1005
12A3EE
  0
LINE
  5
12A3EF
  8
SLIM
 10
3914.9999999999968
 20
-844.80256121069442
 30
0.0
 11
4085.0000000000068
 21
-674.80256121068396
 31
0.0
1001
ACAD
1010
0.0
1020
0.0
1030
0.0
1001
ACDBBLOCKREPETAG
1070
     1
1071
       20
1005
12A3EF
  0
LINE
  5
12A3F0
  8
SLIM
 10
3914.9999999999968
 20
-862.7630734528326
 30
0.0
 11
4085.0000000000068
 21
-692.76307345282271
 31
0.0
1001
ACAD
1010
0.0
1020
0.0
1030
0.0
1001
ACDBBLOCKREPETAG
1070
     1
1071
       21
1005
12A3F0
  0
LINE
  5
12A3F1
  8
SLIM
 10
3914.9999999999968
 20
-880.72358569497055
 30
0.0
 11
4085.0000000000068
 21
-710.72358569496123
 31
0.0
1001
ACAD
1010
0.0
1020
0.0
1030
0.0
1001
ACDBBLOCKREPETAG
1070
     1
1071
       22
1005
12A3F1
  0
LINE
  5
12A3F2
  8
SLIM
 10
3914.9999999999968
 20
-898.68409793710862
 30
0.0
 11
4085.0000000000059
 21
-728.68409793709986
 31
0.0
1001
ACAD
1010
0.0
1020
0.0
1030
0.0
1001
ACDBBLOCKREPETAG
1070
     1
1071
       23
1005
12A3F2
  0
LINE
  5
12A3F3
  8
SLIM
 10
3914.9999999999991
 20
-916.64461017924623
 30
0.0
 11
4085.0000000000059
 21
-746.64461017923873
 31
0.0
1001
ACAD
1010
0.0
1020
0.0
1030
0.0
1001
ACDBBLOCKREPETAG
1070
     1
1071
       24
1005
12A3F3
  0
LINE
  5
12A3F4
  8
SLIM
 10
3914.9999999999991
 20
-934.60512242138441
 30
0.0
 11
4085.000000000005
 21
-764.60512242137725
 31
0.0
1001
ACAD
1010
0.0
1020
0.0
1030
0.0
1001
ACDBBLOCKREPETAG
1070
     1
1071
       25
1005
12A3F4
  0
LINE
  5
12A3F5
  8
SLIM
 10
3914.9999999999991
 20
-952.56563466352225
 30
0.0
 11
4085.000000000005
 21
-782.56563466351588
 31
0.0
1001
ACAD
1010
0.0
1020
0.0
1030
0.0
1001
ACDBBLOCKREPETAG
1070
     1
1071
       26
1005
12A3F5
  0
LINE
  5
12A3F6
  8
SLIM
 10
3914.9999999999991
 20
-970.52614690566054
 30
0.0
 11
4085.0000000000041
 21
-800.52614690565474
 31
0.0
1001
ACAD
1010
0.0
1020
0.0
1030
0.0
1001
ACDBBLOCKREPETAG
1070
     1
1071
       27
1005
12A3F6
  0
LINE
  5
12A3F7
  8
SLIM
 10
3914.9999999999991
 20
-988.48665914779826
 30
0.0
 11
4085.0000000000041
 21
-818.48665914779315
 31
0.0
1001
ACAD
1010
0.0
1020
0.0
1030
0.0
1001
ACDBBLOCKREPETAG
1070
     1
1071
       28
1005
12A3F7
  0
LINE
  5
12A3F8
  8
SLIM
 10
3915.0
 20
-1006.447171389936
 30
0.0
 11
4085.0000000000032
 21
-836.44717138993178
 31
0.0
1001
ACAD
1010
0.0
1020
0.0
1030
0.0
1001
ACDBBLOCKREPETAG
1070
     1
1071
       29
1005
12A3F8
  0
LINE
  5
12A3F9
  8
SLIM
 10
3915.0
 20
-1024.4076836320739
 30
0.0
 11
4085.0000000000032
 21
-854.4076836320703
 31
0.0
1001
ACAD
1010
0.0
1020
0.0
1030
0.0
1001
ACDBBLOCKREPETAG
1070
     1
1071
       30
1005
12A3F9
  0
LINE
  5
12A3FA
  8
SLIM
 10
3915.5755701039129
 20
-1041.7926257703
 30
0.0
 11
4085.0000000000032
 21
-872.36819587420905
 31
0.0
1001
ACAD
1010
0.0
1020
0.0
1030
0.0
1001
ACDBBLOCKREPETAG
1070
     1
1071
       31
1005
12A3FA
  0
LINE
  5
12A3FB
  8
SLIM
 10
3917.789879832394
 20
-1057.5388282839549
 30
0.0
 11
4085.0000000000032
 21
-890.32870811634803
 31
0.0
1001
ACAD
1010
0.0
1020
0.0
1030
0.0
1001
ACDBBLOCKREPETAG
1070
     1
1071
       32
1005
12A3FB
  0
LINE
  5
12A3FC
  8
SLIM
 10
3920.0041895608779
 20
-1073.28503079761
 30
0.0
 11
4085.0000000000009
 21
-908.28922035848632
 31
0.0
1001
ACAD
1010
0.0
1020
0.0
1030
0.0
1001
ACDBBLOCKREPETAG
1070
     1
1071
       33
1005
12A3FC
  0
LINE
  5
12A3FD
  8
SLIM
 10
3922.2184992893608
 20
-1089.0312333112661
 30
0.0
 11
4085.0000000000009
 21
-926.24973260062518
 31
0.0
1001
ACAD
1010
0.0
1020
0.0
1030
0.0
1001
ACDBBLOCKREPETAG
1070
     1
1071
       34
1005
12A3FD
  0
LINE
  5
12A3FE
  8
SLIM
 10
3924.4328090178442
 20
-1104.7774358249219
 30
0.0
 11
4085.0000000000009
 21
-944.21024484276404
 31
0.0
1001
ACAD
1010
0.0
1020
0.0
1030
0.0
1001
ACDBBLOCKREPETAG
1070
     1
1071
       35
1005
12A3FE
  0
LINE
  5
12A3FF
  8
SLIM
 10
3926.6471187463262
 20
-1120.5236383385779
 30
0.0
 11
4085.0000000000009
 21
-962.17075708490233
 31
0.0
1001
ACAD
1010
0.0
1020
0.0
1030
0.0
1001
ACDBBLOCKREPETAG
1070
     1
1071
       36
1005
12A3FF
  0
LINE
  5
12A400
  8
SLIM
 10
3928.8614284748091
 20
-1136.269840852234
 30
0.0
 11
4085.0
 21
-980.1312693270412
 31
0.0
1001
ACAD
1010
0.0
1020
0.0
1030
0.0
1001
ACDBBLOCKREPETAG
1070
     1
1071
       37
1005
12A400
  0
LINE
  5
12A401
  8
SLIM
 10
3931.0757382032912
 20
-1152.0160433658889
 30
0.0
 11
4085.0
 21
-998.09178156917983
 31
0.0
1001
ACAD
1010
0.0
1020
0.0
1030
0.0
1001
ACDBBLOCKREPETAG
1070
     1
1071
       38
1005
12A401
  0
LINE
  5
12A402
  8
SLIM
 10
3936.052293811319
 20
-1164.9999999999991
 30
0.0
 11
4085.0
 21
-1016.052293811318
 31
0.0
1001
ACAD
1010
0.0
1020
0.0
1030
0.0
1001
ACDBBLOCKREPETAG
1070
     1
1071
       39
1005
12A402
  0
LINE
  5
12A403
  8
SLIM
 10
3943.0
 20
-1176.0128060534571
 30
0.0
 11
3954.0128060534589
 21
-1164.9999999999991
 31
0.0
1001
ACAD
1010
0.0
1020
0.0
1030
0.0
1001
ACDBBLOCKREPETAG
1070
     1
1071
       40
1005
12A403
  0
LINE
  5
12A404
  8
SLIM
 10
3954.0128060534589
 20
-1164.9999999999991
 30
0.0
 11
4085.0
 21
-1034.0128060534571
 31
0.0
1001
ACAD
1010
0.0
1020
0.0
1030
0.0
1001
ACDBBLOCKREPETAG
1070
     1
1071
       41
1005
12A404
  0
LINE
  5
12A405
  8
SLIM
 10
3946.9733182955961
 20
-1189.9999999999991
 30
0.0
 11
3971.9733182955961
 21
-1164.9999999999991
 31
0.0
1001
ACAD
1010
0.0
1020
0.0
1030
0.0
1001
ACDBBLOCKREPETAG
1070
     1
1071
       42
1005
12A405
  0
LINE
  5
12A406
  8
SLIM
 10
3971.9733182955961
 20
-1164.9999999999991
 30
0.0
 11
4082.664314193129
 21
-1054.3090041024641
 31
0.0
1001
ACAD
1010
0.0
1020
0.0
1030
0.0
1001
ACDBBLOCKREPETAG
1070
     1
1071
       43
1005
12A406
  0
LINE
  5
12A407
  8
SLIM
 10
3964.933830537735
 20
-1189.9999999999991
 30
0.0
 11
3989.933830537735
 21
-1164.9999999999991
 31
0.0
1001
ACAD
1010
0.0
1020
0.0
1030
0.0
1001
ACDBBLOCKREPETAG
1070
     1
1071
       44
1005
12A407
  0
LINE
  5
12A408
  8
SLIM
 10
3989.933830537735
 20
-1164.9999999999991
 30
0.0
 11
4079.7253212807818
 21
-1075.2085092569521
 31
0.0
1001
ACAD
1010
0.0
1020
0.0
1030
0.0
1001
ACDBBLOCKREPETAG
1070
     1
1071
       45
1005
12A408
  0
LINE
  5
12A409
  8
SLIM
 10
3982.894342779874
 20
-1189.9999999999991
 30
0.0
 11
4007.8943427798722
 21
-1164.9999999999991
 31
0.0
1001
ACAD
1010
0.0
1020
0.0
1030
0.0
1001
ACDBBLOCKREPETAG
1070
     1
1071
       46
1005
12A409
  0
LINE
  5
12A40A
  8
SLIM
 10
4007.8943427798731
 20
-1164.9999999999991
 30
0.0
 11
4076.786328368431
 21
-1096.108014411441
 31
0.0
1001
ACAD
1010
0.0
1020
0.0
1030
0.0
1001
ACDBBLOCKREPETAG
1070
     1
1071
       47
1005
12A40A
  0
LINE
  5
12A40B
  8
SLIM
 10
4000.8548550220089
 20
-1189.9999999999991
 30
0.0
 11
4025.8548550220089
 21
-1164.9999999999991
 31
0.0
1001
ACAD
1010
0.0
1020
0.0
1030
0.0
1001
ACDBBLOCKREPETAG
1070
     1
1071
       48
1005
12A40B
  0
LINE
  5
12A40C
  8
SLIM
 10
4025.8548550220089
 20
-1164.9999999999991
 30
0.0
 11
4073.847335456082
 21
-1117.007519565929
 31
0.0
1001
ACAD
1010
0.0
1020
0.0
1030
0.0
1001
ACDBBLOCKREPETAG
1070
     1
1071
       49
1005
12A40C
  0
LINE
  5
12A40D
  8
SLIM
 10
4018.8153672641479
 20
-1189.9999999999991
 30
0.0
 11
4043.8153672641488
 21
-1164.9999999999991
 31
0.0
1001
ACAD
1010
0.0
1020
0.0
1030
0.0
1001
ACDBBLOCKREPETAG
1070
     1
1071
       50
1005
12A40D
  0
LINE
  5
12A40E
  8
SLIM
 10
4043.8153672641488
 20
-1164.9999999999991
 30
0.0
 11
4070.9083425437329
 21
-1137.907024720417
 31
0.0
1001
ACAD
1010
0.0
1020
0.0
1030
0.0
1001
ACDBBLOCKREPETAG
1070
     1
1071
       51
1005
12A40E
  0
LINE
  5
12A40F
  8
SLIM
 10
4036.7758795062869
 20
-1189.9999999999991
 30
0.0
 11
4057.0
 21
-1169.7758795062871
 31
0.0
1001
ACAD
1010
0.0
1020
0.0
1030
0.0
1001
ACDBBLOCKREPETAG
1070
     1
1071
       52
1005
12A40F
  0
LINE
  5
12A410
  8
SLIM
 10
4061.7758795062882
 20
-1164.9999999999991
 30
0.0
 11
4067.9693496313821
 21
-1158.806529874905
 31
0.0
1001
ACAD
1010
0.0
1020
0.0
1030
0.0
1001
ACDBBLOCKREPETAG
1070
     1
1071
       53
1005
12A410
  0
LINE
  5
12A411
  8
SLIM
 10
4054.7363917484249
 20
-1189.9999999999991
 30
0.0
 11
4057.0
 21
-1187.736391748424
 31
0.0
1001
ACAD
1010
0.0
1020
0.0
1030
0.0
1001
ACDBBLOCKREPETAG
1070
     1
1071
       54
1005
12A411
  0
LINE
  5
12A412
  8
OBJECT
 10
3943.0
 20
-1189.9999999999991
 30
0.0
 11
4057.0
 21
-1189.9999999999991
 31
0.0
1001
ACDBBLOCKREPETAG
1070
     1
1071
        1
1005
12A412
  0
LINE
  5
12A413
  8
OBJECT
 10
3932.9016071049632
 20
-1164.9999999999991
 30
0.0
 11
4067.0983928950409
 21
-1164.9999999999991
 31
0.0
1001
ACDBBLOCKREPETAG
1070
     1
1071
        2
1005
12A413
  0
LINE
  5
12A414
  8
OBJECT
 10
3943.0
 20
-1189.9999999999991
 30
0.0
 11
3943.0
 21
-1164.9999999999991
 31
0.0
1001
ACDBBLOCKREPETAG
1070
     1
1071
        3
1005
12A414
  0
LINE
  5
12A415
  8
OBJECT
 10
4057.0
 20
-1189.9999999999991
 30
0.0
 11
4057.0
 21
-1164.9999999999991
 31
0.0
1001
ACDBBLOCKREPETAG
1070
     1
1071
        4
1005
12A415
  0
LINE
  5
12A416
  8
OBJECT
 10
3914.9999999999941
 20
-654.99999999999966
 30
0.0
 11
3915.0
 21
-1037.699682809143
 31
0.0
1001
ACDBBLOCKREPETAG
1070
     1
1071
        5
1005
12A416
  0
LINE
  5
12A417
  8
OBJECT
 10
4085.0000000000068
 20
-654.99999999999966
 30
0.0
 11
4085.0
 21
-1037.6996828091719
 31
0.0
1001
ACDBBLOCKREPETAG
1070
     1
1071
        6
1005
12A417
  0
LINE
  5
12A418
  8
OBJECT
 10
3915.0
 20
-1037.699682809143
 30
0.0
 11
3932.9016071049632
 21
-1164.9999999999991
 31
0.0
1001
ACDBBLOCKREPETAG
1070
     1
1071
        7
1005
12A418
  0
LINE
  5
12A419
  8
OBJECT
 10
4067.0983928950409
 20
-1164.9999999999991
 30
0.0
 11
4085.0
 21
-1037.6996828091719
 31
0.0
1001
ACDBBLOCKREPETAG
1070
     1
1071
        8
1005
12A419
  0
LINE
  5
12A41A
  8
OBJECT
 10
4085.0000000000068
 20
-654.99999999999966
 30
0.0
 11
3914.9999999999941
 21
-654.99999999999966
 31
0.0
1001
ACDBBLOCKREPETAG
1070
     1
1071
        9
1005
12A41A
  0
LINE
  5
12A41B
  8
OBJECT
 10
4425.0
 20
-669.99999999999955
 30
0.0
 11
4425.0
 21
-942.99999999999955
 31
0.0
1001
ACDBBLOCKREPETAG
1070
     1
1071
        1
1005
12A41B
  0
LINE
  5
12A41C
  8
OBJECT
 10
4575.0
 20
-669.99999999999375
 30
0.0
 11
4575.0
 21
-942.99999999999955
 31
0.0
1001
ACDBBLOCKREPETAG
1070
     1
1071
        3
1005
12A41C
  0
LINE
  5
12A41D
  8
CENTER
 10
4500.0
 20
-669.99999999999955
 30
0.0
 11
4500.0
 21
-954.99999999999966
 31
0.0
1001
ACDBBLOCKREPETAG
1070
     1
1071
        6
1005
12A41D
  0
LINE
  5
12A41E
  8
OBJECT
 10
4420.0
 20
-954.99999999999966
 30
0.0
 11
4580.0
 21
-954.99999999999966
 31
0.0
1001
ACDBBLOCKREPETAG
1070
     1
1071
        7
1005
12A41E
  0
LINE
  5
12A41F
  8
OBJECT
 10
4420.0
 20
-942.99999999999955
 30
0.0
 11
4580.0
 21
-942.99999999999955
 31
0.0
1001
ACDBBLOCKREPETAG
1070
     1
1071
        8
1005
12A41F
  0
LINE
  5
12A420
  8
OBJECT
 10
4420.0
 20
-942.99999999999955
 30
0.0
 11
4420.0
 21
-954.99999999999966
 31
0.0
1001
ACDBBLOCKREPETAG
1070
     1
1071
        9
1005
12A420
  0
LINE
  5
12A421
  8
OBJECT
 10
4580.0
 20
-942.99999999999955
 30
0.0
 11
4580.0
 21
-954.99999999999966
 31
0.0
1001
ACDBBLOCKREPETAG
1070
     1
1071
       10
1005
12A421
  0
LINE
  5
12A422
  8
OBJECT
 10
3925.0
 20
-669.99999999999955
 30
0.0
 11
3925.0
 21
-942.99999999999955
 31
0.0
1001
ACDBBLOCKREPETAG
1070
     1
1071
        1
1005
12A422
  0
LINE
  5
12A423
  8
OBJECT
 10
4075.0
 20
-669.99999999999375
 30
0.0
 11
4075.0
 21
-942.99999999999955
 31
0.0
1001
ACDBBLOCKREPETAG
1070
     1
1071
        3
1005
12A423
  0
LINE
  5
12A424
  8
CENTER
 10
4000.0
 20
-669.99999999999955
 30
0.0
 11
4000.0
 21
-954.99999999999966
 31
0.0
1001
ACDBBLOCKREPETAG
1070
     1
1071
        6
1005
12A424
  0
LINE
  5
12A425
  8
OBJECT
 10
3920.0
 20
-954.99999999999966
 30
0.0
 11
4080.0
 21
-954.99999999999966
 31
0.0
1001
ACDBBLOCKREPETAG
1070
     1
1071
        7
1005
12A425
  0
LINE
  5
12A426
  8
OBJECT
 10
3920.0
 20
-942.99999999999955
 30
0.0
 11
4080.0
 21
-942.99999999999955
 31
0.0
1001
ACDBBLOCKREPETAG
1070
     1
1071
        8
1005
12A426
  0
LINE
  5
12A427
  8
OBJECT
 10
3920.0
 20
-942.99999999999955
 30
0.0
 11
3920.0
 21
-954.99999999999966
 31
0.0
1001
ACDBBLOCKREPETAG
1070
     1
1071
        9
1005
12A427
  0
LINE
  5
12A428
  8
OBJECT
 10
4080.0
 20
-942.99999999999955
 30
0.0
 11
4080.0
 21
-954.99999999999966
 31
0.0
1001
ACDBBLOCKREPETAG
1070
     1
1071
       10
1005
12A428
  0
LINE
  5
12A429
  8
OBJECT
 10
2425.0
 20
-669.99999999999955
 30
0.0
 11
2425.0
 21
-942.99999999999955
 31
0.0
1001
ACDBBLOCKREPETAG
1070
     1
1071
        1
1005
12A429
  0
LINE
  5
12A42A
  8
OBJECT
 10
2575.0
 20
-669.99999999999375
 30
0.0
 11
2575.0
 21
-942.99999999999955
 31
0.0
1001
ACDBBLOCKREPETAG
1070
     1
1071
        3
1005
12A42A
  0
LINE
  5
12A42B
  8
CENTER
 10
2500.0
 20
-669.99999999999955
 30
0.0
 11
2500.0
 21
-954.99999999999966
 31
0.0
1001
ACDBBLOCKREPETAG
1070
     1
1071
        6
1005
12A42B
  0
LINE
  5
12A42C
  8
OBJECT
 10
2420.0
 20
-954.99999999999966
 30
0.0
 11
2580.0
 21
-954.99999999999966
 31
0.0
1001
ACDBBLOCKREPETAG
1070
     1
1071
        7
1005
12A42C
  0
LINE
  5
12A42D
  8
OBJECT
 10
2420.0
 20
-942.99999999999955
 30
0.0
 11
2580.0
 21
-942.99999999999955
 31
0.0
1001
ACDBBLOCKREPETAG
1070
     1
1071
        8
1005
12A42D
  0
LINE
  5
12A42E
  8
OBJECT
 10
2420.0
 20
-942.99999999999955
 30
0.0
 11
2420.0
 21
-954.99999999999966
 31
0.0
1001
ACDBBLOCKREPETAG
1070
     1
1071
        9
1005
12A42E
  0
LINE
  5
12A42F
  8
OBJECT
 10
2580.0
 20
-942.99999999999955
 30
0.0
 11
2580.0
 21
-954.99999999999966
 31
0.0
1001
ACDBBLOCKREPETAG
1070
     1
1071
       10
1005
12A42F
  0
LINE
  5
12A430
  8
OBJECT
 10
1925.0
 20
-669.99999999999955
 30
0.0
 11
1925.0
 21
-942.99999999999955
 31
0.0
1001
ACDBBLOCKREPETAG
1070
     1
1071
        1
1005
12A430
  0
LINE
  5
12A431
  8
OBJECT
 10
2075.0
 20
-669.99999999999375
 30
0.0
 11
2075.0
 21
-942.99999999999955
 31
0.0
1001
ACDBBLOCKREPETAG
1070
     1
1071
        3
1005
12A431
  0
LINE
  5
12A432
  8
CENTER
 10
2000.0
 20
-669.99999999999955
 30
0.0
 11
2000.0
 21
-954.99999999999966
 31
0.0
1001
ACDBBLOCKREPETAG
1070
     1
1071
        6
1005
12A432
  0
LINE
  5
12A433
  8
OBJECT
 10
1920.0
 20
-954.99999999999966
 30
0.0
 11
2080.0
 21
-954.99999999999966
 31
0.0
1001
ACDBBLOCKREPETAG
1070
     1
1071
        7
1005
12A433
  0
LINE
  5
12A434
  8
OBJECT
 10
1920.0
 20
-942.99999999999955
 30
0.0
 11
2080.0
 21
-942.99999999999955
 31
0.0
1001
ACDBBLOCKREPETAG
1070
     1
1071
        8
1005
12A434
  0
LINE
  5
12A435
  8
OBJECT
 10
1920.0
 20
-942.99999999999955
 30
0.0
 11
1920.0
 21
-954.99999999999966
 31
0.0
1001
ACDBBLOCKREPETAG
1070
     1
1071
        9
1005
12A435
  0
LINE
  5
12A436
  8
OBJECT
 10
2080.0
 20
-942.99999999999955
 30
0.0
 11
2080.0
 21
-954.99999999999966
 31
0.0
1001
ACDBBLOCKREPETAG
1070
     1
1071
       10
1005
12A436
  0
LINE
  5
12A437
  8
OBJECT
 10
4443.0
 20
-1264.9999999999959
 30
0.0
 11
4557.0
 21
-1264.9999999999959
 31
0.0
1001
ACDBBLOCKREPETAG
1070
     1
1071
        0
1005
12A437
  0
LINE
  5
12A438
  8
OBJECT
 10
4443.0
 20
-1264.9999999999959
 30
0.0
 11
4443.0
 21
-1164.9999999999959
 31
0.0
1001
ACDBBLOCKREPETAG
1070
     1
1071
        1
1005
12A438
  0
LINE
  5
12A439
  8
OBJECT
 10
4557.0
 20
-1264.9999999999959
 30
0.0
 11
4557.0
 21
-1164.9999999999959
 31
0.0
1001
ACDBBLOCKREPETAG
1070
     1
1071
        2
1005
12A439
  0
LINE
  5
12A43A
  8
OBJECT
 10
4443.0
 20
-1164.9999999999959
 30
0.0
 11
4557.0
 21
-1164.9999999999959
 31
0.0
1001
ACDBBLOCKREPETAG
1070
     1
1071
        3
1005
12A43A
  0
LINE
  5
12A43B
  8
HIDDEN
 10
4450.0
 20
-1164.9999999999959
 30
0.0
 11
4450.0
 21
-1264.9999999999959
 31
0.0
1001
ACDBBLOCKREPETAG
1070
     1
1071
        4
1005
12A43B
  0
LINE
  5
12A43C
  8
HIDDEN
 10
4550.0
 20
-1164.9999999999959
 30
0.0
 11
4550.0
 21
-1264.9999999999959
 31
0.0
1001
ACDBBLOCKREPETAG
1070
     1
1071
        5
1005
12A43C
  0
LINE
  5
12A43D
  8
CENTER
 10
4500.0
 20
-954.99999999999966
 30
0.0
 11
4500.0
 21
-1279.9999999999959
 31
0.0
1001
ACDBBLOCKREPETAG
1070
     1
1071
        6
1005
12A43D
  0
LINE
  5
12A43E
  8
OBJECT
 10
4425.0
 20
-954.99999999999966
 30
0.0
 11
4425.0
 21
-1036.9999999999959
 31
0.0
1001
ACDBBLOCKREPETAG
1070
     1
1071
        7
1005
12A43E
  0
LINE
  5
12A43F
  8
OBJECT
 10
4575.0
 20
-954.99999999999966
 30
0.0
 11
4575.0
 21
-1036.9999999999959
 31
0.0
1001
ACDBBLOCKREPETAG
1070
     1
1071
        8
1005
12A43F
  0
LINE
  5
12A440
  8
OBJECT
 10
4425.0
 20
-1036.9999999999959
 30
0.0
 11
4575.0
 21
-1036.9999999999959
 31
0.0
1001
ACDBBLOCKREPETAG
1070
     1
1071
        9
1005
12A440
  0
LINE
  5
12A441
  8
OBJECT
 10
4425.0
 20
-1036.9999999999959
 30
0.0
 11
4443.0
 21
-1164.9999999999959
 31
0.0
1001
ACDBBLOCKREPETAG
1070
     1
1071
       10
1005
12A441
  0
LINE
  5
12A442
  8
OBJECT
 10
4557.0
 20
-1164.9999999999959
 30
0.0
 11
4575.0
 21
-1036.9999999999959
 31
0.0
1001
ACDBBLOCKREPETAG
1070
     1
1071
       11
1005
12A442
  0
LINE
  5
12A443
  8
OBJECT
 10
3943.0
 20
-1264.9999999999959
 30
0.0
 11
4057.0
 21
-1264.9999999999959
 31
0.0
1001
ACDBBLOCKREPETAG
1070
     1
1071
        0
1005
12A443
  0
LINE
  5
12A444
  8
OBJECT
 10
3943.0
 20
-1264.9999999999959
 30
0.0
 11
3943.0
 21
-1164.9999999999959
 31
0.0
1001
ACDBBLOCKREPETAG
1070
     1
1071
        1
1005
12A444
  0
LINE
  5
12A445
  8
OBJECT
 10
4057.0
 20
-1264.9999999999959
 30
0.0
 11
4057.0
 21
-1164.9999999999959
 31
0.0
1001
ACDBBLOCKREPETAG
1070
     1
1071
        2
1005
12A445
  0
LINE
  5
12A446
  8
OBJECT
 10
3943.0
 20
-1164.9999999999959
 30
0.0
 11
4057.0
 21
-1164.9999999999959
 31
0.0
1001
ACDBBLOCKREPETAG
1070
     1
1071
        3
1005
12A446
  0
LINE
  5
12A447
  8
HIDDEN
 10
3950.0
 20
-1164.9999999999959
 30
0.0
 11
3950.0
 21
-1264.9999999999959
 31
0.0
1001
ACDBBLOCKREPETAG
1070
     1
1071
        4
1005
12A447
  0
LINE
  5
12A448
  8
HIDDEN
 10
4050.0
 20
-1164.9999999999959
 30
0.0
 11
4050.0
 21
-1264.9999999999959
 31
0.0
1001
ACDBBLOCKREPETAG
1070
     1
1071
        5
1005
12A448
  0
LINE
  5
12A449
  8
CENTER
 10
4000.0
 20
-954.99999999999966
 30
0.0
 11
4000.0
 21
-1279.9999999999959
 31
0.0
1001
ACDBBLOCKREPETAG
1070
     1
1071
        6
1005
12A449
  0
LINE
  5
12A44A
  8
OBJECT
 10
3925.0
 20
-954.99999999999966
 30
0.0
 11
3925.0
 21
-1036.9999999999959
 31
0.0
1001
ACDBBLOCKREPETAG
1070
     1
1071
        7
1005
12A44A
  0
LINE
  5
12A44B
  8
OBJECT
 10
4075.0
 20
-954.99999999999966
 30
0.0
 11
4075.0
 21
-1036.9999999999959
 31
0.0
1001
ACDBBLOCKREPETAG
1070
     1
1071
        8
1005
12A44B
  0
LINE
  5
12A44C
  8
OBJECT
 10
3925.0
 20
-1036.9999999999959
 30
0.0
 11
4075.0
 21
-1036.9999999999959
 31
0.0
1001
ACDBBLOCKREPETAG
1070
     1
1071
        9
1005
12A44C
  0
LINE
  5
12A44D
  8
OBJECT
 10
3925.0
 20
-1036.9999999999959
 30
0.0
 11
3943.0
 21
-1164.9999999999959
 31
0.0
1001
ACDBBLOCKREPETAG
1070
     1
1071
       10
1005
12A44D
  0
LINE
  5
12A44E
  8
OBJECT
 10
4057.0
 20
-1164.9999999999959
 30
0.0
 11
4075.0
 21
-1036.9999999999959
 31
0.0
1001
ACDBBLOCKREPETAG
1070
     1
1071
       11
1005
12A44E
  0
LINE
  5
12A44F
  8
OBJECT
 10
2443.0
 20
-1264.9999999999959
 30
0.0
 11
2557.0
 21
-1264.9999999999959
 31
0.0
1001
ACDBBLOCKREPETAG
1070
     1
1071
        0
1005
12A44F
  0
LINE
  5
12A450
  8
OBJECT
 10
2443.0
 20
-1264.9999999999959
 30
0.0
 11
2443.0
 21
-1164.9999999999959
 31
0.0
1001
ACDBBLOCKREPETAG
1070
     1
1071
        1
1005
12A450
  0
LINE
  5
12A451
  8
OBJECT
 10
2557.0
 20
-1264.9999999999959
 30
0.0
 11
2557.0
 21
-1164.9999999999959
 31
0.0
1001
ACDBBLOCKREPETAG
1070
     1
1071
        2
1005
12A451
  0
LINE
  5
12A452
  8
OBJECT
 10
2443.0
 20
-1164.9999999999959
 30
0.0
 11
2557.0
 21
-1164.9999999999959
 31
0.0
1001
ACDBBLOCKREPETAG
1070
     1
1071
        3
1005
12A452
  0
LINE
  5
12A453
  8
HIDDEN
 10
2450.0
 20
-1164.9999999999959
 30
0.0
 11
2450.0
 21
-1264.9999999999959
 31
0.0
1001
ACDBBLOCKREPETAG
1070
     1
1071
        4
1005
12A453
  0
LINE
  5
12A454
  8
HIDDEN
 10
2550.0
 20
-1164.9999999999959
 30
0.0
 11
2550.0
 21
-1264.9999999999959
 31
0.0
1001
ACDBBLOCKREPETAG
1070
     1
1071
        5
1005
12A454
  0
LINE
  5
12A455
  8
CENTER
 10
2500.0
 20
-954.99999999999966
 30
0.0
 11
2500.0
 21
-1279.9999999999959
 31
0.0
1001
ACDBBLOCKREPETAG
1070
     1
1071
        6
1005
12A455
  0
LINE
  5
12A456
  8
OBJECT
 10
2425.0
 20
-954.99999999999966
 30
0.0
 11
2425.0
 21
-1036.9999999999959
 31
0.0
1001
ACDBBLOCKREPETAG
1070
     1
1071
        7
1005
12A456
  0
LINE
  5
12A457
  8
OBJECT
 10
2575.0
 20
-954.99999999999966
 30
0.0
 11
2575.0
 21
-1036.9999999999959
 31
0.0
1001
ACDBBLOCKREPETAG
1070
     1
1071
        8
1005
12A457
  0
LINE
  5
12A458
  8
OBJECT
 10
2425.0
 20
-1036.9999999999959
 30
0.0
 11
2575.0
 21
-1036.9999999999959
 31
0.0
1001
ACDBBLOCKREPETAG
1070
     1
1071
        9
1005
12A458
  0
LINE
  5
12A459
  8
OBJECT
 10
2425.0
 20
-1036.9999999999959
 30
0.0
 11
2443.0
 21
-1164.9999999999959
 31
0.0
1001
ACDBBLOCKREPETAG
1070
     1
1071
       10
1005
12A459
  0
LINE
  5
12A45A
  8
OBJECT
 10
2557.0
 20
-1164.9999999999959
 30
0.0
 11
2575.0
 21
-1036.9999999999959
 31
0.0
1001
ACDBBLOCKREPETAG
1070
     1
1071
       11
1005
12A45A
  0
LINE
  5
12A45B
  8
OBJECT
 10
1943.0
 20
-1264.9999999999959
 30
0.0
 11
2057.0
 21
-1264.9999999999959
 31
0.0
1001
ACDBBLOCKREPETAG
1070
     1
1071
        0
1005
12A45B
  0
LINE
  5
12A45C
  8
OBJECT
 10
1943.0
 20
-1264.9999999999959
 30
0.0
 11
1943.0
 21
-1164.9999999999959
 31
0.0
1001
ACDBBLOCKREPETAG
1070
     1
1071
        1
1005
12A45C
  0
LINE
  5
12A45D
  8
OBJECT
 10
2057.0
 20
-1264.9999999999959
 30
0.0
 11
2057.0
 21
-1164.9999999999959
 31
0.0
1001
ACDBBLOCKREPETAG
1070
     1
1071
        2
1005
12A45D
  0
LINE
  5
12A45E
  8
OBJECT
 10
1943.0
 20
-1164.9999999999959
 30
0.0
 11
2057.0
 21
-1164.9999999999959
 31
0.0
1001
ACDBBLOCKREPETAG
1070
     1
1071
        3
1005
12A45E
  0
LINE
  5
12A45F
  8
HIDDEN
 10
1950.0
 20
-1164.9999999999959
 30
0.0
 11
1950.0
 21
-1264.9999999999959
 31
0.0
1001
ACDBBLOCKREPETAG
1070
     1
1071
        4
1005
12A45F
  0
LINE
  5
12A460
  8
HIDDEN
 10
2050.0
 20
-1164.9999999999959
 30
0.0
 11
2050.0
 21
-1264.9999999999959
 31
0.0
1001
ACDBBLOCKREPETAG
1070
     1
1071
        5
1005
12A460
  0
LINE
  5
12A461
  8
CENTER
 10
2000.0
 20
-954.99999999999966
 30
0.0
 11
2000.0
 21
-1279.9999999999959
 31
0.0
1001
ACDBBLOCKREPETAG
1070
     1
1071
        6
1005
12A461
  0
LINE
  5
12A462
  8
OBJECT
 10
1925.0
 20
-954.99999999999966
 30
0.0
 11
1925.0
 21
-1036.9999999999959
 31
0.0
1001
ACDBBLOCKREPETAG
1070
     1
1071
        7
1005
12A462
  0
LINE
  5
12A463
  8
OBJECT
 10
2075.0
 20
-954.99999999999966
 30
0.0
 11
2075.0
 21
-1036.9999999999959
 31
0.0
1001
ACDBBLOCKREPETAG
1070
     1
1071
        8
1005
12A463
  0
LINE
  5
12A464
  8
OBJECT
 10
1925.0
 20
-1036.9999999999959
 30
0.0
 11
2075.0
 21
-1036.9999999999959
 31
0.0
1001
ACDBBLOCKREPETAG
1070
     1
1071
        9
1005
12A464
  0
LINE
  5
12A465
  8
OBJECT
 10
1925.0
 20
-1036.9999999999959
 30
0.0
 11
1943.0
 21
-1164.9999999999959
 31
0.0
1001
ACDBBLOCKREPETAG
1070
     1
1071
       10
1005
12A465
  0
LINE
  5
12A466
  8
OBJECT
 10
2057.0
 20
-1164.9999999999959
 30
0.0
 11
2075.0
 21
-1036.9999999999959
 31
0.0
1001
ACDBBLOCKREPETAG
1070
     1
1071
       11
1005
12A466
  0
TEXT
  5
12A467
  8
SLIM
 10
3771.4000000000001
 20
-1595.666666666664
 30
0.0
 40
28.0
  1
※ 対応スラブ厚　180｛150｝～500
 41
0.75
  0
TEXT
  5
12A468
  8
SLIM
 10
3733.3000000000011
 20
-1642.333333333331
 30
0.0
 40
28.0
  1
｛｝内はカンペイ立て管との組み合わせの場合
 41
0.75
  0
TEXT
  5
12A469
  8
SLIM
 10
3598.9000000000001
 20
-1735.6666666666649
 30
0.0
 40
28.0
  1
国土交通大臣認定・（一財）日本消防設備安全センター性能評定取得品
 41
0.75
  0
TEXT
  5
12A46A
  8
SLIM
 10
3631.1000000000022
 20
-1782.333333333331
 30
0.0
 40
28.0
  1
注）ご採用にあたり、認定書及び評定書の内容をご確認ください。
 41
0.75
  0
TEXT
  5
12A46B
  8
SLIM
 10
3741.625
 20
-1532.499999999998
 30
0.0
 40
35.0
  1
片受けスタイル（S）＋シンドカット
 41
0.75
  0
TEXT
  5
12A46C
  8
SLIM
 10
1856.25
 20
-1532.499999999998
 30
0.0
 40
35.0
  1
片受けスタイル（S）
 41
0.75
  0
VIEWPORT
  5
F6BA7
 67
     1
  8
0
 10
182.1169379765916
 20
101.8328354358673
 30
0.0
 40
407.57570284581732
 41
222.19657968139651
 68
     1
 69
     1
1001
ACAD
1000
MVIEW
1002
{
1070
    16
1010
0.0
1020
0.0
1030
0.0
1010
0.0
1020
0.0
1030
1.0
1040
0.0
1040
222.19657968139651
1040
182.1169379765916
1040
101.8328354358673
1040
50.0
1040
0.0
1040
0.0
1070
     0
1070
     0
1070
     1
1070
     1
1070
     0
1070
     0
1070
     0
1070
     0
1040
0.0
1040
0.0
1040
0.0
1040
10.0
1040
10.0
1040
10.0
1040
10.0
1070
     0
1002
{
1002
}
1002
}
  0
VIEWPORT
  5
F6BA9
 67
     1
  8
OBJECT
 10
145.3303314447403
 20
101.8328338861465
 30
0.0
 40
232.5285303115844
 41
162.93253421783439
 68
     2
 69
     2
1001
ACAD
1000
MVIEW
1002
{
1070
    16
1010
0.0
1020
0.0
1030
0.0
1010
0.0
1020
0.0
1030
1.0
1040
0.0
1040
25942.55904403147
1040
2377.604457077377
1040
-7591.5176687056619
1040
50.0
1040
0.0
1040
0.0
1070
     0
1070
   600
1070
     1
1070
     1
1070
     0
1070
     0
1070
     0
1070
     0
1040
0.0
1040
0.0
1040
0.0
1040
1.0
1040
1.0
1040
0.0
1040
0.0
1070
     0
1002
{
1002
}
1002
}
  0
ENDSEC
  0
EOF
