  0
SECTION
  2
HEADER
  9
$ACADVER
  1
AC1009
  9
$INSBASE
 10
0.0
 20
0.0
 30
0.0
  9
$EXTMIN
 10
0.0
 20
-3717.4999999999959073
 30
0.0
  9
$EXTMAX
 10
5572.1802475027534456
 20
607.5
 30
0.0
  9
$LIMMIN
 10
0.0
 20
0.0
  9
$LIMMAX
 10
210.0
 20
297.0
  9
$ORTHOMODE
 70
     0
  9
$REGENMODE
 70
     1
  9
$FILLMODE
 70
     1
  9
$QTEXTMODE
 70
     0
  9
$MIRRTEXT
 70
     0
  9
$DRAGMODE
 70
     2
  9
$LTSCALE
 40
1.0
  9
$OSMODE
 70
  2541
  9
$ATTMODE
 70
     1
  9
$TEXTSIZE
 40
4.0
  9
$TRACEWID
 40
0.05
  9
$TEXTSTYLE
  7
STANDARD
  9
$CLAYER
  8
OBJECT
  9
$CELTYPE
  6
BYLAYER
  9
$CECOLOR
 62
   256
  9
$DIMSCALE
 40
10.0
  9
$DIMASZ
 40
2.0
  9
$DIMEXO
 40
1.0
  9
$DIMDLI
 40
10.0
  9
$DIMRND
 40
0.0
  9
$DIMDLE
 40
0.0
  9
$DIMEXE
 40
1.0
  9
$DIMTP
 40
0.0
  9
$DIMTM
 40
0.0
  9
$DIMTXT
 40
3.2000000000000002
  9
$DIMCEN
 40
0.0
  9
$DIMTSZ
 40
0.0
  9
$DIMTOL
 70
     0
  9
$DIMLIM
 70
     0
  9
$DIMTIH
 70
     0
  9
$DIMTOH
 70
     0
  9
$DIMSE1
 70
     0
  9
$DIMSE2
 70
     0
  9
$DIMTAD
 70
     1
  9
$DIMZIN
 70
     8
  9
$DIMBLK
  1
OPEN30
  9
$DIMASO
 70
     1
  9
$DIMSHO
 70
     1
  9
$DIMPOST
  1

  9
$DIMAPOST
  1

  9
$DIMALT
 70
     0
  9
$DIMALTD
 70
     2
  9
$DIMALTF
 40
25.3999999999999986
  9
$DIMLFAC
 40
1.0
  9
$DIMTOFL
 70
     1
  9
$DIMTVP
 40
0.0
  9
$DIMTIX
 70
     0
  9
$DIMSOXD
 70
     0
  9
$DIMSAH
 70
     0
  9
$DIMBLK1
  1

  9
$DIMBLK2
  1

  9
$DIMSTYLE
  2
S10
  9
$DIMCLRD
 70
   256
  9
$DIMCLRE
 70
   256
  9
$DIMCLRT
 70
   256
  9
$DIMTFAC
 40
1.0
  9
$DIMGAP
 40
0.9
  9
$LUNITS
 70
     2
  9
$LUPREC
 70
     2
  9
$SKETCHINC
 40
0.1
  9
$FILLETRAD
 40
0.0
  9
$AUNITS
 70
     0
  9
$AUPREC
 70
     2
  9
$MENU
  1
ACAD
  9
$ELEVATION
 40
0.0
  9
$PELEVATION
 40
0.0
  9
$THICKNESS
 40
0.0
  9
$LIMCHECK
 70
     0
  9
$BLIPMODE
 70
     0
  9
$CHAMFERA
 40
2.0
  9
$CHAMFERB
 40
2.0
  9
$SKPOLY
 70
     0
  9
$TDCREATE
 40
2453095.4929398149251938
  9
$TDUPDATE
 40
2458275.8170717600733042
  9
$TDINDWG
 40
18.3999607292
  9
$TDUSRTIMER
 40
18.3999601852000012
  9
$USRTIMER
 70
     1
  9
$ANGBASE
 50
0.0
  9
$ANGDIR
 70
     0
  9
$PDMODE
 70
    35
  9
$PDSIZE
 40
2.0
  9
$PLINEWID
 40
0.0
  9
$COORDS
 70
     1
  9
$SPLFRAME
 70
     0
  9
$SPLINETYPE
 70
     6
  9
$SPLINESEGS
 70
     8
  9
$ATTDIA
 70
     1
  9
$ATTREQ
 70
     1
  9
$HANDLING
 70
     1
  9
$HANDSEED
  5
12A24B
  9
$SURFTAB1
 70
     6
  9
$SURFTAB2
 70
     6
  9
$SURFTYPE
 70
     6
  9
$SURFU
 70
     6
  9
$SURFV
 70
     6
  9
$UCSNAME
  2

  9
$UCSORG
 10
0.0
 20
0.0
 30
0.0
  9
$UCSXDIR
 10
1.0
 20
0.0
 30
0.0
  9
$UCSYDIR
 10
0.0
 20
1.0
 30
0.0
  9
$PUCSNAME
  2

  9
$PUCSORG
 10
0.0
 20
0.0
 30
0.0
  9
$PUCSXDIR
 10
1.0
 20
0.0
 30
0.0
  9
$PUCSYDIR
 10
0.0
 20
1.0
 30
0.0
  9
$USERI1
 70
     0
  9
$USERI2
 70
     0
  9
$USERI3
 70
     0
  9
$USERI4
 70
     0
  9
$USERI5
 70
     0
  9
$USERR1
 40
0.0
  9
$USERR2
 40
0.0
  9
$USERR3
 40
0.0
  9
$USERR4
 40
0.0
  9
$USERR5
 40
0.0
  9
$WORLDVIEW
 70
     1
  9
$SHADEDGE
 70
     3
  9
$SHADEDIF
 70
    70
  9
$TILEMODE
 70
     1
  9
$MAXACTVP
 70
    64
  9
$PLIMCHECK
 70
     0
  9
$PEXTMIN
 10
29.0660662889480506
 20
20.3665667772293091
 30
0.0
  9
$PEXTMAX
 10
261.5945966005324976
 20
183.2991009950638102
 30
0.0
  9
$PLIMMIN
 10
-3.17498779296875
 20
-3.1749999523162842
  9
$PLIMMAX
 10
293.835662841796875
 20
206.8406708240509033
  9
$UNITMODE
 70
     0
  9
$VISRETAIN
 70
     1
  9
$PLINEGEN
 70
     0
  9
$PSLTSCALE
 70
     1
  0
ENDSEC
  0
SECTION
  2
TABLES
  0
TABLE
  2
VPORT
 70
     1
  0
VPORT
  2
*ACTIVE
 70
     0
 10
0.0
 20
0.0
 11
1.0
 21
1.0
 12
14477.3411461830401095
 22
-1704.2568104154941011
 13
0.0
 23
0.0
 14
1.0
 24
1.0
 15
0.0
 25
0.0
 16
0.0
 26
0.0
 36
1.0
 17
0.0
 27
0.0
 37
0.0
 40
23757.8621064642284182
 41
1.682894736842105
 42
50.0
 43
0.0
 44
0.0
 50
0.0
 51
0.0
 71
     0
 72
   600
 73
     1
 74
     1
 75
     0
 76
     0
 77
     0
 78
     0
  0
ENDTAB
  0
TABLE
  2
LTYPE
 70
     3
  0
LTYPE
  2
CONTINUOUS
 70
     0
  3
Solid line
 72
    65
 73
     0
 40
0.0
  0
LTYPE
  2
ACAD_ISO08W100
 70
     0
  3
ISO long-dash short-dash ____ __ ____ __ ____ _
 72
    65
 73
     4
 40
36.0
 49
24.0
 49
-3.0
 49
6.0
 49
-3.0
  0
LTYPE
  2
ACAD_ISO02W100
 70
     0
  3
ISO dash __ __ __ __ __ __ __ __ __ __ __ __ __
 72
    65
 73
     2
 40
15.0
 49
12.0
 49
-3.0
  0
ENDTAB
  0
TABLE
  2
LAYER
 70
     8
  0
LAYER
  2
0
 70
     0
 62
     7
  6
CONTINUOUS
  0
LAYER
  2
OBJECT
 70
     0
 62
     4
  6
CONTINUOUS
  0
LAYER
  2
DEFPOINTS
 70
     0
 62
     7
  6
CONTINUOUS
  0
LAYER
  2
DIM
 70
     0
 62
     7
  6
CONTINUOUS
  0
LAYER
  2
HIDDEN
 70
     0
 62
     2
  6
ACAD_ISO02W100
  0
LAYER
  2
CENTER
 70
     0
 62
     2
  6
ACAD_ISO08W100
  0
LAYER
  2
DOTS
 70
     0
 62
     1
  6
CONTINUOUS
  0
LAYER
  2
SLIM
 70
     0
 62
     2
  6
CONTINUOUS
  0
ENDTAB
  0
TABLE
  2
STYLE
 70
     2
  0
STYLE
  2
STANDARD
 70
     0
 40
0.0
 41
0.75
 50
0.0
 71
     0
 42
4.0
  3
simplex.shx
  4
bigfont.shx
  0
ENDTAB
  0
TABLE
  2
VIEW
 70
     0
  0
ENDTAB
  0
TABLE
  2
UCS
 70
     0
  0
ENDTAB
  0
TABLE
  2
APPID
 70
    18
  0
APPID
  2
ACAD
 70
     0
  0
APPID
  2
ACADANNOTATIVE
 70
     0
  0
APPID
  2
ACAD_PSEXT
 70
     0
  0
APPID
  2
ACAD_EXEMPT_FROM_CAD_STANDARDS
 70
     0
  0
APPID
  2
ACAECLAYERSTANDARD
 70
     0
  0
APPID
  2
ACAUTHENVIRON
 70
     0
  0
APPID
  2
ACDBDYNAMICBLOCKTRUENAME
 70
     0
  0
APPID
  2
ACDBDYNAMICBLOCKGUID
 70
     0
  0
APPID
  2
ACDBBLOCKREPETAG
 70
     0
  0
APPID
  2
ACDBBLOCKREPBTAG
 70
     0
  0
APPID
  2
ACAD_NAV_VCDISPLAY
 70
     0
  0
APPID
  2
ACAD_DSTYLE_DIMRADIAL_EXTENSION
 70
     0
  0
APPID
  2
ACAD_DSTYLE_DIMJAG
 70
     0
  0
APPID
  2
ACAD_DSTYLE_DIMTALN
 70
     0
  0
APPID
  2
ACADANNOPO
 70
     0
  0
APPID
  2
GRADIENTCOLOR1ACI
 70
     0
  0
APPID
  2
GRADIENTCOLOR2ACI
 70
     0
  0
APPID
  2
ACAD_MLEADERVER
 70
     0
  0
ENDTAB
  0
TABLE
  2
DIMSTYLE
 70
     3
  0
DIMSTYLE
  2
STANDARD
 70
     0
  3

  4

  5

  6

  7

 40
1.0
 41
0.18
 42
0.0625
 43
0.38
 44
0.18
 45
0.0
 46
0.0
 47
0.0
 48
0.0
140
0.18
141
0.09
142
0.0
143
25.3999999999999986
144
1.0
145
0.0
146
1.0
147
0.09
 71
     0
 72
     0
 73
     1
 74
     1
 75
     0
 76
     0
 77
     0
 78
     0
170
     0
171
     2
172
     0
173
     0
174
     0
175
     0
176
     0
177
     0
178
     0
  0
DIMSTYLE
  2
S10
 70
     0
  3

  4

  5

  6

  7

 40
10.0
 41
2.0
 42
1.0
 43
10.0
 44
1.0
 45
0.0
 46
0.0
 47
0.0
 48
0.0
140
3.2000000000000002
141
0.0
142
0.0
143
25.3999999999999986
144
1.0
145
0.0
146
1.0
147
0.9
 71
     0
 72
     0
 73
     0
 74
     0
 75
     0
 76
     0
 77
     1
 78
     8
170
     0
171
     2
172
     1
173
     0
174
     0
175
     0
176
   256
177
   256
178
   256
  0
ENDTAB
  0
ENDSEC
  0
SECTION
  2
BLOCKS
  0
BLOCK
  8
0
  2
$MODEL_SPACE
 70
     0
 10
0.0
 20
0.0
 30
0.0
  3
$MODEL_SPACE
  1

  0
ENDBLK
  5
12A195
  8
0
  0
BLOCK
 67
     1
  8
0
  2
$PAPER_SPACE
 70
     0
 10
0.0
 20
0.0
 30
0.0
  3
$PAPER_SPACE
  1

  0
ENDBLK
  5
12A191
 67
     1
  8
0
  0
BLOCK
  8
0
  2
_OPEN30
 70
     0
 10
0.0
 20
0.0
 30
0.0
  3
_OPEN30
  1

  0
LINE
  5
202
  8
0
  6
BYBLOCK
 62
     0
 10
-1.0
 20
0.26794919
 30
0.0
 11
0.0
 21
0.0
 31
0.0
  0
LINE
  5
203
  8
0
  6
BYBLOCK
 62
     0
 10
0.0
 20
0.0
 30
0.0
 11
-1.0
 21
-0.26794919
 31
0.0
  0
LINE
  5
204
  8
0
  6
BYBLOCK
 62
     0
 10
0.0
 20
0.0
 30
0.0
 11
-1.0
 21
0.0
 31
0.0
  0
ENDBLK
  5
206
  8
0
  0
BLOCK
  8
0
  2
*U7
 70
     1
 10
0.0
 20
0.0
 30
0.0
  3
*U7
  1

  0
TEXT
  5
12A0F2
  8
DIM
 10
2206.6598680972119837
 20
-3204.142857142855064
 30
0.0
 40
32.0
  1
A
 50
90.0
 41
0.75
  0
ENDBLK
  5
12A0F4
  8
0
  0
BLOCK
  8
0
  2
*U8
 70
     1
 10
0.0
 20
0.0
 30
0.0
  3
*U8
  1

  0
TEXT
  5
12A0F6
  8
DIM
 10
2205.0211759064868602
 20
-3585.999999999998181
 30
0.0
 40
32.0
  1
B
 50
90.0
 41
0.75
  0
ENDBLK
  5
12A0F8
  8
0
  0
BLOCK
  8
0
  2
*U9
 70
     1
 10
0.0
 20
0.0
 30
0.0
  3
*U9
  1

  0
TEXT
  5
12A0FA
  8
DIM
 10
2058.6088189313250041
 20
-3058.2081219844440056
 30
0.0
 40
32.0
  1
C
 41
0.75
  0
ENDBLK
  5
12A0FC
  8
0
  0
BLOCK
  8
0
  2
*U10
 70
     1
 10
0.0
 20
0.0
 30
0.0
  3
*U10
  1

  0
TEXT
  5
12A0FE
  8
DIM
 10
3840.6616440113211866
 20
-962.7428571428558826
 30
0.0
 40
32.0
  1
m（シンドカット）
 50
90.0
 41
0.75
  0
ENDBLK
  5
12A100
  8
0
  0
BLOCK
  8
0
  2
*U11
 70
     1
 10
0.0
 20
0.0
 30
0.0
  3
*U11
  1

  0
TEXT
  5
12A102
  8
SLIM
 10
509.0476190477407954
 20
-586.7500000000095497
 30
0.0
 40
26.0
  1
100
  0
ENDBLK
  5
12A104
  8
0
  0
BLOCK
  8
0
  2
*U12
 70
     1
 10
0.0
 20
0.0
 30
0.0
  3
*U12
  1

  0
TEXT
  5
12A106
  8
SLIM
 10
158.9523809524228
 20
-594.0000000000095497
 30
0.0
 40
26.0
  1
75
  0
ENDBLK
  5
12A108
  8
0
  0
BLOCK
  8
0
  2
*U13
 70
     1
 10
0.0
 20
0.0
 30
0.0
  3
*U13
  1

  0
TEXT
  5
12A10A
  8
SLIM
 10
518.9523809525028355
 20
-130.0000000000032117
 30
0.0
 40
26.0
  1
65
  0
ENDBLK
  5
12A10C
  8
0
  0
BLOCK
  8
0
  2
*U14
 70
     1
 10
0.0
 20
0.0
 30
0.0
  3
*U14
  1

  0
TEXT
  5
12A10E
  8
SLIM
 10
158.9523809524228
 20
-130.0000000000032117
 30
0.0
 40
26.0
  1
50
  0
ENDBLK
  5
12A110
  8
0
  0
ENDSEC
  0
SECTION
  2
ENTITIES
  0
TEXT
  5
122A4E
  8
SLIM
 10
-0.0000000000000011
 20
282.5
 30
0.0
 40
35.0
  1
※ 100枝（4）がある場合、品名の最後に【管底】が付きます。
 41
0.9
 11
0.0
 21
300.0
 31
0.0
 73
     2
  0
LINE
  5
125161
  8
SLIM
 10
2616.0
 20
-2657.5000160472700372
 30
0.0
 11
2616.0
 21
-2987.5000160472700372
 31
0.0
  0
LINE
  5
125162
  8
SLIM
 10
2740.0
 20
-2657.5000160472700372
 30
0.0
 11
2740.0
 21
-2987.5000160472700372
 31
0.0
  0
LINE
  5
125163
  8
SLIM
 10
2870.0
 20
-2717.5000160472700372
 30
0.0
 11
2870.0
 21
-2987.5000160472700372
 31
0.0
  0
LINE
  5
125164
  8
SLIM
 10
3000.0
 20
-2717.5000160472700372
 30
0.0
 11
3000.0
 21
-2987.5000160472700372
 31
0.0
  0
LINE
  5
125165
  8
SLIM
 10
3130.0
 20
-2987.5000160472700372
 30
0.0
 11
3130.0
 21
-2717.5000160472700372
 31
0.0
  0
LINE
  5
125166
  8
SLIM
 10
3260.0
 20
-2987.5000160472700372
 30
0.0
 11
3260.0
 21
-2657.5000160472700372
 31
0.0
  0
LINE
  5
125167
  8
SLIM
 10
3260.0
 20
-2657.5000160472700372
 30
0.0
 11
2616.0
 21
-2657.5000160472700372
 31
0.0
  0
LINE
  5
125168
  8
SLIM
 10
3260.0
 20
-2717.5000160472700372
 30
0.0
 11
2740.0
 21
-2717.5000160472700372
 31
0.0
  0
LINE
  5
125169
  8
SLIM
 10
3260.0
 20
-2777.5000160472700372
 30
0.0
 11
2616.0
 21
-2777.5000160472700372
 31
0.0
  0
LINE
  5
12516A
  8
SLIM
 10
3260.0
 20
-2847.5000160472700372
 30
0.0
 11
2616.0
 21
-2847.5000160472700372
 31
0.0
  0
LINE
  5
12516B
  8
SLIM
 10
3260.0
 20
-2917.5000160472700372
 30
0.0
 11
2616.0
 21
-2917.5000160472700372
 31
0.0
  0
LINE
  5
12516C
  8
SLIM
 10
3260.0
 20
-2987.5000160472700372
 30
0.0
 11
2616.0
 21
-2987.5000160472700372
 31
0.0
  0
LINE
  5
125181
  8
SLIM
 10
2740.0
 20
-2777.5000160472700372
 30
0.0
 11
2615.9999722746579209
 21
-2657.5
 31
0.0
  0
LINE
  5
12719F
  8
SLIM
 10
4850.0
 20
-544.9999999999959073
 30
0.0
 11
4850.0
 21
-1264.9999999999959073
 31
0.0
  0
LINE
  5
1271A0
  8
SLIM
 10
4954.0
 20
-1264.9999999999959073
 30
0.0
 11
4954.0
 21
-544.9999999999959073
 31
0.0
  0
LINE
  5
1271A1
  8
SLIM
 10
5102.0
 20
-544.9999999999959073
 30
0.0
 11
4850.0
 21
-544.9999999999959073
 31
0.0
  0
LINE
  5
1271A2
  8
SLIM
 10
5102.0
 20
-592.9999999999956799
 30
0.0
 11
4850.0
 21
-592.9999999999956799
 31
0.0
  0
LINE
  5
1271A4
  8
SLIM
 10
5102.0
 20
-640.9999999999959073
 30
0.0
 11
4850.0
 21
-640.9999999999959073
 31
0.0
  0
LINE
  5
1271A5
  8
SLIM
 10
5102.0
 20
-688.9999999999956799
 30
0.0
 11
4850.0
 21
-688.9999999999956799
 31
0.0
  0
LINE
  5
1271A6
  8
SLIM
 10
5102.0
 20
-736.9999999999959073
 30
0.0
 11
4850.0
 21
-736.9999999999959073
 31
0.0
  0
LINE
  5
1271AA
  8
SLIM
 10
5102.0
 20
-784.9999999999959073
 30
0.0
 11
4850.0
 21
-784.9999999999959073
 31
0.0
  0
LINE
  5
1271AC
  8
SLIM
 10
5102.0
 20
-832.9999999999959073
 30
0.0
 11
4850.0
 21
-832.9999999999959073
 31
0.0
  0
LINE
  5
1271AE
  8
SLIM
 10
5102.0
 20
-880.9999999999959073
 30
0.0
 11
4850.0
 21
-880.9999999999959073
 31
0.0
  0
LINE
  5
1271B0
  8
SLIM
 10
5102.0
 20
-928.999999999996021
 30
0.0
 11
4850.0
 21
-928.999999999996021
 31
0.0
  0
LINE
  5
1271B2
  8
SLIM
 10
5102.0
 20
-976.9999999999955662
 30
0.0
 11
4850.0
 21
-976.9999999999955662
 31
0.0
  0
LINE
  5
1271B4
  8
SLIM
 10
5102.0
 20
-1024.9999999999959073
 30
0.0
 11
4850.0
 21
-1024.9999999999959073
 31
0.0
  0
LINE
  5
1271B6
  8
SLIM
 10
5102.0
 20
-1072.9999999999959073
 30
0.0
 11
4850.0
 21
-1072.9999999999959073
 31
0.0
  0
LINE
  5
1271B8
  8
SLIM
 10
5102.0
 20
-1120.9999999999959073
 30
0.0
 11
4850.0
 21
-1120.9999999999959073
 31
0.0
  0
LINE
  5
1271BA
  8
SLIM
 10
5102.0
 20
-1168.9999999999959073
 30
0.0
 11
4850.0
 21
-1168.9999999999959073
 31
0.0
  0
LINE
  5
1271BC
  8
SLIM
 10
5102.0
 20
-1216.9999999999959073
 30
0.0
 11
4850.0
 21
-1216.9999999999959073
 31
0.0
  0
LINE
  5
1271BE
  8
SLIM
 10
5102.0
 20
-1264.9999999999959073
 30
0.0
 11
4850.0
 21
-1264.9999999999959073
 31
0.0
  0
LINE
  5
1271C1
  8
SLIM
 10
5102.0
 20
-544.9999999999959073
 30
0.0
 11
5102.0
 21
-1264.9999999999959073
 31
0.0
  0
LINE
  5
129611
  8
OBJECT
 10
1822.1802475027529908
 20
-3599.9999999999959073
 30
0.0
 11
5572.1802475027534456
 21
-3599.9999999999959073
 31
0.0
  0
LINE
  5
129646
  8
CENTER
 10
5397.1802475027534456
 20
-3379.9999999999968168
 30
0.0
 11
5397.1802475027534456
 21
-3614.9999999999968168
 31
0.0
1001
ACDBBLOCKREPETAG
1070
     1
1071
       25
1005
129646
  0
LINE
  5
129647
  8
OBJECT
 10
5322.1802475027534456
 20
-3478.9999999999968168
 30
0.0
 11
5322.1802475027534456
 21
-3602.9999999999968168
 31
0.0
1001
ACDBBLOCKREPETAG
1070
     1
1071
       26
1005
129647
  0
LINE
  5
129648
  8
OBJECT
 10
5472.1802475027552646
 20
-3478.9999999999968168
 30
0.0
 11
5472.1802475027552646
 21
-3602.9999999999968168
 31
0.0
1001
ACDBBLOCKREPETAG
1070
     1
1071
       34
1005
129648
  0
POINT
  5
129649
  8
DOTS
 10
5397.1802475027534456
 20
-3599.9999999999968168
 30
0.0
1001
ACDBBLOCKREPETAG
1070
     1
1071
      187
1005
129649
  0
LINE
  5
12964A
  8
CENTER
 10
5307.1802475027543551
 20
-3527.9999999999968168
 30
0.0
 11
5487.1802475027534456
 21
-3527.9999999999968168
 31
0.0
1001
ACDBBLOCKREPETAG
1070
     1
1071
       23
1005
12964A
  0
CIRCLE
  5
12964B
  8
OBJECT
 10
5397.1802475027534456
 20
-3527.9999999999968168
 30
0.0
 40
53.5
1001
ACDBBLOCKREPETAG
1070
     1
1071
       24
1005
12964B
  0
CIRCLE
  5
12964C
  8
OBJECT
 10
5397.1802475027534456
 20
-3527.9999999999968168
 30
0.0
 40
67.0
1001
ACDBBLOCKREPETAG
1070
     1
1071
       25
1005
12964C
  0
ARC
  5
12964D
  8
OBJECT
 10
5397.1802475027534456
 20
-3527.9999999999968168
 30
0.0
 40
75.0
 50
286.2602047082399963
 51
253.73979529175989
1001
ACDBBLOCKREPETAG
1070
     1
1071
       27
1005
12964D
  0
LINE
  5
12964E
  8
OBJECT
 10
5376.1802475027543551
 20
-3599.9999999999968168
 30
0.0
 11
5418.1802475027534456
 21
-3599.9999999999968168
 31
0.0
1001
ACDBBLOCKREPETAG
1070
     1
1071
       28
1005
12964E
  0
LINE
  5
12966B
  8
OBJECT
 10
5457.1802475027552646
 20
-3472.9999999999968168
 30
0.0
 11
5448.1704426386841078
 21
-3472.9999999999968168
 31
0.0
1001
ACDBBLOCKREPETAG
1070
     1
1071
      215
1005
12966B
  0
LINE
  5
12966C
  8
OBJECT
 10
5346.1900523668246024
 20
-3472.9999999999968168
 30
0.0
 11
5337.1802475027543551
 21
-3472.9999999999968168
 31
0.0
1001
ACDBBLOCKREPETAG
1070
     1
1071
      215
1005
12966B
  0
ARC
  5
12966D
  8
OBJECT
 10
5337.1802475027543551
 20
-3475.9999999999968168
 30
0.0
 40
3.0
 50
90.0
 51
180.0
1001
ACDBBLOCKREPETAG
1070
     1
1071
      216
1005
12966D
  0
LINE
  5
12966E
  8
OBJECT
 10
5334.1802475027543551
 20
-3475.9999999999968168
 30
0.0
 11
5334.1802475027543551
 21
-3478.9999999999968168
 31
0.0
1001
ACDBBLOCKREPETAG
1070
     1
1071
      217
1005
12966E
  0
LINE
  5
12966F
  8
OBJECT
 10
5460.1802475027552646
 20
-3475.9999999999968168
 30
0.0
 11
5460.1802475027552646
 21
-3478.9999999999968168
 31
0.0
1001
ACDBBLOCKREPETAG
1070
     1
1071
      218
1005
12966F
  0
ARC
  5
129670
  8
OBJECT
 10
5457.1802475027552646
 20
-3475.9999999999968168
 30
0.0
 40
3.0
 50
0.0
 51
90.0
1001
ACDBBLOCKREPETAG
1070
     1
1071
      219
1005
129670
  0
LINE
  5
129671
  8
OBJECT
 10
5340.1802475027543551
 20
-3404.9999999999968168
 30
0.0
 11
5340.1802475027543551
 21
-3472.9999999999968168
 31
0.0
1001
ACDBBLOCKREPETAG
1070
     1
1071
      220
1005
129671
  0
LINE
  5
129672
  8
OBJECT
 10
5454.1802475027552646
 20
-3404.9999999999968168
 30
0.0
 11
5340.1802475027543551
 21
-3404.9999999999968168
 31
0.0
1001
ACDBBLOCKREPETAG
1070
     1
1071
      221
1005
129672
  0
LINE
  5
129673
  8
OBJECT
 10
5454.1802475027552646
 20
-3404.9999999999968168
 30
0.0
 11
5454.1802475027552646
 21
-3472.9999999999968168
 31
0.0
1001
ACDBBLOCKREPETAG
1070
     1
1071
      222
1005
129673
  0
LINE
  5
129674
  8
HIDDEN
 10
5449.6802475027552646
 20
-3404.9999999999968168
 30
0.0
 11
5449.6802475027552646
 21
-3478.9999999999968168
 31
0.0
1001
ACDBBLOCKREPETAG
1070
     1
1071
      224
1005
129674
  0
LINE
  5
129675
  8
HIDDEN
 10
5344.6802475027543551
 20
-3404.9999999999968168
 30
0.0
 11
5344.6802475027543551
 21
-3478.9999999999968168
 31
0.0
1001
ACDBBLOCKREPETAG
1070
     1
1071
      225
1005
129675
  0
LINE
  5
129676
  8
OBJECT
 10
5472.1802475027552646
 20
-3478.9999999999968168
 30
0.0
 11
5453.9605257690682265
 21
-3478.9999999999968168
 31
0.0
1001
ACDBBLOCKREPETAG
1070
     1
1071
       30
1005
129676
  0
LINE
  5
129677
  8
OBJECT
 10
5340.3999692364413932
 20
-3478.9999999999968168
 30
0.0
 11
5322.1802475027534456
 21
-3478.9999999999968168
 31
0.0
1001
ACDBBLOCKREPETAG
1070
     1
1071
       30
1005
129676
  0
LINE
  5
129CE2
  8
OBJECT
 10
4560.0
 20
-527.9999999999994316
 30
0.0
 11
4440.0
 21
-527.9999999999994316
 31
0.0
1001
ACDBBLOCKREPETAG
1070
     1
1071
      144
1005
129CE2
  0
ARC
  5
129CE3
  8
OBJECT
 10
4440.0
 20
-530.9999999999994316
 30
0.0
 40
3.0
 50
90.0
 51
180.0
1001
ACDBBLOCKREPETAG
1070
     1
1071
      145
1005
129CE3
  0
LINE
  5
129CE4
  8
OBJECT
 10
4437.0
 20
-530.9999999999994316
 30
0.0
 11
4437.0
 21
-533.9999999999994316
 31
0.0
1001
ACDBBLOCKREPETAG
1070
     1
1071
      146
1005
129CE4
  0
LINE
  5
129CE5
  8
OBJECT
 10
4563.0
 20
-530.9999999999994316
 30
0.0
 11
4563.0
 21
-533.9999999999994316
 31
0.0
1001
ACDBBLOCKREPETAG
1070
     1
1071
      147
1005
129CE5
  0
ARC
  5
129CE6
  8
OBJECT
 10
4560.0
 20
-530.9999999999994316
 30
0.0
 40
3.0
 50
0.0
 51
90.0
1001
ACDBBLOCKREPETAG
1070
     1
1071
      148
1005
129CE6
  0
LINE
  5
129CE7
  8
OBJECT
 10
4443.0
 20
-459.9999999999993747
 30
0.0
 11
4443.0
 21
-527.9999999999994316
 31
0.0
1001
ACDBBLOCKREPETAG
1070
     1
1071
      149
1005
129CE7
  0
LINE
  5
129CE8
  8
OBJECT
 10
4557.0
 20
-459.9999999999993747
 30
0.0
 11
4443.0
 21
-459.9999999999993747
 31
0.0
1001
ACDBBLOCKREPETAG
1070
     1
1071
      150
1005
129CE8
  0
LINE
  5
129CE9
  8
OBJECT
 10
4557.0
 20
-459.9999999999993747
 30
0.0
 11
4557.0
 21
-527.9999999999994316
 31
0.0
1001
ACDBBLOCKREPETAG
1070
     1
1071
      151
1005
129CE9
  0
LINE
  5
129CEA
  8
CENTER
 10
4500.0
 20
-444.9999999999993747
 30
0.0
 11
4500.0
 21
-669.9999999999994316
 31
0.0
1001
ACDBBLOCKREPETAG
1070
     1
1071
       20
1005
129CEA
  0
LINE
  5
129CEB
  8
OBJECT
 10
4425.0
 20
-533.9999999999994316
 30
0.0
 11
4425.0
 21
-657.9999999999994316
 31
0.0
1001
ACDBBLOCKREPETAG
1070
     1
1071
       21
1005
129CEB
  0
LINE
  5
129CEC
  8
OBJECT
 10
4420.0
 20
-657.9999999999994316
 30
0.0
 11
4580.0
 21
-657.9999999999994316
 31
0.0
1001
ACDBBLOCKREPETAG
1070
     1
1071
       22
1005
129CEC
  0
LINE
  5
129CED
  8
OBJECT
 10
4574.9999999997125997
 20
-533.9999999999994316
 30
0.0
 11
4425.0
 21
-533.9999999999994316
 31
0.0
1001
ACDBBLOCKREPETAG
1070
     1
1071
       23
1005
129CED
  0
LINE
  5
129CEE
  8
OBJECT
 10
4420.0
 20
-657.9999999999994316
 30
0.0
 11
4420.0
 21
-669.9999999999994316
 31
0.0
1001
ACDBBLOCKREPETAG
1070
     1
1071
       24
1005
129CEE
  0
LINE
  5
129CEF
  8
OBJECT
 10
4420.0
 20
-669.9999999999994316
 30
0.0
 11
4580.0
 21
-669.9999999999994316
 31
0.0
1001
ACDBBLOCKREPETAG
1070
     1
1071
       25
1005
129CEF
  0
LINE
  5
129CF0
  8
OBJECT
 10
4580.0
 20
-669.9999999999994316
 30
0.0
 11
4580.0
 21
-657.9999999999994316
 31
0.0
1001
ACDBBLOCKREPETAG
1070
     1
1071
       26
1005
129CF0
  0
LINE
  5
129CF1
  8
OBJECT
 10
4574.9999999997125997
 20
-533.9999999999994316
 30
0.0
 11
4575.0
 21
-657.9999999999994316
 31
0.0
1001
ACDBBLOCKREPETAG
1070
     1
1071
       28
1005
129CF1
  0
LINE
  5
129CF2
  8
HIDDEN
 10
4552.5
 20
-459.9999999999993747
 30
0.0
 11
4552.5
 21
-533.9999999999994316
 31
0.0
1001
ACDBBLOCKREPETAG
1070
     1
1071
      182
1005
129CF2
  0
LINE
  5
129CF3
  8
HIDDEN
 10
4447.5
 20
-459.9999999999993747
 30
0.0
 11
4447.5
 21
-533.9999999999994316
 31
0.0
1001
ACDBBLOCKREPETAG
1070
     1
1071
      183
1005
129CF3
  0
POINT
  5
129CF4
  8
DOTS
 10
4500.0
 20
-654.9999999999994316
 30
0.0
1001
ACDBBLOCKREPETAG
1070
     1
1071
      190
1005
129CF4
  0
LINE
  5
129CF5
  8
OBJECT
 10
4060.0
 20
-527.9999999999994316
 30
0.0
 11
3940.0
 21
-527.9999999999994316
 31
0.0
1001
ACDBBLOCKREPETAG
1070
     1
1071
      136
1005
129CF5
  0
ARC
  5
129CF6
  8
OBJECT
 10
3940.0
 20
-530.9999999999994316
 30
0.0
 40
3.0
 50
90.0
 51
180.0
1001
ACDBBLOCKREPETAG
1070
     1
1071
      137
1005
129CF6
  0
LINE
  5
129CF7
  8
OBJECT
 10
3937.0
 20
-530.9999999999994316
 30
0.0
 11
3937.0
 21
-533.9999999999994316
 31
0.0
1001
ACDBBLOCKREPETAG
1070
     1
1071
      138
1005
129CF7
  0
LINE
  5
129CF8
  8
OBJECT
 10
4063.0
 20
-530.9999999999994316
 30
0.0
 11
4063.0
 21
-533.9999999999994316
 31
0.0
1001
ACDBBLOCKREPETAG
1070
     1
1071
      139
1005
129CF8
  0
ARC
  5
129CF9
  8
OBJECT
 10
4060.0
 20
-530.9999999999994316
 30
0.0
 40
3.0
 50
0.0
 51
90.0
1001
ACDBBLOCKREPETAG
1070
     1
1071
      140
1005
129CF9
  0
LINE
  5
129CFA
  8
OBJECT
 10
3943.0
 20
-459.9999999999993747
 30
0.0
 11
3943.0
 21
-527.9999999999994316
 31
0.0
1001
ACDBBLOCKREPETAG
1070
     1
1071
      141
1005
129CFA
  0
LINE
  5
129CFB
  8
OBJECT
 10
4057.0
 20
-459.9999999999993747
 30
0.0
 11
3943.0
 21
-459.9999999999993747
 31
0.0
1001
ACDBBLOCKREPETAG
1070
     1
1071
      142
1005
129CFB
  0
LINE
  5
129CFC
  8
OBJECT
 10
4057.0
 20
-459.9999999999993747
 30
0.0
 11
4057.0
 21
-527.9999999999994316
 31
0.0
1001
ACDBBLOCKREPETAG
1070
     1
1071
      143
1005
129CFC
  0
LINE
  5
129CFD
  8
CENTER
 10
4000.0
 20
-444.9999999999993747
 30
0.0
 11
4000.0
 21
-669.9999999999994316
 31
0.0
1001
ACDBBLOCKREPETAG
1070
     1
1071
        0
1005
129CFD
  0
LINE
  5
129CFE
  8
OBJECT
 10
3925.0
 20
-533.9999999999994316
 30
0.0
 11
3925.0
 21
-657.9999999999994316
 31
0.0
1001
ACDBBLOCKREPETAG
1070
     1
1071
        1
1005
129CFE
  0
LINE
  5
129CFF
  8
OBJECT
 10
3920.0
 20
-657.9999999999994316
 30
0.0
 11
4080.0
 21
-657.9999999999994316
 31
0.0
1001
ACDBBLOCKREPETAG
1070
     1
1071
        2
1005
129CFF
  0
LINE
  5
129D00
  8
OBJECT
 10
4080.0
 20
-533.9999999999994316
 30
0.0
 11
3925.0
 21
-533.9999999999994316
 31
0.0
1001
ACDBBLOCKREPETAG
1070
     1
1071
        3
1005
129D00
  0
LINE
  5
129D01
  8
OBJECT
 10
3920.0
 20
-657.9999999999994316
 30
0.0
 11
3920.0
 21
-669.9999999999994316
 31
0.0
1001
ACDBBLOCKREPETAG
1070
     1
1071
        4
1005
129D01
  0
LINE
  5
129D02
  8
OBJECT
 10
3920.0
 20
-669.9999999999994316
 30
0.0
 11
4080.0
 21
-669.9999999999994316
 31
0.0
1001
ACDBBLOCKREPETAG
1070
     1
1071
        5
1005
129D02
  0
LINE
  5
129D03
  8
OBJECT
 10
4080.0
 20
-669.9999999999994316
 30
0.0
 11
4080.0
 21
-657.9999999999994316
 31
0.0
1001
ACDBBLOCKREPETAG
1070
     1
1071
        6
1005
129D03
  0
ARC
  5
129D04
  8
OBJECT
 10
4200.6872746716726397
 20
-649.4080994101070701
 30
0.0
 40
170.6350503965855978
 50
137.4413445918430057
 51
149.9194958133722082
1001
ACDBBLOCKREPETAG
1070
     1
1071
       15
1005
129D04
  0
ARC
  5
129D05
  8
OBJECT
 10
4118.8455987040506443
 20
-605.8827266953644539
 30
0.0
 40
78.0722220217636647
 50
147.4551531038623011
 51
164.6636599771923102
1001
ACDBBLOCKREPETAG
1070
     1
1071
       16
1005
129D05
  0
ARC
  5
129D06
  8
OBJECT
 10
4085.7554349608708435
 20
-595.9999999999994316
 30
0.0
 40
43.5535392688561771
 50
165.6884523006833945
 51
194.3115476993164918
1001
ACDBBLOCKREPETAG
1070
     1
1071
       17
1005
129D06
  0
ARC
  5
129D07
  8
OBJECT
 10
4200.6872746716726397
 20
-542.5919005898917931
 30
0.0
 40
170.6350503965855978
 50
210.0805041866277918
 51
222.5586554081569943
1001
ACDBBLOCKREPETAG
1070
     1
1071
       18
1005
129D07
  0
ARC
  5
129D08
  8
OBJECT
 10
4118.8455987040506443
 20
-586.1172733046345229
 30
0.0
 40
78.0722220217636647
 50
195.3363400228074909
 51
212.5448468961376989
1001
ACDBBLOCKREPETAG
1070
     1
1071
       19
1005
129D08
  0
LINE
  5
129D09
  8
HIDDEN
 10
4052.5
 20
-459.9999999999993747
 30
0.0
 11
4052.5
 21
-533.9999999999994316
 31
0.0
1001
ACDBBLOCKREPETAG
1070
     1
1071
      180
1005
129D09
  0
LINE
  5
129D0A
  8
HIDDEN
 10
3947.5
 20
-459.9999999999993747
 30
0.0
 11
3947.5
 21
-533.9999999999994316
 31
0.0
1001
ACDBBLOCKREPETAG
1070
     1
1071
      181
1005
129D0A
  0
POINT
  5
129D0B
  8
DOTS
 10
4000.0
 20
-654.9999999999994316
 30
0.0
1001
ACDBBLOCKREPETAG
1070
     1
1071
      191
1005
129D0B
  0
LINE
  5
129D0C
  8
OBJECT
 10
2560.0
 20
-527.9999999999994316
 30
0.0
 11
2440.0
 21
-527.9999999999994316
 31
0.0
1001
ACDBBLOCKREPETAG
1070
     1
1071
      144
1005
129D0C
  0
ARC
  5
129D0D
  8
OBJECT
 10
2440.0
 20
-530.9999999999994316
 30
0.0
 40
3.0
 50
90.0
 51
180.0
1001
ACDBBLOCKREPETAG
1070
     1
1071
      145
1005
129D0D
  0
LINE
  5
129D0E
  8
OBJECT
 10
2437.0
 20
-530.9999999999994316
 30
0.0
 11
2437.0
 21
-533.9999999999994316
 31
0.0
1001
ACDBBLOCKREPETAG
1070
     1
1071
      146
1005
129D0E
  0
LINE
  5
129D0F
  8
OBJECT
 10
2563.0
 20
-530.9999999999994316
 30
0.0
 11
2563.0
 21
-533.9999999999994316
 31
0.0
1001
ACDBBLOCKREPETAG
1070
     1
1071
      147
1005
129D0F
  0
ARC
  5
129D10
  8
OBJECT
 10
2560.0
 20
-530.9999999999994316
 30
0.0
 40
3.0
 50
0.0
 51
90.0
1001
ACDBBLOCKREPETAG
1070
     1
1071
      148
1005
129D10
  0
LINE
  5
129D11
  8
OBJECT
 10
2443.0
 20
-459.9999999999993747
 30
0.0
 11
2443.0
 21
-527.9999999999994316
 31
0.0
1001
ACDBBLOCKREPETAG
1070
     1
1071
      149
1005
129D11
  0
LINE
  5
129D12
  8
OBJECT
 10
2557.0
 20
-459.9999999999993747
 30
0.0
 11
2443.0
 21
-459.9999999999993747
 31
0.0
1001
ACDBBLOCKREPETAG
1070
     1
1071
      150
1005
129D12
  0
LINE
  5
129D13
  8
OBJECT
 10
2557.0
 20
-459.9999999999993747
 30
0.0
 11
2557.0
 21
-527.9999999999994316
 31
0.0
1001
ACDBBLOCKREPETAG
1070
     1
1071
      151
1005
129D13
  0
LINE
  5
129D14
  8
CENTER
 10
2500.0
 20
-444.9999999999993747
 30
0.0
 11
2500.0
 21
-669.9999999999994316
 31
0.0
1001
ACDBBLOCKREPETAG
1070
     1
1071
       20
1005
129D14
  0
LINE
  5
129D15
  8
OBJECT
 10
2425.0
 20
-533.9999999999994316
 30
0.0
 11
2425.0
 21
-657.9999999999994316
 31
0.0
1001
ACDBBLOCKREPETAG
1070
     1
1071
       21
1005
129D15
  0
LINE
  5
129D16
  8
OBJECT
 10
2420.0
 20
-657.9999999999994316
 30
0.0
 11
2580.0
 21
-657.9999999999994316
 31
0.0
1001
ACDBBLOCKREPETAG
1070
     1
1071
       22
1005
129D16
  0
LINE
  5
129D17
  8
OBJECT
 10
2574.9999999997130544
 20
-533.9999999999994316
 30
0.0
 11
2425.0
 21
-533.9999999999994316
 31
0.0
1001
ACDBBLOCKREPETAG
1070
     1
1071
       23
1005
129D17
  0
LINE
  5
129D18
  8
OBJECT
 10
2420.0
 20
-657.9999999999994316
 30
0.0
 11
2420.0
 21
-669.9999999999994316
 31
0.0
1001
ACDBBLOCKREPETAG
1070
     1
1071
       24
1005
129D18
  0
LINE
  5
129D19
  8
OBJECT
 10
2420.0
 20
-669.9999999999994316
 30
0.0
 11
2580.0
 21
-669.9999999999994316
 31
0.0
1001
ACDBBLOCKREPETAG
1070
     1
1071
       25
1005
129D19
  0
LINE
  5
129D1A
  8
OBJECT
 10
2580.0
 20
-669.9999999999994316
 30
0.0
 11
2580.0
 21
-657.9999999999994316
 31
0.0
1001
ACDBBLOCKREPETAG
1070
     1
1071
       26
1005
129D1A
  0
LINE
  5
129D1B
  8
OBJECT
 10
2574.9999999997130544
 20
-533.9999999999994316
 30
0.0
 11
2575.0
 21
-657.9999999999994316
 31
0.0
1001
ACDBBLOCKREPETAG
1070
     1
1071
       28
1005
129D1B
  0
LINE
  5
129D1C
  8
HIDDEN
 10
2552.5
 20
-459.9999999999993747
 30
0.0
 11
2552.5
 21
-533.9999999999994316
 31
0.0
1001
ACDBBLOCKREPETAG
1070
     1
1071
      182
1005
129D1C
  0
LINE
  5
129D1D
  8
HIDDEN
 10
2447.5
 20
-459.9999999999993747
 30
0.0
 11
2447.5
 21
-533.9999999999994316
 31
0.0
1001
ACDBBLOCKREPETAG
1070
     1
1071
      183
1005
129D1D
  0
POINT
  5
129D1E
  8
DOTS
 10
2500.0
 20
-654.9999999999994316
 30
0.0
1001
ACDBBLOCKREPETAG
1070
     1
1071
      190
1005
129D1E
  0
LINE
  5
129D1F
  8
OBJECT
 10
2060.0
 20
-527.9999999999994316
 30
0.0
 11
1940.0
 21
-527.9999999999994316
 31
0.0
1001
ACDBBLOCKREPETAG
1070
     1
1071
      136
1005
129D1F
  0
ARC
  5
129D20
  8
OBJECT
 10
1940.0
 20
-530.9999999999994316
 30
0.0
 40
3.0
 50
90.0
 51
180.0
1001
ACDBBLOCKREPETAG
1070
     1
1071
      137
1005
129D20
  0
LINE
  5
129D21
  8
OBJECT
 10
1937.0
 20
-530.9999999999994316
 30
0.0
 11
1937.0
 21
-533.9999999999994316
 31
0.0
1001
ACDBBLOCKREPETAG
1070
     1
1071
      138
1005
129D21
  0
LINE
  5
129D22
  8
OBJECT
 10
2063.0
 20
-530.9999999999994316
 30
0.0
 11
2063.0
 21
-533.9999999999994316
 31
0.0
1001
ACDBBLOCKREPETAG
1070
     1
1071
      139
1005
129D22
  0
ARC
  5
129D23
  8
OBJECT
 10
2060.0
 20
-530.9999999999994316
 30
0.0
 40
3.0
 50
0.0
 51
90.0
1001
ACDBBLOCKREPETAG
1070
     1
1071
      140
1005
129D23
  0
LINE
  5
129D24
  8
OBJECT
 10
1943.0
 20
-459.9999999999993747
 30
0.0
 11
1943.0
 21
-527.9999999999994316
 31
0.0
1001
ACDBBLOCKREPETAG
1070
     1
1071
      141
1005
129D24
  0
LINE
  5
129D25
  8
OBJECT
 10
2057.0
 20
-459.9999999999993747
 30
0.0
 11
1943.0
 21
-459.9999999999993747
 31
0.0
1001
ACDBBLOCKREPETAG
1070
     1
1071
      142
1005
129D25
  0
LINE
  5
129D26
  8
OBJECT
 10
2057.0
 20
-459.9999999999993747
 30
0.0
 11
2057.0
 21
-527.9999999999994316
 31
0.0
1001
ACDBBLOCKREPETAG
1070
     1
1071
      143
1005
129D26
  0
LINE
  5
129D27
  8
CENTER
 10
2000.0
 20
-444.9999999999993747
 30
0.0
 11
2000.0
 21
-669.9999999999994316
 31
0.0
1001
ACDBBLOCKREPETAG
1070
     1
1071
        0
1005
129D27
  0
LINE
  5
129D28
  8
OBJECT
 10
1925.0
 20
-533.9999999999994316
 30
0.0
 11
1925.0
 21
-657.9999999999994316
 31
0.0
1001
ACDBBLOCKREPETAG
1070
     1
1071
        1
1005
129D28
  0
LINE
  5
129D29
  8
OBJECT
 10
1920.0
 20
-657.9999999999994316
 30
0.0
 11
2080.0
 21
-657.9999999999994316
 31
0.0
1001
ACDBBLOCKREPETAG
1070
     1
1071
        2
1005
129D29
  0
LINE
  5
129D2A
  8
OBJECT
 10
2080.0
 20
-533.9999999999994316
 30
0.0
 11
1925.0
 21
-533.9999999999994316
 31
0.0
1001
ACDBBLOCKREPETAG
1070
     1
1071
        3
1005
129D2A
  0
LINE
  5
129D2B
  8
OBJECT
 10
1920.0
 20
-657.9999999999994316
 30
0.0
 11
1920.0
 21
-669.9999999999994316
 31
0.0
1001
ACDBBLOCKREPETAG
1070
     1
1071
        4
1005
129D2B
  0
LINE
  5
129D2C
  8
OBJECT
 10
1920.0
 20
-669.9999999999994316
 30
0.0
 11
2080.0
 21
-669.9999999999994316
 31
0.0
1001
ACDBBLOCKREPETAG
1070
     1
1071
        5
1005
129D2C
  0
LINE
  5
129D2D
  8
OBJECT
 10
2080.0
 20
-669.9999999999994316
 30
0.0
 11
2080.0
 21
-657.9999999999994316
 31
0.0
1001
ACDBBLOCKREPETAG
1070
     1
1071
        6
1005
129D2D
  0
ARC
  5
129D2E
  8
OBJECT
 10
2200.6872746716730944
 20
-649.4080994101070701
 30
0.0
 40
170.6350503965855978
 50
137.4413445918430057
 51
149.9194958133655007
1001
ACDBBLOCKREPETAG
1070
     1
1071
       15
1005
129D2E
  0
ARC
  5
129D2F
  8
OBJECT
 10
2118.845598704051099
 20
-605.8827266953644539
 30
0.0
 40
78.0722220217636647
 50
147.4551531038623011
 51
164.6636599771958061
1001
ACDBBLOCKREPETAG
1070
     1
1071
       16
1005
129D2F
  0
ARC
  5
129D30
  8
OBJECT
 10
2085.7554349608731172
 20
-595.9999999999994316
 30
0.0
 40
43.5535392688561771
 50
165.6884523006802965
 51
194.3115476993197035
1001
ACDBBLOCKREPETAG
1070
     1
1071
       17
1005
129D30
  0
ARC
  5
129D31
  8
OBJECT
 10
2200.6872746716730944
 20
-542.5919005898917931
 30
0.0
 40
170.6350503965855978
 50
210.0805041866343004
 51
222.5586554081569943
1001
ACDBBLOCKREPETAG
1070
     1
1071
       18
1005
129D31
  0
ARC
  5
129D32
  8
OBJECT
 10
2118.845598704051099
 20
-586.1172733046345229
 30
0.0
 40
78.0722220217636647
 50
195.3363400228041939
 51
212.5448468961376989
1001
ACDBBLOCKREPETAG
1070
     1
1071
       19
1005
129D32
  0
LINE
  5
129D33
  8
HIDDEN
 10
2052.5
 20
-459.9999999999993747
 30
0.0
 11
2052.5
 21
-533.9999999999994316
 31
0.0
1001
ACDBBLOCKREPETAG
1070
     1
1071
      180
1005
129D33
  0
LINE
  5
129D34
  8
HIDDEN
 10
1947.5
 20
-459.9999999999993747
 30
0.0
 11
1947.5
 21
-533.9999999999994316
 31
0.0
1001
ACDBBLOCKREPETAG
1070
     1
1071
      181
1005
129D34
  0
POINT
  5
129D35
  8
DOTS
 10
2000.0
 20
-654.9999999999994316
 30
0.0
1001
ACDBBLOCKREPETAG
1070
     1
1071
      191
1005
129D35
  0
LINE
  5
129D36
  8
CENTER
 10
5077.1802475027534456
 20
-3194.9999999999959073
 30
0.0
 11
4902.1802475027534456
 21
-3194.9999999999959073
 31
0.0
1001
ACDBBLOCKREPETAG
1070
     1
1071
       14
1005
129D36
  0
LINE
  5
129D37
  8
CENTER
 10
4997.1802475027543551
 20
-3289.9999999999959073
 30
0.0
 11
4997.1802475027543551
 21
-3099.9999999999959073
 31
0.0
1001
ACDBBLOCKREPETAG
1070
     1
1071
       15
1005
129D37
  0
CIRCLE
  5
129D38
  8
OBJECT
 10
4997.1802475027543551
 20
-3194.9999999999959073
 30
0.0
 40
75.0
1001
ACDBBLOCKREPETAG
1070
     1
1071
       17
1005
129D38
  0
ARC
  5
129D39
  8
OBJECT
 10
4997.1802475027543551
 20
-3194.9999999999959073
 30
0.0
 40
80.0
 50
50.805032573882329
 51
309.1949674261177279
1001
ACDBBLOCKREPETAG
1070
     1
1071
       18
1005
129D39
  0
LINE
  5
129D3A
  8
OBJECT
 10
5039.3821431947726524
 20
-3132.9999999999959073
 30
0.0
 11
5077.1802475027534456
 21
-3132.9999999999959073
 31
0.0
1001
ACDBBLOCKREPETAG
1070
     1
1071
       19
1005
129D3A
  0
LINE
  5
129D3B
  8
OBJECT
 10
5039.3821431947726524
 20
-3256.9999999999959073
 30
0.0
 11
5077.1802475027534456
 21
-3256.9999999999959073
 31
0.0
1001
ACDBBLOCKREPETAG
1070
     1
1071
       20
1005
129D3B
  0
POINT
  5
129D3C
  8
DOTS
 10
4997.1802475027543551
 20
-3194.9999999999959073
 30
0.0
1001
ACDBBLOCKREPETAG
1070
     1
1071
       21
1005
129D3C
  0
CIRCLE
  5
129D3D
  8
OBJECT
 10
4997.1802475027543551
 20
-3194.9999999999959073
 30
0.0
 40
52.5
1001
ACDBBLOCKREPETAG
1070
     1
1071
      494
1005
129D3D
  0
CIRCLE
  5
129D3E
  8
OBJECT
 10
4997.1802475027543551
 20
-3194.9999999999959073
 30
0.0
 40
57.0
1001
ACDBBLOCKREPETAG
1070
     1
1071
      483
1005
129D3E
  0
LINE
  5
129D3F
  8
CENTER
 10
4077.1802475027520813
 20
-3194.9999999999959073
 30
0.0
 11
3902.1802475027529908
 21
-3194.9999999999959073
 31
0.0
1001
ACDBBLOCKREPETAG
1070
     1
1071
       14
1005
129D3F
  0
LINE
  5
129D40
  8
CENTER
 10
3997.1802475027529908
 20
-3289.9999999999959073
 30
0.0
 11
3997.1802475027529908
 21
-3099.9999999999959073
 31
0.0
1001
ACDBBLOCKREPETAG
1070
     1
1071
       15
1005
129D40
  0
CIRCLE
  5
129D41
  8
OBJECT
 10
3997.1802475027529908
 20
-3194.9999999999959073
 30
0.0
 40
75.0
1001
ACDBBLOCKREPETAG
1070
     1
1071
       17
1005
129D41
  0
ARC
  5
129D42
  8
OBJECT
 10
3997.1802475027529908
 20
-3194.9999999999959073
 30
0.0
 40
80.0
 50
50.8050325738621282
 51
309.1949674261379073
1001
ACDBBLOCKREPETAG
1070
     1
1071
       18
1005
129D42
  0
LINE
  5
129D43
  8
OBJECT
 10
4039.3821431947721976
 20
-3132.9999999999959073
 30
0.0
 11
4077.1802475027520813
 21
-3132.9999999999959073
 31
0.0
1001
ACDBBLOCKREPETAG
1070
     1
1071
       19
1005
129D43
  0
LINE
  5
129D44
  8
OBJECT
 10
4039.3821431947721976
 20
-3256.9999999999959073
 30
0.0
 11
4077.1802475027520813
 21
-3256.9999999999959073
 31
0.0
1001
ACDBBLOCKREPETAG
1070
     1
1071
       20
1005
129D44
  0
POINT
  5
129D45
  8
DOTS
 10
3997.1802475027529908
 20
-3194.9999999999959073
 30
0.0
1001
ACDBBLOCKREPETAG
1070
     1
1071
       21
1005
129D45
  0
CIRCLE
  5
129D46
  8
OBJECT
 10
3997.1802475027529908
 20
-3194.9999999999959073
 30
0.0
 40
52.5
1001
ACDBBLOCKREPETAG
1070
     1
1071
      494
1005
129D46
  0
CIRCLE
  5
129D47
  8
OBJECT
 10
3997.1802475027529908
 20
-3194.9999999999959073
 30
0.0
 40
57.0
1001
ACDBBLOCKREPETAG
1070
     1
1071
      483
1005
129D47
  0
LINE
  5
129D48
  8
CENTER
 10
3077.1802475027539003
 20
-3194.9999999999959073
 30
0.0
 11
2902.1802475027548098
 21
-3194.9999999999959073
 31
0.0
1001
ACDBBLOCKREPETAG
1070
     1
1071
       14
1005
129D48
  0
LINE
  5
129D49
  8
CENTER
 10
2997.1802475027539003
 20
-3289.9999999999959073
 30
0.0
 11
2997.1802475027539003
 21
-3099.9999999999959073
 31
0.0
1001
ACDBBLOCKREPETAG
1070
     1
1071
       15
1005
129D49
  0
CIRCLE
  5
129D4A
  8
OBJECT
 10
2997.1802475027539003
 20
-3194.9999999999959073
 30
0.0
 40
75.0
1001
ACDBBLOCKREPETAG
1070
     1
1071
       17
1005
129D4A
  0
ARC
  5
129D4B
  8
OBJECT
 10
2997.1802475027539003
 20
-3194.9999999999959073
 30
0.0
 40
80.0
 50
50.8050325738621282
 51
309.1949674261379073
1001
ACDBBLOCKREPETAG
1070
     1
1071
       18
1005
129D4B
  0
LINE
  5
129D4C
  8
OBJECT
 10
3039.3821431947721976
 20
-3132.9999999999959073
 30
0.0
 11
3077.1802475027539003
 21
-3132.9999999999959073
 31
0.0
1001
ACDBBLOCKREPETAG
1070
     1
1071
       19
1005
129D4C
  0
LINE
  5
129D4D
  8
OBJECT
 10
3039.3821431947721976
 20
-3256.9999999999959073
 30
0.0
 11
3077.1802475027539003
 21
-3256.9999999999959073
 31
0.0
1001
ACDBBLOCKREPETAG
1070
     1
1071
       20
1005
129D4D
  0
POINT
  5
129D4E
  8
DOTS
 10
2997.1802475027539003
 20
-3194.9999999999959073
 30
0.0
1001
ACDBBLOCKREPETAG
1070
     1
1071
       21
1005
129D4E
  0
CIRCLE
  5
129D4F
  8
OBJECT
 10
2997.1802475027539003
 20
-3194.9999999999959073
 30
0.0
 40
52.5
1001
ACDBBLOCKREPETAG
1070
     1
1071
      494
1005
129D4F
  0
CIRCLE
  5
129D50
  8
OBJECT
 10
2997.1802475027539003
 20
-3194.9999999999959073
 30
0.0
 40
57.0
1001
ACDBBLOCKREPETAG
1070
     1
1071
      483
1005
129D50
  0
LINE
  5
129D51
  8
CENTER
 10
2077.1802475027539003
 20
-3194.9999999999959073
 30
0.0
 11
1902.1802475027529908
 21
-3194.9999999999959073
 31
0.0
1001
ACDBBLOCKREPETAG
1070
     1
1071
       14
1005
129D51
  0
LINE
  5
129D52
  8
CENTER
 10
1997.1802475027529908
 20
-3289.9999999999959073
 30
0.0
 11
1997.1802475027529908
 21
-3099.9999999999959073
 31
0.0
1001
ACDBBLOCKREPETAG
1070
     1
1071
       15
1005
129D52
  0
CIRCLE
  5
129D53
  8
OBJECT
 10
1997.1802475027529908
 20
-3194.9999999999959073
 30
0.0
 40
75.0
1001
ACDBBLOCKREPETAG
1070
     1
1071
       17
1005
129D53
  0
ARC
  5
129D54
  8
OBJECT
 10
1997.1802475027529908
 20
-3194.9999999999959073
 30
0.0
 40
80.0
 50
50.8050325738621282
 51
309.1949674261379073
1001
ACDBBLOCKREPETAG
1070
     1
1071
       18
1005
129D54
  0
LINE
  5
129D55
  8
OBJECT
 10
2039.3821431947731071
 20
-3132.9999999999959073
 30
0.0
 11
2077.1802475027539003
 21
-3132.9999999999959073
 31
0.0
1001
ACDBBLOCKREPETAG
1070
     1
1071
       19
1005
129D55
  0
LINE
  5
129D56
  8
OBJECT
 10
2039.3821431947731071
 20
-3256.9999999999959073
 30
0.0
 11
2077.1802475027539003
 21
-3256.9999999999959073
 31
0.0
1001
ACDBBLOCKREPETAG
1070
     1
1071
       20
1005
129D56
  0
POINT
  5
129D57
  8
DOTS
 10
1997.1802475027529908
 20
-3194.9999999999959073
 30
0.0
1001
ACDBBLOCKREPETAG
1070
     1
1071
       21
1005
129D57
  0
CIRCLE
  5
129D58
  8
OBJECT
 10
1997.1802475027529908
 20
-3194.9999999999959073
 30
0.0
 40
52.5
1001
ACDBBLOCKREPETAG
1070
     1
1071
      494
1005
129D58
  0
CIRCLE
  5
129D59
  8
OBJECT
 10
1997.1802475027529908
 20
-3194.9999999999959073
 30
0.0
 40
57.0
1001
ACDBBLOCKREPETAG
1070
     1
1071
      483
1005
129D59
  0
LINE
  5
129D5A
  8
OBJECT
 10
4922.1802475027552646
 20
-3478.9999999999968168
 30
0.0
 11
4922.1802475027552646
 21
-3602.9999999999968168
 31
0.0
1001
ACDBBLOCKREPETAG
1070
     1
1071
        6
1005
129D5A
  0
LINE
  5
129D5B
  8
OBJECT
 10
5072.1802475025533568
 20
-3602.9999999997758096
 30
0.0
 11
5077.1802475027534456
 21
-3602.9999999999968168
 31
0.0
1001
ACDBBLOCKREPETAG
1070
     1
1071
        9
1005
129D5B
  0
LINE
  5
129D5C
  8
OBJECT
 10
5077.1802475027534456
 20
-3478.9999999999968168
 30
0.0
 11
4922.1802475027552646
 21
-3478.9999999999968168
 31
0.0
1001
ACDBBLOCKREPETAG
1070
     1
1071
       10
1005
129D5C
  0
ARC
  5
129D5D
  8
OBJECT
 10
5197.8675221744251758
 20
-3594.4080994101050237
 30
0.0
 40
170.6350503965855978
 50
137.4413445918430057
 51
149.9194958133664102
1001
ACDBBLOCKREPETAG
1070
     1
1071
       15
1005
129D5D
  0
ARC
  5
129D5E
  8
OBJECT
 10
5116.0258462068040899
 20
-3550.8827266953630897
 30
0.0
 40
78.0722220217636647
 50
147.4551531037683105
 51
164.6636599771929923
1001
ACDBBLOCKREPETAG
1070
     1
1071
       16
1005
129D5E
  0
ARC
  5
129D5F
  8
OBJECT
 10
5082.9356824636270176
 20
-3540.9999999999968168
 30
0.0
 40
43.5535392688561771
 50
165.6884523008477004
 51
194.3115476991521859
1001
ACDBBLOCKREPETAG
1070
     1
1071
       17
1005
129D5F
  0
ARC
  5
129D60
  8
OBJECT
 10
5197.8675221744251758
 20
-3487.5919005898881551
 30
0.0
 40
170.6350503965855978
 50
210.0805041866335046
 51
222.5586554081569943
1001
ACDBBLOCKREPETAG
1070
     1
1071
       18
1005
129D60
  0
ARC
  5
129D61
  8
OBJECT
 10
5116.0258462068040899
 20
-3531.1172733046328176
 30
0.0
 40
78.0722220217636647
 50
195.3363400228070077
 51
212.5448468962316042
1001
ACDBBLOCKREPETAG
1070
     1
1071
       19
1005
129D61
  0
POINT
  5
129D62
  8
DOTS
 10
4997.1802475027543551
 20
-3599.9999999999968168
 30
0.0
1001
ACDBBLOCKREPETAG
1070
     1
1071
      186
1005
129D62
  0
LINE
  5
129D63
  8
OBJECT
 10
5057.1802475027543551
 20
-3472.9999999999968168
 30
0.0
 11
4937.1802475027534456
 21
-3472.9999999999968168
 31
0.0
1001
ACDBBLOCKREPETAG
1070
     1
1071
      215
1005
129D63
  0
ARC
  5
129D64
  8
OBJECT
 10
4937.1802475027534456
 20
-3475.9999999999968168
 30
0.0
 40
3.0
 50
90.0
 51
180.0
1001
ACDBBLOCKREPETAG
1070
     1
1071
      216
1005
129D64
  0
LINE
  5
129D65
  8
OBJECT
 10
4934.1802475027534456
 20
-3475.9999999999968168
 30
0.0
 11
4934.1802475027534456
 21
-3478.9999999999968168
 31
0.0
1001
ACDBBLOCKREPETAG
1070
     1
1071
      217
1005
129D65
  0
LINE
  5
129D66
  8
OBJECT
 10
5060.1802475027552646
 20
-3475.9999999999968168
 30
0.0
 11
5060.1802475027552646
 21
-3478.9999999999968168
 31
0.0
1001
ACDBBLOCKREPETAG
1070
     1
1071
      218
1005
129D66
  0
ARC
  5
129D67
  8
OBJECT
 10
5057.1802475027543551
 20
-3475.9999999999968168
 30
0.0
 40
3.0
 50
0.0
 51
90.0
1001
ACDBBLOCKREPETAG
1070
     1
1071
      219
1005
129D67
  0
LINE
  5
129D68
  8
OBJECT
 10
4940.1802475027543551
 20
-3404.9999999999968168
 30
0.0
 11
4940.1802475027543551
 21
-3472.9999999999968168
 31
0.0
1001
ACDBBLOCKREPETAG
1070
     1
1071
      220
1005
129D68
  0
LINE
  5
129D69
  8
OBJECT
 10
5054.1802475027534456
 20
-3404.9999999999968168
 30
0.0
 11
4940.1802475027543551
 21
-3404.9999999999968168
 31
0.0
1001
ACDBBLOCKREPETAG
1070
     1
1071
      221
1005
129D69
  0
LINE
  5
129D6A
  8
OBJECT
 10
5054.1802475027534456
 20
-3404.9999999999968168
 30
0.0
 11
5054.1802475027534456
 21
-3472.9999999999968168
 31
0.0
1001
ACDBBLOCKREPETAG
1070
     1
1071
      222
1005
129D6A
  0
LINE
  5
129D6B
  8
CENTER
 10
4997.1802475027543551
 20
-3389.9999999999968168
 30
0.0
 11
4997.1802475027543551
 21
-3614.9999999999968168
 31
0.0
1001
ACDBBLOCKREPETAG
1070
     1
1071
      223
1005
129D6B
  0
LINE
  5
129D6C
  8
HIDDEN
 10
5049.6802475027534456
 20
-3404.9999999999968168
 30
0.0
 11
5049.6802475027534456
 21
-3478.9999999999968168
 31
0.0
1001
ACDBBLOCKREPETAG
1070
     1
1071
      224
1005
129D6C
  0
LINE
  5
129D6D
  8
HIDDEN
 10
4944.6802475027552646
 20
-3404.9999999999968168
 30
0.0
 11
4944.6802475027552646
 21
-3478.9999999999968168
 31
0.0
1001
ACDBBLOCKREPETAG
1070
     1
1071
      225
1005
129D6D
  0
LINE
  5
129D6E
  8
OBJECT
 10
4322.1802475027516266
 20
-3478.9999999999968168
 30
0.0
 11
4322.1802475027516266
 21
-3602.9999999999968168
 31
0.0
1001
ACDBBLOCKREPETAG
1070
     1
1071
       26
1005
129D6E
  0
LINE
  5
129D6F
  8
OBJECT
 10
4472.1802475027552646
 20
-3478.9999999999968168
 30
0.0
 11
4322.1802475027516266
 21
-3478.9999999999968168
 31
0.0
1001
ACDBBLOCKREPETAG
1070
     1
1071
       30
1005
129D6F
  0
LINE
  5
129D70
  8
OBJECT
 10
4472.1802475027552646
 20
-3478.9999999999968168
 30
0.0
 11
4472.1802475027552646
 21
-3602.9999999999968168
 31
0.0
1001
ACDBBLOCKREPETAG
1070
     1
1071
       34
1005
129D70
  0
POINT
  5
129D71
  8
DOTS
 10
4397.1802475027516266
 20
-3599.9999999999968168
 30
0.0
1001
ACDBBLOCKREPETAG
1070
     1
1071
      187
1005
129D71
  0
LINE
  5
129D72
  8
OBJECT
 10
4457.1802475027516266
 20
-3472.9999999999968168
 30
0.0
 11
4337.1802475027534456
 21
-3472.9999999999968168
 31
0.0
1001
ACDBBLOCKREPETAG
1070
     1
1071
      226
1005
129D72
  0
ARC
  5
129D73
  8
OBJECT
 10
4337.1802475027534456
 20
-3475.9999999999968168
 30
0.0
 40
3.0
 50
90.0
 51
180.0
1001
ACDBBLOCKREPETAG
1070
     1
1071
      227
1005
129D73
  0
LINE
  5
129D74
  8
OBJECT
 10
4334.1802475027534456
 20
-3475.9999999999968168
 30
0.0
 11
4334.1802475027534456
 21
-3478.9999999999968168
 31
0.0
1001
ACDBBLOCKREPETAG
1070
     1
1071
      228
1005
129D74
  0
LINE
  5
129D75
  8
OBJECT
 10
4460.1802475027516266
 20
-3475.9999999999968168
 30
0.0
 11
4460.1802475027516266
 21
-3478.9999999999968168
 31
0.0
1001
ACDBBLOCKREPETAG
1070
     1
1071
      229
1005
129D75
  0
ARC
  5
129D76
  8
OBJECT
 10
4457.1802475027516266
 20
-3475.9999999999968168
 30
0.0
 40
3.0
 50
0.0
 51
90.0
1001
ACDBBLOCKREPETAG
1070
     1
1071
      230
1005
129D76
  0
LINE
  5
129D77
  8
OBJECT
 10
4340.1802475027516266
 20
-3404.9999999999968168
 30
0.0
 11
4340.1802475027516266
 21
-3472.9999999999968168
 31
0.0
1001
ACDBBLOCKREPETAG
1070
     1
1071
      231
1005
129D77
  0
LINE
  5
129D78
  8
OBJECT
 10
4454.1802475027516266
 20
-3404.9999999999968168
 30
0.0
 11
4340.1802475027516266
 21
-3404.9999999999968168
 31
0.0
1001
ACDBBLOCKREPETAG
1070
     1
1071
      232
1005
129D78
  0
LINE
  5
129D79
  8
OBJECT
 10
4454.1802475027516266
 20
-3404.9999999999968168
 30
0.0
 11
4454.1802475027516266
 21
-3472.9999999999968168
 31
0.0
1001
ACDBBLOCKREPETAG
1070
     1
1071
      233
1005
129D79
  0
LINE
  5
129D7A
  8
CENTER
 10
4397.1802475027516266
 20
-3389.9999999999968168
 30
0.0
 11
4397.1802475027516266
 21
-3614.9999999999968168
 31
0.0
1001
ACDBBLOCKREPETAG
1070
     1
1071
      234
1005
129D7A
  0
LINE
  5
129D7B
  8
HIDDEN
 10
4449.6802475027534456
 20
-3404.9999999999968168
 30
0.0
 11
4449.6802475027534456
 21
-3478.9999999999968168
 31
0.0
1001
ACDBBLOCKREPETAG
1070
     1
1071
      235
1005
129D7B
  0
LINE
  5
129D7C
  8
HIDDEN
 10
4344.6802475027516266
 20
-3404.9999999999968168
 30
0.0
 11
4344.6802475027516266
 21
-3478.9999999999968168
 31
0.0
1001
ACDBBLOCKREPETAG
1070
     1
1071
      236
1005
129D7C
  0
LINE
  5
129D7D
  8
OBJECT
 10
3922.1802475027548098
 20
-3478.9999999999968168
 30
0.0
 11
3922.1802475027548098
 21
-3602.9999999999968168
 31
0.0
1001
ACDBBLOCKREPETAG
1070
     1
1071
        6
1005
129D7D
  0
LINE
  5
129D7E
  8
OBJECT
 10
4072.180247502552902
 20
-3602.9999999997758096
 30
0.0
 11
4077.1802475027520813
 21
-3602.9999999999968168
 31
0.0
1001
ACDBBLOCKREPETAG
1070
     1
1071
        9
1005
129D7E
  0
LINE
  5
129D7F
  8
OBJECT
 10
4077.1802475027520813
 20
-3478.9999999999968168
 30
0.0
 11
3922.1802475027548098
 21
-3478.9999999999968168
 31
0.0
1001
ACDBBLOCKREPETAG
1070
     1
1071
       10
1005
129D7F
  0
ARC
  5
129D80
  8
OBJECT
 10
4197.8675221744251758
 20
-3594.4080994101050237
 30
0.0
 40
170.6350503965855978
 50
137.4413445918430057
 51
149.9194958133664102
1001
ACDBBLOCKREPETAG
1070
     1
1071
       15
1005
129D80
  0
ARC
  5
129D81
  8
OBJECT
 10
4116.0258462068049994
 20
-3550.8827266953630897
 30
0.0
 40
78.0722220217636647
 50
147.4551531037683105
 51
164.6636599771860858
1001
ACDBBLOCKREPETAG
1070
     1
1071
       16
1005
129D81
  0
ARC
  5
129D82
  8
OBJECT
 10
4082.9356824636261081
 20
-3540.9999999999968168
 30
0.0
 40
43.5535392688561771
 50
165.6884523008477004
 51
194.3115476991521859
1001
ACDBBLOCKREPETAG
1070
     1
1071
       17
1005
129D82
  0
ARC
  5
129D83
  8
OBJECT
 10
4197.8675221744251758
 20
-3487.5919005898881551
 30
0.0
 40
170.6350503965855978
 50
210.0805041866335046
 51
222.5586554081569943
1001
ACDBBLOCKREPETAG
1070
     1
1071
       18
1005
129D83
  0
ARC
  5
129D84
  8
OBJECT
 10
4116.0258462068049994
 20
-3531.1172733046328176
 30
0.0
 40
78.0722220217636647
 50
195.3363400228139142
 51
212.5448468962316042
1001
ACDBBLOCKREPETAG
1070
     1
1071
       19
1005
129D84
  0
POINT
  5
129D85
  8
DOTS
 10
3997.1802475027529908
 20
-3599.9999999999968168
 30
0.0
1001
ACDBBLOCKREPETAG
1070
     1
1071
      186
1005
129D85
  0
LINE
  5
129D86
  8
OBJECT
 10
4057.1802475027529908
 20
-3472.9999999999968168
 30
0.0
 11
3937.1802475027529908
 21
-3472.9999999999968168
 31
0.0
1001
ACDBBLOCKREPETAG
1070
     1
1071
      215
1005
129D86
  0
ARC
  5
129D87
  8
OBJECT
 10
3937.1802475027529908
 20
-3475.9999999999968168
 30
0.0
 40
3.0
 50
90.0
 51
180.0
1001
ACDBBLOCKREPETAG
1070
     1
1071
      216
1005
129D87
  0
LINE
  5
129D88
  8
OBJECT
 10
3934.1802475027529908
 20
-3475.9999999999968168
 30
0.0
 11
3934.1802475027529908
 21
-3478.9999999999968168
 31
0.0
1001
ACDBBLOCKREPETAG
1070
     1
1071
      217
1005
129D88
  0
LINE
  5
129D89
  8
OBJECT
 10
4060.1802475027548098
 20
-3475.9999999999968168
 30
0.0
 11
4060.1802475027548098
 21
-3478.9999999999968168
 31
0.0
1001
ACDBBLOCKREPETAG
1070
     1
1071
      218
1005
129D89
  0
ARC
  5
129D8A
  8
OBJECT
 10
4057.1802475027529908
 20
-3475.9999999999968168
 30
0.0
 40
3.0
 50
0.0
 51
90.0
1001
ACDBBLOCKREPETAG
1070
     1
1071
      219
1005
129D8A
  0
LINE
  5
129D8B
  8
OBJECT
 10
3940.1802475027529908
 20
-3404.9999999999968168
 30
0.0
 11
3940.1802475027529908
 21
-3472.9999999999968168
 31
0.0
1001
ACDBBLOCKREPETAG
1070
     1
1071
      220
1005
129D8B
  0
LINE
  5
129D8C
  8
OBJECT
 10
4054.1802475027529908
 20
-3404.9999999999968168
 30
0.0
 11
3940.1802475027529908
 21
-3404.9999999999968168
 31
0.0
1001
ACDBBLOCKREPETAG
1070
     1
1071
      221
1005
129D8C
  0
LINE
  5
129D8D
  8
OBJECT
 10
4054.1802475027529908
 20
-3404.9999999999968168
 30
0.0
 11
4054.1802475027529908
 21
-3472.9999999999968168
 31
0.0
1001
ACDBBLOCKREPETAG
1070
     1
1071
      222
1005
129D8D
  0
LINE
  5
129D8E
  8
CENTER
 10
3997.1802475027529908
 20
-3389.9999999999968168
 30
0.0
 11
3997.1802475027529908
 21
-3614.9999999999968168
 31
0.0
1001
ACDBBLOCKREPETAG
1070
     1
1071
      223
1005
129D8E
  0
LINE
  5
129D8F
  8
HIDDEN
 10
4049.6802475027520813
 20
-3404.9999999999968168
 30
0.0
 11
4049.6802475027520813
 21
-3478.9999999999968168
 31
0.0
1001
ACDBBLOCKREPETAG
1070
     1
1071
      224
1005
129D8F
  0
LINE
  5
129D90
  8
HIDDEN
 10
3944.6802475027548098
 20
-3404.9999999999968168
 30
0.0
 11
3944.6802475027548098
 21
-3478.9999999999968168
 31
0.0
1001
ACDBBLOCKREPETAG
1070
     1
1071
      225
1005
129D90
  0
LINE
  5
129D91
  8
OBJECT
 10
3322.1802475027548098
 20
-3478.9999999999968168
 30
0.0
 11
3322.1802475027548098
 21
-3602.9999999999968168
 31
0.0
1001
ACDBBLOCKREPETAG
1070
     1
1071
       26
1005
129D91
  0
LINE
  5
129D92
  8
OBJECT
 10
3472.1802475027548098
 20
-3478.9999999999968168
 30
0.0
 11
3322.1802475027548098
 21
-3478.9999999999968168
 31
0.0
1001
ACDBBLOCKREPETAG
1070
     1
1071
       30
1005
129D92
  0
LINE
  5
129D93
  8
OBJECT
 10
3472.1802475027548098
 20
-3478.9999999999968168
 30
0.0
 11
3472.1802475027548098
 21
-3602.9999999999968168
 31
0.0
1001
ACDBBLOCKREPETAG
1070
     1
1071
       34
1005
129D93
  0
POINT
  5
129D94
  8
DOTS
 10
3397.1802475027548098
 20
-3599.9999999999968168
 30
0.0
1001
ACDBBLOCKREPETAG
1070
     1
1071
      187
1005
129D94
  0
LINE
  5
129D95
  8
OBJECT
 10
3457.1802475027548098
 20
-3472.9999999999968168
 30
0.0
 11
3337.1802475027539003
 21
-3472.9999999999968168
 31
0.0
1001
ACDBBLOCKREPETAG
1070
     1
1071
      226
1005
129D95
  0
ARC
  5
129D96
  8
OBJECT
 10
3337.1802475027539003
 20
-3475.9999999999968168
 30
0.0
 40
3.0
 50
90.0
 51
180.0
1001
ACDBBLOCKREPETAG
1070
     1
1071
      227
1005
129D96
  0
LINE
  5
129D97
  8
OBJECT
 10
3334.1802475027539003
 20
-3475.9999999999968168
 30
0.0
 11
3334.1802475027539003
 21
-3478.9999999999968168
 31
0.0
1001
ACDBBLOCKREPETAG
1070
     1
1071
      228
1005
129D97
  0
LINE
  5
129D98
  8
OBJECT
 10
3460.1802475027548098
 20
-3475.9999999999968168
 30
0.0
 11
3460.1802475027548098
 21
-3478.9999999999968168
 31
0.0
1001
ACDBBLOCKREPETAG
1070
     1
1071
      229
1005
129D98
  0
ARC
  5
129D99
  8
OBJECT
 10
3457.1802475027548098
 20
-3475.9999999999968168
 30
0.0
 40
3.0
 50
0.0
 51
90.0
1001
ACDBBLOCKREPETAG
1070
     1
1071
      230
1005
129D99
  0
LINE
  5
129D9A
  8
OBJECT
 10
3340.1802475027539003
 20
-3404.9999999999968168
 30
0.0
 11
3340.1802475027539003
 21
-3472.9999999999968168
 31
0.0
1001
ACDBBLOCKREPETAG
1070
     1
1071
      231
1005
129D9A
  0
LINE
  5
129D9B
  8
OBJECT
 10
3454.1802475027548098
 20
-3404.9999999999968168
 30
0.0
 11
3340.1802475027539003
 21
-3404.9999999999968168
 31
0.0
1001
ACDBBLOCKREPETAG
1070
     1
1071
      232
1005
129D9B
  0
LINE
  5
129D9C
  8
OBJECT
 10
3454.1802475027548098
 20
-3404.9999999999968168
 30
0.0
 11
3454.1802475027548098
 21
-3472.9999999999968168
 31
0.0
1001
ACDBBLOCKREPETAG
1070
     1
1071
      233
1005
129D9C
  0
LINE
  5
129D9D
  8
CENTER
 10
3397.1802475027548098
 20
-3389.9999999999968168
 30
0.0
 11
3397.1802475027548098
 21
-3614.9999999999968168
 31
0.0
1001
ACDBBLOCKREPETAG
1070
     1
1071
      234
1005
129D9D
  0
LINE
  5
129D9E
  8
HIDDEN
 10
3449.6802475027548098
 20
-3404.9999999999968168
 30
0.0
 11
3449.6802475027548098
 21
-3478.9999999999968168
 31
0.0
1001
ACDBBLOCKREPETAG
1070
     1
1071
      235
1005
129D9E
  0
LINE
  5
129D9F
  8
HIDDEN
 10
3344.6802475027548098
 20
-3404.9999999999968168
 30
0.0
 11
3344.6802475027548098
 21
-3478.9999999999968168
 31
0.0
1001
ACDBBLOCKREPETAG
1070
     1
1071
      236
1005
129D9F
  0
LINE
  5
129DA0
  8
OBJECT
 10
2922.1802475027548098
 20
-3478.9999999999968168
 30
0.0
 11
2922.1802475027548098
 21
-3602.9999999999968168
 31
0.0
1001
ACDBBLOCKREPETAG
1070
     1
1071
        6
1005
129DA0
  0
LINE
  5
129DA1
  8
OBJECT
 10
3072.180247502552902
 20
-3602.9999999997758096
 30
0.0
 11
3077.1802475027539003
 21
-3602.9999999999968168
 31
0.0
1001
ACDBBLOCKREPETAG
1070
     1
1071
        9
1005
129DA1
  0
LINE
  5
129DA2
  8
OBJECT
 10
3077.1802475027539003
 20
-3478.9999999999968168
 30
0.0
 11
2922.1802475027548098
 21
-3478.9999999999968168
 31
0.0
1001
ACDBBLOCKREPETAG
1070
     1
1071
       10
1005
129DA2
  0
ARC
  5
129DA3
  8
OBJECT
 10
3197.8675221744269948
 20
-3594.4080994101050237
 30
0.0
 40
170.6350503965855978
 50
137.4413445918430057
 51
149.9194958133664102
1001
ACDBBLOCKREPETAG
1070
     1
1071
       15
1005
129DA3
  0
ARC
  5
129DA4
  8
OBJECT
 10
3116.0258462068049994
 20
-3550.8827266953630897
 30
0.0
 40
78.0722220217636647
 50
147.4551531037683105
 51
164.6636599771860858
1001
ACDBBLOCKREPETAG
1070
     1
1071
       16
1005
129DA4
  0
ARC
  5
129DA5
  8
OBJECT
 10
3082.9356824636279271
 20
-3540.9999999999968168
 30
0.0
 40
43.5535392688561771
 50
165.6884523008477004
 51
194.3115476991521859
1001
ACDBBLOCKREPETAG
1070
     1
1071
       17
1005
129DA5
  0
ARC
  5
129DA6
  8
OBJECT
 10
3197.8675221744269948
 20
-3487.5919005898881551
 30
0.0
 40
170.6350503965855978
 50
210.0805041866335046
 51
222.5586554081569943
1001
ACDBBLOCKREPETAG
1070
     1
1071
       18
1005
129DA6
  0
ARC
  5
129DA7
  8
OBJECT
 10
3116.0258462068049994
 20
-3531.1172733046328176
 30
0.0
 40
78.0722220217636647
 50
195.3363400228139142
 51
212.5448468962316042
1001
ACDBBLOCKREPETAG
1070
     1
1071
       19
1005
129DA7
  0
POINT
  5
129DA8
  8
DOTS
 10
2997.1802475027539003
 20
-3599.9999999999968168
 30
0.0
1001
ACDBBLOCKREPETAG
1070
     1
1071
      186
1005
129DA8
  0
LINE
  5
129DA9
  8
OBJECT
 10
3057.1802475027539003
 20
-3472.9999999999968168
 30
0.0
 11
2937.1802475027539003
 21
-3472.9999999999968168
 31
0.0
1001
ACDBBLOCKREPETAG
1070
     1
1071
      215
1005
129DA9
  0
ARC
  5
129DAA
  8
OBJECT
 10
2937.1802475027539003
 20
-3475.9999999999968168
 30
0.0
 40
3.0
 50
90.0
 51
180.0
1001
ACDBBLOCKREPETAG
1070
     1
1071
      216
1005
129DAA
  0
LINE
  5
129DAB
  8
OBJECT
 10
2934.1802475027548098
 20
-3475.9999999999968168
 30
0.0
 11
2934.1802475027548098
 21
-3478.9999999999968168
 31
0.0
1001
ACDBBLOCKREPETAG
1070
     1
1071
      217
1005
129DAB
  0
LINE
  5
129DAC
  8
OBJECT
 10
3060.1802475027548098
 20
-3475.9999999999968168
 30
0.0
 11
3060.1802475027548098
 21
-3478.9999999999968168
 31
0.0
1001
ACDBBLOCKREPETAG
1070
     1
1071
      218
1005
129DAC
  0
ARC
  5
129DAD
  8
OBJECT
 10
3057.1802475027539003
 20
-3475.9999999999968168
 30
0.0
 40
3.0
 50
0.0
 51
90.0
1001
ACDBBLOCKREPETAG
1070
     1
1071
      219
1005
129DAD
  0
LINE
  5
129DAE
  8
OBJECT
 10
2940.1802475027539003
 20
-3404.9999999999968168
 30
0.0
 11
2940.1802475027539003
 21
-3472.9999999999968168
 31
0.0
1001
ACDBBLOCKREPETAG
1070
     1
1071
      220
1005
129DAE
  0
LINE
  5
129DAF
  8
OBJECT
 10
3054.1802475027548098
 20
-3404.9999999999968168
 30
0.0
 11
2940.1802475027539003
 21
-3404.9999999999968168
 31
0.0
1001
ACDBBLOCKREPETAG
1070
     1
1071
      221
1005
129DAF
  0
LINE
  5
129DB0
  8
OBJECT
 10
3054.1802475027548098
 20
-3404.9999999999968168
 30
0.0
 11
3054.1802475027548098
 21
-3472.9999999999968168
 31
0.0
1001
ACDBBLOCKREPETAG
1070
     1
1071
      222
1005
129DB0
  0
LINE
  5
129DB1
  8
CENTER
 10
2997.1802475027539003
 20
-3389.9999999999968168
 30
0.0
 11
2997.1802475027539003
 21
-3614.9999999999968168
 31
0.0
1001
ACDBBLOCKREPETAG
1070
     1
1071
      223
1005
129DB1
  0
LINE
  5
129DB2
  8
HIDDEN
 10
3049.6802475027548098
 20
-3404.9999999999968168
 30
0.0
 11
3049.6802475027548098
 21
-3478.9999999999968168
 31
0.0
1001
ACDBBLOCKREPETAG
1070
     1
1071
      224
1005
129DB2
  0
LINE
  5
129DB3
  8
HIDDEN
 10
2944.6802475027539003
 20
-3404.9999999999968168
 30
0.0
 11
2944.6802475027539003
 21
-3478.9999999999968168
 31
0.0
1001
ACDBBLOCKREPETAG
1070
     1
1071
      225
1005
129DB3
  0
LINE
  5
129DB4
  8
OBJECT
 10
2322.1802475027548098
 20
-3478.9999999999968168
 30
0.0
 11
2322.1802475027548098
 21
-3602.9999999999968168
 31
0.0
1001
ACDBBLOCKREPETAG
1070
     1
1071
       26
1005
129DB4
  0
LINE
  5
129DB5
  8
OBJECT
 10
2472.1802475027548098
 20
-3478.9999999999968168
 30
0.0
 11
2322.1802475027548098
 21
-3478.9999999999968168
 31
0.0
1001
ACDBBLOCKREPETAG
1070
     1
1071
       30
1005
129DB5
  0
LINE
  5
129DB6
  8
OBJECT
 10
2472.1802475027548098
 20
-3478.9999999999968168
 30
0.0
 11
2472.1802475027548098
 21
-3602.9999999999968168
 31
0.0
1001
ACDBBLOCKREPETAG
1070
     1
1071
       34
1005
129DB6
  0
POINT
  5
129DB7
  8
DOTS
 10
2397.1802475027539003
 20
-3599.9999999999968168
 30
0.0
1001
ACDBBLOCKREPETAG
1070
     1
1071
      187
1005
129DB7
  0
LINE
  5
129DB8
  8
OBJECT
 10
2457.1802475027539003
 20
-3472.9999999999968168
 30
0.0
 11
2337.1802475027539003
 21
-3472.9999999999968168
 31
0.0
1001
ACDBBLOCKREPETAG
1070
     1
1071
      226
1005
129DB8
  0
ARC
  5
129DB9
  8
OBJECT
 10
2337.1802475027539003
 20
-3475.9999999999968168
 30
0.0
 40
3.0
 50
90.0
 51
180.0
1001
ACDBBLOCKREPETAG
1070
     1
1071
      227
1005
129DB9
  0
LINE
  5
129DBA
  8
OBJECT
 10
2334.1802475027548098
 20
-3475.9999999999968168
 30
0.0
 11
2334.1802475027548098
 21
-3478.9999999999968168
 31
0.0
1001
ACDBBLOCKREPETAG
1070
     1
1071
      228
1005
129DBA
  0
LINE
  5
129DBB
  8
OBJECT
 10
2460.1802475027539003
 20
-3475.9999999999968168
 30
0.0
 11
2460.1802475027539003
 21
-3478.9999999999968168
 31
0.0
1001
ACDBBLOCKREPETAG
1070
     1
1071
      229
1005
129DBB
  0
ARC
  5
129DBC
  8
OBJECT
 10
2457.1802475027539003
 20
-3475.9999999999968168
 30
0.0
 40
3.0
 50
0.0
 51
90.0
1001
ACDBBLOCKREPETAG
1070
     1
1071
      230
1005
129DBC
  0
LINE
  5
129DBD
  8
OBJECT
 10
2340.1802475027539003
 20
-3404.9999999999968168
 30
0.0
 11
2340.1802475027539003
 21
-3472.9999999999968168
 31
0.0
1001
ACDBBLOCKREPETAG
1070
     1
1071
      231
1005
129DBD
  0
LINE
  5
129DBE
  8
OBJECT
 10
2454.1802475027548098
 20
-3404.9999999999968168
 30
0.0
 11
2340.1802475027539003
 21
-3404.9999999999968168
 31
0.0
1001
ACDBBLOCKREPETAG
1070
     1
1071
      232
1005
129DBE
  0
LINE
  5
129DBF
  8
OBJECT
 10
2454.1802475027548098
 20
-3404.9999999999968168
 30
0.0
 11
2454.1802475027548098
 21
-3472.9999999999968168
 31
0.0
1001
ACDBBLOCKREPETAG
1070
     1
1071
      233
1005
129DBF
  0
LINE
  5
129DC0
  8
CENTER
 10
2397.1802475027539003
 20
-3389.9999999999968168
 30
0.0
 11
2397.1802475027539003
 21
-3614.9999999999968168
 31
0.0
1001
ACDBBLOCKREPETAG
1070
     1
1071
      234
1005
129DC0
  0
LINE
  5
129DC1
  8
HIDDEN
 10
2449.6802475027548098
 20
-3404.9999999999968168
 30
0.0
 11
2449.6802475027548098
 21
-3478.9999999999968168
 31
0.0
1001
ACDBBLOCKREPETAG
1070
     1
1071
      235
1005
129DC1
  0
LINE
  5
129DC2
  8
HIDDEN
 10
2344.6802475027539003
 20
-3404.9999999999968168
 30
0.0
 11
2344.6802475027539003
 21
-3478.9999999999968168
 31
0.0
1001
ACDBBLOCKREPETAG
1070
     1
1071
      236
1005
129DC2
  0
LINE
  5
129DC3
  8
OBJECT
 10
1922.1802475027529908
 20
-3478.9999999999968168
 30
0.0
 11
1922.1802475027529908
 21
-3602.9999999999968168
 31
0.0
1001
ACDBBLOCKREPETAG
1070
     1
1071
        6
1005
129DC3
  0
LINE
  5
129DC4
  8
OBJECT
 10
2072.180247502552902
 20
-3602.9999999997758096
 30
0.0
 11
2077.1802475027539003
 21
-3602.9999999999968168
 31
0.0
1001
ACDBBLOCKREPETAG
1070
     1
1071
        9
1005
129DC4
  0
LINE
  5
129DC5
  8
OBJECT
 10
2077.1802475027539003
 20
-3478.9999999999968168
 30
0.0
 11
1922.1802475027529908
 21
-3478.9999999999968168
 31
0.0
1001
ACDBBLOCKREPETAG
1070
     1
1071
       10
1005
129DC5
  0
ARC
  5
129DC6
  8
OBJECT
 10
2197.8675221744260853
 20
-3594.4080994101050237
 30
0.0
 40
170.6350503965855978
 50
137.4413445918430057
 51
149.9194958133599869
1001
ACDBBLOCKREPETAG
1070
     1
1071
       15
1005
129DC6
  0
ARC
  5
129DC7
  8
OBJECT
 10
2116.0258462068049994
 20
-3550.8827266953630897
 30
0.0
 40
78.0722220217636647
 50
147.4551531037753875
 51
164.6636599771860858
1001
ACDBBLOCKREPETAG
1070
     1
1071
       16
1005
129DC7
  0
ARC
  5
129DC8
  8
OBJECT
 10
2082.9356824636270176
 20
-3540.9999999999968168
 30
0.0
 40
43.5535392688561771
 50
165.6884523008477004
 51
194.3115476991521859
1001
ACDBBLOCKREPETAG
1070
     1
1071
       17
1005
129DC8
  0
ARC
  5
129DC9
  8
OBJECT
 10
2197.8675221744260853
 20
-3487.5919005898881551
 30
0.0
 40
170.6350503965855978
 50
210.0805041866400131
 51
222.5586554081569943
1001
ACDBBLOCKREPETAG
1070
     1
1071
       18
1005
129DC9
  0
ARC
  5
129DCA
  8
OBJECT
 10
2116.0258462068049994
 20
-3531.1172733046328176
 30
0.0
 40
78.0722220217636647
 50
195.3363400228139142
 51
212.5448468962246125
1001
ACDBBLOCKREPETAG
1070
     1
1071
       19
1005
129DCA
  0
POINT
  5
129DCB
  8
DOTS
 10
1997.1802475027529908
 20
-3599.9999999999968168
 30
0.0
1001
ACDBBLOCKREPETAG
1070
     1
1071
      186
1005
129DCB
  0
LINE
  5
129DCC
  8
OBJECT
 10
2057.1802475027539003
 20
-3472.9999999999968168
 30
0.0
 11
1937.1802475027529908
 21
-3472.9999999999968168
 31
0.0
1001
ACDBBLOCKREPETAG
1070
     1
1071
      215
1005
129DCC
  0
ARC
  5
129DCD
  8
OBJECT
 10
1937.1802475027529908
 20
-3475.9999999999968168
 30
0.0
 40
3.0
 50
90.0
 51
180.0
1001
ACDBBLOCKREPETAG
1070
     1
1071
      216
1005
129DCD
  0
LINE
  5
129DCE
  8
OBJECT
 10
1934.1802475027529908
 20
-3475.9999999999968168
 30
0.0
 11
1934.1802475027529908
 21
-3478.9999999999968168
 31
0.0
1001
ACDBBLOCKREPETAG
1070
     1
1071
      217
1005
129DCE
  0
LINE
  5
129DCF
  8
OBJECT
 10
2060.1802475027548098
 20
-3475.9999999999968168
 30
0.0
 11
2060.1802475027548098
 21
-3478.9999999999968168
 31
0.0
1001
ACDBBLOCKREPETAG
1070
     1
1071
      218
1005
129DCF
  0
ARC
  5
129DD0
  8
OBJECT
 10
2057.1802475027539003
 20
-3475.9999999999968168
 30
0.0
 40
3.0
 50
0.0
 51
90.0
1001
ACDBBLOCKREPETAG
1070
     1
1071
      219
1005
129DD0
  0
LINE
  5
129DD1
  8
OBJECT
 10
1940.1802475027529908
 20
-3404.9999999999968168
 30
0.0
 11
1940.1802475027529908
 21
-3472.9999999999968168
 31
0.0
1001
ACDBBLOCKREPETAG
1070
     1
1071
      220
1005
129DD1
  0
LINE
  5
129DD2
  8
OBJECT
 10
2054.1802475027529908
 20
-3404.9999999999968168
 30
0.0
 11
1940.1802475027529908
 21
-3404.9999999999968168
 31
0.0
1001
ACDBBLOCKREPETAG
1070
     1
1071
      221
1005
129DD2
  0
LINE
  5
129DD3
  8
OBJECT
 10
2054.1802475027529908
 20
-3404.9999999999968168
 30
0.0
 11
2054.1802475027529908
 21
-3472.9999999999968168
 31
0.0
1001
ACDBBLOCKREPETAG
1070
     1
1071
      222
1005
129DD3
  0
LINE
  5
129DD4
  8
CENTER
 10
1997.1802475027529908
 20
-3389.9999999999968168
 30
0.0
 11
1997.1802475027529908
 21
-3614.9999999999968168
 31
0.0
1001
ACDBBLOCKREPETAG
1070
     1
1071
      223
1005
129DD4
  0
LINE
  5
129DD5
  8
HIDDEN
 10
2049.6802475027539003
 20
-3404.9999999999968168
 30
0.0
 11
2049.6802475027539003
 21
-3478.9999999999968168
 31
0.0
1001
ACDBBLOCKREPETAG
1070
     1
1071
      224
1005
129DD5
  0
LINE
  5
129DD6
  8
HIDDEN
 10
1944.6802475027529908
 20
-3404.9999999999968168
 30
0.0
 11
1944.6802475027529908
 21
-3478.9999999999968168
 31
0.0
1001
ACDBBLOCKREPETAG
1070
     1
1071
      225
1005
129DD6
  0
LINE
  5
129DD7
  8
DIM
 10
2147.1802475027548098
 20
-3241.999999999998181
 30
0.0
 11
2225.6598680972128932
 21
-3241.999999999998181
 31
0.0
  0
LINE
  5
129DD8
  8
DIM
 10
2147.1802475027548098
 20
-3147.999999999998181
 30
0.0
 11
2225.6598680972128932
 21
-3147.999999999998181
 31
0.0
  0
LINE
  5
129DD9
  8
DIM
 10
2215.6598680972138027
 20
-3221.9999999999990905
 30
0.0
 11
2215.6598680972138027
 21
-3167.999999999998181
 31
0.0
  0
INSERT
  5
129DDA
  8
DIM
  2
_OPEN30
 10
2215.6598680972138027
 20
-3241.999999999998181
 30
0.0
 41
20.0
 42
20.0
 43
20.0
 50
270.0
  0
INSERT
  5
129DDB
  8
DIM
  2
_OPEN30
 10
2215.6598680972138027
 20
-3147.999999999998181
 30
0.0
 41
20.0
 42
20.0
 43
20.0
 50
90.0
  0
INSERT
  5
129DDC
  8
OBJECT
  2
*U7
 10
0.0
 20
0.0
 30
0.0
  0
LINE
  5
129DDD
  8
DIM
 10
2147.1802475027548098
 20
-3600.0
 30
0.0
 11
2224.0211759064891339
 21
-3600.0
 31
0.0
  0
LINE
  5
129DDE
  8
DIM
 10
2162.1802475027548098
 20
-3556.0
 30
0.0
 11
2224.0211759064891339
 21
-3556.0
 31
0.0
  0
LINE
  5
129DDF
  8
DIM
 10
2214.0211759064891339
 20
-3620.0
 30
0.0
 11
2214.0211759064891339
 21
-3640.0
 31
0.0
  0
LINE
  5
129DE0
  8
DIM
 10
2214.0211759064891339
 20
-3536.0
 30
0.0
 11
2214.0211759064891339
 21
-3516.0
 31
0.0
  0
LINE
  5
129DE1
  8
DIM
 10
2214.0211759064891339
 20
-3600.0
 30
0.0
 11
2214.0211759064891339
 21
-3556.0
 31
0.0
  0
INSERT
  5
129DE2
  8
DIM
  2
_OPEN30
 10
2214.0211759064891339
 20
-3600.0
 30
0.0
 41
20.0
 42
20.0
 43
20.0
 50
90.0
  0
INSERT
  5
129DE3
  8
DIM
  2
_OPEN30
 10
2214.0211759064891339
 20
-3556.0
 30
0.0
 41
20.0
 42
20.0
 43
20.0
 50
270.0
  0
INSERT
  5
129DE4
  8
OBJECT
  2
*U8
 10
0.0
 20
0.0
 30
0.0
  0
LINE
  5
129DE5
  8
DIM
 10
1997.1802475027529908
 20
-3089.9999999999959073
 30
0.0
 11
1997.1802475027529908
 21
-3057.2081219844449151
 31
0.0
  0
LINE
  5
129DE6
  8
DIM
 10
2137.1802475027548098
 20
-3137.9999999999959073
 30
0.0
 11
2137.1802475027548098
 21
-3057.2081219844449151
 31
0.0
  0
LINE
  5
129DE7
  8
DIM
 10
2017.1802475027539003
 20
-3067.2081219844449151
 30
0.0
 11
2117.1802475027548098
 21
-3067.2081219844449151
 31
0.0
  0
INSERT
  5
129DE8
  8
DIM
  2
_OPEN30
 10
1997.1802475027529908
 20
-3067.2081219844449151
 30
0.0
 41
20.0
 42
20.0
 43
20.0
 50
180.0
  0
INSERT
  5
129DE9
  8
DIM
  2
_OPEN30
 10
2137.1802475027548098
 20
-3067.2081219844449151
 30
0.0
 41
20.0
 42
20.0
 43
20.0
  0
INSERT
  5
129DEA
  8
OBJECT
  2
*U9
 10
0.0
 20
0.0
 30
0.0
  0
LINE
  5
129DEB
  8
OBJECT
 10
5147.1802475027534456
 20
-3452.9999999999968168
 30
0.0
 11
5140.1802475027552646
 21
-3452.9999999999968168
 31
0.0
1001
ACDBBLOCKREPETAG
1070
     1
1071
       64
1005
129DEB
  0
LINE
  5
129DEC
  8
OBJECT
 10
5140.1802475027552646
 20
-3452.9999999999968168
 30
0.0
 11
5140.1802475027552646
 21
-3599.9999999999968168
 31
0.0
1001
ACDBBLOCKREPETAG
1070
     1
1071
       65
1005
129DEC
  0
LINE
  5
129DED
  8
OBJECT
 10
5098.6802475027552646
 20
-3455.9999999999968168
 30
0.0
 11
5098.6802475027552646
 21
-3599.9999999999968168
 31
0.0
1001
ACDBBLOCKREPETAG
1070
     1
1071
       66
1005
129DED
  0
LINE
  5
129DEE
  8
OBJECT
 10
5087.1802475027543551
 20
-3462.4999999999968168
 30
0.0
 11
5087.1802475027543551
 21
-3593.4999999999968168
 31
0.0
1001
ACDBBLOCKREPETAG
1070
     1
1071
       67
1005
129DEE
  0
LINE
  5
129DEF
  8
OBJECT
 10
5083.1802475027534456
 20
-3534.5000000000040927
 30
0.0
 11
5083.1802475027534456
 21
-3599.9999999999968168
 31
0.0
1001
ACDBBLOCKREPETAG
1070
     1
1071
       68
1005
129DEF
  0
LINE
  5
129DF0
  8
OBJECT
 10
5147.1802475027534456
 20
-3599.9999999999968168
 30
0.0
 11
5147.1802475027534456
 21
-3452.9999999999968168
 31
0.0
1001
ACDBBLOCKREPETAG
1070
     1
1071
       69
1005
129DF0
  0
LINE
  5
129DF1
  8
CENTER
 10
5162.1802475027534456
 20
-3527.9999999999968168
 30
0.0
 11
5067.5946619171700149
 21
-3527.9999999999968168
 31
0.0
1001
ACDBBLOCKREPETAG
1070
     1
1071
       70
1005
129DF1
  0
LINE
  5
129DF2
  8
OBJECT
 10
5080.1802475027579931
 20
-3602.9999999999968168
 30
0.0
 11
5077.1802475027534456
 21
-3602.9999999999968168
 31
0.0
1001
ACDBBLOCKREPETAG
1070
     1
1071
       71
1005
129DF2
  0
ARC
  5
129DF3
  8
OBJECT
 10
5089.061764685819071
 20
-3601.4555591801440642
 30
0.0
 40
6.0
 50
60.5241109968676696
 51
170.6927439126847048
1001
ACDBBLOCKREPETAG
1070
     1
1071
       72
1005
129DF3
  0
ARC
  5
129DF4
  8
OBJECT
 10
5080.1802475027534456
 20
-3599.9999999999968168
 30
0.0
 40
3.0
 50
270.0
 51
350.6927439126848185
1001
ACDBBLOCKREPETAG
1070
     1
1071
       73
1005
129DF4
  0
LINE
  5
129DF5
  8
OBJECT
 10
5078.1802475027534456
 20
-3478.9999999999968168
 30
0.0
 11
5077.1802475027534456
 21
-3478.9999999999968168
 31
0.0
1001
ACDBBLOCKREPETAG
1070
     1
1071
       74
1005
129DF5
  0
LINE
  5
129DF6
  8
OBJECT
 10
5147.1802475027534456
 20
-3599.9999999999968168
 30
0.0
 11
5098.6802475027552646
 21
-3599.9999999999968168
 31
0.0
1001
ACDBBLOCKREPETAG
1070
     1
1071
       75
1005
129DF6
  0
LINE
  5
129DF7
  8
OBJECT
 10
5098.6802475027552646
 20
-3455.9999999999968168
 30
0.0
 11
5087.1802475027543551
 21
-3462.4999999999968168
 31
0.0
1001
ACDBBLOCKREPETAG
1070
     1
1071
       76
1005
129DF7
  0
LINE
  5
129DF8
  8
OBJECT
 10
5140.1802475027552646
 20
-3455.9999999999968168
 30
0.0
 11
5098.6802475027552646
 21
-3455.9999999999968168
 31
0.0
1001
ACDBBLOCKREPETAG
1070
     1
1071
       77
1005
129DF8
  0
LINE
  5
129DF9
  8
OBJECT
 10
5083.1802475027534456
 20
-3534.5000000000040927
 30
0.0
 11
5078.1802475027534456
 21
-3478.9999999999968168
 31
0.0
1001
ACDBBLOCKREPETAG
1070
     1
1071
       78
1005
129DF9
  0
LINE
  5
129DFA
  8
OBJECT
 10
5087.1802475027543551
 20
-3462.4999999999968168
 30
0.0
 11
5078.1802475027534456
 21
-3478.9999999999968168
 31
0.0
1001
ACDBBLOCKREPETAG
1070
     1
1071
       79
1005
129DFA
  0
LINE
  5
129DFB
  8
OBJECT
 10
5098.6802475027552646
 20
-3599.9999999999968168
 30
0.0
 11
5092.0141082258269307
 21
-3596.2321821478199126
 31
0.0
1001
ACDBBLOCKREPETAG
1070
     1
1071
       80
1005
129DFB
  0
LINE
  5
129DFC
  8
HIDDEN
 10
5095.1802475027534456
 20
-3584.9999999999968168
 30
0.0
 11
5095.1802475027534456
 21
-3470.9999999999968168
 31
0.0
1001
ACDBBLOCKREPETAG
1070
     1
1071
       81
1005
129DFC
  0
LINE
  5
129DFD
  8
OBJECT
 10
5147.1802475027534456
 20
-3119.9999999999959073
 30
0.0
 11
5140.1802475027552646
 21
-3119.9999999999959073
 31
0.0
1001
ACDBBLOCKREPETAG
1070
     1
1071
       67
1005
129DFD
  0
LINE
  5
129DFE
  8
OBJECT
 10
5140.1802475027552646
 20
-3119.9999999999959073
 30
0.0
 11
5140.1802475027552646
 21
-3269.9999999999959073
 31
0.0
1001
ACDBBLOCKREPETAG
1070
     1
1071
       68
1005
129DFE
  0
LINE
  5
129DFF
  8
OBJECT
 10
5098.6802475027552646
 20
-3122.9999999999959073
 30
0.0
 11
5098.6802475027552646
 21
-3266.9999999999959073
 31
0.0
1001
ACDBBLOCKREPETAG
1070
     1
1071
       69
1005
129DFF
  0
LINE
  5
129E00
  8
OBJECT
 10
5087.1802475027543551
 20
-3129.4999999999959073
 30
0.0
 11
5087.1802475027543551
 21
-3260.4999999999959073
 31
0.0
1001
ACDBBLOCKREPETAG
1070
     1
1071
       70
1005
129E00
  0
LINE
  5
129E01
  8
OBJECT
 10
5140.1802475027552646
 20
-3269.9999999999959073
 30
0.0
 11
5147.1802475027534456
 21
-3269.9999999999959073
 31
0.0
1001
ACDBBLOCKREPETAG
1070
     1
1071
       71
1005
129E01
  0
LINE
  5
129E02
  8
OBJECT
 10
5147.1802475027534456
 20
-3269.9999999999959073
 30
0.0
 11
5147.1802475027534456
 21
-3119.9999999999959073
 31
0.0
1001
ACDBBLOCKREPETAG
1070
     1
1071
       72
1005
129E02
  0
LINE
  5
129E03
  8
HIDDEN
 10
5095.1802475027534456
 20
-3251.9999999999959073
 30
0.0
 11
5095.1802475027534456
 21
-3137.9999999999959073
 31
0.0
1001
ACDBBLOCKREPETAG
1070
     1
1071
       73
1005
129E03
  0
LINE
  5
129E04
  8
CENTER
 10
5162.1802475027534456
 20
-3194.9999999999959073
 30
0.0
 11
5077.1802475027534456
 21
-3194.9999999999959073
 31
0.0
1001
ACDBBLOCKREPETAG
1070
     1
1071
       74
1005
129E04
  0
LINE
  5
129E05
  8
OBJECT
 10
5083.1802475027534456
 20
-3256.9999999999959073
 30
0.0
 11
5077.1802475027534456
 21
-3256.9999999999959073
 31
0.0
1001
ACDBBLOCKREPETAG
1070
     1
1071
       75
1005
129E05
  0
LINE
  5
129E06
  8
OBJECT
 10
5140.1802475027552646
 20
-3266.9999999999959073
 30
0.0
 11
5098.6802475027552646
 21
-3266.9999999999959073
 31
0.0
1001
ACDBBLOCKREPETAG
1070
     1
1071
       76
1005
129E06
  0
LINE
  5
129E07
  8
OBJECT
 10
5098.6802475027552646
 20
-3266.9999999999959073
 30
0.0
 11
5087.1802475027543551
 21
-3260.4999999999959073
 31
0.0
1001
ACDBBLOCKREPETAG
1070
     1
1071
       77
1005
129E07
  0
LINE
  5
129E08
  8
OBJECT
 10
5087.1802475027543551
 20
-3260.4999999999959073
 30
0.0
 11
5083.1802475027534456
 21
-3256.9999999999959073
 31
0.0
1001
ACDBBLOCKREPETAG
1070
     1
1071
       78
1005
129E08
  0
LINE
  5
129E09
  8
OBJECT
 10
5098.6802475027552646
 20
-3122.9999999999959073
 30
0.0
 11
5087.1802475027543551
 21
-3129.4999999999959073
 31
0.0
1001
ACDBBLOCKREPETAG
1070
     1
1071
       79
1005
129E09
  0
LINE
  5
129E0A
  8
OBJECT
 10
5087.1802475027543551
 20
-3129.4999999999959073
 30
0.0
 11
5083.1802475027534456
 21
-3132.9999999999959073
 31
0.0
1001
ACDBBLOCKREPETAG
1070
     1
1071
       80
1005
129E0A
  0
ARC
  5
129E0B
  8
OBJECT
 10
5465.0802475027558103
 20
-3194.9999999999959073
 30
0.0
 40
386.8999999999999773
 50
170.7787013626042096
 51
189.2212986373957051
1001
ACDBBLOCKREPETAG
1070
     1
1071
       81
1005
129E0B
  0
LINE
  5
129E0C
  8
OBJECT
 10
5083.1802475027534456
 20
-3132.9999999999959073
 30
0.0
 11
5077.1802475027534456
 21
-3132.9999999999959073
 31
0.0
1001
ACDBBLOCKREPETAG
1070
     1
1071
       82
1005
129E0C
  0
LINE
  5
129E0D
  8
OBJECT
 10
5140.1802475027552646
 20
-3122.9999999999959073
 30
0.0
 11
5098.6802475027552646
 21
-3122.9999999999959073
 31
0.0
1001
ACDBBLOCKREPETAG
1070
     1
1071
       83
1005
129E0D
  0
TEXT
  5
129E0E
  8
SLIM
 10
4881.4302475027552646
 20
-3717.4999999999959073
 30
0.0
 40
35.0
  1
通常枝100（4）
 41
0.75
  0
LINE
  5
129E0F
  8
CENTER
 10
4474.1802475027534456
 20
-3540.9999999999968168
 30
0.0
 11
4320.1802475027534456
 21
-3540.9999999999968168
 31
0.0
1001
ACDBBLOCKREPETAG
1070
     1
1071
       17
1005
129E0F
  0
CIRCLE
  5
129E10
  8
OBJECT
 10
4397.1802475027516266
 20
-3540.9999999999968168
 30
0.0
 40
41.5
1001
ACDBBLOCKREPETAG
1070
     1
1071
       19
1005
129E10
  0
CIRCLE
  5
129E11
  8
OBJECT
 10
4397.1802475027516266
 20
-3540.9999999999968168
 30
0.0
 40
54.0
1001
ACDBBLOCKREPETAG
1070
     1
1071
       20
1005
129E11
  0
ARC
  5
129E12
  8
OBJECT
 10
4397.1802475027516266
 20
-3540.9999999999968168
 30
0.0
 40
62.0
 50
287.8965511292112751
 51
252.1034488707886965
1001
ACDBBLOCKREPETAG
1070
     1
1071
       21
1005
129E12
  0
LINE
  5
129E13
  8
OBJECT
 10
4378.1276886194973486
 20
-3599.9999999999968168
 30
0.0
 11
4416.2328063860122711
 21
-3599.9999999999968168
 31
0.0
1001
ACDBBLOCKREPETAG
1070
     1
1071
       22
1005
129E13
  0
LINE
  5
129E14
  8
OBJECT
 10
4130.1802475027516266
 20
-3478.9999999999968168
 30
0.0
 11
4137.1802475027534456
 21
-3478.9999999999968168
 31
0.0
1001
ACDBBLOCKREPETAG
1070
     1
1071
       45
1005
129E14
  0
LINE
  5
129E15
  8
OBJECT
 10
4137.1802475027534456
 20
-3478.9999999999968168
 30
0.0
 11
4137.1802475027534456
 21
-3599.9999999999968168
 31
0.0
1001
ACDBBLOCKREPETAG
1070
     1
1071
       46
1005
129E15
  0
LINE
  5
129E16
  8
OBJECT
 10
4130.1802475027516266
 20
-3599.9999999999968168
 30
0.0
 11
4130.1802475027516266
 21
-3478.9999999999968168
 31
0.0
1001
ACDBBLOCKREPETAG
1070
     1
1071
       47
1005
129E16
  0
LINE
  5
129E17
  8
CENTER
 10
4152.1802475027516266
 20
-3540.9999999999968168
 30
0.0
 11
4068.1802475027548098
 21
-3540.9999999999968168
 31
0.0
1001
ACDBBLOCKREPETAG
1070
     1
1071
       48
1005
129E17
  0
LINE
  5
129E18
  8
OBJECT
 10
4130.1802475027516266
 20
-3481.9999999999968168
 30
0.0
 11
4094.1802475027529908
 21
-3481.9999999999968168
 31
0.0
1001
ACDBBLOCKREPETAG
1070
     1
1071
       49
1005
129E18
  0
LINE
  5
129E19
  8
OBJECT
 10
4094.1802475027529908
 20
-3481.9999999999968168
 30
0.0
 11
4094.1802475027529908
 21
-3599.9999999999968168
 31
0.0
1001
ACDBBLOCKREPETAG
1070
     1
1071
       50
1005
129E19
  0
LINE
  5
129E1A
  8
OBJECT
 10
4094.1802475027529908
 20
-3599.9999999999968168
 30
0.0
 11
4137.1802475027534456
 21
-3599.9999999999968168
 31
0.0
1001
ACDBBLOCKREPETAG
1070
     1
1071
       51
1005
129E1A
  0
LINE
  5
129E1B
  8
OBJECT
 10
4090.1802475027529908
 20
-3486.4999999999968168
 30
0.0
 11
4083.1802475027520813
 21
-3486.4999999999968168
 31
0.0
1001
ACDBBLOCKREPETAG
1070
     1
1071
       52
1005
129E1B
  0
LINE
  5
129E1C
  8
OBJECT
 10
4083.1802475027520813
 20
-3595.4999999999968168
 30
0.0
 11
4090.1802475027529908
 21
-3595.4999999999968168
 31
0.0
1001
ACDBBLOCKREPETAG
1070
     1
1071
       53
1005
129E1C
  0
LINE
  5
129E1D
  8
OBJECT
 10
4090.1802475027529908
 20
-3595.4999999999968168
 30
0.0
 11
4090.1802475027529908
 21
-3486.4999999999968168
 31
0.0
1001
ACDBBLOCKREPETAG
1070
     1
1071
       54
1005
129E1D
  0
LINE
  5
129E1E
  8
OBJECT
 10
4094.1802475027529908
 20
-3481.9999999999968168
 30
0.0
 11
4090.1802475027529908
 21
-3486.4999999999968168
 31
0.0
1001
ACDBBLOCKREPETAG
1070
     1
1071
       55
1005
129E1E
  0
LINE
  5
129E1F
  8
OBJECT
 10
4094.1802475027529908
 20
-3599.9999999999968168
 30
0.0
 11
4090.1802475027529908
 21
-3595.4999999999968168
 31
0.0
1001
ACDBBLOCKREPETAG
1070
     1
1071
       56
1005
129E1F
  0
LINE
  5
129E20
  8
OBJECT
 10
4080.1802475027520813
 20
-3478.9999999999968168
 30
0.0
 11
4077.1802475027520813
 21
-3478.9999999999968168
 31
0.0
1001
ACDBBLOCKREPETAG
1070
     1
1071
       57
1005
129E20
  0
ARC
  5
129E21
  8
OBJECT
 10
4080.1802475027520813
 20
-3481.9999999999968168
 30
0.0
 40
3.0
 50
0.0
 51
90.0
1001
ACDBBLOCKREPETAG
1070
     1
1071
       58
1005
129E21
  0
LINE
  5
129E22
  8
OBJECT
 10
4077.1802475027520813
 20
-3602.9999999999968168
 30
0.0
 11
4080.1802475027520813
 21
-3602.9999999999968168
 31
0.0
1001
ACDBBLOCKREPETAG
1070
     1
1071
       59
1005
129E22
  0
ARC
  5
129E23
  8
OBJECT
 10
4080.1802475027520813
 20
-3599.9999999999968168
 30
0.0
 40
3.0
 50
270.0
 51
0.0
1001
ACDBBLOCKREPETAG
1070
     1
1071
       60
1005
129E23
  0
LINE
  5
129E24
  8
OBJECT
 10
4083.1802475027520813
 20
-3599.9999999999968168
 30
0.0
 11
4083.1802475027520813
 21
-3481.9999999999968168
 31
0.0
1001
ACDBBLOCKREPETAG
1070
     1
1071
       61
1005
129E24
  0
LINE
  5
129E25
  8
HIDDEN
 10
4085.1802475027529908
 20
-3496.4999999999968168
 30
0.0
 11
4085.1802475027529908
 21
-3585.4999999999968168
 31
0.0
1001
ACDBBLOCKREPETAG
1070
     1
1071
       63
1005
129E25
  0
LINE
  5
129E26
  8
OBJECT
 10
4130.1802475027516266
 20
-3132.9999999999959073
 30
0.0
 11
4137.1802475027534456
 21
-3132.9999999999959073
 31
0.0
1001
ACDBBLOCKREPETAG
1070
     1
1071
       47
1005
129E26
  0
LINE
  5
129E27
  8
OBJECT
 10
4137.1802475027534456
 20
-3132.9999999999959073
 30
0.0
 11
4137.1802475027534456
 21
-3256.9999999999959073
 31
0.0
1001
ACDBBLOCKREPETAG
1070
     1
1071
       48
1005
129E27
  0
LINE
  5
129E28
  8
OBJECT
 10
4137.1802475027534456
 20
-3256.9999999999959073
 30
0.0
 11
4130.1802475027516266
 21
-3256.9999999999959073
 31
0.0
1001
ACDBBLOCKREPETAG
1070
     1
1071
       49
1005
129E28
  0
LINE
  5
129E29
  8
OBJECT
 10
4130.1802475027516266
 20
-3256.9999999999959073
 30
0.0
 11
4130.1802475027516266
 21
-3132.9999999999959073
 31
0.0
1001
ACDBBLOCKREPETAG
1070
     1
1071
       50
1005
129E29
  0
LINE
  5
129E2A
  8
CENTER
 10
4152.1802475027516266
 20
-3194.9999999999959073
 30
0.0
 11
4077.1802475027520813
 21
-3194.9999999999959073
 31
0.0
1001
ACDBBLOCKREPETAG
1070
     1
1071
       51
1005
129E2A
  0
LINE
  5
129E2B
  8
OBJECT
 10
4130.1802475027516266
 20
-3135.9999999999959073
 30
0.0
 11
4094.1802475027529908
 21
-3135.9999999999959073
 31
0.0
1001
ACDBBLOCKREPETAG
1070
     1
1071
       52
1005
129E2B
  0
LINE
  5
129E2C
  8
OBJECT
 10
4094.1802475027529908
 20
-3135.9999999999959073
 30
0.0
 11
4094.1802475027529908
 21
-3253.9999999999959073
 31
0.0
1001
ACDBBLOCKREPETAG
1070
     1
1071
       53
1005
129E2C
  0
LINE
  5
129E2D
  8
OBJECT
 10
4094.1802475027529908
 20
-3253.9999999999959073
 30
0.0
 11
4130.1802475027516266
 21
-3253.9999999999959073
 31
0.0
1001
ACDBBLOCKREPETAG
1070
     1
1071
       54
1005
129E2D
  0
LINE
  5
129E2E
  8
OBJECT
 10
4090.1802475027529908
 20
-3140.4999999999959073
 30
0.0
 11
4083.1802475027520813
 21
-3140.4999999999959073
 31
0.0
1001
ACDBBLOCKREPETAG
1070
     1
1071
       55
1005
129E2E
  0
LINE
  5
129E2F
  8
OBJECT
 10
4083.1802475027520813
 20
-3249.4999999999959073
 30
0.0
 11
4090.1802475027529908
 21
-3249.4999999999959073
 31
0.0
1001
ACDBBLOCKREPETAG
1070
     1
1071
       56
1005
129E2F
  0
LINE
  5
129E30
  8
OBJECT
 10
4090.1802475027529908
 20
-3249.4999999999959073
 30
0.0
 11
4090.1802475027529908
 21
-3140.4999999999959073
 31
0.0
1001
ACDBBLOCKREPETAG
1070
     1
1071
       57
1005
129E30
  0
LINE
  5
129E31
  8
OBJECT
 10
4094.1802475027529908
 20
-3135.9999999999959073
 30
0.0
 11
4090.1802475027529908
 21
-3140.4999999999959073
 31
0.0
1001
ACDBBLOCKREPETAG
1070
     1
1071
       58
1005
129E31
  0
LINE
  5
129E32
  8
OBJECT
 10
4094.1802475027529908
 20
-3253.9999999999959073
 30
0.0
 11
4090.1802475027529908
 21
-3249.4999999999959073
 31
0.0
1001
ACDBBLOCKREPETAG
1070
     1
1071
       59
1005
129E32
  0
LINE
  5
129E33
  8
OBJECT
 10
4080.1802475027520813
 20
-3132.9999999999959073
 30
0.0
 11
4077.1802475027520813
 21
-3132.9999999999959073
 31
0.0
1001
ACDBBLOCKREPETAG
1070
     1
1071
       60
1005
129E33
  0
ARC
  5
129E34
  8
OBJECT
 10
4080.1802475027520813
 20
-3135.9999999999959073
 30
0.0
 40
3.0
 50
0.0
 51
90.0
1001
ACDBBLOCKREPETAG
1070
     1
1071
       61
1005
129E34
  0
LINE
  5
129E35
  8
OBJECT
 10
4077.1802475027520813
 20
-3256.9999999999959073
 30
0.0
 11
4080.1802475027520813
 21
-3256.9999999999959073
 31
0.0
1001
ACDBBLOCKREPETAG
1070
     1
1071
       62
1005
129E35
  0
ARC
  5
129E36
  8
OBJECT
 10
4080.1802475027520813
 20
-3253.9999999999959073
 30
0.0
 40
3.0
 50
270.0
 51
0.0
1001
ACDBBLOCKREPETAG
1070
     1
1071
       63
1005
129E36
  0
LINE
  5
129E37
  8
OBJECT
 10
4083.1802475027520813
 20
-3253.9999999999959073
 30
0.0
 11
4083.1802475027520813
 21
-3135.9999999999959073
 31
0.0
1001
ACDBBLOCKREPETAG
1070
     1
1071
       64
1005
129E37
  0
LINE
  5
129E38
  8
HIDDEN
 10
4085.1802475027529908
 20
-3150.4999999999959073
 30
0.0
 11
4085.1802475027529908
 21
-3239.4999999999959073
 31
0.0
1001
ACDBBLOCKREPETAG
1070
     1
1071
       65
1005
129E38
  0
TEXT
  5
129E39
  8
SLIM
 10
3891.4302475027548098
 20
-3717.4999999999959073
 30
0.0
 40
35.0
  1
通常枝75（3）
 41
0.75
  0
CIRCLE
  5
129E3A
  8
OBJECT
 10
3397.1802475027548098
 20
-3547.9999999999968168
 30
0.0
 40
35.5
1001
ACDBBLOCKREPETAG
1070
     1
1071
       10
1005
129E3A
  0
CIRCLE
  5
129E3B
  8
OBJECT
 10
3397.1802475027548098
 20
-3540.9999999999968168
 30
0.0
 40
62.0
1001
ACDBBLOCKREPETAG
1070
     1
1071
       11
1005
129E3B
  0
LINE
  5
129E3C
  8
CENTER
 10
3327.1802475027539003
 20
-3547.9999999999968168
 30
0.0
 11
3467.1802475027548098
 21
-3547.9999999999968168
 31
0.0
1001
ACDBBLOCKREPETAG
1070
     1
1071
       12
1005
129E3C
  0
CIRCLE
  5
129E3D
  8
OBJECT
 10
3397.1802475027548098
 20
-3547.9999999999968168
 30
0.0
 40
47.0
1001
ACDBBLOCKREPETAG
1070
     1
1071
       14
1005
129E3D
  0
ARC
  5
129E3E
  8
OBJECT
 10
3397.1802475027548098
 20
-3547.9999999999968168
 30
0.0
 40
55.0
 50
289.0112652601135892
 51
250.9887347398864108
1001
ACDBBLOCKREPETAG
1070
     1
1071
       15
1005
129E3E
  0
LINE
  5
129E3F
  8
OBJECT
 10
3379.2637746355881063
 20
-3599.9999999999968168
 30
0.0
 11
3415.0967203699210586
 21
-3599.9999999999968168
 31
0.0
1001
ACDBBLOCKREPETAG
1070
     1
1071
       16
1005
129E3F
  0
LINE
  5
129E40
  8
OBJECT
 10
3130.1802475027539003
 20
-3492.9999999999968168
 30
0.0
 11
3137.1802475027548098
 21
-3492.9999999999968168
 31
0.0
1001
ACDBBLOCKREPETAG
1070
     1
1071
       26
1005
129E40
  0
LINE
  5
129E41
  8
OBJECT
 10
3137.1802475027548098
 20
-3492.9999999999968168
 30
0.0
 11
3137.1802475027548098
 21
-3599.9999999999968168
 31
0.0
1001
ACDBBLOCKREPETAG
1070
     1
1071
       27
1005
129E41
  0
LINE
  5
129E42
  8
OBJECT
 10
3130.1802475027539003
 20
-3599.9999999999968168
 30
0.0
 11
3130.1802475027539003
 21
-3492.9999999999968168
 31
0.0
1001
ACDBBLOCKREPETAG
1070
     1
1071
       28
1005
129E42
  0
LINE
  5
129E43
  8
CENTER
 10
3152.1802475027548098
 20
-3547.9999999999968168
 30
0.0
 11
3068.1802475027548098
 21
-3547.9999999999968168
 31
0.0
1001
ACDBBLOCKREPETAG
1070
     1
1071
       29
1005
129E43
  0
LINE
  5
129E44
  8
OBJECT
 10
3130.1802475027539003
 20
-3495.9999999999968168
 30
0.0
 11
3094.1802475027539003
 21
-3495.9999999999968168
 31
0.0
1001
ACDBBLOCKREPETAG
1070
     1
1071
       30
1005
129E44
  0
LINE
  5
129E45
  8
OBJECT
 10
3094.1802475027539003
 20
-3495.9999999999968168
 30
0.0
 11
3094.1802475027539003
 21
-3599.9999999999968168
 31
0.0
1001
ACDBBLOCKREPETAG
1070
     1
1071
       31
1005
129E45
  0
LINE
  5
129E46
  8
OBJECT
 10
3094.1802475027539003
 20
-3599.9999999999968168
 30
0.0
 11
3137.1802475027548098
 21
-3599.9999999999968168
 31
0.0
1001
ACDBBLOCKREPETAG
1070
     1
1071
       32
1005
129E46
  0
LINE
  5
129E47
  8
OBJECT
 10
3090.1802475027529908
 20
-3500.4999999999968168
 30
0.0
 11
3083.1802475027548098
 21
-3500.4999999999968168
 31
0.0
1001
ACDBBLOCKREPETAG
1070
     1
1071
       33
1005
129E47
  0
LINE
  5
129E48
  8
OBJECT
 10
3083.1802475027548098
 20
-3595.4999999999968168
 30
0.0
 11
3090.1802475027529908
 21
-3595.4999999999968168
 31
0.0
1001
ACDBBLOCKREPETAG
1070
     1
1071
       34
1005
129E48
  0
LINE
  5
129E49
  8
OBJECT
 10
3090.1802475027529908
 20
-3595.4999999999968168
 30
0.0
 11
3090.1802475027529908
 21
-3500.4999999999968168
 31
0.0
1001
ACDBBLOCKREPETAG
1070
     1
1071
       35
1005
129E49
  0
LINE
  5
129E4A
  8
OBJECT
 10
3094.1802475027539003
 20
-3495.9999999999968168
 30
0.0
 11
3090.1802475027529908
 21
-3500.4999999999968168
 31
0.0
1001
ACDBBLOCKREPETAG
1070
     1
1071
       36
1005
129E4A
  0
LINE
  5
129E4B
  8
OBJECT
 10
3094.1802475027539003
 20
-3599.9999999999968168
 30
0.0
 11
3090.1802475027529908
 21
-3595.4999999999968168
 31
0.0
1001
ACDBBLOCKREPETAG
1070
     1
1071
       37
1005
129E4B
  0
LINE
  5
129E4C
  8
OBJECT
 10
3080.1802475027548098
 20
-3478.9999999999968168
 30
0.0
 11
3077.1802475027539003
 21
-3478.9999999999968168
 31
0.0
1001
ACDBBLOCKREPETAG
1070
     1
1071
       38
1005
129E4C
  0
ARC
  5
129E4D
  8
OBJECT
 10
3080.1802475027548098
 20
-3481.9999999999968168
 30
0.0
 40
3.0
 50
0.0
 51
90.0
1001
ACDBBLOCKREPETAG
1070
     1
1071
       39
1005
129E4D
  0
LINE
  5
129E4E
  8
OBJECT
 10
3077.1802475027539003
 20
-3602.9999999999968168
 30
0.0
 11
3080.1802475027548098
 21
-3602.9999999999968168
 31
0.0
1001
ACDBBLOCKREPETAG
1070
     1
1071
       40
1005
129E4E
  0
ARC
  5
129E4F
  8
OBJECT
 10
3080.1802475027548098
 20
-3599.9999999999968168
 30
0.0
 40
3.0
 50
270.0
 51
0.0
1001
ACDBBLOCKREPETAG
1070
     1
1071
       41
1005
129E4F
  0
LINE
  5
129E50
  8
OBJECT
 10
3083.1802475027548098
 20
-3599.9999999999968168
 30
0.0
 11
3083.1802475027548098
 21
-3481.9999999999968168
 31
0.0
1001
ACDBBLOCKREPETAG
1070
     1
1071
       42
1005
129E50
  0
LINE
  5
129E51
  8
HIDDEN
 10
3085.1802475027539003
 20
-3509.9999999999968168
 30
0.0
 11
3085.1802475027539003
 21
-3585.9999999999968168
 31
0.0
1001
ACDBBLOCKREPETAG
1070
     1
1071
       43
1005
129E51
  0
LINE
  5
129E52
  8
OBJECT
 10
3130.1802475027539003
 20
-3139.9999999999959073
 30
0.0
 11
3137.1802475027548098
 21
-3139.9999999999959073
 31
0.0
1001
ACDBBLOCKREPETAG
1070
     1
1071
       27
1005
129E52
  0
LINE
  5
129E53
  8
OBJECT
 10
3137.1802475027548098
 20
-3139.9999999999959073
 30
0.0
 11
3137.1802475027548098
 21
-3249.9999999999959073
 31
0.0
1001
ACDBBLOCKREPETAG
1070
     1
1071
       28
1005
129E53
  0
LINE
  5
129E54
  8
OBJECT
 10
3137.1802475027548098
 20
-3249.9999999999959073
 30
0.0
 11
3130.1802475027539003
 21
-3249.9999999999959073
 31
0.0
1001
ACDBBLOCKREPETAG
1070
     1
1071
       29
1005
129E54
  0
LINE
  5
129E55
  8
OBJECT
 10
3130.1802475027539003
 20
-3249.9999999999959073
 30
0.0
 11
3130.1802475027539003
 21
-3139.9999999999959073
 31
0.0
1001
ACDBBLOCKREPETAG
1070
     1
1071
       30
1005
129E55
  0
LINE
  5
129E56
  8
CENTER
 10
3152.1802475027548098
 20
-3194.9999999999959073
 30
0.0
 11
3077.1802475027539003
 21
-3194.9999999999959073
 31
0.0
1001
ACDBBLOCKREPETAG
1070
     1
1071
       31
1005
129E56
  0
LINE
  5
129E57
  8
OBJECT
 10
3130.1802475027539003
 20
-3142.9999999999959073
 30
0.0
 11
3094.1802475027539003
 21
-3142.9999999999959073
 31
0.0
1001
ACDBBLOCKREPETAG
1070
     1
1071
       32
1005
129E57
  0
LINE
  5
129E58
  8
OBJECT
 10
3094.1802475027539003
 20
-3142.9999999999959073
 30
0.0
 11
3094.1802475027539003
 21
-3246.9999999999959073
 31
0.0
1001
ACDBBLOCKREPETAG
1070
     1
1071
       33
1005
129E58
  0
LINE
  5
129E59
  8
OBJECT
 10
3094.1802475027539003
 20
-3246.9999999999959073
 30
0.0
 11
3130.1802475027539003
 21
-3246.9999999999959073
 31
0.0
1001
ACDBBLOCKREPETAG
1070
     1
1071
       34
1005
129E59
  0
LINE
  5
129E5A
  8
OBJECT
 10
3090.1802475027529908
 20
-3147.4999999999959073
 30
0.0
 11
3083.1802475027548098
 21
-3147.4999999999959073
 31
0.0
1001
ACDBBLOCKREPETAG
1070
     1
1071
       35
1005
129E5A
  0
LINE
  5
129E5B
  8
OBJECT
 10
3083.1802475027548098
 20
-3242.4999999999959073
 30
0.0
 11
3090.1802475027529908
 21
-3242.4999999999959073
 31
0.0
1001
ACDBBLOCKREPETAG
1070
     1
1071
       36
1005
129E5B
  0
LINE
  5
129E5C
  8
OBJECT
 10
3090.1802475027529908
 20
-3242.4999999999959073
 30
0.0
 11
3090.1802475027529908
 21
-3147.4999999999959073
 31
0.0
1001
ACDBBLOCKREPETAG
1070
     1
1071
       37
1005
129E5C
  0
LINE
  5
129E5D
  8
OBJECT
 10
3094.1802475027539003
 20
-3142.9999999999959073
 30
0.0
 11
3090.1802475027529908
 21
-3147.4999999999959073
 31
0.0
1001
ACDBBLOCKREPETAG
1070
     1
1071
       38
1005
129E5D
  0
LINE
  5
129E5E
  8
OBJECT
 10
3094.1802475027539003
 20
-3246.9999999999959073
 30
0.0
 11
3090.1802475027529908
 21
-3242.4999999999959073
 31
0.0
1001
ACDBBLOCKREPETAG
1070
     1
1071
       39
1005
129E5E
  0
LINE
  5
129E5F
  8
OBJECT
 10
3080.1802475027548098
 20
-3132.9999999999959073
 30
0.0
 11
3077.1802475027539003
 21
-3132.9999999999959073
 31
0.0
1001
ACDBBLOCKREPETAG
1070
     1
1071
       40
1005
129E5F
  0
ARC
  5
129E60
  8
OBJECT
 10
3080.1802475027548098
 20
-3135.9999999999959073
 30
0.0
 40
3.0
 50
0.0
 51
90.0
1001
ACDBBLOCKREPETAG
1070
     1
1071
       41
1005
129E60
  0
LINE
  5
129E61
  8
OBJECT
 10
3077.1802475027539003
 20
-3256.9999999999959073
 30
0.0
 11
3080.1802475027548098
 21
-3256.9999999999959073
 31
0.0
1001
ACDBBLOCKREPETAG
1070
     1
1071
       42
1005
129E61
  0
ARC
  5
129E62
  8
OBJECT
 10
3080.1802475027548098
 20
-3253.9999999999959073
 30
0.0
 40
3.0
 50
270.0
 51
0.0
1001
ACDBBLOCKREPETAG
1070
     1
1071
       43
1005
129E62
  0
LINE
  5
129E63
  8
OBJECT
 10
3083.1802475027548098
 20
-3253.9999999999959073
 30
0.0
 11
3083.1802475027548098
 21
-3135.9999999999959073
 31
0.0
1001
ACDBBLOCKREPETAG
1070
     1
1071
       44
1005
129E63
  0
LINE
  5
129E64
  8
HIDDEN
 10
3085.1802475027539003
 20
-3156.9999999999959073
 30
0.0
 11
3085.1802475027539003
 21
-3232.9999999999959073
 31
0.0
1001
ACDBBLOCKREPETAG
1070
     1
1071
       45
1005
129E64
  0
TEXT
  5
129E65
  8
SLIM
 10
2891.4302475027539003
 20
-3717.4999999999959073
 30
0.0
 40
35.0
  1
通常枝65（2）
 41
0.75
  0
CIRCLE
  5
129E66
  8
OBJECT
 10
2397.1802475027539003
 20
-3540.9999999999968168
 30
0.0
 40
62.0
1001
ACDBBLOCKREPETAG
1070
     1
1071
        3
1005
129E66
  0
LINE
  5
129E67
  8
CENTER
 10
2335.1802475027539003
 20
-3555.9999999999968168
 30
0.0
 11
2459.1802475027548098
 21
-3555.9999999999968168
 31
0.0
1001
ACDBBLOCKREPETAG
1070
     1
1071
        4
1005
129E67
  0
CIRCLE
  5
129E68
  8
OBJECT
 10
2397.1802475027539003
 20
-3555.9999999999968168
 30
0.0
 40
28.0
1001
ACDBBLOCKREPETAG
1070
     1
1071
        6
1005
129E68
  0
CIRCLE
  5
129E69
  8
OBJECT
 10
2397.1802475027539003
 20
-3555.9999999999968168
 30
0.0
 40
39.0
1001
ACDBBLOCKREPETAG
1070
     1
1071
        7
1005
129E69
  0
ARC
  5
129E6A
  8
OBJECT
 10
2397.1802475027539003
 20
-3555.9999999999968168
 30
0.0
 40
47.0
 50
290.5819692114441182
 51
249.4180307885559102
1001
ACDBBLOCKREPETAG
1070
     1
1071
        8
1005
129E6A
  0
LINE
  5
129E6B
  8
OBJECT
 10
2380.6575358608970419
 20
-3599.9999999999968168
 30
0.0
 11
2413.7029591446121231
 21
-3599.9999999999968168
 31
0.0
1001
ACDBBLOCKREPETAG
1070
     1
1071
        9
1005
129E6B
  0
LINE
  5
129E6C
  8
OBJECT
 10
2130.1802475027539003
 20
-3508.9999999999968168
 30
0.0
 11
2137.1802475027548098
 21
-3508.9999999999968168
 31
0.0
1001
ACDBBLOCKREPETAG
1070
     1
1071
        7
1005
129E6C
  0
LINE
  5
129E6D
  8
OBJECT
 10
2137.1802475027548098
 20
-3508.9999999999968168
 30
0.0
 11
2137.1802475027548098
 21
-3599.9999999999968168
 31
0.0
1001
ACDBBLOCKREPETAG
1070
     1
1071
        8
1005
129E6D
  0
LINE
  5
129E6E
  8
OBJECT
 10
2130.1802475027539003
 20
-3599.9999999999968168
 30
0.0
 11
2130.1802475027539003
 21
-3508.9999999999968168
 31
0.0
1001
ACDBBLOCKREPETAG
1070
     1
1071
        9
1005
129E6E
  0
LINE
  5
129E6F
  8
CENTER
 10
2152.1802475027548098
 20
-3555.9999999999968168
 30
0.0
 11
2068.1802475027548098
 21
-3555.9999999999968168
 31
0.0
1001
ACDBBLOCKREPETAG
1070
     1
1071
       10
1005
129E6F
  0
LINE
  5
129E70
  8
OBJECT
 10
2130.1802475027539003
 20
-3511.9999999999968168
 30
0.0
 11
2094.1802475027529908
 21
-3511.9999999999968168
 31
0.0
1001
ACDBBLOCKREPETAG
1070
     1
1071
       11
1005
129E70
  0
LINE
  5
129E71
  8
OBJECT
 10
2094.1802475027529908
 20
-3511.9999999999968168
 30
0.0
 11
2094.1802475027529908
 21
-3599.9999999999968168
 31
0.0
1001
ACDBBLOCKREPETAG
1070
     1
1071
       12
1005
129E71
  0
LINE
  5
129E72
  8
OBJECT
 10
2094.1802475027529908
 20
-3599.9999999999968168
 30
0.0
 11
2137.1802475027548098
 21
-3599.9999999999968168
 31
0.0
1001
ACDBBLOCKREPETAG
1070
     1
1071
       13
1005
129E72
  0
LINE
  5
129E73
  8
OBJECT
 10
2090.1802475027529908
 20
-3516.4999999999968168
 30
0.0
 11
2083.1802475027529908
 21
-3516.4999999999968168
 31
0.0
1001
ACDBBLOCKREPETAG
1070
     1
1071
       14
1005
129E73
  0
LINE
  5
129E74
  8
OBJECT
 10
2083.1802475027529908
 20
-3595.4999999999968168
 30
0.0
 11
2090.1802475027529908
 21
-3595.4999999999968168
 31
0.0
1001
ACDBBLOCKREPETAG
1070
     1
1071
       15
1005
129E74
  0
LINE
  5
129E75
  8
OBJECT
 10
2090.1802475027529908
 20
-3595.4999999999968168
 30
0.0
 11
2090.1802475027529908
 21
-3516.4999999999968168
 31
0.0
1001
ACDBBLOCKREPETAG
1070
     1
1071
       16
1005
129E75
  0
LINE
  5
129E76
  8
OBJECT
 10
2094.1802475027529908
 20
-3511.9999999999968168
 30
0.0
 11
2090.1802475027529908
 21
-3516.4999999999968168
 31
0.0
1001
ACDBBLOCKREPETAG
1070
     1
1071
       17
1005
129E76
  0
LINE
  5
129E77
  8
OBJECT
 10
2094.1802475027529908
 20
-3599.9999999999968168
 30
0.0
 11
2090.1802475027529908
 21
-3595.4999999999968168
 31
0.0
1001
ACDBBLOCKREPETAG
1070
     1
1071
       18
1005
129E77
  0
LINE
  5
129E78
  8
OBJECT
 10
2080.1802475027539003
 20
-3478.9999999999968168
 30
0.0
 11
2077.1802475027539003
 21
-3478.9999999999968168
 31
0.0
1001
ACDBBLOCKREPETAG
1070
     1
1071
       19
1005
129E78
  0
ARC
  5
129E79
  8
OBJECT
 10
2080.1802475027539003
 20
-3481.9999999999968168
 30
0.0
 40
3.0
 50
0.0
 51
90.0
1001
ACDBBLOCKREPETAG
1070
     1
1071
       20
1005
129E79
  0
LINE
  5
129E7A
  8
OBJECT
 10
2077.1802475027539003
 20
-3602.9999999999968168
 30
0.0
 11
2080.1802475027539003
 21
-3602.9999999999968168
 31
0.0
1001
ACDBBLOCKREPETAG
1070
     1
1071
       21
1005
129E7A
  0
ARC
  5
129E7B
  8
OBJECT
 10
2080.1802475027539003
 20
-3599.9999999999968168
 30
0.0
 40
3.0
 50
270.0
 51
0.0
1001
ACDBBLOCKREPETAG
1070
     1
1071
       22
1005
129E7B
  0
LINE
  5
129E7C
  8
OBJECT
 10
2083.1802475027529908
 20
-3599.9999999999968168
 30
0.0
 11
2083.1802475027529908
 21
-3481.9999999999968168
 31
0.0
1001
ACDBBLOCKREPETAG
1070
     1
1071
       23
1005
129E7C
  0
LINE
  5
129E7D
  8
HIDDEN
 10
2085.1802475027539003
 20
-3525.9999999999968168
 30
0.0
 11
2085.1802475027539003
 21
-3585.9999999999968168
 31
0.0
1001
ACDBBLOCKREPETAG
1070
     1
1071
       24
1005
129E7D
  0
LINE
  5
129E7E
  8
OBJECT
 10
2130.1802475027539003
 20
-3147.9999999999959073
 30
0.0
 11
2137.1802475027548098
 21
-3147.9999999999959073
 31
0.0
1001
ACDBBLOCKREPETAG
1070
     1
1071
        7
1005
129E7E
  0
LINE
  5
129E7F
  8
OBJECT
 10
2137.1802475027548098
 20
-3147.9999999999959073
 30
0.0
 11
2137.1802475027548098
 21
-3241.9999999999959073
 31
0.0
1001
ACDBBLOCKREPETAG
1070
     1
1071
        8
1005
129E7F
  0
LINE
  5
129E80
  8
OBJECT
 10
2137.1802475027548098
 20
-3241.9999999999959073
 30
0.0
 11
2130.1802475027539003
 21
-3241.9999999999959073
 31
0.0
1001
ACDBBLOCKREPETAG
1070
     1
1071
        9
1005
129E80
  0
LINE
  5
129E81
  8
OBJECT
 10
2130.1802475027539003
 20
-3241.9999999999959073
 30
0.0
 11
2130.1802475027539003
 21
-3147.9999999999959073
 31
0.0
1001
ACDBBLOCKREPETAG
1070
     1
1071
       10
1005
129E81
  0
LINE
  5
129E82
  8
CENTER
 10
2152.1802475027548098
 20
-3194.9999999999959073
 30
0.0
 11
2077.1802475027539003
 21
-3194.9999999999959073
 31
0.0
1001
ACDBBLOCKREPETAG
1070
     1
1071
       11
1005
129E82
  0
LINE
  5
129E83
  8
OBJECT
 10
2130.1802475027539003
 20
-3150.9999999999959073
 30
0.0
 11
2094.1802475027529908
 21
-3150.9999999999959073
 31
0.0
1001
ACDBBLOCKREPETAG
1070
     1
1071
       12
1005
129E83
  0
LINE
  5
129E84
  8
OBJECT
 10
2094.1802475027529908
 20
-3150.9999999999959073
 30
0.0
 11
2094.1802475027529908
 21
-3238.9999999999959073
 31
0.0
1001
ACDBBLOCKREPETAG
1070
     1
1071
       13
1005
129E84
  0
LINE
  5
129E85
  8
OBJECT
 10
2094.1802475027529908
 20
-3238.9999999999959073
 30
0.0
 11
2130.1802475027539003
 21
-3238.9999999999959073
 31
0.0
1001
ACDBBLOCKREPETAG
1070
     1
1071
       14
1005
129E85
  0
LINE
  5
129E86
  8
OBJECT
 10
2090.1802475027529908
 20
-3155.4999999999959073
 30
0.0
 11
2083.1802475027529908
 21
-3155.4999999999959073
 31
0.0
1001
ACDBBLOCKREPETAG
1070
     1
1071
       15
1005
129E86
  0
LINE
  5
129E87
  8
OBJECT
 10
2083.1802475027529908
 20
-3234.4999999999959073
 30
0.0
 11
2090.1802475027529908
 21
-3234.4999999999959073
 31
0.0
1001
ACDBBLOCKREPETAG
1070
     1
1071
       16
1005
129E87
  0
LINE
  5
129E88
  8
OBJECT
 10
2090.1802475027529908
 20
-3234.4999999999959073
 30
0.0
 11
2090.1802475027529908
 21
-3155.4999999999959073
 31
0.0
1001
ACDBBLOCKREPETAG
1070
     1
1071
       17
1005
129E88
  0
LINE
  5
129E89
  8
OBJECT
 10
2094.1802475027529908
 20
-3150.9999999999959073
 30
0.0
 11
2090.1802475027529908
 21
-3155.4999999999959073
 31
0.0
1001
ACDBBLOCKREPETAG
1070
     1
1071
       18
1005
129E89
  0
LINE
  5
129E8A
  8
OBJECT
 10
2094.1802475027529908
 20
-3238.9999999999959073
 30
0.0
 11
2090.1802475027529908
 21
-3234.4999999999959073
 31
0.0
1001
ACDBBLOCKREPETAG
1070
     1
1071
       19
1005
129E8A
  0
LINE
  5
129E8B
  8
OBJECT
 10
2080.1802475027539003
 20
-3132.9999999999959073
 30
0.0
 11
2077.1802475027539003
 21
-3132.9999999999959073
 31
0.0
1001
ACDBBLOCKREPETAG
1070
     1
1071
       20
1005
129E8B
  0
ARC
  5
129E8C
  8
OBJECT
 10
2080.1802475027539003
 20
-3135.9999999999959073
 30
0.0
 40
3.0
 50
0.0
 51
90.0
1001
ACDBBLOCKREPETAG
1070
     1
1071
       21
1005
129E8C
  0
LINE
  5
129E8D
  8
OBJECT
 10
2077.1802475027539003
 20
-3256.9999999999959073
 30
0.0
 11
2080.1802475027539003
 21
-3256.9999999999959073
 31
0.0
1001
ACDBBLOCKREPETAG
1070
     1
1071
       22
1005
129E8D
  0
ARC
  5
129E8E
  8
OBJECT
 10
2080.1802475027539003
 20
-3253.9999999999959073
 30
0.0
 40
3.0
 50
270.0
 51
0.0
1001
ACDBBLOCKREPETAG
1070
     1
1071
       23
1005
129E8E
  0
LINE
  5
129E8F
  8
OBJECT
 10
2083.1802475027529908
 20
-3253.9999999999959073
 30
0.0
 11
2083.1802475027529908
 21
-3135.9999999999959073
 31
0.0
1001
ACDBBLOCKREPETAG
1070
     1
1071
       24
1005
129E8F
  0
LINE
  5
129E90
  8
HIDDEN
 10
2085.1802475027539003
 20
-3164.9999999999959073
 30
0.0
 11
2085.1802475027539003
 21
-3224.9999999999959073
 31
0.0
1001
ACDBBLOCKREPETAG
1070
     1
1071
       25
1005
129E90
  0
TEXT
  5
129E91
  8
SLIM
 10
1893.9302475027529908
 20
-3717.4999999999959073
 30
0.0
 40
35.0
  1
通常枝50（1）
 41
0.75
  0
TEXT
  5
129E92
  8
SLIM
 10
3554.6000000000008185
 20
-1600.666666666664014
 30
0.0
 40
28.0
  1
※ 対応スラブ厚　180～（m-10）
 41
0.75
  0
TEXT
  5
129E93
  8
SLIM
 10
3554.6000000000008185
 20
-1647.3333333333309838
 30
0.0
 40
28.0
  1
※ 足切り可能寸法（最大）　500-m（コンパクトＬベンド使用なら+10）
 41
0.75
  0
TEXT
  5
129E94
  8
SLIM
 10
3598.9000000000000909
 20
-1740.666666666664014
 30
0.0
 40
28.0
  1
国土交通大臣認定・（一財）日本消防設備安全センター性能評定取得品
 41
0.75
  0
TEXT
  5
129E95
  8
SLIM
 10
3631.1000000000008185
 20
-1787.3333333333309838
 30
0.0
 40
28.0
  1
注）ご採用にあたり、認定書及び評定書の内容をご確認ください。
 41
0.75
  0
LINE
  5
129E96
  8
SLIM
 10
4414.9999999999918145
 20
-665.1974387893151288
 30
0.0
 11
4425.1974387893078529
 21
-654.9999999999994316
 31
0.0
1001
GRADIENTCOLOR1ACI
1070
     5
1001
GRADIENTCOLOR2ACI
1070
     2
1001
ACAD
1010
0.0
1020
0.0
1030
0.0
  0
LINE
  5
129E97
  8
SLIM
 10
4414.9999999999918145
 20
-683.1579510314533081
 30
0.0
 11
4443.157951031446828
 21
-654.9999999999994316
 31
0.0
1001
GRADIENTCOLOR1ACI
1070
     5
1001
GRADIENTCOLOR2ACI
1070
     2
1001
ACAD
1010
0.0
1020
0.0
1030
0.0
  0
LINE
  5
129E98
  8
SLIM
 10
4414.999999999992724
 20
-701.1184632735911464
 30
0.0
 11
4461.1184632735839841
 21
-654.9999999999994316
 31
0.0
1001
GRADIENTCOLOR1ACI
1070
     5
1001
GRADIENTCOLOR2ACI
1070
     2
1001
ACAD
1010
0.0
1020
0.0
1030
0.0
  0
LINE
  5
129E99
  8
SLIM
 10
4414.999999999992724
 20
-719.0789755157296668
 30
0.0
 11
4479.0789755157211403
 21
-654.9999999999994316
 31
0.0
1001
GRADIENTCOLOR1ACI
1070
     5
1001
GRADIENTCOLOR2ACI
1070
     2
1001
ACAD
1010
0.0
1020
0.0
1030
0.0
  0
LINE
  5
129E9A
  8
SLIM
 10
4414.999999999992724
 20
-737.039487757867505
 30
0.0
 11
4497.0394877578619344
 21
-654.9999999999994316
 31
0.0
1001
GRADIENTCOLOR1ACI
1070
     5
1001
GRADIENTCOLOR2ACI
1070
     2
1001
ACAD
1010
0.0
1020
0.0
1030
0.0
  0
LINE
  5
129E9B
  8
SLIM
 10
4414.999999999992724
 20
-755.0000000000053433
 30
0.0
 11
4515.0
 21
-654.9999999999994316
 31
0.0
1001
GRADIENTCOLOR1ACI
1070
     5
1001
GRADIENTCOLOR2ACI
1070
     2
1001
ACAD
1010
0.0
1020
0.0
1030
0.0
  0
LINE
  5
129E9C
  8
SLIM
 10
4414.999999999992724
 20
-772.9605122421435226
 30
0.0
 11
4532.9605122421362466
 21
-654.9999999999994316
 31
0.0
1001
GRADIENTCOLOR1ACI
1070
     5
1001
GRADIENTCOLOR2ACI
1070
     2
1001
ACAD
1010
0.0
1020
0.0
1030
0.0
  0
LINE
  5
129E9D
  8
SLIM
 10
4414.999999999992724
 20
-790.9210244842818156
 30
0.0
 11
4550.9210244842770408
 21
-654.9999999999994316
 31
0.0
1001
GRADIENTCOLOR1ACI
1070
     5
1001
GRADIENTCOLOR2ACI
1070
     2
1001
ACAD
1010
0.0
1020
0.0
1030
0.0
  0
LINE
  5
129E9E
  8
SLIM
 10
4414.999999999992724
 20
-808.8815367264198812
 30
0.0
 11
4568.8815367264160159
 21
-654.9999999999994316
 31
0.0
1001
GRADIENTCOLOR1ACI
1070
     5
1001
GRADIENTCOLOR2ACI
1070
     2
1001
ACAD
1010
0.0
1020
0.0
1030
0.0
  0
LINE
  5
129E9F
  8
SLIM
 10
4414.999999999992724
 20
-826.8420489685579469
 30
0.0
 11
4585.000000000007276
 21
-656.8420489685453276
 31
0.0
1001
GRADIENTCOLOR1ACI
1070
     5
1001
GRADIENTCOLOR2ACI
1070
     2
1001
ACAD
1010
0.0
1020
0.0
1030
0.0
  0
LINE
  5
129EA0
  8
SLIM
 10
4414.999999999992724
 20
-844.8025612106961262
 30
0.0
 11
4585.000000000007276
 21
-674.8025612106839617
 31
0.0
1001
GRADIENTCOLOR1ACI
1070
     5
1001
GRADIENTCOLOR2ACI
1070
     2
1001
ACAD
1010
0.0
1020
0.0
1030
0.0
  0
LINE
  5
129EA1
  8
SLIM
 10
4414.9999999999954525
 20
-862.7630734528343055
 30
0.0
 11
4585.000000000007276
 21
-692.7630734528223684
 31
0.0
1001
GRADIENTCOLOR1ACI
1070
     5
1001
GRADIENTCOLOR2ACI
1070
     2
1001
ACAD
1010
0.0
1020
0.0
1030
0.0
  0
LINE
  5
129EA2
  8
SLIM
 10
4414.9999999999954525
 20
-880.7235856949721438
 30
0.0
 11
4585.000000000007276
 21
-710.7235856949608888
 31
0.0
1001
GRADIENTCOLOR1ACI
1070
     5
1001
GRADIENTCOLOR2ACI
1070
     2
1001
ACAD
1010
0.0
1020
0.0
1030
0.0
  0
LINE
  5
129EA3
  8
SLIM
 10
4414.9999999999954525
 20
-898.6840979371105504
 30
0.0
 11
4585.000000000007276
 21
-728.6840979370995228
 31
0.0
1001
GRADIENTCOLOR1ACI
1070
     5
1001
GRADIENTCOLOR2ACI
1070
     2
1001
ACAD
1010
0.0
1020
0.0
1030
0.0
  0
LINE
  5
129EA4
  8
SLIM
 10
4414.9999999999954525
 20
-916.6446101792486161
 30
0.0
 11
4585.000000000007276
 21
-746.6446101792380432
 31
0.0
1001
GRADIENTCOLOR1ACI
1070
     5
1001
GRADIENTCOLOR2ACI
1070
     2
1001
ACAD
1010
0.0
1020
0.0
1030
0.0
  0
LINE
  5
129EA5
  8
SLIM
 10
4414.9999999999954525
 20
-934.6051224213869091
 30
0.0
 11
4585.000000000007276
 21
-764.6051224213762225
 31
0.0
1001
GRADIENTCOLOR1ACI
1070
     5
1001
GRADIENTCOLOR2ACI
1070
     2
1001
ACAD
1010
0.0
1020
0.0
1030
0.0
  0
LINE
  5
129EA6
  8
SLIM
 10
4414.9999999999954525
 20
-952.5656346635247473
 30
0.0
 11
4585.000000000007276
 21
-782.5656346635151976
 31
0.0
1001
GRADIENTCOLOR1ACI
1070
     5
1001
GRADIENTCOLOR2ACI
1070
     2
1001
ACAD
1010
0.0
1020
0.0
1030
0.0
  0
LINE
  5
129EA7
  8
SLIM
 10
4414.9999999999954525
 20
-970.5261469056630403
 30
0.0
 11
4585.000000000007276
 21
-800.5261469056532633
 31
0.0
1001
GRADIENTCOLOR1ACI
1070
     5
1001
GRADIENTCOLOR2ACI
1070
     2
1001
ACAD
1010
0.0
1020
0.0
1030
0.0
  0
LINE
  5
129EA8
  8
SLIM
 10
4415.3182312960889249
 20
-988.1684278517074063
 30
0.0
 11
4585.000000000007276
 21
-818.486659147792011
 31
0.0
1001
GRADIENTCOLOR1ACI
1070
     5
1001
GRADIENTCOLOR2ACI
1070
     2
1001
ACAD
1010
0.0
1020
0.0
1030
0.0
  0
LINE
  5
129EA9
  8
SLIM
 10
4417.3138437674388115
 20
-1004.13332762249604
 30
0.0
 11
4585.000000000007276
 21
-836.4471713899305314
 31
0.0
1001
GRADIENTCOLOR1ACI
1070
     5
1001
GRADIENTCOLOR2ACI
1070
     2
1001
ACAD
1010
0.0
1020
0.0
1030
0.0
  0
LINE
  5
129EAA
  8
SLIM
 10
4419.3094562387877886
 20
-1020.098227393286038
 30
0.0
 11
4585.000000000007276
 21
-854.4076836320690518
 31
0.0
1001
GRADIENTCOLOR1ACI
1070
     5
1001
GRADIENTCOLOR2ACI
1070
     2
1001
ACAD
1010
0.0
1020
0.0
1030
0.0
  0
LINE
  5
129EAB
  8
SLIM
 10
4430.0
 20
-1027.3681958742120059
 30
0.0
 11
4432.3681958742126881
 21
-1024.9999999999990905
 31
0.0
1001
GRADIENTCOLOR1ACI
1070
     5
1001
GRADIENTCOLOR2ACI
1070
     2
1001
ACAD
1010
0.0
1020
0.0
1030
0.0
  0
LINE
  5
129EAC
  8
SLIM
 10
4432.3681958742126881
 20
-1024.9999999999990905
 30
0.0
 11
4585.000000000003638
 21
-872.3681958742073448
 31
0.0
1001
GRADIENTCOLOR1ACI
1070
     5
1001
GRADIENTCOLOR2ACI
1070
     2
1001
ACAD
1010
0.0
1020
0.0
1030
0.0
  0
LINE
  5
129EAD
  8
SLIM
 10
4430.3287081163507537
 20
-1044.9999999999990905
 30
0.0
 11
4450.3287081163516632
 21
-1024.9999999999990905
 31
0.0
1001
GRADIENTCOLOR1ACI
1070
     5
1001
GRADIENTCOLOR2ACI
1070
     2
1001
ACAD
1010
0.0
1020
0.0
1030
0.0
  0
LINE
  5
129EAE
  8
SLIM
 10
4450.3287081163516632
 20
-1024.9999999999990905
 30
0.0
 11
4585.000000000003638
 21
-890.3287081163457515
 31
0.0
1001
GRADIENTCOLOR1ACI
1070
     5
1001
GRADIENTCOLOR2ACI
1070
     2
1001
ACAD
1010
0.0
1020
0.0
1030
0.0
  0
LINE
  5
129EAF
  8
SLIM
 10
4448.2892203584879098
 20
-1044.9999999999990905
 30
0.0
 11
4468.2892203584897288
 21
-1024.9999999999990905
 31
0.0
1001
GRADIENTCOLOR1ACI
1070
     5
1001
GRADIENTCOLOR2ACI
1070
     2
1001
ACAD
1010
0.0
1020
0.0
1030
0.0
  0
LINE
  5
129EB0
  8
SLIM
 10
4468.2892203584897288
 20
-1024.9999999999990905
 30
0.0
 11
4585.000000000003638
 21
-908.2892203584846129
 31
0.0
1001
GRADIENTCOLOR1ACI
1070
     5
1001
GRADIENTCOLOR2ACI
1070
     2
1001
ACAD
1010
0.0
1020
0.0
1030
0.0
  0
LINE
  5
129EB1
  8
SLIM
 10
4466.2497326006277945
 20
-1044.9999999999990905
 30
0.0
 11
4486.2497326006277945
 21
-1024.9999999999990905
 31
0.0
1001
GRADIENTCOLOR1ACI
1070
     5
1001
GRADIENTCOLOR2ACI
1070
     2
1001
ACAD
1010
0.0
1020
0.0
1030
0.0
  0
LINE
  5
129EB2
  8
SLIM
 10
4486.2497326006277945
 20
-1024.9999999999990905
 30
0.0
 11
4585.000000000003638
 21
-926.2497326006225649
 31
0.0
1001
GRADIENTCOLOR1ACI
1070
     5
1001
GRADIENTCOLOR2ACI
1070
     2
1001
ACAD
1010
0.0
1020
0.0
1030
0.0
  0
LINE
  5
129EB3
  8
SLIM
 10
4484.2102448427658601
 20
-1044.9999999999990905
 30
0.0
 11
4504.2102448427658601
 21
-1024.9999999999990905
 31
0.0
1001
GRADIENTCOLOR1ACI
1070
     5
1001
GRADIENTCOLOR2ACI
1070
     2
1001
ACAD
1010
0.0
1020
0.0
1030
0.0
  0
LINE
  5
129EB4
  8
SLIM
 10
4504.2102448427658601
 20
-1024.9999999999990905
 30
0.0
 11
4585.0000000000027285
 21
-944.2102448427616537
 31
0.0
1001
GRADIENTCOLOR1ACI
1070
     5
1001
GRADIENTCOLOR2ACI
1070
     2
1001
ACAD
1010
0.0
1020
0.0
1030
0.0
  0
LINE
  5
129EB5
  8
SLIM
 10
4502.1707570849048352
 20
-1044.9999999999990905
 30
0.0
 11
4522.1707570849048352
 21
-1024.9999999999990905
 31
0.0
1001
GRADIENTCOLOR1ACI
1070
     5
1001
GRADIENTCOLOR2ACI
1070
     2
1001
ACAD
1010
0.0
1020
0.0
1030
0.0
  0
LINE
  5
129EB6
  8
SLIM
 10
4522.1707570849048352
 20
-1024.9999999999990905
 30
0.0
 11
4585.0000000000027285
 21
-962.170757084899833
 31
0.0
1001
GRADIENTCOLOR1ACI
1070
     5
1001
GRADIENTCOLOR2ACI
1070
     2
1001
ACAD
1010
0.0
1020
0.0
1030
0.0
  0
LINE
  5
129EB7
  8
SLIM
 10
4520.1312693270429008
 20
-1044.9999999999990905
 30
0.0
 11
4540.1312693270429008
 21
-1024.9999999999990905
 31
0.0
1001
GRADIENTCOLOR1ACI
1070
     5
1001
GRADIENTCOLOR2ACI
1070
     2
1001
ACAD
1010
0.0
1020
0.0
1030
0.0
  0
LINE
  5
129EB8
  8
SLIM
 10
4540.1312693270429008
 20
-1024.9999999999990905
 30
0.0
 11
4585.0000000000027285
 21
-980.1312693270383534
 31
0.0
1001
GRADIENTCOLOR1ACI
1070
     5
1001
GRADIENTCOLOR2ACI
1070
     2
1001
ACAD
1010
0.0
1020
0.0
1030
0.0
  0
LINE
  5
129EB9
  8
SLIM
 10
4538.091781569180057
 20
-1044.9999999999990905
 30
0.0
 11
4558.091781569180057
 21
-1024.9999999999990905
 31
0.0
1001
GRADIENTCOLOR1ACI
1070
     5
1001
GRADIENTCOLOR2ACI
1070
     2
1001
ACAD
1010
0.0
1020
0.0
1030
0.0
  0
LINE
  5
129EBA
  8
SLIM
 10
4558.091781569180057
 20
-1024.9999999999990905
 30
0.0
 11
4583.2186851305423261
 21
-999.8730964386369351
 31
0.0
1001
GRADIENTCOLOR1ACI
1070
     5
1001
GRADIENTCOLOR2ACI
1070
     2
1001
ACAD
1010
0.0
1020
0.0
1030
0.0
  0
LINE
  5
129EBB
  8
SLIM
 10
4556.0522938113181226
 20
-1044.9999999999990905
 30
0.0
 11
4570.0
 21
-1031.0522938113190321
 31
0.0
1001
GRADIENTCOLOR1ACI
1070
     5
1001
GRADIENTCOLOR2ACI
1070
     2
1001
ACAD
1010
0.0
1020
0.0
1030
0.0
  0
LINE
  5
129EBC
  8
SLIM
 10
4576.0522938113190321
 20
-1024.9999999999990905
 30
0.0
 11
4580.6528976673798752
 21
-1020.3993961439390432
 31
0.0
1001
GRADIENTCOLOR1ACI
1070
     5
1001
GRADIENTCOLOR2ACI
1070
     2
1001
ACAD
1010
0.0
1020
0.0
1030
0.0
  0
LINE
  5
129EBD
  8
OBJECT
 10
4585.000000000007276
 20
-654.9999999999994316
 30
0.0
 11
4585.0000000000027285
 21
-985.6225774829584907
 31
0.0
1001
ACDBBLOCKREPETAG
1070
     1
1071
        2
1005
129EBD
  0
LINE
  5
129EBE
  8
OBJECT
 10
4585.000000000007276
 20
-654.9999999999994316
 30
0.0
 11
4414.9999999999918145
 21
-654.9999999999994316
 31
0.0
1001
ACDBBLOCKREPETAG
1070
     1
1071
        3
1005
129EBE
  0
LINE
  5
129EBF
  8
OBJECT
 10
4419.9221778146256838
 20
-1024.9999999999990905
 30
0.0
 11
4580.0778221853715877
 21
-1024.9999999999990905
 31
0.0
1001
ACDBBLOCKREPETAG
1070
     1
1071
        3
1005
129EBF
  0
LINE
  5
129EC0
  8
OBJECT
 10
4580.0778221853715877
 20
-1024.9999999999990905
 30
0.0
 11
4585.0000000000027285
 21
-985.6225774829584907
 31
0.0
1001
ACDBBLOCKREPETAG
1070
     1
1071
       11
1005
0
  0
LINE
  5
129EC1
  8
OBJECT
 10
4414.9999999999918145
 20
-654.9999999999994316
 30
0.0
 11
4414.9999999999954525
 21
-985.6225774829584907
 31
0.0
1001
ACDBBLOCKREPETAG
1070
     1
1071
        2
1005
129EBD
  0
LINE
  5
129EC2
  8
OBJECT
 10
4419.9221778146256838
 20
-1024.9999999999990905
 30
0.0
 11
4414.9999999999954525
 21
-985.6225774829584907
 31
0.0
1001
ACDBBLOCKREPETAG
1070
     1
1071
       11
1005
0
  0
LINE
  5
129EC3
  8
OBJECT
 10
4430.0
 20
-1024.9999999999990905
 30
0.0
 11
4430.0
 21
-1044.9999999999990905
 31
0.0
1001
ACDBBLOCKREPETAG
1070
     1
1071
       10
1005
0
  0
LINE
  5
129EC4
  8
OBJECT
 10
4430.0
 20
-1044.9999999999990905
 30
0.0
 11
4570.0
 21
-1044.9999999999990905
 31
0.0
1001
ACDBBLOCKREPETAG
1070
     1
1071
       11
1005
0
  0
LINE
  5
129EC5
  8
OBJECT
 10
4570.0
 20
-1044.9999999999990905
 30
0.0
 11
4570.0
 21
-1024.9999999999990905
 31
0.0
1001
ACDBBLOCKREPETAG
1070
     1
1071
       12
1005
0
  0
LINE
  5
129EC6
  8
SLIM
 10
3914.9999999999931788
 20
-665.1974387893151288
 30
0.0
 11
3925.1974387893092171
 21
-654.9999999999994316
 31
0.0
1001
GRADIENTCOLOR1ACI
1070
     5
1001
GRADIENTCOLOR2ACI
1070
     2
1001
ACAD
1010
0.0
1020
0.0
1030
0.0
  0
LINE
  5
129EC7
  8
SLIM
 10
3914.9999999999940883
 20
-683.1579510314533081
 30
0.0
 11
3943.157951031446828
 21
-654.9999999999994316
 31
0.0
1001
GRADIENTCOLOR1ACI
1070
     5
1001
GRADIENTCOLOR2ACI
1070
     2
1001
ACAD
1010
0.0
1020
0.0
1030
0.0
  0
LINE
  5
129EC8
  8
SLIM
 10
3914.9999999999940883
 20
-701.1184632735911464
 30
0.0
 11
3961.1184632735839841
 21
-654.9999999999994316
 31
0.0
1001
GRADIENTCOLOR1ACI
1070
     5
1001
GRADIENTCOLOR2ACI
1070
     2
1001
ACAD
1010
0.0
1020
0.0
1030
0.0
  0
LINE
  5
129EC9
  8
SLIM
 10
3914.9999999999940883
 20
-719.0789755157296668
 30
0.0
 11
3979.0789755157238687
 21
-654.9999999999994316
 31
0.0
1001
GRADIENTCOLOR1ACI
1070
     5
1001
GRADIENTCOLOR2ACI
1070
     2
1001
ACAD
1010
0.0
1020
0.0
1030
0.0
  0
LINE
  5
129ECA
  8
SLIM
 10
3914.9999999999940883
 20
-737.039487757867505
 30
0.0
 11
3997.0394877578619344
 21
-654.9999999999994316
 31
0.0
1001
GRADIENTCOLOR1ACI
1070
     5
1001
GRADIENTCOLOR2ACI
1070
     2
1001
ACAD
1010
0.0
1020
0.0
1030
0.0
  0
LINE
  5
129ECB
  8
SLIM
 10
3914.9999999999940883
 20
-755.0000000000053433
 30
0.0
 11
4015.0
 21
-654.9999999999994316
 31
0.0
1001
GRADIENTCOLOR1ACI
1070
     5
1001
GRADIENTCOLOR2ACI
1070
     2
1001
ACAD
1010
0.0
1020
0.0
1030
0.0
  0
LINE
  5
129ECC
  8
SLIM
 10
3914.9999999999940883
 20
-772.9605122421435226
 30
0.0
 11
4032.9605122421371561
 21
-654.9999999999994316
 31
0.0
1001
GRADIENTCOLOR1ACI
1070
     5
1001
GRADIENTCOLOR2ACI
1070
     2
1001
ACAD
1010
0.0
1020
0.0
1030
0.0
  0
LINE
  5
129ECD
  8
SLIM
 10
3914.9999999999940883
 20
-790.9210244842818156
 30
0.0
 11
4050.9210244842770408
 21
-654.9999999999994316
 31
0.0
1001
GRADIENTCOLOR1ACI
1070
     5
1001
GRADIENTCOLOR2ACI
1070
     2
1001
ACAD
1010
0.0
1020
0.0
1030
0.0
  0
LINE
  5
129ECE
  8
SLIM
 10
3914.9999999999940883
 20
-808.8815367264198812
 30
0.0
 11
4068.8815367264151064
 21
-654.9999999999994316
 31
0.0
1001
GRADIENTCOLOR1ACI
1070
     5
1001
GRADIENTCOLOR2ACI
1070
     2
1001
ACAD
1010
0.0
1020
0.0
1030
0.0
  0
LINE
  5
129ECF
  8
SLIM
 10
3914.9999999999940883
 20
-826.8420489685579469
 30
0.0
 11
4085.0000000000068212
 21
-656.8420489685453276
 31
0.0
1001
GRADIENTCOLOR1ACI
1070
     5
1001
GRADIENTCOLOR2ACI
1070
     2
1001
ACAD
1010
0.0
1020
0.0
1030
0.0
  0
LINE
  5
129ED0
  8
SLIM
 10
3914.9999999999940883
 20
-844.8025612106961262
 30
0.0
 11
4085.0000000000068212
 21
-674.8025612106839617
 31
0.0
1001
GRADIENTCOLOR1ACI
1070
     5
1001
GRADIENTCOLOR2ACI
1070
     2
1001
ACAD
1010
0.0
1020
0.0
1030
0.0
  0
LINE
  5
129ED1
  8
SLIM
 10
3914.9999999999940883
 20
-862.7630734528343055
 30
0.0
 11
4085.0000000000068212
 21
-692.7630734528223684
 31
0.0
1001
GRADIENTCOLOR1ACI
1070
     5
1001
GRADIENTCOLOR2ACI
1070
     2
1001
ACAD
1010
0.0
1020
0.0
1030
0.0
  0
LINE
  5
129ED2
  8
SLIM
 10
3914.9999999999940883
 20
-880.7235856949721438
 30
0.0
 11
4085.0000000000068212
 21
-710.7235856949608888
 31
0.0
1001
GRADIENTCOLOR1ACI
1070
     5
1001
GRADIENTCOLOR2ACI
1070
     2
1001
ACAD
1010
0.0
1020
0.0
1030
0.0
  0
LINE
  5
129ED3
  8
SLIM
 10
3914.9999999999940883
 20
-898.6840979371105504
 30
0.0
 11
4085.0000000000068212
 21
-728.6840979370995228
 31
0.0
1001
GRADIENTCOLOR1ACI
1070
     5
1001
GRADIENTCOLOR2ACI
1070
     2
1001
ACAD
1010
0.0
1020
0.0
1030
0.0
  0
LINE
  5
129ED4
  8
SLIM
 10
3914.9999999999940883
 20
-916.6446101792486161
 30
0.0
 11
4085.0000000000068212
 21
-746.6446101792380432
 31
0.0
1001
GRADIENTCOLOR1ACI
1070
     5
1001
GRADIENTCOLOR2ACI
1070
     2
1001
ACAD
1010
0.0
1020
0.0
1030
0.0
  0
LINE
  5
129ED5
  8
SLIM
 10
3914.9999999999968168
 20
-934.6051224213869091
 30
0.0
 11
4085.0000000000059117
 21
-764.6051224213762225
 31
0.0
1001
GRADIENTCOLOR1ACI
1070
     5
1001
GRADIENTCOLOR2ACI
1070
     2
1001
ACAD
1010
0.0
1020
0.0
1030
0.0
  0
LINE
  5
129ED6
  8
SLIM
 10
3914.9999999999968168
 20
-952.5656346635247473
 30
0.0
 11
4085.0000000000059117
 21
-782.5656346635151976
 31
0.0
1001
GRADIENTCOLOR1ACI
1070
     5
1001
GRADIENTCOLOR2ACI
1070
     2
1001
ACAD
1010
0.0
1020
0.0
1030
0.0
  0
LINE
  5
129ED7
  8
SLIM
 10
3914.9999999999968168
 20
-970.5261469056630403
 30
0.0
 11
4085.0000000000059117
 21
-800.5261469056532633
 31
0.0
1001
GRADIENTCOLOR1ACI
1070
     5
1001
GRADIENTCOLOR2ACI
1070
     2
1001
ACAD
1010
0.0
1020
0.0
1030
0.0
  0
LINE
  5
129ED8
  8
SLIM
 10
3915.3182312960889249
 20
-988.1684278517074063
 30
0.0
 11
4085.0000000000059117
 21
-818.486659147792011
 31
0.0
1001
GRADIENTCOLOR1ACI
1070
     5
1001
GRADIENTCOLOR2ACI
1070
     2
1001
ACAD
1010
0.0
1020
0.0
1030
0.0
  0
LINE
  5
129ED9
  8
SLIM
 10
3917.3138437674401757
 20
-1004.13332762249604
 30
0.0
 11
4085.0000000000059117
 21
-836.4471713899305314
 31
0.0
1001
GRADIENTCOLOR1ACI
1070
     5
1001
GRADIENTCOLOR2ACI
1070
     2
1001
ACAD
1010
0.0
1020
0.0
1030
0.0
  0
LINE
  5
129EDA
  8
SLIM
 10
3919.3094562387900623
 20
-1020.098227393286038
 30
0.0
 11
4085.0000000000050022
 21
-854.4076836320690518
 31
0.0
1001
GRADIENTCOLOR1ACI
1070
     5
1001
GRADIENTCOLOR2ACI
1070
     2
1001
ACAD
1010
0.0
1020
0.0
1030
0.0
  0
LINE
  5
129EDB
  8
SLIM
 10
3930.0
 20
-1027.3681958742120059
 30
0.0
 11
3932.3681958742149618
 21
-1024.9999999999990905
 31
0.0
1001
GRADIENTCOLOR1ACI
1070
     5
1001
GRADIENTCOLOR2ACI
1070
     2
1001
ACAD
1010
0.0
1020
0.0
1030
0.0
  0
LINE
  5
129EDC
  8
SLIM
 10
3932.3681958742149618
 20
-1024.9999999999990905
 30
0.0
 11
4085.0000000000050022
 21
-872.3681958742073448
 31
0.0
1001
GRADIENTCOLOR1ACI
1070
     5
1001
GRADIENTCOLOR2ACI
1070
     2
1001
ACAD
1010
0.0
1020
0.0
1030
0.0
  0
LINE
  5
129EDD
  8
SLIM
 10
3930.3287081163512084
 20
-1044.9999999999990905
 30
0.0
 11
3950.3287081163521179
 21
-1024.9999999999990905
 31
0.0
1001
GRADIENTCOLOR1ACI
1070
     5
1001
GRADIENTCOLOR2ACI
1070
     2
1001
ACAD
1010
0.0
1020
0.0
1030
0.0
  0
LINE
  5
129EDE
  8
SLIM
 10
3950.3287081163521179
 20
-1024.9999999999990905
 30
0.0
 11
4085.0000000000040927
 21
-890.3287081163457515
 31
0.0
1001
GRADIENTCOLOR1ACI
1070
     5
1001
GRADIENTCOLOR2ACI
1070
     2
1001
ACAD
1010
0.0
1020
0.0
1030
0.0
  0
LINE
  5
129EDF
  8
SLIM
 10
3948.2892203584888193
 20
-1044.9999999999990905
 30
0.0
 11
3968.2892203584901836
 21
-1024.9999999999990905
 31
0.0
1001
GRADIENTCOLOR1ACI
1070
     5
1001
GRADIENTCOLOR2ACI
1070
     2
1001
ACAD
1010
0.0
1020
0.0
1030
0.0
  0
LINE
  5
129EE0
  8
SLIM
 10
3968.2892203584901836
 20
-1024.9999999999990905
 30
0.0
 11
4085.0000000000040927
 21
-908.2892203584846129
 31
0.0
1001
GRADIENTCOLOR1ACI
1070
     5
1001
GRADIENTCOLOR2ACI
1070
     2
1001
ACAD
1010
0.0
1020
0.0
1030
0.0
  0
LINE
  5
129EE1
  8
SLIM
 10
3966.2497326006277945
 20
-1044.9999999999990905
 30
0.0
 11
3986.2497326006277945
 21
-1024.9999999999990905
 31
0.0
1001
GRADIENTCOLOR1ACI
1070
     5
1001
GRADIENTCOLOR2ACI
1070
     2
1001
ACAD
1010
0.0
1020
0.0
1030
0.0
  0
LINE
  5
129EE2
  8
SLIM
 10
3986.2497326006277945
 20
-1024.9999999999990905
 30
0.0
 11
4085.0000000000040927
 21
-926.2497326006225649
 31
0.0
1001
GRADIENTCOLOR1ACI
1070
     5
1001
GRADIENTCOLOR2ACI
1070
     2
1001
ACAD
1010
0.0
1020
0.0
1030
0.0
  0
LINE
  5
129EE3
  8
SLIM
 10
3984.2102448427658601
 20
-1044.9999999999990905
 30
0.0
 11
4004.2102448427658601
 21
-1024.9999999999990905
 31
0.0
1001
GRADIENTCOLOR1ACI
1070
     5
1001
GRADIENTCOLOR2ACI
1070
     2
1001
ACAD
1010
0.0
1020
0.0
1030
0.0
  0
LINE
  5
129EE4
  8
SLIM
 10
4004.2102448427658601
 20
-1024.9999999999990905
 30
0.0
 11
4085.0000000000040927
 21
-944.2102448427616537
 31
0.0
1001
GRADIENTCOLOR1ACI
1070
     5
1001
GRADIENTCOLOR2ACI
1070
     2
1001
ACAD
1010
0.0
1020
0.0
1030
0.0
  0
LINE
  5
129EE5
  8
SLIM
 10
4002.1707570849030162
 20
-1044.9999999999990905
 30
0.0
 11
4022.1707570849048352
 21
-1024.9999999999990905
 31
0.0
1001
GRADIENTCOLOR1ACI
1070
     5
1001
GRADIENTCOLOR2ACI
1070
     2
1001
ACAD
1010
0.0
1020
0.0
1030
0.0
  0
LINE
  5
129EE6
  8
SLIM
 10
4022.1707570849048352
 20
-1024.9999999999990905
 30
0.0
 11
4085.0000000000040927
 21
-962.170757084899833
 31
0.0
1001
GRADIENTCOLOR1ACI
1070
     5
1001
GRADIENTCOLOR2ACI
1070
     2
1001
ACAD
1010
0.0
1020
0.0
1030
0.0
  0
LINE
  5
129EE7
  8
SLIM
 10
4020.1312693270429008
 20
-1044.9999999999990905
 30
0.0
 11
4040.1312693270429008
 21
-1024.9999999999990905
 31
0.0
1001
GRADIENTCOLOR1ACI
1070
     5
1001
GRADIENTCOLOR2ACI
1070
     2
1001
ACAD
1010
0.0
1020
0.0
1030
0.0
  0
LINE
  5
129EE8
  8
SLIM
 10
4040.1312693270429008
 20
-1024.9999999999990905
 30
0.0
 11
4085.0000000000031832
 21
-980.1312693270383534
 31
0.0
1001
GRADIENTCOLOR1ACI
1070
     5
1001
GRADIENTCOLOR2ACI
1070
     2
1001
ACAD
1010
0.0
1020
0.0
1030
0.0
  0
LINE
  5
129EE9
  8
SLIM
 10
4038.0917815691809665
 20
-1044.9999999999990905
 30
0.0
 11
4058.0917815691809665
 21
-1024.9999999999990905
 31
0.0
1001
GRADIENTCOLOR1ACI
1070
     5
1001
GRADIENTCOLOR2ACI
1070
     2
1001
ACAD
1010
0.0
1020
0.0
1030
0.0
  0
LINE
  5
129EEA
  8
SLIM
 10
4058.0917815691809665
 20
-1024.9999999999990905
 30
0.0
 11
4083.2186851305418713
 21
-999.8730964386369351
 31
0.0
1001
GRADIENTCOLOR1ACI
1070
     5
1001
GRADIENTCOLOR2ACI
1070
     2
1001
ACAD
1010
0.0
1020
0.0
1030
0.0
  0
LINE
  5
129EEB
  8
SLIM
 10
4056.0522938113181226
 20
-1044.9999999999990905
 30
0.0
 11
4070.0
 21
-1031.0522938113190321
 31
0.0
1001
GRADIENTCOLOR1ACI
1070
     5
1001
GRADIENTCOLOR2ACI
1070
     2
1001
ACAD
1010
0.0
1020
0.0
1030
0.0
  0
LINE
  5
129EEC
  8
SLIM
 10
4076.0522938113181226
 20
-1024.9999999999990905
 30
0.0
 11
4080.6528976673798752
 21
-1020.3993961439390432
 31
0.0
1001
GRADIENTCOLOR1ACI
1070
     5
1001
GRADIENTCOLOR2ACI
1070
     2
1001
ACAD
1010
0.0
1020
0.0
1030
0.0
  0
LINE
  5
129EED
  8
OBJECT
 10
4085.0000000000068212
 20
-654.9999999999994316
 30
0.0
 11
4085.0000000000031832
 21
-985.6225774829584907
 31
0.0
1001
ACDBBLOCKREPETAG
1070
     1
1071
        2
1005
129EED
  0
LINE
  5
129EEE
  8
OBJECT
 10
4085.0000000000068212
 20
-654.9999999999994316
 30
0.0
 11
3914.9999999999931788
 21
-654.9999999999994316
 31
0.0
1001
ACDBBLOCKREPETAG
1070
     1
1071
        3
1005
129EEE
  0
LINE
  5
129EEF
  8
OBJECT
 10
3919.9221778146279576
 20
-1024.9999999999990905
 30
0.0
 11
4080.0778221853720424
 21
-1024.9999999999990905
 31
0.0
1001
ACDBBLOCKREPETAG
1070
     1
1071
        3
1005
129EEF
  0
LINE
  5
129EF0
  8
OBJECT
 10
4080.0778221853720424
 20
-1024.9999999999990905
 30
0.0
 11
4085.0000000000031832
 21
-985.6225774829584907
 31
0.0
1001
ACDBBLOCKREPETAG
1070
     1
1071
       11
1005
0
  0
LINE
  5
129EF1
  8
OBJECT
 10
3914.9999999999931788
 20
-654.9999999999994316
 30
0.0
 11
3914.9999999999968168
 21
-985.6225774829584907
 31
0.0
1001
ACDBBLOCKREPETAG
1070
     1
1071
        2
1005
129EED
  0
LINE
  5
129EF2
  8
OBJECT
 10
3919.9221778146279576
 20
-1024.9999999999990905
 30
0.0
 11
3914.9999999999968168
 21
-985.6225774829584907
 31
0.0
1001
ACDBBLOCKREPETAG
1070
     1
1071
       11
1005
0
  0
LINE
  5
129EF3
  8
OBJECT
 10
3930.0
 20
-1024.9999999999990905
 30
0.0
 11
3930.0
 21
-1044.9999999999990905
 31
0.0
1001
ACDBBLOCKREPETAG
1070
     1
1071
       10
1005
0
  0
LINE
  5
129EF4
  8
OBJECT
 10
3930.0
 20
-1044.9999999999990905
 30
0.0
 11
4070.0
 21
-1044.9999999999990905
 31
0.0
1001
ACDBBLOCKREPETAG
1070
     1
1071
       11
1005
0
  0
LINE
  5
129EF5
  8
OBJECT
 10
4070.0
 20
-1044.9999999999990905
 30
0.0
 11
4070.0
 21
-1024.9999999999990905
 31
0.0
1001
ACDBBLOCKREPETAG
1070
     1
1071
       12
1005
0
  0
TEXT
  5
129EF6
  8
SLIM
 10
4970.0571428571429351
 20
-1252.9999999999959073
 30
0.0
 40
24.0
  1
180～490
 41
0.75
  0
TEXT
  5
129EF7
  8
SLIM
 10
4970.0571428571429351
 20
-1204.9999999999959073
 30
0.0
 40
24.0
  1
180～480
 41
0.75
  0
TEXT
  5
129EF8
  8
SLIM
 10
4970.0571428571429351
 20
-1156.9999999999959073
 30
0.0
 40
24.0
  1
180～470
 41
0.75
  0
TEXT
  5
129EF9
  8
SLIM
 10
4970.0571428571429351
 20
-1108.9999999999959073
 30
0.0
 40
24.0
  1
180～460
 41
0.75
  0
TEXT
  5
129EFA
  8
SLIM
 10
4970.0571428571429351
 20
-1060.9999999999959073
 30
0.0
 40
24.0
  1
180～450
 41
0.75
  0
TEXT
  5
129EFB
  8
SLIM
 10
4970.0571428571429351
 20
-1012.999999999996021
 30
0.0
 40
24.0
  1
180～440
 41
0.75
  0
TEXT
  5
129EFC
  8
SLIM
 10
4970.0571428571429351
 20
-964.9999999999961346
 30
0.0
 40
24.0
  1
180～430
 41
0.75
  0
TEXT
  5
129EFD
  8
SLIM
 10
4970.0571428571429351
 20
-916.999999999996021
 30
0.0
 40
24.0
  1
180～420
 41
0.75
  0
TEXT
  5
129EFE
  8
SLIM
 10
4971.7714285714291691
 20
-868.9999999999957936
 30
0.0
 40
24.0
  1
180～410
 41
0.75
  0
TEXT
  5
129EFF
  8
SLIM
 10
4970.0571428571429351
 20
-820.9999999999959073
 30
0.0
 40
24.0
  1
180～400
 41
0.75
  0
TEXT
  5
129F00
  8
SLIM
 10
4970.0571428571429351
 20
-772.9999999999959073
 30
0.0
 40
24.0
  1
180～390
 41
0.75
  0
TEXT
  5
129F01
  8
SLIM
 10
4970.0571428571429351
 20
-724.9999999999959073
 30
0.0
 40
24.0
  1
180～380
 41
0.75
  0
TEXT
  5
129F02
  8
SLIM
 10
4970.0571428571429351
 20
-676.9999999999959073
 30
0.0
 40
24.0
  1
180～370
 41
0.75
  0
TEXT
  5
129F03
  8
SLIM
 10
4970.0571428571429351
 20
-628.9999999999959073
 30
0.0
 40
24.0
  1
180～360
 41
0.75
  0
TEXT
  5
129F04
  8
SLIM
 10
4965.6000000000012733
 20
-580.9999999999956799
 30
0.0
 40
24.0
  1
対応スラブ厚
 41
0.75
  0
TEXT
  5
129F05
  8
SLIM
 10
4896.4571428571416618
 20
-1310.9999999999959073
 30
0.0
 40
24.0
  1
標準：m=370
 41
0.75
  0
TEXT
  5
129F06
  8
SLIM
 10
4878.857142857143117
 20
-1252.9999999999959073
 30
0.0
 40
24.0
  1
500
 41
0.75
  0
TEXT
  5
129F07
  8
SLIM
 10
4878.857142857143117
 20
-1204.9999999999959073
 30
0.0
 40
24.0
  1
490
 41
0.75
  0
TEXT
  5
129F08
  8
SLIM
 10
4878.857142857143117
 20
-1156.9999999999959073
 30
0.0
 40
24.0
  1
480
 41
0.75
  0
TEXT
  5
129F09
  8
SLIM
 10
4878.857142857143117
 20
-1108.9999999999959073
 30
0.0
 40
24.0
  1
470
 41
0.75
  0
TEXT
  5
129F0A
  8
SLIM
 10
4878.857142857143117
 20
-1060.9999999999959073
 30
0.0
 40
24.0
  1
460
 41
0.75
  0
TEXT
  5
129F0B
  8
SLIM
 10
4878.857142857143117
 20
-1012.999999999996021
 30
0.0
 40
24.0
  1
450
 41
0.75
  0
TEXT
  5
129F0C
  8
SLIM
 10
4878.857142857143117
 20
-964.9999999999961346
 30
0.0
 40
24.0
  1
440
 41
0.75
  0
TEXT
  5
129F0D
  8
SLIM
 10
4878.857142857143117
 20
-916.999999999996021
 30
0.0
 40
24.0
  1
430
 41
0.75
  0
TEXT
  5
129F0E
  8
SLIM
 10
4878.857142857143117
 20
-868.9999999999957936
 30
0.0
 40
24.0
  1
420
 41
0.75
  0
TEXT
  5
129F0F
  8
SLIM
 10
4880.571428571429351
 20
-820.9999999999959073
 30
0.0
 40
24.0
  1
410
 41
0.75
  0
TEXT
  5
129F10
  8
SLIM
 10
4878.857142857143117
 20
-772.9999999999959073
 30
0.0
 40
24.0
  1
400
 41
0.75
  0
TEXT
  5
129F11
  8
SLIM
 10
4878.857142857143117
 20
-724.9999999999959073
 30
0.0
 40
24.0
  1
390
 41
0.75
  0
TEXT
  5
129F12
  8
SLIM
 10
4878.857142857143117
 20
-676.9999999999959073
 30
0.0
 40
24.0
  1
380
 41
0.75
  0
TEXT
  5
129F13
  8
SLIM
 10
4869.9428571428570649
 20
-580.9999999999956799
 30
0.0
 40
24.0
  1
m寸法
 41
0.75
  0
TEXT
  5
129F14
  8
SLIM
 10
4878.857142857143117
 20
-628.9999999999959073
 30
0.0
 40
24.0
  1
370
 41
0.75
  0
LINE
  5
129F15
  8
OBJECT
 10
4425.0
 20
-669.9999999999994316
 30
0.0
 11
4425.0
 21
-942.9999999999996589
 31
0.0
1001
ACDBBLOCKREPETAG
1070
     1
1071
        1
1005
129F15
  0
LINE
  5
129F16
  8
OBJECT
 10
4575.0
 20
-669.9999999999937472
 30
0.0
 11
4575.0
 21
-942.9999999999996589
 31
0.0
1001
ACDBBLOCKREPETAG
1070
     1
1071
        3
1005
129F16
  0
LINE
  5
129F17
  8
CENTER
 10
4500.0
 20
-669.9999999999994316
 30
0.0
 11
4500.0
 21
-954.9999999999996589
 31
0.0
1001
ACDBBLOCKREPETAG
1070
     1
1071
        6
1005
129F17
  0
LINE
  5
129F18
  8
OBJECT
 10
4420.0
 20
-954.9999999999996589
 30
0.0
 11
4580.0
 21
-954.9999999999996589
 31
0.0
1001
ACDBBLOCKREPETAG
1070
     1
1071
        7
1005
129F18
  0
LINE
  5
129F19
  8
OBJECT
 10
4420.0
 20
-942.9999999999996589
 30
0.0
 11
4580.0
 21
-942.9999999999996589
 31
0.0
1001
ACDBBLOCKREPETAG
1070
     1
1071
        8
1005
129F19
  0
LINE
  5
129F1A
  8
OBJECT
 10
4420.0
 20
-942.9999999999996589
 30
0.0
 11
4420.0
 21
-954.9999999999996589
 31
0.0
1001
ACDBBLOCKREPETAG
1070
     1
1071
        9
1005
129F1A
  0
LINE
  5
129F1B
  8
OBJECT
 10
4580.0
 20
-942.9999999999996589
 30
0.0
 11
4580.0
 21
-954.9999999999996589
 31
0.0
1001
ACDBBLOCKREPETAG
1070
     1
1071
       10
1005
129F1B
  0
LINE
  5
129F1C
  8
OBJECT
 10
2425.0
 20
-669.9999999999994316
 30
0.0
 11
2425.0
 21
-942.9999999999996589
 31
0.0
1001
ACDBBLOCKREPETAG
1070
     1
1071
        1
1005
129F1C
  0
LINE
  5
129F1D
  8
OBJECT
 10
2575.0
 20
-669.9999999999937472
 30
0.0
 11
2575.0
 21
-942.9999999999996589
 31
0.0
1001
ACDBBLOCKREPETAG
1070
     1
1071
        3
1005
129F1D
  0
LINE
  5
129F1E
  8
CENTER
 10
2500.0
 20
-669.9999999999994316
 30
0.0
 11
2500.0
 21
-954.9999999999996589
 31
0.0
1001
ACDBBLOCKREPETAG
1070
     1
1071
        6
1005
129F1E
  0
LINE
  5
129F1F
  8
OBJECT
 10
2420.0
 20
-954.9999999999996589
 30
0.0
 11
2580.0
 21
-954.9999999999996589
 31
0.0
1001
ACDBBLOCKREPETAG
1070
     1
1071
        7
1005
129F1F
  0
LINE
  5
129F20
  8
OBJECT
 10
2420.0
 20
-942.9999999999996589
 30
0.0
 11
2580.0
 21
-942.9999999999996589
 31
0.0
1001
ACDBBLOCKREPETAG
1070
     1
1071
        8
1005
129F20
  0
LINE
  5
129F21
  8
OBJECT
 10
2420.0
 20
-942.9999999999996589
 30
0.0
 11
2420.0
 21
-954.9999999999996589
 31
0.0
1001
ACDBBLOCKREPETAG
1070
     1
1071
        9
1005
129F21
  0
LINE
  5
129F22
  8
OBJECT
 10
2580.0
 20
-942.9999999999996589
 30
0.0
 11
2580.0
 21
-954.9999999999996589
 31
0.0
1001
ACDBBLOCKREPETAG
1070
     1
1071
       10
1005
129F22
  0
LINE
  5
129F23
  8
OBJECT
 10
3925.0
 20
-669.9999999999994316
 30
0.0
 11
3925.0
 21
-942.9999999999996589
 31
0.0
1001
ACDBBLOCKREPETAG
1070
     1
1071
        1
1005
129F23
  0
LINE
  5
129F24
  8
OBJECT
 10
4075.0
 20
-669.9999999999937472
 30
0.0
 11
4075.0
 21
-942.9999999999996589
 31
0.0
1001
ACDBBLOCKREPETAG
1070
     1
1071
        3
1005
129F24
  0
LINE
  5
129F25
  8
CENTER
 10
4000.0
 20
-669.9999999999994316
 30
0.0
 11
4000.0
 21
-954.9999999999996589
 31
0.0
1001
ACDBBLOCKREPETAG
1070
     1
1071
        6
1005
129F25
  0
LINE
  5
129F26
  8
OBJECT
 10
3920.0
 20
-954.9999999999996589
 30
0.0
 11
4080.0
 21
-954.9999999999996589
 31
0.0
1001
ACDBBLOCKREPETAG
1070
     1
1071
        7
1005
129F26
  0
LINE
  5
129F27
  8
OBJECT
 10
3920.0
 20
-942.9999999999996589
 30
0.0
 11
4080.0
 21
-942.9999999999996589
 31
0.0
1001
ACDBBLOCKREPETAG
1070
     1
1071
        8
1005
129F27
  0
LINE
  5
129F28
  8
OBJECT
 10
3920.0
 20
-942.9999999999996589
 30
0.0
 11
3920.0
 21
-954.9999999999996589
 31
0.0
1001
ACDBBLOCKREPETAG
1070
     1
1071
        9
1005
129F28
  0
LINE
  5
129F29
  8
OBJECT
 10
4080.0
 20
-942.9999999999996589
 30
0.0
 11
4080.0
 21
-954.9999999999996589
 31
0.0
1001
ACDBBLOCKREPETAG
1070
     1
1071
       10
1005
129F29
  0
LINE
  5
129F2A
  8
OBJECT
 10
1925.0
 20
-669.9999999999994316
 30
0.0
 11
1925.0
 21
-942.9999999999996589
 31
0.0
1001
ACDBBLOCKREPETAG
1070
     1
1071
        1
1005
129F2A
  0
LINE
  5
129F2B
  8
OBJECT
 10
2075.0
 20
-669.9999999999937472
 30
0.0
 11
2075.0
 21
-942.9999999999996589
 31
0.0
1001
ACDBBLOCKREPETAG
1070
     1
1071
        3
1005
129F2B
  0
LINE
  5
129F2C
  8
CENTER
 10
2000.0
 20
-669.9999999999994316
 30
0.0
 11
2000.0
 21
-954.9999999999996589
 31
0.0
1001
ACDBBLOCKREPETAG
1070
     1
1071
        6
1005
129F2C
  0
LINE
  5
129F2D
  8
OBJECT
 10
1920.0
 20
-954.9999999999996589
 30
0.0
 11
2080.0
 21
-954.9999999999996589
 31
0.0
1001
ACDBBLOCKREPETAG
1070
     1
1071
        7
1005
129F2D
  0
LINE
  5
129F2E
  8
OBJECT
 10
1920.0
 20
-942.9999999999996589
 30
0.0
 11
2080.0
 21
-942.9999999999996589
 31
0.0
1001
ACDBBLOCKREPETAG
1070
     1
1071
        8
1005
129F2E
  0
LINE
  5
129F2F
  8
OBJECT
 10
1920.0
 20
-942.9999999999996589
 30
0.0
 11
1920.0
 21
-954.9999999999996589
 31
0.0
1001
ACDBBLOCKREPETAG
1070
     1
1071
        9
1005
129F2F
  0
LINE
  5
129F30
  8
OBJECT
 10
2080.0
 20
-942.9999999999996589
 30
0.0
 11
2080.0
 21
-954.9999999999996589
 31
0.0
1001
ACDBBLOCKREPETAG
1070
     1
1071
       10
1005
129F30
  0
LINE
  5
129F31
  8
DIM
 10
3904.9999999999931788
 20
-655.0
 30
0.0
 11
3839.661644011322096
 21
-654.9999999999997726
 31
0.0
  0
LINE
  5
129F32
  8
DIM
 10
3910.0
 20
-1024.9999999999990905
 30
0.0
 11
3839.661644011322096
 21
-1024.9999999999990905
 31
0.0
  0
LINE
  5
129F33
  8
DIM
 10
3849.661644011322096
 20
-675.0
 30
0.0
 11
3849.661644011322096
 21
-1004.9999999999989768
 31
0.0
  0
INSERT
  5
129F34
  8
DIM
  2
_OPEN30
 10
3849.661644011322096
 20
-655.0
 30
0.0
 41
20.0
 42
20.0
 43
20.0
 50
90.0
  0
INSERT
  5
129F35
  8
DIM
  2
_OPEN30
 10
3849.661644011322096
 20
-1024.9999999999990905
 30
0.0
 41
20.0
 42
20.0
 43
20.0
 50
270.0
  0
INSERT
  5
129F36
  8
OBJECT
  2
*U10
 10
0.0
 20
0.0
 30
0.0
  0
LINE
  5
129F37
  8
SLIM
  6
CONTINUOUS
 10
3927.3018300565240679
 20
-155.9548403695769139
 30
0.0
 11
3955.9548403695771412
 21
-127.3018300565223058
 31
0.0
1001
GRADIENTCOLOR1ACI
1070
     5
1001
GRADIENTCOLOR2ACI
1070
     2
1001
ACAD
1010
0.0
1020
0.0
1030
0.0
1001
ACDBBLOCKREPETAG
1070
     1
1071
      495
1005
129F37
  0
LINE
  5
129F38
  8
SLIM
  6
CONTINUOUS
 10
3919.4861520708368516
 20
-172.7507744763319124
 30
0.0
 11
3972.7507744763329356
 21
-119.4861520708363969
 31
0.0
1001
GRADIENTCOLOR1ACI
1070
     5
1001
GRADIENTCOLOR2ACI
1070
     2
1001
ACAD
1010
0.0
1020
0.0
1030
0.0
1001
ACDBBLOCKREPETAG
1070
     1
1071
      496
1005
129F38
  0
LINE
  5
129F39
  8
SLIM
  6
CONTINUOUS
 10
3916.3596679933780251
 20
-184.8575146748605107
 30
0.0
 11
3931.2956746719492003
 21
-169.9215079962906998
 31
0.0
1001
GRADIENTCOLOR1ACI
1070
     5
1001
GRADIENTCOLOR2ACI
1070
     2
1001
ACAD
1010
0.0
1020
0.0
1030
0.0
1001
ACDBBLOCKREPETAG
1070
     1
1071
      497
1005
129F39
  0
LINE
  5
129F3A
  8
SLIM
  6
CONTINUOUS
 10
3969.9215079962918935
 20
-131.2956746719466992
 30
0.0
 11
3984.8575146748630686
 21
-116.3596679933770019
 31
0.0
1001
GRADIENTCOLOR1ACI
1070
     5
1001
GRADIENTCOLOR2ACI
1070
     2
1001
ACAD
1010
0.0
1020
0.0
1030
0.0
1001
ACDBBLOCKREPETAG
1070
     1
1071
      498
1005
129F3A
  0
LINE
  5
129F3B
  8
SLIM
  6
CONTINUOUS
 10
3915.1440575890528635
 20
-195.0533812002549894
 30
0.0
 11
3926.8786024565561092
 21
-183.3188363327525963
 31
0.0
1001
GRADIENTCOLOR1ACI
1070
     5
1001
GRADIENTCOLOR2ACI
1070
     2
1001
ACAD
1010
0.0
1020
0.0
1030
0.0
1001
ACDBBLOCKREPETAG
1070
     1
1071
      499
1005
129F3B
  0
LINE
  5
129F3C
  8
SLIM
  6
CONTINUOUS
 10
3983.3188363327540173
 20
-126.878602456554006
 30
0.0
 11
3995.0533812002558989
 21
-115.1440575890515987
 31
0.0
1001
GRADIENTCOLOR1ACI
1070
     5
1001
GRADIENTCOLOR2ACI
1070
     2
1001
ACAD
1010
0.0
1020
0.0
1030
0.0
1001
ACDBBLOCKREPETAG
1070
     1
1071
      500
1005
129F3C
  0
LINE
  5
129F3D
  8
SLIM
  6
CONTINUOUS
 10
3915.0979635574740314
 20
-204.0797313529033943
 30
0.0
 11
3919.1776949103768857
 21
-199.9999999999990905
 31
0.0
1001
GRADIENTCOLOR1ACI
1070
     5
1001
GRADIENTCOLOR2ACI
1070
     2
1001
ACAD
1010
0.0
1020
0.0
1030
0.0
1001
ACDBBLOCKREPETAG
1070
     1
1071
      501
1005
129F3D
  0
LINE
  5
129F3E
  8
SLIM
  6
CONTINUOUS
 10
4000.0
 20
-119.1776949103767009
 30
0.0
 11
4004.0797313529042185
 21
-115.0979635574723972
 31
0.0
1001
GRADIENTCOLOR1ACI
1070
     5
1001
GRADIENTCOLOR2ACI
1070
     2
1001
ACAD
1010
0.0
1020
0.0
1030
0.0
1001
ACDBBLOCKREPETAG
1070
     1
1071
      502
1005
129F3E
  0
LINE
  5
129F3F
  8
SLIM
  6
CONTINUOUS
 10
3919.1776949103768857
 20
-199.9999999999990905
 30
0.0
 11
3925.2458896617781647
 21
-193.9318052485988062
 31
0.0
1001
GRADIENTCOLOR1ACI
1070
     5
1001
GRADIENTCOLOR2ACI
1070
     2
1001
ACAD
1010
0.0
1020
0.0
1030
0.0
1001
ACDBBLOCKREPETAG
1070
     1
1071
      503
1005
129F3F
  0
LINE
  5
129F40
  8
SLIM
  6
CONTINUOUS
 10
3993.9318052486009947
 20
-125.2458896617769994
 30
0.0
 11
4000.0
 21
-119.1776949103767009
 31
0.0
1001
GRADIENTCOLOR1ACI
1070
     5
1001
GRADIENTCOLOR2ACI
1070
     2
1001
ACAD
1010
0.0
1020
0.0
1030
0.0
1001
ACDBBLOCKREPETAG
1070
     1
1071
      504
1005
129F40
  0
LINE
  5
129F41
  8
SLIM
  6
CONTINUOUS
 10
3915.889972620872868
 20
-212.2679784105739031
 30
0.0
 11
3925.0638502435940609
 21
-203.0941007878525113
 31
0.0
1001
GRADIENTCOLOR1ACI
1070
     5
1001
GRADIENTCOLOR2ACI
1070
     2
1001
ACAD
1010
0.0
1020
0.0
1030
0.0
1001
ACDBBLOCKREPETAG
1070
     1
1071
      505
1005
129F41
  0
LINE
  5
129F42
  8
SLIM
  6
CONTINUOUS
 10
4003.0941007878532218
 20
-125.0638502435923982
 30
0.0
 11
4012.267978410575779
 21
-115.8899726208710064
 31
0.0
1001
GRADIENTCOLOR1ACI
1070
     5
1001
GRADIENTCOLOR2ACI
1070
     2
1001
ACAD
1010
0.0
1020
0.0
1030
0.0
1001
ACDBBLOCKREPETAG
1070
     1
1071
      506
1005
129F42
  0
LINE
  5
129F43
  8
SLIM
  6
CONTINUOUS
 10
3917.3382656951539502
 20
-219.7999414573615127
 30
0.0
 11
3925.8537813838638613
 21
-211.2844257686506921
 31
0.0
1001
GRADIENTCOLOR1ACI
1070
     5
1001
GRADIENTCOLOR2ACI
1070
     2
1001
ACAD
1010
0.0
1020
0.0
1030
0.0
1001
ACDBBLOCKREPETAG
1070
     1
1071
      507
1005
129F43
  0
LINE
  5
129F44
  8
SLIM
  6
CONTINUOUS
 10
4011.2844257686519995
 20
-125.8537813838634065
 30
0.0
 11
4019.7999414573619106
 21
-117.3382656951526002
 31
0.0
1001
GRADIENTCOLOR1ACI
1070
     5
1001
GRADIENTCOLOR2ACI
1070
     2
1001
ACAD
1010
0.0
1020
0.0
1030
0.0
1001
ACDBBLOCKREPETAG
1070
     1
1071
      508
1005
129F44
  0
LINE
  5
129F45
  8
SLIM
  6
CONTINUOUS
 10
3919.3312594063049801
 20
-226.7872038672788051
 30
0.0
 11
3927.3788748080642108
 21
-218.7395884655205123
 31
0.0
1001
GRADIENTCOLOR1ACI
1070
     5
1001
GRADIENTCOLOR2ACI
1070
     2
1001
ACAD
1010
0.0
1020
0.0
1030
0.0
1001
ACDBBLOCKREPETAG
1070
     1
1071
      509
1005
129F45
  0
LINE
  5
129F46
  8
SLIM
  6
CONTINUOUS
 10
4018.7395884655197733
 20
-127.3788748080627045
 30
0.0
 11
4026.7872038672799135
 21
-119.3312594063043974
 31
0.0
1001
GRADIENTCOLOR1ACI
1070
     5
1001
GRADIENTCOLOR2ACI
1070
     2
1001
ACAD
1010
0.0
1020
0.0
1030
0.0
1001
ACDBBLOCKREPETAG
1070
     1
1071
      510
1005
129F46
  0
LINE
  5
129F47
  8
SLIM
  6
CONTINUOUS
 10
3921.7957163186219987
 20
-233.3030030760328941
 30
0.0
 11
3929.5028327676941444
 21
-225.5958866269596967
 31
0.0
1001
GRADIENTCOLOR1ACI
1070
     5
1001
GRADIENTCOLOR2ACI
1070
     2
1001
ACAD
1010
0.0
1020
0.0
1030
0.0
1001
ACDBBLOCKREPETAG
1070
     1
1071
      511
1005
129F47
  0
LINE
  5
129F48
  8
SLIM
  6
CONTINUOUS
 10
4025.595886626959782
 20
-129.5028327676926097
 30
0.0
 11
4033.3030030760342015
 21
-121.7957163186194975
 31
0.0
1001
GRADIENTCOLOR1ACI
1070
     5
1001
GRADIENTCOLOR2ACI
1070
     2
1001
ACAD
1010
0.0
1020
0.0
1030
0.0
1001
ACDBBLOCKREPETAG
1070
     1
1071
      512
1005
129F48
  0
LINE
  5
129F49
  8
SLIM
  6
CONTINUOUS
 10
3924.6816635313448387
 20
-239.397311984377609
 30
0.0
 11
3932.1403895696180371
 21
-231.9385859461046095
 31
0.0
1001
GRADIENTCOLOR1ACI
1070
     5
1001
GRADIENTCOLOR2ACI
1070
     2
1001
ACAD
1010
0.0
1020
0.0
1030
0.0
1001
ACDBBLOCKREPETAG
1070
     1
1071
      513
1005
129F49
  0
LINE
  5
129F4A
  8
SLIM
  6
CONTINUOUS
 10
4031.9385859461058317
 20
-132.1403895696169002
 30
0.0
 11
4039.3973119843781205
 21
-124.6816635313439008
 31
0.0
1001
GRADIENTCOLOR1ACI
1070
     5
1001
GRADIENTCOLOR2ACI
1070
     2
1001
ACAD
1010
0.0
1020
0.0
1030
0.0
1001
ACDBBLOCKREPETAG
1070
     1
1071
      514
1005
129F4A
  0
LINE
  5
129F4B
  8
SLIM
  6
CONTINUOUS
 10
3927.9544611024248297
 20
-245.1047705343669065
 30
0.0
 11
3935.2358661991688678
 21
-237.8233654376228969
 31
0.0
1001
GRADIENTCOLOR1ACI
1070
     5
1001
GRADIENTCOLOR2ACI
1070
     2
1001
ACAD
1010
0.0
1020
0.0
1030
0.0
1001
ACDBBLOCKREPETAG
1070
     1
1071
      515
1005
129F4B
  0
LINE
  5
129F4C
  8
SLIM
  6
CONTINUOUS
 10
4037.8233654376231243
 20
-135.2358661991679014
 30
0.0
 11
4045.1047705343680718
 21
-127.9544611024238066
 31
0.0
1001
GRADIENTCOLOR1ACI
1070
     5
1001
GRADIENTCOLOR2ACI
1070
     2
1001
ACAD
1010
0.0
1020
0.0
1030
0.0
1001
ACDBBLOCKREPETAG
1070
     1
1071
      516
1005
129F4C
  0
LINE
  5
129F4D
  8
SLIM
  6
CONTINUOUS
 10
3931.5903319686658506
 20
-250.4491557891954017
 30
0.0
 11
3938.7525935835487871
 21
-243.2868941743114988
 31
0.0
1001
GRADIENTCOLOR1ACI
1070
     5
1001
GRADIENTCOLOR2ACI
1070
     2
1001
ACAD
1010
0.0
1020
0.0
1030
0.0
1001
ACDBBLOCKREPETAG
1070
     1
1071
      517
1005
129F4D
  0
LINE
  5
129F4E
  8
SLIM
  6
CONTINUOUS
 10
4044.0394877578619344
 20
-137.9999999999990905
 30
0.0
 11
4050.4491557891969933
 21
-131.5903319686644863
 31
0.0
1001
GRADIENTCOLOR1ACI
1070
     5
1001
GRADIENTCOLOR2ACI
1070
     2
1001
ACAD
1010
0.0
1020
0.0
1030
0.0
1001
ACDBBLOCKREPETAG
1070
     1
1071
      518
1005
129F4E
  0
LINE
  5
129F4F
  8
SLIM
  6
CONTINUOUS
 10
3935.5737496925257801
 20
-255.4459941864033965
 30
0.0
 11
3942.6672873130492007
 21
-248.3524565658811127
 31
0.0
1001
GRADIENTCOLOR1ACI
1070
     5
1001
GRADIENTCOLOR2ACI
1070
     2
1001
ACAD
1010
0.0
1020
0.0
1030
0.0
1001
ACDBBLOCKREPETAG
1070
     1
1071
      519
1005
129F4F
  0
LINE
  5
129F50
  8
SLIM
  6
CONTINUOUS
 10
4053.0197438789291482
 20
-137.9999999999990905
 30
0.0
 11
4055.4459941864038228
 21
-135.5737496925256096
 31
0.0
1001
GRADIENTCOLOR1ACI
1070
     5
1001
GRADIENTCOLOR2ACI
1070
     2
1001
ACAD
1010
0.0
1020
0.0
1030
0.0
1001
ACDBBLOCKREPETAG
1070
     1
1071
      520
1005
129F50
  0
LINE
  5
129F51
  8
SLIM
  6
CONTINUOUS
 10
3939.8959235991442256
 20
-260.1040764008556039
 30
0.0
 11
3946.9669914110090758
 21
-253.0330085889902136
 31
0.0
1001
GRADIENTCOLOR1ACI
1070
     5
1001
GRADIENTCOLOR2ACI
1070
     2
1001
ACAD
1010
0.0
1020
0.0
1030
0.0
1001
ACDBBLOCKREPETAG
1070
     1
1071
      521
1005
129F51
  0
LINE
  5
129F52
  8
SLIM
  6
CONTINUOUS
 10
3944.5540058135961772
 20
-264.4262503074725146
 30
0.0
 11
3951.6475434341177788
 21
-257.3327126869502877
 31
0.0
1001
GRADIENTCOLOR1ACI
1070
     5
1001
GRADIENTCOLOR2ACI
1070
     2
1001
ACAD
1010
0.0
1020
0.0
1030
0.0
1001
ACDBBLOCKREPETAG
1070
     1
1071
      522
1005
129F52
  0
LINE
  5
129F53
  8
SLIM
  6
CONTINUOUS
 10
3949.5508442108030067
 20
-268.4096680313336947
 30
0.0
 11
3956.7131058256891265
 21
-261.2474064164496781
 31
0.0
1001
GRADIENTCOLOR1ACI
1070
     5
1001
GRADIENTCOLOR2ACI
1070
     2
1001
ACAD
1010
0.0
1020
0.0
1030
0.0
1001
ACDBBLOCKREPETAG
1070
     1
1071
      523
1005
129F53
  0
LINE
  5
129F54
  8
SLIM
  6
CONTINUOUS
 10
3954.8952294656328377
 20
-272.0455388975743745
 30
0.0
 11
3962.1766345623750567
 21
-264.7641338008302796
 31
0.0
1001
GRADIENTCOLOR1ACI
1070
     5
1001
GRADIENTCOLOR2ACI
1070
     2
1001
ACAD
1010
0.0
1020
0.0
1030
0.0
1001
ACDBBLOCKREPETAG
1070
     1
1071
      524
1005
129F54
  0
LINE
  5
129F55
  8
SLIM
  6
CONTINUOUS
 10
3960.60268801562097
 20
-275.318336468654195
 30
0.0
 11
3968.0614140538959873
 21
-267.8596104303812808
 31
0.0
1001
GRADIENTCOLOR1ACI
1070
     5
1001
GRADIENTCOLOR2ACI
1070
     2
1001
ACAD
1010
0.0
1020
0.0
1030
0.0
1001
ACDBBLOCKREPETAG
1070
     1
1071
      525
1005
129F55
  0
LINE
  5
129F56
  8
SLIM
  6
CONTINUOUS
 10
3966.6969969239680722
 20
-278.2042836813786266
 30
0.0
 11
3974.404113373040218
 21
-270.4971672323056282
 31
0.0
1001
GRADIENTCOLOR1ACI
1070
     5
1001
GRADIENTCOLOR2ACI
1070
     2
1001
ACAD
1010
0.0
1020
0.0
1030
0.0
1001
ACDBBLOCKREPETAG
1070
     1
1071
      526
1005
129F56
  0
LINE
  5
129F57
  8
SLIM
  6
CONTINUOUS
 10
3973.212796132719177
 20
-280.6687405936937125
 30
0.0
 11
3981.260411534477953
 21
-272.6211251919353913
 31
0.0
1001
GRADIENTCOLOR1ACI
1070
     5
1001
GRADIENTCOLOR2ACI
1070
     2
1001
ACAD
1010
0.0
1020
0.0
1030
0.0
1001
ACDBBLOCKREPETAG
1070
     1
1071
      527
1005
129F57
  0
LINE
  5
129F58
  8
SLIM
  6
CONTINUOUS
 10
3980.2000585426389989
 20
-282.6617343048454813
 30
0.0
 11
3988.71557423134891
 21
-274.1462186161347745
 31
0.0
1001
GRADIENTCOLOR1ACI
1070
     5
1001
GRADIENTCOLOR2ACI
1070
     2
1001
ACAD
1010
0.0
1020
0.0
1030
0.0
1001
ACDBBLOCKREPETAG
1070
     1
1071
      528
1005
129F58
  0
LINE
  5
129F59
  8
SLIM
  6
CONTINUOUS
 10
3987.7320215894251305
 20
-284.1100273791270752
 30
0.0
 11
3996.9058992121458687
 21
-274.9361497564058254
 31
0.0
1001
GRADIENTCOLOR1ACI
1070
     5
1001
GRADIENTCOLOR2ACI
1070
     2
1001
ACAD
1010
0.0
1020
0.0
1030
0.0
1001
ACDBBLOCKREPETAG
1070
     1
1071
      529
1005
129F59
  0
LINE
  5
129F5A
  8
SLIM
  6
CONTINUOUS
 10
3995.9202686470971457
 20
-284.9020364425256844
 30
0.0
 11
4000.0
 21
-280.8223050896215227
 31
0.0
1001
GRADIENTCOLOR1ACI
1070
     5
1001
GRADIENTCOLOR2ACI
1070
     2
1001
ACAD
1010
0.0
1020
0.0
1030
0.0
1001
ACDBBLOCKREPETAG
1070
     1
1071
      530
1005
129F5A
  0
LINE
  5
129F5B
  8
SLIM
  6
CONTINUOUS
 10
4000.0
 20
-280.8223050896215227
 30
0.0
 11
4006.0681947513990053
 21
-274.75411033822121
 31
0.0
1001
GRADIENTCOLOR1ACI
1070
     5
1001
GRADIENTCOLOR2ACI
1070
     2
1001
ACAD
1010
0.0
1020
0.0
1030
0.0
1001
ACDBBLOCKREPETAG
1070
     1
1071
      531
1005
129F5B
  0
LINE
  5
129F5C
  8
SLIM
  6
CONTINUOUS
 10
4004.9466187997441011
 20
-284.8559424109465112
 30
0.0
 11
4016.6811636672459827
 21
-273.1213975434441181
 31
0.0
1001
GRADIENTCOLOR1ACI
1070
     5
1001
GRADIENTCOLOR2ACI
1070
     2
1001
ACAD
1010
0.0
1020
0.0
1030
0.0
1001
ACDBBLOCKREPETAG
1070
     1
1071
      532
1005
129F5C
  0
LINE
  5
129F5D
  8
SLIM
  6
CONTINUOUS
 10
4015.1424853251392051
 20
-283.6403320066211222
 30
0.0
 11
4030.078492003709016
 21
-268.704325328051425
 31
0.0
1001
GRADIENTCOLOR1ACI
1070
     5
1001
GRADIENTCOLOR2ACI
1070
     2
1001
ACAD
1010
0.0
1020
0.0
1030
0.0
1001
ACDBBLOCKREPETAG
1070
     1
1071
      533
1005
129F5D
  0
LINE
  5
129F5E
  8
SLIM
  6
CONTINUOUS
 10
4027.2492255236670644
 20
-280.5138479291617273
 30
0.0
 11
4045.7630734528311223
 21
-261.9999999999990905
 31
0.0
1001
GRADIENTCOLOR1ACI
1070
     5
1001
GRADIENTCOLOR2ACI
1070
     2
1001
ACAD
1010
0.0
1020
0.0
1030
0.0
1001
ACDBBLOCKREPETAG
1070
     1
1071
      534
1005
129F5E
  0
LINE
  5
129F5F
  8
SLIM
  6
CONTINUOUS
 10
4044.0451596304219493
 20
-272.6981699434758184
 30
0.0
 11
4054.7433295738978813
 21
-261.9999999999990905
 31
0.0
1001
GRADIENTCOLOR1ACI
1070
     5
1001
GRADIENTCOLOR2ACI
1070
     2
1001
ACAD
1010
0.0
1020
0.0
1030
0.0
1001
ACDBBLOCKREPETAG
1070
     1
1071
      535
1005
129F5F
  0
LINE
  5
129F60
  8
CENTER
 10
4080.0
 20
-199.9999999999990905
 30
0.0
 11
3900.0
 21
-199.9999999999990905
 31
0.0
1001
ACDBBLOCKREPETAG
1070
     1
1071
      187
1005
129F60
  0
LINE
  5
129F61
  8
CENTER
 10
4000.0
 20
-299.9999999999990905
 30
0.0
 11
4000.0
 21
-99.9999999999990763
 31
0.0
1001
ACDBBLOCKREPETAG
1070
     1
1071
      188
1005
129F61
  0
CIRCLE
  5
129F62
  8
OBJECT
 10
4000.0
 20
-199.9999999999990905
 30
0.0
 40
75.0
1001
ACDBBLOCKREPETAG
1070
     1
1071
      190
1005
129F62
  0
LINE
  5
129F63
  8
OBJECT
 10
4042.201895692016933
 20
-137.9999999999990905
 30
0.0
 11
4080.0
 21
-137.9999999999990905
 31
0.0
1001
ACDBBLOCKREPETAG
1070
     1
1071
      192
1005
129F63
  0
LINE
  5
129F64
  8
OBJECT
 10
4042.201895692016933
 20
-261.9999999999990905
 30
0.0
 11
4080.0
 21
-261.9999999999990905
 31
0.0
1001
ACDBBLOCKREPETAG
1070
     1
1071
      193
1005
129F64
  0
POINT
  5
129F65
  8
DOTS
 10
4000.0
 20
-199.9999999999990905
 30
0.0
1001
ACDBBLOCKREPETAG
1070
     1
1071
      194
1005
129F65
  0
ARC
  5
129F66
  8
OBJECT
 10
4000.0
 20
-199.9999999999990905
 30
0.0
 40
85.0
 50
46.8371028598341468
 51
313.1628971401659101
1001
ACDBBLOCKREPETAG
1070
     1
1071
      202
1005
129F66
  0
CIRCLE
  5
129F67
  8
OBJECT
 10
4000.0
 20
-199.9999999999990905
 30
0.0
 40
52.5
1001
ACDBBLOCKREPETAG
1070
     1
1071
      488
1005
129F67
  0
CIRCLE
  5
129F68
  8
OBJECT
 10
4000.0
 20
-199.9999999999990905
 30
0.0
 40
57.0
1001
ACDBBLOCKREPETAG
1070
     1
1071
      489
1005
129F68
  0
LINE
  5
129F69
  8
CENTER
 10
2080.0
 20
-199.9999999999990905
 30
0.0
 11
1905.0
 21
-199.9999999999990905
 31
0.0
1001
ACDBBLOCKREPETAG
1070
     1
1071
       14
1005
129F69
  0
LINE
  5
129F6A
  8
CENTER
 10
2000.0
 20
-294.9999999999990905
 30
0.0
 11
2000.0
 21
-104.9999999999991047
 31
0.0
1001
ACDBBLOCKREPETAG
1070
     1
1071
       15
1005
129F6A
  0
CIRCLE
  5
129F6B
  8
OBJECT
 10
2000.0
 20
-199.9999999999990905
 30
0.0
 40
75.0
1001
ACDBBLOCKREPETAG
1070
     1
1071
       17
1005
129F6B
  0
ARC
  5
129F6C
  8
OBJECT
 10
2000.0
 20
-199.9999999999990905
 30
0.0
 40
80.0
 50
50.8050325738641888
 51
309.1949674261358041
1001
ACDBBLOCKREPETAG
1070
     1
1071
       18
1005
129F6C
  0
LINE
  5
129F6D
  8
OBJECT
 10
2042.2018956920180699
 20
-137.9999999999990905
 30
0.0
 11
2080.0
 21
-137.9999999999990905
 31
0.0
1001
ACDBBLOCKREPETAG
1070
     1
1071
       19
1005
129F6D
  0
LINE
  5
129F6E
  8
OBJECT
 10
2042.2018956920180699
 20
-261.9999999999990905
 30
0.0
 11
2080.0
 21
-261.9999999999990905
 31
0.0
1001
ACDBBLOCKREPETAG
1070
     1
1071
       20
1005
129F6E
  0
POINT
  5
129F6F
  8
DOTS
 10
2000.0
 20
-199.9999999999990905
 30
0.0
1001
ACDBBLOCKREPETAG
1070
     1
1071
       21
1005
129F6F
  0
CIRCLE
  5
129F70
  8
OBJECT
 10
2000.0
 20
-199.9999999999990905
 30
0.0
 40
52.5
1001
ACDBBLOCKREPETAG
1070
     1
1071
      494
1005
129F70
  0
CIRCLE
  5
129F71
  8
OBJECT
 10
2000.0
 20
-199.9999999999990905
 30
0.0
 40
57.0
1001
ACDBBLOCKREPETAG
1070
     1
1071
      483
1005
129F71
  0
TEXT
  5
129F72
  8
SLIM
 10
2631.0
 20
-2972.5000160472700372
 30
0.0
 40
40.0
  1
C寸法
 41
0.75
  0
TEXT
  5
129F73
  8
SLIM
 10
2631.0
 20
-2902.5000160472700372
 30
0.0
 40
40.0
  1
B寸法
 41
0.75
  0
TEXT
  5
129F74
  8
SLIM
 10
2630.2857142857151302
 20
-2832.5000160472700372
 30
0.0
 40
40.0
  1
A寸法
 41
0.75
  0
TEXT
  5
129F75
  8
SLIM
 10
3159.2857142857151302
 20
-2972.5000160472700372
 30
0.0
 40
40.0
  1
150
 41
0.75
  0
TEXT
  5
129F76
  8
SLIM
 10
3029.2857142857160397
 20
-2972.5000160472700372
 30
0.0
 40
40.0
  1
140
 41
0.75
  0
TEXT
  5
129F77
  8
SLIM
 10
2769.2857142857160397
 20
-2972.5000160472700372
 30
0.0
 40
40.0
  1
140
 41
0.75
  0
TEXT
  5
129F78
  8
SLIM
 10
2899.2857142857151302
 20
-2972.5000160472700372
 30
0.0
 40
40.0
  1
140
 41
0.75
  0
TEXT
  5
129F79
  8
SLIM
 10
3170.7142857142857792
 20
-2902.5000160472700372
 30
0.0
 40
40.0
  1
72
 41
0.75
  0
TEXT
  5
129F7A
  8
SLIM
 10
3041.4285714285711038
 20
-2902.5000160472700372
 30
0.0
 40
40.0
  1
59
 41
0.75
  0
TEXT
  5
129F7B
  8
SLIM
 10
2780.0
 20
-2902.5000160472700372
 30
0.0
 40
40.0
  1
44
 41
0.75
  0
TEXT
  5
129F7C
  8
SLIM
 10
2910.7142857142857792
 20
-2902.5000160472700372
 30
0.0
 40
40.0
  1
52
 41
0.75
  0
TEXT
  5
129F7D
  8
SLIM
 10
2891.0
 20
-2707.5000160472700372
 30
0.0
 40
40.0
  1
横枝管サイズ
 41
0.75
  0
TEXT
  5
129F7E
  8
SLIM
 10
3136.2857142857151302
 20
-2762.5000160472700372
 30
0.0
 40
30.0
  1
100（4）
 41
0.75
  0
TEXT
  5
129F7F
  8
SLIM
 10
3014.8571428571440265
 20
-2762.5000160472700372
 30
0.0
 40
30.0
  1
75（3）
 41
0.75
  0
TEXT
  5
129F80
  8
SLIM
 10
2884.857142857143117
 20
-2762.5000160472700372
 30
0.0
 40
30.0
  1
65（2）
 41
0.75
  0
TEXT
  5
129F81
  8
SLIM
 10
2757.0
 20
-2762.5000160472700372
 30
0.0
 40
30.0
  1
50（1）
 41
0.75
  0
TEXT
  5
129F82
  8
SLIM
 10
3159.2857142857151302
 20
-2832.5000160472700372
 30
0.0
 40
40.0
  1
150
 41
0.75
  0
TEXT
  5
129F83
  8
SLIM
 10
3028.5714285714279868
 20
-2832.5000160472700372
 30
0.0
 40
40.0
  1
124
 41
0.75
  0
TEXT
  5
129F84
  8
SLIM
 10
2780.0
 20
-2832.5000160472700372
 30
0.0
 40
40.0
  1
94
 41
0.75
  0
TEXT
  5
129F85
  8
SLIM
 10
2902.142857142856883
 20
-2832.5000160472700372
 30
0.0
 40
40.0
  1
110
 41
0.75
  0
TEXT
  5
129F86
  8
SLIM
 10
1849.9999999999990905
 20
-2732.5
 30
0.0
 40
75.0
  1
枝管サイズ毎の形状
 41
0.75
  0
CIRCLE
  5
129F87
  8
OBJECT
 10
539.9999999998779003
 20
-695.9999999998417479
 30
0.0
 40
75.0
1001
ACDBBLOCKREPETAG
1070
     1
1071
       51
1005
129F87
  0
ARC
  5
129F88
  8
OBJECT
 10
539.9999999998779003
 20
-695.9999999998417479
 30
0.0
 40
80.0
 50
140.8050325737787034
 51
39.1949674262212824
1001
ACDBBLOCKREPETAG
1070
     1
1071
       52
1005
129F88
  0
LINE
  5
129F89
  8
OBJECT
 10
477.9999999998779003
 20
-653.7981043078232233
 30
0.0
 11
477.9999999998779003
 21
-615.9999999998417479
 31
0.0
1001
ACDBBLOCKREPETAG
1070
     1
1071
       53
1005
129F89
  0
LINE
  5
129F8A
  8
OBJECT
 10
601.999999999878014
 20
-653.7981043078232233
 30
0.0
 11
601.999999999878014
 21
-615.9999999998417479
 31
0.0
1001
ACDBBLOCKREPETAG
1070
     1
1071
       54
1005
129F8A
  0
POINT
  5
129F8B
  8
DOTS
 10
539.9999999998779003
 20
-695.9999999998417479
 30
0.0
1001
ACDBBLOCKREPETAG
1070
     1
1071
       63
1005
129F8B
  0
CIRCLE
  5
129F8C
  8
OBJECT
 10
539.9999999998779003
 20
-695.9999999998417479
 30
0.0
 40
52.5
1001
ACDBBLOCKREPETAG
1070
     1
1071
      162
1005
129F8C
  0
CIRCLE
  5
129F8D
  8
OBJECT
 10
539.9999999998779003
 20
-695.9999999998417479
 30
0.0
 40
57.0
1001
ACDBBLOCKREPETAG
1070
     1
1071
      163
1005
129F8D
  0
CIRCLE
  5
129F8E
  8
OBJECT
 10
180.0
 20
-695.9999999998417479
 30
0.0
 40
75.0
1001
ACDBBLOCKREPETAG
1070
     1
1071
       51
1005
129F8E
  0
ARC
  5
129F8F
  8
OBJECT
 10
180.0
 20
-695.9999999998417479
 30
0.0
 40
80.0
 50
140.8050325737796982
 51
39.1949674262202521
1001
ACDBBLOCKREPETAG
1070
     1
1071
       52
1005
129F8F
  0
LINE
  5
129F90
  8
OBJECT
 10
118.0
 20
-653.7981043078232233
 30
0.0
 11
118.0
 21
-615.9999999998417479
 31
0.0
1001
ACDBBLOCKREPETAG
1070
     1
1071
       53
1005
129F90
  0
LINE
  5
129F91
  8
OBJECT
 10
242.0
 20
-653.7981043078232233
 30
0.0
 11
242.0
 21
-615.9999999998417479
 31
0.0
1001
ACDBBLOCKREPETAG
1070
     1
1071
       54
1005
129F91
  0
POINT
  5
129F92
  8
DOTS
 10
180.0
 20
-695.9999999998417479
 30
0.0
1001
ACDBBLOCKREPETAG
1070
     1
1071
       63
1005
129F92
  0
CIRCLE
  5
129F93
  8
OBJECT
 10
180.0
 20
-695.9999999998417479
 30
0.0
 40
52.5
1001
ACDBBLOCKREPETAG
1070
     1
1071
      162
1005
129F93
  0
CIRCLE
  5
129F94
  8
OBJECT
 10
180.0
 20
-695.9999999998417479
 30
0.0
 40
57.0
1001
ACDBBLOCKREPETAG
1070
     1
1071
      163
1005
129F94
  0
CIRCLE
  5
129F95
  8
OBJECT
 10
539.9999999998779003
 20
-232.0
 30
0.0
 40
75.0
1001
ACDBBLOCKREPETAG
1070
     1
1071
       51
1005
129F95
  0
ARC
  5
129F96
  8
OBJECT
 10
539.9999999998779003
 20
-232.0
 30
0.0
 40
80.0
 50
140.8050325737787034
 51
39.1949674262212824
1001
ACDBBLOCKREPETAG
1070
     1
1071
       52
1005
129F96
  0
LINE
  5
129F97
  8
OBJECT
 10
477.9999999998779003
 20
-189.798104307981589
 30
0.0
 11
477.9999999998779003
 21
-152.0
 31
0.0
1001
ACDBBLOCKREPETAG
1070
     1
1071
       53
1005
129F97
  0
LINE
  5
129F98
  8
OBJECT
 10
601.999999999878014
 20
-189.798104307981589
 30
0.0
 11
601.999999999878014
 21
-152.0
 31
0.0
1001
ACDBBLOCKREPETAG
1070
     1
1071
       54
1005
129F98
  0
POINT
  5
129F99
  8
DOTS
 10
539.9999999998779003
 20
-232.0
 30
0.0
1001
ACDBBLOCKREPETAG
1070
     1
1071
       63
1005
129F99
  0
CIRCLE
  5
129F9A
  8
OBJECT
 10
539.9999999998779003
 20
-232.0
 30
0.0
 40
52.5
1001
ACDBBLOCKREPETAG
1070
     1
1071
      162
1005
129F9A
  0
CIRCLE
  5
129F9B
  8
OBJECT
 10
539.9999999998779003
 20
-232.0
 30
0.0
 40
57.0
1001
ACDBBLOCKREPETAG
1070
     1
1071
      163
1005
129F9B
  0
CIRCLE
  5
129F9C
  8
OBJECT
 10
180.0
 20
-232.0
 30
0.0
 40
75.0
1001
ACDBBLOCKREPETAG
1070
     1
1071
       51
1005
129F9C
  0
ARC
  5
129F9D
  8
OBJECT
 10
180.0
 20
-232.0
 30
0.0
 40
80.0
 50
140.8050325737796982
 51
39.1949674262202521
1001
ACDBBLOCKREPETAG
1070
     1
1071
       52
1005
129F9D
  0
LINE
  5
129F9E
  8
OBJECT
 10
118.0
 20
-189.798104307981589
 30
0.0
 11
118.0
 21
-152.0
 31
0.0
1001
ACDBBLOCKREPETAG
1070
     1
1071
       53
1005
129F9E
  0
LINE
  5
129F9F
  8
OBJECT
 10
242.0
 20
-189.798104307981589
 30
0.0
 11
242.0
 21
-152.0
 31
0.0
1001
ACDBBLOCKREPETAG
1070
     1
1071
       54
1005
129F9F
  0
POINT
  5
129FA0
  8
DOTS
 10
180.0
 20
-232.0
 30
0.0
1001
ACDBBLOCKREPETAG
1070
     1
1071
       63
1005
129FA0
  0
CIRCLE
  5
129FA1
  8
OBJECT
 10
180.0
 20
-232.0
 30
0.0
 40
52.5
1001
ACDBBLOCKREPETAG
1070
     1
1071
      162
1005
129FA1
  0
CIRCLE
  5
129FA2
  8
OBJECT
 10
180.0
 20
-232.0
 30
0.0
 40
57.0
1001
ACDBBLOCKREPETAG
1070
     1
1071
      163
1005
129FA2
  0
TEXT
  5
129FA3
  8
SLIM
 10
1837.75
 20
282.5000000000001137
 30
0.0
 40
35.0
  1
（枝管サイズ毎に寸法が異なります。管底の位置は50～100で同じです）
 41
0.75
  0
TEXT
  5
129FA4
  8
SLIM
 10
1850.0
 20
532.5
 30
0.0
 40
75.0
  1
側面図の代表機種
 41
0.75
  0
TEXT
  5
129FA5
  8
SLIM
 10
1850.0
 20
369.9999999999998863
 30
0.0
 40
100.0
  1
4SSR2-A3-0
 41
0.75
  0
LINE
  5
129FA6
  8
OBJECT
 10
4133.0
 20
-137.9999999999990905
 30
0.0
 11
4140.0
 21
-137.9999999999990905
 31
0.0
1001
ACDBBLOCKREPETAG
1070
     1
1071
       47
1005
129FA6
  0
LINE
  5
129FA7
  8
OBJECT
 10
4140.0
 20
-137.9999999999990905
 30
0.0
 11
4140.0
 21
-261.9999999999990905
 31
0.0
1001
ACDBBLOCKREPETAG
1070
     1
1071
       48
1005
129FA7
  0
LINE
  5
129FA8
  8
OBJECT
 10
4140.0
 20
-261.9999999999990905
 30
0.0
 11
4133.0
 21
-261.9999999999990905
 31
0.0
1001
ACDBBLOCKREPETAG
1070
     1
1071
       49
1005
129FA8
  0
LINE
  5
129FA9
  8
OBJECT
 10
4133.0
 20
-261.9999999999990905
 30
0.0
 11
4133.0
 21
-137.9999999999990905
 31
0.0
1001
ACDBBLOCKREPETAG
1070
     1
1071
       50
1005
129FA9
  0
LINE
  5
129FAA
  8
CENTER
 10
4155.0
 20
-199.9999999999990905
 30
0.0
 11
4080.0
 21
-199.9999999999990905
 31
0.0
1001
ACDBBLOCKREPETAG
1070
     1
1071
       51
1005
129FAA
  0
LINE
  5
129FAB
  8
OBJECT
 10
4133.0
 20
-140.9999999999990905
 30
0.0
 11
4097.0
 21
-140.9999999999990905
 31
0.0
1001
ACDBBLOCKREPETAG
1070
     1
1071
       52
1005
129FAB
  0
LINE
  5
129FAC
  8
OBJECT
 10
4097.0
 20
-140.9999999999990905
 30
0.0
 11
4097.0
 21
-258.9999999999990905
 31
0.0
1001
ACDBBLOCKREPETAG
1070
     1
1071
       53
1005
129FAC
  0
LINE
  5
129FAD
  8
OBJECT
 10
4097.0
 20
-258.9999999999990905
 30
0.0
 11
4133.0
 21
-258.9999999999990905
 31
0.0
1001
ACDBBLOCKREPETAG
1070
     1
1071
       54
1005
129FAD
  0
LINE
  5
129FAE
  8
OBJECT
 10
4093.0
 20
-145.4999999999990905
 30
0.0
 11
4086.0
 21
-145.4999999999990905
 31
0.0
1001
ACDBBLOCKREPETAG
1070
     1
1071
       55
1005
129FAE
  0
LINE
  5
129FAF
  8
OBJECT
 10
4086.0
 20
-254.4999999999990905
 30
0.0
 11
4093.0
 21
-254.4999999999990905
 31
0.0
1001
ACDBBLOCKREPETAG
1070
     1
1071
       56
1005
129FAF
  0
LINE
  5
129FB0
  8
OBJECT
 10
4093.0
 20
-254.4999999999990905
 30
0.0
 11
4093.0
 21
-145.4999999999990905
 31
0.0
1001
ACDBBLOCKREPETAG
1070
     1
1071
       57
1005
129FB0
  0
LINE
  5
129FB1
  8
OBJECT
 10
4097.0
 20
-140.9999999999990905
 30
0.0
 11
4093.0
 21
-145.4999999999990905
 31
0.0
1001
ACDBBLOCKREPETAG
1070
     1
1071
       58
1005
129FB1
  0
LINE
  5
129FB2
  8
OBJECT
 10
4097.0
 20
-258.9999999999990905
 30
0.0
 11
4093.0
 21
-254.4999999999990905
 31
0.0
1001
ACDBBLOCKREPETAG
1070
     1
1071
       59
1005
129FB2
  0
LINE
  5
129FB3
  8
OBJECT
 10
4083.0
 20
-137.9999999999990905
 30
0.0
 11
4080.0
 21
-137.9999999999990905
 31
0.0
1001
ACDBBLOCKREPETAG
1070
     1
1071
       60
1005
129FB3
  0
ARC
  5
129FB4
  8
OBJECT
 10
4083.0
 20
-140.9999999999990905
 30
0.0
 40
3.0
 50
0.0
 51
90.0
1001
ACDBBLOCKREPETAG
1070
     1
1071
       61
1005
129FB4
  0
LINE
  5
129FB5
  8
OBJECT
 10
4080.0
 20
-261.9999999999990905
 30
0.0
 11
4083.0
 21
-261.9999999999990905
 31
0.0
1001
ACDBBLOCKREPETAG
1070
     1
1071
       62
1005
129FB5
  0
ARC
  5
129FB6
  8
OBJECT
 10
4083.0
 20
-258.9999999999990905
 30
0.0
 40
3.0
 50
270.0
 51
0.0
1001
ACDBBLOCKREPETAG
1070
     1
1071
       63
1005
129FB6
  0
LINE
  5
129FB7
  8
OBJECT
 10
4086.0
 20
-258.9999999999990905
 30
0.0
 11
4086.0
 21
-140.9999999999990905
 31
0.0
1001
ACDBBLOCKREPETAG
1070
     1
1071
       64
1005
129FB7
  0
LINE
  5
129FB8
  8
HIDDEN
 10
4088.0
 20
-155.4999999999990905
 30
0.0
 11
4088.0
 21
-244.4999999999990905
 31
0.0
1001
ACDBBLOCKREPETAG
1070
     1
1071
       65
1005
129FB8
  0
LINE
  5
129FB9
  8
CENTER
 10
4577.0
 20
-596.0
 30
0.0
 11
4423.0
 21
-596.0
 31
0.0
1001
ACDBBLOCKREPETAG
1070
     1
1071
       17
1005
129FB9
  0
CIRCLE
  5
129FBA
  8
OBJECT
 10
4500.0
 20
-596.0
 30
0.0
 40
41.5
1001
ACDBBLOCKREPETAG
1070
     1
1071
       19
1005
129FBA
  0
CIRCLE
  5
129FBB
  8
OBJECT
 10
4500.0
 20
-596.0
 30
0.0
 40
54.0
1001
ACDBBLOCKREPETAG
1070
     1
1071
       20
1005
129FBB
  0
ARC
  5
129FBC
  8
OBJECT
 10
4500.0
 20
-596.0
 30
0.0
 40
62.0
 50
287.8965511292071824
 51
252.1034488707927892
1001
ACDBBLOCKREPETAG
1070
     1
1071
       21
1005
129FBC
  0
LINE
  5
129FBD
  8
OBJECT
 10
4480.947441116742084
 20
-655.0
 30
0.0
 11
4519.0525588832570065
 21
-655.0
 31
0.0
1001
ACDBBLOCKREPETAG
1070
     1
1071
       22
1005
129FBD
  0
LINE
  5
129FBE
  8
OBJECT
 10
4133.0
 20
-534.0
 30
0.0
 11
4140.0
 21
-534.0
 31
0.0
1001
ACDBBLOCKREPETAG
1070
     1
1071
       45
1005
129FBE
  0
LINE
  5
129FBF
  8
OBJECT
 10
4140.0
 20
-534.0
 30
0.0
 11
4140.0
 21
-655.0
 31
0.0
1001
ACDBBLOCKREPETAG
1070
     1
1071
       46
1005
129FBF
  0
LINE
  5
129FC0
  8
OBJECT
 10
4133.0
 20
-655.0
 30
0.0
 11
4133.0
 21
-534.0
 31
0.0
1001
ACDBBLOCKREPETAG
1070
     1
1071
       47
1005
129FC0
  0
LINE
  5
129FC1
  8
CENTER
 10
4155.0
 20
-596.0
 30
0.0
 11
4071.0
 21
-596.0
 31
0.0
1001
ACDBBLOCKREPETAG
1070
     1
1071
       48
1005
129FC1
  0
LINE
  5
129FC2
  8
OBJECT
 10
4133.0
 20
-537.0
 30
0.0
 11
4097.0
 21
-537.0
 31
0.0
1001
ACDBBLOCKREPETAG
1070
     1
1071
       49
1005
129FC2
  0
LINE
  5
129FC3
  8
OBJECT
 10
4097.0
 20
-537.0
 30
0.0
 11
4097.0
 21
-655.0
 31
0.0
1001
ACDBBLOCKREPETAG
1070
     1
1071
       50
1005
129FC3
  0
LINE
  5
129FC4
  8
OBJECT
 10
4097.0
 20
-655.0
 30
0.0
 11
4140.0
 21
-655.0
 31
0.0
1001
ACDBBLOCKREPETAG
1070
     1
1071
       51
1005
129FC4
  0
LINE
  5
129FC5
  8
OBJECT
 10
4093.0
 20
-541.5
 30
0.0
 11
4086.0
 21
-541.5
 31
0.0
1001
ACDBBLOCKREPETAG
1070
     1
1071
       52
1005
129FC5
  0
LINE
  5
129FC6
  8
OBJECT
 10
4086.0
 20
-650.4999999999998863
 30
0.0
 11
4093.0
 21
-650.4999999999998863
 31
0.0
1001
ACDBBLOCKREPETAG
1070
     1
1071
       53
1005
129FC6
  0
LINE
  5
129FC7
  8
OBJECT
 10
4093.0
 20
-650.4999999999998863
 30
0.0
 11
4093.0
 21
-541.5
 31
0.0
1001
ACDBBLOCKREPETAG
1070
     1
1071
       54
1005
129FC7
  0
LINE
  5
129FC8
  8
OBJECT
 10
4097.0
 20
-537.0
 30
0.0
 11
4093.0
 21
-541.5
 31
0.0
1001
ACDBBLOCKREPETAG
1070
     1
1071
       55
1005
129FC8
  0
LINE
  5
129FC9
  8
OBJECT
 10
4097.0
 20
-655.0
 30
0.0
 11
4093.0
 21
-650.4999999999998863
 31
0.0
1001
ACDBBLOCKREPETAG
1070
     1
1071
       56
1005
129FC9
  0
LINE
  5
129FCA
  8
OBJECT
 10
4083.0
 20
-534.0
 30
0.0
 11
4080.0
 21
-534.0
 31
0.0
1001
ACDBBLOCKREPETAG
1070
     1
1071
       57
1005
129FCA
  0
ARC
  5
129FCB
  8
OBJECT
 10
4083.0
 20
-537.0
 30
0.0
 40
3.0
 50
0.0
 51
90.0
1001
ACDBBLOCKREPETAG
1070
     1
1071
       58
1005
129FCB
  0
LINE
  5
129FCC
  8
OBJECT
 10
4080.0
 20
-658.0
 30
0.0
 11
4083.0
 21
-658.0
 31
0.0
1001
ACDBBLOCKREPETAG
1070
     1
1071
       59
1005
129FCC
  0
ARC
  5
129FCD
  8
OBJECT
 10
4083.0
 20
-655.0
 30
0.0
 40
3.0
 50
270.0
 51
0.0
1001
ACDBBLOCKREPETAG
1070
     1
1071
       60
1005
129FCD
  0
LINE
  5
129FCE
  8
OBJECT
 10
4086.0
 20
-655.0
 30
0.0
 11
4086.0
 21
-537.0
 31
0.0
1001
ACDBBLOCKREPETAG
1070
     1
1071
       61
1005
129FCE
  0
LINE
  5
129FCF
  8
HIDDEN
 10
4088.0
 20
-551.4999999999997726
 30
0.0
 11
4088.0
 21
-640.5
 31
0.0
1001
ACDBBLOCKREPETAG
1070
     1
1071
       63
1005
129FCF
  0
LINE
  5
129FD0
  8
CENTER
 10
2577.0
 20
-596.0
 30
0.0
 11
2423.0
 21
-596.0
 31
0.0
1001
ACDBBLOCKREPETAG
1070
     1
1071
       17
1005
129FD0
  0
CIRCLE
  5
129FD1
  8
OBJECT
 10
2500.0
 20
-596.0
 30
0.0
 40
41.5
1001
ACDBBLOCKREPETAG
1070
     1
1071
       19
1005
129FD1
  0
CIRCLE
  5
129FD2
  8
OBJECT
 10
2500.0
 20
-596.0
 30
0.0
 40
54.0
1001
ACDBBLOCKREPETAG
1070
     1
1071
       20
1005
129FD2
  0
ARC
  5
129FD3
  8
OBJECT
 10
2500.0
 20
-596.0
 30
0.0
 40
62.0
 50
287.8965511292071824
 51
252.1034488707927892
1001
ACDBBLOCKREPETAG
1070
     1
1071
       21
1005
129FD3
  0
LINE
  5
129FD4
  8
OBJECT
 10
2480.9474411167429935
 20
-655.0
 30
0.0
 11
2519.0525588832570065
 21
-655.0
 31
0.0
1001
ACDBBLOCKREPETAG
1070
     1
1071
       22
1005
129FD4
  0
LINE
  5
129FD5
  8
OBJECT
 10
2133.0
 20
-534.0
 30
0.0
 11
2140.0
 21
-534.0
 31
0.0
1001
ACDBBLOCKREPETAG
1070
     1
1071
       45
1005
129FD5
  0
LINE
  5
129FD6
  8
OBJECT
 10
2140.0
 20
-534.0
 30
0.0
 11
2140.0
 21
-655.0
 31
0.0
1001
ACDBBLOCKREPETAG
1070
     1
1071
       46
1005
129FD6
  0
LINE
  5
129FD7
  8
OBJECT
 10
2133.0
 20
-655.0
 30
0.0
 11
2133.0
 21
-534.0
 31
0.0
1001
ACDBBLOCKREPETAG
1070
     1
1071
       47
1005
129FD7
  0
LINE
  5
129FD8
  8
CENTER
 10
2155.0
 20
-596.0
 30
0.0
 11
2071.0
 21
-596.0
 31
0.0
1001
ACDBBLOCKREPETAG
1070
     1
1071
       48
1005
129FD8
  0
LINE
  5
129FD9
  8
OBJECT
 10
2133.0
 20
-537.0
 30
0.0
 11
2097.0
 21
-537.0
 31
0.0
1001
ACDBBLOCKREPETAG
1070
     1
1071
       49
1005
129FD9
  0
LINE
  5
129FDA
  8
OBJECT
 10
2097.0
 20
-537.0
 30
0.0
 11
2097.0
 21
-655.0
 31
0.0
1001
ACDBBLOCKREPETAG
1070
     1
1071
       50
1005
129FDA
  0
LINE
  5
129FDB
  8
OBJECT
 10
2097.0
 20
-655.0
 30
0.0
 11
2140.0
 21
-655.0
 31
0.0
1001
ACDBBLOCKREPETAG
1070
     1
1071
       51
1005
129FDB
  0
LINE
  5
129FDC
  8
OBJECT
 10
2093.0
 20
-541.5
 30
0.0
 11
2086.0
 21
-541.5
 31
0.0
1001
ACDBBLOCKREPETAG
1070
     1
1071
       52
1005
129FDC
  0
LINE
  5
129FDD
  8
OBJECT
 10
2086.0
 20
-650.4999999999998863
 30
0.0
 11
2093.0
 21
-650.4999999999998863
 31
0.0
1001
ACDBBLOCKREPETAG
1070
     1
1071
       53
1005
129FDD
  0
LINE
  5
129FDE
  8
OBJECT
 10
2093.0
 20
-650.4999999999998863
 30
0.0
 11
2093.0
 21
-541.5
 31
0.0
1001
ACDBBLOCKREPETAG
1070
     1
1071
       54
1005
129FDE
  0
LINE
  5
129FDF
  8
OBJECT
 10
2097.0
 20
-537.0
 30
0.0
 11
2093.0
 21
-541.5
 31
0.0
1001
ACDBBLOCKREPETAG
1070
     1
1071
       55
1005
129FDF
  0
LINE
  5
129FE0
  8
OBJECT
 10
2097.0
 20
-655.0
 30
0.0
 11
2093.0
 21
-650.4999999999998863
 31
0.0
1001
ACDBBLOCKREPETAG
1070
     1
1071
       56
1005
129FE0
  0
LINE
  5
129FE1
  8
OBJECT
 10
2083.0
 20
-534.0
 30
0.0
 11
2080.0
 21
-534.0
 31
0.0
1001
ACDBBLOCKREPETAG
1070
     1
1071
       57
1005
129FE1
  0
ARC
  5
129FE2
  8
OBJECT
 10
2083.0
 20
-537.0
 30
0.0
 40
3.0
 50
0.0
 51
90.0
1001
ACDBBLOCKREPETAG
1070
     1
1071
       58
1005
129FE2
  0
LINE
  5
129FE3
  8
OBJECT
 10
2080.0
 20
-658.0
 30
0.0
 11
2083.0
 21
-658.0
 31
0.0
1001
ACDBBLOCKREPETAG
1070
     1
1071
       59
1005
129FE3
  0
ARC
  5
129FE4
  8
OBJECT
 10
2083.0
 20
-655.0
 30
0.0
 40
3.0
 50
270.0
 51
0.0
1001
ACDBBLOCKREPETAG
1070
     1
1071
       60
1005
129FE4
  0
LINE
  5
129FE5
  8
OBJECT
 10
2086.0
 20
-655.0
 30
0.0
 11
2086.0
 21
-537.0
 31
0.0
1001
ACDBBLOCKREPETAG
1070
     1
1071
       61
1005
129FE5
  0
LINE
  5
129FE6
  8
HIDDEN
 10
2088.0
 20
-551.4999999999997726
 30
0.0
 11
2088.0
 21
-640.5
 31
0.0
1001
ACDBBLOCKREPETAG
1070
     1
1071
       63
1005
129FE6
  0
LINE
  5
129FE7
  8
OBJECT
 10
2133.0
 20
-137.9999999999990905
 30
0.0
 11
2140.0
 21
-137.9999999999990905
 31
0.0
1001
ACDBBLOCKREPETAG
1070
     1
1071
       47
1005
129FE7
  0
LINE
  5
129FE8
  8
OBJECT
 10
2140.0
 20
-137.9999999999990905
 30
0.0
 11
2140.0
 21
-261.9999999999990905
 31
0.0
1001
ACDBBLOCKREPETAG
1070
     1
1071
       48
1005
129FE8
  0
LINE
  5
129FE9
  8
OBJECT
 10
2140.0
 20
-261.9999999999990905
 30
0.0
 11
2133.0
 21
-261.9999999999990905
 31
0.0
1001
ACDBBLOCKREPETAG
1070
     1
1071
       49
1005
129FE9
  0
LINE
  5
129FEA
  8
OBJECT
 10
2133.0
 20
-261.9999999999990905
 30
0.0
 11
2133.0
 21
-137.9999999999990905
 31
0.0
1001
ACDBBLOCKREPETAG
1070
     1
1071
       50
1005
129FEA
  0
LINE
  5
129FEB
  8
CENTER
 10
2155.0
 20
-199.9999999999990905
 30
0.0
 11
2080.0
 21
-199.9999999999990905
 31
0.0
1001
ACDBBLOCKREPETAG
1070
     1
1071
       51
1005
129FEB
  0
LINE
  5
129FEC
  8
OBJECT
 10
2133.0
 20
-140.9999999999990905
 30
0.0
 11
2097.0
 21
-140.9999999999990905
 31
0.0
1001
ACDBBLOCKREPETAG
1070
     1
1071
       52
1005
129FEC
  0
LINE
  5
129FED
  8
OBJECT
 10
2097.0
 20
-140.9999999999990905
 30
0.0
 11
2097.0
 21
-258.9999999999990905
 31
0.0
1001
ACDBBLOCKREPETAG
1070
     1
1071
       53
1005
129FED
  0
LINE
  5
129FEE
  8
OBJECT
 10
2097.0
 20
-258.9999999999990905
 30
0.0
 11
2133.0
 21
-258.9999999999990905
 31
0.0
1001
ACDBBLOCKREPETAG
1070
     1
1071
       54
1005
129FEE
  0
LINE
  5
129FEF
  8
OBJECT
 10
2093.0
 20
-145.4999999999990905
 30
0.0
 11
2086.0
 21
-145.4999999999990905
 31
0.0
1001
ACDBBLOCKREPETAG
1070
     1
1071
       55
1005
129FEF
  0
LINE
  5
129FF0
  8
OBJECT
 10
2086.0
 20
-254.4999999999990905
 30
0.0
 11
2093.0
 21
-254.4999999999990905
 31
0.0
1001
ACDBBLOCKREPETAG
1070
     1
1071
       56
1005
129FF0
  0
LINE
  5
129FF1
  8
OBJECT
 10
2093.0
 20
-254.4999999999990905
 30
0.0
 11
2093.0
 21
-145.4999999999990905
 31
0.0
1001
ACDBBLOCKREPETAG
1070
     1
1071
       57
1005
129FF1
  0
LINE
  5
129FF2
  8
OBJECT
 10
2097.0
 20
-140.9999999999990905
 30
0.0
 11
2093.0
 21
-145.4999999999990905
 31
0.0
1001
ACDBBLOCKREPETAG
1070
     1
1071
       58
1005
129FF2
  0
LINE
  5
129FF3
  8
OBJECT
 10
2097.0
 20
-258.9999999999990905
 30
0.0
 11
2093.0
 21
-254.4999999999990905
 31
0.0
1001
ACDBBLOCKREPETAG
1070
     1
1071
       59
1005
129FF3
  0
LINE
  5
129FF4
  8
OBJECT
 10
2083.0
 20
-137.9999999999990905
 30
0.0
 11
2080.0
 21
-137.9999999999990905
 31
0.0
1001
ACDBBLOCKREPETAG
1070
     1
1071
       60
1005
129FF4
  0
ARC
  5
129FF5
  8
OBJECT
 10
2083.0
 20
-140.9999999999990905
 30
0.0
 40
3.0
 50
0.0
 51
90.0
1001
ACDBBLOCKREPETAG
1070
     1
1071
       61
1005
129FF5
  0
LINE
  5
129FF6
  8
OBJECT
 10
2080.0
 20
-261.9999999999990905
 30
0.0
 11
2083.0
 21
-261.9999999999990905
 31
0.0
1001
ACDBBLOCKREPETAG
1070
     1
1071
       62
1005
129FF6
  0
ARC
  5
129FF7
  8
OBJECT
 10
2083.0
 20
-258.9999999999990905
 30
0.0
 40
3.0
 50
270.0
 51
0.0
1001
ACDBBLOCKREPETAG
1070
     1
1071
       63
1005
129FF7
  0
LINE
  5
129FF8
  8
OBJECT
 10
2086.0
 20
-258.9999999999990905
 30
0.0
 11
2086.0
 21
-140.9999999999990905
 31
0.0
1001
ACDBBLOCKREPETAG
1070
     1
1071
       64
1005
129FF8
  0
LINE
  5
129FF9
  8
HIDDEN
 10
2088.0
 20
-155.4999999999990905
 30
0.0
 11
2088.0
 21
-244.4999999999990905
 31
0.0
1001
ACDBBLOCKREPETAG
1070
     1
1071
       65
1005
129FF9
  0
LINE
  5
129FFA
  8
OBJECT
 10
465.0000000001218154
 20
-546.0000000000095497
 30
0.0
 11
465.0000000001218154
 21
-553.0000000000096634
 31
0.0
1001
ACDBBLOCKREPETAG
1070
     1
1071
       57
1005
129FFA
  0
LINE
  5
129FFB
  8
OBJECT
 10
465.0000000001218154
 20
-553.0000000000096634
 30
0.0
 11
615.0000000001217586
 21
-553.0000000000096634
 31
0.0
1001
ACDBBLOCKREPETAG
1070
     1
1071
       58
1005
129FFB
  0
LINE
  5
129FFC
  8
OBJECT
 10
468.0000000001218723
 20
-594.5000000000096634
 30
0.0
 11
612.0000000001216449
 21
-594.5000000000096634
 31
0.0
1001
ACDBBLOCKREPETAG
1070
     1
1071
       59
1005
129FFC
  0
LINE
  5
129FFD
  8
OBJECT
 10
474.5000000001217018
 20
-606.0000000000095497
 30
0.0
 11
605.5000000001218723
 21
-606.0000000000095497
 31
0.0
1001
ACDBBLOCKREPETAG
1070
     1
1071
       60
1005
129FFD
  0
LINE
  5
129FFE
  8
OBJECT
 10
615.0000000001217586
 20
-553.0000000000096634
 30
0.0
 11
615.0000000001217586
 21
-546.0000000000095497
 31
0.0
1001
ACDBBLOCKREPETAG
1070
     1
1071
       61
1005
129FFE
  0
LINE
  5
129FFF
  8
OBJECT
 10
615.0000000001217586
 20
-546.0000000000095497
 30
0.0
 11
465.0000000001218154
 21
-546.0000000000095497
 31
0.0
1001
ACDBBLOCKREPETAG
1070
     1
1071
       62
1005
129FFF
  0
LINE
  5
12A000
  8
OBJECT
 10
602.0000000001218723
 20
-610.0000000000095497
 30
0.0
 11
602.0000000001218723
 21
-616.0000000000095497
 31
0.0
1001
ACDBBLOCKREPETAG
1070
     1
1071
       63
1005
12A000
  0
LINE
  5
12A001
  8
OBJECT
 10
612.0000000001216449
 20
-553.0000000000096634
 30
0.0
 11
612.0000000001216449
 21
-594.5000000000096634
 31
0.0
1001
ACDBBLOCKREPETAG
1070
     1
1071
       64
1005
12A001
  0
LINE
  5
12A002
  8
OBJECT
 10
612.0000000001216449
 20
-594.5000000000096634
 30
0.0
 11
605.5000000001218723
 21
-606.0000000000095497
 31
0.0
1001
ACDBBLOCKREPETAG
1070
     1
1071
       65
1005
12A002
  0
LINE
  5
12A003
  8
OBJECT
 10
605.5000000001218723
 20
-606.0000000000095497
 30
0.0
 11
602.0000000001218723
 21
-610.0000000000095497
 31
0.0
1001
ACDBBLOCKREPETAG
1070
     1
1071
       66
1005
12A003
  0
LINE
  5
12A004
  8
OBJECT
 10
468.0000000001218723
 20
-594.5000000000096634
 30
0.0
 11
474.5000000001217018
 21
-606.0000000000095497
 31
0.0
1001
ACDBBLOCKREPETAG
1070
     1
1071
       67
1005
12A004
  0
LINE
  5
12A005
  8
OBJECT
 10
474.5000000001217018
 20
-606.0000000000095497
 30
0.0
 11
478.0000000001217018
 21
-610.0000000000095497
 31
0.0
1001
ACDBBLOCKREPETAG
1070
     1
1071
       68
1005
12A005
  0
ARC
  5
12A006
  8
OBJECT
 10
540.0000000001217586
 20
-228.1000000000080092
 30
0.0
 40
386.8999999999999773
 50
260.7787013625795112
 51
279.2212986374204888
1001
ACDBBLOCKREPETAG
1070
     1
1071
       69
1005
12A006
  0
LINE
  5
12A007
  8
OBJECT
 10
478.0000000001217018
 20
-610.0000000000095497
 30
0.0
 11
478.0000000001217018
 21
-616.0000000000095497
 31
0.0
1001
ACDBBLOCKREPETAG
1070
     1
1071
       70
1005
12A007
  0
LINE
  5
12A008
  8
OBJECT
 10
468.0000000001218723
 20
-553.0000000000096634
 30
0.0
 11
468.0000000001218723
 21
-594.5000000000096634
 31
0.0
1001
ACDBBLOCKREPETAG
1070
     1
1071
       71
1005
12A008
  0
INSERT
  5
12A009
  8
OBJECT
  2
*U11
 10
0.0
 20
0.0
 30
0.0
  0
LINE
  5
12A00A
  8
HIDDEN
 10
597.0000000001218723
 20
-598.0000000000095497
 30
0.0
 11
483.0000000001217018
 21
-598.0000000000095497
 31
0.0
1001
ACDBBLOCKREPETAG
1070
     1
1071
      431
1005
12A00A
  0
INSERT
  5
12A00B
  8
OBJECT
  2
*U12
 10
0.0
 20
0.0
 30
0.0
  0
LINE
  5
12A00C
  8
OBJECT
 10
118.0000000000417941
 20
-563.0000000000095497
 30
0.0
 11
118.0000000000417941
 21
-556.0000000000095497
 31
0.0
1001
ACDBBLOCKREPETAG
1070
     1
1071
       39
1005
12A00C
  0
LINE
  5
12A00D
  8
OBJECT
 10
118.0000000000417941
 20
-556.0000000000095497
 30
0.0
 11
242.0000000000418083
 21
-556.0000000000095497
 31
0.0
1001
ACDBBLOCKREPETAG
1070
     1
1071
       40
1005
12A00D
  0
LINE
  5
12A00E
  8
OBJECT
 10
242.0000000000418083
 20
-556.0000000000095497
 30
0.0
 11
242.0000000000418083
 21
-563.0000000000095497
 31
0.0
1001
ACDBBLOCKREPETAG
1070
     1
1071
       41
1005
12A00E
  0
LINE
  5
12A00F
  8
OBJECT
 10
242.0000000000418083
 20
-563.0000000000095497
 30
0.0
 11
118.0000000000417941
 21
-563.0000000000095497
 31
0.0
1001
ACDBBLOCKREPETAG
1070
     1
1071
       42
1005
12A00F
  0
LINE
  5
12A010
  8
OBJECT
 10
121.0000000000417941
 20
-563.0000000000095497
 30
0.0
 11
121.0000000000417941
 21
-599.0000000000096634
 31
0.0
1001
ACDBBLOCKREPETAG
1070
     1
1071
       43
1005
12A010
  0
LINE
  5
12A011
  8
OBJECT
 10
121.0000000000417941
 20
-599.0000000000096634
 30
0.0
 11
239.0000000000418083
 21
-599.0000000000096634
 31
0.0
1001
ACDBBLOCKREPETAG
1070
     1
1071
       44
1005
12A011
  0
LINE
  5
12A012
  8
OBJECT
 10
239.0000000000418083
 20
-599.0000000000096634
 30
0.0
 11
239.0000000000418083
 21
-563.0000000000095497
 31
0.0
1001
ACDBBLOCKREPETAG
1070
     1
1071
       45
1005
12A012
  0
LINE
  5
12A013
  8
OBJECT
 10
125.5000000000417941
 20
-603.0000000000096634
 30
0.0
 11
125.5000000000417941
 21
-610.0000000000095497
 31
0.0
1001
ACDBBLOCKREPETAG
1070
     1
1071
       46
1005
12A013
  0
LINE
  5
12A014
  8
OBJECT
 10
234.5000000000418083
 20
-610.0000000000095497
 30
0.0
 11
234.5000000000418083
 21
-603.0000000000096634
 31
0.0
1001
ACDBBLOCKREPETAG
1070
     1
1071
       47
1005
12A014
  0
LINE
  5
12A015
  8
OBJECT
 10
234.5000000000418083
 20
-603.0000000000096634
 30
0.0
 11
125.5000000000417941
 21
-603.0000000000096634
 31
0.0
1001
ACDBBLOCKREPETAG
1070
     1
1071
       48
1005
12A015
  0
LINE
  5
12A016
  8
OBJECT
 10
121.0000000000417941
 20
-599.0000000000096634
 30
0.0
 11
125.5000000000417941
 21
-603.0000000000096634
 31
0.0
1001
ACDBBLOCKREPETAG
1070
     1
1071
       49
1005
12A016
  0
LINE
  5
12A017
  8
OBJECT
 10
239.0000000000418083
 20
-599.0000000000096634
 30
0.0
 11
234.5000000000418083
 21
-603.0000000000096634
 31
0.0
1001
ACDBBLOCKREPETAG
1070
     1
1071
       50
1005
12A017
  0
LINE
  5
12A018
  8
OBJECT
 10
118.0000000000417941
 20
-613.0000000000087539
 30
0.0
 11
118.0000000000417941
 21
-616.0000000000095497
 31
0.0
1001
ACDBBLOCKREPETAG
1070
     1
1071
       51
1005
12A018
  0
ARC
  5
12A019
  8
OBJECT
 10
121.0000000000417941
 20
-613.0000000000087539
 30
0.0
 40
3.0
 50
90.0
 51
180.0
1001
ACDBBLOCKREPETAG
1070
     1
1071
       52
1005
12A019
  0
LINE
  5
12A01A
  8
OBJECT
 10
242.0000000000418083
 20
-616.0000000000095497
 30
0.0
 11
242.0000000000418083
 21
-613.0000000000103455
 31
0.0
1001
ACDBBLOCKREPETAG
1070
     1
1071
       53
1005
12A01A
  0
ARC
  5
12A01B
  8
OBJECT
 10
239.0000000000418083
 20
-613.0000000000103455
 30
0.0
 40
3.0
 50
0.0
 51
90.0
1001
ACDBBLOCKREPETAG
1070
     1
1071
       54
1005
12A01B
  0
LINE
  5
12A01C
  8
OBJECT
 10
239.0000000000418083
 20
-610.0000000000103455
 30
0.0
 11
121.0000000000417941
 21
-610.0000000000087539
 31
0.0
1001
ACDBBLOCKREPETAG
1070
     1
1071
       55
1005
12A01C
  0
LINE
  5
12A01D
  8
HIDDEN
 10
135.5000000000418083
 20
-608.0000000000095497
 30
0.0
 11
224.5000000000418083
 21
-608.0000000000095497
 31
0.0
1001
ACDBBLOCKREPETAG
1070
     1
1071
      426
1005
12A01D
  0
INSERT
  5
12A01E
  8
OBJECT
  2
*U13
 10
0.0
 20
0.0
 30
0.0
  0
LINE
  5
12A01F
  8
OBJECT
 10
485.0000000001218723
 20
-99.0000000000031832
 30
0.0
 11
485.0000000001218723
 21
-92.0000000000031832
 31
0.0
1001
ACDBBLOCKREPETAG
1070
     1
1071
       20
1005
12A01F
  0
LINE
  5
12A020
  8
OBJECT
 10
485.0000000001218723
 20
-92.0000000000031832
 30
0.0
 11
595.0000000001216449
 21
-92.0000000000031832
 31
0.0
1001
ACDBBLOCKREPETAG
1070
     1
1071
       21
1005
12A020
  0
LINE
  5
12A021
  8
OBJECT
 10
595.0000000001216449
 20
-92.0000000000031832
 30
0.0
 11
595.0000000001216449
 21
-99.0000000000031832
 31
0.0
1001
ACDBBLOCKREPETAG
1070
     1
1071
       22
1005
12A021
  0
LINE
  5
12A022
  8
OBJECT
 10
595.0000000001216449
 20
-99.0000000000031832
 30
0.0
 11
485.0000000001218723
 21
-99.0000000000031832
 31
0.0
1001
ACDBBLOCKREPETAG
1070
     1
1071
       23
1005
12A022
  0
LINE
  5
12A023
  8
OBJECT
 10
488.0000000001217018
 20
-99.0000000000031832
 30
0.0
 11
488.0000000001217018
 21
-135.0000000000032117
 31
0.0
1001
ACDBBLOCKREPETAG
1070
     1
1071
       24
1005
12A023
  0
LINE
  5
12A024
  8
OBJECT
 10
488.0000000001217018
 20
-135.0000000000032117
 30
0.0
 11
592.0000000001216449
 21
-135.0000000000032117
 31
0.0
1001
ACDBBLOCKREPETAG
1070
     1
1071
       25
1005
12A024
  0
LINE
  5
12A025
  8
OBJECT
 10
592.0000000001216449
 20
-135.0000000000032117
 30
0.0
 11
592.0000000001216449
 21
-99.0000000000031832
 31
0.0
1001
ACDBBLOCKREPETAG
1070
     1
1071
       26
1005
12A025
  0
LINE
  5
12A026
  8
OBJECT
 10
492.5000000001217018
 20
-139.0000000000032117
 30
0.0
 11
492.5000000001217018
 21
-146.0000000000032117
 31
0.0
1001
ACDBBLOCKREPETAG
1070
     1
1071
       27
1005
12A026
  0
LINE
  5
12A027
  8
OBJECT
 10
587.5000000001216449
 20
-146.0000000000032117
 30
0.0
 11
587.5000000001216449
 21
-139.0000000000032117
 31
0.0
1001
ACDBBLOCKREPETAG
1070
     1
1071
       28
1005
12A027
  0
LINE
  5
12A028
  8
OBJECT
 10
587.5000000001216449
 20
-139.0000000000032117
 30
0.0
 11
492.5000000001217018
 21
-139.0000000000032117
 31
0.0
1001
ACDBBLOCKREPETAG
1070
     1
1071
       29
1005
12A028
  0
LINE
  5
12A029
  8
OBJECT
 10
488.0000000001217018
 20
-135.0000000000032117
 30
0.0
 11
492.5000000001217018
 21
-139.0000000000032117
 31
0.0
1001
ACDBBLOCKREPETAG
1070
     1
1071
       30
1005
12A029
  0
LINE
  5
12A02A
  8
OBJECT
 10
592.0000000001216449
 20
-135.0000000000032117
 30
0.0
 11
587.5000000001216449
 21
-139.0000000000032117
 31
0.0
1001
ACDBBLOCKREPETAG
1070
     1
1071
       31
1005
12A02A
  0
LINE
  5
12A02B
  8
OBJECT
 10
478.0000000001217018
 20
-149.0000000000023022
 30
0.0
 11
478.0000000001217018
 21
-152.000000000003098
 31
0.0
1001
ACDBBLOCKREPETAG
1070
     1
1071
       32
1005
12A02B
  0
ARC
  5
12A02C
  8
OBJECT
 10
481.0000000001218723
 20
-149.0000000000023022
 30
0.0
 40
3.0
 50
90.0
 51
180.0
1001
ACDBBLOCKREPETAG
1070
     1
1071
       33
1005
12A02C
  0
LINE
  5
12A02D
  8
OBJECT
 10
602.0000000001218723
 20
-152.000000000003098
 30
0.0
 11
602.0000000001218723
 21
-149.0000000000040927
 31
0.0
1001
ACDBBLOCKREPETAG
1070
     1
1071
       34
1005
12A02D
  0
ARC
  5
12A02E
  8
OBJECT
 10
599.0000000001216449
 20
-149.0000000000040927
 30
0.0
 40
3.0
 50
0.0
 51
90.0
1001
ACDBBLOCKREPETAG
1070
     1
1071
       35
1005
12A02E
  0
LINE
  5
12A02F
  8
OBJECT
 10
599.0000000001216449
 20
-146.0000000000040927
 30
0.0
 11
481.0000000001218723
 21
-146.0000000000023022
 31
0.0
1001
ACDBBLOCKREPETAG
1070
     1
1071
       36
1005
12A02F
  0
LINE
  5
12A030
  8
HIDDEN
 10
502.0000000001218723
 20
-144.0000000000032117
 30
0.0
 11
578.0000000001216449
 21
-144.0000000000032117
 31
0.0
1001
ACDBBLOCKREPETAG
1070
     1
1071
      423
1005
12A030
  0
INSERT
  5
12A031
  8
OBJECT
  2
*U14
 10
0.0
 20
0.0
 30
0.0
  0
LINE
  5
12A032
  8
OBJECT
 10
133.0000000000416946
 20
-99.0000000000031832
 30
0.0
 11
133.0000000000416946
 21
-92.0000000000031832
 31
0.0
1001
ACDBBLOCKREPETAG
1070
     1
1071
        1
1005
12A032
  0
LINE
  5
12A033
  8
OBJECT
 10
133.0000000000416946
 20
-92.0000000000031832
 30
0.0
 11
227.0000000000418083
 21
-92.0000000000031832
 31
0.0
1001
ACDBBLOCKREPETAG
1070
     1
1071
        2
1005
12A033
  0
LINE
  5
12A034
  8
OBJECT
 10
227.0000000000418083
 20
-92.0000000000031832
 30
0.0
 11
227.0000000000418083
 21
-99.0000000000031832
 31
0.0
1001
ACDBBLOCKREPETAG
1070
     1
1071
        3
1005
12A034
  0
LINE
  5
12A035
  8
OBJECT
 10
227.0000000000418083
 20
-99.0000000000031832
 30
0.0
 11
133.0000000000416946
 21
-99.0000000000031832
 31
0.0
1001
ACDBBLOCKREPETAG
1070
     1
1071
        4
1005
12A035
  0
LINE
  5
12A036
  8
OBJECT
 10
136.0000000000416946
 20
-99.0000000000031832
 30
0.0
 11
136.0000000000416946
 21
-135.0000000000032117
 31
0.0
1001
ACDBBLOCKREPETAG
1070
     1
1071
        5
1005
12A036
  0
LINE
  5
12A037
  8
OBJECT
 10
136.0000000000416946
 20
-135.0000000000032117
 30
0.0
 11
224.0000000000418083
 21
-135.0000000000032117
 31
0.0
1001
ACDBBLOCKREPETAG
1070
     1
1071
        6
1005
12A037
  0
LINE
  5
12A038
  8
OBJECT
 10
224.0000000000418083
 20
-135.0000000000032117
 30
0.0
 11
224.0000000000418083
 21
-99.0000000000031832
 31
0.0
1001
ACDBBLOCKREPETAG
1070
     1
1071
        7
1005
12A038
  0
LINE
  5
12A039
  8
OBJECT
 10
140.5000000000418083
 20
-139.0000000000032117
 30
0.0
 11
140.5000000000418083
 21
-146.0000000000032117
 31
0.0
1001
ACDBBLOCKREPETAG
1070
     1
1071
        8
1005
12A039
  0
LINE
  5
12A03A
  8
OBJECT
 10
219.5000000000418936
 20
-146.0000000000032117
 30
0.0
 11
219.5000000000418936
 21
-139.0000000000032117
 31
0.0
1001
ACDBBLOCKREPETAG
1070
     1
1071
        9
1005
12A03A
  0
LINE
  5
12A03B
  8
OBJECT
 10
219.5000000000418936
 20
-139.0000000000032117
 30
0.0
 11
140.5000000000418083
 21
-139.0000000000032117
 31
0.0
1001
ACDBBLOCKREPETAG
1070
     1
1071
       10
1005
12A03B
  0
LINE
  5
12A03C
  8
OBJECT
 10
136.0000000000416946
 20
-135.0000000000032117
 30
0.0
 11
140.5000000000418083
 21
-139.0000000000032117
 31
0.0
1001
ACDBBLOCKREPETAG
1070
     1
1071
       11
1005
12A03C
  0
LINE
  5
12A03D
  8
OBJECT
 10
224.0000000000418083
 20
-135.0000000000032117
 30
0.0
 11
219.5000000000418936
 21
-139.0000000000032117
 31
0.0
1001
ACDBBLOCKREPETAG
1070
     1
1071
       12
1005
12A03D
  0
LINE
  5
12A03E
  8
OBJECT
 10
118.0000000000417941
 20
-149.0000000000023022
 30
0.0
 11
118.0000000000417941
 21
-152.000000000003098
 31
0.0
1001
ACDBBLOCKREPETAG
1070
     1
1071
       13
1005
12A03E
  0
ARC
  5
12A03F
  8
OBJECT
 10
121.0000000000417941
 20
-149.0000000000023022
 30
0.0
 40
3.0
 50
90.0
 51
180.0
1001
ACDBBLOCKREPETAG
1070
     1
1071
       14
1005
12A03F
  0
LINE
  5
12A040
  8
OBJECT
 10
242.0000000000418083
 20
-152.000000000003098
 30
0.0
 11
242.0000000000418083
 21
-149.0000000000040927
 31
0.0
1001
ACDBBLOCKREPETAG
1070
     1
1071
       15
1005
12A040
  0
ARC
  5
12A041
  8
OBJECT
 10
239.0000000000418083
 20
-149.0000000000040927
 30
0.0
 40
3.0
 50
0.0
 51
90.0
1001
ACDBBLOCKREPETAG
1070
     1
1071
       16
1005
12A041
  0
LINE
  5
12A042
  8
OBJECT
 10
239.0000000000418083
 20
-146.0000000000040927
 30
0.0
 11
121.0000000000417941
 21
-146.0000000000023022
 31
0.0
1001
ACDBBLOCKREPETAG
1070
     1
1071
       17
1005
12A042
  0
LINE
  5
12A043
  8
HIDDEN
 10
150.0000000000418083
 20
-144.0000000000032117
 30
0.0
 11
210.0000000000418083
 21
-144.0000000000032117
 31
0.0
1001
ACDBBLOCKREPETAG
1070
     1
1071
      420
1005
12A043
  0
POLYLINE
  5
12A044
  8
HIDDEN
 66
     1
 10
0.0
 20
0.0
 30
0.0
 70
     1
1001
ACDBBLOCKREPETAG
1070
     1
1071
      105
1005
0
  0
VERTEX
  5
12A1F7
  8
HIDDEN
 10
359.9999999998781277
 20
0.0
 30
0.0
  0
VERTEX
  5
12A1F8
  8
HIDDEN
 10
719.9999999997562554
 20
0.0
 30
0.0
  0
VERTEX
  5
12A1F9
  8
HIDDEN
 10
719.9999999997562554
 20
-463.9999999998415774
 30
0.0
  0
VERTEX
  5
12A1FA
  8
HIDDEN
 10
359.9999999998781277
 20
-463.9999999998415774
 30
0.0
  0
SEQEND
  5
12A1FB
  8
HIDDEN
  0
POLYLINE
  5
12A045
  8
HIDDEN
 66
     1
 10
0.0
 20
0.0
 30
0.0
 70
     1
1001
ACDBBLOCKREPETAG
1070
     1
1071
      110
1005
0
  0
VERTEX
  5
12A1FC
  8
HIDDEN
 10
0.0
 20
0.0
 30
0.0
  0
VERTEX
  5
12A1FD
  8
HIDDEN
 10
359.9999999998781277
 20
0.0
 30
0.0
  0
VERTEX
  5
12A1FE
  8
HIDDEN
 10
359.9999999998781277
 20
-463.9999999998415774
 30
0.0
  0
VERTEX
  5
12A1FF
  8
HIDDEN
 10
0.0
 20
-463.9999999998415774
 30
0.0
  0
SEQEND
  5
12A200
  8
HIDDEN
  0
POLYLINE
  5
12A046
  8
HIDDEN
 66
     1
 10
0.0
 20
0.0
 30
0.0
 70
     1
1001
ACDBBLOCKREPETAG
1070
     1
1071
      120
1005
0
  0
VERTEX
  5
12A201
  8
HIDDEN
 10
359.9999999998781277
 20
-463.9999999998415774
 30
0.0
  0
VERTEX
  5
12A202
  8
HIDDEN
 10
719.9999999997562554
 20
-463.9999999998415774
 30
0.0
  0
VERTEX
  5
12A203
  8
HIDDEN
 10
719.9999999997562554
 20
-927.9999999996834958
 30
0.0
  0
VERTEX
  5
12A204
  8
HIDDEN
 10
359.9999999998781277
 20
-927.9999999996834958
 30
0.0
  0
SEQEND
  5
12A205
  8
HIDDEN
  0
POLYLINE
  5
12A047
  8
HIDDEN
 66
     1
 10
0.0
 20
0.0
 30
0.0
 70
     1
1001
ACDBBLOCKREPETAG
1070
     1
1071
      125
1005
0
  0
VERTEX
  5
12A206
  8
HIDDEN
 10
0.0
 20
-463.9999999998415774
 30
0.0
  0
VERTEX
  5
12A207
  8
HIDDEN
 10
359.9999999998781277
 20
-463.9999999998415774
 30
0.0
  0
VERTEX
  5
12A208
  8
HIDDEN
 10
359.9999999998781277
 20
-927.9999999996834958
 30
0.0
  0
VERTEX
  5
12A209
  8
HIDDEN
 10
0.0
 20
-927.9999999996834958
 30
0.0
  0
SEQEND
  5
12A20A
  8
HIDDEN
  0
TEXT
  5
12A048
  8
SLIM
 10
508.2857142855322081
 20
-907.9999999996909992
 30
0.0
 40
48.0
  1
A4
 41
0.75
1001
ACDBBLOCKREPETAG
1070
     1
1071
      119
1005
0
  0
TEXT
  5
12A049
  8
SLIM
 10
149.1428571427971121
 20
-907.9999999996909992
 30
0.0
 40
48.0
  1
A3
 41
0.75
1001
ACDBBLOCKREPETAG
1070
     1
1071
      119
1005
0
  0
TEXT
  5
12A04A
  8
SLIM
 10
509.1428571426752114
 20
-443.9999999998491944
 30
0.0
 40
48.0
  1
A2
 41
0.75
1001
ACDBBLOCKREPETAG
1070
     1
1071
      119
1005
0
  0
TEXT
  5
12A04B
  8
SLIM
 10
156.8571428570828061
 20
-443.9999999998491944
 30
0.0
 40
48.0
  1
A1
 41
0.75
1001
ACDBBLOCKREPETAG
1070
     1
1071
      119
1005
0
  0
TEXT
  5
12A04C
  8
SLIM
 10
0.0000035665234464
 20
24.0000045853176012
 30
0.0
 40
79.9999999999727152
  1
枝管バリエーション
 41
0.75
1001
ACDBBLOCKREPETAG
1070
     1
1071
      119
1005
1229F1
  0
TEXT
  5
12A04D
  8
SLIM
 10
0.0
 20
369.9999999999998863
 30
0.0
 40
100.0
  1
4SSR2-AX-0-S
 41
0.75
  0
LINE
  5
12A04E
  8
OBJECT
 10
4430.0
 20
-1264.9999999999970441
 30
0.0
 11
4570.0
 21
-1264.9999999999970441
 31
0.0
1001
ACDBBLOCKREPETAG
1070
     1
1071
        0
1005
12A04E
  0
LINE
  5
12A04F
  8
OBJECT
 10
4430.0
 20
-1264.9999999999970441
 30
0.0
 11
4430.0
 21
-1024.9999999999970441
 31
0.0
1001
ACDBBLOCKREPETAG
1070
     1
1071
        1
1005
12A04F
  0
LINE
  5
12A050
  8
OBJECT
 10
4570.0
 20
-1264.9999999999970441
 30
0.0
 11
4570.0
 21
-1024.9999999999970441
 31
0.0
1001
ACDBBLOCKREPETAG
1070
     1
1071
        2
1005
12A050
  0
LINE
  5
12A051
  8
OBJECT
 10
4430.0
 20
-1024.9999999999970441
 30
0.0
 11
4570.0
 21
-1024.9999999999970441
 31
0.0
1001
ACDBBLOCKREPETAG
1070
     1
1071
        3
1005
12A051
  0
LINE
  5
12A052
  8
HIDDEN
 10
4437.5
 20
-1024.9999999999970441
 30
0.0
 11
4437.5
 21
-1264.9999999999970441
 31
0.0
1001
ACDBBLOCKREPETAG
1070
     1
1071
        4
1005
12A052
  0
LINE
  5
12A053
  8
HIDDEN
 10
4562.5
 20
-1024.9999999999970441
 30
0.0
 11
4562.5
 21
-1264.9999999999970441
 31
0.0
1001
ACDBBLOCKREPETAG
1070
     1
1071
        5
1005
12A053
  0
LINE
  5
12A054
  8
CENTER
 10
4500.0
 20
-954.9999999999987494
 30
0.0
 11
4500.0
 21
-1279.9999999999970441
 31
0.0
1001
ACDBBLOCKREPETAG
1070
     1
1071
        6
1005
12A054
  0
LINE
  5
12A055
  8
OBJECT
 10
4425.0
 20
-954.9999999999987494
 30
0.0
 11
4425.0
 21
-984.9999999999969305
 31
0.0
1001
ACDBBLOCKREPETAG
1070
     1
1071
        7
1005
12A055
  0
LINE
  5
12A056
  8
OBJECT
 10
4575.000000000001819
 20
-954.9999999999987494
 30
0.0
 11
4575.0
 21
-984.9999999999969305
 31
0.0
1001
ACDBBLOCKREPETAG
1070
     1
1071
        8
1005
12A056
  0
LINE
  5
12A057
  8
OBJECT
 10
4425.0
 20
-984.9999999999969305
 30
0.0
 11
4575.0
 21
-984.9999999999969305
 31
0.0
1001
ACDBBLOCKREPETAG
1070
     1
1071
        9
1005
12A057
  0
LINE
  5
12A058
  8
OBJECT
 10
4425.0
 20
-984.9999999999969305
 30
0.0
 11
4430.0
 21
-1024.9999999999970441
 31
0.0
1001
ACDBBLOCKREPETAG
1070
     1
1071
       10
1005
12A058
  0
LINE
  5
12A059
  8
OBJECT
 10
4570.0
 20
-1024.9999999999970441
 30
0.0
 11
4575.0
 21
-984.9999999999969305
 31
0.0
1001
ACDBBLOCKREPETAG
1070
     1
1071
       11
1005
12A059
  0
LINE
  5
12A05A
  8
OBJECT
 10
3930.0
 20
-1264.9999999999970441
 30
0.0
 11
4070.0
 21
-1264.9999999999970441
 31
0.0
1001
ACDBBLOCKREPETAG
1070
     1
1071
        0
1005
12A05A
  0
LINE
  5
12A05B
  8
OBJECT
 10
3930.0
 20
-1264.9999999999970441
 30
0.0
 11
3930.0
 21
-1024.9999999999970441
 31
0.0
1001
ACDBBLOCKREPETAG
1070
     1
1071
        1
1005
12A05B
  0
LINE
  5
12A05C
  8
OBJECT
 10
4070.0
 20
-1264.9999999999970441
 30
0.0
 11
4070.0
 21
-1024.9999999999970441
 31
0.0
1001
ACDBBLOCKREPETAG
1070
     1
1071
        2
1005
12A05C
  0
LINE
  5
12A05D
  8
OBJECT
 10
3930.0
 20
-1024.9999999999970441
 30
0.0
 11
4070.0
 21
-1024.9999999999970441
 31
0.0
1001
ACDBBLOCKREPETAG
1070
     1
1071
        3
1005
12A05D
  0
LINE
  5
12A05E
  8
HIDDEN
 10
3937.5
 20
-1024.9999999999970441
 30
0.0
 11
3937.5
 21
-1264.9999999999970441
 31
0.0
1001
ACDBBLOCKREPETAG
1070
     1
1071
        4
1005
12A05E
  0
LINE
  5
12A05F
  8
HIDDEN
 10
4062.5
 20
-1024.9999999999970441
 30
0.0
 11
4062.5
 21
-1264.9999999999970441
 31
0.0
1001
ACDBBLOCKREPETAG
1070
     1
1071
        5
1005
12A05F
  0
LINE
  5
12A060
  8
CENTER
 10
4000.0
 20
-954.9999999999987494
 30
0.0
 11
4000.0
 21
-1279.9999999999970441
 31
0.0
1001
ACDBBLOCKREPETAG
1070
     1
1071
        6
1005
12A060
  0
LINE
  5
12A061
  8
OBJECT
 10
3925.0
 20
-954.9999999999987494
 30
0.0
 11
3925.0
 21
-984.9999999999969305
 31
0.0
1001
ACDBBLOCKREPETAG
1070
     1
1071
        7
1005
12A061
  0
LINE
  5
12A062
  8
OBJECT
 10
4075.0000000000031832
 20
-954.9999999999987494
 30
0.0
 11
4075.0
 21
-984.9999999999969305
 31
0.0
1001
ACDBBLOCKREPETAG
1070
     1
1071
        8
1005
12A062
  0
LINE
  5
12A063
  8
OBJECT
 10
3925.0
 20
-984.9999999999969305
 30
0.0
 11
4075.0
 21
-984.9999999999969305
 31
0.0
1001
ACDBBLOCKREPETAG
1070
     1
1071
        9
1005
12A063
  0
LINE
  5
12A064
  8
OBJECT
 10
3925.0
 20
-984.9999999999969305
 30
0.0
 11
3930.0
 21
-1024.9999999999970441
 31
0.0
1001
ACDBBLOCKREPETAG
1070
     1
1071
       10
1005
12A064
  0
LINE
  5
12A065
  8
OBJECT
 10
4070.0
 20
-1024.9999999999970441
 30
0.0
 11
4075.0
 21
-984.9999999999969305
 31
0.0
1001
ACDBBLOCKREPETAG
1070
     1
1071
       11
1005
12A065
  0
LINE
  5
12A066
  8
OBJECT
 10
2430.0
 20
-1264.9999999999979536
 30
0.0
 11
2570.0
 21
-1264.9999999999979536
 31
0.0
1001
ACDBBLOCKREPETAG
1070
     1
1071
        0
1005
12A066
  0
LINE
  5
12A067
  8
OBJECT
 10
2430.0
 20
-1264.9999999999979536
 30
0.0
 11
2430.0
 21
-1024.9999999999970441
 31
0.0
1001
ACDBBLOCKREPETAG
1070
     1
1071
        1
1005
12A067
  0
LINE
  5
12A068
  8
OBJECT
 10
2570.0
 20
-1264.9999999999979536
 30
0.0
 11
2570.0
 21
-1024.9999999999970441
 31
0.0
1001
ACDBBLOCKREPETAG
1070
     1
1071
        2
1005
12A068
  0
LINE
  5
12A069
  8
OBJECT
 10
2430.0
 20
-1024.9999999999970441
 30
0.0
 11
2570.0
 21
-1024.9999999999970441
 31
0.0
1001
ACDBBLOCKREPETAG
1070
     1
1071
        3
1005
12A069
  0
LINE
  5
12A06A
  8
HIDDEN
 10
2437.5
 20
-1024.9999999999970441
 30
0.0
 11
2437.5
 21
-1264.9999999999979536
 31
0.0
1001
ACDBBLOCKREPETAG
1070
     1
1071
        4
1005
12A06A
  0
LINE
  5
12A06B
  8
HIDDEN
 10
2562.5
 20
-1024.9999999999970441
 30
0.0
 11
2562.5
 21
-1264.9999999999979536
 31
0.0
1001
ACDBBLOCKREPETAG
1070
     1
1071
        5
1005
12A06B
  0
LINE
  5
12A06C
  8
CENTER
 10
2500.0
 20
-954.9999999999996589
 30
0.0
 11
2500.0
 21
-1279.9999999999979536
 31
0.0
1001
ACDBBLOCKREPETAG
1070
     1
1071
        6
1005
12A06C
  0
LINE
  5
12A06D
  8
OBJECT
 10
2425.0
 20
-954.9999999999996589
 30
0.0
 11
2425.0
 21
-984.99999999999784
 31
0.0
1001
ACDBBLOCKREPETAG
1070
     1
1071
        7
1005
12A06D
  0
LINE
  5
12A06E
  8
OBJECT
 10
2575.0000000000050022
 20
-954.9999999999996589
 30
0.0
 11
2575.0
 21
-984.99999999999784
 31
0.0
1001
ACDBBLOCKREPETAG
1070
     1
1071
        8
1005
12A06E
  0
LINE
  5
12A06F
  8
OBJECT
 10
2425.0
 20
-984.99999999999784
 30
0.0
 11
2575.0
 21
-984.99999999999784
 31
0.0
1001
ACDBBLOCKREPETAG
1070
     1
1071
        9
1005
12A06F
  0
LINE
  5
12A070
  8
OBJECT
 10
2425.0
 20
-984.99999999999784
 30
0.0
 11
2430.0
 21
-1024.9999999999970441
 31
0.0
1001
ACDBBLOCKREPETAG
1070
     1
1071
       10
1005
12A070
  0
LINE
  5
12A071
  8
OBJECT
 10
2570.0
 20
-1024.9999999999970441
 30
0.0
 11
2575.0
 21
-984.99999999999784
 31
0.0
1001
ACDBBLOCKREPETAG
1070
     1
1071
       11
1005
12A071
  0
LINE
  5
12A072
  8
OBJECT
 10
1930.0
 20
-1264.9999999999979536
 30
0.0
 11
2070.0
 21
-1264.9999999999979536
 31
0.0
1001
ACDBBLOCKREPETAG
1070
     1
1071
        0
1005
12A072
  0
LINE
  5
12A073
  8
OBJECT
 10
1930.0
 20
-1264.9999999999979536
 30
0.0
 11
1930.0
 21
-1024.9999999999970441
 31
0.0
1001
ACDBBLOCKREPETAG
1070
     1
1071
        1
1005
12A073
  0
LINE
  5
12A074
  8
OBJECT
 10
2070.0
 20
-1264.9999999999979536
 30
0.0
 11
2070.0
 21
-1024.9999999999970441
 31
0.0
1001
ACDBBLOCKREPETAG
1070
     1
1071
        2
1005
12A074
  0
LINE
  5
12A075
  8
OBJECT
 10
1930.0
 20
-1024.9999999999970441
 30
0.0
 11
2070.0
 21
-1024.9999999999970441
 31
0.0
1001
ACDBBLOCKREPETAG
1070
     1
1071
        3
1005
12A075
  0
LINE
  5
12A076
  8
HIDDEN
 10
1937.5
 20
-1024.9999999999970441
 30
0.0
 11
1937.5
 21
-1264.9999999999979536
 31
0.0
1001
ACDBBLOCKREPETAG
1070
     1
1071
        4
1005
12A076
  0
LINE
  5
12A077
  8
HIDDEN
 10
2062.5
 20
-1024.9999999999970441
 30
0.0
 11
2062.5
 21
-1264.9999999999979536
 31
0.0
1001
ACDBBLOCKREPETAG
1070
     1
1071
        5
1005
12A077
  0
LINE
  5
12A078
  8
CENTER
 10
2000.0
 20
-954.9999999999996589
 30
0.0
 11
2000.0
 21
-1279.9999999999979536
 31
0.0
1001
ACDBBLOCKREPETAG
1070
     1
1071
        6
1005
12A078
  0
LINE
  5
12A079
  8
OBJECT
 10
1925.0
 20
-954.9999999999996589
 30
0.0
 11
1925.0
 21
-984.99999999999784
 31
0.0
1001
ACDBBLOCKREPETAG
1070
     1
1071
        7
1005
12A079
  0
LINE
  5
12A07A
  8
OBJECT
 10
2075.0000000000040927
 20
-954.9999999999996589
 30
0.0
 11
2075.0
 21
-984.99999999999784
 31
0.0
1001
ACDBBLOCKREPETAG
1070
     1
1071
        8
1005
12A07A
  0
LINE
  5
12A07B
  8
OBJECT
 10
1925.0
 20
-984.99999999999784
 30
0.0
 11
2075.0
 21
-984.99999999999784
 31
0.0
1001
ACDBBLOCKREPETAG
1070
     1
1071
        9
1005
12A07B
  0
LINE
  5
12A07C
  8
OBJECT
 10
1925.0
 20
-984.99999999999784
 30
0.0
 11
1930.0
 21
-1024.9999999999970441
 31
0.0
1001
ACDBBLOCKREPETAG
1070
     1
1071
       10
1005
12A07C
  0
LINE
  5
12A07D
  8
OBJECT
 10
2070.0
 20
-1024.9999999999970441
 30
0.0
 11
2075.0
 21
-984.99999999999784
 31
0.0
1001
ACDBBLOCKREPETAG
1070
     1
1071
       11
1005
12A07D
  0
TEXT
  5
12A07E
  8
SLIM
 10
3741.6250000000009095
 20
-1532.4999999999970441
 30
0.0
 40
35.0
  1
片受けスタイル（S）＋シンドカット
 41
0.75
  0
TEXT
  5
12A07F
  8
SLIM
 10
1856.25
 20
-1532.4999999999979536
 30
0.0
 40
35.0
  1
片受けスタイル（S）
 41
0.75
  0
VIEWPORT
  5
F6BA7
 67
     1
  8
0
 10
145.3303375244140057
 20
101.8328354358671959
 30
0.0
 40
334.0025019414622989
 41
222.1965796813965142
 68
     1
 69
     1
1001
ACAD
1000
MVIEW
1002
{
1070
    16
1010
0.0
1020
0.0
1030
0.0
1010
0.0
1020
0.0
1030
1.0
1040
0.0
1040
222.1965796813965142
1040
145.3303375244140057
1040
101.8328354358671959
1040
50.0
1040
0.0
1040
0.0
1070
     0
1070
     0
1070
     1
1070
     1
1070
     0
1070
     0
1070
     0
1070
     0
1040
0.0
1040
0.0
1040
0.0
1040
10.0
1040
10.0
1040
10.0
1040
10.0
1070
     0
1002
{
1002
}
1002
}
  0
VIEWPORT
  5
F6BA9
 67
     1
  8
OBJECT
 10
145.3303314447402954
 20
101.8328338861465028
 30
0.0
 40
232.5285303115844044
 41
162.9325342178343021
 68
     2
 69
     2
1001
ACAD
1000
MVIEW
1002
{
1070
    16
1010
0.0
1020
0.0
1030
0.0
1010
0.0
1020
0.0
1030
1.0
1040
0.0
1040
25942.5590440314699663
1040
2377.6044570773769919
1040
-7591.5176687056618903
1040
50.0
1040
0.0
1040
0.0
1070
     0
1070
   600
1070
     1
1070
     1
1070
     0
1070
     0
1070
     0
1070
     0
1040
0.0
1040
0.0
1040
0.0
1040
1.0
1040
1.0
1040
0.0
1040
0.0
1070
     0
1002
{
1002
}
1002
}
  0
ENDSEC
  0
EOF
