  0
SECTION
  2
HEADER
  9
$ACADVER
  1
AC1009
  9
$INSBASE
 10
0.0
 20
0.0
 30
0.0
  9
$EXTMIN
 10
0.0
 20
-3717.4999999999959
 30
0.0
  9
$EXTMAX
 10
5572.1802475027544
 20
607.5
 30
0.0
  9
$LIMMIN
 10
0.0
 20
0.0
  9
$LIMMAX
 10
210.0
 20
297.0
  9
$ORTHOMODE
 70
     0
  9
$REGENMODE
 70
     1
  9
$FILLMODE
 70
     1
  9
$QTEXTMODE
 70
     0
  9
$MIRRTEXT
 70
     0
  9
$DRAGMODE
 70
     2
  9
$LTSCALE
 40
1.0
  9
$OSMODE
 70
   125
  9
$ATTMODE
 70
     1
  9
$TEXTSIZE
 40
4.0
  9
$TRACEWID
 40
0.05
  9
$TEXTSTYLE
  7
STANDARD
  9
$CLAYER
  8
OBJECT
  9
$CELTYPE
  6
BYLAYER
  9
$CECOLOR
 62
   256
  9
$DIMSCALE
 40
10.0
  9
$DIMASZ
 40
2.0
  9
$DIMEXO
 40
1.0
  9
$DIMDLI
 40
10.0
  9
$DIMRND
 40
0.0
  9
$DIMDLE
 40
0.0
  9
$DIMEXE
 40
1.0
  9
$DIMTP
 40
0.0
  9
$DIMTM
 40
0.0
  9
$DIMTXT
 40
3.2000000000000002
  9
$DIMCEN
 40
0.0
  9
$DIMTSZ
 40
0.0
  9
$DIMTOL
 70
     0
  9
$DIMLIM
 70
     0
  9
$DIMTIH
 70
     0
  9
$DIMTOH
 70
     0
  9
$DIMSE1
 70
     0
  9
$DIMSE2
 70
     0
  9
$DIMTAD
 70
     1
  9
$DIMZIN
 70
     8
  9
$DIMBLK
  1
OPEN30
  9
$DIMASO
 70
     1
  9
$DIMSHO
 70
     1
  9
$DIMPOST
  1

  9
$DIMAPOST
  1

  9
$DIMALT
 70
     0
  9
$DIMALTD
 70
     2
  9
$DIMALTF
 40
25.399999999999999
  9
$DIMLFAC
 40
1.0
  9
$DIMTOFL
 70
     1
  9
$DIMTVP
 40
0.0
  9
$DIMTIX
 70
     0
  9
$DIMSOXD
 70
     0
  9
$DIMSAH
 70
     0
  9
$DIMBLK1
  1

  9
$DIMBLK2
  1

  9
$DIMSTYLE
  2
S10
  9
$DIMCLRD
 70
   256
  9
$DIMCLRE
 70
   256
  9
$DIMCLRT
 70
   256
  9
$DIMTFAC
 40
1.0
  9
$DIMGAP
 40
0.9
  9
$LUNITS
 70
     2
  9
$LUPREC
 70
     2
  9
$SKETCHINC
 40
0.1
  9
$FILLETRAD
 40
0.0
  9
$AUNITS
 70
     0
  9
$AUPREC
 70
     2
  9
$MENU
  1
ACAD
  9
$ELEVATION
 40
0.0
  9
$PELEVATION
 40
0.0
  9
$THICKNESS
 40
0.0
  9
$LIMCHECK
 70
     0
  9
$BLIPMODE
 70
     0
  9
$CHAMFERA
 40
2.0
  9
$CHAMFERB
 40
2.0
  9
$SKPOLY
 70
     0
  9
$TDCREATE
 40
2453095.4929404748
  9
$TDUPDATE
 40
2458023.7487287731
  9
$TDINDWG
 40
18.375597106499999
  9
$TDUSRTIMER
 40
18.3755965394
  9
$USRTIMER
 70
     1
  9
$ANGBASE
 50
0.0
  9
$ANGDIR
 70
     0
  9
$PDMODE
 70
    35
  9
$PDSIZE
 40
2.0
  9
$PLINEWID
 40
0.0
  9
$COORDS
 70
     1
  9
$SPLFRAME
 70
     0
  9
$SPLINETYPE
 70
     6
  9
$SPLINESEGS
 70
     8
  9
$ATTDIA
 70
     1
  9
$ATTREQ
 70
     1
  9
$HANDLING
 70
     1
  9
$HANDSEED
  5
12AC6F
  9
$SURFTAB1
 70
     6
  9
$SURFTAB2
 70
     6
  9
$SURFTYPE
 70
     6
  9
$SURFU
 70
     6
  9
$SURFV
 70
     6
  9
$UCSNAME
  2

  9
$UCSORG
 10
0.0
 20
0.0
 30
0.0
  9
$UCSXDIR
 10
1.0
 20
0.0
 30
0.0
  9
$UCSYDIR
 10
0.0
 20
1.0
 30
0.0
  9
$PUCSNAME
  2

  9
$PUCSORG
 10
0.0
 20
0.0
 30
0.0
  9
$PUCSXDIR
 10
1.0
 20
0.0
 30
0.0
  9
$PUCSYDIR
 10
0.0
 20
1.0
 30
0.0
  9
$USERI1
 70
     0
  9
$USERI2
 70
     0
  9
$USERI3
 70
     0
  9
$USERI4
 70
     0
  9
$USERI5
 70
     0
  9
$USERR1
 40
0.0
  9
$USERR2
 40
0.0
  9
$USERR3
 40
0.0
  9
$USERR4
 40
0.0
  9
$USERR5
 40
0.0
  9
$WORLDVIEW
 70
     1
  9
$SHADEDGE
 70
     3
  9
$SHADEDIF
 70
    70
  9
$TILEMODE
 70
     1
  9
$MAXACTVP
 70
    64
  9
$PLIMCHECK
 70
     0
  9
$PEXTMIN
 10
29.066066288948051
 20
20.366566777229309
 30
0.0
  9
$PEXTMAX
 10
261.5945966005325
 20
183.29910099506381
 30
0.0
  9
$PLIMMIN
 10
-3.17498779296875
 20
-3.1749999523162842
  9
$PLIMMAX
 10
293.83566284179687
 20
206.8406708240509
  9
$UNITMODE
 70
     0
  9
$VISRETAIN
 70
     1
  9
$PLINEGEN
 70
     0
  9
$PSLTSCALE
 70
     1
  0
ENDSEC
  0
SECTION
  2
TABLES
  0
TABLE
  2
VPORT
 70
     1
  0
VPORT
  2
*ACTIVE
 70
     0
 10
0.0
 20
0.0
 11
1.0
 21
1.0
 12
3482.0165421542861
 22
-1616.8546783129821
 13
0.0
 23
0.0
 14
1.0
 24
1.0
 15
0.0
 25
0.0
 16
0.0
 26
0.0
 36
1.0
 17
0.0
 27
0.0
 37
0.0
 40
10978.43730360723
 41
1.6990553306342779
 42
50.0
 43
0.0
 44
0.0
 50
0.0
 51
0.0
 71
     0
 72
   600
 73
     1
 74
     1
 75
     0
 76
     0
 77
     0
 78
     0
  0
ENDTAB
  0
TABLE
  2
LTYPE
 70
     3
  0
LTYPE
  2
CONTINUOUS
 70
     0
  3
Solid line
 72
    65
 73
     0
 40
0.0
  0
LTYPE
  2
ACAD_ISO08W100
 70
     0
  3
ISO long-dash short-dash ____ __ ____ __ ____ _
 72
    65
 73
     4
 40
36.0
 49
24.0
 49
-3.0
 49
6.0
 49
-3.0
  0
LTYPE
  2
ACAD_ISO02W100
 70
     0
  3
ISO dash __ __ __ __ __ __ __ __ __ __ __ __ __
 72
    65
 73
     2
 40
15.0
 49
12.0
 49
-3.0
  0
ENDTAB
  0
TABLE
  2
LAYER
 70
     8
  0
LAYER
  2
0
 70
     0
 62
     7
  6
CONTINUOUS
  0
LAYER
  2
OBJECT
 70
     0
 62
     4
  6
CONTINUOUS
  0
LAYER
  2
DEFPOINTS
 70
     0
 62
     7
  6
CONTINUOUS
  0
LAYER
  2
DIM
 70
     0
 62
     7
  6
CONTINUOUS
  0
LAYER
  2
HIDDEN
 70
     0
 62
     2
  6
ACAD_ISO02W100
  0
LAYER
  2
CENTER
 70
     0
 62
     2
  6
ACAD_ISO08W100
  0
LAYER
  2
DOTS
 70
     0
 62
     1
  6
CONTINUOUS
  0
LAYER
  2
SLIM
 70
     0
 62
     2
  6
CONTINUOUS
  0
ENDTAB
  0
TABLE
  2
STYLE
 70
     2
  0
STYLE
  2
STANDARD
 70
     0
 40
0.0
 41
0.75
 50
0.0
 71
     0
 42
4.0
  3
simplex.shx
  4
bigfont.shx
  0
ENDTAB
  0
TABLE
  2
VIEW
 70
     0
  0
ENDTAB
  0
TABLE
  2
UCS
 70
     0
  0
ENDTAB
  0
TABLE
  2
APPID
 70
    18
  0
APPID
  2
ACAD
 70
     0
  0
APPID
  2
ACADANNOTATIVE
 70
     0
  0
APPID
  2
ACAD_PSEXT
 70
     0
  0
APPID
  2
ACAD_EXEMPT_FROM_CAD_STANDARDS
 70
     0
  0
APPID
  2
ACAECLAYERSTANDARD
 70
     0
  0
APPID
  2
ACAUTHENVIRON
 70
     0
  0
APPID
  2
ACDBDYNAMICBLOCKTRUENAME
 70
     0
  0
APPID
  2
ACDBDYNAMICBLOCKGUID
 70
     0
  0
APPID
  2
ACDBBLOCKREPETAG
 70
     0
  0
APPID
  2
ACDBBLOCKREPBTAG
 70
     0
  0
APPID
  2
ACAD_NAV_VCDISPLAY
 70
     0
  0
APPID
  2
ACAD_DSTYLE_DIMRADIAL_EXTENSION
 70
     0
  0
APPID
  2
ACAD_DSTYLE_DIMJAG
 70
     0
  0
APPID
  2
ACAD_DSTYLE_DIMTALN
 70
     0
  0
APPID
  2
ACADANNOPO
 70
     0
  0
APPID
  2
GRADIENTCOLOR1ACI
 70
     0
  0
APPID
  2
GRADIENTCOLOR2ACI
 70
     0
  0
APPID
  2
ACAD_MLEADERVER
 70
     0
  0
ENDTAB
  0
TABLE
  2
DIMSTYLE
 70
     3
  0
DIMSTYLE
  2
STANDARD
 70
     0
  3

  4

  5

  6

  7

 40
1.0
 41
0.18
 42
0.0625
 43
0.38
 44
0.18
 45
0.0
 46
0.0
 47
0.0
 48
0.0
140
0.18
141
0.09
142
0.0
143
25.399999999999999
144
1.0
145
0.0
146
1.0
147
0.09
 71
     0
 72
     0
 73
     1
 74
     1
 75
     0
 76
     0
 77
     0
 78
     0
170
     0
171
     2
172
     0
173
     0
174
     0
175
     0
176
     0
177
     0
178
     0
  0
DIMSTYLE
  2
S10
 70
     0
  3

  4

  5

  6

  7

 40
10.0
 41
2.0
 42
1.0
 43
10.0
 44
1.0
 45
0.0
 46
0.0
 47
0.0
 48
0.0
140
3.2000000000000002
141
0.0
142
0.0
143
25.399999999999999
144
1.0
145
0.0
146
1.0
147
0.9
 71
     0
 72
     0
 73
     0
 74
     0
 75
     0
 76
     0
 77
     1
 78
     8
170
     0
171
     2
172
     1
173
     0
174
     0
175
     0
176
   256
177
   256
178
   256
  0
ENDTAB
  0
ENDSEC
  0
SECTION
  2
BLOCKS
  0
BLOCK
  8
0
  2
$MODEL_SPACE
 70
     0
 10
0.0
 20
0.0
 30
0.0
  3
$MODEL_SPACE
  1

  0
ENDBLK
  5
12ABAF
  8
0
  0
BLOCK
 67
     1
  8
0
  2
$PAPER_SPACE
 70
     0
 10
0.0
 20
0.0
 30
0.0
  3
$PAPER_SPACE
  1

  0
ENDBLK
  5
12ABAB
 67
     1
  8
0
  0
BLOCK
  8
0
  2
_OPEN30
 70
     0
 10
0.0
 20
0.0
 30
0.0
  3
_OPEN30
  1

  0
LINE
  5
202
  8
0
  6
BYBLOCK
 62
     0
 10
-1.0
 20
0.26794919
 30
0.0
 11
0.0
 21
0.0
 31
0.0
  0
LINE
  5
203
  8
0
  6
BYBLOCK
 62
     0
 10
0.0
 20
0.0
 30
0.0
 11
-1.0
 21
-0.26794919
 31
0.0
  0
LINE
  5
204
  8
0
  6
BYBLOCK
 62
     0
 10
0.0
 20
0.0
 30
0.0
 11
-1.0
 21
0.0
 31
0.0
  0
ENDBLK
  5
206
  8
0
  0
BLOCK
  8
0
  2
*U12
 70
     1
 10
0.0
 20
0.0
 30
0.0
  3
*U12
  1

  0
TEXT
  5
12AB0C
  8
DIM
 10
2206.6598680972129
 20
-3204.1428571428528
 30
0.0
 40
32.0
  1
A
 50
90.0
 41
0.75
  0
ENDBLK
  5
12AB0E
  8
0
  0
BLOCK
  8
0
  2
*U13
 70
     1
 10
0.0
 20
0.0
 30
0.0
  3
*U13
  1

  0
TEXT
  5
12AB10
  8
DIM
 10
2205.0211759064891
 20
-3585.9999999999968
 30
0.0
 40
32.0
  1
B
 50
90.0
 41
0.75
  0
ENDBLK
  5
12AB12
  8
0
  0
BLOCK
  8
0
  2
*U14
 70
     1
 10
0.0
 20
0.0
 30
0.0
  3
*U14
  1

  0
TEXT
  5
12AB14
  8
DIM
 10
2058.608818931325
 20
-3058.208121984444
 30
0.0
 40
32.0
  1
C
 41
0.75
  0
ENDBLK
  5
12AB16
  8
0
  0
BLOCK
  8
0
  2
*U15
 70
     1
 10
0.0
 20
0.0
 30
0.0
  3
*U15
  1

  0
TEXT
  5
12AB18
  8
DIM
 10
3840.6616440113212
 20
-942.74285714285622
 30
0.0
 40
32.0
  1
m（シンドカット）
 50
90.0
 41
0.75
  0
ENDBLK
  5
12AB1A
  8
0
  0
BLOCK
  8
0
  2
*U16
 70
     1
 10
0.0
 20
0.0
 30
0.0
  3
*U16
  1

  0
TEXT
  5
12AB1C
  8
SLIM
 10
509.0476190477408
 20
-586.75000000000955
 30
0.0
 40
26.0
  1
100
  0
ENDBLK
  5
12AB1E
  8
0
  0
BLOCK
  8
0
  2
*U17
 70
     1
 10
0.0
 20
0.0
 30
0.0
  3
*U17
  1

  0
TEXT
  5
12AB20
  8
SLIM
 10
158.9523809524228
 20
-594.00000000000955
 30
0.0
 40
26.0
  1
75
  0
ENDBLK
  5
12AB22
  8
0
  0
BLOCK
  8
0
  2
*U18
 70
     1
 10
0.0
 20
0.0
 30
0.0
  3
*U18
  1

  0
TEXT
  5
12AB24
  8
SLIM
 10
518.95238095250295
 20
-130.00000000000321
 30
0.0
 40
26.0
  1
65
  0
ENDBLK
  5
12AB26
  8
0
  0
BLOCK
  8
0
  2
*U19
 70
     1
 10
0.0
 20
0.0
 30
0.0
  3
*U19
  1

  0
TEXT
  5
12AB28
  8
SLIM
 10
158.9523809524228
 20
-130.00000000000321
 30
0.0
 40
26.0
  1
50
  0
ENDBLK
  5
12AB2A
  8
0
  0
ENDSEC
  0
SECTION
  2
ENTITIES
  0
TEXT
  5
122A4E
  8
SLIM
 10
-0.0000000000000011
 20
282.5
 30
0.0
 40
35.0
  1
※ 100枝（4）がある場合、品名の最後に【管底】が付きます。
 41
0.9
 11
0.0
 21
300.0
 31
0.0
 73
     2
  0
LINE
  5
125161
  8
SLIM
 10
2616.0
 20
-2657.50001604727
 30
0.0
 11
2616.0
 21
-2987.50001604727
 31
0.0
  0
LINE
  5
125162
  8
SLIM
 10
2740.0
 20
-2657.50001604727
 30
0.0
 11
2740.0
 21
-2987.50001604727
 31
0.0
  0
LINE
  5
125163
  8
SLIM
 10
2870.0
 20
-2717.50001604727
 30
0.0
 11
2870.0
 21
-2987.50001604727
 31
0.0
  0
LINE
  5
125164
  8
SLIM
 10
3000.0
 20
-2717.50001604727
 30
0.0
 11
3000.0
 21
-2987.50001604727
 31
0.0
  0
LINE
  5
125165
  8
SLIM
 10
3130.0
 20
-2987.50001604727
 30
0.0
 11
3130.0
 21
-2717.50001604727
 31
0.0
  0
LINE
  5
125166
  8
SLIM
 10
3260.0
 20
-2987.50001604727
 30
0.0
 11
3260.0
 21
-2657.50001604727
 31
0.0
  0
LINE
  5
125167
  8
SLIM
 10
3260.0
 20
-2657.50001604727
 30
0.0
 11
2616.0
 21
-2657.50001604727
 31
0.0
  0
LINE
  5
125168
  8
SLIM
 10
3260.0
 20
-2717.50001604727
 30
0.0
 11
2740.0
 21
-2717.50001604727
 31
0.0
  0
LINE
  5
125169
  8
SLIM
 10
3260.0
 20
-2777.50001604727
 30
0.0
 11
2616.0
 21
-2777.50001604727
 31
0.0
  0
LINE
  5
12516A
  8
SLIM
 10
3260.0
 20
-2847.50001604727
 30
0.0
 11
2616.0
 21
-2847.50001604727
 31
0.0
  0
LINE
  5
12516B
  8
SLIM
 10
3260.0
 20
-2917.50001604727
 30
0.0
 11
2616.0
 21
-2917.50001604727
 31
0.0
  0
LINE
  5
12516C
  8
SLIM
 10
3260.0
 20
-2987.50001604727
 30
0.0
 11
2616.0
 21
-2987.50001604727
 31
0.0
  0
LINE
  5
125181
  8
SLIM
 10
2740.0
 20
-2777.50001604727
 30
0.0
 11
2615.9999722746579
 21
-2657.5
 31
0.0
  0
LINE
  5
1267A9
  8
SLIM
 10
4850.0
 20
-379.99999999999687
 30
0.0
 11
4850.0
 21
-1099.999999999997
 31
0.0
  0
LINE
  5
1267AA
  8
SLIM
 10
4954.0
 20
-1099.999999999997
 30
0.0
 11
4954.0
 21
-379.99999999999687
 31
0.0
  0
LINE
  5
1267AB
  8
SLIM
 10
5102.0
 20
-379.99999999999687
 30
0.0
 11
4850.0
 21
-379.99999999999687
 31
0.0
  0
LINE
  5
1267AC
  8
SLIM
 10
5102.0
 20
-427.99999999999687
 30
0.0
 11
4850.0
 21
-427.99999999999687
 31
0.0
  0
LINE
  5
1267AE
  8
SLIM
 10
5102.0
 20
-475.99999999999687
 30
0.0
 11
4850.0
 21
-475.99999999999687
 31
0.0
  0
LINE
  5
1267AF
  8
SLIM
 10
5102.0
 20
-523.99999999999693
 30
0.0
 11
4850.0
 21
-523.99999999999693
 31
0.0
  0
LINE
  5
1267B0
  8
SLIM
 10
5102.0
 20
-571.99999999999704
 30
0.0
 11
4850.0
 21
-571.99999999999704
 31
0.0
  0
LINE
  5
1267B4
  8
SLIM
 10
5102.0
 20
-619.99999999999704
 30
0.0
 11
4850.0
 21
-619.99999999999704
 31
0.0
  0
LINE
  5
1267B6
  8
SLIM
 10
5102.0
 20
-667.99999999999704
 30
0.0
 11
4850.0
 21
-667.99999999999704
 31
0.0
  0
LINE
  5
1267B8
  8
SLIM
 10
5102.0
 20
-715.99999999999693
 30
0.0
 11
4850.0
 21
-715.99999999999693
 31
0.0
  0
LINE
  5
1267BA
  8
SLIM
 10
5102.0
 20
-763.99999999999693
 30
0.0
 11
4850.0
 21
-763.99999999999693
 31
0.0
  0
LINE
  5
1267BC
  8
SLIM
 10
5102.0
 20
-811.99999999999693
 30
0.0
 11
4850.0
 21
-811.99999999999693
 31
0.0
  0
LINE
  5
1267BE
  8
SLIM
 10
5102.0
 20
-859.99999999999693
 30
0.0
 11
4850.0
 21
-859.99999999999693
 31
0.0
  0
LINE
  5
1267C0
  8
SLIM
 10
5102.0
 20
-907.99999999999682
 30
0.0
 11
4850.0
 21
-907.99999999999682
 31
0.0
  0
LINE
  5
1267C2
  8
SLIM
 10
5102.0
 20
-955.99999999999704
 30
0.0
 11
4850.0
 21
-955.99999999999704
 31
0.0
  0
LINE
  5
1267C4
  8
SLIM
 10
5102.0
 20
-1003.999999999997
 30
0.0
 11
4850.0
 21
-1003.999999999997
 31
0.0
  0
LINE
  5
1267C6
  8
SLIM
 10
5102.0
 20
-1051.999999999997
 30
0.0
 11
4850.0
 21
-1051.999999999997
 31
0.0
  0
LINE
  5
1267C8
  8
SLIM
 10
5102.0
 20
-1099.999999999997
 30
0.0
 11
4850.0
 21
-1099.999999999997
 31
0.0
  0
LINE
  5
1267CB
  8
SLIM
 10
5102.0
 20
-379.99999999999687
 30
0.0
 11
5102.0
 21
-1099.999999999997
 31
0.0
  0
LINE
  5
129BBF
  8
OBJECT
 10
1822.180247502753
 20
-3599.9999999999959
 30
0.0
 11
5572.1802475027544
 21
-3599.9999999999959
 31
0.0
  0
LINE
  5
129BF4
  8
CENTER
 10
5397.1802475027544
 20
-3379.9999999999968
 30
0.0
 11
5397.1802475027544
 21
-3614.9999999999968
 31
0.0
1001
ACDBBLOCKREPETAG
1070
     1
1071
       25
1005
129BF4
  0
LINE
  5
129BF5
  8
OBJECT
 10
5322.1802475027544
 20
-3478.9999999999968
 30
0.0
 11
5322.1802475027544
 21
-3602.9999999999968
 31
0.0
1001
ACDBBLOCKREPETAG
1070
     1
1071
       26
1005
129BF5
  0
LINE
  5
129BF6
  8
OBJECT
 10
5472.1802475027553
 20
-3478.9999999999968
 30
0.0
 11
5472.1802475027553
 21
-3602.9999999999968
 31
0.0
1001
ACDBBLOCKREPETAG
1070
     1
1071
       34
1005
129BF6
  0
POINT
  5
129BF7
  8
DOTS
 10
5397.1802475027544
 20
-3599.9999999999968
 30
0.0
1001
ACDBBLOCKREPETAG
1070
     1
1071
      187
1005
129BF7
  0
LINE
  5
129BF8
  8
CENTER
 10
5307.1802475027544
 20
-3527.9999999999968
 30
0.0
 11
5487.1802475027544
 21
-3527.9999999999968
 31
0.0
1001
ACDBBLOCKREPETAG
1070
     1
1071
       23
1005
129BF8
  0
CIRCLE
  5
129BF9
  8
OBJECT
 10
5397.1802475027544
 20
-3527.9999999999968
 30
0.0
 40
53.5
1001
ACDBBLOCKREPETAG
1070
     1
1071
       24
1005
129BF9
  0
CIRCLE
  5
129BFA
  8
OBJECT
 10
5397.1802475027544
 20
-3527.9999999999968
 30
0.0
 40
67.0
1001
ACDBBLOCKREPETAG
1070
     1
1071
       25
1005
129BFA
  0
ARC
  5
129BFB
  8
OBJECT
 10
5397.1802475027544
 20
-3527.9999999999968
 30
0.0
 40
75.0
 50
286.26020470824
 51
253.73979529175989
1001
ACDBBLOCKREPETAG
1070
     1
1071
       27
1005
129BFB
  0
LINE
  5
129BFC
  8
OBJECT
 10
5376.1802475027544
 20
-3599.9999999999968
 30
0.0
 11
5418.1802475027544
 21
-3599.9999999999968
 31
0.0
1001
ACDBBLOCKREPETAG
1070
     1
1071
       28
1005
129BFC
  0
LINE
  5
129C19
  8
OBJECT
 10
5457.1802475027553
 20
-3472.9999999999968
 30
0.0
 11
5448.1704426386841
 21
-3472.9999999999968
 31
0.0
1001
ACDBBLOCKREPETAG
1070
     1
1071
      215
1005
129C19
  0
LINE
  5
129C1A
  8
OBJECT
 10
5346.1900523668264
 20
-3472.9999999999968
 30
0.0
 11
5337.1802475027544
 21
-3472.9999999999968
 31
0.0
1001
ACDBBLOCKREPETAG
1070
     1
1071
      215
1005
129C19
  0
ARC
  5
129C1B
  8
OBJECT
 10
5337.1802475027544
 20
-3475.9999999999968
 30
0.0
 40
3.0
 50
90.0
 51
180.0
1001
ACDBBLOCKREPETAG
1070
     1
1071
      216
1005
129C1B
  0
LINE
  5
129C1C
  8
OBJECT
 10
5334.1802475027544
 20
-3475.9999999999968
 30
0.0
 11
5334.1802475027544
 21
-3478.9999999999968
 31
0.0
1001
ACDBBLOCKREPETAG
1070
     1
1071
      217
1005
129C1C
  0
LINE
  5
129C1D
  8
OBJECT
 10
5460.1802475027553
 20
-3475.9999999999968
 30
0.0
 11
5460.1802475027553
 21
-3478.9999999999968
 31
0.0
1001
ACDBBLOCKREPETAG
1070
     1
1071
      218
1005
129C1D
  0
ARC
  5
129C1E
  8
OBJECT
 10
5457.1802475027553
 20
-3475.9999999999968
 30
0.0
 40
3.0
 50
0.0
 51
90.0
1001
ACDBBLOCKREPETAG
1070
     1
1071
      219
1005
129C1E
  0
LINE
  5
129C1F
  8
OBJECT
 10
5340.1802475027544
 20
-3404.9999999999968
 30
0.0
 11
5340.1802475027544
 21
-3472.9999999999968
 31
0.0
1001
ACDBBLOCKREPETAG
1070
     1
1071
      220
1005
129C1F
  0
LINE
  5
129C20
  8
OBJECT
 10
5454.1802475027553
 20
-3404.9999999999968
 30
0.0
 11
5340.1802475027544
 21
-3404.9999999999968
 31
0.0
1001
ACDBBLOCKREPETAG
1070
     1
1071
      221
1005
129C20
  0
LINE
  5
129C21
  8
OBJECT
 10
5454.1802475027553
 20
-3404.9999999999968
 30
0.0
 11
5454.1802475027553
 21
-3472.9999999999968
 31
0.0
1001
ACDBBLOCKREPETAG
1070
     1
1071
      222
1005
129C21
  0
LINE
  5
129C22
  8
HIDDEN
 10
5449.6802475027553
 20
-3404.9999999999968
 30
0.0
 11
5449.6802475027553
 21
-3478.9999999999968
 31
0.0
1001
ACDBBLOCKREPETAG
1070
     1
1071
      224
1005
129C22
  0
LINE
  5
129C23
  8
HIDDEN
 10
5344.6802475027544
 20
-3404.9999999999968
 30
0.0
 11
5344.6802475027544
 21
-3478.9999999999968
 31
0.0
1001
ACDBBLOCKREPETAG
1070
     1
1071
      225
1005
129C23
  0
LINE
  5
129C24
  8
OBJECT
 10
5472.1802475027553
 20
-3478.9999999999968
 30
0.0
 11
5453.9605257690682
 21
-3478.9999999999968
 31
0.0
1001
ACDBBLOCKREPETAG
1070
     1
1071
       30
1005
129C24
  0
LINE
  5
129C25
  8
OBJECT
 10
5340.3999692364423
 20
-3478.9999999999968
 30
0.0
 11
5322.1802475027544
 21
-3478.9999999999968
 31
0.0
1001
ACDBBLOCKREPETAG
1070
     1
1071
       30
1005
129C24
  0
LINE
  5
12A4F3
  8
CENTER
 10
5077.1802475027544
 20
-3194.9999999999959
 30
0.0
 11
4902.1802475027544
 21
-3194.9999999999959
 31
0.0
1001
ACDBBLOCKREPETAG
1070
     1
1071
       14
1005
12A4F3
  0
LINE
  5
12A4F4
  8
CENTER
 10
4997.1802475027544
 20
-3289.9999999999959
 30
0.0
 11
4997.1802475027544
 21
-3099.9999999999959
 31
0.0
1001
ACDBBLOCKREPETAG
1070
     1
1071
       15
1005
12A4F4
  0
CIRCLE
  5
12A4F5
  8
OBJECT
 10
4997.1802475027544
 20
-3194.9999999999959
 30
0.0
 40
75.0
1001
ACDBBLOCKREPETAG
1070
     1
1071
       17
1005
12A4F5
  0
ARC
  5
12A4F6
  8
OBJECT
 10
4997.1802475027544
 20
-3194.9999999999959
 30
0.0
 40
80.0
 50
50.805032573882329
 51
309.19496742611773
1001
ACDBBLOCKREPETAG
1070
     1
1071
       18
1005
12A4F6
  0
LINE
  5
12A4F7
  8
OBJECT
 10
5039.3821431947727
 20
-3132.9999999999959
 30
0.0
 11
5077.1802475027544
 21
-3132.9999999999959
 31
0.0
1001
ACDBBLOCKREPETAG
1070
     1
1071
       19
1005
12A4F7
  0
LINE
  5
12A4F8
  8
OBJECT
 10
5039.3821431947727
 20
-3256.9999999999959
 30
0.0
 11
5077.1802475027544
 21
-3256.9999999999959
 31
0.0
1001
ACDBBLOCKREPETAG
1070
     1
1071
       20
1005
12A4F8
  0
POINT
  5
12A4F9
  8
DOTS
 10
4997.1802475027544
 20
-3194.9999999999959
 30
0.0
1001
ACDBBLOCKREPETAG
1070
     1
1071
       21
1005
12A4F9
  0
CIRCLE
  5
12A4FA
  8
OBJECT
 10
4997.1802475027544
 20
-3194.9999999999959
 30
0.0
 40
52.5
1001
ACDBBLOCKREPETAG
1070
     1
1071
      494
1005
12A4FA
  0
CIRCLE
  5
12A4FB
  8
OBJECT
 10
4997.1802475027544
 20
-3194.9999999999959
 30
0.0
 40
57.0
1001
ACDBBLOCKREPETAG
1070
     1
1071
      483
1005
12A4FB
  0
LINE
  5
12A4FC
  8
CENTER
 10
4077.180247502753
 20
-3194.9999999999959
 30
0.0
 11
3902.1802475027539
 21
-3194.9999999999959
 31
0.0
1001
ACDBBLOCKREPETAG
1070
     1
1071
       14
1005
12A4FC
  0
LINE
  5
12A4FD
  8
CENTER
 10
3997.1802475027539
 20
-3289.9999999999959
 30
0.0
 11
3997.1802475027539
 21
-3099.9999999999959
 31
0.0
1001
ACDBBLOCKREPETAG
1070
     1
1071
       15
1005
12A4FD
  0
CIRCLE
  5
12A4FE
  8
OBJECT
 10
3997.1802475027539
 20
-3194.9999999999959
 30
0.0
 40
75.0
1001
ACDBBLOCKREPETAG
1070
     1
1071
       17
1005
12A4FE
  0
ARC
  5
12A4FF
  8
OBJECT
 10
3997.1802475027539
 20
-3194.9999999999959
 30
0.0
 40
80.0
 50
50.805032573862128
 51
309.19496742613791
1001
ACDBBLOCKREPETAG
1070
     1
1071
       18
1005
12A4FF
  0
LINE
  5
12A500
  8
OBJECT
 10
4039.382143194774
 20
-3132.9999999999959
 30
0.0
 11
4077.180247502753
 21
-3132.9999999999959
 31
0.0
1001
ACDBBLOCKREPETAG
1070
     1
1071
       19
1005
12A500
  0
LINE
  5
12A501
  8
OBJECT
 10
4039.382143194774
 20
-3256.9999999999959
 30
0.0
 11
4077.180247502753
 21
-3256.9999999999959
 31
0.0
1001
ACDBBLOCKREPETAG
1070
     1
1071
       20
1005
12A501
  0
POINT
  5
12A502
  8
DOTS
 10
3997.1802475027539
 20
-3194.9999999999959
 30
0.0
1001
ACDBBLOCKREPETAG
1070
     1
1071
       21
1005
12A502
  0
CIRCLE
  5
12A503
  8
OBJECT
 10
3997.1802475027539
 20
-3194.9999999999959
 30
0.0
 40
52.5
1001
ACDBBLOCKREPETAG
1070
     1
1071
      494
1005
12A503
  0
CIRCLE
  5
12A504
  8
OBJECT
 10
3997.1802475027539
 20
-3194.9999999999959
 30
0.0
 40
57.0
1001
ACDBBLOCKREPETAG
1070
     1
1071
      483
1005
12A504
  0
LINE
  5
12A505
  8
CENTER
 10
3077.1802475027539
 20
-3194.9999999999959
 30
0.0
 11
2902.1802475027548
 21
-3194.9999999999959
 31
0.0
1001
ACDBBLOCKREPETAG
1070
     1
1071
       14
1005
12A505
  0
LINE
  5
12A506
  8
CENTER
 10
2997.1802475027539
 20
-3289.9999999999959
 30
0.0
 11
2997.1802475027539
 21
-3099.9999999999959
 31
0.0
1001
ACDBBLOCKREPETAG
1070
     1
1071
       15
1005
12A506
  0
CIRCLE
  5
12A507
  8
OBJECT
 10
2997.1802475027539
 20
-3194.9999999999959
 30
0.0
 40
75.0
1001
ACDBBLOCKREPETAG
1070
     1
1071
       17
1005
12A507
  0
ARC
  5
12A508
  8
OBJECT
 10
2997.1802475027539
 20
-3194.9999999999959
 30
0.0
 40
80.0
 50
50.805032573862128
 51
309.19496742613791
1001
ACDBBLOCKREPETAG
1070
     1
1071
       18
1005
12A508
  0
LINE
  5
12A509
  8
OBJECT
 10
3039.3821431947731
 20
-3132.9999999999959
 30
0.0
 11
3077.1802475027539
 21
-3132.9999999999959
 31
0.0
1001
ACDBBLOCKREPETAG
1070
     1
1071
       19
1005
12A509
  0
LINE
  5
12A50A
  8
OBJECT
 10
3039.3821431947731
 20
-3256.9999999999959
 30
0.0
 11
3077.1802475027539
 21
-3256.9999999999959
 31
0.0
1001
ACDBBLOCKREPETAG
1070
     1
1071
       20
1005
12A50A
  0
POINT
  5
12A50B
  8
DOTS
 10
2997.1802475027539
 20
-3194.9999999999959
 30
0.0
1001
ACDBBLOCKREPETAG
1070
     1
1071
       21
1005
12A50B
  0
CIRCLE
  5
12A50C
  8
OBJECT
 10
2997.1802475027539
 20
-3194.9999999999959
 30
0.0
 40
52.5
1001
ACDBBLOCKREPETAG
1070
     1
1071
      494
1005
12A50C
  0
CIRCLE
  5
12A50D
  8
OBJECT
 10
2997.1802475027539
 20
-3194.9999999999959
 30
0.0
 40
57.0
1001
ACDBBLOCKREPETAG
1070
     1
1071
      483
1005
12A50D
  0
LINE
  5
12A50E
  8
CENTER
 10
2077.1802475027539
 20
-3194.9999999999959
 30
0.0
 11
1902.1802475027539
 21
-3194.9999999999959
 31
0.0
1001
ACDBBLOCKREPETAG
1070
     1
1071
       14
1005
12A50E
  0
LINE
  5
12A50F
  8
CENTER
 10
1997.1802475027539
 20
-3289.9999999999959
 30
0.0
 11
1997.1802475027539
 21
-3099.9999999999959
 31
0.0
1001
ACDBBLOCKREPETAG
1070
     1
1071
       15
1005
12A50F
  0
CIRCLE
  5
12A510
  8
OBJECT
 10
1997.1802475027539
 20
-3194.9999999999959
 30
0.0
 40
75.0
1001
ACDBBLOCKREPETAG
1070
     1
1071
       17
1005
12A510
  0
ARC
  5
12A511
  8
OBJECT
 10
1997.1802475027539
 20
-3194.9999999999959
 30
0.0
 40
80.0
 50
50.805032573862128
 51
309.19496742613791
1001
ACDBBLOCKREPETAG
1070
     1
1071
       18
1005
12A511
  0
LINE
  5
12A512
  8
OBJECT
 10
2039.3821431947731
 20
-3132.9999999999959
 30
0.0
 11
2077.1802475027539
 21
-3132.9999999999959
 31
0.0
1001
ACDBBLOCKREPETAG
1070
     1
1071
       19
1005
12A512
  0
LINE
  5
12A513
  8
OBJECT
 10
2039.3821431947731
 20
-3256.9999999999959
 30
0.0
 11
2077.1802475027539
 21
-3256.9999999999959
 31
0.0
1001
ACDBBLOCKREPETAG
1070
     1
1071
       20
1005
12A513
  0
POINT
  5
12A514
  8
DOTS
 10
1997.1802475027539
 20
-3194.9999999999959
 30
0.0
1001
ACDBBLOCKREPETAG
1070
     1
1071
       21
1005
12A514
  0
CIRCLE
  5
12A515
  8
OBJECT
 10
1997.1802475027539
 20
-3194.9999999999959
 30
0.0
 40
52.5
1001
ACDBBLOCKREPETAG
1070
     1
1071
      494
1005
12A515
  0
CIRCLE
  5
12A516
  8
OBJECT
 10
1997.1802475027539
 20
-3194.9999999999959
 30
0.0
 40
57.0
1001
ACDBBLOCKREPETAG
1070
     1
1071
      483
1005
12A516
  0
LINE
  5
12A517
  8
OBJECT
 10
4922.1802475027553
 20
-3478.9999999999968
 30
0.0
 11
4922.1802475027553
 21
-3602.9999999999968
 31
0.0
1001
ACDBBLOCKREPETAG
1070
     1
1071
        6
1005
12A517
  0
LINE
  5
12A518
  8
OBJECT
 10
5072.1802475025534
 20
-3602.9999999997758
 30
0.0
 11
5077.1802475027544
 21
-3602.9999999999968
 31
0.0
1001
ACDBBLOCKREPETAG
1070
     1
1071
        9
1005
12A518
  0
LINE
  5
12A519
  8
OBJECT
 10
5077.1802475027544
 20
-3478.9999999999968
 30
0.0
 11
4922.1802475027553
 21
-3478.9999999999968
 31
0.0
1001
ACDBBLOCKREPETAG
1070
     1
1071
       10
1005
12A519
  0
ARC
  5
12A51A
  8
OBJECT
 10
5197.8675221744261
 20
-3594.408099410105
 30
0.0
 40
170.6350503965856
 50
137.44134459184301
 51
149.9194958133665
1001
ACDBBLOCKREPETAG
1070
     1
1071
       15
1005
12A51A
  0
ARC
  5
12A51B
  8
OBJECT
 10
5116.025846206805
 20
-3550.8827266953631
 30
0.0
 40
78.072222021763665
 50
147.4551531037684
 51
164.66365997719299
1001
ACDBBLOCKREPETAG
1070
     1
1071
       16
1005
12A51B
  0
ARC
  5
12A51C
  8
OBJECT
 10
5082.935682463627
 20
-3540.9999999999968
 30
0.0
 40
43.55353926885617
 50
165.6884523008477
 51
194.31154769915219
1001
ACDBBLOCKREPETAG
1070
     1
1071
       17
1005
12A51C
  0
ARC
  5
12A51D
  8
OBJECT
 10
5197.8675221744261
 20
-3487.5919005898891
 30
0.0
 40
170.6350503965856
 50
210.0805041866335
 51
222.55865540815699
1001
ACDBBLOCKREPETAG
1070
     1
1071
       18
1005
12A51D
  0
ARC
  5
12A51E
  8
OBJECT
 10
5116.025846206805
 20
-3531.1172733046319
 30
0.0
 40
78.072222021763665
 50
195.33634002280701
 51
212.5448468962316
1001
ACDBBLOCKREPETAG
1070
     1
1071
       19
1005
12A51E
  0
POINT
  5
12A51F
  8
DOTS
 10
4997.1802475027544
 20
-3599.9999999999968
 30
0.0
1001
ACDBBLOCKREPETAG
1070
     1
1071
      186
1005
12A51F
  0
LINE
  5
12A520
  8
OBJECT
 10
5057.1802475027544
 20
-3472.9999999999968
 30
0.0
 11
4937.1802475027544
 21
-3472.9999999999968
 31
0.0
1001
ACDBBLOCKREPETAG
1070
     1
1071
      215
1005
12A520
  0
ARC
  5
12A521
  8
OBJECT
 10
4937.1802475027544
 20
-3475.9999999999968
 30
0.0
 40
3.0
 50
90.0
 51
180.0
1001
ACDBBLOCKREPETAG
1070
     1
1071
      216
1005
12A521
  0
LINE
  5
12A522
  8
OBJECT
 10
4934.1802475027544
 20
-3475.9999999999968
 30
0.0
 11
4934.1802475027544
 21
-3478.9999999999968
 31
0.0
1001
ACDBBLOCKREPETAG
1070
     1
1071
      217
1005
12A522
  0
LINE
  5
12A523
  8
OBJECT
 10
5060.1802475027553
 20
-3475.9999999999968
 30
0.0
 11
5060.1802475027553
 21
-3478.9999999999968
 31
0.0
1001
ACDBBLOCKREPETAG
1070
     1
1071
      218
1005
12A523
  0
ARC
  5
12A524
  8
OBJECT
 10
5057.1802475027544
 20
-3475.9999999999968
 30
0.0
 40
3.0
 50
0.0
 51
90.0
1001
ACDBBLOCKREPETAG
1070
     1
1071
      219
1005
12A524
  0
LINE
  5
12A525
  8
OBJECT
 10
4940.1802475027544
 20
-3404.9999999999968
 30
0.0
 11
4940.1802475027544
 21
-3472.9999999999968
 31
0.0
1001
ACDBBLOCKREPETAG
1070
     1
1071
      220
1005
12A525
  0
LINE
  5
12A526
  8
OBJECT
 10
5054.1802475027544
 20
-3404.9999999999968
 30
0.0
 11
4940.1802475027544
 21
-3404.9999999999968
 31
0.0
1001
ACDBBLOCKREPETAG
1070
     1
1071
      221
1005
12A526
  0
LINE
  5
12A527
  8
OBJECT
 10
5054.1802475027544
 20
-3404.9999999999968
 30
0.0
 11
5054.1802475027544
 21
-3472.9999999999968
 31
0.0
1001
ACDBBLOCKREPETAG
1070
     1
1071
      222
1005
12A527
  0
LINE
  5
12A528
  8
CENTER
 10
4997.1802475027544
 20
-3389.9999999999968
 30
0.0
 11
4997.1802475027544
 21
-3614.9999999999968
 31
0.0
1001
ACDBBLOCKREPETAG
1070
     1
1071
      223
1005
12A528
  0
LINE
  5
12A529
  8
HIDDEN
 10
5049.6802475027544
 20
-3404.9999999999968
 30
0.0
 11
5049.6802475027544
 21
-3478.9999999999968
 31
0.0
1001
ACDBBLOCKREPETAG
1070
     1
1071
      224
1005
12A529
  0
LINE
  5
12A52A
  8
HIDDEN
 10
4944.6802475027562
 20
-3404.9999999999968
 30
0.0
 11
4944.6802475027562
 21
-3478.9999999999968
 31
0.0
1001
ACDBBLOCKREPETAG
1070
     1
1071
      225
1005
12A52A
  0
LINE
  5
12A52B
  8
OBJECT
 10
4322.1802475027534
 20
-3478.9999999999968
 30
0.0
 11
4322.1802475027534
 21
-3602.9999999999968
 31
0.0
1001
ACDBBLOCKREPETAG
1070
     1
1071
       26
1005
12A52B
  0
LINE
  5
12A52C
  8
OBJECT
 10
4472.1802475027553
 20
-3478.9999999999968
 30
0.0
 11
4322.1802475027534
 21
-3478.9999999999968
 31
0.0
1001
ACDBBLOCKREPETAG
1070
     1
1071
       30
1005
12A52C
  0
LINE
  5
12A52D
  8
OBJECT
 10
4472.1802475027553
 20
-3478.9999999999968
 30
0.0
 11
4472.1802475027553
 21
-3602.9999999999968
 31
0.0
1001
ACDBBLOCKREPETAG
1070
     1
1071
       34
1005
12A52D
  0
POINT
  5
12A52E
  8
DOTS
 10
4397.1802475027534
 20
-3599.9999999999968
 30
0.0
1001
ACDBBLOCKREPETAG
1070
     1
1071
      187
1005
12A52E
  0
LINE
  5
12A52F
  8
OBJECT
 10
4457.1802475027534
 20
-3472.9999999999968
 30
0.0
 11
4337.1802475027534
 21
-3472.9999999999968
 31
0.0
1001
ACDBBLOCKREPETAG
1070
     1
1071
      226
1005
12A52F
  0
ARC
  5
12A530
  8
OBJECT
 10
4337.1802475027534
 20
-3475.9999999999968
 30
0.0
 40
3.0
 50
90.0
 51
180.0
1001
ACDBBLOCKREPETAG
1070
     1
1071
      227
1005
12A530
  0
LINE
  5
12A531
  8
OBJECT
 10
4334.1802475027534
 20
-3475.9999999999968
 30
0.0
 11
4334.1802475027534
 21
-3478.9999999999968
 31
0.0
1001
ACDBBLOCKREPETAG
1070
     1
1071
      228
1005
12A531
  0
LINE
  5
12A532
  8
OBJECT
 10
4460.1802475027534
 20
-3475.9999999999968
 30
0.0
 11
4460.1802475027534
 21
-3478.9999999999968
 31
0.0
1001
ACDBBLOCKREPETAG
1070
     1
1071
      229
1005
12A532
  0
ARC
  5
12A533
  8
OBJECT
 10
4457.1802475027534
 20
-3475.9999999999968
 30
0.0
 40
3.0
 50
0.0
 51
90.0
1001
ACDBBLOCKREPETAG
1070
     1
1071
      230
1005
12A533
  0
LINE
  5
12A534
  8
OBJECT
 10
4340.1802475027534
 20
-3404.9999999999968
 30
0.0
 11
4340.1802475027534
 21
-3472.9999999999968
 31
0.0
1001
ACDBBLOCKREPETAG
1070
     1
1071
      231
1005
12A534
  0
LINE
  5
12A535
  8
OBJECT
 10
4454.1802475027544
 20
-3404.9999999999968
 30
0.0
 11
4340.1802475027534
 21
-3404.9999999999968
 31
0.0
1001
ACDBBLOCKREPETAG
1070
     1
1071
      232
1005
12A535
  0
LINE
  5
12A536
  8
OBJECT
 10
4454.1802475027544
 20
-3404.9999999999968
 30
0.0
 11
4454.1802475027544
 21
-3472.9999999999968
 31
0.0
1001
ACDBBLOCKREPETAG
1070
     1
1071
      233
1005
12A536
  0
LINE
  5
12A537
  8
CENTER
 10
4397.1802475027534
 20
-3389.9999999999968
 30
0.0
 11
4397.1802475027534
 21
-3614.9999999999968
 31
0.0
1001
ACDBBLOCKREPETAG
1070
     1
1071
      234
1005
12A537
  0
LINE
  5
12A538
  8
HIDDEN
 10
4449.6802475027544
 20
-3404.9999999999968
 30
0.0
 11
4449.6802475027544
 21
-3478.9999999999968
 31
0.0
1001
ACDBBLOCKREPETAG
1070
     1
1071
      235
1005
12A538
  0
LINE
  5
12A539
  8
HIDDEN
 10
4344.6802475027534
 20
-3404.9999999999968
 30
0.0
 11
4344.6802475027534
 21
-3478.9999999999968
 31
0.0
1001
ACDBBLOCKREPETAG
1070
     1
1071
      236
1005
12A539
  0
LINE
  5
12A53A
  8
OBJECT
 10
3922.1802475027548
 20
-3478.9999999999968
 30
0.0
 11
3922.1802475027548
 21
-3602.9999999999968
 31
0.0
1001
ACDBBLOCKREPETAG
1070
     1
1071
        6
1005
12A53A
  0
LINE
  5
12A53B
  8
OBJECT
 10
4072.1802475025529
 20
-3602.9999999997758
 30
0.0
 11
4077.180247502753
 21
-3602.9999999999968
 31
0.0
1001
ACDBBLOCKREPETAG
1070
     1
1071
        9
1005
12A53B
  0
LINE
  5
12A53C
  8
OBJECT
 10
4077.180247502753
 20
-3478.9999999999968
 30
0.0
 11
3922.1802475027548
 21
-3478.9999999999968
 31
0.0
1001
ACDBBLOCKREPETAG
1070
     1
1071
       10
1005
12A53C
  0
ARC
  5
12A53D
  8
OBJECT
 10
4197.8675221744252
 20
-3594.408099410105
 30
0.0
 40
170.6350503965856
 50
137.44134459184301
 51
149.9194958133665
1001
ACDBBLOCKREPETAG
1070
     1
1071
       15
1005
12A53D
  0
ARC
  5
12A53E
  8
OBJECT
 10
4116.025846206805
 20
-3550.8827266953631
 30
0.0
 40
78.072222021763665
 50
147.4551531037684
 51
164.66365997718609
1001
ACDBBLOCKREPETAG
1070
     1
1071
       16
1005
12A53E
  0
ARC
  5
12A53F
  8
OBJECT
 10
4082.9356824636261
 20
-3540.9999999999968
 30
0.0
 40
43.55353926885617
 50
165.6884523008477
 51
194.31154769915219
1001
ACDBBLOCKREPETAG
1070
     1
1071
       17
1005
12A53F
  0
ARC
  5
12A540
  8
OBJECT
 10
4197.8675221744252
 20
-3487.5919005898891
 30
0.0
 40
170.6350503965856
 50
210.0805041866335
 51
222.55865540815699
1001
ACDBBLOCKREPETAG
1070
     1
1071
       18
1005
12A540
  0
ARC
  5
12A541
  8
OBJECT
 10
4116.025846206805
 20
-3531.1172733046319
 30
0.0
 40
78.072222021763665
 50
195.33634002281391
 51
212.5448468962316
1001
ACDBBLOCKREPETAG
1070
     1
1071
       19
1005
12A541
  0
POINT
  5
12A542
  8
DOTS
 10
3997.1802475027539
 20
-3599.9999999999968
 30
0.0
1001
ACDBBLOCKREPETAG
1070
     1
1071
      186
1005
12A542
  0
LINE
  5
12A543
  8
OBJECT
 10
4057.180247502753
 20
-3472.9999999999968
 30
0.0
 11
3937.1802475027539
 21
-3472.9999999999968
 31
0.0
1001
ACDBBLOCKREPETAG
1070
     1
1071
      215
1005
12A543
  0
ARC
  5
12A544
  8
OBJECT
 10
3937.1802475027539
 20
-3475.9999999999968
 30
0.0
 40
3.0
 50
90.0
 51
180.0
1001
ACDBBLOCKREPETAG
1070
     1
1071
      216
1005
12A544
  0
LINE
  5
12A545
  8
OBJECT
 10
3934.1802475027539
 20
-3475.9999999999968
 30
0.0
 11
3934.1802475027539
 21
-3478.9999999999968
 31
0.0
1001
ACDBBLOCKREPETAG
1070
     1
1071
      217
1005
12A545
  0
LINE
  5
12A546
  8
OBJECT
 10
4060.1802475027548
 20
-3475.9999999999968
 30
0.0
 11
4060.1802475027548
 21
-3478.9999999999968
 31
0.0
1001
ACDBBLOCKREPETAG
1070
     1
1071
      218
1005
12A546
  0
ARC
  5
12A547
  8
OBJECT
 10
4057.180247502753
 20
-3475.9999999999968
 30
0.0
 40
3.0
 50
0.0
 51
90.0
1001
ACDBBLOCKREPETAG
1070
     1
1071
      219
1005
12A547
  0
LINE
  5
12A548
  8
OBJECT
 10
3940.1802475027539
 20
-3404.9999999999968
 30
0.0
 11
3940.1802475027539
 21
-3472.9999999999968
 31
0.0
1001
ACDBBLOCKREPETAG
1070
     1
1071
      220
1005
12A548
  0
LINE
  5
12A549
  8
OBJECT
 10
4054.180247502753
 20
-3404.9999999999968
 30
0.0
 11
3940.1802475027539
 21
-3404.9999999999968
 31
0.0
1001
ACDBBLOCKREPETAG
1070
     1
1071
      221
1005
12A549
  0
LINE
  5
12A54A
  8
OBJECT
 10
4054.180247502753
 20
-3404.9999999999968
 30
0.0
 11
4054.180247502753
 21
-3472.9999999999968
 31
0.0
1001
ACDBBLOCKREPETAG
1070
     1
1071
      222
1005
12A54A
  0
LINE
  5
12A54B
  8
CENTER
 10
3997.1802475027539
 20
-3389.9999999999968
 30
0.0
 11
3997.1802475027539
 21
-3614.9999999999968
 31
0.0
1001
ACDBBLOCKREPETAG
1070
     1
1071
      223
1005
12A54B
  0
LINE
  5
12A54C
  8
HIDDEN
 10
4049.680247502753
 20
-3404.9999999999968
 30
0.0
 11
4049.680247502753
 21
-3478.9999999999968
 31
0.0
1001
ACDBBLOCKREPETAG
1070
     1
1071
      224
1005
12A54C
  0
LINE
  5
12A54D
  8
HIDDEN
 10
3944.6802475027548
 20
-3404.9999999999968
 30
0.0
 11
3944.6802475027548
 21
-3478.9999999999968
 31
0.0
1001
ACDBBLOCKREPETAG
1070
     1
1071
      225
1005
12A54D
  0
LINE
  5
12A54E
  8
OBJECT
 10
3322.1802475027548
 20
-3478.9999999999968
 30
0.0
 11
3322.1802475027548
 21
-3602.9999999999968
 31
0.0
1001
ACDBBLOCKREPETAG
1070
     1
1071
       26
1005
12A54E
  0
LINE
  5
12A54F
  8
OBJECT
 10
3472.1802475027548
 20
-3478.9999999999968
 30
0.0
 11
3322.1802475027548
 21
-3478.9999999999968
 31
0.0
1001
ACDBBLOCKREPETAG
1070
     1
1071
       30
1005
12A54F
  0
LINE
  5
12A550
  8
OBJECT
 10
3472.1802475027548
 20
-3478.9999999999968
 30
0.0
 11
3472.1802475027548
 21
-3602.9999999999968
 31
0.0
1001
ACDBBLOCKREPETAG
1070
     1
1071
       34
1005
12A550
  0
POINT
  5
12A551
  8
DOTS
 10
3397.1802475027548
 20
-3599.9999999999968
 30
0.0
1001
ACDBBLOCKREPETAG
1070
     1
1071
      187
1005
12A551
  0
LINE
  5
12A552
  8
OBJECT
 10
3457.1802475027548
 20
-3472.9999999999968
 30
0.0
 11
3337.1802475027539
 21
-3472.9999999999968
 31
0.0
1001
ACDBBLOCKREPETAG
1070
     1
1071
      226
1005
12A552
  0
ARC
  5
12A553
  8
OBJECT
 10
3337.1802475027539
 20
-3475.9999999999968
 30
0.0
 40
3.0
 50
90.0
 51
180.0
1001
ACDBBLOCKREPETAG
1070
     1
1071
      227
1005
12A553
  0
LINE
  5
12A554
  8
OBJECT
 10
3334.1802475027539
 20
-3475.9999999999968
 30
0.0
 11
3334.1802475027539
 21
-3478.9999999999968
 31
0.0
1001
ACDBBLOCKREPETAG
1070
     1
1071
      228
1005
12A554
  0
LINE
  5
12A555
  8
OBJECT
 10
3460.1802475027548
 20
-3475.9999999999968
 30
0.0
 11
3460.1802475027548
 21
-3478.9999999999968
 31
0.0
1001
ACDBBLOCKREPETAG
1070
     1
1071
      229
1005
12A555
  0
ARC
  5
12A556
  8
OBJECT
 10
3457.1802475027548
 20
-3475.9999999999968
 30
0.0
 40
3.0
 50
0.0
 51
90.0
1001
ACDBBLOCKREPETAG
1070
     1
1071
      230
1005
12A556
  0
LINE
  5
12A557
  8
OBJECT
 10
3340.1802475027539
 20
-3404.9999999999968
 30
0.0
 11
3340.1802475027539
 21
-3472.9999999999968
 31
0.0
1001
ACDBBLOCKREPETAG
1070
     1
1071
      231
1005
12A557
  0
LINE
  5
12A558
  8
OBJECT
 10
3454.1802475027548
 20
-3404.9999999999968
 30
0.0
 11
3340.1802475027539
 21
-3404.9999999999968
 31
0.0
1001
ACDBBLOCKREPETAG
1070
     1
1071
      232
1005
12A558
  0
LINE
  5
12A559
  8
OBJECT
 10
3454.1802475027548
 20
-3404.9999999999968
 30
0.0
 11
3454.1802475027548
 21
-3472.9999999999968
 31
0.0
1001
ACDBBLOCKREPETAG
1070
     1
1071
      233
1005
12A559
  0
LINE
  5
12A55A
  8
CENTER
 10
3397.1802475027548
 20
-3389.9999999999968
 30
0.0
 11
3397.1802475027548
 21
-3614.9999999999968
 31
0.0
1001
ACDBBLOCKREPETAG
1070
     1
1071
      234
1005
12A55A
  0
LINE
  5
12A55B
  8
HIDDEN
 10
3449.6802475027548
 20
-3404.9999999999968
 30
0.0
 11
3449.6802475027548
 21
-3478.9999999999968
 31
0.0
1001
ACDBBLOCKREPETAG
1070
     1
1071
      235
1005
12A55B
  0
LINE
  5
12A55C
  8
HIDDEN
 10
3344.6802475027548
 20
-3404.9999999999968
 30
0.0
 11
3344.6802475027548
 21
-3478.9999999999968
 31
0.0
1001
ACDBBLOCKREPETAG
1070
     1
1071
      236
1005
12A55C
  0
LINE
  5
12A55D
  8
OBJECT
 10
2922.1802475027548
 20
-3478.9999999999968
 30
0.0
 11
2922.1802475027548
 21
-3602.9999999999968
 31
0.0
1001
ACDBBLOCKREPETAG
1070
     1
1071
        6
1005
12A55D
  0
LINE
  5
12A55E
  8
OBJECT
 10
3072.1802475025538
 20
-3602.9999999997758
 30
0.0
 11
3077.1802475027539
 21
-3602.9999999999968
 31
0.0
1001
ACDBBLOCKREPETAG
1070
     1
1071
        9
1005
12A55E
  0
LINE
  5
12A55F
  8
OBJECT
 10
3077.1802475027539
 20
-3478.9999999999968
 30
0.0
 11
2922.1802475027548
 21
-3478.9999999999968
 31
0.0
1001
ACDBBLOCKREPETAG
1070
     1
1071
       10
1005
12A55F
  0
ARC
  5
12A560
  8
OBJECT
 10
3197.867522174427
 20
-3594.408099410105
 30
0.0
 40
170.6350503965856
 50
137.44134459184301
 51
149.9194958133665
1001
ACDBBLOCKREPETAG
1070
     1
1071
       15
1005
12A560
  0
ARC
  5
12A561
  8
OBJECT
 10
3116.025846206805
 20
-3550.8827266953631
 30
0.0
 40
78.072222021763665
 50
147.4551531037684
 51
164.66365997718609
1001
ACDBBLOCKREPETAG
1070
     1
1071
       16
1005
12A561
  0
ARC
  5
12A562
  8
OBJECT
 10
3082.935682463627
 20
-3540.9999999999968
 30
0.0
 40
43.55353926885617
 50
165.6884523008477
 51
194.31154769915219
1001
ACDBBLOCKREPETAG
1070
     1
1071
       17
1005
12A562
  0
ARC
  5
12A563
  8
OBJECT
 10
3197.867522174427
 20
-3487.5919005898891
 30
0.0
 40
170.6350503965856
 50
210.0805041866335
 51
222.55865540815699
1001
ACDBBLOCKREPETAG
1070
     1
1071
       18
1005
12A563
  0
ARC
  5
12A564
  8
OBJECT
 10
3116.025846206805
 20
-3531.1172733046319
 30
0.0
 40
78.072222021763665
 50
195.33634002281391
 51
212.5448468962316
1001
ACDBBLOCKREPETAG
1070
     1
1071
       19
1005
12A564
  0
POINT
  5
12A565
  8
DOTS
 10
2997.1802475027539
 20
-3599.9999999999968
 30
0.0
1001
ACDBBLOCKREPETAG
1070
     1
1071
      186
1005
12A565
  0
LINE
  5
12A566
  8
OBJECT
 10
3057.1802475027539
 20
-3472.9999999999968
 30
0.0
 11
2937.1802475027539
 21
-3472.9999999999968
 31
0.0
1001
ACDBBLOCKREPETAG
1070
     1
1071
      215
1005
12A566
  0
ARC
  5
12A567
  8
OBJECT
 10
2937.1802475027539
 20
-3475.9999999999968
 30
0.0
 40
3.0
 50
90.0
 51
180.0
1001
ACDBBLOCKREPETAG
1070
     1
1071
      216
1005
12A567
  0
LINE
  5
12A568
  8
OBJECT
 10
2934.1802475027548
 20
-3475.9999999999968
 30
0.0
 11
2934.1802475027548
 21
-3478.9999999999968
 31
0.0
1001
ACDBBLOCKREPETAG
1070
     1
1071
      217
1005
12A568
  0
LINE
  5
12A569
  8
OBJECT
 10
3060.1802475027548
 20
-3475.9999999999968
 30
0.0
 11
3060.1802475027548
 21
-3478.9999999999968
 31
0.0
1001
ACDBBLOCKREPETAG
1070
     1
1071
      218
1005
12A569
  0
ARC
  5
12A56A
  8
OBJECT
 10
3057.1802475027539
 20
-3475.9999999999968
 30
0.0
 40
3.0
 50
0.0
 51
90.0
1001
ACDBBLOCKREPETAG
1070
     1
1071
      219
1005
12A56A
  0
LINE
  5
12A56B
  8
OBJECT
 10
2940.1802475027539
 20
-3404.9999999999968
 30
0.0
 11
2940.1802475027539
 21
-3472.9999999999968
 31
0.0
1001
ACDBBLOCKREPETAG
1070
     1
1071
      220
1005
12A56B
  0
LINE
  5
12A56C
  8
OBJECT
 10
3054.1802475027548
 20
-3404.9999999999968
 30
0.0
 11
2940.1802475027539
 21
-3404.9999999999968
 31
0.0
1001
ACDBBLOCKREPETAG
1070
     1
1071
      221
1005
12A56C
  0
LINE
  5
12A56D
  8
OBJECT
 10
3054.1802475027548
 20
-3404.9999999999968
 30
0.0
 11
3054.1802475027548
 21
-3472.9999999999968
 31
0.0
1001
ACDBBLOCKREPETAG
1070
     1
1071
      222
1005
12A56D
  0
LINE
  5
12A56E
  8
CENTER
 10
2997.1802475027539
 20
-3389.9999999999968
 30
0.0
 11
2997.1802475027539
 21
-3614.9999999999968
 31
0.0
1001
ACDBBLOCKREPETAG
1070
     1
1071
      223
1005
12A56E
  0
LINE
  5
12A56F
  8
HIDDEN
 10
3049.6802475027562
 20
-3404.9999999999968
 30
0.0
 11
3049.6802475027562
 21
-3478.9999999999968
 31
0.0
1001
ACDBBLOCKREPETAG
1070
     1
1071
      224
1005
12A56F
  0
LINE
  5
12A570
  8
HIDDEN
 10
2944.6802475027539
 20
-3404.9999999999968
 30
0.0
 11
2944.6802475027539
 21
-3478.9999999999968
 31
0.0
1001
ACDBBLOCKREPETAG
1070
     1
1071
      225
1005
12A570
  0
LINE
  5
12A571
  8
OBJECT
 10
2322.1802475027548
 20
-3478.9999999999968
 30
0.0
 11
2322.1802475027548
 21
-3602.9999999999968
 31
0.0
1001
ACDBBLOCKREPETAG
1070
     1
1071
       26
1005
12A571
  0
LINE
  5
12A572
  8
OBJECT
 10
2472.1802475027548
 20
-3478.9999999999968
 30
0.0
 11
2322.1802475027548
 21
-3478.9999999999968
 31
0.0
1001
ACDBBLOCKREPETAG
1070
     1
1071
       30
1005
12A572
  0
LINE
  5
12A573
  8
OBJECT
 10
2472.1802475027548
 20
-3478.9999999999968
 30
0.0
 11
2472.1802475027548
 21
-3602.9999999999968
 31
0.0
1001
ACDBBLOCKREPETAG
1070
     1
1071
       34
1005
12A573
  0
POINT
  5
12A574
  8
DOTS
 10
2397.180247502753
 20
-3599.9999999999968
 30
0.0
1001
ACDBBLOCKREPETAG
1070
     1
1071
      187
1005
12A574
  0
LINE
  5
12A575
  8
OBJECT
 10
2457.180247502753
 20
-3472.9999999999968
 30
0.0
 11
2337.1802475027539
 21
-3472.9999999999968
 31
0.0
1001
ACDBBLOCKREPETAG
1070
     1
1071
      226
1005
12A575
  0
ARC
  5
12A576
  8
OBJECT
 10
2337.1802475027539
 20
-3475.9999999999968
 30
0.0
 40
3.0
 50
90.0
 51
180.0
1001
ACDBBLOCKREPETAG
1070
     1
1071
      227
1005
12A576
  0
LINE
  5
12A577
  8
OBJECT
 10
2334.1802475027548
 20
-3475.9999999999968
 30
0.0
 11
2334.1802475027548
 21
-3478.9999999999968
 31
0.0
1001
ACDBBLOCKREPETAG
1070
     1
1071
      228
1005
12A577
  0
LINE
  5
12A578
  8
OBJECT
 10
2460.1802475027539
 20
-3475.9999999999968
 30
0.0
 11
2460.1802475027539
 21
-3478.9999999999968
 31
0.0
1001
ACDBBLOCKREPETAG
1070
     1
1071
      229
1005
12A578
  0
ARC
  5
12A579
  8
OBJECT
 10
2457.180247502753
 20
-3475.9999999999968
 30
0.0
 40
3.0
 50
0.0
 51
90.0
1001
ACDBBLOCKREPETAG
1070
     1
1071
      230
1005
12A579
  0
LINE
  5
12A57A
  8
OBJECT
 10
2340.180247502753
 20
-3404.9999999999968
 30
0.0
 11
2340.180247502753
 21
-3472.9999999999968
 31
0.0
1001
ACDBBLOCKREPETAG
1070
     1
1071
      231
1005
12A57A
  0
LINE
  5
12A57B
  8
OBJECT
 10
2454.1802475027548
 20
-3404.9999999999968
 30
0.0
 11
2340.180247502753
 21
-3404.9999999999968
 31
0.0
1001
ACDBBLOCKREPETAG
1070
     1
1071
      232
1005
12A57B
  0
LINE
  5
12A57C
  8
OBJECT
 10
2454.1802475027548
 20
-3404.9999999999968
 30
0.0
 11
2454.1802475027548
 21
-3472.9999999999968
 31
0.0
1001
ACDBBLOCKREPETAG
1070
     1
1071
      233
1005
12A57C
  0
LINE
  5
12A57D
  8
CENTER
 10
2397.180247502753
 20
-3389.9999999999968
 30
0.0
 11
2397.180247502753
 21
-3614.9999999999968
 31
0.0
1001
ACDBBLOCKREPETAG
1070
     1
1071
      234
1005
12A57D
  0
LINE
  5
12A57E
  8
HIDDEN
 10
2449.6802475027548
 20
-3404.9999999999968
 30
0.0
 11
2449.6802475027548
 21
-3478.9999999999968
 31
0.0
1001
ACDBBLOCKREPETAG
1070
     1
1071
      235
1005
12A57E
  0
LINE
  5
12A57F
  8
HIDDEN
 10
2344.6802475027539
 20
-3404.9999999999968
 30
0.0
 11
2344.6802475027539
 21
-3478.9999999999968
 31
0.0
1001
ACDBBLOCKREPETAG
1070
     1
1071
      236
1005
12A57F
  0
LINE
  5
12A580
  8
OBJECT
 10
1922.1802475027539
 20
-3478.9999999999968
 30
0.0
 11
1922.1802475027539
 21
-3602.9999999999968
 31
0.0
1001
ACDBBLOCKREPETAG
1070
     1
1071
        6
1005
12A580
  0
LINE
  5
12A581
  8
OBJECT
 10
2072.1802475025529
 20
-3602.9999999997758
 30
0.0
 11
2077.1802475027539
 21
-3602.9999999999968
 31
0.0
1001
ACDBBLOCKREPETAG
1070
     1
1071
        9
1005
12A581
  0
LINE
  5
12A582
  8
OBJECT
 10
2077.1802475027539
 20
-3478.9999999999968
 30
0.0
 11
1922.1802475027539
 21
-3478.9999999999968
 31
0.0
1001
ACDBBLOCKREPETAG
1070
     1
1071
       10
1005
12A582
  0
ARC
  5
12A583
  8
OBJECT
 10
2197.867522174427
 20
-3594.408099410105
 30
0.0
 40
170.6350503965856
 50
137.44134459184301
 51
149.91949581335999
1001
ACDBBLOCKREPETAG
1070
     1
1071
       15
1005
12A583
  0
ARC
  5
12A584
  8
OBJECT
 10
2116.025846206805
 20
-3550.8827266953631
 30
0.0
 40
78.072222021763665
 50
147.45515310377539
 51
164.66365997718609
1001
ACDBBLOCKREPETAG
1070
     1
1071
       16
1005
12A584
  0
ARC
  5
12A585
  8
OBJECT
 10
2082.935682463627
 20
-3540.9999999999968
 30
0.0
 40
43.55353926885617
 50
165.6884523008477
 51
194.31154769915219
1001
ACDBBLOCKREPETAG
1070
     1
1071
       17
1005
12A585
  0
ARC
  5
12A586
  8
OBJECT
 10
2197.867522174427
 20
-3487.5919005898891
 30
0.0
 40
170.6350503965856
 50
210.08050418664001
 51
222.55865540815699
1001
ACDBBLOCKREPETAG
1070
     1
1071
       18
1005
12A586
  0
ARC
  5
12A587
  8
OBJECT
 10
2116.025846206805
 20
-3531.1172733046319
 30
0.0
 40
78.072222021763665
 50
195.33634002281391
 51
212.54484689622461
1001
ACDBBLOCKREPETAG
1070
     1
1071
       19
1005
12A587
  0
POINT
  5
12A588
  8
DOTS
 10
1997.1802475027539
 20
-3599.9999999999968
 30
0.0
1001
ACDBBLOCKREPETAG
1070
     1
1071
      186
1005
12A588
  0
LINE
  5
12A589
  8
OBJECT
 10
2057.1802475027539
 20
-3472.9999999999968
 30
0.0
 11
1937.180247502753
 21
-3472.9999999999968
 31
0.0
1001
ACDBBLOCKREPETAG
1070
     1
1071
      215
1005
12A589
  0
ARC
  5
12A58A
  8
OBJECT
 10
1937.180247502753
 20
-3475.9999999999968
 30
0.0
 40
3.0
 50
90.0
 51
180.0
1001
ACDBBLOCKREPETAG
1070
     1
1071
      216
1005
12A58A
  0
LINE
  5
12A58B
  8
OBJECT
 10
1934.1802475027539
 20
-3475.9999999999968
 30
0.0
 11
1934.1802475027539
 21
-3478.9999999999968
 31
0.0
1001
ACDBBLOCKREPETAG
1070
     1
1071
      217
1005
12A58B
  0
LINE
  5
12A58C
  8
OBJECT
 10
2060.1802475027548
 20
-3475.9999999999968
 30
0.0
 11
2060.1802475027548
 21
-3478.9999999999968
 31
0.0
1001
ACDBBLOCKREPETAG
1070
     1
1071
      218
1005
12A58C
  0
ARC
  5
12A58D
  8
OBJECT
 10
2057.1802475027539
 20
-3475.9999999999968
 30
0.0
 40
3.0
 50
0.0
 51
90.0
1001
ACDBBLOCKREPETAG
1070
     1
1071
      219
1005
12A58D
  0
LINE
  5
12A58E
  8
OBJECT
 10
1940.1802475027539
 20
-3404.9999999999968
 30
0.0
 11
1940.1802475027539
 21
-3472.9999999999968
 31
0.0
1001
ACDBBLOCKREPETAG
1070
     1
1071
      220
1005
12A58E
  0
LINE
  5
12A58F
  8
OBJECT
 10
2054.180247502753
 20
-3404.9999999999968
 30
0.0
 11
1940.1802475027539
 21
-3404.9999999999968
 31
0.0
1001
ACDBBLOCKREPETAG
1070
     1
1071
      221
1005
12A58F
  0
LINE
  5
12A590
  8
OBJECT
 10
2054.180247502753
 20
-3404.9999999999968
 30
0.0
 11
2054.180247502753
 21
-3472.9999999999968
 31
0.0
1001
ACDBBLOCKREPETAG
1070
     1
1071
      222
1005
12A590
  0
LINE
  5
12A591
  8
CENTER
 10
1997.1802475027539
 20
-3389.9999999999968
 30
0.0
 11
1997.1802475027539
 21
-3614.9999999999968
 31
0.0
1001
ACDBBLOCKREPETAG
1070
     1
1071
      223
1005
12A591
  0
LINE
  5
12A592
  8
HIDDEN
 10
2049.6802475027539
 20
-3404.9999999999968
 30
0.0
 11
2049.6802475027539
 21
-3478.9999999999968
 31
0.0
1001
ACDBBLOCKREPETAG
1070
     1
1071
      224
1005
12A592
  0
LINE
  5
12A593
  8
HIDDEN
 10
1944.680247502753
 20
-3404.9999999999968
 30
0.0
 11
1944.680247502753
 21
-3478.9999999999968
 31
0.0
1001
ACDBBLOCKREPETAG
1070
     1
1071
      225
1005
12A593
  0
LINE
  5
12A594
  8
DIM
 10
2147.180247502753
 20
-3241.9999999999959
 30
0.0
 11
2225.6598680972129
 21
-3241.9999999999959
 31
0.0
  0
LINE
  5
12A595
  8
DIM
 10
2147.180247502753
 20
-3147.9999999999959
 30
0.0
 11
2225.6598680972129
 21
-3147.9999999999959
 31
0.0
  0
LINE
  5
12A596
  8
DIM
 10
2215.6598680972129
 20
-3221.9999999999959
 30
0.0
 11
2215.6598680972129
 21
-3167.9999999999959
 31
0.0
  0
INSERT
  5
12A597
  8
DIM
  2
_OPEN30
 10
2215.6598680972129
 20
-3241.9999999999959
 30
0.0
 41
20.0
 42
20.0
 43
20.0
 50
270.0
  0
INSERT
  5
12A598
  8
DIM
  2
_OPEN30
 10
2215.6598680972129
 20
-3147.9999999999959
 30
0.0
 41
20.0
 42
20.0
 43
20.0
 50
90.0
  0
INSERT
  5
12A599
  8
OBJECT
  2
*U12
 10
0.0
 20
0.0
 30
0.0
  0
LINE
  5
12A59A
  8
DIM
 10
2147.180247502753
 20
-3599.9999999999968
 30
0.0
 11
2224.0211759064882
 21
-3599.9999999999968
 31
0.0
  0
LINE
  5
12A59B
  8
DIM
 10
2162.1802475027539
 20
-3555.9999999999968
 30
0.0
 11
2224.0211759064882
 21
-3555.9999999999968
 31
0.0
  0
LINE
  5
12A59C
  8
DIM
 10
2214.0211759064882
 20
-3619.9999999999968
 30
0.0
 11
2214.0211759064882
 21
-3639.9999999999968
 31
0.0
  0
LINE
  5
12A59D
  8
DIM
 10
2214.0211759064882
 20
-3535.9999999999968
 30
0.0
 11
2214.0211759064882
 21
-3515.9999999999968
 31
0.0
  0
LINE
  5
12A59E
  8
DIM
 10
2214.0211759064882
 20
-3599.9999999999968
 30
0.0
 11
2214.0211759064882
 21
-3555.9999999999968
 31
0.0
  0
INSERT
  5
12A59F
  8
DIM
  2
_OPEN30
 10
2214.0211759064882
 20
-3599.9999999999968
 30
0.0
 41
20.0
 42
20.0
 43
20.0
 50
90.0
  0
INSERT
  5
12A5A0
  8
DIM
  2
_OPEN30
 10
2214.0211759064882
 20
-3555.9999999999968
 30
0.0
 41
20.0
 42
20.0
 43
20.0
 50
270.0
  0
INSERT
  5
12A5A1
  8
OBJECT
  2
*U13
 10
0.0
 20
0.0
 30
0.0
  0
LINE
  5
12A5A2
  8
DIM
 10
1997.1802475027539
 20
-3089.9999999999959
 30
0.0
 11
1997.1802475027539
 21
-3057.208121984444
 31
0.0
  0
LINE
  5
12A5A3
  8
DIM
 10
2137.1802475027548
 20
-3137.9999999999959
 30
0.0
 11
2137.1802475027548
 21
-3057.208121984444
 31
0.0
  0
LINE
  5
12A5A4
  8
DIM
 10
2017.1802475027539
 20
-3067.208121984444
 30
0.0
 11
2117.1802475027548
 21
-3067.208121984444
 31
0.0
  0
INSERT
  5
12A5A5
  8
DIM
  2
_OPEN30
 10
1997.1802475027539
 20
-3067.208121984444
 30
0.0
 41
20.0
 42
20.0
 43
20.0
 50
180.0
  0
INSERT
  5
12A5A6
  8
DIM
  2
_OPEN30
 10
2137.1802475027548
 20
-3067.208121984444
 30
0.0
 41
20.0
 42
20.0
 43
20.0
  0
INSERT
  5
12A5A7
  8
OBJECT
  2
*U14
 10
0.0
 20
0.0
 30
0.0
  0
LINE
  5
12A5A8
  8
OBJECT
 10
5147.1802475027544
 20
-3452.9999999999968
 30
0.0
 11
5140.1802475027553
 21
-3452.9999999999968
 31
0.0
1001
ACDBBLOCKREPETAG
1070
     1
1071
       64
1005
12A5A8
  0
LINE
  5
12A5A9
  8
OBJECT
 10
5140.1802475027553
 20
-3452.9999999999968
 30
0.0
 11
5140.1802475027553
 21
-3599.9999999999968
 31
0.0
1001
ACDBBLOCKREPETAG
1070
     1
1071
       65
1005
12A5A9
  0
LINE
  5
12A5AA
  8
OBJECT
 10
5098.6802475027553
 20
-3455.9999999999968
 30
0.0
 11
5098.6802475027553
 21
-3599.9999999999968
 31
0.0
1001
ACDBBLOCKREPETAG
1070
     1
1071
       66
1005
12A5AA
  0
LINE
  5
12A5AB
  8
OBJECT
 10
5087.1802475027544
 20
-3462.4999999999968
 30
0.0
 11
5087.1802475027544
 21
-3593.4999999999968
 31
0.0
1001
ACDBBLOCKREPETAG
1070
     1
1071
       67
1005
12A5AB
  0
LINE
  5
12A5AC
  8
OBJECT
 10
5083.1802475027544
 20
-3534.5000000000041
 30
0.0
 11
5083.1802475027544
 21
-3599.9999999999968
 31
0.0
1001
ACDBBLOCKREPETAG
1070
     1
1071
       68
1005
12A5AC
  0
LINE
  5
12A5AD
  8
OBJECT
 10
5147.1802475027544
 20
-3599.9999999999968
 30
0.0
 11
5147.1802475027544
 21
-3452.9999999999968
 31
0.0
1001
ACDBBLOCKREPETAG
1070
     1
1071
       69
1005
12A5AD
  0
LINE
  5
12A5AE
  8
CENTER
 10
5162.1802475027544
 20
-3527.9999999999968
 30
0.0
 11
5067.59466191717
 21
-3527.9999999999968
 31
0.0
1001
ACDBBLOCKREPETAG
1070
     1
1071
       70
1005
12A5AE
  0
LINE
  5
12A5AF
  8
OBJECT
 10
5080.180247502758
 20
-3602.9999999999968
 30
0.0
 11
5077.1802475027544
 21
-3602.9999999999968
 31
0.0
1001
ACDBBLOCKREPETAG
1070
     1
1071
       71
1005
12A5AF
  0
ARC
  5
12A5B0
  8
OBJECT
 10
5089.0617646858191
 20
-3601.4555591801432
 30
0.0
 40
6.0
 50
60.52411099686767
 51
170.6927439126847
1001
ACDBBLOCKREPETAG
1070
     1
1071
       72
1005
12A5B0
  0
ARC
  5
12A5B1
  8
OBJECT
 10
5080.1802475027544
 20
-3599.9999999999968
 30
0.0
 40
3.0
 50
270.0
 51
350.69274391268482
1001
ACDBBLOCKREPETAG
1070
     1
1071
       73
1005
12A5B1
  0
LINE
  5
12A5B2
  8
OBJECT
 10
5078.1802475027544
 20
-3478.9999999999968
 30
0.0
 11
5077.1802475027544
 21
-3478.9999999999968
 31
0.0
1001
ACDBBLOCKREPETAG
1070
     1
1071
       74
1005
12A5B2
  0
LINE
  5
12A5B3
  8
OBJECT
 10
5147.1802475027544
 20
-3599.9999999999968
 30
0.0
 11
5098.6802475027553
 21
-3599.9999999999968
 31
0.0
1001
ACDBBLOCKREPETAG
1070
     1
1071
       75
1005
12A5B3
  0
LINE
  5
12A5B4
  8
OBJECT
 10
5098.6802475027553
 20
-3455.9999999999968
 30
0.0
 11
5087.1802475027544
 21
-3462.4999999999968
 31
0.0
1001
ACDBBLOCKREPETAG
1070
     1
1071
       76
1005
12A5B4
  0
LINE
  5
12A5B5
  8
OBJECT
 10
5140.1802475027553
 20
-3455.9999999999968
 30
0.0
 11
5098.6802475027553
 21
-3455.9999999999968
 31
0.0
1001
ACDBBLOCKREPETAG
1070
     1
1071
       77
1005
12A5B5
  0
LINE
  5
12A5B6
  8
OBJECT
 10
5083.1802475027544
 20
-3534.5000000000041
 30
0.0
 11
5078.1802475027544
 21
-3478.9999999999968
 31
0.0
1001
ACDBBLOCKREPETAG
1070
     1
1071
       78
1005
12A5B6
  0
LINE
  5
12A5B7
  8
OBJECT
 10
5087.1802475027544
 20
-3462.4999999999968
 30
0.0
 11
5078.1802475027544
 21
-3478.9999999999968
 31
0.0
1001
ACDBBLOCKREPETAG
1070
     1
1071
       79
1005
12A5B7
  0
LINE
  5
12A5B8
  8
OBJECT
 10
5098.6802475027553
 20
-3599.9999999999968
 30
0.0
 11
5092.014108225826
 21
-3596.232182147819
 31
0.0
1001
ACDBBLOCKREPETAG
1070
     1
1071
       80
1005
12A5B8
  0
LINE
  5
12A5B9
  8
HIDDEN
 10
5095.1802475027544
 20
-3584.9999999999968
 30
0.0
 11
5095.1802475027544
 21
-3470.9999999999968
 31
0.0
1001
ACDBBLOCKREPETAG
1070
     1
1071
       81
1005
12A5B9
  0
LINE
  5
12A5BA
  8
OBJECT
 10
5147.1802475027544
 20
-3119.9999999999959
 30
0.0
 11
5140.1802475027553
 21
-3119.9999999999959
 31
0.0
1001
ACDBBLOCKREPETAG
1070
     1
1071
       67
1005
12A5BA
  0
LINE
  5
12A5BB
  8
OBJECT
 10
5140.1802475027553
 20
-3119.9999999999959
 30
0.0
 11
5140.1802475027553
 21
-3269.9999999999959
 31
0.0
1001
ACDBBLOCKREPETAG
1070
     1
1071
       68
1005
12A5BB
  0
LINE
  5
12A5BC
  8
OBJECT
 10
5098.6802475027553
 20
-3122.9999999999959
 30
0.0
 11
5098.6802475027553
 21
-3266.9999999999959
 31
0.0
1001
ACDBBLOCKREPETAG
1070
     1
1071
       69
1005
12A5BC
  0
LINE
  5
12A5BD
  8
OBJECT
 10
5087.1802475027544
 20
-3129.4999999999959
 30
0.0
 11
5087.1802475027544
 21
-3260.4999999999959
 31
0.0
1001
ACDBBLOCKREPETAG
1070
     1
1071
       70
1005
12A5BD
  0
LINE
  5
12A5BE
  8
OBJECT
 10
5140.1802475027553
 20
-3269.9999999999959
 30
0.0
 11
5147.1802475027544
 21
-3269.9999999999959
 31
0.0
1001
ACDBBLOCKREPETAG
1070
     1
1071
       71
1005
12A5BE
  0
LINE
  5
12A5BF
  8
OBJECT
 10
5147.1802475027544
 20
-3269.9999999999959
 30
0.0
 11
5147.1802475027544
 21
-3119.9999999999959
 31
0.0
1001
ACDBBLOCKREPETAG
1070
     1
1071
       72
1005
12A5BF
  0
LINE
  5
12A5C0
  8
HIDDEN
 10
5095.1802475027544
 20
-3251.9999999999959
 30
0.0
 11
5095.1802475027544
 21
-3137.9999999999959
 31
0.0
1001
ACDBBLOCKREPETAG
1070
     1
1071
       73
1005
12A5C0
  0
LINE
  5
12A5C1
  8
CENTER
 10
5162.1802475027544
 20
-3194.9999999999959
 30
0.0
 11
5077.1802475027544
 21
-3194.9999999999959
 31
0.0
1001
ACDBBLOCKREPETAG
1070
     1
1071
       74
1005
12A5C1
  0
LINE
  5
12A5C2
  8
OBJECT
 10
5083.1802475027544
 20
-3256.9999999999959
 30
0.0
 11
5077.1802475027544
 21
-3256.9999999999959
 31
0.0
1001
ACDBBLOCKREPETAG
1070
     1
1071
       75
1005
12A5C2
  0
LINE
  5
12A5C3
  8
OBJECT
 10
5140.1802475027553
 20
-3266.9999999999959
 30
0.0
 11
5098.6802475027553
 21
-3266.9999999999959
 31
0.0
1001
ACDBBLOCKREPETAG
1070
     1
1071
       76
1005
12A5C3
  0
LINE
  5
12A5C4
  8
OBJECT
 10
5098.6802475027553
 20
-3266.9999999999959
 30
0.0
 11
5087.1802475027544
 21
-3260.4999999999959
 31
0.0
1001
ACDBBLOCKREPETAG
1070
     1
1071
       77
1005
12A5C4
  0
LINE
  5
12A5C5
  8
OBJECT
 10
5087.1802475027544
 20
-3260.4999999999959
 30
0.0
 11
5083.1802475027544
 21
-3256.9999999999959
 31
0.0
1001
ACDBBLOCKREPETAG
1070
     1
1071
       78
1005
12A5C5
  0
LINE
  5
12A5C6
  8
OBJECT
 10
5098.6802475027553
 20
-3122.9999999999959
 30
0.0
 11
5087.1802475027544
 21
-3129.4999999999959
 31
0.0
1001
ACDBBLOCKREPETAG
1070
     1
1071
       79
1005
12A5C6
  0
LINE
  5
12A5C7
  8
OBJECT
 10
5087.1802475027544
 20
-3129.4999999999959
 30
0.0
 11
5083.1802475027544
 21
-3132.9999999999959
 31
0.0
1001
ACDBBLOCKREPETAG
1070
     1
1071
       80
1005
12A5C7
  0
ARC
  5
12A5C8
  8
OBJECT
 10
5465.0802475027558
 20
-3194.9999999999959
 30
0.0
 40
386.89999999999998
 50
170.77870136260421
 51
189.22129863739571
1001
ACDBBLOCKREPETAG
1070
     1
1071
       81
1005
12A5C8
  0
LINE
  5
12A5C9
  8
OBJECT
 10
5083.1802475027544
 20
-3132.9999999999959
 30
0.0
 11
5077.1802475027544
 21
-3132.9999999999959
 31
0.0
1001
ACDBBLOCKREPETAG
1070
     1
1071
       82
1005
12A5C9
  0
LINE
  5
12A5CA
  8
OBJECT
 10
5140.1802475027553
 20
-3122.9999999999959
 30
0.0
 11
5098.6802475027553
 21
-3122.9999999999959
 31
0.0
1001
ACDBBLOCKREPETAG
1070
     1
1071
       83
1005
12A5CA
  0
TEXT
  5
12A5CB
  8
SLIM
 10
4881.4302475027562
 20
-3717.4999999999959
 30
0.0
 40
35.0
  1
通常枝100（4）
 41
0.75
  0
LINE
  5
12A5CC
  8
CENTER
 10
4474.1802475027534
 20
-3540.9999999999968
 30
0.0
 11
4320.1802475027534
 21
-3540.9999999999968
 31
0.0
1001
ACDBBLOCKREPETAG
1070
     1
1071
       17
1005
12A5CC
  0
CIRCLE
  5
12A5CD
  8
OBJECT
 10
4397.1802475027534
 20
-3540.9999999999968
 30
0.0
 40
41.5
1001
ACDBBLOCKREPETAG
1070
     1
1071
       19
1005
12A5CD
  0
CIRCLE
  5
12A5CE
  8
OBJECT
 10
4397.1802475027534
 20
-3540.9999999999968
 30
0.0
 40
54.0
1001
ACDBBLOCKREPETAG
1070
     1
1071
       20
1005
12A5CE
  0
ARC
  5
12A5CF
  8
OBJECT
 10
4397.1802475027534
 20
-3540.9999999999968
 30
0.0
 40
62.0
 50
287.89655112921122
 51
252.1034488707887
1001
ACDBBLOCKREPETAG
1070
     1
1071
       21
1005
12A5CF
  0
LINE
  5
12A5D0
  8
OBJECT
 10
4378.1276886194973
 20
-3599.9999999999968
 30
0.0
 11
4416.2328063860123
 21
-3599.9999999999968
 31
0.0
1001
ACDBBLOCKREPETAG
1070
     1
1071
       22
1005
12A5D0
  0
LINE
  5
12A5D1
  8
OBJECT
 10
4130.1802475027534
 20
-3478.9999999999968
 30
0.0
 11
4137.1802475027544
 21
-3478.9999999999968
 31
0.0
1001
ACDBBLOCKREPETAG
1070
     1
1071
       45
1005
12A5D1
  0
LINE
  5
12A5D2
  8
OBJECT
 10
4137.1802475027544
 20
-3478.9999999999968
 30
0.0
 11
4137.1802475027544
 21
-3599.9999999999968
 31
0.0
1001
ACDBBLOCKREPETAG
1070
     1
1071
       46
1005
12A5D2
  0
LINE
  5
12A5D3
  8
OBJECT
 10
4130.1802475027534
 20
-3599.9999999999968
 30
0.0
 11
4130.1802475027534
 21
-3478.9999999999968
 31
0.0
1001
ACDBBLOCKREPETAG
1070
     1
1071
       47
1005
12A5D3
  0
LINE
  5
12A5D4
  8
CENTER
 10
4152.1802475027534
 20
-3540.9999999999968
 30
0.0
 11
4068.1802475027548
 21
-3540.9999999999968
 31
0.0
1001
ACDBBLOCKREPETAG
1070
     1
1071
       48
1005
12A5D4
  0
LINE
  5
12A5D5
  8
OBJECT
 10
4130.1802475027534
 20
-3481.9999999999968
 30
0.0
 11
4094.180247502753
 21
-3481.9999999999968
 31
0.0
1001
ACDBBLOCKREPETAG
1070
     1
1071
       49
1005
12A5D5
  0
LINE
  5
12A5D6
  8
OBJECT
 10
4094.180247502753
 20
-3481.9999999999968
 30
0.0
 11
4094.180247502753
 21
-3599.9999999999968
 31
0.0
1001
ACDBBLOCKREPETAG
1070
     1
1071
       50
1005
12A5D6
  0
LINE
  5
12A5D7
  8
OBJECT
 10
4094.180247502753
 20
-3599.9999999999968
 30
0.0
 11
4137.1802475027544
 21
-3599.9999999999968
 31
0.0
1001
ACDBBLOCKREPETAG
1070
     1
1071
       51
1005
12A5D7
  0
LINE
  5
12A5D8
  8
OBJECT
 10
4090.180247502753
 20
-3486.4999999999968
 30
0.0
 11
4083.180247502753
 21
-3486.4999999999968
 31
0.0
1001
ACDBBLOCKREPETAG
1070
     1
1071
       52
1005
12A5D8
  0
LINE
  5
12A5D9
  8
OBJECT
 10
4083.180247502753
 20
-3595.4999999999968
 30
0.0
 11
4090.180247502753
 21
-3595.4999999999968
 31
0.0
1001
ACDBBLOCKREPETAG
1070
     1
1071
       53
1005
12A5D9
  0
LINE
  5
12A5DA
  8
OBJECT
 10
4090.180247502753
 20
-3595.4999999999968
 30
0.0
 11
4090.180247502753
 21
-3486.4999999999968
 31
0.0
1001
ACDBBLOCKREPETAG
1070
     1
1071
       54
1005
12A5DA
  0
LINE
  5
12A5DB
  8
OBJECT
 10
4094.180247502753
 20
-3481.9999999999968
 30
0.0
 11
4090.180247502753
 21
-3486.4999999999968
 31
0.0
1001
ACDBBLOCKREPETAG
1070
     1
1071
       55
1005
12A5DB
  0
LINE
  5
12A5DC
  8
OBJECT
 10
4094.180247502753
 20
-3599.9999999999968
 30
0.0
 11
4090.180247502753
 21
-3595.4999999999968
 31
0.0
1001
ACDBBLOCKREPETAG
1070
     1
1071
       56
1005
12A5DC
  0
LINE
  5
12A5DD
  8
OBJECT
 10
4080.180247502753
 20
-3478.9999999999968
 30
0.0
 11
4077.180247502753
 21
-3478.9999999999968
 31
0.0
1001
ACDBBLOCKREPETAG
1070
     1
1071
       57
1005
12A5DD
  0
ARC
  5
12A5DE
  8
OBJECT
 10
4080.180247502753
 20
-3481.9999999999968
 30
0.0
 40
3.0
 50
0.0
 51
90.0
1001
ACDBBLOCKREPETAG
1070
     1
1071
       58
1005
12A5DE
  0
LINE
  5
12A5DF
  8
OBJECT
 10
4077.180247502753
 20
-3602.9999999999968
 30
0.0
 11
4080.180247502753
 21
-3602.9999999999968
 31
0.0
1001
ACDBBLOCKREPETAG
1070
     1
1071
       59
1005
12A5DF
  0
ARC
  5
12A5E0
  8
OBJECT
 10
4080.180247502753
 20
-3599.9999999999968
 30
0.0
 40
3.0
 50
270.0
 51
0.0
1001
ACDBBLOCKREPETAG
1070
     1
1071
       60
1005
12A5E0
  0
LINE
  5
12A5E1
  8
OBJECT
 10
4083.180247502753
 20
-3599.9999999999968
 30
0.0
 11
4083.180247502753
 21
-3481.9999999999968
 31
0.0
1001
ACDBBLOCKREPETAG
1070
     1
1071
       61
1005
12A5E1
  0
LINE
  5
12A5E2
  8
HIDDEN
 10
4085.180247502753
 20
-3496.4999999999968
 30
0.0
 11
4085.180247502753
 21
-3585.4999999999968
 31
0.0
1001
ACDBBLOCKREPETAG
1070
     1
1071
       63
1005
12A5E2
  0
LINE
  5
12A5E3
  8
OBJECT
 10
4130.1802475027534
 20
-3132.9999999999959
 30
0.0
 11
4137.1802475027544
 21
-3132.9999999999959
 31
0.0
1001
ACDBBLOCKREPETAG
1070
     1
1071
       47
1005
12A5E3
  0
LINE
  5
12A5E4
  8
OBJECT
 10
4137.1802475027544
 20
-3132.9999999999959
 30
0.0
 11
4137.1802475027544
 21
-3256.9999999999959
 31
0.0
1001
ACDBBLOCKREPETAG
1070
     1
1071
       48
1005
12A5E4
  0
LINE
  5
12A5E5
  8
OBJECT
 10
4137.1802475027544
 20
-3256.9999999999959
 30
0.0
 11
4130.1802475027534
 21
-3256.9999999999959
 31
0.0
1001
ACDBBLOCKREPETAG
1070
     1
1071
       49
1005
12A5E5
  0
LINE
  5
12A5E6
  8
OBJECT
 10
4130.1802475027534
 20
-3256.9999999999959
 30
0.0
 11
4130.1802475027534
 21
-3132.9999999999959
 31
0.0
1001
ACDBBLOCKREPETAG
1070
     1
1071
       50
1005
12A5E6
  0
LINE
  5
12A5E7
  8
CENTER
 10
4152.1802475027534
 20
-3194.9999999999959
 30
0.0
 11
4077.180247502753
 21
-3194.9999999999959
 31
0.0
1001
ACDBBLOCKREPETAG
1070
     1
1071
       51
1005
12A5E7
  0
LINE
  5
12A5E8
  8
OBJECT
 10
4130.1802475027534
 20
-3135.9999999999959
 30
0.0
 11
4094.180247502753
 21
-3135.9999999999959
 31
0.0
1001
ACDBBLOCKREPETAG
1070
     1
1071
       52
1005
12A5E8
  0
LINE
  5
12A5E9
  8
OBJECT
 10
4094.180247502753
 20
-3135.9999999999959
 30
0.0
 11
4094.180247502753
 21
-3253.9999999999959
 31
0.0
1001
ACDBBLOCKREPETAG
1070
     1
1071
       53
1005
12A5E9
  0
LINE
  5
12A5EA
  8
OBJECT
 10
4094.180247502753
 20
-3253.9999999999959
 30
0.0
 11
4130.1802475027534
 21
-3253.9999999999959
 31
0.0
1001
ACDBBLOCKREPETAG
1070
     1
1071
       54
1005
12A5EA
  0
LINE
  5
12A5EB
  8
OBJECT
 10
4090.180247502753
 20
-3140.4999999999959
 30
0.0
 11
4083.180247502753
 21
-3140.4999999999959
 31
0.0
1001
ACDBBLOCKREPETAG
1070
     1
1071
       55
1005
12A5EB
  0
LINE
  5
12A5EC
  8
OBJECT
 10
4083.180247502753
 20
-3249.4999999999959
 30
0.0
 11
4090.180247502753
 21
-3249.4999999999959
 31
0.0
1001
ACDBBLOCKREPETAG
1070
     1
1071
       56
1005
12A5EC
  0
LINE
  5
12A5ED
  8
OBJECT
 10
4090.180247502753
 20
-3249.4999999999959
 30
0.0
 11
4090.180247502753
 21
-3140.4999999999959
 31
0.0
1001
ACDBBLOCKREPETAG
1070
     1
1071
       57
1005
12A5ED
  0
LINE
  5
12A5EE
  8
OBJECT
 10
4094.180247502753
 20
-3135.9999999999959
 30
0.0
 11
4090.180247502753
 21
-3140.4999999999959
 31
0.0
1001
ACDBBLOCKREPETAG
1070
     1
1071
       58
1005
12A5EE
  0
LINE
  5
12A5EF
  8
OBJECT
 10
4094.180247502753
 20
-3253.9999999999959
 30
0.0
 11
4090.180247502753
 21
-3249.4999999999959
 31
0.0
1001
ACDBBLOCKREPETAG
1070
     1
1071
       59
1005
12A5EF
  0
LINE
  5
12A5F0
  8
OBJECT
 10
4080.180247502753
 20
-3132.9999999999959
 30
0.0
 11
4077.180247502753
 21
-3132.9999999999959
 31
0.0
1001
ACDBBLOCKREPETAG
1070
     1
1071
       60
1005
12A5F0
  0
ARC
  5
12A5F1
  8
OBJECT
 10
4080.180247502753
 20
-3135.9999999999959
 30
0.0
 40
3.0
 50
0.0
 51
90.0
1001
ACDBBLOCKREPETAG
1070
     1
1071
       61
1005
12A5F1
  0
LINE
  5
12A5F2
  8
OBJECT
 10
4077.180247502753
 20
-3256.9999999999959
 30
0.0
 11
4080.180247502753
 21
-3256.9999999999959
 31
0.0
1001
ACDBBLOCKREPETAG
1070
     1
1071
       62
1005
12A5F2
  0
ARC
  5
12A5F3
  8
OBJECT
 10
4080.180247502753
 20
-3253.9999999999959
 30
0.0
 40
3.0
 50
270.0
 51
0.0
1001
ACDBBLOCKREPETAG
1070
     1
1071
       63
1005
12A5F3
  0
LINE
  5
12A5F4
  8
OBJECT
 10
4083.180247502753
 20
-3253.9999999999959
 30
0.0
 11
4083.180247502753
 21
-3135.9999999999959
 31
0.0
1001
ACDBBLOCKREPETAG
1070
     1
1071
       64
1005
12A5F4
  0
LINE
  5
12A5F5
  8
HIDDEN
 10
4085.180247502753
 20
-3150.4999999999959
 30
0.0
 11
4085.180247502753
 21
-3239.4999999999959
 31
0.0
1001
ACDBBLOCKREPETAG
1070
     1
1071
       65
1005
12A5F5
  0
TEXT
  5
12A5F6
  8
SLIM
 10
3891.4302475027548
 20
-3717.4999999999959
 30
0.0
 40
35.0
  1
通常枝75（3）
 41
0.75
  0
CIRCLE
  5
12A5F7
  8
OBJECT
 10
3397.1802475027548
 20
-3547.9999999999968
 30
0.0
 40
35.5
1001
ACDBBLOCKREPETAG
1070
     1
1071
       10
1005
12A5F7
  0
CIRCLE
  5
12A5F8
  8
OBJECT
 10
3397.1802475027548
 20
-3540.9999999999968
 30
0.0
 40
62.0
1001
ACDBBLOCKREPETAG
1070
     1
1071
       11
1005
12A5F8
  0
LINE
  5
12A5F9
  8
CENTER
 10
3327.1802475027539
 20
-3547.9999999999968
 30
0.0
 11
3467.1802475027548
 21
-3547.9999999999968
 31
0.0
1001
ACDBBLOCKREPETAG
1070
     1
1071
       12
1005
12A5F9
  0
CIRCLE
  5
12A5FA
  8
OBJECT
 10
3397.1802475027548
 20
-3547.9999999999968
 30
0.0
 40
47.0
1001
ACDBBLOCKREPETAG
1070
     1
1071
       14
1005
12A5FA
  0
ARC
  5
12A5FB
  8
OBJECT
 10
3397.1802475027548
 20
-3547.9999999999968
 30
0.0
 40
55.0
 50
289.01126526011359
 51
250.98873473988641
1001
ACDBBLOCKREPETAG
1070
     1
1071
       15
1005
12A5FB
  0
LINE
  5
12A5FC
  8
OBJECT
 10
3379.2637746355881
 20
-3599.9999999999968
 30
0.0
 11
3415.096720369922
 21
-3599.9999999999968
 31
0.0
1001
ACDBBLOCKREPETAG
1070
     1
1071
       16
1005
12A5FC
  0
LINE
  5
12A5FD
  8
OBJECT
 10
3130.1802475027539
 20
-3492.9999999999968
 30
0.0
 11
3137.1802475027548
 21
-3492.9999999999968
 31
0.0
1001
ACDBBLOCKREPETAG
1070
     1
1071
       26
1005
12A5FD
  0
LINE
  5
12A5FE
  8
OBJECT
 10
3137.1802475027548
 20
-3492.9999999999968
 30
0.0
 11
3137.1802475027548
 21
-3599.9999999999968
 31
0.0
1001
ACDBBLOCKREPETAG
1070
     1
1071
       27
1005
12A5FE
  0
LINE
  5
12A5FF
  8
OBJECT
 10
3130.1802475027539
 20
-3599.9999999999968
 30
0.0
 11
3130.1802475027539
 21
-3492.9999999999968
 31
0.0
1001
ACDBBLOCKREPETAG
1070
     1
1071
       28
1005
12A5FF
  0
LINE
  5
12A600
  8
CENTER
 10
3152.1802475027562
 20
-3547.9999999999968
 30
0.0
 11
3068.1802475027548
 21
-3547.9999999999968
 31
0.0
1001
ACDBBLOCKREPETAG
1070
     1
1071
       29
1005
12A600
  0
LINE
  5
12A601
  8
OBJECT
 10
3130.1802475027539
 20
-3495.9999999999968
 30
0.0
 11
3094.1802475027539
 21
-3495.9999999999968
 31
0.0
1001
ACDBBLOCKREPETAG
1070
     1
1071
       30
1005
12A601
  0
LINE
  5
12A602
  8
OBJECT
 10
3094.1802475027539
 20
-3495.9999999999968
 30
0.0
 11
3094.1802475027539
 21
-3599.9999999999968
 31
0.0
1001
ACDBBLOCKREPETAG
1070
     1
1071
       31
1005
12A602
  0
LINE
  5
12A603
  8
OBJECT
 10
3094.1802475027539
 20
-3599.9999999999968
 30
0.0
 11
3137.1802475027548
 21
-3599.9999999999968
 31
0.0
1001
ACDBBLOCKREPETAG
1070
     1
1071
       32
1005
12A603
  0
LINE
  5
12A604
  8
OBJECT
 10
3090.180247502753
 20
-3500.4999999999968
 30
0.0
 11
3083.1802475027562
 21
-3500.4999999999968
 31
0.0
1001
ACDBBLOCKREPETAG
1070
     1
1071
       33
1005
12A604
  0
LINE
  5
12A605
  8
OBJECT
 10
3083.1802475027562
 20
-3595.4999999999968
 30
0.0
 11
3090.180247502753
 21
-3595.4999999999968
 31
0.0
1001
ACDBBLOCKREPETAG
1070
     1
1071
       34
1005
12A605
  0
LINE
  5
12A606
  8
OBJECT
 10
3090.180247502753
 20
-3595.4999999999968
 30
0.0
 11
3090.180247502753
 21
-3500.4999999999968
 31
0.0
1001
ACDBBLOCKREPETAG
1070
     1
1071
       35
1005
12A606
  0
LINE
  5
12A607
  8
OBJECT
 10
3094.1802475027539
 20
-3495.9999999999968
 30
0.0
 11
3090.180247502753
 21
-3500.4999999999968
 31
0.0
1001
ACDBBLOCKREPETAG
1070
     1
1071
       36
1005
12A607
  0
LINE
  5
12A608
  8
OBJECT
 10
3094.1802475027539
 20
-3599.9999999999968
 30
0.0
 11
3090.180247502753
 21
-3595.4999999999968
 31
0.0
1001
ACDBBLOCKREPETAG
1070
     1
1071
       37
1005
12A608
  0
LINE
  5
12A609
  8
OBJECT
 10
3080.1802475027548
 20
-3478.9999999999968
 30
0.0
 11
3077.1802475027539
 21
-3478.9999999999968
 31
0.0
1001
ACDBBLOCKREPETAG
1070
     1
1071
       38
1005
12A609
  0
ARC
  5
12A60A
  8
OBJECT
 10
3080.1802475027548
 20
-3481.9999999999968
 30
0.0
 40
3.0
 50
0.0
 51
90.0
1001
ACDBBLOCKREPETAG
1070
     1
1071
       39
1005
12A60A
  0
LINE
  5
12A60B
  8
OBJECT
 10
3077.1802475027539
 20
-3602.9999999999968
 30
0.0
 11
3080.1802475027548
 21
-3602.9999999999968
 31
0.0
1001
ACDBBLOCKREPETAG
1070
     1
1071
       40
1005
12A60B
  0
ARC
  5
12A60C
  8
OBJECT
 10
3080.1802475027548
 20
-3599.9999999999968
 30
0.0
 40
3.0
 50
270.0
 51
0.0
1001
ACDBBLOCKREPETAG
1070
     1
1071
       41
1005
12A60C
  0
LINE
  5
12A60D
  8
OBJECT
 10
3083.1802475027562
 20
-3599.9999999999968
 30
0.0
 11
3083.1802475027562
 21
-3481.9999999999968
 31
0.0
1001
ACDBBLOCKREPETAG
1070
     1
1071
       42
1005
12A60D
  0
LINE
  5
12A60E
  8
HIDDEN
 10
3085.1802475027539
 20
-3509.9999999999968
 30
0.0
 11
3085.1802475027539
 21
-3585.9999999999968
 31
0.0
1001
ACDBBLOCKREPETAG
1070
     1
1071
       43
1005
12A60E
  0
LINE
  5
12A60F
  8
OBJECT
 10
3130.1802475027539
 20
-3139.9999999999959
 30
0.0
 11
3137.1802475027548
 21
-3139.9999999999959
 31
0.0
1001
ACDBBLOCKREPETAG
1070
     1
1071
       27
1005
12A60F
  0
LINE
  5
12A610
  8
OBJECT
 10
3137.1802475027548
 20
-3139.9999999999959
 30
0.0
 11
3137.1802475027548
 21
-3249.9999999999959
 31
0.0
1001
ACDBBLOCKREPETAG
1070
     1
1071
       28
1005
12A610
  0
LINE
  5
12A611
  8
OBJECT
 10
3137.1802475027548
 20
-3249.9999999999959
 30
0.0
 11
3130.1802475027539
 21
-3249.9999999999959
 31
0.0
1001
ACDBBLOCKREPETAG
1070
     1
1071
       29
1005
12A611
  0
LINE
  5
12A612
  8
OBJECT
 10
3130.1802475027539
 20
-3249.9999999999959
 30
0.0
 11
3130.1802475027539
 21
-3139.9999999999959
 31
0.0
1001
ACDBBLOCKREPETAG
1070
     1
1071
       30
1005
12A612
  0
LINE
  5
12A613
  8
CENTER
 10
3152.1802475027562
 20
-3194.9999999999959
 30
0.0
 11
3077.1802475027539
 21
-3194.9999999999959
 31
0.0
1001
ACDBBLOCKREPETAG
1070
     1
1071
       31
1005
12A613
  0
LINE
  5
12A614
  8
OBJECT
 10
3130.1802475027539
 20
-3142.9999999999959
 30
0.0
 11
3094.1802475027539
 21
-3142.9999999999959
 31
0.0
1001
ACDBBLOCKREPETAG
1070
     1
1071
       32
1005
12A614
  0
LINE
  5
12A615
  8
OBJECT
 10
3094.1802475027539
 20
-3142.9999999999959
 30
0.0
 11
3094.1802475027539
 21
-3246.9999999999959
 31
0.0
1001
ACDBBLOCKREPETAG
1070
     1
1071
       33
1005
12A615
  0
LINE
  5
12A616
  8
OBJECT
 10
3094.1802475027539
 20
-3246.9999999999959
 30
0.0
 11
3130.1802475027539
 21
-3246.9999999999959
 31
0.0
1001
ACDBBLOCKREPETAG
1070
     1
1071
       34
1005
12A616
  0
LINE
  5
12A617
  8
OBJECT
 10
3090.180247502753
 20
-3147.4999999999959
 30
0.0
 11
3083.1802475027562
 21
-3147.4999999999959
 31
0.0
1001
ACDBBLOCKREPETAG
1070
     1
1071
       35
1005
12A617
  0
LINE
  5
12A618
  8
OBJECT
 10
3083.1802475027562
 20
-3242.4999999999959
 30
0.0
 11
3090.180247502753
 21
-3242.4999999999959
 31
0.0
1001
ACDBBLOCKREPETAG
1070
     1
1071
       36
1005
12A618
  0
LINE
  5
12A619
  8
OBJECT
 10
3090.180247502753
 20
-3242.4999999999959
 30
0.0
 11
3090.180247502753
 21
-3147.4999999999959
 31
0.0
1001
ACDBBLOCKREPETAG
1070
     1
1071
       37
1005
12A619
  0
LINE
  5
12A61A
  8
OBJECT
 10
3094.1802475027539
 20
-3142.9999999999959
 30
0.0
 11
3090.180247502753
 21
-3147.4999999999959
 31
0.0
1001
ACDBBLOCKREPETAG
1070
     1
1071
       38
1005
12A61A
  0
LINE
  5
12A61B
  8
OBJECT
 10
3094.1802475027539
 20
-3246.9999999999959
 30
0.0
 11
3090.180247502753
 21
-3242.4999999999959
 31
0.0
1001
ACDBBLOCKREPETAG
1070
     1
1071
       39
1005
12A61B
  0
LINE
  5
12A61C
  8
OBJECT
 10
3080.1802475027548
 20
-3132.9999999999959
 30
0.0
 11
3077.1802475027539
 21
-3132.9999999999959
 31
0.0
1001
ACDBBLOCKREPETAG
1070
     1
1071
       40
1005
12A61C
  0
ARC
  5
12A61D
  8
OBJECT
 10
3080.1802475027548
 20
-3135.9999999999959
 30
0.0
 40
3.0
 50
0.0
 51
90.0
1001
ACDBBLOCKREPETAG
1070
     1
1071
       41
1005
12A61D
  0
LINE
  5
12A61E
  8
OBJECT
 10
3077.1802475027539
 20
-3256.9999999999959
 30
0.0
 11
3080.1802475027548
 21
-3256.9999999999959
 31
0.0
1001
ACDBBLOCKREPETAG
1070
     1
1071
       42
1005
12A61E
  0
ARC
  5
12A61F
  8
OBJECT
 10
3080.1802475027548
 20
-3253.9999999999959
 30
0.0
 40
3.0
 50
270.0
 51
0.0
1001
ACDBBLOCKREPETAG
1070
     1
1071
       43
1005
12A61F
  0
LINE
  5
12A620
  8
OBJECT
 10
3083.1802475027562
 20
-3253.9999999999959
 30
0.0
 11
3083.1802475027562
 21
-3135.9999999999959
 31
0.0
1001
ACDBBLOCKREPETAG
1070
     1
1071
       44
1005
12A620
  0
LINE
  5
12A621
  8
HIDDEN
 10
3085.1802475027539
 20
-3156.9999999999959
 30
0.0
 11
3085.1802475027539
 21
-3232.9999999999959
 31
0.0
1001
ACDBBLOCKREPETAG
1070
     1
1071
       45
1005
12A621
  0
TEXT
  5
12A622
  8
SLIM
 10
2891.4302475027539
 20
-3717.4999999999959
 30
0.0
 40
35.0
  1
通常枝65（2）
 41
0.75
  0
CIRCLE
  5
12A623
  8
OBJECT
 10
2397.180247502753
 20
-3540.9999999999968
 30
0.0
 40
62.0
1001
ACDBBLOCKREPETAG
1070
     1
1071
        3
1005
12A623
  0
LINE
  5
12A624
  8
CENTER
 10
2335.1802475027539
 20
-3555.9999999999968
 30
0.0
 11
2459.1802475027548
 21
-3555.9999999999968
 31
0.0
1001
ACDBBLOCKREPETAG
1070
     1
1071
        4
1005
12A624
  0
CIRCLE
  5
12A625
  8
OBJECT
 10
2397.180247502753
 20
-3555.9999999999968
 30
0.0
 40
28.0
1001
ACDBBLOCKREPETAG
1070
     1
1071
        6
1005
12A625
  0
CIRCLE
  5
12A626
  8
OBJECT
 10
2397.180247502753
 20
-3555.9999999999968
 30
0.0
 40
39.0
1001
ACDBBLOCKREPETAG
1070
     1
1071
        7
1005
12A626
  0
ARC
  5
12A627
  8
OBJECT
 10
2397.180247502753
 20
-3555.9999999999968
 30
0.0
 40
47.0
 50
290.58196921144412
 51
249.41803078855591
1001
ACDBBLOCKREPETAG
1070
     1
1071
        8
1005
12A627
  0
LINE
  5
12A628
  8
OBJECT
 10
2380.657535860897
 20
-3599.9999999999968
 30
0.0
 11
2413.7029591446121
 21
-3599.9999999999968
 31
0.0
1001
ACDBBLOCKREPETAG
1070
     1
1071
        9
1005
12A628
  0
LINE
  5
12A629
  8
OBJECT
 10
2130.1802475027539
 20
-3508.9999999999968
 30
0.0
 11
2137.1802475027548
 21
-3508.9999999999968
 31
0.0
1001
ACDBBLOCKREPETAG
1070
     1
1071
        7
1005
12A629
  0
LINE
  5
12A62A
  8
OBJECT
 10
2137.1802475027548
 20
-3508.9999999999968
 30
0.0
 11
2137.1802475027548
 21
-3599.9999999999968
 31
0.0
1001
ACDBBLOCKREPETAG
1070
     1
1071
        8
1005
12A62A
  0
LINE
  5
12A62B
  8
OBJECT
 10
2130.1802475027539
 20
-3599.9999999999968
 30
0.0
 11
2130.1802475027539
 21
-3508.9999999999968
 31
0.0
1001
ACDBBLOCKREPETAG
1070
     1
1071
        9
1005
12A62B
  0
LINE
  5
12A62C
  8
CENTER
 10
2152.1802475027548
 20
-3555.9999999999968
 30
0.0
 11
2068.1802475027548
 21
-3555.9999999999968
 31
0.0
1001
ACDBBLOCKREPETAG
1070
     1
1071
       10
1005
12A62C
  0
LINE
  5
12A62D
  8
OBJECT
 10
2130.1802475027539
 20
-3511.9999999999968
 30
0.0
 11
2094.180247502753
 21
-3511.9999999999968
 31
0.0
1001
ACDBBLOCKREPETAG
1070
     1
1071
       11
1005
12A62D
  0
LINE
  5
12A62E
  8
OBJECT
 10
2094.180247502753
 20
-3511.9999999999968
 30
0.0
 11
2094.180247502753
 21
-3599.9999999999968
 31
0.0
1001
ACDBBLOCKREPETAG
1070
     1
1071
       12
1005
12A62E
  0
LINE
  5
12A62F
  8
OBJECT
 10
2094.180247502753
 20
-3599.9999999999968
 30
0.0
 11
2137.1802475027548
 21
-3599.9999999999968
 31
0.0
1001
ACDBBLOCKREPETAG
1070
     1
1071
       13
1005
12A62F
  0
LINE
  5
12A630
  8
OBJECT
 10
2090.180247502753
 20
-3516.4999999999968
 30
0.0
 11
2083.180247502753
 21
-3516.4999999999968
 31
0.0
1001
ACDBBLOCKREPETAG
1070
     1
1071
       14
1005
12A630
  0
LINE
  5
12A631
  8
OBJECT
 10
2083.180247502753
 20
-3595.4999999999968
 30
0.0
 11
2090.180247502753
 21
-3595.4999999999968
 31
0.0
1001
ACDBBLOCKREPETAG
1070
     1
1071
       15
1005
12A631
  0
LINE
  5
12A632
  8
OBJECT
 10
2090.180247502753
 20
-3595.4999999999968
 30
0.0
 11
2090.180247502753
 21
-3516.4999999999968
 31
0.0
1001
ACDBBLOCKREPETAG
1070
     1
1071
       16
1005
12A632
  0
LINE
  5
12A633
  8
OBJECT
 10
2094.180247502753
 20
-3511.9999999999968
 30
0.0
 11
2090.180247502753
 21
-3516.4999999999968
 31
0.0
1001
ACDBBLOCKREPETAG
1070
     1
1071
       17
1005
12A633
  0
LINE
  5
12A634
  8
OBJECT
 10
2094.180247502753
 20
-3599.9999999999968
 30
0.0
 11
2090.180247502753
 21
-3595.4999999999968
 31
0.0
1001
ACDBBLOCKREPETAG
1070
     1
1071
       18
1005
12A634
  0
LINE
  5
12A635
  8
OBJECT
 10
2080.1802475027539
 20
-3478.9999999999968
 30
0.0
 11
2077.1802475027539
 21
-3478.9999999999968
 31
0.0
1001
ACDBBLOCKREPETAG
1070
     1
1071
       19
1005
12A635
  0
ARC
  5
12A636
  8
OBJECT
 10
2080.1802475027539
 20
-3481.9999999999968
 30
0.0
 40
3.0
 50
0.0
 51
90.0
1001
ACDBBLOCKREPETAG
1070
     1
1071
       20
1005
12A636
  0
LINE
  5
12A637
  8
OBJECT
 10
2077.1802475027539
 20
-3602.9999999999968
 30
0.0
 11
2080.1802475027539
 21
-3602.9999999999968
 31
0.0
1001
ACDBBLOCKREPETAG
1070
     1
1071
       21
1005
12A637
  0
ARC
  5
12A638
  8
OBJECT
 10
2080.1802475027539
 20
-3599.9999999999968
 30
0.0
 40
3.0
 50
270.0
 51
0.0
1001
ACDBBLOCKREPETAG
1070
     1
1071
       22
1005
12A638
  0
LINE
  5
12A639
  8
OBJECT
 10
2083.180247502753
 20
-3599.9999999999968
 30
0.0
 11
2083.180247502753
 21
-3481.9999999999968
 31
0.0
1001
ACDBBLOCKREPETAG
1070
     1
1071
       23
1005
12A639
  0
LINE
  5
12A63A
  8
HIDDEN
 10
2085.1802475027539
 20
-3525.9999999999968
 30
0.0
 11
2085.1802475027539
 21
-3585.9999999999968
 31
0.0
1001
ACDBBLOCKREPETAG
1070
     1
1071
       24
1005
12A63A
  0
LINE
  5
12A63B
  8
OBJECT
 10
2130.1802475027539
 20
-3147.9999999999959
 30
0.0
 11
2137.1802475027548
 21
-3147.9999999999959
 31
0.0
1001
ACDBBLOCKREPETAG
1070
     1
1071
        7
1005
12A63B
  0
LINE
  5
12A63C
  8
OBJECT
 10
2137.1802475027548
 20
-3147.9999999999959
 30
0.0
 11
2137.1802475027548
 21
-3241.9999999999959
 31
0.0
1001
ACDBBLOCKREPETAG
1070
     1
1071
        8
1005
12A63C
  0
LINE
  5
12A63D
  8
OBJECT
 10
2137.1802475027548
 20
-3241.9999999999959
 30
0.0
 11
2130.1802475027539
 21
-3241.9999999999959
 31
0.0
1001
ACDBBLOCKREPETAG
1070
     1
1071
        9
1005
12A63D
  0
LINE
  5
12A63E
  8
OBJECT
 10
2130.1802475027539
 20
-3241.9999999999959
 30
0.0
 11
2130.1802475027539
 21
-3147.9999999999959
 31
0.0
1001
ACDBBLOCKREPETAG
1070
     1
1071
       10
1005
12A63E
  0
LINE
  5
12A63F
  8
CENTER
 10
2152.1802475027548
 20
-3194.9999999999959
 30
0.0
 11
2077.1802475027539
 21
-3194.9999999999959
 31
0.0
1001
ACDBBLOCKREPETAG
1070
     1
1071
       11
1005
12A63F
  0
LINE
  5
12A640
  8
OBJECT
 10
2130.1802475027539
 20
-3150.9999999999959
 30
0.0
 11
2094.180247502753
 21
-3150.9999999999959
 31
0.0
1001
ACDBBLOCKREPETAG
1070
     1
1071
       12
1005
12A640
  0
LINE
  5
12A641
  8
OBJECT
 10
2094.180247502753
 20
-3150.9999999999959
 30
0.0
 11
2094.180247502753
 21
-3238.9999999999959
 31
0.0
1001
ACDBBLOCKREPETAG
1070
     1
1071
       13
1005
12A641
  0
LINE
  5
12A642
  8
OBJECT
 10
2094.180247502753
 20
-3238.9999999999959
 30
0.0
 11
2130.1802475027539
 21
-3238.9999999999959
 31
0.0
1001
ACDBBLOCKREPETAG
1070
     1
1071
       14
1005
12A642
  0
LINE
  5
12A643
  8
OBJECT
 10
2090.180247502753
 20
-3155.4999999999959
 30
0.0
 11
2083.180247502753
 21
-3155.4999999999959
 31
0.0
1001
ACDBBLOCKREPETAG
1070
     1
1071
       15
1005
12A643
  0
LINE
  5
12A644
  8
OBJECT
 10
2083.180247502753
 20
-3234.4999999999959
 30
0.0
 11
2090.180247502753
 21
-3234.4999999999959
 31
0.0
1001
ACDBBLOCKREPETAG
1070
     1
1071
       16
1005
12A644
  0
LINE
  5
12A645
  8
OBJECT
 10
2090.180247502753
 20
-3234.4999999999959
 30
0.0
 11
2090.180247502753
 21
-3155.4999999999959
 31
0.0
1001
ACDBBLOCKREPETAG
1070
     1
1071
       17
1005
12A645
  0
LINE
  5
12A646
  8
OBJECT
 10
2094.180247502753
 20
-3150.9999999999959
 30
0.0
 11
2090.180247502753
 21
-3155.4999999999959
 31
0.0
1001
ACDBBLOCKREPETAG
1070
     1
1071
       18
1005
12A646
  0
LINE
  5
12A647
  8
OBJECT
 10
2094.180247502753
 20
-3238.9999999999959
 30
0.0
 11
2090.180247502753
 21
-3234.4999999999959
 31
0.0
1001
ACDBBLOCKREPETAG
1070
     1
1071
       19
1005
12A647
  0
LINE
  5
12A648
  8
OBJECT
 10
2080.1802475027539
 20
-3132.9999999999959
 30
0.0
 11
2077.1802475027539
 21
-3132.9999999999959
 31
0.0
1001
ACDBBLOCKREPETAG
1070
     1
1071
       20
1005
12A648
  0
ARC
  5
12A649
  8
OBJECT
 10
2080.1802475027539
 20
-3135.9999999999959
 30
0.0
 40
3.0
 50
0.0
 51
90.0
1001
ACDBBLOCKREPETAG
1070
     1
1071
       21
1005
12A649
  0
LINE
  5
12A64A
  8
OBJECT
 10
2077.1802475027539
 20
-3256.9999999999959
 30
0.0
 11
2080.1802475027539
 21
-3256.9999999999959
 31
0.0
1001
ACDBBLOCKREPETAG
1070
     1
1071
       22
1005
12A64A
  0
ARC
  5
12A64B
  8
OBJECT
 10
2080.1802475027539
 20
-3253.9999999999959
 30
0.0
 40
3.0
 50
270.0
 51
0.0
1001
ACDBBLOCKREPETAG
1070
     1
1071
       23
1005
12A64B
  0
LINE
  5
12A64C
  8
OBJECT
 10
2083.180247502753
 20
-3253.9999999999959
 30
0.0
 11
2083.180247502753
 21
-3135.9999999999959
 31
0.0
1001
ACDBBLOCKREPETAG
1070
     1
1071
       24
1005
12A64C
  0
LINE
  5
12A64D
  8
HIDDEN
 10
2085.1802475027539
 20
-3164.9999999999959
 30
0.0
 11
2085.1802475027539
 21
-3224.9999999999959
 31
0.0
1001
ACDBBLOCKREPETAG
1070
     1
1071
       25
1005
12A64D
  0
TEXT
  5
12A64E
  8
SLIM
 10
1893.9302475027539
 20
-3717.4999999999959
 30
0.0
 40
35.0
  1
通常枝50（1）
 41
0.75
  0
CIRCLE
  5
12A64F
  8
OBJECT
 10
539.99999999988518
 20
-695.99999999897955
 30
0.0
 40
75.0
1001
ACDBBLOCKREPETAG
1070
     1
1071
       51
1005
12A64F
  0
ARC
  5
12A650
  8
OBJECT
 10
539.99999999988518
 20
-695.99999999897955
 30
0.0
 40
80.0
 50
140.8050325737787
 51
39.194967426221282
1001
ACDBBLOCKREPETAG
1070
     1
1071
       52
1005
12A650
  0
LINE
  5
12A651
  8
OBJECT
 10
477.9999999998854
 20
-653.79810430696114
 30
0.0
 11
477.9999999998854
 21
-615.99999999897955
 31
0.0
1001
ACDBBLOCKREPETAG
1070
     1
1071
       53
1005
12A651
  0
LINE
  5
12A652
  8
OBJECT
 10
601.99999999988518
 20
-653.79810430696114
 30
0.0
 11
601.99999999988518
 21
-615.99999999897955
 31
0.0
1001
ACDBBLOCKREPETAG
1070
     1
1071
       54
1005
12A652
  0
POINT
  5
12A653
  8
DOTS
 10
539.99999999988518
 20
-695.99999999897955
 30
0.0
1001
ACDBBLOCKREPETAG
1070
     1
1071
       63
1005
12A653
  0
CIRCLE
  5
12A654
  8
OBJECT
 10
539.99999999988518
 20
-695.99999999897955
 30
0.0
 40
52.5
1001
ACDBBLOCKREPETAG
1070
     1
1071
      162
1005
12A654
  0
CIRCLE
  5
12A655
  8
OBJECT
 10
539.99999999988518
 20
-695.99999999897955
 30
0.0
 40
57.0
1001
ACDBBLOCKREPETAG
1070
     1
1071
      163
1005
12A655
  0
CIRCLE
  5
12A656
  8
OBJECT
 10
180.0000000000073
 20
-695.99999999897955
 30
0.0
 40
75.0
1001
ACDBBLOCKREPETAG
1070
     1
1071
       51
1005
12A656
  0
ARC
  5
12A657
  8
OBJECT
 10
180.0000000000073
 20
-695.99999999897955
 30
0.0
 40
80.0
 50
140.80503257377961
 51
39.194967426220252
1001
ACDBBLOCKREPETAG
1070
     1
1071
       52
1005
12A657
  0
LINE
  5
12A658
  8
OBJECT
 10
118.0000000000072
 20
-653.79810430696114
 30
0.0
 11
118.0000000000072
 21
-615.99999999897955
 31
0.0
1001
ACDBBLOCKREPETAG
1070
     1
1071
       53
1005
12A658
  0
LINE
  5
12A659
  8
OBJECT
 10
242.0000000000073
 20
-653.79810430696114
 30
0.0
 11
242.0000000000073
 21
-615.99999999897955
 31
0.0
1001
ACDBBLOCKREPETAG
1070
     1
1071
       54
1005
12A659
  0
POINT
  5
12A65A
  8
DOTS
 10
180.0000000000073
 20
-695.99999999897955
 30
0.0
1001
ACDBBLOCKREPETAG
1070
     1
1071
       63
1005
12A65A
  0
CIRCLE
  5
12A65B
  8
OBJECT
 10
180.0000000000073
 20
-695.99999999897955
 30
0.0
 40
52.5
1001
ACDBBLOCKREPETAG
1070
     1
1071
      162
1005
12A65B
  0
CIRCLE
  5
12A65C
  8
OBJECT
 10
180.0000000000073
 20
-695.99999999897955
 30
0.0
 40
57.0
1001
ACDBBLOCKREPETAG
1070
     1
1071
      163
1005
12A65C
  0
CIRCLE
  5
12A65D
  8
OBJECT
 10
539.99999999988518
 20
-231.99999999913791
 30
0.0
 40
75.0
1001
ACDBBLOCKREPETAG
1070
     1
1071
       51
1005
12A65D
  0
ARC
  5
12A65E
  8
OBJECT
 10
539.99999999988518
 20
-231.99999999913791
 30
0.0
 40
80.0
 50
140.8050325737787
 51
39.194967426221282
1001
ACDBBLOCKREPETAG
1070
     1
1071
       52
1005
12A65E
  0
LINE
  5
12A65F
  8
OBJECT
 10
477.9999999998854
 20
-189.7981043071195
 30
0.0
 11
477.9999999998854
 21
-151.9999999991378
 31
0.0
1001
ACDBBLOCKREPETAG
1070
     1
1071
       53
1005
12A65F
  0
LINE
  5
12A660
  8
OBJECT
 10
601.99999999988518
 20
-189.7981043071195
 30
0.0
 11
601.99999999988518
 21
-151.9999999991378
 31
0.0
1001
ACDBBLOCKREPETAG
1070
     1
1071
       54
1005
12A660
  0
POINT
  5
12A661
  8
DOTS
 10
539.99999999988518
 20
-231.99999999913791
 30
0.0
1001
ACDBBLOCKREPETAG
1070
     1
1071
       63
1005
12A661
  0
CIRCLE
  5
12A662
  8
OBJECT
 10
539.99999999988518
 20
-231.99999999913791
 30
0.0
 40
52.5
1001
ACDBBLOCKREPETAG
1070
     1
1071
      162
1005
12A662
  0
CIRCLE
  5
12A663
  8
OBJECT
 10
539.99999999988518
 20
-231.99999999913791
 30
0.0
 40
57.0
1001
ACDBBLOCKREPETAG
1070
     1
1071
      163
1005
12A663
  0
CIRCLE
  5
12A664
  8
OBJECT
 10
180.0000000000073
 20
-231.99999999913791
 30
0.0
 40
75.0
1001
ACDBBLOCKREPETAG
1070
     1
1071
       51
1005
12A664
  0
ARC
  5
12A665
  8
OBJECT
 10
180.0000000000073
 20
-231.99999999913791
 30
0.0
 40
80.0
 50
140.80503257377961
 51
39.194967426220252
1001
ACDBBLOCKREPETAG
1070
     1
1071
       52
1005
12A665
  0
LINE
  5
12A666
  8
OBJECT
 10
118.0000000000072
 20
-189.7981043071195
 30
0.0
 11
118.0000000000072
 21
-151.9999999991378
 31
0.0
1001
ACDBBLOCKREPETAG
1070
     1
1071
       53
1005
12A666
  0
LINE
  5
12A667
  8
OBJECT
 10
242.0000000000073
 20
-189.7981043071195
 30
0.0
 11
242.0000000000073
 21
-151.9999999991378
 31
0.0
1001
ACDBBLOCKREPETAG
1070
     1
1071
       54
1005
12A667
  0
POINT
  5
12A668
  8
DOTS
 10
180.0000000000073
 20
-231.99999999913791
 30
0.0
1001
ACDBBLOCKREPETAG
1070
     1
1071
       63
1005
12A668
  0
CIRCLE
  5
12A669
  8
OBJECT
 10
180.0000000000073
 20
-231.99999999913791
 30
0.0
 40
52.5
1001
ACDBBLOCKREPETAG
1070
     1
1071
      162
1005
12A669
  0
CIRCLE
  5
12A66A
  8
OBJECT
 10
180.0000000000073
 20
-231.99999999913791
 30
0.0
 40
57.0
1001
ACDBBLOCKREPETAG
1070
     1
1071
      163
1005
12A66A
  0
TEXT
  5
12A66B
  8
SLIM
 10
3554.6000000000008
 20
-1435.666666666664
 30
0.0
 40
28.0
  1
※ 対応スラブ厚　180～（m-10）
 41
0.75
  0
TEXT
  5
12A66C
  8
SLIM
 10
3554.6000000000008
 20
-1482.333333333331
 30
0.0
 40
28.0
  1
※ 足切り可能寸法（最大）　330-m（コンパクトＬベンド使用なら+20）
 41
0.75
  0
TEXT
  5
12A66D
  8
SLIM
 10
3598.9000000000001
 20
-1575.666666666664
 30
0.0
 40
28.0
  1
国土交通大臣認定・（一財）日本消防設備安全センター性能評定取得品
 41
0.75
  0
TEXT
  5
12A66E
  8
SLIM
 10
3631.1000000000022
 20
-1622.333333333331
 30
0.0
 40
28.0
  1
注）ご採用にあたり、認定書及び評定書の内容をご確認ください。
 41
0.75
  0
LINE
  5
12A66F
  8
DIM
 10
3904.9999999999941
 20
-655.0
 30
0.0
 11
3839.6616440113221
 21
-654.99999999999977
 31
0.0
  0
LINE
  5
12A670
  8
DIM
 10
3910.0
 20
-984.99999999999955
 30
0.0
 11
3839.6616440113221
 21
-984.99999999999943
 31
0.0
  0
LINE
  5
12A671
  8
DIM
 10
3849.6616440113221
 20
-675.0
 30
0.0
 11
3849.6616440113221
 21
-964.99999999999955
 31
0.0
  0
INSERT
  5
12A672
  8
DIM
  2
_OPEN30
 10
3849.6616440113221
 20
-655.0
 30
0.0
 41
20.0
 42
20.0
 43
20.0
 50
90.0
  0
INSERT
  5
12A673
  8
DIM
  2
_OPEN30
 10
3849.6616440113221
 20
-984.99999999999955
 30
0.0
 41
20.0
 42
20.0
 43
20.0
 50
270.0
  0
INSERT
  5
12A674
  8
OBJECT
  2
*U15
 10
0.0
 20
0.0
 30
0.0
  0
TEXT
  5
12A675
  8
SLIM
 10
4970.0571428571429
 20
-1087.999999999997
 30
0.0
 40
24.0
  1
180～320
 41
0.75
  0
TEXT
  5
12A676
  8
SLIM
 10
4971.7714285714292
 20
-1039.999999999997
 30
0.0
 40
24.0
  1
180～310
 41
0.75
  0
TEXT
  5
12A677
  8
SLIM
 10
4970.0571428571429
 20
-991.99999999999693
 30
0.0
 40
24.0
  1
180～300
 41
0.75
  0
TEXT
  5
12A678
  8
SLIM
 10
4970.0571428571429
 20
-943.99999999999693
 30
0.0
 40
24.0
  1
180～290
 41
0.75
  0
TEXT
  5
12A679
  8
SLIM
 10
4970.0571428571429
 20
-895.99999999999682
 30
0.0
 40
24.0
  1
180～280
 41
0.75
  0
TEXT
  5
12A67A
  8
SLIM
 10
4970.0571428571429
 20
-847.99999999999704
 30
0.0
 40
24.0
  1
180～270
 41
0.75
  0
TEXT
  5
12A67B
  8
SLIM
 10
4970.0571428571429
 20
-799.99999999999693
 30
0.0
 40
24.0
  1
180～260
 41
0.75
  0
TEXT
  5
12A67C
  8
SLIM
 10
4970.0571428571429
 20
-751.99999999999693
 30
0.0
 40
24.0
  1
180～250
 41
0.75
  0
TEXT
  5
12A67D
  8
SLIM
 10
4970.0571428571429
 20
-703.99999999999693
 30
0.0
 40
24.0
  1
180～240
 41
0.75
  0
TEXT
  5
12A67E
  8
SLIM
 10
4970.0571428571429
 20
-655.99999999999704
 30
0.0
 40
24.0
  1
180～230
 41
0.75
  0
TEXT
  5
12A67F
  8
SLIM
 10
4970.0571428571429
 20
-607.99999999999704
 30
0.0
 40
24.0
  1
180～220
 41
0.75
  0
TEXT
  5
12A680
  8
SLIM
 10
4971.7714285714292
 20
-559.99999999999693
 30
0.0
 40
24.0
  1
180～210
 41
0.75
  0
TEXT
  5
12A681
  8
SLIM
 10
4970.0571428571429
 20
-511.99999999999687
 30
0.0
 40
24.0
  1
180～200
 41
0.75
  0
TEXT
  5
12A682
  8
SLIM
 10
4971.7714285714292
 20
-463.99999999999687
 30
0.0
 40
24.0
  1
180～190
 41
0.75
  0
TEXT
  5
12A683
  8
SLIM
 10
4965.6000000000013
 20
-415.99999999999687
 30
0.0
 40
24.0
  1
対応スラブ厚
 41
0.75
  0
TEXT
  5
12A684
  8
SLIM
 10
4896.4571428571408
 20
-1145.999999999997
 30
0.0
 40
24.0
  1
標準：m=330
 41
0.75
  0
TEXT
  5
12A685
  8
SLIM
 10
4878.8571428571431
 20
-1087.999999999997
 30
0.0
 40
24.0
  1
330
 41
0.75
  0
TEXT
  5
12A686
  8
SLIM
 10
4878.8571428571431
 20
-1039.999999999997
 30
0.0
 40
24.0
  1
320
 41
0.75
  0
TEXT
  5
12A687
  8
SLIM
 10
4880.5714285714284
 20
-991.99999999999693
 30
0.0
 40
24.0
  1
310
 41
0.75
  0
TEXT
  5
12A688
  8
SLIM
 10
4878.8571428571431
 20
-943.99999999999693
 30
0.0
 40
24.0
  1
300
 41
0.75
  0
TEXT
  5
12A689
  8
SLIM
 10
4878.8571428571431
 20
-895.99999999999682
 30
0.0
 40
24.0
  1
290
 41
0.75
  0
TEXT
  5
12A68A
  8
SLIM
 10
4878.8571428571431
 20
-847.99999999999704
 30
0.0
 40
24.0
  1
280
 41
0.75
  0
TEXT
  5
12A68B
  8
SLIM
 10
4878.8571428571431
 20
-799.99999999999693
 30
0.0
 40
24.0
  1
270
 41
0.75
  0
TEXT
  5
12A68C
  8
SLIM
 10
4878.8571428571431
 20
-751.99999999999693
 30
0.0
 40
24.0
  1
260
 41
0.75
  0
TEXT
  5
12A68D
  8
SLIM
 10
4878.8571428571431
 20
-703.99999999999693
 30
0.0
 40
24.0
  1
250
 41
0.75
  0
TEXT
  5
12A68E
  8
SLIM
 10
4878.8571428571431
 20
-655.99999999999704
 30
0.0
 40
24.0
  1
240
 41
0.75
  0
TEXT
  5
12A68F
  8
SLIM
 10
4878.8571428571431
 20
-607.99999999999704
 30
0.0
 40
24.0
  1
230
 41
0.75
  0
TEXT
  5
12A690
  8
SLIM
 10
4878.8571428571431
 20
-559.99999999999693
 30
0.0
 40
24.0
  1
220
 41
0.75
  0
TEXT
  5
12A691
  8
SLIM
 10
4880.5714285714284
 20
-511.99999999999687
 30
0.0
 40
24.0
  1
210
 41
0.75
  0
TEXT
  5
12A692
  8
SLIM
 10
4869.9428571428571
 20
-415.99999999999687
 30
0.0
 40
24.0
  1
m寸法
 41
0.75
  0
TEXT
  5
12A693
  8
SLIM
 10
4878.8571428571431
 20
-463.99999999999687
 30
0.0
 40
24.0
  1
200
 41
0.75
  0
LINE
  5
12A694
  8
SLIM
  6
CONTINUOUS
 10
3927.3018300565232
 20
-155.95484036957691
 30
0.0
 11
3955.9548403695781
 21
-127.30183005652231
 31
0.0
1001
GRADIENTCOLOR1ACI
1070
     5
1001
GRADIENTCOLOR2ACI
1070
     2
1001
ACAD
1010
0.0
1020
0.0
1030
0.0
1001
ACDBBLOCKREPETAG
1070
     1
1071
      495
1005
12A694
  0
LINE
  5
12A695
  8
SLIM
  6
CONTINUOUS
 10
3919.4861520708369
 20
-172.75077447633191
 30
0.0
 11
3972.7507744763329
 21
-119.4861520708364
 31
0.0
1001
GRADIENTCOLOR1ACI
1070
     5
1001
GRADIENTCOLOR2ACI
1070
     2
1001
ACAD
1010
0.0
1020
0.0
1030
0.0
1001
ACDBBLOCKREPETAG
1070
     1
1071
      496
1005
12A695
  0
LINE
  5
12A696
  8
SLIM
  6
CONTINUOUS
 10
3916.359667993378
 20
-184.8575146748604
 30
0.0
 11
3931.2956746719492
 21
-169.92150799629059
 31
0.0
1001
GRADIENTCOLOR1ACI
1070
     5
1001
GRADIENTCOLOR2ACI
1070
     2
1001
ACAD
1010
0.0
1020
0.0
1030
0.0
1001
ACDBBLOCKREPETAG
1070
     1
1071
      497
1005
12A696
  0
LINE
  5
12A697
  8
SLIM
  6
CONTINUOUS
 10
3969.9215079962919
 20
-131.2956746719467
 30
0.0
 11
3984.8575146748631
 21
-116.359667993377
 31
0.0
1001
GRADIENTCOLOR1ACI
1070
     5
1001
GRADIENTCOLOR2ACI
1070
     2
1001
ACAD
1010
0.0
1020
0.0
1030
0.0
1001
ACDBBLOCKREPETAG
1070
     1
1071
      498
1005
12A697
  0
LINE
  5
12A698
  8
SLIM
  6
CONTINUOUS
 10
3915.1440575890529
 20
-195.0533812002549
 30
0.0
 11
3926.8786024565552
 21
-183.3188363327526
 31
0.0
1001
GRADIENTCOLOR1ACI
1070
     5
1001
GRADIENTCOLOR2ACI
1070
     2
1001
ACAD
1010
0.0
1020
0.0
1030
0.0
1001
ACDBBLOCKREPETAG
1070
     1
1071
      499
1005
12A698
  0
LINE
  5
12A699
  8
SLIM
  6
CONTINUOUS
 10
3983.3188363327549
 20
-126.87860245655401
 30
0.0
 11
3995.0533812002559
 21
-115.1440575890517
 31
0.0
1001
GRADIENTCOLOR1ACI
1070
     5
1001
GRADIENTCOLOR2ACI
1070
     2
1001
ACAD
1010
0.0
1020
0.0
1030
0.0
1001
ACDBBLOCKREPETAG
1070
     1
1071
      500
1005
12A699
  0
LINE
  5
12A69A
  8
SLIM
  6
CONTINUOUS
 10
3915.097963557474
 20
-204.07973135290339
 30
0.0
 11
3919.1776949103769
 21
-199.99999999999909
 31
0.0
1001
GRADIENTCOLOR1ACI
1070
     5
1001
GRADIENTCOLOR2ACI
1070
     2
1001
ACAD
1010
0.0
1020
0.0
1030
0.0
1001
ACDBBLOCKREPETAG
1070
     1
1071
      501
1005
12A69A
  0
LINE
  5
12A69B
  8
SLIM
  6
CONTINUOUS
 10
4000.0
 20
-119.1776949103767
 30
0.0
 11
4004.0797313529042
 21
-115.0979635574724
 31
0.0
1001
GRADIENTCOLOR1ACI
1070
     5
1001
GRADIENTCOLOR2ACI
1070
     2
1001
ACAD
1010
0.0
1020
0.0
1030
0.0
1001
ACDBBLOCKREPETAG
1070
     1
1071
      502
1005
12A69B
  0
LINE
  5
12A69C
  8
SLIM
  6
CONTINUOUS
 10
3919.1776949103769
 20
-199.99999999999909
 30
0.0
 11
3925.2458896617768
 21
-193.93180524859881
 31
0.0
1001
GRADIENTCOLOR1ACI
1070
     5
1001
GRADIENTCOLOR2ACI
1070
     2
1001
ACAD
1010
0.0
1020
0.0
1030
0.0
1001
ACDBBLOCKREPETAG
1070
     1
1071
      503
1005
12A69C
  0
LINE
  5
12A69D
  8
SLIM
  6
CONTINUOUS
 10
3993.9318052486001
 20
-125.245889661777
 30
0.0
 11
4000.0
 21
-119.1776949103767
 31
0.0
1001
GRADIENTCOLOR1ACI
1070
     5
1001
GRADIENTCOLOR2ACI
1070
     2
1001
ACAD
1010
0.0
1020
0.0
1030
0.0
1001
ACDBBLOCKREPETAG
1070
     1
1071
      504
1005
12A69D
  0
LINE
  5
12A69E
  8
SLIM
  6
CONTINUOUS
 10
3915.8899726208729
 20
-212.2679784105739
 30
0.0
 11
3925.0638502435941
 21
-203.09410078785251
 31
0.0
1001
GRADIENTCOLOR1ACI
1070
     5
1001
GRADIENTCOLOR2ACI
1070
     2
1001
ACAD
1010
0.0
1020
0.0
1030
0.0
1001
ACDBBLOCKREPETAG
1070
     1
1071
      505
1005
12A69E
  0
LINE
  5
12A69F
  8
SLIM
  6
CONTINUOUS
 10
4003.0941007878532
 20
-125.0638502435924
 30
0.0
 11
4012.2679784105749
 21
-115.88997262087101
 31
0.0
1001
GRADIENTCOLOR1ACI
1070
     5
1001
GRADIENTCOLOR2ACI
1070
     2
1001
ACAD
1010
0.0
1020
0.0
1030
0.0
1001
ACDBBLOCKREPETAG
1070
     1
1071
      506
1005
12A69F
  0
LINE
  5
12A6A0
  8
SLIM
  6
CONTINUOUS
 10
3917.338265695154
 20
-219.79994145736151
 30
0.0
 11
3925.8537813838639
 21
-211.28442576865069
 31
0.0
1001
GRADIENTCOLOR1ACI
1070
     5
1001
GRADIENTCOLOR2ACI
1070
     2
1001
ACAD
1010
0.0
1020
0.0
1030
0.0
1001
ACDBBLOCKREPETAG
1070
     1
1071
      507
1005
12A6A0
  0
LINE
  5
12A6A1
  8
SLIM
  6
CONTINUOUS
 10
4011.284425768652
 20
-125.85378138386341
 30
0.0
 11
4019.799941457361
 21
-117.3382656951526
 31
0.0
1001
GRADIENTCOLOR1ACI
1070
     5
1001
GRADIENTCOLOR2ACI
1070
     2
1001
ACAD
1010
0.0
1020
0.0
1030
0.0
1001
ACDBBLOCKREPETAG
1070
     1
1071
      508
1005
12A6A1
  0
LINE
  5
12A6A2
  8
SLIM
  6
CONTINUOUS
 10
3919.331259406305
 20
-226.78720386727881
 30
0.0
 11
3927.3788748080642
 21
-218.73958846552051
 31
0.0
1001
GRADIENTCOLOR1ACI
1070
     5
1001
GRADIENTCOLOR2ACI
1070
     2
1001
ACAD
1010
0.0
1020
0.0
1030
0.0
1001
ACDBBLOCKREPETAG
1070
     1
1071
      509
1005
12A6A2
  0
LINE
  5
12A6A3
  8
SLIM
  6
CONTINUOUS
 10
4018.7395884655198
 20
-127.3788748080627
 30
0.0
 11
4026.7872038672799
 21
-119.3312594063044
 31
0.0
1001
GRADIENTCOLOR1ACI
1070
     5
1001
GRADIENTCOLOR2ACI
1070
     2
1001
ACAD
1010
0.0
1020
0.0
1030
0.0
1001
ACDBBLOCKREPETAG
1070
     1
1071
      510
1005
12A6A3
  0
LINE
  5
12A6A4
  8
SLIM
  6
CONTINUOUS
 10
3921.795716318622
 20
-233.30300307603289
 30
0.0
 11
3929.5028327676951
 21
-225.5958866269597
 31
0.0
1001
GRADIENTCOLOR1ACI
1070
     5
1001
GRADIENTCOLOR2ACI
1070
     2
1001
ACAD
1010
0.0
1020
0.0
1030
0.0
1001
ACDBBLOCKREPETAG
1070
     1
1071
      511
1005
12A6A4
  0
LINE
  5
12A6A5
  8
SLIM
  6
CONTINUOUS
 10
4025.5958866269621
 20
-129.50283276769261
 30
0.0
 11
4033.3030030760328
 21
-121.7957163186195
 31
0.0
1001
GRADIENTCOLOR1ACI
1070
     5
1001
GRADIENTCOLOR2ACI
1070
     2
1001
ACAD
1010
0.0
1020
0.0
1030
0.0
1001
ACDBBLOCKREPETAG
1070
     1
1071
      512
1005
12A6A5
  0
LINE
  5
12A6A6
  8
SLIM
  6
CONTINUOUS
 10
3924.6816635313448
 20
-239.39731198437761
 30
0.0
 11
3932.140389569618
 21
-231.93858594610461
 31
0.0
1001
GRADIENTCOLOR1ACI
1070
     5
1001
GRADIENTCOLOR2ACI
1070
     2
1001
ACAD
1010
0.0
1020
0.0
1030
0.0
1001
ACDBBLOCKREPETAG
1070
     1
1071
      513
1005
12A6A6
  0
LINE
  5
12A6A7
  8
SLIM
  6
CONTINUOUS
 10
4031.9385859461058
 20
-132.1403895696169
 30
0.0
 11
4039.3973119843781
 21
-124.6816635313439
 31
0.0
1001
GRADIENTCOLOR1ACI
1070
     5
1001
GRADIENTCOLOR2ACI
1070
     2
1001
ACAD
1010
0.0
1020
0.0
1030
0.0
1001
ACDBBLOCKREPETAG
1070
     1
1071
      514
1005
12A6A7
  0
LINE
  5
12A6A8
  8
SLIM
  6
CONTINUOUS
 10
3927.9544611024248
 20
-245.10477053436691
 30
0.0
 11
3935.2358661991689
 21
-237.8233654376229
 31
0.0
1001
GRADIENTCOLOR1ACI
1070
     5
1001
GRADIENTCOLOR2ACI
1070
     2
1001
ACAD
1010
0.0
1020
0.0
1030
0.0
1001
ACDBBLOCKREPETAG
1070
     1
1071
      515
1005
12A6A8
  0
LINE
  5
12A6A9
  8
SLIM
  6
CONTINUOUS
 10
4037.8233654376231
 20
-135.2358661991679
 30
0.0
 11
4045.1047705343681
 21
-127.95446110242381
 31
0.0
1001
GRADIENTCOLOR1ACI
1070
     5
1001
GRADIENTCOLOR2ACI
1070
     2
1001
ACAD
1010
0.0
1020
0.0
1030
0.0
1001
ACDBBLOCKREPETAG
1070
     1
1071
      516
1005
12A6A9
  0
LINE
  5
12A6AA
  8
SLIM
  6
CONTINUOUS
 10
3931.5903319686659
 20
-250.4491557891954
 30
0.0
 11
3938.7525935835488
 21
-243.2868941743115
 31
0.0
1001
GRADIENTCOLOR1ACI
1070
     5
1001
GRADIENTCOLOR2ACI
1070
     2
1001
ACAD
1010
0.0
1020
0.0
1030
0.0
1001
ACDBBLOCKREPETAG
1070
     1
1071
      517
1005
12A6AA
  0
LINE
  5
12A6AB
  8
SLIM
  6
CONTINUOUS
 10
4044.0394877578619
 20
-137.99999999999909
 30
0.0
 11
4050.4491557891961
 21
-131.59033196866449
 31
0.0
1001
GRADIENTCOLOR1ACI
1070
     5
1001
GRADIENTCOLOR2ACI
1070
     2
1001
ACAD
1010
0.0
1020
0.0
1030
0.0
1001
ACDBBLOCKREPETAG
1070
     1
1071
      518
1005
12A6AB
  0
LINE
  5
12A6AC
  8
SLIM
  6
CONTINUOUS
 10
3935.5737496925258
 20
-255.4459941864034
 30
0.0
 11
3942.6672873130492
 21
-248.35245656588111
 31
0.0
1001
GRADIENTCOLOR1ACI
1070
     5
1001
GRADIENTCOLOR2ACI
1070
     2
1001
ACAD
1010
0.0
1020
0.0
1030
0.0
1001
ACDBBLOCKREPETAG
1070
     1
1071
      519
1005
12A6AC
  0
LINE
  5
12A6AD
  8
SLIM
  6
CONTINUOUS
 10
4053.0197438789291
 20
-137.99999999999909
 30
0.0
 11
4055.4459941864038
 21
-135.57374969252561
 31
0.0
1001
GRADIENTCOLOR1ACI
1070
     5
1001
GRADIENTCOLOR2ACI
1070
     2
1001
ACAD
1010
0.0
1020
0.0
1030
0.0
1001
ACDBBLOCKREPETAG
1070
     1
1071
      520
1005
12A6AD
  0
LINE
  5
12A6AE
  8
SLIM
  6
CONTINUOUS
 10
3939.8959235991442
 20
-260.1040764008556
 30
0.0
 11
3946.9669914110091
 21
-253.03300858899021
 31
0.0
1001
GRADIENTCOLOR1ACI
1070
     5
1001
GRADIENTCOLOR2ACI
1070
     2
1001
ACAD
1010
0.0
1020
0.0
1030
0.0
1001
ACDBBLOCKREPETAG
1070
     1
1071
      521
1005
12A6AE
  0
LINE
  5
12A6AF
  8
SLIM
  6
CONTINUOUS
 10
3944.5540058135962
 20
-264.4262503074724
 30
0.0
 11
3951.6475434341178
 21
-257.33271268695029
 31
0.0
1001
GRADIENTCOLOR1ACI
1070
     5
1001
GRADIENTCOLOR2ACI
1070
     2
1001
ACAD
1010
0.0
1020
0.0
1030
0.0
1001
ACDBBLOCKREPETAG
1070
     1
1071
      522
1005
12A6AF
  0
LINE
  5
12A6B0
  8
SLIM
  6
CONTINUOUS
 10
3949.5508442108039
 20
-268.40966803133369
 30
0.0
 11
3956.7131058256882
 21
-261.24740641644968
 31
0.0
1001
GRADIENTCOLOR1ACI
1070
     5
1001
GRADIENTCOLOR2ACI
1070
     2
1001
ACAD
1010
0.0
1020
0.0
1030
0.0
1001
ACDBBLOCKREPETAG
1070
     1
1071
      523
1005
12A6B0
  0
LINE
  5
12A6B1
  8
SLIM
  6
CONTINUOUS
 10
3954.8952294656328
 20
-272.04553889757432
 30
0.0
 11
3962.176634562376
 21
-264.76413380083028
 31
0.0
1001
GRADIENTCOLOR1ACI
1070
     5
1001
GRADIENTCOLOR2ACI
1070
     2
1001
ACAD
1010
0.0
1020
0.0
1030
0.0
1001
ACDBBLOCKREPETAG
1070
     1
1071
      524
1005
12A6B1
  0
LINE
  5
12A6B2
  8
SLIM
  6
CONTINUOUS
 10
3960.602688015621
 20
-275.31833646865419
 30
0.0
 11
3968.0614140538951
 21
-267.85961043038128
 31
0.0
1001
GRADIENTCOLOR1ACI
1070
     5
1001
GRADIENTCOLOR2ACI
1070
     2
1001
ACAD
1010
0.0
1020
0.0
1030
0.0
1001
ACDBBLOCKREPETAG
1070
     1
1071
      525
1005
12A6B2
  0
LINE
  5
12A6B3
  8
SLIM
  6
CONTINUOUS
 10
3966.6969969239681
 20
-278.20428368137863
 30
0.0
 11
3974.4041133730389
 21
-270.49716723230551
 31
0.0
1001
GRADIENTCOLOR1ACI
1070
     5
1001
GRADIENTCOLOR2ACI
1070
     2
1001
ACAD
1010
0.0
1020
0.0
1030
0.0
1001
ACDBBLOCKREPETAG
1070
     1
1071
      526
1005
12A6B3
  0
LINE
  5
12A6B4
  8
SLIM
  6
CONTINUOUS
 10
3973.2127961327192
 20
-280.66874059369371
 30
0.0
 11
3981.260411534478
 21
-272.62112519193539
 31
0.0
1001
GRADIENTCOLOR1ACI
1070
     5
1001
GRADIENTCOLOR2ACI
1070
     2
1001
ACAD
1010
0.0
1020
0.0
1030
0.0
1001
ACDBBLOCKREPETAG
1070
     1
1071
      527
1005
12A6B4
  0
LINE
  5
12A6B5
  8
SLIM
  6
CONTINUOUS
 10
3980.200058542639
 20
-282.66173430484548
 30
0.0
 11
3988.7155742313489
 21
-274.14621861613477
 31
0.0
1001
GRADIENTCOLOR1ACI
1070
     5
1001
GRADIENTCOLOR2ACI
1070
     2
1001
ACAD
1010
0.0
1020
0.0
1030
0.0
1001
ACDBBLOCKREPETAG
1070
     1
1071
      528
1005
12A6B5
  0
LINE
  5
12A6B6
  8
SLIM
  6
CONTINUOUS
 10
3987.7320215894251
 20
-284.11002737912702
 30
0.0
 11
3996.9058992121468
 21
-274.93614975640583
 31
0.0
1001
GRADIENTCOLOR1ACI
1070
     5
1001
GRADIENTCOLOR2ACI
1070
     2
1001
ACAD
1010
0.0
1020
0.0
1030
0.0
1001
ACDBBLOCKREPETAG
1070
     1
1071
      529
1005
12A6B6
  0
LINE
  5
12A6B7
  8
SLIM
  6
CONTINUOUS
 10
3995.9202686470958
 20
-284.90203644252568
 30
0.0
 11
4000.0
 21
-280.82230508962152
 31
0.0
1001
GRADIENTCOLOR1ACI
1070
     5
1001
GRADIENTCOLOR2ACI
1070
     2
1001
ACAD
1010
0.0
1020
0.0
1030
0.0
1001
ACDBBLOCKREPETAG
1070
     1
1071
      530
1005
12A6B7
  0
LINE
  5
12A6B8
  8
SLIM
  6
CONTINUOUS
 10
4000.0
 20
-280.82230508962152
 30
0.0
 11
4006.0681947513999
 21
-274.75411033822121
 31
0.0
1001
GRADIENTCOLOR1ACI
1070
     5
1001
GRADIENTCOLOR2ACI
1070
     2
1001
ACAD
1010
0.0
1020
0.0
1030
0.0
1001
ACDBBLOCKREPETAG
1070
     1
1071
      531
1005
12A6B8
  0
LINE
  5
12A6B9
  8
SLIM
  6
CONTINUOUS
 10
4004.9466187997441
 20
-284.85594241094651
 30
0.0
 11
4016.681163667246
 21
-273.12139754344412
 31
0.0
1001
GRADIENTCOLOR1ACI
1070
     5
1001
GRADIENTCOLOR2ACI
1070
     2
1001
ACAD
1010
0.0
1020
0.0
1030
0.0
1001
ACDBBLOCKREPETAG
1070
     1
1071
      532
1005
12A6B9
  0
LINE
  5
12A6BA
  8
SLIM
  6
CONTINUOUS
 10
4015.1424853251392
 20
-283.64033200662112
 30
0.0
 11
4030.078492003709
 21
-268.70432532805143
 31
0.0
1001
GRADIENTCOLOR1ACI
1070
     5
1001
GRADIENTCOLOR2ACI
1070
     2
1001
ACAD
1010
0.0
1020
0.0
1030
0.0
1001
ACDBBLOCKREPETAG
1070
     1
1071
      533
1005
12A6BA
  0
LINE
  5
12A6BB
  8
SLIM
  6
CONTINUOUS
 10
4027.2492255236671
 20
-280.51384792916173
 30
0.0
 11
4045.7630734528302
 21
-261.99999999999909
 31
0.0
1001
GRADIENTCOLOR1ACI
1070
     5
1001
GRADIENTCOLOR2ACI
1070
     2
1001
ACAD
1010
0.0
1020
0.0
1030
0.0
1001
ACDBBLOCKREPETAG
1070
     1
1071
      534
1005
12A6BB
  0
LINE
  5
12A6BC
  8
SLIM
  6
CONTINUOUS
 10
4044.0451596304219
 20
-272.69816994347582
 30
0.0
 11
4054.7433295738979
 21
-261.99999999999909
 31
0.0
1001
GRADIENTCOLOR1ACI
1070
     5
1001
GRADIENTCOLOR2ACI
1070
     2
1001
ACAD
1010
0.0
1020
0.0
1030
0.0
1001
ACDBBLOCKREPETAG
1070
     1
1071
      535
1005
12A6BC
  0
LINE
  5
12A6BD
  8
CENTER
 10
4080.0
 20
-199.99999999999909
 30
0.0
 11
3900.0
 21
-199.99999999999909
 31
0.0
1001
ACDBBLOCKREPETAG
1070
     1
1071
      187
1005
12A6BD
  0
LINE
  5
12A6BE
  8
CENTER
 10
4000.0
 20
-299.99999999999898
 30
0.0
 11
4000.0
 21
-99.999999999999091
 31
0.0
1001
ACDBBLOCKREPETAG
1070
     1
1071
      188
1005
12A6BE
  0
CIRCLE
  5
12A6BF
  8
OBJECT
 10
4000.0
 20
-199.99999999999909
 30
0.0
 40
75.0
1001
ACDBBLOCKREPETAG
1070
     1
1071
      190
1005
12A6BF
  0
LINE
  5
12A6C0
  8
OBJECT
 10
4042.2018956920169
 20
-137.99999999999909
 30
0.0
 11
4080.0
 21
-137.99999999999909
 31
0.0
1001
ACDBBLOCKREPETAG
1070
     1
1071
      192
1005
12A6C0
  0
LINE
  5
12A6C1
  8
OBJECT
 10
4042.2018956920169
 20
-261.99999999999909
 30
0.0
 11
4080.0
 21
-261.99999999999909
 31
0.0
1001
ACDBBLOCKREPETAG
1070
     1
1071
      193
1005
12A6C1
  0
POINT
  5
12A6C2
  8
DOTS
 10
4000.0
 20
-199.99999999999909
 30
0.0
1001
ACDBBLOCKREPETAG
1070
     1
1071
      194
1005
12A6C2
  0
ARC
  5
12A6C3
  8
OBJECT
 10
4000.0
 20
-199.99999999999909
 30
0.0
 40
85.0
 50
46.837102859834147
 51
313.16289714016602
1001
ACDBBLOCKREPETAG
1070
     1
1071
      202
1005
12A6C3
  0
CIRCLE
  5
12A6C4
  8
OBJECT
 10
4000.0
 20
-199.99999999999909
 30
0.0
 40
52.5
1001
ACDBBLOCKREPETAG
1070
     1
1071
      488
1005
12A6C4
  0
CIRCLE
  5
12A6C5
  8
OBJECT
 10
4000.0
 20
-199.99999999999909
 30
0.0
 40
57.0
1001
ACDBBLOCKREPETAG
1070
     1
1071
      489
1005
12A6C5
  0
LINE
  5
12A6C6
  8
CENTER
 10
2080.0
 20
-199.99999999999909
 30
0.0
 11
1905.0
 21
-199.99999999999909
 31
0.0
1001
ACDBBLOCKREPETAG
1070
     1
1071
       14
1005
12A6C6
  0
LINE
  5
12A6C7
  8
CENTER
 10
2000.0
 20
-294.99999999999898
 30
0.0
 11
2000.0
 21
-104.9999999999991
 31
0.0
1001
ACDBBLOCKREPETAG
1070
     1
1071
       15
1005
12A6C7
  0
CIRCLE
  5
12A6C8
  8
OBJECT
 10
2000.0
 20
-199.99999999999909
 30
0.0
 40
75.0
1001
ACDBBLOCKREPETAG
1070
     1
1071
       17
1005
12A6C8
  0
ARC
  5
12A6C9
  8
OBJECT
 10
2000.0
 20
-199.99999999999909
 30
0.0
 40
80.0
 50
50.805032573864182
 51
309.1949674261358
1001
ACDBBLOCKREPETAG
1070
     1
1071
       18
1005
12A6C9
  0
LINE
  5
12A6CA
  8
OBJECT
 10
2042.2018956920181
 20
-137.99999999999909
 30
0.0
 11
2080.0
 21
-137.99999999999909
 31
0.0
1001
ACDBBLOCKREPETAG
1070
     1
1071
       19
1005
12A6CA
  0
LINE
  5
12A6CB
  8
OBJECT
 10
2042.2018956920181
 20
-261.99999999999909
 30
0.0
 11
2080.0
 21
-261.99999999999909
 31
0.0
1001
ACDBBLOCKREPETAG
1070
     1
1071
       20
1005
12A6CB
  0
POINT
  5
12A6CC
  8
DOTS
 10
2000.0
 20
-199.99999999999909
 30
0.0
1001
ACDBBLOCKREPETAG
1070
     1
1071
       21
1005
12A6CC
  0
CIRCLE
  5
12A6CD
  8
OBJECT
 10
2000.0
 20
-199.99999999999909
 30
0.0
 40
52.5
1001
ACDBBLOCKREPETAG
1070
     1
1071
      494
1005
12A6CD
  0
CIRCLE
  5
12A6CE
  8
OBJECT
 10
2000.0
 20
-199.99999999999909
 30
0.0
 40
57.0
1001
ACDBBLOCKREPETAG
1070
     1
1071
      483
1005
12A6CE
  0
TEXT
  5
12A6CF
  8
SLIM
 10
2631.0
 20
-2972.50001604727
 30
0.0
 40
40.0
  1
C寸法
 41
0.75
  0
TEXT
  5
12A6D0
  8
SLIM
 10
2631.0
 20
-2902.50001604727
 30
0.0
 40
40.0
  1
B寸法
 41
0.75
  0
TEXT
  5
12A6D1
  8
SLIM
 10
2630.2857142857142
 20
-2832.50001604727
 30
0.0
 40
40.0
  1
A寸法
 41
0.75
  0
TEXT
  5
12A6D2
  8
SLIM
 10
3159.2857142857151
 20
-2972.50001604727
 30
0.0
 40
40.0
  1
150
 41
0.75
  0
TEXT
  5
12A6D3
  8
SLIM
 10
3029.2857142857151
 20
-2972.50001604727
 30
0.0
 40
40.0
  1
140
 41
0.75
  0
TEXT
  5
12A6D4
  8
SLIM
 10
2769.2857142857151
 20
-2972.50001604727
 30
0.0
 40
40.0
  1
140
 41
0.75
  0
TEXT
  5
12A6D5
  8
SLIM
 10
2899.2857142857151
 20
-2972.50001604727
 30
0.0
 40
40.0
  1
140
 41
0.75
  0
TEXT
  5
12A6D6
  8
SLIM
 10
3170.7142857142858
 20
-2902.50001604727
 30
0.0
 40
40.0
  1
72
 41
0.75
  0
TEXT
  5
12A6D7
  8
SLIM
 10
3041.4285714285711
 20
-2902.50001604727
 30
0.0
 40
40.0
  1
59
 41
0.75
  0
TEXT
  5
12A6D8
  8
SLIM
 10
2780.0
 20
-2902.50001604727
 30
0.0
 40
40.0
  1
44
 41
0.75
  0
TEXT
  5
12A6D9
  8
SLIM
 10
2910.7142857142858
 20
-2902.50001604727
 30
0.0
 40
40.0
  1
52
 41
0.75
  0
TEXT
  5
12A6DA
  8
SLIM
 10
2891.0
 20
-2707.50001604727
 30
0.0
 40
40.0
  1
横枝管サイズ
 41
0.75
  0
TEXT
  5
12A6DB
  8
SLIM
 10
3136.2857142857151
 20
-2762.50001604727
 30
0.0
 40
30.0
  1
100（4）
 41
0.75
  0
TEXT
  5
12A6DC
  8
SLIM
 10
3014.857142857144
 20
-2762.50001604727
 30
0.0
 40
30.0
  1
75（3）
 41
0.75
  0
TEXT
  5
12A6DD
  8
SLIM
 10
2884.8571428571431
 20
-2762.50001604727
 30
0.0
 40
30.0
  1
65（2）
 41
0.75
  0
TEXT
  5
12A6DE
  8
SLIM
 10
2757.0
 20
-2762.50001604727
 30
0.0
 40
30.0
  1
50（1）
 41
0.75
  0
TEXT
  5
12A6DF
  8
SLIM
 10
3159.2857142857151
 20
-2832.50001604727
 30
0.0
 40
40.0
  1
150
 41
0.75
  0
TEXT
  5
12A6E0
  8
SLIM
 10
3028.571428571428
 20
-2832.50001604727
 30
0.0
 40
40.0
  1
124
 41
0.75
  0
TEXT
  5
12A6E1
  8
SLIM
 10
2780.0
 20
-2832.50001604727
 30
0.0
 40
40.0
  1
94
 41
0.75
  0
TEXT
  5
12A6E2
  8
SLIM
 10
2902.1428571428569
 20
-2832.50001604727
 30
0.0
 40
40.0
  1
110
 41
0.75
  0
TEXT
  5
12A6E3
  8
SLIM
 10
1849.9999999999991
 20
-2732.5
 30
0.0
 40
75.0
  1
枝管サイズ毎の形状
 41
0.75
  0
TEXT
  5
12A6E4
  8
SLIM
 10
1837.75
 20
282.50000000000011
 30
0.0
 40
35.0
  1
（枝管サイズ毎に寸法が異なります。管底の位置は50～100で同じです）
 41
0.75
  0
TEXT
  5
12A6E5
  8
SLIM
 10
1850.0
 20
532.5
 30
0.0
 40
75.0
  1
側面図の代表機種
 41
0.75
  0
TEXT
  5
12A6E6
  8
SLIM
 10
1850.0
 20
369.99999999999989
 30
0.0
 40
100.0
  1
4SSRT-A3
 41
0.75
  0
LINE
  5
12A6E7
  8
OBJECT
 10
4133.0
 20
-137.99999999999909
 30
0.0
 11
4140.0
 21
-137.99999999999909
 31
0.0
1001
ACDBBLOCKREPETAG
1070
     1
1071
       47
1005
12A6E7
  0
LINE
  5
12A6E8
  8
OBJECT
 10
4140.0
 20
-137.99999999999909
 30
0.0
 11
4140.0
 21
-261.99999999999909
 31
0.0
1001
ACDBBLOCKREPETAG
1070
     1
1071
       48
1005
12A6E8
  0
LINE
  5
12A6E9
  8
OBJECT
 10
4140.0
 20
-261.99999999999909
 30
0.0
 11
4133.0
 21
-261.99999999999909
 31
0.0
1001
ACDBBLOCKREPETAG
1070
     1
1071
       49
1005
12A6E9
  0
LINE
  5
12A6EA
  8
OBJECT
 10
4133.0
 20
-261.99999999999909
 30
0.0
 11
4133.0
 21
-137.99999999999909
 31
0.0
1001
ACDBBLOCKREPETAG
1070
     1
1071
       50
1005
12A6EA
  0
LINE
  5
12A6EB
  8
CENTER
 10
4155.0
 20
-199.99999999999909
 30
0.0
 11
4080.0
 21
-199.99999999999909
 31
0.0
1001
ACDBBLOCKREPETAG
1070
     1
1071
       51
1005
12A6EB
  0
LINE
  5
12A6EC
  8
OBJECT
 10
4133.0
 20
-140.99999999999909
 30
0.0
 11
4097.0
 21
-140.99999999999909
 31
0.0
1001
ACDBBLOCKREPETAG
1070
     1
1071
       52
1005
12A6EC
  0
LINE
  5
12A6ED
  8
OBJECT
 10
4097.0
 20
-140.99999999999909
 30
0.0
 11
4097.0
 21
-258.99999999999909
 31
0.0
1001
ACDBBLOCKREPETAG
1070
     1
1071
       53
1005
12A6ED
  0
LINE
  5
12A6EE
  8
OBJECT
 10
4097.0
 20
-258.99999999999909
 30
0.0
 11
4133.0
 21
-258.99999999999909
 31
0.0
1001
ACDBBLOCKREPETAG
1070
     1
1071
       54
1005
12A6EE
  0
LINE
  5
12A6EF
  8
OBJECT
 10
4093.0
 20
-145.49999999999909
 30
0.0
 11
4086.0
 21
-145.49999999999909
 31
0.0
1001
ACDBBLOCKREPETAG
1070
     1
1071
       55
1005
12A6EF
  0
LINE
  5
12A6F0
  8
OBJECT
 10
4086.0
 20
-254.49999999999909
 30
0.0
 11
4093.0
 21
-254.49999999999909
 31
0.0
1001
ACDBBLOCKREPETAG
1070
     1
1071
       56
1005
12A6F0
  0
LINE
  5
12A6F1
  8
OBJECT
 10
4093.0
 20
-254.49999999999909
 30
0.0
 11
4093.0
 21
-145.49999999999909
 31
0.0
1001
ACDBBLOCKREPETAG
1070
     1
1071
       57
1005
12A6F1
  0
LINE
  5
12A6F2
  8
OBJECT
 10
4097.0
 20
-140.99999999999909
 30
0.0
 11
4093.0
 21
-145.49999999999909
 31
0.0
1001
ACDBBLOCKREPETAG
1070
     1
1071
       58
1005
12A6F2
  0
LINE
  5
12A6F3
  8
OBJECT
 10
4097.0
 20
-258.99999999999909
 30
0.0
 11
4093.0
 21
-254.49999999999909
 31
0.0
1001
ACDBBLOCKREPETAG
1070
     1
1071
       59
1005
12A6F3
  0
LINE
  5
12A6F4
  8
OBJECT
 10
4083.0
 20
-137.99999999999909
 30
0.0
 11
4080.0
 21
-137.99999999999909
 31
0.0
1001
ACDBBLOCKREPETAG
1070
     1
1071
       60
1005
12A6F4
  0
ARC
  5
12A6F5
  8
OBJECT
 10
4083.0
 20
-140.99999999999909
 30
0.0
 40
3.0
 50
0.0
 51
90.0
1001
ACDBBLOCKREPETAG
1070
     1
1071
       61
1005
12A6F5
  0
LINE
  5
12A6F6
  8
OBJECT
 10
4080.0
 20
-261.99999999999909
 30
0.0
 11
4083.0
 21
-261.99999999999909
 31
0.0
1001
ACDBBLOCKREPETAG
1070
     1
1071
       62
1005
12A6F6
  0
ARC
  5
12A6F7
  8
OBJECT
 10
4083.0
 20
-258.99999999999909
 30
0.0
 40
3.0
 50
270.0
 51
0.0
1001
ACDBBLOCKREPETAG
1070
     1
1071
       63
1005
12A6F7
  0
LINE
  5
12A6F8
  8
OBJECT
 10
4086.0
 20
-258.99999999999909
 30
0.0
 11
4086.0
 21
-140.99999999999909
 31
0.0
1001
ACDBBLOCKREPETAG
1070
     1
1071
       64
1005
12A6F8
  0
LINE
  5
12A6F9
  8
HIDDEN
 10
4088.0
 20
-155.49999999999909
 30
0.0
 11
4088.0
 21
-244.49999999999909
 31
0.0
1001
ACDBBLOCKREPETAG
1070
     1
1071
       65
1005
12A6F9
  0
LINE
  5
12A6FA
  8
CENTER
 10
4577.0
 20
-596.0
 30
0.0
 11
4423.0
 21
-596.0
 31
0.0
1001
ACDBBLOCKREPETAG
1070
     1
1071
       17
1005
12A6FA
  0
CIRCLE
  5
12A6FB
  8
OBJECT
 10
4500.0
 20
-596.0
 30
0.0
 40
41.5
1001
ACDBBLOCKREPETAG
1070
     1
1071
       19
1005
12A6FB
  0
CIRCLE
  5
12A6FC
  8
OBJECT
 10
4500.0
 20
-596.0
 30
0.0
 40
54.0
1001
ACDBBLOCKREPETAG
1070
     1
1071
       20
1005
12A6FC
  0
ARC
  5
12A6FD
  8
OBJECT
 10
4500.0
 20
-596.0
 30
0.0
 40
62.0
 50
287.89655112920718
 51
252.10344887079279
1001
ACDBBLOCKREPETAG
1070
     1
1071
       21
1005
12A6FD
  0
LINE
  5
12A6FE
  8
OBJECT
 10
4480.9474411167421
 20
-655.0
 30
0.0
 11
4519.052558883257
 21
-655.0
 31
0.0
1001
ACDBBLOCKREPETAG
1070
     1
1071
       22
1005
12A6FE
  0
LINE
  5
12A6FF
  8
OBJECT
 10
4133.0
 20
-534.0
 30
0.0
 11
4140.0
 21
-534.0
 31
0.0
1001
ACDBBLOCKREPETAG
1070
     1
1071
       45
1005
12A6FF
  0
LINE
  5
12A700
  8
OBJECT
 10
4140.0
 20
-534.0
 30
0.0
 11
4140.0
 21
-655.0
 31
0.0
1001
ACDBBLOCKREPETAG
1070
     1
1071
       46
1005
12A700
  0
LINE
  5
12A701
  8
OBJECT
 10
4133.0
 20
-655.0
 30
0.0
 11
4133.0
 21
-534.0
 31
0.0
1001
ACDBBLOCKREPETAG
1070
     1
1071
       47
1005
12A701
  0
LINE
  5
12A702
  8
CENTER
 10
4155.0
 20
-596.0
 30
0.0
 11
4071.0
 21
-596.0
 31
0.0
1001
ACDBBLOCKREPETAG
1070
     1
1071
       48
1005
12A702
  0
LINE
  5
12A703
  8
OBJECT
 10
4133.0
 20
-537.0
 30
0.0
 11
4097.0
 21
-537.0
 31
0.0
1001
ACDBBLOCKREPETAG
1070
     1
1071
       49
1005
12A703
  0
LINE
  5
12A704
  8
OBJECT
 10
4097.0
 20
-537.0
 30
0.0
 11
4097.0
 21
-655.0
 31
0.0
1001
ACDBBLOCKREPETAG
1070
     1
1071
       50
1005
12A704
  0
LINE
  5
12A705
  8
OBJECT
 10
4097.0
 20
-655.0
 30
0.0
 11
4140.0
 21
-655.0
 31
0.0
1001
ACDBBLOCKREPETAG
1070
     1
1071
       51
1005
12A705
  0
LINE
  5
12A706
  8
OBJECT
 10
4093.0
 20
-541.5
 30
0.0
 11
4086.0
 21
-541.5
 31
0.0
1001
ACDBBLOCKREPETAG
1070
     1
1071
       52
1005
12A706
  0
LINE
  5
12A707
  8
OBJECT
 10
4086.0
 20
-650.49999999999989
 30
0.0
 11
4093.0
 21
-650.49999999999989
 31
0.0
1001
ACDBBLOCKREPETAG
1070
     1
1071
       53
1005
12A707
  0
LINE
  5
12A708
  8
OBJECT
 10
4093.0
 20
-650.49999999999989
 30
0.0
 11
4093.0
 21
-541.5
 31
0.0
1001
ACDBBLOCKREPETAG
1070
     1
1071
       54
1005
12A708
  0
LINE
  5
12A709
  8
OBJECT
 10
4097.0
 20
-537.0
 30
0.0
 11
4093.0
 21
-541.5
 31
0.0
1001
ACDBBLOCKREPETAG
1070
     1
1071
       55
1005
12A709
  0
LINE
  5
12A70A
  8
OBJECT
 10
4097.0
 20
-655.0
 30
0.0
 11
4093.0
 21
-650.49999999999989
 31
0.0
1001
ACDBBLOCKREPETAG
1070
     1
1071
       56
1005
12A70A
  0
LINE
  5
12A70B
  8
OBJECT
 10
4083.0
 20
-534.0
 30
0.0
 11
4080.0
 21
-534.0
 31
0.0
1001
ACDBBLOCKREPETAG
1070
     1
1071
       57
1005
12A70B
  0
ARC
  5
12A70C
  8
OBJECT
 10
4083.0
 20
-537.0
 30
0.0
 40
3.0
 50
0.0
 51
90.0
1001
ACDBBLOCKREPETAG
1070
     1
1071
       58
1005
12A70C
  0
LINE
  5
12A70D
  8
OBJECT
 10
4080.0
 20
-658.0
 30
0.0
 11
4083.0
 21
-658.0
 31
0.0
1001
ACDBBLOCKREPETAG
1070
     1
1071
       59
1005
12A70D
  0
ARC
  5
12A70E
  8
OBJECT
 10
4083.0
 20
-655.0
 30
0.0
 40
3.0
 50
270.0
 51
0.0
1001
ACDBBLOCKREPETAG
1070
     1
1071
       60
1005
12A70E
  0
LINE
  5
12A70F
  8
OBJECT
 10
4086.0
 20
-655.0
 30
0.0
 11
4086.0
 21
-537.0
 31
0.0
1001
ACDBBLOCKREPETAG
1070
     1
1071
       61
1005
12A70F
  0
LINE
  5
12A710
  8
HIDDEN
 10
4088.0
 20
-551.49999999999977
 30
0.0
 11
4088.0
 21
-640.5
 31
0.0
1001
ACDBBLOCKREPETAG
1070
     1
1071
       63
1005
12A710
  0
LINE
  5
12A711
  8
CENTER
 10
2577.0
 20
-596.0
 30
0.0
 11
2423.0
 21
-596.0
 31
0.0
1001
ACDBBLOCKREPETAG
1070
     1
1071
       17
1005
12A711
  0
CIRCLE
  5
12A712
  8
OBJECT
 10
2500.0
 20
-596.0
 30
0.0
 40
41.5
1001
ACDBBLOCKREPETAG
1070
     1
1071
       19
1005
12A712
  0
CIRCLE
  5
12A713
  8
OBJECT
 10
2500.0
 20
-596.0
 30
0.0
 40
54.0
1001
ACDBBLOCKREPETAG
1070
     1
1071
       20
1005
12A713
  0
ARC
  5
12A714
  8
OBJECT
 10
2500.0
 20
-596.0
 30
0.0
 40
62.0
 50
287.89655112920718
 51
252.10344887079279
1001
ACDBBLOCKREPETAG
1070
     1
1071
       21
1005
12A714
  0
LINE
  5
12A715
  8
OBJECT
 10
2480.947441116743
 20
-655.0
 30
0.0
 11
2519.052558883257
 21
-655.0
 31
0.0
1001
ACDBBLOCKREPETAG
1070
     1
1071
       22
1005
12A715
  0
LINE
  5
12A716
  8
OBJECT
 10
2133.0
 20
-534.0
 30
0.0
 11
2140.0
 21
-534.0
 31
0.0
1001
ACDBBLOCKREPETAG
1070
     1
1071
       45
1005
12A716
  0
LINE
  5
12A717
  8
OBJECT
 10
2140.0
 20
-534.0
 30
0.0
 11
2140.0
 21
-655.0
 31
0.0
1001
ACDBBLOCKREPETAG
1070
     1
1071
       46
1005
12A717
  0
LINE
  5
12A718
  8
OBJECT
 10
2133.0
 20
-655.0
 30
0.0
 11
2133.0
 21
-534.0
 31
0.0
1001
ACDBBLOCKREPETAG
1070
     1
1071
       47
1005
12A718
  0
LINE
  5
12A719
  8
CENTER
 10
2155.0
 20
-596.0
 30
0.0
 11
2071.0
 21
-596.0
 31
0.0
1001
ACDBBLOCKREPETAG
1070
     1
1071
       48
1005
12A719
  0
LINE
  5
12A71A
  8
OBJECT
 10
2133.0
 20
-537.0
 30
0.0
 11
2097.0
 21
-537.0
 31
0.0
1001
ACDBBLOCKREPETAG
1070
     1
1071
       49
1005
12A71A
  0
LINE
  5
12A71B
  8
OBJECT
 10
2097.0
 20
-537.0
 30
0.0
 11
2097.0
 21
-655.0
 31
0.0
1001
ACDBBLOCKREPETAG
1070
     1
1071
       50
1005
12A71B
  0
LINE
  5
12A71C
  8
OBJECT
 10
2097.0
 20
-655.0
 30
0.0
 11
2140.0
 21
-655.0
 31
0.0
1001
ACDBBLOCKREPETAG
1070
     1
1071
       51
1005
12A71C
  0
LINE
  5
12A71D
  8
OBJECT
 10
2093.0
 20
-541.5
 30
0.0
 11
2086.0
 21
-541.5
 31
0.0
1001
ACDBBLOCKREPETAG
1070
     1
1071
       52
1005
12A71D
  0
LINE
  5
12A71E
  8
OBJECT
 10
2086.0
 20
-650.49999999999989
 30
0.0
 11
2093.0
 21
-650.49999999999989
 31
0.0
1001
ACDBBLOCKREPETAG
1070
     1
1071
       53
1005
12A71E
  0
LINE
  5
12A71F
  8
OBJECT
 10
2093.0
 20
-650.49999999999989
 30
0.0
 11
2093.0
 21
-541.5
 31
0.0
1001
ACDBBLOCKREPETAG
1070
     1
1071
       54
1005
12A71F
  0
LINE
  5
12A720
  8
OBJECT
 10
2097.0
 20
-537.0
 30
0.0
 11
2093.0
 21
-541.5
 31
0.0
1001
ACDBBLOCKREPETAG
1070
     1
1071
       55
1005
12A720
  0
LINE
  5
12A721
  8
OBJECT
 10
2097.0
 20
-655.0
 30
0.0
 11
2093.0
 21
-650.49999999999989
 31
0.0
1001
ACDBBLOCKREPETAG
1070
     1
1071
       56
1005
12A721
  0
LINE
  5
12A722
  8
OBJECT
 10
2083.0
 20
-534.0
 30
0.0
 11
2080.0
 21
-534.0
 31
0.0
1001
ACDBBLOCKREPETAG
1070
     1
1071
       57
1005
12A722
  0
ARC
  5
12A723
  8
OBJECT
 10
2083.0
 20
-537.0
 30
0.0
 40
3.0
 50
0.0
 51
90.0
1001
ACDBBLOCKREPETAG
1070
     1
1071
       58
1005
12A723
  0
LINE
  5
12A724
  8
OBJECT
 10
2080.0
 20
-658.0
 30
0.0
 11
2083.0
 21
-658.0
 31
0.0
1001
ACDBBLOCKREPETAG
1070
     1
1071
       59
1005
12A724
  0
ARC
  5
12A725
  8
OBJECT
 10
2083.0
 20
-655.0
 30
0.0
 40
3.0
 50
270.0
 51
0.0
1001
ACDBBLOCKREPETAG
1070
     1
1071
       60
1005
12A725
  0
LINE
  5
12A726
  8
OBJECT
 10
2086.0
 20
-655.0
 30
0.0
 11
2086.0
 21
-537.0
 31
0.0
1001
ACDBBLOCKREPETAG
1070
     1
1071
       61
1005
12A726
  0
LINE
  5
12A727
  8
HIDDEN
 10
2088.0
 20
-551.49999999999977
 30
0.0
 11
2088.0
 21
-640.5
 31
0.0
1001
ACDBBLOCKREPETAG
1070
     1
1071
       63
1005
12A727
  0
LINE
  5
12A728
  8
OBJECT
 10
2133.0
 20
-137.99999999999909
 30
0.0
 11
2140.0
 21
-137.99999999999909
 31
0.0
1001
ACDBBLOCKREPETAG
1070
     1
1071
       47
1005
12A728
  0
LINE
  5
12A729
  8
OBJECT
 10
2140.0
 20
-137.99999999999909
 30
0.0
 11
2140.0
 21
-261.99999999999909
 31
0.0
1001
ACDBBLOCKREPETAG
1070
     1
1071
       48
1005
12A729
  0
LINE
  5
12A72A
  8
OBJECT
 10
2140.0
 20
-261.99999999999909
 30
0.0
 11
2133.0
 21
-261.99999999999909
 31
0.0
1001
ACDBBLOCKREPETAG
1070
     1
1071
       49
1005
12A72A
  0
LINE
  5
12A72B
  8
OBJECT
 10
2133.0
 20
-261.99999999999909
 30
0.0
 11
2133.0
 21
-137.99999999999909
 31
0.0
1001
ACDBBLOCKREPETAG
1070
     1
1071
       50
1005
12A72B
  0
LINE
  5
12A72C
  8
CENTER
 10
2155.0
 20
-199.99999999999909
 30
0.0
 11
2080.0
 21
-199.99999999999909
 31
0.0
1001
ACDBBLOCKREPETAG
1070
     1
1071
       51
1005
12A72C
  0
LINE
  5
12A72D
  8
OBJECT
 10
2133.0
 20
-140.99999999999909
 30
0.0
 11
2097.0
 21
-140.99999999999909
 31
0.0
1001
ACDBBLOCKREPETAG
1070
     1
1071
       52
1005
12A72D
  0
LINE
  5
12A72E
  8
OBJECT
 10
2097.0
 20
-140.99999999999909
 30
0.0
 11
2097.0
 21
-258.99999999999909
 31
0.0
1001
ACDBBLOCKREPETAG
1070
     1
1071
       53
1005
12A72E
  0
LINE
  5
12A72F
  8
OBJECT
 10
2097.0
 20
-258.99999999999909
 30
0.0
 11
2133.0
 21
-258.99999999999909
 31
0.0
1001
ACDBBLOCKREPETAG
1070
     1
1071
       54
1005
12A72F
  0
LINE
  5
12A730
  8
OBJECT
 10
2093.0
 20
-145.49999999999909
 30
0.0
 11
2086.0
 21
-145.49999999999909
 31
0.0
1001
ACDBBLOCKREPETAG
1070
     1
1071
       55
1005
12A730
  0
LINE
  5
12A731
  8
OBJECT
 10
2086.0
 20
-254.49999999999909
 30
0.0
 11
2093.0
 21
-254.49999999999909
 31
0.0
1001
ACDBBLOCKREPETAG
1070
     1
1071
       56
1005
12A731
  0
LINE
  5
12A732
  8
OBJECT
 10
2093.0
 20
-254.49999999999909
 30
0.0
 11
2093.0
 21
-145.49999999999909
 31
0.0
1001
ACDBBLOCKREPETAG
1070
     1
1071
       57
1005
12A732
  0
LINE
  5
12A733
  8
OBJECT
 10
2097.0
 20
-140.99999999999909
 30
0.0
 11
2093.0
 21
-145.49999999999909
 31
0.0
1001
ACDBBLOCKREPETAG
1070
     1
1071
       58
1005
12A733
  0
LINE
  5
12A734
  8
OBJECT
 10
2097.0
 20
-258.99999999999909
 30
0.0
 11
2093.0
 21
-254.49999999999909
 31
0.0
1001
ACDBBLOCKREPETAG
1070
     1
1071
       59
1005
12A734
  0
LINE
  5
12A735
  8
OBJECT
 10
2083.0
 20
-137.99999999999909
 30
0.0
 11
2080.0
 21
-137.99999999999909
 31
0.0
1001
ACDBBLOCKREPETAG
1070
     1
1071
       60
1005
12A735
  0
ARC
  5
12A736
  8
OBJECT
 10
2083.0
 20
-140.99999999999909
 30
0.0
 40
3.0
 50
0.0
 51
90.0
1001
ACDBBLOCKREPETAG
1070
     1
1071
       61
1005
12A736
  0
LINE
  5
12A737
  8
OBJECT
 10
2080.0
 20
-261.99999999999909
 30
0.0
 11
2083.0
 21
-261.99999999999909
 31
0.0
1001
ACDBBLOCKREPETAG
1070
     1
1071
       62
1005
12A737
  0
ARC
  5
12A738
  8
OBJECT
 10
2083.0
 20
-258.99999999999909
 30
0.0
 40
3.0
 50
270.0
 51
0.0
1001
ACDBBLOCKREPETAG
1070
     1
1071
       63
1005
12A738
  0
LINE
  5
12A739
  8
OBJECT
 10
2086.0
 20
-258.99999999999909
 30
0.0
 11
2086.0
 21
-140.99999999999909
 31
0.0
1001
ACDBBLOCKREPETAG
1070
     1
1071
       64
1005
12A739
  0
LINE
  5
12A73A
  8
HIDDEN
 10
2088.0
 20
-155.49999999999909
 30
0.0
 11
2088.0
 21
-244.49999999999909
 31
0.0
1001
ACDBBLOCKREPETAG
1070
     1
1071
       65
1005
12A73A
  0
LINE
  5
12A73B
  8
OBJECT
 10
465.00000000012182
 20
-546.00000000000955
 30
0.0
 11
465.00000000012182
 21
-553.00000000000966
 31
0.0
1001
ACDBBLOCKREPETAG
1070
     1
1071
       57
1005
12A73B
  0
LINE
  5
12A73C
  8
OBJECT
 10
465.00000000012182
 20
-553.00000000000966
 30
0.0
 11
615.00000000012176
 21
-553.00000000000966
 31
0.0
1001
ACDBBLOCKREPETAG
1070
     1
1071
       58
1005
12A73C
  0
LINE
  5
12A73D
  8
OBJECT
 10
468.00000000012182
 20
-594.50000000000966
 30
0.0
 11
612.00000000012164
 21
-594.50000000000966
 31
0.0
1001
ACDBBLOCKREPETAG
1070
     1
1071
       59
1005
12A73D
  0
LINE
  5
12A73E
  8
OBJECT
 10
474.5000000001217
 20
-606.00000000000955
 30
0.0
 11
605.50000000012187
 21
-606.00000000000955
 31
0.0
1001
ACDBBLOCKREPETAG
1070
     1
1071
       60
1005
12A73E
  0
LINE
  5
12A73F
  8
OBJECT
 10
615.00000000012176
 20
-553.00000000000966
 30
0.0
 11
615.00000000012176
 21
-546.00000000000955
 31
0.0
1001
ACDBBLOCKREPETAG
1070
     1
1071
       61
1005
12A73F
  0
LINE
  5
12A740
  8
OBJECT
 10
615.00000000012176
 20
-546.00000000000955
 30
0.0
 11
465.00000000012182
 21
-546.00000000000955
 31
0.0
1001
ACDBBLOCKREPETAG
1070
     1
1071
       62
1005
12A740
  0
LINE
  5
12A741
  8
OBJECT
 10
602.00000000012187
 20
-610.00000000000955
 30
0.0
 11
602.00000000012187
 21
-616.00000000000955
 31
0.0
1001
ACDBBLOCKREPETAG
1070
     1
1071
       63
1005
12A741
  0
LINE
  5
12A742
  8
OBJECT
 10
612.00000000012164
 20
-553.00000000000966
 30
0.0
 11
612.00000000012164
 21
-594.50000000000966
 31
0.0
1001
ACDBBLOCKREPETAG
1070
     1
1071
       64
1005
12A742
  0
LINE
  5
12A743
  8
OBJECT
 10
612.00000000012164
 20
-594.50000000000966
 30
0.0
 11
605.50000000012187
 21
-606.00000000000955
 31
0.0
1001
ACDBBLOCKREPETAG
1070
     1
1071
       65
1005
12A743
  0
LINE
  5
12A744
  8
OBJECT
 10
605.50000000012187
 20
-606.00000000000955
 30
0.0
 11
602.00000000012187
 21
-610.00000000000955
 31
0.0
1001
ACDBBLOCKREPETAG
1070
     1
1071
       66
1005
12A744
  0
LINE
  5
12A745
  8
OBJECT
 10
468.00000000012182
 20
-594.50000000000966
 30
0.0
 11
474.5000000001217
 21
-606.00000000000955
 31
0.0
1001
ACDBBLOCKREPETAG
1070
     1
1071
       67
1005
12A745
  0
LINE
  5
12A746
  8
OBJECT
 10
474.5000000001217
 20
-606.00000000000955
 30
0.0
 11
478.0000000001217
 21
-610.00000000000955
 31
0.0
1001
ACDBBLOCKREPETAG
1070
     1
1071
       68
1005
12A746
  0
ARC
  5
12A747
  8
OBJECT
 10
540.00000000012176
 20
-228.10000000000809
 30
0.0
 40
386.89999999999998
 50
260.77870136257951
 51
279.22129863742049
1001
ACDBBLOCKREPETAG
1070
     1
1071
       69
1005
12A747
  0
LINE
  5
12A748
  8
OBJECT
 10
478.0000000001217
 20
-610.00000000000955
 30
0.0
 11
478.0000000001217
 21
-616.00000000000955
 31
0.0
1001
ACDBBLOCKREPETAG
1070
     1
1071
       70
1005
12A748
  0
LINE
  5
12A749
  8
OBJECT
 10
468.00000000012182
 20
-553.00000000000966
 30
0.0
 11
468.00000000012182
 21
-594.50000000000966
 31
0.0
1001
ACDBBLOCKREPETAG
1070
     1
1071
       71
1005
12A749
  0
INSERT
  5
12A74A
  8
OBJECT
  2
*U16
 10
0.0
 20
0.0
 30
0.0
  0
LINE
  5
12A74B
  8
HIDDEN
 10
597.00000000012187
 20
-598.00000000000955
 30
0.0
 11
483.0000000001217
 21
-598.00000000000955
 31
0.0
1001
ACDBBLOCKREPETAG
1070
     1
1071
      431
1005
12A74B
  0
INSERT
  5
12A74C
  8
OBJECT
  2
*U17
 10
0.0
 20
0.0
 30
0.0
  0
LINE
  5
12A74D
  8
OBJECT
 10
118.00000000004179
 20
-563.00000000000955
 30
0.0
 11
118.00000000004179
 21
-556.00000000000955
 31
0.0
1001
ACDBBLOCKREPETAG
1070
     1
1071
       39
1005
12A74D
  0
LINE
  5
12A74E
  8
OBJECT
 10
118.00000000004179
 20
-556.00000000000955
 30
0.0
 11
242.00000000004181
 21
-556.00000000000955
 31
0.0
1001
ACDBBLOCKREPETAG
1070
     1
1071
       40
1005
12A74E
  0
LINE
  5
12A74F
  8
OBJECT
 10
242.00000000004181
 20
-556.00000000000955
 30
0.0
 11
242.00000000004181
 21
-563.00000000000955
 31
0.0
1001
ACDBBLOCKREPETAG
1070
     1
1071
       41
1005
12A74F
  0
LINE
  5
12A750
  8
OBJECT
 10
242.00000000004181
 20
-563.00000000000955
 30
0.0
 11
118.00000000004179
 21
-563.00000000000955
 31
0.0
1001
ACDBBLOCKREPETAG
1070
     1
1071
       42
1005
12A750
  0
LINE
  5
12A751
  8
OBJECT
 10
121.00000000004179
 20
-563.00000000000955
 30
0.0
 11
121.00000000004179
 21
-599.00000000000966
 31
0.0
1001
ACDBBLOCKREPETAG
1070
     1
1071
       43
1005
12A751
  0
LINE
  5
12A752
  8
OBJECT
 10
121.00000000004179
 20
-599.00000000000966
 30
0.0
 11
239.00000000004181
 21
-599.00000000000966
 31
0.0
1001
ACDBBLOCKREPETAG
1070
     1
1071
       44
1005
12A752
  0
LINE
  5
12A753
  8
OBJECT
 10
239.00000000004181
 20
-599.00000000000966
 30
0.0
 11
239.00000000004181
 21
-563.00000000000955
 31
0.0
1001
ACDBBLOCKREPETAG
1070
     1
1071
       45
1005
12A753
  0
LINE
  5
12A754
  8
OBJECT
 10
125.50000000004179
 20
-603.00000000000966
 30
0.0
 11
125.50000000004179
 21
-610.00000000000955
 31
0.0
1001
ACDBBLOCKREPETAG
1070
     1
1071
       46
1005
12A754
  0
LINE
  5
12A755
  8
OBJECT
 10
234.50000000004181
 20
-610.00000000000955
 30
0.0
 11
234.50000000004181
 21
-603.00000000000966
 31
0.0
1001
ACDBBLOCKREPETAG
1070
     1
1071
       47
1005
12A755
  0
LINE
  5
12A756
  8
OBJECT
 10
234.50000000004181
 20
-603.00000000000966
 30
0.0
 11
125.50000000004179
 21
-603.00000000000966
 31
0.0
1001
ACDBBLOCKREPETAG
1070
     1
1071
       48
1005
12A756
  0
LINE
  5
12A757
  8
OBJECT
 10
121.00000000004179
 20
-599.00000000000966
 30
0.0
 11
125.50000000004179
 21
-603.00000000000966
 31
0.0
1001
ACDBBLOCKREPETAG
1070
     1
1071
       49
1005
12A757
  0
LINE
  5
12A758
  8
OBJECT
 10
239.00000000004181
 20
-599.00000000000966
 30
0.0
 11
234.50000000004181
 21
-603.00000000000966
 31
0.0
1001
ACDBBLOCKREPETAG
1070
     1
1071
       50
1005
12A758
  0
LINE
  5
12A759
  8
OBJECT
 10
118.00000000004179
 20
-613.00000000000864
 30
0.0
 11
118.00000000004179
 21
-616.00000000000955
 31
0.0
1001
ACDBBLOCKREPETAG
1070
     1
1071
       51
1005
12A759
  0
ARC
  5
12A75A
  8
OBJECT
 10
121.00000000004179
 20
-613.00000000000864
 30
0.0
 40
3.0
 50
90.0
 51
180.0
1001
ACDBBLOCKREPETAG
1070
     1
1071
       52
1005
12A75A
  0
LINE
  5
12A75B
  8
OBJECT
 10
242.00000000004181
 20
-616.00000000000955
 30
0.0
 11
242.00000000004181
 21
-613.00000000001035
 31
0.0
1001
ACDBBLOCKREPETAG
1070
     1
1071
       53
1005
12A75B
  0
ARC
  5
12A75C
  8
OBJECT
 10
239.00000000004181
 20
-613.00000000001035
 30
0.0
 40
3.0
 50
0.0
 51
90.0
1001
ACDBBLOCKREPETAG
1070
     1
1071
       54
1005
12A75C
  0
LINE
  5
12A75D
  8
OBJECT
 10
239.00000000004181
 20
-610.00000000001035
 30
0.0
 11
121.00000000004179
 21
-610.00000000000864
 31
0.0
1001
ACDBBLOCKREPETAG
1070
     1
1071
       55
1005
12A75D
  0
LINE
  5
12A75E
  8
HIDDEN
 10
135.50000000004181
 20
-608.00000000000955
 30
0.0
 11
224.50000000004181
 21
-608.00000000000955
 31
0.0
1001
ACDBBLOCKREPETAG
1070
     1
1071
      426
1005
12A75E
  0
INSERT
  5
12A75F
  8
OBJECT
  2
*U18
 10
0.0
 20
0.0
 30
0.0
  0
LINE
  5
12A760
  8
OBJECT
 10
485.00000000012182
 20
-99.000000000003183
 30
0.0
 11
485.00000000012182
 21
-92.000000000003183
 31
0.0
1001
ACDBBLOCKREPETAG
1070
     1
1071
       20
1005
12A760
  0
LINE
  5
12A761
  8
OBJECT
 10
485.00000000012182
 20
-92.000000000003183
 30
0.0
 11
595.00000000012164
 21
-92.000000000003183
 31
0.0
1001
ACDBBLOCKREPETAG
1070
     1
1071
       21
1005
12A761
  0
LINE
  5
12A762
  8
OBJECT
 10
595.00000000012164
 20
-92.000000000003183
 30
0.0
 11
595.00000000012164
 21
-99.000000000003183
 31
0.0
1001
ACDBBLOCKREPETAG
1070
     1
1071
       22
1005
12A762
  0
LINE
  5
12A763
  8
OBJECT
 10
595.00000000012164
 20
-99.000000000003183
 30
0.0
 11
485.00000000012182
 21
-99.000000000003183
 31
0.0
1001
ACDBBLOCKREPETAG
1070
     1
1071
       23
1005
12A763
  0
LINE
  5
12A764
  8
OBJECT
 10
488.0000000001217
 20
-99.000000000003183
 30
0.0
 11
488.0000000001217
 21
-135.00000000000321
 31
0.0
1001
ACDBBLOCKREPETAG
1070
     1
1071
       24
1005
12A764
  0
LINE
  5
12A765
  8
OBJECT
 10
488.0000000001217
 20
-135.00000000000321
 30
0.0
 11
592.00000000012164
 21
-135.00000000000321
 31
0.0
1001
ACDBBLOCKREPETAG
1070
     1
1071
       25
1005
12A765
  0
LINE
  5
12A766
  8
OBJECT
 10
592.00000000012164
 20
-135.00000000000321
 30
0.0
 11
592.00000000012164
 21
-99.000000000003183
 31
0.0
1001
ACDBBLOCKREPETAG
1070
     1
1071
       26
1005
12A766
  0
LINE
  5
12A767
  8
OBJECT
 10
492.5000000001217
 20
-139.00000000000321
 30
0.0
 11
492.5000000001217
 21
-146.00000000000321
 31
0.0
1001
ACDBBLOCKREPETAG
1070
     1
1071
       27
1005
12A767
  0
LINE
  5
12A768
  8
OBJECT
 10
587.50000000012164
 20
-146.00000000000321
 30
0.0
 11
587.50000000012164
 21
-139.00000000000321
 31
0.0
1001
ACDBBLOCKREPETAG
1070
     1
1071
       28
1005
12A768
  0
LINE
  5
12A769
  8
OBJECT
 10
587.50000000012164
 20
-139.00000000000321
 30
0.0
 11
492.5000000001217
 21
-139.00000000000321
 31
0.0
1001
ACDBBLOCKREPETAG
1070
     1
1071
       29
1005
12A769
  0
LINE
  5
12A76A
  8
OBJECT
 10
488.0000000001217
 20
-135.00000000000321
 30
0.0
 11
492.5000000001217
 21
-139.00000000000321
 31
0.0
1001
ACDBBLOCKREPETAG
1070
     1
1071
       30
1005
12A76A
  0
LINE
  5
12A76B
  8
OBJECT
 10
592.00000000012164
 20
-135.00000000000321
 30
0.0
 11
587.50000000012164
 21
-139.00000000000321
 31
0.0
1001
ACDBBLOCKREPETAG
1070
     1
1071
       31
1005
12A76B
  0
LINE
  5
12A76C
  8
OBJECT
 10
478.0000000001217
 20
-149.0000000000023
 30
0.0
 11
478.0000000001217
 21
-152.0000000000031
 31
0.0
1001
ACDBBLOCKREPETAG
1070
     1
1071
       32
1005
12A76C
  0
ARC
  5
12A76D
  8
OBJECT
 10
481.00000000012182
 20
-149.0000000000023
 30
0.0
 40
3.0
 50
90.0
 51
180.0
1001
ACDBBLOCKREPETAG
1070
     1
1071
       33
1005
12A76D
  0
LINE
  5
12A76E
  8
OBJECT
 10
602.00000000012187
 20
-152.0000000000031
 30
0.0
 11
602.00000000012187
 21
-149.00000000000409
 31
0.0
1001
ACDBBLOCKREPETAG
1070
     1
1071
       34
1005
12A76E
  0
ARC
  5
12A76F
  8
OBJECT
 10
599.00000000012164
 20
-149.00000000000409
 30
0.0
 40
3.0
 50
0.0
 51
90.0
1001
ACDBBLOCKREPETAG
1070
     1
1071
       35
1005
12A76F
  0
LINE
  5
12A770
  8
OBJECT
 10
599.00000000012164
 20
-146.00000000000409
 30
0.0
 11
481.00000000012182
 21
-146.0000000000023
 31
0.0
1001
ACDBBLOCKREPETAG
1070
     1
1071
       36
1005
12A770
  0
LINE
  5
12A771
  8
HIDDEN
 10
502.00000000012182
 20
-144.00000000000321
 30
0.0
 11
578.00000000012164
 21
-144.00000000000321
 31
0.0
1001
ACDBBLOCKREPETAG
1070
     1
1071
      423
1005
12A771
  0
INSERT
  5
12A772
  8
OBJECT
  2
*U19
 10
0.0
 20
0.0
 30
0.0
  0
LINE
  5
12A773
  8
OBJECT
 10
133.00000000004169
 20
-99.000000000003183
 30
0.0
 11
133.00000000004169
 21
-92.000000000003183
 31
0.0
1001
ACDBBLOCKREPETAG
1070
     1
1071
        1
1005
12A773
  0
LINE
  5
12A774
  8
OBJECT
 10
133.00000000004169
 20
-92.000000000003183
 30
0.0
 11
227.00000000004181
 21
-92.000000000003183
 31
0.0
1001
ACDBBLOCKREPETAG
1070
     1
1071
        2
1005
12A774
  0
LINE
  5
12A775
  8
OBJECT
 10
227.00000000004181
 20
-92.000000000003183
 30
0.0
 11
227.00000000004181
 21
-99.000000000003183
 31
0.0
1001
ACDBBLOCKREPETAG
1070
     1
1071
        3
1005
12A775
  0
LINE
  5
12A776
  8
OBJECT
 10
227.00000000004181
 20
-99.000000000003183
 30
0.0
 11
133.00000000004169
 21
-99.000000000003183
 31
0.0
1001
ACDBBLOCKREPETAG
1070
     1
1071
        4
1005
12A776
  0
LINE
  5
12A777
  8
OBJECT
 10
136.00000000004169
 20
-99.000000000003183
 30
0.0
 11
136.00000000004169
 21
-135.00000000000321
 31
0.0
1001
ACDBBLOCKREPETAG
1070
     1
1071
        5
1005
12A777
  0
LINE
  5
12A778
  8
OBJECT
 10
136.00000000004169
 20
-135.00000000000321
 30
0.0
 11
224.00000000004181
 21
-135.00000000000321
 31
0.0
1001
ACDBBLOCKREPETAG
1070
     1
1071
        6
1005
12A778
  0
LINE
  5
12A779
  8
OBJECT
 10
224.00000000004181
 20
-135.00000000000321
 30
0.0
 11
224.00000000004181
 21
-99.000000000003183
 31
0.0
1001
ACDBBLOCKREPETAG
1070
     1
1071
        7
1005
12A779
  0
LINE
  5
12A77A
  8
OBJECT
 10
140.50000000004181
 20
-139.00000000000321
 30
0.0
 11
140.50000000004181
 21
-146.00000000000321
 31
0.0
1001
ACDBBLOCKREPETAG
1070
     1
1071
        8
1005
12A77A
  0
LINE
  5
12A77B
  8
OBJECT
 10
219.50000000004189
 20
-146.00000000000321
 30
0.0
 11
219.50000000004189
 21
-139.00000000000321
 31
0.0
1001
ACDBBLOCKREPETAG
1070
     1
1071
        9
1005
12A77B
  0
LINE
  5
12A77C
  8
OBJECT
 10
219.50000000004189
 20
-139.00000000000321
 30
0.0
 11
140.50000000004181
 21
-139.00000000000321
 31
0.0
1001
ACDBBLOCKREPETAG
1070
     1
1071
       10
1005
12A77C
  0
LINE
  5
12A77D
  8
OBJECT
 10
136.00000000004169
 20
-135.00000000000321
 30
0.0
 11
140.50000000004181
 21
-139.00000000000321
 31
0.0
1001
ACDBBLOCKREPETAG
1070
     1
1071
       11
1005
12A77D
  0
LINE
  5
12A77E
  8
OBJECT
 10
224.00000000004181
 20
-135.00000000000321
 30
0.0
 11
219.50000000004189
 21
-139.00000000000321
 31
0.0
1001
ACDBBLOCKREPETAG
1070
     1
1071
       12
1005
12A77E
  0
LINE
  5
12A77F
  8
OBJECT
 10
118.00000000004179
 20
-149.0000000000023
 30
0.0
 11
118.00000000004179
 21
-152.0000000000031
 31
0.0
1001
ACDBBLOCKREPETAG
1070
     1
1071
       13
1005
12A77F
  0
ARC
  5
12A780
  8
OBJECT
 10
121.00000000004179
 20
-149.0000000000023
 30
0.0
 40
3.0
 50
90.0
 51
180.0
1001
ACDBBLOCKREPETAG
1070
     1
1071
       14
1005
12A780
  0
LINE
  5
12A781
  8
OBJECT
 10
242.00000000004181
 20
-152.0000000000031
 30
0.0
 11
242.00000000004181
 21
-149.00000000000409
 31
0.0
1001
ACDBBLOCKREPETAG
1070
     1
1071
       15
1005
12A781
  0
ARC
  5
12A782
  8
OBJECT
 10
239.00000000004181
 20
-149.00000000000409
 30
0.0
 40
3.0
 50
0.0
 51
90.0
1001
ACDBBLOCKREPETAG
1070
     1
1071
       16
1005
12A782
  0
LINE
  5
12A783
  8
OBJECT
 10
239.00000000004181
 20
-146.00000000000409
 30
0.0
 11
121.00000000004179
 21
-146.0000000000023
 31
0.0
1001
ACDBBLOCKREPETAG
1070
     1
1071
       17
1005
12A783
  0
LINE
  5
12A784
  8
HIDDEN
 10
150.00000000004181
 20
-144.00000000000321
 30
0.0
 11
210.00000000004181
 21
-144.00000000000321
 31
0.0
1001
ACDBBLOCKREPETAG
1070
     1
1071
      420
1005
12A784
  0
POLYLINE
  5
12A785
  8
HIDDEN
 66
     1
 10
0.0
 20
0.0
 30
0.0
 70
     1
1001
ACDBBLOCKREPETAG
1070
     1
1071
      105
1005
0
  0
VERTEX
  5
12AC1B
  8
HIDDEN
 10
359.99999999987818
 20
0.0
 30
0.0
  0
VERTEX
  5
12AC1C
  8
HIDDEN
 10
719.99999999975626
 20
0.0
 30
0.0
  0
VERTEX
  5
12AC1D
  8
HIDDEN
 10
719.99999999975626
 20
-463.99999999984158
 30
0.0
  0
VERTEX
  5
12AC1E
  8
HIDDEN
 10
359.99999999987818
 20
-463.99999999984158
 30
0.0
  0
SEQEND
  5
12AC1F
  8
HIDDEN
  0
POLYLINE
  5
12A786
  8
HIDDEN
 66
     1
 10
0.0
 20
0.0
 30
0.0
 70
     1
1001
ACDBBLOCKREPETAG
1070
     1
1071
      110
1005
0
  0
VERTEX
  5
12AC20
  8
HIDDEN
 10
0.0
 20
0.0
 30
0.0
  0
VERTEX
  5
12AC21
  8
HIDDEN
 10
359.99999999987818
 20
0.0
 30
0.0
  0
VERTEX
  5
12AC22
  8
HIDDEN
 10
359.99999999987818
 20
-463.99999999984158
 30
0.0
  0
VERTEX
  5
12AC23
  8
HIDDEN
 10
0.0
 20
-463.99999999984158
 30
0.0
  0
SEQEND
  5
12AC24
  8
HIDDEN
  0
POLYLINE
  5
12A787
  8
HIDDEN
 66
     1
 10
0.0
 20
0.0
 30
0.0
 70
     1
1001
ACDBBLOCKREPETAG
1070
     1
1071
      120
1005
0
  0
VERTEX
  5
12AC25
  8
HIDDEN
 10
359.99999999987818
 20
-463.99999999984158
 30
0.0
  0
VERTEX
  5
12AC26
  8
HIDDEN
 10
719.99999999975626
 20
-463.99999999984158
 30
0.0
  0
VERTEX
  5
12AC27
  8
HIDDEN
 10
719.99999999975626
 20
-927.99999999968372
 30
0.0
  0
VERTEX
  5
12AC28
  8
HIDDEN
 10
359.99999999987818
 20
-927.99999999968372
 30
0.0
  0
SEQEND
  5
12AC29
  8
HIDDEN
  0
POLYLINE
  5
12A788
  8
HIDDEN
 66
     1
 10
0.0
 20
0.0
 30
0.0
 70
     1
1001
ACDBBLOCKREPETAG
1070
     1
1071
      125
1005
0
  0
VERTEX
  5
12AC2A
  8
HIDDEN
 10
0.0
 20
-463.99999999984158
 30
0.0
  0
VERTEX
  5
12AC2B
  8
HIDDEN
 10
359.99999999987818
 20
-463.99999999984158
 30
0.0
  0
VERTEX
  5
12AC2C
  8
HIDDEN
 10
359.99999999987818
 20
-927.99999999968372
 30
0.0
  0
VERTEX
  5
12AC2D
  8
HIDDEN
 10
0.0
 20
-927.99999999968372
 30
0.0
  0
SEQEND
  5
12AC2E
  8
HIDDEN
  0
TEXT
  5
12A789
  8
SLIM
 10
508.28571428553232
 20
-907.999999999691
 30
0.0
 40
48.0
  1
A4
 41
0.75
1001
ACDBBLOCKREPETAG
1070
     1
1071
      119
1005
0
  0
TEXT
  5
12A78A
  8
SLIM
 10
149.14285714279711
 20
-907.999999999691
 30
0.0
 40
48.0
  1
A3
 41
0.75
1001
ACDBBLOCKREPETAG
1070
     1
1071
      119
1005
0
  0
TEXT
  5
12A78B
  8
SLIM
 10
509.1428571426751
 20
-443.99999999984919
 30
0.0
 40
48.0
  1
A2
 41
0.75
1001
ACDBBLOCKREPETAG
1070
     1
1071
      119
1005
0
  0
TEXT
  5
12A78C
  8
SLIM
 10
156.85714285708281
 20
-443.99999999984919
 30
0.0
 40
48.0
  1
A1
 41
0.75
1001
ACDBBLOCKREPETAG
1070
     1
1071
      119
1005
0
  0
TEXT
  5
12A78D
  8
SLIM
 10
0.0000035665234464
 20
24.000004585317601
 30
0.0
 40
79.999999999972701
  1
枝管バリエーション
 41
0.75
1001
ACDBBLOCKREPETAG
1070
     1
1071
      119
1005
1229F1
  0
TEXT
  5
12A78E
  8
SLIM
 10
0.0
 20
369.99999999999989
 30
0.0
 40
100.0
  1
4SSRT-AX-S
 41
0.75
  0
LINE
  5
12A78F
  8
SLIM
 10
4414.9999999999918
 20
-659.47385309434696
 30
0.0
 11
4419.4738530943396
 21
-654.99999999999966
 31
0.0
1001
ACDBBLOCKREPETAG
1070
     1
1071
        0
1005
0
1001
ACAD
1010
0.0
1020
0.0
1030
0.0
  0
LINE
  5
12A790
  8
SLIM
 10
4414.9999999999927
 20
-677.43436533648492
 30
0.0
 11
4437.4343653364776
 21
-654.99999999999966
 31
0.0
1001
ACAD
1010
0.0
1020
0.0
1030
0.0
1001
ACDBBLOCKREPETAG
1070
     1
1071
       14
1005
12A790
  0
LINE
  5
12A791
  8
SLIM
 10
4414.9999999999927
 20
-695.39487757862275
 30
0.0
 11
4455.3948775786157
 21
-654.99999999999966
 31
0.0
1001
ACAD
1010
0.0
1020
0.0
1030
0.0
1001
ACDBBLOCKREPETAG
1070
     1
1071
       15
1005
12A791
  0
LINE
  5
12A792
  8
SLIM
 10
4414.9999999999927
 20
-713.35538982076082
 30
0.0
 11
4473.3553898207538
 21
-654.99999999999966
 31
0.0
1001
ACAD
1010
0.0
1020
0.0
1030
0.0
1001
ACDBBLOCKREPETAG
1070
     1
1071
       16
1005
12A792
  0
LINE
  5
12A793
  8
SLIM
 10
4414.9999999999927
 20
-731.31590206289854
 30
0.0
 11
4491.3159020628918
 21
-654.99999999999966
 31
0.0
1001
ACAD
1010
0.0
1020
0.0
1030
0.0
1001
ACDBBLOCKREPETAG
1070
     1
1071
       17
1005
12A793
  0
LINE
  5
12A794
  8
SLIM
 10
4414.9999999999927
 20
-749.27641430503661
 30
0.0
 11
4509.2764143050308
 21
-654.99999999999966
 31
0.0
1001
ACAD
1010
0.0
1020
0.0
1030
0.0
1001
ACDBBLOCKREPETAG
1070
     1
1071
       18
1005
12A794
  0
LINE
  5
12A795
  8
SLIM
 10
4414.9999999999955
 20
-767.23692654717433
 30
0.0
 11
4527.2369265471689
 21
-654.99999999999966
 31
0.0
1001
ACAD
1010
0.0
1020
0.0
1030
0.0
1001
ACDBBLOCKREPETAG
1070
     1
1071
       19
1005
12A795
  0
LINE
  5
12A796
  8
SLIM
 10
4414.9999999999955
 20
-785.1974387893124
 30
0.0
 11
4545.1974387893069
 21
-654.99999999999966
 31
0.0
1001
ACAD
1010
0.0
1020
0.0
1030
0.0
1001
ACDBBLOCKREPETAG
1070
     1
1071
       20
1005
12A796
  0
LINE
  5
12A797
  8
SLIM
 10
4414.9999999999973
 20
-803.15795103145024
 30
0.0
 11
4563.157951031445
 21
-654.99999999999966
 31
0.0
1001
ACAD
1010
0.0
1020
0.0
1030
0.0
1001
ACDBBLOCKREPETAG
1070
     1
1071
       21
1005
12A797
  0
LINE
  5
12A798
  8
SLIM
 10
4415.1454972543161
 20
-820.97296601926894
 30
0.0
 11
4581.1184632735849
 21
-654.99999999999966
 31
0.0
1001
ACAD
1010
0.0
1020
0.0
1030
0.0
1001
ACDBBLOCKREPETAG
1070
     1
1071
       22
1005
12A798
  0
LINE
  5
12A799
  8
SLIM
 10
4417.1046274952441
 20
-836.97434802047894
 30
0.0
 11
4585.0000000000073
 21
-669.07897551571602
 31
0.0
1001
ACAD
1010
0.0
1020
0.0
1030
0.0
1001
ACDBBLOCKREPETAG
1070
     1
1071
       23
1005
12A799
  0
LINE
  5
12A79A
  8
SLIM
 10
4419.0637577361713
 20
-852.97573002168929
 30
0.0
 11
4585.0000000000073
 21
-687.03948775785454
 31
0.0
1001
ACAD
1010
0.0
1020
0.0
1030
0.0
1001
ACDBBLOCKREPETAG
1070
     1
1071
       24
1005
12A79A
  0
LINE
  5
12A79B
  8
SLIM
 10
4420.0
 20
-869.99999999999955
 30
0.0
 11
4585.0000000000073
 21
-704.99999999999341
 31
0.0
1001
ACAD
1010
0.0
1020
0.0
1030
0.0
1001
ACDBBLOCKREPETAG
1070
     1
1071
       25
1005
12A79B
  0
LINE
  5
12A79C
  8
SLIM
 10
4420.0
 20
-887.96051224213795
 30
0.0
 11
4585.0000000000073
 21
-722.96051224213215
 31
0.0
1001
ACAD
1010
0.0
1020
0.0
1030
0.0
1001
ACDBBLOCKREPETAG
1070
     1
1071
       26
1005
12A79C
  0
LINE
  5
12A79D
  8
SLIM
 10
4420.0
 20
-905.9210244842759
 30
0.0
 11
4585.0000000000073
 21
-740.92102448427045
 31
0.0
1001
ACAD
1010
0.0
1020
0.0
1030
0.0
1001
ACDBBLOCKREPETAG
1070
     1
1071
       27
1005
12A79D
  0
LINE
  5
12A79E
  8
SLIM
 10
4420.0
 20
-923.88153672641431
 30
0.0
 11
4585.0000000000036
 21
-758.88153672640942
 31
0.0
1001
ACAD
1010
0.0
1020
0.0
1030
0.0
1001
ACDBBLOCKREPETAG
1070
     1
1071
       28
1005
12A79E
  0
LINE
  5
12A79F
  8
SLIM
 10
4420.0
 20
-941.84204896855272
 30
0.0
 11
4585.0000000000036
 21
-776.84204896854817
 31
0.0
1001
ACAD
1010
0.0
1020
0.0
1030
0.0
1001
ACDBBLOCKREPETAG
1070
     1
1071
       29
1005
12A79F
  0
LINE
  5
12A7A0
  8
SLIM
 10
4420.0
 20
-959.80256121069101
 30
0.0
 11
4585.0000000000036
 21
-794.80256121068692
 31
0.0
1001
ACAD
1010
0.0
1020
0.0
1030
0.0
1001
ACDBBLOCKREPETAG
1070
     1
1071
       30
1005
12A7A0
  0
LINE
  5
12A7A1
  8
SLIM
 10
4420.0
 20
-977.76307345282919
 30
0.0
 11
4585.0000000000009
 21
-812.76307345282555
 31
0.0
1001
ACAD
1010
0.0
1020
0.0
1030
0.0
1001
ACDBBLOCKREPETAG
1070
     1
1071
       31
1005
12A7A1
  0
LINE
  5
12A7A2
  8
SLIM
 10
4430.0
 20
-985.7235856949676
 30
0.0
 11
4430.7235856949683
 21
-984.99999999999955
 31
0.0
1001
ACAD
1010
0.0
1020
0.0
1030
0.0
1001
ACDBBLOCKREPETAG
1070
     1
1071
       32
1005
12A7A2
  0
LINE
  5
12A7A3
  8
SLIM
 10
4430.7235856949683
 20
-984.99999999999955
 30
0.0
 11
4583.4738280308084
 21
-832.24975766415889
 31
0.0
1001
ACAD
1010
0.0
1020
0.0
1030
0.0
1001
ACDBBLOCKREPETAG
1070
     1
1071
       33
1005
12A7A3
  0
LINE
  5
12A7A4
  8
SLIM
 10
4430.0
 20
-1003.684097937106
 30
0.0
 11
4448.6840979371054
 21
-984.99999999999955
 31
0.0
1001
ACAD
1010
0.0
1020
0.0
1030
0.0
1001
ACDBBLOCKREPETAG
1070
     1
1071
       34
1005
12A7A4
  0
LINE
  5
12A7A5
  8
SLIM
 10
4448.6840979371054
 20
-984.99999999999955
 30
0.0
 11
4580.9680345671368
 21
-852.71606336996854
 31
0.0
1001
ACAD
1010
0.0
1020
0.0
1030
0.0
1001
ACDBBLOCKREPETAG
1070
     1
1071
       35
1005
12A7A5
  0
LINE
  5
12A7A6
  8
SLIM
 10
4446.6446101792453
 20
-1004.999999999999
 30
0.0
 11
4466.6446101792453
 21
-984.99999999999955
 31
0.0
1001
ACAD
1010
0.0
1020
0.0
1030
0.0
1001
ACDBBLOCKREPETAG
1070
     1
1071
       36
1005
12A7A6
  0
LINE
  5
12A7A7
  8
SLIM
 10
4466.6446101792453
 20
-984.99999999999943
 30
0.0
 11
4580.0
 21
-871.64461017924452
 31
0.0
1001
ACAD
1010
0.0
1020
0.0
1030
0.0
1001
ACDBBLOCKREPETAG
1070
     1
1071
       37
1005
12A7A7
  0
LINE
  5
12A7A8
  8
SLIM
 10
4464.6051224213843
 20
-1004.999999999999
 30
0.0
 11
4484.6051224213843
 21
-984.99999999999943
 31
0.0
1001
ACAD
1010
0.0
1020
0.0
1030
0.0
1001
ACDBBLOCKREPETAG
1070
     1
1071
       38
1005
12A7A8
  0
LINE
  5
12A7A9
  8
SLIM
 10
4484.6051224213843
 20
-984.99999999999943
 30
0.0
 11
4580.0
 21
-889.60512242138304
 31
0.0
1001
ACAD
1010
0.0
1020
0.0
1030
0.0
1001
ACDBBLOCKREPETAG
1070
     1
1071
       39
1005
12A7A9
  0
LINE
  5
12A7AA
  8
SLIM
 10
4482.5656346635215
 20
-1004.999999999999
 30
0.0
 11
4502.5656346635215
 21
-984.99999999999943
 31
0.0
1001
ACAD
1010
0.0
1020
0.0
1030
0.0
1001
ACDBBLOCKREPETAG
1070
     1
1071
       40
1005
12A7AA
  0
LINE
  5
12A7AB
  8
SLIM
 10
4502.5656346635215
 20
-984.99999999999943
 30
0.0
 11
4579.9999999999991
 21
-907.56563466352145
 31
0.0
1001
ACAD
1010
0.0
1020
0.0
1030
0.0
1001
ACDBBLOCKREPETAG
1070
     1
1071
       41
1005
12A7AB
  0
LINE
  5
12A7AC
  8
SLIM
 10
4500.5261469056577
 20
-1004.999999999999
 30
0.0
 11
4520.5261469056577
 21
-984.99999999999943
 31
0.0
1001
ACAD
1010
0.0
1020
0.0
1030
0.0
1001
ACDBBLOCKREPETAG
1070
     1
1071
       42
1005
12A7AC
  0
LINE
  5
12A7AD
  8
SLIM
 10
4520.5261469056577
 20
-984.9999999999992
 30
0.0
 11
4579.9999999999991
 21
-925.5261469056602
 31
0.0
1001
ACAD
1010
0.0
1020
0.0
1030
0.0
1001
ACDBBLOCKREPETAG
1070
     1
1071
       43
1005
12A7AD
  0
LINE
  5
12A7AE
  8
SLIM
 10
4518.4866591477967
 20
-1004.999999999999
 30
0.0
 11
4538.4866591478003
 21
-984.9999999999992
 31
0.0
1001
ACAD
1010
0.0
1020
0.0
1030
0.0
1001
ACDBBLOCKREPETAG
1070
     1
1071
       44
1005
12A7AE
  0
LINE
  5
12A7AF
  8
SLIM
 10
4538.4866591478003
 20
-984.9999999999992
 30
0.0
 11
4579.9999999999991
 21
-943.48665914779872
 31
0.0
1001
ACAD
1010
0.0
1020
0.0
1030
0.0
1001
ACDBBLOCKREPETAG
1070
     1
1071
       45
1005
12A7AF
  0
LINE
  5
12A7B0
  8
SLIM
 10
4536.4471713899347
 20
-1004.999999999999
 30
0.0
 11
4556.4471713899356
 21
-984.9999999999992
 31
0.0
1001
ACAD
1010
0.0
1020
0.0
1030
0.0
1001
ACDBBLOCKREPETAG
1070
     1
1071
       46
1005
12A7B0
  0
LINE
  5
12A7B1
  8
SLIM
 10
4556.4471713899356
 20
-984.9999999999992
 30
0.0
 11
4579.9999999999982
 21
-961.44717138993735
 31
0.0
1001
ACAD
1010
0.0
1020
0.0
1030
0.0
1001
ACDBBLOCKREPETAG
1070
     1
1071
       47
1005
12A7B1
  0
LINE
  5
12A7B2
  8
SLIM
 10
4554.4076836320728
 20
-1004.999999999999
 30
0.0
 11
4570.0
 21
-989.40768363207383
 31
0.0
1001
ACAD
1010
0.0
1020
0.0
1030
0.0
1001
ACDBBLOCKREPETAG
1070
     1
1071
       48
1005
12A7B2
  0
LINE
  5
12A7B3
  8
SLIM
 10
4574.4076836320728
 20
-984.9999999999992
 30
0.0
 11
4579.9999999999982
 21
-979.40768363207553
 31
0.0
1001
ACAD
1010
0.0
1020
0.0
1030
0.0
1001
ACDBBLOCKREPETAG
1070
     1
1071
       49
1005
12A7B3
  0
LINE
  5
12A7B4
  8
OBJECT
 10
4414.9999999999918
 20
-654.99999999999966
 30
0.0
 11
4414.9999999999973
 21
-819.78460339903484
 31
0.0
1001
ACDBBLOCKREPETAG
1070
     1
1071
        1
1005
12A7B4
  0
LINE
  5
12A7B5
  8
OBJECT
 10
4585.0000000000073
 20
-654.99999999999966
 30
0.0
 11
4585.0000000000009
 21
-819.78460339904143
 31
0.0
1001
ACDBBLOCKREPETAG
1070
     1
1071
        2
1005
12A7B5
  0
LINE
  5
12A7B6
  8
OBJECT
 10
4585.0000000000073
 20
-654.99999999999966
 30
0.0
 11
4414.9999999999918
 21
-654.99999999999966
 31
0.0
1001
ACDBBLOCKREPETAG
1070
     1
1071
        3
1005
12A7B6
  0
LINE
  5
12A7B7
  8
OBJECT
 10
4579.9999999999982
 20
-984.9999999999992
 30
0.0
 11
4420.0
 21
-984.99999999999955
 31
0.0
1001
ACDBBLOCKREPETAG
1070
     1
1071
        4
1005
12A7B7
  0
LINE
  5
12A7B8
  8
OBJECT
 10
4414.9999999999973
 20
-819.78460339903484
 30
0.0
 11
4420.0
 21
-860.62257748298634
 31
0.0
1001
ACDBBLOCKREPETAG
1070
     1
1071
        6
1005
12A7B8
  0
LINE
  5
12A7B9
  8
OBJECT
 10
4420.0
 20
-860.62257748298634
 30
0.0
 11
4420.0
 21
-984.99999999999955
 31
0.0
1001
ACDBBLOCKREPETAG
1070
     1
1071
        7
1005
12A7B9
  0
LINE
  5
12A7BA
  8
OBJECT
 10
4585.0000000000009
 20
-819.78460339904143
 30
0.0
 11
4580.0
 21
-860.62257748298634
 31
0.0
1001
ACDBBLOCKREPETAG
1070
     1
1071
        8
1005
12A7BA
  0
LINE
  5
12A7BB
  8
OBJECT
 10
4580.0
 20
-860.62257748298634
 30
0.0
 11
4579.9999999999982
 21
-984.9999999999992
 31
0.0
1001
ACDBBLOCKREPETAG
1070
     1
1071
        9
1005
12A7BB
  0
LINE
  5
12A7BC
  8
OBJECT
 10
4430.0
 20
-984.99999999999955
 30
0.0
 11
4430.0
 21
-1004.999999999999
 31
0.0
1001
ACDBBLOCKREPETAG
1070
     1
1071
       10
1005
12A7BC
  0
LINE
  5
12A7BD
  8
OBJECT
 10
4430.0
 20
-1004.999999999999
 30
0.0
 11
4570.0
 21
-1004.999999999999
 31
0.0
1001
ACDBBLOCKREPETAG
1070
     1
1071
       11
1005
12A7BD
  0
LINE
  5
12A7BE
  8
OBJECT
 10
4570.0
 20
-1004.999999999999
 30
0.0
 11
4570.0
 21
-984.9999999999992
 31
0.0
1001
ACDBBLOCKREPETAG
1070
     1
1071
       12
1005
12A7BE
  0
LINE
  5
12A7BF
  8
SLIM
 10
3914.9999999999941
 20
-659.47385309434696
 30
0.0
 11
3919.47385309434
 21
-654.99999999999966
 31
0.0
1001
ACDBBLOCKREPETAG
1070
     1
1071
        0
1005
0
1001
ACAD
1010
0.0
1020
0.0
1030
0.0
  0
LINE
  5
12A7C0
  8
SLIM
 10
3914.9999999999941
 20
-677.43436533648492
 30
0.0
 11
3937.434365336479
 21
-654.99999999999966
 31
0.0
1001
ACAD
1010
0.0
1020
0.0
1030
0.0
1001
ACDBBLOCKREPETAG
1070
     1
1071
       14
1005
12A7C0
  0
LINE
  5
12A7C1
  8
SLIM
 10
3914.9999999999941
 20
-695.39487757862275
 30
0.0
 11
3955.394877578618
 21
-654.99999999999966
 31
0.0
1001
ACAD
1010
0.0
1020
0.0
1030
0.0
1001
ACDBBLOCKREPETAG
1070
     1
1071
       15
1005
12A7C1
  0
LINE
  5
12A7C2
  8
SLIM
 10
3914.9999999999941
 20
-713.35538982076082
 30
0.0
 11
3973.3553898207551
 21
-654.99999999999966
 31
0.0
1001
ACAD
1010
0.0
1020
0.0
1030
0.0
1001
ACDBBLOCKREPETAG
1070
     1
1071
       16
1005
12A7C2
  0
LINE
  5
12A7C3
  8
SLIM
 10
3914.999999999995
 20
-731.31590206289854
 30
0.0
 11
3991.3159020628941
 21
-654.99999999999966
 31
0.0
1001
ACAD
1010
0.0
1020
0.0
1030
0.0
1001
ACDBBLOCKREPETAG
1070
     1
1071
       17
1005
12A7C3
  0
LINE
  5
12A7C4
  8
SLIM
 10
3914.999999999995
 20
-749.27641430503661
 30
0.0
 11
4009.2764143050308
 21
-654.99999999999966
 31
0.0
1001
ACAD
1010
0.0
1020
0.0
1030
0.0
1001
ACDBBLOCKREPETAG
1070
     1
1071
       18
1005
12A7C4
  0
LINE
  5
12A7C5
  8
SLIM
 10
3914.999999999995
 20
-767.23692654717433
 30
0.0
 11
4027.2369265471689
 21
-654.99999999999966
 31
0.0
1001
ACAD
1010
0.0
1020
0.0
1030
0.0
1001
ACDBBLOCKREPETAG
1070
     1
1071
       19
1005
12A7C5
  0
LINE
  5
12A7C6
  8
SLIM
 10
3914.999999999995
 20
-785.1974387893124
 30
0.0
 11
4045.1974387893069
 21
-654.99999999999966
 31
0.0
1001
ACAD
1010
0.0
1020
0.0
1030
0.0
1001
ACDBBLOCKREPETAG
1070
     1
1071
       20
1005
12A7C6
  0
LINE
  5
12A7C7
  8
SLIM
 10
3914.9999999999968
 20
-803.15795103145024
 30
0.0
 11
4063.157951031445
 21
-654.99999999999966
 31
0.0
1001
ACAD
1010
0.0
1020
0.0
1030
0.0
1001
ACDBBLOCKREPETAG
1070
     1
1071
       21
1005
12A7C7
  0
LINE
  5
12A7C8
  8
SLIM
 10
3915.1454972543161
 20
-820.97296601926894
 30
0.0
 11
4081.1184632735849
 21
-654.99999999999966
 31
0.0
1001
ACAD
1010
0.0
1020
0.0
1030
0.0
1001
ACDBBLOCKREPETAG
1070
     1
1071
       22
1005
12A7C8
  0
LINE
  5
12A7C9
  8
SLIM
 10
3917.104627495245
 20
-836.97434802047894
 30
0.0
 11
4085.0000000000068
 21
-669.07897551571602
 31
0.0
1001
ACAD
1010
0.0
1020
0.0
1030
0.0
1001
ACDBBLOCKREPETAG
1070
     1
1071
       23
1005
12A7C9
  0
LINE
  5
12A7CA
  8
SLIM
 10
3919.0637577361722
 20
-852.97573002168929
 30
0.0
 11
4085.0000000000068
 21
-687.03948775785454
 31
0.0
1001
ACAD
1010
0.0
1020
0.0
1030
0.0
1001
ACDBBLOCKREPETAG
1070
     1
1071
       24
1005
12A7CA
  0
LINE
  5
12A7CB
  8
SLIM
 10
3920.0
 20
-869.99999999999955
 30
0.0
 11
4085.0000000000068
 21
-704.99999999999341
 31
0.0
1001
ACAD
1010
0.0
1020
0.0
1030
0.0
1001
ACDBBLOCKREPETAG
1070
     1
1071
       25
1005
12A7CB
  0
LINE
  5
12A7CC
  8
SLIM
 10
3920.0
 20
-887.96051224213795
 30
0.0
 11
4085.0000000000059
 21
-722.96051224213215
 31
0.0
1001
ACAD
1010
0.0
1020
0.0
1030
0.0
1001
ACDBBLOCKREPETAG
1070
     1
1071
       26
1005
12A7CC
  0
LINE
  5
12A7CD
  8
SLIM
 10
3920.0
 20
-905.9210244842759
 30
0.0
 11
4085.0000000000059
 21
-740.92102448427045
 31
0.0
1001
ACAD
1010
0.0
1020
0.0
1030
0.0
1001
ACDBBLOCKREPETAG
1070
     1
1071
       27
1005
12A7CD
  0
LINE
  5
12A7CE
  8
SLIM
 10
3920.0
 20
-923.88153672641431
 30
0.0
 11
4085.000000000005
 21
-758.88153672640942
 31
0.0
1001
ACAD
1010
0.0
1020
0.0
1030
0.0
1001
ACDBBLOCKREPETAG
1070
     1
1071
       28
1005
12A7CE
  0
LINE
  5
12A7CF
  8
SLIM
 10
3920.0
 20
-941.84204896855272
 30
0.0
 11
4085.0000000000041
 21
-776.84204896854817
 31
0.0
1001
ACAD
1010
0.0
1020
0.0
1030
0.0
1001
ACDBBLOCKREPETAG
1070
     1
1071
       29
1005
12A7CF
  0
LINE
  5
12A7D0
  8
SLIM
 10
3920.0
 20
-959.80256121069101
 30
0.0
 11
4085.0000000000041
 21
-794.80256121068692
 31
0.0
1001
ACAD
1010
0.0
1020
0.0
1030
0.0
1001
ACDBBLOCKREPETAG
1070
     1
1071
       30
1005
12A7D0
  0
LINE
  5
12A7D1
  8
SLIM
 10
3920.0
 20
-977.76307345282919
 30
0.0
 11
4085.0000000000032
 21
-812.76307345282555
 31
0.0
1001
ACAD
1010
0.0
1020
0.0
1030
0.0
1001
ACDBBLOCKREPETAG
1070
     1
1071
       31
1005
12A7D1
  0
LINE
  5
12A7D2
  8
SLIM
 10
3930.0
 20
-985.7235856949676
 30
0.0
 11
3930.7235856949678
 21
-984.99999999999955
 31
0.0
1001
ACAD
1010
0.0
1020
0.0
1030
0.0
1001
ACDBBLOCKREPETAG
1070
     1
1071
       32
1005
12A7D2
  0
LINE
  5
12A7D3
  8
SLIM
 10
3930.7235856949678
 20
-984.99999999999955
 30
0.0
 11
4083.4738280308079
 21
-832.24975766415889
 31
0.0
1001
ACAD
1010
0.0
1020
0.0
1030
0.0
1001
ACDBBLOCKREPETAG
1070
     1
1071
       33
1005
12A7D3
  0
LINE
  5
12A7D4
  8
SLIM
 10
3930.0
 20
-1003.684097937106
 30
0.0
 11
3948.6840979371068
 21
-984.99999999999955
 31
0.0
1001
ACAD
1010
0.0
1020
0.0
1030
0.0
1001
ACDBBLOCKREPETAG
1070
     1
1071
       34
1005
12A7D4
  0
LINE
  5
12A7D5
  8
SLIM
 10
3948.6840979371068
 20
-984.99999999999955
 30
0.0
 11
4080.9680345671368
 21
-852.71606336996854
 31
0.0
1001
ACAD
1010
0.0
1020
0.0
1030
0.0
1001
ACDBBLOCKREPETAG
1070
     1
1071
       35
1005
12A7D5
  0
LINE
  5
12A7D6
  8
SLIM
 10
3946.6446101792449
 20
-1004.999999999999
 30
0.0
 11
3966.6446101792449
 21
-984.99999999999955
 31
0.0
1001
ACAD
1010
0.0
1020
0.0
1030
0.0
1001
ACDBBLOCKREPETAG
1070
     1
1071
       36
1005
12A7D6
  0
LINE
  5
12A7D7
  8
SLIM
 10
3966.6446101792449
 20
-984.99999999999943
 30
0.0
 11
4080.0
 21
-871.64461017924452
 31
0.0
1001
ACAD
1010
0.0
1020
0.0
1030
0.0
1001
ACDBBLOCKREPETAG
1070
     1
1071
       37
1005
12A7D7
  0
LINE
  5
12A7D8
  8
SLIM
 10
3964.6051224213829
 20
-1004.999999999999
 30
0.0
 11
3984.6051224213829
 21
-984.99999999999943
 31
0.0
1001
ACAD
1010
0.0
1020
0.0
1030
0.0
1001
ACDBBLOCKREPETAG
1070
     1
1071
       38
1005
12A7D8
  0
LINE
  5
12A7D9
  8
SLIM
 10
3984.6051224213829
 20
-984.99999999999943
 30
0.0
 11
4080.0
 21
-889.60512242138304
 31
0.0
1001
ACAD
1010
0.0
1020
0.0
1030
0.0
1001
ACDBBLOCKREPETAG
1070
     1
1071
       39
1005
12A7D9
  0
LINE
  5
12A7DA
  8
SLIM
 10
3982.565634663521
 20
-1004.999999999999
 30
0.0
 11
4002.565634663521
 21
-984.99999999999943
 31
0.0
1001
ACAD
1010
0.0
1020
0.0
1030
0.0
1001
ACDBBLOCKREPETAG
1070
     1
1071
       40
1005
12A7DA
  0
LINE
  5
12A7DB
  8
SLIM
 10
4002.565634663521
 20
-984.99999999999943
 30
0.0
 11
4079.9999999999991
 21
-907.56563466352145
 31
0.0
1001
ACAD
1010
0.0
1020
0.0
1030
0.0
1001
ACDBBLOCKREPETAG
1070
     1
1071
       41
1005
12A7DB
  0
LINE
  5
12A7DC
  8
SLIM
 10
4000.5261469056582
 20
-1004.999999999999
 30
0.0
 11
4020.52614690566
 21
-984.99999999999943
 31
0.0
1001
ACAD
1010
0.0
1020
0.0
1030
0.0
1001
ACDBBLOCKREPETAG
1070
     1
1071
       42
1005
12A7DC
  0
LINE
  5
12A7DD
  8
SLIM
 10
4020.52614690566
 20
-984.9999999999992
 30
0.0
 11
4079.9999999999991
 21
-925.5261469056602
 31
0.0
1001
ACAD
1010
0.0
1020
0.0
1030
0.0
1001
ACDBBLOCKREPETAG
1070
     1
1071
       43
1005
12A7DD
  0
LINE
  5
12A7DE
  8
SLIM
 10
4018.486659147798
 20
-1004.999999999999
 30
0.0
 11
4038.486659147798
 21
-984.9999999999992
 31
0.0
1001
ACAD
1010
0.0
1020
0.0
1030
0.0
1001
ACDBBLOCKREPETAG
1070
     1
1071
       44
1005
12A7DE
  0
LINE
  5
12A7DF
  8
SLIM
 10
4038.486659147798
 20
-984.9999999999992
 30
0.0
 11
4079.9999999999991
 21
-943.48665914779872
 31
0.0
1001
ACAD
1010
0.0
1020
0.0
1030
0.0
1001
ACDBBLOCKREPETAG
1070
     1
1071
       45
1005
12A7DF
  0
LINE
  5
12A7E0
  8
SLIM
 10
4036.4471713899361
 20
-1004.999999999999
 30
0.0
 11
4056.4471713899361
 21
-984.9999999999992
 31
0.0
1001
ACAD
1010
0.0
1020
0.0
1030
0.0
1001
ACDBBLOCKREPETAG
1070
     1
1071
       46
1005
12A7E0
  0
LINE
  5
12A7E1
  8
SLIM
 10
4056.4471713899361
 20
-984.9999999999992
 30
0.0
 11
4079.9999999999991
 21
-961.44717138993735
 31
0.0
1001
ACAD
1010
0.0
1020
0.0
1030
0.0
1001
ACDBBLOCKREPETAG
1070
     1
1071
       47
1005
12A7E1
  0
LINE
  5
12A7E2
  8
SLIM
 10
4054.4076836320728
 20
-1004.999999999999
 30
0.0
 11
4070.0
 21
-989.40768363207383
 31
0.0
1001
ACAD
1010
0.0
1020
0.0
1030
0.0
1001
ACDBBLOCKREPETAG
1070
     1
1071
       48
1005
12A7E2
  0
LINE
  5
12A7E3
  8
SLIM
 10
4074.4076836320728
 20
-984.9999999999992
 30
0.0
 11
4079.9999999999991
 21
-979.40768363207553
 31
0.0
1001
ACAD
1010
0.0
1020
0.0
1030
0.0
1001
ACDBBLOCKREPETAG
1070
     1
1071
       49
1005
12A7E3
  0
LINE
  5
12A7E4
  8
OBJECT
 10
3914.9999999999941
 20
-654.99999999999966
 30
0.0
 11
3914.9999999999968
 21
-819.78460339903484
 31
0.0
1001
ACDBBLOCKREPETAG
1070
     1
1071
        1
1005
12A7E4
  0
LINE
  5
12A7E5
  8
OBJECT
 10
4085.0000000000068
 20
-654.99999999999966
 30
0.0
 11
4085.0000000000032
 21
-819.78460339904143
 31
0.0
1001
ACDBBLOCKREPETAG
1070
     1
1071
        2
1005
12A7E5
  0
LINE
  5
12A7E6
  8
OBJECT
 10
4085.0000000000068
 20
-654.99999999999966
 30
0.0
 11
3914.9999999999941
 21
-654.99999999999966
 31
0.0
1001
ACDBBLOCKREPETAG
1070
     1
1071
        3
1005
12A7E6
  0
LINE
  5
12A7E7
  8
OBJECT
 10
4079.9999999999991
 20
-984.9999999999992
 30
0.0
 11
3920.0
 21
-984.99999999999955
 31
0.0
1001
ACDBBLOCKREPETAG
1070
     1
1071
        4
1005
12A7E7
  0
LINE
  5
12A7E8
  8
OBJECT
 10
3914.9999999999968
 20
-819.78460339903484
 30
0.0
 11
3920.0
 21
-860.62257748298634
 31
0.0
1001
ACDBBLOCKREPETAG
1070
     1
1071
        6
1005
12A7E8
  0
LINE
  5
12A7E9
  8
OBJECT
 10
3920.0
 20
-860.62257748298634
 30
0.0
 11
3920.0
 21
-984.99999999999955
 31
0.0
1001
ACDBBLOCKREPETAG
1070
     1
1071
        7
1005
12A7E9
  0
LINE
  5
12A7EA
  8
OBJECT
 10
4085.0000000000032
 20
-819.78460339904143
 30
0.0
 11
4080.0
 21
-860.62257748298634
 31
0.0
1001
ACDBBLOCKREPETAG
1070
     1
1071
        8
1005
12A7EA
  0
LINE
  5
12A7EB
  8
OBJECT
 10
4080.0
 20
-860.62257748298634
 30
0.0
 11
4079.9999999999991
 21
-984.9999999999992
 31
0.0
1001
ACDBBLOCKREPETAG
1070
     1
1071
        9
1005
12A7EB
  0
LINE
  5
12A7EC
  8
OBJECT
 10
3930.0
 20
-984.99999999999955
 30
0.0
 11
3930.0
 21
-1004.999999999999
 31
0.0
1001
ACDBBLOCKREPETAG
1070
     1
1071
       10
1005
12A7EC
  0
LINE
  5
12A7ED
  8
OBJECT
 10
3930.0
 20
-1004.999999999999
 30
0.0
 11
4070.0
 21
-1004.999999999999
 31
0.0
1001
ACDBBLOCKREPETAG
1070
     1
1071
       11
1005
12A7ED
  0
LINE
  5
12A7EE
  8
OBJECT
 10
4070.0
 20
-1004.999999999999
 30
0.0
 11
4070.0
 21
-984.9999999999992
 31
0.0
1001
ACDBBLOCKREPETAG
1070
     1
1071
       12
1005
12A7EE
  0
LINE
  5
12A7EF
  8
OBJECT
 10
4560.0
 20
-527.99999999999955
 30
0.0
 11
4440.0
 21
-527.99999999999955
 31
0.0
1001
ACDBBLOCKREPETAG
1070
     1
1071
      144
1005
12A7EF
  0
ARC
  5
12A7F0
  8
OBJECT
 10
4440.0
 20
-530.99999999999955
 30
0.0
 40
3.0
 50
90.0
 51
180.0
1001
ACDBBLOCKREPETAG
1070
     1
1071
      145
1005
12A7F0
  0
LINE
  5
12A7F1
  8
OBJECT
 10
4437.0
 20
-530.99999999999955
 30
0.0
 11
4437.0
 21
-533.99999999999955
 31
0.0
1001
ACDBBLOCKREPETAG
1070
     1
1071
      146
1005
12A7F1
  0
LINE
  5
12A7F2
  8
OBJECT
 10
4563.0
 20
-530.99999999999955
 30
0.0
 11
4563.0
 21
-533.99999999999955
 31
0.0
1001
ACDBBLOCKREPETAG
1070
     1
1071
      147
1005
12A7F2
  0
ARC
  5
12A7F3
  8
OBJECT
 10
4560.0
 20
-530.99999999999955
 30
0.0
 40
3.0
 50
0.0
 51
90.0
1001
ACDBBLOCKREPETAG
1070
     1
1071
      148
1005
12A7F3
  0
LINE
  5
12A7F4
  8
OBJECT
 10
4443.0
 20
-459.99999999999949
 30
0.0
 11
4443.0
 21
-527.99999999999955
 31
0.0
1001
ACDBBLOCKREPETAG
1070
     1
1071
      149
1005
12A7F4
  0
LINE
  5
12A7F5
  8
OBJECT
 10
4557.0
 20
-459.99999999999949
 30
0.0
 11
4443.0
 21
-459.99999999999949
 31
0.0
1001
ACDBBLOCKREPETAG
1070
     1
1071
      150
1005
12A7F5
  0
LINE
  5
12A7F6
  8
OBJECT
 10
4557.0
 20
-459.99999999999949
 30
0.0
 11
4557.0
 21
-527.99999999999955
 31
0.0
1001
ACDBBLOCKREPETAG
1070
     1
1071
      151
1005
12A7F6
  0
LINE
  5
12A7F7
  8
CENTER
 10
4500.0
 20
-444.99999999999937
 30
0.0
 11
4500.0
 21
-789.99999999999955
 31
0.0
1001
ACDBBLOCKREPETAG
1070
     1
1071
       20
1005
12A7F7
  0
LINE
  5
12A7F8
  8
OBJECT
 10
4425.0
 20
-533.99999999999955
 30
0.0
 11
4425.0
 21
-777.99999999999955
 31
0.0
1001
ACDBBLOCKREPETAG
1070
     1
1071
       21
1005
12A7F8
  0
LINE
  5
12A7F9
  8
OBJECT
 10
4420.0
 20
-777.99999999999955
 30
0.0
 11
4580.0
 21
-777.99999999999955
 31
0.0
1001
ACDBBLOCKREPETAG
1070
     1
1071
       22
1005
12A7F9
  0
LINE
  5
12A7FA
  8
OBJECT
 10
4574.9999999997144
 20
-533.99999999999955
 30
0.0
 11
4425.0
 21
-533.99999999999955
 31
0.0
1001
ACDBBLOCKREPETAG
1070
     1
1071
       23
1005
12A7FA
  0
LINE
  5
12A7FB
  8
OBJECT
 10
4420.0
 20
-777.99999999999955
 30
0.0
 11
4420.0
 21
-789.99999999999955
 31
0.0
1001
ACDBBLOCKREPETAG
1070
     1
1071
       24
1005
12A7FB
  0
LINE
  5
12A7FC
  8
OBJECT
 10
4420.0
 20
-789.99999999999955
 30
0.0
 11
4580.0
 21
-789.99999999999955
 31
0.0
1001
ACDBBLOCKREPETAG
1070
     1
1071
       25
1005
12A7FC
  0
LINE
  5
12A7FD
  8
OBJECT
 10
4580.0
 20
-789.99999999999955
 30
0.0
 11
4580.0
 21
-777.99999999999955
 31
0.0
1001
ACDBBLOCKREPETAG
1070
     1
1071
       26
1005
12A7FD
  0
LINE
  5
12A7FE
  8
OBJECT
 10
4574.9999999997144
 20
-533.99999999999955
 30
0.0
 11
4575.0
 21
-777.99999999999955
 31
0.0
1001
ACDBBLOCKREPETAG
1070
     1
1071
       28
1005
12A7FE
  0
LINE
  5
12A7FF
  8
HIDDEN
 10
4552.5
 20
-459.99999999999949
 30
0.0
 11
4552.5
 21
-533.99999999999955
 31
0.0
1001
ACDBBLOCKREPETAG
1070
     1
1071
      182
1005
12A7FF
  0
LINE
  5
12A800
  8
HIDDEN
 10
4447.5
 20
-459.99999999999949
 30
0.0
 11
4447.5
 21
-533.99999999999955
 31
0.0
1001
ACDBBLOCKREPETAG
1070
     1
1071
      183
1005
12A800
  0
POINT
  5
12A801
  8
DOTS
 10
4500.0
 20
-654.99999999999966
 30
0.0
1001
ACDBBLOCKREPETAG
1070
     1
1071
      190
1005
12A801
  0
LINE
  5
12A802
  8
OBJECT
 10
4060.0
 20
-527.99999999999955
 30
0.0
 11
3940.0
 21
-527.99999999999955
 31
0.0
1001
ACDBBLOCKREPETAG
1070
     1
1071
      136
1005
12A802
  0
ARC
  5
12A803
  8
OBJECT
 10
3940.0
 20
-530.99999999999955
 30
0.0
 40
3.0
 50
90.0
 51
180.0
1001
ACDBBLOCKREPETAG
1070
     1
1071
      137
1005
12A803
  0
LINE
  5
12A804
  8
OBJECT
 10
3937.0
 20
-530.99999999999955
 30
0.0
 11
3937.0
 21
-533.99999999999955
 31
0.0
1001
ACDBBLOCKREPETAG
1070
     1
1071
      138
1005
12A804
  0
LINE
  5
12A805
  8
OBJECT
 10
4063.0
 20
-530.99999999999955
 30
0.0
 11
4063.0
 21
-533.99999999999955
 31
0.0
1001
ACDBBLOCKREPETAG
1070
     1
1071
      139
1005
12A805
  0
ARC
  5
12A806
  8
OBJECT
 10
4060.0
 20
-530.99999999999955
 30
0.0
 40
3.0
 50
0.0
 51
90.0
1001
ACDBBLOCKREPETAG
1070
     1
1071
      140
1005
12A806
  0
LINE
  5
12A807
  8
OBJECT
 10
3943.0
 20
-459.99999999999949
 30
0.0
 11
3943.0
 21
-527.99999999999955
 31
0.0
1001
ACDBBLOCKREPETAG
1070
     1
1071
      141
1005
12A807
  0
LINE
  5
12A808
  8
OBJECT
 10
4057.0
 20
-459.99999999999949
 30
0.0
 11
3943.0
 21
-459.99999999999949
 31
0.0
1001
ACDBBLOCKREPETAG
1070
     1
1071
      142
1005
12A808
  0
LINE
  5
12A809
  8
OBJECT
 10
4057.0
 20
-459.99999999999949
 30
0.0
 11
4057.0
 21
-527.99999999999955
 31
0.0
1001
ACDBBLOCKREPETAG
1070
     1
1071
      143
1005
12A809
  0
LINE
  5
12A80A
  8
CENTER
 10
4000.0
 20
-444.99999999999937
 30
0.0
 11
4000.0
 21
-789.99999999999955
 31
0.0
1001
ACDBBLOCKREPETAG
1070
     1
1071
        0
1005
12A80A
  0
LINE
  5
12A80B
  8
OBJECT
 10
3925.0
 20
-533.99999999999955
 30
0.0
 11
3925.0
 21
-777.99999999999955
 31
0.0
1001
ACDBBLOCKREPETAG
1070
     1
1071
        1
1005
12A80B
  0
LINE
  5
12A80C
  8
OBJECT
 10
3920.0
 20
-777.99999999999955
 30
0.0
 11
4080.0
 21
-777.99999999999955
 31
0.0
1001
ACDBBLOCKREPETAG
1070
     1
1071
        2
1005
12A80C
  0
LINE
  5
12A80D
  8
OBJECT
 10
4080.0
 20
-533.99999999999955
 30
0.0
 11
3925.0
 21
-533.99999999999955
 31
0.0
1001
ACDBBLOCKREPETAG
1070
     1
1071
        3
1005
12A80D
  0
LINE
  5
12A80E
  8
OBJECT
 10
3920.0
 20
-777.99999999999955
 30
0.0
 11
3920.0
 21
-789.99999999999955
 31
0.0
1001
ACDBBLOCKREPETAG
1070
     1
1071
        4
1005
12A80E
  0
LINE
  5
12A80F
  8
OBJECT
 10
3920.0
 20
-789.99999999999955
 30
0.0
 11
4080.0
 21
-789.99999999999955
 31
0.0
1001
ACDBBLOCKREPETAG
1070
     1
1071
        5
1005
12A80F
  0
LINE
  5
12A810
  8
OBJECT
 10
4080.0
 20
-789.99999999999955
 30
0.0
 11
4080.0
 21
-777.99999999999955
 31
0.0
1001
ACDBBLOCKREPETAG
1070
     1
1071
        6
1005
12A810
  0
LINE
  5
12A811
  8
OBJECT
 10
4074.9999999998631
 20
-657.99999999985039
 30
0.0
 11
4075.0
 21
-777.99999999999955
 31
0.0
1001
ACDBBLOCKREPETAG
1070
     1
1071
        8
1005
12A811
  0
LINE
  5
12A812
  8
OBJECT
 10
4074.9999908029849
 20
-657.99998602702135
 30
0.0
 11
4080.0
 21
-657.99998602702135
 31
0.0
1001
ACDBBLOCKREPETAG
1070
     1
1071
        9
1005
12A812
  0
ARC
  5
12A813
  8
OBJECT
 10
4200.6872746716726
 20
-649.40809941010718
 30
0.0
 40
170.6350503965856
 50
137.44134459184301
 51
149.91949581337221
1001
ACDBBLOCKREPETAG
1070
     1
1071
       15
1005
12A813
  0
ARC
  5
12A814
  8
OBJECT
 10
4118.8455987040506
 20
-605.88272669536445
 30
0.0
 40
78.072222021763665
 50
147.4551531038623
 51
164.66365997719231
1001
ACDBBLOCKREPETAG
1070
     1
1071
       16
1005
12A814
  0
ARC
  5
12A815
  8
OBJECT
 10
4085.7554349608722
 20
-595.99999999999955
 30
0.0
 40
43.55353926885617
 50
165.68845230068339
 51
194.31154769931649
1001
ACDBBLOCKREPETAG
1070
     1
1071
       17
1005
12A815
  0
ARC
  5
12A816
  8
OBJECT
 10
4200.6872746716726
 20
-542.59190058989179
 30
0.0
 40
170.6350503965856
 50
210.08050418662771
 51
222.55865540815699
1001
ACDBBLOCKREPETAG
1070
     1
1071
       18
1005
12A816
  0
ARC
  5
12A817
  8
OBJECT
 10
4118.8455987040506
 20
-586.11727330463452
 30
0.0
 40
78.072222021763665
 50
195.33634002280749
 51
212.5448468961377
1001
ACDBBLOCKREPETAG
1070
     1
1071
       19
1005
12A817
  0
LINE
  5
12A818
  8
HIDDEN
 10
4052.5
 20
-459.99999999999949
 30
0.0
 11
4052.5
 21
-533.99999999999955
 31
0.0
1001
ACDBBLOCKREPETAG
1070
     1
1071
      180
1005
12A818
  0
LINE
  5
12A819
  8
HIDDEN
 10
3947.5
 20
-459.99999999999949
 30
0.0
 11
3947.5
 21
-533.99999999999955
 31
0.0
1001
ACDBBLOCKREPETAG
1070
     1
1071
      181
1005
12A819
  0
POINT
  5
12A81A
  8
DOTS
 10
4000.0
 20
-654.99999999999966
 30
0.0
1001
ACDBBLOCKREPETAG
1070
     1
1071
      189
1005
12A81A
  0
LINE
  5
12A81B
  8
OBJECT
 10
2560.0
 20
-527.99999999999955
 30
0.0
 11
2440.0
 21
-527.99999999999955
 31
0.0
1001
ACDBBLOCKREPETAG
1070
     1
1071
      144
1005
12A81B
  0
ARC
  5
12A81C
  8
OBJECT
 10
2440.0
 20
-530.99999999999955
 30
0.0
 40
3.0
 50
90.0
 51
180.0
1001
ACDBBLOCKREPETAG
1070
     1
1071
      145
1005
12A81C
  0
LINE
  5
12A81D
  8
OBJECT
 10
2437.0
 20
-530.99999999999955
 30
0.0
 11
2437.0
 21
-533.99999999999955
 31
0.0
1001
ACDBBLOCKREPETAG
1070
     1
1071
      146
1005
12A81D
  0
LINE
  5
12A81E
  8
OBJECT
 10
2563.0
 20
-530.99999999999955
 30
0.0
 11
2563.0
 21
-533.99999999999955
 31
0.0
1001
ACDBBLOCKREPETAG
1070
     1
1071
      147
1005
12A81E
  0
ARC
  5
12A81F
  8
OBJECT
 10
2560.0
 20
-530.99999999999955
 30
0.0
 40
3.0
 50
0.0
 51
90.0
1001
ACDBBLOCKREPETAG
1070
     1
1071
      148
1005
12A81F
  0
LINE
  5
12A820
  8
OBJECT
 10
2443.0
 20
-459.99999999999949
 30
0.0
 11
2443.0
 21
-527.99999999999955
 31
0.0
1001
ACDBBLOCKREPETAG
1070
     1
1071
      149
1005
12A820
  0
LINE
  5
12A821
  8
OBJECT
 10
2557.0
 20
-459.99999999999949
 30
0.0
 11
2443.0
 21
-459.99999999999949
 31
0.0
1001
ACDBBLOCKREPETAG
1070
     1
1071
      150
1005
12A821
  0
LINE
  5
12A822
  8
OBJECT
 10
2557.0
 20
-459.99999999999949
 30
0.0
 11
2557.0
 21
-527.99999999999955
 31
0.0
1001
ACDBBLOCKREPETAG
1070
     1
1071
      151
1005
12A822
  0
LINE
  5
12A823
  8
CENTER
 10
2500.0
 20
-444.99999999999937
 30
0.0
 11
2500.0
 21
-789.99999999999955
 31
0.0
1001
ACDBBLOCKREPETAG
1070
     1
1071
       20
1005
12A823
  0
LINE
  5
12A824
  8
OBJECT
 10
2425.0
 20
-533.99999999999955
 30
0.0
 11
2425.0
 21
-777.99999999999955
 31
0.0
1001
ACDBBLOCKREPETAG
1070
     1
1071
       21
1005
12A824
  0
LINE
  5
12A825
  8
OBJECT
 10
2420.0
 20
-777.99999999999955
 30
0.0
 11
2580.0
 21
-777.99999999999955
 31
0.0
1001
ACDBBLOCKREPETAG
1070
     1
1071
       22
1005
12A825
  0
LINE
  5
12A826
  8
OBJECT
 10
2574.9999999997131
 20
-533.99999999999955
 30
0.0
 11
2425.0
 21
-533.99999999999955
 31
0.0
1001
ACDBBLOCKREPETAG
1070
     1
1071
       23
1005
12A826
  0
LINE
  5
12A827
  8
OBJECT
 10
2420.0
 20
-777.99999999999955
 30
0.0
 11
2420.0
 21
-789.99999999999955
 31
0.0
1001
ACDBBLOCKREPETAG
1070
     1
1071
       24
1005
12A827
  0
LINE
  5
12A828
  8
OBJECT
 10
2420.0
 20
-789.99999999999955
 30
0.0
 11
2580.0
 21
-789.99999999999955
 31
0.0
1001
ACDBBLOCKREPETAG
1070
     1
1071
       25
1005
12A828
  0
LINE
  5
12A829
  8
OBJECT
 10
2580.0
 20
-789.99999999999955
 30
0.0
 11
2580.0
 21
-777.99999999999955
 31
0.0
1001
ACDBBLOCKREPETAG
1070
     1
1071
       26
1005
12A829
  0
LINE
  5
12A82A
  8
OBJECT
 10
2574.9999999997131
 20
-533.99999999999955
 30
0.0
 11
2575.0
 21
-777.99999999999955
 31
0.0
1001
ACDBBLOCKREPETAG
1070
     1
1071
       28
1005
12A82A
  0
LINE
  5
12A82B
  8
HIDDEN
 10
2552.5
 20
-459.99999999999949
 30
0.0
 11
2552.5
 21
-533.99999999999955
 31
0.0
1001
ACDBBLOCKREPETAG
1070
     1
1071
      182
1005
12A82B
  0
LINE
  5
12A82C
  8
HIDDEN
 10
2447.5
 20
-459.99999999999949
 30
0.0
 11
2447.5
 21
-533.99999999999955
 31
0.0
1001
ACDBBLOCKREPETAG
1070
     1
1071
      183
1005
12A82C
  0
POINT
  5
12A82D
  8
DOTS
 10
2500.0
 20
-654.99999999999966
 30
0.0
1001
ACDBBLOCKREPETAG
1070
     1
1071
      190
1005
12A82D
  0
LINE
  5
12A82E
  8
OBJECT
 10
2060.0
 20
-527.99999999999955
 30
0.0
 11
1940.0
 21
-527.99999999999955
 31
0.0
1001
ACDBBLOCKREPETAG
1070
     1
1071
      136
1005
12A82E
  0
ARC
  5
12A82F
  8
OBJECT
 10
1940.0
 20
-530.99999999999955
 30
0.0
 40
3.0
 50
90.0
 51
180.0
1001
ACDBBLOCKREPETAG
1070
     1
1071
      137
1005
12A82F
  0
LINE
  5
12A830
  8
OBJECT
 10
1937.0
 20
-530.99999999999955
 30
0.0
 11
1937.0
 21
-533.99999999999955
 31
0.0
1001
ACDBBLOCKREPETAG
1070
     1
1071
      138
1005
12A830
  0
LINE
  5
12A831
  8
OBJECT
 10
2063.0
 20
-530.99999999999955
 30
0.0
 11
2063.0
 21
-533.99999999999955
 31
0.0
1001
ACDBBLOCKREPETAG
1070
     1
1071
      139
1005
12A831
  0
ARC
  5
12A832
  8
OBJECT
 10
2060.0
 20
-530.99999999999955
 30
0.0
 40
3.0
 50
0.0
 51
90.0
1001
ACDBBLOCKREPETAG
1070
     1
1071
      140
1005
12A832
  0
LINE
  5
12A833
  8
OBJECT
 10
1943.0
 20
-459.99999999999949
 30
0.0
 11
1943.0
 21
-527.99999999999955
 31
0.0
1001
ACDBBLOCKREPETAG
1070
     1
1071
      141
1005
12A833
  0
LINE
  5
12A834
  8
OBJECT
 10
2057.0
 20
-459.99999999999949
 30
0.0
 11
1943.0
 21
-459.99999999999949
 31
0.0
1001
ACDBBLOCKREPETAG
1070
     1
1071
      142
1005
12A834
  0
LINE
  5
12A835
  8
OBJECT
 10
2057.0
 20
-459.99999999999949
 30
0.0
 11
2057.0
 21
-527.99999999999955
 31
0.0
1001
ACDBBLOCKREPETAG
1070
     1
1071
      143
1005
12A835
  0
LINE
  5
12A836
  8
CENTER
 10
2000.0
 20
-444.99999999999937
 30
0.0
 11
2000.0
 21
-789.99999999999955
 31
0.0
1001
ACDBBLOCKREPETAG
1070
     1
1071
        0
1005
12A836
  0
LINE
  5
12A837
  8
OBJECT
 10
1925.0
 20
-533.99999999999955
 30
0.0
 11
1925.0
 21
-777.99999999999955
 31
0.0
1001
ACDBBLOCKREPETAG
1070
     1
1071
        1
1005
12A837
  0
LINE
  5
12A838
  8
OBJECT
 10
1920.0
 20
-777.99999999999955
 30
0.0
 11
2080.0
 21
-777.99999999999955
 31
0.0
1001
ACDBBLOCKREPETAG
1070
     1
1071
        2
1005
12A838
  0
LINE
  5
12A839
  8
OBJECT
 10
2080.0
 20
-533.99999999999955
 30
0.0
 11
1925.0
 21
-533.99999999999955
 31
0.0
1001
ACDBBLOCKREPETAG
1070
     1
1071
        3
1005
12A839
  0
LINE
  5
12A83A
  8
OBJECT
 10
1920.0
 20
-777.99999999999955
 30
0.0
 11
1920.0
 21
-789.99999999999955
 31
0.0
1001
ACDBBLOCKREPETAG
1070
     1
1071
        4
1005
12A83A
  0
LINE
  5
12A83B
  8
OBJECT
 10
1920.0
 20
-789.99999999999955
 30
0.0
 11
2080.0
 21
-789.99999999999955
 31
0.0
1001
ACDBBLOCKREPETAG
1070
     1
1071
        5
1005
12A83B
  0
LINE
  5
12A83C
  8
OBJECT
 10
2080.0
 20
-789.99999999999955
 30
0.0
 11
2080.0
 21
-777.99999999999955
 31
0.0
1001
ACDBBLOCKREPETAG
1070
     1
1071
        6
1005
12A83C
  0
LINE
  5
12A83D
  8
OBJECT
 10
2074.9999999998622
 20
-657.99999999985039
 30
0.0
 11
2075.0
 21
-777.99999999999955
 31
0.0
1001
ACDBBLOCKREPETAG
1070
     1
1071
        8
1005
12A83D
  0
LINE
  5
12A83E
  8
OBJECT
 10
2074.9999908029849
 20
-657.99998602702135
 30
0.0
 11
2080.0
 21
-657.99998602702135
 31
0.0
1001
ACDBBLOCKREPETAG
1070
     1
1071
        9
1005
12A83E
  0
ARC
  5
12A83F
  8
OBJECT
 10
2200.6872746716731
 20
-649.40809941010718
 30
0.0
 40
170.6350503965856
 50
137.44134459184301
 51
149.91949581336559
1001
ACDBBLOCKREPETAG
1070
     1
1071
       15
1005
12A83F
  0
ARC
  5
12A840
  8
OBJECT
 10
2118.8455987040511
 20
-605.88272669536445
 30
0.0
 40
78.072222021763665
 50
147.4551531038623
 51
164.66365997719581
1001
ACDBBLOCKREPETAG
1070
     1
1071
       16
1005
12A840
  0
ARC
  5
12A841
  8
OBJECT
 10
2085.7554349608731
 20
-595.99999999999955
 30
0.0
 40
43.55353926885617
 50
165.6884523006803
 51
194.3115476993197
1001
ACDBBLOCKREPETAG
1070
     1
1071
       17
1005
12A841
  0
ARC
  5
12A842
  8
OBJECT
 10
2200.6872746716731
 20
-542.59190058989179
 30
0.0
 40
170.6350503965856
 50
210.0805041866343
 51
222.55865540815699
1001
ACDBBLOCKREPETAG
1070
     1
1071
       18
1005
12A842
  0
ARC
  5
12A843
  8
OBJECT
 10
2118.8455987040511
 20
-586.11727330463452
 30
0.0
 40
78.072222021763665
 50
195.33634002280411
 51
212.5448468961377
1001
ACDBBLOCKREPETAG
1070
     1
1071
       19
1005
12A843
  0
LINE
  5
12A844
  8
HIDDEN
 10
2052.5
 20
-459.99999999999949
 30
0.0
 11
2052.5
 21
-533.99999999999955
 31
0.0
1001
ACDBBLOCKREPETAG
1070
     1
1071
      180
1005
12A844
  0
LINE
  5
12A845
  8
HIDDEN
 10
1947.5
 20
-459.99999999999949
 30
0.0
 11
1947.5
 21
-533.99999999999955
 31
0.0
1001
ACDBBLOCKREPETAG
1070
     1
1071
      181
1005
12A845
  0
POINT
  5
12A846
  8
DOTS
 10
2000.0
 20
-654.99999999999966
 30
0.0
1001
ACDBBLOCKREPETAG
1070
     1
1071
      189
1005
12A846
  0
LINE
  5
12A847
  8
OBJECT
 10
4430.0
 20
-1099.999999999997
 30
0.0
 11
4570.0
 21
-1099.999999999997
 31
0.0
1001
ACDBBLOCKREPETAG
1070
     1
1071
        0
1005
12A847
  0
LINE
  5
12A848
  8
OBJECT
 10
4430.0
 20
-1099.999999999997
 30
0.0
 11
4430.0
 21
-859.99999999999693
 31
0.0
1001
ACDBBLOCKREPETAG
1070
     1
1071
        1
1005
12A848
  0
LINE
  5
12A849
  8
OBJECT
 10
4570.0
 20
-1099.999999999997
 30
0.0
 11
4570.0
 21
-859.99999999999693
 31
0.0
1001
ACDBBLOCKREPETAG
1070
     1
1071
        2
1005
12A849
  0
LINE
  5
12A84A
  8
OBJECT
 10
4430.0
 20
-859.99999999999693
 30
0.0
 11
4570.0
 21
-859.99999999999693
 31
0.0
1001
ACDBBLOCKREPETAG
1070
     1
1071
        3
1005
12A84A
  0
LINE
  5
12A84B
  8
HIDDEN
 10
4437.5
 20
-859.99999999999693
 30
0.0
 11
4437.5
 21
-1099.999999999997
 31
0.0
1001
ACDBBLOCKREPETAG
1070
     1
1071
        4
1005
12A84B
  0
LINE
  5
12A84C
  8
HIDDEN
 10
4562.5
 20
-859.99999999999693
 30
0.0
 11
4562.5
 21
-1099.999999999997
 31
0.0
1001
ACDBBLOCKREPETAG
1070
     1
1071
        5
1005
12A84C
  0
LINE
  5
12A84D
  8
CENTER
 10
4500.0
 20
-789.99999999999875
 30
0.0
 11
4500.0
 21
-1114.999999999997
 31
0.0
1001
ACDBBLOCKREPETAG
1070
     1
1071
        6
1005
12A84D
  0
LINE
  5
12A84E
  8
OBJECT
 10
4425.0
 20
-789.99999999999875
 30
0.0
 11
4425.0
 21
-819.99999999999693
 31
0.0
1001
ACDBBLOCKREPETAG
1070
     1
1071
        7
1005
12A84E
  0
LINE
  5
12A84F
  8
OBJECT
 10
4575.0000000000009
 20
-789.99999999999875
 30
0.0
 11
4575.0
 21
-819.99999999999693
 31
0.0
1001
ACDBBLOCKREPETAG
1070
     1
1071
        8
1005
12A84F
  0
LINE
  5
12A850
  8
OBJECT
 10
4425.0
 20
-819.99999999999693
 30
0.0
 11
4575.0
 21
-819.99999999999693
 31
0.0
1001
ACDBBLOCKREPETAG
1070
     1
1071
        9
1005
12A850
  0
LINE
  5
12A851
  8
OBJECT
 10
4425.0
 20
-819.99999999999693
 30
0.0
 11
4430.0
 21
-859.99999999999693
 31
0.0
1001
ACDBBLOCKREPETAG
1070
     1
1071
       10
1005
12A851
  0
LINE
  5
12A852
  8
OBJECT
 10
4570.0
 20
-859.99999999999693
 30
0.0
 11
4575.0
 21
-819.99999999999693
 31
0.0
1001
ACDBBLOCKREPETAG
1070
     1
1071
       11
1005
12A852
  0
LINE
  5
12A853
  8
OBJECT
 10
3930.0
 20
-1099.999999999997
 30
0.0
 11
4070.0
 21
-1099.999999999997
 31
0.0
1001
ACDBBLOCKREPETAG
1070
     1
1071
        0
1005
12A853
  0
LINE
  5
12A854
  8
OBJECT
 10
3930.0
 20
-1099.999999999997
 30
0.0
 11
3930.0
 21
-859.99999999999693
 31
0.0
1001
ACDBBLOCKREPETAG
1070
     1
1071
        1
1005
12A854
  0
LINE
  5
12A855
  8
OBJECT
 10
4070.0
 20
-1099.999999999997
 30
0.0
 11
4070.0
 21
-859.99999999999693
 31
0.0
1001
ACDBBLOCKREPETAG
1070
     1
1071
        2
1005
12A855
  0
LINE
  5
12A856
  8
OBJECT
 10
3930.0
 20
-859.99999999999693
 30
0.0
 11
4070.0
 21
-859.99999999999693
 31
0.0
1001
ACDBBLOCKREPETAG
1070
     1
1071
        3
1005
12A856
  0
LINE
  5
12A857
  8
HIDDEN
 10
3937.5
 20
-859.99999999999693
 30
0.0
 11
3937.5
 21
-1099.999999999997
 31
0.0
1001
ACDBBLOCKREPETAG
1070
     1
1071
        4
1005
12A857
  0
LINE
  5
12A858
  8
HIDDEN
 10
4062.5
 20
-859.99999999999693
 30
0.0
 11
4062.5
 21
-1099.999999999997
 31
0.0
1001
ACDBBLOCKREPETAG
1070
     1
1071
        5
1005
12A858
  0
LINE
  5
12A859
  8
CENTER
 10
4000.0
 20
-789.99999999999875
 30
0.0
 11
4000.0
 21
-1114.999999999997
 31
0.0
1001
ACDBBLOCKREPETAG
1070
     1
1071
        6
1005
12A859
  0
LINE
  5
12A85A
  8
OBJECT
 10
3925.0
 20
-789.99999999999875
 30
0.0
 11
3925.0
 21
-819.99999999999693
 31
0.0
1001
ACDBBLOCKREPETAG
1070
     1
1071
        7
1005
12A85A
  0
LINE
  5
12A85B
  8
OBJECT
 10
4075.0000000000032
 20
-789.99999999999875
 30
0.0
 11
4075.0
 21
-819.99999999999693
 31
0.0
1001
ACDBBLOCKREPETAG
1070
     1
1071
        8
1005
12A85B
  0
LINE
  5
12A85C
  8
OBJECT
 10
3925.0
 20
-819.99999999999693
 30
0.0
 11
4075.0
 21
-819.99999999999693
 31
0.0
1001
ACDBBLOCKREPETAG
1070
     1
1071
        9
1005
12A85C
  0
LINE
  5
12A85D
  8
OBJECT
 10
3925.0
 20
-819.99999999999693
 30
0.0
 11
3930.0
 21
-859.99999999999693
 31
0.0
1001
ACDBBLOCKREPETAG
1070
     1
1071
       10
1005
12A85D
  0
LINE
  5
12A85E
  8
OBJECT
 10
4070.0
 20
-859.99999999999693
 30
0.0
 11
4075.0
 21
-819.99999999999693
 31
0.0
1001
ACDBBLOCKREPETAG
1070
     1
1071
       11
1005
12A85E
  0
LINE
  5
12A85F
  8
OBJECT
 10
2430.0
 20
-1099.999999999997
 30
0.0
 11
2570.0
 21
-1099.999999999997
 31
0.0
1001
ACDBBLOCKREPETAG
1070
     1
1071
        0
1005
12A85F
  0
LINE
  5
12A860
  8
OBJECT
 10
2430.0
 20
-1099.999999999997
 30
0.0
 11
2430.0
 21
-859.99999999999784
 31
0.0
1001
ACDBBLOCKREPETAG
1070
     1
1071
        1
1005
12A860
  0
LINE
  5
12A861
  8
OBJECT
 10
2570.0
 20
-1099.999999999997
 30
0.0
 11
2570.0
 21
-859.99999999999784
 31
0.0
1001
ACDBBLOCKREPETAG
1070
     1
1071
        2
1005
12A861
  0
LINE
  5
12A862
  8
OBJECT
 10
2430.0
 20
-859.99999999999784
 30
0.0
 11
2570.0
 21
-859.99999999999784
 31
0.0
1001
ACDBBLOCKREPETAG
1070
     1
1071
        3
1005
12A862
  0
LINE
  5
12A863
  8
HIDDEN
 10
2437.5
 20
-859.99999999999784
 30
0.0
 11
2437.5
 21
-1099.999999999997
 31
0.0
1001
ACDBBLOCKREPETAG
1070
     1
1071
        4
1005
12A863
  0
LINE
  5
12A864
  8
HIDDEN
 10
2562.5
 20
-859.99999999999784
 30
0.0
 11
2562.5
 21
-1099.999999999997
 31
0.0
1001
ACDBBLOCKREPETAG
1070
     1
1071
        5
1005
12A864
  0
LINE
  5
12A865
  8
CENTER
 10
2500.0
 20
-789.99999999999955
 30
0.0
 11
2500.0
 21
-1114.999999999997
 31
0.0
1001
ACDBBLOCKREPETAG
1070
     1
1071
        6
1005
12A865
  0
LINE
  5
12A866
  8
OBJECT
 10
2425.0
 20
-789.99999999999955
 30
0.0
 11
2425.0
 21
-819.99999999999773
 31
0.0
1001
ACDBBLOCKREPETAG
1070
     1
1071
        7
1005
12A866
  0
LINE
  5
12A867
  8
OBJECT
 10
2575.000000000005
 20
-789.99999999999955
 30
0.0
 11
2575.0
 21
-819.99999999999773
 31
0.0
1001
ACDBBLOCKREPETAG
1070
     1
1071
        8
1005
12A867
  0
LINE
  5
12A868
  8
OBJECT
 10
2425.0
 20
-819.99999999999773
 30
0.0
 11
2575.0
 21
-819.99999999999773
 31
0.0
1001
ACDBBLOCKREPETAG
1070
     1
1071
        9
1005
12A868
  0
LINE
  5
12A869
  8
OBJECT
 10
2425.0
 20
-819.99999999999773
 30
0.0
 11
2430.0
 21
-859.99999999999784
 31
0.0
1001
ACDBBLOCKREPETAG
1070
     1
1071
       10
1005
12A869
  0
LINE
  5
12A86A
  8
OBJECT
 10
2570.0
 20
-859.99999999999784
 30
0.0
 11
2575.0
 21
-819.99999999999773
 31
0.0
1001
ACDBBLOCKREPETAG
1070
     1
1071
       11
1005
12A86A
  0
LINE
  5
12A86B
  8
OBJECT
 10
1930.0
 20
-1099.999999999997
 30
0.0
 11
2070.0
 21
-1099.999999999997
 31
0.0
1001
ACDBBLOCKREPETAG
1070
     1
1071
        0
1005
12A86B
  0
LINE
  5
12A86C
  8
OBJECT
 10
1930.0
 20
-1099.999999999997
 30
0.0
 11
1930.0
 21
-859.99999999999784
 31
0.0
1001
ACDBBLOCKREPETAG
1070
     1
1071
        1
1005
12A86C
  0
LINE
  5
12A86D
  8
OBJECT
 10
2070.0
 20
-1099.999999999997
 30
0.0
 11
2070.0
 21
-859.99999999999784
 31
0.0
1001
ACDBBLOCKREPETAG
1070
     1
1071
        2
1005
12A86D
  0
LINE
  5
12A86E
  8
OBJECT
 10
1930.0
 20
-859.99999999999784
 30
0.0
 11
2070.0
 21
-859.99999999999784
 31
0.0
1001
ACDBBLOCKREPETAG
1070
     1
1071
        3
1005
12A86E
  0
LINE
  5
12A86F
  8
HIDDEN
 10
1937.5
 20
-859.99999999999784
 30
0.0
 11
1937.5
 21
-1099.999999999997
 31
0.0
1001
ACDBBLOCKREPETAG
1070
     1
1071
        4
1005
12A86F
  0
LINE
  5
12A870
  8
HIDDEN
 10
2062.5
 20
-859.99999999999784
 30
0.0
 11
2062.5
 21
-1099.999999999997
 31
0.0
1001
ACDBBLOCKREPETAG
1070
     1
1071
        5
1005
12A870
  0
LINE
  5
12A871
  8
CENTER
 10
2000.0
 20
-789.99999999999955
 30
0.0
 11
2000.0
 21
-1114.999999999997
 31
0.0
1001
ACDBBLOCKREPETAG
1070
     1
1071
        6
1005
12A871
  0
LINE
  5
12A872
  8
OBJECT
 10
1925.0
 20
-789.99999999999955
 30
0.0
 11
1925.0
 21
-819.99999999999773
 31
0.0
1001
ACDBBLOCKREPETAG
1070
     1
1071
        7
1005
12A872
  0
LINE
  5
12A873
  8
OBJECT
 10
2075.0000000000041
 20
-789.99999999999955
 30
0.0
 11
2075.0
 21
-819.99999999999773
 31
0.0
1001
ACDBBLOCKREPETAG
1070
     1
1071
        8
1005
12A873
  0
LINE
  5
12A874
  8
OBJECT
 10
1925.0
 20
-819.99999999999773
 30
0.0
 11
2075.0
 21
-819.99999999999773
 31
0.0
1001
ACDBBLOCKREPETAG
1070
     1
1071
        9
1005
12A874
  0
LINE
  5
12A875
  8
OBJECT
 10
1925.0
 20
-819.99999999999773
 30
0.0
 11
1930.0
 21
-859.99999999999784
 31
0.0
1001
ACDBBLOCKREPETAG
1070
     1
1071
       10
1005
12A875
  0
LINE
  5
12A876
  8
OBJECT
 10
2070.0
 20
-859.99999999999784
 30
0.0
 11
2075.0
 21
-819.99999999999773
 31
0.0
1001
ACDBBLOCKREPETAG
1070
     1
1071
       11
1005
12A876
  0
TEXT
  5
12A877
  8
SLIM
 10
3741.6250000000009
 20
-1367.499999999997
 30
0.0
 40
35.0
  1
片受けスタイル（S）＋シンドカット
 41
0.75
  0
TEXT
  5
12A878
  8
SLIM
 10
1856.25
 20
-1367.499999999998
 30
0.0
 40
35.0
  1
片受けスタイル（S）
 41
0.75
  0
VIEWPORT
  5
F6BA7
 67
     1
  8
0
 10
145.33033752441401
 20
101.8328354358673
 30
0.0
 40
334.0025019414623
 41
222.19657968139651
 68
     1
 69
     1
1001
ACAD
1000
MVIEW
1002
{
1070
    16
1010
0.0
1020
0.0
1030
0.0
1010
0.0
1020
0.0
1030
1.0
1040
0.0
1040
222.19657968139651
1040
145.33033752441401
1040
101.8328354358673
1040
50.0
1040
0.0
1040
0.0
1070
     0
1070
     0
1070
     1
1070
     1
1070
     0
1070
     0
1070
     0
1070
     0
1040
0.0
1040
0.0
1040
0.0
1040
10.0
1040
10.0
1040
10.0
1040
10.0
1070
     0
1002
{
1002
}
1002
}
  0
VIEWPORT
  5
F6BA9
 67
     1
  8
OBJECT
 10
145.3303314447403
 20
101.8328338861465
 30
0.0
 40
232.5285303115844
 41
162.93253421783439
 68
     2
 69
     2
1001
ACAD
1000
MVIEW
1002
{
1070
    16
1010
0.0
1020
0.0
1030
0.0
1010
0.0
1020
0.0
1030
1.0
1040
0.0
1040
25942.55904403147
1040
2377.604457077377
1040
-7591.5176687056619
1040
50.0
1040
0.0
1040
0.0
1070
     0
1070
   600
1070
     1
1070
     1
1070
     0
1070
     0
1070
     0
1070
     0
1040
0.0
1040
0.0
1040
0.0
1040
1.0
1040
1.0
1040
0.0
1040
0.0
1070
     0
1002
{
1002
}
1002
}
  0
ENDSEC
  0
EOF
