  0
SECTION
  2
HEADER
  9
$ACADVER
  1
AC1009
  9
$INSBASE
 10
0.0
 20
0.0
 30
0.0
  9
$EXTMIN
 10
0.0
 20
-1879.0
 30
0.0
  9
$EXTMAX
 10
12590.0
 20
770.0
 30
0.0
  9
$LIMMIN
 10
0.0
 20
0.0
  9
$LIMMAX
 10
210.0
 20
297.0
  9
$ORTHOMODE
 70
     0
  9
$REGENMODE
 70
     1
  9
$FILLMODE
 70
     1
  9
$QTEXTMODE
 70
     0
  9
$MIRRTEXT
 70
     0
  9
$DRAGMODE
 70
     2
  9
$LTSCALE
 40
1.0
  9
$OSMODE
 70
    39
  9
$ATTMODE
 70
     1
  9
$TEXTSIZE
 40
4.0
  9
$TRACEWID
 40
0.05
  9
$TEXTSTYLE
  7
STANDARD
  9
$CLAYER
  8
OBJECT
  9
$CELTYPE
  6
BYLAYER
  9
$CECOLOR
 62
   256
  9
$DIMSCALE
 40
10.0
  9
$DIMASZ
 40
2.0
  9
$DIMEXO
 40
1.0
  9
$DIMDLI
 40
10.0
  9
$DIMRND
 40
0.0
  9
$DIMDLE
 40
0.0
  9
$DIMEXE
 40
1.0
  9
$DIMTP
 40
0.0
  9
$DIMTM
 40
0.0
  9
$DIMTXT
 40
3.2000000000000002
  9
$DIMCEN
 40
0.0
  9
$DIMTSZ
 40
0.0
  9
$DIMTOL
 70
     0
  9
$DIMLIM
 70
     0
  9
$DIMTIH
 70
     0
  9
$DIMTOH
 70
     0
  9
$DIMSE1
 70
     0
  9
$DIMSE2
 70
     0
  9
$DIMTAD
 70
     1
  9
$DIMZIN
 70
     8
  9
$DIMBLK
  1
OPEN30
  9
$DIMASO
 70
     1
  9
$DIMSHO
 70
     1
  9
$DIMPOST
  1

  9
$DIMAPOST
  1

  9
$DIMALT
 70
     0
  9
$DIMALTD
 70
     2
  9
$DIMALTF
 40
25.3999999999999986
  9
$DIMLFAC
 40
1.0
  9
$DIMTOFL
 70
     1
  9
$DIMTVP
 40
0.0
  9
$DIMTIX
 70
     0
  9
$DIMSOXD
 70
     0
  9
$DIMSAH
 70
     0
  9
$DIMBLK1
  1

  9
$DIMBLK2
  1

  9
$DIMSTYLE
  2
S10
  9
$DIMCLRD
 70
   256
  9
$DIMCLRE
 70
   256
  9
$DIMCLRT
 70
   256
  9
$DIMTFAC
 40
1.0
  9
$DIMGAP
 40
0.9
  9
$LUNITS
 70
     2
  9
$LUPREC
 70
     2
  9
$SKETCHINC
 40
0.1
  9
$FILLETRAD
 40
0.0
  9
$AUNITS
 70
     0
  9
$AUPREC
 70
     2
  9
$MENU
  1
ACAD
  9
$ELEVATION
 40
0.0
  9
$PELEVATION
 40
0.0
  9
$THICKNESS
 40
0.0
  9
$LIMCHECK
 70
     0
  9
$BLIPMODE
 70
     0
  9
$CHAMFERA
 40
2.0
  9
$CHAMFERB
 40
2.0
  9
$SKPOLY
 70
     0
  9
$TDCREATE
 40
2453095.4929398149251938
  9
$TDUPDATE
 40
2459384.3684953697957098
  9
$TDINDWG
 40
18.3816849536999989
  9
$TDUSRTIMER
 40
18.3816844097000001
  9
$USRTIMER
 70
     1
  9
$ANGBASE
 50
0.0
  9
$ANGDIR
 70
     0
  9
$PDMODE
 70
    35
  9
$PDSIZE
 40
2.0
  9
$PLINEWID
 40
0.0
  9
$COORDS
 70
     1
  9
$SPLFRAME
 70
     0
  9
$SPLINETYPE
 70
     6
  9
$SPLINESEGS
 70
     8
  9
$ATTDIA
 70
     1
  9
$ATTREQ
 70
     1
  9
$HANDLING
 70
     1
  9
$HANDSEED
  5
129536
  9
$SURFTAB1
 70
     6
  9
$SURFTAB2
 70
     6
  9
$SURFTYPE
 70
     6
  9
$SURFU
 70
     6
  9
$SURFV
 70
     6
  9
$UCSNAME
  2

  9
$UCSORG
 10
0.0
 20
0.0
 30
0.0
  9
$UCSXDIR
 10
1.0
 20
0.0
 30
0.0
  9
$UCSYDIR
 10
0.0
 20
1.0
 30
0.0
  9
$PUCSNAME
  2

  9
$PUCSORG
 10
0.0
 20
0.0
 30
0.0
  9
$PUCSXDIR
 10
1.0
 20
0.0
 30
0.0
  9
$PUCSYDIR
 10
0.0
 20
1.0
 30
0.0
  9
$USERI1
 70
     0
  9
$USERI2
 70
     0
  9
$USERI3
 70
     0
  9
$USERI4
 70
     0
  9
$USERI5
 70
     0
  9
$USERR1
 40
0.0
  9
$USERR2
 40
0.0
  9
$USERR3
 40
0.0
  9
$USERR4
 40
0.0
  9
$USERR5
 40
0.0
  9
$WORLDVIEW
 70
     1
  9
$SHADEDGE
 70
     3
  9
$SHADEDIF
 70
    70
  9
$TILEMODE
 70
     1
  9
$MAXACTVP
 70
    64
  9
$PLIMCHECK
 70
     0
  9
$PEXTMIN
 10
29.0660662889480506
 20
20.3665667772293091
 30
0.0
  9
$PEXTMAX
 10
261.5945966005324976
 20
183.2991009950638102
 30
0.0
  9
$PLIMMIN
 10
-3.17498779296875
 20
-3.1749999523162842
  9
$PLIMMAX
 10
293.835662841796875
 20
206.8406708240509033
  9
$UNITMODE
 70
     0
  9
$VISRETAIN
 70
     1
  9
$PLINEGEN
 70
     0
  9
$PSLTSCALE
 70
     1
  0
ENDSEC
  0
SECTION
  2
TABLES
  0
TABLE
  2
VPORT
 70
     1
  0
VPORT
  2
*ACTIVE
 70
     0
 10
0.0
 20
0.0
 11
1.0
 21
1.0
 12
1501.7524928580351116
 22
-279.1532803647533001
 13
0.0
 23
0.0
 14
1.0
 24
1.0
 15
0.0
 25
0.0
 16
0.0
 26
0.0
 36
1.0
 17
0.0
 27
0.0
 37
0.0
 40
3607.2981572083522224
 41
1.842105263157894
 42
50.0
 43
0.0
 44
0.0
 50
0.0
 51
0.0
 71
     0
 72
   600
 73
     1
 74
     1
 75
     0
 76
     0
 77
     0
 78
     0
  0
ENDTAB
  0
TABLE
  2
LTYPE
 70
     4
  0
LTYPE
  2
CONTINUOUS
 70
     0
  3
Solid line
 72
    65
 73
     0
 40
0.0
  0
LTYPE
  2
ACAD_ISO08W100
 70
     0
  3
ISO long-dash short-dash ____ __ ____ __ ____ _
 72
    65
 73
     4
 40
36.0
 49
24.0
 49
-3.0
 49
6.0
 49
-3.0
  0
LTYPE
  2
ACAD_ISO02W100
 70
     0
  3
ISO dash __ __ __ __ __ __ __ __ __ __ __ __ __
 72
    65
 73
     2
 40
15.0
 49
12.0
 49
-3.0
  0
ENDTAB
  0
TABLE
  2
LAYER
 70
     7
  0
LAYER
  2
0
 70
     0
 62
     7
  6
CONTINUOUS
  0
LAYER
  2
OBJECT
 70
     0
 62
     4
  6
CONTINUOUS
  0
LAYER
  2
DEFPOINTS
 70
     0
 62
     7
  6
CONTINUOUS
  0
LAYER
  2
HIDDEN
 70
     0
 62
     2
  6
ACAD_ISO02W100
  0
LAYER
  2
CENTER
 70
     0
 62
     2
  6
ACAD_ISO08W100
  0
LAYER
  2
DOTS
 70
     0
 62
     1
  6
CONTINUOUS
  0
LAYER
  2
SLIM
 70
     0
 62
     2
  6
CONTINUOUS
  0
ENDTAB
  0
TABLE
  2
STYLE
 70
     2
  0
STYLE
  2
STANDARD
 70
     0
 40
0.0
 41
0.75
 50
0.0
 71
     0
 42
4.0
  3
simplex.shx
  4
bigfont.shx
  0
STYLE
  2
ANNOTATIVE
 70
     0
 40
0.0
 41
1.0
 50
0.0
 71
     0
 42
0.2
  3
txt
  4

  0
ENDTAB
  0
TABLE
  2
VIEW
 70
     0
  0
ENDTAB
  0
TABLE
  2
UCS
 70
     0
  0
ENDTAB
  0
TABLE
  2
APPID
 70
    18
  0
APPID
  2
ACAD
 70
     0
  0
APPID
  2
ACADANNOTATIVE
 70
     0
  0
APPID
  2
ACAD_PSEXT
 70
     0
  0
APPID
  2
ACAD_EXEMPT_FROM_CAD_STANDARDS
 70
     0
  0
APPID
  2
ACAECLAYERSTANDARD
 70
     0
  0
APPID
  2
ACAUTHENVIRON
 70
     0
  0
APPID
  2
ACDBDYNAMICBLOCKTRUENAME
 70
     0
  0
APPID
  2
ACDBDYNAMICBLOCKGUID
 70
     0
  0
APPID
  2
ACDBBLOCKREPETAG
 70
     0
  0
APPID
  2
ACDBBLOCKREPBTAG
 70
     0
  0
APPID
  2
ACAD_NAV_VCDISPLAY
 70
     0
  0
APPID
  2
ACAD_DSTYLE_DIMRADIAL_EXTENSION
 70
     0
  0
APPID
  2
ACAD_DSTYLE_DIMJAG
 70
     0
  0
APPID
  2
ACAD_DSTYLE_DIMTALN
 70
     0
  0
APPID
  2
ACADANNOPO
 70
     0
  0
APPID
  2
GRADIENTCOLOR1ACI
 70
     0
  0
APPID
  2
GRADIENTCOLOR2ACI
 70
     0
  0
APPID
  2
ACAD_MLEADERVER
 70
     0
  0
ENDTAB
  0
TABLE
  2
DIMSTYLE
 70
     3
  0
DIMSTYLE
  2
STANDARD
 70
     0
  3

  4

  5

  6

  7

 40
1.0
 41
0.18
 42
0.0625
 43
0.38
 44
0.18
 45
0.0
 46
0.0
 47
0.0
 48
0.0
140
0.18
141
0.09
142
0.0
143
25.3999999999999986
144
1.0
145
0.0
146
1.0
147
0.09
 71
     0
 72
     0
 73
     1
 74
     1
 75
     0
 76
     0
 77
     0
 78
     0
170
     0
171
     2
172
     0
173
     0
174
     0
175
     0
176
     0
177
     0
178
     0
  0
DIMSTYLE
  2
ANNOTATIVE
 70
     0
  3

  4

  5

  6

  7

 40
1.0
 41
0.18
 42
0.0625
 43
0.38
 44
0.18
 45
0.0
 46
0.0
 47
0.0
 48
0.0
140
0.18
141
0.09
142
0.0
143
25.3999999999999986
144
1.0
145
0.0
146
1.0
147
0.09
 71
     0
 72
     0
 73
     1
 74
     1
 75
     0
 76
     0
 77
     0
 78
     0
170
     0
171
     2
172
     0
173
     0
174
     0
175
     0
176
     0
177
     0
178
     0
  0
DIMSTYLE
  2
S10
 70
     0
  3

  4

  5

  6

  7

 40
10.0
 41
2.0
 42
1.0
 43
10.0
 44
1.0
 45
0.0
 46
0.0
 47
0.0
 48
0.0
140
3.2000000000000002
141
0.0
142
0.0
143
25.3999999999999986
144
1.0
145
0.0
146
1.0
147
0.9
 71
     0
 72
     0
 73
     0
 74
     0
 75
     0
 76
     0
 77
     1
 78
     8
170
     0
171
     2
172
     1
173
     0
174
     0
175
     0
176
   256
177
   256
178
   256
  0
ENDTAB
  0
ENDSEC
  0
SECTION
  2
BLOCKS
  0
BLOCK
  8
0
  2
$MODEL_SPACE
 70
     0
 10
0.0
 20
0.0
 30
0.0
  3
$MODEL_SPACE
  1

  0
ENDBLK
  5
12945A
  8
0
  0
BLOCK
 67
     1
  8
0
  2
$PAPER_SPACE
 70
     0
 10
0.0
 20
0.0
 30
0.0
  3
$PAPER_SPACE
  1

  0
ENDBLK
  5
129456
 67
     1
  8
0
  0
BLOCK
  8
0
  2
_OPEN30
 70
     0
 10
0.0
 20
0.0
 30
0.0
  3
_OPEN30
  1

  0
LINE
  5
202
  8
0
  6
BYBLOCK
 62
     0
 10
-1.0
 20
0.26794919
 30
0.0
 11
0.0
 21
0.0
 31
0.0
  0
LINE
  5
203
  8
0
  6
BYBLOCK
 62
     0
 10
0.0
 20
0.0
 30
0.0
 11
-1.0
 21
-0.26794919
 31
0.0
  0
LINE
  5
204
  8
0
  6
BYBLOCK
 62
     0
 10
0.0
 20
0.0
 30
0.0
 11
-1.0
 21
0.0
 31
0.0
  0
ENDBLK
  5
206
  8
0
  0
ENDSEC
  0
SECTION
  2
ENTITIES
  0
TEXT
  5
128AD6
  8
SLIM
 10
0.0
 20
370.0
 30
0.0
 40
100.0
  1
4SVT-A4-WKP【管底】
 41
0.75
  0
TEXT
  5
128AD7
  8
SLIM
 10
1856.25
 20
-1367.4999999999979536
 30
0.0
 40
35.0
  1
片受けスタイル（S）
 41
0.75
  0
TEXT
  5
128AD8
  8
SLIM
 10
5858.1250000000009095
 20
-1682.4999999999990905
 30
0.0
 40
35.0
  1
カンペイ君（WKP）
 41
0.75
  0
TEXT
  5
128AD9
  8
SLIM
 10
7741.625
 20
-1367.4999999999979536
 30
0.0
 40
35.0
  1
片受けスタイル（S）＋シンドカット
 41
0.75
  0
TEXT
  5
128ADA
  8
SLIM
 10
11743.5
 20
-1641.4999999999959073
 30
0.0
 40
35.0
  1
カンペイ君（WKP）＋シンドカット
 41
0.75
  0
TEXT
  5
128ADB
  8
SLIM
 10
9739.125000000001819
 20
-1641.4999999999959073
 30
0.0
 40
35.0
  1
両受けスタイル（W）＋シンドカット
 41
0.75
  0
TEXT
  5
128ADC
  8
SLIM
 10
7771.3999999999978172
 20
-1430.666666666664014
 30
0.0
 40
28.0
  1
※ 対応スラブ厚　170｛100｝～340
 41
0.75
  0
TEXT
  5
128ADD
  8
SLIM
 10
7733.2999999999983629
 20
-1477.3333333333309838
 30
0.0
 40
28.0
  1
｛｝内はカンペイ立て管との組み合わせの場合
 41
0.75
  0
TEXT
  5
128ADE
  8
SLIM
 10
7598.8999999999987267
 20
-1570.6666666666649235
 30
0.0
 40
28.0
  1
国土交通大臣認定・（一財）日本消防設備安全センター性能評定取得品
 41
0.75
  0
TEXT
  5
128ADF
  8
SLIM
 10
7631.1000000000003638
 20
-1617.3333333333309838
 30
0.0
 40
28.0
  1
注）ご採用にあたり、認定書及び評定書の内容をご確認ください。
 41
0.75
  0
TEXT
  5
128AE0
  8
SLIM
 10
9824.6000000000003638
 20
-1697.9999999999959073
 30
0.0
 40
28.0
  1
※ 対応スラブ厚　170～380
 41
0.75
  0
TEXT
  5
128AE1
  8
SLIM
 10
9598.8999999999996362
 20
-1791.3333333333280279
 30
0.0
 40
28.0
  1
国土交通大臣認定・（一財）日本消防設備安全センター性能評定取得品
 41
0.75
  0
TEXT
  5
128AE2
  8
SLIM
 10
9631.1000000000003638
 20
-1837.9999999999959073
 30
0.0
 40
28.0
  1
注）ご採用にあたり、認定書及び評定書の内容をご確認ください。
 41
0.75
  0
TEXT
  5
128AE3
  8
SLIM
 10
11824.6000000000003638
 20
-1697.9999999999959073
 30
0.0
 40
28.0
  1
※ 対応スラブ厚　150～380
 41
0.75
  0
TEXT
  5
128AE4
  8
SLIM
 10
11598.8999999999996362
 20
-1791.3333333333280279
 30
0.0
 40
28.0
  1
国土交通大臣認定・（一財）日本消防設備安全センター性能評定取得品
 41
0.75
  0
TEXT
  5
128AE5
  8
SLIM
 10
11631.1000000000003638
 20
-1837.9999999999959073
 30
0.0
 40
28.0
  1
注）ご採用にあたり、認定書及び評定書の内容をご確認ください。
 41
0.75
  0
TEXT
  5
128AE6
  8
SLIM
 10
5811.8000000000001819
 20
-1738.9999999999990905
 30
0.0
 40
28.0
  1
※ 対応スラブ厚　150mm以上
 41
0.75
  0
TEXT
  5
128AE7
  8
SLIM
 10
5598.8999999999996362
 20
-1832.3333333333318933
 30
0.0
 40
28.0
  1
国土交通大臣認定・（一財）日本消防設備安全センター性能評定取得品
 41
0.75
  0
TEXT
  5
128AE8
  8
SLIM
 10
5631.1000000000003638
 20
-1878.9999999999990905
 30
0.0
 40
28.0
  1
注）ご採用にあたり、認定書及び評定書の内容をご確認ください。
 41
0.75
  0
TEXT
  5
128AE9
  8
SLIM
 10
3853.75
 20
-1641.4999999999959073
 30
0.0
 40
35.0
  1
両受けスタイル（W）
 41
0.75
  0
LINE
  5
128AEA
  8
CENTER
 10
3909.0
 20
-1373.9999999999959073
 30
0.0
 11
4105.0
 21
-1373.9999999999959073
 31
0.0
1001
ACDBBLOCKREPETAG
1070
     1
1071
        0
1005
128AEA
  0
LINE
  5
128AEB
  8
CENTER
 10
4000.0
 20
-1282.7253355707789524
 30
0.0
 11
4000.0
 21
-1465.2746644292119527
 31
0.0
1001
ACDBBLOCKREPETAG
1070
     1
1071
        1
1005
128AEB
  0
CIRCLE
  5
128AEC
  8
OBJECT
 10
4000.0
 20
-1373.9999999999959073
 30
0.0
 40
50.0
1001
ACDBBLOCKREPETAG
1070
     1
1071
        2
1005
128AEC
  0
CIRCLE
  5
128AED
  8
OBJECT
 10
4000.0
 20
-1373.9999999999959073
 30
0.0
 40
62.0
1001
ACDBBLOCKREPETAG
1070
     1
1071
        3
1005
128AED
  0
CIRCLE
  5
128AEE
  8
SLIM
 10
4078.0
 20
-1373.9999999999959073
 30
0.0
 40
5.0
1001
ACDBBLOCKREPETAG
1070
     1
1071
        4
1005
128AEE
  0
POLYLINE
  5
128AEF
  8
SLIM
 66
     1
 10
0.0
 20
0.0
 30
0.0
 70
     1
1001
ACDBBLOCKREPETAG
1070
     1
1071
        5
1005
128AEF
  0
VERTEX
  5
1294A2
  8
SLIM
 10
4073.0925227118841576
 20
-1365.4999999999959073
 30
0.0
  0
VERTEX
  5
1294A3
  8
SLIM
 10
4068.1850454237719532
 20
-1373.9999999999959073
 30
0.0
  0
VERTEX
  5
1294A4
  8
SLIM
 10
4073.0925227118841576
 20
-1382.4999999999959073
 30
0.0
  0
VERTEX
  5
1294A5
  8
SLIM
 10
4082.9074772881072022
 20
-1382.4999999999959073
 30
0.0
  0
VERTEX
  5
1294A6
  8
SLIM
 10
4087.8149545762198613
 20
-1373.9999999999959073
 30
0.0
  0
VERTEX
  5
1294A7
  8
SLIM
 10
4082.9074772881072022
 20
-1365.4999999999959073
 30
0.0
  0
SEQEND
  5
1294A8
  8
SLIM
  0
CIRCLE
  5
128AF0
  8
SLIM
 10
3961.0
 20
-1306.4500185048088952
 30
0.0
 40
4.9999999999999991
1001
ACDBBLOCKREPETAG
1070
     1
1071
        6
1005
128AF0
  0
POLYLINE
  5
128AF1
  8
SLIM
 66
     1
 10
0.0
 20
0.0
 30
0.0
 70
     1
1001
ACDBBLOCKREPETAG
1070
     1
1071
        7
1005
128AF1
  0
VERTEX
  5
1294A9
  8
SLIM
 10
3956.0925227118859766
 20
-1314.9500185048088952
 30
0.0
  0
VERTEX
  5
1294AA
  8
SLIM
 10
3965.9074772881149329
 20
-1314.9500185048088952
 30
0.0
  0
VERTEX
  5
1294AB
  8
SLIM
 10
3970.8149545762212256
 20
-1306.4500185048088952
 30
0.0
  0
VERTEX
  5
1294AC
  8
SLIM
 10
3965.9074772881149329
 20
-1297.9500185048079857
 30
0.0
  0
VERTEX
  5
1294AD
  8
SLIM
 10
3956.0925227118859766
 20
-1297.9500185048079857
 30
0.0
  0
VERTEX
  5
1294AE
  8
SLIM
 10
3951.1850454237719532
 20
-1306.4500185048088952
 30
0.0
  0
SEQEND
  5
1294AF
  8
SLIM
  0
CIRCLE
  5
128AF2
  8
SLIM
 10
3961.0
 20
-1441.5499814951829194
 30
0.0
 40
5.0
1001
ACDBBLOCKREPETAG
1070
     1
1071
        8
1005
128AF2
  0
POLYLINE
  5
128AF3
  8
SLIM
 66
     1
 10
0.0
 20
0.0
 30
0.0
 70
     1
1001
ACDBBLOCKREPETAG
1070
     1
1071
        9
1005
128AF3
  0
VERTEX
  5
1294B0
  8
SLIM
 10
3970.8149545762212256
 20
-1441.5499814951829194
 30
0.0
  0
VERTEX
  5
1294B1
  8
SLIM
 10
3965.9074772881072022
 20
-1433.049981495179054
 30
0.0
  0
VERTEX
  5
1294B2
  8
SLIM
 10
3956.0925227118859766
 20
-1433.0499814951829194
 30
0.0
  0
VERTEX
  5
1294B3
  8
SLIM
 10
3951.1850454237719532
 20
-1441.549981495179054
 30
0.0
  0
VERTEX
  5
1294B4
  8
SLIM
 10
3956.0925227118859766
 20
-1450.0499814951829194
 30
0.0
  0
VERTEX
  5
1294B5
  8
SLIM
 10
3965.9074772881149329
 20
-1450.049981495179054
 30
0.0
  0
SEQEND
  5
1294B6
  8
SLIM
  0
ARC
  5
128AF4
  8
OBJECT
 10
4000.0
 20
-1373.9999999999959073
 30
0.0
 40
76.0
 50
34.8638379541420704
 51
85.1361620457329451
1001
ACDBBLOCKREPETAG
1070
     1
1071
       30
1005
128AF4
  0
ARC
  5
128AF5
  8
OBJECT
 10
4000.0
 20
-1373.9999999999959073
 30
0.0
 40
76.0
 50
154.8638379543093038
 51
205.1361620456904973
1001
ACDBBLOCKREPETAG
1070
     1
1071
       31
1005
128AF5
  0
ARC
  5
128AF6
  8
OBJECT
 10
4000.0
 20
-1373.9999999999959073
 30
0.0
 40
76.0
 50
274.863837954267126
 51
325.1361620458579864
1001
ACDBBLOCKREPETAG
1070
     1
1071
       32
1005
128AF6
  0
ARC
  5
128AF7
  8
OBJECT
 10
4078.0
 20
-1373.9999999999959073
 30
0.0
 40
12.0
 50
325.1361620458579864
 51
34.8638379541420704
1001
ACDBBLOCKREPETAG
1070
     1
1071
       33
1005
128AF7
  0
LINE
  5
128AF8
  8
OBJECT
 10
4087.8461538461669988
 20
-1367.1404625201330418
 30
0.0
 11
4062.3589743590491707
 21
-1330.5562626275338971
 31
0.0
1001
ACDBBLOCKREPETAG
1070
     1
1071
       34
1005
128AF8
  0
LINE
  5
128AF9
  8
OBJECT
 10
4087.8461538461710916
 20
-1380.8595374798560442
 30
0.0
 11
4062.3589743590491707
 21
-1417.4437373724590543
 31
0.0
1001
ACDBBLOCKREPETAG
1070
     1
1071
       35
1005
128AF9
  0
ARC
  5
128AFA
  8
OBJECT
 10
3961.0
 20
-1306.450018504810032
 30
0.0
 40
12.0
 50
85.136162045942811
 51
154.8638379541110908
1001
ACDBBLOCKREPETAG
1070
     1
1071
       36
1005
128AFA
  0
LINE
  5
128AFB
  8
OBJECT
 10
3950.1363893611469393
 20
-1301.3527678843909143
 30
0.0
 11
3931.1971326205862169
 21
-1341.7174127373471038
 31
0.0
1001
ACDBBLOCKREPETAG
1070
     1
1071
       37
1005
128AFB
  0
LINE
  5
128AFC
  8
OBJECT
 10
3962.0174567926851523
 20
-1294.4932304045260025
 30
0.0
 11
4006.4438930203677955
 21
-1298.2736753648860031
 31
0.0
1001
ACDBBLOCKREPETAG
1070
     1
1071
       38
1005
128AFC
  0
ARC
  5
128AFD
  8
OBJECT
 10
3961.0
 20
-1441.5499814951811004
 30
0.0
 40
12.0
 50
205.1361620458889092
 51
274.8638379540572032
1001
ACDBBLOCKREPETAG
1070
     1
1071
       39
1005
128AFD
  0
LINE
  5
128AFE
  8
OBJECT
 10
3962.0174567926878808
 20
-1453.5067695954630835
 30
0.0
 11
4006.4438930203650671
 21
-1449.7263246351039925
 31
0.0
1001
ACDBBLOCKREPETAG
1070
     1
1071
       40
1005
128AFE
  0
LINE
  5
128AFF
  8
OBJECT
 10
3950.1363893611469393
 20
-1446.6472321156040834
 30
0.0
 11
3931.1971326205821242
 21
-1406.2825872626428918
 31
0.0
1001
ACDBBLOCKREPETAG
1070
     1
1071
       41
1005
128AFF
  0
LINE
  5
128B00
  8
CENTER
 10
5909.0
 20
-1414.9999999999990905
 30
0.0
 11
6105.0
 21
-1414.9999999999990905
 31
0.0
1001
ACDBBLOCKREPETAG
1070
     1
1071
       10
1005
128B00
  0
LINE
  5
128B01
  8
CENTER
 10
6000.0
 20
-1323.7253355707819082
 30
0.0
 11
6000.0
 21
-1506.2746644292149085
 31
0.0
1001
ACDBBLOCKREPETAG
1070
     1
1071
       11
1005
128B01
  0
CIRCLE
  5
128B02
  8
OBJECT
 10
6000.0
 20
-1414.9999999999990905
 30
0.0
 40
50.0
1001
ACDBBLOCKREPETAG
1070
     1
1071
       12
1005
128B02
  0
CIRCLE
  5
128B03
  8
OBJECT
 10
6000.0
 20
-1414.9999999999990905
 30
0.0
 40
60.0
1001
ACDBBLOCKREPETAG
1070
     1
1071
       13
1005
128B03
  0
CIRCLE
  5
128B04
  8
OBJECT
 10
6000.0
 20
-1414.9999999999990905
 30
0.0
 40
68.0
1001
ACDBBLOCKREPETAG
1070
     1
1071
       14
1005
128B04
  0
ARC
  5
128B05
  8
OBJECT
 10
6077.5
 20
-1414.9999999999990905
 30
0.0
 40
12.0
 50
272.105426272216107
 51
87.8945737277838788
1001
ACDBBLOCKREPETAG
1070
     1
1071
       15
1005
128B05
  0
ARC
  5
128B06
  8
OBJECT
 10
6078.4919354838639265
 20
-1388.0182271895259873
 30
0.0
 40
15.0
 50
198.9705187796355972
 51
267.8945737277837225
1001
ACDBBLOCKREPETAG
1070
     1
1071
       16
1005
128B06
  0
ARC
  5
128B07
  8
OBJECT
 10
6078.4919354838639265
 20
-1441.9817728104669641
 30
0.0
 40
15.0
 50
92.1054262722161354
 51
161.0294812203642891
1001
ACDBBLOCKREPETAG
1070
     1
1071
       17
1005
128B07
  0
CIRCLE
  5
128B08
  8
SLIM
 10
6078.0
 20
-1414.9999999999990905
 30
0.0
 40
8.0
1001
ACDBBLOCKREPETAG
1070
     1
1071
       18
1005
128B08
  0
POLYLINE
  5
128B09
  8
SLIM
 66
     1
 10
0.0
 20
0.0
 30
0.0
 70
     1
1001
ACDBBLOCKREPETAG
1070
     1
1071
       19
1005
128B09
  0
VERTEX
  5
1294B7
  8
SLIM
 10
6075.6905989232327556
 20
-1410.9999999999990905
 30
0.0
  0
VERTEX
  5
1294B8
  8
SLIM
 10
6073.3811978464800632
 20
-1414.9999999999990905
 30
0.0
  0
VERTEX
  5
1294B9
  8
SLIM
 10
6075.6905989232327556
 20
-1418.9999999999990905
 30
0.0
  0
VERTEX
  5
1294BA
  8
SLIM
 10
6080.3094010767526925
 20
-1418.9999999999990905
 30
0.0
  0
VERTEX
  5
1294BB
  8
SLIM
 10
6082.6188021535126609
 20
-1414.9999999999990905
 30
0.0
  0
VERTEX
  5
1294BC
  8
SLIM
 10
6080.3094010767526925
 20
-1410.9999999999990905
 30
0.0
  0
SEQEND
  5
1294BD
  8
SLIM
  0
ARC
  5
128B0A
  8
OBJECT
 10
5961.25
 20
-1347.8830312067029809
 30
0.0
 40
12.0
 50
32.105426272157878
 51
207.8945737277074102
1001
ACDBBLOCKREPETAG
1070
     1
1071
       20
1005
128B0A
  0
ARC
  5
128B0B
  8
OBJECT
 10
5937.387131565054915
 20
-1360.5148762839919527
 30
0.0
 40
15.0
 50
318.970518779447616
 51
27.8945737277074883
1001
ACDBBLOCKREPETAG
1070
     1
1071
       21
1005
128B0B
  0
ARC
  5
128B0C
  8
OBJECT
 10
5984.1209329510684256
 20
-1333.5331034735199864
 30
0.0
 40
15.0
 50
212.1054262721578993
 51
281.0294812204406867
1001
ACDBBLOCKREPETAG
1070
     1
1071
       22
1005
128B0C
  0
CIRCLE
  5
128B0D
  8
SLIM
 10
5961.0
 20
-1347.4500185048120784
 30
0.0
 40
7.9999999999999982
1001
ACDBBLOCKREPETAG
1070
     1
1071
       23
1005
128B0D
  0
POLYLINE
  5
128B0E
  8
SLIM
 66
     1
 10
0.0
 20
0.0
 30
0.0
 70
     1
1001
ACDBBLOCKREPETAG
1070
     1
1071
       24
1005
128B0E
  0
VERTEX
  5
1294BE
  8
SLIM
 10
5958.6905989232391221
 20
-1351.4500185048120784
 30
0.0
  0
VERTEX
  5
1294BF
  8
SLIM
 10
5963.3094010767508735
 20
-1351.4500185048120784
 30
0.0
  0
VERTEX
  5
1294C0
  8
SLIM
 10
5965.6188021535126609
 20
-1347.4500185048120784
 30
0.0
  0
VERTEX
  5
1294C1
  8
SLIM
 10
5963.3094010767508735
 20
-1343.4500185048120784
 30
0.0
  0
VERTEX
  5
1294C2
  8
SLIM
 10
5958.6905989232391221
 20
-1343.4500185048120784
 30
0.0
  0
VERTEX
  5
1294C3
  8
SLIM
 10
5956.3811978464791537
 20
-1347.4500185048120784
 30
0.0
  0
SEQEND
  5
1294C4
  8
SLIM
  0
ARC
  5
128B0F
  8
OBJECT
 10
5961.25
 20
-1482.1169687932911074
 30
0.0
 40
12.0
 50
152.1054262722925046
 51
327.894573727841987
1001
ACDBBLOCKREPETAG
1070
     1
1071
       25
1005
128B0F
  0
ARC
  5
128B10
  8
OBJECT
 10
5984.1209329510684256
 20
-1496.4668965264741018
 30
0.0
 40
15.0
 50
78.9705187795592281
 51
147.8945737278421007
1001
ACDBBLOCKREPETAG
1070
     1
1071
       26
1005
128B10
  0
ARC
  5
128B11
  8
OBJECT
 10
5937.387131565054915
 20
-1469.4851237160060009
 30
0.0
 40
15.0
 50
332.1054262722923909
 51
41.0294812205524124
1001
ACDBBLOCKREPETAG
1070
     1
1071
       27
1005
128B11
  0
CIRCLE
  5
128B12
  8
SLIM
 10
5961.0
 20
-1482.5499814951861026
 30
0.0
 40
8.0
1001
ACDBBLOCKREPETAG
1070
     1
1071
       28
1005
128B12
  0
POLYLINE
  5
128B13
  8
SLIM
 66
     1
 10
0.0
 20
0.0
 30
0.0
 70
     1
1001
ACDBBLOCKREPETAG
1070
     1
1071
       29
1005
128B13
  0
VERTEX
  5
1294C5
  8
SLIM
 10
5965.6188021535126609
 20
-1482.5499814951829194
 30
0.0
  0
VERTEX
  5
1294C6
  8
SLIM
 10
5963.3094010767508735
 20
-1478.5499814951861026
 30
0.0
  0
VERTEX
  5
1294C7
  8
SLIM
 10
5958.6905989232391221
 20
-1478.5499814951829194
 30
0.0
  0
VERTEX
  5
1294C8
  8
SLIM
 10
5956.3811978464791537
 20
-1482.5499814951861026
 30
0.0
  0
VERTEX
  5
1294C9
  8
SLIM
 10
5958.6905989232327556
 20
-1486.5499814951829194
 30
0.0
  0
VERTEX
  5
1294CA
  8
SLIM
 10
5963.3094010767508735
 20
-1486.5499814951861026
 30
0.0
  0
SEQEND
  5
1294CB
  8
SLIM
  0
ARC
  5
128B14
  8
OBJECT
 10
6000.0
 20
-1414.9999999999990905
 30
0.0
 40
76.0
 50
34.8638379541420704
 51
85.1361620457329451
1001
ACDBBLOCKREPETAG
1070
     1
1071
       42
1005
128B14
  0
ARC
  5
128B15
  8
OBJECT
 10
6000.0
 20
-1414.9999999999990905
 30
0.0
 40
76.0
 50
154.8638379543093038
 51
205.1361620456904973
1001
ACDBBLOCKREPETAG
1070
     1
1071
       43
1005
128B15
  0
ARC
  5
128B16
  8
OBJECT
 10
6000.0
 20
-1414.9999999999990905
 30
0.0
 40
76.0
 50
274.863837954267126
 51
325.1361620458579864
1001
ACDBBLOCKREPETAG
1070
     1
1071
       44
1005
128B16
  0
ARC
  5
128B17
  8
OBJECT
 10
6078.0
 20
-1414.9999999999990905
 30
0.0
 40
12.0
 50
325.1361620458579864
 51
34.8638379541420704
1001
ACDBBLOCKREPETAG
1070
     1
1071
       45
1005
128B17
  0
LINE
  5
128B18
  8
OBJECT
 10
6087.8461538461688178
 20
-1408.1404625201369072
 30
0.0
 11
6062.3589743590509897
 21
-1371.5562626275379898
 31
0.0
1001
ACDBBLOCKREPETAG
1070
     1
1071
       46
1005
128B18
  0
LINE
  5
128B19
  8
OBJECT
 10
6087.8461538461706368
 20
-1421.8595374798590001
 30
0.0
 11
6062.3589743590509897
 21
-1458.4437373724620102
 31
0.0
1001
ACDBBLOCKREPETAG
1070
     1
1071
       47
1005
128B19
  0
ARC
  5
128B1A
  8
OBJECT
 10
5961.0
 20
-1347.4500185048138974
 30
0.0
 40
12.0
 50
85.136162045942811
 51
154.8638379541000063
1001
ACDBBLOCKREPETAG
1070
     1
1071
       48
1005
128B1A
  0
LINE
  5
128B1B
  8
OBJECT
 10
5950.1363893611442109
 20
-1342.3527678843940976
 30
0.0
 11
5931.1971326205848527
 21
-1382.7174127373500596
 31
0.0
1001
ACDBBLOCKREPETAG
1070
     1
1071
       49
1005
128B1B
  0
LINE
  5
128B1C
  8
OBJECT
 10
5962.0174567926833333
 20
-1335.4932304045289584
 30
0.0
 11
6006.443893020366886
 21
-1339.2736753648889589
 31
0.0
1001
ACDBBLOCKREPETAG
1070
     1
1071
       50
1005
128B1C
  0
ARC
  5
128B1D
  8
OBJECT
 10
5961.0
 20
-1482.5499814951840563
 30
0.0
 40
12.0
 50
205.1361620458999084
 51
274.8638379540572032
1001
ACDBBLOCKREPETAG
1070
     1
1071
       51
1005
128B1D
  0
LINE
  5
128B1E
  8
OBJECT
 10
5962.0174567926887903
 20
-1494.5067695954660394
 30
0.0
 11
6006.4438930203650671
 21
-1490.7263246351089947
 31
0.0
1001
ACDBBLOCKREPETAG
1070
     1
1071
       52
1005
128B1E
  0
LINE
  5
128B1F
  8
OBJECT
 10
5950.1363893611442109
 20
-1487.6472321156079488
 30
0.0
 11
5931.1971326205839432
 21
-1447.282587262646075
 31
0.0
1001
ACDBBLOCKREPETAG
1070
     1
1071
       53
1005
128B1F
  0
LINE
  5
128B20
  8
CENTER
 10
9909.0
 20
-1373.9999999999959073
 30
0.0
 11
10105.0
 21
-1373.9999999999959073
 31
0.0
1001
ACDBBLOCKREPETAG
1070
     1
1071
        0
1005
128B20
  0
LINE
  5
128B21
  8
CENTER
 10
10000.0
 20
-1282.7253355707789524
 30
0.0
 11
10000.0
 21
-1465.2746644292119527
 31
0.0
1001
ACDBBLOCKREPETAG
1070
     1
1071
        1
1005
128B21
  0
CIRCLE
  5
128B22
  8
OBJECT
 10
10000.0
 20
-1373.9999999999959073
 30
0.0
 40
50.0
1001
ACDBBLOCKREPETAG
1070
     1
1071
        2
1005
128B22
  0
CIRCLE
  5
128B23
  8
OBJECT
 10
10000.0
 20
-1373.9999999999959073
 30
0.0
 40
62.0
1001
ACDBBLOCKREPETAG
1070
     1
1071
        3
1005
128B23
  0
CIRCLE
  5
128B24
  8
SLIM
 10
10078.0
 20
-1373.9999999999959073
 30
0.0
 40
5.0
1001
ACDBBLOCKREPETAG
1070
     1
1071
        4
1005
128B24
  0
POLYLINE
  5
128B25
  8
SLIM
 66
     1
 10
0.0
 20
0.0
 30
0.0
 70
     1
1001
ACDBBLOCKREPETAG
1070
     1
1071
        5
1005
128B25
  0
VERTEX
  5
1294CC
  8
SLIM
 10
10073.0925227118805196
 20
-1365.4999999999959073
 30
0.0
  0
VERTEX
  5
1294CD
  8
SLIM
 10
10068.1850454237701342
 20
-1373.9999999999959073
 30
0.0
  0
VERTEX
  5
1294CE
  8
SLIM
 10
10073.0925227118805196
 20
-1382.4999999999959073
 30
0.0
  0
VERTEX
  5
1294CF
  8
SLIM
 10
10082.9074772880994715
 20
-1382.4999999999959073
 30
0.0
  0
VERTEX
  5
1294D0
  8
SLIM
 10
10087.8149545762207708
 20
-1373.9999999999959073
 30
0.0
  0
VERTEX
  5
1294D1
  8
SLIM
 10
10082.9074772880994715
 20
-1365.4999999999959073
 30
0.0
  0
SEQEND
  5
1294D2
  8
SLIM
  0
CIRCLE
  5
128B26
  8
SLIM
 10
9961.0
 20
-1306.4500185048088952
 30
0.0
 40
4.9999999999999991
1001
ACDBBLOCKREPETAG
1070
     1
1071
        6
1005
128B26
  0
POLYLINE
  5
128B27
  8
SLIM
 66
     1
 10
0.0
 20
0.0
 30
0.0
 70
     1
1001
ACDBBLOCKREPETAG
1070
     1
1071
        7
1005
128B27
  0
VERTEX
  5
1294D3
  8
SLIM
 10
9956.0925227118859766
 20
-1314.9500185048088952
 30
0.0
  0
VERTEX
  5
1294D4
  8
SLIM
 10
9965.9074772881140234
 20
-1314.9500185048088952
 30
0.0
  0
VERTEX
  5
1294D5
  8
SLIM
 10
9970.8149545762153139
 20
-1306.4500185048088952
 30
0.0
  0
VERTEX
  5
1294D6
  8
SLIM
 10
9965.9074772881140234
 20
-1297.9500185048079857
 30
0.0
  0
VERTEX
  5
1294D7
  8
SLIM
 10
9956.0925227118859766
 20
-1297.9500185048079857
 30
0.0
  0
VERTEX
  5
1294D8
  8
SLIM
 10
9951.1850454237774102
 20
-1306.4500185048088952
 30
0.0
  0
SEQEND
  5
1294D9
  8
SLIM
  0
CIRCLE
  5
128B28
  8
SLIM
 10
9961.0
 20
-1441.5499814951829194
 30
0.0
 40
5.0
1001
ACDBBLOCKREPETAG
1070
     1
1071
        8
1005
128B28
  0
POLYLINE
  5
128B29
  8
SLIM
 66
     1
 10
0.0
 20
0.0
 30
0.0
 70
     1
1001
ACDBBLOCKREPETAG
1070
     1
1071
        9
1005
128B29
  0
VERTEX
  5
1294DA
  8
SLIM
 10
9970.8149545762153139
 20
-1441.5499814951829194
 30
0.0
  0
VERTEX
  5
1294DB
  8
SLIM
 10
9965.9074772881049284
 20
-1433.049981495179054
 30
0.0
  0
VERTEX
  5
1294DC
  8
SLIM
 10
9956.0925227118859766
 20
-1433.0499814951829194
 30
0.0
  0
VERTEX
  5
1294DD
  8
SLIM
 10
9951.1850454237774102
 20
-1441.549981495179054
 30
0.0
  0
VERTEX
  5
1294DE
  8
SLIM
 10
9956.0925227118859766
 20
-1450.0499814951829194
 30
0.0
  0
VERTEX
  5
1294DF
  8
SLIM
 10
9965.9074772881140234
 20
-1450.049981495179054
 30
0.0
  0
SEQEND
  5
1294E0
  8
SLIM
  0
ARC
  5
128B2A
  8
OBJECT
 10
10000.0
 20
-1373.9999999999959073
 30
0.0
 40
76.0
 50
34.8638379541718493
 51
85.1361620457329451
1001
ACDBBLOCKREPETAG
1070
     1
1071
       30
1005
128B2A
  0
ARC
  5
128B2B
  8
OBJECT
 10
10000.0
 20
-1373.9999999999959073
 30
0.0
 40
76.0
 50
154.8638379543093038
 51
205.1361620456904973
1001
ACDBBLOCKREPETAG
1070
     1
1071
       31
1005
128B2B
  0
ARC
  5
128B2C
  8
OBJECT
 10
10000.0
 20
-1373.9999999999959073
 30
0.0
 40
76.0
 50
274.863837954267126
 51
325.1361620458280868
1001
ACDBBLOCKREPETAG
1070
     1
1071
       32
1005
128B2C
  0
ARC
  5
128B2D
  8
OBJECT
 10
10078.0
 20
-1373.9999999999959073
 30
0.0
 40
12.0
 50
325.1361620458280868
 51
34.8638379541718493
1001
ACDBBLOCKREPETAG
1070
     1
1071
       33
1005
128B2D
  0
LINE
  5
128B2E
  8
OBJECT
 10
10087.8461538461597229
 20
-1367.1404625201330418
 30
0.0
 11
10062.3589743590400758
 21
-1330.5562626275338971
 31
0.0
1001
ACDBBLOCKREPETAG
1070
     1
1071
       34
1005
128B2E
  0
LINE
  5
128B2F
  8
OBJECT
 10
10087.8461538461706368
 20
-1380.8595374798560442
 30
0.0
 11
10062.3589743590400758
 21
-1417.4437373724590543
 31
0.0
1001
ACDBBLOCKREPETAG
1070
     1
1071
       35
1005
128B2F
  0
ARC
  5
128B30
  8
OBJECT
 10
9961.0
 20
-1306.450018504810032
 30
0.0
 40
12.0
 50
85.136162045942811
 51
154.8638379541000063
1001
ACDBBLOCKREPETAG
1070
     1
1071
       36
1005
128B30
  0
LINE
  5
128B31
  8
OBJECT
 10
9950.1363893611433014
 20
-1301.3527678843909143
 30
0.0
 11
9931.1971326205894002
 21
-1341.7174127373471038
 31
0.0
1001
ACDBBLOCKREPETAG
1070
     1
1071
       37
1005
128B31
  0
LINE
  5
128B32
  8
OBJECT
 10
9962.0174567926842428
 20
-1294.4932304045260025
 30
0.0
 11
10006.4438930203596101
 21
-1298.2736753648860031
 31
0.0
1001
ACDBBLOCKREPETAG
1070
     1
1071
       38
1005
128B32
  0
ARC
  5
128B33
  8
OBJECT
 10
9961.0
 20
-1441.5499814951811004
 30
0.0
 40
12.0
 50
205.1361620458999084
 51
274.8638379540572032
1001
ACDBBLOCKREPETAG
1070
     1
1071
       39
1005
128B33
  0
LINE
  5
128B34
  8
OBJECT
 10
9962.0174567926896998
 20
-1453.5067695954630835
 30
0.0
 11
10006.4438930203596101
 21
-1449.7263246351039925
 31
0.0
1001
ACDBBLOCKREPETAG
1070
     1
1071
       40
1005
128B34
  0
LINE
  5
128B35
  8
OBJECT
 10
9950.1363893611433014
 20
-1446.6472321156040834
 30
0.0
 11
9931.1971326205821242
 21
-1406.2825872626428918
 31
0.0
1001
ACDBBLOCKREPETAG
1070
     1
1071
       41
1005
128B35
  0
LINE
  5
128B36
  8
CENTER
 10
11909.0
 20
-1373.9999999999959073
 30
0.0
 11
12105.0
 21
-1373.9999999999959073
 31
0.0
1001
ACDBBLOCKREPETAG
1070
     1
1071
       10
1005
128B36
  0
LINE
  5
128B37
  8
CENTER
 10
12000.0
 20
-1282.7253355707789524
 30
0.0
 11
12000.0
 21
-1465.2746644292119527
 31
0.0
1001
ACDBBLOCKREPETAG
1070
     1
1071
       11
1005
128B37
  0
CIRCLE
  5
128B38
  8
OBJECT
 10
12000.0
 20
-1373.9999999999959073
 30
0.0
 40
50.0
1001
ACDBBLOCKREPETAG
1070
     1
1071
       12
1005
128B38
  0
CIRCLE
  5
128B39
  8
OBJECT
 10
12000.0
 20
-1373.9999999999959073
 30
0.0
 40
60.0
1001
ACDBBLOCKREPETAG
1070
     1
1071
       13
1005
128B39
  0
CIRCLE
  5
128B3A
  8
OBJECT
 10
12000.0
 20
-1373.9999999999959073
 30
0.0
 40
68.0
1001
ACDBBLOCKREPETAG
1070
     1
1071
       14
1005
128B3A
  0
ARC
  5
128B3B
  8
OBJECT
 10
12077.5
 20
-1373.9999999999959073
 30
0.0
 40
12.0
 50
272.105426272216107
 51
87.8945737277838788
1001
ACDBBLOCKREPETAG
1070
     1
1071
       15
1005
128B3B
  0
ARC
  5
128B3C
  8
OBJECT
 10
12078.4919354838602885
 20
-1347.018227189523941
 30
0.0
 40
15.0
 50
198.9705187796525081
 51
267.8945737277837225
1001
ACDBBLOCKREPETAG
1070
     1
1071
       16
1005
128B3C
  0
ARC
  5
128B3D
  8
OBJECT
 10
12078.4919354838602885
 20
-1400.9817728104640082
 30
0.0
 40
15.0
 50
92.1054262722161354
 51
161.0294812203472077
1001
ACDBBLOCKREPETAG
1070
     1
1071
       17
1005
128B3D
  0
CIRCLE
  5
128B3E
  8
SLIM
 10
12078.0
 20
-1373.9999999999959073
 30
0.0
 40
8.0
1001
ACDBBLOCKREPETAG
1070
     1
1071
       18
1005
128B3E
  0
POLYLINE
  5
128B3F
  8
SLIM
 66
     1
 10
0.0
 20
0.0
 30
0.0
 70
     1
1001
ACDBBLOCKREPETAG
1070
     1
1071
       19
1005
128B3F
  0
VERTEX
  5
1294E1
  8
SLIM
 10
12075.6905989232200227
 20
-1369.9999999999959073
 30
0.0
  0
VERTEX
  5
1294E2
  8
SLIM
 10
12073.3811978464800632
 20
-1373.9999999999959073
 30
0.0
  0
VERTEX
  5
1294E3
  8
SLIM
 10
12075.6905989232200227
 20
-1377.9999999999959073
 30
0.0
  0
VERTEX
  5
1294E4
  8
SLIM
 10
12080.3094010767508735
 20
-1377.9999999999959073
 30
0.0
  0
VERTEX
  5
1294E5
  8
SLIM
 10
12082.6188021535108419
 20
-1373.9999999999959073
 30
0.0
  0
VERTEX
  5
1294E6
  8
SLIM
 10
12080.3094010767508735
 20
-1369.9999999999959073
 30
0.0
  0
SEQEND
  5
1294E7
  8
SLIM
  0
ARC
  5
128B40
  8
OBJECT
 10
11961.25
 20
-1306.883031206700025
 30
0.0
 40
12.0
 50
32.1054262721301882
 51
207.8945737276831949
1001
ACDBBLOCKREPETAG
1070
     1
1071
       20
1005
128B40
  0
ARC
  5
128B41
  8
OBJECT
 10
11937.3871315650503675
 20
-1319.5148762839880874
 30
0.0
 40
15.0
 50
318.970518779447616
 51
27.8945737276831096
1001
ACDBBLOCKREPETAG
1070
     1
1071
       21
1005
128B41
  0
ARC
  5
128B42
  8
OBJECT
 10
11984.1209329510693351
 20
-1292.5331034735170306
 30
0.0
 40
15.0
 50
212.1054262721301882
 51
281.0294812204406867
1001
ACDBBLOCKREPETAG
1070
     1
1071
       22
1005
128B42
  0
CIRCLE
  5
128B43
  8
SLIM
 10
11961.0
 20
-1306.4500185048088952
 30
0.0
 40
7.9999999999999982
1001
ACDBBLOCKREPETAG
1070
     1
1071
       23
1005
128B43
  0
POLYLINE
  5
128B44
  8
SLIM
 66
     1
 10
0.0
 20
0.0
 30
0.0
 70
     1
1001
ACDBBLOCKREPETAG
1070
     1
1071
       24
1005
128B44
  0
VERTEX
  5
1294E8
  8
SLIM
 10
11958.6905989232400316
 20
-1310.4500185048079857
 30
0.0
  0
VERTEX
  5
1294E9
  8
SLIM
 10
11963.3094010767508735
 20
-1310.4500185048079857
 30
0.0
  0
VERTEX
  5
1294EA
  8
SLIM
 10
11965.6188021535108419
 20
-1306.4500185048088952
 30
0.0
  0
VERTEX
  5
1294EB
  8
SLIM
 10
11963.3094010767508735
 20
-1302.4500185048079857
 30
0.0
  0
VERTEX
  5
1294EC
  8
SLIM
 10
11958.6905989232400316
 20
-1302.4500185048079857
 30
0.0
  0
VERTEX
  5
1294ED
  8
SLIM
 10
11956.3811978464800632
 20
-1306.4500185048088952
 30
0.0
  0
SEQEND
  5
1294EE
  8
SLIM
  0
ARC
  5
128B45
  8
OBJECT
 10
11961.25
 20
-1441.1169687932879242
 30
0.0
 40
12.0
 50
152.1054262723168904
 51
327.8945737278697266
1001
ACDBBLOCKREPETAG
1070
     1
1071
       25
1005
128B45
  0
ARC
  5
128B46
  8
OBJECT
 10
11984.1209329510693351
 20
-1455.4668965264709186
 30
0.0
 40
15.0
 50
78.9705187795592281
 51
147.8945737278698118
1001
ACDBBLOCKREPETAG
1070
     1
1071
       26
1005
128B46
  0
ARC
  5
128B47
  8
OBJECT
 10
11937.3871315650503675
 20
-1428.485123716003045
 30
0.0
 40
15.0
 50
332.1054262723168904
 51
41.0294812205524124
1001
ACDBBLOCKREPETAG
1070
     1
1071
       27
1005
128B47
  0
CIRCLE
  5
128B48
  8
SLIM
 10
11961.0
 20
-1441.5499814951829194
 30
0.0
 40
8.0
1001
ACDBBLOCKREPETAG
1070
     1
1071
       28
1005
128B48
  0
POLYLINE
  5
128B49
  8
SLIM
 66
     1
 10
0.0
 20
0.0
 30
0.0
 70
     1
1001
ACDBBLOCKREPETAG
1070
     1
1071
       29
1005
128B49
  0
VERTEX
  5
1294EF
  8
SLIM
 10
11965.6188021535108419
 20
-1441.549981495179054
 30
0.0
  0
VERTEX
  5
1294F0
  8
SLIM
 10
11963.3094010767508735
 20
-1437.5499814951829194
 30
0.0
  0
VERTEX
  5
1294F1
  8
SLIM
 10
11958.6905989232400316
 20
-1437.549981495179054
 30
0.0
  0
VERTEX
  5
1294F2
  8
SLIM
 10
11956.3811978464800632
 20
-1441.5499814951829194
 30
0.0
  0
VERTEX
  5
1294F3
  8
SLIM
 10
11958.6905989232200227
 20
-1445.549981495179054
 30
0.0
  0
VERTEX
  5
1294F4
  8
SLIM
 10
11963.3094010767508735
 20
-1445.5499814951829194
 30
0.0
  0
SEQEND
  5
1294F5
  8
SLIM
  0
ARC
  5
128B4A
  8
OBJECT
 10
12000.0
 20
-1373.9999999999959073
 30
0.0
 40
76.0
 50
34.8638379541718493
 51
85.1361620457329451
1001
ACDBBLOCKREPETAG
1070
     1
1071
       42
1005
128B4A
  0
ARC
  5
128B4B
  8
OBJECT
 10
12000.0
 20
-1373.9999999999959073
 30
0.0
 40
76.0
 50
154.8638379543093038
 51
205.1361620456904973
1001
ACDBBLOCKREPETAG
1070
     1
1071
       43
1005
128B4B
  0
ARC
  5
128B4C
  8
OBJECT
 10
12000.0
 20
-1373.9999999999959073
 30
0.0
 40
76.0
 50
274.863837954267126
 51
325.1361620458280868
1001
ACDBBLOCKREPETAG
1070
     1
1071
       44
1005
128B4C
  0
ARC
  5
128B4D
  8
OBJECT
 10
12078.0
 20
-1373.9999999999959073
 30
0.0
 40
12.0
 50
325.1361620458280868
 51
34.8638379541718493
1001
ACDBBLOCKREPETAG
1070
     1
1071
       45
1005
128B4D
  0
LINE
  5
128B4E
  8
OBJECT
 10
12087.8461538461597229
 20
-1367.1404625201330418
 30
0.0
 11
12062.3589743590491707
 21
-1330.5562626275338971
 31
0.0
1001
ACDBBLOCKREPETAG
1070
     1
1071
       46
1005
128B4E
  0
LINE
  5
128B4F
  8
OBJECT
 10
12087.8461538461706368
 20
-1380.8595374798560442
 30
0.0
 11
12062.3589743590491707
 21
-1417.4437373724590543
 31
0.0
1001
ACDBBLOCKREPETAG
1070
     1
1071
       47
1005
128B4F
  0
ARC
  5
128B50
  8
OBJECT
 10
11961.0
 20
-1306.450018504810032
 30
0.0
 40
12.0
 50
85.136162045942811
 51
154.8638379541000063
1001
ACDBBLOCKREPETAG
1070
     1
1071
       48
1005
128B50
  0
LINE
  5
128B51
  8
OBJECT
 10
11950.1363893611396634
 20
-1301.3527678843909143
 30
0.0
 11
11931.1971326205803052
 21
-1341.7174127373471038
 31
0.0
1001
ACDBBLOCKREPETAG
1070
     1
1071
       49
1005
128B51
  0
LINE
  5
128B52
  8
OBJECT
 10
11962.0174567926806048
 20
-1294.4932304045260025
 30
0.0
 11
12006.443893020370524
 21
-1298.2736753648860031
 31
0.0
1001
ACDBBLOCKREPETAG
1070
     1
1071
       50
1005
128B52
  0
ARC
  5
128B53
  8
OBJECT
 10
11961.0
 20
-1441.5499814951811004
 30
0.0
 40
12.0
 50
205.1361620458999084
 51
274.8638379540572032
1001
ACDBBLOCKREPETAG
1070
     1
1071
       51
1005
128B53
  0
LINE
  5
128B54
  8
OBJECT
 10
11962.0174567926896998
 20
-1453.5067695954630835
 30
0.0
 11
12006.4438930203596101
 21
-1449.7263246351039925
 31
0.0
1001
ACDBBLOCKREPETAG
1070
     1
1071
       52
1005
128B54
  0
LINE
  5
128B55
  8
OBJECT
 10
11950.1363893611396634
 20
-1446.6472321156040834
 30
0.0
 11
11931.1971326205803052
 21
-1406.2825872626428918
 31
0.0
1001
ACDBBLOCKREPETAG
1070
     1
1071
       53
1005
128B55
  0
TEXT
  5
128B56
  8
SLIM
 10
0.0
 20
520.0
 30
0.0
 40
100.0
  1
4SVT-A4-W【管底】
 41
0.75
  0
TEXT
  5
128B57
  8
SLIM
 10
0.0
 20
670.0
 30
0.0
 40
100.0
  1
4SVT-A4-S【管底】
 41
0.75
  0
LINE
  5
128B58
  8
OBJECT
 10
1943.0
 20
-1099.9999999999959073
 30
0.0
 11
2057.0
 21
-1099.9999999999959073
 31
0.0
1001
ACDBBLOCKREPETAG
1070
     1
1071
        0
1005
128B58
  0
LINE
  5
128B59
  8
OBJECT
 10
1943.0
 20
-1099.9999999999959073
 30
0.0
 11
1943.0
 21
-999.999999999996021
 31
0.0
1001
ACDBBLOCKREPETAG
1070
     1
1071
        1
1005
128B59
  0
LINE
  5
128B5A
  8
OBJECT
 10
2057.0
 20
-1099.9999999999959073
 30
0.0
 11
2057.0
 21
-999.999999999996021
 31
0.0
1001
ACDBBLOCKREPETAG
1070
     1
1071
        2
1005
128B5A
  0
LINE
  5
128B5B
  8
OBJECT
 10
1943.0
 20
-999.999999999996021
 30
0.0
 11
2057.0
 21
-999.999999999996021
 31
0.0
1001
ACDBBLOCKREPETAG
1070
     1
1071
        3
1005
128B5B
  0
LINE
  5
128B5C
  8
HIDDEN
 10
1950.0
 20
-999.999999999996021
 30
0.0
 11
1950.0
 21
-1099.9999999999959073
 31
0.0
1001
ACDBBLOCKREPETAG
1070
     1
1071
        4
1005
128B5C
  0
LINE
  5
128B5D
  8
HIDDEN
 10
2050.0
 20
-999.999999999996021
 30
0.0
 11
2050.0
 21
-1099.9999999999959073
 31
0.0
1001
ACDBBLOCKREPETAG
1070
     1
1071
        5
1005
128B5D
  0
LINE
  5
128B5E
  8
CENTER
 10
2000.0
 20
-789.9999999999994316
 30
0.0
 11
2000.0
 21
-1114.9999999999959073
 31
0.0
1001
ACDBBLOCKREPETAG
1070
     1
1071
        6
1005
128B5E
  0
LINE
  5
128B5F
  8
OBJECT
 10
1925.0
 20
-789.9999999999994316
 30
0.0
 11
1925.0
 21
-871.9999999999959073
 31
0.0
1001
ACDBBLOCKREPETAG
1070
     1
1071
        7
1005
128B5F
  0
LINE
  5
128B60
  8
OBJECT
 10
2075.0
 20
-789.9999999999994316
 30
0.0
 11
2075.0
 21
-871.9999999999959073
 31
0.0
1001
ACDBBLOCKREPETAG
1070
     1
1071
        8
1005
128B60
  0
LINE
  5
128B61
  8
OBJECT
 10
1925.0
 20
-871.9999999999959073
 30
0.0
 11
2075.0
 21
-871.9999999999959073
 31
0.0
1001
ACDBBLOCKREPETAG
1070
     1
1071
        9
1005
128B61
  0
LINE
  5
128B62
  8
OBJECT
 10
1925.0
 20
-871.9999999999959073
 30
0.0
 11
1943.0
 21
-999.999999999996021
 31
0.0
1001
ACDBBLOCKREPETAG
1070
     1
1071
       10
1005
128B62
  0
LINE
  5
128B63
  8
OBJECT
 10
2057.0
 20
-999.999999999996021
 30
0.0
 11
2075.0
 21
-871.9999999999959073
 31
0.0
1001
ACDBBLOCKREPETAG
1070
     1
1071
       11
1005
128B63
  0
LINE
  5
128B64
  8
OBJECT
 10
2443.0
 20
-1099.9999999999959073
 30
0.0
 11
2557.0
 21
-1099.9999999999959073
 31
0.0
1001
ACDBBLOCKREPETAG
1070
     1
1071
        0
1005
128B64
  0
LINE
  5
128B65
  8
OBJECT
 10
2443.0
 20
-1099.9999999999959073
 30
0.0
 11
2443.0
 21
-999.999999999996021
 31
0.0
1001
ACDBBLOCKREPETAG
1070
     1
1071
        1
1005
128B65
  0
LINE
  5
128B66
  8
OBJECT
 10
2557.0
 20
-1099.9999999999959073
 30
0.0
 11
2557.0
 21
-999.999999999996021
 31
0.0
1001
ACDBBLOCKREPETAG
1070
     1
1071
        2
1005
128B66
  0
LINE
  5
128B67
  8
OBJECT
 10
2443.0
 20
-999.999999999996021
 30
0.0
 11
2557.0
 21
-999.999999999996021
 31
0.0
1001
ACDBBLOCKREPETAG
1070
     1
1071
        3
1005
128B67
  0
LINE
  5
128B68
  8
HIDDEN
 10
2450.0
 20
-999.999999999996021
 30
0.0
 11
2450.0
 21
-1099.9999999999959073
 31
0.0
1001
ACDBBLOCKREPETAG
1070
     1
1071
        4
1005
128B68
  0
LINE
  5
128B69
  8
HIDDEN
 10
2550.0
 20
-999.999999999996021
 30
0.0
 11
2550.0
 21
-1099.9999999999959073
 31
0.0
1001
ACDBBLOCKREPETAG
1070
     1
1071
        5
1005
128B69
  0
LINE
  5
128B6A
  8
CENTER
 10
2500.0
 20
-789.9999999999994316
 30
0.0
 11
2500.0
 21
-1114.9999999999959073
 31
0.0
1001
ACDBBLOCKREPETAG
1070
     1
1071
        6
1005
128B6A
  0
LINE
  5
128B6B
  8
OBJECT
 10
2425.0
 20
-789.9999999999994316
 30
0.0
 11
2425.0
 21
-871.9999999999959073
 31
0.0
1001
ACDBBLOCKREPETAG
1070
     1
1071
        7
1005
128B6B
  0
LINE
  5
128B6C
  8
OBJECT
 10
2575.0
 20
-789.9999999999994316
 30
0.0
 11
2575.0
 21
-871.9999999999959073
 31
0.0
1001
ACDBBLOCKREPETAG
1070
     1
1071
        8
1005
128B6C
  0
LINE
  5
128B6D
  8
OBJECT
 10
2425.0
 20
-871.9999999999959073
 30
0.0
 11
2575.0
 21
-871.9999999999959073
 31
0.0
1001
ACDBBLOCKREPETAG
1070
     1
1071
        9
1005
128B6D
  0
LINE
  5
128B6E
  8
OBJECT
 10
2425.0
 20
-871.9999999999959073
 30
0.0
 11
2443.0
 21
-999.999999999996021
 31
0.0
1001
ACDBBLOCKREPETAG
1070
     1
1071
       10
1005
128B6E
  0
LINE
  5
128B6F
  8
OBJECT
 10
2557.0
 20
-999.999999999996021
 30
0.0
 11
2575.0
 21
-871.9999999999959073
 31
0.0
1001
ACDBBLOCKREPETAG
1070
     1
1071
       11
1005
128B6F
  0
LINE
  5
128B70
  8
OBJECT
 10
4090.0
 20
-1084.9999999999959073
 30
0.0
 11
3924.0
 21
-1084.9999999999959073
 31
0.0
1001
ACDBBLOCKREPETAG
1070
     1
1071
       12
1005
128B70
  0
LINE
  5
128B71
  8
OBJECT
 10
4066.0
 20
-1048.9999999999959073
 30
0.0
 11
3934.0
 21
-1048.9999999999959073
 31
0.0
1001
ACDBBLOCKREPETAG
1070
     1
1071
       13
1005
128B71
  0
LINE
  5
128B72
  8
OBJECT
 10
4090.0
 20
-1099.9999999999990905
 30
0.0
 11
4090.0
 21
-1084.9999999999959073
 31
0.0
1001
ACDBBLOCKREPETAG
1070
     1
1071
       14
1005
128B72
  0
LINE
  5
128B73
  8
OBJECT
 10
3924.0
 20
-1099.9999999999990905
 30
0.0
 11
4090.0
 21
-1099.9999999999990905
 31
0.0
1001
ACDBBLOCKREPETAG
1070
     1
1071
       15
1005
128B73
  0
LINE
  5
128B74
  8
OBJECT
 10
4067.4999999999840838
 20
-1099.9999999999990905
 30
0.0
 11
4067.4999999999840838
 21
-1109.9999999999990905
 31
0.0
1001
ACDBBLOCKREPETAG
1070
     1
1071
       16
1005
128B74
  0
LINE
  5
128B75
  8
OBJECT
 10
3924.0
 20
-1109.9999999999990905
 30
0.0
 11
3924.0
 21
-1123.9999999999959073
 31
0.0
1001
ACDBBLOCKREPETAG
1070
     1
1071
       17
1005
128B75
  0
LINE
  5
128B76
  8
OBJECT
 10
4090.0
 20
-1109.9999999999990905
 30
0.0
 11
4090.0
 21
-1123.9999999999959073
 31
0.0
1001
ACDBBLOCKREPETAG
1070
     1
1071
       18
1005
128B76
  0
LINE
  5
128B77
  8
OBJECT
 10
3924.0
 20
-1123.9999999999959073
 30
0.0
 11
4090.0
 21
-1123.9999999999959073
 31
0.0
1001
ACDBBLOCKREPETAG
1070
     1
1071
       19
1005
128B77
  0
LINE
  5
128B78
  8
OBJECT
 10
3924.0
 20
-1109.9999999999990905
 30
0.0
 11
4090.0
 21
-1109.9999999999990905
 31
0.0
1001
ACDBBLOCKREPETAG
1070
     1
1071
       20
1005
128B78
  0
LINE
  5
128B79
  8
OBJECT
 10
3932.4999999999849933
 20
-1099.9999999999990905
 30
0.0
 11
3932.4999999999849933
 21
-1109.9999999999990905
 31
0.0
1001
ACDBBLOCKREPETAG
1070
     1
1071
       21
1005
128B79
  0
LINE
  5
128B7A
  8
OBJECT
 10
3924.0
 20
-1099.9999999999990905
 30
0.0
 11
3924.0
 21
-1084.9999999999959073
 31
0.0
1001
ACDBBLOCKREPETAG
1070
     1
1071
       22
1005
128B7A
  0
LINE
  5
128B7B
  8
HIDDEN
 10
3943.0
 20
-1059.9999999999990905
 30
0.0
 11
4057.0
 21
-1059.9999999999990905
 31
0.0
1001
ACDBBLOCKREPETAG
1070
     1
1071
       23
1005
128B7B
  0
LINE
  5
128B7C
  8
CENTER
 10
4000.0
 20
-789.9999999999994316
 30
0.0
 11
4000.0
 21
-1138.9999999999959073
 31
0.0
1001
ACDBBLOCKREPETAG
1070
     1
1071
       24
1005
128B7C
  0
LINE
  5
128B7D
  8
OBJECT
 10
3925.0
 20
-789.9999999999994316
 30
0.0
 11
3925.0
 21
-871.9999999999959073
 31
0.0
1001
ACDBBLOCKREPETAG
1070
     1
1071
       25
1005
128B7D
  0
LINE
  5
128B7E
  8
OBJECT
 10
4075.0
 20
-789.9999999999994316
 30
0.0
 11
4075.0
 21
-871.9999999999921556
 31
0.0
1001
ACDBBLOCKREPETAG
1070
     1
1071
       26
1005
128B7E
  0
LINE
  5
128B7F
  8
OBJECT
 10
3925.0
 20
-871.9999999999959073
 30
0.0
 11
4075.0
 21
-871.9999999999921556
 31
0.0
1001
ACDBBLOCKREPETAG
1070
     1
1071
       27
1005
128B7F
  0
LINE
  5
128B80
  8
OBJECT
 10
4057.0
 20
-1048.9999999999959073
 30
0.0
 11
4057.0
 21
-999.9999999999922693
 31
0.0
1001
ACDBBLOCKREPETAG
1070
     1
1071
       28
1005
128B80
  0
LINE
  5
128B81
  8
OBJECT
 10
3943.0
 20
-1048.9999999999959073
 30
0.0
 11
3943.0
 21
-999.9999999999922693
 31
0.0
1001
ACDBBLOCKREPETAG
1070
     1
1071
       29
1005
128B81
  0
LINE
  5
128B82
  8
OBJECT
 10
4057.0
 20
-999.9999999999922693
 30
0.0
 11
3943.0
 21
-999.9999999999922693
 31
0.0
1001
ACDBBLOCKREPETAG
1070
     1
1071
       30
1005
128B82
  0
LINE
  5
128B83
  8
OBJECT
 10
3925.0
 20
-871.9999999999959073
 30
0.0
 11
3943.0
 21
-999.9999999999922693
 31
0.0
1001
ACDBBLOCKREPETAG
1070
     1
1071
       31
1005
128B83
  0
LINE
  5
128B84
  8
OBJECT
 10
4057.0
 20
-999.9999999999922693
 30
0.0
 11
4075.0
 21
-871.9999999999921556
 31
0.0
1001
ACDBBLOCKREPETAG
1070
     1
1071
       32
1005
128B84
  0
LINE
  5
128B85
  8
OBJECT
 10
3934.0
 20
-1048.9999999999959073
 30
0.0
 11
3934.0
 21
-1084.9999999999959073
 31
0.0
1001
ACDBBLOCKREPETAG
1070
     1
1071
       33
1005
128B85
  0
LINE
  5
128B86
  8
OBJECT
 10
4066.0
 20
-1048.9999999999959073
 30
0.0
 11
4066.0
 21
-1084.9999999999959073
 31
0.0
1001
ACDBBLOCKREPETAG
1070
     1
1071
       34
1005
128B86
  0
LINE
  5
128B87
  8
OBJECT
 10
4082.9999999999931788
 20
-1109.9999999999959073
 30
0.0
 11
4082.9999999999931788
 21
-1099.9999999999959073
 31
0.0
1001
ACDBBLOCKREPETAG
1070
     1
1071
       35
1005
128B87
  0
LINE
  5
128B88
  8
OBJECT
 10
4072.9999999999918145
 20
-1109.9999999999959073
 30
0.0
 11
4072.9999999999918145
 21
-1099.9999999999959073
 31
0.0
1001
ACDBBLOCKREPETAG
1070
     1
1071
       36
1005
128B88
  0
LINE
  5
128B89
  8
OBJECT
 10
4068.9999999999840838
 20
-1079.9999999999959073
 30
0.0
 11
4068.9999999999840838
 21
-1084.9999999999959073
 31
0.0
1001
ACDBBLOCKREPETAG
1070
     1
1071
       37
1005
128B89
  0
LINE
  5
128B8A
  8
OBJECT
 10
4087.0
 20
-1079.9999999999959073
 30
0.0
 11
4087.0
 21
-1084.9999999999959073
 31
0.0
1001
ACDBBLOCKREPETAG
1070
     1
1071
       38
1005
128B8A
  0
LINE
  5
128B8B
  8
OBJECT
 10
4087.0
 20
-1079.9999999999959073
 30
0.0
 11
4068.9999999999840838
 21
-1079.9999999999959073
 31
0.0
1001
ACDBBLOCKREPETAG
1070
     1
1071
       39
1005
128B8B
  0
LINE
  5
128B8C
  8
OBJECT
 10
4073.0
 20
-1131.9999999999959073
 30
0.0
 11
4073.0
 21
-1134.9999999999959073
 31
0.0
1001
ACDBBLOCKREPETAG
1070
     1
1071
       40
1005
128B8C
  0
LINE
  5
128B8D
  8
OBJECT
 10
4073.0
 20
-1134.9999999999959073
 30
0.0
 11
4083.0
 21
-1134.9999999999959073
 31
0.0
1001
ACDBBLOCKREPETAG
1070
     1
1071
       41
1005
128B8D
  0
LINE
  5
128B8E
  8
OBJECT
 10
4083.0
 20
-1134.9999999999959073
 30
0.0
 11
4083.0
 21
-1131.9999999999959073
 31
0.0
1001
ACDBBLOCKREPETAG
1070
     1
1071
       43
1005
128B8E
  0
LINE
  5
128B8F
  8
OBJECT
 10
3968.5
 20
-1079.9999999999959073
 30
0.0
 11
3951.9999999999931788
 21
-1079.9999999999959073
 31
0.0
1001
ACDBBLOCKREPETAG
1070
     1
1071
       48
1005
128B8F
  0
LINE
  5
128B90
  8
OBJECT
 10
3976.0
 20
-1084.9999999999959073
 30
0.0
 11
3976.0
 21
-1082.9999999999959073
 31
0.0
1001
ACDBBLOCKREPETAG
1070
     1
1071
       49
1005
128B90
  0
LINE
  5
128B91
  8
OBJECT
 10
3966.0
 20
-1109.9999999999959073
 30
0.0
 11
3966.0
 21
-1099.9999999999959073
 31
0.0
1001
ACDBBLOCKREPETAG
1070
     1
1071
       50
1005
128B91
  0
LINE
  5
128B92
  8
OBJECT
 10
3956.0
 20
-1109.9999999999959073
 30
0.0
 11
3956.0
 21
-1099.9999999999959073
 31
0.0
1001
ACDBBLOCKREPETAG
1070
     1
1071
       51
1005
128B92
  0
LINE
  5
128B93
  8
OBJECT
 10
3951.9999999999931788
 20
-1079.9999999999959073
 30
0.0
 11
3951.9999999999931788
 21
-1084.9999999999959073
 31
0.0
1001
ACDBBLOCKREPETAG
1070
     1
1071
       52
1005
128B93
  0
LINE
  5
128B94
  8
OBJECT
 10
3956.0
 20
-1131.9999999999959073
 30
0.0
 11
3956.0
 21
-1134.9999999999959073
 31
0.0
1001
ACDBBLOCKREPETAG
1070
     1
1071
       53
1005
128B94
  0
LINE
  5
128B95
  8
OBJECT
 10
3956.0
 20
-1134.9999999999959073
 30
0.0
 11
3966.0
 21
-1134.9999999999959073
 31
0.0
1001
ACDBBLOCKREPETAG
1070
     1
1071
       54
1005
128B95
  0
LINE
  5
128B96
  8
OBJECT
 10
3951.1850454237719532
 20
-1131.9999999999959073
 30
0.0
 11
3970.8149545762212256
 21
-1131.9999999999959073
 31
0.0
1001
ACDBBLOCKREPETAG
1070
     1
1071
       55
1005
128B96
  0
LINE
  5
128B97
  8
OBJECT
 10
3966.0
 20
-1134.9999999999959073
 30
0.0
 11
3966.0
 21
-1131.9999999999959073
 31
0.0
1001
ACDBBLOCKREPETAG
1070
     1
1071
       56
1005
128B97
  0
LINE
  5
128B98
  8
OBJECT
 10
3976.0
 20
-1082.9999999999959073
 30
0.0
 11
3968.5
 21
-1079.9999999999959073
 31
0.0
1001
ACDBBLOCKREPETAG
1070
     1
1071
       57
1005
128B98
  0
LINE
  5
128B99
  8
OBJECT
 10
3951.1850454237769554
 20
-1123.9999999999959073
 30
0.0
 11
3951.1850454237769554
 21
-1131.9999999999959073
 31
0.0
1001
ACDBBLOCKREPETAG
1070
     1
1071
      630
1005
128B99
  0
LINE
  5
128B9A
  8
OBJECT
 10
3956.0925227118891598
 20
-1123.9999999999959073
 30
0.0
 11
3956.0925227118891598
 21
-1131.9999999999959073
 31
0.0
1001
ACDBBLOCKREPETAG
1070
     1
1071
      631
1005
128B9A
  0
LINE
  5
128B9B
  8
OBJECT
 10
3965.9074772881122044
 20
-1123.9999999999959073
 30
0.0
 11
3965.9074772881122044
 21
-1131.9999999999959073
 31
0.0
1001
ACDBBLOCKREPETAG
1070
     1
1071
      632
1005
128B9B
  0
LINE
  5
128B9C
  8
OBJECT
 10
3970.8149545762230446
 20
-1123.9999999999959073
 30
0.0
 11
3970.8149545762230446
 21
-1131.9999999999959073
 31
0.0
1001
ACDBBLOCKREPETAG
1070
     1
1071
      633
1005
128B9C
  0
LINE
  5
128B9D
  8
OBJECT
 10
4068.1850454237719532
 20
-1131.9999999999959073
 30
0.0
 11
4087.8149545762198613
 21
-1131.9999999999959073
 31
0.0
1001
ACDBBLOCKREPETAG
1070
     1
1071
      634
1005
128B9D
  0
LINE
  5
128B9E
  8
OBJECT
 10
4068.1850454237769554
 20
-1123.9999999999959073
 30
0.0
 11
4068.1850454237769554
 21
-1131.9999999999959073
 31
0.0
1001
ACDBBLOCKREPETAG
1070
     1
1071
      635
1005
128B9E
  0
LINE
  5
128B9F
  8
OBJECT
 10
4073.0925227118868861
 20
-1123.9999999999959073
 30
0.0
 11
4073.0925227118868861
 21
-1131.9999999999959073
 31
0.0
1001
ACDBBLOCKREPETAG
1070
     1
1071
      636
1005
128B9F
  0
LINE
  5
128BA0
  8
OBJECT
 10
4082.9074772881122044
 20
-1123.9999999999959073
 30
0.0
 11
4082.9074772881122044
 21
-1131.9999999999959073
 31
0.0
1001
ACDBBLOCKREPETAG
1070
     1
1071
      637
1005
128BA0
  0
LINE
  5
128BA1
  8
OBJECT
 10
4087.8149545762230446
 20
-1123.9999999999959073
 30
0.0
 11
4087.8149545762230446
 21
-1131.9999999999959073
 31
0.0
1001
ACDBBLOCKREPETAG
1070
     1
1071
      638
1005
128BA1
  0
LINE
  5
128BA2
  8
OBJECT
 10
6085.9999999999918145
 20
-1123.9999999999990905
 30
0.0
 11
6085.9999999999918145
 21
-1133.9999999999990905
 31
0.0
1001
ACDBBLOCKREPETAG
1070
     1
1071
      121
1005
128BA2
  0
LINE
  5
128BA3
  8
OBJECT
 10
6069.9999999999918145
 20
-1123.9999999999990905
 30
0.0
 11
6069.9999999999918145
 21
-1133.9999999999990905
 31
0.0
1001
ACDBBLOCKREPETAG
1070
     1
1071
      122
1005
128BA3
  0
LINE
  5
128BA4
  8
OBJECT
 10
6085.9999999999918145
 20
-1133.9999999999990905
 30
0.0
 11
6069.9999999999918145
 21
-1133.9999999999990905
 31
0.0
1001
ACDBBLOCKREPETAG
1070
     1
1071
      123
1005
128BA4
  0
LINE
  5
128BA5
  8
OBJECT
 10
6090.0
 20
-1084.9999999999959073
 30
0.0
 11
5924.0
 21
-1084.9999999999959073
 31
0.0
1001
ACDBBLOCKREPETAG
1070
     1
1071
      124
1005
128BA5
  0
LINE
  5
128BA6
  8
OBJECT
 10
6090.0
 20
-1099.9999999999990905
 30
0.0
 11
6090.0
 21
-1084.9999999999959073
 31
0.0
1001
ACDBBLOCKREPETAG
1070
     1
1071
      125
1005
128BA6
  0
LINE
  5
128BA7
  8
OBJECT
 10
5924.0
 20
-1099.9999999999990905
 30
0.0
 11
6090.0
 21
-1099.9999999999990905
 31
0.0
1001
ACDBBLOCKREPETAG
1070
     1
1071
      126
1005
128BA7
  0
LINE
  5
128BA8
  8
OBJECT
 10
6067.4999999999854481
 20
-1099.9999999999990905
 30
0.0
 11
6067.4999999999854481
 21
-1109.9999999999990905
 31
0.0
1001
ACDBBLOCKREPETAG
1070
     1
1071
      127
1005
128BA8
  0
LINE
  5
128BA9
  8
OBJECT
 10
6072.9999999999918145
 20
-1109.9999999999990905
 30
0.0
 11
6072.9999999999918145
 21
-1099.9999999999990905
 31
0.0
1001
ACDBBLOCKREPETAG
1070
     1
1071
      128
1005
128BA9
  0
LINE
  5
128BAA
  8
OBJECT
 10
6082.9999999999918145
 20
-1109.9999999999990905
 30
0.0
 11
6082.9999999999918145
 21
-1099.9999999999990905
 31
0.0
1001
ACDBBLOCKREPETAG
1070
     1
1071
      129
1005
128BAA
  0
LINE
  5
128BAB
  8
OBJECT
 10
5924.0
 20
-1109.9999999999990905
 30
0.0
 11
5924.0
 21
-1123.9999999999959073
 31
0.0
1001
ACDBBLOCKREPETAG
1070
     1
1071
      130
1005
128BAB
  0
LINE
  5
128BAC
  8
OBJECT
 10
6090.0
 20
-1109.9999999999990905
 30
0.0
 11
6090.0
 21
-1123.9999999999959073
 31
0.0
1001
ACDBBLOCKREPETAG
1070
     1
1071
      131
1005
128BAC
  0
LINE
  5
128BAD
  8
OBJECT
 10
5924.0
 20
-1123.9999999999959073
 30
0.0
 11
6090.0
 21
-1123.9999999999959073
 31
0.0
1001
ACDBBLOCKREPETAG
1070
     1
1071
      132
1005
128BAD
  0
LINE
  5
128BAE
  8
OBJECT
 10
5924.0
 20
-1109.9999999999990905
 30
0.0
 11
6090.0
 21
-1109.9999999999990905
 31
0.0
1001
ACDBBLOCKREPETAG
1070
     1
1071
      133
1005
128BAE
  0
LINE
  5
128BAF
  8
OBJECT
 10
5932.4999999999854481
 20
-1099.9999999999990905
 30
0.0
 11
5932.4999999999854481
 21
-1109.9999999999990905
 31
0.0
1001
ACDBBLOCKREPETAG
1070
     1
1071
      134
1005
128BAF
  0
LINE
  5
128BB0
  8
OBJECT
 10
5934.0
 20
-1048.9999999999959073
 30
0.0
 11
6065.9999999999909051
 21
-1048.9999999999959073
 31
0.0
1001
ACDBBLOCKREPETAG
1070
     1
1071
      135
1005
128BB0
  0
LINE
  5
128BB1
  8
OBJECT
 10
5924.0
 20
-1099.9999999999990905
 30
0.0
 11
5924.0
 21
-1084.9999999999959073
 31
0.0
1001
ACDBBLOCKREPETAG
1070
     1
1071
      136
1005
128BB1
  0
LINE
  5
128BB2
  8
HIDDEN
 10
5943.0
 20
-1059.9999999999990905
 30
0.0
 11
6057.0
 21
-1059.9999999999990905
 31
0.0
1001
ACDBBLOCKREPETAG
1070
     1
1071
      137
1005
128BB2
  0
LINE
  5
128BB3
  8
OBJECT
 10
6086.9999999999918145
 20
-1083.2000000000000455
 30
0.0
 11
6086.9999999999918145
 21
-1084.9999999999990905
 31
0.0
1001
ACDBBLOCKREPETAG
1070
     1
1071
      138
1005
128BB3
  0
LINE
  5
128BB4
  8
OBJECT
 10
6068.9999999999909051
 20
-1083.2000000000000455
 30
0.0
 11
6068.9999999999909051
 21
-1084.9999999999990905
 31
0.0
1001
ACDBBLOCKREPETAG
1070
     1
1071
      139
1005
128BB4
  0
LINE
  5
128BB5
  8
OBJECT
 10
6072.2499999999918145
 20
-1073.4999999999990905
 30
0.0
 11
6083.7499999999918145
 21
-1073.4999999999990905
 31
0.0
1001
ACDBBLOCKREPETAG
1070
     1
1071
      140
1005
128BB5
  0
LINE
  5
128BB6
  8
OBJECT
 10
6072.2499999999918145
 20
-1073.4999999999990905
 30
0.0
 11
6072.2499999999918145
 21
-1083.2000000000000455
 31
0.0
1001
ACDBBLOCKREPETAG
1070
     1
1071
      141
1005
128BB6
  0
LINE
  5
128BB7
  8
OBJECT
 10
6083.7499999999918145
 20
-1073.4999999999990905
 30
0.0
 11
6083.7499999999918145
 21
-1083.2000000000000455
 31
0.0
1001
ACDBBLOCKREPETAG
1070
     1
1071
      142
1005
128BB7
  0
LINE
  5
128BB8
  8
OBJECT
 10
5931.9999999999863576
 20
-1164.9999999999990905
 30
0.0
 11
6067.9999999999863576
 21
-1164.9999999999990905
 31
0.0
1001
ACDBBLOCKREPETAG
1070
     1
1071
      143
1005
128BB8
  0
LINE
  5
128BB9
  8
OBJECT
 10
5931.9999999999863576
 20
-1164.9999999999990905
 30
0.0
 11
5931.9999999999863576
 21
-1123.9999999999990905
 31
0.0
1001
ACDBBLOCKREPETAG
1070
     1
1071
      144
1005
128BB9
  0
LINE
  5
128BBA
  8
OBJECT
 10
6067.9999999999863576
 20
-1164.9999999999990905
 30
0.0
 11
6067.9999999999863576
 21
-1123.9999999999990905
 31
0.0
1001
ACDBBLOCKREPETAG
1070
     1
1071
      145
1005
128BBA
  0
LINE
  5
128BBB
  8
OBJECT
 10
6086.9999999999918145
 20
-1083.2000000000000455
 30
0.0
 11
6068.9999999999909051
 21
-1083.2000000000000455
 31
0.0
1001
ACDBBLOCKREPETAG
1070
     1
1071
      146
1005
128BBB
  0
LINE
  5
128BBC
  8
CENTER
 10
6000.0
 20
-789.9999999999994316
 30
0.0
 11
6000.0
 21
-1179.9999999999990905
 31
0.0
1001
ACDBBLOCKREPETAG
1070
     1
1071
      147
1005
128BBC
  0
LINE
  5
128BBD
  8
OBJECT
 10
5925.0
 20
-789.9999999999994316
 30
0.0
 11
5925.0
 21
-871.9999999999959073
 31
0.0
1001
ACDBBLOCKREPETAG
1070
     1
1071
      148
1005
128BBD
  0
LINE
  5
128BBE
  8
OBJECT
 10
6075.0
 20
-789.9999999999994316
 30
0.0
 11
6075.0
 21
-871.9999999999921556
 31
0.0
1001
ACDBBLOCKREPETAG
1070
     1
1071
      149
1005
128BBE
  0
LINE
  5
128BBF
  8
OBJECT
 10
5925.0
 20
-871.9999999999959073
 30
0.0
 11
6075.0
 21
-871.9999999999921556
 31
0.0
1001
ACDBBLOCKREPETAG
1070
     1
1071
      150
1005
128BBF
  0
LINE
  5
128BC0
  8
OBJECT
 10
5943.0
 20
-1048.9999999999959073
 30
0.0
 11
5943.0
 21
-999.9999999999922693
 31
0.0
1001
ACDBBLOCKREPETAG
1070
     1
1071
      151
1005
128BC0
  0
LINE
  5
128BC1
  8
OBJECT
 10
6057.0
 20
-999.9999999999922693
 30
0.0
 11
5943.0
 21
-999.9999999999922693
 31
0.0
1001
ACDBBLOCKREPETAG
1070
     1
1071
      152
1005
128BC1
  0
LINE
  5
128BC2
  8
OBJECT
 10
6057.0
 20
-999.9999999999922693
 30
0.0
 11
6057.0
 21
-1048.9999999999959073
 31
0.0
1001
ACDBBLOCKREPETAG
1070
     1
1071
      153
1005
128BC2
  0
LINE
  5
128BC3
  8
OBJECT
 10
5925.0
 20
-871.9999999999959073
 30
0.0
 11
5943.0
 21
-999.9999999999922693
 31
0.0
1001
ACDBBLOCKREPETAG
1070
     1
1071
      154
1005
128BC3
  0
LINE
  5
128BC4
  8
OBJECT
 10
6057.0
 20
-999.9999999999922693
 30
0.0
 11
6075.0
 21
-871.9999999999921556
 31
0.0
1001
ACDBBLOCKREPETAG
1070
     1
1071
      155
1005
128BC4
  0
LINE
  5
128BC5
  8
OBJECT
 10
5934.0
 20
-1084.9999999999959073
 30
0.0
 11
5934.0
 21
-1048.9999999999959073
 31
0.0
1001
ACDBBLOCKREPETAG
1070
     1
1071
      156
1005
128BC5
  0
LINE
  5
128BC6
  8
OBJECT
 10
6066.0
 20
-1084.9999999999959073
 30
0.0
 11
6065.9999999999909051
 21
-1048.9999999999959073
 31
0.0
1001
ACDBBLOCKREPETAG
1070
     1
1071
      157
1005
128BC6
  0
LINE
  5
128BC7
  8
OBJECT
 10
5954.75
 20
-1074.6999999999929969
 30
0.0
 11
5967.2499999999990905
 21
-1074.6999999999929969
 31
0.0
1001
ACDBBLOCKREPETAG
1070
     1
1071
      158
1005
128BC7
  0
LINE
  5
128BC8
  8
OBJECT
 10
5946.0
 20
-1084.9999999999959073
 30
0.0
 11
5946.0
 21
-1082.6999999999959527
 31
0.0
1001
ACDBBLOCKREPETAG
1070
     1
1071
      159
1005
128BC8
  0
LINE
  5
128BC9
  8
OBJECT
 10
5976.0
 20
-1084.9999999999959073
 30
0.0
 11
5976.0
 21
-1082.6999999999959527
 31
0.0
1001
ACDBBLOCKREPETAG
1070
     1
1071
      160
1005
128BC9
  0
LINE
  5
128BCA
  8
OBJECT
 10
5954.75
 20
-1074.6999999999929969
 30
0.0
 11
5954.75
 21
-1082.6999999999959527
 31
0.0
1001
ACDBBLOCKREPETAG
1070
     1
1071
      161
1005
128BCA
  0
LINE
  5
128BCB
  8
OBJECT
 10
5967.2499999999990905
 20
-1074.6999999999929969
 30
0.0
 11
5967.2499999999990905
 21
-1082.6999999999959527
 31
0.0
1001
ACDBBLOCKREPETAG
1070
     1
1071
      162
1005
128BCB
  0
LINE
  5
128BCC
  8
OBJECT
 10
5946.0
 20
-1082.6999999999959527
 30
0.0
 11
5976.0
 21
-1082.6999999999959527
 31
0.0
1001
ACDBBLOCKREPETAG
1070
     1
1071
      163
1005
128BCC
  0
LINE
  5
128BCD
  8
OBJECT
 10
5953.0
 20
-1123.9999999999959073
 30
0.0
 11
5953.0
 21
-1133.9999999999959073
 31
0.0
1001
ACDBBLOCKREPETAG
1070
     1
1071
      164
1005
128BCD
  0
LINE
  5
128BCE
  8
OBJECT
 10
5969.0
 20
-1123.9999999999959073
 30
0.0
 11
5969.0
 21
-1133.9999999999959073
 31
0.0
1001
ACDBBLOCKREPETAG
1070
     1
1071
      165
1005
128BCE
  0
LINE
  5
128BCF
  8
OBJECT
 10
5953.0
 20
-1133.9999999999959073
 30
0.0
 11
5969.0
 21
-1133.9999999999959073
 31
0.0
1001
ACDBBLOCKREPETAG
1070
     1
1071
      166
1005
128BCF
  0
LINE
  5
128BD0
  8
OBJECT
 10
5966.0
 20
-1109.9999999999959073
 30
0.0
 11
5966.0
 21
-1099.9999999999959073
 31
0.0
1001
ACDBBLOCKREPETAG
1070
     1
1071
      167
1005
128BD0
  0
LINE
  5
128BD1
  8
OBJECT
 10
5956.0
 20
-1109.9999999999959073
 30
0.0
 11
5956.0
 21
-1099.9999999999959073
 31
0.0
1001
ACDBBLOCKREPETAG
1070
     1
1071
      168
1005
128BD1
  0
LINE
  5
128BD2
  8
OBJECT
 10
7943.0
 20
-1099.9999999999959073
 30
0.0
 11
8057.0
 21
-1099.9999999999959073
 31
0.0
1001
ACDBBLOCKREPETAG
1070
     1
1071
        0
1005
128BD2
  0
LINE
  5
128BD3
  8
OBJECT
 10
7943.0
 20
-1099.9999999999959073
 30
0.0
 11
7943.0
 21
-999.999999999996021
 31
0.0
1001
ACDBBLOCKREPETAG
1070
     1
1071
        1
1005
128BD3
  0
LINE
  5
128BD4
  8
OBJECT
 10
8057.0
 20
-1099.9999999999959073
 30
0.0
 11
8057.0
 21
-999.999999999996021
 31
0.0
1001
ACDBBLOCKREPETAG
1070
     1
1071
        2
1005
128BD4
  0
LINE
  5
128BD5
  8
OBJECT
 10
7943.0
 20
-999.999999999996021
 30
0.0
 11
8057.0
 21
-999.999999999996021
 31
0.0
1001
ACDBBLOCKREPETAG
1070
     1
1071
        3
1005
128BD5
  0
LINE
  5
128BD6
  8
HIDDEN
 10
7950.0
 20
-999.999999999996021
 30
0.0
 11
7950.0
 21
-1099.9999999999959073
 31
0.0
1001
ACDBBLOCKREPETAG
1070
     1
1071
        4
1005
128BD6
  0
LINE
  5
128BD7
  8
HIDDEN
 10
8050.0
 20
-999.999999999996021
 30
0.0
 11
8050.0
 21
-1099.9999999999959073
 31
0.0
1001
ACDBBLOCKREPETAG
1070
     1
1071
        5
1005
128BD7
  0
LINE
  5
128BD8
  8
CENTER
 10
8000.0
 20
-789.9999999999994316
 30
0.0
 11
8000.0
 21
-1114.9999999999959073
 31
0.0
1001
ACDBBLOCKREPETAG
1070
     1
1071
        6
1005
128BD8
  0
LINE
  5
128BD9
  8
OBJECT
 10
7925.0
 20
-789.9999999999994316
 30
0.0
 11
7925.0
 21
-871.9999999999959073
 31
0.0
1001
ACDBBLOCKREPETAG
1070
     1
1071
        7
1005
128BD9
  0
LINE
  5
128BDA
  8
OBJECT
 10
8075.0
 20
-789.9999999999994316
 30
0.0
 11
8075.0
 21
-871.9999999999959073
 31
0.0
1001
ACDBBLOCKREPETAG
1070
     1
1071
        8
1005
128BDA
  0
LINE
  5
128BDB
  8
OBJECT
 10
7925.0
 20
-871.9999999999959073
 30
0.0
 11
8075.0
 21
-871.9999999999959073
 31
0.0
1001
ACDBBLOCKREPETAG
1070
     1
1071
        9
1005
128BDB
  0
LINE
  5
128BDC
  8
OBJECT
 10
7925.0
 20
-871.9999999999959073
 30
0.0
 11
7943.0
 21
-999.999999999996021
 31
0.0
1001
ACDBBLOCKREPETAG
1070
     1
1071
       10
1005
128BDC
  0
LINE
  5
128BDD
  8
OBJECT
 10
8057.0
 20
-999.999999999996021
 30
0.0
 11
8075.0
 21
-871.9999999999959073
 31
0.0
1001
ACDBBLOCKREPETAG
1070
     1
1071
       11
1005
128BDD
  0
LINE
  5
128BDE
  8
OBJECT
 10
10090.0
 20
-1084.9999999999959073
 30
0.0
 11
9924.0
 21
-1084.9999999999959073
 31
0.0
1001
ACDBBLOCKREPETAG
1070
     1
1071
       12
1005
128BDE
  0
LINE
  5
128BDF
  8
OBJECT
 10
10066.0
 20
-1048.9999999999959073
 30
0.0
 11
9934.0
 21
-1048.9999999999959073
 31
0.0
1001
ACDBBLOCKREPETAG
1070
     1
1071
       13
1005
128BDF
  0
LINE
  5
128BE0
  8
OBJECT
 10
10090.0
 20
-1099.9999999999990905
 30
0.0
 11
10090.0
 21
-1084.9999999999959073
 31
0.0
1001
ACDBBLOCKREPETAG
1070
     1
1071
       14
1005
128BE0
  0
LINE
  5
128BE1
  8
OBJECT
 10
9924.0
 20
-1099.9999999999990905
 30
0.0
 11
10090.0
 21
-1099.9999999999990905
 31
0.0
1001
ACDBBLOCKREPETAG
1070
     1
1071
       15
1005
128BE1
  0
LINE
  5
128BE2
  8
OBJECT
 10
10067.4999999999799911
 20
-1099.9999999999990905
 30
0.0
 11
10067.4999999999799911
 21
-1109.9999999999990905
 31
0.0
1001
ACDBBLOCKREPETAG
1070
     1
1071
       16
1005
128BE2
  0
LINE
  5
128BE3
  8
OBJECT
 10
9924.0
 20
-1109.9999999999990905
 30
0.0
 11
9924.0
 21
-1123.9999999999959073
 31
0.0
1001
ACDBBLOCKREPETAG
1070
     1
1071
       17
1005
128BE3
  0
LINE
  5
128BE4
  8
OBJECT
 10
10090.0
 20
-1109.9999999999990905
 30
0.0
 11
10090.0
 21
-1123.9999999999959073
 31
0.0
1001
ACDBBLOCKREPETAG
1070
     1
1071
       18
1005
128BE4
  0
LINE
  5
128BE5
  8
OBJECT
 10
9924.0
 20
-1123.9999999999959073
 30
0.0
 11
10090.0
 21
-1123.9999999999959073
 31
0.0
1001
ACDBBLOCKREPETAG
1070
     1
1071
       19
1005
128BE5
  0
LINE
  5
128BE6
  8
OBJECT
 10
9924.0
 20
-1109.9999999999990905
 30
0.0
 11
10090.0
 21
-1109.9999999999990905
 31
0.0
1001
ACDBBLOCKREPETAG
1070
     1
1071
       20
1005
128BE6
  0
LINE
  5
128BE7
  8
OBJECT
 10
9932.4999999999836291
 20
-1099.9999999999990905
 30
0.0
 11
9932.4999999999836291
 21
-1109.9999999999990905
 31
0.0
1001
ACDBBLOCKREPETAG
1070
     1
1071
       21
1005
128BE7
  0
LINE
  5
128BE8
  8
OBJECT
 10
9924.0
 20
-1099.9999999999990905
 30
0.0
 11
9924.0
 21
-1084.9999999999959073
 31
0.0
1001
ACDBBLOCKREPETAG
1070
     1
1071
       22
1005
128BE8
  0
LINE
  5
128BE9
  8
HIDDEN
 10
9943.0
 20
-1059.9999999999990905
 30
0.0
 11
10057.0
 21
-1059.9999999999990905
 31
0.0
1001
ACDBBLOCKREPETAG
1070
     1
1071
       23
1005
128BE9
  0
LINE
  5
128BEA
  8
CENTER
 10
10000.0
 20
-789.9999999999994316
 30
0.0
 11
10000.0
 21
-1138.9999999999959073
 31
0.0
1001
ACDBBLOCKREPETAG
1070
     1
1071
       24
1005
128BEA
  0
LINE
  5
128BEB
  8
OBJECT
 10
9925.0
 20
-789.9999999999994316
 30
0.0
 11
9925.0
 21
-871.9999999999959073
 31
0.0
1001
ACDBBLOCKREPETAG
1070
     1
1071
       25
1005
128BEB
  0
LINE
  5
128BEC
  8
OBJECT
 10
10075.0
 20
-789.9999999999994316
 30
0.0
 11
10075.0
 21
-871.9999999999921556
 31
0.0
1001
ACDBBLOCKREPETAG
1070
     1
1071
       26
1005
128BEC
  0
LINE
  5
128BED
  8
OBJECT
 10
9925.0
 20
-871.9999999999959073
 30
0.0
 11
10075.0
 21
-871.9999999999921556
 31
0.0
1001
ACDBBLOCKREPETAG
1070
     1
1071
       27
1005
128BED
  0
LINE
  5
128BEE
  8
OBJECT
 10
10057.0
 20
-1048.9999999999959073
 30
0.0
 11
10057.0
 21
-999.9999999999922693
 31
0.0
1001
ACDBBLOCKREPETAG
1070
     1
1071
       28
1005
128BEE
  0
LINE
  5
128BEF
  8
OBJECT
 10
9943.0
 20
-1048.9999999999959073
 30
0.0
 11
9943.0
 21
-999.9999999999922693
 31
0.0
1001
ACDBBLOCKREPETAG
1070
     1
1071
       29
1005
128BEF
  0
LINE
  5
128BF0
  8
OBJECT
 10
10057.0
 20
-999.9999999999922693
 30
0.0
 11
9943.0
 21
-999.9999999999922693
 31
0.0
1001
ACDBBLOCKREPETAG
1070
     1
1071
       30
1005
128BF0
  0
LINE
  5
128BF1
  8
OBJECT
 10
9925.0
 20
-871.9999999999959073
 30
0.0
 11
9943.0
 21
-999.9999999999922693
 31
0.0
1001
ACDBBLOCKREPETAG
1070
     1
1071
       31
1005
128BF1
  0
LINE
  5
128BF2
  8
OBJECT
 10
10057.0
 20
-999.9999999999922693
 30
0.0
 11
10075.0
 21
-871.9999999999921556
 31
0.0
1001
ACDBBLOCKREPETAG
1070
     1
1071
       32
1005
128BF2
  0
LINE
  5
128BF3
  8
OBJECT
 10
9934.0
 20
-1048.9999999999959073
 30
0.0
 11
9934.0
 21
-1084.9999999999959073
 31
0.0
1001
ACDBBLOCKREPETAG
1070
     1
1071
       33
1005
128BF3
  0
LINE
  5
128BF4
  8
OBJECT
 10
10066.0
 20
-1048.9999999999959073
 30
0.0
 11
10066.0
 21
-1084.9999999999959073
 31
0.0
1001
ACDBBLOCKREPETAG
1070
     1
1071
       34
1005
128BF4
  0
LINE
  5
128BF5
  8
OBJECT
 10
10082.9999999999909051
 20
-1109.9999999999959073
 30
0.0
 11
10082.9999999999909051
 21
-1099.9999999999959073
 31
0.0
1001
ACDBBLOCKREPETAG
1070
     1
1071
       35
1005
128BF5
  0
LINE
  5
128BF6
  8
OBJECT
 10
10072.9999999999909051
 20
-1109.9999999999959073
 30
0.0
 11
10072.9999999999909051
 21
-1099.9999999999959073
 31
0.0
1001
ACDBBLOCKREPETAG
1070
     1
1071
       36
1005
128BF6
  0
LINE
  5
128BF7
  8
OBJECT
 10
10068.9999999999799911
 20
-1079.9999999999959073
 30
0.0
 11
10068.9999999999799911
 21
-1084.9999999999959073
 31
0.0
1001
ACDBBLOCKREPETAG
1070
     1
1071
       37
1005
128BF7
  0
LINE
  5
128BF8
  8
OBJECT
 10
10087.0
 20
-1079.9999999999959073
 30
0.0
 11
10087.0
 21
-1084.9999999999959073
 31
0.0
1001
ACDBBLOCKREPETAG
1070
     1
1071
       38
1005
128BF8
  0
LINE
  5
128BF9
  8
OBJECT
 10
10087.0
 20
-1079.9999999999959073
 30
0.0
 11
10068.9999999999799911
 21
-1079.9999999999959073
 31
0.0
1001
ACDBBLOCKREPETAG
1070
     1
1071
       39
1005
128BF9
  0
LINE
  5
128BFA
  8
OBJECT
 10
10073.0
 20
-1131.9999999999959073
 30
0.0
 11
10073.0
 21
-1134.9999999999959073
 31
0.0
1001
ACDBBLOCKREPETAG
1070
     1
1071
       40
1005
128BFA
  0
LINE
  5
128BFB
  8
OBJECT
 10
10073.0
 20
-1134.9999999999959073
 30
0.0
 11
10083.0
 21
-1134.9999999999959073
 31
0.0
1001
ACDBBLOCKREPETAG
1070
     1
1071
       41
1005
128BFB
  0
LINE
  5
128BFC
  8
OBJECT
 10
10083.0
 20
-1134.9999999999959073
 30
0.0
 11
10083.0
 21
-1131.9999999999959073
 31
0.0
1001
ACDBBLOCKREPETAG
1070
     1
1071
       43
1005
128BFC
  0
LINE
  5
128BFD
  8
OBJECT
 10
9968.5
 20
-1079.9999999999959073
 30
0.0
 11
9951.9999999999909051
 21
-1079.9999999999959073
 31
0.0
1001
ACDBBLOCKREPETAG
1070
     1
1071
       48
1005
128BFD
  0
LINE
  5
128BFE
  8
OBJECT
 10
9976.0
 20
-1084.9999999999959073
 30
0.0
 11
9976.0
 21
-1082.9999999999959073
 31
0.0
1001
ACDBBLOCKREPETAG
1070
     1
1071
       49
1005
128BFE
  0
LINE
  5
128BFF
  8
OBJECT
 10
9966.0
 20
-1109.9999999999959073
 30
0.0
 11
9966.0
 21
-1099.9999999999959073
 31
0.0
1001
ACDBBLOCKREPETAG
1070
     1
1071
       50
1005
128BFF
  0
LINE
  5
128C00
  8
OBJECT
 10
9956.0
 20
-1109.9999999999959073
 30
0.0
 11
9956.0
 21
-1099.9999999999959073
 31
0.0
1001
ACDBBLOCKREPETAG
1070
     1
1071
       51
1005
128C00
  0
LINE
  5
128C01
  8
OBJECT
 10
9951.9999999999909051
 20
-1079.9999999999959073
 30
0.0
 11
9951.9999999999909051
 21
-1084.9999999999959073
 31
0.0
1001
ACDBBLOCKREPETAG
1070
     1
1071
       52
1005
128C01
  0
LINE
  5
128C02
  8
OBJECT
 10
9956.0
 20
-1131.9999999999959073
 30
0.0
 11
9956.0
 21
-1134.9999999999959073
 31
0.0
1001
ACDBBLOCKREPETAG
1070
     1
1071
       53
1005
128C02
  0
LINE
  5
128C03
  8
OBJECT
 10
9956.0
 20
-1134.9999999999959073
 30
0.0
 11
9966.0
 21
-1134.9999999999959073
 31
0.0
1001
ACDBBLOCKREPETAG
1070
     1
1071
       54
1005
128C03
  0
LINE
  5
128C04
  8
OBJECT
 10
9951.1850454237774102
 20
-1131.9999999999959073
 30
0.0
 11
9970.8149545762153139
 21
-1131.9999999999959073
 31
0.0
1001
ACDBBLOCKREPETAG
1070
     1
1071
       55
1005
128C04
  0
LINE
  5
128C05
  8
OBJECT
 10
9966.0
 20
-1134.9999999999959073
 30
0.0
 11
9966.0
 21
-1131.9999999999959073
 31
0.0
1001
ACDBBLOCKREPETAG
1070
     1
1071
       56
1005
128C05
  0
LINE
  5
128C06
  8
OBJECT
 10
9976.0
 20
-1082.9999999999959073
 30
0.0
 11
9968.5
 21
-1079.9999999999959073
 31
0.0
1001
ACDBBLOCKREPETAG
1070
     1
1071
       57
1005
128C06
  0
LINE
  5
128C07
  8
OBJECT
 10
9951.1850454237774102
 20
-1123.9999999999959073
 30
0.0
 11
9951.1850454237774102
 21
-1131.9999999999959073
 31
0.0
1001
ACDBBLOCKREPETAG
1070
     1
1071
      630
1005
128C07
  0
LINE
  5
128C08
  8
OBJECT
 10
9956.0925227118896146
 20
-1123.9999999999959073
 30
0.0
 11
9956.0925227118896146
 21
-1131.9999999999959073
 31
0.0
1001
ACDBBLOCKREPETAG
1070
     1
1071
      631
1005
128C08
  0
LINE
  5
128C09
  8
OBJECT
 10
9965.9074772881122044
 20
-1123.9999999999959073
 30
0.0
 11
9965.9074772881122044
 21
-1131.9999999999959073
 31
0.0
1001
ACDBBLOCKREPETAG
1070
     1
1071
      632
1005
128C09
  0
LINE
  5
128C0A
  8
OBJECT
 10
9970.8149545762244088
 20
-1123.9999999999959073
 30
0.0
 11
9970.8149545762244088
 21
-1131.9999999999959073
 31
0.0
1001
ACDBBLOCKREPETAG
1070
     1
1071
      633
1005
128C0A
  0
LINE
  5
128C0B
  8
OBJECT
 10
10068.1850454237701342
 20
-1131.9999999999959073
 30
0.0
 11
10087.8149545762207708
 21
-1131.9999999999959073
 31
0.0
1001
ACDBBLOCKREPETAG
1070
     1
1071
      634
1005
128C0B
  0
LINE
  5
128C0C
  8
OBJECT
 10
10068.1850454237701342
 20
-1123.9999999999959073
 30
0.0
 11
10068.1850454237701342
 21
-1131.9999999999959073
 31
0.0
1001
ACDBBLOCKREPETAG
1070
     1
1071
      635
1005
128C0C
  0
LINE
  5
128C0D
  8
OBJECT
 10
10073.0925227118896146
 20
-1123.9999999999959073
 30
0.0
 11
10073.0925227118896146
 21
-1131.9999999999959073
 31
0.0
1001
ACDBBLOCKREPETAG
1070
     1
1071
      636
1005
128C0D
  0
LINE
  5
128C0E
  8
OBJECT
 10
10082.9074772881103854
 20
-1123.9999999999959073
 30
0.0
 11
10082.9074772881103854
 21
-1131.9999999999959073
 31
0.0
1001
ACDBBLOCKREPETAG
1070
     1
1071
      637
1005
128C0E
  0
LINE
  5
128C0F
  8
OBJECT
 10
10087.8149545762207708
 20
-1123.9999999999959073
 30
0.0
 11
10087.8149545762207708
 21
-1131.9999999999959073
 31
0.0
1001
ACDBBLOCKREPETAG
1070
     1
1071
      638
1005
128C0F
  0
LINE
  5
128C10
  8
OBJECT
 10
12085.9999999999909051
 20
-1123.9999999999990905
 30
0.0
 11
12085.9999999999909051
 21
-1133.9999999999990905
 31
0.0
1001
ACDBBLOCKREPETAG
1070
     1
1071
      121
1005
128C10
  0
LINE
  5
128C11
  8
OBJECT
 10
12069.9999999999909051
 20
-1123.9999999999990905
 30
0.0
 11
12069.9999999999909051
 21
-1133.9999999999990905
 31
0.0
1001
ACDBBLOCKREPETAG
1070
     1
1071
      122
1005
128C11
  0
LINE
  5
128C12
  8
OBJECT
 10
12085.9999999999909051
 20
-1133.9999999999990905
 30
0.0
 11
12069.9999999999909051
 21
-1133.9999999999990905
 31
0.0
1001
ACDBBLOCKREPETAG
1070
     1
1071
      123
1005
128C12
  0
LINE
  5
128C13
  8
OBJECT
 10
12090.0
 20
-1084.9999999999959073
 30
0.0
 11
11924.0
 21
-1084.9999999999959073
 31
0.0
1001
ACDBBLOCKREPETAG
1070
     1
1071
      124
1005
128C13
  0
LINE
  5
128C14
  8
OBJECT
 10
12090.0
 20
-1099.9999999999990905
 30
0.0
 11
12090.0
 21
-1084.9999999999959073
 31
0.0
1001
ACDBBLOCKREPETAG
1070
     1
1071
      125
1005
128C14
  0
LINE
  5
128C15
  8
OBJECT
 10
11924.0
 20
-1099.9999999999990905
 30
0.0
 11
12090.0
 21
-1099.9999999999990905
 31
0.0
1001
ACDBBLOCKREPETAG
1070
     1
1071
      126
1005
128C15
  0
LINE
  5
128C16
  8
OBJECT
 10
12067.4999999999799911
 20
-1099.9999999999990905
 30
0.0
 11
12067.4999999999799911
 21
-1109.9999999999990905
 31
0.0
1001
ACDBBLOCKREPETAG
1070
     1
1071
      127
1005
128C16
  0
LINE
  5
128C17
  8
OBJECT
 10
12072.9999999999909051
 20
-1109.9999999999990905
 30
0.0
 11
12072.9999999999909051
 21
-1099.9999999999990905
 31
0.0
1001
ACDBBLOCKREPETAG
1070
     1
1071
      128
1005
128C17
  0
LINE
  5
128C18
  8
OBJECT
 10
12082.9999999999909051
 20
-1109.9999999999990905
 30
0.0
 11
12082.9999999999909051
 21
-1099.9999999999990905
 31
0.0
1001
ACDBBLOCKREPETAG
1070
     1
1071
      129
1005
128C18
  0
LINE
  5
128C19
  8
OBJECT
 10
11924.0
 20
-1109.9999999999990905
 30
0.0
 11
11924.0
 21
-1123.9999999999959073
 31
0.0
1001
ACDBBLOCKREPETAG
1070
     1
1071
      130
1005
128C19
  0
LINE
  5
128C1A
  8
OBJECT
 10
12090.0
 20
-1109.9999999999990905
 30
0.0
 11
12090.0
 21
-1123.9999999999959073
 31
0.0
1001
ACDBBLOCKREPETAG
1070
     1
1071
      131
1005
128C1A
  0
LINE
  5
128C1B
  8
OBJECT
 10
11924.0
 20
-1123.9999999999959073
 30
0.0
 11
12090.0
 21
-1123.9999999999959073
 31
0.0
1001
ACDBBLOCKREPETAG
1070
     1
1071
      132
1005
128C1B
  0
LINE
  5
128C1C
  8
OBJECT
 10
11924.0
 20
-1109.9999999999990905
 30
0.0
 11
12090.0
 21
-1109.9999999999990905
 31
0.0
1001
ACDBBLOCKREPETAG
1070
     1
1071
      133
1005
128C1C
  0
LINE
  5
128C1D
  8
OBJECT
 10
11932.4999999999799911
 20
-1099.9999999999990905
 30
0.0
 11
11932.4999999999799911
 21
-1109.9999999999990905
 31
0.0
1001
ACDBBLOCKREPETAG
1070
     1
1071
      134
1005
128C1D
  0
LINE
  5
128C1E
  8
OBJECT
 10
11934.0
 20
-1048.9999999999959073
 30
0.0
 11
12065.9999999999909051
 21
-1048.9999999999959073
 31
0.0
1001
ACDBBLOCKREPETAG
1070
     1
1071
      135
1005
128C1E
  0
LINE
  5
128C1F
  8
OBJECT
 10
11924.0
 20
-1099.9999999999990905
 30
0.0
 11
11924.0
 21
-1084.9999999999959073
 31
0.0
1001
ACDBBLOCKREPETAG
1070
     1
1071
      136
1005
128C1F
  0
LINE
  5
128C20
  8
HIDDEN
 10
11943.0
 20
-1059.9999999999990905
 30
0.0
 11
12057.0
 21
-1059.9999999999990905
 31
0.0
1001
ACDBBLOCKREPETAG
1070
     1
1071
      137
1005
128C20
  0
LINE
  5
128C21
  8
OBJECT
 10
12086.9999999999909051
 20
-1083.2000000000000455
 30
0.0
 11
12086.9999999999909051
 21
-1084.9999999999990905
 31
0.0
1001
ACDBBLOCKREPETAG
1070
     1
1071
      138
1005
128C21
  0
LINE
  5
128C22
  8
OBJECT
 10
12068.9999999999909051
 20
-1083.2000000000000455
 30
0.0
 11
12068.9999999999909051
 21
-1084.9999999999990905
 31
0.0
1001
ACDBBLOCKREPETAG
1070
     1
1071
      139
1005
128C22
  0
LINE
  5
128C23
  8
OBJECT
 10
12072.2499999999909051
 20
-1073.4999999999990905
 30
0.0
 11
12083.7499999999909051
 21
-1073.4999999999990905
 31
0.0
1001
ACDBBLOCKREPETAG
1070
     1
1071
      140
1005
128C23
  0
LINE
  5
128C24
  8
OBJECT
 10
12072.2499999999909051
 20
-1073.4999999999990905
 30
0.0
 11
12072.2499999999909051
 21
-1083.2000000000000455
 31
0.0
1001
ACDBBLOCKREPETAG
1070
     1
1071
      141
1005
128C24
  0
LINE
  5
128C25
  8
OBJECT
 10
12083.7499999999909051
 20
-1073.4999999999990905
 30
0.0
 11
12083.7499999999909051
 21
-1083.2000000000000455
 31
0.0
1001
ACDBBLOCKREPETAG
1070
     1
1071
      142
1005
128C25
  0
LINE
  5
128C26
  8
OBJECT
 10
11931.9999999999799911
 20
-1164.9999999999990905
 30
0.0
 11
12067.9999999999799911
 21
-1164.9999999999990905
 31
0.0
1001
ACDBBLOCKREPETAG
1070
     1
1071
      143
1005
128C26
  0
LINE
  5
128C27
  8
OBJECT
 10
11931.9999999999799911
 20
-1164.9999999999990905
 30
0.0
 11
11931.9999999999799911
 21
-1123.9999999999990905
 31
0.0
1001
ACDBBLOCKREPETAG
1070
     1
1071
      144
1005
128C27
  0
LINE
  5
128C28
  8
OBJECT
 10
12067.9999999999799911
 20
-1164.9999999999990905
 30
0.0
 11
12067.9999999999799911
 21
-1123.9999999999990905
 31
0.0
1001
ACDBBLOCKREPETAG
1070
     1
1071
      145
1005
128C28
  0
LINE
  5
128C29
  8
OBJECT
 10
12086.9999999999909051
 20
-1083.2000000000000455
 30
0.0
 11
12068.9999999999909051
 21
-1083.2000000000000455
 31
0.0
1001
ACDBBLOCKREPETAG
1070
     1
1071
      146
1005
128C29
  0
LINE
  5
128C2A
  8
CENTER
 10
12000.0
 20
-789.9999999999994316
 30
0.0
 11
12000.0
 21
-1179.9999999999990905
 31
0.0
1001
ACDBBLOCKREPETAG
1070
     1
1071
      147
1005
128C2A
  0
LINE
  5
128C2B
  8
OBJECT
 10
11925.0
 20
-789.9999999999994316
 30
0.0
 11
11925.0
 21
-871.9999999999959073
 31
0.0
1001
ACDBBLOCKREPETAG
1070
     1
1071
      148
1005
128C2B
  0
LINE
  5
128C2C
  8
OBJECT
 10
12075.0
 20
-789.9999999999994316
 30
0.0
 11
12075.0
 21
-871.9999999999921556
 31
0.0
1001
ACDBBLOCKREPETAG
1070
     1
1071
      149
1005
128C2C
  0
LINE
  5
128C2D
  8
OBJECT
 10
11925.0
 20
-871.9999999999959073
 30
0.0
 11
12075.0
 21
-871.9999999999921556
 31
0.0
1001
ACDBBLOCKREPETAG
1070
     1
1071
      150
1005
128C2D
  0
LINE
  5
128C2E
  8
OBJECT
 10
11943.0
 20
-1048.9999999999959073
 30
0.0
 11
11943.0
 21
-999.9999999999922693
 31
0.0
1001
ACDBBLOCKREPETAG
1070
     1
1071
      151
1005
128C2E
  0
LINE
  5
128C2F
  8
OBJECT
 10
12057.0
 20
-999.9999999999922693
 30
0.0
 11
11943.0
 21
-999.9999999999922693
 31
0.0
1001
ACDBBLOCKREPETAG
1070
     1
1071
      152
1005
128C2F
  0
LINE
  5
128C30
  8
OBJECT
 10
12057.0
 20
-999.9999999999922693
 30
0.0
 11
12057.0
 21
-1048.9999999999959073
 31
0.0
1001
ACDBBLOCKREPETAG
1070
     1
1071
      153
1005
128C30
  0
LINE
  5
128C31
  8
OBJECT
 10
11925.0
 20
-871.9999999999959073
 30
0.0
 11
11943.0
 21
-999.9999999999922693
 31
0.0
1001
ACDBBLOCKREPETAG
1070
     1
1071
      154
1005
128C31
  0
LINE
  5
128C32
  8
OBJECT
 10
12057.0
 20
-999.9999999999922693
 30
0.0
 11
12075.0
 21
-871.9999999999921556
 31
0.0
1001
ACDBBLOCKREPETAG
1070
     1
1071
      155
1005
128C32
  0
LINE
  5
128C33
  8
OBJECT
 10
11934.0
 20
-1084.9999999999959073
 30
0.0
 11
11934.0
 21
-1048.9999999999959073
 31
0.0
1001
ACDBBLOCKREPETAG
1070
     1
1071
      156
1005
128C33
  0
LINE
  5
128C34
  8
OBJECT
 10
12066.0
 20
-1084.9999999999959073
 30
0.0
 11
12065.9999999999909051
 21
-1048.9999999999959073
 31
0.0
1001
ACDBBLOCKREPETAG
1070
     1
1071
      157
1005
128C34
  0
LINE
  5
128C35
  8
OBJECT
 10
11954.75
 20
-1074.6999999999929969
 30
0.0
 11
11967.25
 21
-1074.6999999999929969
 31
0.0
1001
ACDBBLOCKREPETAG
1070
     1
1071
      158
1005
128C35
  0
LINE
  5
128C36
  8
OBJECT
 10
11946.0
 20
-1084.9999999999959073
 30
0.0
 11
11946.0
 21
-1082.6999999999959527
 31
0.0
1001
ACDBBLOCKREPETAG
1070
     1
1071
      159
1005
128C36
  0
LINE
  5
128C37
  8
OBJECT
 10
11976.0
 20
-1084.9999999999959073
 30
0.0
 11
11976.0
 21
-1082.6999999999959527
 31
0.0
1001
ACDBBLOCKREPETAG
1070
     1
1071
      160
1005
128C37
  0
LINE
  5
128C38
  8
OBJECT
 10
11954.75
 20
-1074.6999999999929969
 30
0.0
 11
11954.75
 21
-1082.6999999999959527
 31
0.0
1001
ACDBBLOCKREPETAG
1070
     1
1071
      161
1005
128C38
  0
LINE
  5
128C39
  8
OBJECT
 10
11967.25
 20
-1074.6999999999929969
 30
0.0
 11
11967.25
 21
-1082.6999999999959527
 31
0.0
1001
ACDBBLOCKREPETAG
1070
     1
1071
      162
1005
128C39
  0
LINE
  5
128C3A
  8
OBJECT
 10
11946.0
 20
-1082.6999999999959527
 30
0.0
 11
11976.0
 21
-1082.6999999999959527
 31
0.0
1001
ACDBBLOCKREPETAG
1070
     1
1071
      163
1005
128C3A
  0
LINE
  5
128C3B
  8
OBJECT
 10
11953.0
 20
-1123.9999999999959073
 30
0.0
 11
11953.0
 21
-1133.9999999999959073
 31
0.0
1001
ACDBBLOCKREPETAG
1070
     1
1071
      164
1005
128C3B
  0
LINE
  5
128C3C
  8
OBJECT
 10
11969.0
 20
-1123.9999999999959073
 30
0.0
 11
11969.0
 21
-1133.9999999999959073
 31
0.0
1001
ACDBBLOCKREPETAG
1070
     1
1071
      165
1005
128C3C
  0
LINE
  5
128C3D
  8
OBJECT
 10
11953.0
 20
-1133.9999999999959073
 30
0.0
 11
11969.0
 21
-1133.9999999999959073
 31
0.0
1001
ACDBBLOCKREPETAG
1070
     1
1071
      166
1005
128C3D
  0
LINE
  5
128C3E
  8
OBJECT
 10
11966.0
 20
-1109.9999999999959073
 30
0.0
 11
11966.0
 21
-1099.9999999999959073
 31
0.0
1001
ACDBBLOCKREPETAG
1070
     1
1071
      167
1005
128C3E
  0
LINE
  5
128C3F
  8
OBJECT
 10
11956.0
 20
-1109.9999999999959073
 30
0.0
 11
11956.0
 21
-1099.9999999999959073
 31
0.0
1001
ACDBBLOCKREPETAG
1070
     1
1071
      168
1005
128C3F
  0
LINE
  5
128C40
  8
OBJECT
 10
4579.549981495180873
 20
-1084.9999999999959073
 30
0.0
 11
4420.4500185047991181
 21
-1084.9999999999959073
 31
0.0
1001
ACDBBLOCKREPETAG
1070
     1
1071
       62
1005
128C40
  0
LINE
  5
128C41
  8
OBJECT
 10
4566.0
 20
-1048.9999999999959073
 30
0.0
 11
4434.0
 21
-1048.9999999999959073
 31
0.0
1001
ACDBBLOCKREPETAG
1070
     1
1071
       63
1005
128C41
  0
LINE
  5
128C42
  8
OBJECT
 10
4579.549981495180873
 20
-1099.9999999999990905
 30
0.0
 11
4579.549981495180873
 21
-1084.9999999999959073
 31
0.0
1001
ACDBBLOCKREPETAG
1070
     1
1071
       64
1005
128C42
  0
LINE
  5
128C43
  8
OBJECT
 10
4420.4500185047991181
 20
-1099.9999999999990905
 30
0.0
 11
4579.549981495180873
 21
-1099.9999999999990905
 31
0.0
1001
ACDBBLOCKREPETAG
1070
     1
1071
       65
1005
128C43
  0
LINE
  5
128C44
  8
OBJECT
 10
4567.4999999999854481
 20
-1099.9999999999990905
 30
0.0
 11
4567.4999999999854481
 21
-1109.9999999999990905
 31
0.0
1001
ACDBBLOCKREPETAG
1070
     1
1071
       66
1005
128C44
  0
LINE
  5
128C45
  8
OBJECT
 10
4579.549981495180873
 20
-1109.9999999999990905
 30
0.0
 11
4579.549981495180873
 21
-1123.9999999999959073
 31
0.0
1001
ACDBBLOCKREPETAG
1070
     1
1071
       67
1005
128C45
  0
LINE
  5
128C46
  8
OBJECT
 10
4420.4500185048045751
 20
-1123.9999999999959073
 30
0.0
 11
4579.549981495180873
 21
-1123.9999999999959073
 31
0.0
1001
ACDBBLOCKREPETAG
1070
     1
1071
       68
1005
128C46
  0
LINE
  5
128C47
  8
OBJECT
 10
4420.4500185048045751
 20
-1109.9999999999990905
 30
0.0
 11
4579.549981495180873
 21
-1109.9999999999990905
 31
0.0
1001
ACDBBLOCKREPETAG
1070
     1
1071
       69
1005
128C47
  0
LINE
  5
128C48
  8
HIDDEN
 10
4443.0
 20
-1059.9999999999990905
 30
0.0
 11
4557.0
 21
-1059.9999999999990905
 31
0.0
1001
ACDBBLOCKREPETAG
1070
     1
1071
       70
1005
128C48
  0
LINE
  5
128C49
  8
CENTER
 10
4500.0
 20
-789.9999999999994316
 30
0.0
 11
4500.0
 21
-1149.9999999999959073
 31
0.0
1001
ACDBBLOCKREPETAG
1070
     1
1071
       71
1005
128C49
  0
LINE
  5
128C4A
  8
OBJECT
 10
4425.0
 20
-789.9999999999994316
 30
0.0
 11
4425.0
 21
-871.9999999999959073
 31
0.0
1001
ACDBBLOCKREPETAG
1070
     1
1071
       72
1005
128C4A
  0
LINE
  5
128C4B
  8
OBJECT
 10
4575.0
 20
-789.9999999999994316
 30
0.0
 11
4575.0
 21
-871.9999999999921556
 31
0.0
1001
ACDBBLOCKREPETAG
1070
     1
1071
       73
1005
128C4B
  0
LINE
  5
128C4C
  8
OBJECT
 10
4425.0
 20
-871.9999999999959073
 30
0.0
 11
4575.0
 21
-871.9999999999921556
 31
0.0
1001
ACDBBLOCKREPETAG
1070
     1
1071
       74
1005
128C4C
  0
LINE
  5
128C4D
  8
OBJECT
 10
4557.0
 20
-1048.9999999999959073
 30
0.0
 11
4557.0
 21
-999.9999999999922693
 31
0.0
1001
ACDBBLOCKREPETAG
1070
     1
1071
       75
1005
128C4D
  0
LINE
  5
128C4E
  8
OBJECT
 10
4443.0
 20
-1048.9999999999959073
 30
0.0
 11
4443.0
 21
-999.9999999999922693
 31
0.0
1001
ACDBBLOCKREPETAG
1070
     1
1071
       76
1005
128C4E
  0
LINE
  5
128C4F
  8
OBJECT
 10
4557.0
 20
-999.9999999999922693
 30
0.0
 11
4443.0
 21
-999.9999999999922693
 31
0.0
1001
ACDBBLOCKREPETAG
1070
     1
1071
       77
1005
128C4F
  0
LINE
  5
128C50
  8
OBJECT
 10
4425.0
 20
-871.9999999999959073
 30
0.0
 11
4443.0
 21
-999.9999999999922693
 31
0.0
1001
ACDBBLOCKREPETAG
1070
     1
1071
       78
1005
128C50
  0
LINE
  5
128C51
  8
OBJECT
 10
4557.0
 20
-999.9999999999922693
 30
0.0
 11
4575.0
 21
-871.9999999999921556
 31
0.0
1001
ACDBBLOCKREPETAG
1070
     1
1071
       79
1005
128C51
  0
LINE
  5
128C52
  8
OBJECT
 10
4434.0
 20
-1048.9999999999959073
 30
0.0
 11
4434.0
 21
-1084.9999999999959073
 31
0.0
1001
ACDBBLOCKREPETAG
1070
     1
1071
       80
1005
128C52
  0
LINE
  5
128C53
  8
OBJECT
 10
4566.0
 20
-1048.9999999999959073
 30
0.0
 11
4566.0
 21
-1084.9999999999959073
 31
0.0
1001
ACDBBLOCKREPETAG
1070
     1
1071
       81
1005
128C53
  0
LINE
  5
128C54
  8
OBJECT
 10
4420.4500185047991181
 20
-1099.9999999999990905
 30
0.0
 11
4420.4500185047991181
 21
-1084.9999999999959073
 31
0.0
1001
ACDBBLOCKREPETAG
1070
     1
1071
       82
1005
128C54
  0
LINE
  5
128C55
  8
OBJECT
 10
4432.5
 20
-1099.9999999999990905
 30
0.0
 11
4432.5
 21
-1109.9999999999990905
 31
0.0
1001
ACDBBLOCKREPETAG
1070
     1
1071
       83
1005
128C55
  0
LINE
  5
128C56
  8
OBJECT
 10
4420.4500185047991181
 20
-1109.9999999999990905
 30
0.0
 11
4420.4500185047991181
 21
-1123.9999999999959073
 31
0.0
1001
ACDBBLOCKREPETAG
1070
     1
1071
       84
1005
128C56
  0
LINE
  5
128C57
  8
OBJECT
 10
4507.5
 20
-1079.9999999999959073
 30
0.0
 11
4490.9999999999918145
 21
-1079.9999999999959073
 31
0.0
1001
ACDBBLOCKREPETAG
1070
     1
1071
       85
1005
128C57
  0
LINE
  5
128C58
  8
OBJECT
 10
4515.0
 20
-1084.9999999999959073
 30
0.0
 11
4515.0
 21
-1082.9999999999959073
 31
0.0
1001
ACDBBLOCKREPETAG
1070
     1
1071
       86
1005
128C58
  0
LINE
  5
128C59
  8
OBJECT
 10
4505.0
 20
-1109.9999999999959073
 30
0.0
 11
4505.0
 21
-1099.9999999999959073
 31
0.0
1001
ACDBBLOCKREPETAG
1070
     1
1071
       87
1005
128C59
  0
LINE
  5
128C5A
  8
OBJECT
 10
4495.0
 20
-1109.9999999999959073
 30
0.0
 11
4495.0
 21
-1099.9999999999959073
 31
0.0
1001
ACDBBLOCKREPETAG
1070
     1
1071
       88
1005
128C5A
  0
LINE
  5
128C5B
  8
OBJECT
 10
4490.9999999999918145
 20
-1079.9999999999959073
 30
0.0
 11
4490.9999999999918145
 21
-1084.9999999999959073
 31
0.0
1001
ACDBBLOCKREPETAG
1070
     1
1071
       89
1005
128C5B
  0
LINE
  5
128C5C
  8
OBJECT
 10
4495.0
 20
-1131.9999999999959073
 30
0.0
 11
4495.0
 21
-1134.9999999999959073
 31
0.0
1001
ACDBBLOCKREPETAG
1070
     1
1071
       90
1005
128C5C
  0
LINE
  5
128C5D
  8
OBJECT
 10
4495.0
 20
-1134.9999999999959073
 30
0.0
 11
4505.0
 21
-1134.9999999999959073
 31
0.0
1001
ACDBBLOCKREPETAG
1070
     1
1071
       91
1005
128C5D
  0
LINE
  5
128C5E
  8
OBJECT
 10
4505.0
 20
-1134.9999999999959073
 30
0.0
 11
4505.0
 21
-1131.9999999999959073
 31
0.0
1001
ACDBBLOCKREPETAG
1070
     1
1071
       93
1005
128C5E
  0
LINE
  5
128C5F
  8
OBJECT
 10
4515.0
 20
-1082.9999999999959073
 30
0.0
 11
4507.5
 21
-1079.9999999999959073
 31
0.0
1001
ACDBBLOCKREPETAG
1070
     1
1071
       94
1005
128C5F
  0
LINE
  5
128C60
  8
OBJECT
 10
4427.4500185048091225
 20
-1109.9999999999959073
 30
0.0
 11
4427.4500185048091225
 21
-1099.9999999999959073
 31
0.0
1001
ACDBBLOCKREPETAG
1070
     1
1071
       99
1005
128C60
  0
LINE
  5
128C61
  8
OBJECT
 10
4423.4500185048018466
 20
-1079.9999999999959073
 30
0.0
 11
4423.4500185048018466
 21
-1084.9999999999959073
 31
0.0
1001
ACDBBLOCKREPETAG
1070
     1
1071
      100
1005
128C61
  0
LINE
  5
128C62
  8
OBJECT
 10
4434.0
 20
-1079.9999999999959073
 30
0.0
 11
4423.4500185048018466
 21
-1079.9999999999959073
 31
0.0
1001
ACDBBLOCKREPETAG
1070
     1
1071
      101
1005
128C62
  0
LINE
  5
128C63
  8
OBJECT
 10
4427.4500185048091225
 20
-1131.9999999999959073
 30
0.0
 11
4427.4500185048091225
 21
-1134.9999999999959073
 31
0.0
1001
ACDBBLOCKREPETAG
1070
     1
1071
      102
1005
128C63
  0
LINE
  5
128C64
  8
OBJECT
 10
4427.4500185048091225
 20
-1134.9999999999959073
 30
0.0
 11
4437.4500185048091225
 21
-1134.9999999999959073
 31
0.0
1001
ACDBBLOCKREPETAG
1070
     1
1071
      103
1005
128C64
  0
LINE
  5
128C65
  8
OBJECT
 10
4437.4500185048091225
 20
-1134.9999999999959073
 30
0.0
 11
4437.4500185048091225
 21
-1131.9999999999959073
 31
0.0
1001
ACDBBLOCKREPETAG
1070
     1
1071
      105
1005
128C65
  0
LINE
  5
128C66
  8
OBJECT
 10
4572.5499814951908775
 20
-1109.9999999999959073
 30
0.0
 11
4572.5499814951908775
 21
-1099.9999999999959073
 31
0.0
1001
ACDBBLOCKREPETAG
1070
     1
1071
      110
1005
128C66
  0
LINE
  5
128C67
  8
OBJECT
 10
4576.5499814951890585
 20
-1079.9999999999959073
 30
0.0
 11
4576.5499814951890585
 21
-1084.9999999999959073
 31
0.0
1001
ACDBBLOCKREPETAG
1070
     1
1071
      111
1005
128C67
  0
LINE
  5
128C68
  8
OBJECT
 10
4566.0
 20
-1079.9999999999959073
 30
0.0
 11
4576.5499814951890585
 21
-1079.9999999999959073
 31
0.0
1001
ACDBBLOCKREPETAG
1070
     1
1071
      112
1005
128C68
  0
LINE
  5
128C69
  8
OBJECT
 10
4572.5499814951836015
 20
-1131.9999999999959073
 30
0.0
 11
4572.5499814951836015
 21
-1134.9999999999959073
 31
0.0
1001
ACDBBLOCKREPETAG
1070
     1
1071
      113
1005
128C69
  0
LINE
  5
128C6A
  8
OBJECT
 10
4572.5499814951836015
 20
-1134.9999999999959073
 30
0.0
 11
4562.549981495182692
 21
-1134.9999999999959073
 31
0.0
1001
ACDBBLOCKREPETAG
1070
     1
1071
      114
1005
128C6A
  0
LINE
  5
128C6B
  8
OBJECT
 10
4562.549981495182692
 20
-1134.9999999999959073
 30
0.0
 11
4562.549981495182692
 21
-1131.9999999999959073
 31
0.0
1001
ACDBBLOCKREPETAG
1070
     1
1071
      116
1005
128C6B
  0
LINE
  5
128C6C
  8
OBJECT
 10
4422.6350639285810757
 20
-1131.9999999999959073
 30
0.0
 11
4442.2649730810289839
 21
-1131.9999999999959073
 31
0.0
1001
ACDBBLOCKREPETAG
1070
     1
1071
      639
1005
128C6C
  0
LINE
  5
128C6D
  8
OBJECT
 10
4422.6350639285847137
 20
-1123.9999999999959073
 30
0.0
 11
4422.6350639285847137
 21
-1131.9999999999959073
 31
0.0
1001
ACDBBLOCKREPETAG
1070
     1
1071
      640
1005
128C6D
  0
LINE
  5
128C6E
  8
OBJECT
 10
4427.5425412166969181
 20
-1123.9999999999959073
 30
0.0
 11
4427.5425412166969181
 21
-1131.9999999999959073
 31
0.0
1001
ACDBBLOCKREPETAG
1070
     1
1071
      641
1005
128C6E
  0
LINE
  5
128C6F
  8
OBJECT
 10
4437.3574957929213269
 20
-1123.9999999999959073
 30
0.0
 11
4437.3574957929213269
 21
-1131.9999999999959073
 31
0.0
1001
ACDBBLOCKREPETAG
1070
     1
1071
      642
1005
128C6F
  0
LINE
  5
128C70
  8
OBJECT
 10
4442.2649730810326218
 20
-1123.9999999999959073
 30
0.0
 11
4442.2649730810326218
 21
-1131.9999999999959073
 31
0.0
1001
ACDBBLOCKREPETAG
1070
     1
1071
      643
1005
128C70
  0
LINE
  5
128C71
  8
OBJECT
 10
4490.1850454237692247
 20
-1131.9999999999959073
 30
0.0
 11
4509.8149545762207708
 21
-1131.9999999999959073
 31
0.0
1001
ACDBBLOCKREPETAG
1070
     1
1071
      644
1005
128C71
  0
LINE
  5
128C72
  8
OBJECT
 10
4490.1850454237774102
 20
-1123.9999999999959073
 30
0.0
 11
4490.1850454237774102
 21
-1131.9999999999959073
 31
0.0
1001
ACDBBLOCKREPETAG
1070
     1
1071
      645
1005
128C72
  0
LINE
  5
128C73
  8
OBJECT
 10
4495.0925227118877956
 20
-1123.9999999999959073
 30
0.0
 11
4495.0925227118877956
 21
-1131.9999999999959073
 31
0.0
1001
ACDBBLOCKREPETAG
1070
     1
1071
      646
1005
128C73
  0
LINE
  5
128C74
  8
OBJECT
 10
4504.9074772881122044
 20
-1123.9999999999959073
 30
0.0
 11
4504.9074772881122044
 21
-1131.9999999999959073
 31
0.0
1001
ACDBBLOCKREPETAG
1070
     1
1071
      647
1005
128C74
  0
LINE
  5
128C75
  8
OBJECT
 10
4509.8149545762225898
 20
-1123.9999999999959073
 30
0.0
 11
4509.8149545762225898
 21
-1131.9999999999959073
 31
0.0
1001
ACDBBLOCKREPETAG
1070
     1
1071
      648
1005
128C75
  0
LINE
  5
128C76
  8
OBJECT
 10
4557.7350269189555547
 20
-1131.9999999999959073
 30
0.0
 11
4577.3649360714043723
 21
-1131.9999999999959073
 31
0.0
1001
ACDBBLOCKREPETAG
1070
     1
1071
      649
1005
128C76
  0
LINE
  5
128C77
  8
OBJECT
 10
4557.7350269189601022
 20
-1123.9999999999959073
 30
0.0
 11
4557.7350269189601022
 21
-1131.9999999999959073
 31
0.0
1001
ACDBBLOCKREPETAG
1070
     1
1071
      650
1005
128C77
  0
LINE
  5
128C78
  8
OBJECT
 10
4562.6425042070713971
 20
-1123.9999999999959073
 30
0.0
 11
4562.6425042070713971
 21
-1131.9999999999959073
 31
0.0
1001
ACDBBLOCKREPETAG
1070
     1
1071
      651
1005
128C78
  0
LINE
  5
128C79
  8
OBJECT
 10
4572.4574587832958059
 20
-1123.9999999999959073
 30
0.0
 11
4572.4574587832958059
 21
-1131.9999999999959073
 31
0.0
1001
ACDBBLOCKREPETAG
1070
     1
1071
      652
1005
128C79
  0
LINE
  5
128C7A
  8
OBJECT
 10
4577.3649360714071008
 20
-1123.9999999999959073
 30
0.0
 11
4577.3649360714071008
 21
-1131.9999999999959073
 31
0.0
1001
ACDBBLOCKREPETAG
1070
     1
1071
      653
1005
128C7A
  0
LINE
  5
128C7B
  8
OBJECT
 10
6492.0
 20
-1123.9999999999990905
 30
0.0
 11
6492.0
 21
-1133.9999999999990905
 31
0.0
1001
ACDBBLOCKREPETAG
1070
     1
1071
      169
1005
128C7B
  0
LINE
  5
128C7C
  8
OBJECT
 10
6508.0
 20
-1123.9999999999990905
 30
0.0
 11
6508.0
 21
-1133.9999999999990905
 31
0.0
1001
ACDBBLOCKREPETAG
1070
     1
1071
      170
1005
128C7C
  0
LINE
  5
128C7D
  8
OBJECT
 10
6492.0
 20
-1133.9999999999990905
 30
0.0
 11
6508.0
 21
-1133.9999999999990905
 31
0.0
1001
ACDBBLOCKREPETAG
1070
     1
1071
      171
1005
128C7D
  0
LINE
  5
128C7E
  8
OBJECT
 10
6579.5499814951817825
 20
-1084.9999999999959073
 30
0.0
 11
6420.450018504811851
 21
-1084.9999999999959073
 31
0.0
1001
ACDBBLOCKREPETAG
1070
     1
1071
      172
1005
128C7E
  0
LINE
  5
128C7F
  8
OBJECT
 10
6420.450018504811851
 20
-1099.9999999999990905
 30
0.0
 11
6579.5499814951817825
 21
-1099.9999999999990905
 31
0.0
1001
ACDBBLOCKREPETAG
1070
     1
1071
      173
1005
128C7F
  0
LINE
  5
128C80
  8
OBJECT
 10
6495.0
 20
-1109.9999999999990905
 30
0.0
 11
6495.0
 21
-1099.9999999999990905
 31
0.0
1001
ACDBBLOCKREPETAG
1070
     1
1071
      174
1005
128C80
  0
LINE
  5
128C81
  8
OBJECT
 10
6505.0
 20
-1109.9999999999990905
 30
0.0
 11
6505.0
 21
-1099.9999999999990905
 31
0.0
1001
ACDBBLOCKREPETAG
1070
     1
1071
      175
1005
128C81
  0
LINE
  5
128C82
  8
OBJECT
 10
6567.4999999999854481
 20
-1099.9999999999990905
 30
0.0
 11
6567.4999999999854481
 21
-1109.9999999999990905
 31
0.0
1001
ACDBBLOCKREPETAG
1070
     1
1071
      176
1005
128C82
  0
LINE
  5
128C83
  8
OBJECT
 10
6420.450018504806394
 20
-1123.9999999999959073
 30
0.0
 11
6579.549981495189968
 21
-1123.9999999999959073
 31
0.0
1001
ACDBBLOCKREPETAG
1070
     1
1071
      177
1005
128C83
  0
LINE
  5
128C84
  8
OBJECT
 10
6420.450018504806394
 20
-1109.9999999999990905
 30
0.0
 11
6579.549981495189968
 21
-1109.9999999999990905
 31
0.0
1001
ACDBBLOCKREPETAG
1070
     1
1071
      178
1005
128C84
  0
LINE
  5
128C85
  8
OBJECT
 10
6434.0
 20
-1048.9999999999959073
 30
0.0
 11
6565.9999999999918145
 21
-1048.9999999999959073
 31
0.0
1001
ACDBBLOCKREPETAG
1070
     1
1071
      179
1005
128C85
  0
LINE
  5
128C86
  8
HIDDEN
 10
6443.0
 20
-1059.9999999999990905
 30
0.0
 11
6557.0
 21
-1059.9999999999990905
 31
0.0
1001
ACDBBLOCKREPETAG
1070
     1
1071
      180
1005
128C86
  0
LINE
  5
128C87
  8
OBJECT
 10
6515.0
 20
-1083.2000000000000455
 30
0.0
 11
6515.0
 21
-1084.9999999999990905
 31
0.0
1001
ACDBBLOCKREPETAG
1070
     1
1071
      181
1005
128C87
  0
LINE
  5
128C88
  8
OBJECT
 10
6485.0
 20
-1083.2000000000000455
 30
0.0
 11
6485.0
 21
-1084.9999999999990905
 31
0.0
1001
ACDBBLOCKREPETAG
1070
     1
1071
      182
1005
128C88
  0
LINE
  5
128C89
  8
OBJECT
 10
6494.25
 20
-1073.4999999999990905
 30
0.0
 11
6505.75
 21
-1073.4999999999990905
 31
0.0
1001
ACDBBLOCKREPETAG
1070
     1
1071
      183
1005
128C89
  0
LINE
  5
128C8A
  8
OBJECT
 10
6494.25
 20
-1073.4999999999990905
 30
0.0
 11
6494.25
 21
-1083.2000000000000455
 31
0.0
1001
ACDBBLOCKREPETAG
1070
     1
1071
      184
1005
128C8A
  0
LINE
  5
128C8B
  8
OBJECT
 10
6505.75
 20
-1073.4999999999990905
 30
0.0
 11
6505.75
 21
-1083.2000000000000455
 31
0.0
1001
ACDBBLOCKREPETAG
1070
     1
1071
      185
1005
128C8B
  0
LINE
  5
128C8C
  8
OBJECT
 10
6431.9999999999854481
 20
-1164.9999999999990905
 30
0.0
 11
6567.9999999999854481
 21
-1164.9999999999990905
 31
0.0
1001
ACDBBLOCKREPETAG
1070
     1
1071
      186
1005
128C8C
  0
LINE
  5
128C8D
  8
OBJECT
 10
6431.9999999999854481
 20
-1164.9999999999990905
 30
0.0
 11
6431.9999999999854481
 21
-1123.9999999999990905
 31
0.0
1001
ACDBBLOCKREPETAG
1070
     1
1071
      187
1005
128C8D
  0
LINE
  5
128C8E
  8
OBJECT
 10
6567.9999999999854481
 20
-1164.9999999999990905
 30
0.0
 11
6567.9999999999854481
 21
-1123.9999999999990905
 31
0.0
1001
ACDBBLOCKREPETAG
1070
     1
1071
      188
1005
128C8E
  0
LINE
  5
128C8F
  8
OBJECT
 10
6515.0
 20
-1083.2000000000000455
 30
0.0
 11
6485.0
 21
-1083.2000000000000455
 31
0.0
1001
ACDBBLOCKREPETAG
1070
     1
1071
      189
1005
128C8F
  0
LINE
  5
128C90
  8
CENTER
 10
6500.0
 20
-789.9999999999994316
 30
0.0
 11
6500.0
 21
-1179.9999999999990905
 31
0.0
1001
ACDBBLOCKREPETAG
1070
     1
1071
      190
1005
128C90
  0
LINE
  5
128C91
  8
OBJECT
 10
6425.0
 20
-789.9999999999994316
 30
0.0
 11
6425.0
 21
-871.9999999999959073
 31
0.0
1001
ACDBBLOCKREPETAG
1070
     1
1071
      191
1005
128C91
  0
LINE
  5
128C92
  8
OBJECT
 10
6575.0
 20
-789.9999999999994316
 30
0.0
 11
6575.0
 21
-871.9999999999921556
 31
0.0
1001
ACDBBLOCKREPETAG
1070
     1
1071
      192
1005
128C92
  0
LINE
  5
128C93
  8
OBJECT
 10
6425.0
 20
-871.9999999999959073
 30
0.0
 11
6575.0
 21
-871.9999999999921556
 31
0.0
1001
ACDBBLOCKREPETAG
1070
     1
1071
      193
1005
128C93
  0
LINE
  5
128C94
  8
OBJECT
 10
6443.0
 20
-1048.9999999999959073
 30
0.0
 11
6443.0
 21
-999.9999999999922693
 31
0.0
1001
ACDBBLOCKREPETAG
1070
     1
1071
      194
1005
128C94
  0
LINE
  5
128C95
  8
OBJECT
 10
6557.0
 20
-999.9999999999922693
 30
0.0
 11
6443.0
 21
-999.9999999999922693
 31
0.0
1001
ACDBBLOCKREPETAG
1070
     1
1071
      195
1005
128C95
  0
LINE
  5
128C96
  8
OBJECT
 10
6557.0
 20
-999.9999999999922693
 30
0.0
 11
6557.0
 21
-1048.9999999999959073
 31
0.0
1001
ACDBBLOCKREPETAG
1070
     1
1071
      196
1005
128C96
  0
LINE
  5
128C97
  8
OBJECT
 10
6425.0
 20
-871.9999999999959073
 30
0.0
 11
6443.0
 21
-999.9999999999922693
 31
0.0
1001
ACDBBLOCKREPETAG
1070
     1
1071
      197
1005
128C97
  0
LINE
  5
128C98
  8
OBJECT
 10
6557.0
 20
-999.9999999999922693
 30
0.0
 11
6575.0
 21
-871.9999999999921556
 31
0.0
1001
ACDBBLOCKREPETAG
1070
     1
1071
      198
1005
128C98
  0
LINE
  5
128C99
  8
OBJECT
 10
6434.0
 20
-1084.9999999999959073
 30
0.0
 11
6434.0
 21
-1048.9999999999959073
 31
0.0
1001
ACDBBLOCKREPETAG
1070
     1
1071
      199
1005
128C99
  0
LINE
  5
128C9A
  8
OBJECT
 10
6566.0
 20
-1084.9999999999959073
 30
0.0
 11
6565.9999999999918145
 21
-1048.9999999999959073
 31
0.0
1001
ACDBBLOCKREPETAG
1070
     1
1071
      200
1005
128C9A
  0
LINE
  5
128C9B
  8
OBJECT
 10
6567.4999999999990905
 20
-1099.9999999999990905
 30
0.0
 11
6567.4999999999990905
 21
-1109.9999999999990905
 31
0.0
1001
ACDBBLOCKREPETAG
1070
     1
1071
      201
1005
128C9B
  0
LINE
  5
128C9C
  8
OBJECT
 10
6579.5499814951817825
 20
-1099.9999999999990905
 30
0.0
 11
6579.5499814951817825
 21
-1084.9999999999959073
 31
0.0
1001
ACDBBLOCKREPETAG
1070
     1
1071
      202
1005
128C9C
  0
LINE
  5
128C9D
  8
OBJECT
 10
6579.5499814951817825
 20
-1109.9999999999990905
 30
0.0
 11
6579.5499814951817825
 21
-1123.9999999999959073
 31
0.0
1001
ACDBBLOCKREPETAG
1070
     1
1071
      203
1005
128C9D
  0
LINE
  5
128C9E
  8
OBJECT
 10
6420.450018504806394
 20
-1099.9999999999990905
 30
0.0
 11
6420.450018504806394
 21
-1084.9999999999959073
 31
0.0
1001
ACDBBLOCKREPETAG
1070
     1
1071
      204
1005
128C9E
  0
LINE
  5
128C9F
  8
OBJECT
 10
6420.450018504806394
 20
-1109.9999999999990905
 30
0.0
 11
6420.450018504806394
 21
-1123.9999999999959073
 31
0.0
1001
ACDBBLOCKREPETAG
1070
     1
1071
      205
1005
128C9F
  0
LINE
  5
128CA0
  8
OBJECT
 10
6424.450018504810032
 20
-1123.9999999999990905
 30
0.0
 11
6424.450018504810032
 21
-1133.9999999999990905
 31
0.0
1001
ACDBBLOCKREPETAG
1070
     1
1071
      206
1005
128CA0
  0
LINE
  5
128CA1
  8
OBJECT
 10
6431.9999999999854481
 20
-1133.9999999999990905
 30
0.0
 11
6424.450018504810032
 21
-1133.9999999999990905
 31
0.0
1001
ACDBBLOCKREPETAG
1070
     1
1071
      207
1005
128CA1
  0
LINE
  5
128CA2
  8
OBJECT
 10
6427.450018504810032
 20
-1109.9999999999990905
 30
0.0
 11
6427.450018504810032
 21
-1099.9999999999990905
 31
0.0
1001
ACDBBLOCKREPETAG
1070
     1
1071
      208
1005
128CA2
  0
LINE
  5
128CA3
  8
OBJECT
 10
6423.4500185048091225
 20
-1083.2000000000000455
 30
0.0
 11
6423.4500185048091225
 21
-1084.9999999999990905
 31
0.0
1001
ACDBBLOCKREPETAG
1070
     1
1071
      209
1005
128CA3
  0
LINE
  5
128CA4
  8
OBJECT
 10
6426.7000185048091225
 20
-1073.4999999999990905
 30
0.0
 11
6434.0
 21
-1073.4999999999990905
 31
0.0
1001
ACDBBLOCKREPETAG
1070
     1
1071
      210
1005
128CA4
  0
LINE
  5
128CA5
  8
OBJECT
 10
6426.7000185048091225
 20
-1073.4999999999990905
 30
0.0
 11
6426.7000185048091225
 21
-1083.2000000000000455
 31
0.0
1001
ACDBBLOCKREPETAG
1070
     1
1071
      211
1005
128CA5
  0
LINE
  5
128CA6
  8
OBJECT
 10
6434.0
 20
-1083.2000000000000455
 30
0.0
 11
6423.4500185048091225
 21
-1083.2000000000000455
 31
0.0
1001
ACDBBLOCKREPETAG
1070
     1
1071
      212
1005
128CA6
  0
LINE
  5
128CA7
  8
OBJECT
 10
6432.5
 20
-1099.9999999999990905
 30
0.0
 11
6432.5
 21
-1109.9999999999990905
 31
0.0
1001
ACDBBLOCKREPETAG
1070
     1
1071
      213
1005
128CA7
  0
LINE
  5
128CA8
  8
OBJECT
 10
6432.4999999999863576
 20
-1099.9999999999990905
 30
0.0
 11
6432.4999999999863576
 21
-1109.9999999999990905
 31
0.0
1001
ACDBBLOCKREPETAG
1070
     1
1071
      214
1005
128CA8
  0
LINE
  5
128CA9
  8
OBJECT
 10
6575.549981495189968
 20
-1123.9999999999990905
 30
0.0
 11
6575.549981495189968
 21
-1133.9999999999990905
 31
0.0
1001
ACDBBLOCKREPETAG
1070
     1
1071
      215
1005
128CA9
  0
LINE
  5
128CAA
  8
OBJECT
 10
6568.0
 20
-1133.9999999999990905
 30
0.0
 11
6575.549981495189968
 21
-1133.9999999999990905
 31
0.0
1001
ACDBBLOCKREPETAG
1070
     1
1071
      216
1005
128CAA
  0
LINE
  5
128CAB
  8
OBJECT
 10
6572.549981495191787
 20
-1109.9999999999990905
 30
0.0
 11
6572.549981495191787
 21
-1099.9999999999990905
 31
0.0
1001
ACDBBLOCKREPETAG
1070
     1
1071
      217
1005
128CAB
  0
LINE
  5
128CAC
  8
OBJECT
 10
6576.549981495189968
 20
-1083.2000000000000455
 30
0.0
 11
6576.549981495189968
 21
-1084.9999999999990905
 31
0.0
1001
ACDBBLOCKREPETAG
1070
     1
1071
      218
1005
128CAC
  0
LINE
  5
128CAD
  8
OBJECT
 10
6573.2999814951908775
 20
-1073.4999999999990905
 30
0.0
 11
6566.0
 21
-1073.4999999999990905
 31
0.0
1001
ACDBBLOCKREPETAG
1070
     1
1071
      219
1005
128CAD
  0
LINE
  5
128CAE
  8
OBJECT
 10
6573.2999814951908775
 20
-1073.4999999999990905
 30
0.0
 11
6573.2999814951908775
 21
-1083.2000000000000455
 31
0.0
1001
ACDBBLOCKREPETAG
1070
     1
1071
      220
1005
128CAE
  0
LINE
  5
128CAF
  8
OBJECT
 10
6566.0
 20
-1083.2000000000000455
 30
0.0
 11
6576.549981495189968
 21
-1083.2000000000000455
 31
0.0
1001
ACDBBLOCKREPETAG
1070
     1
1071
      221
1005
128CAF
  0
LINE
  5
128CB0
  8
OBJECT
 10
8443.0
 20
-1099.9999999999959073
 30
0.0
 11
8557.0
 21
-1099.9999999999959073
 31
0.0
1001
ACDBBLOCKREPETAG
1070
     1
1071
        0
1005
128CB0
  0
LINE
  5
128CB1
  8
OBJECT
 10
8443.0
 20
-1099.9999999999959073
 30
0.0
 11
8443.0
 21
-999.999999999996021
 31
0.0
1001
ACDBBLOCKREPETAG
1070
     1
1071
        1
1005
128CB1
  0
LINE
  5
128CB2
  8
OBJECT
 10
8557.0
 20
-1099.9999999999959073
 30
0.0
 11
8557.0
 21
-999.999999999996021
 31
0.0
1001
ACDBBLOCKREPETAG
1070
     1
1071
        2
1005
128CB2
  0
LINE
  5
128CB3
  8
OBJECT
 10
8443.0
 20
-999.999999999996021
 30
0.0
 11
8557.0
 21
-999.999999999996021
 31
0.0
1001
ACDBBLOCKREPETAG
1070
     1
1071
        3
1005
128CB3
  0
LINE
  5
128CB4
  8
HIDDEN
 10
8450.0
 20
-999.999999999996021
 30
0.0
 11
8450.0
 21
-1099.9999999999959073
 31
0.0
1001
ACDBBLOCKREPETAG
1070
     1
1071
        4
1005
128CB4
  0
LINE
  5
128CB5
  8
HIDDEN
 10
8550.0
 20
-999.999999999996021
 30
0.0
 11
8550.0
 21
-1099.9999999999959073
 31
0.0
1001
ACDBBLOCKREPETAG
1070
     1
1071
        5
1005
128CB5
  0
LINE
  5
128CB6
  8
CENTER
 10
8500.0
 20
-789.9999999999994316
 30
0.0
 11
8500.0
 21
-1114.9999999999959073
 31
0.0
1001
ACDBBLOCKREPETAG
1070
     1
1071
        6
1005
128CB6
  0
LINE
  5
128CB7
  8
OBJECT
 10
8425.0
 20
-789.9999999999994316
 30
0.0
 11
8425.0
 21
-871.9999999999959073
 31
0.0
1001
ACDBBLOCKREPETAG
1070
     1
1071
        7
1005
128CB7
  0
LINE
  5
128CB8
  8
OBJECT
 10
8575.0
 20
-789.9999999999994316
 30
0.0
 11
8575.0
 21
-871.9999999999959073
 31
0.0
1001
ACDBBLOCKREPETAG
1070
     1
1071
        8
1005
128CB8
  0
LINE
  5
128CB9
  8
OBJECT
 10
8425.0
 20
-871.9999999999959073
 30
0.0
 11
8575.0
 21
-871.9999999999959073
 31
0.0
1001
ACDBBLOCKREPETAG
1070
     1
1071
        9
1005
128CB9
  0
LINE
  5
128CBA
  8
OBJECT
 10
8425.0
 20
-871.9999999999959073
 30
0.0
 11
8443.0
 21
-999.999999999996021
 31
0.0
1001
ACDBBLOCKREPETAG
1070
     1
1071
       10
1005
128CBA
  0
LINE
  5
128CBB
  8
OBJECT
 10
8557.0
 20
-999.999999999996021
 30
0.0
 11
8575.0
 21
-871.9999999999959073
 31
0.0
1001
ACDBBLOCKREPETAG
1070
     1
1071
       11
1005
128CBB
  0
LINE
  5
128CBC
  8
OBJECT
 10
10579.5499814951799635
 20
-1084.9999999999959073
 30
0.0
 11
10420.4500185048000276
 21
-1084.9999999999959073
 31
0.0
1001
ACDBBLOCKREPETAG
1070
     1
1071
       62
1005
128CBC
  0
LINE
  5
128CBD
  8
OBJECT
 10
10566.0
 20
-1048.9999999999959073
 30
0.0
 11
10434.0
 21
-1048.9999999999959073
 31
0.0
1001
ACDBBLOCKREPETAG
1070
     1
1071
       63
1005
128CBD
  0
LINE
  5
128CBE
  8
OBJECT
 10
10579.5499814951799635
 20
-1099.9999999999990905
 30
0.0
 11
10579.5499814951799635
 21
-1084.9999999999959073
 31
0.0
1001
ACDBBLOCKREPETAG
1070
     1
1071
       64
1005
128CBE
  0
LINE
  5
128CBF
  8
OBJECT
 10
10420.4500185048000276
 20
-1099.9999999999990905
 30
0.0
 11
10579.5499814951799635
 21
-1099.9999999999990905
 31
0.0
1001
ACDBBLOCKREPETAG
1070
     1
1071
       65
1005
128CBF
  0
LINE
  5
128CC0
  8
OBJECT
 10
10567.4999999999799911
 20
-1099.9999999999990905
 30
0.0
 11
10567.4999999999799911
 21
-1109.9999999999990905
 31
0.0
1001
ACDBBLOCKREPETAG
1070
     1
1071
       66
1005
128CC0
  0
LINE
  5
128CC1
  8
OBJECT
 10
10579.5499814951799635
 20
-1109.9999999999990905
 30
0.0
 11
10579.5499814951799635
 21
-1123.9999999999959073
 31
0.0
1001
ACDBBLOCKREPETAG
1070
     1
1071
       67
1005
128CC1
  0
LINE
  5
128CC2
  8
OBJECT
 10
10420.4500185048000276
 20
-1123.9999999999959073
 30
0.0
 11
10579.5499814951799635
 21
-1123.9999999999959073
 31
0.0
1001
ACDBBLOCKREPETAG
1070
     1
1071
       68
1005
128CC2
  0
LINE
  5
128CC3
  8
OBJECT
 10
10420.4500185048000276
 20
-1109.9999999999990905
 30
0.0
 11
10579.5499814951799635
 21
-1109.9999999999990905
 31
0.0
1001
ACDBBLOCKREPETAG
1070
     1
1071
       69
1005
128CC3
  0
LINE
  5
128CC4
  8
HIDDEN
 10
10443.0
 20
-1059.9999999999990905
 30
0.0
 11
10557.0
 21
-1059.9999999999990905
 31
0.0
1001
ACDBBLOCKREPETAG
1070
     1
1071
       70
1005
128CC4
  0
LINE
  5
128CC5
  8
CENTER
 10
10500.0
 20
-789.9999999999994316
 30
0.0
 11
10500.0
 21
-1149.9999999999959073
 31
0.0
1001
ACDBBLOCKREPETAG
1070
     1
1071
       71
1005
128CC5
  0
LINE
  5
128CC6
  8
OBJECT
 10
10425.0
 20
-789.9999999999994316
 30
0.0
 11
10425.0
 21
-871.9999999999959073
 31
0.0
1001
ACDBBLOCKREPETAG
1070
     1
1071
       72
1005
128CC6
  0
LINE
  5
128CC7
  8
OBJECT
 10
10575.0
 20
-789.9999999999994316
 30
0.0
 11
10575.0
 21
-871.9999999999921556
 31
0.0
1001
ACDBBLOCKREPETAG
1070
     1
1071
       73
1005
128CC7
  0
LINE
  5
128CC8
  8
OBJECT
 10
10425.0
 20
-871.9999999999959073
 30
0.0
 11
10575.0
 21
-871.9999999999921556
 31
0.0
1001
ACDBBLOCKREPETAG
1070
     1
1071
       74
1005
128CC8
  0
LINE
  5
128CC9
  8
OBJECT
 10
10557.0
 20
-1048.9999999999959073
 30
0.0
 11
10557.0
 21
-999.9999999999922693
 31
0.0
1001
ACDBBLOCKREPETAG
1070
     1
1071
       75
1005
128CC9
  0
LINE
  5
128CCA
  8
OBJECT
 10
10443.0
 20
-1048.9999999999959073
 30
0.0
 11
10443.0
 21
-999.9999999999922693
 31
0.0
1001
ACDBBLOCKREPETAG
1070
     1
1071
       76
1005
128CCA
  0
LINE
  5
128CCB
  8
OBJECT
 10
10557.0
 20
-999.9999999999922693
 30
0.0
 11
10443.0
 21
-999.9999999999922693
 31
0.0
1001
ACDBBLOCKREPETAG
1070
     1
1071
       77
1005
128CCB
  0
LINE
  5
128CCC
  8
OBJECT
 10
10425.0
 20
-871.9999999999959073
 30
0.0
 11
10443.0
 21
-999.9999999999922693
 31
0.0
1001
ACDBBLOCKREPETAG
1070
     1
1071
       78
1005
128CCC
  0
LINE
  5
128CCD
  8
OBJECT
 10
10557.0
 20
-999.9999999999922693
 30
0.0
 11
10575.0
 21
-871.9999999999921556
 31
0.0
1001
ACDBBLOCKREPETAG
1070
     1
1071
       79
1005
128CCD
  0
LINE
  5
128CCE
  8
OBJECT
 10
10434.0
 20
-1048.9999999999959073
 30
0.0
 11
10434.0
 21
-1084.9999999999959073
 31
0.0
1001
ACDBBLOCKREPETAG
1070
     1
1071
       80
1005
128CCE
  0
LINE
  5
128CCF
  8
OBJECT
 10
10566.0
 20
-1048.9999999999959073
 30
0.0
 11
10566.0
 21
-1084.9999999999959073
 31
0.0
1001
ACDBBLOCKREPETAG
1070
     1
1071
       81
1005
128CCF
  0
LINE
  5
128CD0
  8
OBJECT
 10
10420.4500185048000276
 20
-1099.9999999999990905
 30
0.0
 11
10420.4500185048000276
 21
-1084.9999999999959073
 31
0.0
1001
ACDBBLOCKREPETAG
1070
     1
1071
       82
1005
128CD0
  0
LINE
  5
128CD1
  8
OBJECT
 10
10432.5
 20
-1099.9999999999990905
 30
0.0
 11
10432.5
 21
-1109.9999999999990905
 31
0.0
1001
ACDBBLOCKREPETAG
1070
     1
1071
       83
1005
128CD1
  0
LINE
  5
128CD2
  8
OBJECT
 10
10420.4500185048000276
 20
-1109.9999999999990905
 30
0.0
 11
10420.4500185048000276
 21
-1123.9999999999959073
 31
0.0
1001
ACDBBLOCKREPETAG
1070
     1
1071
       84
1005
128CD2
  0
LINE
  5
128CD3
  8
OBJECT
 10
10507.5
 20
-1079.9999999999959073
 30
0.0
 11
10490.9999999999909051
 21
-1079.9999999999959073
 31
0.0
1001
ACDBBLOCKREPETAG
1070
     1
1071
       85
1005
128CD3
  0
LINE
  5
128CD4
  8
OBJECT
 10
10515.0
 20
-1084.9999999999959073
 30
0.0
 11
10515.0
 21
-1082.9999999999959073
 31
0.0
1001
ACDBBLOCKREPETAG
1070
     1
1071
       86
1005
128CD4
  0
LINE
  5
128CD5
  8
OBJECT
 10
10505.0
 20
-1109.9999999999959073
 30
0.0
 11
10505.0
 21
-1099.9999999999959073
 31
0.0
1001
ACDBBLOCKREPETAG
1070
     1
1071
       87
1005
128CD5
  0
LINE
  5
128CD6
  8
OBJECT
 10
10495.0
 20
-1109.9999999999959073
 30
0.0
 11
10495.0
 21
-1099.9999999999959073
 31
0.0
1001
ACDBBLOCKREPETAG
1070
     1
1071
       88
1005
128CD6
  0
LINE
  5
128CD7
  8
OBJECT
 10
10490.9999999999909051
 20
-1079.9999999999959073
 30
0.0
 11
10490.9999999999909051
 21
-1084.9999999999959073
 31
0.0
1001
ACDBBLOCKREPETAG
1070
     1
1071
       89
1005
128CD7
  0
LINE
  5
128CD8
  8
OBJECT
 10
10495.0
 20
-1131.9999999999959073
 30
0.0
 11
10495.0
 21
-1134.9999999999959073
 31
0.0
1001
ACDBBLOCKREPETAG
1070
     1
1071
       90
1005
128CD8
  0
LINE
  5
128CD9
  8
OBJECT
 10
10495.0
 20
-1134.9999999999959073
 30
0.0
 11
10505.0
 21
-1134.9999999999959073
 31
0.0
1001
ACDBBLOCKREPETAG
1070
     1
1071
       91
1005
128CD9
  0
LINE
  5
128CDA
  8
OBJECT
 10
10505.0
 20
-1134.9999999999959073
 30
0.0
 11
10505.0
 21
-1131.9999999999959073
 31
0.0
1001
ACDBBLOCKREPETAG
1070
     1
1071
       93
1005
128CDA
  0
LINE
  5
128CDB
  8
OBJECT
 10
10515.0
 20
-1082.9999999999959073
 30
0.0
 11
10507.5
 21
-1079.9999999999959073
 31
0.0
1001
ACDBBLOCKREPETAG
1070
     1
1071
       94
1005
128CDB
  0
LINE
  5
128CDC
  8
OBJECT
 10
10427.4500185048091225
 20
-1109.9999999999959073
 30
0.0
 11
10427.4500185048091225
 21
-1099.9999999999959073
 31
0.0
1001
ACDBBLOCKREPETAG
1070
     1
1071
       99
1005
128CDC
  0
LINE
  5
128CDD
  8
OBJECT
 10
10423.4500185048000276
 20
-1079.9999999999959073
 30
0.0
 11
10423.4500185048000276
 21
-1084.9999999999959073
 31
0.0
1001
ACDBBLOCKREPETAG
1070
     1
1071
      100
1005
128CDD
  0
LINE
  5
128CDE
  8
OBJECT
 10
10434.0
 20
-1079.9999999999959073
 30
0.0
 11
10423.4500185048000276
 21
-1079.9999999999959073
 31
0.0
1001
ACDBBLOCKREPETAG
1070
     1
1071
      101
1005
128CDE
  0
LINE
  5
128CDF
  8
OBJECT
 10
10427.4500185048091225
 20
-1131.9999999999959073
 30
0.0
 11
10427.4500185048091225
 21
-1134.9999999999959073
 31
0.0
1001
ACDBBLOCKREPETAG
1070
     1
1071
      102
1005
128CDF
  0
LINE
  5
128CE0
  8
OBJECT
 10
10427.4500185048091225
 20
-1134.9999999999959073
 30
0.0
 11
10437.4500185048091225
 21
-1134.9999999999959073
 31
0.0
1001
ACDBBLOCKREPETAG
1070
     1
1071
      103
1005
128CE0
  0
LINE
  5
128CE1
  8
OBJECT
 10
10437.4500185048091225
 20
-1134.9999999999959073
 30
0.0
 11
10437.4500185048091225
 21
-1131.9999999999959073
 31
0.0
1001
ACDBBLOCKREPETAG
1070
     1
1071
      105
1005
128CE1
  0
LINE
  5
128CE2
  8
OBJECT
 10
10572.5499814951908775
 20
-1109.9999999999959073
 30
0.0
 11
10572.5499814951908775
 21
-1099.9999999999959073
 31
0.0
1001
ACDBBLOCKREPETAG
1070
     1
1071
      110
1005
128CE2
  0
LINE
  5
128CE3
  8
OBJECT
 10
10576.5499814951908775
 20
-1079.9999999999959073
 30
0.0
 11
10576.5499814951908775
 21
-1084.9999999999959073
 31
0.0
1001
ACDBBLOCKREPETAG
1070
     1
1071
      111
1005
128CE3
  0
LINE
  5
128CE4
  8
OBJECT
 10
10566.0
 20
-1079.9999999999959073
 30
0.0
 11
10576.5499814951908775
 21
-1079.9999999999959073
 31
0.0
1001
ACDBBLOCKREPETAG
1070
     1
1071
      112
1005
128CE4
  0
LINE
  5
128CE5
  8
OBJECT
 10
10572.5499814951799635
 20
-1131.9999999999959073
 30
0.0
 11
10572.5499814951799635
 21
-1134.9999999999959073
 31
0.0
1001
ACDBBLOCKREPETAG
1070
     1
1071
      113
1005
128CE5
  0
LINE
  5
128CE6
  8
OBJECT
 10
10572.5499814951799635
 20
-1134.9999999999959073
 30
0.0
 11
10562.5499814951799635
 21
-1134.9999999999959073
 31
0.0
1001
ACDBBLOCKREPETAG
1070
     1
1071
      114
1005
128CE6
  0
LINE
  5
128CE7
  8
OBJECT
 10
10562.5499814951799635
 20
-1134.9999999999959073
 30
0.0
 11
10562.5499814951799635
 21
-1131.9999999999959073
 31
0.0
1001
ACDBBLOCKREPETAG
1070
     1
1071
      116
1005
128CE7
  0
LINE
  5
128CE8
  8
OBJECT
 10
10422.6350639285792568
 20
-1131.9999999999959073
 30
0.0
 11
10442.2649730810207984
 21
-1131.9999999999959073
 31
0.0
1001
ACDBBLOCKREPETAG
1070
     1
1071
      639
1005
128CE8
  0
LINE
  5
128CE9
  8
OBJECT
 10
10422.6350639285792568
 20
-1123.9999999999959073
 30
0.0
 11
10422.6350639285792568
 21
-1131.9999999999959073
 31
0.0
1001
ACDBBLOCKREPETAG
1070
     1
1071
      640
1005
128CE9
  0
LINE
  5
128CEA
  8
OBJECT
 10
10427.5425412166805472
 20
-1123.9999999999959073
 30
0.0
 11
10427.5425412166805472
 21
-1131.9999999999959073
 31
0.0
1001
ACDBBLOCKREPETAG
1070
     1
1071
      641
1005
128CEA
  0
LINE
  5
128CEB
  8
OBJECT
 10
10437.3574957929195079
 20
-1123.9999999999959073
 30
0.0
 11
10437.3574957929195079
 21
-1131.9999999999959073
 31
0.0
1001
ACDBBLOCKREPETAG
1070
     1
1071
      642
1005
128CEB
  0
LINE
  5
128CEC
  8
OBJECT
 10
10442.2649730810207984
 20
-1123.9999999999959073
 30
0.0
 11
10442.2649730810207984
 21
-1131.9999999999959073
 31
0.0
1001
ACDBBLOCKREPETAG
1070
     1
1071
      643
1005
128CEC
  0
LINE
  5
128CED
  8
OBJECT
 10
10490.1850454237592203
 20
-1131.9999999999959073
 30
0.0
 11
10509.8149545762207708
 21
-1131.9999999999959073
 31
0.0
1001
ACDBBLOCKREPETAG
1070
     1
1071
      644
1005
128CED
  0
LINE
  5
128CEE
  8
OBJECT
 10
10490.1850454237592203
 20
-1123.9999999999959073
 30
0.0
 11
10490.1850454237592203
 21
-1131.9999999999959073
 31
0.0
1001
ACDBBLOCKREPETAG
1070
     1
1071
      645
1005
128CEE
  0
LINE
  5
128CEF
  8
OBJECT
 10
10495.0925227118896146
 20
-1123.9999999999959073
 30
0.0
 11
10495.0925227118896146
 21
-1131.9999999999959073
 31
0.0
1001
ACDBBLOCKREPETAG
1070
     1
1071
      646
1005
128CEF
  0
LINE
  5
128CF0
  8
OBJECT
 10
10504.9074772881103854
 20
-1123.9999999999959073
 30
0.0
 11
10504.9074772881103854
 21
-1131.9999999999959073
 31
0.0
1001
ACDBBLOCKREPETAG
1070
     1
1071
      647
1005
128CF0
  0
LINE
  5
128CF1
  8
OBJECT
 10
10509.8149545762207708
 20
-1123.9999999999959073
 30
0.0
 11
10509.8149545762207708
 21
-1131.9999999999959073
 31
0.0
1001
ACDBBLOCKREPETAG
1070
     1
1071
      648
1005
128CF1
  0
LINE
  5
128CF2
  8
OBJECT
 10
10557.7350269189500978
 20
-1131.9999999999959073
 30
0.0
 11
10577.3649360714007344
 21
-1131.9999999999959073
 31
0.0
1001
ACDBBLOCKREPETAG
1070
     1
1071
      649
1005
128CF2
  0
LINE
  5
128CF3
  8
OBJECT
 10
10557.7350269189591927
 20
-1123.9999999999959073
 30
0.0
 11
10557.7350269189591927
 21
-1131.9999999999959073
 31
0.0
1001
ACDBBLOCKREPETAG
1070
     1
1071
      650
1005
128CF3
  0
LINE
  5
128CF4
  8
OBJECT
 10
10562.6425042070695781
 20
-1123.9999999999959073
 30
0.0
 11
10562.6425042070695781
 21
-1131.9999999999959073
 31
0.0
1001
ACDBBLOCKREPETAG
1070
     1
1071
      651
1005
128CF4
  0
LINE
  5
128CF5
  8
OBJECT
 10
10572.4574587832903489
 20
-1123.9999999999959073
 30
0.0
 11
10572.4574587832903489
 21
-1131.9999999999959073
 31
0.0
1001
ACDBBLOCKREPETAG
1070
     1
1071
      652
1005
128CF5
  0
LINE
  5
128CF6
  8
OBJECT
 10
10577.3649360714098293
 20
-1123.9999999999959073
 30
0.0
 11
10577.3649360714098293
 21
-1131.9999999999959073
 31
0.0
1001
ACDBBLOCKREPETAG
1070
     1
1071
      653
1005
128CF6
  0
LINE
  5
128CF7
  8
OBJECT
 10
12492.0
 20
-1123.9999999999990905
 30
0.0
 11
12492.0
 21
-1133.9999999999990905
 31
0.0
1001
ACDBBLOCKREPETAG
1070
     1
1071
      169
1005
128CF7
  0
LINE
  5
128CF8
  8
OBJECT
 10
12508.0
 20
-1123.9999999999990905
 30
0.0
 11
12508.0
 21
-1133.9999999999990905
 31
0.0
1001
ACDBBLOCKREPETAG
1070
     1
1071
      170
1005
128CF8
  0
LINE
  5
128CF9
  8
OBJECT
 10
12492.0
 20
-1133.9999999999990905
 30
0.0
 11
12508.0
 21
-1133.9999999999990905
 31
0.0
1001
ACDBBLOCKREPETAG
1070
     1
1071
      171
1005
128CF9
  0
LINE
  5
128CFA
  8
OBJECT
 10
12579.5499814951799635
 20
-1084.9999999999959073
 30
0.0
 11
12420.4500185048091225
 21
-1084.9999999999959073
 31
0.0
1001
ACDBBLOCKREPETAG
1070
     1
1071
      172
1005
128CFA
  0
LINE
  5
128CFB
  8
OBJECT
 10
12420.4500185048091225
 20
-1099.9999999999990905
 30
0.0
 11
12579.5499814951799635
 21
-1099.9999999999990905
 31
0.0
1001
ACDBBLOCKREPETAG
1070
     1
1071
      173
1005
128CFB
  0
LINE
  5
128CFC
  8
OBJECT
 10
12495.0
 20
-1109.9999999999990905
 30
0.0
 11
12495.0
 21
-1099.9999999999990905
 31
0.0
1001
ACDBBLOCKREPETAG
1070
     1
1071
      174
1005
128CFC
  0
LINE
  5
128CFD
  8
OBJECT
 10
12505.0
 20
-1109.9999999999990905
 30
0.0
 11
12505.0
 21
-1099.9999999999990905
 31
0.0
1001
ACDBBLOCKREPETAG
1070
     1
1071
      175
1005
128CFD
  0
LINE
  5
128CFE
  8
OBJECT
 10
12567.4999999999799911
 20
-1099.9999999999990905
 30
0.0
 11
12567.4999999999799911
 21
-1109.9999999999990905
 31
0.0
1001
ACDBBLOCKREPETAG
1070
     1
1071
      176
1005
128CFE
  0
LINE
  5
128CFF
  8
OBJECT
 10
12420.4500185048000276
 20
-1123.9999999999959073
 30
0.0
 11
12579.5499814951908775
 21
-1123.9999999999959073
 31
0.0
1001
ACDBBLOCKREPETAG
1070
     1
1071
      177
1005
128CFF
  0
LINE
  5
128D00
  8
OBJECT
 10
12420.4500185048000276
 20
-1109.9999999999990905
 30
0.0
 11
12579.5499814951908775
 21
-1109.9999999999990905
 31
0.0
1001
ACDBBLOCKREPETAG
1070
     1
1071
      178
1005
128D00
  0
LINE
  5
128D01
  8
OBJECT
 10
12434.0
 20
-1048.9999999999959073
 30
0.0
 11
12565.9999999999909051
 21
-1048.9999999999959073
 31
0.0
1001
ACDBBLOCKREPETAG
1070
     1
1071
      179
1005
128D01
  0
LINE
  5
128D02
  8
HIDDEN
 10
12443.0
 20
-1059.9999999999990905
 30
0.0
 11
12557.0
 21
-1059.9999999999990905
 31
0.0
1001
ACDBBLOCKREPETAG
1070
     1
1071
      180
1005
128D02
  0
LINE
  5
128D03
  8
OBJECT
 10
12515.0
 20
-1083.2000000000000455
 30
0.0
 11
12515.0
 21
-1084.9999999999990905
 31
0.0
1001
ACDBBLOCKREPETAG
1070
     1
1071
      181
1005
128D03
  0
LINE
  5
128D04
  8
OBJECT
 10
12485.0
 20
-1083.2000000000000455
 30
0.0
 11
12485.0
 21
-1084.9999999999990905
 31
0.0
1001
ACDBBLOCKREPETAG
1070
     1
1071
      182
1005
128D04
  0
LINE
  5
128D05
  8
OBJECT
 10
12494.25
 20
-1073.4999999999990905
 30
0.0
 11
12505.75
 21
-1073.4999999999990905
 31
0.0
1001
ACDBBLOCKREPETAG
1070
     1
1071
      183
1005
128D05
  0
LINE
  5
128D06
  8
OBJECT
 10
12494.25
 20
-1073.4999999999990905
 30
0.0
 11
12494.25
 21
-1083.2000000000000455
 31
0.0
1001
ACDBBLOCKREPETAG
1070
     1
1071
      184
1005
128D06
  0
LINE
  5
128D07
  8
OBJECT
 10
12505.75
 20
-1073.4999999999990905
 30
0.0
 11
12505.75
 21
-1083.2000000000000455
 31
0.0
1001
ACDBBLOCKREPETAG
1070
     1
1071
      185
1005
128D07
  0
LINE
  5
128D08
  8
OBJECT
 10
12431.9999999999799911
 20
-1164.9999999999990905
 30
0.0
 11
12567.9999999999799911
 21
-1164.9999999999990905
 31
0.0
1001
ACDBBLOCKREPETAG
1070
     1
1071
      186
1005
128D08
  0
LINE
  5
128D09
  8
OBJECT
 10
12431.9999999999799911
 20
-1164.9999999999990905
 30
0.0
 11
12431.9999999999799911
 21
-1123.9999999999990905
 31
0.0
1001
ACDBBLOCKREPETAG
1070
     1
1071
      187
1005
128D09
  0
LINE
  5
128D0A
  8
OBJECT
 10
12567.9999999999799911
 20
-1164.9999999999990905
 30
0.0
 11
12567.9999999999799911
 21
-1123.9999999999990905
 31
0.0
1001
ACDBBLOCKREPETAG
1070
     1
1071
      188
1005
128D0A
  0
LINE
  5
128D0B
  8
OBJECT
 10
12515.0
 20
-1083.2000000000000455
 30
0.0
 11
12485.0
 21
-1083.2000000000000455
 31
0.0
1001
ACDBBLOCKREPETAG
1070
     1
1071
      189
1005
128D0B
  0
LINE
  5
128D0C
  8
CENTER
 10
12500.0
 20
-789.9999999999994316
 30
0.0
 11
12500.0
 21
-1179.9999999999990905
 31
0.0
1001
ACDBBLOCKREPETAG
1070
     1
1071
      190
1005
128D0C
  0
LINE
  5
128D0D
  8
OBJECT
 10
12425.0
 20
-789.9999999999994316
 30
0.0
 11
12425.0
 21
-871.9999999999959073
 31
0.0
1001
ACDBBLOCKREPETAG
1070
     1
1071
      191
1005
128D0D
  0
LINE
  5
128D0E
  8
OBJECT
 10
12575.0
 20
-789.9999999999994316
 30
0.0
 11
12575.0
 21
-871.9999999999921556
 31
0.0
1001
ACDBBLOCKREPETAG
1070
     1
1071
      192
1005
128D0E
  0
LINE
  5
128D0F
  8
OBJECT
 10
12425.0
 20
-871.9999999999959073
 30
0.0
 11
12575.0
 21
-871.9999999999921556
 31
0.0
1001
ACDBBLOCKREPETAG
1070
     1
1071
      193
1005
128D0F
  0
LINE
  5
128D10
  8
OBJECT
 10
12443.0
 20
-1048.9999999999959073
 30
0.0
 11
12443.0
 21
-999.9999999999922693
 31
0.0
1001
ACDBBLOCKREPETAG
1070
     1
1071
      194
1005
128D10
  0
LINE
  5
128D11
  8
OBJECT
 10
12557.0
 20
-999.9999999999922693
 30
0.0
 11
12443.0
 21
-999.9999999999922693
 31
0.0
1001
ACDBBLOCKREPETAG
1070
     1
1071
      195
1005
128D11
  0
LINE
  5
128D12
  8
OBJECT
 10
12557.0
 20
-999.9999999999922693
 30
0.0
 11
12557.0
 21
-1048.9999999999959073
 31
0.0
1001
ACDBBLOCKREPETAG
1070
     1
1071
      196
1005
128D12
  0
LINE
  5
128D13
  8
OBJECT
 10
12425.0
 20
-871.9999999999959073
 30
0.0
 11
12443.0
 21
-999.9999999999922693
 31
0.0
1001
ACDBBLOCKREPETAG
1070
     1
1071
      197
1005
128D13
  0
LINE
  5
128D14
  8
OBJECT
 10
12557.0
 20
-999.9999999999922693
 30
0.0
 11
12575.0
 21
-871.9999999999921556
 31
0.0
1001
ACDBBLOCKREPETAG
1070
     1
1071
      198
1005
128D14
  0
LINE
  5
128D15
  8
OBJECT
 10
12434.0
 20
-1084.9999999999959073
 30
0.0
 11
12434.0
 21
-1048.9999999999959073
 31
0.0
1001
ACDBBLOCKREPETAG
1070
     1
1071
      199
1005
128D15
  0
LINE
  5
128D16
  8
OBJECT
 10
12566.0
 20
-1084.9999999999959073
 30
0.0
 11
12565.9999999999909051
 21
-1048.9999999999959073
 31
0.0
1001
ACDBBLOCKREPETAG
1070
     1
1071
      200
1005
128D16
  0
LINE
  5
128D17
  8
OBJECT
 10
12567.5
 20
-1099.9999999999990905
 30
0.0
 11
12567.5
 21
-1109.9999999999990905
 31
0.0
1001
ACDBBLOCKREPETAG
1070
     1
1071
      201
1005
128D17
  0
LINE
  5
128D18
  8
OBJECT
 10
12579.5499814951799635
 20
-1099.9999999999990905
 30
0.0
 11
12579.5499814951799635
 21
-1084.9999999999959073
 31
0.0
1001
ACDBBLOCKREPETAG
1070
     1
1071
      202
1005
128D18
  0
LINE
  5
128D19
  8
OBJECT
 10
12579.5499814951799635
 20
-1109.9999999999990905
 30
0.0
 11
12579.5499814951799635
 21
-1123.9999999999959073
 31
0.0
1001
ACDBBLOCKREPETAG
1070
     1
1071
      203
1005
128D19
  0
LINE
  5
128D1A
  8
OBJECT
 10
12420.4500185048000276
 20
-1099.9999999999990905
 30
0.0
 11
12420.4500185048000276
 21
-1084.9999999999959073
 31
0.0
1001
ACDBBLOCKREPETAG
1070
     1
1071
      204
1005
128D1A
  0
LINE
  5
128D1B
  8
OBJECT
 10
12420.4500185048000276
 20
-1109.9999999999990905
 30
0.0
 11
12420.4500185048000276
 21
-1123.9999999999959073
 31
0.0
1001
ACDBBLOCKREPETAG
1070
     1
1071
      205
1005
128D1B
  0
LINE
  5
128D1C
  8
OBJECT
 10
12424.4500185048091225
 20
-1123.9999999999990905
 30
0.0
 11
12424.4500185048091225
 21
-1133.9999999999990905
 31
0.0
1001
ACDBBLOCKREPETAG
1070
     1
1071
      206
1005
128D1C
  0
LINE
  5
128D1D
  8
OBJECT
 10
12431.9999999999799911
 20
-1133.9999999999990905
 30
0.0
 11
12424.4500185048091225
 21
-1133.9999999999990905
 31
0.0
1001
ACDBBLOCKREPETAG
1070
     1
1071
      207
1005
128D1D
  0
LINE
  5
128D1E
  8
OBJECT
 10
12427.4500185048091225
 20
-1109.9999999999990905
 30
0.0
 11
12427.4500185048091225
 21
-1099.9999999999990905
 31
0.0
1001
ACDBBLOCKREPETAG
1070
     1
1071
      208
1005
128D1E
  0
LINE
  5
128D1F
  8
OBJECT
 10
12423.4500185048091225
 20
-1083.2000000000000455
 30
0.0
 11
12423.4500185048091225
 21
-1084.9999999999990905
 31
0.0
1001
ACDBBLOCKREPETAG
1070
     1
1071
      209
1005
128D1F
  0
LINE
  5
128D20
  8
OBJECT
 10
12426.7000185048091225
 20
-1073.4999999999990905
 30
0.0
 11
12434.0
 21
-1073.4999999999990905
 31
0.0
1001
ACDBBLOCKREPETAG
1070
     1
1071
      210
1005
128D20
  0
LINE
  5
128D21
  8
OBJECT
 10
12426.7000185048091225
 20
-1073.4999999999990905
 30
0.0
 11
12426.7000185048091225
 21
-1083.2000000000000455
 31
0.0
1001
ACDBBLOCKREPETAG
1070
     1
1071
      211
1005
128D21
  0
LINE
  5
128D22
  8
OBJECT
 10
12434.0
 20
-1083.2000000000000455
 30
0.0
 11
12423.4500185048091225
 21
-1083.2000000000000455
 31
0.0
1001
ACDBBLOCKREPETAG
1070
     1
1071
      212
1005
128D22
  0
LINE
  5
128D23
  8
OBJECT
 10
12432.5
 20
-1099.9999999999990905
 30
0.0
 11
12432.5
 21
-1109.9999999999990905
 31
0.0
1001
ACDBBLOCKREPETAG
1070
     1
1071
      213
1005
128D23
  0
LINE
  5
128D24
  8
OBJECT
 10
12432.4999999999799911
 20
-1099.9999999999990905
 30
0.0
 11
12432.4999999999799911
 21
-1109.9999999999990905
 31
0.0
1001
ACDBBLOCKREPETAG
1070
     1
1071
      214
1005
128D24
  0
LINE
  5
128D25
  8
OBJECT
 10
12575.5499814951908775
 20
-1123.9999999999990905
 30
0.0
 11
12575.5499814951908775
 21
-1133.9999999999990905
 31
0.0
1001
ACDBBLOCKREPETAG
1070
     1
1071
      215
1005
128D25
  0
LINE
  5
128D26
  8
OBJECT
 10
12568.0
 20
-1133.9999999999990905
 30
0.0
 11
12575.5499814951908775
 21
-1133.9999999999990905
 31
0.0
1001
ACDBBLOCKREPETAG
1070
     1
1071
      216
1005
128D26
  0
LINE
  5
128D27
  8
OBJECT
 10
12572.5499814951908775
 20
-1109.9999999999990905
 30
0.0
 11
12572.5499814951908775
 21
-1099.9999999999990905
 31
0.0
1001
ACDBBLOCKREPETAG
1070
     1
1071
      217
1005
128D27
  0
LINE
  5
128D28
  8
OBJECT
 10
12576.5499814951908775
 20
-1083.2000000000000455
 30
0.0
 11
12576.5499814951908775
 21
-1084.9999999999990905
 31
0.0
1001
ACDBBLOCKREPETAG
1070
     1
1071
      218
1005
128D28
  0
LINE
  5
128D29
  8
OBJECT
 10
12573.2999814951908775
 20
-1073.4999999999990905
 30
0.0
 11
12566.0
 21
-1073.4999999999990905
 31
0.0
1001
ACDBBLOCKREPETAG
1070
     1
1071
      219
1005
128D29
  0
LINE
  5
128D2A
  8
OBJECT
 10
12573.2999814951908775
 20
-1073.4999999999990905
 30
0.0
 11
12573.2999814951908775
 21
-1083.2000000000000455
 31
0.0
1001
ACDBBLOCKREPETAG
1070
     1
1071
      220
1005
128D2A
  0
LINE
  5
128D2B
  8
OBJECT
 10
12566.0
 20
-1083.2000000000000455
 30
0.0
 11
12576.5499814951908775
 21
-1083.2000000000000455
 31
0.0
1001
ACDBBLOCKREPETAG
1070
     1
1071
      221
1005
128D2B
  0
LINE
  5
128D2C
  8
SLIM
 10
7914.9999999999918145
 20
-659.4738530943469641
 30
0.0
 11
7919.4738530943413934
 21
-654.9999999999994316
 31
0.0
1001
ACAD
1010
0.0
1020
0.0
1030
0.0
1001
ACDBBLOCKREPETAG
1070
     1
1071
        0
1005
0
  0
LINE
  5
128D2D
  8
SLIM
 10
7914.9999999999918145
 20
-677.4343653364843476
 30
0.0
 11
7937.4343653364758211
 21
-654.9999999999994316
 31
0.0
1001
ACAD
1010
0.0
1020
0.0
1030
0.0
1001
ACDBBLOCKREPETAG
1070
     1
1071
       11
1005
128D2D
  0
LINE
  5
128D2E
  8
SLIM
 10
7914.9999999999918145
 20
-695.3948775786224132
 30
0.0
 11
7955.3948775786138867
 21
-654.9999999999994316
 31
0.0
1001
ACAD
1010
0.0
1020
0.0
1030
0.0
1001
ACDBBLOCKREPETAG
1070
     1
1071
       12
1005
128D2E
  0
LINE
  5
128D2F
  8
SLIM
 10
7914.9999999999990905
 20
-713.3553898207600241
 30
0.0
 11
7973.3553898207537713
 21
-654.9999999999994316
 31
0.0
1001
ACAD
1010
0.0
1020
0.0
1030
0.0
1001
ACDBBLOCKREPETAG
1070
     1
1071
       13
1005
128D2F
  0
LINE
  5
128D30
  8
SLIM
 10
7914.999999999998181
 20
-731.3159020628977487
 30
0.0
 11
7991.3159020628927465
 21
-654.9999999999994316
 31
0.0
1001
ACAD
1010
0.0
1020
0.0
1030
0.0
1001
ACDBBLOCKREPETAG
1070
     1
1071
       14
1005
128D30
  0
LINE
  5
128D31
  8
SLIM
 10
7914.999999999998181
 20
-749.2764143050352459
 30
0.0
 11
8009.2764143050289931
 21
-654.9999999999994316
 31
0.0
1001
ACAD
1010
0.0
1020
0.0
1030
0.0
1001
ACDBBLOCKREPETAG
1070
     1
1071
       15
1005
128D31
  0
LINE
  5
128D32
  8
SLIM
 10
7914.999999999998181
 20
-767.2369265471733115
 30
0.0
 11
8027.2369265471688777
 21
-654.9999999999994316
 31
0.0
1001
ACAD
1010
0.0
1020
0.0
1030
0.0
1001
ACDBBLOCKREPETAG
1070
     1
1071
       16
1005
128D32
  0
LINE
  5
128D33
  8
SLIM
 10
7914.9999999999990905
 20
-785.197438789310695
 30
0.0
 11
8045.1974387893096718
 21
-654.9999999999994316
 31
0.0
1001
ACAD
1010
0.0
1020
0.0
1030
0.0
1001
ACDBBLOCKREPETAG
1070
     1
1071
       17
1005
128D33
  0
LINE
  5
128D34
  8
SLIM
 10
7914.9999999999990905
 20
-803.157951031448647
 30
0.0
 11
8063.157951031446828
 21
-654.9999999999994316
 31
0.0
1001
ACAD
1010
0.0
1020
0.0
1030
0.0
1001
ACDBBLOCKREPETAG
1070
     1
1071
       18
1005
128D34
  0
LINE
  5
128D35
  8
SLIM
 10
7914.9999999999990905
 20
-821.1184632735861442
 30
0.0
 11
8081.1184632735839841
 21
-654.9999999999994316
 31
0.0
1001
ACAD
1010
0.0
1020
0.0
1030
0.0
1001
ACDBBLOCKREPETAG
1070
     1
1071
       19
1005
128D35
  0
LINE
  5
128D36
  8
SLIM
 10
7914.999999999998181
 20
-839.0789755157236414
 30
0.0
 11
8085.0000000000063665
 21
-669.078975515716138
 31
0.0
1001
ACAD
1010
0.0
1020
0.0
1030
0.0
1001
ACDBBLOCKREPETAG
1070
     1
1071
       20
1005
128D36
  0
LINE
  5
128D37
  8
SLIM
 10
7914.999999999998181
 20
-857.0394877578618207
 30
0.0
 11
8085.0000000000063665
 21
-687.0394877578545447
 31
0.0
1001
ACAD
1010
0.0
1020
0.0
1030
0.0
1001
ACDBBLOCKREPETAG
1070
     1
1071
       21
1005
128D37
  0
LINE
  5
128D38
  8
SLIM
 10
7915.2836007495579906
 20
-874.7163992504415546
 30
0.0
 11
8085.0000000000063665
 21
-704.9999999999939746
 31
0.0
1001
ACAD
1010
0.0
1020
0.0
1030
0.0
1001
ACDBBLOCKREPETAG
1070
     1
1071
       22
1005
128D38
  0
LINE
  5
128D39
  8
SLIM
 10
7917.4979104780422858
 20
-890.4626017640969167
 30
0.0
 11
8085.0000000000063665
 21
-722.960512242132495
 31
0.0
1001
ACAD
1010
0.0
1020
0.0
1030
0.0
1001
ACDBBLOCKREPETAG
1070
     1
1071
       23
1005
128D39
  0
LINE
  5
128D3A
  8
SLIM
 10
7919.7122202065256715
 20
-906.2088042777520513
 30
0.0
 11
8085.0000000000063665
 21
-740.9210244842719248
 31
0.0
1001
ACAD
1010
0.0
1020
0.0
1030
0.0
1001
ACDBBLOCKREPETAG
1070
     1
1071
       24
1005
128D3A
  0
LINE
  5
128D3B
  8
SLIM
 10
7921.9265299350072382
 20
-921.9550067914074134
 30
0.0
 11
8085.000000000001819
 21
-758.8815367264102179
 31
0.0
1001
ACAD
1010
0.0
1020
0.0
1030
0.0
1001
ACDBBLOCKREPETAG
1070
     1
1071
       25
1005
128D3B
  0
LINE
  5
128D3C
  8
SLIM
 10
7924.1408396634878955
 20
-937.7012093050623207
 30
0.0
 11
8085.000000000001819
 21
-776.842048968549534
 31
0.0
1001
ACAD
1010
0.0
1020
0.0
1030
0.0
1001
ACDBBLOCKREPETAG
1070
     1
1071
       26
1005
128D3C
  0
LINE
  5
128D3D
  8
SLIM
 10
7926.3551493919731001
 20
-953.4474118187173417
 30
0.0
 11
8085.000000000001819
 21
-794.8025612106885092
 31
0.0
1001
ACAD
1010
0.0
1020
0.0
1030
0.0
1001
ACDBBLOCKREPETAG
1070
     1
1071
       27
1005
128D3D
  0
LINE
  5
128D3E
  8
SLIM
 10
7928.5694591204537574
 20
-969.1936143323728174
 30
0.0
 11
8085.000000000001819
 21
-812.7630734528273706
 31
0.0
1001
ACAD
1010
0.0
1020
0.0
1030
0.0
1001
ACDBBLOCKREPETAG
1070
     1
1071
       28
1005
128D3E
  0
LINE
  5
128D3F
  8
SLIM
 10
7930.783768848940781
 20
-984.9398168460286342
 30
0.0
 11
8085.000000000001819
 21
-830.7235856949660047
 31
0.0
1001
ACAD
1010
0.0
1020
0.0
1030
0.0
1001
ACDBBLOCKREPETAG
1070
     1
1071
       29
1005
128D3F
  0
LINE
  5
128D40
  8
SLIM
 10
7932.9980785774241667
 20
-1000.6860193596839963
 30
0.0
 11
8085.0
 21
-848.6840979371052072
 31
0.0
1001
ACAD
1010
0.0
1020
0.0
1030
0.0
1001
ACDBBLOCKREPETAG
1070
     1
1071
       30
1005
128D40
  0
LINE
  5
128D41
  8
SLIM
 10
7943.0
 20
-1008.6446101792439549
 30
0.0
 11
7946.6446101792453192
 21
-1004.9999999999979536
 31
0.0
1001
ACAD
1010
0.0
1020
0.0
1030
0.0
1001
ACDBBLOCKREPETAG
1070
     1
1071
       31
1005
128D41
  0
LINE
  5
128D42
  8
SLIM
 10
7946.6446101792453192
 20
-1004.9999999999979536
 30
0.0
 11
8085.0
 21
-866.6446101792440686
 31
0.0
1001
ACAD
1010
0.0
1020
0.0
1030
0.0
1001
ACDBBLOCKREPETAG
1070
     1
1071
       32
1005
128D42
  0
LINE
  5
128D43
  8
SLIM
 10
7944.6051224213861133
 20
-1024.9999999999970441
 30
0.0
 11
7964.6051224213861133
 21
-1004.9999999999979536
 31
0.0
1001
ACAD
1010
0.0
1020
0.0
1030
0.0
1001
ACDBBLOCKREPETAG
1070
     1
1071
       33
1005
128D43
  0
LINE
  5
128D44
  8
SLIM
 10
7964.6051224213861133
 20
-1004.9999999999979536
 30
0.0
 11
8083.051837154363966
 21
-886.5532852670169177
 31
0.0
1001
ACAD
1010
0.0
1020
0.0
1030
0.0
1001
ACDBBLOCKREPETAG
1070
     1
1071
       34
1005
128D44
  0
LINE
  5
128D45
  8
SLIM
 10
7962.5656346635241789
 20
-1024.9999999999970441
 30
0.0
 11
7982.5656346635214504
 21
-1004.9999999999979536
 31
0.0
1001
ACAD
1010
0.0
1020
0.0
1030
0.0
1001
ACDBBLOCKREPETAG
1070
     1
1071
       35
1005
128D45
  0
LINE
  5
128D46
  8
SLIM
 10
7982.5656346635214504
 20
-1004.9999999999979536
 30
0.0
 11
8080.1128442420158535
 21
-907.4527904215052558
 31
0.0
1001
ACAD
1010
0.0
1020
0.0
1030
0.0
1001
ACDBBLOCKREPETAG
1070
     1
1071
       36
1005
128D46
  0
LINE
  5
128D47
  8
SLIM
 10
7980.526146905663154
 20
-1024.9999999999970441
 30
0.0
 11
8000.526146905661335
 21
-1004.9999999999979536
 31
0.0
1001
ACAD
1010
0.0
1020
0.0
1030
0.0
1001
ACDBBLOCKREPETAG
1070
     1
1071
       37
1005
128D47
  0
LINE
  5
128D48
  8
SLIM
 10
8000.526146905661335
 20
-1004.9999999999979536
 30
0.0
 11
8077.1738513296659221
 21
-928.3522955759932529
 31
0.0
1001
ACAD
1010
0.0
1020
0.0
1030
0.0
1001
ACDBBLOCKREPETAG
1070
     1
1071
       38
1005
128D48
  0
LINE
  5
128D49
  8
SLIM
 10
7998.4866591478003102
 20
-1024.9999999999970441
 30
0.0
 11
8018.4866591478003102
 21
-1004.9999999999979536
 31
0.0
1001
ACAD
1010
0.0
1020
0.0
1030
0.0
1001
ACDBBLOCKREPETAG
1070
     1
1071
       39
1005
128D49
  0
LINE
  5
128D4A
  8
SLIM
 10
8018.4866591478003102
 20
-1004.9999999999979536
 30
0.0
 11
8074.2348584173178097
 21
-949.25180073048125
 31
0.0
1001
ACAD
1010
0.0
1020
0.0
1030
0.0
1001
ACDBBLOCKREPETAG
1070
     1
1071
       40
1005
128D4A
  0
LINE
  5
128D4B
  8
SLIM
 10
8016.4471713899392853
 20
-1024.9999999999970441
 30
0.0
 11
8036.4471713899392853
 21
-1004.9999999999979536
 31
0.0
1001
ACAD
1010
0.0
1020
0.0
1030
0.0
1001
ACDBBLOCKREPETAG
1070
     1
1071
       41
1005
128D4B
  0
LINE
  5
128D4C
  8
SLIM
 10
8036.4471713899392853
 20
-1004.9999999999979536
 30
0.0
 11
8071.2958655049660592
 21
-970.1513058849691333
 31
0.0
1001
ACAD
1010
0.0
1020
0.0
1030
0.0
1001
ACDBBLOCKREPETAG
1070
     1
1071
       42
1005
128D4C
  0
LINE
  5
128D4D
  8
SLIM
 10
8034.4076836320782604
 20
-1024.9999999999970441
 30
0.0
 11
8054.4076836320764414
 21
-1004.9999999999979536
 31
0.0
1001
ACAD
1010
0.0
1020
0.0
1030
0.0
1001
ACDBBLOCKREPETAG
1070
     1
1071
       43
1005
128D4D
  0
LINE
  5
128D4E
  8
SLIM
 10
8054.4076836320764414
 20
-1004.9999999999979536
 30
0.0
 11
8068.3568725926197658
 21
-991.0508110394571304
 31
0.0
1001
ACAD
1010
0.0
1020
0.0
1030
0.0
1001
ACDBBLOCKREPETAG
1070
     1
1071
       44
1005
128D4E
  0
LINE
  5
128D4F
  8
SLIM
 10
8052.3681958742135976
 20
-1024.9999999999970441
 30
0.0
 11
8057.0
 21
-1020.3681958742120059
 31
0.0
1001
ACAD
1010
0.0
1020
0.0
1030
0.0
1001
ACDBBLOCKREPETAG
1070
     1
1071
       45
1005
128D4F
  0
LINE
  5
128D50
  8
OBJECT
 10
7943.0
 20
-1024.9999999999970441
 30
0.0
 11
8057.0
 21
-1024.9999999999970441
 31
0.0
1001
ACDBBLOCKREPETAG
1070
     1
1071
        1
1005
128D50
  0
LINE
  5
128D51
  8
OBJECT
 10
7933.6047321049663879
 20
-1004.9999999999979536
 30
0.0
 11
8066.3952678950390691
 21
-1004.9999999999979536
 31
0.0
1001
ACDBBLOCKREPETAG
1070
     1
1071
        2
1005
128D51
  0
LINE
  5
128D52
  8
OBJECT
 10
7943.0
 20
-1024.9999999999970441
 30
0.0
 11
7943.0
 21
-1004.9999999999979536
 31
0.0
1001
ACDBBLOCKREPETAG
1070
     1
1071
        3
1005
128D52
  0
LINE
  5
128D53
  8
OBJECT
 10
8057.0
 20
-1024.9999999999970441
 30
0.0
 11
8057.0
 21
-1004.9999999999979536
 31
0.0
1001
ACDBBLOCKREPETAG
1070
     1
1071
        4
1005
128D53
  0
LINE
  5
128D54
  8
OBJECT
 10
7914.9999999999918145
 20
-654.9999999999994316
 30
0.0
 11
7915.0
 21
-872.6996828091412226
 31
0.0
1001
ACDBBLOCKREPETAG
1070
     1
1071
        5
1005
128D54
  0
LINE
  5
128D55
  8
OBJECT
 10
8085.0000000000063665
 20
-654.9999999999994316
 30
0.0
 11
8085.0
 21
-872.6996828091719181
 31
0.0
1001
ACDBBLOCKREPETAG
1070
     1
1071
        6
1005
128D55
  0
LINE
  5
128D56
  8
OBJECT
 10
7915.0
 20
-872.6996828091412226
 30
0.0
 11
7933.6047321049663879
 21
-1004.9999999999979536
 31
0.0
1001
ACDBBLOCKREPETAG
1070
     1
1071
        7
1005
128D56
  0
LINE
  5
128D57
  8
OBJECT
 10
8066.3952678950390691
 20
-1004.9999999999979536
 30
0.0
 11
8085.0
 21
-872.6996828091719181
 31
0.0
1001
ACDBBLOCKREPETAG
1070
     1
1071
        8
1005
128D57
  0
LINE
  5
128D58
  8
OBJECT
 10
8085.0000000000063665
 20
-654.9999999999994316
 30
0.0
 11
7914.9999999999918145
 21
-654.9999999999994316
 31
0.0
1001
ACDBBLOCKREPETAG
1070
     1
1071
        9
1005
128D58
  0
LINE
  5
128D59
  8
SLIM
 10
8414.9999999999909051
 20
-659.4738530943469641
 30
0.0
 11
8419.4738530943377555
 21
-654.9999999999994316
 31
0.0
1001
ACAD
1010
0.0
1020
0.0
1030
0.0
1001
ACDBBLOCKREPETAG
1070
     1
1071
        0
1005
0
  0
LINE
  5
128D5A
  8
SLIM
 10
8414.9999999999909051
 20
-677.4343653364843476
 30
0.0
 11
8437.4343653364776401
 21
-654.9999999999994316
 31
0.0
1001
ACAD
1010
0.0
1020
0.0
1030
0.0
1001
ACDBBLOCKREPETAG
1070
     1
1071
       11
1005
128D5A
  0
LINE
  5
128D5B
  8
SLIM
 10
8414.999999999994543
 20
-695.3948775786224132
 30
0.0
 11
8455.3948775786193437
 21
-654.9999999999994316
 31
0.0
1001
ACAD
1010
0.0
1020
0.0
1030
0.0
1001
ACDBBLOCKREPETAG
1070
     1
1071
       12
1005
128D5B
  0
LINE
  5
128D5C
  8
SLIM
 10
8414.999999999994543
 20
-713.3553898207600241
 30
0.0
 11
8473.3553898207537713
 21
-654.9999999999994316
 31
0.0
1001
ACAD
1010
0.0
1020
0.0
1030
0.0
1001
ACDBBLOCKREPETAG
1070
     1
1071
       13
1005
128D5C
  0
LINE
  5
128D5D
  8
SLIM
 10
8414.999999999994543
 20
-731.3159020628977487
 30
0.0
 11
8491.315902062893656
 21
-654.9999999999994316
 31
0.0
1001
ACAD
1010
0.0
1020
0.0
1030
0.0
1001
ACDBBLOCKREPETAG
1070
     1
1071
       14
1005
128D5D
  0
LINE
  5
128D5E
  8
SLIM
 10
8414.999999999996362
 20
-749.2764143050352459
 30
0.0
 11
8509.2764143050317216
 21
-654.9999999999994316
 31
0.0
1001
ACAD
1010
0.0
1020
0.0
1030
0.0
1001
ACDBBLOCKREPETAG
1070
     1
1071
       15
1005
128D5E
  0
LINE
  5
128D5F
  8
SLIM
 10
8414.999999999996362
 20
-767.2369265471733115
 30
0.0
 11
8527.2369265471679682
 21
-654.9999999999994316
 31
0.0
1001
ACAD
1010
0.0
1020
0.0
1030
0.0
1001
ACDBBLOCKREPETAG
1070
     1
1071
       16
1005
128D5F
  0
LINE
  5
128D60
  8
SLIM
 10
8414.999999999996362
 20
-785.197438789310695
 30
0.0
 11
8545.1974387893096718
 21
-654.9999999999994316
 31
0.0
1001
ACAD
1010
0.0
1020
0.0
1030
0.0
1001
ACDBBLOCKREPETAG
1070
     1
1071
       17
1005
128D60
  0
LINE
  5
128D61
  8
SLIM
 10
8414.999999999996362
 20
-803.157951031448647
 30
0.0
 11
8563.1579510314477375
 21
-654.9999999999994316
 31
0.0
1001
ACAD
1010
0.0
1020
0.0
1030
0.0
1001
ACDBBLOCKREPETAG
1070
     1
1071
       18
1005
128D61
  0
LINE
  5
128D62
  8
SLIM
 10
8414.999999999996362
 20
-821.1184632735861442
 30
0.0
 11
8581.1184632735858031
 21
-654.9999999999994316
 31
0.0
1001
ACAD
1010
0.0
1020
0.0
1030
0.0
1001
ACDBBLOCKREPETAG
1070
     1
1071
       19
1005
128D62
  0
LINE
  5
128D63
  8
SLIM
 10
8414.999999999996362
 20
-839.0789755157236414
 30
0.0
 11
8585.000000000005457
 21
-669.078975515716138
 31
0.0
1001
ACAD
1010
0.0
1020
0.0
1030
0.0
1001
ACDBBLOCKREPETAG
1070
     1
1071
       20
1005
128D63
  0
LINE
  5
128D64
  8
SLIM
 10
8415.0
 20
-857.0394877578618207
 30
0.0
 11
8585.000000000005457
 21
-687.0394877578545447
 31
0.0
1001
ACAD
1010
0.0
1020
0.0
1030
0.0
1001
ACDBBLOCKREPETAG
1070
     1
1071
       21
1005
128D64
  0
LINE
  5
128D65
  8
SLIM
 10
8415.2836007495570811
 20
-874.7163992504415546
 30
0.0
 11
8585.000000000005457
 21
-704.9999999999939746
 31
0.0
1001
ACAD
1010
0.0
1020
0.0
1030
0.0
1001
ACDBBLOCKREPETAG
1070
     1
1071
       22
1005
128D65
  0
LINE
  5
128D66
  8
SLIM
 10
8417.4979104780413763
 20
-890.4626017640969167
 30
0.0
 11
8585.000000000005457
 21
-722.960512242132495
 31
0.0
1001
ACAD
1010
0.0
1020
0.0
1030
0.0
1001
ACDBBLOCKREPETAG
1070
     1
1071
       23
1005
128D66
  0
LINE
  5
128D67
  8
SLIM
 10
8419.7122202065256715
 20
-906.2088042777520513
 30
0.0
 11
8585.000000000001819
 21
-740.9210244842719248
 31
0.0
1001
ACAD
1010
0.0
1020
0.0
1030
0.0
1001
ACDBBLOCKREPETAG
1070
     1
1071
       24
1005
128D67
  0
LINE
  5
128D68
  8
SLIM
 10
8421.9265299350063287
 20
-921.9550067914074134
 30
0.0
 11
8585.000000000001819
 21
-758.8815367264102179
 31
0.0
1001
ACAD
1010
0.0
1020
0.0
1030
0.0
1001
ACDBBLOCKREPETAG
1070
     1
1071
       25
1005
128D68
  0
LINE
  5
128D69
  8
SLIM
 10
8424.1408396634924429
 20
-937.7012093050623207
 30
0.0
 11
8585.000000000001819
 21
-776.842048968549534
 31
0.0
1001
ACAD
1010
0.0
1020
0.0
1030
0.0
1001
ACDBBLOCKREPETAG
1070
     1
1071
       26
1005
128D69
  0
LINE
  5
128D6A
  8
SLIM
 10
8426.3551493919731001
 20
-953.4474118187173417
 30
0.0
 11
8585.000000000001819
 21
-794.8025612106885092
 31
0.0
1001
ACAD
1010
0.0
1020
0.0
1030
0.0
1001
ACDBBLOCKREPETAG
1070
     1
1071
       27
1005
128D6A
  0
LINE
  5
128D6B
  8
SLIM
 10
8428.5694591204537574
 20
-969.1936143323728174
 30
0.0
 11
8585.000000000001819
 21
-812.7630734528273706
 31
0.0
1001
ACAD
1010
0.0
1020
0.0
1030
0.0
1001
ACDBBLOCKREPETAG
1070
     1
1071
       28
1005
128D6B
  0
LINE
  5
128D6C
  8
SLIM
 10
8430.7837688489416905
 20
-984.9398168460286342
 30
0.0
 11
8585.000000000001819
 21
-830.7235856949660047
 31
0.0
1001
ACAD
1010
0.0
1020
0.0
1030
0.0
1001
ACDBBLOCKREPETAG
1070
     1
1071
       29
1005
128D6C
  0
LINE
  5
128D6D
  8
SLIM
 10
8432.9980785774223477
 20
-1000.6860193596839963
 30
0.0
 11
8585.0
 21
-848.6840979371052072
 31
0.0
1001
ACAD
1010
0.0
1020
0.0
1030
0.0
1001
ACDBBLOCKREPETAG
1070
     1
1071
       30
1005
128D6D
  0
LINE
  5
128D6E
  8
SLIM
 10
8443.0
 20
-1008.6446101792439549
 30
0.0
 11
8446.6446101792462287
 21
-1004.9999999999979536
 31
0.0
1001
ACAD
1010
0.0
1020
0.0
1030
0.0
1001
ACDBBLOCKREPETAG
1070
     1
1071
       31
1005
128D6E
  0
LINE
  5
128D6F
  8
SLIM
 10
8446.6446101792462287
 20
-1004.9999999999979536
 30
0.0
 11
8585.0
 21
-866.6446101792440686
 31
0.0
1001
ACAD
1010
0.0
1020
0.0
1030
0.0
1001
ACDBBLOCKREPETAG
1070
     1
1071
       32
1005
128D6F
  0
LINE
  5
128D70
  8
SLIM
 10
8444.6051224213842943
 20
-1024.9999999999970441
 30
0.0
 11
8464.6051224213806563
 21
-1004.9999999999979536
 31
0.0
1001
ACAD
1010
0.0
1020
0.0
1030
0.0
1001
ACDBBLOCKREPETAG
1070
     1
1071
       33
1005
128D70
  0
LINE
  5
128D71
  8
SLIM
 10
8464.6051224213806563
 20
-1004.9999999999979536
 30
0.0
 11
8583.051837154365785
 21
-886.5532852670169177
 31
0.0
1001
ACAD
1010
0.0
1020
0.0
1030
0.0
1001
ACDBBLOCKREPETAG
1070
     1
1071
       34
1005
128D71
  0
LINE
  5
128D72
  8
SLIM
 10
8462.5656346635205409
 20
-1024.9999999999970441
 30
0.0
 11
8482.5656346635205409
 21
-1004.9999999999979536
 31
0.0
1001
ACAD
1010
0.0
1020
0.0
1030
0.0
1001
ACDBBLOCKREPETAG
1070
     1
1071
       35
1005
128D72
  0
LINE
  5
128D73
  8
SLIM
 10
8482.5656346635205409
 20
-1004.9999999999979536
 30
0.0
 11
8580.1128442420158535
 21
-907.4527904215052558
 31
0.0
1001
ACAD
1010
0.0
1020
0.0
1030
0.0
1001
ACDBBLOCKREPETAG
1070
     1
1071
       36
1005
128D73
  0
LINE
  5
128D74
  8
SLIM
 10
8480.5261469056622445
 20
-1024.9999999999970441
 30
0.0
 11
8500.5261469056604255
 21
-1004.9999999999979536
 31
0.0
1001
ACAD
1010
0.0
1020
0.0
1030
0.0
1001
ACDBBLOCKREPETAG
1070
     1
1071
       37
1005
128D74
  0
LINE
  5
128D75
  8
SLIM
 10
8500.5261469056604255
 20
-1004.9999999999979536
 30
0.0
 11
8577.1738513296677411
 21
-928.3522955759932529
 31
0.0
1001
ACAD
1010
0.0
1020
0.0
1030
0.0
1001
ACDBBLOCKREPETAG
1070
     1
1071
       38
1005
128D75
  0
LINE
  5
128D76
  8
SLIM
 10
8498.4866591478003102
 20
-1024.9999999999970441
 30
0.0
 11
8518.4866591478003102
 21
-1004.9999999999979536
 31
0.0
1001
ACAD
1010
0.0
1020
0.0
1030
0.0
1001
ACDBBLOCKREPETAG
1070
     1
1071
       39
1005
128D76
  0
LINE
  5
128D77
  8
SLIM
 10
8518.4866591478003102
 20
-1004.9999999999979536
 30
0.0
 11
8574.2348584173178097
 21
-949.25180073048125
 31
0.0
1001
ACAD
1010
0.0
1020
0.0
1030
0.0
1001
ACDBBLOCKREPETAG
1070
     1
1071
       40
1005
128D77
  0
LINE
  5
128D78
  8
SLIM
 10
8516.4471713899383758
 20
-1024.9999999999970441
 30
0.0
 11
8536.4471713899383758
 21
-1004.9999999999979536
 31
0.0
1001
ACAD
1010
0.0
1020
0.0
1030
0.0
1001
ACDBBLOCKREPETAG
1070
     1
1071
       41
1005
128D78
  0
LINE
  5
128D79
  8
SLIM
 10
8536.4471713899383758
 20
-1004.9999999999979536
 30
0.0
 11
8571.2958655049660592
 21
-970.1513058849691333
 31
0.0
1001
ACAD
1010
0.0
1020
0.0
1030
0.0
1001
ACDBBLOCKREPETAG
1070
     1
1071
       42
1005
128D79
  0
LINE
  5
128D7A
  8
SLIM
 10
8534.4076836320764414
 20
-1024.9999999999970441
 30
0.0
 11
8554.4076836320764414
 21
-1004.9999999999979536
 31
0.0
1001
ACAD
1010
0.0
1020
0.0
1030
0.0
1001
ACDBBLOCKREPETAG
1070
     1
1071
       43
1005
128D7A
  0
LINE
  5
128D7B
  8
SLIM
 10
8554.4076836320764414
 20
-1004.9999999999979536
 30
0.0
 11
8568.3568725926143088
 21
-991.0508110394571304
 31
0.0
1001
ACAD
1010
0.0
1020
0.0
1030
0.0
1001
ACDBBLOCKREPETAG
1070
     1
1071
       44
1005
128D7B
  0
LINE
  5
128D7C
  8
SLIM
 10
8552.3681958742145071
 20
-1024.9999999999970441
 30
0.0
 11
8557.0
 21
-1020.3681958742120059
 31
0.0
1001
ACAD
1010
0.0
1020
0.0
1030
0.0
1001
ACDBBLOCKREPETAG
1070
     1
1071
       45
1005
128D7C
  0
LINE
  5
128D7D
  8
OBJECT
 10
8443.0
 20
-1024.9999999999970441
 30
0.0
 11
8557.0
 21
-1024.9999999999970441
 31
0.0
1001
ACDBBLOCKREPETAG
1070
     1
1071
        1
1005
128D7D
  0
LINE
  5
128D7E
  8
OBJECT
 10
8433.6047321049645689
 20
-1004.9999999999979536
 30
0.0
 11
8566.3952678950408881
 21
-1004.9999999999979536
 31
0.0
1001
ACDBBLOCKREPETAG
1070
     1
1071
        2
1005
128D7E
  0
LINE
  5
128D7F
  8
OBJECT
 10
8443.0
 20
-1024.9999999999970441
 30
0.0
 11
8443.0
 21
-1004.9999999999979536
 31
0.0
1001
ACDBBLOCKREPETAG
1070
     1
1071
        3
1005
128D7F
  0
LINE
  5
128D80
  8
OBJECT
 10
8557.0
 20
-1024.9999999999970441
 30
0.0
 11
8557.0
 21
-1004.9999999999979536
 31
0.0
1001
ACDBBLOCKREPETAG
1070
     1
1071
        4
1005
128D80
  0
LINE
  5
128D81
  8
OBJECT
 10
8414.9999999999909051
 20
-654.9999999999994316
 30
0.0
 11
8415.0
 21
-872.6996828091412226
 31
0.0
1001
ACDBBLOCKREPETAG
1070
     1
1071
        5
1005
128D81
  0
LINE
  5
128D82
  8
OBJECT
 10
8585.000000000005457
 20
-654.9999999999994316
 30
0.0
 11
8585.0
 21
-872.6996828091719181
 31
0.0
1001
ACDBBLOCKREPETAG
1070
     1
1071
        6
1005
128D82
  0
LINE
  5
128D83
  8
OBJECT
 10
8415.0
 20
-872.6996828091412226
 30
0.0
 11
8433.6047321049645689
 21
-1004.9999999999979536
 31
0.0
1001
ACDBBLOCKREPETAG
1070
     1
1071
        7
1005
128D83
  0
LINE
  5
128D84
  8
OBJECT
 10
8566.3952678950408881
 20
-1004.9999999999979536
 30
0.0
 11
8585.0
 21
-872.6996828091719181
 31
0.0
1001
ACDBBLOCKREPETAG
1070
     1
1071
        8
1005
128D84
  0
LINE
  5
128D85
  8
OBJECT
 10
8585.000000000005457
 20
-654.9999999999994316
 30
0.0
 11
8414.9999999999909051
 21
-654.9999999999994316
 31
0.0
1001
ACDBBLOCKREPETAG
1070
     1
1071
        9
1005
128D85
  0
LINE
  5
128D86
  8
SLIM
 10
9914.999999999992724
 20
-659.4738530943469641
 30
0.0
 11
9919.4738530943377555
 21
-654.9999999999994316
 31
0.0
1001
ACAD
1010
0.0
1020
0.0
1030
0.0
1001
ACDBBLOCKREPETAG
1070
     1
1071
        0
1005
0
  0
LINE
  5
128D87
  8
SLIM
 10
9914.999999999992724
 20
-677.4343653364843476
 30
0.0
 11
9937.4343653364794591
 21
-654.9999999999994316
 31
0.0
1001
ACAD
1010
0.0
1020
0.0
1030
0.0
1001
ACDBBLOCKREPETAG
1070
     1
1071
       10
1005
128D87
  0
LINE
  5
128D88
  8
SLIM
 10
9914.999999999994543
 20
-695.3948775786224132
 30
0.0
 11
9955.3948775786211627
 21
-654.9999999999994316
 31
0.0
1001
ACAD
1010
0.0
1020
0.0
1030
0.0
1001
ACDBBLOCKREPETAG
1070
     1
1071
       11
1005
128D88
  0
LINE
  5
128D89
  8
SLIM
 10
9914.999999999994543
 20
-713.3553898207600241
 30
0.0
 11
9973.3553898207555903
 21
-654.9999999999994316
 31
0.0
1001
ACAD
1010
0.0
1020
0.0
1030
0.0
1001
ACDBBLOCKREPETAG
1070
     1
1071
       12
1005
128D89
  0
LINE
  5
128D8A
  8
SLIM
 10
9914.999999999994543
 20
-731.3159020628977487
 30
0.0
 11
9991.315902062893656
 21
-654.9999999999994316
 31
0.0
1001
ACAD
1010
0.0
1020
0.0
1030
0.0
1001
ACDBBLOCKREPETAG
1070
     1
1071
       13
1005
128D8A
  0
LINE
  5
128D8B
  8
SLIM
 10
9914.999999999998181
 20
-749.2764143050352459
 30
0.0
 11
10009.2764143050299026
 21
-654.9999999999994316
 31
0.0
1001
ACAD
1010
0.0
1020
0.0
1030
0.0
1001
ACDBBLOCKREPETAG
1070
     1
1071
       14
1005
128D8B
  0
LINE
  5
128D8C
  8
SLIM
 10
9914.999999999998181
 20
-767.2369265471733115
 30
0.0
 11
10027.2369265471606923
 21
-654.9999999999994316
 31
0.0
1001
ACAD
1010
0.0
1020
0.0
1030
0.0
1001
ACDBBLOCKREPETAG
1070
     1
1071
       15
1005
128D8C
  0
LINE
  5
128D8D
  8
SLIM
 10
9914.999999999998181
 20
-785.197438789310695
 30
0.0
 11
10045.1974387893096718
 21
-654.9999999999994316
 31
0.0
1001
ACAD
1010
0.0
1020
0.0
1030
0.0
1001
ACDBBLOCKREPETAG
1070
     1
1071
       16
1005
128D8D
  0
LINE
  5
128D8E
  8
SLIM
 10
9914.999999999998181
 20
-803.157951031448647
 30
0.0
 11
10063.1579510314404615
 21
-654.9999999999994316
 31
0.0
1001
ACAD
1010
0.0
1020
0.0
1030
0.0
1001
ACDBBLOCKREPETAG
1070
     1
1071
       17
1005
128D8E
  0
LINE
  5
128D8F
  8
SLIM
 10
9914.999999999998181
 20
-821.1184632735861442
 30
0.0
 11
10081.1184632735803461
 21
-654.9999999999994316
 31
0.0
1001
ACAD
1010
0.0
1020
0.0
1030
0.0
1001
ACDBBLOCKREPETAG
1070
     1
1071
       18
1005
128D8F
  0
LINE
  5
128D90
  8
SLIM
 10
9914.999999999998181
 20
-839.0789755157236414
 30
0.0
 11
10085.0000000000090949
 21
-669.078975515716138
 31
0.0
1001
ACAD
1010
0.0
1020
0.0
1030
0.0
1001
ACDBBLOCKREPETAG
1070
     1
1071
       19
1005
128D90
  0
LINE
  5
128D91
  8
SLIM
 10
9915.0
 20
-857.0394877578618207
 30
0.0
 11
10085.0
 21
-687.0394877578551132
 31
0.0
1001
ACAD
1010
0.0
1020
0.0
1030
0.0
1001
ACDBBLOCKREPETAG
1070
     1
1071
       20
1005
128D91
  0
LINE
  5
128D92
  8
SLIM
 10
9915.2836007495607191
 20
-874.7163992504415546
 30
0.0
 11
10085.0
 21
-704.9999999999939746
 31
0.0
1001
ACAD
1010
0.0
1020
0.0
1030
0.0
1001
ACDBBLOCKREPETAG
1070
     1
1071
       21
1005
128D92
  0
LINE
  5
128D93
  8
SLIM
 10
9917.4979104780413763
 20
-890.4626017640969167
 30
0.0
 11
10085.0
 21
-722.960512242132495
 31
0.0
1001
ACAD
1010
0.0
1020
0.0
1030
0.0
1001
ACDBBLOCKREPETAG
1070
     1
1071
       22
1005
128D93
  0
LINE
  5
128D94
  8
SLIM
 10
9919.7122202065293095
 20
-906.2088042777523924
 30
0.0
 11
10085.0
 21
-740.9210244842719248
 31
0.0
1001
ACAD
1010
0.0
1020
0.0
1030
0.0
1001
ACDBBLOCKREPETAG
1070
     1
1071
       23
1005
128D94
  0
LINE
  5
128D95
  8
SLIM
 10
9921.9265299350081477
 20
-921.9550067914076408
 30
0.0
 11
10085.0
 21
-758.8815367264102179
 31
0.0
1001
ACAD
1010
0.0
1020
0.0
1030
0.0
1001
ACDBBLOCKREPETAG
1070
     1
1071
       24
1005
128D95
  0
LINE
  5
128D96
  8
SLIM
 10
9924.1408396634906239
 20
-937.7012093050630028
 30
0.0
 11
10085.0
 21
-776.842048968549534
 31
0.0
1001
ACAD
1010
0.0
1020
0.0
1030
0.0
1001
ACDBBLOCKREPETAG
1070
     1
1071
       25
1005
128D96
  0
LINE
  5
128D97
  8
SLIM
 10
9926.3551493919731001
 20
-953.4474118187182512
 30
0.0
 11
10085.0
 21
-794.8025612106885092
 31
0.0
1001
ACAD
1010
0.0
1020
0.0
1030
0.0
1001
ACDBBLOCKREPETAG
1070
     1
1071
       26
1005
128D97
  0
LINE
  5
128D98
  8
SLIM
 10
9928.5694591204555763
 20
-969.1936143323738406
 30
0.0
 11
10085.0
 21
-812.7630734528273706
 31
0.0
1001
ACAD
1010
0.0
1020
0.0
1030
0.0
1001
ACDBBLOCKREPETAG
1070
     1
1071
       27
1005
128D98
  0
LINE
  5
128D99
  8
SLIM
 10
9930.7837688489416905
 20
-984.939816846029089
 30
0.0
 11
10085.0
 21
-830.7235856949660047
 31
0.0
1001
ACAD
1010
0.0
1020
0.0
1030
0.0
1001
ACDBBLOCKREPETAG
1070
     1
1071
       28
1005
128D99
  0
LINE
  5
128D9A
  8
SLIM
 10
9932.9980785774205287
 20
-1000.6860193596839963
 30
0.0
 11
10085.0
 21
-848.6840979371052072
 31
0.0
1001
ACAD
1010
0.0
1020
0.0
1030
0.0
1001
ACDBBLOCKREPETAG
1070
     1
1071
       29
1005
128D9A
  0
LINE
  5
128D9B
  8
SLIM
 10
9932.999999999992724
 20
-1018.6446101792510035
 30
0.0
 11
10085.0
 21
-866.6446101792440686
 31
0.0
1001
ACAD
1010
0.0
1020
0.0
1030
0.0
1001
ACDBBLOCKREPETAG
1070
     1
1071
       30
1005
128D9B
  0
LINE
  5
128D9C
  8
SLIM
 10
9932.999999999992724
 20
-1036.6051224213899786
 30
0.0
 11
10083.051837154360328
 21
-886.553285267016463
 31
0.0
1001
ACAD
1010
0.0
1020
0.0
1030
0.0
1001
ACDBBLOCKREPETAG
1070
     1
1071
       31
1005
128D9C
  0
LINE
  5
128D9D
  8
SLIM
 10
9942.5656346635241789
 20
-1044.9999999999959073
 30
0.0
 11
10080.1128442420103966
 21
-907.4527904215037779
 31
0.0
1001
ACAD
1010
0.0
1020
0.0
1030
0.0
1001
ACDBBLOCKREPETAG
1070
     1
1071
       32
1005
128D9D
  0
LINE
  5
128D9E
  8
SLIM
 10
9960.5261469056640635
 20
-1044.9999999999959073
 30
0.0
 11
10077.1738513296695601
 21
-928.3522955759910928
 31
0.0
1001
ACAD
1010
0.0
1020
0.0
1030
0.0
1001
ACDBBLOCKREPETAG
1070
     1
1071
       33
1005
128D9E
  0
LINE
  5
128D9F
  8
SLIM
 10
9978.4866591478003102
 20
-1044.9999999999970441
 30
0.0
 11
10074.2348584173196286
 21
-949.2518007304784078
 31
0.0
1001
ACAD
1010
0.0
1020
0.0
1030
0.0
1001
ACDBBLOCKREPETAG
1070
     1
1071
       34
1005
128D9F
  0
LINE
  5
128DA0
  8
SLIM
 10
9996.4471713899383758
 20
-1044.9999999999979536
 30
0.0
 11
10071.2958655049696972
 21
-970.1513058849657227
 31
0.0
1001
ACAD
1010
0.0
1020
0.0
1030
0.0
1001
ACDBBLOCKREPETAG
1070
     1
1071
       35
1005
128DA0
  0
LINE
  5
128DA1
  8
SLIM
 10
10014.4076836320600705
 20
-1044.9999999999979536
 30
0.0
 11
10068.3568725926197658
 21
-991.050811039452924
 31
0.0
1001
ACAD
1010
0.0
1020
0.0
1030
0.0
1001
ACDBBLOCKREPETAG
1070
     1
1071
       36
1005
128DA1
  0
LINE
  5
128DA2
  8
SLIM
 10
10032.3681958742108691
 20
-1044.9999999999990905
 30
0.0
 11
10067.0000000000090949
 21
-1010.3681958742009783
 31
0.0
1001
ACAD
1010
0.0
1020
0.0
1030
0.0
1001
ACDBBLOCKREPETAG
1070
     1
1071
       37
1005
128DA2
  0
LINE
  5
128DA3
  8
SLIM
 10
10050.3287081163507537
 20
-1044.9999999999990905
 30
0.0
 11
10067.0000000000090949
 21
-1028.3287081163400671
 31
0.0
1001
ACAD
1010
0.0
1020
0.0
1030
0.0
1001
ACDBBLOCKREPETAG
1070
     1
1071
       38
1005
128DA3
  0
LINE
  5
128DA4
  8
OBJECT
 10
9932.999999999992724
 20
-1044.9999999999959073
 30
0.0
 11
10067.0000000000090949
 21
-1044.9999999999990905
 31
0.0
1001
ACDBBLOCKREPETAG
1070
     1
1071
        1
1005
128DA4
  0
LINE
  5
128DA5
  8
OBJECT
 10
9914.999999999992724
 20
-654.9999999999994316
 30
0.0
 11
9915.0
 21
-872.6996828091412226
 31
0.0
1001
ACDBBLOCKREPETAG
1070
     1
1071
        2
1005
128DA5
  0
LINE
  5
128DA6
  8
OBJECT
 10
10085.0000000000090949
 20
-654.9999999999994316
 30
0.0
 11
10085.0
 21
-872.6996828091719181
 31
0.0
1001
ACDBBLOCKREPETAG
1070
     1
1071
        3
1005
128DA6
  0
LINE
  5
128DA7
  8
OBJECT
 10
9915.0
 20
-872.6996828091412226
 30
0.0
 11
9932.999999999992724
 21
-1000.6996828090809686
 31
0.0
1001
ACDBBLOCKREPETAG
1070
     1
1071
        4
1005
128DA7
  0
LINE
  5
128DA8
  8
OBJECT
 10
10067.0000000000090949
 20
-1000.6996828091280349
 30
0.0
 11
10085.0
 21
-872.6996828091719181
 31
0.0
1001
ACDBBLOCKREPETAG
1070
     1
1071
        5
1005
128DA8
  0
LINE
  5
128DA9
  8
OBJECT
 10
10085.0000000000090949
 20
-654.9999999999994316
 30
0.0
 11
9914.999999999992724
 21
-654.9999999999994316
 31
0.0
1001
ACDBBLOCKREPETAG
1070
     1
1071
        6
1005
128DA9
  0
LINE
  5
128DAA
  8
OBJECT
 10
9932.999999999992724
 20
-1000.6996828090809686
 30
0.0
 11
9932.999999999992724
 21
-1044.9999999999959073
 31
0.0
1001
ACDBBLOCKREPETAG
1070
     1
1071
        8
1005
128DAA
  0
LINE
  5
128DAB
  8
OBJECT
 10
10067.0000000000090949
 20
-1000.6996828091280349
 30
0.0
 11
10067.0000000000090949
 21
-1044.9999999999990905
 31
0.0
1001
ACDBBLOCKREPETAG
1070
     1
1071
        9
1005
128DAB
  0
LINE
  5
128DAC
  8
SLIM
 10
10414.9999999999909051
 20
-659.4738530943469641
 30
0.0
 11
10419.4738530943395745
 21
-654.9999999999994316
 31
0.0
1001
ACAD
1010
0.0
1020
0.0
1030
0.0
1001
ACDBBLOCKREPETAG
1070
     1
1071
        0
1005
0
  0
LINE
  5
128DAD
  8
SLIM
 10
10414.9999999999909051
 20
-677.4343653364843476
 30
0.0
 11
10437.4343653364794591
 21
-654.9999999999994316
 31
0.0
1001
ACAD
1010
0.0
1020
0.0
1030
0.0
1001
ACDBBLOCKREPETAG
1070
     1
1071
       10
1005
128DAD
  0
LINE
  5
128DAE
  8
SLIM
 10
10414.9999999999909051
 20
-695.3948775786224132
 30
0.0
 11
10455.3948775786193437
 21
-654.9999999999994316
 31
0.0
1001
ACAD
1010
0.0
1020
0.0
1030
0.0
1001
ACDBBLOCKREPETAG
1070
     1
1071
       11
1005
128DAE
  0
LINE
  5
128DAF
  8
SLIM
 10
10414.9999999999909051
 20
-713.3553898207600241
 30
0.0
 11
10473.3553898207501334
 21
-654.9999999999994316
 31
0.0
1001
ACAD
1010
0.0
1020
0.0
1030
0.0
1001
ACDBBLOCKREPETAG
1070
     1
1071
       12
1005
128DAF
  0
LINE
  5
128DB0
  8
SLIM
 10
10414.9999999999909051
 20
-731.3159020628977487
 30
0.0
 11
10491.3159020628791041
 21
-654.9999999999994316
 31
0.0
1001
ACAD
1010
0.0
1020
0.0
1030
0.0
1001
ACDBBLOCKREPETAG
1070
     1
1071
       13
1005
128DB0
  0
LINE
  5
128DB1
  8
SLIM
 10
10414.9999999999909051
 20
-749.2764143050352459
 30
0.0
 11
10509.2764143050299026
 21
-654.9999999999994316
 31
0.0
1001
ACAD
1010
0.0
1020
0.0
1030
0.0
1001
ACDBBLOCKREPETAG
1070
     1
1071
       14
1005
128DB1
  0
LINE
  5
128DB2
  8
SLIM
 10
10414.9999999999909051
 20
-767.2369265471733115
 30
0.0
 11
10527.2369265471606923
 21
-654.9999999999994316
 31
0.0
1001
ACAD
1010
0.0
1020
0.0
1030
0.0
1001
ACDBBLOCKREPETAG
1070
     1
1071
       15
1005
128DB2
  0
LINE
  5
128DB3
  8
SLIM
 10
10414.9999999999909051
 20
-785.197438789310695
 30
0.0
 11
10545.1974387893096718
 21
-654.9999999999994316
 31
0.0
1001
ACAD
1010
0.0
1020
0.0
1030
0.0
1001
ACDBBLOCKREPETAG
1070
     1
1071
       16
1005
128DB3
  0
LINE
  5
128DB4
  8
SLIM
 10
10415.0
 20
-803.157951031448647
 30
0.0
 11
10563.1579510314404615
 21
-654.9999999999994316
 31
0.0
1001
ACAD
1010
0.0
1020
0.0
1030
0.0
1001
ACDBBLOCKREPETAG
1070
     1
1071
       17
1005
128DB4
  0
LINE
  5
128DB5
  8
SLIM
 10
10415.0
 20
-821.1184632735861442
 30
0.0
 11
10581.1184632735803461
 21
-654.9999999999994316
 31
0.0
1001
ACAD
1010
0.0
1020
0.0
1030
0.0
1001
ACDBBLOCKREPETAG
1070
     1
1071
       18
1005
128DB5
  0
LINE
  5
128DB6
  8
SLIM
 10
10415.0
 20
-839.0789755157236414
 30
0.0
 11
10585.0000000000090949
 21
-669.078975515716138
 31
0.0
1001
ACAD
1010
0.0
1020
0.0
1030
0.0
1001
ACDBBLOCKREPETAG
1070
     1
1071
       19
1005
128DB6
  0
LINE
  5
128DB7
  8
SLIM
 10
10415.0
 20
-857.0394877578618207
 30
0.0
 11
10585.0
 21
-687.0394877578551132
 31
0.0
1001
ACAD
1010
0.0
1020
0.0
1030
0.0
1001
ACDBBLOCKREPETAG
1070
     1
1071
       20
1005
128DB7
  0
LINE
  5
128DB8
  8
SLIM
 10
10415.2836007495607191
 20
-874.7163992504415546
 30
0.0
 11
10585.0
 21
-704.9999999999939746
 31
0.0
1001
ACAD
1010
0.0
1020
0.0
1030
0.0
1001
ACDBBLOCKREPETAG
1070
     1
1071
       21
1005
128DB8
  0
LINE
  5
128DB9
  8
SLIM
 10
10417.4979104780395573
 20
-890.4626017640969167
 30
0.0
 11
10585.0
 21
-722.960512242132495
 31
0.0
1001
ACAD
1010
0.0
1020
0.0
1030
0.0
1001
ACDBBLOCKREPETAG
1070
     1
1071
       22
1005
128DB9
  0
LINE
  5
128DBA
  8
SLIM
 10
10419.7122202065202146
 20
-906.2088042777523924
 30
0.0
 11
10585.0
 21
-740.9210244842719248
 31
0.0
1001
ACAD
1010
0.0
1020
0.0
1030
0.0
1001
ACDBBLOCKREPETAG
1070
     1
1071
       23
1005
128DBA
  0
LINE
  5
128DBB
  8
SLIM
 10
10421.9265299350008718
 20
-921.9550067914076408
 30
0.0
 11
10585.0
 21
-758.8815367264102179
 31
0.0
1001
ACAD
1010
0.0
1020
0.0
1030
0.0
1001
ACDBBLOCKREPETAG
1070
     1
1071
       24
1005
128DBB
  0
LINE
  5
128DBC
  8
SLIM
 10
10424.1408396634906239
 20
-937.7012093050630028
 30
0.0
 11
10585.0
 21
-776.842048968549534
 31
0.0
1001
ACAD
1010
0.0
1020
0.0
1030
0.0
1001
ACDBBLOCKREPETAG
1070
     1
1071
       25
1005
128DBC
  0
LINE
  5
128DBD
  8
SLIM
 10
10426.3551493919694622
 20
-953.4474118187182512
 30
0.0
 11
10585.0
 21
-794.8025612106885092
 31
0.0
1001
ACAD
1010
0.0
1020
0.0
1030
0.0
1001
ACDBBLOCKREPETAG
1070
     1
1071
       26
1005
128DBD
  0
LINE
  5
128DBE
  8
SLIM
 10
10428.5694591204501194
 20
-969.1936143323738406
 30
0.0
 11
10585.0
 21
-812.7630734528273706
 31
0.0
1001
ACAD
1010
0.0
1020
0.0
1030
0.0
1001
ACDBBLOCKREPETAG
1070
     1
1071
       27
1005
128DBE
  0
LINE
  5
128DBF
  8
SLIM
 10
10430.7837688489398715
 20
-984.939816846029089
 30
0.0
 11
10585.0
 21
-830.7235856949660047
 31
0.0
1001
ACAD
1010
0.0
1020
0.0
1030
0.0
1001
ACDBBLOCKREPETAG
1070
     1
1071
       28
1005
128DBF
  0
LINE
  5
128DC0
  8
SLIM
 10
10432.9980785774205287
 20
-1000.6860193596839963
 30
0.0
 11
10585.0
 21
-848.6840979371052072
 31
0.0
1001
ACAD
1010
0.0
1020
0.0
1030
0.0
1001
ACDBBLOCKREPETAG
1070
     1
1071
       29
1005
128DC0
  0
LINE
  5
128DC1
  8
SLIM
 10
10432.9999999999909051
 20
-1018.6446101792510035
 30
0.0
 11
10585.0
 21
-866.6446101792440686
 31
0.0
1001
ACAD
1010
0.0
1020
0.0
1030
0.0
1001
ACDBBLOCKREPETAG
1070
     1
1071
       30
1005
128DC1
  0
LINE
  5
128DC2
  8
SLIM
 10
10432.9999999999909051
 20
-1036.6051224213899786
 30
0.0
 11
10583.051837154360328
 21
-886.553285267016463
 31
0.0
1001
ACAD
1010
0.0
1020
0.0
1030
0.0
1001
ACDBBLOCKREPETAG
1070
     1
1071
       31
1005
128DC2
  0
LINE
  5
128DC3
  8
SLIM
 10
10442.5656346635205409
 20
-1044.9999999999959073
 30
0.0
 11
10580.1128442420194915
 21
-907.4527904215037779
 31
0.0
1001
ACAD
1010
0.0
1020
0.0
1030
0.0
1001
ACDBBLOCKREPETAG
1070
     1
1071
       32
1005
128DC3
  0
LINE
  5
128DC4
  8
SLIM
 10
10460.5261469056604255
 20
-1044.9999999999959073
 30
0.0
 11
10577.1738513296695601
 21
-928.3522955759910928
 31
0.0
1001
ACAD
1010
0.0
1020
0.0
1030
0.0
1001
ACDBBLOCKREPETAG
1070
     1
1071
       33
1005
128DC4
  0
LINE
  5
128DC5
  8
SLIM
 10
10478.4866591478003102
 20
-1044.9999999999970441
 30
0.0
 11
10574.2348584173196286
 21
-949.2518007304784078
 31
0.0
1001
ACAD
1010
0.0
1020
0.0
1030
0.0
1001
ACDBBLOCKREPETAG
1070
     1
1071
       34
1005
128DC5
  0
LINE
  5
128DC6
  8
SLIM
 10
10496.4471713899401948
 20
-1044.9999999999979536
 30
0.0
 11
10571.2958655049696972
 21
-970.1513058849657227
 31
0.0
1001
ACAD
1010
0.0
1020
0.0
1030
0.0
1001
ACDBBLOCKREPETAG
1070
     1
1071
       35
1005
128DC6
  0
LINE
  5
128DC7
  8
SLIM
 10
10514.4076836320600705
 20
-1044.9999999999979536
 30
0.0
 11
10568.3568725926197658
 21
-991.050811039452924
 31
0.0
1001
ACAD
1010
0.0
1020
0.0
1030
0.0
1001
ACDBBLOCKREPETAG
1070
     1
1071
       36
1005
128DC7
  0
LINE
  5
128DC8
  8
SLIM
 10
10532.3681958742108691
 20
-1044.9999999999990905
 30
0.0
 11
10567.0000000000090949
 21
-1010.3681958742009783
 31
0.0
1001
ACAD
1010
0.0
1020
0.0
1030
0.0
1001
ACDBBLOCKREPETAG
1070
     1
1071
       37
1005
128DC8
  0
LINE
  5
128DC9
  8
SLIM
 10
10550.3287081163507537
 20
-1044.9999999999990905
 30
0.0
 11
10567.0000000000090949
 21
-1028.3287081163400671
 31
0.0
1001
ACAD
1010
0.0
1020
0.0
1030
0.0
1001
ACDBBLOCKREPETAG
1070
     1
1071
       38
1005
128DC9
  0
LINE
  5
128DCA
  8
OBJECT
 10
10432.9999999999909051
 20
-1044.9999999999959073
 30
0.0
 11
10567.0000000000090949
 21
-1044.9999999999990905
 31
0.0
1001
ACDBBLOCKREPETAG
1070
     1
1071
        1
1005
128DCA
  0
LINE
  5
128DCB
  8
OBJECT
 10
10414.9999999999909051
 20
-654.9999999999994316
 30
0.0
 11
10415.0
 21
-872.6996828091412226
 31
0.0
1001
ACDBBLOCKREPETAG
1070
     1
1071
        2
1005
128DCB
  0
LINE
  5
128DCC
  8
OBJECT
 10
10585.0000000000090949
 20
-654.9999999999994316
 30
0.0
 11
10585.0
 21
-872.6996828091719181
 31
0.0
1001
ACDBBLOCKREPETAG
1070
     1
1071
        3
1005
128DCC
  0
LINE
  5
128DCD
  8
OBJECT
 10
10415.0
 20
-872.6996828091412226
 30
0.0
 11
10432.9999999999909051
 21
-1000.6996828090809686
 31
0.0
1001
ACDBBLOCKREPETAG
1070
     1
1071
        4
1005
128DCD
  0
LINE
  5
128DCE
  8
OBJECT
 10
10567.0000000000090949
 20
-1000.6996828091280349
 30
0.0
 11
10585.0
 21
-872.6996828091719181
 31
0.0
1001
ACDBBLOCKREPETAG
1070
     1
1071
        5
1005
128DCE
  0
LINE
  5
128DCF
  8
OBJECT
 10
10585.0000000000090949
 20
-654.9999999999994316
 30
0.0
 11
10414.9999999999909051
 21
-654.9999999999994316
 31
0.0
1001
ACDBBLOCKREPETAG
1070
     1
1071
        6
1005
128DCF
  0
LINE
  5
128DD0
  8
OBJECT
 10
10432.9999999999909051
 20
-1000.6996828090809686
 30
0.0
 11
10432.9999999999909051
 21
-1044.9999999999959073
 31
0.0
1001
ACDBBLOCKREPETAG
1070
     1
1071
        8
1005
128DD0
  0
LINE
  5
128DD1
  8
OBJECT
 10
10567.0000000000090949
 20
-1000.6996828091280349
 30
0.0
 11
10567.0000000000090949
 21
-1044.9999999999990905
 31
0.0
1001
ACDBBLOCKREPETAG
1070
     1
1071
        9
1005
128DD1
  0
LINE
  5
128DD2
  8
SLIM
 10
11914.9999999999909051
 20
-659.4738530943469641
 30
0.0
 11
11919.4738530943395745
 21
-654.9999999999994316
 31
0.0
1001
ACAD
1010
0.0
1020
0.0
1030
0.0
1001
ACDBBLOCKREPETAG
1070
     1
1071
        0
1005
0
  0
LINE
  5
128DD3
  8
SLIM
 10
11914.9999999999909051
 20
-677.4343653364843476
 30
0.0
 11
11937.4343653364794591
 21
-654.9999999999994316
 31
0.0
1001
ACAD
1010
0.0
1020
0.0
1030
0.0
1001
ACDBBLOCKREPETAG
1070
     1
1071
       10
1005
128DD3
  0
LINE
  5
128DD4
  8
SLIM
 10
11914.9999999999909051
 20
-695.3948775786224132
 30
0.0
 11
11955.3948775786102487
 21
-654.9999999999994316
 31
0.0
1001
ACAD
1010
0.0
1020
0.0
1030
0.0
1001
ACDBBLOCKREPETAG
1070
     1
1071
       11
1005
128DD4
  0
LINE
  5
128DD5
  8
SLIM
 10
11914.9999999999909051
 20
-713.3553898207600241
 30
0.0
 11
11973.3553898207501334
 21
-654.9999999999994316
 31
0.0
1001
ACAD
1010
0.0
1020
0.0
1030
0.0
1001
ACDBBLOCKREPETAG
1070
     1
1071
       12
1005
128DD5
  0
LINE
  5
128DD6
  8
SLIM
 10
11914.9999999999909051
 20
-731.3159020628977487
 30
0.0
 11
11991.315902062890018
 21
-654.9999999999994316
 31
0.0
1001
ACAD
1010
0.0
1020
0.0
1030
0.0
1001
ACDBBLOCKREPETAG
1070
     1
1071
       13
1005
128DD6
  0
LINE
  5
128DD7
  8
SLIM
 10
11915.0
 20
-749.2764143050352459
 30
0.0
 11
12009.2764143050299026
 21
-654.9999999999994316
 31
0.0
1001
ACAD
1010
0.0
1020
0.0
1030
0.0
1001
ACDBBLOCKREPETAG
1070
     1
1071
       14
1005
128DD7
  0
LINE
  5
128DD8
  8
SLIM
 10
11915.0
 20
-767.2369265471733115
 30
0.0
 11
12027.2369265471697872
 21
-654.9999999999994316
 31
0.0
1001
ACAD
1010
0.0
1020
0.0
1030
0.0
1001
ACDBBLOCKREPETAG
1070
     1
1071
       15
1005
128DD8
  0
LINE
  5
128DD9
  8
SLIM
 10
11915.0
 20
-785.197438789310695
 30
0.0
 11
12045.1974387893096718
 21
-654.9999999999994316
 31
0.0
1001
ACAD
1010
0.0
1020
0.0
1030
0.0
1001
ACDBBLOCKREPETAG
1070
     1
1071
       16
1005
128DD9
  0
LINE
  5
128DDA
  8
SLIM
 10
11915.0
 20
-803.157951031448647
 30
0.0
 11
12063.1579510314404615
 21
-654.9999999999994316
 31
0.0
1001
ACAD
1010
0.0
1020
0.0
1030
0.0
1001
ACDBBLOCKREPETAG
1070
     1
1071
       17
1005
128DDA
  0
LINE
  5
128DDB
  8
SLIM
 10
11915.0
 20
-821.1184632735861442
 30
0.0
 11
12081.1184632735803461
 21
-654.9999999999994316
 31
0.0
1001
ACAD
1010
0.0
1020
0.0
1030
0.0
1001
ACDBBLOCKREPETAG
1070
     1
1071
       18
1005
128DDB
  0
LINE
  5
128DDC
  8
SLIM
 10
11915.0
 20
-839.0789755157236414
 30
0.0
 11
12085.0000000000090949
 21
-669.078975515716138
 31
0.0
1001
ACAD
1010
0.0
1020
0.0
1030
0.0
1001
ACDBBLOCKREPETAG
1070
     1
1071
       19
1005
128DDC
  0
LINE
  5
128DDD
  8
SLIM
 10
11915.0
 20
-857.0394877578618207
 30
0.0
 11
12085.0
 21
-687.0394877578551132
 31
0.0
1001
ACAD
1010
0.0
1020
0.0
1030
0.0
1001
ACDBBLOCKREPETAG
1070
     1
1071
       20
1005
128DDD
  0
LINE
  5
128DDE
  8
SLIM
 10
11915.2836007495407102
 20
-874.7163992504415546
 30
0.0
 11
12085.0
 21
-704.9999999999939746
 31
0.0
1001
ACAD
1010
0.0
1020
0.0
1030
0.0
1001
ACDBBLOCKREPETAG
1070
     1
1071
       21
1005
128DDE
  0
LINE
  5
128DDF
  8
SLIM
 10
11917.4979104780395573
 20
-890.4626017640969167
 30
0.0
 11
12085.0
 21
-722.960512242132495
 31
0.0
1001
ACAD
1010
0.0
1020
0.0
1030
0.0
1001
ACDBBLOCKREPETAG
1070
     1
1071
       22
1005
128DDF
  0
LINE
  5
128DE0
  8
SLIM
 10
11919.7122202065202146
 20
-906.2088042777523924
 30
0.0
 11
12085.0
 21
-740.9210244842719248
 31
0.0
1001
ACAD
1010
0.0
1020
0.0
1030
0.0
1001
ACDBBLOCKREPETAG
1070
     1
1071
       23
1005
128DE0
  0
LINE
  5
128DE1
  8
SLIM
 10
11921.9265299350008718
 20
-921.9550067914076408
 30
0.0
 11
12085.0
 21
-758.8815367264102179
 31
0.0
1001
ACAD
1010
0.0
1020
0.0
1030
0.0
1001
ACDBBLOCKREPETAG
1070
     1
1071
       24
1005
128DE1
  0
LINE
  5
128DE2
  8
SLIM
 10
11924.1408396634906239
 20
-937.7012093050630028
 30
0.0
 11
12085.0
 21
-776.842048968549534
 31
0.0
1001
ACAD
1010
0.0
1020
0.0
1030
0.0
1001
ACDBBLOCKREPETAG
1070
     1
1071
       25
1005
128DE2
  0
LINE
  5
128DE3
  8
SLIM
 10
11926.3551493919694622
 20
-953.4474118187182512
 30
0.0
 11
12085.0
 21
-794.8025612106885092
 31
0.0
1001
ACAD
1010
0.0
1020
0.0
1030
0.0
1001
ACDBBLOCKREPETAG
1070
     1
1071
       26
1005
128DE3
  0
LINE
  5
128DE4
  8
SLIM
 10
11928.5694591204501194
 20
-969.1936143323738406
 30
0.0
 11
12085.0
 21
-812.7630734528273706
 31
0.0
1001
ACAD
1010
0.0
1020
0.0
1030
0.0
1001
ACDBBLOCKREPETAG
1070
     1
1071
       27
1005
128DE4
  0
LINE
  5
128DE5
  8
SLIM
 10
11930.7837688489398715
 20
-984.939816846029089
 30
0.0
 11
12085.0
 21
-830.7235856949660047
 31
0.0
1001
ACAD
1010
0.0
1020
0.0
1030
0.0
1001
ACDBBLOCKREPETAG
1070
     1
1071
       28
1005
128DE5
  0
LINE
  5
128DE6
  8
SLIM
 10
11932.9980785774205287
 20
-1000.6860193596839963
 30
0.0
 11
12085.0
 21
-848.6840979371052072
 31
0.0
1001
ACAD
1010
0.0
1020
0.0
1030
0.0
1001
ACDBBLOCKREPETAG
1070
     1
1071
       29
1005
128DE6
  0
LINE
  5
128DE7
  8
SLIM
 10
11932.9999999999909051
 20
-1018.6446101792510035
 30
0.0
 11
12085.0
 21
-866.6446101792440686
 31
0.0
1001
ACAD
1010
0.0
1020
0.0
1030
0.0
1001
ACDBBLOCKREPETAG
1070
     1
1071
       30
1005
128DE7
  0
LINE
  5
128DE8
  8
SLIM
 10
11932.9999999999909051
 20
-1036.6051224213899786
 30
0.0
 11
12083.051837154360328
 21
-886.553285267016463
 31
0.0
1001
ACAD
1010
0.0
1020
0.0
1030
0.0
1001
ACDBBLOCKREPETAG
1070
     1
1071
       31
1005
128DE8
  0
LINE
  5
128DE9
  8
SLIM
 10
11942.5656346635205409
 20
-1044.9999999999959073
 30
0.0
 11
12080.1128442420194915
 21
-907.4527904215037779
 31
0.0
1001
ACAD
1010
0.0
1020
0.0
1030
0.0
1001
ACDBBLOCKREPETAG
1070
     1
1071
       32
1005
128DE9
  0
LINE
  5
128DEA
  8
SLIM
 10
11960.5261469056604255
 20
-1044.9999999999959073
 30
0.0
 11
12077.1738513296695601
 21
-928.3522955759910928
 31
0.0
1001
ACAD
1010
0.0
1020
0.0
1030
0.0
1001
ACDBBLOCKREPETAG
1070
     1
1071
       33
1005
128DEA
  0
LINE
  5
128DEB
  8
SLIM
 10
11978.4866591478003102
 20
-1044.9999999999970441
 30
0.0
 11
12074.2348584173196286
 21
-949.2518007304784078
 31
0.0
1001
ACAD
1010
0.0
1020
0.0
1030
0.0
1001
ACDBBLOCKREPETAG
1070
     1
1071
       34
1005
128DEB
  0
LINE
  5
128DEC
  8
SLIM
 10
11996.4471713899401948
 20
-1044.9999999999979536
 30
0.0
 11
12071.2958655049696972
 21
-970.1513058849657227
 31
0.0
1001
ACAD
1010
0.0
1020
0.0
1030
0.0
1001
ACDBBLOCKREPETAG
1070
     1
1071
       35
1005
128DEC
  0
LINE
  5
128DED
  8
SLIM
 10
12014.4076836320800794
 20
-1044.9999999999979536
 30
0.0
 11
12068.3568725926197658
 21
-991.050811039452924
 31
0.0
1001
ACAD
1010
0.0
1020
0.0
1030
0.0
1001
ACDBBLOCKREPETAG
1070
     1
1071
       36
1005
128DED
  0
LINE
  5
128DEE
  8
SLIM
 10
12032.3681958742108691
 20
-1044.9999999999990905
 30
0.0
 11
12067.0000000000090949
 21
-1010.3681958742009783
 31
0.0
1001
ACAD
1010
0.0
1020
0.0
1030
0.0
1001
ACDBBLOCKREPETAG
1070
     1
1071
       37
1005
128DEE
  0
LINE
  5
128DEF
  8
SLIM
 10
12050.3287081163507537
 20
-1044.9999999999990905
 30
0.0
 11
12067.0000000000090949
 21
-1028.3287081163400671
 31
0.0
1001
ACAD
1010
0.0
1020
0.0
1030
0.0
1001
ACDBBLOCKREPETAG
1070
     1
1071
       38
1005
128DEF
  0
LINE
  5
128DF0
  8
OBJECT
 10
11932.9999999999909051
 20
-1044.9999999999959073
 30
0.0
 11
12067.0000000000090949
 21
-1044.9999999999990905
 31
0.0
1001
ACDBBLOCKREPETAG
1070
     1
1071
        1
1005
128DF0
  0
LINE
  5
128DF1
  8
OBJECT
 10
11914.9999999999909051
 20
-654.9999999999994316
 30
0.0
 11
11915.0
 21
-872.6996828091412226
 31
0.0
1001
ACDBBLOCKREPETAG
1070
     1
1071
        2
1005
128DF1
  0
LINE
  5
128DF2
  8
OBJECT
 10
12085.0000000000090949
 20
-654.9999999999994316
 30
0.0
 11
12085.0
 21
-872.6996828091719181
 31
0.0
1001
ACDBBLOCKREPETAG
1070
     1
1071
        3
1005
128DF2
  0
LINE
  5
128DF3
  8
OBJECT
 10
11915.0
 20
-872.6996828091412226
 30
0.0
 11
11932.9999999999909051
 21
-1000.6996828090809686
 31
0.0
1001
ACDBBLOCKREPETAG
1070
     1
1071
        4
1005
128DF3
  0
LINE
  5
128DF4
  8
OBJECT
 10
12067.0000000000090949
 20
-1000.6996828091280349
 30
0.0
 11
12085.0
 21
-872.6996828091719181
 31
0.0
1001
ACDBBLOCKREPETAG
1070
     1
1071
        5
1005
128DF4
  0
LINE
  5
128DF5
  8
OBJECT
 10
12085.0000000000090949
 20
-654.9999999999994316
 30
0.0
 11
11914.9999999999909051
 21
-654.9999999999994316
 31
0.0
1001
ACDBBLOCKREPETAG
1070
     1
1071
        6
1005
128DF5
  0
LINE
  5
128DF6
  8
OBJECT
 10
11932.9999999999909051
 20
-1000.6996828090809686
 30
0.0
 11
11932.9999999999909051
 21
-1044.9999999999959073
 31
0.0
1001
ACDBBLOCKREPETAG
1070
     1
1071
        8
1005
128DF6
  0
LINE
  5
128DF7
  8
OBJECT
 10
12067.0000000000090949
 20
-1000.6996828091280349
 30
0.0
 11
12067.0000000000090949
 21
-1044.9999999999990905
 31
0.0
1001
ACDBBLOCKREPETAG
1070
     1
1071
        9
1005
128DF7
  0
LINE
  5
128DF8
  8
SLIM
 10
12414.9999999999909051
 20
-659.4738530943469641
 30
0.0
 11
12419.4738530943395745
 21
-654.9999999999994316
 31
0.0
1001
ACAD
1010
0.0
1020
0.0
1030
0.0
1001
ACDBBLOCKREPETAG
1070
     1
1071
        0
1005
0
  0
LINE
  5
128DF9
  8
SLIM
 10
12414.9999999999909051
 20
-677.4343653364843476
 30
0.0
 11
12437.4343653364703641
 21
-654.9999999999994316
 31
0.0
1001
ACAD
1010
0.0
1020
0.0
1030
0.0
1001
ACDBBLOCKREPETAG
1070
     1
1071
       10
1005
128DF9
  0
LINE
  5
128DFA
  8
SLIM
 10
12414.9999999999909051
 20
-695.3948775786224132
 30
0.0
 11
12455.3948775786193437
 21
-654.9999999999994316
 31
0.0
1001
ACAD
1010
0.0
1020
0.0
1030
0.0
1001
ACDBBLOCKREPETAG
1070
     1
1071
       11
1005
128DFA
  0
LINE
  5
128DFB
  8
SLIM
 10
12414.9999999999909051
 20
-713.3553898207600241
 30
0.0
 11
12473.3553898207501334
 21
-654.9999999999994316
 31
0.0
1001
ACAD
1010
0.0
1020
0.0
1030
0.0
1001
ACDBBLOCKREPETAG
1070
     1
1071
       12
1005
128DFB
  0
LINE
  5
128DFC
  8
SLIM
 10
12414.9999999999909051
 20
-731.3159020628977487
 30
0.0
 11
12491.315902062890018
 21
-654.9999999999994316
 31
0.0
1001
ACAD
1010
0.0
1020
0.0
1030
0.0
1001
ACDBBLOCKREPETAG
1070
     1
1071
       13
1005
128DFC
  0
LINE
  5
128DFD
  8
SLIM
 10
12414.9999999999909051
 20
-749.2764143050352459
 30
0.0
 11
12509.2764143050299026
 21
-654.9999999999994316
 31
0.0
1001
ACAD
1010
0.0
1020
0.0
1030
0.0
1001
ACDBBLOCKREPETAG
1070
     1
1071
       14
1005
128DFD
  0
LINE
  5
128DFE
  8
SLIM
 10
12414.9999999999909051
 20
-767.2369265471733115
 30
0.0
 11
12527.2369265471697872
 21
-654.9999999999994316
 31
0.0
1001
ACAD
1010
0.0
1020
0.0
1030
0.0
1001
ACDBBLOCKREPETAG
1070
     1
1071
       15
1005
128DFE
  0
LINE
  5
128DFF
  8
SLIM
 10
12414.9999999999909051
 20
-785.197438789310695
 30
0.0
 11
12545.1974387893096718
 21
-654.9999999999994316
 31
0.0
1001
ACAD
1010
0.0
1020
0.0
1030
0.0
1001
ACDBBLOCKREPETAG
1070
     1
1071
       16
1005
128DFF
  0
LINE
  5
128E00
  8
SLIM
 10
12415.0
 20
-803.157951031448647
 30
0.0
 11
12563.1579510314404615
 21
-654.9999999999994316
 31
0.0
1001
ACAD
1010
0.0
1020
0.0
1030
0.0
1001
ACDBBLOCKREPETAG
1070
     1
1071
       17
1005
128E00
  0
LINE
  5
128E01
  8
SLIM
 10
12415.0
 20
-821.1184632735861442
 30
0.0
 11
12581.1184632735803461
 21
-654.9999999999994316
 31
0.0
1001
ACAD
1010
0.0
1020
0.0
1030
0.0
1001
ACDBBLOCKREPETAG
1070
     1
1071
       18
1005
128E01
  0
LINE
  5
128E02
  8
SLIM
 10
12415.0
 20
-839.0789755157236414
 30
0.0
 11
12585.0000000000090949
 21
-669.078975515716138
 31
0.0
1001
ACAD
1010
0.0
1020
0.0
1030
0.0
1001
ACDBBLOCKREPETAG
1070
     1
1071
       19
1005
128E02
  0
LINE
  5
128E03
  8
SLIM
 10
12415.0
 20
-857.0394877578618207
 30
0.0
 11
12585.0
 21
-687.0394877578551132
 31
0.0
1001
ACAD
1010
0.0
1020
0.0
1030
0.0
1001
ACDBBLOCKREPETAG
1070
     1
1071
       20
1005
128E03
  0
LINE
  5
128E04
  8
SLIM
 10
12415.2836007495607191
 20
-874.7163992504415546
 30
0.0
 11
12585.0
 21
-704.9999999999939746
 31
0.0
1001
ACAD
1010
0.0
1020
0.0
1030
0.0
1001
ACDBBLOCKREPETAG
1070
     1
1071
       21
1005
128E04
  0
LINE
  5
128E05
  8
SLIM
 10
12417.4979104780395573
 20
-890.4626017640969167
 30
0.0
 11
12585.0
 21
-722.960512242132495
 31
0.0
1001
ACAD
1010
0.0
1020
0.0
1030
0.0
1001
ACDBBLOCKREPETAG
1070
     1
1071
       22
1005
128E05
  0
LINE
  5
128E06
  8
SLIM
 10
12419.7122202065202146
 20
-906.2088042777523924
 30
0.0
 11
12585.0
 21
-740.9210244842719248
 31
0.0
1001
ACAD
1010
0.0
1020
0.0
1030
0.0
1001
ACDBBLOCKREPETAG
1070
     1
1071
       23
1005
128E06
  0
LINE
  5
128E07
  8
SLIM
 10
12421.9265299350099667
 20
-921.9550067914076408
 30
0.0
 11
12585.0
 21
-758.8815367264102179
 31
0.0
1001
ACAD
1010
0.0
1020
0.0
1030
0.0
1001
ACDBBLOCKREPETAG
1070
     1
1071
       24
1005
128E07
  0
LINE
  5
128E08
  8
SLIM
 10
12424.1408396634906239
 20
-937.7012093050630028
 30
0.0
 11
12585.0
 21
-776.842048968549534
 31
0.0
1001
ACAD
1010
0.0
1020
0.0
1030
0.0
1001
ACDBBLOCKREPETAG
1070
     1
1071
       25
1005
128E08
  0
LINE
  5
128E09
  8
SLIM
 10
12426.3551493919694622
 20
-953.4474118187182512
 30
0.0
 11
12585.0
 21
-794.8025612106885092
 31
0.0
1001
ACAD
1010
0.0
1020
0.0
1030
0.0
1001
ACDBBLOCKREPETAG
1070
     1
1071
       26
1005
128E09
  0
LINE
  5
128E0A
  8
SLIM
 10
12428.5694591204501194
 20
-969.1936143323738406
 30
0.0
 11
12585.0
 21
-812.7630734528273706
 31
0.0
1001
ACAD
1010
0.0
1020
0.0
1030
0.0
1001
ACDBBLOCKREPETAG
1070
     1
1071
       27
1005
128E0A
  0
LINE
  5
128E0B
  8
SLIM
 10
12430.7837688489398715
 20
-984.939816846029089
 30
0.0
 11
12585.0
 21
-830.7235856949660047
 31
0.0
1001
ACAD
1010
0.0
1020
0.0
1030
0.0
1001
ACDBBLOCKREPETAG
1070
     1
1071
       28
1005
128E0B
  0
LINE
  5
128E0C
  8
SLIM
 10
12432.9980785774205287
 20
-1000.6860193596839963
 30
0.0
 11
12585.0
 21
-848.6840979371052072
 31
0.0
1001
ACAD
1010
0.0
1020
0.0
1030
0.0
1001
ACDBBLOCKREPETAG
1070
     1
1071
       29
1005
128E0C
  0
LINE
  5
128E0D
  8
SLIM
 10
12432.9999999999909051
 20
-1018.6446101792510035
 30
0.0
 11
12585.0
 21
-866.6446101792440686
 31
0.0
1001
ACAD
1010
0.0
1020
0.0
1030
0.0
1001
ACDBBLOCKREPETAG
1070
     1
1071
       30
1005
128E0D
  0
LINE
  5
128E0E
  8
SLIM
 10
12432.9999999999909051
 20
-1036.6051224213899786
 30
0.0
 11
12583.051837154360328
 21
-886.553285267016463
 31
0.0
1001
ACAD
1010
0.0
1020
0.0
1030
0.0
1001
ACDBBLOCKREPETAG
1070
     1
1071
       31
1005
128E0E
  0
LINE
  5
128E0F
  8
SLIM
 10
12442.5656346635205409
 20
-1044.9999999999959073
 30
0.0
 11
12580.1128442420103966
 21
-907.4527904215037779
 31
0.0
1001
ACAD
1010
0.0
1020
0.0
1030
0.0
1001
ACDBBLOCKREPETAG
1070
     1
1071
       32
1005
128E0F
  0
LINE
  5
128E10
  8
SLIM
 10
12460.5261469056604255
 20
-1044.9999999999959073
 30
0.0
 11
12577.1738513296695601
 21
-928.3522955759910928
 31
0.0
1001
ACAD
1010
0.0
1020
0.0
1030
0.0
1001
ACDBBLOCKREPETAG
1070
     1
1071
       33
1005
128E10
  0
LINE
  5
128E11
  8
SLIM
 10
12478.4866591478003102
 20
-1044.9999999999970441
 30
0.0
 11
12574.2348584173196286
 21
-949.2518007304784078
 31
0.0
1001
ACAD
1010
0.0
1020
0.0
1030
0.0
1001
ACDBBLOCKREPETAG
1070
     1
1071
       34
1005
128E11
  0
LINE
  5
128E12
  8
SLIM
 10
12496.4471713899401948
 20
-1044.9999999999979536
 30
0.0
 11
12571.2958655049696972
 21
-970.1513058849657227
 31
0.0
1001
ACAD
1010
0.0
1020
0.0
1030
0.0
1001
ACDBBLOCKREPETAG
1070
     1
1071
       35
1005
128E12
  0
LINE
  5
128E13
  8
SLIM
 10
12514.4076836320600705
 20
-1044.9999999999979536
 30
0.0
 11
12568.3568725926197658
 21
-991.050811039452924
 31
0.0
1001
ACAD
1010
0.0
1020
0.0
1030
0.0
1001
ACDBBLOCKREPETAG
1070
     1
1071
       36
1005
128E13
  0
LINE
  5
128E14
  8
SLIM
 10
12532.3681958742108691
 20
-1044.9999999999990905
 30
0.0
 11
12567.0000000000090949
 21
-1010.3681958742009783
 31
0.0
1001
ACAD
1010
0.0
1020
0.0
1030
0.0
1001
ACDBBLOCKREPETAG
1070
     1
1071
       37
1005
128E14
  0
LINE
  5
128E15
  8
SLIM
 10
12550.3287081163507537
 20
-1044.9999999999990905
 30
0.0
 11
12567.0000000000090949
 21
-1028.3287081163400671
 31
0.0
1001
ACAD
1010
0.0
1020
0.0
1030
0.0
1001
ACDBBLOCKREPETAG
1070
     1
1071
       38
1005
128E15
  0
LINE
  5
128E16
  8
OBJECT
 10
12432.9999999999909051
 20
-1044.9999999999959073
 30
0.0
 11
12567.0000000000090949
 21
-1044.9999999999990905
 31
0.0
1001
ACDBBLOCKREPETAG
1070
     1
1071
        1
1005
128E16
  0
LINE
  5
128E17
  8
OBJECT
 10
12414.9999999999909051
 20
-654.9999999999994316
 30
0.0
 11
12415.0
 21
-872.6996828091412226
 31
0.0
1001
ACDBBLOCKREPETAG
1070
     1
1071
        2
1005
128E17
  0
LINE
  5
128E18
  8
OBJECT
 10
12585.0000000000090949
 20
-654.9999999999994316
 30
0.0
 11
12585.0
 21
-872.6996828091719181
 31
0.0
1001
ACDBBLOCKREPETAG
1070
     1
1071
        3
1005
128E18
  0
LINE
  5
128E19
  8
OBJECT
 10
12415.0
 20
-872.6996828091412226
 30
0.0
 11
12432.9999999999909051
 21
-1000.6996828090809686
 31
0.0
1001
ACDBBLOCKREPETAG
1070
     1
1071
        4
1005
128E19
  0
LINE
  5
128E1A
  8
OBJECT
 10
12567.0000000000090949
 20
-1000.6996828091280349
 30
0.0
 11
12585.0
 21
-872.6996828091719181
 31
0.0
1001
ACDBBLOCKREPETAG
1070
     1
1071
        5
1005
128E1A
  0
LINE
  5
128E1B
  8
OBJECT
 10
12585.0000000000090949
 20
-654.9999999999994316
 30
0.0
 11
12414.9999999999909051
 21
-654.9999999999994316
 31
0.0
1001
ACDBBLOCKREPETAG
1070
     1
1071
        6
1005
128E1B
  0
LINE
  5
128E1C
  8
OBJECT
 10
12432.9999999999909051
 20
-1000.6996828090809686
 30
0.0
 11
12432.9999999999909051
 21
-1044.9999999999959073
 31
0.0
1001
ACDBBLOCKREPETAG
1070
     1
1071
        8
1005
128E1C
  0
LINE
  5
128E1D
  8
OBJECT
 10
12567.0000000000090949
 20
-1000.6996828091280349
 30
0.0
 11
12567.0000000000090949
 21
-1044.9999999999990905
 31
0.0
1001
ACDBBLOCKREPETAG
1070
     1
1071
        9
1005
128E1D
  0
LINE
  5
128E1E
  8
OBJECT
 10
2150.0
 20
-124.9999999999991047
 30
0.0
 11
2143.0
 21
-124.9999999999991047
 31
0.0
1001
ACDBBLOCKREPETAG
1070
     1
1071
       67
1005
128E1E
  0
LINE
  5
128E1F
  8
OBJECT
 10
2143.0
 20
-124.9999999999991047
 30
0.0
 11
2143.0
 21
-274.9999999999990905
 31
0.0
1001
ACDBBLOCKREPETAG
1070
     1
1071
       68
1005
128E1F
  0
LINE
  5
128E20
  8
OBJECT
 10
2101.5
 20
-127.9999999999991047
 30
0.0
 11
2101.5
 21
-271.9999999999990905
 31
0.0
1001
ACDBBLOCKREPETAG
1070
     1
1071
       69
1005
128E20
  0
LINE
  5
128E21
  8
OBJECT
 10
2090.0
 20
-134.4999999999990905
 30
0.0
 11
2090.0
 21
-265.4999999999990905
 31
0.0
1001
ACDBBLOCKREPETAG
1070
     1
1071
       70
1005
128E21
  0
LINE
  5
128E22
  8
OBJECT
 10
2143.0
 20
-274.9999999999990905
 30
0.0
 11
2150.0
 21
-274.9999999999990905
 31
0.0
1001
ACDBBLOCKREPETAG
1070
     1
1071
       71
1005
128E22
  0
LINE
  5
128E23
  8
OBJECT
 10
2150.0
 20
-274.9999999999990905
 30
0.0
 11
2150.0
 21
-124.9999999999991047
 31
0.0
1001
ACDBBLOCKREPETAG
1070
     1
1071
       72
1005
128E23
  0
LINE
  5
128E24
  8
HIDDEN
 10
2098.0
 20
-256.9999999999990905
 30
0.0
 11
2098.0
 21
-142.9999999999990905
 31
0.0
1001
ACDBBLOCKREPETAG
1070
     1
1071
       73
1005
128E24
  0
LINE
  5
128E25
  8
CENTER
 10
2165.0
 20
-199.9999999999990905
 30
0.0
 11
2080.0
 21
-199.9999999999990905
 31
0.0
1001
ACDBBLOCKREPETAG
1070
     1
1071
       74
1005
128E25
  0
LINE
  5
128E26
  8
OBJECT
 10
2086.0
 20
-261.9999999999990905
 30
0.0
 11
2080.0
 21
-261.9999999999990905
 31
0.0
1001
ACDBBLOCKREPETAG
1070
     1
1071
       75
1005
128E26
  0
LINE
  5
128E27
  8
OBJECT
 10
2143.0
 20
-271.9999999999990905
 30
0.0
 11
2101.5
 21
-271.9999999999990905
 31
0.0
1001
ACDBBLOCKREPETAG
1070
     1
1071
       76
1005
128E27
  0
LINE
  5
128E28
  8
OBJECT
 10
2101.5
 20
-271.9999999999990905
 30
0.0
 11
2090.0
 21
-265.4999999999990905
 31
0.0
1001
ACDBBLOCKREPETAG
1070
     1
1071
       77
1005
128E28
  0
LINE
  5
128E29
  8
OBJECT
 10
2090.0
 20
-265.4999999999990905
 30
0.0
 11
2086.0
 21
-261.9999999999990905
 31
0.0
1001
ACDBBLOCKREPETAG
1070
     1
1071
       78
1005
128E29
  0
LINE
  5
128E2A
  8
OBJECT
 10
2101.5
 20
-127.9999999999991047
 30
0.0
 11
2090.0
 21
-134.4999999999990905
 31
0.0
1001
ACDBBLOCKREPETAG
1070
     1
1071
       79
1005
128E2A
  0
LINE
  5
128E2B
  8
OBJECT
 10
2090.0
 20
-134.4999999999990905
 30
0.0
 11
2086.0
 21
-137.9999999999990905
 31
0.0
1001
ACDBBLOCKREPETAG
1070
     1
1071
       80
1005
128E2B
  0
ARC
  5
128E2C
  8
OBJECT
 10
2467.9000000000019099
 20
-199.9999999999990905
 30
0.0
 40
386.8999999999999773
 50
170.7787013626042096
 51
189.2212986373957051
1001
ACDBBLOCKREPETAG
1070
     1
1071
       81
1005
128E2C
  0
LINE
  5
128E2D
  8
OBJECT
 10
2086.0
 20
-137.9999999999990905
 30
0.0
 11
2080.0
 21
-137.9999999999990905
 31
0.0
1001
ACDBBLOCKREPETAG
1070
     1
1071
       82
1005
128E2D
  0
LINE
  5
128E2E
  8
OBJECT
 10
2143.0
 20
-127.9999999999991047
 30
0.0
 11
2101.5
 21
-127.9999999999991047
 31
0.0
1001
ACDBBLOCKREPETAG
1070
     1
1071
       83
1005
128E2E
  0
LINE
  5
128E2F
  8
OBJECT
 10
2150.0
 20
-508.0
 30
0.0
 11
2143.0
 21
-508.0
 31
0.0
1001
ACDBBLOCKREPETAG
1070
     1
1071
       64
1005
128E2F
  0
LINE
  5
128E30
  8
OBJECT
 10
2143.0
 20
-508.0
 30
0.0
 11
2143.0
 21
-655.0
 31
0.0
1001
ACDBBLOCKREPETAG
1070
     1
1071
       65
1005
128E30
  0
LINE
  5
128E31
  8
OBJECT
 10
2101.5
 20
-511.0
 30
0.0
 11
2101.5
 21
-655.0
 31
0.0
1001
ACDBBLOCKREPETAG
1070
     1
1071
       66
1005
128E31
  0
LINE
  5
128E32
  8
OBJECT
 10
2090.0
 20
-517.4999999999997726
 30
0.0
 11
2090.0
 21
-648.5
 31
0.0
1001
ACDBBLOCKREPETAG
1070
     1
1071
       67
1005
128E32
  0
LINE
  5
128E33
  8
OBJECT
 10
2086.0
 20
-589.500000000007276
 30
0.0
 11
2086.0
 21
-655.0
 31
0.0
1001
ACDBBLOCKREPETAG
1070
     1
1071
       68
1005
128E33
  0
LINE
  5
128E34
  8
OBJECT
 10
2150.0
 20
-655.0
 30
0.0
 11
2150.0
 21
-508.0
 31
0.0
1001
ACDBBLOCKREPETAG
1070
     1
1071
       69
1005
128E34
  0
LINE
  5
128E35
  8
CENTER
 10
2165.0
 20
-583.0
 30
0.0
 11
2070.4144144144161146
 21
-583.0
 31
0.0
1001
ACDBBLOCKREPETAG
1070
     1
1071
       70
1005
128E35
  0
LINE
  5
128E36
  8
OBJECT
 10
2083.0000000000040927
 20
-658.0
 30
0.0
 11
2080.0
 21
-658.0
 31
0.0
1001
ACDBBLOCKREPETAG
1070
     1
1071
       71
1005
128E36
  0
ARC
  5
128E37
  8
OBJECT
 10
2091.8815171830651707
 20
-656.4555591801454284
 30
0.0
 40
6.0
 50
60.5241109968708884
 51
170.6927439126718014
1001
ACDBBLOCKREPETAG
1070
     1
1071
       72
1005
128E37
  0
ARC
  5
128E38
  8
OBJECT
 10
2083.0
 20
-655.0
 30
0.0
 40
3.0
 50
270.0
 51
350.6927439126719719
1001
ACDBBLOCKREPETAG
1070
     1
1071
       73
1005
128E38
  0
LINE
  5
128E39
  8
OBJECT
 10
2081.0
 20
-534.0
 30
0.0
 11
2080.0
 21
-534.0
 31
0.0
1001
ACDBBLOCKREPETAG
1070
     1
1071
       74
1005
128E39
  0
LINE
  5
128E3A
  8
OBJECT
 10
2150.0
 20
-655.0
 30
0.0
 11
2101.5
 21
-655.0
 31
0.0
1001
ACDBBLOCKREPETAG
1070
     1
1071
       75
1005
128E3A
  0
LINE
  5
128E3B
  8
OBJECT
 10
2101.5
 20
-511.0
 30
0.0
 11
2090.0
 21
-517.4999999999997726
 31
0.0
1001
ACDBBLOCKREPETAG
1070
     1
1071
       76
1005
128E3B
  0
LINE
  5
128E3C
  8
OBJECT
 10
2143.0
 20
-511.0
 30
0.0
 11
2101.5
 21
-511.0
 31
0.0
1001
ACDBBLOCKREPETAG
1070
     1
1071
       77
1005
128E3C
  0
LINE
  5
128E3D
  8
OBJECT
 10
2086.0
 20
-589.500000000007276
 30
0.0
 11
2081.0
 21
-534.0
 31
0.0
1001
ACDBBLOCKREPETAG
1070
     1
1071
       78
1005
128E3D
  0
LINE
  5
128E3E
  8
OBJECT
 10
2090.0
 20
-517.4999999999997726
 30
0.0
 11
2081.0
 21
-534.0
 31
0.0
1001
ACDBBLOCKREPETAG
1070
     1
1071
       79
1005
128E3E
  0
LINE
  5
128E3F
  8
OBJECT
 10
2101.5
 20
-655.0
 30
0.0
 11
2094.8338607230730304
 21
-651.2321821478216179
 31
0.0
1001
ACDBBLOCKREPETAG
1070
     1
1071
       80
1005
128E3F
  0
LINE
  5
128E40
  8
HIDDEN
 10
2098.0
 20
-640.0
 30
0.0
 11
2098.0
 21
-526.0
 31
0.0
1001
ACDBBLOCKREPETAG
1070
     1
1071
       81
1005
128E40
  0
LINE
  5
128E41
  8
OBJECT
 10
4150.0
 20
-508.0
 30
0.0
 11
4143.0
 21
-508.0
 31
0.0
1001
ACDBBLOCKREPETAG
1070
     1
1071
       64
1005
128E41
  0
LINE
  5
128E42
  8
OBJECT
 10
4143.0
 20
-508.0
 30
0.0
 11
4143.0
 21
-655.0
 31
0.0
1001
ACDBBLOCKREPETAG
1070
     1
1071
       65
1005
128E42
  0
LINE
  5
128E43
  8
OBJECT
 10
4101.5
 20
-511.0
 30
0.0
 11
4101.5
 21
-655.0
 31
0.0
1001
ACDBBLOCKREPETAG
1070
     1
1071
       66
1005
128E43
  0
LINE
  5
128E44
  8
OBJECT
 10
4090.0
 20
-517.4999999999997726
 30
0.0
 11
4090.0
 21
-648.5
 31
0.0
1001
ACDBBLOCKREPETAG
1070
     1
1071
       67
1005
128E44
  0
LINE
  5
128E45
  8
OBJECT
 10
4086.0
 20
-589.500000000007276
 30
0.0
 11
4086.0
 21
-655.0
 31
0.0
1001
ACDBBLOCKREPETAG
1070
     1
1071
       68
1005
128E45
  0
LINE
  5
128E46
  8
OBJECT
 10
4150.0
 20
-655.0
 30
0.0
 11
4150.0
 21
-508.0
 31
0.0
1001
ACDBBLOCKREPETAG
1070
     1
1071
       69
1005
128E46
  0
LINE
  5
128E47
  8
CENTER
 10
4165.0
 20
-583.0
 30
0.0
 11
4070.4144144144161146
 21
-583.0
 31
0.0
1001
ACDBBLOCKREPETAG
1070
     1
1071
       70
1005
128E47
  0
LINE
  5
128E48
  8
OBJECT
 10
4083.0000000000031832
 20
-658.0
 30
0.0
 11
4080.0
 21
-658.0
 31
0.0
1001
ACDBBLOCKREPETAG
1070
     1
1071
       71
1005
128E48
  0
ARC
  5
128E49
  8
OBJECT
 10
4091.8815171830651707
 20
-656.4555591801454284
 30
0.0
 40
6.0
 50
60.5241109968708884
 51
170.6927439126718014
1001
ACDBBLOCKREPETAG
1070
     1
1071
       72
1005
128E49
  0
ARC
  5
128E4A
  8
OBJECT
 10
4083.0
 20
-655.0
 30
0.0
 40
3.0
 50
270.0
 51
350.6927439126719719
1001
ACDBBLOCKREPETAG
1070
     1
1071
       73
1005
128E4A
  0
LINE
  5
128E4B
  8
OBJECT
 10
4081.0
 20
-534.0
 30
0.0
 11
4080.0
 21
-534.0
 31
0.0
1001
ACDBBLOCKREPETAG
1070
     1
1071
       74
1005
128E4B
  0
LINE
  5
128E4C
  8
OBJECT
 10
4150.0
 20
-655.0
 30
0.0
 11
4101.5
 21
-655.0
 31
0.0
1001
ACDBBLOCKREPETAG
1070
     1
1071
       75
1005
128E4C
  0
LINE
  5
128E4D
  8
OBJECT
 10
4101.5
 20
-511.0
 30
0.0
 11
4090.0
 21
-517.4999999999997726
 31
0.0
1001
ACDBBLOCKREPETAG
1070
     1
1071
       76
1005
128E4D
  0
LINE
  5
128E4E
  8
OBJECT
 10
4143.0
 20
-511.0
 30
0.0
 11
4101.5
 21
-511.0
 31
0.0
1001
ACDBBLOCKREPETAG
1070
     1
1071
       77
1005
128E4E
  0
LINE
  5
128E4F
  8
OBJECT
 10
4086.0
 20
-589.500000000007276
 30
0.0
 11
4081.0
 21
-534.0
 31
0.0
1001
ACDBBLOCKREPETAG
1070
     1
1071
       78
1005
128E4F
  0
LINE
  5
128E50
  8
OBJECT
 10
4090.0
 20
-517.4999999999997726
 30
0.0
 11
4081.0
 21
-534.0
 31
0.0
1001
ACDBBLOCKREPETAG
1070
     1
1071
       79
1005
128E50
  0
LINE
  5
128E51
  8
OBJECT
 10
4101.5
 20
-655.0
 30
0.0
 11
4094.8338607230721209
 21
-651.2321821478216179
 31
0.0
1001
ACDBBLOCKREPETAG
1070
     1
1071
       80
1005
128E51
  0
LINE
  5
128E52
  8
HIDDEN
 10
4098.0
 20
-640.0
 30
0.0
 11
4098.0
 21
-526.0
 31
0.0
1001
ACDBBLOCKREPETAG
1070
     1
1071
       81
1005
128E52
  0
LINE
  5
128E53
  8
OBJECT
 10
6150.0
 20
-508.0
 30
0.0
 11
6143.0
 21
-508.0
 31
0.0
1001
ACDBBLOCKREPETAG
1070
     1
1071
       64
1005
128E53
  0
LINE
  5
128E54
  8
OBJECT
 10
6143.0
 20
-508.0
 30
0.0
 11
6143.0
 21
-655.0
 31
0.0
1001
ACDBBLOCKREPETAG
1070
     1
1071
       65
1005
128E54
  0
LINE
  5
128E55
  8
OBJECT
 10
6101.5
 20
-511.0
 30
0.0
 11
6101.5
 21
-655.0
 31
0.0
1001
ACDBBLOCKREPETAG
1070
     1
1071
       66
1005
128E55
  0
LINE
  5
128E56
  8
OBJECT
 10
6090.0
 20
-517.4999999999997726
 30
0.0
 11
6090.0
 21
-648.5
 31
0.0
1001
ACDBBLOCKREPETAG
1070
     1
1071
       67
1005
128E56
  0
LINE
  5
128E57
  8
OBJECT
 10
6086.0
 20
-589.500000000007276
 30
0.0
 11
6086.0
 21
-655.0
 31
0.0
1001
ACDBBLOCKREPETAG
1070
     1
1071
       68
1005
128E57
  0
LINE
  5
128E58
  8
OBJECT
 10
6150.0
 20
-655.0
 30
0.0
 11
6150.0
 21
-508.0
 31
0.0
1001
ACDBBLOCKREPETAG
1070
     1
1071
       69
1005
128E58
  0
LINE
  5
128E59
  8
CENTER
 10
6165.0
 20
-583.0
 30
0.0
 11
6070.4144144144156598
 21
-583.0
 31
0.0
1001
ACDBBLOCKREPETAG
1070
     1
1071
       70
1005
128E59
  0
LINE
  5
128E5A
  8
OBJECT
 10
6083.000000000003638
 20
-658.0
 30
0.0
 11
6080.0
 21
-658.0
 31
0.0
1001
ACDBBLOCKREPETAG
1070
     1
1071
       71
1005
128E5A
  0
ARC
  5
128E5B
  8
OBJECT
 10
6091.8815171830647159
 20
-656.4555591801454284
 30
0.0
 40
6.0
 50
60.5241109968708884
 51
170.6927439126718014
1001
ACDBBLOCKREPETAG
1070
     1
1071
       72
1005
128E5B
  0
ARC
  5
128E5C
  8
OBJECT
 10
6083.0
 20
-655.0
 30
0.0
 40
3.0
 50
270.0
 51
350.6927439126719719
1001
ACDBBLOCKREPETAG
1070
     1
1071
       73
1005
128E5C
  0
LINE
  5
128E5D
  8
OBJECT
 10
6081.0
 20
-534.0
 30
0.0
 11
6080.0
 21
-534.0
 31
0.0
1001
ACDBBLOCKREPETAG
1070
     1
1071
       74
1005
128E5D
  0
LINE
  5
128E5E
  8
OBJECT
 10
6150.0
 20
-655.0
 30
0.0
 11
6101.5
 21
-655.0
 31
0.0
1001
ACDBBLOCKREPETAG
1070
     1
1071
       75
1005
128E5E
  0
LINE
  5
128E5F
  8
OBJECT
 10
6101.5
 20
-511.0
 30
0.0
 11
6090.0
 21
-517.4999999999997726
 31
0.0
1001
ACDBBLOCKREPETAG
1070
     1
1071
       76
1005
128E5F
  0
LINE
  5
128E60
  8
OBJECT
 10
6143.0
 20
-511.0
 30
0.0
 11
6101.5
 21
-511.0
 31
0.0
1001
ACDBBLOCKREPETAG
1070
     1
1071
       77
1005
128E60
  0
LINE
  5
128E61
  8
OBJECT
 10
6086.0
 20
-589.500000000007276
 30
0.0
 11
6081.0
 21
-534.0
 31
0.0
1001
ACDBBLOCKREPETAG
1070
     1
1071
       78
1005
128E61
  0
LINE
  5
128E62
  8
OBJECT
 10
6090.0
 20
-517.4999999999997726
 30
0.0
 11
6081.0
 21
-534.0
 31
0.0
1001
ACDBBLOCKREPETAG
1070
     1
1071
       79
1005
128E62
  0
LINE
  5
128E63
  8
OBJECT
 10
6101.5
 20
-655.0
 30
0.0
 11
6094.8338607230716661
 21
-651.2321821478216179
 31
0.0
1001
ACDBBLOCKREPETAG
1070
     1
1071
       80
1005
128E63
  0
LINE
  5
128E64
  8
HIDDEN
 10
6098.0
 20
-640.0
 30
0.0
 11
6098.0
 21
-526.0
 31
0.0
1001
ACDBBLOCKREPETAG
1070
     1
1071
       81
1005
128E64
  0
LINE
  5
128E65
  8
OBJECT
 10
8150.0
 20
-508.0
 30
0.0
 11
8143.0
 21
-508.0
 31
0.0
1001
ACDBBLOCKREPETAG
1070
     1
1071
       64
1005
128E65
  0
LINE
  5
128E66
  8
OBJECT
 10
8143.0
 20
-508.0
 30
0.0
 11
8143.0
 21
-655.0
 31
0.0
1001
ACDBBLOCKREPETAG
1070
     1
1071
       65
1005
128E66
  0
LINE
  5
128E67
  8
OBJECT
 10
8101.4999999999990905
 20
-511.0
 30
0.0
 11
8101.4999999999990905
 21
-655.0
 31
0.0
1001
ACDBBLOCKREPETAG
1070
     1
1071
       66
1005
128E67
  0
LINE
  5
128E68
  8
OBJECT
 10
8090.0
 20
-517.4999999999997726
 30
0.0
 11
8090.0
 21
-648.5
 31
0.0
1001
ACDBBLOCKREPETAG
1070
     1
1071
       67
1005
128E68
  0
LINE
  5
128E69
  8
OBJECT
 10
8086.0
 20
-589.500000000007276
 30
0.0
 11
8086.0
 21
-655.0
 31
0.0
1001
ACDBBLOCKREPETAG
1070
     1
1071
       68
1005
128E69
  0
LINE
  5
128E6A
  8
OBJECT
 10
8150.0
 20
-655.0
 30
0.0
 11
8150.0
 21
-508.0
 31
0.0
1001
ACDBBLOCKREPETAG
1070
     1
1071
       69
1005
128E6A
  0
LINE
  5
128E6B
  8
CENTER
 10
8165.0
 20
-583.0
 30
0.0
 11
8070.4144144144129314
 21
-583.0
 31
0.0
1001
ACDBBLOCKREPETAG
1070
     1
1071
       70
1005
128E6B
  0
LINE
  5
128E6C
  8
OBJECT
 10
8083.0000000000027285
 20
-658.0
 30
0.0
 11
8080.0
 21
-658.0
 31
0.0
1001
ACDBBLOCKREPETAG
1070
     1
1071
       71
1005
128E6C
  0
ARC
  5
128E6D
  8
OBJECT
 10
8091.8815171830647159
 20
-656.4555591801454284
 30
0.0
 40
6.0
 50
60.5241109968708884
 51
170.6927439126718014
1001
ACDBBLOCKREPETAG
1070
     1
1071
       72
1005
128E6D
  0
ARC
  5
128E6E
  8
OBJECT
 10
8083.0
 20
-655.0
 30
0.0
 40
3.0
 50
270.0
 51
350.6927439126719719
1001
ACDBBLOCKREPETAG
1070
     1
1071
       73
1005
128E6E
  0
LINE
  5
128E6F
  8
OBJECT
 10
8081.0
 20
-534.0
 30
0.0
 11
8080.0
 21
-534.0
 31
0.0
1001
ACDBBLOCKREPETAG
1070
     1
1071
       74
1005
128E6F
  0
LINE
  5
128E70
  8
OBJECT
 10
8150.0
 20
-655.0
 30
0.0
 11
8101.4999999999990905
 21
-655.0
 31
0.0
1001
ACDBBLOCKREPETAG
1070
     1
1071
       75
1005
128E70
  0
LINE
  5
128E71
  8
OBJECT
 10
8101.4999999999990905
 20
-511.0
 30
0.0
 11
8090.0
 21
-517.4999999999997726
 31
0.0
1001
ACDBBLOCKREPETAG
1070
     1
1071
       76
1005
128E71
  0
LINE
  5
128E72
  8
OBJECT
 10
8143.0
 20
-511.0
 30
0.0
 11
8101.4999999999990905
 21
-511.0
 31
0.0
1001
ACDBBLOCKREPETAG
1070
     1
1071
       77
1005
128E72
  0
LINE
  5
128E73
  8
OBJECT
 10
8086.0
 20
-589.500000000007276
 30
0.0
 11
8081.0
 21
-534.0
 31
0.0
1001
ACDBBLOCKREPETAG
1070
     1
1071
       78
1005
128E73
  0
LINE
  5
128E74
  8
OBJECT
 10
8090.0
 20
-517.4999999999997726
 30
0.0
 11
8081.0
 21
-534.0
 31
0.0
1001
ACDBBLOCKREPETAG
1070
     1
1071
       79
1005
128E74
  0
LINE
  5
128E75
  8
OBJECT
 10
8101.4999999999990905
 20
-655.0
 30
0.0
 11
8094.8338607230716661
 21
-651.2321821478216179
 31
0.0
1001
ACDBBLOCKREPETAG
1070
     1
1071
       80
1005
128E75
  0
LINE
  5
128E76
  8
HIDDEN
 10
8098.0
 20
-640.0
 30
0.0
 11
8098.0
 21
-526.0
 31
0.0
1001
ACDBBLOCKREPETAG
1070
     1
1071
       81
1005
128E76
  0
LINE
  5
128E77
  8
OBJECT
 10
10150.0
 20
-508.0
 30
0.0
 11
10143.0
 21
-508.0
 31
0.0
1001
ACDBBLOCKREPETAG
1070
     1
1071
       64
1005
128E77
  0
LINE
  5
128E78
  8
OBJECT
 10
10143.0
 20
-508.0
 30
0.0
 11
10143.0
 21
-655.0
 31
0.0
1001
ACDBBLOCKREPETAG
1070
     1
1071
       65
1005
128E78
  0
LINE
  5
128E79
  8
OBJECT
 10
10101.5
 20
-511.0
 30
0.0
 11
10101.5
 21
-655.0
 31
0.0
1001
ACDBBLOCKREPETAG
1070
     1
1071
       66
1005
128E79
  0
LINE
  5
128E7A
  8
OBJECT
 10
10090.0
 20
-517.4999999999997726
 30
0.0
 11
10090.0
 21
-648.5
 31
0.0
1001
ACDBBLOCKREPETAG
1070
     1
1071
       67
1005
128E7A
  0
LINE
  5
128E7B
  8
OBJECT
 10
10086.0
 20
-589.500000000007276
 30
0.0
 11
10086.0
 21
-655.0
 31
0.0
1001
ACDBBLOCKREPETAG
1070
     1
1071
       68
1005
128E7B
  0
LINE
  5
128E7C
  8
OBJECT
 10
10150.0
 20
-655.0
 30
0.0
 11
10150.0
 21
-508.0
 31
0.0
1001
ACDBBLOCKREPETAG
1070
     1
1071
       69
1005
128E7C
  0
LINE
  5
128E7D
  8
CENTER
 10
10165.0
 20
-583.0
 30
0.0
 11
10070.4144144144102029
 21
-583.0
 31
0.0
1001
ACDBBLOCKREPETAG
1070
     1
1071
       70
1005
128E7D
  0
LINE
  5
128E7E
  8
OBJECT
 10
10083.0
 20
-658.0
 30
0.0
 11
10080.0
 21
-658.0
 31
0.0
1001
ACDBBLOCKREPETAG
1070
     1
1071
       71
1005
128E7E
  0
ARC
  5
128E7F
  8
OBJECT
 10
10091.881517183059259
 20
-656.4555591801454284
 30
0.0
 40
6.0
 50
60.5241109968708884
 51
170.6927439126633885
1001
ACDBBLOCKREPETAG
1070
     1
1071
       72
1005
128E7F
  0
ARC
  5
128E80
  8
OBJECT
 10
10083.0
 20
-655.0
 30
0.0
 40
3.0
 50
270.0
 51
350.6927439126636159
1001
ACDBBLOCKREPETAG
1070
     1
1071
       73
1005
128E80
  0
LINE
  5
128E81
  8
OBJECT
 10
10081.0
 20
-534.0
 30
0.0
 11
10080.0
 21
-534.0
 31
0.0
1001
ACDBBLOCKREPETAG
1070
     1
1071
       74
1005
128E81
  0
LINE
  5
128E82
  8
OBJECT
 10
10150.0
 20
-655.0
 30
0.0
 11
10101.5
 21
-655.0
 31
0.0
1001
ACDBBLOCKREPETAG
1070
     1
1071
       75
1005
128E82
  0
LINE
  5
128E83
  8
OBJECT
 10
10101.5
 20
-511.0
 30
0.0
 11
10090.0
 21
-517.4999999999997726
 31
0.0
1001
ACDBBLOCKREPETAG
1070
     1
1071
       76
1005
128E83
  0
LINE
  5
128E84
  8
OBJECT
 10
10143.0
 20
-511.0
 30
0.0
 11
10101.5
 21
-511.0
 31
0.0
1001
ACDBBLOCKREPETAG
1070
     1
1071
       77
1005
128E84
  0
LINE
  5
128E85
  8
OBJECT
 10
10086.0
 20
-589.500000000007276
 30
0.0
 11
10081.0
 21
-534.0
 31
0.0
1001
ACDBBLOCKREPETAG
1070
     1
1071
       78
1005
128E85
  0
LINE
  5
128E86
  8
OBJECT
 10
10090.0
 20
-517.4999999999997726
 30
0.0
 11
10081.0
 21
-534.0
 31
0.0
1001
ACDBBLOCKREPETAG
1070
     1
1071
       79
1005
128E86
  0
LINE
  5
128E87
  8
OBJECT
 10
10101.5
 20
-655.0
 30
0.0
 11
10094.8338607230707566
 21
-651.2321821478216179
 31
0.0
1001
ACDBBLOCKREPETAG
1070
     1
1071
       80
1005
128E87
  0
LINE
  5
128E88
  8
HIDDEN
 10
10098.0
 20
-640.0
 30
0.0
 11
10098.0
 21
-526.0
 31
0.0
1001
ACDBBLOCKREPETAG
1070
     1
1071
       81
1005
128E88
  0
LINE
  5
128E89
  8
OBJECT
 10
12150.0
 20
-508.0
 30
0.0
 11
12143.0
 21
-508.0
 31
0.0
1001
ACDBBLOCKREPETAG
1070
     1
1071
       64
1005
128E89
  0
LINE
  5
128E8A
  8
OBJECT
 10
12143.0
 20
-508.0
 30
0.0
 11
12143.0
 21
-655.0
 31
0.0
1001
ACDBBLOCKREPETAG
1070
     1
1071
       65
1005
128E8A
  0
LINE
  5
128E8B
  8
OBJECT
 10
12101.5
 20
-511.0
 30
0.0
 11
12101.5
 21
-655.0
 31
0.0
1001
ACDBBLOCKREPETAG
1070
     1
1071
       66
1005
128E8B
  0
LINE
  5
128E8C
  8
OBJECT
 10
12090.0
 20
-517.4999999999997726
 30
0.0
 11
12090.0
 21
-648.5
 31
0.0
1001
ACDBBLOCKREPETAG
1070
     1
1071
       67
1005
128E8C
  0
LINE
  5
128E8D
  8
OBJECT
 10
12086.0
 20
-589.500000000007276
 30
0.0
 11
12086.0
 21
-655.0
 31
0.0
1001
ACDBBLOCKREPETAG
1070
     1
1071
       68
1005
128E8D
  0
LINE
  5
128E8E
  8
OBJECT
 10
12150.0
 20
-655.0
 30
0.0
 11
12150.0
 21
-508.0
 31
0.0
1001
ACDBBLOCKREPETAG
1070
     1
1071
       69
1005
128E8E
  0
LINE
  5
128E8F
  8
CENTER
 10
12165.0
 20
-583.0
 30
0.0
 11
12070.4144144144102029
 21
-583.0
 31
0.0
1001
ACDBBLOCKREPETAG
1070
     1
1071
       70
1005
128E8F
  0
LINE
  5
128E90
  8
OBJECT
 10
12083.0
 20
-658.0
 30
0.0
 11
12080.0
 21
-658.0
 31
0.0
1001
ACDBBLOCKREPETAG
1070
     1
1071
       71
1005
128E90
  0
ARC
  5
128E91
  8
OBJECT
 10
12091.881517183059259
 20
-656.4555591801454284
 30
0.0
 40
6.0
 50
60.5241109968708884
 51
170.6927439126633885
1001
ACDBBLOCKREPETAG
1070
     1
1071
       72
1005
128E91
  0
ARC
  5
128E92
  8
OBJECT
 10
12083.0
 20
-655.0
 30
0.0
 40
3.0
 50
270.0
 51
350.6927439126636159
1001
ACDBBLOCKREPETAG
1070
     1
1071
       73
1005
128E92
  0
LINE
  5
128E93
  8
OBJECT
 10
12081.0
 20
-534.0
 30
0.0
 11
12080.0
 21
-534.0
 31
0.0
1001
ACDBBLOCKREPETAG
1070
     1
1071
       74
1005
128E93
  0
LINE
  5
128E94
  8
OBJECT
 10
12150.0
 20
-655.0
 30
0.0
 11
12101.5
 21
-655.0
 31
0.0
1001
ACDBBLOCKREPETAG
1070
     1
1071
       75
1005
128E94
  0
LINE
  5
128E95
  8
OBJECT
 10
12101.5
 20
-511.0
 30
0.0
 11
12090.0
 21
-517.4999999999997726
 31
0.0
1001
ACDBBLOCKREPETAG
1070
     1
1071
       76
1005
128E95
  0
LINE
  5
128E96
  8
OBJECT
 10
12143.0
 20
-511.0
 30
0.0
 11
12101.5
 21
-511.0
 31
0.0
1001
ACDBBLOCKREPETAG
1070
     1
1071
       77
1005
128E96
  0
LINE
  5
128E97
  8
OBJECT
 10
12086.0
 20
-589.500000000007276
 30
0.0
 11
12081.0
 21
-534.0
 31
0.0
1001
ACDBBLOCKREPETAG
1070
     1
1071
       78
1005
128E97
  0
LINE
  5
128E98
  8
OBJECT
 10
12090.0
 20
-517.4999999999997726
 30
0.0
 11
12081.0
 21
-534.0
 31
0.0
1001
ACDBBLOCKREPETAG
1070
     1
1071
       79
1005
128E98
  0
LINE
  5
128E99
  8
OBJECT
 10
12101.5
 20
-655.0
 30
0.0
 11
12094.8338607230707566
 21
-651.2321821478216179
 31
0.0
1001
ACDBBLOCKREPETAG
1070
     1
1071
       80
1005
128E99
  0
LINE
  5
128E9A
  8
HIDDEN
 10
12098.0
 20
-640.0
 30
0.0
 11
12098.0
 21
-526.0
 31
0.0
1001
ACDBBLOCKREPETAG
1070
     1
1071
       81
1005
128E9A
  0
LINE
  5
128E9B
  8
CENTER
 10
2000.0
 20
-513.9999999999994316
 30
0.0
 11
2000.0
 21
-789.9999999999994316
 31
0.0
1001
ACDBBLOCKREPETAG
1070
     1
1071
        0
1005
128E9B
  0
LINE
  5
128E9C
  8
OBJECT
 10
1925.0
 20
-533.9999999999994316
 30
0.0
 11
1925.0
 21
-777.9999999999994316
 31
0.0
1001
ACDBBLOCKREPETAG
1070
     1
1071
        1
1005
128E9C
  0
LINE
  5
128E9D
  8
OBJECT
 10
1920.0
 20
-777.9999999999994316
 30
0.0
 11
2080.0
 21
-777.9999999999994316
 31
0.0
1001
ACDBBLOCKREPETAG
1070
     1
1071
        2
1005
128E9D
  0
LINE
  5
128E9E
  8
OBJECT
 10
2080.0
 20
-533.9999999999994316
 30
0.0
 11
1925.0
 21
-533.9999999999994316
 31
0.0
1001
ACDBBLOCKREPETAG
1070
     1
1071
        3
1005
128E9E
  0
LINE
  5
128E9F
  8
OBJECT
 10
1920.0
 20
-777.9999999999994316
 30
0.0
 11
1920.0
 21
-789.9999999999994316
 31
0.0
1001
ACDBBLOCKREPETAG
1070
     1
1071
        4
1005
128E9F
  0
LINE
  5
128EA0
  8
OBJECT
 10
1920.0
 20
-789.9999999999994316
 30
0.0
 11
2080.0
 21
-789.9999999999994316
 31
0.0
1001
ACDBBLOCKREPETAG
1070
     1
1071
        5
1005
128EA0
  0
LINE
  5
128EA1
  8
OBJECT
 10
2080.0
 20
-789.9999999999994316
 30
0.0
 11
2080.0
 21
-777.9999999999994316
 31
0.0
1001
ACDBBLOCKREPETAG
1070
     1
1071
        6
1005
128EA1
  0
LINE
  5
128EA2
  8
OBJECT
 10
2074.9999999998622116
 20
-657.9999999998503881
 30
0.0
 11
2075.0
 21
-777.9999999999994316
 31
0.0
1001
ACDBBLOCKREPETAG
1070
     1
1071
        8
1005
128EA2
  0
LINE
  5
128EA3
  8
OBJECT
 10
2074.9999908029849394
 20
-657.9999860270213503
 30
0.0
 11
2080.0
 21
-657.9999860270213503
 31
0.0
1001
ACDBBLOCKREPETAG
1070
     1
1071
        9
1005
128EA3
  0
LINE
  5
128EA4
  8
OBJECT
 10
2060.0
 20
-528.9999999999994316
 30
0.0
 11
1940.0
 21
-528.9999999999994316
 31
0.0
1001
ACDBBLOCKREPETAG
1070
     1
1071
       10
1005
128EA4
  0
ARC
  5
128EA5
  8
OBJECT
 10
1940.0
 20
-531.9999999999994316
 30
0.0
 40
3.0
 50
90.0
 51
180.0
1001
ACDBBLOCKREPETAG
1070
     1
1071
       11
1005
128EA5
  0
LINE
  5
128EA6
  8
OBJECT
 10
1937.0
 20
-531.9999999999994316
 30
0.0
 11
1937.0
 21
-533.9999999999994316
 31
0.0
1001
ACDBBLOCKREPETAG
1070
     1
1071
       12
1005
128EA6
  0
LINE
  5
128EA7
  8
OBJECT
 10
2063.0
 20
-531.9999999999994316
 30
0.0
 11
2063.0
 21
-533.9999999999994316
 31
0.0
1001
ACDBBLOCKREPETAG
1070
     1
1071
       13
1005
128EA7
  0
ARC
  5
128EA8
  8
OBJECT
 10
2060.0
 20
-531.9999999999994316
 30
0.0
 40
3.0
 50
0.0
 51
90.0
1001
ACDBBLOCKREPETAG
1070
     1
1071
       14
1005
128EA8
  0
ARC
  5
128EA9
  8
OBJECT
 10
2200.6872746716730944
 20
-649.4080994101070701
 30
0.0
 40
170.6350503965855978
 50
137.4413445918430057
 51
149.9194958133655007
1001
ACDBBLOCKREPETAG
1070
     1
1071
       15
1005
128EA9
  0
ARC
  5
128EAA
  8
OBJECT
 10
2118.845598704051099
 20
-605.8827266953644539
 30
0.0
 40
78.0722220217636647
 50
147.4551531038623011
 51
164.6636599771958061
1001
ACDBBLOCKREPETAG
1070
     1
1071
       16
1005
128EAA
  0
ARC
  5
128EAB
  8
OBJECT
 10
2085.7554349608731172
 20
-595.9999999999994316
 30
0.0
 40
43.5535392688561771
 50
165.6884523006802965
 51
194.3115476993197035
1001
ACDBBLOCKREPETAG
1070
     1
1071
       17
1005
128EAB
  0
ARC
  5
128EAC
  8
OBJECT
 10
2200.6872746716730944
 20
-542.5919005898917931
 30
0.0
 40
170.6350503965855978
 50
210.0805041866343004
 51
222.5586554081569943
1001
ACDBBLOCKREPETAG
1070
     1
1071
       18
1005
128EAC
  0
ARC
  5
128EAD
  8
OBJECT
 10
2118.845598704051099
 20
-586.1172733046345229
 30
0.0
 40
78.0722220217636647
 50
195.3363400228041939
 51
212.5448468961376989
1001
ACDBBLOCKREPETAG
1070
     1
1071
       19
1005
128EAD
  0
POINT
  5
128EAE
  8
DOTS
 10
2000.0
 20
-654.9999999999994316
 30
0.0
1001
ACDBBLOCKREPETAG
1070
     1
1071
      135
1005
128EAE
  0
LINE
  5
128EAF
  8
CENTER
 10
4000.0
 20
-513.9999999999994316
 30
0.0
 11
4000.0
 21
-789.9999999999994316
 31
0.0
1001
ACDBBLOCKREPETAG
1070
     1
1071
        0
1005
128EAF
  0
LINE
  5
128EB0
  8
OBJECT
 10
3925.0
 20
-533.9999999999994316
 30
0.0
 11
3925.0
 21
-777.9999999999994316
 31
0.0
1001
ACDBBLOCKREPETAG
1070
     1
1071
        1
1005
128EB0
  0
LINE
  5
128EB1
  8
OBJECT
 10
3920.0
 20
-777.9999999999994316
 30
0.0
 11
4080.0
 21
-777.9999999999994316
 31
0.0
1001
ACDBBLOCKREPETAG
1070
     1
1071
        2
1005
128EB1
  0
LINE
  5
128EB2
  8
OBJECT
 10
4080.0
 20
-533.9999999999994316
 30
0.0
 11
3925.0
 21
-533.9999999999994316
 31
0.0
1001
ACDBBLOCKREPETAG
1070
     1
1071
        3
1005
128EB2
  0
LINE
  5
128EB3
  8
OBJECT
 10
3920.0
 20
-777.9999999999994316
 30
0.0
 11
3920.0
 21
-789.9999999999994316
 31
0.0
1001
ACDBBLOCKREPETAG
1070
     1
1071
        4
1005
128EB3
  0
LINE
  5
128EB4
  8
OBJECT
 10
3920.0
 20
-789.9999999999994316
 30
0.0
 11
4080.0
 21
-789.9999999999994316
 31
0.0
1001
ACDBBLOCKREPETAG
1070
     1
1071
        5
1005
128EB4
  0
LINE
  5
128EB5
  8
OBJECT
 10
4080.0
 20
-789.9999999999994316
 30
0.0
 11
4080.0
 21
-777.9999999999994316
 31
0.0
1001
ACDBBLOCKREPETAG
1070
     1
1071
        6
1005
128EB5
  0
LINE
  5
128EB6
  8
OBJECT
 10
4074.9999999998622116
 20
-657.9999999998503881
 30
0.0
 11
4075.0
 21
-777.9999999999994316
 31
0.0
1001
ACDBBLOCKREPETAG
1070
     1
1071
        8
1005
128EB6
  0
LINE
  5
128EB7
  8
OBJECT
 10
4074.9999908029849394
 20
-657.9999860270213503
 30
0.0
 11
4080.0
 21
-657.9999860270213503
 31
0.0
1001
ACDBBLOCKREPETAG
1070
     1
1071
        9
1005
128EB7
  0
LINE
  5
128EB8
  8
OBJECT
 10
4060.0
 20
-528.9999999999994316
 30
0.0
 11
3940.0
 21
-528.9999999999994316
 31
0.0
1001
ACDBBLOCKREPETAG
1070
     1
1071
       10
1005
128EB8
  0
ARC
  5
128EB9
  8
OBJECT
 10
3940.0
 20
-531.9999999999994316
 30
0.0
 40
3.0
 50
90.0
 51
180.0
1001
ACDBBLOCKREPETAG
1070
     1
1071
       11
1005
128EB9
  0
LINE
  5
128EBA
  8
OBJECT
 10
3937.0
 20
-531.9999999999994316
 30
0.0
 11
3937.0
 21
-533.9999999999994316
 31
0.0
1001
ACDBBLOCKREPETAG
1070
     1
1071
       12
1005
128EBA
  0
LINE
  5
128EBB
  8
OBJECT
 10
4063.0
 20
-531.9999999999994316
 30
0.0
 11
4063.0
 21
-533.9999999999994316
 31
0.0
1001
ACDBBLOCKREPETAG
1070
     1
1071
       13
1005
128EBB
  0
ARC
  5
128EBC
  8
OBJECT
 10
4060.0
 20
-531.9999999999994316
 30
0.0
 40
3.0
 50
0.0
 51
90.0
1001
ACDBBLOCKREPETAG
1070
     1
1071
       14
1005
128EBC
  0
ARC
  5
128EBD
  8
OBJECT
 10
4200.6872746716726397
 20
-649.4080994101070701
 30
0.0
 40
170.6350503965855978
 50
137.4413445918430057
 51
149.9194958133722082
1001
ACDBBLOCKREPETAG
1070
     1
1071
       15
1005
128EBD
  0
ARC
  5
128EBE
  8
OBJECT
 10
4118.8455987040506443
 20
-605.8827266953644539
 30
0.0
 40
78.0722220217636647
 50
147.4551531038623011
 51
164.6636599771923102
1001
ACDBBLOCKREPETAG
1070
     1
1071
       16
1005
128EBE
  0
ARC
  5
128EBF
  8
OBJECT
 10
4085.7554349608690245
 20
-595.9999999999994316
 30
0.0
 40
43.5535392688561771
 50
165.6884523006833945
 51
194.3115476993164918
1001
ACDBBLOCKREPETAG
1070
     1
1071
       17
1005
128EBF
  0
ARC
  5
128EC0
  8
OBJECT
 10
4200.6872746716726397
 20
-542.5919005898917931
 30
0.0
 40
170.6350503965855978
 50
210.0805041866277918
 51
222.5586554081569943
1001
ACDBBLOCKREPETAG
1070
     1
1071
       18
1005
128EC0
  0
ARC
  5
128EC1
  8
OBJECT
 10
4118.8455987040506443
 20
-586.1172733046345229
 30
0.0
 40
78.0722220217636647
 50
195.3363400228074909
 51
212.5448468961376989
1001
ACDBBLOCKREPETAG
1070
     1
1071
       19
1005
128EC1
  0
POINT
  5
128EC2
  8
DOTS
 10
4000.0
 20
-654.9999999999994316
 30
0.0
1001
ACDBBLOCKREPETAG
1070
     1
1071
      135
1005
128EC2
  0
LINE
  5
128EC3
  8
CENTER
 10
6000.0
 20
-513.9999999999994316
 30
0.0
 11
6000.0
 21
-789.9999999999994316
 31
0.0
1001
ACDBBLOCKREPETAG
1070
     1
1071
        0
1005
128EC3
  0
LINE
  5
128EC4
  8
OBJECT
 10
5925.0
 20
-533.9999999999994316
 30
0.0
 11
5925.0
 21
-777.9999999999994316
 31
0.0
1001
ACDBBLOCKREPETAG
1070
     1
1071
        1
1005
128EC4
  0
LINE
  5
128EC5
  8
OBJECT
 10
5920.0
 20
-777.9999999999994316
 30
0.0
 11
6080.0
 21
-777.9999999999994316
 31
0.0
1001
ACDBBLOCKREPETAG
1070
     1
1071
        2
1005
128EC5
  0
LINE
  5
128EC6
  8
OBJECT
 10
6080.0
 20
-533.9999999999994316
 30
0.0
 11
5925.0
 21
-533.9999999999994316
 31
0.0
1001
ACDBBLOCKREPETAG
1070
     1
1071
        3
1005
128EC6
  0
LINE
  5
128EC7
  8
OBJECT
 10
5920.0
 20
-777.9999999999994316
 30
0.0
 11
5920.0
 21
-789.9999999999994316
 31
0.0
1001
ACDBBLOCKREPETAG
1070
     1
1071
        4
1005
128EC7
  0
LINE
  5
128EC8
  8
OBJECT
 10
5920.0
 20
-789.9999999999994316
 30
0.0
 11
6080.0
 21
-789.9999999999994316
 31
0.0
1001
ACDBBLOCKREPETAG
1070
     1
1071
        5
1005
128EC8
  0
LINE
  5
128EC9
  8
OBJECT
 10
6080.0
 20
-789.9999999999994316
 30
0.0
 11
6080.0
 21
-777.9999999999994316
 31
0.0
1001
ACDBBLOCKREPETAG
1070
     1
1071
        6
1005
128EC9
  0
LINE
  5
128ECA
  8
OBJECT
 10
6074.9999999998617568
 20
-657.9999999998503881
 30
0.0
 11
6075.0
 21
-777.9999999999994316
 31
0.0
1001
ACDBBLOCKREPETAG
1070
     1
1071
        8
1005
128ECA
  0
LINE
  5
128ECB
  8
OBJECT
 10
6074.9999908029849394
 20
-657.9999860270213503
 30
0.0
 11
6080.0
 21
-657.9999860270213503
 31
0.0
1001
ACDBBLOCKREPETAG
1070
     1
1071
        9
1005
128ECB
  0
LINE
  5
128ECC
  8
OBJECT
 10
6060.0
 20
-528.9999999999994316
 30
0.0
 11
5940.0
 21
-528.9999999999994316
 31
0.0
1001
ACDBBLOCKREPETAG
1070
     1
1071
       10
1005
128ECC
  0
ARC
  5
128ECD
  8
OBJECT
 10
5940.0
 20
-531.9999999999994316
 30
0.0
 40
3.0
 50
90.0
 51
180.0
1001
ACDBBLOCKREPETAG
1070
     1
1071
       11
1005
128ECD
  0
LINE
  5
128ECE
  8
OBJECT
 10
5937.0
 20
-531.9999999999994316
 30
0.0
 11
5937.0
 21
-533.9999999999994316
 31
0.0
1001
ACDBBLOCKREPETAG
1070
     1
1071
       12
1005
128ECE
  0
LINE
  5
128ECF
  8
OBJECT
 10
6063.0
 20
-531.9999999999994316
 30
0.0
 11
6063.0
 21
-533.9999999999994316
 31
0.0
1001
ACDBBLOCKREPETAG
1070
     1
1071
       13
1005
128ECF
  0
ARC
  5
128ED0
  8
OBJECT
 10
6060.0
 20
-531.9999999999994316
 30
0.0
 40
3.0
 50
0.0
 51
90.0
1001
ACDBBLOCKREPETAG
1070
     1
1071
       14
1005
128ED0
  0
ARC
  5
128ED1
  8
OBJECT
 10
6200.6872746716726397
 20
-649.4080994101070701
 30
0.0
 40
170.6350503965855978
 50
137.4413445918430057
 51
149.9194958133722082
1001
ACDBBLOCKREPETAG
1070
     1
1071
       15
1005
128ED1
  0
ARC
  5
128ED2
  8
OBJECT
 10
6118.8455987040497348
 20
-605.8827266953644539
 30
0.0
 40
78.0722220217636647
 50
147.4551531038623011
 51
164.663659977199103
1001
ACDBBLOCKREPETAG
1070
     1
1071
       16
1005
128ED2
  0
ARC
  5
128ED3
  8
OBJECT
 10
6085.7554349608726625
 20
-595.9999999999994316
 30
0.0
 40
43.5535392688561771
 50
165.6884523006769996
 51
194.3115476993228867
1001
ACDBBLOCKREPETAG
1070
     1
1071
       17
1005
128ED3
  0
ARC
  5
128ED4
  8
OBJECT
 10
6200.6872746716726397
 20
-542.5919005898917931
 30
0.0
 40
170.6350503965855978
 50
210.0805041866277918
 51
222.5586554081569943
1001
ACDBBLOCKREPETAG
1070
     1
1071
       18
1005
128ED4
  0
ARC
  5
128ED5
  8
OBJECT
 10
6118.8455987040497348
 20
-586.1172733046345229
 30
0.0
 40
78.0722220217636647
 50
195.3363400228004991
 51
212.5448468961376989
1001
ACDBBLOCKREPETAG
1070
     1
1071
       19
1005
128ED5
  0
POINT
  5
128ED6
  8
DOTS
 10
6000.0
 20
-654.9999999999994316
 30
0.0
1001
ACDBBLOCKREPETAG
1070
     1
1071
      135
1005
128ED6
  0
LINE
  5
128ED7
  8
CENTER
 10
8000.0
 20
-513.9999999999994316
 30
0.0
 11
8000.0
 21
-789.9999999999994316
 31
0.0
1001
ACDBBLOCKREPETAG
1070
     1
1071
        0
1005
128ED7
  0
LINE
  5
128ED8
  8
OBJECT
 10
7925.0
 20
-533.9999999999994316
 30
0.0
 11
7925.0
 21
-777.9999999999994316
 31
0.0
1001
ACDBBLOCKREPETAG
1070
     1
1071
        1
1005
128ED8
  0
LINE
  5
128ED9
  8
OBJECT
 10
7920.0
 20
-777.9999999999994316
 30
0.0
 11
8080.0
 21
-777.9999999999994316
 31
0.0
1001
ACDBBLOCKREPETAG
1070
     1
1071
        2
1005
128ED9
  0
LINE
  5
128EDA
  8
OBJECT
 10
8080.0
 20
-533.9999999999994316
 30
0.0
 11
7925.0
 21
-533.9999999999994316
 31
0.0
1001
ACDBBLOCKREPETAG
1070
     1
1071
        3
1005
128EDA
  0
LINE
  5
128EDB
  8
OBJECT
 10
7920.0
 20
-777.9999999999994316
 30
0.0
 11
7920.0
 21
-789.9999999999994316
 31
0.0
1001
ACDBBLOCKREPETAG
1070
     1
1071
        4
1005
128EDB
  0
LINE
  5
128EDC
  8
OBJECT
 10
7920.0
 20
-789.9999999999994316
 30
0.0
 11
8080.0
 21
-789.9999999999994316
 31
0.0
1001
ACDBBLOCKREPETAG
1070
     1
1071
        5
1005
128EDC
  0
LINE
  5
128EDD
  8
OBJECT
 10
8080.0
 20
-789.9999999999994316
 30
0.0
 11
8080.0
 21
-777.9999999999994316
 31
0.0
1001
ACDBBLOCKREPETAG
1070
     1
1071
        6
1005
128EDD
  0
LINE
  5
128EDE
  8
OBJECT
 10
8074.9999999998599378
 20
-657.9999999998503881
 30
0.0
 11
8075.0
 21
-777.9999999999994316
 31
0.0
1001
ACDBBLOCKREPETAG
1070
     1
1071
        8
1005
128EDE
  0
LINE
  5
128EDF
  8
OBJECT
 10
8074.9999908029858489
 20
-657.9999860270213503
 30
0.0
 11
8080.0
 21
-657.9999860270213503
 31
0.0
1001
ACDBBLOCKREPETAG
1070
     1
1071
        9
1005
128EDF
  0
LINE
  5
128EE0
  8
OBJECT
 10
8060.0
 20
-528.9999999999994316
 30
0.0
 11
7940.0
 21
-528.9999999999994316
 31
0.0
1001
ACDBBLOCKREPETAG
1070
     1
1071
       10
1005
128EE0
  0
ARC
  5
128EE1
  8
OBJECT
 10
7940.0
 20
-531.9999999999994316
 30
0.0
 40
3.0
 50
90.0
 51
180.0
1001
ACDBBLOCKREPETAG
1070
     1
1071
       11
1005
128EE1
  0
LINE
  5
128EE2
  8
OBJECT
 10
7937.0
 20
-531.9999999999994316
 30
0.0
 11
7937.0
 21
-533.9999999999994316
 31
0.0
1001
ACDBBLOCKREPETAG
1070
     1
1071
       12
1005
128EE2
  0
LINE
  5
128EE3
  8
OBJECT
 10
8063.0
 20
-531.9999999999994316
 30
0.0
 11
8063.0
 21
-533.9999999999994316
 31
0.0
1001
ACDBBLOCKREPETAG
1070
     1
1071
       13
1005
128EE3
  0
ARC
  5
128EE4
  8
OBJECT
 10
8060.0
 20
-531.9999999999994316
 30
0.0
 40
3.0
 50
0.0
 51
90.0
1001
ACDBBLOCKREPETAG
1070
     1
1071
       14
1005
128EE4
  0
ARC
  5
128EE5
  8
OBJECT
 10
8200.6872746716726397
 20
-649.4080994101070701
 30
0.0
 40
170.6350503965855978
 50
137.4413445918430057
 51
149.9194958133722082
1001
ACDBBLOCKREPETAG
1070
     1
1071
       15
1005
128EE5
  0
ARC
  5
128EE6
  8
OBJECT
 10
8118.8455987040497348
 20
-605.8827266953644539
 30
0.0
 40
78.0722220217636647
 50
147.4551531038623011
 51
164.663659977199103
1001
ACDBBLOCKREPETAG
1070
     1
1071
       16
1005
128EE6
  0
ARC
  5
128EE7
  8
OBJECT
 10
8085.7554349608708435
 20
-595.9999999999994316
 30
0.0
 40
43.5535392688561771
 50
165.6884523006769996
 51
194.3115476993228867
1001
ACDBBLOCKREPETAG
1070
     1
1071
       17
1005
128EE7
  0
ARC
  5
128EE8
  8
OBJECT
 10
8200.6872746716726397
 20
-542.5919005898917931
 30
0.0
 40
170.6350503965855978
 50
210.0805041866277918
 51
222.5586554081569943
1001
ACDBBLOCKREPETAG
1070
     1
1071
       18
1005
128EE8
  0
ARC
  5
128EE9
  8
OBJECT
 10
8118.8455987040497348
 20
-586.1172733046345229
 30
0.0
 40
78.0722220217636647
 50
195.3363400228004991
 51
212.5448468961376989
1001
ACDBBLOCKREPETAG
1070
     1
1071
       19
1005
128EE9
  0
POINT
  5
128EEA
  8
DOTS
 10
8000.0
 20
-654.9999999999994316
 30
0.0
1001
ACDBBLOCKREPETAG
1070
     1
1071
      135
1005
128EEA
  0
LINE
  5
128EEB
  8
CENTER
 10
10000.0
 20
-513.9999999999994316
 30
0.0
 11
10000.0
 21
-789.9999999999994316
 31
0.0
1001
ACDBBLOCKREPETAG
1070
     1
1071
        0
1005
128EEB
  0
LINE
  5
128EEC
  8
OBJECT
 10
9925.0
 20
-533.9999999999994316
 30
0.0
 11
9925.0
 21
-777.9999999999994316
 31
0.0
1001
ACDBBLOCKREPETAG
1070
     1
1071
        1
1005
128EEC
  0
LINE
  5
128EED
  8
OBJECT
 10
9920.0
 20
-777.9999999999994316
 30
0.0
 11
10080.0
 21
-777.9999999999994316
 31
0.0
1001
ACDBBLOCKREPETAG
1070
     1
1071
        2
1005
128EED
  0
LINE
  5
128EEE
  8
OBJECT
 10
10080.0
 20
-533.9999999999994316
 30
0.0
 11
9925.0
 21
-533.9999999999994316
 31
0.0
1001
ACDBBLOCKREPETAG
1070
     1
1071
        3
1005
128EEE
  0
LINE
  5
128EEF
  8
OBJECT
 10
9920.0
 20
-777.9999999999994316
 30
0.0
 11
9920.0
 21
-789.9999999999994316
 31
0.0
1001
ACDBBLOCKREPETAG
1070
     1
1071
        4
1005
128EEF
  0
LINE
  5
128EF0
  8
OBJECT
 10
9920.0
 20
-789.9999999999994316
 30
0.0
 11
10080.0
 21
-789.9999999999994316
 31
0.0
1001
ACDBBLOCKREPETAG
1070
     1
1071
        5
1005
128EF0
  0
LINE
  5
128EF1
  8
OBJECT
 10
10080.0
 20
-789.9999999999994316
 30
0.0
 11
10080.0
 21
-777.9999999999994316
 31
0.0
1001
ACDBBLOCKREPETAG
1070
     1
1071
        6
1005
128EF1
  0
LINE
  5
128EF2
  8
OBJECT
 10
10074.9999999998599378
 20
-657.9999999998503881
 30
0.0
 11
10075.0
 21
-777.9999999999994316
 31
0.0
1001
ACDBBLOCKREPETAG
1070
     1
1071
        8
1005
128EF2
  0
LINE
  5
128EF3
  8
OBJECT
 10
10074.9999908029803919
 20
-657.9999860270213503
 30
0.0
 11
10080.0
 21
-657.9999860270213503
 31
0.0
1001
ACDBBLOCKREPETAG
1070
     1
1071
        9
1005
128EF3
  0
LINE
  5
128EF4
  8
OBJECT
 10
10060.0
 20
-528.9999999999994316
 30
0.0
 11
9940.0
 21
-528.9999999999994316
 31
0.0
1001
ACDBBLOCKREPETAG
1070
     1
1071
       10
1005
128EF4
  0
ARC
  5
128EF5
  8
OBJECT
 10
9940.0
 20
-531.9999999999994316
 30
0.0
 40
3.0
 50
90.0
 51
180.0
1001
ACDBBLOCKREPETAG
1070
     1
1071
       11
1005
128EF5
  0
LINE
  5
128EF6
  8
OBJECT
 10
9937.0
 20
-531.9999999999994316
 30
0.0
 11
9937.0
 21
-533.9999999999994316
 31
0.0
1001
ACDBBLOCKREPETAG
1070
     1
1071
       12
1005
128EF6
  0
LINE
  5
128EF7
  8
OBJECT
 10
10063.0
 20
-531.9999999999994316
 30
0.0
 11
10063.0
 21
-533.9999999999994316
 31
0.0
1001
ACDBBLOCKREPETAG
1070
     1
1071
       13
1005
128EF7
  0
ARC
  5
128EF8
  8
OBJECT
 10
10060.0
 20
-531.9999999999994316
 30
0.0
 40
3.0
 50
0.0
 51
90.0
1001
ACDBBLOCKREPETAG
1070
     1
1071
       14
1005
128EF8
  0
ARC
  5
128EF9
  8
OBJECT
 10
10200.6872746716708207
 20
-649.4080994101070701
 30
0.0
 40
170.6350503965855978
 50
137.4413445918430057
 51
149.9194958133722082
1001
ACDBBLOCKREPETAG
1070
     1
1071
       15
1005
128EF9
  0
ARC
  5
128EFA
  8
OBJECT
 10
10118.8455987040506443
 20
-605.8827266953644539
 30
0.0
 40
78.0722220217636647
 50
147.4551531038623011
 51
164.663659977185489
1001
ACDBBLOCKREPETAG
1070
     1
1071
       16
1005
128EFA
  0
ARC
  5
128EFB
  8
OBJECT
 10
10085.7554349608708435
 20
-595.9999999999994316
 30
0.0
 40
43.5535392688561771
 50
165.6884523006897894
 51
194.3115476993100117
1001
ACDBBLOCKREPETAG
1070
     1
1071
       17
1005
128EFB
  0
ARC
  5
128EFC
  8
OBJECT
 10
10200.6872746716708207
 20
-542.5919005898917931
 30
0.0
 40
170.6350503965855978
 50
210.0805041866277918
 51
222.5586554081569943
1001
ACDBBLOCKREPETAG
1070
     1
1071
       18
1005
128EFC
  0
ARC
  5
128EFD
  8
OBJECT
 10
10118.8455987040506443
 20
-586.1172733046345229
 30
0.0
 40
78.0722220217636647
 50
195.336340022814511
 51
212.5448468961376989
1001
ACDBBLOCKREPETAG
1070
     1
1071
       19
1005
128EFD
  0
POINT
  5
128EFE
  8
DOTS
 10
10000.0
 20
-654.9999999999994316
 30
0.0
1001
ACDBBLOCKREPETAG
1070
     1
1071
      135
1005
128EFE
  0
LINE
  5
128EFF
  8
CENTER
 10
12000.0
 20
-513.9999999999994316
 30
0.0
 11
12000.0
 21
-789.9999999999994316
 31
0.0
1001
ACDBBLOCKREPETAG
1070
     1
1071
        0
1005
128EFF
  0
LINE
  5
128F00
  8
OBJECT
 10
11925.0
 20
-533.9999999999994316
 30
0.0
 11
11925.0
 21
-777.9999999999994316
 31
0.0
1001
ACDBBLOCKREPETAG
1070
     1
1071
        1
1005
128F00
  0
LINE
  5
128F01
  8
OBJECT
 10
11920.0
 20
-777.9999999999994316
 30
0.0
 11
12080.0
 21
-777.9999999999994316
 31
0.0
1001
ACDBBLOCKREPETAG
1070
     1
1071
        2
1005
128F01
  0
LINE
  5
128F02
  8
OBJECT
 10
12080.0
 20
-533.9999999999994316
 30
0.0
 11
11925.0
 21
-533.9999999999994316
 31
0.0
1001
ACDBBLOCKREPETAG
1070
     1
1071
        3
1005
128F02
  0
LINE
  5
128F03
  8
OBJECT
 10
11920.0
 20
-777.9999999999994316
 30
0.0
 11
11920.0
 21
-789.9999999999994316
 31
0.0
1001
ACDBBLOCKREPETAG
1070
     1
1071
        4
1005
128F03
  0
LINE
  5
128F04
  8
OBJECT
 10
11920.0
 20
-789.9999999999994316
 30
0.0
 11
12080.0
 21
-789.9999999999994316
 31
0.0
1001
ACDBBLOCKREPETAG
1070
     1
1071
        5
1005
128F04
  0
LINE
  5
128F05
  8
OBJECT
 10
12080.0
 20
-789.9999999999994316
 30
0.0
 11
12080.0
 21
-777.9999999999994316
 31
0.0
1001
ACDBBLOCKREPETAG
1070
     1
1071
        6
1005
128F05
  0
LINE
  5
128F06
  8
OBJECT
 10
12074.9999999998599378
 20
-657.9999999998503881
 30
0.0
 11
12075.0
 21
-777.9999999999994316
 31
0.0
1001
ACDBBLOCKREPETAG
1070
     1
1071
        8
1005
128F06
  0
LINE
  5
128F07
  8
OBJECT
 10
12074.9999908029803919
 20
-657.9999860270213503
 30
0.0
 11
12080.0
 21
-657.9999860270213503
 31
0.0
1001
ACDBBLOCKREPETAG
1070
     1
1071
        9
1005
128F07
  0
LINE
  5
128F08
  8
OBJECT
 10
12060.0
 20
-528.9999999999994316
 30
0.0
 11
11940.0
 21
-528.9999999999994316
 31
0.0
1001
ACDBBLOCKREPETAG
1070
     1
1071
       10
1005
128F08
  0
ARC
  5
128F09
  8
OBJECT
 10
11940.0
 20
-531.9999999999994316
 30
0.0
 40
3.0
 50
90.0
 51
180.0
1001
ACDBBLOCKREPETAG
1070
     1
1071
       11
1005
128F09
  0
LINE
  5
128F0A
  8
OBJECT
 10
11937.0
 20
-531.9999999999994316
 30
0.0
 11
11937.0
 21
-533.9999999999994316
 31
0.0
1001
ACDBBLOCKREPETAG
1070
     1
1071
       12
1005
128F0A
  0
LINE
  5
128F0B
  8
OBJECT
 10
12063.0
 20
-531.9999999999994316
 30
0.0
 11
12063.0
 21
-533.9999999999994316
 31
0.0
1001
ACDBBLOCKREPETAG
1070
     1
1071
       13
1005
128F0B
  0
ARC
  5
128F0C
  8
OBJECT
 10
12060.0
 20
-531.9999999999994316
 30
0.0
 40
3.0
 50
0.0
 51
90.0
1001
ACDBBLOCKREPETAG
1070
     1
1071
       14
1005
128F0C
  0
ARC
  5
128F0D
  8
OBJECT
 10
12200.6872746716708207
 20
-649.4080994101070701
 30
0.0
 40
170.6350503965855978
 50
137.4413445918430057
 51
149.9194958133722082
1001
ACDBBLOCKREPETAG
1070
     1
1071
       15
1005
128F0D
  0
ARC
  5
128F0E
  8
OBJECT
 10
12118.8455987040506443
 20
-605.8827266953644539
 30
0.0
 40
78.0722220217636647
 50
147.4551531038623011
 51
164.663659977185489
1001
ACDBBLOCKREPETAG
1070
     1
1071
       16
1005
128F0E
  0
ARC
  5
128F0F
  8
OBJECT
 10
12085.7554349608708435
 20
-595.9999999999994316
 30
0.0
 40
43.5535392688561771
 50
165.6884523006897894
 51
194.3115476993100117
1001
ACDBBLOCKREPETAG
1070
     1
1071
       17
1005
128F0F
  0
ARC
  5
128F10
  8
OBJECT
 10
12200.6872746716708207
 20
-542.5919005898917931
 30
0.0
 40
170.6350503965855978
 50
210.0805041866277918
 51
222.5586554081569943
1001
ACDBBLOCKREPETAG
1070
     1
1071
       18
1005
128F10
  0
ARC
  5
128F11
  8
OBJECT
 10
12118.8455987040506443
 20
-586.1172733046345229
 30
0.0
 40
78.0722220217636647
 50
195.336340022814511
 51
212.5448468961376989
1001
ACDBBLOCKREPETAG
1070
     1
1071
       19
1005
128F11
  0
POINT
  5
128F12
  8
DOTS
 10
12000.0
 20
-654.9999999999994316
 30
0.0
1001
ACDBBLOCKREPETAG
1070
     1
1071
      135
1005
128F12
  0
POINT
  5
128F13
  8
DOTS
 10
2000.0
 20
-199.9999999999990905
 30
0.0
 50
270.0
1001
ACDBBLOCKREPETAG
1070
     1
1071
      362
1005
128F13
  0
LINE
  5
128F14
  8
CENTER
 10
2080.0
 20
-199.9999999999990905
 30
0.0
 11
1905.0
 21
-199.9999999999990905
 31
0.0
1001
ACDBBLOCKREPETAG
1070
     1
1071
       14
1005
128F14
  0
LINE
  5
128F15
  8
CENTER
 10
2000.0
 20
-294.9999999999990905
 30
0.0
 11
2000.0
 21
-104.9999999999991047
 31
0.0
1001
ACDBBLOCKREPETAG
1070
     1
1071
       15
1005
128F15
  0
ARC
  5
128F16
  8
OBJECT
 10
2000.0
 20
-199.9999999999990905
 30
0.0
 40
80.0
 50
50.8050325738641888
 51
309.1949674261358041
1001
ACDBBLOCKREPETAG
1070
     1
1071
       18
1005
128F16
  0
LINE
  5
128F17
  8
OBJECT
 10
2042.2018956920180699
 20
-137.9999999999990905
 30
0.0
 11
2080.0
 21
-137.9999999999990905
 31
0.0
1001
ACDBBLOCKREPETAG
1070
     1
1071
       19
1005
128F17
  0
LINE
  5
128F18
  8
OBJECT
 10
2042.2018956920180699
 20
-261.9999999999990905
 30
0.0
 11
2080.0
 21
-261.9999999999990905
 31
0.0
1001
ACDBBLOCKREPETAG
1070
     1
1071
       20
1005
128F18
  0
CIRCLE
  5
128F19
  8
OBJECT
 10
2000.0
 20
-199.9999999999990905
 30
0.0
 40
63.0
1001
ACDBBLOCKREPETAG
1070
     1
1071
      436
1005
128F19
  0
CIRCLE
  5
128F1A
  8
OBJECT
 10
2000.0
 20
-199.9999999999990905
 30
0.0
 40
75.0
1001
ACDBBLOCKREPETAG
1070
     1
1071
      437
1005
128F1A
  0
LINE
  5
128F1B
  8
OBJECT
 10
4150.0
 20
-124.9999999999991047
 30
0.0
 11
4143.0
 21
-124.9999999999991047
 31
0.0
1001
ACDBBLOCKREPETAG
1070
     1
1071
       67
1005
128F1B
  0
LINE
  5
128F1C
  8
OBJECT
 10
4143.0
 20
-124.9999999999991047
 30
0.0
 11
4143.0
 21
-274.9999999999990905
 31
0.0
1001
ACDBBLOCKREPETAG
1070
     1
1071
       68
1005
128F1C
  0
LINE
  5
128F1D
  8
OBJECT
 10
4101.5
 20
-127.9999999999991047
 30
0.0
 11
4101.5
 21
-271.9999999999990905
 31
0.0
1001
ACDBBLOCKREPETAG
1070
     1
1071
       69
1005
128F1D
  0
LINE
  5
128F1E
  8
OBJECT
 10
4090.0
 20
-134.4999999999990905
 30
0.0
 11
4090.0
 21
-265.4999999999990905
 31
0.0
1001
ACDBBLOCKREPETAG
1070
     1
1071
       70
1005
128F1E
  0
LINE
  5
128F1F
  8
OBJECT
 10
4143.0
 20
-274.9999999999990905
 30
0.0
 11
4150.0
 21
-274.9999999999990905
 31
0.0
1001
ACDBBLOCKREPETAG
1070
     1
1071
       71
1005
128F1F
  0
LINE
  5
128F20
  8
OBJECT
 10
4150.0
 20
-274.9999999999990905
 30
0.0
 11
4150.0
 21
-124.9999999999991047
 31
0.0
1001
ACDBBLOCKREPETAG
1070
     1
1071
       72
1005
128F20
  0
LINE
  5
128F21
  8
HIDDEN
 10
4098.0
 20
-256.9999999999990905
 30
0.0
 11
4098.0
 21
-142.9999999999990905
 31
0.0
1001
ACDBBLOCKREPETAG
1070
     1
1071
       73
1005
128F21
  0
LINE
  5
128F22
  8
CENTER
 10
4165.0
 20
-199.9999999999990905
 30
0.0
 11
4080.0
 21
-199.9999999999990905
 31
0.0
1001
ACDBBLOCKREPETAG
1070
     1
1071
       74
1005
128F22
  0
LINE
  5
128F23
  8
OBJECT
 10
4086.0
 20
-261.9999999999990905
 30
0.0
 11
4080.0
 21
-261.9999999999990905
 31
0.0
1001
ACDBBLOCKREPETAG
1070
     1
1071
       75
1005
128F23
  0
LINE
  5
128F24
  8
OBJECT
 10
4143.0
 20
-271.9999999999990905
 30
0.0
 11
4101.5
 21
-271.9999999999990905
 31
0.0
1001
ACDBBLOCKREPETAG
1070
     1
1071
       76
1005
128F24
  0
LINE
  5
128F25
  8
OBJECT
 10
4101.5
 20
-271.9999999999990905
 30
0.0
 11
4090.0
 21
-265.4999999999990905
 31
0.0
1001
ACDBBLOCKREPETAG
1070
     1
1071
       77
1005
128F25
  0
LINE
  5
128F26
  8
OBJECT
 10
4090.0
 20
-265.4999999999990905
 30
0.0
 11
4086.0
 21
-261.9999999999990905
 31
0.0
1001
ACDBBLOCKREPETAG
1070
     1
1071
       78
1005
128F26
  0
LINE
  5
128F27
  8
OBJECT
 10
4101.5
 20
-127.9999999999991047
 30
0.0
 11
4090.0
 21
-134.4999999999990905
 31
0.0
1001
ACDBBLOCKREPETAG
1070
     1
1071
       79
1005
128F27
  0
LINE
  5
128F28
  8
OBJECT
 10
4090.0
 20
-134.4999999999990905
 30
0.0
 11
4086.0
 21
-137.9999999999990905
 31
0.0
1001
ACDBBLOCKREPETAG
1070
     1
1071
       80
1005
128F28
  0
ARC
  5
128F29
  8
OBJECT
 10
4467.9000000000005457
 20
-199.9999999999990905
 30
0.0
 40
386.8999999999999773
 50
170.7787013626042096
 51
189.2212986373957051
1001
ACDBBLOCKREPETAG
1070
     1
1071
       81
1005
128F29
  0
LINE
  5
128F2A
  8
OBJECT
 10
4086.0
 20
-137.9999999999990905
 30
0.0
 11
4080.0
 21
-137.9999999999990905
 31
0.0
1001
ACDBBLOCKREPETAG
1070
     1
1071
       82
1005
128F2A
  0
LINE
  5
128F2B
  8
OBJECT
 10
4143.0
 20
-127.9999999999991047
 30
0.0
 11
4101.5
 21
-127.9999999999991047
 31
0.0
1001
ACDBBLOCKREPETAG
1070
     1
1071
       83
1005
128F2B
  0
POINT
  5
128F2C
  8
DOTS
 10
4000.0
 20
-199.9999999999990905
 30
0.0
 50
270.0
1001
ACDBBLOCKREPETAG
1070
     1
1071
      362
1005
128F2C
  0
LINE
  5
128F2D
  8
CENTER
 10
4080.0
 20
-199.9999999999990905
 30
0.0
 11
3905.0
 21
-199.9999999999990905
 31
0.0
1001
ACDBBLOCKREPETAG
1070
     1
1071
       14
1005
128F2D
  0
LINE
  5
128F2E
  8
CENTER
 10
4000.0
 20
-294.9999999999990905
 30
0.0
 11
4000.0
 21
-104.9999999999991047
 31
0.0
1001
ACDBBLOCKREPETAG
1070
     1
1071
       15
1005
128F2E
  0
ARC
  5
128F2F
  8
OBJECT
 10
4000.0
 20
-199.9999999999990905
 30
0.0
 40
80.0
 50
50.8050325738641888
 51
309.1949674261358041
1001
ACDBBLOCKREPETAG
1070
     1
1071
       18
1005
128F2F
  0
LINE
  5
128F30
  8
OBJECT
 10
4042.2018956920160235
 20
-137.9999999999990905
 30
0.0
 11
4080.0
 21
-137.9999999999990905
 31
0.0
1001
ACDBBLOCKREPETAG
1070
     1
1071
       19
1005
128F30
  0
LINE
  5
128F31
  8
OBJECT
 10
4042.2018956920160235
 20
-261.9999999999990905
 30
0.0
 11
4080.0
 21
-261.9999999999990905
 31
0.0
1001
ACDBBLOCKREPETAG
1070
     1
1071
       20
1005
128F31
  0
CIRCLE
  5
128F32
  8
OBJECT
 10
4000.0
 20
-199.9999999999990905
 30
0.0
 40
63.0
1001
ACDBBLOCKREPETAG
1070
     1
1071
      436
1005
128F32
  0
CIRCLE
  5
128F33
  8
OBJECT
 10
4000.0
 20
-199.9999999999990905
 30
0.0
 40
75.0
1001
ACDBBLOCKREPETAG
1070
     1
1071
      437
1005
128F33
  0
LINE
  5
128F34
  8
OBJECT
 10
6150.0
 20
-124.9999999999991047
 30
0.0
 11
6143.0
 21
-124.9999999999991047
 31
0.0
1001
ACDBBLOCKREPETAG
1070
     1
1071
       67
1005
128F34
  0
LINE
  5
128F35
  8
OBJECT
 10
6143.0
 20
-124.9999999999991047
 30
0.0
 11
6143.0
 21
-274.9999999999990905
 31
0.0
1001
ACDBBLOCKREPETAG
1070
     1
1071
       68
1005
128F35
  0
LINE
  5
128F36
  8
OBJECT
 10
6101.5
 20
-127.9999999999991047
 30
0.0
 11
6101.5
 21
-271.9999999999990905
 31
0.0
1001
ACDBBLOCKREPETAG
1070
     1
1071
       69
1005
128F36
  0
LINE
  5
128F37
  8
OBJECT
 10
6090.0
 20
-134.4999999999990905
 30
0.0
 11
6090.0
 21
-265.4999999999990905
 31
0.0
1001
ACDBBLOCKREPETAG
1070
     1
1071
       70
1005
128F37
  0
LINE
  5
128F38
  8
OBJECT
 10
6143.0
 20
-274.9999999999990905
 30
0.0
 11
6150.0
 21
-274.9999999999990905
 31
0.0
1001
ACDBBLOCKREPETAG
1070
     1
1071
       71
1005
128F38
  0
LINE
  5
128F39
  8
OBJECT
 10
6150.0
 20
-274.9999999999990905
 30
0.0
 11
6150.0
 21
-124.9999999999991047
 31
0.0
1001
ACDBBLOCKREPETAG
1070
     1
1071
       72
1005
128F39
  0
LINE
  5
128F3A
  8
HIDDEN
 10
6098.0
 20
-256.9999999999990905
 30
0.0
 11
6098.0
 21
-142.9999999999990905
 31
0.0
1001
ACDBBLOCKREPETAG
1070
     1
1071
       73
1005
128F3A
  0
LINE
  5
128F3B
  8
CENTER
 10
6165.0
 20
-199.9999999999990905
 30
0.0
 11
6080.0
 21
-199.9999999999990905
 31
0.0
1001
ACDBBLOCKREPETAG
1070
     1
1071
       74
1005
128F3B
  0
LINE
  5
128F3C
  8
OBJECT
 10
6086.0
 20
-261.9999999999990905
 30
0.0
 11
6080.0
 21
-261.9999999999990905
 31
0.0
1001
ACDBBLOCKREPETAG
1070
     1
1071
       75
1005
128F3C
  0
LINE
  5
128F3D
  8
OBJECT
 10
6143.0
 20
-271.9999999999990905
 30
0.0
 11
6101.5
 21
-271.9999999999990905
 31
0.0
1001
ACDBBLOCKREPETAG
1070
     1
1071
       76
1005
128F3D
  0
LINE
  5
128F3E
  8
OBJECT
 10
6101.5
 20
-271.9999999999990905
 30
0.0
 11
6090.0
 21
-265.4999999999990905
 31
0.0
1001
ACDBBLOCKREPETAG
1070
     1
1071
       77
1005
128F3E
  0
LINE
  5
128F3F
  8
OBJECT
 10
6090.0
 20
-265.4999999999990905
 30
0.0
 11
6086.0
 21
-261.9999999999990905
 31
0.0
1001
ACDBBLOCKREPETAG
1070
     1
1071
       78
1005
128F3F
  0
LINE
  5
128F40
  8
OBJECT
 10
6101.5
 20
-127.9999999999991047
 30
0.0
 11
6090.0
 21
-134.4999999999990905
 31
0.0
1001
ACDBBLOCKREPETAG
1070
     1
1071
       79
1005
128F40
  0
LINE
  5
128F41
  8
OBJECT
 10
6090.0
 20
-134.4999999999990905
 30
0.0
 11
6086.0
 21
-137.9999999999990905
 31
0.0
1001
ACDBBLOCKREPETAG
1070
     1
1071
       80
1005
128F41
  0
ARC
  5
128F42
  8
OBJECT
 10
6467.8999999999996362
 20
-199.9999999999990905
 30
0.0
 40
386.8999999999999773
 50
170.7787013626042096
 51
189.2212986373957051
1001
ACDBBLOCKREPETAG
1070
     1
1071
       81
1005
128F42
  0
LINE
  5
128F43
  8
OBJECT
 10
6086.0
 20
-137.9999999999990905
 30
0.0
 11
6080.0
 21
-137.9999999999990905
 31
0.0
1001
ACDBBLOCKREPETAG
1070
     1
1071
       82
1005
128F43
  0
LINE
  5
128F44
  8
OBJECT
 10
6143.0
 20
-127.9999999999991047
 30
0.0
 11
6101.5
 21
-127.9999999999991047
 31
0.0
1001
ACDBBLOCKREPETAG
1070
     1
1071
       83
1005
128F44
  0
POINT
  5
128F45
  8
DOTS
 10
6000.0
 20
-199.9999999999990905
 30
0.0
 50
270.0
1001
ACDBBLOCKREPETAG
1070
     1
1071
      362
1005
128F45
  0
LINE
  5
128F46
  8
CENTER
 10
6080.0
 20
-199.9999999999990905
 30
0.0
 11
5905.0
 21
-199.9999999999990905
 31
0.0
1001
ACDBBLOCKREPETAG
1070
     1
1071
       14
1005
128F46
  0
LINE
  5
128F47
  8
CENTER
 10
6000.0
 20
-294.9999999999990905
 30
0.0
 11
6000.0
 21
-104.9999999999991047
 31
0.0
1001
ACDBBLOCKREPETAG
1070
     1
1071
       15
1005
128F47
  0
ARC
  5
128F48
  8
OBJECT
 10
6000.0
 20
-199.9999999999990905
 30
0.0
 40
80.0
 50
50.8050325738843895
 51
309.1949674261156247
1001
ACDBBLOCKREPETAG
1070
     1
1071
       18
1005
128F48
  0
LINE
  5
128F49
  8
OBJECT
 10
6042.2018956920155688
 20
-137.9999999999990905
 30
0.0
 11
6080.0
 21
-137.9999999999990905
 31
0.0
1001
ACDBBLOCKREPETAG
1070
     1
1071
       19
1005
128F49
  0
LINE
  5
128F4A
  8
OBJECT
 10
6042.2018956920155688
 20
-261.9999999999990905
 30
0.0
 11
6080.0
 21
-261.9999999999990905
 31
0.0
1001
ACDBBLOCKREPETAG
1070
     1
1071
       20
1005
128F4A
  0
CIRCLE
  5
128F4B
  8
OBJECT
 10
6000.0
 20
-199.9999999999990905
 30
0.0
 40
63.0
1001
ACDBBLOCKREPETAG
1070
     1
1071
      436
1005
128F4B
  0
CIRCLE
  5
128F4C
  8
OBJECT
 10
6000.0
 20
-199.9999999999990905
 30
0.0
 40
75.0
1001
ACDBBLOCKREPETAG
1070
     1
1071
      437
1005
128F4C
  0
LINE
  5
128F4D
  8
OBJECT
 10
8150.0
 20
-124.9999999999991047
 30
0.0
 11
8143.0
 21
-124.9999999999991047
 31
0.0
1001
ACDBBLOCKREPETAG
1070
     1
1071
       67
1005
128F4D
  0
LINE
  5
128F4E
  8
OBJECT
 10
8143.0
 20
-124.9999999999991047
 30
0.0
 11
8143.0
 21
-274.9999999999990905
 31
0.0
1001
ACDBBLOCKREPETAG
1070
     1
1071
       68
1005
128F4E
  0
LINE
  5
128F4F
  8
OBJECT
 10
8101.4999999999990905
 20
-127.9999999999991047
 30
0.0
 11
8101.4999999999990905
 21
-271.9999999999990905
 31
0.0
1001
ACDBBLOCKREPETAG
1070
     1
1071
       69
1005
128F4F
  0
LINE
  5
128F50
  8
OBJECT
 10
8090.0
 20
-134.4999999999990905
 30
0.0
 11
8090.0
 21
-265.4999999999990905
 31
0.0
1001
ACDBBLOCKREPETAG
1070
     1
1071
       70
1005
128F50
  0
LINE
  5
128F51
  8
OBJECT
 10
8143.0
 20
-274.9999999999990905
 30
0.0
 11
8150.0
 21
-274.9999999999990905
 31
0.0
1001
ACDBBLOCKREPETAG
1070
     1
1071
       71
1005
128F51
  0
LINE
  5
128F52
  8
OBJECT
 10
8150.0
 20
-274.9999999999990905
 30
0.0
 11
8150.0
 21
-124.9999999999991047
 31
0.0
1001
ACDBBLOCKREPETAG
1070
     1
1071
       72
1005
128F52
  0
LINE
  5
128F53
  8
HIDDEN
 10
8098.0
 20
-256.9999999999990905
 30
0.0
 11
8098.0
 21
-142.9999999999990905
 31
0.0
1001
ACDBBLOCKREPETAG
1070
     1
1071
       73
1005
128F53
  0
LINE
  5
128F54
  8
CENTER
 10
8165.0
 20
-199.9999999999990905
 30
0.0
 11
8080.0
 21
-199.9999999999990905
 31
0.0
1001
ACDBBLOCKREPETAG
1070
     1
1071
       74
1005
128F54
  0
LINE
  5
128F55
  8
OBJECT
 10
8086.0
 20
-261.9999999999990905
 30
0.0
 11
8080.0
 21
-261.9999999999990905
 31
0.0
1001
ACDBBLOCKREPETAG
1070
     1
1071
       75
1005
128F55
  0
LINE
  5
128F56
  8
OBJECT
 10
8143.0
 20
-271.9999999999990905
 30
0.0
 11
8101.4999999999990905
 21
-271.9999999999990905
 31
0.0
1001
ACDBBLOCKREPETAG
1070
     1
1071
       76
1005
128F56
  0
LINE
  5
128F57
  8
OBJECT
 10
8101.4999999999990905
 20
-271.9999999999990905
 30
0.0
 11
8090.0
 21
-265.4999999999990905
 31
0.0
1001
ACDBBLOCKREPETAG
1070
     1
1071
       77
1005
128F57
  0
LINE
  5
128F58
  8
OBJECT
 10
8090.0
 20
-265.4999999999990905
 30
0.0
 11
8086.0
 21
-261.9999999999990905
 31
0.0
1001
ACDBBLOCKREPETAG
1070
     1
1071
       78
1005
128F58
  0
LINE
  5
128F59
  8
OBJECT
 10
8101.4999999999990905
 20
-127.9999999999991047
 30
0.0
 11
8090.0
 21
-134.4999999999990905
 31
0.0
1001
ACDBBLOCKREPETAG
1070
     1
1071
       79
1005
128F59
  0
LINE
  5
128F5A
  8
OBJECT
 10
8090.0
 20
-134.4999999999990905
 30
0.0
 11
8086.0
 21
-137.9999999999990905
 31
0.0
1001
ACDBBLOCKREPETAG
1070
     1
1071
       80
1005
128F5A
  0
ARC
  5
128F5B
  8
OBJECT
 10
8467.9000000000014552
 20
-199.9999999999990905
 30
0.0
 40
386.8999999999999773
 50
170.7787013626042096
 51
189.2212986373957051
1001
ACDBBLOCKREPETAG
1070
     1
1071
       81
1005
128F5B
  0
LINE
  5
128F5C
  8
OBJECT
 10
8086.0
 20
-137.9999999999990905
 30
0.0
 11
8080.0
 21
-137.9999999999990905
 31
0.0
1001
ACDBBLOCKREPETAG
1070
     1
1071
       82
1005
128F5C
  0
LINE
  5
128F5D
  8
OBJECT
 10
8143.0
 20
-127.9999999999991047
 30
0.0
 11
8101.4999999999990905
 21
-127.9999999999991047
 31
0.0
1001
ACDBBLOCKREPETAG
1070
     1
1071
       83
1005
128F5D
  0
LINE
  5
128F5E
  8
SLIM
 10
7927.3018300565236132
 20
-155.9548403695769139
 30
0.0
 11
7955.9548403695753223
 21
-127.3018300565223058
 31
0.0
1001
GRADIENTCOLOR1ACI
1070
     5
1001
GRADIENTCOLOR2ACI
1070
     2
1001
ACAD
1010
0.0
1020
0.0
1030
0.0
1001
ACDBBLOCKREPETAG
1070
     1
1071
      499
1005
128F5E
  0
LINE
  5
128F5F
  8
SLIM
 10
7919.4861520708373064
 20
-172.7507744763319124
 30
0.0
 11
7972.7507744763333903
 21
-119.4861520708363969
 31
0.0
1001
GRADIENTCOLOR1ACI
1070
     5
1001
GRADIENTCOLOR2ACI
1070
     2
1001
ACAD
1010
0.0
1020
0.0
1030
0.0
1001
ACDBBLOCKREPETAG
1070
     1
1071
      454
1005
128F5F
  0
LINE
  5
128F60
  8
SLIM
 10
7916.3596679933771156
 20
-184.8575146748605107
 30
0.0
 11
7931.2956746719492003
 21
-169.9215079962906998
 31
0.0
1001
GRADIENTCOLOR1ACI
1070
     5
1001
GRADIENTCOLOR2ACI
1070
     2
1001
ACAD
1010
0.0
1020
0.0
1030
0.0
1001
ACDBBLOCKREPETAG
1070
     1
1071
      455
1005
128F60
  0
LINE
  5
128F61
  8
SLIM
 10
7969.9215079962914388
 20
-131.2956746719466992
 30
0.0
 11
7984.8575146748607949
 21
-116.3596679933770019
 31
0.0
1001
GRADIENTCOLOR1ACI
1070
     5
1001
GRADIENTCOLOR2ACI
1070
     2
1001
ACAD
1010
0.0
1020
0.0
1030
0.0
1001
ACDBBLOCKREPETAG
1070
     1
1071
      456
1005
128F61
  0
LINE
  5
128F62
  8
SLIM
 10
7915.1440575890528635
 20
-195.0533812002549894
 30
0.0
 11
7926.8786024565570187
 21
-183.3188363327525963
 31
0.0
1001
GRADIENTCOLOR1ACI
1070
     5
1001
GRADIENTCOLOR2ACI
1070
     2
1001
ACAD
1010
0.0
1020
0.0
1030
0.0
1001
ACDBBLOCKREPETAG
1070
     1
1071
      457
1005
128F62
  0
LINE
  5
128F63
  8
SLIM
 10
7983.3188363327508341
 20
-126.878602456554006
 30
0.0
 11
7995.0533812002540799
 21
-115.1440575890515987
 31
0.0
1001
GRADIENTCOLOR1ACI
1070
     5
1001
GRADIENTCOLOR2ACI
1070
     2
1001
ACAD
1010
0.0
1020
0.0
1030
0.0
1001
ACDBBLOCKREPETAG
1070
     1
1071
      458
1005
128F63
  0
LINE
  5
128F64
  8
SLIM
 10
7915.0979635574731219
 20
-204.0797313529033943
 30
0.0
 11
7919.1776949103768857
 21
-199.9999999999990905
 31
0.0
1001
GRADIENTCOLOR1ACI
1070
     5
1001
GRADIENTCOLOR2ACI
1070
     2
1001
ACAD
1010
0.0
1020
0.0
1030
0.0
1001
ACDBBLOCKREPETAG
1070
     1
1071
      459
1005
128F64
  0
LINE
  5
128F65
  8
SLIM
 10
8000.0
 20
-119.1776949103767009
 30
0.0
 11
8004.0797313529055828
 21
-115.0979635574722977
 31
0.0
1001
GRADIENTCOLOR1ACI
1070
     5
1001
GRADIENTCOLOR2ACI
1070
     2
1001
ACAD
1010
0.0
1020
0.0
1030
0.0
1001
ACDBBLOCKREPETAG
1070
     1
1071
      460
1005
128F65
  0
LINE
  5
128F66
  8
SLIM
 10
7919.1776949103768857
 20
-199.9999999999990905
 30
0.0
 11
7925.2458896617781647
 21
-193.9318052485988062
 31
0.0
1001
GRADIENTCOLOR1ACI
1070
     5
1001
GRADIENTCOLOR2ACI
1070
     2
1001
ACAD
1010
0.0
1020
0.0
1030
0.0
1001
ACDBBLOCKREPETAG
1070
     1
1071
      461
1005
128F66
  0
LINE
  5
128F67
  8
SLIM
 10
7993.9318052485987209
 20
-125.2458896617769994
 30
0.0
 11
8000.0
 21
-119.1776949103767009
 31
0.0
1001
GRADIENTCOLOR1ACI
1070
     5
1001
GRADIENTCOLOR2ACI
1070
     2
1001
ACAD
1010
0.0
1020
0.0
1030
0.0
1001
ACDBBLOCKREPETAG
1070
     1
1071
      462
1005
128F67
  0
LINE
  5
128F68
  8
SLIM
 10
7915.8899726208701395
 20
-212.2679784105739884
 30
0.0
 11
7925.0638502435949704
 21
-203.0941007878525113
 31
0.0
1001
GRADIENTCOLOR1ACI
1070
     5
1001
GRADIENTCOLOR2ACI
1070
     2
1001
ACAD
1010
0.0
1020
0.0
1030
0.0
1001
ACDBBLOCKREPETAG
1070
     1
1071
      463
1005
128F68
  0
LINE
  5
128F69
  8
SLIM
 10
8003.0941007878527671
 20
-125.0638502435923982
 30
0.0
 11
8012.2679784105748695
 21
-115.8899726208710064
 31
0.0
1001
GRADIENTCOLOR1ACI
1070
     5
1001
GRADIENTCOLOR2ACI
1070
     2
1001
ACAD
1010
0.0
1020
0.0
1030
0.0
1001
ACDBBLOCKREPETAG
1070
     1
1071
      464
1005
128F69
  0
LINE
  5
128F6A
  8
SLIM
 10
7917.338265695152586
 20
-219.7999414573615127
 30
0.0
 11
7925.8537813838629518
 21
-211.2844257686508058
 31
0.0
1001
GRADIENTCOLOR1ACI
1070
     5
1001
GRADIENTCOLOR2ACI
1070
     2
1001
ACAD
1010
0.0
1020
0.0
1030
0.0
1001
ACDBBLOCKREPETAG
1070
     1
1071
      465
1005
128F6A
  0
LINE
  5
128F6B
  8
SLIM
 10
8011.2844257686519995
 20
-125.8537813838634065
 30
0.0
 11
8019.7999414573623653
 21
-117.3382656951526002
 31
0.0
1001
GRADIENTCOLOR1ACI
1070
     5
1001
GRADIENTCOLOR2ACI
1070
     2
1001
ACAD
1010
0.0
1020
0.0
1030
0.0
1001
ACDBBLOCKREPETAG
1070
     1
1071
      466
1005
128F6B
  0
LINE
  5
128F6C
  8
SLIM
 10
7919.3312594063054348
 20
-226.7872038672788051
 30
0.0
 11
7927.3788748080623918
 21
-218.7395884655205975
 31
0.0
1001
GRADIENTCOLOR1ACI
1070
     5
1001
GRADIENTCOLOR2ACI
1070
     2
1001
ACAD
1010
0.0
1020
0.0
1030
0.0
1001
ACDBBLOCKREPETAG
1070
     1
1071
      467
1005
128F6C
  0
LINE
  5
128F6D
  8
SLIM
 10
8018.7395884655206828
 20
-127.3788748080627045
 30
0.0
 11
8026.7872038672767303
 21
-119.3312594063043974
 31
0.0
1001
GRADIENTCOLOR1ACI
1070
     5
1001
GRADIENTCOLOR2ACI
1070
     2
1001
ACAD
1010
0.0
1020
0.0
1030
0.0
1001
ACDBBLOCKREPETAG
1070
     1
1071
      468
1005
128F6D
  0
LINE
  5
128F6E
  8
SLIM
 10
7921.7957163186192702
 20
-233.3030030760328941
 30
0.0
 11
7929.5028327676945992
 21
-225.5958866269596967
 31
0.0
1001
GRADIENTCOLOR1ACI
1070
     5
1001
GRADIENTCOLOR2ACI
1070
     2
1001
ACAD
1010
0.0
1020
0.0
1030
0.0
1001
ACDBBLOCKREPETAG
1070
     1
1071
      469
1005
128F6E
  0
LINE
  5
128F6F
  8
SLIM
 10
8025.5958866269620557
 20
-129.5028327676926097
 30
0.0
 11
8033.3030030760328373
 21
-121.7957163186194975
 31
0.0
1001
GRADIENTCOLOR1ACI
1070
     5
1001
GRADIENTCOLOR2ACI
1070
     2
1001
ACAD
1010
0.0
1020
0.0
1030
0.0
1001
ACDBBLOCKREPETAG
1070
     1
1071
      470
1005
128F6F
  0
LINE
  5
128F70
  8
SLIM
 10
7924.6816635313452934
 20
-239.397311984377609
 30
0.0
 11
7932.1403895696139443
 21
-231.9385859461046095
 31
0.0
1001
GRADIENTCOLOR1ACI
1070
     5
1001
GRADIENTCOLOR2ACI
1070
     2
1001
ACAD
1010
0.0
1020
0.0
1030
0.0
1001
ACDBBLOCKREPETAG
1070
     1
1071
      471
1005
128F70
  0
LINE
  5
128F71
  8
SLIM
 10
8031.9385859461062864
 20
-132.1403895696169002
 30
0.0
 11
8039.3973119843776658
 21
-124.6816635313440003
 31
0.0
1001
GRADIENTCOLOR1ACI
1070
     5
1001
GRADIENTCOLOR2ACI
1070
     2
1001
ACAD
1010
0.0
1020
0.0
1030
0.0
1001
ACDBBLOCKREPETAG
1070
     1
1071
      472
1005
128F71
  0
LINE
  5
128F72
  8
SLIM
 10
7927.9544611024266487
 20
-245.1047705343669065
 30
0.0
 11
7935.235866199166594
 21
-237.8233654376228969
 31
0.0
1001
GRADIENTCOLOR1ACI
1070
     5
1001
GRADIENTCOLOR2ACI
1070
     2
1001
ACAD
1010
0.0
1020
0.0
1030
0.0
1001
ACDBBLOCKREPETAG
1070
     1
1071
      473
1005
128F72
  0
LINE
  5
128F73
  8
SLIM
 10
8037.8233654376199411
 20
-135.2358661991679014
 30
0.0
 11
8045.1047705343717098
 21
-127.9544611024238066
 31
0.0
1001
GRADIENTCOLOR1ACI
1070
     5
1001
GRADIENTCOLOR2ACI
1070
     2
1001
ACAD
1010
0.0
1020
0.0
1030
0.0
1001
ACDBBLOCKREPETAG
1070
     1
1071
      474
1005
128F73
  0
LINE
  5
128F74
  8
SLIM
 10
7931.5903319686649411
 20
-250.4491557891954017
 30
0.0
 11
7938.7525935835510609
 21
-243.2868941743114988
 31
0.0
1001
GRADIENTCOLOR1ACI
1070
     5
1001
GRADIENTCOLOR2ACI
1070
     2
1001
ACAD
1010
0.0
1020
0.0
1030
0.0
1001
ACDBBLOCKREPETAG
1070
     1
1071
      475
1005
128F74
  0
LINE
  5
128F75
  8
SLIM
 10
8044.0394877578619344
 20
-137.9999999999990905
 30
0.0
 11
8050.4491557891979028
 21
-131.5903319686644863
 31
0.0
1001
GRADIENTCOLOR1ACI
1070
     5
1001
GRADIENTCOLOR2ACI
1070
     2
1001
ACAD
1010
0.0
1020
0.0
1030
0.0
1001
ACDBBLOCKREPETAG
1070
     1
1071
      476
1005
128F75
  0
LINE
  5
128F76
  8
SLIM
 10
7935.5737496925266896
 20
-255.4459941864033965
 30
0.0
 11
7942.6672873130492007
 21
-248.3524565658811127
 31
0.0
1001
GRADIENTCOLOR1ACI
1070
     5
1001
GRADIENTCOLOR2ACI
1070
     2
1001
ACAD
1010
0.0
1020
0.0
1030
0.0
1001
ACDBBLOCKREPETAG
1070
     1
1071
      477
1005
128F76
  0
LINE
  5
128F77
  8
SLIM
 10
8053.0197438789318767
 20
-137.9999999999990905
 30
0.0
 11
8055.4459941864042776
 21
-135.5737496925256096
 31
0.0
1001
GRADIENTCOLOR1ACI
1070
     5
1001
GRADIENTCOLOR2ACI
1070
     2
1001
ACAD
1010
0.0
1020
0.0
1030
0.0
1001
ACDBBLOCKREPETAG
1070
     1
1071
      478
1005
128F77
  0
LINE
  5
128F78
  8
SLIM
 10
7939.8959235991442256
 20
-260.1040764008557176
 30
0.0
 11
7946.9669914110090758
 21
-253.0330085889902136
 31
0.0
1001
GRADIENTCOLOR1ACI
1070
     5
1001
GRADIENTCOLOR2ACI
1070
     2
1001
ACAD
1010
0.0
1020
0.0
1030
0.0
1001
ACDBBLOCKREPETAG
1070
     1
1071
      479
1005
128F78
  0
LINE
  5
128F79
  8
SLIM
 10
7944.5540058135957224
 20
-264.4262503074725146
 30
0.0
 11
7951.6475434341191431
 21
-257.3327126869502877
 31
0.0
1001
GRADIENTCOLOR1ACI
1070
     5
1001
GRADIENTCOLOR2ACI
1070
     2
1001
ACAD
1010
0.0
1020
0.0
1030
0.0
1001
ACDBBLOCKREPETAG
1070
     1
1071
      480
1005
128F79
  0
LINE
  5
128F7A
  8
SLIM
 10
7949.5508442108039162
 20
-268.4096680313336947
 30
0.0
 11
7956.7131058256909455
 21
-261.2474064164496212
 31
0.0
1001
GRADIENTCOLOR1ACI
1070
     5
1001
GRADIENTCOLOR2ACI
1070
     2
1001
ACAD
1010
0.0
1020
0.0
1030
0.0
1001
ACDBBLOCKREPETAG
1070
     1
1071
      481
1005
128F7A
  0
LINE
  5
128F7B
  8
SLIM
 10
7954.8952294656310187
 20
-272.0455388975743745
 30
0.0
 11
7962.1766345623791494
 21
-264.7641338008302796
 31
0.0
1001
GRADIENTCOLOR1ACI
1070
     5
1001
GRADIENTCOLOR2ACI
1070
     2
1001
ACAD
1010
0.0
1020
0.0
1030
0.0
1001
ACDBBLOCKREPETAG
1070
     1
1071
      482
1005
128F7B
  0
LINE
  5
128F7C
  8
SLIM
 10
7960.6026880156223342
 20
-275.318336468654195
 30
0.0
 11
7968.0614140538946231
 21
-267.8596104303812808
 31
0.0
1001
GRADIENTCOLOR1ACI
1070
     5
1001
GRADIENTCOLOR2ACI
1070
     2
1001
ACAD
1010
0.0
1020
0.0
1030
0.0
1001
ACDBBLOCKREPETAG
1070
     1
1071
      483
1005
128F7C
  0
LINE
  5
128F7D
  8
SLIM
 10
7966.6969969239680722
 20
-278.2042836813786266
 30
0.0
 11
7974.4041133730370348
 21
-270.4971672323056282
 31
0.0
1001
GRADIENTCOLOR1ACI
1070
     5
1001
GRADIENTCOLOR2ACI
1070
     2
1001
ACAD
1010
0.0
1020
0.0
1030
0.0
1001
ACDBBLOCKREPETAG
1070
     1
1071
      484
1005
128F7D
  0
LINE
  5
128F7E
  8
SLIM
 10
7973.2127961327187222
 20
-280.6687405936937125
 30
0.0
 11
7981.2604115344784077
 21
-272.6211251919356187
 31
0.0
1001
GRADIENTCOLOR1ACI
1070
     5
1001
GRADIENTCOLOR2ACI
1070
     2
1001
ACAD
1010
0.0
1020
0.0
1030
0.0
1001
ACDBBLOCKREPETAG
1070
     1
1071
      485
1005
128F7E
  0
LINE
  5
128F7F
  8
SLIM
 10
7980.2000585426394537
 20
-282.6617343048454813
 30
0.0
 11
7988.7155742313480005
 21
-274.1462186161347745
 31
0.0
1001
GRADIENTCOLOR1ACI
1070
     5
1001
GRADIENTCOLOR2ACI
1070
     2
1001
ACAD
1010
0.0
1020
0.0
1030
0.0
1001
ACDBBLOCKREPETAG
1070
     1
1071
      486
1005
128F7F
  0
LINE
  5
128F80
  8
SLIM
 10
7987.73202158942604
 20
-284.1100273791270752
 30
0.0
 11
7996.9058992121463234
 21
-274.9361497564058254
 31
0.0
1001
GRADIENTCOLOR1ACI
1070
     5
1001
GRADIENTCOLOR2ACI
1070
     2
1001
ACAD
1010
0.0
1020
0.0
1030
0.0
1001
ACDBBLOCKREPETAG
1070
     1
1071
      487
1005
128F80
  0
LINE
  5
128F81
  8
SLIM
 10
7995.9202686470962362
 20
-284.9020364425256844
 30
0.0
 11
8000.0
 21
-280.8223050896215227
 31
0.0
1001
GRADIENTCOLOR1ACI
1070
     5
1001
GRADIENTCOLOR2ACI
1070
     2
1001
ACAD
1010
0.0
1020
0.0
1030
0.0
1001
ACDBBLOCKREPETAG
1070
     1
1071
      488
1005
128F81
  0
LINE
  5
128F82
  8
SLIM
 10
8000.0
 20
-280.8223050896215227
 30
0.0
 11
8006.0681947513958221
 21
-274.75411033822121
 31
0.0
1001
GRADIENTCOLOR1ACI
1070
     5
1001
GRADIENTCOLOR2ACI
1070
     2
1001
ACAD
1010
0.0
1020
0.0
1030
0.0
1001
ACDBBLOCKREPETAG
1070
     1
1071
      489
1005
128F82
  0
LINE
  5
128F83
  8
SLIM
 10
8004.9466187997468296
 20
-284.8559424109465112
 30
0.0
 11
8016.6811636672473469
 21
-273.1213975434441181
 31
0.0
1001
GRADIENTCOLOR1ACI
1070
     5
1001
GRADIENTCOLOR2ACI
1070
     2
1001
ACAD
1010
0.0
1020
0.0
1030
0.0
1001
ACDBBLOCKREPETAG
1070
     1
1071
      490
1005
128F83
  0
LINE
  5
128F84
  8
SLIM
 10
8015.1424853251401146
 20
-283.6403320066211222
 30
0.0
 11
8030.0784920037076517
 21
-268.704325328051425
 31
0.0
1001
GRADIENTCOLOR1ACI
1070
     5
1001
GRADIENTCOLOR2ACI
1070
     2
1001
ACAD
1010
0.0
1020
0.0
1030
0.0
1001
ACDBBLOCKREPETAG
1070
     1
1071
      491
1005
128F84
  0
LINE
  5
128F85
  8
SLIM
 10
8027.2492255236657002
 20
-280.5138479291617273
 30
0.0
 11
8045.7630734528302128
 21
-261.9999999999990905
 31
0.0
1001
GRADIENTCOLOR1ACI
1070
     5
1001
GRADIENTCOLOR2ACI
1070
     2
1001
ACAD
1010
0.0
1020
0.0
1030
0.0
1001
ACDBBLOCKREPETAG
1070
     1
1071
      492
1005
128F85
  0
LINE
  5
128F86
  8
SLIM
 10
8044.0451596304192208
 20
-272.6981699434758184
 30
0.0
 11
8054.7433295739001551
 21
-261.9999999999990905
 31
0.0
1001
GRADIENTCOLOR1ACI
1070
     5
1001
GRADIENTCOLOR2ACI
1070
     2
1001
ACAD
1010
0.0
1020
0.0
1030
0.0
1001
ACDBBLOCKREPETAG
1070
     1
1071
      493
1005
128F86
  0
LINE
  5
128F87
  8
CENTER
 10
8080.0
 20
-199.9999999999990905
 30
0.0
 11
7900.0
 21
-199.9999999999990905
 31
0.0
1001
ACDBBLOCKREPETAG
1070
     1
1071
      187
1005
128F87
  0
LINE
  5
128F88
  8
CENTER
 10
8000.0
 20
-299.9999999999990905
 30
0.0
 11
8000.0
 21
-99.9999999999990763
 31
0.0
1001
ACDBBLOCKREPETAG
1070
     1
1071
      188
1005
128F88
  0
LINE
  5
128F89
  8
OBJECT
 10
8042.2018956920128403
 20
-137.9999999999990905
 30
0.0
 11
8080.0
 21
-137.9999999999990905
 31
0.0
1001
ACDBBLOCKREPETAG
1070
     1
1071
      192
1005
128F89
  0
LINE
  5
128F8A
  8
OBJECT
 10
8042.2018956920128403
 20
-261.9999999999990905
 30
0.0
 11
8080.0
 21
-261.9999999999990905
 31
0.0
1001
ACDBBLOCKREPETAG
1070
     1
1071
      193
1005
128F8A
  0
ARC
  5
128F8B
  8
OBJECT
 10
8000.0
 20
-199.9999999999990905
 30
0.0
 40
85.0
 50
46.8371028598151113
 51
313.1628971401847821
1001
ACDBBLOCKREPETAG
1070
     1
1071
      202
1005
128F8B
  0
POINT
  5
128F8C
  8
DOTS
 10
8000.0
 20
-199.9999999999990905
 30
0.0
 50
270.0
1001
ACDBBLOCKREPETAG
1070
     1
1071
      365
1005
128F8C
  0
CIRCLE
  5
128F8D
  8
OBJECT
 10
8000.0
 20
-199.9999999999990905
 30
0.0
 40
63.0
1001
ACDBBLOCKREPETAG
1070
     1
1071
      430
1005
128F8D
  0
CIRCLE
  5
128F8E
  8
OBJECT
 10
8000.0
 20
-199.9999999999990905
 30
0.0
 40
75.0
1001
ACDBBLOCKREPETAG
1070
     1
1071
      431
1005
128F8E
  0
LINE
  5
128F8F
  8
OBJECT
 10
10150.0
 20
-124.9999999999991047
 30
0.0
 11
10143.0
 21
-124.9999999999991047
 31
0.0
1001
ACDBBLOCKREPETAG
1070
     1
1071
       67
1005
128F8F
  0
LINE
  5
128F90
  8
OBJECT
 10
10143.0
 20
-124.9999999999991047
 30
0.0
 11
10143.0
 21
-274.9999999999990905
 31
0.0
1001
ACDBBLOCKREPETAG
1070
     1
1071
       68
1005
128F90
  0
LINE
  5
128F91
  8
OBJECT
 10
10101.5
 20
-127.9999999999991047
 30
0.0
 11
10101.5
 21
-271.9999999999990905
 31
0.0
1001
ACDBBLOCKREPETAG
1070
     1
1071
       69
1005
128F91
  0
LINE
  5
128F92
  8
OBJECT
 10
10090.0
 20
-134.4999999999990905
 30
0.0
 11
10090.0
 21
-265.4999999999990905
 31
0.0
1001
ACDBBLOCKREPETAG
1070
     1
1071
       70
1005
128F92
  0
LINE
  5
128F93
  8
OBJECT
 10
10143.0
 20
-274.9999999999990905
 30
0.0
 11
10150.0
 21
-274.9999999999990905
 31
0.0
1001
ACDBBLOCKREPETAG
1070
     1
1071
       71
1005
128F93
  0
LINE
  5
128F94
  8
OBJECT
 10
10150.0
 20
-274.9999999999990905
 30
0.0
 11
10150.0
 21
-124.9999999999991047
 31
0.0
1001
ACDBBLOCKREPETAG
1070
     1
1071
       72
1005
128F94
  0
LINE
  5
128F95
  8
HIDDEN
 10
10098.0
 20
-256.9999999999990905
 30
0.0
 11
10098.0
 21
-142.9999999999990905
 31
0.0
1001
ACDBBLOCKREPETAG
1070
     1
1071
       73
1005
128F95
  0
LINE
  5
128F96
  8
CENTER
 10
10165.0
 20
-199.9999999999990905
 30
0.0
 11
10080.0
 21
-199.9999999999990905
 31
0.0
1001
ACDBBLOCKREPETAG
1070
     1
1071
       74
1005
128F96
  0
LINE
  5
128F97
  8
OBJECT
 10
10086.0
 20
-261.9999999999990905
 30
0.0
 11
10080.0
 21
-261.9999999999990905
 31
0.0
1001
ACDBBLOCKREPETAG
1070
     1
1071
       75
1005
128F97
  0
LINE
  5
128F98
  8
OBJECT
 10
10143.0
 20
-271.9999999999990905
 30
0.0
 11
10101.5
 21
-271.9999999999990905
 31
0.0
1001
ACDBBLOCKREPETAG
1070
     1
1071
       76
1005
128F98
  0
LINE
  5
128F99
  8
OBJECT
 10
10101.5
 20
-271.9999999999990905
 30
0.0
 11
10090.0
 21
-265.4999999999990905
 31
0.0
1001
ACDBBLOCKREPETAG
1070
     1
1071
       77
1005
128F99
  0
LINE
  5
128F9A
  8
OBJECT
 10
10090.0
 20
-265.4999999999990905
 30
0.0
 11
10086.0
 21
-261.9999999999990905
 31
0.0
1001
ACDBBLOCKREPETAG
1070
     1
1071
       78
1005
128F9A
  0
LINE
  5
128F9B
  8
OBJECT
 10
10101.5
 20
-127.9999999999991047
 30
0.0
 11
10090.0
 21
-134.4999999999990905
 31
0.0
1001
ACDBBLOCKREPETAG
1070
     1
1071
       79
1005
128F9B
  0
LINE
  5
128F9C
  8
OBJECT
 10
10090.0
 20
-134.4999999999990905
 30
0.0
 11
10086.0
 21
-137.9999999999990905
 31
0.0
1001
ACDBBLOCKREPETAG
1070
     1
1071
       80
1005
128F9C
  0
ARC
  5
128F9D
  8
OBJECT
 10
10467.8999999999996362
 20
-199.9999999999990905
 30
0.0
 40
386.8999999999999773
 50
170.7787013626125088
 51
189.221298637387406
1001
ACDBBLOCKREPETAG
1070
     1
1071
       81
1005
128F9D
  0
LINE
  5
128F9E
  8
OBJECT
 10
10086.0
 20
-137.9999999999990905
 30
0.0
 11
10080.0
 21
-137.9999999999990905
 31
0.0
1001
ACDBBLOCKREPETAG
1070
     1
1071
       82
1005
128F9E
  0
LINE
  5
128F9F
  8
OBJECT
 10
10143.0
 20
-127.9999999999991047
 30
0.0
 11
10101.5
 21
-127.9999999999991047
 31
0.0
1001
ACDBBLOCKREPETAG
1070
     1
1071
       83
1005
128F9F
  0
LINE
  5
128FA0
  8
SLIM
 10
9927.3018300565254322
 20
-155.9548403695769139
 30
0.0
 11
9955.9548403695771412
 21
-127.3018300565223058
 31
0.0
1001
GRADIENTCOLOR1ACI
1070
     5
1001
GRADIENTCOLOR2ACI
1070
     2
1001
ACAD
1010
0.0
1020
0.0
1030
0.0
1001
ACDBBLOCKREPETAG
1070
     1
1071
      499
1005
128FA0
  0
LINE
  5
128FA1
  8
SLIM
 10
9919.4861520708382159
 20
-172.7507744763319124
 30
0.0
 11
9972.7507744763333903
 21
-119.4861520708363969
 31
0.0
1001
GRADIENTCOLOR1ACI
1070
     5
1001
GRADIENTCOLOR2ACI
1070
     2
1001
ACAD
1010
0.0
1020
0.0
1030
0.0
1001
ACDBBLOCKREPETAG
1070
     1
1071
      454
1005
128FA1
  0
LINE
  5
128FA2
  8
SLIM
 10
9916.3596679933798441
 20
-184.8575146748605107
 30
0.0
 11
9931.2956746719482908
 21
-169.9215079962906998
 31
0.0
1001
GRADIENTCOLOR1ACI
1070
     5
1001
GRADIENTCOLOR2ACI
1070
     2
1001
ACAD
1010
0.0
1020
0.0
1030
0.0
1001
ACDBBLOCKREPETAG
1070
     1
1071
      455
1005
128FA2
  0
LINE
  5
128FA3
  8
SLIM
 10
9969.9215079962868913
 20
-131.2956746719466992
 30
0.0
 11
9984.8575146748644329
 21
-116.3596679933770019
 31
0.0
1001
GRADIENTCOLOR1ACI
1070
     5
1001
GRADIENTCOLOR2ACI
1070
     2
1001
ACAD
1010
0.0
1020
0.0
1030
0.0
1001
ACDBBLOCKREPETAG
1070
     1
1071
      456
1005
128FA3
  0
LINE
  5
128FA4
  8
SLIM
 10
9915.144057589055592
 20
-195.0533812002549894
 30
0.0
 11
9926.8786024565542903
 21
-183.3188363327525963
 31
0.0
1001
GRADIENTCOLOR1ACI
1070
     5
1001
GRADIENTCOLOR2ACI
1070
     2
1001
ACAD
1010
0.0
1020
0.0
1030
0.0
1001
ACDBBLOCKREPETAG
1070
     1
1071
      457
1005
128FA4
  0
LINE
  5
128FA5
  8
SLIM
 10
9983.3188363327517436
 20
-126.878602456554006
 30
0.0
 11
9995.0533812002577179
 21
-115.1440575890515987
 31
0.0
1001
GRADIENTCOLOR1ACI
1070
     5
1001
GRADIENTCOLOR2ACI
1070
     2
1001
ACAD
1010
0.0
1020
0.0
1030
0.0
1001
ACDBBLOCKREPETAG
1070
     1
1071
      458
1005
128FA5
  0
LINE
  5
128FA6
  8
SLIM
 10
9915.0979635574713029
 20
-204.0797313529033943
 30
0.0
 11
9919.1776949103787047
 21
-199.9999999999990905
 31
0.0
1001
GRADIENTCOLOR1ACI
1070
     5
1001
GRADIENTCOLOR2ACI
1070
     2
1001
ACAD
1010
0.0
1020
0.0
1030
0.0
1001
ACDBBLOCKREPETAG
1070
     1
1071
      459
1005
128FA6
  0
LINE
  5
128FA7
  8
SLIM
 10
10000.0
 20
-119.1776949103767009
 30
0.0
 11
10004.0797313529001258
 21
-115.0979635574722977
 31
0.0
1001
GRADIENTCOLOR1ACI
1070
     5
1001
GRADIENTCOLOR2ACI
1070
     2
1001
ACAD
1010
0.0
1020
0.0
1030
0.0
1001
ACDBBLOCKREPETAG
1070
     1
1071
      460
1005
128FA7
  0
LINE
  5
128FA8
  8
SLIM
 10
9919.1776949103787047
 20
-199.9999999999990905
 30
0.0
 11
9925.2458896617808932
 21
-193.9318052485988062
 31
0.0
1001
GRADIENTCOLOR1ACI
1070
     5
1001
GRADIENTCOLOR2ACI
1070
     2
1001
ACAD
1010
0.0
1020
0.0
1030
0.0
1001
ACDBBLOCKREPETAG
1070
     1
1071
      461
1005
128FA8
  0
LINE
  5
128FA9
  8
SLIM
 10
9993.9318052485996304
 20
-125.2458896617769994
 30
0.0
 11
10000.0
 21
-119.1776949103767009
 31
0.0
1001
GRADIENTCOLOR1ACI
1070
     5
1001
GRADIENTCOLOR2ACI
1070
     2
1001
ACAD
1010
0.0
1020
0.0
1030
0.0
1001
ACDBBLOCKREPETAG
1070
     1
1071
      462
1005
128FA9
  0
LINE
  5
128FAA
  8
SLIM
 10
9915.889972620874687
 20
-212.2679784105739884
 30
0.0
 11
9925.0638502435958799
 21
-203.0941007878525113
 31
0.0
1001
GRADIENTCOLOR1ACI
1070
     5
1001
GRADIENTCOLOR2ACI
1070
     2
1001
ACAD
1010
0.0
1020
0.0
1030
0.0
1001
ACDBBLOCKREPETAG
1070
     1
1071
      463
1005
128FAA
  0
LINE
  5
128FAB
  8
SLIM
 10
10003.0941007878500386
 20
-125.0638502435923982
 30
0.0
 11
10012.2679784105603176
 21
-115.8899726208710064
 31
0.0
1001
GRADIENTCOLOR1ACI
1070
     5
1001
GRADIENTCOLOR2ACI
1070
     2
1001
ACAD
1010
0.0
1020
0.0
1030
0.0
1001
ACDBBLOCKREPETAG
1070
     1
1071
      464
1005
128FAB
  0
LINE
  5
128FAC
  8
SLIM
 10
9917.338265695154405
 20
-219.7999414573615127
 30
0.0
 11
9925.8537813838647708
 21
-211.2844257686508058
 31
0.0
1001
GRADIENTCOLOR1ACI
1070
     5
1001
GRADIENTCOLOR2ACI
1070
     2
1001
ACAD
1010
0.0
1020
0.0
1030
0.0
1001
ACDBBLOCKREPETAG
1070
     1
1071
      465
1005
128FAC
  0
LINE
  5
128FAD
  8
SLIM
 10
10011.2844257686501805
 20
-125.8537813838634065
 30
0.0
 11
10019.7999414573605463
 21
-117.3382656951526002
 31
0.0
1001
GRADIENTCOLOR1ACI
1070
     5
1001
GRADIENTCOLOR2ACI
1070
     2
1001
ACAD
1010
0.0
1020
0.0
1030
0.0
1001
ACDBBLOCKREPETAG
1070
     1
1071
      466
1005
128FAD
  0
LINE
  5
128FAE
  8
SLIM
 10
9919.3312594063045253
 20
-226.7872038672788051
 30
0.0
 11
9927.3788748080642108
 21
-218.7395884655205975
 31
0.0
1001
GRADIENTCOLOR1ACI
1070
     5
1001
GRADIENTCOLOR2ACI
1070
     2
1001
ACAD
1010
0.0
1020
0.0
1030
0.0
1001
ACDBBLOCKREPETAG
1070
     1
1071
      467
1005
128FAE
  0
LINE
  5
128FAF
  8
SLIM
 10
10018.7395884655197733
 20
-127.3788748080627045
 30
0.0
 11
10026.7872038672794588
 21
-119.3312594063043974
 31
0.0
1001
GRADIENTCOLOR1ACI
1070
     5
1001
GRADIENTCOLOR2ACI
1070
     2
1001
ACAD
1010
0.0
1020
0.0
1030
0.0
1001
ACDBBLOCKREPETAG
1070
     1
1071
      468
1005
128FAF
  0
LINE
  5
128FB0
  8
SLIM
 10
9921.7957163186183607
 20
-233.3030030760328941
 30
0.0
 11
9929.5028327676955087
 21
-225.5958866269596967
 31
0.0
1001
GRADIENTCOLOR1ACI
1070
     5
1001
GRADIENTCOLOR2ACI
1070
     2
1001
ACAD
1010
0.0
1020
0.0
1030
0.0
1001
ACDBBLOCKREPETAG
1070
     1
1071
      469
1005
128FB0
  0
LINE
  5
128FB1
  8
SLIM
 10
10025.5958866269593273
 20
-129.5028327676926097
 30
0.0
 11
10033.3030030760291993
 21
-121.7957163186194975
 31
0.0
1001
GRADIENTCOLOR1ACI
1070
     5
1001
GRADIENTCOLOR2ACI
1070
     2
1001
ACAD
1010
0.0
1020
0.0
1030
0.0
1001
ACDBBLOCKREPETAG
1070
     1
1071
      470
1005
128FB1
  0
LINE
  5
128FB2
  8
SLIM
 10
9924.681663531344384
 20
-239.397311984377609
 30
0.0
 11
9932.1403895696184918
 21
-231.9385859461046095
 31
0.0
1001
GRADIENTCOLOR1ACI
1070
     5
1001
GRADIENTCOLOR2ACI
1070
     2
1001
ACAD
1010
0.0
1020
0.0
1030
0.0
1001
ACDBBLOCKREPETAG
1070
     1
1071
      471
1005
128FB2
  0
LINE
  5
128FB3
  8
SLIM
 10
10031.93858594609992
 20
-132.1403895696169002
 30
0.0
 11
10039.3973119843703898
 21
-124.6816635313440003
 31
0.0
1001
GRADIENTCOLOR1ACI
1070
     5
1001
GRADIENTCOLOR2ACI
1070
     2
1001
ACAD
1010
0.0
1020
0.0
1030
0.0
1001
ACDBBLOCKREPETAG
1070
     1
1071
      472
1005
128FB3
  0
LINE
  5
128FB4
  8
SLIM
 10
9927.9544611024248297
 20
-245.1047705343669065
 30
0.0
 11
9935.2358661991711415
 21
-237.8233654376228969
 31
0.0
1001
GRADIENTCOLOR1ACI
1070
     5
1001
GRADIENTCOLOR2ACI
1070
     2
1001
ACAD
1010
0.0
1020
0.0
1030
0.0
1001
ACDBBLOCKREPETAG
1070
     1
1071
      473
1005
128FB4
  0
LINE
  5
128FB5
  8
SLIM
 10
10037.8233654376199411
 20
-135.2358661991679014
 30
0.0
 11
10045.1047705343607959
 21
-127.9544611024238066
 31
0.0
1001
GRADIENTCOLOR1ACI
1070
     5
1001
GRADIENTCOLOR2ACI
1070
     2
1001
ACAD
1010
0.0
1020
0.0
1030
0.0
1001
ACDBBLOCKREPETAG
1070
     1
1071
      474
1005
128FB5
  0
LINE
  5
128FB6
  8
SLIM
 10
9931.5903319686658506
 20
-250.4491557891954017
 30
0.0
 11
9938.7525935835528799
 21
-243.2868941743114988
 31
0.0
1001
GRADIENTCOLOR1ACI
1070
     5
1001
GRADIENTCOLOR2ACI
1070
     2
1001
ACAD
1010
0.0
1020
0.0
1030
0.0
1001
ACDBBLOCKREPETAG
1070
     1
1071
      475
1005
128FB6
  0
LINE
  5
128FB7
  8
SLIM
 10
10044.0394877578601154
 20
-137.9999999999990905
 30
0.0
 11
10050.4491557891906268
 21
-131.5903319686644863
 31
0.0
1001
GRADIENTCOLOR1ACI
1070
     5
1001
GRADIENTCOLOR2ACI
1070
     2
1001
ACAD
1010
0.0
1020
0.0
1030
0.0
1001
ACDBBLOCKREPETAG
1070
     1
1071
      476
1005
128FB7
  0
LINE
  5
128FB8
  8
SLIM
 10
9935.5737496925303276
 20
-255.4459941864033965
 30
0.0
 11
9942.6672873130482913
 21
-248.3524565658811127
 31
0.0
1001
GRADIENTCOLOR1ACI
1070
     5
1001
GRADIENTCOLOR2ACI
1070
     2
1001
ACAD
1010
0.0
1020
0.0
1030
0.0
1001
ACDBBLOCKREPETAG
1070
     1
1071
      477
1005
128FB8
  0
LINE
  5
128FB9
  8
SLIM
 10
10053.0197438789200532
 20
-137.9999999999990905
 30
0.0
 11
10055.4459941864006396
 21
-135.5737496925256096
 31
0.0
1001
GRADIENTCOLOR1ACI
1070
     5
1001
GRADIENTCOLOR2ACI
1070
     2
1001
ACAD
1010
0.0
1020
0.0
1030
0.0
1001
ACDBBLOCKREPETAG
1070
     1
1071
      478
1005
128FB9
  0
LINE
  5
128FBA
  8
SLIM
 10
9939.8959235991442256
 20
-260.1040764008557176
 30
0.0
 11
9946.9669914110072568
 21
-253.0330085889902136
 31
0.0
1001
GRADIENTCOLOR1ACI
1070
     5
1001
GRADIENTCOLOR2ACI
1070
     2
1001
ACAD
1010
0.0
1020
0.0
1030
0.0
1001
ACDBBLOCKREPETAG
1070
     1
1071
      479
1005
128FBA
  0
LINE
  5
128FBB
  8
SLIM
 10
9944.5540058135957224
 20
-264.4262503074725146
 30
0.0
 11
9951.6475434341155051
 21
-257.3327126869502877
 31
0.0
1001
GRADIENTCOLOR1ACI
1070
     5
1001
GRADIENTCOLOR2ACI
1070
     2
1001
ACAD
1010
0.0
1020
0.0
1030
0.0
1001
ACDBBLOCKREPETAG
1070
     1
1071
      480
1005
128FBB
  0
LINE
  5
128FBC
  8
SLIM
 10
9949.5508442108057352
 20
-268.4096680313336947
 30
0.0
 11
9956.7131058256873075
 21
-261.2474064164496212
 31
0.0
1001
GRADIENTCOLOR1ACI
1070
     5
1001
GRADIENTCOLOR2ACI
1070
     2
1001
ACAD
1010
0.0
1020
0.0
1030
0.0
1001
ACDBBLOCKREPETAG
1070
     1
1071
      481
1005
128FBC
  0
LINE
  5
128FBD
  8
SLIM
 10
9954.8952294656319282
 20
-272.0455388975743745
 30
0.0
 11
9962.1766345623764209
 21
-264.7641338008302796
 31
0.0
1001
GRADIENTCOLOR1ACI
1070
     5
1001
GRADIENTCOLOR2ACI
1070
     2
1001
ACAD
1010
0.0
1020
0.0
1030
0.0
1001
ACDBBLOCKREPETAG
1070
     1
1071
      482
1005
128FBD
  0
LINE
  5
128FBE
  8
SLIM
 10
9960.6026880156223342
 20
-275.318336468654195
 30
0.0
 11
9968.0614140538946231
 21
-267.8596104303812808
 31
0.0
1001
GRADIENTCOLOR1ACI
1070
     5
1001
GRADIENTCOLOR2ACI
1070
     2
1001
ACAD
1010
0.0
1020
0.0
1030
0.0
1001
ACDBBLOCKREPETAG
1070
     1
1071
      483
1005
128FBE
  0
LINE
  5
128FBF
  8
SLIM
 10
9966.6969969239653437
 20
-278.2042836813786266
 30
0.0
 11
9974.4041133730406727
 21
-270.4971672323056282
 31
0.0
1001
GRADIENTCOLOR1ACI
1070
     5
1001
GRADIENTCOLOR2ACI
1070
     2
1001
ACAD
1010
0.0
1020
0.0
1030
0.0
1001
ACDBBLOCKREPETAG
1070
     1
1071
      484
1005
128FBF
  0
LINE
  5
128FC0
  8
SLIM
 10
9973.2127961327205412
 20
-280.6687405936937125
 30
0.0
 11
9981.2604115344784077
 21
-272.6211251919356187
 31
0.0
1001
GRADIENTCOLOR1ACI
1070
     5
1001
GRADIENTCOLOR2ACI
1070
     2
1001
ACAD
1010
0.0
1020
0.0
1030
0.0
1001
ACDBBLOCKREPETAG
1070
     1
1071
      485
1005
128FC0
  0
LINE
  5
128FC1
  8
SLIM
 10
9980.2000585426394537
 20
-282.6617343048454813
 30
0.0
 11
9988.7155742313498195
 21
-274.1462186161347745
 31
0.0
1001
GRADIENTCOLOR1ACI
1070
     5
1001
GRADIENTCOLOR2ACI
1070
     2
1001
ACAD
1010
0.0
1020
0.0
1030
0.0
1001
ACDBBLOCKREPETAG
1070
     1
1071
      486
1005
128FC1
  0
LINE
  5
128FC2
  8
SLIM
 10
9987.7320215894251305
 20
-284.1100273791270752
 30
0.0
 11
9996.9058992121463234
 21
-274.9361497564058254
 31
0.0
1001
GRADIENTCOLOR1ACI
1070
     5
1001
GRADIENTCOLOR2ACI
1070
     2
1001
ACAD
1010
0.0
1020
0.0
1030
0.0
1001
ACDBBLOCKREPETAG
1070
     1
1071
      487
1005
128FC2
  0
LINE
  5
128FC3
  8
SLIM
 10
9995.9202686470962362
 20
-284.9020364425256844
 30
0.0
 11
10000.0
 21
-280.8223050896215227
 31
0.0
1001
GRADIENTCOLOR1ACI
1070
     5
1001
GRADIENTCOLOR2ACI
1070
     2
1001
ACAD
1010
0.0
1020
0.0
1030
0.0
1001
ACDBBLOCKREPETAG
1070
     1
1071
      488
1005
128FC3
  0
LINE
  5
128FC4
  8
SLIM
 10
10000.0
 20
-280.8223050896215227
 30
0.0
 11
10006.0681947514003696
 21
-274.75411033822121
 31
0.0
1001
GRADIENTCOLOR1ACI
1070
     5
1001
GRADIENTCOLOR2ACI
1070
     2
1001
ACAD
1010
0.0
1020
0.0
1030
0.0
1001
ACDBBLOCKREPETAG
1070
     1
1071
      489
1005
128FC4
  0
LINE
  5
128FC5
  8
SLIM
 10
10004.9466187997404631
 20
-284.8559424109465112
 30
0.0
 11
10016.6811636672391614
 21
-273.1213975434441181
 31
0.0
1001
GRADIENTCOLOR1ACI
1070
     5
1001
GRADIENTCOLOR2ACI
1070
     2
1001
ACAD
1010
0.0
1020
0.0
1030
0.0
1001
ACDBBLOCKREPETAG
1070
     1
1071
      490
1005
128FC5
  0
LINE
  5
128FC6
  8
SLIM
 10
10015.1424853251392051
 20
-283.6403320066211222
 30
0.0
 11
10030.0784920037094707
 21
-268.704325328051425
 31
0.0
1001
GRADIENTCOLOR1ACI
1070
     5
1001
GRADIENTCOLOR2ACI
1070
     2
1001
ACAD
1010
0.0
1020
0.0
1030
0.0
1001
ACDBBLOCKREPETAG
1070
     1
1071
      491
1005
128FC6
  0
LINE
  5
128FC7
  8
SLIM
 10
10027.2492255236593337
 20
-280.5138479291617273
 30
0.0
 11
10045.7630734528302128
 21
-261.9999999999990905
 31
0.0
1001
GRADIENTCOLOR1ACI
1070
     5
1001
GRADIENTCOLOR2ACI
1070
     2
1001
ACAD
1010
0.0
1020
0.0
1030
0.0
1001
ACDBBLOCKREPETAG
1070
     1
1071
      492
1005
128FC7
  0
LINE
  5
128FC8
  8
SLIM
 10
10044.0451596304192208
 20
-272.6981699434758184
 30
0.0
 11
10054.7433295738992456
 21
-261.9999999999990905
 31
0.0
1001
GRADIENTCOLOR1ACI
1070
     5
1001
GRADIENTCOLOR2ACI
1070
     2
1001
ACAD
1010
0.0
1020
0.0
1030
0.0
1001
ACDBBLOCKREPETAG
1070
     1
1071
      493
1005
128FC8
  0
LINE
  5
128FC9
  8
CENTER
 10
10080.0
 20
-199.9999999999990905
 30
0.0
 11
9900.0
 21
-199.9999999999990905
 31
0.0
1001
ACDBBLOCKREPETAG
1070
     1
1071
      187
1005
128FC9
  0
LINE
  5
128FCA
  8
CENTER
 10
10000.0
 20
-299.9999999999990905
 30
0.0
 11
10000.0
 21
-99.9999999999990763
 31
0.0
1001
ACDBBLOCKREPETAG
1070
     1
1071
      188
1005
128FCA
  0
LINE
  5
128FCB
  8
OBJECT
 10
10042.2018956920201163
 20
-137.9999999999990905
 30
0.0
 11
10080.0
 21
-137.9999999999990905
 31
0.0
1001
ACDBBLOCKREPETAG
1070
     1
1071
      192
1005
128FCB
  0
LINE
  5
128FCC
  8
OBJECT
 10
10042.2018956920201163
 20
-261.9999999999990905
 30
0.0
 11
10080.0
 21
-261.9999999999990905
 31
0.0
1001
ACDBBLOCKREPETAG
1070
     1
1071
      193
1005
128FCC
  0
ARC
  5
128FCD
  8
OBJECT
 10
10000.0
 20
-199.9999999999990905
 30
0.0
 40
85.0
 50
46.8371028598531467
 51
313.1628971401468107
1001
ACDBBLOCKREPETAG
1070
     1
1071
      202
1005
128FCD
  0
POINT
  5
128FCE
  8
DOTS
 10
10000.0
 20
-199.9999999999990905
 30
0.0
 50
270.0
1001
ACDBBLOCKREPETAG
1070
     1
1071
      365
1005
128FCE
  0
CIRCLE
  5
128FCF
  8
OBJECT
 10
10000.0
 20
-199.9999999999990905
 30
0.0
 40
63.0
1001
ACDBBLOCKREPETAG
1070
     1
1071
      430
1005
128FCF
  0
CIRCLE
  5
128FD0
  8
OBJECT
 10
10000.0
 20
-199.9999999999990905
 30
0.0
 40
75.0
1001
ACDBBLOCKREPETAG
1070
     1
1071
      431
1005
128FD0
  0
LINE
  5
128FD1
  8
OBJECT
 10
12150.0
 20
-124.9999999999991047
 30
0.0
 11
12143.0
 21
-124.9999999999991047
 31
0.0
1001
ACDBBLOCKREPETAG
1070
     1
1071
       67
1005
128FD1
  0
LINE
  5
128FD2
  8
OBJECT
 10
12143.0
 20
-124.9999999999991047
 30
0.0
 11
12143.0
 21
-274.9999999999990905
 31
0.0
1001
ACDBBLOCKREPETAG
1070
     1
1071
       68
1005
128FD2
  0
LINE
  5
128FD3
  8
OBJECT
 10
12101.5
 20
-127.9999999999991047
 30
0.0
 11
12101.5
 21
-271.9999999999990905
 31
0.0
1001
ACDBBLOCKREPETAG
1070
     1
1071
       69
1005
128FD3
  0
LINE
  5
128FD4
  8
OBJECT
 10
12090.0
 20
-134.4999999999990905
 30
0.0
 11
12090.0
 21
-265.4999999999990905
 31
0.0
1001
ACDBBLOCKREPETAG
1070
     1
1071
       70
1005
128FD4
  0
LINE
  5
128FD5
  8
OBJECT
 10
12143.0
 20
-274.9999999999990905
 30
0.0
 11
12150.0
 21
-274.9999999999990905
 31
0.0
1001
ACDBBLOCKREPETAG
1070
     1
1071
       71
1005
128FD5
  0
LINE
  5
128FD6
  8
OBJECT
 10
12150.0
 20
-274.9999999999990905
 30
0.0
 11
12150.0
 21
-124.9999999999991047
 31
0.0
1001
ACDBBLOCKREPETAG
1070
     1
1071
       72
1005
128FD6
  0
LINE
  5
128FD7
  8
HIDDEN
 10
12098.0
 20
-256.9999999999990905
 30
0.0
 11
12098.0
 21
-142.9999999999990905
 31
0.0
1001
ACDBBLOCKREPETAG
1070
     1
1071
       73
1005
128FD7
  0
LINE
  5
128FD8
  8
CENTER
 10
12165.0
 20
-199.9999999999990905
 30
0.0
 11
12080.0
 21
-199.9999999999990905
 31
0.0
1001
ACDBBLOCKREPETAG
1070
     1
1071
       74
1005
128FD8
  0
LINE
  5
128FD9
  8
OBJECT
 10
12086.0
 20
-261.9999999999990905
 30
0.0
 11
12080.0
 21
-261.9999999999990905
 31
0.0
1001
ACDBBLOCKREPETAG
1070
     1
1071
       75
1005
128FD9
  0
LINE
  5
128FDA
  8
OBJECT
 10
12143.0
 20
-271.9999999999990905
 30
0.0
 11
12101.5
 21
-271.9999999999990905
 31
0.0
1001
ACDBBLOCKREPETAG
1070
     1
1071
       76
1005
128FDA
  0
LINE
  5
128FDB
  8
OBJECT
 10
12101.5
 20
-271.9999999999990905
 30
0.0
 11
12090.0
 21
-265.4999999999990905
 31
0.0
1001
ACDBBLOCKREPETAG
1070
     1
1071
       77
1005
128FDB
  0
LINE
  5
128FDC
  8
OBJECT
 10
12090.0
 20
-265.4999999999990905
 30
0.0
 11
12086.0
 21
-261.9999999999990905
 31
0.0
1001
ACDBBLOCKREPETAG
1070
     1
1071
       78
1005
128FDC
  0
LINE
  5
128FDD
  8
OBJECT
 10
12101.5
 20
-127.9999999999991047
 30
0.0
 11
12090.0
 21
-134.4999999999990905
 31
0.0
1001
ACDBBLOCKREPETAG
1070
     1
1071
       79
1005
128FDD
  0
LINE
  5
128FDE
  8
OBJECT
 10
12090.0
 20
-134.4999999999990905
 30
0.0
 11
12086.0
 21
-137.9999999999990905
 31
0.0
1001
ACDBBLOCKREPETAG
1070
     1
1071
       80
1005
128FDE
  0
ARC
  5
128FDF
  8
OBJECT
 10
12467.8999999999996362
 20
-199.9999999999990905
 30
0.0
 40
386.8999999999999773
 50
170.7787013626125088
 51
189.221298637387406
1001
ACDBBLOCKREPETAG
1070
     1
1071
       81
1005
128FDF
  0
LINE
  5
128FE0
  8
OBJECT
 10
12086.0
 20
-137.9999999999990905
 30
0.0
 11
12080.0
 21
-137.9999999999990905
 31
0.0
1001
ACDBBLOCKREPETAG
1070
     1
1071
       82
1005
128FE0
  0
LINE
  5
128FE1
  8
OBJECT
 10
12143.0
 20
-127.9999999999991047
 30
0.0
 11
12101.5
 21
-127.9999999999991047
 31
0.0
1001
ACDBBLOCKREPETAG
1070
     1
1071
       83
1005
128FE1
  0
LINE
  5
128FE2
  8
SLIM
 10
11927.3018300565199752
 20
-155.9548403695769139
 30
0.0
 11
11955.9548403695807792
 21
-127.3018300565223058
 31
0.0
1001
GRADIENTCOLOR1ACI
1070
     5
1001
GRADIENTCOLOR2ACI
1070
     2
1001
ACAD
1010
0.0
1020
0.0
1030
0.0
1001
ACDBBLOCKREPETAG
1070
     1
1071
      499
1005
128FE2
  0
LINE
  5
128FE3
  8
SLIM
 10
11919.4861520708400349
 20
-172.7507744763319124
 30
0.0
 11
11972.7507744763297524
 21
-119.4861520708363969
 31
0.0
1001
GRADIENTCOLOR1ACI
1070
     5
1001
GRADIENTCOLOR2ACI
1070
     2
1001
ACAD
1010
0.0
1020
0.0
1030
0.0
1001
ACDBBLOCKREPETAG
1070
     1
1071
      454
1005
128FE3
  0
LINE
  5
128FE4
  8
SLIM
 10
11916.3596679933798441
 20
-184.8575146748605107
 30
0.0
 11
11931.2956746719501098
 21
-169.9215079962906998
 31
0.0
1001
GRADIENTCOLOR1ACI
1070
     5
1001
GRADIENTCOLOR2ACI
1070
     2
1001
ACAD
1010
0.0
1020
0.0
1030
0.0
1001
ACDBBLOCKREPETAG
1070
     1
1071
      455
1005
128FE4
  0
LINE
  5
128FE5
  8
SLIM
 10
11969.9215079962905293
 20
-131.2956746719466992
 30
0.0
 11
11984.8575146748607949
 21
-116.3596679933770019
 31
0.0
1001
GRADIENTCOLOR1ACI
1070
     5
1001
GRADIENTCOLOR2ACI
1070
     2
1001
ACAD
1010
0.0
1020
0.0
1030
0.0
1001
ACDBBLOCKREPETAG
1070
     1
1071
      456
1005
128FE5
  0
LINE
  5
128FE6
  8
SLIM
 10
11915.144057589050135
 20
-195.0533812002549894
 30
0.0
 11
11926.8786024565506523
 21
-183.3188363327525963
 31
0.0
1001
GRADIENTCOLOR1ACI
1070
     5
1001
GRADIENTCOLOR2ACI
1070
     2
1001
ACAD
1010
0.0
1020
0.0
1030
0.0
1001
ACDBBLOCKREPETAG
1070
     1
1071
      457
1005
128FE6
  0
LINE
  5
128FE7
  8
SLIM
 10
11983.3188363327499246
 20
-126.878602456554006
 30
0.0
 11
11995.0533812002504419
 21
-115.1440575890515987
 31
0.0
1001
GRADIENTCOLOR1ACI
1070
     5
1001
GRADIENTCOLOR2ACI
1070
     2
1001
ACAD
1010
0.0
1020
0.0
1030
0.0
1001
ACDBBLOCKREPETAG
1070
     1
1071
      458
1005
128FE7
  0
LINE
  5
128FE8
  8
SLIM
 10
11915.0979635574694839
 20
-204.0797313529033943
 30
0.0
 11
11919.1776949103605148
 21
-199.9999999999990905
 31
0.0
1001
GRADIENTCOLOR1ACI
1070
     5
1001
GRADIENTCOLOR2ACI
1070
     2
1001
ACAD
1010
0.0
1020
0.0
1030
0.0
1001
ACDBBLOCKREPETAG
1070
     1
1071
      459
1005
128FE8
  0
LINE
  5
128FE9
  8
SLIM
 10
12000.0
 20
-119.1776949103767009
 30
0.0
 11
12004.0797313529001258
 21
-115.0979635574722977
 31
0.0
1001
GRADIENTCOLOR1ACI
1070
     5
1001
GRADIENTCOLOR2ACI
1070
     2
1001
ACAD
1010
0.0
1020
0.0
1030
0.0
1001
ACDBBLOCKREPETAG
1070
     1
1071
      460
1005
128FE9
  0
LINE
  5
128FEA
  8
SLIM
 10
11919.1776949103605148
 20
-199.9999999999990905
 30
0.0
 11
11925.2458896617699793
 21
-193.9318052485988062
 31
0.0
1001
GRADIENTCOLOR1ACI
1070
     5
1001
GRADIENTCOLOR2ACI
1070
     2
1001
ACAD
1010
0.0
1020
0.0
1030
0.0
1001
ACDBBLOCKREPETAG
1070
     1
1071
      461
1005
128FEA
  0
LINE
  5
128FEB
  8
SLIM
 10
11993.9318052485996304
 20
-125.2458896617769994
 30
0.0
 11
12000.0
 21
-119.1776949103767009
 31
0.0
1001
GRADIENTCOLOR1ACI
1070
     5
1001
GRADIENTCOLOR2ACI
1070
     2
1001
ACAD
1010
0.0
1020
0.0
1030
0.0
1001
ACDBBLOCKREPETAG
1070
     1
1071
      462
1005
128FEB
  0
LINE
  5
128FEC
  8
SLIM
 10
11915.88997262086923
 20
-212.2679784105739884
 30
0.0
 11
11925.0638502435904229
 21
-203.0941007878525113
 31
0.0
1001
GRADIENTCOLOR1ACI
1070
     5
1001
GRADIENTCOLOR2ACI
1070
     2
1001
ACAD
1010
0.0
1020
0.0
1030
0.0
1001
ACDBBLOCKREPETAG
1070
     1
1071
      463
1005
128FEC
  0
LINE
  5
128FED
  8
SLIM
 10
12003.0941007878500386
 20
-125.0638502435923982
 30
0.0
 11
12012.2679784105694125
 21
-115.8899726208710064
 31
0.0
1001
GRADIENTCOLOR1ACI
1070
     5
1001
GRADIENTCOLOR2ACI
1070
     2
1001
ACAD
1010
0.0
1020
0.0
1030
0.0
1001
ACDBBLOCKREPETAG
1070
     1
1071
      464
1005
128FED
  0
LINE
  5
128FEE
  8
SLIM
 10
11917.338265695150767
 20
-219.7999414573615127
 30
0.0
 11
11925.8537813838593138
 21
-211.2844257686508058
 31
0.0
1001
GRADIENTCOLOR1ACI
1070
     5
1001
GRADIENTCOLOR2ACI
1070
     2
1001
ACAD
1010
0.0
1020
0.0
1030
0.0
1001
ACDBBLOCKREPETAG
1070
     1
1071
      465
1005
128FEE
  0
LINE
  5
128FEF
  8
SLIM
 10
12011.2844257686501805
 20
-125.8537813838634065
 30
0.0
 11
12019.7999414573605463
 21
-117.3382656951526002
 31
0.0
1001
GRADIENTCOLOR1ACI
1070
     5
1001
GRADIENTCOLOR2ACI
1070
     2
1001
ACAD
1010
0.0
1020
0.0
1030
0.0
1001
ACDBBLOCKREPETAG
1070
     1
1071
      466
1005
128FEF
  0
LINE
  5
128FF0
  8
SLIM
 10
11919.3312594063008873
 20
-226.7872038672788051
 30
0.0
 11
11927.3788748080605728
 21
-218.7395884655205975
 31
0.0
1001
GRADIENTCOLOR1ACI
1070
     5
1001
GRADIENTCOLOR2ACI
1070
     2
1001
ACAD
1010
0.0
1020
0.0
1030
0.0
1001
ACDBBLOCKREPETAG
1070
     1
1071
      467
1005
128FF0
  0
LINE
  5
128FF1
  8
SLIM
 10
12018.7395884655197733
 20
-127.3788748080627045
 30
0.0
 11
12026.7872038672794588
 21
-119.3312594063043974
 31
0.0
1001
GRADIENTCOLOR1ACI
1070
     5
1001
GRADIENTCOLOR2ACI
1070
     2
1001
ACAD
1010
0.0
1020
0.0
1030
0.0
1001
ACDBBLOCKREPETAG
1070
     1
1071
      468
1005
128FF1
  0
LINE
  5
128FF2
  8
SLIM
 10
11921.7957163186201797
 20
-233.3030030760328941
 30
0.0
 11
11929.5028327676900517
 21
-225.5958866269596967
 31
0.0
1001
GRADIENTCOLOR1ACI
1070
     5
1001
GRADIENTCOLOR2ACI
1070
     2
1001
ACAD
1010
0.0
1020
0.0
1030
0.0
1001
ACDBBLOCKREPETAG
1070
     1
1071
      469
1005
128FF2
  0
LINE
  5
128FF3
  8
SLIM
 10
12025.5958866269593273
 20
-129.5028327676926097
 30
0.0
 11
12033.3030030760291993
 21
-121.7957163186194975
 31
0.0
1001
GRADIENTCOLOR1ACI
1070
     5
1001
GRADIENTCOLOR2ACI
1070
     2
1001
ACAD
1010
0.0
1020
0.0
1030
0.0
1001
ACDBBLOCKREPETAG
1070
     1
1071
      470
1005
128FF3
  0
LINE
  5
128FF4
  8
SLIM
 10
11924.681663531340746
 20
-239.397311984377609
 30
0.0
 11
11932.1403895696203108
 21
-231.9385859461046095
 31
0.0
1001
GRADIENTCOLOR1ACI
1070
     5
1001
GRADIENTCOLOR2ACI
1070
     2
1001
ACAD
1010
0.0
1020
0.0
1030
0.0
1001
ACDBBLOCKREPETAG
1070
     1
1071
      471
1005
128FF4
  0
LINE
  5
128FF5
  8
SLIM
 10
12031.93858594609992
 20
-132.1403895696169002
 30
0.0
 11
12039.3973119843794848
 21
-124.6816635313440003
 31
0.0
1001
GRADIENTCOLOR1ACI
1070
     5
1001
GRADIENTCOLOR2ACI
1070
     2
1001
ACAD
1010
0.0
1020
0.0
1030
0.0
1001
ACDBBLOCKREPETAG
1070
     1
1071
      472
1005
128FF5
  0
LINE
  5
128FF6
  8
SLIM
 10
11927.9544611024193728
 20
-245.1047705343669065
 30
0.0
 11
11935.2358661991602276
 21
-237.8233654376228969
 31
0.0
1001
GRADIENTCOLOR1ACI
1070
     5
1001
GRADIENTCOLOR2ACI
1070
     2
1001
ACAD
1010
0.0
1020
0.0
1030
0.0
1001
ACDBBLOCKREPETAG
1070
     1
1071
      473
1005
128FF6
  0
LINE
  5
128FF7
  8
SLIM
 10
12037.8233654376199411
 20
-135.2358661991679014
 30
0.0
 11
12045.1047705343698908
 21
-127.9544611024238066
 31
0.0
1001
GRADIENTCOLOR1ACI
1070
     5
1001
GRADIENTCOLOR2ACI
1070
     2
1001
ACAD
1010
0.0
1020
0.0
1030
0.0
1001
ACDBBLOCKREPETAG
1070
     1
1071
      474
1005
128FF7
  0
LINE
  5
128FF8
  8
SLIM
 10
11931.5903319686603936
 20
-250.4491557891954017
 30
0.0
 11
11938.7525935835492419
 21
-243.2868941743114988
 31
0.0
1001
GRADIENTCOLOR1ACI
1070
     5
1001
GRADIENTCOLOR2ACI
1070
     2
1001
ACAD
1010
0.0
1020
0.0
1030
0.0
1001
ACDBBLOCKREPETAG
1070
     1
1071
      475
1005
128FF8
  0
LINE
  5
128FF9
  8
SLIM
 10
12044.0394877578601154
 20
-137.9999999999990905
 30
0.0
 11
12050.4491557891906268
 21
-131.5903319686644863
 31
0.0
1001
GRADIENTCOLOR1ACI
1070
     5
1001
GRADIENTCOLOR2ACI
1070
     2
1001
ACAD
1010
0.0
1020
0.0
1030
0.0
1001
ACDBBLOCKREPETAG
1070
     1
1071
      476
1005
128FF9
  0
LINE
  5
128FFA
  8
SLIM
 10
11935.5737496925194137
 20
-255.4459941864033965
 30
0.0
 11
11942.6672873130501102
 21
-248.3524565658811127
 31
0.0
1001
GRADIENTCOLOR1ACI
1070
     5
1001
GRADIENTCOLOR2ACI
1070
     2
1001
ACAD
1010
0.0
1020
0.0
1030
0.0
1001
ACDBBLOCKREPETAG
1070
     1
1071
      477
1005
128FFA
  0
LINE
  5
128FFB
  8
SLIM
 10
12053.0197438789200532
 20
-137.9999999999990905
 30
0.0
 11
12055.4459941864006396
 21
-135.5737496925256096
 31
0.0
1001
GRADIENTCOLOR1ACI
1070
     5
1001
GRADIENTCOLOR2ACI
1070
     2
1001
ACAD
1010
0.0
1020
0.0
1030
0.0
1001
ACDBBLOCKREPETAG
1070
     1
1071
      478
1005
128FFB
  0
LINE
  5
128FFC
  8
SLIM
 10
11939.8959235991405876
 20
-260.1040764008557176
 30
0.0
 11
11946.9669914110108948
 21
-253.0330085889902136
 31
0.0
1001
GRADIENTCOLOR1ACI
1070
     5
1001
GRADIENTCOLOR2ACI
1070
     2
1001
ACAD
1010
0.0
1020
0.0
1030
0.0
1001
ACDBBLOCKREPETAG
1070
     1
1071
      479
1005
128FFC
  0
LINE
  5
128FFD
  8
SLIM
 10
11944.5540058135902655
 20
-264.4262503074725146
 30
0.0
 11
11951.6475434341191431
 21
-257.3327126869502877
 31
0.0
1001
GRADIENTCOLOR1ACI
1070
     5
1001
GRADIENTCOLOR2ACI
1070
     2
1001
ACAD
1010
0.0
1020
0.0
1030
0.0
1001
ACDBBLOCKREPETAG
1070
     1
1071
      480
1005
128FFD
  0
LINE
  5
128FFE
  8
SLIM
 10
11949.5508442108002782
 20
-268.4096680313336947
 30
0.0
 11
11956.7131058256800316
 21
-261.2474064164496212
 31
0.0
1001
GRADIENTCOLOR1ACI
1070
     5
1001
GRADIENTCOLOR2ACI
1070
     2
1001
ACAD
1010
0.0
1020
0.0
1030
0.0
1001
ACDBBLOCKREPETAG
1070
     1
1071
      481
1005
128FFE
  0
LINE
  5
128FFF
  8
SLIM
 10
11954.8952294656301092
 20
-272.0455388975743745
 30
0.0
 11
11962.17663456236005
 21
-264.7641338008302796
 31
0.0
1001
GRADIENTCOLOR1ACI
1070
     5
1001
GRADIENTCOLOR2ACI
1070
     2
1001
ACAD
1010
0.0
1020
0.0
1030
0.0
1001
ACDBBLOCKREPETAG
1070
     1
1071
      482
1005
128FFF
  0
LINE
  5
129000
  8
SLIM
 10
11960.6026880156205152
 20
-275.318336468654195
 30
0.0
 11
11968.0614140538800712
 21
-267.8596104303812808
 31
0.0
1001
GRADIENTCOLOR1ACI
1070
     5
1001
GRADIENTCOLOR2ACI
1070
     2
1001
ACAD
1010
0.0
1020
0.0
1030
0.0
1001
ACDBBLOCKREPETAG
1070
     1
1071
      483
1005
129000
  0
LINE
  5
129001
  8
SLIM
 10
11966.6969969239598868
 20
-278.2042836813786266
 30
0.0
 11
11974.4041133730406727
 21
-270.4971672323056282
 31
0.0
1001
GRADIENTCOLOR1ACI
1070
     5
1001
GRADIENTCOLOR2ACI
1070
     2
1001
ACAD
1010
0.0
1020
0.0
1030
0.0
1001
ACDBBLOCKREPETAG
1070
     1
1071
      484
1005
129001
  0
LINE
  5
129002
  8
SLIM
 10
11973.2127961327205412
 20
-280.6687405936937125
 30
0.0
 11
11981.2604115344802267
 21
-272.6211251919356187
 31
0.0
1001
GRADIENTCOLOR1ACI
1070
     5
1001
GRADIENTCOLOR2ACI
1070
     2
1001
ACAD
1010
0.0
1020
0.0
1030
0.0
1001
ACDBBLOCKREPETAG
1070
     1
1071
      485
1005
129002
  0
LINE
  5
129003
  8
SLIM
 10
11980.2000585426394537
 20
-282.6617343048454813
 30
0.0
 11
11988.7155742313407245
 21
-274.1462186161347745
 31
0.0
1001
GRADIENTCOLOR1ACI
1070
     5
1001
GRADIENTCOLOR2ACI
1070
     2
1001
ACAD
1010
0.0
1020
0.0
1030
0.0
1001
ACDBBLOCKREPETAG
1070
     1
1071
      486
1005
129003
  0
LINE
  5
129004
  8
SLIM
 10
11987.7320215894196735
 20
-284.1100273791270752
 30
0.0
 11
11996.9058992121408664
 21
-274.9361497564058254
 31
0.0
1001
GRADIENTCOLOR1ACI
1070
     5
1001
GRADIENTCOLOR2ACI
1070
     2
1001
ACAD
1010
0.0
1020
0.0
1030
0.0
1001
ACDBBLOCKREPETAG
1070
     1
1071
      487
1005
129004
  0
LINE
  5
129005
  8
SLIM
 10
11995.9202686470998742
 20
-284.9020364425256844
 30
0.0
 11
12000.0
 21
-280.8223050896215227
 31
0.0
1001
GRADIENTCOLOR1ACI
1070
     5
1001
GRADIENTCOLOR2ACI
1070
     2
1001
ACAD
1010
0.0
1020
0.0
1030
0.0
1001
ACDBBLOCKREPETAG
1070
     1
1071
      488
1005
129005
  0
LINE
  5
129006
  8
SLIM
 10
12000.0
 20
-280.8223050896215227
 30
0.0
 11
12006.0681947514003696
 21
-274.75411033822121
 31
0.0
1001
GRADIENTCOLOR1ACI
1070
     5
1001
GRADIENTCOLOR2ACI
1070
     2
1001
ACAD
1010
0.0
1020
0.0
1030
0.0
1001
ACDBBLOCKREPETAG
1070
     1
1071
      489
1005
129006
  0
LINE
  5
129007
  8
SLIM
 10
12004.9466187997404631
 20
-284.8559424109465112
 30
0.0
 11
12016.6811636672391614
 21
-273.1213975434441181
 31
0.0
1001
GRADIENTCOLOR1ACI
1070
     5
1001
GRADIENTCOLOR2ACI
1070
     2
1001
ACAD
1010
0.0
1020
0.0
1030
0.0
1001
ACDBBLOCKREPETAG
1070
     1
1071
      490
1005
129007
  0
LINE
  5
129008
  8
SLIM
 10
12015.1424853251392051
 20
-283.6403320066211222
 30
0.0
 11
12030.0784920037094707
 21
-268.704325328051425
 31
0.0
1001
GRADIENTCOLOR1ACI
1070
     5
1001
GRADIENTCOLOR2ACI
1070
     2
1001
ACAD
1010
0.0
1020
0.0
1030
0.0
1001
ACDBBLOCKREPETAG
1070
     1
1071
      491
1005
129008
  0
LINE
  5
129009
  8
SLIM
 10
12027.2492255236593337
 20
-280.5138479291617273
 30
0.0
 11
12045.7630734528302128
 21
-261.9999999999990905
 31
0.0
1001
GRADIENTCOLOR1ACI
1070
     5
1001
GRADIENTCOLOR2ACI
1070
     2
1001
ACAD
1010
0.0
1020
0.0
1030
0.0
1001
ACDBBLOCKREPETAG
1070
     1
1071
      492
1005
129009
  0
LINE
  5
12900A
  8
SLIM
 10
12044.0451596304192208
 20
-272.6981699434758184
 30
0.0
 11
12054.7433295738992456
 21
-261.9999999999990905
 31
0.0
1001
GRADIENTCOLOR1ACI
1070
     5
1001
GRADIENTCOLOR2ACI
1070
     2
1001
ACAD
1010
0.0
1020
0.0
1030
0.0
1001
ACDBBLOCKREPETAG
1070
     1
1071
      493
1005
12900A
  0
LINE
  5
12900B
  8
CENTER
 10
12080.0
 20
-199.9999999999990905
 30
0.0
 11
11900.0
 21
-199.9999999999990905
 31
0.0
1001
ACDBBLOCKREPETAG
1070
     1
1071
      187
1005
12900B
  0
LINE
  5
12900C
  8
CENTER
 10
12000.0
 20
-299.9999999999990905
 30
0.0
 11
12000.0
 21
-99.9999999999990763
 31
0.0
1001
ACDBBLOCKREPETAG
1070
     1
1071
      188
1005
12900C
  0
LINE
  5
12900D
  8
OBJECT
 10
12042.2018956920201163
 20
-137.9999999999990905
 30
0.0
 11
12080.0
 21
-137.9999999999990905
 31
0.0
1001
ACDBBLOCKREPETAG
1070
     1
1071
      192
1005
12900D
  0
LINE
  5
12900E
  8
OBJECT
 10
12042.2018956920201163
 20
-261.9999999999990905
 30
0.0
 11
12080.0
 21
-261.9999999999990905
 31
0.0
1001
ACDBBLOCKREPETAG
1070
     1
1071
      193
1005
12900E
  0
ARC
  5
12900F
  8
OBJECT
 10
12000.0
 20
-199.9999999999990905
 30
0.0
 40
85.0
 50
46.8371028598531467
 51
313.1628971401468107
1001
ACDBBLOCKREPETAG
1070
     1
1071
      202
1005
12900F
  0
POINT
  5
129010
  8
DOTS
 10
12000.0
 20
-199.9999999999990905
 30
0.0
 50
270.0
1001
ACDBBLOCKREPETAG
1070
     1
1071
      365
1005
129010
  0
CIRCLE
  5
129011
  8
OBJECT
 10
12000.0
 20
-199.9999999999990905
 30
0.0
 40
63.0
1001
ACDBBLOCKREPETAG
1070
     1
1071
      430
1005
129011
  0
CIRCLE
  5
129012
  8
OBJECT
 10
12000.0
 20
-199.9999999999990905
 30
0.0
 40
75.0
1001
ACDBBLOCKREPETAG
1070
     1
1071
      431
1005
129012
  0
LINE
  5
129013
  8
CENTER
 10
2500.0
 20
-493.7069274696950174
 30
0.0
 11
2500.0
 21
-789.9999999999994316
 31
0.0
1001
ACDBBLOCKREPETAG
1070
     1
1071
       20
1005
129013
  0
LINE
  5
129014
  8
OBJECT
 10
2425.0
 20
-533.9999999999994316
 30
0.0
 11
2425.0
 21
-777.9999999999994316
 31
0.0
1001
ACDBBLOCKREPETAG
1070
     1
1071
       21
1005
129014
  0
LINE
  5
129015
  8
OBJECT
 10
2420.0
 20
-777.9999999999994316
 30
0.0
 11
2580.0
 21
-777.9999999999994316
 31
0.0
1001
ACDBBLOCKREPETAG
1070
     1
1071
       22
1005
129015
  0
LINE
  5
129016
  8
OBJECT
 10
2574.9999999997130544
 20
-533.9999999999994316
 30
0.0
 11
2556.7802782664571168
 21
-533.9999999999994316
 31
0.0
1001
ACDBBLOCKREPETAG
1070
     1
1071
       23
1005
129016
  0
LINE
  5
129017
  8
OBJECT
 10
2443.219721733831193
 20
-533.9999999999994316
 30
0.0
 11
2425.0
 21
-533.9999999999994316
 31
0.0
1001
ACDBBLOCKREPETAG
1070
     1
1071
      140
1005
129017
  0
LINE
  5
129018
  8
OBJECT
 10
2420.0
 20
-777.9999999999994316
 30
0.0
 11
2420.0
 21
-789.9999999999994316
 31
0.0
1001
ACDBBLOCKREPETAG
1070
     1
1071
       24
1005
129018
  0
LINE
  5
129019
  8
OBJECT
 10
2420.0
 20
-789.9999999999994316
 30
0.0
 11
2580.0
 21
-789.9999999999994316
 31
0.0
1001
ACDBBLOCKREPETAG
1070
     1
1071
       25
1005
129019
  0
LINE
  5
12901A
  8
OBJECT
 10
2580.0
 20
-789.9999999999994316
 30
0.0
 11
2580.0
 21
-777.9999999999994316
 31
0.0
1001
ACDBBLOCKREPETAG
1070
     1
1071
       26
1005
12901A
  0
LINE
  5
12901B
  8
OBJECT
 10
2574.9999999997130544
 20
-533.9999999999994316
 30
0.0
 11
2575.0
 21
-777.9999999999994316
 31
0.0
1001
ACDBBLOCKREPETAG
1070
     1
1071
       28
1005
12901B
  0
LINE
  5
12901C
  8
OBJECT
 10
2560.0
 20
-528.9999999999994316
 30
0.0
 11
2552.0480547188358287
 21
-528.9999999999994316
 31
0.0
1001
ACDBBLOCKREPETAG
1070
     1
1071
       29
1005
12901C
  0
LINE
  5
12901D
  8
OBJECT
 10
2447.9519452814511169
 20
-528.9999999999994316
 30
0.0
 11
2440.0
 21
-528.9999999999994316
 31
0.0
1001
ACDBBLOCKREPETAG
1070
     1
1071
      139
1005
12901D
  0
ARC
  5
12901E
  8
OBJECT
 10
2440.0
 20
-531.9999999999994316
 30
0.0
 40
3.0
 50
90.0
 51
180.0
1001
ACDBBLOCKREPETAG
1070
     1
1071
       30
1005
12901E
  0
LINE
  5
12901F
  8
OBJECT
 10
2437.0
 20
-531.9999999999994316
 30
0.0
 11
2437.0
 21
-533.9999999999994316
 31
0.0
1001
ACDBBLOCKREPETAG
1070
     1
1071
       31
1005
12901F
  0
LINE
  5
129020
  8
OBJECT
 10
2563.0
 20
-531.9999999999994316
 30
0.0
 11
2563.0
 21
-533.9999999999994316
 31
0.0
1001
ACDBBLOCKREPETAG
1070
     1
1071
       32
1005
129020
  0
ARC
  5
129021
  8
OBJECT
 10
2560.0
 20
-531.9999999999994316
 30
0.0
 40
3.0
 50
0.0
 51
90.0
1001
ACDBBLOCKREPETAG
1070
     1
1071
       33
1005
129021
  0
POINT
  5
129022
  8
DOTS
 10
2500.0
 20
-654.9999999999994316
 30
0.0
1001
ACDBBLOCKREPETAG
1070
     1
1071
      136
1005
129022
  0
LINE
  5
129023
  8
CENTER
 10
2410.0
 20
-583.0
 30
0.0
 11
2590.0
 21
-583.0
 31
0.0
1001
ACDBBLOCKREPETAG
1070
     1
1071
       23
1005
129023
  0
CIRCLE
  5
129024
  8
OBJECT
 10
2500.0
 20
-583.0
 30
0.0
 40
53.5
1001
ACDBBLOCKREPETAG
1070
     1
1071
       24
1005
129024
  0
CIRCLE
  5
129025
  8
OBJECT
 10
2500.0
 20
-583.0
 30
0.0
 40
67.0
1001
ACDBBLOCKREPETAG
1070
     1
1071
       25
1005
129025
  0
ARC
  5
129026
  8
OBJECT
 10
2500.0
 20
-583.0
 30
0.0
 40
75.0
 50
286.2602047082418153
 51
253.7397952917582131
1001
ACDBBLOCKREPETAG
1070
     1
1071
       27
1005
129026
  0
LINE
  5
129027
  8
OBJECT
 10
2479.0
 20
-655.0
 30
0.0
 11
2521.0
 21
-655.0
 31
0.0
1001
ACDBBLOCKREPETAG
1070
     1
1071
       28
1005
129027
  0
LINE
  5
129028
  8
CENTER
 10
4500.0
 20
-493.7069274696950174
 30
0.0
 11
4500.0
 21
-789.9999999999994316
 31
0.0
1001
ACDBBLOCKREPETAG
1070
     1
1071
       20
1005
129028
  0
LINE
  5
129029
  8
OBJECT
 10
4425.0
 20
-533.9999999999994316
 30
0.0
 11
4425.0
 21
-777.9999999999994316
 31
0.0
1001
ACDBBLOCKREPETAG
1070
     1
1071
       21
1005
129029
  0
LINE
  5
12902A
  8
OBJECT
 10
4420.0
 20
-777.9999999999994316
 30
0.0
 11
4580.0
 21
-777.9999999999994316
 31
0.0
1001
ACDBBLOCKREPETAG
1070
     1
1071
       22
1005
12902A
  0
LINE
  5
12902B
  8
OBJECT
 10
4574.9999999997125997
 20
-533.9999999999994316
 30
0.0
 11
4556.7802782664548431
 21
-533.9999999999994316
 31
0.0
1001
ACDBBLOCKREPETAG
1070
     1
1071
       23
1005
12902B
  0
LINE
  5
12902C
  8
OBJECT
 10
4443.2197217338298287
 20
-533.9999999999994316
 30
0.0
 11
4425.0
 21
-533.9999999999994316
 31
0.0
1001
ACDBBLOCKREPETAG
1070
     1
1071
      140
1005
12902C
  0
LINE
  5
12902D
  8
OBJECT
 10
4420.0
 20
-777.9999999999994316
 30
0.0
 11
4420.0
 21
-789.9999999999994316
 31
0.0
1001
ACDBBLOCKREPETAG
1070
     1
1071
       24
1005
12902D
  0
LINE
  5
12902E
  8
OBJECT
 10
4420.0
 20
-789.9999999999994316
 30
0.0
 11
4580.0
 21
-789.9999999999994316
 31
0.0
1001
ACDBBLOCKREPETAG
1070
     1
1071
       25
1005
12902E
  0
LINE
  5
12902F
  8
OBJECT
 10
4580.0
 20
-789.9999999999994316
 30
0.0
 11
4580.0
 21
-777.9999999999994316
 31
0.0
1001
ACDBBLOCKREPETAG
1070
     1
1071
       26
1005
12902F
  0
LINE
  5
129030
  8
OBJECT
 10
4574.9999999997125997
 20
-533.9999999999994316
 30
0.0
 11
4575.0
 21
-777.9999999999994316
 31
0.0
1001
ACDBBLOCKREPETAG
1070
     1
1071
       28
1005
129030
  0
LINE
  5
129031
  8
OBJECT
 10
4560.0
 20
-528.9999999999994316
 30
0.0
 11
4552.0480547188353739
 21
-528.9999999999994316
 31
0.0
1001
ACDBBLOCKREPETAG
1070
     1
1071
       29
1005
129031
  0
LINE
  5
129032
  8
OBJECT
 10
4447.9519452814511169
 20
-528.9999999999994316
 30
0.0
 11
4440.0
 21
-528.9999999999994316
 31
0.0
1001
ACDBBLOCKREPETAG
1070
     1
1071
      139
1005
129032
  0
ARC
  5
129033
  8
OBJECT
 10
4440.0
 20
-531.9999999999994316
 30
0.0
 40
3.0
 50
90.0
 51
180.0
1001
ACDBBLOCKREPETAG
1070
     1
1071
       30
1005
129033
  0
LINE
  5
129034
  8
OBJECT
 10
4437.0
 20
-531.9999999999994316
 30
0.0
 11
4437.0
 21
-533.9999999999994316
 31
0.0
1001
ACDBBLOCKREPETAG
1070
     1
1071
       31
1005
129034
  0
LINE
  5
129035
  8
OBJECT
 10
4563.0
 20
-531.9999999999994316
 30
0.0
 11
4563.0
 21
-533.9999999999994316
 31
0.0
1001
ACDBBLOCKREPETAG
1070
     1
1071
       32
1005
129035
  0
ARC
  5
129036
  8
OBJECT
 10
4560.0
 20
-531.9999999999994316
 30
0.0
 40
3.0
 50
0.0
 51
90.0
1001
ACDBBLOCKREPETAG
1070
     1
1071
       33
1005
129036
  0
POINT
  5
129037
  8
DOTS
 10
4500.0
 20
-654.9999999999994316
 30
0.0
1001
ACDBBLOCKREPETAG
1070
     1
1071
      136
1005
129037
  0
LINE
  5
129038
  8
CENTER
 10
4410.0
 20
-583.0
 30
0.0
 11
4590.0
 21
-583.0
 31
0.0
1001
ACDBBLOCKREPETAG
1070
     1
1071
       23
1005
129038
  0
CIRCLE
  5
129039
  8
OBJECT
 10
4500.0
 20
-583.0
 30
0.0
 40
53.5
1001
ACDBBLOCKREPETAG
1070
     1
1071
       24
1005
129039
  0
CIRCLE
  5
12903A
  8
OBJECT
 10
4500.0
 20
-583.0
 30
0.0
 40
67.0
1001
ACDBBLOCKREPETAG
1070
     1
1071
       25
1005
12903A
  0
ARC
  5
12903B
  8
OBJECT
 10
4500.0
 20
-583.0
 30
0.0
 40
75.0
 50
286.2602047082418153
 51
253.7397952917582131
1001
ACDBBLOCKREPETAG
1070
     1
1071
       27
1005
12903B
  0
LINE
  5
12903C
  8
OBJECT
 10
4479.0
 20
-655.0
 30
0.0
 11
4521.0
 21
-655.0
 31
0.0
1001
ACDBBLOCKREPETAG
1070
     1
1071
       28
1005
12903C
  0
LINE
  5
12903D
  8
CENTER
 10
6410.0
 20
-583.0
 30
0.0
 11
6590.0
 21
-583.0
 31
0.0
1001
ACDBBLOCKREPETAG
1070
     1
1071
       23
1005
12903D
  0
CIRCLE
  5
12903E
  8
OBJECT
 10
6500.0
 20
-583.0
 30
0.0
 40
53.5
1001
ACDBBLOCKREPETAG
1070
     1
1071
       24
1005
12903E
  0
CIRCLE
  5
12903F
  8
OBJECT
 10
6500.0
 20
-583.0
 30
0.0
 40
67.0
1001
ACDBBLOCKREPETAG
1070
     1
1071
       25
1005
12903F
  0
ARC
  5
129040
  8
OBJECT
 10
6500.0
 20
-583.0
 30
0.0
 40
75.0
 50
286.2602047082418153
 51
253.7397952917582131
1001
ACDBBLOCKREPETAG
1070
     1
1071
       27
1005
129040
  0
LINE
  5
129041
  8
OBJECT
 10
6479.0
 20
-655.0
 30
0.0
 11
6521.0
 21
-655.0
 31
0.0
1001
ACDBBLOCKREPETAG
1070
     1
1071
       28
1005
129041
  0
LINE
  5
129042
  8
CENTER
 10
6500.0
 20
-493.7069274696950174
 30
0.0
 11
6500.0
 21
-789.9999999999994316
 31
0.0
1001
ACDBBLOCKREPETAG
1070
     1
1071
       20
1005
129042
  0
LINE
  5
129043
  8
OBJECT
 10
6425.0
 20
-533.9999999999994316
 30
0.0
 11
6425.0
 21
-777.9999999999994316
 31
0.0
1001
ACDBBLOCKREPETAG
1070
     1
1071
       21
1005
129043
  0
LINE
  5
129044
  8
OBJECT
 10
6420.0
 20
-777.9999999999994316
 30
0.0
 11
6580.0
 21
-777.9999999999994316
 31
0.0
1001
ACDBBLOCKREPETAG
1070
     1
1071
       22
1005
129044
  0
LINE
  5
129045
  8
OBJECT
 10
6574.9999999997125997
 20
-533.9999999999994316
 30
0.0
 11
6556.7802782664548431
 21
-533.9999999999994316
 31
0.0
1001
ACDBBLOCKREPETAG
1070
     1
1071
       23
1005
129045
  0
LINE
  5
129046
  8
OBJECT
 10
6443.2197217338307382
 20
-533.9999999999994316
 30
0.0
 11
6425.0
 21
-533.9999999999994316
 31
0.0
1001
ACDBBLOCKREPETAG
1070
     1
1071
      140
1005
129046
  0
LINE
  5
129047
  8
OBJECT
 10
6420.0
 20
-777.9999999999994316
 30
0.0
 11
6420.0
 21
-789.9999999999994316
 31
0.0
1001
ACDBBLOCKREPETAG
1070
     1
1071
       24
1005
129047
  0
LINE
  5
129048
  8
OBJECT
 10
6420.0
 20
-789.9999999999994316
 30
0.0
 11
6580.0
 21
-789.9999999999994316
 31
0.0
1001
ACDBBLOCKREPETAG
1070
     1
1071
       25
1005
129048
  0
LINE
  5
129049
  8
OBJECT
 10
6580.0
 20
-789.9999999999994316
 30
0.0
 11
6580.0
 21
-777.9999999999994316
 31
0.0
1001
ACDBBLOCKREPETAG
1070
     1
1071
       26
1005
129049
  0
LINE
  5
12904A
  8
OBJECT
 10
6574.9999999997125997
 20
-533.9999999999994316
 30
0.0
 11
6575.0
 21
-777.9999999999994316
 31
0.0
1001
ACDBBLOCKREPETAG
1070
     1
1071
       28
1005
12904A
  0
LINE
  5
12904B
  8
OBJECT
 10
6560.0
 20
-528.9999999999994316
 30
0.0
 11
6552.0480547188335549
 21
-528.9999999999994316
 31
0.0
1001
ACDBBLOCKREPETAG
1070
     1
1071
       29
1005
12904B
  0
LINE
  5
12904C
  8
OBJECT
 10
6447.9519452814511169
 20
-528.9999999999994316
 30
0.0
 11
6440.0
 21
-528.9999999999994316
 31
0.0
1001
ACDBBLOCKREPETAG
1070
     1
1071
      139
1005
12904C
  0
ARC
  5
12904D
  8
OBJECT
 10
6440.0
 20
-531.9999999999994316
 30
0.0
 40
3.0
 50
90.0
 51
180.0
1001
ACDBBLOCKREPETAG
1070
     1
1071
       30
1005
12904D
  0
LINE
  5
12904E
  8
OBJECT
 10
6437.0
 20
-531.9999999999994316
 30
0.0
 11
6437.0
 21
-533.9999999999994316
 31
0.0
1001
ACDBBLOCKREPETAG
1070
     1
1071
       31
1005
12904E
  0
LINE
  5
12904F
  8
OBJECT
 10
6563.0
 20
-531.9999999999994316
 30
0.0
 11
6563.0
 21
-533.9999999999994316
 31
0.0
1001
ACDBBLOCKREPETAG
1070
     1
1071
       32
1005
12904F
  0
ARC
  5
129050
  8
OBJECT
 10
6560.0
 20
-531.9999999999994316
 30
0.0
 40
3.0
 50
0.0
 51
90.0
1001
ACDBBLOCKREPETAG
1070
     1
1071
       33
1005
129050
  0
POINT
  5
129051
  8
DOTS
 10
6500.0
 20
-654.9999999999994316
 30
0.0
1001
ACDBBLOCKREPETAG
1070
     1
1071
      136
1005
129051
  0
LINE
  5
129052
  8
CENTER
 10
8500.0
 20
-493.7069274696950174
 30
0.0
 11
8500.0
 21
-789.9999999999994316
 31
0.0
1001
ACDBBLOCKREPETAG
1070
     1
1071
       20
1005
129052
  0
LINE
  5
129053
  8
OBJECT
 10
8425.0
 20
-533.9999999999994316
 30
0.0
 11
8425.0
 21
-777.9999999999994316
 31
0.0
1001
ACDBBLOCKREPETAG
1070
     1
1071
       21
1005
129053
  0
LINE
  5
129054
  8
OBJECT
 10
8420.0
 20
-777.9999999999994316
 30
0.0
 11
8580.0
 21
-777.9999999999994316
 31
0.0
1001
ACDBBLOCKREPETAG
1070
     1
1071
       22
1005
129054
  0
LINE
  5
129055
  8
OBJECT
 10
8574.9999999997107807
 20
-533.9999999999994316
 30
0.0
 11
8556.7802782664548431
 21
-533.9999999999994316
 31
0.0
1001
ACDBBLOCKREPETAG
1070
     1
1071
       23
1005
129055
  0
LINE
  5
129056
  8
OBJECT
 10
8443.2197217338307382
 20
-533.9999999999994316
 30
0.0
 11
8425.0
 21
-533.9999999999994316
 31
0.0
1001
ACDBBLOCKREPETAG
1070
     1
1071
      140
1005
129056
  0
LINE
  5
129057
  8
OBJECT
 10
8420.0
 20
-777.9999999999994316
 30
0.0
 11
8420.0
 21
-789.9999999999994316
 31
0.0
1001
ACDBBLOCKREPETAG
1070
     1
1071
       24
1005
129057
  0
LINE
  5
129058
  8
OBJECT
 10
8420.0
 20
-789.9999999999994316
 30
0.0
 11
8580.0
 21
-789.9999999999994316
 31
0.0
1001
ACDBBLOCKREPETAG
1070
     1
1071
       25
1005
129058
  0
LINE
  5
129059
  8
OBJECT
 10
8580.0
 20
-789.9999999999994316
 30
0.0
 11
8580.0
 21
-777.9999999999994316
 31
0.0
1001
ACDBBLOCKREPETAG
1070
     1
1071
       26
1005
129059
  0
LINE
  5
12905A
  8
OBJECT
 10
8574.9999999997107807
 20
-533.9999999999994316
 30
0.0
 11
8575.0
 21
-777.9999999999994316
 31
0.0
1001
ACDBBLOCKREPETAG
1070
     1
1071
       28
1005
12905A
  0
LINE
  5
12905B
  8
OBJECT
 10
8560.0
 20
-528.9999999999994316
 30
0.0
 11
8552.0480547188344644
 21
-528.9999999999994316
 31
0.0
1001
ACDBBLOCKREPETAG
1070
     1
1071
       29
1005
12905B
  0
LINE
  5
12905C
  8
OBJECT
 10
8447.9519452814511169
 20
-528.9999999999994316
 30
0.0
 11
8440.0
 21
-528.9999999999994316
 31
0.0
1001
ACDBBLOCKREPETAG
1070
     1
1071
      139
1005
12905C
  0
ARC
  5
12905D
  8
OBJECT
 10
8440.0
 20
-531.9999999999994316
 30
0.0
 40
3.0
 50
90.0
 51
180.0
1001
ACDBBLOCKREPETAG
1070
     1
1071
       30
1005
12905D
  0
LINE
  5
12905E
  8
OBJECT
 10
8437.0
 20
-531.9999999999994316
 30
0.0
 11
8437.0
 21
-533.9999999999994316
 31
0.0
1001
ACDBBLOCKREPETAG
1070
     1
1071
       31
1005
12905E
  0
LINE
  5
12905F
  8
OBJECT
 10
8563.0
 20
-531.9999999999994316
 30
0.0
 11
8563.0
 21
-533.9999999999994316
 31
0.0
1001
ACDBBLOCKREPETAG
1070
     1
1071
       32
1005
12905F
  0
ARC
  5
129060
  8
OBJECT
 10
8560.0
 20
-531.9999999999994316
 30
0.0
 40
3.0
 50
0.0
 51
90.0
1001
ACDBBLOCKREPETAG
1070
     1
1071
       33
1005
129060
  0
POINT
  5
129061
  8
DOTS
 10
8500.0
 20
-654.9999999999994316
 30
0.0
1001
ACDBBLOCKREPETAG
1070
     1
1071
      136
1005
129061
  0
LINE
  5
129062
  8
CENTER
 10
8410.0
 20
-583.0
 30
0.0
 11
8590.0
 21
-583.0
 31
0.0
1001
ACDBBLOCKREPETAG
1070
     1
1071
       23
1005
129062
  0
CIRCLE
  5
129063
  8
OBJECT
 10
8500.0
 20
-583.0
 30
0.0
 40
53.5
1001
ACDBBLOCKREPETAG
1070
     1
1071
       24
1005
129063
  0
CIRCLE
  5
129064
  8
OBJECT
 10
8500.0
 20
-583.0
 30
0.0
 40
67.0
1001
ACDBBLOCKREPETAG
1070
     1
1071
       25
1005
129064
  0
ARC
  5
129065
  8
OBJECT
 10
8500.0
 20
-583.0
 30
0.0
 40
75.0
 50
286.2602047082418153
 51
253.7397952917582131
1001
ACDBBLOCKREPETAG
1070
     1
1071
       27
1005
129065
  0
LINE
  5
129066
  8
OBJECT
 10
8479.0
 20
-655.0
 30
0.0
 11
8521.0
 21
-655.0
 31
0.0
1001
ACDBBLOCKREPETAG
1070
     1
1071
       28
1005
129066
  0
LINE
  5
129067
  8
CENTER
 10
10500.0
 20
-493.7069274696950174
 30
0.0
 11
10500.0
 21
-789.9999999999994316
 31
0.0
1001
ACDBBLOCKREPETAG
1070
     1
1071
       20
1005
129067
  0
LINE
  5
129068
  8
OBJECT
 10
10425.0
 20
-533.9999999999994316
 30
0.0
 11
10425.0
 21
-777.9999999999994316
 31
0.0
1001
ACDBBLOCKREPETAG
1070
     1
1071
       21
1005
129068
  0
LINE
  5
129069
  8
OBJECT
 10
10420.0
 20
-777.9999999999994316
 30
0.0
 11
10580.0
 21
-777.9999999999994316
 31
0.0
1001
ACDBBLOCKREPETAG
1070
     1
1071
       22
1005
129069
  0
LINE
  5
12906A
  8
OBJECT
 10
10574.9999999997107807
 20
-533.9999999999994316
 30
0.0
 11
10556.7802782664493861
 21
-533.9999999999994316
 31
0.0
1001
ACDBBLOCKREPETAG
1070
     1
1071
       23
1005
12906A
  0
LINE
  5
12906B
  8
OBJECT
 10
10443.2197217338307382
 20
-533.9999999999994316
 30
0.0
 11
10425.0
 21
-533.9999999999994316
 31
0.0
1001
ACDBBLOCKREPETAG
1070
     1
1071
      140
1005
12906B
  0
LINE
  5
12906C
  8
OBJECT
 10
10420.0
 20
-777.9999999999994316
 30
0.0
 11
10420.0
 21
-789.9999999999994316
 31
0.0
1001
ACDBBLOCKREPETAG
1070
     1
1071
       24
1005
12906C
  0
LINE
  5
12906D
  8
OBJECT
 10
10420.0
 20
-789.9999999999994316
 30
0.0
 11
10580.0
 21
-789.9999999999994316
 31
0.0
1001
ACDBBLOCKREPETAG
1070
     1
1071
       25
1005
12906D
  0
LINE
  5
12906E
  8
OBJECT
 10
10580.0
 20
-789.9999999999994316
 30
0.0
 11
10580.0
 21
-777.9999999999994316
 31
0.0
1001
ACDBBLOCKREPETAG
1070
     1
1071
       26
1005
12906E
  0
LINE
  5
12906F
  8
OBJECT
 10
10574.9999999997107807
 20
-533.9999999999994316
 30
0.0
 11
10575.0
 21
-777.9999999999994316
 31
0.0
1001
ACDBBLOCKREPETAG
1070
     1
1071
       28
1005
12906F
  0
LINE
  5
129070
  8
OBJECT
 10
10560.0
 20
-528.9999999999994316
 30
0.0
 11
10552.0480547188308265
 21
-528.9999999999994316
 31
0.0
1001
ACDBBLOCKREPETAG
1070
     1
1071
       29
1005
129070
  0
LINE
  5
129071
  8
OBJECT
 10
10447.9519452814492979
 20
-528.9999999999994316
 30
0.0
 11
10440.0
 21
-528.9999999999994316
 31
0.0
1001
ACDBBLOCKREPETAG
1070
     1
1071
      139
1005
129071
  0
ARC
  5
129072
  8
OBJECT
 10
10440.0
 20
-531.9999999999994316
 30
0.0
 40
3.0
 50
90.0
 51
180.0
1001
ACDBBLOCKREPETAG
1070
     1
1071
       30
1005
129072
  0
LINE
  5
129073
  8
OBJECT
 10
10437.0
 20
-531.9999999999994316
 30
0.0
 11
10437.0
 21
-533.9999999999994316
 31
0.0
1001
ACDBBLOCKREPETAG
1070
     1
1071
       31
1005
129073
  0
LINE
  5
129074
  8
OBJECT
 10
10563.0
 20
-531.9999999999994316
 30
0.0
 11
10563.0
 21
-533.9999999999994316
 31
0.0
1001
ACDBBLOCKREPETAG
1070
     1
1071
       32
1005
129074
  0
ARC
  5
129075
  8
OBJECT
 10
10560.0
 20
-531.9999999999994316
 30
0.0
 40
3.0
 50
0.0
 51
90.0
1001
ACDBBLOCKREPETAG
1070
     1
1071
       33
1005
129075
  0
POINT
  5
129076
  8
DOTS
 10
10500.0
 20
-654.9999999999994316
 30
0.0
1001
ACDBBLOCKREPETAG
1070
     1
1071
      136
1005
129076
  0
LINE
  5
129077
  8
CENTER
 10
10410.0
 20
-583.0
 30
0.0
 11
10590.0
 21
-583.0
 31
0.0
1001
ACDBBLOCKREPETAG
1070
     1
1071
       23
1005
129077
  0
CIRCLE
  5
129078
  8
OBJECT
 10
10500.0
 20
-583.0
 30
0.0
 40
53.5
1001
ACDBBLOCKREPETAG
1070
     1
1071
       24
1005
129078
  0
CIRCLE
  5
129079
  8
OBJECT
 10
10500.0
 20
-583.0
 30
0.0
 40
67.0
1001
ACDBBLOCKREPETAG
1070
     1
1071
       25
1005
129079
  0
ARC
  5
12907A
  8
OBJECT
 10
10500.0
 20
-583.0
 30
0.0
 40
75.0
 50
286.2602047082418153
 51
253.7397952917582131
1001
ACDBBLOCKREPETAG
1070
     1
1071
       27
1005
12907A
  0
LINE
  5
12907B
  8
OBJECT
 10
10479.0
 20
-655.0
 30
0.0
 11
10521.0
 21
-655.0
 31
0.0
1001
ACDBBLOCKREPETAG
1070
     1
1071
       28
1005
12907B
  0
LINE
  5
12907C
  8
CENTER
 10
12500.0
 20
-493.7069274696950174
 30
0.0
 11
12500.0
 21
-789.9999999999994316
 31
0.0
1001
ACDBBLOCKREPETAG
1070
     1
1071
       20
1005
12907C
  0
LINE
  5
12907D
  8
OBJECT
 10
12425.0
 20
-533.9999999999994316
 30
0.0
 11
12425.0
 21
-777.9999999999994316
 31
0.0
1001
ACDBBLOCKREPETAG
1070
     1
1071
       21
1005
12907D
  0
LINE
  5
12907E
  8
OBJECT
 10
12420.0
 20
-777.9999999999994316
 30
0.0
 11
12580.0
 21
-777.9999999999994316
 31
0.0
1001
ACDBBLOCKREPETAG
1070
     1
1071
       22
1005
12907E
  0
LINE
  5
12907F
  8
OBJECT
 10
12574.9999999997107807
 20
-533.9999999999994316
 30
0.0
 11
12556.7802782664493861
 21
-533.9999999999994316
 31
0.0
1001
ACDBBLOCKREPETAG
1070
     1
1071
       23
1005
12907F
  0
LINE
  5
129080
  8
OBJECT
 10
12443.2197217338307382
 20
-533.9999999999994316
 30
0.0
 11
12425.0
 21
-533.9999999999994316
 31
0.0
1001
ACDBBLOCKREPETAG
1070
     1
1071
      140
1005
129080
  0
LINE
  5
129081
  8
OBJECT
 10
12420.0
 20
-777.9999999999994316
 30
0.0
 11
12420.0
 21
-789.9999999999994316
 31
0.0
1001
ACDBBLOCKREPETAG
1070
     1
1071
       24
1005
129081
  0
LINE
  5
129082
  8
OBJECT
 10
12420.0
 20
-789.9999999999994316
 30
0.0
 11
12580.0
 21
-789.9999999999994316
 31
0.0
1001
ACDBBLOCKREPETAG
1070
     1
1071
       25
1005
129082
  0
LINE
  5
129083
  8
OBJECT
 10
12580.0
 20
-789.9999999999994316
 30
0.0
 11
12580.0
 21
-777.9999999999994316
 31
0.0
1001
ACDBBLOCKREPETAG
1070
     1
1071
       26
1005
129083
  0
LINE
  5
129084
  8
OBJECT
 10
12574.9999999997107807
 20
-533.9999999999994316
 30
0.0
 11
12575.0
 21
-777.9999999999994316
 31
0.0
1001
ACDBBLOCKREPETAG
1070
     1
1071
       28
1005
129084
  0
LINE
  5
129085
  8
OBJECT
 10
12560.0
 20
-528.9999999999994316
 30
0.0
 11
12552.0480547188308265
 21
-528.9999999999994316
 31
0.0
1001
ACDBBLOCKREPETAG
1070
     1
1071
       29
1005
129085
  0
LINE
  5
129086
  8
OBJECT
 10
12447.9519452814492979
 20
-528.9999999999994316
 30
0.0
 11
12440.0
 21
-528.9999999999994316
 31
0.0
1001
ACDBBLOCKREPETAG
1070
     1
1071
      139
1005
129086
  0
ARC
  5
129087
  8
OBJECT
 10
12440.0
 20
-531.9999999999994316
 30
0.0
 40
3.0
 50
90.0
 51
180.0
1001
ACDBBLOCKREPETAG
1070
     1
1071
       30
1005
129087
  0
LINE
  5
129088
  8
OBJECT
 10
12437.0
 20
-531.9999999999994316
 30
0.0
 11
12437.0
 21
-533.9999999999994316
 31
0.0
1001
ACDBBLOCKREPETAG
1070
     1
1071
       31
1005
129088
  0
LINE
  5
129089
  8
OBJECT
 10
12563.0
 20
-531.9999999999994316
 30
0.0
 11
12563.0
 21
-533.9999999999994316
 31
0.0
1001
ACDBBLOCKREPETAG
1070
     1
1071
       32
1005
129089
  0
ARC
  5
12908A
  8
OBJECT
 10
12560.0
 20
-531.9999999999994316
 30
0.0
 40
3.0
 50
0.0
 51
90.0
1001
ACDBBLOCKREPETAG
1070
     1
1071
       33
1005
12908A
  0
POINT
  5
12908B
  8
DOTS
 10
12500.0
 20
-654.9999999999994316
 30
0.0
1001
ACDBBLOCKREPETAG
1070
     1
1071
      136
1005
12908B
  0
LINE
  5
12908C
  8
CENTER
 10
12410.0
 20
-583.0
 30
0.0
 11
12590.0
 21
-583.0
 31
0.0
1001
ACDBBLOCKREPETAG
1070
     1
1071
       23
1005
12908C
  0
CIRCLE
  5
12908D
  8
OBJECT
 10
12500.0
 20
-583.0
 30
0.0
 40
53.5
1001
ACDBBLOCKREPETAG
1070
     1
1071
       24
1005
12908D
  0
CIRCLE
  5
12908E
  8
OBJECT
 10
12500.0
 20
-583.0
 30
0.0
 40
67.0
1001
ACDBBLOCKREPETAG
1070
     1
1071
       25
1005
12908E
  0
ARC
  5
12908F
  8
OBJECT
 10
12500.0
 20
-583.0
 30
0.0
 40
75.0
 50
286.2602047082418153
 51
253.7397952917582131
1001
ACDBBLOCKREPETAG
1070
     1
1071
       27
1005
12908F
  0
LINE
  5
129090
  8
OBJECT
 10
12479.0
 20
-655.0
 30
0.0
 11
12521.0
 21
-655.0
 31
0.0
1001
ACDBBLOCKREPETAG
1070
     1
1071
       28
1005
129090
  0
VIEWPORT
  5
F6BA7
 67
     1
  8
0
 10
195.9179030619629032
 20
101.8328354358671959
 30
0.0
 40
435.4334795152227002
 41
222.3272118936548907
 68
     1
 69
     1
1001
ACAD
1000
MVIEW
1002
{
1070
    16
1010
0.0
1020
0.0
1030
0.0
1010
0.0
1020
0.0
1030
1.0
1040
0.0
1040
222.3272118936548907
1040
195.9179030619629032
1040
101.8328354358671959
1040
50.0
1040
0.0
1040
0.0
1070
     0
1070
     0
1070
     1
1070
     1
1070
     0
1070
     0
1070
     0
1070
     0
1040
0.0
1040
0.0
1040
0.0
1040
10.0
1040
10.0
1040
10.0
1040
10.0
1070
     0
1002
{
1002
}
1002
}
  0
VIEWPORT
  5
F6BA9
 67
     1
  8
OBJECT
 10
145.3303314447402954
 20
101.8328338861465028
 30
0.0
 40
232.5285303115844044
 41
162.9325342178343021
 68
     2
 69
     2
1001
ACAD
1000
MVIEW
1002
{
1070
    16
1010
0.0
1020
0.0
1030
0.0
1010
0.0
1020
0.0
1030
1.0
1040
0.0
1040
25942.5590440314699663
1040
2377.6044570773769919
1040
-7591.5176687056618903
1040
50.0
1040
0.0
1040
0.0
1070
     0
1070
   600
1070
     1
1070
     1
1070
     0
1070
     0
1070
     0
1070
     0
1040
0.0
1040
0.0
1040
0.0
1040
1.0
1040
1.0
1040
0.0
1040
0.0
1070
     0
1002
{
1002
}
1002
}
  0
ENDSEC
  0
EOF
