  0
SECTION
  2
HEADER
  9
$ACADVER
  1
AC1009
  9
$INSBASE
 10
0.0
 20
0.0
 30
0.0
  9
$EXTMIN
 10
0.0
 20
-4102.4999999999972715
 30
0.0
  9
$EXTMAX
 10
12399.7000000000098225
 20
770.0
 30
0.0
  9
$LIMMIN
 10
0.0
 20
0.0
  9
$LIMMAX
 10
210.0
 20
297.0
  9
$ORTHOMODE
 70
     0
  9
$REGENMODE
 70
     1
  9
$FILLMODE
 70
     1
  9
$QTEXTMODE
 70
     0
  9
$MIRRTEXT
 70
     0
  9
$DRAGMODE
 70
     2
  9
$LTSCALE
 40
1.0
  9
$OSMODE
 70
  2557
  9
$ATTMODE
 70
     1
  9
$TEXTSIZE
 40
4.0
  9
$TRACEWID
 40
0.05
  9
$TEXTSTYLE
  7
STANDARD
  9
$CLAYER
  8
0
  9
$CELTYPE
  6
BYLAYER
  9
$CECOLOR
 62
   256
  9
$DIMSCALE
 40
10.0
  9
$DIMASZ
 40
2.0
  9
$DIMEXO
 40
1.0
  9
$DIMDLI
 40
10.0
  9
$DIMRND
 40
0.0
  9
$DIMDLE
 40
0.0
  9
$DIMEXE
 40
1.0
  9
$DIMTP
 40
0.0
  9
$DIMTM
 40
0.0
  9
$DIMTXT
 40
3.2000000000000002
  9
$DIMCEN
 40
0.0
  9
$DIMTSZ
 40
0.0
  9
$DIMTOL
 70
     0
  9
$DIMLIM
 70
     0
  9
$DIMTIH
 70
     0
  9
$DIMTOH
 70
     0
  9
$DIMSE1
 70
     0
  9
$DIMSE2
 70
     0
  9
$DIMTAD
 70
     1
  9
$DIMZIN
 70
     8
  9
$DIMBLK
  1
OPEN30
  9
$DIMASO
 70
     1
  9
$DIMSHO
 70
     1
  9
$DIMPOST
  1

  9
$DIMAPOST
  1

  9
$DIMALT
 70
     0
  9
$DIMALTD
 70
     2
  9
$DIMALTF
 40
25.3999999999999986
  9
$DIMLFAC
 40
1.0
  9
$DIMTOFL
 70
     1
  9
$DIMTVP
 40
0.0
  9
$DIMTIX
 70
     0
  9
$DIMSOXD
 70
     0
  9
$DIMSAH
 70
     0
  9
$DIMBLK1
  1

  9
$DIMBLK2
  1

  9
$DIMSTYLE
  2
S10
  9
$DIMCLRD
 70
   256
  9
$DIMCLRE
 70
   256
  9
$DIMCLRT
 70
   256
  9
$DIMTFAC
 40
1.0
  9
$DIMGAP
 40
0.9
  9
$LUNITS
 70
     2
  9
$LUPREC
 70
     2
  9
$SKETCHINC
 40
0.1
  9
$FILLETRAD
 40
0.0
  9
$AUNITS
 70
     0
  9
$AUPREC
 70
     2
  9
$MENU
  1
ACAD
  9
$ELEVATION
 40
0.0
  9
$PELEVATION
 40
0.0
  9
$THICKNESS
 40
0.0
  9
$LIMCHECK
 70
     0
  9
$BLIPMODE
 70
     0
  9
$CHAMFERA
 40
2.0
  9
$CHAMFERB
 40
2.0
  9
$SKPOLY
 70
     0
  9
$TDCREATE
 40
2453095.4929398149251938
  9
$TDUPDATE
 40
2459433.6159722218289971
  9
$TDINDWG
 40
22.0277568519000013
  9
$TDUSRTIMER
 40
22.0277563078999989
  9
$USRTIMER
 70
     1
  9
$ANGBASE
 50
0.0
  9
$ANGDIR
 70
     0
  9
$PDMODE
 70
    35
  9
$PDSIZE
 40
2.0
  9
$PLINEWID
 40
0.0
  9
$COORDS
 70
     1
  9
$SPLFRAME
 70
     0
  9
$SPLINETYPE
 70
     6
  9
$SPLINESEGS
 70
     8
  9
$ATTDIA
 70
     1
  9
$ATTREQ
 70
     1
  9
$HANDLING
 70
     1
  9
$HANDSEED
  5
1481E0
  9
$SURFTAB1
 70
     6
  9
$SURFTAB2
 70
     6
  9
$SURFTYPE
 70
     6
  9
$SURFU
 70
     6
  9
$SURFV
 70
     6
  9
$UCSNAME
  2

  9
$UCSORG
 10
0.0
 20
0.0
 30
0.0
  9
$UCSXDIR
 10
1.0
 20
0.0
 30
0.0
  9
$UCSYDIR
 10
0.0
 20
1.0
 30
0.0
  9
$PUCSNAME
  2

  9
$PUCSORG
 10
0.0
 20
0.0
 30
0.0
  9
$PUCSXDIR
 10
1.0
 20
0.0
 30
0.0
  9
$PUCSYDIR
 10
0.0
 20
1.0
 30
0.0
  9
$USERI1
 70
     0
  9
$USERI2
 70
     0
  9
$USERI3
 70
     0
  9
$USERI4
 70
     0
  9
$USERI5
 70
     0
  9
$USERR1
 40
0.0
  9
$USERR2
 40
0.0
  9
$USERR3
 40
0.0
  9
$USERR4
 40
0.0
  9
$USERR5
 40
0.0
  9
$WORLDVIEW
 70
     1
  9
$SHADEDGE
 70
     3
  9
$SHADEDIF
 70
    70
  9
$TILEMODE
 70
     1
  9
$MAXACTVP
 70
    64
  9
$PLIMCHECK
 70
     0
  9
$PEXTMIN
 10
29.0660662889480506
 20
20.3665667772293091
 30
0.0
  9
$PEXTMAX
 10
261.5945966005324976
 20
183.2991009950638102
 30
0.0
  9
$PLIMMIN
 10
-3.17498779296875
 20
-3.1749999523162842
  9
$PLIMMAX
 10
293.835662841796875
 20
206.8406708240509033
  9
$UNITMODE
 70
     0
  9
$VISRETAIN
 70
     1
  9
$PLINEGEN
 70
     0
  9
$PSLTSCALE
 70
     1
  0
ENDSEC
  0
SECTION
  2
TABLES
  0
TABLE
  2
VPORT
 70
     1
  0
VPORT
  2
*ACTIVE
 70
     0
 10
0.0
 20
0.0
 11
1.0
 21
1.0
 12
11677.4123974591293518
 22
4083.9184691426789868
 13
0.0
 23
0.0
 14
1.0
 24
1.0
 15
0.0
 25
0.0
 16
0.0
 26
0.0
 36
1.0
 17
0.0
 27
0.0
 37
0.0
 40
32172.5929316305991961
 41
1.682894736842105
 42
50.0
 43
0.0
 44
0.0
 50
0.0
 51
0.0
 71
     0
 72
   600
 73
     1
 74
     1
 75
     0
 76
     0
 77
     0
 78
     0
  0
ENDTAB
  0
TABLE
  2
LTYPE
 70
     4
  0
LTYPE
  2
CONTINUOUS
 70
     0
  3
Solid line
 72
    65
 73
     0
 40
0.0
  0
LTYPE
  2
ACAD_ISO08W100
 70
     0
  3
ISO long-dash short-dash ____ __ ____ __ ____ _
 72
    65
 73
     4
 40
36.0
 49
24.0
 49
-3.0
 49
6.0
 49
-3.0
  0
LTYPE
  2
ACAD_ISO02W100
 70
     0
  3
ISO dash __ __ __ __ __ __ __ __ __ __ __ __ __
 72
    65
 73
     2
 40
15.0
 49
12.0
 49
-3.0
  0
ENDTAB
  0
TABLE
  2
LAYER
 70
    11
  0
LAYER
  2
0
 70
     0
 62
     7
  6
CONTINUOUS
  0
LAYER
  2
DEFPOINTS
 70
     0
 62
     7
  6
CONTINUOUS
  0
LAYER
  2
DIM
 70
     0
 62
     7
  6
CONTINUOUS
  0
LAYER
  2
OBJECT
 70
     0
 62
     4
  6
CONTINUOUS
  0
LAYER
  2
HIDDEN
 70
     0
 62
     2
  6
ACAD_ISO02W100
  0
LAYER
  2
CENTER
 70
     0
 62
     2
  6
ACAD_ISO08W100
  0
LAYER
  2
DOTS
 70
     0
 62
     1
  6
CONTINUOUS
  0
LAYER
  2
SLIM
 70
     0
 62
     2
  6
CONTINUOUS
  0
ENDTAB
  0
TABLE
  2
STYLE
 70
     3
  0
STYLE
  2
STANDARD
 70
     0
 40
0.0
 41
0.75
 50
0.0
 71
     0
 42
4.0
  3
simplex.shx
  4
bigfont.shx
  0
ENDTAB
  0
TABLE
  2
VIEW
 70
     0
  0
ENDTAB
  0
TABLE
  2
UCS
 70
     0
  0
ENDTAB
  0
TABLE
  2
APPID
 70
    19
  0
APPID
  2
ACAD
 70
     0
  0
APPID
  2
ACAD_PSEXT
 70
     0
  0
APPID
  2
ACAD_EXEMPT_FROM_CAD_STANDARDS
 70
     0
  0
APPID
  2
ACAECLAYERSTANDARD
 70
     0
  0
APPID
  2
ACAUTHENVIRON
 70
     0
  0
APPID
  2
ACDBDYNAMICBLOCKTRUENAME
 70
     0
  0
APPID
  2
ACDBDYNAMICBLOCKGUID
 70
     0
  0
APPID
  2
ACDBBLOCKREPETAG
 70
     0
  0
APPID
  2
ACDBBLOCKREPBTAG
 70
     0
  0
APPID
  2
ACAD_NAV_VCDISPLAY
 70
     0
  0
APPID
  2
ACAD_DSTYLE_DIMRADIAL_EXTENSION
 70
     0
  0
APPID
  2
ACAD_DSTYLE_DIMJAG
 70
     0
  0
APPID
  2
ACAD_DSTYLE_DIMTALN
 70
     0
  0
APPID
  2
ACADANNOTATIVE
 70
     0
  0
APPID
  2
ACADANNOPO
 70
     0
  0
APPID
  2
GRADIENTCOLOR1ACI
 70
     0
  0
APPID
  2
GRADIENTCOLOR2ACI
 70
     0
  0
APPID
  2
CONTENTBLOCKICON
 70
     0
  0
APPID
  2
ACAD_MLEADERVER
 70
     0
  0
ENDTAB
  0
TABLE
  2
DIMSTYLE
 70
     3
  0
DIMSTYLE
  2
STANDARD
 70
     0
  3

  4

  5

  6

  7

 40
1.0
 41
0.18
 42
0.0625
 43
0.38
 44
0.18
 45
0.0
 46
0.0
 47
0.0
 48
0.0
140
0.18
141
0.09
142
0.0
143
25.3999999999999986
144
1.0
145
0.0
146
1.0
147
0.09
 71
     0
 72
     0
 73
     1
 74
     1
 75
     0
 76
     0
 77
     0
 78
     0
170
     0
171
     2
172
     0
173
     0
174
     0
175
     0
176
     0
177
     0
178
     0
  0
DIMSTYLE
  2
S10
 70
     0
  3

  4

  5
OPEN30
  6

  7

 40
10.0
 41
2.0
 42
1.0
 43
10.0
 44
1.0
 45
0.0
 46
0.0
 47
0.0
 48
0.0
140
3.2000000000000002
141
0.0
142
0.0
143
25.3999999999999986
144
1.0
145
0.0
146
1.0
147
0.9
 71
     0
 72
     0
 73
     0
 74
     0
 75
     0
 76
     0
 77
     1
 78
     8
170
     0
171
     2
172
     1
173
     0
174
     0
175
     0
176
   256
177
   256
178
   256
  0
ENDTAB
  0
ENDSEC
  0
SECTION
  2
BLOCKS
  0
BLOCK
  8
0
  2
$MODEL_SPACE
 70
     0
 10
0.0
 20
0.0
 30
0.0
  3
$MODEL_SPACE
  1

  0
ENDBLK
  5
20
  8
0
  0
BLOCK
 67
     1
  8
0
  2
$PAPER_SPACE
 70
     0
 10
0.0
 20
0.0
 30
0.0
  3
$PAPER_SPACE
  1

  0
ENDBLK
  5
F6BA3
 67
     1
  8
0
  0
BLOCK
  8
0
  2
_OPEN30
 70
     0
 10
0.0
 20
0.0
 30
0.0
  3
_OPEN30
  1

  0
LINE
  5
202
  8
0
  6
BYBLOCK
 62
     0
 10
-1.0
 20
0.26794919
 30
0.0
 11
0.0
 21
0.0
 31
0.0
  0
LINE
  5
203
  8
0
  6
BYBLOCK
 62
     0
 10
0.0
 20
0.0
 30
0.0
 11
-1.0
 21
-0.26794919
 31
0.0
  0
LINE
  5
204
  8
0
  6
BYBLOCK
 62
     0
 10
0.0
 20
0.0
 30
0.0
 11
-1.0
 21
0.0
 31
0.0
  0
ENDBLK
  5
206
  8
0
  0
BLOCK
  8
0
  2
*U125
 70
     1
 10
0.0
 20
0.0
 30
0.0
  3
*U125
  1

  0
TEXT
  5
148141
  8
SLIM
 10
125.0476190448068934
 20
-585.0933864724229352
 30
0.0
 40
26.0
  1
100
  0
ENDBLK
  5
148143
  8
0
  0
BLOCK
  8
0
  2
*U126
 70
     1
 10
0.0
 20
0.0
 30
0.0
  3
*U126
  1

  0
TEXT
  5
148145
  8
SLIM
 10
245.3258408283732876
 20
-584.56730437361432
 30
0.0
 40
26.0
  1
通気
  0
ENDBLK
  5
148147
  8
0
  0
BLOCK
  8
0
  2
*U127
 70
     1
 10
0.0
 20
0.0
 30
0.0
  3
*U127
  1

  0
TEXT
  5
148149
  8
SLIM
 10
485.0476190448904958
 20
-585.0933864724229352
 30
0.0
 40
26.0
  1
100
  0
ENDBLK
  5
14814B
  8
0
  0
BLOCK
  8
0
  2
*U128
 70
     1
 10
0.0
 20
0.0
 30
0.0
  3
*U128
  1

  0
TEXT
  5
14814D
  8
SLIM
 10
485.0476190448904958
 20
-121.0933864724164977
 30
0.0
 40
26.0
  1
100
  0
ENDBLK
  5
14814F
  8
0
  0
BLOCK
  8
0
  2
*U129
 70
     1
 10
0.0
 20
0.0
 30
0.0
  3
*U129
  1

  0
TEXT
  5
148151
  8
SLIM
 10
605.3258408284569896
 20
-120.5673043736078967
 30
0.0
 40
26.0
  1
通気
  0
ENDBLK
  5
148153
  8
0
  0
BLOCK
  8
0
  2
*U130
 70
     1
 10
0.0
 20
0.0
 30
0.0
  3
*U130
  1

  0
TEXT
  5
148155
  8
SLIM
 10
125.0476190448068934
 20
-121.0933864724164977
 30
0.0
 40
26.0
  1
100
  0
ENDBLK
  5
148157
  8
0
  0
BLOCK
  8
0
  2
*U131
 70
     1
 10
0.0
 20
0.0
 30
0.0
  3
*U131
  1

  0
TEXT
  5
148159
  8
SLIM
 10
245.3258408283732876
 20
-120.5673043736078967
 30
0.0
 40
26.0
  1
通気
  0
ENDBLK
  5
14815B
  8
0
  0
BLOCK
  8
0
  2
*U132
 70
     1
 10
0.0
 20
0.0
 30
0.0
  3
*U132
  1

  0
TEXT
  5
14815D
  8
SLIM
 10
257.9999999971878992
 20
-673.2957674242104531
 30
0.0
 40
26.0
  1
75
 50
270.0
  0
ENDBLK
  5
14815F
  8
0
  0
BLOCK
  8
0
  2
*U133
 70
     1
 10
0.0
 20
0.0
 30
0.0
  3
*U133
  1

  0
TEXT
  5
148161
  8
SLIM
 10
625.2499999972715159
 20
-663.3910055194485267
 30
0.0
 40
26.0
  1
100
 50
270.0
  0
ENDBLK
  5
148163
  8
0
  0
BLOCK
  8
0
  2
*U134
 70
     1
 10
0.0
 20
0.0
 30
0.0
  3
*U134
  1

  0
TEXT
  5
148165
  8
SLIM
 10
617.9999999972714022
 20
-209.2957674242040866
 30
0.0
 40
26.0
  1
65
 50
270.0
  0
ENDBLK
  5
148167
  8
0
  0
BLOCK
  8
0
  2
*U135
 70
     1
 10
0.0
 20
0.0
 30
0.0
  3
*U135
  1

  0
TEXT
  5
148169
  8
SLIM
 10
257.9999999971878992
 20
-209.2957674242040866
 30
0.0
 40
26.0
  1
50
 50
270.0
  0
ENDBLK
  5
14816B
  8
0
  0
BLOCK
  8
0
  2
*U136
 70
     1
 10
0.0
 20
0.0
 30
0.0
  3
*U136
  1

  0
TEXT
  5
148181
  8
DIM
 10
2209.4796205944589929
 20
-3589.1428571428527903
 30
0.0
 40
32.0
  1
A
 50
90.0
 41
0.75
  0
ENDBLK
  5
148183
  8
0
  0
BLOCK
  8
0
  2
*U137
 70
     1
 10
0.0
 20
0.0
 30
0.0
  3
*U137
  1

  0
TEXT
  5
148185
  8
DIM
 10
2207.8409284037338693
 20
-3970.9999999999959073
 30
0.0
 40
32.0
  1
B
 50
90.0
 41
0.75
  0
ENDBLK
  5
148187
  8
0
  0
BLOCK
  8
0
  2
*U138
 70
     1
 10
0.0
 20
0.0
 30
0.0
  3
*U138
  1

  0
TEXT
  5
148189
  8
DIM
 10
2061.4285714285720132
 20
-3443.2081219844440056
 30
0.0
 40
32.0
  1
C
 41
0.75
  0
ENDBLK
  5
14818B
  8
0
  0
ENDSEC
  0
SECTION
  2
ENTITIES
  0
LINE
  5
125736
  8
OBJECT
 10
1825.0
 20
-3984.9999999999959073
 30
0.0
 11
5575.0
 21
-3984.9999999999959073
 31
0.0
  0
LINE
  5
125738
  8
SLIM
 10
2616.0
 20
-3042.5000160472709467
 30
0.0
 11
2616.0
 21
-3372.5000160472709467
 31
0.0
  0
LINE
  5
125739
  8
SLIM
 10
2740.0
 20
-3042.5000160472709467
 30
0.0
 11
2740.0
 21
-3372.5000160472709467
 31
0.0
  0
LINE
  5
12573A
  8
SLIM
 10
2870.0
 20
-3102.5000160472700372
 30
0.0
 11
2870.0
 21
-3372.5000160472709467
 31
0.0
  0
LINE
  5
12573B
  8
SLIM
 10
3000.0
 20
-3102.5000160472700372
 30
0.0
 11
3000.0
 21
-3372.5000160472709467
 31
0.0
  0
LINE
  5
12573C
  8
SLIM
 10
3130.0
 20
-3372.5000160472709467
 30
0.0
 11
3130.0
 21
-3102.5000160472700372
 31
0.0
  0
LINE
  5
12573D
  8
SLIM
 10
3260.0
 20
-3372.5000160472709467
 30
0.0
 11
3260.0
 21
-3042.5000160472709467
 31
0.0
  0
LINE
  5
12573E
  8
SLIM
 10
3260.0
 20
-3042.5000160472709467
 30
0.0
 11
2616.0
 21
-3042.5000160472709467
 31
0.0
  0
LINE
  5
12573F
  8
SLIM
 10
3260.0
 20
-3102.5000160472700372
 30
0.0
 11
2740.0
 21
-3102.5000160472700372
 31
0.0
  0
LINE
  5
125740
  8
SLIM
 10
3260.0
 20
-3162.5000160472700372
 30
0.0
 11
2616.0
 21
-3162.5000160472700372
 31
0.0
  0
LINE
  5
125741
  8
SLIM
 10
3260.0
 20
-3232.5000160472700372
 30
0.0
 11
2616.0
 21
-3232.5000160472700372
 31
0.0
  0
LINE
  5
125742
  8
SLIM
 10
3260.0
 20
-3302.5000160472700372
 30
0.0
 11
2616.0
 21
-3302.5000160472700372
 31
0.0
  0
LINE
  5
125743
  8
SLIM
 10
3260.0
 20
-3372.5000160472709467
 30
0.0
 11
2616.0
 21
-3372.5000160472709467
 31
0.0
  0
LINE
  5
125758
  8
SLIM
 10
2740.0
 20
-3162.5000160472700372
 30
0.0
 11
2615.9999722746579209
 21
-3042.5
 31
0.0
  0
LINE
  5
13EBC0
  8
CENTER
 10
5310.0
 20
-3912.9999999999968168
 30
0.0
 11
5490.0
 21
-3912.9999999999968168
 31
0.0
1001
ACDBBLOCKREPETAG
1070
     1
1071
       23
1005
13EBC0
  0
CIRCLE
  5
13EBC1
  8
OBJECT
 10
5400.0
 20
-3912.9999999999968168
 30
0.0
 40
53.5
1001
ACDBBLOCKREPETAG
1070
     1
1071
       24
1005
13EBC1
  0
CIRCLE
  5
13EBC2
  8
OBJECT
 10
5400.0
 20
-3912.9999999999968168
 30
0.0
 40
67.0
1001
ACDBBLOCKREPETAG
1070
     1
1071
       25
1005
13EBC2
  0
ARC
  5
13EBC3
  8
OBJECT
 10
5400.0
 20
-3912.9999999999968168
 30
0.0
 40
75.0
 50
286.2602047082399963
 51
253.73979529175989
1001
ACDBBLOCKREPETAG
1070
     1
1071
       27
1005
13EBC3
  0
LINE
  5
13EBC4
  8
OBJECT
 10
5379.0
 20
-3984.9999999999968168
 30
0.0
 11
5421.0
 21
-3984.9999999999968168
 31
0.0
1001
ACDBBLOCKREPETAG
1070
     1
1071
       28
1005
13EBC4
  0
LINE
  5
13EBC5
  8
CENTER
 10
5400.0
 20
-3822.9999999999968168
 30
0.0
 11
5400.0
 21
-3999.9999999999959073
 31
0.0
1001
ACDBBLOCKREPETAG
1070
     1
1071
       20
1005
13EBC5
  0
LINE
  5
13EBC6
  8
OBJECT
 10
5325.0
 20
-3863.9999999999968168
 30
0.0
 11
5325.0
 21
-3987.9999999999968168
 31
0.0
1001
ACDBBLOCKREPETAG
1070
     1
1071
       21
1005
13EBC6
  0
LINE
  5
13EBC7
  8
OBJECT
 10
5474.9999999997125997
 20
-3863.9999999999968168
 30
0.0
 11
5456.7802782663129619
 21
-3863.9999999999959073
 31
0.0
1001
ACDBBLOCKREPETAG
1070
     1
1071
       23
1005
13EBC7
  0
LINE
  5
13EBC8
  8
OBJECT
 10
5474.9999999997125997
 20
-3863.9999999999968168
 30
0.0
 11
5474.9999999998590283
 21
-3987.9999999999968168
 31
0.0
1001
ACDBBLOCKREPETAG
1070
     1
1071
       28
1005
13EBC8
  0
LINE
  5
13EBC9
  8
OBJECT
 10
5460.0
 20
-3858.9999999999968168
 30
0.0
 11
5452.0480547186916738
 21
-3858.9999999999968168
 31
0.0
1001
ACDBBLOCKREPETAG
1070
     1
1071
       29
1005
13EBC9
  0
ARC
  5
13EBCA
  8
OBJECT
 10
5340.0
 20
-3861.9999999999959073
 30
0.0
 40
3.0
 50
90.0
 51
180.0
1001
ACDBBLOCKREPETAG
1070
     1
1071
       30
1005
13EBCA
  0
LINE
  5
13EBCB
  8
OBJECT
 10
5337.0
 20
-3861.9999999999959073
 30
0.0
 11
5337.0
 21
-3863.9999999999968168
 31
0.0
1001
ACDBBLOCKREPETAG
1070
     1
1071
       31
1005
13EBCB
  0
LINE
  5
13EBCC
  8
OBJECT
 10
5463.0
 20
-3861.9999999999959073
 30
0.0
 11
5463.0
 21
-3863.9999999999968168
 31
0.0
1001
ACDBBLOCKREPETAG
1070
     1
1071
       32
1005
13EBCC
  0
ARC
  5
13EBCD
  8
OBJECT
 10
5460.0
 20
-3861.9999999999959073
 30
0.0
 40
3.0
 50
0.0
 51
90.0
1001
ACDBBLOCKREPETAG
1070
     1
1071
       33
1005
13EBCD
  0
POINT
  5
13EBCE
  8
DOTS
 10
5400.0
 20
-3984.9999999999968168
 30
0.0
1001
ACDBBLOCKREPETAG
1070
     1
1071
      136
1005
13EBCE
  0
LINE
  5
13EBCF
  8
OBJECT
 10
5347.9519452813092357
 20
-3858.9999999999968168
 30
0.0
 11
5340.0
 21
-3858.9999999999968168
 31
0.0
1001
ACDBBLOCKREPETAG
1070
     1
1071
       29
1005
13EBC9
  0
LINE
  5
13EBD0
  8
OBJECT
 10
5343.2197217336870381
 20
-3863.9999999999959073
 30
0.0
 11
5325.0
 21
-3863.9999999999968168
 31
0.0
1001
ACDBBLOCKREPETAG
1070
     1
1071
       23
1005
13EBC7
  0
LINE
  5
147A39
  8
CENTER
 10
12077.0
 20
-696.0
 30
0.0
 11
11923.0
 21
-696.0
 31
0.0
1001
ACDBBLOCKREPETAG
1070
     1
1071
       17
1005
147A39
  0
CIRCLE
  5
147A3A
  8
OBJECT
 10
12000.0
 20
-696.0
 30
0.0
 40
41.5
1001
ACDBBLOCKREPETAG
1070
     1
1071
       19
1005
147A3A
  0
CIRCLE
  5
147A3B
  8
OBJECT
 10
12000.0
 20
-696.0
 30
0.0
 40
54.0
1001
ACDBBLOCKREPETAG
1070
     1
1071
       20
1005
147A3B
  0
ARC
  5
147A3C
  8
OBJECT
 10
12000.0
 20
-696.0
 30
0.0
 40
62.0
 50
287.8965511292071824
 51
252.1034488707927892
1001
ACDBBLOCKREPETAG
1070
     1
1071
       21
1005
147A3C
  0
LINE
  5
147A3D
  8
OBJECT
 10
11980.9474411167393555
 20
-755.0
 30
0.0
 11
12019.0525588832606445
 21
-755.0
 31
0.0
1001
ACDBBLOCKREPETAG
1070
     1
1071
       22
1005
147A3D
  0
LINE
  5
147A3E
  8
CENTER
 10
10077.0
 20
-696.0
 30
0.0
 11
9923.0
 21
-696.0
 31
0.0
1001
ACDBBLOCKREPETAG
1070
     1
1071
       17
1005
147A3E
  0
CIRCLE
  5
147A3F
  8
OBJECT
 10
10000.0
 20
-696.0
 30
0.0
 40
41.5
1001
ACDBBLOCKREPETAG
1070
     1
1071
       19
1005
147A3F
  0
CIRCLE
  5
147A40
  8
OBJECT
 10
10000.0
 20
-696.0
 30
0.0
 40
54.0
1001
ACDBBLOCKREPETAG
1070
     1
1071
       20
1005
147A40
  0
ARC
  5
147A41
  8
OBJECT
 10
10000.0
 20
-696.0
 30
0.0
 40
62.0
 50
287.8965511292071824
 51
252.1034488707927892
1001
ACDBBLOCKREPETAG
1070
     1
1071
       21
1005
147A41
  0
LINE
  5
147A42
  8
OBJECT
 10
9980.9474411167429935
 20
-755.0
 30
0.0
 11
10019.0525588832497306
 21
-755.0
 31
0.0
1001
ACDBBLOCKREPETAG
1070
     1
1071
       22
1005
147A42
  0
LINE
  5
147A43
  8
CENTER
 10
8077.0
 20
-696.0
 30
0.0
 11
7923.0
 21
-696.0
 31
0.0
1001
ACDBBLOCKREPETAG
1070
     1
1071
       17
1005
147A43
  0
CIRCLE
  5
147A44
  8
OBJECT
 10
8000.0
 20
-696.0
 30
0.0
 40
41.5
1001
ACDBBLOCKREPETAG
1070
     1
1071
       19
1005
147A44
  0
CIRCLE
  5
147A45
  8
OBJECT
 10
8000.0
 20
-696.0
 30
0.0
 40
54.0
1001
ACDBBLOCKREPETAG
1070
     1
1071
       20
1005
147A45
  0
ARC
  5
147A46
  8
OBJECT
 10
8000.0
 20
-696.0
 30
0.0
 40
62.0
 50
287.8965511292071824
 51
252.1034488707927892
1001
ACDBBLOCKREPETAG
1070
     1
1071
       21
1005
147A46
  0
LINE
  5
147A47
  8
OBJECT
 10
7980.9474411167429935
 20
-755.0
 30
0.0
 11
8019.052558883257916
 21
-755.0
 31
0.0
1001
ACDBBLOCKREPETAG
1070
     1
1071
       22
1005
147A47
  0
LINE
  5
147A48
  8
CENTER
 10
6077.0
 20
-696.0
 30
0.0
 11
5923.0
 21
-696.0
 31
0.0
1001
ACDBBLOCKREPETAG
1070
     1
1071
       17
1005
147A48
  0
CIRCLE
  5
147A49
  8
OBJECT
 10
6000.0
 20
-696.0
 30
0.0
 40
41.5
1001
ACDBBLOCKREPETAG
1070
     1
1071
       19
1005
147A49
  0
CIRCLE
  5
147A4A
  8
OBJECT
 10
6000.0
 20
-696.0
 30
0.0
 40
54.0
1001
ACDBBLOCKREPETAG
1070
     1
1071
       20
1005
147A4A
  0
ARC
  5
147A4B
  8
OBJECT
 10
6000.0
 20
-696.0
 30
0.0
 40
62.0
 50
287.8965511292071824
 51
252.1034488707927892
1001
ACDBBLOCKREPETAG
1070
     1
1071
       21
1005
147A4B
  0
LINE
  5
147A4C
  8
OBJECT
 10
5980.9474411167429935
 20
-755.0
 30
0.0
 11
6019.0525588832570065
 21
-755.0
 31
0.0
1001
ACDBBLOCKREPETAG
1070
     1
1071
       22
1005
147A4C
  0
LINE
  5
147A4D
  8
CENTER
 10
4077.0
 20
-696.0
 30
0.0
 11
3923.0
 21
-696.0
 31
0.0
1001
ACDBBLOCKREPETAG
1070
     1
1071
       17
1005
147A4D
  0
CIRCLE
  5
147A4E
  8
OBJECT
 10
4000.0
 20
-696.0
 30
0.0
 40
41.5
1001
ACDBBLOCKREPETAG
1070
     1
1071
       19
1005
147A4E
  0
CIRCLE
  5
147A4F
  8
OBJECT
 10
4000.0
 20
-696.0
 30
0.0
 40
54.0
1001
ACDBBLOCKREPETAG
1070
     1
1071
       20
1005
147A4F
  0
ARC
  5
147A50
  8
OBJECT
 10
4000.0
 20
-696.0
 30
0.0
 40
62.0
 50
287.8965511292071824
 51
252.1034488707927892
1001
ACDBBLOCKREPETAG
1070
     1
1071
       21
1005
147A50
  0
LINE
  5
147A51
  8
OBJECT
 10
3980.9474411167429935
 20
-755.0
 30
0.0
 11
4019.0525588832570065
 21
-755.0
 31
0.0
1001
ACDBBLOCKREPETAG
1070
     1
1071
       22
1005
147A51
  0
LINE
  5
147A52
  8
OBJECT
 10
12062.0
 20
-332.9999999999990905
 30
0.0
 11
12062.0
 21
-339.9999999999990905
 31
0.0
1001
ACDBBLOCKREPETAG
1070
     1
1071
       47
1005
147A52
  0
LINE
  5
147A53
  8
OBJECT
 10
12062.0
 20
-339.9999999999990905
 30
0.0
 11
11938.0
 21
-339.9999999999990905
 31
0.0
1001
ACDBBLOCKREPETAG
1070
     1
1071
       48
1005
147A53
  0
LINE
  5
147A54
  8
OBJECT
 10
11938.0
 20
-339.9999999999990905
 30
0.0
 11
11938.0
 21
-332.9999999999990905
 31
0.0
1001
ACDBBLOCKREPETAG
1070
     1
1071
       49
1005
147A54
  0
LINE
  5
147A55
  8
OBJECT
 10
11938.0
 20
-332.9999999999990905
 30
0.0
 11
12062.0
 21
-332.9999999999990905
 31
0.0
1001
ACDBBLOCKREPETAG
1070
     1
1071
       50
1005
147A55
  0
LINE
  5
147A56
  8
CENTER
 10
12000.0
 20
-354.9999999999990905
 30
0.0
 11
12000.0
 21
-279.9999999999990905
 31
0.0
1001
ACDBBLOCKREPETAG
1070
     1
1071
       51
1005
147A56
  0
LINE
  5
147A57
  8
OBJECT
 10
12059.0
 20
-332.9999999999990905
 30
0.0
 11
12059.0
 21
-296.9999999999990905
 31
0.0
1001
ACDBBLOCKREPETAG
1070
     1
1071
       52
1005
147A57
  0
LINE
  5
147A58
  8
OBJECT
 10
12059.0
 20
-296.9999999999990905
 30
0.0
 11
11941.0
 21
-296.9999999999990905
 31
0.0
1001
ACDBBLOCKREPETAG
1070
     1
1071
       53
1005
147A58
  0
LINE
  5
147A59
  8
OBJECT
 10
11941.0
 20
-296.9999999999990905
 30
0.0
 11
11941.0
 21
-332.9999999999990905
 31
0.0
1001
ACDBBLOCKREPETAG
1070
     1
1071
       54
1005
147A59
  0
LINE
  5
147A5A
  8
OBJECT
 10
12054.5
 20
-292.9999999999990905
 30
0.0
 11
12054.5
 21
-285.9999999999990905
 31
0.0
1001
ACDBBLOCKREPETAG
1070
     1
1071
       55
1005
147A5A
  0
LINE
  5
147A5B
  8
OBJECT
 10
11945.5
 20
-285.9999999999990905
 30
0.0
 11
11945.5
 21
-292.9999999999990905
 31
0.0
1001
ACDBBLOCKREPETAG
1070
     1
1071
       56
1005
147A5B
  0
LINE
  5
147A5C
  8
OBJECT
 10
11945.5
 20
-292.9999999999990905
 30
0.0
 11
12054.5
 21
-292.9999999999990905
 31
0.0
1001
ACDBBLOCKREPETAG
1070
     1
1071
       57
1005
147A5C
  0
LINE
  5
147A5D
  8
OBJECT
 10
12059.0
 20
-296.9999999999990905
 30
0.0
 11
12054.5
 21
-292.9999999999990905
 31
0.0
1001
ACDBBLOCKREPETAG
1070
     1
1071
       58
1005
147A5D
  0
LINE
  5
147A5E
  8
OBJECT
 10
11941.0
 20
-296.9999999999990905
 30
0.0
 11
11945.5
 21
-292.9999999999990905
 31
0.0
1001
ACDBBLOCKREPETAG
1070
     1
1071
       59
1005
147A5E
  0
LINE
  5
147A5F
  8
OBJECT
 10
12062.0
 20
-283.0
 30
0.0
 11
12062.0
 21
-279.9999999999990905
 31
0.0
1001
ACDBBLOCKREPETAG
1070
     1
1071
       60
1005
147A5F
  0
ARC
  5
147A60
  8
OBJECT
 10
12059.0
 20
-283.0
 30
0.0
 40
3.0
 50
270.0
 51
0.0
1001
ACDBBLOCKREPETAG
1070
     1
1071
       61
1005
147A60
  0
LINE
  5
147A61
  8
OBJECT
 10
11938.0
 20
-279.9999999999990905
 30
0.0
 11
11938.0
 21
-282.999999999998181
 31
0.0
1001
ACDBBLOCKREPETAG
1070
     1
1071
       62
1005
147A61
  0
ARC
  5
147A62
  8
OBJECT
 10
11941.0
 20
-282.999999999998181
 30
0.0
 40
3.0
 50
180.0
 51
270.0
1001
ACDBBLOCKREPETAG
1070
     1
1071
       63
1005
147A62
  0
LINE
  5
147A63
  8
OBJECT
 10
11941.0
 20
-285.999999999998181
 30
0.0
 11
12059.0
 21
-286.0
 31
0.0
1001
ACDBBLOCKREPETAG
1070
     1
1071
       64
1005
147A63
  0
LINE
  5
147A64
  8
HIDDEN
 10
12044.5
 20
-287.9999999999990905
 30
0.0
 11
11955.5
 21
-287.9999999999990905
 31
0.0
1001
ACDBBLOCKREPETAG
1070
     1
1071
       65
1005
147A64
  0
LINE
  5
147A65
  8
OBJECT
 10
12150.0
 20
-124.9999999999991047
 30
0.0
 11
12143.0
 21
-124.9999999999991047
 31
0.0
1001
ACDBBLOCKREPETAG
1070
     1
1071
       67
1005
147A65
  0
LINE
  5
147A66
  8
OBJECT
 10
12143.0
 20
-124.9999999999991047
 30
0.0
 11
12143.0
 21
-274.9999999999990905
 31
0.0
1001
ACDBBLOCKREPETAG
1070
     1
1071
       68
1005
147A66
  0
LINE
  5
147A67
  8
OBJECT
 10
12101.5
 20
-127.9999999999991047
 30
0.0
 11
12101.5
 21
-271.9999999999990905
 31
0.0
1001
ACDBBLOCKREPETAG
1070
     1
1071
       69
1005
147A67
  0
LINE
  5
147A68
  8
OBJECT
 10
12090.0
 20
-134.4999999999990905
 30
0.0
 11
12090.0
 21
-265.4999999999990905
 31
0.0
1001
ACDBBLOCKREPETAG
1070
     1
1071
       70
1005
147A68
  0
LINE
  5
147A69
  8
OBJECT
 10
12143.0
 20
-274.9999999999990905
 30
0.0
 11
12150.0
 21
-274.9999999999990905
 31
0.0
1001
ACDBBLOCKREPETAG
1070
     1
1071
       71
1005
147A69
  0
LINE
  5
147A6A
  8
OBJECT
 10
12150.0
 20
-274.9999999999990905
 30
0.0
 11
12150.0
 21
-124.9999999999991047
 31
0.0
1001
ACDBBLOCKREPETAG
1070
     1
1071
       72
1005
147A6A
  0
LINE
  5
147A6B
  8
HIDDEN
 10
12098.0
 20
-256.9999999999990905
 30
0.0
 11
12098.0
 21
-142.9999999999990905
 31
0.0
1001
ACDBBLOCKREPETAG
1070
     1
1071
       73
1005
147A6B
  0
LINE
  5
147A6C
  8
CENTER
 10
12165.0
 20
-199.9999999999990905
 30
0.0
 11
12080.0
 21
-199.9999999999990905
 31
0.0
1001
ACDBBLOCKREPETAG
1070
     1
1071
       74
1005
147A6C
  0
LINE
  5
147A6D
  8
OBJECT
 10
12086.0
 20
-261.9999999999990905
 30
0.0
 11
12080.0
 21
-261.9999999999990905
 31
0.0
1001
ACDBBLOCKREPETAG
1070
     1
1071
       75
1005
147A6D
  0
LINE
  5
147A6E
  8
OBJECT
 10
12143.0
 20
-271.9999999999990905
 30
0.0
 11
12101.5
 21
-271.9999999999990905
 31
0.0
1001
ACDBBLOCKREPETAG
1070
     1
1071
       76
1005
147A6E
  0
LINE
  5
147A6F
  8
OBJECT
 10
12101.5
 20
-271.9999999999990905
 30
0.0
 11
12090.0
 21
-265.4999999999990905
 31
0.0
1001
ACDBBLOCKREPETAG
1070
     1
1071
       77
1005
147A6F
  0
LINE
  5
147A70
  8
OBJECT
 10
12090.0
 20
-265.4999999999990905
 30
0.0
 11
12086.0
 21
-261.9999999999990905
 31
0.0
1001
ACDBBLOCKREPETAG
1070
     1
1071
       78
1005
147A70
  0
LINE
  5
147A71
  8
OBJECT
 10
12101.5
 20
-127.9999999999991047
 30
0.0
 11
12090.0
 21
-134.4999999999990905
 31
0.0
1001
ACDBBLOCKREPETAG
1070
     1
1071
       79
1005
147A71
  0
LINE
  5
147A72
  8
OBJECT
 10
12090.0
 20
-134.4999999999990905
 30
0.0
 11
12086.0
 21
-137.9999999999990905
 31
0.0
1001
ACDBBLOCKREPETAG
1070
     1
1071
       80
1005
147A72
  0
ARC
  5
147A73
  8
OBJECT
 10
12467.8999999999996362
 20
-199.9999999999990905
 30
0.0
 40
386.8999999999999773
 50
170.7787013626125088
 51
189.221298637387406
1001
ACDBBLOCKREPETAG
1070
     1
1071
       81
1005
147A73
  0
LINE
  5
147A74
  8
OBJECT
 10
12086.0
 20
-137.9999999999990905
 30
0.0
 11
12080.0
 21
-137.9999999999990905
 31
0.0
1001
ACDBBLOCKREPETAG
1070
     1
1071
       82
1005
147A74
  0
LINE
  5
147A75
  8
OBJECT
 10
12143.0
 20
-127.9999999999991047
 30
0.0
 11
12101.5
 21
-127.9999999999991047
 31
0.0
1001
ACDBBLOCKREPETAG
1070
     1
1071
       83
1005
147A75
  0
LINE
  5
147A76
  8
OBJECT
 10
10062.0
 20
-332.9999999999990905
 30
0.0
 11
10062.0
 21
-339.9999999999990905
 31
0.0
1001
ACDBBLOCKREPETAG
1070
     1
1071
       47
1005
147A76
  0
LINE
  5
147A77
  8
OBJECT
 10
10062.0
 20
-339.9999999999990905
 30
0.0
 11
9938.0
 21
-339.9999999999990905
 31
0.0
1001
ACDBBLOCKREPETAG
1070
     1
1071
       48
1005
147A77
  0
LINE
  5
147A78
  8
OBJECT
 10
9938.0
 20
-339.9999999999990905
 30
0.0
 11
9938.0
 21
-332.9999999999990905
 31
0.0
1001
ACDBBLOCKREPETAG
1070
     1
1071
       49
1005
147A78
  0
LINE
  5
147A79
  8
OBJECT
 10
9938.0
 20
-332.9999999999990905
 30
0.0
 11
10062.0
 21
-332.9999999999990905
 31
0.0
1001
ACDBBLOCKREPETAG
1070
     1
1071
       50
1005
147A79
  0
LINE
  5
147A7A
  8
CENTER
 10
10000.0
 20
-354.9999999999990905
 30
0.0
 11
10000.0
 21
-279.9999999999990905
 31
0.0
1001
ACDBBLOCKREPETAG
1070
     1
1071
       51
1005
147A7A
  0
LINE
  5
147A7B
  8
OBJECT
 10
10059.0
 20
-332.9999999999990905
 30
0.0
 11
10059.0
 21
-296.9999999999990905
 31
0.0
1001
ACDBBLOCKREPETAG
1070
     1
1071
       52
1005
147A7B
  0
LINE
  5
147A7C
  8
OBJECT
 10
10059.0
 20
-296.9999999999990905
 30
0.0
 11
9941.0
 21
-296.9999999999990905
 31
0.0
1001
ACDBBLOCKREPETAG
1070
     1
1071
       53
1005
147A7C
  0
LINE
  5
147A7D
  8
OBJECT
 10
9941.0
 20
-296.9999999999990905
 30
0.0
 11
9941.0
 21
-332.9999999999990905
 31
0.0
1001
ACDBBLOCKREPETAG
1070
     1
1071
       54
1005
147A7D
  0
LINE
  5
147A7E
  8
OBJECT
 10
10054.5
 20
-292.9999999999990905
 30
0.0
 11
10054.5
 21
-285.9999999999990905
 31
0.0
1001
ACDBBLOCKREPETAG
1070
     1
1071
       55
1005
147A7E
  0
LINE
  5
147A7F
  8
OBJECT
 10
9945.5
 20
-285.9999999999990905
 30
0.0
 11
9945.5
 21
-292.9999999999990905
 31
0.0
1001
ACDBBLOCKREPETAG
1070
     1
1071
       56
1005
147A7F
  0
LINE
  5
147A80
  8
OBJECT
 10
9945.5
 20
-292.9999999999990905
 30
0.0
 11
10054.5
 21
-292.9999999999990905
 31
0.0
1001
ACDBBLOCKREPETAG
1070
     1
1071
       57
1005
147A80
  0
LINE
  5
147A81
  8
OBJECT
 10
10059.0
 20
-296.9999999999990905
 30
0.0
 11
10054.5
 21
-292.9999999999990905
 31
0.0
1001
ACDBBLOCKREPETAG
1070
     1
1071
       58
1005
147A81
  0
LINE
  5
147A82
  8
OBJECT
 10
9941.0
 20
-296.9999999999990905
 30
0.0
 11
9945.5
 21
-292.9999999999990905
 31
0.0
1001
ACDBBLOCKREPETAG
1070
     1
1071
       59
1005
147A82
  0
LINE
  5
147A83
  8
OBJECT
 10
10062.0
 20
-283.0
 30
0.0
 11
10062.0
 21
-279.9999999999990905
 31
0.0
1001
ACDBBLOCKREPETAG
1070
     1
1071
       60
1005
147A83
  0
ARC
  5
147A84
  8
OBJECT
 10
10059.0
 20
-283.0
 30
0.0
 40
3.0
 50
270.0
 51
0.0
1001
ACDBBLOCKREPETAG
1070
     1
1071
       61
1005
147A84
  0
LINE
  5
147A85
  8
OBJECT
 10
9938.0
 20
-279.9999999999990905
 30
0.0
 11
9938.0
 21
-282.999999999998181
 31
0.0
1001
ACDBBLOCKREPETAG
1070
     1
1071
       62
1005
147A85
  0
ARC
  5
147A86
  8
OBJECT
 10
9941.0
 20
-282.999999999998181
 30
0.0
 40
3.0
 50
180.0
 51
270.0
1001
ACDBBLOCKREPETAG
1070
     1
1071
       63
1005
147A86
  0
LINE
  5
147A87
  8
OBJECT
 10
9941.0
 20
-285.999999999998181
 30
0.0
 11
10059.0
 21
-286.0
 31
0.0
1001
ACDBBLOCKREPETAG
1070
     1
1071
       64
1005
147A87
  0
LINE
  5
147A88
  8
HIDDEN
 10
10044.5
 20
-287.9999999999990905
 30
0.0
 11
9955.5
 21
-287.9999999999990905
 31
0.0
1001
ACDBBLOCKREPETAG
1070
     1
1071
       65
1005
147A88
  0
LINE
  5
147A89
  8
OBJECT
 10
10150.0
 20
-124.9999999999991047
 30
0.0
 11
10143.0
 21
-124.9999999999991047
 31
0.0
1001
ACDBBLOCKREPETAG
1070
     1
1071
       67
1005
147A89
  0
LINE
  5
147A8A
  8
OBJECT
 10
10143.0
 20
-124.9999999999991047
 30
0.0
 11
10143.0
 21
-274.9999999999990905
 31
0.0
1001
ACDBBLOCKREPETAG
1070
     1
1071
       68
1005
147A8A
  0
LINE
  5
147A8B
  8
OBJECT
 10
10101.5
 20
-127.9999999999991047
 30
0.0
 11
10101.5
 21
-271.9999999999990905
 31
0.0
1001
ACDBBLOCKREPETAG
1070
     1
1071
       69
1005
147A8B
  0
LINE
  5
147A8C
  8
OBJECT
 10
10090.0
 20
-134.4999999999990905
 30
0.0
 11
10090.0
 21
-265.4999999999990905
 31
0.0
1001
ACDBBLOCKREPETAG
1070
     1
1071
       70
1005
147A8C
  0
LINE
  5
147A8D
  8
OBJECT
 10
10143.0
 20
-274.9999999999990905
 30
0.0
 11
10150.0
 21
-274.9999999999990905
 31
0.0
1001
ACDBBLOCKREPETAG
1070
     1
1071
       71
1005
147A8D
  0
LINE
  5
147A8E
  8
OBJECT
 10
10150.0
 20
-274.9999999999990905
 30
0.0
 11
10150.0
 21
-124.9999999999991047
 31
0.0
1001
ACDBBLOCKREPETAG
1070
     1
1071
       72
1005
147A8E
  0
LINE
  5
147A8F
  8
HIDDEN
 10
10098.0
 20
-256.9999999999990905
 30
0.0
 11
10098.0
 21
-142.9999999999990905
 31
0.0
1001
ACDBBLOCKREPETAG
1070
     1
1071
       73
1005
147A8F
  0
LINE
  5
147A90
  8
CENTER
 10
10165.0
 20
-199.9999999999990905
 30
0.0
 11
10080.0
 21
-199.9999999999990905
 31
0.0
1001
ACDBBLOCKREPETAG
1070
     1
1071
       74
1005
147A90
  0
LINE
  5
147A91
  8
OBJECT
 10
10086.0
 20
-261.9999999999990905
 30
0.0
 11
10080.0
 21
-261.9999999999990905
 31
0.0
1001
ACDBBLOCKREPETAG
1070
     1
1071
       75
1005
147A91
  0
LINE
  5
147A92
  8
OBJECT
 10
10143.0
 20
-271.9999999999990905
 30
0.0
 11
10101.5
 21
-271.9999999999990905
 31
0.0
1001
ACDBBLOCKREPETAG
1070
     1
1071
       76
1005
147A92
  0
LINE
  5
147A93
  8
OBJECT
 10
10101.5
 20
-271.9999999999990905
 30
0.0
 11
10090.0
 21
-265.4999999999990905
 31
0.0
1001
ACDBBLOCKREPETAG
1070
     1
1071
       77
1005
147A93
  0
LINE
  5
147A94
  8
OBJECT
 10
10090.0
 20
-265.4999999999990905
 30
0.0
 11
10086.0
 21
-261.9999999999990905
 31
0.0
1001
ACDBBLOCKREPETAG
1070
     1
1071
       78
1005
147A94
  0
LINE
  5
147A95
  8
OBJECT
 10
10101.5
 20
-127.9999999999991047
 30
0.0
 11
10090.0
 21
-134.4999999999990905
 31
0.0
1001
ACDBBLOCKREPETAG
1070
     1
1071
       79
1005
147A95
  0
LINE
  5
147A96
  8
OBJECT
 10
10090.0
 20
-134.4999999999990905
 30
0.0
 11
10086.0
 21
-137.9999999999990905
 31
0.0
1001
ACDBBLOCKREPETAG
1070
     1
1071
       80
1005
147A96
  0
ARC
  5
147A97
  8
OBJECT
 10
10467.8999999999996362
 20
-199.9999999999990905
 30
0.0
 40
386.8999999999999773
 50
170.7787013626125088
 51
189.221298637387406
1001
ACDBBLOCKREPETAG
1070
     1
1071
       81
1005
147A97
  0
LINE
  5
147A98
  8
OBJECT
 10
10086.0
 20
-137.9999999999990905
 30
0.0
 11
10080.0
 21
-137.9999999999990905
 31
0.0
1001
ACDBBLOCKREPETAG
1070
     1
1071
       82
1005
147A98
  0
LINE
  5
147A99
  8
OBJECT
 10
10143.0
 20
-127.9999999999991047
 30
0.0
 11
10101.5
 21
-127.9999999999991047
 31
0.0
1001
ACDBBLOCKREPETAG
1070
     1
1071
       83
1005
147A99
  0
LINE
  5
147A9A
  8
OBJECT
 10
8062.0
 20
-332.9999999999990905
 30
0.0
 11
8062.0
 21
-339.9999999999990905
 31
0.0
1001
ACDBBLOCKREPETAG
1070
     1
1071
       47
1005
147A9A
  0
LINE
  5
147A9B
  8
OBJECT
 10
8062.0
 20
-339.9999999999990905
 30
0.0
 11
7938.0
 21
-339.9999999999990905
 31
0.0
1001
ACDBBLOCKREPETAG
1070
     1
1071
       48
1005
147A9B
  0
LINE
  5
147A9C
  8
OBJECT
 10
7938.0
 20
-339.9999999999990905
 30
0.0
 11
7938.0
 21
-332.9999999999990905
 31
0.0
1001
ACDBBLOCKREPETAG
1070
     1
1071
       49
1005
147A9C
  0
LINE
  5
147A9D
  8
OBJECT
 10
7938.0
 20
-332.9999999999990905
 30
0.0
 11
8062.0
 21
-332.9999999999990905
 31
0.0
1001
ACDBBLOCKREPETAG
1070
     1
1071
       50
1005
147A9D
  0
LINE
  5
147A9E
  8
CENTER
 10
8000.0
 20
-354.9999999999990905
 30
0.0
 11
8000.0
 21
-279.9999999999990905
 31
0.0
1001
ACDBBLOCKREPETAG
1070
     1
1071
       51
1005
147A9E
  0
LINE
  5
147A9F
  8
OBJECT
 10
8059.0
 20
-332.9999999999990905
 30
0.0
 11
8059.0
 21
-296.9999999999990905
 31
0.0
1001
ACDBBLOCKREPETAG
1070
     1
1071
       52
1005
147A9F
  0
LINE
  5
147AA0
  8
OBJECT
 10
8059.0
 20
-296.9999999999990905
 30
0.0
 11
7941.0
 21
-296.9999999999990905
 31
0.0
1001
ACDBBLOCKREPETAG
1070
     1
1071
       53
1005
147AA0
  0
LINE
  5
147AA1
  8
OBJECT
 10
7941.0
 20
-296.9999999999990905
 30
0.0
 11
7941.0
 21
-332.9999999999990905
 31
0.0
1001
ACDBBLOCKREPETAG
1070
     1
1071
       54
1005
147AA1
  0
LINE
  5
147AA2
  8
OBJECT
 10
8054.5
 20
-292.9999999999990905
 30
0.0
 11
8054.5
 21
-285.9999999999990905
 31
0.0
1001
ACDBBLOCKREPETAG
1070
     1
1071
       55
1005
147AA2
  0
LINE
  5
147AA3
  8
OBJECT
 10
7945.5
 20
-285.9999999999990905
 30
0.0
 11
7945.5
 21
-292.9999999999990905
 31
0.0
1001
ACDBBLOCKREPETAG
1070
     1
1071
       56
1005
147AA3
  0
LINE
  5
147AA4
  8
OBJECT
 10
7945.5
 20
-292.9999999999990905
 30
0.0
 11
8054.5
 21
-292.9999999999990905
 31
0.0
1001
ACDBBLOCKREPETAG
1070
     1
1071
       57
1005
147AA4
  0
LINE
  5
147AA5
  8
OBJECT
 10
8059.0
 20
-296.9999999999990905
 30
0.0
 11
8054.5
 21
-292.9999999999990905
 31
0.0
1001
ACDBBLOCKREPETAG
1070
     1
1071
       58
1005
147AA5
  0
LINE
  5
147AA6
  8
OBJECT
 10
7941.0
 20
-296.9999999999990905
 30
0.0
 11
7945.5
 21
-292.9999999999990905
 31
0.0
1001
ACDBBLOCKREPETAG
1070
     1
1071
       59
1005
147AA6
  0
LINE
  5
147AA7
  8
OBJECT
 10
8062.0
 20
-283.0
 30
0.0
 11
8062.0
 21
-279.9999999999990905
 31
0.0
1001
ACDBBLOCKREPETAG
1070
     1
1071
       60
1005
147AA7
  0
ARC
  5
147AA8
  8
OBJECT
 10
8059.0
 20
-283.0
 30
0.0
 40
3.0
 50
270.0
 51
0.0
1001
ACDBBLOCKREPETAG
1070
     1
1071
       61
1005
147AA8
  0
LINE
  5
147AA9
  8
OBJECT
 10
7938.0
 20
-279.9999999999990905
 30
0.0
 11
7938.0
 21
-282.999999999998181
 31
0.0
1001
ACDBBLOCKREPETAG
1070
     1
1071
       62
1005
147AA9
  0
ARC
  5
147AAA
  8
OBJECT
 10
7941.0
 20
-282.999999999998181
 30
0.0
 40
3.0
 50
180.0
 51
270.0
1001
ACDBBLOCKREPETAG
1070
     1
1071
       63
1005
147AAA
  0
LINE
  5
147AAB
  8
OBJECT
 10
7941.0
 20
-285.999999999998181
 30
0.0
 11
8059.0
 21
-286.0
 31
0.0
1001
ACDBBLOCKREPETAG
1070
     1
1071
       64
1005
147AAB
  0
LINE
  5
147AAC
  8
HIDDEN
 10
8044.5000000000009095
 20
-287.9999999999990905
 30
0.0
 11
7955.5
 21
-287.9999999999990905
 31
0.0
1001
ACDBBLOCKREPETAG
1070
     1
1071
       65
1005
147AAC
  0
LINE
  5
147AAD
  8
OBJECT
 10
8150.0
 20
-124.9999999999991047
 30
0.0
 11
8143.0
 21
-124.9999999999991047
 31
0.0
1001
ACDBBLOCKREPETAG
1070
     1
1071
       67
1005
147AAD
  0
LINE
  5
147AAE
  8
OBJECT
 10
8143.0
 20
-124.9999999999991047
 30
0.0
 11
8143.0
 21
-274.9999999999990905
 31
0.0
1001
ACDBBLOCKREPETAG
1070
     1
1071
       68
1005
147AAE
  0
LINE
  5
147AAF
  8
OBJECT
 10
8101.4999999999990905
 20
-127.9999999999991047
 30
0.0
 11
8101.4999999999990905
 21
-271.9999999999990905
 31
0.0
1001
ACDBBLOCKREPETAG
1070
     1
1071
       69
1005
147AAF
  0
LINE
  5
147AB0
  8
OBJECT
 10
8090.0
 20
-134.4999999999990905
 30
0.0
 11
8090.0
 21
-265.4999999999990905
 31
0.0
1001
ACDBBLOCKREPETAG
1070
     1
1071
       70
1005
147AB0
  0
LINE
  5
147AB1
  8
OBJECT
 10
8143.0
 20
-274.9999999999990905
 30
0.0
 11
8150.0
 21
-274.9999999999990905
 31
0.0
1001
ACDBBLOCKREPETAG
1070
     1
1071
       71
1005
147AB1
  0
LINE
  5
147AB2
  8
OBJECT
 10
8150.0
 20
-274.9999999999990905
 30
0.0
 11
8150.0
 21
-124.9999999999991047
 31
0.0
1001
ACDBBLOCKREPETAG
1070
     1
1071
       72
1005
147AB2
  0
LINE
  5
147AB3
  8
HIDDEN
 10
8098.0
 20
-256.9999999999990905
 30
0.0
 11
8098.0
 21
-142.9999999999990905
 31
0.0
1001
ACDBBLOCKREPETAG
1070
     1
1071
       73
1005
147AB3
  0
LINE
  5
147AB4
  8
CENTER
 10
8165.0
 20
-199.9999999999990905
 30
0.0
 11
8080.0
 21
-199.9999999999990905
 31
0.0
1001
ACDBBLOCKREPETAG
1070
     1
1071
       74
1005
147AB4
  0
LINE
  5
147AB5
  8
OBJECT
 10
8086.0
 20
-261.9999999999990905
 30
0.0
 11
8080.0
 21
-261.9999999999990905
 31
0.0
1001
ACDBBLOCKREPETAG
1070
     1
1071
       75
1005
147AB5
  0
LINE
  5
147AB6
  8
OBJECT
 10
8143.0
 20
-271.9999999999990905
 30
0.0
 11
8101.4999999999990905
 21
-271.9999999999990905
 31
0.0
1001
ACDBBLOCKREPETAG
1070
     1
1071
       76
1005
147AB6
  0
LINE
  5
147AB7
  8
OBJECT
 10
8101.4999999999990905
 20
-271.9999999999990905
 30
0.0
 11
8090.0
 21
-265.4999999999990905
 31
0.0
1001
ACDBBLOCKREPETAG
1070
     1
1071
       77
1005
147AB7
  0
LINE
  5
147AB8
  8
OBJECT
 10
8090.0
 20
-265.4999999999990905
 30
0.0
 11
8086.0
 21
-261.9999999999990905
 31
0.0
1001
ACDBBLOCKREPETAG
1070
     1
1071
       78
1005
147AB8
  0
LINE
  5
147AB9
  8
OBJECT
 10
8101.4999999999990905
 20
-127.9999999999991047
 30
0.0
 11
8090.0
 21
-134.4999999999990905
 31
0.0
1001
ACDBBLOCKREPETAG
1070
     1
1071
       79
1005
147AB9
  0
LINE
  5
147ABA
  8
OBJECT
 10
8090.0
 20
-134.4999999999990905
 30
0.0
 11
8086.0
 21
-137.9999999999990905
 31
0.0
1001
ACDBBLOCKREPETAG
1070
     1
1071
       80
1005
147ABA
  0
ARC
  5
147ABB
  8
OBJECT
 10
8467.9000000000014552
 20
-199.9999999999990905
 30
0.0
 40
386.8999999999999773
 50
170.7787013626042096
 51
189.2212986373957904
1001
ACDBBLOCKREPETAG
1070
     1
1071
       81
1005
147ABB
  0
LINE
  5
147ABC
  8
OBJECT
 10
8086.0
 20
-137.9999999999990905
 30
0.0
 11
8080.0
 21
-137.9999999999990905
 31
0.0
1001
ACDBBLOCKREPETAG
1070
     1
1071
       82
1005
147ABC
  0
LINE
  5
147ABD
  8
OBJECT
 10
8143.0
 20
-127.9999999999991047
 30
0.0
 11
8101.4999999999990905
 21
-127.9999999999991047
 31
0.0
1001
ACDBBLOCKREPETAG
1070
     1
1071
       83
1005
147ABD
  0
LINE
  5
147ABE
  8
OBJECT
 10
6062.0
 20
-332.9999999999990905
 30
0.0
 11
6062.0
 21
-339.9999999999990905
 31
0.0
1001
ACDBBLOCKREPETAG
1070
     1
1071
       47
1005
147ABE
  0
LINE
  5
147ABF
  8
OBJECT
 10
6062.0
 20
-339.9999999999990905
 30
0.0
 11
5938.0
 21
-339.9999999999990905
 31
0.0
1001
ACDBBLOCKREPETAG
1070
     1
1071
       48
1005
147ABF
  0
LINE
  5
147AC0
  8
OBJECT
 10
5938.0
 20
-339.9999999999990905
 30
0.0
 11
5938.0
 21
-332.9999999999990905
 31
0.0
1001
ACDBBLOCKREPETAG
1070
     1
1071
       49
1005
147AC0
  0
LINE
  5
147AC1
  8
OBJECT
 10
5938.0
 20
-332.9999999999990905
 30
0.0
 11
6062.0
 21
-332.9999999999990905
 31
0.0
1001
ACDBBLOCKREPETAG
1070
     1
1071
       50
1005
147AC1
  0
LINE
  5
147AC2
  8
CENTER
 10
6000.0
 20
-354.9999999999990905
 30
0.0
 11
6000.0
 21
-279.9999999999990905
 31
0.0
1001
ACDBBLOCKREPETAG
1070
     1
1071
       51
1005
147AC2
  0
LINE
  5
147AC3
  8
OBJECT
 10
6059.0
 20
-332.9999999999990905
 30
0.0
 11
6059.0
 21
-296.9999999999990905
 31
0.0
1001
ACDBBLOCKREPETAG
1070
     1
1071
       52
1005
147AC3
  0
LINE
  5
147AC4
  8
OBJECT
 10
6059.0
 20
-296.9999999999990905
 30
0.0
 11
5941.0
 21
-296.9999999999990905
 31
0.0
1001
ACDBBLOCKREPETAG
1070
     1
1071
       53
1005
147AC4
  0
LINE
  5
147AC5
  8
OBJECT
 10
5941.0
 20
-296.9999999999990905
 30
0.0
 11
5941.0
 21
-332.9999999999990905
 31
0.0
1001
ACDBBLOCKREPETAG
1070
     1
1071
       54
1005
147AC5
  0
LINE
  5
147AC6
  8
OBJECT
 10
6054.5
 20
-292.9999999999990905
 30
0.0
 11
6054.5
 21
-285.9999999999990905
 31
0.0
1001
ACDBBLOCKREPETAG
1070
     1
1071
       55
1005
147AC6
  0
LINE
  5
147AC7
  8
OBJECT
 10
5945.5
 20
-285.9999999999990905
 30
0.0
 11
5945.5
 21
-292.9999999999990905
 31
0.0
1001
ACDBBLOCKREPETAG
1070
     1
1071
       56
1005
147AC7
  0
LINE
  5
147AC8
  8
OBJECT
 10
5945.5
 20
-292.9999999999990905
 30
0.0
 11
6054.5
 21
-292.9999999999990905
 31
0.0
1001
ACDBBLOCKREPETAG
1070
     1
1071
       57
1005
147AC8
  0
LINE
  5
147AC9
  8
OBJECT
 10
6059.0
 20
-296.9999999999990905
 30
0.0
 11
6054.5
 21
-292.9999999999990905
 31
0.0
1001
ACDBBLOCKREPETAG
1070
     1
1071
       58
1005
147AC9
  0
LINE
  5
147ACA
  8
OBJECT
 10
5941.0
 20
-296.9999999999990905
 30
0.0
 11
5945.5
 21
-292.9999999999990905
 31
0.0
1001
ACDBBLOCKREPETAG
1070
     1
1071
       59
1005
147ACA
  0
LINE
  5
147ACB
  8
OBJECT
 10
6062.0
 20
-283.0
 30
0.0
 11
6062.0
 21
-279.9999999999990905
 31
0.0
1001
ACDBBLOCKREPETAG
1070
     1
1071
       60
1005
147ACB
  0
ARC
  5
147ACC
  8
OBJECT
 10
6059.0
 20
-283.0
 30
0.0
 40
3.0
 50
270.0
 51
0.0
1001
ACDBBLOCKREPETAG
1070
     1
1071
       61
1005
147ACC
  0
LINE
  5
147ACD
  8
OBJECT
 10
5938.0
 20
-279.9999999999990905
 30
0.0
 11
5938.0
 21
-282.999999999998181
 31
0.0
1001
ACDBBLOCKREPETAG
1070
     1
1071
       62
1005
147ACD
  0
ARC
  5
147ACE
  8
OBJECT
 10
5941.0
 20
-282.999999999998181
 30
0.0
 40
3.0
 50
180.0
 51
270.0
1001
ACDBBLOCKREPETAG
1070
     1
1071
       63
1005
147ACE
  0
LINE
  5
147ACF
  8
OBJECT
 10
5941.0
 20
-285.999999999998181
 30
0.0
 11
6059.0
 21
-286.0
 31
0.0
1001
ACDBBLOCKREPETAG
1070
     1
1071
       64
1005
147ACF
  0
LINE
  5
147AD0
  8
HIDDEN
 10
6044.5
 20
-287.9999999999990905
 30
0.0
 11
5955.5
 21
-287.9999999999990905
 31
0.0
1001
ACDBBLOCKREPETAG
1070
     1
1071
       65
1005
147AD0
  0
LINE
  5
147AD1
  8
OBJECT
 10
6150.0
 20
-124.9999999999991047
 30
0.0
 11
6143.0
 21
-124.9999999999991047
 31
0.0
1001
ACDBBLOCKREPETAG
1070
     1
1071
       67
1005
147AD1
  0
LINE
  5
147AD2
  8
OBJECT
 10
6143.0
 20
-124.9999999999991047
 30
0.0
 11
6143.0
 21
-274.9999999999990905
 31
0.0
1001
ACDBBLOCKREPETAG
1070
     1
1071
       68
1005
147AD2
  0
LINE
  5
147AD3
  8
OBJECT
 10
6101.5
 20
-127.9999999999991047
 30
0.0
 11
6101.5
 21
-271.9999999999990905
 31
0.0
1001
ACDBBLOCKREPETAG
1070
     1
1071
       69
1005
147AD3
  0
LINE
  5
147AD4
  8
OBJECT
 10
6090.0
 20
-134.4999999999990905
 30
0.0
 11
6090.0
 21
-265.4999999999990905
 31
0.0
1001
ACDBBLOCKREPETAG
1070
     1
1071
       70
1005
147AD4
  0
LINE
  5
147AD5
  8
OBJECT
 10
6143.0
 20
-274.9999999999990905
 30
0.0
 11
6150.0
 21
-274.9999999999990905
 31
0.0
1001
ACDBBLOCKREPETAG
1070
     1
1071
       71
1005
147AD5
  0
LINE
  5
147AD6
  8
OBJECT
 10
6150.0
 20
-274.9999999999990905
 30
0.0
 11
6150.0
 21
-124.9999999999991047
 31
0.0
1001
ACDBBLOCKREPETAG
1070
     1
1071
       72
1005
147AD6
  0
LINE
  5
147AD7
  8
HIDDEN
 10
6098.0
 20
-256.9999999999990905
 30
0.0
 11
6098.0
 21
-142.9999999999990905
 31
0.0
1001
ACDBBLOCKREPETAG
1070
     1
1071
       73
1005
147AD7
  0
LINE
  5
147AD8
  8
CENTER
 10
6165.0
 20
-199.9999999999990905
 30
0.0
 11
6080.0
 21
-199.9999999999990905
 31
0.0
1001
ACDBBLOCKREPETAG
1070
     1
1071
       74
1005
147AD8
  0
LINE
  5
147AD9
  8
OBJECT
 10
6086.0
 20
-261.9999999999990905
 30
0.0
 11
6080.0
 21
-261.9999999999990905
 31
0.0
1001
ACDBBLOCKREPETAG
1070
     1
1071
       75
1005
147AD9
  0
LINE
  5
147ADA
  8
OBJECT
 10
6143.0
 20
-271.9999999999990905
 30
0.0
 11
6101.5
 21
-271.9999999999990905
 31
0.0
1001
ACDBBLOCKREPETAG
1070
     1
1071
       76
1005
147ADA
  0
LINE
  5
147ADB
  8
OBJECT
 10
6101.5
 20
-271.9999999999990905
 30
0.0
 11
6090.0
 21
-265.4999999999990905
 31
0.0
1001
ACDBBLOCKREPETAG
1070
     1
1071
       77
1005
147ADB
  0
LINE
  5
147ADC
  8
OBJECT
 10
6090.0
 20
-265.4999999999990905
 30
0.0
 11
6086.0
 21
-261.9999999999990905
 31
0.0
1001
ACDBBLOCKREPETAG
1070
     1
1071
       78
1005
147ADC
  0
LINE
  5
147ADD
  8
OBJECT
 10
6101.5
 20
-127.9999999999991047
 30
0.0
 11
6090.0
 21
-134.4999999999990905
 31
0.0
1001
ACDBBLOCKREPETAG
1070
     1
1071
       79
1005
147ADD
  0
LINE
  5
147ADE
  8
OBJECT
 10
6090.0
 20
-134.4999999999990905
 30
0.0
 11
6086.0
 21
-137.9999999999990905
 31
0.0
1001
ACDBBLOCKREPETAG
1070
     1
1071
       80
1005
147ADE
  0
ARC
  5
147ADF
  8
OBJECT
 10
6467.9000000000005457
 20
-199.9999999999990905
 30
0.0
 40
386.8999999999999773
 50
170.7787013626042096
 51
189.2212986373957904
1001
ACDBBLOCKREPETAG
1070
     1
1071
       81
1005
147ADF
  0
LINE
  5
147AE0
  8
OBJECT
 10
6086.0
 20
-137.9999999999990905
 30
0.0
 11
6080.0
 21
-137.9999999999990905
 31
0.0
1001
ACDBBLOCKREPETAG
1070
     1
1071
       82
1005
147AE0
  0
LINE
  5
147AE1
  8
OBJECT
 10
6143.0
 20
-127.9999999999991047
 30
0.0
 11
6101.5
 21
-127.9999999999991047
 31
0.0
1001
ACDBBLOCKREPETAG
1070
     1
1071
       83
1005
147AE1
  0
LINE
  5
147AE2
  8
OBJECT
 10
4062.0
 20
-332.9999999999990905
 30
0.0
 11
4062.0
 21
-339.9999999999990905
 31
0.0
1001
ACDBBLOCKREPETAG
1070
     1
1071
       47
1005
147AE2
  0
LINE
  5
147AE3
  8
OBJECT
 10
4062.0
 20
-339.9999999999990905
 30
0.0
 11
3938.0
 21
-339.9999999999990905
 31
0.0
1001
ACDBBLOCKREPETAG
1070
     1
1071
       48
1005
147AE3
  0
LINE
  5
147AE4
  8
OBJECT
 10
3938.0
 20
-339.9999999999990905
 30
0.0
 11
3938.0
 21
-332.9999999999990905
 31
0.0
1001
ACDBBLOCKREPETAG
1070
     1
1071
       49
1005
147AE4
  0
LINE
  5
147AE5
  8
OBJECT
 10
3938.0
 20
-332.9999999999990905
 30
0.0
 11
4062.0
 21
-332.9999999999990905
 31
0.0
1001
ACDBBLOCKREPETAG
1070
     1
1071
       50
1005
147AE5
  0
LINE
  5
147AE6
  8
CENTER
 10
4000.0
 20
-354.9999999999990905
 30
0.0
 11
4000.0
 21
-279.9999999999990905
 31
0.0
1001
ACDBBLOCKREPETAG
1070
     1
1071
       51
1005
147AE6
  0
LINE
  5
147AE7
  8
OBJECT
 10
4059.0
 20
-332.9999999999990905
 30
0.0
 11
4059.0
 21
-296.9999999999990905
 31
0.0
1001
ACDBBLOCKREPETAG
1070
     1
1071
       52
1005
147AE7
  0
LINE
  5
147AE8
  8
OBJECT
 10
4059.0
 20
-296.9999999999990905
 30
0.0
 11
3941.0
 21
-296.9999999999990905
 31
0.0
1001
ACDBBLOCKREPETAG
1070
     1
1071
       53
1005
147AE8
  0
LINE
  5
147AE9
  8
OBJECT
 10
3941.0
 20
-296.9999999999990905
 30
0.0
 11
3941.0
 21
-332.9999999999990905
 31
0.0
1001
ACDBBLOCKREPETAG
1070
     1
1071
       54
1005
147AE9
  0
LINE
  5
147AEA
  8
OBJECT
 10
4054.4999999999990905
 20
-292.9999999999990905
 30
0.0
 11
4054.4999999999990905
 21
-285.9999999999990905
 31
0.0
1001
ACDBBLOCKREPETAG
1070
     1
1071
       55
1005
147AEA
  0
LINE
  5
147AEB
  8
OBJECT
 10
3945.5
 20
-285.9999999999990905
 30
0.0
 11
3945.5
 21
-292.9999999999990905
 31
0.0
1001
ACDBBLOCKREPETAG
1070
     1
1071
       56
1005
147AEB
  0
LINE
  5
147AEC
  8
OBJECT
 10
3945.5
 20
-292.9999999999990905
 30
0.0
 11
4054.4999999999990905
 21
-292.9999999999990905
 31
0.0
1001
ACDBBLOCKREPETAG
1070
     1
1071
       57
1005
147AEC
  0
LINE
  5
147AED
  8
OBJECT
 10
4059.0
 20
-296.9999999999990905
 30
0.0
 11
4054.4999999999990905
 21
-292.9999999999990905
 31
0.0
1001
ACDBBLOCKREPETAG
1070
     1
1071
       58
1005
147AED
  0
LINE
  5
147AEE
  8
OBJECT
 10
3941.0
 20
-296.9999999999990905
 30
0.0
 11
3945.5
 21
-292.9999999999990905
 31
0.0
1001
ACDBBLOCKREPETAG
1070
     1
1071
       59
1005
147AEE
  0
LINE
  5
147AEF
  8
OBJECT
 10
4062.0
 20
-283.0
 30
0.0
 11
4062.0
 21
-279.9999999999990905
 31
0.0
1001
ACDBBLOCKREPETAG
1070
     1
1071
       60
1005
147AEF
  0
ARC
  5
147AF0
  8
OBJECT
 10
4059.0
 20
-283.0
 30
0.0
 40
3.0
 50
270.0
 51
0.0
1001
ACDBBLOCKREPETAG
1070
     1
1071
       61
1005
147AF0
  0
LINE
  5
147AF1
  8
OBJECT
 10
3938.0
 20
-279.9999999999990905
 30
0.0
 11
3938.0
 21
-282.999999999998181
 31
0.0
1001
ACDBBLOCKREPETAG
1070
     1
1071
       62
1005
147AF1
  0
ARC
  5
147AF2
  8
OBJECT
 10
3941.0
 20
-282.999999999998181
 30
0.0
 40
3.0
 50
180.0
 51
270.0
1001
ACDBBLOCKREPETAG
1070
     1
1071
       63
1005
147AF2
  0
LINE
  5
147AF3
  8
OBJECT
 10
3941.0
 20
-285.999999999998181
 30
0.0
 11
4059.0
 21
-286.0
 31
0.0
1001
ACDBBLOCKREPETAG
1070
     1
1071
       64
1005
147AF3
  0
LINE
  5
147AF4
  8
HIDDEN
 10
4044.5
 20
-287.9999999999990905
 30
0.0
 11
3955.5
 21
-287.9999999999990905
 31
0.0
1001
ACDBBLOCKREPETAG
1070
     1
1071
       65
1005
147AF4
  0
LINE
  5
147AF5
  8
OBJECT
 10
4150.0
 20
-124.9999999999991047
 30
0.0
 11
4143.0
 21
-124.9999999999991047
 31
0.0
1001
ACDBBLOCKREPETAG
1070
     1
1071
       67
1005
147AF5
  0
LINE
  5
147AF6
  8
OBJECT
 10
4143.0
 20
-124.9999999999991047
 30
0.0
 11
4143.0
 21
-274.9999999999990905
 31
0.0
1001
ACDBBLOCKREPETAG
1070
     1
1071
       68
1005
147AF6
  0
LINE
  5
147AF7
  8
OBJECT
 10
4101.5
 20
-127.9999999999991047
 30
0.0
 11
4101.5
 21
-271.9999999999990905
 31
0.0
1001
ACDBBLOCKREPETAG
1070
     1
1071
       69
1005
147AF7
  0
LINE
  5
147AF8
  8
OBJECT
 10
4090.0
 20
-134.4999999999990905
 30
0.0
 11
4090.0
 21
-265.4999999999990905
 31
0.0
1001
ACDBBLOCKREPETAG
1070
     1
1071
       70
1005
147AF8
  0
LINE
  5
147AF9
  8
OBJECT
 10
4143.0
 20
-274.9999999999990905
 30
0.0
 11
4150.0
 21
-274.9999999999990905
 31
0.0
1001
ACDBBLOCKREPETAG
1070
     1
1071
       71
1005
147AF9
  0
LINE
  5
147AFA
  8
OBJECT
 10
4150.0
 20
-274.9999999999990905
 30
0.0
 11
4150.0
 21
-124.9999999999991047
 31
0.0
1001
ACDBBLOCKREPETAG
1070
     1
1071
       72
1005
147AFA
  0
LINE
  5
147AFB
  8
HIDDEN
 10
4098.0
 20
-256.9999999999990905
 30
0.0
 11
4098.0
 21
-142.9999999999990905
 31
0.0
1001
ACDBBLOCKREPETAG
1070
     1
1071
       73
1005
147AFB
  0
LINE
  5
147AFC
  8
CENTER
 10
4165.0
 20
-199.9999999999990905
 30
0.0
 11
4080.0
 21
-199.9999999999990905
 31
0.0
1001
ACDBBLOCKREPETAG
1070
     1
1071
       74
1005
147AFC
  0
LINE
  5
147AFD
  8
OBJECT
 10
4086.0
 20
-261.9999999999990905
 30
0.0
 11
4080.0
 21
-261.9999999999990905
 31
0.0
1001
ACDBBLOCKREPETAG
1070
     1
1071
       75
1005
147AFD
  0
LINE
  5
147AFE
  8
OBJECT
 10
4143.0
 20
-271.9999999999990905
 30
0.0
 11
4101.5
 21
-271.9999999999990905
 31
0.0
1001
ACDBBLOCKREPETAG
1070
     1
1071
       76
1005
147AFE
  0
LINE
  5
147AFF
  8
OBJECT
 10
4101.5
 20
-271.9999999999990905
 30
0.0
 11
4090.0
 21
-265.4999999999990905
 31
0.0
1001
ACDBBLOCKREPETAG
1070
     1
1071
       77
1005
147AFF
  0
LINE
  5
147B00
  8
OBJECT
 10
4090.0
 20
-265.4999999999990905
 30
0.0
 11
4086.0
 21
-261.9999999999990905
 31
0.0
1001
ACDBBLOCKREPETAG
1070
     1
1071
       78
1005
147B00
  0
LINE
  5
147B01
  8
OBJECT
 10
4101.5
 20
-127.9999999999991047
 30
0.0
 11
4090.0
 21
-134.4999999999990905
 31
0.0
1001
ACDBBLOCKREPETAG
1070
     1
1071
       79
1005
147B01
  0
LINE
  5
147B02
  8
OBJECT
 10
4090.0
 20
-134.4999999999990905
 30
0.0
 11
4086.0
 21
-137.9999999999990905
 31
0.0
1001
ACDBBLOCKREPETAG
1070
     1
1071
       80
1005
147B02
  0
ARC
  5
147B03
  8
OBJECT
 10
4467.9000000000005457
 20
-199.9999999999990905
 30
0.0
 40
386.8999999999999773
 50
170.7787013626042096
 51
189.2212986373957904
1001
ACDBBLOCKREPETAG
1070
     1
1071
       81
1005
147B03
  0
LINE
  5
147B04
  8
OBJECT
 10
4086.0
 20
-137.9999999999990905
 30
0.0
 11
4080.0
 21
-137.9999999999990905
 31
0.0
1001
ACDBBLOCKREPETAG
1070
     1
1071
       82
1005
147B04
  0
LINE
  5
147B05
  8
OBJECT
 10
4143.0
 20
-127.9999999999991047
 30
0.0
 11
4101.5
 21
-127.9999999999991047
 31
0.0
1001
ACDBBLOCKREPETAG
1070
     1
1071
       83
1005
147B05
  0
CIRCLE
  5
147B06
  8
OBJECT
 10
515.9999999971878424
 20
-694.343386472416455
 30
0.0
 40
63.0
1001
ACDBBLOCKREPETAG
1070
     1
1071
       43
1005
147B06
  0
CIRCLE
  5
147B07
  8
OBJECT
 10
515.9999999971878424
 20
-694.343386472416455
 30
0.0
 40
75.0
1001
ACDBBLOCKREPETAG
1070
     1
1071
       44
1005
147B07
  0
ARC
  5
147B08
  8
OBJECT
 10
515.9999999971878424
 20
-694.343386472416455
 30
0.0
 40
80.0
 50
140.8050325737787034
 51
219.1949674262212966
1001
ACDBBLOCKREPETAG
1070
     1
1071
       45
1005
147B08
  0
LINE
  5
147B09
  8
OBJECT
 10
453.9999999971877855
 20
-652.1414907803980441
 30
0.0
 11
453.9999999971877855
 21
-614.343386472416455
 31
0.0
1001
ACDBBLOCKREPETAG
1070
     1
1071
       46
1005
147B09
  0
LINE
  5
147B0A
  8
OBJECT
 10
577.9999999971878424
 20
-632.343386472416455
 30
0.0
 11
577.9999999971878424
 21
-614.343386472416455
 31
0.0
1001
ACDBBLOCKREPETAG
1070
     1
1071
       22
1005
147B0A
  0
LINE
  5
147B0B
  8
OBJECT
 10
577.9999999971878424
 20
-632.343386472416455
 30
0.0
 11
595.9999999971878424
 21
-632.343386472416455
 31
0.0
1001
ACDBBLOCKREPETAG
1070
     1
1071
       24
1005
147B0B
  0
LINE
  5
147B0C
  8
OBJECT
 10
577.9999999971878424
 20
-756.343386472416455
 30
0.0
 11
595.9999999971878424
 21
-756.343386472416455
 31
0.0
1001
ACDBBLOCKREPETAG
1070
     1
1071
       25
1005
147B0C
  0
LINE
  5
147B0D
  8
OBJECT
 10
577.9999999971878424
 20
-756.343386472416455
 30
0.0
 11
577.9999999971878424
 21
-774.343386472416455
 31
0.0
1001
ACDBBLOCKREPETAG
1070
     1
1071
       27
1005
147B0D
  0
LINE
  5
147B0E
  8
OBJECT
 10
453.9999999971877855
 20
-736.5452821644349797
 30
0.0
 11
453.9999999971877855
 21
-774.343386472416455
 31
0.0
1001
ACDBBLOCKREPETAG
1070
     1
1071
       28
1005
147B0E
  0
LINE
  5
147B0F
  8
OBJECT
 10
569.0330085861788803
 20
-747.3763950614076066
 30
0.0
 11
577.9999999971878424
 21
-756.343386472416455
 31
0.0
1001
ACDBBLOCKREPETAG
1070
     1
1071
       37
1005
147B0F
  0
LINE
  5
147B10
  8
OBJECT
 10
569.0330085861788803
 20
-641.3103778834255309
 30
0.0
 11
577.9999999971878424
 21
-632.343386472416455
 31
0.0
1001
ACDBBLOCKREPETAG
1070
     1
1071
       38
1005
147B10
  0
POINT
  5
147B11
  8
DOTS
 10
515.9999999971878424
 20
-694.343386472416455
 30
0.0
1001
ACDBBLOCKREPETAG
1070
     1
1071
       39
1005
147B11
  0
CIRCLE
  5
147B12
  8
OBJECT
 10
155.999999997187814
 20
-694.343386472416455
 30
0.0
 40
63.0
1001
ACDBBLOCKREPETAG
1070
     1
1071
       43
1005
147B12
  0
CIRCLE
  5
147B13
  8
OBJECT
 10
155.999999997187814
 20
-694.343386472416455
 30
0.0
 40
75.0
1001
ACDBBLOCKREPETAG
1070
     1
1071
       44
1005
147B13
  0
ARC
  5
147B14
  8
OBJECT
 10
155.999999997187814
 20
-694.343386472416455
 30
0.0
 40
80.0
 50
140.8050325737796982
 51
219.1949674262201881
1001
ACDBBLOCKREPETAG
1070
     1
1071
       45
1005
147B14
  0
LINE
  5
147B15
  8
OBJECT
 10
93.9999999971878566
 20
-652.1414907803980441
 30
0.0
 11
93.9999999971878566
 21
-614.343386472416455
 31
0.0
1001
ACDBBLOCKREPETAG
1070
     1
1071
       46
1005
147B15
  0
LINE
  5
147B16
  8
OBJECT
 10
217.9999999971878992
 20
-632.343386472416455
 30
0.0
 11
217.9999999971878992
 21
-614.343386472416455
 31
0.0
1001
ACDBBLOCKREPETAG
1070
     1
1071
       22
1005
147B16
  0
LINE
  5
147B17
  8
OBJECT
 10
217.9999999971878992
 20
-632.343386472416455
 30
0.0
 11
235.999999997187814
 21
-632.343386472416455
 31
0.0
1001
ACDBBLOCKREPETAG
1070
     1
1071
       24
1005
147B17
  0
LINE
  5
147B18
  8
OBJECT
 10
217.9999999971878992
 20
-756.343386472416455
 30
0.0
 11
235.999999997187814
 21
-756.343386472416455
 31
0.0
1001
ACDBBLOCKREPETAG
1070
     1
1071
       25
1005
147B18
  0
LINE
  5
147B19
  8
OBJECT
 10
217.9999999971878992
 20
-756.343386472416455
 30
0.0
 11
217.9999999971878992
 21
-774.343386472416455
 31
0.0
1001
ACDBBLOCKREPETAG
1070
     1
1071
       27
1005
147B19
  0
LINE
  5
147B1A
  8
OBJECT
 10
93.9999999971878566
 20
-736.5452821644349797
 30
0.0
 11
93.9999999971878566
 21
-774.343386472416455
 31
0.0
1001
ACDBBLOCKREPETAG
1070
     1
1071
       28
1005
147B1A
  0
LINE
  5
147B1B
  8
OBJECT
 10
209.0330085861789087
 20
-747.3763950614076066
 30
0.0
 11
217.9999999971878992
 21
-756.343386472416455
 31
0.0
1001
ACDBBLOCKREPETAG
1070
     1
1071
       37
1005
147B1B
  0
LINE
  5
147B1C
  8
OBJECT
 10
209.0330085861789087
 20
-641.3103778834255309
 30
0.0
 11
217.9999999971878992
 21
-632.343386472416455
 31
0.0
1001
ACDBBLOCKREPETAG
1070
     1
1071
       38
1005
147B1C
  0
POINT
  5
147B1D
  8
DOTS
 10
155.999999997187814
 20
-694.343386472416455
 30
0.0
1001
ACDBBLOCKREPETAG
1070
     1
1071
       39
1005
147B1D
  0
CIRCLE
  5
147B1E
  8
OBJECT
 10
515.9999999971878424
 20
-230.3433864724165971
 30
0.0
 40
63.0
1001
ACDBBLOCKREPETAG
1070
     1
1071
       43
1005
147B1E
  0
CIRCLE
  5
147B1F
  8
OBJECT
 10
515.9999999971878424
 20
-230.3433864724165971
 30
0.0
 40
75.0
1001
ACDBBLOCKREPETAG
1070
     1
1071
       44
1005
147B1F
  0
ARC
  5
147B20
  8
OBJECT
 10
515.9999999971878424
 20
-230.3433864724165971
 30
0.0
 40
80.0
 50
140.8050325737800108
 51
219.1949674262199892
1001
ACDBBLOCKREPETAG
1070
     1
1071
       45
1005
147B20
  0
LINE
  5
147B21
  8
OBJECT
 10
453.9999999971877855
 20
-188.1414907803981862
 30
0.0
 11
453.9999999971877855
 21
-150.3433864724165119
 31
0.0
1001
ACDBBLOCKREPETAG
1070
     1
1071
       46
1005
147B21
  0
LINE
  5
147B22
  8
OBJECT
 10
577.9999999971878424
 20
-168.3433864724165971
 30
0.0
 11
577.9999999971878424
 21
-150.3433864724165119
 31
0.0
1001
ACDBBLOCKREPETAG
1070
     1
1071
       22
1005
147B22
  0
LINE
  5
147B23
  8
OBJECT
 10
577.9999999971878424
 20
-168.3433864724165971
 30
0.0
 11
595.9999999971878424
 21
-168.3433864724165971
 31
0.0
1001
ACDBBLOCKREPETAG
1070
     1
1071
       24
1005
147B23
  0
LINE
  5
147B24
  8
OBJECT
 10
577.9999999971878424
 20
-292.3433864724166256
 30
0.0
 11
595.9999999971878424
 21
-292.3433864724166256
 31
0.0
1001
ACDBBLOCKREPETAG
1070
     1
1071
       25
1005
147B24
  0
LINE
  5
147B25
  8
OBJECT
 10
577.9999999971878424
 20
-292.3433864724166256
 30
0.0
 11
577.9999999971878424
 21
-310.3433864724166256
 31
0.0
1001
ACDBBLOCKREPETAG
1070
     1
1071
       27
1005
147B25
  0
LINE
  5
147B26
  8
OBJECT
 10
453.9999999971877855
 20
-272.5452821644349797
 30
0.0
 11
453.9999999971877855
 21
-310.3433864724166256
 31
0.0
1001
ACDBBLOCKREPETAG
1070
     1
1071
       28
1005
147B26
  0
LINE
  5
147B27
  8
OBJECT
 10
569.0330085861788803
 20
-283.3763950614076066
 30
0.0
 11
577.9999999971878424
 21
-292.3433864724166256
 31
0.0
1001
ACDBBLOCKREPETAG
1070
     1
1071
       37
1005
147B27
  0
LINE
  5
147B28
  8
OBJECT
 10
569.0330085861788803
 20
-177.3103778834255024
 30
0.0
 11
577.9999999971878424
 21
-168.3433864724165971
 31
0.0
1001
ACDBBLOCKREPETAG
1070
     1
1071
       38
1005
147B28
  0
POINT
  5
147B29
  8
DOTS
 10
515.9999999971878424
 20
-230.3433864724165971
 30
0.0
1001
ACDBBLOCKREPETAG
1070
     1
1071
       39
1005
147B29
  0
CIRCLE
  5
147B2A
  8
OBJECT
 10
155.999999997187814
 20
-230.3433864724165971
 30
0.0
 40
63.0
1001
ACDBBLOCKREPETAG
1070
     1
1071
       43
1005
147B2A
  0
CIRCLE
  5
147B2B
  8
OBJECT
 10
155.999999997187814
 20
-230.3433864724165971
 30
0.0
 40
75.0
1001
ACDBBLOCKREPETAG
1070
     1
1071
       44
1005
147B2B
  0
ARC
  5
147B2C
  8
OBJECT
 10
155.999999997187814
 20
-230.3433864724165971
 30
0.0
 40
80.0
 50
140.8050325737810056
 51
219.1949674262189944
1001
ACDBBLOCKREPETAG
1070
     1
1071
       45
1005
147B2C
  0
LINE
  5
147B2D
  8
OBJECT
 10
93.9999999971878566
 20
-188.1414907803981862
 30
0.0
 11
93.9999999971878566
 21
-150.3433864724165119
 31
0.0
1001
ACDBBLOCKREPETAG
1070
     1
1071
       46
1005
147B2D
  0
LINE
  5
147B2E
  8
OBJECT
 10
217.9999999971878992
 20
-168.3433864724165971
 30
0.0
 11
217.9999999971878992
 21
-150.3433864724165119
 31
0.0
1001
ACDBBLOCKREPETAG
1070
     1
1071
       22
1005
147B2E
  0
LINE
  5
147B2F
  8
OBJECT
 10
217.9999999971878992
 20
-168.3433864724165971
 30
0.0
 11
235.999999997187814
 21
-168.3433864724165971
 31
0.0
1001
ACDBBLOCKREPETAG
1070
     1
1071
       24
1005
147B2F
  0
LINE
  5
147B30
  8
OBJECT
 10
217.9999999971878992
 20
-292.3433864724166256
 30
0.0
 11
235.999999997187814
 21
-292.3433864724166256
 31
0.0
1001
ACDBBLOCKREPETAG
1070
     1
1071
       25
1005
147B30
  0
LINE
  5
147B31
  8
OBJECT
 10
217.9999999971878992
 20
-292.3433864724166256
 30
0.0
 11
217.9999999971878992
 21
-310.3433864724166256
 31
0.0
1001
ACDBBLOCKREPETAG
1070
     1
1071
       27
1005
147B31
  0
LINE
  5
147B32
  8
OBJECT
 10
93.9999999971878566
 20
-272.5452821644349797
 30
0.0
 11
93.9999999971878566
 21
-310.3433864724166256
 31
0.0
1001
ACDBBLOCKREPETAG
1070
     1
1071
       28
1005
147B32
  0
LINE
  5
147B33
  8
OBJECT
 10
209.0330085861789087
 20
-283.3763950614076066
 30
0.0
 11
217.9999999971878992
 21
-292.3433864724166256
 31
0.0
1001
ACDBBLOCKREPETAG
1070
     1
1071
       37
1005
147B33
  0
LINE
  5
147B34
  8
OBJECT
 10
209.0330085861789087
 20
-177.3103778834255024
 30
0.0
 11
217.9999999971878992
 21
-168.3433864724165971
 31
0.0
1001
ACDBBLOCKREPETAG
1070
     1
1071
       38
1005
147B34
  0
POINT
  5
147B35
  8
DOTS
 10
155.999999997187814
 20
-230.3433864724165971
 30
0.0
1001
ACDBBLOCKREPETAG
1070
     1
1071
       39
1005
147B35
  0
LINE
  5
147B36
  8
OBJECT
 10
80.9999999971878424
 20
-544.3433864724229352
 30
0.0
 11
80.9999999971878424
 21
-551.3433864724229352
 31
0.0
1001
ACDBBLOCKREPETAG
1070
     1
1071
       57
1005
147B36
  0
LINE
  5
147B37
  8
OBJECT
 10
80.9999999971878424
 20
-551.3433864724229352
 30
0.0
 11
230.999999997187814
 21
-551.3433864724229352
 31
0.0
1001
ACDBBLOCKREPETAG
1070
     1
1071
       58
1005
147B37
  0
LINE
  5
147B38
  8
OBJECT
 10
83.9999999971878566
 20
-592.8433864724229352
 30
0.0
 11
227.999999997187814
 21
-592.8433864724229352
 31
0.0
1001
ACDBBLOCKREPETAG
1070
     1
1071
       59
1005
147B38
  0
LINE
  5
147B39
  8
OBJECT
 10
90.4999999971878282
 20
-604.3433864724229352
 30
0.0
 11
221.499999997187814
 21
-604.3433864724229352
 31
0.0
1001
ACDBBLOCKREPETAG
1070
     1
1071
       60
1005
147B39
  0
LINE
  5
147B3A
  8
OBJECT
 10
230.999999997187814
 20
-551.3433864724229352
 30
0.0
 11
230.999999997187814
 21
-544.3433864724229352
 31
0.0
1001
ACDBBLOCKREPETAG
1070
     1
1071
       61
1005
147B3A
  0
LINE
  5
147B3B
  8
OBJECT
 10
230.999999997187814
 20
-544.3433864724229352
 30
0.0
 11
80.9999999971878424
 21
-544.3433864724229352
 31
0.0
1001
ACDBBLOCKREPETAG
1070
     1
1071
       62
1005
147B3B
  0
LINE
  5
147B3C
  8
OBJECT
 10
217.9999999971878992
 20
-608.3433864724229352
 30
0.0
 11
217.9999999971878992
 21
-614.3433864724229352
 31
0.0
1001
ACDBBLOCKREPETAG
1070
     1
1071
       63
1005
147B3C
  0
LINE
  5
147B3D
  8
OBJECT
 10
227.999999997187814
 20
-551.3433864724229352
 30
0.0
 11
227.999999997187814
 21
-592.8433864724229352
 31
0.0
1001
ACDBBLOCKREPETAG
1070
     1
1071
       64
1005
147B3D
  0
LINE
  5
147B3E
  8
OBJECT
 10
227.999999997187814
 20
-592.8433864724229352
 30
0.0
 11
221.499999997187814
 21
-604.3433864724229352
 31
0.0
1001
ACDBBLOCKREPETAG
1070
     1
1071
       65
1005
147B3E
  0
LINE
  5
147B3F
  8
OBJECT
 10
221.499999997187814
 20
-604.3433864724229352
 30
0.0
 11
217.9999999971878992
 21
-608.3433864724229352
 31
0.0
1001
ACDBBLOCKREPETAG
1070
     1
1071
       66
1005
147B3F
  0
LINE
  5
147B40
  8
OBJECT
 10
83.9999999971878566
 20
-592.8433864724229352
 30
0.0
 11
90.4999999971878282
 21
-604.3433864724229352
 31
0.0
1001
ACDBBLOCKREPETAG
1070
     1
1071
       67
1005
147B40
  0
LINE
  5
147B41
  8
OBJECT
 10
90.4999999971878282
 20
-604.3433864724229352
 30
0.0
 11
93.9999999971878566
 21
-608.3433864724229352
 31
0.0
1001
ACDBBLOCKREPETAG
1070
     1
1071
       68
1005
147B41
  0
ARC
  5
147B42
  8
OBJECT
 10
155.999999997187814
 20
-226.4433864724215084
 30
0.0
 40
386.8999999999999773
 50
260.7787013625795112
 51
279.2212986374204888
1001
ACDBBLOCKREPETAG
1070
     1
1071
       69
1005
147B42
  0
LINE
  5
147B43
  8
OBJECT
 10
93.9999999971878566
 20
-608.3433864724229352
 30
0.0
 11
93.9999999971878566
 21
-614.3433864724229352
 31
0.0
1001
ACDBBLOCKREPETAG
1070
     1
1071
       70
1005
147B43
  0
LINE
  5
147B44
  8
OBJECT
 10
83.9999999971878566
 20
-551.3433864724229352
 30
0.0
 11
83.9999999971878566
 21
-592.8433864724229352
 31
0.0
1001
ACDBBLOCKREPETAG
1070
     1
1071
       71
1005
147B44
  0
INSERT
  5
147B45
  8
0
  2
*U125
 10
0.0
 20
0.0
 30
0.0
  0
LINE
  5
147B46
  8
HIDDEN
 10
212.999999997187814
 20
-596.3433864724229352
 30
0.0
 11
98.9999999971878566
 21
-596.3433864724229352
 31
0.0
1001
ACDBBLOCKREPETAG
1070
     1
1071
      431
1005
147B46
  0
INSERT
  5
147B47
  8
0
  2
*U126
 10
0.0
 20
0.0
 30
0.0
  0
LINE
  5
147B48
  8
OBJECT
 10
440.9999999972715159
 20
-544.3433864724229352
 30
0.0
 11
440.9999999972715159
 21
-551.3433864724229352
 31
0.0
1001
ACDBBLOCKREPETAG
1070
     1
1071
       57
1005
147B48
  0
LINE
  5
147B49
  8
OBJECT
 10
440.9999999972715159
 20
-551.3433864724229352
 30
0.0
 11
590.9999999972715159
 21
-551.3433864724229352
 31
0.0
1001
ACDBBLOCKREPETAG
1070
     1
1071
       58
1005
147B49
  0
LINE
  5
147B4A
  8
OBJECT
 10
443.9999999972715159
 20
-592.8433864724229352
 30
0.0
 11
587.9999999972715159
 21
-592.8433864724229352
 31
0.0
1001
ACDBBLOCKREPETAG
1070
     1
1071
       59
1005
147B4A
  0
LINE
  5
147B4B
  8
OBJECT
 10
450.4999999972715159
 20
-604.3433864724229352
 30
0.0
 11
581.4999999972715159
 21
-604.3433864724229352
 31
0.0
1001
ACDBBLOCKREPETAG
1070
     1
1071
       60
1005
147B4B
  0
LINE
  5
147B4C
  8
OBJECT
 10
590.9999999972715159
 20
-551.3433864724229352
 30
0.0
 11
590.9999999972715159
 21
-544.3433864724229352
 31
0.0
1001
ACDBBLOCKREPETAG
1070
     1
1071
       61
1005
147B4C
  0
LINE
  5
147B4D
  8
OBJECT
 10
590.9999999972715159
 20
-544.3433864724229352
 30
0.0
 11
440.9999999972715159
 21
-544.3433864724229352
 31
0.0
1001
ACDBBLOCKREPETAG
1070
     1
1071
       62
1005
147B4D
  0
LINE
  5
147B4E
  8
OBJECT
 10
577.9999999972715159
 20
-608.3433864724229352
 30
0.0
 11
577.9999999972715159
 21
-614.3433864724229352
 31
0.0
1001
ACDBBLOCKREPETAG
1070
     1
1071
       63
1005
147B4E
  0
LINE
  5
147B4F
  8
OBJECT
 10
587.9999999972715159
 20
-551.3433864724229352
 30
0.0
 11
587.9999999972715159
 21
-592.8433864724229352
 31
0.0
1001
ACDBBLOCKREPETAG
1070
     1
1071
       64
1005
147B4F
  0
LINE
  5
147B50
  8
OBJECT
 10
587.9999999972715159
 20
-592.8433864724229352
 30
0.0
 11
581.4999999972715159
 21
-604.3433864724229352
 31
0.0
1001
ACDBBLOCKREPETAG
1070
     1
1071
       65
1005
147B50
  0
LINE
  5
147B51
  8
OBJECT
 10
581.4999999972715159
 20
-604.3433864724229352
 30
0.0
 11
577.9999999972715159
 21
-608.3433864724229352
 31
0.0
1001
ACDBBLOCKREPETAG
1070
     1
1071
       66
1005
147B51
  0
LINE
  5
147B52
  8
OBJECT
 10
443.9999999972715159
 20
-592.8433864724229352
 30
0.0
 11
450.4999999972715159
 21
-604.3433864724229352
 31
0.0
1001
ACDBBLOCKREPETAG
1070
     1
1071
       67
1005
147B52
  0
LINE
  5
147B53
  8
OBJECT
 10
450.4999999972715159
 20
-604.3433864724229352
 30
0.0
 11
453.9999999972715159
 21
-608.3433864724229352
 31
0.0
1001
ACDBBLOCKREPETAG
1070
     1
1071
       68
1005
147B53
  0
ARC
  5
147B54
  8
OBJECT
 10
515.9999999972715159
 20
-226.4433864724215084
 30
0.0
 40
386.8999999999999773
 50
260.7787013625795112
 51
279.2212986374204888
1001
ACDBBLOCKREPETAG
1070
     1
1071
       69
1005
147B54
  0
LINE
  5
147B55
  8
OBJECT
 10
453.9999999972715159
 20
-608.3433864724229352
 30
0.0
 11
453.9999999972715159
 21
-614.3433864724229352
 31
0.0
1001
ACDBBLOCKREPETAG
1070
     1
1071
       70
1005
147B55
  0
LINE
  5
147B56
  8
OBJECT
 10
443.9999999972715159
 20
-551.3433864724229352
 30
0.0
 11
443.9999999972715159
 21
-592.8433864724229352
 31
0.0
1001
ACDBBLOCKREPETAG
1070
     1
1071
       71
1005
147B56
  0
INSERT
  5
147B57
  8
0
  2
*U127
 10
0.0
 20
0.0
 30
0.0
  0
LINE
  5
147B58
  8
HIDDEN
 10
572.9999999972715159
 20
-596.3433864724229352
 30
0.0
 11
458.9999999972715159
 21
-596.3433864724229352
 31
0.0
1001
ACDBBLOCKREPETAG
1070
     1
1071
      431
1005
147B58
  0
LINE
  5
147B59
  8
OBJECT
 10
440.9999999972715159
 20
-80.3433864724165687
 30
0.0
 11
440.9999999972715159
 21
-87.3433864724165545
 31
0.0
1001
ACDBBLOCKREPETAG
1070
     1
1071
       57
1005
147B59
  0
LINE
  5
147B5A
  8
OBJECT
 10
440.9999999972715159
 20
-87.3433864724165545
 30
0.0
 11
590.9999999972715159
 21
-87.3433864724165545
 31
0.0
1001
ACDBBLOCKREPETAG
1070
     1
1071
       58
1005
147B5A
  0
LINE
  5
147B5B
  8
OBJECT
 10
443.9999999972715159
 20
-128.8433864724165119
 30
0.0
 11
587.9999999972715159
 21
-128.8433864724165119
 31
0.0
1001
ACDBBLOCKREPETAG
1070
     1
1071
       59
1005
147B5B
  0
LINE
  5
147B5C
  8
OBJECT
 10
450.4999999972715159
 20
-140.3433864724165119
 30
0.0
 11
581.4999999972715159
 21
-140.3433864724165119
 31
0.0
1001
ACDBBLOCKREPETAG
1070
     1
1071
       60
1005
147B5C
  0
LINE
  5
147B5D
  8
OBJECT
 10
590.9999999972715159
 20
-87.3433864724165545
 30
0.0
 11
590.9999999972715159
 21
-80.3433864724165687
 31
0.0
1001
ACDBBLOCKREPETAG
1070
     1
1071
       61
1005
147B5D
  0
LINE
  5
147B5E
  8
OBJECT
 10
590.9999999972715159
 20
-80.3433864724165687
 30
0.0
 11
440.9999999972715159
 21
-80.3433864724165687
 31
0.0
1001
ACDBBLOCKREPETAG
1070
     1
1071
       62
1005
147B5E
  0
LINE
  5
147B5F
  8
OBJECT
 10
577.9999999972715159
 20
-144.3433864724165119
 30
0.0
 11
577.9999999972715159
 21
-150.3433864724165119
 31
0.0
1001
ACDBBLOCKREPETAG
1070
     1
1071
       63
1005
147B5F
  0
LINE
  5
147B60
  8
OBJECT
 10
587.9999999972715159
 20
-87.3433864724165545
 30
0.0
 11
587.9999999972715159
 21
-128.8433864724165119
 31
0.0
1001
ACDBBLOCKREPETAG
1070
     1
1071
       64
1005
147B60
  0
LINE
  5
147B61
  8
OBJECT
 10
587.9999999972715159
 20
-128.8433864724165119
 30
0.0
 11
581.4999999972715159
 21
-140.3433864724165119
 31
0.0
1001
ACDBBLOCKREPETAG
1070
     1
1071
       65
1005
147B61
  0
LINE
  5
147B62
  8
OBJECT
 10
581.4999999972715159
 20
-140.3433864724165119
 30
0.0
 11
577.9999999972715159
 21
-144.3433864724165119
 31
0.0
1001
ACDBBLOCKREPETAG
1070
     1
1071
       66
1005
147B62
  0
LINE
  5
147B63
  8
OBJECT
 10
443.9999999972715159
 20
-128.8433864724165119
 30
0.0
 11
450.4999999972715159
 21
-140.3433864724165119
 31
0.0
1001
ACDBBLOCKREPETAG
1070
     1
1071
       67
1005
147B63
  0
LINE
  5
147B64
  8
OBJECT
 10
450.4999999972715159
 20
-140.3433864724165119
 30
0.0
 11
453.9999999972715159
 21
-144.3433864724165119
 31
0.0
1001
ACDBBLOCKREPETAG
1070
     1
1071
       68
1005
147B64
  0
ARC
  5
147B65
  8
OBJECT
 10
515.9999999972715159
 20
237.5566135275848865
 30
0.0
 40
386.8999999999999773
 50
260.7787013625789996
 51
279.2212986374210004
1001
ACDBBLOCKREPETAG
1070
     1
1071
       69
1005
147B65
  0
LINE
  5
147B66
  8
OBJECT
 10
453.9999999972715159
 20
-144.3433864724165119
 30
0.0
 11
453.9999999972715159
 21
-150.3433864724165119
 31
0.0
1001
ACDBBLOCKREPETAG
1070
     1
1071
       70
1005
147B66
  0
LINE
  5
147B67
  8
OBJECT
 10
443.9999999972715159
 20
-87.3433864724165545
 30
0.0
 11
443.9999999972715159
 21
-128.8433864724165119
 31
0.0
1001
ACDBBLOCKREPETAG
1070
     1
1071
       71
1005
147B67
  0
INSERT
  5
147B68
  8
0
  2
*U128
 10
0.0
 20
0.0
 30
0.0
  0
LINE
  5
147B69
  8
HIDDEN
 10
572.9999999972715159
 20
-132.3433864724165119
 30
0.0
 11
458.9999999972715159
 21
-132.3433864724165119
 31
0.0
1001
ACDBBLOCKREPETAG
1070
     1
1071
      431
1005
147B69
  0
INSERT
  5
147B6A
  8
0
  2
*U129
 10
0.0
 20
0.0
 30
0.0
  0
LINE
  5
147B6B
  8
OBJECT
 10
80.9999999971878424
 20
-80.3433864724165687
 30
0.0
 11
80.9999999971878424
 21
-87.3433864724165545
 31
0.0
1001
ACDBBLOCKREPETAG
1070
     1
1071
       57
1005
147B6B
  0
LINE
  5
147B6C
  8
OBJECT
 10
80.9999999971878424
 20
-87.3433864724165545
 30
0.0
 11
230.999999997187814
 21
-87.3433864724165545
 31
0.0
1001
ACDBBLOCKREPETAG
1070
     1
1071
       58
1005
147B6C
  0
LINE
  5
147B6D
  8
OBJECT
 10
83.9999999971878566
 20
-128.8433864724165119
 30
0.0
 11
227.999999997187814
 21
-128.8433864724165119
 31
0.0
1001
ACDBBLOCKREPETAG
1070
     1
1071
       59
1005
147B6D
  0
LINE
  5
147B6E
  8
OBJECT
 10
90.4999999971878282
 20
-140.3433864724165119
 30
0.0
 11
221.499999997187814
 21
-140.3433864724165119
 31
0.0
1001
ACDBBLOCKREPETAG
1070
     1
1071
       60
1005
147B6E
  0
LINE
  5
147B6F
  8
OBJECT
 10
230.999999997187814
 20
-87.3433864724165545
 30
0.0
 11
230.999999997187814
 21
-80.3433864724165687
 31
0.0
1001
ACDBBLOCKREPETAG
1070
     1
1071
       61
1005
147B6F
  0
LINE
  5
147B70
  8
OBJECT
 10
230.999999997187814
 20
-80.3433864724165687
 30
0.0
 11
80.9999999971878424
 21
-80.3433864724165687
 31
0.0
1001
ACDBBLOCKREPETAG
1070
     1
1071
       62
1005
147B70
  0
LINE
  5
147B71
  8
OBJECT
 10
217.9999999971878992
 20
-144.3433864724165119
 30
0.0
 11
217.9999999971878992
 21
-150.3433864724165119
 31
0.0
1001
ACDBBLOCKREPETAG
1070
     1
1071
       63
1005
147B71
  0
LINE
  5
147B72
  8
OBJECT
 10
227.999999997187814
 20
-87.3433864724165545
 30
0.0
 11
227.999999997187814
 21
-128.8433864724165119
 31
0.0
1001
ACDBBLOCKREPETAG
1070
     1
1071
       64
1005
147B72
  0
LINE
  5
147B73
  8
OBJECT
 10
227.999999997187814
 20
-128.8433864724165119
 30
0.0
 11
221.499999997187814
 21
-140.3433864724165119
 31
0.0
1001
ACDBBLOCKREPETAG
1070
     1
1071
       65
1005
147B73
  0
LINE
  5
147B74
  8
OBJECT
 10
221.499999997187814
 20
-140.3433864724165119
 30
0.0
 11
217.9999999971878992
 21
-144.3433864724165119
 31
0.0
1001
ACDBBLOCKREPETAG
1070
     1
1071
       66
1005
147B74
  0
LINE
  5
147B75
  8
OBJECT
 10
83.9999999971878566
 20
-128.8433864724165119
 30
0.0
 11
90.4999999971878282
 21
-140.3433864724165119
 31
0.0
1001
ACDBBLOCKREPETAG
1070
     1
1071
       67
1005
147B75
  0
LINE
  5
147B76
  8
OBJECT
 10
90.4999999971878282
 20
-140.3433864724165119
 30
0.0
 11
93.9999999971878566
 21
-144.3433864724165119
 31
0.0
1001
ACDBBLOCKREPETAG
1070
     1
1071
       68
1005
147B76
  0
ARC
  5
147B77
  8
OBJECT
 10
155.999999997187814
 20
237.5566135275848865
 30
0.0
 40
386.8999999999999773
 50
260.7787013625789996
 51
279.2212986374210004
1001
ACDBBLOCKREPETAG
1070
     1
1071
       69
1005
147B77
  0
LINE
  5
147B78
  8
OBJECT
 10
93.9999999971878566
 20
-144.3433864724165119
 30
0.0
 11
93.9999999971878566
 21
-150.3433864724165119
 31
0.0
1001
ACDBBLOCKREPETAG
1070
     1
1071
       70
1005
147B78
  0
LINE
  5
147B79
  8
OBJECT
 10
83.9999999971878566
 20
-87.3433864724165545
 30
0.0
 11
83.9999999971878566
 21
-128.8433864724165119
 31
0.0
1001
ACDBBLOCKREPETAG
1070
     1
1071
       71
1005
147B79
  0
INSERT
  5
147B7A
  8
0
  2
*U130
 10
0.0
 20
0.0
 30
0.0
  0
LINE
  5
147B7B
  8
HIDDEN
 10
212.999999997187814
 20
-132.3433864724165119
 30
0.0
 11
98.9999999971878566
 21
-132.3433864724165119
 31
0.0
1001
ACDBBLOCKREPETAG
1070
     1
1071
      431
1005
147B7B
  0
INSERT
  5
147B7C
  8
0
  2
*U131
 10
0.0
 20
0.0
 30
0.0
  0
LINE
  5
147B7D
  8
OBJECT
 10
93.9999999971878566
 20
-777.3433864718294899
 30
0.0
 11
93.9999999971878566
 21
-774.3433864718293762
 31
0.0
1001
ACDBBLOCKREPETAG
1070
     1
1071
      418
1005
147B7D
  0
ARC
  5
147B7E
  8
OBJECT
 10
96.9999999971878424
 20
-777.3433864718294899
 30
0.0
 40
3.0
 50
180.0
 51
270.0
1001
ACDBBLOCKREPETAG
1070
     1
1071
      419
1005
147B7E
  0
LINE
  5
147B7F
  8
OBJECT
 10
217.9999999971878992
 20
-774.3433864718293762
 30
0.0
 11
217.9999999971878992
 21
-777.3433864718294899
 31
0.0
1001
ACDBBLOCKREPETAG
1070
     1
1071
      420
1005
147B7F
  0
ARC
  5
147B80
  8
OBJECT
 10
214.999999997187814
 20
-777.3433864718294899
 30
0.0
 40
3.0
 50
270.0
 51
0.0
1001
ACDBBLOCKREPETAG
1070
     1
1071
      421
1005
147B80
  0
LINE
  5
147B81
  8
OBJECT
 10
214.999999997187814
 20
-780.3433864718294899
 30
0.0
 11
96.9999999971878424
 21
-780.3433864718294899
 31
0.0
1001
ACDBBLOCKREPETAG
1070
     1
1071
      422
1005
147B81
  0
INSERT
  5
147B82
  8
0
  2
*U132
 10
0.0
 20
0.0
 30
0.0
  0
LINE
  5
147B83
  8
OBJECT
 10
288.9999999971878992
 20
-632.3433864718293762
 30
0.0
 11
295.9999999971877855
 21
-632.3433864718293762
 31
0.0
1001
ACDBBLOCKREPETAG
1070
     1
1071
       39
1005
147B83
  0
LINE
  5
147B84
  8
OBJECT
 10
295.9999999971877855
 20
-632.3433864718293762
 30
0.0
 11
295.9999999971877855
 21
-756.3433864718294899
 31
0.0
1001
ACDBBLOCKREPETAG
1070
     1
1071
       40
1005
147B84
  0
LINE
  5
147B85
  8
OBJECT
 10
295.9999999971877855
 20
-756.3433864718294899
 30
0.0
 11
288.9999999971878992
 21
-756.3433864718294899
 31
0.0
1001
ACDBBLOCKREPETAG
1070
     1
1071
       41
1005
147B85
  0
LINE
  5
147B86
  8
OBJECT
 10
288.9999999971878992
 20
-756.3433864718294899
 30
0.0
 11
288.9999999971878992
 21
-632.3433864718293762
 31
0.0
1001
ACDBBLOCKREPETAG
1070
     1
1071
       42
1005
147B86
  0
LINE
  5
147B87
  8
OBJECT
 10
288.9999999971878992
 20
-635.3433864718294899
 30
0.0
 11
252.999999997187814
 21
-635.3433864718294899
 31
0.0
1001
ACDBBLOCKREPETAG
1070
     1
1071
       43
1005
147B87
  0
LINE
  5
147B88
  8
OBJECT
 10
252.999999997187814
 20
-635.3433864718294899
 30
0.0
 11
252.999999997187814
 21
-753.3433864718293762
 31
0.0
1001
ACDBBLOCKREPETAG
1070
     1
1071
       44
1005
147B88
  0
LINE
  5
147B89
  8
OBJECT
 10
252.999999997187814
 20
-753.3433864718293762
 30
0.0
 11
288.9999999971878992
 21
-753.3433864718293762
 31
0.0
1001
ACDBBLOCKREPETAG
1070
     1
1071
       45
1005
147B89
  0
LINE
  5
147B8A
  8
OBJECT
 10
248.999999997187814
 20
-639.8433864718294899
 30
0.0
 11
241.999999997187814
 21
-639.8433864718294899
 31
0.0
1001
ACDBBLOCKREPETAG
1070
     1
1071
       46
1005
147B8A
  0
LINE
  5
147B8B
  8
OBJECT
 10
241.999999997187814
 20
-748.8433864718293762
 30
0.0
 11
248.999999997187814
 21
-748.8433864718293762
 31
0.0
1001
ACDBBLOCKREPETAG
1070
     1
1071
       47
1005
147B8B
  0
LINE
  5
147B8C
  8
OBJECT
 10
248.999999997187814
 20
-748.8433864718293762
 30
0.0
 11
248.999999997187814
 21
-639.8433864718294899
 31
0.0
1001
ACDBBLOCKREPETAG
1070
     1
1071
       48
1005
147B8C
  0
LINE
  5
147B8D
  8
OBJECT
 10
252.999999997187814
 20
-635.3433864718294899
 30
0.0
 11
248.999999997187814
 21
-639.8433864718294899
 31
0.0
1001
ACDBBLOCKREPETAG
1070
     1
1071
       49
1005
147B8D
  0
LINE
  5
147B8E
  8
OBJECT
 10
252.999999997187814
 20
-753.3433864718293762
 30
0.0
 11
248.999999997187814
 21
-748.8433864718293762
 31
0.0
1001
ACDBBLOCKREPETAG
1070
     1
1071
       50
1005
147B8E
  0
LINE
  5
147B8F
  8
OBJECT
 10
238.9999999971896898
 20
-632.3433864718293762
 30
0.0
 11
235.999999997187814
 21
-632.3433864718293762
 31
0.0
1001
ACDBBLOCKREPETAG
1070
     1
1071
       51
1005
147B8F
  0
ARC
  5
147B90
  8
OBJECT
 10
238.9999999971896898
 20
-635.3433864718294899
 30
0.0
 40
3.0
 50
0.0
 51
90.0
1001
ACDBBLOCKREPETAG
1070
     1
1071
       52
1005
147B90
  0
LINE
  5
147B91
  8
OBJECT
 10
235.999999997187814
 20
-756.3433864718294899
 30
0.0
 11
238.999999997185995
 21
-756.3433864718294899
 31
0.0
1001
ACDBBLOCKREPETAG
1070
     1
1071
       53
1005
147B91
  0
ARC
  5
147B92
  8
OBJECT
 10
238.999999997185995
 20
-753.3433864718293762
 30
0.0
 40
3.0
 50
270.0
 51
0.0
1001
ACDBBLOCKREPETAG
1070
     1
1071
       54
1005
147B92
  0
LINE
  5
147B93
  8
OBJECT
 10
241.999999997185995
 20
-753.3433864718293762
 30
0.0
 11
241.9999999971896898
 21
-635.3433864718294899
 31
0.0
1001
ACDBBLOCKREPETAG
1070
     1
1071
       55
1005
147B93
  0
LINE
  5
147B94
  8
HIDDEN
 10
243.999999997187814
 20
-649.8433864718293762
 30
0.0
 11
243.999999997187814
 21
-738.8433864718294899
 31
0.0
1001
ACDBBLOCKREPETAG
1070
     1
1071
      430
1005
147B94
  0
LINE
  5
147B95
  8
OBJECT
 10
453.9999999972715159
 20
-777.3433864718294899
 30
0.0
 11
453.9999999972715159
 21
-774.3433864718293762
 31
0.0
1001
ACDBBLOCKREPETAG
1070
     1
1071
      418
1005
147B95
  0
ARC
  5
147B96
  8
OBJECT
 10
456.9999999972715159
 20
-777.3433864718294899
 30
0.0
 40
3.0
 50
180.0
 51
270.0
1001
ACDBBLOCKREPETAG
1070
     1
1071
      419
1005
147B96
  0
LINE
  5
147B97
  8
OBJECT
 10
577.9999999972715159
 20
-774.3433864718293762
 30
0.0
 11
577.9999999972715159
 21
-777.3433864718294899
 31
0.0
1001
ACDBBLOCKREPETAG
1070
     1
1071
      420
1005
147B97
  0
ARC
  5
147B98
  8
OBJECT
 10
574.9999999972715159
 20
-777.3433864718294899
 30
0.0
 40
3.0
 50
270.0
 51
0.0
1001
ACDBBLOCKREPETAG
1070
     1
1071
      421
1005
147B98
  0
LINE
  5
147B99
  8
OBJECT
 10
574.9999999972715159
 20
-780.3433864718294899
 30
0.0
 11
456.9999999972715159
 21
-780.3433864718294899
 31
0.0
1001
ACDBBLOCKREPETAG
1070
     1
1071
      422
1005
147B99
  0
LINE
  5
147B9A
  8
OBJECT
 10
665.9999999972715159
 20
-619.3433864718293762
 30
0.0
 11
658.9999999972715159
 21
-619.3433864718293762
 31
0.0
1001
ACDBBLOCKREPETAG
1070
     1
1071
       57
1005
147B9A
  0
LINE
  5
147B9B
  8
OBJECT
 10
658.9999999972715159
 20
-619.3433864718293762
 30
0.0
 11
658.9999999972715159
 21
-769.3433864718293762
 31
0.0
1001
ACDBBLOCKREPETAG
1070
     1
1071
       58
1005
147B9B
  0
LINE
  5
147B9C
  8
OBJECT
 10
617.4999999972714022
 20
-622.3433864718294899
 30
0.0
 11
617.4999999972714022
 21
-766.3433864718293762
 31
0.0
1001
ACDBBLOCKREPETAG
1070
     1
1071
       59
1005
147B9C
  0
LINE
  5
147B9D
  8
OBJECT
 10
605.9999999972715159
 20
-628.8433864718293762
 30
0.0
 11
605.9999999972715159
 21
-759.8433864718294899
 31
0.0
1001
ACDBBLOCKREPETAG
1070
     1
1071
       60
1005
147B9D
  0
LINE
  5
147B9E
  8
OBJECT
 10
658.9999999972715159
 20
-769.3433864718293762
 30
0.0
 11
665.9999999972715159
 21
-769.3433864718293762
 31
0.0
1001
ACDBBLOCKREPETAG
1070
     1
1071
       61
1005
147B9E
  0
LINE
  5
147B9F
  8
OBJECT
 10
665.9999999972715159
 20
-769.3433864718293762
 30
0.0
 11
665.9999999972715159
 21
-619.3433864718293762
 31
0.0
1001
ACDBBLOCKREPETAG
1070
     1
1071
       62
1005
147B9F
  0
LINE
  5
147BA0
  8
OBJECT
 10
601.9999999972715159
 20
-756.3433864718294899
 30
0.0
 11
595.9999999972715159
 21
-756.3433864718294899
 31
0.0
1001
ACDBBLOCKREPETAG
1070
     1
1071
       63
1005
147BA0
  0
LINE
  5
147BA1
  8
OBJECT
 10
658.9999999972715159
 20
-766.3433864718293762
 30
0.0
 11
617.4999999972714022
 21
-766.3433864718293762
 31
0.0
1001
ACDBBLOCKREPETAG
1070
     1
1071
       64
1005
147BA1
  0
LINE
  5
147BA2
  8
OBJECT
 10
617.4999999972714022
 20
-766.3433864718293762
 30
0.0
 11
605.9999999972715159
 21
-759.8433864718294899
 31
0.0
1001
ACDBBLOCKREPETAG
1070
     1
1071
       65
1005
147BA2
  0
LINE
  5
147BA3
  8
OBJECT
 10
605.9999999972715159
 20
-759.8433864718294899
 30
0.0
 11
601.9999999972715159
 21
-756.3433864718294899
 31
0.0
1001
ACDBBLOCKREPETAG
1070
     1
1071
       66
1005
147BA3
  0
LINE
  5
147BA4
  8
OBJECT
 10
617.4999999972714022
 20
-622.3433864718294899
 30
0.0
 11
605.9999999972715159
 21
-628.8433864718293762
 31
0.0
1001
ACDBBLOCKREPETAG
1070
     1
1071
       67
1005
147BA4
  0
LINE
  5
147BA5
  8
OBJECT
 10
605.9999999972715159
 20
-628.8433864718293762
 30
0.0
 11
601.9999999972715159
 21
-632.3433864718293762
 31
0.0
1001
ACDBBLOCKREPETAG
1070
     1
1071
       68
1005
147BA5
  0
ARC
  5
147BA6
  8
OBJECT
 10
983.8999999972728574
 20
-694.3433864718293762
 30
0.0
 40
386.8999999999999773
 50
170.778701362638401
 51
189.2212986373615138
1001
ACDBBLOCKREPETAG
1070
     1
1071
       69
1005
147BA6
  0
LINE
  5
147BA7
  8
OBJECT
 10
601.9999999972715159
 20
-632.3433864718293762
 30
0.0
 11
595.9999999972715159
 21
-632.3433864718293762
 31
0.0
1001
ACDBBLOCKREPETAG
1070
     1
1071
       70
1005
147BA7
  0
LINE
  5
147BA8
  8
OBJECT
 10
658.9999999972715159
 20
-622.3433864718294899
 30
0.0
 11
617.4999999972714022
 21
-622.3433864718294899
 31
0.0
1001
ACDBBLOCKREPETAG
1070
     1
1071
       71
1005
147BA8
  0
INSERT
  5
147BA9
  8
0
  2
*U133
 10
0.0
 20
0.0
 30
0.0
  0
LINE
  5
147BAA
  8
HIDDEN
 10
613.9999999972715159
 20
-751.3433864718294899
 30
0.0
 11
613.9999999972715159
 21
-637.3433864718293762
 31
0.0
1001
ACDBBLOCKREPETAG
1070
     1
1071
      437
1005
147BAA
  0
LINE
  5
147BAB
  8
OBJECT
 10
453.9999999972715159
 20
-313.3433864718231234
 30
0.0
 11
453.9999999972715159
 21
-310.3433864718231234
 31
0.0
1001
ACDBBLOCKREPETAG
1070
     1
1071
      418
1005
147BAB
  0
ARC
  5
147BAC
  8
OBJECT
 10
456.9999999972715159
 20
-313.3433864718231234
 30
0.0
 40
3.0
 50
180.0
 51
270.0
1001
ACDBBLOCKREPETAG
1070
     1
1071
      419
1005
147BAC
  0
LINE
  5
147BAD
  8
OBJECT
 10
577.9999999972715159
 20
-310.3433864718231234
 30
0.0
 11
577.9999999972715159
 21
-313.3433864718231234
 31
0.0
1001
ACDBBLOCKREPETAG
1070
     1
1071
      420
1005
147BAD
  0
ARC
  5
147BAE
  8
OBJECT
 10
574.9999999972715159
 20
-313.3433864718231234
 30
0.0
 40
3.0
 50
270.0
 51
0.0
1001
ACDBBLOCKREPETAG
1070
     1
1071
      421
1005
147BAE
  0
LINE
  5
147BAF
  8
OBJECT
 10
574.9999999972715159
 20
-316.3433864718231234
 30
0.0
 11
456.9999999972715159
 21
-316.3433864718231234
 31
0.0
1001
ACDBBLOCKREPETAG
1070
     1
1071
      422
1005
147BAF
  0
INSERT
  5
147BB0
  8
0
  2
*U134
 10
0.0
 20
0.0
 30
0.0
  0
LINE
  5
147BB1
  8
OBJECT
 10
648.9999999972715159
 20
-175.343386471823095
 30
0.0
 11
655.9999999972715159
 21
-175.343386471823095
 31
0.0
1001
ACDBBLOCKREPETAG
1070
     1
1071
       20
1005
147BB1
  0
LINE
  5
147BB2
  8
OBJECT
 10
655.9999999972715159
 20
-175.343386471823095
 30
0.0
 11
655.9999999972715159
 21
-285.3433864718231234
 31
0.0
1001
ACDBBLOCKREPETAG
1070
     1
1071
       21
1005
147BB2
  0
LINE
  5
147BB3
  8
OBJECT
 10
655.9999999972715159
 20
-285.3433864718231234
 30
0.0
 11
648.9999999972715159
 21
-285.3433864718231234
 31
0.0
1001
ACDBBLOCKREPETAG
1070
     1
1071
       22
1005
147BB3
  0
LINE
  5
147BB4
  8
OBJECT
 10
648.9999999972715159
 20
-285.3433864718231234
 30
0.0
 11
648.9999999972715159
 21
-175.343386471823095
 31
0.0
1001
ACDBBLOCKREPETAG
1070
     1
1071
       23
1005
147BB4
  0
LINE
  5
147BB5
  8
OBJECT
 10
648.9999999972715159
 20
-178.343386471823095
 30
0.0
 11
612.9999999972715159
 21
-178.343386471823095
 31
0.0
1001
ACDBBLOCKREPETAG
1070
     1
1071
       24
1005
147BB5
  0
LINE
  5
147BB6
  8
OBJECT
 10
612.9999999972715159
 20
-178.343386471823095
 30
0.0
 11
612.9999999972715159
 21
-282.3433864718231234
 31
0.0
1001
ACDBBLOCKREPETAG
1070
     1
1071
       25
1005
147BB6
  0
LINE
  5
147BB7
  8
OBJECT
 10
612.9999999972715159
 20
-282.3433864718231234
 30
0.0
 11
648.9999999972715159
 21
-282.3433864718231234
 31
0.0
1001
ACDBBLOCKREPETAG
1070
     1
1071
       26
1005
147BB7
  0
LINE
  5
147BB8
  8
OBJECT
 10
608.9999999972715159
 20
-182.843386471823095
 30
0.0
 11
601.9999999972715159
 21
-182.843386471823095
 31
0.0
1001
ACDBBLOCKREPETAG
1070
     1
1071
       27
1005
147BB8
  0
LINE
  5
147BB9
  8
OBJECT
 10
601.9999999972715159
 20
-277.8433864718231234
 30
0.0
 11
608.9999999972715159
 21
-277.8433864718231234
 31
0.0
1001
ACDBBLOCKREPETAG
1070
     1
1071
       28
1005
147BB9
  0
LINE
  5
147BBA
  8
OBJECT
 10
608.9999999972715159
 20
-277.8433864718231234
 30
0.0
 11
608.9999999972715159
 21
-182.843386471823095
 31
0.0
1001
ACDBBLOCKREPETAG
1070
     1
1071
       29
1005
147BBA
  0
LINE
  5
147BBB
  8
OBJECT
 10
612.9999999972715159
 20
-178.343386471823095
 30
0.0
 11
608.9999999972715159
 21
-182.843386471823095
 31
0.0
1001
ACDBBLOCKREPETAG
1070
     1
1071
       30
1005
147BBB
  0
LINE
  5
147BBC
  8
OBJECT
 10
612.9999999972715159
 20
-282.3433864718231234
 30
0.0
 11
608.9999999972715159
 21
-277.8433864718231234
 31
0.0
1001
ACDBBLOCKREPETAG
1070
     1
1071
       31
1005
147BBC
  0
LINE
  5
147BBD
  8
OBJECT
 10
598.9999999972733349
 20
-168.343386471823095
 30
0.0
 11
595.9999999972715159
 21
-168.343386471823095
 31
0.0
1001
ACDBBLOCKREPETAG
1070
     1
1071
       32
1005
147BBD
  0
ARC
  5
147BBE
  8
OBJECT
 10
598.9999999972733349
 20
-171.343386471823095
 30
0.0
 40
3.0
 50
0.0
 51
90.0
1001
ACDBBLOCKREPETAG
1070
     1
1071
       33
1005
147BBE
  0
LINE
  5
147BBF
  8
OBJECT
 10
595.9999999972715159
 20
-292.3433864718231234
 30
0.0
 11
598.9999999972695832
 21
-292.3433864718231234
 31
0.0
1001
ACDBBLOCKREPETAG
1070
     1
1071
       34
1005
147BBF
  0
ARC
  5
147BC0
  8
OBJECT
 10
598.9999999972695832
 20
-289.3433864718231234
 30
0.0
 40
3.0
 50
270.0
 51
0.0
1001
ACDBBLOCKREPETAG
1070
     1
1071
       35
1005
147BC0
  0
LINE
  5
147BC1
  8
OBJECT
 10
601.9999999972695832
 20
-289.3433864718231234
 30
0.0
 11
601.9999999972733349
 21
-171.343386471823095
 31
0.0
1001
ACDBBLOCKREPETAG
1070
     1
1071
       36
1005
147BC1
  0
LINE
  5
147BC2
  8
HIDDEN
 10
603.9999999972715159
 20
-192.343386471823095
 30
0.0
 11
603.9999999972715159
 21
-268.3433864718231234
 31
0.0
1001
ACDBBLOCKREPETAG
1070
     1
1071
      427
1005
147BC2
  0
LINE
  5
147BC3
  8
OBJECT
 10
93.9999999971878566
 20
-313.3433864718231234
 30
0.0
 11
93.9999999971878566
 21
-310.3433864718231234
 31
0.0
1001
ACDBBLOCKREPETAG
1070
     1
1071
      418
1005
147BC3
  0
ARC
  5
147BC4
  8
OBJECT
 10
96.9999999971878424
 20
-313.3433864718231234
 30
0.0
 40
3.0
 50
180.0
 51
270.0
1001
ACDBBLOCKREPETAG
1070
     1
1071
      419
1005
147BC4
  0
LINE
  5
147BC5
  8
OBJECT
 10
217.9999999971878992
 20
-310.3433864718231234
 30
0.0
 11
217.9999999971878992
 21
-313.3433864718231234
 31
0.0
1001
ACDBBLOCKREPETAG
1070
     1
1071
      420
1005
147BC5
  0
ARC
  5
147BC6
  8
OBJECT
 10
214.999999997187814
 20
-313.3433864718231234
 30
0.0
 40
3.0
 50
270.0
 51
0.0
1001
ACDBBLOCKREPETAG
1070
     1
1071
      421
1005
147BC6
  0
LINE
  5
147BC7
  8
OBJECT
 10
214.999999997187814
 20
-316.3433864718231234
 30
0.0
 11
96.9999999971878424
 21
-316.3433864718231234
 31
0.0
1001
ACDBBLOCKREPETAG
1070
     1
1071
      422
1005
147BC7
  0
INSERT
  5
147BC8
  8
0
  2
*U135
 10
0.0
 20
0.0
 30
0.0
  0
LINE
  5
147BC9
  8
OBJECT
 10
288.9999999971878992
 20
-183.343386471823095
 30
0.0
 11
295.9999999971877855
 21
-183.343386471823095
 31
0.0
1001
ACDBBLOCKREPETAG
1070
     1
1071
        1
1005
147BC9
  0
LINE
  5
147BCA
  8
OBJECT
 10
295.9999999971877855
 20
-183.343386471823095
 30
0.0
 11
295.9999999971877855
 21
-277.3433864718231234
 31
0.0
1001
ACDBBLOCKREPETAG
1070
     1
1071
        2
1005
147BCA
  0
LINE
  5
147BCB
  8
OBJECT
 10
295.9999999971877855
 20
-277.3433864718231234
 30
0.0
 11
288.9999999971878992
 21
-277.3433864718231234
 31
0.0
1001
ACDBBLOCKREPETAG
1070
     1
1071
        3
1005
147BCB
  0
LINE
  5
147BCC
  8
OBJECT
 10
288.9999999971878992
 20
-277.3433864718231234
 30
0.0
 11
288.9999999971878992
 21
-183.343386471823095
 31
0.0
1001
ACDBBLOCKREPETAG
1070
     1
1071
        4
1005
147BCC
  0
LINE
  5
147BCD
  8
OBJECT
 10
288.9999999971878992
 20
-186.343386471823095
 30
0.0
 11
252.999999997187814
 21
-186.343386471823095
 31
0.0
1001
ACDBBLOCKREPETAG
1070
     1
1071
        5
1005
147BCD
  0
LINE
  5
147BCE
  8
OBJECT
 10
252.999999997187814
 20
-186.343386471823095
 30
0.0
 11
252.999999997187814
 21
-274.3433864718231234
 31
0.0
1001
ACDBBLOCKREPETAG
1070
     1
1071
        6
1005
147BCE
  0
LINE
  5
147BCF
  8
OBJECT
 10
252.999999997187814
 20
-274.3433864718231234
 30
0.0
 11
288.9999999971878992
 21
-274.3433864718231234
 31
0.0
1001
ACDBBLOCKREPETAG
1070
     1
1071
        7
1005
147BCF
  0
LINE
  5
147BD0
  8
OBJECT
 10
248.999999997187814
 20
-190.843386471823095
 30
0.0
 11
241.999999997187814
 21
-190.843386471823095
 31
0.0
1001
ACDBBLOCKREPETAG
1070
     1
1071
        8
1005
147BD0
  0
LINE
  5
147BD1
  8
OBJECT
 10
241.999999997187814
 20
-269.8433864718231234
 30
0.0
 11
248.999999997187814
 21
-269.8433864718231234
 31
0.0
1001
ACDBBLOCKREPETAG
1070
     1
1071
        9
1005
147BD1
  0
LINE
  5
147BD2
  8
OBJECT
 10
248.999999997187814
 20
-269.8433864718231234
 30
0.0
 11
248.999999997187814
 21
-190.843386471823095
 31
0.0
1001
ACDBBLOCKREPETAG
1070
     1
1071
       10
1005
147BD2
  0
LINE
  5
147BD3
  8
OBJECT
 10
252.999999997187814
 20
-186.343386471823095
 30
0.0
 11
248.999999997187814
 21
-190.843386471823095
 31
0.0
1001
ACDBBLOCKREPETAG
1070
     1
1071
       11
1005
147BD3
  0
LINE
  5
147BD4
  8
OBJECT
 10
252.999999997187814
 20
-274.3433864718231234
 30
0.0
 11
248.999999997187814
 21
-269.8433864718231234
 31
0.0
1001
ACDBBLOCKREPETAG
1070
     1
1071
       12
1005
147BD4
  0
LINE
  5
147BD5
  8
OBJECT
 10
238.9999999971896898
 20
-168.343386471823095
 30
0.0
 11
235.999999997187814
 21
-168.343386471823095
 31
0.0
1001
ACDBBLOCKREPETAG
1070
     1
1071
       13
1005
147BD5
  0
ARC
  5
147BD6
  8
OBJECT
 10
238.9999999971896898
 20
-171.343386471823095
 30
0.0
 40
3.0
 50
0.0
 51
90.0
1001
ACDBBLOCKREPETAG
1070
     1
1071
       14
1005
147BD6
  0
LINE
  5
147BD7
  8
OBJECT
 10
235.999999997187814
 20
-292.3433864718231234
 30
0.0
 11
238.999999997185995
 21
-292.3433864718231234
 31
0.0
1001
ACDBBLOCKREPETAG
1070
     1
1071
       15
1005
147BD7
  0
ARC
  5
147BD8
  8
OBJECT
 10
238.999999997185995
 20
-289.3433864718231234
 30
0.0
 40
3.0
 50
270.0
 51
0.0
1001
ACDBBLOCKREPETAG
1070
     1
1071
       16
1005
147BD8
  0
LINE
  5
147BD9
  8
OBJECT
 10
241.999999997185995
 20
-289.3433864718231234
 30
0.0
 11
241.9999999971896898
 21
-171.343386471823095
 31
0.0
1001
ACDBBLOCKREPETAG
1070
     1
1071
       17
1005
147BD9
  0
LINE
  5
147BDA
  8
HIDDEN
 10
243.999999997187814
 20
-200.343386471823095
 30
0.0
 11
243.999999997187814
 21
-260.3433864718231234
 31
0.0
1001
ACDBBLOCKREPETAG
1070
     1
1071
      424
1005
147BDA
  0
LINE
  5
147BDB
  8
CENTER
 10
12000.0
 20
-614.6152250169225226
 30
0.0
 11
12000.0
 21
-889.9999999999995453
 31
0.0
1001
ACDBBLOCKREPETAG
1070
     1
1071
       34
1005
147BDB
  0
LINE
  5
147BDC
  8
OBJECT
 10
11920.0
 20
-877.9999999999995453
 30
0.0
 11
12080.0
 21
-877.9999999999995453
 31
0.0
1001
ACDBBLOCKREPETAG
1070
     1
1071
       35
1005
147BDC
  0
LINE
  5
147BDD
  8
OBJECT
 10
12080.0
 20
-633.9999999999995453
 30
0.0
 11
12000.0
 21
-633.9999999999995453
 31
0.0
1001
ACDBBLOCKREPETAG
1070
     1
1071
       36
1005
147BDD
  0
LINE
  5
147BDE
  8
OBJECT
 10
12000.0
 20
-633.9999999999995453
 30
0.0
 11
11920.0
 21
-633.9999999999995453
 31
0.0
1001
ACDBBLOCKREPETAG
1070
     1
1071
      140
1005
147BDE
  0
LINE
  5
147BDF
  8
OBJECT
 10
11920.0
 20
-877.9999999999995453
 30
0.0
 11
11920.0
 21
-889.9999999999995453
 31
0.0
1001
ACDBBLOCKREPETAG
1070
     1
1071
       37
1005
147BDF
  0
LINE
  5
147BE0
  8
OBJECT
 10
11920.0
 20
-889.9999999999995453
 30
0.0
 11
12080.0
 21
-889.9999999999995453
 31
0.0
1001
ACDBBLOCKREPETAG
1070
     1
1071
       38
1005
147BE0
  0
LINE
  5
147BE1
  8
OBJECT
 10
12080.0
 20
-889.9999999999995453
 30
0.0
 11
12080.0
 21
-877.9999999999995453
 31
0.0
1001
ACDBBLOCKREPETAG
1070
     1
1071
       39
1005
147BE1
  0
LINE
  5
147BE2
  8
OBJECT
 10
12074.9999999998599378
 20
-757.9999999998503881
 30
0.0
 11
12075.0
 21
-877.9999999999995453
 31
0.0
1001
ACDBBLOCKREPETAG
1070
     1
1071
       43
1005
147BE2
  0
LINE
  5
147BE3
  8
OBJECT
 10
12074.9999908029803919
 20
-757.9999860270213503
 30
0.0
 11
12080.0
 21
-757.9999860270213503
 31
0.0
1001
ACDBBLOCKREPETAG
1070
     1
1071
       44
1005
147BE3
  0
LINE
  5
147BE4
  8
OBJECT
 10
11925.0000000001400622
 20
-757.9999999998503881
 30
0.0
 11
11925.0
 21
-877.9999999999995453
 31
0.0
1001
ACDBBLOCKREPETAG
1070
     1
1071
       45
1005
147BE4
  0
LINE
  5
147BE5
  8
OBJECT
 10
11925.0000091970105132
 20
-757.9999860270213503
 30
0.0
 11
11920.0
 21
-757.9999860270213503
 31
0.0
1001
ACDBBLOCKREPETAG
1070
     1
1071
       46
1005
147BE5
  0
LINE
  5
147BE6
  8
OBJECT
 10
12060.0
 20
-628.9999999999995453
 30
0.0
 11
12000.0
 21
-628.9999999999995453
 31
0.0
1001
ACDBBLOCKREPETAG
1070
     1
1071
       47
1005
147BE6
  0
LINE
  5
147BE7
  8
OBJECT
 10
12000.0
 20
-628.9999999999995453
 30
0.0
 11
11940.0
 21
-628.9999999999995453
 31
0.0
1001
ACDBBLOCKREPETAG
1070
     1
1071
      139
1005
147BE7
  0
ARC
  5
147BE8
  8
OBJECT
 10
11940.0
 20
-631.9999999999995453
 30
0.0
 40
3.0
 50
90.0
 51
180.0
1001
ACDBBLOCKREPETAG
1070
     1
1071
       48
1005
147BE8
  0
LINE
  5
147BE9
  8
OBJECT
 10
11937.0
 20
-631.9999999999995453
 30
0.0
 11
11937.0
 21
-633.9999999999995453
 31
0.0
1001
ACDBBLOCKREPETAG
1070
     1
1071
       49
1005
147BE9
  0
LINE
  5
147BEA
  8
OBJECT
 10
12063.0
 20
-631.9999999999995453
 30
0.0
 11
12063.0
 21
-633.9999999999995453
 31
0.0
1001
ACDBBLOCKREPETAG
1070
     1
1071
       50
1005
147BEA
  0
ARC
  5
147BEB
  8
OBJECT
 10
12060.0
 20
-631.9999999999995453
 30
0.0
 40
3.0
 50
0.0
 51
90.0
1001
ACDBBLOCKREPETAG
1070
     1
1071
       51
1005
147BEB
  0
ARC
  5
147BEC
  8
OBJECT
 10
12200.6872746716708207
 20
-749.4080994101071838
 30
0.0
 40
170.6350503965855978
 50
137.4413445918430057
 51
149.919495813327103
1001
ACDBBLOCKREPETAG
1070
     1
1071
       52
1005
147BEC
  0
ARC
  5
147BED
  8
OBJECT
 10
12200.6872746716708207
 20
-642.5919005898917931
 30
0.0
 40
170.6350503965855978
 50
210.080504186672897
 51
222.5586554081569943
1001
ACDBBLOCKREPETAG
1070
     1
1071
       53
1005
147BED
  0
ARC
  5
147BEE
  8
OBJECT
 10
11799.3127253283291793
 20
-749.4080994101071838
 30
0.0
 40
170.6350503965855978
 50
30.0805041866729006
 51
42.558655408456282
1001
ACDBBLOCKREPETAG
1070
     1
1071
       54
1005
147BEE
  0
ARC
  5
147BEF
  8
OBJECT
 10
11799.3127253283291793
 20
-642.5919005898917931
 30
0.0
 40
170.6350503965855978
 50
317.4413445915437251
 51
329.919495813327103
1001
ACDBBLOCKREPETAG
1070
     1
1071
       55
1005
147BEF
  0
POINT
  5
147BF0
  8
DOTS
 10
12000.0
 20
-754.9999999999995453
 30
0.0
1001
ACDBBLOCKREPETAG
1070
     1
1071
      133
1005
147BF0
  0
LINE
  5
147BF1
  8
SLIM
 10
11954.2369265471697872
 20
-137.9999999999990905
 30
0.0
 11
11972.7507744763297524
 21
-119.4861520708363969
 31
0.0
1001
GRADIENTCOLOR1ACI
1070
     5
1001
GRADIENTCOLOR2ACI
1070
     2
1001
ACAD
1010
0.0
1020
0.0
1030
0.0
1001
ACDBBLOCKREPETAG
1070
     1
1071
      441
1005
147BF1
  0
LINE
  5
147BF2
  8
SLIM
 10
11969.9215079962905293
 20
-131.2956746719466992
 30
0.0
 11
11984.8575146748607949
 21
-116.3596679933770019
 31
0.0
1001
GRADIENTCOLOR1ACI
1070
     5
1001
GRADIENTCOLOR2ACI
1070
     2
1001
ACAD
1010
0.0
1020
0.0
1030
0.0
1001
ACDBBLOCKREPETAG
1070
     1
1071
      442
1005
147BF2
  0
LINE
  5
147BF3
  8
SLIM
 10
11983.3188363327499246
 20
-126.878602456554006
 30
0.0
 11
11995.0533812002504419
 21
-115.1440575890516982
 31
0.0
1001
GRADIENTCOLOR1ACI
1070
     5
1001
GRADIENTCOLOR2ACI
1070
     2
1001
ACAD
1010
0.0
1020
0.0
1030
0.0
1001
ACDBBLOCKREPETAG
1070
     1
1071
      443
1005
147BF3
  0
LINE
  5
147BF4
  8
SLIM
 10
11993.9318052485996304
 20
-125.2458896617769994
 30
0.0
 11
12000.0
 21
-119.1776949103767009
 31
0.0
1001
GRADIENTCOLOR1ACI
1070
     5
1001
GRADIENTCOLOR2ACI
1070
     2
1001
ACAD
1010
0.0
1020
0.0
1030
0.0
1001
ACDBBLOCKREPETAG
1070
     1
1071
      444
1005
147BF4
  0
LINE
  5
147BF5
  8
SLIM
 10
12000.0
 20
-119.1776949103767009
 30
0.0
 11
12004.0797313529001258
 21
-115.0979635574723972
 31
0.0
1001
GRADIENTCOLOR1ACI
1070
     5
1001
GRADIENTCOLOR2ACI
1070
     2
1001
ACAD
1010
0.0
1020
0.0
1030
0.0
1001
ACDBBLOCKREPETAG
1070
     1
1071
      445
1005
147BF5
  0
LINE
  5
147BF6
  8
SLIM
 10
12003.0941007878500386
 20
-125.0638502435923982
 30
0.0
 11
12012.2679784105694125
 21
-115.8899726208710064
 31
0.0
1001
GRADIENTCOLOR1ACI
1070
     5
1001
GRADIENTCOLOR2ACI
1070
     2
1001
ACAD
1010
0.0
1020
0.0
1030
0.0
1001
ACDBBLOCKREPETAG
1070
     1
1071
      446
1005
147BF6
  0
LINE
  5
147BF7
  8
SLIM
 10
12011.2844257686501805
 20
-125.8537813838634065
 30
0.0
 11
12019.7999414573605463
 21
-117.3382656951526002
 31
0.0
1001
GRADIENTCOLOR1ACI
1070
     5
1001
GRADIENTCOLOR2ACI
1070
     2
1001
ACAD
1010
0.0
1020
0.0
1030
0.0
1001
ACDBBLOCKREPETAG
1070
     1
1071
      447
1005
147BF7
  0
LINE
  5
147BF8
  8
SLIM
 10
12018.7395884655197733
 20
-127.3788748080627045
 30
0.0
 11
12026.7872038672794588
 21
-119.3312594063043974
 31
0.0
1001
GRADIENTCOLOR1ACI
1070
     5
1001
GRADIENTCOLOR2ACI
1070
     2
1001
ACAD
1010
0.0
1020
0.0
1030
0.0
1001
ACDBBLOCKREPETAG
1070
     1
1071
      448
1005
147BF8
  0
LINE
  5
147BF9
  8
SLIM
 10
12025.5958866269593273
 20
-129.5028327676926097
 30
0.0
 11
12033.3030030760291993
 21
-121.7957163186194975
 31
0.0
1001
GRADIENTCOLOR1ACI
1070
     5
1001
GRADIENTCOLOR2ACI
1070
     2
1001
ACAD
1010
0.0
1020
0.0
1030
0.0
1001
ACDBBLOCKREPETAG
1070
     1
1071
      449
1005
147BF9
  0
LINE
  5
147BFA
  8
SLIM
 10
12031.93858594609992
 20
-132.1403895696169002
 30
0.0
 11
12039.3973119843794848
 21
-124.6816635313439008
 31
0.0
1001
GRADIENTCOLOR1ACI
1070
     5
1001
GRADIENTCOLOR2ACI
1070
     2
1001
ACAD
1010
0.0
1020
0.0
1030
0.0
1001
ACDBBLOCKREPETAG
1070
     1
1071
      450
1005
147BFA
  0
LINE
  5
147BFB
  8
SLIM
 10
12037.8233654376199411
 20
-135.2358661991679014
 30
0.0
 11
12045.1047705343698908
 21
-127.9544611024238066
 31
0.0
1001
GRADIENTCOLOR1ACI
1070
     5
1001
GRADIENTCOLOR2ACI
1070
     2
1001
ACAD
1010
0.0
1020
0.0
1030
0.0
1001
ACDBBLOCKREPETAG
1070
     1
1071
      451
1005
147BFB
  0
LINE
  5
147BFC
  8
SLIM
 10
12044.0394877578601154
 20
-137.9999999999990905
 30
0.0
 11
12050.4491557891906268
 21
-131.5903319686644863
 31
0.0
1001
GRADIENTCOLOR1ACI
1070
     5
1001
GRADIENTCOLOR2ACI
1070
     2
1001
ACAD
1010
0.0
1020
0.0
1030
0.0
1001
ACDBBLOCKREPETAG
1070
     1
1071
      452
1005
147BFC
  0
LINE
  5
147BFD
  8
SLIM
 10
12053.0197438789291482
 20
-137.9999999999990905
 30
0.0
 11
12055.4459941864006396
 21
-135.5737496925256096
 31
0.0
1001
GRADIENTCOLOR1ACI
1070
     5
1001
GRADIENTCOLOR2ACI
1070
     2
1001
ACAD
1010
0.0
1020
0.0
1030
0.0
1001
ACDBBLOCKREPETAG
1070
     1
1071
      453
1005
147BFD
  0
LINE
  5
147BFE
  8
CENTER
 10
12000.0
 20
-279.9999999999990905
 30
0.0
 11
12000.0
 21
-99.9999999999990905
 31
0.0
1001
ACDBBLOCKREPETAG
1070
     1
1071
      160
1005
147BFE
  0
LINE
  5
147BFF
  8
OBJECT
 10
12042.2018956920201163
 20
-137.9999999999990905
 30
0.0
 11
12080.0
 21
-137.9999999999990905
 31
0.0
1001
ACDBBLOCKREPETAG
1070
     1
1071
      164
1005
147BFF
  0
LINE
  5
147C00
  8
OBJECT
 10
12062.0
 20
-261.9999999999990905
 30
0.0
 11
12080.0
 21
-261.9999999999990905
 31
0.0
1001
ACDBBLOCKREPETAG
1070
     1
1071
      165
1005
147C00
  0
LINE
  5
147C01
  8
OBJECT
 10
12062.0
 20
-261.9999999999990905
 30
0.0
 11
12062.0
 21
-279.9999999999990905
 31
0.0
1001
ACDBBLOCKREPETAG
1070
     1
1071
      167
1005
147C01
  0
LINE
  5
147C02
  8
OBJECT
 10
11938.0
 20
-261.9999999999990905
 30
0.0
 11
11938.0
 21
-279.9999999999990905
 31
0.0
1001
ACDBBLOCKREPETAG
1070
     1
1071
      168
1005
147C02
  0
LINE
  5
147C03
  8
OBJECT
 10
11938.0
 20
-261.9999999999990905
 30
0.0
 11
11920.0
 21
-261.9999999999990905
 31
0.0
1001
ACDBBLOCKREPETAG
1070
     1
1071
      170
1005
147C03
  0
LINE
  5
147C04
  8
OBJECT
 10
11957.7981043079798837
 20
-137.9999999999990905
 30
0.0
 11
11920.0
 21
-137.9999999999990905
 31
0.0
1001
ACDBBLOCKREPETAG
1070
     1
1071
      171
1005
147C04
  0
LINE
  5
147C05
  8
OBJECT
 10
11946.9669914110108948
 20
-253.0330085889902136
 30
0.0
 11
11938.0
 21
-261.9999999999990905
 31
0.0
1001
ACDBBLOCKREPETAG
1070
     1
1071
      180
1005
147C05
  0
LINE
  5
147C06
  8
OBJECT
 10
12053.0330085889891052
 20
-253.0330085889902136
 30
0.0
 11
12062.0
 21
-261.9999999999990905
 31
0.0
1001
ACDBBLOCKREPETAG
1070
     1
1071
      181
1005
147C06
  0
ARC
  5
147C07
  8
OBJECT
 10
12000.0
 20
-199.9999999999990905
 30
0.0
 40
85.0
 50
46.8371028598442507
 51
133.1628971401557067
1001
ACDBBLOCKREPETAG
1070
     1
1071
      183
1005
147C07
  0
POINT
  5
147C08
  8
DOTS
 10
12000.0
 20
-199.9999999999990905
 30
0.0
 50
270.0
1001
ACDBBLOCKREPETAG
1070
     1
1071
      364
1005
147C08
  0
LINE
  5
147C09
  8
CENTER
 10
12080.0
 20
-199.9999999999990905
 30
0.0
 11
11920.0
 21
-199.9999999999990905
 31
0.0
1001
ACDBBLOCKREPETAG
1070
     1
1071
      158
1005
147C09
  0
CIRCLE
  5
147C0A
  8
OBJECT
 10
12000.0
 20
-199.9999999999990905
 30
0.0
 40
63.0
1001
ACDBBLOCKREPETAG
1070
     1
1071
      428
1005
147C0A
  0
CIRCLE
  5
147C0B
  8
OBJECT
 10
12000.0
 20
-199.9999999999990905
 30
0.0
 40
75.0
1001
ACDBBLOCKREPETAG
1070
     1
1071
      429
1005
147C0B
  0
LINE
  5
147C0C
  8
CENTER
 10
11899.0
 20
-199.9999999999990905
 30
0.0
 11
11920.0
 21
-199.9999999999990905
 31
0.0
1001
ACDBBLOCKREPETAG
1070
     1
1071
        0
1005
147C0C
  0
LINE
  5
147C0D
  8
OBJECT
 10
11917.0
 20
-261.9999999999990905
 30
0.0
 11
11920.0
 21
-261.9999999999990905
 31
0.0
1001
ACDBBLOCKREPETAG
1070
     1
1071
        1
1005
147C0D
  0
ARC
  5
147C0E
  8
OBJECT
 10
11917.0
 20
-258.9999999999990905
 30
0.0
 40
3.0
 50
180.0
 51
270.0
1001
ACDBBLOCKREPETAG
1070
     1
1071
        2
1005
147C0E
  0
LINE
  5
147C0F
  8
OBJECT
 10
11920.0
 20
-137.9999999999990905
 30
0.0
 11
11917.0
 21
-137.9999999999990905
 31
0.0
1001
ACDBBLOCKREPETAG
1070
     1
1071
        3
1005
147C0F
  0
ARC
  5
147C10
  8
OBJECT
 10
11917.0
 20
-140.9999999999990905
 30
0.0
 40
3.0
 50
90.0
 51
180.0
1001
ACDBBLOCKREPETAG
1070
     1
1071
        4
1005
147C10
  0
LINE
  5
147C11
  8
OBJECT
 10
11914.0
 20
-140.9999999999990905
 30
0.0
 11
11914.0
 21
-258.9999999999990905
 31
0.0
1001
ACDBBLOCKREPETAG
1070
     1
1071
        5
1005
147C11
  0
LINE
  5
147C12
  8
OBJECT
 10
11917.0
 20
-634.0
 30
0.0
 11
11920.0
 21
-634.0
 31
0.0
1001
ACDBBLOCKREPETAG
1070
     1
1071
        1
1005
147C12
  0
ARC
  5
147C13
  8
OBJECT
 10
11917.0
 20
-637.0
 30
0.0
 40
3.0
 50
90.0
 51
180.0
1001
ACDBBLOCKREPETAG
1070
     1
1071
        2
1005
147C13
  0
LINE
  5
147C14
  8
OBJECT
 10
11920.0
 20
-758.0
 30
0.0
 11
11917.0
 21
-758.0
 31
0.0
1001
ACDBBLOCKREPETAG
1070
     1
1071
        3
1005
147C14
  0
ARC
  5
147C15
  8
OBJECT
 10
11917.0
 20
-755.0
 30
0.0
 40
3.0
 50
180.0
 51
270.0
1001
ACDBBLOCKREPETAG
1070
     1
1071
        4
1005
147C15
  0
LINE
  5
147C16
  8
OBJECT
 10
11914.0
 20
-755.0
 30
0.0
 11
11914.0
 21
-637.0
 31
0.0
1001
ACDBBLOCKREPETAG
1070
     1
1071
        5
1005
147C16
  0
LINE
  5
147C17
  8
OBJECT
 10
12150.0
 20
-608.0
 30
0.0
 11
12143.0
 21
-608.0
 31
0.0
1001
ACDBBLOCKREPETAG
1070
     1
1071
       64
1005
147C17
  0
LINE
  5
147C18
  8
OBJECT
 10
12143.0
 20
-608.0
 30
0.0
 11
12143.0
 21
-755.0
 31
0.0
1001
ACDBBLOCKREPETAG
1070
     1
1071
       65
1005
147C18
  0
LINE
  5
147C19
  8
OBJECT
 10
12101.5
 20
-611.0
 30
0.0
 11
12101.5
 21
-755.0
 31
0.0
1001
ACDBBLOCKREPETAG
1070
     1
1071
       66
1005
147C19
  0
LINE
  5
147C1A
  8
OBJECT
 10
12090.0
 20
-617.4999999999998863
 30
0.0
 11
12090.0
 21
-748.5
 31
0.0
1001
ACDBBLOCKREPETAG
1070
     1
1071
       67
1005
147C1A
  0
LINE
  5
147C1B
  8
OBJECT
 10
12086.0
 20
-689.500000000007276
 30
0.0
 11
12086.0
 21
-755.0
 31
0.0
1001
ACDBBLOCKREPETAG
1070
     1
1071
       68
1005
147C1B
  0
LINE
  5
147C1C
  8
OBJECT
 10
12150.0
 20
-755.0
 30
0.0
 11
12150.0
 21
-608.0
 31
0.0
1001
ACDBBLOCKREPETAG
1070
     1
1071
       69
1005
147C1C
  0
LINE
  5
147C1D
  8
CENTER
 10
12165.0
 20
-683.0
 30
0.0
 11
12070.4144144144102029
 21
-683.0
 31
0.0
1001
ACDBBLOCKREPETAG
1070
     1
1071
       70
1005
147C1D
  0
LINE
  5
147C1E
  8
OBJECT
 10
12083.0
 20
-758.0
 30
0.0
 11
12080.0
 21
-758.0
 31
0.0
1001
ACDBBLOCKREPETAG
1070
     1
1071
       71
1005
147C1E
  0
ARC
  5
147C1F
  8
OBJECT
 10
12091.881517183059259
 20
-756.4555591801454284
 30
0.0
 40
6.0
 50
60.5241109968708813
 51
170.6927439126633885
1001
ACDBBLOCKREPETAG
1070
     1
1071
       72
1005
147C1F
  0
ARC
  5
147C20
  8
OBJECT
 10
12083.0
 20
-755.0
 30
0.0
 40
3.0
 50
270.0
 51
350.6927439126635022
1001
ACDBBLOCKREPETAG
1070
     1
1071
       73
1005
147C20
  0
LINE
  5
147C21
  8
OBJECT
 10
12081.0
 20
-634.0
 30
0.0
 11
12080.0
 21
-634.0
 31
0.0
1001
ACDBBLOCKREPETAG
1070
     1
1071
       74
1005
147C21
  0
LINE
  5
147C22
  8
OBJECT
 10
12150.0
 20
-755.0
 30
0.0
 11
12101.5
 21
-755.0
 31
0.0
1001
ACDBBLOCKREPETAG
1070
     1
1071
       75
1005
147C22
  0
LINE
  5
147C23
  8
OBJECT
 10
12101.5
 20
-611.0
 30
0.0
 11
12090.0
 21
-617.4999999999998863
 31
0.0
1001
ACDBBLOCKREPETAG
1070
     1
1071
       76
1005
147C23
  0
LINE
  5
147C24
  8
OBJECT
 10
12143.0
 20
-611.0
 30
0.0
 11
12101.5
 21
-611.0
 31
0.0
1001
ACDBBLOCKREPETAG
1070
     1
1071
       77
1005
147C24
  0
LINE
  5
147C25
  8
OBJECT
 10
12086.0
 20
-689.500000000007276
 30
0.0
 11
12081.0
 21
-634.0
 31
0.0
1001
ACDBBLOCKREPETAG
1070
     1
1071
       78
1005
147C25
  0
LINE
  5
147C26
  8
OBJECT
 10
12090.0
 20
-617.4999999999998863
 30
0.0
 11
12081.0
 21
-634.0
 31
0.0
1001
ACDBBLOCKREPETAG
1070
     1
1071
       79
1005
147C26
  0
LINE
  5
147C27
  8
OBJECT
 10
12101.5
 20
-755.0
 30
0.0
 11
12094.8338607230707566
 21
-751.2321821478217316
 31
0.0
1001
ACDBBLOCKREPETAG
1070
     1
1071
       80
1005
147C27
  0
LINE
  5
147C28
  8
HIDDEN
 10
12098.0
 20
-740.0
 30
0.0
 11
12098.0
 21
-626.0
 31
0.0
1001
ACDBBLOCKREPETAG
1070
     1
1071
       81
1005
147C28
  0
LINE
  5
147C29
  8
CENTER
 10
10000.0
 20
-614.6152250169225226
 30
0.0
 11
10000.0
 21
-889.9999999999995453
 31
0.0
1001
ACDBBLOCKREPETAG
1070
     1
1071
       34
1005
147C29
  0
LINE
  5
147C2A
  8
OBJECT
 10
9920.0
 20
-877.9999999999995453
 30
0.0
 11
10080.0
 21
-877.9999999999995453
 31
0.0
1001
ACDBBLOCKREPETAG
1070
     1
1071
       35
1005
147C2A
  0
LINE
  5
147C2B
  8
OBJECT
 10
10080.0
 20
-633.9999999999995453
 30
0.0
 11
10000.0
 21
-633.9999999999995453
 31
0.0
1001
ACDBBLOCKREPETAG
1070
     1
1071
       36
1005
147C2B
  0
LINE
  5
147C2C
  8
OBJECT
 10
10000.0
 20
-633.9999999999995453
 30
0.0
 11
9920.0
 21
-633.9999999999995453
 31
0.0
1001
ACDBBLOCKREPETAG
1070
     1
1071
      140
1005
147C2C
  0
LINE
  5
147C2D
  8
OBJECT
 10
9920.0
 20
-877.9999999999995453
 30
0.0
 11
9920.0
 21
-889.9999999999995453
 31
0.0
1001
ACDBBLOCKREPETAG
1070
     1
1071
       37
1005
147C2D
  0
LINE
  5
147C2E
  8
OBJECT
 10
9920.0
 20
-889.9999999999995453
 30
0.0
 11
10080.0
 21
-889.9999999999995453
 31
0.0
1001
ACDBBLOCKREPETAG
1070
     1
1071
       38
1005
147C2E
  0
LINE
  5
147C2F
  8
OBJECT
 10
10080.0
 20
-889.9999999999995453
 30
0.0
 11
10080.0
 21
-877.9999999999995453
 31
0.0
1001
ACDBBLOCKREPETAG
1070
     1
1071
       39
1005
147C2F
  0
LINE
  5
147C30
  8
OBJECT
 10
10074.9999999998599378
 20
-757.9999999998503881
 30
0.0
 11
10075.0
 21
-877.9999999999995453
 31
0.0
1001
ACDBBLOCKREPETAG
1070
     1
1071
       43
1005
147C30
  0
LINE
  5
147C31
  8
OBJECT
 10
10074.9999908029803919
 20
-757.9999860270213503
 30
0.0
 11
10080.0
 21
-757.9999860270213503
 31
0.0
1001
ACDBBLOCKREPETAG
1070
     1
1071
       44
1005
147C31
  0
LINE
  5
147C32
  8
OBJECT
 10
9925.0000000001382432
 20
-757.9999999998503881
 30
0.0
 11
9925.0
 21
-877.9999999999995453
 31
0.0
1001
ACDBBLOCKREPETAG
1070
     1
1071
       45
1005
147C32
  0
LINE
  5
147C33
  8
OBJECT
 10
9925.0000091970141511
 20
-757.9999860270213503
 30
0.0
 11
9920.0
 21
-757.9999860270213503
 31
0.0
1001
ACDBBLOCKREPETAG
1070
     1
1071
       46
1005
147C33
  0
LINE
  5
147C34
  8
OBJECT
 10
10060.0
 20
-628.9999999999995453
 30
0.0
 11
10000.0
 21
-628.9999999999995453
 31
0.0
1001
ACDBBLOCKREPETAG
1070
     1
1071
       47
1005
147C34
  0
LINE
  5
147C35
  8
OBJECT
 10
10000.0
 20
-628.9999999999995453
 30
0.0
 11
9940.0
 21
-628.9999999999995453
 31
0.0
1001
ACDBBLOCKREPETAG
1070
     1
1071
      139
1005
147C35
  0
ARC
  5
147C36
  8
OBJECT
 10
9940.0
 20
-631.9999999999995453
 30
0.0
 40
3.0
 50
90.0
 51
180.0
1001
ACDBBLOCKREPETAG
1070
     1
1071
       48
1005
147C36
  0
LINE
  5
147C37
  8
OBJECT
 10
9937.0
 20
-631.9999999999995453
 30
0.0
 11
9937.0
 21
-633.9999999999995453
 31
0.0
1001
ACDBBLOCKREPETAG
1070
     1
1071
       49
1005
147C37
  0
LINE
  5
147C38
  8
OBJECT
 10
10063.0
 20
-631.9999999999995453
 30
0.0
 11
10063.0
 21
-633.9999999999995453
 31
0.0
1001
ACDBBLOCKREPETAG
1070
     1
1071
       50
1005
147C38
  0
ARC
  5
147C39
  8
OBJECT
 10
10060.0
 20
-631.9999999999995453
 30
0.0
 40
3.0
 50
0.0
 51
90.0
1001
ACDBBLOCKREPETAG
1070
     1
1071
       51
1005
147C39
  0
ARC
  5
147C3A
  8
OBJECT
 10
10200.6872746716708207
 20
-749.4080994101071838
 30
0.0
 40
170.6350503965855978
 50
137.4413445918430057
 51
149.919495813327103
1001
ACDBBLOCKREPETAG
1070
     1
1071
       52
1005
147C3A
  0
ARC
  5
147C3B
  8
OBJECT
 10
10200.6872746716708207
 20
-642.5919005898917931
 30
0.0
 40
170.6350503965855978
 50
210.080504186672897
 51
222.5586554081569943
1001
ACDBBLOCKREPETAG
1070
     1
1071
       53
1005
147C3B
  0
ARC
  5
147C3C
  8
OBJECT
 10
9799.3127253283273603
 20
-749.4080994101071838
 30
0.0
 40
170.6350503965855978
 50
30.0805041866729006
 51
42.558655408456282
1001
ACDBBLOCKREPETAG
1070
     1
1071
       54
1005
147C3C
  0
ARC
  5
147C3D
  8
OBJECT
 10
9799.3127253283273603
 20
-642.5919005898917931
 30
0.0
 40
170.6350503965855978
 50
317.4413445915437251
 51
329.919495813327103
1001
ACDBBLOCKREPETAG
1070
     1
1071
       55
1005
147C3D
  0
POINT
  5
147C3E
  8
DOTS
 10
10000.0
 20
-754.9999999999995453
 30
0.0
1001
ACDBBLOCKREPETAG
1070
     1
1071
      133
1005
147C3E
  0
LINE
  5
147C3F
  8
SLIM
 10
9954.2369265471716062
 20
-137.9999999999990905
 30
0.0
 11
9972.7507744763333903
 21
-119.4861520708363969
 31
0.0
1001
GRADIENTCOLOR1ACI
1070
     5
1001
GRADIENTCOLOR2ACI
1070
     2
1001
ACAD
1010
0.0
1020
0.0
1030
0.0
1001
ACDBBLOCKREPETAG
1070
     1
1071
      441
1005
147C3F
  0
LINE
  5
147C40
  8
SLIM
 10
9969.9215079962923483
 20
-131.2956746719466992
 30
0.0
 11
9984.8575146748626139
 21
-116.3596679933770019
 31
0.0
1001
GRADIENTCOLOR1ACI
1070
     5
1001
GRADIENTCOLOR2ACI
1070
     2
1001
ACAD
1010
0.0
1020
0.0
1030
0.0
1001
ACDBBLOCKREPETAG
1070
     1
1071
      442
1005
147C40
  0
LINE
  5
147C41
  8
SLIM
 10
9983.3188363327535626
 20
-126.878602456554006
 30
0.0
 11
9995.0533812002577179
 21
-115.1440575890516982
 31
0.0
1001
GRADIENTCOLOR1ACI
1070
     5
1001
GRADIENTCOLOR2ACI
1070
     2
1001
ACAD
1010
0.0
1020
0.0
1030
0.0
1001
ACDBBLOCKREPETAG
1070
     1
1071
      443
1005
147C41
  0
LINE
  5
147C42
  8
SLIM
 10
9993.9318052485996304
 20
-125.2458896617769994
 30
0.0
 11
10000.0
 21
-119.1776949103767009
 31
0.0
1001
GRADIENTCOLOR1ACI
1070
     5
1001
GRADIENTCOLOR2ACI
1070
     2
1001
ACAD
1010
0.0
1020
0.0
1030
0.0
1001
ACDBBLOCKREPETAG
1070
     1
1071
      444
1005
147C42
  0
LINE
  5
147C43
  8
SLIM
 10
10000.0
 20
-119.1776949103767009
 30
0.0
 11
10004.0797313529001258
 21
-115.0979635574723972
 31
0.0
1001
GRADIENTCOLOR1ACI
1070
     5
1001
GRADIENTCOLOR2ACI
1070
     2
1001
ACAD
1010
0.0
1020
0.0
1030
0.0
1001
ACDBBLOCKREPETAG
1070
     1
1071
      445
1005
147C43
  0
LINE
  5
147C44
  8
SLIM
 10
10003.0941007878500386
 20
-125.0638502435923982
 30
0.0
 11
10012.2679784105694125
 21
-115.8899726208710064
 31
0.0
1001
GRADIENTCOLOR1ACI
1070
     5
1001
GRADIENTCOLOR2ACI
1070
     2
1001
ACAD
1010
0.0
1020
0.0
1030
0.0
1001
ACDBBLOCKREPETAG
1070
     1
1071
      446
1005
147C44
  0
LINE
  5
147C45
  8
SLIM
 10
10011.2844257686501805
 20
-125.8537813838634065
 30
0.0
 11
10019.7999414573605463
 21
-117.3382656951526002
 31
0.0
1001
GRADIENTCOLOR1ACI
1070
     5
1001
GRADIENTCOLOR2ACI
1070
     2
1001
ACAD
1010
0.0
1020
0.0
1030
0.0
1001
ACDBBLOCKREPETAG
1070
     1
1071
      447
1005
147C45
  0
LINE
  5
147C46
  8
SLIM
 10
10018.7395884655197733
 20
-127.3788748080627045
 30
0.0
 11
10026.7872038672794588
 21
-119.3312594063043974
 31
0.0
1001
GRADIENTCOLOR1ACI
1070
     5
1001
GRADIENTCOLOR2ACI
1070
     2
1001
ACAD
1010
0.0
1020
0.0
1030
0.0
1001
ACDBBLOCKREPETAG
1070
     1
1071
      448
1005
147C46
  0
LINE
  5
147C47
  8
SLIM
 10
10025.5958866269593273
 20
-129.5028327676926097
 30
0.0
 11
10033.3030030760291993
 21
-121.7957163186194975
 31
0.0
1001
GRADIENTCOLOR1ACI
1070
     5
1001
GRADIENTCOLOR2ACI
1070
     2
1001
ACAD
1010
0.0
1020
0.0
1030
0.0
1001
ACDBBLOCKREPETAG
1070
     1
1071
      449
1005
147C47
  0
LINE
  5
147C48
  8
SLIM
 10
10031.93858594609992
 20
-132.1403895696169002
 30
0.0
 11
10039.3973119843703898
 21
-124.6816635313439008
 31
0.0
1001
GRADIENTCOLOR1ACI
1070
     5
1001
GRADIENTCOLOR2ACI
1070
     2
1001
ACAD
1010
0.0
1020
0.0
1030
0.0
1001
ACDBBLOCKREPETAG
1070
     1
1071
      450
1005
147C48
  0
LINE
  5
147C49
  8
SLIM
 10
10037.8233654376199411
 20
-135.2358661991679014
 30
0.0
 11
10045.1047705343607959
 21
-127.9544611024238066
 31
0.0
1001
GRADIENTCOLOR1ACI
1070
     5
1001
GRADIENTCOLOR2ACI
1070
     2
1001
ACAD
1010
0.0
1020
0.0
1030
0.0
1001
ACDBBLOCKREPETAG
1070
     1
1071
      451
1005
147C49
  0
LINE
  5
147C4A
  8
SLIM
 10
10044.0394877578601154
 20
-137.9999999999990905
 30
0.0
 11
10050.4491557891906268
 21
-131.5903319686644863
 31
0.0
1001
GRADIENTCOLOR1ACI
1070
     5
1001
GRADIENTCOLOR2ACI
1070
     2
1001
ACAD
1010
0.0
1020
0.0
1030
0.0
1001
ACDBBLOCKREPETAG
1070
     1
1071
      452
1005
147C4A
  0
LINE
  5
147C4B
  8
SLIM
 10
10053.0197438789291482
 20
-137.9999999999990905
 30
0.0
 11
10055.4459941864006396
 21
-135.5737496925256096
 31
0.0
1001
GRADIENTCOLOR1ACI
1070
     5
1001
GRADIENTCOLOR2ACI
1070
     2
1001
ACAD
1010
0.0
1020
0.0
1030
0.0
1001
ACDBBLOCKREPETAG
1070
     1
1071
      453
1005
147C4B
  0
LINE
  5
147C4C
  8
CENTER
 10
10000.0
 20
-279.9999999999990905
 30
0.0
 11
10000.0
 21
-99.9999999999990905
 31
0.0
1001
ACDBBLOCKREPETAG
1070
     1
1071
      160
1005
147C4C
  0
LINE
  5
147C4D
  8
OBJECT
 10
10042.2018956920201163
 20
-137.9999999999990905
 30
0.0
 11
10080.0
 21
-137.9999999999990905
 31
0.0
1001
ACDBBLOCKREPETAG
1070
     1
1071
      164
1005
147C4D
  0
LINE
  5
147C4E
  8
OBJECT
 10
10062.0
 20
-261.9999999999990905
 30
0.0
 11
10080.0
 21
-261.9999999999990905
 31
0.0
1001
ACDBBLOCKREPETAG
1070
     1
1071
      165
1005
147C4E
  0
LINE
  5
147C4F
  8
OBJECT
 10
10062.0
 20
-261.9999999999990905
 30
0.0
 11
10062.0
 21
-279.9999999999990905
 31
0.0
1001
ACDBBLOCKREPETAG
1070
     1
1071
      167
1005
147C4F
  0
LINE
  5
147C50
  8
OBJECT
 10
9938.0
 20
-261.9999999999990905
 30
0.0
 11
9938.0
 21
-279.9999999999990905
 31
0.0
1001
ACDBBLOCKREPETAG
1070
     1
1071
      168
1005
147C50
  0
LINE
  5
147C51
  8
OBJECT
 10
9938.0
 20
-261.9999999999990905
 30
0.0
 11
9920.0
 21
-261.9999999999990905
 31
0.0
1001
ACDBBLOCKREPETAG
1070
     1
1071
      170
1005
147C51
  0
LINE
  5
147C52
  8
OBJECT
 10
9957.7981043079835217
 20
-137.9999999999990905
 30
0.0
 11
9920.0
 21
-137.9999999999990905
 31
0.0
1001
ACDBBLOCKREPETAG
1070
     1
1071
      171
1005
147C52
  0
LINE
  5
147C53
  8
OBJECT
 10
9946.9669914110090758
 20
-253.0330085889902136
 30
0.0
 11
9938.0
 21
-261.9999999999990905
 31
0.0
1001
ACDBBLOCKREPETAG
1070
     1
1071
      180
1005
147C53
  0
LINE
  5
147C54
  8
OBJECT
 10
10053.0330085889891052
 20
-253.0330085889902136
 30
0.0
 11
10062.0
 21
-261.9999999999990905
 31
0.0
1001
ACDBBLOCKREPETAG
1070
     1
1071
      181
1005
147C54
  0
ARC
  5
147C55
  8
OBJECT
 10
10000.0
 20
-199.9999999999990905
 30
0.0
 40
85.0
 50
46.8371028598442507
 51
133.1628971401557067
1001
ACDBBLOCKREPETAG
1070
     1
1071
      183
1005
147C55
  0
POINT
  5
147C56
  8
DOTS
 10
10000.0
 20
-199.9999999999990905
 30
0.0
 50
270.0
1001
ACDBBLOCKREPETAG
1070
     1
1071
      364
1005
147C56
  0
LINE
  5
147C57
  8
CENTER
 10
10080.0
 20
-199.9999999999990905
 30
0.0
 11
9920.0
 21
-199.9999999999990905
 31
0.0
1001
ACDBBLOCKREPETAG
1070
     1
1071
      158
1005
147C57
  0
CIRCLE
  5
147C58
  8
OBJECT
 10
10000.0
 20
-199.9999999999990905
 30
0.0
 40
63.0
1001
ACDBBLOCKREPETAG
1070
     1
1071
      428
1005
147C58
  0
CIRCLE
  5
147C59
  8
OBJECT
 10
10000.0
 20
-199.9999999999990905
 30
0.0
 40
75.0
1001
ACDBBLOCKREPETAG
1070
     1
1071
      429
1005
147C59
  0
LINE
  5
147C5A
  8
CENTER
 10
9899.0
 20
-199.9999999999990905
 30
0.0
 11
9920.0
 21
-199.9999999999990905
 31
0.0
1001
ACDBBLOCKREPETAG
1070
     1
1071
        0
1005
147C5A
  0
LINE
  5
147C5B
  8
OBJECT
 10
9917.0
 20
-261.9999999999990905
 30
0.0
 11
9920.0
 21
-261.9999999999990905
 31
0.0
1001
ACDBBLOCKREPETAG
1070
     1
1071
        1
1005
147C5B
  0
ARC
  5
147C5C
  8
OBJECT
 10
9917.0
 20
-258.9999999999990905
 30
0.0
 40
3.0
 50
180.0
 51
270.0
1001
ACDBBLOCKREPETAG
1070
     1
1071
        2
1005
147C5C
  0
LINE
  5
147C5D
  8
OBJECT
 10
9920.0
 20
-137.9999999999990905
 30
0.0
 11
9917.0
 21
-137.9999999999990905
 31
0.0
1001
ACDBBLOCKREPETAG
1070
     1
1071
        3
1005
147C5D
  0
ARC
  5
147C5E
  8
OBJECT
 10
9917.0
 20
-140.9999999999990905
 30
0.0
 40
3.0
 50
90.0
 51
180.0
1001
ACDBBLOCKREPETAG
1070
     1
1071
        4
1005
147C5E
  0
LINE
  5
147C5F
  8
OBJECT
 10
9914.0
 20
-140.9999999999990905
 30
0.0
 11
9914.0
 21
-258.9999999999990905
 31
0.0
1001
ACDBBLOCKREPETAG
1070
     1
1071
        5
1005
147C5F
  0
LINE
  5
147C60
  8
OBJECT
 10
9917.0
 20
-634.0
 30
0.0
 11
9920.0
 21
-634.0
 31
0.0
1001
ACDBBLOCKREPETAG
1070
     1
1071
        1
1005
147C60
  0
ARC
  5
147C61
  8
OBJECT
 10
9917.0
 20
-637.0
 30
0.0
 40
3.0
 50
90.0
 51
180.0
1001
ACDBBLOCKREPETAG
1070
     1
1071
        2
1005
147C61
  0
LINE
  5
147C62
  8
OBJECT
 10
9920.0
 20
-758.0
 30
0.0
 11
9917.0
 21
-758.0
 31
0.0
1001
ACDBBLOCKREPETAG
1070
     1
1071
        3
1005
147C62
  0
ARC
  5
147C63
  8
OBJECT
 10
9917.0
 20
-755.0
 30
0.0
 40
3.0
 50
180.0
 51
270.0
1001
ACDBBLOCKREPETAG
1070
     1
1071
        4
1005
147C63
  0
LINE
  5
147C64
  8
OBJECT
 10
9914.0
 20
-755.0
 30
0.0
 11
9914.0
 21
-637.0
 31
0.0
1001
ACDBBLOCKREPETAG
1070
     1
1071
        5
1005
147C64
  0
LINE
  5
147C65
  8
OBJECT
 10
10150.0
 20
-608.0
 30
0.0
 11
10143.0
 21
-608.0
 31
0.0
1001
ACDBBLOCKREPETAG
1070
     1
1071
       64
1005
147C65
  0
LINE
  5
147C66
  8
OBJECT
 10
10143.0
 20
-608.0
 30
0.0
 11
10143.0
 21
-755.0
 31
0.0
1001
ACDBBLOCKREPETAG
1070
     1
1071
       65
1005
147C66
  0
LINE
  5
147C67
  8
OBJECT
 10
10101.5
 20
-611.0
 30
0.0
 11
10101.5
 21
-755.0
 31
0.0
1001
ACDBBLOCKREPETAG
1070
     1
1071
       66
1005
147C67
  0
LINE
  5
147C68
  8
OBJECT
 10
10090.0
 20
-617.4999999999998863
 30
0.0
 11
10090.0
 21
-748.5
 31
0.0
1001
ACDBBLOCKREPETAG
1070
     1
1071
       67
1005
147C68
  0
LINE
  5
147C69
  8
OBJECT
 10
10086.0
 20
-689.500000000007276
 30
0.0
 11
10086.0
 21
-755.0
 31
0.0
1001
ACDBBLOCKREPETAG
1070
     1
1071
       68
1005
147C69
  0
LINE
  5
147C6A
  8
OBJECT
 10
10150.0
 20
-755.0
 30
0.0
 11
10150.0
 21
-608.0
 31
0.0
1001
ACDBBLOCKREPETAG
1070
     1
1071
       69
1005
147C6A
  0
LINE
  5
147C6B
  8
CENTER
 10
10165.0
 20
-683.0
 30
0.0
 11
10070.4144144144102029
 21
-683.0
 31
0.0
1001
ACDBBLOCKREPETAG
1070
     1
1071
       70
1005
147C6B
  0
LINE
  5
147C6C
  8
OBJECT
 10
10083.0
 20
-758.0
 30
0.0
 11
10080.0
 21
-758.0
 31
0.0
1001
ACDBBLOCKREPETAG
1070
     1
1071
       71
1005
147C6C
  0
ARC
  5
147C6D
  8
OBJECT
 10
10091.881517183059259
 20
-756.4555591801454284
 30
0.0
 40
6.0
 50
60.5241109968708813
 51
170.6927439126633885
1001
ACDBBLOCKREPETAG
1070
     1
1071
       72
1005
147C6D
  0
ARC
  5
147C6E
  8
OBJECT
 10
10083.0
 20
-755.0
 30
0.0
 40
3.0
 50
270.0
 51
350.6927439126635022
1001
ACDBBLOCKREPETAG
1070
     1
1071
       73
1005
147C6E
  0
LINE
  5
147C6F
  8
OBJECT
 10
10081.0
 20
-634.0
 30
0.0
 11
10080.0
 21
-634.0
 31
0.0
1001
ACDBBLOCKREPETAG
1070
     1
1071
       74
1005
147C6F
  0
LINE
  5
147C70
  8
OBJECT
 10
10150.0
 20
-755.0
 30
0.0
 11
10101.5
 21
-755.0
 31
0.0
1001
ACDBBLOCKREPETAG
1070
     1
1071
       75
1005
147C70
  0
LINE
  5
147C71
  8
OBJECT
 10
10101.5
 20
-611.0
 30
0.0
 11
10090.0
 21
-617.4999999999998863
 31
0.0
1001
ACDBBLOCKREPETAG
1070
     1
1071
       76
1005
147C71
  0
LINE
  5
147C72
  8
OBJECT
 10
10143.0
 20
-611.0
 30
0.0
 11
10101.5
 21
-611.0
 31
0.0
1001
ACDBBLOCKREPETAG
1070
     1
1071
       77
1005
147C72
  0
LINE
  5
147C73
  8
OBJECT
 10
10086.0
 20
-689.500000000007276
 30
0.0
 11
10081.0
 21
-634.0
 31
0.0
1001
ACDBBLOCKREPETAG
1070
     1
1071
       78
1005
147C73
  0
LINE
  5
147C74
  8
OBJECT
 10
10090.0
 20
-617.4999999999998863
 30
0.0
 11
10081.0
 21
-634.0
 31
0.0
1001
ACDBBLOCKREPETAG
1070
     1
1071
       79
1005
147C74
  0
LINE
  5
147C75
  8
OBJECT
 10
10101.5
 20
-755.0
 30
0.0
 11
10094.8338607230707566
 21
-751.2321821478217316
 31
0.0
1001
ACDBBLOCKREPETAG
1070
     1
1071
       80
1005
147C75
  0
LINE
  5
147C76
  8
HIDDEN
 10
10098.0
 20
-740.0
 30
0.0
 11
10098.0
 21
-626.0
 31
0.0
1001
ACDBBLOCKREPETAG
1070
     1
1071
       81
1005
147C76
  0
LINE
  5
147C77
  8
CENTER
 10
8000.0
 20
-614.6152250169225226
 30
0.0
 11
8000.0
 21
-889.9999999999995453
 31
0.0
1001
ACDBBLOCKREPETAG
1070
     1
1071
       34
1005
147C77
  0
LINE
  5
147C78
  8
OBJECT
 10
7920.0
 20
-877.9999999999995453
 30
0.0
 11
8080.0
 21
-877.9999999999995453
 31
0.0
1001
ACDBBLOCKREPETAG
1070
     1
1071
       35
1005
147C78
  0
LINE
  5
147C79
  8
OBJECT
 10
8080.0
 20
-633.9999999999995453
 30
0.0
 11
8000.0
 21
-633.9999999999995453
 31
0.0
1001
ACDBBLOCKREPETAG
1070
     1
1071
       36
1005
147C79
  0
LINE
  5
147C7A
  8
OBJECT
 10
8000.0
 20
-633.9999999999995453
 30
0.0
 11
7920.0
 21
-633.9999999999995453
 31
0.0
1001
ACDBBLOCKREPETAG
1070
     1
1071
      140
1005
147C7A
  0
LINE
  5
147C7B
  8
OBJECT
 10
7920.0
 20
-877.9999999999995453
 30
0.0
 11
7920.0
 21
-889.9999999999995453
 31
0.0
1001
ACDBBLOCKREPETAG
1070
     1
1071
       37
1005
147C7B
  0
LINE
  5
147C7C
  8
OBJECT
 10
7920.0
 20
-889.9999999999995453
 30
0.0
 11
8080.0
 21
-889.9999999999995453
 31
0.0
1001
ACDBBLOCKREPETAG
1070
     1
1071
       38
1005
147C7C
  0
LINE
  5
147C7D
  8
OBJECT
 10
8080.0
 20
-889.9999999999995453
 30
0.0
 11
8080.0
 21
-877.9999999999995453
 31
0.0
1001
ACDBBLOCKREPETAG
1070
     1
1071
       39
1005
147C7D
  0
LINE
  5
147C7E
  8
OBJECT
 10
8074.9999999998617568
 20
-757.9999999998503881
 30
0.0
 11
8075.0
 21
-877.9999999999995453
 31
0.0
1001
ACDBBLOCKREPETAG
1070
     1
1071
       43
1005
147C7E
  0
LINE
  5
147C7F
  8
OBJECT
 10
8074.9999908029858489
 20
-757.9999860270213503
 30
0.0
 11
8080.0
 21
-757.9999860270213503
 31
0.0
1001
ACDBBLOCKREPETAG
1070
     1
1071
       44
1005
147C7F
  0
LINE
  5
147C80
  8
OBJECT
 10
7925.0000000001382432
 20
-757.9999999998503881
 30
0.0
 11
7925.0
 21
-877.9999999999995453
 31
0.0
1001
ACDBBLOCKREPETAG
1070
     1
1071
       45
1005
147C80
  0
LINE
  5
147C81
  8
OBJECT
 10
7925.0000091970132416
 20
-757.9999860270213503
 30
0.0
 11
7920.0
 21
-757.9999860270213503
 31
0.0
1001
ACDBBLOCKREPETAG
1070
     1
1071
       46
1005
147C81
  0
LINE
  5
147C82
  8
OBJECT
 10
8060.0
 20
-628.9999999999995453
 30
0.0
 11
8000.0
 21
-628.9999999999995453
 31
0.0
1001
ACDBBLOCKREPETAG
1070
     1
1071
       47
1005
147C82
  0
LINE
  5
147C83
  8
OBJECT
 10
8000.0
 20
-628.9999999999995453
 30
0.0
 11
7940.0
 21
-628.9999999999995453
 31
0.0
1001
ACDBBLOCKREPETAG
1070
     1
1071
      139
1005
147C83
  0
ARC
  5
147C84
  8
OBJECT
 10
7940.0
 20
-631.9999999999995453
 30
0.0
 40
3.0
 50
90.0
 51
180.0
1001
ACDBBLOCKREPETAG
1070
     1
1071
       48
1005
147C84
  0
LINE
  5
147C85
  8
OBJECT
 10
7937.0
 20
-631.9999999999995453
 30
0.0
 11
7937.0
 21
-633.9999999999995453
 31
0.0
1001
ACDBBLOCKREPETAG
1070
     1
1071
       49
1005
147C85
  0
LINE
  5
147C86
  8
OBJECT
 10
8063.0
 20
-631.9999999999995453
 30
0.0
 11
8063.0
 21
-633.9999999999995453
 31
0.0
1001
ACDBBLOCKREPETAG
1070
     1
1071
       50
1005
147C86
  0
ARC
  5
147C87
  8
OBJECT
 10
8060.0
 20
-631.9999999999995453
 30
0.0
 40
3.0
 50
0.0
 51
90.0
1001
ACDBBLOCKREPETAG
1070
     1
1071
       51
1005
147C87
  0
ARC
  5
147C88
  8
OBJECT
 10
8200.6872746716726397
 20
-749.4080994101071838
 30
0.0
 40
170.6350503965855978
 50
137.4413445918430057
 51
149.9194958133010118
1001
ACDBBLOCKREPETAG
1070
     1
1071
       52
1005
147C88
  0
ARC
  5
147C89
  8
OBJECT
 10
8200.6872746716726397
 20
-642.5919005898917931
 30
0.0
 40
170.6350503965855978
 50
210.0805041866989882
 51
222.5586554081569943
1001
ACDBBLOCKREPETAG
1070
     1
1071
       53
1005
147C89
  0
ARC
  5
147C8A
  8
OBJECT
 10
7799.3127253283273603
 20
-749.4080994101071838
 30
0.0
 40
170.6350503965855978
 50
30.0805041866990202
 51
42.558655408456282
1001
ACDBBLOCKREPETAG
1070
     1
1071
       54
1005
147C8A
  0
ARC
  5
147C8B
  8
OBJECT
 10
7799.3127253283273603
 20
-642.5919005898917931
 30
0.0
 40
170.6350503965855978
 50
317.4413445915437251
 51
329.9194958133010118
1001
ACDBBLOCKREPETAG
1070
     1
1071
       55
1005
147C8B
  0
POINT
  5
147C8C
  8
DOTS
 10
8000.0
 20
-754.9999999999995453
 30
0.0
1001
ACDBBLOCKREPETAG
1070
     1
1071
      133
1005
147C8C
  0
LINE
  5
147C8D
  8
SLIM
 10
7954.2369265471706967
 20
-137.9999999999990905
 30
0.0
 11
7972.7507744763333903
 21
-119.4861520708363969
 31
0.0
1001
GRADIENTCOLOR1ACI
1070
     5
1001
GRADIENTCOLOR2ACI
1070
     2
1001
ACAD
1010
0.0
1020
0.0
1030
0.0
1001
ACDBBLOCKREPETAG
1070
     1
1071
      441
1005
147C8D
  0
LINE
  5
147C8E
  8
SLIM
 10
7969.9215079962914388
 20
-131.2956746719466992
 30
0.0
 11
7984.8575146748607949
 21
-116.3596679933770019
 31
0.0
1001
GRADIENTCOLOR1ACI
1070
     5
1001
GRADIENTCOLOR2ACI
1070
     2
1001
ACAD
1010
0.0
1020
0.0
1030
0.0
1001
ACDBBLOCKREPETAG
1070
     1
1071
      442
1005
147C8E
  0
LINE
  5
147C8F
  8
SLIM
 10
7983.3188363327526531
 20
-126.878602456554006
 30
0.0
 11
7995.0533812002558989
 21
-115.1440575890516982
 31
0.0
1001
GRADIENTCOLOR1ACI
1070
     5
1001
GRADIENTCOLOR2ACI
1070
     2
1001
ACAD
1010
0.0
1020
0.0
1030
0.0
1001
ACDBBLOCKREPETAG
1070
     1
1071
      443
1005
147C8F
  0
LINE
  5
147C90
  8
SLIM
 10
7993.9318052485996304
 20
-125.2458896617769994
 30
0.0
 11
8000.0
 21
-119.1776949103767009
 31
0.0
1001
GRADIENTCOLOR1ACI
1070
     5
1001
GRADIENTCOLOR2ACI
1070
     2
1001
ACAD
1010
0.0
1020
0.0
1030
0.0
1001
ACDBBLOCKREPETAG
1070
     1
1071
      444
1005
147C90
  0
LINE
  5
147C91
  8
SLIM
 10
8000.0
 20
-119.1776949103767009
 30
0.0
 11
8004.0797313529055828
 21
-115.0979635574723972
 31
0.0
1001
GRADIENTCOLOR1ACI
1070
     5
1001
GRADIENTCOLOR2ACI
1070
     2
1001
ACAD
1010
0.0
1020
0.0
1030
0.0
1001
ACDBBLOCKREPETAG
1070
     1
1071
      445
1005
147C91
  0
LINE
  5
147C92
  8
SLIM
 10
8003.0941007878527671
 20
-125.0638502435923982
 30
0.0
 11
8012.2679784105748695
 21
-115.8899726208710064
 31
0.0
1001
GRADIENTCOLOR1ACI
1070
     5
1001
GRADIENTCOLOR2ACI
1070
     2
1001
ACAD
1010
0.0
1020
0.0
1030
0.0
1001
ACDBBLOCKREPETAG
1070
     1
1071
      446
1005
147C92
  0
LINE
  5
147C93
  8
SLIM
 10
8011.2844257686519995
 20
-125.8537813838634065
 30
0.0
 11
8019.7999414573623653
 21
-117.3382656951526002
 31
0.0
1001
GRADIENTCOLOR1ACI
1070
     5
1001
GRADIENTCOLOR2ACI
1070
     2
1001
ACAD
1010
0.0
1020
0.0
1030
0.0
1001
ACDBBLOCKREPETAG
1070
     1
1071
      447
1005
147C93
  0
LINE
  5
147C94
  8
SLIM
 10
8018.7395884655206828
 20
-127.3788748080627045
 30
0.0
 11
8026.7872038672785493
 21
-119.3312594063043974
 31
0.0
1001
GRADIENTCOLOR1ACI
1070
     5
1001
GRADIENTCOLOR2ACI
1070
     2
1001
ACAD
1010
0.0
1020
0.0
1030
0.0
1001
ACDBBLOCKREPETAG
1070
     1
1071
      448
1005
147C94
  0
LINE
  5
147C95
  8
SLIM
 10
8025.5958866269611462
 20
-129.5028327676926097
 30
0.0
 11
8033.3030030760328373
 21
-121.7957163186194975
 31
0.0
1001
GRADIENTCOLOR1ACI
1070
     5
1001
GRADIENTCOLOR2ACI
1070
     2
1001
ACAD
1010
0.0
1020
0.0
1030
0.0
1001
ACDBBLOCKREPETAG
1070
     1
1071
      449
1005
147C95
  0
LINE
  5
147C96
  8
SLIM
 10
8031.9385859461062864
 20
-132.1403895696169002
 30
0.0
 11
8039.3973119843776658
 21
-124.6816635313439008
 31
0.0
1001
GRADIENTCOLOR1ACI
1070
     5
1001
GRADIENTCOLOR2ACI
1070
     2
1001
ACAD
1010
0.0
1020
0.0
1030
0.0
1001
ACDBBLOCKREPETAG
1070
     1
1071
      450
1005
147C96
  0
LINE
  5
147C97
  8
SLIM
 10
8037.8233654376217601
 20
-135.2358661991679014
 30
0.0
 11
8045.1047705343689813
 21
-127.9544611024238066
 31
0.0
1001
GRADIENTCOLOR1ACI
1070
     5
1001
GRADIENTCOLOR2ACI
1070
     2
1001
ACAD
1010
0.0
1020
0.0
1030
0.0
1001
ACDBBLOCKREPETAG
1070
     1
1071
      451
1005
147C97
  0
LINE
  5
147C98
  8
SLIM
 10
8044.0394877578619344
 20
-137.9999999999990905
 30
0.0
 11
8050.4491557891969933
 21
-131.5903319686644863
 31
0.0
1001
GRADIENTCOLOR1ACI
1070
     5
1001
GRADIENTCOLOR2ACI
1070
     2
1001
ACAD
1010
0.0
1020
0.0
1030
0.0
1001
ACDBBLOCKREPETAG
1070
     1
1071
      452
1005
147C98
  0
LINE
  5
147C99
  8
SLIM
 10
8053.0197438789318767
 20
-137.9999999999990905
 30
0.0
 11
8055.4459941864042776
 21
-135.5737496925256096
 31
0.0
1001
GRADIENTCOLOR1ACI
1070
     5
1001
GRADIENTCOLOR2ACI
1070
     2
1001
ACAD
1010
0.0
1020
0.0
1030
0.0
1001
ACDBBLOCKREPETAG
1070
     1
1071
      453
1005
147C99
  0
LINE
  5
147C9A
  8
CENTER
 10
8000.0
 20
-279.9999999999990905
 30
0.0
 11
8000.0
 21
-99.9999999999990905
 31
0.0
1001
ACDBBLOCKREPETAG
1070
     1
1071
      160
1005
147C9A
  0
LINE
  5
147C9B
  8
OBJECT
 10
8042.2018956920182973
 20
-137.9999999999990905
 30
0.0
 11
8080.0
 21
-137.9999999999990905
 31
0.0
1001
ACDBBLOCKREPETAG
1070
     1
1071
      164
1005
147C9B
  0
LINE
  5
147C9C
  8
OBJECT
 10
8062.0
 20
-261.9999999999990905
 30
0.0
 11
8080.0
 21
-261.9999999999990905
 31
0.0
1001
ACDBBLOCKREPETAG
1070
     1
1071
      165
1005
147C9C
  0
LINE
  5
147C9D
  8
OBJECT
 10
8062.0
 20
-261.9999999999990905
 30
0.0
 11
8062.0
 21
-279.9999999999990905
 31
0.0
1001
ACDBBLOCKREPETAG
1070
     1
1071
      167
1005
147C9D
  0
LINE
  5
147C9E
  8
OBJECT
 10
7938.0
 20
-261.9999999999990905
 30
0.0
 11
7938.0
 21
-279.9999999999990905
 31
0.0
1001
ACDBBLOCKREPETAG
1070
     1
1071
      168
1005
147C9E
  0
LINE
  5
147C9F
  8
OBJECT
 10
7938.0
 20
-261.9999999999990905
 30
0.0
 11
7920.0
 21
-261.9999999999990905
 31
0.0
1001
ACDBBLOCKREPETAG
1070
     1
1071
      170
1005
147C9F
  0
LINE
  5
147CA0
  8
OBJECT
 10
7957.7981043079817027
 20
-137.9999999999990905
 30
0.0
 11
7920.0
 21
-137.9999999999990905
 31
0.0
1001
ACDBBLOCKREPETAG
1070
     1
1071
      171
1005
147CA0
  0
LINE
  5
147CA1
  8
OBJECT
 10
7946.9669914110090758
 20
-253.0330085889902136
 30
0.0
 11
7938.0
 21
-261.9999999999990905
 31
0.0
1001
ACDBBLOCKREPETAG
1070
     1
1071
      180
1005
147CA1
  0
LINE
  5
147CA2
  8
OBJECT
 10
8053.0330085889909242
 20
-253.0330085889902136
 30
0.0
 11
8062.0
 21
-261.9999999999990905
 31
0.0
1001
ACDBBLOCKREPETAG
1070
     1
1071
      181
1005
147CA2
  0
ARC
  5
147CA3
  8
OBJECT
 10
8000.0
 20
-199.9999999999990905
 30
0.0
 40
85.0
 50
46.8371028598062296
 51
133.1628971401937918
1001
ACDBBLOCKREPETAG
1070
     1
1071
      183
1005
147CA3
  0
POINT
  5
147CA4
  8
DOTS
 10
8000.0
 20
-199.9999999999990905
 30
0.0
 50
270.0
1001
ACDBBLOCKREPETAG
1070
     1
1071
      364
1005
147CA4
  0
LINE
  5
147CA5
  8
CENTER
 10
8080.0
 20
-199.9999999999990905
 30
0.0
 11
7920.0
 21
-199.9999999999990905
 31
0.0
1001
ACDBBLOCKREPETAG
1070
     1
1071
      158
1005
147CA5
  0
CIRCLE
  5
147CA6
  8
OBJECT
 10
8000.0
 20
-199.9999999999990905
 30
0.0
 40
63.0
1001
ACDBBLOCKREPETAG
1070
     1
1071
      428
1005
147CA6
  0
CIRCLE
  5
147CA7
  8
OBJECT
 10
8000.0
 20
-199.9999999999990905
 30
0.0
 40
75.0
1001
ACDBBLOCKREPETAG
1070
     1
1071
      429
1005
147CA7
  0
LINE
  5
147CA8
  8
CENTER
 10
7899.0
 20
-199.9999999999990905
 30
0.0
 11
7920.0
 21
-199.9999999999990905
 31
0.0
1001
ACDBBLOCKREPETAG
1070
     1
1071
        0
1005
147CA8
  0
LINE
  5
147CA9
  8
OBJECT
 10
7917.0
 20
-261.9999999999990905
 30
0.0
 11
7920.0
 21
-261.9999999999990905
 31
0.0
1001
ACDBBLOCKREPETAG
1070
     1
1071
        1
1005
147CA9
  0
ARC
  5
147CAA
  8
OBJECT
 10
7917.0
 20
-258.9999999999990905
 30
0.0
 40
3.0
 50
180.0
 51
270.0
1001
ACDBBLOCKREPETAG
1070
     1
1071
        2
1005
147CAA
  0
LINE
  5
147CAB
  8
OBJECT
 10
7920.0
 20
-137.9999999999990905
 30
0.0
 11
7917.0
 21
-137.9999999999990905
 31
0.0
1001
ACDBBLOCKREPETAG
1070
     1
1071
        3
1005
147CAB
  0
ARC
  5
147CAC
  8
OBJECT
 10
7917.0
 20
-140.9999999999990905
 30
0.0
 40
3.0
 50
90.0
 51
180.0
1001
ACDBBLOCKREPETAG
1070
     1
1071
        4
1005
147CAC
  0
LINE
  5
147CAD
  8
OBJECT
 10
7914.0
 20
-140.9999999999990905
 30
0.0
 11
7914.0
 21
-258.9999999999990905
 31
0.0
1001
ACDBBLOCKREPETAG
1070
     1
1071
        5
1005
147CAD
  0
LINE
  5
147CAE
  8
OBJECT
 10
7917.0
 20
-634.0
 30
0.0
 11
7920.0
 21
-634.0
 31
0.0
1001
ACDBBLOCKREPETAG
1070
     1
1071
        1
1005
147CAE
  0
ARC
  5
147CAF
  8
OBJECT
 10
7917.0
 20
-637.0
 30
0.0
 40
3.0
 50
90.0
 51
180.0
1001
ACDBBLOCKREPETAG
1070
     1
1071
        2
1005
147CAF
  0
LINE
  5
147CB0
  8
OBJECT
 10
7920.0
 20
-758.0
 30
0.0
 11
7917.0
 21
-758.0
 31
0.0
1001
ACDBBLOCKREPETAG
1070
     1
1071
        3
1005
147CB0
  0
ARC
  5
147CB1
  8
OBJECT
 10
7917.0
 20
-755.0
 30
0.0
 40
3.0
 50
180.0
 51
270.0
1001
ACDBBLOCKREPETAG
1070
     1
1071
        4
1005
147CB1
  0
LINE
  5
147CB2
  8
OBJECT
 10
7914.0
 20
-755.0
 30
0.0
 11
7914.0
 21
-637.0
 31
0.0
1001
ACDBBLOCKREPETAG
1070
     1
1071
        5
1005
147CB2
  0
LINE
  5
147CB3
  8
OBJECT
 10
8150.0
 20
-608.0
 30
0.0
 11
8143.0
 21
-608.0
 31
0.0
1001
ACDBBLOCKREPETAG
1070
     1
1071
       64
1005
147CB3
  0
LINE
  5
147CB4
  8
OBJECT
 10
8143.0
 20
-608.0
 30
0.0
 11
8143.0
 21
-755.0
 31
0.0
1001
ACDBBLOCKREPETAG
1070
     1
1071
       65
1005
147CB4
  0
LINE
  5
147CB5
  8
OBJECT
 10
8101.4999999999990905
 20
-611.0
 30
0.0
 11
8101.4999999999990905
 21
-755.0
 31
0.0
1001
ACDBBLOCKREPETAG
1070
     1
1071
       66
1005
147CB5
  0
LINE
  5
147CB6
  8
OBJECT
 10
8090.0
 20
-617.4999999999998863
 30
0.0
 11
8090.0
 21
-748.5
 31
0.0
1001
ACDBBLOCKREPETAG
1070
     1
1071
       67
1005
147CB6
  0
LINE
  5
147CB7
  8
OBJECT
 10
8086.0
 20
-689.500000000007276
 30
0.0
 11
8086.0
 21
-755.0
 31
0.0
1001
ACDBBLOCKREPETAG
1070
     1
1071
       68
1005
147CB7
  0
LINE
  5
147CB8
  8
OBJECT
 10
8150.0
 20
-755.0
 30
0.0
 11
8150.0
 21
-608.0
 31
0.0
1001
ACDBBLOCKREPETAG
1070
     1
1071
       69
1005
147CB8
  0
LINE
  5
147CB9
  8
CENTER
 10
8165.0
 20
-683.0
 30
0.0
 11
8070.4144144144147504
 21
-683.0
 31
0.0
1001
ACDBBLOCKREPETAG
1070
     1
1071
       70
1005
147CB9
  0
LINE
  5
147CBA
  8
OBJECT
 10
8083.0000000000027285
 20
-758.0
 30
0.0
 11
8080.0
 21
-758.0
 31
0.0
1001
ACDBBLOCKREPETAG
1070
     1
1071
       71
1005
147CBA
  0
ARC
  5
147CBB
  8
OBJECT
 10
8091.8815171830647159
 20
-756.4555591801454284
 30
0.0
 40
6.0
 50
60.5241109968708813
 51
170.6927439126718014
1001
ACDBBLOCKREPETAG
1070
     1
1071
       72
1005
147CBB
  0
ARC
  5
147CBC
  8
OBJECT
 10
8083.0
 20
-755.0
 30
0.0
 40
3.0
 50
270.0
 51
350.692743912671915
1001
ACDBBLOCKREPETAG
1070
     1
1071
       73
1005
147CBC
  0
LINE
  5
147CBD
  8
OBJECT
 10
8081.0
 20
-634.0
 30
0.0
 11
8080.0
 21
-634.0
 31
0.0
1001
ACDBBLOCKREPETAG
1070
     1
1071
       74
1005
147CBD
  0
LINE
  5
147CBE
  8
OBJECT
 10
8150.0
 20
-755.0
 30
0.0
 11
8101.4999999999990905
 21
-755.0
 31
0.0
1001
ACDBBLOCKREPETAG
1070
     1
1071
       75
1005
147CBE
  0
LINE
  5
147CBF
  8
OBJECT
 10
8101.4999999999990905
 20
-611.0
 30
0.0
 11
8090.0
 21
-617.4999999999998863
 31
0.0
1001
ACDBBLOCKREPETAG
1070
     1
1071
       76
1005
147CBF
  0
LINE
  5
147CC0
  8
OBJECT
 10
8143.0
 20
-611.0
 30
0.0
 11
8101.4999999999990905
 21
-611.0
 31
0.0
1001
ACDBBLOCKREPETAG
1070
     1
1071
       77
1005
147CC0
  0
LINE
  5
147CC1
  8
OBJECT
 10
8086.0
 20
-689.500000000007276
 30
0.0
 11
8081.0
 21
-634.0
 31
0.0
1001
ACDBBLOCKREPETAG
1070
     1
1071
       78
1005
147CC1
  0
LINE
  5
147CC2
  8
OBJECT
 10
8090.0
 20
-617.4999999999998863
 30
0.0
 11
8081.0
 21
-634.0
 31
0.0
1001
ACDBBLOCKREPETAG
1070
     1
1071
       79
1005
147CC2
  0
LINE
  5
147CC3
  8
OBJECT
 10
8101.4999999999990905
 20
-755.0
 30
0.0
 11
8094.8338607230716661
 21
-751.2321821478217316
 31
0.0
1001
ACDBBLOCKREPETAG
1070
     1
1071
       80
1005
147CC3
  0
LINE
  5
147CC4
  8
HIDDEN
 10
8098.0
 20
-740.0
 30
0.0
 11
8098.0
 21
-626.0
 31
0.0
1001
ACDBBLOCKREPETAG
1070
     1
1071
       81
1005
147CC4
  0
LINE
  5
147CC5
  8
CENTER
 10
6000.0
 20
-614.6152250169225226
 30
0.0
 11
6000.0
 21
-889.9999999999995453
 31
0.0
1001
ACDBBLOCKREPETAG
1070
     1
1071
       34
1005
147CC5
  0
LINE
  5
147CC6
  8
OBJECT
 10
5920.0
 20
-877.9999999999995453
 30
0.0
 11
6080.0
 21
-877.9999999999995453
 31
0.0
1001
ACDBBLOCKREPETAG
1070
     1
1071
       35
1005
147CC6
  0
LINE
  5
147CC7
  8
OBJECT
 10
6080.0
 20
-633.9999999999995453
 30
0.0
 11
6000.0
 21
-633.9999999999995453
 31
0.0
1001
ACDBBLOCKREPETAG
1070
     1
1071
       36
1005
147CC7
  0
LINE
  5
147CC8
  8
OBJECT
 10
6000.0
 20
-633.9999999999995453
 30
0.0
 11
5920.0
 21
-633.9999999999995453
 31
0.0
1001
ACDBBLOCKREPETAG
1070
     1
1071
      140
1005
147CC8
  0
LINE
  5
147CC9
  8
OBJECT
 10
5920.0
 20
-877.9999999999995453
 30
0.0
 11
5920.0
 21
-889.9999999999995453
 31
0.0
1001
ACDBBLOCKREPETAG
1070
     1
1071
       37
1005
147CC9
  0
LINE
  5
147CCA
  8
OBJECT
 10
5920.0
 20
-889.9999999999995453
 30
0.0
 11
6080.0
 21
-889.9999999999995453
 31
0.0
1001
ACDBBLOCKREPETAG
1070
     1
1071
       38
1005
147CCA
  0
LINE
  5
147CCB
  8
OBJECT
 10
6080.0
 20
-889.9999999999995453
 30
0.0
 11
6080.0
 21
-877.9999999999995453
 31
0.0
1001
ACDBBLOCKREPETAG
1070
     1
1071
       39
1005
147CCB
  0
LINE
  5
147CCC
  8
OBJECT
 10
6074.9999999998617568
 20
-757.9999999998503881
 30
0.0
 11
6075.0
 21
-877.9999999999995453
 31
0.0
1001
ACDBBLOCKREPETAG
1070
     1
1071
       43
1005
147CCC
  0
LINE
  5
147CCD
  8
OBJECT
 10
6074.9999908029858489
 20
-757.9999860270213503
 30
0.0
 11
6080.0
 21
-757.9999860270213503
 31
0.0
1001
ACDBBLOCKREPETAG
1070
     1
1071
       44
1005
147CCD
  0
LINE
  5
147CCE
  8
OBJECT
 10
5925.0000000001391527
 20
-757.9999999998503881
 30
0.0
 11
5925.0
 21
-877.9999999999995453
 31
0.0
1001
ACDBBLOCKREPETAG
1070
     1
1071
       45
1005
147CCE
  0
LINE
  5
147CCF
  8
OBJECT
 10
5925.0000091970141511
 20
-757.9999860270213503
 30
0.0
 11
5920.0
 21
-757.9999860270213503
 31
0.0
1001
ACDBBLOCKREPETAG
1070
     1
1071
       46
1005
147CCF
  0
LINE
  5
147CD0
  8
OBJECT
 10
6060.0
 20
-628.9999999999995453
 30
0.0
 11
6000.0
 21
-628.9999999999995453
 31
0.0
1001
ACDBBLOCKREPETAG
1070
     1
1071
       47
1005
147CD0
  0
LINE
  5
147CD1
  8
OBJECT
 10
6000.0
 20
-628.9999999999995453
 30
0.0
 11
5940.0
 21
-628.9999999999995453
 31
0.0
1001
ACDBBLOCKREPETAG
1070
     1
1071
      139
1005
147CD1
  0
ARC
  5
147CD2
  8
OBJECT
 10
5940.0
 20
-631.9999999999995453
 30
0.0
 40
3.0
 50
90.0
 51
180.0
1001
ACDBBLOCKREPETAG
1070
     1
1071
       48
1005
147CD2
  0
LINE
  5
147CD3
  8
OBJECT
 10
5937.0
 20
-631.9999999999995453
 30
0.0
 11
5937.0
 21
-633.9999999999995453
 31
0.0
1001
ACDBBLOCKREPETAG
1070
     1
1071
       49
1005
147CD3
  0
LINE
  5
147CD4
  8
OBJECT
 10
6063.0
 20
-631.9999999999995453
 30
0.0
 11
6063.0
 21
-633.9999999999995453
 31
0.0
1001
ACDBBLOCKREPETAG
1070
     1
1071
       50
1005
147CD4
  0
ARC
  5
147CD5
  8
OBJECT
 10
6060.0
 20
-631.9999999999995453
 30
0.0
 40
3.0
 50
0.0
 51
90.0
1001
ACDBBLOCKREPETAG
1070
     1
1071
       51
1005
147CD5
  0
ARC
  5
147CD6
  8
OBJECT
 10
6200.6872746716726397
 20
-749.4080994101071838
 30
0.0
 40
170.6350503965855978
 50
137.4413445918430057
 51
149.9194958133010118
1001
ACDBBLOCKREPETAG
1070
     1
1071
       52
1005
147CD6
  0
ARC
  5
147CD7
  8
OBJECT
 10
6200.6872746716726397
 20
-642.5919005898917931
 30
0.0
 40
170.6350503965855978
 50
210.0805041866989882
 51
222.5586554081569943
1001
ACDBBLOCKREPETAG
1070
     1
1071
       53
1005
147CD7
  0
ARC
  5
147CD8
  8
OBJECT
 10
5799.3127253283273603
 20
-749.4080994101071838
 30
0.0
 40
170.6350503965855978
 50
30.0805041866990202
 51
42.558655408456282
1001
ACDBBLOCKREPETAG
1070
     1
1071
       54
1005
147CD8
  0
ARC
  5
147CD9
  8
OBJECT
 10
5799.3127253283273603
 20
-642.5919005898917931
 30
0.0
 40
170.6350503965855978
 50
317.4413445915437251
 51
329.9194958133010118
1001
ACDBBLOCKREPETAG
1070
     1
1071
       55
1005
147CD9
  0
POINT
  5
147CDA
  8
DOTS
 10
6000.0
 20
-754.9999999999995453
 30
0.0
1001
ACDBBLOCKREPETAG
1070
     1
1071
      133
1005
147CDA
  0
POINT
  5
147CDB
  8
DOTS
 10
6000.0
 20
-199.9999999999990905
 30
0.0
 50
270.0
1001
ACDBBLOCKREPETAG
1070
     1
1071
      153
1005
147CDB
  0
LINE
  5
147CDC
  8
CENTER
 10
6080.0
 20
-199.9999999999990905
 30
0.0
 11
5920.0
 21
-199.9999999999990905
 31
0.0
1001
ACDBBLOCKREPETAG
1070
     1
1071
       49
1005
147CDC
  0
LINE
  5
147CDD
  8
CENTER
 10
6000.0
 20
-279.9999999999990905
 30
0.0
 11
6000.0
 21
-104.9999999999991047
 31
0.0
1001
ACDBBLOCKREPETAG
1070
     1
1071
       50
1005
147CDD
  0
CIRCLE
  5
147CDE
  8
OBJECT
 10
6000.0
 20
-199.9999999999990905
 30
0.0
 40
63.0
1001
ACDBBLOCKREPETAG
1070
     1
1071
       51
1005
147CDE
  0
CIRCLE
  5
147CDF
  8
OBJECT
 10
6000.0
 20
-199.9999999999990905
 30
0.0
 40
75.0
1001
ACDBBLOCKREPETAG
1070
     1
1071
       52
1005
147CDF
  0
ARC
  5
147CE0
  8
OBJECT
 10
6000.0
 20
-199.9999999999990905
 30
0.0
 40
80.0
 50
50.8050325738843895
 51
129.1949674261155963
1001
ACDBBLOCKREPETAG
1070
     1
1071
       53
1005
147CE0
  0
LINE
  5
147CE1
  8
OBJECT
 10
6042.2018956920182973
 20
-137.9999999999990905
 30
0.0
 11
6080.0
 21
-137.9999999999990905
 31
0.0
1001
ACDBBLOCKREPETAG
1070
     1
1071
       54
1005
147CE1
  0
LINE
  5
147CE2
  8
OBJECT
 10
6062.0
 20
-261.9999999999990905
 30
0.0
 11
6080.0
 21
-261.9999999999990905
 31
0.0
1001
ACDBBLOCKREPETAG
1070
     1
1071
       55
1005
147CE2
  0
LINE
  5
147CE3
  8
OBJECT
 10
6062.0
 20
-261.9999999999990905
 30
0.0
 11
6062.0
 21
-279.9999999999990905
 31
0.0
1001
ACDBBLOCKREPETAG
1070
     1
1071
       57
1005
147CE3
  0
LINE
  5
147CE4
  8
OBJECT
 10
5938.0
 20
-261.9999999999990905
 30
0.0
 11
5938.0
 21
-279.9999999999990905
 31
0.0
1001
ACDBBLOCKREPETAG
1070
     1
1071
       58
1005
147CE4
  0
LINE
  5
147CE5
  8
OBJECT
 10
5938.0
 20
-261.9999999999990905
 30
0.0
 11
5920.0
 21
-261.9999999999990905
 31
0.0
1001
ACDBBLOCKREPETAG
1070
     1
1071
       60
1005
147CE5
  0
LINE
  5
147CE6
  8
OBJECT
 10
5957.7981043079817027
 20
-137.9999999999990905
 30
0.0
 11
5920.0
 21
-137.9999999999990905
 31
0.0
1001
ACDBBLOCKREPETAG
1070
     1
1071
       61
1005
147CE6
  0
LINE
  5
147CE7
  8
OBJECT
 10
5946.9669914110090758
 20
-253.0330085889902136
 30
0.0
 11
5938.0
 21
-261.9999999999990905
 31
0.0
1001
ACDBBLOCKREPETAG
1070
     1
1071
       42
1005
147CE7
  0
LINE
  5
147CE8
  8
OBJECT
 10
6053.0330085889900147
 20
-253.0330085889902136
 30
0.0
 11
6062.0
 21
-261.9999999999990905
 31
0.0
1001
ACDBBLOCKREPETAG
1070
     1
1071
       43
1005
147CE8
  0
LINE
  5
147CE9
  8
CENTER
 10
5899.0
 20
-199.9999999999990905
 30
0.0
 11
5920.0
 21
-199.9999999999990905
 31
0.0
1001
ACDBBLOCKREPETAG
1070
     1
1071
        0
1005
147CE9
  0
LINE
  5
147CEA
  8
OBJECT
 10
5917.0
 20
-261.9999999999990905
 30
0.0
 11
5920.0
 21
-261.9999999999990905
 31
0.0
1001
ACDBBLOCKREPETAG
1070
     1
1071
        1
1005
147CEA
  0
ARC
  5
147CEB
  8
OBJECT
 10
5917.0
 20
-258.9999999999990905
 30
0.0
 40
3.0
 50
180.0
 51
270.0
1001
ACDBBLOCKREPETAG
1070
     1
1071
        2
1005
147CEB
  0
LINE
  5
147CEC
  8
OBJECT
 10
5920.0
 20
-137.9999999999990905
 30
0.0
 11
5917.0
 21
-137.9999999999990905
 31
0.0
1001
ACDBBLOCKREPETAG
1070
     1
1071
        3
1005
147CEC
  0
ARC
  5
147CED
  8
OBJECT
 10
5917.0
 20
-140.9999999999990905
 30
0.0
 40
3.0
 50
90.0
 51
180.0
1001
ACDBBLOCKREPETAG
1070
     1
1071
        4
1005
147CED
  0
LINE
  5
147CEE
  8
OBJECT
 10
5914.0
 20
-140.9999999999990905
 30
0.0
 11
5914.0
 21
-258.9999999999990905
 31
0.0
1001
ACDBBLOCKREPETAG
1070
     1
1071
        5
1005
147CEE
  0
LINE
  5
147CEF
  8
OBJECT
 10
5917.0
 20
-634.0
 30
0.0
 11
5920.0
 21
-634.0
 31
0.0
1001
ACDBBLOCKREPETAG
1070
     1
1071
        1
1005
147CEF
  0
ARC
  5
147CF0
  8
OBJECT
 10
5917.0
 20
-637.0
 30
0.0
 40
3.0
 50
90.0
 51
180.0
1001
ACDBBLOCKREPETAG
1070
     1
1071
        2
1005
147CF0
  0
LINE
  5
147CF1
  8
OBJECT
 10
5920.0
 20
-758.0
 30
0.0
 11
5917.0
 21
-758.0
 31
0.0
1001
ACDBBLOCKREPETAG
1070
     1
1071
        3
1005
147CF1
  0
ARC
  5
147CF2
  8
OBJECT
 10
5917.0
 20
-755.0
 30
0.0
 40
3.0
 50
180.0
 51
270.0
1001
ACDBBLOCKREPETAG
1070
     1
1071
        4
1005
147CF2
  0
LINE
  5
147CF3
  8
OBJECT
 10
5914.0
 20
-755.0
 30
0.0
 11
5914.0
 21
-637.0
 31
0.0
1001
ACDBBLOCKREPETAG
1070
     1
1071
        5
1005
147CF3
  0
LINE
  5
147CF4
  8
OBJECT
 10
6150.0
 20
-608.0
 30
0.0
 11
6143.0
 21
-608.0
 31
0.0
1001
ACDBBLOCKREPETAG
1070
     1
1071
       64
1005
147CF4
  0
LINE
  5
147CF5
  8
OBJECT
 10
6143.0
 20
-608.0
 30
0.0
 11
6143.0
 21
-755.0
 31
0.0
1001
ACDBBLOCKREPETAG
1070
     1
1071
       65
1005
147CF5
  0
LINE
  5
147CF6
  8
OBJECT
 10
6101.5
 20
-611.0
 30
0.0
 11
6101.5
 21
-755.0
 31
0.0
1001
ACDBBLOCKREPETAG
1070
     1
1071
       66
1005
147CF6
  0
LINE
  5
147CF7
  8
OBJECT
 10
6090.0
 20
-617.4999999999998863
 30
0.0
 11
6090.0
 21
-748.5
 31
0.0
1001
ACDBBLOCKREPETAG
1070
     1
1071
       67
1005
147CF7
  0
LINE
  5
147CF8
  8
OBJECT
 10
6086.0
 20
-689.500000000007276
 30
0.0
 11
6086.0
 21
-755.0
 31
0.0
1001
ACDBBLOCKREPETAG
1070
     1
1071
       68
1005
147CF8
  0
LINE
  5
147CF9
  8
OBJECT
 10
6150.0
 20
-755.0
 30
0.0
 11
6150.0
 21
-608.0
 31
0.0
1001
ACDBBLOCKREPETAG
1070
     1
1071
       69
1005
147CF9
  0
LINE
  5
147CFA
  8
CENTER
 10
6165.0
 20
-683.0
 30
0.0
 11
6070.4144144144156598
 21
-683.0
 31
0.0
1001
ACDBBLOCKREPETAG
1070
     1
1071
       70
1005
147CFA
  0
LINE
  5
147CFB
  8
OBJECT
 10
6083.000000000003638
 20
-758.0
 30
0.0
 11
6080.0
 21
-758.0
 31
0.0
1001
ACDBBLOCKREPETAG
1070
     1
1071
       71
1005
147CFB
  0
ARC
  5
147CFC
  8
OBJECT
 10
6091.8815171830647159
 20
-756.4555591801454284
 30
0.0
 40
6.0
 50
60.5241109968708813
 51
170.6927439126718014
1001
ACDBBLOCKREPETAG
1070
     1
1071
       72
1005
147CFC
  0
ARC
  5
147CFD
  8
OBJECT
 10
6083.0
 20
-755.0
 30
0.0
 40
3.0
 50
270.0
 51
350.692743912671915
1001
ACDBBLOCKREPETAG
1070
     1
1071
       73
1005
147CFD
  0
LINE
  5
147CFE
  8
OBJECT
 10
6081.0
 20
-634.0
 30
0.0
 11
6080.0
 21
-634.0
 31
0.0
1001
ACDBBLOCKREPETAG
1070
     1
1071
       74
1005
147CFE
  0
LINE
  5
147CFF
  8
OBJECT
 10
6150.0
 20
-755.0
 30
0.0
 11
6101.5
 21
-755.0
 31
0.0
1001
ACDBBLOCKREPETAG
1070
     1
1071
       75
1005
147CFF
  0
LINE
  5
147D00
  8
OBJECT
 10
6101.5
 20
-611.0
 30
0.0
 11
6090.0
 21
-617.4999999999998863
 31
0.0
1001
ACDBBLOCKREPETAG
1070
     1
1071
       76
1005
147D00
  0
LINE
  5
147D01
  8
OBJECT
 10
6143.0
 20
-611.0
 30
0.0
 11
6101.5
 21
-611.0
 31
0.0
1001
ACDBBLOCKREPETAG
1070
     1
1071
       77
1005
147D01
  0
LINE
  5
147D02
  8
OBJECT
 10
6086.0
 20
-689.500000000007276
 30
0.0
 11
6081.0
 21
-634.0
 31
0.0
1001
ACDBBLOCKREPETAG
1070
     1
1071
       78
1005
147D02
  0
LINE
  5
147D03
  8
OBJECT
 10
6090.0
 20
-617.4999999999998863
 30
0.0
 11
6081.0
 21
-634.0
 31
0.0
1001
ACDBBLOCKREPETAG
1070
     1
1071
       79
1005
147D03
  0
LINE
  5
147D04
  8
OBJECT
 10
6101.5
 20
-755.0
 30
0.0
 11
6094.8338607230716661
 21
-751.2321821478217316
 31
0.0
1001
ACDBBLOCKREPETAG
1070
     1
1071
       80
1005
147D04
  0
LINE
  5
147D05
  8
HIDDEN
 10
6098.0
 20
-740.0
 30
0.0
 11
6098.0
 21
-626.0
 31
0.0
1001
ACDBBLOCKREPETAG
1070
     1
1071
       81
1005
147D05
  0
LINE
  5
147D06
  8
CENTER
 10
4000.0
 20
-614.6152250169225226
 30
0.0
 11
4000.0
 21
-889.9999999999995453
 31
0.0
1001
ACDBBLOCKREPETAG
1070
     1
1071
       34
1005
147D06
  0
LINE
  5
147D07
  8
OBJECT
 10
3920.0
 20
-877.9999999999995453
 30
0.0
 11
4080.0
 21
-877.9999999999995453
 31
0.0
1001
ACDBBLOCKREPETAG
1070
     1
1071
       35
1005
147D07
  0
LINE
  5
147D08
  8
OBJECT
 10
4080.0
 20
-633.9999999999995453
 30
0.0
 11
4000.0
 21
-633.9999999999995453
 31
0.0
1001
ACDBBLOCKREPETAG
1070
     1
1071
       36
1005
147D08
  0
LINE
  5
147D09
  8
OBJECT
 10
4000.0
 20
-633.9999999999995453
 30
0.0
 11
3920.0
 21
-633.9999999999995453
 31
0.0
1001
ACDBBLOCKREPETAG
1070
     1
1071
      140
1005
147D09
  0
LINE
  5
147D0A
  8
OBJECT
 10
3920.0
 20
-877.9999999999995453
 30
0.0
 11
3920.0
 21
-889.9999999999995453
 31
0.0
1001
ACDBBLOCKREPETAG
1070
     1
1071
       37
1005
147D0A
  0
LINE
  5
147D0B
  8
OBJECT
 10
3920.0
 20
-889.9999999999995453
 30
0.0
 11
4080.0
 21
-889.9999999999995453
 31
0.0
1001
ACDBBLOCKREPETAG
1070
     1
1071
       38
1005
147D0B
  0
LINE
  5
147D0C
  8
OBJECT
 10
4080.0
 20
-889.9999999999995453
 30
0.0
 11
4080.0
 21
-877.9999999999995453
 31
0.0
1001
ACDBBLOCKREPETAG
1070
     1
1071
       39
1005
147D0C
  0
LINE
  5
147D0D
  8
OBJECT
 10
4074.9999999998622116
 20
-757.9999999998503881
 30
0.0
 11
4075.0
 21
-877.9999999999995453
 31
0.0
1001
ACDBBLOCKREPETAG
1070
     1
1071
       43
1005
147D0D
  0
LINE
  5
147D0E
  8
OBJECT
 10
4074.9999908029849394
 20
-757.9999860270213503
 30
0.0
 11
4080.0
 21
-757.9999860270213503
 31
0.0
1001
ACDBBLOCKREPETAG
1070
     1
1071
       44
1005
147D0E
  0
LINE
  5
147D0F
  8
OBJECT
 10
3925.0000000001391527
 20
-757.9999999998503881
 30
0.0
 11
3925.0
 21
-877.9999999999995453
 31
0.0
1001
ACDBBLOCKREPETAG
1070
     1
1071
       45
1005
147D0F
  0
LINE
  5
147D10
  8
OBJECT
 10
3925.0000091970150606
 20
-757.9999860270213503
 30
0.0
 11
3920.0
 21
-757.9999860270213503
 31
0.0
1001
ACDBBLOCKREPETAG
1070
     1
1071
       46
1005
147D10
  0
LINE
  5
147D11
  8
OBJECT
 10
4060.0
 20
-628.9999999999995453
 30
0.0
 11
4000.0
 21
-628.9999999999995453
 31
0.0
1001
ACDBBLOCKREPETAG
1070
     1
1071
       47
1005
147D11
  0
LINE
  5
147D12
  8
OBJECT
 10
4000.0
 20
-628.9999999999995453
 30
0.0
 11
3940.0
 21
-628.9999999999995453
 31
0.0
1001
ACDBBLOCKREPETAG
1070
     1
1071
      139
1005
147D12
  0
ARC
  5
147D13
  8
OBJECT
 10
3940.0
 20
-631.9999999999995453
 30
0.0
 40
3.0
 50
90.0
 51
180.0
1001
ACDBBLOCKREPETAG
1070
     1
1071
       48
1005
147D13
  0
LINE
  5
147D14
  8
OBJECT
 10
3937.0
 20
-631.9999999999995453
 30
0.0
 11
3937.0
 21
-633.9999999999995453
 31
0.0
1001
ACDBBLOCKREPETAG
1070
     1
1071
       49
1005
147D14
  0
LINE
  5
147D15
  8
OBJECT
 10
4063.0
 20
-631.9999999999995453
 30
0.0
 11
4063.0
 21
-633.9999999999995453
 31
0.0
1001
ACDBBLOCKREPETAG
1070
     1
1071
       50
1005
147D15
  0
ARC
  5
147D16
  8
OBJECT
 10
4060.0
 20
-631.9999999999995453
 30
0.0
 40
3.0
 50
0.0
 51
90.0
1001
ACDBBLOCKREPETAG
1070
     1
1071
       51
1005
147D16
  0
ARC
  5
147D17
  8
OBJECT
 10
4200.6872746716726397
 20
-749.4080994101071838
 30
0.0
 40
170.6350503965855978
 50
137.4413445918430057
 51
149.9194958133140005
1001
ACDBBLOCKREPETAG
1070
     1
1071
       52
1005
147D17
  0
ARC
  5
147D18
  8
OBJECT
 10
4200.6872746716726397
 20
-642.5919005898917931
 30
0.0
 40
170.6350503965855978
 50
210.0805041866859995
 51
222.5586554081569943
1001
ACDBBLOCKREPETAG
1070
     1
1071
       53
1005
147D18
  0
ARC
  5
147D19
  8
OBJECT
 10
3799.3127253283278151
 20
-749.4080994101071838
 30
0.0
 40
170.6350503965855978
 50
30.0805041866859604
 51
42.558655408456282
1001
ACDBBLOCKREPETAG
1070
     1
1071
       54
1005
147D19
  0
ARC
  5
147D1A
  8
OBJECT
 10
3799.3127253283278151
 20
-642.5919005898917931
 30
0.0
 40
170.6350503965855978
 50
317.4413445915437251
 51
329.9194958133139721
1001
ACDBBLOCKREPETAG
1070
     1
1071
       55
1005
147D1A
  0
POINT
  5
147D1B
  8
DOTS
 10
4000.0
 20
-754.9999999999995453
 30
0.0
1001
ACDBBLOCKREPETAG
1070
     1
1071
      133
1005
147D1B
  0
POINT
  5
147D1C
  8
DOTS
 10
4000.0
 20
-199.9999999999990905
 30
0.0
 50
270.0
1001
ACDBBLOCKREPETAG
1070
     1
1071
      153
1005
147D1C
  0
LINE
  5
147D1D
  8
CENTER
 10
4080.0
 20
-199.9999999999990905
 30
0.0
 11
3920.0
 21
-199.9999999999990905
 31
0.0
1001
ACDBBLOCKREPETAG
1070
     1
1071
       49
1005
147D1D
  0
LINE
  5
147D1E
  8
CENTER
 10
4000.0
 20
-279.9999999999990905
 30
0.0
 11
4000.0
 21
-104.9999999999991047
 31
0.0
1001
ACDBBLOCKREPETAG
1070
     1
1071
       50
1005
147D1E
  0
CIRCLE
  5
147D1F
  8
OBJECT
 10
4000.0
 20
-199.9999999999990905
 30
0.0
 40
63.0
1001
ACDBBLOCKREPETAG
1070
     1
1071
       51
1005
147D1F
  0
CIRCLE
  5
147D20
  8
OBJECT
 10
4000.0
 20
-199.9999999999990905
 30
0.0
 40
75.0
1001
ACDBBLOCKREPETAG
1070
     1
1071
       52
1005
147D20
  0
ARC
  5
147D21
  8
OBJECT
 10
4000.0
 20
-199.9999999999990905
 30
0.0
 40
80.0
 50
50.8050325738641888
 51
129.1949674261358041
1001
ACDBBLOCKREPETAG
1070
     1
1071
       53
1005
147D21
  0
LINE
  5
147D22
  8
OBJECT
 10
4042.2018956920178425
 20
-137.9999999999990905
 30
0.0
 11
4080.0
 21
-137.9999999999990905
 31
0.0
1001
ACDBBLOCKREPETAG
1070
     1
1071
       54
1005
147D22
  0
LINE
  5
147D23
  8
OBJECT
 10
4062.0
 20
-261.9999999999990905
 30
0.0
 11
4080.0
 21
-261.9999999999990905
 31
0.0
1001
ACDBBLOCKREPETAG
1070
     1
1071
       55
1005
147D23
  0
LINE
  5
147D24
  8
OBJECT
 10
4062.0
 20
-261.9999999999990905
 30
0.0
 11
4062.0
 21
-279.9999999999990905
 31
0.0
1001
ACDBBLOCKREPETAG
1070
     1
1071
       57
1005
147D24
  0
LINE
  5
147D25
  8
OBJECT
 10
3938.0
 20
-261.9999999999990905
 30
0.0
 11
3938.0
 21
-279.9999999999990905
 31
0.0
1001
ACDBBLOCKREPETAG
1070
     1
1071
       58
1005
147D25
  0
LINE
  5
147D26
  8
OBJECT
 10
3938.0
 20
-261.9999999999990905
 30
0.0
 11
3920.0
 21
-261.9999999999990905
 31
0.0
1001
ACDBBLOCKREPETAG
1070
     1
1071
       60
1005
147D26
  0
LINE
  5
147D27
  8
OBJECT
 10
3957.7981043079821575
 20
-137.9999999999990905
 30
0.0
 11
3920.0
 21
-137.9999999999990905
 31
0.0
1001
ACDBBLOCKREPETAG
1070
     1
1071
       61
1005
147D27
  0
LINE
  5
147D28
  8
OBJECT
 10
3946.9669914110090758
 20
-253.0330085889902136
 30
0.0
 11
3938.0
 21
-261.9999999999990905
 31
0.0
1001
ACDBBLOCKREPETAG
1070
     1
1071
       42
1005
147D28
  0
LINE
  5
147D29
  8
OBJECT
 10
4053.0330085889900147
 20
-253.0330085889902136
 30
0.0
 11
4062.0
 21
-261.9999999999990905
 31
0.0
1001
ACDBBLOCKREPETAG
1070
     1
1071
       43
1005
147D29
  0
LINE
  5
147D2A
  8
CENTER
 10
3899.0
 20
-199.9999999999990905
 30
0.0
 11
3920.0
 21
-199.9999999999990905
 31
0.0
1001
ACDBBLOCKREPETAG
1070
     1
1071
        0
1005
147D2A
  0
LINE
  5
147D2B
  8
OBJECT
 10
3917.0
 20
-261.9999999999990905
 30
0.0
 11
3920.0
 21
-261.9999999999990905
 31
0.0
1001
ACDBBLOCKREPETAG
1070
     1
1071
        1
1005
147D2B
  0
ARC
  5
147D2C
  8
OBJECT
 10
3917.0
 20
-258.9999999999990905
 30
0.0
 40
3.0
 50
180.0
 51
270.0
1001
ACDBBLOCKREPETAG
1070
     1
1071
        2
1005
147D2C
  0
LINE
  5
147D2D
  8
OBJECT
 10
3920.0
 20
-137.9999999999990905
 30
0.0
 11
3917.0
 21
-137.9999999999990905
 31
0.0
1001
ACDBBLOCKREPETAG
1070
     1
1071
        3
1005
147D2D
  0
ARC
  5
147D2E
  8
OBJECT
 10
3917.0
 20
-140.9999999999990905
 30
0.0
 40
3.0
 50
90.0
 51
180.0
1001
ACDBBLOCKREPETAG
1070
     1
1071
        4
1005
147D2E
  0
LINE
  5
147D2F
  8
OBJECT
 10
3914.0
 20
-140.9999999999990905
 30
0.0
 11
3914.0
 21
-258.9999999999990905
 31
0.0
1001
ACDBBLOCKREPETAG
1070
     1
1071
        5
1005
147D2F
  0
LINE
  5
147D30
  8
OBJECT
 10
3917.0
 20
-634.0
 30
0.0
 11
3920.0
 21
-634.0
 31
0.0
1001
ACDBBLOCKREPETAG
1070
     1
1071
        1
1005
147D30
  0
ARC
  5
147D31
  8
OBJECT
 10
3917.0
 20
-637.0
 30
0.0
 40
3.0
 50
90.0
 51
180.0
1001
ACDBBLOCKREPETAG
1070
     1
1071
        2
1005
147D31
  0
LINE
  5
147D32
  8
OBJECT
 10
3920.0
 20
-758.0
 30
0.0
 11
3917.0
 21
-758.0
 31
0.0
1001
ACDBBLOCKREPETAG
1070
     1
1071
        3
1005
147D32
  0
ARC
  5
147D33
  8
OBJECT
 10
3917.0
 20
-755.0
 30
0.0
 40
3.0
 50
180.0
 51
270.0
1001
ACDBBLOCKREPETAG
1070
     1
1071
        4
1005
147D33
  0
LINE
  5
147D34
  8
OBJECT
 10
3914.0
 20
-755.0
 30
0.0
 11
3914.0
 21
-637.0
 31
0.0
1001
ACDBBLOCKREPETAG
1070
     1
1071
        5
1005
147D34
  0
LINE
  5
147D35
  8
OBJECT
 10
4150.0
 20
-608.0
 30
0.0
 11
4143.0
 21
-608.0
 31
0.0
1001
ACDBBLOCKREPETAG
1070
     1
1071
       64
1005
147D35
  0
LINE
  5
147D36
  8
OBJECT
 10
4143.0
 20
-608.0
 30
0.0
 11
4143.0
 21
-755.0
 31
0.0
1001
ACDBBLOCKREPETAG
1070
     1
1071
       65
1005
147D36
  0
LINE
  5
147D37
  8
OBJECT
 10
4101.5
 20
-611.0
 30
0.0
 11
4101.5
 21
-755.0
 31
0.0
1001
ACDBBLOCKREPETAG
1070
     1
1071
       66
1005
147D37
  0
LINE
  5
147D38
  8
OBJECT
 10
4090.0
 20
-617.4999999999998863
 30
0.0
 11
4090.0
 21
-748.5
 31
0.0
1001
ACDBBLOCKREPETAG
1070
     1
1071
       67
1005
147D38
  0
LINE
  5
147D39
  8
OBJECT
 10
4086.0
 20
-689.500000000007276
 30
0.0
 11
4086.0
 21
-755.0
 31
0.0
1001
ACDBBLOCKREPETAG
1070
     1
1071
       68
1005
147D39
  0
LINE
  5
147D3A
  8
OBJECT
 10
4150.0
 20
-755.0
 30
0.0
 11
4150.0
 21
-608.0
 31
0.0
1001
ACDBBLOCKREPETAG
1070
     1
1071
       69
1005
147D3A
  0
LINE
  5
147D3B
  8
CENTER
 10
4165.0
 20
-683.0
 30
0.0
 11
4070.4144144144161146
 21
-683.0
 31
0.0
1001
ACDBBLOCKREPETAG
1070
     1
1071
       70
1005
147D3B
  0
LINE
  5
147D3C
  8
OBJECT
 10
4083.0000000000031832
 20
-758.0
 30
0.0
 11
4080.0
 21
-758.0
 31
0.0
1001
ACDBBLOCKREPETAG
1070
     1
1071
       71
1005
147D3C
  0
ARC
  5
147D3D
  8
OBJECT
 10
4091.8815171830651707
 20
-756.4555591801454284
 30
0.0
 40
6.0
 50
60.5241109968708813
 51
170.6927439126718014
1001
ACDBBLOCKREPETAG
1070
     1
1071
       72
1005
147D3D
  0
ARC
  5
147D3E
  8
OBJECT
 10
4083.0
 20
-755.0
 30
0.0
 40
3.0
 50
270.0
 51
350.692743912671915
1001
ACDBBLOCKREPETAG
1070
     1
1071
       73
1005
147D3E
  0
LINE
  5
147D3F
  8
OBJECT
 10
4081.0
 20
-634.0
 30
0.0
 11
4080.0
 21
-634.0
 31
0.0
1001
ACDBBLOCKREPETAG
1070
     1
1071
       74
1005
147D3F
  0
LINE
  5
147D40
  8
OBJECT
 10
4150.0
 20
-755.0
 30
0.0
 11
4101.5
 21
-755.0
 31
0.0
1001
ACDBBLOCKREPETAG
1070
     1
1071
       75
1005
147D40
  0
LINE
  5
147D41
  8
OBJECT
 10
4101.5
 20
-611.0
 30
0.0
 11
4090.0
 21
-617.4999999999998863
 31
0.0
1001
ACDBBLOCKREPETAG
1070
     1
1071
       76
1005
147D41
  0
LINE
  5
147D42
  8
OBJECT
 10
4143.0
 20
-611.0
 30
0.0
 11
4101.5
 21
-611.0
 31
0.0
1001
ACDBBLOCKREPETAG
1070
     1
1071
       77
1005
147D42
  0
LINE
  5
147D43
  8
OBJECT
 10
4086.0
 20
-689.500000000007276
 30
0.0
 11
4081.0
 21
-634.0
 31
0.0
1001
ACDBBLOCKREPETAG
1070
     1
1071
       78
1005
147D43
  0
LINE
  5
147D44
  8
OBJECT
 10
4090.0
 20
-617.4999999999998863
 30
0.0
 11
4081.0
 21
-634.0
 31
0.0
1001
ACDBBLOCKREPETAG
1070
     1
1071
       79
1005
147D44
  0
LINE
  5
147D45
  8
OBJECT
 10
4101.5
 20
-755.0
 30
0.0
 11
4094.8338607230721209
 21
-751.2321821478217316
 31
0.0
1001
ACDBBLOCKREPETAG
1070
     1
1071
       80
1005
147D45
  0
LINE
  5
147D46
  8
HIDDEN
 10
4098.0
 20
-740.0
 30
0.0
 11
4098.0
 21
-626.0
 31
0.0
1001
ACDBBLOCKREPETAG
1070
     1
1071
       81
1005
147D46
  0
LINE
  5
147D47
  8
CENTER
 10
2077.0
 20
-696.0
 30
0.0
 11
1923.0
 21
-696.0
 31
0.0
1001
ACDBBLOCKREPETAG
1070
     1
1071
       17
1005
147D47
  0
CIRCLE
  5
147D48
  8
OBJECT
 10
2000.0
 20
-696.0
 30
0.0
 40
41.5
1001
ACDBBLOCKREPETAG
1070
     1
1071
       19
1005
147D48
  0
CIRCLE
  5
147D49
  8
OBJECT
 10
2000.0
 20
-696.0
 30
0.0
 40
54.0
1001
ACDBBLOCKREPETAG
1070
     1
1071
       20
1005
147D49
  0
ARC
  5
147D4A
  8
OBJECT
 10
2000.0
 20
-696.0
 30
0.0
 40
62.0
 50
287.8965511292071824
 51
252.1034488707927892
1001
ACDBBLOCKREPETAG
1070
     1
1071
       21
1005
147D4A
  0
LINE
  5
147D4B
  8
OBJECT
 10
1980.9474411167429935
 20
-755.0
 30
0.0
 11
2019.0525588832570065
 21
-755.0
 31
0.0
1001
ACDBBLOCKREPETAG
1070
     1
1071
       22
1005
147D4B
  0
LINE
  5
147D4C
  8
CENTER
 10
2000.0
 20
-614.6152250169225226
 30
0.0
 11
2000.0
 21
-889.9999999999995453
 31
0.0
1001
ACDBBLOCKREPETAG
1070
     1
1071
       34
1005
147D4C
  0
LINE
  5
147D4D
  8
OBJECT
 10
1920.0
 20
-877.9999999999995453
 30
0.0
 11
2080.0
 21
-877.9999999999995453
 31
0.0
1001
ACDBBLOCKREPETAG
1070
     1
1071
       35
1005
147D4D
  0
LINE
  5
147D4E
  8
OBJECT
 10
2080.0
 20
-633.9999999999995453
 30
0.0
 11
2000.0
 21
-633.9999999999995453
 31
0.0
1001
ACDBBLOCKREPETAG
1070
     1
1071
       36
1005
147D4E
  0
LINE
  5
147D4F
  8
OBJECT
 10
2000.0
 20
-633.9999999999995453
 30
0.0
 11
1920.0
 21
-633.9999999999995453
 31
0.0
1001
ACDBBLOCKREPETAG
1070
     1
1071
      140
1005
147D4F
  0
LINE
  5
147D50
  8
OBJECT
 10
1920.0
 20
-877.9999999999995453
 30
0.0
 11
1920.0
 21
-889.9999999999995453
 31
0.0
1001
ACDBBLOCKREPETAG
1070
     1
1071
       37
1005
147D50
  0
LINE
  5
147D51
  8
OBJECT
 10
1920.0
 20
-889.9999999999995453
 30
0.0
 11
2080.0
 21
-889.9999999999995453
 31
0.0
1001
ACDBBLOCKREPETAG
1070
     1
1071
       38
1005
147D51
  0
LINE
  5
147D52
  8
OBJECT
 10
2080.0
 20
-889.9999999999995453
 30
0.0
 11
2080.0
 21
-877.9999999999995453
 31
0.0
1001
ACDBBLOCKREPETAG
1070
     1
1071
       39
1005
147D52
  0
LINE
  5
147D53
  8
OBJECT
 10
2074.9999999998622116
 20
-757.9999999998503881
 30
0.0
 11
2075.0
 21
-877.9999999999995453
 31
0.0
1001
ACDBBLOCKREPETAG
1070
     1
1071
       43
1005
147D53
  0
LINE
  5
147D54
  8
OBJECT
 10
2074.9999908029858489
 20
-757.9999860270213503
 30
0.0
 11
2080.0
 21
-757.9999860270213503
 31
0.0
1001
ACDBBLOCKREPETAG
1070
     1
1071
       44
1005
147D54
  0
LINE
  5
147D55
  8
OBJECT
 10
1925.0000000001380158
 20
-757.9999999998503881
 30
0.0
 11
1925.0
 21
-877.9999999999995453
 31
0.0
1001
ACDBBLOCKREPETAG
1070
     1
1071
       45
1005
147D55
  0
LINE
  5
147D56
  8
OBJECT
 10
1925.0000091970139238
 20
-757.9999860270213503
 30
0.0
 11
1920.0
 21
-757.9999860270213503
 31
0.0
1001
ACDBBLOCKREPETAG
1070
     1
1071
       46
1005
147D56
  0
LINE
  5
147D57
  8
OBJECT
 10
2060.0
 20
-628.9999999999995453
 30
0.0
 11
2000.0
 21
-628.9999999999995453
 31
0.0
1001
ACDBBLOCKREPETAG
1070
     1
1071
       47
1005
147D57
  0
LINE
  5
147D58
  8
OBJECT
 10
2000.0
 20
-628.9999999999995453
 30
0.0
 11
1940.0
 21
-628.9999999999995453
 31
0.0
1001
ACDBBLOCKREPETAG
1070
     1
1071
      139
1005
147D58
  0
ARC
  5
147D59
  8
OBJECT
 10
1940.0
 20
-631.9999999999995453
 30
0.0
 40
3.0
 50
90.0
 51
180.0
1001
ACDBBLOCKREPETAG
1070
     1
1071
       48
1005
147D59
  0
LINE
  5
147D5A
  8
OBJECT
 10
1937.0
 20
-631.9999999999995453
 30
0.0
 11
1937.0
 21
-633.9999999999995453
 31
0.0
1001
ACDBBLOCKREPETAG
1070
     1
1071
       49
1005
147D5A
  0
LINE
  5
147D5B
  8
OBJECT
 10
2063.0
 20
-631.9999999999995453
 30
0.0
 11
2063.0
 21
-633.9999999999995453
 31
0.0
1001
ACDBBLOCKREPETAG
1070
     1
1071
       50
1005
147D5B
  0
ARC
  5
147D5C
  8
OBJECT
 10
2060.0
 20
-631.9999999999995453
 30
0.0
 40
3.0
 50
0.0
 51
90.0
1001
ACDBBLOCKREPETAG
1070
     1
1071
       51
1005
147D5C
  0
ARC
  5
147D5D
  8
OBJECT
 10
2200.6872746716730944
 20
-749.4080994101071838
 30
0.0
 40
170.6350503965855978
 50
137.4413445918430057
 51
149.919495813307492
1001
ACDBBLOCKREPETAG
1070
     1
1071
       52
1005
147D5D
  0
ARC
  5
147D5E
  8
OBJECT
 10
2200.6872746716730944
 20
-642.5919005898917931
 30
0.0
 40
170.6350503965855978
 50
210.080504186692508
 51
222.5586554081569943
1001
ACDBBLOCKREPETAG
1070
     1
1071
       53
1005
147D5E
  0
ARC
  5
147D5F
  8
OBJECT
 10
1799.3127253283269056
 20
-749.4080994101071838
 30
0.0
 40
170.6350503965855978
 50
30.0805041866924903
 51
42.5586554084474713
1001
ACDBBLOCKREPETAG
1070
     1
1071
       54
1005
147D5F
  0
ARC
  5
147D60
  8
OBJECT
 10
1799.3127253283269056
 20
-642.5919005898917931
 30
0.0
 40
170.6350503965855978
 50
317.441344591552479
 51
329.919495813307492
1001
ACDBBLOCKREPETAG
1070
     1
1071
       55
1005
147D60
  0
POINT
  5
147D61
  8
DOTS
 10
2000.0
 20
-754.9999999999995453
 30
0.0
1001
ACDBBLOCKREPETAG
1070
     1
1071
      133
1005
147D61
  0
LINE
  5
147D62
  8
CENTER
 10
5000.0
 20
-3843.9999999999959073
 30
0.0
 11
5000.0
 21
-3999.9999999999959073
 31
0.0
1001
ACDBBLOCKREPETAG
1070
     1
1071
        0
1005
147D62
  0
LINE
  5
147D63
  8
OBJECT
 10
4925.0
 20
-3863.9999999999968168
 30
0.0
 11
4925.0
 21
-3987.9999860270181671
 31
0.0
1001
ACDBBLOCKREPETAG
1070
     1
1071
        1
1005
147D63
  0
LINE
  5
147D64
  8
OBJECT
 10
5080.0
 20
-3863.9999999999968168
 30
0.0
 11
4925.0
 21
-3863.9999999999968168
 31
0.0
1001
ACDBBLOCKREPETAG
1070
     1
1071
        3
1005
147D64
  0
LINE
  5
147D65
  8
OBJECT
 10
5074.9999908029858489
 20
-3987.9999860270181671
 30
0.0
 11
5080.0
 21
-3987.9999860270181671
 31
0.0
1001
ACDBBLOCKREPETAG
1070
     1
1071
        9
1005
147D65
  0
LINE
  5
147D66
  8
OBJECT
 10
5060.0
 20
-3858.9999999999968168
 30
0.0
 11
4940.0
 21
-3858.9999999999968168
 31
0.0
1001
ACDBBLOCKREPETAG
1070
     1
1071
       10
1005
147D66
  0
ARC
  5
147D67
  8
OBJECT
 10
4940.0
 20
-3861.9999999999959073
 30
0.0
 40
3.0
 50
90.0
 51
180.0
1001
ACDBBLOCKREPETAG
1070
     1
1071
       11
1005
147D67
  0
LINE
  5
147D68
  8
OBJECT
 10
4937.0
 20
-3861.9999999999959073
 30
0.0
 11
4937.0
 21
-3863.9999999999968168
 31
0.0
1001
ACDBBLOCKREPETAG
1070
     1
1071
       12
1005
147D68
  0
LINE
  5
147D69
  8
OBJECT
 10
5063.0
 20
-3861.9999999999959073
 30
0.0
 11
5063.0
 21
-3863.9999999999968168
 31
0.0
1001
ACDBBLOCKREPETAG
1070
     1
1071
       13
1005
147D69
  0
ARC
  5
147D6A
  8
OBJECT
 10
5060.0
 20
-3861.9999999999959073
 30
0.0
 40
3.0
 50
0.0
 51
90.0
1001
ACDBBLOCKREPETAG
1070
     1
1071
       14
1005
147D6A
  0
ARC
  5
147D6B
  8
OBJECT
 10
5200.6872746716726397
 20
-3979.4080994101041142
 30
0.0
 40
170.6350503965855978
 50
137.4413445918430057
 51
149.9194958133664954
1001
ACDBBLOCKREPETAG
1070
     1
1071
       15
1005
147D6B
  0
ARC
  5
147D6C
  8
OBJECT
 10
5118.8455987040506443
 20
-3935.8827266953608159
 30
0.0
 40
78.0722220217636647
 50
147.4551531038623011
 51
164.6636599771929923
1001
ACDBBLOCKREPETAG
1070
     1
1071
       16
1005
147D6C
  0
ARC
  5
147D6D
  8
OBJECT
 10
5085.7554349608726625
 20
-3925.9999999999959073
 30
0.0
 40
43.5535392688561771
 50
165.6884523006833092
 51
194.3115476993166055
1001
ACDBBLOCKREPETAG
1070
     1
1071
       17
1005
147D6D
  0
ARC
  5
147D6E
  8
OBJECT
 10
5200.6872746716726397
 20
-3872.5919005898890646
 30
0.0
 40
170.6350503965855978
 50
210.0805041866335046
 51
222.5586554081569943
1001
ACDBBLOCKREPETAG
1070
     1
1071
       18
1005
147D6E
  0
ARC
  5
147D6F
  8
OBJECT
 10
5118.8455987040506443
 20
-3916.1172733046319081
 30
0.0
 40
78.0722220217636647
 50
195.3363400228070077
 51
212.5448468961376989
1001
ACDBBLOCKREPETAG
1070
     1
1071
       19
1005
147D6F
  0
POINT
  5
147D70
  8
DOTS
 10
5000.0
 20
-3984.9999999999968168
 30
0.0
1001
ACDBBLOCKREPETAG
1070
     1
1071
      135
1005
147D70
  0
POINT
  5
147D71
  8
DOTS
 10
5000.0
 20
-3579.9999999999959073
 30
0.0
 50
270.0
1001
ACDBBLOCKREPETAG
1070
     1
1071
      362
1005
147D71
  0
LINE
  5
147D72
  8
CENTER
 10
5080.0
 20
-3579.9999999999959073
 30
0.0
 11
4905.0
 21
-3579.9999999999959073
 31
0.0
1001
ACDBBLOCKREPETAG
1070
     1
1071
       14
1005
147D72
  0
LINE
  5
147D73
  8
CENTER
 10
5000.0
 20
-3674.9999999999959073
 30
0.0
 11
5000.0
 21
-3484.9999999999959073
 31
0.0
1001
ACDBBLOCKREPETAG
1070
     1
1071
       15
1005
147D73
  0
ARC
  5
147D74
  8
OBJECT
 10
5000.0
 20
-3579.9999999999959073
 30
0.0
 40
80.0
 50
50.805032573882329
 51
309.1949674261177279
1001
ACDBBLOCKREPETAG
1070
     1
1071
       18
1005
147D74
  0
LINE
  5
147D75
  8
OBJECT
 10
5042.2018956920182973
 20
-3517.9999999999959073
 30
0.0
 11
5080.0
 21
-3517.9999999999959073
 31
0.0
1001
ACDBBLOCKREPETAG
1070
     1
1071
       19
1005
147D75
  0
LINE
  5
147D76
  8
OBJECT
 10
5042.2018956920182973
 20
-3641.9999999999959073
 30
0.0
 11
5080.0
 21
-3641.9999999999959073
 31
0.0
1001
ACDBBLOCKREPETAG
1070
     1
1071
       20
1005
147D76
  0
CIRCLE
  5
147D77
  8
OBJECT
 10
5000.0
 20
-3579.9999999999959073
 30
0.0
 40
63.0
1001
ACDBBLOCKREPETAG
1070
     1
1071
      436
1005
147D77
  0
CIRCLE
  5
147D78
  8
OBJECT
 10
5000.0
 20
-3579.9999999999959073
 30
0.0
 40
75.0
1001
ACDBBLOCKREPETAG
1070
     1
1071
      437
1005
147D78
  0
LINE
  5
147D79
  8
CENTER
 10
4400.0
 20
-3843.9999999999959073
 30
0.0
 11
4400.0
 21
-3999.9999999999959073
 31
0.0
1001
ACDBBLOCKREPETAG
1070
     1
1071
       20
1005
147D79
  0
LINE
  5
147D7A
  8
OBJECT
 10
4325.0
 20
-3863.9999999999968168
 30
0.0
 11
4325.0
 21
-3987.9999999999968168
 31
0.0
1001
ACDBBLOCKREPETAG
1070
     1
1071
       21
1005
147D7A
  0
LINE
  5
147D7B
  8
OBJECT
 10
4474.9999999997116902
 20
-3863.9999999999968168
 30
0.0
 11
4325.0
 21
-3863.9999999999968168
 31
0.0
1001
ACDBBLOCKREPETAG
1070
     1
1071
       23
1005
147D7B
  0
LINE
  5
147D7C
  8
OBJECT
 10
4474.9999999997116902
 20
-3863.9999999999968168
 30
0.0
 11
4474.9999999998590283
 21
-3987.9999999999968168
 31
0.0
1001
ACDBBLOCKREPETAG
1070
     1
1071
       28
1005
147D7C
  0
LINE
  5
147D7D
  8
OBJECT
 10
4460.0
 20
-3858.9999999999968168
 30
0.0
 11
4340.0
 21
-3858.9999999999968168
 31
0.0
1001
ACDBBLOCKREPETAG
1070
     1
1071
       29
1005
147D7D
  0
ARC
  5
147D7E
  8
OBJECT
 10
4340.0
 20
-3861.9999999999959073
 30
0.0
 40
3.0
 50
90.0
 51
180.0
1001
ACDBBLOCKREPETAG
1070
     1
1071
       30
1005
147D7E
  0
LINE
  5
147D7F
  8
OBJECT
 10
4337.0
 20
-3861.9999999999959073
 30
0.0
 11
4337.0
 21
-3863.9999999999968168
 31
0.0
1001
ACDBBLOCKREPETAG
1070
     1
1071
       31
1005
147D7F
  0
LINE
  5
147D80
  8
OBJECT
 10
4463.0
 20
-3861.9999999999959073
 30
0.0
 11
4463.0
 21
-3863.9999999999968168
 31
0.0
1001
ACDBBLOCKREPETAG
1070
     1
1071
       32
1005
147D80
  0
ARC
  5
147D81
  8
OBJECT
 10
4460.0
 20
-3861.9999999999959073
 30
0.0
 40
3.0
 50
0.0
 51
90.0
1001
ACDBBLOCKREPETAG
1070
     1
1071
       33
1005
147D81
  0
POINT
  5
147D82
  8
DOTS
 10
4400.0
 20
-3984.9999999999968168
 30
0.0
1001
ACDBBLOCKREPETAG
1070
     1
1071
      136
1005
147D82
  0
LINE
  5
147D83
  8
CENTER
 10
4000.0
 20
-3843.9999999999959073
 30
0.0
 11
4000.0
 21
-3999.9999999999959073
 31
0.0
1001
ACDBBLOCKREPETAG
1070
     1
1071
        0
1005
147D83
  0
LINE
  5
147D84
  8
OBJECT
 10
3925.0
 20
-3863.9999999999968168
 30
0.0
 11
3925.0
 21
-3987.9999860270181671
 31
0.0
1001
ACDBBLOCKREPETAG
1070
     1
1071
        1
1005
147D84
  0
LINE
  5
147D85
  8
OBJECT
 10
4080.0
 20
-3863.9999999999968168
 30
0.0
 11
3925.0
 21
-3863.9999999999968168
 31
0.0
1001
ACDBBLOCKREPETAG
1070
     1
1071
        3
1005
147D85
  0
LINE
  5
147D86
  8
OBJECT
 10
4074.9999908029849394
 20
-3987.9999860270181671
 30
0.0
 11
4080.0
 21
-3987.9999860270181671
 31
0.0
1001
ACDBBLOCKREPETAG
1070
     1
1071
        9
1005
147D86
  0
LINE
  5
147D87
  8
OBJECT
 10
4060.0
 20
-3858.9999999999968168
 30
0.0
 11
3940.0
 21
-3858.9999999999968168
 31
0.0
1001
ACDBBLOCKREPETAG
1070
     1
1071
       10
1005
147D87
  0
ARC
  5
147D88
  8
OBJECT
 10
3940.0
 20
-3861.9999999999959073
 30
0.0
 40
3.0
 50
90.0
 51
180.0
1001
ACDBBLOCKREPETAG
1070
     1
1071
       11
1005
147D88
  0
LINE
  5
147D89
  8
OBJECT
 10
3937.0
 20
-3861.9999999999959073
 30
0.0
 11
3937.0
 21
-3863.9999999999968168
 31
0.0
1001
ACDBBLOCKREPETAG
1070
     1
1071
       12
1005
147D89
  0
LINE
  5
147D8A
  8
OBJECT
 10
4063.0
 20
-3861.9999999999959073
 30
0.0
 11
4063.0
 21
-3863.9999999999968168
 31
0.0
1001
ACDBBLOCKREPETAG
1070
     1
1071
       13
1005
147D8A
  0
ARC
  5
147D8B
  8
OBJECT
 10
4060.0
 20
-3861.9999999999959073
 30
0.0
 40
3.0
 50
0.0
 51
90.0
1001
ACDBBLOCKREPETAG
1070
     1
1071
       14
1005
147D8B
  0
ARC
  5
147D8C
  8
OBJECT
 10
4200.6872746716726397
 20
-3979.4080994101041142
 30
0.0
 40
170.6350503965855978
 50
137.4413445918430057
 51
149.9194958133664954
1001
ACDBBLOCKREPETAG
1070
     1
1071
       15
1005
147D8C
  0
ARC
  5
147D8D
  8
OBJECT
 10
4118.8455987040506443
 20
-3935.8827266953608159
 30
0.0
 40
78.0722220217636647
 50
147.4551531038623011
 51
164.6636599771860858
1001
ACDBBLOCKREPETAG
1070
     1
1071
       16
1005
147D8D
  0
ARC
  5
147D8E
  8
OBJECT
 10
4085.7554349608722077
 20
-3925.9999999999959073
 30
0.0
 40
43.5535392688561771
 50
165.6884523006897894
 51
194.311547699310097
1001
ACDBBLOCKREPETAG
1070
     1
1071
       17
1005
147D8E
  0
ARC
  5
147D8F
  8
OBJECT
 10
4200.6872746716726397
 20
-3872.5919005898890646
 30
0.0
 40
170.6350503965855978
 50
210.0805041866335046
 51
222.5586554081569943
1001
ACDBBLOCKREPETAG
1070
     1
1071
       18
1005
147D8F
  0
ARC
  5
147D90
  8
OBJECT
 10
4118.8455987040506443
 20
-3916.1172733046319081
 30
0.0
 40
78.0722220217636647
 50
195.3363400228139142
 51
212.5448468961376989
1001
ACDBBLOCKREPETAG
1070
     1
1071
       19
1005
147D90
  0
POINT
  5
147D91
  8
DOTS
 10
4000.0
 20
-3984.9999999999968168
 30
0.0
1001
ACDBBLOCKREPETAG
1070
     1
1071
      135
1005
147D91
  0
POINT
  5
147D92
  8
DOTS
 10
4000.0
 20
-3579.9999999999959073
 30
0.0
 50
270.0
1001
ACDBBLOCKREPETAG
1070
     1
1071
      362
1005
147D92
  0
LINE
  5
147D93
  8
CENTER
 10
4080.0
 20
-3579.9999999999959073
 30
0.0
 11
3905.0
 21
-3579.9999999999959073
 31
0.0
1001
ACDBBLOCKREPETAG
1070
     1
1071
       14
1005
147D93
  0
LINE
  5
147D94
  8
CENTER
 10
4000.0
 20
-3674.9999999999959073
 30
0.0
 11
4000.0
 21
-3484.9999999999959073
 31
0.0
1001
ACDBBLOCKREPETAG
1070
     1
1071
       15
1005
147D94
  0
ARC
  5
147D95
  8
OBJECT
 10
4000.0
 20
-3579.9999999999959073
 30
0.0
 40
80.0
 50
50.8050325738621282
 51
309.1949674261379073
1001
ACDBBLOCKREPETAG
1070
     1
1071
       18
1005
147D95
  0
LINE
  5
147D96
  8
OBJECT
 10
4042.2018956920178425
 20
-3517.9999999999959073
 30
0.0
 11
4080.0
 21
-3517.9999999999959073
 31
0.0
1001
ACDBBLOCKREPETAG
1070
     1
1071
       19
1005
147D96
  0
LINE
  5
147D97
  8
OBJECT
 10
4042.2018956920178425
 20
-3641.9999999999959073
 30
0.0
 11
4080.0
 21
-3641.9999999999959073
 31
0.0
1001
ACDBBLOCKREPETAG
1070
     1
1071
       20
1005
147D97
  0
CIRCLE
  5
147D98
  8
OBJECT
 10
4000.0
 20
-3579.9999999999959073
 30
0.0
 40
63.0
1001
ACDBBLOCKREPETAG
1070
     1
1071
      436
1005
147D98
  0
CIRCLE
  5
147D99
  8
OBJECT
 10
4000.0
 20
-3579.9999999999959073
 30
0.0
 40
75.0
1001
ACDBBLOCKREPETAG
1070
     1
1071
      437
1005
147D99
  0
LINE
  5
147D9A
  8
CENTER
 10
3400.0
 20
-3843.9999999999959073
 30
0.0
 11
3400.0
 21
-3999.9999999999959073
 31
0.0
1001
ACDBBLOCKREPETAG
1070
     1
1071
       20
1005
147D9A
  0
LINE
  5
147D9B
  8
OBJECT
 10
3325.0
 20
-3863.9999999999968168
 30
0.0
 11
3325.0
 21
-3987.9999999999968168
 31
0.0
1001
ACDBBLOCKREPETAG
1070
     1
1071
       21
1005
147D9B
  0
LINE
  5
147D9C
  8
OBJECT
 10
3474.9999999997130544
 20
-3863.9999999999968168
 30
0.0
 11
3325.0
 21
-3863.9999999999968168
 31
0.0
1001
ACDBBLOCKREPETAG
1070
     1
1071
       23
1005
147D9C
  0
LINE
  5
147D9D
  8
OBJECT
 10
3474.9999999997130544
 20
-3863.9999999999968168
 30
0.0
 11
3474.9999999998590283
 21
-3987.9999999999968168
 31
0.0
1001
ACDBBLOCKREPETAG
1070
     1
1071
       28
1005
147D9D
  0
LINE
  5
147D9E
  8
OBJECT
 10
3460.0
 20
-3858.9999999999968168
 30
0.0
 11
3340.0
 21
-3858.9999999999968168
 31
0.0
1001
ACDBBLOCKREPETAG
1070
     1
1071
       29
1005
147D9E
  0
ARC
  5
147D9F
  8
OBJECT
 10
3340.0
 20
-3861.9999999999959073
 30
0.0
 40
3.0
 50
90.0
 51
180.0
1001
ACDBBLOCKREPETAG
1070
     1
1071
       30
1005
147D9F
  0
LINE
  5
147DA0
  8
OBJECT
 10
3337.0
 20
-3861.9999999999959073
 30
0.0
 11
3337.0
 21
-3863.9999999999968168
 31
0.0
1001
ACDBBLOCKREPETAG
1070
     1
1071
       31
1005
147DA0
  0
LINE
  5
147DA1
  8
OBJECT
 10
3463.0
 20
-3861.9999999999959073
 30
0.0
 11
3463.0
 21
-3863.9999999999968168
 31
0.0
1001
ACDBBLOCKREPETAG
1070
     1
1071
       32
1005
147DA1
  0
ARC
  5
147DA2
  8
OBJECT
 10
3460.0
 20
-3861.9999999999959073
 30
0.0
 40
3.0
 50
0.0
 51
90.0
1001
ACDBBLOCKREPETAG
1070
     1
1071
       33
1005
147DA2
  0
POINT
  5
147DA3
  8
DOTS
 10
3400.0
 20
-3984.9999999999968168
 30
0.0
1001
ACDBBLOCKREPETAG
1070
     1
1071
      136
1005
147DA3
  0
LINE
  5
147DA4
  8
CENTER
 10
3000.0
 20
-3843.9999999999959073
 30
0.0
 11
3000.0
 21
-3999.9999999999959073
 31
0.0
1001
ACDBBLOCKREPETAG
1070
     1
1071
        0
1005
147DA4
  0
LINE
  5
147DA5
  8
OBJECT
 10
2925.0
 20
-3863.9999999999968168
 30
0.0
 11
2925.0
 21
-3987.9999860270181671
 31
0.0
1001
ACDBBLOCKREPETAG
1070
     1
1071
        1
1005
147DA5
  0
LINE
  5
147DA6
  8
OBJECT
 10
3080.0
 20
-3863.9999999999968168
 30
0.0
 11
2925.0
 21
-3863.9999999999968168
 31
0.0
1001
ACDBBLOCKREPETAG
1070
     1
1071
        3
1005
147DA6
  0
LINE
  5
147DA7
  8
OBJECT
 10
3074.9999908029858489
 20
-3987.9999860270181671
 30
0.0
 11
3080.0
 21
-3987.9999860270181671
 31
0.0
1001
ACDBBLOCKREPETAG
1070
     1
1071
        9
1005
147DA7
  0
LINE
  5
147DA8
  8
OBJECT
 10
3060.0
 20
-3858.9999999999968168
 30
0.0
 11
2940.0
 21
-3858.9999999999968168
 31
0.0
1001
ACDBBLOCKREPETAG
1070
     1
1071
       10
1005
147DA8
  0
ARC
  5
147DA9
  8
OBJECT
 10
2940.0
 20
-3861.9999999999959073
 30
0.0
 40
3.0
 50
90.0
 51
180.0
1001
ACDBBLOCKREPETAG
1070
     1
1071
       11
1005
147DA9
  0
LINE
  5
147DAA
  8
OBJECT
 10
2937.0
 20
-3861.9999999999959073
 30
0.0
 11
2937.0
 21
-3863.9999999999968168
 31
0.0
1001
ACDBBLOCKREPETAG
1070
     1
1071
       12
1005
147DAA
  0
LINE
  5
147DAB
  8
OBJECT
 10
3063.0
 20
-3861.9999999999959073
 30
0.0
 11
3063.0
 21
-3863.9999999999968168
 31
0.0
1001
ACDBBLOCKREPETAG
1070
     1
1071
       13
1005
147DAB
  0
ARC
  5
147DAC
  8
OBJECT
 10
3060.0
 20
-3861.9999999999959073
 30
0.0
 40
3.0
 50
0.0
 51
90.0
1001
ACDBBLOCKREPETAG
1070
     1
1071
       14
1005
147DAC
  0
ARC
  5
147DAD
  8
OBJECT
 10
3200.6872746716721849
 20
-3979.4080994101041142
 30
0.0
 40
170.6350503965855978
 50
137.4413445918430057
 51
149.9194958133664954
1001
ACDBBLOCKREPETAG
1070
     1
1071
       15
1005
147DAD
  0
ARC
  5
147DAE
  8
OBJECT
 10
3118.845598704051099
 20
-3935.8827266953608159
 30
0.0
 40
78.0722220217636647
 50
147.4551531038623011
 51
164.6636599771860858
1001
ACDBBLOCKREPETAG
1070
     1
1071
       16
1005
147DAE
  0
ARC
  5
147DAF
  8
OBJECT
 10
3085.7554349608731172
 20
-3925.9999999999959073
 30
0.0
 40
43.5535392688561771
 50
165.6884523006897894
 51
194.311547699310097
1001
ACDBBLOCKREPETAG
1070
     1
1071
       17
1005
147DAF
  0
ARC
  5
147DB0
  8
OBJECT
 10
3200.6872746716721849
 20
-3872.5919005898890646
 30
0.0
 40
170.6350503965855978
 50
210.0805041866335046
 51
222.5586554081569943
1001
ACDBBLOCKREPETAG
1070
     1
1071
       18
1005
147DB0
  0
ARC
  5
147DB1
  8
OBJECT
 10
3118.845598704051099
 20
-3916.1172733046319081
 30
0.0
 40
78.0722220217636647
 50
195.3363400228139142
 51
212.5448468961376989
1001
ACDBBLOCKREPETAG
1070
     1
1071
       19
1005
147DB1
  0
POINT
  5
147DB2
  8
DOTS
 10
3000.0
 20
-3984.9999999999968168
 30
0.0
1001
ACDBBLOCKREPETAG
1070
     1
1071
      135
1005
147DB2
  0
POINT
  5
147DB3
  8
DOTS
 10
3000.0
 20
-3579.9999999999959073
 30
0.0
 50
270.0
1001
ACDBBLOCKREPETAG
1070
     1
1071
      362
1005
147DB3
  0
LINE
  5
147DB4
  8
CENTER
 10
3080.0
 20
-3579.9999999999959073
 30
0.0
 11
2905.0
 21
-3579.9999999999959073
 31
0.0
1001
ACDBBLOCKREPETAG
1070
     1
1071
       14
1005
147DB4
  0
LINE
  5
147DB5
  8
CENTER
 10
3000.0
 20
-3674.9999999999959073
 30
0.0
 11
3000.0
 21
-3484.9999999999959073
 31
0.0
1001
ACDBBLOCKREPETAG
1070
     1
1071
       15
1005
147DB5
  0
ARC
  5
147DB6
  8
OBJECT
 10
3000.0
 20
-3579.9999999999959073
 30
0.0
 40
80.0
 50
50.8050325738621282
 51
309.1949674261379073
1001
ACDBBLOCKREPETAG
1070
     1
1071
       18
1005
147DB6
  0
LINE
  5
147DB7
  8
OBJECT
 10
3042.2018956920192068
 20
-3517.9999999999959073
 30
0.0
 11
3080.0
 21
-3517.9999999999959073
 31
0.0
1001
ACDBBLOCKREPETAG
1070
     1
1071
       19
1005
147DB7
  0
LINE
  5
147DB8
  8
OBJECT
 10
3042.2018956920192068
 20
-3641.9999999999959073
 30
0.0
 11
3080.0
 21
-3641.9999999999959073
 31
0.0
1001
ACDBBLOCKREPETAG
1070
     1
1071
       20
1005
147DB8
  0
CIRCLE
  5
147DB9
  8
OBJECT
 10
3000.0
 20
-3579.9999999999959073
 30
0.0
 40
63.0
1001
ACDBBLOCKREPETAG
1070
     1
1071
      436
1005
147DB9
  0
CIRCLE
  5
147DBA
  8
OBJECT
 10
3000.0
 20
-3579.9999999999959073
 30
0.0
 40
75.0
1001
ACDBBLOCKREPETAG
1070
     1
1071
      437
1005
147DBA
  0
LINE
  5
147DBB
  8
CENTER
 10
2400.0
 20
-3843.9999999999959073
 30
0.0
 11
2400.0
 21
-3999.9999999999959073
 31
0.0
1001
ACDBBLOCKREPETAG
1070
     1
1071
       20
1005
147DBB
  0
LINE
  5
147DBC
  8
OBJECT
 10
2325.0
 20
-3863.9999999999968168
 30
0.0
 11
2325.0
 21
-3987.9999999999968168
 31
0.0
1001
ACDBBLOCKREPETAG
1070
     1
1071
       21
1005
147DBC
  0
LINE
  5
147DBD
  8
OBJECT
 10
2474.9999999997130544
 20
-3863.9999999999968168
 30
0.0
 11
2325.0
 21
-3863.9999999999968168
 31
0.0
1001
ACDBBLOCKREPETAG
1070
     1
1071
       23
1005
147DBD
  0
LINE
  5
147DBE
  8
OBJECT
 10
2474.9999999997130544
 20
-3863.9999999999968168
 30
0.0
 11
2474.9999999998590283
 21
-3987.9999999999968168
 31
0.0
1001
ACDBBLOCKREPETAG
1070
     1
1071
       28
1005
147DBE
  0
LINE
  5
147DBF
  8
OBJECT
 10
2460.0
 20
-3858.9999999999968168
 30
0.0
 11
2340.0
 21
-3858.9999999999968168
 31
0.0
1001
ACDBBLOCKREPETAG
1070
     1
1071
       29
1005
147DBF
  0
ARC
  5
147DC0
  8
OBJECT
 10
2340.0
 20
-3861.9999999999959073
 30
0.0
 40
3.0
 50
90.0
 51
180.0
1001
ACDBBLOCKREPETAG
1070
     1
1071
       30
1005
147DC0
  0
LINE
  5
147DC1
  8
OBJECT
 10
2337.0
 20
-3861.9999999999959073
 30
0.0
 11
2337.0
 21
-3863.9999999999968168
 31
0.0
1001
ACDBBLOCKREPETAG
1070
     1
1071
       31
1005
147DC1
  0
LINE
  5
147DC2
  8
OBJECT
 10
2463.0
 20
-3861.9999999999959073
 30
0.0
 11
2463.0
 21
-3863.9999999999968168
 31
0.0
1001
ACDBBLOCKREPETAG
1070
     1
1071
       32
1005
147DC2
  0
ARC
  5
147DC3
  8
OBJECT
 10
2460.0
 20
-3861.9999999999959073
 30
0.0
 40
3.0
 50
0.0
 51
90.0
1001
ACDBBLOCKREPETAG
1070
     1
1071
       33
1005
147DC3
  0
POINT
  5
147DC4
  8
DOTS
 10
2400.0
 20
-3984.9999999999968168
 30
0.0
1001
ACDBBLOCKREPETAG
1070
     1
1071
      136
1005
147DC4
  0
LINE
  5
147DC5
  8
CENTER
 10
2000.0
 20
-3843.9999999999959073
 30
0.0
 11
2000.0
 21
-3999.9999999999959073
 31
0.0
1001
ACDBBLOCKREPETAG
1070
     1
1071
        0
1005
147DC5
  0
LINE
  5
147DC6
  8
OBJECT
 10
1925.0
 20
-3863.9999999999968168
 30
0.0
 11
1925.0
 21
-3987.9999860270181671
 31
0.0
1001
ACDBBLOCKREPETAG
1070
     1
1071
        1
1005
147DC6
  0
LINE
  5
147DC7
  8
OBJECT
 10
2080.0
 20
-3863.9999999999968168
 30
0.0
 11
1925.0
 21
-3863.9999999999968168
 31
0.0
1001
ACDBBLOCKREPETAG
1070
     1
1071
        3
1005
147DC7
  0
LINE
  5
147DC8
  8
OBJECT
 10
2074.9999908029858489
 20
-3987.9999860270181671
 30
0.0
 11
2080.0
 21
-3987.9999860270181671
 31
0.0
1001
ACDBBLOCKREPETAG
1070
     1
1071
        9
1005
147DC8
  0
LINE
  5
147DC9
  8
OBJECT
 10
2060.0
 20
-3858.9999999999968168
 30
0.0
 11
1940.0
 21
-3858.9999999999968168
 31
0.0
1001
ACDBBLOCKREPETAG
1070
     1
1071
       10
1005
147DC9
  0
ARC
  5
147DCA
  8
OBJECT
 10
1940.0
 20
-3861.9999999999959073
 30
0.0
 40
3.0
 50
90.0
 51
180.0
1001
ACDBBLOCKREPETAG
1070
     1
1071
       11
1005
147DCA
  0
LINE
  5
147DCB
  8
OBJECT
 10
1937.0
 20
-3861.9999999999959073
 30
0.0
 11
1937.0
 21
-3863.9999999999968168
 31
0.0
1001
ACDBBLOCKREPETAG
1070
     1
1071
       12
1005
147DCB
  0
LINE
  5
147DCC
  8
OBJECT
 10
2063.0
 20
-3861.9999999999959073
 30
0.0
 11
2063.0
 21
-3863.9999999999968168
 31
0.0
1001
ACDBBLOCKREPETAG
1070
     1
1071
       13
1005
147DCC
  0
ARC
  5
147DCD
  8
OBJECT
 10
2060.0
 20
-3861.9999999999959073
 30
0.0
 40
3.0
 50
0.0
 51
90.0
1001
ACDBBLOCKREPETAG
1070
     1
1071
       14
1005
147DCD
  0
ARC
  5
147DCE
  8
OBJECT
 10
2200.6872746716730944
 20
-3979.4080994101041142
 30
0.0
 40
170.6350503965855978
 50
137.4413445918430057
 51
149.9194958133599869
1001
ACDBBLOCKREPETAG
1070
     1
1071
       15
1005
147DCE
  0
ARC
  5
147DCF
  8
OBJECT
 10
2118.845598704051099
 20
-3935.8827266953608159
 30
0.0
 40
78.0722220217636647
 50
147.4551531038623011
 51
164.6636599771894964
1001
ACDBBLOCKREPETAG
1070
     1
1071
       16
1005
147DCF
  0
ARC
  5
147DD0
  8
OBJECT
 10
2085.7554349608731172
 20
-3925.9999999999959073
 30
0.0
 40
43.5535392688561771
 50
165.6884523006866061
 51
194.3115476993133939
1001
ACDBBLOCKREPETAG
1070
     1
1071
       17
1005
147DD0
  0
ARC
  5
147DD1
  8
OBJECT
 10
2200.6872746716730944
 20
-3872.5919005898890646
 30
0.0
 40
170.6350503965855978
 50
210.0805041866400131
 51
222.5586554081569943
1001
ACDBBLOCKREPETAG
1070
     1
1071
       18
1005
147DD1
  0
ARC
  5
147DD2
  8
OBJECT
 10
2118.845598704051099
 20
-3916.1172733046319081
 30
0.0
 40
78.0722220217636647
 50
195.3363400228105036
 51
212.5448468961376989
1001
ACDBBLOCKREPETAG
1070
     1
1071
       19
1005
147DD2
  0
POINT
  5
147DD3
  8
DOTS
 10
2000.0
 20
-3984.9999999999968168
 30
0.0
1001
ACDBBLOCKREPETAG
1070
     1
1071
      135
1005
147DD3
  0
POINT
  5
147DD4
  8
DOTS
 10
2000.0
 20
-3579.9999999999959073
 30
0.0
 50
270.0
1001
ACDBBLOCKREPETAG
1070
     1
1071
      362
1005
147DD4
  0
LINE
  5
147DD5
  8
CENTER
 10
2080.0
 20
-3579.9999999999959073
 30
0.0
 11
1905.0
 21
-3579.9999999999959073
 31
0.0
1001
ACDBBLOCKREPETAG
1070
     1
1071
       14
1005
147DD5
  0
LINE
  5
147DD6
  8
CENTER
 10
2000.0
 20
-3674.9999999999959073
 30
0.0
 11
2000.0
 21
-3484.9999999999959073
 31
0.0
1001
ACDBBLOCKREPETAG
1070
     1
1071
       15
1005
147DD6
  0
ARC
  5
147DD7
  8
OBJECT
 10
2000.0
 20
-3579.9999999999959073
 30
0.0
 40
80.0
 50
50.8050325738621282
 51
309.1949674261379073
1001
ACDBBLOCKREPETAG
1070
     1
1071
       18
1005
147DD7
  0
LINE
  5
147DD8
  8
OBJECT
 10
2042.2018956920180699
 20
-3517.9999999999959073
 30
0.0
 11
2080.0
 21
-3517.9999999999959073
 31
0.0
1001
ACDBBLOCKREPETAG
1070
     1
1071
       19
1005
147DD8
  0
LINE
  5
147DD9
  8
OBJECT
 10
2042.2018956920180699
 20
-3641.9999999999959073
 30
0.0
 11
2080.0
 21
-3641.9999999999959073
 31
0.0
1001
ACDBBLOCKREPETAG
1070
     1
1071
       20
1005
147DD9
  0
CIRCLE
  5
147DDA
  8
OBJECT
 10
2000.0
 20
-3579.9999999999959073
 30
0.0
 40
63.0
1001
ACDBBLOCKREPETAG
1070
     1
1071
      436
1005
147DDA
  0
CIRCLE
  5
147DDB
  8
OBJECT
 10
2000.0
 20
-3579.9999999999959073
 30
0.0
 40
75.0
1001
ACDBBLOCKREPETAG
1070
     1
1071
      437
1005
147DDB
  0
TEXT
  5
147DDC
  8
SLIM
 10
491.9999999998179874
 20
-907.9999999996909992
 30
0.0
 40
48.0
  1
C44
 41
0.75
1001
ACDBBLOCKREPETAG
1070
     1
1071
      119
1005
0
  0
TEXT
  5
147DDD
  8
SLIM
 10
132.8571428570828061
 20
-907.9999999996909992
 30
0.0
 40
48.0
  1
C43
 41
0.75
1001
ACDBBLOCKREPETAG
1070
     1
1071
      119
1005
0
  0
TEXT
  5
147DDE
  8
SLIM
 10
492.857142856960877
 20
-443.9999999998491944
 30
0.0
 40
48.0
  1
C42
 41
0.75
1001
ACDBBLOCKREPETAG
1070
     1
1071
      119
1005
0
  0
TEXT
  5
147DDF
  8
SLIM
 10
140.5714285713685001
 20
-443.9999999998491944
 30
0.0
 40
48.0
  1
C41
 41
0.75
1001
ACDBBLOCKREPETAG
1070
     1
1071
      119
1005
0
  0
POLYLINE
  5
147DE0
  8
HIDDEN
 66
     1
 10
0.0
 20
0.0
 30
0.0
 70
     1
1001
ACDBBLOCKREPETAG
1070
     1
1071
      105
1005
0
  0
VERTEX
  5
14816C
  8
HIDDEN
 10
359.9999999998781277
 20
0.0
 30
0.0
  0
VERTEX
  5
14816D
  8
HIDDEN
 10
719.9999999997562554
 20
0.0
 30
0.0
  0
VERTEX
  5
14816E
  8
HIDDEN
 10
719.9999999997562554
 20
-463.9999999998416911
 30
0.0
  0
VERTEX
  5
14816F
  8
HIDDEN
 10
359.9999999998781277
 20
-463.9999999998416911
 30
0.0
  0
SEQEND
  5
148170
  8
HIDDEN
  0
POLYLINE
  5
147DE1
  8
HIDDEN
 66
     1
 10
0.0
 20
0.0
 30
0.0
 70
     1
1001
ACDBBLOCKREPETAG
1070
     1
1071
      110
1005
0
  0
VERTEX
  5
148171
  8
HIDDEN
 10
0.0
 20
0.0
 30
0.0
  0
VERTEX
  5
148172
  8
HIDDEN
 10
359.9999999998781277
 20
0.0
 30
0.0
  0
VERTEX
  5
148173
  8
HIDDEN
 10
359.9999999998781277
 20
-463.9999999998416911
 30
0.0
  0
VERTEX
  5
148174
  8
HIDDEN
 10
0.0
 20
-463.9999999998416911
 30
0.0
  0
SEQEND
  5
148175
  8
HIDDEN
  0
POLYLINE
  5
147DE2
  8
HIDDEN
 66
     1
 10
0.0
 20
0.0
 30
0.0
 70
     1
1001
ACDBBLOCKREPETAG
1070
     1
1071
      120
1005
0
  0
VERTEX
  5
148176
  8
HIDDEN
 10
359.9999999998781277
 20
-463.9999999998416911
 30
0.0
  0
VERTEX
  5
148177
  8
HIDDEN
 10
719.9999999997562554
 20
-463.9999999998416911
 30
0.0
  0
VERTEX
  5
148178
  8
HIDDEN
 10
719.9999999997562554
 20
-927.9999999996834958
 30
0.0
  0
VERTEX
  5
148179
  8
HIDDEN
 10
359.9999999998781277
 20
-927.9999999996834958
 30
0.0
  0
SEQEND
  5
14817A
  8
HIDDEN
  0
POLYLINE
  5
147DE3
  8
HIDDEN
 66
     1
 10
0.0
 20
0.0
 30
0.0
 70
     1
1001
ACDBBLOCKREPETAG
1070
     1
1071
      125
1005
0
  0
VERTEX
  5
14817B
  8
HIDDEN
 10
0.0
 20
-463.9999999998416911
 30
0.0
  0
VERTEX
  5
14817C
  8
HIDDEN
 10
359.9999999998781277
 20
-463.9999999998416911
 30
0.0
  0
VERTEX
  5
14817D
  8
HIDDEN
 10
359.9999999998781277
 20
-927.9999999996834958
 30
0.0
  0
VERTEX
  5
14817E
  8
HIDDEN
 10
0.0
 20
-927.9999999996834958
 30
0.0
  0
SEQEND
  5
14817F
  8
HIDDEN
  0
POINT
  5
147DE4
  8
DOTS
 10
2000.0
 20
-199.9999999999990905
 30
0.0
 50
270.0
1001
ACDBBLOCKREPETAG
1070
     1
1071
      153
1005
147DE4
  0
LINE
  5
147DE5
  8
CENTER
 10
2080.0
 20
-199.9999999999990905
 30
0.0
 11
1920.0
 21
-199.9999999999990905
 31
0.0
1001
ACDBBLOCKREPETAG
1070
     1
1071
       49
1005
147DE5
  0
LINE
  5
147DE6
  8
CENTER
 10
2000.0
 20
-279.9999999999990905
 30
0.0
 11
2000.0
 21
-104.9999999999991047
 31
0.0
1001
ACDBBLOCKREPETAG
1070
     1
1071
       50
1005
147DE6
  0
CIRCLE
  5
147DE7
  8
OBJECT
 10
2000.0
 20
-199.9999999999990905
 30
0.0
 40
63.0
1001
ACDBBLOCKREPETAG
1070
     1
1071
       51
1005
147DE7
  0
CIRCLE
  5
147DE8
  8
OBJECT
 10
2000.0
 20
-199.9999999999990905
 30
0.0
 40
75.0
1001
ACDBBLOCKREPETAG
1070
     1
1071
       52
1005
147DE8
  0
ARC
  5
147DE9
  8
OBJECT
 10
2000.0
 20
-199.9999999999990905
 30
0.0
 40
80.0
 50
50.8050325738641888
 51
129.1949674261358041
1001
ACDBBLOCKREPETAG
1070
     1
1071
       53
1005
147DE9
  0
LINE
  5
147DEA
  8
OBJECT
 10
2042.2018956920180699
 20
-137.9999999999990905
 30
0.0
 11
2080.0
 21
-137.9999999999990905
 31
0.0
1001
ACDBBLOCKREPETAG
1070
     1
1071
       54
1005
147DEA
  0
LINE
  5
147DEB
  8
OBJECT
 10
2062.0
 20
-261.9999999999990905
 30
0.0
 11
2080.0
 21
-261.9999999999990905
 31
0.0
1001
ACDBBLOCKREPETAG
1070
     1
1071
       55
1005
147DEB
  0
LINE
  5
147DEC
  8
OBJECT
 10
2062.0
 20
-261.9999999999990905
 30
0.0
 11
2062.0
 21
-279.9999999999990905
 31
0.0
1001
ACDBBLOCKREPETAG
1070
     1
1071
       57
1005
147DEC
  0
LINE
  5
147DED
  8
OBJECT
 10
1938.0
 20
-261.9999999999990905
 30
0.0
 11
1938.0
 21
-279.9999999999990905
 31
0.0
1001
ACDBBLOCKREPETAG
1070
     1
1071
       58
1005
147DED
  0
LINE
  5
147DEE
  8
OBJECT
 10
1938.0
 20
-261.9999999999990905
 30
0.0
 11
1920.0
 21
-261.9999999999990905
 31
0.0
1001
ACDBBLOCKREPETAG
1070
     1
1071
       60
1005
147DEE
  0
LINE
  5
147DEF
  8
OBJECT
 10
1957.7981043079819301
 20
-137.9999999999990905
 30
0.0
 11
1920.0
 21
-137.9999999999990905
 31
0.0
1001
ACDBBLOCKREPETAG
1070
     1
1071
       61
1005
147DEF
  0
LINE
  5
147DF0
  8
OBJECT
 10
1946.9669914110090758
 20
-253.0330085889902136
 30
0.0
 11
1938.0
 21
-261.9999999999990905
 31
0.0
1001
ACDBBLOCKREPETAG
1070
     1
1071
       42
1005
147DF0
  0
LINE
  5
147DF1
  8
OBJECT
 10
2053.0330085889909242
 20
-253.0330085889902136
 30
0.0
 11
2062.0
 21
-261.9999999999990905
 31
0.0
1001
ACDBBLOCKREPETAG
1070
     1
1071
       43
1005
147DF1
  0
TEXT
  5
147DF2
  8
SLIM
 10
0.0000035665234464
 20
24.0000045853176012
 30
0.0
 40
79.9999999999727152
  1
枝管バリエーション
 41
0.75
1001
ACDBBLOCKREPETAG
1070
     1
1071
      119
1005
138921
  0
LINE
  5
147DF3
  8
CENTER
 10
1899.0
 20
-199.9999999999990905
 30
0.0
 11
1920.0
 21
-199.9999999999990905
 31
0.0
1001
ACDBBLOCKREPETAG
1070
     1
1071
        0
1005
147DF3
  0
LINE
  5
147DF4
  8
OBJECT
 10
1917.0
 20
-261.9999999999990905
 30
0.0
 11
1920.0
 21
-261.9999999999990905
 31
0.0
1001
ACDBBLOCKREPETAG
1070
     1
1071
        1
1005
147DF4
  0
ARC
  5
147DF5
  8
OBJECT
 10
1917.0
 20
-258.9999999999990905
 30
0.0
 40
3.0
 50
180.0
 51
270.0
1001
ACDBBLOCKREPETAG
1070
     1
1071
        2
1005
147DF5
  0
LINE
  5
147DF6
  8
OBJECT
 10
1920.0
 20
-137.9999999999990905
 30
0.0
 11
1917.0
 21
-137.9999999999990905
 31
0.0
1001
ACDBBLOCKREPETAG
1070
     1
1071
        3
1005
147DF6
  0
ARC
  5
147DF7
  8
OBJECT
 10
1917.0
 20
-140.9999999999990905
 30
0.0
 40
3.0
 50
90.0
 51
180.0
1001
ACDBBLOCKREPETAG
1070
     1
1071
        4
1005
147DF7
  0
LINE
  5
147DF8
  8
OBJECT
 10
1914.0
 20
-140.9999999999990905
 30
0.0
 11
1914.0
 21
-258.9999999999990905
 31
0.0
1001
ACDBBLOCKREPETAG
1070
     1
1071
        5
1005
147DF8
  0
LINE
  5
147DF9
  8
OBJECT
 10
2062.0
 20
-332.9999999999990905
 30
0.0
 11
2062.0
 21
-339.9999999999990905
 31
0.0
1001
ACDBBLOCKREPETAG
1070
     1
1071
       47
1005
147DF9
  0
LINE
  5
147DFA
  8
OBJECT
 10
2062.0
 20
-339.9999999999990905
 30
0.0
 11
1938.0
 21
-339.9999999999990905
 31
0.0
1001
ACDBBLOCKREPETAG
1070
     1
1071
       48
1005
147DFA
  0
LINE
  5
147DFB
  8
OBJECT
 10
1938.0
 20
-339.9999999999990905
 30
0.0
 11
1938.0
 21
-332.9999999999990905
 31
0.0
1001
ACDBBLOCKREPETAG
1070
     1
1071
       49
1005
147DFB
  0
LINE
  5
147DFC
  8
OBJECT
 10
1938.0
 20
-332.9999999999990905
 30
0.0
 11
2062.0
 21
-332.9999999999990905
 31
0.0
1001
ACDBBLOCKREPETAG
1070
     1
1071
       50
1005
147DFC
  0
LINE
  5
147DFD
  8
CENTER
 10
2000.0
 20
-354.9999999999990905
 30
0.0
 11
2000.0
 21
-279.9999999999990905
 31
0.0
1001
ACDBBLOCKREPETAG
1070
     1
1071
       51
1005
147DFD
  0
LINE
  5
147DFE
  8
OBJECT
 10
2059.0
 20
-332.9999999999990905
 30
0.0
 11
2059.0
 21
-296.9999999999990905
 31
0.0
1001
ACDBBLOCKREPETAG
1070
     1
1071
       52
1005
147DFE
  0
LINE
  5
147DFF
  8
OBJECT
 10
2059.0
 20
-296.9999999999990905
 30
0.0
 11
1941.0
 21
-296.9999999999990905
 31
0.0
1001
ACDBBLOCKREPETAG
1070
     1
1071
       53
1005
147DFF
  0
LINE
  5
147E00
  8
OBJECT
 10
1941.0
 20
-296.9999999999990905
 30
0.0
 11
1941.0
 21
-332.9999999999990905
 31
0.0
1001
ACDBBLOCKREPETAG
1070
     1
1071
       54
1005
147E00
  0
LINE
  5
147E01
  8
OBJECT
 10
2054.5
 20
-292.9999999999990905
 30
0.0
 11
2054.5
 21
-285.9999999999990905
 31
0.0
1001
ACDBBLOCKREPETAG
1070
     1
1071
       55
1005
147E01
  0
LINE
  5
147E02
  8
OBJECT
 10
1945.5
 20
-285.9999999999990905
 30
0.0
 11
1945.5
 21
-292.9999999999990905
 31
0.0
1001
ACDBBLOCKREPETAG
1070
     1
1071
       56
1005
147E02
  0
LINE
  5
147E03
  8
OBJECT
 10
1945.5
 20
-292.9999999999990905
 30
0.0
 11
2054.5
 21
-292.9999999999990905
 31
0.0
1001
ACDBBLOCKREPETAG
1070
     1
1071
       57
1005
147E03
  0
LINE
  5
147E04
  8
OBJECT
 10
2059.0
 20
-296.9999999999990905
 30
0.0
 11
2054.5
 21
-292.9999999999990905
 31
0.0
1001
ACDBBLOCKREPETAG
1070
     1
1071
       58
1005
147E04
  0
LINE
  5
147E05
  8
OBJECT
 10
1941.0
 20
-296.9999999999990905
 30
0.0
 11
1945.5
 21
-292.9999999999990905
 31
0.0
1001
ACDBBLOCKREPETAG
1070
     1
1071
       59
1005
147E05
  0
LINE
  5
147E06
  8
OBJECT
 10
2062.0
 20
-283.0
 30
0.0
 11
2062.0
 21
-279.9999999999990905
 31
0.0
1001
ACDBBLOCKREPETAG
1070
     1
1071
       60
1005
147E06
  0
ARC
  5
147E07
  8
OBJECT
 10
2059.0
 20
-283.0
 30
0.0
 40
3.0
 50
270.0
 51
0.0
1001
ACDBBLOCKREPETAG
1070
     1
1071
       61
1005
147E07
  0
LINE
  5
147E08
  8
OBJECT
 10
1938.0
 20
-279.9999999999990905
 30
0.0
 11
1938.0
 21
-282.999999999998181
 31
0.0
1001
ACDBBLOCKREPETAG
1070
     1
1071
       62
1005
147E08
  0
ARC
  5
147E09
  8
OBJECT
 10
1941.0
 20
-282.999999999998181
 30
0.0
 40
3.0
 50
180.0
 51
270.0
1001
ACDBBLOCKREPETAG
1070
     1
1071
       63
1005
147E09
  0
LINE
  5
147E0A
  8
OBJECT
 10
1941.0
 20
-285.999999999998181
 30
0.0
 11
2059.0
 21
-286.0
 31
0.0
1001
ACDBBLOCKREPETAG
1070
     1
1071
       64
1005
147E0A
  0
LINE
  5
147E0B
  8
HIDDEN
 10
2044.5
 20
-287.9999999999990905
 30
0.0
 11
1955.5
 21
-287.9999999999990905
 31
0.0
1001
ACDBBLOCKREPETAG
1070
     1
1071
       65
1005
147E0B
  0
LINE
  5
147E0C
  8
OBJECT
 10
2150.0
 20
-124.9999999999991047
 30
0.0
 11
2143.0
 21
-124.9999999999991047
 31
0.0
1001
ACDBBLOCKREPETAG
1070
     1
1071
       67
1005
147E0C
  0
LINE
  5
147E0D
  8
OBJECT
 10
2143.0
 20
-124.9999999999991047
 30
0.0
 11
2143.0
 21
-274.9999999999990905
 31
0.0
1001
ACDBBLOCKREPETAG
1070
     1
1071
       68
1005
147E0D
  0
LINE
  5
147E0E
  8
OBJECT
 10
2101.5
 20
-127.9999999999991047
 30
0.0
 11
2101.5
 21
-271.9999999999990905
 31
0.0
1001
ACDBBLOCKREPETAG
1070
     1
1071
       69
1005
147E0E
  0
LINE
  5
147E0F
  8
OBJECT
 10
2090.0
 20
-134.4999999999990905
 30
0.0
 11
2090.0
 21
-265.4999999999990905
 31
0.0
1001
ACDBBLOCKREPETAG
1070
     1
1071
       70
1005
147E0F
  0
LINE
  5
147E10
  8
OBJECT
 10
2143.0
 20
-274.9999999999990905
 30
0.0
 11
2150.0
 21
-274.9999999999990905
 31
0.0
1001
ACDBBLOCKREPETAG
1070
     1
1071
       71
1005
147E10
  0
LINE
  5
147E11
  8
OBJECT
 10
2150.0
 20
-274.9999999999990905
 30
0.0
 11
2150.0
 21
-124.9999999999991047
 31
0.0
1001
ACDBBLOCKREPETAG
1070
     1
1071
       72
1005
147E11
  0
LINE
  5
147E12
  8
HIDDEN
 10
2098.0
 20
-256.9999999999990905
 30
0.0
 11
2098.0
 21
-142.9999999999990905
 31
0.0
1001
ACDBBLOCKREPETAG
1070
     1
1071
       73
1005
147E12
  0
LINE
  5
147E13
  8
CENTER
 10
2165.0
 20
-199.9999999999990905
 30
0.0
 11
2080.0
 21
-199.9999999999990905
 31
0.0
1001
ACDBBLOCKREPETAG
1070
     1
1071
       74
1005
147E13
  0
LINE
  5
147E14
  8
OBJECT
 10
2086.0
 20
-261.9999999999990905
 30
0.0
 11
2080.0
 21
-261.9999999999990905
 31
0.0
1001
ACDBBLOCKREPETAG
1070
     1
1071
       75
1005
147E14
  0
LINE
  5
147E15
  8
OBJECT
 10
2143.0
 20
-271.9999999999990905
 30
0.0
 11
2101.5
 21
-271.9999999999990905
 31
0.0
1001
ACDBBLOCKREPETAG
1070
     1
1071
       76
1005
147E15
  0
LINE
  5
147E16
  8
OBJECT
 10
2101.5
 20
-271.9999999999990905
 30
0.0
 11
2090.0
 21
-265.4999999999990905
 31
0.0
1001
ACDBBLOCKREPETAG
1070
     1
1071
       77
1005
147E16
  0
LINE
  5
147E17
  8
OBJECT
 10
2090.0
 20
-265.4999999999990905
 30
0.0
 11
2086.0
 21
-261.9999999999990905
 31
0.0
1001
ACDBBLOCKREPETAG
1070
     1
1071
       78
1005
147E17
  0
LINE
  5
147E18
  8
OBJECT
 10
2101.5
 20
-127.9999999999991047
 30
0.0
 11
2090.0
 21
-134.4999999999990905
 31
0.0
1001
ACDBBLOCKREPETAG
1070
     1
1071
       79
1005
147E18
  0
LINE
  5
147E19
  8
OBJECT
 10
2090.0
 20
-134.4999999999990905
 30
0.0
 11
2086.0
 21
-137.9999999999990905
 31
0.0
1001
ACDBBLOCKREPETAG
1070
     1
1071
       80
1005
147E19
  0
ARC
  5
147E1A
  8
OBJECT
 10
2467.9000000000019099
 20
-199.9999999999990905
 30
0.0
 40
386.8999999999999773
 50
170.7787013626042096
 51
189.2212986373957904
1001
ACDBBLOCKREPETAG
1070
     1
1071
       81
1005
147E1A
  0
LINE
  5
147E1B
  8
OBJECT
 10
2086.0
 20
-137.9999999999990905
 30
0.0
 11
2080.0
 21
-137.9999999999990905
 31
0.0
1001
ACDBBLOCKREPETAG
1070
     1
1071
       82
1005
147E1B
  0
LINE
  5
147E1C
  8
OBJECT
 10
2143.0
 20
-127.9999999999991047
 30
0.0
 11
2101.5
 21
-127.9999999999991047
 31
0.0
1001
ACDBBLOCKREPETAG
1070
     1
1071
       83
1005
147E1C
  0
LINE
  5
147E1D
  8
OBJECT
 10
1917.0
 20
-634.0
 30
0.0
 11
1920.0
 21
-634.0
 31
0.0
1001
ACDBBLOCKREPETAG
1070
     1
1071
        1
1005
147E1D
  0
ARC
  5
147E1E
  8
OBJECT
 10
1917.0
 20
-637.0
 30
0.0
 40
3.0
 50
90.0
 51
180.0
1001
ACDBBLOCKREPETAG
1070
     1
1071
        2
1005
147E1E
  0
LINE
  5
147E1F
  8
OBJECT
 10
1920.0
 20
-758.0
 30
0.0
 11
1917.0
 21
-758.0
 31
0.0
1001
ACDBBLOCKREPETAG
1070
     1
1071
        3
1005
147E1F
  0
ARC
  5
147E20
  8
OBJECT
 10
1917.0
 20
-755.0
 30
0.0
 40
3.0
 50
180.0
 51
270.0
1001
ACDBBLOCKREPETAG
1070
     1
1071
        4
1005
147E20
  0
LINE
  5
147E21
  8
OBJECT
 10
1914.0
 20
-755.0
 30
0.0
 11
1914.0
 21
-637.0
 31
0.0
1001
ACDBBLOCKREPETAG
1070
     1
1071
        5
1005
147E21
  0
LINE
  5
147E22
  8
OBJECT
 10
2150.0
 20
-608.0
 30
0.0
 11
2143.0
 21
-608.0
 31
0.0
1001
ACDBBLOCKREPETAG
1070
     1
1071
       64
1005
147E22
  0
LINE
  5
147E23
  8
OBJECT
 10
2143.0
 20
-608.0
 30
0.0
 11
2143.0
 21
-755.0
 31
0.0
1001
ACDBBLOCKREPETAG
1070
     1
1071
       65
1005
147E23
  0
LINE
  5
147E24
  8
OBJECT
 10
2101.5
 20
-611.0
 30
0.0
 11
2101.5
 21
-755.0
 31
0.0
1001
ACDBBLOCKREPETAG
1070
     1
1071
       66
1005
147E24
  0
LINE
  5
147E25
  8
OBJECT
 10
2090.0
 20
-617.4999999999998863
 30
0.0
 11
2090.0
 21
-748.5
 31
0.0
1001
ACDBBLOCKREPETAG
1070
     1
1071
       67
1005
147E25
  0
LINE
  5
147E26
  8
OBJECT
 10
2086.0
 20
-689.500000000007276
 30
0.0
 11
2086.0
 21
-755.0
 31
0.0
1001
ACDBBLOCKREPETAG
1070
     1
1071
       68
1005
147E26
  0
LINE
  5
147E27
  8
OBJECT
 10
2150.0
 20
-755.0
 30
0.0
 11
2150.0
 21
-608.0
 31
0.0
1001
ACDBBLOCKREPETAG
1070
     1
1071
       69
1005
147E27
  0
LINE
  5
147E28
  8
CENTER
 10
2165.0
 20
-683.0
 30
0.0
 11
2070.4144144144161146
 21
-683.0
 31
0.0
1001
ACDBBLOCKREPETAG
1070
     1
1071
       70
1005
147E28
  0
LINE
  5
147E29
  8
OBJECT
 10
2083.0000000000040927
 20
-758.0
 30
0.0
 11
2080.0
 21
-758.0
 31
0.0
1001
ACDBBLOCKREPETAG
1070
     1
1071
       71
1005
147E29
  0
ARC
  5
147E2A
  8
OBJECT
 10
2091.8815171830651707
 20
-756.4555591801454284
 30
0.0
 40
6.0
 50
60.5241109968708813
 51
170.6927439126718014
1001
ACDBBLOCKREPETAG
1070
     1
1071
       72
1005
147E2A
  0
ARC
  5
147E2B
  8
OBJECT
 10
2083.0
 20
-755.0
 30
0.0
 40
3.0
 50
270.0
 51
350.692743912671915
1001
ACDBBLOCKREPETAG
1070
     1
1071
       73
1005
147E2B
  0
LINE
  5
147E2C
  8
OBJECT
 10
2081.0
 20
-634.0
 30
0.0
 11
2080.0
 21
-634.0
 31
0.0
1001
ACDBBLOCKREPETAG
1070
     1
1071
       74
1005
147E2C
  0
LINE
  5
147E2D
  8
OBJECT
 10
2150.0
 20
-755.0
 30
0.0
 11
2101.5
 21
-755.0
 31
0.0
1001
ACDBBLOCKREPETAG
1070
     1
1071
       75
1005
147E2D
  0
LINE
  5
147E2E
  8
OBJECT
 10
2101.5
 20
-611.0
 30
0.0
 11
2090.0
 21
-617.4999999999998863
 31
0.0
1001
ACDBBLOCKREPETAG
1070
     1
1071
       76
1005
147E2E
  0
LINE
  5
147E2F
  8
OBJECT
 10
2143.0
 20
-611.0
 30
0.0
 11
2101.5
 21
-611.0
 31
0.0
1001
ACDBBLOCKREPETAG
1070
     1
1071
       77
1005
147E2F
  0
LINE
  5
147E30
  8
OBJECT
 10
2086.0
 20
-689.500000000007276
 30
0.0
 11
2081.0
 21
-634.0
 31
0.0
1001
ACDBBLOCKREPETAG
1070
     1
1071
       78
1005
147E30
  0
LINE
  5
147E31
  8
OBJECT
 10
2090.0
 20
-617.4999999999998863
 30
0.0
 11
2081.0
 21
-634.0
 31
0.0
1001
ACDBBLOCKREPETAG
1070
     1
1071
       79
1005
147E31
  0
LINE
  5
147E32
  8
OBJECT
 10
2101.5
 20
-755.0
 30
0.0
 11
2094.8338607230730304
 21
-751.2321821478217316
 31
0.0
1001
ACDBBLOCKREPETAG
1070
     1
1071
       80
1005
147E32
  0
LINE
  5
147E33
  8
HIDDEN
 10
2098.0
 20
-740.0
 30
0.0
 11
2098.0
 21
-626.0
 31
0.0
1001
ACDBBLOCKREPETAG
1070
     1
1071
       81
1005
147E33
  0
TEXT
  5
147E34
  8
SLIM
 10
1837.75
 20
282.5000000000001137
 30
0.0
 40
35.0
  1
（枝管サイズ毎に寸法が異なります。管底の位置は全サイズで同じです）
 41
0.75
  0
TEXT
  5
147E35
  8
SLIM
 10
1850.0
 20
532.5
 30
0.0
 40
75.0
  1
側面図の代表機種
 41
0.75
  0
TEXT
  5
147E36
  8
SLIM
 10
1850.0
 20
369.9999999999998863
 30
0.0
 40
100.0
  1
4SVT-C43
 41
0.75
  0
LINE
  5
147E37
  8
DIM
 10
2150.0
 20
-3626.9999999999959073
 30
0.0
 11
2228.4796205944589929
 21
-3626.9999999999959073
 31
0.0
  0
LINE
  5
147E38
  8
DIM
 10
2150.0
 20
-3532.9999999999959073
 30
0.0
 11
2228.4796205944589929
 21
-3532.9999999999959073
 31
0.0
  0
LINE
  5
147E39
  8
DIM
 10
2218.4796205944589929
 20
-3606.9999999999959073
 30
0.0
 11
2218.4796205944589929
 21
-3552.9999999999959073
 31
0.0
  0
INSERT
  5
147E3A
  8
DIM
  2
_OPEN30
 10
2218.4796205944589929
 20
-3626.9999999999959073
 30
0.0
 41
20.0
 42
20.0
 43
20.0
 50
270.0
  0
INSERT
  5
147E3B
  8
DIM
  2
_OPEN30
 10
2218.4796205944589929
 20
-3532.9999999999959073
 30
0.0
 41
20.0
 42
20.0
 43
20.0
 50
90.0
  0
INSERT
  5
147E3C
  8
0
  2
*U136
 10
0.0
 20
0.0
 30
0.0
  0
LINE
  5
147E3D
  8
DIM
 10
2150.0
 20
-3984.9999999999968168
 30
0.0
 11
2226.8409284037338693
 21
-3984.9999999999968168
 31
0.0
  0
LINE
  5
147E3E
  8
DIM
 10
2165.0
 20
-3940.9999999999968168
 30
0.0
 11
2226.8409284037338693
 21
-3940.9999999999968168
 31
0.0
  0
LINE
  5
147E3F
  8
DIM
 10
2216.8409284037329599
 20
-4004.9999999999968168
 30
0.0
 11
2216.8409284037329599
 21
-4024.9999999999968168
 31
0.0
  0
LINE
  5
147E40
  8
DIM
 10
2216.8409284037329599
 20
-3920.9999999999968168
 30
0.0
 11
2216.8409284037329599
 21
-3900.9999999999968168
 31
0.0
  0
LINE
  5
147E41
  8
DIM
 10
2216.8409284037329599
 20
-3984.9999999999968168
 30
0.0
 11
2216.8409284037329599
 21
-3940.9999999999968168
 31
0.0
  0
INSERT
  5
147E42
  8
DIM
  2
_OPEN30
 10
2216.8409284037329599
 20
-3984.9999999999968168
 30
0.0
 41
20.0
 42
20.0
 43
20.0
 50
90.0
  0
INSERT
  5
147E43
  8
DIM
  2
_OPEN30
 10
2216.8409284037329599
 20
-3940.9999999999968168
 30
0.0
 41
20.0
 42
20.0
 43
20.0
 50
270.0
  0
INSERT
  5
147E44
  8
0
  2
*U137
 10
0.0
 20
0.0
 30
0.0
  0
LINE
  5
147E45
  8
DIM
 10
2000.0
 20
-3474.9999999999959073
 30
0.0
 11
2000.0
 21
-3442.2081219844440056
 31
0.0
  0
LINE
  5
147E46
  8
DIM
 10
2140.0
 20
-3522.9999999999959073
 30
0.0
 11
2140.0
 21
-3442.2081219844440056
 31
0.0
  0
LINE
  5
147E47
  8
DIM
 10
2020.0
 20
-3452.2081219844440056
 30
0.0
 11
2120.0
 21
-3452.2081219844440056
 31
0.0
  0
INSERT
  5
147E48
  8
DIM
  2
_OPEN30
 10
2000.0
 20
-3452.2081219844440056
 30
0.0
 41
20.0
 42
20.0
 43
20.0
 50
180.0
  0
INSERT
  5
147E49
  8
DIM
  2
_OPEN30
 10
2140.0
 20
-3452.2081219844440056
 30
0.0
 41
20.0
 42
20.0
 43
20.0
  0
INSERT
  5
147E4A
  8
0
  2
*U138
 10
0.0
 20
0.0
 30
0.0
  0
TEXT
  5
147E4B
  8
SLIM
 10
2631.0
 20
-3357.5000160472700372
 30
0.0
 40
40.0
  1
C寸法
 41
0.75
  0
TEXT
  5
147E4C
  8
SLIM
 10
2631.0
 20
-3287.5000160472700372
 30
0.0
 40
40.0
  1
B寸法
 41
0.75
  0
TEXT
  5
147E4D
  8
SLIM
 10
2630.2857142857142208
 20
-3217.5000160472700372
 30
0.0
 40
40.0
  1
A寸法
 41
0.75
  0
TEXT
  5
147E4E
  8
SLIM
 10
3159.2857142857142208
 20
-3357.5000160472700372
 30
0.0
 40
40.0
  1
150
 41
0.75
  0
TEXT
  5
147E4F
  8
SLIM
 10
3029.2857142857151302
 20
-3357.5000160472700372
 30
0.0
 40
40.0
  1
140
 41
0.75
  0
TEXT
  5
147E50
  8
SLIM
 10
2769.2857142857151302
 20
-3357.5000160472700372
 30
0.0
 40
40.0
  1
140
 41
0.75
  0
TEXT
  5
147E51
  8
SLIM
 10
2899.2857142857142208
 20
-3357.5000160472700372
 30
0.0
 40
40.0
  1
140
 41
0.75
  0
TEXT
  5
147E52
  8
SLIM
 10
3170.7142857142857792
 20
-3287.5000160472700372
 30
0.0
 40
40.0
  1
72
 41
0.75
  0
TEXT
  5
147E53
  8
SLIM
 10
3041.4285714285711038
 20
-3287.5000160472700372
 30
0.0
 40
40.0
  1
59
 41
0.75
  0
TEXT
  5
147E54
  8
SLIM
 10
2780.0
 20
-3287.5000160472700372
 30
0.0
 40
40.0
  1
44
 41
0.75
  0
TEXT
  5
147E55
  8
SLIM
 10
2910.7142857142857792
 20
-3287.5000160472700372
 30
0.0
 40
40.0
  1
52
 41
0.75
  0
TEXT
  5
147E56
  8
SLIM
 10
2891.0
 20
-3092.5000160472700372
 30
0.0
 40
40.0
  1
横枝管サイズ
 41
0.75
  0
TEXT
  5
147E57
  8
SLIM
 10
3136.2857142857142208
 20
-3147.5000160472700372
 30
0.0
 40
30.0
  1
100（4）
 41
0.75
  0
TEXT
  5
147E58
  8
SLIM
 10
3014.857142857143117
 20
-3147.5000160472700372
 30
0.0
 40
30.0
  1
75（3）
 41
0.75
  0
TEXT
  5
147E59
  8
SLIM
 10
2884.857142857143117
 20
-3147.5000160472700372
 30
0.0
 40
30.0
  1
65（2）
 41
0.75
  0
TEXT
  5
147E5A
  8
SLIM
 10
2757.0
 20
-3147.5000160472700372
 30
0.0
 40
30.0
  1
50（1）
 41
0.75
  0
TEXT
  5
147E5B
  8
SLIM
 10
3159.2857142857142208
 20
-3217.5000160472700372
 30
0.0
 40
40.0
  1
150
 41
0.75
  0
TEXT
  5
147E5C
  8
SLIM
 10
3028.5714285714279868
 20
-3217.5000160472700372
 30
0.0
 40
40.0
  1
124
 41
0.75
  0
TEXT
  5
147E5D
  8
SLIM
 10
2780.0
 20
-3217.5000160472700372
 30
0.0
 40
40.0
  1
94
 41
0.75
  0
TEXT
  5
147E5E
  8
SLIM
 10
2902.142857142856883
 20
-3217.5000160472700372
 30
0.0
 40
40.0
  1
110
 41
0.75
  0
TEXT
  5
147E5F
  8
SLIM
 10
1849.9999999999990905
 20
-3117.5
 30
0.0
 40
75.0
  1
枝管サイズ毎の形状
 41
0.75
  0
LINE
  5
147E60
  8
OBJECT
 10
5150.0
 20
-3837.9999999999968168
 30
0.0
 11
5143.0
 21
-3837.9999999999968168
 31
0.0
1001
ACDBBLOCKREPETAG
1070
     1
1071
       64
1005
147E60
  0
LINE
  5
147E61
  8
OBJECT
 10
5143.0
 20
-3837.9999999999968168
 30
0.0
 11
5143.0
 21
-3984.9999999999968168
 31
0.0
1001
ACDBBLOCKREPETAG
1070
     1
1071
       65
1005
147E61
  0
LINE
  5
147E62
  8
OBJECT
 10
5101.5
 20
-3840.9999999999968168
 30
0.0
 11
5101.5
 21
-3984.9999999999968168
 31
0.0
1001
ACDBBLOCKREPETAG
1070
     1
1071
       66
1005
147E62
  0
LINE
  5
147E63
  8
OBJECT
 10
5090.0
 20
-3847.4999999999959073
 30
0.0
 11
5090.0
 21
-3978.4999999999968168
 31
0.0
1001
ACDBBLOCKREPETAG
1070
     1
1071
       67
1005
147E63
  0
LINE
  5
147E64
  8
OBJECT
 10
5086.0
 20
-3919.5000000000050022
 30
0.0
 11
5086.0
 21
-3984.9999999999968168
 31
0.0
1001
ACDBBLOCKREPETAG
1070
     1
1071
       68
1005
147E64
  0
LINE
  5
147E65
  8
OBJECT
 10
5150.0
 20
-3984.9999999999968168
 30
0.0
 11
5150.0
 21
-3837.9999999999968168
 31
0.0
1001
ACDBBLOCKREPETAG
1070
     1
1071
       69
1005
147E65
  0
LINE
  5
147E66
  8
CENTER
 10
5165.0
 20
-3912.9999999999968168
 30
0.0
 11
5070.4144144144156598
 21
-3912.9999999999968168
 31
0.0
1001
ACDBBLOCKREPETAG
1070
     1
1071
       70
1005
147E66
  0
LINE
  5
147E67
  8
OBJECT
 10
5083.000000000003638
 20
-3987.9999999999968168
 30
0.0
 11
5080.0
 21
-3987.9999999999968168
 31
0.0
1001
ACDBBLOCKREPETAG
1070
     1
1071
       71
1005
147E67
  0
ARC
  5
147E68
  8
OBJECT
 10
5091.8815171830647159
 20
-3986.4555591801431547
 30
0.0
 40
6.0
 50
60.5241109968676696
 51
170.6927439126847048
1001
ACDBBLOCKREPETAG
1070
     1
1071
       72
1005
147E68
  0
ARC
  5
147E69
  8
OBJECT
 10
5083.0
 20
-3984.9999999999968168
 30
0.0
 40
3.0
 50
270.0
 51
350.6927439126848185
1001
ACDBBLOCKREPETAG
1070
     1
1071
       73
1005
147E69
  0
LINE
  5
147E6A
  8
OBJECT
 10
5081.0
 20
-3863.9999999999968168
 30
0.0
 11
5080.0
 21
-3863.9999999999968168
 31
0.0
1001
ACDBBLOCKREPETAG
1070
     1
1071
       74
1005
147E6A
  0
LINE
  5
147E6B
  8
OBJECT
 10
5150.0
 20
-3984.9999999999968168
 30
0.0
 11
5101.5
 21
-3984.9999999999968168
 31
0.0
1001
ACDBBLOCKREPETAG
1070
     1
1071
       75
1005
147E6B
  0
LINE
  5
147E6C
  8
OBJECT
 10
5101.5
 20
-3840.9999999999968168
 30
0.0
 11
5090.0
 21
-3847.4999999999959073
 31
0.0
1001
ACDBBLOCKREPETAG
1070
     1
1071
       76
1005
147E6C
  0
LINE
  5
147E6D
  8
OBJECT
 10
5143.0
 20
-3840.9999999999968168
 30
0.0
 11
5101.5
 21
-3840.9999999999968168
 31
0.0
1001
ACDBBLOCKREPETAG
1070
     1
1071
       77
1005
147E6D
  0
LINE
  5
147E6E
  8
OBJECT
 10
5086.0
 20
-3919.5000000000050022
 30
0.0
 11
5081.0
 21
-3863.9999999999968168
 31
0.0
1001
ACDBBLOCKREPETAG
1070
     1
1071
       78
1005
147E6E
  0
LINE
  5
147E6F
  8
OBJECT
 10
5090.0
 20
-3847.4999999999959073
 30
0.0
 11
5081.0
 21
-3863.9999999999968168
 31
0.0
1001
ACDBBLOCKREPETAG
1070
     1
1071
       79
1005
147E6F
  0
LINE
  5
147E70
  8
OBJECT
 10
5101.5
 20
-3984.9999999999968168
 30
0.0
 11
5094.8338607230716661
 21
-3981.2321821478190031
 31
0.0
1001
ACDBBLOCKREPETAG
1070
     1
1071
       80
1005
147E70
  0
LINE
  5
147E71
  8
HIDDEN
 10
5098.0
 20
-3969.9999999999968168
 30
0.0
 11
5098.0
 21
-3855.9999999999968168
 31
0.0
1001
ACDBBLOCKREPETAG
1070
     1
1071
       81
1005
147E71
  0
LINE
  5
147E72
  8
OBJECT
 10
5150.0
 20
-3504.9999999999959073
 30
0.0
 11
5143.0
 21
-3504.9999999999959073
 31
0.0
1001
ACDBBLOCKREPETAG
1070
     1
1071
       67
1005
147E72
  0
LINE
  5
147E73
  8
OBJECT
 10
5143.0
 20
-3504.9999999999959073
 30
0.0
 11
5143.0
 21
-3654.9999999999959073
 31
0.0
1001
ACDBBLOCKREPETAG
1070
     1
1071
       68
1005
147E73
  0
LINE
  5
147E74
  8
OBJECT
 10
5101.5
 20
-3507.9999999999959073
 30
0.0
 11
5101.5
 21
-3651.9999999999959073
 31
0.0
1001
ACDBBLOCKREPETAG
1070
     1
1071
       69
1005
147E74
  0
LINE
  5
147E75
  8
OBJECT
 10
5090.0
 20
-3514.4999999999959073
 30
0.0
 11
5090.0
 21
-3645.4999999999968168
 31
0.0
1001
ACDBBLOCKREPETAG
1070
     1
1071
       70
1005
147E75
  0
LINE
  5
147E76
  8
OBJECT
 10
5143.0
 20
-3654.9999999999959073
 30
0.0
 11
5150.0
 21
-3654.9999999999959073
 31
0.0
1001
ACDBBLOCKREPETAG
1070
     1
1071
       71
1005
147E76
  0
LINE
  5
147E77
  8
OBJECT
 10
5150.0
 20
-3654.9999999999959073
 30
0.0
 11
5150.0
 21
-3504.9999999999959073
 31
0.0
1001
ACDBBLOCKREPETAG
1070
     1
1071
       72
1005
147E77
  0
LINE
  5
147E78
  8
HIDDEN
 10
5098.0
 20
-3636.9999999999959073
 30
0.0
 11
5098.0
 21
-3522.9999999999959073
 31
0.0
1001
ACDBBLOCKREPETAG
1070
     1
1071
       73
1005
147E78
  0
LINE
  5
147E79
  8
CENTER
 10
5165.0
 20
-3579.9999999999959073
 30
0.0
 11
5080.0
 21
-3579.9999999999959073
 31
0.0
1001
ACDBBLOCKREPETAG
1070
     1
1071
       74
1005
147E79
  0
LINE
  5
147E7A
  8
OBJECT
 10
5086.0
 20
-3641.9999999999959073
 30
0.0
 11
5080.0
 21
-3641.9999999999959073
 31
0.0
1001
ACDBBLOCKREPETAG
1070
     1
1071
       75
1005
147E7A
  0
LINE
  5
147E7B
  8
OBJECT
 10
5143.0
 20
-3651.9999999999959073
 30
0.0
 11
5101.5
 21
-3651.9999999999959073
 31
0.0
1001
ACDBBLOCKREPETAG
1070
     1
1071
       76
1005
147E7B
  0
LINE
  5
147E7C
  8
OBJECT
 10
5101.5
 20
-3651.9999999999959073
 30
0.0
 11
5090.0
 21
-3645.4999999999968168
 31
0.0
1001
ACDBBLOCKREPETAG
1070
     1
1071
       77
1005
147E7C
  0
LINE
  5
147E7D
  8
OBJECT
 10
5090.0
 20
-3645.4999999999968168
 30
0.0
 11
5086.0
 21
-3641.9999999999959073
 31
0.0
1001
ACDBBLOCKREPETAG
1070
     1
1071
       78
1005
147E7D
  0
LINE
  5
147E7E
  8
OBJECT
 10
5101.5
 20
-3507.9999999999959073
 30
0.0
 11
5090.0
 21
-3514.4999999999959073
 31
0.0
1001
ACDBBLOCKREPETAG
1070
     1
1071
       79
1005
147E7E
  0
LINE
  5
147E7F
  8
OBJECT
 10
5090.0
 20
-3514.4999999999959073
 30
0.0
 11
5086.0
 21
-3517.9999999999959073
 31
0.0
1001
ACDBBLOCKREPETAG
1070
     1
1071
       80
1005
147E7F
  0
ARC
  5
147E80
  8
OBJECT
 10
5467.9000000000005457
 20
-3579.9999999999959073
 30
0.0
 40
386.8999999999999773
 50
170.7787013626042096
 51
189.2212986373957904
1001
ACDBBLOCKREPETAG
1070
     1
1071
       81
1005
147E80
  0
LINE
  5
147E81
  8
OBJECT
 10
5086.0
 20
-3517.9999999999959073
 30
0.0
 11
5080.0
 21
-3517.9999999999959073
 31
0.0
1001
ACDBBLOCKREPETAG
1070
     1
1071
       82
1005
147E81
  0
LINE
  5
147E82
  8
OBJECT
 10
5143.0
 20
-3507.9999999999959073
 30
0.0
 11
5101.5
 21
-3507.9999999999959073
 31
0.0
1001
ACDBBLOCKREPETAG
1070
     1
1071
       83
1005
147E82
  0
TEXT
  5
147E83
  8
SLIM
 10
4884.25
 20
-4102.499999999996362
 30
0.0
 40
35.0
  1
通常枝100（4）
 41
0.75
  0
LINE
  5
147E84
  8
CENTER
 10
4477.0
 20
-3925.9999999999968168
 30
0.0
 11
4323.0
 21
-3925.9999999999968168
 31
0.0
1001
ACDBBLOCKREPETAG
1070
     1
1071
       17
1005
147E84
  0
CIRCLE
  5
147E85
  8
OBJECT
 10
4400.0
 20
-3925.9999999999968168
 30
0.0
 40
41.5
1001
ACDBBLOCKREPETAG
1070
     1
1071
       19
1005
147E85
  0
CIRCLE
  5
147E86
  8
OBJECT
 10
4400.0
 20
-3925.9999999999968168
 30
0.0
 40
54.0
1001
ACDBBLOCKREPETAG
1070
     1
1071
       20
1005
147E86
  0
ARC
  5
147E87
  8
OBJECT
 10
4400.0
 20
-3925.9999999999968168
 30
0.0
 40
62.0
 50
287.8965511292112751
 51
252.1034488707886965
1001
ACDBBLOCKREPETAG
1070
     1
1071
       21
1005
147E87
  0
LINE
  5
147E88
  8
OBJECT
 10
4380.9474411167429935
 20
-3984.9999999999968168
 30
0.0
 11
4419.0525588832570065
 21
-3984.9999999999968168
 31
0.0
1001
ACDBBLOCKREPETAG
1070
     1
1071
       22
1005
147E88
  0
LINE
  5
147E89
  8
OBJECT
 10
4133.0
 20
-3863.9999999999968168
 30
0.0
 11
4140.0
 21
-3863.9999999999968168
 31
0.0
1001
ACDBBLOCKREPETAG
1070
     1
1071
       45
1005
147E89
  0
LINE
  5
147E8A
  8
OBJECT
 10
4140.0
 20
-3863.9999999999968168
 30
0.0
 11
4140.0
 21
-3984.9999999999968168
 31
0.0
1001
ACDBBLOCKREPETAG
1070
     1
1071
       46
1005
147E8A
  0
LINE
  5
147E8B
  8
OBJECT
 10
4133.0
 20
-3984.9999999999968168
 30
0.0
 11
4133.0
 21
-3863.9999999999968168
 31
0.0
1001
ACDBBLOCKREPETAG
1070
     1
1071
       47
1005
147E8B
  0
LINE
  5
147E8C
  8
CENTER
 10
4155.0
 20
-3925.9999999999968168
 30
0.0
 11
4071.0
 21
-3925.9999999999968168
 31
0.0
1001
ACDBBLOCKREPETAG
1070
     1
1071
       48
1005
147E8C
  0
LINE
  5
147E8D
  8
OBJECT
 10
4133.0
 20
-3866.9999999999968168
 30
0.0
 11
4097.0
 21
-3866.9999999999968168
 31
0.0
1001
ACDBBLOCKREPETAG
1070
     1
1071
       49
1005
147E8D
  0
LINE
  5
147E8E
  8
OBJECT
 10
4097.0
 20
-3866.9999999999968168
 30
0.0
 11
4097.0
 21
-3984.9999999999968168
 31
0.0
1001
ACDBBLOCKREPETAG
1070
     1
1071
       50
1005
147E8E
  0
LINE
  5
147E8F
  8
OBJECT
 10
4097.0
 20
-3984.9999999999968168
 30
0.0
 11
4140.0
 21
-3984.9999999999968168
 31
0.0
1001
ACDBBLOCKREPETAG
1070
     1
1071
       51
1005
147E8F
  0
LINE
  5
147E90
  8
OBJECT
 10
4093.0
 20
-3871.4999999999968168
 30
0.0
 11
4086.0
 21
-3871.4999999999968168
 31
0.0
1001
ACDBBLOCKREPETAG
1070
     1
1071
       52
1005
147E90
  0
LINE
  5
147E91
  8
OBJECT
 10
4086.0
 20
-3980.4999999999968168
 30
0.0
 11
4093.0
 21
-3980.4999999999968168
 31
0.0
1001
ACDBBLOCKREPETAG
1070
     1
1071
       53
1005
147E91
  0
LINE
  5
147E92
  8
OBJECT
 10
4093.0
 20
-3980.4999999999968168
 30
0.0
 11
4093.0
 21
-3871.4999999999968168
 31
0.0
1001
ACDBBLOCKREPETAG
1070
     1
1071
       54
1005
147E92
  0
LINE
  5
147E93
  8
OBJECT
 10
4097.0
 20
-3866.9999999999968168
 30
0.0
 11
4093.0
 21
-3871.4999999999968168
 31
0.0
1001
ACDBBLOCKREPETAG
1070
     1
1071
       55
1005
147E93
  0
LINE
  5
147E94
  8
OBJECT
 10
4097.0
 20
-3984.9999999999968168
 30
0.0
 11
4093.0
 21
-3980.4999999999968168
 31
0.0
1001
ACDBBLOCKREPETAG
1070
     1
1071
       56
1005
147E94
  0
LINE
  5
147E95
  8
OBJECT
 10
4083.0
 20
-3863.9999999999968168
 30
0.0
 11
4080.0
 21
-3863.9999999999968168
 31
0.0
1001
ACDBBLOCKREPETAG
1070
     1
1071
       57
1005
147E95
  0
ARC
  5
147E96
  8
OBJECT
 10
4083.0
 20
-3866.9999999999968168
 30
0.0
 40
3.0
 50
0.0
 51
90.0
1001
ACDBBLOCKREPETAG
1070
     1
1071
       58
1005
147E96
  0
LINE
  5
147E97
  8
OBJECT
 10
4080.0
 20
-3987.9999999999968168
 30
0.0
 11
4083.0
 21
-3987.9999999999968168
 31
0.0
1001
ACDBBLOCKREPETAG
1070
     1
1071
       59
1005
147E97
  0
ARC
  5
147E98
  8
OBJECT
 10
4083.0
 20
-3984.9999999999968168
 30
0.0
 40
3.0
 50
270.0
 51
0.0
1001
ACDBBLOCKREPETAG
1070
     1
1071
       60
1005
147E98
  0
LINE
  5
147E99
  8
OBJECT
 10
4086.0
 20
-3984.9999999999968168
 30
0.0
 11
4086.0
 21
-3866.9999999999968168
 31
0.0
1001
ACDBBLOCKREPETAG
1070
     1
1071
       61
1005
147E99
  0
LINE
  5
147E9A
  8
HIDDEN
 10
4088.0
 20
-3881.4999999999968168
 30
0.0
 11
4088.0
 21
-3970.4999999999968168
 31
0.0
1001
ACDBBLOCKREPETAG
1070
     1
1071
       63
1005
147E9A
  0
LINE
  5
147E9B
  8
OBJECT
 10
4133.0
 20
-3517.9999999999959073
 30
0.0
 11
4140.0
 21
-3517.9999999999959073
 31
0.0
1001
ACDBBLOCKREPETAG
1070
     1
1071
       47
1005
147E9B
  0
LINE
  5
147E9C
  8
OBJECT
 10
4140.0
 20
-3517.9999999999959073
 30
0.0
 11
4140.0
 21
-3641.9999999999959073
 31
0.0
1001
ACDBBLOCKREPETAG
1070
     1
1071
       48
1005
147E9C
  0
LINE
  5
147E9D
  8
OBJECT
 10
4140.0
 20
-3641.9999999999959073
 30
0.0
 11
4133.0
 21
-3641.9999999999959073
 31
0.0
1001
ACDBBLOCKREPETAG
1070
     1
1071
       49
1005
147E9D
  0
LINE
  5
147E9E
  8
OBJECT
 10
4133.0
 20
-3641.9999999999959073
 30
0.0
 11
4133.0
 21
-3517.9999999999959073
 31
0.0
1001
ACDBBLOCKREPETAG
1070
     1
1071
       50
1005
147E9E
  0
LINE
  5
147E9F
  8
CENTER
 10
4155.0
 20
-3579.9999999999959073
 30
0.0
 11
4080.0
 21
-3579.9999999999959073
 31
0.0
1001
ACDBBLOCKREPETAG
1070
     1
1071
       51
1005
147E9F
  0
LINE
  5
147EA0
  8
OBJECT
 10
4133.0
 20
-3520.9999999999959073
 30
0.0
 11
4097.0
 21
-3520.9999999999959073
 31
0.0
1001
ACDBBLOCKREPETAG
1070
     1
1071
       52
1005
147EA0
  0
LINE
  5
147EA1
  8
OBJECT
 10
4097.0
 20
-3520.9999999999959073
 30
0.0
 11
4097.0
 21
-3638.9999999999959073
 31
0.0
1001
ACDBBLOCKREPETAG
1070
     1
1071
       53
1005
147EA1
  0
LINE
  5
147EA2
  8
OBJECT
 10
4097.0
 20
-3638.9999999999959073
 30
0.0
 11
4133.0
 21
-3638.9999999999959073
 31
0.0
1001
ACDBBLOCKREPETAG
1070
     1
1071
       54
1005
147EA2
  0
LINE
  5
147EA3
  8
OBJECT
 10
4093.0
 20
-3525.4999999999959073
 30
0.0
 11
4086.0
 21
-3525.4999999999959073
 31
0.0
1001
ACDBBLOCKREPETAG
1070
     1
1071
       55
1005
147EA3
  0
LINE
  5
147EA4
  8
OBJECT
 10
4086.0
 20
-3634.4999999999959073
 30
0.0
 11
4093.0
 21
-3634.4999999999959073
 31
0.0
1001
ACDBBLOCKREPETAG
1070
     1
1071
       56
1005
147EA4
  0
LINE
  5
147EA5
  8
OBJECT
 10
4093.0
 20
-3634.4999999999959073
 30
0.0
 11
4093.0
 21
-3525.4999999999959073
 31
0.0
1001
ACDBBLOCKREPETAG
1070
     1
1071
       57
1005
147EA5
  0
LINE
  5
147EA6
  8
OBJECT
 10
4097.0
 20
-3520.9999999999959073
 30
0.0
 11
4093.0
 21
-3525.4999999999959073
 31
0.0
1001
ACDBBLOCKREPETAG
1070
     1
1071
       58
1005
147EA6
  0
LINE
  5
147EA7
  8
OBJECT
 10
4097.0
 20
-3638.9999999999959073
 30
0.0
 11
4093.0
 21
-3634.4999999999959073
 31
0.0
1001
ACDBBLOCKREPETAG
1070
     1
1071
       59
1005
147EA7
  0
LINE
  5
147EA8
  8
OBJECT
 10
4083.0
 20
-3517.9999999999959073
 30
0.0
 11
4080.0
 21
-3517.9999999999959073
 31
0.0
1001
ACDBBLOCKREPETAG
1070
     1
1071
       60
1005
147EA8
  0
ARC
  5
147EA9
  8
OBJECT
 10
4083.0
 20
-3520.9999999999959073
 30
0.0
 40
3.0
 50
0.0
 51
90.0
1001
ACDBBLOCKREPETAG
1070
     1
1071
       61
1005
147EA9
  0
LINE
  5
147EAA
  8
OBJECT
 10
4080.0
 20
-3641.9999999999959073
 30
0.0
 11
4083.0
 21
-3641.9999999999959073
 31
0.0
1001
ACDBBLOCKREPETAG
1070
     1
1071
       62
1005
147EAA
  0
ARC
  5
147EAB
  8
OBJECT
 10
4083.0
 20
-3638.9999999999959073
 30
0.0
 40
3.0
 50
270.0
 51
0.0
1001
ACDBBLOCKREPETAG
1070
     1
1071
       63
1005
147EAB
  0
LINE
  5
147EAC
  8
OBJECT
 10
4086.0
 20
-3638.9999999999959073
 30
0.0
 11
4086.0
 21
-3520.9999999999959073
 31
0.0
1001
ACDBBLOCKREPETAG
1070
     1
1071
       64
1005
147EAC
  0
LINE
  5
147EAD
  8
HIDDEN
 10
4088.0
 20
-3535.4999999999959073
 30
0.0
 11
4088.0
 21
-3624.4999999999959073
 31
0.0
1001
ACDBBLOCKREPETAG
1070
     1
1071
       65
1005
147EAD
  0
TEXT
  5
147EAE
  8
SLIM
 10
3894.25
 20
-4102.499999999996362
 30
0.0
 40
35.0
  1
通常枝75（3）
 41
0.75
  0
CIRCLE
  5
147EAF
  8
OBJECT
 10
3400.0
 20
-3932.9999999999968168
 30
0.0
 40
35.5
1001
ACDBBLOCKREPETAG
1070
     1
1071
       10
1005
147EAF
  0
CIRCLE
  5
147EB0
  8
OBJECT
 10
3400.0
 20
-3925.9999999999968168
 30
0.0
 40
62.0
1001
ACDBBLOCKREPETAG
1070
     1
1071
       11
1005
147EB0
  0
LINE
  5
147EB1
  8
CENTER
 10
3330.0
 20
-3932.9999999999968168
 30
0.0
 11
3470.0
 21
-3932.9999999999968168
 31
0.0
1001
ACDBBLOCKREPETAG
1070
     1
1071
       12
1005
147EB1
  0
CIRCLE
  5
147EB2
  8
OBJECT
 10
3400.0
 20
-3932.9999999999968168
 30
0.0
 40
47.0
1001
ACDBBLOCKREPETAG
1070
     1
1071
       14
1005
147EB2
  0
ARC
  5
147EB3
  8
OBJECT
 10
3400.0
 20
-3932.9999999999968168
 30
0.0
 40
55.0
 50
289.0112652601135892
 51
250.9887347398864108
1001
ACDBBLOCKREPETAG
1070
     1
1071
       15
1005
147EB3
  0
LINE
  5
147EB4
  8
OBJECT
 10
3382.0835271328328417
 20
-3984.9999999999968168
 30
0.0
 11
3417.9164728671680678
 21
-3984.9999999999968168
 31
0.0
1001
ACDBBLOCKREPETAG
1070
     1
1071
       16
1005
147EB4
  0
LINE
  5
147EB5
  8
OBJECT
 10
3133.0
 20
-3877.9999999999959073
 30
0.0
 11
3140.0
 21
-3877.9999999999959073
 31
0.0
1001
ACDBBLOCKREPETAG
1070
     1
1071
       26
1005
147EB5
  0
LINE
  5
147EB6
  8
OBJECT
 10
3140.0
 20
-3877.9999999999959073
 30
0.0
 11
3140.0
 21
-3984.9999999999968168
 31
0.0
1001
ACDBBLOCKREPETAG
1070
     1
1071
       27
1005
147EB6
  0
LINE
  5
147EB7
  8
OBJECT
 10
3133.0
 20
-3984.9999999999968168
 30
0.0
 11
3133.0
 21
-3877.9999999999959073
 31
0.0
1001
ACDBBLOCKREPETAG
1070
     1
1071
       28
1005
147EB7
  0
LINE
  5
147EB8
  8
CENTER
 10
3155.0
 20
-3932.9999999999968168
 30
0.0
 11
3071.0
 21
-3932.9999999999968168
 31
0.0
1001
ACDBBLOCKREPETAG
1070
     1
1071
       29
1005
147EB8
  0
LINE
  5
147EB9
  8
OBJECT
 10
3133.0
 20
-3880.9999999999968168
 30
0.0
 11
3097.0
 21
-3880.9999999999968168
 31
0.0
1001
ACDBBLOCKREPETAG
1070
     1
1071
       30
1005
147EB9
  0
LINE
  5
147EBA
  8
OBJECT
 10
3097.0
 20
-3880.9999999999968168
 30
0.0
 11
3097.0
 21
-3984.9999999999968168
 31
0.0
1001
ACDBBLOCKREPETAG
1070
     1
1071
       31
1005
147EBA
  0
LINE
  5
147EBB
  8
OBJECT
 10
3097.0
 20
-3984.9999999999968168
 30
0.0
 11
3140.0
 21
-3984.9999999999968168
 31
0.0
1001
ACDBBLOCKREPETAG
1070
     1
1071
       32
1005
147EBB
  0
LINE
  5
147EBC
  8
OBJECT
 10
3093.0
 20
-3885.4999999999968168
 30
0.0
 11
3086.0
 21
-3885.4999999999968168
 31
0.0
1001
ACDBBLOCKREPETAG
1070
     1
1071
       33
1005
147EBC
  0
LINE
  5
147EBD
  8
OBJECT
 10
3086.0
 20
-3980.4999999999968168
 30
0.0
 11
3093.0
 21
-3980.4999999999968168
 31
0.0
1001
ACDBBLOCKREPETAG
1070
     1
1071
       34
1005
147EBD
  0
LINE
  5
147EBE
  8
OBJECT
 10
3093.0
 20
-3980.4999999999968168
 30
0.0
 11
3093.0
 21
-3885.4999999999968168
 31
0.0
1001
ACDBBLOCKREPETAG
1070
     1
1071
       35
1005
147EBE
  0
LINE
  5
147EBF
  8
OBJECT
 10
3097.0
 20
-3880.9999999999968168
 30
0.0
 11
3093.0
 21
-3885.4999999999968168
 31
0.0
1001
ACDBBLOCKREPETAG
1070
     1
1071
       36
1005
147EBF
  0
LINE
  5
147EC0
  8
OBJECT
 10
3097.0
 20
-3984.9999999999968168
 30
0.0
 11
3093.0
 21
-3980.4999999999968168
 31
0.0
1001
ACDBBLOCKREPETAG
1070
     1
1071
       37
1005
147EC0
  0
LINE
  5
147EC1
  8
OBJECT
 10
3083.0
 20
-3863.9999999999968168
 30
0.0
 11
3080.0
 21
-3863.9999999999968168
 31
0.0
1001
ACDBBLOCKREPETAG
1070
     1
1071
       38
1005
147EC1
  0
ARC
  5
147EC2
  8
OBJECT
 10
3083.0
 20
-3866.9999999999968168
 30
0.0
 40
3.0
 50
0.0
 51
90.0
1001
ACDBBLOCKREPETAG
1070
     1
1071
       39
1005
147EC2
  0
LINE
  5
147EC3
  8
OBJECT
 10
3080.0
 20
-3987.9999999999968168
 30
0.0
 11
3083.0
 21
-3987.9999999999968168
 31
0.0
1001
ACDBBLOCKREPETAG
1070
     1
1071
       40
1005
147EC3
  0
ARC
  5
147EC4
  8
OBJECT
 10
3083.0
 20
-3984.9999999999968168
 30
0.0
 40
3.0
 50
270.0
 51
0.0
1001
ACDBBLOCKREPETAG
1070
     1
1071
       41
1005
147EC4
  0
LINE
  5
147EC5
  8
OBJECT
 10
3086.0
 20
-3984.9999999999968168
 30
0.0
 11
3086.0
 21
-3866.9999999999968168
 31
0.0
1001
ACDBBLOCKREPETAG
1070
     1
1071
       42
1005
147EC5
  0
LINE
  5
147EC6
  8
HIDDEN
 10
3088.0
 20
-3894.9999999999968168
 30
0.0
 11
3088.0
 21
-3970.9999999999968168
 31
0.0
1001
ACDBBLOCKREPETAG
1070
     1
1071
       43
1005
147EC6
  0
LINE
  5
147EC7
  8
OBJECT
 10
3133.0
 20
-3524.9999999999959073
 30
0.0
 11
3140.0
 21
-3524.9999999999959073
 31
0.0
1001
ACDBBLOCKREPETAG
1070
     1
1071
       27
1005
147EC7
  0
LINE
  5
147EC8
  8
OBJECT
 10
3140.0
 20
-3524.9999999999959073
 30
0.0
 11
3140.0
 21
-3634.9999999999959073
 31
0.0
1001
ACDBBLOCKREPETAG
1070
     1
1071
       28
1005
147EC8
  0
LINE
  5
147EC9
  8
OBJECT
 10
3140.0
 20
-3634.9999999999959073
 30
0.0
 11
3133.0
 21
-3634.9999999999959073
 31
0.0
1001
ACDBBLOCKREPETAG
1070
     1
1071
       29
1005
147EC9
  0
LINE
  5
147ECA
  8
OBJECT
 10
3133.0
 20
-3634.9999999999959073
 30
0.0
 11
3133.0
 21
-3524.9999999999959073
 31
0.0
1001
ACDBBLOCKREPETAG
1070
     1
1071
       30
1005
147ECA
  0
LINE
  5
147ECB
  8
CENTER
 10
3155.0
 20
-3579.9999999999959073
 30
0.0
 11
3080.0
 21
-3579.9999999999959073
 31
0.0
1001
ACDBBLOCKREPETAG
1070
     1
1071
       31
1005
147ECB
  0
LINE
  5
147ECC
  8
OBJECT
 10
3133.0
 20
-3527.9999999999959073
 30
0.0
 11
3097.0
 21
-3527.9999999999959073
 31
0.0
1001
ACDBBLOCKREPETAG
1070
     1
1071
       32
1005
147ECC
  0
LINE
  5
147ECD
  8
OBJECT
 10
3097.0
 20
-3527.9999999999959073
 30
0.0
 11
3097.0
 21
-3631.9999999999959073
 31
0.0
1001
ACDBBLOCKREPETAG
1070
     1
1071
       33
1005
147ECD
  0
LINE
  5
147ECE
  8
OBJECT
 10
3097.0
 20
-3631.9999999999959073
 30
0.0
 11
3133.0
 21
-3631.9999999999959073
 31
0.0
1001
ACDBBLOCKREPETAG
1070
     1
1071
       34
1005
147ECE
  0
LINE
  5
147ECF
  8
OBJECT
 10
3093.0
 20
-3532.4999999999959073
 30
0.0
 11
3086.0
 21
-3532.4999999999959073
 31
0.0
1001
ACDBBLOCKREPETAG
1070
     1
1071
       35
1005
147ECF
  0
LINE
  5
147ED0
  8
OBJECT
 10
3086.0
 20
-3627.4999999999959073
 30
0.0
 11
3093.0
 21
-3627.4999999999959073
 31
0.0
1001
ACDBBLOCKREPETAG
1070
     1
1071
       36
1005
147ED0
  0
LINE
  5
147ED1
  8
OBJECT
 10
3093.0
 20
-3627.4999999999959073
 30
0.0
 11
3093.0
 21
-3532.4999999999959073
 31
0.0
1001
ACDBBLOCKREPETAG
1070
     1
1071
       37
1005
147ED1
  0
LINE
  5
147ED2
  8
OBJECT
 10
3097.0
 20
-3527.9999999999959073
 30
0.0
 11
3093.0
 21
-3532.4999999999959073
 31
0.0
1001
ACDBBLOCKREPETAG
1070
     1
1071
       38
1005
147ED2
  0
LINE
  5
147ED3
  8
OBJECT
 10
3097.0
 20
-3631.9999999999959073
 30
0.0
 11
3093.0
 21
-3627.4999999999959073
 31
0.0
1001
ACDBBLOCKREPETAG
1070
     1
1071
       39
1005
147ED3
  0
LINE
  5
147ED4
  8
OBJECT
 10
3083.0
 20
-3517.9999999999959073
 30
0.0
 11
3080.0
 21
-3517.9999999999959073
 31
0.0
1001
ACDBBLOCKREPETAG
1070
     1
1071
       40
1005
147ED4
  0
ARC
  5
147ED5
  8
OBJECT
 10
3083.0
 20
-3520.9999999999959073
 30
0.0
 40
3.0
 50
0.0
 51
90.0
1001
ACDBBLOCKREPETAG
1070
     1
1071
       41
1005
147ED5
  0
LINE
  5
147ED6
  8
OBJECT
 10
3080.0
 20
-3641.9999999999959073
 30
0.0
 11
3083.0
 21
-3641.9999999999959073
 31
0.0
1001
ACDBBLOCKREPETAG
1070
     1
1071
       42
1005
147ED6
  0
ARC
  5
147ED7
  8
OBJECT
 10
3083.0
 20
-3638.9999999999959073
 30
0.0
 40
3.0
 50
270.0
 51
0.0
1001
ACDBBLOCKREPETAG
1070
     1
1071
       43
1005
147ED7
  0
LINE
  5
147ED8
  8
OBJECT
 10
3086.0
 20
-3638.9999999999959073
 30
0.0
 11
3086.0
 21
-3520.9999999999959073
 31
0.0
1001
ACDBBLOCKREPETAG
1070
     1
1071
       44
1005
147ED8
  0
LINE
  5
147ED9
  8
HIDDEN
 10
3088.0
 20
-3541.9999999999959073
 30
0.0
 11
3088.0
 21
-3617.9999999999959073
 31
0.0
1001
ACDBBLOCKREPETAG
1070
     1
1071
       45
1005
147ED9
  0
TEXT
  5
147EDA
  8
SLIM
 10
2894.25
 20
-4102.499999999996362
 30
0.0
 40
35.0
  1
通常枝65（2）
 41
0.75
  0
CIRCLE
  5
147EDB
  8
OBJECT
 10
2400.0
 20
-3925.9999999999968168
 30
0.0
 40
62.0
1001
ACDBBLOCKREPETAG
1070
     1
1071
        3
1005
147EDB
  0
LINE
  5
147EDC
  8
CENTER
 10
2338.0
 20
-3940.9999999999968168
 30
0.0
 11
2462.0
 21
-3940.9999999999968168
 31
0.0
1001
ACDBBLOCKREPETAG
1070
     1
1071
        4
1005
147EDC
  0
CIRCLE
  5
147EDD
  8
OBJECT
 10
2400.0
 20
-3940.9999999999968168
 30
0.0
 40
28.0
1001
ACDBBLOCKREPETAG
1070
     1
1071
        6
1005
147EDD
  0
CIRCLE
  5
147EDE
  8
OBJECT
 10
2400.0
 20
-3940.9999999999968168
 30
0.0
 40
39.0
1001
ACDBBLOCKREPETAG
1070
     1
1071
        7
1005
147EDE
  0
ARC
  5
147EDF
  8
OBJECT
 10
2400.0
 20
-3940.9999999999968168
 30
0.0
 40
47.0
 50
290.5819692114441182
 51
249.4180307885559102
1001
ACDBBLOCKREPETAG
1070
     1
1071
        8
1005
147EDF
  0
LINE
  5
147EE0
  8
OBJECT
 10
2383.4772883581431415
 20
-3984.9999999999968168
 30
0.0
 11
2416.5227116418568585
 21
-3984.9999999999968168
 31
0.0
1001
ACDBBLOCKREPETAG
1070
     1
1071
        9
1005
147EE0
  0
LINE
  5
147EE1
  8
OBJECT
 10
2133.0
 20
-3893.9999999999968168
 30
0.0
 11
2140.0
 21
-3893.9999999999968168
 31
0.0
1001
ACDBBLOCKREPETAG
1070
     1
1071
        7
1005
147EE1
  0
LINE
  5
147EE2
  8
OBJECT
 10
2140.0
 20
-3893.9999999999968168
 30
0.0
 11
2140.0
 21
-3984.9999999999968168
 31
0.0
1001
ACDBBLOCKREPETAG
1070
     1
1071
        8
1005
147EE2
  0
LINE
  5
147EE3
  8
OBJECT
 10
2133.0
 20
-3984.9999999999968168
 30
0.0
 11
2133.0
 21
-3893.9999999999968168
 31
0.0
1001
ACDBBLOCKREPETAG
1070
     1
1071
        9
1005
147EE3
  0
LINE
  5
147EE4
  8
CENTER
 10
2155.0
 20
-3940.9999999999968168
 30
0.0
 11
2071.0
 21
-3940.9999999999968168
 31
0.0
1001
ACDBBLOCKREPETAG
1070
     1
1071
       10
1005
147EE4
  0
LINE
  5
147EE5
  8
OBJECT
 10
2133.0
 20
-3896.9999999999968168
 30
0.0
 11
2097.0
 21
-3896.9999999999968168
 31
0.0
1001
ACDBBLOCKREPETAG
1070
     1
1071
       11
1005
147EE5
  0
LINE
  5
147EE6
  8
OBJECT
 10
2097.0
 20
-3896.9999999999968168
 30
0.0
 11
2097.0
 21
-3984.9999999999968168
 31
0.0
1001
ACDBBLOCKREPETAG
1070
     1
1071
       12
1005
147EE6
  0
LINE
  5
147EE7
  8
OBJECT
 10
2097.0
 20
-3984.9999999999968168
 30
0.0
 11
2140.0
 21
-3984.9999999999968168
 31
0.0
1001
ACDBBLOCKREPETAG
1070
     1
1071
       13
1005
147EE7
  0
LINE
  5
147EE8
  8
OBJECT
 10
2093.0
 20
-3901.4999999999968168
 30
0.0
 11
2086.0
 21
-3901.4999999999968168
 31
0.0
1001
ACDBBLOCKREPETAG
1070
     1
1071
       14
1005
147EE8
  0
LINE
  5
147EE9
  8
OBJECT
 10
2086.0
 20
-3980.4999999999968168
 30
0.0
 11
2093.0
 21
-3980.4999999999968168
 31
0.0
1001
ACDBBLOCKREPETAG
1070
     1
1071
       15
1005
147EE9
  0
LINE
  5
147EEA
  8
OBJECT
 10
2093.0
 20
-3980.4999999999968168
 30
0.0
 11
2093.0
 21
-3901.4999999999968168
 31
0.0
1001
ACDBBLOCKREPETAG
1070
     1
1071
       16
1005
147EEA
  0
LINE
  5
147EEB
  8
OBJECT
 10
2097.0
 20
-3896.9999999999968168
 30
0.0
 11
2093.0
 21
-3901.4999999999968168
 31
0.0
1001
ACDBBLOCKREPETAG
1070
     1
1071
       17
1005
147EEB
  0
LINE
  5
147EEC
  8
OBJECT
 10
2097.0
 20
-3984.9999999999968168
 30
0.0
 11
2093.0
 21
-3980.4999999999968168
 31
0.0
1001
ACDBBLOCKREPETAG
1070
     1
1071
       18
1005
147EEC
  0
LINE
  5
147EED
  8
OBJECT
 10
2083.0
 20
-3863.9999999999968168
 30
0.0
 11
2080.0
 21
-3863.9999999999968168
 31
0.0
1001
ACDBBLOCKREPETAG
1070
     1
1071
       19
1005
147EED
  0
ARC
  5
147EEE
  8
OBJECT
 10
2083.0
 20
-3866.9999999999968168
 30
0.0
 40
3.0
 50
0.0
 51
90.0
1001
ACDBBLOCKREPETAG
1070
     1
1071
       20
1005
147EEE
  0
LINE
  5
147EEF
  8
OBJECT
 10
2080.0
 20
-3987.9999999999968168
 30
0.0
 11
2083.0
 21
-3987.9999999999968168
 31
0.0
1001
ACDBBLOCKREPETAG
1070
     1
1071
       21
1005
147EEF
  0
ARC
  5
147EF0
  8
OBJECT
 10
2083.0
 20
-3984.9999999999968168
 30
0.0
 40
3.0
 50
270.0
 51
0.0
1001
ACDBBLOCKREPETAG
1070
     1
1071
       22
1005
147EF0
  0
LINE
  5
147EF1
  8
OBJECT
 10
2086.0
 20
-3984.9999999999968168
 30
0.0
 11
2086.0
 21
-3866.9999999999968168
 31
0.0
1001
ACDBBLOCKREPETAG
1070
     1
1071
       23
1005
147EF1
  0
LINE
  5
147EF2
  8
HIDDEN
 10
2088.0
 20
-3910.9999999999968168
 30
0.0
 11
2088.0
 21
-3970.9999999999968168
 31
0.0
1001
ACDBBLOCKREPETAG
1070
     1
1071
       24
1005
147EF2
  0
LINE
  5
147EF3
  8
OBJECT
 10
2133.0
 20
-3532.9999999999959073
 30
0.0
 11
2140.0
 21
-3532.9999999999959073
 31
0.0
1001
ACDBBLOCKREPETAG
1070
     1
1071
        7
1005
147EF3
  0
LINE
  5
147EF4
  8
OBJECT
 10
2140.0
 20
-3532.9999999999959073
 30
0.0
 11
2140.0
 21
-3626.9999999999959073
 31
0.0
1001
ACDBBLOCKREPETAG
1070
     1
1071
        8
1005
147EF4
  0
LINE
  5
147EF5
  8
OBJECT
 10
2140.0
 20
-3626.9999999999959073
 30
0.0
 11
2133.0
 21
-3626.9999999999959073
 31
0.0
1001
ACDBBLOCKREPETAG
1070
     1
1071
        9
1005
147EF5
  0
LINE
  5
147EF6
  8
OBJECT
 10
2133.0
 20
-3626.9999999999959073
 30
0.0
 11
2133.0
 21
-3532.9999999999959073
 31
0.0
1001
ACDBBLOCKREPETAG
1070
     1
1071
       10
1005
147EF6
  0
LINE
  5
147EF7
  8
CENTER
 10
2155.0
 20
-3579.9999999999959073
 30
0.0
 11
2080.0
 21
-3579.9999999999959073
 31
0.0
1001
ACDBBLOCKREPETAG
1070
     1
1071
       11
1005
147EF7
  0
LINE
  5
147EF8
  8
OBJECT
 10
2133.0
 20
-3535.9999999999959073
 30
0.0
 11
2097.0
 21
-3535.9999999999959073
 31
0.0
1001
ACDBBLOCKREPETAG
1070
     1
1071
       12
1005
147EF8
  0
LINE
  5
147EF9
  8
OBJECT
 10
2097.0
 20
-3535.9999999999959073
 30
0.0
 11
2097.0
 21
-3623.9999999999959073
 31
0.0
1001
ACDBBLOCKREPETAG
1070
     1
1071
       13
1005
147EF9
  0
LINE
  5
147EFA
  8
OBJECT
 10
2097.0
 20
-3623.9999999999959073
 30
0.0
 11
2133.0
 21
-3623.9999999999959073
 31
0.0
1001
ACDBBLOCKREPETAG
1070
     1
1071
       14
1005
147EFA
  0
LINE
  5
147EFB
  8
OBJECT
 10
2093.0
 20
-3540.4999999999959073
 30
0.0
 11
2086.0
 21
-3540.4999999999959073
 31
0.0
1001
ACDBBLOCKREPETAG
1070
     1
1071
       15
1005
147EFB
  0
LINE
  5
147EFC
  8
OBJECT
 10
2086.0
 20
-3619.4999999999959073
 30
0.0
 11
2093.0
 21
-3619.4999999999959073
 31
0.0
1001
ACDBBLOCKREPETAG
1070
     1
1071
       16
1005
147EFC
  0
LINE
  5
147EFD
  8
OBJECT
 10
2093.0
 20
-3619.4999999999959073
 30
0.0
 11
2093.0
 21
-3540.4999999999959073
 31
0.0
1001
ACDBBLOCKREPETAG
1070
     1
1071
       17
1005
147EFD
  0
LINE
  5
147EFE
  8
OBJECT
 10
2097.0
 20
-3535.9999999999959073
 30
0.0
 11
2093.0
 21
-3540.4999999999959073
 31
0.0
1001
ACDBBLOCKREPETAG
1070
     1
1071
       18
1005
147EFE
  0
LINE
  5
147EFF
  8
OBJECT
 10
2097.0
 20
-3623.9999999999959073
 30
0.0
 11
2093.0
 21
-3619.4999999999959073
 31
0.0
1001
ACDBBLOCKREPETAG
1070
     1
1071
       19
1005
147EFF
  0
LINE
  5
147F00
  8
OBJECT
 10
2083.0
 20
-3517.9999999999959073
 30
0.0
 11
2080.0
 21
-3517.9999999999959073
 31
0.0
1001
ACDBBLOCKREPETAG
1070
     1
1071
       20
1005
147F00
  0
ARC
  5
147F01
  8
OBJECT
 10
2083.0
 20
-3520.9999999999959073
 30
0.0
 40
3.0
 50
0.0
 51
90.0
1001
ACDBBLOCKREPETAG
1070
     1
1071
       21
1005
147F01
  0
LINE
  5
147F02
  8
OBJECT
 10
2080.0
 20
-3641.9999999999959073
 30
0.0
 11
2083.0
 21
-3641.9999999999959073
 31
0.0
1001
ACDBBLOCKREPETAG
1070
     1
1071
       22
1005
147F02
  0
ARC
  5
147F03
  8
OBJECT
 10
2083.0
 20
-3638.9999999999959073
 30
0.0
 40
3.0
 50
270.0
 51
0.0
1001
ACDBBLOCKREPETAG
1070
     1
1071
       23
1005
147F03
  0
LINE
  5
147F04
  8
OBJECT
 10
2086.0
 20
-3638.9999999999959073
 30
0.0
 11
2086.0
 21
-3520.9999999999959073
 31
0.0
1001
ACDBBLOCKREPETAG
1070
     1
1071
       24
1005
147F04
  0
LINE
  5
147F05
  8
HIDDEN
 10
2088.0
 20
-3549.9999999999959073
 30
0.0
 11
2088.0
 21
-3609.9999999999959073
 31
0.0
1001
ACDBBLOCKREPETAG
1070
     1
1071
       25
1005
147F05
  0
TEXT
  5
147F06
  8
SLIM
 10
1896.75
 20
-4102.499999999996362
 30
0.0
 40
35.0
  1
通常枝50（1）
 41
0.75
  0
LINE
  5
147F07
  8
SLIM
 10
11914.9999999999909051
 20
-759.4738530943469641
 30
0.0
 11
11919.4738530943395745
 21
-754.9999999999995453
 31
0.0
1001
ACAD
1010
0.0
1020
0.0
1030
0.0
1001
ACDBBLOCKREPETAG
1070
     1
1071
        0
1005
0
  0
LINE
  5
147F08
  8
SLIM
 10
11914.9999999999909051
 20
-777.434365336484575
 30
0.0
 11
11937.4343653364794591
 21
-754.9999999999995453
 31
0.0
1001
ACAD
1010
0.0
1020
0.0
1030
0.0
1001
ACDBBLOCKREPETAG
1070
     1
1071
       10
1005
147F08
  0
LINE
  5
147F09
  8
SLIM
 10
11914.9999999999909051
 20
-795.3948775786224132
 30
0.0
 11
11955.3948775786102487
 21
-754.9999999999995453
 31
0.0
1001
ACAD
1010
0.0
1020
0.0
1030
0.0
1001
ACDBBLOCKREPETAG
1070
     1
1071
       11
1005
147F09
  0
LINE
  5
147F0A
  8
SLIM
 10
11914.9999999999909051
 20
-813.3553898207601378
 30
0.0
 11
11973.3553898207501334
 21
-754.9999999999995453
 31
0.0
1001
ACAD
1010
0.0
1020
0.0
1030
0.0
1001
ACDBBLOCKREPETAG
1070
     1
1071
       12
1005
147F0A
  0
LINE
  5
147F0B
  8
SLIM
 10
11914.9999999999909051
 20
-831.3159020628977487
 30
0.0
 11
11991.315902062890018
 21
-754.9999999999995453
 31
0.0
1001
ACAD
1010
0.0
1020
0.0
1030
0.0
1001
ACDBBLOCKREPETAG
1070
     1
1071
       13
1005
147F0B
  0
LINE
  5
147F0C
  8
SLIM
 10
11915.0
 20
-849.2764143050353596
 30
0.0
 11
12009.2764143050299026
 21
-754.9999999999995453
 31
0.0
1001
ACAD
1010
0.0
1020
0.0
1030
0.0
1001
ACDBBLOCKREPETAG
1070
     1
1071
       14
1005
147F0C
  0
LINE
  5
147F0D
  8
SLIM
 10
11915.0
 20
-867.2369265471730841
 30
0.0
 11
12027.2369265471697872
 21
-754.9999999999995453
 31
0.0
1001
ACAD
1010
0.0
1020
0.0
1030
0.0
1001
ACDBBLOCKREPETAG
1070
     1
1071
       15
1005
147F0D
  0
LINE
  5
147F0E
  8
SLIM
 10
11915.0
 20
-885.1974387893109224
 30
0.0
 11
12045.1974387893096718
 21
-754.9999999999995453
 31
0.0
1001
ACAD
1010
0.0
1020
0.0
1030
0.0
1001
ACDBBLOCKREPETAG
1070
     1
1071
       16
1005
147F0E
  0
LINE
  5
147F0F
  8
SLIM
 10
11915.0
 20
-903.157951031448647
 30
0.0
 11
12063.1579510314404615
 21
-754.9999999999995453
 31
0.0
1001
ACAD
1010
0.0
1020
0.0
1030
0.0
1001
ACDBBLOCKREPETAG
1070
     1
1071
       17
1005
147F0F
  0
LINE
  5
147F10
  8
SLIM
 10
11915.0
 20
-921.1184632735862579
 30
0.0
 11
12081.1184632735803461
 21
-754.9999999999995453
 31
0.0
1001
ACAD
1010
0.0
1020
0.0
1030
0.0
1001
ACDBBLOCKREPETAG
1070
     1
1071
       18
1005
147F10
  0
LINE
  5
147F11
  8
SLIM
 10
11915.0
 20
-939.0789755157238687
 30
0.0
 11
12085.0000000000090949
 21
-769.078975515716138
 31
0.0
1001
ACAD
1010
0.0
1020
0.0
1030
0.0
1001
ACDBBLOCKREPETAG
1070
     1
1071
       19
1005
147F11
  0
LINE
  5
147F12
  8
SLIM
 10
11915.0
 20
-957.0394877578618207
 30
0.0
 11
12085.0
 21
-787.0394877578551132
 31
0.0
1001
ACAD
1010
0.0
1020
0.0
1030
0.0
1001
ACDBBLOCKREPETAG
1070
     1
1071
       20
1005
147F12
  0
LINE
  5
147F13
  8
SLIM
 10
11915.2836007495498052
 20
-974.7163992504415546
 30
0.0
 11
12085.0
 21
-804.9999999999939746
 31
0.0
1001
ACAD
1010
0.0
1020
0.0
1030
0.0
1001
ACDBBLOCKREPETAG
1070
     1
1071
       21
1005
147F13
  0
LINE
  5
147F14
  8
SLIM
 10
11917.4979104780395573
 20
-990.4626017640969167
 30
0.0
 11
12085.0
 21
-822.9605122421329497
 31
0.0
1001
ACAD
1010
0.0
1020
0.0
1030
0.0
1001
ACDBBLOCKREPETAG
1070
     1
1071
       22
1005
147F14
  0
LINE
  5
147F15
  8
SLIM
 10
11919.7122202065202146
 20
-1006.2088042777520513
 30
0.0
 11
12085.0
 21
-840.9210244842718112
 31
0.0
1001
ACAD
1010
0.0
1020
0.0
1030
0.0
1001
ACDBBLOCKREPETAG
1070
     1
1071
       23
1005
147F15
  0
LINE
  5
147F16
  8
SLIM
 10
11921.9265299350008718
 20
-1021.9550067914079818
 30
0.0
 11
12085.0
 21
-858.8815367264106726
 31
0.0
1001
ACAD
1010
0.0
1020
0.0
1030
0.0
1001
ACDBBLOCKREPETAG
1070
     1
1071
       24
1005
147F16
  0
LINE
  5
147F17
  8
SLIM
 10
11924.1408396634906239
 20
-1037.7012093050630028
 30
0.0
 11
12085.0
 21
-876.8420489685494204
 31
0.0
1001
ACAD
1010
0.0
1020
0.0
1030
0.0
1001
ACDBBLOCKREPETAG
1070
     1
1071
       25
1005
147F17
  0
LINE
  5
147F18
  8
SLIM
 10
11926.3551493919694622
 20
-1053.4474118187179101
 30
0.0
 11
12085.0
 21
-894.8025612106885092
 31
0.0
1001
ACAD
1010
0.0
1020
0.0
1030
0.0
1001
ACDBBLOCKREPETAG
1070
     1
1071
       26
1005
147F18
  0
LINE
  5
147F19
  8
SLIM
 10
11928.5694591204501194
 20
-1069.1936143323730448
 30
0.0
 11
12085.0
 21
-912.7630734528273706
 31
0.0
1001
ACAD
1010
0.0
1020
0.0
1030
0.0
1001
ACDBBLOCKREPETAG
1070
     1
1071
       27
1005
147F19
  0
LINE
  5
147F1A
  8
SLIM
 10
11930.7837688489398715
 20
-1084.939816846029089
 30
0.0
 11
12085.0
 21
-930.7235856949663457
 31
0.0
1001
ACAD
1010
0.0
1020
0.0
1030
0.0
1001
ACDBBLOCKREPETAG
1070
     1
1071
       28
1005
147F1A
  0
LINE
  5
147F1B
  8
SLIM
 10
11932.9980785774205287
 20
-1100.6860193596849058
 30
0.0
 11
12085.0
 21
-948.6840979371052072
 31
0.0
1001
ACAD
1010
0.0
1020
0.0
1030
0.0
1001
ACDBBLOCKREPETAG
1070
     1
1071
       29
1005
147F1B
  0
LINE
  5
147F1C
  8
SLIM
 10
11932.9999999999909051
 20
-1118.6446101792510035
 30
0.0
 11
12085.0
 21
-966.6446101792440686
 31
0.0
1001
ACAD
1010
0.0
1020
0.0
1030
0.0
1001
ACDBBLOCKREPETAG
1070
     1
1071
       30
1005
147F1C
  0
LINE
  5
147F1D
  8
SLIM
 10
11932.9999999999909051
 20
-1136.6051224213899786
 30
0.0
 11
12083.051837154360328
 21
-986.553285267016463
 31
0.0
1001
ACAD
1010
0.0
1020
0.0
1030
0.0
1001
ACDBBLOCKREPETAG
1070
     1
1071
       31
1005
147F1D
  0
LINE
  5
147F1E
  8
SLIM
 10
11942.5656346635205409
 20
-1144.9999999999959073
 30
0.0
 11
12080.1128442420194915
 21
-1007.4527904215040053
 31
0.0
1001
ACAD
1010
0.0
1020
0.0
1030
0.0
1001
ACDBBLOCKREPETAG
1070
     1
1071
       32
1005
147F1E
  0
LINE
  5
147F1F
  8
SLIM
 10
11960.5261469056604255
 20
-1144.9999999999959073
 30
0.0
 11
12077.1738513296695601
 21
-1028.3522955759910928
 31
0.0
1001
ACAD
1010
0.0
1020
0.0
1030
0.0
1001
ACDBBLOCKREPETAG
1070
     1
1071
       33
1005
147F1F
  0
LINE
  5
147F20
  8
SLIM
 10
11978.4866591478003102
 20
-1144.9999999999970441
 30
0.0
 11
12074.2348584173196286
 21
-1049.251800730477953
 31
0.0
1001
ACAD
1010
0.0
1020
0.0
1030
0.0
1001
ACDBBLOCKREPETAG
1070
     1
1071
       34
1005
147F20
  0
LINE
  5
147F21
  8
SLIM
 10
11996.4471713899401948
 20
-1144.9999999999979536
 30
0.0
 11
12071.2958655049696972
 21
-1070.1513058849659501
 31
0.0
1001
ACAD
1010
0.0
1020
0.0
1030
0.0
1001
ACDBBLOCKREPETAG
1070
     1
1071
       35
1005
147F21
  0
LINE
  5
147F22
  8
SLIM
 10
12014.4076836320800794
 20
-1144.9999999999979536
 30
0.0
 11
12068.3568725926197658
 21
-1091.0508110394530377
 31
0.0
1001
ACAD
1010
0.0
1020
0.0
1030
0.0
1001
ACDBBLOCKREPETAG
1070
     1
1071
       36
1005
147F22
  0
LINE
  5
147F23
  8
SLIM
 10
12032.3681958742108691
 20
-1144.9999999999979536
 30
0.0
 11
12067.0000000000090949
 21
-1110.368195874201092
 31
0.0
1001
ACAD
1010
0.0
1020
0.0
1030
0.0
1001
ACDBBLOCKREPETAG
1070
     1
1071
       37
1005
147F23
  0
LINE
  5
147F24
  8
SLIM
 10
12050.3287081163507537
 20
-1144.9999999999990905
 30
0.0
 11
12067.0000000000090949
 21
-1128.3287081163400671
 31
0.0
1001
ACAD
1010
0.0
1020
0.0
1030
0.0
1001
ACDBBLOCKREPETAG
1070
     1
1071
       38
1005
147F24
  0
LINE
  5
147F25
  8
OBJECT
 10
11932.9999999999909051
 20
-1144.9999999999959073
 30
0.0
 11
12067.0000000000090949
 21
-1144.9999999999990905
 31
0.0
1001
ACDBBLOCKREPETAG
1070
     1
1071
        1
1005
147F25
  0
LINE
  5
147F26
  8
OBJECT
 10
11914.9999999999909051
 20
-754.9999999999995453
 30
0.0
 11
11915.0
 21
-972.6996828091409952
 31
0.0
1001
ACDBBLOCKREPETAG
1070
     1
1071
        2
1005
147F26
  0
LINE
  5
147F27
  8
OBJECT
 10
12085.0000000000090949
 20
-754.9999999999995453
 30
0.0
 11
12085.0
 21
-972.6996828091719181
 31
0.0
1001
ACDBBLOCKREPETAG
1070
     1
1071
        3
1005
147F27
  0
LINE
  5
147F28
  8
OBJECT
 10
11915.0
 20
-972.6996828091409952
 30
0.0
 11
11932.9999999999909051
 21
-1100.6996828090809686
 31
0.0
1001
ACDBBLOCKREPETAG
1070
     1
1071
        4
1005
147F28
  0
LINE
  5
147F29
  8
OBJECT
 10
12067.0000000000090949
 20
-1100.6996828091280349
 30
0.0
 11
12085.0
 21
-972.6996828091719181
 31
0.0
1001
ACDBBLOCKREPETAG
1070
     1
1071
        5
1005
147F29
  0
LINE
  5
147F2A
  8
OBJECT
 10
12085.0000000000090949
 20
-754.9999999999995453
 30
0.0
 11
11914.9999999999909051
 21
-754.9999999999995453
 31
0.0
1001
ACDBBLOCKREPETAG
1070
     1
1071
        6
1005
147F2A
  0
LINE
  5
147F2B
  8
OBJECT
 10
11932.9999999999909051
 20
-1100.6996828090809686
 30
0.0
 11
11932.9999999999909051
 21
-1144.9999999999959073
 31
0.0
1001
ACDBBLOCKREPETAG
1070
     1
1071
        8
1005
147F2B
  0
LINE
  5
147F2C
  8
OBJECT
 10
12067.0000000000090949
 20
-1100.6996828091280349
 30
0.0
 11
12067.0000000000090949
 21
-1144.9999999999990905
 31
0.0
1001
ACDBBLOCKREPETAG
1070
     1
1071
        9
1005
147F2C
  0
LINE
  5
147F2D
  8
SLIM
 10
9914.999999999992724
 20
-759.4738530943469641
 30
0.0
 11
9919.4738530943395745
 21
-754.9999999999995453
 31
0.0
1001
ACAD
1010
0.0
1020
0.0
1030
0.0
1001
ACDBBLOCKREPETAG
1070
     1
1071
        0
1005
0
  0
LINE
  5
147F2E
  8
SLIM
 10
9914.999999999992724
 20
-777.434365336484575
 30
0.0
 11
9937.4343653364794591
 21
-754.9999999999995453
 31
0.0
1001
ACAD
1010
0.0
1020
0.0
1030
0.0
1001
ACDBBLOCKREPETAG
1070
     1
1071
       10
1005
147F2E
  0
LINE
  5
147F2F
  8
SLIM
 10
9914.999999999994543
 20
-795.3948775786224132
 30
0.0
 11
9955.3948775786193437
 21
-754.9999999999995453
 31
0.0
1001
ACAD
1010
0.0
1020
0.0
1030
0.0
1001
ACDBBLOCKREPETAG
1070
     1
1071
       11
1005
147F2F
  0
LINE
  5
147F30
  8
SLIM
 10
9914.999999999994543
 20
-813.3553898207601378
 30
0.0
 11
9973.3553898207555903
 21
-754.9999999999995453
 31
0.0
1001
ACAD
1010
0.0
1020
0.0
1030
0.0
1001
ACDBBLOCKREPETAG
1070
     1
1071
       12
1005
147F30
  0
LINE
  5
147F31
  8
SLIM
 10
9914.999999999994543
 20
-831.3159020628977487
 30
0.0
 11
9991.315902062893656
 21
-754.9999999999995453
 31
0.0
1001
ACAD
1010
0.0
1020
0.0
1030
0.0
1001
ACDBBLOCKREPETAG
1070
     1
1071
       13
1005
147F31
  0
LINE
  5
147F32
  8
SLIM
 10
9914.999999999996362
 20
-849.2764143050353596
 30
0.0
 11
10009.2764143050299026
 21
-754.9999999999995453
 31
0.0
1001
ACAD
1010
0.0
1020
0.0
1030
0.0
1001
ACDBBLOCKREPETAG
1070
     1
1071
       14
1005
147F32
  0
LINE
  5
147F33
  8
SLIM
 10
9914.999999999996362
 20
-867.2369265471730841
 30
0.0
 11
10027.2369265471697872
 21
-754.9999999999995453
 31
0.0
1001
ACAD
1010
0.0
1020
0.0
1030
0.0
1001
ACDBBLOCKREPETAG
1070
     1
1071
       15
1005
147F33
  0
LINE
  5
147F34
  8
SLIM
 10
9914.999999999996362
 20
-885.1974387893109224
 30
0.0
 11
10045.1974387893096718
 21
-754.9999999999995453
 31
0.0
1001
ACAD
1010
0.0
1020
0.0
1030
0.0
1001
ACDBBLOCKREPETAG
1070
     1
1071
       16
1005
147F34
  0
LINE
  5
147F35
  8
SLIM
 10
9914.999999999998181
 20
-903.157951031448647
 30
0.0
 11
10063.1579510314404615
 21
-754.9999999999995453
 31
0.0
1001
ACAD
1010
0.0
1020
0.0
1030
0.0
1001
ACDBBLOCKREPETAG
1070
     1
1071
       17
1005
147F35
  0
LINE
  5
147F36
  8
SLIM
 10
9914.999999999998181
 20
-921.1184632735862579
 30
0.0
 11
10081.1184632735803461
 21
-754.9999999999995453
 31
0.0
1001
ACAD
1010
0.0
1020
0.0
1030
0.0
1001
ACDBBLOCKREPETAG
1070
     1
1071
       18
1005
147F36
  0
LINE
  5
147F37
  8
SLIM
 10
9914.999999999998181
 20
-939.0789755157238687
 30
0.0
 11
10085.0000000000090949
 21
-769.078975515716138
 31
0.0
1001
ACAD
1010
0.0
1020
0.0
1030
0.0
1001
ACDBBLOCKREPETAG
1070
     1
1071
       19
1005
147F37
  0
LINE
  5
147F38
  8
SLIM
 10
9915.0
 20
-957.0394877578618207
 30
0.0
 11
10085.0
 21
-787.0394877578551132
 31
0.0
1001
ACAD
1010
0.0
1020
0.0
1030
0.0
1001
ACDBBLOCKREPETAG
1070
     1
1071
       20
1005
147F38
  0
LINE
  5
147F39
  8
SLIM
 10
9915.2836007495589001
 20
-974.7163992504415546
 30
0.0
 11
10085.0
 21
-804.9999999999939746
 31
0.0
1001
ACAD
1010
0.0
1020
0.0
1030
0.0
1001
ACDBBLOCKREPETAG
1070
     1
1071
       21
1005
147F39
  0
LINE
  5
147F3A
  8
SLIM
 10
9917.4979104780413763
 20
-990.4626017640969167
 30
0.0
 11
10085.0
 21
-822.9605122421329497
 31
0.0
1001
ACAD
1010
0.0
1020
0.0
1030
0.0
1001
ACDBBLOCKREPETAG
1070
     1
1071
       22
1005
147F3A
  0
LINE
  5
147F3B
  8
SLIM
 10
9919.7122202065256715
 20
-1006.2088042777520513
 30
0.0
 11
10085.0
 21
-840.9210244842718112
 31
0.0
1001
ACAD
1010
0.0
1020
0.0
1030
0.0
1001
ACDBBLOCKREPETAG
1070
     1
1071
       23
1005
147F3B
  0
LINE
  5
147F3C
  8
SLIM
 10
9921.9265299350063287
 20
-1021.9550067914079818
 30
0.0
 11
10085.0
 21
-858.8815367264106726
 31
0.0
1001
ACAD
1010
0.0
1020
0.0
1030
0.0
1001
ACDBBLOCKREPETAG
1070
     1
1071
       24
1005
147F3C
  0
LINE
  5
147F3D
  8
SLIM
 10
9924.1408396634906239
 20
-1037.7012093050630028
 30
0.0
 11
10085.0
 21
-876.8420489685494204
 31
0.0
1001
ACAD
1010
0.0
1020
0.0
1030
0.0
1001
ACDBBLOCKREPETAG
1070
     1
1071
       25
1005
147F3D
  0
LINE
  5
147F3E
  8
SLIM
 10
9926.3551493919731001
 20
-1053.4474118187179101
 30
0.0
 11
10085.0
 21
-894.8025612106885092
 31
0.0
1001
ACAD
1010
0.0
1020
0.0
1030
0.0
1001
ACDBBLOCKREPETAG
1070
     1
1071
       26
1005
147F3E
  0
LINE
  5
147F3F
  8
SLIM
 10
9928.5694591204555763
 20
-1069.1936143323730448
 30
0.0
 11
10085.0
 21
-912.7630734528273706
 31
0.0
1001
ACAD
1010
0.0
1020
0.0
1030
0.0
1001
ACDBBLOCKREPETAG
1070
     1
1071
       27
1005
147F3F
  0
LINE
  5
147F40
  8
SLIM
 10
9930.7837688489398715
 20
-1084.939816846029089
 30
0.0
 11
10085.0
 21
-930.7235856949663457
 31
0.0
1001
ACAD
1010
0.0
1020
0.0
1030
0.0
1001
ACDBBLOCKREPETAG
1070
     1
1071
       28
1005
147F40
  0
LINE
  5
147F41
  8
SLIM
 10
9932.9980785774205287
 20
-1100.6860193596849058
 30
0.0
 11
10085.0
 21
-948.6840979371052072
 31
0.0
1001
ACAD
1010
0.0
1020
0.0
1030
0.0
1001
ACDBBLOCKREPETAG
1070
     1
1071
       29
1005
147F41
  0
LINE
  5
147F42
  8
SLIM
 10
9932.999999999992724
 20
-1118.6446101792510035
 30
0.0
 11
10085.0
 21
-966.6446101792440686
 31
0.0
1001
ACAD
1010
0.0
1020
0.0
1030
0.0
1001
ACDBBLOCKREPETAG
1070
     1
1071
       30
1005
147F42
  0
LINE
  5
147F43
  8
SLIM
 10
9932.999999999992724
 20
-1136.6051224213899786
 30
0.0
 11
10083.051837154360328
 21
-986.553285267016463
 31
0.0
1001
ACAD
1010
0.0
1020
0.0
1030
0.0
1001
ACDBBLOCKREPETAG
1070
     1
1071
       31
1005
147F43
  0
LINE
  5
147F44
  8
SLIM
 10
9942.5656346635241789
 20
-1144.9999999999959073
 30
0.0
 11
10080.1128442420103966
 21
-1007.4527904215040053
 31
0.0
1001
ACAD
1010
0.0
1020
0.0
1030
0.0
1001
ACDBBLOCKREPETAG
1070
     1
1071
       32
1005
147F44
  0
LINE
  5
147F45
  8
SLIM
 10
9960.5261469056640635
 20
-1144.9999999999959073
 30
0.0
 11
10077.1738513296695601
 21
-1028.3522955759910928
 31
0.0
1001
ACAD
1010
0.0
1020
0.0
1030
0.0
1001
ACDBBLOCKREPETAG
1070
     1
1071
       33
1005
147F45
  0
LINE
  5
147F46
  8
SLIM
 10
9978.4866591478003102
 20
-1144.9999999999970441
 30
0.0
 11
10074.2348584173196286
 21
-1049.251800730477953
 31
0.0
1001
ACAD
1010
0.0
1020
0.0
1030
0.0
1001
ACDBBLOCKREPETAG
1070
     1
1071
       34
1005
147F46
  0
LINE
  5
147F47
  8
SLIM
 10
9996.4471713899383758
 20
-1144.9999999999979536
 30
0.0
 11
10071.2958655049696972
 21
-1070.1513058849659501
 31
0.0
1001
ACAD
1010
0.0
1020
0.0
1030
0.0
1001
ACDBBLOCKREPETAG
1070
     1
1071
       35
1005
147F47
  0
LINE
  5
147F48
  8
SLIM
 10
10014.4076836320691655
 20
-1144.9999999999979536
 30
0.0
 11
10068.3568725926197658
 21
-1091.0508110394530377
 31
0.0
1001
ACAD
1010
0.0
1020
0.0
1030
0.0
1001
ACDBBLOCKREPETAG
1070
     1
1071
       36
1005
147F48
  0
LINE
  5
147F49
  8
SLIM
 10
10032.3681958742108691
 20
-1144.9999999999979536
 30
0.0
 11
10067.0000000000090949
 21
-1110.368195874201092
 31
0.0
1001
ACAD
1010
0.0
1020
0.0
1030
0.0
1001
ACDBBLOCKREPETAG
1070
     1
1071
       37
1005
147F49
  0
LINE
  5
147F4A
  8
SLIM
 10
10050.3287081163507537
 20
-1144.9999999999990905
 30
0.0
 11
10067.0000000000090949
 21
-1128.3287081163400671
 31
0.0
1001
ACAD
1010
0.0
1020
0.0
1030
0.0
1001
ACDBBLOCKREPETAG
1070
     1
1071
       38
1005
147F4A
  0
LINE
  5
147F4B
  8
OBJECT
 10
9932.999999999992724
 20
-1144.9999999999959073
 30
0.0
 11
10067.0000000000090949
 21
-1144.9999999999990905
 31
0.0
1001
ACDBBLOCKREPETAG
1070
     1
1071
        1
1005
147F4B
  0
LINE
  5
147F4C
  8
OBJECT
 10
9914.999999999992724
 20
-754.9999999999995453
 30
0.0
 11
9915.0
 21
-972.6996828091409952
 31
0.0
1001
ACDBBLOCKREPETAG
1070
     1
1071
        2
1005
147F4C
  0
LINE
  5
147F4D
  8
OBJECT
 10
10085.0000000000090949
 20
-754.9999999999995453
 30
0.0
 11
10085.0
 21
-972.6996828091719181
 31
0.0
1001
ACDBBLOCKREPETAG
1070
     1
1071
        3
1005
147F4D
  0
LINE
  5
147F4E
  8
OBJECT
 10
9915.0
 20
-972.6996828091409952
 30
0.0
 11
9932.999999999992724
 21
-1100.6996828090809686
 31
0.0
1001
ACDBBLOCKREPETAG
1070
     1
1071
        4
1005
147F4E
  0
LINE
  5
147F4F
  8
OBJECT
 10
10067.0000000000090949
 20
-1100.6996828091280349
 30
0.0
 11
10085.0
 21
-972.6996828091719181
 31
0.0
1001
ACDBBLOCKREPETAG
1070
     1
1071
        5
1005
147F4F
  0
LINE
  5
147F50
  8
OBJECT
 10
10085.0000000000090949
 20
-754.9999999999995453
 30
0.0
 11
9914.999999999992724
 21
-754.9999999999995453
 31
0.0
1001
ACDBBLOCKREPETAG
1070
     1
1071
        6
1005
147F50
  0
LINE
  5
147F51
  8
OBJECT
 10
9932.999999999992724
 20
-1100.6996828090809686
 30
0.0
 11
9932.999999999992724
 21
-1144.9999999999959073
 31
0.0
1001
ACDBBLOCKREPETAG
1070
     1
1071
        8
1005
147F51
  0
LINE
  5
147F52
  8
OBJECT
 10
10067.0000000000090949
 20
-1100.6996828091280349
 30
0.0
 11
10067.0000000000090949
 21
-1144.9999999999990905
 31
0.0
1001
ACDBBLOCKREPETAG
1070
     1
1071
        9
1005
147F52
  0
LINE
  5
147F53
  8
SLIM
 10
7914.999999999992724
 20
-759.4738530943469641
 30
0.0
 11
7919.4738530943413934
 21
-754.9999999999995453
 31
0.0
1001
ACAD
1010
0.0
1020
0.0
1030
0.0
1001
ACDBBLOCKREPETAG
1070
     1
1071
        0
1005
0
  0
LINE
  5
147F54
  8
SLIM
 10
7914.999999999992724
 20
-777.434365336484575
 30
0.0
 11
7937.4343653364776401
 21
-754.9999999999995453
 31
0.0
1001
ACAD
1010
0.0
1020
0.0
1030
0.0
1001
ACDBBLOCKREPETAG
1070
     1
1071
       11
1005
147F54
  0
LINE
  5
147F55
  8
SLIM
 10
7914.999999999992724
 20
-795.3948775786224132
 30
0.0
 11
7955.3948775786157057
 21
-754.9999999999995453
 31
0.0
1001
ACAD
1010
0.0
1020
0.0
1030
0.0
1001
ACDBBLOCKREPETAG
1070
     1
1071
       12
1005
147F55
  0
LINE
  5
147F56
  8
SLIM
 10
7914.9999999999954525
 20
-813.3553898207601378
 30
0.0
 11
7973.3553898207555903
 21
-754.9999999999995453
 31
0.0
1001
ACAD
1010
0.0
1020
0.0
1030
0.0
1001
ACDBBLOCKREPETAG
1070
     1
1071
       13
1005
147F56
  0
LINE
  5
147F57
  8
SLIM
 10
7914.999999999996362
 20
-831.3159020628977487
 30
0.0
 11
7991.3159020628927465
 21
-754.9999999999995453
 31
0.0
1001
ACAD
1010
0.0
1020
0.0
1030
0.0
1001
ACDBBLOCKREPETAG
1070
     1
1071
       14
1005
147F57
  0
LINE
  5
147F58
  8
SLIM
 10
7914.999999999996362
 20
-849.2764143050355869
 30
0.0
 11
8009.2764143050317216
 21
-754.9999999999995453
 31
0.0
1001
ACAD
1010
0.0
1020
0.0
1030
0.0
1001
ACDBBLOCKREPETAG
1070
     1
1071
       15
1005
147F58
  0
LINE
  5
147F59
  8
SLIM
 10
7914.999999999996362
 20
-867.2369265471730841
 30
0.0
 11
8027.2369265471688777
 21
-754.9999999999995453
 31
0.0
1001
ACAD
1010
0.0
1020
0.0
1030
0.0
1001
ACDBBLOCKREPETAG
1070
     1
1071
       16
1005
147F59
  0
LINE
  5
147F5A
  8
SLIM
 10
7914.999999999998181
 20
-885.1974387893109224
 30
0.0
 11
8045.1974387893078529
 21
-754.9999999999995453
 31
0.0
1001
ACAD
1010
0.0
1020
0.0
1030
0.0
1001
ACDBBLOCKREPETAG
1070
     1
1071
       17
1005
147F5A
  0
LINE
  5
147F5B
  8
SLIM
 10
7914.999999999998181
 20
-903.157951031448647
 30
0.0
 11
8063.157951031446828
 21
-754.9999999999995453
 31
0.0
1001
ACAD
1010
0.0
1020
0.0
1030
0.0
1001
ACDBBLOCKREPETAG
1070
     1
1071
       18
1005
147F5B
  0
LINE
  5
147F5C
  8
SLIM
 10
7914.999999999998181
 20
-921.1184632735862579
 30
0.0
 11
8081.1184632735839841
 21
-754.9999999999995453
 31
0.0
1001
ACAD
1010
0.0
1020
0.0
1030
0.0
1001
ACDBBLOCKREPETAG
1070
     1
1071
       19
1005
147F5C
  0
LINE
  5
147F5D
  8
SLIM
 10
7914.9999999999990905
 20
-939.0789755157238687
 30
0.0
 11
8085.000000000007276
 21
-769.078975515716138
 31
0.0
1001
ACAD
1010
0.0
1020
0.0
1030
0.0
1001
ACDBBLOCKREPETAG
1070
     1
1071
       20
1005
147F5D
  0
LINE
  5
147F5E
  8
SLIM
 10
7914.9999999999990905
 20
-957.0394877578618207
 30
0.0
 11
8085.0000000000063665
 21
-787.0394877578549995
 31
0.0
1001
ACAD
1010
0.0
1020
0.0
1030
0.0
1001
ACDBBLOCKREPETAG
1070
     1
1071
       21
1005
147F5E
  0
LINE
  5
147F5F
  8
SLIM
 10
7915.2836007495579906
 20
-974.7163992504415546
 30
0.0
 11
8085.0000000000063665
 21
-804.9999999999939746
 31
0.0
1001
ACAD
1010
0.0
1020
0.0
1030
0.0
1001
ACDBBLOCKREPETAG
1070
     1
1071
       22
1005
147F5F
  0
LINE
  5
147F60
  8
SLIM
 10
7917.4979104780422858
 20
-990.4626017640969167
 30
0.0
 11
8085.0000000000063665
 21
-822.9605122421329497
 31
0.0
1001
ACAD
1010
0.0
1020
0.0
1030
0.0
1001
ACDBBLOCKREPETAG
1070
     1
1071
       23
1005
147F60
  0
LINE
  5
147F61
  8
SLIM
 10
7919.7122202065238525
 20
-1006.2088042777520513
 30
0.0
 11
8085.0000000000063665
 21
-840.9210244842718112
 31
0.0
1001
ACAD
1010
0.0
1020
0.0
1030
0.0
1001
ACDBBLOCKREPETAG
1070
     1
1071
       24
1005
147F61
  0
LINE
  5
147F62
  8
SLIM
 10
7921.9265299350072382
 20
-1021.9550067914069587
 30
0.0
 11
8085.000000000003638
 21
-858.8815367264106726
 31
0.0
1001
ACAD
1010
0.0
1020
0.0
1030
0.0
1001
ACDBBLOCKREPETAG
1070
     1
1071
       25
1005
147F62
  0
LINE
  5
147F63
  8
SLIM
 10
7924.1408396634897144
 20
-1037.7012093050630028
 30
0.0
 11
8085.000000000003638
 21
-876.8420489685494204
 31
0.0
1001
ACAD
1010
0.0
1020
0.0
1030
0.0
1001
ACDBBLOCKREPETAG
1070
     1
1071
       26
1005
147F63
  0
LINE
  5
147F64
  8
SLIM
 10
7926.3551493919731001
 20
-1053.4474118187179101
 30
0.0
 11
8085.000000000001819
 21
-894.8025612106885092
 31
0.0
1001
ACAD
1010
0.0
1020
0.0
1030
0.0
1001
ACDBBLOCKREPETAG
1070
     1
1071
       27
1005
147F64
  0
LINE
  5
147F65
  8
SLIM
 10
7928.5694591204555763
 20
-1069.1936143323730448
 30
0.0
 11
8085.000000000001819
 21
-912.7630734528273706
 31
0.0
1001
ACAD
1010
0.0
1020
0.0
1030
0.0
1001
ACDBBLOCKREPETAG
1070
     1
1071
       28
1005
147F65
  0
LINE
  5
147F66
  8
SLIM
 10
7930.783768848938962
 20
-1084.9398168460279521
 30
0.0
 11
8085.000000000001819
 21
-930.7235856949661184
 31
0.0
1001
ACAD
1010
0.0
1020
0.0
1030
0.0
1001
ACDBBLOCKREPETAG
1070
     1
1071
       29
1005
147F66
  0
LINE
  5
147F67
  8
SLIM
 10
7932.9980785774232572
 20
-1100.6860193596839963
 30
0.0
 11
8085.0
 21
-948.6840979371052072
 31
0.0
1001
ACAD
1010
0.0
1020
0.0
1030
0.0
1001
ACDBBLOCKREPETAG
1070
     1
1071
       30
1005
147F67
  0
LINE
  5
147F68
  8
SLIM
 10
7943.0
 20
-1108.6446101792439549
 30
0.0
 11
7946.6446101792471381
 21
-1104.9999999999970441
 31
0.0
1001
ACAD
1010
0.0
1020
0.0
1030
0.0
1001
ACDBBLOCKREPETAG
1070
     1
1071
       31
1005
147F68
  0
LINE
  5
147F69
  8
SLIM
 10
7946.6446101792471381
 20
-1104.9999999999970441
 30
0.0
 11
8085.0
 21
-966.6446101792440686
 31
0.0
1001
ACAD
1010
0.0
1020
0.0
1030
0.0
1001
ACDBBLOCKREPETAG
1070
     1
1071
       32
1005
147F69
  0
LINE
  5
147F6A
  8
SLIM
 10
7944.6051224213861133
 20
-1124.9999999999979536
 30
0.0
 11
7964.6051224213852038
 21
-1104.9999999999970441
 31
0.0
1001
ACAD
1010
0.0
1020
0.0
1030
0.0
1001
ACDBBLOCKREPETAG
1070
     1
1071
       33
1005
147F6A
  0
LINE
  5
147F6B
  8
SLIM
 10
7964.6051224213852038
 20
-1104.9999999999970441
 30
0.0
 11
8083.051837154365785
 21
-986.5532852670170314
 31
0.0
1001
ACAD
1010
0.0
1020
0.0
1030
0.0
1001
ACDBBLOCKREPETAG
1070
     1
1071
       34
1005
147F6B
  0
LINE
  5
147F6C
  8
SLIM
 10
7962.5656346635241789
 20
-1124.9999999999979536
 30
0.0
 11
7982.5656346635223599
 21
-1104.9999999999970441
 31
0.0
1001
ACAD
1010
0.0
1020
0.0
1030
0.0
1001
ACDBBLOCKREPETAG
1070
     1
1071
       35
1005
147F6C
  0
LINE
  5
147F6D
  8
SLIM
 10
7982.5656346635223599
 20
-1104.9999999999970441
 30
0.0
 11
8080.1128442420158535
 21
-1007.4527904215050285
 31
0.0
1001
ACAD
1010
0.0
1020
0.0
1030
0.0
1001
ACDBBLOCKREPETAG
1070
     1
1071
       36
1005
147F6D
  0
LINE
  5
147F6E
  8
SLIM
 10
7980.5261469056622445
 20
-1124.9999999999979536
 30
0.0
 11
8000.526146905661335
 21
-1104.9999999999970441
 31
0.0
1001
ACAD
1010
0.0
1020
0.0
1030
0.0
1001
ACDBBLOCKREPETAG
1070
     1
1071
       37
1005
147F6E
  0
LINE
  5
147F6F
  8
SLIM
 10
8000.526146905661335
 20
-1104.9999999999970441
 30
0.0
 11
8077.1738513296659221
 21
-1028.3522955759929118
 31
0.0
1001
ACAD
1010
0.0
1020
0.0
1030
0.0
1001
ACDBBLOCKREPETAG
1070
     1
1071
       38
1005
147F6F
  0
LINE
  5
147F70
  8
SLIM
 10
7998.4866591478003102
 20
-1124.9999999999979536
 30
0.0
 11
8018.4866591478003102
 21
-1104.9999999999970441
 31
0.0
1001
ACAD
1010
0.0
1020
0.0
1030
0.0
1001
ACDBBLOCKREPETAG
1070
     1
1071
       39
1005
147F70
  0
LINE
  5
147F71
  8
SLIM
 10
8018.4866591478003102
 20
-1104.9999999999970441
 30
0.0
 11
8074.2348584173159907
 21
-1049.2518007304809089
 31
0.0
1001
ACAD
1010
0.0
1020
0.0
1030
0.0
1001
ACDBBLOCKREPETAG
1070
     1
1071
       40
1005
147F71
  0
LINE
  5
147F72
  8
SLIM
 10
8016.4471713899392853
 20
-1124.9999999999979536
 30
0.0
 11
8036.4471713899392853
 21
-1104.9999999999970441
 31
0.0
1001
ACAD
1010
0.0
1020
0.0
1030
0.0
1001
ACDBBLOCKREPETAG
1070
     1
1071
       41
1005
147F72
  0
LINE
  5
147F73
  8
SLIM
 10
8036.4471713899392853
 20
-1104.9999999999970441
 30
0.0
 11
8071.2958655049678782
 21
-1070.151305884968906
 31
0.0
1001
ACAD
1010
0.0
1020
0.0
1030
0.0
1001
ACDBBLOCKREPETAG
1070
     1
1071
       42
1005
147F73
  0
LINE
  5
147F74
  8
SLIM
 10
8034.4076836320773509
 20
-1124.9999999999979536
 30
0.0
 11
8054.4076836320764414
 21
-1104.9999999999970441
 31
0.0
1001
ACAD
1010
0.0
1020
0.0
1030
0.0
1001
ACDBBLOCKREPETAG
1070
     1
1071
       43
1005
147F74
  0
LINE
  5
147F75
  8
SLIM
 10
8054.4076836320764414
 20
-1104.9999999999970441
 30
0.0
 11
8068.3568725926179468
 21
-1091.050811039456903
 31
0.0
1001
ACAD
1010
0.0
1020
0.0
1030
0.0
1001
ACDBBLOCKREPETAG
1070
     1
1071
       44
1005
147F75
  0
LINE
  5
147F76
  8
SLIM
 10
8052.3681958742135976
 20
-1124.9999999999979536
 30
0.0
 11
8057.0
 21
-1120.3681958742120059
 31
0.0
1001
ACAD
1010
0.0
1020
0.0
1030
0.0
1001
ACDBBLOCKREPETAG
1070
     1
1071
       45
1005
147F76
  0
LINE
  5
147F77
  8
OBJECT
 10
7943.0
 20
-1124.9999999999979536
 30
0.0
 11
8057.0
 21
-1124.9999999999979536
 31
0.0
1001
ACDBBLOCKREPETAG
1070
     1
1071
        1
1005
147F77
  0
LINE
  5
147F78
  8
OBJECT
 10
7933.6047321049663879
 20
-1104.9999999999970441
 30
0.0
 11
8066.3952678950408881
 21
-1104.9999999999970441
 31
0.0
1001
ACDBBLOCKREPETAG
1070
     1
1071
        2
1005
147F78
  0
LINE
  5
147F79
  8
OBJECT
 10
7943.0
 20
-1124.9999999999979536
 30
0.0
 11
7943.0
 21
-1104.9999999999970441
 31
0.0
1001
ACDBBLOCKREPETAG
1070
     1
1071
        3
1005
147F79
  0
LINE
  5
147F7A
  8
OBJECT
 10
8057.0
 20
-1124.9999999999979536
 30
0.0
 11
8057.0
 21
-1104.9999999999970441
 31
0.0
1001
ACDBBLOCKREPETAG
1070
     1
1071
        4
1005
147F7A
  0
LINE
  5
147F7B
  8
OBJECT
 10
7914.999999999992724
 20
-754.9999999999995453
 30
0.0
 11
7915.0
 21
-972.6996828091409952
 31
0.0
1001
ACDBBLOCKREPETAG
1070
     1
1071
        5
1005
147F7B
  0
LINE
  5
147F7C
  8
OBJECT
 10
8085.000000000007276
 20
-754.9999999999995453
 30
0.0
 11
8085.0
 21
-972.6996828091719181
 31
0.0
1001
ACDBBLOCKREPETAG
1070
     1
1071
        6
1005
147F7C
  0
LINE
  5
147F7D
  8
OBJECT
 10
7915.0
 20
-972.6996828091409952
 30
0.0
 11
7933.6047321049663879
 21
-1104.9999999999970441
 31
0.0
1001
ACDBBLOCKREPETAG
1070
     1
1071
        7
1005
147F7D
  0
LINE
  5
147F7E
  8
OBJECT
 10
8066.3952678950408881
 20
-1104.9999999999970441
 30
0.0
 11
8085.0
 21
-972.6996828091719181
 31
0.0
1001
ACDBBLOCKREPETAG
1070
     1
1071
        8
1005
147F7E
  0
LINE
  5
147F7F
  8
OBJECT
 10
8085.000000000007276
 20
-754.9999999999995453
 30
0.0
 11
7914.999999999992724
 21
-754.9999999999995453
 31
0.0
1001
ACDBBLOCKREPETAG
1070
     1
1071
        9
1005
147F7F
  0
LINE
  5
147F80
  8
OBJECT
 10
12085.9999999999909051
 20
-1223.9999999999990905
 30
0.0
 11
12085.9999999999909051
 21
-1233.9999999999990905
 31
0.0
1001
ACDBBLOCKREPETAG
1070
     1
1071
      121
1005
147F80
  0
LINE
  5
147F81
  8
OBJECT
 10
12069.9999999999909051
 20
-1223.9999999999990905
 30
0.0
 11
12069.9999999999909051
 21
-1233.9999999999990905
 31
0.0
1001
ACDBBLOCKREPETAG
1070
     1
1071
      122
1005
147F81
  0
LINE
  5
147F82
  8
OBJECT
 10
12085.9999999999909051
 20
-1233.9999999999990905
 30
0.0
 11
12069.9999999999909051
 21
-1233.9999999999990905
 31
0.0
1001
ACDBBLOCKREPETAG
1070
     1
1071
      123
1005
147F82
  0
LINE
  5
147F83
  8
OBJECT
 10
12090.0
 20
-1184.9999999999959073
 30
0.0
 11
11924.0
 21
-1184.9999999999959073
 31
0.0
1001
ACDBBLOCKREPETAG
1070
     1
1071
      124
1005
147F83
  0
LINE
  5
147F84
  8
OBJECT
 10
12090.0
 20
-1199.9999999999990905
 30
0.0
 11
12090.0
 21
-1184.9999999999959073
 31
0.0
1001
ACDBBLOCKREPETAG
1070
     1
1071
      125
1005
147F84
  0
LINE
  5
147F85
  8
OBJECT
 10
11924.0
 20
-1199.9999999999990905
 30
0.0
 11
12090.0
 21
-1199.9999999999990905
 31
0.0
1001
ACDBBLOCKREPETAG
1070
     1
1071
      126
1005
147F85
  0
LINE
  5
147F86
  8
OBJECT
 10
12067.4999999999799911
 20
-1199.9999999999990905
 30
0.0
 11
12067.4999999999799911
 21
-1209.9999999999990905
 31
0.0
1001
ACDBBLOCKREPETAG
1070
     1
1071
      127
1005
147F86
  0
LINE
  5
147F87
  8
OBJECT
 10
12072.9999999999909051
 20
-1209.9999999999990905
 30
0.0
 11
12072.9999999999909051
 21
-1199.9999999999990905
 31
0.0
1001
ACDBBLOCKREPETAG
1070
     1
1071
      128
1005
147F87
  0
LINE
  5
147F88
  8
OBJECT
 10
12082.9999999999909051
 20
-1209.9999999999990905
 30
0.0
 11
12082.9999999999909051
 21
-1199.9999999999990905
 31
0.0
1001
ACDBBLOCKREPETAG
1070
     1
1071
      129
1005
147F88
  0
LINE
  5
147F89
  8
OBJECT
 10
11924.0
 20
-1209.9999999999990905
 30
0.0
 11
11924.0
 21
-1223.9999999999959073
 31
0.0
1001
ACDBBLOCKREPETAG
1070
     1
1071
      130
1005
147F89
  0
LINE
  5
147F8A
  8
OBJECT
 10
12090.0
 20
-1209.9999999999990905
 30
0.0
 11
12090.0
 21
-1223.9999999999959073
 31
0.0
1001
ACDBBLOCKREPETAG
1070
     1
1071
      131
1005
147F8A
  0
LINE
  5
147F8B
  8
OBJECT
 10
11924.0
 20
-1223.9999999999959073
 30
0.0
 11
12090.0
 21
-1223.9999999999959073
 31
0.0
1001
ACDBBLOCKREPETAG
1070
     1
1071
      132
1005
147F8B
  0
LINE
  5
147F8C
  8
OBJECT
 10
11924.0
 20
-1209.9999999999990905
 30
0.0
 11
12090.0
 21
-1209.9999999999990905
 31
0.0
1001
ACDBBLOCKREPETAG
1070
     1
1071
      133
1005
147F8C
  0
LINE
  5
147F8D
  8
OBJECT
 10
11932.4999999999799911
 20
-1199.9999999999990905
 30
0.0
 11
11932.4999999999799911
 21
-1209.9999999999990905
 31
0.0
1001
ACDBBLOCKREPETAG
1070
     1
1071
      134
1005
147F8D
  0
LINE
  5
147F8E
  8
OBJECT
 10
11934.0
 20
-1148.9999999999959073
 30
0.0
 11
12065.9999999999909051
 21
-1148.9999999999959073
 31
0.0
1001
ACDBBLOCKREPETAG
1070
     1
1071
      135
1005
147F8E
  0
LINE
  5
147F8F
  8
OBJECT
 10
11924.0
 20
-1199.9999999999990905
 30
0.0
 11
11924.0
 21
-1184.9999999999959073
 31
0.0
1001
ACDBBLOCKREPETAG
1070
     1
1071
      136
1005
147F8F
  0
LINE
  5
147F90
  8
HIDDEN
 10
11943.0
 20
-1159.9999999999990905
 30
0.0
 11
12057.0
 21
-1159.9999999999990905
 31
0.0
1001
ACDBBLOCKREPETAG
1070
     1
1071
      137
1005
147F90
  0
LINE
  5
147F91
  8
OBJECT
 10
12086.9999999999909051
 20
-1183.2000000000000455
 30
0.0
 11
12086.9999999999909051
 21
-1184.9999999999990905
 31
0.0
1001
ACDBBLOCKREPETAG
1070
     1
1071
      138
1005
147F91
  0
LINE
  5
147F92
  8
OBJECT
 10
12068.9999999999909051
 20
-1183.2000000000000455
 30
0.0
 11
12068.9999999999909051
 21
-1184.9999999999990905
 31
0.0
1001
ACDBBLOCKREPETAG
1070
     1
1071
      139
1005
147F92
  0
LINE
  5
147F93
  8
OBJECT
 10
12072.2499999999909051
 20
-1173.4999999999990905
 30
0.0
 11
12083.7499999999909051
 21
-1173.4999999999990905
 31
0.0
1001
ACDBBLOCKREPETAG
1070
     1
1071
      140
1005
147F93
  0
LINE
  5
147F94
  8
OBJECT
 10
12072.2499999999909051
 20
-1173.4999999999990905
 30
0.0
 11
12072.2499999999909051
 21
-1183.2000000000000455
 31
0.0
1001
ACDBBLOCKREPETAG
1070
     1
1071
      141
1005
147F94
  0
LINE
  5
147F95
  8
OBJECT
 10
12083.7499999999909051
 20
-1173.4999999999990905
 30
0.0
 11
12083.7499999999909051
 21
-1183.2000000000000455
 31
0.0
1001
ACDBBLOCKREPETAG
1070
     1
1071
      142
1005
147F95
  0
LINE
  5
147F96
  8
OBJECT
 10
11931.9999999999799911
 20
-1264.9999999999990905
 30
0.0
 11
12067.9999999999799911
 21
-1264.9999999999990905
 31
0.0
1001
ACDBBLOCKREPETAG
1070
     1
1071
      143
1005
147F96
  0
LINE
  5
147F97
  8
OBJECT
 10
11931.9999999999799911
 20
-1264.9999999999990905
 30
0.0
 11
11931.9999999999799911
 21
-1223.9999999999990905
 31
0.0
1001
ACDBBLOCKREPETAG
1070
     1
1071
      144
1005
147F97
  0
LINE
  5
147F98
  8
OBJECT
 10
12067.9999999999799911
 20
-1264.9999999999990905
 30
0.0
 11
12067.9999999999799911
 21
-1223.9999999999990905
 31
0.0
1001
ACDBBLOCKREPETAG
1070
     1
1071
      145
1005
147F98
  0
LINE
  5
147F99
  8
OBJECT
 10
12086.9999999999909051
 20
-1183.2000000000000455
 30
0.0
 11
12068.9999999999909051
 21
-1183.2000000000000455
 31
0.0
1001
ACDBBLOCKREPETAG
1070
     1
1071
      146
1005
147F99
  0
LINE
  5
147F9A
  8
CENTER
 10
12000.0
 20
-889.9999999999995453
 30
0.0
 11
12000.0
 21
-1279.9999999999990905
 31
0.0
1001
ACDBBLOCKREPETAG
1070
     1
1071
      147
1005
147F9A
  0
LINE
  5
147F9B
  8
OBJECT
 10
11925.0
 20
-889.9999999999995453
 30
0.0
 11
11925.0
 21
-971.9999999999959073
 31
0.0
1001
ACDBBLOCKREPETAG
1070
     1
1071
      148
1005
147F9B
  0
LINE
  5
147F9C
  8
OBJECT
 10
12075.0
 20
-889.9999999999995453
 30
0.0
 11
12075.0
 21
-971.9999999999921556
 31
0.0
1001
ACDBBLOCKREPETAG
1070
     1
1071
      149
1005
147F9C
  0
LINE
  5
147F9D
  8
OBJECT
 10
11925.0
 20
-971.9999999999959073
 30
0.0
 11
12075.0
 21
-971.9999999999921556
 31
0.0
1001
ACDBBLOCKREPETAG
1070
     1
1071
      150
1005
147F9D
  0
LINE
  5
147F9E
  8
OBJECT
 10
11943.0
 20
-1148.9999999999959073
 30
0.0
 11
11943.0
 21
-1099.9999999999920419
 31
0.0
1001
ACDBBLOCKREPETAG
1070
     1
1071
      151
1005
147F9E
  0
LINE
  5
147F9F
  8
OBJECT
 10
12057.0
 20
-1099.9999999999920419
 30
0.0
 11
11943.0
 21
-1099.9999999999920419
 31
0.0
1001
ACDBBLOCKREPETAG
1070
     1
1071
      152
1005
147F9F
  0
LINE
  5
147FA0
  8
OBJECT
 10
12057.0
 20
-1099.9999999999920419
 30
0.0
 11
12057.0
 21
-1148.9999999999959073
 31
0.0
1001
ACDBBLOCKREPETAG
1070
     1
1071
      153
1005
147FA0
  0
LINE
  5
147FA1
  8
OBJECT
 10
11925.0
 20
-971.9999999999959073
 30
0.0
 11
11943.0
 21
-1099.9999999999920419
 31
0.0
1001
ACDBBLOCKREPETAG
1070
     1
1071
      154
1005
147FA1
  0
LINE
  5
147FA2
  8
OBJECT
 10
12057.0
 20
-1099.9999999999920419
 30
0.0
 11
12075.0
 21
-971.9999999999921556
 31
0.0
1001
ACDBBLOCKREPETAG
1070
     1
1071
      155
1005
147FA2
  0
LINE
  5
147FA3
  8
OBJECT
 10
11934.0
 20
-1184.9999999999959073
 30
0.0
 11
11934.0
 21
-1148.9999999999959073
 31
0.0
1001
ACDBBLOCKREPETAG
1070
     1
1071
      156
1005
147FA3
  0
LINE
  5
147FA4
  8
OBJECT
 10
12066.0
 20
-1184.9999999999959073
 30
0.0
 11
12065.9999999999909051
 21
-1148.9999999999959073
 31
0.0
1001
ACDBBLOCKREPETAG
1070
     1
1071
      157
1005
147FA4
  0
LINE
  5
147FA5
  8
OBJECT
 10
11954.75
 20
-1174.6999999999929969
 30
0.0
 11
11967.25
 21
-1174.6999999999929969
 31
0.0
1001
ACDBBLOCKREPETAG
1070
     1
1071
      158
1005
147FA5
  0
LINE
  5
147FA6
  8
OBJECT
 10
11946.0
 20
-1184.9999999999959073
 30
0.0
 11
11946.0
 21
-1182.6999999999959527
 31
0.0
1001
ACDBBLOCKREPETAG
1070
     1
1071
      159
1005
147FA6
  0
LINE
  5
147FA7
  8
OBJECT
 10
11976.0
 20
-1184.9999999999959073
 30
0.0
 11
11976.0
 21
-1182.6999999999959527
 31
0.0
1001
ACDBBLOCKREPETAG
1070
     1
1071
      160
1005
147FA7
  0
LINE
  5
147FA8
  8
OBJECT
 10
11954.75
 20
-1174.6999999999929969
 30
0.0
 11
11954.75
 21
-1182.6999999999959527
 31
0.0
1001
ACDBBLOCKREPETAG
1070
     1
1071
      161
1005
147FA8
  0
LINE
  5
147FA9
  8
OBJECT
 10
11967.25
 20
-1174.6999999999929969
 30
0.0
 11
11967.25
 21
-1182.6999999999959527
 31
0.0
1001
ACDBBLOCKREPETAG
1070
     1
1071
      162
1005
147FA9
  0
LINE
  5
147FAA
  8
OBJECT
 10
11946.0
 20
-1182.6999999999959527
 30
0.0
 11
11976.0
 21
-1182.6999999999959527
 31
0.0
1001
ACDBBLOCKREPETAG
1070
     1
1071
      163
1005
147FAA
  0
LINE
  5
147FAB
  8
OBJECT
 10
11953.0
 20
-1223.9999999999959073
 30
0.0
 11
11953.0
 21
-1233.9999999999959073
 31
0.0
1001
ACDBBLOCKREPETAG
1070
     1
1071
      164
1005
147FAB
  0
LINE
  5
147FAC
  8
OBJECT
 10
11969.0
 20
-1223.9999999999959073
 30
0.0
 11
11969.0
 21
-1233.9999999999959073
 31
0.0
1001
ACDBBLOCKREPETAG
1070
     1
1071
      165
1005
147FAC
  0
LINE
  5
147FAD
  8
OBJECT
 10
11953.0
 20
-1233.9999999999959073
 30
0.0
 11
11969.0
 21
-1233.9999999999959073
 31
0.0
1001
ACDBBLOCKREPETAG
1070
     1
1071
      166
1005
147FAD
  0
LINE
  5
147FAE
  8
OBJECT
 10
11966.0
 20
-1209.9999999999959073
 30
0.0
 11
11966.0
 21
-1199.9999999999959073
 31
0.0
1001
ACDBBLOCKREPETAG
1070
     1
1071
      167
1005
147FAE
  0
LINE
  5
147FAF
  8
OBJECT
 10
11956.0
 20
-1209.9999999999959073
 30
0.0
 11
11956.0
 21
-1199.9999999999959073
 31
0.0
1001
ACDBBLOCKREPETAG
1070
     1
1071
      168
1005
147FAF
  0
LINE
  5
147FB0
  8
OBJECT
 10
10090.0
 20
-1184.9999999999959073
 30
0.0
 11
9924.0
 21
-1184.9999999999959073
 31
0.0
1001
ACDBBLOCKREPETAG
1070
     1
1071
       12
1005
147FB0
  0
LINE
  5
147FB1
  8
OBJECT
 10
10066.0
 20
-1148.9999999999959073
 30
0.0
 11
9934.0
 21
-1148.9999999999959073
 31
0.0
1001
ACDBBLOCKREPETAG
1070
     1
1071
       13
1005
147FB1
  0
LINE
  5
147FB2
  8
OBJECT
 10
10090.0
 20
-1199.9999999999990905
 30
0.0
 11
10090.0
 21
-1184.9999999999959073
 31
0.0
1001
ACDBBLOCKREPETAG
1070
     1
1071
       14
1005
147FB2
  0
LINE
  5
147FB3
  8
OBJECT
 10
9924.0
 20
-1199.9999999999990905
 30
0.0
 11
10090.0
 21
-1199.9999999999990905
 31
0.0
1001
ACDBBLOCKREPETAG
1070
     1
1071
       15
1005
147FB3
  0
LINE
  5
147FB4
  8
OBJECT
 10
10067.4999999999799911
 20
-1199.9999999999990905
 30
0.0
 11
10067.4999999999799911
 21
-1209.9999999999990905
 31
0.0
1001
ACDBBLOCKREPETAG
1070
     1
1071
       16
1005
147FB4
  0
LINE
  5
147FB5
  8
OBJECT
 10
9924.0
 20
-1209.9999999999990905
 30
0.0
 11
9924.0
 21
-1223.9999999999959073
 31
0.0
1001
ACDBBLOCKREPETAG
1070
     1
1071
       17
1005
147FB5
  0
LINE
  5
147FB6
  8
OBJECT
 10
10090.0
 20
-1209.9999999999990905
 30
0.0
 11
10090.0
 21
-1223.9999999999959073
 31
0.0
1001
ACDBBLOCKREPETAG
1070
     1
1071
       18
1005
147FB6
  0
LINE
  5
147FB7
  8
OBJECT
 10
9924.0
 20
-1223.9999999999959073
 30
0.0
 11
10090.0
 21
-1223.9999999999959073
 31
0.0
1001
ACDBBLOCKREPETAG
1070
     1
1071
       19
1005
147FB7
  0
LINE
  5
147FB8
  8
OBJECT
 10
9924.0
 20
-1209.9999999999990905
 30
0.0
 11
10090.0
 21
-1209.9999999999990905
 31
0.0
1001
ACDBBLOCKREPETAG
1070
     1
1071
       20
1005
147FB8
  0
LINE
  5
147FB9
  8
OBJECT
 10
9932.4999999999854481
 20
-1199.9999999999990905
 30
0.0
 11
9932.4999999999854481
 21
-1209.9999999999990905
 31
0.0
1001
ACDBBLOCKREPETAG
1070
     1
1071
       21
1005
147FB9
  0
LINE
  5
147FBA
  8
OBJECT
 10
9924.0
 20
-1199.9999999999990905
 30
0.0
 11
9924.0
 21
-1184.9999999999959073
 31
0.0
1001
ACDBBLOCKREPETAG
1070
     1
1071
       22
1005
147FBA
  0
LINE
  5
147FBB
  8
HIDDEN
 10
9943.0
 20
-1159.9999999999990905
 30
0.0
 11
10057.0
 21
-1159.9999999999990905
 31
0.0
1001
ACDBBLOCKREPETAG
1070
     1
1071
       23
1005
147FBB
  0
LINE
  5
147FBC
  8
CENTER
 10
10000.0
 20
-889.9999999999995453
 30
0.0
 11
10000.0
 21
-1238.9999999999959073
 31
0.0
1001
ACDBBLOCKREPETAG
1070
     1
1071
       24
1005
147FBC
  0
LINE
  5
147FBD
  8
OBJECT
 10
9925.0
 20
-889.9999999999995453
 30
0.0
 11
9925.0
 21
-971.9999999999959073
 31
0.0
1001
ACDBBLOCKREPETAG
1070
     1
1071
       25
1005
147FBD
  0
LINE
  5
147FBE
  8
OBJECT
 10
10075.0
 20
-889.9999999999995453
 30
0.0
 11
10075.0
 21
-971.9999999999921556
 31
0.0
1001
ACDBBLOCKREPETAG
1070
     1
1071
       26
1005
147FBE
  0
LINE
  5
147FBF
  8
OBJECT
 10
9925.0
 20
-971.9999999999959073
 30
0.0
 11
10075.0
 21
-971.9999999999921556
 31
0.0
1001
ACDBBLOCKREPETAG
1070
     1
1071
       27
1005
147FBF
  0
LINE
  5
147FC0
  8
OBJECT
 10
10057.0
 20
-1148.9999999999959073
 30
0.0
 11
10057.0
 21
-1099.9999999999920419
 31
0.0
1001
ACDBBLOCKREPETAG
1070
     1
1071
       28
1005
147FC0
  0
LINE
  5
147FC1
  8
OBJECT
 10
9943.0
 20
-1148.9999999999959073
 30
0.0
 11
9943.0
 21
-1099.9999999999920419
 31
0.0
1001
ACDBBLOCKREPETAG
1070
     1
1071
       29
1005
147FC1
  0
LINE
  5
147FC2
  8
OBJECT
 10
10057.0
 20
-1099.9999999999920419
 30
0.0
 11
9943.0
 21
-1099.9999999999920419
 31
0.0
1001
ACDBBLOCKREPETAG
1070
     1
1071
       30
1005
147FC2
  0
LINE
  5
147FC3
  8
OBJECT
 10
9925.0
 20
-971.9999999999959073
 30
0.0
 11
9943.0
 21
-1099.9999999999920419
 31
0.0
1001
ACDBBLOCKREPETAG
1070
     1
1071
       31
1005
147FC3
  0
LINE
  5
147FC4
  8
OBJECT
 10
10057.0
 20
-1099.9999999999920419
 30
0.0
 11
10075.0
 21
-971.9999999999921556
 31
0.0
1001
ACDBBLOCKREPETAG
1070
     1
1071
       32
1005
147FC4
  0
LINE
  5
147FC5
  8
OBJECT
 10
9934.0
 20
-1148.9999999999959073
 30
0.0
 11
9934.0
 21
-1184.9999999999959073
 31
0.0
1001
ACDBBLOCKREPETAG
1070
     1
1071
       33
1005
147FC5
  0
LINE
  5
147FC6
  8
OBJECT
 10
10066.0
 20
-1148.9999999999959073
 30
0.0
 11
10066.0
 21
-1184.9999999999959073
 31
0.0
1001
ACDBBLOCKREPETAG
1070
     1
1071
       34
1005
147FC6
  0
LINE
  5
147FC7
  8
OBJECT
 10
10082.9999999999909051
 20
-1209.9999999999959073
 30
0.0
 11
10082.9999999999909051
 21
-1199.9999999999959073
 31
0.0
1001
ACDBBLOCKREPETAG
1070
     1
1071
       35
1005
147FC7
  0
LINE
  5
147FC8
  8
OBJECT
 10
10072.9999999999909051
 20
-1209.9999999999959073
 30
0.0
 11
10072.9999999999909051
 21
-1199.9999999999959073
 31
0.0
1001
ACDBBLOCKREPETAG
1070
     1
1071
       36
1005
147FC8
  0
LINE
  5
147FC9
  8
OBJECT
 10
10068.9999999999799911
 20
-1179.9999999999959073
 30
0.0
 11
10068.9999999999799911
 21
-1184.9999999999959073
 31
0.0
1001
ACDBBLOCKREPETAG
1070
     1
1071
       37
1005
147FC9
  0
LINE
  5
147FCA
  8
OBJECT
 10
10087.0
 20
-1179.9999999999959073
 30
0.0
 11
10087.0
 21
-1184.9999999999959073
 31
0.0
1001
ACDBBLOCKREPETAG
1070
     1
1071
       38
1005
147FCA
  0
LINE
  5
147FCB
  8
OBJECT
 10
10087.0
 20
-1179.9999999999959073
 30
0.0
 11
10068.9999999999799911
 21
-1179.9999999999959073
 31
0.0
1001
ACDBBLOCKREPETAG
1070
     1
1071
       39
1005
147FCB
  0
LINE
  5
147FCC
  8
OBJECT
 10
10073.0
 20
-1231.9999999999959073
 30
0.0
 11
10073.0
 21
-1234.9999999999959073
 31
0.0
1001
ACDBBLOCKREPETAG
1070
     1
1071
       40
1005
147FCC
  0
LINE
  5
147FCD
  8
OBJECT
 10
10073.0
 20
-1234.9999999999959073
 30
0.0
 11
10083.0
 21
-1234.9999999999959073
 31
0.0
1001
ACDBBLOCKREPETAG
1070
     1
1071
       41
1005
147FCD
  0
LINE
  5
147FCE
  8
OBJECT
 10
10083.0
 20
-1234.9999999999959073
 30
0.0
 11
10083.0
 21
-1231.9999999999959073
 31
0.0
1001
ACDBBLOCKREPETAG
1070
     1
1071
       43
1005
147FCE
  0
LINE
  5
147FCF
  8
OBJECT
 10
9968.5
 20
-1179.9999999999959073
 30
0.0
 11
9951.999999999992724
 21
-1179.9999999999959073
 31
0.0
1001
ACDBBLOCKREPETAG
1070
     1
1071
       48
1005
147FCF
  0
LINE
  5
147FD0
  8
OBJECT
 10
9976.0
 20
-1184.9999999999959073
 30
0.0
 11
9976.0
 21
-1182.9999999999959073
 31
0.0
1001
ACDBBLOCKREPETAG
1070
     1
1071
       49
1005
147FD0
  0
LINE
  5
147FD1
  8
OBJECT
 10
9966.0
 20
-1209.9999999999959073
 30
0.0
 11
9966.0
 21
-1199.9999999999959073
 31
0.0
1001
ACDBBLOCKREPETAG
1070
     1
1071
       50
1005
147FD1
  0
LINE
  5
147FD2
  8
OBJECT
 10
9956.0
 20
-1209.9999999999959073
 30
0.0
 11
9956.0
 21
-1199.9999999999959073
 31
0.0
1001
ACDBBLOCKREPETAG
1070
     1
1071
       51
1005
147FD2
  0
LINE
  5
147FD3
  8
OBJECT
 10
9951.999999999992724
 20
-1179.9999999999959073
 30
0.0
 11
9951.999999999992724
 21
-1184.9999999999959073
 31
0.0
1001
ACDBBLOCKREPETAG
1070
     1
1071
       52
1005
147FD3
  0
LINE
  5
147FD4
  8
OBJECT
 10
9956.0
 20
-1231.9999999999959073
 30
0.0
 11
9956.0
 21
-1234.9999999999959073
 31
0.0
1001
ACDBBLOCKREPETAG
1070
     1
1071
       53
1005
147FD4
  0
LINE
  5
147FD5
  8
OBJECT
 10
9956.0
 20
-1234.9999999999959073
 30
0.0
 11
9966.0
 21
-1234.9999999999959073
 31
0.0
1001
ACDBBLOCKREPETAG
1070
     1
1071
       54
1005
147FD5
  0
LINE
  5
147FD6
  8
OBJECT
 10
9951.1850454237719532
 20
-1231.9999999999959073
 30
0.0
 11
9970.8149545762207708
 21
-1231.9999999999959073
 31
0.0
1001
ACDBBLOCKREPETAG
1070
     1
1071
       55
1005
147FD6
  0
LINE
  5
147FD7
  8
OBJECT
 10
9966.0
 20
-1234.9999999999959073
 30
0.0
 11
9966.0
 21
-1231.9999999999959073
 31
0.0
1001
ACDBBLOCKREPETAG
1070
     1
1071
       56
1005
147FD7
  0
LINE
  5
147FD8
  8
OBJECT
 10
9976.0
 20
-1182.9999999999959073
 30
0.0
 11
9968.5
 21
-1179.9999999999959073
 31
0.0
1001
ACDBBLOCKREPETAG
1070
     1
1071
       57
1005
147FD8
  0
LINE
  5
147FD9
  8
OBJECT
 10
9951.1850454237774102
 20
-1223.9999999999959073
 30
0.0
 11
9951.1850454237774102
 21
-1231.9999999999959073
 31
0.0
1001
ACDBBLOCKREPETAG
1070
     1
1071
      630
1005
147FD9
  0
LINE
  5
147FDA
  8
OBJECT
 10
9956.0925227118896146
 20
-1223.9999999999959073
 30
0.0
 11
9956.0925227118896146
 21
-1231.9999999999959073
 31
0.0
1001
ACDBBLOCKREPETAG
1070
     1
1071
      631
1005
147FDA
  0
LINE
  5
147FDB
  8
OBJECT
 10
9965.9074772881122044
 20
-1223.9999999999959073
 30
0.0
 11
9965.9074772881122044
 21
-1231.9999999999959073
 31
0.0
1001
ACDBBLOCKREPETAG
1070
     1
1071
      632
1005
147FDB
  0
LINE
  5
147FDC
  8
OBJECT
 10
9970.8149545762244088
 20
-1223.9999999999959073
 30
0.0
 11
9970.8149545762244088
 21
-1231.9999999999959073
 31
0.0
1001
ACDBBLOCKREPETAG
1070
     1
1071
      633
1005
147FDC
  0
LINE
  5
147FDD
  8
OBJECT
 10
10068.1850454237701342
 20
-1231.9999999999959073
 30
0.0
 11
10087.8149545762207708
 21
-1231.9999999999959073
 31
0.0
1001
ACDBBLOCKREPETAG
1070
     1
1071
      634
1005
147FDD
  0
LINE
  5
147FDE
  8
OBJECT
 10
10068.1850454237701342
 20
-1223.9999999999959073
 30
0.0
 11
10068.1850454237701342
 21
-1231.9999999999959073
 31
0.0
1001
ACDBBLOCKREPETAG
1070
     1
1071
      635
1005
147FDE
  0
LINE
  5
147FDF
  8
OBJECT
 10
10073.0925227118896146
 20
-1223.9999999999959073
 30
0.0
 11
10073.0925227118896146
 21
-1231.9999999999959073
 31
0.0
1001
ACDBBLOCKREPETAG
1070
     1
1071
      636
1005
147FDF
  0
LINE
  5
147FE0
  8
OBJECT
 10
10082.9074772881103854
 20
-1223.9999999999959073
 30
0.0
 11
10082.9074772881103854
 21
-1231.9999999999959073
 31
0.0
1001
ACDBBLOCKREPETAG
1070
     1
1071
      637
1005
147FE0
  0
LINE
  5
147FE1
  8
OBJECT
 10
10087.8149545762207708
 20
-1223.9999999999959073
 30
0.0
 11
10087.8149545762207708
 21
-1231.9999999999959073
 31
0.0
1001
ACDBBLOCKREPETAG
1070
     1
1071
      638
1005
147FE1
  0
LINE
  5
147FE2
  8
OBJECT
 10
7943.0
 20
-1199.9999999999959073
 30
0.0
 11
8057.0
 21
-1199.9999999999959073
 31
0.0
1001
ACDBBLOCKREPETAG
1070
     1
1071
        0
1005
147FE2
  0
LINE
  5
147FE3
  8
OBJECT
 10
7943.0
 20
-1199.9999999999959073
 30
0.0
 11
7943.0
 21
-1099.9999999999959073
 31
0.0
1001
ACDBBLOCKREPETAG
1070
     1
1071
        1
1005
147FE3
  0
LINE
  5
147FE4
  8
OBJECT
 10
8057.0
 20
-1199.9999999999959073
 30
0.0
 11
8057.0
 21
-1099.9999999999959073
 31
0.0
1001
ACDBBLOCKREPETAG
1070
     1
1071
        2
1005
147FE4
  0
LINE
  5
147FE5
  8
OBJECT
 10
7943.0
 20
-1099.9999999999959073
 30
0.0
 11
8057.0
 21
-1099.9999999999959073
 31
0.0
1001
ACDBBLOCKREPETAG
1070
     1
1071
        3
1005
147FE5
  0
LINE
  5
147FE6
  8
HIDDEN
 10
7950.0
 20
-1099.9999999999959073
 30
0.0
 11
7950.0
 21
-1199.9999999999959073
 31
0.0
1001
ACDBBLOCKREPETAG
1070
     1
1071
        4
1005
147FE6
  0
LINE
  5
147FE7
  8
HIDDEN
 10
8050.0
 20
-1099.9999999999959073
 30
0.0
 11
8050.0
 21
-1199.9999999999959073
 31
0.0
1001
ACDBBLOCKREPETAG
1070
     1
1071
        5
1005
147FE7
  0
LINE
  5
147FE8
  8
CENTER
 10
8000.0
 20
-889.9999999999995453
 30
0.0
 11
8000.0
 21
-1214.9999999999959073
 31
0.0
1001
ACDBBLOCKREPETAG
1070
     1
1071
        6
1005
147FE8
  0
LINE
  5
147FE9
  8
OBJECT
 10
7925.0
 20
-889.9999999999995453
 30
0.0
 11
7925.0
 21
-971.9999999999959073
 31
0.0
1001
ACDBBLOCKREPETAG
1070
     1
1071
        7
1005
147FE9
  0
LINE
  5
147FEA
  8
OBJECT
 10
8075.0
 20
-889.9999999999995453
 30
0.0
 11
8075.0
 21
-971.9999999999959073
 31
0.0
1001
ACDBBLOCKREPETAG
1070
     1
1071
        8
1005
147FEA
  0
LINE
  5
147FEB
  8
OBJECT
 10
7925.0
 20
-971.9999999999959073
 30
0.0
 11
8075.0
 21
-971.9999999999959073
 31
0.0
1001
ACDBBLOCKREPETAG
1070
     1
1071
        9
1005
147FEB
  0
LINE
  5
147FEC
  8
OBJECT
 10
7925.0
 20
-971.9999999999959073
 30
0.0
 11
7943.0
 21
-1099.9999999999959073
 31
0.0
1001
ACDBBLOCKREPETAG
1070
     1
1071
       10
1005
147FEC
  0
LINE
  5
147FED
  8
OBJECT
 10
8057.0
 20
-1099.9999999999959073
 30
0.0
 11
8075.0
 21
-971.9999999999959073
 31
0.0
1001
ACDBBLOCKREPETAG
1070
     1
1071
       11
1005
147FED
  0
LINE
  5
147FEE
  8
OBJECT
 10
6085.999999999992724
 20
-1223.9999999999990905
 30
0.0
 11
6085.999999999992724
 21
-1233.9999999999990905
 31
0.0
1001
ACDBBLOCKREPETAG
1070
     1
1071
      121
1005
147FEE
  0
LINE
  5
147FEF
  8
OBJECT
 10
6069.999999999992724
 20
-1223.9999999999990905
 30
0.0
 11
6069.999999999992724
 21
-1233.9999999999990905
 31
0.0
1001
ACDBBLOCKREPETAG
1070
     1
1071
      122
1005
147FEF
  0
LINE
  5
147FF0
  8
OBJECT
 10
6085.999999999992724
 20
-1233.9999999999990905
 30
0.0
 11
6069.999999999992724
 21
-1233.9999999999990905
 31
0.0
1001
ACDBBLOCKREPETAG
1070
     1
1071
      123
1005
147FF0
  0
LINE
  5
147FF1
  8
OBJECT
 10
6090.0
 20
-1184.9999999999959073
 30
0.0
 11
5924.0
 21
-1184.9999999999959073
 31
0.0
1001
ACDBBLOCKREPETAG
1070
     1
1071
      124
1005
147FF1
  0
LINE
  5
147FF2
  8
OBJECT
 10
6090.0
 20
-1199.9999999999990905
 30
0.0
 11
6090.0
 21
-1184.9999999999959073
 31
0.0
1001
ACDBBLOCKREPETAG
1070
     1
1071
      125
1005
147FF2
  0
LINE
  5
147FF3
  8
OBJECT
 10
5924.0
 20
-1199.9999999999990905
 30
0.0
 11
6090.0
 21
-1199.9999999999990905
 31
0.0
1001
ACDBBLOCKREPETAG
1070
     1
1071
      126
1005
147FF3
  0
LINE
  5
147FF4
  8
OBJECT
 10
6067.4999999999854481
 20
-1199.9999999999990905
 30
0.0
 11
6067.4999999999854481
 21
-1209.9999999999990905
 31
0.0
1001
ACDBBLOCKREPETAG
1070
     1
1071
      127
1005
147FF4
  0
LINE
  5
147FF5
  8
OBJECT
 10
6072.999999999992724
 20
-1209.9999999999990905
 30
0.0
 11
6072.999999999992724
 21
-1199.9999999999990905
 31
0.0
1001
ACDBBLOCKREPETAG
1070
     1
1071
      128
1005
147FF5
  0
LINE
  5
147FF6
  8
OBJECT
 10
6082.999999999992724
 20
-1209.9999999999990905
 30
0.0
 11
6082.999999999992724
 21
-1199.9999999999990905
 31
0.0
1001
ACDBBLOCKREPETAG
1070
     1
1071
      129
1005
147FF6
  0
LINE
  5
147FF7
  8
OBJECT
 10
5924.0
 20
-1209.9999999999990905
 30
0.0
 11
5924.0
 21
-1223.9999999999959073
 31
0.0
1001
ACDBBLOCKREPETAG
1070
     1
1071
      130
1005
147FF7
  0
LINE
  5
147FF8
  8
OBJECT
 10
6090.0
 20
-1209.9999999999990905
 30
0.0
 11
6090.0
 21
-1223.9999999999959073
 31
0.0
1001
ACDBBLOCKREPETAG
1070
     1
1071
      131
1005
147FF8
  0
LINE
  5
147FF9
  8
OBJECT
 10
5924.0
 20
-1223.9999999999959073
 30
0.0
 11
6090.0
 21
-1223.9999999999959073
 31
0.0
1001
ACDBBLOCKREPETAG
1070
     1
1071
      132
1005
147FF9
  0
LINE
  5
147FFA
  8
OBJECT
 10
5924.0
 20
-1209.9999999999990905
 30
0.0
 11
6090.0
 21
-1209.9999999999990905
 31
0.0
1001
ACDBBLOCKREPETAG
1070
     1
1071
      133
1005
147FFA
  0
LINE
  5
147FFB
  8
OBJECT
 10
5932.4999999999854481
 20
-1199.9999999999990905
 30
0.0
 11
5932.4999999999854481
 21
-1209.9999999999990905
 31
0.0
1001
ACDBBLOCKREPETAG
1070
     1
1071
      134
1005
147FFB
  0
LINE
  5
147FFC
  8
OBJECT
 10
5934.0
 20
-1148.9999999999959073
 30
0.0
 11
6065.9999999999918145
 21
-1148.9999999999959073
 31
0.0
1001
ACDBBLOCKREPETAG
1070
     1
1071
      135
1005
147FFC
  0
LINE
  5
147FFD
  8
OBJECT
 10
5924.0
 20
-1199.9999999999990905
 30
0.0
 11
5924.0
 21
-1184.9999999999959073
 31
0.0
1001
ACDBBLOCKREPETAG
1070
     1
1071
      136
1005
147FFD
  0
LINE
  5
147FFE
  8
HIDDEN
 10
5943.0
 20
-1159.9999999999990905
 30
0.0
 11
6057.0
 21
-1159.9999999999990905
 31
0.0
1001
ACDBBLOCKREPETAG
1070
     1
1071
      137
1005
147FFE
  0
LINE
  5
147FFF
  8
OBJECT
 10
6086.9999999999918145
 20
-1183.2000000000000455
 30
0.0
 11
6086.9999999999918145
 21
-1184.9999999999990905
 31
0.0
1001
ACDBBLOCKREPETAG
1070
     1
1071
      138
1005
147FFF
  0
LINE
  5
148000
  8
OBJECT
 10
6068.9999999999918145
 20
-1183.2000000000000455
 30
0.0
 11
6068.9999999999918145
 21
-1184.9999999999990905
 31
0.0
1001
ACDBBLOCKREPETAG
1070
     1
1071
      139
1005
148000
  0
LINE
  5
148001
  8
OBJECT
 10
6072.249999999992724
 20
-1173.4999999999990905
 30
0.0
 11
6083.749999999992724
 21
-1173.4999999999990905
 31
0.0
1001
ACDBBLOCKREPETAG
1070
     1
1071
      140
1005
148001
  0
LINE
  5
148002
  8
OBJECT
 10
6072.249999999992724
 20
-1173.4999999999990905
 30
0.0
 11
6072.249999999992724
 21
-1183.2000000000000455
 31
0.0
1001
ACDBBLOCKREPETAG
1070
     1
1071
      141
1005
148002
  0
LINE
  5
148003
  8
OBJECT
 10
6083.749999999992724
 20
-1173.4999999999990905
 30
0.0
 11
6083.749999999992724
 21
-1183.2000000000000455
 31
0.0
1001
ACDBBLOCKREPETAG
1070
     1
1071
      142
1005
148003
  0
LINE
  5
148004
  8
OBJECT
 10
5931.9999999999863576
 20
-1264.9999999999990905
 30
0.0
 11
6067.9999999999863576
 21
-1264.9999999999990905
 31
0.0
1001
ACDBBLOCKREPETAG
1070
     1
1071
      143
1005
148004
  0
LINE
  5
148005
  8
OBJECT
 10
5931.9999999999863576
 20
-1264.9999999999990905
 30
0.0
 11
5931.9999999999863576
 21
-1223.9999999999990905
 31
0.0
1001
ACDBBLOCKREPETAG
1070
     1
1071
      144
1005
148005
  0
LINE
  5
148006
  8
OBJECT
 10
6067.9999999999863576
 20
-1264.9999999999990905
 30
0.0
 11
6067.9999999999863576
 21
-1223.9999999999990905
 31
0.0
1001
ACDBBLOCKREPETAG
1070
     1
1071
      145
1005
148006
  0
LINE
  5
148007
  8
OBJECT
 10
6086.9999999999918145
 20
-1183.2000000000000455
 30
0.0
 11
6068.9999999999918145
 21
-1183.2000000000000455
 31
0.0
1001
ACDBBLOCKREPETAG
1070
     1
1071
      146
1005
148007
  0
LINE
  5
148008
  8
CENTER
 10
6000.0
 20
-889.9999999999995453
 30
0.0
 11
6000.0
 21
-1279.9999999999990905
 31
0.0
1001
ACDBBLOCKREPETAG
1070
     1
1071
      147
1005
148008
  0
LINE
  5
148009
  8
OBJECT
 10
5925.0
 20
-889.9999999999995453
 30
0.0
 11
5925.0
 21
-971.9999999999959073
 31
0.0
1001
ACDBBLOCKREPETAG
1070
     1
1071
      148
1005
148009
  0
LINE
  5
14800A
  8
OBJECT
 10
6075.0
 20
-889.9999999999995453
 30
0.0
 11
6075.0
 21
-971.9999999999921556
 31
0.0
1001
ACDBBLOCKREPETAG
1070
     1
1071
      149
1005
14800A
  0
LINE
  5
14800B
  8
OBJECT
 10
5925.0
 20
-971.9999999999959073
 30
0.0
 11
6075.0
 21
-971.9999999999921556
 31
0.0
1001
ACDBBLOCKREPETAG
1070
     1
1071
      150
1005
14800B
  0
LINE
  5
14800C
  8
OBJECT
 10
5943.0
 20
-1148.9999999999959073
 30
0.0
 11
5943.0
 21
-1099.9999999999920419
 31
0.0
1001
ACDBBLOCKREPETAG
1070
     1
1071
      151
1005
14800C
  0
LINE
  5
14800D
  8
OBJECT
 10
6057.0
 20
-1099.9999999999920419
 30
0.0
 11
5943.0
 21
-1099.9999999999920419
 31
0.0
1001
ACDBBLOCKREPETAG
1070
     1
1071
      152
1005
14800D
  0
LINE
  5
14800E
  8
OBJECT
 10
6057.0
 20
-1099.9999999999920419
 30
0.0
 11
6057.0
 21
-1148.9999999999959073
 31
0.0
1001
ACDBBLOCKREPETAG
1070
     1
1071
      153
1005
14800E
  0
LINE
  5
14800F
  8
OBJECT
 10
5925.0
 20
-971.9999999999959073
 30
0.0
 11
5943.0
 21
-1099.9999999999920419
 31
0.0
1001
ACDBBLOCKREPETAG
1070
     1
1071
      154
1005
14800F
  0
LINE
  5
148010
  8
OBJECT
 10
6057.0
 20
-1099.9999999999920419
 30
0.0
 11
6075.0
 21
-971.9999999999921556
 31
0.0
1001
ACDBBLOCKREPETAG
1070
     1
1071
      155
1005
148010
  0
LINE
  5
148011
  8
OBJECT
 10
5934.0
 20
-1184.9999999999959073
 30
0.0
 11
5934.0
 21
-1148.9999999999959073
 31
0.0
1001
ACDBBLOCKREPETAG
1070
     1
1071
      156
1005
148011
  0
LINE
  5
148012
  8
OBJECT
 10
6066.0
 20
-1184.9999999999959073
 30
0.0
 11
6065.9999999999918145
 21
-1148.9999999999959073
 31
0.0
1001
ACDBBLOCKREPETAG
1070
     1
1071
      157
1005
148012
  0
LINE
  5
148013
  8
OBJECT
 10
5954.75
 20
-1174.6999999999929969
 30
0.0
 11
5967.2499999999990905
 21
-1174.6999999999929969
 31
0.0
1001
ACDBBLOCKREPETAG
1070
     1
1071
      158
1005
148013
  0
LINE
  5
148014
  8
OBJECT
 10
5946.0
 20
-1184.9999999999959073
 30
0.0
 11
5946.0
 21
-1182.6999999999959527
 31
0.0
1001
ACDBBLOCKREPETAG
1070
     1
1071
      159
1005
148014
  0
LINE
  5
148015
  8
OBJECT
 10
5976.0
 20
-1184.9999999999959073
 30
0.0
 11
5976.0
 21
-1182.6999999999959527
 31
0.0
1001
ACDBBLOCKREPETAG
1070
     1
1071
      160
1005
148015
  0
LINE
  5
148016
  8
OBJECT
 10
5954.75
 20
-1174.6999999999929969
 30
0.0
 11
5954.75
 21
-1182.6999999999959527
 31
0.0
1001
ACDBBLOCKREPETAG
1070
     1
1071
      161
1005
148016
  0
LINE
  5
148017
  8
OBJECT
 10
5967.2499999999990905
 20
-1174.6999999999929969
 30
0.0
 11
5967.2499999999990905
 21
-1182.6999999999959527
 31
0.0
1001
ACDBBLOCKREPETAG
1070
     1
1071
      162
1005
148017
  0
LINE
  5
148018
  8
OBJECT
 10
5946.0
 20
-1182.6999999999959527
 30
0.0
 11
5976.0
 21
-1182.6999999999959527
 31
0.0
1001
ACDBBLOCKREPETAG
1070
     1
1071
      163
1005
148018
  0
LINE
  5
148019
  8
OBJECT
 10
5953.0
 20
-1223.9999999999959073
 30
0.0
 11
5953.0
 21
-1233.9999999999959073
 31
0.0
1001
ACDBBLOCKREPETAG
1070
     1
1071
      164
1005
148019
  0
LINE
  5
14801A
  8
OBJECT
 10
5969.0
 20
-1223.9999999999959073
 30
0.0
 11
5969.0
 21
-1233.9999999999959073
 31
0.0
1001
ACDBBLOCKREPETAG
1070
     1
1071
      165
1005
14801A
  0
LINE
  5
14801B
  8
OBJECT
 10
5953.0
 20
-1233.9999999999959073
 30
0.0
 11
5969.0
 21
-1233.9999999999959073
 31
0.0
1001
ACDBBLOCKREPETAG
1070
     1
1071
      166
1005
14801B
  0
LINE
  5
14801C
  8
OBJECT
 10
5966.0
 20
-1209.9999999999959073
 30
0.0
 11
5966.0
 21
-1199.9999999999959073
 31
0.0
1001
ACDBBLOCKREPETAG
1070
     1
1071
      167
1005
14801C
  0
LINE
  5
14801D
  8
OBJECT
 10
5956.0
 20
-1209.9999999999959073
 30
0.0
 11
5956.0
 21
-1199.9999999999959073
 31
0.0
1001
ACDBBLOCKREPETAG
1070
     1
1071
      168
1005
14801D
  0
LINE
  5
14801E
  8
OBJECT
 10
4090.0
 20
-1184.9999999999959073
 30
0.0
 11
3924.0
 21
-1184.9999999999959073
 31
0.0
1001
ACDBBLOCKREPETAG
1070
     1
1071
       12
1005
14801E
  0
LINE
  5
14801F
  8
OBJECT
 10
4066.0
 20
-1148.9999999999959073
 30
0.0
 11
3934.0
 21
-1148.9999999999959073
 31
0.0
1001
ACDBBLOCKREPETAG
1070
     1
1071
       13
1005
14801F
  0
LINE
  5
148020
  8
OBJECT
 10
4090.0
 20
-1199.9999999999990905
 30
0.0
 11
4090.0
 21
-1184.9999999999959073
 31
0.0
1001
ACDBBLOCKREPETAG
1070
     1
1071
       14
1005
148020
  0
LINE
  5
148021
  8
OBJECT
 10
3924.0
 20
-1199.9999999999990905
 30
0.0
 11
4090.0
 21
-1199.9999999999990905
 31
0.0
1001
ACDBBLOCKREPETAG
1070
     1
1071
       15
1005
148021
  0
LINE
  5
148022
  8
OBJECT
 10
4067.4999999999849933
 20
-1199.9999999999990905
 30
0.0
 11
4067.4999999999849933
 21
-1209.9999999999990905
 31
0.0
1001
ACDBBLOCKREPETAG
1070
     1
1071
       16
1005
148022
  0
LINE
  5
148023
  8
OBJECT
 10
3924.0
 20
-1209.9999999999990905
 30
0.0
 11
3924.0
 21
-1223.9999999999959073
 31
0.0
1001
ACDBBLOCKREPETAG
1070
     1
1071
       17
1005
148023
  0
LINE
  5
148024
  8
OBJECT
 10
4090.0
 20
-1209.9999999999990905
 30
0.0
 11
4090.0
 21
-1223.9999999999959073
 31
0.0
1001
ACDBBLOCKREPETAG
1070
     1
1071
       18
1005
148024
  0
LINE
  5
148025
  8
OBJECT
 10
3924.0
 20
-1223.9999999999959073
 30
0.0
 11
4090.0
 21
-1223.9999999999959073
 31
0.0
1001
ACDBBLOCKREPETAG
1070
     1
1071
       19
1005
148025
  0
LINE
  5
148026
  8
OBJECT
 10
3924.0
 20
-1209.9999999999990905
 30
0.0
 11
4090.0
 21
-1209.9999999999990905
 31
0.0
1001
ACDBBLOCKREPETAG
1070
     1
1071
       20
1005
148026
  0
LINE
  5
148027
  8
OBJECT
 10
3932.4999999999849933
 20
-1199.9999999999990905
 30
0.0
 11
3932.4999999999849933
 21
-1209.9999999999990905
 31
0.0
1001
ACDBBLOCKREPETAG
1070
     1
1071
       21
1005
148027
  0
LINE
  5
148028
  8
OBJECT
 10
3924.0
 20
-1199.9999999999990905
 30
0.0
 11
3924.0
 21
-1184.9999999999959073
 31
0.0
1001
ACDBBLOCKREPETAG
1070
     1
1071
       22
1005
148028
  0
LINE
  5
148029
  8
HIDDEN
 10
3943.0
 20
-1159.9999999999990905
 30
0.0
 11
4057.0
 21
-1159.9999999999990905
 31
0.0
1001
ACDBBLOCKREPETAG
1070
     1
1071
       23
1005
148029
  0
LINE
  5
14802A
  8
CENTER
 10
4000.0
 20
-889.9999999999995453
 30
0.0
 11
4000.0
 21
-1238.9999999999959073
 31
0.0
1001
ACDBBLOCKREPETAG
1070
     1
1071
       24
1005
14802A
  0
LINE
  5
14802B
  8
OBJECT
 10
3925.0
 20
-889.9999999999995453
 30
0.0
 11
3925.0
 21
-971.9999999999959073
 31
0.0
1001
ACDBBLOCKREPETAG
1070
     1
1071
       25
1005
14802B
  0
LINE
  5
14802C
  8
OBJECT
 10
4075.0
 20
-889.9999999999995453
 30
0.0
 11
4075.0
 21
-971.9999999999921556
 31
0.0
1001
ACDBBLOCKREPETAG
1070
     1
1071
       26
1005
14802C
  0
LINE
  5
14802D
  8
OBJECT
 10
3925.0
 20
-971.9999999999959073
 30
0.0
 11
4075.0
 21
-971.9999999999921556
 31
0.0
1001
ACDBBLOCKREPETAG
1070
     1
1071
       27
1005
14802D
  0
LINE
  5
14802E
  8
OBJECT
 10
4057.0
 20
-1148.9999999999959073
 30
0.0
 11
4057.0
 21
-1099.9999999999920419
 31
0.0
1001
ACDBBLOCKREPETAG
1070
     1
1071
       28
1005
14802E
  0
LINE
  5
14802F
  8
OBJECT
 10
3943.0
 20
-1148.9999999999959073
 30
0.0
 11
3943.0
 21
-1099.9999999999920419
 31
0.0
1001
ACDBBLOCKREPETAG
1070
     1
1071
       29
1005
14802F
  0
LINE
  5
148030
  8
OBJECT
 10
4057.0
 20
-1099.9999999999920419
 30
0.0
 11
3943.0
 21
-1099.9999999999920419
 31
0.0
1001
ACDBBLOCKREPETAG
1070
     1
1071
       30
1005
148030
  0
LINE
  5
148031
  8
OBJECT
 10
3925.0
 20
-971.9999999999959073
 30
0.0
 11
3943.0
 21
-1099.9999999999920419
 31
0.0
1001
ACDBBLOCKREPETAG
1070
     1
1071
       31
1005
148031
  0
LINE
  5
148032
  8
OBJECT
 10
4057.0
 20
-1099.9999999999920419
 30
0.0
 11
4075.0
 21
-971.9999999999921556
 31
0.0
1001
ACDBBLOCKREPETAG
1070
     1
1071
       32
1005
148032
  0
LINE
  5
148033
  8
OBJECT
 10
3934.0
 20
-1148.9999999999959073
 30
0.0
 11
3934.0
 21
-1184.9999999999959073
 31
0.0
1001
ACDBBLOCKREPETAG
1070
     1
1071
       33
1005
148033
  0
LINE
  5
148034
  8
OBJECT
 10
4066.0
 20
-1148.9999999999959073
 30
0.0
 11
4066.0
 21
-1184.9999999999959073
 31
0.0
1001
ACDBBLOCKREPETAG
1070
     1
1071
       34
1005
148034
  0
LINE
  5
148035
  8
OBJECT
 10
4082.9999999999931788
 20
-1209.9999999999959073
 30
0.0
 11
4082.9999999999931788
 21
-1199.9999999999959073
 31
0.0
1001
ACDBBLOCKREPETAG
1070
     1
1071
       35
1005
148035
  0
LINE
  5
148036
  8
OBJECT
 10
4072.9999999999918145
 20
-1209.9999999999959073
 30
0.0
 11
4072.9999999999918145
 21
-1199.9999999999959073
 31
0.0
1001
ACDBBLOCKREPETAG
1070
     1
1071
       36
1005
148036
  0
LINE
  5
148037
  8
OBJECT
 10
4068.9999999999849933
 20
-1179.9999999999959073
 30
0.0
 11
4068.9999999999849933
 21
-1184.9999999999959073
 31
0.0
1001
ACDBBLOCKREPETAG
1070
     1
1071
       37
1005
148037
  0
LINE
  5
148038
  8
OBJECT
 10
4087.0
 20
-1179.9999999999959073
 30
0.0
 11
4087.0
 21
-1184.9999999999959073
 31
0.0
1001
ACDBBLOCKREPETAG
1070
     1
1071
       38
1005
148038
  0
LINE
  5
148039
  8
OBJECT
 10
4087.0
 20
-1179.9999999999959073
 30
0.0
 11
4068.9999999999849933
 21
-1179.9999999999959073
 31
0.0
1001
ACDBBLOCKREPETAG
1070
     1
1071
       39
1005
148039
  0
LINE
  5
14803A
  8
OBJECT
 10
4073.0
 20
-1231.9999999999959073
 30
0.0
 11
4073.0
 21
-1234.9999999999959073
 31
0.0
1001
ACDBBLOCKREPETAG
1070
     1
1071
       40
1005
14803A
  0
LINE
  5
14803B
  8
OBJECT
 10
4073.0
 20
-1234.9999999999959073
 30
0.0
 11
4083.0
 21
-1234.9999999999959073
 31
0.0
1001
ACDBBLOCKREPETAG
1070
     1
1071
       41
1005
14803B
  0
LINE
  5
14803C
  8
OBJECT
 10
4083.0
 20
-1234.9999999999959073
 30
0.0
 11
4083.0
 21
-1231.9999999999959073
 31
0.0
1001
ACDBBLOCKREPETAG
1070
     1
1071
       43
1005
14803C
  0
LINE
  5
14803D
  8
OBJECT
 10
3968.5
 20
-1179.9999999999959073
 30
0.0
 11
3951.9999999999931788
 21
-1179.9999999999959073
 31
0.0
1001
ACDBBLOCKREPETAG
1070
     1
1071
       48
1005
14803D
  0
LINE
  5
14803E
  8
OBJECT
 10
3976.0
 20
-1184.9999999999959073
 30
0.0
 11
3976.0
 21
-1182.9999999999959073
 31
0.0
1001
ACDBBLOCKREPETAG
1070
     1
1071
       49
1005
14803E
  0
LINE
  5
14803F
  8
OBJECT
 10
3966.0
 20
-1209.9999999999959073
 30
0.0
 11
3966.0
 21
-1199.9999999999959073
 31
0.0
1001
ACDBBLOCKREPETAG
1070
     1
1071
       50
1005
14803F
  0
LINE
  5
148040
  8
OBJECT
 10
3956.0
 20
-1209.9999999999959073
 30
0.0
 11
3956.0
 21
-1199.9999999999959073
 31
0.0
1001
ACDBBLOCKREPETAG
1070
     1
1071
       51
1005
148040
  0
LINE
  5
148041
  8
OBJECT
 10
3951.9999999999931788
 20
-1179.9999999999959073
 30
0.0
 11
3951.9999999999931788
 21
-1184.9999999999959073
 31
0.0
1001
ACDBBLOCKREPETAG
1070
     1
1071
       52
1005
148041
  0
LINE
  5
148042
  8
OBJECT
 10
3956.0
 20
-1231.9999999999959073
 30
0.0
 11
3956.0
 21
-1234.9999999999959073
 31
0.0
1001
ACDBBLOCKREPETAG
1070
     1
1071
       53
1005
148042
  0
LINE
  5
148043
  8
OBJECT
 10
3956.0
 20
-1234.9999999999959073
 30
0.0
 11
3966.0
 21
-1234.9999999999959073
 31
0.0
1001
ACDBBLOCKREPETAG
1070
     1
1071
       54
1005
148043
  0
LINE
  5
148044
  8
OBJECT
 10
3951.1850454237719532
 20
-1231.9999999999959073
 30
0.0
 11
3970.8149545762212256
 21
-1231.9999999999959073
 31
0.0
1001
ACDBBLOCKREPETAG
1070
     1
1071
       55
1005
148044
  0
LINE
  5
148045
  8
OBJECT
 10
3966.0
 20
-1234.9999999999959073
 30
0.0
 11
3966.0
 21
-1231.9999999999959073
 31
0.0
1001
ACDBBLOCKREPETAG
1070
     1
1071
       56
1005
148045
  0
LINE
  5
148046
  8
OBJECT
 10
3976.0
 20
-1182.9999999999959073
 30
0.0
 11
3968.5
 21
-1179.9999999999959073
 31
0.0
1001
ACDBBLOCKREPETAG
1070
     1
1071
       57
1005
148046
  0
LINE
  5
148047
  8
OBJECT
 10
3951.1850454237769554
 20
-1223.9999999999959073
 30
0.0
 11
3951.1850454237769554
 21
-1231.9999999999959073
 31
0.0
1001
ACDBBLOCKREPETAG
1070
     1
1071
      630
1005
148047
  0
LINE
  5
148048
  8
OBJECT
 10
3956.0925227118891598
 20
-1223.9999999999959073
 30
0.0
 11
3956.0925227118891598
 21
-1231.9999999999959073
 31
0.0
1001
ACDBBLOCKREPETAG
1070
     1
1071
      631
1005
148048
  0
LINE
  5
148049
  8
OBJECT
 10
3965.9074772881122044
 20
-1223.9999999999959073
 30
0.0
 11
3965.9074772881122044
 21
-1231.9999999999959073
 31
0.0
1001
ACDBBLOCKREPETAG
1070
     1
1071
      632
1005
148049
  0
LINE
  5
14804A
  8
OBJECT
 10
3970.8149545762230446
 20
-1223.9999999999959073
 30
0.0
 11
3970.8149545762230446
 21
-1231.9999999999959073
 31
0.0
1001
ACDBBLOCKREPETAG
1070
     1
1071
      633
1005
14804A
  0
LINE
  5
14804B
  8
OBJECT
 10
4068.1850454237719532
 20
-1231.9999999999959073
 30
0.0
 11
4087.8149545762198613
 21
-1231.9999999999959073
 31
0.0
1001
ACDBBLOCKREPETAG
1070
     1
1071
      634
1005
14804B
  0
LINE
  5
14804C
  8
OBJECT
 10
4068.1850454237769554
 20
-1223.9999999999959073
 30
0.0
 11
4068.1850454237769554
 21
-1231.9999999999959073
 31
0.0
1001
ACDBBLOCKREPETAG
1070
     1
1071
      635
1005
14804C
  0
LINE
  5
14804D
  8
OBJECT
 10
4073.0925227118868861
 20
-1223.9999999999959073
 30
0.0
 11
4073.0925227118868861
 21
-1231.9999999999959073
 31
0.0
1001
ACDBBLOCKREPETAG
1070
     1
1071
      636
1005
14804D
  0
LINE
  5
14804E
  8
OBJECT
 10
4082.9074772881122044
 20
-1223.9999999999959073
 30
0.0
 11
4082.9074772881122044
 21
-1231.9999999999959073
 31
0.0
1001
ACDBBLOCKREPETAG
1070
     1
1071
      637
1005
14804E
  0
LINE
  5
14804F
  8
OBJECT
 10
4087.8149545762230446
 20
-1223.9999999999959073
 30
0.0
 11
4087.8149545762230446
 21
-1231.9999999999959073
 31
0.0
1001
ACDBBLOCKREPETAG
1070
     1
1071
      638
1005
14804F
  0
LINE
  5
148050
  8
OBJECT
 10
1943.0
 20
-1199.9999999999959073
 30
0.0
 11
2057.0
 21
-1199.9999999999959073
 31
0.0
1001
ACDBBLOCKREPETAG
1070
     1
1071
        0
1005
148050
  0
LINE
  5
148051
  8
OBJECT
 10
1943.0
 20
-1199.9999999999959073
 30
0.0
 11
1943.0
 21
-1099.9999999999959073
 31
0.0
1001
ACDBBLOCKREPETAG
1070
     1
1071
        1
1005
148051
  0
LINE
  5
148052
  8
OBJECT
 10
2057.0
 20
-1199.9999999999959073
 30
0.0
 11
2057.0
 21
-1099.9999999999959073
 31
0.0
1001
ACDBBLOCKREPETAG
1070
     1
1071
        2
1005
148052
  0
LINE
  5
148053
  8
OBJECT
 10
1943.0
 20
-1099.9999999999959073
 30
0.0
 11
2057.0
 21
-1099.9999999999959073
 31
0.0
1001
ACDBBLOCKREPETAG
1070
     1
1071
        3
1005
148053
  0
LINE
  5
148054
  8
HIDDEN
 10
1950.0
 20
-1099.9999999999959073
 30
0.0
 11
1950.0
 21
-1199.9999999999959073
 31
0.0
1001
ACDBBLOCKREPETAG
1070
     1
1071
        4
1005
148054
  0
LINE
  5
148055
  8
HIDDEN
 10
2050.0
 20
-1099.9999999999959073
 30
0.0
 11
2050.0
 21
-1199.9999999999959073
 31
0.0
1001
ACDBBLOCKREPETAG
1070
     1
1071
        5
1005
148055
  0
LINE
  5
148056
  8
CENTER
 10
2000.0
 20
-889.9999999999995453
 30
0.0
 11
2000.0
 21
-1214.9999999999959073
 31
0.0
1001
ACDBBLOCKREPETAG
1070
     1
1071
        6
1005
148056
  0
LINE
  5
148057
  8
OBJECT
 10
1925.0
 20
-889.9999999999995453
 30
0.0
 11
1925.0
 21
-971.9999999999959073
 31
0.0
1001
ACDBBLOCKREPETAG
1070
     1
1071
        7
1005
148057
  0
LINE
  5
148058
  8
OBJECT
 10
2075.0
 20
-889.9999999999995453
 30
0.0
 11
2075.0
 21
-971.9999999999959073
 31
0.0
1001
ACDBBLOCKREPETAG
1070
     1
1071
        8
1005
148058
  0
LINE
  5
148059
  8
OBJECT
 10
1925.0
 20
-971.9999999999959073
 30
0.0
 11
2075.0
 21
-971.9999999999959073
 31
0.0
1001
ACDBBLOCKREPETAG
1070
     1
1071
        9
1005
148059
  0
LINE
  5
14805A
  8
OBJECT
 10
1925.0
 20
-971.9999999999959073
 30
0.0
 11
1943.0
 21
-1099.9999999999959073
 31
0.0
1001
ACDBBLOCKREPETAG
1070
     1
1071
       10
1005
14805A
  0
LINE
  5
14805B
  8
OBJECT
 10
2057.0
 20
-1099.9999999999959073
 30
0.0
 11
2075.0
 21
-971.9999999999959073
 31
0.0
1001
ACDBBLOCKREPETAG
1070
     1
1071
       11
1005
14805B
  0
TEXT
  5
14805C
  8
SLIM
 10
0.0
 20
670.0
 30
0.0
 40
100.0
  1
4SVT-C4X-S【管底】
 41
0.75
  0
TEXT
  5
14805D
  8
SLIM
 10
0.0
 20
520.0
 30
0.0
 40
100.0
  1
4SVT-C4X-W【管底】
 41
0.75
  0
LINE
  5
14805E
  8
CENTER
 10
11909.0
 20
-1473.9999999999959073
 30
0.0
 11
12105.0
 21
-1473.9999999999959073
 31
0.0
1001
ACDBBLOCKREPETAG
1070
     1
1071
       10
1005
14805E
  0
LINE
  5
14805F
  8
CENTER
 10
12000.0
 20
-1382.7253355707789524
 30
0.0
 11
12000.0
 21
-1565.2746644292119527
 31
0.0
1001
ACDBBLOCKREPETAG
1070
     1
1071
       11
1005
14805F
  0
CIRCLE
  5
148060
  8
OBJECT
 10
12000.0
 20
-1473.9999999999959073
 30
0.0
 40
50.0
1001
ACDBBLOCKREPETAG
1070
     1
1071
       12
1005
148060
  0
CIRCLE
  5
148061
  8
OBJECT
 10
12000.0
 20
-1473.9999999999959073
 30
0.0
 40
60.0
1001
ACDBBLOCKREPETAG
1070
     1
1071
       13
1005
148061
  0
CIRCLE
  5
148062
  8
OBJECT
 10
12000.0
 20
-1473.9999999999959073
 30
0.0
 40
68.0
1001
ACDBBLOCKREPETAG
1070
     1
1071
       14
1005
148062
  0
ARC
  5
148063
  8
OBJECT
 10
12077.5
 20
-1473.9999999999959073
 30
0.0
 40
12.0
 50
272.105426272216107
 51
87.8945737277838788
1001
ACDBBLOCKREPETAG
1070
     1
1071
       15
1005
148063
  0
ARC
  5
148064
  8
OBJECT
 10
12078.4919354838602885
 20
-1447.018227189523941
 30
0.0
 40
15.0
 50
198.9705187796525934
 51
267.8945737277837793
1001
ACDBBLOCKREPETAG
1070
     1
1071
       16
1005
148064
  0
ARC
  5
148065
  8
OBJECT
 10
12078.4919354838602885
 20
-1500.9817728104640082
 30
0.0
 40
15.0
 50
92.1054262722161354
 51
161.0294812203472929
1001
ACDBBLOCKREPETAG
1070
     1
1071
       17
1005
148065
  0
CIRCLE
  5
148066
  8
SLIM
 10
12078.0
 20
-1473.9999999999959073
 30
0.0
 40
8.0
1001
ACDBBLOCKREPETAG
1070
     1
1071
       18
1005
148066
  0
POLYLINE
  5
148067
  8
SLIM
 66
     1
 10
0.0
 20
0.0
 30
0.0
 70
     1
1001
ACDBBLOCKREPETAG
1070
     1
1071
       19
1005
148067
  0
VERTEX
  5
14818C
  8
SLIM
 10
12075.6905989232291176
 20
-1469.9999999999959073
 30
0.0
  0
VERTEX
  5
14818D
  8
SLIM
 10
12073.3811978464800632
 20
-1473.9999999999959073
 30
0.0
  0
VERTEX
  5
14818E
  8
SLIM
 10
12075.6905989232291176
 20
-1477.9999999999959073
 30
0.0
  0
VERTEX
  5
14818F
  8
SLIM
 10
12080.3094010767508735
 20
-1477.9999999999959073
 30
0.0
  0
VERTEX
  5
148190
  8
SLIM
 10
12082.6188021535108419
 20
-1473.9999999999959073
 30
0.0
  0
VERTEX
  5
148191
  8
SLIM
 10
12080.3094010767508735
 20
-1469.9999999999959073
 30
0.0
  0
SEQEND
  5
148192
  8
SLIM
  0
ARC
  5
148068
  8
OBJECT
 10
11961.25
 20
-1406.883031206700025
 30
0.0
 40
12.0
 50
32.1054262721301882
 51
207.8945737276831096
1001
ACDBBLOCKREPETAG
1070
     1
1071
       20
1005
148068
  0
ARC
  5
148069
  8
OBJECT
 10
11937.3871315650503675
 20
-1419.5148762839880874
 30
0.0
 40
15.0
 50
318.970518779447616
 51
27.8945737276831096
1001
ACDBBLOCKREPETAG
1070
     1
1071
       21
1005
148069
  0
ARC
  5
14806A
  8
OBJECT
 10
11984.1209329510693351
 20
-1392.5331034735170306
 30
0.0
 40
15.0
 50
212.1054262721301882
 51
281.0294812204406867
1001
ACDBBLOCKREPETAG
1070
     1
1071
       22
1005
14806A
  0
CIRCLE
  5
14806B
  8
SLIM
 10
11961.0
 20
-1406.4500185048079857
 30
0.0
 40
7.9999999999999991
1001
ACDBBLOCKREPETAG
1070
     1
1071
       23
1005
14806B
  0
POLYLINE
  5
14806C
  8
SLIM
 66
     1
 10
0.0
 20
0.0
 30
0.0
 70
     1
1001
ACDBBLOCKREPETAG
1070
     1
1071
       24
1005
14806C
  0
VERTEX
  5
148193
  8
SLIM
 10
11958.6905989232400316
 20
-1410.4500185048088952
 30
0.0
  0
VERTEX
  5
148194
  8
SLIM
 10
11963.3094010767508735
 20
-1410.4500185048088952
 30
0.0
  0
VERTEX
  5
148195
  8
SLIM
 10
11965.6188021535108419
 20
-1406.4500185048079857
 30
0.0
  0
VERTEX
  5
148196
  8
SLIM
 10
11963.3094010767508735
 20
-1402.4500185048088952
 30
0.0
  0
VERTEX
  5
148197
  8
SLIM
 10
11958.6905989232400316
 20
-1402.4500185048088952
 30
0.0
  0
VERTEX
  5
148198
  8
SLIM
 10
11956.3811978464800632
 20
-1406.4500185048079857
 30
0.0
  0
SEQEND
  5
148199
  8
SLIM
  0
ARC
  5
14806D
  8
OBJECT
 10
11961.25
 20
-1541.1169687932879242
 30
0.0
 40
12.0
 50
152.1054262723168904
 51
327.8945737278697834
1001
ACDBBLOCKREPETAG
1070
     1
1071
       25
1005
14806D
  0
ARC
  5
14806E
  8
OBJECT
 10
11984.1209329510693351
 20
-1555.4668965264709186
 30
0.0
 40
15.0
 50
78.9705187795592423
 51
147.8945737278698118
1001
ACDBBLOCKREPETAG
1070
     1
1071
       26
1005
14806E
  0
ARC
  5
14806F
  8
OBJECT
 10
11937.3871315650503675
 20
-1528.485123716003045
 30
0.0
 40
15.0
 50
332.1054262723168904
 51
41.0294812205524124
1001
ACDBBLOCKREPETAG
1070
     1
1071
       27
1005
14806F
  0
CIRCLE
  5
148070
  8
SLIM
 10
11961.0
 20
-1541.5499814951829194
 30
0.0
 40
8.0
1001
ACDBBLOCKREPETAG
1070
     1
1071
       28
1005
148070
  0
POLYLINE
  5
148071
  8
SLIM
 66
     1
 10
0.0
 20
0.0
 30
0.0
 70
     1
1001
ACDBBLOCKREPETAG
1070
     1
1071
       29
1005
148071
  0
VERTEX
  5
14819A
  8
SLIM
 10
11965.6188021535108419
 20
-1541.549981495179054
 30
0.0
  0
VERTEX
  5
14819B
  8
SLIM
 10
11963.3094010767508735
 20
-1537.5499814951829194
 30
0.0
  0
VERTEX
  5
14819C
  8
SLIM
 10
11958.6905989232400316
 20
-1537.549981495179054
 30
0.0
  0
VERTEX
  5
14819D
  8
SLIM
 10
11956.3811978464800632
 20
-1541.5499814951829194
 30
0.0
  0
VERTEX
  5
14819E
  8
SLIM
 10
11958.6905989232291176
 20
-1545.549981495179054
 30
0.0
  0
VERTEX
  5
14819F
  8
SLIM
 10
11963.3094010767508735
 20
-1545.5499814951829194
 30
0.0
  0
SEQEND
  5
1481A0
  8
SLIM
  0
ARC
  5
148072
  8
OBJECT
 10
12000.0
 20
-1473.9999999999959073
 30
0.0
 40
76.0
 50
34.8638379541718493
 51
85.1361620457329451
1001
ACDBBLOCKREPETAG
1070
     1
1071
       42
1005
148072
  0
ARC
  5
148073
  8
OBJECT
 10
12000.0
 20
-1473.9999999999959073
 30
0.0
 40
76.0
 50
154.863837954309389
 51
205.1361620456904973
1001
ACDBBLOCKREPETAG
1070
     1
1071
       43
1005
148073
  0
ARC
  5
148074
  8
OBJECT
 10
12000.0
 20
-1473.9999999999959073
 30
0.0
 40
76.0
 50
274.863837954267126
 51
325.1361620458280868
1001
ACDBBLOCKREPETAG
1070
     1
1071
       44
1005
148074
  0
ARC
  5
148075
  8
OBJECT
 10
12078.0
 20
-1473.9999999999959073
 30
0.0
 40
12.0
 50
325.1361620458280868
 51
34.8638379541718493
1001
ACDBBLOCKREPETAG
1070
     1
1071
       45
1005
148075
  0
LINE
  5
148076
  8
OBJECT
 10
12087.8461538461597229
 20
-1467.1404625201330418
 30
0.0
 11
12062.3589743590491707
 21
-1430.5562626275338971
 31
0.0
1001
ACDBBLOCKREPETAG
1070
     1
1071
       46
1005
148076
  0
LINE
  5
148077
  8
OBJECT
 10
12087.8461538461706368
 20
-1480.8595374798560442
 30
0.0
 11
12062.3589743590491707
 21
-1517.4437373724590543
 31
0.0
1001
ACDBBLOCKREPETAG
1070
     1
1071
       47
1005
148077
  0
ARC
  5
148078
  8
OBJECT
 10
11961.0
 20
-1406.450018504810032
 30
0.0
 40
12.0
 50
85.1361620459428252
 51
154.8638379541000063
1001
ACDBBLOCKREPETAG
1070
     1
1071
       48
1005
148078
  0
LINE
  5
148079
  8
OBJECT
 10
11950.1363893611396634
 20
-1401.3527678843909143
 30
0.0
 11
11931.1971326205803052
 21
-1441.7174127373471038
 31
0.0
1001
ACDBBLOCKREPETAG
1070
     1
1071
       49
1005
148079
  0
LINE
  5
14807A
  8
OBJECT
 10
11962.0174567926806048
 20
-1394.4932304045260025
 30
0.0
 11
12006.443893020370524
 21
-1398.2736753648850936
 31
0.0
1001
ACDBBLOCKREPETAG
1070
     1
1071
       50
1005
14807A
  0
ARC
  5
14807B
  8
OBJECT
 10
11961.0
 20
-1541.5499814951811004
 30
0.0
 40
12.0
 50
205.1361620458999084
 51
274.8638379540572032
1001
ACDBBLOCKREPETAG
1070
     1
1071
       51
1005
14807B
  0
LINE
  5
14807C
  8
OBJECT
 10
11962.0174567926896998
 20
-1553.5067695954630835
 30
0.0
 11
12006.4438930203596101
 21
-1549.7263246351060388
 31
0.0
1001
ACDBBLOCKREPETAG
1070
     1
1071
       52
1005
14807C
  0
LINE
  5
14807D
  8
OBJECT
 10
11950.1363893611396634
 20
-1546.6472321156049929
 30
0.0
 11
11931.1971326205803052
 21
-1506.2825872626428918
 31
0.0
1001
ACDBBLOCKREPETAG
1070
     1
1071
       53
1005
14807D
  0
LINE
  5
14807E
  8
CENTER
 10
9909.0
 20
-1473.9999999999959073
 30
0.0
 11
10105.0
 21
-1473.9999999999959073
 31
0.0
1001
ACDBBLOCKREPETAG
1070
     1
1071
        0
1005
14807E
  0
LINE
  5
14807F
  8
CENTER
 10
10000.0
 20
-1382.7253355707789524
 30
0.0
 11
10000.0
 21
-1565.2746644292119527
 31
0.0
1001
ACDBBLOCKREPETAG
1070
     1
1071
        1
1005
14807F
  0
CIRCLE
  5
148080
  8
OBJECT
 10
10000.0
 20
-1473.9999999999959073
 30
0.0
 40
50.0
1001
ACDBBLOCKREPETAG
1070
     1
1071
        2
1005
148080
  0
CIRCLE
  5
148081
  8
OBJECT
 10
10000.0
 20
-1473.9999999999959073
 30
0.0
 40
62.0
1001
ACDBBLOCKREPETAG
1070
     1
1071
        3
1005
148081
  0
CIRCLE
  5
148082
  8
SLIM
 10
10078.0
 20
-1473.9999999999959073
 30
0.0
 40
5.0
1001
ACDBBLOCKREPETAG
1070
     1
1071
        4
1005
148082
  0
POLYLINE
  5
148083
  8
SLIM
 66
     1
 10
0.0
 20
0.0
 30
0.0
 70
     1
1001
ACDBBLOCKREPETAG
1070
     1
1071
        5
1005
148083
  0
VERTEX
  5
1481A1
  8
SLIM
 10
10073.0925227118805196
 20
-1465.4999999999959073
 30
0.0
  0
VERTEX
  5
1481A2
  8
SLIM
 10
10068.1850454237701342
 20
-1473.9999999999959073
 30
0.0
  0
VERTEX
  5
1481A3
  8
SLIM
 10
10073.0925227118805196
 20
-1482.4999999999959073
 30
0.0
  0
VERTEX
  5
1481A4
  8
SLIM
 10
10082.9074772880994715
 20
-1482.4999999999959073
 30
0.0
  0
VERTEX
  5
1481A5
  8
SLIM
 10
10087.8149545762207708
 20
-1473.9999999999959073
 30
0.0
  0
VERTEX
  5
1481A6
  8
SLIM
 10
10082.9074772880994715
 20
-1465.4999999999959073
 30
0.0
  0
SEQEND
  5
1481A7
  8
SLIM
  0
CIRCLE
  5
148084
  8
SLIM
 10
9961.0
 20
-1406.4500185048079857
 30
0.0
 40
4.9999999999999991
1001
ACDBBLOCKREPETAG
1070
     1
1071
        6
1005
148084
  0
POLYLINE
  5
148085
  8
SLIM
 66
     1
 10
0.0
 20
0.0
 30
0.0
 70
     1
1001
ACDBBLOCKREPETAG
1070
     1
1071
        7
1005
148085
  0
VERTEX
  5
1481A8
  8
SLIM
 10
9956.0925227118859766
 20
-1414.9500185048079857
 30
0.0
  0
VERTEX
  5
1481A9
  8
SLIM
 10
9965.9074772881140234
 20
-1414.9500185048079857
 30
0.0
  0
VERTEX
  5
1481AA
  8
SLIM
 10
9970.8149545762207708
 20
-1406.4500185048079857
 30
0.0
  0
VERTEX
  5
1481AB
  8
SLIM
 10
9965.9074772881140234
 20
-1397.9500185048088952
 30
0.0
  0
VERTEX
  5
1481AC
  8
SLIM
 10
9956.0925227118859766
 20
-1397.9500185048088952
 30
0.0
  0
VERTEX
  5
1481AD
  8
SLIM
 10
9951.1850454237719532
 20
-1406.4500185048079857
 30
0.0
  0
SEQEND
  5
1481AE
  8
SLIM
  0
CIRCLE
  5
148086
  8
SLIM
 10
9961.0
 20
-1541.5499814951829194
 30
0.0
 40
5.0
1001
ACDBBLOCKREPETAG
1070
     1
1071
        8
1005
148086
  0
POLYLINE
  5
148087
  8
SLIM
 66
     1
 10
0.0
 20
0.0
 30
0.0
 70
     1
1001
ACDBBLOCKREPETAG
1070
     1
1071
        9
1005
148087
  0
VERTEX
  5
1481AF
  8
SLIM
 10
9970.8149545762207708
 20
-1541.5499814951829194
 30
0.0
  0
VERTEX
  5
1481B0
  8
SLIM
 10
9965.9074772881067474
 20
-1533.049981495179054
 30
0.0
  0
VERTEX
  5
1481B1
  8
SLIM
 10
9956.0925227118859766
 20
-1533.0499814951829194
 30
0.0
  0
VERTEX
  5
1481B2
  8
SLIM
 10
9951.1850454237719532
 20
-1541.549981495179054
 30
0.0
  0
VERTEX
  5
1481B3
  8
SLIM
 10
9956.0925227118859766
 20
-1550.0499814951829194
 30
0.0
  0
VERTEX
  5
1481B4
  8
SLIM
 10
9965.9074772881140234
 20
-1550.049981495179054
 30
0.0
  0
SEQEND
  5
1481B5
  8
SLIM
  0
ARC
  5
148088
  8
OBJECT
 10
10000.0
 20
-1473.9999999999959073
 30
0.0
 40
76.0
 50
34.8638379541718493
 51
85.1361620457329451
1001
ACDBBLOCKREPETAG
1070
     1
1071
       30
1005
148088
  0
ARC
  5
148089
  8
OBJECT
 10
10000.0
 20
-1473.9999999999959073
 30
0.0
 40
76.0
 50
154.863837954309389
 51
205.1361620456904973
1001
ACDBBLOCKREPETAG
1070
     1
1071
       31
1005
148089
  0
ARC
  5
14808A
  8
OBJECT
 10
10000.0
 20
-1473.9999999999959073
 30
0.0
 40
76.0
 50
274.863837954267126
 51
325.1361620458280868
1001
ACDBBLOCKREPETAG
1070
     1
1071
       32
1005
14808A
  0
ARC
  5
14808B
  8
OBJECT
 10
10078.0
 20
-1473.9999999999959073
 30
0.0
 40
12.0
 50
325.1361620458280868
 51
34.8638379541718493
1001
ACDBBLOCKREPETAG
1070
     1
1071
       33
1005
14808B
  0
LINE
  5
14808C
  8
OBJECT
 10
10087.8461538461597229
 20
-1467.1404625201330418
 30
0.0
 11
10062.3589743590491707
 21
-1430.5562626275338971
 31
0.0
1001
ACDBBLOCKREPETAG
1070
     1
1071
       34
1005
14808C
  0
LINE
  5
14808D
  8
OBJECT
 10
10087.8461538461706368
 20
-1480.8595374798560442
 30
0.0
 11
10062.3589743590491707
 21
-1517.4437373724590543
 31
0.0
1001
ACDBBLOCKREPETAG
1070
     1
1071
       35
1005
14808D
  0
ARC
  5
14808E
  8
OBJECT
 10
9961.0
 20
-1406.450018504810032
 30
0.0
 40
12.0
 50
85.1361620459428252
 51
154.8638379541000063
1001
ACDBBLOCKREPETAG
1070
     1
1071
       36
1005
14808E
  0
LINE
  5
14808F
  8
OBJECT
 10
9950.1363893611451203
 20
-1401.3527678843909143
 30
0.0
 11
9931.1971326205875812
 21
-1441.7174127373471038
 31
0.0
1001
ACDBBLOCKREPETAG
1070
     1
1071
       37
1005
14808F
  0
LINE
  5
148090
  8
OBJECT
 10
9962.0174567926842428
 20
-1394.4932304045260025
 30
0.0
 11
10006.443893020370524
 21
-1398.2736753648850936
 31
0.0
1001
ACDBBLOCKREPETAG
1070
     1
1071
       38
1005
148090
  0
ARC
  5
148091
  8
OBJECT
 10
9961.0
 20
-1541.5499814951811004
 30
0.0
 40
12.0
 50
205.1361620458999084
 51
274.8638379540572032
1001
ACDBBLOCKREPETAG
1070
     1
1071
       39
1005
148091
  0
LINE
  5
148092
  8
OBJECT
 10
9962.0174567926878808
 20
-1553.5067695954630835
 30
0.0
 11
10006.4438930203596101
 21
-1549.7263246351060388
 31
0.0
1001
ACDBBLOCKREPETAG
1070
     1
1071
       40
1005
148092
  0
LINE
  5
148093
  8
OBJECT
 10
9950.1363893611451203
 20
-1546.6472321156049929
 30
0.0
 11
9931.1971326205821242
 21
-1506.2825872626428918
 31
0.0
1001
ACDBBLOCKREPETAG
1070
     1
1071
       41
1005
148093
  0
LINE
  5
148094
  8
CENTER
 10
5909.0
 20
-1514.9999999999990905
 30
0.0
 11
6105.0
 21
-1514.9999999999990905
 31
0.0
1001
ACDBBLOCKREPETAG
1070
     1
1071
       10
1005
148094
  0
LINE
  5
148095
  8
CENTER
 10
6000.0
 20
-1423.7253355707830451
 30
0.0
 11
6000.0
 21
-1606.2746644292149085
 31
0.0
1001
ACDBBLOCKREPETAG
1070
     1
1071
       11
1005
148095
  0
CIRCLE
  5
148096
  8
OBJECT
 10
6000.0
 20
-1514.9999999999990905
 30
0.0
 40
50.0
1001
ACDBBLOCKREPETAG
1070
     1
1071
       12
1005
148096
  0
CIRCLE
  5
148097
  8
OBJECT
 10
6000.0
 20
-1514.9999999999990905
 30
0.0
 40
60.0
1001
ACDBBLOCKREPETAG
1070
     1
1071
       13
1005
148097
  0
CIRCLE
  5
148098
  8
OBJECT
 10
6000.0
 20
-1514.9999999999990905
 30
0.0
 40
68.0
1001
ACDBBLOCKREPETAG
1070
     1
1071
       14
1005
148098
  0
ARC
  5
148099
  8
OBJECT
 10
6077.5
 20
-1514.9999999999990905
 30
0.0
 40
12.0
 50
272.105426272216107
 51
87.8945737277838788
1001
ACDBBLOCKREPETAG
1070
     1
1071
       15
1005
148099
  0
ARC
  5
14809A
  8
OBJECT
 10
6078.4919354838639265
 20
-1488.0182271895268968
 30
0.0
 40
15.0
 50
198.9705187796357109
 51
267.8945737277837793
1001
ACDBBLOCKREPETAG
1070
     1
1071
       16
1005
14809A
  0
ARC
  5
14809B
  8
OBJECT
 10
6078.4919354838639265
 20
-1541.9817728104669641
 30
0.0
 40
15.0
 50
92.1054262722161354
 51
161.0294812203642891
1001
ACDBBLOCKREPETAG
1070
     1
1071
       17
1005
14809B
  0
CIRCLE
  5
14809C
  8
SLIM
 10
6078.0
 20
-1514.9999999999990905
 30
0.0
 40
8.0
1001
ACDBBLOCKREPETAG
1070
     1
1071
       18
1005
14809C
  0
POLYLINE
  5
14809D
  8
SLIM
 66
     1
 10
0.0
 20
0.0
 30
0.0
 70
     1
1001
ACDBBLOCKREPETAG
1070
     1
1071
       19
1005
14809D
  0
VERTEX
  5
1481B6
  8
SLIM
 10
6075.6905989232327556
 20
-1510.9999999999990905
 30
0.0
  0
VERTEX
  5
1481B7
  8
SLIM
 10
6073.3811978464800632
 20
-1514.9999999999990905
 30
0.0
  0
VERTEX
  5
1481B8
  8
SLIM
 10
6075.6905989232327556
 20
-1518.9999999999990905
 30
0.0
  0
VERTEX
  5
1481B9
  8
SLIM
 10
6080.3094010767526925
 20
-1518.9999999999990905
 30
0.0
  0
VERTEX
  5
1481BA
  8
SLIM
 10
6082.6188021535126609
 20
-1514.9999999999990905
 30
0.0
  0
VERTEX
  5
1481BB
  8
SLIM
 10
6080.3094010767526925
 20
-1510.9999999999990905
 30
0.0
  0
SEQEND
  5
1481BC
  8
SLIM
  0
ARC
  5
14809E
  8
OBJECT
 10
5961.25
 20
-1447.8830312067029809
 30
0.0
 40
12.0
 50
32.105426272157878
 51
207.8945737277074954
1001
ACDBBLOCKREPETAG
1070
     1
1071
       20
1005
14809E
  0
ARC
  5
14809F
  8
OBJECT
 10
5937.3871315650540055
 20
-1460.5148762839919527
 30
0.0
 40
15.0
 50
318.970518779447616
 51
27.8945737277074883
1001
ACDBBLOCKREPETAG
1070
     1
1071
       21
1005
14809F
  0
ARC
  5
1480A0
  8
OBJECT
 10
5984.1209329510684256
 20
-1433.5331034735199864
 30
0.0
 40
15.0
 50
212.1054262721578993
 51
281.0294812204406867
1001
ACDBBLOCKREPETAG
1070
     1
1071
       22
1005
1480A0
  0
CIRCLE
  5
1480A1
  8
SLIM
 10
5961.0
 20
-1447.4500185048109415
 30
0.0
 40
7.9999999999999991
1001
ACDBBLOCKREPETAG
1070
     1
1071
       23
1005
1480A1
  0
POLYLINE
  5
1480A2
  8
SLIM
 66
     1
 10
0.0
 20
0.0
 30
0.0
 70
     1
1001
ACDBBLOCKREPETAG
1070
     1
1071
       24
1005
1480A2
  0
VERTEX
  5
1481BD
  8
SLIM
 10
5958.6905989232400316
 20
-1451.4500185048120784
 30
0.0
  0
VERTEX
  5
1481BE
  8
SLIM
 10
5963.309401076751783
 20
-1451.4500185048120784
 30
0.0
  0
VERTEX
  5
1481BF
  8
SLIM
 10
5965.6188021535126609
 20
-1447.4500185048109415
 30
0.0
  0
VERTEX
  5
1481C0
  8
SLIM
 10
5963.309401076751783
 20
-1443.4500185048120784
 30
0.0
  0
VERTEX
  5
1481C1
  8
SLIM
 10
5958.6905989232400316
 20
-1443.4500185048120784
 30
0.0
  0
VERTEX
  5
1481C2
  8
SLIM
 10
5956.3811978464800632
 20
-1447.4500185048109415
 30
0.0
  0
SEQEND
  5
1481C3
  8
SLIM
  0
ARC
  5
1480A3
  8
OBJECT
 10
5961.25
 20
-1582.1169687932911074
 30
0.0
 40
12.0
 50
152.1054262722925046
 51
327.8945737278421007
1001
ACDBBLOCKREPETAG
1070
     1
1071
       25
1005
1480A3
  0
ARC
  5
1480A4
  8
OBJECT
 10
5984.1209329510684256
 20
-1596.4668965264741018
 30
0.0
 40
15.0
 50
78.9705187795592423
 51
147.8945737278421007
1001
ACDBBLOCKREPETAG
1070
     1
1071
       26
1005
1480A4
  0
ARC
  5
1480A5
  8
OBJECT
 10
5937.3871315650540055
 20
-1569.4851237160060009
 30
0.0
 40
15.0
 50
332.1054262722925046
 51
41.0294812205524124
1001
ACDBBLOCKREPETAG
1070
     1
1071
       27
1005
1480A5
  0
CIRCLE
  5
1480A6
  8
SLIM
 10
5961.0
 20
-1582.5499814951861026
 30
0.0
 40
8.0
1001
ACDBBLOCKREPETAG
1070
     1
1071
       28
1005
1480A6
  0
POLYLINE
  5
1480A7
  8
SLIM
 66
     1
 10
0.0
 20
0.0
 30
0.0
 70
     1
1001
ACDBBLOCKREPETAG
1070
     1
1071
       29
1005
1480A7
  0
VERTEX
  5
1481C4
  8
SLIM
 10
5965.6188021535126609
 20
-1582.5499814951829194
 30
0.0
  0
VERTEX
  5
1481C5
  8
SLIM
 10
5963.309401076751783
 20
-1578.5499814951861026
 30
0.0
  0
VERTEX
  5
1481C6
  8
SLIM
 10
5958.6905989232400316
 20
-1578.5499814951820099
 30
0.0
  0
VERTEX
  5
1481C7
  8
SLIM
 10
5956.3811978464800632
 20
-1582.5499814951861026
 30
0.0
  0
VERTEX
  5
1481C8
  8
SLIM
 10
5958.6905989232327556
 20
-1586.5499814951820099
 30
0.0
  0
VERTEX
  5
1481C9
  8
SLIM
 10
5963.309401076751783
 20
-1586.5499814951861026
 30
0.0
  0
SEQEND
  5
1481CA
  8
SLIM
  0
ARC
  5
1480A8
  8
OBJECT
 10
6000.0
 20
-1514.9999999999990905
 30
0.0
 40
76.0
 50
34.8638379541420633
 51
85.1361620457329451
1001
ACDBBLOCKREPETAG
1070
     1
1071
       42
1005
1480A8
  0
ARC
  5
1480A9
  8
OBJECT
 10
6000.0
 20
-1514.9999999999990905
 30
0.0
 40
76.0
 50
154.863837954309389
 51
205.1361620456904973
1001
ACDBBLOCKREPETAG
1070
     1
1071
       43
1005
1480A9
  0
ARC
  5
1480AA
  8
OBJECT
 10
6000.0
 20
-1514.9999999999990905
 30
0.0
 40
76.0
 50
274.863837954267126
 51
325.1361620458579864
1001
ACDBBLOCKREPETAG
1070
     1
1071
       44
1005
1480AA
  0
ARC
  5
1480AB
  8
OBJECT
 10
6078.0
 20
-1514.9999999999990905
 30
0.0
 40
12.0
 50
325.1361620458579864
 51
34.8638379541420633
1001
ACDBBLOCKREPETAG
1070
     1
1071
       45
1005
1480AB
  0
LINE
  5
1480AC
  8
OBJECT
 10
6087.8461538461669988
 20
-1508.1404625201369072
 30
0.0
 11
6062.3589743590500802
 21
-1471.5562626275379898
 31
0.0
1001
ACDBBLOCKREPETAG
1070
     1
1071
       46
1005
1480AC
  0
LINE
  5
1480AD
  8
OBJECT
 10
6087.8461538461706368
 20
-1521.8595374798590001
 30
0.0
 11
6062.3589743590500802
 21
-1558.4437373724620102
 31
0.0
1001
ACDBBLOCKREPETAG
1070
     1
1071
       47
1005
1480AD
  0
ARC
  5
1480AE
  8
OBJECT
 10
5961.0
 20
-1447.4500185048138974
 30
0.0
 40
12.0
 50
85.1361620459428252
 51
154.8638379541000063
1001
ACDBBLOCKREPETAG
1070
     1
1071
       48
1005
1480AE
  0
LINE
  5
1480AF
  8
OBJECT
 10
5950.1363893611451203
 20
-1442.3527678843940976
 30
0.0
 11
5931.1971326205848527
 21
-1482.7174127373500596
 31
0.0
1001
ACDBBLOCKREPETAG
1070
     1
1071
       49
1005
1480AF
  0
LINE
  5
1480B0
  8
OBJECT
 10
5962.0174567926842428
 20
-1435.4932304045300953
 30
0.0
 11
6006.4438930203677955
 21
-1439.2736753648889589
 31
0.0
1001
ACDBBLOCKREPETAG
1070
     1
1071
       50
1005
1480B0
  0
ARC
  5
1480B1
  8
OBJECT
 10
5961.0
 20
-1582.5499814951840563
 30
0.0
 40
12.0
 50
205.1361620458999084
 51
274.8638379540572032
1001
ACDBBLOCKREPETAG
1070
     1
1071
       51
1005
1480B1
  0
LINE
  5
1480B2
  8
OBJECT
 10
5962.0174567926878808
 20
-1594.5067695954669489
 30
0.0
 11
6006.4438930203650671
 21
-1590.7263246351089947
 31
0.0
1001
ACDBBLOCKREPETAG
1070
     1
1071
       52
1005
1480B2
  0
LINE
  5
1480B3
  8
OBJECT
 10
5950.1363893611451203
 20
-1587.6472321156079488
 30
0.0
 11
5931.1971326205821242
 21
-1547.282587262646075
 31
0.0
1001
ACDBBLOCKREPETAG
1070
     1
1071
       53
1005
1480B3
  0
LINE
  5
1480B4
  8
CENTER
 10
3909.0
 20
-1473.9999999999959073
 30
0.0
 11
4105.0
 21
-1473.9999999999959073
 31
0.0
1001
ACDBBLOCKREPETAG
1070
     1
1071
        0
1005
1480B4
  0
LINE
  5
1480B5
  8
CENTER
 10
4000.0
 20
-1382.7253355707789524
 30
0.0
 11
4000.0
 21
-1565.2746644292119527
 31
0.0
1001
ACDBBLOCKREPETAG
1070
     1
1071
        1
1005
1480B5
  0
CIRCLE
  5
1480B6
  8
OBJECT
 10
4000.0
 20
-1473.9999999999959073
 30
0.0
 40
50.0
1001
ACDBBLOCKREPETAG
1070
     1
1071
        2
1005
1480B6
  0
CIRCLE
  5
1480B7
  8
OBJECT
 10
4000.0
 20
-1473.9999999999959073
 30
0.0
 40
62.0
1001
ACDBBLOCKREPETAG
1070
     1
1071
        3
1005
1480B7
  0
CIRCLE
  5
1480B8
  8
SLIM
 10
4078.0
 20
-1473.9999999999959073
 30
0.0
 40
5.0
1001
ACDBBLOCKREPETAG
1070
     1
1071
        4
1005
1480B8
  0
POLYLINE
  5
1480B9
  8
SLIM
 66
     1
 10
0.0
 20
0.0
 30
0.0
 70
     1
1001
ACDBBLOCKREPETAG
1070
     1
1071
        5
1005
1480B9
  0
VERTEX
  5
1481CB
  8
SLIM
 10
4073.0925227118859766
 20
-1465.4999999999959073
 30
0.0
  0
VERTEX
  5
1481CC
  8
SLIM
 10
4068.1850454237719532
 20
-1473.9999999999959073
 30
0.0
  0
VERTEX
  5
1481CD
  8
SLIM
 10
4073.0925227118859766
 20
-1482.4999999999959073
 30
0.0
  0
VERTEX
  5
1481CE
  8
SLIM
 10
4082.9074772881072022
 20
-1482.4999999999959073
 30
0.0
  0
VERTEX
  5
1481CF
  8
SLIM
 10
4087.8149545762198613
 20
-1473.9999999999959073
 30
0.0
  0
VERTEX
  5
1481D0
  8
SLIM
 10
4082.9074772881072022
 20
-1465.4999999999959073
 30
0.0
  0
SEQEND
  5
1481D1
  8
SLIM
  0
CIRCLE
  5
1480BA
  8
SLIM
 10
3961.0
 20
-1406.4500185048079857
 30
0.0
 40
4.9999999999999991
1001
ACDBBLOCKREPETAG
1070
     1
1071
        6
1005
1480BA
  0
POLYLINE
  5
1480BB
  8
SLIM
 66
     1
 10
0.0
 20
0.0
 30
0.0
 70
     1
1001
ACDBBLOCKREPETAG
1070
     1
1071
        7
1005
1480BB
  0
VERTEX
  5
1481D2
  8
SLIM
 10
3956.0925227118859766
 20
-1414.9500185048079857
 30
0.0
  0
VERTEX
  5
1481D3
  8
SLIM
 10
3965.9074772881140234
 20
-1414.9500185048079857
 30
0.0
  0
VERTEX
  5
1481D4
  8
SLIM
 10
3970.8149545762212256
 20
-1406.4500185048079857
 30
0.0
  0
VERTEX
  5
1481D5
  8
SLIM
 10
3965.9074772881140234
 20
-1397.9500185048088952
 30
0.0
  0
VERTEX
  5
1481D6
  8
SLIM
 10
3956.0925227118859766
 20
-1397.9500185048088952
 30
0.0
  0
VERTEX
  5
1481D7
  8
SLIM
 10
3951.1850454237719532
 20
-1406.4500185048079857
 30
0.0
  0
SEQEND
  5
1481D8
  8
SLIM
  0
CIRCLE
  5
1480BC
  8
SLIM
 10
3961.0
 20
-1541.5499814951829194
 30
0.0
 40
5.0
1001
ACDBBLOCKREPETAG
1070
     1
1071
        8
1005
1480BC
  0
POLYLINE
  5
1480BD
  8
SLIM
 66
     1
 10
0.0
 20
0.0
 30
0.0
 70
     1
1001
ACDBBLOCKREPETAG
1070
     1
1071
        9
1005
1480BD
  0
VERTEX
  5
1481D9
  8
SLIM
 10
3970.8149545762212256
 20
-1541.5499814951829194
 30
0.0
  0
VERTEX
  5
1481DA
  8
SLIM
 10
3965.9074772881072022
 20
-1533.049981495179054
 30
0.0
  0
VERTEX
  5
1481DB
  8
SLIM
 10
3956.0925227118859766
 20
-1533.0499814951829194
 30
0.0
  0
VERTEX
  5
1481DC
  8
SLIM
 10
3951.1850454237719532
 20
-1541.549981495179054
 30
0.0
  0
VERTEX
  5
1481DD
  8
SLIM
 10
3956.0925227118859766
 20
-1550.0499814951829194
 30
0.0
  0
VERTEX
  5
1481DE
  8
SLIM
 10
3965.9074772881140234
 20
-1550.049981495179054
 30
0.0
  0
SEQEND
  5
1481DF
  8
SLIM
  0
ARC
  5
1480BE
  8
OBJECT
 10
4000.0
 20
-1473.9999999999959073
 30
0.0
 40
76.0
 50
34.8638379541420633
 51
85.1361620457329451
1001
ACDBBLOCKREPETAG
1070
     1
1071
       30
1005
1480BE
  0
ARC
  5
1480BF
  8
OBJECT
 10
4000.0
 20
-1473.9999999999959073
 30
0.0
 40
76.0
 50
154.863837954309389
 51
205.1361620456904973
1001
ACDBBLOCKREPETAG
1070
     1
1071
       31
1005
1480BF
  0
ARC
  5
1480C0
  8
OBJECT
 10
4000.0
 20
-1473.9999999999959073
 30
0.0
 40
76.0
 50
274.863837954267126
 51
325.1361620458579864
1001
ACDBBLOCKREPETAG
1070
     1
1071
       32
1005
1480C0
  0
ARC
  5
1480C1
  8
OBJECT
 10
4078.0
 20
-1473.9999999999959073
 30
0.0
 40
12.0
 50
325.1361620458579864
 51
34.8638379541420633
1001
ACDBBLOCKREPETAG
1070
     1
1071
       33
1005
1480C1
  0
LINE
  5
1480C2
  8
OBJECT
 10
4087.8461538461669988
 20
-1467.1404625201330418
 30
0.0
 11
4062.3589743590491707
 21
-1430.5562626275338971
 31
0.0
1001
ACDBBLOCKREPETAG
1070
     1
1071
       34
1005
1480C2
  0
LINE
  5
1480C3
  8
OBJECT
 10
4087.8461538461710916
 20
-1480.8595374798560442
 30
0.0
 11
4062.3589743590491707
 21
-1517.4437373724590543
 31
0.0
1001
ACDBBLOCKREPETAG
1070
     1
1071
       35
1005
1480C3
  0
ARC
  5
1480C4
  8
OBJECT
 10
3961.0
 20
-1406.450018504810032
 30
0.0
 40
12.0
 50
85.1361620459428252
 51
154.8638379541110908
1001
ACDBBLOCKREPETAG
1070
     1
1071
       36
1005
1480C4
  0
LINE
  5
1480C5
  8
OBJECT
 10
3950.1363893611460298
 20
-1401.3527678843909143
 30
0.0
 11
3931.1971326205862169
 21
-1441.7174127373471038
 31
0.0
1001
ACDBBLOCKREPETAG
1070
     1
1071
       37
1005
1480C5
  0
LINE
  5
1480C6
  8
OBJECT
 10
3962.0174567926851523
 20
-1394.4932304045260025
 30
0.0
 11
4006.4438930203677955
 21
-1398.2736753648850936
 31
0.0
1001
ACDBBLOCKREPETAG
1070
     1
1071
       38
1005
1480C6
  0
ARC
  5
1480C7
  8
OBJECT
 10
3961.0
 20
-1541.5499814951811004
 30
0.0
 40
12.0
 50
205.1361620458889092
 51
274.8638379540572032
1001
ACDBBLOCKREPETAG
1070
     1
1071
       39
1005
1480C7
  0
LINE
  5
1480C8
  8
OBJECT
 10
3962.0174567926878808
 20
-1553.5067695954630835
 30
0.0
 11
4006.4438930203650671
 21
-1549.7263246351060388
 31
0.0
1001
ACDBBLOCKREPETAG
1070
     1
1071
       40
1005
1480C8
  0
LINE
  5
1480C9
  8
OBJECT
 10
3950.1363893611460298
 20
-1546.6472321156049929
 30
0.0
 11
3931.1971326205821242
 21
-1506.2825872626428918
 31
0.0
1001
ACDBBLOCKREPETAG
1070
     1
1071
       41
1005
1480C9
  0
TEXT
  5
1480CA
  8
SLIM
 10
3853.75
 20
-1741.4999999999959073
 30
0.0
 40
35.0
  1
両受けスタイル（W）
 41
0.75
  0
TEXT
  5
1480CB
  8
SLIM
 10
5811.8000000000001819
 20
-1838.9999999999990905
 30
0.0
 40
28.0
  1
※ 対応スラブ厚　150mm以上
 41
0.75
  0
TEXT
  5
1480CC
  8
SLIM
 10
5598.8999999999996362
 20
-1932.3333333333330302
 30
0.0
 40
28.0
  1
国土交通大臣認定・（一財）日本消防設備安全センター性能評定取得品
 41
0.75
  0
TEXT
  5
1480CD
  8
SLIM
 10
5631.1000000000003638
 20
-1978.9999999999990905
 30
0.0
 40
28.0
  1
注）ご採用にあたり、認定書及び評定書の内容をご確認ください。
 41
0.75
  0
TEXT
  5
1480CE
  8
SLIM
 10
11824.6000000000003638
 20
-1797.9999999999959073
 30
0.0
 40
28.0
  1
※ 対応スラブ厚　150～380
 41
0.75
  0
TEXT
  5
1480CF
  8
SLIM
 10
11598.8999999999996362
 20
-1891.3333333333289374
 30
0.0
 40
28.0
  1
国土交通大臣認定・（一財）日本消防設備安全センター性能評定取得品
 41
0.75
  0
TEXT
  5
1480D0
  8
SLIM
 10
11631.1000000000003638
 20
-1937.9999999999959073
 30
0.0
 40
28.0
  1
注）ご採用にあたり、認定書及び評定書の内容をご確認ください。
 41
0.75
  0
TEXT
  5
1480D1
  8
SLIM
 10
9824.6000000000003638
 20
-1797.9999999999959073
 30
0.0
 40
28.0
  1
※ 対応スラブ厚　170～380
 41
0.75
  0
TEXT
  5
1480D2
  8
SLIM
 10
9598.8999999999996362
 20
-1891.3333333333289374
 30
0.0
 40
28.0
  1
国土交通大臣認定・（一財）日本消防設備安全センター性能評定取得品
 41
0.75
  0
TEXT
  5
1480D3
  8
SLIM
 10
9631.1000000000003638
 20
-1937.9999999999959073
 30
0.0
 40
28.0
  1
注）ご採用にあたり、認定書及び評定書の内容をご確認ください。
 41
0.75
  0
TEXT
  5
1480D4
  8
SLIM
 10
7771.4000000000005457
 20
-1530.666666666664014
 30
0.0
 40
28.0
  1
※ 対応スラブ厚　170｛100｝～340
 41
0.75
  0
TEXT
  5
1480D5
  8
SLIM
 10
7733.2999999999992724
 20
-1577.3333333333309838
 30
0.0
 40
28.0
  1
｛｝内はカンペイ立て管との組み合わせの場合
 41
0.75
  0
TEXT
  5
1480D6
  8
SLIM
 10
7598.8999999999996362
 20
-1670.666666666664014
 30
0.0
 40
28.0
  1
国土交通大臣認定・（一財）日本消防設備安全センター性能評定取得品
 41
0.75
  0
TEXT
  5
1480D7
  8
SLIM
 10
7631.1000000000003638
 20
-1717.3333333333309838
 30
0.0
 40
28.0
  1
注）ご採用にあたり、認定書及び評定書の内容をご確認ください。
 41
0.75
  0
TEXT
  5
1480D8
  8
SLIM
 10
9739.125000000001819
 20
-1741.4999999999959073
 30
0.0
 40
35.0
  1
両受けスタイル（W）＋シンドカット
 41
0.75
  0
TEXT
  5
1480D9
  8
SLIM
 10
11743.5
 20
-1741.4999999999959073
 30
0.0
 40
35.0
  1
カンペイ君（WKP）＋シンドカット
 41
0.75
  0
TEXT
  5
1480DA
  8
SLIM
 10
7741.625
 20
-1467.4999999999979536
 30
0.0
 40
35.0
  1
片受けスタイル（S）＋シンドカット
 41
0.75
  0
TEXT
  5
1480DB
  8
SLIM
 10
5858.1250000000009095
 20
-1782.4999999999990905
 30
0.0
 40
35.0
  1
カンペイ君（WKP）
 41
0.75
  0
TEXT
  5
1480DC
  8
SLIM
 10
1856.25
 20
-1467.4999999999979536
 30
0.0
 40
35.0
  1
片受けスタイル（S）
 41
0.75
  0
TEXT
  5
1480DD
  8
SLIM
 10
0.0
 20
370.0
 30
0.0
 40
100.0
  1
4SVT-C4X-WKP【管底】
 41
0.75
  0
VIEWPORT
  5
F6BA7
 67
     1
  8
0
 10
163.002402778949488
 20
101.8328354358672954
 30
0.0
 40
369.3466324505333205
 41
222.1965796813965142
 68
     1
 69
     1
1001
ACAD
1000
MVIEW
1002
{
1070
    16
1010
0.0
1020
0.0
1030
0.0
1010
0.0
1020
0.0
1030
1.0
1040
0.0
1040
222.1965796813965142
1040
163.002402778949488
1040
101.8328354358672954
1040
50.0
1040
0.0
1040
0.0
1070
     0
1070
     0
1070
     1
1070
     1
1070
     0
1070
     0
1070
     0
1070
     0
1040
0.0
1040
0.0
1040
0.0
1040
10.0
1040
10.0
1040
10.0
1040
10.0
1070
     0
1002
{
1002
}
1002
}
  0
VIEWPORT
  5
F6BA9
 67
     1
  8
OBJECT
 10
145.3303314447402954
 20
101.8328338861465028
 30
0.0
 40
232.5285303115844897
 41
162.9325342178343874
 68
     2
 69
     2
1001
ACAD
1000
MVIEW
1002
{
1070
    16
1010
0.0
1020
0.0
1030
0.0
1010
0.0
1020
0.0
1030
1.0
1040
0.0
1040
25942.5590440314699663
1040
2377.6044570773769919
1040
-7591.5176687056618903
1040
50.0
1040
0.0
1040
0.0
1070
     0
1070
   600
1070
     1
1070
     1
1070
     0
1070
     0
1070
     0
1070
     0
1040
0.0
1040
0.0
1040
0.0
1040
1.0
1040
1.0
1040
0.0
1040
0.0
1070
     0
1002
{
1002
}
1002
}
  0
ENDSEC
  0
EOF
