  0
SECTION
  2
HEADER
  9
$ACADVER
  1
AC1009
  9
$INSBASE
 10
0.0
 20
0.0
 30
0.0
  9
$EXTMIN
 10
-0.0000000000000089
 20
-1903.0
 30
0.0
  9
$EXTMAX
 10
8399.7000000000007
 20
620.0
 30
0.0
  9
$LIMMIN
 10
0.0
 20
0.0
  9
$LIMMAX
 10
210.0
 20
297.0
  9
$ORTHOMODE
 70
     0
  9
$REGENMODE
 70
     1
  9
$FILLMODE
 70
     1
  9
$QTEXTMODE
 70
     0
  9
$MIRRTEXT
 70
     0
  9
$DRAGMODE
 70
     2
  9
$LTSCALE
 40
1.0
  9
$OSMODE
 70
   109
  9
$ATTMODE
 70
     1
  9
$TEXTSIZE
 40
4.0
  9
$TRACEWID
 40
0.05
  9
$TEXTSTYLE
  7
STANDARD
  9
$CLAYER
  8
OBJECT
  9
$CELTYPE
  6
BYLAYER
  9
$CECOLOR
 62
   256
  9
$DIMSCALE
 40
10.0
  9
$DIMASZ
 40
2.0
  9
$DIMEXO
 40
1.0
  9
$DIMDLI
 40
10.0
  9
$DIMRND
 40
0.0
  9
$DIMDLE
 40
0.0
  9
$DIMEXE
 40
1.0
  9
$DIMTP
 40
0.0
  9
$DIMTM
 40
0.0
  9
$DIMTXT
 40
3.2000000000000002
  9
$DIMCEN
 40
0.0
  9
$DIMTSZ
 40
0.0
  9
$DIMTOL
 70
     0
  9
$DIMLIM
 70
     0
  9
$DIMTIH
 70
     0
  9
$DIMTOH
 70
     0
  9
$DIMSE1
 70
     0
  9
$DIMSE2
 70
     0
  9
$DIMTAD
 70
     1
  9
$DIMZIN
 70
     8
  9
$DIMBLK
  1
OPEN30
  9
$DIMASO
 70
     1
  9
$DIMSHO
 70
     1
  9
$DIMPOST
  1

  9
$DIMAPOST
  1

  9
$DIMALT
 70
     0
  9
$DIMALTD
 70
     2
  9
$DIMALTF
 40
25.399999999999999
  9
$DIMLFAC
 40
1.0
  9
$DIMTOFL
 70
     1
  9
$DIMTVP
 40
0.0
  9
$DIMTIX
 70
     0
  9
$DIMSOXD
 70
     0
  9
$DIMSAH
 70
     0
  9
$DIMBLK1
  1

  9
$DIMBLK2
  1

  9
$DIMSTYLE
  2
S10
  9
$DIMCLRD
 70
   256
  9
$DIMCLRE
 70
   256
  9
$DIMCLRT
 70
   256
  9
$DIMTFAC
 40
1.0
  9
$DIMGAP
 40
0.9
  9
$LUNITS
 70
     2
  9
$LUPREC
 70
     2
  9
$SKETCHINC
 40
0.1
  9
$FILLETRAD
 40
0.0
  9
$AUNITS
 70
     0
  9
$AUPREC
 70
     2
  9
$MENU
  1
ACAD
  9
$ELEVATION
 40
0.0
  9
$PELEVATION
 40
0.0
  9
$THICKNESS
 40
0.0
  9
$LIMCHECK
 70
     0
  9
$BLIPMODE
 70
     0
  9
$CHAMFERA
 40
2.0
  9
$CHAMFERB
 40
2.0
  9
$SKPOLY
 70
     0
  9
$TDCREATE
 40
2453095.4929404748
  9
$TDUPDATE
 40
2457276.6828873958
  9
$TDINDWG
 40
18.488023669
  9
$TDUSRTIMER
 40
18.4880227662
  9
$USRTIMER
 70
     1
  9
$ANGBASE
 50
0.0
  9
$ANGDIR
 70
     0
  9
$PDMODE
 70
    35
  9
$PDSIZE
 40
2.0
  9
$PLINEWID
 40
0.0
  9
$COORDS
 70
     1
  9
$SPLFRAME
 70
     0
  9
$SPLINETYPE
 70
     6
  9
$SPLINESEGS
 70
     8
  9
$ATTDIA
 70
     0
  9
$ATTREQ
 70
     1
  9
$HANDLING
 70
     1
  9
$HANDSEED
  5
1267C1
  9
$SURFTAB1
 70
     6
  9
$SURFTAB2
 70
     6
  9
$SURFTYPE
 70
     6
  9
$SURFU
 70
     6
  9
$SURFV
 70
     6
  9
$UCSNAME
  2

  9
$UCSORG
 10
0.0
 20
0.0
 30
0.0
  9
$UCSXDIR
 10
1.0
 20
0.0
 30
0.0
  9
$UCSYDIR
 10
0.0
 20
1.0
 30
0.0
  9
$PUCSNAME
  2

  9
$PUCSORG
 10
0.0
 20
0.0
 30
0.0
  9
$PUCSXDIR
 10
1.0
 20
0.0
 30
0.0
  9
$PUCSYDIR
 10
0.0
 20
1.0
 30
0.0
  9
$USERI1
 70
     0
  9
$USERI2
 70
     0
  9
$USERI3
 70
     0
  9
$USERI4
 70
     0
  9
$USERI5
 70
     0
  9
$USERR1
 40
0.0
  9
$USERR2
 40
0.0
  9
$USERR3
 40
0.0
  9
$USERR4
 40
0.0
  9
$USERR5
 40
0.0
  9
$WORLDVIEW
 70
     1
  9
$SHADEDGE
 70
     3
  9
$SHADEDIF
 70
    70
  9
$TILEMODE
 70
     1
  9
$MAXACTVP
 70
    64
  9
$PLIMCHECK
 70
     0
  9
$PEXTMIN
 10
29.066066288948051
 20
20.366566777229309
 30
0.0
  9
$PEXTMAX
 10
261.5945966005325
 20
183.29910099506381
 30
0.0
  9
$PLIMMIN
 10
-3.17498779296875
 20
-3.1749999523162842
  9
$PLIMMAX
 10
293.83566284179687
 20
206.8406708240509
  9
$UNITMODE
 70
     0
  9
$VISRETAIN
 70
     1
  9
$PLINEGEN
 70
     0
  9
$PSLTSCALE
 70
     1
  0
ENDSEC
  0
SECTION
  2
TABLES
  0
TABLE
  2
VPORT
 70
     1
  0
VPORT
  2
*ACTIVE
 70
     0
 10
0.0
 20
0.0
 11
1.0
 21
1.0
 12
7363.6641302731023
 22
-829.16518801861719
 13
0.0
 23
0.0
 14
1.0
 24
1.0
 15
0.0
 25
0.0
 16
0.0
 26
0.0
 36
1.0
 17
0.0
 27
0.0
 37
0.0
 40
7532.3935592661001
 41
1.6494178525226391
 42
50.0
 43
0.0
 44
0.0
 50
0.0
 51
0.0
 71
     0
 72
   600
 73
     1
 74
     1
 75
     0
 76
     0
 77
     0
 78
     0
  0
ENDTAB
  0
TABLE
  2
LTYPE
 70
     4
  0
LTYPE
  2
CONTINUOUS
 70
     0
  3
Solid line
 72
    65
 73
     0
 40
0.0
  0
LTYPE
  2
PHANTOM2
 70
     0
  3
___ _ _ ___ _ _ ___ _ _ ___ _ _
 72
    65
 73
     6
 40
1.25
 49
0.625
 49
-0.125
 49
0.125
 49
-0.125
 49
0.125
 49
-0.125
  0
LTYPE
  2
ACAD_ISO08W100
 70
     0
  3
ISO long-dash short-dash ____ __ ____ __ ____ _
 72
    65
 73
     4
 40
36.0
 49
24.0
 49
-3.0
 49
6.0
 49
-3.0
  0
LTYPE
  2
ACAD_ISO02W100
 70
     0
  3
ISO dash __ __ __ __ __ __ __ __ __ __ __ __ __
 72
    65
 73
     2
 40
15.0
 49
12.0
 49
-3.0
  0
ENDTAB
  0
TABLE
  2
LAYER
 70
     7
  0
LAYER
  2
0
 70
     0
 62
     7
  6
CONTINUOUS
  0
LAYER
  2
OBJECT
 70
     0
 62
     4
  6
CONTINUOUS
  0
LAYER
  2
DEFPOINTS
 70
     0
 62
     7
  6
CONTINUOUS
  0
LAYER
  2
HIDDEN
 70
     0
 62
     2
  6
ACAD_ISO02W100
  0
LAYER
  2
CENTER
 70
     0
 62
     2
  6
ACAD_ISO08W100
  0
LAYER
  2
DOTS
 70
     0
 62
     1
  6
CONTINUOUS
  0
LAYER
  2
SLIM
 70
     0
 62
     2
  6
CONTINUOUS
  0
ENDTAB
  0
TABLE
  2
STYLE
 70
     2
  0
STYLE
  2
STANDARD
 70
     0
 40
0.0
 41
0.75
 50
0.0
 71
     0
 42
4.0
  3
simplex.shx
  4
bigfont.shx
  0
ENDTAB
  0
TABLE
  2
VIEW
 70
     0
  0
ENDTAB
  0
TABLE
  2
UCS
 70
     0
  0
ENDTAB
  0
TABLE
  2
APPID
 70
    18
  0
APPID
  2
ACAD
 70
     0
  0
APPID
  2
ACADANNOTATIVE
 70
     0
  0
APPID
  2
ACAD_PSEXT
 70
     0
  0
APPID
  2
ACAD_EXEMPT_FROM_CAD_STANDARDS
 70
     0
  0
APPID
  2
ACAECLAYERSTANDARD
 70
     0
  0
APPID
  2
ACAUTHENVIRON
 70
     0
  0
APPID
  2
ACDBDYNAMICBLOCKTRUENAME
 70
     0
  0
APPID
  2
ACDBDYNAMICBLOCKGUID
 70
     0
  0
APPID
  2
ACDBBLOCKREPETAG
 70
     0
  0
APPID
  2
ACDBBLOCKREPBTAG
 70
     0
  0
APPID
  2
ACAD_NAV_VCDISPLAY
 70
     0
  0
APPID
  2
ACAD_DSTYLE_DIMRADIAL_EXTENSION
 70
     0
  0
APPID
  2
ACAD_DSTYLE_DIMJAG
 70
     0
  0
APPID
  2
ACAD_DSTYLE_DIMTALN
 70
     0
  0
APPID
  2
ACADANNOPO
 70
     0
  0
APPID
  2
GRADIENTCOLOR1ACI
 70
     0
  0
APPID
  2
GRADIENTCOLOR2ACI
 70
     0
  0
APPID
  2
ACAD_MLEADERVER
 70
     0
  0
ENDTAB
  0
TABLE
  2
DIMSTYLE
 70
     3
  0
DIMSTYLE
  2
STANDARD
 70
     0
  3

  4

  5

  6

  7

 40
1.0
 41
0.18
 42
0.0625
 43
0.38
 44
0.18
 45
0.0
 46
0.0
 47
0.0
 48
0.0
140
0.18
141
0.09
142
0.0
143
25.399999999999999
144
1.0
145
0.0
146
1.0
147
0.09
 71
     0
 72
     0
 73
     1
 74
     1
 75
     0
 76
     0
 77
     0
 78
     0
170
     0
171
     2
172
     0
173
     0
174
     0
175
     0
176
     0
177
     0
178
     0
  0
DIMSTYLE
  2
S10
 70
     0
  3

  4

  5

  6

  7

 40
10.0
 41
2.0
 42
1.0
 43
10.0
 44
1.0
 45
0.0
 46
0.0
 47
0.0
 48
0.0
140
3.2000000000000002
141
0.0
142
0.0
143
25.399999999999999
144
1.0
145
0.0
146
1.0
147
0.9
 71
     0
 72
     0
 73
     0
 74
     0
 75
     0
 76
     0
 77
     1
 78
     8
170
     0
171
     2
172
     1
173
     0
174
     0
175
     0
176
   256
177
   256
178
   256
  0
ENDTAB
  0
ENDSEC
  0
SECTION
  2
BLOCKS
  0
BLOCK
  8
0
  2
$MODEL_SPACE
 70
     0
 10
0.0
 20
0.0
 30
0.0
  3
$MODEL_SPACE
  1

  0
ENDBLK
  5
1266C0
  8
0
  0
BLOCK
 67
     1
  8
0
  2
$PAPER_SPACE
 70
     0
 10
0.0
 20
0.0
 30
0.0
  3
$PAPER_SPACE
  1

  0
ENDBLK
  5
1266BC
 67
     1
  8
0
  0
BLOCK
  8
0
  2
_OPEN30
 70
     0
 10
0.0
 20
0.0
 30
0.0
  3
_OPEN30
  1

  0
LINE
  5
202
  8
0
  6
BYBLOCK
 62
     0
 10
-1.0
 20
0.26794919
 30
0.0
 11
0.0
 21
0.0
 31
0.0
  0
LINE
  5
203
  8
0
  6
BYBLOCK
 62
     0
 10
0.0
 20
0.0
 30
0.0
 11
-1.0
 21
-0.26794919
 31
0.0
  0
LINE
  5
204
  8
0
  6
BYBLOCK
 62
     0
 10
0.0
 20
0.0
 30
0.0
 11
-1.0
 21
0.0
 31
0.0
  0
ENDBLK
  5
206
  8
0
  0
ENDSEC
  0
SECTION
  2
ENTITIES
  0
LINE
  5
12614E
  8
OBJECT
 10
7897.0
 20
-528.99999999999761
 30
0.0
 11
7900.0
 21
-528.99999999999761
 31
0.0
1001
ACDBBLOCKREPETAG
1070
     1
1071
        1
1005
12614E
  0
ARC
  5
12614F
  8
OBJECT
 10
7897.0
 20
-531.99999999999773
 30
0.0
 40
3.0
 50
90.0
 51
180.0
1001
ACDBBLOCKREPETAG
1070
     1
1071
        2
1005
12614F
  0
LINE
  5
126150
  8
OBJECT
 10
7900.0
 20
-652.99999999999761
 30
0.0
 11
7897.0
 21
-652.99999999999761
 31
0.0
1001
ACDBBLOCKREPETAG
1070
     1
1071
        3
1005
126150
  0
ARC
  5
126151
  8
OBJECT
 10
7897.0
 20
-649.99999999999761
 30
0.0
 40
3.0
 50
180.0
 51
270.0
1001
ACDBBLOCKREPETAG
1070
     1
1071
        4
1005
126151
  0
LINE
  5
126152
  8
OBJECT
 10
7894.0
 20
-649.99999999999761
 30
0.0
 11
7894.0
 21
-531.99999999999773
 31
0.0
1001
ACDBBLOCKREPETAG
1070
     1
1071
        5
1005
126152
  0
CIRCLE
  5
126153
  8
OBJECT
 10
8000.0
 20
-590.99999999999761
 30
0.0
 40
62.0
1001
ACDBBLOCKREPETAG
1070
     1
1071
        0
1005
126153
  0
LINE
  5
126154
  8
OBJECT
 10
8095.0
 20
-469.99999999999937
 30
0.0
 11
7905.0
 21
-469.99999999999937
 31
0.0
1001
ACDBBLOCKREPETAG
1070
     1
1071
        0
1005
126154
  0
LINE
  5
126155
  8
OBJECT
 10
8095.0
 20
-449.99999999999937
 30
0.0
 11
7905.0
 21
-449.99999999999937
 31
0.0
1001
ACDBBLOCKREPETAG
1070
     1
1071
        1
1005
126155
  0
LINE
  5
126156
  8
OBJECT
 10
7902.5
 20
-814.99999999999955
 30
0.0
 11
8097.5000000000009
 21
-814.99999999999955
 31
0.0
1001
ACDBBLOCKREPETAG
1070
     1
1071
        2
1005
126156
  0
LINE
  5
126157
  8
OBJECT
 10
7908.237046000002
 20
-449.99999999999937
 30
0.0
 11
7908.2370465822614
 21
-469.99999999999937
 31
0.0
1001
ACDBBLOCKREPETAG
1070
     1
1071
        3
1005
126157
  0
LINE
  5
126158
  8
OBJECT
 10
7905.0
 20
-449.99999999999937
 30
0.0
 11
7905.0
 21
-469.99999999999937
 31
0.0
1001
ACDBBLOCKREPETAG
1070
     1
1071
        4
1005
126158
  0
LINE
  5
126159
  8
OBJECT
 10
7916.0249089999988
 20
-449.99999999999937
 30
0.0
 11
7916.0249089999988
 21
-469.99999999999937
 31
0.0
1001
ACDBBLOCKREPETAG
1070
     1
1071
        5
1005
126159
  0
LINE
  5
12615A
  8
OBJECT
 10
7967.6243270000023
 20
-449.99999999999937
 30
0.0
 11
7967.6243270000023
 21
-469.99999999999937
 31
0.0
1001
ACDBBLOCKREPETAG
1070
     1
1071
        6
1005
12615A
  0
LINE
  5
12615B
  8
OBJECT
 10
7975.4121899999973
 20
-449.99999999999937
 30
0.0
 11
7975.4121899999973
 21
-469.99999999999937
 31
0.0
1001
ACDBBLOCKREPETAG
1070
     1
1071
        7
1005
12615B
  0
LINE
  5
12615C
  8
OBJECT
 10
8024.5878090000006
 20
-449.99999999999937
 30
0.0
 11
8024.5878090000006
 21
-469.99999999999937
 31
0.0
1001
ACDBBLOCKREPETAG
1070
     1
1071
        8
1005
12615C
  0
LINE
  5
12615D
  8
OBJECT
 10
8032.3756720000038
 20
-449.99999999999937
 30
0.0
 11
8032.3756720000038
 21
-469.99999999999937
 31
0.0
1001
ACDBBLOCKREPETAG
1070
     1
1071
        9
1005
12615D
  0
LINE
  5
12615E
  8
OBJECT
 10
8083.9750910000021
 20
-449.99999999999937
 30
0.0
 11
8083.9750910000021
 21
-469.99999999999937
 31
0.0
1001
ACDBBLOCKREPETAG
1070
     1
1071
       10
1005
12615E
  0
LINE
  5
12615F
  8
OBJECT
 10
8091.762953999998
 20
-449.99999999999937
 30
0.0
 11
8091.7629534177404
 21
-469.99999999999937
 31
0.0
1001
ACDBBLOCKREPETAG
1070
     1
1071
       11
1005
12615F
  0
LINE
  5
126160
  8
OBJECT
 10
8095.0
 20
-449.99999999999937
 30
0.0
 11
8095.0
 21
-469.99999999999937
 31
0.0
1001
ACDBBLOCKREPETAG
1070
     1
1071
       12
1005
126160
  0
LINE
  5
126161
  8
OBJECT
 10
8100.0
 20
-528.99999999999955
 30
0.0
 11
7900.0
 21
-528.99999999999955
 31
0.0
1001
ACDBBLOCKREPETAG
1070
     1
1071
       13
1005
126161
  0
LINE
  5
126162
  8
OBJECT
 10
8100.0
 20
-652.99999999999761
 30
0.0
 11
8092.4999999999973
 21
-652.99999999999761
 31
0.0
1001
ACDBBLOCKREPETAG
1070
     1
1071
       14
1005
126162
  0
LINE
  5
126163
  8
OBJECT
 10
7902.5
 20
-814.99999999999955
 30
0.0
 11
7902.5
 21
-802.99999999999784
 31
0.0
1001
ACDBBLOCKREPETAG
1070
     1
1071
       15
1005
126163
  0
LINE
  5
126164
  8
OBJECT
 10
8097.5000000000009
 20
-814.99999999999955
 30
0.0
 11
8097.5000000000009
 21
-802.99999999999784
 31
0.0
1001
ACDBBLOCKREPETAG
1070
     1
1071
       16
1005
126164
  0
LINE
  5
126165
  8
OBJECT
 10
7902.5
 20
-802.99999999999784
 30
0.0
 11
8097.5000000000009
 21
-802.99999999999784
 31
0.0
1001
ACDBBLOCKREPETAG
1070
     1
1071
       17
1005
126165
  0
LINE
  5
126166
  8
HIDDEN
 10
7930.0
 20
-524.99999999999955
 30
0.0
 11
8070.0
 21
-524.99999999999955
 31
0.0
1001
ACDBBLOCKREPETAG
1070
     1
1071
       18
1005
126166
  0
LINE
  5
126167
  8
CENTER
 10
8000.0
 20
-434.99999999999949
 30
0.0
 11
8000.0
 21
-814.99999999999955
 31
0.0
1001
ACDBBLOCKREPETAG
1070
     1
1071
       19
1005
126167
  0
LINE
  5
126168
  8
OBJECT
 10
8092.4999999999973
 20
-652.99999999999761
 30
0.0
 11
8092.4999999999973
 21
-802.99999999999784
 31
0.0
1001
ACDBBLOCKREPETAG
1070
     1
1071
       20
1005
126168
  0
LINE
  5
126169
  8
OBJECT
 10
7914.5
 20
-469.99999999999937
 30
0.0
 11
7914.5
 21
-528.99999999999955
 31
0.0
1001
ACDBBLOCKREPETAG
1070
     1
1071
       21
1005
126169
  0
LINE
  5
12616A
  8
OBJECT
 10
8085.5000000000027
 20
-469.99999999999937
 30
0.0
 11
8085.5000000000027
 21
-528.99999999999955
 31
0.0
1001
ACDBBLOCKREPETAG
1070
     1
1071
       22
1005
12616A
  0
POINT
  5
12616B
  8
DOTS
 10
8000.0
 20
-649.99999999999955
 30
0.0
1001
ACDBBLOCKREPETAG
1070
     1
1071
       24
1005
12616B
  0
LINE
  5
12616C
  8
OBJECT
 10
7900.0
 20
-652.99999999999761
 30
0.0
 11
7907.5
 21
-652.99999999999761
 31
0.0
1001
ACDBBLOCKREPETAG
1070
     1
1071
       25
1005
12616C
  0
LINE
  5
12616D
  8
OBJECT
 10
7907.5
 20
-652.99999999999761
 30
0.0
 11
7907.5
 21
-802.99999999999784
 31
0.0
1001
ACDBBLOCKREPETAG
1070
     1
1071
       26
1005
12616D
  0
ARC
  5
12616E
  8
OBJECT
 10
8214.4155190291513
 20
-615.62073879202455
 30
0.0
 40
149.554492306393
 50
144.60628028468801
 51
164.2211863995189
1001
ACDBBLOCKREPETAG
1070
     1
1071
       28
1005
12616E
  0
ARC
  5
12616F
  8
OBJECT
 10
8139.1422781245292
 20
-590.99999999999761
 30
0.0
 40
70.496447952551449
 50
166.8426918235858
 51
193.15730817641409
1001
ACDBBLOCKREPETAG
1070
     1
1071
       29
1005
12616F
  0
ARC
  5
126170
  8
OBJECT
 10
8214.4155190291513
 20
-566.3792612079701
 30
0.0
 40
149.55449230639621
 50
195.7788136004809
 51
215.3937197153119
1001
ACDBBLOCKREPETAG
1070
     1
1071
       30
1005
126170
  0
ARC
  5
126171
  8
OBJECT
 10
7785.5844809708497
 20
-615.62073879202455
 30
0.0
 40
149.554492306393
 50
15.778813600524931
 51
35.393719715228642
1001
ACDBBLOCKREPETAG
1070
     1
1071
       31
1005
126171
  0
ARC
  5
126172
  8
OBJECT
 10
7860.8577218754726
 20
-590.99999999999761
 30
0.0
 40
70.496447952551449
 50
346.84269182358582
 51
13.15730817641421
1001
ACDBBLOCKREPETAG
1070
     1
1071
       32
1005
126172
  0
ARC
  5
126173
  8
OBJECT
 10
7785.5844809708497
 20
-566.3792612079701
 30
0.0
 40
149.55449230639621
 50
324.60628028477117
 51
344.22118639947507
1001
ACDBBLOCKREPETAG
1070
     1
1071
       33
1005
126173
  0
LINE
  5
126174
  8
CENTER
 10
7878.9999999999973
 20
-199.99999999999909
 30
0.0
 11
7899.9999999999973
 21
-199.99999999999909
 31
0.0
1001
ACDBBLOCKREPETAG
1070
     1
1071
        0
1005
126174
  0
LINE
  5
126175
  8
OBJECT
 10
7896.9999999999973
 20
-261.99999999999909
 30
0.0
 11
7899.9999999999973
 21
-261.99999999999909
 31
0.0
1001
ACDBBLOCKREPETAG
1070
     1
1071
        1
1005
126175
  0
ARC
  5
126176
  8
OBJECT
 10
7896.9999999999973
 20
-258.99999999999909
 30
0.0
 40
3.0
 50
180.0
 51
270.0
1001
ACDBBLOCKREPETAG
1070
     1
1071
        2
1005
126176
  0
LINE
  5
126177
  8
OBJECT
 10
7899.9999999999973
 20
-137.99999999999909
 30
0.0
 11
7896.9999999999973
 21
-137.99999999999909
 31
0.0
1001
ACDBBLOCKREPETAG
1070
     1
1071
        3
1005
126177
  0
ARC
  5
126178
  8
OBJECT
 10
7896.9999999999973
 20
-140.99999999999909
 30
0.0
 40
3.0
 50
90.0
 51
180.0
1001
ACDBBLOCKREPETAG
1070
     1
1071
        4
1005
126178
  0
LINE
  5
126179
  8
OBJECT
 10
7893.9999999999973
 20
-140.99999999999909
 30
0.0
 11
7893.9999999999973
 21
-258.99999999999909
 31
0.0
1001
ACDBBLOCKREPETAG
1070
     1
1071
        5
1005
126179
  0
LINE
  5
12617A
  8
CENTER
 10
8000.0000000000027
 20
-320.99999999999898
 30
0.0
 11
8000.0000000000027
 21
-299.99999999999898
 31
0.0
1001
ACDBBLOCKREPETAG
1070
     1
1071
        0
1005
12617A
  0
LINE
  5
12617B
  8
OBJECT
 10
8062.0000000000018
 20
-303.0
 30
0.0
 11
8062.0000000000018
 21
-299.99999999999898
 31
0.0
1001
ACDBBLOCKREPETAG
1070
     1
1071
        1
1005
12617B
  0
ARC
  5
12617C
  8
OBJECT
 10
8059.0000000000018
 20
-303.0
 30
0.0
 40
3.0
 50
270.0
 51
0.0
1001
ACDBBLOCKREPETAG
1070
     1
1071
        2
1005
12617C
  0
LINE
  5
12617D
  8
OBJECT
 10
7938.0000000000018
 20
-299.99999999999898
 30
0.0
 11
7938.0000000000018
 21
-302.99999999999818
 31
0.0
1001
ACDBBLOCKREPETAG
1070
     1
1071
        3
1005
12617D
  0
ARC
  5
12617E
  8
OBJECT
 10
7941.0000000000018
 20
-302.99999999999818
 30
0.0
 40
3.0
 50
180.0
 51
270.0
1001
ACDBBLOCKREPETAG
1070
     1
1071
        4
1005
12617E
  0
LINE
  5
12617F
  8
OBJECT
 10
7941.0000000000018
 20
-305.99999999999818
 30
0.0
 11
8059.0000000000018
 21
-306.0
 31
0.0
1001
ACDBBLOCKREPETAG
1070
     1
1071
        5
1005
12617F
  0
LINE
  5
126180
  8
SLIM
 10
7918.5743713244692
 20
-137.74153073842379
 30
0.0
 11
7937.7415307384244
 21
-118.5743713244679
 31
0.0
1001
GRADIENTCOLOR1ACI
1070
     5
1001
GRADIENTCOLOR2ACI
1070
     2
1001
ACAD
1010
0.0
1020
0.0
1030
0.0
1001
ACDBBLOCKREPETAG
1070
     1
1071
      301
1005
126180
  0
LINE
  5
126181
  8
SLIM
 10
7927.2961581839618
 20
-137.99999999999909
 30
0.0
 11
7959.4220169794107
 21
-105.8741412045496
 31
0.0
1001
GRADIENTCOLOR1ACI
1070
     5
1001
GRADIENTCOLOR2ACI
1070
     2
1001
ACAD
1010
0.0
1020
0.0
1030
0.0
1001
ACDBBLOCKREPETAG
1070
     1
1071
      302
1005
126181
  0
LINE
  5
126182
  8
SLIM
 10
7955.2080715681668
 20
-119.0683427368643
 30
0.0
 11
7973.21479235677
 21
-101.06162194825821
 31
0.0
1001
GRADIENTCOLOR1ACI
1070
     5
1001
GRADIENTCOLOR2ACI
1070
     2
1001
ACAD
1010
0.0
1020
0.0
1030
0.0
1001
ACDBBLOCKREPETAG
1070
     1
1071
      303
1005
126182
  0
LINE
  5
126183
  8
SLIM
 10
7971.1389053532557
 20
-112.11776507284389
 30
0.0
 11
7984.5919680901698
 21
-98.664702335928993
 31
0.0
1001
GRADIENTCOLOR1ACI
1070
     5
1001
GRADIENTCOLOR2ACI
1070
     2
1001
ACAD
1010
0.0
1020
0.0
1030
0.0
1001
ACDBBLOCKREPETAG
1070
     1
1071
      304
1005
126183
  0
LINE
  5
126184
  8
SLIM
 10
7986.2342955596032
 20
-106.0026309875652
 30
0.0
 11
7994.59428198766
 21
-97.642644559507801
 31
0.0
1001
GRADIENTCOLOR1ACI
1070
     5
1001
GRADIENTCOLOR2ACI
1070
     2
1001
ACAD
1010
0.0
1020
0.0
1030
0.0
1001
ACDBBLOCKREPETAG
1070
     1
1071
      278
1005
126184
  0
LINE
  5
126185
  8
SLIM
 10
7996.1386775409328
 20
-105.0785051273038
 30
0.0
 11
8000.0
 21
-101.21718266823839
 31
0.0
1001
GRADIENTCOLOR1ACI
1070
     5
1001
GRADIENTCOLOR2ACI
1070
     2
1001
ACAD
1010
0.0
1020
0.0
1030
0.0
1001
ACDBBLOCKREPETAG
1070
     1
1071
      305
1005
126185
  0
LINE
  5
126186
  8
SLIM
 10
8000.0
 20
-101.21718266823839
 30
0.0
 11
8003.652099419467
 21
-97.565083248774314
 31
0.0
1001
GRADIENTCOLOR1ACI
1070
     5
1001
GRADIENTCOLOR2ACI
1070
     2
1001
ACAD
1010
0.0
1020
0.0
1030
0.0
1001
ACDBBLOCKREPETAG
1070
     1
1071
      306
1005
126186
  0
LINE
  5
126187
  8
SLIM
 10
8005.0624562444928
 20
-105.13498254481389
 30
0.0
 11
8011.9933588609547
 21
-98.204079928355625
 31
0.0
1001
GRADIENTCOLOR1ACI
1070
     5
1001
GRADIENTCOLOR2ACI
1070
     2
1001
ACAD
1010
0.0
1020
0.0
1030
0.0
1001
ACDBBLOCKREPETAG
1070
     1
1071
      307
1005
126187
  0
LINE
  5
126188
  8
SLIM
 10
8013.2492495222623
 20
-105.9284453881143
 30
0.0
 11
8019.7558130592479
 21
-99.421881851129058
 31
0.0
1001
GRADIENTCOLOR1ACI
1070
     5
1001
GRADIENTCOLOR2ACI
1070
     2
1001
ACAD
1010
0.0
1020
0.0
1030
0.0
1001
ACDBBLOCKREPETAG
1070
     1
1071
      282
1005
126188
  0
LINE
  5
126189
  8
SLIM
 10
8020.8432248281188
 20
-107.31472620332499
 30
0.0
 11
8027.0297896486627
 21
-101.1281613827821
 31
0.0
1001
GRADIENTCOLOR1ACI
1070
     5
1001
GRADIENTCOLOR2ACI
1070
     2
1001
ACAD
1010
0.0
1020
0.0
1030
0.0
1001
ACDBBLOCKREPETAG
1070
     1
1071
      283
1005
126189
  0
LINE
  5
12618A
  8
SLIM
 10
8026.7444850762586
 20
-110.3937220762563
 30
0.0
 11
8033.877784086586
 21
-103.2604230659298
 31
0.0
1001
GRADIENTCOLOR1ACI
1070
     5
1001
GRADIENTCOLOR2ACI
1070
     2
1001
ACAD
1010
0.0
1020
0.0
1030
0.0
1001
ACDBBLOCKREPETAG
1070
     1
1071
      284
1005
12618A
  0
LINE
  5
12618B
  8
SLIM
 10
8032.6605739035549
 20
-113.4578893700272
 30
0.0
 11
8040.3445940865868
 21
-105.7738691869987
 31
0.0
1001
GRADIENTCOLOR1ACI
1070
     5
1001
GRADIENTCOLOR2ACI
1070
     2
1001
ACAD
1010
0.0
1020
0.0
1030
0.0
1001
ACDBBLOCKREPETAG
1070
     1
1071
      285
1005
12618B
  0
LINE
  5
12618C
  8
SLIM
 10
8038.983012933968
 20
-116.115706460684
 30
0.0
 11
8046.4630285156381
 21
-108.63569087901411
 31
0.0
1001
GRADIENTCOLOR1ACI
1070
     5
1001
GRADIENTCOLOR2ACI
1070
     2
1001
ACAD
1010
0.0
1020
0.0
1030
0.0
1001
ACDBBLOCKREPETAG
1070
     1
1071
      286
1005
12618C
  0
LINE
  5
12618D
  8
SLIM
 10
8044.9326113883499
 20
-119.1463641273716
 30
0.0
 11
8052.2573273714534
 21
-111.8216481442697
 31
0.0
1001
GRADIENTCOLOR1ACI
1070
     5
1001
GRADIENTCOLOR2ACI
1070
     2
1001
ACAD
1010
0.0
1020
0.0
1030
0.0
1001
ACDBBLOCKREPETAG
1070
     1
1071
      287
1005
12618D
  0
LINE
  5
12618E
  8
SLIM
 10
8050.5348792738341
 20
-122.5243523629576
 30
0.0
 11
8057.7453005374227
 21
-115.3139310993673
 31
0.0
1001
GRADIENTCOLOR1ACI
1070
     5
1001
GRADIENTCOLOR2ACI
1070
     2
1001
ACAD
1010
0.0
1020
0.0
1030
0.0
1001
ACDBBLOCKREPETAG
1070
     1
1071
      288
1005
12618E
  0
LINE
  5
12618F
  8
SLIM
 10
7919.0997883728269
 20
-262.93969938503398
 30
0.0
 11
7920.039487757861
 21
-261.99999999999909
 31
0.0
1001
GRADIENTCOLOR1ACI
1070
     5
1001
GRADIENTCOLOR2ACI
1070
     2
1001
ACAD
1010
0.0
1020
0.0
1030
0.0
1001
ACDBBLOCKREPETAG
1070
     1
1071
      289
1005
12618F
  0
LINE
  5
126190
  8
SLIM
 10
8055.807705723706
 20
-126.2317820341551
 30
0.0
 11
8062.9396993850351
 21
-119.0997883728258
 31
0.0
1001
GRADIENTCOLOR1ACI
1070
     5
1001
GRADIENTCOLOR2ACI
1070
     2
1001
ACAD
1010
0.0
1020
0.0
1030
0.0
1001
ACDBBLOCKREPETAG
1070
     1
1071
      290
1005
126190
  0
LINE
  5
126191
  8
SLIM
 10
7923.1706450290276
 20
-267.84909884990361
 30
0.0
 11
7929.019743878931
 21
-261.99999999999909
 31
0.0
1001
GRADIENTCOLOR1ACI
1070
     5
1001
GRADIENTCOLOR2ACI
1070
     2
1001
ACAD
1010
0.0
1020
0.0
1030
0.0
1001
ACDBBLOCKREPETAG
1070
     1
1071
      291
1005
126191
  0
LINE
  5
126192
  8
SLIM
 10
8060.7629465796699
 20
-130.25679729926071
 30
0.0
 11
8067.8490988499034
 21
-123.17064502902539
 31
0.0
1001
GRADIENTCOLOR1ACI
1070
     5
1001
GRADIENTCOLOR2ACI
1070
     2
1001
ACAD
1010
0.0
1020
0.0
1030
0.0
1001
ACDBBLOCKREPETAG
1070
     1
1071
      292
1005
126192
  0
LINE
  5
126193
  8
SLIM
 10
7927.5215549283794
 20
-272.47844507162011
 30
0.0
 11
7934.5926227402433
 21
-265.40737725975481
 31
0.0
1001
GRADIENTCOLOR1ACI
1070
     5
1001
GRADIENTCOLOR2ACI
1070
     2
1001
ACAD
1010
0.0
1020
0.0
1030
0.0
1001
ACDBBLOCKREPETAG
1070
     1
1071
      293
1005
126193
  0
LINE
  5
126194
  8
SLIM
 10
8065.4073772597576
 20
-134.5926227402434
 30
0.0
 11
8072.4784450716224
 21
-127.52155492837799
 31
0.0
1001
GRADIENTCOLOR1ACI
1070
     5
1001
GRADIENTCOLOR2ACI
1070
     2
1001
ACAD
1010
0.0
1020
0.0
1030
0.0
1001
ACDBBLOCKREPETAG
1070
     1
1071
      294
1005
126194
  0
LINE
  5
126195
  8
SLIM
 10
7932.1509011500939
 20
-276.82935497097282
 30
0.0
 11
7937.9999999999936
 21
-270.980256121075
 31
0.0
1001
GRADIENTCOLOR1ACI
1070
     5
1001
GRADIENTCOLOR2ACI
1070
     2
1001
ACAD
1010
0.0
1020
0.0
1030
0.0
1001
ACDBBLOCKREPETAG
1070
     1
1071
      295
1005
126195
  0
LINE
  5
126196
  8
SLIM
 10
8070.980256121069
 20
-137.99999999999901
 30
0.0
 11
8076.8293549709733
 21
-132.15090115009451
 31
0.0
1001
GRADIENTCOLOR1ACI
1070
     5
1001
GRADIENTCOLOR2ACI
1070
     2
1001
ACAD
1010
0.0
1020
0.0
1030
0.0
1001
ACDBBLOCKREPETAG
1070
     1
1071
      296
1005
126196
  0
LINE
  5
126197
  8
SLIM
 10
7937.0603006149649
 20
-280.90021162717238
 30
0.0
 11
7937.9999999999955
 21
-279.9605122421421
 31
0.0
1001
GRADIENTCOLOR1ACI
1070
     5
1001
GRADIENTCOLOR2ACI
1070
     2
1001
ACAD
1010
0.0
1020
0.0
1030
0.0
1001
ACDBBLOCKREPETAG
1070
     1
1071
      297
1005
126197
  0
LINE
  5
126198
  8
SLIM
 10
8079.9605122421362
 20
-137.99999999999901
 30
0.0
 11
8080.9002116271704
 21
-137.06030061496409
 31
0.0
1001
GRADIENTCOLOR1ACI
1070
     5
1001
GRADIENTCOLOR2ACI
1070
     2
1001
ACAD
1010
0.0
1020
0.0
1030
0.0
1001
ACDBBLOCKREPETAG
1070
     1
1071
      298
1005
126198
  0
LINE
  5
126199
  8
SLIM
 10
8062.0000000000018
 20
-272.70384181603538
 30
0.0
 11
8072.7038418160373
 21
-261.99999999999909
 31
0.0
1001
GRADIENTCOLOR1ACI
1070
     5
1001
GRADIENTCOLOR2ACI
1070
     2
1001
ACAD
1010
0.0
1020
0.0
1030
0.0
1001
ACDBBLOCKREPETAG
1070
     1
1071
      299
1005
126199
  0
LINE
  5
12619A
  8
SLIM
 10
8062.2584692615746
 20
-281.4256286755305
 30
0.0
 11
8081.4256286755299
 21
-262.25846926157431
 31
0.0
1001
GRADIENTCOLOR1ACI
1070
     5
1001
GRADIENTCOLOR2ACI
1070
     2
1001
ACAD
1010
0.0
1020
0.0
1030
0.0
1001
ACDBBLOCKREPETAG
1070
     1
1071
      300
1005
12619A
  0
LINE
  5
12619B
  8
OBJECT
 10
8068.6458301719767
 20
-137.99999999999909
 30
0.0
 11
8100.0
 21
-137.99999999999909
 31
0.0
1001
ACDBBLOCKREPETAG
1070
     1
1071
      242
1005
12619B
  0
LINE
  5
12619C
  8
OBJECT
 10
8068.6458301719767
 20
-261.99999999999909
 30
0.0
 11
8100.0000000000064
 21
-261.99999999999909
 31
0.0
1001
ACDBBLOCKREPETAG
1070
     1
1071
      243
1005
12619C
  0
LINE
  5
12619D
  8
OBJECT
 10
8062.0
 20
-268.64583017197862
 30
0.0
 11
8062.00000000001
 21
-299.99999999999898
 31
0.0
1001
ACDBBLOCKREPETAG
1070
     1
1071
      244
1005
12619D
  0
LINE
  5
12619E
  8
OBJECT
 10
7937.9999999999891
 20
-268.64583017197492
 30
0.0
 11
7938.0
 21
-299.99999999999898
 31
0.0
1001
ACDBBLOCKREPETAG
1070
     1
1071
      245
1005
12619E
  0
LINE
  5
12619F
  8
OBJECT
 10
7931.354169828026
 20
-261.99999999999909
 30
0.0
 11
7899.9999999999909
 21
-261.99999999999909
 31
0.0
1001
ACDBBLOCKREPETAG
1070
     1
1071
      246
1005
12619F
  0
LINE
  5
1261A0
  8
OBJECT
 10
7931.354169828026
 20
-137.99999999999909
 30
0.0
 11
7899.9999999999909
 21
-137.99999999999909
 31
0.0
1001
ACDBBLOCKREPETAG
1070
     1
1071
      247
1005
1261A0
  0
LINE
  5
1261A1
  8
CENTER
 10
7900.0
 20
-199.99999999999909
 30
0.0
 11
8100.0
 21
-199.99999999999909
 31
0.0
1001
ACDBBLOCKREPETAG
1070
     1
1071
      251
1005
1261A1
  0
LINE
  5
1261A2
  8
CENTER
 10
8000.0
 20
-82.499999999999091
 30
0.0
 11
8000.0
 21
-299.99999999999898
 31
0.0
1001
ACDBBLOCKREPETAG
1070
     1
1071
      252
1005
1261A2
  0
ARC
  5
1261A3
  8
OBJECT
 10
8000.0
 20
-199.99999999999909
 30
0.0
 40
102.5
 50
37.220066868561332
 51
142.77993313143861
1001
ACDBBLOCKREPETAG
1070
     1
1071
      256
1005
1261A3
  0
ARC
  5
1261A4
  8
OBJECT
 10
8000.0
 20
-199.99999999999909
 30
0.0
 40
102.5
 50
217.2200668685613
 51
232.7799331314061
1001
ACDBBLOCKREPETAG
1070
     1
1071
      257
1005
1261A4
  0
ARC
  5
1261A5
  8
OBJECT
 10
8000.0
 20
-199.99999999999909
 30
0.0
 40
102.5
 50
307.2200668685939
 51
322.77993313143872
1001
ACDBBLOCKREPETAG
1070
     1
1071
      258
1005
1261A5
  0
ARC
  5
1261A6
  8
OBJECT
 10
7973.8931207053256
 20
-173.82438331578209
 30
0.0
 40
90.0
 50
274.21795726566182
 51
281.60300086768922
1001
ACDBBLOCKREPETAG
1070
     1
1071
      261
1005
1261A6
  0
LINE
  5
1261A7
  8
OBJECT
 10
7991.994750999992
 20
-261.98520799999727
 30
0.0
 11
7996.6424319999942
 21
-248.3387539999994
 31
0.0
1001
ACDBBLOCKREPETAG
1070
     1
1071
      262
1005
1261A7
  0
LINE
  5
1261A8
  8
OBJECT
 10
7955.2887960976786
 20
-207.0733020425842
 30
0.0
 11
7935.6054186421097
 21
-216.60084009147889
 31
0.0
1001
ACDBBLOCKREPETAG
1070
     1
1071
      263
1005
1261A8
  0
LINE
  5
1261A9
  8
OBJECT
 10
7937.3350639238643
 20
-222.25658973369261
 30
0.0
 11
7961.7560738851162
 21
-210.43584915155679
 31
0.0
1001
ACDBBLOCKREPETAG
1070
     1
1071
      264
1005
1261A9
  0
LINE
  5
1261AA
  8
OBJECT
 10
7996.6424319999942
 20
-248.3387539999994
 30
0.0
 11
7970.3289245926408
 21
-210.9660806555467
 31
0.0
1001
ACDBBLOCKREPETAG
1070
     1
1071
      265
1005
1261AA
  0
ARC
  5
1261AB
  8
OBJECT
 10
7960.5170048000518
 20
-217.87449798398211
 30
0.0
 40
12.0
 50
35.148769561161963
 51
115.8288295732624
1001
ACDBBLOCKREPETAG
1070
     1
1071
      266
1005
1261AB
  0
ARC
  5
1261AC
  8
OBJECT
 10
7965.2415463179786
 20
-217.63664646295089
 30
0.0
 40
8.0
 50
35.148769561161963
 51
115.8288292916689
1001
ACDBBLOCKREPETAG
1070
     1
1071
      267
1005
1261AC
  0
ARC
  5
1261AD
  8
OBJECT
 10
8000.0
 20
-199.99999999999909
 30
0.0
 40
90.0
 50
201.08359599996521
 51
248.91640400002939
1001
ACDBBLOCKREPETAG
1070
     1
1071
      273
1005
1261AD
  0
ARC
  5
1261AE
  8
OBJECT
 10
8000.0
 20
-199.99999999999909
 30
0.0
 40
90.0
 50
111.0835959999705
 51
158.91640347115251
1001
ACDBBLOCKREPETAG
1070
     1
1071
      274
1005
1261AE
  0
LINE
  5
1261AF
  8
OBJECT
 10
7916.0249094448664
 20
-167.62432755513231
 30
0.0
 11
7908.2370465822614
 21
-175.41219041773809
 31
0.0
1001
ACDBBLOCKREPETAG
1070
     1
1071
      275
1005
1261AF
  0
LINE
  5
1261B0
  8
OBJECT
 10
7916.0249089999988
 20
-232.37567199999921
 30
0.0
 11
7908.2370469998141
 21
-224.58781114059909
 31
0.0
1001
ACDBBLOCKREPETAG
1070
     1
1071
      276
1005
1261B0
  0
ARC
  5
1261B1
  8
OBJECT
 10
8000.0
 20
-199.99999999999909
 30
0.0
 40
95.0
 50
164.99999981411651
 51
195.00000115873701
1001
ACDBBLOCKREPETAG
1070
     1
1071
      277
1005
1261B1
  0
ARC
  5
1261B2
  8
OBJECT
 10
8000.0
 20
-199.99999999999909
 30
0.0
 40
92.5
 50
287.80189678391901
 51
342.1981035993042
1001
ACDBBLOCKREPETAG
1070
     1
1071
      209
1005
1261B2
  0
ARC
  5
1261B3
  8
OBJECT
 10
8000.0
 20
-199.99999999999909
 30
0.0
 40
90.0
 50
291.08359599997061
 51
338.91640400003479
1001
ACDBBLOCKREPETAG
1070
     1
1071
      211
1005
1261B3
  0
CIRCLE
  5
1261B4
  8
OBJECT
 10
8000.0
 20
-199.99999999999909
 30
0.0
 40
80.0
1001
ACDBBLOCKREPETAG
1070
     1
1071
      212
1005
1261B4
  0
ARC
  5
1261B5
  8
OBJECT
 10
8000.0
 20
-199.99999999999909
 30
0.0
 40
90.0
 50
21.08359652884743
 51
68.916404000029431
1001
ACDBBLOCKREPETAG
1070
     1
1071
      213
1005
1261B5
  0
CIRCLE
  5
1261B6
  8
OBJECT
 10
8000.0
 20
-199.99999999999909
 30
0.0
 40
66.5
1001
ACDBBLOCKREPETAG
1070
     1
1071
      215
1005
1261B6
  0
LINE
  5
1261B7
  8
OBJECT
 10
8083.9750905551327
 20
-167.62432755513231
 30
0.0
 11
8091.7629534177404
 21
-175.4121904177382
 31
0.0
1001
ACDBBLOCKREPETAG
1070
     1
1071
      216
1005
1261B7
  0
LINE
  5
1261B8
  8
OBJECT
 10
8083.9750910000021
 20
-232.37567199999921
 30
0.0
 11
8091.7629530001877
 21
-224.58781114059909
 31
0.0
1001
ACDBBLOCKREPETAG
1070
     1
1071
      217
1005
1261B8
  0
ARC
  5
1261B9
  8
OBJECT
 10
8000.0
 20
-199.99999999999909
 30
0.0
 40
95.0
 50
344.99999884126299
 51
15.00000018588349
1001
ACDBBLOCKREPETAG
1070
     1
1071
      218
1005
1261B9
  0
LINE
  5
1261BA
  8
OBJECT
 10
8032.375672999995
 20
-283.9750909999994
 30
0.0
 11
8024.587810948281
 21
-291.76295305171419
 31
0.0
1001
ACDBBLOCKREPETAG
1070
     1
1071
      219
1005
1261BA
  0
LINE
  5
1261BB
  8
OBJECT
 10
7967.6243279999981
 20
-283.9750909999994
 30
0.0
 11
7975.4121904177382
 21
-291.76295341774039
 31
0.0
1001
ACDBBLOCKREPETAG
1070
     1
1071
      220
1005
1261BB
  0
ARC
  5
1261BC
  8
OBJECT
 10
8000.0
 20
-199.99999999999909
 30
0.0
 40
95.0
 50
254.99999981420709
 51
285.00000103861061
1001
ACDBBLOCKREPETAG
1070
     1
1071
      221
1005
1261BC
  0
LINE
  5
1261BD
  8
OBJECT
 10
8032.375672999995
 20
-116.0249099999992
 30
0.0
 11
8024.5878095822618
 21
-108.2370465822578
 31
0.0
1001
ACDBBLOCKREPETAG
1070
     1
1071
      222
1005
1261BD
  0
ARC
  5
1261BE
  8
OBJECT
 10
8000.0
 20
-199.99999999999909
 30
0.0
 40
95.0
 50
74.999999814207143
 51
104.99999933254421
1001
ACDBBLOCKREPETAG
1070
     1
1071
      223
1005
1261BE
  0
LINE
  5
1261BF
  8
OBJECT
 10
7967.6243279999981
 20
-116.0249099999992
 30
0.0
 11
7975.4121917837692
 21
-108.2370462162316
 31
0.0
1001
ACDBBLOCKREPETAG
1070
     1
1071
      224
1005
1261BF
  0
LINE
  5
1261C0
  8
OBJECT
 10
8055.1784370000023
 20
-162.884098999998
 30
0.0
 11
8032.5345701092747
 21
-178.11554723457169
 31
0.0
1001
ACDBBLOCKREPETAG
1070
     1
1071
      225
1005
1261C0
  0
LINE
  5
1261C1
  8
OBJECT
 10
7944.804121000001
 20
-162.88106899999821
 30
0.0
 11
8032.5345701092747
 21
-178.11554723457169
 31
0.0
1001
ACDBBLOCKREPETAG
1070
     1
1071
      226
1005
1261C1
  0
ARC
  5
1261C2
  8
OBJECT
 10
8000.0
 20
-199.99999999999909
 30
0.0
 40
92.5
 50
197.8018954425261
 51
252.19810417408729
1001
ACDBBLOCKREPETAG
1070
     1
1071
      230
1005
1261C2
  0
ARC
  5
1261C3
  8
OBJECT
 10
8000.0
 20
-199.99999999999909
 30
0.0
 40
92.5
 50
107.80189486746769
 51
162.19810513270031
1001
ACDBBLOCKREPETAG
1070
     1
1071
      231
1005
1261C3
  0
ARC
  5
1261C4
  8
OBJECT
 10
8000.0
 20
-199.99999999999909
 30
0.0
 40
92.5
 50
17.801895825711568
 51
72.19810417408732
1001
ACDBBLOCKREPETAG
1070
     1
1071
      232
1005
1261C4
  0
ARC
  5
1261C5
  8
OBJECT
 10
8000.0
 20
-199.99999999999909
 30
0.0
 40
62.5
 50
144.42390307805491
 51
193.7174643726803
1001
ACDBBLOCKREPETAG
1070
     1
1071
      234
1005
1261C5
  0
ARC
  5
1261C6
  8
OBJECT
 10
8000.0
 20
-199.99999999999909
 30
0.0
 40
62.5
 50
262.64111297834887
 51
33.92683896333525
1001
ACDBBLOCKREPETAG
1070
     1
1071
      235
1005
1261C6
  0
POINT
  5
1261C7
  8
DOTS
 10
8000.0
 20
-199.99999999999909
 30
0.0
1001
ACDBBLOCKREPETAG
1070
     1
1071
      280
1005
1261C7
  0
LINE
  5
1261C8
  8
OBJECT
 10
8134.0
 20
-482.99999999999761
 30
0.0
 11
8134.0
 21
-480.99999999999773
 31
0.0
1001
ACDBBLOCKREPETAG
1070
     1
1071
      157
1005
1261C8
  0
ARC
  5
1261C9
  8
OBJECT
 10
8175.1865574982548
 20
-500.99999999999773
 30
0.0
 40
59.0
 50
229.20276883323919
 51
270.0
1001
ACDBBLOCKREPETAG
1070
     1
1071
      158
1005
1261C9
  0
LINE
  5
1261CA
  8
OBJECT
 10
8244.0
 20
-489.49999999999773
 30
0.0
 11
8109.0
 21
-489.49999999999773
 31
0.0
1001
ACDBBLOCKREPETAG
1070
     1
1071
      159
1005
1261CA
  0
LINE
  5
1261CB
  8
OBJECT
 10
8109.0
 20
-502.49999999999773
 30
0.0
 11
8244.0
 21
-502.49999999999773
 31
0.0
1001
ACDBBLOCKREPETAG
1070
     1
1071
      160
1005
1261CB
  0
LINE
  5
1261CC
  8
OBJECT
 10
8109.0
 20
-489.49999999999773
 30
0.0
 11
8109.0
 21
-502.49999999999773
 31
0.0
1001
ACDBBLOCKREPETAG
1070
     1
1071
      161
1005
1261CC
  0
LINE
  5
1261CD
  8
OBJECT
 10
8116.0
 20
-511.49999999999773
 30
0.0
 11
8116.0
 21
-502.49999999999773
 31
0.0
1001
ACDBBLOCKREPETAG
1070
     1
1071
      162
1005
1261CD
  0
LINE
  5
1261CE
  8
OBJECT
 10
8134.0
 20
-514.99999999999773
 30
0.0
 11
8134.0
 21
-502.49999999999773
 31
0.0
1001
ACDBBLOCKREPETAG
1070
     1
1071
      163
1005
1261CE
  0
LINE
  5
1261CF
  8
OBJECT
 10
8224.0
 20
-511.49999999999773
 30
0.0
 11
8224.0
 21
-502.49999999999773
 31
0.0
1001
ACDBBLOCKREPETAG
1070
     1
1071
      164
1005
1261CF
  0
LINE
  5
1261D0
  8
OBJECT
 10
8244.0
 20
-489.49999999999773
 30
0.0
 11
8244.0
 21
-502.49999999999773
 31
0.0
1001
ACDBBLOCKREPETAG
1070
     1
1071
      165
1005
1261D0
  0
LINE
  5
1261D1
  8
OBJECT
 10
8142.0
 20
-514.99999999999773
 30
0.0
 11
8142.0
 21
-502.49999999999773
 31
0.0
1001
ACDBBLOCKREPETAG
1070
     1
1071
      166
1005
1261D1
  0
LINE
  5
1261D2
  8
OBJECT
 10
8134.0
 20
-511.49999999999773
 30
0.0
 11
8115.0
 21
-511.49999999999773
 31
0.0
1001
ACDBBLOCKREPETAG
1070
     1
1071
      167
1005
1261D2
  0
LINE
  5
1261D3
  8
OBJECT
 10
8115.0
 20
-514.99999999999773
 30
0.0
 11
8115.0
 21
-511.49999999999773
 31
0.0
1001
ACDBBLOCKREPETAG
1070
     1
1071
      168
1005
1261D3
  0
LINE
  5
1261D4
  8
OBJECT
 10
8142.0
 20
-511.49999999999773
 30
0.0
 11
8225.0
 21
-511.49999999999773
 31
0.0
1001
ACDBBLOCKREPETAG
1070
     1
1071
      169
1005
1261D4
  0
LINE
  5
1261D5
  8
OBJECT
 10
8225.0
 20
-511.49999999999773
 30
0.0
 11
8225.0
 21
-514.99999999999773
 31
0.0
1001
ACDBBLOCKREPETAG
1070
     1
1071
      170
1005
1261D5
  0
LINE
  5
1261D6
  8
OBJECT
 10
8130.4944465005328
 20
-489.49999999999773
 30
0.0
 11
8130.4944465005328
 21
-482.99999999999761
 31
0.0
1001
ACDBBLOCKREPETAG
1070
     1
1071
      171
1005
1261D6
  0
LINE
  5
1261D7
  8
OBJECT
 10
8129.0
 20
-527.99999999999773
 30
0.0
 11
8129.0
 21
-532.99999999999761
 31
0.0
1001
ACDBBLOCKREPETAG
1070
     1
1071
      172
1005
1261D7
  0
LINE
  5
1261D8
  8
OBJECT
 10
8129.0
 20
-532.99999999999761
 30
0.0
 11
8147.0
 21
-532.99999999999761
 31
0.0
1001
ACDBBLOCKREPETAG
1070
     1
1071
      173
1005
1261D8
  0
LINE
  5
1261D9
  8
OBJECT
 10
8147.0
 20
-527.99999999999773
 30
0.0
 11
8147.0
 21
-532.99999999999761
 31
0.0
1001
ACDBBLOCKREPETAG
1070
     1
1071
      174
1005
1261D9
  0
LINE
  5
1261DA
  8
OBJECT
 10
8109.0000000000027
 20
-514.99999999999773
 30
0.0
 11
8244.0
 21
-514.99999999999773
 31
0.0
1001
ACDBBLOCKREPETAG
1070
     1
1071
      175
1005
1261DA
  0
LINE
  5
1261DB
  8
OBJECT
 10
8244.0
 20
-514.99999999999773
 30
0.0
 11
8244.0
 21
-527.99999999999773
 31
0.0
1001
ACDBBLOCKREPETAG
1070
     1
1071
      176
1005
1261DB
  0
LINE
  5
1261DC
  8
OBJECT
 10
8136.6369002447645
 20
-545.66457125774514
 30
0.0
 11
8116.1702980000027
 21
-527.99999999999773
 31
0.0
1001
ACDBBLOCKREPETAG
1070
     1
1071
      177
1005
1261DC
  0
LINE
  5
1261DD
  8
OBJECT
 10
8221.0000000000018
 20
-535.65708264965485
 30
0.0
 11
8221.0000000000018
 21
-559.99999999999773
 31
0.0
1001
ACDBBLOCKREPETAG
1070
     1
1071
      178
1005
1261DD
  0
LINE
  5
1261DE
  8
OBJECT
 10
8175.1865574982548
 20
-559.99999999999773
 30
0.0
 11
8221.0000000000018
 21
-559.99999999999773
 31
0.0
1001
ACDBBLOCKREPETAG
1070
     1
1071
      179
1005
1261DE
  0
ARC
  5
1261DF
  8
OBJECT
 10
8130.5000000000027
 20
-561.49999999999773
 30
0.0
 40
84.0
 50
277.05348487097029
 51
1.023193303671255
1001
ACDBBLOCKREPETAG
1070
     1
1071
      180
1005
1261DF
  0
LINE
  5
1261E0
  8
OBJECT
 10
8106.0
 20
-649.17200317020831
 30
0.0
 11
8140.8148488128809
 21
-644.86428428270165
 31
0.0
1001
ACDBBLOCKREPETAG
1070
     1
1071
      181
1005
1261E0
  0
LINE
  5
1261E1
  8
OBJECT
 10
8106.0000000000027
 20
-649.99999999999852
 30
0.0
 11
8106.0000000000027
 21
-528.99999999999761
 31
0.0
1001
ACDBBLOCKREPETAG
1070
     1
1071
      182
1005
1261E1
  0
ARC
  5
1261E2
  8
OBJECT
 10
8103.0000000000027
 20
-649.99999999999852
 30
0.0
 40
3.0
 50
270.0
 51
0.0
1001
ACDBBLOCKREPETAG
1070
     1
1071
      183
1005
1261E2
  0
LINE
  5
1261E3
  8
OBJECT
 10
8116.1702980000027
 20
-527.99999999999773
 30
0.0
 11
8244.0
 21
-527.99999999999773
 31
0.0
1001
ACDBBLOCKREPETAG
1070
     1
1071
      184
1005
1261E3
  0
LINE
  5
1261E4
  8
OBJECT
 10
8125.0539138517261
 20
-535.65708264965485
 30
0.0
 11
8221.0000000000018
 21
-535.65708264965485
 31
0.0
1001
ACDBBLOCKREPETAG
1070
     1
1071
      185
1005
1261E4
  0
LINE
  5
1261E5
  8
OBJECT
 10
8225.0
 20
-530.89006764214673
 30
0.0
 11
8221.0000000000018
 21
-535.65708264965485
 31
0.0
1001
ACDBBLOCKREPETAG
1070
     1
1071
      186
1005
1261E5
  0
LINE
  5
1261E6
  8
OBJECT
 10
8109.0000000000027
 20
-514.99999999999773
 30
0.0
 11
8109.0000000000073
 21
-528.99999999999761
 31
0.0
1001
ACDBBLOCKREPETAG
1070
     1
1071
      187
1005
1261E6
  0
LINE
  5
1261E7
  8
HIDDEN
 10
8125.5
 20
-554.99999999999773
 30
0.0
 11
8214.4999999999982
 21
-554.99999999999773
 31
0.0
1001
ACDBBLOCKREPETAG
1070
     1
1071
      188
1005
1261E7
  0
LINE
  5
1261E8
  8
OBJECT
 10
8134.0
 20
-480.99999999999773
 30
0.0
 11
8142.0
 21
-480.99999999999773
 31
0.0
1001
ACDBBLOCKREPETAG
1070
     1
1071
      189
1005
1261E8
  0
LINE
  5
1261E9
  8
OBJECT
 10
8142.0
 20
-482.99999999999761
 30
0.0
 11
8142.0
 21
-480.99999999999773
 31
0.0
1001
ACDBBLOCKREPETAG
1070
     1
1071
      190
1005
1261E9
  0
LINE
  5
1261EA
  8
OBJECT
 10
8130.4944465005328
 20
-482.99999999999761
 30
0.0
 11
8145.5055534994644
 21
-482.99999999999761
 31
0.0
1001
ACDBBLOCKREPETAG
1070
     1
1071
      191
1005
1261EA
  0
LINE
  5
1261EB
  8
CENTER
 10
8170.0
 20
-574.77158855533025
 30
0.0
 11
8170.0
 21
-474.49999999999773
 31
0.0
1001
ACDBBLOCKREPETAG
1070
     1
1071
      193
1005
1261EB
  0
LINE
  5
1261EC
  8
OBJECT
 10
8100.0
 20
-652.99999999999761
 30
0.0
 11
8103.0000000000027
 21
-652.99999999999852
 31
0.0
1001
ACDBBLOCKREPETAG
1070
     1
1071
      194
1005
1261EC
  0
LINE
  5
1261ED
  8
OBJECT
 10
8100.0
 20
-528.99999999999761
 30
0.0
 11
8109.0000000000073
 21
-528.99999999999761
 31
0.0
1001
ACDBBLOCKREPETAG
1070
     1
1071
      195
1005
1261ED
  0
LINE
  5
1261EE
  8
OBJECT
 10
8134.2471969783937
 20
-489.49998110540878
 30
0.0
 11
8134.2471969783937
 21
-482.99998110540889
 31
0.0
1001
ACDBBLOCKREPETAG
1070
     1
1071
      196
1005
1261EE
  0
LINE
  5
1261EF
  8
OBJECT
 10
8145.5055534994644
 20
-489.49999999999773
 30
0.0
 11
8145.5055534994644
 21
-482.99999999999761
 31
0.0
1001
ACDBBLOCKREPETAG
1070
     1
1071
      197
1005
1261EF
  0
LINE
  5
1261F0
  8
OBJECT
 10
8141.7528030216063
 20
-489.49998110540878
 30
0.0
 11
8141.7528030216063
 21
-482.99998110540889
 31
0.0
1001
ACDBBLOCKREPETAG
1070
     1
1071
      198
1005
1261F0
  0
LINE
  5
1261F1
  8
OBJECT
 10
8230.0
 20
-482.99999999999761
 30
0.0
 11
8230.0
 21
-480.99999999999773
 31
0.0
1001
ACDBBLOCKREPETAG
1070
     1
1071
      199
1005
1261F1
  0
LINE
  5
1261F2
  8
OBJECT
 10
8230.0
 20
-514.99999999999773
 30
0.0
 11
8230.0
 21
-502.49999999999773
 31
0.0
1001
ACDBBLOCKREPETAG
1070
     1
1071
      200
1005
1261F2
  0
LINE
  5
1261F3
  8
OBJECT
 10
8238.0
 20
-514.99999999999773
 30
0.0
 11
8238.0
 21
-502.49999999999773
 31
0.0
1001
ACDBBLOCKREPETAG
1070
     1
1071
      201
1005
1261F3
  0
LINE
  5
1261F4
  8
OBJECT
 10
8226.4944465005337
 20
-489.49999999999773
 30
0.0
 11
8226.4944465005337
 21
-482.99999999999761
 31
0.0
1001
ACDBBLOCKREPETAG
1070
     1
1071
      202
1005
1261F4
  0
LINE
  5
1261F5
  8
OBJECT
 10
8225.0
 20
-527.99999999999773
 30
0.0
 11
8225.0
 21
-532.99999999999761
 31
0.0
1001
ACDBBLOCKREPETAG
1070
     1
1071
      203
1005
1261F5
  0
LINE
  5
1261F6
  8
OBJECT
 10
8225.0
 20
-532.99999999999761
 30
0.0
 11
8243.0
 21
-532.99999999999761
 31
0.0
1001
ACDBBLOCKREPETAG
1070
     1
1071
      204
1005
1261F6
  0
LINE
  5
1261F7
  8
OBJECT
 10
8243.0
 20
-527.99999999999773
 30
0.0
 11
8243.0
 21
-532.99999999999761
 31
0.0
1001
ACDBBLOCKREPETAG
1070
     1
1071
      205
1005
1261F7
  0
LINE
  5
1261F8
  8
OBJECT
 10
8230.0
 20
-480.99999999999773
 30
0.0
 11
8238.0
 21
-480.99999999999773
 31
0.0
1001
ACDBBLOCKREPETAG
1070
     1
1071
      206
1005
1261F8
  0
LINE
  5
1261F9
  8
OBJECT
 10
8238.0
 20
-482.99999999999761
 30
0.0
 11
8238.0
 21
-480.99999999999773
 31
0.0
1001
ACDBBLOCKREPETAG
1070
     1
1071
      207
1005
1261F9
  0
LINE
  5
1261FA
  8
OBJECT
 10
8226.4944465005337
 20
-482.99999999999761
 30
0.0
 11
8241.5055534994644
 21
-482.99999999999761
 31
0.0
1001
ACDBBLOCKREPETAG
1070
     1
1071
      208
1005
1261FA
  0
LINE
  5
1261FB
  8
OBJECT
 10
8230.2471969783928
 20
-489.49998110540878
 30
0.0
 11
8230.2471969783928
 21
-482.99998110540889
 31
0.0
1001
ACDBBLOCKREPETAG
1070
     1
1071
      209
1005
1261FB
  0
LINE
  5
1261FC
  8
OBJECT
 10
8241.5055534994644
 20
-489.49999999999773
 30
0.0
 11
8241.5055534994644
 21
-482.99999999999761
 31
0.0
1001
ACDBBLOCKREPETAG
1070
     1
1071
      210
1005
1261FC
  0
LINE
  5
1261FD
  8
OBJECT
 10
8237.7528030216054
 20
-489.49998110540878
 30
0.0
 11
8237.7528030216054
 21
-482.99998110540889
 31
0.0
1001
ACDBBLOCKREPETAG
1070
     1
1071
      211
1005
1261FD
  0
LINE
  5
1261FE
  8
CENTER
 10
8100.0
 20
-199.99999999999909
 30
0.0
 11
8259.0
 21
-199.99999999999909
 31
0.0
1001
ACDBBLOCKREPETAG
1070
     1
1071
      155
1005
1261FE
  0
LINE
  5
1261FF
  8
OBJECT
 10
8100.0
 20
-261.99999999999909
 30
0.0
 11
8103.0
 21
-261.99999999999909
 31
0.0
1001
ACDBBLOCKREPETAG
1070
     1
1071
      156
1005
1261FF
  0
ARC
  5
126200
  8
OBJECT
 10
8103.0
 20
-258.99999999999909
 30
0.0
 40
3.0
 50
270.0
 51
0.0
1001
ACDBBLOCKREPETAG
1070
     1
1071
      157
1005
126200
  0
LINE
  5
126201
  8
OBJECT
 10
8100.0
 20
-138.0000000000027
 30
0.0
 11
8103.0
 21
-138.0000000000027
 31
0.0
1001
ACDBBLOCKREPETAG
1070
     1
1071
      158
1005
126201
  0
LINE
  5
126202
  8
OBJECT
 10
8106.0
 20
-140.99999999999909
 30
0.0
 11
8128.6547275935327
 21
-140.9999999999954
 31
0.0
1001
ACDBBLOCKREPETAG
1070
     1
1071
      159
1005
126202
  0
LINE
  5
126203
  8
OBJECT
 10
8106.0
 20
-259.00000000000267
 30
0.0
 11
8128.6547275935327
 21
-258.99999999999909
 31
0.0
1001
ACDBBLOCKREPETAG
1070
     1
1071
      160
1005
126203
  0
LINE
  5
126204
  8
CENTER
 10
8170.0
 20
-123.5195984073716
 30
0.0
 11
8170.0
 21
-276.48040159262649
 31
0.0
1001
ACDBBLOCKREPETAG
1070
     1
1071
      161
1005
126204
  0
LINE
  5
126205
  8
OBJECT
 10
8106.0
 20
-141.0000000000027
 30
0.0
 11
8106.0
 21
-258.99999999999909
 31
0.0
1001
ACDBBLOCKREPETAG
1070
     1
1071
      162
1005
126205
  0
ARC
  5
126206
  8
OBJECT
 10
8103.0
 20
-141.0000000000027
 30
0.0
 40
3.0
 50
0.0
 51
90.0
1001
ACDBBLOCKREPETAG
1070
     1
1071
      163
1005
126206
  0
ARC
  5
126207
  8
OBJECT
 10
8170.0
 20
-199.99999999999909
 30
0.0
 40
61.0
 50
37.167285461274467
 51
82.832714538705744
1001
ACDBBLOCKREPETAG
1070
     1
1071
      165
1005
126207
  0
ARC
  5
126208
  8
OBJECT
 10
8170.0
 20
-199.99999999999909
 30
0.0
 40
61.0
 50
157.16728546127851
 51
202.83271453872149
1001
ACDBBLOCKREPETAG
1070
     1
1071
      166
1005
126208
  0
ARC
  5
126209
  8
OBJECT
 10
8170.0
 20
-199.99999999999909
 30
0.0
 40
61.0
 50
277.16728546129423
 51
322.83271453872419
1001
ACDBBLOCKREPETAG
1070
     1
1071
      167
1005
126209
  0
CIRCLE
  5
12620A
  8
SLIM
 10
8234.0
 20
-199.99999999999909
 30
0.0
 40
4.0
1001
ACDBBLOCKREPETAG
1070
     1
1071
      168
1005
12620A
  0
ARC
  5
12620B
  8
OBJECT
 10
8234.0
 20
-199.99999999999909
 30
0.0
 40
10.0
 50
322.83271453872419
 51
37.167285461274467
1001
ACDBBLOCKREPETAG
1070
     1
1071
      169
1005
12620B
  0
LINE
  5
12620C
  8
OBJECT
 10
8218.6093749999964
 20
-163.14720279124501
 30
0.0
 11
8241.9687499999982
 21
-193.9585578346296
 31
0.0
1001
ACDBBLOCKREPETAG
1070
     1
1071
      170
1005
12620C
  0
LINE
  5
12620D
  8
OBJECT
 10
8218.6093749999964
 20
-236.8527972087532
 30
0.0
 11
8241.9687499999982
 21
-206.04144216536861
 31
0.0
1001
ACDBBLOCKREPETAG
1070
     1
1071
      171
1005
12620D
  0
CIRCLE
  5
12620E
  8
SLIM
 10
8138.0
 20
-144.5743741577962
 30
0.0
 40
3.9999999999999991
1001
ACDBBLOCKREPETAG
1070
     1
1071
      172
1005
12620E
  0
ARC
  5
12620F
  8
OBJECT
 10
8138.0
 20
-144.5743741577962
 30
0.0
 40
9.9999999999999982
 50
82.832714538705744
 51
157.16728546127851
1001
ACDBBLOCKREPETAG
1070
     1
1071
      173
1005
12620F
  0
LINE
  5
126210
  8
OBJECT
 10
8113.779853916707
 20
-176.32944499229319
 30
0.0
 11
8128.783582609296
 21
-140.6939553040711
 31
0.0
1001
ACDBBLOCKREPETAG
1070
     1
1071
      174
1005
126210
  0
LINE
  5
126211
  8
OBJECT
 10
8177.6107710832994
 20
-139.47664778353919
 30
0.0
 11
8139.2476673907031
 21
-134.65251313870161
 31
0.0
1001
ACDBBLOCKREPETAG
1070
     1
1071
      175
1005
126211
  0
CIRCLE
  5
126212
  8
SLIM
 10
8138.0
 20
-255.4256258422019
 30
0.0
 40
4.0
1001
ACDBBLOCKREPETAG
1070
     1
1071
      176
1005
126212
  0
ARC
  5
126213
  8
OBJECT
 10
8138.0
 20
-255.4256258422019
 30
0.0
 40
10.0
 50
202.83271453872149
 51
277.16728546129423
1001
ACDBBLOCKREPETAG
1070
     1
1071
      177
1005
126213
  0
LINE
  5
126214
  8
OBJECT
 10
8177.6107710832994
 20
-260.52335221645899
 30
0.0
 11
8139.2476673907031
 21
-265.3474868612966
 31
0.0
1001
ACDBBLOCKREPETAG
1070
     1
1071
      178
1005
126214
  0
LINE
  5
126215
  8
OBJECT
 10
8113.779853916707
 20
-223.67055500770491
 30
0.0
 11
8128.783582609296
 21
-259.30604469592708
 31
0.0
1001
ACDBBLOCKREPETAG
1070
     1
1071
      179
1005
126215
  0
CIRCLE
  5
126216
  8
OBJECT
 10
8170.0
 20
-199.99999999999909
 30
0.0
 40
46.0
1001
ACDBBLOCKREPETAG
1070
     1
1071
      180
1005
126216
  0
POLYLINE
  5
126217
  8
SLIM
 66
     1
 10
0.0
 20
0.0
 30
0.0
 70
     1
1001
ACDBBLOCKREPETAG
1070
     1
1071
      181
1005
126217
  0
VERTEX
  5
126707
  8
SLIM
 10
8230.247223250266
 20
-193.49999999999909
 30
0.0
  0
VERTEX
  5
126708
  8
SLIM
 10
8226.4944465005337
 20
-199.99999999999909
 30
0.0
  0
VERTEX
  5
126709
  8
SLIM
 10
8230.247223250266
 20
-206.49999999999909
 30
0.0
  0
VERTEX
  5
12670A
  8
SLIM
 10
8237.7527767497359
 20
-206.49999999999909
 30
0.0
  0
VERTEX
  5
12670B
  8
SLIM
 10
8241.5055534994644
 20
-199.99999999999909
 30
0.0
  0
VERTEX
  5
12670C
  8
SLIM
 10
8237.7527767497359
 20
-193.49999999999909
 30
0.0
  0
SEQEND
  5
12670D
  8
SLIM
  0
POLYLINE
  5
126218
  8
SLIM
 66
     1
 10
0.0
 20
0.0
 30
0.0
 70
     1
1001
ACDBBLOCKREPETAG
1070
     1
1071
      182
1005
126218
  0
VERTEX
  5
12670E
  8
SLIM
 10
8134.2472232502678
 20
-151.0743741577962
 30
0.0
  0
VERTEX
  5
12670F
  8
SLIM
 10
8141.7527767497377
 20
-151.0743741577962
 30
0.0
  0
VERTEX
  5
126710
  8
SLIM
 10
8145.5055534994644
 20
-144.5743741577962
 30
0.0
  0
VERTEX
  5
126711
  8
SLIM
 10
8141.7527767497313
 20
-138.07437415779259
 30
0.0
  0
VERTEX
  5
126712
  8
SLIM
 10
8134.2472232502678
 20
-138.0743741577962
 30
0.0
  0
VERTEX
  5
126713
  8
SLIM
 10
8130.4944465005328
 20
-144.57437415779259
 30
0.0
  0
SEQEND
  5
126714
  8
SLIM
  0
POLYLINE
  5
126219
  8
SLIM
 66
     1
 10
0.0
 20
0.0
 30
0.0
 70
     1
1001
ACDBBLOCKREPETAG
1070
     1
1071
      183
1005
126219
  0
VERTEX
  5
126715
  8
SLIM
 10
8145.5055534994644
 20
-255.4256258422019
 30
0.0
  0
VERTEX
  5
126716
  8
SLIM
 10
8141.7527767497313
 20
-248.9256258422019
 30
0.0
  0
VERTEX
  5
126717
  8
SLIM
 10
8134.2472232502678
 20
-248.9256258422019
 30
0.0
  0
VERTEX
  5
126718
  8
SLIM
 10
8130.4944465005328
 20
-255.42562584220559
 30
0.0
  0
VERTEX
  5
126719
  8
SLIM
 10
8134.247223250266
 20
-261.9256258422019
 30
0.0
  0
VERTEX
  5
12671A
  8
SLIM
 10
8141.7527767497313
 20
-261.92562584220559
 30
0.0
  0
SEQEND
  5
12671B
  8
SLIM
  0
LINE
  5
12621A
  8
OBJECT
 10
5897.0
 20
-528.99999999999761
 30
0.0
 11
5900.0
 21
-528.99999999999761
 31
0.0
1001
ACDBBLOCKREPETAG
1070
     1
1071
        1
1005
12621A
  0
ARC
  5
12621B
  8
OBJECT
 10
5897.0
 20
-531.99999999999773
 30
0.0
 40
3.0
 50
90.0
 51
180.0
1001
ACDBBLOCKREPETAG
1070
     1
1071
        2
1005
12621B
  0
LINE
  5
12621C
  8
OBJECT
 10
5900.0
 20
-652.99999999999761
 30
0.0
 11
5897.0
 21
-652.99999999999761
 31
0.0
1001
ACDBBLOCKREPETAG
1070
     1
1071
        3
1005
12621C
  0
ARC
  5
12621D
  8
OBJECT
 10
5897.0
 20
-649.99999999999761
 30
0.0
 40
3.0
 50
180.0
 51
270.0
1001
ACDBBLOCKREPETAG
1070
     1
1071
        4
1005
12621D
  0
LINE
  5
12621E
  8
OBJECT
 10
5894.0
 20
-649.99999999999761
 30
0.0
 11
5894.0
 21
-531.99999999999773
 31
0.0
1001
ACDBBLOCKREPETAG
1070
     1
1071
        5
1005
12621E
  0
CIRCLE
  5
12621F
  8
OBJECT
 10
6000.0
 20
-590.99999999999761
 30
0.0
 40
62.0
1001
ACDBBLOCKREPETAG
1070
     1
1071
        0
1005
12621F
  0
LINE
  5
126220
  8
OBJECT
 10
6095.0
 20
-469.99999999999937
 30
0.0
 11
5905.0
 21
-469.99999999999937
 31
0.0
1001
ACDBBLOCKREPETAG
1070
     1
1071
        0
1005
126220
  0
LINE
  5
126221
  8
OBJECT
 10
6095.0
 20
-449.99999999999937
 30
0.0
 11
5905.0
 21
-449.99999999999937
 31
0.0
1001
ACDBBLOCKREPETAG
1070
     1
1071
        1
1005
126221
  0
LINE
  5
126222
  8
OBJECT
 10
5902.4999999999991
 20
-814.99999999999955
 30
0.0
 11
6097.5
 21
-814.99999999999955
 31
0.0
1001
ACDBBLOCKREPETAG
1070
     1
1071
        2
1005
126222
  0
LINE
  5
126223
  8
OBJECT
 10
5908.237046000002
 20
-449.99999999999937
 30
0.0
 11
5908.2370465822614
 21
-469.99999999999937
 31
0.0
1001
ACDBBLOCKREPETAG
1070
     1
1071
        3
1005
126223
  0
LINE
  5
126224
  8
OBJECT
 10
5905.0
 20
-449.99999999999937
 30
0.0
 11
5905.0
 21
-469.99999999999937
 31
0.0
1001
ACDBBLOCKREPETAG
1070
     1
1071
        4
1005
126224
  0
LINE
  5
126225
  8
OBJECT
 10
5916.0249089999998
 20
-449.99999999999937
 30
0.0
 11
5916.0249089999998
 21
-469.99999999999937
 31
0.0
1001
ACDBBLOCKREPETAG
1070
     1
1071
        5
1005
126225
  0
LINE
  5
126226
  8
OBJECT
 10
5967.6243270000023
 20
-449.99999999999937
 30
0.0
 11
5967.6243270000023
 21
-469.99999999999937
 31
0.0
1001
ACDBBLOCKREPETAG
1070
     1
1071
        6
1005
126226
  0
LINE
  5
126227
  8
OBJECT
 10
5975.41219
 20
-449.99999999999937
 30
0.0
 11
5975.41219
 21
-469.99999999999937
 31
0.0
1001
ACDBBLOCKREPETAG
1070
     1
1071
        7
1005
126227
  0
LINE
  5
126228
  8
OBJECT
 10
6024.5878089999987
 20
-449.99999999999937
 30
0.0
 11
6024.5878089999987
 21
-469.99999999999937
 31
0.0
1001
ACDBBLOCKREPETAG
1070
     1
1071
        8
1005
126228
  0
LINE
  5
126229
  8
OBJECT
 10
6032.3756720000029
 20
-449.99999999999937
 30
0.0
 11
6032.3756720000029
 21
-469.99999999999937
 31
0.0
1001
ACDBBLOCKREPETAG
1070
     1
1071
        9
1005
126229
  0
LINE
  5
12622A
  8
OBJECT
 10
6083.9750910000012
 20
-449.99999999999937
 30
0.0
 11
6083.9750910000012
 21
-469.99999999999937
 31
0.0
1001
ACDBBLOCKREPETAG
1070
     1
1071
       10
1005
12622A
  0
LINE
  5
12622B
  8
OBJECT
 10
6091.762953999998
 20
-449.99999999999937
 30
0.0
 11
6091.7629534177431
 21
-469.99999999999937
 31
0.0
1001
ACDBBLOCKREPETAG
1070
     1
1071
       11
1005
12622B
  0
LINE
  5
12622C
  8
OBJECT
 10
6095.0
 20
-449.99999999999937
 30
0.0
 11
6095.0
 21
-469.99999999999937
 31
0.0
1001
ACDBBLOCKREPETAG
1070
     1
1071
       12
1005
12622C
  0
LINE
  5
12622D
  8
OBJECT
 10
6100.0
 20
-528.99999999999955
 30
0.0
 11
5900.0
 21
-528.99999999999955
 31
0.0
1001
ACDBBLOCKREPETAG
1070
     1
1071
       13
1005
12622D
  0
LINE
  5
12622E
  8
OBJECT
 10
6100.0
 20
-652.99999999999761
 30
0.0
 11
6092.5000000000009
 21
-652.99999999999761
 31
0.0
1001
ACDBBLOCKREPETAG
1070
     1
1071
       14
1005
12622E
  0
LINE
  5
12622F
  8
OBJECT
 10
5902.4999999999991
 20
-814.99999999999955
 30
0.0
 11
5902.4999999999991
 21
-802.99999999999784
 31
0.0
1001
ACDBBLOCKREPETAG
1070
     1
1071
       15
1005
12622F
  0
LINE
  5
126230
  8
OBJECT
 10
6097.5
 20
-814.99999999999955
 30
0.0
 11
6097.5
 21
-802.99999999999784
 31
0.0
1001
ACDBBLOCKREPETAG
1070
     1
1071
       16
1005
126230
  0
LINE
  5
126231
  8
OBJECT
 10
5902.4999999999991
 20
-802.99999999999784
 30
0.0
 11
6097.5
 21
-802.99999999999784
 31
0.0
1001
ACDBBLOCKREPETAG
1070
     1
1071
       17
1005
126231
  0
LINE
  5
126232
  8
HIDDEN
 10
5930.0
 20
-524.99999999999955
 30
0.0
 11
6070.0
 21
-524.99999999999955
 31
0.0
1001
ACDBBLOCKREPETAG
1070
     1
1071
       18
1005
126232
  0
LINE
  5
126233
  8
CENTER
 10
6000.0
 20
-434.99999999999949
 30
0.0
 11
6000.0
 21
-814.99999999999955
 31
0.0
1001
ACDBBLOCKREPETAG
1070
     1
1071
       19
1005
126233
  0
LINE
  5
126234
  8
OBJECT
 10
6092.5000000000009
 20
-652.99999999999761
 30
0.0
 11
6092.5000000000009
 21
-802.99999999999784
 31
0.0
1001
ACDBBLOCKREPETAG
1070
     1
1071
       20
1005
126234
  0
LINE
  5
126235
  8
OBJECT
 10
5914.5
 20
-469.99999999999937
 30
0.0
 11
5914.5
 21
-528.99999999999955
 31
0.0
1001
ACDBBLOCKREPETAG
1070
     1
1071
       21
1005
126235
  0
LINE
  5
126236
  8
OBJECT
 10
6085.5
 20
-469.99999999999937
 30
0.0
 11
6085.5
 21
-528.99999999999955
 31
0.0
1001
ACDBBLOCKREPETAG
1070
     1
1071
       22
1005
126236
  0
POINT
  5
126237
  8
DOTS
 10
6000.0
 20
-649.99999999999955
 30
0.0
1001
ACDBBLOCKREPETAG
1070
     1
1071
       24
1005
126237
  0
LINE
  5
126238
  8
OBJECT
 10
5900.0
 20
-652.99999999999761
 30
0.0
 11
5907.5
 21
-652.99999999999761
 31
0.0
1001
ACDBBLOCKREPETAG
1070
     1
1071
       25
1005
126238
  0
LINE
  5
126239
  8
OBJECT
 10
5907.5
 20
-652.99999999999761
 30
0.0
 11
5907.5
 21
-802.99999999999784
 31
0.0
1001
ACDBBLOCKREPETAG
1070
     1
1071
       26
1005
126239
  0
ARC
  5
12623A
  8
OBJECT
 10
6214.4155190291494
 20
-615.62073879202455
 30
0.0
 40
149.554492306393
 50
144.60628028468801
 51
164.2211863995189
1001
ACDBBLOCKREPETAG
1070
     1
1071
       28
1005
12623A
  0
ARC
  5
12623B
  8
OBJECT
 10
6139.1422781245274
 20
-590.99999999999761
 30
0.0
 40
70.496447952551449
 50
166.8426918235858
 51
193.15730817641409
1001
ACDBBLOCKREPETAG
1070
     1
1071
       29
1005
12623B
  0
ARC
  5
12623C
  8
OBJECT
 10
6214.4155190291494
 20
-566.3792612079701
 30
0.0
 40
149.55449230639621
 50
195.7788136004809
 51
215.3937197153119
1001
ACDBBLOCKREPETAG
1070
     1
1071
       30
1005
12623C
  0
ARC
  5
12623D
  8
OBJECT
 10
5785.5844809708497
 20
-615.62073879202455
 30
0.0
 40
149.554492306393
 50
15.778813600524931
 51
35.393719715228642
1001
ACDBBLOCKREPETAG
1070
     1
1071
       31
1005
12623D
  0
ARC
  5
12623E
  8
OBJECT
 10
5860.8577218754717
 20
-590.99999999999761
 30
0.0
 40
70.496447952551449
 50
346.84269182358582
 51
13.15730817641421
1001
ACDBBLOCKREPETAG
1070
     1
1071
       32
1005
12623E
  0
ARC
  5
12623F
  8
OBJECT
 10
5785.5844809708497
 20
-566.3792612079701
 30
0.0
 40
149.55449230639621
 50
324.60628028477117
 51
344.22118639947507
1001
ACDBBLOCKREPETAG
1070
     1
1071
       33
1005
12623F
  0
LINE
  5
126240
  8
CENTER
 10
5878.9999999999973
 20
-199.99999999999909
 30
0.0
 11
5899.9999999999973
 21
-199.99999999999909
 31
0.0
1001
ACDBBLOCKREPETAG
1070
     1
1071
        0
1005
126240
  0
LINE
  5
126241
  8
OBJECT
 10
5896.9999999999973
 20
-261.99999999999909
 30
0.0
 11
5899.9999999999973
 21
-261.99999999999909
 31
0.0
1001
ACDBBLOCKREPETAG
1070
     1
1071
        1
1005
126241
  0
ARC
  5
126242
  8
OBJECT
 10
5896.9999999999973
 20
-258.99999999999909
 30
0.0
 40
3.0
 50
180.0
 51
270.0
1001
ACDBBLOCKREPETAG
1070
     1
1071
        2
1005
126242
  0
LINE
  5
126243
  8
OBJECT
 10
5899.9999999999973
 20
-137.99999999999909
 30
0.0
 11
5896.9999999999973
 21
-137.99999999999909
 31
0.0
1001
ACDBBLOCKREPETAG
1070
     1
1071
        3
1005
126243
  0
ARC
  5
126244
  8
OBJECT
 10
5896.9999999999973
 20
-140.99999999999909
 30
0.0
 40
3.0
 50
90.0
 51
180.0
1001
ACDBBLOCKREPETAG
1070
     1
1071
        4
1005
126244
  0
LINE
  5
126245
  8
OBJECT
 10
5893.9999999999982
 20
-140.99999999999909
 30
0.0
 11
5893.9999999999982
 21
-258.99999999999909
 31
0.0
1001
ACDBBLOCKREPETAG
1070
     1
1071
        5
1005
126245
  0
LINE
  5
126246
  8
CENTER
 10
6000.0000000000027
 20
-320.99999999999898
 30
0.0
 11
6000.0000000000027
 21
-299.99999999999898
 31
0.0
1001
ACDBBLOCKREPETAG
1070
     1
1071
        0
1005
126246
  0
LINE
  5
126247
  8
OBJECT
 10
6062.0000000000036
 20
-303.0
 30
0.0
 11
6062.0000000000036
 21
-299.99999999999898
 31
0.0
1001
ACDBBLOCKREPETAG
1070
     1
1071
        1
1005
126247
  0
ARC
  5
126248
  8
OBJECT
 10
6059.0000000000036
 20
-303.0
 30
0.0
 40
3.0
 50
270.0
 51
0.0
1001
ACDBBLOCKREPETAG
1070
     1
1071
        2
1005
126248
  0
LINE
  5
126249
  8
OBJECT
 10
5938.0000000000036
 20
-299.99999999999898
 30
0.0
 11
5938.0000000000036
 21
-302.99999999999818
 31
0.0
1001
ACDBBLOCKREPETAG
1070
     1
1071
        3
1005
126249
  0
ARC
  5
12624A
  8
OBJECT
 10
5941.0000000000036
 20
-302.99999999999818
 30
0.0
 40
3.0
 50
180.0
 51
270.0
1001
ACDBBLOCKREPETAG
1070
     1
1071
        4
1005
12624A
  0
LINE
  5
12624B
  8
OBJECT
 10
5941.0000000000036
 20
-305.99999999999818
 30
0.0
 11
6059.0000000000036
 21
-306.0
 31
0.0
1001
ACDBBLOCKREPETAG
1070
     1
1071
        5
1005
12624B
  0
LINE
  5
12624C
  8
SLIM
 10
5918.5743713244692
 20
-137.74153073842379
 30
0.0
 11
5937.7415307384244
 21
-118.5743713244679
 31
0.0
1001
GRADIENTCOLOR1ACI
1070
     5
1001
GRADIENTCOLOR2ACI
1070
     2
1001
ACAD
1010
0.0
1020
0.0
1030
0.0
1001
ACDBBLOCKREPETAG
1070
     1
1071
      301
1005
12624C
  0
LINE
  5
12624D
  8
SLIM
 10
5927.2961581839627
 20
-137.99999999999909
 30
0.0
 11
5959.4220169794125
 21
-105.8741412045496
 31
0.0
1001
GRADIENTCOLOR1ACI
1070
     5
1001
GRADIENTCOLOR2ACI
1070
     2
1001
ACAD
1010
0.0
1020
0.0
1030
0.0
1001
ACDBBLOCKREPETAG
1070
     1
1071
      302
1005
12624D
  0
LINE
  5
12624E
  8
SLIM
 10
5955.2080715681668
 20
-119.0683427368643
 30
0.0
 11
5973.2147923567727
 21
-101.06162194825821
 31
0.0
1001
GRADIENTCOLOR1ACI
1070
     5
1001
GRADIENTCOLOR2ACI
1070
     2
1001
ACAD
1010
0.0
1020
0.0
1030
0.0
1001
ACDBBLOCKREPETAG
1070
     1
1071
      303
1005
12624E
  0
LINE
  5
12624F
  8
SLIM
 10
5971.1389053532557
 20
-112.11776507284389
 30
0.0
 11
5984.5919680901698
 21
-98.664702335928993
 31
0.0
1001
GRADIENTCOLOR1ACI
1070
     5
1001
GRADIENTCOLOR2ACI
1070
     2
1001
ACAD
1010
0.0
1020
0.0
1030
0.0
1001
ACDBBLOCKREPETAG
1070
     1
1071
      304
1005
12624F
  0
LINE
  5
126250
  8
SLIM
 10
5986.2342955596041
 20
-106.0026309875652
 30
0.0
 11
5994.5942819876618
 21
-97.642644559507801
 31
0.0
1001
GRADIENTCOLOR1ACI
1070
     5
1001
GRADIENTCOLOR2ACI
1070
     2
1001
ACAD
1010
0.0
1020
0.0
1030
0.0
1001
ACDBBLOCKREPETAG
1070
     1
1071
      278
1005
126250
  0
LINE
  5
126251
  8
SLIM
 10
5996.1386775409328
 20
-105.0785051273038
 30
0.0
 11
6000.0
 21
-101.21718266823839
 31
0.0
1001
GRADIENTCOLOR1ACI
1070
     5
1001
GRADIENTCOLOR2ACI
1070
     2
1001
ACAD
1010
0.0
1020
0.0
1030
0.0
1001
ACDBBLOCKREPETAG
1070
     1
1071
      305
1005
126251
  0
LINE
  5
126252
  8
SLIM
 10
6000.0
 20
-101.21718266823839
 30
0.0
 11
6003.6520994194652
 21
-97.565083248774314
 31
0.0
1001
GRADIENTCOLOR1ACI
1070
     5
1001
GRADIENTCOLOR2ACI
1070
     2
1001
ACAD
1010
0.0
1020
0.0
1030
0.0
1001
ACDBBLOCKREPETAG
1070
     1
1071
      306
1005
126252
  0
LINE
  5
126253
  8
SLIM
 10
6005.0624562444937
 20
-105.13498254481389
 30
0.0
 11
6011.993358860951
 21
-98.204079928355625
 31
0.0
1001
GRADIENTCOLOR1ACI
1070
     5
1001
GRADIENTCOLOR2ACI
1070
     2
1001
ACAD
1010
0.0
1020
0.0
1030
0.0
1001
ACDBBLOCKREPETAG
1070
     1
1071
      307
1005
126253
  0
LINE
  5
126254
  8
SLIM
 10
6013.2492495222623
 20
-105.9284453881143
 30
0.0
 11
6019.7558130592479
 21
-99.421881851129058
 31
0.0
1001
GRADIENTCOLOR1ACI
1070
     5
1001
GRADIENTCOLOR2ACI
1070
     2
1001
ACAD
1010
0.0
1020
0.0
1030
0.0
1001
ACDBBLOCKREPETAG
1070
     1
1071
      282
1005
126254
  0
LINE
  5
126255
  8
SLIM
 10
6020.8432248281188
 20
-107.31472620332499
 30
0.0
 11
6027.0297896486654
 21
-101.1281613827821
 31
0.0
1001
GRADIENTCOLOR1ACI
1070
     5
1001
GRADIENTCOLOR2ACI
1070
     2
1001
ACAD
1010
0.0
1020
0.0
1030
0.0
1001
ACDBBLOCKREPETAG
1070
     1
1071
      283
1005
126255
  0
LINE
  5
126256
  8
SLIM
 10
6026.7444850762586
 20
-110.3937220762563
 30
0.0
 11
6033.8777840865841
 21
-103.2604230659298
 31
0.0
1001
GRADIENTCOLOR1ACI
1070
     5
1001
GRADIENTCOLOR2ACI
1070
     2
1001
ACAD
1010
0.0
1020
0.0
1030
0.0
1001
ACDBBLOCKREPETAG
1070
     1
1071
      284
1005
126256
  0
LINE
  5
126257
  8
SLIM
 10
6032.6605739035567
 20
-113.4578893700272
 30
0.0
 11
6040.3445940865859
 21
-105.7738691869987
 31
0.0
1001
GRADIENTCOLOR1ACI
1070
     5
1001
GRADIENTCOLOR2ACI
1070
     2
1001
ACAD
1010
0.0
1020
0.0
1030
0.0
1001
ACDBBLOCKREPETAG
1070
     1
1071
      285
1005
126257
  0
LINE
  5
126258
  8
SLIM
 10
6038.9830129339689
 20
-116.115706460684
 30
0.0
 11
6046.4630285156381
 21
-108.63569087901411
 31
0.0
1001
GRADIENTCOLOR1ACI
1070
     5
1001
GRADIENTCOLOR2ACI
1070
     2
1001
ACAD
1010
0.0
1020
0.0
1030
0.0
1001
ACDBBLOCKREPETAG
1070
     1
1071
      286
1005
126258
  0
LINE
  5
126259
  8
SLIM
 10
6044.9326113883499
 20
-119.1463641273716
 30
0.0
 11
6052.2573273714534
 21
-111.8216481442697
 31
0.0
1001
GRADIENTCOLOR1ACI
1070
     5
1001
GRADIENTCOLOR2ACI
1070
     2
1001
ACAD
1010
0.0
1020
0.0
1030
0.0
1001
ACDBBLOCKREPETAG
1070
     1
1071
      287
1005
126259
  0
LINE
  5
12625A
  8
SLIM
 10
6050.5348792738341
 20
-122.5243523629576
 30
0.0
 11
6057.7453005374236
 21
-115.3139310993673
 31
0.0
1001
GRADIENTCOLOR1ACI
1070
     5
1001
GRADIENTCOLOR2ACI
1070
     2
1001
ACAD
1010
0.0
1020
0.0
1030
0.0
1001
ACDBBLOCKREPETAG
1070
     1
1071
      288
1005
12625A
  0
LINE
  5
12625B
  8
SLIM
 10
5919.0997883728251
 20
-262.93969938503398
 30
0.0
 11
5920.039487757861
 21
-261.99999999999909
 31
0.0
1001
GRADIENTCOLOR1ACI
1070
     5
1001
GRADIENTCOLOR2ACI
1070
     2
1001
ACAD
1010
0.0
1020
0.0
1030
0.0
1001
ACDBBLOCKREPETAG
1070
     1
1071
      289
1005
12625B
  0
LINE
  5
12625C
  8
SLIM
 10
6055.807705723706
 20
-126.2317820341551
 30
0.0
 11
6062.9396993850351
 21
-119.0997883728258
 31
0.0
1001
GRADIENTCOLOR1ACI
1070
     5
1001
GRADIENTCOLOR2ACI
1070
     2
1001
ACAD
1010
0.0
1020
0.0
1030
0.0
1001
ACDBBLOCKREPETAG
1070
     1
1071
      290
1005
12625C
  0
LINE
  5
12625D
  8
SLIM
 10
5923.1706450290258
 20
-267.84909884990361
 30
0.0
 11
5929.0197438789319
 21
-261.99999999999909
 31
0.0
1001
GRADIENTCOLOR1ACI
1070
     5
1001
GRADIENTCOLOR2ACI
1070
     2
1001
ACAD
1010
0.0
1020
0.0
1030
0.0
1001
ACDBBLOCKREPETAG
1070
     1
1071
      291
1005
12625D
  0
LINE
  5
12625E
  8
SLIM
 10
6060.762946579669
 20
-130.25679729926071
 30
0.0
 11
6067.8490988499043
 21
-123.17064502902539
 31
0.0
1001
GRADIENTCOLOR1ACI
1070
     5
1001
GRADIENTCOLOR2ACI
1070
     2
1001
ACAD
1010
0.0
1020
0.0
1030
0.0
1001
ACDBBLOCKREPETAG
1070
     1
1071
      292
1005
12625E
  0
LINE
  5
12625F
  8
SLIM
 10
5927.5215549283794
 20
-272.47844507162011
 30
0.0
 11
5934.5926227402442
 21
-265.40737725975481
 31
0.0
1001
GRADIENTCOLOR1ACI
1070
     5
1001
GRADIENTCOLOR2ACI
1070
     2
1001
ACAD
1010
0.0
1020
0.0
1030
0.0
1001
ACDBBLOCKREPETAG
1070
     1
1071
      293
1005
12625F
  0
LINE
  5
126260
  8
SLIM
 10
6065.4073772597558
 20
-134.5926227402434
 30
0.0
 11
6072.4784450716206
 21
-127.52155492837799
 31
0.0
1001
GRADIENTCOLOR1ACI
1070
     5
1001
GRADIENTCOLOR2ACI
1070
     2
1001
ACAD
1010
0.0
1020
0.0
1030
0.0
1001
ACDBBLOCKREPETAG
1070
     1
1071
      294
1005
126260
  0
LINE
  5
126261
  8
SLIM
 10
5932.1509011500948
 20
-276.82935497097282
 30
0.0
 11
5937.9999999999936
 21
-270.980256121075
 31
0.0
1001
GRADIENTCOLOR1ACI
1070
     5
1001
GRADIENTCOLOR2ACI
1070
     2
1001
ACAD
1010
0.0
1020
0.0
1030
0.0
1001
ACDBBLOCKREPETAG
1070
     1
1071
      295
1005
126261
  0
LINE
  5
126262
  8
SLIM
 10
6070.980256121069
 20
-137.99999999999901
 30
0.0
 11
6076.8293549709733
 21
-132.15090115009451
 31
0.0
1001
GRADIENTCOLOR1ACI
1070
     5
1001
GRADIENTCOLOR2ACI
1070
     2
1001
ACAD
1010
0.0
1020
0.0
1030
0.0
1001
ACDBBLOCKREPETAG
1070
     1
1071
      296
1005
126262
  0
LINE
  5
126263
  8
SLIM
 10
5937.0603006149649
 20
-280.90021162717238
 30
0.0
 11
5937.9999999999973
 21
-279.9605122421421
 31
0.0
1001
GRADIENTCOLOR1ACI
1070
     5
1001
GRADIENTCOLOR2ACI
1070
     2
1001
ACAD
1010
0.0
1020
0.0
1030
0.0
1001
ACDBBLOCKREPETAG
1070
     1
1071
      297
1005
126263
  0
LINE
  5
126264
  8
SLIM
 10
6079.9605122421381
 20
-137.99999999999901
 30
0.0
 11
6080.900211627174
 21
-137.06030061496409
 31
0.0
1001
GRADIENTCOLOR1ACI
1070
     5
1001
GRADIENTCOLOR2ACI
1070
     2
1001
ACAD
1010
0.0
1020
0.0
1030
0.0
1001
ACDBBLOCKREPETAG
1070
     1
1071
      298
1005
126264
  0
LINE
  5
126265
  8
SLIM
 10
6062.0000000000009
 20
-272.70384181603538
 30
0.0
 11
6072.7038418160373
 21
-261.99999999999909
 31
0.0
1001
GRADIENTCOLOR1ACI
1070
     5
1001
GRADIENTCOLOR2ACI
1070
     2
1001
ACAD
1010
0.0
1020
0.0
1030
0.0
1001
ACDBBLOCKREPETAG
1070
     1
1071
      299
1005
126265
  0
LINE
  5
126266
  8
SLIM
 10
6062.2584692615746
 20
-281.4256286755305
 30
0.0
 11
6081.4256286755299
 21
-262.25846926157431
 31
0.0
1001
GRADIENTCOLOR1ACI
1070
     5
1001
GRADIENTCOLOR2ACI
1070
     2
1001
ACAD
1010
0.0
1020
0.0
1030
0.0
1001
ACDBBLOCKREPETAG
1070
     1
1071
      300
1005
126266
  0
LINE
  5
126267
  8
OBJECT
 10
6068.6458301719767
 20
-137.99999999999909
 30
0.0
 11
6100.0
 21
-137.99999999999909
 31
0.0
1001
ACDBBLOCKREPETAG
1070
     1
1071
      242
1005
126267
  0
LINE
  5
126268
  8
OBJECT
 10
6068.6458301719767
 20
-261.99999999999909
 30
0.0
 11
6100.0000000000073
 21
-261.99999999999909
 31
0.0
1001
ACDBBLOCKREPETAG
1070
     1
1071
      243
1005
126268
  0
LINE
  5
126269
  8
OBJECT
 10
6062.0
 20
-268.64583017197862
 30
0.0
 11
6062.0000000000082
 21
-299.99999999999898
 31
0.0
1001
ACDBBLOCKREPETAG
1070
     1
1071
      244
1005
126269
  0
LINE
  5
12626A
  8
OBJECT
 10
5937.9999999999927
 20
-268.64583017197492
 30
0.0
 11
5938.0
 21
-299.99999999999898
 31
0.0
1001
ACDBBLOCKREPETAG
1070
     1
1071
      245
1005
12626A
  0
LINE
  5
12626B
  8
OBJECT
 10
5931.3541698280233
 20
-261.99999999999909
 30
0.0
 11
5899.9999999999927
 21
-261.99999999999909
 31
0.0
1001
ACDBBLOCKREPETAG
1070
     1
1071
      246
1005
12626B
  0
LINE
  5
12626C
  8
OBJECT
 10
5931.3541698280233
 20
-137.99999999999909
 30
0.0
 11
5899.9999999999927
 21
-137.99999999999909
 31
0.0
1001
ACDBBLOCKREPETAG
1070
     1
1071
      247
1005
12626C
  0
LINE
  5
12626D
  8
CENTER
 10
5900.0
 20
-199.99999999999909
 30
0.0
 11
6100.0
 21
-199.99999999999909
 31
0.0
1001
ACDBBLOCKREPETAG
1070
     1
1071
      251
1005
12626D
  0
LINE
  5
12626E
  8
CENTER
 10
6000.0
 20
-82.499999999999091
 30
0.0
 11
6000.0
 21
-299.99999999999898
 31
0.0
1001
ACDBBLOCKREPETAG
1070
     1
1071
      252
1005
12626E
  0
ARC
  5
12626F
  8
OBJECT
 10
6000.0
 20
-199.99999999999909
 30
0.0
 40
102.5
 50
37.220066868561332
 51
142.77993313143861
1001
ACDBBLOCKREPETAG
1070
     1
1071
      256
1005
12626F
  0
ARC
  5
126270
  8
OBJECT
 10
6000.0
 20
-199.99999999999909
 30
0.0
 40
102.5
 50
217.2200668685613
 51
232.7799331314061
1001
ACDBBLOCKREPETAG
1070
     1
1071
      257
1005
126270
  0
ARC
  5
126271
  8
OBJECT
 10
6000.0
 20
-199.99999999999909
 30
0.0
 40
102.5
 50
307.2200668685939
 51
322.77993313143872
1001
ACDBBLOCKREPETAG
1070
     1
1071
      258
1005
126271
  0
ARC
  5
126272
  8
OBJECT
 10
5973.8931207053247
 20
-173.82438331578209
 30
0.0
 40
90.0
 50
274.21795726566182
 51
281.60300086768922
1001
ACDBBLOCKREPETAG
1070
     1
1071
      261
1005
126272
  0
LINE
  5
126273
  8
OBJECT
 10
5991.994750999992
 20
-261.98520799999727
 30
0.0
 11
5996.6424319999924
 21
-248.3387539999994
 31
0.0
1001
ACDBBLOCKREPETAG
1070
     1
1071
      262
1005
126273
  0
LINE
  5
126274
  8
OBJECT
 10
5955.2887960976786
 20
-207.0733020425842
 30
0.0
 11
5935.6054186421097
 21
-216.60084009147889
 31
0.0
1001
ACDBBLOCKREPETAG
1070
     1
1071
      263
1005
126274
  0
LINE
  5
126275
  8
OBJECT
 10
5937.3350639238643
 20
-222.25658973369261
 30
0.0
 11
5961.7560738851171
 21
-210.43584915155679
 31
0.0
1001
ACDBBLOCKREPETAG
1070
     1
1071
      264
1005
126275
  0
LINE
  5
126276
  8
OBJECT
 10
5996.6424319999924
 20
-248.3387539999994
 30
0.0
 11
5970.3289245926417
 21
-210.9660806555467
 31
0.0
1001
ACDBBLOCKREPETAG
1070
     1
1071
      265
1005
126276
  0
ARC
  5
126277
  8
OBJECT
 10
5960.51700480005
 20
-217.87449798398211
 30
0.0
 40
12.0
 50
35.148769561161963
 51
115.8288295732624
1001
ACDBBLOCKREPETAG
1070
     1
1071
      266
1005
126277
  0
ARC
  5
126278
  8
OBJECT
 10
5965.2415463179786
 20
-217.63664646295089
 30
0.0
 40
8.0
 50
35.148769561161963
 51
115.8288292916689
1001
ACDBBLOCKREPETAG
1070
     1
1071
      267
1005
126278
  0
ARC
  5
126279
  8
OBJECT
 10
6000.0
 20
-199.99999999999909
 30
0.0
 40
90.0
 50
201.08359599996521
 51
248.91640400002939
1001
ACDBBLOCKREPETAG
1070
     1
1071
      273
1005
126279
  0
ARC
  5
12627A
  8
OBJECT
 10
6000.0
 20
-199.99999999999909
 30
0.0
 40
90.0
 50
111.0835959999705
 51
158.91640347115251
1001
ACDBBLOCKREPETAG
1070
     1
1071
      274
1005
12627A
  0
LINE
  5
12627B
  8
OBJECT
 10
5916.0249094448682
 20
-167.62432755513231
 30
0.0
 11
5908.2370465822614
 21
-175.41219041773809
 31
0.0
1001
ACDBBLOCKREPETAG
1070
     1
1071
      275
1005
12627B
  0
LINE
  5
12627C
  8
OBJECT
 10
5916.0249089999998
 20
-232.37567199999921
 30
0.0
 11
5908.2370469998132
 21
-224.58781114059909
 31
0.0
1001
ACDBBLOCKREPETAG
1070
     1
1071
      276
1005
12627C
  0
ARC
  5
12627D
  8
OBJECT
 10
6000.0
 20
-199.99999999999909
 30
0.0
 40
95.0
 50
164.99999981411651
 51
195.00000115873701
1001
ACDBBLOCKREPETAG
1070
     1
1071
      277
1005
12627D
  0
ARC
  5
12627E
  8
OBJECT
 10
6000.0
 20
-199.99999999999909
 30
0.0
 40
92.5
 50
287.80189678391901
 51
342.1981035993042
1001
ACDBBLOCKREPETAG
1070
     1
1071
      209
1005
12627E
  0
ARC
  5
12627F
  8
OBJECT
 10
6000.0
 20
-199.99999999999909
 30
0.0
 40
90.0
 50
291.08359599997061
 51
338.91640400003479
1001
ACDBBLOCKREPETAG
1070
     1
1071
      211
1005
12627F
  0
CIRCLE
  5
126280
  8
OBJECT
 10
6000.0
 20
-199.99999999999909
 30
0.0
 40
80.0
1001
ACDBBLOCKREPETAG
1070
     1
1071
      212
1005
126280
  0
ARC
  5
126281
  8
OBJECT
 10
6000.0
 20
-199.99999999999909
 30
0.0
 40
90.0
 50
21.08359652884743
 51
68.916404000029431
1001
ACDBBLOCKREPETAG
1070
     1
1071
      213
1005
126281
  0
CIRCLE
  5
126282
  8
OBJECT
 10
6000.0
 20
-199.99999999999909
 30
0.0
 40
66.5
1001
ACDBBLOCKREPETAG
1070
     1
1071
      215
1005
126282
  0
LINE
  5
126283
  8
OBJECT
 10
6083.9750905551346
 20
-167.62432755513231
 30
0.0
 11
6091.7629534177377
 21
-175.4121904177382
 31
0.0
1001
ACDBBLOCKREPETAG
1070
     1
1071
      216
1005
126283
  0
LINE
  5
126284
  8
OBJECT
 10
6083.9750910000012
 20
-232.37567199999921
 30
0.0
 11
6091.7629530001859
 21
-224.58781114059909
 31
0.0
1001
ACDBBLOCKREPETAG
1070
     1
1071
      217
1005
126284
  0
ARC
  5
126285
  8
OBJECT
 10
6000.0
 20
-199.99999999999909
 30
0.0
 40
95.0
 50
344.99999884126299
 51
15.00000018588349
1001
ACDBBLOCKREPETAG
1070
     1
1071
      218
1005
126285
  0
LINE
  5
126286
  8
OBJECT
 10
6032.375672999995
 20
-283.9750909999994
 30
0.0
 11
6024.5878109482801
 21
-291.76295305171419
 31
0.0
1001
ACDBBLOCKREPETAG
1070
     1
1071
      219
1005
126286
  0
LINE
  5
126287
  8
OBJECT
 10
5967.6243279999971
 20
-283.9750909999994
 30
0.0
 11
5975.4121904177373
 21
-291.76295341774039
 31
0.0
1001
ACDBBLOCKREPETAG
1070
     1
1071
      220
1005
126287
  0
ARC
  5
126288
  8
OBJECT
 10
6000.0
 20
-199.99999999999909
 30
0.0
 40
95.0
 50
254.99999981420709
 51
285.00000103861061
1001
ACDBBLOCKREPETAG
1070
     1
1071
      221
1005
126288
  0
LINE
  5
126289
  8
OBJECT
 10
6032.375672999995
 20
-116.0249099999992
 30
0.0
 11
6024.5878095822618
 21
-108.2370465822578
 31
0.0
1001
ACDBBLOCKREPETAG
1070
     1
1071
      222
1005
126289
  0
ARC
  5
12628A
  8
OBJECT
 10
6000.0
 20
-199.99999999999909
 30
0.0
 40
95.0
 50
74.999999814207143
 51
104.99999933254421
1001
ACDBBLOCKREPETAG
1070
     1
1071
      223
1005
12628A
  0
LINE
  5
12628B
  8
OBJECT
 10
5967.6243279999971
 20
-116.0249099999992
 30
0.0
 11
5975.4121917837692
 21
-108.2370462162316
 31
0.0
1001
ACDBBLOCKREPETAG
1070
     1
1071
      224
1005
12628B
  0
LINE
  5
12628C
  8
OBJECT
 10
6055.1784370000023
 20
-162.884098999998
 30
0.0
 11
6032.5345701092729
 21
-178.11554723457169
 31
0.0
1001
ACDBBLOCKREPETAG
1070
     1
1071
      225
1005
12628C
  0
LINE
  5
12628D
  8
OBJECT
 10
5944.804121000001
 20
-162.88106899999821
 30
0.0
 11
6032.5345701092729
 21
-178.11554723457169
 31
0.0
1001
ACDBBLOCKREPETAG
1070
     1
1071
      226
1005
12628D
  0
ARC
  5
12628E
  8
OBJECT
 10
6000.0
 20
-199.99999999999909
 30
0.0
 40
92.5
 50
197.8018954425261
 51
252.19810417408729
1001
ACDBBLOCKREPETAG
1070
     1
1071
      230
1005
12628E
  0
ARC
  5
12628F
  8
OBJECT
 10
6000.0
 20
-199.99999999999909
 30
0.0
 40
92.5
 50
107.80189486746769
 51
162.19810513270031
1001
ACDBBLOCKREPETAG
1070
     1
1071
      231
1005
12628F
  0
ARC
  5
126290
  8
OBJECT
 10
6000.0
 20
-199.99999999999909
 30
0.0
 40
92.5
 50
17.801895825711568
 51
72.19810417408732
1001
ACDBBLOCKREPETAG
1070
     1
1071
      232
1005
126290
  0
ARC
  5
126291
  8
OBJECT
 10
6000.0
 20
-199.99999999999909
 30
0.0
 40
62.5
 50
144.42390307805491
 51
193.7174643726803
1001
ACDBBLOCKREPETAG
1070
     1
1071
      234
1005
126291
  0
ARC
  5
126292
  8
OBJECT
 10
6000.0
 20
-199.99999999999909
 30
0.0
 40
62.5
 50
262.64111297834887
 51
33.92683896333525
1001
ACDBBLOCKREPETAG
1070
     1
1071
      235
1005
126292
  0
POINT
  5
126293
  8
DOTS
 10
6000.0
 20
-199.99999999999909
 30
0.0
1001
ACDBBLOCKREPETAG
1070
     1
1071
      280
1005
126293
  0
LINE
  5
126294
  8
OBJECT
 10
6134.0
 20
-482.99999999999761
 30
0.0
 11
6134.0
 21
-480.99999999999773
 31
0.0
1001
ACDBBLOCKREPETAG
1070
     1
1071
      157
1005
126294
  0
ARC
  5
126295
  8
OBJECT
 10
6175.1865574982548
 20
-500.99999999999773
 30
0.0
 40
59.0
 50
229.20276883323919
 51
270.0
1001
ACDBBLOCKREPETAG
1070
     1
1071
      158
1005
126295
  0
LINE
  5
126296
  8
OBJECT
 10
6244.0
 20
-489.49999999999773
 30
0.0
 11
6109.0
 21
-489.49999999999773
 31
0.0
1001
ACDBBLOCKREPETAG
1070
     1
1071
      159
1005
126296
  0
LINE
  5
126297
  8
OBJECT
 10
6109.0
 20
-502.49999999999773
 30
0.0
 11
6244.0
 21
-502.49999999999773
 31
0.0
1001
ACDBBLOCKREPETAG
1070
     1
1071
      160
1005
126297
  0
LINE
  5
126298
  8
OBJECT
 10
6109.0
 20
-489.49999999999773
 30
0.0
 11
6109.0
 21
-502.49999999999773
 31
0.0
1001
ACDBBLOCKREPETAG
1070
     1
1071
      161
1005
126298
  0
LINE
  5
126299
  8
OBJECT
 10
6116.0
 20
-511.49999999999773
 30
0.0
 11
6116.0
 21
-502.49999999999773
 31
0.0
1001
ACDBBLOCKREPETAG
1070
     1
1071
      162
1005
126299
  0
LINE
  5
12629A
  8
OBJECT
 10
6134.0
 20
-514.99999999999773
 30
0.0
 11
6134.0
 21
-502.49999999999773
 31
0.0
1001
ACDBBLOCKREPETAG
1070
     1
1071
      163
1005
12629A
  0
LINE
  5
12629B
  8
OBJECT
 10
6224.0
 20
-511.49999999999773
 30
0.0
 11
6224.0
 21
-502.49999999999773
 31
0.0
1001
ACDBBLOCKREPETAG
1070
     1
1071
      164
1005
12629B
  0
LINE
  5
12629C
  8
OBJECT
 10
6244.0
 20
-489.49999999999773
 30
0.0
 11
6244.0
 21
-502.49999999999773
 31
0.0
1001
ACDBBLOCKREPETAG
1070
     1
1071
      165
1005
12629C
  0
LINE
  5
12629D
  8
OBJECT
 10
6142.0
 20
-514.99999999999773
 30
0.0
 11
6142.0
 21
-502.49999999999773
 31
0.0
1001
ACDBBLOCKREPETAG
1070
     1
1071
      166
1005
12629D
  0
LINE
  5
12629E
  8
OBJECT
 10
6134.0
 20
-511.49999999999773
 30
0.0
 11
6115.0
 21
-511.49999999999773
 31
0.0
1001
ACDBBLOCKREPETAG
1070
     1
1071
      167
1005
12629E
  0
LINE
  5
12629F
  8
OBJECT
 10
6115.0
 20
-514.99999999999773
 30
0.0
 11
6115.0
 21
-511.49999999999773
 31
0.0
1001
ACDBBLOCKREPETAG
1070
     1
1071
      168
1005
12629F
  0
LINE
  5
1262A0
  8
OBJECT
 10
6142.0
 20
-511.49999999999773
 30
0.0
 11
6225.0
 21
-511.49999999999773
 31
0.0
1001
ACDBBLOCKREPETAG
1070
     1
1071
      169
1005
1262A0
  0
LINE
  5
1262A1
  8
OBJECT
 10
6225.0
 20
-511.49999999999773
 30
0.0
 11
6225.0
 21
-514.99999999999773
 31
0.0
1001
ACDBBLOCKREPETAG
1070
     1
1071
      170
1005
1262A1
  0
LINE
  5
1262A2
  8
OBJECT
 10
6130.4944465005337
 20
-489.49999999999773
 30
0.0
 11
6130.4944465005337
 21
-482.99999999999761
 31
0.0
1001
ACDBBLOCKREPETAG
1070
     1
1071
      171
1005
1262A2
  0
LINE
  5
1262A3
  8
OBJECT
 10
6129.0
 20
-527.99999999999773
 30
0.0
 11
6129.0
 21
-532.99999999999761
 31
0.0
1001
ACDBBLOCKREPETAG
1070
     1
1071
      172
1005
1262A3
  0
LINE
  5
1262A4
  8
OBJECT
 10
6129.0
 20
-532.99999999999761
 30
0.0
 11
6147.0
 21
-532.99999999999761
 31
0.0
1001
ACDBBLOCKREPETAG
1070
     1
1071
      173
1005
1262A4
  0
LINE
  5
1262A5
  8
OBJECT
 10
6147.0
 20
-527.99999999999773
 30
0.0
 11
6147.0
 21
-532.99999999999761
 31
0.0
1001
ACDBBLOCKREPETAG
1070
     1
1071
      174
1005
1262A5
  0
LINE
  5
1262A6
  8
OBJECT
 10
6109.0000000000036
 20
-514.99999999999773
 30
0.0
 11
6244.0
 21
-514.99999999999773
 31
0.0
1001
ACDBBLOCKREPETAG
1070
     1
1071
      175
1005
1262A6
  0
LINE
  5
1262A7
  8
OBJECT
 10
6244.0
 20
-514.99999999999773
 30
0.0
 11
6244.0
 21
-527.99999999999773
 31
0.0
1001
ACDBBLOCKREPETAG
1070
     1
1071
      176
1005
1262A7
  0
LINE
  5
1262A8
  8
OBJECT
 10
6136.6369002447645
 20
-545.66457125774514
 30
0.0
 11
6116.1702980000009
 21
-527.99999999999773
 31
0.0
1001
ACDBBLOCKREPETAG
1070
     1
1071
      177
1005
1262A8
  0
LINE
  5
1262A9
  8
OBJECT
 10
6221.0000000000027
 20
-535.65708264965485
 30
0.0
 11
6221.0000000000027
 21
-559.99999999999773
 31
0.0
1001
ACDBBLOCKREPETAG
1070
     1
1071
      178
1005
1262A9
  0
LINE
  5
1262AA
  8
OBJECT
 10
6175.1865574982548
 20
-559.99999999999773
 30
0.0
 11
6221.0000000000027
 21
-559.99999999999773
 31
0.0
1001
ACDBBLOCKREPETAG
1070
     1
1071
      179
1005
1262AA
  0
ARC
  5
1262AB
  8
OBJECT
 10
6130.5
 20
-561.49999999999773
 30
0.0
 40
84.0
 50
277.05348487097029
 51
1.023193303671255
1001
ACDBBLOCKREPETAG
1070
     1
1071
      180
1005
1262AB
  0
LINE
  5
1262AC
  8
OBJECT
 10
6106.0
 20
-649.17200317020831
 30
0.0
 11
6140.8148488128809
 21
-644.86428428270165
 31
0.0
1001
ACDBBLOCKREPETAG
1070
     1
1071
      181
1005
1262AC
  0
LINE
  5
1262AD
  8
OBJECT
 10
6106.0000000000036
 20
-649.99999999999852
 30
0.0
 11
6106.0000000000036
 21
-528.99999999999761
 31
0.0
1001
ACDBBLOCKREPETAG
1070
     1
1071
      182
1005
1262AD
  0
ARC
  5
1262AE
  8
OBJECT
 10
6103.0000000000036
 20
-649.99999999999852
 30
0.0
 40
3.0
 50
270.0
 51
0.0
1001
ACDBBLOCKREPETAG
1070
     1
1071
      183
1005
1262AE
  0
LINE
  5
1262AF
  8
OBJECT
 10
6116.1702980000009
 20
-527.99999999999773
 30
0.0
 11
6244.0
 21
-527.99999999999773
 31
0.0
1001
ACDBBLOCKREPETAG
1070
     1
1071
      184
1005
1262AF
  0
LINE
  5
1262B0
  8
OBJECT
 10
6125.0539138517224
 20
-535.65708264965485
 30
0.0
 11
6221.0000000000027
 21
-535.65708264965485
 31
0.0
1001
ACDBBLOCKREPETAG
1070
     1
1071
      185
1005
1262B0
  0
LINE
  5
1262B1
  8
OBJECT
 10
6225.0
 20
-530.89006764214673
 30
0.0
 11
6221.0000000000027
 21
-535.65708264965485
 31
0.0
1001
ACDBBLOCKREPETAG
1070
     1
1071
      186
1005
1262B1
  0
LINE
  5
1262B2
  8
OBJECT
 10
6109.0000000000036
 20
-514.99999999999773
 30
0.0
 11
6109.0000000000073
 21
-528.99999999999761
 31
0.0
1001
ACDBBLOCKREPETAG
1070
     1
1071
      187
1005
1262B2
  0
LINE
  5
1262B3
  8
HIDDEN
 10
6125.5
 20
-554.99999999999773
 30
0.0
 11
6214.5000000000009
 21
-554.99999999999773
 31
0.0
1001
ACDBBLOCKREPETAG
1070
     1
1071
      188
1005
1262B3
  0
LINE
  5
1262B4
  8
OBJECT
 10
6134.0
 20
-480.99999999999773
 30
0.0
 11
6142.0
 21
-480.99999999999773
 31
0.0
1001
ACDBBLOCKREPETAG
1070
     1
1071
      189
1005
1262B4
  0
LINE
  5
1262B5
  8
OBJECT
 10
6142.0
 20
-482.99999999999761
 30
0.0
 11
6142.0
 21
-480.99999999999773
 31
0.0
1001
ACDBBLOCKREPETAG
1070
     1
1071
      190
1005
1262B5
  0
LINE
  5
1262B6
  8
OBJECT
 10
6130.4944465005337
 20
-482.99999999999761
 30
0.0
 11
6145.5055534994644
 21
-482.99999999999761
 31
0.0
1001
ACDBBLOCKREPETAG
1070
     1
1071
      191
1005
1262B6
  0
LINE
  5
1262B7
  8
CENTER
 10
6170.0
 20
-574.77158855533025
 30
0.0
 11
6170.0
 21
-474.49999999999773
 31
0.0
1001
ACDBBLOCKREPETAG
1070
     1
1071
      193
1005
1262B7
  0
LINE
  5
1262B8
  8
OBJECT
 10
6100.0
 20
-652.99999999999761
 30
0.0
 11
6103.0000000000036
 21
-652.99999999999852
 31
0.0
1001
ACDBBLOCKREPETAG
1070
     1
1071
      194
1005
1262B8
  0
LINE
  5
1262B9
  8
OBJECT
 10
6100.0
 20
-528.99999999999761
 30
0.0
 11
6109.0000000000073
 21
-528.99999999999761
 31
0.0
1001
ACDBBLOCKREPETAG
1070
     1
1071
      195
1005
1262B9
  0
LINE
  5
1262BA
  8
OBJECT
 10
6134.2471969783928
 20
-489.49998110540878
 30
0.0
 11
6134.2471969783928
 21
-482.99998110540889
 31
0.0
1001
ACDBBLOCKREPETAG
1070
     1
1071
      196
1005
1262BA
  0
LINE
  5
1262BB
  8
OBJECT
 10
6145.5055534994644
 20
-489.49999999999773
 30
0.0
 11
6145.5055534994644
 21
-482.99999999999761
 31
0.0
1001
ACDBBLOCKREPETAG
1070
     1
1071
      197
1005
1262BB
  0
LINE
  5
1262BC
  8
OBJECT
 10
6141.7528030216054
 20
-489.49998110540878
 30
0.0
 11
6141.7528030216054
 21
-482.99998110540889
 31
0.0
1001
ACDBBLOCKREPETAG
1070
     1
1071
      198
1005
1262BC
  0
LINE
  5
1262BD
  8
OBJECT
 10
6230.0
 20
-482.99999999999761
 30
0.0
 11
6230.0
 21
-480.99999999999773
 31
0.0
1001
ACDBBLOCKREPETAG
1070
     1
1071
      199
1005
1262BD
  0
LINE
  5
1262BE
  8
OBJECT
 10
6230.0
 20
-514.99999999999773
 30
0.0
 11
6230.0
 21
-502.49999999999773
 31
0.0
1001
ACDBBLOCKREPETAG
1070
     1
1071
      200
1005
1262BE
  0
LINE
  5
1262BF
  8
OBJECT
 10
6238.0
 20
-514.99999999999773
 30
0.0
 11
6238.0
 21
-502.49999999999773
 31
0.0
1001
ACDBBLOCKREPETAG
1070
     1
1071
      201
1005
1262BF
  0
LINE
  5
1262C0
  8
OBJECT
 10
6226.4944465005337
 20
-489.49999999999773
 30
0.0
 11
6226.4944465005337
 21
-482.99999999999761
 31
0.0
1001
ACDBBLOCKREPETAG
1070
     1
1071
      202
1005
1262C0
  0
LINE
  5
1262C1
  8
OBJECT
 10
6225.0
 20
-527.99999999999773
 30
0.0
 11
6225.0
 21
-532.99999999999761
 31
0.0
1001
ACDBBLOCKREPETAG
1070
     1
1071
      203
1005
1262C1
  0
LINE
  5
1262C2
  8
OBJECT
 10
6225.0
 20
-532.99999999999761
 30
0.0
 11
6243.0
 21
-532.99999999999761
 31
0.0
1001
ACDBBLOCKREPETAG
1070
     1
1071
      204
1005
1262C2
  0
LINE
  5
1262C3
  8
OBJECT
 10
6243.0
 20
-527.99999999999773
 30
0.0
 11
6243.0
 21
-532.99999999999761
 31
0.0
1001
ACDBBLOCKREPETAG
1070
     1
1071
      205
1005
1262C3
  0
LINE
  5
1262C4
  8
OBJECT
 10
6230.0
 20
-480.99999999999773
 30
0.0
 11
6238.0
 21
-480.99999999999773
 31
0.0
1001
ACDBBLOCKREPETAG
1070
     1
1071
      206
1005
1262C4
  0
LINE
  5
1262C5
  8
OBJECT
 10
6238.0
 20
-482.99999999999761
 30
0.0
 11
6238.0
 21
-480.99999999999773
 31
0.0
1001
ACDBBLOCKREPETAG
1070
     1
1071
      207
1005
1262C5
  0
LINE
  5
1262C6
  8
OBJECT
 10
6226.4944465005337
 20
-482.99999999999761
 30
0.0
 11
6241.5055534994653
 21
-482.99999999999761
 31
0.0
1001
ACDBBLOCKREPETAG
1070
     1
1071
      208
1005
1262C6
  0
LINE
  5
1262C7
  8
OBJECT
 10
6230.2471969783928
 20
-489.49998110540878
 30
0.0
 11
6230.2471969783928
 21
-482.99998110540889
 31
0.0
1001
ACDBBLOCKREPETAG
1070
     1
1071
      209
1005
1262C7
  0
LINE
  5
1262C8
  8
OBJECT
 10
6241.5055534994653
 20
-489.49999999999773
 30
0.0
 11
6241.5055534994653
 21
-482.99999999999761
 31
0.0
1001
ACDBBLOCKREPETAG
1070
     1
1071
      210
1005
1262C8
  0
LINE
  5
1262C9
  8
OBJECT
 10
6237.7528030216063
 20
-489.49998110540878
 30
0.0
 11
6237.7528030216063
 21
-482.99998110540889
 31
0.0
1001
ACDBBLOCKREPETAG
1070
     1
1071
      211
1005
1262C9
  0
LINE
  5
1262CA
  8
CENTER
 10
6100.0
 20
-199.99999999999909
 30
0.0
 11
6259.0
 21
-199.99999999999909
 31
0.0
1001
ACDBBLOCKREPETAG
1070
     1
1071
      155
1005
1262CA
  0
LINE
  5
1262CB
  8
OBJECT
 10
6100.0
 20
-261.99999999999909
 30
0.0
 11
6103.0
 21
-261.99999999999909
 31
0.0
1001
ACDBBLOCKREPETAG
1070
     1
1071
      156
1005
1262CB
  0
ARC
  5
1262CC
  8
OBJECT
 10
6103.0
 20
-258.99999999999909
 30
0.0
 40
3.0
 50
270.0
 51
0.0
1001
ACDBBLOCKREPETAG
1070
     1
1071
      157
1005
1262CC
  0
LINE
  5
1262CD
  8
OBJECT
 10
6100.0
 20
-138.0000000000027
 30
0.0
 11
6103.0
 21
-138.0000000000027
 31
0.0
1001
ACDBBLOCKREPETAG
1070
     1
1071
      158
1005
1262CD
  0
LINE
  5
1262CE
  8
OBJECT
 10
6106.0
 20
-140.99999999999909
 30
0.0
 11
6128.6547275935327
 21
-140.9999999999954
 31
0.0
1001
ACDBBLOCKREPETAG
1070
     1
1071
      159
1005
1262CE
  0
LINE
  5
1262CF
  8
OBJECT
 10
6106.0
 20
-259.00000000000267
 30
0.0
 11
6128.6547275935327
 21
-258.99999999999909
 31
0.0
1001
ACDBBLOCKREPETAG
1070
     1
1071
      160
1005
1262CF
  0
LINE
  5
1262D0
  8
CENTER
 10
6170.0
 20
-123.5195984073716
 30
0.0
 11
6170.0
 21
-276.48040159262649
 31
0.0
1001
ACDBBLOCKREPETAG
1070
     1
1071
      161
1005
1262D0
  0
LINE
  5
1262D1
  8
OBJECT
 10
6106.0
 20
-141.0000000000027
 30
0.0
 11
6106.0
 21
-258.99999999999909
 31
0.0
1001
ACDBBLOCKREPETAG
1070
     1
1071
      162
1005
1262D1
  0
ARC
  5
1262D2
  8
OBJECT
 10
6103.0
 20
-141.0000000000027
 30
0.0
 40
3.0
 50
0.0
 51
90.0
1001
ACDBBLOCKREPETAG
1070
     1
1071
      163
1005
1262D2
  0
ARC
  5
1262D3
  8
OBJECT
 10
6170.0
 20
-199.99999999999909
 30
0.0
 40
61.0
 50
37.167285461274467
 51
82.832714538705744
1001
ACDBBLOCKREPETAG
1070
     1
1071
      165
1005
1262D3
  0
ARC
  5
1262D4
  8
OBJECT
 10
6170.0
 20
-199.99999999999909
 30
0.0
 40
61.0
 50
157.16728546127851
 51
202.83271453872149
1001
ACDBBLOCKREPETAG
1070
     1
1071
      166
1005
1262D4
  0
ARC
  5
1262D5
  8
OBJECT
 10
6170.0
 20
-199.99999999999909
 30
0.0
 40
61.0
 50
277.16728546129423
 51
322.83271453872419
1001
ACDBBLOCKREPETAG
1070
     1
1071
      167
1005
1262D5
  0
CIRCLE
  5
1262D6
  8
SLIM
 10
6234.0
 20
-199.99999999999909
 30
0.0
 40
4.0
1001
ACDBBLOCKREPETAG
1070
     1
1071
      168
1005
1262D6
  0
ARC
  5
1262D7
  8
OBJECT
 10
6234.0
 20
-199.99999999999909
 30
0.0
 40
10.0
 50
322.83271453872419
 51
37.167285461274467
1001
ACDBBLOCKREPETAG
1070
     1
1071
      169
1005
1262D7
  0
LINE
  5
1262D8
  8
OBJECT
 10
6218.6093749999973
 20
-163.14720279124501
 30
0.0
 11
6241.96875
 21
-193.9585578346296
 31
0.0
1001
ACDBBLOCKREPETAG
1070
     1
1071
      170
1005
1262D8
  0
LINE
  5
1262D9
  8
OBJECT
 10
6218.6093749999973
 20
-236.8527972087532
 30
0.0
 11
6241.96875
 21
-206.04144216536861
 31
0.0
1001
ACDBBLOCKREPETAG
1070
     1
1071
      171
1005
1262D9
  0
CIRCLE
  5
1262DA
  8
SLIM
 10
6138.0
 20
-144.5743741577962
 30
0.0
 40
3.9999999999999991
1001
ACDBBLOCKREPETAG
1070
     1
1071
      172
1005
1262DA
  0
ARC
  5
1262DB
  8
OBJECT
 10
6138.0
 20
-144.5743741577962
 30
0.0
 40
9.9999999999999982
 50
82.832714538705744
 51
157.16728546127851
1001
ACDBBLOCKREPETAG
1070
     1
1071
      173
1005
1262DB
  0
LINE
  5
1262DC
  8
OBJECT
 10
6113.7798539167052
 20
-176.32944499229319
 30
0.0
 11
6128.783582609296
 21
-140.6939553040711
 31
0.0
1001
ACDBBLOCKREPETAG
1070
     1
1071
      174
1005
1262DC
  0
LINE
  5
1262DD
  8
OBJECT
 10
6177.6107710832994
 20
-139.47664778353919
 30
0.0
 11
6139.247667390704
 21
-134.65251313870161
 31
0.0
1001
ACDBBLOCKREPETAG
1070
     1
1071
      175
1005
1262DD
  0
CIRCLE
  5
1262DE
  8
SLIM
 10
6138.0
 20
-255.4256258422019
 30
0.0
 40
4.0
1001
ACDBBLOCKREPETAG
1070
     1
1071
      176
1005
1262DE
  0
ARC
  5
1262DF
  8
OBJECT
 10
6138.0
 20
-255.4256258422019
 30
0.0
 40
10.0
 50
202.83271453872149
 51
277.16728546129423
1001
ACDBBLOCKREPETAG
1070
     1
1071
      177
1005
1262DF
  0
LINE
  5
1262E0
  8
OBJECT
 10
6177.6107710832994
 20
-260.52335221645899
 30
0.0
 11
6139.247667390704
 21
-265.3474868612966
 31
0.0
1001
ACDBBLOCKREPETAG
1070
     1
1071
      178
1005
1262E0
  0
LINE
  5
1262E1
  8
OBJECT
 10
6113.7798539167052
 20
-223.67055500770491
 30
0.0
 11
6128.783582609296
 21
-259.30604469592708
 31
0.0
1001
ACDBBLOCKREPETAG
1070
     1
1071
      179
1005
1262E1
  0
CIRCLE
  5
1262E2
  8
OBJECT
 10
6170.0
 20
-199.99999999999909
 30
0.0
 40
46.0
1001
ACDBBLOCKREPETAG
1070
     1
1071
      180
1005
1262E2
  0
POLYLINE
  5
1262E3
  8
SLIM
 66
     1
 10
0.0
 20
0.0
 30
0.0
 70
     1
1001
ACDBBLOCKREPETAG
1070
     1
1071
      181
1005
1262E3
  0
VERTEX
  5
12671C
  8
SLIM
 10
6230.247223250266
 20
-193.49999999999909
 30
0.0
  0
VERTEX
  5
12671D
  8
SLIM
 10
6226.4944465005337
 20
-199.99999999999909
 30
0.0
  0
VERTEX
  5
12671E
  8
SLIM
 10
6230.247223250266
 20
-206.49999999999909
 30
0.0
  0
VERTEX
  5
12671F
  8
SLIM
 10
6237.752776749734
 20
-206.49999999999909
 30
0.0
  0
VERTEX
  5
126720
  8
SLIM
 10
6241.5055534994653
 20
-199.99999999999909
 30
0.0
  0
VERTEX
  5
126721
  8
SLIM
 10
6237.752776749734
 20
-193.49999999999909
 30
0.0
  0
SEQEND
  5
126722
  8
SLIM
  0
POLYLINE
  5
1262E4
  8
SLIM
 66
     1
 10
0.0
 20
0.0
 30
0.0
 70
     1
1001
ACDBBLOCKREPETAG
1070
     1
1071
      182
1005
1262E4
  0
VERTEX
  5
126723
  8
SLIM
 10
6134.2472232502696
 20
-151.0743741577962
 30
0.0
  0
VERTEX
  5
126724
  8
SLIM
 10
6141.752776749734
 20
-151.0743741577962
 30
0.0
  0
VERTEX
  5
126725
  8
SLIM
 10
6145.5055534994644
 20
-144.5743741577962
 30
0.0
  0
VERTEX
  5
126726
  8
SLIM
 10
6141.7527767497304
 20
-138.07437415779259
 30
0.0
  0
VERTEX
  5
126727
  8
SLIM
 10
6134.2472232502696
 20
-138.0743741577962
 30
0.0
  0
VERTEX
  5
126728
  8
SLIM
 10
6130.4944465005337
 20
-144.57437415779259
 30
0.0
  0
SEQEND
  5
126729
  8
SLIM
  0
POLYLINE
  5
1262E5
  8
SLIM
 66
     1
 10
0.0
 20
0.0
 30
0.0
 70
     1
1001
ACDBBLOCKREPETAG
1070
     1
1071
      183
1005
1262E5
  0
VERTEX
  5
12672A
  8
SLIM
 10
6145.5055534994644
 20
-255.4256258422019
 30
0.0
  0
VERTEX
  5
12672B
  8
SLIM
 10
6141.7527767497304
 20
-248.9256258422019
 30
0.0
  0
VERTEX
  5
12672C
  8
SLIM
 10
6134.2472232502696
 20
-248.9256258422019
 30
0.0
  0
VERTEX
  5
12672D
  8
SLIM
 10
6130.4944465005337
 20
-255.42562584220559
 30
0.0
  0
VERTEX
  5
12672E
  8
SLIM
 10
6134.247223250266
 20
-261.9256258422019
 30
0.0
  0
VERTEX
  5
12672F
  8
SLIM
 10
6141.7527767497304
 20
-261.92562584220559
 30
0.0
  0
SEQEND
  5
126730
  8
SLIM
  0
LINE
  5
1262E6
  8
OBJECT
 10
3897.0
 20
-528.99999999999761
 30
0.0
 11
3900.0
 21
-528.99999999999761
 31
0.0
1001
ACDBBLOCKREPETAG
1070
     1
1071
        1
1005
1262E6
  0
ARC
  5
1262E7
  8
OBJECT
 10
3897.0
 20
-531.99999999999773
 30
0.0
 40
3.0
 50
90.0
 51
180.0
1001
ACDBBLOCKREPETAG
1070
     1
1071
        2
1005
1262E7
  0
LINE
  5
1262E8
  8
OBJECT
 10
3900.0
 20
-652.99999999999761
 30
0.0
 11
3897.0
 21
-652.99999999999761
 31
0.0
1001
ACDBBLOCKREPETAG
1070
     1
1071
        3
1005
1262E8
  0
ARC
  5
1262E9
  8
OBJECT
 10
3897.0
 20
-649.99999999999761
 30
0.0
 40
3.0
 50
180.0
 51
270.0
1001
ACDBBLOCKREPETAG
1070
     1
1071
        4
1005
1262E9
  0
LINE
  5
1262EA
  8
OBJECT
 10
3894.0
 20
-649.99999999999761
 30
0.0
 11
3894.0
 21
-531.99999999999773
 31
0.0
1001
ACDBBLOCKREPETAG
1070
     1
1071
        5
1005
1262EA
  0
CIRCLE
  5
1262EB
  8
OBJECT
 10
4000.0
 20
-590.99999999999761
 30
0.0
 40
62.0
1001
ACDBBLOCKREPETAG
1070
     1
1071
        0
1005
1262EB
  0
LINE
  5
1262EC
  8
OBJECT
 10
4095.0
 20
-469.99999999999937
 30
0.0
 11
3905.0
 21
-469.99999999999937
 31
0.0
1001
ACDBBLOCKREPETAG
1070
     1
1071
        0
1005
1262EC
  0
LINE
  5
1262ED
  8
OBJECT
 10
4095.0
 20
-449.99999999999937
 30
0.0
 11
3905.0
 21
-449.99999999999937
 31
0.0
1001
ACDBBLOCKREPETAG
1070
     1
1071
        1
1005
1262ED
  0
LINE
  5
1262EE
  8
OBJECT
 10
3902.5
 20
-814.99999999999955
 30
0.0
 11
4097.5
 21
-814.99999999999955
 31
0.0
1001
ACDBBLOCKREPETAG
1070
     1
1071
        2
1005
1262EE
  0
LINE
  5
1262EF
  8
OBJECT
 10
3908.237046000002
 20
-449.99999999999937
 30
0.0
 11
3908.237046582261
 21
-469.99999999999937
 31
0.0
1001
ACDBBLOCKREPETAG
1070
     1
1071
        3
1005
1262EF
  0
LINE
  5
1262F0
  8
OBJECT
 10
3905.0
 20
-449.99999999999937
 30
0.0
 11
3905.0
 21
-469.99999999999937
 31
0.0
1001
ACDBBLOCKREPETAG
1070
     1
1071
        4
1005
1262F0
  0
LINE
  5
1262F1
  8
OBJECT
 10
3916.0249090000002
 20
-449.99999999999937
 30
0.0
 11
3916.0249090000002
 21
-469.99999999999937
 31
0.0
1001
ACDBBLOCKREPETAG
1070
     1
1071
        5
1005
1262F1
  0
LINE
  5
1262F2
  8
OBJECT
 10
3967.6243270000018
 20
-449.99999999999937
 30
0.0
 11
3967.6243270000018
 21
-469.99999999999937
 31
0.0
1001
ACDBBLOCKREPETAG
1070
     1
1071
        6
1005
1262F2
  0
LINE
  5
1262F3
  8
OBJECT
 10
3975.41219
 20
-449.99999999999937
 30
0.0
 11
3975.41219
 21
-469.99999999999937
 31
0.0
1001
ACDBBLOCKREPETAG
1070
     1
1071
        7
1005
1262F3
  0
LINE
  5
1262F4
  8
OBJECT
 10
4024.5878090000001
 20
-449.99999999999937
 30
0.0
 11
4024.5878090000001
 21
-469.99999999999937
 31
0.0
1001
ACDBBLOCKREPETAG
1070
     1
1071
        8
1005
1262F4
  0
LINE
  5
1262F5
  8
OBJECT
 10
4032.375672000001
 20
-449.99999999999937
 30
0.0
 11
4032.375672000001
 21
-469.99999999999937
 31
0.0
1001
ACDBBLOCKREPETAG
1070
     1
1071
        9
1005
1262F5
  0
LINE
  5
1262F6
  8
OBJECT
 10
4083.9750910000012
 20
-449.99999999999937
 30
0.0
 11
4083.9750910000012
 21
-469.99999999999937
 31
0.0
1001
ACDBBLOCKREPETAG
1070
     1
1071
       10
1005
1262F6
  0
LINE
  5
1262F7
  8
OBJECT
 10
4091.762953999998
 20
-449.99999999999937
 30
0.0
 11
4091.7629534177431
 21
-469.99999999999937
 31
0.0
1001
ACDBBLOCKREPETAG
1070
     1
1071
       11
1005
1262F7
  0
LINE
  5
1262F8
  8
OBJECT
 10
4095.0
 20
-449.99999999999937
 30
0.0
 11
4095.0
 21
-469.99999999999937
 31
0.0
1001
ACDBBLOCKREPETAG
1070
     1
1071
       12
1005
1262F8
  0
LINE
  5
1262F9
  8
OBJECT
 10
4100.0
 20
-528.99999999999955
 30
0.0
 11
3900.0
 21
-528.99999999999955
 31
0.0
1001
ACDBBLOCKREPETAG
1070
     1
1071
       13
1005
1262F9
  0
LINE
  5
1262FA
  8
OBJECT
 10
4100.0
 20
-652.99999999999761
 30
0.0
 11
4092.5
 21
-652.99999999999761
 31
0.0
1001
ACDBBLOCKREPETAG
1070
     1
1071
       14
1005
1262FA
  0
LINE
  5
1262FB
  8
OBJECT
 10
3902.5
 20
-814.99999999999955
 30
0.0
 11
3902.5
 21
-802.99999999999784
 31
0.0
1001
ACDBBLOCKREPETAG
1070
     1
1071
       15
1005
1262FB
  0
LINE
  5
1262FC
  8
OBJECT
 10
4097.5
 20
-814.99999999999955
 30
0.0
 11
4097.5
 21
-802.99999999999784
 31
0.0
1001
ACDBBLOCKREPETAG
1070
     1
1071
       16
1005
1262FC
  0
LINE
  5
1262FD
  8
OBJECT
 10
3902.5
 20
-802.99999999999784
 30
0.0
 11
4097.5
 21
-802.99999999999784
 31
0.0
1001
ACDBBLOCKREPETAG
1070
     1
1071
       17
1005
1262FD
  0
LINE
  5
1262FE
  8
HIDDEN
 10
3930.0
 20
-524.99999999999955
 30
0.0
 11
4070.0
 21
-524.99999999999955
 31
0.0
1001
ACDBBLOCKREPETAG
1070
     1
1071
       18
1005
1262FE
  0
LINE
  5
1262FF
  8
CENTER
 10
4000.0
 20
-434.99999999999949
 30
0.0
 11
4000.0
 21
-814.99999999999955
 31
0.0
1001
ACDBBLOCKREPETAG
1070
     1
1071
       19
1005
1262FF
  0
LINE
  5
126300
  8
OBJECT
 10
4092.5
 20
-652.99999999999761
 30
0.0
 11
4092.5
 21
-802.99999999999784
 31
0.0
1001
ACDBBLOCKREPETAG
1070
     1
1071
       20
1005
126300
  0
LINE
  5
126301
  8
OBJECT
 10
3914.5
 20
-469.99999999999937
 30
0.0
 11
3914.5
 21
-528.99999999999955
 31
0.0
1001
ACDBBLOCKREPETAG
1070
     1
1071
       21
1005
126301
  0
LINE
  5
126302
  8
OBJECT
 10
4085.5
 20
-469.99999999999937
 30
0.0
 11
4085.5
 21
-528.99999999999955
 31
0.0
1001
ACDBBLOCKREPETAG
1070
     1
1071
       22
1005
126302
  0
POINT
  5
126303
  8
DOTS
 10
4000.0
 20
-649.99999999999955
 30
0.0
1001
ACDBBLOCKREPETAG
1070
     1
1071
       24
1005
126303
  0
LINE
  5
126304
  8
OBJECT
 10
3900.0
 20
-652.99999999999761
 30
0.0
 11
3907.5
 21
-652.99999999999761
 31
0.0
1001
ACDBBLOCKREPETAG
1070
     1
1071
       25
1005
126304
  0
LINE
  5
126305
  8
OBJECT
 10
3907.5
 20
-652.99999999999761
 30
0.0
 11
3907.5
 21
-802.99999999999784
 31
0.0
1001
ACDBBLOCKREPETAG
1070
     1
1071
       26
1005
126305
  0
ARC
  5
126306
  8
OBJECT
 10
4214.4155190291494
 20
-615.62073879202455
 30
0.0
 40
149.554492306393
 50
144.60628028468801
 51
164.2211863995189
1001
ACDBBLOCKREPETAG
1070
     1
1071
       28
1005
126306
  0
ARC
  5
126307
  8
OBJECT
 10
4139.1422781245283
 20
-590.99999999999761
 30
0.0
 40
70.496447952551449
 50
166.8426918235858
 51
193.15730817641409
1001
ACDBBLOCKREPETAG
1070
     1
1071
       29
1005
126307
  0
ARC
  5
126308
  8
OBJECT
 10
4214.4155190291494
 20
-566.3792612079701
 30
0.0
 40
149.55449230639621
 50
195.7788136004809
 51
215.3937197153119
1001
ACDBBLOCKREPETAG
1070
     1
1071
       30
1005
126308
  0
ARC
  5
126309
  8
OBJECT
 10
3785.584480970851
 20
-615.62073879202455
 30
0.0
 40
149.554492306393
 50
15.778813600532009
 51
35.393719715228642
1001
ACDBBLOCKREPETAG
1070
     1
1071
       31
1005
126309
  0
ARC
  5
12630A
  8
OBJECT
 10
3860.8577218754722
 20
-590.99999999999761
 30
0.0
 40
70.496447952551449
 50
346.84269182358582
 51
13.15730817641421
1001
ACDBBLOCKREPETAG
1070
     1
1071
       32
1005
12630A
  0
ARC
  5
12630B
  8
OBJECT
 10
3785.584480970851
 20
-566.3792612079701
 30
0.0
 40
149.55449230639621
 50
324.60628028477117
 51
344.22118639946802
1001
ACDBBLOCKREPETAG
1070
     1
1071
       33
1005
12630B
  0
LINE
  5
12630C
  8
CENTER
 10
3878.9999999999959
 20
-199.99999999999909
 30
0.0
 11
3899.9999999999968
 21
-199.99999999999909
 31
0.0
1001
ACDBBLOCKREPETAG
1070
     1
1071
        0
1005
12630C
  0
LINE
  5
12630D
  8
OBJECT
 10
3896.9999999999968
 20
-261.99999999999909
 30
0.0
 11
3899.9999999999968
 21
-261.99999999999909
 31
0.0
1001
ACDBBLOCKREPETAG
1070
     1
1071
        1
1005
12630D
  0
ARC
  5
12630E
  8
OBJECT
 10
3896.9999999999968
 20
-258.99999999999909
 30
0.0
 40
3.0
 50
180.0
 51
270.0
1001
ACDBBLOCKREPETAG
1070
     1
1071
        2
1005
12630E
  0
LINE
  5
12630F
  8
OBJECT
 10
3899.9999999999968
 20
-137.99999999999909
 30
0.0
 11
3896.9999999999968
 21
-137.99999999999909
 31
0.0
1001
ACDBBLOCKREPETAG
1070
     1
1071
        3
1005
12630F
  0
ARC
  5
126310
  8
OBJECT
 10
3896.9999999999968
 20
-140.99999999999909
 30
0.0
 40
3.0
 50
90.0
 51
180.0
1001
ACDBBLOCKREPETAG
1070
     1
1071
        4
1005
126310
  0
LINE
  5
126311
  8
OBJECT
 10
3893.9999999999959
 20
-140.99999999999909
 30
0.0
 11
3893.9999999999959
 21
-258.99999999999909
 31
0.0
1001
ACDBBLOCKREPETAG
1070
     1
1071
        5
1005
126311
  0
LINE
  5
126312
  8
CENTER
 10
4000.0000000000032
 20
-320.99999999999898
 30
0.0
 11
4000.0000000000032
 21
-299.99999999999898
 31
0.0
1001
ACDBBLOCKREPETAG
1070
     1
1071
        0
1005
126312
  0
LINE
  5
126313
  8
OBJECT
 10
4062.0000000000032
 20
-303.0
 30
0.0
 11
4062.0000000000032
 21
-299.99999999999898
 31
0.0
1001
ACDBBLOCKREPETAG
1070
     1
1071
        1
1005
126313
  0
ARC
  5
126314
  8
OBJECT
 10
4059.0000000000032
 20
-303.0
 30
0.0
 40
3.0
 50
270.0
 51
0.0
1001
ACDBBLOCKREPETAG
1070
     1
1071
        2
1005
126314
  0
LINE
  5
126315
  8
OBJECT
 10
3938.000000000005
 20
-299.99999999999898
 30
0.0
 11
3938.000000000005
 21
-302.99999999999818
 31
0.0
1001
ACDBBLOCKREPETAG
1070
     1
1071
        3
1005
126315
  0
ARC
  5
126316
  8
OBJECT
 10
3941.0000000000041
 20
-302.99999999999818
 30
0.0
 40
3.0
 50
180.0
 51
270.0
1001
ACDBBLOCKREPETAG
1070
     1
1071
        4
1005
126316
  0
LINE
  5
126317
  8
OBJECT
 10
3941.0000000000041
 20
-305.99999999999818
 30
0.0
 11
4059.0000000000032
 21
-306.0
 31
0.0
1001
ACDBBLOCKREPETAG
1070
     1
1071
        5
1005
126317
  0
ARC
  5
126318
  8
OBJECT
 10
3973.8931207053251
 20
-173.82438331578209
 30
0.0
 40
90.0
 50
274.21795726566182
 51
281.60300086771468
1001
ACDBBLOCKREPETAG
1070
     1
1071
        0
1005
126318
  0
LINE
  5
126319
  8
OBJECT
 10
3991.994750999992
 20
-261.98520799999727
 30
0.0
 11
3996.6424319999928
 21
-248.3387539999994
 31
0.0
1001
ACDBBLOCKREPETAG
1070
     1
1071
       28
1005
126319
  0
LINE
  5
12631A
  8
OBJECT
 10
3955.2887960976809
 20
-207.0733020425842
 30
0.0
 11
3935.6054186421102
 21
-216.60084009147889
 31
0.0
1001
ACDBBLOCKREPETAG
1070
     1
1071
       29
1005
12631A
  0
LINE
  5
12631B
  8
OBJECT
 10
3937.3350639238638
 20
-222.25658973369261
 30
0.0
 11
3961.756073885118
 21
-210.43584915155679
 31
0.0
1001
ACDBBLOCKREPETAG
1070
     1
1071
       30
1005
12631B
  0
LINE
  5
12631C
  8
OBJECT
 10
3996.6424319999928
 20
-248.3387539999994
 30
0.0
 11
3970.3289245926439
 21
-210.9660806555467
 31
0.0
1001
ACDBBLOCKREPETAG
1070
     1
1071
       31
1005
12631C
  0
ARC
  5
12631D
  8
OBJECT
 10
3960.51700480005
 20
-217.87449798398211
 30
0.0
 40
12.0
 50
35.148769561176962
 51
115.8288295732624
1001
ACDBBLOCKREPETAG
1070
     1
1071
      259
1005
12631D
  0
ARC
  5
12631E
  8
OBJECT
 10
3965.2415463179791
 20
-217.63664646295089
 30
0.0
 40
8.0
 50
35.148769561176962
 51
115.8288292916689
1001
ACDBBLOCKREPETAG
1070
     1
1071
      260
1005
12631E
  0
ARC
  5
12631F
  8
OBJECT
 10
4000.0
 20
-199.99999999999909
 30
0.0
 40
90.0
 50
201.08359599996669
 51
248.9164040000301
1001
ACDBBLOCKREPETAG
1070
     1
1071
      268
1005
12631F
  0
ARC
  5
126320
  8
OBJECT
 10
4000.0
 20
-199.99999999999909
 30
0.0
 40
90.0
 50
111.0835959999699
 51
158.9164034710258
1001
ACDBBLOCKREPETAG
1070
     1
1071
      269
1005
126320
  0
LINE
  5
126321
  8
OBJECT
 10
3916.0249094448668
 20
-167.62432755513231
 30
0.0
 11
3908.237046582261
 21
-175.4121904177382
 31
0.0
1001
ACDBBLOCKREPETAG
1070
     1
1071
      270
1005
126321
  0
LINE
  5
126322
  8
OBJECT
 10
3916.0249090000002
 20
-232.37567199999921
 30
0.0
 11
3908.2370469998132
 21
-224.58781114059909
 31
0.0
1001
ACDBBLOCKREPETAG
1070
     1
1071
      271
1005
126322
  0
ARC
  5
126323
  8
OBJECT
 10
4000.0
 20
-199.99999999999909
 30
0.0
 40
95.0
 50
164.99999981420299
 51
195.00000115869909
1001
ACDBBLOCKREPETAG
1070
     1
1071
      272
1005
126323
  0
ARC
  5
126324
  8
OBJECT
 10
4000.0
 20
-199.99999999999909
 30
0.0
 40
92.5
 50
287.80189678392043
 51
342.19810359941607
1001
ACDBBLOCKREPETAG
1070
     1
1071
        1
1005
126324
  0
ARC
  5
126325
  8
OBJECT
 10
4000.0
 20
-199.99999999999909
 30
0.0
 40
90.0
 50
291.08359599996987
 51
338.9164040000332
1001
ACDBBLOCKREPETAG
1070
     1
1071
        3
1005
126325
  0
CIRCLE
  5
126326
  8
OBJECT
 10
4000.0
 20
-199.99999999999909
 30
0.0
 40
80.0
1001
ACDBBLOCKREPETAG
1070
     1
1071
        4
1005
126326
  0
ARC
  5
126327
  8
OBJECT
 10
4000.0
 20
-199.99999999999909
 30
0.0
 40
90.0
 50
21.083596528974049
 51
68.916404000030013
1001
ACDBBLOCKREPETAG
1070
     1
1071
        5
1005
126327
  0
CIRCLE
  5
126328
  8
OBJECT
 10
4000.0
 20
-199.99999999999909
 30
0.0
 40
66.5
1001
ACDBBLOCKREPETAG
1070
     1
1071
        7
1005
126328
  0
LINE
  5
126329
  8
OBJECT
 10
4083.9750905551332
 20
-167.62432755513231
 30
0.0
 11
4091.762953417739
 21
-175.4121904177382
 31
0.0
1001
ACDBBLOCKREPETAG
1070
     1
1071
        8
1005
126329
  0
LINE
  5
12632A
  8
OBJECT
 10
4083.9750910000012
 20
-232.37567199999921
 30
0.0
 11
4091.7629530001868
 21
-224.58781114059909
 31
0.0
1001
ACDBBLOCKREPETAG
1070
     1
1071
        9
1005
12632A
  0
ARC
  5
12632B
  8
OBJECT
 10
4000.0
 20
-199.99999999999909
 30
0.0
 40
95.0
 50
344.99999884130068
 51
15.000000185796971
1001
ACDBBLOCKREPETAG
1070
     1
1071
       10
1005
12632B
  0
LINE
  5
12632C
  8
OBJECT
 10
4032.3756729999982
 20
-283.9750909999994
 30
0.0
 11
4024.5878109482819
 21
-291.76295305171419
 31
0.0
1001
ACDBBLOCKREPETAG
1070
     1
1071
       11
1005
12632C
  0
LINE
  5
12632D
  8
OBJECT
 10
3967.624327999999
 20
-283.9750909999994
 30
0.0
 11
3975.4121904177409
 21
-291.76295341774039
 31
0.0
1001
ACDBBLOCKREPETAG
1070
     1
1071
       12
1005
12632D
  0
ARC
  5
12632E
  8
OBJECT
 10
4000.0
 20
-199.99999999999909
 30
0.0
 40
95.0
 50
254.999999814208
 51
285.0000010386097
1001
ACDBBLOCKREPETAG
1070
     1
1071
       13
1005
12632E
  0
LINE
  5
12632F
  8
OBJECT
 10
4032.3756729999982
 20
-116.0249099999992
 30
0.0
 11
4024.5878095822591
 21
-108.2370465822578
 31
0.0
1001
ACDBBLOCKREPETAG
1070
     1
1071
       14
1005
12632F
  0
ARC
  5
126330
  8
OBJECT
 10
4000.0
 20
-199.99999999999909
 30
0.0
 40
95.0
 50
74.999999814207953
 51
104.9999993327599
1001
ACDBBLOCKREPETAG
1070
     1
1071
       15
1005
126330
  0
LINE
  5
126331
  8
OBJECT
 10
3967.624327999999
 20
-116.0249099999992
 30
0.0
 11
3975.412191783766
 21
-108.2370462162316
 31
0.0
1001
ACDBBLOCKREPETAG
1070
     1
1071
       16
1005
126331
  0
LINE
  5
126332
  8
OBJECT
 10
4055.1784370000009
 20
-162.884098999998
 30
0.0
 11
4032.534570109272
 21
-178.11554723457169
 31
0.0
1001
ACDBBLOCKREPETAG
1070
     1
1071
       17
1005
126332
  0
LINE
  5
126333
  8
OBJECT
 10
3944.8041210000019
 20
-162.88106899999821
 30
0.0
 11
4032.534570109272
 21
-178.11554723457169
 31
0.0
1001
ACDBBLOCKREPETAG
1070
     1
1071
       18
1005
126333
  0
ARC
  5
126334
  8
OBJECT
 10
4000.0
 20
-199.99999999999909
 30
0.0
 40
92.5
 50
197.80189544246551
 51
252.19810417430571
1001
ACDBBLOCKREPETAG
1070
     1
1071
       22
1005
126334
  0
ARC
  5
126335
  8
OBJECT
 10
4000.0
 20
-199.99999999999909
 30
0.0
 40
92.5
 50
107.80189486746769
 51
162.1981051326415
1001
ACDBBLOCKREPETAG
1070
     1
1071
       23
1005
126335
  0
ARC
  5
126336
  8
OBJECT
 10
4000.0
 20
-199.99999999999909
 30
0.0
 40
92.5
 50
17.80189582568811
 51
72.198104174305684
1001
ACDBBLOCKREPETAG
1070
     1
1071
       24
1005
126336
  0
ARC
  5
126337
  8
OBJECT
 10
4000.0
 20
-199.99999999999909
 30
0.0
 40
62.5
 50
144.42390307809791
 51
193.7174643727642
1001
ACDBBLOCKREPETAG
1070
     1
1071
       26
1005
126337
  0
ARC
  5
126338
  8
OBJECT
 10
4000.0
 20
-199.99999999999909
 30
0.0
 40
62.5
 50
262.64111297834887
 51
33.92683896333525
1001
ACDBBLOCKREPETAG
1070
     1
1071
       27
1005
126338
  0
LINE
  5
126339
  8
OBJECT
 10
4068.6458301719758
 20
-137.99999999999909
 30
0.0
 11
4100.0
 21
-137.99999999999909
 31
0.0
1001
ACDBBLOCKREPETAG
1070
     1
1071
       33
1005
126339
  0
LINE
  5
12633A
  8
OBJECT
 10
4068.6458301719758
 20
-261.99999999999909
 30
0.0
 11
4100.0000000000036
 21
-261.99999999999909
 31
0.0
1001
ACDBBLOCKREPETAG
1070
     1
1071
       34
1005
12633A
  0
LINE
  5
12633B
  8
OBJECT
 10
4062.0
 20
-268.64583017197862
 30
0.0
 11
4062.0000000000032
 21
-299.99999999999898
 31
0.0
1001
ACDBBLOCKREPETAG
1070
     1
1071
       35
1005
12633B
  0
LINE
  5
12633C
  8
OBJECT
 10
3937.9999999999968
 20
-268.64583017197492
 30
0.0
 11
3938.0
 21
-299.99999999999898
 31
0.0
1001
ACDBBLOCKREPETAG
1070
     1
1071
       36
1005
12633C
  0
LINE
  5
12633D
  8
OBJECT
 10
3931.3541698280242
 20
-261.99999999999909
 30
0.0
 11
3899.9999999999968
 21
-261.99999999999909
 31
0.0
1001
ACDBBLOCKREPETAG
1070
     1
1071
       37
1005
12633D
  0
LINE
  5
12633E
  8
OBJECT
 10
3931.3541698280219
 20
-137.99999999999909
 30
0.0
 11
3899.9999999999968
 21
-137.99999999999909
 31
0.0
1001
ACDBBLOCKREPETAG
1070
     1
1071
       38
1005
12633E
  0
ARC
  5
12633F
  8
OBJECT
 10
4000.0
 20
-199.99999999999909
 30
0.0
 40
97.5
 50
39.48657743384517
 51
140.51342256615479
1001
ACDBBLOCKREPETAG
1070
     1
1071
       39
1005
12633F
  0
ARC
  5
126340
  8
OBJECT
 10
4000.0
 20
-199.99999999999909
 30
0.0
 40
97.5
 50
219.48657743384521
 51
230.51342256616741
1001
ACDBBLOCKREPETAG
1070
     1
1071
       40
1005
126340
  0
ARC
  5
126341
  8
OBJECT
 10
4000.0
 20
-199.99999999999909
 30
0.0
 40
97.5
 50
309.48657743383143
 51
320.51342256615482
1001
ACDBBLOCKREPETAG
1070
     1
1071
       41
1005
126341
  0
LINE
  5
126342
  8
CENTER
 10
3900.0
 20
-199.99999999999909
 30
0.0
 11
4100.0
 21
-199.99999999999909
 31
0.0
1001
ACDBBLOCKREPETAG
1070
     1
1071
       42
1005
126342
  0
LINE
  5
126343
  8
CENTER
 10
4000.0
 20
-86.499999999999091
 30
0.0
 11
4000.0
 21
-299.99999999999898
 31
0.0
1001
ACDBBLOCKREPETAG
1070
     1
1071
       43
1005
126343
  0
POINT
  5
126344
  8
DOTS
 10
4000.0
 20
-199.99999999999909
 30
0.0
1001
ACDBBLOCKREPETAG
1070
     1
1071
      281
1005
126344
  0
LINE
  5
126345
  8
OBJECT
 10
4134.0
 20
-482.99999999999761
 30
0.0
 11
4134.0
 21
-480.99999999999773
 31
0.0
1001
ACDBBLOCKREPETAG
1070
     1
1071
      157
1005
126345
  0
ARC
  5
126346
  8
OBJECT
 10
4175.1865574982548
 20
-500.99999999999773
 30
0.0
 40
59.0
 50
229.20276883323919
 51
270.0
1001
ACDBBLOCKREPETAG
1070
     1
1071
      158
1005
126346
  0
LINE
  5
126347
  8
OBJECT
 10
4244.0
 20
-489.49999999999773
 30
0.0
 11
4109.0
 21
-489.49999999999773
 31
0.0
1001
ACDBBLOCKREPETAG
1070
     1
1071
      159
1005
126347
  0
LINE
  5
126348
  8
OBJECT
 10
4109.0
 20
-502.49999999999773
 30
0.0
 11
4244.0
 21
-502.49999999999773
 31
0.0
1001
ACDBBLOCKREPETAG
1070
     1
1071
      160
1005
126348
  0
LINE
  5
126349
  8
OBJECT
 10
4109.0
 20
-489.49999999999773
 30
0.0
 11
4109.0
 21
-502.49999999999773
 31
0.0
1001
ACDBBLOCKREPETAG
1070
     1
1071
      161
1005
126349
  0
LINE
  5
12634A
  8
OBJECT
 10
4116.0
 20
-511.49999999999773
 30
0.0
 11
4116.0
 21
-502.49999999999773
 31
0.0
1001
ACDBBLOCKREPETAG
1070
     1
1071
      162
1005
12634A
  0
LINE
  5
12634B
  8
OBJECT
 10
4134.0
 20
-514.99999999999773
 30
0.0
 11
4134.0
 21
-502.49999999999773
 31
0.0
1001
ACDBBLOCKREPETAG
1070
     1
1071
      163
1005
12634B
  0
LINE
  5
12634C
  8
OBJECT
 10
4224.0
 20
-511.49999999999773
 30
0.0
 11
4224.0
 21
-502.49999999999773
 31
0.0
1001
ACDBBLOCKREPETAG
1070
     1
1071
      164
1005
12634C
  0
LINE
  5
12634D
  8
OBJECT
 10
4244.0
 20
-489.49999999999773
 30
0.0
 11
4244.0
 21
-502.49999999999773
 31
0.0
1001
ACDBBLOCKREPETAG
1070
     1
1071
      165
1005
12634D
  0
LINE
  5
12634E
  8
OBJECT
 10
4142.0
 20
-514.99999999999773
 30
0.0
 11
4142.0
 21
-502.49999999999773
 31
0.0
1001
ACDBBLOCKREPETAG
1070
     1
1071
      166
1005
12634E
  0
LINE
  5
12634F
  8
OBJECT
 10
4134.0
 20
-511.49999999999773
 30
0.0
 11
4115.0
 21
-511.49999999999773
 31
0.0
1001
ACDBBLOCKREPETAG
1070
     1
1071
      167
1005
12634F
  0
LINE
  5
126350
  8
OBJECT
 10
4115.0
 20
-514.99999999999773
 30
0.0
 11
4115.0
 21
-511.49999999999773
 31
0.0
1001
ACDBBLOCKREPETAG
1070
     1
1071
      168
1005
126350
  0
LINE
  5
126351
  8
OBJECT
 10
4142.0
 20
-511.49999999999773
 30
0.0
 11
4225.0
 21
-511.49999999999773
 31
0.0
1001
ACDBBLOCKREPETAG
1070
     1
1071
      169
1005
126351
  0
LINE
  5
126352
  8
OBJECT
 10
4225.0
 20
-511.49999999999773
 30
0.0
 11
4225.0
 21
-514.99999999999773
 31
0.0
1001
ACDBBLOCKREPETAG
1070
     1
1071
      170
1005
126352
  0
LINE
  5
126353
  8
OBJECT
 10
4130.4944465005347
 20
-489.49999999999773
 30
0.0
 11
4130.4944465005347
 21
-482.99999999999761
 31
0.0
1001
ACDBBLOCKREPETAG
1070
     1
1071
      171
1005
126353
  0
LINE
  5
126354
  8
OBJECT
 10
4129.0
 20
-527.99999999999773
 30
0.0
 11
4129.0
 21
-532.99999999999761
 31
0.0
1001
ACDBBLOCKREPETAG
1070
     1
1071
      172
1005
126354
  0
LINE
  5
126355
  8
OBJECT
 10
4129.0
 20
-532.99999999999761
 30
0.0
 11
4147.0
 21
-532.99999999999761
 31
0.0
1001
ACDBBLOCKREPETAG
1070
     1
1071
      173
1005
126355
  0
LINE
  5
126356
  8
OBJECT
 10
4147.0
 20
-527.99999999999773
 30
0.0
 11
4147.0
 21
-532.99999999999761
 31
0.0
1001
ACDBBLOCKREPETAG
1070
     1
1071
      174
1005
126356
  0
LINE
  5
126357
  8
OBJECT
 10
4109.0000000000036
 20
-514.99999999999773
 30
0.0
 11
4244.0
 21
-514.99999999999773
 31
0.0
1001
ACDBBLOCKREPETAG
1070
     1
1071
      175
1005
126357
  0
LINE
  5
126358
  8
OBJECT
 10
4244.0
 20
-514.99999999999773
 30
0.0
 11
4244.0
 21
-527.99999999999773
 31
0.0
1001
ACDBBLOCKREPETAG
1070
     1
1071
      176
1005
126358
  0
LINE
  5
126359
  8
OBJECT
 10
4136.6369002447664
 20
-545.66457125774514
 30
0.0
 11
4116.1702980000009
 21
-527.99999999999773
 31
0.0
1001
ACDBBLOCKREPETAG
1070
     1
1071
      177
1005
126359
  0
LINE
  5
12635A
  8
OBJECT
 10
4221.0000000000018
 20
-535.65708264965485
 30
0.0
 11
4221.0000000000018
 21
-559.99999999999773
 31
0.0
1001
ACDBBLOCKREPETAG
1070
     1
1071
      178
1005
12635A
  0
LINE
  5
12635B
  8
OBJECT
 10
4175.1865574982548
 20
-559.99999999999773
 30
0.0
 11
4221.0000000000018
 21
-559.99999999999773
 31
0.0
1001
ACDBBLOCKREPETAG
1070
     1
1071
      179
1005
12635B
  0
ARC
  5
12635C
  8
OBJECT
 10
4130.5
 20
-561.49999999999773
 30
0.0
 40
84.0
 50
277.05348487097029
 51
1.023193303671255
1001
ACDBBLOCKREPETAG
1070
     1
1071
      180
1005
12635C
  0
LINE
  5
12635D
  8
OBJECT
 10
4106.0
 20
-649.17200317020831
 30
0.0
 11
4140.8148488128809
 21
-644.86428428270165
 31
0.0
1001
ACDBBLOCKREPETAG
1070
     1
1071
      181
1005
12635D
  0
LINE
  5
12635E
  8
OBJECT
 10
4106.0000000000036
 20
-649.99999999999852
 30
0.0
 11
4106.0000000000036
 21
-528.99999999999761
 31
0.0
1001
ACDBBLOCKREPETAG
1070
     1
1071
      182
1005
12635E
  0
ARC
  5
12635F
  8
OBJECT
 10
4103.0000000000036
 20
-649.99999999999852
 30
0.0
 40
3.0
 50
270.0
 51
0.0
1001
ACDBBLOCKREPETAG
1070
     1
1071
      183
1005
12635F
  0
LINE
  5
126360
  8
OBJECT
 10
4116.1702980000009
 20
-527.99999999999773
 30
0.0
 11
4244.0
 21
-527.99999999999773
 31
0.0
1001
ACDBBLOCKREPETAG
1070
     1
1071
      184
1005
126360
  0
LINE
  5
126361
  8
OBJECT
 10
4125.0539138517233
 20
-535.65708264965485
 30
0.0
 11
4221.0000000000018
 21
-535.65708264965485
 31
0.0
1001
ACDBBLOCKREPETAG
1070
     1
1071
      185
1005
126361
  0
LINE
  5
126362
  8
OBJECT
 10
4225.0
 20
-530.89006764214673
 30
0.0
 11
4221.0000000000018
 21
-535.65708264965485
 31
0.0
1001
ACDBBLOCKREPETAG
1070
     1
1071
      186
1005
126362
  0
LINE
  5
126363
  8
OBJECT
 10
4109.0000000000036
 20
-514.99999999999773
 30
0.0
 11
4109.0000000000073
 21
-528.99999999999761
 31
0.0
1001
ACDBBLOCKREPETAG
1070
     1
1071
      187
1005
126363
  0
LINE
  5
126364
  8
HIDDEN
 10
4125.5
 20
-554.99999999999773
 30
0.0
 11
4214.5
 21
-554.99999999999773
 31
0.0
1001
ACDBBLOCKREPETAG
1070
     1
1071
      188
1005
126364
  0
LINE
  5
126365
  8
OBJECT
 10
4134.0
 20
-480.99999999999773
 30
0.0
 11
4142.0
 21
-480.99999999999773
 31
0.0
1001
ACDBBLOCKREPETAG
1070
     1
1071
      189
1005
126365
  0
LINE
  5
126366
  8
OBJECT
 10
4142.0
 20
-482.99999999999761
 30
0.0
 11
4142.0
 21
-480.99999999999773
 31
0.0
1001
ACDBBLOCKREPETAG
1070
     1
1071
      190
1005
126366
  0
LINE
  5
126367
  8
OBJECT
 10
4130.4944465005347
 20
-482.99999999999761
 30
0.0
 11
4145.5055534994644
 21
-482.99999999999761
 31
0.0
1001
ACDBBLOCKREPETAG
1070
     1
1071
      191
1005
126367
  0
LINE
  5
126368
  8
CENTER
 10
4170.0
 20
-574.77158855533025
 30
0.0
 11
4170.0
 21
-474.49999999999773
 31
0.0
1001
ACDBBLOCKREPETAG
1070
     1
1071
      193
1005
126368
  0
LINE
  5
126369
  8
OBJECT
 10
4100.0
 20
-652.99999999999761
 30
0.0
 11
4103.0000000000036
 21
-652.99999999999852
 31
0.0
1001
ACDBBLOCKREPETAG
1070
     1
1071
      194
1005
126369
  0
LINE
  5
12636A
  8
OBJECT
 10
4100.0
 20
-528.99999999999761
 30
0.0
 11
4109.0000000000073
 21
-528.99999999999761
 31
0.0
1001
ACDBBLOCKREPETAG
1070
     1
1071
      195
1005
12636A
  0
LINE
  5
12636B
  8
OBJECT
 10
4134.2471969783946
 20
-489.49998110540878
 30
0.0
 11
4134.2471969783946
 21
-482.99998110540889
 31
0.0
1001
ACDBBLOCKREPETAG
1070
     1
1071
      196
1005
12636B
  0
LINE
  5
12636C
  8
OBJECT
 10
4145.5055534994644
 20
-489.49999999999773
 30
0.0
 11
4145.5055534994644
 21
-482.99999999999761
 31
0.0
1001
ACDBBLOCKREPETAG
1070
     1
1071
      197
1005
12636C
  0
LINE
  5
12636D
  8
OBJECT
 10
4141.7528030216054
 20
-489.49998110540878
 30
0.0
 11
4141.7528030216054
 21
-482.99998110540889
 31
0.0
1001
ACDBBLOCKREPETAG
1070
     1
1071
      198
1005
12636D
  0
LINE
  5
12636E
  8
OBJECT
 10
4230.0
 20
-482.99999999999761
 30
0.0
 11
4230.0
 21
-480.99999999999773
 31
0.0
1001
ACDBBLOCKREPETAG
1070
     1
1071
      199
1005
12636E
  0
LINE
  5
12636F
  8
OBJECT
 10
4230.0
 20
-514.99999999999773
 30
0.0
 11
4230.0
 21
-502.49999999999773
 31
0.0
1001
ACDBBLOCKREPETAG
1070
     1
1071
      200
1005
12636F
  0
LINE
  5
126370
  8
OBJECT
 10
4238.0
 20
-514.99999999999773
 30
0.0
 11
4238.0
 21
-502.49999999999773
 31
0.0
1001
ACDBBLOCKREPETAG
1070
     1
1071
      201
1005
126370
  0
LINE
  5
126371
  8
OBJECT
 10
4226.4944465005347
 20
-489.49999999999773
 30
0.0
 11
4226.4944465005347
 21
-482.99999999999761
 31
0.0
1001
ACDBBLOCKREPETAG
1070
     1
1071
      202
1005
126371
  0
LINE
  5
126372
  8
OBJECT
 10
4225.0
 20
-527.99999999999773
 30
0.0
 11
4225.0
 21
-532.99999999999761
 31
0.0
1001
ACDBBLOCKREPETAG
1070
     1
1071
      203
1005
126372
  0
LINE
  5
126373
  8
OBJECT
 10
4225.0
 20
-532.99999999999761
 30
0.0
 11
4243.0
 21
-532.99999999999761
 31
0.0
1001
ACDBBLOCKREPETAG
1070
     1
1071
      204
1005
126373
  0
LINE
  5
126374
  8
OBJECT
 10
4243.0
 20
-527.99999999999773
 30
0.0
 11
4243.0
 21
-532.99999999999761
 31
0.0
1001
ACDBBLOCKREPETAG
1070
     1
1071
      205
1005
126374
  0
LINE
  5
126375
  8
OBJECT
 10
4230.0
 20
-480.99999999999773
 30
0.0
 11
4238.0
 21
-480.99999999999773
 31
0.0
1001
ACDBBLOCKREPETAG
1070
     1
1071
      206
1005
126375
  0
LINE
  5
126376
  8
OBJECT
 10
4238.0
 20
-482.99999999999761
 30
0.0
 11
4238.0
 21
-480.99999999999773
 31
0.0
1001
ACDBBLOCKREPETAG
1070
     1
1071
      207
1005
126376
  0
LINE
  5
126377
  8
OBJECT
 10
4226.4944465005347
 20
-482.99999999999761
 30
0.0
 11
4241.5055534994644
 21
-482.99999999999761
 31
0.0
1001
ACDBBLOCKREPETAG
1070
     1
1071
      208
1005
126377
  0
LINE
  5
126378
  8
OBJECT
 10
4230.2471969783928
 20
-489.49998110540878
 30
0.0
 11
4230.2471969783928
 21
-482.99998110540889
 31
0.0
1001
ACDBBLOCKREPETAG
1070
     1
1071
      209
1005
126378
  0
LINE
  5
126379
  8
OBJECT
 10
4241.5055534994644
 20
-489.49999999999773
 30
0.0
 11
4241.5055534994644
 21
-482.99999999999761
 31
0.0
1001
ACDBBLOCKREPETAG
1070
     1
1071
      210
1005
126379
  0
LINE
  5
12637A
  8
OBJECT
 10
4237.7528030216063
 20
-489.49998110540878
 30
0.0
 11
4237.7528030216063
 21
-482.99998110540889
 31
0.0
1001
ACDBBLOCKREPETAG
1070
     1
1071
      211
1005
12637A
  0
LINE
  5
12637B
  8
CENTER
 10
4100.0
 20
-199.99999999999909
 30
0.0
 11
4259.0
 21
-199.99999999999909
 31
0.0
1001
ACDBBLOCKREPETAG
1070
     1
1071
      155
1005
12637B
  0
LINE
  5
12637C
  8
OBJECT
 10
4100.0
 20
-261.99999999999909
 30
0.0
 11
4103.0
 21
-261.99999999999909
 31
0.0
1001
ACDBBLOCKREPETAG
1070
     1
1071
      156
1005
12637C
  0
ARC
  5
12637D
  8
OBJECT
 10
4103.0
 20
-258.99999999999909
 30
0.0
 40
3.0
 50
270.0
 51
0.0
1001
ACDBBLOCKREPETAG
1070
     1
1071
      157
1005
12637D
  0
LINE
  5
12637E
  8
OBJECT
 10
4100.0
 20
-138.0000000000027
 30
0.0
 11
4103.0
 21
-138.0000000000027
 31
0.0
1001
ACDBBLOCKREPETAG
1070
     1
1071
      158
1005
12637E
  0
LINE
  5
12637F
  8
OBJECT
 10
4106.0
 20
-140.99999999999909
 30
0.0
 11
4128.6547275935327
 21
-140.9999999999954
 31
0.0
1001
ACDBBLOCKREPETAG
1070
     1
1071
      159
1005
12637F
  0
LINE
  5
126380
  8
OBJECT
 10
4106.0
 20
-259.00000000000267
 30
0.0
 11
4128.6547275935327
 21
-258.99999999999909
 31
0.0
1001
ACDBBLOCKREPETAG
1070
     1
1071
      160
1005
126380
  0
LINE
  5
126381
  8
CENTER
 10
4170.0
 20
-123.5195984073716
 30
0.0
 11
4170.0
 21
-276.48040159262649
 31
0.0
1001
ACDBBLOCKREPETAG
1070
     1
1071
      161
1005
126381
  0
LINE
  5
126382
  8
OBJECT
 10
4106.0
 20
-141.0000000000027
 30
0.0
 11
4106.0
 21
-258.99999999999909
 31
0.0
1001
ACDBBLOCKREPETAG
1070
     1
1071
      162
1005
126382
  0
ARC
  5
126383
  8
OBJECT
 10
4103.0
 20
-141.0000000000027
 30
0.0
 40
3.0
 50
0.0
 51
90.0
1001
ACDBBLOCKREPETAG
1070
     1
1071
      163
1005
126383
  0
ARC
  5
126384
  8
OBJECT
 10
4170.0
 20
-199.99999999999909
 30
0.0
 40
61.0
 50
37.167285461274467
 51
82.832714538705744
1001
ACDBBLOCKREPETAG
1070
     1
1071
      165
1005
126384
  0
ARC
  5
126385
  8
OBJECT
 10
4170.0
 20
-199.99999999999909
 30
0.0
 40
61.0
 50
157.16728546127851
 51
202.83271453872149
1001
ACDBBLOCKREPETAG
1070
     1
1071
      166
1005
126385
  0
ARC
  5
126386
  8
OBJECT
 10
4170.0
 20
-199.99999999999909
 30
0.0
 40
61.0
 50
277.16728546129423
 51
322.83271453872419
1001
ACDBBLOCKREPETAG
1070
     1
1071
      167
1005
126386
  0
CIRCLE
  5
126387
  8
SLIM
 10
4234.0
 20
-199.99999999999909
 30
0.0
 40
4.0
1001
ACDBBLOCKREPETAG
1070
     1
1071
      168
1005
126387
  0
ARC
  5
126388
  8
OBJECT
 10
4234.0
 20
-199.99999999999909
 30
0.0
 40
10.0
 50
322.83271453872419
 51
37.167285461274467
1001
ACDBBLOCKREPETAG
1070
     1
1071
      169
1005
126388
  0
LINE
  5
126389
  8
OBJECT
 10
4218.6093749999973
 20
-163.14720279124501
 30
0.0
 11
4241.96875
 21
-193.9585578346296
 31
0.0
1001
ACDBBLOCKREPETAG
1070
     1
1071
      170
1005
126389
  0
LINE
  5
12638A
  8
OBJECT
 10
4218.6093749999973
 20
-236.8527972087532
 30
0.0
 11
4241.96875
 21
-206.04144216536861
 31
0.0
1001
ACDBBLOCKREPETAG
1070
     1
1071
      171
1005
12638A
  0
CIRCLE
  5
12638B
  8
SLIM
 10
4138.0
 20
-144.5743741577962
 30
0.0
 40
3.9999999999999991
1001
ACDBBLOCKREPETAG
1070
     1
1071
      172
1005
12638B
  0
ARC
  5
12638C
  8
OBJECT
 10
4138.0
 20
-144.5743741577962
 30
0.0
 40
9.9999999999999982
 50
82.832714538705744
 51
157.16728546127851
1001
ACDBBLOCKREPETAG
1070
     1
1071
      173
1005
12638C
  0
LINE
  5
12638D
  8
OBJECT
 10
4113.7798539167043
 20
-176.32944499229319
 30
0.0
 11
4128.783582609296
 21
-140.6939553040711
 31
0.0
1001
ACDBBLOCKREPETAG
1070
     1
1071
      174
1005
12638D
  0
LINE
  5
12638E
  8
OBJECT
 10
4177.6107710832994
 20
-139.47664778353919
 30
0.0
 11
4139.247667390704
 21
-134.65251313870161
 31
0.0
1001
ACDBBLOCKREPETAG
1070
     1
1071
      175
1005
12638E
  0
CIRCLE
  5
12638F
  8
SLIM
 10
4138.0
 20
-255.4256258422019
 30
0.0
 40
4.0
1001
ACDBBLOCKREPETAG
1070
     1
1071
      176
1005
12638F
  0
ARC
  5
126390
  8
OBJECT
 10
4138.0
 20
-255.4256258422019
 30
0.0
 40
10.0
 50
202.83271453872149
 51
277.16728546129423
1001
ACDBBLOCKREPETAG
1070
     1
1071
      177
1005
126390
  0
LINE
  5
126391
  8
OBJECT
 10
4177.6107710832994
 20
-260.52335221645899
 30
0.0
 11
4139.247667390704
 21
-265.3474868612966
 31
0.0
1001
ACDBBLOCKREPETAG
1070
     1
1071
      178
1005
126391
  0
LINE
  5
126392
  8
OBJECT
 10
4113.7798539167043
 20
-223.67055500770491
 30
0.0
 11
4128.783582609296
 21
-259.30604469592708
 31
0.0
1001
ACDBBLOCKREPETAG
1070
     1
1071
      179
1005
126392
  0
CIRCLE
  5
126393
  8
OBJECT
 10
4170.0
 20
-199.99999999999909
 30
0.0
 40
46.0
1001
ACDBBLOCKREPETAG
1070
     1
1071
      180
1005
126393
  0
POLYLINE
  5
126394
  8
SLIM
 66
     1
 10
0.0
 20
0.0
 30
0.0
 70
     1
1001
ACDBBLOCKREPETAG
1070
     1
1071
      181
1005
126394
  0
VERTEX
  5
126731
  8
SLIM
 10
4230.2472232502651
 20
-193.49999999999909
 30
0.0
  0
VERTEX
  5
126732
  8
SLIM
 10
4226.4944465005347
 20
-199.99999999999909
 30
0.0
  0
VERTEX
  5
126733
  8
SLIM
 10
4230.2472232502651
 20
-206.49999999999909
 30
0.0
  0
VERTEX
  5
126734
  8
SLIM
 10
4237.752776749734
 20
-206.49999999999909
 30
0.0
  0
VERTEX
  5
126735
  8
SLIM
 10
4241.5055534994644
 20
-199.99999999999909
 30
0.0
  0
VERTEX
  5
126736
  8
SLIM
 10
4237.752776749734
 20
-193.49999999999909
 30
0.0
  0
SEQEND
  5
126737
  8
SLIM
  0
POLYLINE
  5
126395
  8
SLIM
 66
     1
 10
0.0
 20
0.0
 30
0.0
 70
     1
1001
ACDBBLOCKREPETAG
1070
     1
1071
      182
1005
126395
  0
VERTEX
  5
126738
  8
SLIM
 10
4134.2472232502687
 20
-151.0743741577962
 30
0.0
  0
VERTEX
  5
126739
  8
SLIM
 10
4141.752776749734
 20
-151.0743741577962
 30
0.0
  0
VERTEX
  5
12673A
  8
SLIM
 10
4145.5055534994644
 20
-144.5743741577962
 30
0.0
  0
VERTEX
  5
12673B
  8
SLIM
 10
4141.7527767497286
 20
-138.07437415779259
 30
0.0
  0
VERTEX
  5
12673C
  8
SLIM
 10
4134.2472232502687
 20
-138.0743741577962
 30
0.0
  0
VERTEX
  5
12673D
  8
SLIM
 10
4130.4944465005347
 20
-144.57437415779259
 30
0.0
  0
SEQEND
  5
12673E
  8
SLIM
  0
POLYLINE
  5
126396
  8
SLIM
 66
     1
 10
0.0
 20
0.0
 30
0.0
 70
     1
1001
ACDBBLOCKREPETAG
1070
     1
1071
      183
1005
126396
  0
VERTEX
  5
12673F
  8
SLIM
 10
4145.5055534994644
 20
-255.4256258422019
 30
0.0
  0
VERTEX
  5
126740
  8
SLIM
 10
4141.7527767497286
 20
-248.9256258422019
 30
0.0
  0
VERTEX
  5
126741
  8
SLIM
 10
4134.2472232502687
 20
-248.9256258422019
 30
0.0
  0
VERTEX
  5
126742
  8
SLIM
 10
4130.4944465005347
 20
-255.42562584220559
 30
0.0
  0
VERTEX
  5
126743
  8
SLIM
 10
4134.2472232502651
 20
-261.9256258422019
 30
0.0
  0
VERTEX
  5
126744
  8
SLIM
 10
4141.7527767497286
 20
-261.92562584220559
 30
0.0
  0
SEQEND
  5
126745
  8
SLIM
  0
TEXT
  5
126397
  8
SLIM
 10
5824.6000000000004
 20
-1489.0
 30
0.0
 40
28.0
  1
※ 対応スラブ厚　180～405
 41
0.75
  0
TEXT
  5
126398
  8
SLIM
 10
5598.8999999999996
 20
-1582.3333333333339
 30
0.0
 40
28.0
  1
国土交通大臣認定・（一財）日本消防設備安全センター性能評定取得品
 41
0.75
  0
TEXT
  5
126399
  8
SLIM
 10
5631.1000000000004
 20
-1629.0
 30
0.0
 40
28.0
  1
注）ご採用にあたり、認定書及び評定書の内容をご確認ください。
 41
0.75
  0
LINE
  5
12639A
  8
SLIM
 10
7897.5000000000928
 20
-666.05282860997045
 30
0.0
 11
7913.5528286100662
 21
-649.99999999999761
 31
0.0
1001
ACAD
1010
0.0
1020
0.0
1030
0.0
  0
LINE
  5
12639B
  8
SLIM
 10
7897.5000000000928
 20
-684.01334085210885
 30
0.0
 11
7931.5133408522042
 21
-649.99999999999761
 31
0.0
1001
ACAD
1010
0.0
1020
0.0
1030
0.0
  0
LINE
  5
12639C
  8
SLIM
 10
7897.5000000000928
 20
-701.97385309424715
 30
0.0
 11
7949.4738530943423
 21
-649.99999999999761
 31
0.0
1001
ACAD
1010
0.0
1020
0.0
1030
0.0
  0
LINE
  5
12639D
  8
SLIM
 10
7897.5000000000928
 20
-719.93436533638555
 30
0.0
 11
7967.4343653364804
 21
-649.99999999999761
 31
0.0
1001
ACAD
1010
0.0
1020
0.0
1030
0.0
  0
LINE
  5
12639E
  8
SLIM
 10
7897.5000000000928
 20
-737.89487757852351
 30
0.0
 11
7985.3948775786184
 21
-649.99999999999761
 31
0.0
1001
ACAD
1010
0.0
1020
0.0
1030
0.0
  0
LINE
  5
12639F
  8
SLIM
 10
7897.5000000000928
 20
-755.85538982066203
 30
0.0
 11
8003.3553898207574
 21
-649.99999999999761
 31
0.0
1001
ACAD
1010
0.0
1020
0.0
1030
0.0
  0
LINE
  5
1263A0
  8
SLIM
 10
7897.5000000000928
 20
-773.81590206280043
 30
0.0
 11
8021.3159020628946
 21
-649.99999999999761
 31
0.0
1001
ACAD
1010
0.0
1020
0.0
1030
0.0
  0
LINE
  5
1263A1
  8
SLIM
 10
7897.5000000000928
 20
-791.77641430493838
 30
0.0
 11
8039.2764143050317
 21
-649.99999999999761
 31
0.0
1001
ACAD
1010
0.0
1020
0.0
1030
0.0
  0
LINE
  5
1263A2
  8
SLIM
 10
7897.5000000000928
 20
-809.73692654707713
 30
0.0
 11
8057.2369265471707
 21
-649.99999999999761
 31
0.0
1001
ACAD
1010
0.0
1020
0.0
1030
0.0
  0
LINE
  5
1263A3
  8
SLIM
 10
7897.5000000000928
 20
-827.69743878921543
 30
0.0
 11
8075.1974387893106
 21
-649.99999999999761
 31
0.0
1001
ACAD
1010
0.0
1020
0.0
1030
0.0
  0
LINE
  5
1263A4
  8
SLIM
 10
7897.5000000000928
 20
-845.6579510313536
 30
0.0
 11
8093.1579510314468
 21
-649.99999999999761
 31
0.0
1001
ACAD
1010
0.0
1020
0.0
1030
0.0
  0
LINE
  5
1263A5
  8
SLIM
 10
7897.5000000000928
 20
-863.61846327349178
 30
0.0
 11
8102.4999999999063
 21
-658.61846327367755
 31
0.0
1001
ACAD
1010
0.0
1020
0.0
1030
0.0
  0
LINE
  5
1263A6
  8
SLIM
 10
7897.5000000000928
 20
-881.57897551563019
 30
0.0
 11
8102.4999999999063
 21
-676.57897551581561
 31
0.0
1001
ACAD
1010
0.0
1020
0.0
1030
0.0
  0
LINE
  5
1263A7
  8
SLIM
 10
7898.5898389662798
 20
-898.44964879158101
 30
0.0
 11
8102.4999999999063
 21
-694.53948775795391
 31
0.0
1001
ACAD
1010
0.0
1020
0.0
1030
0.0
  0
LINE
  5
1263A8
  8
SLIM
 10
7900.8041486947632
 20
-914.19585130523694
 30
0.0
 11
8102.4999999999063
 21
-712.50000000009231
 31
0.0
1001
ACAD
1010
0.0
1020
0.0
1030
0.0
  0
LINE
  5
1263A9
  8
SLIM
 10
7903.0184584232438
 20
-929.94205381889253
 30
0.0
 11
8102.4999999999063
 21
-730.46051224223038
 31
0.0
1001
ACAD
1010
0.0
1020
0.0
1030
0.0
  0
LINE
  5
1263AA
  8
SLIM
 10
7905.2327681517281
 20
-945.68825633254755
 30
0.0
 11
8102.4999999999063
 21
-748.4210244843689
 31
0.0
1001
ACAD
1010
0.0
1020
0.0
1030
0.0
  0
LINE
  5
1263AB
  8
SLIM
 10
7907.4470778802124
 20
-961.43445884620314
 30
0.0
 11
8102.4999999999063
 21
-766.38153672650731
 31
0.0
1001
ACAD
1010
0.0
1020
0.0
1030
0.0
  0
LINE
  5
1263AC
  8
SLIM
 10
7909.6613876086958
 20
-977.1806613598585
 30
0.0
 11
8102.4999999999063
 21
-784.34204896864549
 31
0.0
1001
ACAD
1010
0.0
1020
0.0
1030
0.0
  0
LINE
  5
1263AD
  8
SLIM
 10
7911.8756973371737
 20
-992.92686387351455
 30
0.0
 11
8102.4999999999063
 21
-802.30256121078355
 31
0.0
1001
ACAD
1010
0.0
1020
0.0
1030
0.0
  0
LINE
  5
1263AE
  8
SLIM
 10
7914.0900070656589
 20
-1008.67306638717
 30
0.0
 11
8102.4999999999063
 21
-820.26307345292219
 31
0.0
1001
ACAD
1010
0.0
1020
0.0
1030
0.0
  0
LINE
  5
1263AF
  8
SLIM
 10
7916.3043167941414
 20
-1024.419268900825
 30
0.0
 11
8102.4999999999063
 21
-838.22358569506036
 31
0.0
1001
ACAD
1010
0.0
1020
0.0
1030
0.0
  0
LINE
  5
1263B0
  8
SLIM
 10
7918.5186265226248
 20
-1040.1654714144811
 30
0.0
 11
8102.4999999999063
 21
-856.18409793719877
 31
0.0
1001
ACAD
1010
0.0
1020
0.0
1030
0.0
  0
LINE
  5
1263B1
  8
SLIM
 10
7920.0
 20
-1056.644610179244
 30
0.0
 11
8102.4999999999063
 21
-874.14461017933695
 31
0.0
1001
ACAD
1010
0.0
1020
0.0
1030
0.0
  0
LINE
  5
1263B2
  8
SLIM
 10
7929.6051224213852
 20
-1064.999999999997
 30
0.0
 11
8102.2700189725447
 21
-892.33510344883962
 31
0.0
1001
ACAD
1010
0.0
1020
0.0
1030
0.0
  0
LINE
  5
1263B3
  8
SLIM
 10
7930.0
 20
-1082.565634663521
 30
0.0
 11
7947.5656346635233
 21
-1064.999999999997
 31
0.0
1001
ACAD
1010
0.0
1020
0.0
1030
0.0
  0
LINE
  5
1263B4
  8
SLIM
 10
7947.5656346635233
 20
-1064.999999999997
 30
0.0
 11
8099.3310260601947
 21
-913.23460860332796
 31
0.0
1001
ACAD
1010
0.0
1020
0.0
1030
0.0
  0
LINE
  5
1263B5
  8
SLIM
 10
7940.5261469056613
 20
-1089.999999999998
 30
0.0
 11
7965.5261469056613
 21
-1064.999999999997
 31
0.0
1001
ACAD
1010
0.0
1020
0.0
1030
0.0
  0
LINE
  5
1263B6
  8
SLIM
 10
7965.5261469056613
 20
-1064.999999999997
 30
0.0
 11
8096.392033147843
 21
-934.13411375781595
 31
0.0
1001
ACAD
1010
0.0
1020
0.0
1030
0.0
  0
LINE
  5
1263B7
  8
SLIM
 10
7958.4866591477976
 20
-1089.999999999998
 30
0.0
 11
7983.4866591477967
 21
-1064.999999999997
 31
0.0
1001
ACAD
1010
0.0
1020
0.0
1030
0.0
  0
LINE
  5
1263B8
  8
SLIM
 10
7983.4866591477967
 20
-1064.999999999997
 30
0.0
 11
8093.4530402354931
 21
-955.03361891230395
 31
0.0
1001
ACAD
1010
0.0
1020
0.0
1030
0.0
  0
LINE
  5
1263B9
  8
SLIM
 10
7976.4471713899384
 20
-1089.999999999998
 30
0.0
 11
8001.4471713899393
 21
-1064.999999999997
 31
0.0
1001
ACAD
1010
0.0
1020
0.0
1030
0.0
  0
LINE
  5
1263BA
  8
SLIM
 10
8001.4471713899393
 20
-1064.999999999997
 30
0.0
 11
8090.5140473231431
 21
-975.93312406679183
 31
0.0
1001
ACAD
1010
0.0
1020
0.0
1030
0.0
  0
LINE
  5
1263BB
  8
SLIM
 10
7994.4076836320764
 20
-1089.999999999998
 30
0.0
 11
8019.4076836320764
 21
-1064.999999999997
 31
0.0
1001
ACAD
1010
0.0
1020
0.0
1030
0.0
  0
LINE
  5
1263BC
  8
SLIM
 10
8019.4076836320764
 20
-1064.999999999997
 30
0.0
 11
8087.5750544107932
 21
-996.83262922128063
 31
0.0
1001
ACAD
1010
0.0
1020
0.0
1030
0.0
  0
LINE
  5
1263BD
  8
SLIM
 10
8012.3681958742154
 20
-1089.999999999998
 30
0.0
 11
8037.3681958742127
 21
-1064.999999999997
 31
0.0
1001
ACAD
1010
0.0
1020
0.0
1030
0.0
  0
LINE
  5
1263BE
  8
SLIM
 10
8037.3681958742127
 20
-1064.999999999997
 30
0.0
 11
8084.6360614984433
 21
-1017.732134375769
 31
0.0
1001
ACAD
1010
0.0
1020
0.0
1030
0.0
  0
LINE
  5
1263BF
  8
SLIM
 10
8030.3287081163526
 20
-1089.999999999998
 30
0.0
 11
8055.3287081163544
 21
-1064.999999999997
 31
0.0
1001
ACAD
1010
0.0
1020
0.0
1030
0.0
  0
LINE
  5
1263C0
  8
SLIM
 10
8055.3287081163544
 20
-1064.999999999997
 30
0.0
 11
8081.6970685860933
 21
-1038.631639530257
 31
0.0
1001
ACAD
1010
0.0
1020
0.0
1030
0.0
  0
LINE
  5
1263C1
  8
SLIM
 10
8048.2892203584888
 20
-1089.999999999998
 30
0.0
 11
8070.0
 21
-1068.289220358489
 31
0.0
1001
ACAD
1010
0.0
1020
0.0
1030
0.0
  0
LINE
  5
1263C2
  8
SLIM
 10
8073.2892203584888
 20
-1064.999999999997
 30
0.0
 11
8080.0
 21
-1058.289220358489
 31
0.0
1001
ACAD
1010
0.0
1020
0.0
1030
0.0
  0
LINE
  5
1263C3
  8
SLIM
 10
8066.2497326006278
 20
-1089.999999999998
 30
0.0
 11
8070.0
 21
-1086.2497326006271
 31
0.0
1001
ACAD
1010
0.0
1020
0.0
1030
0.0
  0
LINE
  5
1263C4
  8
OBJECT
 10
7897.5000000000928
 20
-649.99999999999761
 30
0.0
 11
8102.4999999999063
 21
-649.99999999999761
 31
0.0
  0
LINE
  5
1263C5
  8
OBJECT
 10
8102.4999999999063
 20
-649.99999999999761
 30
0.0
 11
8102.4999999999063
 21
-890.69968280980572
 31
0.0
  0
LINE
  5
1263C6
  8
OBJECT
 10
8102.4999999999063
 20
-890.69968280980572
 30
0.0
 11
8080.0
 21
-1050.699682809146
 31
0.0
  0
LINE
  5
1263C7
  8
OBJECT
 10
8080.0
 20
-1050.699682809146
 30
0.0
 11
8080.0
 21
-1064.999999999997
 31
0.0
  0
LINE
  5
1263C8
  8
OBJECT
 10
8080.0
 20
-1064.999999999997
 30
0.0
 11
7920.0
 21
-1064.999999999997
 31
0.0
  0
LINE
  5
1263C9
  8
OBJECT
 10
7920.0
 20
-1064.999999999997
 30
0.0
 11
7920.0
 21
-1050.699682809146
 31
0.0
  0
LINE
  5
1263CA
  8
OBJECT
 10
7920.0
 20
-1050.699682809146
 30
0.0
 11
7897.5000000000928
 21
-890.69968280980572
 31
0.0
  0
LINE
  5
1263CB
  8
OBJECT
 10
7897.5000000000928
 20
-890.69968280980572
 30
0.0
 11
7897.5000000000928
 21
-649.99999999999761
 31
0.0
  0
LINE
  5
1263CC
  8
OBJECT
 10
7930.0
 20
-1064.999999999997
 30
0.0
 11
7930.0
 21
-1089.999999999998
 31
0.0
  0
LINE
  5
1263CD
  8
OBJECT
 10
7930.0
 20
-1089.999999999998
 30
0.0
 11
8070.0
 21
-1089.999999999998
 31
0.0
  0
LINE
  5
1263CE
  8
OBJECT
 10
8070.0
 20
-1089.999999999998
 30
0.0
 11
8070.0
 21
-1064.999999999997
 31
0.0
  0
LINE
  5
1263CF
  8
SLIM
 10
5897.5000000000928
 20
-666.05282860997045
 30
0.0
 11
5913.5528286100653
 21
-649.99999999999761
 31
0.0
1001
ACAD
1010
0.0
1020
0.0
1030
0.0
  0
LINE
  5
1263D0
  8
SLIM
 10
5897.5000000000928
 20
-684.01334085210885
 30
0.0
 11
5931.5133408522042
 21
-649.99999999999761
 31
0.0
1001
ACAD
1010
0.0
1020
0.0
1030
0.0
  0
LINE
  5
1263D1
  8
SLIM
 10
5897.5000000000928
 20
-701.97385309424715
 30
0.0
 11
5949.4738530943423
 21
-649.99999999999761
 31
0.0
1001
ACAD
1010
0.0
1020
0.0
1030
0.0
  0
LINE
  5
1263D2
  8
SLIM
 10
5897.5000000000928
 20
-719.93436533638555
 30
0.0
 11
5967.4343653364804
 21
-649.99999999999761
 31
0.0
1001
ACAD
1010
0.0
1020
0.0
1030
0.0
  0
LINE
  5
1263D3
  8
SLIM
 10
5897.5000000000928
 20
-737.89487757852351
 30
0.0
 11
5985.3948775786184
 21
-649.99999999999761
 31
0.0
1001
ACAD
1010
0.0
1020
0.0
1030
0.0
  0
LINE
  5
1263D4
  8
SLIM
 10
5897.5000000000928
 20
-755.85538982066203
 30
0.0
 11
6003.3553898207574
 21
-649.99999999999761
 31
0.0
1001
ACAD
1010
0.0
1020
0.0
1030
0.0
  0
LINE
  5
1263D5
  8
SLIM
 10
5897.5000000000928
 20
-773.81590206280043
 30
0.0
 11
6021.3159020628946
 21
-649.99999999999761
 31
0.0
1001
ACAD
1010
0.0
1020
0.0
1030
0.0
  0
LINE
  5
1263D6
  8
SLIM
 10
5897.5000000000928
 20
-791.77641430493838
 30
0.0
 11
6039.2764143050326
 21
-649.99999999999761
 31
0.0
1001
ACAD
1010
0.0
1020
0.0
1030
0.0
  0
LINE
  5
1263D7
  8
SLIM
 10
5897.5000000000928
 20
-809.73692654707713
 30
0.0
 11
6057.2369265471707
 21
-649.99999999999761
 31
0.0
1001
ACAD
1010
0.0
1020
0.0
1030
0.0
  0
LINE
  5
1263D8
  8
SLIM
 10
5897.5000000000928
 20
-827.69743878921543
 30
0.0
 11
6075.1974387893097
 21
-649.99999999999761
 31
0.0
1001
ACAD
1010
0.0
1020
0.0
1030
0.0
  0
LINE
  5
1263D9
  8
SLIM
 10
5897.5000000000928
 20
-845.6579510313536
 30
0.0
 11
6093.1579510314468
 21
-649.99999999999761
 31
0.0
1001
ACAD
1010
0.0
1020
0.0
1030
0.0
  0
LINE
  5
1263DA
  8
SLIM
 10
5897.5000000000928
 20
-863.61846327349178
 30
0.0
 11
6102.4999999999072
 21
-658.61846327367755
 31
0.0
1001
ACAD
1010
0.0
1020
0.0
1030
0.0
  0
LINE
  5
1263DB
  8
SLIM
 10
5897.5000000000928
 20
-881.57897551563019
 30
0.0
 11
6102.4999999999072
 21
-676.57897551581561
 31
0.0
1001
ACAD
1010
0.0
1020
0.0
1030
0.0
  0
LINE
  5
1263DC
  8
SLIM
 10
5898.5898389662798
 20
-898.44964879158101
 30
0.0
 11
6102.4999999999072
 21
-694.53948775795391
 31
0.0
1001
ACAD
1010
0.0
1020
0.0
1030
0.0
  0
LINE
  5
1263DD
  8
SLIM
 10
5900.8041486947632
 20
-914.19585130523694
 30
0.0
 11
6102.4999999999072
 21
-712.50000000009231
 31
0.0
1001
ACAD
1010
0.0
1020
0.0
1030
0.0
  0
LINE
  5
1263DE
  8
SLIM
 10
5903.0184584232456
 20
-929.94205381889253
 30
0.0
 11
6102.4999999999072
 21
-730.46051224223038
 31
0.0
1001
ACAD
1010
0.0
1020
0.0
1030
0.0
  0
LINE
  5
1263DF
  8
SLIM
 10
5905.2327681517281
 20
-945.68825633254755
 30
0.0
 11
6102.4999999999072
 21
-748.4210244843689
 31
0.0
1001
ACAD
1010
0.0
1020
0.0
1030
0.0
  0
LINE
  5
1263E0
  8
SLIM
 10
5907.4470778802097
 20
-961.43445884620314
 30
0.0
 11
6102.4999999999072
 21
-766.38153672650731
 31
0.0
1001
ACAD
1010
0.0
1020
0.0
1030
0.0
  0
LINE
  5
1263E1
  8
SLIM
 10
5909.661387608694
 20
-977.1806613598585
 30
0.0
 11
6102.4999999999072
 21
-784.34204896864549
 31
0.0
1001
ACAD
1010
0.0
1020
0.0
1030
0.0
  0
LINE
  5
1263E2
  8
SLIM
 10
5911.8756973371756
 20
-992.92686387351455
 30
0.0
 11
6102.4999999999072
 21
-802.30256121078355
 31
0.0
1001
ACAD
1010
0.0
1020
0.0
1030
0.0
  0
LINE
  5
1263E3
  8
SLIM
 10
5914.0900070656589
 20
-1008.67306638717
 30
0.0
 11
6102.4999999999072
 21
-820.26307345292219
 31
0.0
1001
ACAD
1010
0.0
1020
0.0
1030
0.0
  0
LINE
  5
1263E4
  8
SLIM
 10
5916.3043167941432
 20
-1024.419268900825
 30
0.0
 11
6102.4999999999072
 21
-838.22358569506036
 31
0.0
1001
ACAD
1010
0.0
1020
0.0
1030
0.0
  0
LINE
  5
1263E5
  8
SLIM
 10
5918.5186265226248
 20
-1040.1654714144811
 30
0.0
 11
6102.4999999999072
 21
-856.18409793719877
 31
0.0
1001
ACAD
1010
0.0
1020
0.0
1030
0.0
  0
LINE
  5
1263E6
  8
SLIM
 10
5920.0
 20
-1056.644610179244
 30
0.0
 11
6102.4999999999072
 21
-874.14461017933695
 31
0.0
1001
ACAD
1010
0.0
1020
0.0
1030
0.0
  0
LINE
  5
1263E7
  8
SLIM
 10
5929.6051224213852
 20
-1064.999999999997
 30
0.0
 11
6102.2700189725429
 21
-892.33510344883962
 31
0.0
1001
ACAD
1010
0.0
1020
0.0
1030
0.0
  0
LINE
  5
1263E8
  8
SLIM
 10
5930.0
 20
-1082.565634663521
 30
0.0
 11
5947.5656346635233
 21
-1064.999999999997
 31
0.0
1001
ACAD
1010
0.0
1020
0.0
1030
0.0
  0
LINE
  5
1263E9
  8
SLIM
 10
5947.5656346635233
 20
-1064.999999999997
 30
0.0
 11
6099.3310260601929
 21
-913.23460860332796
 31
0.0
1001
ACAD
1010
0.0
1020
0.0
1030
0.0
  0
LINE
  5
1263EA
  8
SLIM
 10
5940.5261469056613
 20
-1089.999999999998
 30
0.0
 11
5965.5261469056604
 21
-1064.999999999997
 31
0.0
1001
ACAD
1010
0.0
1020
0.0
1030
0.0
  0
LINE
  5
1263EB
  8
SLIM
 10
5965.5261469056604
 20
-1064.999999999997
 30
0.0
 11
6096.392033147843
 21
-934.13411375781595
 31
0.0
1001
ACAD
1010
0.0
1020
0.0
1030
0.0
  0
LINE
  5
1263EC
  8
SLIM
 10
5958.4866591478003
 20
-1089.999999999998
 30
0.0
 11
5983.4866591478003
 21
-1064.999999999997
 31
0.0
1001
ACAD
1010
0.0
1020
0.0
1030
0.0
  0
LINE
  5
1263ED
  8
SLIM
 10
5983.4866591478003
 20
-1064.999999999997
 30
0.0
 11
6093.4530402354931
 21
-955.03361891230395
 31
0.0
1001
ACAD
1010
0.0
1020
0.0
1030
0.0
  0
LINE
  5
1263EE
  8
SLIM
 10
5976.4471713899384
 20
-1089.999999999998
 30
0.0
 11
6001.4471713899366
 21
-1064.999999999997
 31
0.0
1001
ACAD
1010
0.0
1020
0.0
1030
0.0
  0
LINE
  5
1263EF
  8
SLIM
 10
6001.4471713899366
 20
-1064.999999999997
 30
0.0
 11
6090.5140473231431
 21
-975.93312406679183
 31
0.0
1001
ACAD
1010
0.0
1020
0.0
1030
0.0
  0
LINE
  5
1263F0
  8
SLIM
 10
5994.4076836320764
 20
-1089.999999999998
 30
0.0
 11
6019.4076836320774
 21
-1064.999999999997
 31
0.0
1001
ACAD
1010
0.0
1020
0.0
1030
0.0
  0
LINE
  5
1263F1
  8
SLIM
 10
6019.4076836320774
 20
-1064.999999999997
 30
0.0
 11
6087.5750544107932
 21
-996.83262922128063
 31
0.0
1001
ACAD
1010
0.0
1020
0.0
1030
0.0
  0
LINE
  5
1263F2
  8
SLIM
 10
6012.3681958742163
 20
-1089.999999999998
 30
0.0
 11
6037.3681958742172
 21
-1064.999999999997
 31
0.0
1001
ACAD
1010
0.0
1020
0.0
1030
0.0
  0
LINE
  5
1263F3
  8
SLIM
 10
6037.3681958742172
 20
-1064.999999999997
 30
0.0
 11
6084.6360614984433
 21
-1017.732134375769
 31
0.0
1001
ACAD
1010
0.0
1020
0.0
1030
0.0
  0
LINE
  5
1263F4
  8
SLIM
 10
6030.3287081163526
 20
-1089.999999999998
 30
0.0
 11
6055.3287081163517
 21
-1064.999999999997
 31
0.0
1001
ACAD
1010
0.0
1020
0.0
1030
0.0
  0
LINE
  5
1263F5
  8
SLIM
 10
6055.3287081163517
 20
-1064.999999999997
 30
0.0
 11
6081.6970685860952
 21
-1038.631639530257
 31
0.0
1001
ACAD
1010
0.0
1020
0.0
1030
0.0
  0
LINE
  5
1263F6
  8
SLIM
 10
6048.2892203584897
 20
-1089.999999999998
 30
0.0
 11
6070.0
 21
-1068.289220358489
 31
0.0
1001
ACAD
1010
0.0
1020
0.0
1030
0.0
  0
LINE
  5
1263F7
  8
SLIM
 10
6073.2892203584934
 20
-1064.999999999997
 30
0.0
 11
6080.0
 21
-1058.289220358489
 31
0.0
1001
ACAD
1010
0.0
1020
0.0
1030
0.0
  0
LINE
  5
1263F8
  8
SLIM
 10
6066.2497326006287
 20
-1089.999999999998
 30
0.0
 11
6070.0
 21
-1086.2497326006271
 31
0.0
1001
ACAD
1010
0.0
1020
0.0
1030
0.0
  0
LINE
  5
1263F9
  8
OBJECT
 10
5897.5000000000928
 20
-649.99999999999761
 30
0.0
 11
6102.4999999999072
 21
-649.99999999999761
 31
0.0
  0
LINE
  5
1263FA
  8
OBJECT
 10
6102.4999999999072
 20
-649.99999999999761
 30
0.0
 11
6102.4999999999072
 21
-890.69968280980572
 31
0.0
  0
LINE
  5
1263FB
  8
OBJECT
 10
6102.4999999999072
 20
-890.69968280980572
 30
0.0
 11
6080.0
 21
-1050.699682809146
 31
0.0
  0
LINE
  5
1263FC
  8
OBJECT
 10
6080.0
 20
-1050.699682809146
 30
0.0
 11
6080.0
 21
-1064.999999999997
 31
0.0
  0
LINE
  5
1263FD
  8
OBJECT
 10
6080.0
 20
-1064.999999999997
 30
0.0
 11
5920.0
 21
-1064.999999999997
 31
0.0
  0
LINE
  5
1263FE
  8
OBJECT
 10
5920.0
 20
-1064.999999999997
 30
0.0
 11
5920.0
 21
-1050.699682809146
 31
0.0
  0
LINE
  5
1263FF
  8
OBJECT
 10
5920.0
 20
-1050.699682809146
 30
0.0
 11
5897.5000000000928
 21
-890.69968280980572
 31
0.0
  0
LINE
  5
126400
  8
OBJECT
 10
5897.5000000000928
 20
-890.69968280980572
 30
0.0
 11
5897.5000000000928
 21
-649.99999999999761
 31
0.0
  0
LINE
  5
126401
  8
OBJECT
 10
5930.0
 20
-1064.999999999997
 30
0.0
 11
5930.0
 21
-1089.999999999998
 31
0.0
  0
LINE
  5
126402
  8
OBJECT
 10
5930.0
 20
-1089.999999999998
 30
0.0
 11
6070.0
 21
-1089.999999999998
 31
0.0
  0
LINE
  5
126403
  8
OBJECT
 10
6070.0
 20
-1089.999999999998
 30
0.0
 11
6070.0
 21
-1064.999999999997
 31
0.0
  0
LINE
  5
126404
  8
CENTER
 10
8000.0
 20
-1543.9999999999991
 30
0.0
 11
8000.0
 21
-1317.9999999999991
 31
0.0
1001
ACDBBLOCKREPETAG
1070
     1
1071
        0
1005
126404
  0
LINE
  5
126405
  8
CENTER
 10
7894.7678858541567
 20
-1438.9999999999991
 30
0.0
 11
8105.2321141458424
 21
-1438.9999999999991
 31
0.0
1001
ACDBBLOCKREPETAG
1070
     1
1071
        1
1005
126405
  0
CIRCLE
  5
126406
  8
OBJECT
 10
8000.0
 20
-1438.9999999999991
 30
0.0
 40
62.5
1001
ACDBBLOCKREPETAG
1070
     1
1071
        2
1005
126406
  0
CIRCLE
  5
126407
  8
OBJECT
 10
8000.0
 20
-1438.9999999999991
 30
0.0
 40
75.0
1001
ACDBBLOCKREPETAG
1070
     1
1071
        3
1005
126407
  0
ARC
  5
126408
  8
OBJECT
 10
8000.0
 20
-1438.9999999999991
 30
0.0
 40
90.0
 50
124.11056017877129
 51
175.8894398211431
1001
ACDBBLOCKREPETAG
1070
     1
1071
        4
1005
126408
  0
ARC
  5
126409
  8
OBJECT
 10
8000.0
 20
-1438.9999999999991
 30
0.0
 40
90.0
 50
244.1105601790079
 51
295.88943982099198
1001
ACDBBLOCKREPETAG
1070
     1
1071
        5
1005
126409
  0
ARC
  5
12640A
  8
OBJECT
 10
8000.0
 20
-1438.9999999999991
 30
0.0
 40
90.0
 50
4.1105601788568462
 51
55.889439821228699
1001
ACDBBLOCKREPETAG
1070
     1
1071
        6
1005
12640A
  0
CIRCLE
  5
12640B
  8
SLIM
 10
8000.0
 20
-1345.9999999999991
 30
0.0
 40
6.0
1001
ACDBBLOCKREPETAG
1070
     1
1071
        7
1005
12640B
  0
ARC
  5
12640C
  8
OBJECT
 10
8000.0
 20
-1345.9999999999991
 30
0.0
 40
13.0
 50
55.889439821228699
 51
124.11056017877129
1001
ACDBBLOCKREPETAG
1070
     1
1071
        8
1005
12640C
  0
LINE
  5
12640D
  8
OBJECT
 10
7949.5287555726281
 20
-1364.483870967742
 30
0.0
 11
7992.7097091382657
 21
-1335.2365591397861
 31
0.0
1001
ACDBBLOCKREPETAG
1070
     1
1071
        9
1005
12640D
  0
LINE
  5
12640E
  8
OBJECT
 10
8050.4712444273764
 20
-1364.483870967742
 30
0.0
 11
8007.2902908617298
 21
-1335.2365591397861
 31
0.0
1001
ACDBBLOCKREPETAG
1070
     1
1071
       10
1005
12640E
  0
POLYLINE
  5
12640F
  8
SLIM
 66
     1
 10
0.0
 20
0.0
 30
0.0
 70
     1
1001
ACDBBLOCKREPETAG
1070
     1
1071
       11
1005
12640F
  0
VERTEX
  5
126746
  8
SLIM
 10
7990.5
 20
-1351.484827557302
 30
0.0
  0
VERTEX
  5
126747
  8
SLIM
 10
8000.0
 20
-1356.9696551146039
 30
0.0
  0
VERTEX
  5
126748
  8
SLIM
 10
8009.5
 20
-1351.484827557302
 30
0.0
  0
VERTEX
  5
126749
  8
SLIM
 10
8009.5
 20
-1340.515172442696
 30
0.0
  0
VERTEX
  5
12674A
  8
SLIM
 10
8000.0
 20
-1335.0303448853949
 30
0.0
  0
VERTEX
  5
12674B
  8
SLIM
 10
7990.5
 20
-1340.515172442696
 30
0.0
  0
SEQEND
  5
12674C
  8
SLIM
  0
CIRCLE
  5
126410
  8
SLIM
 10
7919.4596374480507
 20
-1485.4999999999991
 30
0.0
 40
5.9999999999999991
1001
ACDBBLOCKREPETAG
1070
     1
1071
       12
1005
126410
  0
ARC
  5
126411
  8
OBJECT
 10
7919.4596374480507
 20
-1485.4999999999991
 30
0.0
 40
13.0
 50
175.8894398211431
 51
244.1105601790079
1001
ACDBBLOCKREPETAG
1070
     1
1071
       13
1005
126411
  0
LINE
  5
126412
  8
OBJECT
 10
7960.7027614800709
 20
-1519.9674443508479
 30
0.0
 11
7913.7833696618336
 21
-1497.195297517344
 31
0.0
1001
ACDBBLOCKREPETAG
1070
     1
1071
       14
1005
126412
  0
LINE
  5
126413
  8
OBJECT
 10
7910.2315170527017
 20
-1432.548684681409
 30
0.0
 11
7906.4930788001029
 21
-1484.5681433428681
 31
0.0
1001
ACDBBLOCKREPETAG
1070
     1
1071
       15
1005
126413
  0
POLYLINE
  5
126414
  8
SLIM
 66
     1
 10
0.0
 20
0.0
 30
0.0
 70
     1
1001
ACDBBLOCKREPETAG
1070
     1
1071
       16
1005
126414
  0
VERTEX
  5
12674D
  8
SLIM
 10
7928.9596374480507
 20
-1490.984827557302
 30
0.0
  0
VERTEX
  5
12674E
  8
SLIM
 10
7928.9596374480507
 20
-1480.0151724426969
 30
0.0
  0
VERTEX
  5
12674F
  8
SLIM
 10
7919.4596374480507
 20
-1474.5303448853949
 30
0.0
  0
VERTEX
  5
126750
  8
SLIM
 10
7909.9596374480461
 20
-1480.0151724426969
 30
0.0
  0
VERTEX
  5
126751
  8
SLIM
 10
7909.9596374480461
 20
-1490.984827557302
 30
0.0
  0
VERTEX
  5
126752
  8
SLIM
 10
7919.459637448047
 20
-1496.4696551146039
 30
0.0
  0
SEQEND
  5
126753
  8
SLIM
  0
CIRCLE
  5
126415
  8
SLIM
 10
8080.5403625519548
 20
-1485.4999999999991
 30
0.0
 40
6.0
1001
ACDBBLOCKREPETAG
1070
     1
1071
       17
1005
126415
  0
ARC
  5
126416
  8
OBJECT
 10
8080.5403625519548
 20
-1485.4999999999991
 30
0.0
 40
13.0
 50
295.88943982099198
 51
4.1105601788568462
1001
ACDBBLOCKREPETAG
1070
     1
1071
       18
1005
126416
  0
LINE
  5
126417
  8
OBJECT
 10
8089.7684829473019
 20
-1432.548684681409
 30
0.0
 11
8093.5069211998962
 21
-1484.5681433428681
 31
0.0
1001
ACDBBLOCKREPETAG
1070
     1
1071
       19
1005
126417
  0
LINE
  5
126418
  8
OBJECT
 10
8039.2972385199282
 20
-1519.9674443508479
 30
0.0
 11
8086.2166303381618
 21
-1497.195297517344
 31
0.0
1001
ACDBBLOCKREPETAG
1070
     1
1071
       20
1005
126418
  0
POLYLINE
  5
126419
  8
SLIM
 66
     1
 10
0.0
 20
0.0
 30
0.0
 70
     1
1001
ACDBBLOCKREPETAG
1070
     1
1071
       21
1005
126419
  0
VERTEX
  5
126754
  8
SLIM
 10
8080.5403625519548
 20
-1474.5303448853949
 30
0.0
  0
VERTEX
  5
126755
  8
SLIM
 10
8071.0403625519557
 20
-1480.0151724426969
 30
0.0
  0
VERTEX
  5
126756
  8
SLIM
 10
8071.0403625519557
 20
-1490.984827557302
 30
0.0
  0
VERTEX
  5
126757
  8
SLIM
 10
8080.5403625519548
 20
-1496.4696551146039
 30
0.0
  0
VERTEX
  5
126758
  8
SLIM
 10
8090.0403625519557
 20
-1490.984827557302
 30
0.0
  0
VERTEX
  5
126759
  8
SLIM
 10
8090.0403625519557
 20
-1480.0151724426969
 30
0.0
  0
SEQEND
  5
12675A
  8
SLIM
  0
LINE
  5
12641A
  8
CENTER
 10
4000.0
 20
-1543.9999999999991
 30
0.0
 11
4000.0
 21
-1317.9999999999991
 31
0.0
1001
ACDBBLOCKREPETAG
1070
     1
1071
        0
1005
12641A
  0
LINE
  5
12641B
  8
CENTER
 10
3894.7678858541599
 20
-1438.9999999999991
 30
0.0
 11
4105.2321141458406
 21
-1438.9999999999991
 31
0.0
1001
ACDBBLOCKREPETAG
1070
     1
1071
        1
1005
12641B
  0
CIRCLE
  5
12641C
  8
OBJECT
 10
4000.0
 20
-1438.9999999999991
 30
0.0
 40
62.5
1001
ACDBBLOCKREPETAG
1070
     1
1071
        2
1005
12641C
  0
CIRCLE
  5
12641D
  8
OBJECT
 10
4000.0
 20
-1438.9999999999991
 30
0.0
 40
75.0
1001
ACDBBLOCKREPETAG
1070
     1
1071
        3
1005
12641D
  0
ARC
  5
12641E
  8
OBJECT
 10
4000.0
 20
-1438.9999999999991
 30
0.0
 40
90.0
 50
124.11056017877129
 51
175.8894398211431
1001
ACDBBLOCKREPETAG
1070
     1
1071
        4
1005
12641E
  0
ARC
  5
12641F
  8
OBJECT
 10
4000.0
 20
-1438.9999999999991
 30
0.0
 40
90.0
 50
244.11056017898451
 51
295.88943982101551
1001
ACDBBLOCKREPETAG
1070
     1
1071
        5
1005
12641F
  0
ARC
  5
126420
  8
OBJECT
 10
4000.0
 20
-1438.9999999999991
 30
0.0
 40
90.0
 50
4.1105601788568462
 51
55.889439821228699
1001
ACDBBLOCKREPETAG
1070
     1
1071
        6
1005
126420
  0
CIRCLE
  5
126421
  8
SLIM
 10
4000.0
 20
-1345.9999999999991
 30
0.0
 40
6.0
1001
ACDBBLOCKREPETAG
1070
     1
1071
        7
1005
126421
  0
ARC
  5
126422
  8
OBJECT
 10
4000.0
 20
-1345.9999999999991
 30
0.0
 40
13.0
 50
55.889439821228699
 51
124.11056017877129
1001
ACDBBLOCKREPETAG
1070
     1
1071
        8
1005
126422
  0
LINE
  5
126423
  8
OBJECT
 10
3949.5287555726291
 20
-1364.483870967742
 30
0.0
 11
3992.709709138268
 21
-1335.2365591397861
 31
0.0
1001
ACDBBLOCKREPETAG
1070
     1
1071
        9
1005
126423
  0
LINE
  5
126424
  8
OBJECT
 10
4050.471244427376
 20
-1364.483870967742
 30
0.0
 11
4007.290290861732
 21
-1335.2365591397861
 31
0.0
1001
ACDBBLOCKREPETAG
1070
     1
1071
       10
1005
126424
  0
POLYLINE
  5
126425
  8
SLIM
 66
     1
 10
0.0
 20
0.0
 30
0.0
 70
     1
1001
ACDBBLOCKREPETAG
1070
     1
1071
       11
1005
126425
  0
VERTEX
  5
12675B
  8
SLIM
 10
3990.5
 20
-1351.484827557302
 30
0.0
  0
VERTEX
  5
12675C
  8
SLIM
 10
4000.0
 20
-1356.9696551146039
 30
0.0
  0
VERTEX
  5
12675D
  8
SLIM
 10
4009.5
 20
-1351.484827557302
 30
0.0
  0
VERTEX
  5
12675E
  8
SLIM
 10
4009.5
 20
-1340.515172442696
 30
0.0
  0
VERTEX
  5
12675F
  8
SLIM
 10
4000.0
 20
-1335.0303448853949
 30
0.0
  0
VERTEX
  5
126760
  8
SLIM
 10
3990.5
 20
-1340.515172442696
 30
0.0
  0
SEQEND
  5
126761
  8
SLIM
  0
CIRCLE
  5
126426
  8
SLIM
 10
3919.4596374480502
 20
-1485.4999999999991
 30
0.0
 40
5.9999999999999991
1001
ACDBBLOCKREPETAG
1070
     1
1071
       12
1005
126426
  0
ARC
  5
126427
  8
OBJECT
 10
3919.4596374480502
 20
-1485.4999999999991
 30
0.0
 40
13.0
 50
175.8894398211431
 51
244.11056017898451
1001
ACDBBLOCKREPETAG
1070
     1
1071
       13
1005
126427
  0
LINE
  5
126428
  8
OBJECT
 10
3960.7027614800718
 20
-1519.9674443508479
 30
0.0
 11
3913.7833696618368
 21
-1497.195297517344
 31
0.0
1001
ACDBBLOCKREPETAG
1070
     1
1071
       14
1005
126428
  0
LINE
  5
126429
  8
OBJECT
 10
3910.2315170527008
 20
-1432.548684681409
 30
0.0
 11
3906.4930788001038
 21
-1484.5681433428681
 31
0.0
1001
ACDBBLOCKREPETAG
1070
     1
1071
       15
1005
126429
  0
POLYLINE
  5
12642A
  8
SLIM
 66
     1
 10
0.0
 20
0.0
 30
0.0
 70
     1
1001
ACDBBLOCKREPETAG
1070
     1
1071
       16
1005
12642A
  0
VERTEX
  5
126762
  8
SLIM
 10
3928.9596374480502
 20
-1490.984827557302
 30
0.0
  0
VERTEX
  5
126763
  8
SLIM
 10
3928.9596374480502
 20
-1480.0151724426969
 30
0.0
  0
VERTEX
  5
126764
  8
SLIM
 10
3919.4596374480502
 20
-1474.5303448853949
 30
0.0
  0
VERTEX
  5
126765
  8
SLIM
 10
3909.9596374480461
 20
-1480.0151724426969
 30
0.0
  0
VERTEX
  5
126766
  8
SLIM
 10
3909.9596374480461
 20
-1490.984827557302
 30
0.0
  0
VERTEX
  5
126767
  8
SLIM
 10
3919.4596374480461
 20
-1496.4696551146039
 30
0.0
  0
SEQEND
  5
126768
  8
SLIM
  0
CIRCLE
  5
12642B
  8
SLIM
 10
4080.5403625519521
 20
-1485.4999999999991
 30
0.0
 40
6.0
1001
ACDBBLOCKREPETAG
1070
     1
1071
       17
1005
12642B
  0
ARC
  5
12642C
  8
OBJECT
 10
4080.5403625519521
 20
-1485.4999999999991
 30
0.0
 40
13.0
 50
295.88943982101551
 51
4.1105601788568462
1001
ACDBBLOCKREPETAG
1070
     1
1071
       18
1005
12642C
  0
LINE
  5
12642D
  8
OBJECT
 10
4089.7684829473019
 20
-1432.548684681409
 30
0.0
 11
4093.5069211998962
 21
-1484.5681433428681
 31
0.0
1001
ACDBBLOCKREPETAG
1070
     1
1071
       19
1005
12642D
  0
LINE
  5
12642E
  8
OBJECT
 10
4039.2972385199269
 20
-1519.9674443508479
 30
0.0
 11
4086.2166303381632
 21
-1497.195297517344
 31
0.0
1001
ACDBBLOCKREPETAG
1070
     1
1071
       20
1005
12642E
  0
POLYLINE
  5
12642F
  8
SLIM
 66
     1
 10
0.0
 20
0.0
 30
0.0
 70
     1
1001
ACDBBLOCKREPETAG
1070
     1
1071
       21
1005
12642F
  0
VERTEX
  5
126769
  8
SLIM
 10
4080.5403625519521
 20
-1474.5303448853949
 30
0.0
  0
VERTEX
  5
12676A
  8
SLIM
 10
4071.040362551953
 20
-1480.0151724426969
 30
0.0
  0
VERTEX
  5
12676B
  8
SLIM
 10
4071.040362551953
 20
-1490.984827557302
 30
0.0
  0
VERTEX
  5
12676C
  8
SLIM
 10
4080.5403625519521
 20
-1496.4696551146039
 30
0.0
  0
VERTEX
  5
12676D
  8
SLIM
 10
4090.040362551953
 20
-1490.984827557302
 30
0.0
  0
VERTEX
  5
12676E
  8
SLIM
 10
4090.040362551953
 20
-1480.0151724426969
 30
0.0
  0
SEQEND
  5
12676F
  8
SLIM
  0
LINE
  5
126430
  8
OBJECT
 10
8092.4999999999973
 20
-889.99999999999955
 30
0.0
 11
8092.4999999999973
 21
-814.99999999999955
 31
0.0
1001
ACDBBLOCKREPETAG
1070
     1
1071
       12
1005
126430
  0
LINE
  5
126431
  8
OBJECT
 10
8093.5403615519499
 20
-1164.9999999999991
 30
0.0
 11
7906.4596374480461
 21
-1164.9999999999991
 31
0.0
1001
ACDBBLOCKREPETAG
1070
     1
1071
       13
1005
126431
  0
LINE
  5
126432
  8
OBJECT
 10
7906.4596374480498
 20
-1191.5
 30
0.0
 11
8093.5403625519502
 21
-1191.5
 31
0.0
1001
ACDBBLOCKREPETAG
1070
     1
1071
       14
1005
126432
  0
LINE
  5
126433
  8
OBJECT
 10
8093.5403625519502
 20
-1175.5000000000009
 30
0.0
 11
7906.4596374480498
 21
-1175.5000000000009
 31
0.0
1001
ACDBBLOCKREPETAG
1070
     1
1071
       15
1005
126433
  0
LINE
  5
126434
  8
OBJECT
 10
8005.9999999999982
 20
-1206.999999999998
 30
0.0
 11
8005.9999999999982
 21
-1201.5000000000009
 31
0.0
1001
ACDBBLOCKREPETAG
1070
     1
1071
       16
1005
126434
  0
LINE
  5
126435
  8
OBJECT
 10
7993.9999999999973
 20
-1206.999999999998
 30
0.0
 11
7993.9999999999973
 21
-1201.5000000000009
 31
0.0
1001
ACDBBLOCKREPETAG
1070
     1
1071
       17
1005
126435
  0
LINE
  5
126436
  8
OBJECT
 10
7993.9999999999973
 20
-1206.999999999998
 30
0.0
 11
8005.9999999999982
 21
-1206.999999999998
 31
0.0
1001
ACDBBLOCKREPETAG
1070
     1
1071
       18
1005
126436
  0
LINE
  5
126437
  8
OBJECT
 10
7993.9999999999973
 20
-1175.5000000000009
 30
0.0
 11
7993.9999999999973
 21
-1164.9999999999991
 31
0.0
1001
ACDBBLOCKREPETAG
1070
     1
1071
       19
1005
126437
  0
LINE
  5
126438
  8
OBJECT
 10
8005.9999999999982
 20
-1175.5000000000009
 30
0.0
 11
8005.9999999999982
 21
-1164.9999999999991
 31
0.0
1001
ACDBBLOCKREPETAG
1070
     1
1071
       20
1005
126438
  0
LINE
  5
126439
  8
OBJECT
 10
8016.4999999999982
 20
-1144.499999999998
 30
0.0
 11
8016.4999999999982
 21
-1146.999999999998
 31
0.0
1001
ACDBBLOCKREPETAG
1070
     1
1071
       21
1005
126439
  0
LINE
  5
12643A
  8
OBJECT
 10
7989.9999999999982
 20
-1141.0
 30
0.0
 11
7989.9999999999982
 21
-1146.999999999998
 31
0.0
1001
ACDBBLOCKREPETAG
1070
     1
1071
       22
1005
12643A
  0
LINE
  5
12643B
  8
OBJECT
 10
8008.4999999999973
 20
-1141.0
 30
0.0
 11
7989.9999999999982
 21
-1141.0
 31
0.0
1001
ACDBBLOCKREPETAG
1070
     1
1071
       23
1005
12643B
  0
LINE
  5
12643C
  8
OBJECT
 10
8093.5403615519499
 20
-1146.999999999998
 30
0.0
 11
7906.4596374480461
 21
-1146.999999999998
 31
0.0
1001
ACDBBLOCKREPETAG
1070
     1
1071
       24
1005
12643C
  0
LINE
  5
12643D
  8
OBJECT
 10
8016.4999999999982
 20
-1144.499999999998
 30
0.0
 11
8008.4999999999973
 21
-1141.0
 31
0.0
1001
ACDBBLOCKREPETAG
1070
     1
1071
       25
1005
12643D
  0
LINE
  5
12643E
  8
HIDDEN
 10
7930.0
 20
-1125.0
 30
0.0
 11
8070.0
 21
-1125.0
 31
0.0
1001
ACDBBLOCKREPETAG
1070
     1
1071
       26
1005
12643E
  0
LINE
  5
12643F
  8
CENTER
 10
8000.0
 20
-814.99999999999955
 30
0.0
 11
8000.0
 21
-1221.999999999997
 31
0.0
1001
ACDBBLOCKREPETAG
1070
     1
1071
       27
1005
12643F
  0
LINE
  5
126440
  8
OBJECT
 10
7918.5
 20
-1164.9999999999991
 30
0.0
 11
7918.5
 21
-1175.5000000000009
 31
0.0
1001
ACDBBLOCKREPETAG
1070
     1
1071
       28
1005
126440
  0
LINE
  5
126441
  8
OBJECT
 10
8081.5
 20
-1164.9999999999991
 30
0.0
 11
8081.5
 21
-1175.5000000000009
 31
0.0
1001
ACDBBLOCKREPETAG
1070
     1
1071
       29
1005
126441
  0
LINE
  5
126442
  8
OBJECT
 10
7930.0
 20
-1049.9999999999991
 30
0.0
 11
7930.0
 21
-1113.9999999999991
 31
0.0
1001
ACDBBLOCKREPETAG
1070
     1
1071
       30
1005
126442
  0
LINE
  5
126443
  8
OBJECT
 10
8070.0
 20
-1049.9999999999991
 30
0.0
 11
8070.0
 21
-1113.9999999999991
 31
0.0
1001
ACDBBLOCKREPETAG
1070
     1
1071
       31
1005
126443
  0
LINE
  5
126444
  8
OBJECT
 10
7930.0
 20
-1049.9999999999991
 30
0.0
 11
8070.0
 21
-1049.9999999999991
 31
0.0
1001
ACDBBLOCKREPETAG
1070
     1
1071
       32
1005
126444
  0
LINE
  5
126445
  8
OBJECT
 10
7919.4999999999982
 20
-1113.9999999999991
 30
0.0
 11
8080.5000000000036
 21
-1113.9999999999991
 31
0.0
1001
ACDBBLOCKREPETAG
1070
     1
1071
       33
1005
126445
  0
LINE
  5
126446
  8
OBJECT
 10
7907.5
 20
-889.99999999999955
 30
0.0
 11
7907.5
 21
-814.99999999999955
 31
0.0
1001
ACDBBLOCKREPETAG
1070
     1
1071
       34
1005
126446
  0
LINE
  5
126447
  8
OBJECT
 10
8092.4999999999973
 20
-889.99999999999955
 30
0.0
 11
7907.5
 21
-889.99999999999955
 31
0.0
1001
ACDBBLOCKREPETAG
1070
     1
1071
       35
1005
126447
  0
LINE
  5
126448
  8
OBJECT
 10
7907.5
 20
-889.99999999999955
 30
0.0
 11
7930.0
 21
-1049.9999999999991
 31
0.0
1001
ACDBBLOCKREPETAG
1070
     1
1071
       36
1005
126448
  0
LINE
  5
126449
  8
OBJECT
 10
8070.0
 20
-1049.9999999999991
 30
0.0
 11
8092.4999999999973
 21
-889.99999999999955
 31
0.0
1001
ACDBBLOCKREPETAG
1070
     1
1071
       37
1005
126449
  0
LINE
  5
12644A
  8
OBJECT
 10
8080.5
 20
-1113.9999999999991
 30
0.0
 11
8080.5
 21
-1146.999999999998
 31
0.0
1001
ACDBBLOCKREPETAG
1070
     1
1071
       38
1005
12644A
  0
LINE
  5
12644B
  8
OBJECT
 10
7919.5000000000027
 20
-1113.9999999999991
 30
0.0
 11
7919.5000000000027
 21
-1146.999999999998
 31
0.0
1001
ACDBBLOCKREPETAG
1070
     1
1071
       39
1005
12644B
  0
LINE
  5
12644C
  8
OBJECT
 10
8010.9696549999944
 20
-1191.5
 30
0.0
 11
8010.9696549999944
 21
-1201.5000000000009
 31
0.0
1001
ACDBBLOCKREPETAG
1070
     1
1071
       40
1005
12644C
  0
LINE
  5
12644D
  8
OBJECT
 10
8005.4848269999939
 20
-1191.5
 30
0.0
 11
8005.4848269999939
 21
-1201.5000000000009
 31
0.0
1001
ACDBBLOCKREPETAG
1070
     1
1071
       41
1005
12644D
  0
LINE
  5
12644E
  8
OBJECT
 10
7994.5151719999976
 20
-1191.5
 30
0.0
 11
7994.5151719999976
 21
-1201.5000000000009
 31
0.0
1001
ACDBBLOCKREPETAG
1070
     1
1071
       42
1005
12644E
  0
LINE
  5
12644F
  8
OBJECT
 10
7989.0303449999947
 20
-1191.5
 30
0.0
 11
7989.0303449999947
 21
-1201.5000000000009
 31
0.0
1001
ACDBBLOCKREPETAG
1070
     1
1071
       43
1005
12644F
  0
LINE
  5
126450
  8
OBJECT
 10
7989.0303449999947
 20
-1201.5000000000009
 30
0.0
 11
8010.9696549999944
 21
-1201.5000000000009
 31
0.0
1001
ACDBBLOCKREPETAG
1070
     1
1071
       44
1005
126450
  0
LINE
  5
126451
  8
OBJECT
 10
7906.4596374480461
 20
-1146.999999999998
 30
0.0
 11
7906.4596374480461
 21
-1164.9999999999991
 31
0.0
1001
ACDBBLOCKREPETAG
1070
     1
1071
       45
1005
126451
  0
LINE
  5
126452
  8
OBJECT
 10
7906.4596374480498
 20
-1175.5000000000009
 30
0.0
 11
7906.4596374480498
 21
-1191.5
 31
0.0
1001
ACDBBLOCKREPETAG
1070
     1
1071
       46
1005
126452
  0
LINE
  5
126453
  8
OBJECT
 10
8093.540362551953
 20
-1146.999999999998
 30
0.0
 11
8093.540362551953
 21
-1164.9999999999991
 31
0.0
1001
ACDBBLOCKREPETAG
1070
     1
1071
       47
1005
126453
  0
LINE
  5
126454
  8
OBJECT
 10
8093.5403625519502
 20
-1175.5000000000009
 30
0.0
 11
8093.5403625519502
 21
-1191.5
 31
0.0
1001
ACDBBLOCKREPETAG
1070
     1
1071
       48
1005
126454
  0
LINE
  5
126455
  8
OBJECT
 10
7925.4596374480407
 20
-1206.999999999998
 30
0.0
 11
7925.4596374480407
 21
-1201.5000000000009
 31
0.0
1001
ACDBBLOCKREPETAG
1070
     1
1071
       49
1005
126455
  0
LINE
  5
126456
  8
OBJECT
 10
7913.4596374480416
 20
-1206.999999999998
 30
0.0
 11
7913.4596374480416
 21
-1201.5000000000009
 31
0.0
1001
ACDBBLOCKREPETAG
1070
     1
1071
       50
1005
126456
  0
LINE
  5
126457
  8
OBJECT
 10
7913.4596374480416
 20
-1206.999999999998
 30
0.0
 11
7925.4596374480407
 21
-1206.999999999998
 31
0.0
1001
ACDBBLOCKREPETAG
1070
     1
1071
       51
1005
126457
  0
LINE
  5
126458
  8
OBJECT
 10
7913.4596374480416
 20
-1175.5000000000009
 30
0.0
 11
7913.4596374480416
 21
-1164.9999999999991
 31
0.0
1001
ACDBBLOCKREPETAG
1070
     1
1071
       52
1005
126458
  0
LINE
  5
126459
  8
OBJECT
 10
7930.4292924480387
 20
-1191.5
 30
0.0
 11
7930.4292924480387
 21
-1201.5000000000009
 31
0.0
1001
ACDBBLOCKREPETAG
1070
     1
1071
       53
1005
126459
  0
LINE
  5
12645A
  8
OBJECT
 10
7924.9444644480382
 20
-1191.5
 30
0.0
 11
7924.9444644480382
 21
-1201.5000000000009
 31
0.0
1001
ACDBBLOCKREPETAG
1070
     1
1071
       54
1005
12645A
  0
LINE
  5
12645B
  8
OBJECT
 10
7913.9748094480419
 20
-1191.5
 30
0.0
 11
7913.9748094480419
 21
-1201.5000000000009
 31
0.0
1001
ACDBBLOCKREPETAG
1070
     1
1071
       55
1005
12645B
  0
LINE
  5
12645C
  8
OBJECT
 10
7908.4899824480417
 20
-1191.5
 30
0.0
 11
7908.4899824480417
 21
-1201.5000000000009
 31
0.0
1001
ACDBBLOCKREPETAG
1070
     1
1071
       56
1005
12645C
  0
LINE
  5
12645D
  8
OBJECT
 10
7908.4899824480417
 20
-1201.5000000000009
 30
0.0
 11
7930.4292924480387
 21
-1201.5000000000009
 31
0.0
1001
ACDBBLOCKREPETAG
1070
     1
1071
       57
1005
12645D
  0
LINE
  5
12645E
  8
OBJECT
 10
7911.4596374480443
 20
-1141.0
 30
0.0
 11
7911.4596374480443
 21
-1146.999999999998
 31
0.0
1001
ACDBBLOCKREPETAG
1070
     1
1071
       58
1005
12645E
  0
LINE
  5
12645F
  8
OBJECT
 10
7919.5000000000027
 20
-1141.0
 30
0.0
 11
7911.4596374480443
 21
-1141.0
 31
0.0
1001
ACDBBLOCKREPETAG
1070
     1
1071
       59
1005
12645F
  0
LINE
  5
126460
  8
OBJECT
 10
8074.5403625519548
 20
-1206.999999999998
 30
0.0
 11
8074.5403625519548
 21
-1201.5000000000009
 31
0.0
1001
ACDBBLOCKREPETAG
1070
     1
1071
       60
1005
126460
  0
LINE
  5
126461
  8
OBJECT
 10
8086.5403625519548
 20
-1206.999999999998
 30
0.0
 11
8086.5403625519548
 21
-1201.5000000000009
 31
0.0
1001
ACDBBLOCKREPETAG
1070
     1
1071
       61
1005
126461
  0
LINE
  5
126462
  8
OBJECT
 10
8086.5403625519548
 20
-1206.999999999998
 30
0.0
 11
8074.5403625519548
 21
-1206.999999999998
 31
0.0
1001
ACDBBLOCKREPETAG
1070
     1
1071
       62
1005
126462
  0
LINE
  5
126463
  8
OBJECT
 10
8086.5403625519548
 20
-1175.5000000000009
 30
0.0
 11
8086.5403625519548
 21
-1164.9999999999991
 31
0.0
1001
ACDBBLOCKREPETAG
1070
     1
1071
       63
1005
126463
  0
LINE
  5
126464
  8
OBJECT
 10
8069.5707075519604
 20
-1191.5
 30
0.0
 11
8069.5707075519604
 21
-1201.5000000000009
 31
0.0
1001
ACDBBLOCKREPETAG
1070
     1
1071
       64
1005
126464
  0
LINE
  5
126465
  8
OBJECT
 10
8075.0555355519591
 20
-1191.5
 30
0.0
 11
8075.0555355519591
 21
-1201.5000000000009
 31
0.0
1001
ACDBBLOCKREPETAG
1070
     1
1071
       65
1005
126465
  0
LINE
  5
126466
  8
OBJECT
 10
8086.0251905519572
 20
-1191.5
 30
0.0
 11
8086.0251905519572
 21
-1201.5000000000009
 31
0.0
1001
ACDBBLOCKREPETAG
1070
     1
1071
       66
1005
126466
  0
LINE
  5
126467
  8
OBJECT
 10
8091.5100175519592
 20
-1191.5
 30
0.0
 11
8091.5100175519592
 21
-1201.5000000000009
 31
0.0
1001
ACDBBLOCKREPETAG
1070
     1
1071
       67
1005
126467
  0
LINE
  5
126468
  8
OBJECT
 10
8091.5100175519592
 20
-1201.5000000000009
 30
0.0
 11
8069.5707075519604
 21
-1201.5000000000009
 31
0.0
1001
ACDBBLOCKREPETAG
1070
     1
1071
       68
1005
126468
  0
LINE
  5
126469
  8
OBJECT
 10
8088.5403625519584
 20
-1141.0
 30
0.0
 11
8088.5403625519584
 21
-1146.999999999998
 31
0.0
1001
ACDBBLOCKREPETAG
1070
     1
1071
       69
1005
126469
  0
LINE
  5
12646A
  8
OBJECT
 10
8080.5
 20
-1141.0
 30
0.0
 11
8088.5403625519584
 21
-1141.0
 31
0.0
1001
ACDBBLOCKREPETAG
1070
     1
1071
       70
1005
12646A
  0
LINE
  5
12646B
  8
OBJECT
 10
5930.0
 20
-1049.9999999999991
 30
0.0
 11
5930.0
 21
-1164.9999999999991
 31
0.0
1001
ACDBBLOCKREPETAG
1070
     1
1071
        0
1005
12646B
  0
LINE
  5
12646C
  8
OBJECT
 10
5930.0
 20
-1049.9999999999991
 30
0.0
 11
6070.0
 21
-1049.9999999999991
 31
0.0
1001
ACDBBLOCKREPETAG
1070
     1
1071
        1
1005
12646C
  0
LINE
  5
12646D
  8
OBJECT
 10
6092.5000000000009
 20
-889.99999999999955
 30
0.0
 11
5907.5
 21
-889.99999999999955
 31
0.0
1001
ACDBBLOCKREPETAG
1070
     1
1071
        2
1005
12646D
  0
LINE
  5
12646E
  8
OBJECT
 10
6092.5000000000009
 20
-889.99999999999955
 30
0.0
 11
6092.5000000000009
 21
-814.99999999999955
 31
0.0
1001
ACDBBLOCKREPETAG
1070
     1
1071
        3
1005
12646E
  0
LINE
  5
12646F
  8
OBJECT
 10
5907.5
 20
-889.99999999999955
 30
0.0
 11
5907.5
 21
-814.99999999999955
 31
0.0
1001
ACDBBLOCKREPETAG
1070
     1
1071
        4
1005
12646F
  0
LINE
  5
126470
  8
OBJECT
 10
5930.0
 20
-1164.9999999999991
 30
0.0
 11
6070.0
 21
-1164.9999999999991
 31
0.0
1001
ACDBBLOCKREPETAG
1070
     1
1071
        5
1005
126470
  0
LINE
  5
126471
  8
OBJECT
 10
6070.0
 20
-1049.9999999999991
 30
0.0
 11
6070.0
 21
-1164.9999999999991
 31
0.0
1001
ACDBBLOCKREPETAG
1070
     1
1071
        6
1005
126471
  0
LINE
  5
126472
  8
OBJECT
 10
5907.5
 20
-889.99999999999955
 30
0.0
 11
5930.0
 21
-1049.9999999999991
 31
0.0
1001
ACDBBLOCKREPETAG
1070
     1
1071
        7
1005
126472
  0
LINE
  5
126473
  8
OBJECT
 10
6070.0
 20
-1049.9999999999991
 30
0.0
 11
6092.5000000000009
 21
-889.99999999999955
 31
0.0
1001
ACDBBLOCKREPETAG
1070
     1
1071
        8
1005
126473
  0
LINE
  5
126474
  8
HIDDEN
 10
5937.5
 20
-1049.9999999999991
 30
0.0
 11
5937.5
 21
-1164.9999999999991
 31
0.0
1001
ACDBBLOCKREPETAG
1070
     1
1071
        9
1005
126474
  0
LINE
  5
126475
  8
HIDDEN
 10
6062.5
 20
-1049.9999999999991
 30
0.0
 11
6062.5
 21
-1164.9999999999991
 31
0.0
1001
ACDBBLOCKREPETAG
1070
     1
1071
       10
1005
126475
  0
LINE
  5
126476
  8
CENTER
 10
6000.0
 20
-814.99999999999955
 30
0.0
 11
6000.0
 21
-1179.9999999999991
 31
0.0
1001
ACDBBLOCKREPETAG
1070
     1
1071
       11
1005
126476
  0
LINE
  5
126477
  8
OBJECT
 10
4092.5
 20
-889.99999999999955
 30
0.0
 11
4092.5
 21
-814.99999999999955
 31
0.0
1001
ACDBBLOCKREPETAG
1070
     1
1071
       12
1005
126477
  0
LINE
  5
126478
  8
OBJECT
 10
4093.5403615519499
 20
-1164.9999999999991
 30
0.0
 11
3906.4596374480461
 21
-1164.9999999999991
 31
0.0
1001
ACDBBLOCKREPETAG
1070
     1
1071
       13
1005
126478
  0
LINE
  5
126479
  8
OBJECT
 10
3906.4596374480502
 20
-1191.5
 30
0.0
 11
4093.5403625519511
 21
-1191.5
 31
0.0
1001
ACDBBLOCKREPETAG
1070
     1
1071
       14
1005
126479
  0
LINE
  5
12647A
  8
OBJECT
 10
4093.5403625519511
 20
-1175.5000000000009
 30
0.0
 11
3906.4596374480502
 21
-1175.5000000000009
 31
0.0
1001
ACDBBLOCKREPETAG
1070
     1
1071
       15
1005
12647A
  0
LINE
  5
12647B
  8
OBJECT
 10
4005.999999999995
 20
-1206.999999999998
 30
0.0
 11
4005.999999999995
 21
-1201.5000000000009
 31
0.0
1001
ACDBBLOCKREPETAG
1070
     1
1071
       16
1005
12647B
  0
LINE
  5
12647C
  8
OBJECT
 10
3993.9999999999959
 20
-1206.999999999998
 30
0.0
 11
3993.9999999999959
 21
-1201.5000000000009
 31
0.0
1001
ACDBBLOCKREPETAG
1070
     1
1071
       17
1005
12647C
  0
LINE
  5
12647D
  8
OBJECT
 10
3993.9999999999959
 20
-1206.999999999998
 30
0.0
 11
4005.999999999995
 21
-1206.999999999998
 31
0.0
1001
ACDBBLOCKREPETAG
1070
     1
1071
       18
1005
12647D
  0
LINE
  5
12647E
  8
OBJECT
 10
3993.9999999999959
 20
-1175.5000000000009
 30
0.0
 11
3993.9999999999959
 21
-1164.9999999999991
 31
0.0
1001
ACDBBLOCKREPETAG
1070
     1
1071
       19
1005
12647E
  0
LINE
  5
12647F
  8
OBJECT
 10
4005.999999999995
 20
-1175.5000000000009
 30
0.0
 11
4005.999999999995
 21
-1164.9999999999991
 31
0.0
1001
ACDBBLOCKREPETAG
1070
     1
1071
       20
1005
12647F
  0
LINE
  5
126480
  8
OBJECT
 10
4016.4999999999959
 20
-1144.499999999998
 30
0.0
 11
4016.4999999999959
 21
-1146.999999999998
 31
0.0
1001
ACDBBLOCKREPETAG
1070
     1
1071
       21
1005
126480
  0
LINE
  5
126481
  8
OBJECT
 10
3989.9999999999968
 20
-1141.0
 30
0.0
 11
3989.9999999999968
 21
-1146.999999999998
 31
0.0
1001
ACDBBLOCKREPETAG
1070
     1
1071
       22
1005
126481
  0
LINE
  5
126482
  8
OBJECT
 10
4008.4999999999968
 20
-1141.0
 30
0.0
 11
3989.9999999999968
 21
-1141.0
 31
0.0
1001
ACDBBLOCKREPETAG
1070
     1
1071
       23
1005
126482
  0
LINE
  5
126483
  8
OBJECT
 10
4093.5403615519499
 20
-1146.999999999998
 30
0.0
 11
3906.4596374480461
 21
-1146.999999999998
 31
0.0
1001
ACDBBLOCKREPETAG
1070
     1
1071
       24
1005
126483
  0
LINE
  5
126484
  8
OBJECT
 10
4016.4999999999959
 20
-1144.499999999998
 30
0.0
 11
4008.4999999999968
 21
-1141.0
 31
0.0
1001
ACDBBLOCKREPETAG
1070
     1
1071
       25
1005
126484
  0
LINE
  5
126485
  8
HIDDEN
 10
3930.0
 20
-1125.0
 30
0.0
 11
4070.0
 21
-1125.0
 31
0.0
1001
ACDBBLOCKREPETAG
1070
     1
1071
       26
1005
126485
  0
LINE
  5
126486
  8
CENTER
 10
4000.0
 20
-814.99999999999955
 30
0.0
 11
4000.0
 21
-1221.999999999997
 31
0.0
1001
ACDBBLOCKREPETAG
1070
     1
1071
       27
1005
126486
  0
LINE
  5
126487
  8
OBJECT
 10
3918.5
 20
-1164.9999999999991
 30
0.0
 11
3918.5
 21
-1175.5000000000009
 31
0.0
1001
ACDBBLOCKREPETAG
1070
     1
1071
       28
1005
126487
  0
LINE
  5
126488
  8
OBJECT
 10
4081.5
 20
-1164.9999999999991
 30
0.0
 11
4081.5
 21
-1175.5000000000009
 31
0.0
1001
ACDBBLOCKREPETAG
1070
     1
1071
       29
1005
126488
  0
LINE
  5
126489
  8
OBJECT
 10
3930.0
 20
-1049.9999999999991
 30
0.0
 11
3930.0
 21
-1113.9999999999991
 31
0.0
1001
ACDBBLOCKREPETAG
1070
     1
1071
       30
1005
126489
  0
LINE
  5
12648A
  8
OBJECT
 10
4070.0
 20
-1049.9999999999991
 30
0.0
 11
4070.0
 21
-1113.9999999999991
 31
0.0
1001
ACDBBLOCKREPETAG
1070
     1
1071
       31
1005
12648A
  0
LINE
  5
12648B
  8
OBJECT
 10
3930.0
 20
-1049.9999999999991
 30
0.0
 11
4070.0
 21
-1049.9999999999991
 31
0.0
1001
ACDBBLOCKREPETAG
1070
     1
1071
       32
1005
12648B
  0
LINE
  5
12648C
  8
OBJECT
 10
3919.4999999999968
 20
-1113.9999999999991
 30
0.0
 11
4080.5000000000032
 21
-1113.9999999999991
 31
0.0
1001
ACDBBLOCKREPETAG
1070
     1
1071
       33
1005
12648C
  0
LINE
  5
12648D
  8
OBJECT
 10
3907.5
 20
-889.99999999999955
 30
0.0
 11
3907.5
 21
-814.99999999999955
 31
0.0
1001
ACDBBLOCKREPETAG
1070
     1
1071
       34
1005
12648D
  0
LINE
  5
12648E
  8
OBJECT
 10
4092.5
 20
-889.99999999999955
 30
0.0
 11
3907.5
 21
-889.99999999999955
 31
0.0
1001
ACDBBLOCKREPETAG
1070
     1
1071
       35
1005
12648E
  0
LINE
  5
12648F
  8
OBJECT
 10
3907.5
 20
-889.99999999999955
 30
0.0
 11
3930.0
 21
-1049.9999999999991
 31
0.0
1001
ACDBBLOCKREPETAG
1070
     1
1071
       36
1005
12648F
  0
LINE
  5
126490
  8
OBJECT
 10
4070.0
 20
-1049.9999999999991
 30
0.0
 11
4092.5
 21
-889.99999999999955
 31
0.0
1001
ACDBBLOCKREPETAG
1070
     1
1071
       37
1005
126490
  0
LINE
  5
126491
  8
OBJECT
 10
4080.4999999999982
 20
-1113.9999999999991
 30
0.0
 11
4080.4999999999982
 21
-1146.999999999998
 31
0.0
1001
ACDBBLOCKREPETAG
1070
     1
1071
       38
1005
126491
  0
LINE
  5
126492
  8
OBJECT
 10
3919.5
 20
-1113.9999999999991
 30
0.0
 11
3919.5
 21
-1146.999999999998
 31
0.0
1001
ACDBBLOCKREPETAG
1070
     1
1071
       39
1005
126492
  0
LINE
  5
126493
  8
OBJECT
 10
4010.969654999994
 20
-1191.5
 30
0.0
 11
4010.969654999994
 21
-1201.5000000000009
 31
0.0
1001
ACDBBLOCKREPETAG
1070
     1
1071
       40
1005
126493
  0
LINE
  5
126494
  8
OBJECT
 10
4005.484826999992
 20
-1191.5
 30
0.0
 11
4005.484826999992
 21
-1201.5000000000009
 31
0.0
1001
ACDBBLOCKREPETAG
1070
     1
1071
       41
1005
126494
  0
LINE
  5
126495
  8
OBJECT
 10
3994.5151719999958
 20
-1191.5
 30
0.0
 11
3994.5151719999958
 21
-1201.5000000000009
 31
0.0
1001
ACDBBLOCKREPETAG
1070
     1
1071
       42
1005
126495
  0
LINE
  5
126496
  8
OBJECT
 10
3989.030344999996
 20
-1191.5
 30
0.0
 11
3989.030344999996
 21
-1201.5000000000009
 31
0.0
1001
ACDBBLOCKREPETAG
1070
     1
1071
       43
1005
126496
  0
LINE
  5
126497
  8
OBJECT
 10
3989.030344999996
 20
-1201.5000000000009
 30
0.0
 11
4010.969654999994
 21
-1201.5000000000009
 31
0.0
1001
ACDBBLOCKREPETAG
1070
     1
1071
       44
1005
126497
  0
LINE
  5
126498
  8
OBJECT
 10
3906.4596374480461
 20
-1146.999999999998
 30
0.0
 11
3906.4596374480461
 21
-1164.9999999999991
 31
0.0
1001
ACDBBLOCKREPETAG
1070
     1
1071
       45
1005
126498
  0
LINE
  5
126499
  8
OBJECT
 10
3906.4596374480502
 20
-1175.5000000000009
 30
0.0
 11
3906.4596374480502
 21
-1191.5
 31
0.0
1001
ACDBBLOCKREPETAG
1070
     1
1071
       46
1005
126499
  0
LINE
  5
12649A
  8
OBJECT
 10
4093.5403625519539
 20
-1146.999999999998
 30
0.0
 11
4093.5403625519539
 21
-1164.9999999999991
 31
0.0
1001
ACDBBLOCKREPETAG
1070
     1
1071
       47
1005
12649A
  0
LINE
  5
12649B
  8
OBJECT
 10
4093.5403625519511
 20
-1175.5000000000009
 30
0.0
 11
4093.5403625519511
 21
-1191.5
 31
0.0
1001
ACDBBLOCKREPETAG
1070
     1
1071
       48
1005
12649B
  0
LINE
  5
12649C
  8
OBJECT
 10
3925.4596374480429
 20
-1206.999999999998
 30
0.0
 11
3925.4596374480429
 21
-1201.5000000000009
 31
0.0
1001
ACDBBLOCKREPETAG
1070
     1
1071
       49
1005
12649C
  0
LINE
  5
12649D
  8
OBJECT
 10
3913.459637448042
 20
-1206.999999999998
 30
0.0
 11
3913.459637448042
 21
-1201.5000000000009
 31
0.0
1001
ACDBBLOCKREPETAG
1070
     1
1071
       50
1005
12649D
  0
LINE
  5
12649E
  8
OBJECT
 10
3913.459637448042
 20
-1206.999999999998
 30
0.0
 11
3925.4596374480429
 21
-1206.999999999998
 31
0.0
1001
ACDBBLOCKREPETAG
1070
     1
1071
       51
1005
12649E
  0
LINE
  5
12649F
  8
OBJECT
 10
3913.459637448042
 20
-1175.5000000000009
 30
0.0
 11
3913.459637448042
 21
-1164.9999999999991
 31
0.0
1001
ACDBBLOCKREPETAG
1070
     1
1071
       52
1005
12649F
  0
LINE
  5
1264A0
  8
OBJECT
 10
3930.4292924480401
 20
-1191.5
 30
0.0
 11
3930.4292924480401
 21
-1201.5000000000009
 31
0.0
1001
ACDBBLOCKREPETAG
1070
     1
1071
       53
1005
1264A0
  0
LINE
  5
1264A1
  8
OBJECT
 10
3924.9444644480391
 20
-1191.5
 30
0.0
 11
3924.9444644480391
 21
-1201.5000000000009
 31
0.0
1001
ACDBBLOCKREPETAG
1070
     1
1071
       54
1005
1264A1
  0
LINE
  5
1264A2
  8
OBJECT
 10
3913.9748094480419
 20
-1191.5
 30
0.0
 11
3913.9748094480419
 21
-1201.5000000000009
 31
0.0
1001
ACDBBLOCKREPETAG
1070
     1
1071
       55
1005
1264A2
  0
LINE
  5
1264A3
  8
OBJECT
 10
3908.4899824480422
 20
-1191.5
 30
0.0
 11
3908.4899824480422
 21
-1201.5000000000009
 31
0.0
1001
ACDBBLOCKREPETAG
1070
     1
1071
       56
1005
1264A3
  0
LINE
  5
1264A4
  8
OBJECT
 10
3908.4899824480422
 20
-1201.5000000000009
 30
0.0
 11
3930.4292924480401
 21
-1201.5000000000009
 31
0.0
1001
ACDBBLOCKREPETAG
1070
     1
1071
       57
1005
1264A4
  0
LINE
  5
1264A5
  8
OBJECT
 10
3911.4596374480429
 20
-1141.0
 30
0.0
 11
3911.4596374480429
 21
-1146.999999999998
 31
0.0
1001
ACDBBLOCKREPETAG
1070
     1
1071
       58
1005
1264A5
  0
LINE
  5
1264A6
  8
OBJECT
 10
3919.5
 20
-1141.0
 30
0.0
 11
3911.4596374480429
 21
-1141.0
 31
0.0
1001
ACDBBLOCKREPETAG
1070
     1
1071
       59
1005
1264A6
  0
LINE
  5
1264A7
  8
OBJECT
 10
4074.540362551958
 20
-1206.999999999998
 30
0.0
 11
4074.540362551958
 21
-1201.5000000000009
 31
0.0
1001
ACDBBLOCKREPETAG
1070
     1
1071
       60
1005
1264A7
  0
LINE
  5
1264A8
  8
OBJECT
 10
4086.5403625519562
 20
-1206.999999999998
 30
0.0
 11
4086.5403625519562
 21
-1201.5000000000009
 31
0.0
1001
ACDBBLOCKREPETAG
1070
     1
1071
       61
1005
1264A8
  0
LINE
  5
1264A9
  8
OBJECT
 10
4086.5403625519562
 20
-1206.999999999998
 30
0.0
 11
4074.540362551958
 21
-1206.999999999998
 31
0.0
1001
ACDBBLOCKREPETAG
1070
     1
1071
       62
1005
1264A9
  0
LINE
  5
1264AA
  8
OBJECT
 10
4086.5403625519562
 20
-1175.5000000000009
 30
0.0
 11
4086.5403625519562
 21
-1164.9999999999991
 31
0.0
1001
ACDBBLOCKREPETAG
1070
     1
1071
       63
1005
1264AA
  0
LINE
  5
1264AB
  8
OBJECT
 10
4069.570707551959
 20
-1191.5
 30
0.0
 11
4069.570707551959
 21
-1201.5000000000009
 31
0.0
1001
ACDBBLOCKREPETAG
1070
     1
1071
       64
1005
1264AB
  0
LINE
  5
1264AC
  8
OBJECT
 10
4075.05553555196
 20
-1191.5
 30
0.0
 11
4075.05553555196
 21
-1201.5000000000009
 31
0.0
1001
ACDBBLOCKREPETAG
1070
     1
1071
       65
1005
1264AC
  0
LINE
  5
1264AD
  8
OBJECT
 10
4086.0251905519581
 20
-1191.5
 30
0.0
 11
4086.0251905519581
 21
-1201.5000000000009
 31
0.0
1001
ACDBBLOCKREPETAG
1070
     1
1071
       66
1005
1264AD
  0
LINE
  5
1264AE
  8
OBJECT
 10
4091.5100175519569
 20
-1191.5
 30
0.0
 11
4091.5100175519569
 21
-1201.5000000000009
 31
0.0
1001
ACDBBLOCKREPETAG
1070
     1
1071
       67
1005
1264AE
  0
LINE
  5
1264AF
  8
OBJECT
 10
4091.5100175519569
 20
-1201.5000000000009
 30
0.0
 11
4069.570707551959
 21
-1201.5000000000009
 31
0.0
1001
ACDBBLOCKREPETAG
1070
     1
1071
       68
1005
1264AF
  0
LINE
  5
1264B0
  8
OBJECT
 10
4088.540362551958
 20
-1141.0
 30
0.0
 11
4088.540362551958
 21
-1146.999999999998
 31
0.0
1001
ACDBBLOCKREPETAG
1070
     1
1071
       69
1005
1264B0
  0
LINE
  5
1264B1
  8
OBJECT
 10
4080.4999999999982
 20
-1141.0
 30
0.0
 11
4088.540362551958
 21
-1141.0
 31
0.0
1001
ACDBBLOCKREPETAG
1070
     1
1071
       70
1005
1264B1
  0
LINE
  5
1264B2
  8
OBJECT
 10
1930.0
 20
-1049.9999999999991
 30
0.0
 11
1930.0
 21
-1164.9999999999991
 31
0.0
1001
ACDBBLOCKREPETAG
1070
     1
1071
        0
1005
1264B2
  0
LINE
  5
1264B3
  8
OBJECT
 10
1930.0
 20
-1049.9999999999991
 30
0.0
 11
2070.0
 21
-1049.9999999999991
 31
0.0
1001
ACDBBLOCKREPETAG
1070
     1
1071
        1
1005
1264B3
  0
LINE
  5
1264B4
  8
OBJECT
 10
2092.5
 20
-889.99999999999955
 30
0.0
 11
1907.5
 21
-889.99999999999955
 31
0.0
1001
ACDBBLOCKREPETAG
1070
     1
1071
        2
1005
1264B4
  0
LINE
  5
1264B5
  8
OBJECT
 10
2092.5
 20
-889.99999999999955
 30
0.0
 11
2092.5
 21
-814.99999999999955
 31
0.0
1001
ACDBBLOCKREPETAG
1070
     1
1071
        3
1005
1264B5
  0
LINE
  5
1264B6
  8
OBJECT
 10
1907.5
 20
-889.99999999999955
 30
0.0
 11
1907.5
 21
-814.99999999999955
 31
0.0
1001
ACDBBLOCKREPETAG
1070
     1
1071
        4
1005
1264B6
  0
LINE
  5
1264B7
  8
OBJECT
 10
1930.0
 20
-1164.9999999999991
 30
0.0
 11
2070.0
 21
-1164.9999999999991
 31
0.0
1001
ACDBBLOCKREPETAG
1070
     1
1071
        5
1005
1264B7
  0
LINE
  5
1264B8
  8
OBJECT
 10
2070.0
 20
-1049.9999999999991
 30
0.0
 11
2070.0
 21
-1164.9999999999991
 31
0.0
1001
ACDBBLOCKREPETAG
1070
     1
1071
        6
1005
1264B8
  0
LINE
  5
1264B9
  8
OBJECT
 10
1907.5
 20
-889.99999999999955
 30
0.0
 11
1930.0
 21
-1049.9999999999991
 31
0.0
1001
ACDBBLOCKREPETAG
1070
     1
1071
        7
1005
1264B9
  0
LINE
  5
1264BA
  8
OBJECT
 10
2070.0
 20
-1049.9999999999991
 30
0.0
 11
2092.5
 21
-889.99999999999955
 31
0.0
1001
ACDBBLOCKREPETAG
1070
     1
1071
        8
1005
1264BA
  0
LINE
  5
1264BB
  8
HIDDEN
 10
1937.5
 20
-1049.9999999999991
 30
0.0
 11
1937.5
 21
-1164.9999999999991
 31
0.0
1001
ACDBBLOCKREPETAG
1070
     1
1071
        9
1005
1264BB
  0
LINE
  5
1264BC
  8
HIDDEN
 10
2062.5
 20
-1049.9999999999991
 30
0.0
 11
2062.5
 21
-1164.9999999999991
 31
0.0
1001
ACDBBLOCKREPETAG
1070
     1
1071
       10
1005
1264BC
  0
LINE
  5
1264BD
  8
CENTER
 10
2000.0
 20
-814.99999999999955
 30
0.0
 11
2000.0
 21
-1179.9999999999991
 31
0.0
1001
ACDBBLOCKREPETAG
1070
     1
1071
       11
1005
1264BD
  0
LINE
  5
1264BE
  8
OBJECT
 10
1897.0
 20
-528.99999999999761
 30
0.0
 11
1900.0
 21
-528.99999999999761
 31
0.0
1001
ACDBBLOCKREPETAG
1070
     1
1071
        1
1005
1264BE
  0
ARC
  5
1264BF
  8
OBJECT
 10
1897.0
 20
-531.99999999999773
 30
0.0
 40
3.0
 50
90.0
 51
180.0
1001
ACDBBLOCKREPETAG
1070
     1
1071
        2
1005
1264BF
  0
LINE
  5
1264C0
  8
OBJECT
 10
1900.0
 20
-652.99999999999761
 30
0.0
 11
1897.0
 21
-652.99999999999761
 31
0.0
1001
ACDBBLOCKREPETAG
1070
     1
1071
        3
1005
1264C0
  0
ARC
  5
1264C1
  8
OBJECT
 10
1897.0
 20
-649.99999999999761
 30
0.0
 40
3.0
 50
180.0
 51
270.0
1001
ACDBBLOCKREPETAG
1070
     1
1071
        4
1005
1264C1
  0
LINE
  5
1264C2
  8
OBJECT
 10
1894.0
 20
-649.99999999999761
 30
0.0
 11
1894.0
 21
-531.99999999999773
 31
0.0
1001
ACDBBLOCKREPETAG
1070
     1
1071
        5
1005
1264C2
  0
CIRCLE
  5
1264C3
  8
OBJECT
 10
2000.0
 20
-590.99999999999761
 30
0.0
 40
62.0
1001
ACDBBLOCKREPETAG
1070
     1
1071
        0
1005
1264C3
  0
LINE
  5
1264C4
  8
OBJECT
 10
2095.0
 20
-469.99999999999937
 30
0.0
 11
1905.0
 21
-469.99999999999937
 31
0.0
1001
ACDBBLOCKREPETAG
1070
     1
1071
        0
1005
1264C4
  0
LINE
  5
1264C5
  8
OBJECT
 10
2095.0
 20
-449.99999999999937
 30
0.0
 11
1905.0
 21
-449.99999999999937
 31
0.0
1001
ACDBBLOCKREPETAG
1070
     1
1071
        1
1005
1264C5
  0
LINE
  5
1264C6
  8
OBJECT
 10
1902.5
 20
-814.99999999999955
 30
0.0
 11
2097.5
 21
-814.99999999999955
 31
0.0
1001
ACDBBLOCKREPETAG
1070
     1
1071
        2
1005
1264C6
  0
LINE
  5
1264C7
  8
OBJECT
 10
1908.237046000002
 20
-449.99999999999937
 30
0.0
 11
1908.2370465822601
 21
-469.99999999999937
 31
0.0
1001
ACDBBLOCKREPETAG
1070
     1
1071
        3
1005
1264C7
  0
LINE
  5
1264C8
  8
OBJECT
 10
1905.0
 20
-449.99999999999937
 30
0.0
 11
1905.0
 21
-469.99999999999937
 31
0.0
1001
ACDBBLOCKREPETAG
1070
     1
1071
        4
1005
1264C8
  0
LINE
  5
1264C9
  8
OBJECT
 10
1916.024909
 20
-449.99999999999937
 30
0.0
 11
1916.024909
 21
-469.99999999999937
 31
0.0
1001
ACDBBLOCKREPETAG
1070
     1
1071
        5
1005
1264C9
  0
LINE
  5
1264CA
  8
OBJECT
 10
1967.6243270000009
 20
-449.99999999999937
 30
0.0
 11
1967.6243270000009
 21
-469.99999999999937
 31
0.0
1001
ACDBBLOCKREPETAG
1070
     1
1071
        6
1005
1264CA
  0
LINE
  5
1264CB
  8
OBJECT
 10
1975.4121899999991
 20
-449.99999999999937
 30
0.0
 11
1975.4121899999991
 21
-469.99999999999937
 31
0.0
1001
ACDBBLOCKREPETAG
1070
     1
1071
        7
1005
1264CB
  0
LINE
  5
1264CC
  8
OBJECT
 10
2024.587809000001
 20
-449.99999999999937
 30
0.0
 11
2024.587809000001
 21
-469.99999999999937
 31
0.0
1001
ACDBBLOCKREPETAG
1070
     1
1071
        8
1005
1264CC
  0
LINE
  5
1264CD
  8
OBJECT
 10
2032.3756720000019
 20
-449.99999999999937
 30
0.0
 11
2032.3756720000019
 21
-469.99999999999937
 31
0.0
1001
ACDBBLOCKREPETAG
1070
     1
1071
        9
1005
1264CD
  0
LINE
  5
1264CE
  8
OBJECT
 10
2083.9750910000012
 20
-449.99999999999937
 30
0.0
 11
2083.9750910000012
 21
-469.99999999999937
 31
0.0
1001
ACDBBLOCKREPETAG
1070
     1
1071
       10
1005
1264CE
  0
LINE
  5
1264CF
  8
OBJECT
 10
2091.762953999998
 20
-449.99999999999937
 30
0.0
 11
2091.7629534177431
 21
-469.99999999999937
 31
0.0
1001
ACDBBLOCKREPETAG
1070
     1
1071
       11
1005
1264CF
  0
LINE
  5
1264D0
  8
OBJECT
 10
2095.0
 20
-449.99999999999937
 30
0.0
 11
2095.0
 21
-469.99999999999937
 31
0.0
1001
ACDBBLOCKREPETAG
1070
     1
1071
       12
1005
1264D0
  0
LINE
  5
1264D1
  8
OBJECT
 10
2100.0
 20
-528.99999999999955
 30
0.0
 11
1900.0
 21
-528.99999999999955
 31
0.0
1001
ACDBBLOCKREPETAG
1070
     1
1071
       13
1005
1264D1
  0
LINE
  5
1264D2
  8
OBJECT
 10
2100.0
 20
-652.99999999999761
 30
0.0
 11
2092.5
 21
-652.99999999999761
 31
0.0
1001
ACDBBLOCKREPETAG
1070
     1
1071
       14
1005
1264D2
  0
LINE
  5
1264D3
  8
OBJECT
 10
1902.5
 20
-814.99999999999955
 30
0.0
 11
1902.5
 21
-802.99999999999784
 31
0.0
1001
ACDBBLOCKREPETAG
1070
     1
1071
       15
1005
1264D3
  0
LINE
  5
1264D4
  8
OBJECT
 10
2097.5
 20
-814.99999999999955
 30
0.0
 11
2097.5
 21
-802.99999999999784
 31
0.0
1001
ACDBBLOCKREPETAG
1070
     1
1071
       16
1005
1264D4
  0
LINE
  5
1264D5
  8
OBJECT
 10
1902.5
 20
-802.99999999999784
 30
0.0
 11
2097.5
 21
-802.99999999999784
 31
0.0
1001
ACDBBLOCKREPETAG
1070
     1
1071
       17
1005
1264D5
  0
LINE
  5
1264D6
  8
HIDDEN
 10
1930.0
 20
-524.99999999999955
 30
0.0
 11
2070.0
 21
-524.99999999999955
 31
0.0
1001
ACDBBLOCKREPETAG
1070
     1
1071
       18
1005
1264D6
  0
LINE
  5
1264D7
  8
CENTER
 10
2000.0
 20
-434.99999999999949
 30
0.0
 11
2000.0
 21
-814.99999999999955
 31
0.0
1001
ACDBBLOCKREPETAG
1070
     1
1071
       19
1005
1264D7
  0
LINE
  5
1264D8
  8
OBJECT
 10
2092.5
 20
-652.99999999999761
 30
0.0
 11
2092.5
 21
-802.99999999999784
 31
0.0
1001
ACDBBLOCKREPETAG
1070
     1
1071
       20
1005
1264D8
  0
LINE
  5
1264D9
  8
OBJECT
 10
1914.5
 20
-469.99999999999937
 30
0.0
 11
1914.5
 21
-528.99999999999955
 31
0.0
1001
ACDBBLOCKREPETAG
1070
     1
1071
       21
1005
1264D9
  0
LINE
  5
1264DA
  8
OBJECT
 10
2085.5
 20
-469.99999999999937
 30
0.0
 11
2085.5
 21
-528.99999999999955
 31
0.0
1001
ACDBBLOCKREPETAG
1070
     1
1071
       22
1005
1264DA
  0
POINT
  5
1264DB
  8
DOTS
 10
2000.0
 20
-649.99999999999955
 30
0.0
1001
ACDBBLOCKREPETAG
1070
     1
1071
       24
1005
1264DB
  0
LINE
  5
1264DC
  8
OBJECT
 10
1900.0
 20
-652.99999999999761
 30
0.0
 11
1907.5
 21
-652.99999999999761
 31
0.0
1001
ACDBBLOCKREPETAG
1070
     1
1071
       25
1005
1264DC
  0
LINE
  5
1264DD
  8
OBJECT
 10
1907.5
 20
-652.99999999999761
 30
0.0
 11
1907.5
 21
-802.99999999999784
 31
0.0
1001
ACDBBLOCKREPETAG
1070
     1
1071
       26
1005
1264DD
  0
ARC
  5
1264DE
  8
OBJECT
 10
2214.4155190291499
 20
-615.62073879202455
 30
0.0
 40
149.554492306393
 50
144.60628028468801
 51
164.2211863995189
1001
ACDBBLOCKREPETAG
1070
     1
1071
       28
1005
1264DE
  0
ARC
  5
1264DF
  8
OBJECT
 10
2139.1422781245269
 20
-590.99999999999761
 30
0.0
 40
70.496447952551449
 50
166.84269182358281
 51
193.1573081764171
1001
ACDBBLOCKREPETAG
1070
     1
1071
       29
1005
1264DF
  0
ARC
  5
1264E0
  8
OBJECT
 10
2214.4155190291499
 20
-566.3792612079701
 30
0.0
 40
149.55449230639621
 50
195.7788136004809
 51
215.3937197153119
1001
ACDBBLOCKREPETAG
1070
     1
1071
       30
1005
1264E0
  0
ARC
  5
1264E1
  8
OBJECT
 10
1785.5844809708501
 20
-615.62073879202455
 30
0.0
 40
149.554492306393
 50
15.77881360052846
 51
35.393719715228642
1001
ACDBBLOCKREPETAG
1070
     1
1071
       31
1005
1264E1
  0
ARC
  5
1264E2
  8
OBJECT
 10
1860.8577218754731
 20
-590.99999999999761
 30
0.0
 40
70.496447952551449
 50
346.84269182358292
 51
13.15730817641716
1001
ACDBBLOCKREPETAG
1070
     1
1071
       32
1005
1264E2
  0
ARC
  5
1264E3
  8
OBJECT
 10
1785.5844809708501
 20
-566.3792612079701
 30
0.0
 40
149.55449230639621
 50
324.60628028477117
 51
344.22118639947161
1001
ACDBBLOCKREPETAG
1070
     1
1071
       33
1005
1264E3
  0
LINE
  5
1264E4
  8
CENTER
 10
1878.9999999999959
 20
-199.99999999999909
 30
0.0
 11
1899.9999999999959
 21
-199.99999999999909
 31
0.0
1001
ACDBBLOCKREPETAG
1070
     1
1071
        0
1005
1264E4
  0
LINE
  5
1264E5
  8
OBJECT
 10
1896.9999999999959
 20
-261.99999999999909
 30
0.0
 11
1899.9999999999959
 21
-261.99999999999909
 31
0.0
1001
ACDBBLOCKREPETAG
1070
     1
1071
        1
1005
1264E5
  0
ARC
  5
1264E6
  8
OBJECT
 10
1896.9999999999959
 20
-258.99999999999909
 30
0.0
 40
3.0
 50
180.0
 51
270.0
1001
ACDBBLOCKREPETAG
1070
     1
1071
        2
1005
1264E6
  0
LINE
  5
1264E7
  8
OBJECT
 10
1899.9999999999959
 20
-137.99999999999909
 30
0.0
 11
1896.9999999999959
 21
-137.99999999999909
 31
0.0
1001
ACDBBLOCKREPETAG
1070
     1
1071
        3
1005
1264E7
  0
ARC
  5
1264E8
  8
OBJECT
 10
1896.9999999999959
 20
-140.99999999999909
 30
0.0
 40
3.0
 50
90.0
 51
180.0
1001
ACDBBLOCKREPETAG
1070
     1
1071
        4
1005
1264E8
  0
LINE
  5
1264E9
  8
OBJECT
 10
1893.9999999999959
 20
-140.99999999999909
 30
0.0
 11
1893.9999999999959
 21
-258.99999999999909
 31
0.0
1001
ACDBBLOCKREPETAG
1070
     1
1071
        5
1005
1264E9
  0
LINE
  5
1264EA
  8
CENTER
 10
2000.000000000003
 20
-320.99999999999898
 30
0.0
 11
2000.000000000003
 21
-299.99999999999898
 31
0.0
1001
ACDBBLOCKREPETAG
1070
     1
1071
        0
1005
1264EA
  0
LINE
  5
1264EB
  8
OBJECT
 10
2062.0000000000041
 20
-303.0
 30
0.0
 11
2062.0000000000041
 21
-299.99999999999898
 31
0.0
1001
ACDBBLOCKREPETAG
1070
     1
1071
        1
1005
1264EB
  0
ARC
  5
1264EC
  8
OBJECT
 10
2059.0000000000041
 20
-303.0
 30
0.0
 40
3.0
 50
270.0
 51
0.0
1001
ACDBBLOCKREPETAG
1070
     1
1071
        2
1005
1264EC
  0
LINE
  5
1264ED
  8
OBJECT
 10
1938.0000000000041
 20
-299.99999999999898
 30
0.0
 11
1938.0000000000041
 21
-302.99999999999818
 31
0.0
1001
ACDBBLOCKREPETAG
1070
     1
1071
        3
1005
1264ED
  0
ARC
  5
1264EE
  8
OBJECT
 10
1941.000000000003
 20
-302.99999999999818
 30
0.0
 40
3.0
 50
180.0
 51
270.0
1001
ACDBBLOCKREPETAG
1070
     1
1071
        4
1005
1264EE
  0
LINE
  5
1264EF
  8
OBJECT
 10
1941.000000000003
 20
-305.99999999999818
 30
0.0
 11
2059.0000000000041
 21
-306.0
 31
0.0
1001
ACDBBLOCKREPETAG
1070
     1
1071
        5
1005
1264EF
  0
ARC
  5
1264F0
  8
OBJECT
 10
1973.8931207053249
 20
-173.82438331578209
 30
0.0
 40
90.0
 50
274.21795726566182
 51
281.60300086770189
1001
ACDBBLOCKREPETAG
1070
     1
1071
        0
1005
1264F0
  0
LINE
  5
1264F1
  8
OBJECT
 10
1991.9947509999911
 20
-261.98520799999727
 30
0.0
 11
1996.6424319999919
 21
-248.3387539999994
 31
0.0
1001
ACDBBLOCKREPETAG
1070
     1
1071
       28
1005
1264F1
  0
LINE
  5
1264F2
  8
OBJECT
 10
1955.28879609768
 20
-207.0733020425842
 30
0.0
 11
1935.60541864211
 21
-216.60084009147889
 31
0.0
1001
ACDBBLOCKREPETAG
1070
     1
1071
       29
1005
1264F2
  0
LINE
  5
1264F3
  8
OBJECT
 10
1937.335063923862
 20
-222.25658973369261
 30
0.0
 11
1961.7560738851171
 21
-210.43584915155679
 31
0.0
1001
ACDBBLOCKREPETAG
1070
     1
1071
       30
1005
1264F3
  0
LINE
  5
1264F4
  8
OBJECT
 10
1996.6424319999919
 20
-248.3387539999994
 30
0.0
 11
1970.3289245926419
 21
-210.9660806555467
 31
0.0
1001
ACDBBLOCKREPETAG
1070
     1
1071
       31
1005
1264F4
  0
ARC
  5
1264F5
  8
OBJECT
 10
1960.51700480005
 20
-217.87449798398211
 30
0.0
 40
12.0
 50
35.148769561169452
 51
115.8288295732507
1001
ACDBBLOCKREPETAG
1070
     1
1071
      259
1005
1264F5
  0
ARC
  5
1264F6
  8
OBJECT
 10
1965.241546317978
 20
-217.63664646295089
 30
0.0
 40
8.0
 50
35.148769561169452
 51
115.8288292916689
1001
ACDBBLOCKREPETAG
1070
     1
1071
      260
1005
1264F6
  0
ARC
  5
1264F7
  8
OBJECT
 10
2000.0
 20
-199.99999999999909
 30
0.0
 40
90.0
 50
201.08359599996669
 51
248.9164040000301
1001
ACDBBLOCKREPETAG
1070
     1
1071
      268
1005
1264F7
  0
ARC
  5
1264F8
  8
OBJECT
 10
2000.0
 20
-199.99999999999909
 30
0.0
 40
90.0
 50
111.0835959999699
 51
158.9164034710258
1001
ACDBBLOCKREPETAG
1070
     1
1071
      269
1005
1264F8
  0
LINE
  5
1264F9
  8
OBJECT
 10
1916.024909444865
 20
-167.62432755513231
 30
0.0
 11
1908.2370465822601
 21
-175.4121904177382
 31
0.0
1001
ACDBBLOCKREPETAG
1070
     1
1071
      270
1005
1264F9
  0
LINE
  5
1264FA
  8
OBJECT
 10
1916.024909
 20
-232.37567199999921
 30
0.0
 11
1908.2370469998129
 21
-224.58781114059909
 31
0.0
1001
ACDBBLOCKREPETAG
1070
     1
1071
      271
1005
1264FA
  0
ARC
  5
1264FB
  8
OBJECT
 10
2000.0
 20
-199.99999999999909
 30
0.0
 40
95.0
 50
164.9999998142064
 51
195.00000115869909
1001
ACDBBLOCKREPETAG
1070
     1
1071
      272
1005
1264FB
  0
ARC
  5
1264FC
  8
OBJECT
 10
2000.0
 20
-199.99999999999909
 30
0.0
 40
92.5
 50
287.80189678393282
 51
342.19810359942011
1001
ACDBBLOCKREPETAG
1070
     1
1071
        1
1005
1264FC
  0
ARC
  5
1264FD
  8
OBJECT
 10
2000.0
 20
-199.99999999999909
 30
0.0
 40
90.0
 50
291.08359599996987
 51
338.9164040000332
1001
ACDBBLOCKREPETAG
1070
     1
1071
        3
1005
1264FD
  0
CIRCLE
  5
1264FE
  8
OBJECT
 10
2000.0
 20
-199.99999999999909
 30
0.0
 40
80.0
1001
ACDBBLOCKREPETAG
1070
     1
1071
        4
1005
1264FE
  0
ARC
  5
1264FF
  8
OBJECT
 10
2000.0
 20
-199.99999999999909
 30
0.0
 40
90.0
 50
21.083596528974049
 51
68.916404000030013
1001
ACDBBLOCKREPETAG
1070
     1
1071
        5
1005
1264FF
  0
CIRCLE
  5
126500
  8
OBJECT
 10
2000.0
 20
-199.99999999999909
 30
0.0
 40
66.5
1001
ACDBBLOCKREPETAG
1070
     1
1071
        7
1005
126500
  0
LINE
  5
126501
  8
OBJECT
 10
2083.9750905551341
 20
-167.62432755513231
 30
0.0
 11
2091.762953417739
 21
-175.4121904177382
 31
0.0
1001
ACDBBLOCKREPETAG
1070
     1
1071
        8
1005
126501
  0
LINE
  5
126502
  8
OBJECT
 10
2083.9750910000012
 20
-232.37567199999921
 30
0.0
 11
2091.7629530001868
 21
-224.58781114059909
 31
0.0
1001
ACDBBLOCKREPETAG
1070
     1
1071
        9
1005
126502
  0
ARC
  5
126503
  8
OBJECT
 10
2000.0
 20
-199.99999999999909
 30
0.0
 40
95.0
 50
344.99999884130068
 51
15.000000185793599
1001
ACDBBLOCKREPETAG
1070
     1
1071
       10
1005
126503
  0
LINE
  5
126504
  8
OBJECT
 10
2032.375672999998
 20
-283.9750909999994
 30
0.0
 11
2024.587810948284
 21
-291.76295305171419
 31
0.0
1001
ACDBBLOCKREPETAG
1070
     1
1071
       11
1005
126504
  0
LINE
  5
126505
  8
OBJECT
 10
1967.6243279999981
 20
-283.9750909999994
 30
0.0
 11
1975.41219041774
 21
-291.76295341774039
 31
0.0
1001
ACDBBLOCKREPETAG
1070
     1
1071
       12
1005
126505
  0
ARC
  5
126506
  8
OBJECT
 10
2000.0
 20
-199.99999999999909
 30
0.0
 40
95.0
 50
254.9999998142205
 51
285.00000103859719
1001
ACDBBLOCKREPETAG
1070
     1
1071
       13
1005
126506
  0
LINE
  5
126507
  8
OBJECT
 10
2032.375672999998
 20
-116.0249099999992
 30
0.0
 11
2024.5878095822591
 21
-108.2370465822578
 31
0.0
1001
ACDBBLOCKREPETAG
1070
     1
1071
       14
1005
126507
  0
ARC
  5
126508
  8
OBJECT
 10
2000.0
 20
-199.99999999999909
 30
0.0
 40
95.0
 50
74.999999814220544
 51
104.9999993327599
1001
ACDBBLOCKREPETAG
1070
     1
1071
       15
1005
126508
  0
LINE
  5
126509
  8
OBJECT
 10
1967.6243279999981
 20
-116.0249099999992
 30
0.0
 11
1975.412191783766
 21
-108.2370462162316
 31
0.0
1001
ACDBBLOCKREPETAG
1070
     1
1071
       16
1005
126509
  0
LINE
  5
12650A
  8
OBJECT
 10
2055.1784370000032
 20
-162.884098999998
 30
0.0
 11
2032.534570109274
 21
-178.11554723457169
 31
0.0
1001
ACDBBLOCKREPETAG
1070
     1
1071
       17
1005
12650A
  0
LINE
  5
12650B
  8
OBJECT
 10
1944.804121000001
 20
-162.88106899999821
 30
0.0
 11
2032.534570109274
 21
-178.11554723457169
 31
0.0
1001
ACDBBLOCKREPETAG
1070
     1
1071
       18
1005
12650B
  0
ARC
  5
12650C
  8
OBJECT
 10
2000.0
 20
-199.99999999999909
 30
0.0
 40
92.5
 50
197.80189544246551
 51
252.19810417429329
1001
ACDBBLOCKREPETAG
1070
     1
1071
       22
1005
12650C
  0
ARC
  5
12650D
  8
OBJECT
 10
2000.0
 20
-199.99999999999909
 30
0.0
 40
92.5
 50
107.80189486746769
 51
162.1981051326415
1001
ACDBBLOCKREPETAG
1070
     1
1071
       23
1005
12650D
  0
ARC
  5
12650E
  8
OBJECT
 10
2000.0
 20
-199.99999999999909
 30
0.0
 40
92.5
 50
17.80189582568811
 51
72.198104174293292
1001
ACDBBLOCKREPETAG
1070
     1
1071
       24
1005
12650E
  0
ARC
  5
12650F
  8
OBJECT
 10
2000.0
 20
-199.99999999999909
 30
0.0
 40
62.5
 50
144.42390307809791
 51
193.7174643727671
1001
ACDBBLOCKREPETAG
1070
     1
1071
       26
1005
12650F
  0
ARC
  5
126510
  8
OBJECT
 10
2000.0
 20
-199.99999999999909
 30
0.0
 40
62.5
 50
262.64111297834887
 51
33.92683896333525
1001
ACDBBLOCKREPETAG
1070
     1
1071
       27
1005
126510
  0
LINE
  5
126511
  8
OBJECT
 10
2068.6458301719758
 20
-137.99999999999909
 30
0.0
 11
2100.0
 21
-137.99999999999909
 31
0.0
1001
ACDBBLOCKREPETAG
1070
     1
1071
       33
1005
126511
  0
LINE
  5
126512
  8
OBJECT
 10
2068.6458301719758
 20
-261.99999999999909
 30
0.0
 11
2100.0000000000041
 21
-261.99999999999909
 31
0.0
1001
ACDBBLOCKREPETAG
1070
     1
1071
       34
1005
126512
  0
LINE
  5
126513
  8
OBJECT
 10
2062.0
 20
-268.64583017197862
 30
0.0
 11
2062.0000000000041
 21
-299.99999999999898
 31
0.0
1001
ACDBBLOCKREPETAG
1070
     1
1071
       35
1005
126513
  0
LINE
  5
126514
  8
OBJECT
 10
1937.9999999999959
 20
-268.64583017197492
 30
0.0
 11
1938.0
 21
-299.99999999999898
 31
0.0
1001
ACDBBLOCKREPETAG
1070
     1
1071
       36
1005
126514
  0
LINE
  5
126515
  8
OBJECT
 10
1931.3541698280239
 20
-261.99999999999909
 30
0.0
 11
1899.9999999999959
 21
-261.99999999999909
 31
0.0
1001
ACDBBLOCKREPETAG
1070
     1
1071
       37
1005
126515
  0
LINE
  5
126516
  8
OBJECT
 10
1931.3541698280201
 20
-137.99999999999909
 30
0.0
 11
1899.9999999999959
 21
-137.99999999999909
 31
0.0
1001
ACDBBLOCKREPETAG
1070
     1
1071
       38
1005
126516
  0
ARC
  5
126517
  8
OBJECT
 10
2000.0
 20
-199.99999999999909
 30
0.0
 40
97.5
 50
39.486577433836892
 51
140.51342256616309
1001
ACDBBLOCKREPETAG
1070
     1
1071
       39
1005
126517
  0
ARC
  5
126518
  8
OBJECT
 10
2000.0
 20
-199.99999999999909
 30
0.0
 40
97.5
 50
219.48657743383691
 51
230.5134225661574
1001
ACDBBLOCKREPETAG
1070
     1
1071
       40
1005
126518
  0
ARC
  5
126519
  8
OBJECT
 10
2000.0
 20
-199.99999999999909
 30
0.0
 40
97.5
 50
309.48657743384149
 51
320.51342256616311
1001
ACDBBLOCKREPETAG
1070
     1
1071
       41
1005
126519
  0
LINE
  5
12651A
  8
CENTER
 10
1900.0
 20
-199.99999999999909
 30
0.0
 11
2100.0
 21
-199.99999999999909
 31
0.0
1001
ACDBBLOCKREPETAG
1070
     1
1071
       42
1005
12651A
  0
LINE
  5
12651B
  8
CENTER
 10
2000.0
 20
-86.499999999999091
 30
0.0
 11
2000.0
 21
-299.99999999999898
 31
0.0
1001
ACDBBLOCKREPETAG
1070
     1
1071
       43
1005
12651B
  0
POINT
  5
12651C
  8
DOTS
 10
2000.0
 20
-199.99999999999909
 30
0.0
1001
ACDBBLOCKREPETAG
1070
     1
1071
      281
1005
12651C
  0
LINE
  5
12651D
  8
OBJECT
 10
2134.0
 20
-482.99999999999761
 30
0.0
 11
2134.0
 21
-480.99999999999773
 31
0.0
1001
ACDBBLOCKREPETAG
1070
     1
1071
      157
1005
12651D
  0
ARC
  5
12651E
  8
OBJECT
 10
2175.1865574982548
 20
-500.99999999999773
 30
0.0
 40
59.0
 50
229.20276883323919
 51
270.0
1001
ACDBBLOCKREPETAG
1070
     1
1071
      158
1005
12651E
  0
LINE
  5
12651F
  8
OBJECT
 10
2244.0
 20
-489.49999999999773
 30
0.0
 11
2109.0
 21
-489.49999999999773
 31
0.0
1001
ACDBBLOCKREPETAG
1070
     1
1071
      159
1005
12651F
  0
LINE
  5
126520
  8
OBJECT
 10
2109.0
 20
-502.49999999999773
 30
0.0
 11
2244.0
 21
-502.49999999999773
 31
0.0
1001
ACDBBLOCKREPETAG
1070
     1
1071
      160
1005
126520
  0
LINE
  5
126521
  8
OBJECT
 10
2109.0
 20
-489.49999999999773
 30
0.0
 11
2109.0
 21
-502.49999999999773
 31
0.0
1001
ACDBBLOCKREPETAG
1070
     1
1071
      161
1005
126521
  0
LINE
  5
126522
  8
OBJECT
 10
2116.0
 20
-511.49999999999773
 30
0.0
 11
2116.0
 21
-502.49999999999773
 31
0.0
1001
ACDBBLOCKREPETAG
1070
     1
1071
      162
1005
126522
  0
LINE
  5
126523
  8
OBJECT
 10
2134.0
 20
-514.99999999999773
 30
0.0
 11
2134.0
 21
-502.49999999999773
 31
0.0
1001
ACDBBLOCKREPETAG
1070
     1
1071
      163
1005
126523
  0
LINE
  5
126524
  8
OBJECT
 10
2224.0
 20
-511.49999999999773
 30
0.0
 11
2224.0
 21
-502.49999999999773
 31
0.0
1001
ACDBBLOCKREPETAG
1070
     1
1071
      164
1005
126524
  0
LINE
  5
126525
  8
OBJECT
 10
2244.0
 20
-489.49999999999773
 30
0.0
 11
2244.0
 21
-502.49999999999773
 31
0.0
1001
ACDBBLOCKREPETAG
1070
     1
1071
      165
1005
126525
  0
LINE
  5
126526
  8
OBJECT
 10
2142.0
 20
-514.99999999999773
 30
0.0
 11
2142.0
 21
-502.49999999999773
 31
0.0
1001
ACDBBLOCKREPETAG
1070
     1
1071
      166
1005
126526
  0
LINE
  5
126527
  8
OBJECT
 10
2134.0
 20
-511.49999999999773
 30
0.0
 11
2115.0
 21
-511.49999999999773
 31
0.0
1001
ACDBBLOCKREPETAG
1070
     1
1071
      167
1005
126527
  0
LINE
  5
126528
  8
OBJECT
 10
2115.0
 20
-514.99999999999773
 30
0.0
 11
2115.0
 21
-511.49999999999773
 31
0.0
1001
ACDBBLOCKREPETAG
1070
     1
1071
      168
1005
126528
  0
LINE
  5
126529
  8
OBJECT
 10
2142.0
 20
-511.49999999999773
 30
0.0
 11
2225.0
 21
-511.49999999999773
 31
0.0
1001
ACDBBLOCKREPETAG
1070
     1
1071
      169
1005
126529
  0
LINE
  5
12652A
  8
OBJECT
 10
2225.0
 20
-511.49999999999773
 30
0.0
 11
2225.0
 21
-514.99999999999773
 31
0.0
1001
ACDBBLOCKREPETAG
1070
     1
1071
      170
1005
12652A
  0
LINE
  5
12652B
  8
OBJECT
 10
2130.494446500536
 20
-489.49999999999773
 30
0.0
 11
2130.494446500536
 21
-482.99999999999761
 31
0.0
1001
ACDBBLOCKREPETAG
1070
     1
1071
      171
1005
12652B
  0
LINE
  5
12652C
  8
OBJECT
 10
2129.0
 20
-527.99999999999773
 30
0.0
 11
2129.0
 21
-532.99999999999761
 31
0.0
1001
ACDBBLOCKREPETAG
1070
     1
1071
      172
1005
12652C
  0
LINE
  5
12652D
  8
OBJECT
 10
2129.0
 20
-532.99999999999761
 30
0.0
 11
2147.0
 21
-532.99999999999761
 31
0.0
1001
ACDBBLOCKREPETAG
1070
     1
1071
      173
1005
12652D
  0
LINE
  5
12652E
  8
OBJECT
 10
2147.0
 20
-527.99999999999773
 30
0.0
 11
2147.0
 21
-532.99999999999761
 31
0.0
1001
ACDBBLOCKREPETAG
1070
     1
1071
      174
1005
12652E
  0
LINE
  5
12652F
  8
OBJECT
 10
2109.0000000000032
 20
-514.99999999999773
 30
0.0
 11
2244.0
 21
-514.99999999999773
 31
0.0
1001
ACDBBLOCKREPETAG
1070
     1
1071
      175
1005
12652F
  0
LINE
  5
126530
  8
OBJECT
 10
2244.0
 20
-514.99999999999773
 30
0.0
 11
2244.0
 21
-527.99999999999773
 31
0.0
1001
ACDBBLOCKREPETAG
1070
     1
1071
      176
1005
126530
  0
LINE
  5
126531
  8
OBJECT
 10
2136.636900244765
 20
-545.66457125774514
 30
0.0
 11
2116.1702980000009
 21
-527.99999999999773
 31
0.0
1001
ACDBBLOCKREPETAG
1070
     1
1071
      177
1005
126531
  0
LINE
  5
126532
  8
OBJECT
 10
2221.0000000000041
 20
-535.65708264965485
 30
0.0
 11
2221.0000000000041
 21
-559.99999999999773
 31
0.0
1001
ACDBBLOCKREPETAG
1070
     1
1071
      178
1005
126532
  0
LINE
  5
126533
  8
OBJECT
 10
2175.1865574982548
 20
-559.99999999999773
 30
0.0
 11
2221.0000000000041
 21
-559.99999999999773
 31
0.0
1001
ACDBBLOCKREPETAG
1070
     1
1071
      179
1005
126533
  0
ARC
  5
126534
  8
OBJECT
 10
2130.5
 20
-561.49999999999773
 30
0.0
 40
84.0
 50
277.05348487097029
 51
1.023193303671255
1001
ACDBBLOCKREPETAG
1070
     1
1071
      180
1005
126534
  0
LINE
  5
126535
  8
OBJECT
 10
2106.0
 20
-649.17200317020831
 30
0.0
 11
2140.8148488128832
 21
-644.86428428270165
 31
0.0
1001
ACDBBLOCKREPETAG
1070
     1
1071
      181
1005
126535
  0
LINE
  5
126536
  8
OBJECT
 10
2106.0000000000041
 20
-649.99999999999852
 30
0.0
 11
2106.0000000000041
 21
-528.99999999999761
 31
0.0
1001
ACDBBLOCKREPETAG
1070
     1
1071
      182
1005
126536
  0
ARC
  5
126537
  8
OBJECT
 10
2103.0000000000041
 20
-649.99999999999852
 30
0.0
 40
3.0
 50
270.0
 51
0.0
1001
ACDBBLOCKREPETAG
1070
     1
1071
      183
1005
126537
  0
LINE
  5
126538
  8
OBJECT
 10
2116.1702980000009
 20
-527.99999999999773
 30
0.0
 11
2244.0
 21
-527.99999999999773
 31
0.0
1001
ACDBBLOCKREPETAG
1070
     1
1071
      184
1005
126538
  0
LINE
  5
126539
  8
OBJECT
 10
2125.0539138517229
 20
-535.65708264965485
 30
0.0
 11
2221.0000000000041
 21
-535.65708264965485
 31
0.0
1001
ACDBBLOCKREPETAG
1070
     1
1071
      185
1005
126539
  0
LINE
  5
12653A
  8
OBJECT
 10
2225.0
 20
-530.89006764214673
 30
0.0
 11
2221.0000000000041
 21
-535.65708264965485
 31
0.0
1001
ACDBBLOCKREPETAG
1070
     1
1071
      186
1005
12653A
  0
LINE
  5
12653B
  8
OBJECT
 10
2109.0000000000032
 20
-514.99999999999773
 30
0.0
 11
2109.0000000000068
 21
-528.99999999999761
 31
0.0
1001
ACDBBLOCKREPETAG
1070
     1
1071
      187
1005
12653B
  0
LINE
  5
12653C
  8
HIDDEN
 10
2125.5
 20
-554.99999999999773
 30
0.0
 11
2214.5
 21
-554.99999999999773
 31
0.0
1001
ACDBBLOCKREPETAG
1070
     1
1071
      188
1005
12653C
  0
LINE
  5
12653D
  8
OBJECT
 10
2134.0
 20
-480.99999999999773
 30
0.0
 11
2142.0
 21
-480.99999999999773
 31
0.0
1001
ACDBBLOCKREPETAG
1070
     1
1071
      189
1005
12653D
  0
LINE
  5
12653E
  8
OBJECT
 10
2142.0
 20
-482.99999999999761
 30
0.0
 11
2142.0
 21
-480.99999999999773
 31
0.0
1001
ACDBBLOCKREPETAG
1070
     1
1071
      190
1005
12653E
  0
LINE
  5
12653F
  8
OBJECT
 10
2130.494446500536
 20
-482.99999999999761
 30
0.0
 11
2145.505553499464
 21
-482.99999999999761
 31
0.0
1001
ACDBBLOCKREPETAG
1070
     1
1071
      191
1005
12653F
  0
LINE
  5
126540
  8
CENTER
 10
2170.0
 20
-574.77158855533025
 30
0.0
 11
2170.0
 21
-474.49999999999773
 31
0.0
1001
ACDBBLOCKREPETAG
1070
     1
1071
      193
1005
126540
  0
LINE
  5
126541
  8
OBJECT
 10
2100.0
 20
-652.99999999999761
 30
0.0
 11
2103.0000000000041
 21
-652.99999999999852
 31
0.0
1001
ACDBBLOCKREPETAG
1070
     1
1071
      194
1005
126541
  0
LINE
  5
126542
  8
OBJECT
 10
2100.0
 20
-528.99999999999761
 30
0.0
 11
2109.0000000000068
 21
-528.99999999999761
 31
0.0
1001
ACDBBLOCKREPETAG
1070
     1
1071
      195
1005
126542
  0
LINE
  5
126543
  8
OBJECT
 10
2134.247196978396
 20
-489.49998110540878
 30
0.0
 11
2134.247196978396
 21
-482.99998110540889
 31
0.0
1001
ACDBBLOCKREPETAG
1070
     1
1071
      196
1005
126543
  0
LINE
  5
126544
  8
OBJECT
 10
2145.505553499464
 20
-489.49999999999773
 30
0.0
 11
2145.505553499464
 21
-482.99999999999761
 31
0.0
1001
ACDBBLOCKREPETAG
1070
     1
1071
      197
1005
126544
  0
LINE
  5
126545
  8
OBJECT
 10
2141.7528030216049
 20
-489.49998110540878
 30
0.0
 11
2141.7528030216049
 21
-482.99998110540889
 31
0.0
1001
ACDBBLOCKREPETAG
1070
     1
1071
      198
1005
126545
  0
LINE
  5
126546
  8
OBJECT
 10
2230.0
 20
-482.99999999999761
 30
0.0
 11
2230.0
 21
-480.99999999999773
 31
0.0
1001
ACDBBLOCKREPETAG
1070
     1
1071
      199
1005
126546
  0
LINE
  5
126547
  8
OBJECT
 10
2230.0
 20
-514.99999999999773
 30
0.0
 11
2230.0
 21
-502.49999999999773
 31
0.0
1001
ACDBBLOCKREPETAG
1070
     1
1071
      200
1005
126547
  0
LINE
  5
126548
  8
OBJECT
 10
2238.0
 20
-514.99999999999773
 30
0.0
 11
2238.0
 21
-502.49999999999773
 31
0.0
1001
ACDBBLOCKREPETAG
1070
     1
1071
      201
1005
126548
  0
LINE
  5
126549
  8
OBJECT
 10
2226.494446500536
 20
-489.49999999999773
 30
0.0
 11
2226.494446500536
 21
-482.99999999999761
 31
0.0
1001
ACDBBLOCKREPETAG
1070
     1
1071
      202
1005
126549
  0
LINE
  5
12654A
  8
OBJECT
 10
2225.0
 20
-527.99999999999773
 30
0.0
 11
2225.0
 21
-532.99999999999761
 31
0.0
1001
ACDBBLOCKREPETAG
1070
     1
1071
      203
1005
12654A
  0
LINE
  5
12654B
  8
OBJECT
 10
2225.0
 20
-532.99999999999761
 30
0.0
 11
2243.0
 21
-532.99999999999761
 31
0.0
1001
ACDBBLOCKREPETAG
1070
     1
1071
      204
1005
12654B
  0
LINE
  5
12654C
  8
OBJECT
 10
2243.0
 20
-527.99999999999773
 30
0.0
 11
2243.0
 21
-532.99999999999761
 31
0.0
1001
ACDBBLOCKREPETAG
1070
     1
1071
      205
1005
12654C
  0
LINE
  5
12654D
  8
OBJECT
 10
2230.0
 20
-480.99999999999773
 30
0.0
 11
2238.0
 21
-480.99999999999773
 31
0.0
1001
ACDBBLOCKREPETAG
1070
     1
1071
      206
1005
12654D
  0
LINE
  5
12654E
  8
OBJECT
 10
2238.0
 20
-482.99999999999761
 30
0.0
 11
2238.0
 21
-480.99999999999773
 31
0.0
1001
ACDBBLOCKREPETAG
1070
     1
1071
      207
1005
12654E
  0
LINE
  5
12654F
  8
OBJECT
 10
2226.494446500536
 20
-482.99999999999761
 30
0.0
 11
2241.5055534994649
 21
-482.99999999999761
 31
0.0
1001
ACDBBLOCKREPETAG
1070
     1
1071
      208
1005
12654F
  0
LINE
  5
126550
  8
OBJECT
 10
2230.247196978396
 20
-489.49998110540878
 30
0.0
 11
2230.247196978396
 21
-482.99998110540889
 31
0.0
1001
ACDBBLOCKREPETAG
1070
     1
1071
      209
1005
126550
  0
LINE
  5
126551
  8
OBJECT
 10
2241.5055534994649
 20
-489.49999999999773
 30
0.0
 11
2241.5055534994649
 21
-482.99999999999761
 31
0.0
1001
ACDBBLOCKREPETAG
1070
     1
1071
      210
1005
126551
  0
LINE
  5
126552
  8
OBJECT
 10
2237.7528030216058
 20
-489.49998110540878
 30
0.0
 11
2237.7528030216058
 21
-482.99998110540889
 31
0.0
1001
ACDBBLOCKREPETAG
1070
     1
1071
      211
1005
126552
  0
LINE
  5
126553
  8
CENTER
 10
2100.0
 20
-199.99999999999909
 30
0.0
 11
2259.0
 21
-199.99999999999909
 31
0.0
1001
ACDBBLOCKREPETAG
1070
     1
1071
      155
1005
126553
  0
LINE
  5
126554
  8
OBJECT
 10
2100.0
 20
-261.99999999999909
 30
0.0
 11
2103.0
 21
-261.99999999999909
 31
0.0
1001
ACDBBLOCKREPETAG
1070
     1
1071
      156
1005
126554
  0
ARC
  5
126555
  8
OBJECT
 10
2103.0
 20
-258.99999999999909
 30
0.0
 40
3.0
 50
270.0
 51
0.0
1001
ACDBBLOCKREPETAG
1070
     1
1071
      157
1005
126555
  0
LINE
  5
126556
  8
OBJECT
 10
2100.0
 20
-138.0000000000027
 30
0.0
 11
2103.0
 21
-138.0000000000027
 31
0.0
1001
ACDBBLOCKREPETAG
1070
     1
1071
      158
1005
126556
  0
LINE
  5
126557
  8
OBJECT
 10
2106.0
 20
-140.99999999999909
 30
0.0
 11
2128.6547275935341
 21
-140.9999999999954
 31
0.0
1001
ACDBBLOCKREPETAG
1070
     1
1071
      159
1005
126557
  0
LINE
  5
126558
  8
OBJECT
 10
2106.0
 20
-259.00000000000267
 30
0.0
 11
2128.6547275935341
 21
-258.99999999999909
 31
0.0
1001
ACDBBLOCKREPETAG
1070
     1
1071
      160
1005
126558
  0
LINE
  5
126559
  8
CENTER
 10
2170.0
 20
-123.5195984073716
 30
0.0
 11
2170.0
 21
-276.48040159262649
 31
0.0
1001
ACDBBLOCKREPETAG
1070
     1
1071
      161
1005
126559
  0
LINE
  5
12655A
  8
OBJECT
 10
2106.0
 20
-141.0000000000027
 30
0.0
 11
2106.0
 21
-258.99999999999909
 31
0.0
1001
ACDBBLOCKREPETAG
1070
     1
1071
      162
1005
12655A
  0
ARC
  5
12655B
  8
OBJECT
 10
2103.0
 20
-141.0000000000027
 30
0.0
 40
3.0
 50
0.0
 51
90.0
1001
ACDBBLOCKREPETAG
1070
     1
1071
      163
1005
12655B
  0
ARC
  5
12655C
  8
OBJECT
 10
2170.0
 20
-199.99999999999909
 30
0.0
 40
61.0
 50
37.167285461274467
 51
82.832714538705744
1001
ACDBBLOCKREPETAG
1070
     1
1071
      165
1005
12655C
  0
ARC
  5
12655D
  8
OBJECT
 10
2170.0
 20
-199.99999999999909
 30
0.0
 40
61.0
 50
157.16728546126831
 51
202.83271453873161
1001
ACDBBLOCKREPETAG
1070
     1
1071
      166
1005
12655D
  0
ARC
  5
12655E
  8
OBJECT
 10
2170.0
 20
-199.99999999999909
 30
0.0
 40
61.0
 50
277.16728546129423
 51
322.83271453872419
1001
ACDBBLOCKREPETAG
1070
     1
1071
      167
1005
12655E
  0
CIRCLE
  5
12655F
  8
SLIM
 10
2234.0
 20
-199.99999999999909
 30
0.0
 40
4.0
1001
ACDBBLOCKREPETAG
1070
     1
1071
      168
1005
12655F
  0
ARC
  5
126560
  8
OBJECT
 10
2234.0
 20
-199.99999999999909
 30
0.0
 40
10.0
 50
322.83271453872419
 51
37.167285461274467
1001
ACDBBLOCKREPETAG
1070
     1
1071
      169
1005
126560
  0
LINE
  5
126561
  8
OBJECT
 10
2218.6093749999968
 20
-163.14720279124501
 30
0.0
 11
2241.96875
 21
-193.9585578346296
 31
0.0
1001
ACDBBLOCKREPETAG
1070
     1
1071
      170
1005
126561
  0
LINE
  5
126562
  8
OBJECT
 10
2218.6093749999968
 20
-236.8527972087532
 30
0.0
 11
2241.96875
 21
-206.04144216536861
 31
0.0
1001
ACDBBLOCKREPETAG
1070
     1
1071
      171
1005
126562
  0
CIRCLE
  5
126563
  8
SLIM
 10
2138.0
 20
-144.5743741577962
 30
0.0
 40
3.9999999999999991
1001
ACDBBLOCKREPETAG
1070
     1
1071
      172
1005
126563
  0
ARC
  5
126564
  8
OBJECT
 10
2138.0
 20
-144.5743741577962
 30
0.0
 40
9.9999999999999982
 50
82.832714538705744
 51
157.16728546126831
1001
ACDBBLOCKREPETAG
1070
     1
1071
      173
1005
126564
  0
LINE
  5
126565
  8
OBJECT
 10
2113.7798539167052
 20
-176.32944499229319
 30
0.0
 11
2128.783582609296
 21
-140.6939553040711
 31
0.0
1001
ACDBBLOCKREPETAG
1070
     1
1071
      174
1005
126565
  0
LINE
  5
126566
  8
OBJECT
 10
2177.6107710832989
 20
-139.47664778353919
 30
0.0
 11
2139.247667390704
 21
-134.65251313870161
 31
0.0
1001
ACDBBLOCKREPETAG
1070
     1
1071
      175
1005
126566
  0
CIRCLE
  5
126567
  8
SLIM
 10
2138.0
 20
-255.4256258422019
 30
0.0
 40
4.0
1001
ACDBBLOCKREPETAG
1070
     1
1071
      176
1005
126567
  0
ARC
  5
126568
  8
OBJECT
 10
2138.0
 20
-255.4256258422019
 30
0.0
 40
10.0
 50
202.83271453873161
 51
277.16728546129423
1001
ACDBBLOCKREPETAG
1070
     1
1071
      177
1005
126568
  0
LINE
  5
126569
  8
OBJECT
 10
2177.6107710832989
 20
-260.52335221645899
 30
0.0
 11
2139.247667390704
 21
-265.3474868612966
 31
0.0
1001
ACDBBLOCKREPETAG
1070
     1
1071
      178
1005
126569
  0
LINE
  5
12656A
  8
OBJECT
 10
2113.7798539167052
 20
-223.67055500770491
 30
0.0
 11
2128.783582609296
 21
-259.30604469592708
 31
0.0
1001
ACDBBLOCKREPETAG
1070
     1
1071
      179
1005
12656A
  0
CIRCLE
  5
12656B
  8
OBJECT
 10
2170.0
 20
-199.99999999999909
 30
0.0
 40
46.0
1001
ACDBBLOCKREPETAG
1070
     1
1071
      180
1005
12656B
  0
POLYLINE
  5
12656C
  8
SLIM
 66
     1
 10
0.0
 20
0.0
 30
0.0
 70
     1
1001
ACDBBLOCKREPETAG
1070
     1
1071
      181
1005
12656C
  0
VERTEX
  5
126770
  8
SLIM
 10
2230.247223250266
 20
-193.49999999999909
 30
0.0
  0
VERTEX
  5
126771
  8
SLIM
 10
2226.494446500536
 20
-199.99999999999909
 30
0.0
  0
VERTEX
  5
126772
  8
SLIM
 10
2230.247223250266
 20
-206.49999999999909
 30
0.0
  0
VERTEX
  5
126773
  8
SLIM
 10
2237.752776749734
 20
-206.49999999999909
 30
0.0
  0
VERTEX
  5
126774
  8
SLIM
 10
2241.5055534994649
 20
-199.99999999999909
 30
0.0
  0
VERTEX
  5
126775
  8
SLIM
 10
2237.752776749734
 20
-193.49999999999909
 30
0.0
  0
SEQEND
  5
126776
  8
SLIM
  0
POLYLINE
  5
12656D
  8
SLIM
 66
     1
 10
0.0
 20
0.0
 30
0.0
 70
     1
1001
ACDBBLOCKREPETAG
1070
     1
1071
      182
1005
12656D
  0
VERTEX
  5
126777
  8
SLIM
 10
2134.2472232502701
 20
-151.0743741577962
 30
0.0
  0
VERTEX
  5
126778
  8
SLIM
 10
2141.752776749734
 20
-151.0743741577962
 30
0.0
  0
VERTEX
  5
126779
  8
SLIM
 10
2145.505553499464
 20
-144.5743741577962
 30
0.0
  0
VERTEX
  5
12677A
  8
SLIM
 10
2141.7527767497309
 20
-138.07437415779259
 30
0.0
  0
VERTEX
  5
12677B
  8
SLIM
 10
2134.2472232502701
 20
-138.0743741577962
 30
0.0
  0
VERTEX
  5
12677C
  8
SLIM
 10
2130.494446500536
 20
-144.57437415779259
 30
0.0
  0
SEQEND
  5
12677D
  8
SLIM
  0
POLYLINE
  5
12656E
  8
SLIM
 66
     1
 10
0.0
 20
0.0
 30
0.0
 70
     1
1001
ACDBBLOCKREPETAG
1070
     1
1071
      183
1005
12656E
  0
VERTEX
  5
12677E
  8
SLIM
 10
2145.505553499464
 20
-255.4256258422019
 30
0.0
  0
VERTEX
  5
12677F
  8
SLIM
 10
2141.7527767497309
 20
-248.9256258422019
 30
0.0
  0
VERTEX
  5
126780
  8
SLIM
 10
2134.2472232502701
 20
-248.9256258422019
 30
0.0
  0
VERTEX
  5
126781
  8
SLIM
 10
2130.494446500536
 20
-255.42562584220559
 30
0.0
  0
VERTEX
  5
126782
  8
SLIM
 10
2134.247223250266
 20
-261.9256258422019
 30
0.0
  0
VERTEX
  5
126783
  8
SLIM
 10
2141.7527767497309
 20
-261.92562584220559
 30
0.0
  0
SEQEND
  5
126784
  8
SLIM
  0
TEXT
  5
12656F
  8
SLIM
 10
-0.0000000000000053
 20
520.0
 30
0.0
 40
100.0
  1
5HF-U7-S
 41
0.75
  0
TEXT
  5
126570
  8
SLIM
 10
-0.0000000000000053
 20
370.0
 30
0.0
 40
100.0
  1
5HF-U7-W
 41
0.75
  0
TEXT
  5
126571
  8
SLIM
 10
3853.75
 20
-1706.4999999999991
 30
0.0
 40
35.0
  1
両受けスタイル（W）
 41
0.75
  0
TEXT
  5
126572
  8
SLIM
 10
7824.6000000000022
 20
-1762.9999999999991
 30
0.0
 40
28.0
  1
※ 対応スラブ厚　180～405
 41
0.75
  0
TEXT
  5
126573
  8
SLIM
 10
7598.8999999999969
 20
-1856.333333333333
 30
0.0
 40
28.0
  1
国土交通大臣認定・（一財）日本消防設備安全センター性能評定取得品
 41
0.75
  0
TEXT
  5
126574
  8
SLIM
 10
7631.1000000000004
 20
-1903.0
 30
0.0
 40
28.0
  1
注）ご採用にあたり、認定書及び評定書の内容をご確認ください。
 41
0.75
  0
TEXT
  5
126575
  8
SLIM
 10
7739.125
 20
-1706.4999999999991
 30
0.0
 40
35.0
  1
両受けスタイル（W）＋シンドカット
 41
0.75
  0
TEXT
  5
126576
  8
SLIM
 10
5741.6249999999991
 20
-1432.5
 30
0.0
 40
35.0
  1
片受けスタイル（S）＋シンドカット
 41
0.75
  0
TEXT
  5
126577
  8
SLIM
 10
1856.25
 20
-1432.5
 30
0.0
 40
35.0
  1
片受けスタイル（S）
 41
0.75
  0
VIEWPORT
  5
F6BA7
 67
     1
  8
0
 10
145.33033752441401
 20
101.8328354358673
 30
0.0
 40
334.0025019414623
 41
222.19657968139651
 68
     1
 69
     1
1001
ACAD
1000
MVIEW
1002
{
1070
    16
1010
0.0
1020
0.0
1030
0.0
1010
0.0
1020
0.0
1030
1.0
1040
0.0
1040
222.19657968139651
1040
145.33033752441401
1040
101.8328354358673
1040
50.0
1040
0.0
1040
0.0
1070
     0
1070
     0
1070
     1
1070
     1
1070
     0
1070
     0
1070
     0
1070
     0
1040
0.0
1040
0.0
1040
0.0
1040
10.0
1040
10.0
1040
10.0
1040
10.0
1070
     0
1002
{
1002
}
1002
}
  0
VIEWPORT
  5
F6BA9
 67
     1
  8
OBJECT
 10
145.3303314447403
 20
101.8328338861465
 30
0.0
 40
232.5285303115844
 41
162.93253421783439
 68
     2
 69
     2
1001
ACAD
1000
MVIEW
1002
{
1070
    16
1010
0.0
1020
0.0
1030
0.0
1010
0.0
1020
0.0
1030
1.0
1040
0.0
1040
25942.55904403147
1040
2377.604457077377
1040
-7591.5176687056619
1040
50.0
1040
0.0
1040
0.0
1070
     0
1070
   600
1070
     1
1070
     1
1070
     0
1070
     0
1070
     0
1070
     0
1040
0.0
1040
0.0
1040
0.0
1040
1.0
1040
1.0
1040
0.0
1040
0.0
1070
     0
1002
{
1002
}
1002
}
  0
ENDSEC
  0
EOF
