  0
SECTION
  2
HEADER
  9
$ACADVER
  1
AC1009
  9
$INSBASE
 10
0.0
 20
0.0
 30
0.0
  9
$EXTMIN
 10
-0.0000000000000089
 20
-2003.0
 30
0.0
  9
$EXTMAX
 10
8399.7000000000007
 20
620.0
 30
0.0
  9
$LIMMIN
 10
0.0
 20
0.0
  9
$LIMMAX
 10
210.0
 20
297.0
  9
$ORTHOMODE
 70
     0
  9
$REGENMODE
 70
     1
  9
$FILLMODE
 70
     1
  9
$QTEXTMODE
 70
     0
  9
$MIRRTEXT
 70
     0
  9
$DRAGMODE
 70
     2
  9
$LTSCALE
 40
1.0
  9
$OSMODE
 70
   125
  9
$ATTMODE
 70
     1
  9
$TEXTSIZE
 40
4.0
  9
$TRACEWID
 40
0.05
  9
$TEXTSTYLE
  7
STANDARD
  9
$CLAYER
  8
0
  9
$CELTYPE
  6
BYLAYER
  9
$CECOLOR
 62
   256
  9
$DIMSCALE
 40
10.0
  9
$DIMASZ
 40
2.0
  9
$DIMEXO
 40
1.0
  9
$DIMDLI
 40
10.0
  9
$DIMRND
 40
0.0
  9
$DIMDLE
 40
0.0
  9
$DIMEXE
 40
1.0
  9
$DIMTP
 40
0.0
  9
$DIMTM
 40
0.0
  9
$DIMTXT
 40
3.2000000000000002
  9
$DIMCEN
 40
0.0
  9
$DIMTSZ
 40
0.0
  9
$DIMTOL
 70
     0
  9
$DIMLIM
 70
     0
  9
$DIMTIH
 70
     0
  9
$DIMTOH
 70
     0
  9
$DIMSE1
 70
     0
  9
$DIMSE2
 70
     0
  9
$DIMTAD
 70
     1
  9
$DIMZIN
 70
     8
  9
$DIMBLK
  1
OPEN30
  9
$DIMASO
 70
     1
  9
$DIMSHO
 70
     1
  9
$DIMPOST
  1

  9
$DIMAPOST
  1

  9
$DIMALT
 70
     0
  9
$DIMALTD
 70
     2
  9
$DIMALTF
 40
25.399999999999999
  9
$DIMLFAC
 40
1.0
  9
$DIMTOFL
 70
     1
  9
$DIMTVP
 40
0.0
  9
$DIMTIX
 70
     0
  9
$DIMSOXD
 70
     0
  9
$DIMSAH
 70
     0
  9
$DIMBLK1
  1

  9
$DIMBLK2
  1

  9
$DIMSTYLE
  2
S10
  9
$DIMCLRD
 70
   256
  9
$DIMCLRE
 70
   256
  9
$DIMCLRT
 70
   256
  9
$DIMTFAC
 40
1.0
  9
$DIMGAP
 40
0.9
  9
$LUNITS
 70
     2
  9
$LUPREC
 70
     2
  9
$SKETCHINC
 40
0.1
  9
$FILLETRAD
 40
0.0
  9
$AUNITS
 70
     0
  9
$AUPREC
 70
     2
  9
$MENU
  1
ACAD
  9
$ELEVATION
 40
0.0
  9
$PELEVATION
 40
0.0
  9
$THICKNESS
 40
0.0
  9
$LIMCHECK
 70
     0
  9
$BLIPMODE
 70
     0
  9
$CHAMFERA
 40
2.0
  9
$CHAMFERB
 40
2.0
  9
$SKPOLY
 70
     0
  9
$TDCREATE
 40
2453095.4929404748
  9
$TDUPDATE
 40
2457303.441905139
  9
$TDINDWG
 40
18.4676387847
  9
$TDUSRTIMER
 40
18.467638136600002
  9
$USRTIMER
 70
     1
  9
$ANGBASE
 50
0.0
  9
$ANGDIR
 70
     0
  9
$PDMODE
 70
    35
  9
$PDSIZE
 40
2.0
  9
$PLINEWID
 40
0.0
  9
$COORDS
 70
     1
  9
$SPLFRAME
 70
     0
  9
$SPLINETYPE
 70
     6
  9
$SPLINESEGS
 70
     8
  9
$ATTDIA
 70
     1
  9
$ATTREQ
 70
     1
  9
$HANDLING
 70
     1
  9
$HANDSEED
  5
1354DB
  9
$SURFTAB1
 70
     6
  9
$SURFTAB2
 70
     6
  9
$SURFTYPE
 70
     6
  9
$SURFU
 70
     6
  9
$SURFV
 70
     6
  9
$UCSNAME
  2

  9
$UCSORG
 10
0.0
 20
0.0
 30
0.0
  9
$UCSXDIR
 10
1.0
 20
0.0
 30
0.0
  9
$UCSYDIR
 10
0.0
 20
1.0
 30
0.0
  9
$PUCSNAME
  2

  9
$PUCSORG
 10
0.0
 20
0.0
 30
0.0
  9
$PUCSXDIR
 10
1.0
 20
0.0
 30
0.0
  9
$PUCSYDIR
 10
0.0
 20
1.0
 30
0.0
  9
$USERI1
 70
     0
  9
$USERI2
 70
     0
  9
$USERI3
 70
     0
  9
$USERI4
 70
     0
  9
$USERI5
 70
     0
  9
$USERR1
 40
0.0
  9
$USERR2
 40
0.0
  9
$USERR3
 40
0.0
  9
$USERR4
 40
0.0
  9
$USERR5
 40
0.0
  9
$WORLDVIEW
 70
     1
  9
$SHADEDGE
 70
     3
  9
$SHADEDIF
 70
    70
  9
$TILEMODE
 70
     1
  9
$MAXACTVP
 70
    64
  9
$PLIMCHECK
 70
     0
  9
$PEXTMIN
 10
29.066066288948051
 20
20.366566777229309
 30
0.0
  9
$PEXTMAX
 10
261.5945966005325
 20
183.29910099506381
 30
0.0
  9
$PLIMMIN
 10
-3.17498779296875
 20
-3.1749999523162842
  9
$PLIMMAX
 10
293.83566284179687
 20
206.8406708240509
  9
$UNITMODE
 70
     0
  9
$VISRETAIN
 70
     1
  9
$PLINEGEN
 70
     0
  9
$PSLTSCALE
 70
     1
  0
ENDSEC
  0
SECTION
  2
TABLES
  0
TABLE
  2
VPORT
 70
     1
  0
VPORT
  2
*ACTIVE
 70
     0
 10
0.0
 20
0.0
 11
1.0
 21
1.0
 12
5675.083478984764
 22
123.85764416326219
 13
0.0
 23
0.0
 14
1.0
 24
1.0
 15
0.0
 25
0.0
 16
0.0
 26
0.0
 36
1.0
 17
0.0
 27
0.0
 37
0.0
 40
8506.048916117581
 41
1.70911528150134
 42
50.0
 43
0.0
 44
0.0
 50
0.0
 51
0.0
 71
     0
 72
   600
 73
     1
 74
     1
 75
     0
 76
     0
 77
     0
 78
     0
  0
ENDTAB
  0
TABLE
  2
LTYPE
 70
     3
  0
LTYPE
  2
CONTINUOUS
 70
     0
  3
Solid line
 72
    65
 73
     0
 40
0.0
  0
LTYPE
  2
ACAD_ISO08W100
 70
     0
  3
ISO long-dash short-dash ____ __ ____ __ ____ _
 72
    65
 73
     4
 40
36.0
 49
24.0
 49
-3.0
 49
6.0
 49
-3.0
  0
LTYPE
  2
ACAD_ISO02W100
 70
     0
  3
ISO dash __ __ __ __ __ __ __ __ __ __ __ __ __
 72
    65
 73
     2
 40
15.0
 49
12.0
 49
-3.0
  0
ENDTAB
  0
TABLE
  2
LAYER
 70
     7
  0
LAYER
  2
0
 70
     0
 62
     7
  6
CONTINUOUS
  0
LAYER
  2
DEFPOINTS
 70
     0
 62
     7
  6
CONTINUOUS
  0
LAYER
  2
OBJECT
 70
     0
 62
     4
  6
CONTINUOUS
  0
LAYER
  2
HIDDEN
 70
     0
 62
     2
  6
ACAD_ISO02W100
  0
LAYER
  2
CENTER
 70
     0
 62
     2
  6
ACAD_ISO08W100
  0
LAYER
  2
DOTS
 70
     0
 62
     1
  6
CONTINUOUS
  0
LAYER
  2
SLIM
 70
     0
 62
     2
  6
CONTINUOUS
  0
ENDTAB
  0
TABLE
  2
STYLE
 70
     2
  0
STYLE
  2
STANDARD
 70
     0
 40
0.0
 41
0.75
 50
0.0
 71
     0
 42
4.0
  3
simplex.shx
  4
bigfont.shx
  0
ENDTAB
  0
TABLE
  2
VIEW
 70
     0
  0
ENDTAB
  0
TABLE
  2
UCS
 70
     0
  0
ENDTAB
  0
TABLE
  2
APPID
 70
    18
  0
APPID
  2
ACAD
 70
     0
  0
APPID
  2
ACADANNOTATIVE
 70
     0
  0
APPID
  2
ACAD_PSEXT
 70
     0
  0
APPID
  2
ACAD_EXEMPT_FROM_CAD_STANDARDS
 70
     0
  0
APPID
  2
ACAECLAYERSTANDARD
 70
     0
  0
APPID
  2
ACAUTHENVIRON
 70
     0
  0
APPID
  2
ACDBDYNAMICBLOCKTRUENAME
 70
     0
  0
APPID
  2
ACDBDYNAMICBLOCKGUID
 70
     0
  0
APPID
  2
ACDBBLOCKREPETAG
 70
     0
  0
APPID
  2
ACDBBLOCKREPBTAG
 70
     0
  0
APPID
  2
ACAD_NAV_VCDISPLAY
 70
     0
  0
APPID
  2
ACAD_DSTYLE_DIMRADIAL_EXTENSION
 70
     0
  0
APPID
  2
ACAD_DSTYLE_DIMJAG
 70
     0
  0
APPID
  2
ACAD_DSTYLE_DIMTALN
 70
     0
  0
APPID
  2
ACADANNOPO
 70
     0
  0
APPID
  2
GRADIENTCOLOR1ACI
 70
     0
  0
APPID
  2
GRADIENTCOLOR2ACI
 70
     0
  0
APPID
  2
ACAD_MLEADERVER
 70
     0
  0
ENDTAB
  0
TABLE
  2
DIMSTYLE
 70
     3
  0
DIMSTYLE
  2
STANDARD
 70
     0
  3

  4

  5

  6

  7

 40
1.0
 41
0.18
 42
0.0625
 43
0.38
 44
0.18
 45
0.0
 46
0.0
 47
0.0
 48
0.0
140
0.18
141
0.09
142
0.0
143
25.399999999999999
144
1.0
145
0.0
146
1.0
147
0.09
 71
     0
 72
     0
 73
     1
 74
     1
 75
     0
 76
     0
 77
     0
 78
     0
170
     0
171
     2
172
     0
173
     0
174
     0
175
     0
176
     0
177
     0
178
     0
  0
DIMSTYLE
  2
S10
 70
     0
  3

  4

  5

  6

  7

 40
10.0
 41
2.0
 42
1.0
 43
10.0
 44
1.0
 45
0.0
 46
0.0
 47
0.0
 48
0.0
140
3.2000000000000002
141
0.0
142
0.0
143
25.399999999999999
144
1.0
145
0.0
146
1.0
147
0.9
 71
     0
 72
     0
 73
     0
 74
     0
 75
     0
 76
     0
 77
     1
 78
     8
170
     0
171
     2
172
     1
173
     0
174
     0
175
     0
176
   256
177
   256
178
   256
  0
ENDTAB
  0
ENDSEC
  0
SECTION
  2
BLOCKS
  0
BLOCK
  8
0
  2
$MODEL_SPACE
 70
     0
 10
0.0
 20
0.0
 30
0.0
  3
$MODEL_SPACE
  1

  0
ENDBLK
  5
13542A
  8
0
  0
BLOCK
 67
     1
  8
0
  2
$PAPER_SPACE
 70
     0
 10
0.0
 20
0.0
 30
0.0
  3
$PAPER_SPACE
  1

  0
ENDBLK
  5
135426
 67
     1
  8
0
  0
BLOCK
  8
0
  2
_OPEN30
 70
     0
 10
0.0
 20
0.0
 30
0.0
  3
_OPEN30
  1

  0
LINE
  5
202
  8
0
  6
BYBLOCK
 62
     0
 10
-1.0
 20
0.26794919
 30
0.0
 11
0.0
 21
0.0
 31
0.0
  0
LINE
  5
203
  8
0
  6
BYBLOCK
 62
     0
 10
0.0
 20
0.0
 30
0.0
 11
-1.0
 21
-0.26794919
 31
0.0
  0
LINE
  5
204
  8
0
  6
BYBLOCK
 62
     0
 10
0.0
 20
0.0
 30
0.0
 11
-1.0
 21
0.0
 31
0.0
  0
ENDBLK
  5
206
  8
0
  0
ENDSEC
  0
SECTION
  2
ENTITIES
  0
LINE
  5
134F11
  8
OBJECT
 10
7777.0000000000136
 20
-577.99999999999761
 30
0.0
 11
7770.0000000000136
 21
-577.99999999999761
 31
0.0
1001
ACDBBLOCKREPETAG
1070
     1
1071
       83
1005
134F11
  0
LINE
  5
134F12
  8
OBJECT
 10
7770.0000000000136
 20
-577.99999999999761
 30
0.0
 11
7770.0000000000136
 21
-701.99999999999761
 31
0.0
1001
ACDBBLOCKREPETAG
1070
     1
1071
       84
1005
134F12
  0
LINE
  5
134F13
  8
OBJECT
 10
7894.0000000000164
 20
-648.35026377572513
 30
0.0
 11
7894.0000000000164
 21
-749.99999999999852
 31
0.0
1001
ACDBBLOCKREPETAG
1070
     1
1071
       85
1005
134F13
  0
LINE
  5
134F14
  8
OBJECT
 10
7770.0000000000136
 20
-701.99999999999761
 30
0.0
 11
7777.0000000000136
 21
-701.99999999999761
 31
0.0
1001
ACDBBLOCKREPETAG
1070
     1
1071
       86
1005
134F14
  0
LINE
  5
134F15
  8
OBJECT
 10
7777.0000000000136
 20
-701.99999999999761
 30
0.0
 11
7777.0000000000136
 21
-577.99999999999761
 31
0.0
1001
ACDBBLOCKREPETAG
1070
     1
1071
       87
1005
134F15
  0
LINE
  5
134F16
  8
CENTER
 10
7845.0000000000136
 20
-639.99999999999852
 30
0.0
 11
7755.0000000000136
 21
-639.99999999999761
 31
0.0
1001
ACDBBLOCKREPETAG
1070
     1
1071
       88
1005
134F16
  0
LINE
  5
134F17
  8
OBJECT
 10
7900.0000000000191
 20
-752.99999999999773
 30
0.0
 11
7897.0000000000136
 21
-752.99999999999852
 31
0.0
1001
ACDBBLOCKREPETAG
1070
     1
1071
       89
1005
134F17
  0
ARC
  5
134F18
  8
OBJECT
 10
7897.0000000000136
 20
-749.99999999999852
 30
0.0
 40
3.0
 50
180.0
 51
270.0
1001
ACDBBLOCKREPETAG
1070
     1
1071
       90
1005
134F18
  0
LINE
  5
134F19
  8
OBJECT
 10
7777.0000000000136
 20
-580.99999999999761
 30
0.0
 11
7813.0000000000127
 21
-580.99999999999852
 31
0.0
1001
ACDBBLOCKREPETAG
1070
     1
1071
       91
1005
134F19
  0
LINE
  5
134F1A
  8
OBJECT
 10
7813.0000000000127
 20
-580.99999999999852
 30
0.0
 11
7813.0000000000127
 21
-698.99999999999852
 31
0.0
1001
ACDBBLOCKREPETAG
1070
     1
1071
       92
1005
134F1A
  0
LINE
  5
134F1B
  8
OBJECT
 10
7817.0000000000136
 20
-585.49999999999852
 30
0.0
 11
7817.0000000000136
 21
-694.49999999999852
 31
0.0
1001
ACDBBLOCKREPETAG
1070
     1
1071
       93
1005
134F1B
  0
LINE
  5
134F1C
  8
OBJECT
 10
7817.0000000000136
 20
-585.49999999999852
 30
0.0
 11
7830.0000000000164
 21
-585.49999999999852
 31
0.0
1001
ACDBBLOCKREPETAG
1070
     1
1071
       94
1005
134F1C
  0
LINE
  5
134F1D
  8
OBJECT
 10
7813.0000000000127
 20
-698.99999999999852
 30
0.0
 11
7777.0000000000136
 21
-698.99999999999761
 31
0.0
1001
ACDBBLOCKREPETAG
1070
     1
1071
       95
1005
134F1D
  0
LINE
  5
134F1E
  8
OBJECT
 10
7813.0000000000127
 20
-580.99999999999852
 30
0.0
 11
7817.0000000000136
 21
-585.49999999999852
 31
0.0
1001
ACDBBLOCKREPETAG
1070
     1
1071
       96
1005
134F1E
  0
LINE
  5
134F1F
  8
OBJECT
 10
7830.0000000000164
 20
-585.49999999999852
 30
0.0
 11
7830.0000000000164
 21
-670.74491827928557
 31
0.0
1001
ACDBBLOCKREPETAG
1070
     1
1071
       97
1005
134F1F
  0
ARC
  5
134F20
  8
OBJECT
 10
7827.2000000000126
 20
-679.99999999999852
 30
0.0
 40
85.0
 50
36.869897645906562
 51
88.112268108168848
1001
ACDBBLOCKREPETAG
1070
     1
1071
       98
1005
134F20
  0
LINE
  5
134F21
  8
HIDDEN
 10
7822.0000000000136
 20
-595.49999999999841
 30
0.0
 11
7822.0000000000136
 21
-684.49999999999852
 31
0.0
1001
ACDBBLOCKREPETAG
1070
     1
1071
      100
1005
134F21
  0
LINE
  5
134F22
  8
OBJECT
 10
7894.0000000000164
 20
-746.07945073181554
 30
0.0
 11
7823.3686800789701
 21
-694.49999999999852
 31
0.0
1001
ACDBBLOCKREPETAG
1070
     1
1071
      101
1005
134F22
  0
LINE
  5
134F23
  8
OBJECT
 10
7900.0000000000191
 20
-628.99999999999761
 30
0.0
 11
7895.2000000000144
 21
-628.99999999999761
 31
0.0
1001
ACDBBLOCKREPETAG
1070
     1
1071
      102
1005
134F23
  0
LINE
  5
134F24
  8
OBJECT
 10
7894.0000000000164
 20
-648.35026377572785
 30
0.0
 11
7895.2000000000144
 21
-628.99999999999761
 31
0.0
1001
ACDBBLOCKREPETAG
1070
     1
1071
      103
1005
134F24
  0
LINE
  5
134F25
  8
OBJECT
 10
7817.0000000000136
 20
-694.49999999999852
 30
0.0
 11
7823.3686800789701
 21
-694.49999999999852
 31
0.0
1001
ACDBBLOCKREPETAG
1070
     1
1071
      104
1005
134F25
  0
LINE
  5
134F26
  8
OBJECT
 10
7813.0000000000127
 20
-698.99999999999852
 30
0.0
 11
7817.0000000000136
 21
-694.49999999999852
 31
0.0
1001
ACDBBLOCKREPETAG
1070
     1
1071
      105
1005
134F26
  0
CIRCLE
  5
134F27
  8
OBJECT
 10
8000.0
 20
-690.99999999999761
 30
0.0
 40
62.0
1001
ACDBBLOCKREPETAG
1070
     1
1071
        0
1005
134F27
  0
LINE
  5
134F28
  8
OBJECT
 10
8095.0
 20
-569.99999999999955
 30
0.0
 11
7905.0
 21
-569.99999999999955
 31
0.0
1001
ACDBBLOCKREPETAG
1070
     1
1071
        0
1005
134F28
  0
LINE
  5
134F29
  8
OBJECT
 10
8095.0
 20
-549.99999999999955
 30
0.0
 11
7905.0
 21
-549.99999999999955
 31
0.0
1001
ACDBBLOCKREPETAG
1070
     1
1071
        1
1005
134F29
  0
LINE
  5
134F2A
  8
OBJECT
 10
7902.5
 20
-914.99999999999955
 30
0.0
 11
8097.5000000000009
 21
-914.99999999999955
 31
0.0
1001
ACDBBLOCKREPETAG
1070
     1
1071
        2
1005
134F2A
  0
LINE
  5
134F2B
  8
OBJECT
 10
7908.237046000002
 20
-549.99999999999955
 30
0.0
 11
7908.2370465822614
 21
-569.99999999999955
 31
0.0
1001
ACDBBLOCKREPETAG
1070
     1
1071
        3
1005
134F2B
  0
LINE
  5
134F2C
  8
OBJECT
 10
7905.0
 20
-549.99999999999955
 30
0.0
 11
7905.0
 21
-569.99999999999955
 31
0.0
1001
ACDBBLOCKREPETAG
1070
     1
1071
        4
1005
134F2C
  0
LINE
  5
134F2D
  8
OBJECT
 10
7916.0249089999988
 20
-549.99999999999955
 30
0.0
 11
7916.0249089999988
 21
-569.99999999999955
 31
0.0
1001
ACDBBLOCKREPETAG
1070
     1
1071
        5
1005
134F2D
  0
LINE
  5
134F2E
  8
OBJECT
 10
7967.6243270000023
 20
-549.99999999999955
 30
0.0
 11
7967.6243270000023
 21
-569.99999999999955
 31
0.0
1001
ACDBBLOCKREPETAG
1070
     1
1071
        6
1005
134F2E
  0
LINE
  5
134F2F
  8
OBJECT
 10
7975.4121899999973
 20
-549.99999999999955
 30
0.0
 11
7975.4121899999973
 21
-569.99999999999955
 31
0.0
1001
ACDBBLOCKREPETAG
1070
     1
1071
        7
1005
134F2F
  0
LINE
  5
134F30
  8
OBJECT
 10
8024.5878090000006
 20
-549.99999999999955
 30
0.0
 11
8024.5878090000006
 21
-569.99999999999955
 31
0.0
1001
ACDBBLOCKREPETAG
1070
     1
1071
        8
1005
134F30
  0
LINE
  5
134F31
  8
OBJECT
 10
8032.3756720000038
 20
-549.99999999999955
 30
0.0
 11
8032.3756720000038
 21
-569.99999999999955
 31
0.0
1001
ACDBBLOCKREPETAG
1070
     1
1071
        9
1005
134F31
  0
LINE
  5
134F32
  8
OBJECT
 10
8083.9750910000021
 20
-549.99999999999955
 30
0.0
 11
8083.9750910000021
 21
-569.99999999999955
 31
0.0
1001
ACDBBLOCKREPETAG
1070
     1
1071
       10
1005
134F32
  0
LINE
  5
134F33
  8
OBJECT
 10
8091.762953999998
 20
-549.99999999999955
 30
0.0
 11
8091.7629534177404
 21
-569.99999999999955
 31
0.0
1001
ACDBBLOCKREPETAG
1070
     1
1071
       11
1005
134F33
  0
LINE
  5
134F34
  8
OBJECT
 10
8095.0
 20
-549.99999999999955
 30
0.0
 11
8095.0
 21
-569.99999999999955
 31
0.0
1001
ACDBBLOCKREPETAG
1070
     1
1071
       12
1005
134F34
  0
LINE
  5
134F35
  8
OBJECT
 10
8100.0
 20
-628.99999999999955
 30
0.0
 11
7900.0
 21
-628.99999999999955
 31
0.0
1001
ACDBBLOCKREPETAG
1070
     1
1071
       13
1005
134F35
  0
LINE
  5
134F36
  8
OBJECT
 10
8100.0
 20
-752.99999999999773
 30
0.0
 11
8092.4999999999973
 21
-752.99999999999773
 31
0.0
1001
ACDBBLOCKREPETAG
1070
     1
1071
       14
1005
134F36
  0
LINE
  5
134F37
  8
OBJECT
 10
7902.5
 20
-914.99999999999955
 30
0.0
 11
7902.5
 21
-902.99999999999784
 31
0.0
1001
ACDBBLOCKREPETAG
1070
     1
1071
       15
1005
134F37
  0
LINE
  5
134F38
  8
OBJECT
 10
8097.5000000000009
 20
-914.99999999999955
 30
0.0
 11
8097.5000000000009
 21
-902.99999999999784
 31
0.0
1001
ACDBBLOCKREPETAG
1070
     1
1071
       16
1005
134F38
  0
LINE
  5
134F39
  8
OBJECT
 10
7902.5
 20
-902.99999999999784
 30
0.0
 11
8097.5000000000009
 21
-902.99999999999784
 31
0.0
1001
ACDBBLOCKREPETAG
1070
     1
1071
       17
1005
134F39
  0
LINE
  5
134F3A
  8
HIDDEN
 10
7930.0
 20
-624.99999999999955
 30
0.0
 11
8070.0
 21
-624.99999999999955
 31
0.0
1001
ACDBBLOCKREPETAG
1070
     1
1071
       18
1005
134F3A
  0
LINE
  5
134F3B
  8
CENTER
 10
8000.0
 20
-534.99999999999955
 30
0.0
 11
8000.0
 21
-914.99999999999955
 31
0.0
1001
ACDBBLOCKREPETAG
1070
     1
1071
       19
1005
134F3B
  0
LINE
  5
134F3C
  8
OBJECT
 10
8092.4999999999973
 20
-752.99999999999773
 30
0.0
 11
8092.4999999999973
 21
-902.99999999999784
 31
0.0
1001
ACDBBLOCKREPETAG
1070
     1
1071
       20
1005
134F3C
  0
LINE
  5
134F3D
  8
OBJECT
 10
7914.5
 20
-569.99999999999955
 30
0.0
 11
7914.5
 21
-628.99999999999955
 31
0.0
1001
ACDBBLOCKREPETAG
1070
     1
1071
       21
1005
134F3D
  0
LINE
  5
134F3E
  8
OBJECT
 10
8085.5000000000027
 20
-569.99999999999955
 30
0.0
 11
8085.5000000000027
 21
-628.99999999999955
 31
0.0
1001
ACDBBLOCKREPETAG
1070
     1
1071
       22
1005
134F3E
  0
POINT
  5
134F3F
  8
DOTS
 10
8000.0
 20
-749.99999999999955
 30
0.0
1001
ACDBBLOCKREPETAG
1070
     1
1071
       24
1005
134F3F
  0
LINE
  5
134F40
  8
OBJECT
 10
7900.0
 20
-752.99999999999773
 30
0.0
 11
7907.5
 21
-752.99999999999773
 31
0.0
1001
ACDBBLOCKREPETAG
1070
     1
1071
       25
1005
134F40
  0
LINE
  5
134F41
  8
OBJECT
 10
7907.5
 20
-752.99999999999773
 30
0.0
 11
7907.5
 21
-902.99999999999784
 31
0.0
1001
ACDBBLOCKREPETAG
1070
     1
1071
       26
1005
134F41
  0
ARC
  5
134F42
  8
OBJECT
 10
8214.4155190291513
 20
-715.62073879202455
 30
0.0
 40
149.554492306393
 50
144.60628028468801
 51
164.2211863995189
1001
ACDBBLOCKREPETAG
1070
     1
1071
       28
1005
134F42
  0
ARC
  5
134F43
  8
OBJECT
 10
8139.1422781245292
 20
-690.99999999999761
 30
0.0
 40
70.496447952551449
 50
166.8426918235858
 51
193.15730817641409
1001
ACDBBLOCKREPETAG
1070
     1
1071
       29
1005
134F43
  0
ARC
  5
134F44
  8
OBJECT
 10
8214.4155190291513
 20
-666.3792612079701
 30
0.0
 40
149.55449230639621
 50
195.7788136004809
 51
215.3937197153119
1001
ACDBBLOCKREPETAG
1070
     1
1071
       30
1005
134F44
  0
ARC
  5
134F45
  8
OBJECT
 10
7785.5844809708497
 20
-715.62073879202455
 30
0.0
 40
149.554492306393
 50
15.778813600524931
 51
35.393719715228642
1001
ACDBBLOCKREPETAG
1070
     1
1071
       31
1005
134F45
  0
ARC
  5
134F46
  8
OBJECT
 10
7860.8577218754726
 20
-690.99999999999761
 30
0.0
 40
70.496447952551449
 50
346.84269182358582
 51
13.15730817641421
1001
ACDBBLOCKREPETAG
1070
     1
1071
       32
1005
134F46
  0
ARC
  5
134F47
  8
OBJECT
 10
7785.5844809708497
 20
-666.3792612079701
 30
0.0
 40
149.55449230639621
 50
324.60628028477117
 51
344.22118639947507
1001
ACDBBLOCKREPETAG
1070
     1
1071
       33
1005
134F47
  0
LINE
  5
134F48
  8
OBJECT
 10
7777.0000000000109
 20
-261.99999999999909
 30
0.0
 11
7770.0000000000136
 21
-261.99999999999909
 31
0.0
1001
ACDBBLOCKREPETAG
1070
     1
1071
       85
1005
134F48
  0
LINE
  5
134F49
  8
OBJECT
 10
7770.0000000000136
 20
-261.99999999999909
 30
0.0
 11
7770.0000000000136
 21
-137.99999999999909
 31
0.0
1001
ACDBBLOCKREPETAG
1070
     1
1071
       86
1005
134F49
  0
LINE
  5
134F4A
  8
OBJECT
 10
7770.0000000000136
 20
-137.99999999999909
 30
0.0
 11
7777.0000000000109
 21
-137.99999999999909
 31
0.0
1001
ACDBBLOCKREPETAG
1070
     1
1071
       87
1005
134F4A
  0
LINE
  5
134F4B
  8
OBJECT
 10
7777.0000000000109
 20
-137.99999999999909
 30
0.0
 11
7777.0000000000109
 21
-261.99999999999909
 31
0.0
1001
ACDBBLOCKREPETAG
1070
     1
1071
       88
1005
134F4B
  0
LINE
  5
134F4C
  8
CENTER
 10
7755.0000000000109
 20
-199.99999999999909
 30
0.0
 11
7899.9999999999973
 21
-199.99999999999909
 31
0.0
1001
ACDBBLOCKREPETAG
1070
     1
1071
       89
1005
134F4C
  0
LINE
  5
134F4D
  8
OBJECT
 10
7830.0000250358107
 20
-154.9999999999954
 30
0.0
 11
7893.9999999999973
 21
-154.99999999999909
 31
0.0
1001
ACDBBLOCKREPETAG
1070
     1
1071
       90
1005
134F4D
  0
LINE
  5
134F4E
  8
OBJECT
 10
7830.0000250358107
 20
-244.99999999999909
 30
0.0
 11
7893.9999999999973
 21
-244.99999999999909
 31
0.0
1001
ACDBBLOCKREPETAG
1070
     1
1071
       91
1005
134F4E
  0
LINE
  5
134F4F
  8
OBJECT
 10
7777.0000000000109
 20
-258.99999999999909
 30
0.0
 11
7813.0000000000109
 21
-258.99999999999909
 31
0.0
1001
ACDBBLOCKREPETAG
1070
     1
1071
       92
1005
134F4F
  0
LINE
  5
134F50
  8
OBJECT
 10
7813.0000000000109
 20
-258.99999999999909
 30
0.0
 11
7813.0000000000109
 21
-140.99999999999909
 31
0.0
1001
ACDBBLOCKREPETAG
1070
     1
1071
       93
1005
134F50
  0
LINE
  5
134F51
  8
OBJECT
 10
7813.0000000000109
 20
-140.99999999999909
 30
0.0
 11
7777.0000000000109
 21
-140.99999999999909
 31
0.0
1001
ACDBBLOCKREPETAG
1070
     1
1071
       94
1005
134F51
  0
LINE
  5
134F52
  8
OBJECT
 10
7817.0000000000109
 20
-254.49999999999909
 30
0.0
 11
7830.0000000000109
 21
-254.49999999999909
 31
0.0
1001
ACDBBLOCKREPETAG
1070
     1
1071
       95
1005
134F52
  0
LINE
  5
134F53
  8
OBJECT
 10
7830.0000000000109
 20
-145.49999999999909
 30
0.0
 11
7817.0000000000109
 21
-145.49999999999909
 31
0.0
1001
ACDBBLOCKREPETAG
1070
     1
1071
       96
1005
134F53
  0
LINE
  5
134F54
  8
OBJECT
 10
7817.0000000000109
 20
-145.49999999999909
 30
0.0
 11
7817.0000000000109
 21
-254.49999999999909
 31
0.0
1001
ACDBBLOCKREPETAG
1070
     1
1071
       97
1005
134F54
  0
LINE
  5
134F55
  8
OBJECT
 10
7813.0000000000109
 20
-258.99999999999909
 30
0.0
 11
7817.0000000000109
 21
-254.49999999999909
 31
0.0
1001
ACDBBLOCKREPETAG
1070
     1
1071
       98
1005
134F55
  0
LINE
  5
134F56
  8
OBJECT
 10
7813.0000000000109
 20
-140.99999999999909
 30
0.0
 11
7817.0000000000109
 21
-145.49999999999909
 31
0.0
1001
ACDBBLOCKREPETAG
1070
     1
1071
       99
1005
134F56
  0
LINE
  5
134F57
  8
OBJECT
 10
7896.9999999999973
 20
-261.99999999999909
 30
0.0
 11
7899.9999999999973
 21
-261.99999999999909
 31
0.0
1001
ACDBBLOCKREPETAG
1070
     1
1071
      100
1005
134F57
  0
ARC
  5
134F58
  8
OBJECT
 10
7896.9999999999973
 20
-258.99999999999909
 30
0.0
 40
3.0
 50
180.0
 51
270.0
1001
ACDBBLOCKREPETAG
1070
     1
1071
      101
1005
134F58
  0
LINE
  5
134F59
  8
OBJECT
 10
7899.9999999999973
 20
-137.99999999999909
 30
0.0
 11
7896.9999999999973
 21
-137.99999999999909
 31
0.0
1001
ACDBBLOCKREPETAG
1070
     1
1071
      102
1005
134F59
  0
ARC
  5
134F5A
  8
OBJECT
 10
7896.9999999999973
 20
-140.99999999999909
 30
0.0
 40
3.0
 50
90.0
 51
180.0
1001
ACDBBLOCKREPETAG
1070
     1
1071
      103
1005
134F5A
  0
LINE
  5
134F5B
  8
OBJECT
 10
7893.9999999999973
 20
-140.99999999999909
 30
0.0
 11
7893.9999999999973
 21
-189.6772096796403
 31
0.0
1001
ACDBBLOCKREPETAG
1070
     1
1071
      104
1005
134F5B
  0
LINE
  5
134F5C
  8
OBJECT
 10
7893.9999999999973
 20
-210.3227903203578
 30
0.0
 11
7893.9999999999973
 21
-258.99999999999909
 31
0.0
1001
ACDBBLOCKREPETAG
1070
     1
1071
      105
1005
134F5C
  0
LINE
  5
134F5D
  8
HIDDEN
 10
7822.0000000000109
 20
-244.49999999999909
 30
0.0
 11
7822.0000000000109
 21
-155.49999999999909
 31
0.0
1001
ACDBBLOCKREPETAG
1070
     1
1071
      106
1005
134F5D
  0
LINE
  5
134F5E
  8
OBJECT
 10
7830.0000250358107
 20
-145.50004907618759
 30
0.0
 11
7830.0000250358107
 21
-254.50004907618771
 31
0.0
1001
ACDBBLOCKREPETAG
1070
     1
1071
      108
1005
134F5E
  0
ARC
  5
134F5F
  8
OBJECT
 10
7850.1999999999689
 20
-199.99999999999909
 30
0.0
 40
45.000000000000547
 50
270.0
 51
90.0
1001
ACDBBLOCKREPETAG
1070
     1
1071
      109
1005
134F5F
  0
LINE
  5
134F60
  8
CENTER
 10
8000.0000000000027
 20
-320.99999999999898
 30
0.0
 11
8000.0000000000027
 21
-299.99999999999898
 31
0.0
1001
ACDBBLOCKREPETAG
1070
     1
1071
        0
1005
134F60
  0
LINE
  5
134F61
  8
OBJECT
 10
8062.0000000000018
 20
-303.0
 30
0.0
 11
8062.0000000000018
 21
-299.99999999999898
 31
0.0
1001
ACDBBLOCKREPETAG
1070
     1
1071
        1
1005
134F61
  0
ARC
  5
134F62
  8
OBJECT
 10
8059.0000000000018
 20
-303.0
 30
0.0
 40
3.0
 50
270.0
 51
0.0
1001
ACDBBLOCKREPETAG
1070
     1
1071
        2
1005
134F62
  0
LINE
  5
134F63
  8
OBJECT
 10
7938.0000000000018
 20
-299.99999999999898
 30
0.0
 11
7938.0000000000018
 21
-302.99999999999818
 31
0.0
1001
ACDBBLOCKREPETAG
1070
     1
1071
        3
1005
134F63
  0
ARC
  5
134F64
  8
OBJECT
 10
7941.0000000000018
 20
-302.99999999999818
 30
0.0
 40
3.0
 50
180.0
 51
270.0
1001
ACDBBLOCKREPETAG
1070
     1
1071
        4
1005
134F64
  0
LINE
  5
134F65
  8
OBJECT
 10
7941.0000000000018
 20
-305.99999999999818
 30
0.0
 11
8059.0000000000018
 21
-306.0
 31
0.0
1001
ACDBBLOCKREPETAG
1070
     1
1071
        5
1005
134F65
  0
LINE
  5
134F66
  8
SLIM
 10
7918.5743713244692
 20
-137.74153073842379
 30
0.0
 11
7937.7415307384244
 21
-118.5743713244679
 31
0.0
1001
GRADIENTCOLOR1ACI
1070
     5
1001
GRADIENTCOLOR2ACI
1070
     2
1001
ACAD
1010
0.0
1020
0.0
1030
0.0
1001
ACDBBLOCKREPETAG
1070
     1
1071
      301
1005
134F66
  0
LINE
  5
134F67
  8
SLIM
 10
7927.2961581839618
 20
-137.99999999999909
 30
0.0
 11
7959.4220169794107
 21
-105.8741412045496
 31
0.0
1001
GRADIENTCOLOR1ACI
1070
     5
1001
GRADIENTCOLOR2ACI
1070
     2
1001
ACAD
1010
0.0
1020
0.0
1030
0.0
1001
ACDBBLOCKREPETAG
1070
     1
1071
      302
1005
134F67
  0
LINE
  5
134F68
  8
SLIM
 10
7955.2080715681668
 20
-119.0683427368643
 30
0.0
 11
7973.21479235677
 21
-101.06162194825821
 31
0.0
1001
GRADIENTCOLOR1ACI
1070
     5
1001
GRADIENTCOLOR2ACI
1070
     2
1001
ACAD
1010
0.0
1020
0.0
1030
0.0
1001
ACDBBLOCKREPETAG
1070
     1
1071
      303
1005
134F68
  0
LINE
  5
134F69
  8
SLIM
 10
7971.1389053532557
 20
-112.11776507284389
 30
0.0
 11
7984.5919680901698
 21
-98.664702335928993
 31
0.0
1001
GRADIENTCOLOR1ACI
1070
     5
1001
GRADIENTCOLOR2ACI
1070
     2
1001
ACAD
1010
0.0
1020
0.0
1030
0.0
1001
ACDBBLOCKREPETAG
1070
     1
1071
      304
1005
134F69
  0
LINE
  5
134F6A
  8
SLIM
 10
7986.2342955596032
 20
-106.0026309875652
 30
0.0
 11
7994.59428198766
 21
-97.642644559507801
 31
0.0
1001
GRADIENTCOLOR1ACI
1070
     5
1001
GRADIENTCOLOR2ACI
1070
     2
1001
ACAD
1010
0.0
1020
0.0
1030
0.0
1001
ACDBBLOCKREPETAG
1070
     1
1071
      278
1005
134F6A
  0
LINE
  5
134F6B
  8
SLIM
 10
7996.1386775409328
 20
-105.0785051273038
 30
0.0
 11
8000.0
 21
-101.21718266823839
 31
0.0
1001
GRADIENTCOLOR1ACI
1070
     5
1001
GRADIENTCOLOR2ACI
1070
     2
1001
ACAD
1010
0.0
1020
0.0
1030
0.0
1001
ACDBBLOCKREPETAG
1070
     1
1071
      305
1005
134F6B
  0
LINE
  5
134F6C
  8
SLIM
 10
8000.0
 20
-101.21718266823839
 30
0.0
 11
8003.652099419467
 21
-97.565083248774314
 31
0.0
1001
GRADIENTCOLOR1ACI
1070
     5
1001
GRADIENTCOLOR2ACI
1070
     2
1001
ACAD
1010
0.0
1020
0.0
1030
0.0
1001
ACDBBLOCKREPETAG
1070
     1
1071
      306
1005
134F6C
  0
LINE
  5
134F6D
  8
SLIM
 10
8005.0624562444928
 20
-105.13498254481389
 30
0.0
 11
8011.9933588609547
 21
-98.204079928355625
 31
0.0
1001
GRADIENTCOLOR1ACI
1070
     5
1001
GRADIENTCOLOR2ACI
1070
     2
1001
ACAD
1010
0.0
1020
0.0
1030
0.0
1001
ACDBBLOCKREPETAG
1070
     1
1071
      307
1005
134F6D
  0
LINE
  5
134F6E
  8
SLIM
 10
8013.2492495222623
 20
-105.9284453881143
 30
0.0
 11
8019.7558130592479
 21
-99.421881851129058
 31
0.0
1001
GRADIENTCOLOR1ACI
1070
     5
1001
GRADIENTCOLOR2ACI
1070
     2
1001
ACAD
1010
0.0
1020
0.0
1030
0.0
1001
ACDBBLOCKREPETAG
1070
     1
1071
      282
1005
134F6E
  0
LINE
  5
134F6F
  8
SLIM
 10
8020.8432248281188
 20
-107.31472620332499
 30
0.0
 11
8027.0297896486627
 21
-101.1281613827821
 31
0.0
1001
GRADIENTCOLOR1ACI
1070
     5
1001
GRADIENTCOLOR2ACI
1070
     2
1001
ACAD
1010
0.0
1020
0.0
1030
0.0
1001
ACDBBLOCKREPETAG
1070
     1
1071
      283
1005
134F6F
  0
LINE
  5
134F70
  8
SLIM
 10
8026.7444850762586
 20
-110.3937220762563
 30
0.0
 11
8033.877784086586
 21
-103.2604230659298
 31
0.0
1001
GRADIENTCOLOR1ACI
1070
     5
1001
GRADIENTCOLOR2ACI
1070
     2
1001
ACAD
1010
0.0
1020
0.0
1030
0.0
1001
ACDBBLOCKREPETAG
1070
     1
1071
      284
1005
134F70
  0
LINE
  5
134F71
  8
SLIM
 10
8032.6605739035549
 20
-113.4578893700272
 30
0.0
 11
8040.3445940865868
 21
-105.7738691869987
 31
0.0
1001
GRADIENTCOLOR1ACI
1070
     5
1001
GRADIENTCOLOR2ACI
1070
     2
1001
ACAD
1010
0.0
1020
0.0
1030
0.0
1001
ACDBBLOCKREPETAG
1070
     1
1071
      285
1005
134F71
  0
LINE
  5
134F72
  8
SLIM
 10
8038.983012933968
 20
-116.115706460684
 30
0.0
 11
8046.4630285156381
 21
-108.63569087901411
 31
0.0
1001
GRADIENTCOLOR1ACI
1070
     5
1001
GRADIENTCOLOR2ACI
1070
     2
1001
ACAD
1010
0.0
1020
0.0
1030
0.0
1001
ACDBBLOCKREPETAG
1070
     1
1071
      286
1005
134F72
  0
LINE
  5
134F73
  8
SLIM
 10
8044.9326113883499
 20
-119.1463641273716
 30
0.0
 11
8052.2573273714534
 21
-111.8216481442697
 31
0.0
1001
GRADIENTCOLOR1ACI
1070
     5
1001
GRADIENTCOLOR2ACI
1070
     2
1001
ACAD
1010
0.0
1020
0.0
1030
0.0
1001
ACDBBLOCKREPETAG
1070
     1
1071
      287
1005
134F73
  0
LINE
  5
134F74
  8
SLIM
 10
8050.5348792738341
 20
-122.5243523629576
 30
0.0
 11
8057.7453005374227
 21
-115.3139310993673
 31
0.0
1001
GRADIENTCOLOR1ACI
1070
     5
1001
GRADIENTCOLOR2ACI
1070
     2
1001
ACAD
1010
0.0
1020
0.0
1030
0.0
1001
ACDBBLOCKREPETAG
1070
     1
1071
      288
1005
134F74
  0
LINE
  5
134F75
  8
SLIM
 10
7919.0997883728269
 20
-262.93969938503398
 30
0.0
 11
7920.039487757861
 21
-261.99999999999909
 31
0.0
1001
GRADIENTCOLOR1ACI
1070
     5
1001
GRADIENTCOLOR2ACI
1070
     2
1001
ACAD
1010
0.0
1020
0.0
1030
0.0
1001
ACDBBLOCKREPETAG
1070
     1
1071
      289
1005
134F75
  0
LINE
  5
134F76
  8
SLIM
 10
8055.807705723706
 20
-126.2317820341551
 30
0.0
 11
8062.9396993850351
 21
-119.0997883728258
 31
0.0
1001
GRADIENTCOLOR1ACI
1070
     5
1001
GRADIENTCOLOR2ACI
1070
     2
1001
ACAD
1010
0.0
1020
0.0
1030
0.0
1001
ACDBBLOCKREPETAG
1070
     1
1071
      290
1005
134F76
  0
LINE
  5
134F77
  8
SLIM
 10
7923.1706450290276
 20
-267.84909884990361
 30
0.0
 11
7929.019743878931
 21
-261.99999999999909
 31
0.0
1001
GRADIENTCOLOR1ACI
1070
     5
1001
GRADIENTCOLOR2ACI
1070
     2
1001
ACAD
1010
0.0
1020
0.0
1030
0.0
1001
ACDBBLOCKREPETAG
1070
     1
1071
      291
1005
134F77
  0
LINE
  5
134F78
  8
SLIM
 10
8060.7629465796699
 20
-130.25679729926071
 30
0.0
 11
8067.8490988499034
 21
-123.17064502902539
 31
0.0
1001
GRADIENTCOLOR1ACI
1070
     5
1001
GRADIENTCOLOR2ACI
1070
     2
1001
ACAD
1010
0.0
1020
0.0
1030
0.0
1001
ACDBBLOCKREPETAG
1070
     1
1071
      292
1005
134F78
  0
LINE
  5
134F79
  8
SLIM
 10
7927.5215549283794
 20
-272.47844507162011
 30
0.0
 11
7934.5926227402433
 21
-265.40737725975481
 31
0.0
1001
GRADIENTCOLOR1ACI
1070
     5
1001
GRADIENTCOLOR2ACI
1070
     2
1001
ACAD
1010
0.0
1020
0.0
1030
0.0
1001
ACDBBLOCKREPETAG
1070
     1
1071
      293
1005
134F79
  0
LINE
  5
134F7A
  8
SLIM
 10
8065.4073772597576
 20
-134.5926227402434
 30
0.0
 11
8072.4784450716224
 21
-127.52155492837799
 31
0.0
1001
GRADIENTCOLOR1ACI
1070
     5
1001
GRADIENTCOLOR2ACI
1070
     2
1001
ACAD
1010
0.0
1020
0.0
1030
0.0
1001
ACDBBLOCKREPETAG
1070
     1
1071
      294
1005
134F7A
  0
LINE
  5
134F7B
  8
SLIM
 10
7932.1509011500939
 20
-276.82935497097282
 30
0.0
 11
7937.9999999999936
 21
-270.980256121075
 31
0.0
1001
GRADIENTCOLOR1ACI
1070
     5
1001
GRADIENTCOLOR2ACI
1070
     2
1001
ACAD
1010
0.0
1020
0.0
1030
0.0
1001
ACDBBLOCKREPETAG
1070
     1
1071
      295
1005
134F7B
  0
LINE
  5
134F7C
  8
SLIM
 10
8070.980256121069
 20
-137.99999999999901
 30
0.0
 11
8076.8293549709733
 21
-132.15090115009451
 31
0.0
1001
GRADIENTCOLOR1ACI
1070
     5
1001
GRADIENTCOLOR2ACI
1070
     2
1001
ACAD
1010
0.0
1020
0.0
1030
0.0
1001
ACDBBLOCKREPETAG
1070
     1
1071
      296
1005
134F7C
  0
LINE
  5
134F7D
  8
SLIM
 10
7937.0603006149649
 20
-280.90021162717238
 30
0.0
 11
7937.9999999999955
 21
-279.9605122421421
 31
0.0
1001
GRADIENTCOLOR1ACI
1070
     5
1001
GRADIENTCOLOR2ACI
1070
     2
1001
ACAD
1010
0.0
1020
0.0
1030
0.0
1001
ACDBBLOCKREPETAG
1070
     1
1071
      297
1005
134F7D
  0
LINE
  5
134F7E
  8
SLIM
 10
8079.9605122421362
 20
-137.99999999999901
 30
0.0
 11
8080.9002116271704
 21
-137.06030061496409
 31
0.0
1001
GRADIENTCOLOR1ACI
1070
     5
1001
GRADIENTCOLOR2ACI
1070
     2
1001
ACAD
1010
0.0
1020
0.0
1030
0.0
1001
ACDBBLOCKREPETAG
1070
     1
1071
      298
1005
134F7E
  0
LINE
  5
134F7F
  8
SLIM
 10
8062.0000000000018
 20
-272.70384181603538
 30
0.0
 11
8072.7038418160373
 21
-261.99999999999909
 31
0.0
1001
GRADIENTCOLOR1ACI
1070
     5
1001
GRADIENTCOLOR2ACI
1070
     2
1001
ACAD
1010
0.0
1020
0.0
1030
0.0
1001
ACDBBLOCKREPETAG
1070
     1
1071
      299
1005
134F7F
  0
LINE
  5
134F80
  8
SLIM
 10
8062.2584692615746
 20
-281.4256286755305
 30
0.0
 11
8081.4256286755299
 21
-262.25846926157431
 31
0.0
1001
GRADIENTCOLOR1ACI
1070
     5
1001
GRADIENTCOLOR2ACI
1070
     2
1001
ACAD
1010
0.0
1020
0.0
1030
0.0
1001
ACDBBLOCKREPETAG
1070
     1
1071
      300
1005
134F80
  0
LINE
  5
134F81
  8
OBJECT
 10
8068.6458301719767
 20
-137.99999999999909
 30
0.0
 11
8100.0
 21
-137.99999999999909
 31
0.0
1001
ACDBBLOCKREPETAG
1070
     1
1071
      242
1005
134F81
  0
LINE
  5
134F82
  8
OBJECT
 10
8068.6458301719767
 20
-261.99999999999909
 30
0.0
 11
8100.0000000000064
 21
-261.99999999999909
 31
0.0
1001
ACDBBLOCKREPETAG
1070
     1
1071
      243
1005
134F82
  0
LINE
  5
134F83
  8
OBJECT
 10
8062.0
 20
-268.64583017197862
 30
0.0
 11
8062.00000000001
 21
-299.99999999999898
 31
0.0
1001
ACDBBLOCKREPETAG
1070
     1
1071
      244
1005
134F83
  0
LINE
  5
134F84
  8
OBJECT
 10
7937.9999999999891
 20
-268.64583017197492
 30
0.0
 11
7938.0
 21
-299.99999999999898
 31
0.0
1001
ACDBBLOCKREPETAG
1070
     1
1071
      245
1005
134F84
  0
LINE
  5
134F85
  8
OBJECT
 10
7931.354169828026
 20
-261.99999999999909
 30
0.0
 11
7899.9999999999909
 21
-261.99999999999909
 31
0.0
1001
ACDBBLOCKREPETAG
1070
     1
1071
      246
1005
134F85
  0
LINE
  5
134F86
  8
OBJECT
 10
7931.354169828026
 20
-137.99999999999909
 30
0.0
 11
7899.9999999999909
 21
-137.99999999999909
 31
0.0
1001
ACDBBLOCKREPETAG
1070
     1
1071
      247
1005
134F86
  0
LINE
  5
134F87
  8
CENTER
 10
7900.0
 20
-199.99999999999909
 30
0.0
 11
8100.0
 21
-199.99999999999909
 31
0.0
1001
ACDBBLOCKREPETAG
1070
     1
1071
      251
1005
134F87
  0
LINE
  5
134F88
  8
CENTER
 10
8000.0
 20
-82.499999999999091
 30
0.0
 11
8000.0
 21
-299.99999999999898
 31
0.0
1001
ACDBBLOCKREPETAG
1070
     1
1071
      252
1005
134F88
  0
ARC
  5
134F89
  8
OBJECT
 10
8000.0
 20
-199.99999999999909
 30
0.0
 40
102.5
 50
37.220066868561332
 51
142.77993313143861
1001
ACDBBLOCKREPETAG
1070
     1
1071
      256
1005
134F89
  0
ARC
  5
134F8A
  8
OBJECT
 10
8000.0
 20
-199.99999999999909
 30
0.0
 40
102.5
 50
217.2200668685613
 51
232.7799331314061
1001
ACDBBLOCKREPETAG
1070
     1
1071
      257
1005
134F8A
  0
ARC
  5
134F8B
  8
OBJECT
 10
8000.0
 20
-199.99999999999909
 30
0.0
 40
102.5
 50
307.2200668685939
 51
322.77993313143872
1001
ACDBBLOCKREPETAG
1070
     1
1071
      258
1005
134F8B
  0
ARC
  5
134F8C
  8
OBJECT
 10
7973.8931207053256
 20
-173.82438331578209
 30
0.0
 40
90.0
 50
274.21795726566182
 51
281.60300086768922
1001
ACDBBLOCKREPETAG
1070
     1
1071
      261
1005
134F8C
  0
LINE
  5
134F8D
  8
OBJECT
 10
7991.994750999992
 20
-261.98520799999727
 30
0.0
 11
7996.6424319999942
 21
-248.3387539999994
 31
0.0
1001
ACDBBLOCKREPETAG
1070
     1
1071
      262
1005
134F8D
  0
LINE
  5
134F8E
  8
OBJECT
 10
7955.2887960976786
 20
-207.0733020425842
 30
0.0
 11
7935.6054186421097
 21
-216.60084009147889
 31
0.0
1001
ACDBBLOCKREPETAG
1070
     1
1071
      263
1005
134F8E
  0
LINE
  5
134F8F
  8
OBJECT
 10
7937.3350639238643
 20
-222.25658973369261
 30
0.0
 11
7961.7560738851162
 21
-210.43584915155679
 31
0.0
1001
ACDBBLOCKREPETAG
1070
     1
1071
      264
1005
134F8F
  0
LINE
  5
134F90
  8
OBJECT
 10
7996.6424319999942
 20
-248.3387539999994
 30
0.0
 11
7970.3289245926408
 21
-210.9660806555467
 31
0.0
1001
ACDBBLOCKREPETAG
1070
     1
1071
      265
1005
134F90
  0
ARC
  5
134F91
  8
OBJECT
 10
7960.5170048000518
 20
-217.87449798398211
 30
0.0
 40
12.0
 50
35.148769561161963
 51
115.8288295732624
1001
ACDBBLOCKREPETAG
1070
     1
1071
      266
1005
134F91
  0
ARC
  5
134F92
  8
OBJECT
 10
7965.2415463179786
 20
-217.63664646295089
 30
0.0
 40
8.0
 50
35.148769561161963
 51
115.8288292916689
1001
ACDBBLOCKREPETAG
1070
     1
1071
      267
1005
134F92
  0
ARC
  5
134F93
  8
OBJECT
 10
8000.0
 20
-199.99999999999909
 30
0.0
 40
90.0
 50
201.08359599996521
 51
248.91640400002939
1001
ACDBBLOCKREPETAG
1070
     1
1071
      273
1005
134F93
  0
ARC
  5
134F94
  8
OBJECT
 10
8000.0
 20
-199.99999999999909
 30
0.0
 40
90.0
 50
111.0835959999705
 51
158.91640347115251
1001
ACDBBLOCKREPETAG
1070
     1
1071
      274
1005
134F94
  0
LINE
  5
134F95
  8
OBJECT
 10
7916.0249094448664
 20
-167.62432755513231
 30
0.0
 11
7908.2370465822614
 21
-175.41219041773809
 31
0.0
1001
ACDBBLOCKREPETAG
1070
     1
1071
      275
1005
134F95
  0
LINE
  5
134F96
  8
OBJECT
 10
7916.0249089999988
 20
-232.37567199999921
 30
0.0
 11
7908.2370469998141
 21
-224.58781114059909
 31
0.0
1001
ACDBBLOCKREPETAG
1070
     1
1071
      276
1005
134F96
  0
ARC
  5
134F97
  8
OBJECT
 10
8000.0
 20
-199.99999999999909
 30
0.0
 40
95.0
 50
164.99999981411651
 51
195.00000115873701
1001
ACDBBLOCKREPETAG
1070
     1
1071
      277
1005
134F97
  0
ARC
  5
134F98
  8
OBJECT
 10
8000.0
 20
-199.99999999999909
 30
0.0
 40
92.5
 50
287.80189678391901
 51
342.1981035993042
1001
ACDBBLOCKREPETAG
1070
     1
1071
      209
1005
134F98
  0
ARC
  5
134F99
  8
OBJECT
 10
8000.0
 20
-199.99999999999909
 30
0.0
 40
90.0
 50
291.08359599997061
 51
338.91640400003479
1001
ACDBBLOCKREPETAG
1070
     1
1071
      211
1005
134F99
  0
CIRCLE
  5
134F9A
  8
OBJECT
 10
8000.0
 20
-199.99999999999909
 30
0.0
 40
80.0
1001
ACDBBLOCKREPETAG
1070
     1
1071
      212
1005
134F9A
  0
ARC
  5
134F9B
  8
OBJECT
 10
8000.0
 20
-199.99999999999909
 30
0.0
 40
90.0
 50
21.08359652884743
 51
68.916404000029431
1001
ACDBBLOCKREPETAG
1070
     1
1071
      213
1005
134F9B
  0
CIRCLE
  5
134F9C
  8
OBJECT
 10
8000.0
 20
-199.99999999999909
 30
0.0
 40
66.5
1001
ACDBBLOCKREPETAG
1070
     1
1071
      215
1005
134F9C
  0
LINE
  5
134F9D
  8
OBJECT
 10
8083.9750905551327
 20
-167.62432755513231
 30
0.0
 11
8091.7629534177404
 21
-175.4121904177382
 31
0.0
1001
ACDBBLOCKREPETAG
1070
     1
1071
      216
1005
134F9D
  0
LINE
  5
134F9E
  8
OBJECT
 10
8083.9750910000021
 20
-232.37567199999921
 30
0.0
 11
8091.7629530001877
 21
-224.58781114059909
 31
0.0
1001
ACDBBLOCKREPETAG
1070
     1
1071
      217
1005
134F9E
  0
ARC
  5
134F9F
  8
OBJECT
 10
8000.0
 20
-199.99999999999909
 30
0.0
 40
95.0
 50
344.99999884126299
 51
15.00000018588349
1001
ACDBBLOCKREPETAG
1070
     1
1071
      218
1005
134F9F
  0
LINE
  5
134FA0
  8
OBJECT
 10
8032.375672999995
 20
-283.9750909999994
 30
0.0
 11
8024.587810948281
 21
-291.76295305171419
 31
0.0
1001
ACDBBLOCKREPETAG
1070
     1
1071
      219
1005
134FA0
  0
LINE
  5
134FA1
  8
OBJECT
 10
7967.6243279999981
 20
-283.9750909999994
 30
0.0
 11
7975.4121904177382
 21
-291.76295341774039
 31
0.0
1001
ACDBBLOCKREPETAG
1070
     1
1071
      220
1005
134FA1
  0
ARC
  5
134FA2
  8
OBJECT
 10
8000.0
 20
-199.99999999999909
 30
0.0
 40
95.0
 50
254.99999981420709
 51
285.00000103861061
1001
ACDBBLOCKREPETAG
1070
     1
1071
      221
1005
134FA2
  0
LINE
  5
134FA3
  8
OBJECT
 10
8032.375672999995
 20
-116.0249099999992
 30
0.0
 11
8024.5878095822618
 21
-108.2370465822578
 31
0.0
1001
ACDBBLOCKREPETAG
1070
     1
1071
      222
1005
134FA3
  0
ARC
  5
134FA4
  8
OBJECT
 10
8000.0
 20
-199.99999999999909
 30
0.0
 40
95.0
 50
74.999999814207143
 51
104.99999933254421
1001
ACDBBLOCKREPETAG
1070
     1
1071
      223
1005
134FA4
  0
LINE
  5
134FA5
  8
OBJECT
 10
7967.6243279999981
 20
-116.0249099999992
 30
0.0
 11
7975.4121917837692
 21
-108.2370462162316
 31
0.0
1001
ACDBBLOCKREPETAG
1070
     1
1071
      224
1005
134FA5
  0
LINE
  5
134FA6
  8
OBJECT
 10
8055.1784370000023
 20
-162.884098999998
 30
0.0
 11
8032.5345701092747
 21
-178.11554723457169
 31
0.0
1001
ACDBBLOCKREPETAG
1070
     1
1071
      225
1005
134FA6
  0
LINE
  5
134FA7
  8
OBJECT
 10
7944.804121000001
 20
-162.88106899999821
 30
0.0
 11
8032.5345701092747
 21
-178.11554723457169
 31
0.0
1001
ACDBBLOCKREPETAG
1070
     1
1071
      226
1005
134FA7
  0
ARC
  5
134FA8
  8
OBJECT
 10
8000.0
 20
-199.99999999999909
 30
0.0
 40
92.5
 50
197.8018954425261
 51
252.19810417408729
1001
ACDBBLOCKREPETAG
1070
     1
1071
      230
1005
134FA8
  0
ARC
  5
134FA9
  8
OBJECT
 10
8000.0
 20
-199.99999999999909
 30
0.0
 40
92.5
 50
107.80189486746769
 51
162.19810513270031
1001
ACDBBLOCKREPETAG
1070
     1
1071
      231
1005
134FA9
  0
ARC
  5
134FAA
  8
OBJECT
 10
8000.0
 20
-199.99999999999909
 30
0.0
 40
92.5
 50
17.801895825711568
 51
72.19810417408732
1001
ACDBBLOCKREPETAG
1070
     1
1071
      232
1005
134FAA
  0
ARC
  5
134FAB
  8
OBJECT
 10
8000.0
 20
-199.99999999999909
 30
0.0
 40
62.5
 50
144.42390307805491
 51
193.7174643726803
1001
ACDBBLOCKREPETAG
1070
     1
1071
      234
1005
134FAB
  0
ARC
  5
134FAC
  8
OBJECT
 10
8000.0
 20
-199.99999999999909
 30
0.0
 40
62.5
 50
262.64111297834887
 51
33.92683896333525
1001
ACDBBLOCKREPETAG
1070
     1
1071
      235
1005
134FAC
  0
POINT
  5
134FAD
  8
DOTS
 10
8000.0
 20
-199.99999999999909
 30
0.0
1001
ACDBBLOCKREPETAG
1070
     1
1071
      280
1005
134FAD
  0
LINE
  5
134FAE
  8
OBJECT
 10
8222.9999999999873
 20
-577.99999999999852
 30
0.0
 11
8229.9999999999873
 21
-577.99999999999852
 31
0.0
1001
ACDBBLOCKREPETAG
1070
     1
1071
       83
1005
134FAE
  0
LINE
  5
134FAF
  8
OBJECT
 10
8229.9999999999873
 20
-577.99999999999852
 30
0.0
 11
8229.9999999999873
 21
-701.99999999999852
 31
0.0
1001
ACDBBLOCKREPETAG
1070
     1
1071
       84
1005
134FAF
  0
LINE
  5
134FB0
  8
OBJECT
 10
8105.9999999999854
 20
-648.35026377572513
 30
0.0
 11
8105.9999999999854
 21
-749.99999999999852
 31
0.0
1001
ACDBBLOCKREPETAG
1070
     1
1071
       85
1005
134FB0
  0
LINE
  5
134FB1
  8
OBJECT
 10
8229.9999999999873
 20
-701.99999999999852
 30
0.0
 11
8222.9999999999873
 21
-701.99999999999852
 31
0.0
1001
ACDBBLOCKREPETAG
1070
     1
1071
       86
1005
134FB1
  0
LINE
  5
134FB2
  8
OBJECT
 10
8222.9999999999873
 20
-701.99999999999852
 30
0.0
 11
8222.9999999999873
 21
-577.99999999999852
 31
0.0
1001
ACDBBLOCKREPETAG
1070
     1
1071
       87
1005
134FB2
  0
LINE
  5
134FB3
  8
CENTER
 10
8154.9999999999864
 20
-639.99999999999852
 30
0.0
 11
8244.9999999999873
 21
-639.99999999999852
 31
0.0
1001
ACDBBLOCKREPETAG
1070
     1
1071
       88
1005
134FB3
  0
LINE
  5
134FB4
  8
OBJECT
 10
8099.9999999999809
 20
-752.99999999999773
 30
0.0
 11
8102.9999999999854
 21
-752.99999999999852
 31
0.0
1001
ACDBBLOCKREPETAG
1070
     1
1071
       89
1005
134FB4
  0
ARC
  5
134FB5
  8
OBJECT
 10
8102.9999999999854
 20
-749.99999999999852
 30
0.0
 40
3.0
 50
270.0
 51
0.0
1001
ACDBBLOCKREPETAG
1070
     1
1071
       90
1005
134FB5
  0
LINE
  5
134FB6
  8
OBJECT
 10
8222.9999999999873
 20
-580.99999999999852
 30
0.0
 11
8186.9999999999864
 21
-580.99999999999852
 31
0.0
1001
ACDBBLOCKREPETAG
1070
     1
1071
       91
1005
134FB6
  0
LINE
  5
134FB7
  8
OBJECT
 10
8186.9999999999864
 20
-580.99999999999852
 30
0.0
 11
8186.9999999999864
 21
-698.99999999999852
 31
0.0
1001
ACDBBLOCKREPETAG
1070
     1
1071
       92
1005
134FB7
  0
LINE
  5
134FB8
  8
OBJECT
 10
8182.9999999999873
 20
-585.49999999999852
 30
0.0
 11
8182.9999999999873
 21
-694.49999999999852
 31
0.0
1001
ACDBBLOCKREPETAG
1070
     1
1071
       93
1005
134FB8
  0
LINE
  5
134FB9
  8
OBJECT
 10
8182.9999999999873
 20
-585.49999999999852
 30
0.0
 11
8169.9999999999854
 21
-585.49999999999852
 31
0.0
1001
ACDBBLOCKREPETAG
1070
     1
1071
       94
1005
134FB9
  0
LINE
  5
134FBA
  8
OBJECT
 10
8186.9999999999864
 20
-698.99999999999852
 30
0.0
 11
8222.9999999999873
 21
-698.99999999999852
 31
0.0
1001
ACDBBLOCKREPETAG
1070
     1
1071
       95
1005
134FBA
  0
LINE
  5
134FBB
  8
OBJECT
 10
8186.9999999999864
 20
-580.99999999999852
 30
0.0
 11
8182.9999999999873
 21
-585.49999999999852
 31
0.0
1001
ACDBBLOCKREPETAG
1070
     1
1071
       96
1005
134FBB
  0
LINE
  5
134FBC
  8
OBJECT
 10
8169.9999999999854
 20
-585.49999999999852
 30
0.0
 11
8169.9999999999854
 21
-670.74491827928557
 31
0.0
1001
ACDBBLOCKREPETAG
1070
     1
1071
       97
1005
134FBC
  0
ARC
  5
134FBD
  8
OBJECT
 10
8172.7999999999856
 20
-679.99999999999852
 30
0.0
 40
85.0
 50
91.887731891831123
 51
143.1301023540934
1001
ACDBBLOCKREPETAG
1070
     1
1071
       98
1005
134FBD
  0
LINE
  5
134FBE
  8
HIDDEN
 10
8177.9999999999864
 20
-595.49999999999841
 30
0.0
 11
8177.9999999999864
 21
-684.49999999999852
 31
0.0
1001
ACDBBLOCKREPETAG
1070
     1
1071
      100
1005
134FBE
  0
LINE
  5
134FBF
  8
OBJECT
 10
8105.9999999999854
 20
-746.07945073181554
 30
0.0
 11
8176.6313199210299
 21
-694.49999999999852
 31
0.0
1001
ACDBBLOCKREPETAG
1070
     1
1071
      101
1005
134FBF
  0
LINE
  5
134FC0
  8
OBJECT
 10
8099.9999999999809
 20
-628.99999999999761
 30
0.0
 11
8104.7999999999838
 21
-628.99999999999761
 31
0.0
1001
ACDBBLOCKREPETAG
1070
     1
1071
      102
1005
134FC0
  0
LINE
  5
134FC1
  8
OBJECT
 10
8105.9999999999854
 20
-648.35026377572785
 30
0.0
 11
8104.7999999999838
 21
-628.99999999999761
 31
0.0
1001
ACDBBLOCKREPETAG
1070
     1
1071
      103
1005
134FC1
  0
LINE
  5
134FC2
  8
OBJECT
 10
8182.9999999999873
 20
-694.49999999999852
 30
0.0
 11
8176.6313199210299
 21
-694.49999999999852
 31
0.0
1001
ACDBBLOCKREPETAG
1070
     1
1071
      104
1005
134FC2
  0
LINE
  5
134FC3
  8
OBJECT
 10
8186.9999999999864
 20
-698.99999999999852
 30
0.0
 11
8182.9999999999873
 21
-694.49999999999852
 31
0.0
1001
ACDBBLOCKREPETAG
1070
     1
1071
      105
1005
134FC3
  0
LINE
  5
134FC4
  8
OBJECT
 10
8222.9999999999873
 20
-137.99999999999909
 30
0.0
 11
8229.9999999999873
 21
-137.99999999999909
 31
0.0
1001
ACDBBLOCKREPETAG
1070
     1
1071
       85
1005
134FC4
  0
LINE
  5
134FC5
  8
OBJECT
 10
8229.9999999999873
 20
-137.99999999999909
 30
0.0
 11
8229.9999999999873
 21
-261.99999999999909
 31
0.0
1001
ACDBBLOCKREPETAG
1070
     1
1071
       86
1005
134FC5
  0
LINE
  5
134FC6
  8
OBJECT
 10
8229.9999999999873
 20
-261.99999999999909
 30
0.0
 11
8222.9999999999873
 21
-261.99999999999909
 31
0.0
1001
ACDBBLOCKREPETAG
1070
     1
1071
       87
1005
134FC6
  0
LINE
  5
134FC7
  8
OBJECT
 10
8222.9999999999873
 20
-261.99999999999909
 30
0.0
 11
8222.9999999999873
 21
-137.99999999999909
 31
0.0
1001
ACDBBLOCKREPETAG
1070
     1
1071
       88
1005
134FC7
  0
LINE
  5
134FC8
  8
CENTER
 10
8244.9999999999873
 20
-199.99999999999909
 30
0.0
 11
8100.0
 21
-199.99999999999909
 31
0.0
1001
ACDBBLOCKREPETAG
1070
     1
1071
       89
1005
134FC8
  0
LINE
  5
134FC9
  8
OBJECT
 10
8169.9999749641856
 20
-245.0000000000027
 30
0.0
 11
8106.0
 21
-244.99999999999909
 31
0.0
1001
ACDBBLOCKREPETAG
1070
     1
1071
       90
1005
134FC9
  0
LINE
  5
134FCA
  8
OBJECT
 10
8169.9999749641856
 20
-154.99999999999909
 30
0.0
 11
8106.0
 21
-154.99999999999909
 31
0.0
1001
ACDBBLOCKREPETAG
1070
     1
1071
       91
1005
134FCA
  0
LINE
  5
134FCB
  8
OBJECT
 10
8222.9999999999873
 20
-140.99999999999909
 30
0.0
 11
8186.9999999999864
 21
-140.99999999999909
 31
0.0
1001
ACDBBLOCKREPETAG
1070
     1
1071
       92
1005
134FCB
  0
LINE
  5
134FCC
  8
OBJECT
 10
8186.9999999999864
 20
-140.99999999999909
 30
0.0
 11
8186.9999999999864
 21
-258.99999999999909
 31
0.0
1001
ACDBBLOCKREPETAG
1070
     1
1071
       93
1005
134FCC
  0
LINE
  5
134FCD
  8
OBJECT
 10
8186.9999999999864
 20
-258.99999999999909
 30
0.0
 11
8222.9999999999873
 21
-258.99999999999909
 31
0.0
1001
ACDBBLOCKREPETAG
1070
     1
1071
       94
1005
134FCD
  0
LINE
  5
134FCE
  8
OBJECT
 10
8182.9999999999873
 20
-145.49999999999909
 30
0.0
 11
8169.9999999999854
 21
-145.49999999999909
 31
0.0
1001
ACDBBLOCKREPETAG
1070
     1
1071
       95
1005
134FCE
  0
LINE
  5
134FCF
  8
OBJECT
 10
8169.9999999999854
 20
-254.49999999999909
 30
0.0
 11
8182.9999999999873
 21
-254.49999999999909
 31
0.0
1001
ACDBBLOCKREPETAG
1070
     1
1071
       96
1005
134FCF
  0
LINE
  5
134FD0
  8
OBJECT
 10
8182.9999999999873
 20
-254.49999999999909
 30
0.0
 11
8182.9999999999873
 21
-145.49999999999909
 31
0.0
1001
ACDBBLOCKREPETAG
1070
     1
1071
       97
1005
134FD0
  0
LINE
  5
134FD1
  8
OBJECT
 10
8186.9999999999864
 20
-140.99999999999909
 30
0.0
 11
8182.9999999999873
 21
-145.49999999999909
 31
0.0
1001
ACDBBLOCKREPETAG
1070
     1
1071
       98
1005
134FD1
  0
LINE
  5
134FD2
  8
OBJECT
 10
8186.9999999999864
 20
-258.99999999999909
 30
0.0
 11
8182.9999999999873
 21
-254.49999999999909
 31
0.0
1001
ACDBBLOCKREPETAG
1070
     1
1071
       99
1005
134FD2
  0
LINE
  5
134FD3
  8
OBJECT
 10
8103.0
 20
-137.99999999999909
 30
0.0
 11
8100.0
 21
-137.99999999999909
 31
0.0
1001
ACDBBLOCKREPETAG
1070
     1
1071
      100
1005
134FD3
  0
ARC
  5
134FD4
  8
OBJECT
 10
8103.0
 20
-140.99999999999909
 30
0.0
 40
3.0
 50
0.0
 51
90.0
1001
ACDBBLOCKREPETAG
1070
     1
1071
      101
1005
134FD4
  0
LINE
  5
134FD5
  8
OBJECT
 10
8100.0
 20
-261.99999999999909
 30
0.0
 11
8103.0
 21
-261.99999999999909
 31
0.0
1001
ACDBBLOCKREPETAG
1070
     1
1071
      102
1005
134FD5
  0
ARC
  5
134FD6
  8
OBJECT
 10
8103.0
 20
-258.99999999999909
 30
0.0
 40
3.0
 50
270.0
 51
0.0
1001
ACDBBLOCKREPETAG
1070
     1
1071
      103
1005
134FD6
  0
LINE
  5
134FD7
  8
OBJECT
 10
8106.0
 20
-258.99999999999909
 30
0.0
 11
8106.0
 21
-210.3227903203578
 31
0.0
1001
ACDBBLOCKREPETAG
1070
     1
1071
      104
1005
134FD7
  0
LINE
  5
134FD8
  8
OBJECT
 10
8106.0
 20
-189.6772096796403
 30
0.0
 11
8106.0
 21
-140.99999999999909
 31
0.0
1001
ACDBBLOCKREPETAG
1070
     1
1071
      105
1005
134FD8
  0
LINE
  5
134FD9
  8
HIDDEN
 10
8177.9999999999864
 20
-155.49999999999909
 30
0.0
 11
8177.9999999999864
 21
-244.49999999999909
 31
0.0
1001
ACDBBLOCKREPETAG
1070
     1
1071
      106
1005
134FD9
  0
LINE
  5
134FDA
  8
OBJECT
 10
8169.9999749641856
 20
-254.4999509238105
 30
0.0
 11
8169.9999749641856
 21
-145.4999509238105
 31
0.0
1001
ACDBBLOCKREPETAG
1070
     1
1071
      108
1005
134FDA
  0
ARC
  5
134FDB
  8
OBJECT
 10
8149.8000000000247
 20
-199.99999999999909
 30
0.0
 40
45.000000000000547
 50
90.0
 51
270.0
1001
ACDBBLOCKREPETAG
1070
     1
1071
      109
1005
134FDB
  0
LINE
  5
134FDC
  8
OBJECT
 10
5777.0000000000146
 20
-577.99999999999761
 30
0.0
 11
5770.0000000000127
 21
-577.99999999999761
 31
0.0
1001
ACDBBLOCKREPETAG
1070
     1
1071
       83
1005
134FDC
  0
LINE
  5
134FDD
  8
OBJECT
 10
5770.0000000000127
 20
-577.99999999999761
 30
0.0
 11
5770.0000000000127
 21
-701.99999999999761
 31
0.0
1001
ACDBBLOCKREPETAG
1070
     1
1071
       84
1005
134FDD
  0
LINE
  5
134FDE
  8
OBJECT
 10
5894.0000000000146
 20
-648.35026377572513
 30
0.0
 11
5894.0000000000146
 21
-749.99999999999852
 31
0.0
1001
ACDBBLOCKREPETAG
1070
     1
1071
       85
1005
134FDE
  0
LINE
  5
134FDF
  8
OBJECT
 10
5770.0000000000127
 20
-701.99999999999761
 30
0.0
 11
5777.0000000000146
 21
-701.99999999999761
 31
0.0
1001
ACDBBLOCKREPETAG
1070
     1
1071
       86
1005
134FDF
  0
LINE
  5
134FE0
  8
OBJECT
 10
5777.0000000000146
 20
-701.99999999999761
 30
0.0
 11
5777.0000000000146
 21
-577.99999999999761
 31
0.0
1001
ACDBBLOCKREPETAG
1070
     1
1071
       87
1005
134FE0
  0
LINE
  5
134FE1
  8
CENTER
 10
5845.0000000000127
 20
-639.99999999999852
 30
0.0
 11
5755.0000000000136
 21
-639.99999999999761
 31
0.0
1001
ACDBBLOCKREPETAG
1070
     1
1071
       88
1005
134FE1
  0
LINE
  5
134FE2
  8
OBJECT
 10
5900.0000000000191
 20
-752.99999999999773
 30
0.0
 11
5897.0000000000146
 21
-752.99999999999852
 31
0.0
1001
ACDBBLOCKREPETAG
1070
     1
1071
       89
1005
134FE2
  0
ARC
  5
134FE3
  8
OBJECT
 10
5897.0000000000146
 20
-749.99999999999852
 30
0.0
 40
3.0
 50
180.0
 51
270.0
1001
ACDBBLOCKREPETAG
1070
     1
1071
       90
1005
134FE3
  0
LINE
  5
134FE4
  8
OBJECT
 10
5777.0000000000146
 20
-580.99999999999761
 30
0.0
 11
5813.0000000000127
 21
-580.99999999999852
 31
0.0
1001
ACDBBLOCKREPETAG
1070
     1
1071
       91
1005
134FE4
  0
LINE
  5
134FE5
  8
OBJECT
 10
5813.0000000000127
 20
-580.99999999999852
 30
0.0
 11
5813.0000000000127
 21
-698.99999999999852
 31
0.0
1001
ACDBBLOCKREPETAG
1070
     1
1071
       92
1005
134FE5
  0
LINE
  5
134FE6
  8
OBJECT
 10
5817.0000000000136
 20
-585.49999999999852
 30
0.0
 11
5817.0000000000136
 21
-694.49999999999852
 31
0.0
1001
ACDBBLOCKREPETAG
1070
     1
1071
       93
1005
134FE6
  0
LINE
  5
134FE7
  8
OBJECT
 10
5817.0000000000136
 20
-585.49999999999852
 30
0.0
 11
5830.0000000000146
 21
-585.49999999999852
 31
0.0
1001
ACDBBLOCKREPETAG
1070
     1
1071
       94
1005
134FE7
  0
LINE
  5
134FE8
  8
OBJECT
 10
5813.0000000000127
 20
-698.99999999999852
 30
0.0
 11
5777.0000000000146
 21
-698.99999999999761
 31
0.0
1001
ACDBBLOCKREPETAG
1070
     1
1071
       95
1005
134FE8
  0
LINE
  5
134FE9
  8
OBJECT
 10
5813.0000000000127
 20
-580.99999999999852
 30
0.0
 11
5817.0000000000136
 21
-585.49999999999852
 31
0.0
1001
ACDBBLOCKREPETAG
1070
     1
1071
       96
1005
134FE9
  0
LINE
  5
134FEA
  8
OBJECT
 10
5830.0000000000146
 20
-585.49999999999852
 30
0.0
 11
5830.0000000000146
 21
-670.74491827928557
 31
0.0
1001
ACDBBLOCKREPETAG
1070
     1
1071
       97
1005
134FEA
  0
ARC
  5
134FEB
  8
OBJECT
 10
5827.2000000000153
 20
-679.99999999999852
 30
0.0
 40
85.0
 50
36.869897645906562
 51
88.112268108168848
1001
ACDBBLOCKREPETAG
1070
     1
1071
       98
1005
134FEB
  0
LINE
  5
134FEC
  8
HIDDEN
 10
5822.0000000000146
 20
-595.49999999999841
 30
0.0
 11
5822.0000000000146
 21
-684.49999999999852
 31
0.0
1001
ACDBBLOCKREPETAG
1070
     1
1071
      100
1005
134FEC
  0
LINE
  5
134FED
  8
OBJECT
 10
5894.0000000000146
 20
-746.07945073181554
 30
0.0
 11
5823.3686800789683
 21
-694.49999999999852
 31
0.0
1001
ACDBBLOCKREPETAG
1070
     1
1071
      101
1005
134FED
  0
LINE
  5
134FEE
  8
OBJECT
 10
5900.0000000000191
 20
-628.99999999999761
 30
0.0
 11
5895.2000000000153
 21
-628.99999999999761
 31
0.0
1001
ACDBBLOCKREPETAG
1070
     1
1071
      102
1005
134FEE
  0
LINE
  5
134FEF
  8
OBJECT
 10
5894.0000000000146
 20
-648.35026377572785
 30
0.0
 11
5895.2000000000153
 21
-628.99999999999761
 31
0.0
1001
ACDBBLOCKREPETAG
1070
     1
1071
      103
1005
134FEF
  0
LINE
  5
134FF0
  8
OBJECT
 10
5817.0000000000136
 20
-694.49999999999852
 30
0.0
 11
5823.3686800789683
 21
-694.49999999999852
 31
0.0
1001
ACDBBLOCKREPETAG
1070
     1
1071
      104
1005
134FF0
  0
LINE
  5
134FF1
  8
OBJECT
 10
5813.0000000000127
 20
-698.99999999999852
 30
0.0
 11
5817.0000000000136
 21
-694.49999999999852
 31
0.0
1001
ACDBBLOCKREPETAG
1070
     1
1071
      105
1005
134FF1
  0
CIRCLE
  5
134FF2
  8
OBJECT
 10
6000.0
 20
-690.99999999999761
 30
0.0
 40
62.0
1001
ACDBBLOCKREPETAG
1070
     1
1071
        0
1005
134FF2
  0
LINE
  5
134FF3
  8
OBJECT
 10
6095.0
 20
-569.99999999999955
 30
0.0
 11
5905.0
 21
-569.99999999999955
 31
0.0
1001
ACDBBLOCKREPETAG
1070
     1
1071
        0
1005
134FF3
  0
LINE
  5
134FF4
  8
OBJECT
 10
6095.0
 20
-549.99999999999955
 30
0.0
 11
5905.0
 21
-549.99999999999955
 31
0.0
1001
ACDBBLOCKREPETAG
1070
     1
1071
        1
1005
134FF4
  0
LINE
  5
134FF5
  8
OBJECT
 10
5902.4999999999991
 20
-914.99999999999955
 30
0.0
 11
6097.5
 21
-914.99999999999955
 31
0.0
1001
ACDBBLOCKREPETAG
1070
     1
1071
        2
1005
134FF5
  0
LINE
  5
134FF6
  8
OBJECT
 10
5908.237046000002
 20
-549.99999999999955
 30
0.0
 11
5908.2370465822614
 21
-569.99999999999955
 31
0.0
1001
ACDBBLOCKREPETAG
1070
     1
1071
        3
1005
134FF6
  0
LINE
  5
134FF7
  8
OBJECT
 10
5905.0
 20
-549.99999999999955
 30
0.0
 11
5905.0
 21
-569.99999999999955
 31
0.0
1001
ACDBBLOCKREPETAG
1070
     1
1071
        4
1005
134FF7
  0
LINE
  5
134FF8
  8
OBJECT
 10
5916.0249089999998
 20
-549.99999999999955
 30
0.0
 11
5916.0249089999998
 21
-569.99999999999955
 31
0.0
1001
ACDBBLOCKREPETAG
1070
     1
1071
        5
1005
134FF8
  0
LINE
  5
134FF9
  8
OBJECT
 10
5967.6243270000023
 20
-549.99999999999955
 30
0.0
 11
5967.6243270000023
 21
-569.99999999999955
 31
0.0
1001
ACDBBLOCKREPETAG
1070
     1
1071
        6
1005
134FF9
  0
LINE
  5
134FFA
  8
OBJECT
 10
5975.41219
 20
-549.99999999999955
 30
0.0
 11
5975.41219
 21
-569.99999999999955
 31
0.0
1001
ACDBBLOCKREPETAG
1070
     1
1071
        7
1005
134FFA
  0
LINE
  5
134FFB
  8
OBJECT
 10
6024.5878089999987
 20
-549.99999999999955
 30
0.0
 11
6024.5878089999987
 21
-569.99999999999955
 31
0.0
1001
ACDBBLOCKREPETAG
1070
     1
1071
        8
1005
134FFB
  0
LINE
  5
134FFC
  8
OBJECT
 10
6032.3756720000029
 20
-549.99999999999955
 30
0.0
 11
6032.3756720000029
 21
-569.99999999999955
 31
0.0
1001
ACDBBLOCKREPETAG
1070
     1
1071
        9
1005
134FFC
  0
LINE
  5
134FFD
  8
OBJECT
 10
6083.9750910000012
 20
-549.99999999999955
 30
0.0
 11
6083.9750910000012
 21
-569.99999999999955
 31
0.0
1001
ACDBBLOCKREPETAG
1070
     1
1071
       10
1005
134FFD
  0
LINE
  5
134FFE
  8
OBJECT
 10
6091.762953999998
 20
-549.99999999999955
 30
0.0
 11
6091.7629534177431
 21
-569.99999999999955
 31
0.0
1001
ACDBBLOCKREPETAG
1070
     1
1071
       11
1005
134FFE
  0
LINE
  5
134FFF
  8
OBJECT
 10
6095.0
 20
-549.99999999999955
 30
0.0
 11
6095.0
 21
-569.99999999999955
 31
0.0
1001
ACDBBLOCKREPETAG
1070
     1
1071
       12
1005
134FFF
  0
LINE
  5
135000
  8
OBJECT
 10
6100.0
 20
-628.99999999999955
 30
0.0
 11
5900.0
 21
-628.99999999999955
 31
0.0
1001
ACDBBLOCKREPETAG
1070
     1
1071
       13
1005
135000
  0
LINE
  5
135001
  8
OBJECT
 10
6100.0
 20
-752.99999999999773
 30
0.0
 11
6092.5000000000009
 21
-752.99999999999773
 31
0.0
1001
ACDBBLOCKREPETAG
1070
     1
1071
       14
1005
135001
  0
LINE
  5
135002
  8
OBJECT
 10
5902.4999999999991
 20
-914.99999999999955
 30
0.0
 11
5902.4999999999991
 21
-902.99999999999784
 31
0.0
1001
ACDBBLOCKREPETAG
1070
     1
1071
       15
1005
135002
  0
LINE
  5
135003
  8
OBJECT
 10
6097.5
 20
-914.99999999999955
 30
0.0
 11
6097.5
 21
-902.99999999999784
 31
0.0
1001
ACDBBLOCKREPETAG
1070
     1
1071
       16
1005
135003
  0
LINE
  5
135004
  8
OBJECT
 10
5902.4999999999991
 20
-902.99999999999784
 30
0.0
 11
6097.5
 21
-902.99999999999784
 31
0.0
1001
ACDBBLOCKREPETAG
1070
     1
1071
       17
1005
135004
  0
LINE
  5
135005
  8
HIDDEN
 10
5930.0
 20
-624.99999999999955
 30
0.0
 11
6070.0
 21
-624.99999999999955
 31
0.0
1001
ACDBBLOCKREPETAG
1070
     1
1071
       18
1005
135005
  0
LINE
  5
135006
  8
CENTER
 10
6000.0
 20
-534.99999999999955
 30
0.0
 11
6000.0
 21
-914.99999999999955
 31
0.0
1001
ACDBBLOCKREPETAG
1070
     1
1071
       19
1005
135006
  0
LINE
  5
135007
  8
OBJECT
 10
6092.5000000000009
 20
-752.99999999999773
 30
0.0
 11
6092.5000000000009
 21
-902.99999999999784
 31
0.0
1001
ACDBBLOCKREPETAG
1070
     1
1071
       20
1005
135007
  0
LINE
  5
135008
  8
OBJECT
 10
5914.5
 20
-569.99999999999955
 30
0.0
 11
5914.5
 21
-628.99999999999955
 31
0.0
1001
ACDBBLOCKREPETAG
1070
     1
1071
       21
1005
135008
  0
LINE
  5
135009
  8
OBJECT
 10
6085.5
 20
-569.99999999999955
 30
0.0
 11
6085.5
 21
-628.99999999999955
 31
0.0
1001
ACDBBLOCKREPETAG
1070
     1
1071
       22
1005
135009
  0
POINT
  5
13500A
  8
DOTS
 10
6000.0
 20
-749.99999999999955
 30
0.0
1001
ACDBBLOCKREPETAG
1070
     1
1071
       24
1005
13500A
  0
LINE
  5
13500B
  8
OBJECT
 10
5900.0
 20
-752.99999999999773
 30
0.0
 11
5907.5
 21
-752.99999999999773
 31
0.0
1001
ACDBBLOCKREPETAG
1070
     1
1071
       25
1005
13500B
  0
LINE
  5
13500C
  8
OBJECT
 10
5907.5
 20
-752.99999999999773
 30
0.0
 11
5907.5
 21
-902.99999999999784
 31
0.0
1001
ACDBBLOCKREPETAG
1070
     1
1071
       26
1005
13500C
  0
ARC
  5
13500D
  8
OBJECT
 10
6214.4155190291494
 20
-715.62073879202455
 30
0.0
 40
149.554492306393
 50
144.60628028468801
 51
164.2211863995189
1001
ACDBBLOCKREPETAG
1070
     1
1071
       28
1005
13500D
  0
ARC
  5
13500E
  8
OBJECT
 10
6139.1422781245274
 20
-690.99999999999761
 30
0.0
 40
70.496447952551449
 50
166.8426918235858
 51
193.15730817641409
1001
ACDBBLOCKREPETAG
1070
     1
1071
       29
1005
13500E
  0
ARC
  5
13500F
  8
OBJECT
 10
6214.4155190291494
 20
-666.3792612079701
 30
0.0
 40
149.55449230639621
 50
195.7788136004809
 51
215.3937197153119
1001
ACDBBLOCKREPETAG
1070
     1
1071
       30
1005
13500F
  0
ARC
  5
135010
  8
OBJECT
 10
5785.5844809708497
 20
-715.62073879202455
 30
0.0
 40
149.554492306393
 50
15.778813600524931
 51
35.393719715228642
1001
ACDBBLOCKREPETAG
1070
     1
1071
       31
1005
135010
  0
ARC
  5
135011
  8
OBJECT
 10
5860.8577218754717
 20
-690.99999999999761
 30
0.0
 40
70.496447952551449
 50
346.84269182358582
 51
13.15730817641421
1001
ACDBBLOCKREPETAG
1070
     1
1071
       32
1005
135011
  0
ARC
  5
135012
  8
OBJECT
 10
5785.5844809708497
 20
-666.3792612079701
 30
0.0
 40
149.55449230639621
 50
324.60628028477117
 51
344.22118639947507
1001
ACDBBLOCKREPETAG
1070
     1
1071
       33
1005
135012
  0
LINE
  5
135013
  8
OBJECT
 10
5777.00000000001
 20
-261.99999999999909
 30
0.0
 11
5770.00000000001
 21
-261.99999999999909
 31
0.0
1001
ACDBBLOCKREPETAG
1070
     1
1071
       85
1005
135013
  0
LINE
  5
135014
  8
OBJECT
 10
5770.00000000001
 20
-261.99999999999909
 30
0.0
 11
5770.00000000001
 21
-137.99999999999909
 31
0.0
1001
ACDBBLOCKREPETAG
1070
     1
1071
       86
1005
135014
  0
LINE
  5
135015
  8
OBJECT
 10
5770.00000000001
 20
-137.99999999999909
 30
0.0
 11
5777.00000000001
 21
-137.99999999999909
 31
0.0
1001
ACDBBLOCKREPETAG
1070
     1
1071
       87
1005
135015
  0
LINE
  5
135016
  8
OBJECT
 10
5777.00000000001
 20
-137.99999999999909
 30
0.0
 11
5777.00000000001
 21
-261.99999999999909
 31
0.0
1001
ACDBBLOCKREPETAG
1070
     1
1071
       88
1005
135016
  0
LINE
  5
135017
  8
CENTER
 10
5755.00000000001
 20
-199.99999999999909
 30
0.0
 11
5899.9999999999973
 21
-199.99999999999909
 31
0.0
1001
ACDBBLOCKREPETAG
1070
     1
1071
       89
1005
135017
  0
LINE
  5
135018
  8
OBJECT
 10
5830.0000250358089
 20
-154.9999999999954
 30
0.0
 11
5893.9999999999982
 21
-154.99999999999909
 31
0.0
1001
ACDBBLOCKREPETAG
1070
     1
1071
       90
1005
135018
  0
LINE
  5
135019
  8
OBJECT
 10
5830.0000250358089
 20
-244.99999999999909
 30
0.0
 11
5893.9999999999982
 21
-244.99999999999909
 31
0.0
1001
ACDBBLOCKREPETAG
1070
     1
1071
       91
1005
135019
  0
LINE
  5
13501A
  8
OBJECT
 10
5777.00000000001
 20
-258.99999999999909
 30
0.0
 11
5813.00000000001
 21
-258.99999999999909
 31
0.0
1001
ACDBBLOCKREPETAG
1070
     1
1071
       92
1005
13501A
  0
LINE
  5
13501B
  8
OBJECT
 10
5813.00000000001
 20
-258.99999999999909
 30
0.0
 11
5813.00000000001
 21
-140.99999999999909
 31
0.0
1001
ACDBBLOCKREPETAG
1070
     1
1071
       93
1005
13501B
  0
LINE
  5
13501C
  8
OBJECT
 10
5813.00000000001
 20
-140.99999999999909
 30
0.0
 11
5777.00000000001
 21
-140.99999999999909
 31
0.0
1001
ACDBBLOCKREPETAG
1070
     1
1071
       94
1005
13501C
  0
LINE
  5
13501D
  8
OBJECT
 10
5817.00000000001
 20
-254.49999999999909
 30
0.0
 11
5830.00000000001
 21
-254.49999999999909
 31
0.0
1001
ACDBBLOCKREPETAG
1070
     1
1071
       95
1005
13501D
  0
LINE
  5
13501E
  8
OBJECT
 10
5830.00000000001
 20
-145.49999999999909
 30
0.0
 11
5817.00000000001
 21
-145.49999999999909
 31
0.0
1001
ACDBBLOCKREPETAG
1070
     1
1071
       96
1005
13501E
  0
LINE
  5
13501F
  8
OBJECT
 10
5817.00000000001
 20
-145.49999999999909
 30
0.0
 11
5817.00000000001
 21
-254.49999999999909
 31
0.0
1001
ACDBBLOCKREPETAG
1070
     1
1071
       97
1005
13501F
  0
LINE
  5
135020
  8
OBJECT
 10
5813.00000000001
 20
-258.99999999999909
 30
0.0
 11
5817.00000000001
 21
-254.49999999999909
 31
0.0
1001
ACDBBLOCKREPETAG
1070
     1
1071
       98
1005
135020
  0
LINE
  5
135021
  8
OBJECT
 10
5813.00000000001
 20
-140.99999999999909
 30
0.0
 11
5817.00000000001
 21
-145.49999999999909
 31
0.0
1001
ACDBBLOCKREPETAG
1070
     1
1071
       99
1005
135021
  0
LINE
  5
135022
  8
OBJECT
 10
5896.9999999999973
 20
-261.99999999999909
 30
0.0
 11
5899.9999999999973
 21
-261.99999999999909
 31
0.0
1001
ACDBBLOCKREPETAG
1070
     1
1071
      100
1005
135022
  0
ARC
  5
135023
  8
OBJECT
 10
5896.9999999999973
 20
-258.99999999999909
 30
0.0
 40
3.0
 50
180.0
 51
270.0
1001
ACDBBLOCKREPETAG
1070
     1
1071
      101
1005
135023
  0
LINE
  5
135024
  8
OBJECT
 10
5899.9999999999973
 20
-137.99999999999909
 30
0.0
 11
5896.9999999999973
 21
-137.99999999999909
 31
0.0
1001
ACDBBLOCKREPETAG
1070
     1
1071
      102
1005
135024
  0
ARC
  5
135025
  8
OBJECT
 10
5896.9999999999973
 20
-140.99999999999909
 30
0.0
 40
3.0
 50
90.0
 51
180.0
1001
ACDBBLOCKREPETAG
1070
     1
1071
      103
1005
135025
  0
LINE
  5
135026
  8
OBJECT
 10
5893.9999999999982
 20
-140.99999999999909
 30
0.0
 11
5893.9999999999982
 21
-189.6772096796403
 31
0.0
1001
ACDBBLOCKREPETAG
1070
     1
1071
      104
1005
135026
  0
LINE
  5
135027
  8
OBJECT
 10
5893.9999999999982
 20
-210.3227903203578
 30
0.0
 11
5893.9999999999982
 21
-258.99999999999909
 31
0.0
1001
ACDBBLOCKREPETAG
1070
     1
1071
      105
1005
135027
  0
LINE
  5
135028
  8
HIDDEN
 10
5822.0000000000091
 20
-244.49999999999909
 30
0.0
 11
5822.0000000000091
 21
-155.49999999999909
 31
0.0
1001
ACDBBLOCKREPETAG
1070
     1
1071
      106
1005
135028
  0
LINE
  5
135029
  8
OBJECT
 10
5830.0000250358089
 20
-145.50004907618759
 30
0.0
 11
5830.0000250358089
 21
-254.50004907618771
 31
0.0
1001
ACDBBLOCKREPETAG
1070
     1
1071
      108
1005
135029
  0
ARC
  5
13502A
  8
OBJECT
 10
5850.1999999999716
 20
-199.99999999999909
 30
0.0
 40
45.000000000000547
 50
270.0
 51
90.0
1001
ACDBBLOCKREPETAG
1070
     1
1071
      109
1005
13502A
  0
LINE
  5
13502B
  8
CENTER
 10
6000.0000000000027
 20
-320.99999999999898
 30
0.0
 11
6000.0000000000027
 21
-299.99999999999898
 31
0.0
1001
ACDBBLOCKREPETAG
1070
     1
1071
        0
1005
13502B
  0
LINE
  5
13502C
  8
OBJECT
 10
6062.0000000000036
 20
-303.0
 30
0.0
 11
6062.0000000000036
 21
-299.99999999999898
 31
0.0
1001
ACDBBLOCKREPETAG
1070
     1
1071
        1
1005
13502C
  0
ARC
  5
13502D
  8
OBJECT
 10
6059.0000000000036
 20
-303.0
 30
0.0
 40
3.0
 50
270.0
 51
0.0
1001
ACDBBLOCKREPETAG
1070
     1
1071
        2
1005
13502D
  0
LINE
  5
13502E
  8
OBJECT
 10
5938.0000000000036
 20
-299.99999999999898
 30
0.0
 11
5938.0000000000036
 21
-302.99999999999818
 31
0.0
1001
ACDBBLOCKREPETAG
1070
     1
1071
        3
1005
13502E
  0
ARC
  5
13502F
  8
OBJECT
 10
5941.0000000000036
 20
-302.99999999999818
 30
0.0
 40
3.0
 50
180.0
 51
270.0
1001
ACDBBLOCKREPETAG
1070
     1
1071
        4
1005
13502F
  0
LINE
  5
135030
  8
OBJECT
 10
5941.0000000000036
 20
-305.99999999999818
 30
0.0
 11
6059.0000000000036
 21
-306.0
 31
0.0
1001
ACDBBLOCKREPETAG
1070
     1
1071
        5
1005
135030
  0
LINE
  5
135031
  8
SLIM
 10
5918.5743713244692
 20
-137.74153073842379
 30
0.0
 11
5937.7415307384244
 21
-118.5743713244679
 31
0.0
1001
GRADIENTCOLOR1ACI
1070
     5
1001
GRADIENTCOLOR2ACI
1070
     2
1001
ACAD
1010
0.0
1020
0.0
1030
0.0
1001
ACDBBLOCKREPETAG
1070
     1
1071
      301
1005
135031
  0
LINE
  5
135032
  8
SLIM
 10
5927.2961581839627
 20
-137.99999999999909
 30
0.0
 11
5959.4220169794125
 21
-105.8741412045496
 31
0.0
1001
GRADIENTCOLOR1ACI
1070
     5
1001
GRADIENTCOLOR2ACI
1070
     2
1001
ACAD
1010
0.0
1020
0.0
1030
0.0
1001
ACDBBLOCKREPETAG
1070
     1
1071
      302
1005
135032
  0
LINE
  5
135033
  8
SLIM
 10
5955.2080715681668
 20
-119.0683427368643
 30
0.0
 11
5973.2147923567727
 21
-101.06162194825821
 31
0.0
1001
GRADIENTCOLOR1ACI
1070
     5
1001
GRADIENTCOLOR2ACI
1070
     2
1001
ACAD
1010
0.0
1020
0.0
1030
0.0
1001
ACDBBLOCKREPETAG
1070
     1
1071
      303
1005
135033
  0
LINE
  5
135034
  8
SLIM
 10
5971.1389053532557
 20
-112.11776507284389
 30
0.0
 11
5984.5919680901698
 21
-98.664702335928993
 31
0.0
1001
GRADIENTCOLOR1ACI
1070
     5
1001
GRADIENTCOLOR2ACI
1070
     2
1001
ACAD
1010
0.0
1020
0.0
1030
0.0
1001
ACDBBLOCKREPETAG
1070
     1
1071
      304
1005
135034
  0
LINE
  5
135035
  8
SLIM
 10
5986.2342955596041
 20
-106.0026309875652
 30
0.0
 11
5994.5942819876618
 21
-97.642644559507801
 31
0.0
1001
GRADIENTCOLOR1ACI
1070
     5
1001
GRADIENTCOLOR2ACI
1070
     2
1001
ACAD
1010
0.0
1020
0.0
1030
0.0
1001
ACDBBLOCKREPETAG
1070
     1
1071
      278
1005
135035
  0
LINE
  5
135036
  8
SLIM
 10
5996.1386775409328
 20
-105.0785051273038
 30
0.0
 11
6000.0
 21
-101.21718266823839
 31
0.0
1001
GRADIENTCOLOR1ACI
1070
     5
1001
GRADIENTCOLOR2ACI
1070
     2
1001
ACAD
1010
0.0
1020
0.0
1030
0.0
1001
ACDBBLOCKREPETAG
1070
     1
1071
      305
1005
135036
  0
LINE
  5
135037
  8
SLIM
 10
6000.0
 20
-101.21718266823839
 30
0.0
 11
6003.6520994194652
 21
-97.565083248774314
 31
0.0
1001
GRADIENTCOLOR1ACI
1070
     5
1001
GRADIENTCOLOR2ACI
1070
     2
1001
ACAD
1010
0.0
1020
0.0
1030
0.0
1001
ACDBBLOCKREPETAG
1070
     1
1071
      306
1005
135037
  0
LINE
  5
135038
  8
SLIM
 10
6005.0624562444937
 20
-105.13498254481389
 30
0.0
 11
6011.993358860951
 21
-98.204079928355625
 31
0.0
1001
GRADIENTCOLOR1ACI
1070
     5
1001
GRADIENTCOLOR2ACI
1070
     2
1001
ACAD
1010
0.0
1020
0.0
1030
0.0
1001
ACDBBLOCKREPETAG
1070
     1
1071
      307
1005
135038
  0
LINE
  5
135039
  8
SLIM
 10
6013.2492495222623
 20
-105.9284453881143
 30
0.0
 11
6019.7558130592479
 21
-99.421881851129058
 31
0.0
1001
GRADIENTCOLOR1ACI
1070
     5
1001
GRADIENTCOLOR2ACI
1070
     2
1001
ACAD
1010
0.0
1020
0.0
1030
0.0
1001
ACDBBLOCKREPETAG
1070
     1
1071
      282
1005
135039
  0
LINE
  5
13503A
  8
SLIM
 10
6020.8432248281188
 20
-107.31472620332499
 30
0.0
 11
6027.0297896486654
 21
-101.1281613827821
 31
0.0
1001
GRADIENTCOLOR1ACI
1070
     5
1001
GRADIENTCOLOR2ACI
1070
     2
1001
ACAD
1010
0.0
1020
0.0
1030
0.0
1001
ACDBBLOCKREPETAG
1070
     1
1071
      283
1005
13503A
  0
LINE
  5
13503B
  8
SLIM
 10
6026.7444850762586
 20
-110.3937220762563
 30
0.0
 11
6033.8777840865841
 21
-103.2604230659298
 31
0.0
1001
GRADIENTCOLOR1ACI
1070
     5
1001
GRADIENTCOLOR2ACI
1070
     2
1001
ACAD
1010
0.0
1020
0.0
1030
0.0
1001
ACDBBLOCKREPETAG
1070
     1
1071
      284
1005
13503B
  0
LINE
  5
13503C
  8
SLIM
 10
6032.6605739035567
 20
-113.4578893700272
 30
0.0
 11
6040.3445940865859
 21
-105.7738691869987
 31
0.0
1001
GRADIENTCOLOR1ACI
1070
     5
1001
GRADIENTCOLOR2ACI
1070
     2
1001
ACAD
1010
0.0
1020
0.0
1030
0.0
1001
ACDBBLOCKREPETAG
1070
     1
1071
      285
1005
13503C
  0
LINE
  5
13503D
  8
SLIM
 10
6038.9830129339689
 20
-116.115706460684
 30
0.0
 11
6046.4630285156381
 21
-108.63569087901411
 31
0.0
1001
GRADIENTCOLOR1ACI
1070
     5
1001
GRADIENTCOLOR2ACI
1070
     2
1001
ACAD
1010
0.0
1020
0.0
1030
0.0
1001
ACDBBLOCKREPETAG
1070
     1
1071
      286
1005
13503D
  0
LINE
  5
13503E
  8
SLIM
 10
6044.9326113883499
 20
-119.1463641273716
 30
0.0
 11
6052.2573273714534
 21
-111.8216481442697
 31
0.0
1001
GRADIENTCOLOR1ACI
1070
     5
1001
GRADIENTCOLOR2ACI
1070
     2
1001
ACAD
1010
0.0
1020
0.0
1030
0.0
1001
ACDBBLOCKREPETAG
1070
     1
1071
      287
1005
13503E
  0
LINE
  5
13503F
  8
SLIM
 10
6050.5348792738341
 20
-122.5243523629576
 30
0.0
 11
6057.7453005374236
 21
-115.3139310993673
 31
0.0
1001
GRADIENTCOLOR1ACI
1070
     5
1001
GRADIENTCOLOR2ACI
1070
     2
1001
ACAD
1010
0.0
1020
0.0
1030
0.0
1001
ACDBBLOCKREPETAG
1070
     1
1071
      288
1005
13503F
  0
LINE
  5
135040
  8
SLIM
 10
5919.0997883728251
 20
-262.93969938503398
 30
0.0
 11
5920.039487757861
 21
-261.99999999999909
 31
0.0
1001
GRADIENTCOLOR1ACI
1070
     5
1001
GRADIENTCOLOR2ACI
1070
     2
1001
ACAD
1010
0.0
1020
0.0
1030
0.0
1001
ACDBBLOCKREPETAG
1070
     1
1071
      289
1005
135040
  0
LINE
  5
135041
  8
SLIM
 10
6055.807705723706
 20
-126.2317820341551
 30
0.0
 11
6062.9396993850351
 21
-119.0997883728258
 31
0.0
1001
GRADIENTCOLOR1ACI
1070
     5
1001
GRADIENTCOLOR2ACI
1070
     2
1001
ACAD
1010
0.0
1020
0.0
1030
0.0
1001
ACDBBLOCKREPETAG
1070
     1
1071
      290
1005
135041
  0
LINE
  5
135042
  8
SLIM
 10
5923.1706450290258
 20
-267.84909884990361
 30
0.0
 11
5929.0197438789319
 21
-261.99999999999909
 31
0.0
1001
GRADIENTCOLOR1ACI
1070
     5
1001
GRADIENTCOLOR2ACI
1070
     2
1001
ACAD
1010
0.0
1020
0.0
1030
0.0
1001
ACDBBLOCKREPETAG
1070
     1
1071
      291
1005
135042
  0
LINE
  5
135043
  8
SLIM
 10
6060.762946579669
 20
-130.25679729926071
 30
0.0
 11
6067.8490988499043
 21
-123.17064502902539
 31
0.0
1001
GRADIENTCOLOR1ACI
1070
     5
1001
GRADIENTCOLOR2ACI
1070
     2
1001
ACAD
1010
0.0
1020
0.0
1030
0.0
1001
ACDBBLOCKREPETAG
1070
     1
1071
      292
1005
135043
  0
LINE
  5
135044
  8
SLIM
 10
5927.5215549283794
 20
-272.47844507162011
 30
0.0
 11
5934.5926227402442
 21
-265.40737725975481
 31
0.0
1001
GRADIENTCOLOR1ACI
1070
     5
1001
GRADIENTCOLOR2ACI
1070
     2
1001
ACAD
1010
0.0
1020
0.0
1030
0.0
1001
ACDBBLOCKREPETAG
1070
     1
1071
      293
1005
135044
  0
LINE
  5
135045
  8
SLIM
 10
6065.4073772597558
 20
-134.5926227402434
 30
0.0
 11
6072.4784450716206
 21
-127.52155492837799
 31
0.0
1001
GRADIENTCOLOR1ACI
1070
     5
1001
GRADIENTCOLOR2ACI
1070
     2
1001
ACAD
1010
0.0
1020
0.0
1030
0.0
1001
ACDBBLOCKREPETAG
1070
     1
1071
      294
1005
135045
  0
LINE
  5
135046
  8
SLIM
 10
5932.1509011500948
 20
-276.82935497097282
 30
0.0
 11
5937.9999999999936
 21
-270.980256121075
 31
0.0
1001
GRADIENTCOLOR1ACI
1070
     5
1001
GRADIENTCOLOR2ACI
1070
     2
1001
ACAD
1010
0.0
1020
0.0
1030
0.0
1001
ACDBBLOCKREPETAG
1070
     1
1071
      295
1005
135046
  0
LINE
  5
135047
  8
SLIM
 10
6070.980256121069
 20
-137.99999999999901
 30
0.0
 11
6076.8293549709733
 21
-132.15090115009451
 31
0.0
1001
GRADIENTCOLOR1ACI
1070
     5
1001
GRADIENTCOLOR2ACI
1070
     2
1001
ACAD
1010
0.0
1020
0.0
1030
0.0
1001
ACDBBLOCKREPETAG
1070
     1
1071
      296
1005
135047
  0
LINE
  5
135048
  8
SLIM
 10
5937.0603006149649
 20
-280.90021162717238
 30
0.0
 11
5937.9999999999973
 21
-279.9605122421421
 31
0.0
1001
GRADIENTCOLOR1ACI
1070
     5
1001
GRADIENTCOLOR2ACI
1070
     2
1001
ACAD
1010
0.0
1020
0.0
1030
0.0
1001
ACDBBLOCKREPETAG
1070
     1
1071
      297
1005
135048
  0
LINE
  5
135049
  8
SLIM
 10
6079.9605122421381
 20
-137.99999999999901
 30
0.0
 11
6080.900211627174
 21
-137.06030061496409
 31
0.0
1001
GRADIENTCOLOR1ACI
1070
     5
1001
GRADIENTCOLOR2ACI
1070
     2
1001
ACAD
1010
0.0
1020
0.0
1030
0.0
1001
ACDBBLOCKREPETAG
1070
     1
1071
      298
1005
135049
  0
LINE
  5
13504A
  8
SLIM
 10
6062.0000000000009
 20
-272.70384181603538
 30
0.0
 11
6072.7038418160373
 21
-261.99999999999909
 31
0.0
1001
GRADIENTCOLOR1ACI
1070
     5
1001
GRADIENTCOLOR2ACI
1070
     2
1001
ACAD
1010
0.0
1020
0.0
1030
0.0
1001
ACDBBLOCKREPETAG
1070
     1
1071
      299
1005
13504A
  0
LINE
  5
13504B
  8
SLIM
 10
6062.2584692615746
 20
-281.4256286755305
 30
0.0
 11
6081.4256286755299
 21
-262.25846926157431
 31
0.0
1001
GRADIENTCOLOR1ACI
1070
     5
1001
GRADIENTCOLOR2ACI
1070
     2
1001
ACAD
1010
0.0
1020
0.0
1030
0.0
1001
ACDBBLOCKREPETAG
1070
     1
1071
      300
1005
13504B
  0
LINE
  5
13504C
  8
OBJECT
 10
6068.6458301719767
 20
-137.99999999999909
 30
0.0
 11
6100.0
 21
-137.99999999999909
 31
0.0
1001
ACDBBLOCKREPETAG
1070
     1
1071
      242
1005
13504C
  0
LINE
  5
13504D
  8
OBJECT
 10
6068.6458301719767
 20
-261.99999999999909
 30
0.0
 11
6100.0000000000073
 21
-261.99999999999909
 31
0.0
1001
ACDBBLOCKREPETAG
1070
     1
1071
      243
1005
13504D
  0
LINE
  5
13504E
  8
OBJECT
 10
6062.0
 20
-268.64583017197862
 30
0.0
 11
6062.0000000000082
 21
-299.99999999999898
 31
0.0
1001
ACDBBLOCKREPETAG
1070
     1
1071
      244
1005
13504E
  0
LINE
  5
13504F
  8
OBJECT
 10
5937.9999999999927
 20
-268.64583017197492
 30
0.0
 11
5938.0
 21
-299.99999999999898
 31
0.0
1001
ACDBBLOCKREPETAG
1070
     1
1071
      245
1005
13504F
  0
LINE
  5
135050
  8
OBJECT
 10
5931.3541698280233
 20
-261.99999999999909
 30
0.0
 11
5899.9999999999927
 21
-261.99999999999909
 31
0.0
1001
ACDBBLOCKREPETAG
1070
     1
1071
      246
1005
135050
  0
LINE
  5
135051
  8
OBJECT
 10
5931.3541698280233
 20
-137.99999999999909
 30
0.0
 11
5899.9999999999927
 21
-137.99999999999909
 31
0.0
1001
ACDBBLOCKREPETAG
1070
     1
1071
      247
1005
135051
  0
LINE
  5
135052
  8
CENTER
 10
5900.0
 20
-199.99999999999909
 30
0.0
 11
6100.0
 21
-199.99999999999909
 31
0.0
1001
ACDBBLOCKREPETAG
1070
     1
1071
      251
1005
135052
  0
LINE
  5
135053
  8
CENTER
 10
6000.0
 20
-82.499999999999091
 30
0.0
 11
6000.0
 21
-299.99999999999898
 31
0.0
1001
ACDBBLOCKREPETAG
1070
     1
1071
      252
1005
135053
  0
ARC
  5
135054
  8
OBJECT
 10
6000.0
 20
-199.99999999999909
 30
0.0
 40
102.5
 50
37.220066868561332
 51
142.77993313143861
1001
ACDBBLOCKREPETAG
1070
     1
1071
      256
1005
135054
  0
ARC
  5
135055
  8
OBJECT
 10
6000.0
 20
-199.99999999999909
 30
0.0
 40
102.5
 50
217.2200668685613
 51
232.7799331314061
1001
ACDBBLOCKREPETAG
1070
     1
1071
      257
1005
135055
  0
ARC
  5
135056
  8
OBJECT
 10
6000.0
 20
-199.99999999999909
 30
0.0
 40
102.5
 50
307.2200668685939
 51
322.77993313143872
1001
ACDBBLOCKREPETAG
1070
     1
1071
      258
1005
135056
  0
ARC
  5
135057
  8
OBJECT
 10
5973.8931207053247
 20
-173.82438331578209
 30
0.0
 40
90.0
 50
274.21795726566182
 51
281.60300086768922
1001
ACDBBLOCKREPETAG
1070
     1
1071
      261
1005
135057
  0
LINE
  5
135058
  8
OBJECT
 10
5991.994750999992
 20
-261.98520799999727
 30
0.0
 11
5996.6424319999924
 21
-248.3387539999994
 31
0.0
1001
ACDBBLOCKREPETAG
1070
     1
1071
      262
1005
135058
  0
LINE
  5
135059
  8
OBJECT
 10
5955.2887960976786
 20
-207.0733020425842
 30
0.0
 11
5935.6054186421097
 21
-216.60084009147889
 31
0.0
1001
ACDBBLOCKREPETAG
1070
     1
1071
      263
1005
135059
  0
LINE
  5
13505A
  8
OBJECT
 10
5937.3350639238643
 20
-222.25658973369261
 30
0.0
 11
5961.7560738851171
 21
-210.43584915155679
 31
0.0
1001
ACDBBLOCKREPETAG
1070
     1
1071
      264
1005
13505A
  0
LINE
  5
13505B
  8
OBJECT
 10
5996.6424319999924
 20
-248.3387539999994
 30
0.0
 11
5970.3289245926417
 21
-210.9660806555467
 31
0.0
1001
ACDBBLOCKREPETAG
1070
     1
1071
      265
1005
13505B
  0
ARC
  5
13505C
  8
OBJECT
 10
5960.51700480005
 20
-217.87449798398211
 30
0.0
 40
12.0
 50
35.148769561161963
 51
115.8288295732624
1001
ACDBBLOCKREPETAG
1070
     1
1071
      266
1005
13505C
  0
ARC
  5
13505D
  8
OBJECT
 10
5965.2415463179786
 20
-217.63664646295089
 30
0.0
 40
8.0
 50
35.148769561161963
 51
115.8288292916689
1001
ACDBBLOCKREPETAG
1070
     1
1071
      267
1005
13505D
  0
ARC
  5
13505E
  8
OBJECT
 10
6000.0
 20
-199.99999999999909
 30
0.0
 40
90.0
 50
201.08359599996521
 51
248.91640400002939
1001
ACDBBLOCKREPETAG
1070
     1
1071
      273
1005
13505E
  0
ARC
  5
13505F
  8
OBJECT
 10
6000.0
 20
-199.99999999999909
 30
0.0
 40
90.0
 50
111.0835959999705
 51
158.91640347115251
1001
ACDBBLOCKREPETAG
1070
     1
1071
      274
1005
13505F
  0
LINE
  5
135060
  8
OBJECT
 10
5916.0249094448682
 20
-167.62432755513231
 30
0.0
 11
5908.2370465822614
 21
-175.41219041773809
 31
0.0
1001
ACDBBLOCKREPETAG
1070
     1
1071
      275
1005
135060
  0
LINE
  5
135061
  8
OBJECT
 10
5916.0249089999998
 20
-232.37567199999921
 30
0.0
 11
5908.2370469998132
 21
-224.58781114059909
 31
0.0
1001
ACDBBLOCKREPETAG
1070
     1
1071
      276
1005
135061
  0
ARC
  5
135062
  8
OBJECT
 10
6000.0
 20
-199.99999999999909
 30
0.0
 40
95.0
 50
164.99999981411651
 51
195.00000115873701
1001
ACDBBLOCKREPETAG
1070
     1
1071
      277
1005
135062
  0
ARC
  5
135063
  8
OBJECT
 10
6000.0
 20
-199.99999999999909
 30
0.0
 40
92.5
 50
287.80189678391901
 51
342.1981035993042
1001
ACDBBLOCKREPETAG
1070
     1
1071
      209
1005
135063
  0
ARC
  5
135064
  8
OBJECT
 10
6000.0
 20
-199.99999999999909
 30
0.0
 40
90.0
 50
291.08359599997061
 51
338.91640400003479
1001
ACDBBLOCKREPETAG
1070
     1
1071
      211
1005
135064
  0
CIRCLE
  5
135065
  8
OBJECT
 10
6000.0
 20
-199.99999999999909
 30
0.0
 40
80.0
1001
ACDBBLOCKREPETAG
1070
     1
1071
      212
1005
135065
  0
ARC
  5
135066
  8
OBJECT
 10
6000.0
 20
-199.99999999999909
 30
0.0
 40
90.0
 50
21.08359652884743
 51
68.916404000029431
1001
ACDBBLOCKREPETAG
1070
     1
1071
      213
1005
135066
  0
CIRCLE
  5
135067
  8
OBJECT
 10
6000.0
 20
-199.99999999999909
 30
0.0
 40
66.5
1001
ACDBBLOCKREPETAG
1070
     1
1071
      215
1005
135067
  0
LINE
  5
135068
  8
OBJECT
 10
6083.9750905551346
 20
-167.62432755513231
 30
0.0
 11
6091.7629534177377
 21
-175.4121904177382
 31
0.0
1001
ACDBBLOCKREPETAG
1070
     1
1071
      216
1005
135068
  0
LINE
  5
135069
  8
OBJECT
 10
6083.9750910000012
 20
-232.37567199999921
 30
0.0
 11
6091.7629530001859
 21
-224.58781114059909
 31
0.0
1001
ACDBBLOCKREPETAG
1070
     1
1071
      217
1005
135069
  0
ARC
  5
13506A
  8
OBJECT
 10
6000.0
 20
-199.99999999999909
 30
0.0
 40
95.0
 50
344.99999884126299
 51
15.00000018588349
1001
ACDBBLOCKREPETAG
1070
     1
1071
      218
1005
13506A
  0
LINE
  5
13506B
  8
OBJECT
 10
6032.375672999995
 20
-283.9750909999994
 30
0.0
 11
6024.5878109482801
 21
-291.76295305171419
 31
0.0
1001
ACDBBLOCKREPETAG
1070
     1
1071
      219
1005
13506B
  0
LINE
  5
13506C
  8
OBJECT
 10
5967.6243279999971
 20
-283.9750909999994
 30
0.0
 11
5975.4121904177373
 21
-291.76295341774039
 31
0.0
1001
ACDBBLOCKREPETAG
1070
     1
1071
      220
1005
13506C
  0
ARC
  5
13506D
  8
OBJECT
 10
6000.0
 20
-199.99999999999909
 30
0.0
 40
95.0
 50
254.99999981420709
 51
285.00000103861061
1001
ACDBBLOCKREPETAG
1070
     1
1071
      221
1005
13506D
  0
LINE
  5
13506E
  8
OBJECT
 10
6032.375672999995
 20
-116.0249099999992
 30
0.0
 11
6024.5878095822618
 21
-108.2370465822578
 31
0.0
1001
ACDBBLOCKREPETAG
1070
     1
1071
      222
1005
13506E
  0
ARC
  5
13506F
  8
OBJECT
 10
6000.0
 20
-199.99999999999909
 30
0.0
 40
95.0
 50
74.999999814207143
 51
104.99999933254421
1001
ACDBBLOCKREPETAG
1070
     1
1071
      223
1005
13506F
  0
LINE
  5
135070
  8
OBJECT
 10
5967.6243279999971
 20
-116.0249099999992
 30
0.0
 11
5975.4121917837692
 21
-108.2370462162316
 31
0.0
1001
ACDBBLOCKREPETAG
1070
     1
1071
      224
1005
135070
  0
LINE
  5
135071
  8
OBJECT
 10
6055.1784370000023
 20
-162.884098999998
 30
0.0
 11
6032.5345701092729
 21
-178.11554723457169
 31
0.0
1001
ACDBBLOCKREPETAG
1070
     1
1071
      225
1005
135071
  0
LINE
  5
135072
  8
OBJECT
 10
5944.804121000001
 20
-162.88106899999821
 30
0.0
 11
6032.5345701092729
 21
-178.11554723457169
 31
0.0
1001
ACDBBLOCKREPETAG
1070
     1
1071
      226
1005
135072
  0
ARC
  5
135073
  8
OBJECT
 10
6000.0
 20
-199.99999999999909
 30
0.0
 40
92.5
 50
197.8018954425261
 51
252.19810417408729
1001
ACDBBLOCKREPETAG
1070
     1
1071
      230
1005
135073
  0
ARC
  5
135074
  8
OBJECT
 10
6000.0
 20
-199.99999999999909
 30
0.0
 40
92.5
 50
107.80189486746769
 51
162.19810513270031
1001
ACDBBLOCKREPETAG
1070
     1
1071
      231
1005
135074
  0
ARC
  5
135075
  8
OBJECT
 10
6000.0
 20
-199.99999999999909
 30
0.0
 40
92.5
 50
17.801895825711568
 51
72.19810417408732
1001
ACDBBLOCKREPETAG
1070
     1
1071
      232
1005
135075
  0
ARC
  5
135076
  8
OBJECT
 10
6000.0
 20
-199.99999999999909
 30
0.0
 40
62.5
 50
144.42390307805491
 51
193.7174643726803
1001
ACDBBLOCKREPETAG
1070
     1
1071
      234
1005
135076
  0
ARC
  5
135077
  8
OBJECT
 10
6000.0
 20
-199.99999999999909
 30
0.0
 40
62.5
 50
262.64111297834887
 51
33.92683896333525
1001
ACDBBLOCKREPETAG
1070
     1
1071
      235
1005
135077
  0
POINT
  5
135078
  8
DOTS
 10
6000.0
 20
-199.99999999999909
 30
0.0
1001
ACDBBLOCKREPETAG
1070
     1
1071
      280
1005
135078
  0
LINE
  5
135079
  8
OBJECT
 10
6222.9999999999864
 20
-577.99999999999852
 30
0.0
 11
6229.9999999999864
 21
-577.99999999999852
 31
0.0
1001
ACDBBLOCKREPETAG
1070
     1
1071
       83
1005
135079
  0
LINE
  5
13507A
  8
OBJECT
 10
6229.9999999999864
 20
-577.99999999999852
 30
0.0
 11
6229.9999999999864
 21
-701.99999999999852
 31
0.0
1001
ACDBBLOCKREPETAG
1070
     1
1071
       84
1005
13507A
  0
LINE
  5
13507B
  8
OBJECT
 10
6105.9999999999873
 20
-648.35026377572513
 30
0.0
 11
6105.9999999999873
 21
-749.99999999999852
 31
0.0
1001
ACDBBLOCKREPETAG
1070
     1
1071
       85
1005
13507B
  0
LINE
  5
13507C
  8
OBJECT
 10
6229.9999999999864
 20
-701.99999999999852
 30
0.0
 11
6222.9999999999864
 21
-701.99999999999852
 31
0.0
1001
ACDBBLOCKREPETAG
1070
     1
1071
       86
1005
13507C
  0
LINE
  5
13507D
  8
OBJECT
 10
6222.9999999999864
 20
-701.99999999999852
 30
0.0
 11
6222.9999999999864
 21
-577.99999999999852
 31
0.0
1001
ACDBBLOCKREPETAG
1070
     1
1071
       87
1005
13507D
  0
LINE
  5
13507E
  8
CENTER
 10
6154.9999999999864
 20
-639.99999999999852
 30
0.0
 11
6244.9999999999864
 21
-639.99999999999852
 31
0.0
1001
ACDBBLOCKREPETAG
1070
     1
1071
       88
1005
13507E
  0
LINE
  5
13507F
  8
OBJECT
 10
6099.9999999999818
 20
-752.99999999999773
 30
0.0
 11
6102.9999999999873
 21
-752.99999999999852
 31
0.0
1001
ACDBBLOCKREPETAG
1070
     1
1071
       89
1005
13507F
  0
ARC
  5
135080
  8
OBJECT
 10
6102.9999999999873
 20
-749.99999999999852
 30
0.0
 40
3.0
 50
270.0
 51
0.0
1001
ACDBBLOCKREPETAG
1070
     1
1071
       90
1005
135080
  0
LINE
  5
135081
  8
OBJECT
 10
6222.9999999999864
 20
-580.99999999999852
 30
0.0
 11
6186.9999999999864
 21
-580.99999999999852
 31
0.0
1001
ACDBBLOCKREPETAG
1070
     1
1071
       91
1005
135081
  0
LINE
  5
135082
  8
OBJECT
 10
6186.9999999999864
 20
-580.99999999999852
 30
0.0
 11
6186.9999999999864
 21
-698.99999999999852
 31
0.0
1001
ACDBBLOCKREPETAG
1070
     1
1071
       92
1005
135082
  0
LINE
  5
135083
  8
OBJECT
 10
6182.9999999999864
 20
-585.49999999999852
 30
0.0
 11
6182.9999999999864
 21
-694.49999999999852
 31
0.0
1001
ACDBBLOCKREPETAG
1070
     1
1071
       93
1005
135083
  0
LINE
  5
135084
  8
OBJECT
 10
6182.9999999999864
 20
-585.49999999999852
 30
0.0
 11
6169.9999999999873
 21
-585.49999999999852
 31
0.0
1001
ACDBBLOCKREPETAG
1070
     1
1071
       94
1005
135084
  0
LINE
  5
135085
  8
OBJECT
 10
6186.9999999999864
 20
-698.99999999999852
 30
0.0
 11
6222.9999999999864
 21
-698.99999999999852
 31
0.0
1001
ACDBBLOCKREPETAG
1070
     1
1071
       95
1005
135085
  0
LINE
  5
135086
  8
OBJECT
 10
6186.9999999999864
 20
-580.99999999999852
 30
0.0
 11
6182.9999999999864
 21
-585.49999999999852
 31
0.0
1001
ACDBBLOCKREPETAG
1070
     1
1071
       96
1005
135086
  0
LINE
  5
135087
  8
OBJECT
 10
6169.9999999999873
 20
-585.49999999999852
 30
0.0
 11
6169.9999999999873
 21
-670.74491827928557
 31
0.0
1001
ACDBBLOCKREPETAG
1070
     1
1071
       97
1005
135087
  0
ARC
  5
135088
  8
OBJECT
 10
6172.7999999999838
 20
-679.99999999999852
 30
0.0
 40
85.0
 50
91.887731891831123
 51
143.1301023540934
1001
ACDBBLOCKREPETAG
1070
     1
1071
       98
1005
135088
  0
LINE
  5
135089
  8
HIDDEN
 10
6177.9999999999864
 20
-595.49999999999841
 30
0.0
 11
6177.9999999999864
 21
-684.49999999999852
 31
0.0
1001
ACDBBLOCKREPETAG
1070
     1
1071
      100
1005
135089
  0
LINE
  5
13508A
  8
OBJECT
 10
6105.9999999999873
 20
-746.07945073181554
 30
0.0
 11
6176.6313199210317
 21
-694.49999999999852
 31
0.0
1001
ACDBBLOCKREPETAG
1070
     1
1071
      101
1005
13508A
  0
LINE
  5
13508B
  8
OBJECT
 10
6099.9999999999818
 20
-628.99999999999761
 30
0.0
 11
6104.7999999999838
 21
-628.99999999999761
 31
0.0
1001
ACDBBLOCKREPETAG
1070
     1
1071
      102
1005
13508B
  0
LINE
  5
13508C
  8
OBJECT
 10
6105.9999999999873
 20
-648.35026377572785
 30
0.0
 11
6104.7999999999838
 21
-628.99999999999761
 31
0.0
1001
ACDBBLOCKREPETAG
1070
     1
1071
      103
1005
13508C
  0
LINE
  5
13508D
  8
OBJECT
 10
6182.9999999999864
 20
-694.49999999999852
 30
0.0
 11
6176.6313199210317
 21
-694.49999999999852
 31
0.0
1001
ACDBBLOCKREPETAG
1070
     1
1071
      104
1005
13508D
  0
LINE
  5
13508E
  8
OBJECT
 10
6186.9999999999864
 20
-698.99999999999852
 30
0.0
 11
6182.9999999999864
 21
-694.49999999999852
 31
0.0
1001
ACDBBLOCKREPETAG
1070
     1
1071
      105
1005
13508E
  0
LINE
  5
13508F
  8
OBJECT
 10
6222.9999999999864
 20
-137.99999999999909
 30
0.0
 11
6229.9999999999864
 21
-137.99999999999909
 31
0.0
1001
ACDBBLOCKREPETAG
1070
     1
1071
       85
1005
13508F
  0
LINE
  5
135090
  8
OBJECT
 10
6229.9999999999864
 20
-137.99999999999909
 30
0.0
 11
6229.9999999999864
 21
-261.99999999999909
 31
0.0
1001
ACDBBLOCKREPETAG
1070
     1
1071
       86
1005
135090
  0
LINE
  5
135091
  8
OBJECT
 10
6229.9999999999864
 20
-261.99999999999909
 30
0.0
 11
6222.9999999999864
 21
-261.99999999999909
 31
0.0
1001
ACDBBLOCKREPETAG
1070
     1
1071
       87
1005
135091
  0
LINE
  5
135092
  8
OBJECT
 10
6222.9999999999864
 20
-261.99999999999909
 30
0.0
 11
6222.9999999999864
 21
-137.99999999999909
 31
0.0
1001
ACDBBLOCKREPETAG
1070
     1
1071
       88
1005
135092
  0
LINE
  5
135093
  8
CENTER
 10
6244.9999999999864
 20
-199.99999999999909
 30
0.0
 11
6100.0
 21
-199.99999999999909
 31
0.0
1001
ACDBBLOCKREPETAG
1070
     1
1071
       89
1005
135093
  0
LINE
  5
135094
  8
OBJECT
 10
6169.9999749641847
 20
-245.0000000000027
 30
0.0
 11
6106.0
 21
-244.99999999999909
 31
0.0
1001
ACDBBLOCKREPETAG
1070
     1
1071
       90
1005
135094
  0
LINE
  5
135095
  8
OBJECT
 10
6169.9999749641847
 20
-154.99999999999909
 30
0.0
 11
6106.0
 21
-154.99999999999909
 31
0.0
1001
ACDBBLOCKREPETAG
1070
     1
1071
       91
1005
135095
  0
LINE
  5
135096
  8
OBJECT
 10
6222.9999999999864
 20
-140.99999999999909
 30
0.0
 11
6186.9999999999864
 21
-140.99999999999909
 31
0.0
1001
ACDBBLOCKREPETAG
1070
     1
1071
       92
1005
135096
  0
LINE
  5
135097
  8
OBJECT
 10
6186.9999999999864
 20
-140.99999999999909
 30
0.0
 11
6186.9999999999864
 21
-258.99999999999909
 31
0.0
1001
ACDBBLOCKREPETAG
1070
     1
1071
       93
1005
135097
  0
LINE
  5
135098
  8
OBJECT
 10
6186.9999999999864
 20
-258.99999999999909
 30
0.0
 11
6222.9999999999864
 21
-258.99999999999909
 31
0.0
1001
ACDBBLOCKREPETAG
1070
     1
1071
       94
1005
135098
  0
LINE
  5
135099
  8
OBJECT
 10
6182.9999999999864
 20
-145.49999999999909
 30
0.0
 11
6169.9999999999873
 21
-145.49999999999909
 31
0.0
1001
ACDBBLOCKREPETAG
1070
     1
1071
       95
1005
135099
  0
LINE
  5
13509A
  8
OBJECT
 10
6169.9999999999873
 20
-254.49999999999909
 30
0.0
 11
6182.9999999999864
 21
-254.49999999999909
 31
0.0
1001
ACDBBLOCKREPETAG
1070
     1
1071
       96
1005
13509A
  0
LINE
  5
13509B
  8
OBJECT
 10
6182.9999999999864
 20
-254.49999999999909
 30
0.0
 11
6182.9999999999864
 21
-145.49999999999909
 31
0.0
1001
ACDBBLOCKREPETAG
1070
     1
1071
       97
1005
13509B
  0
LINE
  5
13509C
  8
OBJECT
 10
6186.9999999999864
 20
-140.99999999999909
 30
0.0
 11
6182.9999999999864
 21
-145.49999999999909
 31
0.0
1001
ACDBBLOCKREPETAG
1070
     1
1071
       98
1005
13509C
  0
LINE
  5
13509D
  8
OBJECT
 10
6186.9999999999864
 20
-258.99999999999909
 30
0.0
 11
6182.9999999999864
 21
-254.49999999999909
 31
0.0
1001
ACDBBLOCKREPETAG
1070
     1
1071
       99
1005
13509D
  0
LINE
  5
13509E
  8
OBJECT
 10
6103.0
 20
-137.99999999999909
 30
0.0
 11
6100.0
 21
-137.99999999999909
 31
0.0
1001
ACDBBLOCKREPETAG
1070
     1
1071
      100
1005
13509E
  0
ARC
  5
13509F
  8
OBJECT
 10
6103.0
 20
-140.99999999999909
 30
0.0
 40
3.0
 50
0.0
 51
90.0
1001
ACDBBLOCKREPETAG
1070
     1
1071
      101
1005
13509F
  0
LINE
  5
1350A0
  8
OBJECT
 10
6100.0
 20
-261.99999999999909
 30
0.0
 11
6103.0
 21
-261.99999999999909
 31
0.0
1001
ACDBBLOCKREPETAG
1070
     1
1071
      102
1005
1350A0
  0
ARC
  5
1350A1
  8
OBJECT
 10
6103.0
 20
-258.99999999999909
 30
0.0
 40
3.0
 50
270.0
 51
0.0
1001
ACDBBLOCKREPETAG
1070
     1
1071
      103
1005
1350A1
  0
LINE
  5
1350A2
  8
OBJECT
 10
6106.0
 20
-258.99999999999909
 30
0.0
 11
6106.0
 21
-210.3227903203578
 31
0.0
1001
ACDBBLOCKREPETAG
1070
     1
1071
      104
1005
1350A2
  0
LINE
  5
1350A3
  8
OBJECT
 10
6106.0
 20
-189.6772096796403
 30
0.0
 11
6106.0
 21
-140.99999999999909
 31
0.0
1001
ACDBBLOCKREPETAG
1070
     1
1071
      105
1005
1350A3
  0
LINE
  5
1350A4
  8
HIDDEN
 10
6177.9999999999864
 20
-155.49999999999909
 30
0.0
 11
6177.9999999999864
 21
-244.49999999999909
 31
0.0
1001
ACDBBLOCKREPETAG
1070
     1
1071
      106
1005
1350A4
  0
LINE
  5
1350A5
  8
OBJECT
 10
6169.9999749641847
 20
-254.4999509238105
 30
0.0
 11
6169.9999749641847
 21
-145.4999509238105
 31
0.0
1001
ACDBBLOCKREPETAG
1070
     1
1071
      108
1005
1350A5
  0
ARC
  5
1350A6
  8
OBJECT
 10
6149.8000000000238
 20
-199.99999999999909
 30
0.0
 40
45.000000000000547
 50
90.0
 51
270.0
1001
ACDBBLOCKREPETAG
1070
     1
1071
      109
1005
1350A6
  0
LINE
  5
1350A7
  8
OBJECT
 10
3777.000000000015
 20
-577.99999999999761
 30
0.0
 11
3770.0000000000159
 21
-577.99999999999761
 31
0.0
1001
ACDBBLOCKREPETAG
1070
     1
1071
       83
1005
1350A7
  0
LINE
  5
1350A8
  8
OBJECT
 10
3770.0000000000159
 20
-577.99999999999761
 30
0.0
 11
3770.0000000000159
 21
-701.99999999999761
 31
0.0
1001
ACDBBLOCKREPETAG
1070
     1
1071
       84
1005
1350A8
  0
LINE
  5
1350A9
  8
OBJECT
 10
3894.0000000000159
 20
-648.35026377572513
 30
0.0
 11
3894.0000000000159
 21
-749.99999999999852
 31
0.0
1001
ACDBBLOCKREPETAG
1070
     1
1071
       85
1005
1350A9
  0
LINE
  5
1350AA
  8
OBJECT
 10
3770.0000000000159
 20
-701.99999999999761
 30
0.0
 11
3777.000000000015
 21
-701.99999999999761
 31
0.0
1001
ACDBBLOCKREPETAG
1070
     1
1071
       86
1005
1350AA
  0
LINE
  5
1350AB
  8
OBJECT
 10
3777.000000000015
 20
-701.99999999999761
 30
0.0
 11
3777.000000000015
 21
-577.99999999999761
 31
0.0
1001
ACDBBLOCKREPETAG
1070
     1
1071
       87
1005
1350AB
  0
LINE
  5
1350AC
  8
CENTER
 10
3845.000000000015
 20
-639.99999999999852
 30
0.0
 11
3755.000000000015
 21
-639.99999999999761
 31
0.0
1001
ACDBBLOCKREPETAG
1070
     1
1071
       88
1005
1350AC
  0
LINE
  5
1350AD
  8
OBJECT
 10
3900.0000000000191
 20
-752.99999999999773
 30
0.0
 11
3897.0000000000159
 21
-752.99999999999852
 31
0.0
1001
ACDBBLOCKREPETAG
1070
     1
1071
       89
1005
1350AD
  0
ARC
  5
1350AE
  8
OBJECT
 10
3897.0000000000159
 20
-749.99999999999852
 30
0.0
 40
3.0
 50
180.0
 51
270.0
1001
ACDBBLOCKREPETAG
1070
     1
1071
       90
1005
1350AE
  0
LINE
  5
1350AF
  8
OBJECT
 10
3777.000000000015
 20
-580.99999999999761
 30
0.0
 11
3813.0000000000159
 21
-580.99999999999852
 31
0.0
1001
ACDBBLOCKREPETAG
1070
     1
1071
       91
1005
1350AF
  0
LINE
  5
1350B0
  8
OBJECT
 10
3813.0000000000159
 20
-580.99999999999852
 30
0.0
 11
3813.0000000000159
 21
-698.99999999999852
 31
0.0
1001
ACDBBLOCKREPETAG
1070
     1
1071
       92
1005
1350B0
  0
LINE
  5
1350B1
  8
OBJECT
 10
3817.0000000000141
 20
-585.49999999999852
 30
0.0
 11
3817.0000000000141
 21
-694.49999999999852
 31
0.0
1001
ACDBBLOCKREPETAG
1070
     1
1071
       93
1005
1350B1
  0
LINE
  5
1350B2
  8
OBJECT
 10
3817.0000000000141
 20
-585.49999999999852
 30
0.0
 11
3830.0000000000159
 21
-585.49999999999852
 31
0.0
1001
ACDBBLOCKREPETAG
1070
     1
1071
       94
1005
1350B2
  0
LINE
  5
1350B3
  8
OBJECT
 10
3813.0000000000159
 20
-698.99999999999852
 30
0.0
 11
3777.000000000015
 21
-698.99999999999761
 31
0.0
1001
ACDBBLOCKREPETAG
1070
     1
1071
       95
1005
1350B3
  0
LINE
  5
1350B4
  8
OBJECT
 10
3813.0000000000159
 20
-580.99999999999852
 30
0.0
 11
3817.0000000000141
 21
-585.49999999999852
 31
0.0
1001
ACDBBLOCKREPETAG
1070
     1
1071
       96
1005
1350B4
  0
LINE
  5
1350B5
  8
OBJECT
 10
3830.0000000000159
 20
-585.49999999999852
 30
0.0
 11
3830.0000000000159
 21
-670.74491827928557
 31
0.0
1001
ACDBBLOCKREPETAG
1070
     1
1071
       97
1005
1350B5
  0
ARC
  5
1350B6
  8
OBJECT
 10
3827.2000000000148
 20
-679.99999999999852
 30
0.0
 40
85.0
 50
36.869897645906562
 51
88.112268108168848
1001
ACDBBLOCKREPETAG
1070
     1
1071
       98
1005
1350B6
  0
LINE
  5
1350B7
  8
HIDDEN
 10
3822.0000000000159
 20
-595.49999999999841
 30
0.0
 11
3822.0000000000159
 21
-684.49999999999852
 31
0.0
1001
ACDBBLOCKREPETAG
1070
     1
1071
      100
1005
1350B7
  0
LINE
  5
1350B8
  8
OBJECT
 10
3894.0000000000159
 20
-746.07945073181554
 30
0.0
 11
3823.3686800789692
 21
-694.49999999999852
 31
0.0
1001
ACDBBLOCKREPETAG
1070
     1
1071
      101
1005
1350B8
  0
LINE
  5
1350B9
  8
OBJECT
 10
3900.0000000000191
 20
-628.99999999999761
 30
0.0
 11
3895.2000000000148
 21
-628.99999999999761
 31
0.0
1001
ACDBBLOCKREPETAG
1070
     1
1071
      102
1005
1350B9
  0
LINE
  5
1350BA
  8
OBJECT
 10
3894.0000000000159
 20
-648.35026377572785
 30
0.0
 11
3895.2000000000148
 21
-628.99999999999761
 31
0.0
1001
ACDBBLOCKREPETAG
1070
     1
1071
      103
1005
1350BA
  0
LINE
  5
1350BB
  8
OBJECT
 10
3817.0000000000141
 20
-694.49999999999852
 30
0.0
 11
3823.3686800789692
 21
-694.49999999999852
 31
0.0
1001
ACDBBLOCKREPETAG
1070
     1
1071
      104
1005
1350BB
  0
LINE
  5
1350BC
  8
OBJECT
 10
3813.0000000000159
 20
-698.99999999999852
 30
0.0
 11
3817.0000000000141
 21
-694.49999999999852
 31
0.0
1001
ACDBBLOCKREPETAG
1070
     1
1071
      105
1005
1350BC
  0
CIRCLE
  5
1350BD
  8
OBJECT
 10
4000.0
 20
-690.99999999999761
 30
0.0
 40
62.0
1001
ACDBBLOCKREPETAG
1070
     1
1071
        0
1005
1350BD
  0
LINE
  5
1350BE
  8
OBJECT
 10
4095.0
 20
-569.99999999999955
 30
0.0
 11
3905.0
 21
-569.99999999999955
 31
0.0
1001
ACDBBLOCKREPETAG
1070
     1
1071
        0
1005
1350BE
  0
LINE
  5
1350BF
  8
OBJECT
 10
4095.0
 20
-549.99999999999955
 30
0.0
 11
3905.0
 21
-549.99999999999955
 31
0.0
1001
ACDBBLOCKREPETAG
1070
     1
1071
        1
1005
1350BF
  0
LINE
  5
1350C0
  8
OBJECT
 10
3902.5
 20
-914.99999999999955
 30
0.0
 11
4097.5
 21
-914.99999999999955
 31
0.0
1001
ACDBBLOCKREPETAG
1070
     1
1071
        2
1005
1350C0
  0
LINE
  5
1350C1
  8
OBJECT
 10
3908.237046000002
 20
-549.99999999999955
 30
0.0
 11
3908.237046582261
 21
-569.99999999999955
 31
0.0
1001
ACDBBLOCKREPETAG
1070
     1
1071
        3
1005
1350C1
  0
LINE
  5
1350C2
  8
OBJECT
 10
3905.0
 20
-549.99999999999955
 30
0.0
 11
3905.0
 21
-569.99999999999955
 31
0.0
1001
ACDBBLOCKREPETAG
1070
     1
1071
        4
1005
1350C2
  0
LINE
  5
1350C3
  8
OBJECT
 10
3916.0249090000002
 20
-549.99999999999955
 30
0.0
 11
3916.0249090000002
 21
-569.99999999999955
 31
0.0
1001
ACDBBLOCKREPETAG
1070
     1
1071
        5
1005
1350C3
  0
LINE
  5
1350C4
  8
OBJECT
 10
3967.6243270000018
 20
-549.99999999999955
 30
0.0
 11
3967.6243270000018
 21
-569.99999999999955
 31
0.0
1001
ACDBBLOCKREPETAG
1070
     1
1071
        6
1005
1350C4
  0
LINE
  5
1350C5
  8
OBJECT
 10
3975.41219
 20
-549.99999999999955
 30
0.0
 11
3975.41219
 21
-569.99999999999955
 31
0.0
1001
ACDBBLOCKREPETAG
1070
     1
1071
        7
1005
1350C5
  0
LINE
  5
1350C6
  8
OBJECT
 10
4024.5878090000001
 20
-549.99999999999955
 30
0.0
 11
4024.5878090000001
 21
-569.99999999999955
 31
0.0
1001
ACDBBLOCKREPETAG
1070
     1
1071
        8
1005
1350C6
  0
LINE
  5
1350C7
  8
OBJECT
 10
4032.375672000001
 20
-549.99999999999955
 30
0.0
 11
4032.375672000001
 21
-569.99999999999955
 31
0.0
1001
ACDBBLOCKREPETAG
1070
     1
1071
        9
1005
1350C7
  0
LINE
  5
1350C8
  8
OBJECT
 10
4083.9750910000012
 20
-549.99999999999955
 30
0.0
 11
4083.9750910000012
 21
-569.99999999999955
 31
0.0
1001
ACDBBLOCKREPETAG
1070
     1
1071
       10
1005
1350C8
  0
LINE
  5
1350C9
  8
OBJECT
 10
4091.762953999998
 20
-549.99999999999955
 30
0.0
 11
4091.7629534177431
 21
-569.99999999999955
 31
0.0
1001
ACDBBLOCKREPETAG
1070
     1
1071
       11
1005
1350C9
  0
LINE
  5
1350CA
  8
OBJECT
 10
4095.0
 20
-549.99999999999955
 30
0.0
 11
4095.0
 21
-569.99999999999955
 31
0.0
1001
ACDBBLOCKREPETAG
1070
     1
1071
       12
1005
1350CA
  0
LINE
  5
1350CB
  8
OBJECT
 10
4100.0
 20
-628.99999999999955
 30
0.0
 11
3900.0
 21
-628.99999999999955
 31
0.0
1001
ACDBBLOCKREPETAG
1070
     1
1071
       13
1005
1350CB
  0
LINE
  5
1350CC
  8
OBJECT
 10
4100.0
 20
-752.99999999999773
 30
0.0
 11
4092.5
 21
-752.99999999999773
 31
0.0
1001
ACDBBLOCKREPETAG
1070
     1
1071
       14
1005
1350CC
  0
LINE
  5
1350CD
  8
OBJECT
 10
3902.5
 20
-914.99999999999955
 30
0.0
 11
3902.5
 21
-902.99999999999784
 31
0.0
1001
ACDBBLOCKREPETAG
1070
     1
1071
       15
1005
1350CD
  0
LINE
  5
1350CE
  8
OBJECT
 10
4097.5
 20
-914.99999999999955
 30
0.0
 11
4097.5
 21
-902.99999999999784
 31
0.0
1001
ACDBBLOCKREPETAG
1070
     1
1071
       16
1005
1350CE
  0
LINE
  5
1350CF
  8
OBJECT
 10
3902.5
 20
-902.99999999999784
 30
0.0
 11
4097.5
 21
-902.99999999999784
 31
0.0
1001
ACDBBLOCKREPETAG
1070
     1
1071
       17
1005
1350CF
  0
LINE
  5
1350D0
  8
HIDDEN
 10
3930.0
 20
-624.99999999999955
 30
0.0
 11
4070.0
 21
-624.99999999999955
 31
0.0
1001
ACDBBLOCKREPETAG
1070
     1
1071
       18
1005
1350D0
  0
LINE
  5
1350D1
  8
CENTER
 10
4000.0
 20
-534.99999999999955
 30
0.0
 11
4000.0
 21
-914.99999999999955
 31
0.0
1001
ACDBBLOCKREPETAG
1070
     1
1071
       19
1005
1350D1
  0
LINE
  5
1350D2
  8
OBJECT
 10
4092.5
 20
-752.99999999999773
 30
0.0
 11
4092.5
 21
-902.99999999999784
 31
0.0
1001
ACDBBLOCKREPETAG
1070
     1
1071
       20
1005
1350D2
  0
LINE
  5
1350D3
  8
OBJECT
 10
3914.5
 20
-569.99999999999955
 30
0.0
 11
3914.5
 21
-628.99999999999955
 31
0.0
1001
ACDBBLOCKREPETAG
1070
     1
1071
       21
1005
1350D3
  0
LINE
  5
1350D4
  8
OBJECT
 10
4085.5
 20
-569.99999999999955
 30
0.0
 11
4085.5
 21
-628.99999999999955
 31
0.0
1001
ACDBBLOCKREPETAG
1070
     1
1071
       22
1005
1350D4
  0
POINT
  5
1350D5
  8
DOTS
 10
4000.0
 20
-749.99999999999955
 30
0.0
1001
ACDBBLOCKREPETAG
1070
     1
1071
       24
1005
1350D5
  0
LINE
  5
1350D6
  8
OBJECT
 10
3900.0
 20
-752.99999999999773
 30
0.0
 11
3907.5
 21
-752.99999999999773
 31
0.0
1001
ACDBBLOCKREPETAG
1070
     1
1071
       25
1005
1350D6
  0
LINE
  5
1350D7
  8
OBJECT
 10
3907.5
 20
-752.99999999999773
 30
0.0
 11
3907.5
 21
-902.99999999999784
 31
0.0
1001
ACDBBLOCKREPETAG
1070
     1
1071
       26
1005
1350D7
  0
ARC
  5
1350D8
  8
OBJECT
 10
4214.4155190291494
 20
-715.62073879202455
 30
0.0
 40
149.554492306393
 50
144.60628028468801
 51
164.2211863995189
1001
ACDBBLOCKREPETAG
1070
     1
1071
       28
1005
1350D8
  0
ARC
  5
1350D9
  8
OBJECT
 10
4139.1422781245283
 20
-690.99999999999761
 30
0.0
 40
70.496447952551449
 50
166.8426918235858
 51
193.15730817641409
1001
ACDBBLOCKREPETAG
1070
     1
1071
       29
1005
1350D9
  0
ARC
  5
1350DA
  8
OBJECT
 10
4214.4155190291494
 20
-666.3792612079701
 30
0.0
 40
149.55449230639621
 50
195.7788136004809
 51
215.3937197153119
1001
ACDBBLOCKREPETAG
1070
     1
1071
       30
1005
1350DA
  0
ARC
  5
1350DB
  8
OBJECT
 10
3785.584480970851
 20
-715.62073879202455
 30
0.0
 40
149.554492306393
 50
15.778813600532009
 51
35.393719715228642
1001
ACDBBLOCKREPETAG
1070
     1
1071
       31
1005
1350DB
  0
ARC
  5
1350DC
  8
OBJECT
 10
3860.8577218754722
 20
-690.99999999999761
 30
0.0
 40
70.496447952551449
 50
346.84269182358582
 51
13.15730817641421
1001
ACDBBLOCKREPETAG
1070
     1
1071
       32
1005
1350DC
  0
ARC
  5
1350DD
  8
OBJECT
 10
3785.584480970851
 20
-666.3792612079701
 30
0.0
 40
149.55449230639621
 50
324.60628028477117
 51
344.22118639946802
1001
ACDBBLOCKREPETAG
1070
     1
1071
       33
1005
1350DD
  0
LINE
  5
1350DE
  8
OBJECT
 10
3777.00000000001
 20
-261.99999999999909
 30
0.0
 11
3770.00000000001
 21
-261.99999999999909
 31
0.0
1001
ACDBBLOCKREPETAG
1070
     1
1071
       85
1005
1350DE
  0
LINE
  5
1350DF
  8
OBJECT
 10
3770.00000000001
 20
-261.99999999999909
 30
0.0
 11
3770.00000000001
 21
-137.99999999999909
 31
0.0
1001
ACDBBLOCKREPETAG
1070
     1
1071
       86
1005
1350DF
  0
LINE
  5
1350E0
  8
OBJECT
 10
3770.00000000001
 20
-137.99999999999909
 30
0.0
 11
3777.00000000001
 21
-137.99999999999909
 31
0.0
1001
ACDBBLOCKREPETAG
1070
     1
1071
       87
1005
1350E0
  0
LINE
  5
1350E1
  8
OBJECT
 10
3777.00000000001
 20
-137.99999999999909
 30
0.0
 11
3777.00000000001
 21
-261.99999999999909
 31
0.0
1001
ACDBBLOCKREPETAG
1070
     1
1071
       88
1005
1350E1
  0
LINE
  5
1350E2
  8
CENTER
 10
3755.00000000001
 20
-199.99999999999909
 30
0.0
 11
3899.9999999999968
 21
-199.99999999999909
 31
0.0
1001
ACDBBLOCKREPETAG
1070
     1
1071
       89
1005
1350E2
  0
LINE
  5
1350E3
  8
OBJECT
 10
3830.0000250358098
 20
-154.9999999999954
 30
0.0
 11
3893.9999999999959
 21
-154.99999999999909
 31
0.0
1001
ACDBBLOCKREPETAG
1070
     1
1071
       90
1005
1350E3
  0
LINE
  5
1350E4
  8
OBJECT
 10
3830.0000250358098
 20
-244.99999999999909
 30
0.0
 11
3893.9999999999959
 21
-244.99999999999909
 31
0.0
1001
ACDBBLOCKREPETAG
1070
     1
1071
       91
1005
1350E4
  0
LINE
  5
1350E5
  8
OBJECT
 10
3777.00000000001
 20
-258.99999999999909
 30
0.0
 11
3813.00000000001
 21
-258.99999999999909
 31
0.0
1001
ACDBBLOCKREPETAG
1070
     1
1071
       92
1005
1350E5
  0
LINE
  5
1350E6
  8
OBJECT
 10
3813.00000000001
 20
-258.99999999999909
 30
0.0
 11
3813.00000000001
 21
-140.99999999999909
 31
0.0
1001
ACDBBLOCKREPETAG
1070
     1
1071
       93
1005
1350E6
  0
LINE
  5
1350E7
  8
OBJECT
 10
3813.00000000001
 20
-140.99999999999909
 30
0.0
 11
3777.00000000001
 21
-140.99999999999909
 31
0.0
1001
ACDBBLOCKREPETAG
1070
     1
1071
       94
1005
1350E7
  0
LINE
  5
1350E8
  8
OBJECT
 10
3817.0000000000109
 20
-254.49999999999909
 30
0.0
 11
3830.0000000000109
 21
-254.49999999999909
 31
0.0
1001
ACDBBLOCKREPETAG
1070
     1
1071
       95
1005
1350E8
  0
LINE
  5
1350E9
  8
OBJECT
 10
3830.0000000000109
 20
-145.49999999999909
 30
0.0
 11
3817.0000000000109
 21
-145.49999999999909
 31
0.0
1001
ACDBBLOCKREPETAG
1070
     1
1071
       96
1005
1350E9
  0
LINE
  5
1350EA
  8
OBJECT
 10
3817.0000000000109
 20
-145.49999999999909
 30
0.0
 11
3817.0000000000109
 21
-254.49999999999909
 31
0.0
1001
ACDBBLOCKREPETAG
1070
     1
1071
       97
1005
1350EA
  0
LINE
  5
1350EB
  8
OBJECT
 10
3813.00000000001
 20
-258.99999999999909
 30
0.0
 11
3817.0000000000109
 21
-254.49999999999909
 31
0.0
1001
ACDBBLOCKREPETAG
1070
     1
1071
       98
1005
1350EB
  0
LINE
  5
1350EC
  8
OBJECT
 10
3813.00000000001
 20
-140.99999999999909
 30
0.0
 11
3817.0000000000109
 21
-145.49999999999909
 31
0.0
1001
ACDBBLOCKREPETAG
1070
     1
1071
       99
1005
1350EC
  0
LINE
  5
1350ED
  8
OBJECT
 10
3896.9999999999968
 20
-261.99999999999909
 30
0.0
 11
3899.9999999999968
 21
-261.99999999999909
 31
0.0
1001
ACDBBLOCKREPETAG
1070
     1
1071
      100
1005
1350ED
  0
ARC
  5
1350EE
  8
OBJECT
 10
3896.9999999999968
 20
-258.99999999999909
 30
0.0
 40
3.0
 50
180.0
 51
270.0
1001
ACDBBLOCKREPETAG
1070
     1
1071
      101
1005
1350EE
  0
LINE
  5
1350EF
  8
OBJECT
 10
3899.9999999999968
 20
-137.99999999999909
 30
0.0
 11
3896.9999999999968
 21
-137.99999999999909
 31
0.0
1001
ACDBBLOCKREPETAG
1070
     1
1071
      102
1005
1350EF
  0
ARC
  5
1350F0
  8
OBJECT
 10
3896.9999999999968
 20
-140.99999999999909
 30
0.0
 40
3.0
 50
90.0
 51
180.0
1001
ACDBBLOCKREPETAG
1070
     1
1071
      103
1005
1350F0
  0
LINE
  5
1350F1
  8
OBJECT
 10
3893.9999999999959
 20
-140.99999999999909
 30
0.0
 11
3893.9999999999959
 21
-189.6772096796403
 31
0.0
1001
ACDBBLOCKREPETAG
1070
     1
1071
      104
1005
1350F1
  0
LINE
  5
1350F2
  8
OBJECT
 10
3893.9999999999959
 20
-210.3227903203578
 30
0.0
 11
3893.9999999999959
 21
-258.99999999999909
 31
0.0
1001
ACDBBLOCKREPETAG
1070
     1
1071
      105
1005
1350F2
  0
LINE
  5
1350F3
  8
HIDDEN
 10
3822.0000000000109
 20
-244.49999999999909
 30
0.0
 11
3822.0000000000109
 21
-155.49999999999909
 31
0.0
1001
ACDBBLOCKREPETAG
1070
     1
1071
      106
1005
1350F3
  0
LINE
  5
1350F4
  8
OBJECT
 10
3830.0000250358098
 20
-145.50004907618759
 30
0.0
 11
3830.0000250358098
 21
-254.50004907618771
 31
0.0
1001
ACDBBLOCKREPETAG
1070
     1
1071
      108
1005
1350F4
  0
ARC
  5
1350F5
  8
OBJECT
 10
3850.1999999999721
 20
-199.99999999999909
 30
0.0
 40
45.000000000000547
 50
270.0
 51
90.0
1001
ACDBBLOCKREPETAG
1070
     1
1071
      109
1005
1350F5
  0
LINE
  5
1350F6
  8
CENTER
 10
4000.0000000000032
 20
-320.99999999999898
 30
0.0
 11
4000.0000000000032
 21
-299.99999999999898
 31
0.0
1001
ACDBBLOCKREPETAG
1070
     1
1071
        0
1005
1350F6
  0
LINE
  5
1350F7
  8
OBJECT
 10
4062.0000000000032
 20
-303.0
 30
0.0
 11
4062.0000000000032
 21
-299.99999999999898
 31
0.0
1001
ACDBBLOCKREPETAG
1070
     1
1071
        1
1005
1350F7
  0
ARC
  5
1350F8
  8
OBJECT
 10
4059.0000000000032
 20
-303.0
 30
0.0
 40
3.0
 50
270.0
 51
0.0
1001
ACDBBLOCKREPETAG
1070
     1
1071
        2
1005
1350F8
  0
LINE
  5
1350F9
  8
OBJECT
 10
3938.000000000005
 20
-299.99999999999898
 30
0.0
 11
3938.000000000005
 21
-302.99999999999818
 31
0.0
1001
ACDBBLOCKREPETAG
1070
     1
1071
        3
1005
1350F9
  0
ARC
  5
1350FA
  8
OBJECT
 10
3941.0000000000041
 20
-302.99999999999818
 30
0.0
 40
3.0
 50
180.0
 51
270.0
1001
ACDBBLOCKREPETAG
1070
     1
1071
        4
1005
1350FA
  0
LINE
  5
1350FB
  8
OBJECT
 10
3941.0000000000041
 20
-305.99999999999818
 30
0.0
 11
4059.0000000000032
 21
-306.0
 31
0.0
1001
ACDBBLOCKREPETAG
1070
     1
1071
        5
1005
1350FB
  0
ARC
  5
1350FC
  8
OBJECT
 10
3973.8931207053251
 20
-173.82438331578209
 30
0.0
 40
90.0
 50
274.21795726566182
 51
281.60300086771468
1001
ACDBBLOCKREPETAG
1070
     1
1071
        0
1005
1350FC
  0
LINE
  5
1350FD
  8
OBJECT
 10
3991.994750999992
 20
-261.98520799999727
 30
0.0
 11
3996.6424319999928
 21
-248.3387539999994
 31
0.0
1001
ACDBBLOCKREPETAG
1070
     1
1071
       28
1005
1350FD
  0
LINE
  5
1350FE
  8
OBJECT
 10
3955.2887960976809
 20
-207.0733020425842
 30
0.0
 11
3935.6054186421102
 21
-216.60084009147889
 31
0.0
1001
ACDBBLOCKREPETAG
1070
     1
1071
       29
1005
1350FE
  0
LINE
  5
1350FF
  8
OBJECT
 10
3937.3350639238638
 20
-222.25658973369261
 30
0.0
 11
3961.756073885118
 21
-210.43584915155679
 31
0.0
1001
ACDBBLOCKREPETAG
1070
     1
1071
       30
1005
1350FF
  0
LINE
  5
135100
  8
OBJECT
 10
3996.6424319999928
 20
-248.3387539999994
 30
0.0
 11
3970.3289245926439
 21
-210.9660806555467
 31
0.0
1001
ACDBBLOCKREPETAG
1070
     1
1071
       31
1005
135100
  0
ARC
  5
135101
  8
OBJECT
 10
3960.51700480005
 20
-217.87449798398211
 30
0.0
 40
12.0
 50
35.148769561176962
 51
115.8288295732624
1001
ACDBBLOCKREPETAG
1070
     1
1071
      259
1005
135101
  0
ARC
  5
135102
  8
OBJECT
 10
3965.2415463179791
 20
-217.63664646295089
 30
0.0
 40
8.0
 50
35.148769561176962
 51
115.8288292916689
1001
ACDBBLOCKREPETAG
1070
     1
1071
      260
1005
135102
  0
ARC
  5
135103
  8
OBJECT
 10
4000.0
 20
-199.99999999999909
 30
0.0
 40
90.0
 50
201.08359599996669
 51
248.9164040000301
1001
ACDBBLOCKREPETAG
1070
     1
1071
      268
1005
135103
  0
ARC
  5
135104
  8
OBJECT
 10
4000.0
 20
-199.99999999999909
 30
0.0
 40
90.0
 50
111.0835959999699
 51
158.9164034710258
1001
ACDBBLOCKREPETAG
1070
     1
1071
      269
1005
135104
  0
LINE
  5
135105
  8
OBJECT
 10
3916.0249094448668
 20
-167.62432755513231
 30
0.0
 11
3908.237046582261
 21
-175.4121904177382
 31
0.0
1001
ACDBBLOCKREPETAG
1070
     1
1071
      270
1005
135105
  0
LINE
  5
135106
  8
OBJECT
 10
3916.0249090000002
 20
-232.37567199999921
 30
0.0
 11
3908.2370469998132
 21
-224.58781114059909
 31
0.0
1001
ACDBBLOCKREPETAG
1070
     1
1071
      271
1005
135106
  0
ARC
  5
135107
  8
OBJECT
 10
4000.0
 20
-199.99999999999909
 30
0.0
 40
95.0
 50
164.99999981420299
 51
195.00000115869909
1001
ACDBBLOCKREPETAG
1070
     1
1071
      272
1005
135107
  0
ARC
  5
135108
  8
OBJECT
 10
4000.0
 20
-199.99999999999909
 30
0.0
 40
92.5
 50
287.80189678392043
 51
342.19810359941607
1001
ACDBBLOCKREPETAG
1070
     1
1071
        1
1005
135108
  0
ARC
  5
135109
  8
OBJECT
 10
4000.0
 20
-199.99999999999909
 30
0.0
 40
90.0
 50
291.08359599996987
 51
338.9164040000332
1001
ACDBBLOCKREPETAG
1070
     1
1071
        3
1005
135109
  0
CIRCLE
  5
13510A
  8
OBJECT
 10
4000.0
 20
-199.99999999999909
 30
0.0
 40
80.0
1001
ACDBBLOCKREPETAG
1070
     1
1071
        4
1005
13510A
  0
ARC
  5
13510B
  8
OBJECT
 10
4000.0
 20
-199.99999999999909
 30
0.0
 40
90.0
 50
21.083596528974049
 51
68.916404000030013
1001
ACDBBLOCKREPETAG
1070
     1
1071
        5
1005
13510B
  0
CIRCLE
  5
13510C
  8
OBJECT
 10
4000.0
 20
-199.99999999999909
 30
0.0
 40
66.5
1001
ACDBBLOCKREPETAG
1070
     1
1071
        7
1005
13510C
  0
LINE
  5
13510D
  8
OBJECT
 10
4083.9750905551332
 20
-167.62432755513231
 30
0.0
 11
4091.762953417739
 21
-175.4121904177382
 31
0.0
1001
ACDBBLOCKREPETAG
1070
     1
1071
        8
1005
13510D
  0
LINE
  5
13510E
  8
OBJECT
 10
4083.9750910000012
 20
-232.37567199999921
 30
0.0
 11
4091.7629530001868
 21
-224.58781114059909
 31
0.0
1001
ACDBBLOCKREPETAG
1070
     1
1071
        9
1005
13510E
  0
ARC
  5
13510F
  8
OBJECT
 10
4000.0
 20
-199.99999999999909
 30
0.0
 40
95.0
 50
344.99999884130068
 51
15.000000185796971
1001
ACDBBLOCKREPETAG
1070
     1
1071
       10
1005
13510F
  0
LINE
  5
135110
  8
OBJECT
 10
4032.3756729999982
 20
-283.9750909999994
 30
0.0
 11
4024.5878109482819
 21
-291.76295305171419
 31
0.0
1001
ACDBBLOCKREPETAG
1070
     1
1071
       11
1005
135110
  0
LINE
  5
135111
  8
OBJECT
 10
3967.624327999999
 20
-283.9750909999994
 30
0.0
 11
3975.4121904177409
 21
-291.76295341774039
 31
0.0
1001
ACDBBLOCKREPETAG
1070
     1
1071
       12
1005
135111
  0
ARC
  5
135112
  8
OBJECT
 10
4000.0
 20
-199.99999999999909
 30
0.0
 40
95.0
 50
254.999999814208
 51
285.0000010386097
1001
ACDBBLOCKREPETAG
1070
     1
1071
       13
1005
135112
  0
LINE
  5
135113
  8
OBJECT
 10
4032.3756729999982
 20
-116.0249099999992
 30
0.0
 11
4024.5878095822591
 21
-108.2370465822578
 31
0.0
1001
ACDBBLOCKREPETAG
1070
     1
1071
       14
1005
135113
  0
ARC
  5
135114
  8
OBJECT
 10
4000.0
 20
-199.99999999999909
 30
0.0
 40
95.0
 50
74.999999814207953
 51
104.9999993327599
1001
ACDBBLOCKREPETAG
1070
     1
1071
       15
1005
135114
  0
LINE
  5
135115
  8
OBJECT
 10
3967.624327999999
 20
-116.0249099999992
 30
0.0
 11
3975.412191783766
 21
-108.2370462162316
 31
0.0
1001
ACDBBLOCKREPETAG
1070
     1
1071
       16
1005
135115
  0
LINE
  5
135116
  8
OBJECT
 10
4055.1784370000009
 20
-162.884098999998
 30
0.0
 11
4032.534570109272
 21
-178.11554723457169
 31
0.0
1001
ACDBBLOCKREPETAG
1070
     1
1071
       17
1005
135116
  0
LINE
  5
135117
  8
OBJECT
 10
3944.8041210000019
 20
-162.88106899999821
 30
0.0
 11
4032.534570109272
 21
-178.11554723457169
 31
0.0
1001
ACDBBLOCKREPETAG
1070
     1
1071
       18
1005
135117
  0
ARC
  5
135118
  8
OBJECT
 10
4000.0
 20
-199.99999999999909
 30
0.0
 40
92.5
 50
197.80189544246551
 51
252.19810417430571
1001
ACDBBLOCKREPETAG
1070
     1
1071
       22
1005
135118
  0
ARC
  5
135119
  8
OBJECT
 10
4000.0
 20
-199.99999999999909
 30
0.0
 40
92.5
 50
107.80189486746769
 51
162.1981051326415
1001
ACDBBLOCKREPETAG
1070
     1
1071
       23
1005
135119
  0
ARC
  5
13511A
  8
OBJECT
 10
4000.0
 20
-199.99999999999909
 30
0.0
 40
92.5
 50
17.80189582568811
 51
72.198104174305684
1001
ACDBBLOCKREPETAG
1070
     1
1071
       24
1005
13511A
  0
ARC
  5
13511B
  8
OBJECT
 10
4000.0
 20
-199.99999999999909
 30
0.0
 40
62.5
 50
144.42390307809791
 51
193.7174643727642
1001
ACDBBLOCKREPETAG
1070
     1
1071
       26
1005
13511B
  0
ARC
  5
13511C
  8
OBJECT
 10
4000.0
 20
-199.99999999999909
 30
0.0
 40
62.5
 50
262.64111297834887
 51
33.92683896333525
1001
ACDBBLOCKREPETAG
1070
     1
1071
       27
1005
13511C
  0
LINE
  5
13511D
  8
OBJECT
 10
4068.6458301719758
 20
-137.99999999999909
 30
0.0
 11
4100.0
 21
-137.99999999999909
 31
0.0
1001
ACDBBLOCKREPETAG
1070
     1
1071
       33
1005
13511D
  0
LINE
  5
13511E
  8
OBJECT
 10
4068.6458301719758
 20
-261.99999999999909
 30
0.0
 11
4100.0000000000036
 21
-261.99999999999909
 31
0.0
1001
ACDBBLOCKREPETAG
1070
     1
1071
       34
1005
13511E
  0
LINE
  5
13511F
  8
OBJECT
 10
4062.0
 20
-268.64583017197862
 30
0.0
 11
4062.0000000000032
 21
-299.99999999999898
 31
0.0
1001
ACDBBLOCKREPETAG
1070
     1
1071
       35
1005
13511F
  0
LINE
  5
135120
  8
OBJECT
 10
3937.9999999999968
 20
-268.64583017197492
 30
0.0
 11
3938.0
 21
-299.99999999999898
 31
0.0
1001
ACDBBLOCKREPETAG
1070
     1
1071
       36
1005
135120
  0
LINE
  5
135121
  8
OBJECT
 10
3931.3541698280242
 20
-261.99999999999909
 30
0.0
 11
3899.9999999999968
 21
-261.99999999999909
 31
0.0
1001
ACDBBLOCKREPETAG
1070
     1
1071
       37
1005
135121
  0
LINE
  5
135122
  8
OBJECT
 10
3931.3541698280219
 20
-137.99999999999909
 30
0.0
 11
3899.9999999999968
 21
-137.99999999999909
 31
0.0
1001
ACDBBLOCKREPETAG
1070
     1
1071
       38
1005
135122
  0
ARC
  5
135123
  8
OBJECT
 10
4000.0
 20
-199.99999999999909
 30
0.0
 40
97.5
 50
39.48657743384517
 51
140.51342256615479
1001
ACDBBLOCKREPETAG
1070
     1
1071
       39
1005
135123
  0
ARC
  5
135124
  8
OBJECT
 10
4000.0
 20
-199.99999999999909
 30
0.0
 40
97.5
 50
219.48657743384521
 51
230.51342256616741
1001
ACDBBLOCKREPETAG
1070
     1
1071
       40
1005
135124
  0
ARC
  5
135125
  8
OBJECT
 10
4000.0
 20
-199.99999999999909
 30
0.0
 40
97.5
 50
309.48657743383143
 51
320.51342256615482
1001
ACDBBLOCKREPETAG
1070
     1
1071
       41
1005
135125
  0
LINE
  5
135126
  8
CENTER
 10
3900.0
 20
-199.99999999999909
 30
0.0
 11
4100.0
 21
-199.99999999999909
 31
0.0
1001
ACDBBLOCKREPETAG
1070
     1
1071
       42
1005
135126
  0
LINE
  5
135127
  8
CENTER
 10
4000.0
 20
-86.499999999999091
 30
0.0
 11
4000.0
 21
-299.99999999999898
 31
0.0
1001
ACDBBLOCKREPETAG
1070
     1
1071
       43
1005
135127
  0
POINT
  5
135128
  8
DOTS
 10
4000.0
 20
-199.99999999999909
 30
0.0
1001
ACDBBLOCKREPETAG
1070
     1
1071
      281
1005
135128
  0
LINE
  5
135129
  8
OBJECT
 10
4222.9999999999854
 20
-577.99999999999852
 30
0.0
 11
4229.9999999999854
 21
-577.99999999999852
 31
0.0
1001
ACDBBLOCKREPETAG
1070
     1
1071
       83
1005
135129
  0
LINE
  5
13512A
  8
OBJECT
 10
4229.9999999999854
 20
-577.99999999999852
 30
0.0
 11
4229.9999999999854
 21
-701.99999999999852
 31
0.0
1001
ACDBBLOCKREPETAG
1070
     1
1071
       84
1005
13512A
  0
LINE
  5
13512B
  8
OBJECT
 10
4105.9999999999854
 20
-648.35026377572513
 30
0.0
 11
4105.9999999999854
 21
-749.99999999999852
 31
0.0
1001
ACDBBLOCKREPETAG
1070
     1
1071
       85
1005
13512B
  0
LINE
  5
13512C
  8
OBJECT
 10
4229.9999999999854
 20
-701.99999999999852
 30
0.0
 11
4222.9999999999854
 21
-701.99999999999852
 31
0.0
1001
ACDBBLOCKREPETAG
1070
     1
1071
       86
1005
13512C
  0
LINE
  5
13512D
  8
OBJECT
 10
4222.9999999999854
 20
-701.99999999999852
 30
0.0
 11
4222.9999999999854
 21
-577.99999999999852
 31
0.0
1001
ACDBBLOCKREPETAG
1070
     1
1071
       87
1005
13512D
  0
LINE
  5
13512E
  8
CENTER
 10
4154.9999999999864
 20
-639.99999999999852
 30
0.0
 11
4244.9999999999854
 21
-639.99999999999852
 31
0.0
1001
ACDBBLOCKREPETAG
1070
     1
1071
       88
1005
13512E
  0
LINE
  5
13512F
  8
OBJECT
 10
4099.9999999999818
 20
-752.99999999999773
 30
0.0
 11
4102.9999999999854
 21
-752.99999999999852
 31
0.0
1001
ACDBBLOCKREPETAG
1070
     1
1071
       89
1005
13512F
  0
ARC
  5
135130
  8
OBJECT
 10
4102.9999999999854
 20
-749.99999999999852
 30
0.0
 40
3.0
 50
270.0
 51
0.0
1001
ACDBBLOCKREPETAG
1070
     1
1071
       90
1005
135130
  0
LINE
  5
135131
  8
OBJECT
 10
4222.9999999999854
 20
-580.99999999999852
 30
0.0
 11
4186.9999999999864
 21
-580.99999999999852
 31
0.0
1001
ACDBBLOCKREPETAG
1070
     1
1071
       91
1005
135131
  0
LINE
  5
135132
  8
OBJECT
 10
4186.9999999999864
 20
-580.99999999999852
 30
0.0
 11
4186.9999999999864
 21
-698.99999999999852
 31
0.0
1001
ACDBBLOCKREPETAG
1070
     1
1071
       92
1005
135132
  0
LINE
  5
135133
  8
OBJECT
 10
4182.9999999999854
 20
-585.49999999999852
 30
0.0
 11
4182.9999999999854
 21
-694.49999999999852
 31
0.0
1001
ACDBBLOCKREPETAG
1070
     1
1071
       93
1005
135133
  0
LINE
  5
135134
  8
OBJECT
 10
4182.9999999999854
 20
-585.49999999999852
 30
0.0
 11
4169.9999999999854
 21
-585.49999999999852
 31
0.0
1001
ACDBBLOCKREPETAG
1070
     1
1071
       94
1005
135134
  0
LINE
  5
135135
  8
OBJECT
 10
4186.9999999999864
 20
-698.99999999999852
 30
0.0
 11
4222.9999999999854
 21
-698.99999999999852
 31
0.0
1001
ACDBBLOCKREPETAG
1070
     1
1071
       95
1005
135135
  0
LINE
  5
135136
  8
OBJECT
 10
4186.9999999999864
 20
-580.99999999999852
 30
0.0
 11
4182.9999999999854
 21
-585.49999999999852
 31
0.0
1001
ACDBBLOCKREPETAG
1070
     1
1071
       96
1005
135136
  0
LINE
  5
135137
  8
OBJECT
 10
4169.9999999999854
 20
-585.49999999999852
 30
0.0
 11
4169.9999999999854
 21
-670.74491827928557
 31
0.0
1001
ACDBBLOCKREPETAG
1070
     1
1071
       97
1005
135137
  0
ARC
  5
135138
  8
OBJECT
 10
4172.7999999999829
 20
-679.99999999999852
 30
0.0
 40
85.0
 50
91.887731891831123
 51
143.1301023540934
1001
ACDBBLOCKREPETAG
1070
     1
1071
       98
1005
135138
  0
LINE
  5
135139
  8
HIDDEN
 10
4177.9999999999854
 20
-595.49999999999841
 30
0.0
 11
4177.9999999999854
 21
-684.49999999999852
 31
0.0
1001
ACDBBLOCKREPETAG
1070
     1
1071
      100
1005
135139
  0
LINE
  5
13513A
  8
OBJECT
 10
4105.9999999999854
 20
-746.07945073181554
 30
0.0
 11
4176.6313199210308
 21
-694.49999999999852
 31
0.0
1001
ACDBBLOCKREPETAG
1070
     1
1071
      101
1005
13513A
  0
LINE
  5
13513B
  8
OBJECT
 10
4099.9999999999818
 20
-628.99999999999761
 30
0.0
 11
4104.7999999999838
 21
-628.99999999999761
 31
0.0
1001
ACDBBLOCKREPETAG
1070
     1
1071
      102
1005
13513B
  0
LINE
  5
13513C
  8
OBJECT
 10
4105.9999999999854
 20
-648.35026377572785
 30
0.0
 11
4104.7999999999838
 21
-628.99999999999761
 31
0.0
1001
ACDBBLOCKREPETAG
1070
     1
1071
      103
1005
13513C
  0
LINE
  5
13513D
  8
OBJECT
 10
4182.9999999999854
 20
-694.49999999999852
 30
0.0
 11
4176.6313199210308
 21
-694.49999999999852
 31
0.0
1001
ACDBBLOCKREPETAG
1070
     1
1071
      104
1005
13513D
  0
LINE
  5
13513E
  8
OBJECT
 10
4186.9999999999864
 20
-698.99999999999852
 30
0.0
 11
4182.9999999999854
 21
-694.49999999999852
 31
0.0
1001
ACDBBLOCKREPETAG
1070
     1
1071
      105
1005
13513E
  0
LINE
  5
13513F
  8
OBJECT
 10
4222.9999999999854
 20
-137.99999999999909
 30
0.0
 11
4229.9999999999854
 21
-137.99999999999909
 31
0.0
1001
ACDBBLOCKREPETAG
1070
     1
1071
       85
1005
13513F
  0
LINE
  5
135140
  8
OBJECT
 10
4229.9999999999854
 20
-137.99999999999909
 30
0.0
 11
4229.9999999999854
 21
-261.99999999999909
 31
0.0
1001
ACDBBLOCKREPETAG
1070
     1
1071
       86
1005
135140
  0
LINE
  5
135141
  8
OBJECT
 10
4229.9999999999854
 20
-261.99999999999909
 30
0.0
 11
4222.9999999999854
 21
-261.99999999999909
 31
0.0
1001
ACDBBLOCKREPETAG
1070
     1
1071
       87
1005
135141
  0
LINE
  5
135142
  8
OBJECT
 10
4222.9999999999854
 20
-261.99999999999909
 30
0.0
 11
4222.9999999999854
 21
-137.99999999999909
 31
0.0
1001
ACDBBLOCKREPETAG
1070
     1
1071
       88
1005
135142
  0
LINE
  5
135143
  8
CENTER
 10
4244.9999999999854
 20
-199.99999999999909
 30
0.0
 11
4100.0
 21
-199.99999999999909
 31
0.0
1001
ACDBBLOCKREPETAG
1070
     1
1071
       89
1005
135143
  0
LINE
  5
135144
  8
OBJECT
 10
4169.9999749641865
 20
-245.0000000000027
 30
0.0
 11
4106.0
 21
-244.99999999999909
 31
0.0
1001
ACDBBLOCKREPETAG
1070
     1
1071
       90
1005
135144
  0
LINE
  5
135145
  8
OBJECT
 10
4169.9999749641865
 20
-154.99999999999909
 30
0.0
 11
4106.0
 21
-154.99999999999909
 31
0.0
1001
ACDBBLOCKREPETAG
1070
     1
1071
       91
1005
135145
  0
LINE
  5
135146
  8
OBJECT
 10
4222.9999999999854
 20
-140.99999999999909
 30
0.0
 11
4186.9999999999864
 21
-140.99999999999909
 31
0.0
1001
ACDBBLOCKREPETAG
1070
     1
1071
       92
1005
135146
  0
LINE
  5
135147
  8
OBJECT
 10
4186.9999999999864
 20
-140.99999999999909
 30
0.0
 11
4186.9999999999864
 21
-258.99999999999909
 31
0.0
1001
ACDBBLOCKREPETAG
1070
     1
1071
       93
1005
135147
  0
LINE
  5
135148
  8
OBJECT
 10
4186.9999999999864
 20
-258.99999999999909
 30
0.0
 11
4222.9999999999854
 21
-258.99999999999909
 31
0.0
1001
ACDBBLOCKREPETAG
1070
     1
1071
       94
1005
135148
  0
LINE
  5
135149
  8
OBJECT
 10
4182.9999999999854
 20
-145.49999999999909
 30
0.0
 11
4169.9999999999854
 21
-145.49999999999909
 31
0.0
1001
ACDBBLOCKREPETAG
1070
     1
1071
       95
1005
135149
  0
LINE
  5
13514A
  8
OBJECT
 10
4169.9999999999854
 20
-254.49999999999909
 30
0.0
 11
4182.9999999999854
 21
-254.49999999999909
 31
0.0
1001
ACDBBLOCKREPETAG
1070
     1
1071
       96
1005
13514A
  0
LINE
  5
13514B
  8
OBJECT
 10
4182.9999999999854
 20
-254.49999999999909
 30
0.0
 11
4182.9999999999854
 21
-145.49999999999909
 31
0.0
1001
ACDBBLOCKREPETAG
1070
     1
1071
       97
1005
13514B
  0
LINE
  5
13514C
  8
OBJECT
 10
4186.9999999999864
 20
-140.99999999999909
 30
0.0
 11
4182.9999999999854
 21
-145.49999999999909
 31
0.0
1001
ACDBBLOCKREPETAG
1070
     1
1071
       98
1005
13514C
  0
LINE
  5
13514D
  8
OBJECT
 10
4186.9999999999864
 20
-258.99999999999909
 30
0.0
 11
4182.9999999999854
 21
-254.49999999999909
 31
0.0
1001
ACDBBLOCKREPETAG
1070
     1
1071
       99
1005
13514D
  0
LINE
  5
13514E
  8
OBJECT
 10
4103.0
 20
-137.99999999999909
 30
0.0
 11
4100.0
 21
-137.99999999999909
 31
0.0
1001
ACDBBLOCKREPETAG
1070
     1
1071
      100
1005
13514E
  0
ARC
  5
13514F
  8
OBJECT
 10
4103.0
 20
-140.99999999999909
 30
0.0
 40
3.0
 50
0.0
 51
90.0
1001
ACDBBLOCKREPETAG
1070
     1
1071
      101
1005
13514F
  0
LINE
  5
135150
  8
OBJECT
 10
4100.0
 20
-261.99999999999909
 30
0.0
 11
4103.0
 21
-261.99999999999909
 31
0.0
1001
ACDBBLOCKREPETAG
1070
     1
1071
      102
1005
135150
  0
ARC
  5
135151
  8
OBJECT
 10
4103.0
 20
-258.99999999999909
 30
0.0
 40
3.0
 50
270.0
 51
0.0
1001
ACDBBLOCKREPETAG
1070
     1
1071
      103
1005
135151
  0
LINE
  5
135152
  8
OBJECT
 10
4106.0
 20
-258.99999999999909
 30
0.0
 11
4106.0
 21
-210.3227903203578
 31
0.0
1001
ACDBBLOCKREPETAG
1070
     1
1071
      104
1005
135152
  0
LINE
  5
135153
  8
OBJECT
 10
4106.0
 20
-189.6772096796403
 30
0.0
 11
4106.0
 21
-140.99999999999909
 31
0.0
1001
ACDBBLOCKREPETAG
1070
     1
1071
      105
1005
135153
  0
LINE
  5
135154
  8
HIDDEN
 10
4177.9999999999854
 20
-155.49999999999909
 30
0.0
 11
4177.9999999999854
 21
-244.49999999999909
 31
0.0
1001
ACDBBLOCKREPETAG
1070
     1
1071
      106
1005
135154
  0
LINE
  5
135155
  8
OBJECT
 10
4169.9999749641865
 20
-254.4999509238105
 30
0.0
 11
4169.9999749641865
 21
-145.4999509238105
 31
0.0
1001
ACDBBLOCKREPETAG
1070
     1
1071
      108
1005
135155
  0
ARC
  5
135156
  8
OBJECT
 10
4149.8000000000229
 20
-199.99999999999909
 30
0.0
 40
45.000000000000547
 50
90.0
 51
270.0
1001
ACDBBLOCKREPETAG
1070
     1
1071
      109
1005
135156
  0
TEXT
  5
135157
  8
SLIM
 10
5824.6000000000004
 20
-1589.0000000000009
 30
0.0
 40
28.0
  1
※ 対応スラブ厚　180～405
 41
0.75
  0
TEXT
  5
135158
  8
SLIM
 10
5598.8999999999996
 20
-1682.3333333333339
 30
0.0
 40
28.0
  1
国土交通大臣認定・（一財）日本消防設備安全センター性能評定取得品
 41
0.75
  0
TEXT
  5
135159
  8
SLIM
 10
5631.1000000000004
 20
-1729.0
 30
0.0
 40
28.0
  1
注）ご採用にあたり、認定書及び評定書の内容をご確認ください。
 41
0.75
  0
LINE
  5
13515A
  8
SLIM
 10
7897.5000000000928
 20
-766.05282860997045
 30
0.0
 11
7913.5528286100662
 21
-749.99999999999773
 31
0.0
1001
ACAD
1010
0.0
1020
0.0
1030
0.0
  0
LINE
  5
13515B
  8
SLIM
 10
7897.5000000000928
 20
-784.01334085210874
 30
0.0
 11
7931.5133408522042
 21
-749.99999999999773
 31
0.0
1001
ACAD
1010
0.0
1020
0.0
1030
0.0
  0
LINE
  5
13515C
  8
SLIM
 10
7897.5000000000928
 20
-801.97385309424703
 30
0.0
 11
7949.4738530943423
 21
-749.99999999999773
 31
0.0
1001
ACAD
1010
0.0
1020
0.0
1030
0.0
  0
LINE
  5
13515D
  8
SLIM
 10
7897.5000000000928
 20
-819.93436533638555
 30
0.0
 11
7967.4343653364804
 21
-749.99999999999773
 31
0.0
1001
ACAD
1010
0.0
1020
0.0
1030
0.0
  0
LINE
  5
13515E
  8
SLIM
 10
7897.5000000000928
 20
-837.89487757852385
 30
0.0
 11
7985.3948775786184
 21
-749.99999999999773
 31
0.0
1001
ACAD
1010
0.0
1020
0.0
1030
0.0
  0
LINE
  5
13515F
  8
SLIM
 10
7897.5000000000928
 20
-855.85538982066203
 30
0.0
 11
8003.3553898207574
 21
-749.99999999999773
 31
0.0
1001
ACAD
1010
0.0
1020
0.0
1030
0.0
  0
LINE
  5
135160
  8
SLIM
 10
7897.5000000000928
 20
-873.81590206280032
 30
0.0
 11
8021.3159020628946
 21
-749.99999999999773
 31
0.0
1001
ACAD
1010
0.0
1020
0.0
1030
0.0
  0
LINE
  5
135161
  8
SLIM
 10
7897.5000000000928
 20
-891.7764143049385
 30
0.0
 11
8039.2764143050317
 21
-749.99999999999773
 31
0.0
1001
ACAD
1010
0.0
1020
0.0
1030
0.0
  0
LINE
  5
135162
  8
SLIM
 10
7897.5000000000928
 20
-909.73692654707668
 30
0.0
 11
8057.2369265471707
 21
-749.99999999999773
 31
0.0
1001
ACAD
1010
0.0
1020
0.0
1030
0.0
  0
LINE
  5
135163
  8
SLIM
 10
7897.5000000000928
 20
-927.69743878921508
 30
0.0
 11
8075.1974387893106
 21
-749.99999999999773
 31
0.0
1001
ACAD
1010
0.0
1020
0.0
1030
0.0
  0
LINE
  5
135164
  8
SLIM
 10
7897.5000000000928
 20
-945.6579510313536
 30
0.0
 11
8093.1579510314468
 21
-749.99999999999773
 31
0.0
1001
ACAD
1010
0.0
1020
0.0
1030
0.0
  0
LINE
  5
135165
  8
SLIM
 10
7897.5000000000928
 20
-963.61846327349156
 30
0.0
 11
8102.4999999999063
 21
-758.61846327367755
 31
0.0
1001
ACAD
1010
0.0
1020
0.0
1030
0.0
  0
LINE
  5
135166
  8
SLIM
 10
7897.5000000000928
 20
-981.57897551563019
 30
0.0
 11
8102.4999999999063
 21
-776.57897551581561
 31
0.0
1001
ACAD
1010
0.0
1020
0.0
1030
0.0
  0
LINE
  5
135167
  8
SLIM
 10
7898.5898389662798
 20
-998.44964879158101
 30
0.0
 11
8102.4999999999063
 21
-794.53948775795391
 31
0.0
1001
ACAD
1010
0.0
1020
0.0
1030
0.0
  0
LINE
  5
135168
  8
SLIM
 10
7900.8041486947632
 20
-1014.1958513052371
 30
0.0
 11
8102.4999999999063
 21
-812.50000000009231
 31
0.0
1001
ACAD
1010
0.0
1020
0.0
1030
0.0
  0
LINE
  5
135169
  8
SLIM
 10
7903.0184584232438
 20
-1029.942053818892
 30
0.0
 11
8102.4999999999063
 21
-830.46051224223049
 31
0.0
1001
ACAD
1010
0.0
1020
0.0
1030
0.0
  0
LINE
  5
13516A
  8
SLIM
 10
7905.2327681517281
 20
-1045.688256332548
 30
0.0
 11
8102.4999999999063
 21
-848.4210244843689
 31
0.0
1001
ACAD
1010
0.0
1020
0.0
1030
0.0
  0
LINE
  5
13516B
  8
SLIM
 10
7907.4470778802124
 20
-1061.4344588462029
 30
0.0
 11
8102.4999999999063
 21
-866.38153672650731
 31
0.0
1001
ACAD
1010
0.0
1020
0.0
1030
0.0
  0
LINE
  5
13516C
  8
SLIM
 10
7909.6613876086958
 20
-1077.180661359858
 30
0.0
 11
8102.4999999999063
 21
-884.3420489686456
 31
0.0
1001
ACAD
1010
0.0
1020
0.0
1030
0.0
  0
LINE
  5
13516D
  8
SLIM
 10
7911.8756973371737
 20
-1092.9268638735141
 30
0.0
 11
8102.4999999999063
 21
-902.30256121078355
 31
0.0
1001
ACAD
1010
0.0
1020
0.0
1030
0.0
  0
LINE
  5
13516E
  8
SLIM
 10
7914.0900070656589
 20
-1108.6730663871699
 30
0.0
 11
8102.4999999999063
 21
-920.26307345292196
 31
0.0
1001
ACAD
1010
0.0
1020
0.0
1030
0.0
  0
LINE
  5
13516F
  8
SLIM
 10
7916.3043167941414
 20
-1124.419268900825
 30
0.0
 11
8102.4999999999063
 21
-938.22358569506036
 31
0.0
1001
ACAD
1010
0.0
1020
0.0
1030
0.0
  0
LINE
  5
135170
  8
SLIM
 10
7918.5186265226248
 20
-1140.1654714144811
 30
0.0
 11
8102.4999999999063
 21
-956.18409793719877
 31
0.0
1001
ACAD
1010
0.0
1020
0.0
1030
0.0
  0
LINE
  5
135171
  8
SLIM
 10
7920.0
 20
-1156.644610179244
 30
0.0
 11
8102.4999999999063
 21
-974.14461017933684
 31
0.0
1001
ACAD
1010
0.0
1020
0.0
1030
0.0
  0
LINE
  5
135172
  8
SLIM
 10
7929.6051224213852
 20
-1164.999999999998
 30
0.0
 11
8102.2700189725447
 21
-992.33510344883939
 31
0.0
1001
ACAD
1010
0.0
1020
0.0
1030
0.0
  0
LINE
  5
135173
  8
SLIM
 10
7930.0
 20
-1182.565634663521
 30
0.0
 11
7947.5656346635233
 21
-1164.999999999998
 31
0.0
1001
ACAD
1010
0.0
1020
0.0
1030
0.0
  0
LINE
  5
135174
  8
SLIM
 10
7947.5656346635233
 20
-1164.999999999998
 30
0.0
 11
8099.3310260601947
 21
-1013.234608603328
 31
0.0
1001
ACAD
1010
0.0
1020
0.0
1030
0.0
  0
LINE
  5
135175
  8
SLIM
 10
7940.5261469056613
 20
-1189.999999999997
 30
0.0
 11
7965.5261469056613
 21
-1164.999999999998
 31
0.0
1001
ACAD
1010
0.0
1020
0.0
1030
0.0
  0
LINE
  5
135176
  8
SLIM
 10
7965.5261469056613
 20
-1164.999999999998
 30
0.0
 11
8096.392033147843
 21
-1034.1341137578161
 31
0.0
1001
ACAD
1010
0.0
1020
0.0
1030
0.0
  0
LINE
  5
135177
  8
SLIM
 10
7958.4866591477976
 20
-1189.999999999997
 30
0.0
 11
7983.4866591477967
 21
-1164.999999999998
 31
0.0
1001
ACAD
1010
0.0
1020
0.0
1030
0.0
  0
LINE
  5
135178
  8
SLIM
 10
7983.4866591477967
 20
-1164.999999999998
 30
0.0
 11
8093.4530402354931
 21
-1055.0336189123041
 31
0.0
1001
ACAD
1010
0.0
1020
0.0
1030
0.0
  0
LINE
  5
135179
  8
SLIM
 10
7976.4471713899384
 20
-1189.999999999997
 30
0.0
 11
8001.4471713899393
 21
-1164.999999999998
 31
0.0
1001
ACAD
1010
0.0
1020
0.0
1030
0.0
  0
LINE
  5
13517A
  8
SLIM
 10
8001.4471713899393
 20
-1164.999999999998
 30
0.0
 11
8090.5140473231431
 21
-1075.9331240667921
 31
0.0
1001
ACAD
1010
0.0
1020
0.0
1030
0.0
  0
LINE
  5
13517B
  8
SLIM
 10
7994.4076836320764
 20
-1189.999999999997
 30
0.0
 11
8019.4076836320764
 21
-1164.999999999998
 31
0.0
1001
ACAD
1010
0.0
1020
0.0
1030
0.0
  0
LINE
  5
13517C
  8
SLIM
 10
8019.4076836320764
 20
-1164.999999999998
 30
0.0
 11
8087.5750544107932
 21
-1096.8326292212801
 31
0.0
1001
ACAD
1010
0.0
1020
0.0
1030
0.0
  0
LINE
  5
13517D
  8
SLIM
 10
8012.3681958742154
 20
-1189.999999999997
 30
0.0
 11
8037.3681958742127
 21
-1164.999999999998
 31
0.0
1001
ACAD
1010
0.0
1020
0.0
1030
0.0
  0
LINE
  5
13517E
  8
SLIM
 10
8037.3681958742127
 20
-1164.999999999998
 30
0.0
 11
8084.6360614984433
 21
-1117.732134375769
 31
0.0
1001
ACAD
1010
0.0
1020
0.0
1030
0.0
  0
LINE
  5
13517F
  8
SLIM
 10
8030.3287081163526
 20
-1189.999999999997
 30
0.0
 11
8055.3287081163544
 21
-1164.999999999998
 31
0.0
1001
ACAD
1010
0.0
1020
0.0
1030
0.0
  0
LINE
  5
135180
  8
SLIM
 10
8055.3287081163544
 20
-1164.999999999998
 30
0.0
 11
8081.6970685860933
 21
-1138.631639530257
 31
0.0
1001
ACAD
1010
0.0
1020
0.0
1030
0.0
  0
LINE
  5
135181
  8
SLIM
 10
8048.2892203584888
 20
-1189.999999999997
 30
0.0
 11
8070.0
 21
-1168.289220358489
 31
0.0
1001
ACAD
1010
0.0
1020
0.0
1030
0.0
  0
LINE
  5
135182
  8
SLIM
 10
8073.2892203584888
 20
-1164.999999999998
 30
0.0
 11
8080.0
 21
-1158.289220358489
 31
0.0
1001
ACAD
1010
0.0
1020
0.0
1030
0.0
  0
LINE
  5
135183
  8
SLIM
 10
8066.2497326006278
 20
-1189.999999999997
 30
0.0
 11
8070.0
 21
-1186.2497326006271
 31
0.0
1001
ACAD
1010
0.0
1020
0.0
1030
0.0
  0
LINE
  5
135184
  8
OBJECT
 10
7897.5000000000928
 20
-749.99999999999773
 30
0.0
 11
8102.4999999999063
 21
-749.99999999999773
 31
0.0
  0
LINE
  5
135185
  8
OBJECT
 10
8102.4999999999063
 20
-749.99999999999773
 30
0.0
 11
8102.4999999999063
 21
-990.69968280980572
 31
0.0
  0
LINE
  5
135186
  8
OBJECT
 10
8102.4999999999063
 20
-990.69968280980572
 30
0.0
 11
8080.0
 21
-1150.699682809146
 31
0.0
  0
LINE
  5
135187
  8
OBJECT
 10
8080.0
 20
-1150.699682809146
 30
0.0
 11
8080.0
 21
-1164.999999999998
 31
0.0
  0
LINE
  5
135188
  8
OBJECT
 10
8080.0
 20
-1164.999999999998
 30
0.0
 11
7920.0
 21
-1164.999999999998
 31
0.0
  0
LINE
  5
135189
  8
OBJECT
 10
7920.0
 20
-1164.999999999998
 30
0.0
 11
7920.0
 21
-1150.699682809146
 31
0.0
  0
LINE
  5
13518A
  8
OBJECT
 10
7920.0
 20
-1150.699682809146
 30
0.0
 11
7897.5000000000928
 21
-990.69968280980572
 31
0.0
  0
LINE
  5
13518B
  8
OBJECT
 10
7897.5000000000928
 20
-990.69968280980572
 30
0.0
 11
7897.5000000000928
 21
-749.99999999999773
 31
0.0
  0
LINE
  5
13518C
  8
OBJECT
 10
7930.0
 20
-1164.999999999998
 30
0.0
 11
7930.0
 21
-1189.999999999997
 31
0.0
  0
LINE
  5
13518D
  8
OBJECT
 10
7930.0
 20
-1189.999999999997
 30
0.0
 11
8070.0
 21
-1189.999999999997
 31
0.0
  0
LINE
  5
13518E
  8
OBJECT
 10
8070.0
 20
-1189.999999999997
 30
0.0
 11
8070.0
 21
-1164.999999999998
 31
0.0
  0
LINE
  5
13518F
  8
SLIM
 10
5897.5000000000928
 20
-766.05282860997045
 30
0.0
 11
5913.5528286100653
 21
-749.99999999999773
 31
0.0
1001
ACAD
1010
0.0
1020
0.0
1030
0.0
  0
LINE
  5
135190
  8
SLIM
 10
5897.5000000000928
 20
-784.01334085210874
 30
0.0
 11
5931.5133408522042
 21
-749.99999999999773
 31
0.0
1001
ACAD
1010
0.0
1020
0.0
1030
0.0
  0
LINE
  5
135191
  8
SLIM
 10
5897.5000000000928
 20
-801.97385309424703
 30
0.0
 11
5949.4738530943423
 21
-749.99999999999773
 31
0.0
1001
ACAD
1010
0.0
1020
0.0
1030
0.0
  0
LINE
  5
135192
  8
SLIM
 10
5897.5000000000928
 20
-819.93436533638555
 30
0.0
 11
5967.4343653364804
 21
-749.99999999999773
 31
0.0
1001
ACAD
1010
0.0
1020
0.0
1030
0.0
  0
LINE
  5
135193
  8
SLIM
 10
5897.5000000000928
 20
-837.89487757852385
 30
0.0
 11
5985.3948775786184
 21
-749.99999999999773
 31
0.0
1001
ACAD
1010
0.0
1020
0.0
1030
0.0
  0
LINE
  5
135194
  8
SLIM
 10
5897.5000000000928
 20
-855.85538982066203
 30
0.0
 11
6003.3553898207574
 21
-749.99999999999773
 31
0.0
1001
ACAD
1010
0.0
1020
0.0
1030
0.0
  0
LINE
  5
135195
  8
SLIM
 10
5897.5000000000928
 20
-873.81590206280032
 30
0.0
 11
6021.3159020628946
 21
-749.99999999999773
 31
0.0
1001
ACAD
1010
0.0
1020
0.0
1030
0.0
  0
LINE
  5
135196
  8
SLIM
 10
5897.5000000000928
 20
-891.7764143049385
 30
0.0
 11
6039.2764143050326
 21
-749.99999999999773
 31
0.0
1001
ACAD
1010
0.0
1020
0.0
1030
0.0
  0
LINE
  5
135197
  8
SLIM
 10
5897.5000000000928
 20
-909.73692654707668
 30
0.0
 11
6057.2369265471707
 21
-749.99999999999773
 31
0.0
1001
ACAD
1010
0.0
1020
0.0
1030
0.0
  0
LINE
  5
135198
  8
SLIM
 10
5897.5000000000928
 20
-927.69743878921508
 30
0.0
 11
6075.1974387893097
 21
-749.99999999999773
 31
0.0
1001
ACAD
1010
0.0
1020
0.0
1030
0.0
  0
LINE
  5
135199
  8
SLIM
 10
5897.5000000000928
 20
-945.6579510313536
 30
0.0
 11
6093.1579510314468
 21
-749.99999999999773
 31
0.0
1001
ACAD
1010
0.0
1020
0.0
1030
0.0
  0
LINE
  5
13519A
  8
SLIM
 10
5897.5000000000928
 20
-963.61846327349156
 30
0.0
 11
6102.4999999999072
 21
-758.61846327367755
 31
0.0
1001
ACAD
1010
0.0
1020
0.0
1030
0.0
  0
LINE
  5
13519B
  8
SLIM
 10
5897.5000000000928
 20
-981.57897551563019
 30
0.0
 11
6102.4999999999072
 21
-776.57897551581561
 31
0.0
1001
ACAD
1010
0.0
1020
0.0
1030
0.0
  0
LINE
  5
13519C
  8
SLIM
 10
5898.5898389662798
 20
-998.44964879158101
 30
0.0
 11
6102.4999999999072
 21
-794.53948775795391
 31
0.0
1001
ACAD
1010
0.0
1020
0.0
1030
0.0
  0
LINE
  5
13519D
  8
SLIM
 10
5900.8041486947632
 20
-1014.1958513052371
 30
0.0
 11
6102.4999999999072
 21
-812.50000000009231
 31
0.0
1001
ACAD
1010
0.0
1020
0.0
1030
0.0
  0
LINE
  5
13519E
  8
SLIM
 10
5903.0184584232456
 20
-1029.942053818892
 30
0.0
 11
6102.4999999999072
 21
-830.46051224223049
 31
0.0
1001
ACAD
1010
0.0
1020
0.0
1030
0.0
  0
LINE
  5
13519F
  8
SLIM
 10
5905.2327681517281
 20
-1045.688256332548
 30
0.0
 11
6102.4999999999072
 21
-848.4210244843689
 31
0.0
1001
ACAD
1010
0.0
1020
0.0
1030
0.0
  0
LINE
  5
1351A0
  8
SLIM
 10
5907.4470778802097
 20
-1061.4344588462029
 30
0.0
 11
6102.4999999999072
 21
-866.38153672650731
 31
0.0
1001
ACAD
1010
0.0
1020
0.0
1030
0.0
  0
LINE
  5
1351A1
  8
SLIM
 10
5909.661387608694
 20
-1077.180661359858
 30
0.0
 11
6102.4999999999072
 21
-884.3420489686456
 31
0.0
1001
ACAD
1010
0.0
1020
0.0
1030
0.0
  0
LINE
  5
1351A2
  8
SLIM
 10
5911.8756973371756
 20
-1092.9268638735141
 30
0.0
 11
6102.4999999999072
 21
-902.30256121078355
 31
0.0
1001
ACAD
1010
0.0
1020
0.0
1030
0.0
  0
LINE
  5
1351A3
  8
SLIM
 10
5914.0900070656589
 20
-1108.6730663871699
 30
0.0
 11
6102.4999999999072
 21
-920.26307345292196
 31
0.0
1001
ACAD
1010
0.0
1020
0.0
1030
0.0
  0
LINE
  5
1351A4
  8
SLIM
 10
5916.3043167941432
 20
-1124.419268900825
 30
0.0
 11
6102.4999999999072
 21
-938.22358569506036
 31
0.0
1001
ACAD
1010
0.0
1020
0.0
1030
0.0
  0
LINE
  5
1351A5
  8
SLIM
 10
5918.5186265226248
 20
-1140.1654714144811
 30
0.0
 11
6102.4999999999072
 21
-956.18409793719877
 31
0.0
1001
ACAD
1010
0.0
1020
0.0
1030
0.0
  0
LINE
  5
1351A6
  8
SLIM
 10
5920.0
 20
-1156.644610179244
 30
0.0
 11
6102.4999999999072
 21
-974.14461017933684
 31
0.0
1001
ACAD
1010
0.0
1020
0.0
1030
0.0
  0
LINE
  5
1351A7
  8
SLIM
 10
5929.6051224213852
 20
-1164.999999999998
 30
0.0
 11
6102.2700189725429
 21
-992.33510344883939
 31
0.0
1001
ACAD
1010
0.0
1020
0.0
1030
0.0
  0
LINE
  5
1351A8
  8
SLIM
 10
5930.0
 20
-1182.565634663521
 30
0.0
 11
5947.5656346635233
 21
-1164.999999999998
 31
0.0
1001
ACAD
1010
0.0
1020
0.0
1030
0.0
  0
LINE
  5
1351A9
  8
SLIM
 10
5947.5656346635233
 20
-1164.999999999998
 30
0.0
 11
6099.3310260601929
 21
-1013.234608603328
 31
0.0
1001
ACAD
1010
0.0
1020
0.0
1030
0.0
  0
LINE
  5
1351AA
  8
SLIM
 10
5940.5261469056613
 20
-1189.999999999997
 30
0.0
 11
5965.5261469056604
 21
-1164.999999999998
 31
0.0
1001
ACAD
1010
0.0
1020
0.0
1030
0.0
  0
LINE
  5
1351AB
  8
SLIM
 10
5965.5261469056604
 20
-1164.999999999998
 30
0.0
 11
6096.392033147843
 21
-1034.1341137578161
 31
0.0
1001
ACAD
1010
0.0
1020
0.0
1030
0.0
  0
LINE
  5
1351AC
  8
SLIM
 10
5958.4866591478003
 20
-1189.999999999997
 30
0.0
 11
5983.4866591478003
 21
-1164.999999999998
 31
0.0
1001
ACAD
1010
0.0
1020
0.0
1030
0.0
  0
LINE
  5
1351AD
  8
SLIM
 10
5983.4866591478003
 20
-1164.999999999998
 30
0.0
 11
6093.4530402354931
 21
-1055.0336189123041
 31
0.0
1001
ACAD
1010
0.0
1020
0.0
1030
0.0
  0
LINE
  5
1351AE
  8
SLIM
 10
5976.4471713899384
 20
-1189.999999999997
 30
0.0
 11
6001.4471713899366
 21
-1164.999999999998
 31
0.0
1001
ACAD
1010
0.0
1020
0.0
1030
0.0
  0
LINE
  5
1351AF
  8
SLIM
 10
6001.4471713899366
 20
-1164.999999999998
 30
0.0
 11
6090.5140473231431
 21
-1075.9331240667921
 31
0.0
1001
ACAD
1010
0.0
1020
0.0
1030
0.0
  0
LINE
  5
1351B0
  8
SLIM
 10
5994.4076836320764
 20
-1189.999999999997
 30
0.0
 11
6019.4076836320774
 21
-1164.999999999998
 31
0.0
1001
ACAD
1010
0.0
1020
0.0
1030
0.0
  0
LINE
  5
1351B1
  8
SLIM
 10
6019.4076836320774
 20
-1164.999999999998
 30
0.0
 11
6087.5750544107932
 21
-1096.8326292212801
 31
0.0
1001
ACAD
1010
0.0
1020
0.0
1030
0.0
  0
LINE
  5
1351B2
  8
SLIM
 10
6012.3681958742163
 20
-1189.999999999997
 30
0.0
 11
6037.3681958742172
 21
-1164.999999999998
 31
0.0
1001
ACAD
1010
0.0
1020
0.0
1030
0.0
  0
LINE
  5
1351B3
  8
SLIM
 10
6037.3681958742172
 20
-1164.999999999998
 30
0.0
 11
6084.6360614984433
 21
-1117.732134375769
 31
0.0
1001
ACAD
1010
0.0
1020
0.0
1030
0.0
  0
LINE
  5
1351B4
  8
SLIM
 10
6030.3287081163526
 20
-1189.999999999997
 30
0.0
 11
6055.3287081163517
 21
-1164.999999999998
 31
0.0
1001
ACAD
1010
0.0
1020
0.0
1030
0.0
  0
LINE
  5
1351B5
  8
SLIM
 10
6055.3287081163517
 20
-1164.999999999998
 30
0.0
 11
6081.6970685860952
 21
-1138.631639530257
 31
0.0
1001
ACAD
1010
0.0
1020
0.0
1030
0.0
  0
LINE
  5
1351B6
  8
SLIM
 10
6048.2892203584897
 20
-1189.999999999997
 30
0.0
 11
6070.0
 21
-1168.289220358489
 31
0.0
1001
ACAD
1010
0.0
1020
0.0
1030
0.0
  0
LINE
  5
1351B7
  8
SLIM
 10
6073.2892203584934
 20
-1164.999999999998
 30
0.0
 11
6080.0
 21
-1158.289220358489
 31
0.0
1001
ACAD
1010
0.0
1020
0.0
1030
0.0
  0
LINE
  5
1351B8
  8
SLIM
 10
6066.2497326006287
 20
-1189.999999999997
 30
0.0
 11
6070.0
 21
-1186.2497326006271
 31
0.0
1001
ACAD
1010
0.0
1020
0.0
1030
0.0
  0
LINE
  5
1351B9
  8
OBJECT
 10
5897.5000000000928
 20
-749.99999999999773
 30
0.0
 11
6102.4999999999072
 21
-749.99999999999773
 31
0.0
  0
LINE
  5
1351BA
  8
OBJECT
 10
6102.4999999999072
 20
-749.99999999999773
 30
0.0
 11
6102.4999999999072
 21
-990.69968280980572
 31
0.0
  0
LINE
  5
1351BB
  8
OBJECT
 10
6102.4999999999072
 20
-990.69968280980572
 30
0.0
 11
6080.0
 21
-1150.699682809146
 31
0.0
  0
LINE
  5
1351BC
  8
OBJECT
 10
6080.0
 20
-1150.699682809146
 30
0.0
 11
6080.0
 21
-1164.999999999998
 31
0.0
  0
LINE
  5
1351BD
  8
OBJECT
 10
6080.0
 20
-1164.999999999998
 30
0.0
 11
5920.0
 21
-1164.999999999998
 31
0.0
  0
LINE
  5
1351BE
  8
OBJECT
 10
5920.0
 20
-1164.999999999998
 30
0.0
 11
5920.0
 21
-1150.699682809146
 31
0.0
  0
LINE
  5
1351BF
  8
OBJECT
 10
5920.0
 20
-1150.699682809146
 30
0.0
 11
5897.5000000000928
 21
-990.69968280980572
 31
0.0
  0
LINE
  5
1351C0
  8
OBJECT
 10
5897.5000000000928
 20
-990.69968280980572
 30
0.0
 11
5897.5000000000928
 21
-749.99999999999773
 31
0.0
  0
LINE
  5
1351C1
  8
OBJECT
 10
5930.0
 20
-1164.999999999998
 30
0.0
 11
5930.0
 21
-1189.999999999997
 31
0.0
  0
LINE
  5
1351C2
  8
OBJECT
 10
5930.0
 20
-1189.999999999997
 30
0.0
 11
6070.0
 21
-1189.999999999997
 31
0.0
  0
LINE
  5
1351C3
  8
OBJECT
 10
6070.0
 20
-1189.999999999997
 30
0.0
 11
6070.0
 21
-1164.999999999998
 31
0.0
  0
LINE
  5
1351C4
  8
CENTER
 10
8000.0
 20
-1643.9999999999991
 30
0.0
 11
8000.0
 21
-1417.9999999999991
 31
0.0
1001
ACDBBLOCKREPETAG
1070
     1
1071
        0
1005
1351C4
  0
LINE
  5
1351C5
  8
CENTER
 10
7894.7678858541567
 20
-1538.9999999999991
 30
0.0
 11
8105.2321141458424
 21
-1538.9999999999991
 31
0.0
1001
ACDBBLOCKREPETAG
1070
     1
1071
        1
1005
1351C5
  0
CIRCLE
  5
1351C6
  8
OBJECT
 10
8000.0
 20
-1538.9999999999991
 30
0.0
 40
62.5
1001
ACDBBLOCKREPETAG
1070
     1
1071
        2
1005
1351C6
  0
CIRCLE
  5
1351C7
  8
OBJECT
 10
8000.0
 20
-1538.9999999999991
 30
0.0
 40
75.0
1001
ACDBBLOCKREPETAG
1070
     1
1071
        3
1005
1351C7
  0
ARC
  5
1351C8
  8
OBJECT
 10
8000.0
 20
-1538.9999999999991
 30
0.0
 40
90.0
 50
124.11056017877129
 51
175.8894398211431
1001
ACDBBLOCKREPETAG
1070
     1
1071
        4
1005
1351C8
  0
ARC
  5
1351C9
  8
OBJECT
 10
8000.0
 20
-1538.9999999999991
 30
0.0
 40
90.0
 50
244.1105601790079
 51
295.88943982099198
1001
ACDBBLOCKREPETAG
1070
     1
1071
        5
1005
1351C9
  0
ARC
  5
1351CA
  8
OBJECT
 10
8000.0
 20
-1538.9999999999991
 30
0.0
 40
90.0
 50
4.1105601788568462
 51
55.889439821228699
1001
ACDBBLOCKREPETAG
1070
     1
1071
        6
1005
1351CA
  0
CIRCLE
  5
1351CB
  8
SLIM
 10
8000.0
 20
-1445.9999999999991
 30
0.0
 40
6.0
1001
ACDBBLOCKREPETAG
1070
     1
1071
        7
1005
1351CB
  0
ARC
  5
1351CC
  8
OBJECT
 10
8000.0
 20
-1445.9999999999991
 30
0.0
 40
13.0
 50
55.889439821228699
 51
124.11056017877129
1001
ACDBBLOCKREPETAG
1070
     1
1071
        8
1005
1351CC
  0
LINE
  5
1351CD
  8
OBJECT
 10
7949.5287555726281
 20
-1464.483870967742
 30
0.0
 11
7992.7097091382657
 21
-1435.2365591397861
 31
0.0
1001
ACDBBLOCKREPETAG
1070
     1
1071
        9
1005
1351CD
  0
LINE
  5
1351CE
  8
OBJECT
 10
8050.4712444273764
 20
-1464.483870967742
 30
0.0
 11
8007.2902908617298
 21
-1435.2365591397861
 31
0.0
1001
ACDBBLOCKREPETAG
1070
     1
1071
       10
1005
1351CE
  0
POLYLINE
  5
1351CF
  8
SLIM
 66
     1
 10
0.0
 20
0.0
 30
0.0
 70
     1
1001
ACDBBLOCKREPETAG
1070
     1
1071
       11
1005
1351CF
  0
VERTEX
  5
135471
  8
SLIM
 10
7990.5
 20
-1451.484827557302
 30
0.0
  0
VERTEX
  5
135472
  8
SLIM
 10
8000.0
 20
-1456.9696551146039
 30
0.0
  0
VERTEX
  5
135473
  8
SLIM
 10
8009.5
 20
-1451.484827557302
 30
0.0
  0
VERTEX
  5
135474
  8
SLIM
 10
8009.5
 20
-1440.5151724426969
 30
0.0
  0
VERTEX
  5
135475
  8
SLIM
 10
8000.0
 20
-1435.0303448853949
 30
0.0
  0
VERTEX
  5
135476
  8
SLIM
 10
7990.5
 20
-1440.5151724426969
 30
0.0
  0
SEQEND
  5
135477
  8
SLIM
  0
CIRCLE
  5
1351D0
  8
SLIM
 10
7919.4596374480507
 20
-1585.4999999999991
 30
0.0
 40
5.9999999999999991
1001
ACDBBLOCKREPETAG
1070
     1
1071
       12
1005
1351D0
  0
ARC
  5
1351D1
  8
OBJECT
 10
7919.4596374480507
 20
-1585.4999999999991
 30
0.0
 40
13.0
 50
175.8894398211431
 51
244.1105601790079
1001
ACDBBLOCKREPETAG
1070
     1
1071
       13
1005
1351D1
  0
LINE
  5
1351D2
  8
OBJECT
 10
7960.7027614800709
 20
-1619.9674443508479
 30
0.0
 11
7913.7833696618336
 21
-1597.195297517344
 31
0.0
1001
ACDBBLOCKREPETAG
1070
     1
1071
       14
1005
1351D2
  0
LINE
  5
1351D3
  8
OBJECT
 10
7910.2315170527017
 20
-1532.5486846814081
 30
0.0
 11
7906.4930788001029
 21
-1584.5681433428681
 31
0.0
1001
ACDBBLOCKREPETAG
1070
     1
1071
       15
1005
1351D3
  0
POLYLINE
  5
1351D4
  8
SLIM
 66
     1
 10
0.0
 20
0.0
 30
0.0
 70
     1
1001
ACDBBLOCKREPETAG
1070
     1
1071
       16
1005
1351D4
  0
VERTEX
  5
135478
  8
SLIM
 10
7928.9596374480507
 20
-1590.9848275573011
 30
0.0
  0
VERTEX
  5
135479
  8
SLIM
 10
7928.9596374480507
 20
-1580.0151724426969
 30
0.0
  0
VERTEX
  5
13547A
  8
SLIM
 10
7919.4596374480507
 20
-1574.5303448853949
 30
0.0
  0
VERTEX
  5
13547B
  8
SLIM
 10
7909.9596374480461
 20
-1580.0151724426969
 30
0.0
  0
VERTEX
  5
13547C
  8
SLIM
 10
7909.9596374480461
 20
-1590.9848275573011
 30
0.0
  0
VERTEX
  5
13547D
  8
SLIM
 10
7919.459637448047
 20
-1596.4696551146039
 30
0.0
  0
SEQEND
  5
13547E
  8
SLIM
  0
CIRCLE
  5
1351D5
  8
SLIM
 10
8080.5403625519548
 20
-1585.4999999999991
 30
0.0
 40
6.0
1001
ACDBBLOCKREPETAG
1070
     1
1071
       17
1005
1351D5
  0
ARC
  5
1351D6
  8
OBJECT
 10
8080.5403625519548
 20
-1585.4999999999991
 30
0.0
 40
13.0
 50
295.88943982099198
 51
4.1105601788568462
1001
ACDBBLOCKREPETAG
1070
     1
1071
       18
1005
1351D6
  0
LINE
  5
1351D7
  8
OBJECT
 10
8089.7684829473019
 20
-1532.5486846814081
 30
0.0
 11
8093.5069211998962
 21
-1584.5681433428681
 31
0.0
1001
ACDBBLOCKREPETAG
1070
     1
1071
       19
1005
1351D7
  0
LINE
  5
1351D8
  8
OBJECT
 10
8039.2972385199282
 20
-1619.9674443508479
 30
0.0
 11
8086.2166303381618
 21
-1597.195297517344
 31
0.0
1001
ACDBBLOCKREPETAG
1070
     1
1071
       20
1005
1351D8
  0
POLYLINE
  5
1351D9
  8
SLIM
 66
     1
 10
0.0
 20
0.0
 30
0.0
 70
     1
1001
ACDBBLOCKREPETAG
1070
     1
1071
       21
1005
1351D9
  0
VERTEX
  5
13547F
  8
SLIM
 10
8080.5403625519548
 20
-1574.5303448853949
 30
0.0
  0
VERTEX
  5
135480
  8
SLIM
 10
8071.0403625519557
 20
-1580.0151724426969
 30
0.0
  0
VERTEX
  5
135481
  8
SLIM
 10
8071.0403625519557
 20
-1590.9848275573011
 30
0.0
  0
VERTEX
  5
135482
  8
SLIM
 10
8080.5403625519548
 20
-1596.4696551146039
 30
0.0
  0
VERTEX
  5
135483
  8
SLIM
 10
8090.0403625519557
 20
-1590.9848275573011
 30
0.0
  0
VERTEX
  5
135484
  8
SLIM
 10
8090.0403625519557
 20
-1580.0151724426969
 30
0.0
  0
SEQEND
  5
135485
  8
SLIM
  0
LINE
  5
1351DA
  8
CENTER
 10
4000.0
 20
-1643.9999999999991
 30
0.0
 11
4000.0
 21
-1417.9999999999991
 31
0.0
1001
ACDBBLOCKREPETAG
1070
     1
1071
        0
1005
1351DA
  0
LINE
  5
1351DB
  8
CENTER
 10
3894.7678858541599
 20
-1538.9999999999991
 30
0.0
 11
4105.2321141458406
 21
-1538.9999999999991
 31
0.0
1001
ACDBBLOCKREPETAG
1070
     1
1071
        1
1005
1351DB
  0
CIRCLE
  5
1351DC
  8
OBJECT
 10
4000.0
 20
-1538.9999999999991
 30
0.0
 40
62.5
1001
ACDBBLOCKREPETAG
1070
     1
1071
        2
1005
1351DC
  0
CIRCLE
  5
1351DD
  8
OBJECT
 10
4000.0
 20
-1538.9999999999991
 30
0.0
 40
75.0
1001
ACDBBLOCKREPETAG
1070
     1
1071
        3
1005
1351DD
  0
ARC
  5
1351DE
  8
OBJECT
 10
4000.0
 20
-1538.9999999999991
 30
0.0
 40
90.0
 50
124.11056017877129
 51
175.8894398211431
1001
ACDBBLOCKREPETAG
1070
     1
1071
        4
1005
1351DE
  0
ARC
  5
1351DF
  8
OBJECT
 10
4000.0
 20
-1538.9999999999991
 30
0.0
 40
90.0
 50
244.11056017898451
 51
295.88943982101551
1001
ACDBBLOCKREPETAG
1070
     1
1071
        5
1005
1351DF
  0
ARC
  5
1351E0
  8
OBJECT
 10
4000.0
 20
-1538.9999999999991
 30
0.0
 40
90.0
 50
4.1105601788568462
 51
55.889439821228699
1001
ACDBBLOCKREPETAG
1070
     1
1071
        6
1005
1351E0
  0
CIRCLE
  5
1351E1
  8
SLIM
 10
4000.0
 20
-1445.9999999999991
 30
0.0
 40
6.0
1001
ACDBBLOCKREPETAG
1070
     1
1071
        7
1005
1351E1
  0
ARC
  5
1351E2
  8
OBJECT
 10
4000.0
 20
-1445.9999999999991
 30
0.0
 40
13.0
 50
55.889439821228699
 51
124.11056017877129
1001
ACDBBLOCKREPETAG
1070
     1
1071
        8
1005
1351E2
  0
LINE
  5
1351E3
  8
OBJECT
 10
3949.5287555726291
 20
-1464.483870967742
 30
0.0
 11
3992.709709138268
 21
-1435.2365591397861
 31
0.0
1001
ACDBBLOCKREPETAG
1070
     1
1071
        9
1005
1351E3
  0
LINE
  5
1351E4
  8
OBJECT
 10
4050.471244427376
 20
-1464.483870967742
 30
0.0
 11
4007.290290861732
 21
-1435.2365591397861
 31
0.0
1001
ACDBBLOCKREPETAG
1070
     1
1071
       10
1005
1351E4
  0
POLYLINE
  5
1351E5
  8
SLIM
 66
     1
 10
0.0
 20
0.0
 30
0.0
 70
     1
1001
ACDBBLOCKREPETAG
1070
     1
1071
       11
1005
1351E5
  0
VERTEX
  5
135486
  8
SLIM
 10
3990.5
 20
-1451.484827557302
 30
0.0
  0
VERTEX
  5
135487
  8
SLIM
 10
4000.0
 20
-1456.9696551146039
 30
0.0
  0
VERTEX
  5
135488
  8
SLIM
 10
4009.5
 20
-1451.484827557302
 30
0.0
  0
VERTEX
  5
135489
  8
SLIM
 10
4009.5
 20
-1440.5151724426969
 30
0.0
  0
VERTEX
  5
13548A
  8
SLIM
 10
4000.0
 20
-1435.0303448853949
 30
0.0
  0
VERTEX
  5
13548B
  8
SLIM
 10
3990.5
 20
-1440.5151724426969
 30
0.0
  0
SEQEND
  5
13548C
  8
SLIM
  0
CIRCLE
  5
1351E6
  8
SLIM
 10
3919.4596374480502
 20
-1585.4999999999991
 30
0.0
 40
5.9999999999999991
1001
ACDBBLOCKREPETAG
1070
     1
1071
       12
1005
1351E6
  0
ARC
  5
1351E7
  8
OBJECT
 10
3919.4596374480502
 20
-1585.4999999999991
 30
0.0
 40
13.0
 50
175.8894398211431
 51
244.11056017898451
1001
ACDBBLOCKREPETAG
1070
     1
1071
       13
1005
1351E7
  0
LINE
  5
1351E8
  8
OBJECT
 10
3960.7027614800718
 20
-1619.9674443508479
 30
0.0
 11
3913.7833696618368
 21
-1597.195297517344
 31
0.0
1001
ACDBBLOCKREPETAG
1070
     1
1071
       14
1005
1351E8
  0
LINE
  5
1351E9
  8
OBJECT
 10
3910.2315170527008
 20
-1532.5486846814081
 30
0.0
 11
3906.4930788001038
 21
-1584.5681433428681
 31
0.0
1001
ACDBBLOCKREPETAG
1070
     1
1071
       15
1005
1351E9
  0
POLYLINE
  5
1351EA
  8
SLIM
 66
     1
 10
0.0
 20
0.0
 30
0.0
 70
     1
1001
ACDBBLOCKREPETAG
1070
     1
1071
       16
1005
1351EA
  0
VERTEX
  5
13548D
  8
SLIM
 10
3928.9596374480502
 20
-1590.9848275573011
 30
0.0
  0
VERTEX
  5
13548E
  8
SLIM
 10
3928.9596374480502
 20
-1580.0151724426969
 30
0.0
  0
VERTEX
  5
13548F
  8
SLIM
 10
3919.4596374480502
 20
-1574.5303448853949
 30
0.0
  0
VERTEX
  5
135490
  8
SLIM
 10
3909.9596374480461
 20
-1580.0151724426969
 30
0.0
  0
VERTEX
  5
135491
  8
SLIM
 10
3909.9596374480461
 20
-1590.9848275573011
 30
0.0
  0
VERTEX
  5
135492
  8
SLIM
 10
3919.4596374480461
 20
-1596.4696551146039
 30
0.0
  0
SEQEND
  5
135493
  8
SLIM
  0
CIRCLE
  5
1351EB
  8
SLIM
 10
4080.5403625519521
 20
-1585.4999999999991
 30
0.0
 40
6.0
1001
ACDBBLOCKREPETAG
1070
     1
1071
       17
1005
1351EB
  0
ARC
  5
1351EC
  8
OBJECT
 10
4080.5403625519521
 20
-1585.4999999999991
 30
0.0
 40
13.0
 50
295.88943982101551
 51
4.1105601788568462
1001
ACDBBLOCKREPETAG
1070
     1
1071
       18
1005
1351EC
  0
LINE
  5
1351ED
  8
OBJECT
 10
4089.7684829473019
 20
-1532.5486846814081
 30
0.0
 11
4093.5069211998962
 21
-1584.5681433428681
 31
0.0
1001
ACDBBLOCKREPETAG
1070
     1
1071
       19
1005
1351ED
  0
LINE
  5
1351EE
  8
OBJECT
 10
4039.2972385199269
 20
-1619.9674443508479
 30
0.0
 11
4086.2166303381632
 21
-1597.195297517344
 31
0.0
1001
ACDBBLOCKREPETAG
1070
     1
1071
       20
1005
1351EE
  0
POLYLINE
  5
1351EF
  8
SLIM
 66
     1
 10
0.0
 20
0.0
 30
0.0
 70
     1
1001
ACDBBLOCKREPETAG
1070
     1
1071
       21
1005
1351EF
  0
VERTEX
  5
135494
  8
SLIM
 10
4080.5403625519521
 20
-1574.5303448853949
 30
0.0
  0
VERTEX
  5
135495
  8
SLIM
 10
4071.040362551953
 20
-1580.0151724426969
 30
0.0
  0
VERTEX
  5
135496
  8
SLIM
 10
4071.040362551953
 20
-1590.9848275573011
 30
0.0
  0
VERTEX
  5
135497
  8
SLIM
 10
4080.5403625519521
 20
-1596.4696551146039
 30
0.0
  0
VERTEX
  5
135498
  8
SLIM
 10
4090.040362551953
 20
-1590.9848275573011
 30
0.0
  0
VERTEX
  5
135499
  8
SLIM
 10
4090.040362551953
 20
-1580.0151724426969
 30
0.0
  0
SEQEND
  5
13549A
  8
SLIM
  0
LINE
  5
1351F0
  8
OBJECT
 10
8092.4999999999973
 20
-989.99999999999955
 30
0.0
 11
8092.4999999999973
 21
-914.99999999999955
 31
0.0
1001
ACDBBLOCKREPETAG
1070
     1
1071
       12
1005
1351F0
  0
LINE
  5
1351F1
  8
OBJECT
 10
8093.5403615519499
 20
-1264.9999999999991
 30
0.0
 11
7906.4596374480461
 21
-1264.9999999999991
 31
0.0
1001
ACDBBLOCKREPETAG
1070
     1
1071
       13
1005
1351F1
  0
LINE
  5
1351F2
  8
OBJECT
 10
7906.4596374480498
 20
-1291.5
 30
0.0
 11
8093.5403625519502
 21
-1291.5
 31
0.0
1001
ACDBBLOCKREPETAG
1070
     1
1071
       14
1005
1351F2
  0
LINE
  5
1351F3
  8
OBJECT
 10
8093.5403625519502
 20
-1275.5000000000009
 30
0.0
 11
7906.4596374480498
 21
-1275.5000000000009
 31
0.0
1001
ACDBBLOCKREPETAG
1070
     1
1071
       15
1005
1351F3
  0
LINE
  5
1351F4
  8
OBJECT
 10
8005.9999999999982
 20
-1306.999999999997
 30
0.0
 11
8005.9999999999982
 21
-1301.5
 31
0.0
1001
ACDBBLOCKREPETAG
1070
     1
1071
       16
1005
1351F4
  0
LINE
  5
1351F5
  8
OBJECT
 10
7993.9999999999973
 20
-1306.999999999997
 30
0.0
 11
7993.9999999999973
 21
-1301.5
 31
0.0
1001
ACDBBLOCKREPETAG
1070
     1
1071
       17
1005
1351F5
  0
LINE
  5
1351F6
  8
OBJECT
 10
7993.9999999999973
 20
-1306.999999999997
 30
0.0
 11
8005.9999999999982
 21
-1306.999999999997
 31
0.0
1001
ACDBBLOCKREPETAG
1070
     1
1071
       18
1005
1351F6
  0
LINE
  5
1351F7
  8
OBJECT
 10
7993.9999999999973
 20
-1275.5000000000009
 30
0.0
 11
7993.9999999999973
 21
-1264.9999999999991
 31
0.0
1001
ACDBBLOCKREPETAG
1070
     1
1071
       19
1005
1351F7
  0
LINE
  5
1351F8
  8
OBJECT
 10
8005.9999999999982
 20
-1275.5000000000009
 30
0.0
 11
8005.9999999999982
 21
-1264.9999999999991
 31
0.0
1001
ACDBBLOCKREPETAG
1070
     1
1071
       20
1005
1351F8
  0
LINE
  5
1351F9
  8
OBJECT
 10
8016.4999999999982
 20
-1244.499999999997
 30
0.0
 11
8016.4999999999982
 21
-1246.999999999998
 31
0.0
1001
ACDBBLOCKREPETAG
1070
     1
1071
       21
1005
1351F9
  0
LINE
  5
1351FA
  8
OBJECT
 10
7989.9999999999982
 20
-1241.0
 30
0.0
 11
7989.9999999999982
 21
-1246.999999999998
 31
0.0
1001
ACDBBLOCKREPETAG
1070
     1
1071
       22
1005
1351FA
  0
LINE
  5
1351FB
  8
OBJECT
 10
8008.4999999999973
 20
-1241.0
 30
0.0
 11
7989.9999999999982
 21
-1241.0
 31
0.0
1001
ACDBBLOCKREPETAG
1070
     1
1071
       23
1005
1351FB
  0
LINE
  5
1351FC
  8
OBJECT
 10
8093.5403615519499
 20
-1246.999999999998
 30
0.0
 11
7906.4596374480461
 21
-1246.999999999998
 31
0.0
1001
ACDBBLOCKREPETAG
1070
     1
1071
       24
1005
1351FC
  0
LINE
  5
1351FD
  8
OBJECT
 10
8016.4999999999982
 20
-1244.499999999997
 30
0.0
 11
8008.4999999999973
 21
-1241.0
 31
0.0
1001
ACDBBLOCKREPETAG
1070
     1
1071
       25
1005
1351FD
  0
LINE
  5
1351FE
  8
HIDDEN
 10
7930.0
 20
-1224.9999999999991
 30
0.0
 11
8070.0
 21
-1224.9999999999991
 31
0.0
1001
ACDBBLOCKREPETAG
1070
     1
1071
       26
1005
1351FE
  0
LINE
  5
1351FF
  8
CENTER
 10
8000.0
 20
-914.99999999999955
 30
0.0
 11
8000.0
 21
-1321.999999999998
 31
0.0
1001
ACDBBLOCKREPETAG
1070
     1
1071
       27
1005
1351FF
  0
LINE
  5
135200
  8
OBJECT
 10
7918.5
 20
-1264.9999999999991
 30
0.0
 11
7918.5
 21
-1275.5000000000009
 31
0.0
1001
ACDBBLOCKREPETAG
1070
     1
1071
       28
1005
135200
  0
LINE
  5
135201
  8
OBJECT
 10
8081.5
 20
-1264.9999999999991
 30
0.0
 11
8081.5
 21
-1275.5000000000009
 31
0.0
1001
ACDBBLOCKREPETAG
1070
     1
1071
       29
1005
135201
  0
LINE
  5
135202
  8
OBJECT
 10
7930.0
 20
-1149.9999999999991
 30
0.0
 11
7930.0
 21
-1213.9999999999991
 31
0.0
1001
ACDBBLOCKREPETAG
1070
     1
1071
       30
1005
135202
  0
LINE
  5
135203
  8
OBJECT
 10
8070.0
 20
-1149.9999999999991
 30
0.0
 11
8070.0
 21
-1213.9999999999991
 31
0.0
1001
ACDBBLOCKREPETAG
1070
     1
1071
       31
1005
135203
  0
LINE
  5
135204
  8
OBJECT
 10
7930.0
 20
-1149.9999999999991
 30
0.0
 11
8070.0
 21
-1149.9999999999991
 31
0.0
1001
ACDBBLOCKREPETAG
1070
     1
1071
       32
1005
135204
  0
LINE
  5
135205
  8
OBJECT
 10
7919.4999999999982
 20
-1213.9999999999991
 30
0.0
 11
8080.5000000000036
 21
-1213.9999999999991
 31
0.0
1001
ACDBBLOCKREPETAG
1070
     1
1071
       33
1005
135205
  0
LINE
  5
135206
  8
OBJECT
 10
7907.5
 20
-989.99999999999955
 30
0.0
 11
7907.5
 21
-914.99999999999955
 31
0.0
1001
ACDBBLOCKREPETAG
1070
     1
1071
       34
1005
135206
  0
LINE
  5
135207
  8
OBJECT
 10
8092.4999999999973
 20
-989.99999999999955
 30
0.0
 11
7907.5
 21
-989.99999999999955
 31
0.0
1001
ACDBBLOCKREPETAG
1070
     1
1071
       35
1005
135207
  0
LINE
  5
135208
  8
OBJECT
 10
7907.5
 20
-989.99999999999955
 30
0.0
 11
7930.0
 21
-1149.9999999999991
 31
0.0
1001
ACDBBLOCKREPETAG
1070
     1
1071
       36
1005
135208
  0
LINE
  5
135209
  8
OBJECT
 10
8070.0
 20
-1149.9999999999991
 30
0.0
 11
8092.4999999999973
 21
-989.99999999999955
 31
0.0
1001
ACDBBLOCKREPETAG
1070
     1
1071
       37
1005
135209
  0
LINE
  5
13520A
  8
OBJECT
 10
8080.5
 20
-1213.9999999999991
 30
0.0
 11
8080.5
 21
-1246.999999999998
 31
0.0
1001
ACDBBLOCKREPETAG
1070
     1
1071
       38
1005
13520A
  0
LINE
  5
13520B
  8
OBJECT
 10
7919.5000000000027
 20
-1213.9999999999991
 30
0.0
 11
7919.5000000000027
 21
-1246.999999999998
 31
0.0
1001
ACDBBLOCKREPETAG
1070
     1
1071
       39
1005
13520B
  0
LINE
  5
13520C
  8
OBJECT
 10
8010.9696549999944
 20
-1291.5
 30
0.0
 11
8010.9696549999944
 21
-1301.5
 31
0.0
1001
ACDBBLOCKREPETAG
1070
     1
1071
       40
1005
13520C
  0
LINE
  5
13520D
  8
OBJECT
 10
8005.4848269999939
 20
-1291.5
 30
0.0
 11
8005.4848269999939
 21
-1301.5
 31
0.0
1001
ACDBBLOCKREPETAG
1070
     1
1071
       41
1005
13520D
  0
LINE
  5
13520E
  8
OBJECT
 10
7994.5151719999976
 20
-1291.5
 30
0.0
 11
7994.5151719999976
 21
-1301.5
 31
0.0
1001
ACDBBLOCKREPETAG
1070
     1
1071
       42
1005
13520E
  0
LINE
  5
13520F
  8
OBJECT
 10
7989.0303449999947
 20
-1291.5
 30
0.0
 11
7989.0303449999947
 21
-1301.5
 31
0.0
1001
ACDBBLOCKREPETAG
1070
     1
1071
       43
1005
13520F
  0
LINE
  5
135210
  8
OBJECT
 10
7989.0303449999947
 20
-1301.5
 30
0.0
 11
8010.9696549999944
 21
-1301.5
 31
0.0
1001
ACDBBLOCKREPETAG
1070
     1
1071
       44
1005
135210
  0
LINE
  5
135211
  8
OBJECT
 10
7906.4596374480461
 20
-1246.999999999998
 30
0.0
 11
7906.4596374480461
 21
-1264.9999999999991
 31
0.0
1001
ACDBBLOCKREPETAG
1070
     1
1071
       45
1005
135211
  0
LINE
  5
135212
  8
OBJECT
 10
7906.4596374480498
 20
-1275.5000000000009
 30
0.0
 11
7906.4596374480498
 21
-1291.5
 31
0.0
1001
ACDBBLOCKREPETAG
1070
     1
1071
       46
1005
135212
  0
LINE
  5
135213
  8
OBJECT
 10
8093.540362551953
 20
-1246.999999999998
 30
0.0
 11
8093.540362551953
 21
-1264.9999999999991
 31
0.0
1001
ACDBBLOCKREPETAG
1070
     1
1071
       47
1005
135213
  0
LINE
  5
135214
  8
OBJECT
 10
8093.5403625519502
 20
-1275.5000000000009
 30
0.0
 11
8093.5403625519502
 21
-1291.5
 31
0.0
1001
ACDBBLOCKREPETAG
1070
     1
1071
       48
1005
135214
  0
LINE
  5
135215
  8
OBJECT
 10
7925.4596374480407
 20
-1306.999999999997
 30
0.0
 11
7925.4596374480407
 21
-1301.5
 31
0.0
1001
ACDBBLOCKREPETAG
1070
     1
1071
       49
1005
135215
  0
LINE
  5
135216
  8
OBJECT
 10
7913.4596374480416
 20
-1306.999999999997
 30
0.0
 11
7913.4596374480416
 21
-1301.5
 31
0.0
1001
ACDBBLOCKREPETAG
1070
     1
1071
       50
1005
135216
  0
LINE
  5
135217
  8
OBJECT
 10
7913.4596374480416
 20
-1306.999999999997
 30
0.0
 11
7925.4596374480407
 21
-1306.999999999997
 31
0.0
1001
ACDBBLOCKREPETAG
1070
     1
1071
       51
1005
135217
  0
LINE
  5
135218
  8
OBJECT
 10
7913.4596374480416
 20
-1275.5000000000009
 30
0.0
 11
7913.4596374480416
 21
-1264.9999999999991
 31
0.0
1001
ACDBBLOCKREPETAG
1070
     1
1071
       52
1005
135218
  0
LINE
  5
135219
  8
OBJECT
 10
7930.4292924480387
 20
-1291.5
 30
0.0
 11
7930.4292924480387
 21
-1301.5
 31
0.0
1001
ACDBBLOCKREPETAG
1070
     1
1071
       53
1005
135219
  0
LINE
  5
13521A
  8
OBJECT
 10
7924.9444644480382
 20
-1291.5
 30
0.0
 11
7924.9444644480382
 21
-1301.5
 31
0.0
1001
ACDBBLOCKREPETAG
1070
     1
1071
       54
1005
13521A
  0
LINE
  5
13521B
  8
OBJECT
 10
7913.9748094480419
 20
-1291.5
 30
0.0
 11
7913.9748094480419
 21
-1301.5
 31
0.0
1001
ACDBBLOCKREPETAG
1070
     1
1071
       55
1005
13521B
  0
LINE
  5
13521C
  8
OBJECT
 10
7908.4899824480417
 20
-1291.5
 30
0.0
 11
7908.4899824480417
 21
-1301.5
 31
0.0
1001
ACDBBLOCKREPETAG
1070
     1
1071
       56
1005
13521C
  0
LINE
  5
13521D
  8
OBJECT
 10
7908.4899824480417
 20
-1301.5
 30
0.0
 11
7930.4292924480387
 21
-1301.5
 31
0.0
1001
ACDBBLOCKREPETAG
1070
     1
1071
       57
1005
13521D
  0
LINE
  5
13521E
  8
OBJECT
 10
7911.4596374480443
 20
-1241.0
 30
0.0
 11
7911.4596374480443
 21
-1246.999999999998
 31
0.0
1001
ACDBBLOCKREPETAG
1070
     1
1071
       58
1005
13521E
  0
LINE
  5
13521F
  8
OBJECT
 10
7919.5000000000027
 20
-1241.0
 30
0.0
 11
7911.4596374480443
 21
-1241.0
 31
0.0
1001
ACDBBLOCKREPETAG
1070
     1
1071
       59
1005
13521F
  0
LINE
  5
135220
  8
OBJECT
 10
8074.5403625519548
 20
-1306.999999999997
 30
0.0
 11
8074.5403625519548
 21
-1301.5
 31
0.0
1001
ACDBBLOCKREPETAG
1070
     1
1071
       60
1005
135220
  0
LINE
  5
135221
  8
OBJECT
 10
8086.5403625519548
 20
-1306.999999999997
 30
0.0
 11
8086.5403625519548
 21
-1301.5
 31
0.0
1001
ACDBBLOCKREPETAG
1070
     1
1071
       61
1005
135221
  0
LINE
  5
135222
  8
OBJECT
 10
8086.5403625519548
 20
-1306.999999999997
 30
0.0
 11
8074.5403625519548
 21
-1306.999999999997
 31
0.0
1001
ACDBBLOCKREPETAG
1070
     1
1071
       62
1005
135222
  0
LINE
  5
135223
  8
OBJECT
 10
8086.5403625519548
 20
-1275.5000000000009
 30
0.0
 11
8086.5403625519548
 21
-1264.9999999999991
 31
0.0
1001
ACDBBLOCKREPETAG
1070
     1
1071
       63
1005
135223
  0
LINE
  5
135224
  8
OBJECT
 10
8069.5707075519604
 20
-1291.5
 30
0.0
 11
8069.5707075519604
 21
-1301.5
 31
0.0
1001
ACDBBLOCKREPETAG
1070
     1
1071
       64
1005
135224
  0
LINE
  5
135225
  8
OBJECT
 10
8075.0555355519591
 20
-1291.5
 30
0.0
 11
8075.0555355519591
 21
-1301.5
 31
0.0
1001
ACDBBLOCKREPETAG
1070
     1
1071
       65
1005
135225
  0
LINE
  5
135226
  8
OBJECT
 10
8086.0251905519572
 20
-1291.5
 30
0.0
 11
8086.0251905519572
 21
-1301.5
 31
0.0
1001
ACDBBLOCKREPETAG
1070
     1
1071
       66
1005
135226
  0
LINE
  5
135227
  8
OBJECT
 10
8091.5100175519592
 20
-1291.5
 30
0.0
 11
8091.5100175519592
 21
-1301.5
 31
0.0
1001
ACDBBLOCKREPETAG
1070
     1
1071
       67
1005
135227
  0
LINE
  5
135228
  8
OBJECT
 10
8091.5100175519592
 20
-1301.5
 30
0.0
 11
8069.5707075519604
 21
-1301.5
 31
0.0
1001
ACDBBLOCKREPETAG
1070
     1
1071
       68
1005
135228
  0
LINE
  5
135229
  8
OBJECT
 10
8088.5403625519584
 20
-1241.0
 30
0.0
 11
8088.5403625519584
 21
-1246.999999999998
 31
0.0
1001
ACDBBLOCKREPETAG
1070
     1
1071
       69
1005
135229
  0
LINE
  5
13522A
  8
OBJECT
 10
8080.5
 20
-1241.0
 30
0.0
 11
8088.5403625519584
 21
-1241.0
 31
0.0
1001
ACDBBLOCKREPETAG
1070
     1
1071
       70
1005
13522A
  0
LINE
  5
13522B
  8
OBJECT
 10
5930.0
 20
-1149.9999999999991
 30
0.0
 11
5930.0
 21
-1264.9999999999991
 31
0.0
1001
ACDBBLOCKREPETAG
1070
     1
1071
        0
1005
13522B
  0
LINE
  5
13522C
  8
OBJECT
 10
5930.0
 20
-1149.9999999999991
 30
0.0
 11
6070.0
 21
-1149.9999999999991
 31
0.0
1001
ACDBBLOCKREPETAG
1070
     1
1071
        1
1005
13522C
  0
LINE
  5
13522D
  8
OBJECT
 10
6092.5000000000009
 20
-989.99999999999955
 30
0.0
 11
5907.5
 21
-989.99999999999955
 31
0.0
1001
ACDBBLOCKREPETAG
1070
     1
1071
        2
1005
13522D
  0
LINE
  5
13522E
  8
OBJECT
 10
6092.5000000000009
 20
-989.99999999999955
 30
0.0
 11
6092.5000000000009
 21
-914.99999999999955
 31
0.0
1001
ACDBBLOCKREPETAG
1070
     1
1071
        3
1005
13522E
  0
LINE
  5
13522F
  8
OBJECT
 10
5907.5
 20
-989.99999999999955
 30
0.0
 11
5907.5
 21
-914.99999999999955
 31
0.0
1001
ACDBBLOCKREPETAG
1070
     1
1071
        4
1005
13522F
  0
LINE
  5
135230
  8
OBJECT
 10
5930.0
 20
-1264.9999999999991
 30
0.0
 11
6070.0
 21
-1264.9999999999991
 31
0.0
1001
ACDBBLOCKREPETAG
1070
     1
1071
        5
1005
135230
  0
LINE
  5
135231
  8
OBJECT
 10
6070.0
 20
-1149.9999999999991
 30
0.0
 11
6070.0
 21
-1264.9999999999991
 31
0.0
1001
ACDBBLOCKREPETAG
1070
     1
1071
        6
1005
135231
  0
LINE
  5
135232
  8
OBJECT
 10
5907.5
 20
-989.99999999999955
 30
0.0
 11
5930.0
 21
-1149.9999999999991
 31
0.0
1001
ACDBBLOCKREPETAG
1070
     1
1071
        7
1005
135232
  0
LINE
  5
135233
  8
OBJECT
 10
6070.0
 20
-1149.9999999999991
 30
0.0
 11
6092.5000000000009
 21
-989.99999999999955
 31
0.0
1001
ACDBBLOCKREPETAG
1070
     1
1071
        8
1005
135233
  0
LINE
  5
135234
  8
HIDDEN
 10
5937.5
 20
-1149.9999999999991
 30
0.0
 11
5937.5
 21
-1264.9999999999991
 31
0.0
1001
ACDBBLOCKREPETAG
1070
     1
1071
        9
1005
135234
  0
LINE
  5
135235
  8
HIDDEN
 10
6062.5
 20
-1149.9999999999991
 30
0.0
 11
6062.5
 21
-1264.9999999999991
 31
0.0
1001
ACDBBLOCKREPETAG
1070
     1
1071
       10
1005
135235
  0
LINE
  5
135236
  8
CENTER
 10
6000.0
 20
-914.99999999999955
 30
0.0
 11
6000.0
 21
-1279.9999999999991
 31
0.0
1001
ACDBBLOCKREPETAG
1070
     1
1071
       11
1005
135236
  0
LINE
  5
135237
  8
OBJECT
 10
4092.5
 20
-989.99999999999955
 30
0.0
 11
4092.5
 21
-914.99999999999955
 31
0.0
1001
ACDBBLOCKREPETAG
1070
     1
1071
       12
1005
135237
  0
LINE
  5
135238
  8
OBJECT
 10
4093.5403615519499
 20
-1264.9999999999991
 30
0.0
 11
3906.4596374480461
 21
-1264.9999999999991
 31
0.0
1001
ACDBBLOCKREPETAG
1070
     1
1071
       13
1005
135238
  0
LINE
  5
135239
  8
OBJECT
 10
3906.4596374480502
 20
-1291.5
 30
0.0
 11
4093.5403625519511
 21
-1291.5
 31
0.0
1001
ACDBBLOCKREPETAG
1070
     1
1071
       14
1005
135239
  0
LINE
  5
13523A
  8
OBJECT
 10
4093.5403625519511
 20
-1275.5000000000009
 30
0.0
 11
3906.4596374480502
 21
-1275.5000000000009
 31
0.0
1001
ACDBBLOCKREPETAG
1070
     1
1071
       15
1005
13523A
  0
LINE
  5
13523B
  8
OBJECT
 10
4005.999999999995
 20
-1306.999999999997
 30
0.0
 11
4005.999999999995
 21
-1301.5
 31
0.0
1001
ACDBBLOCKREPETAG
1070
     1
1071
       16
1005
13523B
  0
LINE
  5
13523C
  8
OBJECT
 10
3993.9999999999959
 20
-1306.999999999997
 30
0.0
 11
3993.9999999999959
 21
-1301.5
 31
0.0
1001
ACDBBLOCKREPETAG
1070
     1
1071
       17
1005
13523C
  0
LINE
  5
13523D
  8
OBJECT
 10
3993.9999999999959
 20
-1306.999999999997
 30
0.0
 11
4005.999999999995
 21
-1306.999999999997
 31
0.0
1001
ACDBBLOCKREPETAG
1070
     1
1071
       18
1005
13523D
  0
LINE
  5
13523E
  8
OBJECT
 10
3993.9999999999959
 20
-1275.5000000000009
 30
0.0
 11
3993.9999999999959
 21
-1264.9999999999991
 31
0.0
1001
ACDBBLOCKREPETAG
1070
     1
1071
       19
1005
13523E
  0
LINE
  5
13523F
  8
OBJECT
 10
4005.999999999995
 20
-1275.5000000000009
 30
0.0
 11
4005.999999999995
 21
-1264.9999999999991
 31
0.0
1001
ACDBBLOCKREPETAG
1070
     1
1071
       20
1005
13523F
  0
LINE
  5
135240
  8
OBJECT
 10
4016.4999999999959
 20
-1244.499999999997
 30
0.0
 11
4016.4999999999959
 21
-1246.999999999998
 31
0.0
1001
ACDBBLOCKREPETAG
1070
     1
1071
       21
1005
135240
  0
LINE
  5
135241
  8
OBJECT
 10
3989.9999999999968
 20
-1241.0
 30
0.0
 11
3989.9999999999968
 21
-1246.999999999998
 31
0.0
1001
ACDBBLOCKREPETAG
1070
     1
1071
       22
1005
135241
  0
LINE
  5
135242
  8
OBJECT
 10
4008.4999999999968
 20
-1241.0
 30
0.0
 11
3989.9999999999968
 21
-1241.0
 31
0.0
1001
ACDBBLOCKREPETAG
1070
     1
1071
       23
1005
135242
  0
LINE
  5
135243
  8
OBJECT
 10
4093.5403615519499
 20
-1246.999999999998
 30
0.0
 11
3906.4596374480461
 21
-1246.999999999998
 31
0.0
1001
ACDBBLOCKREPETAG
1070
     1
1071
       24
1005
135243
  0
LINE
  5
135244
  8
OBJECT
 10
4016.4999999999959
 20
-1244.499999999997
 30
0.0
 11
4008.4999999999968
 21
-1241.0
 31
0.0
1001
ACDBBLOCKREPETAG
1070
     1
1071
       25
1005
135244
  0
LINE
  5
135245
  8
HIDDEN
 10
3930.0
 20
-1224.9999999999991
 30
0.0
 11
4070.0
 21
-1224.9999999999991
 31
0.0
1001
ACDBBLOCKREPETAG
1070
     1
1071
       26
1005
135245
  0
LINE
  5
135246
  8
CENTER
 10
4000.0
 20
-914.99999999999955
 30
0.0
 11
4000.0
 21
-1321.999999999998
 31
0.0
1001
ACDBBLOCKREPETAG
1070
     1
1071
       27
1005
135246
  0
LINE
  5
135247
  8
OBJECT
 10
3918.5
 20
-1264.9999999999991
 30
0.0
 11
3918.5
 21
-1275.5000000000009
 31
0.0
1001
ACDBBLOCKREPETAG
1070
     1
1071
       28
1005
135247
  0
LINE
  5
135248
  8
OBJECT
 10
4081.5
 20
-1264.9999999999991
 30
0.0
 11
4081.5
 21
-1275.5000000000009
 31
0.0
1001
ACDBBLOCKREPETAG
1070
     1
1071
       29
1005
135248
  0
LINE
  5
135249
  8
OBJECT
 10
3930.0
 20
-1149.9999999999991
 30
0.0
 11
3930.0
 21
-1213.9999999999991
 31
0.0
1001
ACDBBLOCKREPETAG
1070
     1
1071
       30
1005
135249
  0
LINE
  5
13524A
  8
OBJECT
 10
4070.0
 20
-1149.9999999999991
 30
0.0
 11
4070.0
 21
-1213.9999999999991
 31
0.0
1001
ACDBBLOCKREPETAG
1070
     1
1071
       31
1005
13524A
  0
LINE
  5
13524B
  8
OBJECT
 10
3930.0
 20
-1149.9999999999991
 30
0.0
 11
4070.0
 21
-1149.9999999999991
 31
0.0
1001
ACDBBLOCKREPETAG
1070
     1
1071
       32
1005
13524B
  0
LINE
  5
13524C
  8
OBJECT
 10
3919.4999999999968
 20
-1213.9999999999991
 30
0.0
 11
4080.5000000000032
 21
-1213.9999999999991
 31
0.0
1001
ACDBBLOCKREPETAG
1070
     1
1071
       33
1005
13524C
  0
LINE
  5
13524D
  8
OBJECT
 10
3907.5
 20
-989.99999999999955
 30
0.0
 11
3907.5
 21
-914.99999999999955
 31
0.0
1001
ACDBBLOCKREPETAG
1070
     1
1071
       34
1005
13524D
  0
LINE
  5
13524E
  8
OBJECT
 10
4092.5
 20
-989.99999999999955
 30
0.0
 11
3907.5
 21
-989.99999999999955
 31
0.0
1001
ACDBBLOCKREPETAG
1070
     1
1071
       35
1005
13524E
  0
LINE
  5
13524F
  8
OBJECT
 10
3907.5
 20
-989.99999999999955
 30
0.0
 11
3930.0
 21
-1149.9999999999991
 31
0.0
1001
ACDBBLOCKREPETAG
1070
     1
1071
       36
1005
13524F
  0
LINE
  5
135250
  8
OBJECT
 10
4070.0
 20
-1149.9999999999991
 30
0.0
 11
4092.5
 21
-989.99999999999955
 31
0.0
1001
ACDBBLOCKREPETAG
1070
     1
1071
       37
1005
135250
  0
LINE
  5
135251
  8
OBJECT
 10
4080.4999999999982
 20
-1213.9999999999991
 30
0.0
 11
4080.4999999999982
 21
-1246.999999999998
 31
0.0
1001
ACDBBLOCKREPETAG
1070
     1
1071
       38
1005
135251
  0
LINE
  5
135252
  8
OBJECT
 10
3919.5
 20
-1213.9999999999991
 30
0.0
 11
3919.5
 21
-1246.999999999998
 31
0.0
1001
ACDBBLOCKREPETAG
1070
     1
1071
       39
1005
135252
  0
LINE
  5
135253
  8
OBJECT
 10
4010.969654999994
 20
-1291.5
 30
0.0
 11
4010.969654999994
 21
-1301.5
 31
0.0
1001
ACDBBLOCKREPETAG
1070
     1
1071
       40
1005
135253
  0
LINE
  5
135254
  8
OBJECT
 10
4005.484826999992
 20
-1291.5
 30
0.0
 11
4005.484826999992
 21
-1301.5
 31
0.0
1001
ACDBBLOCKREPETAG
1070
     1
1071
       41
1005
135254
  0
LINE
  5
135255
  8
OBJECT
 10
3994.5151719999958
 20
-1291.5
 30
0.0
 11
3994.5151719999958
 21
-1301.5
 31
0.0
1001
ACDBBLOCKREPETAG
1070
     1
1071
       42
1005
135255
  0
LINE
  5
135256
  8
OBJECT
 10
3989.030344999996
 20
-1291.5
 30
0.0
 11
3989.030344999996
 21
-1301.5
 31
0.0
1001
ACDBBLOCKREPETAG
1070
     1
1071
       43
1005
135256
  0
LINE
  5
135257
  8
OBJECT
 10
3989.030344999996
 20
-1301.5
 30
0.0
 11
4010.969654999994
 21
-1301.5
 31
0.0
1001
ACDBBLOCKREPETAG
1070
     1
1071
       44
1005
135257
  0
LINE
  5
135258
  8
OBJECT
 10
3906.4596374480461
 20
-1246.999999999998
 30
0.0
 11
3906.4596374480461
 21
-1264.9999999999991
 31
0.0
1001
ACDBBLOCKREPETAG
1070
     1
1071
       45
1005
135258
  0
LINE
  5
135259
  8
OBJECT
 10
3906.4596374480502
 20
-1275.5000000000009
 30
0.0
 11
3906.4596374480502
 21
-1291.5
 31
0.0
1001
ACDBBLOCKREPETAG
1070
     1
1071
       46
1005
135259
  0
LINE
  5
13525A
  8
OBJECT
 10
4093.5403625519539
 20
-1246.999999999998
 30
0.0
 11
4093.5403625519539
 21
-1264.9999999999991
 31
0.0
1001
ACDBBLOCKREPETAG
1070
     1
1071
       47
1005
13525A
  0
LINE
  5
13525B
  8
OBJECT
 10
4093.5403625519511
 20
-1275.5000000000009
 30
0.0
 11
4093.5403625519511
 21
-1291.5
 31
0.0
1001
ACDBBLOCKREPETAG
1070
     1
1071
       48
1005
13525B
  0
LINE
  5
13525C
  8
OBJECT
 10
3925.4596374480429
 20
-1306.999999999997
 30
0.0
 11
3925.4596374480429
 21
-1301.5
 31
0.0
1001
ACDBBLOCKREPETAG
1070
     1
1071
       49
1005
13525C
  0
LINE
  5
13525D
  8
OBJECT
 10
3913.459637448042
 20
-1306.999999999997
 30
0.0
 11
3913.459637448042
 21
-1301.5
 31
0.0
1001
ACDBBLOCKREPETAG
1070
     1
1071
       50
1005
13525D
  0
LINE
  5
13525E
  8
OBJECT
 10
3913.459637448042
 20
-1306.999999999997
 30
0.0
 11
3925.4596374480429
 21
-1306.999999999997
 31
0.0
1001
ACDBBLOCKREPETAG
1070
     1
1071
       51
1005
13525E
  0
LINE
  5
13525F
  8
OBJECT
 10
3913.459637448042
 20
-1275.5000000000009
 30
0.0
 11
3913.459637448042
 21
-1264.9999999999991
 31
0.0
1001
ACDBBLOCKREPETAG
1070
     1
1071
       52
1005
13525F
  0
LINE
  5
135260
  8
OBJECT
 10
3930.4292924480401
 20
-1291.5
 30
0.0
 11
3930.4292924480401
 21
-1301.5
 31
0.0
1001
ACDBBLOCKREPETAG
1070
     1
1071
       53
1005
135260
  0
LINE
  5
135261
  8
OBJECT
 10
3924.9444644480391
 20
-1291.5
 30
0.0
 11
3924.9444644480391
 21
-1301.5
 31
0.0
1001
ACDBBLOCKREPETAG
1070
     1
1071
       54
1005
135261
  0
LINE
  5
135262
  8
OBJECT
 10
3913.9748094480419
 20
-1291.5
 30
0.0
 11
3913.9748094480419
 21
-1301.5
 31
0.0
1001
ACDBBLOCKREPETAG
1070
     1
1071
       55
1005
135262
  0
LINE
  5
135263
  8
OBJECT
 10
3908.4899824480422
 20
-1291.5
 30
0.0
 11
3908.4899824480422
 21
-1301.5
 31
0.0
1001
ACDBBLOCKREPETAG
1070
     1
1071
       56
1005
135263
  0
LINE
  5
135264
  8
OBJECT
 10
3908.4899824480422
 20
-1301.5
 30
0.0
 11
3930.4292924480401
 21
-1301.5
 31
0.0
1001
ACDBBLOCKREPETAG
1070
     1
1071
       57
1005
135264
  0
LINE
  5
135265
  8
OBJECT
 10
3911.4596374480429
 20
-1241.0
 30
0.0
 11
3911.4596374480429
 21
-1246.999999999998
 31
0.0
1001
ACDBBLOCKREPETAG
1070
     1
1071
       58
1005
135265
  0
LINE
  5
135266
  8
OBJECT
 10
3919.5
 20
-1241.0
 30
0.0
 11
3911.4596374480429
 21
-1241.0
 31
0.0
1001
ACDBBLOCKREPETAG
1070
     1
1071
       59
1005
135266
  0
LINE
  5
135267
  8
OBJECT
 10
4074.540362551958
 20
-1306.999999999997
 30
0.0
 11
4074.540362551958
 21
-1301.5
 31
0.0
1001
ACDBBLOCKREPETAG
1070
     1
1071
       60
1005
135267
  0
LINE
  5
135268
  8
OBJECT
 10
4086.5403625519562
 20
-1306.999999999997
 30
0.0
 11
4086.5403625519562
 21
-1301.5
 31
0.0
1001
ACDBBLOCKREPETAG
1070
     1
1071
       61
1005
135268
  0
LINE
  5
135269
  8
OBJECT
 10
4086.5403625519562
 20
-1306.999999999997
 30
0.0
 11
4074.540362551958
 21
-1306.999999999997
 31
0.0
1001
ACDBBLOCKREPETAG
1070
     1
1071
       62
1005
135269
  0
LINE
  5
13526A
  8
OBJECT
 10
4086.5403625519562
 20
-1275.5000000000009
 30
0.0
 11
4086.5403625519562
 21
-1264.9999999999991
 31
0.0
1001
ACDBBLOCKREPETAG
1070
     1
1071
       63
1005
13526A
  0
LINE
  5
13526B
  8
OBJECT
 10
4069.570707551959
 20
-1291.5
 30
0.0
 11
4069.570707551959
 21
-1301.5
 31
0.0
1001
ACDBBLOCKREPETAG
1070
     1
1071
       64
1005
13526B
  0
LINE
  5
13526C
  8
OBJECT
 10
4075.05553555196
 20
-1291.5
 30
0.0
 11
4075.05553555196
 21
-1301.5
 31
0.0
1001
ACDBBLOCKREPETAG
1070
     1
1071
       65
1005
13526C
  0
LINE
  5
13526D
  8
OBJECT
 10
4086.0251905519581
 20
-1291.5
 30
0.0
 11
4086.0251905519581
 21
-1301.5
 31
0.0
1001
ACDBBLOCKREPETAG
1070
     1
1071
       66
1005
13526D
  0
LINE
  5
13526E
  8
OBJECT
 10
4091.5100175519569
 20
-1291.5
 30
0.0
 11
4091.5100175519569
 21
-1301.5
 31
0.0
1001
ACDBBLOCKREPETAG
1070
     1
1071
       67
1005
13526E
  0
LINE
  5
13526F
  8
OBJECT
 10
4091.5100175519569
 20
-1301.5
 30
0.0
 11
4069.570707551959
 21
-1301.5
 31
0.0
1001
ACDBBLOCKREPETAG
1070
     1
1071
       68
1005
13526F
  0
LINE
  5
135270
  8
OBJECT
 10
4088.540362551958
 20
-1241.0
 30
0.0
 11
4088.540362551958
 21
-1246.999999999998
 31
0.0
1001
ACDBBLOCKREPETAG
1070
     1
1071
       69
1005
135270
  0
LINE
  5
135271
  8
OBJECT
 10
4080.4999999999982
 20
-1241.0
 30
0.0
 11
4088.540362551958
 21
-1241.0
 31
0.0
1001
ACDBBLOCKREPETAG
1070
     1
1071
       70
1005
135271
  0
LINE
  5
135272
  8
OBJECT
 10
1930.0
 20
-1149.9999999999991
 30
0.0
 11
1930.0
 21
-1264.9999999999991
 31
0.0
1001
ACDBBLOCKREPETAG
1070
     1
1071
        0
1005
135272
  0
LINE
  5
135273
  8
OBJECT
 10
1930.0
 20
-1149.9999999999991
 30
0.0
 11
2070.0
 21
-1149.9999999999991
 31
0.0
1001
ACDBBLOCKREPETAG
1070
     1
1071
        1
1005
135273
  0
LINE
  5
135274
  8
OBJECT
 10
2092.5
 20
-989.99999999999955
 30
0.0
 11
1907.5
 21
-989.99999999999955
 31
0.0
1001
ACDBBLOCKREPETAG
1070
     1
1071
        2
1005
135274
  0
LINE
  5
135275
  8
OBJECT
 10
2092.5
 20
-989.99999999999955
 30
0.0
 11
2092.5
 21
-914.99999999999955
 31
0.0
1001
ACDBBLOCKREPETAG
1070
     1
1071
        3
1005
135275
  0
LINE
  5
135276
  8
OBJECT
 10
1907.5
 20
-989.99999999999955
 30
0.0
 11
1907.5
 21
-914.99999999999955
 31
0.0
1001
ACDBBLOCKREPETAG
1070
     1
1071
        4
1005
135276
  0
LINE
  5
135277
  8
OBJECT
 10
1930.0
 20
-1264.9999999999991
 30
0.0
 11
2070.0
 21
-1264.9999999999991
 31
0.0
1001
ACDBBLOCKREPETAG
1070
     1
1071
        5
1005
135277
  0
LINE
  5
135278
  8
OBJECT
 10
2070.0
 20
-1149.9999999999991
 30
0.0
 11
2070.0
 21
-1264.9999999999991
 31
0.0
1001
ACDBBLOCKREPETAG
1070
     1
1071
        6
1005
135278
  0
LINE
  5
135279
  8
OBJECT
 10
1907.5
 20
-989.99999999999955
 30
0.0
 11
1930.0
 21
-1149.9999999999991
 31
0.0
1001
ACDBBLOCKREPETAG
1070
     1
1071
        7
1005
135279
  0
LINE
  5
13527A
  8
OBJECT
 10
2070.0
 20
-1149.9999999999991
 30
0.0
 11
2092.5
 21
-989.99999999999955
 31
0.0
1001
ACDBBLOCKREPETAG
1070
     1
1071
        8
1005
13527A
  0
LINE
  5
13527B
  8
HIDDEN
 10
1937.5
 20
-1149.9999999999991
 30
0.0
 11
1937.5
 21
-1264.9999999999991
 31
0.0
1001
ACDBBLOCKREPETAG
1070
     1
1071
        9
1005
13527B
  0
LINE
  5
13527C
  8
HIDDEN
 10
2062.5
 20
-1149.9999999999991
 30
0.0
 11
2062.5
 21
-1264.9999999999991
 31
0.0
1001
ACDBBLOCKREPETAG
1070
     1
1071
       10
1005
13527C
  0
LINE
  5
13527D
  8
CENTER
 10
2000.0
 20
-914.99999999999955
 30
0.0
 11
2000.0
 21
-1279.9999999999991
 31
0.0
1001
ACDBBLOCKREPETAG
1070
     1
1071
       11
1005
13527D
  0
LINE
  5
13527E
  8
OBJECT
 10
1777.0000000000141
 20
-577.99999999999761
 30
0.0
 11
1770.0000000000141
 21
-577.99999999999761
 31
0.0
1001
ACDBBLOCKREPETAG
1070
     1
1071
       83
1005
13527E
  0
LINE
  5
13527F
  8
OBJECT
 10
1770.0000000000141
 20
-577.99999999999761
 30
0.0
 11
1770.0000000000141
 21
-701.99999999999761
 31
0.0
1001
ACDBBLOCKREPETAG
1070
     1
1071
       84
1005
13527F
  0
LINE
  5
135280
  8
OBJECT
 10
1894.000000000015
 20
-648.35026377572513
 30
0.0
 11
1894.000000000015
 21
-749.99999999999852
 31
0.0
1001
ACDBBLOCKREPETAG
1070
     1
1071
       85
1005
135280
  0
LINE
  5
135281
  8
OBJECT
 10
1770.0000000000141
 20
-701.99999999999761
 30
0.0
 11
1777.0000000000141
 21
-701.99999999999761
 31
0.0
1001
ACDBBLOCKREPETAG
1070
     1
1071
       86
1005
135281
  0
LINE
  5
135282
  8
OBJECT
 10
1777.0000000000141
 20
-701.99999999999761
 30
0.0
 11
1777.0000000000141
 21
-577.99999999999761
 31
0.0
1001
ACDBBLOCKREPETAG
1070
     1
1071
       87
1005
135282
  0
LINE
  5
135283
  8
CENTER
 10
1845.0000000000141
 20
-639.99999999999852
 30
0.0
 11
1755.0000000000141
 21
-639.99999999999761
 31
0.0
1001
ACDBBLOCKREPETAG
1070
     1
1071
       88
1005
135283
  0
LINE
  5
135284
  8
OBJECT
 10
1900.000000000018
 20
-752.99999999999773
 30
0.0
 11
1897.0000000000141
 21
-752.99999999999852
 31
0.0
1001
ACDBBLOCKREPETAG
1070
     1
1071
       89
1005
135284
  0
ARC
  5
135285
  8
OBJECT
 10
1897.0000000000141
 20
-749.99999999999852
 30
0.0
 40
3.0
 50
180.0
 51
270.0
1001
ACDBBLOCKREPETAG
1070
     1
1071
       90
1005
135285
  0
LINE
  5
135286
  8
OBJECT
 10
1777.0000000000141
 20
-580.99999999999761
 30
0.0
 11
1813.0000000000141
 21
-580.99999999999852
 31
0.0
1001
ACDBBLOCKREPETAG
1070
     1
1071
       91
1005
135286
  0
LINE
  5
135287
  8
OBJECT
 10
1813.0000000000141
 20
-580.99999999999852
 30
0.0
 11
1813.0000000000141
 21
-698.99999999999852
 31
0.0
1001
ACDBBLOCKREPETAG
1070
     1
1071
       92
1005
135287
  0
LINE
  5
135288
  8
OBJECT
 10
1817.000000000015
 20
-585.49999999999852
 30
0.0
 11
1817.000000000015
 21
-694.49999999999852
 31
0.0
1001
ACDBBLOCKREPETAG
1070
     1
1071
       93
1005
135288
  0
LINE
  5
135289
  8
OBJECT
 10
1817.000000000015
 20
-585.49999999999852
 30
0.0
 11
1830.0000000000141
 21
-585.49999999999852
 31
0.0
1001
ACDBBLOCKREPETAG
1070
     1
1071
       94
1005
135289
  0
LINE
  5
13528A
  8
OBJECT
 10
1813.0000000000141
 20
-698.99999999999852
 30
0.0
 11
1777.0000000000141
 21
-698.99999999999761
 31
0.0
1001
ACDBBLOCKREPETAG
1070
     1
1071
       95
1005
13528A
  0
LINE
  5
13528B
  8
OBJECT
 10
1813.0000000000141
 20
-580.99999999999852
 30
0.0
 11
1817.000000000015
 21
-585.49999999999852
 31
0.0
1001
ACDBBLOCKREPETAG
1070
     1
1071
       96
1005
13528B
  0
LINE
  5
13528C
  8
OBJECT
 10
1830.0000000000141
 20
-585.49999999999852
 30
0.0
 11
1830.0000000000141
 21
-670.74491827928557
 31
0.0
1001
ACDBBLOCKREPETAG
1070
     1
1071
       97
1005
13528C
  0
ARC
  5
13528D
  8
OBJECT
 10
1827.2000000000151
 20
-679.99999999999852
 30
0.0
 40
85.0
 50
36.869897645898732
 51
88.112268108168848
1001
ACDBBLOCKREPETAG
1070
     1
1071
       98
1005
13528D
  0
LINE
  5
13528E
  8
HIDDEN
 10
1822.0000000000141
 20
-595.49999999999841
 30
0.0
 11
1822.0000000000141
 21
-684.49999999999852
 31
0.0
1001
ACDBBLOCKREPETAG
1070
     1
1071
      100
1005
13528E
  0
LINE
  5
13528F
  8
OBJECT
 10
1894.000000000015
 20
-746.07945073181554
 30
0.0
 11
1823.368680078969
 21
-694.49999999999852
 31
0.0
1001
ACDBBLOCKREPETAG
1070
     1
1071
      101
1005
13528F
  0
LINE
  5
135290
  8
OBJECT
 10
1900.000000000018
 20
-628.99999999999761
 30
0.0
 11
1895.2000000000151
 21
-628.99999999999761
 31
0.0
1001
ACDBBLOCKREPETAG
1070
     1
1071
      102
1005
135290
  0
LINE
  5
135291
  8
OBJECT
 10
1894.000000000015
 20
-648.35026377572785
 30
0.0
 11
1895.2000000000151
 21
-628.99999999999761
 31
0.0
1001
ACDBBLOCKREPETAG
1070
     1
1071
      103
1005
135291
  0
LINE
  5
135292
  8
OBJECT
 10
1817.000000000015
 20
-694.49999999999852
 30
0.0
 11
1823.368680078969
 21
-694.49999999999852
 31
0.0
1001
ACDBBLOCKREPETAG
1070
     1
1071
      104
1005
135292
  0
LINE
  5
135293
  8
OBJECT
 10
1813.0000000000141
 20
-698.99999999999852
 30
0.0
 11
1817.000000000015
 21
-694.49999999999852
 31
0.0
1001
ACDBBLOCKREPETAG
1070
     1
1071
      105
1005
135293
  0
CIRCLE
  5
135294
  8
OBJECT
 10
2000.0
 20
-690.99999999999761
 30
0.0
 40
62.0
1001
ACDBBLOCKREPETAG
1070
     1
1071
        0
1005
135294
  0
LINE
  5
135295
  8
OBJECT
 10
2095.0
 20
-569.99999999999955
 30
0.0
 11
1905.0
 21
-569.99999999999955
 31
0.0
1001
ACDBBLOCKREPETAG
1070
     1
1071
        0
1005
135295
  0
LINE
  5
135296
  8
OBJECT
 10
2095.0
 20
-549.99999999999955
 30
0.0
 11
1905.0
 21
-549.99999999999955
 31
0.0
1001
ACDBBLOCKREPETAG
1070
     1
1071
        1
1005
135296
  0
LINE
  5
135297
  8
OBJECT
 10
1902.5
 20
-914.99999999999955
 30
0.0
 11
2097.5
 21
-914.99999999999955
 31
0.0
1001
ACDBBLOCKREPETAG
1070
     1
1071
        2
1005
135297
  0
LINE
  5
135298
  8
OBJECT
 10
1908.237046000002
 20
-549.99999999999955
 30
0.0
 11
1908.2370465822601
 21
-569.99999999999955
 31
0.0
1001
ACDBBLOCKREPETAG
1070
     1
1071
        3
1005
135298
  0
LINE
  5
135299
  8
OBJECT
 10
1905.0
 20
-549.99999999999955
 30
0.0
 11
1905.0
 21
-569.99999999999955
 31
0.0
1001
ACDBBLOCKREPETAG
1070
     1
1071
        4
1005
135299
  0
LINE
  5
13529A
  8
OBJECT
 10
1916.024909
 20
-549.99999999999955
 30
0.0
 11
1916.024909
 21
-569.99999999999955
 31
0.0
1001
ACDBBLOCKREPETAG
1070
     1
1071
        5
1005
13529A
  0
LINE
  5
13529B
  8
OBJECT
 10
1967.6243270000009
 20
-549.99999999999955
 30
0.0
 11
1967.6243270000009
 21
-569.99999999999955
 31
0.0
1001
ACDBBLOCKREPETAG
1070
     1
1071
        6
1005
13529B
  0
LINE
  5
13529C
  8
OBJECT
 10
1975.4121899999991
 20
-549.99999999999955
 30
0.0
 11
1975.4121899999991
 21
-569.99999999999955
 31
0.0
1001
ACDBBLOCKREPETAG
1070
     1
1071
        7
1005
13529C
  0
LINE
  5
13529D
  8
OBJECT
 10
2024.587809000001
 20
-549.99999999999955
 30
0.0
 11
2024.587809000001
 21
-569.99999999999955
 31
0.0
1001
ACDBBLOCKREPETAG
1070
     1
1071
        8
1005
13529D
  0
LINE
  5
13529E
  8
OBJECT
 10
2032.3756720000019
 20
-549.99999999999955
 30
0.0
 11
2032.3756720000019
 21
-569.99999999999955
 31
0.0
1001
ACDBBLOCKREPETAG
1070
     1
1071
        9
1005
13529E
  0
LINE
  5
13529F
  8
OBJECT
 10
2083.9750910000012
 20
-549.99999999999955
 30
0.0
 11
2083.9750910000012
 21
-569.99999999999955
 31
0.0
1001
ACDBBLOCKREPETAG
1070
     1
1071
       10
1005
13529F
  0
LINE
  5
1352A0
  8
OBJECT
 10
2091.762953999998
 20
-549.99999999999955
 30
0.0
 11
2091.7629534177431
 21
-569.99999999999955
 31
0.0
1001
ACDBBLOCKREPETAG
1070
     1
1071
       11
1005
1352A0
  0
LINE
  5
1352A1
  8
OBJECT
 10
2095.0
 20
-549.99999999999955
 30
0.0
 11
2095.0
 21
-569.99999999999955
 31
0.0
1001
ACDBBLOCKREPETAG
1070
     1
1071
       12
1005
1352A1
  0
LINE
  5
1352A2
  8
OBJECT
 10
2100.0
 20
-628.99999999999955
 30
0.0
 11
1900.0
 21
-628.99999999999955
 31
0.0
1001
ACDBBLOCKREPETAG
1070
     1
1071
       13
1005
1352A2
  0
LINE
  5
1352A3
  8
OBJECT
 10
2100.0
 20
-752.99999999999773
 30
0.0
 11
2092.5
 21
-752.99999999999773
 31
0.0
1001
ACDBBLOCKREPETAG
1070
     1
1071
       14
1005
1352A3
  0
LINE
  5
1352A4
  8
OBJECT
 10
1902.5
 20
-914.99999999999955
 30
0.0
 11
1902.5
 21
-902.99999999999784
 31
0.0
1001
ACDBBLOCKREPETAG
1070
     1
1071
       15
1005
1352A4
  0
LINE
  5
1352A5
  8
OBJECT
 10
2097.5
 20
-914.99999999999955
 30
0.0
 11
2097.5
 21
-902.99999999999784
 31
0.0
1001
ACDBBLOCKREPETAG
1070
     1
1071
       16
1005
1352A5
  0
LINE
  5
1352A6
  8
OBJECT
 10
1902.5
 20
-902.99999999999784
 30
0.0
 11
2097.5
 21
-902.99999999999784
 31
0.0
1001
ACDBBLOCKREPETAG
1070
     1
1071
       17
1005
1352A6
  0
LINE
  5
1352A7
  8
HIDDEN
 10
1930.0
 20
-624.99999999999955
 30
0.0
 11
2070.0
 21
-624.99999999999955
 31
0.0
1001
ACDBBLOCKREPETAG
1070
     1
1071
       18
1005
1352A7
  0
LINE
  5
1352A8
  8
CENTER
 10
2000.0
 20
-534.99999999999955
 30
0.0
 11
2000.0
 21
-914.99999999999955
 31
0.0
1001
ACDBBLOCKREPETAG
1070
     1
1071
       19
1005
1352A8
  0
LINE
  5
1352A9
  8
OBJECT
 10
2092.5
 20
-752.99999999999773
 30
0.0
 11
2092.5
 21
-902.99999999999784
 31
0.0
1001
ACDBBLOCKREPETAG
1070
     1
1071
       20
1005
1352A9
  0
LINE
  5
1352AA
  8
OBJECT
 10
1914.5
 20
-569.99999999999955
 30
0.0
 11
1914.5
 21
-628.99999999999955
 31
0.0
1001
ACDBBLOCKREPETAG
1070
     1
1071
       21
1005
1352AA
  0
LINE
  5
1352AB
  8
OBJECT
 10
2085.5
 20
-569.99999999999955
 30
0.0
 11
2085.5
 21
-628.99999999999955
 31
0.0
1001
ACDBBLOCKREPETAG
1070
     1
1071
       22
1005
1352AB
  0
POINT
  5
1352AC
  8
DOTS
 10
2000.0
 20
-749.99999999999955
 30
0.0
1001
ACDBBLOCKREPETAG
1070
     1
1071
       24
1005
1352AC
  0
LINE
  5
1352AD
  8
OBJECT
 10
1900.0
 20
-752.99999999999773
 30
0.0
 11
1907.5
 21
-752.99999999999773
 31
0.0
1001
ACDBBLOCKREPETAG
1070
     1
1071
       25
1005
1352AD
  0
LINE
  5
1352AE
  8
OBJECT
 10
1907.5
 20
-752.99999999999773
 30
0.0
 11
1907.5
 21
-902.99999999999784
 31
0.0
1001
ACDBBLOCKREPETAG
1070
     1
1071
       26
1005
1352AE
  0
ARC
  5
1352AF
  8
OBJECT
 10
2214.4155190291499
 20
-715.62073879202455
 30
0.0
 40
149.554492306393
 50
144.60628028468801
 51
164.2211863995189
1001
ACDBBLOCKREPETAG
1070
     1
1071
       28
1005
1352AF
  0
ARC
  5
1352B0
  8
OBJECT
 10
2139.1422781245269
 20
-690.99999999999761
 30
0.0
 40
70.496447952551449
 50
166.84269182358281
 51
193.1573081764171
1001
ACDBBLOCKREPETAG
1070
     1
1071
       29
1005
1352B0
  0
ARC
  5
1352B1
  8
OBJECT
 10
2214.4155190291499
 20
-666.3792612079701
 30
0.0
 40
149.55449230639621
 50
195.7788136004809
 51
215.3937197153119
1001
ACDBBLOCKREPETAG
1070
     1
1071
       30
1005
1352B1
  0
ARC
  5
1352B2
  8
OBJECT
 10
1785.5844809708501
 20
-715.62073879202455
 30
0.0
 40
149.554492306393
 50
15.77881360052846
 51
35.393719715228642
1001
ACDBBLOCKREPETAG
1070
     1
1071
       31
1005
1352B2
  0
ARC
  5
1352B3
  8
OBJECT
 10
1860.8577218754731
 20
-690.99999999999761
 30
0.0
 40
70.496447952551449
 50
346.84269182358292
 51
13.15730817641716
1001
ACDBBLOCKREPETAG
1070
     1
1071
       32
1005
1352B3
  0
ARC
  5
1352B4
  8
OBJECT
 10
1785.5844809708501
 20
-666.3792612079701
 30
0.0
 40
149.55449230639621
 50
324.60628028477117
 51
344.22118639947161
1001
ACDBBLOCKREPETAG
1070
     1
1071
       33
1005
1352B4
  0
LINE
  5
1352B5
  8
OBJECT
 10
1777.00000000001
 20
-261.99999999999909
 30
0.0
 11
1770.00000000001
 21
-261.99999999999909
 31
0.0
1001
ACDBBLOCKREPETAG
1070
     1
1071
       85
1005
1352B5
  0
LINE
  5
1352B6
  8
OBJECT
 10
1770.00000000001
 20
-261.99999999999909
 30
0.0
 11
1770.00000000001
 21
-137.99999999999909
 31
0.0
1001
ACDBBLOCKREPETAG
1070
     1
1071
       86
1005
1352B6
  0
LINE
  5
1352B7
  8
OBJECT
 10
1770.00000000001
 20
-137.99999999999909
 30
0.0
 11
1777.00000000001
 21
-137.99999999999909
 31
0.0
1001
ACDBBLOCKREPETAG
1070
     1
1071
       87
1005
1352B7
  0
LINE
  5
1352B8
  8
OBJECT
 10
1777.00000000001
 20
-137.99999999999909
 30
0.0
 11
1777.00000000001
 21
-261.99999999999909
 31
0.0
1001
ACDBBLOCKREPETAG
1070
     1
1071
       88
1005
1352B8
  0
LINE
  5
1352B9
  8
CENTER
 10
1755.00000000001
 20
-199.99999999999909
 30
0.0
 11
1899.9999999999959
 21
-199.99999999999909
 31
0.0
1001
ACDBBLOCKREPETAG
1070
     1
1071
       89
1005
1352B9
  0
LINE
  5
1352BA
  8
OBJECT
 10
1830.00002503581
 20
-154.9999999999954
 30
0.0
 11
1893.9999999999959
 21
-154.99999999999909
 31
0.0
1001
ACDBBLOCKREPETAG
1070
     1
1071
       90
1005
1352BA
  0
LINE
  5
1352BB
  8
OBJECT
 10
1830.00002503581
 20
-244.99999999999909
 30
0.0
 11
1893.9999999999959
 21
-244.99999999999909
 31
0.0
1001
ACDBBLOCKREPETAG
1070
     1
1071
       91
1005
1352BB
  0
LINE
  5
1352BC
  8
OBJECT
 10
1777.00000000001
 20
-258.99999999999909
 30
0.0
 11
1813.00000000001
 21
-258.99999999999909
 31
0.0
1001
ACDBBLOCKREPETAG
1070
     1
1071
       92
1005
1352BC
  0
LINE
  5
1352BD
  8
OBJECT
 10
1813.00000000001
 20
-258.99999999999909
 30
0.0
 11
1813.00000000001
 21
-140.99999999999909
 31
0.0
1001
ACDBBLOCKREPETAG
1070
     1
1071
       93
1005
1352BD
  0
LINE
  5
1352BE
  8
OBJECT
 10
1813.00000000001
 20
-140.99999999999909
 30
0.0
 11
1777.00000000001
 21
-140.99999999999909
 31
0.0
1001
ACDBBLOCKREPETAG
1070
     1
1071
       94
1005
1352BE
  0
LINE
  5
1352BF
  8
OBJECT
 10
1817.0000000000109
 20
-254.49999999999909
 30
0.0
 11
1830.00000000001
 21
-254.49999999999909
 31
0.0
1001
ACDBBLOCKREPETAG
1070
     1
1071
       95
1005
1352BF
  0
LINE
  5
1352C0
  8
OBJECT
 10
1830.00000000001
 20
-145.49999999999909
 30
0.0
 11
1817.0000000000109
 21
-145.49999999999909
 31
0.0
1001
ACDBBLOCKREPETAG
1070
     1
1071
       96
1005
1352C0
  0
LINE
  5
1352C1
  8
OBJECT
 10
1817.0000000000109
 20
-145.49999999999909
 30
0.0
 11
1817.0000000000109
 21
-254.49999999999909
 31
0.0
1001
ACDBBLOCKREPETAG
1070
     1
1071
       97
1005
1352C1
  0
LINE
  5
1352C2
  8
OBJECT
 10
1813.00000000001
 20
-258.99999999999909
 30
0.0
 11
1817.0000000000109
 21
-254.49999999999909
 31
0.0
1001
ACDBBLOCKREPETAG
1070
     1
1071
       98
1005
1352C2
  0
LINE
  5
1352C3
  8
OBJECT
 10
1813.00000000001
 20
-140.99999999999909
 30
0.0
 11
1817.0000000000109
 21
-145.49999999999909
 31
0.0
1001
ACDBBLOCKREPETAG
1070
     1
1071
       99
1005
1352C3
  0
LINE
  5
1352C4
  8
OBJECT
 10
1896.9999999999959
 20
-261.99999999999909
 30
0.0
 11
1899.9999999999959
 21
-261.99999999999909
 31
0.0
1001
ACDBBLOCKREPETAG
1070
     1
1071
      100
1005
1352C4
  0
ARC
  5
1352C5
  8
OBJECT
 10
1896.9999999999959
 20
-258.99999999999909
 30
0.0
 40
3.0
 50
180.0
 51
270.0
1001
ACDBBLOCKREPETAG
1070
     1
1071
      101
1005
1352C5
  0
LINE
  5
1352C6
  8
OBJECT
 10
1899.9999999999959
 20
-137.99999999999909
 30
0.0
 11
1896.9999999999959
 21
-137.99999999999909
 31
0.0
1001
ACDBBLOCKREPETAG
1070
     1
1071
      102
1005
1352C6
  0
ARC
  5
1352C7
  8
OBJECT
 10
1896.9999999999959
 20
-140.99999999999909
 30
0.0
 40
3.0
 50
90.0
 51
180.0
1001
ACDBBLOCKREPETAG
1070
     1
1071
      103
1005
1352C7
  0
LINE
  5
1352C8
  8
OBJECT
 10
1893.9999999999959
 20
-140.99999999999909
 30
0.0
 11
1893.9999999999959
 21
-189.6772096796403
 31
0.0
1001
ACDBBLOCKREPETAG
1070
     1
1071
      104
1005
1352C8
  0
LINE
  5
1352C9
  8
OBJECT
 10
1893.9999999999959
 20
-210.3227903203578
 30
0.0
 11
1893.9999999999959
 21
-258.99999999999909
 31
0.0
1001
ACDBBLOCKREPETAG
1070
     1
1071
      105
1005
1352C9
  0
LINE
  5
1352CA
  8
HIDDEN
 10
1822.0000000000109
 20
-244.49999999999909
 30
0.0
 11
1822.0000000000109
 21
-155.49999999999909
 31
0.0
1001
ACDBBLOCKREPETAG
1070
     1
1071
      106
1005
1352CA
  0
LINE
  5
1352CB
  8
OBJECT
 10
1830.00002503581
 20
-145.50004907618759
 30
0.0
 11
1830.00002503581
 21
-254.50004907618771
 31
0.0
1001
ACDBBLOCKREPETAG
1070
     1
1071
      108
1005
1352CB
  0
ARC
  5
1352CC
  8
OBJECT
 10
1850.1999999999721
 20
-199.99999999999909
 30
0.0
 40
45.000000000000547
 50
270.0
 51
90.0
1001
ACDBBLOCKREPETAG
1070
     1
1071
      109
1005
1352CC
  0
LINE
  5
1352CD
  8
CENTER
 10
2000.000000000003
 20
-320.99999999999898
 30
0.0
 11
2000.000000000003
 21
-299.99999999999898
 31
0.0
1001
ACDBBLOCKREPETAG
1070
     1
1071
        0
1005
1352CD
  0
LINE
  5
1352CE
  8
OBJECT
 10
2062.0000000000041
 20
-303.0
 30
0.0
 11
2062.0000000000041
 21
-299.99999999999898
 31
0.0
1001
ACDBBLOCKREPETAG
1070
     1
1071
        1
1005
1352CE
  0
ARC
  5
1352CF
  8
OBJECT
 10
2059.0000000000041
 20
-303.0
 30
0.0
 40
3.0
 50
270.0
 51
0.0
1001
ACDBBLOCKREPETAG
1070
     1
1071
        2
1005
1352CF
  0
LINE
  5
1352D0
  8
OBJECT
 10
1938.0000000000041
 20
-299.99999999999898
 30
0.0
 11
1938.0000000000041
 21
-302.99999999999818
 31
0.0
1001
ACDBBLOCKREPETAG
1070
     1
1071
        3
1005
1352D0
  0
ARC
  5
1352D1
  8
OBJECT
 10
1941.000000000003
 20
-302.99999999999818
 30
0.0
 40
3.0
 50
180.0
 51
270.0
1001
ACDBBLOCKREPETAG
1070
     1
1071
        4
1005
1352D1
  0
LINE
  5
1352D2
  8
OBJECT
 10
1941.000000000003
 20
-305.99999999999818
 30
0.0
 11
2059.0000000000041
 21
-306.0
 31
0.0
1001
ACDBBLOCKREPETAG
1070
     1
1071
        5
1005
1352D2
  0
ARC
  5
1352D3
  8
OBJECT
 10
1973.8931207053249
 20
-173.82438331578209
 30
0.0
 40
90.0
 50
274.21795726566182
 51
281.60300086770189
1001
ACDBBLOCKREPETAG
1070
     1
1071
        0
1005
1352D3
  0
LINE
  5
1352D4
  8
OBJECT
 10
1991.9947509999911
 20
-261.98520799999727
 30
0.0
 11
1996.6424319999919
 21
-248.3387539999994
 31
0.0
1001
ACDBBLOCKREPETAG
1070
     1
1071
       28
1005
1352D4
  0
LINE
  5
1352D5
  8
OBJECT
 10
1955.28879609768
 20
-207.0733020425842
 30
0.0
 11
1935.60541864211
 21
-216.60084009147889
 31
0.0
1001
ACDBBLOCKREPETAG
1070
     1
1071
       29
1005
1352D5
  0
LINE
  5
1352D6
  8
OBJECT
 10
1937.335063923862
 20
-222.25658973369261
 30
0.0
 11
1961.7560738851171
 21
-210.43584915155679
 31
0.0
1001
ACDBBLOCKREPETAG
1070
     1
1071
       30
1005
1352D6
  0
LINE
  5
1352D7
  8
OBJECT
 10
1996.6424319999919
 20
-248.3387539999994
 30
0.0
 11
1970.3289245926419
 21
-210.9660806555467
 31
0.0
1001
ACDBBLOCKREPETAG
1070
     1
1071
       31
1005
1352D7
  0
ARC
  5
1352D8
  8
OBJECT
 10
1960.51700480005
 20
-217.87449798398211
 30
0.0
 40
12.0
 50
35.148769561169452
 51
115.8288295732507
1001
ACDBBLOCKREPETAG
1070
     1
1071
      259
1005
1352D8
  0
ARC
  5
1352D9
  8
OBJECT
 10
1965.241546317978
 20
-217.63664646295089
 30
0.0
 40
8.0
 50
35.148769561169452
 51
115.8288292916689
1001
ACDBBLOCKREPETAG
1070
     1
1071
      260
1005
1352D9
  0
ARC
  5
1352DA
  8
OBJECT
 10
2000.0
 20
-199.99999999999909
 30
0.0
 40
90.0
 50
201.08359599996669
 51
248.9164040000301
1001
ACDBBLOCKREPETAG
1070
     1
1071
      268
1005
1352DA
  0
ARC
  5
1352DB
  8
OBJECT
 10
2000.0
 20
-199.99999999999909
 30
0.0
 40
90.0
 50
111.0835959999699
 51
158.9164034710258
1001
ACDBBLOCKREPETAG
1070
     1
1071
      269
1005
1352DB
  0
LINE
  5
1352DC
  8
OBJECT
 10
1916.024909444865
 20
-167.62432755513231
 30
0.0
 11
1908.2370465822601
 21
-175.4121904177382
 31
0.0
1001
ACDBBLOCKREPETAG
1070
     1
1071
      270
1005
1352DC
  0
LINE
  5
1352DD
  8
OBJECT
 10
1916.024909
 20
-232.37567199999921
 30
0.0
 11
1908.2370469998129
 21
-224.58781114059909
 31
0.0
1001
ACDBBLOCKREPETAG
1070
     1
1071
      271
1005
1352DD
  0
ARC
  5
1352DE
  8
OBJECT
 10
2000.0
 20
-199.99999999999909
 30
0.0
 40
95.0
 50
164.9999998142064
 51
195.00000115869909
1001
ACDBBLOCKREPETAG
1070
     1
1071
      272
1005
1352DE
  0
ARC
  5
1352DF
  8
OBJECT
 10
2000.0
 20
-199.99999999999909
 30
0.0
 40
92.5
 50
287.80189678393282
 51
342.19810359942011
1001
ACDBBLOCKREPETAG
1070
     1
1071
        1
1005
1352DF
  0
ARC
  5
1352E0
  8
OBJECT
 10
2000.0
 20
-199.99999999999909
 30
0.0
 40
90.0
 50
291.08359599996987
 51
338.9164040000332
1001
ACDBBLOCKREPETAG
1070
     1
1071
        3
1005
1352E0
  0
CIRCLE
  5
1352E1
  8
OBJECT
 10
2000.0
 20
-199.99999999999909
 30
0.0
 40
80.0
1001
ACDBBLOCKREPETAG
1070
     1
1071
        4
1005
1352E1
  0
ARC
  5
1352E2
  8
OBJECT
 10
2000.0
 20
-199.99999999999909
 30
0.0
 40
90.0
 50
21.083596528974049
 51
68.916404000030013
1001
ACDBBLOCKREPETAG
1070
     1
1071
        5
1005
1352E2
  0
CIRCLE
  5
1352E3
  8
OBJECT
 10
2000.0
 20
-199.99999999999909
 30
0.0
 40
66.5
1001
ACDBBLOCKREPETAG
1070
     1
1071
        7
1005
1352E3
  0
LINE
  5
1352E4
  8
OBJECT
 10
2083.9750905551341
 20
-167.62432755513231
 30
0.0
 11
2091.762953417739
 21
-175.4121904177382
 31
0.0
1001
ACDBBLOCKREPETAG
1070
     1
1071
        8
1005
1352E4
  0
LINE
  5
1352E5
  8
OBJECT
 10
2083.9750910000012
 20
-232.37567199999921
 30
0.0
 11
2091.7629530001868
 21
-224.58781114059909
 31
0.0
1001
ACDBBLOCKREPETAG
1070
     1
1071
        9
1005
1352E5
  0
ARC
  5
1352E6
  8
OBJECT
 10
2000.0
 20
-199.99999999999909
 30
0.0
 40
95.0
 50
344.99999884130068
 51
15.000000185793599
1001
ACDBBLOCKREPETAG
1070
     1
1071
       10
1005
1352E6
  0
LINE
  5
1352E7
  8
OBJECT
 10
2032.375672999998
 20
-283.9750909999994
 30
0.0
 11
2024.587810948284
 21
-291.76295305171419
 31
0.0
1001
ACDBBLOCKREPETAG
1070
     1
1071
       11
1005
1352E7
  0
LINE
  5
1352E8
  8
OBJECT
 10
1967.6243279999981
 20
-283.9750909999994
 30
0.0
 11
1975.41219041774
 21
-291.76295341774039
 31
0.0
1001
ACDBBLOCKREPETAG
1070
     1
1071
       12
1005
1352E8
  0
ARC
  5
1352E9
  8
OBJECT
 10
2000.0
 20
-199.99999999999909
 30
0.0
 40
95.0
 50
254.9999998142205
 51
285.00000103859719
1001
ACDBBLOCKREPETAG
1070
     1
1071
       13
1005
1352E9
  0
LINE
  5
1352EA
  8
OBJECT
 10
2032.375672999998
 20
-116.0249099999992
 30
0.0
 11
2024.5878095822591
 21
-108.2370465822578
 31
0.0
1001
ACDBBLOCKREPETAG
1070
     1
1071
       14
1005
1352EA
  0
ARC
  5
1352EB
  8
OBJECT
 10
2000.0
 20
-199.99999999999909
 30
0.0
 40
95.0
 50
74.999999814220544
 51
104.9999993327599
1001
ACDBBLOCKREPETAG
1070
     1
1071
       15
1005
1352EB
  0
LINE
  5
1352EC
  8
OBJECT
 10
1967.6243279999981
 20
-116.0249099999992
 30
0.0
 11
1975.412191783766
 21
-108.2370462162316
 31
0.0
1001
ACDBBLOCKREPETAG
1070
     1
1071
       16
1005
1352EC
  0
LINE
  5
1352ED
  8
OBJECT
 10
2055.1784370000032
 20
-162.884098999998
 30
0.0
 11
2032.534570109274
 21
-178.11554723457169
 31
0.0
1001
ACDBBLOCKREPETAG
1070
     1
1071
       17
1005
1352ED
  0
LINE
  5
1352EE
  8
OBJECT
 10
1944.804121000001
 20
-162.88106899999821
 30
0.0
 11
2032.534570109274
 21
-178.11554723457169
 31
0.0
1001
ACDBBLOCKREPETAG
1070
     1
1071
       18
1005
1352EE
  0
ARC
  5
1352EF
  8
OBJECT
 10
2000.0
 20
-199.99999999999909
 30
0.0
 40
92.5
 50
197.80189544246551
 51
252.19810417429329
1001
ACDBBLOCKREPETAG
1070
     1
1071
       22
1005
1352EF
  0
ARC
  5
1352F0
  8
OBJECT
 10
2000.0
 20
-199.99999999999909
 30
0.0
 40
92.5
 50
107.80189486746769
 51
162.1981051326415
1001
ACDBBLOCKREPETAG
1070
     1
1071
       23
1005
1352F0
  0
ARC
  5
1352F1
  8
OBJECT
 10
2000.0
 20
-199.99999999999909
 30
0.0
 40
92.5
 50
17.80189582568811
 51
72.198104174293292
1001
ACDBBLOCKREPETAG
1070
     1
1071
       24
1005
1352F1
  0
ARC
  5
1352F2
  8
OBJECT
 10
2000.0
 20
-199.99999999999909
 30
0.0
 40
62.5
 50
144.42390307809791
 51
193.7174643727671
1001
ACDBBLOCKREPETAG
1070
     1
1071
       26
1005
1352F2
  0
ARC
  5
1352F3
  8
OBJECT
 10
2000.0
 20
-199.99999999999909
 30
0.0
 40
62.5
 50
262.64111297834887
 51
33.92683896333525
1001
ACDBBLOCKREPETAG
1070
     1
1071
       27
1005
1352F3
  0
LINE
  5
1352F4
  8
OBJECT
 10
2068.6458301719758
 20
-137.99999999999909
 30
0.0
 11
2100.0
 21
-137.99999999999909
 31
0.0
1001
ACDBBLOCKREPETAG
1070
     1
1071
       33
1005
1352F4
  0
LINE
  5
1352F5
  8
OBJECT
 10
2068.6458301719758
 20
-261.99999999999909
 30
0.0
 11
2100.0000000000041
 21
-261.99999999999909
 31
0.0
1001
ACDBBLOCKREPETAG
1070
     1
1071
       34
1005
1352F5
  0
LINE
  5
1352F6
  8
OBJECT
 10
2062.0
 20
-268.64583017197862
 30
0.0
 11
2062.0000000000041
 21
-299.99999999999898
 31
0.0
1001
ACDBBLOCKREPETAG
1070
     1
1071
       35
1005
1352F6
  0
LINE
  5
1352F7
  8
OBJECT
 10
1937.9999999999959
 20
-268.64583017197492
 30
0.0
 11
1938.0
 21
-299.99999999999898
 31
0.0
1001
ACDBBLOCKREPETAG
1070
     1
1071
       36
1005
1352F7
  0
LINE
  5
1352F8
  8
OBJECT
 10
1931.3541698280239
 20
-261.99999999999909
 30
0.0
 11
1899.9999999999959
 21
-261.99999999999909
 31
0.0
1001
ACDBBLOCKREPETAG
1070
     1
1071
       37
1005
1352F8
  0
LINE
  5
1352F9
  8
OBJECT
 10
1931.3541698280201
 20
-137.99999999999909
 30
0.0
 11
1899.9999999999959
 21
-137.99999999999909
 31
0.0
1001
ACDBBLOCKREPETAG
1070
     1
1071
       38
1005
1352F9
  0
ARC
  5
1352FA
  8
OBJECT
 10
2000.0
 20
-199.99999999999909
 30
0.0
 40
97.5
 50
39.486577433836892
 51
140.51342256616309
1001
ACDBBLOCKREPETAG
1070
     1
1071
       39
1005
1352FA
  0
ARC
  5
1352FB
  8
OBJECT
 10
2000.0
 20
-199.99999999999909
 30
0.0
 40
97.5
 50
219.48657743383691
 51
230.5134225661574
1001
ACDBBLOCKREPETAG
1070
     1
1071
       40
1005
1352FB
  0
ARC
  5
1352FC
  8
OBJECT
 10
2000.0
 20
-199.99999999999909
 30
0.0
 40
97.5
 50
309.48657743384149
 51
320.51342256616311
1001
ACDBBLOCKREPETAG
1070
     1
1071
       41
1005
1352FC
  0
LINE
  5
1352FD
  8
CENTER
 10
1900.0
 20
-199.99999999999909
 30
0.0
 11
2100.0
 21
-199.99999999999909
 31
0.0
1001
ACDBBLOCKREPETAG
1070
     1
1071
       42
1005
1352FD
  0
LINE
  5
1352FE
  8
CENTER
 10
2000.0
 20
-86.499999999999091
 30
0.0
 11
2000.0
 21
-299.99999999999898
 31
0.0
1001
ACDBBLOCKREPETAG
1070
     1
1071
       43
1005
1352FE
  0
POINT
  5
1352FF
  8
DOTS
 10
2000.0
 20
-199.99999999999909
 30
0.0
1001
ACDBBLOCKREPETAG
1070
     1
1071
      281
1005
1352FF
  0
LINE
  5
135300
  8
OBJECT
 10
2222.9999999999859
 20
-577.99999999999852
 30
0.0
 11
2229.9999999999859
 21
-577.99999999999852
 31
0.0
1001
ACDBBLOCKREPETAG
1070
     1
1071
       83
1005
135300
  0
LINE
  5
135301
  8
OBJECT
 10
2229.9999999999859
 20
-577.99999999999852
 30
0.0
 11
2229.9999999999859
 21
-701.99999999999852
 31
0.0
1001
ACDBBLOCKREPETAG
1070
     1
1071
       84
1005
135301
  0
LINE
  5
135302
  8
OBJECT
 10
2105.9999999999859
 20
-648.35026377572513
 30
0.0
 11
2105.9999999999859
 21
-749.99999999999852
 31
0.0
1001
ACDBBLOCKREPETAG
1070
     1
1071
       85
1005
135302
  0
LINE
  5
135303
  8
OBJECT
 10
2229.9999999999859
 20
-701.99999999999852
 30
0.0
 11
2222.9999999999859
 21
-701.99999999999852
 31
0.0
1001
ACDBBLOCKREPETAG
1070
     1
1071
       86
1005
135303
  0
LINE
  5
135304
  8
OBJECT
 10
2222.9999999999859
 20
-701.99999999999852
 30
0.0
 11
2222.9999999999859
 21
-577.99999999999852
 31
0.0
1001
ACDBBLOCKREPETAG
1070
     1
1071
       87
1005
135304
  0
LINE
  5
135305
  8
CENTER
 10
2154.9999999999859
 20
-639.99999999999852
 30
0.0
 11
2244.999999999985
 21
-639.99999999999852
 31
0.0
1001
ACDBBLOCKREPETAG
1070
     1
1071
       88
1005
135305
  0
LINE
  5
135306
  8
OBJECT
 10
2099.9999999999809
 20
-752.99999999999773
 30
0.0
 11
2102.999999999985
 21
-752.99999999999852
 31
0.0
1001
ACDBBLOCKREPETAG
1070
     1
1071
       89
1005
135306
  0
ARC
  5
135307
  8
OBJECT
 10
2102.999999999985
 20
-749.99999999999852
 30
0.0
 40
3.0
 50
270.0
 51
0.0
1001
ACDBBLOCKREPETAG
1070
     1
1071
       90
1005
135307
  0
LINE
  5
135308
  8
OBJECT
 10
2222.9999999999859
 20
-580.99999999999852
 30
0.0
 11
2186.9999999999859
 21
-580.99999999999852
 31
0.0
1001
ACDBBLOCKREPETAG
1070
     1
1071
       91
1005
135308
  0
LINE
  5
135309
  8
OBJECT
 10
2186.9999999999859
 20
-580.99999999999852
 30
0.0
 11
2186.9999999999859
 21
-698.99999999999852
 31
0.0
1001
ACDBBLOCKREPETAG
1070
     1
1071
       92
1005
135309
  0
LINE
  5
13530A
  8
OBJECT
 10
2182.9999999999859
 20
-585.49999999999852
 30
0.0
 11
2182.9999999999859
 21
-694.49999999999852
 31
0.0
1001
ACDBBLOCKREPETAG
1070
     1
1071
       93
1005
13530A
  0
LINE
  5
13530B
  8
OBJECT
 10
2182.9999999999859
 20
-585.49999999999852
 30
0.0
 11
2169.999999999985
 21
-585.49999999999852
 31
0.0
1001
ACDBBLOCKREPETAG
1070
     1
1071
       94
1005
13530B
  0
LINE
  5
13530C
  8
OBJECT
 10
2186.9999999999859
 20
-698.99999999999852
 30
0.0
 11
2222.9999999999859
 21
-698.99999999999852
 31
0.0
1001
ACDBBLOCKREPETAG
1070
     1
1071
       95
1005
13530C
  0
LINE
  5
13530D
  8
OBJECT
 10
2186.9999999999859
 20
-580.99999999999852
 30
0.0
 11
2182.9999999999859
 21
-585.49999999999852
 31
0.0
1001
ACDBBLOCKREPETAG
1070
     1
1071
       96
1005
13530D
  0
LINE
  5
13530E
  8
OBJECT
 10
2169.999999999985
 20
-585.49999999999852
 30
0.0
 11
2169.999999999985
 21
-670.74491827928557
 31
0.0
1001
ACDBBLOCKREPETAG
1070
     1
1071
       97
1005
13530E
  0
ARC
  5
13530F
  8
OBJECT
 10
2172.7999999999852
 20
-679.99999999999852
 30
0.0
 40
85.0
 50
91.887731891831123
 51
143.1301023540934
1001
ACDBBLOCKREPETAG
1070
     1
1071
       98
1005
13530F
  0
LINE
  5
135310
  8
HIDDEN
 10
2177.9999999999859
 20
-595.49999999999841
 30
0.0
 11
2177.9999999999859
 21
-684.49999999999852
 31
0.0
1001
ACDBBLOCKREPETAG
1070
     1
1071
      100
1005
135310
  0
LINE
  5
135311
  8
OBJECT
 10
2105.9999999999859
 20
-746.07945073181554
 30
0.0
 11
2176.6313199210308
 21
-694.49999999999852
 31
0.0
1001
ACDBBLOCKREPETAG
1070
     1
1071
      101
1005
135311
  0
LINE
  5
135312
  8
OBJECT
 10
2099.9999999999809
 20
-628.99999999999761
 30
0.0
 11
2104.7999999999852
 21
-628.99999999999761
 31
0.0
1001
ACDBBLOCKREPETAG
1070
     1
1071
      102
1005
135312
  0
LINE
  5
135313
  8
OBJECT
 10
2105.9999999999859
 20
-648.35026377572785
 30
0.0
 11
2104.7999999999852
 21
-628.99999999999761
 31
0.0
1001
ACDBBLOCKREPETAG
1070
     1
1071
      103
1005
135313
  0
LINE
  5
135314
  8
OBJECT
 10
2182.9999999999859
 20
-694.49999999999852
 30
0.0
 11
2176.6313199210308
 21
-694.49999999999852
 31
0.0
1001
ACDBBLOCKREPETAG
1070
     1
1071
      104
1005
135314
  0
LINE
  5
135315
  8
OBJECT
 10
2186.9999999999859
 20
-698.99999999999852
 30
0.0
 11
2182.9999999999859
 21
-694.49999999999852
 31
0.0
1001
ACDBBLOCKREPETAG
1070
     1
1071
      105
1005
135315
  0
LINE
  5
135316
  8
OBJECT
 10
2222.9999999999859
 20
-137.99999999999909
 30
0.0
 11
2229.9999999999859
 21
-137.99999999999909
 31
0.0
1001
ACDBBLOCKREPETAG
1070
     1
1071
       85
1005
135316
  0
LINE
  5
135317
  8
OBJECT
 10
2229.9999999999859
 20
-137.99999999999909
 30
0.0
 11
2229.9999999999859
 21
-261.99999999999909
 31
0.0
1001
ACDBBLOCKREPETAG
1070
     1
1071
       86
1005
135317
  0
LINE
  5
135318
  8
OBJECT
 10
2229.9999999999859
 20
-261.99999999999909
 30
0.0
 11
2222.9999999999859
 21
-261.99999999999909
 31
0.0
1001
ACDBBLOCKREPETAG
1070
     1
1071
       87
1005
135318
  0
LINE
  5
135319
  8
OBJECT
 10
2222.9999999999859
 20
-261.99999999999909
 30
0.0
 11
2222.9999999999859
 21
-137.99999999999909
 31
0.0
1001
ACDBBLOCKREPETAG
1070
     1
1071
       88
1005
135319
  0
LINE
  5
13531A
  8
CENTER
 10
2244.999999999985
 20
-199.99999999999909
 30
0.0
 11
2100.0
 21
-199.99999999999909
 31
0.0
1001
ACDBBLOCKREPETAG
1070
     1
1071
       89
1005
13531A
  0
LINE
  5
13531B
  8
OBJECT
 10
2169.9999749641861
 20
-245.0000000000027
 30
0.0
 11
2106.0
 21
-244.99999999999909
 31
0.0
1001
ACDBBLOCKREPETAG
1070
     1
1071
       90
1005
13531B
  0
LINE
  5
13531C
  8
OBJECT
 10
2169.9999749641861
 20
-154.99999999999909
 30
0.0
 11
2106.0
 21
-154.99999999999909
 31
0.0
1001
ACDBBLOCKREPETAG
1070
     1
1071
       91
1005
13531C
  0
LINE
  5
13531D
  8
OBJECT
 10
2222.9999999999859
 20
-140.99999999999909
 30
0.0
 11
2186.9999999999859
 21
-140.99999999999909
 31
0.0
1001
ACDBBLOCKREPETAG
1070
     1
1071
       92
1005
13531D
  0
LINE
  5
13531E
  8
OBJECT
 10
2186.9999999999859
 20
-140.99999999999909
 30
0.0
 11
2186.9999999999859
 21
-258.99999999999909
 31
0.0
1001
ACDBBLOCKREPETAG
1070
     1
1071
       93
1005
13531E
  0
LINE
  5
13531F
  8
OBJECT
 10
2186.9999999999859
 20
-258.99999999999909
 30
0.0
 11
2222.9999999999859
 21
-258.99999999999909
 31
0.0
1001
ACDBBLOCKREPETAG
1070
     1
1071
       94
1005
13531F
  0
LINE
  5
135320
  8
OBJECT
 10
2182.9999999999859
 20
-145.49999999999909
 30
0.0
 11
2169.999999999985
 21
-145.49999999999909
 31
0.0
1001
ACDBBLOCKREPETAG
1070
     1
1071
       95
1005
135320
  0
LINE
  5
135321
  8
OBJECT
 10
2169.999999999985
 20
-254.49999999999909
 30
0.0
 11
2182.9999999999859
 21
-254.49999999999909
 31
0.0
1001
ACDBBLOCKREPETAG
1070
     1
1071
       96
1005
135321
  0
LINE
  5
135322
  8
OBJECT
 10
2182.9999999999859
 20
-254.49999999999909
 30
0.0
 11
2182.9999999999859
 21
-145.49999999999909
 31
0.0
1001
ACDBBLOCKREPETAG
1070
     1
1071
       97
1005
135322
  0
LINE
  5
135323
  8
OBJECT
 10
2186.9999999999859
 20
-140.99999999999909
 30
0.0
 11
2182.9999999999859
 21
-145.49999999999909
 31
0.0
1001
ACDBBLOCKREPETAG
1070
     1
1071
       98
1005
135323
  0
LINE
  5
135324
  8
OBJECT
 10
2186.9999999999859
 20
-258.99999999999909
 30
0.0
 11
2182.9999999999859
 21
-254.49999999999909
 31
0.0
1001
ACDBBLOCKREPETAG
1070
     1
1071
       99
1005
135324
  0
LINE
  5
135325
  8
OBJECT
 10
2103.0
 20
-137.99999999999909
 30
0.0
 11
2100.0
 21
-137.99999999999909
 31
0.0
1001
ACDBBLOCKREPETAG
1070
     1
1071
      100
1005
135325
  0
ARC
  5
135326
  8
OBJECT
 10
2103.0
 20
-140.99999999999909
 30
0.0
 40
3.0
 50
0.0
 51
90.0
1001
ACDBBLOCKREPETAG
1070
     1
1071
      101
1005
135326
  0
LINE
  5
135327
  8
OBJECT
 10
2100.0
 20
-261.99999999999909
 30
0.0
 11
2103.0
 21
-261.99999999999909
 31
0.0
1001
ACDBBLOCKREPETAG
1070
     1
1071
      102
1005
135327
  0
ARC
  5
135328
  8
OBJECT
 10
2103.0
 20
-258.99999999999909
 30
0.0
 40
3.0
 50
270.0
 51
0.0
1001
ACDBBLOCKREPETAG
1070
     1
1071
      103
1005
135328
  0
LINE
  5
135329
  8
OBJECT
 10
2106.0
 20
-258.99999999999909
 30
0.0
 11
2106.0
 21
-210.3227903203578
 31
0.0
1001
ACDBBLOCKREPETAG
1070
     1
1071
      104
1005
135329
  0
LINE
  5
13532A
  8
OBJECT
 10
2106.0
 20
-189.6772096796403
 30
0.0
 11
2106.0
 21
-140.99999999999909
 31
0.0
1001
ACDBBLOCKREPETAG
1070
     1
1071
      105
1005
13532A
  0
LINE
  5
13532B
  8
HIDDEN
 10
2177.9999999999859
 20
-155.49999999999909
 30
0.0
 11
2177.9999999999859
 21
-244.49999999999909
 31
0.0
1001
ACDBBLOCKREPETAG
1070
     1
1071
      106
1005
13532B
  0
LINE
  5
13532C
  8
OBJECT
 10
2169.9999749641861
 20
-254.4999509238105
 30
0.0
 11
2169.9999749641861
 21
-145.4999509238105
 31
0.0
1001
ACDBBLOCKREPETAG
1070
     1
1071
      108
1005
13532C
  0
ARC
  5
13532D
  8
OBJECT
 10
2149.8000000000252
 20
-199.99999999999909
 30
0.0
 40
45.000000000000547
 50
90.0
 51
270.0
1001
ACDBBLOCKREPETAG
1070
     1
1071
      109
1005
13532D
  0
TEXT
  5
13532E
  8
SLIM
 10
-0.0000000000000053
 20
520.0
 30
0.0
 40
100.0
  1
5HF-Z606-P110-S
 41
0.75
  0
TEXT
  5
13532F
  8
SLIM
 10
-0.0000000000000053
 20
370.0
 30
0.0
 40
100.0
  1
5HF-Z606-P110-W
 41
0.75
  0
TEXT
  5
135330
  8
SLIM
 10
3853.75
 20
-1806.4999999999991
 30
0.0
 40
35.0
  1
両受けスタイル（W）
 41
0.75
  0
TEXT
  5
135331
  8
SLIM
 10
7824.6000000000022
 20
-1862.9999999999991
 30
0.0
 40
28.0
  1
※ 対応スラブ厚　180～405
 41
0.75
  0
TEXT
  5
135332
  8
SLIM
 10
7598.8999999999969
 20
-1956.333333333333
 30
0.0
 40
28.0
  1
国土交通大臣認定・（一財）日本消防設備安全センター性能評定取得品
 41
0.75
  0
TEXT
  5
135333
  8
SLIM
 10
7631.1000000000004
 20
-2003.0
 30
0.0
 40
28.0
  1
注）ご採用にあたり、認定書及び評定書の内容をご確認ください。
 41
0.75
  0
TEXT
  5
135334
  8
SLIM
 10
7739.125
 20
-1806.4999999999991
 30
0.0
 40
35.0
  1
両受けスタイル（W）＋シンドカット
 41
0.75
  0
TEXT
  5
135335
  8
SLIM
 10
5741.6249999999991
 20
-1532.5
 30
0.0
 40
35.0
  1
片受けスタイル（S）＋シンドカット
 41
0.75
  0
TEXT
  5
135336
  8
SLIM
 10
1856.25
 20
-1532.5
 30
0.0
 40
35.0
  1
片受けスタイル（S）
 41
0.75
  0
VIEWPORT
  5
F6BA7
 67
     1
  8
0
 10
145.33033752441401
 20
101.8328354358673
 30
0.0
 40
334.0025019414623
 41
222.19657968139651
 68
     1
 69
     1
1001
ACAD
1000
MVIEW
1002
{
1070
    16
1010
0.0
1020
0.0
1030
0.0
1010
0.0
1020
0.0
1030
1.0
1040
0.0
1040
222.19657968139651
1040
145.33033752441401
1040
101.8328354358673
1040
50.0
1040
0.0
1040
0.0
1070
     0
1070
     0
1070
     1
1070
     1
1070
     0
1070
     0
1070
     0
1070
     0
1040
0.0
1040
0.0
1040
0.0
1040
10.0
1040
10.0
1040
10.0
1040
10.0
1070
     0
1002
{
1002
}
1002
}
  0
VIEWPORT
  5
F6BA9
 67
     1
  8
OBJECT
 10
145.3303314447403
 20
101.8328338861465
 30
0.0
 40
232.5285303115844
 41
162.93253421783439
 68
     2
 69
     2
1001
ACAD
1000
MVIEW
1002
{
1070
    16
1010
0.0
1020
0.0
1030
0.0
1010
0.0
1020
0.0
1030
1.0
1040
0.0
1040
25942.55904403147
1040
2377.604457077377
1040
-7591.5176687056619
1040
50.0
1040
0.0
1040
0.0
1070
     0
1070
   600
1070
     1
1070
     1
1070
     0
1070
     0
1070
     0
1070
     0
1040
0.0
1040
0.0
1040
0.0
1040
1.0
1040
1.0
1040
0.0
1040
0.0
1070
     0
1002
{
1002
}
1002
}
  0
ENDSEC
  0
EOF
