  0
SECTION
  2
HEADER
  9
$ACADVER
  1
AC1009
  9
$INSBASE
 10
0.0
 20
0.0
 30
0.0
  9
$EXTMIN
 10
-94.012834999999995
 20
-498.70930099999981
 30
0.0
  9
$EXTMAX
 10
1143.305169000002
 20
552.49746000000005
 30
0.0
  9
$LIMMIN
 10
0.0
 20
0.0
  9
$LIMMAX
 10
210.0
 20
297.0
  9
$ORTHOMODE
 70
     0
  9
$REGENMODE
 70
     1
  9
$FILLMODE
 70
     1
  9
$QTEXTMODE
 70
     0
  9
$MIRRTEXT
 70
     0
  9
$DRAGMODE
 70
     2
  9
$LTSCALE
 40
1.0
  9
$OSMODE
 70
    37
  9
$ATTMODE
 70
     1
  9
$TEXTSIZE
 40
4.0
  9
$TRACEWID
 40
0.05
  9
$TEXTSTYLE
  7
STANDARD
  9
$CLAYER
  8
OBJECT
  9
$CELTYPE
  6
BYLAYER
  9
$CECOLOR
 62
   256
  9
$DIMSCALE
 40
10.0
  9
$DIMASZ
 40
2.0
  9
$DIMEXO
 40
1.0
  9
$DIMDLI
 40
10.0
  9
$DIMRND
 40
0.0
  9
$DIMDLE
 40
0.0
  9
$DIMEXE
 40
1.0
  9
$DIMTP
 40
0.0
  9
$DIMTM
 40
0.0
  9
$DIMTXT
 40
3.2000000000000002
  9
$DIMCEN
 40
0.0
  9
$DIMTSZ
 40
0.0
  9
$DIMTOL
 70
     0
  9
$DIMLIM
 70
     0
  9
$DIMTIH
 70
     0
  9
$DIMTOH
 70
     0
  9
$DIMSE1
 70
     0
  9
$DIMSE2
 70
     0
  9
$DIMTAD
 70
     1
  9
$DIMZIN
 70
     8
  9
$DIMBLK
  1
OPEN30
  9
$DIMASO
 70
     1
  9
$DIMSHO
 70
     1
  9
$DIMPOST
  1

  9
$DIMAPOST
  1

  9
$DIMALT
 70
     0
  9
$DIMALTD
 70
     2
  9
$DIMALTF
 40
25.399999999999999
  9
$DIMLFAC
 40
1.0
  9
$DIMTOFL
 70
     1
  9
$DIMTVP
 40
0.0
  9
$DIMTIX
 70
     0
  9
$DIMSOXD
 70
     0
  9
$DIMSAH
 70
     0
  9
$DIMBLK1
  1

  9
$DIMBLK2
  1

  9
$DIMSTYLE
  2
S10
  9
$DIMCLRD
 70
   256
  9
$DIMCLRE
 70
   256
  9
$DIMCLRT
 70
   256
  9
$DIMTFAC
 40
1.0
  9
$DIMGAP
 40
0.9
  9
$LUNITS
 70
     2
  9
$LUPREC
 70
     2
  9
$SKETCHINC
 40
0.1
  9
$FILLETRAD
 40
0.0
  9
$AUNITS
 70
     0
  9
$AUPREC
 70
     2
  9
$MENU
  1
ACAD
  9
$ELEVATION
 40
0.0
  9
$PELEVATION
 40
0.0
  9
$THICKNESS
 40
0.0
  9
$LIMCHECK
 70
     0
  9
$BLIPMODE
 70
     0
  9
$CHAMFERA
 40
2.0
  9
$CHAMFERB
 40
2.0
  9
$SKPOLY
 70
     0
  9
$TDCREATE
 40
2453095.4929404748
  9
$TDUPDATE
 40
2457893.7394389119
  9
$TDINDWG
 40
19.352868298600001
  9
$TDUSRTIMER
 40
19.352867523099999
  9
$USRTIMER
 70
     1
  9
$ANGBASE
 50
0.0
  9
$ANGDIR
 70
     0
  9
$PDMODE
 70
     1
  9
$PDSIZE
 40
2.0
  9
$PLINEWID
 40
0.0
  9
$COORDS
 70
     1
  9
$SPLFRAME
 70
     0
  9
$SPLINETYPE
 70
     6
  9
$SPLINESEGS
 70
     8
  9
$ATTDIA
 70
     0
  9
$ATTREQ
 70
     1
  9
$HANDLING
 70
     1
  9
$HANDSEED
  5
F82DC
  9
$SURFTAB1
 70
     6
  9
$SURFTAB2
 70
     6
  9
$SURFTYPE
 70
     6
  9
$SURFU
 70
     6
  9
$SURFV
 70
     6
  9
$UCSNAME
  2

  9
$UCSORG
 10
0.0
 20
0.0
 30
0.0
  9
$UCSXDIR
 10
1.0
 20
0.0
 30
0.0
  9
$UCSYDIR
 10
0.0
 20
1.0
 30
0.0
  9
$PUCSNAME
  2

  9
$PUCSORG
 10
0.0
 20
0.0
 30
0.0
  9
$PUCSXDIR
 10
1.0
 20
0.0
 30
0.0
  9
$PUCSYDIR
 10
0.0
 20
1.0
 30
0.0
  9
$USERI1
 70
     0
  9
$USERI2
 70
     0
  9
$USERI3
 70
     0
  9
$USERI4
 70
     0
  9
$USERI5
 70
     0
  9
$USERR1
 40
0.0
  9
$USERR2
 40
0.0
  9
$USERR3
 40
0.0
  9
$USERR4
 40
0.0
  9
$USERR5
 40
0.0
  9
$WORLDVIEW
 70
     1
  9
$SHADEDGE
 70
     3
  9
$SHADEDIF
 70
    70
  9
$TILEMODE
 70
     1
  9
$MAXACTVP
 70
    64
  9
$PLIMCHECK
 70
     0
  9
$PEXTMIN
 10
29.066066288948051
 20
20.366566777229309
 30
0.0
  9
$PEXTMAX
 10
261.5945966005325
 20
183.29910099506381
 30
0.0
  9
$PLIMMIN
 10
-3.17498779296875
 20
-3.1749999523162842
  9
$PLIMMAX
 10
293.83566284179687
 20
206.8406708240509
  9
$UNITMODE
 70
     0
  9
$VISRETAIN
 70
     1
  9
$PLINEGEN
 70
     0
  9
$PSLTSCALE
 70
     1
  0
ENDSEC
  0
SECTION
  2
TABLES
  0
TABLE
  2
VPORT
 70
     1
  0
VPORT
  2
*ACTIVE
 70
     0
 10
0.0
 20
0.0
 11
1.0
 21
1.0
 12
-86.964437655738493
 22
398.6947697086498
 13
0.0
 23
0.0
 14
1.0
 24
1.0
 15
0.0
 25
0.0
 16
0.0
 26
0.0
 36
1.0
 17
0.0
 27
0.0
 37
0.0
 40
4495.5287070021604
 41
1.6553079947575351
 42
50.0
 43
0.0
 44
0.0
 50
0.0
 51
0.0
 71
     0
 72
   600
 73
     1
 74
     1
 75
     0
 76
     0
 77
     0
 78
     0
  0
ENDTAB
  0
TABLE
  2
LTYPE
 70
     4
  0
LTYPE
  2
CONTINUOUS
 70
     0
  3
Solid line
 72
    65
 73
     0
 40
0.0
  0
LTYPE
  2
PHANTOM2
 70
     0
  3
___ _ _ ___ _ _ ___ _ _ ___ _ _
 72
    65
 73
     6
 40
1.25
 49
0.625
 49
-0.125
 49
0.125
 49
-0.125
 49
0.125
 49
-0.125
  0
LTYPE
  2
ACAD_ISO08W100
 70
     0
  3
ISO long-dash short-dash ____ __ ____ __ ____ _
 72
    65
 73
     4
 40
36.0
 49
24.0
 49
-3.0
 49
6.0
 49
-3.0
  0
LTYPE
  2
ACAD_ISO02W100
 70
     0
  3
ISO dash __ __ __ __ __ __ __ __ __ __ __ __ __
 72
    65
 73
     2
 40
15.0
 49
12.0
 49
-3.0
  0
ENDTAB
  0
TABLE
  2
LAYER
 70
     6
  0
LAYER
  2
0
 70
     0
 62
     7
  6
CONTINUOUS
  0
LAYER
  2
OBJECT
 70
     0
 62
     4
  6
CONTINUOUS
  0
LAYER
  2
DEFPOINTS
 70
     0
 62
     7
  6
CONTINUOUS
  0
LAYER
  2
DIM
 70
     0
 62
     7
  6
CONTINUOUS
  0
LAYER
  2
HIDDEN
 70
     0
 62
     2
  6
ACAD_ISO02W100
  0
LAYER
  2
CENTER
 70
     0
 62
     2
  6
ACAD_ISO08W100
  0
ENDTAB
  0
TABLE
  2
STYLE
 70
     2
  0
STYLE
  2
STANDARD
 70
     0
 40
0.0
 41
0.75
 50
0.0
 71
     0
 42
4.0
  3
simplex.shx
  4
bigfont.shx
  0
ENDTAB
  0
TABLE
  2
VIEW
 70
     0
  0
ENDTAB
  0
TABLE
  2
UCS
 70
     0
  0
ENDTAB
  0
TABLE
  2
APPID
 70
    23
  0
APPID
  2
ACAD
 70
     0
  0
APPID
  2
ACADANNOTATIVE
 70
     0
  0
APPID
  2
ACAD_PSEXT
 70
     0
  0
APPID
  2
ACAD_EXEMPT_FROM_CAD_STANDARDS
 70
     0
  0
APPID
  2
ACAECLAYERSTANDARD
 70
     0
  0
APPID
  2
ACAUTHENVIRON
 70
     0
  0
APPID
  2
ACDBDYNAMICBLOCKTRUENAME
 70
     0
  0
APPID
  2
ACDBDYNAMICBLOCKGUID
 70
     0
  0
APPID
  2
ACDBBLOCKREPETAG
 70
     0
  0
APPID
  2
ACDBBLOCKREPBTAG
 70
     0
  0
APPID
  2
ACAD_NAV_VCDISPLAY
 70
     0
  0
APPID
  2
ACAD_DSTYLE_DIMRADIAL_EXTENSION
 70
     0
  0
APPID
  2
ACAD_DSTYLE_DIMJAG
 70
     0
  0
APPID
  2
ACAD_DSTYLE_DIMTALN
 70
     0
  0
APPID
  2
GRADIENTCOLOR1ACI
 70
     0
  0
APPID
  2
GRADIENTCOLOR2ACI
 70
     0
  0
APPID
  2
ACADANNOPO
 70
     0
  0
APPID
  2
ACADANNOMONITORALERTICONDI
 70
     0
  0
APPID
  2
ACADANNOAV
 70
     0
  0
APPID
  2
ACAD_MLEADERVER
 70
     0
  0
APPID
  2
ACAD_DSTYLE_DIMFLIPARROW_W
 70
     0
  0
APPID
  2
ACCMTRANSPARENCY
 70
     0
  0
APPID
  2
CONTENTBLOCKICON
 70
     0
  0
ENDTAB
  0
TABLE
  2
DIMSTYLE
 70
     3
  0
DIMSTYLE
  2
STANDARD
 70
     0
  3

  4

  5

  6

  7

 40
1.0
 41
0.18
 42
0.0625
 43
0.38
 44
0.18
 45
0.0
 46
0.0
 47
0.0
 48
0.0
140
0.18
141
0.09
142
0.0
143
25.399999999999999
144
1.0
145
0.0
146
1.0
147
0.09
 71
     0
 72
     0
 73
     1
 74
     1
 75
     0
 76
     0
 77
     0
 78
     0
170
     0
171
     2
172
     0
173
     0
174
     0
175
     0
176
     0
177
     0
178
     0
  0
DIMSTYLE
  2
S10
 70
     0
  3

  4

  5

  6

  7

 40
10.0
 41
2.0
 42
1.0
 43
10.0
 44
1.0
 45
0.0
 46
0.0
 47
0.0
 48
0.0
140
3.2000000000000002
141
0.0
142
0.0
143
25.399999999999999
144
1.0
145
0.0
146
1.0
147
0.9
 71
     0
 72
     0
 73
     0
 74
     0
 75
     0
 76
     0
 77
     1
 78
     8
170
     0
171
     2
172
     1
173
     0
174
     0
175
     0
176
   256
177
   256
178
   256
  0
ENDTAB
  0
ENDSEC
  0
SECTION
  2
BLOCKS
  0
BLOCK
  8
0
  2
$MODEL_SPACE
 70
     0
 10
0.0
 20
0.0
 30
0.0
  3
$MODEL_SPACE
  1

  0
ENDBLK
  5
F8235
  8
0
  0
BLOCK
 67
     1
  8
0
  2
$PAPER_SPACE
 70
     0
 10
0.0
 20
0.0
 30
0.0
  3
$PAPER_SPACE
  1

  0
ENDBLK
  5
F8231
 67
     1
  8
0
  0
BLOCK
  8
0
  2
_OPEN30
 70
     0
 10
0.0
 20
0.0
 30
0.0
  3
_OPEN30
  1

  0
LINE
  5
202
  8
0
  6
BYBLOCK
 62
     0
 10
-1.0
 20
0.26794919
 30
0.0
 11
0.0
 21
0.0
 31
0.0
  0
LINE
  5
203
  8
0
  6
BYBLOCK
 62
     0
 10
0.0
 20
0.0
 30
0.0
 11
-1.0
 21
-0.26794919
 31
0.0
  0
LINE
  5
204
  8
0
  6
BYBLOCK
 62
     0
 10
0.0
 20
0.0
 30
0.0
 11
-1.0
 21
0.0
 31
0.0
  0
ENDBLK
  5
206
  8
0
  0
ENDSEC
  0
SECTION
  2
ENTITIES
  0
TEXT
  5
F6C05
  8
DIM
 10
416.44799499999988
 20
-448.70930099999993
 30
0.0
 40
32.0
  1
・三角ふたの前面にはメンテナンススペース
 41
0.9597585924295776
 72
     5
 11
1143.305169
 21
-448.70930099999993
 31
0.0
  0
TEXT
  5
F6C06
  8
DIM
 10
416.44799499999988
 20
-498.70930099999993
 30
0.0
 40
32.0
  1
　１２０ｍｍ以上を確保してください。
 41
0.9301791860932478
 72
     5
 11
1033.5908790000001
 21
-498.70930099999993
 31
0.0
  0
LINE
  5
F6C07
  8
CENTER
 10
367.52620200000001
 20
477.49745999999999
 30
0.0
 11
427.65426300000013
 21
477.49745999999999
 31
0.0
  0
LINE
  5
F6C08
  8
CENTER
 10
367.69990200000012
 20
540.49746000000005
 30
0.0
 11
443.14087099999989
 21
540.49746000000005
 31
0.0
  0
LINE
  5
F6C09
  8
OBJECT
 10
414.61550499999993
 20
552.49746000000005
 30
0.0
 11
426.61550499999998
 21
552.49746000000005
 31
0.0
  0
LINE
  5
F6C0A
  8
OBJECT
 10
428.61550499999993
 20
550.49745999999971
 30
0.0
 11
428.61550499999993
 21
404.49745999999988
 31
0.0
  0
LINE
  5
F6C0B
  8
OBJECT
 10
414.61550499999993
 20
402.49745999999999
 30
0.0
 11
426.61550499999998
 21
402.49745999999999
 31
0.0
  0
LINE
  5
F6C0C
  8
OBJECT
 10
464.17094599999979
 20
521.99745999999982
 30
0.0
 11
750.61550499999998
 21
521.99745999999982
 31
0.0
  0
LINE
  5
F6C0D
  8
OBJECT
 10
463.84426100000007
 20
432.99745999999988
 30
0.0
 11
465.86067099999991
 21
432.99745999999988
 31
0.0
  0
LINE
  5
F6C0E
  8
CENTER
 10
367.22986999999989
 20
0.0
 30
0.0
 11
768.3315970000001
 21
0.0
 31
0.0
  0
LINE
  5
F6C0F
  8
OBJECT
 10
414.61550499999993
 20
-60.0
 30
0.0
 11
414.61550499999993
 21
60.0
 31
0.0
  0
LINE
  5
F6C10
  8
OBJECT
 10
464.17094599999979
 20
44.499999999999993
 30
0.0
 11
487.61550499999998
 21
44.499999999999993
 31
0.0
  0
LINE
  5
F6C11
  8
OBJECT
 10
464.17094599999979
 20
-44.499999999999979
 30
0.0
 11
591.8031840000001
 21
-44.499999999999979
 31
0.0
  0
LINE
  5
F6C12
  8
OBJECT
 10
450.61550499999998
 20
529.49745999999971
 30
0.0
 11
429.61550499999998
 21
529.49745999999971
 31
0.0
  0
ARC
  5
F6C13
  8
OBJECT
 10
450.61550499999998
 20
521.49745999999971
 30
0.0
 40
8.0
 50
32.089951000003268
 51
90.0
  0
ARC
  5
F6C14
  8
OBJECT
 10
464.17094599999979
 20
529.99745999999959
 30
0.0
 40
8.0
 50
212.08995100000331
 51
270.0
  0
ARC
  5
F6C15
  8
OBJECT
 10
450.61550499999998
 20
433.49745999999988
 30
0.0
 40
8.0
 50
270.0
 51
327.91004899999677
  0
ARC
  5
F6C16
  8
OBJECT
 10
464.17094599999979
 20
424.99745999999988
 30
0.0
 40
8.0
 50
90.0
 51
147.91004899999669
  0
LINE
  5
F6C17
  8
OBJECT
 10
450.61550499999998
 20
425.49745999999988
 30
0.0
 11
429.61550499999998
 21
425.49745999999988
 31
0.0
  0
ARC
  5
F6C18
  8
OBJECT
 10
450.61550499999998
 20
44.0
 30
0.0
 40
8.0
 50
32.089951000003268
 51
90.0
  0
ARC
  5
F6C19
  8
OBJECT
 10
464.17094599999979
 20
52.5
 30
0.0
 40
8.0
 50
212.08995100000331
 51
270.0
  0
LINE
  5
F6C1A
  8
OBJECT
 10
450.61550499999998
 20
52.0
 30
0.0
 11
429.61550499999998
 21
52.0
 31
0.0
  0
ARC
  5
F6C1B
  8
OBJECT
 10
450.61550499999998
 20
-43.999999999999972
 30
0.0
 40
8.0
 50
287.75234399999681
 51
327.91004899999677
  0
ARC
  5
F6C1C
  8
OBJECT
 10
464.17094599999979
 20
-52.5
 30
0.0
 40
8.0
 50
90.0
 51
147.91004899999669
  0
LINE
  5
F6C1D
  8
OBJECT
 10
752.61550499999987
 20
519.99746000000005
 30
0.0
 11
752.61550499999987
 21
434.99745999999999
 31
0.0
  0
ARC
  5
F6C1E
  8
OBJECT
 10
750.61550499999998
 20
519.99746000000005
 30
0.0
 40
2.0
 50
0.0
 51
90.0
  0
ARC
  5
F6C1F
  8
OBJECT
 10
750.61550499999998
 20
434.99745999999999
 30
0.0
 40
2.0
 50
270.0
 51
0.0
  0
LINE
  5
F6C20
  8
OBJECT
 10
752.61550499999987
 20
42.5
 30
0.0
 11
752.61550499999987
 21
-42.499999999999993
 31
0.0
  0
ARC
  5
F6C21
  8
OBJECT
 10
750.61550499999998
 20
42.5
 30
0.0
 40
2.0
 50
0.0
 51
90.0
  0
ARC
  5
F6C22
  8
OBJECT
 10
750.61550499999998
 20
-42.499999999999993
 30
0.0
 40
2.0
 50
270.0
 51
0.0
  0
LINE
  5
F6C23
  8
CENTER
 10
677.61550499999987
 20
477.49745999999999
 30
0.0
 11
602.61550499999987
 21
402.49745999999999
 31
0.0
  0
LINE
  5
F6C24
  8
CENTER
 10
557.6155050000001
 20
477.49745999999999
 30
0.0
 11
482.61550499999993
 21
402.49745999999999
 31
0.0
  0
LINE
  5
F6C25
  8
CENTER
 10
602.61550499999987
 20
-57.56137200000002
 30
0.0
 11
602.61550499999987
 21
48.080679000000011
 31
0.0
  0
LINE
  5
F6C26
  8
CENTER
 10
482.61550499999993
 20
402.49745999999999
 30
0.0
 11
482.61550499999993
 21
313.52593899999999
 31
0.0
  0
LINE
  5
F6C27
  8
OBJECT
 10
632.6155050000001
 20
387.79287900000003
 30
0.0
 11
632.6155050000001
 21
379.864957
 31
0.0
  0
LINE
  5
F6C28
  8
OBJECT
 10
582.72032100000013
 20
425.028683
 30
0.0
 11
587.27488399999982
 21
429.58324699999991
 31
0.0
  0
LINE
  5
F6C29
  8
OBJECT
 10
673.34521199999995
 20
430.80076100000002
 30
0.0
 11
634.22641699999986
 21
391.68196599999999
 31
0.0
  0
LINE
  5
F6C2A
  8
OBJECT
 10
750.61550499999998
 20
432.99745999999988
 30
0.0
 11
678.64851299999987
 21
432.99745999999988
 31
0.0
  0
LINE
  5
F6C2B
  8
OBJECT
 10
452.61550499999981
 20
423.49745999999999
 30
0.0
 11
452.61550499999981
 21
379.864957
 31
0.0
  0
LINE
  5
F6C2C
  8
OBJECT
 10
512.6155050000001
 20
387.79287900000003
 30
0.0
 11
512.6155050000001
 21
379.864957
 31
0.0
  0
LINE
  5
F6C2D
  8
OBJECT
 10
462.72032100000001
 20
425.028683
 30
0.0
 11
467.27488399999987
 21
429.58324699999991
 31
0.0
  0
LINE
  5
F6C2E
  8
OBJECT
 10
553.34521199999995
 20
430.80076100000002
 30
0.0
 11
514.22641699999986
 21
391.68196599999999
 31
0.0
  0
LINE
  5
F6C2F
  8
OBJECT
 10
558.64851299999987
 20
432.99745999999988
 30
0.0
 11
585.86067100000002
 21
432.99745999999988
 31
0.0
  0
LINE
  5
F6C30
  8
CENTER
 10
637.61550499999998
 20
85.673118000000002
 30
0.0
 11
637.61550499999998
 21
36.813720000000004
 31
0.0
  0
LINE
  5
F6C31
  8
OBJECT
 10
750.61550499999998
 20
44.499999999999993
 30
0.0
 11
667.61550499999998
 21
44.499999999999993
 31
0.0
  0
LINE
  5
F6C32
  8
OBJECT
 10
612.61550499999998
 20
55.0
 30
0.0
 11
612.61550499999998
 21
49.499999999999993
 31
0.0
  0
LINE
  5
F6C33
  8
OBJECT
 10
662.61550499999998
 20
55.0
 30
0.0
 11
662.61550499999998
 21
49.499999999999993
 31
0.0
  0
LINE
  5
F6C34
  8
OBJECT
 10
660.01491699999985
 20
55.0
 30
0.0
 11
612.61550499999998
 21
55.0
 31
0.0
  0
ARC
  5
F6C35
  8
OBJECT
 10
607.6155050000001
 20
49.499999999999993
 30
0.0
 40
5.0
 50
270.0
 51
0.0
  0
ARC
  5
F6C36
  8
OBJECT
 10
667.61550499999998
 20
49.499999999999993
 30
0.0
 40
5.0
 50
180.0
 51
270.0
  0
LINE
  5
F6C37
  8
OBJECT
 10
424.61550499999993
 20
-60.0
 30
0.0
 11
424.61550499999993
 21
-20.0
 31
0.0
  0
ARC
  5
F6C38
  8
OBJECT
 10
678.64851299999987
 20
425.49745999999988
 30
0.0
 40
7.5
 50
90.0
 51
134.9999999999954
  0
ARC
  5
F6C39
  8
OBJECT
 10
558.64851299999987
 20
425.49745999999988
 30
0.0
 40
7.5
 50
90.0
 51
134.9999999999954
  0
ARC
  5
F6C3A
  8
OBJECT
 10
450.61550499999998
 20
423.49745999999999
 30
0.0
 40
2.0
 50
0.0
 51
90.0
  0
ARC
  5
F6C3B
  8
OBJECT
 10
570.6155050000001
 20
430.99745999999999
 30
0.0
 40
2.0
 50
0.0
 51
90.0
  0
ARC
  5
F6C3C
  8
OBJECT
 10
607.1155050000001
 20
400.63349899999997
 30
0.0
 40
34.5
 50
134.9999999999954
 51
180.0
  0
ARC
  5
F6C3D
  8
OBJECT
 10
638.11550499999998
 20
387.79287900000003
 30
0.0
 40
5.5
 50
134.9999999999954
 51
180.0
  0
ARC
  5
F6C3E
  8
OBJECT
 10
518.11550499999998
 20
387.79287900000003
 30
0.0
 40
5.5
 50
134.9999999999954
 51
180.0
  0
ARC
  5
F6C3F
  8
OBJECT
 10
487.11550499999993
 20
400.63349899999997
 30
0.0
 40
34.5
 50
134.9999999999954
 51
180.0
  0
ARC
  5
F6C40
  8
OBJECT
 10
465.86067099999991
 20
430.99745999999999
 30
0.0
 40
2.0
 50
314.9999999999954
 51
90.0
  0
ARC
  5
F6C41
  8
OBJECT
 10
585.86067100000002
 20
430.99745999999999
 30
0.0
 40
2.0
 50
314.9999999999954
 51
90.0
  0
LINE
  5
F6C42
  8
CENTER
 10
482.61550499999993
 20
-49.09219199999999
 30
0.0
 11
482.61550499999993
 21
48.587561000000001
 31
0.0
  0
LINE
  5
F6C43
  8
OBJECT
 10
424.61550499999993
 20
60.0
 30
0.0
 11
424.61550499999993
 21
20.0
 31
0.0
  0
ARC
  5
F6C44
  8
OBJECT
 10
426.61550499999998
 20
550.49745999999971
 30
0.0
 40
2.0
 50
0.0
 51
90.0
  0
ARC
  5
F6C45
  8
OBJECT
 10
426.61550499999998
 20
404.49745999999988
 30
0.0
 40
2.0
 50
270.0
 51
0.0
  0
LINE
  5
F6C46
  8
OBJECT
 10
428.61550499999993
 20
-12.000000000000011
 30
0.0
 11
428.61550499999993
 21
-4.6188020000000147
 31
0.0
  0
ARC
  5
F6C47
  8
OBJECT
 10
434.61550499999998
 20
20.0
 30
0.0
 40
10.0
 50
180.0
 51
233.13010199999519
  0
ARC
  5
F6C48
  8
OBJECT
 10
434.61550499999998
 20
-20.0
 30
0.0
 40
10.0
 50
126.8698980000048
 51
180.0
  0
ARC
  5
F6C49
  8
OBJECT
 10
429.61550499999998
 20
530.49745999999982
 30
0.0
 40
1.0
 50
180.0
 51
270.0
  0
ARC
  5
F6C4A
  8
OBJECT
 10
429.61550499999998
 20
424.49745999999988
 30
0.0
 40
1.0
 50
90.0
 51
180.0
  0
ARC
  5
F6C4B
  8
OBJECT
 10
429.61550499999998
 20
57.0
 30
0.0
 40
5.0
 50
180.0
 51
270.0
  0
LINE
  5
F6C4C
  8
CENTER
 10
602.61550499999987
 20
402.49745999999999
 30
0.0
 11
602.61550499999987
 21
313.52593899999999
 31
0.0
  0
LINE
  5
F6C4D
  8
OBJECT
 10
457.39322499999992
 20
525.74746000000005
 30
0.0
 11
457.39322499999992
 21
429.24745999999999
 31
0.0
  0
LINE
  5
F6C4E
  8
OBJECT
 10
457.39322499999992
 20
-48.249999999999993
 30
0.0
 11
457.39322499999992
 21
-37.267098999999988
 31
0.0
  0
LINE
  5
F6C4F
  8
OBJECT
 10
457.39322499999992
 20
48.249999999999993
 30
0.0
 11
457.39322499999992
 21
37.267097999999997
 31
0.0
  0
LINE
  5
F6C50
  8
OBJECT
 10
612.61550499999998
 20
58.0
 30
0.0
 11
612.61550499999998
 21
55.0
 31
0.0
  0
LINE
  5
F6C51
  8
OBJECT
 10
662.61550499999998
 20
58.0
 30
0.0
 11
612.61550499999998
 21
58.0
 31
0.0
  0
LINE
  5
F6C52
  8
OBJECT
 10
662.61550499999998
 20
55.0
 30
0.0
 11
662.61550499999998
 21
58.0
 31
0.0
  0
LINE
  5
F6C53
  8
OBJECT
 10
612.61550499999998
 20
55.0
 30
0.0
 11
662.61550499999998
 21
55.0
 31
0.0
  0
LINE
  5
F6C54
  8
OBJECT
 10
612.61550499999998
 20
58.0
 30
0.0
 11
612.61550499999998
 21
64.0
 31
0.0
  0
LINE
  5
F6C55
  8
OBJECT
 10
612.61550499999998
 20
64.0
 30
0.0
 11
662.61550499999998
 21
64.0
 31
0.0
  0
LINE
  5
F6C56
  8
OBJECT
 10
662.61550499999998
 20
58.0
 30
0.0
 11
662.61550499999998
 21
64.0
 31
0.0
  0
LINE
  5
F6C57
  8
OBJECT
 10
612.61550499999998
 20
58.0
 30
0.0
 11
662.61550499999998
 21
58.0
 31
0.0
  0
LINE
  5
F6C58
  8
OBJECT
 10
645.12105799999995
 20
68.698098999999985
 30
0.0
 11
645.12105799999995
 21
64.0
 31
0.0
  0
LINE
  5
F6C59
  8
OBJECT
 10
645.12105799999995
 20
64.0
 30
0.0
 11
630.1099509999998
 21
64.0
 31
0.0
  0
LINE
  5
F6C5A
  8
OBJECT
 10
630.1099509999998
 20
64.0
 30
0.0
 11
630.1099509999998
 21
68.698098999999985
 31
0.0
  0
LINE
  5
F6C5B
  8
OBJECT
 10
633.86272799999995
 20
68.698098999999985
 30
0.0
 11
633.86272799999995
 21
64.0
 31
0.0
  0
LINE
  5
F6C5C
  8
OBJECT
 10
641.3682809999998
 20
68.698098999999985
 30
0.0
 11
641.3682809999998
 21
64.0
 31
0.0
  0
ARC
  5
F6C5D
  8
OBJECT
 10
637.61550499999998
 20
57.299999999999997
 30
0.0
 40
12.0
 50
71.776086000002124
 51
108.22391399999781
  0
ARC
  5
F6C5E
  8
OBJECT
 10
631.98633899999982
 20
66.074286999999984
 30
0.0
 40
3.2257129999999989
 50
54.429989999999862
 51
125.5700100000001
  0
ARC
  5
F6C5F
  8
OBJECT
 10
643.24467000000016
 20
66.074286999999984
 30
0.0
 40
3.2257129999999989
 50
54.429989999999862
 51
125.5700100000001
  0
LINE
  5
F6C60
  8
OBJECT
 10
631.98633899999982
 20
69.300000000000011
 30
0.0
 11
643.24467000000016
 21
69.300000000000011
 31
0.0
  0
LINE
  5
F6C61
  8
OBJECT
 10
385.59484300000008
 20
405.25985599999979
 30
0.0
 11
393.2660259999999
 21
405.25985599999979
 31
0.0
  0
LINE
  5
F6C62
  8
OBJECT
 10
393.2660259999999
 20
405.25985599999979
 30
0.0
 11
393.2660259999999
 21
423.73506499999979
 31
0.0
  0
LINE
  5
F6C63
  8
OBJECT
 10
393.2660259999999
 20
423.73506499999979
 30
0.0
 11
385.59484300000008
 21
423.73506499999979
 31
0.0
  0
LINE
  5
F6C64
  8
OBJECT
 10
393.2660259999999
 20
409.87865799999992
 30
0.0
 11
385.59484300000008
 21
409.87865799999992
 31
0.0
  0
LINE
  5
F6C65
  8
OBJECT
 10
393.2660259999999
 20
419.116263
 30
0.0
 11
385.59484300000008
 21
419.116263
 31
0.0
  0
ARC
  5
F6C66
  8
OBJECT
 10
399.86602599999992
 20
414.49745999999999
 30
0.0
 40
15.0
 50
162.06606699999921
 51
197.93393300000071
  0
ARC
  5
F6C67
  8
OBJECT
 10
388.88933200000002
 20
421.42566399999998
 30
0.0
 40
4.0233059999999981
 50
144.9699640000029
 51
215.0300359999971
  0
ARC
  5
F6C68
  8
OBJECT
 10
388.88933200000002
 20
407.56925699999999
 30
0.0
 40
4.0233059999999981
 50
144.9699640000029
 51
215.0300359999971
  0
LINE
  5
F6C69
  8
OBJECT
 10
384.86602599999992
 20
421.42566399999998
 30
0.0
 11
384.86602599999992
 21
407.56925699999999
 31
0.0
  0
LINE
  5
F6C6A
  8
OBJECT
 10
385.59484300000008
 20
9.2376040000000028
 30
0.0
 11
393.2660259999999
 21
9.2376040000000028
 31
0.0
  0
LINE
  5
F6C6B
  8
OBJECT
 10
393.2660259999999
 20
9.2376040000000028
 30
0.0
 11
393.2660259999999
 21
-9.2376049999999896
 31
0.0
  0
LINE
  5
F6C6C
  8
OBJECT
 10
393.2660259999999
 20
-9.2376049999999896
 30
0.0
 11
385.59484300000008
 21
-9.2376049999999896
 31
0.0
  0
LINE
  5
F6C6D
  8
OBJECT
 10
393.2660259999999
 20
4.6188020000000014
 30
0.0
 11
385.59484300000008
 21
4.6188020000000014
 31
0.0
  0
LINE
  5
F6C6E
  8
OBJECT
 10
393.2660259999999
 20
-4.6188020000000147
 30
0.0
 11
385.59484300000008
 21
-4.6188020000000147
 31
0.0
  0
ARC
  5
F6C6F
  8
OBJECT
 10
399.86602599999992
 20
0.0
 30
0.0
 40
15.0
 50
162.06606699999921
 51
197.93393300000071
  0
ARC
  5
F6C70
  8
OBJECT
 10
388.88933200000002
 20
-6.9282029999999963
 30
0.0
 40
4.0233059999999981
 50
144.9699640000029
 51
215.0300359999971
  0
ARC
  5
F6C71
  8
OBJECT
 10
388.88933200000002
 20
6.9282030000000088
 30
0.0
 40
4.0233059999999981
 50
144.9699640000029
 51
215.0300359999971
  0
LINE
  5
F6C72
  8
OBJECT
 10
384.86602599999992
 20
-6.9282029999999963
 30
0.0
 11
384.86602599999992
 21
6.9282030000000088
 31
0.0
  0
LINE
  5
F6C73
  8
OBJECT
 10
408.26602599999978
 20
-5.0
 30
0.0
 11
414.61550499999993
 21
-5.0
 31
0.0
  0
LINE
  5
F6C74
  8
OBJECT
 10
408.26602599999978
 20
-4.1881010000000032
 30
0.0
 11
414.61550499999993
 21
-4.1881010000000032
 31
0.0
  0
LINE
  5
F6C75
  8
OBJECT
 10
408.26602599999978
 20
5.0
 30
0.0
 11
414.61550499999993
 21
5.0
 31
0.0
  0
LINE
  5
F6C76
  8
OBJECT
 10
408.26602599999978
 20
4.1881010000000174
 30
0.0
 11
414.61550499999993
 21
4.1881010000000174
 31
0.0
  0
LINE
  5
F6C77
  8
OBJECT
 10
379.42740400000002
 20
5.0
 30
0.0
 11
384.86602599999992
 21
5.0
 31
0.0
  0
LINE
  5
F6C78
  8
OBJECT
 10
379.42740400000002
 20
5.0
 30
0.0
 11
378.61550499999998
 21
4.1881010000000174
 31
0.0
  0
LINE
  5
F6C79
  8
OBJECT
 10
378.61550499999998
 20
4.1881010000000174
 30
0.0
 11
378.61550499999998
 21
-4.1881010000000032
 31
0.0
  0
LINE
  5
F6C7A
  8
OBJECT
 10
378.61550499999998
 20
-4.1881010000000032
 30
0.0
 11
379.42740400000002
 21
-5.0
 31
0.0
  0
LINE
  5
F6C7B
  8
OBJECT
 10
379.42740400000002
 20
-5.0
 30
0.0
 11
384.86602599999992
 21
-5.0
 31
0.0
  0
LINE
  5
F6C7C
  8
OBJECT
 10
379.42740400000002
 20
-5.0
 30
0.0
 11
379.42740400000002
 21
5.0
 31
0.0
  0
LINE
  5
F6C7D
  8
OBJECT
 10
378.61550499999998
 20
-4.1881010000000032
 30
0.0
 11
384.86602599999992
 21
-4.1881010000000032
 31
0.0
  0
LINE
  5
F6C7E
  8
OBJECT
 10
378.61550499999998
 20
4.1881010000000174
 30
0.0
 11
384.86602599999992
 21
4.1881010000000174
 31
0.0
  0
LINE
  5
F6C7F
  8
OBJECT
 10
393.2660259999999
 20
-60.0
 30
0.0
 11
393.2660259999999
 21
60.0
 31
0.0
  0
LINE
  5
F6C80
  8
OBJECT
 10
408.26602599999978
 20
552.49746000000005
 30
0.0
 11
395.2660259999999
 21
552.49746000000005
 31
0.0
  0
LINE
  5
F6C81
  8
OBJECT
 10
408.26602599999978
 20
402.49745999999999
 30
0.0
 11
395.2660259999999
 21
402.49745999999999
 31
0.0
  0
ARC
  5
F6C82
  8
OBJECT
 10
395.2660259999999
 20
550.49745999999971
 30
0.0
 40
2.0
 50
90.0
 51
180.0
  0
ARC
  5
F6C83
  8
OBJECT
 10
395.2660259999999
 20
404.49745999999988
 30
0.0
 40
2.0
 50
180.0
 51
270.0
  0
LINE
  5
F6C84
  8
OBJECT
 10
408.26602599999978
 20
-60.0
 30
0.0
 11
408.26602599999978
 21
60.0
 31
0.0
  0
LINE
  5
F6C85
  8
OBJECT
 10
393.2660259999999
 20
545.49746000000005
 30
0.0
 11
393.2660259999999
 21
550.49745999999971
 31
0.0
  0
LINE
  5
F6C86
  8
OBJECT
 10
408.26602599999978
 20
528.49746000000005
 30
0.0
 11
414.61550499999993
 21
528.49746000000005
 31
0.0
  0
LINE
  5
F6C87
  8
OBJECT
 10
408.26602599999978
 20
426.49745999999999
 30
0.0
 11
414.61550499999993
 21
426.49745999999999
 31
0.0
  0
LINE
  5
F6C88
  8
OBJECT
 10
408.26602599999978
 20
51.0
 30
0.0
 11
414.61550499999993
 21
51.0
 31
0.0
  0
LINE
  5
F6C89
  8
OBJECT
 10
408.26602599999978
 20
-50.999999999999972
 30
0.0
 11
414.61550499999993
 21
-50.999999999999972
 31
0.0
  0
LINE
  5
F6C8A
  8
OBJECT
 10
408.26602599999978
 20
402.49745999999999
 30
0.0
 11
408.26602599999978
 21
552.49746000000005
 31
0.0
  0
LINE
  5
F6C8B
  8
OBJECT
 10
393.2660259999999
 20
535.49746000000005
 30
0.0
 11
393.2660259999999
 21
404.49745999999988
 31
0.0
  0
LINE
  5
F6C8C
  8
OBJECT
 10
572.61550499999998
 20
430.99745999999999
 30
0.0
 11
572.61550499999998
 21
379.864957
 31
0.0
  0
LINE
  5
F6C8D
  8
CENTER
 10
602.61550499999987
 20
48.080679000000011
 30
0.0
 11
602.61550499999987
 21
-65.426647000000017
 31
0.0
  0
LINE
  5
F6C8E
  8
CENTER
 10
637.61550499999998
 20
48.774535
 30
0.0
 11
637.61550499999998
 21
-65.722977999999998
 31
0.0
  0
LINE
  5
F6C8F
  8
CENTER
 10
517.61550499999998
 20
-51.68172100000001
 30
0.0
 11
517.61550499999998
 21
74.588127
 31
0.0
  0
LINE
  5
F6C90
  8
CENTER
 10
482.61550499999993
 20
-49.09219199999999
 30
0.0
 11
482.61550499999993
 21
48.587561000000001
 31
0.0
  0
LINE
  5
F6C91
  8
OBJECT
 10
428.61550499999993
 20
4.6188020000000014
 30
0.0
 11
428.74608099999989
 21
4.6188020000000014
 31
0.0
  0
LINE
  5
F6C92
  8
OBJECT
 10
428.61550499999993
 20
-4.6188020000000147
 30
0.0
 11
428.74608099999989
 21
-4.6188020000000147
 31
0.0
  0
LINE
  5
F6C93
  8
OBJECT
 10
428.61550499999993
 20
-9.2376049999999896
 30
0.0
 11
432.22347299999979
 21
-9.2376049999999896
 31
0.0
  0
LINE
  5
F6C94
  8
OBJECT
 10
428.61550499999993
 20
-9.2376049999999896
 30
0.0
 11
428.61550499999993
 21
-4.358898999999993
 31
0.0
  0
LINE
  5
F6C95
  8
OBJECT
 10
428.61550499999993
 20
9.2376040000000028
 30
0.0
 11
432.22347299999979
 21
9.2376040000000028
 31
0.0
  0
LINE
  5
F6C96
  8
OBJECT
 10
428.61550499999993
 20
4.358898999999993
 30
0.0
 11
428.61550499999993
 21
12.0
 31
0.0
  0
LINE
  5
F6C97
  8
OBJECT
 10
428.61550499999993
 20
4.6188020000000014
 30
0.0
 11
428.61550499999993
 21
9.2376040000000028
 31
0.0
  0
LINE
  5
F6C98
  8
OBJECT
 10
447.61550499999998
 20
28.284271000000011
 30
0.0
 11
429.83772699999992
 21
6.2853930000000124
 31
0.0
  0
ARC
  5
F6C99
  8
OBJECT
 10
482.61550499999993
 20
0.0
 30
0.0
 40
45.0
 50
38.94244100000229
 51
141.0575589999977
  0
LINE
  5
F6C9A
  8
OBJECT
 10
447.61550499999998
 20
-28.284272000000001
 30
0.0
 11
429.83772699999992
 21
-6.285394000000009
 31
0.0
  0
ARC
  5
F6C9B
  8
CENTER
 10
482.61550499999993
 20
0.0
 30
0.0
 40
45.0
 50
166.3181290000002
 51
190.1388999999995
  0
CIRCLE
  5
F6C9C
  8
OBJECT
 10
482.61550499999993
 20
0.0
 30
0.0
 40
31.5
  0
ARC
  5
F6C9D
  8
OBJECT
 10
482.61550499999993
 20
0.0
 30
0.0
 40
38.0
 50
26.10359100000267
 51
153.89640899999731
  0
ARC
  5
F6C9E
  8
OBJECT
 10
482.61550499999993
 20
0.0
 30
0.0
 40
45.0
 50
218.9424410000023
 51
321.0575589999977
  0
ARC
  5
F6C9F
  8
OBJECT
 10
437.61550499999998
 20
0.0
 30
0.0
 40
10.0
 50
89.739564000000655
 51
270.26043599999929
  0
ARC
  5
F6CA0
  8
OBJECT
 10
482.61550499999993
 20
0.0
 30
0.0
 40
38.0
 50
206.10359100000269
 51
333.89640899999728
  0
ARC
  5
F6CA1
  8
OBJECT
 10
437.71550499999989
 20
-21.99977299999999
 30
0.0
 40
12.0
 50
26.10359100000267
 51
90.260435999999345
  0
ARC
  5
F6CA2
  8
OBJECT
 10
437.71550499999989
 20
21.999772000000011
 30
0.0
 40
12.0
 50
269.7395640000006
 51
333.89640899999728
  0
ARC
  5
F6CA3
  8
OBJECT
 10
527.51550500000008
 20
-21.99977299999999
 30
0.0
 40
12.0
 50
89.739564000000655
 51
153.89640899999731
  0
ARC
  5
F6CA4
  8
OBJECT
 10
527.51550500000008
 20
21.999772000000011
 30
0.0
 40
12.0
 50
206.10359100000269
 51
270.26043599999929
  0
LINE
  5
F6CA5
  8
OBJECT
 10
517.61550499999998
 20
28.284271000000011
 30
0.0
 11
535.39328199999977
 21
6.2853930000000124
 31
0.0
  0
LINE
  5
F6CA6
  8
OBJECT
 10
517.61550499999998
 20
-28.284272000000001
 30
0.0
 11
535.39328199999977
 21
-6.285394000000009
 31
0.0
  0
ARC
  5
F6CA7
  8
CENTER
 10
482.61550499999993
 20
0.0
 30
0.0
 40
45.0
 50
349.86110000000042
 51
13.68187099999977
  0
ARC
  5
F6CA8
  8
OBJECT
 10
527.61550499999976
 20
0.0
 30
0.0
 40
10.0
 50
269.7395640000006
 51
90.260435999999345
  0
CIRCLE
  5
F6CA9
  8
OBJECT
 10
437.61550499999998
 20
0.0
 30
0.0
 40
3.3234180000000002
  0
CIRCLE
  5
F6CAA
  8
OBJECT
 10
437.61550499999998
 20
0.0
 30
0.0
 40
4.0
  0
CIRCLE
  5
F6CAB
  8
OBJECT
 10
437.61550499999998
 20
0.0
 30
0.0
 40
6.5
  0
LINE
  5
F6CAC
  8
OBJECT
 10
433.86272799999989
 20
6.5
 30
0.0
 11
430.10995099999991
 21
0.0
 31
0.0
  0
LINE
  5
F6CAD
  8
OBJECT
 10
441.36828099999991
 20
6.5
 30
0.0
 11
433.86272799999989
 21
6.5
 31
0.0
  0
LINE
  5
F6CAE
  8
OBJECT
 10
445.12105799999989
 20
0.0
 30
0.0
 11
441.36828099999991
 21
6.5
 31
0.0
  0
LINE
  5
F6CAF
  8
OBJECT
 10
441.36828099999991
 20
-6.5
 30
0.0
 11
445.12105799999989
 21
0.0
 31
0.0
  0
LINE
  5
F6CB0
  8
OBJECT
 10
433.86272799999989
 20
-6.5
 30
0.0
 11
441.36828099999991
 21
-6.5
 31
0.0
  0
LINE
  5
F6CB1
  8
OBJECT
 10
430.10995099999991
 20
0.0
 30
0.0
 11
433.86272799999989
 21
-6.5
 31
0.0
  0
CIRCLE
  5
F6CB2
  8
OBJECT
 10
527.61550499999976
 20
0.0
 30
0.0
 40
3.3234180000000002
  0
CIRCLE
  5
F6CB3
  8
OBJECT
 10
527.61550499999976
 20
0.0
 30
0.0
 40
4.0
  0
CIRCLE
  5
F6CB4
  8
OBJECT
 10
527.61550499999976
 20
0.0
 30
0.0
 40
6.5
  0
LINE
  5
F6CB5
  8
OBJECT
 10
523.86272800000006
 20
6.5
 30
0.0
 11
520.10995099999968
 21
0.0
 31
0.0
  0
LINE
  5
F6CB6
  8
OBJECT
 10
531.36828099999991
 20
6.5
 30
0.0
 11
523.86272800000006
 21
6.5
 31
0.0
  0
LINE
  5
F6CB7
  8
OBJECT
 10
535.12105799999995
 20
0.0
 30
0.0
 11
531.36828099999991
 21
6.5
 31
0.0
  0
LINE
  5
F6CB8
  8
OBJECT
 10
531.36828099999991
 20
-6.5
 30
0.0
 11
535.12105799999995
 21
0.0
 31
0.0
  0
LINE
  5
F6CB9
  8
OBJECT
 10
523.86272800000006
 20
-6.5
 30
0.0
 11
531.36828099999991
 21
-6.5
 31
0.0
  0
LINE
  5
F6CBA
  8
OBJECT
 10
520.10995099999968
 20
0.0
 30
0.0
 11
523.86272800000006
 21
-6.5
 31
0.0
  0
CIRCLE
  5
F6CBB
  8
OBJECT
 10
482.61550499999993
 20
0.0
 30
0.0
 40
25.5
  0
LINE
  5
F6CBC
  8
OBJECT
 10
567.61550499999998
 20
28.284271000000011
 30
0.0
 11
549.83772699999986
 21
6.2853930000000124
 31
0.0
  0
ARC
  5
F6CBD
  8
OBJECT
 10
602.61550499999987
 20
0.0
 30
0.0
 40
45.0
 50
38.94244100000229
 51
141.0575589999977
  0
LINE
  5
F6CBE
  8
OBJECT
 10
567.61550499999998
 20
-28.284272000000001
 30
0.0
 11
549.83772699999986
 21
-6.285394000000009
 31
0.0
  0
ARC
  5
F6CBF
  8
CENTER
 10
602.61550499999987
 20
0.0
 30
0.0
 40
45.0
 50
166.3181290000002
 51
190.1388999999995
  0
CIRCLE
  5
F6CC0
  8
OBJECT
 10
602.61550499999987
 20
0.0
 30
0.0
 40
31.5
  0
ARC
  5
F6CC1
  8
OBJECT
 10
602.61550499999987
 20
0.0
 30
0.0
 40
38.0
 50
26.10359100000267
 51
153.89640899999731
  0
ARC
  5
F6CC2
  8
OBJECT
 10
602.61550499999987
 20
0.0
 30
0.0
 40
45.0
 50
218.9424410000023
 51
321.0575589999977
  0
ARC
  5
F6CC3
  8
OBJECT
 10
557.6155050000001
 20
0.0
 30
0.0
 40
10.0
 50
89.739564000000655
 51
270.26043599999929
  0
ARC
  5
F6CC4
  8
OBJECT
 10
602.61550499999987
 20
0.0
 30
0.0
 40
38.0
 50
206.10359100000269
 51
333.89640899999728
  0
ARC
  5
F6CC5
  8
OBJECT
 10
557.71550500000001
 20
-21.99977299999999
 30
0.0
 40
12.0
 50
26.10359100000267
 51
90.260435999999345
  0
ARC
  5
F6CC6
  8
OBJECT
 10
557.71550500000001
 20
21.999772000000011
 30
0.0
 40
12.0
 50
269.7395640000006
 51
333.89640899999728
  0
ARC
  5
F6CC7
  8
OBJECT
 10
647.51550499999985
 20
-21.99977299999999
 30
0.0
 40
12.0
 50
89.739564000000655
 51
153.89640899999731
  0
ARC
  5
F6CC8
  8
OBJECT
 10
647.51550499999985
 20
21.999772000000011
 30
0.0
 40
12.0
 50
206.10359100000269
 51
270.26043599999929
  0
LINE
  5
F6CC9
  8
OBJECT
 10
637.61550499999998
 20
28.284271000000011
 30
0.0
 11
655.39328199999977
 21
6.2853930000000124
 31
0.0
  0
LINE
  5
F6CCA
  8
OBJECT
 10
637.61550499999998
 20
-28.284272000000001
 30
0.0
 11
655.39328199999977
 21
-6.285394000000009
 31
0.0
  0
ARC
  5
F6CCB
  8
CENTER
 10
602.61550499999987
 20
0.0
 30
0.0
 40
45.0
 50
349.86110000000042
 51
13.68187099999977
  0
ARC
  5
F6CCC
  8
OBJECT
 10
647.61550499999998
 20
0.0
 30
0.0
 40
10.0
 50
269.7395640000006
 51
90.260435999999345
  0
CIRCLE
  5
F6CCD
  8
OBJECT
 10
557.6155050000001
 20
0.0
 30
0.0
 40
3.3234180000000002
  0
CIRCLE
  5
F6CCE
  8
OBJECT
 10
557.6155050000001
 20
0.0
 30
0.0
 40
4.0
  0
CIRCLE
  5
F6CCF
  8
OBJECT
 10
557.6155050000001
 20
0.0
 30
0.0
 40
6.5
  0
LINE
  5
F6CD0
  8
OBJECT
 10
553.86272800000006
 20
6.5
 30
0.0
 11
550.10995099999991
 21
0.0
 31
0.0
  0
LINE
  5
F6CD1
  8
OBJECT
 10
561.36828099999991
 20
6.5
 30
0.0
 11
553.86272800000006
 21
6.5
 31
0.0
  0
LINE
  5
F6CD2
  8
OBJECT
 10
565.12105799999995
 20
0.0
 30
0.0
 11
561.36828099999991
 21
6.5
 31
0.0
  0
LINE
  5
F6CD3
  8
OBJECT
 10
561.36828099999991
 20
-6.5
 30
0.0
 11
565.12105799999995
 21
0.0
 31
0.0
  0
LINE
  5
F6CD4
  8
OBJECT
 10
553.86272800000006
 20
-6.5
 30
0.0
 11
561.36828099999991
 21
-6.5
 31
0.0
  0
LINE
  5
F6CD5
  8
OBJECT
 10
550.10995099999991
 20
0.0
 30
0.0
 11
553.86272800000006
 21
-6.5
 31
0.0
  0
CIRCLE
  5
F6CD6
  8
OBJECT
 10
647.61550499999998
 20
0.0
 30
0.0
 40
3.3234180000000002
  0
CIRCLE
  5
F6CD7
  8
OBJECT
 10
647.61550499999998
 20
0.0
 30
0.0
 40
4.0
  0
CIRCLE
  5
F6CD8
  8
OBJECT
 10
647.61550499999998
 20
0.0
 30
0.0
 40
6.5
  0
LINE
  5
F6CD9
  8
OBJECT
 10
643.86272799999995
 20
6.5
 30
0.0
 11
640.1099509999998
 21
0.0
 31
0.0
  0
LINE
  5
F6CDA
  8
OBJECT
 10
651.36828099999968
 20
6.5
 30
0.0
 11
643.86272799999995
 21
6.5
 31
0.0
  0
LINE
  5
F6CDB
  8
OBJECT
 10
655.12105799999995
 20
0.0
 30
0.0
 11
651.36828099999968
 21
6.5
 31
0.0
  0
LINE
  5
F6CDC
  8
OBJECT
 10
651.36828099999968
 20
-6.5
 30
0.0
 11
655.12105799999995
 21
0.0
 31
0.0
  0
LINE
  5
F6CDD
  8
OBJECT
 10
643.86272799999995
 20
-6.5
 30
0.0
 11
651.36828099999968
 21
-6.5
 31
0.0
  0
LINE
  5
F6CDE
  8
OBJECT
 10
640.1099509999998
 20
0.0
 30
0.0
 11
643.86272799999995
 21
-6.5
 31
0.0
  0
CIRCLE
  5
F6CDF
  8
OBJECT
 10
602.61550499999987
 20
0.0
 30
0.0
 40
25.5
  0
LINE
  5
F6CE0
  8
OBJECT
 10
657.6155050000001
 20
347.49745999999999
 30
0.0
 11
547.61550499999998
 21
347.49745999999999
 31
0.0
  0
LINE
  5
F6CE1
  8
OBJECT
 10
567.61550499999998
 20
342.36035199999998
 30
0.0
 11
567.61550499999998
 21
347.49745999999999
 31
0.0
  0
LINE
  5
F6CE2
  8
OBJECT
 10
547.61550499999998
 20
341.36035199999998
 30
0.0
 11
657.6155050000001
 21
341.36035199999998
 31
0.0
  0
LINE
  5
F6CE3
  8
OBJECT
 10
567.61550499999998
 20
342.36035199999998
 30
0.0
 11
637.61550499999998
 21
342.36035199999998
 31
0.0
  0
LINE
  5
F6CE4
  8
OBJECT
 10
637.61550499999998
 20
342.36035199999998
 30
0.0
 11
637.61550499999998
 21
347.49745999999999
 31
0.0
  0
LINE
  5
F6CE5
  8
OBJECT
 10
547.61550499999998
 20
328.36035199999998
 30
0.0
 11
553.61550499999976
 21
328.36035199999998
 31
0.0
  0
LINE
  5
F6CE6
  8
OBJECT
 10
547.61550499999998
 20
347.49745999999999
 30
0.0
 11
547.61550499999998
 21
357.49745999999999
 31
0.0
  0
LINE
  5
F6CE7
  8
OBJECT
 10
549.6155050000001
 20
359.49745999999999
 30
0.0
 11
655.61550499999998
 21
359.49745999999999
 31
0.0
  0
LINE
  5
F6CE8
  8
OBJECT
 10
657.6155050000001
 20
328.36035199999998
 30
0.0
 11
651.61550499999998
 21
328.36035199999998
 31
0.0
  0
LINE
  5
F6CE9
  8
OBJECT
 10
657.6155050000001
 20
347.49745999999999
 30
0.0
 11
657.6155050000001
 21
357.49745999999999
 31
0.0
  0
LINE
  5
F6CEA
  8
OBJECT
 10
566.11550499999976
 20
370.49745999999999
 30
0.0
 11
566.11550499999976
 21
361.49745999999999
 31
0.0
  0
LINE
  5
F6CEB
  8
OBJECT
 10
639.11550499999998
 20
370.49745999999999
 30
0.0
 11
639.11550499999998
 21
361.49745999999999
 31
0.0
  0
ARC
  5
F6CEC
  8
OBJECT
 10
634.11550499999998
 20
370.49745999999999
 30
0.0
 40
5.0
 50
0.0
 51
69.512685000003003
  0
ARC
  5
F6CED
  8
OBJECT
 10
571.11550499999998
 20
370.49745999999999
 30
0.0
 40
5.0
 50
110.487314999997
 51
180.0
  0
ARC
  5
F6CEE
  8
OBJECT
 10
564.11550499999998
 20
361.49745999999999
 30
0.0
 40
2.0
 50
270.0
 51
0.0
  0
ARC
  5
F6CEF
  8
OBJECT
 10
641.1155050000001
 20
361.49745999999999
 30
0.0
 40
2.0
 50
180.0
 51
270.0
  0
ARC
  5
F6CF0
  8
OBJECT
 10
549.6155050000001
 20
357.49745999999999
 30
0.0
 40
2.0
 50
90.0
 51
180.0
  0
ARC
  5
F6CF1
  8
OBJECT
 10
655.61550499999998
 20
357.49745999999999
 30
0.0
 40
2.0
 50
0.0
 51
90.0
  0
ARC
  5
F6CF2
  8
OBJECT
 10
567.61550499999998
 20
379.864957
 30
0.0
 40
5.0
 50
290.48731499999701
 51
0.0
  0
ARC
  5
F6CF3
  8
OBJECT
 10
637.61550499999998
 20
379.864957
 30
0.0
 40
5.0
 50
180.0
 51
249.51268500000299
  0
LINE
  5
F6CF4
  8
OBJECT
 10
569.36550499999998
 20
375.18120900000002
 30
0.0
 11
635.86550499999998
 21
375.18120900000002
 31
0.0
  0
LINE
  5
F6CF5
  8
OBJECT
 10
547.61550499999998
 20
328.36035199999998
 30
0.0
 11
547.61550499999998
 21
341.36035199999998
 31
0.0
  0
LINE
  5
F6CF6
  8
OBJECT
 10
657.6155050000001
 20
328.36035199999998
 30
0.0
 11
657.6155050000001
 21
341.36035199999998
 31
0.0
  0
LINE
  5
F6CF7
  8
OBJECT
 10
570.49956699999996
 20
342.36035199999998
 30
0.0
 11
569.49956699999996
 21
341.36035199999998
 31
0.0
  0
LINE
  5
F6CF8
  8
OBJECT
 10
634.73144300000013
 20
342.36035199999998
 30
0.0
 11
635.73144300000013
 21
341.36035199999998
 31
0.0
  0
LINE
  5
F6CF9
  8
OBJECT
 10
643.61550499999987
 20
328.36035199999998
 30
0.0
 11
556.40304199999991
 21
328.36035199999998
 31
0.0
  0
LINE
  5
F6CFA
  8
OBJECT
 10
551.98633899999982
 20
321.56035200000002
 30
0.0
 11
563.24467000000016
 21
321.56035200000002
 31
0.0
  0
ARC
  5
F6CFB
  8
OBJECT
 10
563.24467000000016
 20
324.78606400000001
 30
0.0
 40
3.2257129999999989
 50
234.42998999999989
 51
305.57001000000008
  0
ARC
  5
F6CFC
  8
OBJECT
 10
551.98633899999982
 20
324.78606400000001
 30
0.0
 40
3.2257129999999989
 50
234.42998999999989
 51
305.57001000000008
  0
ARC
  5
F6CFD
  8
OBJECT
 10
557.6155050000001
 20
333.56035200000002
 30
0.0
 40
12.0
 50
251.7760860000021
 51
288.22391399999788
  0
LINE
  5
F6CFE
  8
OBJECT
 10
553.86272800000006
 20
328.36035199999998
 30
0.0
 11
553.86272800000006
 21
322.16225200000002
 31
0.0
  0
LINE
  5
F6CFF
  8
OBJECT
 10
561.36828099999991
 20
328.36035199999998
 30
0.0
 11
561.36828099999991
 21
322.16225200000002
 31
0.0
  0
LINE
  5
F6D00
  8
OBJECT
 10
550.10995099999991
 20
328.36035199999998
 30
0.0
 11
550.10995099999991
 21
322.16225200000002
 31
0.0
  0
LINE
  5
F6D01
  8
OBJECT
 10
565.12105799999995
 20
328.36035199999998
 30
0.0
 11
550.10995099999991
 21
328.36035199999998
 31
0.0
  0
LINE
  5
F6D02
  8
OBJECT
 10
565.12105799999995
 20
322.16225200000002
 30
0.0
 11
565.12105799999995
 21
328.36035199999998
 31
0.0
  0
LINE
  5
F6D03
  8
OBJECT
 10
640.1099509999998
 20
322.16225200000002
 30
0.0
 11
640.1099509999998
 21
328.36035199999998
 31
0.0
  0
LINE
  5
F6D04
  8
OBJECT
 10
640.1099509999998
 20
328.36035199999998
 30
0.0
 11
655.12105799999995
 21
328.36035199999998
 31
0.0
  0
LINE
  5
F6D05
  8
OBJECT
 10
655.12105799999995
 20
328.36035199999998
 30
0.0
 11
655.12105799999995
 21
322.16225200000002
 31
0.0
  0
LINE
  5
F6D06
  8
OBJECT
 10
643.86272799999995
 20
328.36035199999998
 30
0.0
 11
643.86272799999995
 21
322.16225200000002
 31
0.0
  0
LINE
  5
F6D07
  8
OBJECT
 10
651.36828099999968
 20
328.36035199999998
 30
0.0
 11
651.36828099999968
 21
322.16225200000002
 31
0.0
  0
ARC
  5
F6D08
  8
OBJECT
 10
647.61550499999998
 20
333.56035200000002
 30
0.0
 40
12.0
 50
251.7760860000021
 51
288.22391399999788
  0
ARC
  5
F6D09
  8
OBJECT
 10
653.24467000000016
 20
324.78606400000001
 30
0.0
 40
3.2257129999999989
 50
234.42998999999989
 51
305.57001000000008
  0
ARC
  5
F6D0A
  8
OBJECT
 10
641.9863389999997
 20
324.78606400000001
 30
0.0
 40
3.2257129999999989
 50
234.42998999999989
 51
305.57001000000008
  0
LINE
  5
F6D0B
  8
OBJECT
 10
653.24467000000016
 20
321.56035200000002
 30
0.0
 11
641.9863389999997
 21
321.56035200000002
 31
0.0
  0
LINE
  5
F6D0C
  8
OBJECT
 10
537.6155050000001
 20
347.49745999999999
 30
0.0
 11
427.61550499999981
 21
347.49745999999999
 31
0.0
  0
LINE
  5
F6D0D
  8
OBJECT
 10
447.61550499999998
 20
342.36035199999998
 30
0.0
 11
447.61550499999998
 21
347.49745999999999
 31
0.0
  0
LINE
  5
F6D0E
  8
OBJECT
 10
427.61550499999981
 20
341.36035199999998
 30
0.0
 11
537.6155050000001
 21
341.36035199999998
 31
0.0
  0
LINE
  5
F6D0F
  8
OBJECT
 10
447.61550499999998
 20
342.36035199999998
 30
0.0
 11
517.61550499999998
 21
342.36035199999998
 31
0.0
  0
LINE
  5
F6D10
  8
OBJECT
 10
517.61550499999998
 20
342.36035199999998
 30
0.0
 11
517.61550499999998
 21
347.49745999999999
 31
0.0
  0
LINE
  5
F6D11
  8
OBJECT
 10
427.61550499999981
 20
328.36035199999998
 30
0.0
 11
433.61550499999998
 21
328.36035199999998
 31
0.0
  0
LINE
  5
F6D12
  8
OBJECT
 10
427.61550499999981
 20
347.49745999999999
 30
0.0
 11
427.61550499999981
 21
357.49745999999999
 31
0.0
  0
LINE
  5
F6D13
  8
OBJECT
 10
429.61550499999998
 20
359.49745999999999
 30
0.0
 11
535.61550499999987
 21
359.49745999999999
 31
0.0
  0
LINE
  5
F6D14
  8
OBJECT
 10
537.6155050000001
 20
328.36035199999998
 30
0.0
 11
531.61550499999987
 21
328.36035199999998
 31
0.0
  0
LINE
  5
F6D15
  8
OBJECT
 10
537.6155050000001
 20
347.49745999999999
 30
0.0
 11
537.6155050000001
 21
357.49745999999999
 31
0.0
  0
LINE
  5
F6D16
  8
OBJECT
 10
519.11550499999987
 20
370.49745999999999
 30
0.0
 11
519.11550499999987
 21
361.49745999999999
 31
0.0
  0
ARC
  5
F6D17
  8
OBJECT
 10
514.11550499999998
 20
370.49745999999999
 30
0.0
 40
5.0
 50
0.0
 51
69.512685000003003
  0
ARC
  5
F6D18
  8
OBJECT
 10
451.11550499999998
 20
370.49745999999999
 30
0.0
 40
5.0
 50
110.487314999997
 51
180.0
  0
ARC
  5
F6D19
  8
OBJECT
 10
444.11550499999981
 20
361.49745999999999
 30
0.0
 40
2.0
 50
270.0
 51
0.0
  0
ARC
  5
F6D1A
  8
OBJECT
 10
521.11550499999998
 20
361.49745999999999
 30
0.0
 40
2.0
 50
180.0
 51
270.0
  0
ARC
  5
F6D1B
  8
OBJECT
 10
429.61550499999998
 20
357.49745999999999
 30
0.0
 40
2.0
 50
90.0
 51
180.0
  0
ARC
  5
F6D1C
  8
OBJECT
 10
535.61550499999987
 20
357.49745999999999
 30
0.0
 40
2.0
 50
0.0
 51
90.0
  0
ARC
  5
F6D1D
  8
OBJECT
 10
447.61550499999998
 20
379.864957
 30
0.0
 40
5.0
 50
290.48731499999701
 51
0.0
  0
ARC
  5
F6D1E
  8
OBJECT
 10
517.61550499999998
 20
379.864957
 30
0.0
 40
5.0
 50
180.0
 51
249.51268500000299
  0
LINE
  5
F6D1F
  8
OBJECT
 10
449.36550499999998
 20
375.18120900000002
 30
0.0
 11
515.86550499999998
 21
375.18120900000002
 31
0.0
  0
LINE
  5
F6D20
  8
OBJECT
 10
427.61550499999981
 20
328.36035199999998
 30
0.0
 11
427.61550499999981
 21
341.36035199999998
 31
0.0
  0
LINE
  5
F6D21
  8
OBJECT
 10
537.6155050000001
 20
328.36035199999998
 30
0.0
 11
537.6155050000001
 21
341.36035199999998
 31
0.0
  0
LINE
  5
F6D22
  8
CENTER
 10
437.61550499999998
 20
308.35519599999998
 30
0.0
 11
437.61550499999998
 21
369.001238
 31
0.0
  0
LINE
  5
F6D23
  8
OBJECT
 10
450.49956699999967
 20
342.36035199999998
 30
0.0
 11
449.49956699999979
 21
341.36035199999998
 31
0.0
  0
LINE
  5
F6D24
  8
OBJECT
 10
514.73144300000013
 20
342.36035199999998
 30
0.0
 11
515.73144300000013
 21
341.36035199999998
 31
0.0
  0
LINE
  5
F6D25
  8
OBJECT
 10
523.61550499999987
 20
328.36035199999998
 30
0.0
 11
436.4030419999998
 21
328.36035199999998
 31
0.0
  0
LINE
  5
F6D26
  8
OBJECT
 10
445.12105799999989
 20
322.16225200000002
 30
0.0
 11
445.12105799999989
 21
328.36035199999998
 31
0.0
  0
LINE
  5
F6D27
  8
OBJECT
 10
445.12105799999989
 20
328.36035199999998
 30
0.0
 11
430.10995099999991
 21
328.36035199999998
 31
0.0
  0
LINE
  5
F6D28
  8
OBJECT
 10
430.10995099999991
 20
328.36035199999998
 30
0.0
 11
430.10995099999991
 21
322.16225200000002
 31
0.0
  0
LINE
  5
F6D29
  8
OBJECT
 10
441.36828099999991
 20
328.36035199999998
 30
0.0
 11
441.36828099999991
 21
322.16225200000002
 31
0.0
  0
LINE
  5
F6D2A
  8
OBJECT
 10
433.86272799999989
 20
328.36035199999998
 30
0.0
 11
433.86272799999989
 21
322.16225200000002
 31
0.0
  0
ARC
  5
F6D2B
  8
OBJECT
 10
437.61550499999998
 20
333.56035200000002
 30
0.0
 40
12.0
 50
251.7760860000021
 51
288.22391399999788
  0
ARC
  5
F6D2C
  8
OBJECT
 10
431.98633899999987
 20
324.78606400000001
 30
0.0
 40
3.2257129999999989
 50
234.42998999999989
 51
305.57001000000008
  0
ARC
  5
F6D2D
  8
OBJECT
 10
443.2446700000001
 20
324.78606400000001
 30
0.0
 40
3.2257129999999989
 50
234.42998999999989
 51
305.57001000000008
  0
LINE
  5
F6D2E
  8
OBJECT
 10
431.98633899999987
 20
321.56035200000002
 30
0.0
 11
443.2446700000001
 21
321.56035200000002
 31
0.0
  0
LINE
  5
F6D2F
  8
OBJECT
 10
533.24467000000004
 20
321.56035200000002
 30
0.0
 11
521.98633900000004
 21
321.56035200000002
 31
0.0
  0
ARC
  5
F6D30
  8
OBJECT
 10
521.98633900000004
 20
324.78606400000001
 30
0.0
 40
3.2257129999999989
 50
234.42998999999989
 51
305.57001000000008
  0
ARC
  5
F6D31
  8
OBJECT
 10
533.24467000000004
 20
324.78606400000001
 30
0.0
 40
3.2257129999999989
 50
234.42998999999989
 51
305.57001000000008
  0
ARC
  5
F6D32
  8
OBJECT
 10
527.61550499999976
 20
333.56035200000002
 30
0.0
 40
12.0
 50
251.7760860000021
 51
288.22391399999788
  0
LINE
  5
F6D33
  8
OBJECT
 10
531.36828099999991
 20
328.36035199999998
 30
0.0
 11
531.36828099999991
 21
322.16225200000002
 31
0.0
  0
LINE
  5
F6D34
  8
OBJECT
 10
523.86272800000006
 20
328.36035199999998
 30
0.0
 11
523.86272800000006
 21
322.16225200000002
 31
0.0
  0
LINE
  5
F6D35
  8
OBJECT
 10
535.12105799999995
 20
328.36035199999998
 30
0.0
 11
535.12105799999995
 21
322.16225200000002
 31
0.0
  0
LINE
  5
F6D36
  8
OBJECT
 10
520.10995099999968
 20
328.36035199999998
 30
0.0
 11
535.12105799999995
 21
328.36035199999998
 31
0.0
  0
LINE
  5
F6D37
  8
OBJECT
 10
520.10995099999968
 20
322.16225200000002
 30
0.0
 11
520.10995099999968
 21
328.36035199999998
 31
0.0
  0
LINE
  5
F6D38
  8
OBJECT
 10
414.61550499999993
 20
552.49746000000005
 30
0.0
 11
414.61550499999993
 21
402.49745999999999
 31
0.0
  0
LINE
  5
F6D39
  8
OBJECT
 10
636.22868599999981
 20
-29.919125000000001
 30
0.0
 11
643.59566299999994
 21
-29.070314
 31
0.0
  0
LINE
  5
F6D3A
  8
OBJECT
 10
643.59566299999994
 20
-29.070314
 30
0.0
 11
650.63826100000006
 21
-27.321722999999992
 31
0.0
  0
LINE
  5
F6D3B
  8
OBJECT
 10
650.63826100000006
 20
-27.321722999999992
 30
0.0
 11
657.13849699999969
 21
-24.727473
 31
0.0
  0
LINE
  5
F6D3C
  8
OBJECT
 10
657.13849699999969
 20
-24.727473
 30
0.0
 11
662.89517600000011
 21
-21.367863
 31
0.0
  0
LINE
  5
F6D3D
  8
OBJECT
 10
662.89517600000011
 20
-21.367863
 30
0.0
 11
667.73012000000017
 21
-17.346879000000001
 31
0.0
  0
LINE
  5
F6D3E
  8
OBJECT
 10
667.73012000000017
 20
-17.346879000000001
 30
0.0
 11
671.49367799999982
 21
-12.788976
 31
0.0
  0
LINE
  5
F6D3F
  8
OBJECT
 10
671.49367799999982
 20
-12.788976
 30
0.0
 11
674.06936099999996
 21
-7.8352309999999772
 31
0.0
  0
LINE
  5
F6D40
  8
OBJECT
 10
674.06936099999996
 20
-7.8352309999999772
 30
0.0
 11
675.37744599999985
 21
-2.6389709999999962
 31
0.0
  0
LINE
  5
F6D41
  8
OBJECT
 10
675.37744599999985
 20
-2.6389709999999962
 30
0.0
 11
675.37744599999985
 21
2.638970000000028
 31
0.0
  0
LINE
  5
F6D42
  8
OBJECT
 10
675.37744599999985
 20
2.638970000000028
 30
0.0
 11
674.06936099999996
 21
7.8352300000000081
 31
0.0
  0
LINE
  5
F6D43
  8
OBJECT
 10
674.06936099999996
 20
7.8352300000000081
 30
0.0
 11
671.49367799999982
 21
12.788975000000001
 31
0.0
  0
LINE
  5
F6D44
  8
OBJECT
 10
671.49367799999982
 20
12.788975000000001
 30
0.0
 11
667.73012000000017
 21
17.346878
 31
0.0
  0
LINE
  5
F6D45
  8
OBJECT
 10
667.73012000000017
 20
17.346878
 30
0.0
 11
662.89517600000011
 21
21.367862999999989
 31
0.0
  0
LINE
  5
F6D46
  8
OBJECT
 10
662.89517600000011
 20
21.367862999999989
 30
0.0
 11
657.13849699999969
 21
24.72747300000001
 31
0.0
  0
LINE
  5
F6D47
  8
OBJECT
 10
657.13849699999969
 20
24.72747300000001
 30
0.0
 11
650.63826100000006
 21
27.321722000000001
 31
0.0
  0
LINE
  5
F6D48
  8
OBJECT
 10
650.63826100000006
 20
27.321722000000001
 30
0.0
 11
643.59566299999994
 21
29.070312999999999
 31
0.0
  0
LINE
  5
F6D49
  8
OBJECT
 10
643.59566299999994
 20
29.070312999999999
 30
0.0
 11
636.22868599999981
 21
29.919125000000001
 31
0.0
  0
LINE
  5
F6D4A
  8
OBJECT
 10
643.59566299999994
 20
29.070312999999999
 30
0.0
 11
636.22868599999981
 21
29.919125000000001
 31
0.0
  0
LINE
  5
F6D4B
  8
OBJECT
 10
617.112979
 20
20.977921999999989
 30
0.0
 11
612.24412299999995
 21
18.121713
 31
0.0
  0
LINE
  5
F6D4C
  8
OBJECT
 10
612.24412299999995
 20
18.121713
 30
0.0
 11
608.15604699999994
 21
14.707827
 31
0.0
  0
LINE
  5
F6D4D
  8
OBJECT
 10
608.15604699999994
 20
14.707827
 30
0.0
 11
604.97455599999978
 21
10.841321000000001
 31
0.0
  0
LINE
  5
F6D4E
  8
OBJECT
 10
604.97455599999978
 20
10.841321000000001
 30
0.0
 11
602.79755900000021
 21
6.6411839999999938
 31
0.0
  0
LINE
  5
F6D4F
  8
OBJECT
 10
602.79755900000021
 20
6.6411839999999938
 30
0.0
 11
601.69204999999999
 21
2.2366719999999982
 31
0.0
  0
LINE
  5
F6D50
  8
OBJECT
 10
601.69204999999999
 20
2.2366719999999982
 30
0.0
 11
601.69204999999999
 21
-2.2366719999999982
 31
0.0
  0
LINE
  5
F6D51
  8
OBJECT
 10
601.69204999999999
 20
-2.2366719999999982
 30
0.0
 11
602.79755900000021
 21
-6.6411849999999912
 31
0.0
  0
LINE
  5
F6D52
  8
OBJECT
 10
602.79755900000021
 20
-6.6411849999999912
 30
0.0
 11
604.97455599999978
 21
-10.84132199999998
 31
0.0
  0
LINE
  5
F6D53
  8
OBJECT
 10
604.97455599999978
 20
-10.84132199999998
 30
0.0
 11
608.15604699999994
 21
-14.707826999999989
 31
0.0
  0
LINE
  5
F6D54
  8
OBJECT
 10
608.15604699999994
 20
-14.707826999999989
 30
0.0
 11
612.24412299999995
 21
-18.121714000000001
 31
0.0
  0
LINE
  5
F6D55
  8
OBJECT
 10
612.24412299999995
 20
-18.121714000000001
 30
0.0
 11
617.112979
 21
-20.977923000000001
 31
0.0
  0
LINE
  5
F6D56
  8
OBJECT
 10
612.24412299999995
 20
-18.121714000000001
 30
0.0
 11
617.112979
 21
-20.977923000000001
 31
0.0
  0
LINE
  5
F6D57
  8
OBJECT
 10
516.22868600000015
 20
-29.919125000000001
 30
0.0
 11
521.59551800000031
 21
-29.39463700000001
 31
0.0
  0
LINE
  5
F6D58
  8
OBJECT
 10
521.59551800000031
 20
-29.39463700000001
 30
0.0
 11
526.82406499999979
 21
-28.390803000000009
 31
0.0
  0
LINE
  5
F6D59
  8
OBJECT
 10
526.82406499999979
 20
-28.390803000000009
 30
0.0
 11
531.82906299999991
 21
-26.923992999999999
 31
0.0
  0
LINE
  5
F6D5A
  8
OBJECT
 10
531.82906299999991
 20
-26.923992999999999
 30
0.0
 11
536.52889400000015
 21
-25.018125999999999
 31
0.0
  0
LINE
  5
F6D5B
  8
OBJECT
 10
536.52889400000015
 20
-25.018125999999999
 30
0.0
 11
540.84691599999996
 21
-22.704281999999989
 31
0.0
  0
LINE
  5
F6D5C
  8
OBJECT
 10
540.84691599999996
 20
-22.704281999999989
 30
0.0
 11
544.71271599999977
 21
-20.020192999999988
 31
0.0
  0
LINE
  5
F6D5D
  8
OBJECT
 10
544.71271599999977
 20
-20.020192999999988
 30
0.0
 11
548.06325099999992
 21
-17.009630000000001
 31
0.0
  0
LINE
  5
F6D5E
  8
OBJECT
 10
548.06325099999992
 20
-17.009630000000001
 30
0.0
 11
550.84388399999989
 21
-13.721687000000021
 31
0.0
  0
LINE
  5
F6D5F
  8
OBJECT
 10
550.84388399999989
 20
-13.721687000000021
 30
0.0
 11
553.0092709999999
 21
-10.20997999999997
 31
0.0
  0
LINE
  5
F6D60
  8
OBJECT
 10
550.84388399999989
 20
-13.721687000000021
 30
0.0
 11
553.0092709999999
 21
-10.20997999999997
 31
0.0
  0
LINE
  5
F6D61
  8
OBJECT
 10
497.11297899999988
 20
20.977921999999989
 30
0.0
 11
492.24412299999989
 21
18.121713
 31
0.0
  0
LINE
  5
F6D62
  8
OBJECT
 10
492.24412299999989
 20
18.121713
 30
0.0
 11
488.15604699999989
 21
14.707827
 31
0.0
  0
LINE
  5
F6D63
  8
OBJECT
 10
488.15604699999989
 20
14.707827
 30
0.0
 11
484.97455600000001
 21
10.841321000000001
 31
0.0
  0
LINE
  5
F6D64
  8
OBJECT
 10
484.97455600000001
 20
10.841321000000001
 30
0.0
 11
482.79755899999981
 21
6.6411839999999938
 31
0.0
  0
LINE
  5
F6D65
  8
OBJECT
 10
482.79755899999981
 20
6.6411839999999938
 30
0.0
 11
481.69204999999988
 21
2.2366719999999982
 31
0.0
  0
LINE
  5
F6D66
  8
OBJECT
 10
481.69204999999988
 20
2.2366719999999982
 30
0.0
 11
481.69204999999988
 21
-2.2366719999999982
 31
0.0
  0
LINE
  5
F6D67
  8
OBJECT
 10
481.69204999999988
 20
-2.2366719999999982
 30
0.0
 11
482.79755899999981
 21
-6.6411849999999912
 31
0.0
  0
LINE
  5
F6D68
  8
OBJECT
 10
482.79755899999981
 20
-6.6411849999999912
 30
0.0
 11
484.97455600000001
 21
-10.84132199999998
 31
0.0
  0
LINE
  5
F6D69
  8
OBJECT
 10
484.97455600000001
 20
-10.84132199999998
 30
0.0
 11
488.15604699999989
 21
-14.707826999999989
 31
0.0
  0
LINE
  5
F6D6A
  8
OBJECT
 10
488.15604699999989
 20
-14.707826999999989
 30
0.0
 11
492.24412299999989
 21
-18.121714000000001
 31
0.0
  0
LINE
  5
F6D6B
  8
OBJECT
 10
492.24412299999989
 20
-18.121714000000001
 30
0.0
 11
497.11297899999988
 21
-20.977923000000001
 31
0.0
  0
LINE
  5
F6D6C
  8
OBJECT
 10
492.24412299999989
 20
-18.121714000000001
 30
0.0
 11
497.11297899999988
 21
-20.977923000000001
 31
0.0
  0
LINE
  5
F6D6D
  8
CENTER
 10
0.0
 20
-79.195427999999978
 30
0.0
 11
0.0
 21
83.551644999999979
 31
0.0
  0
LINE
  5
F6D6E
  8
CENTER
 10
-94.012834999999995
 20
0.0
 30
0.0
 11
173.27785199999991
 21
0.0
 31
0.0
  0
LINE
  5
F6D6F
  8
OBJECT
 10
72.237603999999919
 20
0.0
 30
0.0
 11
67.61880199999996
 21
-8.0
 31
0.0
  0
LINE
  5
F6D70
  8
OBJECT
 10
67.61880199999996
 20
-8.0
 30
0.0
 11
58.38119800000004
 21
-8.0
 31
0.0
  0
LINE
  5
F6D71
  8
OBJECT
 10
58.38119800000004
 20
-8.0
 30
0.0
 11
53.762396000000066
 21
0.0
 31
0.0
  0
LINE
  5
F6D72
  8
OBJECT
 10
53.762396000000066
 20
0.0
 30
0.0
 11
58.38119800000004
 21
8.0
 31
0.0
  0
LINE
  5
F6D73
  8
OBJECT
 10
58.38119800000004
 20
8.0
 30
0.0
 11
67.61880199999996
 21
8.0
 31
0.0
  0
LINE
  5
F6D74
  8
OBJECT
 10
67.61880199999996
 20
8.0
 30
0.0
 11
72.237603999999919
 21
0.0
 31
0.0
  0
CIRCLE
  5
F6D75
  8
OBJECT
 10
63.0
 20
0.0
 30
0.0
 40
8.0
  0
CIRCLE
  5
F6D76
  8
OBJECT
 10
63.0
 20
0.0
 30
0.0
 40
5.0
  0
CIRCLE
  5
F6D77
  8
OBJECT
 10
63.0
 20
0.0
 30
0.0
 40
4.1881009999999987
  0
LINE
  5
F6D78
  8
OBJECT
 10
-53.762396000000066
 20
0.0
 30
0.0
 11
-58.38119800000004
 21
-8.0
 31
0.0
  0
LINE
  5
F6D79
  8
OBJECT
 10
-58.38119800000004
 20
-8.0
 30
0.0
 11
-67.61880199999996
 21
-8.0
 31
0.0
  0
LINE
  5
F6D7A
  8
OBJECT
 10
-67.61880199999996
 20
-8.0
 30
0.0
 11
-72.237603999999919
 21
0.0
 31
0.0
  0
LINE
  5
F6D7B
  8
OBJECT
 10
-72.237603999999919
 20
0.0
 30
0.0
 11
-67.61880199999996
 21
8.0
 31
0.0
  0
LINE
  5
F6D7C
  8
OBJECT
 10
-67.61880199999996
 20
8.0
 30
0.0
 11
-58.38119800000004
 21
8.0
 31
0.0
  0
LINE
  5
F6D7D
  8
OBJECT
 10
-58.38119800000004
 20
8.0
 30
0.0
 11
-53.762396000000066
 21
0.0
 31
0.0
  0
CIRCLE
  5
F6D7E
  8
OBJECT
 10
-63.0
 20
0.0
 30
0.0
 40
8.0
  0
CIRCLE
  5
F6D7F
  8
OBJECT
 10
-63.0
 20
0.0
 30
0.0
 40
5.0
  0
CIRCLE
  5
F6D80
  8
OBJECT
 10
-63.0
 20
0.0
 30
0.0
 40
4.1881009999999987
  0
LINE
  5
F6D81
  8
OBJECT
 10
37.5
 20
55.0
 30
0.0
 11
28.618175999999949
 21
55.0
 31
0.0
  0
LINE
  5
F6D82
  8
OBJECT
 10
37.5
 20
55.0
 30
0.0
 11
37.80717499999993
 21
49.138758000000003
 31
0.0
  0
LINE
  5
F6D83
  8
OBJECT
 10
-37.5
 20
55.0
 30
0.0
 11
-37.80717500000015
 21
49.138758000000003
 31
0.0
  0
LINE
  5
F6D84
  8
OBJECT
 10
-28.618176000000179
 20
55.0
 30
0.0
 11
-37.5
 21
55.0
 31
0.0
  0
LINE
  5
F6D85
  8
OBJECT
 10
37.5
 20
55.0
 30
0.0
 11
28.618175999999949
 21
55.0
 31
0.0
  0
LINE
  5
F6D86
  8
OBJECT
 10
-21.908902000000118
 20
58.0
 30
0.0
 11
-37.5
 21
58.0
 31
0.0
  0
LINE
  5
F6D87
  8
OBJECT
 10
37.5
 20
58.0
 30
0.0
 11
21.908902000000118
 21
58.0
 31
0.0
  0
LINE
  5
F6D88
  8
OBJECT
 10
-37.5
 20
58.0
 30
0.0
 11
-37.5
 21
64.0
 31
0.0
  0
LINE
  5
F6D89
  8
OBJECT
 10
-37.5
 20
64.0
 30
0.0
 11
37.5
 21
64.0
 31
0.0
  0
LINE
  5
F6D8A
  8
OBJECT
 10
37.5
 20
64.0
 30
0.0
 11
37.5
 21
58.0
 31
0.0
  0
LINE
  5
F6D8B
  8
OBJECT
 10
-21.87083500000017
 20
69.300000000000011
 30
0.0
 11
-33.12916500000005
 21
69.300000000000011
 31
0.0
  0
ARC
  5
F6D8C
  8
OBJECT
 10
-33.12916500000005
 20
66.074286999999984
 30
0.0
 40
3.2257129999999989
 50
54.429989999999862
 51
125.5700100000001
  0
ARC
  5
F6D8D
  8
OBJECT
 10
-21.87083500000017
 20
66.074286999999984
 30
0.0
 40
3.2257129999999989
 50
54.429989999999862
 51
125.5700100000001
  0
ARC
  5
F6D8E
  8
OBJECT
 10
-27.5
 20
57.299999999999997
 30
0.0
 40
12.0
 50
71.776086000002124
 51
108.22391399999781
  0
LINE
  5
F6D8F
  8
OBJECT
 10
-31.252777000000151
 20
68.698098999999985
 30
0.0
 11
-31.252777000000151
 21
64.0
 31
0.0
  0
LINE
  5
F6D90
  8
OBJECT
 10
-23.74722300000008
 20
68.698098999999985
 30
0.0
 11
-23.74722300000008
 21
64.0
 31
0.0
  0
LINE
  5
F6D91
  8
OBJECT
 10
-19.994445999999918
 20
64.0
 30
0.0
 11
-19.994445999999918
 21
68.698098999999985
 31
0.0
  0
LINE
  5
F6D92
  8
OBJECT
 10
-35.005552999999971
 20
64.0
 30
0.0
 11
-19.994445999999918
 21
64.0
 31
0.0
  0
LINE
  5
F6D93
  8
OBJECT
 10
-35.005552999999971
 20
68.698098999999985
 30
0.0
 11
-35.005552999999971
 21
64.0
 31
0.0
  0
LINE
  5
F6D94
  8
OBJECT
 10
19.99444700000004
 20
68.698098999999985
 30
0.0
 11
19.99444700000004
 21
64.0
 31
0.0
  0
LINE
  5
F6D95
  8
OBJECT
 10
19.99444700000004
 20
64.0
 30
0.0
 11
35.005554000000082
 21
64.0
 31
0.0
  0
LINE
  5
F6D96
  8
OBJECT
 10
35.005554000000082
 20
64.0
 30
0.0
 11
35.005554000000082
 21
68.698098999999985
 31
0.0
  0
LINE
  5
F6D97
  8
OBJECT
 10
31.252776999999931
 20
68.698098999999985
 30
0.0
 11
31.252776999999931
 21
64.0
 31
0.0
  0
LINE
  5
F6D98
  8
OBJECT
 10
23.747222999999849
 20
68.698098999999985
 30
0.0
 11
23.747222999999849
 21
64.0
 31
0.0
  0
ARC
  5
F6D99
  8
OBJECT
 10
27.5
 20
57.299999999999997
 30
0.0
 40
12.0
 50
71.776086000002124
 51
108.22391399999781
  0
ARC
  5
F6D9A
  8
OBJECT
 10
33.12916499999983
 20
66.074286999999984
 30
0.0
 40
3.2257129999999989
 50
54.429989999999862
 51
125.5700100000001
  0
ARC
  5
F6D9B
  8
OBJECT
 10
21.870834999999929
 20
66.074286999999984
 30
0.0
 40
3.2257129999999989
 50
54.429989999999862
 51
125.5700100000001
  0
LINE
  5
F6D9C
  8
OBJECT
 10
33.12916499999983
 20
69.300000000000011
 30
0.0
 11
21.870834999999929
 21
69.300000000000011
 31
0.0
  0
LINE
  5
F6D9D
  8
OBJECT
 10
-28.618176000000179
 20
55.0
 30
0.0
 11
-37.5
 21
55.0
 31
0.0
  0
LINE
  5
F6D9E
  8
OBJECT
 10
-37.5
 20
58.0
 30
0.0
 11
-37.5
 21
55.0
 31
0.0
  0
LINE
  5
F6D9F
  8
OBJECT
 10
37.5
 20
55.0
 30
0.0
 11
28.618175999999949
 21
55.0
 31
0.0
  0
LINE
  5
F6DA0
  8
OBJECT
 10
37.5
 20
55.0
 30
0.0
 11
37.5
 21
58.0
 31
0.0
  0
LINE
  5
F6DA1
  8
OBJECT
 10
37.5
 20
58.0
 30
0.0
 11
21.908902000000118
 21
58.0
 31
0.0
  0
LINE
  5
F6DA2
  8
OBJECT
 10
-21.908902000000118
 20
58.0
 30
0.0
 11
-37.5
 21
58.0
 31
0.0
  0
LINE
  5
F6DA3
  8
OBJECT
 10
-28.618176000000179
 20
55.0
 30
0.0
 11
-37.5
 21
55.0
 31
0.0
  0
ARC
  5
F6DA4
  8
OBJECT
 10
63.0
 20
0.0
 30
0.0
 40
12.0
 50
262.6004460000035
 51
322.52800500000012
  0
LINE
  5
F6DA5
  8
OBJECT
 10
49.206348999999811
 20
37.719162000000011
 30
0.0
 11
72.523810000000125
 21
7.3004829999999989
 31
0.0
  0
ARC
  5
F6DA6
  8
CENTER
 10
0.0
 20
0.0
 30
0.0
 40
63.0
 50
350.66869900000052
 51
8.6519390000007892
  0
LINE
  5
F6DA7
  8
OBJECT
 10
49.206348999999811
 20
-37.719161999999997
 30
0.0
 11
72.523810000000125
 21
-7.3004829999999714
 31
0.0
  0
LINE
  5
F6DA8
  8
OBJECT
 10
-49.206349000000039
 20
37.719162000000011
 30
0.0
 11
-72.523809000000028
 21
7.3004829999999989
 31
0.0
  0
ARC
  5
F6DA9
  8
OBJECT
 10
0.0
 20
0.0
 30
0.0
 40
62.0
 50
217.47199499999999
 51
255.40744899999709
  0
ARC
  5
F6DAA
  8
OBJECT
 10
63.0
 20
0.0
 30
0.0
 40
12.0
 50
322.52800500000012
 51
37.471994999999879
  0
ARC
  5
F6DAB
  8
OBJECT
 10
0.0
 20
0.0
 30
0.0
 40
62.0
 50
37.471994999999879
 51
75.407448999997015
  0
LINE
  5
F6DAC
  8
OBJECT
 10
-49.206349000000039
 20
-37.719161999999997
 30
0.0
 11
-72.523809000000028
 21
-7.3004829999999714
 31
0.0
  0
ARC
  5
F6DAD
  8
OBJECT
 10
0.0
 20
0.0
 30
0.0
 40
54.0
 50
19.930942999999171
 51
160.06905700000081
  0
ARC
  5
F6DAE
  8
OBJECT
 10
63.0
 20
0.0
 30
0.0
 40
12.0
 50
37.471994999999879
 51
97.399553999996513
  0
ARC
  5
F6DAF
  8
OBJECT
 10
-63.0
 20
0.0
 30
0.0
 40
12.0
 50
217.47199499999999
 51
277.3995539999965
  0
ARC
  5
F6DB0
  8
CENTER
 10
0.0
 20
0.0
 30
0.0
 40
63.0
 50
170.7737420000006
 51
189.5548950000005
  0
ARC
  5
F6DB1
  8
OBJECT
 10
-63.0
 20
0.0
 30
0.0
 40
12.0
 50
82.600446000003501
 51
142.52800500000009
  0
ARC
  5
F6DB2
  8
OBJECT
 10
-63.0
 20
0.0
 30
0.0
 40
12.0
 50
142.52800500000009
 51
217.47199499999999
  0
ARC
  5
F6DB3
  8
OBJECT
 10
0.0
 20
0.0
 30
0.0
 40
54.0
 50
199.93094299999919
 51
340.06905700000078
  0
ARC
  5
F6DB4
  8
OBJECT
 10
-60.166667000000182
 20
-21.816787999999999
 30
0.0
 40
10.0
 50
19.930942999999171
 51
97.399553999996513
  0
ARC
  5
F6DB5
  8
OBJECT
 10
60.166666999999961
 20
-21.816787999999999
 30
0.0
 40
10.0
 50
82.600446000003501
 51
160.06905700000081
  0
ARC
  5
F6DB6
  8
OBJECT
 10
60.166666999999961
 20
21.816787000000001
 30
0.0
 40
10.0
 50
199.93094299999919
 51
277.3995539999965
  0
ARC
  5
F6DB7
  8
OBJECT
 10
-60.166667000000182
 20
21.816787000000001
 30
0.0
 40
10.0
 50
262.6004460000035
 51
340.06905700000078
  0
LINE
  5
F6DB8
  8
OBJECT
 10
130.0
 20
-44.999999999999993
 30
0.0
 11
130.0
 21
45.0
 31
0.0
  0
LINE
  5
F6DB9
  8
OBJECT
 10
97.632503000000042
 20
30.0
 30
0.0
 11
55.123479000000067
 21
30.0
 31
0.0
  0
LINE
  5
F6DBA
  8
OBJECT
 10
97.632503000000042
 20
-30.0
 30
0.0
 11
55.123479000000067
 21
-30.0
 31
0.0
  0
LINE
  5
F6DBB
  8
OBJECT
 10
102.31625200000001
 20
33.25
 30
0.0
 11
102.31625200000001
 21
-33.249999999999993
 31
0.0
  0
LINE
  5
F6DBC
  8
OBJECT
 10
122.0
 20
42.999999999999993
 30
0.0
 11
122.0
 21
18.944272000000002
 31
0.0
  0
LINE
  5
F6DBD
  8
OBJECT
 10
130.0
 20
-44.999999999999993
 30
0.0
 11
124.0
 21
-44.999999999999993
 31
0.0
  0
LINE
  5
F6DBE
  8
OBJECT
 10
130.0
 20
45.0
 30
0.0
 11
124.0
 21
45.0
 31
0.0
  0
ARC
  5
F6DBF
  8
OBJECT
 10
118.0
 20
-40.499999999999979
 30
0.0
 40
4.0
 50
0.0
 51
90.0
  0
ARC
  5
F6DC0
  8
OBJECT
 10
118.0
 20
40.499999999999993
 30
0.0
 40
4.0
 50
270.0
 51
0.0
  0
LINE
  5
F6DC1
  8
OBJECT
 10
107.0
 20
-36.499999999999993
 30
0.0
 11
118.0
 21
-36.499999999999993
 31
0.0
  0
LINE
  5
F6DC2
  8
OBJECT
 10
107.0
 20
36.5
 30
0.0
 11
118.0
 21
36.5
 31
0.0
  0
ARC
  5
F6DC3
  8
OBJECT
 10
124.0
 20
-42.999999999999979
 30
0.0
 40
2.0
 50
180.0
 51
270.0
  0
ARC
  5
F6DC4
  8
OBJECT
 10
124.0
 20
42.999999999999993
 30
0.0
 40
2.0
 50
90.0
 51
180.0
  0
ARC
  5
F6DC5
  8
OBJECT
 10
107.0
 20
31.5
 30
0.0
 40
5.0
 50
90.0
 51
159.5126849999985
  0
ARC
  5
F6DC6
  8
OBJECT
 10
97.632503000000042
 20
35.0
 30
0.0
 40
5.0
 50
270.0
 51
339.51268499999861
  0
ARC
  5
F6DC7
  8
OBJECT
 10
107.0
 20
-31.499999999999989
 30
0.0
 40
5.0
 50
200.4873150000015
 51
270.0
  0
ARC
  5
F6DC8
  8
OBJECT
 10
97.632503000000042
 20
-35.0
 30
0.0
 40
5.0
 50
20.487315000001491
 51
90.0
  0
LINE
  5
F6DC9
  8
OBJECT
 10
122.0
 20
-42.999999999999979
 30
0.0
 11
122.0
 21
-18.944272000000002
 31
0.0
  0
LINE
  5
F6DCA
  8
OBJECT
 10
135.1371089999997
 20
-35.0
 30
0.0
 11
130.0
 21
-35.0
 31
0.0
  0
LINE
  5
F6DCB
  8
OBJECT
 10
136.13710899999981
 20
45.0
 30
0.0
 11
136.13710899999981
 21
-44.999999999999993
 31
0.0
  0
LINE
  5
F6DCC
  8
OBJECT
 10
135.1371089999997
 20
-35.0
 30
0.0
 11
135.1371089999997
 21
-4.0
 31
0.0
  0
LINE
  5
F6DCD
  8
OBJECT
 10
135.1371089999997
 20
35.0
 30
0.0
 11
130.0
 21
35.0
 31
0.0
  0
LINE
  5
F6DCE
  8
OBJECT
 10
135.1371089999997
 20
-32.115938
 30
0.0
 11
136.13710899999981
 21
-33.115938
 31
0.0
  0
LINE
  5
F6DCF
  8
OBJECT
 10
135.1371089999997
 20
32.115938
 30
0.0
 11
136.13710899999981
 21
33.115938
 31
0.0
  0
LINE
  5
F6DD0
  8
OBJECT
 10
149.13710899999981
 20
-44.999999999999993
 30
0.0
 11
149.13710899999981
 21
45.0
 31
0.0
  0
LINE
  5
F6DD1
  8
OBJECT
 10
155.33520799999991
 20
7.5055530000000061
 30
0.0
 11
149.13710899999981
 21
7.5055530000000061
 31
0.0
  0
LINE
  5
F6DD2
  8
OBJECT
 10
149.13710899999981
 20
7.5055530000000061
 30
0.0
 11
149.13710899999981
 21
-7.5055540000000169
 31
0.0
  0
LINE
  5
F6DD3
  8
OBJECT
 10
149.13710899999981
 20
-7.5055540000000169
 30
0.0
 11
155.33520799999991
 21
-7.5055540000000169
 31
0.0
  0
LINE
  5
F6DD4
  8
OBJECT
 10
149.13710899999981
 20
3.7527759999999959
 30
0.0
 11
155.33520799999991
 21
3.7527759999999959
 31
0.0
  0
LINE
  5
F6DD5
  8
OBJECT
 10
149.13710899999981
 20
-3.7527769999999792
 30
0.0
 11
155.33520799999991
 21
-3.7527769999999792
 31
0.0
  0
ARC
  5
F6DD6
  8
OBJECT
 10
143.93710899999991
 20
0.0
 30
0.0
 40
12.0
 50
341.77608599999962
 51
18.223914000000448
  0
ARC
  5
F6DD7
  8
OBJECT
 10
152.71139599999981
 20
-5.6291650000000004
 30
0.0
 40
3.2257129999999989
 50
324.42999000000032
 51
35.57000999999967
  0
ARC
  5
F6DD8
  8
OBJECT
 10
152.71139599999981
 20
5.6291650000000004
 30
0.0
 40
3.2257129999999989
 50
324.42999000000032
 51
35.57000999999967
  0
LINE
  5
F6DD9
  8
OBJECT
 10
155.93710899999991
 20
-5.6291650000000004
 30
0.0
 11
155.93710899999991
 21
5.6291650000000004
 31
0.0
  0
LINE
  5
F6DDA
  8
OBJECT
 10
136.13710899999981
 20
45.0
 30
0.0
 11
149.13710899999981
 21
45.0
 31
0.0
  0
LINE
  5
F6DDB
  8
OBJECT
 10
136.13710899999981
 20
-44.999999999999993
 30
0.0
 11
149.13710899999981
 21
-44.999999999999993
 31
0.0
  0
LINE
  5
F6DDC
  8
OBJECT
 10
113.3019009999998
 20
7.5055530000000061
 30
0.0
 11
118.0
 21
7.5055530000000061
 31
0.0
  0
LINE
  5
F6DDD
  8
OBJECT
 10
118.0
 20
7.5055530000000061
 30
0.0
 11
118.0
 21
-7.5055540000000169
 31
0.0
  0
LINE
  5
F6DDE
  8
OBJECT
 10
118.0
 20
-7.5055540000000169
 30
0.0
 11
113.3019009999998
 21
-7.5055540000000169
 31
0.0
  0
LINE
  5
F6DDF
  8
OBJECT
 10
113.3019009999998
 20
-3.7527769999999792
 30
0.0
 11
118.0
 21
-3.7527769999999792
 31
0.0
  0
LINE
  5
F6DE0
  8
OBJECT
 10
113.3019009999998
 20
3.7527759999999959
 30
0.0
 11
118.0
 21
3.7527759999999959
 31
0.0
  0
ARC
  5
F6DE1
  8
OBJECT
 10
124.6999999999998
 20
0.0
 30
0.0
 40
12.0
 50
161.77608599999951
 51
198.22391400000041
  0
ARC
  5
F6DE2
  8
OBJECT
 10
115.9257130000001
 20
-5.6291650000000004
 30
0.0
 40
3.2257129999999989
 50
144.42999000000029
 51
215.57000999999971
  0
ARC
  5
F6DE3
  8
OBJECT
 10
115.9257130000001
 20
5.6291650000000004
 30
0.0
 40
3.2257129999999989
 50
144.42999000000029
 51
215.57000999999971
  0
LINE
  5
F6DE4
  8
OBJECT
 10
112.6999999999998
 20
-5.6291650000000004
 30
0.0
 11
112.6999999999998
 21
5.6291650000000004
 31
0.0
  0
LINE
  5
F6DE5
  8
OBJECT
 10
162.3234179999998
 20
4.0
 30
0.0
 11
155.93710899999991
 21
4.0
 31
0.0
  0
LINE
  5
F6DE6
  8
OBJECT
 10
162.3234179999998
 20
4.0
 30
0.0
 11
163.0
 21
3.323417000000005
 31
0.0
  0
LINE
  5
F6DE7
  8
OBJECT
 10
163.0
 20
3.323417000000005
 30
0.0
 11
163.0
 21
-3.323417999999974
 31
0.0
  0
LINE
  5
F6DE8
  8
OBJECT
 10
163.0
 20
-3.323417999999974
 30
0.0
 11
162.3234179999998
 21
-4.0
 31
0.0
  0
LINE
  5
F6DE9
  8
OBJECT
 10
162.3234179999998
 20
-4.0
 30
0.0
 11
155.93710899999991
 21
-4.0
 31
0.0
  0
LINE
  5
F6DEA
  8
OBJECT
 10
162.3234179999998
 20
-4.0
 30
0.0
 11
162.3234179999998
 21
4.0
 31
0.0
  0
LINE
  5
F6DEB
  8
OBJECT
 10
163.0
 20
-3.323417999999974
 30
0.0
 11
155.93710899999991
 21
-3.323417999999974
 31
0.0
  0
LINE
  5
F6DEC
  8
OBJECT
 10
163.0
 20
3.323417000000005
 30
0.0
 11
155.93710899999991
 21
3.323417000000005
 31
0.0
  0
LINE
  5
F6DED
  8
OBJECT
 10
136.13710899999981
 20
4.0
 30
0.0
 11
130.0
 21
4.0
 31
0.0
  0
LINE
  5
F6DEE
  8
OBJECT
 10
136.13710899999981
 20
3.323417000000005
 30
0.0
 11
130.0
 21
3.323417000000005
 31
0.0
  0
LINE
  5
F6DEF
  8
OBJECT
 10
136.13710899999981
 20
-3.323417999999974
 30
0.0
 11
130.0
 21
-3.323417999999974
 31
0.0
  0
LINE
  5
F6DF0
  8
OBJECT
 10
136.13710899999981
 20
-4.0
 30
0.0
 11
130.0
 21
-4.0
 31
0.0
  0
LINE
  5
F6DF1
  8
OBJECT
 10
118.0
 20
-9.9999999999999716
 30
0.0
 11
118.0
 21
10.0
 31
0.0
  0
ARC
  5
F6DF2
  8
OBJECT
 10
110.0
 20
-18.944272000000002
 30
0.0
 40
12.0
 50
0.0
 51
48.18968499999567
  0
ARC
  5
F6DF3
  8
OBJECT
 10
110.0
 20
18.944272000000002
 30
0.0
 40
12.0
 50
311.81031500000432
 51
0.0
  0
LINE
  5
F6DF4
  8
OBJECT
 10
135.1371089999997
 20
4.0
 30
0.0
 11
135.1371089999997
 21
35.0
 31
0.0
  0
LINE
  5
F6E35
  8
CENTER
 10
628.35316699999998
 20
449.99745999999988
 30
0.0
 11
646.87386300000014
 21
449.99745999999988
 31
0.0
  0
LINE
  5
F6E36
  8
OBJECT
 10
446.11550499999998
 20
370.49745999999999
 30
0.0
 11
446.11550499999998
 21
361.49745999999999
 31
0.0
  0
LINE
  5
F6E41
  8
OBJECT
 10
553.0092709999999
 20
10.209979000000001
 30
0.0
 11
550.84388399999989
 21
13.721686
 31
0.0
  0
LINE
  5
F6E42
  8
OBJECT
 10
550.84388399999989
 20
13.721686
 30
0.0
 11
548.06325099999992
 21
17.009630000000008
 31
0.0
  0
LINE
  5
F6E43
  8
OBJECT
 10
548.06325099999992
 20
17.009630000000008
 30
0.0
 11
544.71271599999977
 21
20.02019300000001
 31
0.0
  0
LINE
  5
F6E44
  8
OBJECT
 10
544.71271599999977
 20
20.02019300000001
 30
0.0
 11
540.84691599999996
 21
22.704281000000002
 31
0.0
  0
LINE
  5
F6E45
  8
OBJECT
 10
540.84691599999996
 20
22.704281000000002
 30
0.0
 11
536.52889400000015
 21
25.018125000000008
 31
0.0
  0
LINE
  5
F6E46
  8
OBJECT
 10
536.52889400000015
 20
25.018125000000008
 30
0.0
 11
531.82906299999991
 21
26.923991999999998
 31
0.0
  0
LINE
  5
F6E47
  8
OBJECT
 10
531.82906299999991
 20
26.923991999999998
 30
0.0
 11
526.82406499999979
 21
28.390803000000009
 31
0.0
  0
LINE
  5
F6E48
  8
OBJECT
 10
526.82406499999979
 20
28.390803000000009
 30
0.0
 11
521.59551800000031
 21
29.39463700000001
 31
0.0
  0
LINE
  5
F6E49
  8
OBJECT
 10
521.59551800000031
 20
29.39463700000001
 30
0.0
 11
516.22868600000015
 21
29.919125000000001
 31
0.0
  0
LINE
  5
F6E4A
  8
OBJECT
 10
521.59551800000031
 20
29.39463700000001
 30
0.0
 11
516.22868600000015
 21
29.919125000000001
 31
0.0
  0
LINE
  5
F6E53
  8
CENTER
 10
517.61550499999998
 20
435.011641
 30
0.0
 11
517.61550499999998
 21
519.46601599999985
 31
0.0
  0
LINE
  5
F6E54
  8
OBJECT
 10
511.11550499999993
 20
501.24468399999989
 30
0.0
 11
511.11550499999993
 21
508.75023700000003
 31
0.0
  0
LINE
  5
F6E55
  8
OBJECT
 10
511.11550499999993
 20
508.75023700000003
 30
0.0
 11
517.61550499999998
 21
512.50301399999978
 31
0.0
  0
LINE
  5
F6E56
  8
OBJECT
 10
517.61550499999998
 20
512.50301399999978
 30
0.0
 11
524.11550499999976
 21
508.75023700000003
 31
0.0
  0
LINE
  5
F6E57
  8
OBJECT
 10
524.11550499999976
 20
508.75023700000003
 30
0.0
 11
524.11550499999976
 21
501.24468399999989
 31
0.0
  0
LINE
  5
F6E58
  8
OBJECT
 10
524.11550499999976
 20
501.24468399999989
 30
0.0
 11
517.61550499999998
 21
497.4919069999998
 31
0.0
  0
LINE
  5
F6E59
  8
OBJECT
 10
517.61550499999998
 20
497.4919069999998
 30
0.0
 11
511.11550499999993
 21
501.24468399999989
 31
0.0
  0
CIRCLE
  5
F6E5A
  8
OBJECT
 10
517.61550499999998
 20
504.99745999999959
 30
0.0
 40
6.5
  0
LINE
  5
F6E5B
  8
OBJECT
 10
511.11550499999993
 20
446.24468400000001
 30
0.0
 11
511.11550499999993
 21
453.75023699999991
 31
0.0
  0
LINE
  5
F6E5C
  8
OBJECT
 10
511.11550499999993
 20
453.75023699999991
 30
0.0
 11
517.61550499999998
 21
457.50301399999989
 31
0.0
  0
LINE
  5
F6E5D
  8
OBJECT
 10
517.61550499999998
 20
457.50301399999989
 30
0.0
 11
524.11550499999976
 21
453.75023699999991
 31
0.0
  0
LINE
  5
F6E5E
  8
OBJECT
 10
524.11550499999976
 20
453.75023699999991
 30
0.0
 11
524.11550499999976
 21
446.24468400000001
 31
0.0
  0
LINE
  5
F6E5F
  8
OBJECT
 10
524.11550499999976
 20
446.24468400000001
 30
0.0
 11
517.61550499999998
 21
442.49190700000003
 31
0.0
  0
LINE
  5
F6E60
  8
OBJECT
 10
517.61550499999998
 20
442.49190700000003
 30
0.0
 11
511.11550499999993
 21
446.24468400000001
 31
0.0
  0
CIRCLE
  5
F6E61
  8
OBJECT
 10
517.61550499999998
 20
449.99745999999988
 30
0.0
 40
6.5
  0
LINE
  5
F6E62
  8
CENTER
 10
508.3531669999997
 20
504.99745999999959
 30
0.0
 11
526.87386300000026
 21
504.99745999999959
 31
0.0
  0
POINT
  5
F6E7B
  8
OBJECT
 10
482.61550499999993
 20
372.49745999999999
 30
0.0
  0
LINE
  5
F6E84
  8
OBJECT
 10
492.61550499999998
 20
55.0
 30
0.0
 11
492.61550499999998
 21
49.499999999999993
 31
0.0
  0
LINE
  5
F6E85
  8
OBJECT
 10
542.61550499999998
 20
55.0
 30
0.0
 11
542.61550499999998
 21
49.499999999999993
 31
0.0
  0
LINE
  5
F6E86
  8
OBJECT
 10
540.01491699999985
 20
55.0
 30
0.0
 11
492.61550499999998
 21
55.0
 31
0.0
  0
ARC
  5
F6E87
  8
OBJECT
 10
487.61550499999998
 20
49.499999999999993
 30
0.0
 40
5.0
 50
270.0
 51
0.0
  0
ARC
  5
F6E88
  8
OBJECT
 10
547.61550499999998
 20
49.499999999999993
 30
0.0
 40
5.0
 50
180.0
 51
270.0
  0
LINE
  5
F6E89
  8
OBJECT
 10
492.61550499999998
 20
55.0
 30
0.0
 11
542.61550499999998
 21
55.0
 31
0.0
  0
LINE
  5
F6E8A
  8
OBJECT
 10
542.61550499999998
 20
55.0
 30
0.0
 11
542.61550499999998
 21
58.0
 31
0.0
  0
LINE
  5
F6E8B
  8
OBJECT
 10
542.61550499999998
 20
58.0
 30
0.0
 11
492.61550499999998
 21
58.0
 31
0.0
  0
LINE
  5
F6E8C
  8
OBJECT
 10
492.61550499999998
 20
58.0
 30
0.0
 11
492.61550499999998
 21
55.0
 31
0.0
  0
LINE
  5
F6E8D
  8
OBJECT
 10
492.61550499999998
 20
58.0
 30
0.0
 11
542.61550499999998
 21
58.0
 31
0.0
  0
LINE
  5
F6E8E
  8
OBJECT
 10
542.61550499999998
 20
58.0
 30
0.0
 11
542.61550499999998
 21
64.0
 31
0.0
  0
LINE
  5
F6E8F
  8
OBJECT
 10
492.61550499999998
 20
64.0
 30
0.0
 11
542.61550499999998
 21
64.0
 31
0.0
  0
LINE
  5
F6E90
  8
OBJECT
 10
492.61550499999998
 20
58.0
 30
0.0
 11
492.61550499999998
 21
64.0
 31
0.0
  0
LINE
  5
F6E91
  8
OBJECT
 10
511.98633899999987
 20
69.300000000000011
 30
0.0
 11
523.24467000000016
 21
69.300000000000011
 31
0.0
  0
ARC
  5
F6E92
  8
OBJECT
 10
523.24467000000016
 20
66.074286999999984
 30
0.0
 40
3.2257129999999989
 50
54.429989999999862
 51
125.5700100000001
  0
ARC
  5
F6E93
  8
OBJECT
 10
511.98633899999987
 20
66.074286999999984
 30
0.0
 40
3.2257129999999989
 50
54.429989999999862
 51
125.5700100000001
  0
ARC
  5
F6E94
  8
OBJECT
 10
517.61550499999998
 20
57.299999999999997
 30
0.0
 40
12.0
 50
71.776086000002124
 51
108.22391399999781
  0
LINE
  5
F6E95
  8
OBJECT
 10
521.36828099999991
 20
68.698098999999985
 30
0.0
 11
521.36828099999991
 21
64.0
 31
0.0
  0
LINE
  5
F6E96
  8
OBJECT
 10
513.86272800000006
 20
68.698098999999985
 30
0.0
 11
513.86272800000006
 21
64.0
 31
0.0
  0
LINE
  5
F6E97
  8
OBJECT
 10
510.1099509999998
 20
64.0
 30
0.0
 11
510.1099509999998
 21
68.698098999999985
 31
0.0
  0
LINE
  5
F6E98
  8
OBJECT
 10
525.12105799999995
 20
64.0
 30
0.0
 11
510.1099509999998
 21
64.0
 31
0.0
  0
LINE
  5
F6E99
  8
OBJECT
 10
525.12105799999995
 20
68.698098999999985
 30
0.0
 11
525.12105799999995
 21
64.0
 31
0.0
  0
LINE
  5
F6E9A
  8
OBJECT
 10
547.61550499999998
 20
44.499999999999993
 30
0.0
 11
607.6155050000001
 21
44.499999999999993
 31
0.0
  0
LINE
  5
F6E9B
  8
OBJECT
 10
414.61550499999993
 20
-60.0
 30
0.0
 11
424.61550499999993
 21
-60.0
 31
0.0
  0
LINE
  5
F6E9C
  8
OBJECT
 10
627.61550499999987
 20
-60.0
 30
0.0
 11
626.80318399999987
 21
-44.499999999999979
 31
0.0
  0
LINE
  5
F6E9D
  8
OBJECT
 10
647.61550499999998
 20
-60.0
 30
0.0
 11
648.42782499999998
 21
-44.499999999999979
 31
0.0
  0
LINE
  5
F6E9E
  8
OBJECT
 10
627.61550499999987
 20
-60.0
 30
0.0
 11
647.61550499999998
 21
-60.0
 31
0.0
  0
LINE
  5
F6E9F
  8
OBJECT
 10
592.61550499999998
 20
-60.0
 30
0.0
 11
591.75973599999998
 21
-43.670954999999992
 31
0.0
  0
LINE
  5
F6EA0
  8
OBJECT
 10
592.61550499999998
 20
-60.0
 30
0.0
 11
612.61550499999998
 21
-60.0
 31
0.0
  0
LINE
  5
F6EA1
  8
OBJECT
 10
612.61550499999998
 20
-60.0
 30
0.0
 11
613.47127399999965
 21
-43.670954999999992
 31
0.0
  0
LINE
  5
F6EA2
  8
OBJECT
 10
452.61550499999981
 20
-60.0
 30
0.0
 11
424.61550499999993
 21
-60.0
 31
0.0
  0
LINE
  5
F6EA3
  8
OBJECT
 10
452.61550499999981
 20
-60.0
 30
0.0
 11
453.05473099999989
 21
-51.619067000000001
 31
0.0
  0
LINE
  5
F6EA4
  8
OBJECT
 10
393.2660259999999
 20
-60.0
 30
0.0
 11
408.26602599999978
 21
-60.0
 31
0.0
  0
LINE
  5
F6EA5
  8
OBJECT
 10
613.42782499999998
 20
-44.499999999999979
 30
0.0
 11
750.61550499999998
 21
-44.499999999999979
 31
0.0
  0
LINE
  5
F6EA6
  8
CENTER
 10
442.61550499999998
 20
-34.879723000000013
 30
0.0
 11
442.61550499999998
 21
-75.180756999999986
 31
0.0
  0
LINE
  5
F6EA7
  8
OBJECT
 10
15.62049899999988
 20
60.0
 30
0.0
 11
-15.620499000000111
 21
60.0
 31
0.0
  0
LINE
  5
F6EA8
  8
OBJECT
 10
-15.620499000000111
 20
-60.0
 30
0.0
 11
15.62049899999988
 21
-60.0
 31
0.0
  0
ARC
  5
F6EA9
  8
OBJECT
 10
0.0
 20
0.0
 30
0.0
 40
62.0
 50
104.5925510000029
 51
142.52800500000009
  0
ARC
  5
F6EAA
  8
OBJECT
 10
0.0
 20
0.0
 30
0.0
 40
62.0
 50
284.59255100000303
 51
322.52800500000012
  0
LINE
  5
F6EAB
  8
OBJECT
 10
414.61550499999993
 20
60.0
 30
0.0
 11
424.61550499999993
 21
60.0
 31
0.0
  0
LINE
  5
F6EAC
  8
OBJECT
 10
393.2660259999999
 20
60.0
 30
0.0
 11
408.26602599999978
 21
60.0
 31
0.0
  0
LINE
  5
F6EBD
  8
CENTER
 10
622.11116299999981
 20
503.99745999999988
 30
0.0
 11
655.97677699999986
 21
503.99745999999988
 31
0.0
  0
CIRCLE
  5
F6EBE
  8
HIDDEN
 10
637.61550499999998
 20
503.99745999999988
 30
0.0
 40
10.0
  0
CIRCLE
  5
F6EBF
  8
HIDDEN
 10
637.61550499999998
 20
503.99745999999988
 30
0.0
 40
12.5
  0
CIRCLE
  5
F6EC0
  8
HIDDEN
 10
602.61550499999987
 20
372.49745999999999
 30
0.0
 40
10.0
  0
LINE
  5
F6EC1
  8
CENTER
 10
587.11116299999969
 20
372.49745999999999
 30
0.0
 11
620.97677699999997
 21
372.49745999999999
 31
0.0
  0
CIRCLE
  5
F6EC2
  8
HIDDEN
 10
602.61550499999987
 20
372.49745999999999
 30
0.0
 40
12.5
  0
LINE
  5
F6EC3
  8
CENTER
 10
442.61550499999998
 20
459.52211799999998
 30
0.0
 11
442.61550499999998
 21
496.11901399999999
 31
0.0
  0
ARC
  5
F6EC4
  8
HIDDEN
 10
442.61550499999998
 20
477.49745999999999
 30
0.0
 40
10.0
 50
250.52877900000459
 51
109.4712209999953
  0
ARC
  5
F6EC5
  8
HIDDEN
 10
442.61550499999998
 20
477.49745999999999
 30
0.0
 40
12.5
 50
252.98135299999541
 51
107.01864700000461
  0
LINE
  5
F6ED0
  8
CENTER
 10
456.25021799999979
 20
477.49745999999999
 30
0.0
 11
466.38060300000012
 21
477.49745999999999
 31
0.0
  0
LINE
  5
F6ED1
  8
CENTER
 10
484.71164999999991
 20
477.49745999999999
 30
0.0
 11
771.36150599999985
 21
477.49745999999999
 31
0.0
  0
LINE
  5
F6ED2
  8
OBJECT
 10
414.61550499999993
 20
535.49746000000005
 30
0.0
 11
408.26602599999978
 21
535.49746000000005
 31
0.0
  0
LINE
  5
F6ED3
  8
OBJECT
 10
414.61550499999993
 20
545.49746000000005
 30
0.0
 11
408.26602599999978
 21
545.49746000000005
 31
0.0
  0
LINE
  5
F6ED4
  8
OBJECT
 10
428.61550499999993
 20
550.49745999999971
 30
0.0
 11
428.61550499999993
 21
530.49745999999982
 31
0.0
  0
LINE
  5
F6ED5
  8
OBJECT
 10
438.61550499999998
 20
550.49745999999971
 30
0.0
 11
428.61550499999993
 21
550.49745999999971
 31
0.0
  0
LINE
  5
F6ED6
  8
OBJECT
 10
438.61550499999998
 20
530.49745999999982
 30
0.0
 11
428.61550499999993
 21
530.49745999999982
 31
0.0
  0
LINE
  5
F6ED7
  8
OBJECT
 10
374.42740400000002
 20
545.49746000000005
 30
0.0
 11
384.86602599999992
 21
545.49746000000005
 31
0.0
  0
LINE
  5
F6ED8
  8
OBJECT
 10
374.42740400000002
 20
545.49746000000005
 30
0.0
 11
373.61550499999998
 21
544.68556099999989
 31
0.0
  0
LINE
  5
F6ED9
  8
OBJECT
 10
373.61550499999998
 20
544.68556099999989
 30
0.0
 11
373.61550499999998
 21
536.30935899999997
 31
0.0
  0
LINE
  5
F6EDA
  8
OBJECT
 10
373.61550499999998
 20
536.30935899999997
 30
0.0
 11
374.42740400000002
 21
535.49746000000005
 31
0.0
  0
LINE
  5
F6EDB
  8
OBJECT
 10
374.42740400000002
 20
535.49746000000005
 30
0.0
 11
384.86602599999992
 21
535.49746000000005
 31
0.0
  0
LINE
  5
F6EDC
  8
OBJECT
 10
374.42740400000002
 20
535.49746000000005
 30
0.0
 11
374.42740400000002
 21
545.49746000000005
 31
0.0
  0
LINE
  5
F6EDD
  8
OBJECT
 10
373.61550499999998
 20
536.30935899999997
 30
0.0
 11
384.86602599999992
 21
536.30935899999997
 31
0.0
  0
LINE
  5
F6EDE
  8
OBJECT
 10
373.61550499999998
 20
544.68556099999989
 30
0.0
 11
384.86602599999992
 21
544.68556099999989
 31
0.0
  0
LINE
  5
F6EDF
  8
OBJECT
 10
438.61550499999998
 20
550.49745999999971
 30
0.0
 11
438.61550499999998
 21
530.49745999999982
 31
0.0
  0
LINE
  5
F6EE0
  8
OBJECT
 10
436.61550499999993
 20
550.49745999999971
 30
0.0
 11
436.61550499999993
 21
530.49745999999982
 31
0.0
  0
LINE
  5
F6EE1
  8
OBJECT
 10
428.61550499999993
 20
545.49746000000005
 30
0.0
 11
428.66631099999989
 21
545.47903799999995
 31
0.0
  0
LINE
  5
F6EE2
  8
OBJECT
 10
428.66631099999989
 20
545.47903799999995
 30
0.0
 11
428.81171799999993
 21
545.42501700000003
 31
0.0
  0
LINE
  5
F6EE3
  8
OBJECT
 10
428.81171799999993
 20
545.42501700000003
 30
0.0
 11
429.04120799999981
 21
545.33726899999999
 31
0.0
  0
LINE
  5
F6EE4
  8
OBJECT
 10
429.04120799999981
 20
545.33726899999999
 30
0.0
 11
429.34426299999978
 21
545.21766300000002
 31
0.0
  0
LINE
  5
F6EE5
  8
OBJECT
 10
429.34426299999978
 20
545.21766300000002
 30
0.0
 11
429.71036499999991
 21
545.06806899999958
 31
0.0
  0
LINE
  5
F6EE6
  8
OBJECT
 10
429.71036499999991
 20
545.06806899999958
 30
0.0
 11
430.12899699999991
 21
544.89035899999965
 31
0.0
  0
LINE
  5
F6EE7
  8
OBJECT
 10
430.12899699999991
 20
544.89035899999965
 30
0.0
 11
430.58964099999992
 21
544.68640099999959
 31
0.0
  0
LINE
  5
F6EE8
  8
OBJECT
 10
430.58964099999992
 20
544.68640099999959
 30
0.0
 11
431.08177899999993
 21
544.45806700000003
 31
0.0
  0
LINE
  5
F6EE9
  8
OBJECT
 10
431.08177899999993
 20
544.45806700000003
 30
0.0
 11
431.59489299999979
 21
544.20722699999965
 31
0.0
  0
LINE
  5
F6EEA
  8
OBJECT
 10
431.59489299999979
 20
544.20722699999965
 30
0.0
 11
432.11846599999978
 21
543.93575099999975
 31
0.0
  0
LINE
  5
F6EEB
  8
OBJECT
 10
432.11846599999978
 20
543.93575099999975
 30
0.0
 11
432.64197999999999
 21
543.64550899999995
 31
0.0
  0
LINE
  5
F6EEC
  8
OBJECT
 10
432.64197999999999
 20
543.64550899999995
 30
0.0
 11
433.15491599999979
 21
543.33837100000005
 31
0.0
  0
LINE
  5
F6EED
  8
OBJECT
 10
433.15491599999979
 20
543.33837100000005
 30
0.0
 11
433.64675799999981
 21
543.01620799999966
 31
0.0
  0
LINE
  5
F6EEE
  8
OBJECT
 10
433.64675799999981
 20
543.01620799999966
 30
0.0
 11
434.106988
 21
542.68088999999998
 31
0.0
  0
LINE
  5
F6EEF
  8
OBJECT
 10
434.106988
 20
542.68088999999998
 30
0.0
 11
434.52508599999999
 21
542.3342869999999
 31
0.0
  0
LINE
  5
F6EF0
  8
OBJECT
 10
434.52508599999999
 20
542.3342869999999
 30
0.0
 11
434.89053699999988
 21
541.97826999999995
 31
0.0
  0
LINE
  5
F6EF1
  8
OBJECT
 10
434.89053699999988
 20
541.97826999999995
 30
0.0
 11
435.19282199999992
 21
541.61470799999995
 31
0.0
  0
LINE
  5
F6EF2
  8
OBJECT
 10
435.19282199999992
 20
541.61470799999995
 30
0.0
 11
435.421424
 21
541.24547299999983
 31
0.0
  0
LINE
  5
F6EF3
  8
OBJECT
 10
435.421424
 20
541.24547299999983
 30
0.0
 11
435.56582399999991
 21
540.872433
 31
0.0
  0
LINE
  5
F6EF4
  8
OBJECT
 10
435.56582399999991
 20
540.872433
 30
0.0
 11
435.61550499999993
 21
540.49746000000005
 31
0.0
  0
LINE
  5
F6EF5
  8
OBJECT
 10
435.61550499999993
 20
540.49746000000005
 30
0.0
 11
435.56400699999989
 21
540.12443699999994
 31
0.0
  0
LINE
  5
F6EF6
  8
OBJECT
 10
435.56400699999989
 20
540.12443699999994
 30
0.0
 11
435.41881399999988
 21
539.75322300000005
 31
0.0
  0
LINE
  5
F6EF7
  8
OBJECT
 10
435.41881399999988
 20
539.75322300000005
 30
0.0
 11
435.1903430000001
 21
539.38569299999995
 31
0.0
  0
LINE
  5
F6EF8
  8
OBJECT
 10
435.1903430000001
 20
539.38569299999995
 30
0.0
 11
434.88901199999998
 21
539.02371899999991
 31
0.0
  0
LINE
  5
F6EF9
  8
OBJECT
 10
434.88901199999998
 20
539.02371899999991
 30
0.0
 11
434.52523699999989
 21
538.66917299999989
 31
0.0
  0
LINE
  5
F6EFA
  8
OBJECT
 10
434.52523699999989
 20
538.66917299999989
 30
0.0
 11
434.10943599999979
 21
538.32392799999968
 31
0.0
  0
LINE
  5
F6EFB
  8
OBJECT
 10
434.10943599999979
 20
538.32392799999968
 30
0.0
 11
433.65202599999992
 21
537.98985700000003
 31
0.0
  0
LINE
  5
F6EFC
  8
OBJECT
 10
433.65202599999992
 20
537.98985700000003
 30
0.0
 11
433.1634229999998
 21
537.66883399999995
 31
0.0
  0
LINE
  5
F6EFD
  8
OBJECT
 10
433.1634229999998
 20
537.66883399999995
 30
0.0
 11
432.654045
 21
537.36273000000006
 31
0.0
  0
LINE
  5
F6EFE
  8
OBJECT
 10
432.654045
 20
537.36273000000006
 30
0.0
 11
432.13430899999992
 21
537.07341799999995
 31
0.0
  0
LINE
  5
F6EFF
  8
OBJECT
 10
432.13430899999992
 20
537.07341799999995
 30
0.0
 11
431.61463099999992
 21
536.80277199999966
 31
0.0
  0
LINE
  5
F6F00
  8
OBJECT
 10
431.61463099999992
 20
536.80277199999966
 30
0.0
 11
431.10542999999979
 21
536.55266299999971
 31
0.0
  0
LINE
  5
F6F01
  8
OBJECT
 10
431.10542999999979
 20
536.55266299999971
 30
0.0
 11
430.61712199999999
 21
536.3249659999999
 31
0.0
  0
LINE
  5
F6F02
  8
OBJECT
 10
430.61712199999999
 20
536.3249659999999
 30
0.0
 11
430.16012399999988
 21
536.12155199999984
 31
0.0
  0
LINE
  5
F6F03
  8
OBJECT
 10
430.16012399999988
 20
536.12155199999984
 30
0.0
 11
429.74485299999992
 21
535.9442939999999
 31
0.0
  0
LINE
  5
F6F04
  8
OBJECT
 10
429.74485299999992
 20
535.9442939999999
 30
0.0
 11
429.38172599999979
 21
535.79506599999991
 31
0.0
  0
LINE
  5
F6F05
  8
OBJECT
 10
429.38172599999979
 20
535.79506599999991
 30
0.0
 11
429.08116099999978
 21
535.67573899999991
 31
0.0
  0
LINE
  5
F6F06
  8
OBJECT
 10
429.08116099999978
 20
535.67573899999991
 30
0.0
 11
428.85357399999992
 21
535.58818700000006
 31
0.0
  0
LINE
  5
F6F07
  8
OBJECT
 10
428.85357399999992
 20
535.58818700000006
 30
0.0
 11
428.70938299999978
 21
535.53428199999985
 31
0.0
  0
LINE
  5
F6F08
  8
OBJECT
 10
428.70938299999978
 20
535.53428199999985
 30
0.0
 11
428.65900499999998
 21
535.51589799999965
 31
0.0
  0
LINE
  5
F6F09
  8
OBJECT
 10
384.86602599999992
 20
533.56925699999988
 30
0.0
 11
384.86602599999992
 21
547.42566399999998
 31
0.0
  0
ARC
  5
F6F0A
  8
OBJECT
 10
388.88933200000002
 20
547.42566399999998
 30
0.0
 40
4.0233059999999981
 50
144.9699640000029
 51
215.0300359999971
  0
ARC
  5
F6F0B
  8
OBJECT
 10
388.88933200000002
 20
533.56925699999988
 30
0.0
 40
4.0233059999999981
 50
144.9699640000029
 51
215.0300359999971
  0
ARC
  5
F6F0C
  8
OBJECT
 10
399.86602599999992
 20
540.49746000000005
 30
0.0
 40
15.0
 50
162.06606699999921
 51
197.93393300000071
  0
LINE
  5
F6F0D
  8
OBJECT
 10
393.2660259999999
 20
535.87865800000009
 30
0.0
 11
385.59484300000008
 21
535.87865800000009
 31
0.0
  0
LINE
  5
F6F0E
  8
OBJECT
 10
393.2660259999999
 20
545.11626299999978
 30
0.0
 11
385.59484300000008
 21
545.11626299999978
 31
0.0
  0
LINE
  5
F6F0F
  8
OBJECT
 10
393.2660259999999
 20
531.25985599999967
 30
0.0
 11
385.59484300000008
 21
531.25985599999967
 31
0.0
  0
LINE
  5
F6F10
  8
OBJECT
 10
393.2660259999999
 20
549.73506499999985
 30
0.0
 11
393.2660259999999
 21
531.25985599999967
 31
0.0
  0
LINE
  5
F6F11
  8
OBJECT
 10
385.59484300000008
 20
549.73506499999985
 30
0.0
 11
393.2660259999999
 21
549.73506499999985
 31
0.0
  0
LINE
  5
F6F1A
  8
CENTER
 10
367.69990200000012
 20
414.49745999999999
 30
0.0
 11
443.14087099999989
 21
414.49745999999999
 31
0.0
  0
LINE
  5
F6F1B
  8
OBJECT
 10
428.61550499999993
 20
409.49745999999988
 30
0.0
 11
428.66631099999989
 21
409.51588299999992
 31
0.0
  0
LINE
  5
F6F1C
  8
OBJECT
 10
428.66631099999989
 20
409.51588299999992
 30
0.0
 11
428.81171799999993
 21
409.56990399999989
 31
0.0
  0
LINE
  5
F6F1D
  8
OBJECT
 10
428.81171799999993
 20
409.56990399999989
 30
0.0
 11
429.04120799999981
 21
409.65765199999998
 31
0.0
  0
LINE
  5
F6F1E
  8
OBJECT
 10
429.04120799999981
 20
409.65765199999998
 30
0.0
 11
429.34426299999978
 21
409.77725799999979
 31
0.0
  0
LINE
  5
F6F1F
  8
OBJECT
 10
429.34426299999978
 20
409.77725799999979
 30
0.0
 11
429.71036499999991
 21
409.92685199999988
 31
0.0
  0
LINE
  5
F6F20
  8
OBJECT
 10
429.71036499999991
 20
409.92685199999988
 30
0.0
 11
430.12899699999991
 21
410.10456199999982
 31
0.0
  0
LINE
  5
F6F21
  8
OBJECT
 10
430.12899699999991
 20
410.10456199999982
 30
0.0
 11
430.58964099999992
 21
410.30851999999987
 31
0.0
  0
LINE
  5
F6F22
  8
OBJECT
 10
430.58964099999992
 20
410.30851999999987
 30
0.0
 11
431.08177899999993
 21
410.53685299999989
 31
0.0
  0
LINE
  5
F6F23
  8
OBJECT
 10
431.08177899999993
 20
410.53685299999989
 30
0.0
 11
431.59489299999979
 21
410.78769399999987
 31
0.0
  0
LINE
  5
F6F24
  8
OBJECT
 10
431.59489299999979
 20
410.78769399999987
 30
0.0
 11
432.11846599999978
 21
411.05916999999988
 31
0.0
  0
LINE
  5
F6F25
  8
OBJECT
 10
432.11846599999978
 20
411.05916999999988
 30
0.0
 11
432.64197999999999
 21
411.34941199999992
 31
0.0
  0
LINE
  5
F6F26
  8
OBJECT
 10
432.64197999999999
 20
411.34941199999992
 30
0.0
 11
433.15491599999979
 21
411.65654999999998
 31
0.0
  0
LINE
  5
F6F27
  8
OBJECT
 10
433.15491599999979
 20
411.65654999999998
 30
0.0
 11
433.64675799999981
 21
411.97871300000003
 31
0.0
  0
LINE
  5
F6F28
  8
OBJECT
 10
433.64675799999981
 20
411.97871300000003
 30
0.0
 11
434.106988
 21
412.314031
 31
0.0
  0
LINE
  5
F6F29
  8
OBJECT
 10
434.106988
 20
412.314031
 30
0.0
 11
434.52508599999999
 21
412.66063400000002
 31
0.0
  0
LINE
  5
F6F2A
  8
OBJECT
 10
434.52508599999999
 20
412.66063400000002
 30
0.0
 11
434.89053699999988
 21
413.01665100000002
 31
0.0
  0
LINE
  5
F6F2B
  8
OBJECT
 10
434.89053699999988
 20
413.01665100000002
 30
0.0
 11
435.19282199999992
 21
413.38021300000003
 31
0.0
  0
LINE
  5
F6F2C
  8
OBJECT
 10
435.19282199999992
 20
413.38021300000003
 30
0.0
 11
435.421424
 21
413.74944799999992
 31
0.0
  0
LINE
  5
F6F2D
  8
OBJECT
 10
435.421424
 20
413.74944799999992
 30
0.0
 11
435.56582399999991
 21
414.12248799999998
 31
0.0
  0
LINE
  5
F6F2E
  8
OBJECT
 10
435.56582399999991
 20
414.12248799999998
 30
0.0
 11
435.61550499999993
 21
414.49745999999999
 31
0.0
  0
LINE
  5
F6F2F
  8
OBJECT
 10
435.61550499999993
 20
414.49745999999999
 30
0.0
 11
435.56400699999989
 21
414.87048399999992
 31
0.0
  0
LINE
  5
F6F30
  8
OBJECT
 10
435.56400699999989
 20
414.87048399999992
 30
0.0
 11
435.41881399999988
 21
415.24169699999987
 31
0.0
  0
LINE
  5
F6F31
  8
OBJECT
 10
435.41881399999988
 20
415.24169699999987
 30
0.0
 11
435.1903430000001
 21
415.60922799999997
 31
0.0
  0
LINE
  5
F6F32
  8
OBJECT
 10
435.1903430000001
 20
415.60922799999997
 30
0.0
 11
434.88901199999998
 21
415.97120199999989
 31
0.0
  0
LINE
  5
F6F33
  8
OBJECT
 10
434.88901199999998
 20
415.97120199999989
 30
0.0
 11
434.52523699999989
 21
416.32574799999992
 31
0.0
  0
LINE
  5
F6F34
  8
OBJECT
 10
434.52523699999989
 20
416.32574799999992
 30
0.0
 11
434.10943599999979
 21
416.67099300000001
 31
0.0
  0
LINE
  5
F6F35
  8
OBJECT
 10
434.10943599999979
 20
416.67099300000001
 30
0.0
 11
433.65202599999992
 21
417.005064
 31
0.0
  0
LINE
  5
F6F36
  8
OBJECT
 10
433.65202599999992
 20
417.005064
 30
0.0
 11
433.1634229999998
 21
417.32608699999997
 31
0.0
  0
LINE
  5
F6F37
  8
OBJECT
 10
433.1634229999998
 20
417.32608699999997
 30
0.0
 11
432.654045
 21
417.63219099999992
 31
0.0
  0
LINE
  5
F6F38
  8
OBJECT
 10
432.654045
 20
417.63219099999992
 30
0.0
 11
432.13430899999992
 21
417.92150299999997
 31
0.0
  0
LINE
  5
F6F39
  8
OBJECT
 10
432.13430899999992
 20
417.92150299999997
 30
0.0
 11
431.61463099999992
 21
418.1921489999998
 31
0.0
  0
LINE
  5
F6F3A
  8
OBJECT
 10
431.61463099999992
 20
418.1921489999998
 30
0.0
 11
431.10542999999979
 21
418.44225699999993
 31
0.0
  0
LINE
  5
F6F3B
  8
OBJECT
 10
431.10542999999979
 20
418.44225699999993
 30
0.0
 11
430.61712199999999
 21
418.66995500000002
 31
0.0
  0
LINE
  5
F6F3C
  8
OBJECT
 10
430.61712199999999
 20
418.66995500000002
 30
0.0
 11
430.16012399999988
 21
418.87336899999991
 31
0.0
  0
LINE
  5
F6F3D
  8
OBJECT
 10
430.16012399999988
 20
418.87336899999991
 30
0.0
 11
429.74485299999992
 21
419.05062699999991
 31
0.0
  0
LINE
  5
F6F3E
  8
OBJECT
 10
429.74485299999992
 20
419.05062699999991
 30
0.0
 11
429.38172599999979
 21
419.19985500000001
 31
0.0
  0
LINE
  5
F6F3F
  8
OBJECT
 10
429.38172599999979
 20
419.19985500000001
 30
0.0
 11
429.08116099999978
 21
419.31918200000001
 31
0.0
  0
LINE
  5
F6F40
  8
OBJECT
 10
429.08116099999978
 20
419.31918200000001
 30
0.0
 11
428.85357399999992
 21
419.40673399999997
 31
0.0
  0
LINE
  5
F6F41
  8
OBJECT
 10
428.85357399999992
 20
419.40673399999997
 30
0.0
 11
428.70938299999978
 21
419.46063900000001
 31
0.0
  0
LINE
  5
F6F42
  8
OBJECT
 10
428.70938299999978
 20
419.46063900000001
 30
0.0
 11
428.65900499999998
 21
419.47902299999993
 31
0.0
  0
LINE
  5
F6F43
  8
OBJECT
 10
436.61550499999993
 20
404.49745999999988
 30
0.0
 11
436.61550499999993
 21
424.49745999999988
 31
0.0
  0
LINE
  5
F6F44
  8
OBJECT
 10
438.61550499999998
 20
404.49745999999988
 30
0.0
 11
438.61550499999998
 21
424.49745999999988
 31
0.0
  0
LINE
  5
F6F45
  8
OBJECT
 10
373.61550499999998
 20
410.30935899999992
 30
0.0
 11
384.86602599999992
 21
410.30935899999992
 31
0.0
  0
LINE
  5
F6F46
  8
OBJECT
 10
373.61550499999998
 20
418.68556100000001
 30
0.0
 11
384.86602599999992
 21
418.68556100000001
 31
0.0
  0
LINE
  5
F6F47
  8
OBJECT
 10
374.42740400000002
 20
419.49745999999999
 30
0.0
 11
374.42740400000002
 21
409.49745999999988
 31
0.0
  0
LINE
  5
F6F48
  8
OBJECT
 10
374.42740400000002
 20
419.49745999999999
 30
0.0
 11
384.86602599999992
 21
419.49745999999999
 31
0.0
  0
LINE
  5
F6F49
  8
OBJECT
 10
373.61550499999998
 20
418.68556100000001
 30
0.0
 11
374.42740400000002
 21
419.49745999999999
 31
0.0
  0
LINE
  5
F6F4A
  8
OBJECT
 10
373.61550499999998
 20
410.30935899999992
 30
0.0
 11
373.61550499999998
 21
418.68556100000001
 31
0.0
  0
LINE
  5
F6F4B
  8
OBJECT
 10
374.42740400000002
 20
409.49745999999988
 30
0.0
 11
373.61550499999998
 21
410.30935899999992
 31
0.0
  0
LINE
  5
F6F4C
  8
OBJECT
 10
374.42740400000002
 20
409.49745999999988
 30
0.0
 11
384.86602599999992
 21
409.49745999999988
 31
0.0
  0
LINE
  5
F6F4D
  8
OBJECT
 10
438.61550499999998
 20
424.49745999999988
 30
0.0
 11
428.61550499999993
 21
424.49745999999988
 31
0.0
  0
LINE
  5
F6F4E
  8
OBJECT
 10
438.61550499999998
 20
404.49745999999988
 30
0.0
 11
428.61550499999993
 21
404.49745999999988
 31
0.0
  0
LINE
  5
F6F4F
  8
OBJECT
 10
428.61550499999993
 20
404.49745999999988
 30
0.0
 11
428.61550499999993
 21
424.49745999999988
 31
0.0
  0
LINE
  5
F6F50
  8
OBJECT
 10
414.61550499999993
 20
409.49745999999988
 30
0.0
 11
408.26602599999978
 21
409.49745999999988
 31
0.0
  0
LINE
  5
F6F51
  8
OBJECT
 10
414.61550499999993
 20
419.49745999999999
 30
0.0
 11
408.26602599999978
 21
419.49745999999999
 31
0.0
  0
LINE
  5
F6F52
  8
OBJECT
 10
444.11550499999981
 20
359.49745999999999
 30
0.0
 11
444.11550499999981
 21
364.49745999999999
 31
0.0
  0
LINE
  5
F6F53
  8
OBJECT
 10
444.11550499999981
 20
359.49745999999999
 30
0.0
 11
431.11550499999993
 21
359.49745999999999
 31
0.0
  0
LINE
  5
F6F54
  8
OBJECT
 10
441.61550499999993
 20
315.17404299999998
 30
0.0
 11
441.61550499999993
 21
321.56035200000002
 31
0.0
  0
LINE
  5
F6F55
  8
OBJECT
 10
441.61550499999993
 20
315.17404299999998
 30
0.0
 11
440.93892199999988
 21
314.49745999999999
 31
0.0
  0
LINE
  5
F6F56
  8
OBJECT
 10
440.93892199999988
 20
314.49745999999999
 30
0.0
 11
434.29208699999992
 21
314.49745999999999
 31
0.0
  0
LINE
  5
F6F57
  8
OBJECT
 10
434.29208699999992
 20
314.49745999999999
 30
0.0
 11
433.61550499999998
 21
315.17404299999998
 31
0.0
  0
LINE
  5
F6F58
  8
OBJECT
 10
433.61550499999998
 20
315.17404299999998
 30
0.0
 11
433.61550499999998
 21
321.56035200000002
 31
0.0
  0
LINE
  5
F6F59
  8
OBJECT
 10
433.61550499999998
 20
342.49745999999999
 30
0.0
 11
441.61550499999993
 21
342.49745999999999
 31
0.0
  0
LINE
  5
F6F5A
  8
OBJECT
 10
433.61550499999998
 20
315.17404299999998
 30
0.0
 11
441.61550499999993
 21
315.17404299999998
 31
0.0
  0
LINE
  5
F6F5B
  8
OBJECT
 10
434.29208699999992
 20
314.49745999999999
 30
0.0
 11
434.29208699999992
 21
321.56035200000002
 31
0.0
  0
LINE
  5
F6F5C
  8
OBJECT
 10
440.93892199999988
 20
314.49745999999999
 30
0.0
 11
440.93892199999988
 21
321.56035200000002
 31
0.0
  0
LINE
  5
F6F5D
  8
OBJECT
 10
433.61550499999998
 20
343.66933599999999
 30
0.0
 11
434.29208699999992
 21
342.49745999999999
 31
0.0
  0
LINE
  5
F6F5E
  8
OBJECT
 10
441.61550499999993
 20
343.66933599999999
 30
0.0
 11
440.93892199999988
 21
342.49745999999999
 31
0.0
  0
LINE
  5
F6F5F
  8
OBJECT
 10
444.11550499999981
 20
364.49745999999999
 30
0.0
 11
431.11550499999993
 21
364.49745999999999
 31
0.0
  0
LINE
  5
F6F60
  8
OBJECT
 10
431.11550499999993
 20
359.49745999999999
 30
0.0
 11
431.11550499999993
 21
364.49745999999999
 31
0.0
  0
LINE
  5
F6F61
  8
OBJECT
 10
441.61550499999993
 20
341.36035199999998
 30
0.0
 11
441.61550499999993
 21
347.49745999999999
 31
0.0
  0
LINE
  5
F6F62
  8
OBJECT
 10
440.93892199999988
 20
341.36035199999998
 30
0.0
 11
440.93892199999988
 21
342.49745999999999
 31
0.0
  0
LINE
  5
F6F63
  8
OBJECT
 10
434.29208699999992
 20
341.36035199999998
 30
0.0
 11
434.29208699999992
 21
342.49745999999999
 31
0.0
  0
LINE
  5
F6F64
  8
OBJECT
 10
433.61550499999998
 20
341.36035199999998
 30
0.0
 11
433.61550499999998
 21
347.49745999999999
 31
0.0
  0
LINE
  5
F6F65
  8
OBJECT
 10
523.61550499999987
 20
341.36035199999998
 30
0.0
 11
523.61550499999987
 21
347.49745999999999
 31
0.0
  0
LINE
  5
F6F66
  8
OBJECT
 10
524.29208700000015
 20
341.36035199999998
 30
0.0
 11
524.29208700000015
 21
342.49745999999999
 31
0.0
  0
LINE
  5
F6F67
  8
OBJECT
 10
530.93892199999993
 20
341.36035199999998
 30
0.0
 11
530.93892199999993
 21
342.49745999999999
 31
0.0
  0
LINE
  5
F6F68
  8
OBJECT
 10
531.61550499999987
 20
341.36035199999998
 30
0.0
 11
531.61550499999987
 21
347.49745999999999
 31
0.0
  0
LINE
  5
F6F69
  8
OBJECT
 10
521.11550499999998
 20
359.49745999999999
 30
0.0
 11
521.11550499999998
 21
364.49745999999999
 31
0.0
  0
LINE
  5
F6F6A
  8
OBJECT
 10
534.1155050000001
 20
359.49745999999999
 30
0.0
 11
534.1155050000001
 21
364.49745999999999
 31
0.0
  0
LINE
  5
F6F6B
  8
OBJECT
 10
521.11550499999998
 20
359.49745999999999
 30
0.0
 11
534.1155050000001
 21
359.49745999999999
 31
0.0
  0
LINE
  5
F6F6C
  8
OBJECT
 10
523.61550499999987
 20
315.17404299999998
 30
0.0
 11
523.61550499999987
 21
321.56035200000002
 31
0.0
  0
LINE
  5
F6F6D
  8
OBJECT
 10
523.61550499999987
 20
315.17404299999998
 30
0.0
 11
524.29208700000015
 21
314.49745999999999
 31
0.0
  0
LINE
  5
F6F6E
  8
OBJECT
 10
524.29208700000015
 20
314.49745999999999
 30
0.0
 11
530.93892199999993
 21
314.49745999999999
 31
0.0
  0
LINE
  5
F6F6F
  8
OBJECT
 10
530.93892199999993
 20
314.49745999999999
 30
0.0
 11
531.61550499999987
 21
315.17404299999998
 31
0.0
  0
LINE
  5
F6F70
  8
OBJECT
 10
531.61550499999987
 20
315.17404299999998
 30
0.0
 11
531.61550499999987
 21
321.56035200000002
 31
0.0
  0
LINE
  5
F6F71
  8
OBJECT
 10
531.61550499999987
 20
342.49745999999999
 30
0.0
 11
523.61550499999987
 21
342.49745999999999
 31
0.0
  0
LINE
  5
F6F72
  8
OBJECT
 10
531.61550499999987
 20
315.17404299999998
 30
0.0
 11
523.61550499999987
 21
315.17404299999998
 31
0.0
  0
LINE
  5
F6F73
  8
OBJECT
 10
530.93892199999993
 20
314.49745999999999
 30
0.0
 11
530.93892199999993
 21
321.56035200000002
 31
0.0
  0
LINE
  5
F6F74
  8
OBJECT
 10
524.29208700000015
 20
314.49745999999999
 30
0.0
 11
524.29208700000015
 21
321.56035200000002
 31
0.0
  0
LINE
  5
F6F75
  8
OBJECT
 10
531.61550499999987
 20
343.66933599999999
 30
0.0
 11
530.93892199999993
 21
342.49745999999999
 31
0.0
  0
LINE
  5
F6F76
  8
OBJECT
 10
523.61550499999987
 20
343.66933599999999
 30
0.0
 11
524.29208700000015
 21
342.49745999999999
 31
0.0
  0
LINE
  5
F6F77
  8
OBJECT
 10
521.11550499999998
 20
364.49745999999999
 30
0.0
 11
534.1155050000001
 21
364.49745999999999
 31
0.0
  0
LINE
  5
F6F78
  8
CENTER
 10
527.61550499999976
 20
308.35519599999998
 30
0.0
 11
527.61550499999976
 21
369.001238
 31
0.0
  0
LINE
  5
F6F79
  8
OBJECT
 10
643.61550499999987
 20
341.36035199999998
 30
0.0
 11
643.61550499999987
 21
347.49745999999999
 31
0.0
  0
LINE
  5
F6F7A
  8
OBJECT
 10
644.29208700000015
 20
341.36035199999998
 30
0.0
 11
644.29208700000015
 21
342.49745999999999
 31
0.0
  0
LINE
  5
F6F7B
  8
OBJECT
 10
650.93892199999982
 20
341.36035199999998
 30
0.0
 11
650.93892199999982
 21
342.49745999999999
 31
0.0
  0
LINE
  5
F6F7C
  8
OBJECT
 10
651.61550499999998
 20
341.36035199999998
 30
0.0
 11
651.61550499999998
 21
347.49745999999999
 31
0.0
  0
LINE
  5
F6F7D
  8
OBJECT
 10
641.1155050000001
 20
359.49745999999999
 30
0.0
 11
641.1155050000001
 21
364.49745999999999
 31
0.0
  0
LINE
  5
F6F7E
  8
OBJECT
 10
654.1155050000001
 20
359.49745999999999
 30
0.0
 11
654.1155050000001
 21
364.49745999999999
 31
0.0
  0
LINE
  5
F6F7F
  8
OBJECT
 10
641.1155050000001
 20
359.49745999999999
 30
0.0
 11
654.1155050000001
 21
359.49745999999999
 31
0.0
  0
LINE
  5
F6F80
  8
OBJECT
 10
643.61550499999987
 20
315.17404299999998
 30
0.0
 11
643.61550499999987
 21
321.56035200000002
 31
0.0
  0
LINE
  5
F6F81
  8
OBJECT
 10
643.61550499999987
 20
315.17404299999998
 30
0.0
 11
644.29208700000015
 21
314.49745999999999
 31
0.0
  0
LINE
  5
F6F82
  8
OBJECT
 10
644.29208700000015
 20
314.49745999999999
 30
0.0
 11
650.93892199999982
 21
314.49745999999999
 31
0.0
  0
LINE
  5
F6F83
  8
OBJECT
 10
650.93892199999982
 20
314.49745999999999
 30
0.0
 11
651.61550499999998
 21
315.17404299999998
 31
0.0
  0
LINE
  5
F6F84
  8
OBJECT
 10
651.61550499999998
 20
315.17404299999998
 30
0.0
 11
651.61550499999998
 21
321.56035200000002
 31
0.0
  0
LINE
  5
F6F85
  8
OBJECT
 10
651.61550499999998
 20
342.49745999999999
 30
0.0
 11
643.61550499999987
 21
342.49745999999999
 31
0.0
  0
LINE
  5
F6F86
  8
OBJECT
 10
651.61550499999998
 20
315.17404299999998
 30
0.0
 11
643.61550499999987
 21
315.17404299999998
 31
0.0
  0
LINE
  5
F6F87
  8
OBJECT
 10
650.93892199999982
 20
314.49745999999999
 30
0.0
 11
650.93892199999982
 21
321.56035200000002
 31
0.0
  0
LINE
  5
F6F88
  8
OBJECT
 10
644.29208700000015
 20
314.49745999999999
 30
0.0
 11
644.29208700000015
 21
321.56035200000002
 31
0.0
  0
LINE
  5
F6F89
  8
OBJECT
 10
651.61550499999998
 20
343.66933599999999
 30
0.0
 11
650.93892199999982
 21
342.49745999999999
 31
0.0
  0
LINE
  5
F6F8A
  8
OBJECT
 10
643.61550499999987
 20
343.66933599999999
 30
0.0
 11
644.29208700000015
 21
342.49745999999999
 31
0.0
  0
LINE
  5
F6F8B
  8
OBJECT
 10
641.1155050000001
 20
364.49745999999999
 30
0.0
 11
654.1155050000001
 21
364.49745999999999
 31
0.0
  0
LINE
  5
F6F8C
  8
CENTER
 10
647.61550499999998
 20
308.35519599999998
 30
0.0
 11
647.61550499999998
 21
369.001238
 31
0.0
  0
LINE
  5
F6F8D
  8
CENTER
 10
557.6155050000001
 20
308.35519599999998
 30
0.0
 11
557.6155050000001
 21
369.001238
 31
0.0
  0
LINE
  5
F6F8E
  8
OBJECT
 10
561.61550499999976
 20
341.36035199999998
 30
0.0
 11
561.61550499999976
 21
347.49745999999999
 31
0.0
  0
LINE
  5
F6F8F
  8
OBJECT
 10
560.93892200000005
 20
341.36035199999998
 30
0.0
 11
560.93892200000005
 21
342.49745999999999
 31
0.0
  0
LINE
  5
F6F90
  8
OBJECT
 10
554.29208700000015
 20
341.36035199999998
 30
0.0
 11
554.29208700000015
 21
342.49745999999999
 31
0.0
  0
LINE
  5
F6F91
  8
OBJECT
 10
553.61550499999976
 20
341.36035199999998
 30
0.0
 11
553.61550499999976
 21
347.49745999999999
 31
0.0
  0
LINE
  5
F6F92
  8
OBJECT
 10
564.11550499999998
 20
359.49745999999999
 30
0.0
 11
564.11550499999998
 21
364.49745999999999
 31
0.0
  0
LINE
  5
F6F93
  8
OBJECT
 10
551.1155050000001
 20
359.49745999999999
 30
0.0
 11
551.1155050000001
 21
364.49745999999999
 31
0.0
  0
LINE
  5
F6F94
  8
OBJECT
 10
564.11550499999998
 20
359.49745999999999
 30
0.0
 11
551.1155050000001
 21
359.49745999999999
 31
0.0
  0
LINE
  5
F6F95
  8
OBJECT
 10
561.61550499999976
 20
315.17404299999998
 30
0.0
 11
561.61550499999976
 21
321.56035200000002
 31
0.0
  0
LINE
  5
F6F96
  8
OBJECT
 10
561.61550499999976
 20
315.17404299999998
 30
0.0
 11
560.93892200000005
 21
314.49745999999999
 31
0.0
  0
LINE
  5
F6F97
  8
OBJECT
 10
560.93892200000005
 20
314.49745999999999
 30
0.0
 11
554.29208700000015
 21
314.49745999999999
 31
0.0
  0
LINE
  5
F6F98
  8
OBJECT
 10
554.29208700000015
 20
314.49745999999999
 30
0.0
 11
553.61550499999976
 21
315.17404299999998
 31
0.0
  0
LINE
  5
F6F99
  8
OBJECT
 10
553.61550499999976
 20
315.17404299999998
 30
0.0
 11
553.61550499999976
 21
321.56035200000002
 31
0.0
  0
LINE
  5
F6F9A
  8
OBJECT
 10
553.61550499999976
 20
342.49745999999999
 30
0.0
 11
561.61550499999976
 21
342.49745999999999
 31
0.0
  0
LINE
  5
F6F9B
  8
OBJECT
 10
553.61550499999976
 20
315.17404299999998
 30
0.0
 11
561.61550499999976
 21
315.17404299999998
 31
0.0
  0
LINE
  5
F6F9C
  8
OBJECT
 10
554.29208700000015
 20
314.49745999999999
 30
0.0
 11
554.29208700000015
 21
321.56035200000002
 31
0.0
  0
LINE
  5
F6F9D
  8
OBJECT
 10
560.93892200000005
 20
314.49745999999999
 30
0.0
 11
560.93892200000005
 21
321.56035200000002
 31
0.0
  0
LINE
  5
F6F9E
  8
OBJECT
 10
553.61550499999976
 20
343.66933599999999
 30
0.0
 11
554.29208700000015
 21
342.49745999999999
 31
0.0
  0
LINE
  5
F6F9F
  8
OBJECT
 10
561.61550499999976
 20
343.66933599999999
 30
0.0
 11
560.93892200000005
 21
342.49745999999999
 31
0.0
  0
LINE
  5
F6FA0
  8
OBJECT
 10
564.11550499999998
 20
364.49745999999999
 30
0.0
 11
551.1155050000001
 21
364.49745999999999
 31
0.0
  0
LINE
  5
F6FA1
  8
OBJECT
 10
95.0
 20
-60.0
 30
0.0
 11
93.427766999999903
 21
-30.0
 31
0.0
  0
LINE
  5
F6FA2
  8
OBJECT
 10
95.0
 20
-60.0
 30
0.0
 11
115.0
 21
-60.0
 31
0.0
  0
LINE
  5
F6FA3
  8
OBJECT
 10
115.0
 20
-60.0
 30
0.0
 11
116.231583
 21
-36.499999999999993
 31
0.0
  0
LINE
  5
F6FA4
  8
OBJECT
 10
-36.5
 20
-60.0
 30
0.0
 11
-37.038722999999891
 21
-49.720548999999991
 31
0.0
  0
LINE
  5
F6FA5
  8
OBJECT
 10
-36.5
 20
-60.0
 30
0.0
 11
-16.5
 21
-60.0
 31
0.0
  0
LINE
  5
F6FA6
  8
OBJECT
 10
-16.5
 20
-60.0
 30
0.0
 11
-16.487814000000071
 21
-59.767482999999977
 31
0.0
  0
LINE
  5
F6FA7
  8
CENTER
 10
-26.5
 20
-34.245056999999989
 30
0.0
 11
-26.5
 21
-71.58278
 31
0.0
  0
LINE
  5
F6FA8
  8
CENTER
 10
105.0
 20
-79.195427999999978
 30
0.0
 11
105.0
 21
-24.466128999999999
 31
0.0
  0
ARC
  5
F6FA9
  8
OBJECT
 10
531.89824099999964
 20
493.70968499999958
 30
0.0
 40
5.0
 50
26.387799999998808
 51
85.000000000000185
  0
LINE
  5
F6FAA
  8
OBJECT
 10
525.61550499999998
 20
511.99745999999988
 30
0.0
 11
525.61550499999998
 21
515.49746000000005
 31
0.0
  0
LINE
  5
F6FAB
  8
OBJECT
 10
532.33402000000012
 20
498.69065799999998
 30
0.0
 11
521.35543900000005
 21
499.65115899999989
 31
0.0
  0
ARC
  5
F6FAC
  8
OBJECT
 10
523.61550499999987
 20
511.99745999999988
 30
0.0
 40
2.0
 50
270.0
 51
0.0
  0
LINE
  5
F6FAD
  8
OBJECT
 10
495.2203440000003
 20
488.60857199999958
 30
0.0
 11
508.7263489999998
 21
515.83079399999986
 31
0.0
  0
LINE
  5
F6FAE
  8
OBJECT
 10
540.01066499999968
 20
488.60857199999958
 30
0.0
 11
536.37727299999995
 21
495.9319069999998
 31
0.0
  0
ARC
  5
F6FAF
  8
OBJECT
 10
517.61550499999998
 20
477.49745999999999
 30
0.0
 40
25.0
 50
333.61220000000122
 51
26.387799999998808
  0
LINE
  5
F6FB0
  8
OBJECT
 10
504.17840799999971
 20
448.33079399999991
 30
0.0
 11
495.2203440000003
 21
466.38634899999988
 31
0.0
  0
ARC
  5
F6FB1
  8
OBJECT
 10
517.61550499999998
 20
454.99745999999988
 30
0.0
 40
15.0
 50
206.3877999999988
 51
333.61220000000122
  0
LINE
  5
F6FB2
  8
OBJECT
 10
531.05260099999975
 20
448.33079399999991
 30
0.0
 11
540.01066499999968
 21
466.38634899999988
 31
0.0
  0
ARC
  5
F6FB3
  8
OBJECT
 10
517.61550499999998
 20
477.49745999999999
 30
0.0
 40
25.0
 50
153.6122000000012
 51
206.3877999999988
  0
LINE
  5
F6FB4
  8
OBJECT
 10
523.61550499999987
 20
509.99745999999999
 30
0.0
 11
521.95525099999975
 21
509.99745999999999
 31
0.0
  0
LINE
  5
F6FB5
  8
CENTER
 10
508.3531669999997
 20
449.99745999999988
 30
0.0
 11
526.87386300000026
 21
449.99745999999988
 31
0.0
  0
LINE
  5
F6FB6
  8
OBJECT
 10
523.61550499999987
 20
517.49745999999959
 30
0.0
 11
511.413768
 21
517.49745999999959
 31
0.0
  0
ARC
  5
F6FB7
  8
OBJECT
 10
511.413768
 20
514.49746000000005
 30
0.0
 40
3.0
 50
90.0
 51
153.6122000000012
  0
ARC
  5
F6FB8
  8
OBJECT
 10
523.61550499999987
 20
515.49746000000005
 30
0.0
 40
2.0
 50
0.0
 51
90.0
  0
POINT
  5
F6FB9
  8
OBJECT
 10
509.55324699999989
 20
517.49745999999959
 30
0.0
  0
LINE
  5
F6FBA
  8
OBJECT
 10
531.05260099999975
 20
506.66412699999989
 30
0.0
 11
536.37727299999995
 21
495.9319069999998
 31
0.0
  0
ARC
  5
F6FBB
  8
OBJECT
 10
517.61550499999998
 20
499.99745999999988
 30
0.0
 40
15.0
 50
26.387799999998808
 51
57.769046999997038
  0
CIRCLE
  5
F6FBC
  8
OBJECT
 10
637.61550499999998
 20
504.99745999999959
 30
0.0
 40
6.5
  0
LINE
  5
F6FBD
  8
OBJECT
 10
637.61550499999998
 20
497.4919069999998
 30
0.0
 11
631.11550499999987
 21
501.24468399999989
 31
0.0
  0
LINE
  5
F6FBE
  8
OBJECT
 10
644.11550499999987
 20
501.24468399999989
 30
0.0
 11
637.61550499999998
 21
497.4919069999998
 31
0.0
  0
LINE
  5
F6FBF
  8
OBJECT
 10
644.11550499999987
 20
508.75023700000003
 30
0.0
 11
644.11550499999987
 21
501.24468399999989
 31
0.0
  0
LINE
  5
F6FC0
  8
OBJECT
 10
637.61550499999998
 20
512.50301399999978
 30
0.0
 11
644.11550499999987
 21
508.75023700000003
 31
0.0
  0
LINE
  5
F6FC1
  8
OBJECT
 10
631.11550499999987
 20
508.75023700000003
 30
0.0
 11
637.61550499999998
 21
512.50301399999978
 31
0.0
  0
LINE
  5
F6FC2
  8
OBJECT
 10
631.11550499999987
 20
501.24468399999989
 30
0.0
 11
631.11550499999987
 21
508.75023700000003
 31
0.0
  0
CIRCLE
  5
F6FC3
  8
OBJECT
 10
637.61550499999998
 20
449.99745999999988
 30
0.0
 40
6.5
  0
LINE
  5
F6FC4
  8
OBJECT
 10
637.61550499999998
 20
442.49190700000003
 30
0.0
 11
631.11550499999987
 21
446.24468400000001
 31
0.0
  0
LINE
  5
F6FC5
  8
OBJECT
 10
644.11550499999987
 20
446.24468400000001
 30
0.0
 11
637.61550499999998
 21
442.49190700000003
 31
0.0
  0
LINE
  5
F6FC6
  8
OBJECT
 10
644.11550499999987
 20
453.75023699999991
 30
0.0
 11
644.11550499999987
 21
446.24468400000001
 31
0.0
  0
LINE
  5
F6FC7
  8
OBJECT
 10
637.61550499999998
 20
457.50301399999989
 30
0.0
 11
644.11550499999987
 21
453.75023699999991
 31
0.0
  0
LINE
  5
F6FC8
  8
OBJECT
 10
631.11550499999987
 20
453.75023699999991
 30
0.0
 11
637.61550499999998
 21
457.50301399999989
 31
0.0
  0
LINE
  5
F6FC9
  8
OBJECT
 10
631.11550499999987
 20
446.24468400000001
 30
0.0
 11
631.11550499999987
 21
453.75023699999991
 31
0.0
  0
LINE
  5
F6FCA
  8
CENTER
 10
628.35316699999998
 20
504.99745999999959
 30
0.0
 11
646.87386300000014
 21
504.99745999999959
 31
0.0
  0
LINE
  5
F6FCB
  8
OBJECT
 10
651.05260100000021
 20
506.66412699999989
 30
0.0
 11
656.37727299999995
 21
495.9319069999998
 31
0.0
  0
ARC
  5
F6FCC
  8
OBJECT
 10
637.61550499999998
 20
499.99745999999988
 30
0.0
 40
15.0
 50
26.387799999998808
 51
57.769046999997038
  0
LINE
  5
F6FCD
  8
CENTER
 10
628.35316699999998
 20
449.99745999999988
 30
0.0
 11
646.87386300000014
 21
449.99745999999988
 31
0.0
  0
ARC
  5
F6FCE
  8
OBJECT
 10
651.8982410000001
 20
493.70968499999958
 30
0.0
 40
5.0
 50
26.387799999998808
 51
85.000000000000185
  0
LINE
  5
F6FCF
  8
OBJECT
 10
645.6155050000001
 20
511.99745999999988
 30
0.0
 11
645.6155050000001
 21
515.49746000000005
 31
0.0
  0
LINE
  5
F6FD0
  8
OBJECT
 10
652.33402000000012
 20
498.69065799999998
 30
0.0
 11
641.35543899999982
 21
499.65115899999989
 31
0.0
  0
ARC
  5
F6FD1
  8
OBJECT
 10
643.61550499999987
 20
511.99745999999988
 30
0.0
 40
2.0
 50
270.0
 51
0.0
  0
LINE
  5
F6FD2
  8
OBJECT
 10
615.22034399999995
 20
488.60857199999958
 30
0.0
 11
628.7263489999998
 21
515.83079399999986
 31
0.0
  0
LINE
  5
F6FD3
  8
OBJECT
 10
660.01066499999979
 20
488.60857199999958
 30
0.0
 11
656.37727299999995
 21
495.9319069999998
 31
0.0
  0
ARC
  5
F6FD4
  8
OBJECT
 10
637.61550499999998
 20
477.49745999999999
 30
0.0
 40
25.0
 50
333.61220000000122
 51
26.387799999998808
  0
LINE
  5
F6FD5
  8
OBJECT
 10
624.1784080000001
 20
448.33079399999991
 30
0.0
 11
615.22034399999995
 21
466.38634899999988
 31
0.0
  0
ARC
  5
F6FD6
  8
OBJECT
 10
637.61550499999998
 20
454.99745999999988
 30
0.0
 40
15.0
 50
206.3877999999988
 51
333.61220000000122
  0
LINE
  5
F6FD7
  8
OBJECT
 10
651.05260100000021
 20
448.33079399999991
 30
0.0
 11
660.01066499999979
 21
466.38634899999988
 31
0.0
  0
ARC
  5
F6FD8
  8
OBJECT
 10
637.61550499999998
 20
477.49745999999999
 30
0.0
 40
25.0
 50
153.6122000000012
 51
206.3877999999988
  0
LINE
  5
F6FD9
  8
OBJECT
 10
643.61550499999987
 20
509.99745999999999
 30
0.0
 11
641.95525099999986
 21
509.99745999999999
 31
0.0
  0
LINE
  5
F6FDA
  8
OBJECT
 10
643.61550499999987
 20
517.49745999999959
 30
0.0
 11
631.41376800000012
 21
517.49745999999959
 31
0.0
  0
ARC
  5
F6FDB
  8
OBJECT
 10
631.41376800000012
 20
514.49746000000005
 30
0.0
 40
3.0
 50
90.0
 51
153.6122000000012
  0
ARC
  5
F6FDC
  8
OBJECT
 10
643.61550499999987
 20
515.49746000000005
 30
0.0
 40
2.0
 50
0.0
 51
90.0
  0
POINT
  5
F6FDD
  8
OBJECT
 10
629.55324700000006
 20
517.49745999999959
 30
0.0
  0
LINE
  5
F6FDE
  8
CENTER
 10
637.61550499999998
 20
435.011641
 30
0.0
 11
637.61550499999998
 21
519.46601599999985
 31
0.0
  0
LINE
  5
F6FDF
  8
OBJECT
 10
675.5419109999998
 20
432.99745999999988
 30
0.0
 11
675.53225999999995
 21
433.00287199999991
 31
0.0
  0
LINE
  5
F6FE0
  8
OBJECT
 10
675.53225999999995
 20
433.00287199999991
 30
0.0
 11
675.50412900000015
 21
433.01864399999999
 31
0.0
  0
LINE
  5
F6FE1
  8
OBJECT
 10
675.50412900000015
 20
433.01864399999999
 30
0.0
 11
675.45875000000012
 21
433.04408099999989
 31
0.0
  0
LINE
  5
F6FE2
  8
OBJECT
 10
675.45875000000012
 20
433.04408099999989
 30
0.0
 11
675.39735599999995
 21
433.07848799999999
 31
0.0
  0
LINE
  5
F6FE3
  8
OBJECT
 10
675.39735599999995
 20
433.07848799999999
 30
0.0
 11
675.3211799999998
 21
433.12116999999989
 31
0.0
  0
LINE
  5
F6FE4
  8
OBJECT
 10
675.3211799999998
 20
433.12116999999989
 30
0.0
 11
675.23145499999998
 21
433.17143199999992
 31
0.0
  0
LINE
  5
F6FE5
  8
OBJECT
 10
675.23145499999998
 20
433.17143199999992
 30
0.0
 11
675.12941400000011
 21
433.22857899999991
 31
0.0
  0
LINE
  5
F6FE6
  8
OBJECT
 10
675.12941400000011
 20
433.22857899999991
 30
0.0
 11
675.0162889999998
 21
433.29191699999978
 31
0.0
  0
LINE
  5
F6FE7
  8
OBJECT
 10
675.0162889999998
 20
433.29191699999978
 30
0.0
 11
674.8933139999998
 21
433.360749
 31
0.0
  0
LINE
  5
F6FE8
  8
OBJECT
 10
674.8933139999998
 20
433.360749
 30
0.0
 11
674.76172100000019
 21
433.43438200000003
 31
0.0
  0
LINE
  5
F6FE9
  8
OBJECT
 10
674.76172100000019
 20
433.43438200000003
 30
0.0
 11
674.62274299999956
 21
433.51211999999992
 31
0.0
  0
LINE
  5
F6FEA
  8
OBJECT
 10
674.62274299999956
 20
433.51211999999992
 30
0.0
 11
674.47761300000013
 21
433.59326799999991
 31
0.0
  0
LINE
  5
F6FEB
  8
OBJECT
 10
674.47761300000013
 20
433.59326799999991
 30
0.0
 11
674.32756300000005
 21
433.67713200000009
 31
0.0
  0
LINE
  5
F6FEC
  8
OBJECT
 10
674.32756300000005
 20
433.67713200000009
 30
0.0
 11
674.17382699999985
 21
433.76301599999988
 31
0.0
  0
LINE
  5
F6FED
  8
OBJECT
 10
674.17382699999985
 20
433.76301599999988
 30
0.0
 11
674.01763700000015
 21
433.85022400000008
 31
0.0
  0
LINE
  5
F6FEE
  8
OBJECT
 10
674.01763700000015
 20
433.85022400000008
 30
0.0
 11
673.8602269999999
 21
433.93806399999988
 31
0.0
  0
LINE
  5
F6FEF
  8
OBJECT
 10
673.8602269999999
 20
433.93806399999988
 30
0.0
 11
673.70282899999995
 21
434.02583800000002
 31
0.0
  0
LINE
  5
F6FF0
  8
OBJECT
 10
673.70282899999995
 20
434.02583800000002
 30
0.0
 11
673.54667500000005
 21
434.11285299999992
 31
0.0
  0
LINE
  5
F6FF1
  8
OBJECT
 10
673.54667500000005
 20
434.11285299999992
 30
0.0
 11
673.3929989999998
 21
434.19841199999991
 31
0.0
  0
LINE
  5
F6FF2
  8
OBJECT
 10
673.3929989999998
 20
434.19841199999991
 30
0.0
 11
673.24303299999985
 21
434.2818229999998
 31
0.0
  0
LINE
  5
F6FF3
  8
OBJECT
 10
673.24303299999985
 20
434.2818229999998
 30
0.0
 11
673.07787299999995
 21
434.37356799999992
 31
0.0
  0
LINE
  5
F6FF4
  8
OBJECT
 10
673.07787299999995
 20
434.37356799999992
 30
0.0
 11
672.91871600000013
 21
434.46184399999993
 31
0.0
  0
LINE
  5
F6FF5
  8
OBJECT
 10
672.91871600000013
 20
434.46184399999993
 30
0.0
 11
672.76514299999985
 21
434.546874
 31
0.0
  0
LINE
  5
F6FF6
  8
OBJECT
 10
672.76514299999985
 20
434.546874
 30
0.0
 11
672.61674100000016
 21
434.6288829999998
 31
0.0
  0
LINE
  5
F6FF7
  8
OBJECT
 10
672.61674100000016
 20
434.6288829999998
 30
0.0
 11
672.47309099999995
 21
434.70809300000002
 31
0.0
  0
LINE
  5
F6FF8
  8
OBJECT
 10
672.47309099999995
 20
434.70809300000002
 30
0.0
 11
672.33377700000005
 21
434.7847289999998
 31
0.0
  0
LINE
  5
F6FF9
  8
OBJECT
 10
672.33377700000005
 20
434.7847289999998
 30
0.0
 11
672.19838399999981
 21
434.85901399999989
 31
0.0
  0
LINE
  5
F6FFA
  8
OBJECT
 10
672.19838399999981
 20
434.85901399999989
 30
0.0
 11
672.06649500000015
 21
434.931174
 31
0.0
  0
LINE
  5
F6FFB
  8
OBJECT
 10
672.06649500000015
 20
434.931174
 30
0.0
 11
671.93769299999997
 21
435.00143000000003
 31
0.0
  0
LINE
  5
F6FFC
  8
OBJECT
 10
671.93769299999997
 20
435.00143000000003
 30
0.0
 11
671.81156199999987
 21
435.07000799999997
 31
0.0
  0
LINE
  5
F6FFD
  8
OBJECT
 10
671.81156199999987
 20
435.07000799999997
 30
0.0
 11
671.68768599999964
 21
435.13713099999973
 31
0.0
  0
LINE
  5
F6FFE
  8
OBJECT
 10
671.68768599999964
 20
435.13713099999973
 30
0.0
 11
671.56564799999978
 21
435.20302299999992
 31
0.0
  0
LINE
  5
F6FFF
  8
OBJECT
 10
671.56564799999978
 20
435.20302299999992
 30
0.0
 11
671.44503299999997
 21
435.26790799999992
 31
0.0
  0
LINE
  5
F7000
  8
OBJECT
 10
671.44503299999997
 20
435.26790799999992
 30
0.0
 11
671.32542299999966
 21
435.33200999999991
 31
0.0
  0
LINE
  5
F7001
  8
OBJECT
 10
671.32542299999966
 20
435.33200999999991
 30
0.0
 11
671.20640199999968
 21
435.39555300000001
 31
0.0
  0
LINE
  5
F7002
  8
OBJECT
 10
671.20640199999968
 20
435.39555300000001
 30
0.0
 11
671.08755399999995
 21
435.45875999999998
 31
0.0
  0
LINE
  5
F7003
  8
OBJECT
 10
671.08755399999995
 20
435.45875999999998
 30
0.0
 11
670.96846299999982
 21
435.52185500000002
 31
0.0
  0
LINE
  5
F7004
  8
OBJECT
 10
670.96846299999982
 20
435.52185500000002
 30
0.0
 11
670.84871099999998
 21
435.58506299999988
 31
0.0
  0
LINE
  5
F7005
  8
OBJECT
 10
670.84871099999998
 20
435.58506299999988
 30
0.0
 11
670.72788400000013
 21
435.64860700000003
 31
0.0
  0
LINE
  5
F7006
  8
OBJECT
 10
670.72788400000013
 20
435.64860700000003
 30
0.0
 11
670.60556399999984
 21
435.71271100000001
 31
0.0
  0
LINE
  5
F7007
  8
OBJECT
 10
670.60556399999984
 20
435.71271100000001
 30
0.0
 11
670.49177799999995
 21
435.77214999999973
 31
0.0
  0
LINE
  5
F7008
  8
OBJECT
 10
670.49177799999995
 20
435.77214999999973
 30
0.0
 11
670.37647900000013
 21
435.83219099999991
 31
0.0
  0
LINE
  5
F7009
  8
OBJECT
 10
670.37647900000013
 20
435.83219099999991
 30
0.0
 11
670.2597589999998
 21
435.89277900000002
 31
0.0
  0
LINE
  5
F700A
  8
OBJECT
 10
670.2597589999998
 20
435.89277900000002
 30
0.0
 11
670.14171199999998
 21
435.95385499999992
 31
0.0
  0
LINE
  5
F700B
  8
OBJECT
 10
670.14171199999998
 20
435.95385499999992
 30
0.0
 11
670.0224290000001
 21
436.01536399999998
 31
0.0
  0
LINE
  5
F700C
  8
OBJECT
 10
670.0224290000001
 20
436.01536399999998
 30
0.0
 11
669.90200400000015
 21
436.077248
 31
0.0
  0
LINE
  5
F700D
  8
OBJECT
 10
669.90200400000015
 20
436.077248
 30
0.0
 11
669.78052900000012
 21
436.13945100000001
 31
0.0
  0
LINE
  5
F700E
  8
OBJECT
 10
669.78052900000012
 20
436.13945100000001
 30
0.0
 11
669.658097
 21
436.20191499999999
 31
0.0
  0
LINE
  5
F700F
  8
OBJECT
 10
669.658097
 20
436.20191499999999
 30
0.0
 11
669.53480000000013
 21
436.26458499999978
 31
0.0
  0
LINE
  5
F7010
  8
OBJECT
 10
669.53480000000013
 20
436.26458499999978
 30
0.0
 11
669.41073100000006
 21
436.327403
 31
0.0
  0
LINE
  5
F7011
  8
OBJECT
 10
669.41073100000006
 20
436.327403
 30
0.0
 11
669.2859830000001
 21
436.39031199999988
 31
0.0
  0
LINE
  5
F7012
  8
OBJECT
 10
669.2859830000001
 20
436.39031199999988
 30
0.0
 11
669.16064799999981
 21
436.45325599999978
 31
0.0
  0
LINE
  5
F7013
  8
OBJECT
 10
669.16064799999981
 20
436.45325599999978
 30
0.0
 11
669.03481899999986
 21
436.51617800000002
 31
0.0
  0
LINE
  5
F7014
  8
OBJECT
 10
669.03481899999986
 20
436.51617800000002
 30
0.0
 11
668.90858900000001
 21
436.57902099999978
 31
0.0
  0
LINE
  5
F7015
  8
OBJECT
 10
668.90858900000001
 20
436.57902099999978
 30
0.0
 11
668.78205000000014
 21
436.641728
 31
0.0
  0
LINE
  5
F7016
  8
OBJECT
 10
668.78205000000014
 20
436.641728
 30
0.0
 11
668.65529600000013
 21
436.70424300000002
 31
0.0
  0
LINE
  5
F7017
  8
OBJECT
 10
668.65529600000013
 20
436.70424300000002
 30
0.0
 11
668.52841699999999
 21
436.76650799999999
 31
0.0
  0
LINE
  5
F7018
  8
OBJECT
 10
668.52841699999999
 20
436.76650799999999
 30
0.0
 11
668.40150800000015
 21
436.82846699999999
 31
0.0
  0
LINE
  5
F7019
  8
OBJECT
 10
668.40150800000015
 20
436.82846699999999
 30
0.0
 11
668.2746609999997
 21
436.89006299999988
 31
0.0
  0
LINE
  5
F701A
  8
OBJECT
 10
668.2746609999997
 20
436.89006299999988
 30
0.0
 11
668.14796800000011
 21
436.95123999999993
 31
0.0
  0
LINE
  5
F701B
  8
OBJECT
 10
668.14796800000011
 20
436.95123999999993
 30
0.0
 11
667.99622599999987
 21
437.02404599999988
 31
0.0
  0
LINE
  5
F701C
  8
OBJECT
 10
667.99622599999987
 20
437.02404599999988
 30
0.0
 11
667.84481100000005
 21
437.09619999999978
 31
0.0
  0
LINE
  5
F701D
  8
OBJECT
 10
667.84481100000005
 20
437.09619999999978
 30
0.0
 11
667.69369500000005
 21
437.16773299999988
 31
0.0
  0
LINE
  5
F701E
  8
OBJECT
 10
667.69369500000005
 20
437.16773299999988
 30
0.0
 11
667.54284800000005
 21
437.23867799999999
 31
0.0
  0
LINE
  5
F701F
  8
OBJECT
 10
667.54284800000005
 20
437.23867799999999
 30
0.0
 11
667.39224300000012
 21
437.30907000000002
 31
0.0
  0
LINE
  5
F7020
  8
OBJECT
 10
667.39224300000012
 20
437.30907000000002
 30
0.0
 11
667.24185
 21
437.37893999999972
 31
0.0
  0
LINE
  5
F7021
  8
OBJECT
 10
667.24185
 20
437.37893999999972
 30
0.0
 11
667.09164099999998
 21
437.44832200000002
 31
0.0
  0
LINE
  5
F7022
  8
OBJECT
 10
667.09164099999998
 20
437.44832200000002
 30
0.0
 11
666.94158700000014
 21
437.51724899999988
 31
0.0
  0
LINE
  5
F7023
  8
OBJECT
 10
666.94158700000014
 20
437.51724899999988
 30
0.0
 11
666.79165999999987
 21
437.58575399999989
 31
0.0
  0
LINE
  5
F7024
  8
OBJECT
 10
666.79165999999987
 20
437.58575399999989
 30
0.0
 11
666.6418299999998
 21
437.65386999999998
 31
0.0
  0
LINE
  5
F7025
  8
OBJECT
 10
666.6418299999998
 20
437.65386999999998
 30
0.0
 11
666.49206899999967
 21
437.72162899999989
 31
0.0
  0
LINE
  5
F7026
  8
OBJECT
 10
666.49206899999967
 20
437.72162899999989
 30
0.0
 11
666.3423489999999
 21
437.78906599999999
 31
0.0
  0
LINE
  5
F7027
  8
OBJECT
 10
666.3423489999999
 20
437.78906599999999
 30
0.0
 11
666.1926400000001
 21
437.8562119999998
 31
0.0
  0
LINE
  5
F7028
  8
OBJECT
 10
666.1926400000001
 20
437.8562119999998
 30
0.0
 11
666.04291400000011
 21
437.9231009999998
 31
0.0
  0
LINE
  5
F7029
  8
OBJECT
 10
666.04291400000011
 20
437.9231009999998
 30
0.0
 11
665.89314300000012
 21
437.98976599999997
 31
0.0
  0
LINE
  5
F702A
  8
OBJECT
 10
665.89314300000012
 20
437.98976599999997
 30
0.0
 11
665.74329699999998
 21
438.05623999999989
 31
0.0
  0
LINE
  5
F702B
  8
OBJECT
 10
665.74329699999998
 20
438.05623999999989
 30
0.0
 11
665.59334699999988
 21
438.12255699999992
 31
0.0
  0
LINE
  5
F702C
  8
OBJECT
 10
665.59334699999988
 20
438.12255699999992
 30
0.0
 11
665.44326599999999
 21
438.18874799999992
 31
0.0
  0
LINE
  5
F702D
  8
OBJECT
 10
665.44326599999999
 20
438.18874799999992
 30
0.0
 11
665.29302499999994
 21
438.25484699999993
 31
0.0
  0
LINE
  5
F702E
  8
OBJECT
 10
665.29302499999994
 20
438.25484699999993
 30
0.0
 11
665.1425939999998
 21
438.3208869999998
 31
0.0
  0
LINE
  5
F702F
  8
OBJECT
 10
665.1425939999998
 20
438.3208869999998
 30
0.0
 11
664.96324299999969
 21
438.39945699999993
 31
0.0
  0
LINE
  5
F7030
  8
OBJECT
 10
664.96324299999969
 20
438.39945699999993
 30
0.0
 11
664.78360299999986
 21
438.47796699999992
 31
0.0
  0
LINE
  5
F7031
  8
OBJECT
 10
664.78360299999986
 20
438.47796699999992
 30
0.0
 11
664.60369100000014
 21
438.55639100000002
 31
0.0
  0
LINE
  5
F7032
  8
OBJECT
 10
664.60369100000014
 20
438.55639100000002
 30
0.0
 11
664.42352599999981
 21
438.634705
 31
0.0
  0
LINE
  5
F7033
  8
OBJECT
 10
664.42352599999981
 20
438.634705
 30
0.0
 11
664.24312600000019
 21
438.7128849999998
 31
0.0
  0
LINE
  5
F7034
  8
OBJECT
 10
664.24312600000019
 20
438.7128849999998
 30
0.0
 11
664.06251199999997
 21
438.79090600000001
 31
0.0
  0
LINE
  5
F7035
  8
OBJECT
 10
664.06251199999997
 20
438.79090600000001
 30
0.0
 11
663.88170000000014
 21
438.86874399999988
 31
0.0
  0
LINE
  5
F7036
  8
OBJECT
 10
663.88170000000014
 20
438.86874399999988
 30
0.0
 11
663.70070999999984
 21
438.94637599999987
 31
0.0
  0
LINE
  5
F7037
  8
OBJECT
 10
663.70070999999984
 20
438.94637599999987
 30
0.0
 11
663.51956099999995
 21
439.02377499999989
 31
0.0
  0
LINE
  5
F7038
  8
OBJECT
 10
663.51956099999995
 20
439.02377499999989
 30
0.0
 11
663.33826999999985
 21
439.10091899999998
 31
0.0
  0
LINE
  5
F7039
  8
OBJECT
 10
663.33826999999985
 20
439.10091899999998
 30
0.0
 11
663.15685699999995
 21
439.17778199999992
 31
0.0
  0
LINE
  5
F703A
  8
OBJECT
 10
663.15685699999995
 20
439.17778199999992
 30
0.0
 11
662.97534099999984
 21
439.25434100000001
 31
0.0
  0
LINE
  5
F703B
  8
OBJECT
 10
662.97534099999984
 20
439.25434100000001
 30
0.0
 11
662.79373999999984
 21
439.33057099999991
 31
0.0
  0
LINE
  5
F703C
  8
OBJECT
 10
662.79373999999984
 20
439.33057099999991
 30
0.0
 11
662.61207200000013
 21
439.40644700000001
 31
0.0
  0
LINE
  5
F703D
  8
OBJECT
 10
662.61207200000013
 20
439.40644700000001
 30
0.0
 11
662.43035699999984
 21
439.48194599999988
 31
0.0
  0
LINE
  5
F703E
  8
OBJECT
 10
662.43035699999984
 20
439.48194599999988
 30
0.0
 11
662.2486130000002
 21
439.55704199999991
 31
0.0
  0
LINE
  5
F703F
  8
OBJECT
 10
662.2486130000002
 20
439.55704199999991
 30
0.0
 11
662.06685800000014
 21
439.63171299999988
 31
0.0
  0
LINE
  5
F7040
  8
OBJECT
 10
662.06685800000014
 20
439.63171299999988
 30
0.0
 11
661.88511200000016
 21
439.70593200000002
 31
0.0
  0
LINE
  5
F7041
  8
OBJECT
 10
661.88511200000016
 20
439.70593200000002
 30
0.0
 11
661.70339300000012
 21
439.77967699999999
 31
0.0
  0
LINE
  5
F7042
  8
OBJECT
 10
661.70339300000012
 20
439.77967699999999
 30
0.0
 11
661.52171999999996
 21
439.85292199999992
 31
0.0
  0
LINE
  5
F7043
  8
OBJECT
 10
661.52171999999996
 20
439.85292199999992
 30
0.0
 11
661.34779700000013
 21
439.92257999999993
 31
0.0
  0
LINE
  5
F7044
  8
OBJECT
 10
661.34779700000013
 20
439.92257999999993
 30
0.0
 11
661.17389399999968
 21
439.99178499999999
 31
0.0
  0
LINE
  5
F7045
  8
OBJECT
 10
661.17389399999968
 20
439.99178499999999
 30
0.0
 11
660.99997199999984
 21
440.06056499999983
 31
0.0
  0
LINE
  5
F7046
  8
OBJECT
 10
660.99997199999984
 20
440.06056499999983
 30
0.0
 11
660.82599199999981
 21
440.12894699999998
 31
0.0
  0
LINE
  5
F7047
  8
OBJECT
 10
660.82599199999981
 20
440.12894699999998
 30
0.0
 11
660.65191600000014
 21
440.19695899999999
 31
0.0
  0
LINE
  5
F7048
  8
OBJECT
 10
660.65191600000014
 20
440.19695899999999
 30
0.0
 11
660.47770299999979
 21
440.26462799999979
 31
0.0
  0
LINE
  5
F7049
  8
OBJECT
 10
660.47770299999979
 20
440.26462799999979
 30
0.0
 11
660.30331600000011
 21
440.33198099999998
 31
0.0
  0
LINE
  5
F704A
  8
OBJECT
 10
660.30331600000011
 20
440.33198099999998
 30
0.0
 11
660.12871500000006
 21
440.399047
 31
0.0
  0
LINE
  5
F704B
  8
OBJECT
 10
660.12871500000006
 20
440.399047
 30
0.0
 11
659.95386199999984
 21
440.46585199999993
 31
0.0
  0
LINE
  5
F704C
  8
OBJECT
 10
659.95386199999984
 20
440.46585199999993
 30
0.0
 11
659.77871600000014
 21
440.53242399999988
 31
0.0
  0
LINE
  5
F704D
  8
OBJECT
 10
659.77871600000014
 20
440.53242399999988
 30
0.0
 11
659.6032399999998
 21
440.59879100000001
 31
0.0
  0
LINE
  5
F704E
  8
OBJECT
 10
659.6032399999998
 20
440.59879100000001
 30
0.0
 11
659.42739400000005
 21
440.66497899999979
 31
0.0
  0
LINE
  5
F704F
  8
OBJECT
 10
659.42739400000005
 20
440.66497899999979
 30
0.0
 11
659.25113999999985
 21
440.73101800000001
 31
0.0
  0
LINE
  5
F7050
  8
OBJECT
 10
659.25113999999985
 20
440.73101800000001
 30
0.0
 11
659.07443799999999
 21
440.79693299999991
 31
0.0
  0
LINE
  5
F7051
  8
OBJECT
 10
659.07443799999999
 20
440.79693299999991
 30
0.0
 11
658.8972500000001
 21
440.86275199999989
 31
0.0
  0
LINE
  5
F7052
  8
OBJECT
 10
658.8972500000001
 20
440.86275199999989
 30
0.0
 11
658.71953599999995
 21
440.92850399999992
 31
0.0
  0
LINE
  5
F7053
  8
OBJECT
 10
658.71953599999995
 20
440.92850399999992
 30
0.0
 11
658.54125799999986
 21
440.99421499999988
 31
0.0
  0
LINE
  5
F7054
  8
OBJECT
 10
658.54125799999986
 20
440.99421499999988
 30
0.0
 11
658.36237699999981
 21
441.05991299999999
 31
0.0
  0
LINE
  5
F7055
  8
OBJECT
 10
658.36237699999981
 20
441.05991299999999
 30
0.0
 11
658.1828529999998
 21
441.12562600000001
 31
0.0
  0
LINE
  5
F7056
  8
OBJECT
 10
658.1828529999998
 20
441.12562600000001
 30
0.0
 11
658.0026469999998
 21
441.19137999999992
 31
0.0
  0
LINE
  5
F7057
  8
OBJECT
 10
658.0026469999998
 20
441.19137999999992
 30
0.0
 11
657.85041600000011
 21
441.24677299999991
 31
0.0
  0
LINE
  5
F7058
  8
OBJECT
 10
657.85041600000011
 20
441.24677299999991
 30
0.0
 11
657.69778699999995
 21
441.30216200000001
 31
0.0
  0
LINE
  5
F7059
  8
OBJECT
 10
657.69778699999995
 20
441.30216200000001
 30
0.0
 11
657.54487400000005
 21
441.35749399999997
 31
0.0
  0
LINE
  5
F705A
  8
OBJECT
 10
657.54487400000005
 20
441.35749399999997
 30
0.0
 11
657.39178700000014
 21
441.41271399999988
 31
0.0
  0
LINE
  5
F705B
  8
OBJECT
 10
657.39178700000014
 20
441.41271399999988
 30
0.0
 11
657.23864100000014
 21
441.46776999999992
 31
0.0
  0
LINE
  5
F705C
  8
OBJECT
 10
657.23864100000014
 20
441.46776999999992
 30
0.0
 11
657.0855489999999
 21
441.52260899999987
 31
0.0
  0
LINE
  5
F705D
  8
OBJECT
 10
657.0855489999999
 20
441.52260899999987
 30
0.0
 11
656.93262099999981
 21
441.57717600000001
 31
0.0
  0
LINE
  5
F705E
  8
OBJECT
 10
656.93262099999981
 20
441.57717600000001
 30
0.0
 11
656.77997199999982
 21
441.63141899999999
 31
0.0
  0
LINE
  5
F705F
  8
OBJECT
 10
656.77997199999982
 20
441.63141899999999
 30
0.0
 11
656.62771499999985
 21
441.68528400000002
 31
0.0
  0
LINE
  5
F7060
  8
OBJECT
 10
656.62771499999985
 20
441.68528400000002
 30
0.0
 11
656.47595999999999
 21
441.73871800000001
 31
0.0
  0
LINE
  5
F7061
  8
OBJECT
 10
656.47595999999999
 20
441.73871800000001
 30
0.0
 11
656.32482299999981
 21
441.79166699999979
 31
0.0
  0
LINE
  5
F7062
  8
OBJECT
 10
656.32482299999981
 20
441.79166699999979
 30
0.0
 11
656.17441399999996
 21
441.84407900000002
 31
0.0
  0
LINE
  5
F7063
  8
OBJECT
 10
656.17441399999996
 20
441.84407900000002
 30
0.0
 11
656.02484699999968
 21
441.89589899999999
 31
0.0
  0
LINE
  5
F7064
  8
OBJECT
 10
656.02484699999968
 20
441.89589899999999
 30
0.0
 11
655.87623499999995
 21
441.94707399999999
 31
0.0
  0
LINE
  5
F7065
  8
OBJECT
 10
655.87623499999995
 20
441.94707399999999
 30
0.0
 11
655.7286889999998
 21
441.99755199999998
 31
0.0
  0
LINE
  5
F7066
  8
OBJECT
 10
655.7286889999998
 20
441.99755199999998
 30
0.0
 11
655.5823240000002
 21
442.04727799999989
 31
0.0
  0
LINE
  5
F7067
  8
OBJECT
 10
655.5823240000002
 20
442.04727799999989
 30
0.0
 11
655.43725099999995
 21
442.09619900000001
 31
0.0
  0
LINE
  5
F7068
  8
OBJECT
 10
655.43725099999995
 20
442.09619900000001
 30
0.0
 11
655.29358300000013
 21
442.14426199999991
 31
0.0
  0
LINE
  5
F7069
  8
OBJECT
 10
655.29358300000013
 20
442.14426199999991
 30
0.0
 11
655.15143300000011
 21
442.19141300000001
 31
0.0
  0
LINE
  5
F706A
  8
OBJECT
 10
655.15143300000011
 20
442.19141300000001
 30
0.0
 11
655.01091399999984
 21
442.23759899999988
 31
0.0
  0
LINE
  5
F706B
  8
OBJECT
 10
655.01091399999984
 20
442.23759899999988
 30
0.0
 11
654.80940799999985
 21
442.30302999999992
 31
0.0
  0
LINE
  5
F706C
  8
OBJECT
 10
654.80940799999985
 20
442.30302999999992
 30
0.0
 11
654.61074699999995
 21
442.36652699999979
 31
0.0
  0
LINE
  5
F706D
  8
OBJECT
 10
654.61074699999995
 20
442.36652699999979
 30
0.0
 11
654.41408500000011
 21
442.42831200000001
 31
0.0
  0
LINE
  5
F706E
  8
OBJECT
 10
654.41408500000011
 20
442.42831200000001
 30
0.0
 11
654.2185750000001
 21
442.488608
 31
0.0
  0
LINE
  5
F706F
  8
OBJECT
 10
654.2185750000001
 20
442.488608
 30
0.0
 11
654.02337200000011
 21
442.54763600000001
 31
0.0
  0
LINE
  5
F7070
  8
OBJECT
 10
654.02337200000011
 20
442.54763600000001
 30
0.0
 11
653.82762900000012
 21
442.60561899999988
 31
0.0
  0
LINE
  5
F7071
  8
OBJECT
 10
653.82762900000012
 20
442.60561899999988
 30
0.0
 11
653.63050199999998
 21
442.662778
 31
0.0
  0
LINE
  5
F7072
  8
OBJECT
 10
653.63050199999998
 20
442.662778
 30
0.0
 11
653.43114299999979
 21
442.719336
 31
0.0
  0
LINE
  5
F7073
  8
OBJECT
 10
653.43114299999979
 20
442.719336
 30
0.0
 11
653.2287080000001
 21
442.77551399999999
 31
0.0
  0
LINE
  5
F7074
  8
OBJECT
 10
653.2287080000001
 20
442.77551399999999
 30
0.0
 11
653.02234899999996
 21
442.83153399999998
 31
0.0
  0
LINE
  5
F7075
  8
OBJECT
 10
653.02234899999996
 20
442.83153399999998
 30
0.0
 11
652.8112219999997
 21
442.88761999999991
 31
0.0
  0
LINE
  5
F7076
  8
OBJECT
 10
652.8112219999997
 20
442.88761999999991
 30
0.0
 11
652.59448099999975
 21
442.94399199999998
 31
0.0
  0
LINE
  5
F7077
  8
OBJECT
 10
652.59448099999975
 20
442.94399199999998
 30
0.0
 11
652.37127899999984
 21
443.00087200000002
 31
0.0
  0
LINE
  5
F7078
  8
OBJECT
 10
652.37127899999984
 20
443.00087200000002
 30
0.0
 11
652.14077099999997
 21
443.05848299999991
 31
0.0
  0
LINE
  5
F7079
  8
OBJECT
 10
652.14077099999997
 20
443.05848299999991
 30
0.0
 11
651.90211099999965
 21
443.11704700000001
 31
0.0
  0
LINE
  5
F707A
  8
OBJECT
 10
651.90211099999965
 20
443.11704700000001
 30
0.0
 11
651.65445199999999
 21
443.17678599999988
 31
0.0
  0
LINE
  5
F707B
  8
OBJECT
 10
651.65445199999999
 20
443.17678599999988
 30
0.0
 11
651.39694999999995
 21
443.23792099999991
 31
0.0
  0
LINE
  5
F707C
  8
OBJECT
 10
651.39694999999995
 20
443.23792099999991
 30
0.0
 11
651.12875699999995
 21
443.30067499999979
 31
0.0
  0
LINE
  5
F707D
  8
OBJECT
 10
651.12875699999995
 20
443.30067499999979
 30
0.0
 11
650.84902899999997
 21
443.36527000000001
 31
0.0
  0
LINE
  5
F707E
  8
OBJECT
 10
650.84902899999997
 20
443.36527000000001
 30
0.0
 11
650.55691899999965
 21
443.43192800000008
 31
0.0
  0
LINE
  5
F707F
  8
OBJECT
 10
650.55691899999965
 20
443.43192800000008
 30
0.0
 11
650.37811299999998
 21
443.47238700000003
 31
0.0
  0
LINE
  5
F7080
  8
OBJECT
 10
650.37811299999998
 20
443.47238700000003
 30
0.0
 11
650.19601999999998
 21
443.51336500000002
 31
0.0
  0
LINE
  5
F7081
  8
OBJECT
 10
650.19601999999998
 20
443.51336500000002
 30
0.0
 11
650.01198699999986
 21
443.55458299999992
 31
0.0
  0
LINE
  5
F7082
  8
OBJECT
 10
650.01198699999986
 20
443.55458299999992
 30
0.0
 11
649.82736199999988
 21
443.59575899999999
 31
0.0
  0
LINE
  5
F7083
  8
OBJECT
 10
649.82736199999988
 20
443.59575899999999
 30
0.0
 11
649.64349100000027
 21
443.63661400000001
 31
0.0
  0
LINE
  5
F7084
  8
OBJECT
 10
649.64349100000027
 20
443.63661400000001
 30
0.0
 11
649.46172100000001
 21
443.67686600000002
 31
0.0
  0
LINE
  5
F7085
  8
OBJECT
 10
649.46172100000001
 20
443.67686600000002
 30
0.0
 11
649.2833989999998
 21
443.71623499999998
 31
0.0
  0
LINE
  5
F7086
  8
OBJECT
 10
649.2833989999998
 20
443.71623499999998
 30
0.0
 11
649.10987299999999
 21
443.75443999999999
 31
0.0
  0
LINE
  5
F7087
  8
OBJECT
 10
649.10987299999999
 20
443.75443999999999
 30
0.0
 11
648.94248800000014
 21
443.79120099999989
 31
0.0
  0
LINE
  5
F7088
  8
OBJECT
 10
648.94248800000014
 20
443.79120099999989
 30
0.0
 11
648.78259200000014
 21
443.82623799999999
 31
0.0
  0
LINE
  5
F7089
  8
OBJECT
 10
648.78259200000014
 20
443.82623799999999
 30
0.0
 11
648.63153199999965
 21
443.85926899999998
 31
0.0
  0
LINE
  5
F708A
  8
OBJECT
 10
648.63153199999965
 20
443.85926899999998
 30
0.0
 11
648.49065399999995
 21
443.89001499999989
 31
0.0
  0
LINE
  5
F708B
  8
OBJECT
 10
648.49065399999995
 20
443.89001499999989
 30
0.0
 11
648.36130599999967
 21
443.91819400000003
 31
0.0
  0
LINE
  5
F708C
  8
OBJECT
 10
648.36130599999967
 20
443.91819400000003
 30
0.0
 11
648.24483399999986
 21
443.94352600000002
 31
0.0
  0
LINE
  5
F708D
  8
OBJECT
 10
648.24483399999986
 20
443.94352600000002
 30
0.0
 11
648.14258600000005
 21
443.96573000000001
 31
0.0
  0
LINE
  5
F708E
  8
OBJECT
 10
648.14258600000005
 20
443.96573000000001
 30
0.0
 11
648.05590800000004
 21
443.98452699999979
 31
0.0
  0
LINE
  5
F708F
  8
OBJECT
 10
648.05590800000004
 20
443.98452699999979
 30
0.0
 11
647.98614699999985
 21
443.99963500000001
 31
0.0
  0
LINE
  5
F7090
  8
OBJECT
 10
647.98614699999985
 20
443.99963500000001
 30
0.0
 11
647.9346509999998
 21
444.01077400000003
 31
0.0
  0
LINE
  5
F7091
  8
OBJECT
 10
647.9346509999998
 20
444.01077400000003
 30
0.0
 11
647.90276499999982
 21
444.01766300000003
 31
0.0
  0
LINE
  5
F7092
  8
OBJECT
 10
647.90276499999982
 20
444.01766300000003
 30
0.0
 11
647.89183700000012
 21
444.02002099999987
 31
0.0
  0
LINE
  5
F7093
  8
OBJECT
 10
555.54191100000014
 20
432.99745999999988
 30
0.0
 11
555.53226000000006
 21
433.00287199999991
 31
0.0
  0
LINE
  5
F7094
  8
OBJECT
 10
555.53226000000006
 20
433.00287199999991
 30
0.0
 11
555.50412900000003
 21
433.01864399999999
 31
0.0
  0
LINE
  5
F7095
  8
OBJECT
 10
555.50412900000003
 20
433.01864399999999
 30
0.0
 11
555.4587499999999
 21
433.04408099999989
 31
0.0
  0
LINE
  5
F7096
  8
OBJECT
 10
555.4587499999999
 20
433.04408099999989
 30
0.0
 11
555.39735599999983
 21
433.07848799999999
 31
0.0
  0
LINE
  5
F7097
  8
OBJECT
 10
555.39735599999983
 20
433.07848799999999
 30
0.0
 11
555.32117999999969
 21
433.12116999999989
 31
0.0
  0
LINE
  5
F7098
  8
OBJECT
 10
555.32117999999969
 20
433.12116999999989
 30
0.0
 11
555.23145499999998
 21
433.17143199999992
 31
0.0
  0
LINE
  5
F7099
  8
OBJECT
 10
555.23145499999998
 20
433.17143199999992
 30
0.0
 11
555.12941400000011
 21
433.22857899999991
 31
0.0
  0
LINE
  5
F709A
  8
OBJECT
 10
555.12941400000011
 20
433.22857899999991
 30
0.0
 11
555.0162889999998
 21
433.29191699999978
 31
0.0
  0
LINE
  5
F709B
  8
OBJECT
 10
555.0162889999998
 20
433.29191699999978
 30
0.0
 11
554.8933139999998
 21
433.360749
 31
0.0
  0
LINE
  5
F709C
  8
OBJECT
 10
554.8933139999998
 20
433.360749
 30
0.0
 11
554.76172099999985
 21
433.43438200000003
 31
0.0
  0
LINE
  5
F709D
  8
OBJECT
 10
554.76172099999985
 20
433.43438200000003
 30
0.0
 11
554.62274300000001
 21
433.51211999999992
 31
0.0
  0
LINE
  5
F709E
  8
OBJECT
 10
554.62274300000001
 20
433.51211999999992
 30
0.0
 11
554.47761300000013
 21
433.59326799999991
 31
0.0
  0
LINE
  5
F709F
  8
OBJECT
 10
554.47761300000013
 20
433.59326799999991
 30
0.0
 11
554.32756300000005
 21
433.67713200000009
 31
0.0
  0
LINE
  5
F70A0
  8
OBJECT
 10
554.32756300000005
 20
433.67713200000009
 30
0.0
 11
554.1738270000003
 21
433.76301599999988
 31
0.0
  0
LINE
  5
F70A1
  8
OBJECT
 10
554.1738270000003
 20
433.76301599999988
 30
0.0
 11
554.01763700000015
 21
433.85022400000008
 31
0.0
  0
LINE
  5
F70A2
  8
OBJECT
 10
554.01763700000015
 20
433.85022400000008
 30
0.0
 11
553.86022700000001
 21
433.93806399999988
 31
0.0
  0
LINE
  5
F70A3
  8
OBJECT
 10
553.86022700000001
 20
433.93806399999988
 30
0.0
 11
553.70282899999995
 21
434.02583800000002
 31
0.0
  0
LINE
  5
F70A4
  8
OBJECT
 10
553.70282899999995
 20
434.02583800000002
 30
0.0
 11
553.54667500000005
 21
434.11285299999992
 31
0.0
  0
LINE
  5
F70A5
  8
OBJECT
 10
553.54667500000005
 20
434.11285299999992
 30
0.0
 11
553.3929989999998
 21
434.19841199999991
 31
0.0
  0
LINE
  5
F70A6
  8
OBJECT
 10
553.3929989999998
 20
434.19841199999991
 30
0.0
 11
553.24303299999985
 21
434.2818229999998
 31
0.0
  0
LINE
  5
F70A7
  8
OBJECT
 10
553.24303299999985
 20
434.2818229999998
 30
0.0
 11
553.07787299999995
 21
434.37356799999992
 31
0.0
  0
LINE
  5
F70A8
  8
OBJECT
 10
553.07787299999995
 20
434.37356799999992
 30
0.0
 11
552.91871599999979
 21
434.46184399999993
 31
0.0
  0
LINE
  5
F70A9
  8
OBJECT
 10
552.91871599999979
 20
434.46184399999993
 30
0.0
 11
552.76514299999985
 21
434.546874
 31
0.0
  0
LINE
  5
F70AA
  8
OBJECT
 10
552.76514299999985
 20
434.546874
 30
0.0
 11
552.61674099999982
 21
434.6288829999998
 31
0.0
  0
LINE
  5
F70AB
  8
OBJECT
 10
552.61674099999982
 20
434.6288829999998
 30
0.0
 11
552.47309099999995
 21
434.70809300000002
 31
0.0
  0
LINE
  5
F70AC
  8
OBJECT
 10
552.47309099999995
 20
434.70809300000002
 30
0.0
 11
552.33377700000017
 21
434.7847289999998
 31
0.0
  0
LINE
  5
F70AD
  8
OBJECT
 10
552.33377700000017
 20
434.7847289999998
 30
0.0
 11
552.19838399999981
 21
434.85901399999989
 31
0.0
  0
LINE
  5
F70AE
  8
OBJECT
 10
552.19838399999981
 20
434.85901399999989
 30
0.0
 11
552.06649500000015
 21
434.931174
 31
0.0
  0
LINE
  5
F70AF
  8
OBJECT
 10
552.06649500000015
 20
434.931174
 30
0.0
 11
551.93769300000031
 21
435.00143000000003
 31
0.0
  0
LINE
  5
F70B0
  8
OBJECT
 10
551.93769300000031
 20
435.00143000000003
 30
0.0
 11
551.81156199999975
 21
435.07000799999997
 31
0.0
  0
LINE
  5
F70B1
  8
OBJECT
 10
551.81156199999975
 20
435.07000799999997
 30
0.0
 11
551.68768599999987
 21
435.13713099999973
 31
0.0
  0
LINE
  5
F70B2
  8
OBJECT
 10
551.68768599999987
 20
435.13713099999973
 30
0.0
 11
551.56564799999956
 21
435.20302299999992
 31
0.0
  0
LINE
  5
F70B3
  8
OBJECT
 10
551.56564799999956
 20
435.20302299999992
 30
0.0
 11
551.44503299999985
 21
435.26790799999992
 31
0.0
  0
LINE
  5
F70B4
  8
OBJECT
 10
551.44503299999985
 20
435.26790799999992
 30
0.0
 11
551.32542299999955
 21
435.33200999999991
 31
0.0
  0
LINE
  5
F70B5
  8
OBJECT
 10
551.32542299999955
 20
435.33200999999991
 30
0.0
 11
551.20640200000014
 21
435.39555300000001
 31
0.0
  0
LINE
  5
F70B6
  8
OBJECT
 10
551.20640200000014
 20
435.39555300000001
 30
0.0
 11
551.08755399999995
 21
435.45875999999998
 31
0.0
  0
LINE
  5
F70B7
  8
OBJECT
 10
551.08755399999995
 20
435.45875999999998
 30
0.0
 11
550.96846300000016
 21
435.52185500000002
 31
0.0
  0
LINE
  5
F70B8
  8
OBJECT
 10
550.96846300000016
 20
435.52185500000002
 30
0.0
 11
550.84871099999987
 21
435.58506299999988
 31
0.0
  0
LINE
  5
F70B9
  8
OBJECT
 10
550.84871099999987
 20
435.58506299999988
 30
0.0
 11
550.72788399999968
 21
435.64860700000003
 31
0.0
  0
LINE
  5
F70BA
  8
OBJECT
 10
550.72788399999968
 20
435.64860700000003
 30
0.0
 11
550.60556399999984
 21
435.71271100000001
 31
0.0
  0
LINE
  5
F70BB
  8
OBJECT
 10
550.60556399999984
 20
435.71271100000001
 30
0.0
 11
550.49177799999995
 21
435.77214999999973
 31
0.0
  0
LINE
  5
F70BC
  8
OBJECT
 10
550.49177799999995
 20
435.77214999999973
 30
0.0
 11
550.3764789999999
 21
435.83219099999991
 31
0.0
  0
LINE
  5
F70BD
  8
OBJECT
 10
550.3764789999999
 20
435.83219099999991
 30
0.0
 11
550.25975900000014
 21
435.89277900000002
 31
0.0
  0
LINE
  5
F70BE
  8
OBJECT
 10
550.25975900000014
 20
435.89277900000002
 30
0.0
 11
550.1417120000001
 21
435.95385499999992
 31
0.0
  0
LINE
  5
F70BF
  8
OBJECT
 10
550.1417120000001
 20
435.95385499999992
 30
0.0
 11
550.02242899999999
 21
436.01536399999998
 31
0.0
  0
LINE
  5
F70C0
  8
OBJECT
 10
550.02242899999999
 20
436.01536399999998
 30
0.0
 11
549.90200400000015
 21
436.077248
 31
0.0
  0
LINE
  5
F70C1
  8
OBJECT
 10
549.90200400000015
 20
436.077248
 30
0.0
 11
549.78052900000012
 21
436.13945100000001
 31
0.0
  0
LINE
  5
F70C2
  8
OBJECT
 10
549.78052900000012
 20
436.13945100000001
 30
0.0
 11
549.658097
 21
436.20191499999999
 31
0.0
  0
LINE
  5
F70C3
  8
OBJECT
 10
549.658097
 20
436.20191499999999
 30
0.0
 11
549.53479999999979
 21
436.26458499999978
 31
0.0
  0
LINE
  5
F70C4
  8
OBJECT
 10
549.53479999999979
 20
436.26458499999978
 30
0.0
 11
549.41073100000017
 21
436.327403
 31
0.0
  0
LINE
  5
F70C5
  8
OBJECT
 10
549.41073100000017
 20
436.327403
 30
0.0
 11
549.28598299999965
 21
436.39031199999988
 31
0.0
  0
LINE
  5
F70C6
  8
OBJECT
 10
549.28598299999965
 20
436.39031199999988
 30
0.0
 11
549.16064799999992
 21
436.45325599999978
 31
0.0
  0
LINE
  5
F70C7
  8
OBJECT
 10
549.16064799999992
 20
436.45325599999978
 30
0.0
 11
549.03481899999986
 21
436.51617800000002
 31
0.0
  0
LINE
  5
F70C8
  8
OBJECT
 10
549.03481899999986
 20
436.51617800000002
 30
0.0
 11
548.90858900000001
 21
436.57902099999978
 31
0.0
  0
LINE
  5
F70C9
  8
OBJECT
 10
548.90858900000001
 20
436.57902099999978
 30
0.0
 11
548.78204999999969
 21
436.641728
 31
0.0
  0
LINE
  5
F70CA
  8
OBJECT
 10
548.78204999999969
 20
436.641728
 30
0.0
 11
548.65529600000002
 21
436.70424300000002
 31
0.0
  0
LINE
  5
F70CB
  8
OBJECT
 10
548.65529600000002
 20
436.70424300000002
 30
0.0
 11
548.52841699999988
 21
436.76650799999999
 31
0.0
  0
LINE
  5
F70CC
  8
OBJECT
 10
548.52841699999988
 20
436.76650799999999
 30
0.0
 11
548.40150800000015
 21
436.82846699999999
 31
0.0
  0
LINE
  5
F70CD
  8
OBJECT
 10
548.40150800000015
 20
436.82846699999999
 30
0.0
 11
548.27466100000015
 21
436.89006299999988
 31
0.0
  0
LINE
  5
F70CE
  8
OBJECT
 10
548.27466100000015
 20
436.89006299999988
 30
0.0
 11
548.14796800000011
 21
436.95123999999993
 31
0.0
  0
LINE
  5
F70CF
  8
OBJECT
 10
548.14796800000011
 20
436.95123999999993
 30
0.0
 11
547.99622599999975
 21
437.02404599999988
 31
0.0
  0
LINE
  5
F70D0
  8
OBJECT
 10
547.99622599999975
 20
437.02404599999988
 30
0.0
 11
547.84481100000005
 21
437.09619999999978
 31
0.0
  0
LINE
  5
F70D1
  8
OBJECT
 10
547.84481100000005
 20
437.09619999999978
 30
0.0
 11
547.69369500000005
 21
437.16773299999988
 31
0.0
  0
LINE
  5
F70D2
  8
OBJECT
 10
547.69369500000005
 20
437.16773299999988
 30
0.0
 11
547.54284800000005
 21
437.23867799999999
 31
0.0
  0
LINE
  5
F70D3
  8
OBJECT
 10
547.54284800000005
 20
437.23867799999999
 30
0.0
 11
547.39224300000001
 21
437.30907000000002
 31
0.0
  0
LINE
  5
F70D4
  8
OBJECT
 10
547.39224300000001
 20
437.30907000000002
 30
0.0
 11
547.24184999999977
 21
437.37893999999972
 31
0.0
  0
LINE
  5
F70D5
  8
OBJECT
 10
547.24184999999977
 20
437.37893999999972
 30
0.0
 11
547.09164099999975
 21
437.44832200000002
 31
0.0
  0
LINE
  5
F70D6
  8
OBJECT
 10
547.09164099999975
 20
437.44832200000002
 30
0.0
 11
546.94158700000014
 21
437.51724899999988
 31
0.0
  0
LINE
  5
F70D7
  8
OBJECT
 10
546.94158700000014
 20
437.51724899999988
 30
0.0
 11
546.79166000000032
 21
437.58575399999989
 31
0.0
  0
LINE
  5
F70D8
  8
OBJECT
 10
546.79166000000032
 20
437.58575399999989
 30
0.0
 11
546.6418299999998
 21
437.65386999999998
 31
0.0
  0
LINE
  5
F70D9
  8
OBJECT
 10
546.6418299999998
 20
437.65386999999998
 30
0.0
 11
546.49206900000013
 21
437.72162899999989
 31
0.0
  0
LINE
  5
F70DA
  8
OBJECT
 10
546.49206900000013
 20
437.72162899999989
 30
0.0
 11
546.3423489999999
 21
437.78906599999999
 31
0.0
  0
LINE
  5
F70DB
  8
OBJECT
 10
546.3423489999999
 20
437.78906599999999
 30
0.0
 11
546.1926400000001
 21
437.8562119999998
 31
0.0
  0
LINE
  5
F70DC
  8
OBJECT
 10
546.1926400000001
 20
437.8562119999998
 30
0.0
 11
546.04291400000011
 21
437.9231009999998
 31
0.0
  0
LINE
  5
F70DD
  8
OBJECT
 10
546.04291400000011
 20
437.9231009999998
 30
0.0
 11
545.89314299999978
 21
437.98976599999997
 31
0.0
  0
LINE
  5
F70DE
  8
OBJECT
 10
545.89314299999978
 20
437.98976599999997
 30
0.0
 11
545.7432970000001
 21
438.05623999999989
 31
0.0
  0
LINE
  5
F70DF
  8
OBJECT
 10
545.7432970000001
 20
438.05623999999989
 30
0.0
 11
545.59334699999977
 21
438.12255699999992
 31
0.0
  0
LINE
  5
F70E0
  8
OBJECT
 10
545.59334699999977
 20
438.12255699999992
 30
0.0
 11
545.44326599999988
 21
438.18874799999992
 31
0.0
  0
LINE
  5
F70E1
  8
OBJECT
 10
545.44326599999988
 20
438.18874799999992
 30
0.0
 11
545.29302499999994
 21
438.25484699999993
 31
0.0
  0
LINE
  5
F70E2
  8
OBJECT
 10
545.29302499999994
 20
438.25484699999993
 30
0.0
 11
545.14259400000003
 21
438.3208869999998
 31
0.0
  0
LINE
  5
F70E3
  8
OBJECT
 10
545.14259400000003
 20
438.3208869999998
 30
0.0
 11
544.96324300000015
 21
438.39945699999993
 31
0.0
  0
LINE
  5
F70E4
  8
OBJECT
 10
544.96324300000015
 20
438.39945699999993
 30
0.0
 11
544.78360299999986
 21
438.47796699999992
 31
0.0
  0
LINE
  5
F70E5
  8
OBJECT
 10
544.78360299999986
 20
438.47796699999992
 30
0.0
 11
544.60369099999991
 21
438.55639100000002
 31
0.0
  0
LINE
  5
F70E6
  8
OBJECT
 10
544.60369099999991
 20
438.55639100000002
 30
0.0
 11
544.42352599999981
 21
438.634705
 31
0.0
  0
LINE
  5
F70E7
  8
OBJECT
 10
544.42352599999981
 20
438.634705
 30
0.0
 11
544.24312599999985
 21
438.7128849999998
 31
0.0
  0
LINE
  5
F70E8
  8
OBJECT
 10
544.24312599999985
 20
438.7128849999998
 30
0.0
 11
544.06251199999986
 21
438.79090600000001
 31
0.0
  0
LINE
  5
F70E9
  8
OBJECT
 10
544.06251199999986
 20
438.79090600000001
 30
0.0
 11
543.88169999999991
 21
438.86874399999988
 31
0.0
  0
LINE
  5
F70EA
  8
OBJECT
 10
543.88169999999991
 20
438.86874399999988
 30
0.0
 11
543.70070999999984
 21
438.94637599999987
 31
0.0
  0
LINE
  5
F70EB
  8
OBJECT
 10
543.70070999999984
 20
438.94637599999987
 30
0.0
 11
543.51956099999995
 21
439.02377499999989
 31
0.0
  0
LINE
  5
F70EC
  8
OBJECT
 10
543.51956099999995
 20
439.02377499999989
 30
0.0
 11
543.33827000000008
 21
439.10091899999998
 31
0.0
  0
LINE
  5
F70ED
  8
OBJECT
 10
543.33827000000008
 20
439.10091899999998
 30
0.0
 11
543.15685699999995
 21
439.17778199999992
 31
0.0
  0
LINE
  5
F70EE
  8
OBJECT
 10
543.15685699999995
 20
439.17778199999992
 30
0.0
 11
542.97534099999996
 21
439.25434100000001
 31
0.0
  0
LINE
  5
F70EF
  8
OBJECT
 10
542.97534099999996
 20
439.25434100000001
 30
0.0
 11
542.79373999999984
 21
439.33057099999991
 31
0.0
  0
LINE
  5
F70F0
  8
OBJECT
 10
542.79373999999984
 20
439.33057099999991
 30
0.0
 11
542.61207200000001
 21
439.40644700000001
 31
0.0
  0
LINE
  5
F70F1
  8
OBJECT
 10
542.61207200000001
 20
439.40644700000001
 30
0.0
 11
542.43035699999984
 21
439.48194599999988
 31
0.0
  0
LINE
  5
F70F2
  8
OBJECT
 10
542.43035699999984
 20
439.48194599999988
 30
0.0
 11
542.24861300000009
 21
439.55704199999991
 31
0.0
  0
LINE
  5
F70F3
  8
OBJECT
 10
542.24861300000009
 20
439.55704199999991
 30
0.0
 11
542.0668579999998
 21
439.63171299999988
 31
0.0
  0
LINE
  5
F70F4
  8
OBJECT
 10
542.0668579999998
 20
439.63171299999988
 30
0.0
 11
541.88511200000016
 21
439.70593200000002
 31
0.0
  0
LINE
  5
F70F5
  8
OBJECT
 10
541.88511200000016
 20
439.70593200000002
 30
0.0
 11
541.70339300000012
 21
439.77967699999999
 31
0.0
  0
LINE
  5
F70F6
  8
OBJECT
 10
541.70339300000012
 20
439.77967699999999
 30
0.0
 11
541.52171999999985
 21
439.85292199999992
 31
0.0
  0
LINE
  5
F70F7
  8
OBJECT
 10
541.52171999999985
 20
439.85292199999992
 30
0.0
 11
541.34779700000013
 21
439.92257999999993
 31
0.0
  0
LINE
  5
F70F8
  8
OBJECT
 10
541.34779700000013
 20
439.92257999999993
 30
0.0
 11
541.17389400000013
 21
439.99178499999999
 31
0.0
  0
LINE
  5
F70F9
  8
OBJECT
 10
541.17389400000013
 20
439.99178499999999
 30
0.0
 11
540.99997199999996
 21
440.06056499999983
 31
0.0
  0
LINE
  5
F70FA
  8
OBJECT
 10
540.99997199999996
 20
440.06056499999983
 30
0.0
 11
540.82599199999981
 21
440.12894699999998
 31
0.0
  0
LINE
  5
F70FB
  8
OBJECT
 10
540.82599199999981
 20
440.12894699999998
 30
0.0
 11
540.65191599999991
 21
440.19695899999999
 31
0.0
  0
LINE
  5
F70FC
  8
OBJECT
 10
540.65191599999991
 20
440.19695899999999
 30
0.0
 11
540.47770299999991
 21
440.26462799999979
 31
0.0
  0
LINE
  5
F70FD
  8
OBJECT
 10
540.47770299999991
 20
440.26462799999979
 30
0.0
 11
540.30331599999965
 21
440.33198099999998
 31
0.0
  0
LINE
  5
F70FE
  8
OBJECT
 10
540.30331599999965
 20
440.33198099999998
 30
0.0
 11
540.12871500000006
 21
440.399047
 31
0.0
  0
LINE
  5
F70FF
  8
OBJECT
 10
540.12871500000006
 20
440.399047
 30
0.0
 11
539.95386199999984
 21
440.46585199999993
 31
0.0
  0
LINE
  5
F7100
  8
OBJECT
 10
539.95386199999984
 20
440.46585199999993
 30
0.0
 11
539.77871599999992
 21
440.53242399999988
 31
0.0
  0
LINE
  5
F7101
  8
OBJECT
 10
539.77871599999992
 20
440.53242399999988
 30
0.0
 11
539.6032399999998
 21
440.59879100000001
 31
0.0
  0
LINE
  5
F7102
  8
OBJECT
 10
539.6032399999998
 20
440.59879100000001
 30
0.0
 11
539.42739400000028
 21
440.66497899999979
 31
0.0
  0
LINE
  5
F7103
  8
OBJECT
 10
539.42739400000028
 20
440.66497899999979
 30
0.0
 11
539.25113999999996
 21
440.73101800000001
 31
0.0
  0
LINE
  5
F7104
  8
OBJECT
 10
539.25113999999996
 20
440.73101800000001
 30
0.0
 11
539.0744380000001
 21
440.79693299999991
 31
0.0
  0
LINE
  5
F7105
  8
OBJECT
 10
539.0744380000001
 20
440.79693299999991
 30
0.0
 11
538.89724999999964
 21
440.86275199999989
 31
0.0
  0
LINE
  5
F7106
  8
OBJECT
 10
538.89724999999964
 20
440.86275199999989
 30
0.0
 11
538.71953600000006
 21
440.92850399999992
 31
0.0
  0
LINE
  5
F7107
  8
OBJECT
 10
538.71953600000006
 20
440.92850399999992
 30
0.0
 11
538.54125799999974
 21
440.99421499999988
 31
0.0
  0
LINE
  5
F7108
  8
OBJECT
 10
538.54125799999974
 20
440.99421499999988
 30
0.0
 11
538.36237700000015
 21
441.05991299999999
 31
0.0
  0
LINE
  5
F7109
  8
OBJECT
 10
538.36237700000015
 20
441.05991299999999
 30
0.0
 11
538.18285299999991
 21
441.12562600000001
 31
0.0
  0
LINE
  5
F710A
  8
OBJECT
 10
538.18285299999991
 20
441.12562600000001
 30
0.0
 11
538.0026469999998
 21
441.19137999999992
 31
0.0
  0
LINE
  5
F710B
  8
OBJECT
 10
538.0026469999998
 20
441.19137999999992
 30
0.0
 11
537.85041599999965
 21
441.24677299999991
 31
0.0
  0
LINE
  5
F710C
  8
OBJECT
 10
537.85041599999965
 20
441.24677299999991
 30
0.0
 11
537.69778699999983
 21
441.30216200000001
 31
0.0
  0
LINE
  5
F710D
  8
OBJECT
 10
537.69778699999983
 20
441.30216200000001
 30
0.0
 11
537.54487400000005
 21
441.35749399999997
 31
0.0
  0
LINE
  5
F710E
  8
OBJECT
 10
537.54487400000005
 20
441.35749399999997
 30
0.0
 11
537.39178700000025
 21
441.41271399999988
 31
0.0
  0
LINE
  5
F710F
  8
OBJECT
 10
537.39178700000025
 20
441.41271399999988
 30
0.0
 11
537.2386409999998
 21
441.46776999999992
 31
0.0
  0
LINE
  5
F7110
  8
OBJECT
 10
537.2386409999998
 20
441.46776999999992
 30
0.0
 11
537.0855489999999
 21
441.52260899999987
 31
0.0
  0
LINE
  5
F7111
  8
OBJECT
 10
537.0855489999999
 20
441.52260899999987
 30
0.0
 11
536.93262100000015
 21
441.57717600000001
 31
0.0
  0
LINE
  5
F7112
  8
OBJECT
 10
536.93262100000015
 20
441.57717600000001
 30
0.0
 11
536.77997200000004
 21
441.63141899999999
 31
0.0
  0
LINE
  5
F7113
  8
OBJECT
 10
536.77997200000004
 20
441.63141899999999
 30
0.0
 11
536.62771499999997
 21
441.68528400000002
 31
0.0
  0
LINE
  5
F7114
  8
OBJECT
 10
536.62771499999997
 20
441.68528400000002
 30
0.0
 11
536.4759600000001
 21
441.73871800000001
 31
0.0
  0
LINE
  5
F7115
  8
OBJECT
 10
536.4759600000001
 20
441.73871800000001
 30
0.0
 11
536.32482299999992
 21
441.79166699999979
 31
0.0
  0
LINE
  5
F7116
  8
OBJECT
 10
536.32482299999992
 20
441.79166699999979
 30
0.0
 11
536.17441399999996
 21
441.84407900000002
 31
0.0
  0
LINE
  5
F7117
  8
OBJECT
 10
536.17441399999996
 20
441.84407900000002
 30
0.0
 11
536.02484699999991
 21
441.89589899999999
 31
0.0
  0
LINE
  5
F7118
  8
OBJECT
 10
536.02484699999991
 20
441.89589899999999
 30
0.0
 11
535.87623500000007
 21
441.94707399999999
 31
0.0
  0
LINE
  5
F7119
  8
OBJECT
 10
535.87623500000007
 20
441.94707399999999
 30
0.0
 11
535.7286889999998
 21
441.99755199999998
 31
0.0
  0
LINE
  5
F711A
  8
OBJECT
 10
535.7286889999998
 20
441.99755199999998
 30
0.0
 11
535.58232399999986
 21
442.04727799999989
 31
0.0
  0
LINE
  5
F711B
  8
OBJECT
 10
535.58232399999986
 20
442.04727799999989
 30
0.0
 11
535.43725099999983
 21
442.09619900000001
 31
0.0
  0
LINE
  5
F711C
  8
OBJECT
 10
535.43725099999983
 20
442.09619900000001
 30
0.0
 11
535.29358299999978
 21
442.14426199999991
 31
0.0
  0
LINE
  5
F711D
  8
OBJECT
 10
535.29358299999978
 20
442.14426199999991
 30
0.0
 11
535.15143299999966
 21
442.19141300000001
 31
0.0
  0
LINE
  5
F711E
  8
OBJECT
 10
535.15143299999966
 20
442.19141300000001
 30
0.0
 11
535.01091399999984
 21
442.23759899999988
 31
0.0
  0
LINE
  5
F711F
  8
OBJECT
 10
535.01091399999984
 20
442.23759899999988
 30
0.0
 11
534.80940799999996
 21
442.30302999999992
 31
0.0
  0
LINE
  5
F7120
  8
OBJECT
 10
534.80940799999996
 20
442.30302999999992
 30
0.0
 11
534.61074699999995
 21
442.36652699999979
 31
0.0
  0
LINE
  5
F7121
  8
OBJECT
 10
534.61074699999995
 20
442.36652699999979
 30
0.0
 11
534.41408500000011
 21
442.42831200000001
 31
0.0
  0
LINE
  5
F7122
  8
OBJECT
 10
534.41408500000011
 20
442.42831200000001
 30
0.0
 11
534.21857499999965
 21
442.488608
 31
0.0
  0
LINE
  5
F7123
  8
OBJECT
 10
534.21857499999965
 20
442.488608
 30
0.0
 11
534.02337200000011
 21
442.54763600000001
 31
0.0
  0
LINE
  5
F7124
  8
OBJECT
 10
534.02337200000011
 20
442.54763600000001
 30
0.0
 11
533.82762900000012
 21
442.60561899999988
 31
0.0
  0
LINE
  5
F7125
  8
OBJECT
 10
533.82762900000012
 20
442.60561899999988
 30
0.0
 11
533.63050200000009
 21
442.662778
 31
0.0
  0
LINE
  5
F7126
  8
OBJECT
 10
533.63050200000009
 20
442.662778
 30
0.0
 11
533.43114300000025
 21
442.719336
 31
0.0
  0
LINE
  5
F7127
  8
OBJECT
 10
533.43114300000025
 20
442.719336
 30
0.0
 11
533.22870799999976
 21
442.77551399999999
 31
0.0
  0
LINE
  5
F7128
  8
OBJECT
 10
533.22870799999976
 20
442.77551399999999
 30
0.0
 11
533.02234899999985
 21
442.83153399999998
 31
0.0
  0
LINE
  5
F7129
  8
OBJECT
 10
533.02234899999985
 20
442.83153399999998
 30
0.0
 11
532.81122199999993
 21
442.88761999999991
 31
0.0
  0
LINE
  5
F712A
  8
OBJECT
 10
532.81122199999993
 20
442.88761999999991
 30
0.0
 11
532.59448100000009
 21
442.94399199999998
 31
0.0
  0
LINE
  5
F712B
  8
OBJECT
 10
532.59448100000009
 20
442.94399199999998
 30
0.0
 11
532.37127899999996
 21
443.00087200000002
 31
0.0
  0
LINE
  5
F712C
  8
OBJECT
 10
532.37127899999996
 20
443.00087200000002
 30
0.0
 11
532.14077099999986
 21
443.05848299999991
 31
0.0
  0
LINE
  5
F712D
  8
OBJECT
 10
532.14077099999986
 20
443.05848299999991
 30
0.0
 11
531.9021110000001
 21
443.11704700000001
 31
0.0
  0
LINE
  5
F712E
  8
OBJECT
 10
531.9021110000001
 20
443.11704700000001
 30
0.0
 11
531.65445199999988
 21
443.17678599999988
 31
0.0
  0
LINE
  5
F712F
  8
OBJECT
 10
531.65445199999988
 20
443.17678599999988
 30
0.0
 11
531.39694999999995
 21
443.23792099999991
 31
0.0
  0
LINE
  5
F7130
  8
OBJECT
 10
531.39694999999995
 20
443.23792099999991
 30
0.0
 11
531.12875699999984
 21
443.30067499999979
 31
0.0
  0
LINE
  5
F7131
  8
OBJECT
 10
531.12875699999984
 20
443.30067499999979
 30
0.0
 11
530.84902899999986
 21
443.36527000000001
 31
0.0
  0
LINE
  5
F7132
  8
OBJECT
 10
530.84902899999986
 20
443.36527000000001
 30
0.0
 11
530.55691899999988
 21
443.43192800000008
 31
0.0
  0
LINE
  5
F7133
  8
OBJECT
 10
530.55691899999988
 20
443.43192800000008
 30
0.0
 11
530.37811299999987
 21
443.47238700000003
 31
0.0
  0
LINE
  5
F7134
  8
OBJECT
 10
530.37811299999987
 20
443.47238700000003
 30
0.0
 11
530.19601999999986
 21
443.51336500000002
 31
0.0
  0
LINE
  5
F7135
  8
OBJECT
 10
530.19601999999986
 20
443.51336500000002
 30
0.0
 11
530.01198699999986
 21
443.55458299999992
 31
0.0
  0
LINE
  5
F7136
  8
OBJECT
 10
530.01198699999986
 20
443.55458299999992
 30
0.0
 11
529.82736199999977
 21
443.59575899999999
 31
0.0
  0
LINE
  5
F7137
  8
OBJECT
 10
529.82736199999977
 20
443.59575899999999
 30
0.0
 11
529.64349099999993
 21
443.63661400000001
 31
0.0
  0
LINE
  5
F7138
  8
OBJECT
 10
529.64349099999993
 20
443.63661400000001
 30
0.0
 11
529.46172100000001
 21
443.67686600000002
 31
0.0
  0
LINE
  5
F7139
  8
OBJECT
 10
529.46172100000001
 20
443.67686600000002
 30
0.0
 11
529.28339899999992
 21
443.71623499999998
 31
0.0
  0
LINE
  5
F713A
  8
OBJECT
 10
529.28339899999992
 20
443.71623499999998
 30
0.0
 11
529.10987299999977
 21
443.75443999999999
 31
0.0
  0
LINE
  5
F713B
  8
OBJECT
 10
529.10987299999977
 20
443.75443999999999
 30
0.0
 11
528.94248800000003
 21
443.79120099999989
 31
0.0
  0
LINE
  5
F713C
  8
OBJECT
 10
528.94248800000003
 20
443.79120099999989
 30
0.0
 11
528.78259199999991
 21
443.82623799999999
 31
0.0
  0
LINE
  5
F713D
  8
OBJECT
 10
528.78259199999991
 20
443.82623799999999
 30
0.0
 11
528.63153199999988
 21
443.85926899999998
 31
0.0
  0
LINE
  5
F713E
  8
OBJECT
 10
528.63153199999988
 20
443.85926899999998
 30
0.0
 11
528.49065399999995
 21
443.89001499999989
 31
0.0
  0
LINE
  5
F713F
  8
OBJECT
 10
528.49065399999995
 20
443.89001499999989
 30
0.0
 11
528.36130600000013
 21
443.91819400000003
 31
0.0
  0
LINE
  5
F7140
  8
OBJECT
 10
528.36130600000013
 20
443.91819400000003
 30
0.0
 11
528.24483399999997
 21
443.94352600000002
 31
0.0
  0
LINE
  5
F7141
  8
OBJECT
 10
528.24483399999997
 20
443.94352600000002
 30
0.0
 11
528.14258600000005
 21
443.96573000000001
 31
0.0
  0
LINE
  5
F7142
  8
OBJECT
 10
528.14258600000005
 20
443.96573000000001
 30
0.0
 11
528.05590799999993
 21
443.98452699999979
 31
0.0
  0
LINE
  5
F7143
  8
OBJECT
 10
528.05590799999993
 20
443.98452699999979
 30
0.0
 11
527.98614699999985
 21
443.99963500000001
 31
0.0
  0
LINE
  5
F7144
  8
OBJECT
 10
527.98614699999985
 20
443.99963500000001
 30
0.0
 11
527.9346509999998
 21
444.01077400000003
 31
0.0
  0
LINE
  5
F7145
  8
OBJECT
 10
527.9346509999998
 20
444.01077400000003
 30
0.0
 11
527.90276499999993
 21
444.01766300000003
 31
0.0
  0
LINE
  5
F7146
  8
OBJECT
 10
527.90276499999993
 20
444.01766300000003
 30
0.0
 11
527.89183700000012
 21
444.02002099999987
 31
0.0
  0
LINE
  5
F7147
  8
OBJECT
 10
506.73355799999979
 20
444.67354399999999
 30
0.0
 11
506.72336399999989
 21
444.67229099999997
 31
0.0
  0
LINE
  5
F7148
  8
OBJECT
 10
506.72336399999989
 20
444.67229099999997
 30
0.0
 11
506.69365499999992
 21
444.66862800000001
 31
0.0
  0
LINE
  5
F7149
  8
OBJECT
 10
506.69365499999992
 20
444.66862800000001
 30
0.0
 11
506.64573899999988
 21
444.66269999999992
 31
0.0
  0
LINE
  5
F714A
  8
OBJECT
 10
506.64573899999988
 20
444.66269999999992
 30
0.0
 11
506.58092599999992
 21
444.65465199999988
 31
0.0
  0
LINE
  5
F714B
  8
OBJECT
 10
506.58092599999992
 20
444.65465199999988
 30
0.0
 11
506.5005250000001
 21
444.64462899999978
 31
0.0
  0
LINE
  5
F714C
  8
OBJECT
 10
506.5005250000001
 20
444.64462899999978
 30
0.0
 11
506.40584400000012
 21
444.63277699999992
 31
0.0
  0
LINE
  5
F714D
  8
OBJECT
 10
506.40584400000012
 20
444.63277699999992
 30
0.0
 11
506.29819300000008
 21
444.61923899999999
 31
0.0
  0
LINE
  5
F714E
  8
OBJECT
 10
506.29819300000008
 20
444.61923899999999
 30
0.0
 11
506.17887999999999
 21
444.60416199999992
 31
0.0
  0
LINE
  5
F714F
  8
OBJECT
 10
506.17887999999999
 20
444.60416199999992
 30
0.0
 11
506.04921499999989
 21
444.58769000000001
 31
0.0
  0
LINE
  5
F7150
  8
OBJECT
 10
506.04921499999989
 20
444.58769000000001
 30
0.0
 11
505.91050699999982
 21
444.56996800000002
 31
0.0
  0
LINE
  5
F7151
  8
OBJECT
 10
505.91050699999982
 20
444.56996800000002
 30
0.0
 11
505.76406499999979
 21
444.55114099999992
 31
0.0
  0
LINE
  5
F7152
  8
OBJECT
 10
505.76406499999979
 20
444.55114099999992
 30
0.0
 11
505.61119699999989
 21
444.53135399999991
 31
0.0
  0
LINE
  5
F7153
  8
OBJECT
 10
505.61119699999989
 20
444.53135399999991
 30
0.0
 11
505.45321300000001
 21
444.51075300000002
 31
0.0
  0
LINE
  5
F7154
  8
OBJECT
 10
505.45321300000001
 20
444.51075300000002
 30
0.0
 11
505.29142100000001
 21
444.48948200000001
 31
0.0
  0
LINE
  5
F7155
  8
OBJECT
 10
505.29142100000001
 20
444.48948200000001
 30
0.0
 11
505.12713100000002
 21
444.46768499999979
 31
0.0
  0
LINE
  5
F7156
  8
OBJECT
 10
505.12713100000002
 20
444.46768499999979
 30
0.0
 11
504.9616519999999
 21
444.44550899999979
 31
0.0
  0
LINE
  5
F7157
  8
OBJECT
 10
504.9616519999999
 20
444.44550899999979
 30
0.0
 11
504.79629199999982
 21
444.42309899999998
 31
0.0
  0
LINE
  5
F7158
  8
OBJECT
 10
504.79629199999982
 20
444.42309899999998
 30
0.0
 11
504.63236100000012
 21
444.400598
 31
0.0
  0
LINE
  5
F7159
  8
OBJECT
 10
504.63236100000012
 20
444.400598
 30
0.0
 11
504.47116799999998
 21
444.37815299999988
 31
0.0
  0
LINE
  5
F715A
  8
OBJECT
 10
504.47116799999998
 20
444.37815299999988
 30
0.0
 11
504.3140219999998
 21
444.35590799999989
 31
0.0
  0
LINE
  5
F715B
  8
OBJECT
 10
504.3140219999998
 20
444.35590799999989
 30
0.0
 11
504.14528399999961
 21
444.33154699999989
 31
0.0
  0
LINE
  5
F715C
  8
OBJECT
 10
504.14528399999961
 20
444.33154699999989
 30
0.0
 11
503.98274799999967
 21
444.30757199999999
 31
0.0
  0
LINE
  5
F715D
  8
OBJECT
 10
503.98274799999967
 20
444.30757199999999
 30
0.0
 11
503.82599500000009
 21
444.28393999999992
 31
0.0
  0
LINE
  5
F715E
  8
OBJECT
 10
503.82599500000009
 20
444.28393999999992
 30
0.0
 11
503.6746060000001
 21
444.26060799999999
 31
0.0
  0
LINE
  5
F715F
  8
OBJECT
 10
503.6746060000001
 20
444.26060799999999
 30
0.0
 11
503.528164
 21
444.23753699999992
 31
0.0
  0
LINE
  5
F7160
  8
OBJECT
 10
503.528164
 20
444.23753699999992
 30
0.0
 11
503.38624899999968
 21
444.21468199999993
 31
0.0
  0
LINE
  5
F7161
  8
OBJECT
 10
503.38624899999968
 20
444.21468199999993
 30
0.0
 11
503.24844400000012
 21
444.192004
 31
0.0
  0
LINE
  5
F7162
  8
OBJECT
 10
503.24844400000012
 20
444.192004
 30
0.0
 11
503.11432900000011
 21
444.16945899999979
 31
0.0
  0
LINE
  5
F7163
  8
OBJECT
 10
503.11432900000011
 20
444.16945899999979
 30
0.0
 11
502.98348700000003
 21
444.14700699999997
 31
0.0
  0
LINE
  5
F7164
  8
OBJECT
 10
502.98348700000003
 20
444.14700699999997
 30
0.0
 11
502.85549899999978
 21
444.12460399999998
 31
0.0
  0
LINE
  5
F7165
  8
OBJECT
 10
502.85549899999978
 20
444.12460399999998
 30
0.0
 11
502.72994599999993
 21
444.10221100000001
 31
0.0
  0
LINE
  5
F7166
  8
OBJECT
 10
502.72994599999993
 20
444.10221100000001
 30
0.0
 11
502.60641099999998
 21
444.07978300000002
 31
0.0
  0
LINE
  5
F7167
  8
OBJECT
 10
502.60641099999998
 20
444.07978300000002
 30
0.0
 11
502.48447399999981
 21
444.05728099999988
 31
0.0
  0
LINE
  5
F7168
  8
OBJECT
 10
502.48447399999981
 20
444.05728099999988
 30
0.0
 11
502.36371800000018
 21
444.03466100000003
 31
0.0
  0
LINE
  5
F7169
  8
OBJECT
 10
502.36371800000018
 20
444.03466100000003
 30
0.0
 11
502.24372299999987
 21
444.01188200000001
 31
0.0
  0
LINE
  5
F716A
  8
OBJECT
 10
502.24372299999987
 20
444.01188200000001
 30
0.0
 11
502.12407199999979
 21
443.98890299999988
 31
0.0
  0
LINE
  5
F716B
  8
OBJECT
 10
502.12407199999979
 20
443.98890299999988
 30
0.0
 11
502.00434599999988
 21
443.96568099999979
 31
0.0
  0
LINE
  5
F716C
  8
OBJECT
 10
502.00434599999988
 20
443.96568099999979
 30
0.0
 11
501.88412700000021
 21
443.94217500000002
 31
0.0
  0
LINE
  5
F716D
  8
OBJECT
 10
501.88412700000021
 20
443.94217500000002
 30
0.0
 11
501.7629950000001
 21
443.91834199999988
 31
0.0
  0
LINE
  5
F716E
  8
OBJECT
 10
501.7629950000001
 20
443.91834199999988
 30
0.0
 11
501.64053299999972
 21
443.89414199999987
 31
0.0
  0
LINE
  5
F716F
  8
OBJECT
 10
501.64053299999972
 20
443.89414199999987
 30
0.0
 11
501.52197599999982
 21
443.8706449999998
 31
0.0
  0
LINE
  5
F7170
  8
OBJECT
 10
501.52197599999982
 20
443.8706449999998
 30
0.0
 11
501.40192299999973
 21
443.84678999999988
 31
0.0
  0
LINE
  5
F7171
  8
OBJECT
 10
501.40192299999973
 20
443.84678999999988
 30
0.0
 11
501.28047700000002
 21
443.82259199999987
 31
0.0
  0
LINE
  5
F7172
  8
OBJECT
 10
501.28047700000002
 20
443.82259199999987
 30
0.0
 11
501.15773999999988
 21
443.79806699999989
 31
0.0
  0
LINE
  5
F7173
  8
OBJECT
 10
501.15773999999988
 20
443.79806699999989
 30
0.0
 11
501.03381100000013
 21
443.77323000000001
 31
0.0
  0
LINE
  5
F7174
  8
OBJECT
 10
501.03381100000013
 20
443.77323000000001
 30
0.0
 11
500.908794
 21
443.74809699999997
 31
0.0
  0
LINE
  5
F7175
  8
OBJECT
 10
500.908794
 20
443.74809699999997
 30
0.0
 11
500.78278899999992
 21
443.72268299999979
 31
0.0
  0
LINE
  5
F7176
  8
OBJECT
 10
500.78278899999992
 20
443.72268299999979
 30
0.0
 11
500.65589800000009
 21
443.69700399999999
 31
0.0
  0
LINE
  5
F7177
  8
OBJECT
 10
500.65589800000009
 20
443.69700399999999
 30
0.0
 11
500.52822299999968
 21
443.67107600000008
 31
0.0
  0
LINE
  5
F7178
  8
OBJECT
 10
500.52822299999968
 20
443.67107600000008
 30
0.0
 11
500.39986499999981
 21
443.64491399999991
 31
0.0
  0
LINE
  5
F7179
  8
OBJECT
 10
500.39986499999981
 20
443.64491399999991
 30
0.0
 11
500.27092500000009
 21
443.61853400000001
 31
0.0
  0
LINE
  5
F717A
  8
OBJECT
 10
500.27092500000009
 20
443.61853400000001
 30
0.0
 11
500.14150499999988
 21
443.59195099999988
 31
0.0
  0
LINE
  5
F717B
  8
OBJECT
 10
500.14150499999988
 20
443.59195099999988
 30
0.0
 11
500.01170699999989
 21
443.56518099999988
 31
0.0
  0
LINE
  5
F717C
  8
OBJECT
 10
500.01170699999989
 20
443.56518099999988
 30
0.0
 11
499.88163199999991
 21
443.53823999999992
 31
0.0
  0
LINE
  5
F717D
  8
OBJECT
 10
499.88163199999991
 20
443.53823999999992
 30
0.0
 11
499.75138099999992
 21
443.51114399999989
 31
0.0
  0
LINE
  5
F717E
  8
OBJECT
 10
499.75138099999992
 20
443.51114399999989
 30
0.0
 11
499.62105599999978
 21
443.48390699999987
 31
0.0
  0
LINE
  5
F717F
  8
OBJECT
 10
499.62105599999978
 20
443.48390699999987
 30
0.0
 11
499.49075899999991
 21
443.45654500000001
 31
0.0
  0
LINE
  5
F7180
  8
OBJECT
 10
499.49075899999991
 20
443.45654500000001
 30
0.0
 11
499.36059
 21
443.42907499999978
 31
0.0
  0
LINE
  5
F7181
  8
OBJECT
 10
499.36059
 20
443.42907499999978
 30
0.0
 11
499.2306520000003
 21
443.40151100000003
 31
0.0
  0
LINE
  5
F7182
  8
OBJECT
 10
499.2306520000003
 20
443.40151100000003
 30
0.0
 11
499.101046
 21
443.37386899999979
 31
0.0
  0
LINE
  5
F7183
  8
OBJECT
 10
499.101046
 20
443.37386899999979
 30
0.0
 11
498.95302900000002
 21
443.34211199999999
 31
0.0
  0
LINE
  5
F7184
  8
OBJECT
 10
498.95302900000002
 20
443.34211199999999
 30
0.0
 11
498.80554799999982
 21
443.31026499999979
 31
0.0
  0
LINE
  5
F7185
  8
OBJECT
 10
498.80554799999982
 20
443.31026499999979
 30
0.0
 11
498.65857099999988
 21
443.27832000000001
 31
0.0
  0
LINE
  5
F7186
  8
OBJECT
 10
498.65857099999988
 20
443.27832000000001
 30
0.0
 11
498.51206299999978
 21
443.24626899999998
 31
0.0
  0
LINE
  5
F7187
  8
OBJECT
 10
498.51206299999978
 20
443.24626899999998
 30
0.0
 11
498.36599299999989
 21
443.21410399999991
 31
0.0
  0
LINE
  5
F7188
  8
OBJECT
 10
498.36599299999989
 20
443.21410399999991
 30
0.0
 11
498.22032799999999
 21
443.1818159999998
 31
0.0
  0
LINE
  5
F7189
  8
OBJECT
 10
498.22032799999999
 20
443.1818159999998
 30
0.0
 11
498.07503399999979
 21
443.14939799999991
 31
0.0
  0
LINE
  5
F718A
  8
OBJECT
 10
498.07503399999979
 20
443.14939799999991
 30
0.0
 11
497.93007799999992
 21
443.11684099999979
 31
0.0
  0
LINE
  5
F718B
  8
OBJECT
 10
497.93007799999992
 20
443.11684099999979
 30
0.0
 11
497.7854279999998
 21
443.084137
 31
0.0
  0
LINE
  5
F718C
  8
OBJECT
 10
497.7854279999998
 20
443.084137
 30
0.0
 11
497.64104999999989
 21
443.05127799999991
 31
0.0
  0
LINE
  5
F718D
  8
OBJECT
 10
497.64104999999989
 20
443.05127799999991
 30
0.0
 11
497.49691100000013
 21
443.01825600000001
 31
0.0
  0
LINE
  5
F718E
  8
OBJECT
 10
497.49691100000013
 20
443.01825600000001
 30
0.0
 11
497.35298000000012
 21
442.98506300000003
 31
0.0
  0
LINE
  5
F718F
  8
OBJECT
 10
497.35298000000012
 20
442.98506300000003
 30
0.0
 11
497.20922099999979
 21
442.95168899999999
 31
0.0
  0
LINE
  5
F7190
  8
OBJECT
 10
497.20922099999979
 20
442.95168899999999
 30
0.0
 11
497.06560400000012
 21
442.91812899999979
 31
0.0
  0
LINE
  5
F7191
  8
OBJECT
 10
497.06560400000012
 20
442.91812899999979
 30
0.0
 11
496.92209400000002
 21
442.88437199999993
 31
0.0
  0
LINE
  5
F7192
  8
OBJECT
 10
496.92209400000002
 20
442.88437199999993
 30
0.0
 11
496.77865799999989
 21
442.85041100000001
 31
0.0
  0
LINE
  5
F7193
  8
OBJECT
 10
496.77865799999989
 20
442.85041100000001
 30
0.0
 11
496.63526500000012
 21
442.81623799999988
 31
0.0
  0
LINE
  5
F7194
  8
OBJECT
 10
496.63526500000012
 20
442.81623799999988
 30
0.0
 11
496.49187999999992
 21
442.78184499999998
 31
0.0
  0
LINE
  5
F7195
  8
OBJECT
 10
496.49187999999992
 20
442.78184499999998
 30
0.0
 11
496.34847099999979
 21
442.74722299999991
 31
0.0
  0
LINE
  5
F7196
  8
OBJECT
 10
496.34847099999979
 20
442.74722299999991
 30
0.0
 11
496.20500399999992
 21
442.71236399999992
 31
0.0
  0
LINE
  5
F7197
  8
OBJECT
 10
496.20500399999992
 20
442.71236399999992
 30
0.0
 11
496.06280499999991
 21
442.67759399999971
 31
0.0
  0
LINE
  5
F7198
  8
OBJECT
 10
496.06280499999991
 20
442.67759399999971
 30
0.0
 11
495.92052699999988
 21
442.642583
 31
0.0
  0
LINE
  5
F7199
  8
OBJECT
 10
495.92052699999988
 20
442.642583
 30
0.0
 11
495.77817900000002
 21
442.60733199999987
 31
0.0
  0
LINE
  5
F719A
  8
OBJECT
 10
495.77817900000002
 20
442.60733199999987
 30
0.0
 11
495.63577299999992
 21
442.57184299999989
 31
0.0
  0
LINE
  5
F719B
  8
OBJECT
 10
495.63577299999992
 20
442.57184299999989
 30
0.0
 11
495.49331599999988
 21
442.53611399999988
 31
0.0
  0
LINE
  5
F719C
  8
OBJECT
 10
495.49331599999988
 20
442.53611399999988
 30
0.0
 11
495.35081899999989
 21
442.5001459999998
 31
0.0
  0
LINE
  5
F719D
  8
OBJECT
 10
495.35081899999989
 20
442.5001459999998
 30
0.0
 11
495.20829099999992
 21
442.46393999999998
 31
0.0
  0
LINE
  5
F719E
  8
OBJECT
 10
495.20829099999992
 20
442.46393999999998
 30
0.0
 11
495.06574299999988
 21
442.42749599999991
 31
0.0
  0
LINE
  5
F719F
  8
OBJECT
 10
495.06574299999988
 20
442.42749599999991
 30
0.0
 11
494.92318299999999
 21
442.39081299999998
 31
0.0
  0
LINE
  5
F71A0
  8
OBJECT
 10
494.92318299999999
 20
442.39081299999998
 30
0.0
 11
494.78062199999999
 21
442.35389399999991
 31
0.0
  0
LINE
  5
F71A1
  8
OBJECT
 10
494.78062199999999
 20
442.35389399999991
 30
0.0
 11
494.63806799999981
 21
442.31673699999988
 31
0.0
  0
LINE
  5
F71A2
  8
OBJECT
 10
494.63806799999981
 20
442.31673699999988
 30
0.0
 11
494.49553299999991
 21
442.27934199999987
 31
0.0
  0
LINE
  5
F71A3
  8
OBJECT
 10
494.49553299999991
 20
442.27934199999987
 30
0.0
 11
494.35302499999989
 21
442.24171200000001
 31
0.0
  0
LINE
  5
F71A4
  8
OBJECT
 10
494.35302499999989
 20
442.24171200000001
 30
0.0
 11
494.210553
 21
442.20384399999989
 31
0.0
  0
LINE
  5
F71A5
  8
OBJECT
 10
494.210553
 20
442.20384399999989
 30
0.0
 11
494.06812899999989
 21
442.16574099999991
 31
0.0
  0
LINE
  5
F71A6
  8
OBJECT
 10
494.06812899999989
 20
442.16574099999991
 30
0.0
 11
493.92576099999991
 21
442.12740199999979
 31
0.0
  0
LINE
  5
F71A7
  8
OBJECT
 10
493.92576099999991
 20
442.12740199999979
 30
0.0
 11
493.78345799999988
 21
442.08882699999981
 31
0.0
  0
LINE
  5
F71A8
  8
OBJECT
 10
493.78345799999988
 20
442.08882699999981
 30
0.0
 11
493.64123199999989
 21
442.05001699999991
 31
0.0
  0
LINE
  5
F71A9
  8
OBJECT
 10
493.64123199999989
 20
442.05001699999991
 30
0.0
 11
493.4990899999998
 21
442.01097299999998
 31
0.0
  0
LINE
  5
F71AA
  8
OBJECT
 10
493.4990899999998
 20
442.01097299999998
 30
0.0
 11
493.35704399999992
 21
441.97169299999979
 31
0.0
  0
LINE
  5
F71AB
  8
OBJECT
 10
493.35704399999992
 20
441.97169299999979
 30
0.0
 11
493.20840399999992
 21
441.93030999999991
 31
0.0
  0
LINE
  5
F71AC
  8
OBJECT
 10
493.20840399999992
 20
441.93030999999991
 30
0.0
 11
493.05987499999992
 21
441.88867199999987
 31
0.0
  0
LINE
  5
F71AD
  8
OBJECT
 10
493.05987499999992
 20
441.88867199999987
 30
0.0
 11
492.91145499999988
 21
441.84678499999978
 31
0.0
  0
LINE
  5
F71AE
  8
OBJECT
 10
492.91145499999988
 20
441.84678499999978
 30
0.0
 11
492.76313799999991
 21
441.80464999999992
 31
0.0
  0
LINE
  5
F71AF
  8
OBJECT
 10
492.76313799999991
 20
441.80464999999992
 30
0.0
 11
492.61492299999998
 21
441.76227199999988
 31
0.0
  0
LINE
  5
F71B0
  8
OBJECT
 10
492.61492299999998
 20
441.76227199999988
 30
0.0
 11
492.46680499999991
 21
441.71965299999999
 31
0.0
  0
LINE
  5
F71B1
  8
OBJECT
 10
492.46680499999991
 20
441.71965299999999
 30
0.0
 11
492.31878099999989
 21
441.67679700000008
 31
0.0
  0
LINE
  5
F71B2
  8
OBJECT
 10
492.31878099999989
 20
441.67679700000008
 30
0.0
 11
492.17084699999992
 21
441.63370699999979
 31
0.0
  0
LINE
  5
F71B3
  8
OBJECT
 10
492.17084699999992
 20
441.63370699999979
 30
0.0
 11
492.02300099999991
 21
441.59038700000002
 31
0.0
  0
LINE
  5
F71B4
  8
OBJECT
 10
492.02300099999991
 20
441.59038700000002
 30
0.0
 11
491.87523799999991
 21
441.54683999999992
 31
0.0
  0
LINE
  5
F71B5
  8
OBJECT
 10
491.87523799999991
 20
441.54683999999992
 30
0.0
 11
491.72755599999988
 21
441.50306899999998
 31
0.0
  0
LINE
  5
F71B6
  8
OBJECT
 10
491.72755599999988
 20
441.50306899999998
 30
0.0
 11
491.57994999999988
 21
441.45907799999998
 31
0.0
  0
LINE
  5
F71B7
  8
OBJECT
 10
491.57994999999988
 20
441.45907799999998
 30
0.0
 11
491.43241799999998
 21
441.41486899999973
 31
0.0
  0
LINE
  5
F71B8
  8
OBJECT
 10
491.43241799999998
 20
441.41486899999973
 30
0.0
 11
491.2849549999998
 21
441.37044599999979
 31
0.0
  0
LINE
  5
F71B9
  8
OBJECT
 10
491.2849549999998
 20
441.37044599999979
 30
0.0
 11
491.13755900000001
 21
441.3258130000001
 31
0.0
  0
LINE
  5
F71BA
  8
OBJECT
 10
491.13755900000001
 20
441.3258130000001
 30
0.0
 11
490.99022599999989
 21
441.28097299999979
 31
0.0
  0
LINE
  5
F71BB
  8
OBJECT
 10
490.99022599999989
 20
441.28097299999979
 30
0.0
 11
490.84295299999991
 21
441.235929
 31
0.0
  0
LINE
  5
F71BC
  8
OBJECT
 10
490.84295299999991
 20
441.235929
 30
0.0
 11
490.69573499999979
 21
441.19068399999992
 31
0.0
  0
LINE
  5
F71BD
  8
OBJECT
 10
490.69573499999979
 20
441.19068399999992
 30
0.0
 11
490.54857099999992
 21
441.14524199999988
 31
0.0
  0
LINE
  5
F71BE
  8
OBJECT
 10
490.54857099999992
 20
441.14524199999988
 30
0.0
 11
490.40145499999988
 21
441.09960599999999
 31
0.0
  0
LINE
  5
F71BF
  8
OBJECT
 10
490.40145499999988
 20
441.09960599999999
 30
0.0
 11
490.25898099999989
 21
441.05521399999998
 31
0.0
  0
LINE
  5
F71C0
  8
OBJECT
 10
490.25898099999989
 20
441.05521399999998
 30
0.0
 11
490.11654999999968
 21
441.01064599999989
 31
0.0
  0
LINE
  5
F71C1
  8
OBJECT
 10
490.11654999999968
 20
441.01064599999989
 30
0.0
 11
489.97416399999997
 21
440.96590500000002
 31
0.0
  0
LINE
  5
F71C2
  8
OBJECT
 10
489.97416399999997
 20
440.96590500000002
 30
0.0
 11
489.83182199999999
 21
440.92099300000001
 31
0.0
  0
LINE
  5
F71C3
  8
OBJECT
 10
489.83182199999999
 20
440.92099300000001
 30
0.0
 11
489.68952599999989
 21
440.87591300000003
 31
0.0
  0
LINE
  5
F71C4
  8
OBJECT
 10
489.68952599999989
 20
440.87591300000003
 30
0.0
 11
489.54727499999967
 21
440.83066799999989
 31
0.0
  0
LINE
  5
F71C5
  8
OBJECT
 10
489.54727499999967
 20
440.83066799999989
 30
0.0
 11
489.40506999999991
 21
440.78526099999988
 31
0.0
  0
LINE
  5
F71C6
  8
OBJECT
 10
489.40506999999991
 20
440.78526099999988
 30
0.0
 11
489.26291299999991
 21
440.73969399999987
 31
0.0
  0
LINE
  5
F71C7
  8
OBJECT
 10
489.26291299999991
 20
440.73969399999987
 30
0.0
 11
489.12080199999991
 21
440.69397099999992
 31
0.0
  0
LINE
  5
F71C8
  8
OBJECT
 10
489.12080199999991
 20
440.69397099999992
 30
0.0
 11
488.97873999999979
 21
440.64809399999979
 31
0.0
  0
LINE
  5
F71C9
  8
OBJECT
 10
488.97873999999979
 20
440.64809399999979
 30
0.0
 11
488.83672699999988
 21
440.60206499999998
 31
0.0
  0
LINE
  5
F71CA
  8
OBJECT
 10
488.83672699999988
 20
440.60206499999998
 30
0.0
 11
488.69476199999991
 21
440.5558880000001
 31
0.0
  0
LINE
  5
F71CB
  8
OBJECT
 10
488.69476199999991
 20
440.5558880000001
 30
0.0
 11
488.55284699999987
 21
440.50956599999989
 31
0.0
  0
LINE
  5
F71CC
  8
OBJECT
 10
488.55284699999987
 20
440.50956599999989
 30
0.0
 11
488.41098299999982
 21
440.4631
 31
0.0
  0
LINE
  5
F71CD
  8
OBJECT
 10
488.41098299999982
 20
440.4631
 30
0.0
 11
488.26916900000009
 21
440.416495
 31
0.0
  0
LINE
  5
F71CE
  8
OBJECT
 10
488.26916900000009
 20
440.416495
 30
0.0
 11
488.12740699999989
 21
440.36975200000001
 31
0.0
  0
LINE
  5
F71CF
  8
OBJECT
 10
488.12740699999989
 20
440.36975200000001
 30
0.0
 11
487.98569699999979
 21
440.32287499999973
 31
0.0
  0
LINE
  5
F71D0
  8
OBJECT
 10
487.98569699999979
 20
440.32287499999973
 30
0.0
 11
487.84403899999978
 21
440.27586599999989
 31
0.0
  0
LINE
  5
F71D1
  8
OBJECT
 10
487.84403899999978
 20
440.27586599999989
 30
0.0
 11
487.70243499999992
 21
440.22872799999999
 31
0.0
  0
LINE
  5
F71D2
  8
OBJECT
 10
487.70243499999992
 20
440.22872799999999
 30
0.0
 11
487.56088399999987
 21
440.18146400000001
 31
0.0
  0
LINE
  5
F71D3
  8
OBJECT
 10
487.56088399999987
 20
440.18146400000001
 30
0.0
 11
487.4270759999996
 21
440.13665399999979
 31
0.0
  0
LINE
  5
F71D4
  8
OBJECT
 10
487.4270759999996
 20
440.13665399999979
 30
0.0
 11
487.29331399999978
 21
440.09173600000003
 31
0.0
  0
LINE
  5
F71D5
  8
OBJECT
 10
487.29331399999978
 20
440.09173600000003
 30
0.0
 11
487.15959599999991
 21
440.04670900000002
 31
0.0
  0
LINE
  5
F71D6
  8
OBJECT
 10
487.15959599999991
 20
440.04670900000002
 30
0.0
 11
487.02591899999987
 21
440.00157399999989
 31
0.0
  0
LINE
  5
F71D7
  8
OBJECT
 10
487.02591899999987
 20
440.00157399999989
 30
0.0
 11
486.89227899999992
 21
439.95633299999992
 31
0.0
  0
LINE
  5
F71D8
  8
OBJECT
 10
486.89227899999992
 20
439.95633299999992
 30
0.0
 11
486.75867599999992
 21
439.91098599999998
 31
0.0
  0
LINE
  5
F71D9
  8
OBJECT
 10
486.75867599999992
 20
439.91098599999998
 30
0.0
 11
486.62510599999979
 21
439.86553499999991
 31
0.0
  0
LINE
  5
F71DA
  8
OBJECT
 10
486.62510599999979
 20
439.86553499999991
 30
0.0
 11
486.49156699999992
 21
439.81997899999988
 31
0.0
  0
LINE
  5
F71DB
  8
OBJECT
 10
486.49156699999992
 20
439.81997899999988
 30
0.0
 11
486.3580569999998
 21
439.77432099999987
 31
0.0
  0
LINE
  5
F71DC
  8
OBJECT
 10
486.3580569999998
 20
439.77432099999987
 30
0.0
 11
486.2245719999998
 21
439.72856099999979
 31
0.0
  0
LINE
  5
F71DD
  8
OBJECT
 10
486.2245719999998
 20
439.72856099999979
 30
0.0
 11
486.09111000000001
 21
439.68270000000001
 31
0.0
  0
LINE
  5
F71DE
  8
OBJECT
 10
486.09111000000001
 20
439.68270000000001
 30
0.0
 11
485.95766899999978
 21
439.63673899999992
 31
0.0
  0
LINE
  5
F71DF
  8
OBJECT
 10
485.95766899999978
 20
439.63673899999992
 30
0.0
 11
485.82424600000002
 21
439.59067800000003
 31
0.0
  0
LINE
  5
F71E0
  8
OBJECT
 10
485.82424600000002
 20
439.59067800000003
 30
0.0
 11
485.69083899999998
 21
439.54451999999998
 31
0.0
  0
LINE
  5
F71E1
  8
OBJECT
 10
485.69083899999998
 20
439.54451999999998
 30
0.0
 11
485.5574449999998
 21
439.49826499999972
 31
0.0
  0
LINE
  5
F71E2
  8
OBJECT
 10
485.5574449999998
 20
439.49826499999972
 30
0.0
 11
485.42406100000022
 21
439.45191299999988
 31
0.0
  0
LINE
  5
F71E3
  8
OBJECT
 10
485.42406100000022
 20
439.45191299999988
 30
0.0
 11
485.29068599999988
 21
439.40546599999999
 31
0.0
  0
LINE
  5
F71E4
  8
OBJECT
 10
485.29068599999988
 20
439.40546599999999
 30
0.0
 11
485.15731599999992
 21
439.35892499999989
 31
0.0
  0
LINE
  5
F71E5
  8
OBJECT
 10
485.15731599999992
 20
439.35892499999989
 30
0.0
 11
485.02394899999979
 21
439.31228999999979
 31
0.0
  0
LINE
  5
F71E6
  8
OBJECT
 10
485.02394899999979
 20
439.31228999999979
 30
0.0
 11
484.89058299999982
 21
439.26556299999999
 31
0.0
  0
LINE
  5
F71E7
  8
OBJECT
 10
484.89058299999982
 20
439.26556299999999
 30
0.0
 11
484.73521599999981
 21
439.21100999999999
 31
0.0
  0
LINE
  5
F71E8
  8
OBJECT
 10
484.73521599999981
 20
439.21100999999999
 30
0.0
 11
484.57986000000011
 21
439.15632199999999
 31
0.0
  0
LINE
  5
F71E9
  8
OBJECT
 10
484.57986000000011
 20
439.15632199999999
 30
0.0
 11
484.42452999999989
 21
439.10149000000001
 31
0.0
  0
LINE
  5
F71EA
  8
OBJECT
 10
484.42452999999989
 20
439.10149000000001
 30
0.0
 11
484.2692389999998
 21
439.04650399999991
 31
0.0
  0
LINE
  5
F71EB
  8
OBJECT
 10
484.2692389999998
 20
439.04650399999991
 30
0.0
 11
484.11400199999991
 21
438.99135199999989
 31
0.0
  0
LINE
  5
F71EC
  8
OBJECT
 10
484.11400199999991
 20
438.99135199999989
 30
0.0
 11
483.9588329999998
 21
438.93602499999997
 31
0.0
  0
LINE
  5
F71ED
  8
OBJECT
 10
483.9588329999998
 20
438.93602499999997
 30
0.0
 11
483.80374500000011
 21
438.88051300000001
 31
0.0
  0
LINE
  5
F71EE
  8
OBJECT
 10
483.80374500000011
 20
438.88051300000001
 30
0.0
 11
483.64875299999989
 21
438.82480599999991
 31
0.0
  0
LINE
  5
F71EF
  8
OBJECT
 10
483.64875299999989
 20
438.82480599999991
 30
0.0
 11
483.49387100000001
 21
438.76889199999999
 31
0.0
  0
LINE
  5
F71F0
  8
OBJECT
 10
483.49387100000001
 20
438.76889199999999
 30
0.0
 11
483.33911199999989
 21
438.712763
 31
0.0
  0
LINE
  5
F71F1
  8
OBJECT
 10
483.33911199999989
 20
438.712763
 30
0.0
 11
483.18449199999992
 21
438.656408
 31
0.0
  0
LINE
  5
F71F2
  8
OBJECT
 10
483.18449199999992
 20
438.656408
 30
0.0
 11
483.0300239999998
 21
438.59981699999992
 31
0.0
  0
LINE
  5
F71F3
  8
OBJECT
 10
483.0300239999998
 20
438.59981699999992
 30
0.0
 11
482.87572199999988
 21
438.54297999999989
 31
0.0
  0
LINE
  5
F71F4
  8
OBJECT
 10
482.87572199999988
 20
438.54297999999989
 30
0.0
 11
482.72160099999991
 21
438.48588499999988
 31
0.0
  0
LINE
  5
F71F5
  8
OBJECT
 10
482.72160099999991
 20
438.48588499999988
 30
0.0
 11
482.56767299999967
 21
438.42852399999992
 31
0.0
  0
LINE
  5
F71F6
  8
OBJECT
 10
482.56767299999967
 20
438.42852399999992
 30
0.0
 11
482.41395399999999
 21
438.37088599999993
 31
0.0
  0
LINE
  5
F71F7
  8
OBJECT
 10
482.41395399999999
 20
438.37088599999993
 30
0.0
 11
482.26045799999957
 21
438.31296200000003
 31
0.0
  0
LINE
  5
F71F8
  8
OBJECT
 10
482.26045799999957
 20
438.31296200000003
 30
0.0
 11
482.10719799999993
 21
438.25473899999997
 31
0.0
  0
LINE
  5
F71F9
  8
OBJECT
 10
482.10719799999993
 20
438.25473899999997
 30
0.0
 11
481.95418899999987
 21
438.19620999999989
 31
0.0
  0
LINE
  5
F71FA
  8
OBJECT
 10
481.95418899999987
 20
438.19620999999989
 30
0.0
 11
481.80144399999989
 21
438.13736199999988
 31
0.0
  0
LINE
  5
F71FB
  8
OBJECT
 10
481.80144399999989
 20
438.13736199999988
 30
0.0
 11
481.66869299999991
 21
438.08586499999979
 31
0.0
  0
LINE
  5
F71FC
  8
OBJECT
 10
481.66869299999991
 20
438.08586499999979
 30
0.0
 11
481.53612799999991
 21
438.03410999999988
 31
0.0
  0
LINE
  5
F71FD
  8
OBJECT
 10
481.53612799999991
 20
438.03410999999988
 30
0.0
 11
481.40372600000001
 21
437.98208699999992
 31
0.0
  0
LINE
  5
F71FE
  8
OBJECT
 10
481.40372600000001
 20
437.98208699999992
 30
0.0
 11
481.27146299999993
 21
437.92978599999998
 31
0.0
  0
LINE
  5
F71FF
  8
OBJECT
 10
481.27146299999993
 20
437.92978599999998
 30
0.0
 11
481.13931299999979
 21
437.87719799999979
 31
0.0
  0
LINE
  5
F7200
  8
OBJECT
 10
481.13931299999979
 20
437.87719799999979
 30
0.0
 11
481.00725199999999
 21
437.82431199999991
 31
0.0
  0
LINE
  5
F7201
  8
OBJECT
 10
481.00725199999999
 20
437.82431199999991
 30
0.0
 11
480.87525599999992
 21
437.77111899999989
 31
0.0
  0
LINE
  5
F7202
  8
OBJECT
 10
480.87525599999992
 20
437.77111899999989
 30
0.0
 11
480.74330099999992
 21
437.71760899999981
 31
0.0
  0
LINE
  5
F7203
  8
OBJECT
 10
480.74330099999992
 20
437.71760899999981
 30
0.0
 11
480.61136199999987
 21
437.66377299999988
 31
0.0
  0
LINE
  5
F7204
  8
OBJECT
 10
480.61136199999987
 20
437.66377299999988
 30
0.0
 11
480.47941399999991
 21
437.6096
 31
0.0
  0
LINE
  5
F7205
  8
OBJECT
 10
480.47941399999991
 20
437.6096
 30
0.0
 11
480.34743399999991
 21
437.55507999999998
 31
0.0
  0
LINE
  5
F7206
  8
OBJECT
 10
480.34743399999991
 20
437.55507999999998
 30
0.0
 11
480.21539799999988
 21
437.50020499999988
 31
0.0
  0
LINE
  5
F7207
  8
OBJECT
 10
480.21539799999988
 20
437.50020499999988
 30
0.0
 11
480.08327899999989
 21
437.44496299999997
 31
0.0
  0
LINE
  5
F7208
  8
OBJECT
 10
480.08327899999989
 20
437.44496299999997
 30
0.0
 11
479.95105499999988
 21
437.38934699999987
 31
0.0
  0
LINE
  5
F7209
  8
OBJECT
 10
479.95105499999988
 20
437.38934699999987
 30
0.0
 11
479.81870099999992
 21
437.33334399999978
 31
0.0
  0
LINE
  5
F720A
  8
OBJECT
 10
479.81870099999992
 20
437.33334399999978
 30
0.0
 11
479.68619199999972
 21
437.27694700000001
 31
0.0
  0
LINE
  5
F720B
  8
OBJECT
 10
479.68619199999972
 20
437.27694700000001
 30
0.0
 11
479.5535039999998
 21
437.22014399999989
 31
0.0
  0
LINE
  5
F720C
  8
OBJECT
 10
479.5535039999998
 20
437.22014399999989
 30
0.0
 11
479.420613
 21
437.1629269999998
 31
0.0
  0
LINE
  5
F720D
  8
OBJECT
 10
479.420613
 20
437.1629269999998
 30
0.0
 11
479.28749399999992
 21
437.10528499999981
 31
0.0
  0
LINE
  5
F720E
  8
OBJECT
 10
479.28749399999992
 20
437.10528499999981
 30
0.0
 11
479.15412199999992
 21
437.04720899999978
 31
0.0
  0
LINE
  5
F720F
  8
OBJECT
 10
479.15412199999992
 20
437.04720899999978
 30
0.0
 11
479.0182919999998
 21
436.98773199999988
 31
0.0
  0
LINE
  5
F7210
  8
OBJECT
 10
479.0182919999998
 20
436.98773199999988
 30
0.0
 11
478.88226699999962
 21
436.92784999999998
 31
0.0
  0
LINE
  5
F7211
  8
OBJECT
 10
478.88226699999962
 20
436.92784999999998
 30
0.0
 11
478.7461399999998
 21
436.86761699999988
 31
0.0
  0
LINE
  5
F7212
  8
OBJECT
 10
478.7461399999998
 20
436.86761699999988
 30
0.0
 11
478.61000300000001
 21
436.80708699999991
 31
0.0
  0
LINE
  5
F7213
  8
OBJECT
 10
478.61000300000001
 20
436.80708699999991
 30
0.0
 11
478.47394699999978
 21
436.74631299999987
 31
0.0
  0
LINE
  5
F7214
  8
OBJECT
 10
478.47394699999978
 20
436.74631299999987
 30
0.0
 11
478.3380639999998
 21
436.68534899999992
 31
0.0
  0
LINE
  5
F7215
  8
OBJECT
 10
478.3380639999998
 20
436.68534899999992
 30
0.0
 11
478.20244600000001
 21
436.62424900000002
 31
0.0
  0
LINE
  5
F7216
  8
OBJECT
 10
478.20244600000001
 20
436.62424900000002
 30
0.0
 11
478.06718499999999
 21
436.56306699999988
 31
0.0
  0
LINE
  5
F7217
  8
OBJECT
 10
478.06718499999999
 20
436.56306699999988
 30
0.0
 11
477.93237199999987
 21
436.50185699999997
 31
0.0
  0
LINE
  5
F7218
  8
OBJECT
 10
477.93237199999987
 20
436.50185699999997
 30
0.0
 11
477.79809899999981
 21
436.44067199999989
 31
0.0
  0
LINE
  5
F7219
  8
OBJECT
 10
477.79809899999981
 20
436.44067199999989
 30
0.0
 11
477.66445800000002
 21
436.37956600000001
 31
0.0
  0
LINE
  5
F721A
  8
OBJECT
 10
477.66445800000002
 20
436.37956600000001
 30
0.0
 11
477.53153999999989
 21
436.31859299999991
 31
0.0
  0
LINE
  5
F721B
  8
OBJECT
 10
477.53153999999989
 20
436.31859299999991
 30
0.0
 11
477.39943799999992
 21
436.25780700000001
 31
0.0
  0
LINE
  5
F721C
  8
OBJECT
 10
477.39943799999992
 20
436.25780700000001
 30
0.0
 11
477.26824399999992
 21
436.19726199999991
 31
0.0
  0
LINE
  5
F721D
  8
OBJECT
 10
477.26824399999992
 20
436.19726199999991
 30
0.0
 11
477.13804799999991
 21
436.13701099999997
 31
0.0
  0
LINE
  5
F721E
  8
OBJECT
 10
477.13804799999991
 20
436.13701099999997
 30
0.0
 11
477.00894299999987
 21
436.07710900000001
 31
0.0
  0
LINE
  5
F721F
  8
OBJECT
 10
477.00894299999987
 20
436.07710900000001
 30
0.0
 11
476.88101999999981
 21
436.01760899999999
 31
0.0
  0
LINE
  5
F7220
  8
OBJECT
 10
476.88101999999981
 20
436.01760899999999
 30
0.0
 11
476.75437099999988
 21
435.9585639999998
 31
0.0
  0
LINE
  5
F7221
  8
OBJECT
 10
476.75437099999988
 20
435.9585639999998
 30
0.0
 11
476.62908899999991
 21
435.90002899999979
 31
0.0
  0
LINE
  5
F7222
  8
OBJECT
 10
476.62908899999991
 20
435.90002899999979
 30
0.0
 11
476.50526400000001
 21
435.84205799999989
 31
0.0
  0
LINE
  5
F7223
  8
OBJECT
 10
476.50526400000001
 20
435.84205799999989
 30
0.0
 11
476.37842899999998
 21
435.78255999999988
 31
0.0
  0
LINE
  5
F7224
  8
OBJECT
 10
476.37842899999998
 20
435.78255999999988
 30
0.0
 11
476.25288499999988
 21
435.72354199999978
 31
0.0
  0
LINE
  5
F7225
  8
OBJECT
 10
476.25288499999988
 20
435.72354199999978
 30
0.0
 11
476.12825599999979
 21
435.66482000000008
 31
0.0
  0
LINE
  5
F7226
  8
OBJECT
 10
476.12825599999979
 20
435.66482000000008
 30
0.0
 11
476.00416799999988
 21
435.60620899999998
 31
0.0
  0
LINE
  5
F7227
  8
OBJECT
 10
476.00416799999988
 20
435.60620899999998
 30
0.0
 11
475.88024599999989
 21
435.547528
 31
0.0
  0
LINE
  5
F7228
  8
OBJECT
 10
475.88024599999989
 20
435.547528
 30
0.0
 11
475.75611399999991
 21
435.48858999999999
 31
0.0
  0
LINE
  5
F7229
  8
OBJECT
 10
475.75611399999991
 20
435.48858999999999
 30
0.0
 11
475.63139699999988
 21
435.429213
 31
0.0
  0
LINE
  5
F722A
  8
OBJECT
 10
475.63139699999988
 20
435.429213
 30
0.0
 11
475.50572
 21
435.36921299999989
 31
0.0
  0
LINE
  5
F722B
  8
OBJECT
 10
475.50572
 20
435.36921299999989
 30
0.0
 11
475.37870899999967
 21
435.30840499999988
 31
0.0
  0
LINE
  5
F722C
  8
OBJECT
 10
475.37870899999967
 20
435.30840499999988
 30
0.0
 11
475.24998699999992
 21
435.24660699999998
 31
0.0
  0
LINE
  5
F722D
  8
OBJECT
 10
475.24998699999992
 20
435.24660699999998
 30
0.0
 11
475.11917999999991
 21
435.18363299999999
 31
0.0
  0
LINE
  5
F722E
  8
OBJECT
 10
475.11917999999991
 20
435.18363299999999
 30
0.0
 11
474.98591299999993
 21
435.11929999999978
 31
0.0
  0
LINE
  5
F722F
  8
OBJECT
 10
474.98591299999993
 20
435.11929999999978
 30
0.0
 11
474.8498110000001
 21
435.05342499999989
 31
0.0
  0
LINE
  5
F7230
  8
OBJECT
 10
474.8498110000001
 20
435.05342499999989
 30
0.0
 11
474.71049799999992
 21
434.98582399999992
 31
0.0
  0
LINE
  5
F7231
  8
OBJECT
 10
474.71049799999992
 20
434.98582399999992
 30
0.0
 11
474.56759899999992
 21
434.91631100000001
 31
0.0
  0
LINE
  5
F7232
  8
OBJECT
 10
474.56759899999992
 20
434.91631100000001
 30
0.0
 11
474.42073999999991
 21
434.84470499999981
 31
0.0
  0
LINE
  5
F7233
  8
OBJECT
 10
474.42073999999991
 20
434.84470499999981
 30
0.0
 11
474.26954499999999
 21
434.77082000000001
 31
0.0
  0
LINE
  5
F7234
  8
OBJECT
 10
474.26954499999999
 20
434.77082000000001
 30
0.0
 11
474.11363899999992
 21
434.69447299999979
 31
0.0
  0
LINE
  5
F7235
  8
OBJECT
 10
474.11363899999992
 20
434.69447299999979
 30
0.0
 11
473.95264699999979
 21
434.61548099999987
 31
0.0
  0
LINE
  5
F7236
  8
OBJECT
 10
473.95264699999979
 20
434.61548099999987
 30
0.0
 11
473.78619400000002
 21
434.533658
 31
0.0
  0
LINE
  5
F7237
  8
OBJECT
 10
473.78619400000002
 20
434.533658
 30
0.0
 11
473.5886749999998
 21
434.43638999999979
 31
0.0
  0
LINE
  5
F7238
  8
OBJECT
 10
473.5886749999998
 20
434.43638999999979
 30
0.0
 11
473.38523199999992
 21
434.33603899999991
 31
0.0
  0
LINE
  5
F7239
  8
OBJECT
 10
473.38523199999992
 20
434.33603899999991
 30
0.0
 11
473.17759899999999
 21
434.23347799999988
 31
0.0
  0
LINE
  5
F723A
  8
OBJECT
 10
473.17759899999999
 20
434.23347799999988
 30
0.0
 11
472.96751299999988
 21
434.12957899999998
 31
0.0
  0
LINE
  5
F723B
  8
OBJECT
 10
472.96751299999988
 20
434.12957899999998
 30
0.0
 11
472.75670999999988
 21
434.02521499999989
 31
0.0
  0
LINE
  5
F723C
  8
OBJECT
 10
472.75670999999988
 20
434.02521499999989
 30
0.0
 11
472.54692699999993
 21
433.92125900000002
 31
0.0
  0
LINE
  5
F723D
  8
OBJECT
 10
472.54692699999993
 20
433.92125900000002
 30
0.0
 11
472.33989799999989
 21
433.81858399999999
 31
0.0
  0
LINE
  5
F723E
  8
OBJECT
 10
472.33989799999989
 20
433.81858399999999
 30
0.0
 11
472.13736000000023
 21
433.7180619999998
 31
0.0
  0
LINE
  5
F723F
  8
OBJECT
 10
472.13736000000023
 20
433.7180619999998
 30
0.0
 11
471.94104899999991
 21
433.62056699999999
 31
0.0
  0
LINE
  5
F7240
  8
OBJECT
 10
471.94104899999991
 20
433.62056699999999
 30
0.0
 11
471.75270199999989
 21
433.52697000000001
 31
0.0
  0
LINE
  5
F7241
  8
OBJECT
 10
471.75270199999989
 20
433.52697000000001
 30
0.0
 11
471.57405300000022
 21
433.43814599999979
 31
0.0
  0
LINE
  5
F7242
  8
OBJECT
 10
471.57405300000022
 20
433.43814599999979
 30
0.0
 11
471.40683799999988
 21
433.35496599999999
 31
0.0
  0
LINE
  5
F7243
  8
OBJECT
 10
471.40683799999988
 20
433.35496599999999
 30
0.0
 11
471.25279499999999
 21
433.27830299999988
 31
0.0
  0
LINE
  5
F7244
  8
OBJECT
 10
471.25279499999999
 20
433.27830299999988
 30
0.0
 11
471.11365899999993
 21
433.20902999999993
 31
0.0
  0
LINE
  5
F7245
  8
OBJECT
 10
471.11365899999993
 20
433.20902999999993
 30
0.0
 11
470.99116499999991
 21
433.14801999999992
 31
0.0
  0
LINE
  5
F7246
  8
OBJECT
 10
470.99116499999991
 20
433.14801999999992
 30
0.0
 11
470.88704999999987
 21
433.09614599999998
 31
0.0
  0
LINE
  5
F7247
  8
OBJECT
 10
470.88704999999987
 20
433.09614599999998
 30
0.0
 11
470.80304999999981
 21
433.05427999999989
 31
0.0
  0
LINE
  5
F7248
  8
OBJECT
 10
470.80304999999981
 20
433.05427999999989
 30
0.0
 11
470.74089999999978
 21
433.02329600000002
 31
0.0
  0
LINE
  5
F7249
  8
OBJECT
 10
470.74089999999978
 20
433.02329600000002
 30
0.0
 11
470.70233799999988
 21
433.00406499999991
 31
0.0
  0
LINE
  5
F724A
  8
OBJECT
 10
470.70233799999988
 20
433.00406499999991
 30
0.0
 11
470.68909799999989
 21
432.99745999999988
 31
0.0
  0
LINE
  5
F724B
  8
OBJECT
 10
626.73355800000013
 20
444.67354399999999
 30
0.0
 11
626.72336399999995
 21
444.67229099999997
 31
0.0
  0
LINE
  5
F724C
  8
OBJECT
 10
626.72336399999995
 20
444.67229099999997
 30
0.0
 11
626.69365499999969
 21
444.66862800000001
 31
0.0
  0
LINE
  5
F724D
  8
OBJECT
 10
626.69365499999969
 20
444.66862800000001
 30
0.0
 11
626.64573900000005
 21
444.66269999999992
 31
0.0
  0
LINE
  5
F724E
  8
OBJECT
 10
626.64573900000005
 20
444.66269999999992
 30
0.0
 11
626.58092599999998
 21
444.65465199999988
 31
0.0
  0
LINE
  5
F724F
  8
OBJECT
 10
626.58092599999998
 20
444.65465199999988
 30
0.0
 11
626.50052500000015
 21
444.64462899999978
 31
0.0
  0
LINE
  5
F7250
  8
OBJECT
 10
626.50052500000015
 20
444.64462899999978
 30
0.0
 11
626.40584399999989
 21
444.63277699999992
 31
0.0
  0
LINE
  5
F7251
  8
OBJECT
 10
626.40584399999989
 20
444.63277699999992
 30
0.0
 11
626.2981930000002
 21
444.61923899999999
 31
0.0
  0
LINE
  5
F7252
  8
OBJECT
 10
626.2981930000002
 20
444.61923899999999
 30
0.0
 11
626.17888000000005
 21
444.60416199999992
 31
0.0
  0
LINE
  5
F7253
  8
OBJECT
 10
626.17888000000005
 20
444.60416199999992
 30
0.0
 11
626.04921499999955
 21
444.58769000000001
 31
0.0
  0
LINE
  5
F7254
  8
OBJECT
 10
626.04921499999955
 20
444.58769000000001
 30
0.0
 11
625.91050700000005
 21
444.56996800000002
 31
0.0
  0
LINE
  5
F7255
  8
OBJECT
 10
625.91050700000005
 20
444.56996800000002
 30
0.0
 11
625.76406499999985
 21
444.55114099999992
 31
0.0
  0
LINE
  5
F7256
  8
OBJECT
 10
625.76406499999985
 20
444.55114099999992
 30
0.0
 11
625.61119699999995
 21
444.53135399999991
 31
0.0
  0
LINE
  5
F7257
  8
OBJECT
 10
625.61119699999995
 20
444.53135399999991
 30
0.0
 11
625.45321300000001
 21
444.51075300000002
 31
0.0
  0
LINE
  5
F7258
  8
OBJECT
 10
625.45321300000001
 20
444.51075300000002
 30
0.0
 11
625.29142100000013
 21
444.48948200000001
 31
0.0
  0
LINE
  5
F7259
  8
OBJECT
 10
625.29142100000013
 20
444.48948200000001
 30
0.0
 11
625.12713099999985
 21
444.46768499999979
 31
0.0
  0
LINE
  5
F725A
  8
OBJECT
 10
625.12713099999985
 20
444.46768499999979
 30
0.0
 11
624.96165199999996
 21
444.44550899999979
 31
0.0
  0
LINE
  5
F725B
  8
OBJECT
 10
624.96165199999996
 20
444.44550899999979
 30
0.0
 11
624.79629199999988
 21
444.42309899999998
 31
0.0
  0
LINE
  5
F725C
  8
OBJECT
 10
624.79629199999988
 20
444.42309899999998
 30
0.0
 11
624.63236099999995
 21
444.400598
 31
0.0
  0
LINE
  5
F725D
  8
OBJECT
 10
624.63236099999995
 20
444.400598
 30
0.0
 11
624.47116799999981
 21
444.37815299999988
 31
0.0
  0
LINE
  5
F725E
  8
OBJECT
 10
624.47116799999981
 20
444.37815299999988
 30
0.0
 11
624.3140219999998
 21
444.35590799999989
 31
0.0
  0
LINE
  5
F725F
  8
OBJECT
 10
624.3140219999998
 20
444.35590799999989
 30
0.0
 11
624.14528399999995
 21
444.33154699999989
 31
0.0
  0
LINE
  5
F7260
  8
OBJECT
 10
624.14528399999995
 20
444.33154699999989
 30
0.0
 11
623.98274799999967
 21
444.30757199999999
 31
0.0
  0
LINE
  5
F7261
  8
OBJECT
 10
623.98274799999967
 20
444.30757199999999
 30
0.0
 11
623.82599500000015
 21
444.28393999999992
 31
0.0
  0
LINE
  5
F7262
  8
OBJECT
 10
623.82599500000015
 20
444.28393999999992
 30
0.0
 11
623.6746059999997
 21
444.26060799999999
 31
0.0
  0
LINE
  5
F7263
  8
OBJECT
 10
623.6746059999997
 20
444.26060799999999
 30
0.0
 11
623.52816399999995
 21
444.23753699999992
 31
0.0
  0
LINE
  5
F7264
  8
OBJECT
 10
623.52816399999995
 20
444.23753699999992
 30
0.0
 11
623.38624899999979
 21
444.21468199999993
 31
0.0
  0
LINE
  5
F7265
  8
OBJECT
 10
623.38624899999979
 20
444.21468199999993
 30
0.0
 11
623.24844399999995
 21
444.192004
 31
0.0
  0
LINE
  5
F7266
  8
OBJECT
 10
623.24844399999995
 20
444.192004
 30
0.0
 11
623.114329
 21
444.16945899999979
 31
0.0
  0
LINE
  5
F7267
  8
OBJECT
 10
623.114329
 20
444.16945899999979
 30
0.0
 11
622.98348699999985
 21
444.14700699999997
 31
0.0
  0
LINE
  5
F7268
  8
OBJECT
 10
622.98348699999985
 20
444.14700699999997
 30
0.0
 11
622.85549899999978
 21
444.12460399999998
 31
0.0
  0
LINE
  5
F7269
  8
OBJECT
 10
622.85549899999978
 20
444.12460399999998
 30
0.0
 11
622.72994599999981
 21
444.10221100000001
 31
0.0
  0
LINE
  5
F726A
  8
OBJECT
 10
622.72994599999981
 20
444.10221100000001
 30
0.0
 11
622.60641099999998
 21
444.07978300000002
 31
0.0
  0
LINE
  5
F726B
  8
OBJECT
 10
622.60641099999998
 20
444.07978300000002
 30
0.0
 11
622.48447399999986
 21
444.05728099999988
 31
0.0
  0
LINE
  5
F726C
  8
OBJECT
 10
622.48447399999986
 20
444.05728099999988
 30
0.0
 11
622.36371799999995
 21
444.03466100000003
 31
0.0
  0
LINE
  5
F726D
  8
OBJECT
 10
622.36371799999995
 20
444.03466100000003
 30
0.0
 11
622.2437229999997
 21
444.01188200000001
 31
0.0
  0
LINE
  5
F726E
  8
OBJECT
 10
622.2437229999997
 20
444.01188200000001
 30
0.0
 11
622.12407199999996
 21
443.98890299999988
 31
0.0
  0
LINE
  5
F726F
  8
OBJECT
 10
622.12407199999996
 20
443.98890299999988
 30
0.0
 11
622.00434600000006
 21
443.96568099999979
 31
0.0
  0
LINE
  5
F7270
  8
OBJECT
 10
622.00434600000006
 20
443.96568099999979
 30
0.0
 11
621.88412699999981
 21
443.94217500000002
 31
0.0
  0
LINE
  5
F7271
  8
OBJECT
 10
621.88412699999981
 20
443.94217500000002
 30
0.0
 11
621.76299500000005
 21
443.91834199999988
 31
0.0
  0
LINE
  5
F7272
  8
OBJECT
 10
621.76299500000005
 20
443.91834199999988
 30
0.0
 11
621.64053300000012
 21
443.89414199999987
 31
0.0
  0
LINE
  5
F7273
  8
OBJECT
 10
621.64053300000012
 20
443.89414199999987
 30
0.0
 11
621.521976
 21
443.8706449999998
 31
0.0
  0
LINE
  5
F7274
  8
OBJECT
 10
621.521976
 20
443.8706449999998
 30
0.0
 11
621.4019229999999
 21
443.84678999999988
 31
0.0
  0
LINE
  5
F7275
  8
OBJECT
 10
621.4019229999999
 20
443.84678999999988
 30
0.0
 11
621.28047699999979
 21
443.82259199999987
 31
0.0
  0
LINE
  5
F7276
  8
OBJECT
 10
621.28047699999979
 20
443.82259199999987
 30
0.0
 11
621.15773999999965
 21
443.79806699999989
 31
0.0
  0
LINE
  5
F7277
  8
OBJECT
 10
621.15773999999965
 20
443.79806699999989
 30
0.0
 11
621.0338109999999
 21
443.77323000000001
 31
0.0
  0
LINE
  5
F7278
  8
OBJECT
 10
621.0338109999999
 20
443.77323000000001
 30
0.0
 11
620.90879399999994
 21
443.74809699999997
 31
0.0
  0
LINE
  5
F7279
  8
OBJECT
 10
620.90879399999994
 20
443.74809699999997
 30
0.0
 11
620.78278899999987
 21
443.72268299999979
 31
0.0
  0
LINE
  5
F727A
  8
OBJECT
 10
620.78278899999987
 20
443.72268299999979
 30
0.0
 11
620.65589800000021
 21
443.69700399999999
 31
0.0
  0
LINE
  5
F727B
  8
OBJECT
 10
620.65589800000021
 20
443.69700399999999
 30
0.0
 11
620.5282229999998
 21
443.67107600000008
 31
0.0
  0
LINE
  5
F727C
  8
OBJECT
 10
620.5282229999998
 20
443.67107600000008
 30
0.0
 11
620.39986499999986
 21
443.64491399999991
 31
0.0
  0
LINE
  5
F727D
  8
OBJECT
 10
620.39986499999986
 20
443.64491399999991
 30
0.0
 11
620.27092500000015
 21
443.61853400000001
 31
0.0
  0
LINE
  5
F727E
  8
OBJECT
 10
620.27092500000015
 20
443.61853400000001
 30
0.0
 11
620.14150500000005
 21
443.59195099999988
 31
0.0
  0
LINE
  5
F727F
  8
OBJECT
 10
620.14150500000005
 20
443.59195099999988
 30
0.0
 11
620.01170699999955
 21
443.56518099999988
 31
0.0
  0
LINE
  5
F7280
  8
OBJECT
 10
620.01170699999955
 20
443.56518099999988
 30
0.0
 11
619.88163199999985
 21
443.53823999999992
 31
0.0
  0
LINE
  5
F7281
  8
OBJECT
 10
619.88163199999985
 20
443.53823999999992
 30
0.0
 11
619.75138099999981
 21
443.51114399999989
 31
0.0
  0
LINE
  5
F7282
  8
OBJECT
 10
619.75138099999981
 20
443.51114399999989
 30
0.0
 11
619.62105599999995
 21
443.48390699999987
 31
0.0
  0
LINE
  5
F7283
  8
OBJECT
 10
619.62105599999995
 20
443.48390699999987
 30
0.0
 11
619.49075900000014
 21
443.45654500000001
 31
0.0
  0
LINE
  5
F7284
  8
OBJECT
 10
619.49075900000014
 20
443.45654500000001
 30
0.0
 11
619.36058999999966
 21
443.42907499999978
 31
0.0
  0
LINE
  5
F7285
  8
OBJECT
 10
619.36058999999966
 20
443.42907499999978
 30
0.0
 11
619.23065199999985
 21
443.40151100000003
 31
0.0
  0
LINE
  5
F7286
  8
OBJECT
 10
619.23065199999985
 20
443.40151100000003
 30
0.0
 11
619.101046
 21
443.37386899999979
 31
0.0
  0
LINE
  5
F7287
  8
OBJECT
 10
619.101046
 20
443.37386899999979
 30
0.0
 11
618.95302900000013
 21
443.34211199999999
 31
0.0
  0
LINE
  5
F7288
  8
OBJECT
 10
618.95302900000013
 20
443.34211199999999
 30
0.0
 11
618.80554799999982
 21
443.31026499999979
 31
0.0
  0
LINE
  5
F7289
  8
OBJECT
 10
618.80554799999982
 20
443.31026499999979
 30
0.0
 11
618.65857100000005
 21
443.27832000000001
 31
0.0
  0
LINE
  5
F728A
  8
OBJECT
 10
618.65857100000005
 20
443.27832000000001
 30
0.0
 11
618.51206300000013
 21
443.24626899999998
 31
0.0
  0
LINE
  5
F728B
  8
OBJECT
 10
618.51206300000013
 20
443.24626899999998
 30
0.0
 11
618.36599300000012
 21
443.21410399999991
 31
0.0
  0
LINE
  5
F728C
  8
OBJECT
 10
618.36599300000012
 20
443.21410399999991
 30
0.0
 11
618.22032799999965
 21
443.1818159999998
 31
0.0
  0
LINE
  5
F728D
  8
OBJECT
 10
618.22032799999965
 20
443.1818159999998
 30
0.0
 11
618.07503399999985
 21
443.14939799999991
 31
0.0
  0
LINE
  5
F728E
  8
OBJECT
 10
618.07503399999985
 20
443.14939799999991
 30
0.0
 11
617.93007799999975
 21
443.11684099999979
 31
0.0
  0
LINE
  5
F728F
  8
OBJECT
 10
617.93007799999975
 20
443.11684099999979
 30
0.0
 11
617.7854279999998
 21
443.084137
 31
0.0
  0
LINE
  5
F7290
  8
OBJECT
 10
617.7854279999998
 20
443.084137
 30
0.0
 11
617.64104999999995
 21
443.05127799999991
 31
0.0
  0
LINE
  5
F7291
  8
OBJECT
 10
617.64104999999995
 20
443.05127799999991
 30
0.0
 11
617.49691099999995
 21
443.01825600000001
 31
0.0
  0
LINE
  5
F7292
  8
OBJECT
 10
617.49691099999995
 20
443.01825600000001
 30
0.0
 11
617.35298000000012
 21
442.98506300000003
 31
0.0
  0
LINE
  5
F7293
  8
OBJECT
 10
617.35298000000012
 20
442.98506300000003
 30
0.0
 11
617.20922099999996
 21
442.95168899999999
 31
0.0
  0
LINE
  5
F7294
  8
OBJECT
 10
617.20922099999996
 20
442.95168899999999
 30
0.0
 11
617.06560400000012
 21
442.91812899999979
 31
0.0
  0
LINE
  5
F7295
  8
OBJECT
 10
617.06560400000012
 20
442.91812899999979
 30
0.0
 11
616.92209399999967
 21
442.88437199999993
 31
0.0
  0
LINE
  5
F7296
  8
OBJECT
 10
616.92209399999967
 20
442.88437199999993
 30
0.0
 11
616.77865799999995
 21
442.85041100000001
 31
0.0
  0
LINE
  5
F7297
  8
OBJECT
 10
616.77865799999995
 20
442.85041100000001
 30
0.0
 11
616.63526499999989
 21
442.81623799999988
 31
0.0
  0
LINE
  5
F7298
  8
OBJECT
 10
616.63526499999989
 20
442.81623799999988
 30
0.0
 11
616.4918799999997
 21
442.78184499999998
 31
0.0
  0
LINE
  5
F7299
  8
OBJECT
 10
616.4918799999997
 20
442.78184499999998
 30
0.0
 11
616.34847100000013
 21
442.74722299999991
 31
0.0
  0
LINE
  5
F729A
  8
OBJECT
 10
616.34847100000013
 20
442.74722299999991
 30
0.0
 11
616.20500400000014
 21
442.71236399999992
 31
0.0
  0
LINE
  5
F729B
  8
OBJECT
 10
616.20500400000014
 20
442.71236399999992
 30
0.0
 11
616.06280499999968
 21
442.67759399999971
 31
0.0
  0
LINE
  5
F729C
  8
OBJECT
 10
616.06280499999968
 20
442.67759399999971
 30
0.0
 11
615.92052699999999
 21
442.642583
 31
0.0
  0
LINE
  5
F729D
  8
OBJECT
 10
615.92052699999999
 20
442.642583
 30
0.0
 11
615.77817900000014
 21
442.60733199999987
 31
0.0
  0
LINE
  5
F729E
  8
OBJECT
 10
615.77817900000014
 20
442.60733199999987
 30
0.0
 11
615.63577299999986
 21
442.57184299999989
 31
0.0
  0
LINE
  5
F729F
  8
OBJECT
 10
615.63577299999986
 20
442.57184299999989
 30
0.0
 11
615.49331600000028
 21
442.53611399999988
 31
0.0
  0
LINE
  5
F72A0
  8
OBJECT
 10
615.49331600000028
 20
442.53611399999988
 30
0.0
 11
615.35081899999955
 21
442.5001459999998
 31
0.0
  0
LINE
  5
F72A1
  8
OBJECT
 10
615.35081899999955
 20
442.5001459999998
 30
0.0
 11
615.20829100000014
 21
442.46393999999998
 31
0.0
  0
LINE
  5
F72A2
  8
OBJECT
 10
615.20829100000014
 20
442.46393999999998
 30
0.0
 11
615.06574300000011
 21
442.42749599999991
 31
0.0
  0
LINE
  5
F72A3
  8
OBJECT
 10
615.06574300000011
 20
442.42749599999991
 30
0.0
 11
614.92318300000011
 21
442.39081299999998
 31
0.0
  0
LINE
  5
F72A4
  8
OBJECT
 10
614.92318300000011
 20
442.39081299999998
 30
0.0
 11
614.78062200000011
 21
442.35389399999991
 31
0.0
  0
LINE
  5
F72A5
  8
OBJECT
 10
614.78062200000011
 20
442.35389399999991
 30
0.0
 11
614.63806799999998
 21
442.31673699999988
 31
0.0
  0
LINE
  5
F72A6
  8
OBJECT
 10
614.63806799999998
 20
442.31673699999988
 30
0.0
 11
614.49553300000014
 21
442.27934199999987
 31
0.0
  0
LINE
  5
F72A7
  8
OBJECT
 10
614.49553300000014
 20
442.27934199999987
 30
0.0
 11
614.35302500000012
 21
442.24171200000001
 31
0.0
  0
LINE
  5
F72A8
  8
OBJECT
 10
614.35302500000012
 20
442.24171200000001
 30
0.0
 11
614.21055299999955
 21
442.20384399999989
 31
0.0
  0
LINE
  5
F72A9
  8
OBJECT
 10
614.21055299999955
 20
442.20384399999989
 30
0.0
 11
614.06812900000011
 21
442.16574099999991
 31
0.0
  0
LINE
  5
F72AA
  8
OBJECT
 10
614.06812900000011
 20
442.16574099999991
 30
0.0
 11
613.92576100000019
 21
442.12740199999979
 31
0.0
  0
LINE
  5
F72AB
  8
OBJECT
 10
613.92576100000019
 20
442.12740199999979
 30
0.0
 11
613.78345800000011
 21
442.08882699999981
 31
0.0
  0
LINE
  5
F72AC
  8
OBJECT
 10
613.78345800000011
 20
442.08882699999981
 30
0.0
 11
613.64123199999995
 21
442.05001699999991
 31
0.0
  0
LINE
  5
F72AD
  8
OBJECT
 10
613.64123199999995
 20
442.05001699999991
 30
0.0
 11
613.4990899999998
 21
442.01097299999998
 31
0.0
  0
LINE
  5
F72AE
  8
OBJECT
 10
613.4990899999998
 20
442.01097299999998
 30
0.0
 11
613.35704399999986
 21
441.97169299999979
 31
0.0
  0
LINE
  5
F72AF
  8
OBJECT
 10
613.35704399999986
 20
441.97169299999979
 30
0.0
 11
613.2084040000002
 21
441.93030999999991
 31
0.0
  0
LINE
  5
F72B0
  8
OBJECT
 10
613.2084040000002
 20
441.93030999999991
 30
0.0
 11
613.05987500000015
 21
441.88867199999987
 31
0.0
  0
LINE
  5
F72B1
  8
OBJECT
 10
613.05987500000015
 20
441.88867199999987
 30
0.0
 11
612.91145499999971
 21
441.84678499999978
 31
0.0
  0
LINE
  5
F72B2
  8
OBJECT
 10
612.91145499999971
 20
441.84678499999978
 30
0.0
 11
612.76313800000014
 21
441.80464999999992
 31
0.0
  0
LINE
  5
F72B3
  8
OBJECT
 10
612.76313800000014
 20
441.80464999999992
 30
0.0
 11
612.61492299999998
 21
441.76227199999988
 31
0.0
  0
LINE
  5
F72B4
  8
OBJECT
 10
612.61492299999998
 20
441.76227199999988
 30
0.0
 11
612.46680500000014
 21
441.71965299999999
 31
0.0
  0
LINE
  5
F72B5
  8
OBJECT
 10
612.46680500000014
 20
441.71965299999999
 30
0.0
 11
612.31878099999994
 21
441.67679700000008
 31
0.0
  0
LINE
  5
F72B6
  8
OBJECT
 10
612.31878099999994
 20
441.67679700000008
 30
0.0
 11
612.17084700000021
 21
441.63370699999979
 31
0.0
  0
LINE
  5
F72B7
  8
OBJECT
 10
612.17084700000021
 20
441.63370699999979
 30
0.0
 11
612.02300099999979
 21
441.59038700000002
 31
0.0
  0
LINE
  5
F72B8
  8
OBJECT
 10
612.02300099999979
 20
441.59038700000002
 30
0.0
 11
611.87523799999997
 21
441.54683999999992
 31
0.0
  0
LINE
  5
F72B9
  8
OBJECT
 10
611.87523799999997
 20
441.54683999999992
 30
0.0
 11
611.72755600000016
 21
441.50306899999998
 31
0.0
  0
LINE
  5
F72BA
  8
OBJECT
 10
611.72755600000016
 20
441.50306899999998
 30
0.0
 11
611.57995000000005
 21
441.45907799999998
 31
0.0
  0
LINE
  5
F72BB
  8
OBJECT
 10
611.57995000000005
 20
441.45907799999998
 30
0.0
 11
611.4324180000001
 21
441.41486899999973
 31
0.0
  0
LINE
  5
F72BC
  8
OBJECT
 10
611.4324180000001
 20
441.41486899999973
 30
0.0
 11
611.28495499999985
 21
441.37044599999979
 31
0.0
  0
LINE
  5
F72BD
  8
OBJECT
 10
611.28495499999985
 20
441.37044599999979
 30
0.0
 11
611.13755900000012
 21
441.3258130000001
 31
0.0
  0
LINE
  5
F72BE
  8
OBJECT
 10
611.13755900000012
 20
441.3258130000001
 30
0.0
 11
610.99022600000012
 21
441.28097299999979
 31
0.0
  0
LINE
  5
F72BF
  8
OBJECT
 10
610.99022600000012
 20
441.28097299999979
 30
0.0
 11
610.84295300000019
 21
441.235929
 31
0.0
  0
LINE
  5
F72C0
  8
OBJECT
 10
610.84295300000019
 20
441.235929
 30
0.0
 11
610.69573499999979
 21
441.19068399999992
 31
0.0
  0
LINE
  5
F72C1
  8
OBJECT
 10
610.69573499999979
 20
441.19068399999992
 30
0.0
 11
610.54857100000015
 21
441.14524199999988
 31
0.0
  0
LINE
  5
F72C2
  8
OBJECT
 10
610.54857100000015
 20
441.14524199999988
 30
0.0
 11
610.40145500000006
 21
441.09960599999999
 31
0.0
  0
LINE
  5
F72C3
  8
OBJECT
 10
610.40145500000006
 20
441.09960599999999
 30
0.0
 11
610.25898099999995
 21
441.05521399999998
 31
0.0
  0
LINE
  5
F72C4
  8
OBJECT
 10
610.25898099999995
 20
441.05521399999998
 30
0.0
 11
610.11654999999985
 21
441.01064599999989
 31
0.0
  0
LINE
  5
F72C5
  8
OBJECT
 10
610.11654999999985
 20
441.01064599999989
 30
0.0
 11
609.9741640000002
 21
440.96590500000002
 31
0.0
  0
LINE
  5
F72C6
  8
OBJECT
 10
609.9741640000002
 20
440.96590500000002
 30
0.0
 11
609.83182199999999
 21
440.92099300000001
 31
0.0
  0
LINE
  5
F72C7
  8
OBJECT
 10
609.83182199999999
 20
440.92099300000001
 30
0.0
 11
609.68952600000011
 21
440.87591300000003
 31
0.0
  0
LINE
  5
F72C8
  8
OBJECT
 10
609.68952600000011
 20
440.87591300000003
 30
0.0
 11
609.54727500000013
 21
440.83066799999989
 31
0.0
  0
LINE
  5
F72C9
  8
OBJECT
 10
609.54727500000013
 20
440.83066799999989
 30
0.0
 11
609.40507000000014
 21
440.78526099999988
 31
0.0
  0
LINE
  5
F72CA
  8
OBJECT
 10
609.40507000000014
 20
440.78526099999988
 30
0.0
 11
609.26291300000014
 21
440.73969399999987
 31
0.0
  0
LINE
  5
F72CB
  8
OBJECT
 10
609.26291300000014
 20
440.73969399999987
 30
0.0
 11
609.1208019999998
 21
440.69397099999992
 31
0.0
  0
LINE
  5
F72CC
  8
OBJECT
 10
609.1208019999998
 20
440.69397099999992
 30
0.0
 11
608.97873999999968
 21
440.64809399999979
 31
0.0
  0
LINE
  5
F72CD
  8
OBJECT
 10
608.97873999999968
 20
440.64809399999979
 30
0.0
 11
608.83672699999988
 21
440.60206499999998
 31
0.0
  0
LINE
  5
F72CE
  8
OBJECT
 10
608.83672699999988
 20
440.60206499999998
 30
0.0
 11
608.69476199999997
 21
440.5558880000001
 31
0.0
  0
LINE
  5
F72CF
  8
OBJECT
 10
608.69476199999997
 20
440.5558880000001
 30
0.0
 11
608.55284699999982
 21
440.50956599999989
 31
0.0
  0
LINE
  5
F72D0
  8
OBJECT
 10
608.55284699999982
 20
440.50956599999989
 30
0.0
 11
608.41098299999999
 21
440.4631
 31
0.0
  0
LINE
  5
F72D1
  8
OBJECT
 10
608.41098299999999
 20
440.4631
 30
0.0
 11
608.26916899999981
 21
440.416495
 31
0.0
  0
LINE
  5
F72D2
  8
OBJECT
 10
608.26916899999981
 20
440.416495
 30
0.0
 11
608.12740699999995
 21
440.36975200000001
 31
0.0
  0
LINE
  5
F72D3
  8
OBJECT
 10
608.12740699999995
 20
440.36975200000001
 30
0.0
 11
607.98569699999985
 21
440.32287499999973
 31
0.0
  0
LINE
  5
F72D4
  8
OBJECT
 10
607.98569699999985
 20
440.32287499999973
 30
0.0
 11
607.84403899999995
 21
440.27586599999989
 31
0.0
  0
LINE
  5
F72D5
  8
OBJECT
 10
607.84403899999995
 20
440.27586599999989
 30
0.0
 11
607.70243499999981
 21
440.22872799999999
 31
0.0
  0
LINE
  5
F72D6
  8
OBJECT
 10
607.70243499999981
 20
440.22872799999999
 30
0.0
 11
607.56088399999999
 21
440.18146400000001
 31
0.0
  0
LINE
  5
F72D7
  8
OBJECT
 10
607.56088399999999
 20
440.18146400000001
 30
0.0
 11
607.42707600000006
 21
440.13665399999979
 31
0.0
  0
LINE
  5
F72D8
  8
OBJECT
 10
607.42707600000006
 20
440.13665399999979
 30
0.0
 11
607.29331400000012
 21
440.09173600000003
 31
0.0
  0
LINE
  5
F72D9
  8
OBJECT
 10
607.29331400000012
 20
440.09173600000003
 30
0.0
 11
607.15959599999985
 21
440.04670900000002
 31
0.0
  0
LINE
  5
F72DA
  8
OBJECT
 10
607.15959599999985
 20
440.04670900000002
 30
0.0
 11
607.02591899999982
 21
440.00157399999989
 31
0.0
  0
LINE
  5
F72DB
  8
OBJECT
 10
607.02591899999982
 20
440.00157399999989
 30
0.0
 11
606.89227900000014
 21
439.95633299999992
 31
0.0
  0
LINE
  5
F72DC
  8
OBJECT
 10
606.89227900000014
 20
439.95633299999992
 30
0.0
 11
606.75867599999981
 21
439.91098599999998
 31
0.0
  0
LINE
  5
F72DD
  8
OBJECT
 10
606.75867599999981
 20
439.91098599999998
 30
0.0
 11
606.62510599999985
 21
439.86553499999991
 31
0.0
  0
LINE
  5
F72DE
  8
OBJECT
 10
606.62510599999985
 20
439.86553499999991
 30
0.0
 11
606.49156700000015
 21
439.81997899999988
 31
0.0
  0
LINE
  5
F72DF
  8
OBJECT
 10
606.49156700000015
 20
439.81997899999988
 30
0.0
 11
606.3580569999998
 21
439.77432099999987
 31
0.0
  0
LINE
  5
F72E0
  8
OBJECT
 10
606.3580569999998
 20
439.77432099999987
 30
0.0
 11
606.22457199999985
 21
439.72856099999979
 31
0.0
  0
LINE
  5
F72E1
  8
OBJECT
 10
606.22457199999985
 20
439.72856099999979
 30
0.0
 11
606.09110999999984
 21
439.68270000000001
 31
0.0
  0
LINE
  5
F72E2
  8
OBJECT
 10
606.09110999999984
 20
439.68270000000001
 30
0.0
 11
605.95766899999978
 21
439.63673899999992
 31
0.0
  0
LINE
  5
F72E3
  8
OBJECT
 10
605.95766899999978
 20
439.63673899999992
 30
0.0
 11
605.82424600000013
 21
439.59067800000003
 31
0.0
  0
LINE
  5
F72E4
  8
OBJECT
 10
605.82424600000013
 20
439.59067800000003
 30
0.0
 11
605.69083899999998
 21
439.54451999999998
 31
0.0
  0
LINE
  5
F72E5
  8
OBJECT
 10
605.69083899999998
 20
439.54451999999998
 30
0.0
 11
605.55744500000014
 21
439.49826499999972
 31
0.0
  0
LINE
  5
F72E6
  8
OBJECT
 10
605.55744500000014
 20
439.49826499999972
 30
0.0
 11
605.42406100000005
 21
439.45191299999988
 31
0.0
  0
LINE
  5
F72E7
  8
OBJECT
 10
605.42406100000005
 20
439.45191299999988
 30
0.0
 11
605.29068600000005
 21
439.40546599999999
 31
0.0
  0
LINE
  5
F72E8
  8
OBJECT
 10
605.29068600000005
 20
439.40546599999999
 30
0.0
 11
605.15731600000015
 21
439.35892499999989
 31
0.0
  0
LINE
  5
F72E9
  8
OBJECT
 10
605.15731600000015
 20
439.35892499999989
 30
0.0
 11
605.0239489999999
 21
439.31228999999979
 31
0.0
  0
LINE
  5
F72EA
  8
OBJECT
 10
605.0239489999999
 20
439.31228999999979
 30
0.0
 11
604.89058300000011
 21
439.26556299999999
 31
0.0
  0
LINE
  5
F72EB
  8
OBJECT
 10
604.89058300000011
 20
439.26556299999999
 30
0.0
 11
604.73521600000015
 21
439.21100999999999
 31
0.0
  0
LINE
  5
F72EC
  8
OBJECT
 10
604.73521600000015
 20
439.21100999999999
 30
0.0
 11
604.57986000000005
 21
439.15632199999999
 31
0.0
  0
LINE
  5
F72ED
  8
OBJECT
 10
604.57986000000005
 20
439.15632199999999
 30
0.0
 11
604.42453
 21
439.10149000000001
 31
0.0
  0
LINE
  5
F72EE
  8
OBJECT
 10
604.42453
 20
439.10149000000001
 30
0.0
 11
604.26923899999997
 21
439.04650399999991
 31
0.0
  0
LINE
  5
F72EF
  8
OBJECT
 10
604.26923899999997
 20
439.04650399999991
 30
0.0
 11
604.1140019999998
 21
438.99135199999989
 31
0.0
  0
LINE
  5
F72F0
  8
OBJECT
 10
604.1140019999998
 20
438.99135199999989
 30
0.0
 11
603.95883300000014
 21
438.93602499999997
 31
0.0
  0
LINE
  5
F72F1
  8
OBJECT
 10
603.95883300000014
 20
438.93602499999997
 30
0.0
 11
603.80374500000005
 21
438.88051300000001
 31
0.0
  0
LINE
  5
F72F2
  8
OBJECT
 10
603.80374500000005
 20
438.88051300000001
 30
0.0
 11
603.64875300000006
 21
438.82480599999991
 31
0.0
  0
LINE
  5
F72F3
  8
OBJECT
 10
603.64875300000006
 20
438.82480599999991
 30
0.0
 11
603.49387100000013
 21
438.76889199999999
 31
0.0
  0
LINE
  5
F72F4
  8
OBJECT
 10
603.49387100000013
 20
438.76889199999999
 30
0.0
 11
603.339112
 21
438.712763
 31
0.0
  0
LINE
  5
F72F5
  8
OBJECT
 10
603.339112
 20
438.712763
 30
0.0
 11
603.18449199999998
 21
438.656408
 31
0.0
  0
LINE
  5
F72F6
  8
OBJECT
 10
603.18449199999998
 20
438.656408
 30
0.0
 11
603.0300239999998
 21
438.59981699999992
 31
0.0
  0
LINE
  5
F72F7
  8
OBJECT
 10
603.0300239999998
 20
438.59981699999992
 30
0.0
 11
602.875722
 21
438.54297999999989
 31
0.0
  0
LINE
  5
F72F8
  8
OBJECT
 10
602.875722
 20
438.54297999999989
 30
0.0
 11
602.72160099999996
 21
438.48588499999988
 31
0.0
  0
LINE
  5
F72F9
  8
OBJECT
 10
602.72160099999996
 20
438.48588499999988
 30
0.0
 11
602.56767299999979
 21
438.42852399999992
 31
0.0
  0
LINE
  5
F72FA
  8
OBJECT
 10
602.56767299999979
 20
438.42852399999992
 30
0.0
 11
602.41395399999999
 21
438.37088599999993
 31
0.0
  0
LINE
  5
F72FB
  8
OBJECT
 10
602.41395399999999
 20
438.37088599999993
 30
0.0
 11
602.26045799999974
 21
438.31296200000003
 31
0.0
  0
LINE
  5
F72FC
  8
OBJECT
 10
602.26045799999974
 20
438.31296200000003
 30
0.0
 11
602.10719799999981
 21
438.25473899999997
 31
0.0
  0
LINE
  5
F72FD
  8
OBJECT
 10
602.10719799999981
 20
438.25473899999997
 30
0.0
 11
601.95418899999981
 21
438.19620999999989
 31
0.0
  0
LINE
  5
F72FE
  8
OBJECT
 10
601.95418899999981
 20
438.19620999999989
 30
0.0
 11
601.80144399999995
 21
438.13736199999988
 31
0.0
  0
LINE
  5
F72FF
  8
OBJECT
 10
601.80144399999995
 20
438.13736199999988
 30
0.0
 11
601.66869299999985
 21
438.08586499999979
 31
0.0
  0
LINE
  5
F7300
  8
OBJECT
 10
601.66869299999985
 20
438.08586499999979
 30
0.0
 11
601.53612799999985
 21
438.03410999999988
 31
0.0
  0
LINE
  5
F7301
  8
OBJECT
 10
601.53612799999985
 20
438.03410999999988
 30
0.0
 11
601.40372600000001
 21
437.98208699999992
 31
0.0
  0
LINE
  5
F7302
  8
OBJECT
 10
601.40372600000001
 20
437.98208699999992
 30
0.0
 11
601.2714629999997
 21
437.92978599999998
 31
0.0
  0
LINE
  5
F7303
  8
OBJECT
 10
601.2714629999997
 20
437.92978599999998
 30
0.0
 11
601.13931300000013
 21
437.87719799999979
 31
0.0
  0
LINE
  5
F7304
  8
OBJECT
 10
601.13931300000013
 20
437.87719799999979
 30
0.0
 11
601.00725200000011
 21
437.82431199999991
 31
0.0
  0
LINE
  5
F7305
  8
OBJECT
 10
601.00725200000011
 20
437.82431199999991
 30
0.0
 11
600.87525599999969
 21
437.77111899999989
 31
0.0
  0
LINE
  5
F7306
  8
OBJECT
 10
600.87525599999969
 20
437.77111899999989
 30
0.0
 11
600.74330099999986
 21
437.71760899999981
 31
0.0
  0
LINE
  5
F7307
  8
OBJECT
 10
600.74330099999986
 20
437.71760899999981
 30
0.0
 11
600.61136199999987
 21
437.66377299999988
 31
0.0
  0
LINE
  5
F7308
  8
OBJECT
 10
600.61136199999987
 20
437.66377299999988
 30
0.0
 11
600.47941399999968
 21
437.6096
 31
0.0
  0
LINE
  5
F7309
  8
OBJECT
 10
600.47941399999968
 20
437.6096
 30
0.0
 11
600.34743400000002
 21
437.55507999999998
 31
0.0
  0
LINE
  5
F730A
  8
OBJECT
 10
600.34743400000002
 20
437.55507999999998
 30
0.0
 11
600.21539799999982
 21
437.50020499999988
 31
0.0
  0
LINE
  5
F730B
  8
OBJECT
 10
600.21539799999982
 20
437.50020499999988
 30
0.0
 11
600.08327899999995
 21
437.44496299999997
 31
0.0
  0
LINE
  5
F730C
  8
OBJECT
 10
600.08327899999995
 20
437.44496299999997
 30
0.0
 11
599.951055
 21
437.38934699999987
 31
0.0
  0
LINE
  5
F730D
  8
OBJECT
 10
599.951055
 20
437.38934699999987
 30
0.0
 11
599.81870100000015
 21
437.33334399999978
 31
0.0
  0
LINE
  5
F730E
  8
OBJECT
 10
599.81870100000015
 20
437.33334399999978
 30
0.0
 11
599.68619200000012
 21
437.27694700000001
 31
0.0
  0
LINE
  5
F730F
  8
OBJECT
 10
599.68619200000012
 20
437.27694700000001
 30
0.0
 11
599.55350399999998
 21
437.22014399999989
 31
0.0
  0
LINE
  5
F7310
  8
OBJECT
 10
599.55350399999998
 20
437.22014399999989
 30
0.0
 11
599.420613
 21
437.1629269999998
 31
0.0
  0
LINE
  5
F7311
  8
OBJECT
 10
599.420613
 20
437.1629269999998
 30
0.0
 11
599.28749399999981
 21
437.10528499999981
 31
0.0
  0
LINE
  5
F7312
  8
OBJECT
 10
599.28749399999981
 20
437.10528499999981
 30
0.0
 11
599.1541219999998
 21
437.04720899999978
 31
0.0
  0
LINE
  5
F7313
  8
OBJECT
 10
599.1541219999998
 20
437.04720899999978
 30
0.0
 11
599.0182920000002
 21
436.98773199999988
 31
0.0
  0
LINE
  5
F7314
  8
OBJECT
 10
599.0182920000002
 20
436.98773199999988
 30
0.0
 11
598.88226699999984
 21
436.92784999999998
 31
0.0
  0
LINE
  5
F7315
  8
OBJECT
 10
598.88226699999984
 20
436.92784999999998
 30
0.0
 11
598.74613999999985
 21
436.86761699999988
 31
0.0
  0
LINE
  5
F7316
  8
OBJECT
 10
598.74613999999985
 20
436.86761699999988
 30
0.0
 11
598.61000299999955
 21
436.80708699999991
 31
0.0
  0
LINE
  5
F7317
  8
OBJECT
 10
598.61000299999955
 20
436.80708699999991
 30
0.0
 11
598.47394699999995
 21
436.74631299999987
 31
0.0
  0
LINE
  5
F7318
  8
OBJECT
 10
598.47394699999995
 20
436.74631299999987
 30
0.0
 11
598.3380639999998
 21
436.68534899999992
 31
0.0
  0
LINE
  5
F7319
  8
OBJECT
 10
598.3380639999998
 20
436.68534899999992
 30
0.0
 11
598.20244599999978
 21
436.62424900000002
 31
0.0
  0
LINE
  5
F731A
  8
OBJECT
 10
598.20244599999978
 20
436.62424900000002
 30
0.0
 11
598.06718499999999
 21
436.56306699999988
 31
0.0
  0
LINE
  5
F731B
  8
OBJECT
 10
598.06718499999999
 20
436.56306699999988
 30
0.0
 11
597.93237199999999
 21
436.50185699999997
 31
0.0
  0
LINE
  5
F731C
  8
OBJECT
 10
597.93237199999999
 20
436.50185699999997
 30
0.0
 11
597.79809899999975
 21
436.44067199999989
 31
0.0
  0
LINE
  5
F731D
  8
OBJECT
 10
597.79809899999975
 20
436.44067199999989
 30
0.0
 11
597.66445799999985
 21
436.37956600000001
 31
0.0
  0
LINE
  5
F731E
  8
OBJECT
 10
597.66445799999985
 20
436.37956600000001
 30
0.0
 11
597.53153999999995
 21
436.31859299999991
 31
0.0
  0
LINE
  5
F731F
  8
OBJECT
 10
597.53153999999995
 20
436.31859299999991
 30
0.0
 11
597.39943800000015
 21
436.25780700000001
 31
0.0
  0
LINE
  5
F7320
  8
OBJECT
 10
597.39943800000015
 20
436.25780700000001
 30
0.0
 11
597.26824399999975
 21
436.19726199999991
 31
0.0
  0
LINE
  5
F7321
  8
OBJECT
 10
597.26824399999975
 20
436.19726199999991
 30
0.0
 11
597.13804800000014
 21
436.13701099999997
 31
0.0
  0
LINE
  5
F7322
  8
OBJECT
 10
597.13804800000014
 20
436.13701099999997
 30
0.0
 11
597.00894299999982
 21
436.07710900000001
 31
0.0
  0
LINE
  5
F7323
  8
OBJECT
 10
597.00894299999982
 20
436.07710900000001
 30
0.0
 11
596.88102000000015
 21
436.01760899999999
 31
0.0
  0
LINE
  5
F7324
  8
OBJECT
 10
596.88102000000015
 20
436.01760899999999
 30
0.0
 11
596.75437100000011
 21
435.9585639999998
 31
0.0
  0
LINE
  5
F7325
  8
OBJECT
 10
596.75437100000011
 20
435.9585639999998
 30
0.0
 11
596.62908899999979
 21
435.90002899999979
 31
0.0
  0
LINE
  5
F7326
  8
OBJECT
 10
596.62908899999979
 20
435.90002899999979
 30
0.0
 11
596.50526399999967
 21
435.84205799999989
 31
0.0
  0
LINE
  5
F7327
  8
OBJECT
 10
596.50526399999967
 20
435.84205799999989
 30
0.0
 11
596.3784290000001
 21
435.78255999999988
 31
0.0
  0
LINE
  5
F7328
  8
OBJECT
 10
596.3784290000001
 20
435.78255999999988
 30
0.0
 11
596.25288499999988
 21
435.72354199999978
 31
0.0
  0
LINE
  5
F7329
  8
OBJECT
 10
596.25288499999988
 20
435.72354199999978
 30
0.0
 11
596.12825599999985
 21
435.66482000000008
 31
0.0
  0
LINE
  5
F732A
  8
OBJECT
 10
596.12825599999985
 20
435.66482000000008
 30
0.0
 11
596.00416800000005
 21
435.60620899999998
 31
0.0
  0
LINE
  5
F732B
  8
OBJECT
 10
596.00416800000005
 20
435.60620899999998
 30
0.0
 11
595.88024599999983
 21
435.547528
 31
0.0
  0
LINE
  5
F732C
  8
OBJECT
 10
595.88024599999983
 20
435.547528
 30
0.0
 11
595.7561139999998
 21
435.48858999999999
 31
0.0
  0
LINE
  5
F732D
  8
OBJECT
 10
595.7561139999998
 20
435.48858999999999
 30
0.0
 11
595.63139699999999
 21
435.429213
 31
0.0
  0
LINE
  5
F732E
  8
OBJECT
 10
595.63139699999999
 20
435.429213
 30
0.0
 11
595.50572000000011
 21
435.36921299999989
 31
0.0
  0
LINE
  5
F732F
  8
OBJECT
 10
595.50572000000011
 20
435.36921299999989
 30
0.0
 11
595.37870899999984
 21
435.30840499999988
 31
0.0
  0
LINE
  5
F7330
  8
OBJECT
 10
595.37870899999984
 20
435.30840499999988
 30
0.0
 11
595.24998700000015
 21
435.24660699999998
 31
0.0
  0
LINE
  5
F7331
  8
OBJECT
 10
595.24998700000015
 20
435.24660699999998
 30
0.0
 11
595.1191799999998
 21
435.18363299999999
 31
0.0
  0
LINE
  5
F7332
  8
OBJECT
 10
595.1191799999998
 20
435.18363299999999
 30
0.0
 11
594.98591299999998
 21
435.11929999999978
 31
0.0
  0
LINE
  5
F7333
  8
OBJECT
 10
594.98591299999998
 20
435.11929999999978
 30
0.0
 11
594.84981099999982
 21
435.05342499999989
 31
0.0
  0
LINE
  5
F7334
  8
OBJECT
 10
594.84981099999982
 20
435.05342499999989
 30
0.0
 11
594.71049800000014
 21
434.98582399999992
 31
0.0
  0
LINE
  5
F7335
  8
OBJECT
 10
594.71049800000014
 20
434.98582399999992
 30
0.0
 11
594.56759899999975
 21
434.91631100000001
 31
0.0
  0
LINE
  5
F7336
  8
OBJECT
 10
594.56759899999975
 20
434.91631100000001
 30
0.0
 11
594.4207399999998
 21
434.84470499999981
 31
0.0
  0
LINE
  5
F7337
  8
OBJECT
 10
594.4207399999998
 20
434.84470499999981
 30
0.0
 11
594.26954500000011
 21
434.77082000000001
 31
0.0
  0
LINE
  5
F7338
  8
OBJECT
 10
594.26954500000011
 20
434.77082000000001
 30
0.0
 11
594.11363900000015
 21
434.69447299999979
 31
0.0
  0
LINE
  5
F7339
  8
OBJECT
 10
594.11363900000015
 20
434.69447299999979
 30
0.0
 11
593.95264699999996
 21
434.61548099999987
 31
0.0
  0
LINE
  5
F733A
  8
OBJECT
 10
593.95264699999996
 20
434.61548099999987
 30
0.0
 11
593.78619399999968
 21
434.533658
 31
0.0
  0
LINE
  5
F733B
  8
OBJECT
 10
593.78619399999968
 20
434.533658
 30
0.0
 11
593.58867499999985
 21
434.43638999999979
 31
0.0
  0
LINE
  5
F733C
  8
OBJECT
 10
593.58867499999985
 20
434.43638999999979
 30
0.0
 11
593.38523199999975
 21
434.33603899999991
 31
0.0
  0
LINE
  5
F733D
  8
OBJECT
 10
593.38523199999975
 20
434.33603899999991
 30
0.0
 11
593.17759899999965
 21
434.23347799999988
 31
0.0
  0
LINE
  5
F733E
  8
OBJECT
 10
593.17759899999965
 20
434.23347799999988
 30
0.0
 11
592.96751300000005
 21
434.12957899999998
 31
0.0
  0
LINE
  5
F733F
  8
OBJECT
 10
592.96751300000005
 20
434.12957899999998
 30
0.0
 11
592.75671
 21
434.02521499999989
 31
0.0
  0
LINE
  5
F7340
  8
OBJECT
 10
592.75671
 20
434.02521499999989
 30
0.0
 11
592.54692699999987
 21
433.92125900000002
 31
0.0
  0
LINE
  5
F7341
  8
OBJECT
 10
592.54692699999987
 20
433.92125900000002
 30
0.0
 11
592.33989799999995
 21
433.81858399999999
 31
0.0
  0
LINE
  5
F7342
  8
OBJECT
 10
592.33989799999995
 20
433.81858399999999
 30
0.0
 11
592.13735999999994
 21
433.7180619999998
 31
0.0
  0
LINE
  5
F7343
  8
OBJECT
 10
592.13735999999994
 20
433.7180619999998
 30
0.0
 11
591.94104899999957
 21
433.62056699999999
 31
0.0
  0
LINE
  5
F7344
  8
OBJECT
 10
591.94104899999957
 20
433.62056699999999
 30
0.0
 11
591.75270199999966
 21
433.52697000000001
 31
0.0
  0
LINE
  5
F7345
  8
OBJECT
 10
591.75270199999966
 20
433.52697000000001
 30
0.0
 11
591.57405300000005
 21
433.43814599999979
 31
0.0
  0
LINE
  5
F7346
  8
OBJECT
 10
591.57405300000005
 20
433.43814599999979
 30
0.0
 11
591.40683799999977
 21
433.35496599999999
 31
0.0
  0
LINE
  5
F7347
  8
OBJECT
 10
591.40683799999977
 20
433.35496599999999
 30
0.0
 11
591.25279500000011
 21
433.27830299999988
 31
0.0
  0
LINE
  5
F7348
  8
OBJECT
 10
591.25279500000011
 20
433.27830299999988
 30
0.0
 11
591.11365899999987
 21
433.20902999999993
 31
0.0
  0
LINE
  5
F7349
  8
OBJECT
 10
591.11365899999987
 20
433.20902999999993
 30
0.0
 11
590.99116499999968
 21
433.14801999999992
 31
0.0
  0
LINE
  5
F734A
  8
OBJECT
 10
590.99116499999968
 20
433.14801999999992
 30
0.0
 11
590.88705000000004
 21
433.09614599999998
 31
0.0
  0
LINE
  5
F734B
  8
OBJECT
 10
590.88705000000004
 20
433.09614599999998
 30
0.0
 11
590.8030500000001
 21
433.05427999999989
 31
0.0
  0
LINE
  5
F734C
  8
OBJECT
 10
590.8030500000001
 20
433.05427999999989
 30
0.0
 11
590.74090000000012
 21
433.02329600000002
 31
0.0
  0
LINE
  5
F734D
  8
OBJECT
 10
590.74090000000012
 20
433.02329600000002
 30
0.0
 11
590.70233800000005
 21
433.00406499999991
 31
0.0
  0
LINE
  5
F734E
  8
OBJECT
 10
590.70233800000005
 20
433.00406499999991
 30
0.0
 11
590.68909799999994
 21
432.99745999999988
 31
0.0
  0
LINE
  5
F734F
  8
HIDDEN
 10
627.61550499999987
 20
372.49745999999999
 30
0.0
 11
577.61550499999976
 21
372.49745999999999
 31
0.0
  0
LINE
  5
F7350
  8
HIDDEN
 10
507.6155050000001
 20
372.49745999999999
 30
0.0
 11
457.61550499999993
 21
372.49745999999999
 31
0.0
  0
LINE
  5
F7351
  8
HIDDEN
 10
452.61550499999981
 20
437.49745999999988
 30
0.0
 11
452.61550499999981
 21
517.49745999999959
 31
0.0
  0
ARC
  5
F7364
  8
HIDDEN
 10
436.61550499999993
 20
497.09975599999979
 30
0.0
 40
8.0
 50
180.0
 51
287.01864700000459
  0
ARC
  5
F7365
  8
HIDDEN
 10
436.61550499999993
 20
457.89516499999991
 30
0.0
 40
8.0
 50
72.981352999995352
 51
180.0
  0
ARC
  5
F7366
  8
HIDDEN
 10
436.61550499999993
 20
460.52689799999979
 30
0.0
 40
8.0
 50
70.528779000004619
 51
180.0
  0
ARC
  5
F7367
  8
HIDDEN
 10
436.61550499999993
 20
494.46802299999968
 30
0.0
 40
8.0
 50
180.0
 51
289.47122099999541
  0
LINE
  5
F737A
  8
HIDDEN
 10
442.76602599999973
 20
439.99745999999999
 30
0.0
 11
469.98411299999998
 21
439.99745999999999
 31
0.0
  0
LINE
  5
F737B
  8
HIDDEN
 10
435.76602599999978
 20
521.99745999999982
 30
0.0
 11
442.76602599999973
 21
514.99746000000005
 31
0.0
  0
LINE
  5
F737C
  8
HIDDEN
 10
442.76602599999973
 20
514.99746000000005
 30
0.0
 11
510.09972900000008
 21
514.99746000000005
 31
0.0
  0
LINE
  5
F737D
  8
HIDDEN
 10
435.76602599999978
 20
432.99745999999988
 30
0.0
 11
442.76602599999973
 21
439.99745999999999
 31
0.0
  0
ARC
  5
F737E
  8
HIDDEN
 10
510.09972900000008
 20
512.99745999999971
 30
0.0
 40
2.0
 50
335.00000000000063
 51
90.0
  0
LINE
  5
F737F
  8
HIDDEN
 10
481.76611399999979
 20
447.503423
 30
0.0
 11
511.91234500000002
 21
512.15222399999982
 31
0.0
  0
ARC
  5
F7380
  8
HIDDEN
 10
469.98411299999998
 20
452.99745999999999
 30
0.0
 40
13.0
 50
270.0
 51
335.00000000000063
  0
VIEWPORT
  5
F73BC
 67
     1
  8
0
 10
145.33033752441401
 20
101.8328354358673
 30
0.0
 40
367.80377475439542
 41
222.19657968139651
 68
     1
 69
     1
1001
ACAD
1000
MVIEW
1002
{
1070
    16
1010
0.0
1020
0.0
1030
0.0
1010
0.0
1020
0.0
1030
1.0
1040
0.0
1040
222.19657968139651
1040
145.33033752441401
1040
101.8328354358673
1040
50.0
1040
0.0
1040
0.0
1070
     0
1070
     0
1070
     1
1070
     1
1070
     0
1070
     0
1070
     0
1070
     0
1040
0.0
1040
0.0
1040
0.0
1040
10.0
1040
10.0
1040
10.0
1040
10.0
1070
     0
1002
{
1002
}
1002
}
  0
VIEWPORT
  5
F73C0
 67
     1
  8
OBJECT
 10
145.3303314447403
 20
101.8328338861465
 30
0.0
 40
232.5285303115844
 41
162.93253421783439
 68
     2
 69
     2
1001
ACAD
1000
MVIEW
1002
{
1070
    16
1010
0.0
1020
0.0
1030
0.0
1010
0.0
1020
0.0
1030
1.0
1040
0.0
1040
1284.666065365079
1040
491.64641750000072
1040
136.79040154761921
1040
50.0
1040
0.0
1040
0.0
1070
     0
1070
   600
1070
     1
1070
     1
1070
     0
1070
     0
1070
     0
1070
     0
1040
0.0
1040
0.0
1040
0.0
1040
1.0
1040
1.0
1040
0.0
1040
0.0
1070
     0
1002
{
1002
}
1002
}
  0
ENDSEC
  0
EOF
