  0
SECTION
  2
HEADER
  9
$ACADVER
  1
AC1009
  9
$INSBASE
 10
0.0
 20
0.0
 30
0.0
  9
$EXTMIN
 10
-891.17437099999995
 20
-498.70930099999981
 30
0.0
  9
$EXTMAX
 10
235.79569099999981
 20
552.49746000000005
 30
0.0
  9
$LIMMIN
 10
0.0
 20
0.0
  9
$LIMMAX
 10
210.0
 20
297.0
  9
$ORTHOMODE
 70
     0
  9
$REGENMODE
 70
     1
  9
$FILLMODE
 70
     1
  9
$QTEXTMODE
 70
     0
  9
$MIRRTEXT
 70
     0
  9
$DRAGMODE
 70
     2
  9
$LTSCALE
 40
1.0
  9
$OSMODE
 70
   125
  9
$ATTMODE
 70
     1
  9
$TEXTSIZE
 40
4.0
  9
$TRACEWID
 40
0.05
  9
$TEXTSTYLE
  7
STANDARD
  9
$CLAYER
  8
OBJECT
  9
$CELTYPE
  6
BYLAYER
  9
$CECOLOR
 62
   256
  9
$DIMSCALE
 40
10.0
  9
$DIMASZ
 40
2.0
  9
$DIMEXO
 40
1.0
  9
$DIMDLI
 40
10.0
  9
$DIMRND
 40
0.0
  9
$DIMDLE
 40
0.0
  9
$DIMEXE
 40
1.0
  9
$DIMTP
 40
0.0
  9
$DIMTM
 40
0.0
  9
$DIMTXT
 40
3.2000000000000002
  9
$DIMCEN
 40
0.0
  9
$DIMTSZ
 40
0.0
  9
$DIMTOL
 70
     0
  9
$DIMLIM
 70
     0
  9
$DIMTIH
 70
     0
  9
$DIMTOH
 70
     0
  9
$DIMSE1
 70
     0
  9
$DIMSE2
 70
     0
  9
$DIMTAD
 70
     1
  9
$DIMZIN
 70
     8
  9
$DIMBLK
  1
OPEN30
  9
$DIMASO
 70
     1
  9
$DIMSHO
 70
     1
  9
$DIMPOST
  1

  9
$DIMAPOST
  1

  9
$DIMALT
 70
     0
  9
$DIMALTD
 70
     2
  9
$DIMALTF
 40
25.399999999999999
  9
$DIMLFAC
 40
1.0
  9
$DIMTOFL
 70
     1
  9
$DIMTVP
 40
0.0
  9
$DIMTIX
 70
     0
  9
$DIMSOXD
 70
     0
  9
$DIMSAH
 70
     0
  9
$DIMBLK1
  1

  9
$DIMBLK2
  1

  9
$DIMSTYLE
  2
S10
  9
$DIMCLRD
 70
   256
  9
$DIMCLRE
 70
   256
  9
$DIMCLRT
 70
   256
  9
$DIMTFAC
 40
1.0
  9
$DIMGAP
 40
0.9
  9
$LUNITS
 70
     2
  9
$LUPREC
 70
     2
  9
$SKETCHINC
 40
0.1
  9
$FILLETRAD
 40
0.0
  9
$AUNITS
 70
     0
  9
$AUPREC
 70
     2
  9
$MENU
  1
ACAD
  9
$ELEVATION
 40
0.0
  9
$PELEVATION
 40
0.0
  9
$THICKNESS
 40
0.0
  9
$LIMCHECK
 70
     0
  9
$BLIPMODE
 70
     0
  9
$CHAMFERA
 40
2.0
  9
$CHAMFERB
 40
2.0
  9
$SKPOLY
 70
     0
  9
$TDCREATE
 40
2453095.4929404748
  9
$TDUPDATE
 40
2457890.608582072
  9
$TDINDWG
 40
19.345387013900002
  9
$TDUSRTIMER
 40
19.345386469899999
  9
$USRTIMER
 70
     1
  9
$ANGBASE
 50
0.0
  9
$ANGDIR
 70
     0
  9
$PDMODE
 70
     1
  9
$PDSIZE
 40
2.0
  9
$PLINEWID
 40
0.0
  9
$COORDS
 70
     1
  9
$SPLFRAME
 70
     0
  9
$SPLINETYPE
 70
     6
  9
$SPLINESEGS
 70
     8
  9
$ATTDIA
 70
     1
  9
$ATTREQ
 70
     1
  9
$HANDLING
 70
     1
  9
$HANDSEED
  5
F6185
  9
$SURFTAB1
 70
     6
  9
$SURFTAB2
 70
     6
  9
$SURFTYPE
 70
     6
  9
$SURFU
 70
     6
  9
$SURFV
 70
     6
  9
$UCSNAME
  2

  9
$UCSORG
 10
0.0
 20
0.0
 30
0.0
  9
$UCSXDIR
 10
1.0
 20
0.0
 30
0.0
  9
$UCSYDIR
 10
0.0
 20
1.0
 30
0.0
  9
$PUCSNAME
  2

  9
$PUCSORG
 10
0.0
 20
0.0
 30
0.0
  9
$PUCSXDIR
 10
1.0
 20
0.0
 30
0.0
  9
$PUCSYDIR
 10
0.0
 20
1.0
 30
0.0
  9
$USERI1
 70
     0
  9
$USERI2
 70
     0
  9
$USERI3
 70
     0
  9
$USERI4
 70
     0
  9
$USERI5
 70
     0
  9
$USERR1
 40
0.0
  9
$USERR2
 40
0.0
  9
$USERR3
 40
0.0
  9
$USERR4
 40
0.0
  9
$USERR5
 40
0.0
  9
$WORLDVIEW
 70
     1
  9
$SHADEDGE
 70
     3
  9
$SHADEDIF
 70
    70
  9
$TILEMODE
 70
     1
  9
$MAXACTVP
 70
    64
  9
$PLIMCHECK
 70
     0
  9
$PEXTMIN
 10
28.517849826812729
 20
19.82258291244505
 30
0.0
  9
$PEXTMAX
 10
256.66064844131472
 20
178.4032462120056
 30
0.0
  9
$PLIMMIN
 10
-5.873748779296875
 20
-5.8737497329711923
  9
$PLIMMAX
 10
291.05224609375
 20
204.0995779037475
  9
$UNITMODE
 70
     0
  9
$VISRETAIN
 70
     1
  9
$PLINEGEN
 70
     0
  9
$PSLTSCALE
 70
     1
  0
ENDSEC
  0
SECTION
  2
TABLES
  0
TABLE
  2
VPORT
 70
     1
  0
VPORT
  2
*ACTIVE
 70
     0
 10
0.0
 20
0.0
 11
1.0
 21
1.0
 12
992.64411512691549
 22
621.59974271446197
 13
0.0
 23
0.0
 14
1.0
 24
1.0
 15
0.0
 25
0.0
 16
0.0
 26
0.0
 36
1.0
 17
0.0
 27
0.0
 37
0.0
 40
3096.0314098127678
 41
2.3877805486284291
 42
50.0
 43
0.0
 44
0.0
 50
0.0
 51
0.0
 71
     0
 72
   600
 73
     1
 74
     1
 75
     0
 76
     0
 77
     0
 78
     0
  0
ENDTAB
  0
TABLE
  2
LTYPE
 70
     3
  0
LTYPE
  2
CONTINUOUS
 70
     0
  3
Solid line
 72
    65
 73
     0
 40
0.0
  0
LTYPE
  2
ACAD_ISO08W100
 70
     0
  3
ISO long-dash short-dash ____ __ ____ __ ____ _
 72
    65
 73
     4
 40
36.0
 49
24.0
 49
-3.0
 49
6.0
 49
-3.0
  0
LTYPE
  2
ACAD_ISO02W100
 70
     0
  3
ISO dash __ __ __ __ __ __ __ __ __ __ __ __ __
 72
    65
 73
     2
 40
15.0
 49
12.0
 49
-3.0
  0
ENDTAB
  0
TABLE
  2
LAYER
 70
     6
  0
LAYER
  2
0
 70
     0
 62
     7
  6
CONTINUOUS
  0
LAYER
  2
OBJECT
 70
     0
 62
     4
  6
CONTINUOUS
  0
LAYER
  2
DEFPOINTS
 70
     0
 62
     7
  6
CONTINUOUS
  0
LAYER
  2
DIM
 70
     0
 62
     7
  6
CONTINUOUS
  0
LAYER
  2
HIDDEN
 70
     0
 62
     2
  6
ACAD_ISO02W100
  0
LAYER
  2
CENTER
 70
     0
 62
     2
  6
ACAD_ISO08W100
  0
ENDTAB
  0
TABLE
  2
STYLE
 70
     2
  0
STYLE
  2
STANDARD
 70
     0
 40
0.0
 41
0.75
 50
0.0
 71
     0
 42
4.0
  3
simplex.shx
  4
bigfont.shx
  0
ENDTAB
  0
TABLE
  2
VIEW
 70
     0
  0
ENDTAB
  0
TABLE
  2
UCS
 70
     0
  0
ENDTAB
  0
TABLE
  2
APPID
 70
    23
  0
APPID
  2
ACAD
 70
     0
  0
APPID
  2
ACADANNOTATIVE
 70
     0
  0
APPID
  2
ACAD_PSEXT
 70
     0
  0
APPID
  2
ACAD_EXEMPT_FROM_CAD_STANDARDS
 70
     0
  0
APPID
  2
ACAECLAYERSTANDARD
 70
     0
  0
APPID
  2
ACAUTHENVIRON
 70
     0
  0
APPID
  2
ACDBDYNAMICBLOCKTRUENAME
 70
     0
  0
APPID
  2
ACDBDYNAMICBLOCKGUID
 70
     0
  0
APPID
  2
ACDBBLOCKREPETAG
 70
     0
  0
APPID
  2
ACDBBLOCKREPBTAG
 70
     0
  0
APPID
  2
ACAD_NAV_VCDISPLAY
 70
     0
  0
APPID
  2
ACAD_DSTYLE_DIMRADIAL_EXTENSION
 70
     0
  0
APPID
  2
ACAD_DSTYLE_DIMJAG
 70
     0
  0
APPID
  2
ACAD_DSTYLE_DIMTALN
 70
     0
  0
APPID
  2
GRADIENTCOLOR1ACI
 70
     0
  0
APPID
  2
GRADIENTCOLOR2ACI
 70
     0
  0
APPID
  2
ACADANNOPO
 70
     0
  0
APPID
  2
ACADANNOMONITORALERTICONDI
 70
     0
  0
APPID
  2
ACADANNOAV
 70
     0
  0
APPID
  2
ACAD_MLEADERVER
 70
     0
  0
APPID
  2
ACAD_DSTYLE_DIMFLIPARROW_W
 70
     0
  0
APPID
  2
ACCMTRANSPARENCY
 70
     0
  0
APPID
  2
CONTENTBLOCKICON
 70
     0
  0
ENDTAB
  0
TABLE
  2
DIMSTYLE
 70
     3
  0
DIMSTYLE
  2
STANDARD
 70
     0
  3

  4

  5

  6

  7

 40
1.0
 41
0.18
 42
0.0625
 43
0.38
 44
0.18
 45
0.0
 46
0.0
 47
0.0
 48
0.0
140
0.18
141
0.09
142
0.0
143
25.399999999999999
144
1.0
145
0.0
146
1.0
147
0.09
 71
     0
 72
     0
 73
     1
 74
     1
 75
     0
 76
     0
 77
     0
 78
     0
170
     0
171
     2
172
     0
173
     0
174
     0
175
     0
176
     0
177
     0
178
     0
  0
DIMSTYLE
  2
S10
 70
     0
  3

  4

  5

  6

  7

 40
10.0
 41
2.0
 42
1.0
 43
10.0
 44
1.0
 45
0.0
 46
0.0
 47
0.0
 48
0.0
140
3.2000000000000002
141
0.0
142
0.0
143
25.399999999999999
144
1.0
145
0.0
146
1.0
147
0.9
 71
     0
 72
     0
 73
     0
 74
     0
 75
     0
 76
     0
 77
     1
 78
     8
170
     0
171
     2
172
     1
173
     0
174
     0
175
     0
176
   256
177
   256
178
   256
  0
ENDTAB
  0
ENDSEC
  0
SECTION
  2
BLOCKS
  0
BLOCK
  8
0
  2
$MODEL_SPACE
 70
     0
 10
0.0
 20
0.0
 30
0.0
  3
$MODEL_SPACE
  1

  0
ENDBLK
  5
F60FC
  8
0
  0
BLOCK
 67
     1
  8
0
  2
$PAPER_SPACE
 70
     0
 10
0.0
 20
0.0
 30
0.0
  3
$PAPER_SPACE
  1

  0
ENDBLK
  5
F60F8
 67
     1
  8
0
  0
BLOCK
  8
0
  2
_OPEN30
 70
     0
 10
0.0
 20
0.0
 30
0.0
  3
_OPEN30
  1

  0
LINE
  5
202
  8
0
  6
BYBLOCK
 62
     0
 10
-1.0
 20
0.26794919
 30
0.0
 11
0.0
 21
0.0
 31
0.0
  0
LINE
  5
203
  8
0
  6
BYBLOCK
 62
     0
 10
0.0
 20
0.0
 30
0.0
 11
-1.0
 21
-0.26794919
 31
0.0
  0
LINE
  5
204
  8
0
  6
BYBLOCK
 62
     0
 10
0.0
 20
0.0
 30
0.0
 11
-1.0
 21
0.0
 31
0.0
  0
ENDBLK
  5
206
  8
0
  0
ENDSEC
  0
SECTION
  2
ENTITIES
  0
TEXT
  5
F4DE9
  8
DIM
 10
-491.06148299999978
 20
-448.70930099999993
 30
0.0
 40
32.0
  1
・三角ふたの前面にはメンテナンススペース
 41
0.959758592429577
 72
     5
 11
235.79569099999981
 21
-448.70930099999993
 31
0.0
  0
TEXT
  5
F4DEA
  8
DIM
 10
-491.06148299999978
 20
-498.70930099999993
 30
0.0
 40
32.0
  1
　１２０ｍｍ以上を確保してください。
 41
0.9301791860932491
 72
     5
 11
126.0814010000001
 21
-498.70930099999993
 31
0.0
  0
LINE
  5
F4DEC
  8
HIDDEN
 10
-446.71710799999988
 20
439.99745999999999
 30
0.0
 11
-473.93519400000002
 21
439.99745999999999
 31
0.0
  0
LINE
  5
F4DED
  8
HIDDEN
 10
-439.71710799999988
 20
521.99745999999982
 30
0.0
 11
-446.71710799999988
 21
514.99746000000005
 31
0.0
  0
LINE
  5
F4DEE
  8
HIDDEN
 10
-446.71710799999988
 20
514.99746000000005
 30
0.0
 11
-514.05081099999995
 21
514.99746000000005
 31
0.0
  0
LINE
  5
F4DEF
  8
HIDDEN
 10
-439.71710799999988
 20
432.99745999999988
 30
0.0
 11
-446.71710799999988
 21
439.99745999999999
 31
0.0
  0
ARC
  5
F4DF0
  8
HIDDEN
 10
-514.05081099999995
 20
512.99745999999971
 30
0.0
 40
2.0
 50
90.0
 51
204.9999999999994
  0
LINE
  5
F4DF1
  8
HIDDEN
 10
-485.71719499999989
 20
447.503423
 30
0.0
 11
-515.86342599999966
 21
512.15222399999982
 31
0.0
  0
ARC
  5
F4DF2
  8
HIDDEN
 10
-473.93519400000002
 20
452.99745999999999
 30
0.0
 40
13.0
 50
204.9999999999994
 51
270.0
  0
LINE
  5
F4DF5
  8
CENTER
 10
-371.47728299999989
 20
477.49745999999999
 30
0.0
 11
-431.60534400000012
 21
477.49745999999999
 31
0.0
  0
LINE
  5
F4DF6
  8
CENTER
 10
-371.650983
 20
540.49746000000005
 30
0.0
 11
-447.09195199999988
 21
540.49746000000005
 31
0.0
  0
LINE
  5
F4DF7
  8
OBJECT
 10
-418.56658600000009
 20
552.49746000000005
 30
0.0
 11
-430.56658600000009
 21
552.49746000000005
 31
0.0
  0
LINE
  5
F4DF8
  8
OBJECT
 10
-432.56658599999997
 20
550.49745999999971
 30
0.0
 11
-432.56658599999997
 21
404.49745999999988
 31
0.0
  0
LINE
  5
F4DF9
  8
OBJECT
 10
-418.56658600000009
 20
402.49745999999999
 30
0.0
 11
-430.56658600000009
 21
402.49745999999999
 31
0.0
  0
LINE
  5
F4DFA
  8
OBJECT
 10
-468.12202799999989
 20
521.99745999999982
 30
0.0
 11
-874.56658599999992
 21
521.99745999999982
 31
0.0
  0
LINE
  5
F4DFB
  8
OBJECT
 10
-467.79534299999989
 20
432.99745999999988
 30
0.0
 11
-469.81175200000013
 21
432.99745999999988
 31
0.0
  0
LINE
  5
F4DFC
  8
CENTER
 10
-371.18095200000022
 20
0.0
 30
0.0
 11
-887.61839699999973
 21
0.0
 31
0.0
  0
LINE
  5
F4DFD
  8
OBJECT
 10
-418.56658600000009
 20
-60.0
 30
0.0
 11
-418.56658600000009
 21
60.0
 31
0.0
  0
LINE
  5
F4DFE
  8
OBJECT
 10
-468.12202799999989
 20
44.499999999999993
 30
0.0
 11
-491.56658599999997
 21
44.499999999999993
 31
0.0
  0
LINE
  5
F4DFF
  8
OBJECT
 10
-468.12202799999989
 20
-44.499999999999979
 30
0.0
 11
-595.75426499999969
 21
-44.499999999999979
 31
0.0
  0
LINE
  5
F4E00
  8
OBJECT
 10
-454.56658599999997
 20
529.49745999999971
 30
0.0
 11
-433.56658599999997
 21
529.49745999999971
 31
0.0
  0
ARC
  5
F4E01
  8
OBJECT
 10
-454.56658599999997
 20
521.49745999999971
 30
0.0
 40
8.0
 50
90.0
 51
147.91004899999669
  0
ARC
  5
F4E02
  8
OBJECT
 10
-468.12202799999989
 20
529.99745999999959
 30
0.0
 40
8.0
 50
270.0
 51
327.91004899999677
  0
ARC
  5
F4E03
  8
OBJECT
 10
-454.56658599999997
 20
433.49745999999988
 30
0.0
 40
8.0
 50
212.08995100000331
 51
270.0
  0
ARC
  5
F4E04
  8
OBJECT
 10
-468.12202799999989
 20
424.99745999999988
 30
0.0
 40
8.0
 50
32.089951000003268
 51
90.0
  0
LINE
  5
F4E05
  8
OBJECT
 10
-454.56658599999997
 20
425.49745999999988
 30
0.0
 11
-433.56658599999997
 21
425.49745999999988
 31
0.0
  0
ARC
  5
F4E06
  8
OBJECT
 10
-454.56658599999997
 20
44.0
 30
0.0
 40
8.0
 50
90.0
 51
147.91004899999669
  0
ARC
  5
F4E07
  8
OBJECT
 10
-468.12202799999989
 20
52.5
 30
0.0
 40
8.0
 50
270.0
 51
327.91004899999677
  0
LINE
  5
F4E08
  8
OBJECT
 10
-454.56658599999997
 20
52.0
 30
0.0
 11
-433.56658599999997
 21
52.0
 31
0.0
  0
ARC
  5
F4E09
  8
OBJECT
 10
-468.12202799999989
 20
-52.5
 30
0.0
 40
8.0
 50
32.089951000003268
 51
90.0
  0
LINE
  5
F4E0A
  8
OBJECT
 10
-876.56658599999957
 20
519.99746000000005
 30
0.0
 11
-876.56658599999957
 21
434.99745999999999
 31
0.0
  0
ARC
  5
F4E0B
  8
OBJECT
 10
-874.56658599999992
 20
519.99746000000005
 30
0.0
 40
2.0
 50
90.0
 51
180.0
  0
ARC
  5
F4E0C
  8
OBJECT
 10
-874.56658599999992
 20
434.99745999999999
 30
0.0
 40
2.0
 50
180.0
 51
270.0
  0
LINE
  5
F4E0D
  8
OBJECT
 10
-876.56658599999957
 20
42.5
 30
0.0
 11
-876.56658599999957
 21
-42.499999999999993
 31
0.0
  0
ARC
  5
F4E0E
  8
OBJECT
 10
-874.56658599999992
 20
42.5
 30
0.0
 40
2.0
 50
90.0
 51
180.0
  0
ARC
  5
F4E0F
  8
OBJECT
 10
-874.56658599999992
 20
-42.499999999999993
 30
0.0
 40
2.0
 50
180.0
 51
270.0
  0
LINE
  5
F4E10
  8
CENTER
 10
-681.56658600000003
 20
477.49745999999999
 30
0.0
 11
-606.56658600000003
 21
402.49745999999999
 31
0.0
  0
LINE
  5
F4E11
  8
CENTER
 10
-561.56658600000014
 20
477.49745999999999
 30
0.0
 11
-486.56658599999997
 21
402.49745999999999
 31
0.0
  0
LINE
  5
F4E12
  8
CENTER
 10
-486.56658599999997
 20
402.49745999999999
 30
0.0
 11
-486.56658599999997
 21
313.52593899999999
 31
0.0
  0
LINE
  5
F4E13
  8
OBJECT
 10
-636.56658600000003
 20
387.79287900000003
 30
0.0
 11
-636.56658600000003
 21
379.864957
 31
0.0
  0
LINE
  5
F4E14
  8
OBJECT
 10
-586.67140199999994
 20
425.028683
 30
0.0
 11
-591.22596599999997
 21
429.58324699999991
 31
0.0
  0
LINE
  5
F4E15
  8
OBJECT
 10
-677.29629399999999
 20
430.80076100000002
 30
0.0
 11
-638.17749900000001
 21
391.68196599999999
 31
0.0
  0
LINE
  5
F4E16
  8
OBJECT
 10
-874.56658599999992
 20
432.99745999999988
 30
0.0
 11
-802.59959499999979
 21
432.99745999999988
 31
0.0
  0
LINE
  5
F4E17
  8
OBJECT
 10
-456.56658600000009
 20
423.49745999999999
 30
0.0
 11
-456.56658600000009
 21
379.864957
 31
0.0
  0
LINE
  5
F4E18
  8
OBJECT
 10
-516.56658600000014
 20
387.79287900000003
 30
0.0
 11
-516.56658600000014
 21
379.864957
 31
0.0
  0
LINE
  5
F4E19
  8
OBJECT
 10
-466.671402
 20
425.028683
 30
0.0
 11
-471.22596599999991
 21
429.58324699999991
 31
0.0
  0
LINE
  5
F4E1A
  8
OBJECT
 10
-557.29629399999999
 20
430.80076100000002
 30
0.0
 11
-518.1774989999999
 21
391.68196599999999
 31
0.0
  0
LINE
  5
F4E1B
  8
OBJECT
 10
-562.59959500000014
 20
432.99745999999988
 30
0.0
 11
-589.81175199999996
 21
432.99745999999988
 31
0.0
  0
LINE
  5
F4E1C
  8
CENTER
 10
-641.56658600000003
 20
85.673118000000002
 30
0.0
 11
-641.56658600000003
 21
36.813720000000004
 31
0.0
  0
LINE
  5
F4E1D
  8
OBJECT
 10
-874.56658599999992
 20
44.499999999999993
 30
0.0
 11
-791.56658599999969
 21
44.499999999999993
 31
0.0
  0
LINE
  5
F4E1E
  8
OBJECT
 10
-616.56658600000003
 20
55.0
 30
0.0
 11
-616.56658600000003
 21
49.499999999999993
 31
0.0
  0
LINE
  5
F4E1F
  8
OBJECT
 10
-666.56658600000003
 20
55.0
 30
0.0
 11
-666.56658600000003
 21
49.499999999999993
 31
0.0
  0
LINE
  5
F4E20
  8
OBJECT
 10
-663.96599800000001
 20
55.0
 30
0.0
 11
-616.56658600000003
 21
55.0
 31
0.0
  0
ARC
  5
F4E21
  8
OBJECT
 10
-611.56658600000003
 20
49.499999999999993
 30
0.0
 40
5.0
 50
180.0
 51
270.0
  0
ARC
  5
F4E22
  8
OBJECT
 10
-671.56658600000003
 20
49.499999999999993
 30
0.0
 40
5.0
 50
270.0
 51
0.0
  0
LINE
  5
F4E23
  8
OBJECT
 10
-428.56658599999997
 20
-60.0
 30
0.0
 11
-428.56658599999997
 21
-20.0
 31
0.0
  0
ARC
  5
F4E24
  8
OBJECT
 10
-562.59959500000014
 20
425.49745999999988
 30
0.0
 40
7.5
 50
45.000000000004597
 51
90.0
  0
ARC
  5
F4E25
  8
OBJECT
 10
-454.56658599999997
 20
423.49745999999999
 30
0.0
 40
2.0
 50
90.0
 51
180.0
  0
ARC
  5
F4E26
  8
OBJECT
 10
-574.56658600000014
 20
430.99745999999999
 30
0.0
 40
2.0
 50
90.0
 51
180.0
  0
ARC
  5
F4E27
  8
OBJECT
 10
-611.06658600000003
 20
400.63349899999997
 30
0.0
 40
34.5
 50
0.0
 51
45.000000000004597
  0
ARC
  5
F4E28
  8
OBJECT
 10
-642.06658600000003
 20
387.79287900000003
 30
0.0
 40
5.5
 50
0.0
 51
45.000000000004597
  0
ARC
  5
F4E29
  8
OBJECT
 10
-522.06658600000014
 20
387.79287900000003
 30
0.0
 40
5.5
 50
0.0
 51
45.000000000004597
  0
ARC
  5
F4E2A
  8
OBJECT
 10
-491.06658599999997
 20
400.63349899999997
 30
0.0
 40
34.5
 50
0.0
 51
45.000000000004597
  0
ARC
  5
F4E2B
  8
OBJECT
 10
-469.81175200000013
 20
430.99745999999999
 30
0.0
 40
2.0
 50
90.0
 51
225.0000000000046
  0
ARC
  5
F4E2C
  8
OBJECT
 10
-589.81175199999996
 20
430.99745999999999
 30
0.0
 40
2.0
 50
90.0
 51
225.0000000000046
  0
LINE
  5
F4E2D
  8
CENTER
 10
-486.56658599999997
 20
-49.09219199999999
 30
0.0
 11
-486.56658599999997
 21
48.587561000000001
 31
0.0
  0
LINE
  5
F4E2E
  8
OBJECT
 10
-428.56658599999997
 20
60.0
 30
0.0
 11
-428.56658599999997
 21
20.0
 31
0.0
  0
ARC
  5
F4E2F
  8
OBJECT
 10
-430.56658600000009
 20
550.49745999999971
 30
0.0
 40
2.0
 50
90.0
 51
180.0
  0
ARC
  5
F4E30
  8
OBJECT
 10
-430.56658600000009
 20
404.49745999999988
 30
0.0
 40
2.0
 50
180.0
 51
270.0
  0
LINE
  5
F4E31
  8
OBJECT
 10
-432.56658599999997
 20
-12.000000000000011
 30
0.0
 11
-432.56658599999997
 21
-4.6188020000000147
 31
0.0
  0
ARC
  5
F4E32
  8
OBJECT
 10
-438.56658600000009
 20
20.0
 30
0.0
 40
10.0
 50
306.86989800000481
 51
0.0
  0
ARC
  5
F4E33
  8
OBJECT
 10
-438.56658600000009
 20
-20.0
 30
0.0
 40
10.0
 50
0.0
 51
53.130101999995141
  0
ARC
  5
F4E34
  8
OBJECT
 10
-433.56658599999997
 20
530.49745999999982
 30
0.0
 40
1.0
 50
270.0
 51
0.0
  0
ARC
  5
F4E35
  8
OBJECT
 10
-433.56658599999997
 20
424.49745999999988
 30
0.0
 40
1.0
 50
0.0
 51
90.0
  0
ARC
  5
F4E36
  8
OBJECT
 10
-433.56658599999997
 20
57.0
 30
0.0
 40
5.0
 50
270.0
 51
0.0
  0
LINE
  5
F4E37
  8
CENTER
 10
-606.56658600000003
 20
402.49745999999999
 30
0.0
 11
-606.56658600000003
 21
313.52593899999999
 31
0.0
  0
LINE
  5
F4E38
  8
OBJECT
 10
-461.34430700000001
 20
525.74746000000005
 30
0.0
 11
-461.34430700000001
 21
429.24745999999999
 31
0.0
  0
LINE
  5
F4E39
  8
OBJECT
 10
-461.34430700000001
 20
-48.249999999999993
 30
0.0
 11
-461.34430700000001
 21
-37.267098999999988
 31
0.0
  0
LINE
  5
F4E3A
  8
OBJECT
 10
-461.34430700000001
 20
48.249999999999993
 30
0.0
 11
-461.34430700000001
 21
37.267097999999997
 31
0.0
  0
LINE
  5
F4E41
  8
OBJECT
 10
-397.21710800000011
 20
-60.0
 30
0.0
 11
-397.21710800000011
 21
60.0
 31
0.0
  0
LINE
  5
F4E42
  8
OBJECT
 10
-412.217108
 20
552.49746000000005
 30
0.0
 11
-399.21710800000011
 21
552.49746000000005
 31
0.0
  0
LINE
  5
F4E43
  8
OBJECT
 10
-412.217108
 20
402.49745999999999
 30
0.0
 11
-399.21710800000011
 21
402.49745999999999
 31
0.0
  0
ARC
  5
F4E44
  8
OBJECT
 10
-399.21710800000011
 20
550.49745999999971
 30
0.0
 40
2.0
 50
0.0
 51
90.0
  0
ARC
  5
F4E45
  8
OBJECT
 10
-399.21710800000011
 20
404.49745999999988
 30
0.0
 40
2.0
 50
270.0
 51
0.0
  0
LINE
  5
F4E46
  8
OBJECT
 10
-412.217108
 20
-60.0
 30
0.0
 11
-412.217108
 21
60.0
 31
0.0
  0
LINE
  5
F4E47
  8
OBJECT
 10
-397.21710800000011
 20
545.49746000000005
 30
0.0
 11
-397.21710800000011
 21
550.49745999999971
 31
0.0
  0
LINE
  5
F4E48
  8
OBJECT
 10
-412.217108
 20
528.49746000000005
 30
0.0
 11
-418.56658600000009
 21
528.49746000000005
 31
0.0
  0
LINE
  5
F4E49
  8
OBJECT
 10
-412.217108
 20
426.49745999999999
 30
0.0
 11
-418.56658600000009
 21
426.49745999999999
 31
0.0
  0
LINE
  5
F4E4A
  8
OBJECT
 10
-412.217108
 20
51.0
 30
0.0
 11
-418.56658600000009
 21
51.0
 31
0.0
  0
LINE
  5
F4E4B
  8
OBJECT
 10
-412.217108
 20
-50.999999999999972
 30
0.0
 11
-418.56658600000009
 21
-50.999999999999972
 31
0.0
  0
LINE
  5
F4E4C
  8
OBJECT
 10
-412.217108
 20
402.49745999999999
 30
0.0
 11
-412.217108
 21
552.49746000000005
 31
0.0
  0
LINE
  5
F4E4D
  8
OBJECT
 10
-397.21710800000011
 20
535.49746000000005
 30
0.0
 11
-397.21710800000011
 21
404.49745999999988
 31
0.0
  0
LINE
  5
F4E4E
  8
OBJECT
 10
-576.56658600000014
 20
430.99745999999999
 30
0.0
 11
-576.56658600000014
 21
379.864957
 31
0.0
  0
LINE
  5
F4E4F
  8
CENTER
 10
-641.56658600000003
 20
48.774535
 30
0.0
 11
-641.56658600000003
 21
-65.722977999999998
 31
0.0
  0
LINE
  5
F4E50
  8
CENTER
 10
-521.56658600000014
 20
-51.68172100000001
 30
0.0
 11
-521.56658600000014
 21
74.588127
 31
0.0
  0
LINE
  5
F4E51
  8
CENTER
 10
-486.56658599999997
 20
-49.09219199999999
 30
0.0
 11
-486.56658599999997
 21
48.587561000000001
 31
0.0
  0
LINE
  5
F4E52
  8
OBJECT
 10
-432.56658599999997
 20
4.6188020000000014
 30
0.0
 11
-432.69716299999999
 21
4.6188020000000014
 31
0.0
  0
LINE
  5
F4E53
  8
OBJECT
 10
-432.56658599999997
 20
-4.6188020000000147
 30
0.0
 11
-432.69716299999999
 21
-4.6188020000000147
 31
0.0
  0
LINE
  5
F4E54
  8
OBJECT
 10
-432.56658599999997
 20
-9.2376049999999896
 30
0.0
 11
-436.17455500000011
 21
-9.2376049999999896
 31
0.0
  0
LINE
  5
F4E55
  8
OBJECT
 10
-432.56658599999997
 20
-9.2376049999999896
 30
0.0
 11
-432.56658599999997
 21
-4.358898999999993
 31
0.0
  0
LINE
  5
F4E56
  8
OBJECT
 10
-432.56658599999997
 20
9.2376040000000028
 30
0.0
 11
-436.17455500000011
 21
9.2376040000000028
 31
0.0
  0
LINE
  5
F4E57
  8
OBJECT
 10
-432.56658599999997
 20
4.358898999999993
 30
0.0
 11
-432.56658599999997
 21
12.0
 31
0.0
  0
LINE
  5
F4E58
  8
OBJECT
 10
-432.56658599999997
 20
4.6188020000000014
 30
0.0
 11
-432.56658599999997
 21
9.2376040000000028
 31
0.0
  0
LINE
  5
F4E59
  8
OBJECT
 10
-451.56658600000009
 20
28.284271000000011
 30
0.0
 11
-433.78880799999979
 21
6.2853930000000124
 31
0.0
  0
ARC
  5
F4E5A
  8
OBJECT
 10
-486.56658599999997
 20
0.0
 30
0.0
 40
45.0
 50
38.94244100000229
 51
141.0575589999977
  0
LINE
  5
F4E5B
  8
OBJECT
 10
-451.56658600000009
 20
-28.284272000000001
 30
0.0
 11
-433.78880799999979
 21
-6.285394000000009
 31
0.0
  0
ARC
  5
F4E5C
  8
CENTER
 10
-486.56658599999997
 20
0.0
 30
0.0
 40
45.0
 50
349.86110000000042
 51
13.68187099999977
  0
CIRCLE
  5
F4E5D
  8
OBJECT
 10
-486.56658599999997
 20
0.0
 30
0.0
 40
31.5
  0
ARC
  5
F4E5E
  8
OBJECT
 10
-486.56658599999997
 20
0.0
 30
0.0
 40
38.0
 50
26.10359100000267
 51
153.89640899999731
  0
ARC
  5
F4E5F
  8
OBJECT
 10
-486.56658599999997
 20
0.0
 30
0.0
 40
45.0
 50
218.9424410000023
 51
321.0575589999977
  0
ARC
  5
F4E60
  8
OBJECT
 10
-441.56658599999997
 20
0.0
 30
0.0
 40
10.0
 50
269.7395640000006
 51
90.260435999999345
  0
ARC
  5
F4E61
  8
OBJECT
 10
-486.56658599999997
 20
0.0
 30
0.0
 40
38.0
 50
206.10359100000269
 51
333.89640899999728
  0
ARC
  5
F4E62
  8
OBJECT
 10
-441.66658600000011
 20
-21.99977299999999
 30
0.0
 40
12.0
 50
89.739564000000655
 51
153.89640899999731
  0
ARC
  5
F4E63
  8
OBJECT
 10
-441.66658600000011
 20
21.999772000000011
 30
0.0
 40
12.0
 50
206.10359100000269
 51
270.26043599999929
  0
ARC
  5
F4E64
  8
OBJECT
 10
-531.46658599999978
 20
-21.99977299999999
 30
0.0
 40
12.0
 50
26.10359100000267
 51
90.260435999999345
  0
ARC
  5
F4E65
  8
OBJECT
 10
-531.46658599999978
 20
21.999772000000011
 30
0.0
 40
12.0
 50
269.7395640000006
 51
333.89640899999728
  0
LINE
  5
F4E66
  8
OBJECT
 10
-521.56658600000014
 20
28.284271000000011
 30
0.0
 11
-539.34436400000004
 21
6.2853930000000124
 31
0.0
  0
LINE
  5
F4E67
  8
OBJECT
 10
-521.56658600000014
 20
-28.284272000000001
 30
0.0
 11
-539.34436400000004
 21
-6.285394000000009
 31
0.0
  0
ARC
  5
F4E68
  8
CENTER
 10
-486.56658599999997
 20
0.0
 30
0.0
 40
45.0
 50
166.3181290000002
 51
190.1388999999995
  0
ARC
  5
F4E69
  8
OBJECT
 10
-531.56658600000014
 20
0.0
 30
0.0
 40
10.0
 50
89.739564000000655
 51
270.26043599999929
  0
CIRCLE
  5
F4E6C
  8
OBJECT
 10
-486.56658599999997
 20
0.0
 30
0.0
 40
25.5
  0
LINE
  5
F4E6D
  8
OBJECT
 10
-571.56658600000014
 20
28.284271000000011
 30
0.0
 11
-553.78880800000002
 21
6.2853930000000124
 31
0.0
  0
ARC
  5
F4E6E
  8
OBJECT
 10
-606.56658600000003
 20
0.0
 30
0.0
 40
45.0
 50
38.94244100000229
 51
141.0575589999977
  0
LINE
  5
F4E6F
  8
OBJECT
 10
-571.56658600000014
 20
-28.284272000000001
 30
0.0
 11
-553.78880800000002
 21
-6.285394000000009
 31
0.0
  0
ARC
  5
F4E70
  8
CENTER
 10
-606.56658600000003
 20
0.0
 30
0.0
 40
45.0
 50
349.86110000000042
 51
13.68187099999977
  0
CIRCLE
  5
F4E71
  8
OBJECT
 10
-606.56658600000003
 20
0.0
 30
0.0
 40
31.5
  0
ARC
  5
F4E72
  8
OBJECT
 10
-606.56658600000003
 20
0.0
 30
0.0
 40
38.0
 50
26.10359100000267
 51
153.89640899999731
  0
ARC
  5
F4E73
  8
OBJECT
 10
-606.56658600000003
 20
0.0
 30
0.0
 40
45.0
 50
218.9424410000023
 51
321.0575589999977
  0
ARC
  5
F4E74
  8
OBJECT
 10
-561.56658600000014
 20
0.0
 30
0.0
 40
10.0
 50
269.7395640000006
 51
90.260435999999345
  0
ARC
  5
F4E75
  8
OBJECT
 10
-606.56658600000003
 20
0.0
 30
0.0
 40
38.0
 50
206.10359100000269
 51
333.89640899999728
  0
ARC
  5
F4E76
  8
OBJECT
 10
-561.66658600000005
 20
-21.99977299999999
 30
0.0
 40
12.0
 50
89.739564000000655
 51
153.89640899999731
  0
ARC
  5
F4E77
  8
OBJECT
 10
-561.66658600000005
 20
21.999772000000011
 30
0.0
 40
12.0
 50
206.10359100000269
 51
270.26043599999929
  0
ARC
  5
F4E78
  8
OBJECT
 10
-651.46658600000001
 20
-21.99977299999999
 30
0.0
 40
12.0
 50
26.10359100000267
 51
90.260435999999345
  0
ARC
  5
F4E79
  8
OBJECT
 10
-651.46658600000001
 20
21.999772000000011
 30
0.0
 40
12.0
 50
269.7395640000006
 51
333.89640899999728
  0
LINE
  5
F4E7A
  8
OBJECT
 10
-641.56658600000003
 20
28.284271000000011
 30
0.0
 11
-659.34436399999981
 21
6.2853930000000124
 31
0.0
  0
LINE
  5
F4E7B
  8
OBJECT
 10
-641.56658600000003
 20
-28.284272000000001
 30
0.0
 11
-659.34436399999981
 21
-6.285394000000009
 31
0.0
  0
ARC
  5
F4E7C
  8
CENTER
 10
-606.56658600000003
 20
0.0
 30
0.0
 40
45.0
 50
166.3181290000002
 51
190.1388999999995
  0
ARC
  5
F4E7D
  8
OBJECT
 10
-651.56658600000003
 20
0.0
 30
0.0
 40
10.0
 50
89.739564000000655
 51
270.26043599999929
  0
CIRCLE
  5
F4E80
  8
OBJECT
 10
-606.56658600000003
 20
0.0
 30
0.0
 40
25.5
  0
LINE
  5
F4E81
  8
OBJECT
 10
-661.56658600000003
 20
347.49745999999999
 30
0.0
 11
-551.56658600000014
 21
347.49745999999999
 31
0.0
  0
LINE
  5
F4E82
  8
OBJECT
 10
-571.56658600000014
 20
342.36035199999998
 30
0.0
 11
-571.56658600000014
 21
347.49745999999999
 31
0.0
  0
LINE
  5
F4E83
  8
OBJECT
 10
-551.56658600000014
 20
341.36035199999998
 30
0.0
 11
-661.56658600000003
 21
341.36035199999998
 31
0.0
  0
LINE
  5
F4E84
  8
OBJECT
 10
-571.56658600000014
 20
342.36035199999998
 30
0.0
 11
-641.56658600000003
 21
342.36035199999998
 31
0.0
  0
LINE
  5
F4E85
  8
OBJECT
 10
-641.56658600000003
 20
342.36035199999998
 30
0.0
 11
-641.56658600000003
 21
347.49745999999999
 31
0.0
  0
LINE
  5
F4E86
  8
OBJECT
 10
-551.56658600000014
 20
328.36035199999998
 30
0.0
 11
-557.56658600000014
 21
328.36035199999998
 31
0.0
  0
LINE
  5
F4E87
  8
OBJECT
 10
-551.56658600000014
 20
347.49745999999999
 30
0.0
 11
-551.56658600000014
 21
357.49745999999999
 31
0.0
  0
LINE
  5
F4E88
  8
OBJECT
 10
-553.56658600000014
 20
359.49745999999999
 30
0.0
 11
-659.56658600000003
 21
359.49745999999999
 31
0.0
  0
LINE
  5
F4E89
  8
OBJECT
 10
-661.56658600000003
 20
328.36035199999998
 30
0.0
 11
-655.56658600000026
 21
328.36035199999998
 31
0.0
  0
LINE
  5
F4E8A
  8
OBJECT
 10
-661.56658600000003
 20
347.49745999999999
 30
0.0
 11
-661.56658600000003
 21
357.49745999999999
 31
0.0
  0
LINE
  5
F4E8B
  8
OBJECT
 10
-570.06658600000014
 20
370.49745999999999
 30
0.0
 11
-570.06658600000014
 21
361.49745999999999
 31
0.0
  0
LINE
  5
F4E8C
  8
OBJECT
 10
-643.06658600000026
 20
370.49745999999999
 30
0.0
 11
-643.06658600000026
 21
361.49745999999999
 31
0.0
  0
ARC
  5
F4E8D
  8
OBJECT
 10
-638.06658600000003
 20
370.49745999999999
 30
0.0
 40
5.0
 50
110.487314999997
 51
180.0
  0
ARC
  5
F4E8E
  8
OBJECT
 10
-575.06658600000014
 20
370.49745999999999
 30
0.0
 40
5.0
 50
0.0
 51
69.512685000003003
  0
ARC
  5
F4E8F
  8
OBJECT
 10
-568.06658600000014
 20
361.49745999999999
 30
0.0
 40
2.0
 50
180.0
 51
270.0
  0
ARC
  5
F4E90
  8
OBJECT
 10
-645.06658600000003
 20
361.49745999999999
 30
0.0
 40
2.0
 50
270.0
 51
0.0
  0
ARC
  5
F4E91
  8
OBJECT
 10
-553.56658600000014
 20
357.49745999999999
 30
0.0
 40
2.0
 50
0.0
 51
90.0
  0
ARC
  5
F4E92
  8
OBJECT
 10
-659.56658600000003
 20
357.49745999999999
 30
0.0
 40
2.0
 50
90.0
 51
180.0
  0
ARC
  5
F4E93
  8
OBJECT
 10
-571.56658600000014
 20
379.864957
 30
0.0
 40
5.0
 50
180.0
 51
249.51268500000299
  0
ARC
  5
F4E94
  8
OBJECT
 10
-641.56658600000003
 20
379.864957
 30
0.0
 40
5.0
 50
290.48731499999701
 51
0.0
  0
LINE
  5
F4E95
  8
OBJECT
 10
-573.31658600000014
 20
375.18120900000002
 30
0.0
 11
-639.81658600000003
 21
375.18120900000002
 31
0.0
  0
LINE
  5
F4E96
  8
OBJECT
 10
-551.56658600000014
 20
328.36035199999998
 30
0.0
 11
-551.56658600000014
 21
341.36035199999998
 31
0.0
  0
LINE
  5
F4E97
  8
OBJECT
 10
-661.56658600000003
 20
328.36035199999998
 30
0.0
 11
-661.56658600000003
 21
341.36035199999998
 31
0.0
  0
LINE
  5
F4E98
  8
OBJECT
 10
-574.450648
 20
342.36035199999998
 30
0.0
 11
-573.450648
 21
341.36035199999998
 31
0.0
  0
LINE
  5
F4E99
  8
OBJECT
 10
-638.68252399999994
 20
342.36035199999998
 30
0.0
 11
-639.68252399999994
 21
341.36035199999998
 31
0.0
  0
LINE
  5
F4E9A
  8
OBJECT
 10
-647.56658600000026
 20
328.36035199999998
 30
0.0
 11
-560.35412300000007
 21
328.36035199999998
 31
0.0
  0
LINE
  5
F4E9D
  8
OBJECT
 10
-541.56658600000014
 20
347.49745999999999
 30
0.0
 11
-431.56658600000009
 21
347.49745999999999
 31
0.0
  0
LINE
  5
F4E9E
  8
OBJECT
 10
-451.56658600000009
 20
342.36035199999998
 30
0.0
 11
-451.56658600000009
 21
347.49745999999999
 31
0.0
  0
LINE
  5
F4E9F
  8
OBJECT
 10
-431.56658600000009
 20
341.36035199999998
 30
0.0
 11
-541.56658600000014
 21
341.36035199999998
 31
0.0
  0
LINE
  5
F4EA0
  8
OBJECT
 10
-451.56658600000009
 20
342.36035199999998
 30
0.0
 11
-521.56658600000014
 21
342.36035199999998
 31
0.0
  0
LINE
  5
F4EA1
  8
OBJECT
 10
-521.56658600000014
 20
342.36035199999998
 30
0.0
 11
-521.56658600000014
 21
347.49745999999999
 31
0.0
  0
LINE
  5
F4EA2
  8
OBJECT
 10
-431.56658600000009
 20
328.36035199999998
 30
0.0
 11
-437.56658599999997
 21
328.36035199999998
 31
0.0
  0
LINE
  5
F4EA3
  8
OBJECT
 10
-431.56658600000009
 20
347.49745999999999
 30
0.0
 11
-431.56658600000009
 21
357.49745999999999
 31
0.0
  0
LINE
  5
F4EA4
  8
OBJECT
 10
-433.56658599999997
 20
359.49745999999999
 30
0.0
 11
-539.56658600000014
 21
359.49745999999999
 31
0.0
  0
LINE
  5
F4EA5
  8
OBJECT
 10
-541.56658600000014
 20
328.36035199999998
 30
0.0
 11
-535.56658600000014
 21
328.36035199999998
 31
0.0
  0
LINE
  5
F4EA6
  8
OBJECT
 10
-541.56658600000014
 20
347.49745999999999
 30
0.0
 11
-541.56658600000014
 21
357.49745999999999
 31
0.0
  0
LINE
  5
F4EA7
  8
OBJECT
 10
-523.06658600000105
 20
370.49745999999999
 30
0.0
 11
-523.06658600000105
 21
361.49745999999999
 31
0.0
  0
ARC
  5
F4EA8
  8
OBJECT
 10
-518.06658600000014
 20
370.49745999999999
 30
0.0
 40
5.0
 50
110.487314999997
 51
180.0
  0
ARC
  5
F4EA9
  8
OBJECT
 10
-455.06658600000009
 20
370.49745999999999
 30
0.0
 40
5.0
 50
0.0
 51
69.512685000003003
  0
ARC
  5
F4EAA
  8
OBJECT
 10
-448.06658600000009
 20
361.49745999999999
 30
0.0
 40
2.0
 50
180.0
 51
270.0
  0
ARC
  5
F4EAB
  8
OBJECT
 10
-525.06658600000014
 20
361.49745999999999
 30
0.0
 40
2.0
 50
270.0
 51
0.0
  0
ARC
  5
F4EAC
  8
OBJECT
 10
-433.56658599999997
 20
357.49745999999999
 30
0.0
 40
2.0
 50
0.0
 51
90.0
  0
ARC
  5
F4EAD
  8
OBJECT
 10
-539.56658600000014
 20
357.49745999999999
 30
0.0
 40
2.0
 50
90.0
 51
180.0
  0
ARC
  5
F4EAE
  8
OBJECT
 10
-451.56658600000009
 20
379.864957
 30
0.0
 40
5.0
 50
180.0
 51
249.51268500000299
  0
ARC
  5
F4EAF
  8
OBJECT
 10
-521.56658600000014
 20
379.864957
 30
0.0
 40
5.0
 50
290.48731499999701
 51
0.0
  0
LINE
  5
F4EB0
  8
OBJECT
 10
-453.316586000001
 20
375.18120900000002
 30
0.0
 11
-519.81658600000014
 21
375.18120900000002
 31
0.0
  0
LINE
  5
F4EB1
  8
OBJECT
 10
-431.56658600000009
 20
328.36035199999998
 30
0.0
 11
-431.56658600000009
 21
341.36035199999998
 31
0.0
  0
LINE
  5
F4EB2
  8
OBJECT
 10
-541.56658600000014
 20
328.36035199999998
 30
0.0
 11
-541.56658600000014
 21
341.36035199999998
 31
0.0
  0
LINE
  5
F4EB3
  8
CENTER
 10
-441.56658599999997
 20
308.35519599999998
 30
0.0
 11
-441.56658599999997
 21
369.001238
 31
0.0
  0
LINE
  5
F4EB4
  8
OBJECT
 10
-454.45064799999989
 20
342.36035199999998
 30
0.0
 11
-453.45064800000011
 21
341.36035199999998
 31
0.0
  0
LINE
  5
F4EB5
  8
OBJECT
 10
-518.68252400000006
 20
342.36035199999998
 30
0.0
 11
-519.68252399999994
 21
341.36035199999998
 31
0.0
  0
LINE
  5
F4EB6
  8
OBJECT
 10
-527.56658600000014
 20
328.36035199999998
 30
0.0
 11
-440.35412300000002
 21
328.36035199999998
 31
0.0
  0
LINE
  5
F4EB9
  8
OBJECT
 10
-418.56658600000009
 20
552.49746000000005
 30
0.0
 11
-418.56658600000009
 21
402.49745999999999
 31
0.0
  0
LINE
  5
F4EBA
  8
OBJECT
 10
-640.17976699999986
 20
-29.919125000000001
 30
0.0
 11
-645.01470799999981
 21
-29.468859999999989
 31
0.0
  0
LINE
  5
F4EBB
  8
OBJECT
 10
-645.01470799999981
 20
-29.468859999999989
 30
0.0
 11
-649.74463600000001
 21
-28.629242999999988
 31
0.0
  0
LINE
  5
F4EBC
  8
OBJECT
 10
-649.74463600000001
 20
-28.629242999999988
 30
0.0
 11
-654.30705799999998
 21
-27.411368
 31
0.0
  0
LINE
  5
F4EBD
  8
OBJECT
 10
-654.30705799999998
 20
-27.411368
 30
0.0
 11
-658.64169400000014
 21
-25.831325
 31
0.0
  0
LINE
  5
F4EBE
  8
OBJECT
 10
-658.64169400000014
 20
-25.831325
 30
0.0
 11
-662.69127300000002
 21
-23.909991999999999
 31
0.0
  0
LINE
  5
F4EBF
  8
OBJECT
 10
-662.69127300000002
 20
-23.909991999999999
 30
0.0
 11
-666.40229099999988
 21
-21.672753
 31
0.0
  0
LINE
  5
F4EC0
  8
OBJECT
 10
-666.40229099999988
 20
-21.672753
 30
0.0
 11
-669.72571700000003
 21
-19.149166999999998
 31
0.0
  0
LINE
  5
F4EC1
  8
OBJECT
 10
-669.72571700000003
 20
-19.149166999999998
 30
0.0
 11
-672.61764100000005
 21
-16.372575999999992
 31
0.0
  0
LINE
  5
F4EC2
  8
OBJECT
 10
-672.61764100000005
 20
-16.372575999999992
 30
0.0
 11
-675.03985399999988
 21
-13.379666000000009
 31
0.0
  0
LINE
  5
F4EC3
  8
OBJECT
 10
-675.03985399999988
 20
-13.379666000000009
 30
0.0
 11
-676.96035300000028
 21
-10.20997999999997
 31
0.0
  0
LINE
  5
F4EC4
  8
OBJECT
 10
-675.03985399999988
 20
-13.379666000000009
 30
0.0
 11
-676.96035300000028
 21
-10.20997999999997
 31
0.0
  0
LINE
  5
F4EC5
  8
OBJECT
 10
-621.06406100000004
 20
20.977921999999989
 30
0.0
 11
-615.21443399999976
 21
17.407814999999999
 31
0.0
  0
LINE
  5
F4EC6
  8
OBJECT
 10
-615.21443399999976
 20
17.407814999999999
 30
0.0
 11
-610.57470499999977
 21
13.038468000000011
 31
0.0
  0
LINE
  5
F4EC7
  8
OBJECT
 10
-610.57470499999977
 20
13.038468000000011
 30
0.0
 11
-607.35789699999975
 21
8.0704900000000066
 31
0.0
  0
LINE
  5
F4EC8
  8
OBJECT
 10
-607.35789699999975
 20
8.0704900000000066
 30
0.0
 11
-605.71170300000006
 21
2.731973999999993
 31
0.0
  0
LINE
  5
F4EC9
  8
OBJECT
 10
-605.71170300000006
 20
2.731973999999993
 30
0.0
 11
-605.71170300000006
 21
-2.7319739999999779
 31
0.0
  0
LINE
  5
F4ECA
  8
OBJECT
 10
-605.71170300000006
 20
-2.7319739999999779
 30
0.0
 11
-607.35789699999975
 21
-8.0704910000000041
 31
0.0
  0
LINE
  5
F4ECB
  8
OBJECT
 10
-607.35789699999975
 20
-8.0704910000000041
 30
0.0
 11
-610.57470499999977
 21
-13.03846899999998
 31
0.0
  0
LINE
  5
F4ECC
  8
OBJECT
 10
-610.57470499999977
 20
-13.03846899999998
 30
0.0
 11
-615.21443399999976
 21
-17.407816
 31
0.0
  0
LINE
  5
F4ECD
  8
OBJECT
 10
-615.21443399999976
 20
-17.407816
 30
0.0
 11
-621.06406100000004
 21
-20.977923000000001
 31
0.0
  0
LINE
  5
F4ECE
  8
OBJECT
 10
-615.21443399999976
 20
-17.407816
 30
0.0
 11
-621.06406100000004
 21
-20.977923000000001
 31
0.0
  0
LINE
  5
F4ECF
  8
OBJECT
 10
-520.17976699999986
 20
-29.919125000000001
 30
0.0
 11
-525.01470799999993
 21
-29.468859999999989
 31
0.0
  0
LINE
  5
F4ED0
  8
OBJECT
 10
-525.01470799999993
 20
-29.468859999999989
 30
0.0
 11
-529.74463600000013
 21
-28.629242999999988
 31
0.0
  0
LINE
  5
F4ED1
  8
OBJECT
 10
-529.74463600000013
 20
-28.629242999999988
 30
0.0
 11
-534.30705799999987
 21
-27.411368
 31
0.0
  0
LINE
  5
F4ED2
  8
OBJECT
 10
-534.30705799999987
 20
-27.411368
 30
0.0
 11
-538.64169400000014
 21
-25.831325
 31
0.0
  0
LINE
  5
F4ED3
  8
OBJECT
 10
-538.64169400000014
 20
-25.831325
 30
0.0
 11
-542.69127299999968
 21
-23.909991999999999
 31
0.0
  0
LINE
  5
F4ED4
  8
OBJECT
 10
-542.69127299999968
 20
-23.909991999999999
 30
0.0
 11
-546.40229099999965
 21
-21.672753
 31
0.0
  0
LINE
  5
F4ED5
  8
OBJECT
 10
-546.40229099999965
 20
-21.672753
 30
0.0
 11
-549.72571700000003
 21
-19.149166999999998
 31
0.0
  0
LINE
  5
F4ED6
  8
OBJECT
 10
-549.72571700000003
 20
-19.149166999999998
 30
0.0
 11
-552.61764100000005
 21
-16.372575999999992
 31
0.0
  0
LINE
  5
F4ED7
  8
OBJECT
 10
-552.61764100000005
 20
-16.372575999999992
 30
0.0
 11
-555.0398540000001
 21
-13.379666000000009
 31
0.0
  0
LINE
  5
F4ED8
  8
OBJECT
 10
-555.0398540000001
 20
-13.379666000000009
 30
0.0
 11
-556.96035300000005
 21
-10.20997999999997
 31
0.0
  0
LINE
  5
F4ED9
  8
OBJECT
 10
-555.0398540000001
 20
-13.379666000000009
 30
0.0
 11
-556.96035300000005
 21
-10.20997999999997
 31
0.0
  0
LINE
  5
F4EDA
  8
OBJECT
 10
-501.06406099999998
 20
20.977921999999989
 30
0.0
 11
-495.21443399999998
 21
17.407814999999999
 31
0.0
  0
LINE
  5
F4EDB
  8
OBJECT
 10
-495.21443399999998
 20
17.407814999999999
 30
0.0
 11
-490.57470499999999
 21
13.038468000000011
 31
0.0
  0
LINE
  5
F4EDC
  8
OBJECT
 10
-490.57470499999999
 20
13.038468000000011
 30
0.0
 11
-487.35789700000009
 21
8.0704900000000066
 31
0.0
  0
LINE
  5
F4EDD
  8
OBJECT
 10
-487.35789700000009
 20
8.0704900000000066
 30
0.0
 11
-485.71170299999989
 21
2.731973999999993
 31
0.0
  0
LINE
  5
F4EDE
  8
OBJECT
 10
-485.71170299999989
 20
2.731973999999993
 30
0.0
 11
-485.71170299999989
 21
-2.7319739999999779
 31
0.0
  0
LINE
  5
F4EDF
  8
OBJECT
 10
-485.71170299999989
 20
-2.7319739999999779
 30
0.0
 11
-487.35789700000009
 21
-8.0704910000000041
 31
0.0
  0
LINE
  5
F4EE0
  8
OBJECT
 10
-487.35789700000009
 20
-8.0704910000000041
 30
0.0
 11
-490.57470499999999
 21
-13.03846899999998
 31
0.0
  0
LINE
  5
F4EE1
  8
OBJECT
 10
-490.57470499999999
 20
-13.03846899999998
 30
0.0
 11
-495.21443399999998
 21
-17.407816
 31
0.0
  0
LINE
  5
F4EE2
  8
OBJECT
 10
-495.21443399999998
 20
-17.407816
 30
0.0
 11
-501.06406099999998
 21
-20.977923000000001
 31
0.0
  0
LINE
  5
F4EE3
  8
OBJECT
 10
-495.21443399999998
 20
-17.407816
 30
0.0
 11
-501.06406099999998
 21
-20.977923000000001
 31
0.0
  0
LINE
  5
F4EE4
  8
CENTER
 10
0.0
 20
-79.195427999999978
 30
0.0
 11
0.0
 21
83.551644999999979
 31
0.0
  0
LINE
  5
F4EE5
  8
CENTER
 10
94.012834999999995
 20
0.0
 30
0.0
 11
-173.27785200000011
 21
0.0
 31
0.0
  0
LINE
  5
F4EE8
  8
OBJECT
 10
-37.5
 20
55.0
 30
0.0
 11
-28.618175999999949
 21
55.0
 31
0.0
  0
LINE
  5
F4EE9
  8
OBJECT
 10
-37.5
 20
55.0
 30
0.0
 11
-37.807174000000032
 21
49.138758000000003
 31
0.0
  0
LINE
  5
F4EEA
  8
OBJECT
 10
37.5
 20
55.0
 30
0.0
 11
37.80717500000015
 21
49.138758000000003
 31
0.0
  0
LINE
  5
F4EEB
  8
OBJECT
 10
28.618175999999949
 20
55.0
 30
0.0
 11
37.5
 21
55.0
 31
0.0
  0
LINE
  5
F4EEC
  8
OBJECT
 10
-37.5
 20
55.0
 30
0.0
 11
-28.618175999999949
 21
55.0
 31
0.0
  0
LINE
  5
F4EF0
  8
OBJECT
 10
28.618175999999949
 20
55.0
 30
0.0
 11
37.5
 21
55.0
 31
0.0
  0
LINE
  5
F4EF1
  8
OBJECT
 10
37.5
 20
58.0
 30
0.0
 11
37.5
 21
55.0
 31
0.0
  0
LINE
  5
F4EF2
  8
OBJECT
 10
-37.5
 20
55.0
 30
0.0
 11
-28.618175999999949
 21
55.0
 31
0.0
  0
LINE
  5
F4EF3
  8
OBJECT
 10
-37.5
 20
55.0
 30
0.0
 11
-37.5
 21
58.0
 31
0.0
  0
LINE
  5
F4EF4
  8
OBJECT
 10
-37.5
 20
58.0
 30
0.0
 11
-21.908902000000118
 21
58.0
 31
0.0
  0
LINE
  5
F4EF5
  8
OBJECT
 10
21.908903000000009
 20
58.0
 30
0.0
 11
37.5
 21
58.0
 31
0.0
  0
LINE
  5
F4EF6
  8
OBJECT
 10
28.618175999999949
 20
55.0
 30
0.0
 11
37.5
 21
55.0
 31
0.0
  0
ARC
  5
F4EF7
  8
OBJECT
 10
-63.0
 20
0.0
 30
0.0
 40
12.0
 50
217.47199499999999
 51
277.3995539999965
  0
LINE
  5
F4EF8
  8
OBJECT
 10
-49.206349000000039
 20
37.719162000000011
 30
0.0
 11
-72.523809000000028
 21
7.3004829999999989
 31
0.0
  0
ARC
  5
F4EF9
  8
CENTER
 10
0.0
 20
0.0
 30
0.0
 40
63.0
 50
171.34806099999909
 51
189.33130099999951
  0
LINE
  5
F4EFA
  8
OBJECT
 10
-49.206349000000039
 20
-37.719161999999997
 30
0.0
 11
-72.523809000000028
 21
-7.3004829999999714
 31
0.0
  0
LINE
  5
F4EFB
  8
OBJECT
 10
49.206350000000143
 20
37.719162000000011
 30
0.0
 11
72.523810000000125
 21
7.3004829999999989
 31
0.0
  0
ARC
  5
F4EFC
  8
OBJECT
 10
0.0
 20
0.0
 30
0.0
 40
62.0
 50
284.59255100000303
 51
322.52800500000012
  0
ARC
  5
F4EFD
  8
OBJECT
 10
-63.0
 20
0.0
 30
0.0
 40
12.0
 50
142.52800500000009
 51
217.47199499999999
  0
ARC
  5
F4EFE
  8
OBJECT
 10
0.0
 20
0.0
 30
0.0
 40
62.0
 50
104.5925510000029
 51
142.52800500000009
  0
LINE
  5
F4EFF
  8
OBJECT
 10
49.206350000000143
 20
-37.719161999999997
 30
0.0
 11
72.523810000000125
 21
-7.3004829999999714
 31
0.0
  0
ARC
  5
F4F00
  8
OBJECT
 10
0.0
 20
0.0
 30
0.0
 40
54.0
 50
19.930942999999171
 51
160.06905700000081
  0
ARC
  5
F4F01
  8
OBJECT
 10
-63.0
 20
0.0
 30
0.0
 40
12.0
 50
82.600446000003501
 51
142.52800500000009
  0
ARC
  5
F4F02
  8
OBJECT
 10
63.0
 20
0.0
 30
0.0
 40
12.0
 50
262.6004460000035
 51
322.52800500000012
  0
ARC
  5
F4F03
  8
CENTER
 10
0.0
 20
0.0
 30
0.0
 40
63.0
 50
350.44510499999939
 51
9.2262579999993743
  0
ARC
  5
F4F04
  8
OBJECT
 10
63.0
 20
0.0
 30
0.0
 40
12.0
 50
37.471994999999879
 51
97.399553999996513
  0
ARC
  5
F4F05
  8
OBJECT
 10
63.0
 20
0.0
 30
0.0
 40
12.0
 50
322.52800500000012
 51
37.471994999999879
  0
ARC
  5
F4F06
  8
OBJECT
 10
0.0
 20
0.0
 30
0.0
 40
54.0
 50
199.93094299999919
 51
340.06905700000078
  0
ARC
  5
F4F07
  8
OBJECT
 10
60.166666999999961
 20
-21.816787999999999
 30
0.0
 40
10.0
 50
82.600446000003501
 51
160.06905700000081
  0
ARC
  5
F4F08
  8
OBJECT
 10
-60.16666599999985
 20
-21.816787999999999
 30
0.0
 40
10.0
 50
19.930942999999171
 51
97.399553999996513
  0
ARC
  5
F4F09
  8
OBJECT
 10
-60.16666599999985
 20
21.816787000000001
 30
0.0
 40
10.0
 50
262.6004460000035
 51
340.06905700000078
  0
ARC
  5
F4F0A
  8
OBJECT
 10
60.166666999999961
 20
21.816787000000001
 30
0.0
 40
10.0
 50
199.93094299999919
 51
277.3995539999965
  0
LINE
  5
F4F0B
  8
OBJECT
 10
-130.0
 20
-44.999999999999993
 30
0.0
 11
-130.0
 21
45.0
 31
0.0
  0
LINE
  5
F4F0C
  8
OBJECT
 10
-97.632503000000042
 20
30.0
 30
0.0
 11
-55.12347799999997
 21
30.0
 31
0.0
  0
LINE
  5
F4F0D
  8
OBJECT
 10
-97.632503000000042
 20
-30.0
 30
0.0
 11
-55.12347799999997
 21
-30.0
 31
0.0
  0
LINE
  5
F4F0E
  8
OBJECT
 10
-102.3162509999998
 20
33.25
 30
0.0
 11
-102.3162509999998
 21
-33.249999999999993
 31
0.0
  0
LINE
  5
F4F0F
  8
OBJECT
 10
-122.0
 20
42.999999999999993
 30
0.0
 11
-122.0
 21
18.944272000000002
 31
0.0
  0
LINE
  5
F4F10
  8
OBJECT
 10
-130.0
 20
-44.999999999999993
 30
0.0
 11
-124.0
 21
-44.999999999999993
 31
0.0
  0
LINE
  5
F4F11
  8
OBJECT
 10
-130.0
 20
45.0
 30
0.0
 11
-124.0
 21
45.0
 31
0.0
  0
ARC
  5
F4F12
  8
OBJECT
 10
-118.0
 20
-40.499999999999979
 30
0.0
 40
4.0
 50
90.0
 51
180.0
  0
ARC
  5
F4F13
  8
OBJECT
 10
-118.0
 20
40.499999999999993
 30
0.0
 40
4.0
 50
180.0
 51
270.0
  0
LINE
  5
F4F14
  8
OBJECT
 10
-107.0
 20
-36.499999999999993
 30
0.0
 11
-118.0
 21
-36.499999999999993
 31
0.0
  0
LINE
  5
F4F15
  8
OBJECT
 10
-107.0
 20
36.5
 30
0.0
 11
-118.0
 21
36.5
 31
0.0
  0
ARC
  5
F4F16
  8
OBJECT
 10
-124.0
 20
-42.999999999999979
 30
0.0
 40
2.0
 50
270.0
 51
0.0
  0
ARC
  5
F4F17
  8
OBJECT
 10
-124.0
 20
42.999999999999993
 30
0.0
 40
2.0
 50
0.0
 51
90.0
  0
ARC
  5
F4F18
  8
OBJECT
 10
-107.0
 20
31.5
 30
0.0
 40
5.0
 50
20.487315000001491
 51
90.0
  0
ARC
  5
F4F19
  8
OBJECT
 10
-97.632503000000042
 20
35.0
 30
0.0
 40
5.0
 50
200.4873150000015
 51
270.0
  0
ARC
  5
F4F1A
  8
OBJECT
 10
-107.0
 20
-31.499999999999989
 30
0.0
 40
5.0
 50
270.0
 51
339.51268499999861
  0
ARC
  5
F4F1B
  8
OBJECT
 10
-97.632503000000042
 20
-35.0
 30
0.0
 40
5.0
 50
90.0
 51
159.5126849999985
  0
LINE
  5
F4F1C
  8
OBJECT
 10
-122.0
 20
-42.999999999999979
 30
0.0
 11
-122.0
 21
-18.944272000000002
 31
0.0
  0
LINE
  5
F4F1D
  8
OBJECT
 10
-135.1371079999999
 20
-35.0
 30
0.0
 11
-130.0
 21
-35.0
 31
0.0
  0
LINE
  5
F4F1E
  8
OBJECT
 10
-136.1371079999999
 20
45.0
 30
0.0
 11
-136.1371079999999
 21
-44.999999999999993
 31
0.0
  0
LINE
  5
F4F1F
  8
OBJECT
 10
-135.1371079999999
 20
-35.0
 30
0.0
 11
-135.1371079999999
 21
-4.0
 31
0.0
  0
LINE
  5
F4F20
  8
OBJECT
 10
-135.1371079999999
 20
35.0
 30
0.0
 11
-130.0
 21
35.0
 31
0.0
  0
LINE
  5
F4F21
  8
OBJECT
 10
-135.1371079999999
 20
-32.115938
 30
0.0
 11
-136.1371079999999
 21
-33.115938
 31
0.0
  0
LINE
  5
F4F22
  8
OBJECT
 10
-135.1371079999999
 20
32.115938
 30
0.0
 11
-136.1371079999999
 21
33.115938
 31
0.0
  0
LINE
  5
F4F23
  8
OBJECT
 10
-149.1371079999999
 20
-44.999999999999993
 30
0.0
 11
-149.1371079999999
 21
45.0
 31
0.0
  0
LINE
  5
F4F25
  8
OBJECT
 10
-136.1371079999999
 20
45.0
 30
0.0
 11
-149.1371079999999
 21
45.0
 31
0.0
  0
LINE
  5
F4F26
  8
OBJECT
 10
-136.1371079999999
 20
-44.999999999999993
 30
0.0
 11
-149.1371079999999
 21
-44.999999999999993
 31
0.0
  0
LINE
  5
F4F28
  8
OBJECT
 10
-118.0
 20
-9.9999999999999716
 30
0.0
 11
-118.0
 21
10.0
 31
0.0
  0
ARC
  5
F4F29
  8
OBJECT
 10
-110.0
 20
-18.944272000000002
 30
0.0
 40
12.0
 50
131.81031500000421
 51
180.0
  0
ARC
  5
F4F2A
  8
OBJECT
 10
-110.0
 20
18.944272000000002
 30
0.0
 40
12.0
 50
180.0
 51
228.18968499999571
  0
LINE
  5
F4F2B
  8
OBJECT
 10
-135.1371079999999
 20
4.0
 30
0.0
 11
-135.1371079999999
 21
35.0
 31
0.0
  0
LINE
  5
F4F34
  8
CENTER
 10
-632.30424800000003
 20
449.99745999999988
 30
0.0
 11
-650.82494400000007
 21
449.99745999999988
 31
0.0
  0
LINE
  5
F4F35
  8
OBJECT
 10
-450.06658599999997
 20
370.49745999999999
 30
0.0
 11
-450.06658599999997
 21
361.49745999999999
 31
0.0
  0
LINE
  5
F4F36
  8
OBJECT
 10
-556.96035300000005
 20
10.209979000000001
 30
0.0
 11
-555.0398540000001
 21
13.379666000000009
 31
0.0
  0
LINE
  5
F4F37
  8
OBJECT
 10
-555.0398540000001
 20
13.379666000000009
 30
0.0
 11
-552.61764100000005
 21
16.372575000000001
 31
0.0
  0
LINE
  5
F4F38
  8
OBJECT
 10
-552.61764100000005
 20
16.372575000000001
 30
0.0
 11
-549.72571700000003
 21
19.149166000000012
 31
0.0
  0
LINE
  5
F4F39
  8
OBJECT
 10
-549.72571700000003
 20
19.149166000000012
 30
0.0
 11
-546.40229099999965
 21
21.672751999999999
 31
0.0
  0
LINE
  5
F4F3A
  8
OBJECT
 10
-546.40229099999965
 20
21.672751999999999
 30
0.0
 11
-542.69127299999968
 21
23.909991000000009
 31
0.0
  0
LINE
  5
F4F3B
  8
OBJECT
 10
-542.69127299999968
 20
23.909991000000009
 30
0.0
 11
-538.64169400000014
 21
25.831325
 31
0.0
  0
LINE
  5
F4F3C
  8
OBJECT
 10
-538.64169400000014
 20
25.831325
 30
0.0
 11
-534.30705799999987
 21
27.411367000000009
 31
0.0
  0
LINE
  5
F4F3D
  8
OBJECT
 10
-534.30705799999987
 20
27.411367000000009
 30
0.0
 11
-529.74463600000013
 21
28.629242000000009
 31
0.0
  0
LINE
  5
F4F3E
  8
OBJECT
 10
-529.74463600000013
 20
28.629242000000009
 30
0.0
 11
-525.01470799999993
 21
29.468858999999998
 31
0.0
  0
LINE
  5
F4F3F
  8
OBJECT
 10
-525.01470799999993
 20
29.468858999999998
 30
0.0
 11
-520.17976699999986
 21
29.919125000000001
 31
0.0
  0
LINE
  5
F4F40
  8
OBJECT
 10
-525.01470799999993
 20
29.468858999999998
 30
0.0
 11
-520.17976699999986
 21
29.919125000000001
 31
0.0
  0
LINE
  5
F4F42
  8
CENTER
 10
-521.56658600000014
 20
435.011641
 30
0.0
 11
-521.56658600000014
 21
519.46601599999985
 31
0.0
  0
LINE
  5
F4F45
  8
CENTER
 10
-512.30424799999992
 20
504.99745999999959
 30
0.0
 11
-530.82494399999985
 21
504.99745999999959
 31
0.0
  0
POINT
  5
F4F49
  8
OBJECT
 10
-486.56658599999997
 20
372.49745999999999
 30
0.0
  0
LINE
  5
F4F4B
  8
OBJECT
 10
-496.56658599999997
 20
55.0
 30
0.0
 11
-496.56658599999997
 21
49.499999999999993
 31
0.0
  0
LINE
  5
F4F4C
  8
OBJECT
 10
-546.56658600000014
 20
55.0
 30
0.0
 11
-546.56658600000014
 21
49.499999999999993
 31
0.0
  0
LINE
  5
F4F4D
  8
OBJECT
 10
-543.9659979999999
 20
55.0
 30
0.0
 11
-496.56658599999997
 21
55.0
 31
0.0
  0
ARC
  5
F4F4E
  8
OBJECT
 10
-491.56658599999997
 20
49.499999999999993
 30
0.0
 40
5.0
 50
180.0
 51
270.0
  0
ARC
  5
F4F4F
  8
OBJECT
 10
-551.56658600000014
 20
49.499999999999993
 30
0.0
 40
5.0
 50
270.0
 51
0.0
  0
LINE
  5
F4F53
  8
OBJECT
 10
-551.56658600000014
 20
44.499999999999993
 30
0.0
 11
-611.56658600000003
 21
44.499999999999993
 31
0.0
  0
LINE
  5
F4F54
  8
OBJECT
 10
-418.56658600000009
 20
-60.0
 30
0.0
 11
-428.56658599999997
 21
-60.0
 31
0.0
  0
LINE
  5
F4F55
  8
OBJECT
 10
-397.21710800000011
 20
-60.0
 30
0.0
 11
-412.217108
 21
-60.0
 31
0.0
  0
LINE
  5
F4F56
  8
OBJECT
 10
-617.37890699999969
 20
-44.499999999999979
 30
0.0
 11
-874.56658599999992
 21
-44.499999999999979
 31
0.0
  0
LINE
  5
F4F57
  8
OBJECT
 10
-15.62049899999988
 20
60.0
 30
0.0
 11
15.620499999999989
 21
60.0
 31
0.0
  0
LINE
  5
F4F58
  8
OBJECT
 10
15.620499999999989
 20
-60.0
 30
0.0
 11
-15.62049899999988
 21
-60.0
 31
0.0
  0
ARC
  5
F4F59
  8
OBJECT
 10
0.0
 20
0.0
 30
0.0
 40
62.0
 50
37.471994999999879
 51
75.407448999997015
  0
ARC
  5
F4F5A
  8
OBJECT
 10
0.0
 20
0.0
 30
0.0
 40
62.0
 50
217.47199499999999
 51
255.40744899999709
  0
LINE
  5
F4F5B
  8
OBJECT
 10
-418.56658600000009
 20
60.0
 30
0.0
 11
-428.56658599999997
 21
60.0
 31
0.0
  0
LINE
  5
F4F5C
  8
OBJECT
 10
-397.21710800000011
 20
60.0
 30
0.0
 11
-412.217108
 21
60.0
 31
0.0
  0
LINE
  5
F4F5F
  8
CENTER
 10
-470.331684
 20
477.49745999999999
 30
0.0
 11
-452.82653399999992
 21
477.49745999999999
 31
0.0
  0
LINE
  5
F4F60
  8
CENTER
 10
-488.66273099999972
 20
477.49745999999999
 30
0.0
 11
-891.17437099999995
 21
477.49745999999999
 31
0.0
  0
LINE
  5
F4F63
  8
CENTER
 10
-371.650983
 20
414.49745999999999
 30
0.0
 11
-447.09195199999988
 21
414.49745999999999
 31
0.0
  0
LINE
  5
F4F65
  8
OBJECT
 10
-448.06658600000009
 20
359.49745999999999
 30
0.0
 11
-448.06658600000009
 21
364.49745999999999
 31
0.0
  0
LINE
  5
F4F66
  8
OBJECT
 10
-448.06658600000009
 20
359.49745999999999
 30
0.0
 11
-435.06658600000009
 21
359.49745999999999
 31
0.0
  0
LINE
  5
F4F67
  8
OBJECT
 10
-445.56658599999997
 20
315.17404299999998
 30
0.0
 11
-445.56658599999997
 21
321.56035200000002
 31
0.0
  0
LINE
  5
F4F68
  8
OBJECT
 10
-445.56658599999997
 20
315.17404299999998
 30
0.0
 11
-444.89000299999992
 21
314.49745999999999
 31
0.0
  0
LINE
  5
F4F69
  8
OBJECT
 10
-444.89000299999992
 20
314.49745999999999
 30
0.0
 11
-438.2431679999998
 21
314.49745999999999
 31
0.0
  0
LINE
  5
F4F6A
  8
OBJECT
 10
-438.2431679999998
 20
314.49745999999999
 30
0.0
 11
-437.56658599999997
 21
315.17404299999998
 31
0.0
  0
LINE
  5
F4F6B
  8
OBJECT
 10
-437.56658599999997
 20
315.17404299999998
 30
0.0
 11
-437.56658599999997
 21
321.56035200000002
 31
0.0
  0
LINE
  5
F4F6C
  8
OBJECT
 10
-437.56658599999997
 20
342.49745999999999
 30
0.0
 11
-445.56658599999997
 21
342.49745999999999
 31
0.0
  0
LINE
  5
F4F6D
  8
OBJECT
 10
-437.56658599999997
 20
315.17404299999998
 30
0.0
 11
-445.56658599999997
 21
315.17404299999998
 31
0.0
  0
LINE
  5
F4F6E
  8
OBJECT
 10
-438.2431679999998
 20
314.49745999999999
 30
0.0
 11
-438.2431679999998
 21
321.56035200000002
 31
0.0
  0
LINE
  5
F4F6F
  8
OBJECT
 10
-444.89000299999992
 20
314.49745999999999
 30
0.0
 11
-444.89000299999992
 21
321.56035200000002
 31
0.0
  0
LINE
  5
F4F70
  8
OBJECT
 10
-437.56658599999997
 20
343.66933599999999
 30
0.0
 11
-438.2431679999998
 21
342.49745999999999
 31
0.0
  0
LINE
  5
F4F71
  8
OBJECT
 10
-445.56658599999997
 20
343.66933599999999
 30
0.0
 11
-444.89000299999992
 21
342.49745999999999
 31
0.0
  0
LINE
  5
F4F72
  8
OBJECT
 10
-448.06658600000009
 20
364.49745999999999
 30
0.0
 11
-435.06658600000009
 21
364.49745999999999
 31
0.0
  0
LINE
  5
F4F73
  8
OBJECT
 10
-435.06658600000009
 20
359.49745999999999
 30
0.0
 11
-435.06658600000009
 21
364.49745999999999
 31
0.0
  0
LINE
  5
F4F74
  8
OBJECT
 10
-445.56658599999997
 20
341.36035199999998
 30
0.0
 11
-445.56658599999997
 21
347.49745999999999
 31
0.0
  0
LINE
  5
F4F75
  8
OBJECT
 10
-444.89000299999992
 20
341.36035199999998
 30
0.0
 11
-444.89000299999992
 21
342.49745999999999
 31
0.0
  0
LINE
  5
F4F76
  8
OBJECT
 10
-438.2431679999998
 20
341.36035199999998
 30
0.0
 11
-438.2431679999998
 21
342.49745999999999
 31
0.0
  0
LINE
  5
F4F77
  8
OBJECT
 10
-437.56658599999997
 20
341.36035199999998
 30
0.0
 11
-437.56658599999997
 21
347.49745999999999
 31
0.0
  0
LINE
  5
F4F78
  8
OBJECT
 10
-527.56658600000014
 20
341.36035199999998
 30
0.0
 11
-527.56658600000014
 21
347.49745999999999
 31
0.0
  0
LINE
  5
F4F79
  8
OBJECT
 10
-528.24316799999997
 20
341.36035199999998
 30
0.0
 11
-528.24316799999997
 21
342.49745999999999
 31
0.0
  0
LINE
  5
F4F7A
  8
OBJECT
 10
-534.89000299999998
 20
341.36035199999998
 30
0.0
 11
-534.89000299999998
 21
342.49745999999999
 31
0.0
  0
LINE
  5
F4F7B
  8
OBJECT
 10
-535.56658600000014
 20
341.36035199999998
 30
0.0
 11
-535.56658600000014
 21
347.49745999999999
 31
0.0
  0
LINE
  5
F4F7C
  8
OBJECT
 10
-525.06658600000014
 20
359.49745999999999
 30
0.0
 11
-525.06658600000014
 21
364.49745999999999
 31
0.0
  0
LINE
  5
F4F7D
  8
OBJECT
 10
-538.06658600000014
 20
359.49745999999999
 30
0.0
 11
-538.06658600000014
 21
364.49745999999999
 31
0.0
  0
LINE
  5
F4F7E
  8
OBJECT
 10
-525.06658600000014
 20
359.49745999999999
 30
0.0
 11
-538.06658600000014
 21
359.49745999999999
 31
0.0
  0
LINE
  5
F4F7F
  8
OBJECT
 10
-527.56658600000014
 20
315.17404299999998
 30
0.0
 11
-527.56658600000014
 21
321.56035200000002
 31
0.0
  0
LINE
  5
F4F80
  8
OBJECT
 10
-527.56658600000014
 20
315.17404299999998
 30
0.0
 11
-528.24316799999997
 21
314.49745999999999
 31
0.0
  0
LINE
  5
F4F81
  8
OBJECT
 10
-528.24316799999997
 20
314.49745999999999
 30
0.0
 11
-534.89000299999998
 21
314.49745999999999
 31
0.0
  0
LINE
  5
F4F82
  8
OBJECT
 10
-534.89000299999998
 20
314.49745999999999
 30
0.0
 11
-535.56658600000014
 21
315.17404299999998
 31
0.0
  0
LINE
  5
F4F83
  8
OBJECT
 10
-535.56658600000014
 20
315.17404299999998
 30
0.0
 11
-535.56658600000014
 21
321.56035200000002
 31
0.0
  0
LINE
  5
F4F84
  8
OBJECT
 10
-535.56658600000014
 20
342.49745999999999
 30
0.0
 11
-527.56658600000014
 21
342.49745999999999
 31
0.0
  0
LINE
  5
F4F85
  8
OBJECT
 10
-535.56658600000014
 20
315.17404299999998
 30
0.0
 11
-527.56658600000014
 21
315.17404299999998
 31
0.0
  0
LINE
  5
F4F86
  8
OBJECT
 10
-534.89000299999998
 20
314.49745999999999
 30
0.0
 11
-534.89000299999998
 21
321.56035200000002
 31
0.0
  0
LINE
  5
F4F87
  8
OBJECT
 10
-528.24316799999997
 20
314.49745999999999
 30
0.0
 11
-528.24316799999997
 21
321.56035200000002
 31
0.0
  0
LINE
  5
F4F88
  8
OBJECT
 10
-535.56658600000014
 20
343.66933599999999
 30
0.0
 11
-534.89000299999998
 21
342.49745999999999
 31
0.0
  0
LINE
  5
F4F89
  8
OBJECT
 10
-527.56658600000014
 20
343.66933599999999
 30
0.0
 11
-528.24316799999997
 21
342.49745999999999
 31
0.0
  0
LINE
  5
F4F8A
  8
OBJECT
 10
-525.06658600000014
 20
364.49745999999999
 30
0.0
 11
-538.06658600000014
 21
364.49745999999999
 31
0.0
  0
LINE
  5
F4F8B
  8
CENTER
 10
-531.56658600000014
 20
308.35519599999998
 30
0.0
 11
-531.56658600000014
 21
369.001238
 31
0.0
  0
LINE
  5
F4F8C
  8
OBJECT
 10
-647.56658600000026
 20
341.36035199999998
 30
0.0
 11
-647.56658600000026
 21
347.49745999999999
 31
0.0
  0
LINE
  5
F4F8D
  8
OBJECT
 10
-648.24316799999986
 20
341.36035199999998
 30
0.0
 11
-648.24316799999986
 21
342.49745999999999
 31
0.0
  0
LINE
  5
F4F8E
  8
OBJECT
 10
-654.89000299999975
 20
341.36035199999998
 30
0.0
 11
-654.89000299999975
 21
342.49745999999999
 31
0.0
  0
LINE
  5
F4F8F
  8
OBJECT
 10
-655.56658600000026
 20
341.36035199999998
 30
0.0
 11
-655.56658600000026
 21
347.49745999999999
 31
0.0
  0
LINE
  5
F4F90
  8
OBJECT
 10
-645.06658600000003
 20
359.49745999999999
 30
0.0
 11
-645.06658600000003
 21
364.49745999999999
 31
0.0
  0
LINE
  5
F4F91
  8
OBJECT
 10
-658.06658600000003
 20
359.49745999999999
 30
0.0
 11
-658.06658600000003
 21
364.49745999999999
 31
0.0
  0
LINE
  5
F4F92
  8
OBJECT
 10
-645.06658600000003
 20
359.49745999999999
 30
0.0
 11
-658.06658600000003
 21
359.49745999999999
 31
0.0
  0
LINE
  5
F4F93
  8
OBJECT
 10
-647.56658600000026
 20
315.17404299999998
 30
0.0
 11
-647.56658600000026
 21
321.56035200000002
 31
0.0
  0
LINE
  5
F4F94
  8
OBJECT
 10
-647.56658600000026
 20
315.17404299999998
 30
0.0
 11
-648.24316799999986
 21
314.49745999999999
 31
0.0
  0
LINE
  5
F4F95
  8
OBJECT
 10
-648.24316799999986
 20
314.49745999999999
 30
0.0
 11
-654.89000299999975
 21
314.49745999999999
 31
0.0
  0
LINE
  5
F4F96
  8
OBJECT
 10
-654.89000299999975
 20
314.49745999999999
 30
0.0
 11
-655.56658600000026
 21
315.17404299999998
 31
0.0
  0
LINE
  5
F4F97
  8
OBJECT
 10
-655.56658600000026
 20
315.17404299999998
 30
0.0
 11
-655.56658600000026
 21
321.56035200000002
 31
0.0
  0
LINE
  5
F4F98
  8
OBJECT
 10
-655.56658600000026
 20
342.49745999999999
 30
0.0
 11
-647.56658600000026
 21
342.49745999999999
 31
0.0
  0
LINE
  5
F4F99
  8
OBJECT
 10
-655.56658600000026
 20
315.17404299999998
 30
0.0
 11
-647.56658600000026
 21
315.17404299999998
 31
0.0
  0
LINE
  5
F4F9A
  8
OBJECT
 10
-654.89000299999975
 20
314.49745999999999
 30
0.0
 11
-654.89000299999975
 21
321.56035200000002
 31
0.0
  0
LINE
  5
F4F9B
  8
OBJECT
 10
-648.24316799999986
 20
314.49745999999999
 30
0.0
 11
-648.24316799999986
 21
321.56035200000002
 31
0.0
  0
LINE
  5
F4F9C
  8
OBJECT
 10
-655.56658600000026
 20
343.66933599999999
 30
0.0
 11
-654.89000299999975
 21
342.49745999999999
 31
0.0
  0
LINE
  5
F4F9D
  8
OBJECT
 10
-647.56658600000026
 20
343.66933599999999
 30
0.0
 11
-648.24316799999986
 21
342.49745999999999
 31
0.0
  0
LINE
  5
F4F9E
  8
OBJECT
 10
-645.06658600000003
 20
364.49745999999999
 30
0.0
 11
-658.06658600000003
 21
364.49745999999999
 31
0.0
  0
LINE
  5
F4F9F
  8
CENTER
 10
-651.56658600000003
 20
308.35519599999998
 30
0.0
 11
-651.56658600000003
 21
369.001238
 31
0.0
  0
LINE
  5
F4FA0
  8
CENTER
 10
-561.56658600000014
 20
308.35519599999998
 30
0.0
 11
-561.56658600000014
 21
369.001238
 31
0.0
  0
LINE
  5
F4FA1
  8
OBJECT
 10
-565.56658600000014
 20
341.36035199999998
 30
0.0
 11
-565.56658600000014
 21
347.49745999999999
 31
0.0
  0
LINE
  5
F4FA2
  8
OBJECT
 10
-564.89000299999998
 20
341.36035199999998
 30
0.0
 11
-564.89000299999998
 21
342.49745999999999
 31
0.0
  0
LINE
  5
F4FA3
  8
OBJECT
 10
-558.24316799999997
 20
341.36035199999998
 30
0.0
 11
-558.24316799999997
 21
342.49745999999999
 31
0.0
  0
LINE
  5
F4FA4
  8
OBJECT
 10
-557.56658600000014
 20
341.36035199999998
 30
0.0
 11
-557.56658600000014
 21
347.49745999999999
 31
0.0
  0
LINE
  5
F4FA5
  8
OBJECT
 10
-568.06658600000014
 20
359.49745999999999
 30
0.0
 11
-568.06658600000014
 21
364.49745999999999
 31
0.0
  0
LINE
  5
F4FA6
  8
OBJECT
 10
-555.06658600000105
 20
359.49745999999999
 30
0.0
 11
-555.06658600000105
 21
364.49745999999999
 31
0.0
  0
LINE
  5
F4FA7
  8
OBJECT
 10
-568.06658600000014
 20
359.49745999999999
 30
0.0
 11
-555.06658600000105
 21
359.49745999999999
 31
0.0
  0
LINE
  5
F4FA8
  8
OBJECT
 10
-565.56658600000014
 20
315.17404299999998
 30
0.0
 11
-565.56658600000014
 21
321.56035200000002
 31
0.0
  0
LINE
  5
F4FA9
  8
OBJECT
 10
-565.56658600000014
 20
315.17404299999998
 30
0.0
 11
-564.89000299999998
 21
314.49745999999999
 31
0.0
  0
LINE
  5
F4FAA
  8
OBJECT
 10
-564.89000299999998
 20
314.49745999999999
 30
0.0
 11
-558.24316799999997
 21
314.49745999999999
 31
0.0
  0
LINE
  5
F4FAB
  8
OBJECT
 10
-558.24316799999997
 20
314.49745999999999
 30
0.0
 11
-557.56658600000014
 21
315.17404299999998
 31
0.0
  0
LINE
  5
F4FAC
  8
OBJECT
 10
-557.56658600000014
 20
315.17404299999998
 30
0.0
 11
-557.56658600000014
 21
321.56035200000002
 31
0.0
  0
LINE
  5
F4FAD
  8
OBJECT
 10
-557.56658600000014
 20
342.49745999999999
 30
0.0
 11
-565.56658600000014
 21
342.49745999999999
 31
0.0
  0
LINE
  5
F4FAE
  8
OBJECT
 10
-557.56658600000014
 20
315.17404299999998
 30
0.0
 11
-565.56658600000014
 21
315.17404299999998
 31
0.0
  0
LINE
  5
F4FAF
  8
OBJECT
 10
-558.24316799999997
 20
314.49745999999999
 30
0.0
 11
-558.24316799999997
 21
321.56035200000002
 31
0.0
  0
LINE
  5
F4FB0
  8
OBJECT
 10
-564.89000299999998
 20
314.49745999999999
 30
0.0
 11
-564.89000299999998
 21
321.56035200000002
 31
0.0
  0
LINE
  5
F4FB1
  8
OBJECT
 10
-557.56658600000014
 20
343.66933599999999
 30
0.0
 11
-558.24316799999997
 21
342.49745999999999
 31
0.0
  0
LINE
  5
F4FB2
  8
OBJECT
 10
-565.56658600000014
 20
343.66933599999999
 30
0.0
 11
-564.89000299999998
 21
342.49745999999999
 31
0.0
  0
LINE
  5
F4FB3
  8
OBJECT
 10
-568.06658600000014
 20
364.49745999999999
 30
0.0
 11
-555.06658600000105
 21
364.49745999999999
 31
0.0
  0
LINE
  5
F4FB4
  8
OBJECT
 10
16.5
 20
-60.0
 30
0.0
 11
16.487815000000179
 21
-59.767482999999977
 31
0.0
  0
LINE
  5
F4FB5
  8
CENTER
 10
26.5
 20
-34.245056999999989
 30
0.0
 11
26.5
 21
-71.58278
 31
0.0
  0
ARC
  5
F4FB6
  8
OBJECT
 10
-535.84932299999991
 20
493.70968499999958
 30
0.0
 40
5.0
 50
94.999999999999758
 51
153.6122000000012
  0
LINE
  5
F4FB7
  8
OBJECT
 10
-529.56658600000014
 20
511.99745999999988
 30
0.0
 11
-529.56658600000014
 21
515.49746000000005
 31
0.0
  0
LINE
  5
F4FB8
  8
OBJECT
 10
-536.28510100000005
 20
498.69065799999998
 30
0.0
 11
-525.30652099999986
 21
499.65115899999989
 31
0.0
  0
ARC
  5
F4FB9
  8
OBJECT
 10
-527.56658600000014
 20
511.99745999999988
 30
0.0
 40
2.0
 50
180.0
 51
270.0
  0
LINE
  5
F4FBA
  8
OBJECT
 10
-499.17142599999988
 20
488.60857199999958
 30
0.0
 11
-512.67742999999996
 21
515.83079399999986
 31
0.0
  0
LINE
  5
F4FBB
  8
OBJECT
 10
-543.96174599999995
 20
488.60857199999958
 30
0.0
 11
-540.3283550000001
 21
495.9319069999998
 31
0.0
  0
ARC
  5
F4FBC
  8
OBJECT
 10
-521.56658600000014
 20
477.49745999999999
 30
0.0
 40
25.0
 50
153.6122000000012
 51
206.3877999999988
  0
LINE
  5
F4FBD
  8
OBJECT
 10
-508.12948999999992
 20
448.33079399999991
 30
0.0
 11
-499.17142599999988
 21
466.38634899999988
 31
0.0
  0
ARC
  5
F4FBE
  8
OBJECT
 10
-521.56658600000014
 20
454.99745999999988
 30
0.0
 40
15.0
 50
206.3877999999988
 51
333.61220000000122
  0
LINE
  5
F4FBF
  8
OBJECT
 10
-535.00368200000003
 20
448.33079399999991
 30
0.0
 11
-543.96174599999995
 21
466.38634899999988
 31
0.0
  0
ARC
  5
F4FC0
  8
OBJECT
 10
-521.56658600000014
 20
477.49745999999999
 30
0.0
 40
25.0
 50
333.61220000000122
 51
26.387799999998808
  0
LINE
  5
F4FC1
  8
OBJECT
 10
-527.56658600000014
 20
509.99745999999999
 30
0.0
 11
-525.90633200000002
 21
509.99745999999999
 31
0.0
  0
LINE
  5
F4FC2
  8
CENTER
 10
-512.30424799999992
 20
449.99745999999988
 30
0.0
 11
-530.82494399999985
 21
449.99745999999988
 31
0.0
  0
LINE
  5
F4FC3
  8
OBJECT
 10
-527.56658600000014
 20
517.49745999999959
 30
0.0
 11
-515.36484900000005
 21
517.49745999999959
 31
0.0
  0
ARC
  5
F4FC4
  8
OBJECT
 10
-515.36484900000005
 20
514.49746000000005
 30
0.0
 40
3.0
 50
26.387799999998808
 51
90.0
  0
ARC
  5
F4FC5
  8
OBJECT
 10
-527.56658600000014
 20
515.49746000000005
 30
0.0
 40
2.0
 50
90.0
 51
180.0
  0
POINT
  5
F4FC6
  8
OBJECT
 10
-513.50432799999976
 20
517.49745999999959
 30
0.0
  0
LINE
  5
F4FC7
  8
OBJECT
 10
-535.00368200000003
 20
506.66412699999989
 30
0.0
 11
-540.3283550000001
 21
495.9319069999998
 31
0.0
  0
ARC
  5
F4FC8
  8
OBJECT
 10
-521.56658600000014
 20
499.99745999999988
 30
0.0
 40
15.0
 50
122.2309530000029
 51
153.6122000000012
  0
LINE
  5
F4FCB
  8
CENTER
 10
-632.30424800000003
 20
504.99745999999959
 30
0.0
 11
-650.82494400000007
 21
504.99745999999959
 31
0.0
  0
LINE
  5
F4FCC
  8
OBJECT
 10
-655.00368200000003
 20
506.66412699999989
 30
0.0
 11
-660.32835499999999
 21
495.9319069999998
 31
0.0
  0
ARC
  5
F4FCD
  8
OBJECT
 10
-641.56658600000003
 20
499.99745999999988
 30
0.0
 40
15.0
 50
122.2309530000029
 51
153.6122000000012
  0
LINE
  5
F4FCE
  8
CENTER
 10
-632.30424800000003
 20
449.99745999999988
 30
0.0
 11
-650.82494400000007
 21
449.99745999999988
 31
0.0
  0
ARC
  5
F4FCF
  8
OBJECT
 10
-655.84932300000003
 20
493.70968499999958
 30
0.0
 40
5.0
 50
94.999999999999758
 51
153.6122000000012
  0
LINE
  5
F4FD0
  8
OBJECT
 10
-649.56658600000003
 20
511.99745999999988
 30
0.0
 11
-649.56658600000003
 21
515.49746000000005
 31
0.0
  0
LINE
  5
F4FD1
  8
OBJECT
 10
-656.28510100000005
 20
498.69065799999998
 30
0.0
 11
-645.30652099999998
 21
499.65115899999989
 31
0.0
  0
ARC
  5
F4FD2
  8
OBJECT
 10
-647.56658600000026
 20
511.99745999999988
 30
0.0
 40
2.0
 50
180.0
 51
270.0
  0
LINE
  5
F4FD3
  8
OBJECT
 10
-619.17142599999966
 20
488.60857199999958
 30
0.0
 11
-632.67742999999984
 21
515.83079399999986
 31
0.0
  0
LINE
  5
F4FD4
  8
OBJECT
 10
-663.96174600000006
 20
488.60857199999958
 30
0.0
 11
-660.32835499999999
 21
495.9319069999998
 31
0.0
  0
ARC
  5
F4FD5
  8
OBJECT
 10
-641.56658600000003
 20
477.49745999999999
 30
0.0
 40
25.0
 50
153.6122000000012
 51
206.3877999999988
  0
LINE
  5
F4FD6
  8
OBJECT
 10
-628.12949000000003
 20
448.33079399999991
 30
0.0
 11
-619.17142599999966
 21
466.38634899999988
 31
0.0
  0
ARC
  5
F4FD7
  8
OBJECT
 10
-641.56658600000003
 20
454.99745999999988
 30
0.0
 40
15.0
 50
206.3877999999988
 51
333.61220000000122
  0
LINE
  5
F4FD8
  8
OBJECT
 10
-655.00368200000003
 20
448.33079399999991
 30
0.0
 11
-663.96174600000006
 21
466.38634899999988
 31
0.0
  0
ARC
  5
F4FD9
  8
OBJECT
 10
-641.56658600000003
 20
477.49745999999999
 30
0.0
 40
25.0
 50
333.61220000000122
 51
26.387799999998808
  0
LINE
  5
F4FDA
  8
OBJECT
 10
-647.56658600000026
 20
509.99745999999999
 30
0.0
 11
-645.90633200000002
 21
509.99745999999999
 31
0.0
  0
LINE
  5
F4FDB
  8
OBJECT
 10
-647.56658600000026
 20
517.49745999999959
 30
0.0
 11
-635.36484900000005
 21
517.49745999999959
 31
0.0
  0
ARC
  5
F4FDC
  8
OBJECT
 10
-635.36484900000005
 20
514.49746000000005
 30
0.0
 40
3.0
 50
26.387799999998808
 51
90.0
  0
ARC
  5
F4FDD
  8
OBJECT
 10
-647.56658600000026
 20
515.49746000000005
 30
0.0
 40
2.0
 50
90.0
 51
180.0
  0
POINT
  5
F4FDE
  8
OBJECT
 10
-633.50432799999976
 20
517.49745999999959
 30
0.0
  0
LINE
  5
F4FDF
  8
CENTER
 10
-641.56658600000003
 20
435.011641
 30
0.0
 11
-641.56658600000003
 21
519.46601599999985
 31
0.0
  0
ARC
  5
F4FE4
  8
OBJECT
 10
-454.56658599999997
 20
-43.999999999999972
 30
0.0
 40
8.0
 50
212.08995100000331
 51
252.2476560000033
  0
LINE
  5
F4FE5
  8
CENTER
 10
-606.56658600000003
 20
-49.09219199999999
 30
0.0
 11
-606.56658600000003
 21
48.587561000000001
 31
0.0
  0
LINE
  5
F4FE6
  8
CENTER
 10
-801.56658599999957
 20
477.49745999999999
 30
0.0
 11
-726.56658600000014
 21
402.49745999999999
 31
0.0
  0
LINE
  5
F4FE7
  8
OBJECT
 10
-756.56658600000014
 20
387.79287900000003
 30
0.0
 11
-756.56658600000014
 21
379.864957
 31
0.0
  0
LINE
  5
F4FE8
  8
OBJECT
 10
-706.67140200000006
 20
425.028683
 30
0.0
 11
-711.22596599999974
 21
429.58324699999991
 31
0.0
  0
LINE
  5
F4FE9
  8
OBJECT
 10
-797.2962940000001
 20
430.80076100000002
 30
0.0
 11
-758.1774989999999
 21
391.68196599999999
 31
0.0
  0
LINE
  5
F4FEA
  8
OBJECT
 10
-682.59959500000002
 20
432.99745999999988
 30
0.0
 11
-709.81175200000018
 21
432.99745999999988
 31
0.0
  0
ARC
  5
F4FEB
  8
OBJECT
 10
-802.59959499999979
 20
425.49745999999988
 30
0.0
 40
7.5
 50
45.000000000004597
 51
90.0
  0
ARC
  5
F4FEC
  8
OBJECT
 10
-682.59959500000002
 20
425.49745999999988
 30
0.0
 40
7.5
 50
45.000000000004597
 51
90.0
  0
ARC
  5
F4FED
  8
OBJECT
 10
-694.56658600000003
 20
430.99745999999999
 30
0.0
 40
2.0
 50
90.0
 51
180.0
  0
ARC
  5
F4FEE
  8
OBJECT
 10
-731.06658600000014
 20
400.63349899999997
 30
0.0
 40
34.5
 50
0.0
 51
45.000000000004597
  0
ARC
  5
F4FEF
  8
OBJECT
 10
-762.06658600000014
 20
387.79287900000003
 30
0.0
 40
5.5
 50
0.0
 51
45.000000000004597
  0
ARC
  5
F4FF0
  8
OBJECT
 10
-709.81175200000018
 20
430.99745999999999
 30
0.0
 40
2.0
 50
90.0
 51
225.0000000000046
  0
LINE
  5
F4FF1
  8
CENTER
 10
-726.56658600000014
 20
402.49745999999999
 30
0.0
 11
-726.56658600000014
 21
313.52593899999999
 31
0.0
  0
LINE
  5
F4FF2
  8
OBJECT
 10
-696.56658600000003
 20
430.99745999999999
 30
0.0
 11
-696.56658600000003
 21
379.864957
 31
0.0
  0
LINE
  5
F4FF3
  8
OBJECT
 10
-781.5665859999998
 20
347.49745999999999
 30
0.0
 11
-671.56658600000003
 21
347.49745999999999
 31
0.0
  0
LINE
  5
F4FF4
  8
OBJECT
 10
-691.56658600000003
 20
342.36035199999998
 30
0.0
 11
-691.56658600000003
 21
347.49745999999999
 31
0.0
  0
LINE
  5
F4FF5
  8
OBJECT
 10
-671.56658600000003
 20
341.36035199999998
 30
0.0
 11
-781.5665859999998
 21
341.36035199999998
 31
0.0
  0
LINE
  5
F4FF6
  8
OBJECT
 10
-691.56658600000003
 20
342.36035199999998
 30
0.0
 11
-761.56658600000003
 21
342.36035199999998
 31
0.0
  0
LINE
  5
F4FF7
  8
OBJECT
 10
-761.56658600000003
 20
342.36035199999998
 30
0.0
 11
-761.56658600000003
 21
347.49745999999999
 31
0.0
  0
LINE
  5
F4FF8
  8
OBJECT
 10
-671.56658600000003
 20
328.36035199999998
 30
0.0
 11
-677.56658600000003
 21
328.36035199999998
 31
0.0
  0
LINE
  5
F4FF9
  8
OBJECT
 10
-671.56658600000003
 20
347.49745999999999
 30
0.0
 11
-671.56658600000003
 21
357.49745999999999
 31
0.0
  0
LINE
  5
F4FFA
  8
OBJECT
 10
-673.56658600000003
 20
359.49745999999999
 30
0.0
 11
-779.56658599999969
 21
359.49745999999999
 31
0.0
  0
LINE
  5
F4FFB
  8
OBJECT
 10
-781.5665859999998
 20
328.36035199999998
 30
0.0
 11
-775.56658599999969
 21
328.36035199999998
 31
0.0
  0
LINE
  5
F4FFC
  8
OBJECT
 10
-781.5665859999998
 20
347.49745999999999
 30
0.0
 11
-781.5665859999998
 21
357.49745999999999
 31
0.0
  0
LINE
  5
F4FFD
  8
OBJECT
 10
-690.06658600000003
 20
370.49745999999999
 30
0.0
 11
-690.06658600000003
 21
361.49745999999999
 31
0.0
  0
LINE
  5
F4FFE
  8
OBJECT
 10
-763.06658600000014
 20
370.49745999999999
 30
0.0
 11
-763.06658600000014
 21
361.49745999999999
 31
0.0
  0
ARC
  5
F4FFF
  8
OBJECT
 10
-758.06658600000003
 20
370.49745999999999
 30
0.0
 40
5.0
 50
110.487314999997
 51
180.0
  0
ARC
  5
F5000
  8
OBJECT
 10
-695.06658600000003
 20
370.49745999999999
 30
0.0
 40
5.0
 50
0.0
 51
69.512685000003003
  0
ARC
  5
F5001
  8
OBJECT
 10
-688.06658600000003
 20
361.49745999999999
 30
0.0
 40
2.0
 50
180.0
 51
270.0
  0
ARC
  5
F5002
  8
OBJECT
 10
-765.06658600000003
 20
361.49745999999999
 30
0.0
 40
2.0
 50
270.0
 51
0.0
  0
ARC
  5
F5003
  8
OBJECT
 10
-673.56658600000003
 20
357.49745999999999
 30
0.0
 40
2.0
 50
0.0
 51
90.0
  0
ARC
  5
F5004
  8
OBJECT
 10
-779.56658599999969
 20
357.49745999999999
 30
0.0
 40
2.0
 50
90.0
 51
180.0
  0
ARC
  5
F5005
  8
OBJECT
 10
-691.56658600000003
 20
379.864957
 30
0.0
 40
5.0
 50
180.0
 51
249.51268500000299
  0
ARC
  5
F5006
  8
OBJECT
 10
-761.56658600000003
 20
379.864957
 30
0.0
 40
5.0
 50
290.48731499999701
 51
0.0
  0
LINE
  5
F5007
  8
OBJECT
 10
-693.31658600000003
 20
375.18120900000002
 30
0.0
 11
-759.81658600000003
 21
375.18120900000002
 31
0.0
  0
LINE
  5
F5008
  8
OBJECT
 10
-671.56658600000003
 20
328.36035199999998
 30
0.0
 11
-671.56658600000003
 21
341.36035199999998
 31
0.0
  0
LINE
  5
F5009
  8
OBJECT
 10
-781.5665859999998
 20
328.36035199999998
 30
0.0
 11
-781.5665859999998
 21
341.36035199999998
 31
0.0
  0
LINE
  5
F500A
  8
OBJECT
 10
-694.450648
 20
342.36035199999998
 30
0.0
 11
-693.450648
 21
341.36035199999998
 31
0.0
  0
LINE
  5
F500B
  8
OBJECT
 10
-758.68252399999983
 20
342.36035199999998
 30
0.0
 11
-759.68252399999983
 21
341.36035199999998
 31
0.0
  0
LINE
  5
F500C
  8
OBJECT
 10
-767.56658600000014
 20
328.36035199999998
 30
0.0
 11
-680.35412299999984
 21
328.36035199999998
 31
0.0
  0
LINE
  5
F500F
  8
CENTER
 10
-752.30424800000014
 20
449.99745999999988
 30
0.0
 11
-770.82494399999985
 21
449.99745999999988
 31
0.0
  0
LINE
  5
F5010
  8
OBJECT
 10
-767.56658600000014
 20
341.36035199999998
 30
0.0
 11
-767.56658600000014
 21
347.49745999999999
 31
0.0
  0
LINE
  5
F5011
  8
OBJECT
 10
-768.24316799999986
 20
341.36035199999998
 30
0.0
 11
-768.24316799999986
 21
342.49745999999999
 31
0.0
  0
LINE
  5
F5012
  8
OBJECT
 10
-774.89000299999975
 20
341.36035199999998
 30
0.0
 11
-774.89000299999975
 21
342.49745999999999
 31
0.0
  0
LINE
  5
F5013
  8
OBJECT
 10
-775.56658599999969
 20
341.36035199999998
 30
0.0
 11
-775.56658599999969
 21
347.49745999999999
 31
0.0
  0
LINE
  5
F5014
  8
OBJECT
 10
-765.06658600000003
 20
359.49745999999999
 30
0.0
 11
-765.06658600000003
 21
364.49745999999999
 31
0.0
  0
LINE
  5
F5015
  8
OBJECT
 10
-778.06658599999969
 20
359.49745999999999
 30
0.0
 11
-778.06658599999969
 21
364.49745999999999
 31
0.0
  0
LINE
  5
F5016
  8
OBJECT
 10
-765.06658600000003
 20
359.49745999999999
 30
0.0
 11
-778.06658599999969
 21
359.49745999999999
 31
0.0
  0
LINE
  5
F5017
  8
OBJECT
 10
-767.56658600000014
 20
315.17404299999998
 30
0.0
 11
-767.56658600000014
 21
321.56035200000002
 31
0.0
  0
LINE
  5
F5018
  8
OBJECT
 10
-767.56658600000014
 20
315.17404299999998
 30
0.0
 11
-768.24316799999986
 21
314.49745999999999
 31
0.0
  0
LINE
  5
F5019
  8
OBJECT
 10
-768.24316799999986
 20
314.49745999999999
 30
0.0
 11
-774.89000299999975
 21
314.49745999999999
 31
0.0
  0
LINE
  5
F501A
  8
OBJECT
 10
-774.89000299999975
 20
314.49745999999999
 30
0.0
 11
-775.56658599999969
 21
315.17404299999998
 31
0.0
  0
LINE
  5
F501B
  8
OBJECT
 10
-775.56658599999969
 20
315.17404299999998
 30
0.0
 11
-775.56658599999969
 21
321.56035200000002
 31
0.0
  0
LINE
  5
F501C
  8
OBJECT
 10
-775.56658599999969
 20
342.49745999999999
 30
0.0
 11
-767.56658600000014
 21
342.49745999999999
 31
0.0
  0
LINE
  5
F501D
  8
OBJECT
 10
-775.56658599999969
 20
315.17404299999998
 30
0.0
 11
-767.56658600000014
 21
315.17404299999998
 31
0.0
  0
LINE
  5
F501E
  8
OBJECT
 10
-774.89000299999975
 20
314.49745999999999
 30
0.0
 11
-774.89000299999975
 21
321.56035200000002
 31
0.0
  0
LINE
  5
F501F
  8
OBJECT
 10
-768.24316799999986
 20
314.49745999999999
 30
0.0
 11
-768.24316799999986
 21
321.56035200000002
 31
0.0
  0
LINE
  5
F5020
  8
OBJECT
 10
-775.56658599999969
 20
343.66933599999999
 30
0.0
 11
-774.89000299999975
 21
342.49745999999999
 31
0.0
  0
LINE
  5
F5021
  8
OBJECT
 10
-767.56658600000014
 20
343.66933599999999
 30
0.0
 11
-768.24316799999986
 21
342.49745999999999
 31
0.0
  0
LINE
  5
F5022
  8
OBJECT
 10
-765.06658600000003
 20
364.49745999999999
 30
0.0
 11
-778.06658599999969
 21
364.49745999999999
 31
0.0
  0
LINE
  5
F5023
  8
CENTER
 10
-771.56658599999969
 20
308.35519599999998
 30
0.0
 11
-771.56658599999969
 21
369.001238
 31
0.0
  0
LINE
  5
F5024
  8
CENTER
 10
-681.56658600000003
 20
308.35519599999998
 30
0.0
 11
-681.56658600000003
 21
369.001238
 31
0.0
  0
LINE
  5
F5025
  8
OBJECT
 10
-685.56658600000003
 20
341.36035199999998
 30
0.0
 11
-685.56658600000003
 21
347.49745999999999
 31
0.0
  0
LINE
  5
F5026
  8
OBJECT
 10
-684.89000299999998
 20
341.36035199999998
 30
0.0
 11
-684.89000299999998
 21
342.49745999999999
 31
0.0
  0
LINE
  5
F5027
  8
OBJECT
 10
-678.24316799999997
 20
341.36035199999998
 30
0.0
 11
-678.24316799999997
 21
342.49745999999999
 31
0.0
  0
LINE
  5
F5028
  8
OBJECT
 10
-677.56658600000003
 20
341.36035199999998
 30
0.0
 11
-677.56658600000003
 21
347.49745999999999
 31
0.0
  0
LINE
  5
F5029
  8
OBJECT
 10
-688.06658600000003
 20
359.49745999999999
 30
0.0
 11
-688.06658600000003
 21
364.49745999999999
 31
0.0
  0
LINE
  5
F502A
  8
OBJECT
 10
-675.06658600000003
 20
359.49745999999999
 30
0.0
 11
-675.06658600000003
 21
364.49745999999999
 31
0.0
  0
LINE
  5
F502B
  8
OBJECT
 10
-688.06658600000003
 20
359.49745999999999
 30
0.0
 11
-675.06658600000003
 21
359.49745999999999
 31
0.0
  0
LINE
  5
F502C
  8
OBJECT
 10
-685.56658600000003
 20
315.17404299999998
 30
0.0
 11
-685.56658600000003
 21
321.56035200000002
 31
0.0
  0
LINE
  5
F502D
  8
OBJECT
 10
-685.56658600000003
 20
315.17404299999998
 30
0.0
 11
-684.89000299999998
 21
314.49745999999999
 31
0.0
  0
LINE
  5
F502E
  8
OBJECT
 10
-684.89000299999998
 20
314.49745999999999
 30
0.0
 11
-678.24316799999997
 21
314.49745999999999
 31
0.0
  0
LINE
  5
F502F
  8
OBJECT
 10
-678.24316799999997
 20
314.49745999999999
 30
0.0
 11
-677.56658600000003
 21
315.17404299999998
 31
0.0
  0
LINE
  5
F5030
  8
OBJECT
 10
-677.56658600000003
 20
315.17404299999998
 30
0.0
 11
-677.56658600000003
 21
321.56035200000002
 31
0.0
  0
LINE
  5
F5031
  8
OBJECT
 10
-677.56658600000003
 20
342.49745999999999
 30
0.0
 11
-685.56658600000003
 21
342.49745999999999
 31
0.0
  0
LINE
  5
F5032
  8
OBJECT
 10
-677.56658600000003
 20
315.17404299999998
 30
0.0
 11
-685.56658600000003
 21
315.17404299999998
 31
0.0
  0
LINE
  5
F5033
  8
OBJECT
 10
-678.24316799999997
 20
314.49745999999999
 30
0.0
 11
-678.24316799999997
 21
321.56035200000002
 31
0.0
  0
LINE
  5
F5034
  8
OBJECT
 10
-684.89000299999998
 20
314.49745999999999
 30
0.0
 11
-684.89000299999998
 21
321.56035200000002
 31
0.0
  0
LINE
  5
F5035
  8
OBJECT
 10
-677.56658600000003
 20
343.66933599999999
 30
0.0
 11
-678.24316799999997
 21
342.49745999999999
 31
0.0
  0
LINE
  5
F5036
  8
OBJECT
 10
-685.56658600000003
 20
343.66933599999999
 30
0.0
 11
-684.89000299999998
 21
342.49745999999999
 31
0.0
  0
LINE
  5
F5037
  8
OBJECT
 10
-688.06658600000003
 20
364.49745999999999
 30
0.0
 11
-675.06658600000003
 21
364.49745999999999
 31
0.0
  0
LINE
  5
F503A
  8
CENTER
 10
-752.30424800000014
 20
504.99745999999959
 30
0.0
 11
-770.82494399999985
 21
504.99745999999959
 31
0.0
  0
LINE
  5
F503B
  8
OBJECT
 10
-775.0036819999998
 20
506.66412699999989
 30
0.0
 11
-780.32835499999976
 21
495.9319069999998
 31
0.0
  0
ARC
  5
F503C
  8
OBJECT
 10
-761.56658600000003
 20
499.99745999999988
 30
0.0
 40
15.0
 50
122.2309530000029
 51
153.6122000000012
  0
LINE
  5
F503D
  8
CENTER
 10
-752.30424800000014
 20
449.99745999999988
 30
0.0
 11
-770.82494399999985
 21
449.99745999999988
 31
0.0
  0
ARC
  5
F503E
  8
OBJECT
 10
-775.84932300000014
 20
493.70968499999958
 30
0.0
 40
5.0
 50
94.999999999999758
 51
153.6122000000012
  0
LINE
  5
F503F
  8
OBJECT
 10
-769.5665859999998
 20
511.99745999999988
 30
0.0
 11
-769.5665859999998
 21
515.49746000000005
 31
0.0
  0
LINE
  5
F5040
  8
OBJECT
 10
-776.28510100000017
 20
498.69065799999998
 30
0.0
 11
-765.30652099999998
 21
499.65115899999989
 31
0.0
  0
ARC
  5
F5041
  8
OBJECT
 10
-767.56658600000014
 20
511.99745999999988
 30
0.0
 40
2.0
 50
180.0
 51
270.0
  0
LINE
  5
F5042
  8
OBJECT
 10
-739.17142599999966
 20
488.60857199999958
 30
0.0
 11
-752.67742999999984
 21
515.83079399999986
 31
0.0
  0
LINE
  5
F5043
  8
OBJECT
 10
-783.96174600000029
 20
488.60857199999958
 30
0.0
 11
-780.32835499999976
 21
495.9319069999998
 31
0.0
  0
ARC
  5
F5044
  8
OBJECT
 10
-761.56658600000003
 20
477.49745999999999
 30
0.0
 40
25.0
 50
153.6122000000012
 51
206.3877999999988
  0
LINE
  5
F5045
  8
OBJECT
 10
-748.12948999999981
 20
448.33079399999991
 30
0.0
 11
-739.17142599999966
 21
466.38634899999988
 31
0.0
  0
ARC
  5
F5046
  8
OBJECT
 10
-761.56658600000003
 20
454.99745999999988
 30
0.0
 40
15.0
 50
206.3877999999988
 51
333.61220000000122
  0
LINE
  5
F5047
  8
OBJECT
 10
-775.0036819999998
 20
448.33079399999991
 30
0.0
 11
-783.96174600000029
 21
466.38634899999988
 31
0.0
  0
ARC
  5
F5048
  8
OBJECT
 10
-761.56658600000003
 20
477.49745999999999
 30
0.0
 40
25.0
 50
333.61220000000122
 51
26.387799999998808
  0
LINE
  5
F5049
  8
OBJECT
 10
-767.56658600000014
 20
509.99745999999999
 30
0.0
 11
-765.90633199999968
 21
509.99745999999999
 31
0.0
  0
LINE
  5
F504A
  8
OBJECT
 10
-767.56658600000014
 20
517.49745999999959
 30
0.0
 11
-755.36484899999982
 21
517.49745999999959
 31
0.0
  0
ARC
  5
F504B
  8
OBJECT
 10
-755.36484899999982
 20
514.49746000000005
 30
0.0
 40
3.0
 50
26.387799999998808
 51
90.0
  0
ARC
  5
F504C
  8
OBJECT
 10
-767.56658600000014
 20
515.49746000000005
 30
0.0
 40
2.0
 50
90.0
 51
180.0
  0
POINT
  5
F504D
  8
OBJECT
 10
-753.50432800000033
 20
517.49745999999959
 30
0.0
  0
LINE
  5
F504E
  8
CENTER
 10
-761.56658600000003
 20
435.011641
 30
0.0
 11
-761.56658600000003
 21
519.46601599999985
 31
0.0
  0
LINE
  5
F5051
  8
CENTER
 10
-761.56658600000003
 20
85.673118000000002
 30
0.0
 11
-761.56658600000003
 21
36.813720000000004
 31
0.0
  0
LINE
  5
F5052
  8
OBJECT
 10
-736.56658600000003
 20
55.0
 30
0.0
 11
-736.56658600000003
 21
49.499999999999993
 31
0.0
  0
LINE
  5
F5053
  8
OBJECT
 10
-786.5665859999998
 20
55.0
 30
0.0
 11
-786.5665859999998
 21
49.499999999999993
 31
0.0
  0
LINE
  5
F5054
  8
OBJECT
 10
-783.96599800000013
 20
55.0
 30
0.0
 11
-736.56658600000003
 21
55.0
 31
0.0
  0
ARC
  5
F5055
  8
OBJECT
 10
-731.56658600000014
 20
49.499999999999993
 30
0.0
 40
5.0
 50
180.0
 51
270.0
  0
ARC
  5
F5056
  8
OBJECT
 10
-791.56658599999969
 20
49.499999999999993
 30
0.0
 40
5.0
 50
270.0
 51
0.0
  0
LINE
  5
F505A
  8
CENTER
 10
-761.56658600000003
 20
48.774535
 30
0.0
 11
-761.56658600000003
 21
-65.722977999999998
 31
0.0
  0
LINE
  5
F505B
  8
OBJECT
 10
-691.56658600000003
 20
28.284271000000011
 30
0.0
 11
-673.7888079999999
 21
6.2853930000000124
 31
0.0
  0
ARC
  5
F505C
  8
OBJECT
 10
-726.56658600000014
 20
0.0
 30
0.0
 40
45.0
 50
38.94244100000229
 51
141.0575589999977
  0
LINE
  5
F505D
  8
OBJECT
 10
-691.56658600000003
 20
-28.284272000000001
 30
0.0
 11
-673.7888079999999
 21
-6.285394000000009
 31
0.0
  0
ARC
  5
F505E
  8
CENTER
 10
-726.56658600000014
 20
0.0
 30
0.0
 40
45.0
 50
349.86110000000042
 51
13.68187099999977
  0
CIRCLE
  5
F505F
  8
OBJECT
 10
-726.56658600000014
 20
0.0
 30
0.0
 40
31.5
  0
ARC
  5
F5060
  8
OBJECT
 10
-726.56658600000014
 20
0.0
 30
0.0
 40
38.0
 50
26.10359100000267
 51
153.89640899999731
  0
ARC
  5
F5061
  8
OBJECT
 10
-726.56658600000014
 20
0.0
 30
0.0
 40
45.0
 50
218.9424410000023
 51
321.0575589999977
  0
ARC
  5
F5062
  8
OBJECT
 10
-681.56658600000003
 20
0.0
 30
0.0
 40
10.0
 50
269.7395640000006
 51
90.260435999999345
  0
ARC
  5
F5063
  8
OBJECT
 10
-726.56658600000014
 20
0.0
 30
0.0
 40
38.0
 50
206.10359100000269
 51
333.89640899999728
  0
ARC
  5
F5064
  8
OBJECT
 10
-681.66658600000005
 20
-21.99977299999999
 30
0.0
 40
12.0
 50
89.739564000000655
 51
153.89640899999731
  0
ARC
  5
F5065
  8
OBJECT
 10
-681.66658600000005
 20
21.999772000000011
 30
0.0
 40
12.0
 50
206.10359100000269
 51
270.26043599999929
  0
ARC
  5
F5066
  8
OBJECT
 10
-771.46658600000012
 20
-21.99977299999999
 30
0.0
 40
12.0
 50
26.10359100000267
 51
90.260435999999345
  0
ARC
  5
F5067
  8
OBJECT
 10
-771.46658600000012
 20
21.999772000000011
 30
0.0
 40
12.0
 50
269.7395640000006
 51
333.89640899999728
  0
LINE
  5
F5068
  8
OBJECT
 10
-761.56658600000003
 20
28.284271000000011
 30
0.0
 11
-779.34436400000016
 21
6.2853930000000124
 31
0.0
  0
LINE
  5
F5069
  8
OBJECT
 10
-761.56658600000003
 20
-28.284272000000001
 30
0.0
 11
-779.34436400000016
 21
-6.285394000000009
 31
0.0
  0
ARC
  5
F506A
  8
CENTER
 10
-726.56658600000014
 20
0.0
 30
0.0
 40
45.0
 50
166.3181290000002
 51
190.1388999999995
  0
ARC
  5
F506B
  8
OBJECT
 10
-771.56658599999969
 20
0.0
 30
0.0
 40
10.0
 50
89.739564000000655
 51
270.26043599999929
  0
CIRCLE
  5
F506E
  8
OBJECT
 10
-726.56658600000014
 20
0.0
 30
0.0
 40
25.5
  0
LINE
  5
F506F
  8
OBJECT
 10
-760.17976699999986
 20
-29.919125000000001
 30
0.0
 11
-772.52385900000002
 21
-27.938081
 31
0.0
  0
LINE
  5
F5070
  8
OBJECT
 10
-772.52385900000002
 20
-27.938081
 30
0.0
 11
-783.49203299999999
 21
-23.470148999999989
 31
0.0
  0
LINE
  5
F5071
  8
OBJECT
 10
-783.49203299999999
 20
-23.470148999999989
 30
0.0
 11
-792.10796499999981
 21
-16.913038
 31
0.0
  0
LINE
  5
F5072
  8
OBJECT
 10
-792.10796499999981
 20
-16.913038
 30
0.0
 11
-797.60471499999983
 21
-8.8504260000000006
 31
0.0
  0
LINE
  5
F5073
  8
OBJECT
 10
-797.60471499999983
 20
-8.8504260000000006
 30
0.0
 11
-799.49299299999984
 21
0.0
 31
0.0
  0
LINE
  5
F5074
  8
OBJECT
 10
-799.49299299999984
 20
0.0
 30
0.0
 11
-797.60471499999983
 21
8.8504260000000006
 31
0.0
  0
LINE
  5
F5075
  8
OBJECT
 10
-797.60471499999983
 20
8.8504260000000006
 30
0.0
 11
-792.10796499999981
 21
16.913038
 31
0.0
  0
LINE
  5
F5076
  8
OBJECT
 10
-792.10796499999981
 20
16.913038
 30
0.0
 11
-783.49203299999999
 21
23.470148000000009
 31
0.0
  0
LINE
  5
F5077
  8
OBJECT
 10
-783.49203299999999
 20
23.470148000000009
 30
0.0
 11
-772.52385900000002
 21
27.938079999999999
 31
0.0
  0
LINE
  5
F5078
  8
OBJECT
 10
-772.52385900000002
 20
27.938079999999999
 30
0.0
 11
-760.17976699999986
 21
29.919125000000001
 31
0.0
  0
LINE
  5
F5079
  8
OBJECT
 10
-772.52385900000002
 20
27.938079999999999
 30
0.0
 11
-760.17976699999986
 21
29.919125000000001
 31
0.0
  0
LINE
  5
F507A
  8
OBJECT
 10
-741.06406100000004
 20
20.977921999999989
 30
0.0
 11
-735.21443399999964
 21
17.407814999999999
 31
0.0
  0
LINE
  5
F507B
  8
OBJECT
 10
-735.21443399999964
 20
17.407814999999999
 30
0.0
 11
-730.57470499999988
 21
13.038468000000011
 31
0.0
  0
LINE
  5
F507C
  8
OBJECT
 10
-730.57470499999988
 20
13.038468000000011
 30
0.0
 11
-727.35789699999987
 21
8.0704900000000066
 31
0.0
  0
LINE
  5
F507D
  8
OBJECT
 10
-727.35789699999987
 20
8.0704900000000066
 30
0.0
 11
-725.71170300000006
 21
2.731973999999993
 31
0.0
  0
LINE
  5
F507E
  8
OBJECT
 10
-725.71170300000006
 20
2.731973999999993
 30
0.0
 11
-725.71170300000006
 21
-2.7319739999999779
 31
0.0
  0
LINE
  5
F507F
  8
OBJECT
 10
-725.71170300000006
 20
-2.7319739999999779
 30
0.0
 11
-727.35789699999987
 21
-8.0704910000000041
 31
0.0
  0
LINE
  5
F5080
  8
OBJECT
 10
-727.35789699999987
 20
-8.0704910000000041
 30
0.0
 11
-730.57470499999988
 21
-13.03846899999998
 31
0.0
  0
LINE
  5
F5081
  8
OBJECT
 10
-730.57470499999988
 20
-13.03846899999998
 30
0.0
 11
-735.21443399999964
 21
-17.407816
 31
0.0
  0
LINE
  5
F5082
  8
OBJECT
 10
-735.21443399999964
 20
-17.407816
 30
0.0
 11
-741.06406100000004
 21
-20.977923000000001
 31
0.0
  0
LINE
  5
F5083
  8
OBJECT
 10
-735.21443399999964
 20
-17.407816
 30
0.0
 11
-741.06406100000004
 21
-20.977923000000001
 31
0.0
  0
LINE
  5
F5084
  8
OBJECT
 10
-671.56658600000003
 20
44.499999999999993
 30
0.0
 11
-731.56658600000014
 21
44.499999999999993
 31
0.0
  0
LINE
  5
F5085
  8
CENTER
 10
-726.56658600000014
 20
-49.09219199999999
 30
0.0
 11
-726.56658600000014
 21
48.587561000000001
 31
0.0
  0
LINE
  5
F5086
  8
OBJECT
 10
-676.96035300000028
 20
10.209979000000001
 30
0.0
 11
-675.03985399999988
 21
13.379666000000009
 31
0.0
  0
LINE
  5
F5087
  8
OBJECT
 10
-675.03985399999988
 20
13.379666000000009
 30
0.0
 11
-672.61764100000005
 21
16.372575000000001
 31
0.0
  0
LINE
  5
F5088
  8
OBJECT
 10
-672.61764100000005
 20
16.372575000000001
 30
0.0
 11
-669.72571700000003
 21
19.149166000000012
 31
0.0
  0
LINE
  5
F5089
  8
OBJECT
 10
-669.72571700000003
 20
19.149166000000012
 30
0.0
 11
-666.40229099999988
 21
21.672751999999999
 31
0.0
  0
LINE
  5
F508A
  8
OBJECT
 10
-666.40229099999988
 20
21.672751999999999
 30
0.0
 11
-662.69127300000002
 21
23.909991000000009
 31
0.0
  0
LINE
  5
F508B
  8
OBJECT
 10
-662.69127300000002
 20
23.909991000000009
 30
0.0
 11
-658.64169400000014
 21
25.831325
 31
0.0
  0
LINE
  5
F508C
  8
OBJECT
 10
-658.64169400000014
 20
25.831325
 30
0.0
 11
-654.30705799999998
 21
27.411367000000009
 31
0.0
  0
LINE
  5
F508D
  8
OBJECT
 10
-654.30705799999998
 20
27.411367000000009
 30
0.0
 11
-649.74463600000001
 21
28.629242000000009
 31
0.0
  0
LINE
  5
F508E
  8
OBJECT
 10
-649.74463600000001
 20
28.629242000000009
 30
0.0
 11
-645.01470799999981
 21
29.468858999999998
 31
0.0
  0
LINE
  5
F508F
  8
OBJECT
 10
-645.01470799999981
 20
29.468858999999998
 30
0.0
 11
-640.17976699999986
 21
29.919125000000001
 31
0.0
  0
LINE
  5
F5090
  8
OBJECT
 10
-645.01470799999981
 20
29.468858999999998
 30
0.0
 11
-640.17976699999986
 21
29.919125000000001
 31
0.0
  0
POINT
  5
F5092
  8
OBJECT
 10
-456.56658600000009
 20
477.49745999999999
 30
0.0
  0
LINE
  5
F5095
  8
HIDDEN
 10
-631.56658600000003
 20
372.49745999999999
 30
0.0
 11
-581.56658600000014
 21
372.49745999999999
 31
0.0
  0
LINE
  5
F5096
  8
HIDDEN
 10
-511.56658599999997
 20
372.49745999999999
 30
0.0
 11
-461.56658599999997
 21
372.49745999999999
 31
0.0
  0
LINE
  5
F5097
  8
HIDDEN
 10
-751.56658600000014
 20
372.49745999999999
 30
0.0
 11
-701.56658600000003
 21
372.49745999999999
 31
0.0
  0
LINE
  5
F5098
  8
HIDDEN
 10
-456.56658600000009
 20
437.49745999999988
 30
0.0
 11
-456.56658600000009
 21
517.49745999999959
 31
0.0
  0
LINE
  5
F509C
  8
CENTER
 10
-657.07092799999987
 20
503.99745999999988
 30
0.0
 11
-623.20531299999971
 21
503.99745999999988
 31
0.0
  0
CIRCLE
  5
F509D
  8
HIDDEN
 10
-641.56658600000003
 20
503.99745999999988
 30
0.0
 40
10.0
  0
CIRCLE
  5
F509E
  8
HIDDEN
 10
-641.56658600000003
 20
503.99745999999988
 30
0.0
 40
12.5
  0
LINE
  5
F509F
  8
CENTER
 10
-446.56658599999997
 20
459.52211799999998
 30
0.0
 11
-446.56658599999997
 21
496.11901399999999
 31
0.0
  0
ARC
  5
F50A0
  8
HIDDEN
 10
-446.56658599999997
 20
477.49745999999999
 30
0.0
 40
10.0
 50
70.528779000004619
 51
289.47122099999541
  0
ARC
  5
F50A1
  8
HIDDEN
 10
-446.56658599999997
 20
477.49745999999999
 30
0.0
 40
12.5
 50
72.981352999995352
 51
287.01864700000459
  0
CIRCLE
  5
F50A2
  8
HIDDEN
 10
-606.56658600000003
 20
372.49745999999999
 30
0.0
 40
10.0
  0
LINE
  5
F50A3
  8
CENTER
 10
-622.07092800000044
 20
372.49745999999999
 30
0.0
 11
-588.20531300000005
 21
372.49745999999999
 31
0.0
  0
CIRCLE
  5
F50A4
  8
HIDDEN
 10
-606.56658600000003
 20
372.49745999999999
 30
0.0
 40
12.5
  0
LINE
  5
F50A5
  8
OBJECT
 10
-651.56658600000003
 20
-60.0
 30
0.0
 11
-652.3789069999998
 21
-44.499999999999979
 31
0.0
  0
LINE
  5
F50A6
  8
OBJECT
 10
-631.56658600000003
 20
-60.0
 30
0.0
 11
-630.75426500000003
 21
-44.499999999999979
 31
0.0
  0
LINE
  5
F50A7
  8
OBJECT
 10
-651.56658600000003
 20
-60.0
 30
0.0
 11
-631.56658600000003
 21
-60.0
 31
0.0
  0
LINE
  5
F50A9
  8
OBJECT
 10
-616.56658600000003
 20
-60.0
 30
0.0
 11
-617.42235500000004
 21
-43.670954999999992
 31
0.0
  0
LINE
  5
F50AA
  8
OBJECT
 10
-616.56658600000003
 20
-60.0
 30
0.0
 11
-596.56658600000003
 21
-60.0
 31
0.0
  0
LINE
  5
F50AB
  8
OBJECT
 10
-596.56658600000003
 20
-60.0
 30
0.0
 11
-595.71081699999968
 21
-43.670954999999992
 31
0.0
  0
LINE
  5
F50AC
  8
CENTER
 10
-446.56658599999997
 20
-68.569248999999999
 30
0.0
 11
-446.56658599999997
 21
-39.128475999999992
 31
0.0
  0
LINE
  5
F50AD
  8
OBJECT
 10
-456.56658600000009
 20
-60.0
 30
0.0
 11
-428.56658599999997
 21
-60.0
 31
0.0
  0
LINE
  5
F50AE
  8
OBJECT
 10
-456.56658600000009
 20
-60.0
 30
0.0
 11
-457.00581199999999
 21
-51.619067000000001
 31
0.0
  0
ARC
  5
F50AF
  8
HIDDEN
 10
-440.56658599999997
 20
497.09975599999979
 30
0.0
 40
8.0
 50
252.98135299999541
 51
0.0
  0
ARC
  5
F50B0
  8
HIDDEN
 10
-440.56658599999997
 20
494.46802299999968
 30
0.0
 40
8.0
 50
250.52877900000459
 51
0.0
  0
ARC
  5
F50B1
  8
HIDDEN
 10
-440.56658599999997
 20
460.52689799999979
 30
0.0
 40
8.0
 50
0.0
 51
109.4712209999953
  0
ARC
  5
F50B2
  8
HIDDEN
 10
-440.56658599999997
 20
457.89516499999991
 30
0.0
 40
8.0
 50
0.0
 51
107.01864700000461
  0
CIRCLE
  5
F5899
  8
OBJECT
 10
-771.56658599999969
 20
0.0
 30
0.0
 40
3.3234180000000002
  0
CIRCLE
  5
F589A
  8
OBJECT
 10
-771.56658599999969
 20
0.0
 30
0.0
 40
4.0
  0
CIRCLE
  5
F589B
  8
OBJECT
 10
-771.56658599999969
 20
0.0
 30
0.0
 40
6.5
  0
LINE
  5
F589C
  8
OBJECT
 10
-767.81380899999999
 20
6.5
 30
0.0
 11
-764.0610320000003
 21
0.0
 31
0.0
  0
LINE
  5
F589D
  8
OBJECT
 10
-775.31936299999995
 20
6.5
 30
0.0
 11
-767.81380899999999
 21
6.5
 31
0.0
  0
LINE
  5
F589E
  8
OBJECT
 10
-779.07213899999988
 20
0.0
 30
0.0
 11
-775.31936299999995
 21
6.5
 31
0.0
  0
LINE
  5
F589F
  8
OBJECT
 10
-775.31936299999995
 20
-6.5
 30
0.0
 11
-779.07213899999988
 21
0.0
 31
0.0
  0
LINE
  5
F58A0
  8
OBJECT
 10
-767.81380899999999
 20
-6.5
 30
0.0
 11
-775.31936299999995
 21
-6.5
 31
0.0
  0
LINE
  5
F58A1
  8
OBJECT
 10
-764.0610320000003
 20
0.0
 30
0.0
 11
-767.81380899999999
 21
-6.5
 31
0.0
  0
CIRCLE
  5
F58A2
  8
OBJECT
 10
-681.56658600000003
 20
0.0
 30
0.0
 40
3.3234180000000002
  0
CIRCLE
  5
F58A3
  8
OBJECT
 10
-681.56658600000003
 20
0.0
 30
0.0
 40
4.0
  0
CIRCLE
  5
F58A4
  8
OBJECT
 10
-681.56658600000003
 20
0.0
 30
0.0
 40
6.5
  0
LINE
  5
F58A5
  8
OBJECT
 10
-677.81380899999976
 20
6.5
 30
0.0
 11
-674.06103199999995
 21
0.0
 31
0.0
  0
LINE
  5
F58A6
  8
OBJECT
 10
-685.31936300000007
 20
6.5
 30
0.0
 11
-677.81380899999976
 21
6.5
 31
0.0
  0
LINE
  5
F58A7
  8
OBJECT
 10
-689.07213899999999
 20
0.0
 30
0.0
 11
-685.31936300000007
 21
6.5
 31
0.0
  0
LINE
  5
F58A8
  8
OBJECT
 10
-685.31936300000007
 20
-6.5
 30
0.0
 11
-689.07213899999999
 21
0.0
 31
0.0
  0
LINE
  5
F58A9
  8
OBJECT
 10
-677.81380899999976
 20
-6.5
 30
0.0
 11
-685.31936300000007
 21
-6.5
 31
0.0
  0
LINE
  5
F58AA
  8
OBJECT
 10
-674.06103199999995
 20
0.0
 30
0.0
 11
-677.81380899999976
 21
-6.5
 31
0.0
  0
LINE
  5
F58AB
  8
OBJECT
 10
-769.07213900000011
 20
68.698098999999985
 30
0.0
 11
-769.07213900000011
 21
64.0
 31
0.0
  0
LINE
  5
F58AC
  8
OBJECT
 10
-769.07213900000011
 20
64.0
 30
0.0
 11
-754.06103199999984
 21
64.0
 31
0.0
  0
LINE
  5
F58AD
  8
OBJECT
 10
-754.06103199999984
 20
64.0
 30
0.0
 11
-754.06103199999984
 21
68.698098999999985
 31
0.0
  0
LINE
  5
F58AE
  8
OBJECT
 10
-757.81380899999965
 20
68.698098999999985
 30
0.0
 11
-757.81380899999965
 21
64.0
 31
0.0
  0
LINE
  5
F58AF
  8
OBJECT
 10
-765.31936300000029
 20
68.698098999999985
 30
0.0
 11
-765.31936300000029
 21
64.0
 31
0.0
  0
ARC
  5
F58B0
  8
OBJECT
 10
-761.56658600000003
 20
57.299999999999997
 30
0.0
 40
12.0
 50
71.776086000002124
 51
108.2239139999979
  0
ARC
  5
F58B1
  8
OBJECT
 10
-755.93742099999974
 20
66.074286999999984
 30
0.0
 40
3.2257129999999989
 50
54.429989999999862
 51
125.5700100000001
  0
ARC
  5
F58B2
  8
OBJECT
 10
-767.19575099999975
 20
66.074286999999984
 30
0.0
 40
3.2257129999999989
 50
54.429989999999862
 51
125.5700100000001
  0
LINE
  5
F58B3
  8
OBJECT
 10
-755.93742099999974
 20
69.300000000000011
 30
0.0
 11
-767.19575099999975
 21
69.300000000000011
 31
0.0
  0
LINE
  5
F58B4
  8
OBJECT
 10
-736.56658600000003
 20
58.0
 30
0.0
 11
-736.56658600000003
 21
64.0
 31
0.0
  0
LINE
  5
F58B5
  8
OBJECT
 10
-736.56658600000003
 20
64.0
 30
0.0
 11
-786.5665859999998
 21
64.0
 31
0.0
  0
LINE
  5
F58B6
  8
OBJECT
 10
-786.5665859999998
 20
58.0
 30
0.0
 11
-786.5665859999998
 21
64.0
 31
0.0
  0
LINE
  5
F58B7
  8
OBJECT
 10
-736.56658600000003
 20
58.0
 30
0.0
 11
-786.5665859999998
 21
58.0
 31
0.0
  0
LINE
  5
F58B8
  8
OBJECT
 10
-736.56658600000003
 20
58.0
 30
0.0
 11
-736.56658600000003
 21
55.0
 31
0.0
  0
LINE
  5
F58B9
  8
OBJECT
 10
-786.5665859999998
 20
58.0
 30
0.0
 11
-736.56658600000003
 21
58.0
 31
0.0
  0
LINE
  5
F58BA
  8
OBJECT
 10
-786.5665859999998
 20
55.0
 30
0.0
 11
-786.5665859999998
 21
58.0
 31
0.0
  0
LINE
  5
F58BB
  8
OBJECT
 10
-736.56658600000003
 20
55.0
 30
0.0
 11
-786.5665859999998
 21
55.0
 31
0.0
  0
LINE
  5
F58BC
  8
OBJECT
 10
-750.68463999999983
 20
444.67354399999999
 30
0.0
 11
-750.67444599999999
 21
444.67229099999997
 31
0.0
  0
LINE
  5
F58BD
  8
OBJECT
 10
-750.67444599999999
 20
444.67229099999997
 30
0.0
 11
-750.64473599999997
 21
444.66862800000001
 31
0.0
  0
LINE
  5
F58BE
  8
OBJECT
 10
-750.64473599999997
 20
444.66862800000001
 30
0.0
 11
-750.59682000000032
 21
444.66269999999992
 31
0.0
  0
LINE
  5
F58BF
  8
OBJECT
 10
-750.59682000000032
 20
444.66269999999992
 30
0.0
 11
-750.53200699999979
 21
444.65465199999988
 31
0.0
  0
LINE
  5
F58C0
  8
OBJECT
 10
-750.53200699999979
 20
444.65465199999988
 30
0.0
 11
-750.45160599999997
 21
444.64462899999978
 31
0.0
  0
LINE
  5
F58C1
  8
OBJECT
 10
-750.45160599999997
 20
444.64462899999978
 30
0.0
 11
-750.35692499999982
 21
444.63277699999992
 31
0.0
  0
LINE
  5
F58C2
  8
OBJECT
 10
-750.35692499999982
 20
444.63277699999992
 30
0.0
 11
-750.2492739999999
 21
444.61923899999999
 31
0.0
  0
LINE
  5
F58C3
  8
OBJECT
 10
-750.2492739999999
 20
444.61923899999999
 30
0.0
 11
-750.12996200000009
 21
444.60416199999992
 31
0.0
  0
LINE
  5
F58C4
  8
OBJECT
 10
-750.12996200000009
 20
444.60416199999992
 30
0.0
 11
-750.00029700000005
 21
444.58769000000001
 31
0.0
  0
LINE
  5
F58C5
  8
OBJECT
 10
-750.00029700000005
 20
444.58769000000001
 30
0.0
 11
-749.86158899999987
 21
444.56996800000002
 31
0.0
  0
LINE
  5
F58C6
  8
OBJECT
 10
-749.86158899999987
 20
444.56996800000002
 30
0.0
 11
-749.715146
 21
444.55114099999992
 31
0.0
  0
LINE
  5
F58C7
  8
OBJECT
 10
-749.715146
 20
444.55114099999992
 30
0.0
 11
-749.56227800000033
 21
444.53135399999991
 31
0.0
  0
LINE
  5
F58C8
  8
OBJECT
 10
-749.56227800000033
 20
444.53135399999991
 30
0.0
 11
-749.40429400000005
 21
444.51075300000002
 31
0.0
  0
LINE
  5
F58C9
  8
OBJECT
 10
-749.40429400000005
 20
444.51075300000002
 30
0.0
 11
-749.24250300000028
 21
444.48948200000001
 31
0.0
  0
LINE
  5
F58CA
  8
OBJECT
 10
-749.24250300000028
 20
444.48948200000001
 30
0.0
 11
-749.07821300000001
 21
444.46768499999979
 31
0.0
  0
LINE
  5
F58CB
  8
OBJECT
 10
-749.07821300000001
 20
444.46768499999979
 30
0.0
 11
-748.91273299999955
 21
444.44550899999979
 31
0.0
  0
LINE
  5
F58CC
  8
OBJECT
 10
-748.91273299999955
 20
444.44550899999979
 30
0.0
 11
-748.74737399999981
 21
444.42309899999998
 31
0.0
  0
LINE
  5
F58CD
  8
OBJECT
 10
-748.74737399999981
 20
444.42309899999998
 30
0.0
 11
-748.58344299999965
 21
444.400598
 31
0.0
  0
LINE
  5
F58CE
  8
OBJECT
 10
-748.58344299999965
 20
444.400598
 30
0.0
 11
-748.42224999999985
 21
444.37815299999988
 31
0.0
  0
LINE
  5
F58CF
  8
OBJECT
 10
-748.42224999999985
 20
444.37815299999988
 30
0.0
 11
-748.26510300000029
 21
444.35590799999989
 31
0.0
  0
LINE
  5
F58D0
  8
OBJECT
 10
-748.26510300000029
 20
444.35590799999989
 30
0.0
 11
-748.09636499999988
 21
444.33154699999989
 31
0.0
  0
LINE
  5
F58D1
  8
OBJECT
 10
-748.09636499999988
 20
444.33154699999989
 30
0.0
 11
-747.93382900000017
 21
444.30757199999999
 31
0.0
  0
LINE
  5
F58D2
  8
OBJECT
 10
-747.93382900000017
 20
444.30757199999999
 30
0.0
 11
-747.77707600000019
 21
444.28393999999992
 31
0.0
  0
LINE
  5
F58D3
  8
OBJECT
 10
-747.77707600000019
 20
444.28393999999992
 30
0.0
 11
-747.62568699999997
 21
444.26060799999999
 31
0.0
  0
LINE
  5
F58D4
  8
OBJECT
 10
-747.62568699999997
 20
444.26060799999999
 30
0.0
 11
-747.47924500000011
 21
444.23753699999992
 31
0.0
  0
LINE
  5
F58D5
  8
OBJECT
 10
-747.47924500000011
 20
444.23753699999992
 30
0.0
 11
-747.33733000000029
 21
444.21468199999993
 31
0.0
  0
LINE
  5
F58D6
  8
OBJECT
 10
-747.33733000000029
 20
444.21468199999993
 30
0.0
 11
-747.19952499999988
 21
444.192004
 31
0.0
  0
LINE
  5
F58D7
  8
OBJECT
 10
-747.19952499999988
 20
444.192004
 30
0.0
 11
-747.06540999999982
 21
444.16945899999979
 31
0.0
  0
LINE
  5
F58D8
  8
OBJECT
 10
-747.06540999999982
 20
444.16945899999979
 30
0.0
 11
-746.9345679999999
 21
444.14700699999997
 31
0.0
  0
LINE
  5
F58D9
  8
OBJECT
 10
-746.9345679999999
 20
444.14700699999997
 30
0.0
 11
-746.80658000000028
 21
444.12460399999998
 31
0.0
  0
LINE
  5
F58DA
  8
OBJECT
 10
-746.80658000000028
 20
444.12460399999998
 30
0.0
 11
-746.68102799999986
 21
444.10221100000001
 31
0.0
  0
LINE
  5
F58DB
  8
OBJECT
 10
-746.68102799999986
 20
444.10221100000001
 30
0.0
 11
-746.5574919999998
 21
444.07978300000002
 31
0.0
  0
LINE
  5
F58DC
  8
OBJECT
 10
-746.5574919999998
 20
444.07978300000002
 30
0.0
 11
-746.43555600000002
 21
444.05728099999988
 31
0.0
  0
LINE
  5
F58DD
  8
OBJECT
 10
-746.43555600000002
 20
444.05728099999988
 30
0.0
 11
-746.31479899999999
 21
444.03466100000003
 31
0.0
  0
LINE
  5
F58DE
  8
OBJECT
 10
-746.31479899999999
 20
444.03466100000003
 30
0.0
 11
-746.19480499999975
 21
444.01188200000001
 31
0.0
  0
LINE
  5
F58DF
  8
OBJECT
 10
-746.19480499999975
 20
444.01188200000001
 30
0.0
 11
-746.07515400000011
 21
443.98890299999988
 31
0.0
  0
LINE
  5
F58E0
  8
OBJECT
 10
-746.07515400000011
 20
443.98890299999988
 30
0.0
 11
-745.95542799999987
 21
443.96568099999979
 31
0.0
  0
LINE
  5
F58E1
  8
OBJECT
 10
-745.95542799999987
 20
443.96568099999979
 30
0.0
 11
-745.83520799999985
 21
443.94217500000002
 31
0.0
  0
LINE
  5
F58E2
  8
OBJECT
 10
-745.83520799999985
 20
443.94217500000002
 30
0.0
 11
-745.71407599999975
 21
443.91834199999988
 31
0.0
  0
LINE
  5
F58E3
  8
OBJECT
 10
-745.71407599999975
 20
443.91834199999988
 30
0.0
 11
-745.59161499999982
 21
443.89414199999987
 31
0.0
  0
LINE
  5
F58E4
  8
OBJECT
 10
-745.59161499999982
 20
443.89414199999987
 30
0.0
 11
-745.4730569999997
 21
443.8706449999998
 31
0.0
  0
LINE
  5
F58E5
  8
OBJECT
 10
-745.4730569999997
 20
443.8706449999998
 30
0.0
 11
-745.35300500000028
 21
443.84678999999988
 31
0.0
  0
LINE
  5
F58E6
  8
OBJECT
 10
-745.35300500000028
 20
443.84678999999988
 30
0.0
 11
-745.23155899999983
 21
443.82259199999987
 31
0.0
  0
LINE
  5
F58E7
  8
OBJECT
 10
-745.23155899999983
 20
443.82259199999987
 30
0.0
 11
-745.10882100000003
 21
443.79806699999989
 31
0.0
  0
LINE
  5
F58E8
  8
OBJECT
 10
-745.10882100000003
 20
443.79806699999989
 30
0.0
 11
-744.98489299999983
 21
443.77323000000001
 31
0.0
  0
LINE
  5
F58E9
  8
OBJECT
 10
-744.98489299999983
 20
443.77323000000001
 30
0.0
 11
-744.8598750000001
 21
443.74809699999997
 31
0.0
  0
LINE
  5
F58EA
  8
OBJECT
 10
-744.8598750000001
 20
443.74809699999997
 30
0.0
 11
-744.73387000000002
 21
443.72268299999979
 31
0.0
  0
LINE
  5
F58EB
  8
OBJECT
 10
-744.73387000000002
 20
443.72268299999979
 30
0.0
 11
-744.60698000000002
 21
443.69700399999999
 31
0.0
  0
LINE
  5
F58EC
  8
OBJECT
 10
-744.60698000000002
 20
443.69700399999999
 30
0.0
 11
-744.4793040000003
 21
443.67107600000008
 31
0.0
  0
LINE
  5
F58ED
  8
OBJECT
 10
-744.4793040000003
 20
443.67107600000008
 30
0.0
 11
-744.35094600000002
 21
443.64491399999991
 31
0.0
  0
LINE
  5
F58EE
  8
OBJECT
 10
-744.35094600000002
 20
443.64491399999991
 30
0.0
 11
-744.22200600000031
 21
443.61853400000001
 31
0.0
  0
LINE
  5
F58EF
  8
OBJECT
 10
-744.22200600000031
 20
443.61853400000001
 30
0.0
 11
-744.09258699999987
 21
443.59195099999988
 31
0.0
  0
LINE
  5
F58F0
  8
OBJECT
 10
-744.09258699999987
 20
443.59195099999988
 30
0.0
 11
-743.96278800000005
 21
443.56518099999988
 31
0.0
  0
LINE
  5
F58F1
  8
OBJECT
 10
-743.96278800000005
 20
443.56518099999988
 30
0.0
 11
-743.83271300000013
 21
443.53823999999992
 31
0.0
  0
LINE
  5
F58F2
  8
OBJECT
 10
-743.83271300000013
 20
443.53823999999992
 30
0.0
 11
-743.70246199999985
 21
443.51114399999989
 31
0.0
  0
LINE
  5
F58F3
  8
OBJECT
 10
-743.70246199999985
 20
443.51114399999989
 30
0.0
 11
-743.572137
 21
443.48390699999987
 31
0.0
  0
LINE
  5
F58F4
  8
OBJECT
 10
-743.572137
 20
443.48390699999987
 30
0.0
 11
-743.44183999999996
 21
443.45654500000001
 31
0.0
  0
LINE
  5
F58F5
  8
OBJECT
 10
-743.44183999999996
 20
443.45654500000001
 30
0.0
 11
-743.31167100000005
 21
443.42907499999978
 31
0.0
  0
LINE
  5
F58F6
  8
OBJECT
 10
-743.31167100000005
 20
443.42907499999978
 30
0.0
 11
-743.18173300000001
 21
443.40151100000003
 31
0.0
  0
LINE
  5
F58F7
  8
OBJECT
 10
-743.18173300000001
 20
443.40151100000003
 30
0.0
 11
-743.05212700000004
 21
443.37386899999979
 31
0.0
  0
LINE
  5
F58F8
  8
OBJECT
 10
-743.05212700000004
 20
443.37386899999979
 30
0.0
 11
-742.90410999999983
 21
443.34211199999999
 31
0.0
  0
LINE
  5
F58F9
  8
OBJECT
 10
-742.90410999999983
 20
443.34211199999999
 30
0.0
 11
-742.75662899999975
 21
443.31026499999979
 31
0.0
  0
LINE
  5
F58FA
  8
OBJECT
 10
-742.75662899999975
 20
443.31026499999979
 30
0.0
 11
-742.60965200000032
 21
443.27832000000001
 31
0.0
  0
LINE
  5
F58FB
  8
OBJECT
 10
-742.60965200000032
 20
443.27832000000001
 30
0.0
 11
-742.46314500000028
 21
443.24626899999998
 31
0.0
  0
LINE
  5
F58FC
  8
OBJECT
 10
-742.46314500000028
 20
443.24626899999998
 30
0.0
 11
-742.3170749999997
 21
443.21410399999991
 31
0.0
  0
LINE
  5
F58FD
  8
OBJECT
 10
-742.3170749999997
 20
443.21410399999991
 30
0.0
 11
-742.17140899999981
 21
443.1818159999998
 31
0.0
  0
LINE
  5
F58FE
  8
OBJECT
 10
-742.17140899999981
 20
443.1818159999998
 30
0.0
 11
-742.02611499999989
 21
443.14939799999991
 31
0.0
  0
LINE
  5
F58FF
  8
OBJECT
 10
-742.02611499999989
 20
443.14939799999991
 30
0.0
 11
-741.88115899999968
 21
443.11684099999979
 31
0.0
  0
LINE
  5
F5900
  8
OBJECT
 10
-741.88115899999968
 20
443.11684099999979
 30
0.0
 11
-741.7365090000003
 21
443.084137
 31
0.0
  0
LINE
  5
F5901
  8
OBJECT
 10
-741.7365090000003
 20
443.084137
 30
0.0
 11
-741.59213099999988
 21
443.05127799999991
 31
0.0
  0
LINE
  5
F5902
  8
OBJECT
 10
-741.59213099999988
 20
443.05127799999991
 30
0.0
 11
-741.44799299999966
 21
443.01825600000001
 31
0.0
  0
LINE
  5
F5903
  8
OBJECT
 10
-741.44799299999966
 20
443.01825600000001
 30
0.0
 11
-741.30406100000016
 21
442.98506300000003
 31
0.0
  0
LINE
  5
F5904
  8
OBJECT
 10
-741.30406100000016
 20
442.98506300000003
 30
0.0
 11
-741.16030300000011
 21
442.95168899999999
 31
0.0
  0
LINE
  5
F5905
  8
OBJECT
 10
-741.16030300000011
 20
442.95168899999999
 30
0.0
 11
-741.01668499999982
 21
442.91812899999979
 31
0.0
  0
LINE
  5
F5906
  8
OBJECT
 10
-741.01668499999982
 20
442.91812899999979
 30
0.0
 11
-740.87317499999983
 21
442.88437199999993
 31
0.0
  0
LINE
  5
F5907
  8
OBJECT
 10
-740.87317499999983
 20
442.88437199999993
 30
0.0
 11
-740.72973999999999
 21
442.85041100000001
 31
0.0
  0
LINE
  5
F5908
  8
OBJECT
 10
-740.72973999999999
 20
442.85041100000001
 30
0.0
 11
-740.58634600000005
 21
442.81623799999988
 31
0.0
  0
LINE
  5
F5909
  8
OBJECT
 10
-740.58634600000005
 20
442.81623799999988
 30
0.0
 11
-740.44296099999997
 21
442.78184499999998
 31
0.0
  0
LINE
  5
F590A
  8
OBJECT
 10
-740.44296099999997
 20
442.78184499999998
 30
0.0
 11
-740.29955199999995
 21
442.74722299999991
 31
0.0
  0
LINE
  5
F590B
  8
OBJECT
 10
-740.29955199999995
 20
442.74722299999991
 30
0.0
 11
-740.15608599999985
 21
442.71236399999992
 31
0.0
  0
LINE
  5
F590C
  8
OBJECT
 10
-740.15608599999985
 20
442.71236399999992
 30
0.0
 11
-740.01388599999996
 21
442.67759399999971
 31
0.0
  0
LINE
  5
F590D
  8
OBJECT
 10
-740.01388599999996
 20
442.67759399999971
 30
0.0
 11
-739.87160799999981
 21
442.642583
 31
0.0
  0
LINE
  5
F590E
  8
OBJECT
 10
-739.87160799999981
 20
442.642583
 30
0.0
 11
-739.72926099999995
 21
442.60733199999987
 31
0.0
  0
LINE
  5
F590F
  8
OBJECT
 10
-739.72926099999995
 20
442.60733199999987
 30
0.0
 11
-739.58685400000013
 21
442.57184299999989
 31
0.0
  0
LINE
  5
F5910
  8
OBJECT
 10
-739.58685400000013
 20
442.57184299999989
 30
0.0
 11
-739.44439699999998
 21
442.53611399999988
 31
0.0
  0
LINE
  5
F5911
  8
OBJECT
 10
-739.44439699999998
 20
442.53611399999988
 30
0.0
 11
-739.30189999999982
 21
442.5001459999998
 31
0.0
  0
LINE
  5
F5912
  8
OBJECT
 10
-739.30189999999982
 20
442.5001459999998
 30
0.0
 11
-739.15937300000019
 21
442.46393999999998
 31
0.0
  0
LINE
  5
F5913
  8
OBJECT
 10
-739.15937300000019
 20
442.46393999999998
 30
0.0
 11
-739.01682399999981
 21
442.42749599999991
 31
0.0
  0
LINE
  5
F5914
  8
OBJECT
 10
-739.01682399999981
 20
442.42749599999991
 30
0.0
 11
-738.87426499999981
 21
442.39081299999998
 31
0.0
  0
LINE
  5
F5915
  8
OBJECT
 10
-738.87426499999981
 20
442.39081299999998
 30
0.0
 11
-738.73170300000004
 21
442.35389399999991
 31
0.0
  0
LINE
  5
F5916
  8
OBJECT
 10
-738.73170300000004
 20
442.35389399999991
 30
0.0
 11
-738.5891499999999
 21
442.31673699999988
 31
0.0
  0
LINE
  5
F5917
  8
OBJECT
 10
-738.5891499999999
 20
442.31673699999988
 30
0.0
 11
-738.44661399999984
 21
442.27934199999987
 31
0.0
  0
LINE
  5
F5918
  8
OBJECT
 10
-738.44661399999984
 20
442.27934199999987
 30
0.0
 11
-738.30410599999982
 21
442.24171200000001
 31
0.0
  0
LINE
  5
F5919
  8
OBJECT
 10
-738.30410599999982
 20
442.24171200000001
 30
0.0
 11
-738.16163499999982
 21
442.20384399999989
 31
0.0
  0
LINE
  5
F591A
  8
OBJECT
 10
-738.16163499999982
 20
442.20384399999989
 30
0.0
 11
-738.01920999999982
 21
442.16574099999991
 31
0.0
  0
LINE
  5
F591B
  8
OBJECT
 10
-738.01920999999982
 20
442.16574099999991
 30
0.0
 11
-737.87684199999956
 21
442.12740199999979
 31
0.0
  0
LINE
  5
F591C
  8
OBJECT
 10
-737.87684199999956
 20
442.12740199999979
 30
0.0
 11
-737.73453999999981
 21
442.08882699999981
 31
0.0
  0
LINE
  5
F591D
  8
OBJECT
 10
-737.73453999999981
 20
442.08882699999981
 30
0.0
 11
-737.5923130000001
 21
442.05001699999991
 31
0.0
  0
LINE
  5
F591E
  8
OBJECT
 10
-737.5923130000001
 20
442.05001699999991
 30
0.0
 11
-737.45017199999984
 21
442.01097299999998
 31
0.0
  0
LINE
  5
F591F
  8
OBJECT
 10
-737.45017199999984
 20
442.01097299999998
 30
0.0
 11
-737.30812499999979
 21
441.97169299999979
 31
0.0
  0
LINE
  5
F5920
  8
OBJECT
 10
-737.30812499999979
 20
441.97169299999979
 30
0.0
 11
-737.1594849999999
 21
441.93030999999991
 31
0.0
  0
LINE
  5
F5921
  8
OBJECT
 10
-737.1594849999999
 20
441.93030999999991
 30
0.0
 11
-737.01095700000019
 21
441.88867199999987
 31
0.0
  0
LINE
  5
F5922
  8
OBJECT
 10
-737.01095700000019
 20
441.88867199999987
 30
0.0
 11
-736.8625360000002
 21
441.84678499999978
 31
0.0
  0
LINE
  5
F5923
  8
OBJECT
 10
-736.8625360000002
 20
441.84678499999978
 30
0.0
 11
-736.71421999999984
 21
441.80464999999992
 31
0.0
  0
LINE
  5
F5924
  8
OBJECT
 10
-736.71421999999984
 20
441.80464999999992
 30
0.0
 11
-736.56600400000002
 21
441.76227199999988
 31
0.0
  0
LINE
  5
F5925
  8
OBJECT
 10
-736.56600400000002
 20
441.76227199999988
 30
0.0
 11
-736.41788599999995
 21
441.71965299999999
 31
0.0
  0
LINE
  5
F5926
  8
OBJECT
 10
-736.41788599999995
 20
441.71965299999999
 30
0.0
 11
-736.26986199999988
 21
441.67679700000008
 31
0.0
  0
LINE
  5
F5927
  8
OBJECT
 10
-736.26986199999988
 20
441.67679700000008
 30
0.0
 11
-736.12192900000014
 21
441.63370699999979
 31
0.0
  0
LINE
  5
F5928
  8
OBJECT
 10
-736.12192900000014
 20
441.63370699999979
 30
0.0
 11
-735.97408199999984
 21
441.59038700000002
 31
0.0
  0
LINE
  5
F5929
  8
OBJECT
 10
-735.97408199999984
 20
441.59038700000002
 30
0.0
 11
-735.82632000000001
 21
441.54683999999992
 31
0.0
  0
LINE
  5
F592A
  8
OBJECT
 10
-735.82632000000001
 20
441.54683999999992
 30
0.0
 11
-735.67863699999998
 21
441.50306899999998
 31
0.0
  0
LINE
  5
F592B
  8
OBJECT
 10
-735.67863699999998
 20
441.50306899999998
 30
0.0
 11
-735.53103099999998
 21
441.45907799999998
 31
0.0
  0
LINE
  5
F592C
  8
OBJECT
 10
-735.53103099999998
 20
441.45907799999998
 30
0.0
 11
-735.3834989999998
 21
441.41486899999973
 31
0.0
  0
LINE
  5
F592D
  8
OBJECT
 10
-735.3834989999998
 20
441.41486899999973
 30
0.0
 11
-735.23603700000001
 21
441.37044599999979
 31
0.0
  0
LINE
  5
F592E
  8
OBJECT
 10
-735.23603700000001
 20
441.37044599999979
 30
0.0
 11
-735.08864099999982
 21
441.3258130000001
 31
0.0
  0
LINE
  5
F592F
  8
OBJECT
 10
-735.08864099999982
 20
441.3258130000001
 30
0.0
 11
-734.94130799999971
 21
441.28097299999979
 31
0.0
  0
LINE
  5
F5930
  8
OBJECT
 10
-734.94130799999971
 20
441.28097299999979
 30
0.0
 11
-734.79403399999956
 21
441.235929
 31
0.0
  0
LINE
  5
F5931
  8
OBJECT
 10
-734.79403399999956
 20
441.235929
 30
0.0
 11
-734.64681699999983
 21
441.19068399999992
 31
0.0
  0
LINE
  5
F5932
  8
OBJECT
 10
-734.64681699999983
 20
441.19068399999992
 30
0.0
 11
-734.49965199999986
 21
441.14524199999988
 31
0.0
  0
LINE
  5
F5933
  8
OBJECT
 10
-734.49965199999986
 20
441.14524199999988
 30
0.0
 11
-734.3525360000001
 21
441.09960599999999
 31
0.0
  0
LINE
  5
F5934
  8
OBJECT
 10
-734.3525360000001
 20
441.09960599999999
 30
0.0
 11
-734.21006199999999
 21
441.05521399999998
 31
0.0
  0
LINE
  5
F5935
  8
OBJECT
 10
-734.21006199999999
 20
441.05521399999998
 30
0.0
 11
-734.067632
 21
441.01064599999989
 31
0.0
  0
LINE
  5
F5936
  8
OBJECT
 10
-734.067632
 20
441.01064599999989
 30
0.0
 11
-733.92524500000002
 21
440.96590500000002
 31
0.0
  0
LINE
  5
F5937
  8
OBJECT
 10
-733.92524500000002
 20
440.96590500000002
 30
0.0
 11
-733.78290400000014
 21
440.92099300000001
 31
0.0
  0
LINE
  5
F5938
  8
OBJECT
 10
-733.78290400000014
 20
440.92099300000001
 30
0.0
 11
-733.64060699999982
 21
440.87591300000003
 31
0.0
  0
LINE
  5
F5939
  8
OBJECT
 10
-733.64060699999982
 20
440.87591300000003
 30
0.0
 11
-733.49835599999983
 21
440.83066799999989
 31
0.0
  0
LINE
  5
F593A
  8
OBJECT
 10
-733.49835599999983
 20
440.83066799999989
 30
0.0
 11
-733.35615199999984
 21
440.78526099999988
 31
0.0
  0
LINE
  5
F593B
  8
OBJECT
 10
-733.35615199999984
 20
440.78526099999988
 30
0.0
 11
-733.21399400000018
 21
440.73969399999987
 31
0.0
  0
LINE
  5
F593C
  8
OBJECT
 10
-733.21399400000018
 20
440.73969399999987
 30
0.0
 11
-733.07188399999984
 21
440.69397099999992
 31
0.0
  0
LINE
  5
F593D
  8
OBJECT
 10
-733.07188399999984
 20
440.69397099999992
 30
0.0
 11
-732.92982199999983
 21
440.64809399999979
 31
0.0
  0
LINE
  5
F593E
  8
OBJECT
 10
-732.92982199999983
 20
440.64809399999979
 30
0.0
 11
-732.7878079999997
 21
440.60206499999998
 31
0.0
  0
LINE
  5
F593F
  8
OBJECT
 10
-732.7878079999997
 20
440.60206499999998
 30
0.0
 11
-732.64584400000001
 21
440.5558880000001
 31
0.0
  0
LINE
  5
F5940
  8
OBJECT
 10
-732.64584400000001
 20
440.5558880000001
 30
0.0
 11
-732.5039290000002
 21
440.50956599999989
 31
0.0
  0
LINE
  5
F5941
  8
OBJECT
 10
-732.5039290000002
 20
440.50956599999989
 30
0.0
 11
-732.36206400000003
 21
440.4631
 31
0.0
  0
LINE
  5
F5942
  8
OBJECT
 10
-732.36206400000003
 20
440.4631
 30
0.0
 11
-732.22025100000019
 21
440.416495
 31
0.0
  0
LINE
  5
F5943
  8
OBJECT
 10
-732.22025100000019
 20
440.416495
 30
0.0
 11
-732.0784890000001
 21
440.36975200000001
 31
0.0
  0
LINE
  5
F5944
  8
OBJECT
 10
-732.0784890000001
 20
440.36975200000001
 30
0.0
 11
-731.93677800000012
 21
440.32287499999973
 31
0.0
  0
LINE
  5
F5945
  8
OBJECT
 10
-731.93677800000012
 20
440.32287499999973
 30
0.0
 11
-731.79512100000011
 21
440.27586599999989
 31
0.0
  0
LINE
  5
F5946
  8
OBJECT
 10
-731.79512100000011
 20
440.27586599999989
 30
0.0
 11
-731.65351599999985
 21
440.22872799999999
 31
0.0
  0
LINE
  5
F5947
  8
OBJECT
 10
-731.65351599999985
 20
440.22872799999999
 30
0.0
 11
-731.51196499999969
 21
440.18146400000001
 31
0.0
  0
LINE
  5
F5948
  8
OBJECT
 10
-731.51196499999969
 20
440.18146400000001
 30
0.0
 11
-731.37815699999976
 21
440.13665399999979
 31
0.0
  0
LINE
  5
F5949
  8
OBJECT
 10
-731.37815699999976
 20
440.13665399999979
 30
0.0
 11
-731.24439600000028
 21
440.09173600000003
 31
0.0
  0
LINE
  5
F594A
  8
OBJECT
 10
-731.24439600000028
 20
440.09173600000003
 30
0.0
 11
-731.11067700000012
 21
440.04670900000002
 31
0.0
  0
LINE
  5
F594B
  8
OBJECT
 10
-731.11067700000012
 20
440.04670900000002
 30
0.0
 11
-730.9770000000002
 21
440.00157399999989
 31
0.0
  0
LINE
  5
F594C
  8
OBJECT
 10
-730.9770000000002
 20
440.00157399999989
 30
0.0
 11
-730.8433610000003
 21
439.95633299999992
 31
0.0
  0
LINE
  5
F594D
  8
OBJECT
 10
-730.8433610000003
 20
439.95633299999992
 30
0.0
 11
-730.70975800000031
 21
439.91098599999998
 31
0.0
  0
LINE
  5
F594E
  8
OBJECT
 10
-730.70975800000031
 20
439.91098599999998
 30
0.0
 11
-730.57618800000012
 21
439.86553499999991
 31
0.0
  0
LINE
  5
F594F
  8
OBJECT
 10
-730.57618800000012
 20
439.86553499999991
 30
0.0
 11
-730.44264899999985
 21
439.81997899999988
 31
0.0
  0
LINE
  5
F5950
  8
OBJECT
 10
-730.44264899999985
 20
439.81997899999988
 30
0.0
 11
-730.30913799999985
 21
439.77432099999987
 31
0.0
  0
LINE
  5
F5951
  8
OBJECT
 10
-730.30913799999985
 20
439.77432099999987
 30
0.0
 11
-730.17565300000012
 21
439.72856099999979
 31
0.0
  0
LINE
  5
F5952
  8
OBJECT
 10
-730.17565300000012
 20
439.72856099999979
 30
0.0
 11
-730.04219100000012
 21
439.68270000000001
 31
0.0
  0
LINE
  5
F5953
  8
OBJECT
 10
-730.04219100000012
 20
439.68270000000001
 30
0.0
 11
-729.90874999999983
 21
439.63673899999992
 31
0.0
  0
LINE
  5
F5954
  8
OBJECT
 10
-729.90874999999983
 20
439.63673899999992
 30
0.0
 11
-729.77532700000017
 21
439.59067800000003
 31
0.0
  0
LINE
  5
F5955
  8
OBJECT
 10
-729.77532700000017
 20
439.59067800000003
 30
0.0
 11
-729.64192000000014
 21
439.54451999999998
 31
0.0
  0
LINE
  5
F5956
  8
OBJECT
 10
-729.64192000000014
 20
439.54451999999998
 30
0.0
 11
-729.5085260000003
 21
439.49826499999972
 31
0.0
  0
LINE
  5
F5957
  8
OBJECT
 10
-729.5085260000003
 20
439.49826499999972
 30
0.0
 11
-729.37514299999964
 21
439.45191299999988
 31
0.0
  0
LINE
  5
F5958
  8
OBJECT
 10
-729.37514299999964
 20
439.45191299999988
 30
0.0
 11
-729.24176699999964
 21
439.40546599999999
 31
0.0
  0
LINE
  5
F5959
  8
OBJECT
 10
-729.24176699999964
 20
439.40546599999999
 30
0.0
 11
-729.10839799999985
 21
439.35892499999989
 31
0.0
  0
LINE
  5
F595A
  8
OBJECT
 10
-729.10839799999985
 20
439.35892499999989
 30
0.0
 11
-728.97503099999983
 21
439.31228999999979
 31
0.0
  0
LINE
  5
F595B
  8
OBJECT
 10
-728.97503099999983
 20
439.31228999999979
 30
0.0
 11
-728.84166400000015
 21
439.26556299999999
 31
0.0
  0
LINE
  5
F595C
  8
OBJECT
 10
-728.84166400000015
 20
439.26556299999999
 30
0.0
 11
-728.68629699999985
 21
439.21100999999999
 31
0.0
  0
LINE
  5
F595D
  8
OBJECT
 10
-728.68629699999985
 20
439.21100999999999
 30
0.0
 11
-728.53094199999987
 21
439.15632199999999
 31
0.0
  0
LINE
  5
F595E
  8
OBJECT
 10
-728.53094199999987
 20
439.15632199999999
 30
0.0
 11
-728.37561200000005
 21
439.10149000000001
 31
0.0
  0
LINE
  5
F595F
  8
OBJECT
 10
-728.37561200000005
 20
439.10149000000001
 30
0.0
 11
-728.22032100000013
 21
439.04650399999991
 31
0.0
  0
LINE
  5
F5960
  8
OBJECT
 10
-728.22032100000013
 20
439.04650399999991
 30
0.0
 11
-728.06508399999984
 21
438.99135199999989
 31
0.0
  0
LINE
  5
F5961
  8
OBJECT
 10
-728.06508399999984
 20
438.99135199999989
 30
0.0
 11
-727.90991399999984
 21
438.93602499999997
 31
0.0
  0
LINE
  5
F5962
  8
OBJECT
 10
-727.90991399999984
 20
438.93602499999997
 30
0.0
 11
-727.75482599999964
 21
438.88051300000001
 31
0.0
  0
LINE
  5
F5963
  8
OBJECT
 10
-727.75482599999964
 20
438.88051300000001
 30
0.0
 11
-727.59983399999987
 21
438.82480599999991
 31
0.0
  0
LINE
  5
F5964
  8
OBJECT
 10
-727.59983399999987
 20
438.82480599999991
 30
0.0
 11
-727.44495199999994
 21
438.76889199999999
 31
0.0
  0
LINE
  5
F5965
  8
OBJECT
 10
-727.44495199999994
 20
438.76889199999999
 30
0.0
 11
-727.29019400000016
 21
438.712763
 31
0.0
  0
LINE
  5
F5966
  8
OBJECT
 10
-727.29019400000016
 20
438.712763
 30
0.0
 11
-727.13557399999968
 21
438.656408
 31
0.0
  0
LINE
  5
F5967
  8
OBJECT
 10
-727.13557399999968
 20
438.656408
 30
0.0
 11
-726.98110600000018
 21
438.59981699999992
 31
0.0
  0
LINE
  5
F5968
  8
OBJECT
 10
-726.98110600000018
 20
438.59981699999992
 30
0.0
 11
-726.82680400000015
 21
438.54297999999989
 31
0.0
  0
LINE
  5
F5969
  8
OBJECT
 10
-726.82680400000015
 20
438.54297999999989
 30
0.0
 11
-726.67268200000012
 21
438.48588499999988
 31
0.0
  0
LINE
  5
F596A
  8
OBJECT
 10
-726.67268200000012
 20
438.48588499999988
 30
0.0
 11
-726.51875500000017
 21
438.42852399999992
 31
0.0
  0
LINE
  5
F596B
  8
OBJECT
 10
-726.51875500000017
 20
438.42852399999992
 30
0.0
 11
-726.36503600000003
 21
438.37088599999993
 31
0.0
  0
LINE
  5
F596C
  8
OBJECT
 10
-726.36503600000003
 20
438.37088599999993
 30
0.0
 11
-726.2115389999999
 21
438.31296200000003
 31
0.0
  0
LINE
  5
F596D
  8
OBJECT
 10
-726.2115389999999
 20
438.31296200000003
 30
0.0
 11
-726.05827899999986
 21
438.25473899999997
 31
0.0
  0
LINE
  5
F596E
  8
OBJECT
 10
-726.05827899999986
 20
438.25473899999997
 30
0.0
 11
-725.90527000000031
 21
438.19620999999989
 31
0.0
  0
LINE
  5
F596F
  8
OBJECT
 10
-725.90527000000031
 20
438.19620999999989
 30
0.0
 11
-725.75252499999965
 21
438.13736199999988
 31
0.0
  0
LINE
  5
F5970
  8
OBJECT
 10
-725.75252499999965
 20
438.13736199999988
 30
0.0
 11
-725.61977400000012
 21
438.08586499999979
 31
0.0
  0
LINE
  5
F5971
  8
OBJECT
 10
-725.61977400000012
 20
438.08586499999979
 30
0.0
 11
-725.48720999999955
 21
438.03410999999988
 31
0.0
  0
LINE
  5
F5972
  8
OBJECT
 10
-725.48720999999955
 20
438.03410999999988
 30
0.0
 11
-725.35480799999982
 21
437.98208699999992
 31
0.0
  0
LINE
  5
F5973
  8
OBJECT
 10
-725.35480799999982
 20
437.98208699999992
 30
0.0
 11
-725.22254399999997
 21
437.92978599999998
 31
0.0
  0
LINE
  5
F5974
  8
OBJECT
 10
-725.22254399999997
 20
437.92978599999998
 30
0.0
 11
-725.09039399999995
 21
437.87719799999979
 31
0.0
  0
LINE
  5
F5975
  8
OBJECT
 10
-725.09039399999995
 20
437.87719799999979
 30
0.0
 11
-724.95833299999981
 21
437.82431199999991
 31
0.0
  0
LINE
  5
F5976
  8
OBJECT
 10
-724.95833299999981
 20
437.82431199999991
 30
0.0
 11
-724.82633699999985
 21
437.77111899999989
 31
0.0
  0
LINE
  5
F5977
  8
OBJECT
 10
-724.82633699999985
 20
437.77111899999989
 30
0.0
 11
-724.69438199999979
 21
437.71760899999981
 31
0.0
  0
LINE
  5
F5978
  8
OBJECT
 10
-724.69438199999979
 20
437.71760899999981
 30
0.0
 11
-724.5624429999998
 21
437.66377299999988
 31
0.0
  0
LINE
  5
F5979
  8
OBJECT
 10
-724.5624429999998
 20
437.66377299999988
 30
0.0
 11
-724.43049599999995
 21
437.6096
 31
0.0
  0
LINE
  5
F597A
  8
OBJECT
 10
-724.43049599999995
 20
437.6096
 30
0.0
 11
-724.29851599999984
 21
437.55507999999998
 31
0.0
  0
LINE
  5
F597B
  8
OBJECT
 10
-724.29851599999984
 20
437.55507999999998
 30
0.0
 11
-724.16647899999975
 21
437.50020499999988
 31
0.0
  0
LINE
  5
F597C
  8
OBJECT
 10
-724.16647899999975
 20
437.50020499999988
 30
0.0
 11
-724.03436100000033
 21
437.44496299999997
 31
0.0
  0
LINE
  5
F597D
  8
OBJECT
 10
-724.03436100000033
 20
437.44496299999997
 30
0.0
 11
-723.90213600000016
 21
437.38934699999987
 31
0.0
  0
LINE
  5
F597E
  8
OBJECT
 10
-723.90213600000016
 20
437.38934699999987
 30
0.0
 11
-723.76978199999985
 21
437.33334399999978
 31
0.0
  0
LINE
  5
F597F
  8
OBJECT
 10
-723.76978199999985
 20
437.33334399999978
 30
0.0
 11
-723.63727299999982
 21
437.27694700000001
 31
0.0
  0
LINE
  5
F5980
  8
OBJECT
 10
-723.63727299999982
 20
437.27694700000001
 30
0.0
 11
-723.50458499999968
 21
437.22014399999989
 31
0.0
  0
LINE
  5
F5981
  8
OBJECT
 10
-723.50458499999968
 20
437.22014399999989
 30
0.0
 11
-723.37169400000005
 21
437.1629269999998
 31
0.0
  0
LINE
  5
F5982
  8
OBJECT
 10
-723.37169400000005
 20
437.1629269999998
 30
0.0
 11
-723.23857499999986
 21
437.10528499999981
 31
0.0
  0
LINE
  5
F5983
  8
OBJECT
 10
-723.23857499999986
 20
437.10528499999981
 30
0.0
 11
-723.1052040000003
 21
437.04720899999978
 31
0.0
  0
LINE
  5
F5984
  8
OBJECT
 10
-723.1052040000003
 20
437.04720899999978
 30
0.0
 11
-722.96937300000013
 21
436.98773199999988
 31
0.0
  0
LINE
  5
F5985
  8
OBJECT
 10
-722.96937300000013
 20
436.98773199999988
 30
0.0
 11
-722.83334799999989
 21
436.92784999999998
 31
0.0
  0
LINE
  5
F5986
  8
OBJECT
 10
-722.83334799999989
 20
436.92784999999998
 30
0.0
 11
-722.69722200000012
 21
436.86761699999988
 31
0.0
  0
LINE
  5
F5987
  8
OBJECT
 10
-722.69722200000012
 20
436.86761699999988
 30
0.0
 11
-722.56108399999982
 21
436.80708699999991
 31
0.0
  0
LINE
  5
F5988
  8
OBJECT
 10
-722.56108399999982
 20
436.80708699999991
 30
0.0
 11
-722.42502799999988
 21
436.74631299999987
 31
0.0
  0
LINE
  5
F5989
  8
OBJECT
 10
-722.42502799999988
 20
436.74631299999987
 30
0.0
 11
-722.2891450000003
 21
436.68534899999992
 31
0.0
  0
LINE
  5
F598A
  8
OBJECT
 10
-722.2891450000003
 20
436.68534899999992
 30
0.0
 11
-722.15352700000017
 21
436.62424900000002
 31
0.0
  0
LINE
  5
F598B
  8
OBJECT
 10
-722.15352700000017
 20
436.62424900000002
 30
0.0
 11
-722.01826599999981
 21
436.56306699999988
 31
0.0
  0
LINE
  5
F598C
  8
OBJECT
 10
-722.01826599999981
 20
436.56306699999988
 30
0.0
 11
-721.88345300000015
 21
436.50185699999997
 31
0.0
  0
LINE
  5
F598D
  8
OBJECT
 10
-721.88345300000015
 20
436.50185699999997
 30
0.0
 11
-721.74918000000014
 21
436.44067199999989
 31
0.0
  0
LINE
  5
F598E
  8
OBJECT
 10
-721.74918000000014
 20
436.44067199999989
 30
0.0
 11
-721.61553900000013
 21
436.37956600000001
 31
0.0
  0
LINE
  5
F598F
  8
OBJECT
 10
-721.61553900000013
 20
436.37956600000001
 30
0.0
 11
-721.48262199999988
 21
436.31859299999991
 31
0.0
  0
LINE
  5
F5990
  8
OBJECT
 10
-721.48262199999988
 20
436.31859299999991
 30
0.0
 11
-721.35051999999996
 21
436.25780700000001
 31
0.0
  0
LINE
  5
F5991
  8
OBJECT
 10
-721.35051999999996
 20
436.25780700000001
 30
0.0
 11
-721.21932499999957
 21
436.19726199999991
 31
0.0
  0
LINE
  5
F5992
  8
OBJECT
 10
-721.21932499999957
 20
436.19726199999991
 30
0.0
 11
-721.08912899999984
 21
436.13701099999997
 31
0.0
  0
LINE
  5
F5993
  8
OBJECT
 10
-721.08912899999984
 20
436.13701099999997
 30
0.0
 11
-720.9600240000002
 21
436.07710900000001
 31
0.0
  0
LINE
  5
F5994
  8
OBJECT
 10
-720.9600240000002
 20
436.07710900000001
 30
0.0
 11
-720.83210100000031
 21
436.01760899999999
 31
0.0
  0
LINE
  5
F5995
  8
OBJECT
 10
-720.83210100000031
 20
436.01760899999999
 30
0.0
 11
-720.70545300000015
 21
435.9585639999998
 31
0.0
  0
LINE
  5
F5996
  8
OBJECT
 10
-720.70545300000015
 20
435.9585639999998
 30
0.0
 11
-720.58017000000018
 21
435.90002899999979
 31
0.0
  0
LINE
  5
F5997
  8
OBJECT
 10
-720.58017000000018
 20
435.90002899999979
 30
0.0
 11
-720.45634600000005
 21
435.84205799999989
 31
0.0
  0
LINE
  5
F5998
  8
OBJECT
 10
-720.45634600000005
 20
435.84205799999989
 30
0.0
 11
-720.3295099999998
 21
435.78255999999988
 31
0.0
  0
LINE
  5
F5999
  8
OBJECT
 10
-720.3295099999998
 20
435.78255999999988
 30
0.0
 11
-720.20396599999958
 21
435.72354199999978
 31
0.0
  0
LINE
  5
F599A
  8
OBJECT
 10
-720.20396599999958
 20
435.72354199999978
 30
0.0
 11
-720.07933800000012
 21
435.66482000000008
 31
0.0
  0
LINE
  5
F599B
  8
OBJECT
 10
-720.07933800000012
 20
435.66482000000008
 30
0.0
 11
-719.95524999999998
 21
435.60620899999998
 31
0.0
  0
LINE
  5
F599C
  8
OBJECT
 10
-719.95524999999998
 20
435.60620899999998
 30
0.0
 11
-719.83132700000033
 21
435.547528
 31
0.0
  0
LINE
  5
F599D
  8
OBJECT
 10
-719.83132700000033
 20
435.547528
 30
0.0
 11
-719.7071950000003
 21
435.48858999999999
 31
0.0
  0
LINE
  5
F599E
  8
OBJECT
 10
-719.7071950000003
 20
435.48858999999999
 30
0.0
 11
-719.58247800000015
 21
435.429213
 31
0.0
  0
LINE
  5
F599F
  8
OBJECT
 10
-719.58247800000015
 20
435.429213
 30
0.0
 11
-719.45680200000004
 21
435.36921299999989
 31
0.0
  0
LINE
  5
F59A0
  8
OBJECT
 10
-719.45680200000004
 20
435.36921299999989
 30
0.0
 11
-719.32979000000012
 21
435.30840499999988
 31
0.0
  0
LINE
  5
F59A1
  8
OBJECT
 10
-719.32979000000012
 20
435.30840499999988
 30
0.0
 11
-719.20106799999985
 21
435.24660699999998
 31
0.0
  0
LINE
  5
F59A2
  8
OBJECT
 10
-719.20106799999985
 20
435.24660699999998
 30
0.0
 11
-719.0702620000003
 21
435.18363299999999
 31
0.0
  0
LINE
  5
F59A3
  8
OBJECT
 10
-719.0702620000003
 20
435.18363299999999
 30
0.0
 11
-718.93699500000002
 21
435.11929999999978
 31
0.0
  0
LINE
  5
F59A4
  8
OBJECT
 10
-718.93699500000002
 20
435.11929999999978
 30
0.0
 11
-718.80089199999975
 21
435.05342499999989
 31
0.0
  0
LINE
  5
F59A5
  8
OBJECT
 10
-718.80089199999975
 20
435.05342499999989
 30
0.0
 11
-718.66157900000019
 21
434.98582399999992
 31
0.0
  0
LINE
  5
F59A6
  8
OBJECT
 10
-718.66157900000019
 20
434.98582399999992
 30
0.0
 11
-718.51868100000013
 21
434.91631100000001
 31
0.0
  0
LINE
  5
F59A7
  8
OBJECT
 10
-718.51868100000013
 20
434.91631100000001
 30
0.0
 11
-718.37182199999995
 21
434.84470499999981
 31
0.0
  0
LINE
  5
F59A8
  8
OBJECT
 10
-718.37182199999995
 20
434.84470499999981
 30
0.0
 11
-718.22062700000004
 21
434.77082000000001
 31
0.0
  0
LINE
  5
F59A9
  8
OBJECT
 10
-718.22062700000004
 20
434.77082000000001
 30
0.0
 11
-718.06472099999996
 21
434.69447299999979
 31
0.0
  0
LINE
  5
F59AA
  8
OBJECT
 10
-718.06472099999996
 20
434.69447299999979
 30
0.0
 11
-717.903729
 21
434.61548099999987
 31
0.0
  0
LINE
  5
F59AB
  8
OBJECT
 10
-717.903729
 20
434.61548099999987
 30
0.0
 11
-717.73727599999984
 21
434.533658
 31
0.0
  0
LINE
  5
F59AC
  8
OBJECT
 10
-717.73727599999984
 20
434.533658
 30
0.0
 11
-717.53975700000001
 21
434.43638999999979
 31
0.0
  0
LINE
  5
F59AD
  8
OBJECT
 10
-717.53975700000001
 20
434.43638999999979
 30
0.0
 11
-717.33631300000013
 21
434.33603899999991
 31
0.0
  0
LINE
  5
F59AE
  8
OBJECT
 10
-717.33631300000013
 20
434.33603899999991
 30
0.0
 11
-717.12868000000014
 21
434.23347799999988
 31
0.0
  0
LINE
  5
F59AF
  8
OBJECT
 10
-717.12868000000014
 20
434.23347799999988
 30
0.0
 11
-716.9185950000001
 21
434.12957899999998
 31
0.0
  0
LINE
  5
F59B0
  8
OBJECT
 10
-716.9185950000001
 20
434.12957899999998
 30
0.0
 11
-716.70779199999959
 21
434.02521499999989
 31
0.0
  0
LINE
  5
F59B1
  8
OBJECT
 10
-716.70779199999959
 20
434.02521499999989
 30
0.0
 11
-716.4980079999998
 21
433.92125900000002
 31
0.0
  0
LINE
  5
F59B2
  8
OBJECT
 10
-716.4980079999998
 20
433.92125900000002
 30
0.0
 11
-716.29097900000011
 21
433.81858399999999
 31
0.0
  0
LINE
  5
F59B3
  8
OBJECT
 10
-716.29097900000011
 20
433.81858399999999
 30
0.0
 11
-716.08844199999965
 21
433.7180619999998
 31
0.0
  0
LINE
  5
F59B4
  8
OBJECT
 10
-716.08844199999965
 20
433.7180619999998
 30
0.0
 11
-715.89213100000006
 21
433.62056699999999
 31
0.0
  0
LINE
  5
F59B5
  8
OBJECT
 10
-715.89213100000006
 20
433.62056699999999
 30
0.0
 11
-715.70378299999982
 21
433.52697000000001
 31
0.0
  0
LINE
  5
F59B6
  8
OBJECT
 10
-715.70378299999982
 20
433.52697000000001
 30
0.0
 11
-715.52513399999964
 21
433.43814599999979
 31
0.0
  0
LINE
  5
F59B7
  8
OBJECT
 10
-715.52513399999964
 20
433.43814599999979
 30
0.0
 11
-715.35792000000015
 21
433.35496599999999
 31
0.0
  0
LINE
  5
F59B8
  8
OBJECT
 10
-715.35792000000015
 20
433.35496599999999
 30
0.0
 11
-715.20387599999981
 21
433.27830299999988
 31
0.0
  0
LINE
  5
F59B9
  8
OBJECT
 10
-715.20387599999981
 20
433.27830299999988
 30
0.0
 11
-715.06473999999957
 21
433.20902999999993
 31
0.0
  0
LINE
  5
F59BA
  8
OBJECT
 10
-715.06473999999957
 20
433.20902999999993
 30
0.0
 11
-714.94224600000018
 21
433.14801999999992
 31
0.0
  0
LINE
  5
F59BB
  8
OBJECT
 10
-714.94224600000018
 20
433.14801999999992
 30
0.0
 11
-714.83813099999975
 21
433.09614599999998
 31
0.0
  0
LINE
  5
F59BC
  8
OBJECT
 10
-714.83813099999975
 20
433.09614599999998
 30
0.0
 11
-714.75413100000014
 21
433.05427999999989
 31
0.0
  0
LINE
  5
F59BD
  8
OBJECT
 10
-714.75413100000014
 20
433.05427999999989
 30
0.0
 11
-714.69198199999983
 21
433.02329600000002
 31
0.0
  0
LINE
  5
F59BE
  8
OBJECT
 10
-714.69198199999983
 20
433.02329600000002
 30
0.0
 11
-714.6534190000001
 21
433.00406499999991
 31
0.0
  0
LINE
  5
F59BF
  8
OBJECT
 10
-714.6534190000001
 20
433.00406499999991
 30
0.0
 11
-714.6401790000001
 21
432.99745999999988
 31
0.0
  0
LINE
  5
F59C0
  8
OBJECT
 10
-799.49299299999984
 20
432.99745999999988
 30
0.0
 11
-799.48334199999988
 21
433.00287199999991
 31
0.0
  0
LINE
  5
F59C1
  8
OBJECT
 10
-799.48334199999988
 20
433.00287199999991
 30
0.0
 11
-799.45520999999985
 21
433.01864399999999
 31
0.0
  0
LINE
  5
F59C2
  8
OBJECT
 10
-799.45520999999985
 20
433.01864399999999
 30
0.0
 11
-799.40983099999983
 21
433.04408099999989
 31
0.0
  0
LINE
  5
F59C3
  8
OBJECT
 10
-799.40983099999983
 20
433.04408099999989
 30
0.0
 11
-799.34843699999999
 21
433.07848799999999
 31
0.0
  0
LINE
  5
F59C4
  8
OBJECT
 10
-799.34843699999999
 20
433.07848799999999
 30
0.0
 11
-799.27226099999984
 21
433.12116999999989
 31
0.0
  0
LINE
  5
F59C5
  8
OBJECT
 10
-799.27226099999984
 20
433.12116999999989
 30
0.0
 11
-799.1825359999998
 21
433.17143199999992
 31
0.0
  0
LINE
  5
F59C6
  8
OBJECT
 10
-799.1825359999998
 20
433.17143199999992
 30
0.0
 11
-799.08049499999981
 21
433.22857899999991
 31
0.0
  0
LINE
  5
F59C7
  8
OBJECT
 10
-799.08049499999981
 20
433.22857899999991
 30
0.0
 11
-798.96736999999985
 21
433.29191699999978
 31
0.0
  0
LINE
  5
F59C8
  8
OBJECT
 10
-798.96736999999985
 20
433.29191699999978
 30
0.0
 11
-798.8443950000003
 21
433.360749
 31
0.0
  0
LINE
  5
F59C9
  8
OBJECT
 10
-798.8443950000003
 20
433.360749
 30
0.0
 11
-798.71280200000001
 21
433.43438200000003
 31
0.0
  0
LINE
  5
F59CA
  8
OBJECT
 10
-798.71280200000001
 20
433.43438200000003
 30
0.0
 11
-798.57382399999983
 21
433.51211999999992
 31
0.0
  0
LINE
  5
F59CB
  8
OBJECT
 10
-798.57382399999983
 20
433.51211999999992
 30
0.0
 11
-798.42869400000029
 21
433.59326799999991
 31
0.0
  0
LINE
  5
F59CC
  8
OBJECT
 10
-798.42869400000029
 20
433.59326799999991
 30
0.0
 11
-798.27864399999987
 21
433.67713200000009
 31
0.0
  0
LINE
  5
F59CD
  8
OBJECT
 10
-798.27864399999987
 20
433.67713200000009
 30
0.0
 11
-798.12490799999955
 21
433.76301599999988
 31
0.0
  0
LINE
  5
F59CE
  8
OBJECT
 10
-798.12490799999955
 20
433.76301599999988
 30
0.0
 11
-797.96871899999985
 21
433.85022400000008
 31
0.0
  0
LINE
  5
F59CF
  8
OBJECT
 10
-797.96871899999985
 20
433.85022400000008
 30
0.0
 11
-797.81130799999983
 21
433.93806399999988
 31
0.0
  0
LINE
  5
F59D0
  8
OBJECT
 10
-797.81130799999983
 20
433.93806399999988
 30
0.0
 11
-797.65391
 21
434.02583800000002
 31
0.0
  0
LINE
  5
F59D1
  8
OBJECT
 10
-797.65391
 20
434.02583800000002
 30
0.0
 11
-797.49775599999998
 21
434.11285299999992
 31
0.0
  0
LINE
  5
F59D2
  8
OBJECT
 10
-797.49775599999998
 20
434.11285299999992
 30
0.0
 11
-797.3440800000003
 21
434.19841199999991
 31
0.0
  0
LINE
  5
F59D3
  8
OBJECT
 10
-797.3440800000003
 20
434.19841199999991
 30
0.0
 11
-797.19411500000012
 21
434.2818229999998
 31
0.0
  0
LINE
  5
F59D4
  8
OBJECT
 10
-797.19411500000012
 20
434.2818229999998
 30
0.0
 11
-797.02895500000011
 21
434.37356799999992
 31
0.0
  0
LINE
  5
F59D5
  8
OBJECT
 10
-797.02895500000011
 20
434.37356799999992
 30
0.0
 11
-796.86979699999983
 21
434.46184399999993
 31
0.0
  0
LINE
  5
F59D6
  8
OBJECT
 10
-796.86979699999983
 20
434.46184399999993
 30
0.0
 11
-796.71622500000001
 21
434.546874
 31
0.0
  0
LINE
  5
F59D7
  8
OBJECT
 10
-796.71622500000001
 20
434.546874
 30
0.0
 11
-796.56782199999986
 21
434.6288829999998
 31
0.0
  0
LINE
  5
F59D8
  8
OBJECT
 10
-796.56782199999986
 20
434.6288829999998
 30
0.0
 11
-796.42417200000011
 21
434.70809300000002
 31
0.0
  0
LINE
  5
F59D9
  8
OBJECT
 10
-796.42417200000011
 20
434.70809300000002
 30
0.0
 11
-796.28485899999998
 21
434.7847289999998
 31
0.0
  0
LINE
  5
F59DA
  8
OBJECT
 10
-796.28485899999998
 20
434.7847289999998
 30
0.0
 11
-796.1494650000003
 21
434.85901399999989
 31
0.0
  0
LINE
  5
F59DB
  8
OBJECT
 10
-796.1494650000003
 20
434.85901399999989
 30
0.0
 11
-796.01757600000019
 21
434.931174
 31
0.0
  0
LINE
  5
F59DC
  8
OBJECT
 10
-796.01757600000019
 20
434.931174
 30
0.0
 11
-795.88877399999967
 21
435.00143000000003
 31
0.0
  0
LINE
  5
F59DD
  8
OBJECT
 10
-795.88877399999967
 20
435.00143000000003
 30
0.0
 11
-795.76264300000014
 21
435.07000799999997
 31
0.0
  0
LINE
  5
F59DE
  8
OBJECT
 10
-795.76264300000014
 20
435.07000799999997
 30
0.0
 11
-795.63876700000003
 21
435.13713099999973
 31
0.0
  0
LINE
  5
F59DF
  8
OBJECT
 10
-795.63876700000003
 20
435.13713099999973
 30
0.0
 11
-795.51673000000017
 21
435.20302299999992
 31
0.0
  0
LINE
  5
F59E0
  8
OBJECT
 10
-795.51673000000017
 20
435.20302299999992
 30
0.0
 11
-795.39611400000013
 21
435.26790799999992
 31
0.0
  0
LINE
  5
F59E1
  8
OBJECT
 10
-795.39611400000013
 20
435.26790799999992
 30
0.0
 11
-795.27650400000005
 21
435.33200999999991
 31
0.0
  0
LINE
  5
F59E2
  8
OBJECT
 10
-795.27650400000005
 20
435.33200999999991
 30
0.0
 11
-795.15748299999996
 21
435.39555300000001
 31
0.0
  0
LINE
  5
F59E3
  8
OBJECT
 10
-795.15748299999996
 20
435.39555300000001
 30
0.0
 11
-795.03863500000011
 21
435.45875999999998
 31
0.0
  0
LINE
  5
F59E4
  8
OBJECT
 10
-795.03863500000011
 20
435.45875999999998
 30
0.0
 11
-794.9195440000002
 21
435.52185500000002
 31
0.0
  0
LINE
  5
F59E5
  8
OBJECT
 10
-794.9195440000002
 20
435.52185500000002
 30
0.0
 11
-794.79979300000002
 21
435.58506299999988
 31
0.0
  0
LINE
  5
F59E6
  8
OBJECT
 10
-794.79979300000002
 20
435.58506299999988
 30
0.0
 11
-794.67896499999983
 21
435.64860700000003
 31
0.0
  0
LINE
  5
F59E7
  8
OBJECT
 10
-794.67896499999983
 20
435.64860700000003
 30
0.0
 11
-794.55664600000011
 21
435.71271100000001
 31
0.0
  0
LINE
  5
F59E8
  8
OBJECT
 10
-794.55664600000011
 20
435.71271100000001
 30
0.0
 11
-794.442859
 21
435.77214999999973
 31
0.0
  0
LINE
  5
F59E9
  8
OBJECT
 10
-794.442859
 20
435.77214999999973
 30
0.0
 11
-794.32755999999983
 21
435.83219099999991
 31
0.0
  0
LINE
  5
F59EA
  8
OBJECT
 10
-794.32755999999983
 20
435.83219099999991
 30
0.0
 11
-794.21084099999985
 21
435.89277900000002
 31
0.0
  0
LINE
  5
F59EB
  8
OBJECT
 10
-794.21084099999985
 20
435.89277900000002
 30
0.0
 11
-794.09279300000014
 21
435.95385499999992
 31
0.0
  0
LINE
  5
F59EC
  8
OBJECT
 10
-794.09279300000014
 20
435.95385499999992
 30
0.0
 11
-793.97351000000003
 21
436.01536399999998
 31
0.0
  0
LINE
  5
F59ED
  8
OBJECT
 10
-793.97351000000003
 20
436.01536399999998
 30
0.0
 11
-793.85308499999985
 21
436.077248
 31
0.0
  0
LINE
  5
F59EE
  8
OBJECT
 10
-793.85308499999985
 20
436.077248
 30
0.0
 11
-793.73161000000016
 21
436.13945100000001
 31
0.0
  0
LINE
  5
F59EF
  8
OBJECT
 10
-793.73161000000016
 20
436.13945100000001
 30
0.0
 11
-793.60917799999982
 21
436.20191499999999
 31
0.0
  0
LINE
  5
F59F0
  8
OBJECT
 10
-793.60917799999982
 20
436.20191499999999
 30
0.0
 11
-793.48588099999984
 21
436.26458499999978
 31
0.0
  0
LINE
  5
F59F1
  8
OBJECT
 10
-793.48588099999984
 20
436.26458499999978
 30
0.0
 11
-793.3618120000001
 21
436.327403
 31
0.0
  0
LINE
  5
F59F2
  8
OBJECT
 10
-793.3618120000001
 20
436.327403
 30
0.0
 11
-793.23706400000015
 21
436.39031199999988
 31
0.0
  0
LINE
  5
F59F3
  8
OBJECT
 10
-793.23706400000015
 20
436.39031199999988
 30
0.0
 11
-793.11172900000031
 21
436.45325599999978
 31
0.0
  0
LINE
  5
F59F4
  8
OBJECT
 10
-793.11172900000031
 20
436.45325599999978
 30
0.0
 11
-792.98590100000001
 21
436.51617800000002
 31
0.0
  0
LINE
  5
F59F5
  8
OBJECT
 10
-792.98590100000001
 20
436.51617800000002
 30
0.0
 11
-792.85967100000005
 21
436.57902099999978
 31
0.0
  0
LINE
  5
F59F6
  8
OBJECT
 10
-792.85967100000005
 20
436.57902099999978
 30
0.0
 11
-792.7331320000003
 21
436.641728
 31
0.0
  0
LINE
  5
F59F7
  8
OBJECT
 10
-792.7331320000003
 20
436.641728
 30
0.0
 11
-792.60637699999984
 21
436.70424300000002
 31
0.0
  0
LINE
  5
F59F8
  8
OBJECT
 10
-792.60637699999984
 20
436.70424300000002
 30
0.0
 11
-792.47949899999969
 21
436.76650799999999
 31
0.0
  0
LINE
  5
F59F9
  8
OBJECT
 10
-792.47949899999969
 20
436.76650799999999
 30
0.0
 11
-792.35258999999985
 21
436.82846699999999
 31
0.0
  0
LINE
  5
F59FA
  8
OBJECT
 10
-792.35258999999985
 20
436.82846699999999
 30
0.0
 11
-792.22574199999985
 21
436.89006299999988
 31
0.0
  0
LINE
  5
F59FB
  8
OBJECT
 10
-792.22574199999985
 20
436.89006299999988
 30
0.0
 11
-792.09905000000015
 21
436.95123999999993
 31
0.0
  0
LINE
  5
F59FC
  8
OBJECT
 10
-792.09905000000015
 20
436.95123999999993
 30
0.0
 11
-791.94730699999957
 21
437.02404599999988
 31
0.0
  0
LINE
  5
F59FD
  8
OBJECT
 10
-791.94730699999957
 20
437.02404599999988
 30
0.0
 11
-791.79589200000021
 21
437.09619999999978
 31
0.0
  0
LINE
  5
F59FE
  8
OBJECT
 10
-791.79589200000021
 20
437.09619999999978
 30
0.0
 11
-791.64477600000021
 21
437.16773299999988
 31
0.0
  0
LINE
  5
F59FF
  8
OBJECT
 10
-791.64477600000021
 20
437.16773299999988
 30
0.0
 11
-791.49392899999998
 21
437.23867799999999
 31
0.0
  0
LINE
  5
F5A00
  8
OBJECT
 10
-791.49392899999998
 20
437.23867799999999
 30
0.0
 11
-791.34332399999982
 21
437.30907000000002
 31
0.0
  0
LINE
  5
F5A01
  8
OBJECT
 10
-791.34332399999982
 20
437.30907000000002
 30
0.0
 11
-791.19293099999982
 21
437.37893999999972
 31
0.0
  0
LINE
  5
F5A02
  8
OBJECT
 10
-791.19293099999982
 20
437.37893999999972
 30
0.0
 11
-791.04272200000014
 21
437.44832200000002
 31
0.0
  0
LINE
  5
F5A03
  8
OBJECT
 10
-791.04272200000014
 20
437.44832200000002
 30
0.0
 11
-790.8926680000003
 21
437.51724899999988
 31
0.0
  0
LINE
  5
F5A04
  8
OBJECT
 10
-790.8926680000003
 20
437.51724899999988
 30
0.0
 11
-790.74274099999957
 21
437.58575399999989
 31
0.0
  0
LINE
  5
F5A05
  8
OBJECT
 10
-790.74274099999957
 20
437.58575399999989
 30
0.0
 11
-790.5929110000003
 21
437.65386999999998
 31
0.0
  0
LINE
  5
F5A06
  8
OBJECT
 10
-790.5929110000003
 20
437.65386999999998
 30
0.0
 11
-790.44315099999994
 21
437.72162899999989
 31
0.0
  0
LINE
  5
F5A07
  8
OBJECT
 10
-790.44315099999994
 20
437.72162899999989
 30
0.0
 11
-790.29342999999983
 21
437.78906599999999
 31
0.0
  0
LINE
  5
F5A08
  8
OBJECT
 10
-790.29342999999983
 20
437.78906599999999
 30
0.0
 11
-790.14372100000014
 21
437.8562119999998
 31
0.0
  0
LINE
  5
F5A09
  8
OBJECT
 10
-790.14372100000014
 20
437.8562119999998
 30
0.0
 11
-789.99399600000015
 21
437.9231009999998
 31
0.0
  0
LINE
  5
F5A0A
  8
OBJECT
 10
-789.99399600000015
 20
437.9231009999998
 30
0.0
 11
-789.84422399999983
 21
437.98976599999997
 31
0.0
  0
LINE
  5
F5A0B
  8
OBJECT
 10
-789.84422399999983
 20
437.98976599999997
 30
0.0
 11
-789.69437799999969
 21
438.05623999999989
 31
0.0
  0
LINE
  5
F5A0C
  8
OBJECT
 10
-789.69437799999969
 20
438.05623999999989
 30
0.0
 11
-789.54442900000015
 21
438.12255699999992
 31
0.0
  0
LINE
  5
F5A0D
  8
OBJECT
 10
-789.54442900000015
 20
438.12255699999992
 30
0.0
 11
-789.39434799999981
 21
438.18874799999992
 31
0.0
  0
LINE
  5
F5A0E
  8
OBJECT
 10
-789.39434799999981
 20
438.18874799999992
 30
0.0
 11
-789.24410599999999
 21
438.25484699999993
 31
0.0
  0
LINE
  5
F5A0F
  8
OBJECT
 10
-789.24410599999999
 20
438.25484699999993
 30
0.0
 11
-789.0936750000003
 21
438.3208869999998
 31
0.0
  0
LINE
  5
F5A10
  8
OBJECT
 10
-789.0936750000003
 20
438.3208869999998
 30
0.0
 11
-788.9143250000003
 21
438.39945699999993
 31
0.0
  0
LINE
  5
F5A11
  8
OBJECT
 10
-788.9143250000003
 20
438.39945699999993
 30
0.0
 11
-788.73468400000013
 21
438.47796699999992
 31
0.0
  0
LINE
  5
F5A12
  8
OBJECT
 10
-788.73468400000013
 20
438.47796699999992
 30
0.0
 11
-788.55477199999984
 21
438.55639100000002
 31
0.0
  0
LINE
  5
F5A13
  8
OBJECT
 10
-788.55477199999984
 20
438.55639100000002
 30
0.0
 11
-788.37460699999986
 21
438.634705
 31
0.0
  0
LINE
  5
F5A14
  8
OBJECT
 10
-788.37460699999986
 20
438.634705
 30
0.0
 11
-788.19420799999989
 21
438.7128849999998
 31
0.0
  0
LINE
  5
F5A15
  8
OBJECT
 10
-788.19420799999989
 20
438.7128849999998
 30
0.0
 11
-788.01359300000001
 21
438.79090600000001
 31
0.0
  0
LINE
  5
F5A16
  8
OBJECT
 10
-788.01359300000001
 20
438.79090600000001
 30
0.0
 11
-787.83278099999984
 21
438.86874399999988
 31
0.0
  0
LINE
  5
F5A17
  8
OBJECT
 10
-787.83278099999984
 20
438.86874399999988
 30
0.0
 11
-787.65179100000012
 21
438.94637599999987
 31
0.0
  0
LINE
  5
F5A18
  8
OBJECT
 10
-787.65179100000012
 20
438.94637599999987
 30
0.0
 11
-787.47064200000011
 21
439.02377499999989
 31
0.0
  0
LINE
  5
F5A19
  8
OBJECT
 10
-787.47064200000011
 20
439.02377499999989
 30
0.0
 11
-787.28935100000012
 21
439.10091899999998
 31
0.0
  0
LINE
  5
F5A1A
  8
OBJECT
 10
-787.28935100000012
 20
439.10091899999998
 30
0.0
 11
-787.1079390000001
 21
439.17778199999992
 31
0.0
  0
LINE
  5
F5A1B
  8
OBJECT
 10
-787.1079390000001
 20
439.17778199999992
 30
0.0
 11
-786.92642199999989
 21
439.25434100000001
 31
0.0
  0
LINE
  5
F5A1C
  8
OBJECT
 10
-786.92642199999989
 20
439.25434100000001
 30
0.0
 11
-786.744821
 21
439.33057099999991
 31
0.0
  0
LINE
  5
F5A1D
  8
OBJECT
 10
-786.744821
 20
439.33057099999991
 30
0.0
 11
-786.56315400000005
 21
439.40644700000001
 31
0.0
  0
LINE
  5
F5A1E
  8
OBJECT
 10
-786.56315400000005
 20
439.40644700000001
 30
0.0
 11
-786.38143800000012
 21
439.48194599999988
 31
0.0
  0
LINE
  5
F5A1F
  8
OBJECT
 10
-786.38143800000012
 20
439.48194599999988
 30
0.0
 11
-786.19969400000014
 21
439.55704199999991
 31
0.0
  0
LINE
  5
F5A20
  8
OBJECT
 10
-786.19969400000014
 20
439.55704199999991
 30
0.0
 11
-786.01793999999984
 21
439.63171299999988
 31
0.0
  0
LINE
  5
F5A21
  8
OBJECT
 10
-786.01793999999984
 20
439.63171299999988
 30
0.0
 11
-785.83619399999986
 21
439.70593200000002
 31
0.0
  0
LINE
  5
F5A22
  8
OBJECT
 10
-785.83619399999986
 20
439.70593200000002
 30
0.0
 11
-785.65447500000016
 21
439.77967699999999
 31
0.0
  0
LINE
  5
F5A23
  8
OBJECT
 10
-785.65447500000016
 20
439.77967699999999
 30
0.0
 11
-785.47280100000012
 21
439.85292199999992
 31
0.0
  0
LINE
  5
F5A24
  8
OBJECT
 10
-785.47280100000012
 20
439.85292199999992
 30
0.0
 11
-785.29887800000017
 21
439.92257999999993
 31
0.0
  0
LINE
  5
F5A25
  8
OBJECT
 10
-785.29887800000017
 20
439.92257999999993
 30
0.0
 11
-785.12497499999995
 21
439.99178499999999
 31
0.0
  0
LINE
  5
F5A26
  8
OBJECT
 10
-785.12497499999995
 20
439.99178499999999
 30
0.0
 11
-784.95105400000011
 21
440.06056499999983
 31
0.0
  0
LINE
  5
F5A27
  8
OBJECT
 10
-784.95105400000011
 20
440.06056499999983
 30
0.0
 11
-784.77707399999986
 21
440.12894699999998
 31
0.0
  0
LINE
  5
F5A28
  8
OBJECT
 10
-784.77707399999986
 20
440.12894699999998
 30
0.0
 11
-784.60299699999985
 21
440.19695899999999
 31
0.0
  0
LINE
  5
F5A29
  8
OBJECT
 10
-784.60299699999985
 20
440.19695899999999
 30
0.0
 11
-784.42878499999983
 21
440.26462799999979
 31
0.0
  0
LINE
  5
F5A2A
  8
OBJECT
 10
-784.42878499999983
 20
440.26462799999979
 30
0.0
 11
-784.25439800000015
 21
440.33198099999998
 31
0.0
  0
LINE
  5
F5A2B
  8
OBJECT
 10
-784.25439800000015
 20
440.33198099999998
 30
0.0
 11
-784.0797970000001
 21
440.399047
 31
0.0
  0
LINE
  5
F5A2C
  8
OBJECT
 10
-784.0797970000001
 20
440.399047
 30
0.0
 11
-783.90494300000012
 21
440.46585199999993
 31
0.0
  0
LINE
  5
F5A2D
  8
OBJECT
 10
-783.90494300000012
 20
440.46585199999993
 30
0.0
 11
-783.7297980000003
 21
440.53242399999988
 31
0.0
  0
LINE
  5
F5A2E
  8
OBJECT
 10
-783.7297980000003
 20
440.53242399999988
 30
0.0
 11
-783.55432199999996
 21
440.59879100000001
 31
0.0
  0
LINE
  5
F5A2F
  8
OBJECT
 10
-783.55432199999996
 20
440.59879100000001
 30
0.0
 11
-783.37847600000021
 21
440.66497899999979
 31
0.0
  0
LINE
  5
F5A30
  8
OBJECT
 10
-783.37847600000021
 20
440.66497899999979
 30
0.0
 11
-783.20222200000012
 21
440.73101800000001
 31
0.0
  0
LINE
  5
F5A31
  8
OBJECT
 10
-783.20222200000012
 20
440.73101800000001
 30
0.0
 11
-783.02551999999969
 21
440.79693299999991
 31
0.0
  0
LINE
  5
F5A32
  8
OBJECT
 10
-783.02551999999969
 20
440.79693299999991
 30
0.0
 11
-782.8483319999998
 21
440.86275199999989
 31
0.0
  0
LINE
  5
F5A33
  8
OBJECT
 10
-782.8483319999998
 20
440.86275199999989
 30
0.0
 11
-782.6706180000001
 21
440.92850399999992
 31
0.0
  0
LINE
  5
F5A34
  8
OBJECT
 10
-782.6706180000001
 20
440.92850399999992
 30
0.0
 11
-782.49234000000013
 21
440.99421499999988
 31
0.0
  0
LINE
  5
F5A35
  8
OBJECT
 10
-782.49234000000013
 20
440.99421499999988
 30
0.0
 11
-782.31345799999986
 21
441.05991299999999
 31
0.0
  0
LINE
  5
F5A36
  8
OBJECT
 10
-782.31345799999986
 20
441.05991299999999
 30
0.0
 11
-782.13393399999984
 21
441.12562600000001
 31
0.0
  0
LINE
  5
F5A37
  8
OBJECT
 10
-782.13393399999984
 20
441.12562600000001
 30
0.0
 11
-781.95372900000029
 21
441.19137999999992
 31
0.0
  0
LINE
  5
F5A38
  8
OBJECT
 10
-781.95372900000029
 20
441.19137999999992
 30
0.0
 11
-781.80149799999981
 21
441.24677299999991
 31
0.0
  0
LINE
  5
F5A39
  8
OBJECT
 10
-781.80149799999981
 20
441.24677299999991
 30
0.0
 11
-781.64886899999988
 21
441.30216200000001
 31
0.0
  0
LINE
  5
F5A3A
  8
OBJECT
 10
-781.64886899999988
 20
441.30216200000001
 30
0.0
 11
-781.49595499999998
 21
441.35749399999997
 31
0.0
  0
LINE
  5
F5A3B
  8
OBJECT
 10
-781.49595499999998
 20
441.35749399999997
 30
0.0
 11
-781.34286900000018
 21
441.41271399999988
 31
0.0
  0
LINE
  5
F5A3C
  8
OBJECT
 10
-781.34286900000018
 20
441.41271399999988
 30
0.0
 11
-781.18972299999984
 21
441.46776999999992
 31
0.0
  0
LINE
  5
F5A3D
  8
OBJECT
 10
-781.18972299999984
 20
441.46776999999992
 30
0.0
 11
-781.03662999999983
 21
441.52260899999987
 31
0.0
  0
LINE
  5
F5A3E
  8
OBJECT
 10
-781.03662999999983
 20
441.52260899999987
 30
0.0
 11
-780.88370299999985
 21
441.57717600000001
 31
0.0
  0
LINE
  5
F5A3F
  8
OBJECT
 10
-780.88370299999985
 20
441.57717600000001
 30
0.0
 11
-780.73105400000031
 21
441.63141899999999
 31
0.0
  0
LINE
  5
F5A40
  8
OBJECT
 10
-780.73105400000031
 20
441.63141899999999
 30
0.0
 11
-780.5787959999999
 21
441.68528400000002
 31
0.0
  0
LINE
  5
F5A41
  8
OBJECT
 10
-780.5787959999999
 20
441.68528400000002
 30
0.0
 11
-780.42704200000003
 21
441.73871800000001
 31
0.0
  0
LINE
  5
F5A42
  8
OBJECT
 10
-780.42704200000003
 20
441.73871800000001
 30
0.0
 11
-780.27590400000031
 21
441.79166699999979
 31
0.0
  0
LINE
  5
F5A43
  8
OBJECT
 10
-780.27590400000031
 20
441.79166699999979
 30
0.0
 11
-780.12549500000011
 21
441.84407900000002
 31
0.0
  0
LINE
  5
F5A44
  8
OBJECT
 10
-780.12549500000011
 20
441.84407900000002
 30
0.0
 11
-779.97592899999995
 21
441.89589899999999
 31
0.0
  0
LINE
  5
F5A45
  8
OBJECT
 10
-779.97592899999995
 20
441.89589899999999
 30
0.0
 11
-779.82731600000011
 21
441.94707399999999
 31
0.0
  0
LINE
  5
F5A46
  8
OBJECT
 10
-779.82731600000011
 20
441.94707399999999
 30
0.0
 11
-779.6797710000003
 21
441.99755199999998
 31
0.0
  0
LINE
  5
F5A47
  8
OBJECT
 10
-779.6797710000003
 20
441.99755199999998
 30
0.0
 11
-779.53340500000013
 21
442.04727799999989
 31
0.0
  0
LINE
  5
F5A48
  8
OBJECT
 10
-779.53340500000013
 20
442.04727799999989
 30
0.0
 11
-779.38833199999988
 21
442.09619900000001
 31
0.0
  0
LINE
  5
F5A49
  8
OBJECT
 10
-779.38833199999988
 20
442.09619900000001
 30
0.0
 11
-779.24466500000017
 21
442.14426199999991
 31
0.0
  0
LINE
  5
F5A4A
  8
OBJECT
 10
-779.24466500000017
 20
442.14426199999991
 30
0.0
 11
-779.10251499999981
 21
442.19141300000001
 31
0.0
  0
LINE
  5
F5A4B
  8
OBJECT
 10
-779.10251499999981
 20
442.19141300000001
 30
0.0
 11
-778.96199500000012
 21
442.23759899999988
 31
0.0
  0
LINE
  5
F5A4C
  8
OBJECT
 10
-778.96199500000012
 20
442.23759899999988
 30
0.0
 11
-778.76048999999989
 21
442.30302999999992
 31
0.0
  0
LINE
  5
F5A4D
  8
OBJECT
 10
-778.76048999999989
 20
442.30302999999992
 30
0.0
 11
-778.5618290000001
 21
442.36652699999979
 31
0.0
  0
LINE
  5
F5A4E
  8
OBJECT
 10
-778.5618290000001
 20
442.36652699999979
 30
0.0
 11
-778.36516600000016
 21
442.42831200000001
 31
0.0
  0
LINE
  5
F5A4F
  8
OBJECT
 10
-778.36516600000016
 20
442.42831200000001
 30
0.0
 11
-778.16965600000015
 21
442.488608
 31
0.0
  0
LINE
  5
F5A50
  8
OBJECT
 10
-778.16965600000015
 20
442.488608
 30
0.0
 11
-777.97445300000015
 21
442.54763600000001
 31
0.0
  0
LINE
  5
F5A51
  8
OBJECT
 10
-777.97445300000015
 20
442.54763600000001
 30
0.0
 11
-777.77870999999982
 21
442.60561899999988
 31
0.0
  0
LINE
  5
F5A52
  8
OBJECT
 10
-777.77870999999982
 20
442.60561899999988
 30
0.0
 11
-777.58158299999968
 21
442.662778
 31
0.0
  0
LINE
  5
F5A53
  8
OBJECT
 10
-777.58158299999968
 20
442.662778
 30
0.0
 11
-777.38222399999984
 21
442.719336
 31
0.0
  0
LINE
  5
F5A54
  8
OBJECT
 10
-777.38222399999984
 20
442.719336
 30
0.0
 11
-777.17978900000014
 21
442.77551399999999
 31
0.0
  0
LINE
  5
F5A55
  8
OBJECT
 10
-777.17978900000014
 20
442.77551399999999
 30
0.0
 11
-776.97343100000012
 21
442.83153399999998
 31
0.0
  0
LINE
  5
F5A56
  8
OBJECT
 10
-776.97343100000012
 20
442.83153399999998
 30
0.0
 11
-776.76230400000031
 21
442.88761999999991
 31
0.0
  0
LINE
  5
F5A57
  8
OBJECT
 10
-776.76230400000031
 20
442.88761999999991
 30
0.0
 11
-776.54556199999979
 21
442.94399199999998
 31
0.0
  0
LINE
  5
F5A58
  8
OBJECT
 10
-776.54556199999979
 20
442.94399199999998
 30
0.0
 11
-776.32236100000011
 21
443.00087200000002
 31
0.0
  0
LINE
  5
F5A59
  8
OBJECT
 10
-776.32236100000011
 20
443.00087200000002
 30
0.0
 11
-776.09185200000013
 21
443.05848299999991
 31
0.0
  0
LINE
  5
F5A5A
  8
OBJECT
 10
-776.09185200000013
 20
443.05848299999991
 30
0.0
 11
-775.85319200000015
 21
443.11704700000001
 31
0.0
  0
LINE
  5
F5A5B
  8
OBJECT
 10
-775.85319200000015
 20
443.11704700000001
 30
0.0
 11
-775.60553400000015
 21
443.17678599999988
 31
0.0
  0
LINE
  5
F5A5C
  8
OBJECT
 10
-775.60553400000015
 20
443.17678599999988
 30
0.0
 11
-775.34803100000011
 21
443.23792099999991
 31
0.0
  0
LINE
  5
F5A5D
  8
OBJECT
 10
-775.34803100000011
 20
443.23792099999991
 30
0.0
 11
-775.07983899999988
 21
443.30067499999979
 31
0.0
  0
LINE
  5
F5A5E
  8
OBJECT
 10
-775.07983899999988
 20
443.30067499999979
 30
0.0
 11
-774.80011100000013
 21
443.36527000000001
 31
0.0
  0
LINE
  5
F5A5F
  8
OBJECT
 10
-774.80011100000013
 20
443.36527000000001
 30
0.0
 11
-774.50800100000015
 21
443.43192800000008
 31
0.0
  0
LINE
  5
F5A60
  8
OBJECT
 10
-774.50800100000015
 20
443.43192800000008
 30
0.0
 11
-774.32919400000014
 21
443.47238700000003
 31
0.0
  0
LINE
  5
F5A61
  8
OBJECT
 10
-774.32919400000014
 20
443.47238700000003
 30
0.0
 11
-774.14710100000002
 21
443.51336500000002
 31
0.0
  0
LINE
  5
F5A62
  8
OBJECT
 10
-774.14710100000002
 20
443.51336500000002
 30
0.0
 11
-773.96306800000013
 21
443.55458299999992
 31
0.0
  0
LINE
  5
F5A63
  8
OBJECT
 10
-773.96306800000013
 20
443.55458299999992
 30
0.0
 11
-773.77844300000015
 21
443.59575899999999
 31
0.0
  0
LINE
  5
F5A64
  8
OBJECT
 10
-773.77844300000015
 20
443.59575899999999
 30
0.0
 11
-773.59457199999974
 21
443.63661400000001
 31
0.0
  0
LINE
  5
F5A65
  8
OBJECT
 10
-773.59457199999974
 20
443.63661400000001
 30
0.0
 11
-773.41280199999983
 21
443.67686600000002
 31
0.0
  0
LINE
  5
F5A66
  8
OBJECT
 10
-773.41280199999983
 20
443.67686600000002
 30
0.0
 11
-773.23448099999985
 21
443.71623499999998
 31
0.0
  0
LINE
  5
F5A67
  8
OBJECT
 10
-773.23448099999985
 20
443.71623499999998
 30
0.0
 11
-773.06095400000015
 21
443.75443999999999
 31
0.0
  0
LINE
  5
F5A68
  8
OBJECT
 10
-773.06095400000015
 20
443.75443999999999
 30
0.0
 11
-772.89356899999984
 21
443.79120099999989
 31
0.0
  0
LINE
  5
F5A69
  8
OBJECT
 10
-772.89356899999984
 20
443.79120099999989
 30
0.0
 11
-772.73367299999984
 21
443.82623799999999
 31
0.0
  0
LINE
  5
F5A6A
  8
OBJECT
 10
-772.73367299999984
 20
443.82623799999999
 30
0.0
 11
-772.58261300000004
 21
443.85926899999998
 31
0.0
  0
LINE
  5
F5A6B
  8
OBJECT
 10
-772.58261300000004
 20
443.85926899999998
 30
0.0
 11
-772.44173600000011
 21
443.89001499999989
 31
0.0
  0
LINE
  5
F5A6C
  8
OBJECT
 10
-772.44173600000011
 20
443.89001499999989
 30
0.0
 11
-772.31238800000006
 21
443.91819400000003
 31
0.0
  0
LINE
  5
F5A6D
  8
OBJECT
 10
-772.31238800000006
 20
443.91819400000003
 30
0.0
 11
-772.19591599999967
 21
443.94352600000002
 31
0.0
  0
LINE
  5
F5A6E
  8
OBJECT
 10
-772.19591599999967
 20
443.94352600000002
 30
0.0
 11
-772.09366799999998
 21
443.96573000000001
 31
0.0
  0
LINE
  5
F5A6F
  8
OBJECT
 10
-772.09366799999998
 20
443.96573000000001
 30
0.0
 11
-772.0069900000002
 21
443.98452699999979
 31
0.0
  0
LINE
  5
F5A70
  8
OBJECT
 10
-772.0069900000002
 20
443.98452699999979
 30
0.0
 11
-771.93722900000012
 21
443.99963500000001
 31
0.0
  0
LINE
  5
F5A71
  8
OBJECT
 10
-771.93722900000012
 20
443.99963500000001
 30
0.0
 11
-771.88573199999985
 21
444.01077400000003
 31
0.0
  0
LINE
  5
F5A72
  8
OBJECT
 10
-771.88573199999985
 20
444.01077400000003
 30
0.0
 11
-771.85384599999975
 21
444.01766300000003
 31
0.0
  0
LINE
  5
F5A73
  8
OBJECT
 10
-771.85384599999975
 20
444.01766300000003
 30
0.0
 11
-771.84291799999983
 21
444.02002099999987
 31
0.0
  0
CIRCLE
  5
F5A74
  8
OBJECT
 10
-761.56658600000003
 20
449.99745999999988
 30
0.0
 40
6.5
  0
LINE
  5
F5A75
  8
OBJECT
 10
-761.56658600000003
 20
442.49190700000003
 30
0.0
 11
-755.06658600000014
 21
446.24468400000001
 31
0.0
  0
LINE
  5
F5A76
  8
OBJECT
 10
-768.06658600000014
 20
446.24468400000001
 30
0.0
 11
-761.56658600000003
 21
442.49190700000003
 31
0.0
  0
LINE
  5
F5A77
  8
OBJECT
 10
-768.06658600000014
 20
453.75023699999991
 30
0.0
 11
-768.06658600000014
 21
446.24468400000001
 31
0.0
  0
LINE
  5
F5A78
  8
OBJECT
 10
-761.56658600000003
 20
457.50301399999989
 30
0.0
 11
-768.06658600000014
 21
453.75023699999991
 31
0.0
  0
LINE
  5
F5A79
  8
OBJECT
 10
-755.06658600000014
 20
453.75023699999991
 30
0.0
 11
-761.56658600000003
 21
457.50301399999989
 31
0.0
  0
LINE
  5
F5A7A
  8
OBJECT
 10
-755.06658600000014
 20
446.24468400000001
 30
0.0
 11
-755.06658600000014
 21
453.75023699999991
 31
0.0
  0
CIRCLE
  5
F5A7B
  8
OBJECT
 10
-761.56658600000003
 20
504.99745999999959
 30
0.0
 40
6.5
  0
LINE
  5
F5A7C
  8
OBJECT
 10
-761.56658600000003
 20
497.4919069999998
 30
0.0
 11
-755.06658600000014
 21
501.24468399999989
 31
0.0
  0
LINE
  5
F5A7D
  8
OBJECT
 10
-768.06658600000014
 20
501.24468399999989
 30
0.0
 11
-761.56658600000003
 21
497.4919069999998
 31
0.0
  0
LINE
  5
F5A7E
  8
OBJECT
 10
-768.06658600000014
 20
508.75023700000003
 30
0.0
 11
-768.06658600000014
 21
501.24468399999989
 31
0.0
  0
LINE
  5
F5A7F
  8
OBJECT
 10
-761.56658600000003
 20
512.50301399999978
 30
0.0
 11
-768.06658600000014
 21
508.75023700000003
 31
0.0
  0
LINE
  5
F5A80
  8
OBJECT
 10
-755.06658600000014
 20
508.75023700000003
 30
0.0
 11
-761.56658600000003
 21
512.50301399999978
 31
0.0
  0
LINE
  5
F5A81
  8
OBJECT
 10
-755.06658600000014
 20
501.24468399999989
 30
0.0
 11
-755.06658600000014
 21
508.75023700000003
 31
0.0
  0
LINE
  5
F5A82
  8
OBJECT
 10
-764.0610320000003
 20
322.16225200000002
 30
0.0
 11
-764.0610320000003
 21
328.36035199999998
 31
0.0
  0
LINE
  5
F5A83
  8
OBJECT
 10
-764.0610320000003
 20
328.36035199999998
 30
0.0
 11
-779.07213899999988
 21
328.36035199999998
 31
0.0
  0
LINE
  5
F5A84
  8
OBJECT
 10
-779.07213899999988
 20
328.36035199999998
 30
0.0
 11
-779.07213899999988
 21
322.16225200000002
 31
0.0
  0
LINE
  5
F5A85
  8
OBJECT
 10
-767.81380899999999
 20
328.36035199999998
 30
0.0
 11
-767.81380899999999
 21
322.16225200000002
 31
0.0
  0
LINE
  5
F5A86
  8
OBJECT
 10
-775.31936299999995
 20
328.36035199999998
 30
0.0
 11
-775.31936299999995
 21
322.16225200000002
 31
0.0
  0
ARC
  5
F5A87
  8
OBJECT
 10
-771.56658599999969
 20
333.56035200000002
 30
0.0
 40
12.0
 50
251.7760860000021
 51
288.22391399999788
  0
ARC
  5
F5A88
  8
OBJECT
 10
-777.19575099999986
 20
324.78606400000001
 30
0.0
 40
3.2257129999999989
 50
234.42998999999989
 51
305.57001000000008
  0
ARC
  5
F5A89
  8
OBJECT
 10
-765.93742099999974
 20
324.78606400000001
 30
0.0
 40
3.2257129999999989
 50
234.42998999999989
 51
305.57001000000008
  0
LINE
  5
F5A8A
  8
OBJECT
 10
-777.19575099999986
 20
321.56035200000002
 30
0.0
 11
-765.93742099999974
 21
321.56035200000002
 31
0.0
  0
LINE
  5
F5A8B
  8
OBJECT
 10
-675.93742099999974
 20
321.56035200000002
 30
0.0
 11
-687.19575099999975
 21
321.56035200000002
 31
0.0
  0
ARC
  5
F5A8C
  8
OBJECT
 10
-687.19575099999975
 20
324.78606400000001
 30
0.0
 40
3.2257129999999989
 50
234.42998999999989
 51
305.57001000000008
  0
ARC
  5
F5A8D
  8
OBJECT
 10
-675.93742099999974
 20
324.78606400000001
 30
0.0
 40
3.2257129999999989
 50
234.42998999999989
 51
305.57001000000008
  0
ARC
  5
F5A8E
  8
OBJECT
 10
-681.56658600000003
 20
333.56035200000002
 30
0.0
 40
12.0
 50
251.7760860000021
 51
288.22391399999788
  0
LINE
  5
F5A8F
  8
OBJECT
 10
-677.81380899999976
 20
328.36035199999998
 30
0.0
 11
-677.81380899999976
 21
322.16225200000002
 31
0.0
  0
LINE
  5
F5A90
  8
OBJECT
 10
-685.31936300000007
 20
328.36035199999998
 30
0.0
 11
-685.31936300000007
 21
322.16225200000002
 31
0.0
  0
LINE
  5
F5A91
  8
OBJECT
 10
-674.06103199999995
 20
328.36035199999998
 30
0.0
 11
-674.06103199999995
 21
322.16225200000002
 31
0.0
  0
LINE
  5
F5A92
  8
OBJECT
 10
-689.07213899999999
 20
328.36035199999998
 30
0.0
 11
-674.06103199999995
 21
328.36035199999998
 31
0.0
  0
LINE
  5
F5A93
  8
OBJECT
 10
-689.07213899999999
 20
322.16225200000002
 30
0.0
 11
-689.07213899999999
 21
328.36035199999998
 31
0.0
  0
LINE
  5
F5A94
  8
OBJECT
 10
-630.68463999999994
 20
444.67354399999999
 30
0.0
 11
-630.67444599999988
 21
444.67229099999997
 31
0.0
  0
LINE
  5
F5A95
  8
OBJECT
 10
-630.67444599999988
 20
444.67229099999997
 30
0.0
 11
-630.64473600000042
 21
444.66862800000001
 31
0.0
  0
LINE
  5
F5A96
  8
OBJECT
 10
-630.64473600000042
 20
444.66862800000001
 30
0.0
 11
-630.59681999999975
 21
444.66269999999992
 31
0.0
  0
LINE
  5
F5A97
  8
OBJECT
 10
-630.59681999999975
 20
444.66269999999992
 30
0.0
 11
-630.53200700000002
 21
444.65465199999988
 31
0.0
  0
LINE
  5
F5A98
  8
OBJECT
 10
-630.53200700000002
 20
444.65465199999988
 30
0.0
 11
-630.45160599999997
 21
444.64462899999978
 31
0.0
  0
LINE
  5
F5A99
  8
OBJECT
 10
-630.45160599999997
 20
444.64462899999978
 30
0.0
 11
-630.35692499999982
 21
444.63277699999992
 31
0.0
  0
LINE
  5
F5A9A
  8
OBJECT
 10
-630.35692499999982
 20
444.63277699999992
 30
0.0
 11
-630.2492739999999
 21
444.61923899999999
 31
0.0
  0
LINE
  5
F5A9B
  8
OBJECT
 10
-630.2492739999999
 20
444.61923899999999
 30
0.0
 11
-630.12996200000043
 21
444.60416199999992
 31
0.0
  0
LINE
  5
F5A9C
  8
OBJECT
 10
-630.12996200000043
 20
444.60416199999992
 30
0.0
 11
-630.00029700000027
 21
444.58769000000001
 31
0.0
  0
LINE
  5
F5A9D
  8
OBJECT
 10
-630.00029700000027
 20
444.58769000000001
 30
0.0
 11
-629.86158899999975
 21
444.56996800000002
 31
0.0
  0
LINE
  5
F5A9E
  8
OBJECT
 10
-629.86158899999975
 20
444.56996800000002
 30
0.0
 11
-629.715146
 21
444.55114099999992
 31
0.0
  0
LINE
  5
F5A9F
  8
OBJECT
 10
-629.715146
 20
444.55114099999992
 30
0.0
 11
-629.56227799999999
 21
444.53135399999991
 31
0.0
  0
LINE
  5
F5AA0
  8
OBJECT
 10
-629.56227799999999
 20
444.53135399999991
 30
0.0
 11
-629.40429400000005
 21
444.51075300000002
 31
0.0
  0
LINE
  5
F5AA1
  8
OBJECT
 10
-629.40429400000005
 20
444.51075300000002
 30
0.0
 11
-629.24250300000006
 21
444.48948200000001
 31
0.0
  0
LINE
  5
F5AA2
  8
OBJECT
 10
-629.24250300000006
 20
444.48948200000001
 30
0.0
 11
-629.07821300000001
 21
444.46768499999979
 31
0.0
  0
LINE
  5
F5AA3
  8
OBJECT
 10
-629.07821300000001
 20
444.46768499999979
 30
0.0
 11
-628.91273299999989
 21
444.44550899999979
 31
0.0
  0
LINE
  5
F5AA4
  8
OBJECT
 10
-628.91273299999989
 20
444.44550899999979
 30
0.0
 11
-628.74737399999981
 21
444.42309899999998
 31
0.0
  0
LINE
  5
F5AA5
  8
OBJECT
 10
-628.74737399999981
 20
444.42309899999998
 30
0.0
 11
-628.58344299999965
 21
444.400598
 31
0.0
  0
LINE
  5
F5AA6
  8
OBJECT
 10
-628.58344299999965
 20
444.400598
 30
0.0
 11
-628.42224999999985
 21
444.37815299999988
 31
0.0
  0
LINE
  5
F5AA7
  8
OBJECT
 10
-628.42224999999985
 20
444.37815299999988
 30
0.0
 11
-628.26510299999995
 21
444.35590799999989
 31
0.0
  0
LINE
  5
F5AA8
  8
OBJECT
 10
-628.26510299999995
 20
444.35590799999989
 30
0.0
 11
-628.09636499999999
 21
444.33154699999989
 31
0.0
  0
LINE
  5
F5AA9
  8
OBJECT
 10
-628.09636499999999
 20
444.33154699999989
 30
0.0
 11
-627.93382899999995
 21
444.30757199999999
 31
0.0
  0
LINE
  5
F5AAA
  8
OBJECT
 10
-627.93382899999995
 20
444.30757199999999
 30
0.0
 11
-627.77707599999997
 21
444.28393999999992
 31
0.0
  0
LINE
  5
F5AAB
  8
OBJECT
 10
-627.77707599999997
 20
444.28393999999992
 30
0.0
 11
-627.62568699999997
 21
444.26060799999999
 31
0.0
  0
LINE
  5
F5AAC
  8
OBJECT
 10
-627.62568699999997
 20
444.26060799999999
 30
0.0
 11
-627.47924499999976
 21
444.23753699999992
 31
0.0
  0
LINE
  5
F5AAD
  8
OBJECT
 10
-627.47924499999976
 20
444.23753699999992
 30
0.0
 11
-627.33732999999995
 21
444.21468199999993
 31
0.0
  0
LINE
  5
F5AAE
  8
OBJECT
 10
-627.33732999999995
 20
444.21468199999993
 30
0.0
 11
-627.19952499999977
 21
444.192004
 31
0.0
  0
LINE
  5
F5AAF
  8
OBJECT
 10
-627.19952499999977
 20
444.192004
 30
0.0
 11
-627.06540999999982
 21
444.16945899999979
 31
0.0
  0
LINE
  5
F5AB0
  8
OBJECT
 10
-627.06540999999982
 20
444.16945899999979
 30
0.0
 11
-626.93456800000001
 21
444.14700699999997
 31
0.0
  0
LINE
  5
F5AB1
  8
OBJECT
 10
-626.93456800000001
 20
444.14700699999997
 30
0.0
 11
-626.80658000000005
 21
444.12460399999998
 31
0.0
  0
LINE
  5
F5AB2
  8
OBJECT
 10
-626.80658000000005
 20
444.12460399999998
 30
0.0
 11
-626.68102800000042
 21
444.10221100000001
 31
0.0
  0
LINE
  5
F5AB3
  8
OBJECT
 10
-626.68102800000042
 20
444.10221100000001
 30
0.0
 11
-626.55749200000002
 21
444.07978300000002
 31
0.0
  0
LINE
  5
F5AB4
  8
OBJECT
 10
-626.55749200000002
 20
444.07978300000002
 30
0.0
 11
-626.43555600000002
 21
444.05728099999988
 31
0.0
  0
LINE
  5
F5AB5
  8
OBJECT
 10
-626.43555600000002
 20
444.05728099999988
 30
0.0
 11
-626.31479899999999
 21
444.03466100000003
 31
0.0
  0
LINE
  5
F5AB6
  8
OBJECT
 10
-626.31479899999999
 20
444.03466100000003
 30
0.0
 11
-626.19480499999986
 21
444.01188200000001
 31
0.0
  0
LINE
  5
F5AB7
  8
OBJECT
 10
-626.19480499999986
 20
444.01188200000001
 30
0.0
 11
-626.075154
 21
443.98890299999988
 31
0.0
  0
LINE
  5
F5AB8
  8
OBJECT
 10
-626.075154
 20
443.98890299999988
 30
0.0
 11
-625.95542800000044
 21
443.96568099999979
 31
0.0
  0
LINE
  5
F5AB9
  8
OBJECT
 10
-625.95542800000044
 20
443.96568099999979
 30
0.0
 11
-625.83520799999985
 21
443.94217500000002
 31
0.0
  0
LINE
  5
F5ABA
  8
OBJECT
 10
-625.83520799999985
 20
443.94217500000002
 30
0.0
 11
-625.71407599999975
 21
443.91834199999988
 31
0.0
  0
LINE
  5
F5ABB
  8
OBJECT
 10
-625.71407599999975
 20
443.91834199999988
 30
0.0
 11
-625.59161499999982
 21
443.89414199999987
 31
0.0
  0
LINE
  5
F5ABC
  8
OBJECT
 10
-625.59161499999982
 20
443.89414199999987
 30
0.0
 11
-625.47305699999981
 21
443.8706449999998
 31
0.0
  0
LINE
  5
F5ABD
  8
OBJECT
 10
-625.47305699999981
 20
443.8706449999998
 30
0.0
 11
-625.35300500000005
 21
443.84678999999988
 31
0.0
  0
LINE
  5
F5ABE
  8
OBJECT
 10
-625.35300500000005
 20
443.84678999999988
 30
0.0
 11
-625.23155899999995
 21
443.82259199999987
 31
0.0
  0
LINE
  5
F5ABF
  8
OBJECT
 10
-625.23155899999995
 20
443.82259199999987
 30
0.0
 11
-625.10882100000003
 21
443.79806699999989
 31
0.0
  0
LINE
  5
F5AC0
  8
OBJECT
 10
-625.10882100000003
 20
443.79806699999989
 30
0.0
 11
-624.98489300000006
 21
443.77323000000001
 31
0.0
  0
LINE
  5
F5AC1
  8
OBJECT
 10
-624.98489300000006
 20
443.77323000000001
 30
0.0
 11
-624.85987499999999
 21
443.74809699999997
 31
0.0
  0
LINE
  5
F5AC2
  8
OBJECT
 10
-624.85987499999999
 20
443.74809699999997
 30
0.0
 11
-624.73387000000002
 21
443.72268299999979
 31
0.0
  0
LINE
  5
F5AC3
  8
OBJECT
 10
-624.73387000000002
 20
443.72268299999979
 30
0.0
 11
-624.60698000000002
 21
443.69700399999999
 31
0.0
  0
LINE
  5
F5AC4
  8
OBJECT
 10
-624.60698000000002
 20
443.69700399999999
 30
0.0
 11
-624.47930399999996
 21
443.67107600000008
 31
0.0
  0
LINE
  5
F5AC5
  8
OBJECT
 10
-624.47930399999996
 20
443.67107600000008
 30
0.0
 11
-624.35094600000002
 21
443.64491399999991
 31
0.0
  0
LINE
  5
F5AC6
  8
OBJECT
 10
-624.35094600000002
 20
443.64491399999991
 30
0.0
 11
-624.22200599999996
 21
443.61853400000001
 31
0.0
  0
LINE
  5
F5AC7
  8
OBJECT
 10
-624.22200599999996
 20
443.61853400000001
 30
0.0
 11
-624.09258699999975
 21
443.59195099999988
 31
0.0
  0
LINE
  5
F5AC8
  8
OBJECT
 10
-624.09258699999975
 20
443.59195099999988
 30
0.0
 11
-623.96278799999982
 21
443.56518099999988
 31
0.0
  0
LINE
  5
F5AC9
  8
OBJECT
 10
-623.96278799999982
 20
443.56518099999988
 30
0.0
 11
-623.83271300000001
 21
443.53823999999992
 31
0.0
  0
LINE
  5
F5ACA
  8
OBJECT
 10
-623.83271300000001
 20
443.53823999999992
 30
0.0
 11
-623.70246200000042
 21
443.51114399999989
 31
0.0
  0
LINE
  5
F5ACB
  8
OBJECT
 10
-623.70246200000042
 20
443.51114399999989
 30
0.0
 11
-623.572137
 21
443.48390699999987
 31
0.0
  0
LINE
  5
F5ACC
  8
OBJECT
 10
-623.572137
 20
443.48390699999987
 30
0.0
 11
-623.44183999999996
 21
443.45654500000001
 31
0.0
  0
LINE
  5
F5ACD
  8
OBJECT
 10
-623.44183999999996
 20
443.45654500000001
 30
0.0
 11
-623.31167099999982
 21
443.42907499999978
 31
0.0
  0
LINE
  5
F5ACE
  8
OBJECT
 10
-623.31167099999982
 20
443.42907499999978
 30
0.0
 11
-623.18173300000001
 21
443.40151100000003
 31
0.0
  0
LINE
  5
F5ACF
  8
OBJECT
 10
-623.18173300000001
 20
443.40151100000003
 30
0.0
 11
-623.0521269999997
 21
443.37386899999979
 31
0.0
  0
LINE
  5
F5AD0
  8
OBJECT
 10
-623.0521269999997
 20
443.37386899999979
 30
0.0
 11
-622.90410999999995
 21
443.34211199999999
 31
0.0
  0
LINE
  5
F5AD1
  8
OBJECT
 10
-622.90410999999995
 20
443.34211199999999
 30
0.0
 11
-622.75662899999975
 21
443.31026499999979
 31
0.0
  0
LINE
  5
F5AD2
  8
OBJECT
 10
-622.75662899999975
 20
443.31026499999979
 30
0.0
 11
-622.60965199999976
 21
443.27832000000001
 31
0.0
  0
LINE
  5
F5AD3
  8
OBJECT
 10
-622.60965199999976
 20
443.27832000000001
 30
0.0
 11
-622.46314500000005
 21
443.24626899999998
 31
0.0
  0
LINE
  5
F5AD4
  8
OBJECT
 10
-622.46314500000005
 20
443.24626899999998
 30
0.0
 11
-622.31707499999982
 21
443.21410399999991
 31
0.0
  0
LINE
  5
F5AD5
  8
OBJECT
 10
-622.31707499999982
 20
443.21410399999991
 30
0.0
 11
-622.17140900000004
 21
443.1818159999998
 31
0.0
  0
LINE
  5
F5AD6
  8
OBJECT
 10
-622.17140900000004
 20
443.1818159999998
 30
0.0
 11
-622.02611499999978
 21
443.14939799999991
 31
0.0
  0
LINE
  5
F5AD7
  8
OBJECT
 10
-622.02611499999978
 20
443.14939799999991
 30
0.0
 11
-621.88115899999968
 21
443.11684099999979
 31
0.0
  0
LINE
  5
F5AD8
  8
OBJECT
 10
-621.88115899999968
 20
443.11684099999979
 30
0.0
 11
-621.73650899999996
 21
443.084137
 31
0.0
  0
LINE
  5
F5AD9
  8
OBJECT
 10
-621.73650899999996
 20
443.084137
 30
0.0
 11
-621.59213099999977
 21
443.05127799999991
 31
0.0
  0
LINE
  5
F5ADA
  8
OBJECT
 10
-621.59213099999977
 20
443.05127799999991
 30
0.0
 11
-621.44799299999966
 21
443.01825600000001
 31
0.0
  0
LINE
  5
F5ADB
  8
OBJECT
 10
-621.44799299999966
 20
443.01825600000001
 30
0.0
 11
-621.30406100000005
 21
442.98506300000003
 31
0.0
  0
LINE
  5
F5ADC
  8
OBJECT
 10
-621.30406100000005
 20
442.98506300000003
 30
0.0
 11
-621.160303
 21
442.95168899999999
 31
0.0
  0
LINE
  5
F5ADD
  8
OBJECT
 10
-621.160303
 20
442.95168899999999
 30
0.0
 11
-621.01668500000005
 21
442.91812899999979
 31
0.0
  0
LINE
  5
F5ADE
  8
OBJECT
 10
-621.01668500000005
 20
442.91812899999979
 30
0.0
 11
-620.87317499999995
 21
442.88437199999993
 31
0.0
  0
LINE
  5
F5ADF
  8
OBJECT
 10
-620.87317499999995
 20
442.88437199999993
 30
0.0
 11
-620.72973999999977
 21
442.85041100000001
 31
0.0
  0
LINE
  5
F5AE0
  8
OBJECT
 10
-620.72973999999977
 20
442.85041100000001
 30
0.0
 11
-620.58634600000005
 21
442.81623799999988
 31
0.0
  0
LINE
  5
F5AE1
  8
OBJECT
 10
-620.58634600000005
 20
442.81623799999988
 30
0.0
 11
-620.44296100000042
 21
442.78184499999998
 31
0.0
  0
LINE
  5
F5AE2
  8
OBJECT
 10
-620.44296100000042
 20
442.78184499999998
 30
0.0
 11
-620.29955199999995
 21
442.74722299999991
 31
0.0
  0
LINE
  5
F5AE3
  8
OBJECT
 10
-620.29955199999995
 20
442.74722299999991
 30
0.0
 11
-620.15608599999985
 21
442.71236399999992
 31
0.0
  0
LINE
  5
F5AE4
  8
OBJECT
 10
-620.15608599999985
 20
442.71236399999992
 30
0.0
 11
-620.01388599999996
 21
442.67759399999971
 31
0.0
  0
LINE
  5
F5AE5
  8
OBJECT
 10
-620.01388599999996
 20
442.67759399999971
 30
0.0
 11
-619.87160800000004
 21
442.642583
 31
0.0
  0
LINE
  5
F5AE6
  8
OBJECT
 10
-619.87160800000004
 20
442.642583
 30
0.0
 11
-619.72926100000006
 21
442.60733199999987
 31
0.0
  0
LINE
  5
F5AE7
  8
OBJECT
 10
-619.72926100000006
 20
442.60733199999987
 30
0.0
 11
-619.58685400000002
 21
442.57184299999989
 31
0.0
  0
LINE
  5
F5AE8
  8
OBJECT
 10
-619.58685400000002
 20
442.57184299999989
 30
0.0
 11
-619.44439699999998
 21
442.53611399999988
 31
0.0
  0
LINE
  5
F5AE9
  8
OBJECT
 10
-619.44439699999998
 20
442.53611399999988
 30
0.0
 11
-619.30189999999982
 21
442.5001459999998
 31
0.0
  0
LINE
  5
F5AEA
  8
OBJECT
 10
-619.30189999999982
 20
442.5001459999998
 30
0.0
 11
-619.15937299999996
 21
442.46393999999998
 31
0.0
  0
LINE
  5
F5AEB
  8
OBJECT
 10
-619.15937299999996
 20
442.46393999999998
 30
0.0
 11
-619.01682399999981
 21
442.42749599999991
 31
0.0
  0
LINE
  5
F5AEC
  8
OBJECT
 10
-619.01682399999981
 20
442.42749599999991
 30
0.0
 11
-618.87426499999981
 21
442.39081299999998
 31
0.0
  0
LINE
  5
F5AED
  8
OBJECT
 10
-618.87426499999981
 20
442.39081299999998
 30
0.0
 11
-618.73170300000004
 21
442.35389399999991
 31
0.0
  0
LINE
  5
F5AEE
  8
OBJECT
 10
-618.73170300000004
 20
442.35389399999991
 30
0.0
 11
-618.58915000000002
 21
442.31673699999988
 31
0.0
  0
LINE
  5
F5AEF
  8
OBJECT
 10
-618.58915000000002
 20
442.31673699999988
 30
0.0
 11
-618.44661399999995
 21
442.27934199999987
 31
0.0
  0
LINE
  5
F5AF0
  8
OBJECT
 10
-618.44661399999995
 20
442.27934199999987
 30
0.0
 11
-618.30410599999982
 21
442.24171200000001
 31
0.0
  0
LINE
  5
F5AF1
  8
OBJECT
 10
-618.30410599999982
 20
442.24171200000001
 30
0.0
 11
-618.16163499999982
 21
442.20384399999989
 31
0.0
  0
LINE
  5
F5AF2
  8
OBJECT
 10
-618.16163499999982
 20
442.20384399999989
 30
0.0
 11
-618.01920999999982
 21
442.16574099999991
 31
0.0
  0
LINE
  5
F5AF3
  8
OBJECT
 10
-618.01920999999982
 20
442.16574099999991
 30
0.0
 11
-617.8768419999999
 21
442.12740199999979
 31
0.0
  0
LINE
  5
F5AF4
  8
OBJECT
 10
-617.8768419999999
 20
442.12740199999979
 30
0.0
 11
-617.73453999999981
 21
442.08882699999981
 31
0.0
  0
LINE
  5
F5AF5
  8
OBJECT
 10
-617.73453999999981
 20
442.08882699999981
 30
0.0
 11
-617.59231299999999
 21
442.05001699999991
 31
0.0
  0
LINE
  5
F5AF6
  8
OBJECT
 10
-617.59231299999999
 20
442.05001699999991
 30
0.0
 11
-617.45017199999995
 21
442.01097299999998
 31
0.0
  0
LINE
  5
F5AF7
  8
OBJECT
 10
-617.45017199999995
 20
442.01097299999998
 30
0.0
 11
-617.30812500000002
 21
441.97169299999979
 31
0.0
  0
LINE
  5
F5AF8
  8
OBJECT
 10
-617.30812500000002
 20
441.97169299999979
 30
0.0
 11
-617.1594849999999
 21
441.93030999999991
 31
0.0
  0
LINE
  5
F5AF9
  8
OBJECT
 10
-617.1594849999999
 20
441.93030999999991
 30
0.0
 11
-617.01095699999996
 21
441.88867199999987
 31
0.0
  0
LINE
  5
F5AFA
  8
OBJECT
 10
-617.01095699999996
 20
441.88867199999987
 30
0.0
 11
-616.86253600000043
 21
441.84678499999978
 31
0.0
  0
LINE
  5
F5AFB
  8
OBJECT
 10
-616.86253600000043
 20
441.84678499999978
 30
0.0
 11
-616.71421999999995
 21
441.80464999999992
 31
0.0
  0
LINE
  5
F5AFC
  8
OBJECT
 10
-616.71421999999995
 20
441.80464999999992
 30
0.0
 11
-616.56600400000002
 21
441.76227199999988
 31
0.0
  0
LINE
  5
F5AFD
  8
OBJECT
 10
-616.56600400000002
 20
441.76227199999988
 30
0.0
 11
-616.41788600000007
 21
441.71965299999999
 31
0.0
  0
LINE
  5
F5AFE
  8
OBJECT
 10
-616.41788600000007
 20
441.71965299999999
 30
0.0
 11
-616.26986199999999
 21
441.67679700000008
 31
0.0
  0
LINE
  5
F5AFF
  8
OBJECT
 10
-616.26986199999999
 20
441.67679700000008
 30
0.0
 11
-616.12192900000002
 21
441.63370699999979
 31
0.0
  0
LINE
  5
F5B00
  8
OBJECT
 10
-616.12192900000002
 20
441.63370699999979
 30
0.0
 11
-615.97408199999995
 21
441.59038700000002
 31
0.0
  0
LINE
  5
F5B01
  8
OBJECT
 10
-615.97408199999995
 20
441.59038700000002
 30
0.0
 11
-615.82632000000001
 21
441.54683999999992
 31
0.0
  0
LINE
  5
F5B02
  8
OBJECT
 10
-615.82632000000001
 20
441.54683999999992
 30
0.0
 11
-615.67863699999975
 21
441.50306899999998
 31
0.0
  0
LINE
  5
F5B03
  8
OBJECT
 10
-615.67863699999975
 20
441.50306899999998
 30
0.0
 11
-615.53103099999987
 21
441.45907799999998
 31
0.0
  0
LINE
  5
F5B04
  8
OBJECT
 10
-615.53103099999987
 20
441.45907799999998
 30
0.0
 11
-615.3834989999998
 21
441.41486899999973
 31
0.0
  0
LINE
  5
F5B05
  8
OBJECT
 10
-615.3834989999998
 20
441.41486899999973
 30
0.0
 11
-615.23603700000001
 21
441.37044599999979
 31
0.0
  0
LINE
  5
F5B06
  8
OBJECT
 10
-615.23603700000001
 20
441.37044599999979
 30
0.0
 11
-615.08864100000005
 21
441.3258130000001
 31
0.0
  0
LINE
  5
F5B07
  8
OBJECT
 10
-615.08864100000005
 20
441.3258130000001
 30
0.0
 11
-614.94130800000005
 21
441.28097299999979
 31
0.0
  0
LINE
  5
F5B08
  8
OBJECT
 10
-614.94130800000005
 20
441.28097299999979
 30
0.0
 11
-614.7940339999999
 21
441.235929
 31
0.0
  0
LINE
  5
F5B09
  8
OBJECT
 10
-614.7940339999999
 20
441.235929
 30
0.0
 11
-614.64681700000006
 21
441.19068399999992
 31
0.0
  0
LINE
  5
F5B0A
  8
OBJECT
 10
-614.64681700000006
 20
441.19068399999992
 30
0.0
 11
-614.49965199999986
 21
441.14524199999988
 31
0.0
  0
LINE
  5
F5B0B
  8
OBJECT
 10
-614.49965199999986
 20
441.14524199999988
 30
0.0
 11
-614.35253600000033
 21
441.09960599999999
 31
0.0
  0
LINE
  5
F5B0C
  8
OBJECT
 10
-614.35253600000033
 20
441.09960599999999
 30
0.0
 11
-614.21006199999988
 21
441.05521399999998
 31
0.0
  0
LINE
  5
F5B0D
  8
OBJECT
 10
-614.21006199999988
 20
441.05521399999998
 30
0.0
 11
-614.06763199999978
 21
441.01064599999989
 31
0.0
  0
LINE
  5
F5B0E
  8
OBJECT
 10
-614.06763199999978
 20
441.01064599999989
 30
0.0
 11
-613.92524500000002
 21
440.96590500000002
 31
0.0
  0
LINE
  5
F5B0F
  8
OBJECT
 10
-613.92524500000002
 20
440.96590500000002
 30
0.0
 11
-613.78290400000003
 21
440.92099300000001
 31
0.0
  0
LINE
  5
F5B10
  8
OBJECT
 10
-613.78290400000003
 20
440.92099300000001
 30
0.0
 11
-613.64060699999982
 21
440.87591300000003
 31
0.0
  0
LINE
  5
F5B11
  8
OBJECT
 10
-613.64060699999982
 20
440.87591300000003
 30
0.0
 11
-613.49835599999994
 21
440.83066799999989
 31
0.0
  0
LINE
  5
F5B12
  8
OBJECT
 10
-613.49835599999994
 20
440.83066799999989
 30
0.0
 11
-613.35615199999995
 21
440.78526099999988
 31
0.0
  0
LINE
  5
F5B13
  8
OBJECT
 10
-613.35615199999995
 20
440.78526099999988
 30
0.0
 11
-613.21399399999996
 21
440.73969399999987
 31
0.0
  0
LINE
  5
F5B14
  8
OBJECT
 10
-613.21399399999996
 20
440.73969399999987
 30
0.0
 11
-613.07188399999995
 21
440.69397099999992
 31
0.0
  0
LINE
  5
F5B15
  8
OBJECT
 10
-613.07188399999995
 20
440.69397099999992
 30
0.0
 11
-612.92982199999994
 21
440.64809399999979
 31
0.0
  0
LINE
  5
F5B16
  8
OBJECT
 10
-612.92982199999994
 20
440.64809399999979
 30
0.0
 11
-612.78780800000004
 21
440.60206499999998
 31
0.0
  0
LINE
  5
F5B17
  8
OBJECT
 10
-612.78780800000004
 20
440.60206499999998
 30
0.0
 11
-612.64584400000001
 21
440.5558880000001
 31
0.0
  0
LINE
  5
F5B18
  8
OBJECT
 10
-612.64584400000001
 20
440.5558880000001
 30
0.0
 11
-612.50392900000008
 21
440.50956599999989
 31
0.0
  0
LINE
  5
F5B19
  8
OBJECT
 10
-612.50392900000008
 20
440.50956599999989
 30
0.0
 11
-612.36206400000003
 21
440.4631
 31
0.0
  0
LINE
  5
F5B1A
  8
OBJECT
 10
-612.36206400000003
 20
440.4631
 30
0.0
 11
-612.22025099999996
 21
440.416495
 31
0.0
  0
LINE
  5
F5B1B
  8
OBJECT
 10
-612.22025099999996
 20
440.416495
 30
0.0
 11
-612.07848899999999
 21
440.36975200000001
 31
0.0
  0
LINE
  5
F5B1C
  8
OBJECT
 10
-612.07848899999999
 20
440.36975200000001
 30
0.0
 11
-611.936778
 21
440.32287499999973
 31
0.0
  0
LINE
  5
F5B1D
  8
OBJECT
 10
-611.936778
 20
440.32287499999973
 30
0.0
 11
-611.79512099999999
 21
440.27586599999989
 31
0.0
  0
LINE
  5
F5B1E
  8
OBJECT
 10
-611.79512099999999
 20
440.27586599999989
 30
0.0
 11
-611.65351599999985
 21
440.22872799999999
 31
0.0
  0
LINE
  5
F5B1F
  8
OBJECT
 10
-611.65351599999985
 20
440.22872799999999
 30
0.0
 11
-611.51196500000003
 21
440.18146400000001
 31
0.0
  0
LINE
  5
F5B20
  8
OBJECT
 10
-611.51196500000003
 20
440.18146400000001
 30
0.0
 11
-611.37815699999999
 21
440.13665399999979
 31
0.0
  0
LINE
  5
F5B21
  8
OBJECT
 10
-611.37815699999999
 20
440.13665399999979
 30
0.0
 11
-611.24439600000005
 21
440.09173600000003
 31
0.0
  0
LINE
  5
F5B22
  8
OBJECT
 10
-611.24439600000005
 20
440.09173600000003
 30
0.0
 11
-611.11067700000001
 21
440.04670900000002
 31
0.0
  0
LINE
  5
F5B23
  8
OBJECT
 10
-611.11067700000001
 20
440.04670900000002
 30
0.0
 11
-610.97699999999998
 21
440.00157399999989
 31
0.0
  0
LINE
  5
F5B24
  8
OBJECT
 10
-610.97699999999998
 20
440.00157399999989
 30
0.0
 11
-610.84336099999985
 21
439.95633299999992
 31
0.0
  0
LINE
  5
F5B25
  8
OBJECT
 10
-610.84336099999985
 20
439.95633299999992
 30
0.0
 11
-610.70975799999985
 21
439.91098599999998
 31
0.0
  0
LINE
  5
F5B26
  8
OBJECT
 10
-610.70975799999985
 20
439.91098599999998
 30
0.0
 11
-610.576188
 21
439.86553499999991
 31
0.0
  0
LINE
  5
F5B27
  8
OBJECT
 10
-610.576188
 20
439.86553499999991
 30
0.0
 11
-610.44264899999985
 21
439.81997899999988
 31
0.0
  0
LINE
  5
F5B28
  8
OBJECT
 10
-610.44264899999985
 20
439.81997899999988
 30
0.0
 11
-610.30913799999985
 21
439.77432099999987
 31
0.0
  0
LINE
  5
F5B29
  8
OBJECT
 10
-610.30913799999985
 20
439.77432099999987
 30
0.0
 11
-610.17565300000001
 21
439.72856099999979
 31
0.0
  0
LINE
  5
F5B2A
  8
OBJECT
 10
-610.17565300000001
 20
439.72856099999979
 30
0.0
 11
-610.042191
 21
439.68270000000001
 31
0.0
  0
LINE
  5
F5B2B
  8
OBJECT
 10
-610.042191
 20
439.68270000000001
 30
0.0
 11
-609.90875000000005
 21
439.63673899999992
 31
0.0
  0
LINE
  5
F5B2C
  8
OBJECT
 10
-609.90875000000005
 20
439.63673899999992
 30
0.0
 11
-609.77532700000006
 21
439.59067800000003
 31
0.0
  0
LINE
  5
F5B2D
  8
OBJECT
 10
-609.77532700000006
 20
439.59067800000003
 30
0.0
 11
-609.64192000000003
 21
439.54451999999998
 31
0.0
  0
LINE
  5
F5B2E
  8
OBJECT
 10
-609.64192000000003
 20
439.54451999999998
 30
0.0
 11
-609.50852599999985
 21
439.49826499999972
 31
0.0
  0
LINE
  5
F5B2F
  8
OBJECT
 10
-609.50852599999985
 20
439.49826499999972
 30
0.0
 11
-609.37514299999975
 21
439.45191299999988
 31
0.0
  0
LINE
  5
F5B30
  8
OBJECT
 10
-609.37514299999975
 20
439.45191299999988
 30
0.0
 11
-609.24176699999975
 21
439.40546599999999
 31
0.0
  0
LINE
  5
F5B31
  8
OBJECT
 10
-609.24176699999975
 20
439.40546599999999
 30
0.0
 11
-609.10839799999985
 21
439.35892499999989
 31
0.0
  0
LINE
  5
F5B32
  8
OBJECT
 10
-609.10839799999985
 20
439.35892499999989
 30
0.0
 11
-608.97503099999994
 21
439.31228999999979
 31
0.0
  0
LINE
  5
F5B33
  8
OBJECT
 10
-608.97503099999994
 20
439.31228999999979
 30
0.0
 11
-608.84166400000004
 21
439.26556299999999
 31
0.0
  0
LINE
  5
F5B34
  8
OBJECT
 10
-608.84166400000004
 20
439.26556299999999
 30
0.0
 11
-608.68629699999985
 21
439.21100999999999
 31
0.0
  0
LINE
  5
F5B35
  8
OBJECT
 10
-608.68629699999985
 20
439.21100999999999
 30
0.0
 11
-608.53094199999964
 21
439.15632199999999
 31
0.0
  0
LINE
  5
F5B36
  8
OBJECT
 10
-608.53094199999964
 20
439.15632199999999
 30
0.0
 11
-608.37561199999982
 21
439.10149000000001
 31
0.0
  0
LINE
  5
F5B37
  8
OBJECT
 10
-608.37561199999982
 20
439.10149000000001
 30
0.0
 11
-608.22032100000001
 21
439.04650399999991
 31
0.0
  0
LINE
  5
F5B38
  8
OBJECT
 10
-608.22032100000001
 20
439.04650399999991
 30
0.0
 11
-608.06508399999996
 21
438.99135199999989
 31
0.0
  0
LINE
  5
F5B39
  8
OBJECT
 10
-608.06508399999996
 20
438.99135199999989
 30
0.0
 11
-607.90991399999984
 21
438.93602499999997
 31
0.0
  0
LINE
  5
F5B3A
  8
OBJECT
 10
-607.90991399999984
 20
438.93602499999997
 30
0.0
 11
-607.75482599999998
 21
438.88051300000001
 31
0.0
  0
LINE
  5
F5B3B
  8
OBJECT
 10
-607.75482599999998
 20
438.88051300000001
 30
0.0
 11
-607.59983399999965
 21
438.82480599999991
 31
0.0
  0
LINE
  5
F5B3C
  8
OBJECT
 10
-607.59983399999965
 20
438.82480599999991
 30
0.0
 11
-607.44495199999994
 21
438.76889199999999
 31
0.0
  0
LINE
  5
F5B3D
  8
OBJECT
 10
-607.44495199999994
 20
438.76889199999999
 30
0.0
 11
-607.29019400000027
 21
438.712763
 31
0.0
  0
LINE
  5
F5B3E
  8
OBJECT
 10
-607.29019400000027
 20
438.712763
 30
0.0
 11
-607.13557399999968
 21
438.656408
 31
0.0
  0
LINE
  5
F5B3F
  8
OBJECT
 10
-607.13557399999968
 20
438.656408
 30
0.0
 11
-606.98110599999995
 21
438.59981699999992
 31
0.0
  0
LINE
  5
F5B40
  8
OBJECT
 10
-606.98110599999995
 20
438.59981699999992
 30
0.0
 11
-606.82680400000004
 21
438.54297999999989
 31
0.0
  0
LINE
  5
F5B41
  8
OBJECT
 10
-606.82680400000004
 20
438.54297999999989
 30
0.0
 11
-606.67268200000001
 21
438.48588499999988
 31
0.0
  0
LINE
  5
F5B42
  8
OBJECT
 10
-606.67268200000001
 20
438.48588499999988
 30
0.0
 11
-606.51875500000006
 21
438.42852399999992
 31
0.0
  0
LINE
  5
F5B43
  8
OBJECT
 10
-606.51875500000006
 20
438.42852399999992
 30
0.0
 11
-606.36503600000003
 21
438.37088599999993
 31
0.0
  0
LINE
  5
F5B44
  8
OBJECT
 10
-606.36503600000003
 20
438.37088599999993
 30
0.0
 11
-606.21153900000002
 21
438.31296200000003
 31
0.0
  0
LINE
  5
F5B45
  8
OBJECT
 10
-606.21153900000002
 20
438.31296200000003
 30
0.0
 11
-606.05827899999986
 21
438.25473899999997
 31
0.0
  0
LINE
  5
F5B46
  8
OBJECT
 10
-606.05827899999986
 20
438.25473899999997
 30
0.0
 11
-605.9052700000002
 21
438.19620999999989
 31
0.0
  0
LINE
  5
F5B47
  8
OBJECT
 10
-605.9052700000002
 20
438.19620999999989
 30
0.0
 11
-605.75252499999965
 21
438.13736199999988
 31
0.0
  0
LINE
  5
F5B48
  8
OBJECT
 10
-605.75252499999965
 20
438.13736199999988
 30
0.0
 11
-605.61977399999989
 21
438.08586499999979
 31
0.0
  0
LINE
  5
F5B49
  8
OBJECT
 10
-605.61977399999989
 20
438.08586499999979
 30
0.0
 11
-605.48720999999978
 21
438.03410999999988
 31
0.0
  0
LINE
  5
F5B4A
  8
OBJECT
 10
-605.48720999999978
 20
438.03410999999988
 30
0.0
 11
-605.35480799999982
 21
437.98208699999992
 31
0.0
  0
LINE
  5
F5B4B
  8
OBJECT
 10
-605.35480799999982
 20
437.98208699999992
 30
0.0
 11
-605.22254399999986
 21
437.92978599999998
 31
0.0
  0
LINE
  5
F5B4C
  8
OBJECT
 10
-605.22254399999986
 20
437.92978599999998
 30
0.0
 11
-605.09039399999995
 21
437.87719799999979
 31
0.0
  0
LINE
  5
F5B4D
  8
OBJECT
 10
-605.09039399999995
 20
437.87719799999979
 30
0.0
 11
-604.95833299999981
 21
437.82431199999991
 31
0.0
  0
LINE
  5
F5B4E
  8
OBJECT
 10
-604.95833299999981
 20
437.82431199999991
 30
0.0
 11
-604.82633699999985
 21
437.77111899999989
 31
0.0
  0
LINE
  5
F5B4F
  8
OBJECT
 10
-604.82633699999985
 20
437.77111899999989
 30
0.0
 11
-604.69438199999979
 21
437.71760899999981
 31
0.0
  0
LINE
  5
F5B50
  8
OBJECT
 10
-604.69438199999979
 20
437.71760899999981
 30
0.0
 11
-604.5624429999998
 21
437.66377299999988
 31
0.0
  0
LINE
  5
F5B51
  8
OBJECT
 10
-604.5624429999998
 20
437.66377299999988
 30
0.0
 11
-604.43049599999995
 21
437.6096
 31
0.0
  0
LINE
  5
F5B52
  8
OBJECT
 10
-604.43049599999995
 20
437.6096
 30
0.0
 11
-604.29851599999995
 21
437.55507999999998
 31
0.0
  0
LINE
  5
F5B53
  8
OBJECT
 10
-604.29851599999995
 20
437.55507999999998
 30
0.0
 11
-604.16647899999975
 21
437.50020499999988
 31
0.0
  0
LINE
  5
F5B54
  8
OBJECT
 10
-604.16647899999975
 20
437.50020499999988
 30
0.0
 11
-604.03436099999988
 21
437.44496299999997
 31
0.0
  0
LINE
  5
F5B55
  8
OBJECT
 10
-604.03436099999988
 20
437.44496299999997
 30
0.0
 11
-603.90213600000004
 21
437.38934699999987
 31
0.0
  0
LINE
  5
F5B56
  8
OBJECT
 10
-603.90213600000004
 20
437.38934699999987
 30
0.0
 11
-603.76978199999985
 21
437.33334399999978
 31
0.0
  0
LINE
  5
F5B57
  8
OBJECT
 10
-603.76978199999985
 20
437.33334399999978
 30
0.0
 11
-603.63727300000005
 21
437.27694700000001
 31
0.0
  0
LINE
  5
F5B58
  8
OBJECT
 10
-603.63727300000005
 20
437.27694700000001
 30
0.0
 11
-603.50458499999968
 21
437.22014399999989
 31
0.0
  0
LINE
  5
F5B59
  8
OBJECT
 10
-603.50458499999968
 20
437.22014399999989
 30
0.0
 11
-603.37169400000005
 21
437.1629269999998
 31
0.0
  0
LINE
  5
F5B5A
  8
OBJECT
 10
-603.37169400000005
 20
437.1629269999998
 30
0.0
 11
-603.23857499999986
 21
437.10528499999981
 31
0.0
  0
LINE
  5
F5B5B
  8
OBJECT
 10
-603.23857499999986
 20
437.10528499999981
 30
0.0
 11
-603.10520399999984
 21
437.04720899999978
 31
0.0
  0
LINE
  5
F5B5C
  8
OBJECT
 10
-603.10520399999984
 20
437.04720899999978
 30
0.0
 11
-602.96937299999979
 21
436.98773199999988
 31
0.0
  0
LINE
  5
F5B5D
  8
OBJECT
 10
-602.96937299999979
 20
436.98773199999988
 30
0.0
 11
-602.833348
 21
436.92784999999998
 31
0.0
  0
LINE
  5
F5B5E
  8
OBJECT
 10
-602.833348
 20
436.92784999999998
 30
0.0
 11
-602.69722200000001
 21
436.86761699999988
 31
0.0
  0
LINE
  5
F5B5F
  8
OBJECT
 10
-602.69722200000001
 20
436.86761699999988
 30
0.0
 11
-602.56108400000005
 21
436.80708699999991
 31
0.0
  0
LINE
  5
F5B60
  8
OBJECT
 10
-602.56108400000005
 20
436.80708699999991
 30
0.0
 11
-602.425028
 21
436.74631299999987
 31
0.0
  0
LINE
  5
F5B61
  8
OBJECT
 10
-602.425028
 20
436.74631299999987
 30
0.0
 11
-602.28914500000019
 21
436.68534899999992
 31
0.0
  0
LINE
  5
F5B62
  8
OBJECT
 10
-602.28914500000019
 20
436.68534899999992
 30
0.0
 11
-602.15352700000005
 21
436.62424900000002
 31
0.0
  0
LINE
  5
F5B63
  8
OBJECT
 10
-602.15352700000005
 20
436.62424900000002
 30
0.0
 11
-602.0182659999997
 21
436.56306699999988
 31
0.0
  0
LINE
  5
F5B64
  8
OBJECT
 10
-602.0182659999997
 20
436.56306699999988
 30
0.0
 11
-601.88345300000003
 21
436.50185699999997
 31
0.0
  0
LINE
  5
F5B65
  8
OBJECT
 10
-601.88345300000003
 20
436.50185699999997
 30
0.0
 11
-601.74918000000002
 21
436.44067199999989
 31
0.0
  0
LINE
  5
F5B66
  8
OBJECT
 10
-601.74918000000002
 20
436.44067199999989
 30
0.0
 11
-601.61553900000001
 21
436.37956600000001
 31
0.0
  0
LINE
  5
F5B67
  8
OBJECT
 10
-601.61553900000001
 20
436.37956600000001
 30
0.0
 11
-601.48262199999976
 21
436.31859299999991
 31
0.0
  0
LINE
  5
F5B68
  8
OBJECT
 10
-601.48262199999976
 20
436.31859299999991
 30
0.0
 11
-601.35051999999985
 21
436.25780700000001
 31
0.0
  0
LINE
  5
F5B69
  8
OBJECT
 10
-601.35051999999985
 20
436.25780700000001
 30
0.0
 11
-601.2193249999998
 21
436.19726199999991
 31
0.0
  0
LINE
  5
F5B6A
  8
OBJECT
 10
-601.2193249999998
 20
436.19726199999991
 30
0.0
 11
-601.08912899999984
 21
436.13701099999997
 31
0.0
  0
LINE
  5
F5B6B
  8
OBJECT
 10
-601.08912899999984
 20
436.13701099999997
 30
0.0
 11
-600.96002399999998
 21
436.07710900000001
 31
0.0
  0
LINE
  5
F5B6C
  8
OBJECT
 10
-600.96002399999998
 20
436.07710900000001
 30
0.0
 11
-600.83210099999985
 21
436.01760899999999
 31
0.0
  0
LINE
  5
F5B6D
  8
OBJECT
 10
-600.83210099999985
 20
436.01760899999999
 30
0.0
 11
-600.70545300000003
 21
435.9585639999998
 31
0.0
  0
LINE
  5
F5B6E
  8
OBJECT
 10
-600.70545300000003
 20
435.9585639999998
 30
0.0
 11
-600.58017000000007
 21
435.90002899999979
 31
0.0
  0
LINE
  5
F5B6F
  8
OBJECT
 10
-600.58017000000007
 20
435.90002899999979
 30
0.0
 11
-600.45634600000005
 21
435.84205799999989
 31
0.0
  0
LINE
  5
F5B70
  8
OBJECT
 10
-600.45634600000005
 20
435.84205799999989
 30
0.0
 11
-600.3295099999998
 21
435.78255999999988
 31
0.0
  0
LINE
  5
F5B71
  8
OBJECT
 10
-600.3295099999998
 20
435.78255999999988
 30
0.0
 11
-600.20396599999981
 21
435.72354199999978
 31
0.0
  0
LINE
  5
F5B72
  8
OBJECT
 10
-600.20396599999981
 20
435.72354199999978
 30
0.0
 11
-600.07933800000001
 21
435.66482000000008
 31
0.0
  0
LINE
  5
F5B73
  8
OBJECT
 10
-600.07933800000001
 20
435.66482000000008
 30
0.0
 11
-599.95524999999998
 21
435.60620899999998
 31
0.0
  0
LINE
  5
F5B74
  8
OBJECT
 10
-599.95524999999998
 20
435.60620899999998
 30
0.0
 11
-599.8313270000001
 21
435.547528
 31
0.0
  0
LINE
  5
F5B75
  8
OBJECT
 10
-599.8313270000001
 20
435.547528
 30
0.0
 11
-599.70719499999996
 21
435.48858999999999
 31
0.0
  0
LINE
  5
F5B76
  8
OBJECT
 10
-599.70719499999996
 20
435.48858999999999
 30
0.0
 11
-599.58247800000004
 21
435.429213
 31
0.0
  0
LINE
  5
F5B77
  8
OBJECT
 10
-599.58247800000004
 20
435.429213
 30
0.0
 11
-599.45680200000004
 21
435.36921299999989
 31
0.0
  0
LINE
  5
F5B78
  8
OBJECT
 10
-599.45680200000004
 20
435.36921299999989
 30
0.0
 11
-599.32978999999989
 21
435.30840499999988
 31
0.0
  0
LINE
  5
F5B79
  8
OBJECT
 10
-599.32978999999989
 20
435.30840499999988
 30
0.0
 11
-599.20106799999985
 21
435.24660699999998
 31
0.0
  0
LINE
  5
F5B7A
  8
OBJECT
 10
-599.20106799999985
 20
435.24660699999998
 30
0.0
 11
-599.07026199999984
 21
435.18363299999999
 31
0.0
  0
LINE
  5
F5B7B
  8
OBJECT
 10
-599.07026199999984
 20
435.18363299999999
 30
0.0
 11
-598.93699500000002
 21
435.11929999999978
 31
0.0
  0
LINE
  5
F5B7C
  8
OBJECT
 10
-598.93699500000002
 20
435.11929999999978
 30
0.0
 11
-598.80089199999975
 21
435.05342499999989
 31
0.0
  0
LINE
  5
F5B7D
  8
OBJECT
 10
-598.80089199999975
 20
435.05342499999989
 30
0.0
 11
-598.66157899999996
 21
434.98582399999992
 31
0.0
  0
LINE
  5
F5B7E
  8
OBJECT
 10
-598.66157899999996
 20
434.98582399999992
 30
0.0
 11
-598.51868100000002
 21
434.91631100000001
 31
0.0
  0
LINE
  5
F5B7F
  8
OBJECT
 10
-598.51868100000002
 20
434.91631100000001
 30
0.0
 11
-598.37182199999995
 21
434.84470499999981
 31
0.0
  0
LINE
  5
F5B80
  8
OBJECT
 10
-598.37182199999995
 20
434.84470499999981
 30
0.0
 11
-598.22062700000004
 21
434.77082000000001
 31
0.0
  0
LINE
  5
F5B81
  8
OBJECT
 10
-598.22062700000004
 20
434.77082000000001
 30
0.0
 11
-598.06472099999985
 21
434.69447299999979
 31
0.0
  0
LINE
  5
F5B82
  8
OBJECT
 10
-598.06472099999985
 20
434.69447299999979
 30
0.0
 11
-597.90372899999988
 21
434.61548099999987
 31
0.0
  0
LINE
  5
F5B83
  8
OBJECT
 10
-597.90372899999988
 20
434.61548099999987
 30
0.0
 11
-597.73727599999995
 21
434.533658
 31
0.0
  0
LINE
  5
F5B84
  8
OBJECT
 10
-597.73727599999995
 20
434.533658
 30
0.0
 11
-597.53975700000001
 21
434.43638999999979
 31
0.0
  0
LINE
  5
F5B85
  8
OBJECT
 10
-597.53975700000001
 20
434.43638999999979
 30
0.0
 11
-597.33631300000002
 21
434.33603899999991
 31
0.0
  0
LINE
  5
F5B86
  8
OBJECT
 10
-597.33631300000002
 20
434.33603899999991
 30
0.0
 11
-597.12868000000003
 21
434.23347799999988
 31
0.0
  0
LINE
  5
F5B87
  8
OBJECT
 10
-597.12868000000003
 20
434.23347799999988
 30
0.0
 11
-596.91859499999987
 21
434.12957899999998
 31
0.0
  0
LINE
  5
F5B88
  8
OBJECT
 10
-596.91859499999987
 20
434.12957899999998
 30
0.0
 11
-596.70779199999981
 21
434.02521499999989
 31
0.0
  0
LINE
  5
F5B89
  8
OBJECT
 10
-596.70779199999981
 20
434.02521499999989
 30
0.0
 11
-596.4980079999998
 21
433.92125900000002
 31
0.0
  0
LINE
  5
F5B8A
  8
OBJECT
 10
-596.4980079999998
 20
433.92125900000002
 30
0.0
 11
-596.29097899999999
 21
433.81858399999999
 31
0.0
  0
LINE
  5
F5B8B
  8
OBJECT
 10
-596.29097899999999
 20
433.81858399999999
 30
0.0
 11
-596.08844199999965
 21
433.7180619999998
 31
0.0
  0
LINE
  5
F5B8C
  8
OBJECT
 10
-596.08844199999965
 20
433.7180619999998
 30
0.0
 11
-595.89213099999995
 21
433.62056699999999
 31
0.0
  0
LINE
  5
F5B8D
  8
OBJECT
 10
-595.89213099999995
 20
433.62056699999999
 30
0.0
 11
-595.70378299999982
 21
433.52697000000001
 31
0.0
  0
LINE
  5
F5B8E
  8
OBJECT
 10
-595.70378299999982
 20
433.52697000000001
 30
0.0
 11
-595.52513399999975
 21
433.43814599999979
 31
0.0
  0
LINE
  5
F5B8F
  8
OBJECT
 10
-595.52513399999975
 20
433.43814599999979
 30
0.0
 11
-595.35792000000004
 21
433.35496599999999
 31
0.0
  0
LINE
  5
F5B90
  8
OBJECT
 10
-595.35792000000004
 20
433.35496599999999
 30
0.0
 11
-595.2038759999997
 21
433.27830299999988
 31
0.0
  0
LINE
  5
F5B91
  8
OBJECT
 10
-595.2038759999997
 20
433.27830299999988
 30
0.0
 11
-595.0647399999998
 21
433.20902999999993
 31
0.0
  0
LINE
  5
F5B92
  8
OBJECT
 10
-595.0647399999998
 20
433.20902999999993
 30
0.0
 11
-594.94224599999995
 21
433.14801999999992
 31
0.0
  0
LINE
  5
F5B93
  8
OBJECT
 10
-594.94224599999995
 20
433.14801999999992
 30
0.0
 11
-594.83813099999998
 21
433.09614599999998
 31
0.0
  0
LINE
  5
F5B94
  8
OBJECT
 10
-594.83813099999998
 20
433.09614599999998
 30
0.0
 11
-594.75413100000003
 21
433.05427999999989
 31
0.0
  0
LINE
  5
F5B95
  8
OBJECT
 10
-594.75413100000003
 20
433.05427999999989
 30
0.0
 11
-594.69198200000005
 21
433.02329600000002
 31
0.0
  0
LINE
  5
F5B96
  8
OBJECT
 10
-594.69198200000005
 20
433.02329600000002
 30
0.0
 11
-594.6534190000001
 21
433.00406499999991
 31
0.0
  0
LINE
  5
F5B97
  8
OBJECT
 10
-594.6534190000001
 20
433.00406499999991
 30
0.0
 11
-594.64017899999999
 21
432.99745999999988
 31
0.0
  0
LINE
  5
F5B98
  8
OBJECT
 10
-510.68463999999989
 20
444.67354399999999
 30
0.0
 11
-510.67444599999988
 21
444.67229099999997
 31
0.0
  0
LINE
  5
F5B99
  8
OBJECT
 10
-510.67444599999988
 20
444.67229099999997
 30
0.0
 11
-510.6447359999998
 21
444.66862800000001
 31
0.0
  0
LINE
  5
F5B9A
  8
OBJECT
 10
-510.6447359999998
 20
444.66862800000001
 30
0.0
 11
-510.59681999999992
 21
444.66269999999992
 31
0.0
  0
LINE
  5
F5B9B
  8
OBJECT
 10
-510.59681999999992
 20
444.66269999999992
 30
0.0
 11
-510.53200700000002
 21
444.65465199999988
 31
0.0
  0
LINE
  5
F5B9C
  8
OBJECT
 10
-510.53200700000002
 20
444.65465199999988
 30
0.0
 11
-510.45160600000003
 21
444.64462899999978
 31
0.0
  0
LINE
  5
F5B9D
  8
OBJECT
 10
-510.45160600000003
 20
444.64462899999978
 30
0.0
 11
-510.35692499999982
 21
444.63277699999992
 31
0.0
  0
LINE
  5
F5B9E
  8
OBJECT
 10
-510.35692499999982
 20
444.63277699999992
 30
0.0
 11
-510.24927400000001
 21
444.61923899999999
 31
0.0
  0
LINE
  5
F5B9F
  8
OBJECT
 10
-510.24927400000001
 20
444.61923899999999
 30
0.0
 11
-510.12996199999981
 21
444.60416199999992
 31
0.0
  0
LINE
  5
F5BA0
  8
OBJECT
 10
-510.12996199999981
 20
444.60416199999992
 30
0.0
 11
-510.00029699999999
 21
444.58769000000001
 31
0.0
  0
LINE
  5
F5BA1
  8
OBJECT
 10
-510.00029699999999
 20
444.58769000000001
 30
0.0
 11
-509.86158900000009
 21
444.56996800000002
 31
0.0
  0
LINE
  5
F5BA2
  8
OBJECT
 10
-509.86158900000009
 20
444.56996800000002
 30
0.0
 11
-509.715146
 21
444.55114099999992
 31
0.0
  0
LINE
  5
F5BA3
  8
OBJECT
 10
-509.715146
 20
444.55114099999992
 30
0.0
 11
-509.56227799999999
 21
444.53135399999991
 31
0.0
  0
LINE
  5
F5BA4
  8
OBJECT
 10
-509.56227799999999
 20
444.53135399999991
 30
0.0
 11
-509.40429399999999
 21
444.51075300000002
 31
0.0
  0
LINE
  5
F5BA5
  8
OBJECT
 10
-509.40429399999999
 20
444.51075300000002
 30
0.0
 11
-509.24250299999989
 21
444.48948200000001
 31
0.0
  0
LINE
  5
F5BA6
  8
OBJECT
 10
-509.24250299999989
 20
444.48948200000001
 30
0.0
 11
-509.07821300000001
 21
444.46768499999979
 31
0.0
  0
LINE
  5
F5BA7
  8
OBJECT
 10
-509.07821300000001
 20
444.46768499999979
 30
0.0
 11
-508.91273299999989
 21
444.44550899999979
 31
0.0
  0
LINE
  5
F5BA8
  8
OBJECT
 10
-508.91273299999989
 20
444.44550899999979
 30
0.0
 11
-508.74737399999998
 21
444.42309899999998
 31
0.0
  0
LINE
  5
F5BA9
  8
OBJECT
 10
-508.74737399999998
 20
444.42309899999998
 30
0.0
 11
-508.58344299999999
 21
444.400598
 31
0.0
  0
LINE
  5
F5BAA
  8
OBJECT
 10
-508.58344299999999
 20
444.400598
 30
0.0
 11
-508.42224999999979
 21
444.37815299999988
 31
0.0
  0
LINE
  5
F5BAB
  8
OBJECT
 10
-508.42224999999979
 20
444.37815299999988
 30
0.0
 11
-508.26510300000001
 21
444.35590799999989
 31
0.0
  0
LINE
  5
F5BAC
  8
OBJECT
 10
-508.26510300000001
 20
444.35590799999989
 30
0.0
 11
-508.09636499999988
 21
444.33154699999989
 31
0.0
  0
LINE
  5
F5BAD
  8
OBJECT
 10
-508.09636499999988
 20
444.33154699999989
 30
0.0
 11
-507.93382899999989
 21
444.30757199999999
 31
0.0
  0
LINE
  5
F5BAE
  8
OBJECT
 10
-507.93382899999989
 20
444.30757199999999
 30
0.0
 11
-507.77707599999991
 21
444.28393999999992
 31
0.0
  0
LINE
  5
F5BAF
  8
OBJECT
 10
-507.77707599999991
 20
444.28393999999992
 30
0.0
 11
-507.62568699999991
 21
444.26060799999999
 31
0.0
  0
LINE
  5
F5BB0
  8
OBJECT
 10
-507.62568699999991
 20
444.26060799999999
 30
0.0
 11
-507.47924499999999
 21
444.23753699999992
 31
0.0
  0
LINE
  5
F5BB1
  8
OBJECT
 10
-507.47924499999999
 20
444.23753699999992
 30
0.0
 11
-507.33733000000001
 21
444.21468199999993
 31
0.0
  0
LINE
  5
F5BB2
  8
OBJECT
 10
-507.33733000000001
 20
444.21468199999993
 30
0.0
 11
-507.19952499999988
 21
444.192004
 31
0.0
  0
LINE
  5
F5BB3
  8
OBJECT
 10
-507.19952499999988
 20
444.192004
 30
0.0
 11
-507.06540999999987
 21
444.16945899999979
 31
0.0
  0
LINE
  5
F5BB4
  8
OBJECT
 10
-507.06540999999987
 20
444.16945899999979
 30
0.0
 11
-506.93456799999967
 21
444.14700699999997
 31
0.0
  0
LINE
  5
F5BB5
  8
OBJECT
 10
-506.93456799999967
 20
444.14700699999997
 30
0.0
 11
-506.80657999999988
 21
444.12460399999998
 31
0.0
  0
LINE
  5
F5BB6
  8
OBJECT
 10
-506.80657999999988
 20
444.12460399999998
 30
0.0
 11
-506.68102799999991
 21
444.10221100000001
 31
0.0
  0
LINE
  5
F5BB7
  8
OBJECT
 10
-506.68102799999991
 20
444.10221100000001
 30
0.0
 11
-506.55749199999991
 21
444.07978300000002
 31
0.0
  0
LINE
  5
F5BB8
  8
OBJECT
 10
-506.55749199999991
 20
444.07978300000002
 30
0.0
 11
-506.43555599999991
 21
444.05728099999988
 31
0.0
  0
LINE
  5
F5BB9
  8
OBJECT
 10
-506.43555599999991
 20
444.05728099999988
 30
0.0
 11
-506.31479899999999
 21
444.03466100000003
 31
0.0
  0
LINE
  5
F5BBA
  8
OBJECT
 10
-506.31479899999999
 20
444.03466100000003
 30
0.0
 11
-506.19480499999992
 21
444.01188200000001
 31
0.0
  0
LINE
  5
F5BBB
  8
OBJECT
 10
-506.19480499999992
 20
444.01188200000001
 30
0.0
 11
-506.075154
 21
443.98890299999988
 31
0.0
  0
LINE
  5
F5BBC
  8
OBJECT
 10
-506.075154
 20
443.98890299999988
 30
0.0
 11
-505.95542799999993
 21
443.96568099999979
 31
0.0
  0
LINE
  5
F5BBD
  8
OBJECT
 10
-505.95542799999993
 20
443.96568099999979
 30
0.0
 11
-505.8352079999998
 21
443.94217500000002
 31
0.0
  0
LINE
  5
F5BBE
  8
OBJECT
 10
-505.8352079999998
 20
443.94217500000002
 30
0.0
 11
-505.71407599999998
 21
443.91834199999988
 31
0.0
  0
LINE
  5
F5BBF
  8
OBJECT
 10
-505.71407599999998
 20
443.91834199999988
 30
0.0
 11
-505.59161499999988
 21
443.89414199999987
 31
0.0
  0
LINE
  5
F5BC0
  8
OBJECT
 10
-505.59161499999988
 20
443.89414199999987
 30
0.0
 11
-505.47305699999993
 21
443.8706449999998
 31
0.0
  0
LINE
  5
F5BC1
  8
OBJECT
 10
-505.47305699999993
 20
443.8706449999998
 30
0.0
 11
-505.35300499999988
 21
443.84678999999988
 31
0.0
  0
LINE
  5
F5BC2
  8
OBJECT
 10
-505.35300499999988
 20
443.84678999999988
 30
0.0
 11
-505.23155899999978
 21
443.82259199999987
 31
0.0
  0
LINE
  5
F5BC3
  8
OBJECT
 10
-505.23155899999978
 20
443.82259199999987
 30
0.0
 11
-505.10882099999992
 21
443.79806699999989
 31
0.0
  0
LINE
  5
F5BC4
  8
OBJECT
 10
-505.10882099999992
 20
443.79806699999989
 30
0.0
 11
-504.98489299999972
 21
443.77323000000001
 31
0.0
  0
LINE
  5
F5BC5
  8
OBJECT
 10
-504.98489299999972
 20
443.77323000000001
 30
0.0
 11
-504.85987499999987
 21
443.74809699999997
 31
0.0
  0
LINE
  5
F5BC6
  8
OBJECT
 10
-504.85987499999987
 20
443.74809699999997
 30
0.0
 11
-504.73387000000002
 21
443.72268299999979
 31
0.0
  0
LINE
  5
F5BC7
  8
OBJECT
 10
-504.73387000000002
 20
443.72268299999979
 30
0.0
 11
-504.60698000000002
 21
443.69700399999999
 31
0.0
  0
LINE
  5
F5BC8
  8
OBJECT
 10
-504.60698000000002
 20
443.69700399999999
 30
0.0
 11
-504.47930400000001
 21
443.67107600000008
 31
0.0
  0
LINE
  5
F5BC9
  8
OBJECT
 10
-504.47930400000001
 20
443.67107600000008
 30
0.0
 11
-504.35094600000002
 21
443.64491399999991
 31
0.0
  0
LINE
  5
F5BCA
  8
OBJECT
 10
-504.35094600000002
 20
443.64491399999991
 30
0.0
 11
-504.22200600000002
 21
443.61853400000001
 31
0.0
  0
LINE
  5
F5BCB
  8
OBJECT
 10
-504.22200600000002
 20
443.61853400000001
 30
0.0
 11
-504.09258700000009
 21
443.59195099999988
 31
0.0
  0
LINE
  5
F5BCC
  8
OBJECT
 10
-504.09258700000009
 20
443.59195099999988
 30
0.0
 11
-503.96278799999999
 21
443.56518099999988
 31
0.0
  0
LINE
  5
F5BCD
  8
OBJECT
 10
-503.96278799999999
 20
443.56518099999988
 30
0.0
 11
-503.83271299999979
 21
443.53823999999992
 31
0.0
  0
LINE
  5
F5BCE
  8
OBJECT
 10
-503.83271299999979
 20
443.53823999999992
 30
0.0
 11
-503.70246199999991
 21
443.51114399999989
 31
0.0
  0
LINE
  5
F5BCF
  8
OBJECT
 10
-503.70246199999991
 20
443.51114399999989
 30
0.0
 11
-503.572137
 21
443.48390699999987
 31
0.0
  0
LINE
  5
F5BD0
  8
OBJECT
 10
-503.572137
 20
443.48390699999987
 30
0.0
 11
-503.44183999999979
 21
443.45654500000001
 31
0.0
  0
LINE
  5
F5BD1
  8
OBJECT
 10
-503.44183999999979
 20
443.45654500000001
 30
0.0
 11
-503.31167099999988
 21
443.42907499999978
 31
0.0
  0
LINE
  5
F5BD2
  8
OBJECT
 10
-503.31167099999988
 20
443.42907499999978
 30
0.0
 11
-503.18173299999989
 21
443.40151100000003
 31
0.0
  0
LINE
  5
F5BD3
  8
OBJECT
 10
-503.18173299999989
 20
443.40151100000003
 30
0.0
 11
-503.0521270000001
 21
443.37386899999979
 31
0.0
  0
LINE
  5
F5BD4
  8
OBJECT
 10
-503.0521270000001
 20
443.37386899999979
 30
0.0
 11
-502.90410999999989
 21
443.34211199999999
 31
0.0
  0
LINE
  5
F5BD5
  8
OBJECT
 10
-502.90410999999989
 20
443.34211199999999
 30
0.0
 11
-502.75662899999998
 21
443.31026499999979
 31
0.0
  0
LINE
  5
F5BD6
  8
OBJECT
 10
-502.75662899999998
 20
443.31026499999979
 30
0.0
 11
-502.60965200000021
 21
443.27832000000001
 31
0.0
  0
LINE
  5
F5BD7
  8
OBJECT
 10
-502.60965200000021
 20
443.27832000000001
 30
0.0
 11
-502.46314499999988
 21
443.24626899999998
 31
0.0
  0
LINE
  5
F5BD8
  8
OBJECT
 10
-502.46314499999988
 20
443.24626899999998
 30
0.0
 11
-502.31707499999987
 21
443.21410399999991
 31
0.0
  0
LINE
  5
F5BD9
  8
OBJECT
 10
-502.31707499999987
 20
443.21410399999991
 30
0.0
 11
-502.1714089999997
 21
443.1818159999998
 31
0.0
  0
LINE
  5
F5BDA
  8
OBJECT
 10
-502.1714089999997
 20
443.1818159999998
 30
0.0
 11
-502.02611499999972
 21
443.14939799999991
 31
0.0
  0
LINE
  5
F5BDB
  8
OBJECT
 10
-502.02611499999972
 20
443.14939799999991
 30
0.0
 11
-501.88115900000003
 21
443.11684099999979
 31
0.0
  0
LINE
  5
F5BDC
  8
OBJECT
 10
-501.88115900000003
 20
443.11684099999979
 30
0.0
 11
-501.73650899999973
 21
443.084137
 31
0.0
  0
LINE
  5
F5BDD
  8
OBJECT
 10
-501.73650899999973
 20
443.084137
 30
0.0
 11
-501.59213099999982
 21
443.05127799999991
 31
0.0
  0
LINE
  5
F5BDE
  8
OBJECT
 10
-501.59213099999982
 20
443.05127799999991
 30
0.0
 11
-501.447993
 21
443.01825600000001
 31
0.0
  0
LINE
  5
F5BDF
  8
OBJECT
 10
-501.447993
 20
443.01825600000001
 30
0.0
 11
-501.30406099999999
 21
442.98506300000003
 31
0.0
  0
LINE
  5
F5BE0
  8
OBJECT
 10
-501.30406099999999
 20
442.98506300000003
 30
0.0
 11
-501.160303
 21
442.95168899999999
 31
0.0
  0
LINE
  5
F5BE1
  8
OBJECT
 10
-501.160303
 20
442.95168899999999
 30
0.0
 11
-501.01668499999982
 21
442.91812899999979
 31
0.0
  0
LINE
  5
F5BE2
  8
OBJECT
 10
-501.01668499999982
 20
442.91812899999979
 30
0.0
 11
-500.87317499999989
 21
442.88437199999993
 31
0.0
  0
LINE
  5
F5BE3
  8
OBJECT
 10
-500.87317499999989
 20
442.88437199999993
 30
0.0
 11
-500.72973999999988
 21
442.85041100000001
 31
0.0
  0
LINE
  5
F5BE4
  8
OBJECT
 10
-500.72973999999988
 20
442.85041100000001
 30
0.0
 11
-500.58634599999988
 21
442.81623799999988
 31
0.0
  0
LINE
  5
F5BE5
  8
OBJECT
 10
-500.58634599999988
 20
442.81623799999988
 30
0.0
 11
-500.4429609999998
 21
442.78184499999998
 31
0.0
  0
LINE
  5
F5BE6
  8
OBJECT
 10
-500.4429609999998
 20
442.78184499999998
 30
0.0
 11
-500.29955200000001
 21
442.74722299999991
 31
0.0
  0
LINE
  5
F5BE7
  8
OBJECT
 10
-500.29955200000001
 20
442.74722299999991
 30
0.0
 11
-500.15608599999979
 21
442.71236399999992
 31
0.0
  0
LINE
  5
F5BE8
  8
OBJECT
 10
-500.15608599999979
 20
442.71236399999992
 30
0.0
 11
-500.01388599999979
 21
442.67759399999971
 31
0.0
  0
LINE
  5
F5BE9
  8
OBJECT
 10
-500.01388599999979
 20
442.67759399999971
 30
0.0
 11
-499.87160799999992
 21
442.642583
 31
0.0
  0
LINE
  5
F5BEA
  8
OBJECT
 10
-499.87160799999992
 20
442.642583
 30
0.0
 11
-499.72926099999989
 21
442.60733199999987
 31
0.0
  0
LINE
  5
F5BEB
  8
OBJECT
 10
-499.72926099999989
 20
442.60733199999987
 30
0.0
 11
-499.58685400000002
 21
442.57184299999989
 31
0.0
  0
LINE
  5
F5BEC
  8
OBJECT
 10
-499.58685400000002
 20
442.57184299999989
 30
0.0
 11
-499.44439699999981
 21
442.53611399999988
 31
0.0
  0
LINE
  5
F5BED
  8
OBJECT
 10
-499.44439699999981
 20
442.53611399999988
 30
0.0
 11
-499.30189999999988
 21
442.5001459999998
 31
0.0
  0
LINE
  5
F5BEE
  8
OBJECT
 10
-499.30189999999988
 20
442.5001459999998
 30
0.0
 11
-499.15937299999979
 21
442.46393999999998
 31
0.0
  0
LINE
  5
F5BEF
  8
OBJECT
 10
-499.15937299999979
 20
442.46393999999998
 30
0.0
 11
-499.01682399999999
 21
442.42749599999991
 31
0.0
  0
LINE
  5
F5BF0
  8
OBJECT
 10
-499.01682399999999
 20
442.42749599999991
 30
0.0
 11
-498.87426499999981
 21
442.39081299999998
 31
0.0
  0
LINE
  5
F5BF1
  8
OBJECT
 10
-498.87426499999981
 20
442.39081299999998
 30
0.0
 11
-498.7317030000001
 21
442.35389399999991
 31
0.0
  0
LINE
  5
F5BF2
  8
OBJECT
 10
-498.7317030000001
 20
442.35389399999991
 30
0.0
 11
-498.58915000000002
 21
442.31673699999988
 31
0.0
  0
LINE
  5
F5BF3
  8
OBJECT
 10
-498.58915000000002
 20
442.31673699999988
 30
0.0
 11
-498.44661399999978
 21
442.27934199999987
 31
0.0
  0
LINE
  5
F5BF4
  8
OBJECT
 10
-498.44661399999978
 20
442.27934199999987
 30
0.0
 11
-498.30410599999988
 21
442.24171200000001
 31
0.0
  0
LINE
  5
F5BF5
  8
OBJECT
 10
-498.30410599999988
 20
442.24171200000001
 30
0.0
 11
-498.16163499999988
 21
442.20384399999989
 31
0.0
  0
LINE
  5
F5BF6
  8
OBJECT
 10
-498.16163499999988
 20
442.20384399999989
 30
0.0
 11
-498.01920999999987
 21
442.16574099999991
 31
0.0
  0
LINE
  5
F5BF7
  8
OBJECT
 10
-498.01920999999987
 20
442.16574099999991
 30
0.0
 11
-497.87684199999973
 21
442.12740199999979
 31
0.0
  0
LINE
  5
F5BF8
  8
OBJECT
 10
-497.87684199999973
 20
442.12740199999979
 30
0.0
 11
-497.73453999999992
 21
442.08882699999981
 31
0.0
  0
LINE
  5
F5BF9
  8
OBJECT
 10
-497.73453999999992
 20
442.08882699999981
 30
0.0
 11
-497.59231299999988
 21
442.05001699999991
 31
0.0
  0
LINE
  5
F5BFA
  8
OBJECT
 10
-497.59231299999988
 20
442.05001699999991
 30
0.0
 11
-497.45017200000012
 21
442.01097299999998
 31
0.0
  0
LINE
  5
F5BFB
  8
OBJECT
 10
-497.45017200000012
 20
442.01097299999998
 30
0.0
 11
-497.3081249999999
 21
441.97169299999979
 31
0.0
  0
LINE
  5
F5BFC
  8
OBJECT
 10
-497.3081249999999
 20
441.97169299999979
 30
0.0
 11
-497.15948499999979
 21
441.93030999999991
 31
0.0
  0
LINE
  5
F5BFD
  8
OBJECT
 10
-497.15948499999979
 20
441.93030999999991
 30
0.0
 11
-497.01095699999991
 21
441.88867199999987
 31
0.0
  0
LINE
  5
F5BFE
  8
OBJECT
 10
-497.01095699999991
 20
441.88867199999987
 30
0.0
 11
-496.86253599999992
 21
441.84678499999978
 31
0.0
  0
LINE
  5
F5BFF
  8
OBJECT
 10
-496.86253599999992
 20
441.84678499999978
 30
0.0
 11
-496.71422000000001
 21
441.80464999999992
 31
0.0
  0
LINE
  5
F5C00
  8
OBJECT
 10
-496.71422000000001
 20
441.80464999999992
 30
0.0
 11
-496.56600400000002
 21
441.76227199999988
 31
0.0
  0
LINE
  5
F5C01
  8
OBJECT
 10
-496.56600400000002
 20
441.76227199999988
 30
0.0
 11
-496.41788599999978
 21
441.71965299999999
 31
0.0
  0
LINE
  5
F5C02
  8
OBJECT
 10
-496.41788599999978
 20
441.71965299999999
 30
0.0
 11
-496.26986200000022
 21
441.67679700000008
 31
0.0
  0
LINE
  5
F5C03
  8
OBJECT
 10
-496.26986200000022
 20
441.67679700000008
 30
0.0
 11
-496.12192900000002
 21
441.63370699999979
 31
0.0
  0
LINE
  5
F5C04
  8
OBJECT
 10
-496.12192900000002
 20
441.63370699999979
 30
0.0
 11
-495.97408199999978
 21
441.59038700000002
 31
0.0
  0
LINE
  5
F5C05
  8
OBJECT
 10
-495.97408199999978
 20
441.59038700000002
 30
0.0
 11
-495.82632000000012
 21
441.54683999999992
 31
0.0
  0
LINE
  5
F5C06
  8
OBJECT
 10
-495.82632000000012
 20
441.54683999999992
 30
0.0
 11
-495.67863699999992
 21
441.50306899999998
 31
0.0
  0
LINE
  5
F5C07
  8
OBJECT
 10
-495.67863699999992
 20
441.50306899999998
 30
0.0
 11
-495.53103099999993
 21
441.45907799999998
 31
0.0
  0
LINE
  5
F5C08
  8
OBJECT
 10
-495.53103099999993
 20
441.45907799999998
 30
0.0
 11
-495.38349899999992
 21
441.41486899999973
 31
0.0
  0
LINE
  5
F5C09
  8
OBJECT
 10
-495.38349899999992
 20
441.41486899999973
 30
0.0
 11
-495.23603700000001
 21
441.37044599999979
 31
0.0
  0
LINE
  5
F5C0A
  8
OBJECT
 10
-495.23603700000001
 20
441.37044599999979
 30
0.0
 11
-495.08864099999988
 21
441.3258130000001
 31
0.0
  0
LINE
  5
F5C0B
  8
OBJECT
 10
-495.08864099999988
 20
441.3258130000001
 30
0.0
 11
-494.94130799999988
 21
441.28097299999979
 31
0.0
  0
LINE
  5
F5C0C
  8
OBJECT
 10
-494.94130799999988
 20
441.28097299999979
 30
0.0
 11
-494.79403400000001
 21
441.235929
 31
0.0
  0
LINE
  5
F5C0D
  8
OBJECT
 10
-494.79403400000001
 20
441.235929
 30
0.0
 11
-494.64681699999983
 21
441.19068399999992
 31
0.0
  0
LINE
  5
F5C0E
  8
OBJECT
 10
-494.64681699999983
 20
441.19068399999992
 30
0.0
 11
-494.49965200000003
 21
441.14524199999988
 31
0.0
  0
LINE
  5
F5C0F
  8
OBJECT
 10
-494.49965200000003
 20
441.14524199999988
 30
0.0
 11
-494.3525360000001
 21
441.09960599999999
 31
0.0
  0
LINE
  5
F5C10
  8
OBJECT
 10
-494.3525360000001
 20
441.09960599999999
 30
0.0
 11
-494.21006199999999
 21
441.05521399999998
 31
0.0
  0
LINE
  5
F5C11
  8
OBJECT
 10
-494.21006199999999
 20
441.05521399999998
 30
0.0
 11
-494.067632
 21
441.01064599999989
 31
0.0
  0
LINE
  5
F5C12
  8
OBJECT
 10
-494.067632
 20
441.01064599999989
 30
0.0
 11
-493.92524500000002
 21
440.96590500000002
 31
0.0
  0
LINE
  5
F5C13
  8
OBJECT
 10
-493.92524500000002
 20
440.96590500000002
 30
0.0
 11
-493.78290399999992
 21
440.92099300000001
 31
0.0
  0
LINE
  5
F5C14
  8
OBJECT
 10
-493.78290399999992
 20
440.92099300000001
 30
0.0
 11
-493.64060699999999
 21
440.87591300000003
 31
0.0
  0
LINE
  5
F5C15
  8
OBJECT
 10
-493.64060699999999
 20
440.87591300000003
 30
0.0
 11
-493.49835599999989
 21
440.83066799999989
 31
0.0
  0
LINE
  5
F5C16
  8
OBJECT
 10
-493.49835599999989
 20
440.83066799999989
 30
0.0
 11
-493.35615200000001
 21
440.78526099999988
 31
0.0
  0
LINE
  5
F5C17
  8
OBJECT
 10
-493.35615200000001
 20
440.78526099999988
 30
0.0
 11
-493.21399399999979
 21
440.73969399999987
 31
0.0
  0
LINE
  5
F5C18
  8
OBJECT
 10
-493.21399399999979
 20
440.73969399999987
 30
0.0
 11
-493.07188399999978
 21
440.69397099999992
 31
0.0
  0
LINE
  5
F5C19
  8
OBJECT
 10
-493.07188399999978
 20
440.69397099999992
 30
0.0
 11
-492.92982199999989
 21
440.64809399999979
 31
0.0
  0
LINE
  5
F5C1A
  8
OBJECT
 10
-492.92982199999989
 20
440.64809399999979
 30
0.0
 11
-492.78780799999998
 21
440.60206499999998
 31
0.0
  0
LINE
  5
F5C1B
  8
OBJECT
 10
-492.78780799999998
 20
440.60206499999998
 30
0.0
 11
-492.64584400000012
 21
440.5558880000001
 31
0.0
  0
LINE
  5
F5C1C
  8
OBJECT
 10
-492.64584400000012
 20
440.5558880000001
 30
0.0
 11
-492.50392899999991
 21
440.50956599999989
 31
0.0
  0
LINE
  5
F5C1D
  8
OBJECT
 10
-492.50392899999991
 20
440.50956599999989
 30
0.0
 11
-492.36206399999992
 21
440.4631
 31
0.0
  0
LINE
  5
F5C1E
  8
OBJECT
 10
-492.36206399999992
 20
440.4631
 30
0.0
 11
-492.22025099999991
 21
440.416495
 31
0.0
  0
LINE
  5
F5C1F
  8
OBJECT
 10
-492.22025099999991
 20
440.416495
 30
0.0
 11
-492.07848899999999
 21
440.36975200000001
 31
0.0
  0
LINE
  5
F5C20
  8
OBJECT
 10
-492.07848899999999
 20
440.36975200000001
 30
0.0
 11
-491.93677799999989
 21
440.32287499999973
 31
0.0
  0
LINE
  5
F5C21
  8
OBJECT
 10
-491.93677799999989
 20
440.32287499999973
 30
0.0
 11
-491.79512099999999
 21
440.27586599999989
 31
0.0
  0
LINE
  5
F5C22
  8
OBJECT
 10
-491.79512099999999
 20
440.27586599999989
 30
0.0
 11
-491.6535159999998
 21
440.22872799999999
 31
0.0
  0
LINE
  5
F5C23
  8
OBJECT
 10
-491.6535159999998
 20
440.22872799999999
 30
0.0
 11
-491.51196499999992
 21
440.18146400000001
 31
0.0
  0
LINE
  5
F5C24
  8
OBJECT
 10
-491.51196499999992
 20
440.18146400000001
 30
0.0
 11
-491.37815699999982
 21
440.13665399999979
 31
0.0
  0
LINE
  5
F5C25
  8
OBJECT
 10
-491.37815699999982
 20
440.13665399999979
 30
0.0
 11
-491.24439599999999
 21
440.09173600000003
 31
0.0
  0
LINE
  5
F5C26
  8
OBJECT
 10
-491.24439599999999
 20
440.09173600000003
 30
0.0
 11
-491.11067700000001
 21
440.04670900000002
 31
0.0
  0
LINE
  5
F5C27
  8
OBJECT
 10
-491.11067700000001
 20
440.04670900000002
 30
0.0
 11
-490.97699999999992
 21
440.00157399999989
 31
0.0
  0
LINE
  5
F5C28
  8
OBJECT
 10
-490.97699999999992
 20
440.00157399999989
 30
0.0
 11
-490.84336099999979
 21
439.95633299999992
 31
0.0
  0
LINE
  5
F5C29
  8
OBJECT
 10
-490.84336099999979
 20
439.95633299999992
 30
0.0
 11
-490.70975799999991
 21
439.91098599999998
 31
0.0
  0
LINE
  5
F5C2A
  8
OBJECT
 10
-490.70975799999991
 20
439.91098599999998
 30
0.0
 11
-490.576188
 21
439.86553499999991
 31
0.0
  0
LINE
  5
F5C2B
  8
OBJECT
 10
-490.576188
 20
439.86553499999991
 30
0.0
 11
-490.44264899999968
 21
439.81997899999988
 31
0.0
  0
LINE
  5
F5C2C
  8
OBJECT
 10
-490.44264899999968
 20
439.81997899999988
 30
0.0
 11
-490.30913800000008
 21
439.77432099999987
 31
0.0
  0
LINE
  5
F5C2D
  8
OBJECT
 10
-490.30913800000008
 20
439.77432099999987
 30
0.0
 11
-490.17565300000001
 21
439.72856099999979
 31
0.0
  0
LINE
  5
F5C2E
  8
OBJECT
 10
-490.17565300000001
 20
439.72856099999979
 30
0.0
 11
-490.042191
 21
439.68270000000001
 31
0.0
  0
LINE
  5
F5C2F
  8
OBJECT
 10
-490.042191
 20
439.68270000000001
 30
0.0
 11
-489.90874999999983
 21
439.63673899999992
 31
0.0
  0
LINE
  5
F5C30
  8
OBJECT
 10
-489.90874999999983
 20
439.63673899999992
 30
0.0
 11
-489.77532699999989
 21
439.59067800000003
 31
0.0
  0
LINE
  5
F5C31
  8
OBJECT
 10
-489.77532699999989
 20
439.59067800000003
 30
0.0
 11
-489.64192000000003
 21
439.54451999999998
 31
0.0
  0
LINE
  5
F5C32
  8
OBJECT
 10
-489.64192000000003
 20
439.54451999999998
 30
0.0
 11
-489.50852599999979
 21
439.49826499999972
 31
0.0
  0
LINE
  5
F5C33
  8
OBJECT
 10
-489.50852599999979
 20
439.49826499999972
 30
0.0
 11
-489.37514299999998
 21
439.45191299999988
 31
0.0
  0
LINE
  5
F5C34
  8
OBJECT
 10
-489.37514299999998
 20
439.45191299999988
 30
0.0
 11
-489.24176699999992
 21
439.40546599999999
 31
0.0
  0
LINE
  5
F5C35
  8
OBJECT
 10
-489.24176699999992
 20
439.40546599999999
 30
0.0
 11
-489.10839800000008
 21
439.35892499999989
 31
0.0
  0
LINE
  5
F5C36
  8
OBJECT
 10
-489.10839800000008
 20
439.35892499999989
 30
0.0
 11
-488.97503099999989
 21
439.31228999999979
 31
0.0
  0
LINE
  5
F5C37
  8
OBJECT
 10
-488.97503099999989
 20
439.31228999999979
 30
0.0
 11
-488.84166399999992
 21
439.26556299999999
 31
0.0
  0
LINE
  5
F5C38
  8
OBJECT
 10
-488.84166399999992
 20
439.26556299999999
 30
0.0
 11
-488.68629700000002
 21
439.21100999999999
 31
0.0
  0
LINE
  5
F5C39
  8
OBJECT
 10
-488.68629700000002
 20
439.21100999999999
 30
0.0
 11
-488.53094199999981
 21
439.15632199999999
 31
0.0
  0
LINE
  5
F5C3A
  8
OBJECT
 10
-488.53094199999981
 20
439.15632199999999
 30
0.0
 11
-488.37561199999999
 21
439.10149000000001
 31
0.0
  0
LINE
  5
F5C3B
  8
OBJECT
 10
-488.37561199999999
 20
439.10149000000001
 30
0.0
 11
-488.22032100000001
 21
439.04650399999991
 31
0.0
  0
LINE
  5
F5C3C
  8
OBJECT
 10
-488.22032100000001
 20
439.04650399999991
 30
0.0
 11
-488.06508399999967
 21
438.99135199999989
 31
0.0
  0
LINE
  5
F5C3D
  8
OBJECT
 10
-488.06508399999967
 20
438.99135199999989
 30
0.0
 11
-487.90991400000007
 21
438.93602499999997
 31
0.0
  0
LINE
  5
F5C3E
  8
OBJECT
 10
-487.90991400000007
 20
438.93602499999997
 30
0.0
 11
-487.75482599999981
 21
438.88051300000001
 31
0.0
  0
LINE
  5
F5C3F
  8
OBJECT
 10
-487.75482599999981
 20
438.88051300000001
 30
0.0
 11
-487.59983399999982
 21
438.82480599999991
 31
0.0
  0
LINE
  5
F5C40
  8
OBJECT
 10
-487.59983399999982
 20
438.82480599999991
 30
0.0
 11
-487.44495199999989
 21
438.76889199999999
 31
0.0
  0
LINE
  5
F5C41
  8
OBJECT
 10
-487.44495199999989
 20
438.76889199999999
 30
0.0
 11
-487.2901940000001
 21
438.712763
 31
0.0
  0
LINE
  5
F5C42
  8
OBJECT
 10
-487.2901940000001
 20
438.712763
 30
0.0
 11
-487.13557399999991
 21
438.656408
 31
0.0
  0
LINE
  5
F5C43
  8
OBJECT
 10
-487.13557399999991
 20
438.656408
 30
0.0
 11
-486.98110599999978
 21
438.59981699999992
 31
0.0
  0
LINE
  5
F5C44
  8
OBJECT
 10
-486.98110599999978
 20
438.59981699999992
 30
0.0
 11
-486.82680399999998
 21
438.54297999999989
 31
0.0
  0
LINE
  5
F5C45
  8
OBJECT
 10
-486.82680399999998
 20
438.54297999999989
 30
0.0
 11
-486.67268199999978
 21
438.48588499999988
 31
0.0
  0
LINE
  5
F5C46
  8
OBJECT
 10
-486.67268199999978
 20
438.48588499999988
 30
0.0
 11
-486.51875499999989
 21
438.42852399999992
 31
0.0
  0
LINE
  5
F5C47
  8
OBJECT
 10
-486.51875499999989
 20
438.42852399999992
 30
0.0
 11
-486.36503600000009
 21
438.37088599999993
 31
0.0
  0
LINE
  5
F5C48
  8
OBJECT
 10
-486.36503600000009
 20
438.37088599999993
 30
0.0
 11
-486.21153899999968
 21
438.31296200000003
 31
0.0
  0
LINE
  5
F5C49
  8
OBJECT
 10
-486.21153899999968
 20
438.31296200000003
 30
0.0
 11
-486.05827900000008
 21
438.25473899999997
 31
0.0
  0
LINE
  5
F5C4A
  8
OBJECT
 10
-486.05827900000008
 20
438.25473899999997
 30
0.0
 11
-485.90526999999992
 21
438.19620999999989
 31
0.0
  0
LINE
  5
F5C4B
  8
OBJECT
 10
-485.90526999999992
 20
438.19620999999989
 30
0.0
 11
-485.75252499999988
 21
438.13736199999988
 31
0.0
  0
LINE
  5
F5C4C
  8
OBJECT
 10
-485.75252499999988
 20
438.13736199999988
 30
0.0
 11
-485.61977399999989
 21
438.08586499999979
 31
0.0
  0
LINE
  5
F5C4D
  8
OBJECT
 10
-485.61977399999989
 20
438.08586499999979
 30
0.0
 11
-485.48720999999989
 21
438.03410999999988
 31
0.0
  0
LINE
  5
F5C4E
  8
OBJECT
 10
-485.48720999999989
 20
438.03410999999988
 30
0.0
 11
-485.35480799999999
 21
437.98208699999992
 31
0.0
  0
LINE
  5
F5C4F
  8
OBJECT
 10
-485.35480799999999
 20
437.98208699999992
 30
0.0
 11
-485.2225439999998
 21
437.92978599999998
 31
0.0
  0
LINE
  5
F5C50
  8
OBJECT
 10
-485.2225439999998
 20
437.92978599999998
 30
0.0
 11
-485.09039400000012
 21
437.87719799999979
 31
0.0
  0
LINE
  5
F5C51
  8
OBJECT
 10
-485.09039400000012
 20
437.87719799999979
 30
0.0
 11
-484.95833299999993
 21
437.82431199999991
 31
0.0
  0
LINE
  5
F5C52
  8
OBJECT
 10
-484.95833299999993
 20
437.82431199999991
 30
0.0
 11
-484.8263369999998
 21
437.77111899999989
 31
0.0
  0
LINE
  5
F5C53
  8
OBJECT
 10
-484.8263369999998
 20
437.77111899999989
 30
0.0
 11
-484.69438199999991
 21
437.71760899999981
 31
0.0
  0
LINE
  5
F5C54
  8
OBJECT
 10
-484.69438199999991
 20
437.71760899999981
 30
0.0
 11
-484.56244299999992
 21
437.66377299999988
 31
0.0
  0
LINE
  5
F5C55
  8
OBJECT
 10
-484.56244299999992
 20
437.66377299999988
 30
0.0
 11
-484.43049599999989
 21
437.6096
 31
0.0
  0
LINE
  5
F5C56
  8
OBJECT
 10
-484.43049599999989
 20
437.6096
 30
0.0
 11
-484.29851599999972
 21
437.55507999999998
 31
0.0
  0
LINE
  5
F5C57
  8
OBJECT
 10
-484.29851599999972
 20
437.55507999999998
 30
0.0
 11
-484.16647899999998
 21
437.50020499999988
 31
0.0
  0
LINE
  5
F5C58
  8
OBJECT
 10
-484.16647899999998
 20
437.50020499999988
 30
0.0
 11
-484.03436099999988
 21
437.44496299999997
 31
0.0
  0
LINE
  5
F5C59
  8
OBJECT
 10
-484.03436099999988
 20
437.44496299999997
 30
0.0
 11
-483.90213600000021
 21
437.38934699999987
 31
0.0
  0
LINE
  5
F5C5A
  8
OBJECT
 10
-483.90213600000021
 20
437.38934699999987
 30
0.0
 11
-483.76978199999979
 21
437.33334399999978
 31
0.0
  0
LINE
  5
F5C5B
  8
OBJECT
 10
-483.76978199999979
 20
437.33334399999978
 30
0.0
 11
-483.63727299999988
 21
437.27694700000001
 31
0.0
  0
LINE
  5
F5C5C
  8
OBJECT
 10
-483.63727299999988
 20
437.27694700000001
 30
0.0
 11
-483.50458499999991
 21
437.22014399999989
 31
0.0
  0
LINE
  5
F5C5D
  8
OBJECT
 10
-483.50458499999991
 20
437.22014399999989
 30
0.0
 11
-483.37169400000113
 21
437.1629269999998
 31
0.0
  0
LINE
  5
F5C5E
  8
OBJECT
 10
-483.37169400000113
 20
437.1629269999998
 30
0.0
 11
-483.2385749999998
 21
437.10528499999981
 31
0.0
  0
LINE
  5
F5C5F
  8
OBJECT
 10
-483.2385749999998
 20
437.10528499999981
 30
0.0
 11
-483.10520399999979
 21
437.04720899999978
 31
0.0
  0
LINE
  5
F5C60
  8
OBJECT
 10
-483.10520399999979
 20
437.04720899999978
 30
0.0
 11
-482.96937299999979
 21
436.98773199999988
 31
0.0
  0
LINE
  5
F5C61
  8
OBJECT
 10
-482.96937299999979
 20
436.98773199999988
 30
0.0
 11
-482.83334799999972
 21
436.92784999999998
 31
0.0
  0
LINE
  5
F5C62
  8
OBJECT
 10
-482.83334799999972
 20
436.92784999999998
 30
0.0
 11
-482.69722200000001
 21
436.86761699999988
 31
0.0
  0
LINE
  5
F5C63
  8
OBJECT
 10
-482.69722200000001
 20
436.86761699999988
 30
0.0
 11
-482.56108399999988
 21
436.80708699999991
 31
0.0
  0
LINE
  5
F5C64
  8
OBJECT
 10
-482.56108399999988
 20
436.80708699999991
 30
0.0
 11
-482.425028
 21
436.74631299999987
 31
0.0
  0
LINE
  5
F5C65
  8
OBJECT
 10
-482.425028
 20
436.74631299999987
 30
0.0
 11
-482.28914499999991
 21
436.68534899999992
 31
0.0
  0
LINE
  5
F5C66
  8
OBJECT
 10
-482.28914499999991
 20
436.68534899999992
 30
0.0
 11
-482.153527
 21
436.62424900000002
 31
0.0
  0
LINE
  5
F5C67
  8
OBJECT
 10
-482.153527
 20
436.62424900000002
 30
0.0
 11
-482.01826599999993
 21
436.56306699999988
 31
0.0
  0
LINE
  5
F5C68
  8
OBJECT
 10
-482.01826599999993
 20
436.56306699999988
 30
0.0
 11
-481.88345300000009
 21
436.50185699999997
 31
0.0
  0
LINE
  5
F5C69
  8
OBJECT
 10
-481.88345300000009
 20
436.50185699999997
 30
0.0
 11
-481.74917999999991
 21
436.44067199999989
 31
0.0
  0
LINE
  5
F5C6A
  8
OBJECT
 10
-481.74917999999991
 20
436.44067199999989
 30
0.0
 11
-481.61553899999973
 21
436.37956600000001
 31
0.0
  0
LINE
  5
F5C6B
  8
OBJECT
 10
-481.61553899999973
 20
436.37956600000001
 30
0.0
 11
-481.48262199999988
 21
436.31859299999991
 31
0.0
  0
LINE
  5
F5C6C
  8
OBJECT
 10
-481.48262199999988
 20
436.31859299999991
 30
0.0
 11
-481.35051999999979
 21
436.25780700000001
 31
0.0
  0
LINE
  5
F5C6D
  8
OBJECT
 10
-481.35051999999979
 20
436.25780700000001
 30
0.0
 11
-481.21932499999991
 21
436.19726199999991
 31
0.0
  0
LINE
  5
F5C6E
  8
OBJECT
 10
-481.21932499999991
 20
436.19726199999991
 30
0.0
 11
-481.08912899999979
 21
436.13701099999997
 31
0.0
  0
LINE
  5
F5C6F
  8
OBJECT
 10
-481.08912899999979
 20
436.13701099999997
 30
0.0
 11
-480.96002399999992
 21
436.07710900000001
 31
0.0
  0
LINE
  5
F5C70
  8
OBJECT
 10
-480.96002399999992
 20
436.07710900000001
 30
0.0
 11
-480.83210099999991
 21
436.01760899999999
 31
0.0
  0
LINE
  5
F5C71
  8
OBJECT
 10
-480.83210099999991
 20
436.01760899999999
 30
0.0
 11
-480.70545299999998
 21
435.9585639999998
 31
0.0
  0
LINE
  5
F5C72
  8
OBJECT
 10
-480.70545299999998
 20
435.9585639999998
 30
0.0
 11
-480.58016999999978
 21
435.90002899999979
 31
0.0
  0
LINE
  5
F5C73
  8
OBJECT
 10
-480.58016999999978
 20
435.90002899999979
 30
0.0
 11
-480.45634599999988
 21
435.84205799999989
 31
0.0
  0
LINE
  5
F5C74
  8
OBJECT
 10
-480.45634599999988
 20
435.84205799999989
 30
0.0
 11
-480.32950999999969
 21
435.78255999999988
 31
0.0
  0
LINE
  5
F5C75
  8
OBJECT
 10
-480.32950999999969
 20
435.78255999999988
 30
0.0
 11
-480.20396599999998
 21
435.72354199999978
 31
0.0
  0
LINE
  5
F5C76
  8
OBJECT
 10
-480.20396599999998
 20
435.72354199999978
 30
0.0
 11
-480.07933799999989
 21
435.66482000000008
 31
0.0
  0
LINE
  5
F5C77
  8
OBJECT
 10
-480.07933799999989
 20
435.66482000000008
 30
0.0
 11
-479.95524999999992
 21
435.60620899999998
 31
0.0
  0
LINE
  5
F5C78
  8
OBJECT
 10
-479.95524999999992
 20
435.60620899999998
 30
0.0
 11
-479.8313270000001
 21
435.547528
 31
0.0
  0
LINE
  5
F5C79
  8
OBJECT
 10
-479.8313270000001
 20
435.547528
 30
0.0
 11
-479.70719499999979
 21
435.48858999999999
 31
0.0
  0
LINE
  5
F5C7A
  8
OBJECT
 10
-479.70719499999979
 20
435.48858999999999
 30
0.0
 11
-479.58247799999998
 21
435.429213
 31
0.0
  0
LINE
  5
F5C7B
  8
OBJECT
 10
-479.58247799999998
 20
435.429213
 30
0.0
 11
-479.4568020000001
 21
435.36921299999989
 31
0.0
  0
LINE
  5
F5C7C
  8
OBJECT
 10
-479.4568020000001
 20
435.36921299999989
 30
0.0
 11
-479.32978999999989
 21
435.30840499999988
 31
0.0
  0
LINE
  5
F5C7D
  8
OBJECT
 10
-479.32978999999989
 20
435.30840499999988
 30
0.0
 11
-479.20106799999968
 21
435.24660699999998
 31
0.0
  0
LINE
  5
F5C7E
  8
OBJECT
 10
-479.20106799999968
 20
435.24660699999998
 30
0.0
 11
-479.07026199999979
 21
435.18363299999999
 31
0.0
  0
LINE
  5
F5C7F
  8
OBJECT
 10
-479.07026199999979
 20
435.18363299999999
 30
0.0
 11
-478.93699500000002
 21
435.11929999999978
 31
0.0
  0
LINE
  5
F5C80
  8
OBJECT
 10
-478.93699500000002
 20
435.11929999999978
 30
0.0
 11
-478.80089199999998
 21
435.05342499999989
 31
0.0
  0
LINE
  5
F5C81
  8
OBJECT
 10
-478.80089199999998
 20
435.05342499999989
 30
0.0
 11
-478.6615789999999
 21
434.98582399999992
 31
0.0
  0
LINE
  5
F5C82
  8
OBJECT
 10
-478.6615789999999
 20
434.98582399999992
 30
0.0
 11
-478.51868099999979
 21
434.91631100000001
 31
0.0
  0
LINE
  5
F5C83
  8
OBJECT
 10
-478.51868099999979
 20
434.91631100000001
 30
0.0
 11
-478.3718219999999
 21
434.84470499999981
 31
0.0
  0
LINE
  5
F5C84
  8
OBJECT
 10
-478.3718219999999
 20
434.84470499999981
 30
0.0
 11
-478.22062700000009
 21
434.77082000000001
 31
0.0
  0
LINE
  5
F5C85
  8
OBJECT
 10
-478.22062700000009
 20
434.77082000000001
 30
0.0
 11
-478.06472099999979
 21
434.69447299999979
 31
0.0
  0
LINE
  5
F5C86
  8
OBJECT
 10
-478.06472099999979
 20
434.69447299999979
 30
0.0
 11
-477.903729
 21
434.61548099999987
 31
0.0
  0
LINE
  5
F5C87
  8
OBJECT
 10
-477.903729
 20
434.61548099999987
 30
0.0
 11
-477.73727599999972
 21
434.533658
 31
0.0
  0
LINE
  5
F5C88
  8
OBJECT
 10
-477.73727599999972
 20
434.533658
 30
0.0
 11
-477.53975699999978
 21
434.43638999999979
 31
0.0
  0
LINE
  5
F5C89
  8
OBJECT
 10
-477.53975699999978
 20
434.43638999999979
 30
0.0
 11
-477.3363129999999
 21
434.33603899999991
 31
0.0
  0
LINE
  5
F5C8A
  8
OBJECT
 10
-477.3363129999999
 20
434.33603899999991
 30
0.0
 11
-477.12867999999992
 21
434.23347799999988
 31
0.0
  0
LINE
  5
F5C8B
  8
OBJECT
 10
-477.12867999999992
 20
434.23347799999988
 30
0.0
 11
-476.91859499999993
 21
434.12957899999998
 31
0.0
  0
LINE
  5
F5C8C
  8
OBJECT
 10
-476.91859499999993
 20
434.12957899999998
 30
0.0
 11
-476.70779199999993
 21
434.02521499999989
 31
0.0
  0
LINE
  5
F5C8D
  8
OBJECT
 10
-476.70779199999993
 20
434.02521499999989
 30
0.0
 11
-476.49800799999991
 21
433.92125900000002
 31
0.0
  0
LINE
  5
F5C8E
  8
OBJECT
 10
-476.49800799999991
 20
433.92125900000002
 30
0.0
 11
-476.29097900000011
 21
433.81858399999999
 31
0.0
  0
LINE
  5
F5C8F
  8
OBJECT
 10
-476.29097900000011
 20
433.81858399999999
 30
0.0
 11
-476.08844199999999
 21
433.7180619999998
 31
0.0
  0
LINE
  5
F5C90
  8
OBJECT
 10
-476.08844199999999
 20
433.7180619999998
 30
0.0
 11
-475.89213099999989
 21
433.62056699999999
 31
0.0
  0
LINE
  5
F5C91
  8
OBJECT
 10
-475.89213099999989
 20
433.62056699999999
 30
0.0
 11
-475.70378299999987
 21
433.52697000000001
 31
0.0
  0
LINE
  5
F5C92
  8
OBJECT
 10
-475.70378299999987
 20
433.52697000000001
 30
0.0
 11
-475.52513399999998
 21
433.43814599999979
 31
0.0
  0
LINE
  5
F5C93
  8
OBJECT
 10
-475.52513399999998
 20
433.43814599999979
 30
0.0
 11
-475.35791999999998
 21
433.35496599999999
 31
0.0
  0
LINE
  5
F5C94
  8
OBJECT
 10
-475.35791999999998
 20
433.35496599999999
 30
0.0
 11
-475.20387599999958
 21
433.27830299999988
 31
0.0
  0
LINE
  5
F5C95
  8
OBJECT
 10
-475.20387599999958
 20
433.27830299999988
 30
0.0
 11
-475.06473999999997
 21
433.20902999999993
 31
0.0
  0
LINE
  5
F5C96
  8
OBJECT
 10
-475.06473999999997
 20
433.20902999999993
 30
0.0
 11
-474.9422459999999
 21
433.14801999999992
 31
0.0
  0
LINE
  5
F5C97
  8
OBJECT
 10
-474.9422459999999
 20
433.14801999999992
 30
0.0
 11
-474.83813099999998
 21
433.09614599999998
 31
0.0
  0
LINE
  5
F5C98
  8
OBJECT
 10
-474.83813099999998
 20
433.09614599999998
 30
0.0
 11
-474.75413099999992
 21
433.05427999999989
 31
0.0
  0
LINE
  5
F5C99
  8
OBJECT
 10
-474.75413099999992
 20
433.05427999999989
 30
0.0
 11
-474.691982
 21
433.02329600000002
 31
0.0
  0
LINE
  5
F5C9A
  8
OBJECT
 10
-474.691982
 20
433.02329600000002
 30
0.0
 11
-474.65341899999999
 21
433.00406499999991
 31
0.0
  0
LINE
  5
F5C9B
  8
OBJECT
 10
-474.65341899999999
 20
433.00406499999991
 30
0.0
 11
-474.64017899999999
 21
432.99745999999988
 31
0.0
  0
LINE
  5
F5C9C
  8
OBJECT
 10
-559.49299299999984
 20
432.99745999999988
 30
0.0
 11
-559.48334199999977
 21
433.00287199999991
 31
0.0
  0
LINE
  5
F5C9D
  8
OBJECT
 10
-559.48334199999977
 20
433.00287199999991
 30
0.0
 11
-559.45520999999985
 21
433.01864399999999
 31
0.0
  0
LINE
  5
F5C9E
  8
OBJECT
 10
-559.45520999999985
 20
433.01864399999999
 30
0.0
 11
-559.40983100000005
 21
433.04408099999989
 31
0.0
  0
LINE
  5
F5C9F
  8
OBJECT
 10
-559.40983100000005
 20
433.04408099999989
 30
0.0
 11
-559.3484370000001
 21
433.07848799999999
 31
0.0
  0
LINE
  5
F5CA0
  8
OBJECT
 10
-559.3484370000001
 20
433.07848799999999
 30
0.0
 11
-559.27226099999996
 21
433.12116999999989
 31
0.0
  0
LINE
  5
F5CA1
  8
OBJECT
 10
-559.27226099999996
 20
433.12116999999989
 30
0.0
 11
-559.18253600000003
 21
433.17143199999992
 31
0.0
  0
LINE
  5
F5CA2
  8
OBJECT
 10
-559.18253600000003
 20
433.17143199999992
 30
0.0
 11
-559.08049500000095
 21
433.22857899999991
 31
0.0
  0
LINE
  5
F5CA3
  8
OBJECT
 10
-559.08049500000095
 20
433.22857899999991
 30
0.0
 11
-558.96736999999985
 21
433.29191699999978
 31
0.0
  0
LINE
  5
F5CA4
  8
OBJECT
 10
-558.96736999999985
 20
433.29191699999978
 30
0.0
 11
-558.84439500000008
 21
433.360749
 31
0.0
  0
LINE
  5
F5CA5
  8
OBJECT
 10
-558.84439500000008
 20
433.360749
 30
0.0
 11
-558.71280200000001
 21
433.43438200000003
 31
0.0
  0
LINE
  5
F5CA6
  8
OBJECT
 10
-558.71280200000001
 20
433.43438200000003
 30
0.0
 11
-558.57382399999995
 21
433.51211999999992
 31
0.0
  0
LINE
  5
F5CA7
  8
OBJECT
 10
-558.57382399999995
 20
433.51211999999992
 30
0.0
 11
-558.42869400000006
 21
433.59326799999991
 31
0.0
  0
LINE
  5
F5CA8
  8
OBJECT
 10
-558.42869400000006
 20
433.59326799999991
 30
0.0
 11
-558.27864399999976
 21
433.67713200000009
 31
0.0
  0
LINE
  5
F5CA9
  8
OBJECT
 10
-558.27864399999976
 20
433.67713200000009
 30
0.0
 11
-558.124908
 21
433.76301599999988
 31
0.0
  0
LINE
  5
F5CAA
  8
OBJECT
 10
-558.124908
 20
433.76301599999988
 30
0.0
 11
-557.96871899999985
 21
433.85022400000008
 31
0.0
  0
LINE
  5
F5CAB
  8
OBJECT
 10
-557.96871899999985
 20
433.85022400000008
 30
0.0
 11
-557.81130799999983
 21
433.93806399999988
 31
0.0
  0
LINE
  5
F5CAC
  8
OBJECT
 10
-557.81130799999983
 20
433.93806399999988
 30
0.0
 11
-557.65390999999977
 21
434.02583800000002
 31
0.0
  0
LINE
  5
F5CAD
  8
OBJECT
 10
-557.65390999999977
 20
434.02583800000002
 30
0.0
 11
-557.49775599999975
 21
434.11285299999992
 31
0.0
  0
LINE
  5
F5CAE
  8
OBJECT
 10
-557.49775599999975
 20
434.11285299999992
 30
0.0
 11
-557.34408000000008
 21
434.19841199999991
 31
0.0
  0
LINE
  5
F5CAF
  8
OBJECT
 10
-557.34408000000008
 20
434.19841199999991
 30
0.0
 11
-557.19411499999978
 21
434.2818229999998
 31
0.0
  0
LINE
  5
F5CB0
  8
OBJECT
 10
-557.19411499999978
 20
434.2818229999998
 30
0.0
 11
-557.028955
 21
434.37356799999992
 31
0.0
  0
LINE
  5
F5CB1
  8
OBJECT
 10
-557.028955
 20
434.37356799999992
 30
0.0
 11
-556.86979699999995
 21
434.46184399999993
 31
0.0
  0
LINE
  5
F5CB2
  8
OBJECT
 10
-556.86979699999995
 20
434.46184399999993
 30
0.0
 11
-556.71622499999989
 21
434.546874
 31
0.0
  0
LINE
  5
F5CB3
  8
OBJECT
 10
-556.71622499999989
 20
434.546874
 30
0.0
 11
-556.56782199999986
 21
434.6288829999998
 31
0.0
  0
LINE
  5
F5CB4
  8
OBJECT
 10
-556.56782199999986
 20
434.6288829999998
 30
0.0
 11
-556.424172
 21
434.70809300000002
 31
0.0
  0
LINE
  5
F5CB5
  8
OBJECT
 10
-556.424172
 20
434.70809300000002
 30
0.0
 11
-556.28485899999976
 21
434.7847289999998
 31
0.0
  0
LINE
  5
F5CB6
  8
OBJECT
 10
-556.28485899999976
 20
434.7847289999998
 30
0.0
 11
-556.14946499999985
 21
434.85901399999989
 31
0.0
  0
LINE
  5
F5CB7
  8
OBJECT
 10
-556.14946499999985
 20
434.85901399999989
 30
0.0
 11
-556.01757599999985
 21
434.931174
 31
0.0
  0
LINE
  5
F5CB8
  8
OBJECT
 10
-556.01757599999985
 20
434.931174
 30
0.0
 11
-555.88877400000001
 21
435.00143000000003
 31
0.0
  0
LINE
  5
F5CB9
  8
OBJECT
 10
-555.88877400000001
 20
435.00143000000003
 30
0.0
 11
-555.7626429999998
 21
435.07000799999997
 31
0.0
  0
LINE
  5
F5CBA
  8
OBJECT
 10
-555.7626429999998
 20
435.07000799999997
 30
0.0
 11
-555.63876699999992
 21
435.13713099999973
 31
0.0
  0
LINE
  5
F5CBB
  8
OBJECT
 10
-555.63876699999992
 20
435.13713099999973
 30
0.0
 11
-555.51673000000005
 21
435.20302299999992
 31
0.0
  0
LINE
  5
F5CBC
  8
OBJECT
 10
-555.51673000000005
 20
435.20302299999992
 30
0.0
 11
-555.3961139999999
 21
435.26790799999992
 31
0.0
  0
LINE
  5
F5CBD
  8
OBJECT
 10
-555.3961139999999
 20
435.26790799999992
 30
0.0
 11
-555.27650399999993
 21
435.33200999999991
 31
0.0
  0
LINE
  5
F5CBE
  8
OBJECT
 10
-555.27650399999993
 20
435.33200999999991
 30
0.0
 11
-555.15748299999996
 21
435.39555300000001
 31
0.0
  0
LINE
  5
F5CBF
  8
OBJECT
 10
-555.15748299999996
 20
435.39555300000001
 30
0.0
 11
-555.03863499999989
 21
435.45875999999998
 31
0.0
  0
LINE
  5
F5CC0
  8
OBJECT
 10
-555.03863499999989
 20
435.45875999999998
 30
0.0
 11
-554.91954399999997
 21
435.52185500000002
 31
0.0
  0
LINE
  5
F5CC1
  8
OBJECT
 10
-554.91954399999997
 20
435.52185500000002
 30
0.0
 11
-554.79979299999991
 21
435.58506299999988
 31
0.0
  0
LINE
  5
F5CC2
  8
OBJECT
 10
-554.79979299999991
 20
435.58506299999988
 30
0.0
 11
-554.67896499999995
 21
435.64860700000003
 31
0.0
  0
LINE
  5
F5CC3
  8
OBJECT
 10
-554.67896499999995
 20
435.64860700000003
 30
0.0
 11
-554.55664599999977
 21
435.71271100000001
 31
0.0
  0
LINE
  5
F5CC4
  8
OBJECT
 10
-554.55664599999977
 20
435.71271100000001
 30
0.0
 11
-554.44285899999977
 21
435.77214999999973
 31
0.0
  0
LINE
  5
F5CC5
  8
OBJECT
 10
-554.44285899999977
 20
435.77214999999973
 30
0.0
 11
-554.32755999999995
 21
435.83219099999991
 31
0.0
  0
LINE
  5
F5CC6
  8
OBJECT
 10
-554.32755999999995
 20
435.83219099999991
 30
0.0
 11
-554.21084099999985
 21
435.89277900000002
 31
0.0
  0
LINE
  5
F5CC7
  8
OBJECT
 10
-554.21084099999985
 20
435.89277900000002
 30
0.0
 11
-554.09279299999957
 21
435.95385499999992
 31
0.0
  0
LINE
  5
F5CC8
  8
OBJECT
 10
-554.09279299999957
 20
435.95385499999992
 30
0.0
 11
-553.97350999999969
 21
436.01536399999998
 31
0.0
  0
LINE
  5
F5CC9
  8
OBJECT
 10
-553.97350999999969
 20
436.01536399999998
 30
0.0
 11
-553.85308499999985
 21
436.077248
 31
0.0
  0
LINE
  5
F5CCA
  8
OBJECT
 10
-553.85308499999985
 20
436.077248
 30
0.0
 11
-553.73160999999982
 21
436.13945100000001
 31
0.0
  0
LINE
  5
F5CCB
  8
OBJECT
 10
-553.73160999999982
 20
436.13945100000001
 30
0.0
 11
-553.60917800000016
 21
436.20191499999999
 31
0.0
  0
LINE
  5
F5CCC
  8
OBJECT
 10
-553.60917800000016
 20
436.20191499999999
 30
0.0
 11
-553.48588100000006
 21
436.26458499999978
 31
0.0
  0
LINE
  5
F5CCD
  8
OBJECT
 10
-553.48588100000006
 20
436.26458499999978
 30
0.0
 11
-553.36181199999987
 21
436.327403
 31
0.0
  0
LINE
  5
F5CCE
  8
OBJECT
 10
-553.36181199999987
 20
436.327403
 30
0.0
 11
-553.23706399999992
 21
436.39031199999988
 31
0.0
  0
LINE
  5
F5CCF
  8
OBJECT
 10
-553.23706399999992
 20
436.39031199999988
 30
0.0
 11
-553.11172899999997
 21
436.45325599999978
 31
0.0
  0
LINE
  5
F5CD0
  8
OBJECT
 10
-553.11172899999997
 20
436.45325599999978
 30
0.0
 11
-552.98590100000001
 21
436.51617800000002
 31
0.0
  0
LINE
  5
F5CD1
  8
OBJECT
 10
-552.98590100000001
 20
436.51617800000002
 30
0.0
 11
-552.85967099999993
 21
436.57902099999978
 31
0.0
  0
LINE
  5
F5CD2
  8
OBJECT
 10
-552.85967099999993
 20
436.57902099999978
 30
0.0
 11
-552.73313199999996
 21
436.641728
 31
0.0
  0
LINE
  5
F5CD3
  8
OBJECT
 10
-552.73313199999996
 20
436.641728
 30
0.0
 11
-552.60637699999995
 21
436.70424300000002
 31
0.0
  0
LINE
  5
F5CD4
  8
OBJECT
 10
-552.60637699999995
 20
436.70424300000002
 30
0.0
 11
-552.47949900000003
 21
436.76650799999999
 31
0.0
  0
LINE
  5
F5CD5
  8
OBJECT
 10
-552.47949900000003
 20
436.76650799999999
 30
0.0
 11
-552.35258999999996
 21
436.82846699999999
 31
0.0
  0
LINE
  5
F5CD6
  8
OBJECT
 10
-552.35258999999996
 20
436.82846699999999
 30
0.0
 11
-552.22574199999985
 21
436.89006299999988
 31
0.0
  0
LINE
  5
F5CD7
  8
OBJECT
 10
-552.22574199999985
 20
436.89006299999988
 30
0.0
 11
-552.09905000000003
 21
436.95123999999993
 31
0.0
  0
LINE
  5
F5CD8
  8
OBJECT
 10
-552.09905000000003
 20
436.95123999999993
 30
0.0
 11
-551.94730699999991
 21
437.02404599999988
 31
0.0
  0
LINE
  5
F5CD9
  8
OBJECT
 10
-551.94730699999991
 20
437.02404599999988
 30
0.0
 11
-551.79589199999975
 21
437.09619999999978
 31
0.0
  0
LINE
  5
F5CDA
  8
OBJECT
 10
-551.79589199999975
 20
437.09619999999978
 30
0.0
 11
-551.64477599999975
 21
437.16773299999988
 31
0.0
  0
LINE
  5
F5CDB
  8
OBJECT
 10
-551.64477599999975
 20
437.16773299999988
 30
0.0
 11
-551.49392899999998
 21
437.23867799999999
 31
0.0
  0
LINE
  5
F5CDC
  8
OBJECT
 10
-551.49392899999998
 20
437.23867799999999
 30
0.0
 11
-551.34332400000005
 21
437.30907000000002
 31
0.0
  0
LINE
  5
F5CDD
  8
OBJECT
 10
-551.34332400000005
 20
437.30907000000002
 30
0.0
 11
-551.19293100000004
 21
437.37893999999972
 31
0.0
  0
LINE
  5
F5CDE
  8
OBJECT
 10
-551.19293100000004
 20
437.37893999999972
 30
0.0
 11
-551.04272199999991
 21
437.44832200000002
 31
0.0
  0
LINE
  5
F5CDF
  8
OBJECT
 10
-551.04272199999991
 20
437.44832200000002
 30
0.0
 11
-550.89266799999996
 21
437.51724899999988
 31
0.0
  0
LINE
  5
F5CE0
  8
OBJECT
 10
-550.89266799999996
 20
437.51724899999988
 30
0.0
 11
-550.74274100000002
 21
437.58575399999989
 31
0.0
  0
LINE
  5
F5CE1
  8
OBJECT
 10
-550.74274100000002
 20
437.58575399999989
 30
0.0
 11
-550.59291099999984
 21
437.65386999999998
 31
0.0
  0
LINE
  5
F5CE2
  8
OBJECT
 10
-550.59291099999984
 20
437.65386999999998
 30
0.0
 11
-550.44315099999994
 21
437.72162899999989
 31
0.0
  0
LINE
  5
F5CE3
  8
OBJECT
 10
-550.44315099999994
 20
437.72162899999989
 30
0.0
 11
-550.29342999999994
 21
437.78906599999999
 31
0.0
  0
LINE
  5
F5CE4
  8
OBJECT
 10
-550.29342999999994
 20
437.78906599999999
 30
0.0
 11
-550.14372099999969
 21
437.8562119999998
 31
0.0
  0
LINE
  5
F5CE5
  8
OBJECT
 10
-550.14372099999969
 20
437.8562119999998
 30
0.0
 11
-549.99399599999981
 21
437.9231009999998
 31
0.0
  0
LINE
  5
F5CE6
  8
OBJECT
 10
-549.99399599999981
 20
437.9231009999998
 30
0.0
 11
-549.84422400000005
 21
437.98976599999997
 31
0.0
  0
LINE
  5
F5CE7
  8
OBJECT
 10
-549.84422400000005
 20
437.98976599999997
 30
0.0
 11
-549.69437800000014
 21
438.05623999999989
 31
0.0
  0
LINE
  5
F5CE8
  8
OBJECT
 10
-549.69437800000014
 20
438.05623999999989
 30
0.0
 11
-549.54442900000004
 21
438.12255699999992
 31
0.0
  0
LINE
  5
F5CE9
  8
OBJECT
 10
-549.54442900000004
 20
438.12255699999992
 30
0.0
 11
-549.39434800000004
 21
438.18874799999992
 31
0.0
  0
LINE
  5
F5CEA
  8
OBJECT
 10
-549.39434800000004
 20
438.18874799999992
 30
0.0
 11
-549.24410599999987
 21
438.25484699999993
 31
0.0
  0
LINE
  5
F5CEB
  8
OBJECT
 10
-549.24410599999987
 20
438.25484699999993
 30
0.0
 11
-549.09367499999985
 21
438.3208869999998
 31
0.0
  0
LINE
  5
F5CEC
  8
OBJECT
 10
-549.09367499999985
 20
438.3208869999998
 30
0.0
 11
-548.91432499999985
 21
438.39945699999993
 31
0.0
  0
LINE
  5
F5CED
  8
OBJECT
 10
-548.91432499999985
 20
438.39945699999993
 30
0.0
 11
-548.73468399999979
 21
438.47796699999992
 31
0.0
  0
LINE
  5
F5CEE
  8
OBJECT
 10
-548.73468399999979
 20
438.47796699999992
 30
0.0
 11
-548.55477199999984
 21
438.55639100000002
 31
0.0
  0
LINE
  5
F5CEF
  8
OBJECT
 10
-548.55477199999984
 20
438.55639100000002
 30
0.0
 11
-548.37460699999986
 21
438.634705
 31
0.0
  0
LINE
  5
F5CF0
  8
OBJECT
 10
-548.37460699999986
 20
438.634705
 30
0.0
 11
-548.19420799999966
 21
438.7128849999998
 31
0.0
  0
LINE
  5
F5CF1
  8
OBJECT
 10
-548.19420799999966
 20
438.7128849999998
 30
0.0
 11
-548.0135929999999
 21
438.79090600000001
 31
0.0
  0
LINE
  5
F5CF2
  8
OBJECT
 10
-548.0135929999999
 20
438.79090600000001
 30
0.0
 11
-547.83278099999995
 21
438.86874399999988
 31
0.0
  0
LINE
  5
F5CF3
  8
OBJECT
 10
-547.83278099999995
 20
438.86874399999988
 30
0.0
 11
-547.651791
 21
438.94637599999987
 31
0.0
  0
LINE
  5
F5CF4
  8
OBJECT
 10
-547.651791
 20
438.94637599999987
 30
0.0
 11
-547.470642
 21
439.02377499999989
 31
0.0
  0
LINE
  5
F5CF5
  8
OBJECT
 10
-547.470642
 20
439.02377499999989
 30
0.0
 11
-547.28935099999967
 21
439.10091899999998
 31
0.0
  0
LINE
  5
F5CF6
  8
OBJECT
 10
-547.28935099999967
 20
439.10091899999998
 30
0.0
 11
-547.10793899999976
 21
439.17778199999992
 31
0.0
  0
LINE
  5
F5CF7
  8
OBJECT
 10
-547.10793899999976
 20
439.17778199999992
 30
0.0
 11
-546.926422
 21
439.25434100000001
 31
0.0
  0
LINE
  5
F5CF8
  8
OBJECT
 10
-546.926422
 20
439.25434100000001
 30
0.0
 11
-546.74482099999977
 21
439.33057099999991
 31
0.0
  0
LINE
  5
F5CF9
  8
OBJECT
 10
-546.74482099999977
 20
439.33057099999991
 30
0.0
 11
-546.56315400000005
 21
439.40644700000001
 31
0.0
  0
LINE
  5
F5CFA
  8
OBJECT
 10
-546.56315400000005
 20
439.40644700000001
 30
0.0
 11
-546.38143800000012
 21
439.48194599999988
 31
0.0
  0
LINE
  5
F5CFB
  8
OBJECT
 10
-546.38143800000012
 20
439.48194599999988
 30
0.0
 11
-546.19969400000014
 21
439.55704199999991
 31
0.0
  0
LINE
  5
F5CFC
  8
OBJECT
 10
-546.19969400000014
 20
439.55704199999991
 30
0.0
 11
-546.01793999999995
 21
439.63171299999988
 31
0.0
  0
LINE
  5
F5CFD
  8
OBJECT
 10
-546.01793999999995
 20
439.63171299999988
 30
0.0
 11
-545.83619399999986
 21
439.70593200000002
 31
0.0
  0
LINE
  5
F5CFE
  8
OBJECT
 10
-545.83619399999986
 20
439.70593200000002
 30
0.0
 11
-545.65447499999982
 21
439.77967699999999
 31
0.0
  0
LINE
  5
F5CFF
  8
OBJECT
 10
-545.65447499999982
 20
439.77967699999999
 30
0.0
 11
-545.47280099999989
 21
439.85292199999992
 31
0.0
  0
LINE
  5
F5D00
  8
OBJECT
 10
-545.47280099999989
 20
439.85292199999992
 30
0.0
 11
-545.29887799999995
 21
439.92257999999993
 31
0.0
  0
LINE
  5
F5D01
  8
OBJECT
 10
-545.29887799999995
 20
439.92257999999993
 30
0.0
 11
-545.12497499999995
 21
439.99178499999999
 31
0.0
  0
LINE
  5
F5D02
  8
OBJECT
 10
-545.12497499999995
 20
439.99178499999999
 30
0.0
 11
-544.95105400000011
 21
440.06056499999983
 31
0.0
  0
LINE
  5
F5D03
  8
OBJECT
 10
-544.95105400000011
 20
440.06056499999983
 30
0.0
 11
-544.77707399999997
 21
440.12894699999998
 31
0.0
  0
LINE
  5
F5D04
  8
OBJECT
 10
-544.77707399999997
 20
440.12894699999998
 30
0.0
 11
-544.60299699999985
 21
440.19695899999999
 31
0.0
  0
LINE
  5
F5D05
  8
OBJECT
 10
-544.60299699999985
 20
440.19695899999999
 30
0.0
 11
-544.42878499999983
 21
440.26462799999979
 31
0.0
  0
LINE
  5
F5D06
  8
OBJECT
 10
-544.42878499999983
 20
440.26462799999979
 30
0.0
 11
-544.25439800000004
 21
440.33198099999998
 31
0.0
  0
LINE
  5
F5D07
  8
OBJECT
 10
-544.25439800000004
 20
440.33198099999998
 30
0.0
 11
-544.0797970000001
 21
440.399047
 31
0.0
  0
LINE
  5
F5D08
  8
OBJECT
 10
-544.0797970000001
 20
440.399047
 30
0.0
 11
-543.90494299999978
 21
440.46585199999993
 31
0.0
  0
LINE
  5
F5D09
  8
OBJECT
 10
-543.90494299999978
 20
440.46585199999993
 30
0.0
 11
-543.72979800000007
 21
440.53242399999988
 31
0.0
  0
LINE
  5
F5D0A
  8
OBJECT
 10
-543.72979800000007
 20
440.53242399999988
 30
0.0
 11
-543.55432199999996
 21
440.59879100000001
 31
0.0
  0
LINE
  5
F5D0B
  8
OBJECT
 10
-543.55432199999996
 20
440.59879100000001
 30
0.0
 11
-543.37847599999986
 21
440.66497899999979
 31
0.0
  0
LINE
  5
F5D0C
  8
OBJECT
 10
-543.37847599999986
 20
440.66497899999979
 30
0.0
 11
-543.20222199999989
 21
440.73101800000001
 31
0.0
  0
LINE
  5
F5D0D
  8
OBJECT
 10
-543.20222199999989
 20
440.73101800000001
 30
0.0
 11
-543.02552000000014
 21
440.79693299999991
 31
0.0
  0
LINE
  5
F5D0E
  8
OBJECT
 10
-543.02552000000014
 20
440.79693299999991
 30
0.0
 11
-542.84833200000003
 21
440.86275199999989
 31
0.0
  0
LINE
  5
F5D0F
  8
OBJECT
 10
-542.84833200000003
 20
440.86275199999989
 30
0.0
 11
-542.67061799999988
 21
440.92850399999992
 31
0.0
  0
LINE
  5
F5D10
  8
OBJECT
 10
-542.67061799999988
 20
440.92850399999992
 30
0.0
 11
-542.4923399999999
 21
440.99421499999988
 31
0.0
  0
LINE
  5
F5D11
  8
OBJECT
 10
-542.4923399999999
 20
440.99421499999988
 30
0.0
 11
-542.31345799999997
 21
441.05991299999999
 31
0.0
  0
LINE
  5
F5D12
  8
OBJECT
 10
-542.31345799999997
 20
441.05991299999999
 30
0.0
 11
-542.13393399999995
 21
441.12562600000001
 31
0.0
  0
LINE
  5
F5D13
  8
OBJECT
 10
-542.13393399999995
 20
441.12562600000001
 30
0.0
 11
-541.95372899999995
 21
441.19137999999992
 31
0.0
  0
LINE
  5
F5D14
  8
OBJECT
 10
-541.95372899999995
 20
441.19137999999992
 30
0.0
 11
-541.80149800000004
 21
441.24677299999991
 31
0.0
  0
LINE
  5
F5D15
  8
OBJECT
 10
-541.80149800000004
 20
441.24677299999991
 30
0.0
 11
-541.6488690000001
 21
441.30216200000001
 31
0.0
  0
LINE
  5
F5D16
  8
OBJECT
 10
-541.6488690000001
 20
441.30216200000001
 30
0.0
 11
-541.49595499999987
 21
441.35749399999997
 31
0.0
  0
LINE
  5
F5D17
  8
OBJECT
 10
-541.49595499999987
 20
441.35749399999997
 30
0.0
 11
-541.34286899999995
 21
441.41271399999988
 31
0.0
  0
LINE
  5
F5D18
  8
OBJECT
 10
-541.34286899999995
 20
441.41271399999988
 30
0.0
 11
-541.18972299999996
 21
441.46776999999992
 31
0.0
  0
LINE
  5
F5D19
  8
OBJECT
 10
-541.18972299999996
 20
441.46776999999992
 30
0.0
 11
-541.03662999999995
 21
441.52260899999987
 31
0.0
  0
LINE
  5
F5D1A
  8
OBJECT
 10
-541.03662999999995
 20
441.52260899999987
 30
0.0
 11
-540.88370299999985
 21
441.57717600000001
 31
0.0
  0
LINE
  5
F5D1B
  8
OBJECT
 10
-540.88370299999985
 20
441.57717600000001
 30
0.0
 11
-540.73105399999997
 21
441.63141899999999
 31
0.0
  0
LINE
  5
F5D1C
  8
OBJECT
 10
-540.73105399999997
 20
441.63141899999999
 30
0.0
 11
-540.57879600000001
 21
441.68528400000002
 31
0.0
  0
LINE
  5
F5D1D
  8
OBJECT
 10
-540.57879600000001
 20
441.68528400000002
 30
0.0
 11
-540.42704200000003
 21
441.73871800000001
 31
0.0
  0
LINE
  5
F5D1E
  8
OBJECT
 10
-540.42704200000003
 20
441.73871800000001
 30
0.0
 11
-540.27590400000008
 21
441.79166699999979
 31
0.0
  0
LINE
  5
F5D1F
  8
OBJECT
 10
-540.27590400000008
 20
441.79166699999979
 30
0.0
 11
-540.125495
 21
441.84407900000002
 31
0.0
  0
LINE
  5
F5D20
  8
OBJECT
 10
-540.125495
 20
441.84407900000002
 30
0.0
 11
-539.97592899999995
 21
441.89589899999999
 31
0.0
  0
LINE
  5
F5D21
  8
OBJECT
 10
-539.97592899999995
 20
441.89589899999999
 30
0.0
 11
-539.82731599999966
 21
441.94707399999999
 31
0.0
  0
LINE
  5
F5D22
  8
OBJECT
 10
-539.82731599999966
 20
441.94707399999999
 30
0.0
 11
-539.67977099999985
 21
441.99755199999998
 31
0.0
  0
LINE
  5
F5D23
  8
OBJECT
 10
-539.67977099999985
 20
441.99755199999998
 30
0.0
 11
-539.53340499999968
 21
442.04727799999989
 31
0.0
  0
LINE
  5
F5D24
  8
OBJECT
 10
-539.53340499999968
 20
442.04727799999989
 30
0.0
 11
-539.38833199999976
 21
442.09619900000001
 31
0.0
  0
LINE
  5
F5D25
  8
OBJECT
 10
-539.38833199999976
 20
442.09619900000001
 30
0.0
 11
-539.24466500000005
 21
442.14426199999991
 31
0.0
  0
LINE
  5
F5D26
  8
OBJECT
 10
-539.24466500000005
 20
442.14426199999991
 30
0.0
 11
-539.10251500000004
 21
442.19141300000001
 31
0.0
  0
LINE
  5
F5D27
  8
OBJECT
 10
-539.10251500000004
 20
442.19141300000001
 30
0.0
 11
-538.96199500000012
 21
442.23759899999988
 31
0.0
  0
LINE
  5
F5D28
  8
OBJECT
 10
-538.96199500000012
 20
442.23759899999988
 30
0.0
 11
-538.76048999999966
 21
442.30302999999992
 31
0.0
  0
LINE
  5
F5D29
  8
OBJECT
 10
-538.76048999999966
 20
442.30302999999992
 30
0.0
 11
-538.56182899999999
 21
442.36652699999979
 31
0.0
  0
LINE
  5
F5D2A
  8
OBJECT
 10
-538.56182899999999
 20
442.36652699999979
 30
0.0
 11
-538.36516600000004
 21
442.42831200000001
 31
0.0
  0
LINE
  5
F5D2B
  8
OBJECT
 10
-538.36516600000004
 20
442.42831200000001
 30
0.0
 11
-538.16965600000003
 21
442.488608
 31
0.0
  0
LINE
  5
F5D2C
  8
OBJECT
 10
-538.16965600000003
 20
442.488608
 30
0.0
 11
-537.97445300000004
 21
442.54763600000001
 31
0.0
  0
LINE
  5
F5D2D
  8
OBJECT
 10
-537.97445300000004
 20
442.54763600000001
 30
0.0
 11
-537.77870999999982
 21
442.60561899999988
 31
0.0
  0
LINE
  5
F5D2E
  8
OBJECT
 10
-537.77870999999982
 20
442.60561899999988
 30
0.0
 11
-537.58158299999991
 21
442.662778
 31
0.0
  0
LINE
  5
F5D2F
  8
OBJECT
 10
-537.58158299999991
 20
442.662778
 30
0.0
 11
-537.38222399999995
 21
442.719336
 31
0.0
  0
LINE
  5
F5D30
  8
OBJECT
 10
-537.38222399999995
 20
442.719336
 30
0.0
 11
-537.17978900000003
 21
442.77551399999999
 31
0.0
  0
LINE
  5
F5D31
  8
OBJECT
 10
-537.17978900000003
 20
442.77551399999999
 30
0.0
 11
-536.97343099999989
 21
442.83153399999998
 31
0.0
  0
LINE
  5
F5D32
  8
OBJECT
 10
-536.97343099999989
 20
442.83153399999998
 30
0.0
 11
-536.76230399999986
 21
442.88761999999991
 31
0.0
  0
LINE
  5
F5D33
  8
OBJECT
 10
-536.76230399999986
 20
442.88761999999991
 30
0.0
 11
-536.54556200000002
 21
442.94399199999998
 31
0.0
  0
LINE
  5
F5D34
  8
OBJECT
 10
-536.54556200000002
 20
442.94399199999998
 30
0.0
 11
-536.322361
 21
443.00087200000002
 31
0.0
  0
LINE
  5
F5D35
  8
OBJECT
 10
-536.322361
 20
443.00087200000002
 30
0.0
 11
-536.09185200000002
 21
443.05848299999991
 31
0.0
  0
LINE
  5
F5D36
  8
OBJECT
 10
-536.09185200000002
 20
443.05848299999991
 30
0.0
 11
-535.85319200000004
 21
443.11704700000001
 31
0.0
  0
LINE
  5
F5D37
  8
OBJECT
 10
-535.85319200000004
 20
443.11704700000001
 30
0.0
 11
-535.60553399999981
 21
443.17678599999988
 31
0.0
  0
LINE
  5
F5D38
  8
OBJECT
 10
-535.60553399999981
 20
443.17678599999988
 30
0.0
 11
-535.34803099999999
 21
443.23792099999991
 31
0.0
  0
LINE
  5
F5D39
  8
OBJECT
 10
-535.34803099999999
 20
443.23792099999991
 30
0.0
 11
-535.07983899999999
 21
443.30067499999979
 31
0.0
  0
LINE
  5
F5D3A
  8
OBJECT
 10
-535.07983899999999
 20
443.30067499999979
 30
0.0
 11
-534.80011100000002
 21
443.36527000000001
 31
0.0
  0
LINE
  5
F5D3B
  8
OBJECT
 10
-534.80011100000002
 20
443.36527000000001
 30
0.0
 11
-534.50800099999992
 21
443.43192800000008
 31
0.0
  0
LINE
  5
F5D3C
  8
OBJECT
 10
-534.50800099999992
 20
443.43192800000008
 30
0.0
 11
-534.32919400000105
 21
443.47238700000003
 31
0.0
  0
LINE
  5
F5D3D
  8
OBJECT
 10
-534.32919400000105
 20
443.47238700000003
 30
0.0
 11
-534.14710100000002
 21
443.51336500000002
 31
0.0
  0
LINE
  5
F5D3E
  8
OBJECT
 10
-534.14710100000002
 20
443.51336500000002
 30
0.0
 11
-533.96306799999979
 21
443.55458299999992
 31
0.0
  0
LINE
  5
F5D3F
  8
OBJECT
 10
-533.96306799999979
 20
443.55458299999992
 30
0.0
 11
-533.77844299999992
 21
443.59575899999999
 31
0.0
  0
LINE
  5
F5D40
  8
OBJECT
 10
-533.77844299999992
 20
443.59575899999999
 30
0.0
 11
-533.59457199999986
 21
443.63661400000001
 31
0.0
  0
LINE
  5
F5D41
  8
OBJECT
 10
-533.59457199999986
 20
443.63661400000001
 30
0.0
 11
-533.41280200000006
 21
443.67686600000002
 31
0.0
  0
LINE
  5
F5D42
  8
OBJECT
 10
-533.41280200000006
 20
443.67686600000002
 30
0.0
 11
-533.23448099999985
 21
443.71623499999998
 31
0.0
  0
LINE
  5
F5D43
  8
OBJECT
 10
-533.23448099999985
 20
443.71623499999998
 30
0.0
 11
-533.06095400000004
 21
443.75443999999999
 31
0.0
  0
LINE
  5
F5D44
  8
OBJECT
 10
-533.06095400000004
 20
443.75443999999999
 30
0.0
 11
-532.89356899999996
 21
443.79120099999989
 31
0.0
  0
LINE
  5
F5D45
  8
OBJECT
 10
-532.89356899999996
 20
443.79120099999989
 30
0.0
 11
-532.73367299999995
 21
443.82623799999999
 31
0.0
  0
LINE
  5
F5D46
  8
OBJECT
 10
-532.73367299999995
 20
443.82623799999999
 30
0.0
 11
-532.58261300000004
 21
443.85926899999998
 31
0.0
  0
LINE
  5
F5D47
  8
OBJECT
 10
-532.58261300000004
 20
443.85926899999998
 30
0.0
 11
-532.44173599999988
 21
443.89001499999989
 31
0.0
  0
LINE
  5
F5D48
  8
OBJECT
 10
-532.44173599999988
 20
443.89001499999989
 30
0.0
 11
-532.31238800000006
 21
443.91819400000003
 31
0.0
  0
LINE
  5
F5D49
  8
OBJECT
 10
-532.31238800000006
 20
443.91819400000003
 30
0.0
 11
-532.19591599999967
 21
443.94352600000002
 31
0.0
  0
LINE
  5
F5D4A
  8
OBJECT
 10
-532.19591599999967
 20
443.94352600000002
 30
0.0
 11
-532.09366799999987
 21
443.96573000000001
 31
0.0
  0
LINE
  5
F5D4B
  8
OBJECT
 10
-532.09366799999987
 20
443.96573000000001
 30
0.0
 11
-532.00698999999997
 21
443.98452699999979
 31
0.0
  0
LINE
  5
F5D4C
  8
OBJECT
 10
-532.00698999999997
 20
443.98452699999979
 30
0.0
 11
-531.93722900000012
 21
443.99963500000001
 31
0.0
  0
LINE
  5
F5D4D
  8
OBJECT
 10
-531.93722900000012
 20
443.99963500000001
 30
0.0
 11
-531.88573199999985
 21
444.01077400000003
 31
0.0
  0
LINE
  5
F5D4E
  8
OBJECT
 10
-531.88573199999985
 20
444.01077400000003
 30
0.0
 11
-531.85384599999998
 21
444.01766300000003
 31
0.0
  0
LINE
  5
F5D4F
  8
OBJECT
 10
-531.85384599999998
 20
444.01766300000003
 30
0.0
 11
-531.84291799999983
 21
444.02002099999987
 31
0.0
  0
LINE
  5
F5D50
  8
OBJECT
 10
-679.49299299999996
 20
432.99745999999988
 30
0.0
 11
-679.48334199999977
 21
433.00287199999991
 31
0.0
  0
LINE
  5
F5D51
  8
OBJECT
 10
-679.48334199999977
 20
433.00287199999991
 30
0.0
 11
-679.45520999999985
 21
433.01864399999999
 31
0.0
  0
LINE
  5
F5D52
  8
OBJECT
 10
-679.45520999999985
 20
433.01864399999999
 30
0.0
 11
-679.40983100000005
 21
433.04408099999989
 31
0.0
  0
LINE
  5
F5D53
  8
OBJECT
 10
-679.40983100000005
 20
433.04408099999989
 30
0.0
 11
-679.34843699999976
 21
433.07848799999999
 31
0.0
  0
LINE
  5
F5D54
  8
OBJECT
 10
-679.34843699999976
 20
433.07848799999999
 30
0.0
 11
-679.27226099999984
 21
433.12116999999989
 31
0.0
  0
LINE
  5
F5D55
  8
OBJECT
 10
-679.27226099999984
 20
433.12116999999989
 30
0.0
 11
-679.18253600000003
 21
433.17143199999992
 31
0.0
  0
LINE
  5
F5D56
  8
OBJECT
 10
-679.18253600000003
 20
433.17143199999992
 30
0.0
 11
-679.08049500000004
 21
433.22857899999991
 31
0.0
  0
LINE
  5
F5D57
  8
OBJECT
 10
-679.08049500000004
 20
433.22857899999991
 30
0.0
 11
-678.96737000000007
 21
433.29191699999978
 31
0.0
  0
LINE
  5
F5D58
  8
OBJECT
 10
-678.96737000000007
 20
433.29191699999978
 30
0.0
 11
-678.84439500000019
 21
433.360749
 31
0.0
  0
LINE
  5
F5D59
  8
OBJECT
 10
-678.84439500000019
 20
433.360749
 30
0.0
 11
-678.7128019999999
 21
433.43438200000003
 31
0.0
  0
LINE
  5
F5D5A
  8
OBJECT
 10
-678.7128019999999
 20
433.43438200000003
 30
0.0
 11
-678.57382399999995
 21
433.51211999999992
 31
0.0
  0
LINE
  5
F5D5B
  8
OBJECT
 10
-678.57382399999995
 20
433.51211999999992
 30
0.0
 11
-678.42869400000018
 21
433.59326799999991
 31
0.0
  0
LINE
  5
F5D5C
  8
OBJECT
 10
-678.42869400000018
 20
433.59326799999991
 30
0.0
 11
-678.27864399999976
 21
433.67713200000009
 31
0.0
  0
LINE
  5
F5D5D
  8
OBJECT
 10
-678.27864399999976
 20
433.67713200000009
 30
0.0
 11
-678.124908
 21
433.76301599999988
 31
0.0
  0
LINE
  5
F5D5E
  8
OBJECT
 10
-678.124908
 20
433.76301599999988
 30
0.0
 11
-677.96871899999985
 21
433.85022400000008
 31
0.0
  0
LINE
  5
F5D5F
  8
OBJECT
 10
-677.96871899999985
 20
433.85022400000008
 30
0.0
 11
-677.81130800000005
 21
433.93806399999988
 31
0.0
  0
LINE
  5
F5D60
  8
OBJECT
 10
-677.81130800000005
 20
433.93806399999988
 30
0.0
 11
-677.65390999999988
 21
434.02583800000002
 31
0.0
  0
LINE
  5
F5D61
  8
OBJECT
 10
-677.65390999999988
 20
434.02583800000002
 30
0.0
 11
-677.49775599999987
 21
434.11285299999992
 31
0.0
  0
LINE
  5
F5D62
  8
OBJECT
 10
-677.49775599999987
 20
434.11285299999992
 30
0.0
 11
-677.34407999999985
 21
434.19841199999991
 31
0.0
  0
LINE
  5
F5D63
  8
OBJECT
 10
-677.34407999999985
 20
434.19841199999991
 30
0.0
 11
-677.1941149999999
 21
434.2818229999998
 31
0.0
  0
LINE
  5
F5D64
  8
OBJECT
 10
-677.1941149999999
 20
434.2818229999998
 30
0.0
 11
-677.028955
 21
434.37356799999992
 31
0.0
  0
LINE
  5
F5D65
  8
OBJECT
 10
-677.028955
 20
434.37356799999992
 30
0.0
 11
-676.86979699999995
 21
434.46184399999993
 31
0.0
  0
LINE
  5
F5D66
  8
OBJECT
 10
-676.86979699999995
 20
434.46184399999993
 30
0.0
 11
-676.71622500000001
 21
434.546874
 31
0.0
  0
LINE
  5
F5D67
  8
OBJECT
 10
-676.71622500000001
 20
434.546874
 30
0.0
 11
-676.56782199999975
 21
434.6288829999998
 31
0.0
  0
LINE
  5
F5D68
  8
OBJECT
 10
-676.56782199999975
 20
434.6288829999998
 30
0.0
 11
-676.424172
 21
434.70809300000002
 31
0.0
  0
LINE
  5
F5D69
  8
OBJECT
 10
-676.424172
 20
434.70809300000002
 30
0.0
 11
-676.28485899999987
 21
434.7847289999998
 31
0.0
  0
LINE
  5
F5D6A
  8
OBJECT
 10
-676.28485899999987
 20
434.7847289999998
 30
0.0
 11
-676.14946499999985
 21
434.85901399999989
 31
0.0
  0
LINE
  5
F5D6B
  8
OBJECT
 10
-676.14946499999985
 20
434.85901399999989
 30
0.0
 11
-676.01757599999996
 21
434.931174
 31
0.0
  0
LINE
  5
F5D6C
  8
OBJECT
 10
-676.01757599999996
 20
434.931174
 30
0.0
 11
-675.88877400000001
 21
435.00143000000003
 31
0.0
  0
LINE
  5
F5D6D
  8
OBJECT
 10
-675.88877400000001
 20
435.00143000000003
 30
0.0
 11
-675.76264300000003
 21
435.07000799999997
 31
0.0
  0
LINE
  5
F5D6E
  8
OBJECT
 10
-675.76264300000003
 20
435.07000799999997
 30
0.0
 11
-675.63876700000003
 21
435.13713099999973
 31
0.0
  0
LINE
  5
F5D6F
  8
OBJECT
 10
-675.63876700000003
 20
435.13713099999973
 30
0.0
 11
-675.51673000000005
 21
435.20302299999992
 31
0.0
  0
LINE
  5
F5D70
  8
OBJECT
 10
-675.51673000000005
 20
435.20302299999992
 30
0.0
 11
-675.39611400000001
 21
435.26790799999992
 31
0.0
  0
LINE
  5
F5D71
  8
OBJECT
 10
-675.39611400000001
 20
435.26790799999992
 30
0.0
 11
-675.27650400000005
 21
435.33200999999991
 31
0.0
  0
LINE
  5
F5D72
  8
OBJECT
 10
-675.27650400000005
 20
435.33200999999991
 30
0.0
 11
-675.15748299999996
 21
435.39555300000001
 31
0.0
  0
LINE
  5
F5D73
  8
OBJECT
 10
-675.15748299999996
 20
435.39555300000001
 30
0.0
 11
-675.03863499999989
 21
435.45875999999998
 31
0.0
  0
LINE
  5
F5D74
  8
OBJECT
 10
-675.03863499999989
 20
435.45875999999998
 30
0.0
 11
-674.91954399999997
 21
435.52185500000002
 31
0.0
  0
LINE
  5
F5D75
  8
OBJECT
 10
-674.91954399999997
 20
435.52185500000002
 30
0.0
 11
-674.79979300000002
 21
435.58506299999988
 31
0.0
  0
LINE
  5
F5D76
  8
OBJECT
 10
-674.79979300000002
 20
435.58506299999988
 30
0.0
 11
-674.67896499999995
 21
435.64860700000003
 31
0.0
  0
LINE
  5
F5D77
  8
OBJECT
 10
-674.67896499999995
 20
435.64860700000003
 30
0.0
 11
-674.556646
 21
435.71271100000001
 31
0.0
  0
LINE
  5
F5D78
  8
OBJECT
 10
-674.556646
 20
435.71271100000001
 30
0.0
 11
-674.442859
 21
435.77214999999973
 31
0.0
  0
LINE
  5
F5D79
  8
OBJECT
 10
-674.442859
 20
435.77214999999973
 30
0.0
 11
-674.32755999999995
 21
435.83219099999991
 31
0.0
  0
LINE
  5
F5D7A
  8
OBJECT
 10
-674.32755999999995
 20
435.83219099999991
 30
0.0
 11
-674.21084099999996
 21
435.89277900000002
 31
0.0
  0
LINE
  5
F5D7B
  8
OBJECT
 10
-674.21084099999996
 20
435.89277900000002
 30
0.0
 11
-674.0927929999998
 21
435.95385499999992
 31
0.0
  0
LINE
  5
F5D7C
  8
OBJECT
 10
-674.0927929999998
 20
435.95385499999992
 30
0.0
 11
-673.97351000000003
 21
436.01536399999998
 31
0.0
  0
LINE
  5
F5D7D
  8
OBJECT
 10
-673.97351000000003
 20
436.01536399999998
 30
0.0
 11
-673.85308499999996
 21
436.077248
 31
0.0
  0
LINE
  5
F5D7E
  8
OBJECT
 10
-673.85308499999996
 20
436.077248
 30
0.0
 11
-673.73160999999982
 21
436.13945100000001
 31
0.0
  0
LINE
  5
F5D7F
  8
OBJECT
 10
-673.73160999999982
 20
436.13945100000001
 30
0.0
 11
-673.6091779999997
 21
436.20191499999999
 31
0.0
  0
LINE
  5
F5D80
  8
OBJECT
 10
-673.6091779999997
 20
436.20191499999999
 30
0.0
 11
-673.48588099999995
 21
436.26458499999978
 31
0.0
  0
LINE
  5
F5D81
  8
OBJECT
 10
-673.48588099999995
 20
436.26458499999978
 30
0.0
 11
-673.36181199999999
 21
436.327403
 31
0.0
  0
LINE
  5
F5D82
  8
OBJECT
 10
-673.36181199999999
 20
436.327403
 30
0.0
 11
-673.23706400000003
 21
436.39031199999988
 31
0.0
  0
LINE
  5
F5D83
  8
OBJECT
 10
-673.23706400000003
 20
436.39031199999988
 30
0.0
 11
-673.11172899999997
 21
436.45325599999978
 31
0.0
  0
LINE
  5
F5D84
  8
OBJECT
 10
-673.11172899999997
 20
436.45325599999978
 30
0.0
 11
-672.98590100000001
 21
436.51617800000002
 31
0.0
  0
LINE
  5
F5D85
  8
OBJECT
 10
-672.98590100000001
 20
436.51617800000002
 30
0.0
 11
-672.85967100000028
 21
436.57902099999978
 31
0.0
  0
LINE
  5
F5D86
  8
OBJECT
 10
-672.85967100000028
 20
436.57902099999978
 30
0.0
 11
-672.73313199999996
 21
436.641728
 31
0.0
  0
LINE
  5
F5D87
  8
OBJECT
 10
-672.73313199999996
 20
436.641728
 30
0.0
 11
-672.60637700000018
 21
436.70424300000002
 31
0.0
  0
LINE
  5
F5D88
  8
OBJECT
 10
-672.60637700000018
 20
436.70424300000002
 30
0.0
 11
-672.47949899999981
 21
436.76650799999999
 31
0.0
  0
LINE
  5
F5D89
  8
OBJECT
 10
-672.47949899999981
 20
436.76650799999999
 30
0.0
 11
-672.35258999999985
 21
436.82846699999999
 31
0.0
  0
LINE
  5
F5D8A
  8
OBJECT
 10
-672.35258999999985
 20
436.82846699999999
 30
0.0
 11
-672.22574199999997
 21
436.89006299999988
 31
0.0
  0
LINE
  5
F5D8B
  8
OBJECT
 10
-672.22574199999997
 20
436.89006299999988
 30
0.0
 11
-672.09904999999981
 21
436.95123999999993
 31
0.0
  0
LINE
  5
F5D8C
  8
OBJECT
 10
-672.09904999999981
 20
436.95123999999993
 30
0.0
 11
-671.9473069999998
 21
437.02404599999988
 31
0.0
  0
LINE
  5
F5D8D
  8
OBJECT
 10
-671.9473069999998
 20
437.02404599999988
 30
0.0
 11
-671.79589199999998
 21
437.09619999999978
 31
0.0
  0
LINE
  5
F5D8E
  8
OBJECT
 10
-671.79589199999998
 20
437.09619999999978
 30
0.0
 11
-671.64477599999975
 21
437.16773299999988
 31
0.0
  0
LINE
  5
F5D8F
  8
OBJECT
 10
-671.64477599999975
 20
437.16773299999988
 30
0.0
 11
-671.49392899999998
 21
437.23867799999999
 31
0.0
  0
LINE
  5
F5D90
  8
OBJECT
 10
-671.49392899999998
 20
437.23867799999999
 30
0.0
 11
-671.34332400000005
 21
437.30907000000002
 31
0.0
  0
LINE
  5
F5D91
  8
OBJECT
 10
-671.34332400000005
 20
437.30907000000002
 30
0.0
 11
-671.19293099999982
 21
437.37893999999972
 31
0.0
  0
LINE
  5
F5D92
  8
OBJECT
 10
-671.19293099999982
 20
437.37893999999972
 30
0.0
 11
-671.04272200000003
 21
437.44832200000002
 31
0.0
  0
LINE
  5
F5D93
  8
OBJECT
 10
-671.04272200000003
 20
437.44832200000002
 30
0.0
 11
-670.89266799999984
 21
437.51724899999988
 31
0.0
  0
LINE
  5
F5D94
  8
OBJECT
 10
-670.89266799999984
 20
437.51724899999988
 30
0.0
 11
-670.7427409999998
 21
437.58575399999989
 31
0.0
  0
LINE
  5
F5D95
  8
OBJECT
 10
-670.7427409999998
 20
437.58575399999989
 30
0.0
 11
-670.59291100000019
 21
437.65386999999998
 31
0.0
  0
LINE
  5
F5D96
  8
OBJECT
 10
-670.59291100000019
 20
437.65386999999998
 30
0.0
 11
-670.44315099999994
 21
437.72162899999989
 31
0.0
  0
LINE
  5
F5D97
  8
OBJECT
 10
-670.44315099999994
 20
437.72162899999989
 30
0.0
 11
-670.29342999999994
 21
437.78906599999999
 31
0.0
  0
LINE
  5
F5D98
  8
OBJECT
 10
-670.29342999999994
 20
437.78906599999999
 30
0.0
 11
-670.14372100000003
 21
437.8562119999998
 31
0.0
  0
LINE
  5
F5D99
  8
OBJECT
 10
-670.14372100000003
 20
437.8562119999998
 30
0.0
 11
-669.99399600000004
 21
437.9231009999998
 31
0.0
  0
LINE
  5
F5D9A
  8
OBJECT
 10
-669.99399600000004
 20
437.9231009999998
 30
0.0
 11
-669.84422400000005
 21
437.98976599999997
 31
0.0
  0
LINE
  5
F5D9B
  8
OBJECT
 10
-669.84422400000005
 20
437.98976599999997
 30
0.0
 11
-669.69437800000003
 21
438.05623999999989
 31
0.0
  0
LINE
  5
F5D9C
  8
OBJECT
 10
-669.69437800000003
 20
438.05623999999989
 30
0.0
 11
-669.54442900000004
 21
438.12255699999992
 31
0.0
  0
LINE
  5
F5D9D
  8
OBJECT
 10
-669.54442900000004
 20
438.12255699999992
 30
0.0
 11
-669.3943479999997
 21
438.18874799999992
 31
0.0
  0
LINE
  5
F5D9E
  8
OBJECT
 10
-669.3943479999997
 20
438.18874799999992
 30
0.0
 11
-669.24410599999999
 21
438.25484699999993
 31
0.0
  0
LINE
  5
F5D9F
  8
OBJECT
 10
-669.24410599999999
 20
438.25484699999993
 30
0.0
 11
-669.09367499999985
 21
438.3208869999998
 31
0.0
  0
LINE
  5
F5DA0
  8
OBJECT
 10
-669.09367499999985
 20
438.3208869999998
 30
0.0
 11
-668.91432499999985
 21
438.39945699999993
 31
0.0
  0
LINE
  5
F5DA1
  8
OBJECT
 10
-668.91432499999985
 20
438.39945699999993
 30
0.0
 11
-668.7346839999999
 21
438.47796699999992
 31
0.0
  0
LINE
  5
F5DA2
  8
OBJECT
 10
-668.7346839999999
 20
438.47796699999992
 30
0.0
 11
-668.55477199999984
 21
438.55639100000002
 31
0.0
  0
LINE
  5
F5DA3
  8
OBJECT
 10
-668.55477199999984
 20
438.55639100000002
 30
0.0
 11
-668.37460699999986
 21
438.634705
 31
0.0
  0
LINE
  5
F5DA4
  8
OBJECT
 10
-668.37460699999986
 20
438.634705
 30
0.0
 11
-668.19420799999978
 21
438.7128849999998
 31
0.0
  0
LINE
  5
F5DA5
  8
OBJECT
 10
-668.19420799999978
 20
438.7128849999998
 30
0.0
 11
-668.01359300000001
 21
438.79090600000001
 31
0.0
  0
LINE
  5
F5DA6
  8
OBJECT
 10
-668.01359300000001
 20
438.79090600000001
 30
0.0
 11
-667.83278099999995
 21
438.86874399999988
 31
0.0
  0
LINE
  5
F5DA7
  8
OBJECT
 10
-667.83278099999995
 20
438.86874399999988
 30
0.0
 11
-667.651791
 21
438.94637599999987
 31
0.0
  0
LINE
  5
F5DA8
  8
OBJECT
 10
-667.651791
 20
438.94637599999987
 30
0.0
 11
-667.47064199999966
 21
439.02377499999989
 31
0.0
  0
LINE
  5
F5DA9
  8
OBJECT
 10
-667.47064199999966
 20
439.02377499999989
 30
0.0
 11
-667.28935099999967
 21
439.10091899999998
 31
0.0
  0
LINE
  5
F5DAA
  8
OBJECT
 10
-667.28935099999967
 20
439.10091899999998
 30
0.0
 11
-667.10793899999999
 21
439.17778199999992
 31
0.0
  0
LINE
  5
F5DAB
  8
OBJECT
 10
-667.10793899999999
 20
439.17778199999992
 30
0.0
 11
-666.926422
 21
439.25434100000001
 31
0.0
  0
LINE
  5
F5DAC
  8
OBJECT
 10
-666.926422
 20
439.25434100000001
 30
0.0
 11
-666.74482099999977
 21
439.33057099999991
 31
0.0
  0
LINE
  5
F5DAD
  8
OBJECT
 10
-666.74482099999977
 20
439.33057099999991
 30
0.0
 11
-666.56315400000028
 21
439.40644700000001
 31
0.0
  0
LINE
  5
F5DAE
  8
OBJECT
 10
-666.56315400000028
 20
439.40644700000001
 30
0.0
 11
-666.38143799999978
 21
439.48194599999988
 31
0.0
  0
LINE
  5
F5DAF
  8
OBJECT
 10
-666.38143799999978
 20
439.48194599999988
 30
0.0
 11
-666.19969400000002
 21
439.55704199999991
 31
0.0
  0
LINE
  5
F5DB0
  8
OBJECT
 10
-666.19969400000002
 20
439.55704199999991
 30
0.0
 11
-666.01793999999995
 21
439.63171299999988
 31
0.0
  0
LINE
  5
F5DB1
  8
OBJECT
 10
-666.01793999999995
 20
439.63171299999988
 30
0.0
 11
-665.83619399999975
 21
439.70593200000002
 31
0.0
  0
LINE
  5
F5DB2
  8
OBJECT
 10
-665.83619399999975
 20
439.70593200000002
 30
0.0
 11
-665.65447499999982
 21
439.77967699999999
 31
0.0
  0
LINE
  5
F5DB3
  8
OBJECT
 10
-665.65447499999982
 20
439.77967699999999
 30
0.0
 11
-665.47280099999989
 21
439.85292199999992
 31
0.0
  0
LINE
  5
F5DB4
  8
OBJECT
 10
-665.47280099999989
 20
439.85292199999992
 30
0.0
 11
-665.29887799999995
 21
439.92257999999993
 31
0.0
  0
LINE
  5
F5DB5
  8
OBJECT
 10
-665.29887799999995
 20
439.92257999999993
 30
0.0
 11
-665.12497499999995
 21
439.99178499999999
 31
0.0
  0
LINE
  5
F5DB6
  8
OBJECT
 10
-665.12497499999995
 20
439.99178499999999
 30
0.0
 11
-664.951054
 21
440.06056499999983
 31
0.0
  0
LINE
  5
F5DB7
  8
OBJECT
 10
-664.951054
 20
440.06056499999983
 30
0.0
 11
-664.77707399999986
 21
440.12894699999998
 31
0.0
  0
LINE
  5
F5DB8
  8
OBJECT
 10
-664.77707399999986
 20
440.12894699999998
 30
0.0
 11
-664.60299699999985
 21
440.19695899999999
 31
0.0
  0
LINE
  5
F5DB9
  8
OBJECT
 10
-664.60299699999985
 20
440.19695899999999
 30
0.0
 11
-664.42878499999995
 21
440.26462799999979
 31
0.0
  0
LINE
  5
F5DBA
  8
OBJECT
 10
-664.42878499999995
 20
440.26462799999979
 30
0.0
 11
-664.25439799999981
 21
440.33198099999998
 31
0.0
  0
LINE
  5
F5DBB
  8
OBJECT
 10
-664.25439799999981
 20
440.33198099999998
 30
0.0
 11
-664.07979699999999
 21
440.399047
 31
0.0
  0
LINE
  5
F5DBC
  8
OBJECT
 10
-664.07979699999999
 20
440.399047
 30
0.0
 11
-663.904943
 21
440.46585199999993
 31
0.0
  0
LINE
  5
F5DBD
  8
OBJECT
 10
-663.904943
 20
440.46585199999993
 30
0.0
 11
-663.72979799999985
 21
440.53242399999988
 31
0.0
  0
LINE
  5
F5DBE
  8
OBJECT
 10
-663.72979799999985
 20
440.53242399999988
 30
0.0
 11
-663.55432199999996
 21
440.59879100000001
 31
0.0
  0
LINE
  5
F5DBF
  8
OBJECT
 10
-663.55432199999996
 20
440.59879100000001
 30
0.0
 11
-663.37847599999975
 21
440.66497899999979
 31
0.0
  0
LINE
  5
F5DC0
  8
OBJECT
 10
-663.37847599999975
 20
440.66497899999979
 30
0.0
 11
-663.20222200000001
 21
440.73101800000001
 31
0.0
  0
LINE
  5
F5DC1
  8
OBJECT
 10
-663.20222200000001
 20
440.73101800000001
 30
0.0
 11
-663.02552000000003
 21
440.79693299999991
 31
0.0
  0
LINE
  5
F5DC2
  8
OBJECT
 10
-663.02552000000003
 20
440.79693299999991
 30
0.0
 11
-662.84833200000003
 21
440.86275199999989
 31
0.0
  0
LINE
  5
F5DC3
  8
OBJECT
 10
-662.84833200000003
 20
440.86275199999989
 30
0.0
 11
-662.67061799999988
 21
440.92850399999992
 31
0.0
  0
LINE
  5
F5DC4
  8
OBJECT
 10
-662.67061799999988
 20
440.92850399999992
 30
0.0
 11
-662.49234000000001
 21
440.99421499999988
 31
0.0
  0
LINE
  5
F5DC5
  8
OBJECT
 10
-662.49234000000001
 20
440.99421499999988
 30
0.0
 11
-662.31345799999986
 21
441.05991299999999
 31
0.0
  0
LINE
  5
F5DC6
  8
OBJECT
 10
-662.31345799999986
 20
441.05991299999999
 30
0.0
 11
-662.13393399999995
 21
441.12562600000001
 31
0.0
  0
LINE
  5
F5DC7
  8
OBJECT
 10
-662.13393399999995
 20
441.12562600000001
 30
0.0
 11
-661.95372899999995
 21
441.19137999999992
 31
0.0
  0
LINE
  5
F5DC8
  8
OBJECT
 10
-661.95372899999995
 20
441.19137999999992
 30
0.0
 11
-661.80149799999981
 21
441.24677299999991
 31
0.0
  0
LINE
  5
F5DC9
  8
OBJECT
 10
-661.80149799999981
 20
441.24677299999991
 30
0.0
 11
-661.64886899999976
 21
441.30216200000001
 31
0.0
  0
LINE
  5
F5DCA
  8
OBJECT
 10
-661.64886899999976
 20
441.30216200000001
 30
0.0
 11
-661.49595499999998
 21
441.35749399999997
 31
0.0
  0
LINE
  5
F5DCB
  8
OBJECT
 10
-661.49595499999998
 20
441.35749399999997
 30
0.0
 11
-661.34286899999995
 21
441.41271399999988
 31
0.0
  0
LINE
  5
F5DCC
  8
OBJECT
 10
-661.34286899999995
 20
441.41271399999988
 30
0.0
 11
-661.18972299999984
 21
441.46776999999992
 31
0.0
  0
LINE
  5
F5DCD
  8
OBJECT
 10
-661.18972299999984
 20
441.46776999999992
 30
0.0
 11
-661.03662999999995
 21
441.52260899999987
 31
0.0
  0
LINE
  5
F5DCE
  8
OBJECT
 10
-661.03662999999995
 20
441.52260899999987
 30
0.0
 11
-660.88370300000008
 21
441.57717600000001
 31
0.0
  0
LINE
  5
F5DCF
  8
OBJECT
 10
-660.88370300000008
 20
441.57717600000001
 30
0.0
 11
-660.73105399999997
 21
441.63141899999999
 31
0.0
  0
LINE
  5
F5DD0
  8
OBJECT
 10
-660.73105399999997
 20
441.63141899999999
 30
0.0
 11
-660.57879600000001
 21
441.68528400000002
 31
0.0
  0
LINE
  5
F5DD1
  8
OBJECT
 10
-660.57879600000001
 20
441.68528400000002
 30
0.0
 11
-660.42704200000003
 21
441.73871800000001
 31
0.0
  0
LINE
  5
F5DD2
  8
OBJECT
 10
-660.42704200000003
 20
441.73871800000001
 30
0.0
 11
-660.27590399999985
 21
441.79166699999979
 31
0.0
  0
LINE
  5
F5DD3
  8
OBJECT
 10
-660.27590399999985
 20
441.79166699999979
 30
0.0
 11
-660.125495
 21
441.84407900000002
 31
0.0
  0
LINE
  5
F5DD4
  8
OBJECT
 10
-660.125495
 20
441.84407900000002
 30
0.0
 11
-659.97592900000006
 21
441.89589899999999
 31
0.0
  0
LINE
  5
F5DD5
  8
OBJECT
 10
-659.97592900000006
 20
441.89589899999999
 30
0.0
 11
-659.82731599999977
 21
441.94707399999999
 31
0.0
  0
LINE
  5
F5DD6
  8
OBJECT
 10
-659.82731599999977
 20
441.94707399999999
 30
0.0
 11
-659.67977099999985
 21
441.99755199999998
 31
0.0
  0
LINE
  5
F5DD7
  8
OBJECT
 10
-659.67977099999985
 20
441.99755199999998
 30
0.0
 11
-659.5334049999999
 21
442.04727799999989
 31
0.0
  0
LINE
  5
F5DD8
  8
OBJECT
 10
-659.5334049999999
 20
442.04727799999989
 30
0.0
 11
-659.38833199999976
 21
442.09619900000001
 31
0.0
  0
LINE
  5
F5DD9
  8
OBJECT
 10
-659.38833199999976
 20
442.09619900000001
 30
0.0
 11
-659.24466500000005
 21
442.14426199999991
 31
0.0
  0
LINE
  5
F5DDA
  8
OBJECT
 10
-659.24466500000005
 20
442.14426199999991
 30
0.0
 11
-659.10251499999981
 21
442.19141300000001
 31
0.0
  0
LINE
  5
F5DDB
  8
OBJECT
 10
-659.10251499999981
 20
442.19141300000001
 30
0.0
 11
-658.961995
 21
442.23759899999988
 31
0.0
  0
LINE
  5
F5DDC
  8
OBJECT
 10
-658.961995
 20
442.23759899999988
 30
0.0
 11
-658.76049
 21
442.30302999999992
 31
0.0
  0
LINE
  5
F5DDD
  8
OBJECT
 10
-658.76049
 20
442.30302999999992
 30
0.0
 11
-658.56182899999999
 21
442.36652699999979
 31
0.0
  0
LINE
  5
F5DDE
  8
OBJECT
 10
-658.56182899999999
 20
442.36652699999979
 30
0.0
 11
-658.36516599999982
 21
442.42831200000001
 31
0.0
  0
LINE
  5
F5DDF
  8
OBJECT
 10
-658.36516599999982
 20
442.42831200000001
 30
0.0
 11
-658.16965600000003
 21
442.488608
 31
0.0
  0
LINE
  5
F5DE0
  8
OBJECT
 10
-658.16965600000003
 20
442.488608
 30
0.0
 11
-657.97445300000004
 21
442.54763600000001
 31
0.0
  0
LINE
  5
F5DE1
  8
OBJECT
 10
-657.97445300000004
 20
442.54763600000001
 30
0.0
 11
-657.77870999999982
 21
442.60561899999988
 31
0.0
  0
LINE
  5
F5DE2
  8
OBJECT
 10
-657.77870999999982
 20
442.60561899999988
 30
0.0
 11
-657.5815829999998
 21
442.662778
 31
0.0
  0
LINE
  5
F5DE3
  8
OBJECT
 10
-657.5815829999998
 20
442.662778
 30
0.0
 11
-657.38222399999995
 21
442.719336
 31
0.0
  0
LINE
  5
F5DE4
  8
OBJECT
 10
-657.38222399999995
 20
442.719336
 30
0.0
 11
-657.17978900000003
 21
442.77551399999999
 31
0.0
  0
LINE
  5
F5DE5
  8
OBJECT
 10
-657.17978900000003
 20
442.77551399999999
 30
0.0
 11
-656.97343100000001
 21
442.83153399999998
 31
0.0
  0
LINE
  5
F5DE6
  8
OBJECT
 10
-656.97343100000001
 20
442.83153399999998
 30
0.0
 11
-656.76230399999986
 21
442.88761999999991
 31
0.0
  0
LINE
  5
F5DE7
  8
OBJECT
 10
-656.76230399999986
 20
442.88761999999991
 30
0.0
 11
-656.54556200000002
 21
442.94399199999998
 31
0.0
  0
LINE
  5
F5DE8
  8
OBJECT
 10
-656.54556200000002
 20
442.94399199999998
 30
0.0
 11
-656.32236100000034
 21
443.00087200000002
 31
0.0
  0
LINE
  5
F5DE9
  8
OBJECT
 10
-656.32236100000034
 20
443.00087200000002
 30
0.0
 11
-656.09185200000002
 21
443.05848299999991
 31
0.0
  0
LINE
  5
F5DEA
  8
OBJECT
 10
-656.09185200000002
 20
443.05848299999991
 30
0.0
 11
-655.85319199999981
 21
443.11704700000001
 31
0.0
  0
LINE
  5
F5DEB
  8
OBJECT
 10
-655.85319199999981
 20
443.11704700000001
 30
0.0
 11
-655.60553400000003
 21
443.17678599999988
 31
0.0
  0
LINE
  5
F5DEC
  8
OBJECT
 10
-655.60553400000003
 20
443.17678599999988
 30
0.0
 11
-655.34803099999999
 21
443.23792099999991
 31
0.0
  0
LINE
  5
F5DED
  8
OBJECT
 10
-655.34803099999999
 20
443.23792099999991
 30
0.0
 11
-655.07983899999977
 21
443.30067499999979
 31
0.0
  0
LINE
  5
F5DEE
  8
OBJECT
 10
-655.07983899999977
 20
443.30067499999979
 30
0.0
 11
-654.80011100000002
 21
443.36527000000001
 31
0.0
  0
LINE
  5
F5DEF
  8
OBJECT
 10
-654.80011100000002
 20
443.36527000000001
 30
0.0
 11
-654.50800099999981
 21
443.43192800000008
 31
0.0
  0
LINE
  5
F5DF0
  8
OBJECT
 10
-654.50800099999981
 20
443.43192800000008
 30
0.0
 11
-654.32919400000003
 21
443.47238700000003
 31
0.0
  0
LINE
  5
F5DF1
  8
OBJECT
 10
-654.32919400000003
 20
443.47238700000003
 30
0.0
 11
-654.14710100000002
 21
443.51336500000002
 31
0.0
  0
LINE
  5
F5DF2
  8
OBJECT
 10
-654.14710100000002
 20
443.51336500000002
 30
0.0
 11
-653.96306800000002
 21
443.55458299999992
 31
0.0
  0
LINE
  5
F5DF3
  8
OBJECT
 10
-653.96306800000002
 20
443.55458299999992
 30
0.0
 11
-653.77844300000004
 21
443.59575899999999
 31
0.0
  0
LINE
  5
F5DF4
  8
OBJECT
 10
-653.77844300000004
 20
443.59575899999999
 30
0.0
 11
-653.59457199999986
 21
443.63661400000001
 31
0.0
  0
LINE
  5
F5DF5
  8
OBJECT
 10
-653.59457199999986
 20
443.63661400000001
 30
0.0
 11
-653.41280200000006
 21
443.67686600000002
 31
0.0
  0
LINE
  5
F5DF6
  8
OBJECT
 10
-653.41280200000006
 20
443.67686600000002
 30
0.0
 11
-653.23448099999985
 21
443.71623499999998
 31
0.0
  0
LINE
  5
F5DF7
  8
OBJECT
 10
-653.23448099999985
 20
443.71623499999998
 30
0.0
 11
-653.06095400000004
 21
443.75443999999999
 31
0.0
  0
LINE
  5
F5DF8
  8
OBJECT
 10
-653.06095400000004
 20
443.75443999999999
 30
0.0
 11
-652.89356899999996
 21
443.79120099999989
 31
0.0
  0
LINE
  5
F5DF9
  8
OBJECT
 10
-652.89356899999996
 20
443.79120099999989
 30
0.0
 11
-652.73367299999995
 21
443.82623799999999
 31
0.0
  0
LINE
  5
F5DFA
  8
OBJECT
 10
-652.73367299999995
 20
443.82623799999999
 30
0.0
 11
-652.58261300000004
 21
443.85926899999998
 31
0.0
  0
LINE
  5
F5DFB
  8
OBJECT
 10
-652.58261300000004
 20
443.85926899999998
 30
0.0
 11
-652.44173599999999
 21
443.89001499999989
 31
0.0
  0
LINE
  5
F5DFC
  8
OBJECT
 10
-652.44173599999999
 20
443.89001499999989
 30
0.0
 11
-652.31238800000006
 21
443.91819400000003
 31
0.0
  0
LINE
  5
F5DFD
  8
OBJECT
 10
-652.31238800000006
 20
443.91819400000003
 30
0.0
 11
-652.19591599999967
 21
443.94352600000002
 31
0.0
  0
LINE
  5
F5DFE
  8
OBJECT
 10
-652.19591599999967
 20
443.94352600000002
 30
0.0
 11
-652.09366799999998
 21
443.96573000000001
 31
0.0
  0
LINE
  5
F5DFF
  8
OBJECT
 10
-652.09366799999998
 20
443.96573000000001
 30
0.0
 11
-652.00698999999997
 21
443.98452699999979
 31
0.0
  0
LINE
  5
F5E00
  8
OBJECT
 10
-652.00698999999997
 20
443.98452699999979
 30
0.0
 11
-651.93722899999977
 21
443.99963500000001
 31
0.0
  0
LINE
  5
F5E01
  8
OBJECT
 10
-651.93722899999977
 20
443.99963500000001
 30
0.0
 11
-651.88573199999985
 21
444.01077400000003
 31
0.0
  0
LINE
  5
F5E02
  8
OBJECT
 10
-651.88573199999985
 20
444.01077400000003
 30
0.0
 11
-651.85384599999998
 21
444.01766300000003
 31
0.0
  0
LINE
  5
F5E03
  8
OBJECT
 10
-651.85384599999998
 20
444.01766300000003
 30
0.0
 11
-651.84291800000005
 21
444.02002099999987
 31
0.0
  0
LINE
  5
F5E04
  8
OBJECT
 10
-635.06658600000026
 20
446.24468400000001
 30
0.0
 11
-635.06658600000026
 21
453.75023699999991
 31
0.0
  0
LINE
  5
F5E05
  8
OBJECT
 10
-635.06658600000026
 20
453.75023699999991
 30
0.0
 11
-641.56658600000003
 21
457.50301399999989
 31
0.0
  0
LINE
  5
F5E06
  8
OBJECT
 10
-641.56658600000003
 20
457.50301399999989
 30
0.0
 11
-648.06658600000003
 21
453.75023699999991
 31
0.0
  0
LINE
  5
F5E07
  8
OBJECT
 10
-648.06658600000003
 20
453.75023699999991
 30
0.0
 11
-648.06658600000003
 21
446.24468400000001
 31
0.0
  0
LINE
  5
F5E08
  8
OBJECT
 10
-648.06658600000003
 20
446.24468400000001
 30
0.0
 11
-641.56658600000003
 21
442.49190700000003
 31
0.0
  0
LINE
  5
F5E09
  8
OBJECT
 10
-641.56658600000003
 20
442.49190700000003
 30
0.0
 11
-635.06658600000026
 21
446.24468400000001
 31
0.0
  0
CIRCLE
  5
F5E0A
  8
OBJECT
 10
-641.56658600000003
 20
449.99745999999988
 30
0.0
 40
6.5
  0
LINE
  5
F5E0B
  8
OBJECT
 10
-635.06658600000026
 20
501.24468399999989
 30
0.0
 11
-635.06658600000026
 21
508.75023700000003
 31
0.0
  0
LINE
  5
F5E0C
  8
OBJECT
 10
-635.06658600000026
 20
508.75023700000003
 30
0.0
 11
-641.56658600000003
 21
512.50301399999978
 31
0.0
  0
LINE
  5
F5E0D
  8
OBJECT
 10
-641.56658600000003
 20
512.50301399999978
 30
0.0
 11
-648.06658600000003
 21
508.75023700000003
 31
0.0
  0
LINE
  5
F5E0E
  8
OBJECT
 10
-648.06658600000003
 20
508.75023700000003
 30
0.0
 11
-648.06658600000003
 21
501.24468399999989
 31
0.0
  0
LINE
  5
F5E0F
  8
OBJECT
 10
-648.06658600000003
 20
501.24468399999989
 30
0.0
 11
-641.56658600000003
 21
497.4919069999998
 31
0.0
  0
LINE
  5
F5E10
  8
OBJECT
 10
-641.56658600000003
 20
497.4919069999998
 30
0.0
 11
-635.06658600000026
 21
501.24468399999989
 31
0.0
  0
CIRCLE
  5
F5E11
  8
OBJECT
 10
-641.56658600000003
 20
504.99745999999959
 30
0.0
 40
6.5
  0
LINE
  5
F5E12
  8
OBJECT
 10
-418.56658600000009
 20
419.49745999999999
 30
0.0
 11
-412.217108
 21
419.49745999999999
 31
0.0
  0
LINE
  5
F5E13
  8
OBJECT
 10
-418.56658600000009
 20
409.49745999999988
 30
0.0
 11
-412.217108
 21
409.49745999999988
 31
0.0
  0
LINE
  5
F5E14
  8
OBJECT
 10
-432.56658599999997
 20
404.49745999999988
 30
0.0
 11
-432.56658599999997
 21
424.49745999999988
 31
0.0
  0
LINE
  5
F5E15
  8
OBJECT
 10
-442.56658600000009
 20
404.49745999999988
 30
0.0
 11
-432.56658599999997
 21
404.49745999999988
 31
0.0
  0
LINE
  5
F5E16
  8
OBJECT
 10
-442.56658600000009
 20
424.49745999999988
 30
0.0
 11
-432.56658599999997
 21
424.49745999999988
 31
0.0
  0
LINE
  5
F5E17
  8
OBJECT
 10
-378.3784849999999
 20
409.49745999999988
 30
0.0
 11
-388.81710800000002
 21
409.49745999999988
 31
0.0
  0
LINE
  5
F5E18
  8
OBJECT
 10
-378.3784849999999
 20
409.49745999999988
 30
0.0
 11
-377.56658600000009
 21
410.30935899999992
 31
0.0
  0
LINE
  5
F5E19
  8
OBJECT
 10
-377.56658600000009
 20
410.30935899999992
 30
0.0
 11
-377.56658600000009
 21
418.68556100000001
 31
0.0
  0
LINE
  5
F5E1A
  8
OBJECT
 10
-377.56658600000009
 20
418.68556100000001
 30
0.0
 11
-378.3784849999999
 21
419.49745999999999
 31
0.0
  0
LINE
  5
F5E1B
  8
OBJECT
 10
-378.3784849999999
 20
419.49745999999999
 30
0.0
 11
-388.81710800000002
 21
419.49745999999999
 31
0.0
  0
LINE
  5
F5E1C
  8
OBJECT
 10
-378.3784849999999
 20
419.49745999999999
 30
0.0
 11
-378.3784849999999
 21
409.49745999999988
 31
0.0
  0
LINE
  5
F5E1D
  8
OBJECT
 10
-377.56658600000009
 20
418.68556100000001
 30
0.0
 11
-388.81710800000002
 21
418.68556100000001
 31
0.0
  0
LINE
  5
F5E1E
  8
OBJECT
 10
-377.56658600000009
 20
410.30935899999992
 30
0.0
 11
-388.81710800000002
 21
410.30935899999992
 31
0.0
  0
LINE
  5
F5E1F
  8
OBJECT
 10
-442.56658600000009
 20
404.49745999999988
 30
0.0
 11
-442.56658600000009
 21
424.49745999999988
 31
0.0
  0
LINE
  5
F5E20
  8
OBJECT
 10
-440.56658599999997
 20
404.49745999999988
 30
0.0
 11
-440.56658599999997
 21
424.49745999999988
 31
0.0
  0
LINE
  5
F5E21
  8
OBJECT
 10
-432.56658599999997
 20
409.49745999999988
 30
0.0
 11
-432.61739199999982
 21
409.51588299999992
 31
0.0
  0
LINE
  5
F5E22
  8
OBJECT
 10
-432.61739199999982
 20
409.51588299999992
 30
0.0
 11
-432.7627989999998
 21
409.56990399999989
 31
0.0
  0
LINE
  5
F5E23
  8
OBJECT
 10
-432.7627989999998
 20
409.56990399999989
 30
0.0
 11
-432.99228900000003
 21
409.65765199999998
 31
0.0
  0
LINE
  5
F5E24
  8
OBJECT
 10
-432.99228900000003
 20
409.65765199999998
 30
0.0
 11
-433.295344
 21
409.77725799999979
 31
0.0
  0
LINE
  5
F5E25
  8
OBJECT
 10
-433.295344
 20
409.77725799999979
 30
0.0
 11
-433.66144699999978
 21
409.92685199999988
 31
0.0
  0
LINE
  5
F5E26
  8
OBJECT
 10
-433.66144699999978
 20
409.92685199999988
 30
0.0
 11
-434.08007900000013
 21
410.10456199999982
 31
0.0
  0
LINE
  5
F5E27
  8
OBJECT
 10
-434.08007900000013
 20
410.10456199999982
 30
0.0
 11
-434.54072300000013
 21
410.30851999999987
 31
0.0
  0
LINE
  5
F5E28
  8
OBJECT
 10
-434.54072300000013
 20
410.30851999999987
 30
0.0
 11
-435.03286100000003
 21
410.53685299999989
 31
0.0
  0
LINE
  5
F5E29
  8
OBJECT
 10
-435.03286100000003
 20
410.53685299999989
 30
0.0
 11
-435.545975
 21
410.78769399999987
 31
0.0
  0
LINE
  5
F5E2A
  8
OBJECT
 10
-435.545975
 20
410.78769399999987
 30
0.0
 11
-436.06954799999988
 21
411.05916999999988
 31
0.0
  0
LINE
  5
F5E2B
  8
OBJECT
 10
-436.06954799999988
 20
411.05916999999988
 30
0.0
 11
-436.59306099999992
 21
411.34941199999992
 31
0.0
  0
LINE
  5
F5E2C
  8
OBJECT
 10
-436.59306099999992
 20
411.34941199999992
 30
0.0
 11
-437.105998
 21
411.65654999999998
 31
0.0
  0
LINE
  5
F5E2D
  8
OBJECT
 10
-437.105998
 20
411.65654999999998
 30
0.0
 11
-437.59783999999991
 21
411.97871300000003
 31
0.0
  0
LINE
  5
F5E2E
  8
OBJECT
 10
-437.59783999999991
 20
411.97871300000003
 30
0.0
 11
-438.0580690000001
 21
412.314031
 31
0.0
  0
LINE
  5
F5E2F
  8
OBJECT
 10
-438.0580690000001
 20
412.314031
 30
0.0
 11
-438.47616799999992
 21
412.66063400000002
 31
0.0
  0
LINE
  5
F5E30
  8
OBJECT
 10
-438.47616799999992
 20
412.66063400000002
 30
0.0
 11
-438.84161899999998
 21
413.01665100000002
 31
0.0
  0
LINE
  5
F5E31
  8
OBJECT
 10
-438.84161899999998
 20
413.01665100000002
 30
0.0
 11
-439.14390400000002
 21
413.38021300000003
 31
0.0
  0
LINE
  5
F5E32
  8
OBJECT
 10
-439.14390400000002
 20
413.38021300000003
 30
0.0
 11
-439.37250499999988
 21
413.74944799999992
 31
0.0
  0
LINE
  5
F5E33
  8
OBJECT
 10
-439.37250499999988
 20
413.74944799999992
 30
0.0
 11
-439.51690499999989
 21
414.12248799999998
 31
0.0
  0
LINE
  5
F5E34
  8
OBJECT
 10
-439.51690499999989
 20
414.12248799999998
 30
0.0
 11
-439.56658600000009
 21
414.49745999999999
 31
0.0
  0
LINE
  5
F5E35
  8
OBJECT
 10
-439.56658600000009
 20
414.49745999999999
 30
0.0
 11
-439.51508799999999
 21
414.87048399999992
 31
0.0
  0
LINE
  5
F5E36
  8
OBJECT
 10
-439.51508799999999
 20
414.87048399999992
 30
0.0
 11
-439.36989499999999
 21
415.24169699999987
 31
0.0
  0
LINE
  5
F5E37
  8
OBJECT
 10
-439.36989499999999
 20
415.24169699999987
 30
0.0
 11
-439.14142500000003
 21
415.60922799999997
 31
0.0
  0
LINE
  5
F5E38
  8
OBJECT
 10
-439.14142500000003
 20
415.60922799999997
 30
0.0
 11
-438.84009299999963
 21
415.97120199999989
 31
0.0
  0
LINE
  5
F5E39
  8
OBJECT
 10
-438.84009299999963
 20
415.97120199999989
 30
0.0
 11
-438.4763190000001
 21
416.32574799999992
 31
0.0
  0
LINE
  5
F5E3A
  8
OBJECT
 10
-438.4763190000001
 20
416.32574799999992
 30
0.0
 11
-438.06051799999989
 21
416.67099300000001
 31
0.0
  0
LINE
  5
F5E3B
  8
OBJECT
 10
-438.06051799999989
 20
416.67099300000001
 30
0.0
 11
-437.6031069999998
 21
417.005064
 31
0.0
  0
LINE
  5
F5E3C
  8
OBJECT
 10
-437.6031069999998
 20
417.005064
 30
0.0
 11
-437.11450400000001
 21
417.32608699999997
 31
0.0
  0
LINE
  5
F5E3D
  8
OBJECT
 10
-437.11450400000001
 20
417.32608699999997
 30
0.0
 11
-436.60512599999981
 21
417.63219099999992
 31
0.0
  0
LINE
  5
F5E3E
  8
OBJECT
 10
-436.60512599999981
 20
417.63219099999992
 30
0.0
 11
-436.08538999999979
 21
417.92150299999997
 31
0.0
  0
LINE
  5
F5E3F
  8
OBJECT
 10
-436.08538999999979
 20
417.92150299999997
 30
0.0
 11
-435.56571299999979
 21
418.1921489999998
 31
0.0
  0
LINE
  5
F5E40
  8
OBJECT
 10
-435.56571299999979
 20
418.1921489999998
 30
0.0
 11
-435.056512
 21
418.44225699999993
 31
0.0
  0
LINE
  5
F5E41
  8
OBJECT
 10
-435.056512
 20
418.44225699999993
 30
0.0
 11
-434.56820299999993
 21
418.66995500000002
 31
0.0
  0
LINE
  5
F5E42
  8
OBJECT
 10
-434.56820299999993
 20
418.66995500000002
 30
0.0
 11
-434.11120499999993
 21
418.87336899999991
 31
0.0
  0
LINE
  5
F5E43
  8
OBJECT
 10
-434.11120499999993
 20
418.87336899999991
 30
0.0
 11
-433.69593399999991
 21
419.05062699999991
 31
0.0
  0
LINE
  5
F5E44
  8
OBJECT
 10
-433.69593399999991
 20
419.05062699999991
 30
0.0
 11
-433.33280799999989
 21
419.19985500000001
 31
0.0
  0
LINE
  5
F5E45
  8
OBJECT
 10
-433.33280799999989
 20
419.19985500000001
 30
0.0
 11
-433.03224299999982
 21
419.31918200000001
 31
0.0
  0
LINE
  5
F5E46
  8
OBJECT
 10
-433.03224299999982
 20
419.31918200000001
 30
0.0
 11
-432.80465600000002
 21
419.40673399999997
 31
0.0
  0
LINE
  5
F5E47
  8
OBJECT
 10
-432.80465600000002
 20
419.40673399999997
 30
0.0
 11
-432.66046499999987
 21
419.46063900000001
 31
0.0
  0
LINE
  5
F5E48
  8
OBJECT
 10
-432.66046499999987
 20
419.46063900000001
 30
0.0
 11
-432.61008600000008
 21
419.47902299999993
 31
0.0
  0
LINE
  5
F5E49
  8
OBJECT
 10
-389.54592400000001
 20
549.73506499999985
 30
0.0
 11
-397.21710800000011
 21
549.73506499999985
 31
0.0
  0
LINE
  5
F5E4A
  8
OBJECT
 10
-397.21710800000011
 20
549.73506499999985
 30
0.0
 11
-397.21710800000011
 21
531.25985599999967
 31
0.0
  0
LINE
  5
F5E4B
  8
OBJECT
 10
-397.21710800000011
 20
531.25985599999967
 30
0.0
 11
-389.54592400000001
 21
531.25985599999967
 31
0.0
  0
LINE
  5
F5E4C
  8
OBJECT
 10
-397.21710800000011
 20
545.11626299999978
 30
0.0
 11
-389.54592400000001
 21
545.11626299999978
 31
0.0
  0
LINE
  5
F5E4D
  8
OBJECT
 10
-397.21710800000011
 20
535.87865800000009
 30
0.0
 11
-389.54592400000001
 21
535.87865800000009
 31
0.0
  0
ARC
  5
F5E4E
  8
OBJECT
 10
-403.81710799999979
 20
540.49746000000005
 30
0.0
 40
15.0
 50
342.06606699999929
 51
17.933933000000739
  0
ARC
  5
F5E4F
  8
OBJECT
 10
-392.84041400000001
 20
533.56925699999988
 30
0.0
 40
4.0233059999999981
 50
324.9699640000029
 51
35.030035999997089
  0
ARC
  5
F5E50
  8
OBJECT
 10
-392.84041400000001
 20
547.42566399999998
 30
0.0
 40
4.0233059999999981
 50
324.9699640000029
 51
35.030035999997089
  0
LINE
  5
F5E51
  8
OBJECT
 10
-388.81710800000002
 20
533.56925699999988
 30
0.0
 11
-388.81710800000002
 21
547.42566399999998
 31
0.0
  0
LINE
  5
F5E52
  8
OBJECT
 10
-432.56658599999997
 20
545.49746000000005
 30
0.0
 11
-432.61739199999982
 21
545.47903799999995
 31
0.0
  0
LINE
  5
F5E53
  8
OBJECT
 10
-432.61739199999982
 20
545.47903799999995
 30
0.0
 11
-432.7627989999998
 21
545.42501700000003
 31
0.0
  0
LINE
  5
F5E54
  8
OBJECT
 10
-432.7627989999998
 20
545.42501700000003
 30
0.0
 11
-432.99228900000003
 21
545.33726899999999
 31
0.0
  0
LINE
  5
F5E55
  8
OBJECT
 10
-432.99228900000003
 20
545.33726899999999
 30
0.0
 11
-433.295344
 21
545.21766300000002
 31
0.0
  0
LINE
  5
F5E56
  8
OBJECT
 10
-433.295344
 20
545.21766300000002
 30
0.0
 11
-433.66144699999978
 21
545.06806899999958
 31
0.0
  0
LINE
  5
F5E57
  8
OBJECT
 10
-433.66144699999978
 20
545.06806899999958
 30
0.0
 11
-434.08007900000013
 21
544.89035899999965
 31
0.0
  0
LINE
  5
F5E58
  8
OBJECT
 10
-434.08007900000013
 20
544.89035899999965
 30
0.0
 11
-434.54072300000013
 21
544.68640099999959
 31
0.0
  0
LINE
  5
F5E59
  8
OBJECT
 10
-434.54072300000013
 20
544.68640099999959
 30
0.0
 11
-435.03286100000003
 21
544.45806700000003
 31
0.0
  0
LINE
  5
F5E5A
  8
OBJECT
 10
-435.03286100000003
 20
544.45806700000003
 30
0.0
 11
-435.545975
 21
544.20722699999965
 31
0.0
  0
LINE
  5
F5E5B
  8
OBJECT
 10
-435.545975
 20
544.20722699999965
 30
0.0
 11
-436.06954799999988
 21
543.93575099999975
 31
0.0
  0
LINE
  5
F5E5C
  8
OBJECT
 10
-436.06954799999988
 20
543.93575099999975
 30
0.0
 11
-436.59306099999992
 21
543.64550899999995
 31
0.0
  0
LINE
  5
F5E5D
  8
OBJECT
 10
-436.59306099999992
 20
543.64550899999995
 30
0.0
 11
-437.105998
 21
543.33837100000005
 31
0.0
  0
LINE
  5
F5E5E
  8
OBJECT
 10
-437.105998
 20
543.33837100000005
 30
0.0
 11
-437.59783999999991
 21
543.01620799999966
 31
0.0
  0
LINE
  5
F5E5F
  8
OBJECT
 10
-437.59783999999991
 20
543.01620799999966
 30
0.0
 11
-438.0580690000001
 21
542.68088999999998
 31
0.0
  0
LINE
  5
F5E60
  8
OBJECT
 10
-438.0580690000001
 20
542.68088999999998
 30
0.0
 11
-438.47616799999992
 21
542.3342869999999
 31
0.0
  0
LINE
  5
F5E61
  8
OBJECT
 10
-438.47616799999992
 20
542.3342869999999
 30
0.0
 11
-438.84161899999998
 21
541.97826999999995
 31
0.0
  0
LINE
  5
F5E62
  8
OBJECT
 10
-438.84161899999998
 20
541.97826999999995
 30
0.0
 11
-439.14390400000002
 21
541.61470799999995
 31
0.0
  0
LINE
  5
F5E63
  8
OBJECT
 10
-439.14390400000002
 20
541.61470799999995
 30
0.0
 11
-439.37250499999988
 21
541.24547299999983
 31
0.0
  0
LINE
  5
F5E64
  8
OBJECT
 10
-439.37250499999988
 20
541.24547299999983
 30
0.0
 11
-439.51690499999989
 21
540.872433
 31
0.0
  0
LINE
  5
F5E65
  8
OBJECT
 10
-439.51690499999989
 20
540.872433
 30
0.0
 11
-439.56658600000009
 21
540.49746000000005
 31
0.0
  0
LINE
  5
F5E66
  8
OBJECT
 10
-439.56658600000009
 20
540.49746000000005
 30
0.0
 11
-439.51508799999999
 21
540.12443699999994
 31
0.0
  0
LINE
  5
F5E67
  8
OBJECT
 10
-439.51508799999999
 20
540.12443699999994
 30
0.0
 11
-439.36989499999999
 21
539.75322300000005
 31
0.0
  0
LINE
  5
F5E68
  8
OBJECT
 10
-439.36989499999999
 20
539.75322300000005
 30
0.0
 11
-439.14142500000003
 21
539.38569299999995
 31
0.0
  0
LINE
  5
F5E69
  8
OBJECT
 10
-439.14142500000003
 20
539.38569299999995
 30
0.0
 11
-438.84009299999963
 21
539.02371899999991
 31
0.0
  0
LINE
  5
F5E6A
  8
OBJECT
 10
-438.84009299999963
 20
539.02371899999991
 30
0.0
 11
-438.4763190000001
 21
538.66917299999989
 31
0.0
  0
LINE
  5
F5E6B
  8
OBJECT
 10
-438.4763190000001
 20
538.66917299999989
 30
0.0
 11
-438.06051799999989
 21
538.32392799999968
 31
0.0
  0
LINE
  5
F5E6C
  8
OBJECT
 10
-438.06051799999989
 20
538.32392799999968
 30
0.0
 11
-437.6031069999998
 21
537.98985700000003
 31
0.0
  0
LINE
  5
F5E6D
  8
OBJECT
 10
-437.6031069999998
 20
537.98985700000003
 30
0.0
 11
-437.11450400000001
 21
537.66883399999995
 31
0.0
  0
LINE
  5
F5E6E
  8
OBJECT
 10
-437.11450400000001
 20
537.66883399999995
 30
0.0
 11
-436.60512599999981
 21
537.36273000000006
 31
0.0
  0
LINE
  5
F5E6F
  8
OBJECT
 10
-436.60512599999981
 20
537.36273000000006
 30
0.0
 11
-436.08538999999979
 21
537.07341799999995
 31
0.0
  0
LINE
  5
F5E70
  8
OBJECT
 10
-436.08538999999979
 20
537.07341799999995
 30
0.0
 11
-435.56571299999979
 21
536.80277199999966
 31
0.0
  0
LINE
  5
F5E71
  8
OBJECT
 10
-435.56571299999979
 20
536.80277199999966
 30
0.0
 11
-435.056512
 21
536.55266299999971
 31
0.0
  0
LINE
  5
F5E72
  8
OBJECT
 10
-435.056512
 20
536.55266299999971
 30
0.0
 11
-434.56820299999993
 21
536.3249659999999
 31
0.0
  0
LINE
  5
F5E73
  8
OBJECT
 10
-434.56820299999993
 20
536.3249659999999
 30
0.0
 11
-434.11120499999993
 21
536.12155199999984
 31
0.0
  0
LINE
  5
F5E74
  8
OBJECT
 10
-434.11120499999993
 20
536.12155199999984
 30
0.0
 11
-433.69593399999991
 21
535.9442939999999
 31
0.0
  0
LINE
  5
F5E75
  8
OBJECT
 10
-433.69593399999991
 20
535.9442939999999
 30
0.0
 11
-433.33280799999989
 21
535.79506599999991
 31
0.0
  0
LINE
  5
F5E76
  8
OBJECT
 10
-433.33280799999989
 20
535.79506599999991
 30
0.0
 11
-433.03224299999982
 21
535.67573899999991
 31
0.0
  0
LINE
  5
F5E77
  8
OBJECT
 10
-433.03224299999982
 20
535.67573899999991
 30
0.0
 11
-432.80465600000002
 21
535.58818700000006
 31
0.0
  0
LINE
  5
F5E78
  8
OBJECT
 10
-432.80465600000002
 20
535.58818700000006
 30
0.0
 11
-432.66046499999987
 21
535.53428199999985
 31
0.0
  0
LINE
  5
F5E79
  8
OBJECT
 10
-432.66046499999987
 20
535.53428199999985
 30
0.0
 11
-432.61008600000008
 21
535.51589799999965
 31
0.0
  0
LINE
  5
F5E7A
  8
OBJECT
 10
-440.56658599999997
 20
550.49745999999971
 30
0.0
 11
-440.56658599999997
 21
530.49745999999982
 31
0.0
  0
LINE
  5
F5E7B
  8
OBJECT
 10
-442.56658600000009
 20
550.49745999999971
 30
0.0
 11
-442.56658600000009
 21
530.49745999999982
 31
0.0
  0
LINE
  5
F5E7C
  8
OBJECT
 10
-377.56658600000009
 20
544.68556099999989
 30
0.0
 11
-388.81710800000002
 21
544.68556099999989
 31
0.0
  0
LINE
  5
F5E7D
  8
OBJECT
 10
-377.56658600000009
 20
536.30935899999997
 30
0.0
 11
-388.81710800000002
 21
536.30935899999997
 31
0.0
  0
LINE
  5
F5E7E
  8
OBJECT
 10
-378.3784849999999
 20
535.49746000000005
 30
0.0
 11
-378.3784849999999
 21
545.49746000000005
 31
0.0
  0
LINE
  5
F5E7F
  8
OBJECT
 10
-378.3784849999999
 20
535.49746000000005
 30
0.0
 11
-388.81710800000002
 21
535.49746000000005
 31
0.0
  0
LINE
  5
F5E80
  8
OBJECT
 10
-377.56658600000009
 20
536.30935899999997
 30
0.0
 11
-378.3784849999999
 21
535.49746000000005
 31
0.0
  0
LINE
  5
F5E81
  8
OBJECT
 10
-377.56658600000009
 20
544.68556099999989
 30
0.0
 11
-377.56658600000009
 21
536.30935899999997
 31
0.0
  0
LINE
  5
F5E82
  8
OBJECT
 10
-378.3784849999999
 20
545.49746000000005
 30
0.0
 11
-377.56658600000009
 21
544.68556099999989
 31
0.0
  0
LINE
  5
F5E83
  8
OBJECT
 10
-378.3784849999999
 20
545.49746000000005
 30
0.0
 11
-388.81710800000002
 21
545.49746000000005
 31
0.0
  0
LINE
  5
F5E84
  8
OBJECT
 10
-442.56658600000009
 20
530.49745999999982
 30
0.0
 11
-432.56658599999997
 21
530.49745999999982
 31
0.0
  0
LINE
  5
F5E85
  8
OBJECT
 10
-442.56658600000009
 20
550.49745999999971
 30
0.0
 11
-432.56658599999997
 21
550.49745999999971
 31
0.0
  0
LINE
  5
F5E86
  8
OBJECT
 10
-432.56658599999997
 20
550.49745999999971
 30
0.0
 11
-432.56658599999997
 21
530.49745999999982
 31
0.0
  0
LINE
  5
F5E87
  8
OBJECT
 10
-418.56658600000009
 20
545.49746000000005
 30
0.0
 11
-412.217108
 21
545.49746000000005
 31
0.0
  0
LINE
  5
F5E88
  8
OBJECT
 10
-418.56658600000009
 20
535.49746000000005
 30
0.0
 11
-412.217108
 21
535.49746000000005
 31
0.0
  0
LINE
  5
F5E99
  8
OBJECT
 10
-529.07213899999977
 20
68.698098999999985
 30
0.0
 11
-529.07213899999977
 21
64.0
 31
0.0
  0
LINE
  5
F5E9A
  8
OBJECT
 10
-529.07213899999977
 20
64.0
 30
0.0
 11
-514.06103199999995
 21
64.0
 31
0.0
  0
LINE
  5
F5E9B
  8
OBJECT
 10
-514.06103199999995
 20
64.0
 30
0.0
 11
-514.06103199999995
 21
68.698098999999985
 31
0.0
  0
LINE
  5
F5E9C
  8
OBJECT
 10
-517.81380899999999
 20
68.698098999999985
 30
0.0
 11
-517.81380899999999
 21
64.0
 31
0.0
  0
LINE
  5
F5E9D
  8
OBJECT
 10
-525.31936300000007
 20
68.698098999999985
 30
0.0
 11
-525.31936300000007
 21
64.0
 31
0.0
  0
ARC
  5
F5E9E
  8
OBJECT
 10
-521.56658600000014
 20
57.299999999999997
 30
0.0
 40
12.0
 50
71.776086000002124
 51
108.2239139999979
  0
ARC
  5
F5E9F
  8
OBJECT
 10
-515.93742100000009
 20
66.074286999999984
 30
0.0
 40
3.2257129999999989
 50
54.429989999999862
 51
125.5700100000001
  0
ARC
  5
F5EA0
  8
OBJECT
 10
-527.19575099999997
 20
66.074286999999984
 30
0.0
 40
3.2257129999999989
 50
54.429989999999862
 51
125.5700100000001
  0
LINE
  5
F5EA1
  8
OBJECT
 10
-515.93742100000009
 20
69.300000000000011
 30
0.0
 11
-527.19575099999997
 21
69.300000000000011
 31
0.0
  0
LINE
  5
F5EA2
  8
OBJECT
 10
-496.56658599999997
 20
58.0
 30
0.0
 11
-496.56658599999997
 21
64.0
 31
0.0
  0
LINE
  5
F5EA3
  8
OBJECT
 10
-496.56658599999997
 20
64.0
 30
0.0
 11
-546.56658600000014
 21
64.0
 31
0.0
  0
LINE
  5
F5EA4
  8
OBJECT
 10
-546.56658600000014
 20
58.0
 30
0.0
 11
-546.56658600000014
 21
64.0
 31
0.0
  0
LINE
  5
F5EA5
  8
OBJECT
 10
-496.56658599999997
 20
58.0
 30
0.0
 11
-546.56658600000014
 21
58.0
 31
0.0
  0
LINE
  5
F5EA6
  8
OBJECT
 10
-496.56658599999997
 20
58.0
 30
0.0
 11
-496.56658599999997
 21
55.0
 31
0.0
  0
LINE
  5
F5EA7
  8
OBJECT
 10
-546.56658600000014
 20
58.0
 30
0.0
 11
-496.56658599999997
 21
58.0
 31
0.0
  0
LINE
  5
F5EA8
  8
OBJECT
 10
-546.56658600000014
 20
55.0
 30
0.0
 11
-546.56658600000014
 21
58.0
 31
0.0
  0
LINE
  5
F5EA9
  8
OBJECT
 10
-496.56658599999997
 20
55.0
 30
0.0
 11
-546.56658600000014
 21
55.0
 31
0.0
  0
CIRCLE
  5
F5ECA
  8
OBJECT
 10
-521.56658600000014
 20
449.99745999999988
 30
0.0
 40
6.5
  0
LINE
  5
F5ECB
  8
OBJECT
 10
-521.56658600000014
 20
442.49190700000003
 30
0.0
 11
-515.06658600000014
 21
446.24468400000001
 31
0.0
  0
LINE
  5
F5ECC
  8
OBJECT
 10
-528.06658600000014
 20
446.24468400000001
 30
0.0
 11
-521.56658600000014
 21
442.49190700000003
 31
0.0
  0
LINE
  5
F5ECD
  8
OBJECT
 10
-528.06658600000014
 20
453.75023699999991
 30
0.0
 11
-528.06658600000014
 21
446.24468400000001
 31
0.0
  0
LINE
  5
F5ECE
  8
OBJECT
 10
-521.56658600000014
 20
457.50301399999989
 30
0.0
 11
-528.06658600000014
 21
453.75023699999991
 31
0.0
  0
LINE
  5
F5ECF
  8
OBJECT
 10
-515.06658600000014
 20
453.75023699999991
 30
0.0
 11
-521.56658600000014
 21
457.50301399999989
 31
0.0
  0
LINE
  5
F5ED0
  8
OBJECT
 10
-515.06658600000014
 20
446.24468400000001
 30
0.0
 11
-515.06658600000014
 21
453.75023699999991
 31
0.0
  0
CIRCLE
  5
F5ED1
  8
OBJECT
 10
-521.56658600000014
 20
504.99745999999959
 30
0.0
 40
6.5
  0
LINE
  5
F5ED2
  8
OBJECT
 10
-521.56658600000014
 20
497.4919069999998
 30
0.0
 11
-515.06658600000014
 21
501.24468399999989
 31
0.0
  0
LINE
  5
F5ED3
  8
OBJECT
 10
-528.06658600000014
 20
501.24468399999989
 30
0.0
 11
-521.56658600000014
 21
497.4919069999998
 31
0.0
  0
LINE
  5
F5ED4
  8
OBJECT
 10
-528.06658600000014
 20
508.75023700000003
 30
0.0
 11
-528.06658600000014
 21
501.24468399999989
 31
0.0
  0
LINE
  5
F5ED5
  8
OBJECT
 10
-521.56658600000014
 20
512.50301399999978
 30
0.0
 11
-528.06658600000014
 21
508.75023700000003
 31
0.0
  0
LINE
  5
F5ED6
  8
OBJECT
 10
-515.06658600000014
 20
508.75023700000003
 30
0.0
 11
-521.56658600000014
 21
512.50301399999978
 31
0.0
  0
LINE
  5
F5ED7
  8
OBJECT
 10
-515.06658600000014
 20
501.24468399999989
 30
0.0
 11
-515.06658600000014
 21
508.75023700000003
 31
0.0
  0
LINE
  5
F5F20
  8
OBJECT
 10
-136.1371079999999
 20
-4.0
 30
0.0
 11
-130.0
 21
-4.0
 31
0.0
  0
LINE
  5
F5F21
  8
OBJECT
 10
-136.1371079999999
 20
-3.323417999999974
 30
0.0
 11
-130.0
 21
-3.323417999999974
 31
0.0
  0
LINE
  5
F5F22
  8
OBJECT
 10
-136.1371079999999
 20
3.323417000000005
 30
0.0
 11
-130.0
 21
3.323417000000005
 31
0.0
  0
LINE
  5
F5F23
  8
OBJECT
 10
-136.1371079999999
 20
4.0
 30
0.0
 11
-130.0
 21
4.0
 31
0.0
  0
LINE
  5
F5F24
  8
OBJECT
 10
-163.0
 20
3.323417000000005
 30
0.0
 11
-155.9371079999998
 21
3.323417000000005
 31
0.0
  0
LINE
  5
F5F25
  8
OBJECT
 10
-163.0
 20
-3.323417999999974
 30
0.0
 11
-155.9371079999998
 21
-3.323417999999974
 31
0.0
  0
LINE
  5
F5F26
  8
OBJECT
 10
-162.32341699999981
 20
-4.0
 30
0.0
 11
-162.32341699999981
 21
4.0
 31
0.0
  0
LINE
  5
F5F27
  8
OBJECT
 10
-162.32341699999981
 20
-4.0
 30
0.0
 11
-155.9371079999998
 21
-4.0
 31
0.0
  0
LINE
  5
F5F28
  8
OBJECT
 10
-163.0
 20
-3.323417999999974
 30
0.0
 11
-162.32341699999981
 21
-4.0
 31
0.0
  0
LINE
  5
F5F29
  8
OBJECT
 10
-163.0
 20
3.323417000000005
 30
0.0
 11
-163.0
 21
-3.323417999999974
 31
0.0
  0
LINE
  5
F5F2A
  8
OBJECT
 10
-162.32341699999981
 20
4.0
 30
0.0
 11
-163.0
 21
3.323417000000005
 31
0.0
  0
LINE
  5
F5F2B
  8
OBJECT
 10
-162.32341699999981
 20
4.0
 30
0.0
 11
-155.9371079999998
 21
4.0
 31
0.0
  0
LINE
  5
F5F2C
  8
OBJECT
 10
-112.7
 20
-5.6291650000000004
 30
0.0
 11
-112.7
 21
5.6291650000000004
 31
0.0
  0
ARC
  5
F5F2D
  8
OBJECT
 10
-115.9257119999999
 20
5.6291650000000004
 30
0.0
 40
3.2257129999999989
 50
324.42999000000032
 51
35.57000999999967
  0
ARC
  5
F5F2E
  8
OBJECT
 10
-115.9257119999999
 20
-5.6291650000000004
 30
0.0
 40
3.2257129999999989
 50
324.42999000000032
 51
35.57000999999967
  0
ARC
  5
F5F2F
  8
OBJECT
 10
-124.7
 20
0.0
 30
0.0
 40
12.0
 50
341.77608599999962
 51
18.223914000000448
  0
LINE
  5
F5F30
  8
OBJECT
 10
-113.3018999999999
 20
3.7527759999999959
 30
0.0
 11
-118.0
 21
3.7527759999999959
 31
0.0
  0
LINE
  5
F5F31
  8
OBJECT
 10
-113.3018999999999
 20
-3.7527769999999792
 30
0.0
 11
-118.0
 21
-3.7527769999999792
 31
0.0
  0
LINE
  5
F5F32
  8
OBJECT
 10
-118.0
 20
-7.5055540000000169
 30
0.0
 11
-113.3018999999999
 21
-7.5055540000000169
 31
0.0
  0
LINE
  5
F5F33
  8
OBJECT
 10
-118.0
 20
7.5055530000000061
 30
0.0
 11
-118.0
 21
-7.5055540000000169
 31
0.0
  0
LINE
  5
F5F34
  8
OBJECT
 10
-113.3018999999999
 20
7.5055530000000061
 30
0.0
 11
-118.0
 21
7.5055530000000061
 31
0.0
  0
LINE
  5
F5F35
  8
OBJECT
 10
-155.9371079999998
 20
-5.6291650000000004
 30
0.0
 11
-155.9371079999998
 21
5.6291650000000004
 31
0.0
  0
ARC
  5
F5F36
  8
OBJECT
 10
-152.71139599999981
 20
5.6291650000000004
 30
0.0
 40
3.2257129999999989
 50
144.42999000000029
 51
215.57000999999971
  0
ARC
  5
F5F37
  8
OBJECT
 10
-152.71139599999981
 20
-5.6291650000000004
 30
0.0
 40
3.2257129999999989
 50
144.42999000000029
 51
215.57000999999971
  0
ARC
  5
F5F38
  8
OBJECT
 10
-143.9371079999998
 20
0.0
 30
0.0
 40
12.0
 50
161.77608599999951
 51
198.22391400000041
  0
LINE
  5
F5F39
  8
OBJECT
 10
-149.1371079999999
 20
-3.7527769999999792
 30
0.0
 11
-155.33520799999991
 21
-3.7527769999999792
 31
0.0
  0
LINE
  5
F5F3A
  8
OBJECT
 10
-149.1371079999999
 20
3.7527759999999959
 30
0.0
 11
-155.33520799999991
 21
3.7527759999999959
 31
0.0
  0
LINE
  5
F5F3B
  8
OBJECT
 10
-149.1371079999999
 20
-7.5055540000000169
 30
0.0
 11
-155.33520799999991
 21
-7.5055540000000169
 31
0.0
  0
LINE
  5
F5F3C
  8
OBJECT
 10
-149.1371079999999
 20
7.5055530000000061
 30
0.0
 11
-149.1371079999999
 21
-7.5055540000000169
 31
0.0
  0
LINE
  5
F5F3D
  8
OBJECT
 10
-155.33520799999991
 20
7.5055530000000061
 30
0.0
 11
-149.1371079999999
 21
7.5055530000000061
 31
0.0
  0
LINE
  5
F5F3E
  8
OBJECT
 10
-33.12916500000005
 20
69.300000000000011
 30
0.0
 11
-21.870833999999832
 21
69.300000000000011
 31
0.0
  0
ARC
  5
F5F3F
  8
OBJECT
 10
-21.870833999999832
 20
66.074286999999984
 30
0.0
 40
3.2257129999999989
 50
54.429989999999862
 51
125.5700100000001
  0
ARC
  5
F5F40
  8
OBJECT
 10
-33.12916500000005
 20
66.074286999999984
 30
0.0
 40
3.2257129999999989
 50
54.429989999999862
 51
125.5700100000001
  0
ARC
  5
F5F41
  8
OBJECT
 10
-27.5
 20
57.299999999999997
 30
0.0
 40
12.0
 50
71.776086000002124
 51
108.2239139999979
  0
LINE
  5
F5F42
  8
OBJECT
 10
-23.74722300000008
 20
68.698098999999985
 30
0.0
 11
-23.74722300000008
 21
64.0
 31
0.0
  0
LINE
  5
F5F43
  8
OBJECT
 10
-31.252775999999809
 20
68.698098999999985
 30
0.0
 11
-31.252775999999809
 21
64.0
 31
0.0
  0
LINE
  5
F5F44
  8
OBJECT
 10
-35.005552999999971
 20
64.0
 30
0.0
 11
-35.005552999999971
 21
68.698098999999985
 31
0.0
  0
LINE
  5
F5F45
  8
OBJECT
 10
-19.994445999999918
 20
64.0
 30
0.0
 11
-35.005552999999971
 21
64.0
 31
0.0
  0
LINE
  5
F5F46
  8
OBJECT
 10
-19.994445999999918
 20
68.698098999999985
 30
0.0
 11
-19.994445999999918
 21
64.0
 31
0.0
  0
LINE
  5
F5F47
  8
OBJECT
 10
35.005554000000082
 20
68.698098999999985
 30
0.0
 11
35.005554000000082
 21
64.0
 31
0.0
  0
LINE
  5
F5F48
  8
OBJECT
 10
35.005554000000082
 20
64.0
 30
0.0
 11
19.99444700000004
 21
64.0
 31
0.0
  0
LINE
  5
F5F49
  8
OBJECT
 10
19.99444700000004
 20
64.0
 30
0.0
 11
19.99444700000004
 21
68.698098999999985
 31
0.0
  0
LINE
  5
F5F4A
  8
OBJECT
 10
23.747224000000191
 20
68.698098999999985
 30
0.0
 11
23.747224000000191
 21
64.0
 31
0.0
  0
LINE
  5
F5F4B
  8
OBJECT
 10
31.252776999999931
 20
68.698098999999985
 30
0.0
 11
31.252776999999931
 21
64.0
 31
0.0
  0
ARC
  5
F5F4C
  8
OBJECT
 10
27.5
 20
57.299999999999997
 30
0.0
 40
12.0
 50
71.776086000002124
 51
108.2239139999979
  0
ARC
  5
F5F4D
  8
OBJECT
 10
21.870834999999929
 20
66.074286999999984
 30
0.0
 40
3.2257129999999989
 50
54.429989999999862
 51
125.5700100000001
  0
ARC
  5
F5F4E
  8
OBJECT
 10
33.129166000000168
 20
66.074286999999984
 30
0.0
 40
3.2257129999999989
 50
54.429989999999862
 51
125.5700100000001
  0
LINE
  5
F5F4F
  8
OBJECT
 10
21.870834999999929
 20
69.300000000000011
 30
0.0
 11
33.129166000000168
 21
69.300000000000011
 31
0.0
  0
LINE
  5
F5F50
  8
OBJECT
 10
-37.5
 20
64.0
 30
0.0
 11
-37.5
 21
58.0
 31
0.0
  0
LINE
  5
F5F51
  8
OBJECT
 10
37.5
 20
64.0
 30
0.0
 11
-37.5
 21
64.0
 31
0.0
  0
LINE
  5
F5F52
  8
OBJECT
 10
37.5
 20
58.0
 30
0.0
 11
37.5
 21
64.0
 31
0.0
  0
LINE
  5
F5F53
  8
OBJECT
 10
-37.5
 20
58.0
 30
0.0
 11
-21.908902000000118
 21
58.0
 31
0.0
  0
LINE
  5
F5F54
  8
OBJECT
 10
21.908903000000009
 20
58.0
 30
0.0
 11
37.5
 21
58.0
 31
0.0
  0
CIRCLE
  5
F5F55
  8
OBJECT
 10
63.0
 20
0.0
 30
0.0
 40
4.1881009999999987
  0
CIRCLE
  5
F5F56
  8
OBJECT
 10
63.0
 20
0.0
 30
0.0
 40
5.0
  0
CIRCLE
  5
F5F57
  8
OBJECT
 10
63.0
 20
0.0
 30
0.0
 40
8.0
  0
LINE
  5
F5F58
  8
OBJECT
 10
58.381197999999799
 20
8.0
 30
0.0
 11
53.762396000000066
 21
0.0
 31
0.0
  0
LINE
  5
F5F59
  8
OBJECT
 10
67.618803000000071
 20
8.0
 30
0.0
 11
58.381197999999799
 21
8.0
 31
0.0
  0
LINE
  5
F5F5A
  8
OBJECT
 10
72.23760500000003
 20
0.0
 30
0.0
 11
67.618803000000071
 21
8.0
 31
0.0
  0
LINE
  5
F5F5B
  8
OBJECT
 10
67.618803000000071
 20
-8.0
 30
0.0
 11
72.23760500000003
 21
0.0
 31
0.0
  0
LINE
  5
F5F5C
  8
OBJECT
 10
58.381197999999799
 20
-8.0
 30
0.0
 11
67.618803000000071
 21
-8.0
 31
0.0
  0
LINE
  5
F5F5D
  8
OBJECT
 10
53.762396000000066
 20
0.0
 30
0.0
 11
58.381197999999799
 21
-8.0
 31
0.0
  0
CIRCLE
  5
F5F5E
  8
OBJECT
 10
-63.0
 20
0.0
 30
0.0
 40
4.1881009999999987
  0
CIRCLE
  5
F5F5F
  8
OBJECT
 10
-63.0
 20
0.0
 30
0.0
 40
5.0
  0
CIRCLE
  5
F5F60
  8
OBJECT
 10
-63.0
 20
0.0
 30
0.0
 40
8.0
  0
LINE
  5
F5F61
  8
OBJECT
 10
-67.618802000000187
 20
8.0
 30
0.0
 11
-72.237603999999919
 21
0.0
 31
0.0
  0
LINE
  5
F5F62
  8
OBJECT
 10
-58.381196999999922
 20
8.0
 30
0.0
 11
-67.618802000000187
 21
8.0
 31
0.0
  0
LINE
  5
F5F63
  8
OBJECT
 10
-53.762394999999962
 20
0.0
 30
0.0
 11
-58.381196999999922
 21
8.0
 31
0.0
  0
LINE
  5
F5F64
  8
OBJECT
 10
-58.381196999999922
 20
-8.0
 30
0.0
 11
-53.762394999999962
 21
0.0
 31
0.0
  0
LINE
  5
F5F65
  8
OBJECT
 10
-67.618802000000187
 20
-8.0
 30
0.0
 11
-58.381196999999922
 21
-8.0
 31
0.0
  0
LINE
  5
F5F66
  8
OBJECT
 10
-72.237603999999919
 20
0.0
 30
0.0
 11
-67.618802000000187
 21
-8.0
 31
0.0
  0
LINE
  5
F5F67
  8
OBJECT
 10
-524.06103199999995
 20
322.16225200000002
 30
0.0
 11
-524.06103199999995
 21
328.36035199999998
 31
0.0
  0
LINE
  5
F5F68
  8
OBJECT
 10
-524.06103199999995
 20
328.36035199999998
 30
0.0
 11
-539.07213899999965
 21
328.36035199999998
 31
0.0
  0
LINE
  5
F5F69
  8
OBJECT
 10
-539.07213899999965
 20
328.36035199999998
 30
0.0
 11
-539.07213899999965
 21
322.16225200000002
 31
0.0
  0
LINE
  5
F5F6A
  8
OBJECT
 10
-527.81380899999976
 20
328.36035199999998
 30
0.0
 11
-527.81380899999976
 21
322.16225200000002
 31
0.0
  0
LINE
  5
F5F6B
  8
OBJECT
 10
-535.31936299999995
 20
328.36035199999998
 30
0.0
 11
-535.31936299999995
 21
322.16225200000002
 31
0.0
  0
ARC
  5
F5F6C
  8
OBJECT
 10
-531.56658600000014
 20
333.56035200000002
 30
0.0
 40
12.0
 50
251.7760860000021
 51
288.22391399999788
  0
ARC
  5
F5F6D
  8
OBJECT
 10
-537.19575099999986
 20
324.78606400000001
 30
0.0
 40
3.2257129999999989
 50
234.42998999999989
 51
305.57001000000008
  0
ARC
  5
F5F6E
  8
OBJECT
 10
-525.93742099999986
 20
324.78606400000001
 30
0.0
 40
3.2257129999999989
 50
234.42998999999989
 51
305.57001000000008
  0
LINE
  5
F5F6F
  8
OBJECT
 10
-537.19575099999986
 20
321.56035200000002
 30
0.0
 11
-525.93742099999986
 21
321.56035200000002
 31
0.0
  0
LINE
  5
F5F70
  8
OBJECT
 10
-435.93742100000009
 20
321.56035200000002
 30
0.0
 11
-447.19575099999997
 21
321.56035200000002
 31
0.0
  0
ARC
  5
F5F71
  8
OBJECT
 10
-447.19575099999997
 20
324.78606400000001
 30
0.0
 40
3.2257129999999989
 50
234.42998999999989
 51
305.57001000000008
  0
ARC
  5
F5F72
  8
OBJECT
 10
-435.93742100000009
 20
324.78606400000001
 30
0.0
 40
3.2257129999999989
 50
234.42998999999989
 51
305.57001000000008
  0
ARC
  5
F5F73
  8
OBJECT
 10
-441.56658599999997
 20
333.56035200000002
 30
0.0
 40
12.0
 50
251.7760860000021
 51
288.22391399999788
  0
LINE
  5
F5F74
  8
OBJECT
 10
-437.81380899999999
 20
328.36035199999998
 30
0.0
 11
-437.81380899999999
 21
322.16225200000002
 31
0.0
  0
LINE
  5
F5F75
  8
OBJECT
 10
-445.31936300000001
 20
328.36035199999998
 30
0.0
 11
-445.31936300000001
 21
322.16225200000002
 31
0.0
  0
LINE
  5
F5F76
  8
OBJECT
 10
-434.06103200000001
 20
328.36035199999998
 30
0.0
 11
-434.06103200000001
 21
322.16225200000002
 31
0.0
  0
LINE
  5
F5F77
  8
OBJECT
 10
-449.07213899999988
 20
328.36035199999998
 30
0.0
 11
-434.06103200000001
 21
328.36035199999998
 31
0.0
  0
LINE
  5
F5F78
  8
OBJECT
 10
-449.07213899999988
 20
322.16225200000002
 30
0.0
 11
-449.07213899999988
 21
328.36035199999998
 31
0.0
  0
LINE
  5
F5F79
  8
OBJECT
 10
-657.19575099999975
 20
321.56035200000002
 30
0.0
 11
-645.93742099999997
 21
321.56035200000002
 31
0.0
  0
ARC
  5
F5F7A
  8
OBJECT
 10
-645.93742099999997
 20
324.78606400000001
 30
0.0
 40
3.2257129999999989
 50
234.42998999999989
 51
305.57001000000008
  0
ARC
  5
F5F7B
  8
OBJECT
 10
-657.19575099999975
 20
324.78606400000001
 30
0.0
 40
3.2257129999999989
 50
234.42998999999989
 51
305.57001000000008
  0
ARC
  5
F5F7C
  8
OBJECT
 10
-651.56658600000003
 20
333.56035200000002
 30
0.0
 40
12.0
 50
251.7760860000021
 51
288.22391399999788
  0
LINE
  5
F5F7D
  8
OBJECT
 10
-655.31936299999995
 20
328.36035199999998
 30
0.0
 11
-655.31936299999995
 21
322.16225200000002
 31
0.0
  0
LINE
  5
F5F7E
  8
OBJECT
 10
-647.81380899999965
 20
328.36035199999998
 30
0.0
 11
-647.81380899999965
 21
322.16225200000002
 31
0.0
  0
LINE
  5
F5F7F
  8
OBJECT
 10
-659.07213899999977
 20
328.36035199999998
 30
0.0
 11
-659.07213899999977
 21
322.16225200000002
 31
0.0
  0
LINE
  5
F5F80
  8
OBJECT
 10
-644.06103199999995
 20
328.36035199999998
 30
0.0
 11
-659.07213899999977
 21
328.36035199999998
 31
0.0
  0
LINE
  5
F5F81
  8
OBJECT
 10
-644.06103199999995
 20
322.16225200000002
 30
0.0
 11
-644.06103199999995
 21
328.36035199999998
 31
0.0
  0
LINE
  5
F5F82
  8
OBJECT
 10
-569.07213899999988
 20
322.16225200000002
 30
0.0
 11
-569.07213899999988
 21
328.36035199999998
 31
0.0
  0
LINE
  5
F5F83
  8
OBJECT
 10
-569.07213899999988
 20
328.36035199999998
 30
0.0
 11
-554.06103199999995
 21
328.36035199999998
 31
0.0
  0
LINE
  5
F5F84
  8
OBJECT
 10
-554.06103199999995
 20
328.36035199999998
 30
0.0
 11
-554.06103199999995
 21
322.16225200000002
 31
0.0
  0
LINE
  5
F5F85
  8
OBJECT
 10
-565.31936299999995
 20
328.36035199999998
 30
0.0
 11
-565.31936299999995
 21
322.16225200000002
 31
0.0
  0
LINE
  5
F5F86
  8
OBJECT
 10
-557.81380899999999
 20
328.36035199999998
 30
0.0
 11
-557.81380899999999
 21
322.16225200000002
 31
0.0
  0
ARC
  5
F5F87
  8
OBJECT
 10
-561.56658600000014
 20
333.56035200000002
 30
0.0
 40
12.0
 50
251.7760860000021
 51
288.22391399999788
  0
ARC
  5
F5F88
  8
OBJECT
 10
-555.93742099999986
 20
324.78606400000001
 30
0.0
 40
3.2257129999999989
 50
234.42998999999989
 51
305.57001000000008
  0
ARC
  5
F5F89
  8
OBJECT
 10
-567.19575099999975
 20
324.78606400000001
 30
0.0
 40
3.2257129999999989
 50
234.42998999999989
 51
305.57001000000008
  0
LINE
  5
F5F8A
  8
OBJECT
 10
-555.93742099999986
 20
321.56035200000002
 30
0.0
 11
-567.19575099999975
 21
321.56035200000002
 31
0.0
  0
LINE
  5
F5F8B
  8
OBJECT
 10
-644.06103199999995
 20
0.0
 30
0.0
 11
-647.81380899999965
 21
-6.5
 31
0.0
  0
LINE
  5
F5F8C
  8
OBJECT
 10
-647.81380899999965
 20
-6.5
 30
0.0
 11
-655.31936299999995
 21
-6.5
 31
0.0
  0
LINE
  5
F5F8D
  8
OBJECT
 10
-655.31936299999995
 20
-6.5
 30
0.0
 11
-659.07213899999977
 21
0.0
 31
0.0
  0
LINE
  5
F5F8E
  8
OBJECT
 10
-659.07213899999977
 20
0.0
 30
0.0
 11
-655.31936299999995
 21
6.5
 31
0.0
  0
LINE
  5
F5F8F
  8
OBJECT
 10
-655.31936299999995
 20
6.5
 30
0.0
 11
-647.81380899999965
 21
6.5
 31
0.0
  0
LINE
  5
F5F90
  8
OBJECT
 10
-647.81380899999965
 20
6.5
 30
0.0
 11
-644.06103199999995
 21
0.0
 31
0.0
  0
CIRCLE
  5
F5F91
  8
OBJECT
 10
-651.56658600000003
 20
0.0
 30
0.0
 40
6.5
  0
CIRCLE
  5
F5F92
  8
OBJECT
 10
-651.56658600000003
 20
0.0
 30
0.0
 40
4.0
  0
CIRCLE
  5
F5F93
  8
OBJECT
 10
-651.56658600000003
 20
0.0
 30
0.0
 40
3.3234180000000002
  0
LINE
  5
F5F94
  8
OBJECT
 10
-554.06103199999995
 20
0.0
 30
0.0
 11
-557.81380899999999
 21
-6.5
 31
0.0
  0
LINE
  5
F5F95
  8
OBJECT
 10
-557.81380899999999
 20
-6.5
 30
0.0
 11
-565.31936299999995
 21
-6.5
 31
0.0
  0
LINE
  5
F5F96
  8
OBJECT
 10
-565.31936299999995
 20
-6.5
 30
0.0
 11
-569.07213899999988
 21
0.0
 31
0.0
  0
LINE
  5
F5F97
  8
OBJECT
 10
-569.07213899999988
 20
0.0
 30
0.0
 11
-565.31936299999995
 21
6.5
 31
0.0
  0
LINE
  5
F5F98
  8
OBJECT
 10
-565.31936299999995
 20
6.5
 30
0.0
 11
-557.81380899999999
 21
6.5
 31
0.0
  0
LINE
  5
F5F99
  8
OBJECT
 10
-557.81380899999999
 20
6.5
 30
0.0
 11
-554.06103199999995
 21
0.0
 31
0.0
  0
CIRCLE
  5
F5F9A
  8
OBJECT
 10
-561.56658600000014
 20
0.0
 30
0.0
 40
6.5
  0
CIRCLE
  5
F5F9B
  8
OBJECT
 10
-561.56658600000014
 20
0.0
 30
0.0
 40
4.0
  0
CIRCLE
  5
F5F9C
  8
OBJECT
 10
-561.56658600000014
 20
0.0
 30
0.0
 40
3.3234180000000002
  0
LINE
  5
F5F9D
  8
OBJECT
 10
-524.06103199999995
 20
0.0
 30
0.0
 11
-527.81380899999976
 21
-6.5
 31
0.0
  0
LINE
  5
F5F9E
  8
OBJECT
 10
-527.81380899999976
 20
-6.5
 30
0.0
 11
-535.31936299999995
 21
-6.5
 31
0.0
  0
LINE
  5
F5F9F
  8
OBJECT
 10
-535.31936299999995
 20
-6.5
 30
0.0
 11
-539.07213899999965
 21
0.0
 31
0.0
  0
LINE
  5
F5FA0
  8
OBJECT
 10
-539.07213899999965
 20
0.0
 30
0.0
 11
-535.31936299999995
 21
6.5
 31
0.0
  0
LINE
  5
F5FA1
  8
OBJECT
 10
-535.31936299999995
 20
6.5
 30
0.0
 11
-527.81380899999976
 21
6.5
 31
0.0
  0
LINE
  5
F5FA2
  8
OBJECT
 10
-527.81380899999976
 20
6.5
 30
0.0
 11
-524.06103199999995
 21
0.0
 31
0.0
  0
CIRCLE
  5
F5FA3
  8
OBJECT
 10
-531.56658600000014
 20
0.0
 30
0.0
 40
6.5
  0
CIRCLE
  5
F5FA4
  8
OBJECT
 10
-531.56658600000014
 20
0.0
 30
0.0
 40
4.0
  0
CIRCLE
  5
F5FA5
  8
OBJECT
 10
-531.56658600000014
 20
0.0
 30
0.0
 40
3.3234180000000002
  0
LINE
  5
F5FA6
  8
OBJECT
 10
-434.06103200000001
 20
0.0
 30
0.0
 11
-437.81380899999999
 21
-6.5
 31
0.0
  0
LINE
  5
F5FA7
  8
OBJECT
 10
-437.81380899999999
 20
-6.5
 30
0.0
 11
-445.31936300000001
 21
-6.5
 31
0.0
  0
LINE
  5
F5FA8
  8
OBJECT
 10
-445.31936300000001
 20
-6.5
 30
0.0
 11
-449.07213899999988
 21
0.0
 31
0.0
  0
LINE
  5
F5FA9
  8
OBJECT
 10
-449.07213899999988
 20
0.0
 30
0.0
 11
-445.31936300000001
 21
6.5
 31
0.0
  0
LINE
  5
F5FAA
  8
OBJECT
 10
-445.31936300000001
 20
6.5
 30
0.0
 11
-437.81380899999999
 21
6.5
 31
0.0
  0
LINE
  5
F5FAB
  8
OBJECT
 10
-437.81380899999999
 20
6.5
 30
0.0
 11
-434.06103200000001
 21
0.0
 31
0.0
  0
CIRCLE
  5
F5FAC
  8
OBJECT
 10
-441.56658599999997
 20
0.0
 30
0.0
 40
6.5
  0
CIRCLE
  5
F5FAD
  8
OBJECT
 10
-441.56658599999997
 20
0.0
 30
0.0
 40
4.0
  0
CIRCLE
  5
F5FAE
  8
OBJECT
 10
-441.56658599999997
 20
0.0
 30
0.0
 40
3.3234180000000002
  0
LINE
  5
F5FAF
  8
OBJECT
 10
-382.56658600000009
 20
4.1881010000000174
 30
0.0
 11
-388.81710800000002
 21
4.1881010000000174
 31
0.0
  0
LINE
  5
F5FB0
  8
OBJECT
 10
-382.56658600000009
 20
-4.1881010000000032
 30
0.0
 11
-388.81710800000002
 21
-4.1881010000000032
 31
0.0
  0
LINE
  5
F5FB1
  8
OBJECT
 10
-383.37848500000001
 20
-5.0
 30
0.0
 11
-383.37848500000001
 21
5.0
 31
0.0
  0
LINE
  5
F5FB2
  8
OBJECT
 10
-383.37848500000001
 20
-5.0
 30
0.0
 11
-388.81710800000002
 21
-5.0
 31
0.0
  0
LINE
  5
F5FB3
  8
OBJECT
 10
-382.56658600000009
 20
-4.1881010000000032
 30
0.0
 11
-383.37848500000001
 21
-5.0
 31
0.0
  0
LINE
  5
F5FB4
  8
OBJECT
 10
-382.56658600000009
 20
4.1881010000000174
 30
0.0
 11
-382.56658600000009
 21
-4.1881010000000032
 31
0.0
  0
LINE
  5
F5FB5
  8
OBJECT
 10
-383.37848500000001
 20
5.0
 30
0.0
 11
-382.56658600000009
 21
4.1881010000000174
 31
0.0
  0
LINE
  5
F5FB6
  8
OBJECT
 10
-383.37848500000001
 20
5.0
 30
0.0
 11
-388.81710800000002
 21
5.0
 31
0.0
  0
LINE
  5
F5FB7
  8
OBJECT
 10
-412.217108
 20
4.1881010000000174
 30
0.0
 11
-418.56658600000009
 21
4.1881010000000174
 31
0.0
  0
LINE
  5
F5FB8
  8
OBJECT
 10
-412.217108
 20
5.0
 30
0.0
 11
-418.56658600000009
 21
5.0
 31
0.0
  0
LINE
  5
F5FB9
  8
OBJECT
 10
-412.217108
 20
-4.1881010000000032
 30
0.0
 11
-418.56658600000009
 21
-4.1881010000000032
 31
0.0
  0
LINE
  5
F5FBA
  8
OBJECT
 10
-412.217108
 20
-5.0
 30
0.0
 11
-418.56658600000009
 21
-5.0
 31
0.0
  0
LINE
  5
F5FBB
  8
OBJECT
 10
-388.81710800000002
 20
-6.9282029999999963
 30
0.0
 11
-388.81710800000002
 21
6.9282030000000088
 31
0.0
  0
ARC
  5
F5FBC
  8
OBJECT
 10
-392.84041400000001
 20
6.9282030000000088
 30
0.0
 40
4.0233059999999981
 50
324.9699640000029
 51
35.030035999997089
  0
ARC
  5
F5FBD
  8
OBJECT
 10
-392.84041400000001
 20
-6.9282029999999963
 30
0.0
 40
4.0233059999999981
 50
324.9699640000029
 51
35.030035999997089
  0
ARC
  5
F5FBE
  8
OBJECT
 10
-403.81710799999979
 20
0.0
 30
0.0
 40
15.0
 50
342.06606699999929
 51
17.933933000000739
  0
LINE
  5
F5FBF
  8
OBJECT
 10
-397.21710800000011
 20
-4.6188020000000147
 30
0.0
 11
-389.54592400000001
 21
-4.6188020000000147
 31
0.0
  0
LINE
  5
F5FC0
  8
OBJECT
 10
-397.21710800000011
 20
4.6188020000000014
 30
0.0
 11
-389.54592400000001
 21
4.6188020000000014
 31
0.0
  0
LINE
  5
F5FC1
  8
OBJECT
 10
-397.21710800000011
 20
-9.2376049999999896
 30
0.0
 11
-389.54592400000001
 21
-9.2376049999999896
 31
0.0
  0
LINE
  5
F5FC2
  8
OBJECT
 10
-397.21710800000011
 20
9.2376040000000028
 30
0.0
 11
-397.21710800000011
 21
-9.2376049999999896
 31
0.0
  0
LINE
  5
F5FC3
  8
OBJECT
 10
-389.54592400000001
 20
9.2376040000000028
 30
0.0
 11
-397.21710800000011
 21
9.2376040000000028
 31
0.0
  0
LINE
  5
F5FC4
  8
OBJECT
 10
-388.81710800000002
 20
421.42566399999998
 30
0.0
 11
-388.81710800000002
 21
407.56925699999999
 31
0.0
  0
ARC
  5
F5FC5
  8
OBJECT
 10
-392.84041400000001
 20
407.56925699999999
 30
0.0
 40
4.0233059999999981
 50
324.9699640000029
 51
35.030035999997089
  0
ARC
  5
F5FC6
  8
OBJECT
 10
-392.84041400000001
 20
421.42566399999998
 30
0.0
 40
4.0233059999999981
 50
324.9699640000029
 51
35.030035999997089
  0
ARC
  5
F5FC7
  8
OBJECT
 10
-403.81710799999979
 20
414.49745999999999
 30
0.0
 40
15.0
 50
342.06606699999929
 51
17.933933000000739
  0
LINE
  5
F5FC8
  8
OBJECT
 10
-397.21710800000011
 20
419.116263
 30
0.0
 11
-389.54592400000001
 21
419.116263
 31
0.0
  0
LINE
  5
F5FC9
  8
OBJECT
 10
-397.21710800000011
 20
409.87865799999992
 30
0.0
 11
-389.54592400000001
 21
409.87865799999992
 31
0.0
  0
LINE
  5
F5FCA
  8
OBJECT
 10
-397.21710800000011
 20
423.73506499999979
 30
0.0
 11
-389.54592400000001
 21
423.73506499999979
 31
0.0
  0
LINE
  5
F5FCB
  8
OBJECT
 10
-397.21710800000011
 20
405.25985599999979
 30
0.0
 11
-397.21710800000011
 21
423.73506499999979
 31
0.0
  0
LINE
  5
F5FCC
  8
OBJECT
 10
-389.54592400000001
 20
405.25985599999979
 30
0.0
 11
-397.21710800000011
 21
405.25985599999979
 31
0.0
  0
LINE
  5
F5FCD
  8
OBJECT
 10
-635.93742099999974
 20
69.300000000000011
 30
0.0
 11
-647.19575099999975
 21
69.300000000000011
 31
0.0
  0
ARC
  5
F5FCE
  8
OBJECT
 10
-647.19575099999975
 20
66.074286999999984
 30
0.0
 40
3.2257129999999989
 50
54.429989999999862
 51
125.5700100000001
  0
ARC
  5
F5FCF
  8
OBJECT
 10
-635.93742099999974
 20
66.074286999999984
 30
0.0
 40
3.2257129999999989
 50
54.429989999999862
 51
125.5700100000001
  0
ARC
  5
F5FD0
  8
OBJECT
 10
-641.56658600000003
 20
57.299999999999997
 30
0.0
 40
12.0
 50
71.776086000002124
 51
108.2239139999979
  0
LINE
  5
F5FD1
  8
OBJECT
 10
-645.31936300000018
 20
68.698098999999985
 30
0.0
 11
-645.31936300000018
 21
64.0
 31
0.0
  0
LINE
  5
F5FD2
  8
OBJECT
 10
-637.81380899999999
 20
68.698098999999985
 30
0.0
 11
-637.81380899999999
 21
64.0
 31
0.0
  0
LINE
  5
F5FD3
  8
OBJECT
 10
-634.06103199999995
 20
64.0
 30
0.0
 11
-634.06103199999995
 21
68.698098999999985
 31
0.0
  0
LINE
  5
F5FD4
  8
OBJECT
 10
-649.07213899999999
 20
64.0
 30
0.0
 11
-634.06103199999995
 21
64.0
 31
0.0
  0
LINE
  5
F5FD5
  8
OBJECT
 10
-649.07213899999999
 20
68.698098999999985
 30
0.0
 11
-649.07213899999999
 21
64.0
 31
0.0
  0
LINE
  5
F5FD6
  8
OBJECT
 10
-616.56658600000003
 20
58.0
 30
0.0
 11
-666.56658600000003
 21
58.0
 31
0.0
  0
LINE
  5
F5FD7
  8
OBJECT
 10
-666.56658600000003
 20
58.0
 30
0.0
 11
-666.56658600000003
 21
64.0
 31
0.0
  0
LINE
  5
F5FD8
  8
OBJECT
 10
-616.56658600000003
 20
64.0
 30
0.0
 11
-666.56658600000003
 21
64.0
 31
0.0
  0
LINE
  5
F5FD9
  8
OBJECT
 10
-616.56658600000003
 20
58.0
 30
0.0
 11
-616.56658600000003
 21
64.0
 31
0.0
  0
LINE
  5
F5FDA
  8
OBJECT
 10
-616.56658600000003
 20
55.0
 30
0.0
 11
-666.56658600000003
 21
55.0
 31
0.0
  0
LINE
  5
F5FDB
  8
OBJECT
 10
-666.56658600000003
 20
55.0
 30
0.0
 11
-666.56658600000003
 21
58.0
 31
0.0
  0
LINE
  5
F5FDC
  8
OBJECT
 10
-666.56658600000003
 20
58.0
 30
0.0
 11
-616.56658600000003
 21
58.0
 31
0.0
  0
LINE
  5
F5FDD
  8
OBJECT
 10
-616.56658600000003
 20
58.0
 30
0.0
 11
-616.56658600000003
 21
55.0
 31
0.0
  0
VIEWPORT
  5
F6023
 67
     1
  8
0
 10
142.58924865722659
 20
99.112914085388184
 30
0.0
 40
530.44970065452196
 41
222.15178063964851
 68
     1
 69
     1
1001
ACAD
1000
MVIEW
1002
{
1070
    16
1010
0.0
1020
0.0
1030
0.0
1010
0.0
1020
0.0
1030
1.0
1040
0.0
1040
222.15178063964851
1040
142.58924865722659
1040
99.112914085388184
1040
50.0
1040
0.0
1040
0.0
1070
     0
1070
     0
1070
     1
1070
     1
1070
     0
1070
     0
1070
     0
1070
     0
1040
0.0
1040
0.0
1040
0.0
1040
10.0
1040
10.0
1040
10.0
1040
10.0
1070
     0
1002
{
1002
}
1002
}
  0
VIEWPORT
  5
F6027
 67
     1
  8
OBJECT
 10
142.58924913406369
 20
99.112914562225356
 30
0.0
 40
228.142798614502
 41
158.58066329956051
 68
     2
 69
     2
1001
ACAD
1000
MVIEW
1002
{
1070
    16
1010
0.0
1020
0.0
1030
0.0
1010
0.0
1020
0.0
1030
1.0
1040
0.0
1040
1284.354915481528
1040
-393.78041050000007
1040
136.79040154761921
1040
50.0
1040
0.0
1040
0.0
1070
     0
1070
   600
1070
     1
1070
     1
1070
     0
1070
     0
1070
     0
1070
     0
1040
0.0
1040
0.0
1040
0.0
1040
1.0
1040
1.0
1040
0.0
1040
0.0
1070
     0
1002
{
1002
}
1002
}
  0
ENDSEC
  0
EOF
