  0
SECTION
  2
HEADER
  9
$ACADVER
  1
AC1009
  9
$INSBASE
 10
0.0
 20
0.0
 30
0.0
  9
$EXTMIN
 10
-94.012834999999995
 20
-498.70930099999981
 30
0.0
  9
$EXTMAX
 10
1225.8885530000009
 20
552.49746000000005
 30
0.0
  9
$LIMMIN
 10
0.0
 20
0.0
  9
$LIMMAX
 10
210.0
 20
297.0
  9
$ORTHOMODE
 70
     0
  9
$REGENMODE
 70
     1
  9
$FILLMODE
 70
     1
  9
$QTEXTMODE
 70
     0
  9
$MIRRTEXT
 70
     0
  9
$DRAGMODE
 70
     2
  9
$LTSCALE
 40
1.0
  9
$OSMODE
 70
   125
  9
$ATTMODE
 70
     1
  9
$TEXTSIZE
 40
4.0
  9
$TRACEWID
 40
0.05
  9
$TEXTSTYLE
  7
STANDARD
  9
$CLAYER
  8
OBJECT
  9
$CELTYPE
  6
BYLAYER
  9
$CECOLOR
 62
   256
  9
$DIMSCALE
 40
10.0
  9
$DIMASZ
 40
2.0
  9
$DIMEXO
 40
1.0
  9
$DIMDLI
 40
10.0
  9
$DIMRND
 40
0.0
  9
$DIMDLE
 40
0.0
  9
$DIMEXE
 40
1.0
  9
$DIMTP
 40
0.0
  9
$DIMTM
 40
0.0
  9
$DIMTXT
 40
3.2000000000000002
  9
$DIMCEN
 40
0.0
  9
$DIMTSZ
 40
0.0
  9
$DIMTOL
 70
     0
  9
$DIMLIM
 70
     0
  9
$DIMTIH
 70
     0
  9
$DIMTOH
 70
     0
  9
$DIMSE1
 70
     0
  9
$DIMSE2
 70
     0
  9
$DIMTAD
 70
     1
  9
$DIMZIN
 70
     8
  9
$DIMBLK
  1
OPEN30
  9
$DIMASO
 70
     1
  9
$DIMSHO
 70
     1
  9
$DIMPOST
  1

  9
$DIMAPOST
  1

  9
$DIMALT
 70
     0
  9
$DIMALTD
 70
     2
  9
$DIMALTF
 40
25.399999999999999
  9
$DIMLFAC
 40
1.0
  9
$DIMTOFL
 70
     1
  9
$DIMTVP
 40
0.0
  9
$DIMTIX
 70
     0
  9
$DIMSOXD
 70
     0
  9
$DIMSAH
 70
     0
  9
$DIMBLK1
  1

  9
$DIMBLK2
  1

  9
$DIMSTYLE
  2
S10
  9
$DIMCLRD
 70
   256
  9
$DIMCLRE
 70
   256
  9
$DIMCLRT
 70
   256
  9
$DIMTFAC
 40
1.0
  9
$DIMGAP
 40
0.9
  9
$LUNITS
 70
     2
  9
$LUPREC
 70
     2
  9
$SKETCHINC
 40
0.1
  9
$FILLETRAD
 40
0.0
  9
$AUNITS
 70
     0
  9
$AUPREC
 70
     2
  9
$MENU
  1
ACAD
  9
$ELEVATION
 40
0.0
  9
$PELEVATION
 40
0.0
  9
$THICKNESS
 40
0.0
  9
$LIMCHECK
 70
     0
  9
$BLIPMODE
 70
     0
  9
$CHAMFERA
 40
2.0
  9
$CHAMFERB
 40
2.0
  9
$SKPOLY
 70
     0
  9
$TDCREATE
 40
2453095.4929404748
  9
$TDUPDATE
 40
2457890.5569646638
  9
$TDINDWG
 40
19.3123107292
  9
$TDUSRTIMER
 40
19.3123098264
  9
$USRTIMER
 70
     1
  9
$ANGBASE
 50
0.0
  9
$ANGDIR
 70
     0
  9
$PDMODE
 70
     1
  9
$PDSIZE
 40
2.0
  9
$PLINEWID
 40
0.0
  9
$COORDS
 70
     1
  9
$SPLFRAME
 70
     0
  9
$SPLINETYPE
 70
     6
  9
$SPLINESEGS
 70
     8
  9
$ATTDIA
 70
     1
  9
$ATTREQ
 70
     1
  9
$HANDLING
 70
     1
  9
$HANDSEED
  5
F6713
  9
$SURFTAB1
 70
     6
  9
$SURFTAB2
 70
     6
  9
$SURFTYPE
 70
     6
  9
$SURFU
 70
     6
  9
$SURFV
 70
     6
  9
$UCSNAME
  2

  9
$UCSORG
 10
0.0
 20
0.0
 30
0.0
  9
$UCSXDIR
 10
1.0
 20
0.0
 30
0.0
  9
$UCSYDIR
 10
0.0
 20
1.0
 30
0.0
  9
$PUCSNAME
  2

  9
$PUCSORG
 10
0.0
 20
0.0
 30
0.0
  9
$PUCSXDIR
 10
1.0
 20
0.0
 30
0.0
  9
$PUCSYDIR
 10
0.0
 20
1.0
 30
0.0
  9
$USERI1
 70
     0
  9
$USERI2
 70
     0
  9
$USERI3
 70
     0
  9
$USERI4
 70
     0
  9
$USERI5
 70
     0
  9
$USERR1
 40
0.0
  9
$USERR2
 40
0.0
  9
$USERR3
 40
0.0
  9
$USERR4
 40
0.0
  9
$USERR5
 40
0.0
  9
$WORLDVIEW
 70
     1
  9
$SHADEDGE
 70
     3
  9
$SHADEDIF
 70
    70
  9
$TILEMODE
 70
     1
  9
$MAXACTVP
 70
    64
  9
$PLIMCHECK
 70
     0
  9
$PEXTMIN
 10
28.517849826812729
 20
19.82258291244505
 30
0.0
  9
$PEXTMAX
 10
256.66064844131472
 20
178.4032462120056
 30
0.0
  9
$PLIMMIN
 10
-5.873748779296875
 20
-5.8737497329711923
  9
$PLIMMAX
 10
291.05224609375
 20
204.0995779037475
  9
$UNITMODE
 70
     0
  9
$VISRETAIN
 70
     1
  9
$PLINEGEN
 70
     0
  9
$PSLTSCALE
 70
     1
  0
ENDSEC
  0
SECTION
  2
TABLES
  0
TABLE
  2
VPORT
 70
     1
  0
VPORT
  2
*ACTIVE
 70
     0
 10
0.0
 20
0.0
 11
1.0
 21
1.0
 12
2262.6223480728231
 22
289.6864509154716
 13
0.0
 23
0.0
 14
1.0
 24
1.0
 15
0.0
 25
0.0
 16
0.0
 26
0.0
 36
1.0
 17
0.0
 27
0.0
 37
0.0
 40
3088.3373439260731
 41
2.3877805486284291
 42
50.0
 43
0.0
 44
0.0
 50
0.0
 51
0.0
 71
     0
 72
   600
 73
     1
 74
     1
 75
     0
 76
     0
 77
     0
 78
     0
  0
ENDTAB
  0
TABLE
  2
LTYPE
 70
     3
  0
LTYPE
  2
CONTINUOUS
 70
     0
  3
Solid line
 72
    65
 73
     0
 40
0.0
  0
LTYPE
  2
ACAD_ISO08W100
 70
     0
  3
ISO long-dash short-dash ____ __ ____ __ ____ _
 72
    65
 73
     4
 40
36.0
 49
24.0
 49
-3.0
 49
6.0
 49
-3.0
  0
LTYPE
  2
ACAD_ISO02W100
 70
     0
  3
ISO dash __ __ __ __ __ __ __ __ __ __ __ __ __
 72
    65
 73
     2
 40
15.0
 49
12.0
 49
-3.0
  0
ENDTAB
  0
TABLE
  2
LAYER
 70
     6
  0
LAYER
  2
0
 70
     0
 62
     7
  6
CONTINUOUS
  0
LAYER
  2
OBJECT
 70
     0
 62
     4
  6
CONTINUOUS
  0
LAYER
  2
DEFPOINTS
 70
     0
 62
     7
  6
CONTINUOUS
  0
LAYER
  2
DIM
 70
     0
 62
     7
  6
CONTINUOUS
  0
LAYER
  2
HIDDEN
 70
     0
 62
     2
  6
ACAD_ISO02W100
  0
LAYER
  2
CENTER
 70
     0
 62
     2
  6
ACAD_ISO08W100
  0
ENDTAB
  0
TABLE
  2
STYLE
 70
     2
  0
STYLE
  2
STANDARD
 70
     0
 40
0.0
 41
0.75
 50
0.0
 71
     0
 42
4.0
  3
simplex.shx
  4
bigfont.shx
  0
ENDTAB
  0
TABLE
  2
VIEW
 70
     0
  0
ENDTAB
  0
TABLE
  2
UCS
 70
     0
  0
ENDTAB
  0
TABLE
  2
APPID
 70
    23
  0
APPID
  2
ACAD
 70
     0
  0
APPID
  2
ACADANNOTATIVE
 70
     0
  0
APPID
  2
ACAD_PSEXT
 70
     0
  0
APPID
  2
ACAD_EXEMPT_FROM_CAD_STANDARDS
 70
     0
  0
APPID
  2
ACAECLAYERSTANDARD
 70
     0
  0
APPID
  2
ACAUTHENVIRON
 70
     0
  0
APPID
  2
ACDBDYNAMICBLOCKTRUENAME
 70
     0
  0
APPID
  2
ACDBDYNAMICBLOCKGUID
 70
     0
  0
APPID
  2
ACDBBLOCKREPETAG
 70
     0
  0
APPID
  2
ACDBBLOCKREPBTAG
 70
     0
  0
APPID
  2
ACAD_NAV_VCDISPLAY
 70
     0
  0
APPID
  2
ACAD_DSTYLE_DIMRADIAL_EXTENSION
 70
     0
  0
APPID
  2
ACAD_DSTYLE_DIMJAG
 70
     0
  0
APPID
  2
ACAD_DSTYLE_DIMTALN
 70
     0
  0
APPID
  2
GRADIENTCOLOR1ACI
 70
     0
  0
APPID
  2
GRADIENTCOLOR2ACI
 70
     0
  0
APPID
  2
ACADANNOPO
 70
     0
  0
APPID
  2
ACADANNOMONITORALERTICONDI
 70
     0
  0
APPID
  2
ACADANNOAV
 70
     0
  0
APPID
  2
ACAD_MLEADERVER
 70
     0
  0
APPID
  2
ACAD_DSTYLE_DIMFLIPARROW_W
 70
     0
  0
APPID
  2
ACCMTRANSPARENCY
 70
     0
  0
APPID
  2
CONTENTBLOCKICON
 70
     0
  0
ENDTAB
  0
TABLE
  2
DIMSTYLE
 70
     3
  0
DIMSTYLE
  2
STANDARD
 70
     0
  3

  4

  5

  6

  7

 40
1.0
 41
0.18
 42
0.0625
 43
0.38
 44
0.18
 45
0.0
 46
0.0
 47
0.0
 48
0.0
140
0.18
141
0.09
142
0.0
143
25.399999999999999
144
1.0
145
0.0
146
1.0
147
0.09
 71
     0
 72
     0
 73
     1
 74
     1
 75
     0
 76
     0
 77
     0
 78
     0
170
     0
171
     2
172
     0
173
     0
174
     0
175
     0
176
     0
177
     0
178
     0
  0
DIMSTYLE
  2
S10
 70
     0
  3

  4

  5

  6

  7

 40
10.0
 41
2.0
 42
1.0
 43
10.0
 44
1.0
 45
0.0
 46
0.0
 47
0.0
 48
0.0
140
3.2000000000000002
141
0.0
142
0.0
143
25.399999999999999
144
1.0
145
0.0
146
1.0
147
0.9
 71
     0
 72
     0
 73
     0
 74
     0
 75
     0
 76
     0
 77
     1
 78
     8
170
     0
171
     2
172
     1
173
     0
174
     0
175
     0
176
   256
177
   256
178
   256
  0
ENDTAB
  0
ENDSEC
  0
SECTION
  2
BLOCKS
  0
BLOCK
  8
0
  2
$MODEL_SPACE
 70
     0
 10
0.0
 20
0.0
 30
0.0
  3
$MODEL_SPACE
  1

  0
ENDBLK
  5
F662C
  8
0
  0
BLOCK
 67
     1
  8
0
  2
$PAPER_SPACE
 70
     0
 10
0.0
 20
0.0
 30
0.0
  3
$PAPER_SPACE
  1

  0
ENDBLK
  5
F6628
 67
     1
  8
0
  0
BLOCK
  8
0
  2
_OPEN30
 70
     0
 10
0.0
 20
0.0
 30
0.0
  3
_OPEN30
  1

  0
LINE
  5
202
  8
0
  6
BYBLOCK
 62
     0
 10
-1.0
 20
0.26794919
 30
0.0
 11
0.0
 21
0.0
 31
0.0
  0
LINE
  5
203
  8
0
  6
BYBLOCK
 62
     0
 10
0.0
 20
0.0
 30
0.0
 11
-1.0
 21
-0.26794919
 31
0.0
  0
LINE
  5
204
  8
0
  6
BYBLOCK
 62
     0
 10
0.0
 20
0.0
 30
0.0
 11
-1.0
 21
0.0
 31
0.0
  0
ENDBLK
  5
206
  8
0
  0
ENDSEC
  0
SECTION
  2
ENTITIES
  0
POINT
  5
F24B5
  8
OBJECT
 10
486.56658599999997
 20
372.49745999999999
 30
0.0
  0
POINT
  5
F25C9
  8
OBJECT
 10
513.50432800000033
 20
517.49745999999959
 30
0.0
  0
POINT
  5
F25ED
  8
OBJECT
 10
633.50432799999987
 20
517.49745999999959
 30
0.0
  0
POINT
  5
F29E4
  8
OBJECT
 10
753.50432799999999
 20
517.49745999999959
 30
0.0
  0
POINT
  5
F2C0C
  8
OBJECT
 10
456.56658600000009
 20
477.49745999999999
 30
0.0
  0
TEXT
  5
F37D8
  8
DIM
 10
499.03137900000002
 20
-448.70930099999993
 30
0.0
 40
32.0
  1
・三角ふたの前面にはメンテナンススペース
 41
0.9597585924295774
 72
     5
 11
1225.888553
 21
-448.70930099999993
 31
0.0
  0
TEXT
  5
F37D9
  8
DIM
 10
499.03137900000002
 20
-498.70930099999993
 30
0.0
 40
32.0
  1
　１２０ｍｍ以上を確保してください。
 41
0.9301791860932478
 72
     5
 11
1116.1742630000001
 21
-498.70930099999993
 31
0.0
  0
LINE
  5
F37DA
  8
CENTER
 10
371.47728299999989
 20
477.49745999999999
 30
0.0
 11
431.60534400000012
 21
477.49745999999999
 31
0.0
  0
LINE
  5
F37DB
  8
CENTER
 10
371.650983
 20
540.49746000000005
 30
0.0
 11
447.09195199999988
 21
540.49746000000005
 31
0.0
  0
LINE
  5
F37DC
  8
OBJECT
 10
418.56658600000009
 20
552.49746000000005
 30
0.0
 11
430.56658600000009
 21
552.49746000000005
 31
0.0
  0
LINE
  5
F37DD
  8
OBJECT
 10
432.56658599999997
 20
550.49745999999971
 30
0.0
 11
432.56658599999997
 21
404.49745999999988
 31
0.0
  0
LINE
  5
F37DE
  8
OBJECT
 10
418.56658600000009
 20
402.49745999999999
 30
0.0
 11
430.56658600000009
 21
402.49745999999999
 31
0.0
  0
LINE
  5
F37DF
  8
OBJECT
 10
468.12202799999989
 20
521.99745999999982
 30
0.0
 11
874.56658599999992
 21
521.99745999999982
 31
0.0
  0
LINE
  5
F37E0
  8
OBJECT
 10
467.79534299999972
 20
432.99745999999988
 30
0.0
 11
469.81175200000013
 21
432.99745999999988
 31
0.0
  0
LINE
  5
F37E1
  8
CENTER
 10
371.18095200000022
 20
0.0
 30
0.0
 11
887.61839699999973
 21
0.0
 31
0.0
  0
LINE
  5
F37E2
  8
OBJECT
 10
418.56658600000009
 20
-60.0
 30
0.0
 11
418.56658600000009
 21
60.0
 31
0.0
  0
LINE
  5
F37E3
  8
OBJECT
 10
468.12202799999989
 20
44.499999999999993
 30
0.0
 11
491.56658599999992
 21
44.499999999999993
 31
0.0
  0
LINE
  5
F37E4
  8
OBJECT
 10
468.12202799999989
 20
-44.499999999999979
 30
0.0
 11
595.75426499999958
 21
-44.499999999999979
 31
0.0
  0
LINE
  5
F37E5
  8
OBJECT
 10
454.56658599999997
 20
529.49745999999971
 30
0.0
 11
433.56658599999997
 21
529.49745999999971
 31
0.0
  0
ARC
  5
F37E6
  8
OBJECT
 10
454.56658599999997
 20
521.49745999999971
 30
0.0
 40
8.0
 50
32.089951000003268
 51
90.0
  0
ARC
  5
F37E7
  8
OBJECT
 10
468.12202799999989
 20
529.99745999999959
 30
0.0
 40
8.0
 50
212.08995100000331
 51
270.0
  0
ARC
  5
F37E8
  8
OBJECT
 10
454.56658599999997
 20
433.49745999999988
 30
0.0
 40
8.0
 50
270.0
 51
327.91004899999677
  0
ARC
  5
F37E9
  8
OBJECT
 10
468.12202799999989
 20
424.99745999999988
 30
0.0
 40
8.0
 50
90.0
 51
147.91004899999669
  0
LINE
  5
F37EA
  8
OBJECT
 10
454.56658599999997
 20
425.49745999999988
 30
0.0
 11
433.56658599999997
 21
425.49745999999988
 31
0.0
  0
ARC
  5
F37EB
  8
OBJECT
 10
454.56658599999997
 20
44.0
 30
0.0
 40
8.0
 50
32.089951000003268
 51
90.0
  0
ARC
  5
F37EC
  8
OBJECT
 10
468.12202799999989
 20
52.5
 30
0.0
 40
8.0
 50
212.08995100000331
 51
270.0
  0
LINE
  5
F37ED
  8
OBJECT
 10
454.56658599999997
 20
52.0
 30
0.0
 11
433.56658599999997
 21
52.0
 31
0.0
  0
ARC
  5
F37EE
  8
OBJECT
 10
468.12202799999989
 20
-52.5
 30
0.0
 40
8.0
 50
90.0
 51
147.91004899999669
  0
LINE
  5
F37EF
  8
OBJECT
 10
876.56658599999957
 20
519.99746000000005
 30
0.0
 11
876.56658599999957
 21
434.99745999999999
 31
0.0
  0
ARC
  5
F37F0
  8
OBJECT
 10
874.56658599999992
 20
519.99746000000005
 30
0.0
 40
2.0
 50
0.0
 51
90.0
  0
ARC
  5
F37F1
  8
OBJECT
 10
874.56658599999992
 20
434.99745999999999
 30
0.0
 40
2.0
 50
270.0
 51
0.0
  0
LINE
  5
F37F2
  8
OBJECT
 10
876.56658599999957
 20
42.5
 30
0.0
 11
876.56658599999957
 21
-42.499999999999993
 31
0.0
  0
ARC
  5
F37F3
  8
OBJECT
 10
874.56658599999992
 20
42.5
 30
0.0
 40
2.0
 50
0.0
 51
90.0
  0
ARC
  5
F37F4
  8
OBJECT
 10
874.56658599999992
 20
-42.499999999999993
 30
0.0
 40
2.0
 50
270.0
 51
0.0
  0
LINE
  5
F37F5
  8
CENTER
 10
681.5665859999998
 20
477.49745999999999
 30
0.0
 11
606.56658600000026
 21
402.49745999999999
 31
0.0
  0
LINE
  5
F37F6
  8
CENTER
 10
561.56658600000003
 20
477.49745999999999
 30
0.0
 11
486.56658599999997
 21
402.49745999999999
 31
0.0
  0
LINE
  5
F37F7
  8
CENTER
 10
486.56658599999997
 20
402.49745999999999
 30
0.0
 11
486.56658599999997
 21
313.52593899999999
 31
0.0
  0
LINE
  5
F37F8
  8
OBJECT
 10
636.56658600000014
 20
387.79287900000003
 30
0.0
 11
636.56658600000014
 21
379.864957
 31
0.0
  0
LINE
  5
F37F9
  8
OBJECT
 10
586.67140199999994
 20
425.028683
 30
0.0
 11
591.22596600000008
 21
429.58324699999991
 31
0.0
  0
LINE
  5
F37FA
  8
OBJECT
 10
677.29629399999999
 20
430.80076100000002
 30
0.0
 11
638.17749899999956
 21
391.68196599999999
 31
0.0
  0
LINE
  5
F37FB
  8
OBJECT
 10
874.56658599999992
 20
432.99745999999988
 30
0.0
 11
802.59959499999979
 21
432.99745999999988
 31
0.0
  0
LINE
  5
F37FC
  8
OBJECT
 10
456.56658600000009
 20
423.49745999999999
 30
0.0
 11
456.56658600000009
 21
379.864957
 31
0.0
  0
LINE
  5
F37FD
  8
OBJECT
 10
516.56658600000003
 20
387.79287900000003
 30
0.0
 11
516.56658600000003
 21
379.864957
 31
0.0
  0
LINE
  5
F37FE
  8
OBJECT
 10
466.67140199999989
 20
425.028683
 30
0.0
 11
471.22596599999991
 21
429.58324699999991
 31
0.0
  0
LINE
  5
F37FF
  8
OBJECT
 10
557.29629400000033
 20
430.80076100000002
 30
0.0
 11
518.1774989999999
 21
391.68196599999999
 31
0.0
  0
LINE
  5
F3800
  8
OBJECT
 10
562.59959500000002
 20
432.99745999999988
 30
0.0
 11
589.81175200000018
 21
432.99745999999988
 31
0.0
  0
LINE
  5
F3801
  8
CENTER
 10
641.56658600000014
 20
85.673118000000002
 30
0.0
 11
641.56658600000014
 21
36.813720000000004
 31
0.0
  0
LINE
  5
F3802
  8
OBJECT
 10
874.56658599999992
 20
44.499999999999993
 30
0.0
 11
791.56658599999969
 21
44.499999999999993
 31
0.0
  0
LINE
  5
F3803
  8
OBJECT
 10
616.56658600000014
 20
55.0
 30
0.0
 11
616.56658600000014
 21
49.499999999999993
 31
0.0
  0
LINE
  5
F3804
  8
OBJECT
 10
666.5665859999998
 20
55.0
 30
0.0
 11
666.5665859999998
 21
49.499999999999993
 31
0.0
  0
LINE
  5
F3805
  8
OBJECT
 10
663.96599800000001
 20
55.0
 30
0.0
 11
616.56658600000014
 21
55.0
 31
0.0
  0
ARC
  5
F3806
  8
OBJECT
 10
611.56658600000014
 20
49.499999999999993
 30
0.0
 40
5.0
 50
270.0
 51
0.0
  0
ARC
  5
F3807
  8
OBJECT
 10
671.56658599999969
 20
49.499999999999993
 30
0.0
 40
5.0
 50
180.0
 51
270.0
  0
LINE
  5
F3808
  8
OBJECT
 10
428.56658599999997
 20
-60.0
 30
0.0
 11
428.56658599999997
 21
-20.0
 31
0.0
  0
ARC
  5
F3809
  8
OBJECT
 10
562.59959500000002
 20
425.49745999999988
 30
0.0
 40
7.5
 50
90.0
 51
134.9999999999954
  0
ARC
  5
F380A
  8
OBJECT
 10
454.56658599999997
 20
423.49745999999999
 30
0.0
 40
2.0
 50
0.0
 51
90.0
  0
ARC
  5
F380B
  8
OBJECT
 10
574.56658600000003
 20
430.99745999999999
 30
0.0
 40
2.0
 50
0.0
 51
90.0
  0
ARC
  5
F380C
  8
OBJECT
 10
611.06658600000026
 20
400.63349899999997
 30
0.0
 40
34.5
 50
134.9999999999954
 51
180.0
  0
ARC
  5
F380D
  8
OBJECT
 10
642.06658600000003
 20
387.79287900000003
 30
0.0
 40
5.5
 50
134.9999999999954
 51
180.0
  0
ARC
  5
F380E
  8
OBJECT
 10
522.06658600000003
 20
387.79287900000003
 30
0.0
 40
5.5
 50
134.9999999999954
 51
180.0
  0
ARC
  5
F380F
  8
OBJECT
 10
491.06658599999992
 20
400.63349899999997
 30
0.0
 40
34.5
 50
134.9999999999954
 51
180.0
  0
ARC
  5
F3810
  8
OBJECT
 10
469.81175200000013
 20
430.99745999999999
 30
0.0
 40
2.0
 50
314.9999999999954
 51
90.0
  0
ARC
  5
F3811
  8
OBJECT
 10
589.81175200000018
 20
430.99745999999999
 30
0.0
 40
2.0
 50
314.9999999999954
 51
90.0
  0
LINE
  5
F3812
  8
CENTER
 10
486.56658599999997
 20
-49.09219199999999
 30
0.0
 11
486.56658599999997
 21
48.587561000000001
 31
0.0
  0
LINE
  5
F3813
  8
OBJECT
 10
428.56658599999997
 20
60.0
 30
0.0
 11
428.56658599999997
 21
20.0
 31
0.0
  0
ARC
  5
F3814
  8
OBJECT
 10
430.56658600000009
 20
550.49745999999971
 30
0.0
 40
2.0
 50
0.0
 51
90.0
  0
ARC
  5
F3815
  8
OBJECT
 10
430.56658600000009
 20
404.49745999999988
 30
0.0
 40
2.0
 50
270.0
 51
0.0
  0
LINE
  5
F3816
  8
OBJECT
 10
432.56658599999997
 20
-12.000000000000011
 30
0.0
 11
432.56658599999997
 21
-4.6188020000000147
 31
0.0
  0
ARC
  5
F3817
  8
OBJECT
 10
438.56658600000009
 20
20.0
 30
0.0
 40
10.0
 50
180.0
 51
233.13010199999519
  0
ARC
  5
F3818
  8
OBJECT
 10
438.56658600000009
 20
-20.0
 30
0.0
 40
10.0
 50
126.8698980000048
 51
180.0
  0
ARC
  5
F3819
  8
OBJECT
 10
433.56658599999997
 20
530.49745999999982
 30
0.0
 40
1.0
 50
180.0
 51
270.0
  0
ARC
  5
F381A
  8
OBJECT
 10
433.56658599999997
 20
424.49745999999988
 30
0.0
 40
1.0
 50
90.0
 51
180.0
  0
ARC
  5
F381B
  8
OBJECT
 10
433.56658599999997
 20
57.0
 30
0.0
 40
5.0
 50
180.0
 51
270.0
  0
LINE
  5
F381C
  8
CENTER
 10
606.56658600000026
 20
402.49745999999999
 30
0.0
 11
606.56658600000026
 21
313.52593899999999
 31
0.0
  0
LINE
  5
F381D
  8
OBJECT
 10
461.34430699999979
 20
525.74746000000005
 30
0.0
 11
461.34430699999979
 21
429.24745999999999
 31
0.0
  0
LINE
  5
F381E
  8
OBJECT
 10
461.34430699999979
 20
-48.249999999999993
 30
0.0
 11
461.34430699999979
 21
-37.267098999999988
 31
0.0
  0
LINE
  5
F381F
  8
OBJECT
 10
461.34430699999979
 20
48.249999999999993
 30
0.0
 11
461.34430699999979
 21
37.267097999999997
 31
0.0
  0
LINE
  5
F3826
  8
OBJECT
 10
397.21710800000011
 20
-60.0
 30
0.0
 11
397.21710800000011
 21
60.0
 31
0.0
  0
LINE
  5
F3827
  8
OBJECT
 10
412.217108
 20
552.49746000000005
 30
0.0
 11
399.21710800000011
 21
552.49746000000005
 31
0.0
  0
LINE
  5
F3828
  8
OBJECT
 10
412.217108
 20
402.49745999999999
 30
0.0
 11
399.21710800000011
 21
402.49745999999999
 31
0.0
  0
ARC
  5
F3829
  8
OBJECT
 10
399.21710800000011
 20
550.49745999999971
 30
0.0
 40
2.0
 50
90.0
 51
180.0
  0
ARC
  5
F382A
  8
OBJECT
 10
399.21710800000011
 20
404.49745999999988
 30
0.0
 40
2.0
 50
180.0
 51
270.0
  0
LINE
  5
F382B
  8
OBJECT
 10
412.217108
 20
-60.0
 30
0.0
 11
412.217108
 21
60.0
 31
0.0
  0
LINE
  5
F382C
  8
OBJECT
 10
397.21710800000011
 20
545.49746000000005
 30
0.0
 11
397.21710800000011
 21
550.49745999999971
 31
0.0
  0
LINE
  5
F382D
  8
OBJECT
 10
412.217108
 20
528.49746000000005
 30
0.0
 11
418.56658600000009
 21
528.49746000000005
 31
0.0
  0
LINE
  5
F382E
  8
OBJECT
 10
412.217108
 20
426.49745999999999
 30
0.0
 11
418.56658600000009
 21
426.49745999999999
 31
0.0
  0
LINE
  5
F382F
  8
OBJECT
 10
412.217108
 20
51.0
 30
0.0
 11
418.56658600000009
 21
51.0
 31
0.0
  0
LINE
  5
F3830
  8
OBJECT
 10
412.217108
 20
-50.999999999999972
 30
0.0
 11
418.56658600000009
 21
-50.999999999999972
 31
0.0
  0
LINE
  5
F3831
  8
OBJECT
 10
412.217108
 20
402.49745999999999
 30
0.0
 11
412.217108
 21
552.49746000000005
 31
0.0
  0
LINE
  5
F3832
  8
OBJECT
 10
397.21710800000011
 20
535.49746000000005
 30
0.0
 11
397.21710800000011
 21
404.49745999999988
 31
0.0
  0
LINE
  5
F3833
  8
OBJECT
 10
576.56658600000003
 20
430.99745999999999
 30
0.0
 11
576.56658600000003
 21
379.864957
 31
0.0
  0
LINE
  5
F3834
  8
CENTER
 10
641.56658600000014
 20
48.774535
 30
0.0
 11
641.56658600000014
 21
-65.722977999999998
 31
0.0
  0
LINE
  5
F3835
  8
CENTER
 10
521.56658600000003
 20
-51.68172100000001
 30
0.0
 11
521.56658600000003
 21
74.588127
 31
0.0
  0
LINE
  5
F3836
  8
CENTER
 10
486.56658599999997
 20
-49.09219199999999
 30
0.0
 11
486.56658599999997
 21
48.587561000000001
 31
0.0
  0
LINE
  5
F3837
  8
OBJECT
 10
432.56658599999997
 20
4.6188020000000014
 30
0.0
 11
432.69716299999999
 21
4.6188020000000014
 31
0.0
  0
LINE
  5
F3838
  8
OBJECT
 10
432.56658599999997
 20
-4.6188020000000147
 30
0.0
 11
432.69716299999999
 21
-4.6188020000000147
 31
0.0
  0
LINE
  5
F3839
  8
OBJECT
 10
432.56658599999997
 20
-9.2376049999999896
 30
0.0
 11
436.17455500000011
 21
-9.2376049999999896
 31
0.0
  0
LINE
  5
F383A
  8
OBJECT
 10
432.56658599999997
 20
-9.2376049999999896
 30
0.0
 11
432.56658599999997
 21
-4.358898999999993
 31
0.0
  0
LINE
  5
F383B
  8
OBJECT
 10
432.56658599999997
 20
9.2376040000000028
 30
0.0
 11
436.17455500000011
 21
9.2376040000000028
 31
0.0
  0
LINE
  5
F383C
  8
OBJECT
 10
432.56658599999997
 20
4.358898999999993
 30
0.0
 11
432.56658599999997
 21
12.0
 31
0.0
  0
LINE
  5
F383D
  8
OBJECT
 10
432.56658599999997
 20
4.6188020000000014
 30
0.0
 11
432.56658599999997
 21
9.2376040000000028
 31
0.0
  0
LINE
  5
F383E
  8
OBJECT
 10
451.56658600000009
 20
28.284271000000011
 30
0.0
 11
433.78880799999979
 21
6.2853930000000124
 31
0.0
  0
ARC
  5
F383F
  8
OBJECT
 10
486.56658599999997
 20
0.0
 30
0.0
 40
45.0
 50
38.94244100000229
 51
141.0575589999977
  0
LINE
  5
F3840
  8
OBJECT
 10
451.56658600000009
 20
-28.284272000000001
 30
0.0
 11
433.78880799999979
 21
-6.285394000000009
 31
0.0
  0
ARC
  5
F3841
  8
CENTER
 10
486.56658599999997
 20
0.0
 30
0.0
 40
45.0
 50
166.3181290000002
 51
190.1388999999995
  0
CIRCLE
  5
F3842
  8
OBJECT
 10
486.56658599999997
 20
0.0
 30
0.0
 40
31.5
  0
ARC
  5
F3843
  8
OBJECT
 10
486.56658599999997
 20
0.0
 30
0.0
 40
38.0
 50
26.10359100000267
 51
153.89640899999731
  0
ARC
  5
F3844
  8
OBJECT
 10
486.56658599999997
 20
0.0
 30
0.0
 40
45.0
 50
218.9424410000023
 51
321.0575589999977
  0
ARC
  5
F3845
  8
OBJECT
 10
441.56658599999997
 20
0.0
 30
0.0
 40
10.0
 50
89.739564000000655
 51
270.26043599999929
  0
ARC
  5
F3846
  8
OBJECT
 10
486.56658599999997
 20
0.0
 30
0.0
 40
38.0
 50
206.10359100000269
 51
333.89640899999728
  0
ARC
  5
F3847
  8
OBJECT
 10
441.66658600000011
 20
-21.99977299999999
 30
0.0
 40
12.0
 50
26.10359100000267
 51
90.260435999999345
  0
ARC
  5
F3848
  8
OBJECT
 10
441.66658600000011
 20
21.999772000000011
 30
0.0
 40
12.0
 50
269.7395640000006
 51
333.89640899999728
  0
ARC
  5
F3849
  8
OBJECT
 10
531.46658599999978
 20
-21.99977299999999
 30
0.0
 40
12.0
 50
89.739564000000655
 51
153.89640899999731
  0
ARC
  5
F384A
  8
OBJECT
 10
531.46658599999978
 20
21.999772000000011
 30
0.0
 40
12.0
 50
206.10359100000269
 51
270.26043599999929
  0
LINE
  5
F384B
  8
OBJECT
 10
521.56658600000003
 20
28.284271000000011
 30
0.0
 11
539.34436399999993
 21
6.2853930000000124
 31
0.0
  0
LINE
  5
F384C
  8
OBJECT
 10
521.56658600000003
 20
-28.284272000000001
 30
0.0
 11
539.34436399999993
 21
-6.285394000000009
 31
0.0
  0
ARC
  5
F384D
  8
CENTER
 10
486.56658599999997
 20
0.0
 30
0.0
 40
45.0
 50
349.86110000000042
 51
13.68187099999977
  0
ARC
  5
F384E
  8
OBJECT
 10
531.56658600000026
 20
0.0
 30
0.0
 40
10.0
 50
269.7395640000006
 51
90.260435999999345
  0
CIRCLE
  5
F3851
  8
OBJECT
 10
486.56658599999997
 20
0.0
 30
0.0
 40
25.5
  0
LINE
  5
F3852
  8
OBJECT
 10
571.56658600000003
 20
28.284271000000011
 30
0.0
 11
553.78880800000002
 21
6.2853930000000124
 31
0.0
  0
ARC
  5
F3853
  8
OBJECT
 10
606.56658600000026
 20
0.0
 30
0.0
 40
45.0
 50
38.94244100000229
 51
141.0575589999977
  0
LINE
  5
F3854
  8
OBJECT
 10
571.56658600000003
 20
-28.284272000000001
 30
0.0
 11
553.78880800000002
 21
-6.285394000000009
 31
0.0
  0
ARC
  5
F3855
  8
CENTER
 10
606.56658600000026
 20
0.0
 30
0.0
 40
45.0
 50
166.3181290000002
 51
190.1388999999995
  0
CIRCLE
  5
F3856
  8
OBJECT
 10
606.56658600000026
 20
0.0
 30
0.0
 40
31.5
  0
ARC
  5
F3857
  8
OBJECT
 10
606.56658600000026
 20
0.0
 30
0.0
 40
38.0
 50
26.10359100000267
 51
153.89640899999731
  0
ARC
  5
F3858
  8
OBJECT
 10
606.56658600000026
 20
0.0
 30
0.0
 40
45.0
 50
218.9424410000023
 51
321.0575589999977
  0
ARC
  5
F3859
  8
OBJECT
 10
561.56658600000003
 20
0.0
 30
0.0
 40
10.0
 50
89.739564000000655
 51
270.26043599999929
  0
ARC
  5
F385A
  8
OBJECT
 10
606.56658600000026
 20
0.0
 30
0.0
 40
38.0
 50
206.10359100000269
 51
333.89640899999728
  0
ARC
  5
F385B
  8
OBJECT
 10
561.66658600000028
 20
-21.99977299999999
 30
0.0
 40
12.0
 50
26.10359100000267
 51
90.260435999999345
  0
ARC
  5
F385C
  8
OBJECT
 10
561.66658600000028
 20
21.999772000000011
 30
0.0
 40
12.0
 50
269.7395640000006
 51
333.89640899999728
  0
ARC
  5
F385D
  8
OBJECT
 10
651.46658600000001
 20
-21.99977299999999
 30
0.0
 40
12.0
 50
89.739564000000655
 51
153.89640899999731
  0
ARC
  5
F385E
  8
OBJECT
 10
651.46658600000001
 20
21.999772000000011
 30
0.0
 40
12.0
 50
206.10359100000269
 51
270.26043599999929
  0
LINE
  5
F385F
  8
OBJECT
 10
641.56658600000014
 20
28.284271000000011
 30
0.0
 11
659.34436400000016
 21
6.2853930000000124
 31
0.0
  0
LINE
  5
F3860
  8
OBJECT
 10
641.56658600000014
 20
-28.284272000000001
 30
0.0
 11
659.34436400000016
 21
-6.285394000000009
 31
0.0
  0
ARC
  5
F3861
  8
CENTER
 10
606.56658600000026
 20
0.0
 30
0.0
 40
45.0
 50
349.86110000000042
 51
13.68187099999977
  0
ARC
  5
F3862
  8
OBJECT
 10
651.5665859999998
 20
0.0
 30
0.0
 40
10.0
 50
269.7395640000006
 51
90.260435999999345
  0
CIRCLE
  5
F3865
  8
OBJECT
 10
606.56658600000026
 20
0.0
 30
0.0
 40
25.5
  0
LINE
  5
F3866
  8
OBJECT
 10
661.56658600000014
 20
347.49745999999999
 30
0.0
 11
551.56658600000003
 21
347.49745999999999
 31
0.0
  0
LINE
  5
F3867
  8
OBJECT
 10
571.56658600000003
 20
342.36035199999998
 30
0.0
 11
571.56658600000003
 21
347.49745999999999
 31
0.0
  0
LINE
  5
F3868
  8
OBJECT
 10
551.56658600000003
 20
341.36035199999998
 30
0.0
 11
661.56658600000014
 21
341.36035199999998
 31
0.0
  0
LINE
  5
F3869
  8
OBJECT
 10
571.56658600000003
 20
342.36035199999998
 30
0.0
 11
641.56658600000014
 21
342.36035199999998
 31
0.0
  0
LINE
  5
F386A
  8
OBJECT
 10
641.56658600000014
 20
342.36035199999998
 30
0.0
 11
641.56658600000014
 21
347.49745999999999
 31
0.0
  0
LINE
  5
F386B
  8
OBJECT
 10
551.56658600000003
 20
328.36035199999998
 30
0.0
 11
557.56658599999992
 21
328.36035199999998
 31
0.0
  0
LINE
  5
F386C
  8
OBJECT
 10
551.56658600000003
 20
347.49745999999999
 30
0.0
 11
551.56658600000003
 21
357.49745999999999
 31
0.0
  0
LINE
  5
F386D
  8
OBJECT
 10
553.56658600000003
 20
359.49745999999999
 30
0.0
 11
659.56658599999946
 21
359.49745999999999
 31
0.0
  0
LINE
  5
F386E
  8
OBJECT
 10
661.56658600000014
 20
328.36035199999998
 30
0.0
 11
655.56658599999969
 21
328.36035199999998
 31
0.0
  0
LINE
  5
F386F
  8
OBJECT
 10
661.56658600000014
 20
347.49745999999999
 30
0.0
 11
661.56658600000014
 21
357.49745999999999
 31
0.0
  0
LINE
  5
F3870
  8
OBJECT
 10
570.0665859999998
 20
370.49745999999999
 30
0.0
 11
570.0665859999998
 21
361.49745999999999
 31
0.0
  0
LINE
  5
F3871
  8
OBJECT
 10
643.06658600000003
 20
370.49745999999999
 30
0.0
 11
643.06658600000003
 21
361.49745999999999
 31
0.0
  0
ARC
  5
F3872
  8
OBJECT
 10
638.06658600000014
 20
370.49745999999999
 30
0.0
 40
5.0
 50
0.0
 51
69.512685000003003
  0
ARC
  5
F3873
  8
OBJECT
 10
575.06658600000003
 20
370.49745999999999
 30
0.0
 40
5.0
 50
110.487314999997
 51
180.0
  0
ARC
  5
F3874
  8
OBJECT
 10
568.06658600000003
 20
361.49745999999999
 30
0.0
 40
2.0
 50
270.0
 51
0.0
  0
ARC
  5
F3875
  8
OBJECT
 10
645.0665859999998
 20
361.49745999999999
 30
0.0
 40
2.0
 50
180.0
 51
270.0
  0
ARC
  5
F3876
  8
OBJECT
 10
553.56658600000003
 20
357.49745999999999
 30
0.0
 40
2.0
 50
90.0
 51
180.0
  0
ARC
  5
F3877
  8
OBJECT
 10
659.56658599999946
 20
357.49745999999999
 30
0.0
 40
2.0
 50
0.0
 51
90.0
  0
ARC
  5
F3878
  8
OBJECT
 10
571.56658600000003
 20
379.864957
 30
0.0
 40
5.0
 50
290.48731499999701
 51
0.0
  0
ARC
  5
F3879
  8
OBJECT
 10
641.56658600000014
 20
379.864957
 30
0.0
 40
5.0
 50
180.0
 51
249.51268500000299
  0
LINE
  5
F387A
  8
OBJECT
 10
573.31658600000003
 20
375.18120900000002
 30
0.0
 11
639.81658600000014
 21
375.18120900000002
 31
0.0
  0
LINE
  5
F387B
  8
OBJECT
 10
551.56658600000003
 20
328.36035199999998
 30
0.0
 11
551.56658600000003
 21
341.36035199999998
 31
0.0
  0
LINE
  5
F387C
  8
OBJECT
 10
661.56658600000014
 20
328.36035199999998
 30
0.0
 11
661.56658600000014
 21
341.36035199999998
 31
0.0
  0
LINE
  5
F387D
  8
OBJECT
 10
574.450648
 20
342.36035199999998
 30
0.0
 11
573.450648
 21
341.36035199999998
 31
0.0
  0
LINE
  5
F387E
  8
OBJECT
 10
638.68252400000017
 20
342.36035199999998
 30
0.0
 11
639.68252400000006
 21
341.36035199999998
 31
0.0
  0
LINE
  5
F387F
  8
OBJECT
 10
647.5665859999998
 20
328.36035199999998
 30
0.0
 11
560.35412299999984
 21
328.36035199999998
 31
0.0
  0
LINE
  5
F3882
  8
OBJECT
 10
541.56658600000003
 20
347.49745999999999
 30
0.0
 11
431.56658600000009
 21
347.49745999999999
 31
0.0
  0
LINE
  5
F3883
  8
OBJECT
 10
451.56658600000009
 20
342.36035199999998
 30
0.0
 11
451.56658600000009
 21
347.49745999999999
 31
0.0
  0
LINE
  5
F3884
  8
OBJECT
 10
431.56658600000009
 20
341.36035199999998
 30
0.0
 11
541.56658600000003
 21
341.36035199999998
 31
0.0
  0
LINE
  5
F3885
  8
OBJECT
 10
451.56658600000009
 20
342.36035199999998
 30
0.0
 11
521.56658600000003
 21
342.36035199999998
 31
0.0
  0
LINE
  5
F3886
  8
OBJECT
 10
521.56658600000003
 20
342.36035199999998
 30
0.0
 11
521.56658600000003
 21
347.49745999999999
 31
0.0
  0
LINE
  5
F3887
  8
OBJECT
 10
431.56658600000009
 20
328.36035199999998
 30
0.0
 11
437.56658599999997
 21
328.36035199999998
 31
0.0
  0
LINE
  5
F3888
  8
OBJECT
 10
431.56658600000009
 20
347.49745999999999
 30
0.0
 11
431.56658600000009
 21
357.49745999999999
 31
0.0
  0
LINE
  5
F3889
  8
OBJECT
 10
433.56658599999997
 20
359.49745999999999
 30
0.0
 11
539.56658600000003
 21
359.49745999999999
 31
0.0
  0
LINE
  5
F388A
  8
OBJECT
 10
541.56658600000003
 20
328.36035199999998
 30
0.0
 11
535.56658600000003
 21
328.36035199999998
 31
0.0
  0
LINE
  5
F388B
  8
OBJECT
 10
541.56658600000003
 20
347.49745999999999
 30
0.0
 11
541.56658600000003
 21
357.49745999999999
 31
0.0
  0
LINE
  5
F388C
  8
OBJECT
 10
523.06658600000003
 20
370.49745999999999
 30
0.0
 11
523.06658600000003
 21
361.49745999999999
 31
0.0
  0
ARC
  5
F388D
  8
OBJECT
 10
518.06658600000003
 20
370.49745999999999
 30
0.0
 40
5.0
 50
0.0
 51
69.512685000003003
  0
ARC
  5
F388E
  8
OBJECT
 10
455.06658600000009
 20
370.49745999999999
 30
0.0
 40
5.0
 50
110.487314999997
 51
180.0
  0
ARC
  5
F388F
  8
OBJECT
 10
448.06658600000009
 20
361.49745999999999
 30
0.0
 40
2.0
 50
270.0
 51
0.0
  0
ARC
  5
F3890
  8
OBJECT
 10
525.06658600000003
 20
361.49745999999999
 30
0.0
 40
2.0
 50
180.0
 51
270.0
  0
ARC
  5
F3891
  8
OBJECT
 10
433.56658599999997
 20
357.49745999999999
 30
0.0
 40
2.0
 50
90.0
 51
180.0
  0
ARC
  5
F3892
  8
OBJECT
 10
539.56658600000003
 20
357.49745999999999
 30
0.0
 40
2.0
 50
0.0
 51
90.0
  0
ARC
  5
F3893
  8
OBJECT
 10
451.56658600000009
 20
379.864957
 30
0.0
 40
5.0
 50
290.48731499999701
 51
0.0
  0
ARC
  5
F3894
  8
OBJECT
 10
521.56658600000003
 20
379.864957
 30
0.0
 40
5.0
 50
180.0
 51
249.51268500000299
  0
LINE
  5
F3895
  8
OBJECT
 10
453.31658600000009
 20
375.18120900000002
 30
0.0
 11
519.81658600000003
 21
375.18120900000002
 31
0.0
  0
LINE
  5
F3896
  8
OBJECT
 10
431.56658600000009
 20
328.36035199999998
 30
0.0
 11
431.56658600000009
 21
341.36035199999998
 31
0.0
  0
LINE
  5
F3897
  8
OBJECT
 10
541.56658600000003
 20
328.36035199999998
 30
0.0
 11
541.56658600000003
 21
341.36035199999998
 31
0.0
  0
LINE
  5
F3898
  8
CENTER
 10
441.56658599999997
 20
308.35519599999998
 30
0.0
 11
441.56658599999997
 21
369.001238
 31
0.0
  0
LINE
  5
F3899
  8
OBJECT
 10
454.45064799999989
 20
342.36035199999998
 30
0.0
 11
453.45064800000011
 21
341.36035199999998
 31
0.0
  0
LINE
  5
F389A
  8
OBJECT
 10
518.68252399999994
 20
342.36035199999998
 30
0.0
 11
519.68252399999994
 21
341.36035199999998
 31
0.0
  0
LINE
  5
F389B
  8
OBJECT
 10
527.56658600000003
 20
328.36035199999998
 30
0.0
 11
440.35412300000002
 21
328.36035199999998
 31
0.0
  0
LINE
  5
F389E
  8
OBJECT
 10
418.56658600000009
 20
552.49746000000005
 30
0.0
 11
418.56658600000009
 21
402.49745999999999
 31
0.0
  0
LINE
  5
F389F
  8
OBJECT
 10
640.17976699999986
 20
-29.919125000000001
 30
0.0
 11
645.54660000000001
 21
-29.39463700000001
 31
0.0
  0
LINE
  5
F38A0
  8
OBJECT
 10
645.54660000000001
 20
-29.39463700000001
 30
0.0
 11
650.77514600000006
 21
-28.390803000000009
 31
0.0
  0
LINE
  5
F38A1
  8
OBJECT
 10
650.77514600000006
 20
-28.390803000000009
 30
0.0
 11
655.78014399999984
 21
-26.923992999999999
 31
0.0
  0
LINE
  5
F38A2
  8
OBJECT
 10
655.78014399999984
 20
-26.923992999999999
 30
0.0
 11
660.47997500000042
 21
-25.018125999999999
 31
0.0
  0
LINE
  5
F38A3
  8
OBJECT
 10
660.47997500000042
 20
-25.018125999999999
 30
0.0
 11
664.79799800000012
 21
-22.704281999999989
 31
0.0
  0
LINE
  5
F38A4
  8
OBJECT
 10
664.79799800000012
 20
-22.704281999999989
 30
0.0
 11
668.66379700000005
 21
-20.020192999999988
 31
0.0
  0
LINE
  5
F38A5
  8
OBJECT
 10
668.66379700000005
 20
-20.020192999999988
 30
0.0
 11
672.01433199999997
 21
-17.009630000000001
 31
0.0
  0
LINE
  5
F38A6
  8
OBJECT
 10
672.01433199999997
 20
-17.009630000000001
 30
0.0
 11
674.7949659999997
 21
-13.721687000000021
 31
0.0
  0
LINE
  5
F38A7
  8
OBJECT
 10
674.7949659999997
 20
-13.721687000000021
 30
0.0
 11
676.96035300000005
 21
-10.20997999999997
 31
0.0
  0
LINE
  5
F38A8
  8
OBJECT
 10
674.7949659999997
 20
-13.721687000000021
 30
0.0
 11
676.96035300000005
 21
-10.20997999999997
 31
0.0
  0
LINE
  5
F38A9
  8
OBJECT
 10
621.06406100000015
 20
20.977921999999989
 30
0.0
 11
616.19520499999999
 21
18.121713
 31
0.0
  0
LINE
  5
F38AA
  8
OBJECT
 10
616.19520499999999
 20
18.121713
 30
0.0
 11
612.1071280000001
 21
14.707827
 31
0.0
  0
LINE
  5
F38AB
  8
OBJECT
 10
612.1071280000001
 20
14.707827
 30
0.0
 11
608.92563800000005
 21
10.841321000000001
 31
0.0
  0
LINE
  5
F38AC
  8
OBJECT
 10
608.92563800000005
 20
10.841321000000001
 30
0.0
 11
606.7486399999998
 21
6.6411839999999938
 31
0.0
  0
LINE
  5
F38AD
  8
OBJECT
 10
606.7486399999998
 20
6.6411839999999938
 30
0.0
 11
605.64313100000015
 21
2.2366719999999982
 31
0.0
  0
LINE
  5
F38AE
  8
OBJECT
 10
605.64313100000015
 20
2.2366719999999982
 30
0.0
 11
605.64313100000015
 21
-2.2366719999999982
 31
0.0
  0
LINE
  5
F38AF
  8
OBJECT
 10
605.64313100000015
 20
-2.2366719999999982
 30
0.0
 11
606.7486399999998
 21
-6.6411849999999912
 31
0.0
  0
LINE
  5
F38B0
  8
OBJECT
 10
606.7486399999998
 20
-6.6411849999999912
 30
0.0
 11
608.92563800000005
 21
-10.84132199999998
 31
0.0
  0
LINE
  5
F38B1
  8
OBJECT
 10
608.92563800000005
 20
-10.84132199999998
 30
0.0
 11
612.1071280000001
 21
-14.707826999999989
 31
0.0
  0
LINE
  5
F38B2
  8
OBJECT
 10
612.1071280000001
 20
-14.707826999999989
 30
0.0
 11
616.19520499999999
 21
-18.121714000000001
 31
0.0
  0
LINE
  5
F38B3
  8
OBJECT
 10
616.19520499999999
 20
-18.121714000000001
 30
0.0
 11
621.06406100000015
 21
-20.977923000000001
 31
0.0
  0
LINE
  5
F38B4
  8
OBJECT
 10
616.19520499999999
 20
-18.121714000000001
 30
0.0
 11
621.06406100000015
 21
-20.977923000000001
 31
0.0
  0
LINE
  5
F38B5
  8
OBJECT
 10
520.17976699999986
 20
-29.919125000000001
 30
0.0
 11
525.54660000000001
 21
-29.39463700000001
 31
0.0
  0
LINE
  5
F38B6
  8
OBJECT
 10
525.54660000000001
 20
-29.39463700000001
 30
0.0
 11
530.77514599999995
 21
-28.390803000000009
 31
0.0
  0
LINE
  5
F38B7
  8
OBJECT
 10
530.77514599999995
 20
-28.390803000000009
 30
0.0
 11
535.78014400000018
 21
-26.923992999999999
 31
0.0
  0
LINE
  5
F38B8
  8
OBJECT
 10
535.78014400000018
 20
-26.923992999999999
 30
0.0
 11
540.47997499999985
 21
-25.018125999999999
 31
0.0
  0
LINE
  5
F38B9
  8
OBJECT
 10
540.47997499999985
 20
-25.018125999999999
 30
0.0
 11
544.79799800000001
 21
-22.704281999999989
 31
0.0
  0
LINE
  5
F38BA
  8
OBJECT
 10
544.79799800000001
 20
-22.704281999999989
 30
0.0
 11
548.66379699999993
 21
-20.020192999999988
 31
0.0
  0
LINE
  5
F38BB
  8
OBJECT
 10
548.66379699999993
 20
-20.020192999999988
 30
0.0
 11
552.01433199999985
 21
-17.009630000000001
 31
0.0
  0
LINE
  5
F38BC
  8
OBJECT
 10
552.01433199999985
 20
-17.009630000000001
 30
0.0
 11
554.79496599999993
 21
-13.721687000000021
 31
0.0
  0
LINE
  5
F38BD
  8
OBJECT
 10
554.79496599999993
 20
-13.721687000000021
 30
0.0
 11
556.96035300000005
 21
-10.20997999999997
 31
0.0
  0
LINE
  5
F38BE
  8
OBJECT
 10
554.79496599999993
 20
-13.721687000000021
 30
0.0
 11
556.96035300000005
 21
-10.20997999999997
 31
0.0
  0
LINE
  5
F38BF
  8
OBJECT
 10
501.06406100000021
 20
20.977921999999989
 30
0.0
 11
496.19520499999987
 21
18.121713
 31
0.0
  0
LINE
  5
F38C0
  8
OBJECT
 10
496.19520499999987
 20
18.121713
 30
0.0
 11
492.10712800000022
 21
14.707827
 31
0.0
  0
LINE
  5
F38C1
  8
OBJECT
 10
492.10712800000022
 20
14.707827
 30
0.0
 11
488.92563799999988
 21
10.841321000000001
 31
0.0
  0
LINE
  5
F38C2
  8
OBJECT
 10
488.92563799999988
 20
10.841321000000001
 30
0.0
 11
486.74864000000002
 21
6.6411839999999938
 31
0.0
  0
LINE
  5
F38C3
  8
OBJECT
 10
486.74864000000002
 20
6.6411839999999938
 30
0.0
 11
485.64313099999993
 21
2.2366719999999982
 31
0.0
  0
LINE
  5
F38C4
  8
OBJECT
 10
485.64313099999993
 20
2.2366719999999982
 30
0.0
 11
485.64313099999993
 21
-2.2366719999999982
 31
0.0
  0
LINE
  5
F38C5
  8
OBJECT
 10
485.64313099999993
 20
-2.2366719999999982
 30
0.0
 11
486.74864000000002
 21
-6.6411849999999912
 31
0.0
  0
LINE
  5
F38C6
  8
OBJECT
 10
486.74864000000002
 20
-6.6411849999999912
 30
0.0
 11
488.92563799999988
 21
-10.84132199999998
 31
0.0
  0
LINE
  5
F38C7
  8
OBJECT
 10
488.92563799999988
 20
-10.84132199999998
 30
0.0
 11
492.10712800000022
 21
-14.707826999999989
 31
0.0
  0
LINE
  5
F38C8
  8
OBJECT
 10
492.10712800000022
 20
-14.707826999999989
 30
0.0
 11
496.19520499999987
 21
-18.121714000000001
 31
0.0
  0
LINE
  5
F38C9
  8
OBJECT
 10
496.19520499999987
 20
-18.121714000000001
 30
0.0
 11
501.06406100000021
 21
-20.977923000000001
 31
0.0
  0
LINE
  5
F38CA
  8
OBJECT
 10
496.19520499999987
 20
-18.121714000000001
 30
0.0
 11
501.06406100000021
 21
-20.977923000000001
 31
0.0
  0
LINE
  5
F38CB
  8
CENTER
 10
0.0
 20
-79.195427999999978
 30
0.0
 11
0.0
 21
83.551644999999979
 31
0.0
  0
LINE
  5
F38CC
  8
CENTER
 10
-94.012834999999995
 20
0.0
 30
0.0
 11
173.27785200000011
 21
0.0
 31
0.0
  0
LINE
  5
F38CF
  8
OBJECT
 10
37.5
 20
55.0
 30
0.0
 11
28.618175999999949
 21
55.0
 31
0.0
  0
LINE
  5
F38D0
  8
OBJECT
 10
37.5
 20
55.0
 30
0.0
 11
37.807174000000032
 21
49.138758000000003
 31
0.0
  0
LINE
  5
F38D1
  8
OBJECT
 10
-37.5
 20
55.0
 30
0.0
 11
-37.80717500000015
 21
49.138758000000003
 31
0.0
  0
LINE
  5
F38D2
  8
OBJECT
 10
-28.618175999999949
 20
55.0
 30
0.0
 11
-37.5
 21
55.0
 31
0.0
  0
LINE
  5
F38D3
  8
OBJECT
 10
37.5
 20
55.0
 30
0.0
 11
28.618175999999949
 21
55.0
 31
0.0
  0
LINE
  5
F38D7
  8
OBJECT
 10
-28.618175999999949
 20
55.0
 30
0.0
 11
-37.5
 21
55.0
 31
0.0
  0
LINE
  5
F38D8
  8
OBJECT
 10
-37.5
 20
58.0
 30
0.0
 11
-37.5
 21
55.0
 31
0.0
  0
LINE
  5
F38D9
  8
OBJECT
 10
37.5
 20
55.0
 30
0.0
 11
28.618175999999949
 21
55.0
 31
0.0
  0
LINE
  5
F38DA
  8
OBJECT
 10
37.5
 20
55.0
 30
0.0
 11
37.5
 21
58.0
 31
0.0
  0
LINE
  5
F38DB
  8
OBJECT
 10
37.5
 20
58.0
 30
0.0
 11
21.908902000000118
 21
58.0
 31
0.0
  0
LINE
  5
F38DC
  8
OBJECT
 10
-21.908903000000009
 20
58.0
 30
0.0
 11
-37.5
 21
58.0
 31
0.0
  0
LINE
  5
F38DD
  8
OBJECT
 10
-28.618175999999949
 20
55.0
 30
0.0
 11
-37.5
 21
55.0
 31
0.0
  0
ARC
  5
F38DE
  8
OBJECT
 10
63.0
 20
0.0
 30
0.0
 40
12.0
 50
262.6004460000035
 51
322.52800500000012
  0
LINE
  5
F38DF
  8
OBJECT
 10
49.206349000000039
 20
37.719162000000011
 30
0.0
 11
72.523809000000028
 21
7.3004829999999989
 31
0.0
  0
ARC
  5
F38E0
  8
CENTER
 10
0.0
 20
0.0
 30
0.0
 40
63.0
 50
350.66869900000052
 51
8.6519390000007892
  0
LINE
  5
F38E1
  8
OBJECT
 10
49.206349000000039
 20
-37.719161999999997
 30
0.0
 11
72.523809000000028
 21
-7.3004829999999714
 31
0.0
  0
LINE
  5
F38E2
  8
OBJECT
 10
-49.206350000000143
 20
37.719162000000011
 30
0.0
 11
-72.523810000000125
 21
7.3004829999999989
 31
0.0
  0
ARC
  5
F38E3
  8
OBJECT
 10
0.0
 20
0.0
 30
0.0
 40
62.0
 50
217.47199499999999
 51
255.40744899999709
  0
ARC
  5
F38E4
  8
OBJECT
 10
63.0
 20
0.0
 30
0.0
 40
12.0
 50
322.52800500000012
 51
37.471994999999879
  0
ARC
  5
F38E5
  8
OBJECT
 10
0.0
 20
0.0
 30
0.0
 40
62.0
 50
37.471994999999879
 51
75.407448999997015
  0
LINE
  5
F38E6
  8
OBJECT
 10
-49.206350000000143
 20
-37.719161999999997
 30
0.0
 11
-72.523810000000125
 21
-7.3004829999999714
 31
0.0
  0
ARC
  5
F38E7
  8
OBJECT
 10
0.0
 20
0.0
 30
0.0
 40
54.0
 50
19.930942999999171
 51
160.06905700000081
  0
ARC
  5
F38E8
  8
OBJECT
 10
63.0
 20
0.0
 30
0.0
 40
12.0
 50
37.471994999999879
 51
97.399553999996513
  0
ARC
  5
F38E9
  8
OBJECT
 10
-63.0
 20
0.0
 30
0.0
 40
12.0
 50
217.47199499999999
 51
277.3995539999965
  0
ARC
  5
F38EA
  8
CENTER
 10
0.0
 20
0.0
 30
0.0
 40
63.0
 50
170.7737420000006
 51
189.5548950000005
  0
ARC
  5
F38EB
  8
OBJECT
 10
-63.0
 20
0.0
 30
0.0
 40
12.0
 50
82.600446000003501
 51
142.52800500000009
  0
ARC
  5
F38EC
  8
OBJECT
 10
-63.0
 20
0.0
 30
0.0
 40
12.0
 50
142.52800500000009
 51
217.47199499999999
  0
ARC
  5
F38ED
  8
OBJECT
 10
0.0
 20
0.0
 30
0.0
 40
54.0
 50
199.93094299999919
 51
340.06905700000078
  0
ARC
  5
F38EE
  8
OBJECT
 10
-60.166666999999961
 20
-21.816787999999999
 30
0.0
 40
10.0
 50
19.930942999999171
 51
97.399553999996513
  0
ARC
  5
F38EF
  8
OBJECT
 10
60.16666599999985
 20
-21.816787999999999
 30
0.0
 40
10.0
 50
82.600446000003501
 51
160.06905700000081
  0
ARC
  5
F38F0
  8
OBJECT
 10
60.16666599999985
 20
21.816787000000001
 30
0.0
 40
10.0
 50
199.93094299999919
 51
277.3995539999965
  0
ARC
  5
F38F1
  8
OBJECT
 10
-60.166666999999961
 20
21.816787000000001
 30
0.0
 40
10.0
 50
262.6004460000035
 51
340.06905700000078
  0
LINE
  5
F38F2
  8
OBJECT
 10
130.0
 20
-44.999999999999993
 30
0.0
 11
130.0
 21
45.0
 31
0.0
  0
LINE
  5
F38F3
  8
OBJECT
 10
97.632503000000042
 20
30.0
 30
0.0
 11
55.12347799999997
 21
30.0
 31
0.0
  0
LINE
  5
F38F4
  8
OBJECT
 10
97.632503000000042
 20
-30.0
 30
0.0
 11
55.12347799999997
 21
-30.0
 31
0.0
  0
LINE
  5
F38F5
  8
OBJECT
 10
102.3162509999998
 20
33.25
 30
0.0
 11
102.3162509999998
 21
-33.249999999999993
 31
0.0
  0
LINE
  5
F38F6
  8
OBJECT
 10
122.0
 20
42.999999999999993
 30
0.0
 11
122.0
 21
18.944272000000002
 31
0.0
  0
LINE
  5
F38F7
  8
OBJECT
 10
130.0
 20
-44.999999999999993
 30
0.0
 11
124.0
 21
-44.999999999999993
 31
0.0
  0
LINE
  5
F38F8
  8
OBJECT
 10
130.0
 20
45.0
 30
0.0
 11
124.0
 21
45.0
 31
0.0
  0
ARC
  5
F38F9
  8
OBJECT
 10
118.0
 20
-40.499999999999979
 30
0.0
 40
4.0
 50
0.0
 51
90.0
  0
ARC
  5
F38FA
  8
OBJECT
 10
118.0
 20
40.499999999999993
 30
0.0
 40
4.0
 50
270.0
 51
0.0
  0
LINE
  5
F38FB
  8
OBJECT
 10
107.0
 20
-36.499999999999993
 30
0.0
 11
118.0
 21
-36.499999999999993
 31
0.0
  0
LINE
  5
F38FC
  8
OBJECT
 10
107.0
 20
36.5
 30
0.0
 11
118.0
 21
36.5
 31
0.0
  0
ARC
  5
F38FD
  8
OBJECT
 10
124.0
 20
-42.999999999999979
 30
0.0
 40
2.0
 50
180.0
 51
270.0
  0
ARC
  5
F38FE
  8
OBJECT
 10
124.0
 20
42.999999999999993
 30
0.0
 40
2.0
 50
90.0
 51
180.0
  0
ARC
  5
F38FF
  8
OBJECT
 10
107.0
 20
31.5
 30
0.0
 40
5.0
 50
90.0
 51
159.5126849999985
  0
ARC
  5
F3900
  8
OBJECT
 10
97.632503000000042
 20
35.0
 30
0.0
 40
5.0
 50
270.0
 51
339.51268499999861
  0
ARC
  5
F3901
  8
OBJECT
 10
107.0
 20
-31.499999999999989
 30
0.0
 40
5.0
 50
200.4873150000015
 51
270.0
  0
ARC
  5
F3902
  8
OBJECT
 10
97.632503000000042
 20
-35.0
 30
0.0
 40
5.0
 50
20.487315000001491
 51
90.0
  0
LINE
  5
F3903
  8
OBJECT
 10
122.0
 20
-42.999999999999979
 30
0.0
 11
122.0
 21
-18.944272000000002
 31
0.0
  0
LINE
  5
F3904
  8
OBJECT
 10
135.1371079999999
 20
-35.0
 30
0.0
 11
130.0
 21
-35.0
 31
0.0
  0
LINE
  5
F3905
  8
OBJECT
 10
136.1371079999999
 20
45.0
 30
0.0
 11
136.1371079999999
 21
-44.999999999999993
 31
0.0
  0
LINE
  5
F3906
  8
OBJECT
 10
135.1371079999999
 20
-35.0
 30
0.0
 11
135.1371079999999
 21
-4.0
 31
0.0
  0
LINE
  5
F3907
  8
OBJECT
 10
135.1371079999999
 20
35.0
 30
0.0
 11
130.0
 21
35.0
 31
0.0
  0
LINE
  5
F3908
  8
OBJECT
 10
135.1371079999999
 20
-32.115938
 30
0.0
 11
136.1371079999999
 21
-33.115938
 31
0.0
  0
LINE
  5
F3909
  8
OBJECT
 10
135.1371079999999
 20
32.115938
 30
0.0
 11
136.1371079999999
 21
33.115938
 31
0.0
  0
LINE
  5
F390A
  8
OBJECT
 10
149.1371079999999
 20
-44.999999999999993
 30
0.0
 11
149.1371079999999
 21
45.0
 31
0.0
  0
LINE
  5
F390C
  8
OBJECT
 10
136.1371079999999
 20
45.0
 30
0.0
 11
149.1371079999999
 21
45.0
 31
0.0
  0
LINE
  5
F390D
  8
OBJECT
 10
136.1371079999999
 20
-44.999999999999993
 30
0.0
 11
149.1371079999999
 21
-44.999999999999993
 31
0.0
  0
LINE
  5
F390F
  8
OBJECT
 10
118.0
 20
-9.9999999999999716
 30
0.0
 11
118.0
 21
10.0
 31
0.0
  0
ARC
  5
F3910
  8
OBJECT
 10
110.0
 20
-18.944272000000002
 30
0.0
 40
12.0
 50
0.0
 51
48.18968499999567
  0
ARC
  5
F3911
  8
OBJECT
 10
110.0
 20
18.944272000000002
 30
0.0
 40
12.0
 50
311.81031500000432
 51
0.0
  0
LINE
  5
F3912
  8
OBJECT
 10
135.1371079999999
 20
4.0
 30
0.0
 11
135.1371079999999
 21
35.0
 31
0.0
  0
LINE
  5
F391B
  8
CENTER
 10
632.30424800000003
 20
449.99745999999988
 30
0.0
 11
650.82494400000007
 21
449.99745999999988
 31
0.0
  0
LINE
  5
F391C
  8
OBJECT
 10
450.06658599999997
 20
370.49745999999999
 30
0.0
 11
450.06658599999997
 21
361.49745999999999
 31
0.0
  0
LINE
  5
F391D
  8
OBJECT
 10
556.96035300000005
 20
10.209979000000001
 30
0.0
 11
554.79496599999993
 21
13.721686
 31
0.0
  0
LINE
  5
F391E
  8
OBJECT
 10
554.79496599999993
 20
13.721686
 30
0.0
 11
552.01433199999985
 21
17.009630000000008
 31
0.0
  0
LINE
  5
F391F
  8
OBJECT
 10
552.01433199999985
 20
17.009630000000008
 30
0.0
 11
548.66379699999993
 21
20.02019300000001
 31
0.0
  0
LINE
  5
F3920
  8
OBJECT
 10
548.66379699999993
 20
20.02019300000001
 30
0.0
 11
544.79799800000001
 21
22.704281000000002
 31
0.0
  0
LINE
  5
F3921
  8
OBJECT
 10
544.79799800000001
 20
22.704281000000002
 30
0.0
 11
540.47997499999985
 21
25.018125000000008
 31
0.0
  0
LINE
  5
F3922
  8
OBJECT
 10
540.47997499999985
 20
25.018125000000008
 30
0.0
 11
535.78014400000018
 21
26.923991999999998
 31
0.0
  0
LINE
  5
F3923
  8
OBJECT
 10
535.78014400000018
 20
26.923991999999998
 30
0.0
 11
530.77514599999995
 21
28.390803000000009
 31
0.0
  0
LINE
  5
F3924
  8
OBJECT
 10
530.77514599999995
 20
28.390803000000009
 30
0.0
 11
525.54660000000001
 21
29.39463700000001
 31
0.0
  0
LINE
  5
F3925
  8
OBJECT
 10
525.54660000000001
 20
29.39463700000001
 30
0.0
 11
520.17976699999986
 21
29.919125000000001
 31
0.0
  0
LINE
  5
F3926
  8
OBJECT
 10
525.54660000000001
 20
29.39463700000001
 30
0.0
 11
520.17976699999986
 21
29.919125000000001
 31
0.0
  0
LINE
  5
F3928
  8
CENTER
 10
521.56658600000003
 20
435.011641
 30
0.0
 11
521.56658600000003
 21
519.46601599999985
 31
0.0
  0
LINE
  5
F392B
  8
CENTER
 10
512.30424800000003
 20
504.99745999999959
 30
0.0
 11
530.82494399999985
 21
504.99745999999959
 31
0.0
  0
POINT
  5
F392F
  8
OBJECT
 10
486.56658599999997
 20
372.49745999999999
 30
0.0
  0
LINE
  5
F3931
  8
OBJECT
 10
496.56658599999992
 20
55.0
 30
0.0
 11
496.56658599999992
 21
49.499999999999993
 31
0.0
  0
LINE
  5
F3932
  8
OBJECT
 10
546.56658600000003
 20
55.0
 30
0.0
 11
546.56658600000003
 21
49.499999999999993
 31
0.0
  0
LINE
  5
F3933
  8
OBJECT
 10
543.96599800000001
 20
55.0
 30
0.0
 11
496.56658599999992
 21
55.0
 31
0.0
  0
ARC
  5
F3934
  8
OBJECT
 10
491.56658599999992
 20
49.499999999999993
 30
0.0
 40
5.0
 50
270.0
 51
0.0
  0
ARC
  5
F3935
  8
OBJECT
 10
551.56658600000003
 20
49.499999999999993
 30
0.0
 40
5.0
 50
180.0
 51
270.0
  0
LINE
  5
F3939
  8
OBJECT
 10
551.56658600000003
 20
44.499999999999993
 30
0.0
 11
611.56658600000014
 21
44.499999999999993
 31
0.0
  0
LINE
  5
F393A
  8
OBJECT
 10
418.56658600000009
 20
-60.0
 30
0.0
 11
428.56658599999997
 21
-60.0
 31
0.0
  0
LINE
  5
F393B
  8
OBJECT
 10
397.21710800000011
 20
-60.0
 30
0.0
 11
412.217108
 21
-60.0
 31
0.0
  0
LINE
  5
F393C
  8
OBJECT
 10
617.37890699999969
 20
-44.499999999999979
 30
0.0
 11
874.56658599999992
 21
-44.499999999999979
 31
0.0
  0
LINE
  5
F393D
  8
OBJECT
 10
15.62049899999988
 20
60.0
 30
0.0
 11
-15.620499999999989
 21
60.0
 31
0.0
  0
LINE
  5
F393E
  8
OBJECT
 10
-15.620499999999989
 20
-60.0
 30
0.0
 11
15.62049899999988
 21
-60.0
 31
0.0
  0
ARC
  5
F393F
  8
OBJECT
 10
0.0
 20
0.0
 30
0.0
 40
62.0
 50
104.5925510000029
 51
142.52800500000009
  0
ARC
  5
F3940
  8
OBJECT
 10
0.0
 20
0.0
 30
0.0
 40
62.0
 50
284.59255100000303
 51
322.52800500000012
  0
LINE
  5
F3941
  8
OBJECT
 10
418.56658600000009
 20
60.0
 30
0.0
 11
428.56658599999997
 21
60.0
 31
0.0
  0
LINE
  5
F3942
  8
OBJECT
 10
397.21710800000011
 20
60.0
 30
0.0
 11
412.217108
 21
60.0
 31
0.0
  0
LINE
  5
F3945
  8
CENTER
 10
470.33168399999983
 20
477.49745999999999
 30
0.0
 11
452.82653399999992
 21
477.49745999999999
 31
0.0
  0
LINE
  5
F3946
  8
CENTER
 10
488.66273100000001
 20
477.49745999999999
 30
0.0
 11
891.17437099999995
 21
477.49745999999999
 31
0.0
  0
LINE
  5
F3949
  8
CENTER
 10
371.650983
 20
414.49745999999999
 30
0.0
 11
447.09195199999988
 21
414.49745999999999
 31
0.0
  0
LINE
  5
F394B
  8
OBJECT
 10
448.06658600000009
 20
359.49745999999999
 30
0.0
 11
448.06658600000009
 21
364.49745999999999
 31
0.0
  0
LINE
  5
F394C
  8
OBJECT
 10
448.06658600000009
 20
359.49745999999999
 30
0.0
 11
435.06658600000009
 21
359.49745999999999
 31
0.0
  0
LINE
  5
F394D
  8
OBJECT
 10
445.56658599999997
 20
315.17404299999998
 30
0.0
 11
445.56658599999997
 21
321.56035200000002
 31
0.0
  0
LINE
  5
F394E
  8
OBJECT
 10
445.56658599999997
 20
315.17404299999998
 30
0.0
 11
444.89000299999992
 21
314.49745999999999
 31
0.0
  0
LINE
  5
F394F
  8
OBJECT
 10
444.89000299999992
 20
314.49745999999999
 30
0.0
 11
438.2431679999998
 21
314.49745999999999
 31
0.0
  0
LINE
  5
F3950
  8
OBJECT
 10
438.2431679999998
 20
314.49745999999999
 30
0.0
 11
437.56658599999997
 21
315.17404299999998
 31
0.0
  0
LINE
  5
F3951
  8
OBJECT
 10
437.56658599999997
 20
315.17404299999998
 30
0.0
 11
437.56658599999997
 21
321.56035200000002
 31
0.0
  0
LINE
  5
F3952
  8
OBJECT
 10
437.56658599999997
 20
342.49745999999999
 30
0.0
 11
445.56658599999997
 21
342.49745999999999
 31
0.0
  0
LINE
  5
F3953
  8
OBJECT
 10
437.56658599999997
 20
315.17404299999998
 30
0.0
 11
445.56658599999997
 21
315.17404299999998
 31
0.0
  0
LINE
  5
F3954
  8
OBJECT
 10
438.2431679999998
 20
314.49745999999999
 30
0.0
 11
438.2431679999998
 21
321.56035200000002
 31
0.0
  0
LINE
  5
F3955
  8
OBJECT
 10
444.89000299999992
 20
314.49745999999999
 30
0.0
 11
444.89000299999992
 21
321.56035200000002
 31
0.0
  0
LINE
  5
F3956
  8
OBJECT
 10
437.56658599999997
 20
343.66933599999999
 30
0.0
 11
438.2431679999998
 21
342.49745999999999
 31
0.0
  0
LINE
  5
F3957
  8
OBJECT
 10
445.56658599999997
 20
343.66933599999999
 30
0.0
 11
444.89000299999992
 21
342.49745999999999
 31
0.0
  0
LINE
  5
F3958
  8
OBJECT
 10
448.06658600000009
 20
364.49745999999999
 30
0.0
 11
435.06658600000009
 21
364.49745999999999
 31
0.0
  0
LINE
  5
F3959
  8
OBJECT
 10
435.06658600000009
 20
359.49745999999999
 30
0.0
 11
435.06658600000009
 21
364.49745999999999
 31
0.0
  0
LINE
  5
F395A
  8
OBJECT
 10
445.56658599999997
 20
341.36035199999998
 30
0.0
 11
445.56658599999997
 21
347.49745999999999
 31
0.0
  0
LINE
  5
F395B
  8
OBJECT
 10
444.89000299999992
 20
341.36035199999998
 30
0.0
 11
444.89000299999992
 21
342.49745999999999
 31
0.0
  0
LINE
  5
F395C
  8
OBJECT
 10
438.2431679999998
 20
341.36035199999998
 30
0.0
 11
438.2431679999998
 21
342.49745999999999
 31
0.0
  0
LINE
  5
F395D
  8
OBJECT
 10
437.56658599999997
 20
341.36035199999998
 30
0.0
 11
437.56658599999997
 21
347.49745999999999
 31
0.0
  0
LINE
  5
F395E
  8
OBJECT
 10
527.56658600000003
 20
341.36035199999998
 30
0.0
 11
527.56658600000003
 21
347.49745999999999
 31
0.0
  0
LINE
  5
F395F
  8
OBJECT
 10
528.24316799999997
 20
341.36035199999998
 30
0.0
 11
528.24316799999997
 21
342.49745999999999
 31
0.0
  0
LINE
  5
F3960
  8
OBJECT
 10
534.89000300000021
 20
341.36035199999998
 30
0.0
 11
534.89000300000021
 21
342.49745999999999
 31
0.0
  0
LINE
  5
F3961
  8
OBJECT
 10
535.56658600000003
 20
341.36035199999998
 30
0.0
 11
535.56658600000003
 21
347.49745999999999
 31
0.0
  0
LINE
  5
F3962
  8
OBJECT
 10
525.06658600000003
 20
359.49745999999999
 30
0.0
 11
525.06658600000003
 21
364.49745999999999
 31
0.0
  0
LINE
  5
F3963
  8
OBJECT
 10
538.06658600000003
 20
359.49745999999999
 30
0.0
 11
538.06658600000003
 21
364.49745999999999
 31
0.0
  0
LINE
  5
F3964
  8
OBJECT
 10
525.06658600000003
 20
359.49745999999999
 30
0.0
 11
538.06658600000003
 21
359.49745999999999
 31
0.0
  0
LINE
  5
F3965
  8
OBJECT
 10
527.56658600000003
 20
315.17404299999998
 30
0.0
 11
527.56658600000003
 21
321.56035200000002
 31
0.0
  0
LINE
  5
F3966
  8
OBJECT
 10
527.56658600000003
 20
315.17404299999998
 30
0.0
 11
528.24316799999997
 21
314.49745999999999
 31
0.0
  0
LINE
  5
F3967
  8
OBJECT
 10
528.24316799999997
 20
314.49745999999999
 30
0.0
 11
534.89000300000021
 21
314.49745999999999
 31
0.0
  0
LINE
  5
F3968
  8
OBJECT
 10
534.89000300000021
 20
314.49745999999999
 30
0.0
 11
535.56658600000003
 21
315.17404299999998
 31
0.0
  0
LINE
  5
F3969
  8
OBJECT
 10
535.56658600000003
 20
315.17404299999998
 30
0.0
 11
535.56658600000003
 21
321.56035200000002
 31
0.0
  0
LINE
  5
F396A
  8
OBJECT
 10
535.56658600000003
 20
342.49745999999999
 30
0.0
 11
527.56658600000003
 21
342.49745999999999
 31
0.0
  0
LINE
  5
F396B
  8
OBJECT
 10
535.56658600000003
 20
315.17404299999998
 30
0.0
 11
527.56658600000003
 21
315.17404299999998
 31
0.0
  0
LINE
  5
F396C
  8
OBJECT
 10
534.89000300000021
 20
314.49745999999999
 30
0.0
 11
534.89000300000021
 21
321.56035200000002
 31
0.0
  0
LINE
  5
F396D
  8
OBJECT
 10
528.24316799999997
 20
314.49745999999999
 30
0.0
 11
528.24316799999997
 21
321.56035200000002
 31
0.0
  0
LINE
  5
F396E
  8
OBJECT
 10
535.56658600000003
 20
343.66933599999999
 30
0.0
 11
534.89000300000021
 21
342.49745999999999
 31
0.0
  0
LINE
  5
F396F
  8
OBJECT
 10
527.56658600000003
 20
343.66933599999999
 30
0.0
 11
528.24316799999997
 21
342.49745999999999
 31
0.0
  0
LINE
  5
F3970
  8
OBJECT
 10
525.06658600000003
 20
364.49745999999999
 30
0.0
 11
538.06658600000003
 21
364.49745999999999
 31
0.0
  0
LINE
  5
F3971
  8
CENTER
 10
531.56658600000026
 20
308.35519599999998
 30
0.0
 11
531.56658600000026
 21
369.001238
 31
0.0
  0
LINE
  5
F3972
  8
OBJECT
 10
647.5665859999998
 20
341.36035199999998
 30
0.0
 11
647.5665859999998
 21
347.49745999999999
 31
0.0
  0
LINE
  5
F3973
  8
OBJECT
 10
648.24316799999986
 20
341.36035199999998
 30
0.0
 11
648.24316799999986
 21
342.49745999999999
 31
0.0
  0
LINE
  5
F3974
  8
OBJECT
 10
654.89000300000021
 20
341.36035199999998
 30
0.0
 11
654.89000300000021
 21
342.49745999999999
 31
0.0
  0
LINE
  5
F3975
  8
OBJECT
 10
655.56658599999969
 20
341.36035199999998
 30
0.0
 11
655.56658599999969
 21
347.49745999999999
 31
0.0
  0
LINE
  5
F3976
  8
OBJECT
 10
645.0665859999998
 20
359.49745999999999
 30
0.0
 11
645.0665859999998
 21
364.49745999999999
 31
0.0
  0
LINE
  5
F3977
  8
OBJECT
 10
658.0665859999998
 20
359.49745999999999
 30
0.0
 11
658.0665859999998
 21
364.49745999999999
 31
0.0
  0
LINE
  5
F3978
  8
OBJECT
 10
645.0665859999998
 20
359.49745999999999
 30
0.0
 11
658.0665859999998
 21
359.49745999999999
 31
0.0
  0
LINE
  5
F3979
  8
OBJECT
 10
647.5665859999998
 20
315.17404299999998
 30
0.0
 11
647.5665859999998
 21
321.56035200000002
 31
0.0
  0
LINE
  5
F397A
  8
OBJECT
 10
647.5665859999998
 20
315.17404299999998
 30
0.0
 11
648.24316799999986
 21
314.49745999999999
 31
0.0
  0
LINE
  5
F397B
  8
OBJECT
 10
648.24316799999986
 20
314.49745999999999
 30
0.0
 11
654.89000300000021
 21
314.49745999999999
 31
0.0
  0
LINE
  5
F397C
  8
OBJECT
 10
654.89000300000021
 20
314.49745999999999
 30
0.0
 11
655.56658599999969
 21
315.17404299999998
 31
0.0
  0
LINE
  5
F397D
  8
OBJECT
 10
655.56658599999969
 20
315.17404299999998
 30
0.0
 11
655.56658599999969
 21
321.56035200000002
 31
0.0
  0
LINE
  5
F397E
  8
OBJECT
 10
655.56658599999969
 20
342.49745999999999
 30
0.0
 11
647.5665859999998
 21
342.49745999999999
 31
0.0
  0
LINE
  5
F397F
  8
OBJECT
 10
655.56658599999969
 20
315.17404299999998
 30
0.0
 11
647.5665859999998
 21
315.17404299999998
 31
0.0
  0
LINE
  5
F3980
  8
OBJECT
 10
654.89000300000021
 20
314.49745999999999
 30
0.0
 11
654.89000300000021
 21
321.56035200000002
 31
0.0
  0
LINE
  5
F3981
  8
OBJECT
 10
648.24316799999986
 20
314.49745999999999
 30
0.0
 11
648.24316799999986
 21
321.56035200000002
 31
0.0
  0
LINE
  5
F3982
  8
OBJECT
 10
655.56658599999969
 20
343.66933599999999
 30
0.0
 11
654.89000300000021
 21
342.49745999999999
 31
0.0
  0
LINE
  5
F3983
  8
OBJECT
 10
647.5665859999998
 20
343.66933599999999
 30
0.0
 11
648.24316799999986
 21
342.49745999999999
 31
0.0
  0
LINE
  5
F3984
  8
OBJECT
 10
645.0665859999998
 20
364.49745999999999
 30
0.0
 11
658.0665859999998
 21
364.49745999999999
 31
0.0
  0
LINE
  5
F3985
  8
CENTER
 10
651.5665859999998
 20
308.35519599999998
 30
0.0
 11
651.5665859999998
 21
369.001238
 31
0.0
  0
LINE
  5
F3986
  8
CENTER
 10
561.56658600000003
 20
308.35519599999998
 30
0.0
 11
561.56658600000003
 21
369.001238
 31
0.0
  0
LINE
  5
F3987
  8
OBJECT
 10
565.56658600000003
 20
341.36035199999998
 30
0.0
 11
565.56658600000003
 21
347.49745999999999
 31
0.0
  0
LINE
  5
F3988
  8
OBJECT
 10
564.89000299999998
 20
341.36035199999998
 30
0.0
 11
564.89000299999998
 21
342.49745999999999
 31
0.0
  0
LINE
  5
F3989
  8
OBJECT
 10
558.24316799999997
 20
341.36035199999998
 30
0.0
 11
558.24316799999997
 21
342.49745999999999
 31
0.0
  0
LINE
  5
F398A
  8
OBJECT
 10
557.56658599999992
 20
341.36035199999998
 30
0.0
 11
557.56658599999992
 21
347.49745999999999
 31
0.0
  0
LINE
  5
F398B
  8
OBJECT
 10
568.06658600000003
 20
359.49745999999999
 30
0.0
 11
568.06658600000003
 21
364.49745999999999
 31
0.0
  0
LINE
  5
F398C
  8
OBJECT
 10
555.06658600000003
 20
359.49745999999999
 30
0.0
 11
555.06658600000003
 21
364.49745999999999
 31
0.0
  0
LINE
  5
F398D
  8
OBJECT
 10
568.06658600000003
 20
359.49745999999999
 30
0.0
 11
555.06658600000003
 21
359.49745999999999
 31
0.0
  0
LINE
  5
F398E
  8
OBJECT
 10
565.56658600000003
 20
315.17404299999998
 30
0.0
 11
565.56658600000003
 21
321.56035200000002
 31
0.0
  0
LINE
  5
F398F
  8
OBJECT
 10
565.56658600000003
 20
315.17404299999998
 30
0.0
 11
564.89000299999998
 21
314.49745999999999
 31
0.0
  0
LINE
  5
F3990
  8
OBJECT
 10
564.89000299999998
 20
314.49745999999999
 30
0.0
 11
558.24316799999997
 21
314.49745999999999
 31
0.0
  0
LINE
  5
F3991
  8
OBJECT
 10
558.24316799999997
 20
314.49745999999999
 30
0.0
 11
557.56658599999992
 21
315.17404299999998
 31
0.0
  0
LINE
  5
F3992
  8
OBJECT
 10
557.56658599999992
 20
315.17404299999998
 30
0.0
 11
557.56658599999992
 21
321.56035200000002
 31
0.0
  0
LINE
  5
F3993
  8
OBJECT
 10
557.56658599999992
 20
342.49745999999999
 30
0.0
 11
565.56658600000003
 21
342.49745999999999
 31
0.0
  0
LINE
  5
F3994
  8
OBJECT
 10
557.56658599999992
 20
315.17404299999998
 30
0.0
 11
565.56658600000003
 21
315.17404299999998
 31
0.0
  0
LINE
  5
F3995
  8
OBJECT
 10
558.24316799999997
 20
314.49745999999999
 30
0.0
 11
558.24316799999997
 21
321.56035200000002
 31
0.0
  0
LINE
  5
F3996
  8
OBJECT
 10
564.89000299999998
 20
314.49745999999999
 30
0.0
 11
564.89000299999998
 21
321.56035200000002
 31
0.0
  0
LINE
  5
F3997
  8
OBJECT
 10
557.56658599999992
 20
343.66933599999999
 30
0.0
 11
558.24316799999997
 21
342.49745999999999
 31
0.0
  0
LINE
  5
F3998
  8
OBJECT
 10
565.56658600000003
 20
343.66933599999999
 30
0.0
 11
564.89000299999998
 21
342.49745999999999
 31
0.0
  0
LINE
  5
F3999
  8
OBJECT
 10
568.06658600000003
 20
364.49745999999999
 30
0.0
 11
555.06658600000003
 21
364.49745999999999
 31
0.0
  0
LINE
  5
F399A
  8
OBJECT
 10
-16.5
 20
-60.0
 30
0.0
 11
-16.487815000000179
 21
-59.767482999999977
 31
0.0
  0
LINE
  5
F399B
  8
CENTER
 10
-26.5
 20
-34.245056999999989
 30
0.0
 11
-26.5
 21
-71.58278
 31
0.0
  0
ARC
  5
F399C
  8
OBJECT
 10
535.84932300000003
 20
493.70968499999958
 30
0.0
 40
5.0
 50
26.387799999998808
 51
85.000000000000185
  0
LINE
  5
F399D
  8
OBJECT
 10
529.56658600000003
 20
511.99745999999988
 30
0.0
 11
529.56658600000003
 21
515.49746000000005
 31
0.0
  0
LINE
  5
F399E
  8
OBJECT
 10
536.28510100000005
 20
498.69065799999998
 30
0.0
 11
525.30652099999986
 21
499.65115899999989
 31
0.0
  0
ARC
  5
F399F
  8
OBJECT
 10
527.56658600000003
 20
511.99745999999988
 30
0.0
 40
2.0
 50
270.0
 51
0.0
  0
LINE
  5
F39A0
  8
OBJECT
 10
499.171426
 20
488.60857199999958
 30
0.0
 11
512.67742999999996
 21
515.83079399999986
 31
0.0
  0
LINE
  5
F39A1
  8
OBJECT
 10
543.96174599999995
 20
488.60857199999958
 30
0.0
 11
540.32835499999999
 21
495.9319069999998
 31
0.0
  0
ARC
  5
F39A2
  8
OBJECT
 10
521.56658600000003
 20
477.49745999999999
 30
0.0
 40
25.0
 50
333.61220000000122
 51
26.387799999998808
  0
LINE
  5
F39A3
  8
OBJECT
 10
508.12948999999992
 20
448.33079399999991
 30
0.0
 11
499.171426
 21
466.38634899999988
 31
0.0
  0
ARC
  5
F39A4
  8
OBJECT
 10
521.56658600000003
 20
454.99745999999988
 30
0.0
 40
15.0
 50
206.3877999999988
 51
333.61220000000122
  0
LINE
  5
F39A5
  8
OBJECT
 10
535.00368199999969
 20
448.33079399999991
 30
0.0
 11
543.96174599999995
 21
466.38634899999988
 31
0.0
  0
ARC
  5
F39A6
  8
OBJECT
 10
521.56658600000003
 20
477.49745999999999
 30
0.0
 40
25.0
 50
153.6122000000012
 51
206.3877999999988
  0
LINE
  5
F39A7
  8
OBJECT
 10
527.56658600000003
 20
509.99745999999999
 30
0.0
 11
525.90633199999991
 21
509.99745999999999
 31
0.0
  0
LINE
  5
F39A8
  8
CENTER
 10
512.30424800000003
 20
449.99745999999988
 30
0.0
 11
530.82494399999985
 21
449.99745999999988
 31
0.0
  0
LINE
  5
F39A9
  8
OBJECT
 10
527.56658600000003
 20
517.49745999999959
 30
0.0
 11
515.36484900000005
 21
517.49745999999959
 31
0.0
  0
ARC
  5
F39AA
  8
OBJECT
 10
515.36484900000005
 20
514.49746000000005
 30
0.0
 40
3.0
 50
90.0
 51
153.6122000000012
  0
ARC
  5
F39AB
  8
OBJECT
 10
527.56658600000003
 20
515.49746000000005
 30
0.0
 40
2.0
 50
0.0
 51
90.0
  0
POINT
  5
F39AC
  8
OBJECT
 10
513.50432800000033
 20
517.49745999999959
 30
0.0
  0
LINE
  5
F39AD
  8
OBJECT
 10
535.00368199999969
 20
506.66412699999989
 30
0.0
 11
540.32835499999999
 21
495.9319069999998
 31
0.0
  0
ARC
  5
F39AE
  8
OBJECT
 10
521.56658600000003
 20
499.99745999999988
 30
0.0
 40
15.0
 50
26.387799999998808
 51
57.769046999997038
  0
LINE
  5
F39B1
  8
CENTER
 10
632.30424800000003
 20
504.99745999999959
 30
0.0
 11
650.82494400000007
 21
504.99745999999959
 31
0.0
  0
LINE
  5
F39B2
  8
OBJECT
 10
655.0036819999998
 20
506.66412699999989
 30
0.0
 11
660.3283550000001
 21
495.9319069999998
 31
0.0
  0
ARC
  5
F39B3
  8
OBJECT
 10
641.56658600000014
 20
499.99745999999988
 30
0.0
 40
15.0
 50
26.387799999998808
 51
57.769046999997038
  0
LINE
  5
F39B4
  8
CENTER
 10
632.30424800000003
 20
449.99745999999988
 30
0.0
 11
650.82494400000007
 21
449.99745999999988
 31
0.0
  0
ARC
  5
F39B5
  8
OBJECT
 10
655.84932300000003
 20
493.70968499999958
 30
0.0
 40
5.0
 50
26.387799999998808
 51
85.000000000000185
  0
LINE
  5
F39B6
  8
OBJECT
 10
649.5665859999998
 20
511.99745999999988
 30
0.0
 11
649.5665859999998
 21
515.49746000000005
 31
0.0
  0
LINE
  5
F39B7
  8
OBJECT
 10
656.28510100000005
 20
498.69065799999998
 30
0.0
 11
645.30652099999998
 21
499.65115899999989
 31
0.0
  0
ARC
  5
F39B8
  8
OBJECT
 10
647.5665859999998
 20
511.99745999999988
 30
0.0
 40
2.0
 50
270.0
 51
0.0
  0
LINE
  5
F39B9
  8
OBJECT
 10
619.17142599999966
 20
488.60857199999958
 30
0.0
 11
632.67743000000019
 21
515.83079399999986
 31
0.0
  0
LINE
  5
F39BA
  8
OBJECT
 10
663.96174600000006
 20
488.60857199999958
 30
0.0
 11
660.3283550000001
 21
495.9319069999998
 31
0.0
  0
ARC
  5
F39BB
  8
OBJECT
 10
641.56658600000014
 20
477.49745999999999
 30
0.0
 40
25.0
 50
333.61220000000122
 51
26.387799999998808
  0
LINE
  5
F39BC
  8
OBJECT
 10
628.12948999999981
 20
448.33079399999991
 30
0.0
 11
619.17142599999966
 21
466.38634899999988
 31
0.0
  0
ARC
  5
F39BD
  8
OBJECT
 10
641.56658600000014
 20
454.99745999999988
 30
0.0
 40
15.0
 50
206.3877999999988
 51
333.61220000000122
  0
LINE
  5
F39BE
  8
OBJECT
 10
655.0036819999998
 20
448.33079399999991
 30
0.0
 11
663.96174600000006
 21
466.38634899999988
 31
0.0
  0
ARC
  5
F39BF
  8
OBJECT
 10
641.56658600000014
 20
477.49745999999999
 30
0.0
 40
25.0
 50
153.6122000000012
 51
206.3877999999988
  0
LINE
  5
F39C0
  8
OBJECT
 10
647.5665859999998
 20
509.99745999999999
 30
0.0
 11
645.90633199999979
 21
509.99745999999999
 31
0.0
  0
LINE
  5
F39C1
  8
OBJECT
 10
647.5665859999998
 20
517.49745999999959
 30
0.0
 11
635.36484900000005
 21
517.49745999999959
 31
0.0
  0
ARC
  5
F39C2
  8
OBJECT
 10
635.36484900000005
 20
514.49746000000005
 30
0.0
 40
3.0
 50
90.0
 51
153.6122000000012
  0
ARC
  5
F39C3
  8
OBJECT
 10
647.5665859999998
 20
515.49746000000005
 30
0.0
 40
2.0
 50
0.0
 51
90.0
  0
POINT
  5
F39C4
  8
OBJECT
 10
633.50432799999987
 20
517.49745999999959
 30
0.0
  0
LINE
  5
F39C5
  8
CENTER
 10
641.56658600000014
 20
435.011641
 30
0.0
 11
641.56658600000014
 21
519.46601599999985
 31
0.0
  0
ARC
  5
F39CA
  8
OBJECT
 10
454.56658599999997
 20
-43.999999999999972
 30
0.0
 40
8.0
 50
287.75234399999681
 51
327.91004899999677
  0
LINE
  5
F39CB
  8
CENTER
 10
606.56658600000026
 20
-49.09219199999999
 30
0.0
 11
606.56658600000026
 21
48.587561000000001
 31
0.0
  0
LINE
  5
F39CC
  8
CENTER
 10
801.56658599999957
 20
477.49745999999999
 30
0.0
 11
726.5665859999998
 21
402.49745999999999
 31
0.0
  0
LINE
  5
F39CD
  8
OBJECT
 10
756.5665859999998
 20
387.79287900000003
 30
0.0
 11
756.5665859999998
 21
379.864957
 31
0.0
  0
LINE
  5
F39CE
  8
OBJECT
 10
706.67140199999994
 20
425.028683
 30
0.0
 11
711.22596599999974
 21
429.58324699999991
 31
0.0
  0
LINE
  5
F39CF
  8
OBJECT
 10
797.29629399999999
 20
430.80076100000002
 30
0.0
 11
758.17749899999956
 21
391.68196599999999
 31
0.0
  0
LINE
  5
F39D0
  8
OBJECT
 10
682.59959499999979
 20
432.99745999999988
 30
0.0
 11
709.81175199999996
 21
432.99745999999988
 31
0.0
  0
ARC
  5
F39D1
  8
OBJECT
 10
802.59959499999979
 20
425.49745999999988
 30
0.0
 40
7.5
 50
90.0
 51
134.9999999999954
  0
ARC
  5
F39D2
  8
OBJECT
 10
682.59959499999979
 20
425.49745999999988
 30
0.0
 40
7.5
 50
90.0
 51
134.9999999999954
  0
ARC
  5
F39D3
  8
OBJECT
 10
694.5665859999998
 20
430.99745999999999
 30
0.0
 40
2.0
 50
0.0
 51
90.0
  0
ARC
  5
F39D4
  8
OBJECT
 10
731.0665859999998
 20
400.63349899999997
 30
0.0
 40
34.5
 50
134.9999999999954
 51
180.0
  0
ARC
  5
F39D5
  8
OBJECT
 10
762.0665859999998
 20
387.79287900000003
 30
0.0
 40
5.5
 50
134.9999999999954
 51
180.0
  0
ARC
  5
F39D6
  8
OBJECT
 10
709.81175199999996
 20
430.99745999999999
 30
0.0
 40
2.0
 50
314.9999999999954
 51
90.0
  0
LINE
  5
F39D7
  8
CENTER
 10
726.5665859999998
 20
402.49745999999999
 30
0.0
 11
726.5665859999998
 21
313.52593899999999
 31
0.0
  0
LINE
  5
F39D8
  8
OBJECT
 10
696.56658599999957
 20
430.99745999999999
 30
0.0
 11
696.56658599999957
 21
379.864957
 31
0.0
  0
LINE
  5
F39D9
  8
OBJECT
 10
781.5665859999998
 20
347.49745999999999
 30
0.0
 11
671.56658599999969
 21
347.49745999999999
 31
0.0
  0
LINE
  5
F39DA
  8
OBJECT
 10
691.56658599999969
 20
342.36035199999998
 30
0.0
 11
691.56658599999969
 21
347.49745999999999
 31
0.0
  0
LINE
  5
F39DB
  8
OBJECT
 10
671.56658599999969
 20
341.36035199999998
 30
0.0
 11
781.5665859999998
 21
341.36035199999998
 31
0.0
  0
LINE
  5
F39DC
  8
OBJECT
 10
691.56658599999969
 20
342.36035199999998
 30
0.0
 11
761.5665859999998
 21
342.36035199999998
 31
0.0
  0
LINE
  5
F39DD
  8
OBJECT
 10
761.5665859999998
 20
342.36035199999998
 30
0.0
 11
761.5665859999998
 21
347.49745999999999
 31
0.0
  0
LINE
  5
F39DE
  8
OBJECT
 10
671.56658599999969
 20
328.36035199999998
 30
0.0
 11
677.5665859999998
 21
328.36035199999998
 31
0.0
  0
LINE
  5
F39DF
  8
OBJECT
 10
671.56658599999969
 20
347.49745999999999
 30
0.0
 11
671.56658599999969
 21
357.49745999999999
 31
0.0
  0
LINE
  5
F39E0
  8
OBJECT
 10
673.5665859999998
 20
359.49745999999999
 30
0.0
 11
779.56658599999969
 21
359.49745999999999
 31
0.0
  0
LINE
  5
F39E1
  8
OBJECT
 10
781.5665859999998
 20
328.36035199999998
 30
0.0
 11
775.56658599999969
 21
328.36035199999998
 31
0.0
  0
LINE
  5
F39E2
  8
OBJECT
 10
781.5665859999998
 20
347.49745999999999
 30
0.0
 11
781.5665859999998
 21
357.49745999999999
 31
0.0
  0
LINE
  5
F39E3
  8
OBJECT
 10
690.0665859999998
 20
370.49745999999999
 30
0.0
 11
690.0665859999998
 21
361.49745999999999
 31
0.0
  0
LINE
  5
F39E4
  8
OBJECT
 10
763.06658599999969
 20
370.49745999999999
 30
0.0
 11
763.06658599999969
 21
361.49745999999999
 31
0.0
  0
ARC
  5
F39E5
  8
OBJECT
 10
758.06658599999969
 20
370.49745999999999
 30
0.0
 40
5.0
 50
0.0
 51
69.512685000003003
  0
ARC
  5
F39E6
  8
OBJECT
 10
695.0665859999998
 20
370.49745999999999
 30
0.0
 40
5.0
 50
110.487314999997
 51
180.0
  0
ARC
  5
F39E7
  8
OBJECT
 10
688.06658599999969
 20
361.49745999999999
 30
0.0
 40
2.0
 50
270.0
 51
0.0
  0
ARC
  5
F39E8
  8
OBJECT
 10
765.0665859999998
 20
361.49745999999999
 30
0.0
 40
2.0
 50
180.0
 51
270.0
  0
ARC
  5
F39E9
  8
OBJECT
 10
673.5665859999998
 20
357.49745999999999
 30
0.0
 40
2.0
 50
90.0
 51
180.0
  0
ARC
  5
F39EA
  8
OBJECT
 10
779.56658599999969
 20
357.49745999999999
 30
0.0
 40
2.0
 50
0.0
 51
90.0
  0
ARC
  5
F39EB
  8
OBJECT
 10
691.56658599999969
 20
379.864957
 30
0.0
 40
5.0
 50
290.48731499999701
 51
0.0
  0
ARC
  5
F39EC
  8
OBJECT
 10
761.5665859999998
 20
379.864957
 30
0.0
 40
5.0
 50
180.0
 51
249.51268500000299
  0
LINE
  5
F39ED
  8
OBJECT
 10
693.3165859999998
 20
375.18120900000002
 30
0.0
 11
759.8165859999998
 21
375.18120900000002
 31
0.0
  0
LINE
  5
F39EE
  8
OBJECT
 10
671.56658599999969
 20
328.36035199999998
 30
0.0
 11
671.56658599999969
 21
341.36035199999998
 31
0.0
  0
LINE
  5
F39EF
  8
OBJECT
 10
781.5665859999998
 20
328.36035199999998
 30
0.0
 11
781.5665859999998
 21
341.36035199999998
 31
0.0
  0
LINE
  5
F39F0
  8
OBJECT
 10
694.45064800000011
 20
342.36035199999998
 30
0.0
 11
693.450648
 21
341.36035199999998
 31
0.0
  0
LINE
  5
F39F1
  8
OBJECT
 10
758.68252399999983
 20
342.36035199999998
 30
0.0
 11
759.68252399999983
 21
341.36035199999998
 31
0.0
  0
LINE
  5
F39F2
  8
OBJECT
 10
767.56658599999969
 20
328.36035199999998
 30
0.0
 11
680.35412300000019
 21
328.36035199999998
 31
0.0
  0
LINE
  5
F39F5
  8
CENTER
 10
752.30424800000003
 20
449.99745999999988
 30
0.0
 11
770.82494399999985
 21
449.99745999999988
 31
0.0
  0
LINE
  5
F39F6
  8
OBJECT
 10
767.56658599999969
 20
341.36035199999998
 30
0.0
 11
767.56658599999969
 21
347.49745999999999
 31
0.0
  0
LINE
  5
F39F7
  8
OBJECT
 10
768.24316799999986
 20
341.36035199999998
 30
0.0
 11
768.24316799999986
 21
342.49745999999999
 31
0.0
  0
LINE
  5
F39F8
  8
OBJECT
 10
774.89000299999975
 20
341.36035199999998
 30
0.0
 11
774.89000299999975
 21
342.49745999999999
 31
0.0
  0
LINE
  5
F39F9
  8
OBJECT
 10
775.56658599999969
 20
341.36035199999998
 30
0.0
 11
775.56658599999969
 21
347.49745999999999
 31
0.0
  0
LINE
  5
F39FA
  8
OBJECT
 10
765.0665859999998
 20
359.49745999999999
 30
0.0
 11
765.0665859999998
 21
364.49745999999999
 31
0.0
  0
LINE
  5
F39FB
  8
OBJECT
 10
778.0665859999998
 20
359.49745999999999
 30
0.0
 11
778.0665859999998
 21
364.49745999999999
 31
0.0
  0
LINE
  5
F39FC
  8
OBJECT
 10
765.0665859999998
 20
359.49745999999999
 30
0.0
 11
778.0665859999998
 21
359.49745999999999
 31
0.0
  0
LINE
  5
F39FD
  8
OBJECT
 10
767.56658599999969
 20
315.17404299999998
 30
0.0
 11
767.56658599999969
 21
321.56035200000002
 31
0.0
  0
LINE
  5
F39FE
  8
OBJECT
 10
767.56658599999969
 20
315.17404299999998
 30
0.0
 11
768.24316799999986
 21
314.49745999999999
 31
0.0
  0
LINE
  5
F39FF
  8
OBJECT
 10
768.24316799999986
 20
314.49745999999999
 30
0.0
 11
774.89000299999975
 21
314.49745999999999
 31
0.0
  0
LINE
  5
F3A00
  8
OBJECT
 10
774.89000299999975
 20
314.49745999999999
 30
0.0
 11
775.56658599999969
 21
315.17404299999998
 31
0.0
  0
LINE
  5
F3A01
  8
OBJECT
 10
775.56658599999969
 20
315.17404299999998
 30
0.0
 11
775.56658599999969
 21
321.56035200000002
 31
0.0
  0
LINE
  5
F3A02
  8
OBJECT
 10
775.56658599999969
 20
342.49745999999999
 30
0.0
 11
767.56658599999969
 21
342.49745999999999
 31
0.0
  0
LINE
  5
F3A03
  8
OBJECT
 10
775.56658599999969
 20
315.17404299999998
 30
0.0
 11
767.56658599999969
 21
315.17404299999998
 31
0.0
  0
LINE
  5
F3A04
  8
OBJECT
 10
774.89000299999975
 20
314.49745999999999
 30
0.0
 11
774.89000299999975
 21
321.56035200000002
 31
0.0
  0
LINE
  5
F3A05
  8
OBJECT
 10
768.24316799999986
 20
314.49745999999999
 30
0.0
 11
768.24316799999986
 21
321.56035200000002
 31
0.0
  0
LINE
  5
F3A06
  8
OBJECT
 10
775.56658599999969
 20
343.66933599999999
 30
0.0
 11
774.89000299999975
 21
342.49745999999999
 31
0.0
  0
LINE
  5
F3A07
  8
OBJECT
 10
767.56658599999969
 20
343.66933599999999
 30
0.0
 11
768.24316799999986
 21
342.49745999999999
 31
0.0
  0
LINE
  5
F3A08
  8
OBJECT
 10
765.0665859999998
 20
364.49745999999999
 30
0.0
 11
778.0665859999998
 21
364.49745999999999
 31
0.0
  0
LINE
  5
F3A09
  8
CENTER
 10
771.56658599999969
 20
308.35519599999998
 30
0.0
 11
771.56658599999969
 21
369.001238
 31
0.0
  0
LINE
  5
F3A0A
  8
CENTER
 10
681.5665859999998
 20
308.35519599999998
 30
0.0
 11
681.5665859999998
 21
369.001238
 31
0.0
  0
LINE
  5
F3A0B
  8
OBJECT
 10
685.5665859999998
 20
341.36035199999998
 30
0.0
 11
685.5665859999998
 21
347.49745999999999
 31
0.0
  0
LINE
  5
F3A0C
  8
OBJECT
 10
684.89000299999998
 20
341.36035199999998
 30
0.0
 11
684.89000299999998
 21
342.49745999999999
 31
0.0
  0
LINE
  5
F3A0D
  8
OBJECT
 10
678.24316800000008
 20
341.36035199999998
 30
0.0
 11
678.24316800000008
 21
342.49745999999999
 31
0.0
  0
LINE
  5
F3A0E
  8
OBJECT
 10
677.5665859999998
 20
341.36035199999998
 30
0.0
 11
677.5665859999998
 21
347.49745999999999
 31
0.0
  0
LINE
  5
F3A0F
  8
OBJECT
 10
688.06658599999969
 20
359.49745999999999
 30
0.0
 11
688.06658599999969
 21
364.49745999999999
 31
0.0
  0
LINE
  5
F3A10
  8
OBJECT
 10
675.0665859999998
 20
359.49745999999999
 30
0.0
 11
675.0665859999998
 21
364.49745999999999
 31
0.0
  0
LINE
  5
F3A11
  8
OBJECT
 10
688.06658599999969
 20
359.49745999999999
 30
0.0
 11
675.0665859999998
 21
359.49745999999999
 31
0.0
  0
LINE
  5
F3A12
  8
OBJECT
 10
685.5665859999998
 20
315.17404299999998
 30
0.0
 11
685.5665859999998
 21
321.56035200000002
 31
0.0
  0
LINE
  5
F3A13
  8
OBJECT
 10
685.5665859999998
 20
315.17404299999998
 30
0.0
 11
684.89000299999998
 21
314.49745999999999
 31
0.0
  0
LINE
  5
F3A14
  8
OBJECT
 10
684.89000299999998
 20
314.49745999999999
 30
0.0
 11
678.24316800000008
 21
314.49745999999999
 31
0.0
  0
LINE
  5
F3A15
  8
OBJECT
 10
678.24316800000008
 20
314.49745999999999
 30
0.0
 11
677.5665859999998
 21
315.17404299999998
 31
0.0
  0
LINE
  5
F3A16
  8
OBJECT
 10
677.5665859999998
 20
315.17404299999998
 30
0.0
 11
677.5665859999998
 21
321.56035200000002
 31
0.0
  0
LINE
  5
F3A17
  8
OBJECT
 10
677.5665859999998
 20
342.49745999999999
 30
0.0
 11
685.5665859999998
 21
342.49745999999999
 31
0.0
  0
LINE
  5
F3A18
  8
OBJECT
 10
677.5665859999998
 20
315.17404299999998
 30
0.0
 11
685.5665859999998
 21
315.17404299999998
 31
0.0
  0
LINE
  5
F3A19
  8
OBJECT
 10
678.24316800000008
 20
314.49745999999999
 30
0.0
 11
678.24316800000008
 21
321.56035200000002
 31
0.0
  0
LINE
  5
F3A1A
  8
OBJECT
 10
684.89000299999998
 20
314.49745999999999
 30
0.0
 11
684.89000299999998
 21
321.56035200000002
 31
0.0
  0
LINE
  5
F3A1B
  8
OBJECT
 10
677.5665859999998
 20
343.66933599999999
 30
0.0
 11
678.24316800000008
 21
342.49745999999999
 31
0.0
  0
LINE
  5
F3A1C
  8
OBJECT
 10
685.5665859999998
 20
343.66933599999999
 30
0.0
 11
684.89000299999998
 21
342.49745999999999
 31
0.0
  0
LINE
  5
F3A1D
  8
OBJECT
 10
688.06658599999969
 20
364.49745999999999
 30
0.0
 11
675.0665859999998
 21
364.49745999999999
 31
0.0
  0
LINE
  5
F3A20
  8
CENTER
 10
752.30424800000003
 20
504.99745999999959
 30
0.0
 11
770.82494399999985
 21
504.99745999999959
 31
0.0
  0
LINE
  5
F3A21
  8
OBJECT
 10
775.0036819999998
 20
506.66412699999989
 30
0.0
 11
780.32835499999976
 21
495.9319069999998
 31
0.0
  0
ARC
  5
F3A22
  8
OBJECT
 10
761.5665859999998
 20
499.99745999999988
 30
0.0
 40
15.0
 50
26.387799999998808
 51
57.769046999997038
  0
LINE
  5
F3A23
  8
CENTER
 10
752.30424800000003
 20
449.99745999999988
 30
0.0
 11
770.82494399999985
 21
449.99745999999988
 31
0.0
  0
ARC
  5
F3A24
  8
OBJECT
 10
775.84932300000014
 20
493.70968499999958
 30
0.0
 40
5.0
 50
26.387799999998808
 51
85.000000000000185
  0
LINE
  5
F3A25
  8
OBJECT
 10
769.5665859999998
 20
511.99745999999988
 30
0.0
 11
769.5665859999998
 21
515.49746000000005
 31
0.0
  0
LINE
  5
F3A26
  8
OBJECT
 10
776.28510100000017
 20
498.69065799999998
 30
0.0
 11
765.30652099999998
 21
499.65115899999989
 31
0.0
  0
ARC
  5
F3A27
  8
OBJECT
 10
767.56658599999969
 20
511.99745999999988
 30
0.0
 40
2.0
 50
270.0
 51
0.0
  0
LINE
  5
F3A28
  8
OBJECT
 10
739.171426
 20
488.60857199999958
 30
0.0
 11
752.67742999999984
 21
515.83079399999986
 31
0.0
  0
LINE
  5
F3A29
  8
OBJECT
 10
783.96174600000029
 20
488.60857199999958
 30
0.0
 11
780.32835499999976
 21
495.9319069999998
 31
0.0
  0
ARC
  5
F3A2A
  8
OBJECT
 10
761.5665859999998
 20
477.49745999999999
 30
0.0
 40
25.0
 50
333.61220000000122
 51
26.387799999998808
  0
LINE
  5
F3A2B
  8
OBJECT
 10
748.12948999999981
 20
448.33079399999991
 30
0.0
 11
739.171426
 21
466.38634899999988
 31
0.0
  0
ARC
  5
F3A2C
  8
OBJECT
 10
761.5665859999998
 20
454.99745999999988
 30
0.0
 40
15.0
 50
206.3877999999988
 51
333.61220000000122
  0
LINE
  5
F3A2D
  8
OBJECT
 10
775.0036819999998
 20
448.33079399999991
 30
0.0
 11
783.96174600000029
 21
466.38634899999988
 31
0.0
  0
ARC
  5
F3A2E
  8
OBJECT
 10
761.5665859999998
 20
477.49745999999999
 30
0.0
 40
25.0
 50
153.6122000000012
 51
206.3877999999988
  0
LINE
  5
F3A2F
  8
OBJECT
 10
767.56658599999969
 20
509.99745999999999
 30
0.0
 11
765.90633199999957
 21
509.99745999999999
 31
0.0
  0
LINE
  5
F3A30
  8
OBJECT
 10
767.56658599999969
 20
517.49745999999959
 30
0.0
 11
755.36484899999982
 21
517.49745999999959
 31
0.0
  0
ARC
  5
F3A31
  8
OBJECT
 10
755.36484899999982
 20
514.49746000000005
 30
0.0
 40
3.0
 50
90.0
 51
153.6122000000012
  0
ARC
  5
F3A32
  8
OBJECT
 10
767.56658599999969
 20
515.49746000000005
 30
0.0
 40
2.0
 50
0.0
 51
90.0
  0
POINT
  5
F3A33
  8
OBJECT
 10
753.50432799999999
 20
517.49745999999959
 30
0.0
  0
LINE
  5
F3A34
  8
CENTER
 10
761.5665859999998
 20
435.011641
 30
0.0
 11
761.5665859999998
 21
519.46601599999985
 31
0.0
  0
LINE
  5
F3A37
  8
CENTER
 10
761.5665859999998
 20
85.673118000000002
 30
0.0
 11
761.5665859999998
 21
36.813720000000004
 31
0.0
  0
LINE
  5
F3A38
  8
OBJECT
 10
736.5665859999998
 20
55.0
 30
0.0
 11
736.5665859999998
 21
49.499999999999993
 31
0.0
  0
LINE
  5
F3A39
  8
OBJECT
 10
786.5665859999998
 20
55.0
 30
0.0
 11
786.5665859999998
 21
49.499999999999993
 31
0.0
  0
LINE
  5
F3A3A
  8
OBJECT
 10
783.96599800000013
 20
55.0
 30
0.0
 11
736.5665859999998
 21
55.0
 31
0.0
  0
ARC
  5
F3A3B
  8
OBJECT
 10
731.5665859999998
 20
49.499999999999993
 30
0.0
 40
5.0
 50
270.0
 51
0.0
  0
ARC
  5
F3A3C
  8
OBJECT
 10
791.56658599999969
 20
49.499999999999993
 30
0.0
 40
5.0
 50
180.0
 51
270.0
  0
LINE
  5
F3A40
  8
CENTER
 10
761.5665859999998
 20
48.774535
 30
0.0
 11
761.5665859999998
 21
-65.722977999999998
 31
0.0
  0
LINE
  5
F3A41
  8
OBJECT
 10
691.56658599999969
 20
28.284271000000011
 30
0.0
 11
673.7888079999999
 21
6.2853930000000124
 31
0.0
  0
ARC
  5
F3A42
  8
OBJECT
 10
726.5665859999998
 20
0.0
 30
0.0
 40
45.0
 50
38.94244100000229
 51
141.0575589999977
  0
LINE
  5
F3A43
  8
OBJECT
 10
691.56658599999969
 20
-28.284272000000001
 30
0.0
 11
673.7888079999999
 21
-6.285394000000009
 31
0.0
  0
ARC
  5
F3A44
  8
CENTER
 10
726.5665859999998
 20
0.0
 30
0.0
 40
45.0
 50
166.3181290000002
 51
190.1388999999995
  0
CIRCLE
  5
F3A45
  8
OBJECT
 10
726.5665859999998
 20
0.0
 30
0.0
 40
31.5
  0
ARC
  5
F3A46
  8
OBJECT
 10
726.5665859999998
 20
0.0
 30
0.0
 40
38.0
 50
26.10359100000267
 51
153.89640899999731
  0
ARC
  5
F3A47
  8
OBJECT
 10
726.5665859999998
 20
0.0
 30
0.0
 40
45.0
 50
218.9424410000023
 51
321.0575589999977
  0
ARC
  5
F3A48
  8
OBJECT
 10
681.5665859999998
 20
0.0
 30
0.0
 40
10.0
 50
89.739564000000655
 51
270.26043599999929
  0
ARC
  5
F3A49
  8
OBJECT
 10
726.5665859999998
 20
0.0
 30
0.0
 40
38.0
 50
206.10359100000269
 51
333.89640899999728
  0
ARC
  5
F3A4A
  8
OBJECT
 10
681.66658599999982
 20
-21.99977299999999
 30
0.0
 40
12.0
 50
26.10359100000267
 51
90.260435999999345
  0
ARC
  5
F3A4B
  8
OBJECT
 10
681.66658599999982
 20
21.999772000000011
 30
0.0
 40
12.0
 50
269.7395640000006
 51
333.89640899999728
  0
ARC
  5
F3A4C
  8
OBJECT
 10
771.46658600000012
 20
-21.99977299999999
 30
0.0
 40
12.0
 50
89.739564000000655
 51
153.89640899999731
  0
ARC
  5
F3A4D
  8
OBJECT
 10
771.46658600000012
 20
21.999772000000011
 30
0.0
 40
12.0
 50
206.10359100000269
 51
270.26043599999929
  0
LINE
  5
F3A4E
  8
OBJECT
 10
761.5665859999998
 20
28.284271000000011
 30
0.0
 11
779.34436400000016
 21
6.2853930000000124
 31
0.0
  0
LINE
  5
F3A4F
  8
OBJECT
 10
761.5665859999998
 20
-28.284272000000001
 30
0.0
 11
779.34436400000016
 21
-6.285394000000009
 31
0.0
  0
ARC
  5
F3A50
  8
CENTER
 10
726.5665859999998
 20
0.0
 30
0.0
 40
45.0
 50
349.86110000000042
 51
13.68187099999977
  0
ARC
  5
F3A51
  8
OBJECT
 10
771.56658599999969
 20
0.0
 30
0.0
 40
10.0
 50
269.7395640000006
 51
90.260435999999345
  0
CIRCLE
  5
F3A54
  8
OBJECT
 10
726.5665859999998
 20
0.0
 30
0.0
 40
25.5
  0
LINE
  5
F3A55
  8
OBJECT
 10
760.17976699999986
 20
-29.919125000000001
 30
0.0
 11
767.5467450000001
 21
-29.070314
 31
0.0
  0
LINE
  5
F3A56
  8
OBJECT
 10
767.5467450000001
 20
-29.070314
 30
0.0
 11
774.58934199999976
 21
-27.321722999999992
 31
0.0
  0
LINE
  5
F3A57
  8
OBJECT
 10
774.58934199999976
 20
-27.321722999999992
 30
0.0
 11
781.08957799999985
 21
-24.727473
 31
0.0
  0
LINE
  5
F3A58
  8
OBJECT
 10
781.08957799999985
 20
-24.727473
 30
0.0
 11
786.84625799999981
 21
-21.367863
 31
0.0
  0
LINE
  5
F3A59
  8
OBJECT
 10
786.84625799999981
 20
-21.367863
 30
0.0
 11
791.68120199999998
 21
-17.346879000000001
 31
0.0
  0
LINE
  5
F3A5A
  8
OBJECT
 10
791.68120199999998
 20
-17.346879000000001
 30
0.0
 11
795.44475999999986
 21
-12.788976
 31
0.0
  0
LINE
  5
F3A5B
  8
OBJECT
 10
795.44475999999986
 20
-12.788976
 30
0.0
 11
798.020442
 21
-7.8352309999999772
 31
0.0
  0
LINE
  5
F3A5C
  8
OBJECT
 10
798.020442
 20
-7.8352309999999772
 30
0.0
 11
799.32852700000012
 21
-2.6389709999999962
 31
0.0
  0
LINE
  5
F3A5D
  8
OBJECT
 10
799.32852700000012
 20
-2.6389709999999962
 30
0.0
 11
799.32852700000012
 21
2.638970000000028
 31
0.0
  0
LINE
  5
F3A5E
  8
OBJECT
 10
799.32852700000012
 20
2.638970000000028
 30
0.0
 11
798.020442
 21
7.8352300000000081
 31
0.0
  0
LINE
  5
F3A5F
  8
OBJECT
 10
798.020442
 20
7.8352300000000081
 30
0.0
 11
795.44475999999986
 21
12.788975000000001
 31
0.0
  0
LINE
  5
F3A60
  8
OBJECT
 10
795.44475999999986
 20
12.788975000000001
 30
0.0
 11
791.68120199999998
 21
17.346878
 31
0.0
  0
LINE
  5
F3A61
  8
OBJECT
 10
791.68120199999998
 20
17.346878
 30
0.0
 11
786.84625799999981
 21
21.367862999999989
 31
0.0
  0
LINE
  5
F3A62
  8
OBJECT
 10
786.84625799999981
 20
21.367862999999989
 30
0.0
 11
781.08957799999985
 21
24.72747300000001
 31
0.0
  0
LINE
  5
F3A63
  8
OBJECT
 10
781.08957799999985
 20
24.72747300000001
 30
0.0
 11
774.58934199999976
 21
27.321722000000001
 31
0.0
  0
LINE
  5
F3A64
  8
OBJECT
 10
774.58934199999976
 20
27.321722000000001
 30
0.0
 11
767.5467450000001
 21
29.070312999999999
 31
0.0
  0
LINE
  5
F3A65
  8
OBJECT
 10
767.5467450000001
 20
29.070312999999999
 30
0.0
 11
760.17976699999986
 21
29.919125000000001
 31
0.0
  0
LINE
  5
F3A66
  8
OBJECT
 10
767.5467450000001
 20
29.070312999999999
 30
0.0
 11
760.17976699999986
 21
29.919125000000001
 31
0.0
  0
LINE
  5
F3A67
  8
OBJECT
 10
741.0640609999997
 20
20.977921999999989
 30
0.0
 11
736.1952050000001
 21
18.121713
 31
0.0
  0
LINE
  5
F3A68
  8
OBJECT
 10
736.1952050000001
 20
18.121713
 30
0.0
 11
732.10712799999988
 21
14.707827
 31
0.0
  0
LINE
  5
F3A69
  8
OBJECT
 10
732.10712799999988
 20
14.707827
 30
0.0
 11
728.92563800000016
 21
10.841321000000001
 31
0.0
  0
LINE
  5
F3A6A
  8
OBJECT
 10
728.92563800000016
 20
10.841321000000001
 30
0.0
 11
726.74864000000014
 21
6.6411839999999938
 31
0.0
  0
LINE
  5
F3A6B
  8
OBJECT
 10
726.74864000000014
 20
6.6411839999999938
 30
0.0
 11
725.64313100000004
 21
2.2366719999999982
 31
0.0
  0
LINE
  5
F3A6C
  8
OBJECT
 10
725.64313100000004
 20
2.2366719999999982
 30
0.0
 11
725.64313100000004
 21
-2.2366719999999982
 31
0.0
  0
LINE
  5
F3A6D
  8
OBJECT
 10
725.64313100000004
 20
-2.2366719999999982
 30
0.0
 11
726.74864000000014
 21
-6.6411849999999912
 31
0.0
  0
LINE
  5
F3A6E
  8
OBJECT
 10
726.74864000000014
 20
-6.6411849999999912
 30
0.0
 11
728.92563800000016
 21
-10.84132199999998
 31
0.0
  0
LINE
  5
F3A6F
  8
OBJECT
 10
728.92563800000016
 20
-10.84132199999998
 30
0.0
 11
732.10712799999988
 21
-14.707826999999989
 31
0.0
  0
LINE
  5
F3A70
  8
OBJECT
 10
732.10712799999988
 20
-14.707826999999989
 30
0.0
 11
736.1952050000001
 21
-18.121714000000001
 31
0.0
  0
LINE
  5
F3A71
  8
OBJECT
 10
736.1952050000001
 20
-18.121714000000001
 30
0.0
 11
741.0640609999997
 21
-20.977923000000001
 31
0.0
  0
LINE
  5
F3A72
  8
OBJECT
 10
736.1952050000001
 20
-18.121714000000001
 30
0.0
 11
741.0640609999997
 21
-20.977923000000001
 31
0.0
  0
LINE
  5
F3A73
  8
OBJECT
 10
671.56658599999969
 20
44.499999999999993
 30
0.0
 11
731.5665859999998
 21
44.499999999999993
 31
0.0
  0
LINE
  5
F3A74
  8
CENTER
 10
726.5665859999998
 20
-49.09219199999999
 30
0.0
 11
726.5665859999998
 21
48.587561000000001
 31
0.0
  0
LINE
  5
F3A75
  8
OBJECT
 10
676.96035300000005
 20
10.209979000000001
 30
0.0
 11
674.7949659999997
 21
13.721686
 31
0.0
  0
LINE
  5
F3A76
  8
OBJECT
 10
674.7949659999997
 20
13.721686
 30
0.0
 11
672.01433199999997
 21
17.009630000000008
 31
0.0
  0
LINE
  5
F3A77
  8
OBJECT
 10
672.01433199999997
 20
17.009630000000008
 30
0.0
 11
668.66379700000005
 21
20.02019300000001
 31
0.0
  0
LINE
  5
F3A78
  8
OBJECT
 10
668.66379700000005
 20
20.02019300000001
 30
0.0
 11
664.79799800000012
 21
22.704281000000002
 31
0.0
  0
LINE
  5
F3A79
  8
OBJECT
 10
664.79799800000012
 20
22.704281000000002
 30
0.0
 11
660.47997500000042
 21
25.018125000000008
 31
0.0
  0
LINE
  5
F3A7A
  8
OBJECT
 10
660.47997500000042
 20
25.018125000000008
 30
0.0
 11
655.78014399999984
 21
26.923991999999998
 31
0.0
  0
LINE
  5
F3A7B
  8
OBJECT
 10
655.78014399999984
 20
26.923991999999998
 30
0.0
 11
650.77514600000006
 21
28.390803000000009
 31
0.0
  0
LINE
  5
F3A7C
  8
OBJECT
 10
650.77514600000006
 20
28.390803000000009
 30
0.0
 11
645.54660000000001
 21
29.39463700000001
 31
0.0
  0
LINE
  5
F3A7D
  8
OBJECT
 10
645.54660000000001
 20
29.39463700000001
 30
0.0
 11
640.17976699999986
 21
29.919125000000001
 31
0.0
  0
LINE
  5
F3A7E
  8
OBJECT
 10
645.54660000000001
 20
29.39463700000001
 30
0.0
 11
640.17976699999986
 21
29.919125000000001
 31
0.0
  0
POINT
  5
F3A80
  8
OBJECT
 10
456.56658600000009
 20
477.49745999999999
 30
0.0
  0
LINE
  5
F3A83
  8
HIDDEN
 10
631.56658600000026
 20
372.49745999999999
 30
0.0
 11
581.56658600000026
 21
372.49745999999999
 31
0.0
  0
LINE
  5
F3A84
  8
HIDDEN
 10
511.56658599999997
 20
372.49745999999999
 30
0.0
 11
461.56658599999997
 21
372.49745999999999
 31
0.0
  0
LINE
  5
F3A85
  8
HIDDEN
 10
751.5665859999998
 20
372.49745999999999
 30
0.0
 11
701.5665859999998
 21
372.49745999999999
 31
0.0
  0
LINE
  5
F3A86
  8
HIDDEN
 10
456.56658600000009
 20
437.49745999999988
 30
0.0
 11
456.56658600000009
 21
517.49745999999959
 31
0.0
  0
LINE
  5
F3A8A
  8
CENTER
 10
657.07092799999987
 20
503.99745999999988
 30
0.0
 11
623.20531300000005
 21
503.99745999999988
 31
0.0
  0
CIRCLE
  5
F3A8B
  8
HIDDEN
 10
641.56658600000014
 20
503.99745999999988
 30
0.0
 40
10.0
  0
CIRCLE
  5
F3A8C
  8
HIDDEN
 10
641.56658600000014
 20
503.99745999999988
 30
0.0
 40
12.5
  0
LINE
  5
F3A8D
  8
CENTER
 10
446.56658599999997
 20
459.52211799999998
 30
0.0
 11
446.56658599999997
 21
496.11901399999999
 31
0.0
  0
ARC
  5
F3A8E
  8
HIDDEN
 10
446.56658599999997
 20
477.49745999999999
 30
0.0
 40
10.0
 50
250.52877900000459
 51
109.4712209999953
  0
ARC
  5
F3A8F
  8
HIDDEN
 10
446.56658599999997
 20
477.49745999999999
 30
0.0
 40
12.5
 50
252.98135299999541
 51
107.01864700000461
  0
CIRCLE
  5
F3A90
  8
HIDDEN
 10
606.56658600000026
 20
372.49745999999999
 30
0.0
 40
10.0
  0
CIRCLE
  5
F3A91
  8
HIDDEN
 10
606.56658600000026
 20
372.49745999999999
 30
0.0
 40
12.5
  0
LINE
  5
F3A92
  8
OBJECT
 10
651.5665859999998
 20
-60.0
 30
0.0
 11
652.3789069999998
 21
-44.499999999999979
 31
0.0
  0
LINE
  5
F3A93
  8
OBJECT
 10
631.56658600000026
 20
-60.0
 30
0.0
 11
630.7542649999998
 21
-44.499999999999979
 31
0.0
  0
LINE
  5
F3A94
  8
OBJECT
 10
651.5665859999998
 20
-60.0
 30
0.0
 11
631.56658600000026
 21
-60.0
 31
0.0
  0
LINE
  5
F3A96
  8
OBJECT
 10
616.56658600000014
 20
-60.0
 30
0.0
 11
617.42235500000015
 21
-43.670954999999992
 31
0.0
  0
LINE
  5
F3A97
  8
OBJECT
 10
616.56658600000014
 20
-60.0
 30
0.0
 11
596.56658600000003
 21
-60.0
 31
0.0
  0
LINE
  5
F3A98
  8
OBJECT
 10
596.56658600000003
 20
-60.0
 30
0.0
 11
595.71081699999968
 21
-43.670954999999992
 31
0.0
  0
LINE
  5
F3A99
  8
CENTER
 10
446.56658599999997
 20
-68.569248999999999
 30
0.0
 11
446.56658599999997
 21
-39.128475999999992
 31
0.0
  0
LINE
  5
F3A9A
  8
OBJECT
 10
456.56658600000009
 20
-60.0
 30
0.0
 11
428.56658599999997
 21
-60.0
 31
0.0
  0
LINE
  5
F3A9B
  8
OBJECT
 10
456.56658600000009
 20
-60.0
 30
0.0
 11
457.00581199999999
 21
-51.619067000000001
 31
0.0
  0
ARC
  5
F3A9C
  8
HIDDEN
 10
440.56658599999997
 20
497.09975599999979
 30
0.0
 40
8.0
 50
180.0
 51
287.01864700000459
  0
ARC
  5
F3A9D
  8
HIDDEN
 10
440.56658599999997
 20
494.46802299999968
 30
0.0
 40
8.0
 50
180.0
 51
289.47122099999541
  0
ARC
  5
F3A9E
  8
HIDDEN
 10
440.56658599999997
 20
460.52689799999979
 30
0.0
 40
8.0
 50
70.528779000004619
 51
180.0
  0
ARC
  5
F3A9F
  8
HIDDEN
 10
440.56658599999997
 20
457.89516499999991
 30
0.0
 40
8.0
 50
72.981352999995352
 51
180.0
  0
LINE
  5
F3AA0
  8
CENTER
 10
622.07092800000044
 20
372.49745999999999
 30
0.0
 11
588.20531300000005
 21
372.49745999999999
 31
0.0
  0
LINE
  5
F3AA2
  8
HIDDEN
 10
446.71710799999988
 20
439.99745999999999
 30
0.0
 11
473.93519400000002
 21
439.99745999999999
 31
0.0
  0
LINE
  5
F3AA3
  8
HIDDEN
 10
439.71710799999988
 20
521.99745999999982
 30
0.0
 11
446.71710799999988
 21
514.99746000000005
 31
0.0
  0
LINE
  5
F3AA4
  8
HIDDEN
 10
446.71710799999988
 20
514.99746000000005
 30
0.0
 11
514.05081099999995
 21
514.99746000000005
 31
0.0
  0
LINE
  5
F3AA5
  8
HIDDEN
 10
439.71710799999988
 20
432.99745999999988
 30
0.0
 11
446.71710799999988
 21
439.99745999999999
 31
0.0
  0
ARC
  5
F3AA6
  8
HIDDEN
 10
514.05081099999995
 20
512.99745999999971
 30
0.0
 40
2.0
 50
335.00000000000063
 51
90.0
  0
LINE
  5
F3AA7
  8
HIDDEN
 10
485.717195
 20
447.503423
 30
0.0
 11
515.86342599999966
 21
512.15222399999982
 31
0.0
  0
ARC
  5
F3AA8
  8
HIDDEN
 10
473.93519400000002
 20
452.99745999999999
 30
0.0
 40
13.0
 50
270.0
 51
335.00000000000063
  0
LINE
  5
F3AFB
  8
OBJECT
 10
764.06103199999984
 20
0.0
 30
0.0
 11
767.81380899999999
 21
-6.5
 31
0.0
  0
LINE
  5
F3AFC
  8
OBJECT
 10
767.81380899999999
 20
-6.5
 30
0.0
 11
775.31936300000018
 21
-6.5
 31
0.0
  0
LINE
  5
F3AFD
  8
OBJECT
 10
775.31936300000018
 20
-6.5
 30
0.0
 11
779.07213899999988
 21
0.0
 31
0.0
  0
LINE
  5
F3AFE
  8
OBJECT
 10
779.07213899999988
 20
0.0
 30
0.0
 11
775.31936300000018
 21
6.5
 31
0.0
  0
LINE
  5
F3AFF
  8
OBJECT
 10
775.31936300000018
 20
6.5
 30
0.0
 11
767.81380899999999
 21
6.5
 31
0.0
  0
LINE
  5
F3B00
  8
OBJECT
 10
767.81380899999999
 20
6.5
 30
0.0
 11
764.06103199999984
 21
0.0
 31
0.0
  0
CIRCLE
  5
F3B01
  8
OBJECT
 10
771.56658599999969
 20
0.0
 30
0.0
 40
6.5
  0
CIRCLE
  5
F3B02
  8
OBJECT
 10
771.56658599999969
 20
0.0
 30
0.0
 40
4.0
  0
CIRCLE
  5
F3B03
  8
OBJECT
 10
771.56658599999969
 20
0.0
 30
0.0
 40
3.3234180000000002
  0
LINE
  5
F3B04
  8
OBJECT
 10
674.06103200000007
 20
0.0
 30
0.0
 11
677.81380900000011
 21
-6.5
 31
0.0
  0
LINE
  5
F3B05
  8
OBJECT
 10
677.81380900000011
 20
-6.5
 30
0.0
 11
685.31936300000007
 21
-6.5
 31
0.0
  0
LINE
  5
F3B06
  8
OBJECT
 10
685.31936300000007
 20
-6.5
 30
0.0
 11
689.07213899999999
 21
0.0
 31
0.0
  0
LINE
  5
F3B07
  8
OBJECT
 10
689.07213899999999
 20
0.0
 30
0.0
 11
685.31936300000007
 21
6.5
 31
0.0
  0
LINE
  5
F3B08
  8
OBJECT
 10
685.31936300000007
 20
6.5
 30
0.0
 11
677.81380900000011
 21
6.5
 31
0.0
  0
LINE
  5
F3B09
  8
OBJECT
 10
677.81380900000011
 20
6.5
 30
0.0
 11
674.06103200000007
 21
0.0
 31
0.0
  0
CIRCLE
  5
F3B0A
  8
OBJECT
 10
681.5665859999998
 20
0.0
 30
0.0
 40
6.5
  0
CIRCLE
  5
F3B0B
  8
OBJECT
 10
681.5665859999998
 20
0.0
 30
0.0
 40
4.0
  0
CIRCLE
  5
F3B0C
  8
OBJECT
 10
681.5665859999998
 20
0.0
 30
0.0
 40
3.3234180000000002
  0
LINE
  5
F3B0D
  8
OBJECT
 10
755.93742099999974
 20
69.300000000000011
 30
0.0
 11
767.19575099999975
 21
69.300000000000011
 31
0.0
  0
ARC
  5
F3B0E
  8
OBJECT
 10
767.19575099999975
 20
66.074286999999984
 30
0.0
 40
3.2257129999999989
 50
54.429989999999862
 51
125.5700100000001
  0
ARC
  5
F3B0F
  8
OBJECT
 10
755.93742099999974
 20
66.074286999999984
 30
0.0
 40
3.2257129999999989
 50
54.429989999999862
 51
125.5700100000001
  0
ARC
  5
F3B10
  8
OBJECT
 10
761.5665859999998
 20
57.299999999999997
 30
0.0
 40
12.0
 50
71.776086000002124
 51
108.2239139999979
  0
LINE
  5
F3B11
  8
OBJECT
 10
765.31936300000029
 20
68.698098999999985
 30
0.0
 11
765.31936300000029
 21
64.0
 31
0.0
  0
LINE
  5
F3B12
  8
OBJECT
 10
757.81380899999999
 20
68.698098999999985
 30
0.0
 11
757.81380899999999
 21
64.0
 31
0.0
  0
LINE
  5
F3B13
  8
OBJECT
 10
754.06103199999984
 20
64.0
 30
0.0
 11
754.06103199999984
 21
68.698098999999985
 31
0.0
  0
LINE
  5
F3B14
  8
OBJECT
 10
769.07213900000011
 20
64.0
 30
0.0
 11
754.06103199999984
 21
64.0
 31
0.0
  0
LINE
  5
F3B15
  8
OBJECT
 10
769.07213900000011
 20
68.698098999999985
 30
0.0
 11
769.07213900000011
 21
64.0
 31
0.0
  0
LINE
  5
F3B16
  8
OBJECT
 10
736.5665859999998
 20
58.0
 30
0.0
 11
786.5665859999998
 21
58.0
 31
0.0
  0
LINE
  5
F3B17
  8
OBJECT
 10
786.5665859999998
 20
58.0
 30
0.0
 11
786.5665859999998
 21
64.0
 31
0.0
  0
LINE
  5
F3B18
  8
OBJECT
 10
736.5665859999998
 20
64.0
 30
0.0
 11
786.5665859999998
 21
64.0
 31
0.0
  0
LINE
  5
F3B19
  8
OBJECT
 10
736.5665859999998
 20
58.0
 30
0.0
 11
736.5665859999998
 21
64.0
 31
0.0
  0
LINE
  5
F3B1A
  8
OBJECT
 10
736.5665859999998
 20
55.0
 30
0.0
 11
786.5665859999998
 21
55.0
 31
0.0
  0
LINE
  5
F3B1B
  8
OBJECT
 10
786.5665859999998
 20
55.0
 30
0.0
 11
786.5665859999998
 21
58.0
 31
0.0
  0
LINE
  5
F3B1C
  8
OBJECT
 10
786.5665859999998
 20
58.0
 30
0.0
 11
736.5665859999998
 21
58.0
 31
0.0
  0
LINE
  5
F3B1D
  8
OBJECT
 10
736.5665859999998
 20
58.0
 30
0.0
 11
736.5665859999998
 21
55.0
 31
0.0
  0
LINE
  5
F3B1E
  8
OBJECT
 10
750.68463999999983
 20
444.67354399999999
 30
0.0
 11
750.6744460000001
 21
444.67229099999997
 31
0.0
  0
LINE
  5
F3B1F
  8
OBJECT
 10
750.6744460000001
 20
444.67229099999997
 30
0.0
 11
750.64473599999985
 21
444.66862800000001
 31
0.0
  0
LINE
  5
F3B20
  8
OBJECT
 10
750.64473599999985
 20
444.66862800000001
 30
0.0
 11
750.59681999999975
 21
444.66269999999992
 31
0.0
  0
LINE
  5
F3B21
  8
OBJECT
 10
750.59681999999975
 20
444.66269999999992
 30
0.0
 11
750.53200699999979
 21
444.65465199999988
 31
0.0
  0
LINE
  5
F3B22
  8
OBJECT
 10
750.53200699999979
 20
444.65465199999988
 30
0.0
 11
750.45160599999986
 21
444.64462899999978
 31
0.0
  0
LINE
  5
F3B23
  8
OBJECT
 10
750.45160599999986
 20
444.64462899999978
 30
0.0
 11
750.35692500000005
 21
444.63277699999992
 31
0.0
  0
LINE
  5
F3B24
  8
OBJECT
 10
750.35692500000005
 20
444.63277699999992
 30
0.0
 11
750.2492739999999
 21
444.61923899999999
 31
0.0
  0
LINE
  5
F3B25
  8
OBJECT
 10
750.2492739999999
 20
444.61923899999999
 30
0.0
 11
750.12996200000009
 21
444.60416199999992
 31
0.0
  0
LINE
  5
F3B26
  8
OBJECT
 10
750.12996200000009
 20
444.60416199999992
 30
0.0
 11
750.00029700000005
 21
444.58769000000001
 31
0.0
  0
LINE
  5
F3B27
  8
OBJECT
 10
750.00029700000005
 20
444.58769000000001
 30
0.0
 11
749.86158899999987
 21
444.56996800000002
 31
0.0
  0
LINE
  5
F3B28
  8
OBJECT
 10
749.86158899999987
 20
444.56996800000002
 30
0.0
 11
749.71514600000012
 21
444.55114099999992
 31
0.0
  0
LINE
  5
F3B29
  8
OBJECT
 10
749.71514600000012
 20
444.55114099999992
 30
0.0
 11
749.56227799999988
 21
444.53135399999991
 31
0.0
  0
LINE
  5
F3B2A
  8
OBJECT
 10
749.56227799999988
 20
444.53135399999991
 30
0.0
 11
749.40429399999982
 21
444.51075300000002
 31
0.0
  0
LINE
  5
F3B2B
  8
OBJECT
 10
749.40429399999982
 20
444.51075300000002
 30
0.0
 11
749.24250299999983
 21
444.48948200000001
 31
0.0
  0
LINE
  5
F3B2C
  8
OBJECT
 10
749.24250299999983
 20
444.48948200000001
 30
0.0
 11
749.07821300000012
 21
444.46768499999979
 31
0.0
  0
LINE
  5
F3B2D
  8
OBJECT
 10
749.07821300000012
 20
444.46768499999979
 30
0.0
 11
748.91273299999955
 21
444.44550899999979
 31
0.0
  0
LINE
  5
F3B2E
  8
OBJECT
 10
748.91273299999955
 20
444.44550899999979
 30
0.0
 11
748.74737399999981
 21
444.42309899999998
 31
0.0
  0
LINE
  5
F3B2F
  8
OBJECT
 10
748.74737399999981
 20
444.42309899999998
 30
0.0
 11
748.58344299999976
 21
444.400598
 31
0.0
  0
LINE
  5
F3B30
  8
OBJECT
 10
748.58344299999976
 20
444.400598
 30
0.0
 11
748.4222500000003
 21
444.37815299999988
 31
0.0
  0
LINE
  5
F3B31
  8
OBJECT
 10
748.4222500000003
 20
444.37815299999988
 30
0.0
 11
748.26510299999984
 21
444.35590799999989
 31
0.0
  0
LINE
  5
F3B32
  8
OBJECT
 10
748.26510299999984
 20
444.35590799999989
 30
0.0
 11
748.09636499999988
 21
444.33154699999989
 31
0.0
  0
LINE
  5
F3B33
  8
OBJECT
 10
748.09636499999988
 20
444.33154699999989
 30
0.0
 11
747.93382900000017
 21
444.30757199999999
 31
0.0
  0
LINE
  5
F3B34
  8
OBJECT
 10
747.93382900000017
 20
444.30757199999999
 30
0.0
 11
747.77707599999985
 21
444.28393999999992
 31
0.0
  0
LINE
  5
F3B35
  8
OBJECT
 10
747.77707599999985
 20
444.28393999999992
 30
0.0
 11
747.62568699999974
 21
444.26060799999999
 31
0.0
  0
LINE
  5
F3B36
  8
OBJECT
 10
747.62568699999974
 20
444.26060799999999
 30
0.0
 11
747.47924499999988
 21
444.23753699999992
 31
0.0
  0
LINE
  5
F3B37
  8
OBJECT
 10
747.47924499999988
 20
444.23753699999992
 30
0.0
 11
747.33732999999984
 21
444.21468199999993
 31
0.0
  0
LINE
  5
F3B38
  8
OBJECT
 10
747.33732999999984
 20
444.21468199999993
 30
0.0
 11
747.19952499999988
 21
444.192004
 31
0.0
  0
LINE
  5
F3B39
  8
OBJECT
 10
747.19952499999988
 20
444.192004
 30
0.0
 11
747.06541000000016
 21
444.16945899999979
 31
0.0
  0
LINE
  5
F3B3A
  8
OBJECT
 10
747.06541000000016
 20
444.16945899999979
 30
0.0
 11
746.93456800000013
 21
444.14700699999997
 31
0.0
  0
LINE
  5
F3B3B
  8
OBJECT
 10
746.93456800000013
 20
444.14700699999997
 30
0.0
 11
746.80658000000005
 21
444.12460399999998
 31
0.0
  0
LINE
  5
F3B3C
  8
OBJECT
 10
746.80658000000005
 20
444.12460399999998
 30
0.0
 11
746.68102799999986
 21
444.10221100000001
 31
0.0
  0
LINE
  5
F3B3D
  8
OBJECT
 10
746.68102799999986
 20
444.10221100000001
 30
0.0
 11
746.55749200000002
 21
444.07978300000002
 31
0.0
  0
LINE
  5
F3B3E
  8
OBJECT
 10
746.55749200000002
 20
444.07978300000002
 30
0.0
 11
746.43555600000013
 21
444.05728099999988
 31
0.0
  0
LINE
  5
F3B3F
  8
OBJECT
 10
746.43555600000013
 20
444.05728099999988
 30
0.0
 11
746.31479899999999
 21
444.03466100000003
 31
0.0
  0
LINE
  5
F3B40
  8
OBJECT
 10
746.31479899999999
 20
444.03466100000003
 30
0.0
 11
746.19480500000009
 21
444.01188200000001
 31
0.0
  0
LINE
  5
F3B41
  8
OBJECT
 10
746.19480500000009
 20
444.01188200000001
 30
0.0
 11
746.07515400000011
 21
443.98890299999988
 31
0.0
  0
LINE
  5
F3B42
  8
OBJECT
 10
746.07515400000011
 20
443.98890299999988
 30
0.0
 11
745.95542799999976
 21
443.96568099999979
 31
0.0
  0
LINE
  5
F3B43
  8
OBJECT
 10
745.95542799999976
 20
443.96568099999979
 30
0.0
 11
745.83520799999997
 21
443.94217500000002
 31
0.0
  0
LINE
  5
F3B44
  8
OBJECT
 10
745.83520799999997
 20
443.94217500000002
 30
0.0
 11
745.71407599999975
 21
443.91834199999988
 31
0.0
  0
LINE
  5
F3B45
  8
OBJECT
 10
745.71407599999975
 20
443.91834199999988
 30
0.0
 11
745.59161499999982
 21
443.89414199999987
 31
0.0
  0
LINE
  5
F3B46
  8
OBJECT
 10
745.59161499999982
 20
443.89414199999987
 30
0.0
 11
745.4730569999997
 21
443.8706449999998
 31
0.0
  0
LINE
  5
F3B47
  8
OBJECT
 10
745.4730569999997
 20
443.8706449999998
 30
0.0
 11
745.35300500000017
 21
443.84678999999988
 31
0.0
  0
LINE
  5
F3B48
  8
OBJECT
 10
745.35300500000017
 20
443.84678999999988
 30
0.0
 11
745.23155900000017
 21
443.82259199999987
 31
0.0
  0
LINE
  5
F3B49
  8
OBJECT
 10
745.23155900000017
 20
443.82259199999987
 30
0.0
 11
745.10882100000015
 21
443.79806699999989
 31
0.0
  0
LINE
  5
F3B4A
  8
OBJECT
 10
745.10882100000015
 20
443.79806699999989
 30
0.0
 11
744.98489299999983
 21
443.77323000000001
 31
0.0
  0
LINE
  5
F3B4B
  8
OBJECT
 10
744.98489299999983
 20
443.77323000000001
 30
0.0
 11
744.85987499999999
 21
443.74809699999997
 31
0.0
  0
LINE
  5
F3B4C
  8
OBJECT
 10
744.85987499999999
 20
443.74809699999997
 30
0.0
 11
744.73386999999968
 21
443.72268299999979
 31
0.0
  0
LINE
  5
F3B4D
  8
OBJECT
 10
744.73386999999968
 20
443.72268299999979
 30
0.0
 11
744.60698000000014
 21
443.69700399999999
 31
0.0
  0
LINE
  5
F3B4E
  8
OBJECT
 10
744.60698000000014
 20
443.69700399999999
 30
0.0
 11
744.4793040000003
 21
443.67107600000008
 31
0.0
  0
LINE
  5
F3B4F
  8
OBJECT
 10
744.4793040000003
 20
443.67107600000008
 30
0.0
 11
744.35094600000014
 21
443.64491399999991
 31
0.0
  0
LINE
  5
F3B50
  8
OBJECT
 10
744.35094600000014
 20
443.64491399999991
 30
0.0
 11
744.22200599999985
 21
443.61853400000001
 31
0.0
  0
LINE
  5
F3B51
  8
OBJECT
 10
744.22200599999985
 20
443.61853400000001
 30
0.0
 11
744.09258699999998
 21
443.59195099999988
 31
0.0
  0
LINE
  5
F3B52
  8
OBJECT
 10
744.09258699999998
 20
443.59195099999988
 30
0.0
 11
743.96278800000005
 21
443.56518099999988
 31
0.0
  0
LINE
  5
F3B53
  8
OBJECT
 10
743.96278800000005
 20
443.56518099999988
 30
0.0
 11
743.83271300000013
 21
443.53823999999992
 31
0.0
  0
LINE
  5
F3B54
  8
OBJECT
 10
743.83271300000013
 20
443.53823999999992
 30
0.0
 11
743.70246199999985
 21
443.51114399999989
 31
0.0
  0
LINE
  5
F3B55
  8
OBJECT
 10
743.70246199999985
 20
443.51114399999989
 30
0.0
 11
743.572137
 21
443.48390699999987
 31
0.0
  0
LINE
  5
F3B56
  8
OBJECT
 10
743.572137
 20
443.48390699999987
 30
0.0
 11
743.44183999999984
 21
443.45654500000001
 31
0.0
  0
LINE
  5
F3B57
  8
OBJECT
 10
743.44183999999984
 20
443.45654500000001
 30
0.0
 11
743.31167100000005
 21
443.42907499999978
 31
0.0
  0
LINE
  5
F3B58
  8
OBJECT
 10
743.31167100000005
 20
443.42907499999978
 30
0.0
 11
743.18173299999955
 21
443.40151100000003
 31
0.0
  0
LINE
  5
F3B59
  8
OBJECT
 10
743.18173299999955
 20
443.40151100000003
 30
0.0
 11
743.05212699999981
 21
443.37386899999979
 31
0.0
  0
LINE
  5
F3B5A
  8
OBJECT
 10
743.05212699999981
 20
443.37386899999979
 30
0.0
 11
742.90410999999983
 21
443.34211199999999
 31
0.0
  0
LINE
  5
F3B5B
  8
OBJECT
 10
742.90410999999983
 20
443.34211199999999
 30
0.0
 11
742.75662899999975
 21
443.31026499999979
 31
0.0
  0
LINE
  5
F3B5C
  8
OBJECT
 10
742.75662899999975
 20
443.31026499999979
 30
0.0
 11
742.60965199999976
 21
443.27832000000001
 31
0.0
  0
LINE
  5
F3B5D
  8
OBJECT
 10
742.60965199999976
 20
443.27832000000001
 30
0.0
 11
742.46314499999983
 21
443.24626899999998
 31
0.0
  0
LINE
  5
F3B5E
  8
OBJECT
 10
742.46314499999983
 20
443.24626899999998
 30
0.0
 11
742.31707500000005
 21
443.21410399999991
 31
0.0
  0
LINE
  5
F3B5F
  8
OBJECT
 10
742.31707500000005
 20
443.21410399999991
 30
0.0
 11
742.17140900000015
 21
443.1818159999998
 31
0.0
  0
LINE
  5
F3B60
  8
OBJECT
 10
742.17140900000015
 20
443.1818159999998
 30
0.0
 11
742.02611499999989
 21
443.14939799999991
 31
0.0
  0
LINE
  5
F3B61
  8
OBJECT
 10
742.02611499999989
 20
443.14939799999991
 30
0.0
 11
741.88115900000014
 21
443.11684099999979
 31
0.0
  0
LINE
  5
F3B62
  8
OBJECT
 10
741.88115900000014
 20
443.11684099999979
 30
0.0
 11
741.73650899999984
 21
443.084137
 31
0.0
  0
LINE
  5
F3B63
  8
OBJECT
 10
741.73650899999984
 20
443.084137
 30
0.0
 11
741.59213099999988
 21
443.05127799999991
 31
0.0
  0
LINE
  5
F3B64
  8
OBJECT
 10
741.59213099999988
 20
443.05127799999991
 30
0.0
 11
741.44799299999988
 21
443.01825600000001
 31
0.0
  0
LINE
  5
F3B65
  8
OBJECT
 10
741.44799299999988
 20
443.01825600000001
 30
0.0
 11
741.30406099999982
 21
442.98506300000003
 31
0.0
  0
LINE
  5
F3B66
  8
OBJECT
 10
741.30406099999982
 20
442.98506300000003
 30
0.0
 11
741.16030300000011
 21
442.95168899999999
 31
0.0
  0
LINE
  5
F3B67
  8
OBJECT
 10
741.16030300000011
 20
442.95168899999999
 30
0.0
 11
741.01668499999982
 21
442.91812899999979
 31
0.0
  0
LINE
  5
F3B68
  8
OBJECT
 10
741.01668499999982
 20
442.91812899999979
 30
0.0
 11
740.87317500000017
 21
442.88437199999993
 31
0.0
  0
LINE
  5
F3B69
  8
OBJECT
 10
740.87317500000017
 20
442.88437199999993
 30
0.0
 11
740.72973999999999
 21
442.85041100000001
 31
0.0
  0
LINE
  5
F3B6A
  8
OBJECT
 10
740.72973999999999
 20
442.85041100000001
 30
0.0
 11
740.58634600000005
 21
442.81623799999988
 31
0.0
  0
LINE
  5
F3B6B
  8
OBJECT
 10
740.58634600000005
 20
442.81623799999988
 30
0.0
 11
740.44296099999985
 21
442.78184499999998
 31
0.0
  0
LINE
  5
F3B6C
  8
OBJECT
 10
740.44296099999985
 20
442.78184499999998
 30
0.0
 11
740.29955199999984
 21
442.74722299999991
 31
0.0
  0
LINE
  5
F3B6D
  8
OBJECT
 10
740.29955199999984
 20
442.74722299999991
 30
0.0
 11
740.15608599999996
 21
442.71236399999992
 31
0.0
  0
LINE
  5
F3B6E
  8
OBJECT
 10
740.15608599999996
 20
442.71236399999992
 30
0.0
 11
740.01388599999984
 21
442.67759399999971
 31
0.0
  0
LINE
  5
F3B6F
  8
OBJECT
 10
740.01388599999984
 20
442.67759399999971
 30
0.0
 11
739.87160799999981
 21
442.642583
 31
0.0
  0
LINE
  5
F3B70
  8
OBJECT
 10
739.87160799999981
 20
442.642583
 30
0.0
 11
739.72926099999984
 21
442.60733199999987
 31
0.0
  0
LINE
  5
F3B71
  8
OBJECT
 10
739.72926099999984
 20
442.60733199999987
 30
0.0
 11
739.58685400000013
 21
442.57184299999989
 31
0.0
  0
LINE
  5
F3B72
  8
OBJECT
 10
739.58685400000013
 20
442.57184299999989
 30
0.0
 11
739.44439700000009
 21
442.53611399999988
 31
0.0
  0
LINE
  5
F3B73
  8
OBJECT
 10
739.44439700000009
 20
442.53611399999988
 30
0.0
 11
739.30190000000005
 21
442.5001459999998
 31
0.0
  0
LINE
  5
F3B74
  8
OBJECT
 10
739.30190000000005
 20
442.5001459999998
 30
0.0
 11
739.15937299999985
 21
442.46393999999998
 31
0.0
  0
LINE
  5
F3B75
  8
OBJECT
 10
739.15937299999985
 20
442.46393999999998
 30
0.0
 11
739.01682399999981
 21
442.42749599999991
 31
0.0
  0
LINE
  5
F3B76
  8
OBJECT
 10
739.01682399999981
 20
442.42749599999991
 30
0.0
 11
738.87426499999981
 21
442.39081299999998
 31
0.0
  0
LINE
  5
F3B77
  8
OBJECT
 10
738.87426499999981
 20
442.39081299999998
 30
0.0
 11
738.73170299999981
 21
442.35389399999991
 31
0.0
  0
LINE
  5
F3B78
  8
OBJECT
 10
738.73170299999981
 20
442.35389399999991
 30
0.0
 11
738.58915000000013
 21
442.31673699999988
 31
0.0
  0
LINE
  5
F3B79
  8
OBJECT
 10
738.58915000000013
 20
442.31673699999988
 30
0.0
 11
738.44661399999984
 21
442.27934199999987
 31
0.0
  0
LINE
  5
F3B7A
  8
OBJECT
 10
738.44661399999984
 20
442.27934199999987
 30
0.0
 11
738.30410599999982
 21
442.24171200000001
 31
0.0
  0
LINE
  5
F3B7B
  8
OBJECT
 10
738.30410599999982
 20
442.24171200000001
 30
0.0
 11
738.16163499999982
 21
442.20384399999989
 31
0.0
  0
LINE
  5
F3B7C
  8
OBJECT
 10
738.16163499999982
 20
442.20384399999989
 30
0.0
 11
738.01921000000016
 21
442.16574099999991
 31
0.0
  0
LINE
  5
F3B7D
  8
OBJECT
 10
738.01921000000016
 20
442.16574099999991
 30
0.0
 11
737.87684200000001
 21
442.12740199999979
 31
0.0
  0
LINE
  5
F3B7E
  8
OBJECT
 10
737.87684200000001
 20
442.12740199999979
 30
0.0
 11
737.73453999999981
 21
442.08882699999981
 31
0.0
  0
LINE
  5
F3B7F
  8
OBJECT
 10
737.73453999999981
 20
442.08882699999981
 30
0.0
 11
737.5923130000001
 21
442.05001699999991
 31
0.0
  0
LINE
  5
F3B80
  8
OBJECT
 10
737.5923130000001
 20
442.05001699999991
 30
0.0
 11
737.45017199999984
 21
442.01097299999998
 31
0.0
  0
LINE
  5
F3B81
  8
OBJECT
 10
737.45017199999984
 20
442.01097299999998
 30
0.0
 11
737.30812500000013
 21
441.97169299999979
 31
0.0
  0
LINE
  5
F3B82
  8
OBJECT
 10
737.30812500000013
 20
441.97169299999979
 30
0.0
 11
737.15948500000013
 21
441.93030999999991
 31
0.0
  0
LINE
  5
F3B83
  8
OBJECT
 10
737.15948500000013
 20
441.93030999999991
 30
0.0
 11
737.01095699999985
 21
441.88867199999987
 31
0.0
  0
LINE
  5
F3B84
  8
OBJECT
 10
737.01095699999985
 20
441.88867199999987
 30
0.0
 11
736.86253599999998
 21
441.84678499999978
 31
0.0
  0
LINE
  5
F3B85
  8
OBJECT
 10
736.86253599999998
 20
441.84678499999978
 30
0.0
 11
736.71421999999984
 21
441.80464999999992
 31
0.0
  0
LINE
  5
F3B86
  8
OBJECT
 10
736.71421999999984
 20
441.80464999999992
 30
0.0
 11
736.56600400000002
 21
441.76227199999988
 31
0.0
  0
LINE
  5
F3B87
  8
OBJECT
 10
736.56600400000002
 20
441.76227199999988
 30
0.0
 11
736.41788599999984
 21
441.71965299999999
 31
0.0
  0
LINE
  5
F3B88
  8
OBJECT
 10
736.41788599999984
 20
441.71965299999999
 30
0.0
 11
736.26986199999988
 21
441.67679700000008
 31
0.0
  0
LINE
  5
F3B89
  8
OBJECT
 10
736.26986199999988
 20
441.67679700000008
 30
0.0
 11
736.12192900000014
 21
441.63370699999979
 31
0.0
  0
LINE
  5
F3B8A
  8
OBJECT
 10
736.12192900000014
 20
441.63370699999979
 30
0.0
 11
735.97408199999984
 21
441.59038700000002
 31
0.0
  0
LINE
  5
F3B8B
  8
OBJECT
 10
735.97408199999984
 20
441.59038700000002
 30
0.0
 11
735.82631999999967
 21
441.54683999999992
 31
0.0
  0
LINE
  5
F3B8C
  8
OBJECT
 10
735.82631999999967
 20
441.54683999999992
 30
0.0
 11
735.67863699999998
 21
441.50306899999998
 31
0.0
  0
LINE
  5
F3B8D
  8
OBJECT
 10
735.67863699999998
 20
441.50306899999998
 30
0.0
 11
735.5310310000001
 21
441.45907799999998
 31
0.0
  0
LINE
  5
F3B8E
  8
OBJECT
 10
735.5310310000001
 20
441.45907799999998
 30
0.0
 11
735.3834989999998
 21
441.41486899999973
 31
0.0
  0
LINE
  5
F3B8F
  8
OBJECT
 10
735.3834989999998
 20
441.41486899999973
 30
0.0
 11
735.23603699999956
 21
441.37044599999979
 31
0.0
  0
LINE
  5
F3B90
  8
OBJECT
 10
735.23603699999956
 20
441.37044599999979
 30
0.0
 11
735.08864099999982
 21
441.3258130000001
 31
0.0
  0
LINE
  5
F3B91
  8
OBJECT
 10
735.08864099999982
 20
441.3258130000001
 30
0.0
 11
734.94130799999971
 21
441.28097299999979
 31
0.0
  0
LINE
  5
F3B92
  8
OBJECT
 10
734.94130799999971
 20
441.28097299999979
 30
0.0
 11
734.79403400000001
 21
441.235929
 31
0.0
  0
LINE
  5
F3B93
  8
OBJECT
 10
734.79403400000001
 20
441.235929
 30
0.0
 11
734.64681700000006
 21
441.19068399999992
 31
0.0
  0
LINE
  5
F3B94
  8
OBJECT
 10
734.64681700000006
 20
441.19068399999992
 30
0.0
 11
734.49965199999986
 21
441.14524199999988
 31
0.0
  0
LINE
  5
F3B95
  8
OBJECT
 10
734.49965199999986
 20
441.14524199999988
 30
0.0
 11
734.3525360000001
 21
441.09960599999999
 31
0.0
  0
LINE
  5
F3B96
  8
OBJECT
 10
734.3525360000001
 20
441.09960599999999
 30
0.0
 11
734.21006199999999
 21
441.05521399999998
 31
0.0
  0
LINE
  5
F3B97
  8
OBJECT
 10
734.21006199999999
 20
441.05521399999998
 30
0.0
 11
734.067632
 21
441.01064599999989
 31
0.0
  0
LINE
  5
F3B98
  8
OBJECT
 10
734.067632
 20
441.01064599999989
 30
0.0
 11
733.92524499999979
 21
440.96590500000002
 31
0.0
  0
LINE
  5
F3B99
  8
OBJECT
 10
733.92524499999979
 20
440.96590500000002
 30
0.0
 11
733.78290400000003
 21
440.92099300000001
 31
0.0
  0
LINE
  5
F3B9A
  8
OBJECT
 10
733.78290400000003
 20
440.92099300000001
 30
0.0
 11
733.64060699999982
 21
440.87591300000003
 31
0.0
  0
LINE
  5
F3B9B
  8
OBJECT
 10
733.64060699999982
 20
440.87591300000003
 30
0.0
 11
733.49835599999983
 21
440.83066799999989
 31
0.0
  0
LINE
  5
F3B9C
  8
OBJECT
 10
733.49835599999983
 20
440.83066799999989
 30
0.0
 11
733.35615199999984
 21
440.78526099999988
 31
0.0
  0
LINE
  5
F3B9D
  8
OBJECT
 10
733.35615199999984
 20
440.78526099999988
 30
0.0
 11
733.21399399999984
 21
440.73969399999987
 31
0.0
  0
LINE
  5
F3B9E
  8
OBJECT
 10
733.21399399999984
 20
440.73969399999987
 30
0.0
 11
733.07188399999984
 21
440.69397099999992
 31
0.0
  0
LINE
  5
F3B9F
  8
OBJECT
 10
733.07188399999984
 20
440.69397099999992
 30
0.0
 11
732.92982199999983
 21
440.64809399999979
 31
0.0
  0
LINE
  5
F3BA0
  8
OBJECT
 10
732.92982199999983
 20
440.64809399999979
 30
0.0
 11
732.7878079999997
 21
440.60206499999998
 31
0.0
  0
LINE
  5
F3BA1
  8
OBJECT
 10
732.7878079999997
 20
440.60206499999998
 30
0.0
 11
732.64584400000001
 21
440.5558880000001
 31
0.0
  0
LINE
  5
F3BA2
  8
OBJECT
 10
732.64584400000001
 20
440.5558880000001
 30
0.0
 11
732.5039290000002
 21
440.50956599999989
 31
0.0
  0
LINE
  5
F3BA3
  8
OBJECT
 10
732.5039290000002
 20
440.50956599999989
 30
0.0
 11
732.36206400000015
 21
440.4631
 31
0.0
  0
LINE
  5
F3BA4
  8
OBJECT
 10
732.36206400000015
 20
440.4631
 30
0.0
 11
732.22025099999985
 21
440.416495
 31
0.0
  0
LINE
  5
F3BA5
  8
OBJECT
 10
732.22025099999985
 20
440.416495
 30
0.0
 11
732.07848899999988
 21
440.36975200000001
 31
0.0
  0
LINE
  5
F3BA6
  8
OBJECT
 10
732.07848899999988
 20
440.36975200000001
 30
0.0
 11
731.93677800000012
 21
440.32287499999973
 31
0.0
  0
LINE
  5
F3BA7
  8
OBJECT
 10
731.93677800000012
 20
440.32287499999973
 30
0.0
 11
731.79512100000011
 21
440.27586599999989
 31
0.0
  0
LINE
  5
F3BA8
  8
OBJECT
 10
731.79512100000011
 20
440.27586599999989
 30
0.0
 11
731.65351599999985
 21
440.22872799999999
 31
0.0
  0
LINE
  5
F3BA9
  8
OBJECT
 10
731.65351599999985
 20
440.22872799999999
 30
0.0
 11
731.51196499999969
 21
440.18146400000001
 31
0.0
  0
LINE
  5
F3BAA
  8
OBJECT
 10
731.51196499999969
 20
440.18146400000001
 30
0.0
 11
731.37815699999976
 21
440.13665399999979
 31
0.0
  0
LINE
  5
F3BAB
  8
OBJECT
 10
731.37815699999976
 20
440.13665399999979
 30
0.0
 11
731.24439600000017
 21
440.09173600000003
 31
0.0
  0
LINE
  5
F3BAC
  8
OBJECT
 10
731.24439600000017
 20
440.09173600000003
 30
0.0
 11
731.11067700000012
 21
440.04670900000002
 31
0.0
  0
LINE
  5
F3BAD
  8
OBJECT
 10
731.11067700000012
 20
440.04670900000002
 30
0.0
 11
730.97699999999998
 21
440.00157399999989
 31
0.0
  0
LINE
  5
F3BAE
  8
OBJECT
 10
730.97699999999998
 20
440.00157399999989
 30
0.0
 11
730.84336099999985
 21
439.95633299999992
 31
0.0
  0
LINE
  5
F3BAF
  8
OBJECT
 10
730.84336099999985
 20
439.95633299999992
 30
0.0
 11
730.70975799999985
 21
439.91098599999998
 31
0.0
  0
LINE
  5
F3BB0
  8
OBJECT
 10
730.70975799999985
 20
439.91098599999998
 30
0.0
 11
730.57618800000012
 21
439.86553499999991
 31
0.0
  0
LINE
  5
F3BB1
  8
OBJECT
 10
730.57618800000012
 20
439.86553499999991
 30
0.0
 11
730.44264899999985
 21
439.81997899999988
 31
0.0
  0
LINE
  5
F3BB2
  8
OBJECT
 10
730.44264899999985
 20
439.81997899999988
 30
0.0
 11
730.30913799999985
 21
439.77432099999987
 31
0.0
  0
LINE
  5
F3BB3
  8
OBJECT
 10
730.30913799999985
 20
439.77432099999987
 30
0.0
 11
730.17565300000012
 21
439.72856099999979
 31
0.0
  0
LINE
  5
F3BB4
  8
OBJECT
 10
730.17565300000012
 20
439.72856099999979
 30
0.0
 11
730.04219099999989
 21
439.68270000000001
 31
0.0
  0
LINE
  5
F3BB5
  8
OBJECT
 10
730.04219099999989
 20
439.68270000000001
 30
0.0
 11
729.90875000000005
 21
439.63673899999992
 31
0.0
  0
LINE
  5
F3BB6
  8
OBJECT
 10
729.90875000000005
 20
439.63673899999992
 30
0.0
 11
729.77532699999983
 21
439.59067800000003
 31
0.0
  0
LINE
  5
F3BB7
  8
OBJECT
 10
729.77532699999983
 20
439.59067800000003
 30
0.0
 11
729.64191999999969
 21
439.54451999999998
 31
0.0
  0
LINE
  5
F3BB8
  8
OBJECT
 10
729.64191999999969
 20
439.54451999999998
 30
0.0
 11
729.50852599999985
 21
439.49826499999972
 31
0.0
  0
LINE
  5
F3BB9
  8
OBJECT
 10
729.50852599999985
 20
439.49826499999972
 30
0.0
 11
729.37514299999998
 21
439.45191299999988
 31
0.0
  0
LINE
  5
F3BBA
  8
OBJECT
 10
729.37514299999998
 20
439.45191299999988
 30
0.0
 11
729.24176699999975
 21
439.40546599999999
 31
0.0
  0
LINE
  5
F3BBB
  8
OBJECT
 10
729.24176699999975
 20
439.40546599999999
 30
0.0
 11
729.10839799999985
 21
439.35892499999989
 31
0.0
  0
LINE
  5
F3BBC
  8
OBJECT
 10
729.10839799999985
 20
439.35892499999989
 30
0.0
 11
728.97503099999983
 21
439.31228999999979
 31
0.0
  0
LINE
  5
F3BBD
  8
OBJECT
 10
728.97503099999983
 20
439.31228999999979
 30
0.0
 11
728.84166400000015
 21
439.26556299999999
 31
0.0
  0
LINE
  5
F3BBE
  8
OBJECT
 10
728.84166400000015
 20
439.26556299999999
 30
0.0
 11
728.68629699999985
 21
439.21100999999999
 31
0.0
  0
LINE
  5
F3BBF
  8
OBJECT
 10
728.68629699999985
 20
439.21100999999999
 30
0.0
 11
728.53094199999987
 21
439.15632199999999
 31
0.0
  0
LINE
  5
F3BC0
  8
OBJECT
 10
728.53094199999987
 20
439.15632199999999
 30
0.0
 11
728.37561199999982
 21
439.10149000000001
 31
0.0
  0
LINE
  5
F3BC1
  8
OBJECT
 10
728.37561199999982
 20
439.10149000000001
 30
0.0
 11
728.22032100000013
 21
439.04650399999991
 31
0.0
  0
LINE
  5
F3BC2
  8
OBJECT
 10
728.22032100000013
 20
439.04650399999991
 30
0.0
 11
728.06508399999984
 21
438.99135199999989
 31
0.0
  0
LINE
  5
F3BC3
  8
OBJECT
 10
728.06508399999984
 20
438.99135199999989
 30
0.0
 11
727.90991399999984
 21
438.93602499999997
 31
0.0
  0
LINE
  5
F3BC4
  8
OBJECT
 10
727.90991399999984
 20
438.93602499999997
 30
0.0
 11
727.75482599999975
 21
438.88051300000001
 31
0.0
  0
LINE
  5
F3BC5
  8
OBJECT
 10
727.75482599999975
 20
438.88051300000001
 30
0.0
 11
727.5998340000001
 21
438.82480599999991
 31
0.0
  0
LINE
  5
F3BC6
  8
OBJECT
 10
727.5998340000001
 20
438.82480599999991
 30
0.0
 11
727.44495199999983
 21
438.76889199999999
 31
0.0
  0
LINE
  5
F3BC7
  8
OBJECT
 10
727.44495199999983
 20
438.76889199999999
 30
0.0
 11
727.2901939999997
 21
438.712763
 31
0.0
  0
LINE
  5
F3BC8
  8
OBJECT
 10
727.2901939999997
 20
438.712763
 30
0.0
 11
727.13557399999968
 21
438.656408
 31
0.0
  0
LINE
  5
F3BC9
  8
OBJECT
 10
727.13557399999968
 20
438.656408
 30
0.0
 11
726.98110599999984
 21
438.59981699999992
 31
0.0
  0
LINE
  5
F3BCA
  8
OBJECT
 10
726.98110599999984
 20
438.59981699999992
 30
0.0
 11
726.82680400000015
 21
438.54297999999989
 31
0.0
  0
LINE
  5
F3BCB
  8
OBJECT
 10
726.82680400000015
 20
438.54297999999989
 30
0.0
 11
726.67268200000001
 21
438.48588499999988
 31
0.0
  0
LINE
  5
F3BCC
  8
OBJECT
 10
726.67268200000001
 20
438.48588499999988
 30
0.0
 11
726.51875500000017
 21
438.42852399999992
 31
0.0
  0
LINE
  5
F3BCD
  8
OBJECT
 10
726.51875500000017
 20
438.42852399999992
 30
0.0
 11
726.36503599999969
 21
438.37088599999993
 31
0.0
  0
LINE
  5
F3BCE
  8
OBJECT
 10
726.36503599999969
 20
438.37088599999993
 30
0.0
 11
726.2115389999999
 21
438.31296200000003
 31
0.0
  0
LINE
  5
F3BCF
  8
OBJECT
 10
726.2115389999999
 20
438.31296200000003
 30
0.0
 11
726.05827899999986
 21
438.25473899999997
 31
0.0
  0
LINE
  5
F3BD0
  8
OBJECT
 10
726.05827899999986
 20
438.25473899999997
 30
0.0
 11
725.90526999999975
 21
438.19620999999989
 31
0.0
  0
LINE
  5
F3BD1
  8
OBJECT
 10
725.90526999999975
 20
438.19620999999989
 30
0.0
 11
725.75252499999999
 21
438.13736199999988
 31
0.0
  0
LINE
  5
F3BD2
  8
OBJECT
 10
725.75252499999999
 20
438.13736199999988
 30
0.0
 11
725.61977400000012
 21
438.08586499999979
 31
0.0
  0
LINE
  5
F3BD3
  8
OBJECT
 10
725.61977400000012
 20
438.08586499999979
 30
0.0
 11
725.48721
 21
438.03410999999988
 31
0.0
  0
LINE
  5
F3BD4
  8
OBJECT
 10
725.48721
 20
438.03410999999988
 30
0.0
 11
725.35480799999982
 21
437.98208699999992
 31
0.0
  0
LINE
  5
F3BD5
  8
OBJECT
 10
725.35480799999982
 20
437.98208699999992
 30
0.0
 11
725.22254399999997
 21
437.92978599999998
 31
0.0
  0
LINE
  5
F3BD6
  8
OBJECT
 10
725.22254399999997
 20
437.92978599999998
 30
0.0
 11
725.09039399999983
 21
437.87719799999979
 31
0.0
  0
LINE
  5
F3BD7
  8
OBJECT
 10
725.09039399999983
 20
437.87719799999979
 30
0.0
 11
724.95833299999981
 21
437.82431199999991
 31
0.0
  0
LINE
  5
F3BD8
  8
OBJECT
 10
724.95833299999981
 20
437.82431199999991
 30
0.0
 11
724.82633699999985
 21
437.77111899999989
 31
0.0
  0
LINE
  5
F3BD9
  8
OBJECT
 10
724.82633699999985
 20
437.77111899999989
 30
0.0
 11
724.69438199999979
 21
437.71760899999981
 31
0.0
  0
LINE
  5
F3BDA
  8
OBJECT
 10
724.69438199999979
 20
437.71760899999981
 30
0.0
 11
724.56244300000014
 21
437.66377299999988
 31
0.0
  0
LINE
  5
F3BDB
  8
OBJECT
 10
724.56244300000014
 20
437.66377299999988
 30
0.0
 11
724.43049599999995
 21
437.6096
 31
0.0
  0
LINE
  5
F3BDC
  8
OBJECT
 10
724.43049599999995
 20
437.6096
 30
0.0
 11
724.29851599999984
 21
437.55507999999998
 31
0.0
  0
LINE
  5
F3BDD
  8
OBJECT
 10
724.29851599999984
 20
437.55507999999998
 30
0.0
 11
724.16647899999975
 21
437.50020499999988
 31
0.0
  0
LINE
  5
F3BDE
  8
OBJECT
 10
724.16647899999975
 20
437.50020499999988
 30
0.0
 11
724.03436099999999
 21
437.44496299999997
 31
0.0
  0
LINE
  5
F3BDF
  8
OBJECT
 10
724.03436099999999
 20
437.44496299999997
 30
0.0
 11
723.9021359999997
 21
437.38934699999987
 31
0.0
  0
LINE
  5
F3BE0
  8
OBJECT
 10
723.9021359999997
 20
437.38934699999987
 30
0.0
 11
723.76978199999985
 21
437.33334399999978
 31
0.0
  0
LINE
  5
F3BE1
  8
OBJECT
 10
723.76978199999985
 20
437.33334399999978
 30
0.0
 11
723.63727299999982
 21
437.27694700000001
 31
0.0
  0
LINE
  5
F3BE2
  8
OBJECT
 10
723.63727299999982
 20
437.27694700000001
 30
0.0
 11
723.50458500000013
 21
437.22014399999989
 31
0.0
  0
LINE
  5
F3BE3
  8
OBJECT
 10
723.50458500000013
 20
437.22014399999989
 30
0.0
 11
723.37169399999982
 21
437.1629269999998
 31
0.0
  0
LINE
  5
F3BE4
  8
OBJECT
 10
723.37169399999982
 20
437.1629269999998
 30
0.0
 11
723.23857499999986
 21
437.10528499999981
 31
0.0
  0
LINE
  5
F3BE5
  8
OBJECT
 10
723.23857499999986
 20
437.10528499999981
 30
0.0
 11
723.10520399999984
 21
437.04720899999978
 31
0.0
  0
LINE
  5
F3BE6
  8
OBJECT
 10
723.10520399999984
 20
437.04720899999978
 30
0.0
 11
722.96937300000013
 21
436.98773199999988
 31
0.0
  0
LINE
  5
F3BE7
  8
OBJECT
 10
722.96937300000013
 20
436.98773199999988
 30
0.0
 11
722.83334799999989
 21
436.92784999999998
 31
0.0
  0
LINE
  5
F3BE8
  8
OBJECT
 10
722.83334799999989
 20
436.92784999999998
 30
0.0
 11
722.69722200000012
 21
436.86761699999988
 31
0.0
  0
LINE
  5
F3BE9
  8
OBJECT
 10
722.69722200000012
 20
436.86761699999988
 30
0.0
 11
722.56108400000005
 21
436.80708699999991
 31
0.0
  0
LINE
  5
F3BEA
  8
OBJECT
 10
722.56108400000005
 20
436.80708699999991
 30
0.0
 11
722.42502799999988
 21
436.74631299999987
 31
0.0
  0
LINE
  5
F3BEB
  8
OBJECT
 10
722.42502799999988
 20
436.74631299999987
 30
0.0
 11
722.28914499999985
 21
436.68534899999992
 31
0.0
  0
LINE
  5
F3BEC
  8
OBJECT
 10
722.28914499999985
 20
436.68534899999992
 30
0.0
 11
722.15352699999983
 21
436.62424900000002
 31
0.0
  0
LINE
  5
F3BED
  8
OBJECT
 10
722.15352699999983
 20
436.62424900000002
 30
0.0
 11
722.01826599999981
 21
436.56306699999988
 31
0.0
  0
LINE
  5
F3BEE
  8
OBJECT
 10
722.01826599999981
 20
436.56306699999988
 30
0.0
 11
721.88345299999969
 21
436.50185699999997
 31
0.0
  0
LINE
  5
F3BEF
  8
OBJECT
 10
721.88345299999969
 20
436.50185699999997
 30
0.0
 11
721.74918000000014
 21
436.44067199999989
 31
0.0
  0
LINE
  5
F3BF0
  8
OBJECT
 10
721.74918000000014
 20
436.44067199999989
 30
0.0
 11
721.6155389999999
 21
436.37956600000001
 31
0.0
  0
LINE
  5
F3BF1
  8
OBJECT
 10
721.6155389999999
 20
436.37956600000001
 30
0.0
 11
721.48262199999988
 21
436.31859299999991
 31
0.0
  0
LINE
  5
F3BF2
  8
OBJECT
 10
721.48262199999988
 20
436.31859299999991
 30
0.0
 11
721.35051999999985
 21
436.25780700000001
 31
0.0
  0
LINE
  5
F3BF3
  8
OBJECT
 10
721.35051999999985
 20
436.25780700000001
 30
0.0
 11
721.21932500000014
 21
436.19726199999991
 31
0.0
  0
LINE
  5
F3BF4
  8
OBJECT
 10
721.21932500000014
 20
436.19726199999991
 30
0.0
 11
721.08912900000018
 21
436.13701099999997
 31
0.0
  0
LINE
  5
F3BF5
  8
OBJECT
 10
721.08912900000018
 20
436.13701099999997
 30
0.0
 11
720.96002399999998
 21
436.07710900000001
 31
0.0
  0
LINE
  5
F3BF6
  8
OBJECT
 10
720.96002399999998
 20
436.07710900000001
 30
0.0
 11
720.83210099999985
 21
436.01760899999999
 31
0.0
  0
LINE
  5
F3BF7
  8
OBJECT
 10
720.83210099999985
 20
436.01760899999999
 30
0.0
 11
720.70545299999969
 21
435.9585639999998
 31
0.0
  0
LINE
  5
F3BF8
  8
OBJECT
 10
720.70545299999969
 20
435.9585639999998
 30
0.0
 11
720.58016999999984
 21
435.90002899999979
 31
0.0
  0
LINE
  5
F3BF9
  8
OBJECT
 10
720.58016999999984
 20
435.90002899999979
 30
0.0
 11
720.45634600000005
 21
435.84205799999989
 31
0.0
  0
LINE
  5
F3BFA
  8
OBJECT
 10
720.45634600000005
 20
435.84205799999989
 30
0.0
 11
720.32951000000014
 21
435.78255999999988
 31
0.0
  0
LINE
  5
F3BFB
  8
OBJECT
 10
720.32951000000014
 20
435.78255999999988
 30
0.0
 11
720.2039659999997
 21
435.72354199999978
 31
0.0
  0
LINE
  5
F3BFC
  8
OBJECT
 10
720.2039659999997
 20
435.72354199999978
 30
0.0
 11
720.07933800000012
 21
435.66482000000008
 31
0.0
  0
LINE
  5
F3BFD
  8
OBJECT
 10
720.07933800000012
 20
435.66482000000008
 30
0.0
 11
719.95524999999998
 21
435.60620899999998
 31
0.0
  0
LINE
  5
F3BFE
  8
OBJECT
 10
719.95524999999998
 20
435.60620899999998
 30
0.0
 11
719.83132699999976
 21
435.547528
 31
0.0
  0
LINE
  5
F3BFF
  8
OBJECT
 10
719.83132699999976
 20
435.547528
 30
0.0
 11
719.70719499999996
 21
435.48858999999999
 31
0.0
  0
LINE
  5
F3C00
  8
OBJECT
 10
719.70719499999996
 20
435.48858999999999
 30
0.0
 11
719.5824779999997
 21
435.429213
 31
0.0
  0
LINE
  5
F3C01
  8
OBJECT
 10
719.5824779999997
 20
435.429213
 30
0.0
 11
719.45680199999981
 21
435.36921299999989
 31
0.0
  0
LINE
  5
F3C02
  8
OBJECT
 10
719.45680199999981
 20
435.36921299999989
 30
0.0
 11
719.32979000000012
 21
435.30840499999988
 31
0.0
  0
LINE
  5
F3C03
  8
OBJECT
 10
719.32979000000012
 20
435.30840499999988
 30
0.0
 11
719.20106799999996
 21
435.24660699999998
 31
0.0
  0
LINE
  5
F3C04
  8
OBJECT
 10
719.20106799999996
 20
435.24660699999998
 30
0.0
 11
719.07026199999984
 21
435.18363299999999
 31
0.0
  0
LINE
  5
F3C05
  8
OBJECT
 10
719.07026199999984
 20
435.18363299999999
 30
0.0
 11
718.93699499999968
 21
435.11929999999978
 31
0.0
  0
LINE
  5
F3C06
  8
OBJECT
 10
718.93699499999968
 20
435.11929999999978
 30
0.0
 11
718.80089199999975
 21
435.05342499999989
 31
0.0
  0
LINE
  5
F3C07
  8
OBJECT
 10
718.80089199999975
 20
435.05342499999989
 30
0.0
 11
718.66157900000019
 21
434.98582399999992
 31
0.0
  0
LINE
  5
F3C08
  8
OBJECT
 10
718.66157900000019
 20
434.98582399999992
 30
0.0
 11
718.51868100000013
 21
434.91631100000001
 31
0.0
  0
LINE
  5
F3C09
  8
OBJECT
 10
718.51868100000013
 20
434.91631100000001
 30
0.0
 11
718.37182199999995
 21
434.84470499999981
 31
0.0
  0
LINE
  5
F3C0A
  8
OBJECT
 10
718.37182199999995
 20
434.84470499999981
 30
0.0
 11
718.22062700000015
 21
434.77082000000001
 31
0.0
  0
LINE
  5
F3C0B
  8
OBJECT
 10
718.22062700000015
 20
434.77082000000001
 30
0.0
 11
718.06472100000008
 21
434.69447299999979
 31
0.0
  0
LINE
  5
F3C0C
  8
OBJECT
 10
718.06472100000008
 20
434.69447299999979
 30
0.0
 11
717.90372900000011
 21
434.61548099999987
 31
0.0
  0
LINE
  5
F3C0D
  8
OBJECT
 10
717.90372900000011
 20
434.61548099999987
 30
0.0
 11
717.73727599999995
 21
434.533658
 31
0.0
  0
LINE
  5
F3C0E
  8
OBJECT
 10
717.73727599999995
 20
434.533658
 30
0.0
 11
717.53975700000012
 21
434.43638999999979
 31
0.0
  0
LINE
  5
F3C0F
  8
OBJECT
 10
717.53975700000012
 20
434.43638999999979
 30
0.0
 11
717.33631300000013
 21
434.33603899999991
 31
0.0
  0
LINE
  5
F3C10
  8
OBJECT
 10
717.33631300000013
 20
434.33603899999991
 30
0.0
 11
717.12868000000014
 21
434.23347799999988
 31
0.0
  0
LINE
  5
F3C11
  8
OBJECT
 10
717.12868000000014
 20
434.23347799999988
 30
0.0
 11
716.9185950000001
 21
434.12957899999998
 31
0.0
  0
LINE
  5
F3C12
  8
OBJECT
 10
716.9185950000001
 20
434.12957899999998
 30
0.0
 11
716.70779200000015
 21
434.02521499999989
 31
0.0
  0
LINE
  5
F3C13
  8
OBJECT
 10
716.70779200000015
 20
434.02521499999989
 30
0.0
 11
716.4980079999998
 21
433.92125900000002
 31
0.0
  0
LINE
  5
F3C14
  8
OBJECT
 10
716.4980079999998
 20
433.92125900000002
 30
0.0
 11
716.29097899999999
 21
433.81858399999999
 31
0.0
  0
LINE
  5
F3C15
  8
OBJECT
 10
716.29097899999999
 20
433.81858399999999
 30
0.0
 11
716.08844199999999
 21
433.7180619999998
 31
0.0
  0
LINE
  5
F3C16
  8
OBJECT
 10
716.08844199999999
 20
433.7180619999998
 30
0.0
 11
715.89213099999995
 21
433.62056699999999
 31
0.0
  0
LINE
  5
F3C17
  8
OBJECT
 10
715.89213099999995
 20
433.62056699999999
 30
0.0
 11
715.70378299999982
 21
433.52697000000001
 31
0.0
  0
LINE
  5
F3C18
  8
OBJECT
 10
715.70378299999982
 20
433.52697000000001
 30
0.0
 11
715.52513399999975
 21
433.43814599999979
 31
0.0
  0
LINE
  5
F3C19
  8
OBJECT
 10
715.52513399999975
 20
433.43814599999979
 30
0.0
 11
715.35791999999981
 21
433.35496599999999
 31
0.0
  0
LINE
  5
F3C1A
  8
OBJECT
 10
715.35791999999981
 20
433.35496599999999
 30
0.0
 11
715.20387600000004
 21
433.27830299999988
 31
0.0
  0
LINE
  5
F3C1B
  8
OBJECT
 10
715.20387600000004
 20
433.27830299999988
 30
0.0
 11
715.06473999999969
 21
433.20902999999993
 31
0.0
  0
LINE
  5
F3C1C
  8
OBJECT
 10
715.06473999999969
 20
433.20902999999993
 30
0.0
 11
714.94224600000018
 21
433.14801999999992
 31
0.0
  0
LINE
  5
F3C1D
  8
OBJECT
 10
714.94224600000018
 20
433.14801999999992
 30
0.0
 11
714.83813099999975
 21
433.09614599999998
 31
0.0
  0
LINE
  5
F3C1E
  8
OBJECT
 10
714.83813099999975
 20
433.09614599999998
 30
0.0
 11
714.75413100000014
 21
433.05427999999989
 31
0.0
  0
LINE
  5
F3C1F
  8
OBJECT
 10
714.75413100000014
 20
433.05427999999989
 30
0.0
 11
714.69198200000005
 21
433.02329600000002
 31
0.0
  0
LINE
  5
F3C20
  8
OBJECT
 10
714.69198200000005
 20
433.02329600000002
 30
0.0
 11
714.65341899999976
 21
433.00406499999991
 31
0.0
  0
LINE
  5
F3C21
  8
OBJECT
 10
714.65341899999976
 20
433.00406499999991
 30
0.0
 11
714.64017899999976
 21
432.99745999999988
 31
0.0
  0
LINE
  5
F3C22
  8
OBJECT
 10
799.49299299999984
 20
432.99745999999988
 30
0.0
 11
799.48334199999988
 21
433.00287199999991
 31
0.0
  0
LINE
  5
F3C23
  8
OBJECT
 10
799.48334199999988
 20
433.00287199999991
 30
0.0
 11
799.45520999999985
 21
433.01864399999999
 31
0.0
  0
LINE
  5
F3C24
  8
OBJECT
 10
799.45520999999985
 20
433.01864399999999
 30
0.0
 11
799.40983099999983
 21
433.04408099999989
 31
0.0
  0
LINE
  5
F3C25
  8
OBJECT
 10
799.40983099999983
 20
433.04408099999989
 30
0.0
 11
799.34843699999999
 21
433.07848799999999
 31
0.0
  0
LINE
  5
F3C26
  8
OBJECT
 10
799.34843699999999
 20
433.07848799999999
 30
0.0
 11
799.27226099999984
 21
433.12116999999989
 31
0.0
  0
LINE
  5
F3C27
  8
OBJECT
 10
799.27226099999984
 20
433.12116999999989
 30
0.0
 11
799.1825359999998
 21
433.17143199999992
 31
0.0
  0
LINE
  5
F3C28
  8
OBJECT
 10
799.1825359999998
 20
433.17143199999992
 30
0.0
 11
799.08049499999981
 21
433.22857899999991
 31
0.0
  0
LINE
  5
F3C29
  8
OBJECT
 10
799.08049499999981
 20
433.22857899999991
 30
0.0
 11
798.96736999999985
 21
433.29191699999978
 31
0.0
  0
LINE
  5
F3C2A
  8
OBJECT
 10
798.96736999999985
 20
433.29191699999978
 30
0.0
 11
798.84439499999985
 21
433.360749
 31
0.0
  0
LINE
  5
F3C2B
  8
OBJECT
 10
798.84439499999985
 20
433.360749
 30
0.0
 11
798.71280200000001
 21
433.43438200000003
 31
0.0
  0
LINE
  5
F3C2C
  8
OBJECT
 10
798.71280200000001
 20
433.43438200000003
 30
0.0
 11
798.57382399999983
 21
433.51211999999992
 31
0.0
  0
LINE
  5
F3C2D
  8
OBJECT
 10
798.57382399999983
 20
433.51211999999992
 30
0.0
 11
798.42869399999984
 21
433.59326799999991
 31
0.0
  0
LINE
  5
F3C2E
  8
OBJECT
 10
798.42869399999984
 20
433.59326799999991
 30
0.0
 11
798.27864399999987
 21
433.67713200000009
 31
0.0
  0
LINE
  5
F3C2F
  8
OBJECT
 10
798.27864399999987
 20
433.67713200000009
 30
0.0
 11
798.12490799999955
 21
433.76301599999988
 31
0.0
  0
LINE
  5
F3C30
  8
OBJECT
 10
798.12490799999955
 20
433.76301599999988
 30
0.0
 11
797.96871899999985
 21
433.85022400000008
 31
0.0
  0
LINE
  5
F3C31
  8
OBJECT
 10
797.96871899999985
 20
433.85022400000008
 30
0.0
 11
797.81130799999983
 21
433.93806399999988
 31
0.0
  0
LINE
  5
F3C32
  8
OBJECT
 10
797.81130799999983
 20
433.93806399999988
 30
0.0
 11
797.65391
 21
434.02583800000002
 31
0.0
  0
LINE
  5
F3C33
  8
OBJECT
 10
797.65391
 20
434.02583800000002
 30
0.0
 11
797.49775600000009
 21
434.11285299999992
 31
0.0
  0
LINE
  5
F3C34
  8
OBJECT
 10
797.49775600000009
 20
434.11285299999992
 30
0.0
 11
797.34407999999985
 21
434.19841199999991
 31
0.0
  0
LINE
  5
F3C35
  8
OBJECT
 10
797.34407999999985
 20
434.19841199999991
 30
0.0
 11
797.19411500000012
 21
434.2818229999998
 31
0.0
  0
LINE
  5
F3C36
  8
OBJECT
 10
797.19411500000012
 20
434.2818229999998
 30
0.0
 11
797.02895500000011
 21
434.37356799999992
 31
0.0
  0
LINE
  5
F3C37
  8
OBJECT
 10
797.02895500000011
 20
434.37356799999992
 30
0.0
 11
796.86979699999983
 21
434.46184399999993
 31
0.0
  0
LINE
  5
F3C38
  8
OBJECT
 10
796.86979699999983
 20
434.46184399999993
 30
0.0
 11
796.71622500000012
 21
434.546874
 31
0.0
  0
LINE
  5
F3C39
  8
OBJECT
 10
796.71622500000012
 20
434.546874
 30
0.0
 11
796.56782199999998
 21
434.6288829999998
 31
0.0
  0
LINE
  5
F3C3A
  8
OBJECT
 10
796.56782199999998
 20
434.6288829999998
 30
0.0
 11
796.42417200000011
 21
434.70809300000002
 31
0.0
  0
LINE
  5
F3C3B
  8
OBJECT
 10
796.42417200000011
 20
434.70809300000002
 30
0.0
 11
796.2848590000001
 21
434.7847289999998
 31
0.0
  0
LINE
  5
F3C3C
  8
OBJECT
 10
796.2848590000001
 20
434.7847289999998
 30
0.0
 11
796.14946499999985
 21
434.85901399999989
 31
0.0
  0
LINE
  5
F3C3D
  8
OBJECT
 10
796.14946499999985
 20
434.85901399999989
 30
0.0
 11
796.01757599999985
 21
434.931174
 31
0.0
  0
LINE
  5
F3C3E
  8
OBJECT
 10
796.01757599999985
 20
434.931174
 30
0.0
 11
795.88877399999967
 21
435.00143000000003
 31
0.0
  0
LINE
  5
F3C3F
  8
OBJECT
 10
795.88877399999967
 20
435.00143000000003
 30
0.0
 11
795.76264300000014
 21
435.07000799999997
 31
0.0
  0
LINE
  5
F3C40
  8
OBJECT
 10
795.76264300000014
 20
435.07000799999997
 30
0.0
 11
795.63876700000014
 21
435.13713099999973
 31
0.0
  0
LINE
  5
F3C41
  8
OBJECT
 10
795.63876700000014
 20
435.13713099999973
 30
0.0
 11
795.51673000000017
 21
435.20302299999992
 31
0.0
  0
LINE
  5
F3C42
  8
OBJECT
 10
795.51673000000017
 20
435.20302299999992
 30
0.0
 11
795.39611400000013
 21
435.26790799999992
 31
0.0
  0
LINE
  5
F3C43
  8
OBJECT
 10
795.39611400000013
 20
435.26790799999992
 30
0.0
 11
795.27650400000005
 21
435.33200999999991
 31
0.0
  0
LINE
  5
F3C44
  8
OBJECT
 10
795.27650400000005
 20
435.33200999999991
 30
0.0
 11
795.15748299999984
 21
435.39555300000001
 31
0.0
  0
LINE
  5
F3C45
  8
OBJECT
 10
795.15748299999984
 20
435.39555300000001
 30
0.0
 11
795.038635
 21
435.45875999999998
 31
0.0
  0
LINE
  5
F3C46
  8
OBJECT
 10
795.038635
 20
435.45875999999998
 30
0.0
 11
794.91954399999975
 21
435.52185500000002
 31
0.0
  0
LINE
  5
F3C47
  8
OBJECT
 10
794.91954399999975
 20
435.52185500000002
 30
0.0
 11
794.79979300000014
 21
435.58506299999988
 31
0.0
  0
LINE
  5
F3C48
  8
OBJECT
 10
794.79979300000014
 20
435.58506299999988
 30
0.0
 11
794.67896499999983
 21
435.64860700000003
 31
0.0
  0
LINE
  5
F3C49
  8
OBJECT
 10
794.67896499999983
 20
435.64860700000003
 30
0.0
 11
794.55664600000011
 21
435.71271100000001
 31
0.0
  0
LINE
  5
F3C4A
  8
OBJECT
 10
794.55664600000011
 20
435.71271100000001
 30
0.0
 11
794.44285900000011
 21
435.77214999999973
 31
0.0
  0
LINE
  5
F3C4B
  8
OBJECT
 10
794.44285900000011
 20
435.77214999999973
 30
0.0
 11
794.32755999999983
 21
435.83219099999991
 31
0.0
  0
LINE
  5
F3C4C
  8
OBJECT
 10
794.32755999999983
 20
435.83219099999991
 30
0.0
 11
794.21084099999985
 21
435.89277900000002
 31
0.0
  0
LINE
  5
F3C4D
  8
OBJECT
 10
794.21084099999985
 20
435.89277900000002
 30
0.0
 11
794.09279300000003
 21
435.95385499999992
 31
0.0
  0
LINE
  5
F3C4E
  8
OBJECT
 10
794.09279300000003
 20
435.95385499999992
 30
0.0
 11
793.97351000000015
 21
436.01536399999998
 31
0.0
  0
LINE
  5
F3C4F
  8
OBJECT
 10
793.97351000000015
 20
436.01536399999998
 30
0.0
 11
793.85308499999985
 21
436.077248
 31
0.0
  0
LINE
  5
F3C50
  8
OBJECT
 10
793.85308499999985
 20
436.077248
 30
0.0
 11
793.73160999999982
 21
436.13945100000001
 31
0.0
  0
LINE
  5
F3C51
  8
OBJECT
 10
793.73160999999982
 20
436.13945100000001
 30
0.0
 11
793.60917799999982
 21
436.20191499999999
 31
0.0
  0
LINE
  5
F3C52
  8
OBJECT
 10
793.60917799999982
 20
436.20191499999999
 30
0.0
 11
793.48588099999984
 21
436.26458499999978
 31
0.0
  0
LINE
  5
F3C53
  8
OBJECT
 10
793.48588099999984
 20
436.26458499999978
 30
0.0
 11
793.3618120000001
 21
436.327403
 31
0.0
  0
LINE
  5
F3C54
  8
OBJECT
 10
793.3618120000001
 20
436.327403
 30
0.0
 11
793.23706400000015
 21
436.39031199999988
 31
0.0
  0
LINE
  5
F3C55
  8
OBJECT
 10
793.23706400000015
 20
436.39031199999988
 30
0.0
 11
793.11172899999985
 21
436.45325599999978
 31
0.0
  0
LINE
  5
F3C56
  8
OBJECT
 10
793.11172899999985
 20
436.45325599999978
 30
0.0
 11
792.98590100000013
 21
436.51617800000002
 31
0.0
  0
LINE
  5
F3C57
  8
OBJECT
 10
792.98590100000013
 20
436.51617800000002
 30
0.0
 11
792.85967100000005
 21
436.57902099999978
 31
0.0
  0
LINE
  5
F3C58
  8
OBJECT
 10
792.85967100000005
 20
436.57902099999978
 30
0.0
 11
792.73313199999984
 21
436.641728
 31
0.0
  0
LINE
  5
F3C59
  8
OBJECT
 10
792.73313199999984
 20
436.641728
 30
0.0
 11
792.60637699999984
 21
436.70424300000002
 31
0.0
  0
LINE
  5
F3C5A
  8
OBJECT
 10
792.60637699999984
 20
436.70424300000002
 30
0.0
 11
792.47949899999969
 21
436.76650799999999
 31
0.0
  0
LINE
  5
F3C5B
  8
OBJECT
 10
792.47949899999969
 20
436.76650799999999
 30
0.0
 11
792.35258999999985
 21
436.82846699999999
 31
0.0
  0
LINE
  5
F3C5C
  8
OBJECT
 10
792.35258999999985
 20
436.82846699999999
 30
0.0
 11
792.22574199999985
 21
436.89006299999988
 31
0.0
  0
LINE
  5
F3C5D
  8
OBJECT
 10
792.22574199999985
 20
436.89006299999988
 30
0.0
 11
792.09905000000015
 21
436.95123999999993
 31
0.0
  0
LINE
  5
F3C5E
  8
OBJECT
 10
792.09905000000015
 20
436.95123999999993
 30
0.0
 11
791.94730699999957
 21
437.02404599999988
 31
0.0
  0
LINE
  5
F3C5F
  8
OBJECT
 10
791.94730699999957
 20
437.02404599999988
 30
0.0
 11
791.79589200000021
 21
437.09619999999978
 31
0.0
  0
LINE
  5
F3C60
  8
OBJECT
 10
791.79589200000021
 20
437.09619999999978
 30
0.0
 11
791.64477599999975
 21
437.16773299999988
 31
0.0
  0
LINE
  5
F3C61
  8
OBJECT
 10
791.64477599999975
 20
437.16773299999988
 30
0.0
 11
791.49392899999998
 21
437.23867799999999
 31
0.0
  0
LINE
  5
F3C62
  8
OBJECT
 10
791.49392899999998
 20
437.23867799999999
 30
0.0
 11
791.34332399999982
 21
437.30907000000002
 31
0.0
  0
LINE
  5
F3C63
  8
OBJECT
 10
791.34332399999982
 20
437.30907000000002
 30
0.0
 11
791.19293099999982
 21
437.37893999999972
 31
0.0
  0
LINE
  5
F3C64
  8
OBJECT
 10
791.19293099999982
 20
437.37893999999972
 30
0.0
 11
791.04272200000003
 21
437.44832200000002
 31
0.0
  0
LINE
  5
F3C65
  8
OBJECT
 10
791.04272200000003
 20
437.44832200000002
 30
0.0
 11
790.89266799999984
 21
437.51724899999988
 31
0.0
  0
LINE
  5
F3C66
  8
OBJECT
 10
790.89266799999984
 20
437.51724899999988
 30
0.0
 11
790.74274099999968
 21
437.58575399999989
 31
0.0
  0
LINE
  5
F3C67
  8
OBJECT
 10
790.74274099999968
 20
437.58575399999989
 30
0.0
 11
790.59291099999984
 21
437.65386999999998
 31
0.0
  0
LINE
  5
F3C68
  8
OBJECT
 10
790.59291099999984
 20
437.65386999999998
 30
0.0
 11
790.44315099999994
 21
437.72162899999989
 31
0.0
  0
LINE
  5
F3C69
  8
OBJECT
 10
790.44315099999994
 20
437.72162899999989
 30
0.0
 11
790.29342999999994
 21
437.78906599999999
 31
0.0
  0
LINE
  5
F3C6A
  8
OBJECT
 10
790.29342999999994
 20
437.78906599999999
 30
0.0
 11
790.14372100000014
 21
437.8562119999998
 31
0.0
  0
LINE
  5
F3C6B
  8
OBJECT
 10
790.14372100000014
 20
437.8562119999998
 30
0.0
 11
789.99399600000015
 21
437.9231009999998
 31
0.0
  0
LINE
  5
F3C6C
  8
OBJECT
 10
789.99399600000015
 20
437.9231009999998
 30
0.0
 11
789.84422399999983
 21
437.98976599999997
 31
0.0
  0
LINE
  5
F3C6D
  8
OBJECT
 10
789.84422399999983
 20
437.98976599999997
 30
0.0
 11
789.6943779999998
 21
438.05623999999989
 31
0.0
  0
LINE
  5
F3C6E
  8
OBJECT
 10
789.6943779999998
 20
438.05623999999989
 30
0.0
 11
789.54442900000015
 21
438.12255699999992
 31
0.0
  0
LINE
  5
F3C6F
  8
OBJECT
 10
789.54442900000015
 20
438.12255699999992
 30
0.0
 11
789.39434799999981
 21
438.18874799999992
 31
0.0
  0
LINE
  5
F3C70
  8
OBJECT
 10
789.39434799999981
 20
438.18874799999992
 30
0.0
 11
789.24410599999999
 21
438.25484699999993
 31
0.0
  0
LINE
  5
F3C71
  8
OBJECT
 10
789.24410599999999
 20
438.25484699999993
 30
0.0
 11
789.0936750000003
 21
438.3208869999998
 31
0.0
  0
LINE
  5
F3C72
  8
OBJECT
 10
789.0936750000003
 20
438.3208869999998
 30
0.0
 11
788.91432499999996
 21
438.39945699999993
 31
0.0
  0
LINE
  5
F3C73
  8
OBJECT
 10
788.91432499999996
 20
438.39945699999993
 30
0.0
 11
788.73468400000013
 21
438.47796699999992
 31
0.0
  0
LINE
  5
F3C74
  8
OBJECT
 10
788.73468400000013
 20
438.47796699999992
 30
0.0
 11
788.55477199999984
 21
438.55639100000002
 31
0.0
  0
LINE
  5
F3C75
  8
OBJECT
 10
788.55477199999984
 20
438.55639100000002
 30
0.0
 11
788.37460699999986
 21
438.634705
 31
0.0
  0
LINE
  5
F3C76
  8
OBJECT
 10
788.37460699999986
 20
438.634705
 30
0.0
 11
788.19420799999989
 21
438.7128849999998
 31
0.0
  0
LINE
  5
F3C77
  8
OBJECT
 10
788.19420799999989
 20
438.7128849999998
 30
0.0
 11
788.01359300000001
 21
438.79090600000001
 31
0.0
  0
LINE
  5
F3C78
  8
OBJECT
 10
788.01359300000001
 20
438.79090600000001
 30
0.0
 11
787.83278099999984
 21
438.86874399999988
 31
0.0
  0
LINE
  5
F3C79
  8
OBJECT
 10
787.83278099999984
 20
438.86874399999988
 30
0.0
 11
787.65179100000012
 21
438.94637599999987
 31
0.0
  0
LINE
  5
F3C7A
  8
OBJECT
 10
787.65179100000012
 20
438.94637599999987
 30
0.0
 11
787.47064199999988
 21
439.02377499999989
 31
0.0
  0
LINE
  5
F3C7B
  8
OBJECT
 10
787.47064199999988
 20
439.02377499999989
 30
0.0
 11
787.2893509999999
 21
439.10091899999998
 31
0.0
  0
LINE
  5
F3C7C
  8
OBJECT
 10
787.2893509999999
 20
439.10091899999998
 30
0.0
 11
787.1079390000001
 21
439.17778199999992
 31
0.0
  0
LINE
  5
F3C7D
  8
OBJECT
 10
787.1079390000001
 20
439.17778199999992
 30
0.0
 11
786.92642199999989
 21
439.25434100000001
 31
0.0
  0
LINE
  5
F3C7E
  8
OBJECT
 10
786.92642199999989
 20
439.25434100000001
 30
0.0
 11
786.744821
 21
439.33057099999991
 31
0.0
  0
LINE
  5
F3C7F
  8
OBJECT
 10
786.744821
 20
439.33057099999991
 30
0.0
 11
786.56315400000005
 21
439.40644700000001
 31
0.0
  0
LINE
  5
F3C80
  8
OBJECT
 10
786.56315400000005
 20
439.40644700000001
 30
0.0
 11
786.38143800000012
 21
439.48194599999988
 31
0.0
  0
LINE
  5
F3C81
  8
OBJECT
 10
786.38143800000012
 20
439.48194599999988
 30
0.0
 11
786.19969400000014
 21
439.55704199999991
 31
0.0
  0
LINE
  5
F3C82
  8
OBJECT
 10
786.19969400000014
 20
439.55704199999991
 30
0.0
 11
786.01793999999984
 21
439.63171299999988
 31
0.0
  0
LINE
  5
F3C83
  8
OBJECT
 10
786.01793999999984
 20
439.63171299999988
 30
0.0
 11
785.83619399999986
 21
439.70593200000002
 31
0.0
  0
LINE
  5
F3C84
  8
OBJECT
 10
785.83619399999986
 20
439.70593200000002
 30
0.0
 11
785.65447500000016
 21
439.77967699999999
 31
0.0
  0
LINE
  5
F3C85
  8
OBJECT
 10
785.65447500000016
 20
439.77967699999999
 30
0.0
 11
785.472801
 21
439.85292199999992
 31
0.0
  0
LINE
  5
F3C86
  8
OBJECT
 10
785.472801
 20
439.85292199999992
 30
0.0
 11
785.29887799999983
 21
439.92257999999993
 31
0.0
  0
LINE
  5
F3C87
  8
OBJECT
 10
785.29887799999983
 20
439.92257999999993
 30
0.0
 11
785.12497499999995
 21
439.99178499999999
 31
0.0
  0
LINE
  5
F3C88
  8
OBJECT
 10
785.12497499999995
 20
439.99178499999999
 30
0.0
 11
784.95105399999989
 21
440.06056499999983
 31
0.0
  0
LINE
  5
F3C89
  8
OBJECT
 10
784.95105399999989
 20
440.06056499999983
 30
0.0
 11
784.77707399999986
 21
440.12894699999998
 31
0.0
  0
LINE
  5
F3C8A
  8
OBJECT
 10
784.77707399999986
 20
440.12894699999998
 30
0.0
 11
784.60299699999996
 21
440.19695899999999
 31
0.0
  0
LINE
  5
F3C8B
  8
OBJECT
 10
784.60299699999996
 20
440.19695899999999
 30
0.0
 11
784.42878499999983
 21
440.26462799999979
 31
0.0
  0
LINE
  5
F3C8C
  8
OBJECT
 10
784.42878499999983
 20
440.26462799999979
 30
0.0
 11
784.25439799999981
 21
440.33198099999998
 31
0.0
  0
LINE
  5
F3C8D
  8
OBJECT
 10
784.25439799999981
 20
440.33198099999998
 30
0.0
 11
784.07979699999976
 21
440.399047
 31
0.0
  0
LINE
  5
F3C8E
  8
OBJECT
 10
784.07979699999976
 20
440.399047
 30
0.0
 11
783.90494300000012
 21
440.46585199999993
 31
0.0
  0
LINE
  5
F3C8F
  8
OBJECT
 10
783.90494300000012
 20
440.46585199999993
 30
0.0
 11
783.72979799999985
 21
440.53242399999988
 31
0.0
  0
LINE
  5
F3C90
  8
OBJECT
 10
783.72979799999985
 20
440.53242399999988
 30
0.0
 11
783.55432199999996
 21
440.59879100000001
 31
0.0
  0
LINE
  5
F3C91
  8
OBJECT
 10
783.55432199999996
 20
440.59879100000001
 30
0.0
 11
783.37847599999998
 21
440.66497899999979
 31
0.0
  0
LINE
  5
F3C92
  8
OBJECT
 10
783.37847599999998
 20
440.66497899999979
 30
0.0
 11
783.20222199999989
 21
440.73101800000001
 31
0.0
  0
LINE
  5
F3C93
  8
OBJECT
 10
783.20222199999989
 20
440.73101800000001
 30
0.0
 11
783.02551999999969
 21
440.79693299999991
 31
0.0
  0
LINE
  5
F3C94
  8
OBJECT
 10
783.02551999999969
 20
440.79693299999991
 30
0.0
 11
782.8483319999998
 21
440.86275199999989
 31
0.0
  0
LINE
  5
F3C95
  8
OBJECT
 10
782.8483319999998
 20
440.86275199999989
 30
0.0
 11
782.67061799999999
 21
440.92850399999992
 31
0.0
  0
LINE
  5
F3C96
  8
OBJECT
 10
782.67061799999999
 20
440.92850399999992
 30
0.0
 11
782.49234000000013
 21
440.99421499999988
 31
0.0
  0
LINE
  5
F3C97
  8
OBJECT
 10
782.49234000000013
 20
440.99421499999988
 30
0.0
 11
782.31345799999986
 21
441.05991299999999
 31
0.0
  0
LINE
  5
F3C98
  8
OBJECT
 10
782.31345799999986
 20
441.05991299999999
 30
0.0
 11
782.13393399999984
 21
441.12562600000001
 31
0.0
  0
LINE
  5
F3C99
  8
OBJECT
 10
782.13393399999984
 20
441.12562600000001
 30
0.0
 11
781.95372900000029
 21
441.19137999999992
 31
0.0
  0
LINE
  5
F3C9A
  8
OBJECT
 10
781.95372900000029
 20
441.19137999999992
 30
0.0
 11
781.80149799999981
 21
441.24677299999991
 31
0.0
  0
LINE
  5
F3C9B
  8
OBJECT
 10
781.80149799999981
 20
441.24677299999991
 30
0.0
 11
781.64886899999988
 21
441.30216200000001
 31
0.0
  0
LINE
  5
F3C9C
  8
OBJECT
 10
781.64886899999988
 20
441.30216200000001
 30
0.0
 11
781.49595500000009
 21
441.35749399999997
 31
0.0
  0
LINE
  5
F3C9D
  8
OBJECT
 10
781.49595500000009
 20
441.35749399999997
 30
0.0
 11
781.34286899999984
 21
441.41271399999988
 31
0.0
  0
LINE
  5
F3C9E
  8
OBJECT
 10
781.34286899999984
 20
441.41271399999988
 30
0.0
 11
781.18972299999984
 21
441.46776999999992
 31
0.0
  0
LINE
  5
F3C9F
  8
OBJECT
 10
781.18972299999984
 20
441.46776999999992
 30
0.0
 11
781.03662999999995
 21
441.52260899999987
 31
0.0
  0
LINE
  5
F3CA0
  8
OBJECT
 10
781.03662999999995
 20
441.52260899999987
 30
0.0
 11
780.88370299999985
 21
441.57717600000001
 31
0.0
  0
LINE
  5
F3CA1
  8
OBJECT
 10
780.88370299999985
 20
441.57717600000001
 30
0.0
 11
780.7310540000002
 21
441.63141899999999
 31
0.0
  0
LINE
  5
F3CA2
  8
OBJECT
 10
780.7310540000002
 20
441.63141899999999
 30
0.0
 11
780.5787959999999
 21
441.68528400000002
 31
0.0
  0
LINE
  5
F3CA3
  8
OBJECT
 10
780.5787959999999
 20
441.68528400000002
 30
0.0
 11
780.42704200000003
 21
441.73871800000001
 31
0.0
  0
LINE
  5
F3CA4
  8
OBJECT
 10
780.42704200000003
 20
441.73871800000001
 30
0.0
 11
780.27590399999985
 21
441.79166699999979
 31
0.0
  0
LINE
  5
F3CA5
  8
OBJECT
 10
780.27590399999985
 20
441.79166699999979
 30
0.0
 11
780.125495
 21
441.84407900000002
 31
0.0
  0
LINE
  5
F3CA6
  8
OBJECT
 10
780.125495
 20
441.84407900000002
 30
0.0
 11
779.97592899999995
 21
441.89589899999999
 31
0.0
  0
LINE
  5
F3CA7
  8
OBJECT
 10
779.97592899999995
 20
441.89589899999999
 30
0.0
 11
779.82731599999988
 21
441.94707399999999
 31
0.0
  0
LINE
  5
F3CA8
  8
OBJECT
 10
779.82731599999988
 20
441.94707399999999
 30
0.0
 11
779.67977099999985
 21
441.99755199999998
 31
0.0
  0
LINE
  5
F3CA9
  8
OBJECT
 10
779.67977099999985
 20
441.99755199999998
 30
0.0
 11
779.53340500000013
 21
442.04727799999989
 31
0.0
  0
LINE
  5
F3CAA
  8
OBJECT
 10
779.53340500000013
 20
442.04727799999989
 30
0.0
 11
779.38833199999988
 21
442.09619900000001
 31
0.0
  0
LINE
  5
F3CAB
  8
OBJECT
 10
779.38833199999988
 20
442.09619900000001
 30
0.0
 11
779.24466499999983
 21
442.14426199999991
 31
0.0
  0
LINE
  5
F3CAC
  8
OBJECT
 10
779.24466499999983
 20
442.14426199999991
 30
0.0
 11
779.10251499999981
 21
442.19141300000001
 31
0.0
  0
LINE
  5
F3CAD
  8
OBJECT
 10
779.10251499999981
 20
442.19141300000001
 30
0.0
 11
778.961995
 21
442.23759899999988
 31
0.0
  0
LINE
  5
F3CAE
  8
OBJECT
 10
778.961995
 20
442.23759899999988
 30
0.0
 11
778.76048999999989
 21
442.30302999999992
 31
0.0
  0
LINE
  5
F3CAF
  8
OBJECT
 10
778.76048999999989
 20
442.30302999999992
 30
0.0
 11
778.56182899999999
 21
442.36652699999979
 31
0.0
  0
LINE
  5
F3CB0
  8
OBJECT
 10
778.56182899999999
 20
442.36652699999979
 30
0.0
 11
778.36516599999982
 21
442.42831200000001
 31
0.0
  0
LINE
  5
F3CB1
  8
OBJECT
 10
778.36516599999982
 20
442.42831200000001
 30
0.0
 11
778.16965600000015
 21
442.488608
 31
0.0
  0
LINE
  5
F3CB2
  8
OBJECT
 10
778.16965600000015
 20
442.488608
 30
0.0
 11
777.97445299999981
 21
442.54763600000001
 31
0.0
  0
LINE
  5
F3CB3
  8
OBJECT
 10
777.97445299999981
 20
442.54763600000001
 30
0.0
 11
777.77870999999982
 21
442.60561899999988
 31
0.0
  0
LINE
  5
F3CB4
  8
OBJECT
 10
777.77870999999982
 20
442.60561899999988
 30
0.0
 11
777.5815829999998
 21
442.662778
 31
0.0
  0
LINE
  5
F3CB5
  8
OBJECT
 10
777.5815829999998
 20
442.662778
 30
0.0
 11
777.38222399999984
 21
442.719336
 31
0.0
  0
LINE
  5
F3CB6
  8
OBJECT
 10
777.38222399999984
 20
442.719336
 30
0.0
 11
777.17978900000014
 21
442.77551399999999
 31
0.0
  0
LINE
  5
F3CB7
  8
OBJECT
 10
777.17978900000014
 20
442.77551399999999
 30
0.0
 11
776.97343100000012
 21
442.83153399999998
 31
0.0
  0
LINE
  5
F3CB8
  8
OBJECT
 10
776.97343100000012
 20
442.83153399999998
 30
0.0
 11
776.76230400000031
 21
442.88761999999991
 31
0.0
  0
LINE
  5
F3CB9
  8
OBJECT
 10
776.76230400000031
 20
442.88761999999991
 30
0.0
 11
776.54556199999979
 21
442.94399199999998
 31
0.0
  0
LINE
  5
F3CBA
  8
OBJECT
 10
776.54556199999979
 20
442.94399199999998
 30
0.0
 11
776.32236099999989
 21
443.00087200000002
 31
0.0
  0
LINE
  5
F3CBB
  8
OBJECT
 10
776.32236099999989
 20
443.00087200000002
 30
0.0
 11
776.09185200000013
 21
443.05848299999991
 31
0.0
  0
LINE
  5
F3CBC
  8
OBJECT
 10
776.09185200000013
 20
443.05848299999991
 30
0.0
 11
775.85319200000015
 21
443.11704700000001
 31
0.0
  0
LINE
  5
F3CBD
  8
OBJECT
 10
775.85319200000015
 20
443.11704700000001
 30
0.0
 11
775.60553400000015
 21
443.17678599999988
 31
0.0
  0
LINE
  5
F3CBE
  8
OBJECT
 10
775.60553400000015
 20
443.17678599999988
 30
0.0
 11
775.34803099999999
 21
443.23792099999991
 31
0.0
  0
LINE
  5
F3CBF
  8
OBJECT
 10
775.34803099999999
 20
443.23792099999991
 30
0.0
 11
775.07983899999988
 21
443.30067499999979
 31
0.0
  0
LINE
  5
F3CC0
  8
OBJECT
 10
775.07983899999988
 20
443.30067499999979
 30
0.0
 11
774.80011100000013
 21
443.36527000000001
 31
0.0
  0
LINE
  5
F3CC1
  8
OBJECT
 10
774.80011100000013
 20
443.36527000000001
 30
0.0
 11
774.50800100000015
 21
443.43192800000008
 31
0.0
  0
LINE
  5
F3CC2
  8
OBJECT
 10
774.50800100000015
 20
443.43192800000008
 30
0.0
 11
774.32919400000014
 21
443.47238700000003
 31
0.0
  0
LINE
  5
F3CC3
  8
OBJECT
 10
774.32919400000014
 20
443.47238700000003
 30
0.0
 11
774.14710100000013
 21
443.51336500000002
 31
0.0
  0
LINE
  5
F3CC4
  8
OBJECT
 10
774.14710100000013
 20
443.51336500000002
 30
0.0
 11
773.96306800000013
 21
443.55458299999992
 31
0.0
  0
LINE
  5
F3CC5
  8
OBJECT
 10
773.96306800000013
 20
443.55458299999992
 30
0.0
 11
773.77844300000015
 21
443.59575899999999
 31
0.0
  0
LINE
  5
F3CC6
  8
OBJECT
 10
773.77844300000015
 20
443.59575899999999
 30
0.0
 11
773.59457199999997
 21
443.63661400000001
 31
0.0
  0
LINE
  5
F3CC7
  8
OBJECT
 10
773.59457199999997
 20
443.63661400000001
 30
0.0
 11
773.41280199999983
 21
443.67686600000002
 31
0.0
  0
LINE
  5
F3CC8
  8
OBJECT
 10
773.41280199999983
 20
443.67686600000002
 30
0.0
 11
773.23448099999985
 21
443.71623499999998
 31
0.0
  0
LINE
  5
F3CC9
  8
OBJECT
 10
773.23448099999985
 20
443.71623499999998
 30
0.0
 11
773.06095400000015
 21
443.75443999999999
 31
0.0
  0
LINE
  5
F3CCA
  8
OBJECT
 10
773.06095400000015
 20
443.75443999999999
 30
0.0
 11
772.89356899999984
 21
443.79120099999989
 31
0.0
  0
LINE
  5
F3CCB
  8
OBJECT
 10
772.89356899999984
 20
443.79120099999989
 30
0.0
 11
772.73367299999984
 21
443.82623799999999
 31
0.0
  0
LINE
  5
F3CCC
  8
OBJECT
 10
772.73367299999984
 20
443.82623799999999
 30
0.0
 11
772.58261300000015
 21
443.85926899999998
 31
0.0
  0
LINE
  5
F3CCD
  8
OBJECT
 10
772.58261300000015
 20
443.85926899999998
 30
0.0
 11
772.44173600000011
 21
443.89001499999989
 31
0.0
  0
LINE
  5
F3CCE
  8
OBJECT
 10
772.44173600000011
 20
443.89001499999989
 30
0.0
 11
772.31238800000006
 21
443.91819400000003
 31
0.0
  0
LINE
  5
F3CCF
  8
OBJECT
 10
772.31238800000006
 20
443.91819400000003
 30
0.0
 11
772.1959159999999
 21
443.94352600000002
 31
0.0
  0
LINE
  5
F3CD0
  8
OBJECT
 10
772.1959159999999
 20
443.94352600000002
 30
0.0
 11
772.09366799999998
 21
443.96573000000001
 31
0.0
  0
LINE
  5
F3CD1
  8
OBJECT
 10
772.09366799999998
 20
443.96573000000001
 30
0.0
 11
772.00698999999975
 21
443.98452699999979
 31
0.0
  0
LINE
  5
F3CD2
  8
OBJECT
 10
772.00698999999975
 20
443.98452699999979
 30
0.0
 11
771.93722899999989
 21
443.99963500000001
 31
0.0
  0
LINE
  5
F3CD3
  8
OBJECT
 10
771.93722899999989
 20
443.99963500000001
 30
0.0
 11
771.88573199999985
 21
444.01077400000003
 31
0.0
  0
LINE
  5
F3CD4
  8
OBJECT
 10
771.88573199999985
 20
444.01077400000003
 30
0.0
 11
771.85384599999975
 21
444.01766300000003
 31
0.0
  0
LINE
  5
F3CD5
  8
OBJECT
 10
771.85384599999975
 20
444.01766300000003
 30
0.0
 11
771.84291799999983
 21
444.02002099999987
 31
0.0
  0
LINE
  5
F3CD6
  8
OBJECT
 10
755.06658599999969
 20
446.24468400000001
 30
0.0
 11
755.06658599999969
 21
453.75023699999991
 31
0.0
  0
LINE
  5
F3CD7
  8
OBJECT
 10
755.06658599999969
 20
453.75023699999991
 30
0.0
 11
761.5665859999998
 21
457.50301399999989
 31
0.0
  0
LINE
  5
F3CD8
  8
OBJECT
 10
761.5665859999998
 20
457.50301399999989
 30
0.0
 11
768.0665859999998
 21
453.75023699999991
 31
0.0
  0
LINE
  5
F3CD9
  8
OBJECT
 10
768.0665859999998
 20
453.75023699999991
 30
0.0
 11
768.0665859999998
 21
446.24468400000001
 31
0.0
  0
LINE
  5
F3CDA
  8
OBJECT
 10
768.0665859999998
 20
446.24468400000001
 30
0.0
 11
761.5665859999998
 21
442.49190700000003
 31
0.0
  0
LINE
  5
F3CDB
  8
OBJECT
 10
761.5665859999998
 20
442.49190700000003
 30
0.0
 11
755.06658599999969
 21
446.24468400000001
 31
0.0
  0
CIRCLE
  5
F3CDC
  8
OBJECT
 10
761.5665859999998
 20
449.99745999999988
 30
0.0
 40
6.5
  0
LINE
  5
F3CDD
  8
OBJECT
 10
755.06658599999969
 20
501.24468399999989
 30
0.0
 11
755.06658599999969
 21
508.75023700000003
 31
0.0
  0
LINE
  5
F3CDE
  8
OBJECT
 10
755.06658599999969
 20
508.75023700000003
 30
0.0
 11
761.5665859999998
 21
512.50301399999978
 31
0.0
  0
LINE
  5
F3CDF
  8
OBJECT
 10
761.5665859999998
 20
512.50301399999978
 30
0.0
 11
768.0665859999998
 21
508.75023700000003
 31
0.0
  0
LINE
  5
F3CE0
  8
OBJECT
 10
768.0665859999998
 20
508.75023700000003
 30
0.0
 11
768.0665859999998
 21
501.24468399999989
 31
0.0
  0
LINE
  5
F3CE1
  8
OBJECT
 10
768.0665859999998
 20
501.24468399999989
 30
0.0
 11
761.5665859999998
 21
497.4919069999998
 31
0.0
  0
LINE
  5
F3CE2
  8
OBJECT
 10
761.5665859999998
 20
497.4919069999998
 30
0.0
 11
755.06658599999969
 21
501.24468399999989
 31
0.0
  0
CIRCLE
  5
F3CE3
  8
OBJECT
 10
761.5665859999998
 20
504.99745999999959
 30
0.0
 40
6.5
  0
LINE
  5
F3CE4
  8
OBJECT
 10
777.19575099999986
 20
321.56035200000002
 30
0.0
 11
765.93742099999974
 21
321.56035200000002
 31
0.0
  0
ARC
  5
F3CE5
  8
OBJECT
 10
765.93742099999974
 20
324.78606400000001
 30
0.0
 40
3.2257129999999989
 50
234.42998999999989
 51
305.57001000000008
  0
ARC
  5
F3CE6
  8
OBJECT
 10
777.19575099999986
 20
324.78606400000001
 30
0.0
 40
3.2257129999999989
 50
234.42998999999989
 51
305.57001000000008
  0
ARC
  5
F3CE7
  8
OBJECT
 10
771.56658599999969
 20
333.56035200000002
 30
0.0
 40
12.0
 50
251.7760860000021
 51
288.22391399999788
  0
LINE
  5
F3CE8
  8
OBJECT
 10
775.31936300000018
 20
328.36035199999998
 30
0.0
 11
775.31936300000018
 21
322.16225200000002
 31
0.0
  0
LINE
  5
F3CE9
  8
OBJECT
 10
767.81380899999999
 20
328.36035199999998
 30
0.0
 11
767.81380899999999
 21
322.16225200000002
 31
0.0
  0
LINE
  5
F3CEA
  8
OBJECT
 10
779.07213899999988
 20
328.36035199999998
 30
0.0
 11
779.07213899999988
 21
322.16225200000002
 31
0.0
  0
LINE
  5
F3CEB
  8
OBJECT
 10
764.06103199999984
 20
328.36035199999998
 30
0.0
 11
779.07213899999988
 21
328.36035199999998
 31
0.0
  0
LINE
  5
F3CEC
  8
OBJECT
 10
764.06103199999984
 20
322.16225200000002
 30
0.0
 11
764.06103199999984
 21
328.36035199999998
 31
0.0
  0
LINE
  5
F3CED
  8
OBJECT
 10
689.07213899999999
 20
322.16225200000002
 30
0.0
 11
689.07213899999999
 21
328.36035199999998
 31
0.0
  0
LINE
  5
F3CEE
  8
OBJECT
 10
689.07213899999999
 20
328.36035199999998
 30
0.0
 11
674.06103200000007
 21
328.36035199999998
 31
0.0
  0
LINE
  5
F3CEF
  8
OBJECT
 10
674.06103200000007
 20
328.36035199999998
 30
0.0
 11
674.06103200000007
 21
322.16225200000002
 31
0.0
  0
LINE
  5
F3CF0
  8
OBJECT
 10
685.31936300000007
 20
328.36035199999998
 30
0.0
 11
685.31936300000007
 21
322.16225200000002
 31
0.0
  0
LINE
  5
F3CF1
  8
OBJECT
 10
677.81380900000011
 20
328.36035199999998
 30
0.0
 11
677.81380900000011
 21
322.16225200000002
 31
0.0
  0
ARC
  5
F3CF2
  8
OBJECT
 10
681.5665859999998
 20
333.56035200000002
 30
0.0
 40
12.0
 50
251.7760860000021
 51
288.22391399999788
  0
ARC
  5
F3CF3
  8
OBJECT
 10
675.93742099999963
 20
324.78606400000001
 30
0.0
 40
3.2257129999999989
 50
234.42998999999989
 51
305.57001000000008
  0
ARC
  5
F3CF4
  8
OBJECT
 10
687.19575099999975
 20
324.78606400000001
 30
0.0
 40
3.2257129999999989
 50
234.42998999999989
 51
305.57001000000008
  0
LINE
  5
F3CF5
  8
OBJECT
 10
675.93742099999963
 20
321.56035200000002
 30
0.0
 11
687.19575099999975
 21
321.56035200000002
 31
0.0
  0
LINE
  5
F3CF6
  8
OBJECT
 10
630.68463999999994
 20
444.67354399999999
 30
0.0
 11
630.67444599999988
 21
444.67229099999997
 31
0.0
  0
LINE
  5
F3CF7
  8
OBJECT
 10
630.67444599999988
 20
444.67229099999997
 30
0.0
 11
630.64473599999985
 21
444.66862800000001
 31
0.0
  0
LINE
  5
F3CF8
  8
OBJECT
 10
630.64473599999985
 20
444.66862800000001
 30
0.0
 11
630.59682000000021
 21
444.66269999999992
 31
0.0
  0
LINE
  5
F3CF9
  8
OBJECT
 10
630.59682000000021
 20
444.66269999999992
 30
0.0
 11
630.53200699999957
 21
444.65465199999988
 31
0.0
  0
LINE
  5
F3CFA
  8
OBJECT
 10
630.53200699999957
 20
444.65465199999988
 30
0.0
 11
630.45160599999997
 21
444.64462899999978
 31
0.0
  0
LINE
  5
F3CFB
  8
OBJECT
 10
630.45160599999997
 20
444.64462899999978
 30
0.0
 11
630.35692499999982
 21
444.63277699999992
 31
0.0
  0
LINE
  5
F3CFC
  8
OBJECT
 10
630.35692499999982
 20
444.63277699999992
 30
0.0
 11
630.24927399999979
 21
444.61923899999999
 31
0.0
  0
LINE
  5
F3CFD
  8
OBJECT
 10
630.24927399999979
 20
444.61923899999999
 30
0.0
 11
630.12996200000043
 21
444.60416199999992
 31
0.0
  0
LINE
  5
F3CFE
  8
OBJECT
 10
630.12996200000043
 20
444.60416199999992
 30
0.0
 11
630.00029700000027
 21
444.58769000000001
 31
0.0
  0
LINE
  5
F3CFF
  8
OBJECT
 10
630.00029700000027
 20
444.58769000000001
 30
0.0
 11
629.86158899999987
 21
444.56996800000002
 31
0.0
  0
LINE
  5
F3D00
  8
OBJECT
 10
629.86158899999987
 20
444.56996800000002
 30
0.0
 11
629.71514600000012
 21
444.55114099999992
 31
0.0
  0
LINE
  5
F3D01
  8
OBJECT
 10
629.71514600000012
 20
444.55114099999992
 30
0.0
 11
629.56227800000011
 21
444.53135399999991
 31
0.0
  0
LINE
  5
F3D02
  8
OBJECT
 10
629.56227800000011
 20
444.53135399999991
 30
0.0
 11
629.40429400000005
 21
444.51075300000002
 31
0.0
  0
LINE
  5
F3D03
  8
OBJECT
 10
629.40429400000005
 20
444.51075300000002
 30
0.0
 11
629.24250300000017
 21
444.48948200000001
 31
0.0
  0
LINE
  5
F3D04
  8
OBJECT
 10
629.24250300000017
 20
444.48948200000001
 30
0.0
 11
629.07821300000012
 21
444.46768499999979
 31
0.0
  0
LINE
  5
F3D05
  8
OBJECT
 10
629.07821300000012
 20
444.46768499999979
 30
0.0
 11
628.91273299999989
 21
444.44550899999979
 31
0.0
  0
LINE
  5
F3D06
  8
OBJECT
 10
628.91273299999989
 20
444.44550899999979
 30
0.0
 11
628.74737399999981
 21
444.42309899999998
 31
0.0
  0
LINE
  5
F3D07
  8
OBJECT
 10
628.74737399999981
 20
444.42309899999998
 30
0.0
 11
628.58344299999965
 21
444.400598
 31
0.0
  0
LINE
  5
F3D08
  8
OBJECT
 10
628.58344299999965
 20
444.400598
 30
0.0
 11
628.42225000000019
 21
444.37815299999988
 31
0.0
  0
LINE
  5
F3D09
  8
OBJECT
 10
628.42225000000019
 20
444.37815299999988
 30
0.0
 11
628.26510300000018
 21
444.35590799999989
 31
0.0
  0
LINE
  5
F3D0A
  8
OBJECT
 10
628.26510300000018
 20
444.35590799999989
 30
0.0
 11
628.09636500000011
 21
444.33154699999989
 31
0.0
  0
LINE
  5
F3D0B
  8
OBJECT
 10
628.09636500000011
 20
444.33154699999989
 30
0.0
 11
627.93382900000006
 21
444.30757199999999
 31
0.0
  0
LINE
  5
F3D0C
  8
OBJECT
 10
627.93382900000006
 20
444.30757199999999
 30
0.0
 11
627.77707599999997
 21
444.28393999999992
 31
0.0
  0
LINE
  5
F3D0D
  8
OBJECT
 10
627.77707599999997
 20
444.28393999999992
 30
0.0
 11
627.62568700000043
 21
444.26060799999999
 31
0.0
  0
LINE
  5
F3D0E
  8
OBJECT
 10
627.62568700000043
 20
444.26060799999999
 30
0.0
 11
627.47924499999976
 21
444.23753699999992
 31
0.0
  0
LINE
  5
F3D0F
  8
OBJECT
 10
627.47924499999976
 20
444.23753699999992
 30
0.0
 11
627.33732999999995
 21
444.21468199999993
 31
0.0
  0
LINE
  5
F3D10
  8
OBJECT
 10
627.33732999999995
 20
444.21468199999993
 30
0.0
 11
627.19952499999977
 21
444.192004
 31
0.0
  0
LINE
  5
F3D11
  8
OBJECT
 10
627.19952499999977
 20
444.192004
 30
0.0
 11
627.06540999999982
 21
444.16945899999979
 31
0.0
  0
LINE
  5
F3D12
  8
OBJECT
 10
627.06540999999982
 20
444.16945899999979
 30
0.0
 11
626.93456799999979
 21
444.14700699999997
 31
0.0
  0
LINE
  5
F3D13
  8
OBJECT
 10
626.93456799999979
 20
444.14700699999997
 30
0.0
 11
626.80658000000017
 21
444.12460399999998
 31
0.0
  0
LINE
  5
F3D14
  8
OBJECT
 10
626.80658000000017
 20
444.12460399999998
 30
0.0
 11
626.68102800000042
 21
444.10221100000001
 31
0.0
  0
LINE
  5
F3D15
  8
OBJECT
 10
626.68102800000042
 20
444.10221100000001
 30
0.0
 11
626.55749199999957
 21
444.07978300000002
 31
0.0
  0
LINE
  5
F3D16
  8
OBJECT
 10
626.55749199999957
 20
444.07978300000002
 30
0.0
 11
626.43555600000013
 21
444.05728099999988
 31
0.0
  0
LINE
  5
F3D17
  8
OBJECT
 10
626.43555600000013
 20
444.05728099999988
 30
0.0
 11
626.31479900000011
 21
444.03466100000003
 31
0.0
  0
LINE
  5
F3D18
  8
OBJECT
 10
626.31479900000011
 20
444.03466100000003
 30
0.0
 11
626.19480499999986
 21
444.01188200000001
 31
0.0
  0
LINE
  5
F3D19
  8
OBJECT
 10
626.19480499999986
 20
444.01188200000001
 30
0.0
 11
626.075154
 21
443.98890299999988
 31
0.0
  0
LINE
  5
F3D1A
  8
OBJECT
 10
626.075154
 20
443.98890299999988
 30
0.0
 11
625.95542800000044
 21
443.96568099999979
 31
0.0
  0
LINE
  5
F3D1B
  8
OBJECT
 10
625.95542800000044
 20
443.96568099999979
 30
0.0
 11
625.83520799999985
 21
443.94217500000002
 31
0.0
  0
LINE
  5
F3D1C
  8
OBJECT
 10
625.83520799999985
 20
443.94217500000002
 30
0.0
 11
625.71407599999975
 21
443.91834199999988
 31
0.0
  0
LINE
  5
F3D1D
  8
OBJECT
 10
625.71407599999975
 20
443.91834199999988
 30
0.0
 11
625.59161499999982
 21
443.89414199999987
 31
0.0
  0
LINE
  5
F3D1E
  8
OBJECT
 10
625.59161499999982
 20
443.89414199999987
 30
0.0
 11
625.47305699999981
 21
443.8706449999998
 31
0.0
  0
LINE
  5
F3D1F
  8
OBJECT
 10
625.47305699999981
 20
443.8706449999998
 30
0.0
 11
625.35300500000005
 21
443.84678999999988
 31
0.0
  0
LINE
  5
F3D20
  8
OBJECT
 10
625.35300500000005
 20
443.84678999999988
 30
0.0
 11
625.23155900000017
 21
443.82259199999987
 31
0.0
  0
LINE
  5
F3D21
  8
OBJECT
 10
625.23155900000017
 20
443.82259199999987
 30
0.0
 11
625.10882100000015
 21
443.79806699999989
 31
0.0
  0
LINE
  5
F3D22
  8
OBJECT
 10
625.10882100000015
 20
443.79806699999989
 30
0.0
 11
624.98489299999983
 21
443.77323000000001
 31
0.0
  0
LINE
  5
F3D23
  8
OBJECT
 10
624.98489299999983
 20
443.77323000000001
 30
0.0
 11
624.85987499999999
 21
443.74809699999997
 31
0.0
  0
LINE
  5
F3D24
  8
OBJECT
 10
624.85987499999999
 20
443.74809699999997
 30
0.0
 11
624.73387000000014
 21
443.72268299999979
 31
0.0
  0
LINE
  5
F3D25
  8
OBJECT
 10
624.73387000000014
 20
443.72268299999979
 30
0.0
 11
624.60698000000014
 21
443.69700399999999
 31
0.0
  0
LINE
  5
F3D26
  8
OBJECT
 10
624.60698000000014
 20
443.69700399999999
 30
0.0
 11
624.47930400000018
 21
443.67107600000008
 31
0.0
  0
LINE
  5
F3D27
  8
OBJECT
 10
624.47930400000018
 20
443.67107600000008
 30
0.0
 11
624.35094600000014
 21
443.64491399999991
 31
0.0
  0
LINE
  5
F3D28
  8
OBJECT
 10
624.35094600000014
 20
443.64491399999991
 30
0.0
 11
624.22200599999996
 21
443.61853400000001
 31
0.0
  0
LINE
  5
F3D29
  8
OBJECT
 10
624.22200599999996
 20
443.61853400000001
 30
0.0
 11
624.09258699999975
 21
443.59195099999988
 31
0.0
  0
LINE
  5
F3D2A
  8
OBJECT
 10
624.09258699999975
 20
443.59195099999988
 30
0.0
 11
623.96278800000005
 21
443.56518099999988
 31
0.0
  0
LINE
  5
F3D2B
  8
OBJECT
 10
623.96278800000005
 20
443.56518099999988
 30
0.0
 11
623.83271300000013
 21
443.53823999999992
 31
0.0
  0
LINE
  5
F3D2C
  8
OBJECT
 10
623.83271300000013
 20
443.53823999999992
 30
0.0
 11
623.70246200000042
 21
443.51114399999989
 31
0.0
  0
LINE
  5
F3D2D
  8
OBJECT
 10
623.70246200000042
 20
443.51114399999989
 30
0.0
 11
623.57213700000011
 21
443.48390699999987
 31
0.0
  0
LINE
  5
F3D2E
  8
OBJECT
 10
623.57213700000011
 20
443.48390699999987
 30
0.0
 11
623.44183999999996
 21
443.45654500000001
 31
0.0
  0
LINE
  5
F3D2F
  8
OBJECT
 10
623.44183999999996
 20
443.45654500000001
 30
0.0
 11
623.31167100000005
 21
443.42907499999978
 31
0.0
  0
LINE
  5
F3D30
  8
OBJECT
 10
623.31167100000005
 20
443.42907499999978
 30
0.0
 11
623.18173299999978
 21
443.40151100000003
 31
0.0
  0
LINE
  5
F3D31
  8
OBJECT
 10
623.18173299999978
 20
443.40151100000003
 30
0.0
 11
623.05212700000016
 21
443.37386899999979
 31
0.0
  0
LINE
  5
F3D32
  8
OBJECT
 10
623.05212700000016
 20
443.37386899999979
 30
0.0
 11
622.90410999999995
 21
443.34211199999999
 31
0.0
  0
LINE
  5
F3D33
  8
OBJECT
 10
622.90410999999995
 20
443.34211199999999
 30
0.0
 11
622.7566290000002
 21
443.31026499999979
 31
0.0
  0
LINE
  5
F3D34
  8
OBJECT
 10
622.7566290000002
 20
443.31026499999979
 30
0.0
 11
622.6096520000001
 21
443.27832000000001
 31
0.0
  0
LINE
  5
F3D35
  8
OBJECT
 10
622.6096520000001
 20
443.27832000000001
 30
0.0
 11
622.46314500000017
 21
443.24626899999998
 31
0.0
  0
LINE
  5
F3D36
  8
OBJECT
 10
622.46314500000017
 20
443.24626899999998
 30
0.0
 11
622.31707499999982
 21
443.21410399999991
 31
0.0
  0
LINE
  5
F3D37
  8
OBJECT
 10
622.31707499999982
 20
443.21410399999991
 30
0.0
 11
622.17140899999981
 21
443.1818159999998
 31
0.0
  0
LINE
  5
F3D38
  8
OBJECT
 10
622.17140899999981
 20
443.1818159999998
 30
0.0
 11
622.02611500000012
 21
443.14939799999991
 31
0.0
  0
LINE
  5
F3D39
  8
OBJECT
 10
622.02611500000012
 20
443.14939799999991
 30
0.0
 11
621.88115899999968
 21
443.11684099999979
 31
0.0
  0
LINE
  5
F3D3A
  8
OBJECT
 10
621.88115899999968
 20
443.11684099999979
 30
0.0
 11
621.73650899999996
 21
443.084137
 31
0.0
  0
LINE
  5
F3D3B
  8
OBJECT
 10
621.73650899999996
 20
443.084137
 30
0.0
 11
621.59213100000011
 21
443.05127799999991
 31
0.0
  0
LINE
  5
F3D3C
  8
OBJECT
 10
621.59213100000011
 20
443.05127799999991
 30
0.0
 11
621.44799299999966
 21
443.01825600000001
 31
0.0
  0
LINE
  5
F3D3D
  8
OBJECT
 10
621.44799299999966
 20
443.01825600000001
 30
0.0
 11
621.30406100000005
 21
442.98506300000003
 31
0.0
  0
LINE
  5
F3D3E
  8
OBJECT
 10
621.30406100000005
 20
442.98506300000003
 30
0.0
 11
621.160303
 21
442.95168899999999
 31
0.0
  0
LINE
  5
F3D3F
  8
OBJECT
 10
621.160303
 20
442.95168899999999
 30
0.0
 11
621.01668499999982
 21
442.91812899999979
 31
0.0
  0
LINE
  5
F3D40
  8
OBJECT
 10
621.01668499999982
 20
442.91812899999979
 30
0.0
 11
620.87317500000006
 21
442.88437199999993
 31
0.0
  0
LINE
  5
F3D41
  8
OBJECT
 10
620.87317500000006
 20
442.88437199999993
 30
0.0
 11
620.72973999999977
 21
442.85041100000001
 31
0.0
  0
LINE
  5
F3D42
  8
OBJECT
 10
620.72973999999977
 20
442.85041100000001
 30
0.0
 11
620.58634600000005
 21
442.81623799999988
 31
0.0
  0
LINE
  5
F3D43
  8
OBJECT
 10
620.58634600000005
 20
442.81623799999988
 30
0.0
 11
620.44296099999997
 21
442.78184499999998
 31
0.0
  0
LINE
  5
F3D44
  8
OBJECT
 10
620.44296099999997
 20
442.78184499999998
 30
0.0
 11
620.29955200000006
 21
442.74722299999991
 31
0.0
  0
LINE
  5
F3D45
  8
OBJECT
 10
620.29955200000006
 20
442.74722299999991
 30
0.0
 11
620.15608600000007
 21
442.71236399999992
 31
0.0
  0
LINE
  5
F3D46
  8
OBJECT
 10
620.15608600000007
 20
442.71236399999992
 30
0.0
 11
620.01388600000007
 21
442.67759399999971
 31
0.0
  0
LINE
  5
F3D47
  8
OBJECT
 10
620.01388600000007
 20
442.67759399999971
 30
0.0
 11
619.8716079999997
 21
442.642583
 31
0.0
  0
LINE
  5
F3D48
  8
OBJECT
 10
619.8716079999997
 20
442.642583
 30
0.0
 11
619.72926099999995
 21
442.60733199999987
 31
0.0
  0
LINE
  5
F3D49
  8
OBJECT
 10
619.72926099999995
 20
442.60733199999987
 30
0.0
 11
619.58685400000002
 21
442.57184299999989
 31
0.0
  0
LINE
  5
F3D4A
  8
OBJECT
 10
619.58685400000002
 20
442.57184299999989
 30
0.0
 11
619.44439699999998
 21
442.53611399999988
 31
0.0
  0
LINE
  5
F3D4B
  8
OBJECT
 10
619.44439699999998
 20
442.53611399999988
 30
0.0
 11
619.30189999999982
 21
442.5001459999998
 31
0.0
  0
LINE
  5
F3D4C
  8
OBJECT
 10
619.30189999999982
 20
442.5001459999998
 30
0.0
 11
619.15937299999996
 21
442.46393999999998
 31
0.0
  0
LINE
  5
F3D4D
  8
OBJECT
 10
619.15937299999996
 20
442.46393999999998
 30
0.0
 11
619.01682399999981
 21
442.42749599999991
 31
0.0
  0
LINE
  5
F3D4E
  8
OBJECT
 10
619.01682399999981
 20
442.42749599999991
 30
0.0
 11
618.87426500000015
 21
442.39081299999998
 31
0.0
  0
LINE
  5
F3D4F
  8
OBJECT
 10
618.87426500000015
 20
442.39081299999998
 30
0.0
 11
618.73170300000015
 21
442.35389399999991
 31
0.0
  0
LINE
  5
F3D50
  8
OBJECT
 10
618.73170300000015
 20
442.35389399999991
 30
0.0
 11
618.58914999999945
 21
442.31673699999988
 31
0.0
  0
LINE
  5
F3D51
  8
OBJECT
 10
618.58914999999945
 20
442.31673699999988
 30
0.0
 11
618.44661399999995
 21
442.27934199999987
 31
0.0
  0
LINE
  5
F3D52
  8
OBJECT
 10
618.44661399999995
 20
442.27934199999987
 30
0.0
 11
618.30410599999982
 21
442.24171200000001
 31
0.0
  0
LINE
  5
F3D53
  8
OBJECT
 10
618.30410599999982
 20
442.24171200000001
 30
0.0
 11
618.16163499999982
 21
442.20384399999989
 31
0.0
  0
LINE
  5
F3D54
  8
OBJECT
 10
618.16163499999982
 20
442.20384399999989
 30
0.0
 11
618.01920999999982
 21
442.16574099999991
 31
0.0
  0
LINE
  5
F3D55
  8
OBJECT
 10
618.01920999999982
 20
442.16574099999991
 30
0.0
 11
617.8768419999999
 21
442.12740199999979
 31
0.0
  0
LINE
  5
F3D56
  8
OBJECT
 10
617.8768419999999
 20
442.12740199999979
 30
0.0
 11
617.73453999999981
 21
442.08882699999981
 31
0.0
  0
LINE
  5
F3D57
  8
OBJECT
 10
617.73453999999981
 20
442.08882699999981
 30
0.0
 11
617.59231299999999
 21
442.05001699999991
 31
0.0
  0
LINE
  5
F3D58
  8
OBJECT
 10
617.59231299999999
 20
442.05001699999991
 30
0.0
 11
617.45017200000018
 21
442.01097299999998
 31
0.0
  0
LINE
  5
F3D59
  8
OBJECT
 10
617.45017200000018
 20
442.01097299999998
 30
0.0
 11
617.30812499999979
 21
441.97169299999979
 31
0.0
  0
LINE
  5
F3D5A
  8
OBJECT
 10
617.30812499999979
 20
441.97169299999979
 30
0.0
 11
617.15948499999979
 21
441.93030999999991
 31
0.0
  0
LINE
  5
F3D5B
  8
OBJECT
 10
617.15948499999979
 20
441.93030999999991
 30
0.0
 11
617.01095699999996
 21
441.88867199999987
 31
0.0
  0
LINE
  5
F3D5C
  8
OBJECT
 10
617.01095699999996
 20
441.88867199999987
 30
0.0
 11
616.86253599999998
 21
441.84678499999978
 31
0.0
  0
LINE
  5
F3D5D
  8
OBJECT
 10
616.86253599999998
 20
441.84678499999978
 30
0.0
 11
616.71422000000007
 21
441.80464999999992
 31
0.0
  0
LINE
  5
F3D5E
  8
OBJECT
 10
616.71422000000007
 20
441.80464999999992
 30
0.0
 11
616.56600400000013
 21
441.76227199999988
 31
0.0
  0
LINE
  5
F3D5F
  8
OBJECT
 10
616.56600400000013
 20
441.76227199999988
 30
0.0
 11
616.41788599999995
 21
441.71965299999999
 31
0.0
  0
LINE
  5
F3D60
  8
OBJECT
 10
616.41788599999995
 20
441.71965299999999
 30
0.0
 11
616.2698620000001
 21
441.67679700000008
 31
0.0
  0
LINE
  5
F3D61
  8
OBJECT
 10
616.2698620000001
 20
441.67679700000008
 30
0.0
 11
616.12192900000014
 21
441.63370699999979
 31
0.0
  0
LINE
  5
F3D62
  8
OBJECT
 10
616.12192900000014
 20
441.63370699999979
 30
0.0
 11
615.97408199999995
 21
441.59038700000002
 31
0.0
  0
LINE
  5
F3D63
  8
OBJECT
 10
615.97408199999995
 20
441.59038700000002
 30
0.0
 11
615.82632000000012
 21
441.54683999999992
 31
0.0
  0
LINE
  5
F3D64
  8
OBJECT
 10
615.82632000000012
 20
441.54683999999992
 30
0.0
 11
615.67863699999975
 21
441.50306899999998
 31
0.0
  0
LINE
  5
F3D65
  8
OBJECT
 10
615.67863699999975
 20
441.50306899999998
 30
0.0
 11
615.53103099999987
 21
441.45907799999998
 31
0.0
  0
LINE
  5
F3D66
  8
OBJECT
 10
615.53103099999987
 20
441.45907799999998
 30
0.0
 11
615.3834989999998
 21
441.41486899999973
 31
0.0
  0
LINE
  5
F3D67
  8
OBJECT
 10
615.3834989999998
 20
441.41486899999973
 30
0.0
 11
615.23603700000012
 21
441.37044599999979
 31
0.0
  0
LINE
  5
F3D68
  8
OBJECT
 10
615.23603700000012
 20
441.37044599999979
 30
0.0
 11
615.08864100000005
 21
441.3258130000001
 31
0.0
  0
LINE
  5
F3D69
  8
OBJECT
 10
615.08864100000005
 20
441.3258130000001
 30
0.0
 11
614.94130799999982
 21
441.28097299999979
 31
0.0
  0
LINE
  5
F3D6A
  8
OBJECT
 10
614.94130799999982
 20
441.28097299999979
 30
0.0
 11
614.79403399999978
 21
441.235929
 31
0.0
  0
LINE
  5
F3D6B
  8
OBJECT
 10
614.79403399999978
 20
441.235929
 30
0.0
 11
614.64681699999983
 21
441.19068399999992
 31
0.0
  0
LINE
  5
F3D6C
  8
OBJECT
 10
614.64681699999983
 20
441.19068399999992
 30
0.0
 11
614.4996520000002
 21
441.14524199999988
 31
0.0
  0
LINE
  5
F3D6D
  8
OBJECT
 10
614.4996520000002
 20
441.14524199999988
 30
0.0
 11
614.35253600000033
 21
441.09960599999999
 31
0.0
  0
LINE
  5
F3D6E
  8
OBJECT
 10
614.35253600000033
 20
441.09960599999999
 30
0.0
 11
614.21006199999988
 21
441.05521399999998
 31
0.0
  0
LINE
  5
F3D6F
  8
OBJECT
 10
614.21006199999988
 20
441.05521399999998
 30
0.0
 11
614.06763200000012
 21
441.01064599999989
 31
0.0
  0
LINE
  5
F3D70
  8
OBJECT
 10
614.06763200000012
 20
441.01064599999989
 30
0.0
 11
613.92524500000013
 21
440.96590500000002
 31
0.0
  0
LINE
  5
F3D71
  8
OBJECT
 10
613.92524500000013
 20
440.96590500000002
 30
0.0
 11
613.78290400000003
 21
440.92099300000001
 31
0.0
  0
LINE
  5
F3D72
  8
OBJECT
 10
613.78290400000003
 20
440.92099300000001
 30
0.0
 11
613.64060699999982
 21
440.87591300000003
 31
0.0
  0
LINE
  5
F3D73
  8
OBJECT
 10
613.64060699999982
 20
440.87591300000003
 30
0.0
 11
613.49835600000017
 21
440.83066799999989
 31
0.0
  0
LINE
  5
F3D74
  8
OBJECT
 10
613.49835600000017
 20
440.83066799999989
 30
0.0
 11
613.35615200000007
 21
440.78526099999988
 31
0.0
  0
LINE
  5
F3D75
  8
OBJECT
 10
613.35615200000007
 20
440.78526099999988
 30
0.0
 11
613.21399400000007
 21
440.73969399999987
 31
0.0
  0
LINE
  5
F3D76
  8
OBJECT
 10
613.21399400000007
 20
440.73969399999987
 30
0.0
 11
613.07188400000007
 21
440.69397099999992
 31
0.0
  0
LINE
  5
F3D77
  8
OBJECT
 10
613.07188400000007
 20
440.69397099999992
 30
0.0
 11
612.92982199999994
 21
440.64809399999979
 31
0.0
  0
LINE
  5
F3D78
  8
OBJECT
 10
612.92982199999994
 20
440.64809399999979
 30
0.0
 11
612.78780799999981
 21
440.60206499999998
 31
0.0
  0
LINE
  5
F3D79
  8
OBJECT
 10
612.78780799999981
 20
440.60206499999998
 30
0.0
 11
612.64584400000012
 21
440.5558880000001
 31
0.0
  0
LINE
  5
F3D7A
  8
OBJECT
 10
612.64584400000012
 20
440.5558880000001
 30
0.0
 11
612.50392900000008
 21
440.50956599999989
 31
0.0
  0
LINE
  5
F3D7B
  8
OBJECT
 10
612.50392900000008
 20
440.50956599999989
 30
0.0
 11
612.36206400000015
 21
440.4631
 31
0.0
  0
LINE
  5
F3D7C
  8
OBJECT
 10
612.36206400000015
 20
440.4631
 30
0.0
 11
612.22025099999996
 21
440.416495
 31
0.0
  0
LINE
  5
F3D7D
  8
OBJECT
 10
612.22025099999996
 20
440.416495
 30
0.0
 11
612.07848899999999
 21
440.36975200000001
 31
0.0
  0
LINE
  5
F3D7E
  8
OBJECT
 10
612.07848899999999
 20
440.36975200000001
 30
0.0
 11
611.936778
 21
440.32287499999973
 31
0.0
  0
LINE
  5
F3D7F
  8
OBJECT
 10
611.936778
 20
440.32287499999973
 30
0.0
 11
611.79512099999999
 21
440.27586599999989
 31
0.0
  0
LINE
  5
F3D80
  8
OBJECT
 10
611.79512099999999
 20
440.27586599999989
 30
0.0
 11
611.65351599999985
 21
440.22872799999999
 31
0.0
  0
LINE
  5
F3D81
  8
OBJECT
 10
611.65351599999985
 20
440.22872799999999
 30
0.0
 11
611.51196499999958
 21
440.18146400000001
 31
0.0
  0
LINE
  5
F3D82
  8
OBJECT
 10
611.51196499999958
 20
440.18146400000001
 30
0.0
 11
611.3781570000001
 21
440.13665399999979
 31
0.0
  0
LINE
  5
F3D83
  8
OBJECT
 10
611.3781570000001
 20
440.13665399999979
 30
0.0
 11
611.24439600000017
 21
440.09173600000003
 31
0.0
  0
LINE
  5
F3D84
  8
OBJECT
 10
611.24439600000017
 20
440.09173600000003
 30
0.0
 11
611.11067700000012
 21
440.04670900000002
 31
0.0
  0
LINE
  5
F3D85
  8
OBJECT
 10
611.11067700000012
 20
440.04670900000002
 30
0.0
 11
610.97699999999998
 21
440.00157399999989
 31
0.0
  0
LINE
  5
F3D86
  8
OBJECT
 10
610.97699999999998
 20
440.00157399999989
 30
0.0
 11
610.84336100000019
 21
439.95633299999992
 31
0.0
  0
LINE
  5
F3D87
  8
OBJECT
 10
610.84336100000019
 20
439.95633299999992
 30
0.0
 11
610.70975799999985
 21
439.91098599999998
 31
0.0
  0
LINE
  5
F3D88
  8
OBJECT
 10
610.70975799999985
 20
439.91098599999998
 30
0.0
 11
610.576188
 21
439.86553499999991
 31
0.0
  0
LINE
  5
F3D89
  8
OBJECT
 10
610.576188
 20
439.86553499999991
 30
0.0
 11
610.44264899999985
 21
439.81997899999988
 31
0.0
  0
LINE
  5
F3D8A
  8
OBJECT
 10
610.44264899999985
 20
439.81997899999988
 30
0.0
 11
610.30913800000019
 21
439.77432099999987
 31
0.0
  0
LINE
  5
F3D8B
  8
OBJECT
 10
610.30913800000019
 20
439.77432099999987
 30
0.0
 11
610.17565300000001
 21
439.72856099999979
 31
0.0
  0
LINE
  5
F3D8C
  8
OBJECT
 10
610.17565300000001
 20
439.72856099999979
 30
0.0
 11
610.042191
 21
439.68270000000001
 31
0.0
  0
LINE
  5
F3D8D
  8
OBJECT
 10
610.042191
 20
439.68270000000001
 30
0.0
 11
609.90875000000005
 21
439.63673899999992
 31
0.0
  0
LINE
  5
F3D8E
  8
OBJECT
 10
609.90875000000005
 20
439.63673899999992
 30
0.0
 11
609.77532700000006
 21
439.59067800000003
 31
0.0
  0
LINE
  5
F3D8F
  8
OBJECT
 10
609.77532700000006
 20
439.59067800000003
 30
0.0
 11
609.64192000000003
 21
439.54451999999998
 31
0.0
  0
LINE
  5
F3D90
  8
OBJECT
 10
609.64192000000003
 20
439.54451999999998
 30
0.0
 11
609.50852599999985
 21
439.49826499999972
 31
0.0
  0
LINE
  5
F3D91
  8
OBJECT
 10
609.50852599999985
 20
439.49826499999972
 30
0.0
 11
609.37514299999975
 21
439.45191299999988
 31
0.0
  0
LINE
  5
F3D92
  8
OBJECT
 10
609.37514299999975
 20
439.45191299999988
 30
0.0
 11
609.24176699999964
 21
439.40546599999999
 31
0.0
  0
LINE
  5
F3D93
  8
OBJECT
 10
609.24176699999964
 20
439.40546599999999
 30
0.0
 11
609.10839799999985
 21
439.35892499999989
 31
0.0
  0
LINE
  5
F3D94
  8
OBJECT
 10
609.10839799999985
 20
439.35892499999989
 30
0.0
 11
608.97503099999994
 21
439.31228999999979
 31
0.0
  0
LINE
  5
F3D95
  8
OBJECT
 10
608.97503099999994
 20
439.31228999999979
 30
0.0
 11
608.84166400000015
 21
439.26556299999999
 31
0.0
  0
LINE
  5
F3D96
  8
OBJECT
 10
608.84166400000015
 20
439.26556299999999
 30
0.0
 11
608.6862970000002
 21
439.21100999999999
 31
0.0
  0
LINE
  5
F3D97
  8
OBJECT
 10
608.6862970000002
 20
439.21100999999999
 30
0.0
 11
608.53094199999964
 21
439.15632199999999
 31
0.0
  0
LINE
  5
F3D98
  8
OBJECT
 10
608.53094199999964
 20
439.15632199999999
 30
0.0
 11
608.37561200000016
 21
439.10149000000001
 31
0.0
  0
LINE
  5
F3D99
  8
OBJECT
 10
608.37561200000016
 20
439.10149000000001
 30
0.0
 11
608.22032100000001
 21
439.04650399999991
 31
0.0
  0
LINE
  5
F3D9A
  8
OBJECT
 10
608.22032100000001
 20
439.04650399999991
 30
0.0
 11
608.06508399999984
 21
438.99135199999989
 31
0.0
  0
LINE
  5
F3D9B
  8
OBJECT
 10
608.06508399999984
 20
438.99135199999989
 30
0.0
 11
607.90991400000019
 21
438.93602499999997
 31
0.0
  0
LINE
  5
F3D9C
  8
OBJECT
 10
607.90991400000019
 20
438.93602499999997
 30
0.0
 11
607.75482599999975
 21
438.88051300000001
 31
0.0
  0
LINE
  5
F3D9D
  8
OBJECT
 10
607.75482599999975
 20
438.88051300000001
 30
0.0
 11
607.59983399999987
 21
438.82480599999991
 31
0.0
  0
LINE
  5
F3D9E
  8
OBJECT
 10
607.59983399999987
 20
438.82480599999991
 30
0.0
 11
607.44495199999994
 21
438.76889199999999
 31
0.0
  0
LINE
  5
F3D9F
  8
OBJECT
 10
607.44495199999994
 20
438.76889199999999
 30
0.0
 11
607.29019400000004
 21
438.712763
 31
0.0
  0
LINE
  5
F3DA0
  8
OBJECT
 10
607.29019400000004
 20
438.712763
 30
0.0
 11
607.13557399999968
 21
438.656408
 31
0.0
  0
LINE
  5
F3DA1
  8
OBJECT
 10
607.13557399999968
 20
438.656408
 30
0.0
 11
606.98110599999995
 21
438.59981699999992
 31
0.0
  0
LINE
  5
F3DA2
  8
OBJECT
 10
606.98110599999995
 20
438.59981699999992
 30
0.0
 11
606.82680400000004
 21
438.54297999999989
 31
0.0
  0
LINE
  5
F3DA3
  8
OBJECT
 10
606.82680400000004
 20
438.54297999999989
 30
0.0
 11
606.67268200000001
 21
438.48588499999988
 31
0.0
  0
LINE
  5
F3DA4
  8
OBJECT
 10
606.67268200000001
 20
438.48588499999988
 30
0.0
 11
606.51875500000006
 21
438.42852399999992
 31
0.0
  0
LINE
  5
F3DA5
  8
OBJECT
 10
606.51875500000006
 20
438.42852399999992
 30
0.0
 11
606.36503600000015
 21
438.37088599999993
 31
0.0
  0
LINE
  5
F3DA6
  8
OBJECT
 10
606.36503600000015
 20
438.37088599999993
 30
0.0
 11
606.21153900000013
 21
438.31296200000003
 31
0.0
  0
LINE
  5
F3DA7
  8
OBJECT
 10
606.21153900000013
 20
438.31296200000003
 30
0.0
 11
606.05827900000043
 21
438.25473899999997
 31
0.0
  0
LINE
  5
F3DA8
  8
OBJECT
 10
606.05827900000043
 20
438.25473899999997
 30
0.0
 11
605.9052700000002
 21
438.19620999999989
 31
0.0
  0
LINE
  5
F3DA9
  8
OBJECT
 10
605.9052700000002
 20
438.19620999999989
 30
0.0
 11
605.75252499999965
 21
438.13736199999988
 31
0.0
  0
LINE
  5
F3DAA
  8
OBJECT
 10
605.75252499999965
 20
438.13736199999988
 30
0.0
 11
605.61977400000012
 21
438.08586499999979
 31
0.0
  0
LINE
  5
F3DAB
  8
OBJECT
 10
605.61977400000012
 20
438.08586499999979
 30
0.0
 11
605.48720999999978
 21
438.03410999999988
 31
0.0
  0
LINE
  5
F3DAC
  8
OBJECT
 10
605.48720999999978
 20
438.03410999999988
 30
0.0
 11
605.35480799999982
 21
437.98208699999992
 31
0.0
  0
LINE
  5
F3DAD
  8
OBJECT
 10
605.35480799999982
 20
437.98208699999992
 30
0.0
 11
605.22254399999986
 21
437.92978599999998
 31
0.0
  0
LINE
  5
F3DAE
  8
OBJECT
 10
605.22254399999986
 20
437.92978599999998
 30
0.0
 11
605.09039400000017
 21
437.87719799999979
 31
0.0
  0
LINE
  5
F3DAF
  8
OBJECT
 10
605.09039400000017
 20
437.87719799999979
 30
0.0
 11
604.95833299999981
 21
437.82431199999991
 31
0.0
  0
LINE
  5
F3DB0
  8
OBJECT
 10
604.95833299999981
 20
437.82431199999991
 30
0.0
 11
604.82633699999985
 21
437.77111899999989
 31
0.0
  0
LINE
  5
F3DB1
  8
OBJECT
 10
604.82633699999985
 20
437.77111899999989
 30
0.0
 11
604.69438199999979
 21
437.71760899999981
 31
0.0
  0
LINE
  5
F3DB2
  8
OBJECT
 10
604.69438199999979
 20
437.71760899999981
 30
0.0
 11
604.5624429999998
 21
437.66377299999988
 31
0.0
  0
LINE
  5
F3DB3
  8
OBJECT
 10
604.5624429999998
 20
437.66377299999988
 30
0.0
 11
604.43049599999995
 21
437.6096
 31
0.0
  0
LINE
  5
F3DB4
  8
OBJECT
 10
604.43049599999995
 20
437.6096
 30
0.0
 11
604.29851599999984
 21
437.55507999999998
 31
0.0
  0
LINE
  5
F3DB5
  8
OBJECT
 10
604.29851599999984
 20
437.55507999999998
 30
0.0
 11
604.16647900000021
 21
437.50020499999988
 31
0.0
  0
LINE
  5
F3DB6
  8
OBJECT
 10
604.16647900000021
 20
437.50020499999988
 30
0.0
 11
604.03436099999988
 21
437.44496299999997
 31
0.0
  0
LINE
  5
F3DB7
  8
OBJECT
 10
604.03436099999988
 20
437.44496299999997
 30
0.0
 11
603.90213600000004
 21
437.38934699999987
 31
0.0
  0
LINE
  5
F3DB8
  8
OBJECT
 10
603.90213600000004
 20
437.38934699999987
 30
0.0
 11
603.76978200000008
 21
437.33334399999978
 31
0.0
  0
LINE
  5
F3DB9
  8
OBJECT
 10
603.76978200000008
 20
437.33334399999978
 30
0.0
 11
603.63727300000005
 21
437.27694700000001
 31
0.0
  0
LINE
  5
F3DBA
  8
OBJECT
 10
603.63727300000005
 20
437.27694700000001
 30
0.0
 11
603.50458499999968
 21
437.22014399999989
 31
0.0
  0
LINE
  5
F3DBB
  8
OBJECT
 10
603.50458499999968
 20
437.22014399999989
 30
0.0
 11
603.37169400000005
 21
437.1629269999998
 31
0.0
  0
LINE
  5
F3DBC
  8
OBJECT
 10
603.37169400000005
 20
437.1629269999998
 30
0.0
 11
603.23857499999986
 21
437.10528499999981
 31
0.0
  0
LINE
  5
F3DBD
  8
OBJECT
 10
603.23857499999986
 20
437.10528499999981
 30
0.0
 11
603.10520400000019
 21
437.04720899999978
 31
0.0
  0
LINE
  5
F3DBE
  8
OBJECT
 10
603.10520400000019
 20
437.04720899999978
 30
0.0
 11
602.96937299999979
 21
436.98773199999988
 31
0.0
  0
LINE
  5
F3DBF
  8
OBJECT
 10
602.96937299999979
 20
436.98773199999988
 30
0.0
 11
602.83334800000011
 21
436.92784999999998
 31
0.0
  0
LINE
  5
F3DC0
  8
OBJECT
 10
602.83334800000011
 20
436.92784999999998
 30
0.0
 11
602.69722200000001
 21
436.86761699999988
 31
0.0
  0
LINE
  5
F3DC1
  8
OBJECT
 10
602.69722200000001
 20
436.86761699999988
 30
0.0
 11
602.56108399999982
 21
436.80708699999991
 31
0.0
  0
LINE
  5
F3DC2
  8
OBJECT
 10
602.56108399999982
 20
436.80708699999991
 30
0.0
 11
602.42502800000011
 21
436.74631299999987
 31
0.0
  0
LINE
  5
F3DC3
  8
OBJECT
 10
602.42502800000011
 20
436.74631299999987
 30
0.0
 11
602.28914500000019
 21
436.68534899999992
 31
0.0
  0
LINE
  5
F3DC4
  8
OBJECT
 10
602.28914500000019
 20
436.68534899999992
 30
0.0
 11
602.15352700000005
 21
436.62424900000002
 31
0.0
  0
LINE
  5
F3DC5
  8
OBJECT
 10
602.15352700000005
 20
436.62424900000002
 30
0.0
 11
602.0182659999997
 21
436.56306699999988
 31
0.0
  0
LINE
  5
F3DC6
  8
OBJECT
 10
602.0182659999997
 20
436.56306699999988
 30
0.0
 11
601.88345300000003
 21
436.50185699999997
 31
0.0
  0
LINE
  5
F3DC7
  8
OBJECT
 10
601.88345300000003
 20
436.50185699999997
 30
0.0
 11
601.74918000000014
 21
436.44067199999989
 31
0.0
  0
LINE
  5
F3DC8
  8
OBJECT
 10
601.74918000000014
 20
436.44067199999989
 30
0.0
 11
601.61553900000001
 21
436.37956600000001
 31
0.0
  0
LINE
  5
F3DC9
  8
OBJECT
 10
601.61553900000001
 20
436.37956600000001
 30
0.0
 11
601.48262199999976
 21
436.31859299999991
 31
0.0
  0
LINE
  5
F3DCA
  8
OBJECT
 10
601.48262199999976
 20
436.31859299999991
 30
0.0
 11
601.35052000000007
 21
436.25780700000001
 31
0.0
  0
LINE
  5
F3DCB
  8
OBJECT
 10
601.35052000000007
 20
436.25780700000001
 30
0.0
 11
601.2193249999998
 21
436.19726199999991
 31
0.0
  0
LINE
  5
F3DCC
  8
OBJECT
 10
601.2193249999998
 20
436.19726199999991
 30
0.0
 11
601.08912900000007
 21
436.13701099999997
 31
0.0
  0
LINE
  5
F3DCD
  8
OBJECT
 10
601.08912900000007
 20
436.13701099999997
 30
0.0
 11
600.96002399999998
 21
436.07710900000001
 31
0.0
  0
LINE
  5
F3DCE
  8
OBJECT
 10
600.96002399999998
 20
436.07710900000001
 30
0.0
 11
600.83210099999985
 21
436.01760899999999
 31
0.0
  0
LINE
  5
F3DCF
  8
OBJECT
 10
600.83210099999985
 20
436.01760899999999
 30
0.0
 11
600.70545300000003
 21
435.9585639999998
 31
0.0
  0
LINE
  5
F3DD0
  8
OBJECT
 10
600.70545300000003
 20
435.9585639999998
 30
0.0
 11
600.58017000000007
 21
435.90002899999979
 31
0.0
  0
LINE
  5
F3DD1
  8
OBJECT
 10
600.58017000000007
 20
435.90002899999979
 30
0.0
 11
600.45634600000005
 21
435.84205799999989
 31
0.0
  0
LINE
  5
F3DD2
  8
OBJECT
 10
600.45634600000005
 20
435.84205799999989
 30
0.0
 11
600.3295099999998
 21
435.78255999999988
 31
0.0
  0
LINE
  5
F3DD3
  8
OBJECT
 10
600.3295099999998
 20
435.78255999999988
 30
0.0
 11
600.20396599999981
 21
435.72354199999978
 31
0.0
  0
LINE
  5
F3DD4
  8
OBJECT
 10
600.20396599999981
 20
435.72354199999978
 30
0.0
 11
600.07933800000001
 21
435.66482000000008
 31
0.0
  0
LINE
  5
F3DD5
  8
OBJECT
 10
600.07933800000001
 20
435.66482000000008
 30
0.0
 11
599.95524999999998
 21
435.60620899999998
 31
0.0
  0
LINE
  5
F3DD6
  8
OBJECT
 10
599.95524999999998
 20
435.60620899999998
 30
0.0
 11
599.8313270000001
 21
435.547528
 31
0.0
  0
LINE
  5
F3DD7
  8
OBJECT
 10
599.8313270000001
 20
435.547528
 30
0.0
 11
599.70719500000018
 21
435.48858999999999
 31
0.0
  0
LINE
  5
F3DD8
  8
OBJECT
 10
599.70719500000018
 20
435.48858999999999
 30
0.0
 11
599.58247800000004
 21
435.429213
 31
0.0
  0
LINE
  5
F3DD9
  8
OBJECT
 10
599.58247800000004
 20
435.429213
 30
0.0
 11
599.45680200000015
 21
435.36921299999989
 31
0.0
  0
LINE
  5
F3DDA
  8
OBJECT
 10
599.45680200000015
 20
435.36921299999989
 30
0.0
 11
599.32978999999989
 21
435.30840499999988
 31
0.0
  0
LINE
  5
F3DDB
  8
OBJECT
 10
599.32978999999989
 20
435.30840499999988
 30
0.0
 11
599.20106799999985
 21
435.24660699999998
 31
0.0
  0
LINE
  5
F3DDC
  8
OBJECT
 10
599.20106799999985
 20
435.24660699999998
 30
0.0
 11
599.07026200000018
 21
435.18363299999999
 31
0.0
  0
LINE
  5
F3DDD
  8
OBJECT
 10
599.07026200000018
 20
435.18363299999999
 30
0.0
 11
598.93699500000014
 21
435.11929999999978
 31
0.0
  0
LINE
  5
F3DDE
  8
OBJECT
 10
598.93699500000014
 20
435.11929999999978
 30
0.0
 11
598.8008920000002
 21
435.05342499999989
 31
0.0
  0
LINE
  5
F3DDF
  8
OBJECT
 10
598.8008920000002
 20
435.05342499999989
 30
0.0
 11
598.66157900000007
 21
434.98582399999992
 31
0.0
  0
LINE
  5
F3DE0
  8
OBJECT
 10
598.66157900000007
 20
434.98582399999992
 30
0.0
 11
598.51868100000013
 21
434.91631100000001
 31
0.0
  0
LINE
  5
F3DE1
  8
OBJECT
 10
598.51868100000013
 20
434.91631100000001
 30
0.0
 11
598.37182200000007
 21
434.84470499999981
 31
0.0
  0
LINE
  5
F3DE2
  8
OBJECT
 10
598.37182200000007
 20
434.84470499999981
 30
0.0
 11
598.22062700000015
 21
434.77082000000001
 31
0.0
  0
LINE
  5
F3DE3
  8
OBJECT
 10
598.22062700000015
 20
434.77082000000001
 30
0.0
 11
598.06472100000008
 21
434.69447299999979
 31
0.0
  0
LINE
  5
F3DE4
  8
OBJECT
 10
598.06472100000008
 20
434.69447299999979
 30
0.0
 11
597.90372899999988
 21
434.61548099999987
 31
0.0
  0
LINE
  5
F3DE5
  8
OBJECT
 10
597.90372899999988
 20
434.61548099999987
 30
0.0
 11
597.73727599999995
 21
434.533658
 31
0.0
  0
LINE
  5
F3DE6
  8
OBJECT
 10
597.73727599999995
 20
434.533658
 30
0.0
 11
597.53975700000012
 21
434.43638999999979
 31
0.0
  0
LINE
  5
F3DE7
  8
OBJECT
 10
597.53975700000012
 20
434.43638999999979
 30
0.0
 11
597.33631300000013
 21
434.33603899999991
 31
0.0
  0
LINE
  5
F3DE8
  8
OBJECT
 10
597.33631300000013
 20
434.33603899999991
 30
0.0
 11
597.12868000000003
 21
434.23347799999988
 31
0.0
  0
LINE
  5
F3DE9
  8
OBJECT
 10
597.12868000000003
 20
434.23347799999988
 30
0.0
 11
596.91859500000044
 21
434.12957899999998
 31
0.0
  0
LINE
  5
F3DEA
  8
OBJECT
 10
596.91859500000044
 20
434.12957899999998
 30
0.0
 11
596.70779199999981
 21
434.02521499999989
 31
0.0
  0
LINE
  5
F3DEB
  8
OBJECT
 10
596.70779199999981
 20
434.02521499999989
 30
0.0
 11
596.4980079999998
 21
433.92125900000002
 31
0.0
  0
LINE
  5
F3DEC
  8
OBJECT
 10
596.4980079999998
 20
433.92125900000002
 30
0.0
 11
596.29097899999999
 21
433.81858399999999
 31
0.0
  0
LINE
  5
F3DED
  8
OBJECT
 10
596.29097899999999
 20
433.81858399999999
 30
0.0
 11
596.08844199999965
 21
433.7180619999998
 31
0.0
  0
LINE
  5
F3DEE
  8
OBJECT
 10
596.08844199999965
 20
433.7180619999998
 30
0.0
 11
595.89213099999995
 21
433.62056699999999
 31
0.0
  0
LINE
  5
F3DEF
  8
OBJECT
 10
595.89213099999995
 20
433.62056699999999
 30
0.0
 11
595.70378299999982
 21
433.52697000000001
 31
0.0
  0
LINE
  5
F3DF0
  8
OBJECT
 10
595.70378299999982
 20
433.52697000000001
 30
0.0
 11
595.52513399999975
 21
433.43814599999979
 31
0.0
  0
LINE
  5
F3DF1
  8
OBJECT
 10
595.52513399999975
 20
433.43814599999979
 30
0.0
 11
595.35792000000015
 21
433.35496599999999
 31
0.0
  0
LINE
  5
F3DF2
  8
OBJECT
 10
595.35792000000015
 20
433.35496599999999
 30
0.0
 11
595.2038759999997
 21
433.27830299999988
 31
0.0
  0
LINE
  5
F3DF3
  8
OBJECT
 10
595.2038759999997
 20
433.27830299999988
 30
0.0
 11
595.0647399999998
 21
433.20902999999993
 31
0.0
  0
LINE
  5
F3DF4
  8
OBJECT
 10
595.0647399999998
 20
433.20902999999993
 30
0.0
 11
594.94224600000007
 21
433.14801999999992
 31
0.0
  0
LINE
  5
F3DF5
  8
OBJECT
 10
594.94224600000007
 20
433.14801999999992
 30
0.0
 11
594.8381310000002
 21
433.09614599999998
 31
0.0
  0
LINE
  5
F3DF6
  8
OBJECT
 10
594.8381310000002
 20
433.09614599999998
 30
0.0
 11
594.75413100000014
 21
433.05427999999989
 31
0.0
  0
LINE
  5
F3DF7
  8
OBJECT
 10
594.75413100000014
 20
433.05427999999989
 30
0.0
 11
594.69198200000005
 21
433.02329600000002
 31
0.0
  0
LINE
  5
F3DF8
  8
OBJECT
 10
594.69198200000005
 20
433.02329600000002
 30
0.0
 11
594.65341900000033
 21
433.00406499999991
 31
0.0
  0
LINE
  5
F3DF9
  8
OBJECT
 10
594.65341900000033
 20
433.00406499999991
 30
0.0
 11
594.64017899999999
 21
432.99745999999988
 31
0.0
  0
LINE
  5
F3DFA
  8
OBJECT
 10
510.68463999999989
 20
444.67354399999999
 30
0.0
 11
510.67444599999988
 21
444.67229099999997
 31
0.0
  0
LINE
  5
F3DFB
  8
OBJECT
 10
510.67444599999988
 20
444.67229099999997
 30
0.0
 11
510.6447359999998
 21
444.66862800000001
 31
0.0
  0
LINE
  5
F3DFC
  8
OBJECT
 10
510.6447359999998
 20
444.66862800000001
 30
0.0
 11
510.59682000000032
 21
444.66269999999992
 31
0.0
  0
LINE
  5
F3DFD
  8
OBJECT
 10
510.59682000000032
 20
444.66269999999992
 30
0.0
 11
510.53200699999991
 21
444.65465199999988
 31
0.0
  0
LINE
  5
F3DFE
  8
OBJECT
 10
510.53200699999991
 20
444.65465199999988
 30
0.0
 11
510.45160599999991
 21
444.64462899999978
 31
0.0
  0
LINE
  5
F3DFF
  8
OBJECT
 10
510.45160599999991
 20
444.64462899999978
 30
0.0
 11
510.35692499999988
 21
444.63277699999992
 31
0.0
  0
LINE
  5
F3E00
  8
OBJECT
 10
510.35692499999988
 20
444.63277699999992
 30
0.0
 11
510.24927400000001
 21
444.61923899999999
 31
0.0
  0
LINE
  5
F3E01
  8
OBJECT
 10
510.24927400000001
 20
444.61923899999999
 30
0.0
 11
510.12996199999981
 21
444.60416199999992
 31
0.0
  0
LINE
  5
F3E02
  8
OBJECT
 10
510.12996199999981
 20
444.60416199999992
 30
0.0
 11
510.00029699999988
 21
444.58769000000001
 31
0.0
  0
LINE
  5
F3E03
  8
OBJECT
 10
510.00029699999988
 20
444.58769000000001
 30
0.0
 11
509.86158899999992
 21
444.56996800000002
 31
0.0
  0
LINE
  5
F3E04
  8
OBJECT
 10
509.86158899999992
 20
444.56996800000002
 30
0.0
 11
509.715146
 21
444.55114099999992
 31
0.0
  0
LINE
  5
F3E05
  8
OBJECT
 10
509.715146
 20
444.55114099999992
 30
0.0
 11
509.56227800000022
 21
444.53135399999991
 31
0.0
  0
LINE
  5
F3E06
  8
OBJECT
 10
509.56227800000022
 20
444.53135399999991
 30
0.0
 11
509.40429399999999
 21
444.51075300000002
 31
0.0
  0
LINE
  5
F3E07
  8
OBJECT
 10
509.40429399999999
 20
444.51075300000002
 30
0.0
 11
509.24250300000023
 21
444.48948200000001
 31
0.0
  0
LINE
  5
F3E08
  8
OBJECT
 10
509.24250300000023
 20
444.48948200000001
 30
0.0
 11
509.07821300000001
 21
444.46768499999979
 31
0.0
  0
LINE
  5
F3E09
  8
OBJECT
 10
509.07821300000001
 20
444.46768499999979
 30
0.0
 11
508.912733
 21
444.44550899999979
 31
0.0
  0
LINE
  5
F3E0A
  8
OBJECT
 10
508.912733
 20
444.44550899999979
 30
0.0
 11
508.74737399999998
 21
444.42309899999998
 31
0.0
  0
LINE
  5
F3E0B
  8
OBJECT
 10
508.74737399999998
 20
444.42309899999998
 30
0.0
 11
508.58344299999999
 21
444.400598
 31
0.0
  0
LINE
  5
F3E0C
  8
OBJECT
 10
508.58344299999999
 20
444.400598
 30
0.0
 11
508.42225000000002
 21
444.37815299999988
 31
0.0
  0
LINE
  5
F3E0D
  8
OBJECT
 10
508.42225000000002
 20
444.37815299999988
 30
0.0
 11
508.26510300000001
 21
444.35590799999989
 31
0.0
  0
LINE
  5
F3E0E
  8
OBJECT
 10
508.26510300000001
 20
444.35590799999989
 30
0.0
 11
508.09636499999999
 21
444.33154699999989
 31
0.0
  0
LINE
  5
F3E0F
  8
OBJECT
 10
508.09636499999999
 20
444.33154699999989
 30
0.0
 11
507.93382899999989
 21
444.30757199999999
 31
0.0
  0
LINE
  5
F3E10
  8
OBJECT
 10
507.93382899999989
 20
444.30757199999999
 30
0.0
 11
507.77707599999991
 21
444.28393999999992
 31
0.0
  0
LINE
  5
F3E11
  8
OBJECT
 10
507.77707599999991
 20
444.28393999999992
 30
0.0
 11
507.62568700000003
 21
444.26060799999999
 31
0.0
  0
LINE
  5
F3E12
  8
OBJECT
 10
507.62568700000003
 20
444.26060799999999
 30
0.0
 11
507.47924499999999
 21
444.23753699999992
 31
0.0
  0
LINE
  5
F3E13
  8
OBJECT
 10
507.47924499999999
 20
444.23753699999992
 30
0.0
 11
507.33732999999989
 21
444.21468199999993
 31
0.0
  0
LINE
  5
F3E14
  8
OBJECT
 10
507.33732999999989
 20
444.21468199999993
 30
0.0
 11
507.19952499999988
 21
444.192004
 31
0.0
  0
LINE
  5
F3E15
  8
OBJECT
 10
507.19952499999988
 20
444.192004
 30
0.0
 11
507.06540999999987
 21
444.16945899999979
 31
0.0
  0
LINE
  5
F3E16
  8
OBJECT
 10
507.06540999999987
 20
444.16945899999979
 30
0.0
 11
506.93456799999967
 21
444.14700699999997
 31
0.0
  0
LINE
  5
F3E17
  8
OBJECT
 10
506.93456799999967
 20
444.14700699999997
 30
0.0
 11
506.80658000000022
 21
444.12460399999998
 31
0.0
  0
LINE
  5
F3E18
  8
OBJECT
 10
506.80658000000022
 20
444.12460399999998
 30
0.0
 11
506.68102799999991
 21
444.10221100000001
 31
0.0
  0
LINE
  5
F3E19
  8
OBJECT
 10
506.68102799999991
 20
444.10221100000001
 30
0.0
 11
506.55749199999991
 21
444.07978300000002
 31
0.0
  0
LINE
  5
F3E1A
  8
OBJECT
 10
506.55749199999991
 20
444.07978300000002
 30
0.0
 11
506.43555600000002
 21
444.05728099999988
 31
0.0
  0
LINE
  5
F3E1B
  8
OBJECT
 10
506.43555600000002
 20
444.05728099999988
 30
0.0
 11
506.31479899999999
 21
444.03466100000003
 31
0.0
  0
LINE
  5
F3E1C
  8
OBJECT
 10
506.31479899999999
 20
444.03466100000003
 30
0.0
 11
506.1948049999998
 21
444.01188200000001
 31
0.0
  0
LINE
  5
F3E1D
  8
OBJECT
 10
506.1948049999998
 20
444.01188200000001
 30
0.0
 11
506.075154
 21
443.98890299999988
 31
0.0
  0
LINE
  5
F3E1E
  8
OBJECT
 10
506.075154
 20
443.98890299999988
 30
0.0
 11
505.95542799999993
 21
443.96568099999979
 31
0.0
  0
LINE
  5
F3E1F
  8
OBJECT
 10
505.95542799999993
 20
443.96568099999979
 30
0.0
 11
505.8352079999998
 21
443.94217500000002
 31
0.0
  0
LINE
  5
F3E20
  8
OBJECT
 10
505.8352079999998
 20
443.94217500000002
 30
0.0
 11
505.71407599999981
 21
443.91834199999988
 31
0.0
  0
LINE
  5
F3E21
  8
OBJECT
 10
505.71407599999981
 20
443.91834199999988
 30
0.0
 11
505.59161499999988
 21
443.89414199999987
 31
0.0
  0
LINE
  5
F3E22
  8
OBJECT
 10
505.59161499999988
 20
443.89414199999987
 30
0.0
 11
505.47305699999998
 21
443.8706449999998
 31
0.0
  0
LINE
  5
F3E23
  8
OBJECT
 10
505.47305699999998
 20
443.8706449999998
 30
0.0
 11
505.35300499999988
 21
443.84678999999988
 31
0.0
  0
LINE
  5
F3E24
  8
OBJECT
 10
505.35300499999988
 20
443.84678999999988
 30
0.0
 11
505.23155899999989
 21
443.82259199999987
 31
0.0
  0
LINE
  5
F3E25
  8
OBJECT
 10
505.23155899999989
 20
443.82259199999987
 30
0.0
 11
505.10882099999992
 21
443.79806699999989
 31
0.0
  0
LINE
  5
F3E26
  8
OBJECT
 10
505.10882099999992
 20
443.79806699999989
 30
0.0
 11
504.98489299999989
 21
443.77323000000001
 31
0.0
  0
LINE
  5
F3E27
  8
OBJECT
 10
504.98489299999989
 20
443.77323000000001
 30
0.0
 11
504.85987499999999
 21
443.74809699999997
 31
0.0
  0
LINE
  5
F3E28
  8
OBJECT
 10
504.85987499999999
 20
443.74809699999997
 30
0.0
 11
504.73387000000002
 21
443.72268299999979
 31
0.0
  0
LINE
  5
F3E29
  8
OBJECT
 10
504.73387000000002
 20
443.72268299999979
 30
0.0
 11
504.60698000000002
 21
443.69700399999999
 31
0.0
  0
LINE
  5
F3E2A
  8
OBJECT
 10
504.60698000000002
 20
443.69700399999999
 30
0.0
 11
504.47930400000001
 21
443.67107600000008
 31
0.0
  0
LINE
  5
F3E2B
  8
OBJECT
 10
504.47930400000001
 20
443.67107600000008
 30
0.0
 11
504.35094600000008
 21
443.64491399999991
 31
0.0
  0
LINE
  5
F3E2C
  8
OBJECT
 10
504.35094600000008
 20
443.64491399999991
 30
0.0
 11
504.22200600000002
 21
443.61853400000001
 31
0.0
  0
LINE
  5
F3E2D
  8
OBJECT
 10
504.22200600000002
 20
443.61853400000001
 30
0.0
 11
504.09258699999992
 21
443.59195099999988
 31
0.0
  0
LINE
  5
F3E2E
  8
OBJECT
 10
504.09258699999992
 20
443.59195099999988
 30
0.0
 11
503.96278800000022
 21
443.56518099999988
 31
0.0
  0
LINE
  5
F3E2F
  8
OBJECT
 10
503.96278800000022
 20
443.56518099999988
 30
0.0
 11
503.83271299999979
 21
443.53823999999992
 31
0.0
  0
LINE
  5
F3E30
  8
OBJECT
 10
503.83271299999979
 20
443.53823999999992
 30
0.0
 11
503.70246199999991
 21
443.51114399999989
 31
0.0
  0
LINE
  5
F3E31
  8
OBJECT
 10
503.70246199999991
 20
443.51114399999989
 30
0.0
 11
503.572137
 21
443.48390699999987
 31
0.0
  0
LINE
  5
F3E32
  8
OBJECT
 10
503.572137
 20
443.48390699999987
 30
0.0
 11
503.44183999999979
 21
443.45654500000001
 31
0.0
  0
LINE
  5
F3E33
  8
OBJECT
 10
503.44183999999979
 20
443.45654500000001
 30
0.0
 11
503.31167099999988
 21
443.42907499999978
 31
0.0
  0
LINE
  5
F3E34
  8
OBJECT
 10
503.31167099999988
 20
443.42907499999978
 30
0.0
 11
503.18173299999989
 21
443.40151100000003
 31
0.0
  0
LINE
  5
F3E35
  8
OBJECT
 10
503.18173299999989
 20
443.40151100000003
 30
0.0
 11
503.05212699999998
 21
443.37386899999979
 31
0.0
  0
LINE
  5
F3E36
  8
OBJECT
 10
503.05212699999998
 20
443.37386899999979
 30
0.0
 11
502.90410999999989
 21
443.34211199999999
 31
0.0
  0
LINE
  5
F3E37
  8
OBJECT
 10
502.90410999999989
 20
443.34211199999999
 30
0.0
 11
502.75662899999998
 21
443.31026499999979
 31
0.0
  0
LINE
  5
F3E38
  8
OBJECT
 10
502.75662899999998
 20
443.31026499999979
 30
0.0
 11
502.60965200000021
 21
443.27832000000001
 31
0.0
  0
LINE
  5
F3E39
  8
OBJECT
 10
502.60965200000021
 20
443.27832000000001
 30
0.0
 11
502.46314500000011
 21
443.24626899999998
 31
0.0
  0
LINE
  5
F3E3A
  8
OBJECT
 10
502.46314500000011
 20
443.24626899999998
 30
0.0
 11
502.31707499999987
 21
443.21410399999991
 31
0.0
  0
LINE
  5
F3E3B
  8
OBJECT
 10
502.31707499999987
 20
443.21410399999991
 30
0.0
 11
502.17140899999993
 21
443.1818159999998
 31
0.0
  0
LINE
  5
F3E3C
  8
OBJECT
 10
502.17140899999993
 20
443.1818159999998
 30
0.0
 11
502.026115
 21
443.14939799999991
 31
0.0
  0
LINE
  5
F3E3D
  8
OBJECT
 10
502.026115
 20
443.14939799999991
 30
0.0
 11
501.88115900000003
 21
443.11684099999979
 31
0.0
  0
LINE
  5
F3E3E
  8
OBJECT
 10
501.88115900000003
 20
443.11684099999979
 30
0.0
 11
501.73650899999978
 21
443.084137
 31
0.0
  0
LINE
  5
F3E3F
  8
OBJECT
 10
501.73650899999978
 20
443.084137
 30
0.0
 11
501.59213099999999
 21
443.05127799999991
 31
0.0
  0
LINE
  5
F3E40
  8
OBJECT
 10
501.59213099999999
 20
443.05127799999991
 30
0.0
 11
501.447993
 21
443.01825600000001
 31
0.0
  0
LINE
  5
F3E41
  8
OBJECT
 10
501.447993
 20
443.01825600000001
 30
0.0
 11
501.30406099999988
 21
442.98506300000003
 31
0.0
  0
LINE
  5
F3E42
  8
OBJECT
 10
501.30406099999988
 20
442.98506300000003
 30
0.0
 11
501.16030299999989
 21
442.95168899999999
 31
0.0
  0
LINE
  5
F3E43
  8
OBJECT
 10
501.16030299999989
 20
442.95168899999999
 30
0.0
 11
501.01668499999988
 21
442.91812899999979
 31
0.0
  0
LINE
  5
F3E44
  8
OBJECT
 10
501.01668499999988
 20
442.91812899999979
 30
0.0
 11
500.87317499999989
 21
442.88437199999993
 31
0.0
  0
LINE
  5
F3E45
  8
OBJECT
 10
500.87317499999989
 20
442.88437199999993
 30
0.0
 11
500.72973999999988
 21
442.85041100000001
 31
0.0
  0
LINE
  5
F3E46
  8
OBJECT
 10
500.72973999999988
 20
442.85041100000001
 30
0.0
 11
500.58634599999988
 21
442.81623799999988
 31
0.0
  0
LINE
  5
F3E47
  8
OBJECT
 10
500.58634599999988
 20
442.81623799999988
 30
0.0
 11
500.4429609999998
 21
442.78184499999998
 31
0.0
  0
LINE
  5
F3E48
  8
OBJECT
 10
500.4429609999998
 20
442.78184499999998
 30
0.0
 11
500.29955199999989
 21
442.74722299999991
 31
0.0
  0
LINE
  5
F3E49
  8
OBJECT
 10
500.29955199999989
 20
442.74722299999991
 30
0.0
 11
500.1560860000003
 21
442.71236399999992
 31
0.0
  0
LINE
  5
F3E4A
  8
OBJECT
 10
500.1560860000003
 20
442.71236399999992
 30
0.0
 11
500.0138859999999
 21
442.67759399999971
 31
0.0
  0
LINE
  5
F3E4B
  8
OBJECT
 10
500.0138859999999
 20
442.67759399999971
 30
0.0
 11
499.87160799999992
 21
442.642583
 31
0.0
  0
LINE
  5
F3E4C
  8
OBJECT
 10
499.87160799999992
 20
442.642583
 30
0.0
 11
499.72926099999989
 21
442.60733199999987
 31
0.0
  0
LINE
  5
F3E4D
  8
OBJECT
 10
499.72926099999989
 20
442.60733199999987
 30
0.0
 11
499.58685400000002
 21
442.57184299999989
 31
0.0
  0
LINE
  5
F3E4E
  8
OBJECT
 10
499.58685400000002
 20
442.57184299999989
 30
0.0
 11
499.44439699999981
 21
442.53611399999988
 31
0.0
  0
LINE
  5
F3E4F
  8
OBJECT
 10
499.44439699999981
 20
442.53611399999988
 30
0.0
 11
499.30189999999988
 21
442.5001459999998
 31
0.0
  0
LINE
  5
F3E50
  8
OBJECT
 10
499.30189999999988
 20
442.5001459999998
 30
0.0
 11
499.15937299999979
 21
442.46393999999998
 31
0.0
  0
LINE
  5
F3E51
  8
OBJECT
 10
499.15937299999979
 20
442.46393999999998
 30
0.0
 11
499.01682399999987
 21
442.42749599999991
 31
0.0
  0
LINE
  5
F3E52
  8
OBJECT
 10
499.01682399999987
 20
442.42749599999991
 30
0.0
 11
498.87426499999992
 21
442.39081299999998
 31
0.0
  0
LINE
  5
F3E53
  8
OBJECT
 10
498.87426499999992
 20
442.39081299999998
 30
0.0
 11
498.73170299999992
 21
442.35389399999991
 31
0.0
  0
LINE
  5
F3E54
  8
OBJECT
 10
498.73170299999992
 20
442.35389399999991
 30
0.0
 11
498.58914999999979
 21
442.31673699999988
 31
0.0
  0
LINE
  5
F3E55
  8
OBJECT
 10
498.58914999999979
 20
442.31673699999988
 30
0.0
 11
498.44661399999978
 21
442.27934199999987
 31
0.0
  0
LINE
  5
F3E56
  8
OBJECT
 10
498.44661399999978
 20
442.27934199999987
 30
0.0
 11
498.30410599999988
 21
442.24171200000001
 31
0.0
  0
LINE
  5
F3E57
  8
OBJECT
 10
498.30410599999988
 20
442.24171200000001
 30
0.0
 11
498.16163499999988
 21
442.20384399999989
 31
0.0
  0
LINE
  5
F3E58
  8
OBJECT
 10
498.16163499999988
 20
442.20384399999989
 30
0.0
 11
498.01920999999987
 21
442.16574099999991
 31
0.0
  0
LINE
  5
F3E59
  8
OBJECT
 10
498.01920999999987
 20
442.16574099999991
 30
0.0
 11
497.87684199999973
 21
442.12740199999979
 31
0.0
  0
LINE
  5
F3E5A
  8
OBJECT
 10
497.87684199999973
 20
442.12740199999979
 30
0.0
 11
497.73453999999992
 21
442.08882699999981
 31
0.0
  0
LINE
  5
F3E5B
  8
OBJECT
 10
497.73453999999992
 20
442.08882699999981
 30
0.0
 11
497.59231299999988
 21
442.05001699999991
 31
0.0
  0
LINE
  5
F3E5C
  8
OBJECT
 10
497.59231299999988
 20
442.05001699999991
 30
0.0
 11
497.45017199999978
 21
442.01097299999998
 31
0.0
  0
LINE
  5
F3E5D
  8
OBJECT
 10
497.45017199999978
 20
442.01097299999998
 30
0.0
 11
497.3081249999999
 21
441.97169299999979
 31
0.0
  0
LINE
  5
F3E5E
  8
OBJECT
 10
497.3081249999999
 20
441.97169299999979
 30
0.0
 11
497.15948500000002
 21
441.93030999999991
 31
0.0
  0
LINE
  5
F3E5F
  8
OBJECT
 10
497.15948500000002
 20
441.93030999999991
 30
0.0
 11
497.01095699999991
 21
441.88867199999987
 31
0.0
  0
LINE
  5
F3E60
  8
OBJECT
 10
497.01095699999991
 20
441.88867199999987
 30
0.0
 11
496.86253599999981
 21
441.84678499999978
 31
0.0
  0
LINE
  5
F3E61
  8
OBJECT
 10
496.86253599999981
 20
441.84678499999978
 30
0.0
 11
496.7142200000003
 21
441.80464999999992
 31
0.0
  0
LINE
  5
F3E62
  8
OBJECT
 10
496.7142200000003
 20
441.80464999999992
 30
0.0
 11
496.56600400000002
 21
441.76227199999988
 31
0.0
  0
LINE
  5
F3E63
  8
OBJECT
 10
496.56600400000002
 20
441.76227199999988
 30
0.0
 11
496.41788599999978
 21
441.71965299999999
 31
0.0
  0
LINE
  5
F3E64
  8
OBJECT
 10
496.41788599999978
 20
441.71965299999999
 30
0.0
 11
496.26986199999999
 21
441.67679700000008
 31
0.0
  0
LINE
  5
F3E65
  8
OBJECT
 10
496.26986199999999
 20
441.67679700000008
 30
0.0
 11
496.12192900000002
 21
441.63370699999979
 31
0.0
  0
LINE
  5
F3E66
  8
OBJECT
 10
496.12192900000002
 20
441.63370699999979
 30
0.0
 11
495.97408199999978
 21
441.59038700000002
 31
0.0
  0
LINE
  5
F3E67
  8
OBJECT
 10
495.97408199999978
 20
441.59038700000002
 30
0.0
 11
495.82632000000001
 21
441.54683999999992
 31
0.0
  0
LINE
  5
F3E68
  8
OBJECT
 10
495.82632000000001
 20
441.54683999999992
 30
0.0
 11
495.67863699999992
 21
441.50306899999998
 31
0.0
  0
LINE
  5
F3E69
  8
OBJECT
 10
495.67863699999992
 20
441.50306899999998
 30
0.0
 11
495.53103099999993
 21
441.45907799999998
 31
0.0
  0
LINE
  5
F3E6A
  8
OBJECT
 10
495.53103099999993
 20
441.45907799999998
 30
0.0
 11
495.38349899999992
 21
441.41486899999973
 31
0.0
  0
LINE
  5
F3E6B
  8
OBJECT
 10
495.38349899999992
 20
441.41486899999973
 30
0.0
 11
495.23603700000001
 21
441.37044599999979
 31
0.0
  0
LINE
  5
F3E6C
  8
OBJECT
 10
495.23603700000001
 20
441.37044599999979
 30
0.0
 11
495.08864099999988
 21
441.3258130000001
 31
0.0
  0
LINE
  5
F3E6D
  8
OBJECT
 10
495.08864099999988
 20
441.3258130000001
 30
0.0
 11
494.94130799999988
 21
441.28097299999979
 31
0.0
  0
LINE
  5
F3E6E
  8
OBJECT
 10
494.94130799999988
 20
441.28097299999979
 30
0.0
 11
494.79403400000001
 21
441.235929
 31
0.0
  0
LINE
  5
F3E6F
  8
OBJECT
 10
494.79403400000001
 20
441.235929
 30
0.0
 11
494.64681699999988
 21
441.19068399999992
 31
0.0
  0
LINE
  5
F3E70
  8
OBJECT
 10
494.64681699999988
 20
441.19068399999992
 30
0.0
 11
494.49965200000003
 21
441.14524199999988
 31
0.0
  0
LINE
  5
F3E71
  8
OBJECT
 10
494.49965200000003
 20
441.14524199999988
 30
0.0
 11
494.35253599999987
 21
441.09960599999999
 31
0.0
  0
LINE
  5
F3E72
  8
OBJECT
 10
494.35253599999987
 20
441.09960599999999
 30
0.0
 11
494.21006199999988
 21
441.05521399999998
 31
0.0
  0
LINE
  5
F3E73
  8
OBJECT
 10
494.21006199999988
 20
441.05521399999998
 30
0.0
 11
494.067632
 21
441.01064599999989
 31
0.0
  0
LINE
  5
F3E74
  8
OBJECT
 10
494.067632
 20
441.01064599999989
 30
0.0
 11
493.92524500000002
 21
440.96590500000002
 31
0.0
  0
LINE
  5
F3E75
  8
OBJECT
 10
493.92524500000002
 20
440.96590500000002
 30
0.0
 11
493.78290399999992
 21
440.92099300000001
 31
0.0
  0
LINE
  5
F3E76
  8
OBJECT
 10
493.78290399999992
 20
440.92099300000001
 30
0.0
 11
493.64060699999987
 21
440.87591300000003
 31
0.0
  0
LINE
  5
F3E77
  8
OBJECT
 10
493.64060699999987
 20
440.87591300000003
 30
0.0
 11
493.49835599999989
 21
440.83066799999989
 31
0.0
  0
LINE
  5
F3E78
  8
OBJECT
 10
493.49835599999989
 20
440.83066799999989
 30
0.0
 11
493.35615200000018
 21
440.78526099999988
 31
0.0
  0
LINE
  5
F3E79
  8
OBJECT
 10
493.35615200000018
 20
440.78526099999988
 30
0.0
 11
493.21399399999979
 21
440.73969399999987
 31
0.0
  0
LINE
  5
F3E7A
  8
OBJECT
 10
493.21399399999979
 20
440.73969399999987
 30
0.0
 11
493.07188399999978
 21
440.69397099999992
 31
0.0
  0
LINE
  5
F3E7B
  8
OBJECT
 10
493.07188399999978
 20
440.69397099999992
 30
0.0
 11
492.92982199999989
 21
440.64809399999979
 31
0.0
  0
LINE
  5
F3E7C
  8
OBJECT
 10
492.92982199999989
 20
440.64809399999979
 30
0.0
 11
492.78780799999993
 21
440.60206499999998
 31
0.0
  0
LINE
  5
F3E7D
  8
OBJECT
 10
492.78780799999993
 20
440.60206499999998
 30
0.0
 11
492.64584400000001
 21
440.5558880000001
 31
0.0
  0
LINE
  5
F3E7E
  8
OBJECT
 10
492.64584400000001
 20
440.5558880000001
 30
0.0
 11
492.50392899999991
 21
440.50956599999989
 31
0.0
  0
LINE
  5
F3E7F
  8
OBJECT
 10
492.50392899999991
 20
440.50956599999989
 30
0.0
 11
492.36206400000009
 21
440.4631
 31
0.0
  0
LINE
  5
F3E80
  8
OBJECT
 10
492.36206400000009
 20
440.4631
 30
0.0
 11
492.22025099999991
 21
440.416495
 31
0.0
  0
LINE
  5
F3E81
  8
OBJECT
 10
492.22025099999991
 20
440.416495
 30
0.0
 11
492.07848899999999
 21
440.36975200000001
 31
0.0
  0
LINE
  5
F3E82
  8
OBJECT
 10
492.07848899999999
 20
440.36975200000001
 30
0.0
 11
491.93677799999989
 21
440.32287499999973
 31
0.0
  0
LINE
  5
F3E83
  8
OBJECT
 10
491.93677799999989
 20
440.32287499999973
 30
0.0
 11
491.79512099999999
 21
440.27586599999989
 31
0.0
  0
LINE
  5
F3E84
  8
OBJECT
 10
491.79512099999999
 20
440.27586599999989
 30
0.0
 11
491.65351599999991
 21
440.22872799999999
 31
0.0
  0
LINE
  5
F3E85
  8
OBJECT
 10
491.65351599999991
 20
440.22872799999999
 30
0.0
 11
491.51196499999992
 21
440.18146400000001
 31
0.0
  0
LINE
  5
F3E86
  8
OBJECT
 10
491.51196499999992
 20
440.18146400000001
 30
0.0
 11
491.37815699999999
 21
440.13665399999979
 31
0.0
  0
LINE
  5
F3E87
  8
OBJECT
 10
491.37815699999999
 20
440.13665399999979
 30
0.0
 11
491.24439599999988
 21
440.09173600000003
 31
0.0
  0
LINE
  5
F3E88
  8
OBJECT
 10
491.24439599999988
 20
440.09173600000003
 30
0.0
 11
491.11067700000012
 21
440.04670900000002
 31
0.0
  0
LINE
  5
F3E89
  8
OBJECT
 10
491.11067700000012
 20
440.04670900000002
 30
0.0
 11
490.97699999999992
 21
440.00157399999989
 31
0.0
  0
LINE
  5
F3E8A
  8
OBJECT
 10
490.97699999999992
 20
440.00157399999989
 30
0.0
 11
490.8433610000003
 21
439.95633299999992
 31
0.0
  0
LINE
  5
F3E8B
  8
OBJECT
 10
490.8433610000003
 20
439.95633299999992
 30
0.0
 11
490.70975799999991
 21
439.91098599999998
 31
0.0
  0
LINE
  5
F3E8C
  8
OBJECT
 10
490.70975799999991
 20
439.91098599999998
 30
0.0
 11
490.576188
 21
439.86553499999991
 31
0.0
  0
LINE
  5
F3E8D
  8
OBJECT
 10
490.576188
 20
439.86553499999991
 30
0.0
 11
490.44264899999979
 21
439.81997899999988
 31
0.0
  0
LINE
  5
F3E8E
  8
OBJECT
 10
490.44264899999979
 20
439.81997899999988
 30
0.0
 11
490.30913799999979
 21
439.77432099999987
 31
0.0
  0
LINE
  5
F3E8F
  8
OBJECT
 10
490.30913799999979
 20
439.77432099999987
 30
0.0
 11
490.17565300000001
 21
439.72856099999979
 31
0.0
  0
LINE
  5
F3E90
  8
OBJECT
 10
490.17565300000001
 20
439.72856099999979
 30
0.0
 11
490.042191
 21
439.68270000000001
 31
0.0
  0
LINE
  5
F3E91
  8
OBJECT
 10
490.042191
 20
439.68270000000001
 30
0.0
 11
489.90874999999988
 21
439.63673899999992
 31
0.0
  0
LINE
  5
F3E92
  8
OBJECT
 10
489.90874999999988
 20
439.63673899999992
 30
0.0
 11
489.77532699999989
 21
439.59067800000003
 31
0.0
  0
LINE
  5
F3E93
  8
OBJECT
 10
489.77532699999989
 20
439.59067800000003
 30
0.0
 11
489.64192000000003
 21
439.54451999999998
 31
0.0
  0
LINE
  5
F3E94
  8
OBJECT
 10
489.64192000000003
 20
439.54451999999998
 30
0.0
 11
489.50852600000002
 21
439.49826499999972
 31
0.0
  0
LINE
  5
F3E95
  8
OBJECT
 10
489.50852600000002
 20
439.49826499999972
 30
0.0
 11
489.37514299999998
 21
439.45191299999988
 31
0.0
  0
LINE
  5
F3E96
  8
OBJECT
 10
489.37514299999998
 20
439.45191299999988
 30
0.0
 11
489.24176699999992
 21
439.40546599999999
 31
0.0
  0
LINE
  5
F3E97
  8
OBJECT
 10
489.24176699999992
 20
439.40546599999999
 30
0.0
 11
489.10839799999991
 21
439.35892499999989
 31
0.0
  0
LINE
  5
F3E98
  8
OBJECT
 10
489.10839799999991
 20
439.35892499999989
 30
0.0
 11
488.97503099999989
 21
439.31228999999979
 31
0.0
  0
LINE
  5
F3E99
  8
OBJECT
 10
488.97503099999989
 20
439.31228999999979
 30
0.0
 11
488.84166399999992
 21
439.26556299999999
 31
0.0
  0
LINE
  5
F3E9A
  8
OBJECT
 10
488.84166399999992
 20
439.26556299999999
 30
0.0
 11
488.68629700000002
 21
439.21100999999999
 31
0.0
  0
LINE
  5
F3E9B
  8
OBJECT
 10
488.68629700000002
 20
439.21100999999999
 30
0.0
 11
488.53094199999992
 21
439.15632199999999
 31
0.0
  0
LINE
  5
F3E9C
  8
OBJECT
 10
488.53094199999992
 20
439.15632199999999
 30
0.0
 11
488.3756120000001
 21
439.10149000000001
 31
0.0
  0
LINE
  5
F3E9D
  8
OBJECT
 10
488.3756120000001
 20
439.10149000000001
 30
0.0
 11
488.22032100000001
 21
439.04650399999991
 31
0.0
  0
LINE
  5
F3E9E
  8
OBJECT
 10
488.22032100000001
 20
439.04650399999991
 30
0.0
 11
488.06508399999979
 21
438.99135199999989
 31
0.0
  0
LINE
  5
F3E9F
  8
OBJECT
 10
488.06508399999979
 20
438.99135199999989
 30
0.0
 11
487.90991400000001
 21
438.93602499999997
 31
0.0
  0
LINE
  5
F3EA0
  8
OBJECT
 10
487.90991400000001
 20
438.93602499999997
 30
0.0
 11
487.75482599999981
 21
438.88051300000001
 31
0.0
  0
LINE
  5
F3EA1
  8
OBJECT
 10
487.75482599999981
 20
438.88051300000001
 30
0.0
 11
487.59983399999987
 21
438.82480599999991
 31
0.0
  0
LINE
  5
F3EA2
  8
OBJECT
 10
487.59983399999987
 20
438.82480599999991
 30
0.0
 11
487.44495199999989
 21
438.76889199999999
 31
0.0
  0
LINE
  5
F3EA3
  8
OBJECT
 10
487.44495199999989
 20
438.76889199999999
 30
0.0
 11
487.29019399999987
 21
438.712763
 31
0.0
  0
LINE
  5
F3EA4
  8
OBJECT
 10
487.29019399999987
 20
438.712763
 30
0.0
 11
487.13557400000002
 21
438.656408
 31
0.0
  0
LINE
  5
F3EA5
  8
OBJECT
 10
487.13557400000002
 20
438.656408
 30
0.0
 11
486.98110599999978
 21
438.59981699999992
 31
0.0
  0
LINE
  5
F3EA6
  8
OBJECT
 10
486.98110599999978
 20
438.59981699999992
 30
0.0
 11
486.82680399999998
 21
438.54297999999989
 31
0.0
  0
LINE
  5
F3EA7
  8
OBJECT
 10
486.82680399999998
 20
438.54297999999989
 30
0.0
 11
486.67268200000001
 21
438.48588499999988
 31
0.0
  0
LINE
  5
F3EA8
  8
OBJECT
 10
486.67268200000001
 20
438.48588499999988
 30
0.0
 11
486.51875499999989
 21
438.42852399999992
 31
0.0
  0
LINE
  5
F3EA9
  8
OBJECT
 10
486.51875499999989
 20
438.42852399999992
 30
0.0
 11
486.36503599999998
 21
438.37088599999993
 31
0.0
  0
LINE
  5
F3EAA
  8
OBJECT
 10
486.36503599999998
 20
438.37088599999993
 30
0.0
 11
486.21153900000002
 21
438.31296200000003
 31
0.0
  0
LINE
  5
F3EAB
  8
OBJECT
 10
486.21153900000002
 20
438.31296200000003
 30
0.0
 11
486.05827899999991
 21
438.25473899999997
 31
0.0
  0
LINE
  5
F3EAC
  8
OBJECT
 10
486.05827899999991
 20
438.25473899999997
 30
0.0
 11
485.90527000000031
 21
438.19620999999989
 31
0.0
  0
LINE
  5
F3EAD
  8
OBJECT
 10
485.90527000000031
 20
438.19620999999989
 30
0.0
 11
485.75252499999999
 21
438.13736199999988
 31
0.0
  0
LINE
  5
F3EAE
  8
OBJECT
 10
485.75252499999999
 20
438.13736199999988
 30
0.0
 11
485.61977399999989
 21
438.08586499999979
 31
0.0
  0
LINE
  5
F3EAF
  8
OBJECT
 10
485.61977399999989
 20
438.08586499999979
 30
0.0
 11
485.48720999999972
 21
438.03410999999988
 31
0.0
  0
LINE
  5
F3EB0
  8
OBJECT
 10
485.48720999999972
 20
438.03410999999988
 30
0.0
 11
485.35480799999988
 21
437.98208699999992
 31
0.0
  0
LINE
  5
F3EB1
  8
OBJECT
 10
485.35480799999988
 20
437.98208699999992
 30
0.0
 11
485.22254400000031
 21
437.92978599999998
 31
0.0
  0
LINE
  5
F3EB2
  8
OBJECT
 10
485.22254400000031
 20
437.92978599999998
 30
0.0
 11
485.09039399999989
 21
437.87719799999979
 31
0.0
  0
LINE
  5
F3EB3
  8
OBJECT
 10
485.09039399999989
 20
437.87719799999979
 30
0.0
 11
484.95833299999993
 21
437.82431199999991
 31
0.0
  0
LINE
  5
F3EB4
  8
OBJECT
 10
484.95833299999993
 20
437.82431199999991
 30
0.0
 11
484.82633700000031
 21
437.77111899999989
 31
0.0
  0
LINE
  5
F3EB5
  8
OBJECT
 10
484.82633700000031
 20
437.77111899999989
 30
0.0
 11
484.69438199999991
 21
437.71760899999981
 31
0.0
  0
LINE
  5
F3EB6
  8
OBJECT
 10
484.69438199999991
 20
437.71760899999981
 30
0.0
 11
484.56244299999992
 21
437.66377299999988
 31
0.0
  0
LINE
  5
F3EB7
  8
OBJECT
 10
484.56244299999992
 20
437.66377299999988
 30
0.0
 11
484.43049599999989
 21
437.6096
 31
0.0
  0
LINE
  5
F3EB8
  8
OBJECT
 10
484.43049599999989
 20
437.6096
 30
0.0
 11
484.29851599999989
 21
437.55507999999998
 31
0.0
  0
LINE
  5
F3EB9
  8
OBJECT
 10
484.29851599999989
 20
437.55507999999998
 30
0.0
 11
484.16647899999998
 21
437.50020499999988
 31
0.0
  0
LINE
  5
F3EBA
  8
OBJECT
 10
484.16647899999998
 20
437.50020499999988
 30
0.0
 11
484.03436100000022
 21
437.44496299999997
 31
0.0
  0
LINE
  5
F3EBB
  8
OBJECT
 10
484.03436100000022
 20
437.44496299999997
 30
0.0
 11
483.90213599999993
 21
437.38934699999987
 31
0.0
  0
LINE
  5
F3EBC
  8
OBJECT
 10
483.90213599999993
 20
437.38934699999987
 30
0.0
 11
483.76978199999979
 21
437.33334399999978
 31
0.0
  0
LINE
  5
F3EBD
  8
OBJECT
 10
483.76978199999979
 20
437.33334399999978
 30
0.0
 11
483.63727299999988
 21
437.27694700000001
 31
0.0
  0
LINE
  5
F3EBE
  8
OBJECT
 10
483.63727299999988
 20
437.27694700000001
 30
0.0
 11
483.50458500000002
 21
437.22014399999989
 31
0.0
  0
LINE
  5
F3EBF
  8
OBJECT
 10
483.50458500000002
 20
437.22014399999989
 30
0.0
 11
483.37169399999988
 21
437.1629269999998
 31
0.0
  0
LINE
  5
F3EC0
  8
OBJECT
 10
483.37169399999988
 20
437.1629269999998
 30
0.0
 11
483.23857499999991
 21
437.10528499999981
 31
0.0
  0
LINE
  5
F3EC1
  8
OBJECT
 10
483.23857499999991
 20
437.10528499999981
 30
0.0
 11
483.10520400000013
 21
437.04720899999978
 31
0.0
  0
LINE
  5
F3EC2
  8
OBJECT
 10
483.10520400000013
 20
437.04720899999978
 30
0.0
 11
482.96937300000002
 21
436.98773199999988
 31
0.0
  0
LINE
  5
F3EC3
  8
OBJECT
 10
482.96937300000002
 20
436.98773199999988
 30
0.0
 11
482.833348
 21
436.92784999999998
 31
0.0
  0
LINE
  5
F3EC4
  8
OBJECT
 10
482.833348
 20
436.92784999999998
 30
0.0
 11
482.69722200000001
 21
436.86761699999988
 31
0.0
  0
LINE
  5
F3EC5
  8
OBJECT
 10
482.69722200000001
 20
436.86761699999988
 30
0.0
 11
482.56108399999988
 21
436.80708699999991
 31
0.0
  0
LINE
  5
F3EC6
  8
OBJECT
 10
482.56108399999988
 20
436.80708699999991
 30
0.0
 11
482.425028
 21
436.74631299999987
 31
0.0
  0
LINE
  5
F3EC7
  8
OBJECT
 10
482.425028
 20
436.74631299999987
 30
0.0
 11
482.28914500000008
 21
436.68534899999992
 31
0.0
  0
LINE
  5
F3EC8
  8
OBJECT
 10
482.28914500000008
 20
436.68534899999992
 30
0.0
 11
482.15352699999988
 21
436.62424900000002
 31
0.0
  0
LINE
  5
F3EC9
  8
OBJECT
 10
482.15352699999988
 20
436.62424900000002
 30
0.0
 11
482.01826599999993
 21
436.56306699999988
 31
0.0
  0
LINE
  5
F3ECA
  8
OBJECT
 10
482.01826599999993
 20
436.56306699999988
 30
0.0
 11
481.88345299999997
 21
436.50185699999997
 31
0.0
  0
LINE
  5
F3ECB
  8
OBJECT
 10
481.88345299999997
 20
436.50185699999997
 30
0.0
 11
481.74917999999991
 21
436.44067199999989
 31
0.0
  0
LINE
  5
F3ECC
  8
OBJECT
 10
481.74917999999991
 20
436.44067199999989
 30
0.0
 11
481.61553900000001
 21
436.37956600000001
 31
0.0
  0
LINE
  5
F3ECD
  8
OBJECT
 10
481.61553900000001
 20
436.37956600000001
 30
0.0
 11
481.48262199999988
 21
436.31859299999991
 31
0.0
  0
LINE
  5
F3ECE
  8
OBJECT
 10
481.48262199999988
 20
436.31859299999991
 30
0.0
 11
481.35052000000002
 21
436.25780700000001
 31
0.0
  0
LINE
  5
F3ECF
  8
OBJECT
 10
481.35052000000002
 20
436.25780700000001
 30
0.0
 11
481.21932499999991
 21
436.19726199999991
 31
0.0
  0
LINE
  5
F3ED0
  8
OBJECT
 10
481.21932499999991
 20
436.19726199999991
 30
0.0
 11
481.0891289999999
 21
436.13701099999997
 31
0.0
  0
LINE
  5
F3ED1
  8
OBJECT
 10
481.0891289999999
 20
436.13701099999997
 30
0.0
 11
480.96002399999992
 21
436.07710900000001
 31
0.0
  0
LINE
  5
F3ED2
  8
OBJECT
 10
480.96002399999992
 20
436.07710900000001
 30
0.0
 11
480.83210099999991
 21
436.01760899999999
 31
0.0
  0
LINE
  5
F3ED3
  8
OBJECT
 10
480.83210099999991
 20
436.01760899999999
 30
0.0
 11
480.70545299999998
 21
435.9585639999998
 31
0.0
  0
LINE
  5
F3ED4
  8
OBJECT
 10
480.70545299999998
 20
435.9585639999998
 30
0.0
 11
480.5801699999999
 21
435.90002899999979
 31
0.0
  0
LINE
  5
F3ED5
  8
OBJECT
 10
480.5801699999999
 20
435.90002899999979
 30
0.0
 11
480.45634599999988
 21
435.84205799999989
 31
0.0
  0
LINE
  5
F3ED6
  8
OBJECT
 10
480.45634599999988
 20
435.84205799999989
 30
0.0
 11
480.3295099999998
 21
435.78255999999988
 31
0.0
  0
LINE
  5
F3ED7
  8
OBJECT
 10
480.3295099999998
 20
435.78255999999988
 30
0.0
 11
480.20396599999992
 21
435.72354199999978
 31
0.0
  0
LINE
  5
F3ED8
  8
OBJECT
 10
480.20396599999992
 20
435.72354199999978
 30
0.0
 11
480.07933799999989
 21
435.66482000000008
 31
0.0
  0
LINE
  5
F3ED9
  8
OBJECT
 10
480.07933799999989
 20
435.66482000000008
 30
0.0
 11
479.95524999999992
 21
435.60620899999998
 31
0.0
  0
LINE
  5
F3EDA
  8
OBJECT
 10
479.95524999999992
 20
435.60620899999998
 30
0.0
 11
479.8313270000001
 21
435.547528
 31
0.0
  0
LINE
  5
F3EDB
  8
OBJECT
 10
479.8313270000001
 20
435.547528
 30
0.0
 11
479.70719500000013
 21
435.48858999999999
 31
0.0
  0
LINE
  5
F3EDC
  8
OBJECT
 10
479.70719500000013
 20
435.48858999999999
 30
0.0
 11
479.58247799999998
 21
435.429213
 31
0.0
  0
LINE
  5
F3EDD
  8
OBJECT
 10
479.58247799999998
 20
435.429213
 30
0.0
 11
479.45680199999993
 21
435.36921299999989
 31
0.0
  0
LINE
  5
F3EDE
  8
OBJECT
 10
479.45680199999993
 20
435.36921299999989
 30
0.0
 11
479.32978999999989
 21
435.30840499999988
 31
0.0
  0
LINE
  5
F3EDF
  8
OBJECT
 10
479.32978999999989
 20
435.30840499999988
 30
0.0
 11
479.20106799999968
 21
435.24660699999998
 31
0.0
  0
LINE
  5
F3EE0
  8
OBJECT
 10
479.20106799999968
 20
435.24660699999998
 30
0.0
 11
479.07026200000013
 21
435.18363299999999
 31
0.0
  0
LINE
  5
F3EE1
  8
OBJECT
 10
479.07026200000013
 20
435.18363299999999
 30
0.0
 11
478.93699500000002
 21
435.11929999999978
 31
0.0
  0
LINE
  5
F3EE2
  8
OBJECT
 10
478.93699500000002
 20
435.11929999999978
 30
0.0
 11
478.80089199999998
 21
435.05342499999989
 31
0.0
  0
LINE
  5
F3EE3
  8
OBJECT
 10
478.80089199999998
 20
435.05342499999989
 30
0.0
 11
478.6615789999999
 21
434.98582399999992
 31
0.0
  0
LINE
  5
F3EE4
  8
OBJECT
 10
478.6615789999999
 20
434.98582399999992
 30
0.0
 11
478.51868099999979
 21
434.91631100000001
 31
0.0
  0
LINE
  5
F3EE5
  8
OBJECT
 10
478.51868099999979
 20
434.91631100000001
 30
0.0
 11
478.37182199999978
 21
434.84470499999981
 31
0.0
  0
LINE
  5
F3EE6
  8
OBJECT
 10
478.37182199999978
 20
434.84470499999981
 30
0.0
 11
478.22062699999992
 21
434.77082000000001
 31
0.0
  0
LINE
  5
F3EE7
  8
OBJECT
 10
478.22062699999992
 20
434.77082000000001
 30
0.0
 11
478.06472100000002
 21
434.69447299999979
 31
0.0
  0
LINE
  5
F3EE8
  8
OBJECT
 10
478.06472100000002
 20
434.69447299999979
 30
0.0
 11
477.90372899999988
 21
434.61548099999987
 31
0.0
  0
LINE
  5
F3EE9
  8
OBJECT
 10
477.90372899999988
 20
434.61548099999987
 30
0.0
 11
477.73727599999989
 21
434.533658
 31
0.0
  0
LINE
  5
F3EEA
  8
OBJECT
 10
477.73727599999989
 20
434.533658
 30
0.0
 11
477.53975699999978
 21
434.43638999999979
 31
0.0
  0
LINE
  5
F3EEB
  8
OBJECT
 10
477.53975699999978
 20
434.43638999999979
 30
0.0
 11
477.3363129999999
 21
434.33603899999991
 31
0.0
  0
LINE
  5
F3EEC
  8
OBJECT
 10
477.3363129999999
 20
434.33603899999991
 30
0.0
 11
477.12867999999992
 21
434.23347799999988
 31
0.0
  0
LINE
  5
F3EED
  8
OBJECT
 10
477.12867999999992
 20
434.23347799999988
 30
0.0
 11
476.91859499999993
 21
434.12957899999998
 31
0.0
  0
LINE
  5
F3EEE
  8
OBJECT
 10
476.91859499999993
 20
434.12957899999998
 30
0.0
 11
476.70779199999993
 21
434.02521499999989
 31
0.0
  0
LINE
  5
F3EEF
  8
OBJECT
 10
476.70779199999993
 20
434.02521499999989
 30
0.0
 11
476.49800799999991
 21
433.92125900000002
 31
0.0
  0
LINE
  5
F3EF0
  8
OBJECT
 10
476.49800799999991
 20
433.92125900000002
 30
0.0
 11
476.29097899999999
 21
433.81858399999999
 31
0.0
  0
LINE
  5
F3EF1
  8
OBJECT
 10
476.29097899999999
 20
433.81858399999999
 30
0.0
 11
476.08844199999987
 21
433.7180619999998
 31
0.0
  0
LINE
  5
F3EF2
  8
OBJECT
 10
476.08844199999987
 20
433.7180619999998
 30
0.0
 11
475.89213099999989
 21
433.62056699999999
 31
0.0
  0
LINE
  5
F3EF3
  8
OBJECT
 10
475.89213099999989
 20
433.62056699999999
 30
0.0
 11
475.70378299999987
 21
433.52697000000001
 31
0.0
  0
LINE
  5
F3EF4
  8
OBJECT
 10
475.70378299999987
 20
433.52697000000001
 30
0.0
 11
475.52513399999992
 21
433.43814599999979
 31
0.0
  0
LINE
  5
F3EF5
  8
OBJECT
 10
475.52513399999992
 20
433.43814599999979
 30
0.0
 11
475.35791999999992
 21
433.35496599999999
 31
0.0
  0
LINE
  5
F3EF6
  8
OBJECT
 10
475.35791999999992
 20
433.35496599999999
 30
0.0
 11
475.20387599999992
 21
433.27830299999988
 31
0.0
  0
LINE
  5
F3EF7
  8
OBJECT
 10
475.20387599999992
 20
433.27830299999988
 30
0.0
 11
475.06473999999992
 21
433.20902999999993
 31
0.0
  0
LINE
  5
F3EF8
  8
OBJECT
 10
475.06473999999992
 20
433.20902999999993
 30
0.0
 11
474.9422459999999
 21
433.14801999999992
 31
0.0
  0
LINE
  5
F3EF9
  8
OBJECT
 10
474.9422459999999
 20
433.14801999999992
 30
0.0
 11
474.83813099999998
 21
433.09614599999998
 31
0.0
  0
LINE
  5
F3EFA
  8
OBJECT
 10
474.83813099999998
 20
433.09614599999998
 30
0.0
 11
474.75413099999992
 21
433.05427999999989
 31
0.0
  0
LINE
  5
F3EFB
  8
OBJECT
 10
474.75413099999992
 20
433.05427999999989
 30
0.0
 11
474.69198199999988
 21
433.02329600000002
 31
0.0
  0
LINE
  5
F3EFC
  8
OBJECT
 10
474.69198199999988
 20
433.02329600000002
 30
0.0
 11
474.6534190000001
 21
433.00406499999991
 31
0.0
  0
LINE
  5
F3EFD
  8
OBJECT
 10
474.6534190000001
 20
433.00406499999991
 30
0.0
 11
474.64017899999999
 21
432.99745999999988
 31
0.0
  0
LINE
  5
F3EFE
  8
OBJECT
 10
559.49299299999996
 20
432.99745999999988
 30
0.0
 11
559.48334199999977
 21
433.00287199999991
 31
0.0
  0
LINE
  5
F3EFF
  8
OBJECT
 10
559.48334199999977
 20
433.00287199999991
 30
0.0
 11
559.45520999999962
 21
433.01864399999999
 31
0.0
  0
LINE
  5
F3F00
  8
OBJECT
 10
559.45520999999962
 20
433.01864399999999
 30
0.0
 11
559.40983100000005
 21
433.04408099999989
 31
0.0
  0
LINE
  5
F3F01
  8
OBJECT
 10
559.40983100000005
 20
433.04408099999989
 30
0.0
 11
559.34843699999976
 21
433.07848799999999
 31
0.0
  0
LINE
  5
F3F02
  8
OBJECT
 10
559.34843699999976
 20
433.07848799999999
 30
0.0
 11
559.27226099999996
 21
433.12116999999989
 31
0.0
  0
LINE
  5
F3F03
  8
OBJECT
 10
559.27226099999996
 20
433.12116999999989
 30
0.0
 11
559.18253600000003
 21
433.17143199999992
 31
0.0
  0
LINE
  5
F3F04
  8
OBJECT
 10
559.18253600000003
 20
433.17143199999992
 30
0.0
 11
559.08049499999981
 21
433.22857899999991
 31
0.0
  0
LINE
  5
F3F05
  8
OBJECT
 10
559.08049499999981
 20
433.22857899999991
 30
0.0
 11
558.96736999999985
 21
433.29191699999978
 31
0.0
  0
LINE
  5
F3F06
  8
OBJECT
 10
558.96736999999985
 20
433.29191699999978
 30
0.0
 11
558.84439499999985
 21
433.360749
 31
0.0
  0
LINE
  5
F3F07
  8
OBJECT
 10
558.84439499999985
 20
433.360749
 30
0.0
 11
558.71280200000012
 21
433.43438200000003
 31
0.0
  0
LINE
  5
F3F08
  8
OBJECT
 10
558.71280200000012
 20
433.43438200000003
 30
0.0
 11
558.57382399999995
 21
433.51211999999992
 31
0.0
  0
LINE
  5
F3F09
  8
OBJECT
 10
558.57382399999995
 20
433.51211999999992
 30
0.0
 11
558.42869399999995
 21
433.59326799999991
 31
0.0
  0
LINE
  5
F3F0A
  8
OBJECT
 10
558.42869399999995
 20
433.59326799999991
 30
0.0
 11
558.27864400000033
 21
433.67713200000009
 31
0.0
  0
LINE
  5
F3F0B
  8
OBJECT
 10
558.27864400000033
 20
433.67713200000009
 30
0.0
 11
558.12490799999989
 21
433.76301599999988
 31
0.0
  0
LINE
  5
F3F0C
  8
OBJECT
 10
558.12490799999989
 20
433.76301599999988
 30
0.0
 11
557.96871900000031
 21
433.85022400000008
 31
0.0
  0
LINE
  5
F3F0D
  8
OBJECT
 10
557.96871900000031
 20
433.85022400000008
 30
0.0
 11
557.81130800000005
 21
433.93806399999988
 31
0.0
  0
LINE
  5
F3F0E
  8
OBJECT
 10
557.81130800000005
 20
433.93806399999988
 30
0.0
 11
557.65390999999966
 21
434.02583800000002
 31
0.0
  0
LINE
  5
F3F0F
  8
OBJECT
 10
557.65390999999966
 20
434.02583800000002
 30
0.0
 11
557.49775599999975
 21
434.11285299999992
 31
0.0
  0
LINE
  5
F3F10
  8
OBJECT
 10
557.49775599999975
 20
434.11285299999992
 30
0.0
 11
557.34407999999985
 21
434.19841199999991
 31
0.0
  0
LINE
  5
F3F11
  8
OBJECT
 10
557.34407999999985
 20
434.19841199999991
 30
0.0
 11
557.19411499999978
 21
434.2818229999998
 31
0.0
  0
LINE
  5
F3F12
  8
OBJECT
 10
557.19411499999978
 20
434.2818229999998
 30
0.0
 11
557.028955
 21
434.37356799999992
 31
0.0
  0
LINE
  5
F3F13
  8
OBJECT
 10
557.028955
 20
434.37356799999992
 30
0.0
 11
556.86979699999995
 21
434.46184399999993
 31
0.0
  0
LINE
  5
F3F14
  8
OBJECT
 10
556.86979699999995
 20
434.46184399999993
 30
0.0
 11
556.71622499999989
 21
434.546874
 31
0.0
  0
LINE
  5
F3F15
  8
OBJECT
 10
556.71622499999989
 20
434.546874
 30
0.0
 11
556.56782199999986
 21
434.6288829999998
 31
0.0
  0
LINE
  5
F3F16
  8
OBJECT
 10
556.56782199999986
 20
434.6288829999998
 30
0.0
 11
556.424172
 21
434.70809300000002
 31
0.0
  0
LINE
  5
F3F17
  8
OBJECT
 10
556.424172
 20
434.70809300000002
 30
0.0
 11
556.28485899999976
 21
434.7847289999998
 31
0.0
  0
LINE
  5
F3F18
  8
OBJECT
 10
556.28485899999976
 20
434.7847289999998
 30
0.0
 11
556.14946499999985
 21
434.85901399999989
 31
0.0
  0
LINE
  5
F3F19
  8
OBJECT
 10
556.14946499999985
 20
434.85901399999989
 30
0.0
 11
556.01757599999985
 21
434.931174
 31
0.0
  0
LINE
  5
F3F1A
  8
OBJECT
 10
556.01757599999985
 20
434.931174
 30
0.0
 11
555.8887739999999
 21
435.00143000000003
 31
0.0
  0
LINE
  5
F3F1B
  8
OBJECT
 10
555.8887739999999
 20
435.00143000000003
 30
0.0
 11
555.76264299999991
 21
435.07000799999997
 31
0.0
  0
LINE
  5
F3F1C
  8
OBJECT
 10
555.76264299999991
 20
435.07000799999997
 30
0.0
 11
555.63876699999992
 21
435.13713099999973
 31
0.0
  0
LINE
  5
F3F1D
  8
OBJECT
 10
555.63876699999992
 20
435.13713099999973
 30
0.0
 11
555.51673000000005
 21
435.20302299999992
 31
0.0
  0
LINE
  5
F3F1E
  8
OBJECT
 10
555.51673000000005
 20
435.20302299999992
 30
0.0
 11
555.39611400000001
 21
435.26790799999992
 31
0.0
  0
LINE
  5
F3F1F
  8
OBJECT
 10
555.39611400000001
 20
435.26790799999992
 30
0.0
 11
555.27650399999993
 21
435.33200999999991
 31
0.0
  0
LINE
  5
F3F20
  8
OBJECT
 10
555.27650399999993
 20
435.33200999999991
 30
0.0
 11
555.15748299999996
 21
435.39555300000001
 31
0.0
  0
LINE
  5
F3F21
  8
OBJECT
 10
555.15748299999996
 20
435.39555300000001
 30
0.0
 11
555.038635
 21
435.45875999999998
 31
0.0
  0
LINE
  5
F3F22
  8
OBJECT
 10
555.038635
 20
435.45875999999998
 30
0.0
 11
554.91954399999997
 21
435.52185500000002
 31
0.0
  0
LINE
  5
F3F23
  8
OBJECT
 10
554.91954399999997
 20
435.52185500000002
 30
0.0
 11
554.79979299999991
 21
435.58506299999988
 31
0.0
  0
LINE
  5
F3F24
  8
OBJECT
 10
554.79979299999991
 20
435.58506299999988
 30
0.0
 11
554.67896499999995
 21
435.64860700000003
 31
0.0
  0
LINE
  5
F3F25
  8
OBJECT
 10
554.67896499999995
 20
435.64860700000003
 30
0.0
 11
554.55664599999977
 21
435.71271100000001
 31
0.0
  0
LINE
  5
F3F26
  8
OBJECT
 10
554.55664599999977
 20
435.71271100000001
 30
0.0
 11
554.44285899999977
 21
435.77214999999973
 31
0.0
  0
LINE
  5
F3F27
  8
OBJECT
 10
554.44285899999977
 20
435.77214999999973
 30
0.0
 11
554.32755999999995
 21
435.83219099999991
 31
0.0
  0
LINE
  5
F3F28
  8
OBJECT
 10
554.32755999999995
 20
435.83219099999991
 30
0.0
 11
554.21084099999985
 21
435.89277900000002
 31
0.0
  0
LINE
  5
F3F29
  8
OBJECT
 10
554.21084099999985
 20
435.89277900000002
 30
0.0
 11
554.09279300000003
 21
435.95385499999992
 31
0.0
  0
LINE
  5
F3F2A
  8
OBJECT
 10
554.09279300000003
 20
435.95385499999992
 30
0.0
 11
553.97350999999992
 21
436.01536399999998
 31
0.0
  0
LINE
  5
F3F2B
  8
OBJECT
 10
553.97350999999992
 20
436.01536399999998
 30
0.0
 11
553.85308499999985
 21
436.077248
 31
0.0
  0
LINE
  5
F3F2C
  8
OBJECT
 10
553.85308499999985
 20
436.077248
 30
0.0
 11
553.73160999999993
 21
436.13945100000001
 31
0.0
  0
LINE
  5
F3F2D
  8
OBJECT
 10
553.73160999999993
 20
436.13945100000001
 30
0.0
 11
553.60917800000004
 21
436.20191499999999
 31
0.0
  0
LINE
  5
F3F2E
  8
OBJECT
 10
553.60917800000004
 20
436.20191499999999
 30
0.0
 11
553.48588099999995
 21
436.26458499999978
 31
0.0
  0
LINE
  5
F3F2F
  8
OBJECT
 10
553.48588099999995
 20
436.26458499999978
 30
0.0
 11
553.36181199999976
 21
436.327403
 31
0.0
  0
LINE
  5
F3F30
  8
OBJECT
 10
553.36181199999976
 20
436.327403
 30
0.0
 11
553.23706400000003
 21
436.39031199999988
 31
0.0
  0
LINE
  5
F3F31
  8
OBJECT
 10
553.23706400000003
 20
436.39031199999988
 30
0.0
 11
553.11172899999997
 21
436.45325599999978
 31
0.0
  0
LINE
  5
F3F32
  8
OBJECT
 10
553.11172899999997
 20
436.45325599999978
 30
0.0
 11
552.9859009999999
 21
436.51617800000002
 31
0.0
  0
LINE
  5
F3F33
  8
OBJECT
 10
552.9859009999999
 20
436.51617800000002
 30
0.0
 11
552.85967099999993
 21
436.57902099999978
 31
0.0
  0
LINE
  5
F3F34
  8
OBJECT
 10
552.85967099999993
 20
436.57902099999978
 30
0.0
 11
552.73313199999996
 21
436.641728
 31
0.0
  0
LINE
  5
F3F35
  8
OBJECT
 10
552.73313199999996
 20
436.641728
 30
0.0
 11
552.60637699999995
 21
436.70424300000002
 31
0.0
  0
LINE
  5
F3F36
  8
OBJECT
 10
552.60637699999995
 20
436.70424300000002
 30
0.0
 11
552.47949900000003
 21
436.76650799999999
 31
0.0
  0
LINE
  5
F3F37
  8
OBJECT
 10
552.47949900000003
 20
436.76650799999999
 30
0.0
 11
552.35258999999996
 21
436.82846699999999
 31
0.0
  0
LINE
  5
F3F38
  8
OBJECT
 10
552.35258999999996
 20
436.82846699999999
 30
0.0
 11
552.22574199999985
 21
436.89006299999988
 31
0.0
  0
LINE
  5
F3F39
  8
OBJECT
 10
552.22574199999985
 20
436.89006299999988
 30
0.0
 11
552.09904999999992
 21
436.95123999999993
 31
0.0
  0
LINE
  5
F3F3A
  8
OBJECT
 10
552.09904999999992
 20
436.95123999999993
 30
0.0
 11
551.94730700000002
 21
437.02404599999988
 31
0.0
  0
LINE
  5
F3F3B
  8
OBJECT
 10
551.94730700000002
 20
437.02404599999988
 30
0.0
 11
551.79589199999975
 21
437.09619999999978
 31
0.0
  0
LINE
  5
F3F3C
  8
OBJECT
 10
551.79589199999975
 20
437.09619999999978
 30
0.0
 11
551.64477599999998
 21
437.16773299999988
 31
0.0
  0
LINE
  5
F3F3D
  8
OBJECT
 10
551.64477599999998
 20
437.16773299999988
 30
0.0
 11
551.49392899999998
 21
437.23867799999999
 31
0.0
  0
LINE
  5
F3F3E
  8
OBJECT
 10
551.49392899999998
 20
437.23867799999999
 30
0.0
 11
551.34332400000005
 21
437.30907000000002
 31
0.0
  0
LINE
  5
F3F3F
  8
OBJECT
 10
551.34332400000005
 20
437.30907000000002
 30
0.0
 11
551.19293099999993
 21
437.37893999999972
 31
0.0
  0
LINE
  5
F3F40
  8
OBJECT
 10
551.19293099999993
 20
437.37893999999972
 30
0.0
 11
551.04272200000003
 21
437.44832200000002
 31
0.0
  0
LINE
  5
F3F41
  8
OBJECT
 10
551.04272200000003
 20
437.44832200000002
 30
0.0
 11
550.89266799999996
 21
437.51724899999988
 31
0.0
  0
LINE
  5
F3F42
  8
OBJECT
 10
550.89266799999996
 20
437.51724899999988
 30
0.0
 11
550.74274100000002
 21
437.58575399999989
 31
0.0
  0
LINE
  5
F3F43
  8
OBJECT
 10
550.74274100000002
 20
437.58575399999989
 30
0.0
 11
550.59291099999984
 21
437.65386999999998
 31
0.0
  0
LINE
  5
F3F44
  8
OBJECT
 10
550.59291099999984
 20
437.65386999999998
 30
0.0
 11
550.44315099999994
 21
437.72162899999989
 31
0.0
  0
LINE
  5
F3F45
  8
OBJECT
 10
550.44315099999994
 20
437.72162899999989
 30
0.0
 11
550.29342999999994
 21
437.78906599999999
 31
0.0
  0
LINE
  5
F3F46
  8
OBJECT
 10
550.29342999999994
 20
437.78906599999999
 30
0.0
 11
550.14372100000003
 21
437.8562119999998
 31
0.0
  0
LINE
  5
F3F47
  8
OBJECT
 10
550.14372100000003
 20
437.8562119999998
 30
0.0
 11
549.99399600000004
 21
437.9231009999998
 31
0.0
  0
LINE
  5
F3F48
  8
OBJECT
 10
549.99399600000004
 20
437.9231009999998
 30
0.0
 11
549.84422400000005
 21
437.98976599999997
 31
0.0
  0
LINE
  5
F3F49
  8
OBJECT
 10
549.84422400000005
 20
437.98976599999997
 30
0.0
 11
549.69437800000003
 21
438.05623999999989
 31
0.0
  0
LINE
  5
F3F4A
  8
OBJECT
 10
549.69437800000003
 20
438.05623999999989
 30
0.0
 11
549.54442900000004
 21
438.12255699999992
 31
0.0
  0
LINE
  5
F3F4B
  8
OBJECT
 10
549.54442900000004
 20
438.12255699999992
 30
0.0
 11
549.39434800000004
 21
438.18874799999992
 31
0.0
  0
LINE
  5
F3F4C
  8
OBJECT
 10
549.39434800000004
 20
438.18874799999992
 30
0.0
 11
549.24410599999987
 21
438.25484699999993
 31
0.0
  0
LINE
  5
F3F4D
  8
OBJECT
 10
549.24410599999987
 20
438.25484699999993
 30
0.0
 11
549.09367499999985
 21
438.3208869999998
 31
0.0
  0
LINE
  5
F3F4E
  8
OBJECT
 10
549.09367499999985
 20
438.3208869999998
 30
0.0
 11
548.91432499999985
 21
438.39945699999993
 31
0.0
  0
LINE
  5
F3F4F
  8
OBJECT
 10
548.91432499999985
 20
438.39945699999993
 30
0.0
 11
548.73468399999979
 21
438.47796699999992
 31
0.0
  0
LINE
  5
F3F50
  8
OBJECT
 10
548.73468399999979
 20
438.47796699999992
 30
0.0
 11
548.55477199999984
 21
438.55639100000002
 31
0.0
  0
LINE
  5
F3F51
  8
OBJECT
 10
548.55477199999984
 20
438.55639100000002
 30
0.0
 11
548.37460699999986
 21
438.634705
 31
0.0
  0
LINE
  5
F3F52
  8
OBJECT
 10
548.37460699999986
 20
438.634705
 30
0.0
 11
548.19420799999966
 21
438.7128849999998
 31
0.0
  0
LINE
  5
F3F53
  8
OBJECT
 10
548.19420799999966
 20
438.7128849999998
 30
0.0
 11
548.0135929999999
 21
438.79090600000001
 31
0.0
  0
LINE
  5
F3F54
  8
OBJECT
 10
548.0135929999999
 20
438.79090600000001
 30
0.0
 11
547.83278099999995
 21
438.86874399999988
 31
0.0
  0
LINE
  5
F3F55
  8
OBJECT
 10
547.83278099999995
 20
438.86874399999988
 30
0.0
 11
547.651791
 21
438.94637599999987
 31
0.0
  0
LINE
  5
F3F56
  8
OBJECT
 10
547.651791
 20
438.94637599999987
 30
0.0
 11
547.470642
 21
439.02377499999989
 31
0.0
  0
LINE
  5
F3F57
  8
OBJECT
 10
547.470642
 20
439.02377499999989
 30
0.0
 11
547.28935100000001
 21
439.10091899999998
 31
0.0
  0
LINE
  5
F3F58
  8
OBJECT
 10
547.28935100000001
 20
439.10091899999998
 30
0.0
 11
547.10793899999976
 21
439.17778199999992
 31
0.0
  0
LINE
  5
F3F59
  8
OBJECT
 10
547.10793899999976
 20
439.17778199999992
 30
0.0
 11
546.926422
 21
439.25434100000001
 31
0.0
  0
LINE
  5
F3F5A
  8
OBJECT
 10
546.926422
 20
439.25434100000001
 30
0.0
 11
546.74482099999977
 21
439.33057099999991
 31
0.0
  0
LINE
  5
F3F5B
  8
OBJECT
 10
546.74482099999977
 20
439.33057099999991
 30
0.0
 11
546.56315400000005
 21
439.40644700000001
 31
0.0
  0
LINE
  5
F3F5C
  8
OBJECT
 10
546.56315400000005
 20
439.40644700000001
 30
0.0
 11
546.381438
 21
439.48194599999988
 31
0.0
  0
LINE
  5
F3F5D
  8
OBJECT
 10
546.381438
 20
439.48194599999988
 30
0.0
 11
546.19969400000002
 21
439.55704199999991
 31
0.0
  0
LINE
  5
F3F5E
  8
OBJECT
 10
546.19969400000002
 20
439.55704199999991
 30
0.0
 11
546.01793999999995
 21
439.63171299999988
 31
0.0
  0
LINE
  5
F3F5F
  8
OBJECT
 10
546.01793999999995
 20
439.63171299999988
 30
0.0
 11
545.83619400000032
 21
439.70593200000002
 31
0.0
  0
LINE
  5
F3F60
  8
OBJECT
 10
545.83619400000032
 20
439.70593200000002
 30
0.0
 11
545.65447499999993
 21
439.77967699999999
 31
0.0
  0
LINE
  5
F3F61
  8
OBJECT
 10
545.65447499999993
 20
439.77967699999999
 30
0.0
 11
545.472801
 21
439.85292199999992
 31
0.0
  0
LINE
  5
F3F62
  8
OBJECT
 10
545.472801
 20
439.85292199999992
 30
0.0
 11
545.29887799999995
 21
439.92257999999993
 31
0.0
  0
LINE
  5
F3F63
  8
OBJECT
 10
545.29887799999995
 20
439.92257999999993
 30
0.0
 11
545.12497499999995
 21
439.99178499999999
 31
0.0
  0
LINE
  5
F3F64
  8
OBJECT
 10
545.12497499999995
 20
439.99178499999999
 30
0.0
 11
544.951054
 21
440.06056499999983
 31
0.0
  0
LINE
  5
F3F65
  8
OBJECT
 10
544.951054
 20
440.06056499999983
 30
0.0
 11
544.77707399999997
 21
440.12894699999998
 31
0.0
  0
LINE
  5
F3F66
  8
OBJECT
 10
544.77707399999997
 20
440.12894699999998
 30
0.0
 11
544.60299699999985
 21
440.19695899999999
 31
0.0
  0
LINE
  5
F3F67
  8
OBJECT
 10
544.60299699999985
 20
440.19695899999999
 30
0.0
 11
544.42878499999995
 21
440.26462799999979
 31
0.0
  0
LINE
  5
F3F68
  8
OBJECT
 10
544.42878499999995
 20
440.26462799999979
 30
0.0
 11
544.25439799999992
 21
440.33198099999998
 31
0.0
  0
LINE
  5
F3F69
  8
OBJECT
 10
544.25439799999992
 20
440.33198099999998
 30
0.0
 11
544.07979699999999
 21
440.399047
 31
0.0
  0
LINE
  5
F3F6A
  8
OBJECT
 10
544.07979699999999
 20
440.399047
 30
0.0
 11
543.90494299999978
 21
440.46585199999993
 31
0.0
  0
LINE
  5
F3F6B
  8
OBJECT
 10
543.90494299999978
 20
440.46585199999993
 30
0.0
 11
543.72979799999985
 21
440.53242399999988
 31
0.0
  0
LINE
  5
F3F6C
  8
OBJECT
 10
543.72979799999985
 20
440.53242399999988
 30
0.0
 11
543.55432199999996
 21
440.59879100000001
 31
0.0
  0
LINE
  5
F3F6D
  8
OBJECT
 10
543.55432199999996
 20
440.59879100000001
 30
0.0
 11
543.37847599999986
 21
440.66497899999979
 31
0.0
  0
LINE
  5
F3F6E
  8
OBJECT
 10
543.37847599999986
 20
440.66497899999979
 30
0.0
 11
543.20222200000001
 21
440.73101800000001
 31
0.0
  0
LINE
  5
F3F6F
  8
OBJECT
 10
543.20222200000001
 20
440.73101800000001
 30
0.0
 11
543.02552000000003
 21
440.79693299999991
 31
0.0
  0
LINE
  5
F3F70
  8
OBJECT
 10
543.02552000000003
 20
440.79693299999991
 30
0.0
 11
542.8483319999998
 21
440.86275199999989
 31
0.0
  0
LINE
  5
F3F71
  8
OBJECT
 10
542.8483319999998
 20
440.86275199999989
 30
0.0
 11
542.67061799999999
 21
440.92850399999992
 31
0.0
  0
LINE
  5
F3F72
  8
OBJECT
 10
542.67061799999999
 20
440.92850399999992
 30
0.0
 11
542.4923399999999
 21
440.99421499999988
 31
0.0
  0
LINE
  5
F3F73
  8
OBJECT
 10
542.4923399999999
 20
440.99421499999988
 30
0.0
 11
542.31345799999997
 21
441.05991299999999
 31
0.0
  0
LINE
  5
F3F74
  8
OBJECT
 10
542.31345799999997
 20
441.05991299999999
 30
0.0
 11
542.13393399999995
 21
441.12562600000001
 31
0.0
  0
LINE
  5
F3F75
  8
OBJECT
 10
542.13393399999995
 20
441.12562600000001
 30
0.0
 11
541.95372899999995
 21
441.19137999999992
 31
0.0
  0
LINE
  5
F3F76
  8
OBJECT
 10
541.95372899999995
 20
441.19137999999992
 30
0.0
 11
541.80149800000004
 21
441.24677299999991
 31
0.0
  0
LINE
  5
F3F77
  8
OBJECT
 10
541.80149800000004
 20
441.24677299999991
 30
0.0
 11
541.64886900000033
 21
441.30216200000001
 31
0.0
  0
LINE
  5
F3F78
  8
OBJECT
 10
541.64886900000033
 20
441.30216200000001
 30
0.0
 11
541.49595499999975
 21
441.35749399999997
 31
0.0
  0
LINE
  5
F3F79
  8
OBJECT
 10
541.49595499999975
 20
441.35749399999997
 30
0.0
 11
541.34286899999995
 21
441.41271399999988
 31
0.0
  0
LINE
  5
F3F7A
  8
OBJECT
 10
541.34286899999995
 20
441.41271399999988
 30
0.0
 11
541.18972299999996
 21
441.46776999999992
 31
0.0
  0
LINE
  5
F3F7B
  8
OBJECT
 10
541.18972299999996
 20
441.46776999999992
 30
0.0
 11
541.03662999999995
 21
441.52260899999987
 31
0.0
  0
LINE
  5
F3F7C
  8
OBJECT
 10
541.03662999999995
 20
441.52260899999987
 30
0.0
 11
540.88370299999985
 21
441.57717600000001
 31
0.0
  0
LINE
  5
F3F7D
  8
OBJECT
 10
540.88370299999985
 20
441.57717600000001
 30
0.0
 11
540.73105400000031
 21
441.63141899999999
 31
0.0
  0
LINE
  5
F3F7E
  8
OBJECT
 10
540.73105400000031
 20
441.63141899999999
 30
0.0
 11
540.57879600000001
 21
441.68528400000002
 31
0.0
  0
LINE
  5
F3F7F
  8
OBJECT
 10
540.57879600000001
 20
441.68528400000002
 30
0.0
 11
540.42704199999991
 21
441.73871800000001
 31
0.0
  0
LINE
  5
F3F80
  8
OBJECT
 10
540.42704199999991
 20
441.73871800000001
 30
0.0
 11
540.2759040000002
 21
441.79166699999979
 31
0.0
  0
LINE
  5
F3F81
  8
OBJECT
 10
540.2759040000002
 20
441.79166699999979
 30
0.0
 11
540.125495
 21
441.84407900000002
 31
0.0
  0
LINE
  5
F3F82
  8
OBJECT
 10
540.125495
 20
441.84407900000002
 30
0.0
 11
539.97592899999995
 21
441.89589899999999
 31
0.0
  0
LINE
  5
F3F83
  8
OBJECT
 10
539.97592899999995
 20
441.89589899999999
 30
0.0
 11
539.827316
 21
441.94707399999999
 31
0.0
  0
LINE
  5
F3F84
  8
OBJECT
 10
539.827316
 20
441.94707399999999
 30
0.0
 11
539.6797710000003
 21
441.99755199999998
 31
0.0
  0
LINE
  5
F3F85
  8
OBJECT
 10
539.6797710000003
 20
441.99755199999998
 30
0.0
 11
539.53340500000002
 21
442.04727799999989
 31
0.0
  0
LINE
  5
F3F86
  8
OBJECT
 10
539.53340500000002
 20
442.04727799999989
 30
0.0
 11
539.38833199999976
 21
442.09619900000001
 31
0.0
  0
LINE
  5
F3F87
  8
OBJECT
 10
539.38833199999976
 20
442.09619900000001
 30
0.0
 11
539.24466500000005
 21
442.14426199999991
 31
0.0
  0
LINE
  5
F3F88
  8
OBJECT
 10
539.24466500000005
 20
442.14426199999991
 30
0.0
 11
539.10251499999993
 21
442.19141300000001
 31
0.0
  0
LINE
  5
F3F89
  8
OBJECT
 10
539.10251499999993
 20
442.19141300000001
 30
0.0
 11
538.961995
 21
442.23759899999988
 31
0.0
  0
LINE
  5
F3F8A
  8
OBJECT
 10
538.961995
 20
442.23759899999988
 30
0.0
 11
538.76049
 21
442.30302999999992
 31
0.0
  0
LINE
  5
F3F8B
  8
OBJECT
 10
538.76049
 20
442.30302999999992
 30
0.0
 11
538.56182899999999
 21
442.36652699999979
 31
0.0
  0
LINE
  5
F3F8C
  8
OBJECT
 10
538.56182899999999
 20
442.36652699999979
 30
0.0
 11
538.36516599999993
 21
442.42831200000001
 31
0.0
  0
LINE
  5
F3F8D
  8
OBJECT
 10
538.36516599999993
 20
442.42831200000001
 30
0.0
 11
538.16965600000003
 21
442.488608
 31
0.0
  0
LINE
  5
F3F8E
  8
OBJECT
 10
538.16965600000003
 20
442.488608
 30
0.0
 11
537.97445300000004
 21
442.54763600000001
 31
0.0
  0
LINE
  5
F3F8F
  8
OBJECT
 10
537.97445300000004
 20
442.54763600000001
 30
0.0
 11
537.77870999999993
 21
442.60561899999988
 31
0.0
  0
LINE
  5
F3F90
  8
OBJECT
 10
537.77870999999993
 20
442.60561899999988
 30
0.0
 11
537.58158300000002
 21
442.662778
 31
0.0
  0
LINE
  5
F3F91
  8
OBJECT
 10
537.58158300000002
 20
442.662778
 30
0.0
 11
537.38222399999995
 21
442.719336
 31
0.0
  0
LINE
  5
F3F92
  8
OBJECT
 10
537.38222399999995
 20
442.719336
 30
0.0
 11
537.17978900000003
 21
442.77551399999999
 31
0.0
  0
LINE
  5
F3F93
  8
OBJECT
 10
537.17978900000003
 20
442.77551399999999
 30
0.0
 11
536.97343100000001
 21
442.83153399999998
 31
0.0
  0
LINE
  5
F3F94
  8
OBJECT
 10
536.97343100000001
 20
442.83153399999998
 30
0.0
 11
536.76230400000031
 21
442.88761999999991
 31
0.0
  0
LINE
  5
F3F95
  8
OBJECT
 10
536.76230400000031
 20
442.88761999999991
 30
0.0
 11
536.54556200000002
 21
442.94399199999998
 31
0.0
  0
LINE
  5
F3F96
  8
OBJECT
 10
536.54556200000002
 20
442.94399199999998
 30
0.0
 11
536.322361
 21
443.00087200000002
 31
0.0
  0
LINE
  5
F3F97
  8
OBJECT
 10
536.322361
 20
443.00087200000002
 30
0.0
 11
536.09185200000002
 21
443.05848299999991
 31
0.0
  0
LINE
  5
F3F98
  8
OBJECT
 10
536.09185200000002
 20
443.05848299999991
 30
0.0
 11
535.85319199999992
 21
443.11704700000001
 31
0.0
  0
LINE
  5
F3F99
  8
OBJECT
 10
535.85319199999992
 20
443.11704700000001
 30
0.0
 11
535.60553399999992
 21
443.17678599999988
 31
0.0
  0
LINE
  5
F3F9A
  8
OBJECT
 10
535.60553399999992
 20
443.17678599999988
 30
0.0
 11
535.34803099999999
 21
443.23792099999991
 31
0.0
  0
LINE
  5
F3F9B
  8
OBJECT
 10
535.34803099999999
 20
443.23792099999991
 30
0.0
 11
535.07983899999999
 21
443.30067499999979
 31
0.0
  0
LINE
  5
F3F9C
  8
OBJECT
 10
535.07983899999999
 20
443.30067499999979
 30
0.0
 11
534.80011100000002
 21
443.36527000000001
 31
0.0
  0
LINE
  5
F3F9D
  8
OBJECT
 10
534.80011100000002
 20
443.36527000000001
 30
0.0
 11
534.50800100000004
 21
443.43192800000008
 31
0.0
  0
LINE
  5
F3F9E
  8
OBJECT
 10
534.50800100000004
 20
443.43192800000008
 30
0.0
 11
534.32919400000003
 21
443.47238700000003
 31
0.0
  0
LINE
  5
F3F9F
  8
OBJECT
 10
534.32919400000003
 20
443.47238700000003
 30
0.0
 11
534.14710099999991
 21
443.51336500000002
 31
0.0
  0
LINE
  5
F3FA0
  8
OBJECT
 10
534.14710099999991
 20
443.51336500000002
 30
0.0
 11
533.96306799999991
 21
443.55458299999992
 31
0.0
  0
LINE
  5
F3FA1
  8
OBJECT
 10
533.96306799999991
 20
443.55458299999992
 30
0.0
 11
533.77844299999992
 21
443.59575899999999
 31
0.0
  0
LINE
  5
F3FA2
  8
OBJECT
 10
533.77844299999992
 20
443.59575899999999
 30
0.0
 11
533.59457199999986
 21
443.63661400000001
 31
0.0
  0
LINE
  5
F3FA3
  8
OBJECT
 10
533.59457199999986
 20
443.63661400000001
 30
0.0
 11
533.41280200000006
 21
443.67686600000002
 31
0.0
  0
LINE
  5
F3FA4
  8
OBJECT
 10
533.41280200000006
 20
443.67686600000002
 30
0.0
 11
533.23448099999985
 21
443.71623499999998
 31
0.0
  0
LINE
  5
F3FA5
  8
OBJECT
 10
533.23448099999985
 20
443.71623499999998
 30
0.0
 11
533.06095400000015
 21
443.75443999999999
 31
0.0
  0
LINE
  5
F3FA6
  8
OBJECT
 10
533.06095400000015
 20
443.75443999999999
 30
0.0
 11
532.89356899999996
 21
443.79120099999989
 31
0.0
  0
LINE
  5
F3FA7
  8
OBJECT
 10
532.89356899999996
 20
443.79120099999989
 30
0.0
 11
532.73367299999995
 21
443.82623799999999
 31
0.0
  0
LINE
  5
F3FA8
  8
OBJECT
 10
532.73367299999995
 20
443.82623799999999
 30
0.0
 11
532.58261300000015
 21
443.85926899999998
 31
0.0
  0
LINE
  5
F3FA9
  8
OBJECT
 10
532.58261300000015
 20
443.85926899999998
 30
0.0
 11
532.44173600000033
 21
443.89001499999989
 31
0.0
  0
LINE
  5
F3FAA
  8
OBJECT
 10
532.44173600000033
 20
443.89001499999989
 30
0.0
 11
532.31238800000006
 21
443.91819400000003
 31
0.0
  0
LINE
  5
F3FAB
  8
OBJECT
 10
532.31238800000006
 20
443.91819400000003
 30
0.0
 11
532.19591600000001
 21
443.94352600000002
 31
0.0
  0
LINE
  5
F3FAC
  8
OBJECT
 10
532.19591600000001
 20
443.94352600000002
 30
0.0
 11
532.09366799999987
 21
443.96573000000001
 31
0.0
  0
LINE
  5
F3FAD
  8
OBJECT
 10
532.09366799999987
 20
443.96573000000001
 30
0.0
 11
532.00698999999997
 21
443.98452699999979
 31
0.0
  0
LINE
  5
F3FAE
  8
OBJECT
 10
532.00698999999997
 20
443.98452699999979
 30
0.0
 11
531.937229
 21
443.99963500000001
 31
0.0
  0
LINE
  5
F3FAF
  8
OBJECT
 10
531.937229
 20
443.99963500000001
 30
0.0
 11
531.88573199999985
 21
444.01077400000003
 31
0.0
  0
LINE
  5
F3FB0
  8
OBJECT
 10
531.88573199999985
 20
444.01077400000003
 30
0.0
 11
531.85384599999998
 21
444.01766300000003
 31
0.0
  0
LINE
  5
F3FB1
  8
OBJECT
 10
531.85384599999998
 20
444.01766300000003
 30
0.0
 11
531.84291800000005
 21
444.02002099999987
 31
0.0
  0
LINE
  5
F3FB2
  8
OBJECT
 10
679.49299300000018
 20
432.99745999999988
 30
0.0
 11
679.48334199999977
 21
433.00287199999991
 31
0.0
  0
LINE
  5
F3FB3
  8
OBJECT
 10
679.48334199999977
 20
433.00287199999991
 30
0.0
 11
679.45520999999985
 21
433.01864399999999
 31
0.0
  0
LINE
  5
F3FB4
  8
OBJECT
 10
679.45520999999985
 20
433.01864399999999
 30
0.0
 11
679.40983099999983
 21
433.04408099999989
 31
0.0
  0
LINE
  5
F3FB5
  8
OBJECT
 10
679.40983099999983
 20
433.04408099999989
 30
0.0
 11
679.34843699999976
 21
433.07848799999999
 31
0.0
  0
LINE
  5
F3FB6
  8
OBJECT
 10
679.34843699999976
 20
433.07848799999999
 30
0.0
 11
679.27226100000007
 21
433.12116999999989
 31
0.0
  0
LINE
  5
F3FB7
  8
OBJECT
 10
679.27226100000007
 20
433.12116999999989
 30
0.0
 11
679.1825359999998
 21
433.17143199999992
 31
0.0
  0
LINE
  5
F3FB8
  8
OBJECT
 10
679.1825359999998
 20
433.17143199999992
 30
0.0
 11
679.08049500000016
 21
433.22857899999991
 31
0.0
  0
LINE
  5
F3FB9
  8
OBJECT
 10
679.08049500000016
 20
433.22857899999991
 30
0.0
 11
678.96736999999985
 21
433.29191699999978
 31
0.0
  0
LINE
  5
F3FBA
  8
OBJECT
 10
678.96736999999985
 20
433.29191699999978
 30
0.0
 11
678.84439499999985
 21
433.360749
 31
0.0
  0
LINE
  5
F3FBB
  8
OBJECT
 10
678.84439499999985
 20
433.360749
 30
0.0
 11
678.71280200000012
 21
433.43438200000003
 31
0.0
  0
LINE
  5
F3FBC
  8
OBJECT
 10
678.71280200000012
 20
433.43438200000003
 30
0.0
 11
678.57382399999983
 21
433.51211999999992
 31
0.0
  0
LINE
  5
F3FBD
  8
OBJECT
 10
678.57382399999983
 20
433.51211999999992
 30
0.0
 11
678.42869399999995
 21
433.59326799999991
 31
0.0
  0
LINE
  5
F3FBE
  8
OBJECT
 10
678.42869399999995
 20
433.59326799999991
 30
0.0
 11
678.2786440000001
 21
433.67713200000009
 31
0.0
  0
LINE
  5
F3FBF
  8
OBJECT
 10
678.2786440000001
 20
433.67713200000009
 30
0.0
 11
678.12490799999955
 21
433.76301599999988
 31
0.0
  0
LINE
  5
F3FC0
  8
OBJECT
 10
678.12490799999955
 20
433.76301599999988
 30
0.0
 11
677.96871899999985
 21
433.85022400000008
 31
0.0
  0
LINE
  5
F3FC1
  8
OBJECT
 10
677.96871899999985
 20
433.85022400000008
 30
0.0
 11
677.81130799999983
 21
433.93806399999988
 31
0.0
  0
LINE
  5
F3FC2
  8
OBJECT
 10
677.81130799999983
 20
433.93806399999988
 30
0.0
 11
677.65390999999988
 21
434.02583800000002
 31
0.0
  0
LINE
  5
F3FC3
  8
OBJECT
 10
677.65390999999988
 20
434.02583800000002
 30
0.0
 11
677.49775599999987
 21
434.11285299999992
 31
0.0
  0
LINE
  5
F3FC4
  8
OBJECT
 10
677.49775599999987
 20
434.11285299999992
 30
0.0
 11
677.34407999999985
 21
434.19841199999991
 31
0.0
  0
LINE
  5
F3FC5
  8
OBJECT
 10
677.34407999999985
 20
434.19841199999991
 30
0.0
 11
677.1941149999999
 21
434.2818229999998
 31
0.0
  0
LINE
  5
F3FC6
  8
OBJECT
 10
677.1941149999999
 20
434.2818229999998
 30
0.0
 11
677.028955
 21
434.37356799999992
 31
0.0
  0
LINE
  5
F3FC7
  8
OBJECT
 10
677.028955
 20
434.37356799999992
 30
0.0
 11
676.86979699999995
 21
434.46184399999993
 31
0.0
  0
LINE
  5
F3FC8
  8
OBJECT
 10
676.86979699999995
 20
434.46184399999993
 30
0.0
 11
676.71622500000012
 21
434.546874
 31
0.0
  0
LINE
  5
F3FC9
  8
OBJECT
 10
676.71622500000012
 20
434.546874
 30
0.0
 11
676.56782199999975
 21
434.6288829999998
 31
0.0
  0
LINE
  5
F3FCA
  8
OBJECT
 10
676.56782199999975
 20
434.6288829999998
 30
0.0
 11
676.424172
 21
434.70809300000002
 31
0.0
  0
LINE
  5
F3FCB
  8
OBJECT
 10
676.424172
 20
434.70809300000002
 30
0.0
 11
676.28485899999987
 21
434.7847289999998
 31
0.0
  0
LINE
  5
F3FCC
  8
OBJECT
 10
676.28485899999987
 20
434.7847289999998
 30
0.0
 11
676.14946499999985
 21
434.85901399999989
 31
0.0
  0
LINE
  5
F3FCD
  8
OBJECT
 10
676.14946499999985
 20
434.85901399999989
 30
0.0
 11
676.01757599999996
 21
434.931174
 31
0.0
  0
LINE
  5
F3FCE
  8
OBJECT
 10
676.01757599999996
 20
434.931174
 30
0.0
 11
675.88877399999956
 21
435.00143000000003
 31
0.0
  0
LINE
  5
F3FCF
  8
OBJECT
 10
675.88877399999956
 20
435.00143000000003
 30
0.0
 11
675.76264300000014
 21
435.07000799999997
 31
0.0
  0
LINE
  5
F3FD0
  8
OBJECT
 10
675.76264300000014
 20
435.07000799999997
 30
0.0
 11
675.63876700000014
 21
435.13713099999973
 31
0.0
  0
LINE
  5
F3FD1
  8
OBJECT
 10
675.63876700000014
 20
435.13713099999973
 30
0.0
 11
675.51673000000005
 21
435.20302299999992
 31
0.0
  0
LINE
  5
F3FD2
  8
OBJECT
 10
675.51673000000005
 20
435.20302299999992
 30
0.0
 11
675.39611400000001
 21
435.26790799999992
 31
0.0
  0
LINE
  5
F3FD3
  8
OBJECT
 10
675.39611400000001
 20
435.26790799999992
 30
0.0
 11
675.27650400000005
 21
435.33200999999991
 31
0.0
  0
LINE
  5
F3FD4
  8
OBJECT
 10
675.27650400000005
 20
435.33200999999991
 30
0.0
 11
675.15748299999996
 21
435.39555300000001
 31
0.0
  0
LINE
  5
F3FD5
  8
OBJECT
 10
675.15748299999996
 20
435.39555300000001
 30
0.0
 11
675.038635
 21
435.45875999999998
 31
0.0
  0
LINE
  5
F3FD6
  8
OBJECT
 10
675.038635
 20
435.45875999999998
 30
0.0
 11
674.91954399999997
 21
435.52185500000002
 31
0.0
  0
LINE
  5
F3FD7
  8
OBJECT
 10
674.91954399999997
 20
435.52185500000002
 30
0.0
 11
674.79979300000014
 21
435.58506299999988
 31
0.0
  0
LINE
  5
F3FD8
  8
OBJECT
 10
674.79979300000014
 20
435.58506299999988
 30
0.0
 11
674.67896500000006
 21
435.64860700000003
 31
0.0
  0
LINE
  5
F3FD9
  8
OBJECT
 10
674.67896500000006
 20
435.64860700000003
 30
0.0
 11
674.556646
 21
435.71271100000001
 31
0.0
  0
LINE
  5
F3FDA
  8
OBJECT
 10
674.556646
 20
435.71271100000001
 30
0.0
 11
674.442859
 21
435.77214999999973
 31
0.0
  0
LINE
  5
F3FDB
  8
OBJECT
 10
674.442859
 20
435.77214999999973
 30
0.0
 11
674.32755999999983
 21
435.83219099999991
 31
0.0
  0
LINE
  5
F3FDC
  8
OBJECT
 10
674.32755999999983
 20
435.83219099999991
 30
0.0
 11
674.21084100000007
 21
435.89277900000002
 31
0.0
  0
LINE
  5
F3FDD
  8
OBJECT
 10
674.21084100000007
 20
435.89277900000002
 30
0.0
 11
674.09279300000003
 21
435.95385499999992
 31
0.0
  0
LINE
  5
F3FDE
  8
OBJECT
 10
674.09279300000003
 20
435.95385499999992
 30
0.0
 11
673.97351000000015
 21
436.01536399999998
 31
0.0
  0
LINE
  5
F3FDF
  8
OBJECT
 10
673.97351000000015
 20
436.01536399999998
 30
0.0
 11
673.85308500000008
 21
436.077248
 31
0.0
  0
LINE
  5
F3FE0
  8
OBJECT
 10
673.85308500000008
 20
436.077248
 30
0.0
 11
673.73160999999982
 21
436.13945100000001
 31
0.0
  0
LINE
  5
F3FE1
  8
OBJECT
 10
673.73160999999982
 20
436.13945100000001
 30
0.0
 11
673.6091779999997
 21
436.20191499999999
 31
0.0
  0
LINE
  5
F3FE2
  8
OBJECT
 10
673.6091779999997
 20
436.20191499999999
 30
0.0
 11
673.48588099999984
 21
436.26458499999978
 31
0.0
  0
LINE
  5
F3FE3
  8
OBJECT
 10
673.48588099999984
 20
436.26458499999978
 30
0.0
 11
673.36181199999999
 21
436.327403
 31
0.0
  0
LINE
  5
F3FE4
  8
OBJECT
 10
673.36181199999999
 20
436.327403
 30
0.0
 11
673.23706400000015
 21
436.39031199999988
 31
0.0
  0
LINE
  5
F3FE5
  8
OBJECT
 10
673.23706400000015
 20
436.39031199999988
 30
0.0
 11
673.1117290000002
 21
436.45325599999978
 31
0.0
  0
LINE
  5
F3FE6
  8
OBJECT
 10
673.1117290000002
 20
436.45325599999978
 30
0.0
 11
672.98590100000013
 21
436.51617800000002
 31
0.0
  0
LINE
  5
F3FE7
  8
OBJECT
 10
672.98590100000013
 20
436.51617800000002
 30
0.0
 11
672.85967100000005
 21
436.57902099999978
 31
0.0
  0
LINE
  5
F3FE8
  8
OBJECT
 10
672.85967100000005
 20
436.57902099999978
 30
0.0
 11
672.73313199999996
 21
436.641728
 31
0.0
  0
LINE
  5
F3FE9
  8
OBJECT
 10
672.73313199999996
 20
436.641728
 30
0.0
 11
672.60637699999995
 21
436.70424300000002
 31
0.0
  0
LINE
  5
F3FEA
  8
OBJECT
 10
672.60637699999995
 20
436.70424300000002
 30
0.0
 11
672.47949899999981
 21
436.76650799999999
 31
0.0
  0
LINE
  5
F3FEB
  8
OBJECT
 10
672.47949899999981
 20
436.76650799999999
 30
0.0
 11
672.35259000000019
 21
436.82846699999999
 31
0.0
  0
LINE
  5
F3FEC
  8
OBJECT
 10
672.35259000000019
 20
436.82846699999999
 30
0.0
 11
672.22574199999997
 21
436.89006299999988
 31
0.0
  0
LINE
  5
F3FED
  8
OBJECT
 10
672.22574199999997
 20
436.89006299999988
 30
0.0
 11
672.09905000000015
 21
436.95123999999993
 31
0.0
  0
LINE
  5
F3FEE
  8
OBJECT
 10
672.09905000000015
 20
436.95123999999993
 30
0.0
 11
671.9473069999998
 21
437.02404599999988
 31
0.0
  0
LINE
  5
F3FEF
  8
OBJECT
 10
671.9473069999998
 20
437.02404599999988
 30
0.0
 11
671.79589199999998
 21
437.09619999999978
 31
0.0
  0
LINE
  5
F3FF0
  8
OBJECT
 10
671.79589199999998
 20
437.09619999999978
 30
0.0
 11
671.64477599999998
 21
437.16773299999988
 31
0.0
  0
LINE
  5
F3FF1
  8
OBJECT
 10
671.64477599999998
 20
437.16773299999988
 30
0.0
 11
671.49392900000021
 21
437.23867799999999
 31
0.0
  0
LINE
  5
F3FF2
  8
OBJECT
 10
671.49392900000021
 20
437.23867799999999
 30
0.0
 11
671.34332399999982
 21
437.30907000000002
 31
0.0
  0
LINE
  5
F3FF3
  8
OBJECT
 10
671.34332399999982
 20
437.30907000000002
 30
0.0
 11
671.19293099999982
 21
437.37893999999972
 31
0.0
  0
LINE
  5
F3FF4
  8
OBJECT
 10
671.19293099999982
 20
437.37893999999972
 30
0.0
 11
671.04272200000003
 21
437.44832200000002
 31
0.0
  0
LINE
  5
F3FF5
  8
OBJECT
 10
671.04272200000003
 20
437.44832200000002
 30
0.0
 11
670.89266799999984
 21
437.51724899999988
 31
0.0
  0
LINE
  5
F3FF6
  8
OBJECT
 10
670.89266799999984
 20
437.51724899999988
 30
0.0
 11
670.7427409999998
 21
437.58575399999989
 31
0.0
  0
LINE
  5
F3FF7
  8
OBJECT
 10
670.7427409999998
 20
437.58575399999989
 30
0.0
 11
670.59291099999984
 21
437.65386999999998
 31
0.0
  0
LINE
  5
F3FF8
  8
OBJECT
 10
670.59291099999984
 20
437.65386999999998
 30
0.0
 11
670.44315100000006
 21
437.72162899999989
 31
0.0
  0
LINE
  5
F3FF9
  8
OBJECT
 10
670.44315100000006
 20
437.72162899999989
 30
0.0
 11
670.29343000000006
 21
437.78906599999999
 31
0.0
  0
LINE
  5
F3FFA
  8
OBJECT
 10
670.29343000000006
 20
437.78906599999999
 30
0.0
 11
670.14372100000003
 21
437.8562119999998
 31
0.0
  0
LINE
  5
F3FFB
  8
OBJECT
 10
670.14372100000003
 20
437.8562119999998
 30
0.0
 11
669.99399600000015
 21
437.9231009999998
 31
0.0
  0
LINE
  5
F3FFC
  8
OBJECT
 10
669.99399600000015
 20
437.9231009999998
 30
0.0
 11
669.84422399999983
 21
437.98976599999997
 31
0.0
  0
LINE
  5
F3FFD
  8
OBJECT
 10
669.84422399999983
 20
437.98976599999997
 30
0.0
 11
669.6943779999998
 21
438.05623999999989
 31
0.0
  0
LINE
  5
F3FFE
  8
OBJECT
 10
669.6943779999998
 20
438.05623999999989
 30
0.0
 11
669.54442900000015
 21
438.12255699999992
 31
0.0
  0
LINE
  5
F3FFF
  8
OBJECT
 10
669.54442900000015
 20
438.12255699999992
 30
0.0
 11
669.3943479999997
 21
438.18874799999992
 31
0.0
  0
LINE
  5
F4000
  8
OBJECT
 10
669.3943479999997
 20
438.18874799999992
 30
0.0
 11
669.2441060000001
 21
438.25484699999993
 31
0.0
  0
LINE
  5
F4001
  8
OBJECT
 10
669.2441060000001
 20
438.25484699999993
 30
0.0
 11
669.09367500000019
 21
438.3208869999998
 31
0.0
  0
LINE
  5
F4002
  8
OBJECT
 10
669.09367500000019
 20
438.3208869999998
 30
0.0
 11
668.91432500000008
 21
438.39945699999993
 31
0.0
  0
LINE
  5
F4003
  8
OBJECT
 10
668.91432500000008
 20
438.39945699999993
 30
0.0
 11
668.73468400000013
 21
438.47796699999992
 31
0.0
  0
LINE
  5
F4004
  8
OBJECT
 10
668.73468400000013
 20
438.47796699999992
 30
0.0
 11
668.55477199999984
 21
438.55639100000002
 31
0.0
  0
LINE
  5
F4005
  8
OBJECT
 10
668.55477199999984
 20
438.55639100000002
 30
0.0
 11
668.37460699999986
 21
438.634705
 31
0.0
  0
LINE
  5
F4006
  8
OBJECT
 10
668.37460699999986
 20
438.634705
 30
0.0
 11
668.19420799999978
 21
438.7128849999998
 31
0.0
  0
LINE
  5
F4007
  8
OBJECT
 10
668.19420799999978
 20
438.7128849999998
 30
0.0
 11
668.01359300000013
 21
438.79090600000001
 31
0.0
  0
LINE
  5
F4008
  8
OBJECT
 10
668.01359300000013
 20
438.79090600000001
 30
0.0
 11
667.83278099999984
 21
438.86874399999988
 31
0.0
  0
LINE
  5
F4009
  8
OBJECT
 10
667.83278099999984
 20
438.86874399999988
 30
0.0
 11
667.651791
 21
438.94637599999987
 31
0.0
  0
LINE
  5
F400A
  8
OBJECT
 10
667.651791
 20
438.94637599999987
 30
0.0
 11
667.47064199999977
 21
439.02377499999989
 31
0.0
  0
LINE
  5
F400B
  8
OBJECT
 10
667.47064199999977
 20
439.02377499999989
 30
0.0
 11
667.28935100000001
 21
439.10091899999998
 31
0.0
  0
LINE
  5
F400C
  8
OBJECT
 10
667.28935100000001
 20
439.10091899999998
 30
0.0
 11
667.10793899999999
 21
439.17778199999992
 31
0.0
  0
LINE
  5
F400D
  8
OBJECT
 10
667.10793899999999
 20
439.17778199999992
 30
0.0
 11
666.92642200000012
 21
439.25434100000001
 31
0.0
  0
LINE
  5
F400E
  8
OBJECT
 10
666.92642200000012
 20
439.25434100000001
 30
0.0
 11
666.74482099999977
 21
439.33057099999991
 31
0.0
  0
LINE
  5
F400F
  8
OBJECT
 10
666.74482099999977
 20
439.33057099999991
 30
0.0
 11
666.56315400000005
 21
439.40644700000001
 31
0.0
  0
LINE
  5
F4010
  8
OBJECT
 10
666.56315400000005
 20
439.40644700000001
 30
0.0
 11
666.38143799999978
 21
439.48194599999988
 31
0.0
  0
LINE
  5
F4011
  8
OBJECT
 10
666.38143799999978
 20
439.48194599999988
 30
0.0
 11
666.19969400000002
 21
439.55704199999991
 31
0.0
  0
LINE
  5
F4012
  8
OBJECT
 10
666.19969400000002
 20
439.55704199999991
 30
0.0
 11
666.01793999999984
 21
439.63171299999988
 31
0.0
  0
LINE
  5
F4013
  8
OBJECT
 10
666.01793999999984
 20
439.63171299999988
 30
0.0
 11
665.83619399999975
 21
439.70593200000002
 31
0.0
  0
LINE
  5
F4014
  8
OBJECT
 10
665.83619399999975
 20
439.70593200000002
 30
0.0
 11
665.65447500000005
 21
439.77967699999999
 31
0.0
  0
LINE
  5
F4015
  8
OBJECT
 10
665.65447500000005
 20
439.77967699999999
 30
0.0
 11
665.472801
 21
439.85292199999992
 31
0.0
  0
LINE
  5
F4016
  8
OBJECT
 10
665.472801
 20
439.85292199999992
 30
0.0
 11
665.29887799999995
 21
439.92257999999993
 31
0.0
  0
LINE
  5
F4017
  8
OBJECT
 10
665.29887799999995
 20
439.92257999999993
 30
0.0
 11
665.12497499999995
 21
439.99178499999999
 31
0.0
  0
LINE
  5
F4018
  8
OBJECT
 10
665.12497499999995
 20
439.99178499999999
 30
0.0
 11
664.951054
 21
440.06056499999983
 31
0.0
  0
LINE
  5
F4019
  8
OBJECT
 10
664.951054
 20
440.06056499999983
 30
0.0
 11
664.7770740000002
 21
440.12894699999998
 31
0.0
  0
LINE
  5
F401A
  8
OBJECT
 10
664.7770740000002
 20
440.12894699999998
 30
0.0
 11
664.60299699999985
 21
440.19695899999999
 31
0.0
  0
LINE
  5
F401B
  8
OBJECT
 10
664.60299699999985
 20
440.19695899999999
 30
0.0
 11
664.42878499999995
 21
440.26462799999979
 31
0.0
  0
LINE
  5
F401C
  8
OBJECT
 10
664.42878499999995
 20
440.26462799999979
 30
0.0
 11
664.25439799999981
 21
440.33198099999998
 31
0.0
  0
LINE
  5
F401D
  8
OBJECT
 10
664.25439799999981
 20
440.33198099999998
 30
0.0
 11
664.07979699999999
 21
440.399047
 31
0.0
  0
LINE
  5
F401E
  8
OBJECT
 10
664.07979699999999
 20
440.399047
 30
0.0
 11
663.904943
 21
440.46585199999993
 31
0.0
  0
LINE
  5
F401F
  8
OBJECT
 10
663.904943
 20
440.46585199999993
 30
0.0
 11
663.72979799999985
 21
440.53242399999988
 31
0.0
  0
LINE
  5
F4020
  8
OBJECT
 10
663.72979799999985
 20
440.53242399999988
 30
0.0
 11
663.55432199999984
 21
440.59879100000001
 31
0.0
  0
LINE
  5
F4021
  8
OBJECT
 10
663.55432199999984
 20
440.59879100000001
 30
0.0
 11
663.37847599999998
 21
440.66497899999979
 31
0.0
  0
LINE
  5
F4022
  8
OBJECT
 10
663.37847599999998
 20
440.66497899999979
 30
0.0
 11
663.20222200000001
 21
440.73101800000001
 31
0.0
  0
LINE
  5
F4023
  8
OBJECT
 10
663.20222200000001
 20
440.73101800000001
 30
0.0
 11
663.02551999999957
 21
440.79693299999991
 31
0.0
  0
LINE
  5
F4024
  8
OBJECT
 10
663.02551999999957
 20
440.79693299999991
 30
0.0
 11
662.8483319999998
 21
440.86275199999989
 31
0.0
  0
LINE
  5
F4025
  8
OBJECT
 10
662.8483319999998
 20
440.86275199999989
 30
0.0
 11
662.67061799999999
 21
440.92850399999992
 31
0.0
  0
LINE
  5
F4026
  8
OBJECT
 10
662.67061799999999
 20
440.92850399999992
 30
0.0
 11
662.49234000000013
 21
440.99421499999988
 31
0.0
  0
LINE
  5
F4027
  8
OBJECT
 10
662.49234000000013
 20
440.99421499999988
 30
0.0
 11
662.3134580000002
 21
441.05991299999999
 31
0.0
  0
LINE
  5
F4028
  8
OBJECT
 10
662.3134580000002
 20
441.05991299999999
 30
0.0
 11
662.13393399999984
 21
441.12562600000001
 31
0.0
  0
LINE
  5
F4029
  8
OBJECT
 10
662.13393399999984
 20
441.12562600000001
 30
0.0
 11
661.95372900000018
 21
441.19137999999992
 31
0.0
  0
LINE
  5
F402A
  8
OBJECT
 10
661.95372900000018
 20
441.19137999999992
 30
0.0
 11
661.80149799999981
 21
441.24677299999991
 31
0.0
  0
LINE
  5
F402B
  8
OBJECT
 10
661.80149799999981
 20
441.24677299999991
 30
0.0
 11
661.6488690000001
 21
441.30216200000001
 31
0.0
  0
LINE
  5
F402C
  8
OBJECT
 10
661.6488690000001
 20
441.30216200000001
 30
0.0
 11
661.49595499999998
 21
441.35749399999997
 31
0.0
  0
LINE
  5
F402D
  8
OBJECT
 10
661.49595499999998
 20
441.35749399999997
 30
0.0
 11
661.34286899999995
 21
441.41271399999988
 31
0.0
  0
LINE
  5
F402E
  8
OBJECT
 10
661.34286899999995
 20
441.41271399999988
 30
0.0
 11
661.18972300000019
 21
441.46776999999992
 31
0.0
  0
LINE
  5
F402F
  8
OBJECT
 10
661.18972300000019
 20
441.46776999999992
 30
0.0
 11
661.03663000000006
 21
441.52260899999987
 31
0.0
  0
LINE
  5
F4030
  8
OBJECT
 10
661.03663000000006
 20
441.52260899999987
 30
0.0
 11
660.88370300000008
 21
441.57717600000001
 31
0.0
  0
LINE
  5
F4031
  8
OBJECT
 10
660.88370300000008
 20
441.57717600000001
 30
0.0
 11
660.7310540000002
 21
441.63141899999999
 31
0.0
  0
LINE
  5
F4032
  8
OBJECT
 10
660.7310540000002
 20
441.63141899999999
 30
0.0
 11
660.57879600000012
 21
441.68528400000002
 31
0.0
  0
LINE
  5
F4033
  8
OBJECT
 10
660.57879600000012
 20
441.68528400000002
 30
0.0
 11
660.42704200000014
 21
441.73871800000001
 31
0.0
  0
LINE
  5
F4034
  8
OBJECT
 10
660.42704200000014
 20
441.73871800000001
 30
0.0
 11
660.2759040000002
 21
441.79166699999979
 31
0.0
  0
LINE
  5
F4035
  8
OBJECT
 10
660.2759040000002
 20
441.79166699999979
 30
0.0
 11
660.125495
 21
441.84407900000002
 31
0.0
  0
LINE
  5
F4036
  8
OBJECT
 10
660.125495
 20
441.84407900000002
 30
0.0
 11
659.97592900000006
 21
441.89589899999999
 31
0.0
  0
LINE
  5
F4037
  8
OBJECT
 10
659.97592900000006
 20
441.89589899999999
 30
0.0
 11
659.82731599999977
 21
441.94707399999999
 31
0.0
  0
LINE
  5
F4038
  8
OBJECT
 10
659.82731599999977
 20
441.94707399999999
 30
0.0
 11
659.67977100000019
 21
441.99755199999998
 31
0.0
  0
LINE
  5
F4039
  8
OBJECT
 10
659.67977100000019
 20
441.99755199999998
 30
0.0
 11
659.5334049999999
 21
442.04727799999989
 31
0.0
  0
LINE
  5
F403A
  8
OBJECT
 10
659.5334049999999
 20
442.04727799999989
 30
0.0
 11
659.38833199999976
 21
442.09619900000001
 31
0.0
  0
LINE
  5
F403B
  8
OBJECT
 10
659.38833199999976
 20
442.09619900000001
 30
0.0
 11
659.24466500000005
 21
442.14426199999991
 31
0.0
  0
LINE
  5
F403C
  8
OBJECT
 10
659.24466500000005
 20
442.14426199999991
 30
0.0
 11
659.10251500000015
 21
442.19141300000001
 31
0.0
  0
LINE
  5
F403D
  8
OBJECT
 10
659.10251500000015
 20
442.19141300000001
 30
0.0
 11
658.961995
 21
442.23759899999988
 31
0.0
  0
LINE
  5
F403E
  8
OBJECT
 10
658.961995
 20
442.23759899999988
 30
0.0
 11
658.76049000000012
 21
442.30302999999992
 31
0.0
  0
LINE
  5
F403F
  8
OBJECT
 10
658.76049000000012
 20
442.30302999999992
 30
0.0
 11
658.56182899999999
 21
442.36652699999979
 31
0.0
  0
LINE
  5
F4040
  8
OBJECT
 10
658.56182899999999
 20
442.36652699999979
 30
0.0
 11
658.36516599999982
 21
442.42831200000001
 31
0.0
  0
LINE
  5
F4041
  8
OBJECT
 10
658.36516599999982
 20
442.42831200000001
 30
0.0
 11
658.16965600000015
 21
442.488608
 31
0.0
  0
LINE
  5
F4042
  8
OBJECT
 10
658.16965600000015
 20
442.488608
 30
0.0
 11
657.97445299999981
 21
442.54763600000001
 31
0.0
  0
LINE
  5
F4043
  8
OBJECT
 10
657.97445299999981
 20
442.54763600000001
 30
0.0
 11
657.77871000000005
 21
442.60561899999988
 31
0.0
  0
LINE
  5
F4044
  8
OBJECT
 10
657.77871000000005
 20
442.60561899999988
 30
0.0
 11
657.5815829999998
 21
442.662778
 31
0.0
  0
LINE
  5
F4045
  8
OBJECT
 10
657.5815829999998
 20
442.662778
 30
0.0
 11
657.38222400000006
 21
442.719336
 31
0.0
  0
LINE
  5
F4046
  8
OBJECT
 10
657.38222400000006
 20
442.719336
 30
0.0
 11
657.17978900000014
 21
442.77551399999999
 31
0.0
  0
LINE
  5
F4047
  8
OBJECT
 10
657.17978900000014
 20
442.77551399999999
 30
0.0
 11
656.97343100000001
 21
442.83153399999998
 31
0.0
  0
LINE
  5
F4048
  8
OBJECT
 10
656.97343100000001
 20
442.83153399999998
 30
0.0
 11
656.76230399999986
 21
442.88761999999991
 31
0.0
  0
LINE
  5
F4049
  8
OBJECT
 10
656.76230399999986
 20
442.88761999999991
 30
0.0
 11
656.54556199999979
 21
442.94399199999998
 31
0.0
  0
LINE
  5
F404A
  8
OBJECT
 10
656.54556199999979
 20
442.94399199999998
 30
0.0
 11
656.322361
 21
443.00087200000002
 31
0.0
  0
LINE
  5
F404B
  8
OBJECT
 10
656.322361
 20
443.00087200000002
 30
0.0
 11
656.09185200000002
 21
443.05848299999991
 31
0.0
  0
LINE
  5
F404C
  8
OBJECT
 10
656.09185200000002
 20
443.05848299999991
 30
0.0
 11
655.85319200000015
 21
443.11704700000001
 31
0.0
  0
LINE
  5
F404D
  8
OBJECT
 10
655.85319200000015
 20
443.11704700000001
 30
0.0
 11
655.60553400000015
 21
443.17678599999988
 31
0.0
  0
LINE
  5
F404E
  8
OBJECT
 10
655.60553400000015
 20
443.17678599999988
 30
0.0
 11
655.34803099999999
 21
443.23792099999991
 31
0.0
  0
LINE
  5
F404F
  8
OBJECT
 10
655.34803099999999
 20
443.23792099999991
 30
0.0
 11
655.07983900000011
 21
443.30067499999979
 31
0.0
  0
LINE
  5
F4050
  8
OBJECT
 10
655.07983900000011
 20
443.30067499999979
 30
0.0
 11
654.80011100000002
 21
443.36527000000001
 31
0.0
  0
LINE
  5
F4051
  8
OBJECT
 10
654.80011100000002
 20
443.36527000000001
 30
0.0
 11
654.50800100000004
 21
443.43192800000008
 31
0.0
  0
LINE
  5
F4052
  8
OBJECT
 10
654.50800100000004
 20
443.43192800000008
 30
0.0
 11
654.32919400000003
 21
443.47238700000003
 31
0.0
  0
LINE
  5
F4053
  8
OBJECT
 10
654.32919400000003
 20
443.47238700000003
 30
0.0
 11
654.14710100000013
 21
443.51336500000002
 31
0.0
  0
LINE
  5
F4054
  8
OBJECT
 10
654.14710100000013
 20
443.51336500000002
 30
0.0
 11
653.96306800000013
 21
443.55458299999992
 31
0.0
  0
LINE
  5
F4055
  8
OBJECT
 10
653.96306800000013
 20
443.55458299999992
 30
0.0
 11
653.77844300000015
 21
443.59575899999999
 31
0.0
  0
LINE
  5
F4056
  8
OBJECT
 10
653.77844300000015
 20
443.59575899999999
 30
0.0
 11
653.59457199999986
 21
443.63661400000001
 31
0.0
  0
LINE
  5
F4057
  8
OBJECT
 10
653.59457199999986
 20
443.63661400000001
 30
0.0
 11
653.41280199999983
 21
443.67686600000002
 31
0.0
  0
LINE
  5
F4058
  8
OBJECT
 10
653.41280199999983
 20
443.67686600000002
 30
0.0
 11
653.23448099999985
 21
443.71623499999998
 31
0.0
  0
LINE
  5
F4059
  8
OBJECT
 10
653.23448099999985
 20
443.71623499999998
 30
0.0
 11
653.06095400000015
 21
443.75443999999999
 31
0.0
  0
LINE
  5
F405A
  8
OBJECT
 10
653.06095400000015
 20
443.75443999999999
 30
0.0
 11
652.89356899999996
 21
443.79120099999989
 31
0.0
  0
LINE
  5
F405B
  8
OBJECT
 10
652.89356899999996
 20
443.79120099999989
 30
0.0
 11
652.73367300000007
 21
443.82623799999999
 31
0.0
  0
LINE
  5
F405C
  8
OBJECT
 10
652.73367300000007
 20
443.82623799999999
 30
0.0
 11
652.58261300000015
 21
443.85926899999998
 31
0.0
  0
LINE
  5
F405D
  8
OBJECT
 10
652.58261300000015
 20
443.85926899999998
 30
0.0
 11
652.44173599999999
 21
443.89001499999989
 31
0.0
  0
LINE
  5
F405E
  8
OBJECT
 10
652.44173599999999
 20
443.89001499999989
 30
0.0
 11
652.31238800000006
 21
443.91819400000003
 31
0.0
  0
LINE
  5
F405F
  8
OBJECT
 10
652.31238800000006
 20
443.91819400000003
 30
0.0
 11
652.19591599999967
 21
443.94352600000002
 31
0.0
  0
LINE
  5
F4060
  8
OBJECT
 10
652.19591599999967
 20
443.94352600000002
 30
0.0
 11
652.09366800000009
 21
443.96573000000001
 31
0.0
  0
LINE
  5
F4061
  8
OBJECT
 10
652.09366800000009
 20
443.96573000000001
 30
0.0
 11
652.00698999999997
 21
443.98452699999979
 31
0.0
  0
LINE
  5
F4062
  8
OBJECT
 10
652.00698999999997
 20
443.98452699999979
 30
0.0
 11
651.93722899999977
 21
443.99963500000001
 31
0.0
  0
LINE
  5
F4063
  8
OBJECT
 10
651.93722899999977
 20
443.99963500000001
 30
0.0
 11
651.88573200000019
 21
444.01077400000003
 31
0.0
  0
LINE
  5
F4064
  8
OBJECT
 10
651.88573200000019
 20
444.01077400000003
 30
0.0
 11
651.8538460000002
 21
444.01766300000003
 31
0.0
  0
LINE
  5
F4065
  8
OBJECT
 10
651.8538460000002
 20
444.01766300000003
 30
0.0
 11
651.84291800000005
 21
444.02002099999987
 31
0.0
  0
CIRCLE
  5
F4066
  8
OBJECT
 10
641.56658600000014
 20
449.99745999999988
 30
0.0
 40
6.5
  0
LINE
  5
F4067
  8
OBJECT
 10
641.56658600000014
 20
442.49190700000003
 30
0.0
 11
635.06658600000003
 21
446.24468400000001
 31
0.0
  0
LINE
  5
F4068
  8
OBJECT
 10
648.0665859999998
 20
446.24468400000001
 30
0.0
 11
641.56658600000014
 21
442.49190700000003
 31
0.0
  0
LINE
  5
F4069
  8
OBJECT
 10
648.0665859999998
 20
453.75023699999991
 30
0.0
 11
648.0665859999998
 21
446.24468400000001
 31
0.0
  0
LINE
  5
F406A
  8
OBJECT
 10
641.56658600000014
 20
457.50301399999989
 30
0.0
 11
648.0665859999998
 21
453.75023699999991
 31
0.0
  0
LINE
  5
F406B
  8
OBJECT
 10
635.06658600000003
 20
453.75023699999991
 30
0.0
 11
641.56658600000014
 21
457.50301399999989
 31
0.0
  0
LINE
  5
F406C
  8
OBJECT
 10
635.06658600000003
 20
446.24468400000001
 30
0.0
 11
635.06658600000003
 21
453.75023699999991
 31
0.0
  0
CIRCLE
  5
F406D
  8
OBJECT
 10
641.56658600000014
 20
504.99745999999959
 30
0.0
 40
6.5
  0
LINE
  5
F406E
  8
OBJECT
 10
641.56658600000014
 20
497.4919069999998
 30
0.0
 11
635.06658600000003
 21
501.24468399999989
 31
0.0
  0
LINE
  5
F406F
  8
OBJECT
 10
648.0665859999998
 20
501.24468399999989
 30
0.0
 11
641.56658600000014
 21
497.4919069999998
 31
0.0
  0
LINE
  5
F4070
  8
OBJECT
 10
648.0665859999998
 20
508.75023700000003
 30
0.0
 11
648.0665859999998
 21
501.24468399999989
 31
0.0
  0
LINE
  5
F4071
  8
OBJECT
 10
641.56658600000014
 20
512.50301399999978
 30
0.0
 11
648.0665859999998
 21
508.75023700000003
 31
0.0
  0
LINE
  5
F4072
  8
OBJECT
 10
635.06658600000003
 20
508.75023700000003
 30
0.0
 11
641.56658600000014
 21
512.50301399999978
 31
0.0
  0
LINE
  5
F4073
  8
OBJECT
 10
635.06658600000003
 20
501.24468399999989
 30
0.0
 11
635.06658600000003
 21
508.75023700000003
 31
0.0
  0
LINE
  5
F4074
  8
OBJECT
 10
432.56658599999997
 20
409.49745999999988
 30
0.0
 11
432.61739199999982
 21
409.51588299999992
 31
0.0
  0
LINE
  5
F4075
  8
OBJECT
 10
432.61739199999982
 20
409.51588299999992
 30
0.0
 11
432.7627989999998
 21
409.56990399999989
 31
0.0
  0
LINE
  5
F4076
  8
OBJECT
 10
432.7627989999998
 20
409.56990399999989
 30
0.0
 11
432.99228900000003
 21
409.65765199999998
 31
0.0
  0
LINE
  5
F4077
  8
OBJECT
 10
432.99228900000003
 20
409.65765199999998
 30
0.0
 11
433.295344
 21
409.77725799999979
 31
0.0
  0
LINE
  5
F4078
  8
OBJECT
 10
433.295344
 20
409.77725799999979
 30
0.0
 11
433.66144699999978
 21
409.92685199999988
 31
0.0
  0
LINE
  5
F4079
  8
OBJECT
 10
433.66144699999978
 20
409.92685199999988
 30
0.0
 11
434.08007900000013
 21
410.10456199999982
 31
0.0
  0
LINE
  5
F407A
  8
OBJECT
 10
434.08007900000013
 20
410.10456199999982
 30
0.0
 11
434.54072300000013
 21
410.30851999999987
 31
0.0
  0
LINE
  5
F407B
  8
OBJECT
 10
434.54072300000013
 20
410.30851999999987
 30
0.0
 11
435.03286100000003
 21
410.53685299999989
 31
0.0
  0
LINE
  5
F407C
  8
OBJECT
 10
435.03286100000003
 20
410.53685299999989
 30
0.0
 11
435.545975
 21
410.78769399999987
 31
0.0
  0
LINE
  5
F407D
  8
OBJECT
 10
435.545975
 20
410.78769399999987
 30
0.0
 11
436.06954799999988
 21
411.05916999999988
 31
0.0
  0
LINE
  5
F407E
  8
OBJECT
 10
436.06954799999988
 20
411.05916999999988
 30
0.0
 11
436.59306099999992
 21
411.34941199999992
 31
0.0
  0
LINE
  5
F407F
  8
OBJECT
 10
436.59306099999992
 20
411.34941199999992
 30
0.0
 11
437.105998
 21
411.65654999999998
 31
0.0
  0
LINE
  5
F4080
  8
OBJECT
 10
437.105998
 20
411.65654999999998
 30
0.0
 11
437.59783999999991
 21
411.97871300000003
 31
0.0
  0
LINE
  5
F4081
  8
OBJECT
 10
437.59783999999991
 20
411.97871300000003
 30
0.0
 11
438.0580690000001
 21
412.314031
 31
0.0
  0
LINE
  5
F4082
  8
OBJECT
 10
438.0580690000001
 20
412.314031
 30
0.0
 11
438.47616799999992
 21
412.66063400000002
 31
0.0
  0
LINE
  5
F4083
  8
OBJECT
 10
438.47616799999992
 20
412.66063400000002
 30
0.0
 11
438.84161899999998
 21
413.01665100000002
 31
0.0
  0
LINE
  5
F4084
  8
OBJECT
 10
438.84161899999998
 20
413.01665100000002
 30
0.0
 11
439.14390400000002
 21
413.38021300000003
 31
0.0
  0
LINE
  5
F4085
  8
OBJECT
 10
439.14390400000002
 20
413.38021300000003
 30
0.0
 11
439.37250499999988
 21
413.74944799999992
 31
0.0
  0
LINE
  5
F4086
  8
OBJECT
 10
439.37250499999988
 20
413.74944799999992
 30
0.0
 11
439.51690499999989
 21
414.12248799999998
 31
0.0
  0
LINE
  5
F4087
  8
OBJECT
 10
439.51690499999989
 20
414.12248799999998
 30
0.0
 11
439.56658600000009
 21
414.49745999999999
 31
0.0
  0
LINE
  5
F4088
  8
OBJECT
 10
439.56658600000009
 20
414.49745999999999
 30
0.0
 11
439.51508799999999
 21
414.87048399999992
 31
0.0
  0
LINE
  5
F4089
  8
OBJECT
 10
439.51508799999999
 20
414.87048399999992
 30
0.0
 11
439.36989499999999
 21
415.24169699999987
 31
0.0
  0
LINE
  5
F408A
  8
OBJECT
 10
439.36989499999999
 20
415.24169699999987
 30
0.0
 11
439.14142500000003
 21
415.60922799999997
 31
0.0
  0
LINE
  5
F408B
  8
OBJECT
 10
439.14142500000003
 20
415.60922799999997
 30
0.0
 11
438.84009299999963
 21
415.97120199999989
 31
0.0
  0
LINE
  5
F408C
  8
OBJECT
 10
438.84009299999963
 20
415.97120199999989
 30
0.0
 11
438.4763190000001
 21
416.32574799999992
 31
0.0
  0
LINE
  5
F408D
  8
OBJECT
 10
438.4763190000001
 20
416.32574799999992
 30
0.0
 11
438.06051799999989
 21
416.67099300000001
 31
0.0
  0
LINE
  5
F408E
  8
OBJECT
 10
438.06051799999989
 20
416.67099300000001
 30
0.0
 11
437.6031069999998
 21
417.005064
 31
0.0
  0
LINE
  5
F408F
  8
OBJECT
 10
437.6031069999998
 20
417.005064
 30
0.0
 11
437.11450400000001
 21
417.32608699999997
 31
0.0
  0
LINE
  5
F4090
  8
OBJECT
 10
437.11450400000001
 20
417.32608699999997
 30
0.0
 11
436.60512599999981
 21
417.63219099999992
 31
0.0
  0
LINE
  5
F4091
  8
OBJECT
 10
436.60512599999981
 20
417.63219099999992
 30
0.0
 11
436.08538999999979
 21
417.92150299999997
 31
0.0
  0
LINE
  5
F4092
  8
OBJECT
 10
436.08538999999979
 20
417.92150299999997
 30
0.0
 11
435.56571299999979
 21
418.1921489999998
 31
0.0
  0
LINE
  5
F4093
  8
OBJECT
 10
435.56571299999979
 20
418.1921489999998
 30
0.0
 11
435.056512
 21
418.44225699999993
 31
0.0
  0
LINE
  5
F4094
  8
OBJECT
 10
435.056512
 20
418.44225699999993
 30
0.0
 11
434.56820299999993
 21
418.66995500000002
 31
0.0
  0
LINE
  5
F4095
  8
OBJECT
 10
434.56820299999993
 20
418.66995500000002
 30
0.0
 11
434.11120499999993
 21
418.87336899999991
 31
0.0
  0
LINE
  5
F4096
  8
OBJECT
 10
434.11120499999993
 20
418.87336899999991
 30
0.0
 11
433.69593399999991
 21
419.05062699999991
 31
0.0
  0
LINE
  5
F4097
  8
OBJECT
 10
433.69593399999991
 20
419.05062699999991
 30
0.0
 11
433.33280799999989
 21
419.19985500000001
 31
0.0
  0
LINE
  5
F4098
  8
OBJECT
 10
433.33280799999989
 20
419.19985500000001
 30
0.0
 11
433.03224299999982
 21
419.31918200000001
 31
0.0
  0
LINE
  5
F4099
  8
OBJECT
 10
433.03224299999982
 20
419.31918200000001
 30
0.0
 11
432.80465600000002
 21
419.40673399999997
 31
0.0
  0
LINE
  5
F409A
  8
OBJECT
 10
432.80465600000002
 20
419.40673399999997
 30
0.0
 11
432.66046499999987
 21
419.46063900000001
 31
0.0
  0
LINE
  5
F409B
  8
OBJECT
 10
432.66046499999987
 20
419.46063900000001
 30
0.0
 11
432.61008600000008
 21
419.47902299999993
 31
0.0
  0
LINE
  5
F409C
  8
OBJECT
 10
440.56658599999997
 20
404.49745999999988
 30
0.0
 11
440.56658599999997
 21
424.49745999999988
 31
0.0
  0
LINE
  5
F409D
  8
OBJECT
 10
442.56658600000009
 20
404.49745999999988
 30
0.0
 11
442.56658600000009
 21
424.49745999999988
 31
0.0
  0
LINE
  5
F409E
  8
OBJECT
 10
377.56658600000009
 20
410.30935899999992
 30
0.0
 11
388.81710800000002
 21
410.30935899999992
 31
0.0
  0
LINE
  5
F409F
  8
OBJECT
 10
377.56658600000009
 20
418.68556100000001
 30
0.0
 11
388.81710800000002
 21
418.68556100000001
 31
0.0
  0
LINE
  5
F40A0
  8
OBJECT
 10
378.3784849999999
 20
419.49745999999999
 30
0.0
 11
378.3784849999999
 21
409.49745999999988
 31
0.0
  0
LINE
  5
F40A1
  8
OBJECT
 10
378.3784849999999
 20
419.49745999999999
 30
0.0
 11
388.81710800000002
 21
419.49745999999999
 31
0.0
  0
LINE
  5
F40A2
  8
OBJECT
 10
377.56658600000009
 20
418.68556100000001
 30
0.0
 11
378.3784849999999
 21
419.49745999999999
 31
0.0
  0
LINE
  5
F40A3
  8
OBJECT
 10
377.56658600000009
 20
410.30935899999992
 30
0.0
 11
377.56658600000009
 21
418.68556100000001
 31
0.0
  0
LINE
  5
F40A4
  8
OBJECT
 10
378.3784849999999
 20
409.49745999999988
 30
0.0
 11
377.56658600000009
 21
410.30935899999992
 31
0.0
  0
LINE
  5
F40A5
  8
OBJECT
 10
378.3784849999999
 20
409.49745999999988
 30
0.0
 11
388.81710800000002
 21
409.49745999999988
 31
0.0
  0
LINE
  5
F40A6
  8
OBJECT
 10
442.56658600000009
 20
424.49745999999988
 30
0.0
 11
432.56658599999997
 21
424.49745999999988
 31
0.0
  0
LINE
  5
F40A7
  8
OBJECT
 10
442.56658600000009
 20
404.49745999999988
 30
0.0
 11
432.56658599999997
 21
404.49745999999988
 31
0.0
  0
LINE
  5
F40A8
  8
OBJECT
 10
432.56658599999997
 20
404.49745999999988
 30
0.0
 11
432.56658599999997
 21
424.49745999999988
 31
0.0
  0
LINE
  5
F40A9
  8
OBJECT
 10
418.56658600000009
 20
409.49745999999988
 30
0.0
 11
412.217108
 21
409.49745999999988
 31
0.0
  0
LINE
  5
F40AA
  8
OBJECT
 10
418.56658600000009
 20
419.49745999999999
 30
0.0
 11
412.217108
 21
419.49745999999999
 31
0.0
  0
LINE
  5
F40AB
  8
OBJECT
 10
388.81710800000002
 20
533.56925699999988
 30
0.0
 11
388.81710800000002
 21
547.42566399999998
 31
0.0
  0
ARC
  5
F40AC
  8
OBJECT
 10
392.84041400000001
 20
547.42566399999998
 30
0.0
 40
4.0233059999999981
 50
144.9699640000029
 51
215.0300359999971
  0
ARC
  5
F40AD
  8
OBJECT
 10
392.84041400000001
 20
533.56925699999988
 30
0.0
 40
4.0233059999999981
 50
144.9699640000029
 51
215.0300359999971
  0
ARC
  5
F40AE
  8
OBJECT
 10
403.81710799999979
 20
540.49746000000005
 30
0.0
 40
15.0
 50
162.06606699999921
 51
197.93393300000071
  0
LINE
  5
F40AF
  8
OBJECT
 10
397.21710800000011
 20
535.87865800000009
 30
0.0
 11
389.54592400000001
 21
535.87865800000009
 31
0.0
  0
LINE
  5
F40B0
  8
OBJECT
 10
397.21710800000011
 20
545.11626299999978
 30
0.0
 11
389.54592400000001
 21
545.11626299999978
 31
0.0
  0
LINE
  5
F40B1
  8
OBJECT
 10
397.21710800000011
 20
531.25985599999967
 30
0.0
 11
389.54592400000001
 21
531.25985599999967
 31
0.0
  0
LINE
  5
F40B2
  8
OBJECT
 10
397.21710800000011
 20
549.73506499999985
 30
0.0
 11
397.21710800000011
 21
531.25985599999967
 31
0.0
  0
LINE
  5
F40B3
  8
OBJECT
 10
389.54592400000001
 20
549.73506499999985
 30
0.0
 11
397.21710800000011
 21
549.73506499999985
 31
0.0
  0
LINE
  5
F40B4
  8
OBJECT
 10
418.56658600000009
 20
535.49746000000005
 30
0.0
 11
412.217108
 21
535.49746000000005
 31
0.0
  0
LINE
  5
F40B5
  8
OBJECT
 10
418.56658600000009
 20
545.49746000000005
 30
0.0
 11
412.217108
 21
545.49746000000005
 31
0.0
  0
LINE
  5
F40B6
  8
OBJECT
 10
432.56658599999997
 20
550.49745999999971
 30
0.0
 11
432.56658599999997
 21
530.49745999999982
 31
0.0
  0
LINE
  5
F40B7
  8
OBJECT
 10
442.56658600000009
 20
550.49745999999971
 30
0.0
 11
432.56658599999997
 21
550.49745999999971
 31
0.0
  0
LINE
  5
F40B8
  8
OBJECT
 10
442.56658600000009
 20
530.49745999999982
 30
0.0
 11
432.56658599999997
 21
530.49745999999982
 31
0.0
  0
LINE
  5
F40B9
  8
OBJECT
 10
378.3784849999999
 20
545.49746000000005
 30
0.0
 11
388.81710800000002
 21
545.49746000000005
 31
0.0
  0
LINE
  5
F40BA
  8
OBJECT
 10
378.3784849999999
 20
545.49746000000005
 30
0.0
 11
377.56658600000009
 21
544.68556099999989
 31
0.0
  0
LINE
  5
F40BB
  8
OBJECT
 10
377.56658600000009
 20
544.68556099999989
 30
0.0
 11
377.56658600000009
 21
536.30935899999997
 31
0.0
  0
LINE
  5
F40BC
  8
OBJECT
 10
377.56658600000009
 20
536.30935899999997
 30
0.0
 11
378.3784849999999
 21
535.49746000000005
 31
0.0
  0
LINE
  5
F40BD
  8
OBJECT
 10
378.3784849999999
 20
535.49746000000005
 30
0.0
 11
388.81710800000002
 21
535.49746000000005
 31
0.0
  0
LINE
  5
F40BE
  8
OBJECT
 10
378.3784849999999
 20
535.49746000000005
 30
0.0
 11
378.3784849999999
 21
545.49746000000005
 31
0.0
  0
LINE
  5
F40BF
  8
OBJECT
 10
377.56658600000009
 20
536.30935899999997
 30
0.0
 11
388.81710800000002
 21
536.30935899999997
 31
0.0
  0
LINE
  5
F40C0
  8
OBJECT
 10
377.56658600000009
 20
544.68556099999989
 30
0.0
 11
388.81710800000002
 21
544.68556099999989
 31
0.0
  0
LINE
  5
F40C1
  8
OBJECT
 10
442.56658600000009
 20
550.49745999999971
 30
0.0
 11
442.56658600000009
 21
530.49745999999982
 31
0.0
  0
LINE
  5
F40C2
  8
OBJECT
 10
440.56658599999997
 20
550.49745999999971
 30
0.0
 11
440.56658599999997
 21
530.49745999999982
 31
0.0
  0
LINE
  5
F40C3
  8
OBJECT
 10
432.56658599999997
 20
545.49746000000005
 30
0.0
 11
432.61739199999982
 21
545.47903799999995
 31
0.0
  0
LINE
  5
F40C4
  8
OBJECT
 10
432.61739199999982
 20
545.47903799999995
 30
0.0
 11
432.7627989999998
 21
545.42501700000003
 31
0.0
  0
LINE
  5
F40C5
  8
OBJECT
 10
432.7627989999998
 20
545.42501700000003
 30
0.0
 11
432.99228900000003
 21
545.33726899999999
 31
0.0
  0
LINE
  5
F40C6
  8
OBJECT
 10
432.99228900000003
 20
545.33726899999999
 30
0.0
 11
433.295344
 21
545.21766300000002
 31
0.0
  0
LINE
  5
F40C7
  8
OBJECT
 10
433.295344
 20
545.21766300000002
 30
0.0
 11
433.66144699999978
 21
545.06806899999958
 31
0.0
  0
LINE
  5
F40C8
  8
OBJECT
 10
433.66144699999978
 20
545.06806899999958
 30
0.0
 11
434.08007900000013
 21
544.89035899999965
 31
0.0
  0
LINE
  5
F40C9
  8
OBJECT
 10
434.08007900000013
 20
544.89035899999965
 30
0.0
 11
434.54072300000013
 21
544.68640099999959
 31
0.0
  0
LINE
  5
F40CA
  8
OBJECT
 10
434.54072300000013
 20
544.68640099999959
 30
0.0
 11
435.03286100000003
 21
544.45806700000003
 31
0.0
  0
LINE
  5
F40CB
  8
OBJECT
 10
435.03286100000003
 20
544.45806700000003
 30
0.0
 11
435.545975
 21
544.20722699999965
 31
0.0
  0
LINE
  5
F40CC
  8
OBJECT
 10
435.545975
 20
544.20722699999965
 30
0.0
 11
436.06954799999988
 21
543.93575099999975
 31
0.0
  0
LINE
  5
F40CD
  8
OBJECT
 10
436.06954799999988
 20
543.93575099999975
 30
0.0
 11
436.59306099999992
 21
543.64550899999995
 31
0.0
  0
LINE
  5
F40CE
  8
OBJECT
 10
436.59306099999992
 20
543.64550899999995
 30
0.0
 11
437.105998
 21
543.33837100000005
 31
0.0
  0
LINE
  5
F40CF
  8
OBJECT
 10
437.105998
 20
543.33837100000005
 30
0.0
 11
437.59783999999991
 21
543.01620799999966
 31
0.0
  0
LINE
  5
F40D0
  8
OBJECT
 10
437.59783999999991
 20
543.01620799999966
 30
0.0
 11
438.0580690000001
 21
542.68088999999998
 31
0.0
  0
LINE
  5
F40D1
  8
OBJECT
 10
438.0580690000001
 20
542.68088999999998
 30
0.0
 11
438.47616799999992
 21
542.3342869999999
 31
0.0
  0
LINE
  5
F40D2
  8
OBJECT
 10
438.47616799999992
 20
542.3342869999999
 30
0.0
 11
438.84161899999998
 21
541.97826999999995
 31
0.0
  0
LINE
  5
F40D3
  8
OBJECT
 10
438.84161899999998
 20
541.97826999999995
 30
0.0
 11
439.14390400000002
 21
541.61470799999995
 31
0.0
  0
LINE
  5
F40D4
  8
OBJECT
 10
439.14390400000002
 20
541.61470799999995
 30
0.0
 11
439.37250499999988
 21
541.24547299999983
 31
0.0
  0
LINE
  5
F40D5
  8
OBJECT
 10
439.37250499999988
 20
541.24547299999983
 30
0.0
 11
439.51690499999989
 21
540.872433
 31
0.0
  0
LINE
  5
F40D6
  8
OBJECT
 10
439.51690499999989
 20
540.872433
 30
0.0
 11
439.56658600000009
 21
540.49746000000005
 31
0.0
  0
LINE
  5
F40D7
  8
OBJECT
 10
439.56658600000009
 20
540.49746000000005
 30
0.0
 11
439.51508799999999
 21
540.12443699999994
 31
0.0
  0
LINE
  5
F40D8
  8
OBJECT
 10
439.51508799999999
 20
540.12443699999994
 30
0.0
 11
439.36989499999999
 21
539.75322300000005
 31
0.0
  0
LINE
  5
F40D9
  8
OBJECT
 10
439.36989499999999
 20
539.75322300000005
 30
0.0
 11
439.14142500000003
 21
539.38569299999995
 31
0.0
  0
LINE
  5
F40DA
  8
OBJECT
 10
439.14142500000003
 20
539.38569299999995
 30
0.0
 11
438.84009299999963
 21
539.02371899999991
 31
0.0
  0
LINE
  5
F40DB
  8
OBJECT
 10
438.84009299999963
 20
539.02371899999991
 30
0.0
 11
438.4763190000001
 21
538.66917299999989
 31
0.0
  0
LINE
  5
F40DC
  8
OBJECT
 10
438.4763190000001
 20
538.66917299999989
 30
0.0
 11
438.06051799999989
 21
538.32392799999968
 31
0.0
  0
LINE
  5
F40DD
  8
OBJECT
 10
438.06051799999989
 20
538.32392799999968
 30
0.0
 11
437.6031069999998
 21
537.98985700000003
 31
0.0
  0
LINE
  5
F40DE
  8
OBJECT
 10
437.6031069999998
 20
537.98985700000003
 30
0.0
 11
437.11450400000001
 21
537.66883399999995
 31
0.0
  0
LINE
  5
F40DF
  8
OBJECT
 10
437.11450400000001
 20
537.66883399999995
 30
0.0
 11
436.60512599999981
 21
537.36273000000006
 31
0.0
  0
LINE
  5
F40E0
  8
OBJECT
 10
436.60512599999981
 20
537.36273000000006
 30
0.0
 11
436.08538999999979
 21
537.07341799999995
 31
0.0
  0
LINE
  5
F40E1
  8
OBJECT
 10
436.08538999999979
 20
537.07341799999995
 30
0.0
 11
435.56571299999979
 21
536.80277199999966
 31
0.0
  0
LINE
  5
F40E2
  8
OBJECT
 10
435.56571299999979
 20
536.80277199999966
 30
0.0
 11
435.056512
 21
536.55266299999971
 31
0.0
  0
LINE
  5
F40E3
  8
OBJECT
 10
435.056512
 20
536.55266299999971
 30
0.0
 11
434.56820299999993
 21
536.3249659999999
 31
0.0
  0
LINE
  5
F40E4
  8
OBJECT
 10
434.56820299999993
 20
536.3249659999999
 30
0.0
 11
434.11120499999993
 21
536.12155199999984
 31
0.0
  0
LINE
  5
F40E5
  8
OBJECT
 10
434.11120499999993
 20
536.12155199999984
 30
0.0
 11
433.69593399999991
 21
535.9442939999999
 31
0.0
  0
LINE
  5
F40E6
  8
OBJECT
 10
433.69593399999991
 20
535.9442939999999
 30
0.0
 11
433.33280799999989
 21
535.79506599999991
 31
0.0
  0
LINE
  5
F40E7
  8
OBJECT
 10
433.33280799999989
 20
535.79506599999991
 30
0.0
 11
433.03224299999982
 21
535.67573899999991
 31
0.0
  0
LINE
  5
F40E8
  8
OBJECT
 10
433.03224299999982
 20
535.67573899999991
 30
0.0
 11
432.80465600000002
 21
535.58818700000006
 31
0.0
  0
LINE
  5
F40E9
  8
OBJECT
 10
432.80465600000002
 20
535.58818700000006
 30
0.0
 11
432.66046499999987
 21
535.53428199999985
 31
0.0
  0
LINE
  5
F40EA
  8
OBJECT
 10
432.66046499999987
 20
535.53428199999985
 30
0.0
 11
432.61008600000008
 21
535.51589799999965
 31
0.0
  0
LINE
  5
F40FB
  8
OBJECT
 10
515.93742099999997
 20
69.300000000000011
 30
0.0
 11
527.19575099999997
 21
69.300000000000011
 31
0.0
  0
ARC
  5
F40FC
  8
OBJECT
 10
527.19575099999997
 20
66.074286999999984
 30
0.0
 40
3.2257129999999989
 50
54.429989999999862
 51
125.5700100000001
  0
ARC
  5
F40FD
  8
OBJECT
 10
515.93742099999997
 20
66.074286999999984
 30
0.0
 40
3.2257129999999989
 50
54.429989999999862
 51
125.5700100000001
  0
ARC
  5
F40FE
  8
OBJECT
 10
521.56658600000003
 20
57.299999999999997
 30
0.0
 40
12.0
 50
71.776086000002124
 51
108.2239139999979
  0
LINE
  5
F40FF
  8
OBJECT
 10
525.31936299999995
 20
68.698098999999985
 30
0.0
 11
525.31936299999995
 21
64.0
 31
0.0
  0
LINE
  5
F4100
  8
OBJECT
 10
517.81380899999988
 20
68.698098999999985
 30
0.0
 11
517.81380899999988
 21
64.0
 31
0.0
  0
LINE
  5
F4101
  8
OBJECT
 10
514.06103199999995
 20
64.0
 30
0.0
 11
514.06103199999995
 21
68.698098999999985
 31
0.0
  0
LINE
  5
F4102
  8
OBJECT
 10
529.07213899999977
 20
64.0
 30
0.0
 11
514.06103199999995
 21
64.0
 31
0.0
  0
LINE
  5
F4103
  8
OBJECT
 10
529.07213899999977
 20
68.698098999999985
 30
0.0
 11
529.07213899999977
 21
64.0
 31
0.0
  0
LINE
  5
F4104
  8
OBJECT
 10
496.56658599999992
 20
58.0
 30
0.0
 11
546.56658600000003
 21
58.0
 31
0.0
  0
LINE
  5
F4105
  8
OBJECT
 10
546.56658600000003
 20
58.0
 30
0.0
 11
546.56658600000003
 21
64.0
 31
0.0
  0
LINE
  5
F4106
  8
OBJECT
 10
496.56658599999992
 20
64.0
 30
0.0
 11
546.56658600000003
 21
64.0
 31
0.0
  0
LINE
  5
F4107
  8
OBJECT
 10
496.56658599999992
 20
58.0
 30
0.0
 11
496.56658599999992
 21
64.0
 31
0.0
  0
LINE
  5
F4108
  8
OBJECT
 10
496.56658599999992
 20
55.0
 30
0.0
 11
546.56658600000003
 21
55.0
 31
0.0
  0
LINE
  5
F4109
  8
OBJECT
 10
546.56658600000003
 20
55.0
 30
0.0
 11
546.56658600000003
 21
58.0
 31
0.0
  0
LINE
  5
F410A
  8
OBJECT
 10
546.56658600000003
 20
58.0
 30
0.0
 11
496.56658599999992
 21
58.0
 31
0.0
  0
LINE
  5
F410B
  8
OBJECT
 10
496.56658599999992
 20
58.0
 30
0.0
 11
496.56658599999992
 21
55.0
 31
0.0
  0
LINE
  5
F412C
  8
OBJECT
 10
515.06658600000003
 20
446.24468400000001
 30
0.0
 11
515.06658600000003
 21
453.75023699999991
 31
0.0
  0
LINE
  5
F412D
  8
OBJECT
 10
515.06658600000003
 20
453.75023699999991
 30
0.0
 11
521.56658600000003
 21
457.50301399999989
 31
0.0
  0
LINE
  5
F412E
  8
OBJECT
 10
521.56658600000003
 20
457.50301399999989
 30
0.0
 11
528.06658600000003
 21
453.75023699999991
 31
0.0
  0
LINE
  5
F412F
  8
OBJECT
 10
528.06658600000003
 20
453.75023699999991
 30
0.0
 11
528.06658600000003
 21
446.24468400000001
 31
0.0
  0
LINE
  5
F4130
  8
OBJECT
 10
528.06658600000003
 20
446.24468400000001
 30
0.0
 11
521.56658600000003
 21
442.49190700000003
 31
0.0
  0
LINE
  5
F4131
  8
OBJECT
 10
521.56658600000003
 20
442.49190700000003
 30
0.0
 11
515.06658600000003
 21
446.24468400000001
 31
0.0
  0
CIRCLE
  5
F4132
  8
OBJECT
 10
521.56658600000003
 20
449.99745999999988
 30
0.0
 40
6.5
  0
LINE
  5
F4133
  8
OBJECT
 10
515.06658600000003
 20
501.24468399999989
 30
0.0
 11
515.06658600000003
 21
508.75023700000003
 31
0.0
  0
LINE
  5
F4134
  8
OBJECT
 10
515.06658600000003
 20
508.75023700000003
 30
0.0
 11
521.56658600000003
 21
512.50301399999978
 31
0.0
  0
LINE
  5
F4135
  8
OBJECT
 10
521.56658600000003
 20
512.50301399999978
 30
0.0
 11
528.06658600000003
 21
508.75023700000003
 31
0.0
  0
LINE
  5
F4136
  8
OBJECT
 10
528.06658600000003
 20
508.75023700000003
 30
0.0
 11
528.06658600000003
 21
501.24468399999989
 31
0.0
  0
LINE
  5
F4137
  8
OBJECT
 10
528.06658600000003
 20
501.24468399999989
 30
0.0
 11
521.56658600000003
 21
497.4919069999998
 31
0.0
  0
LINE
  5
F4138
  8
OBJECT
 10
521.56658600000003
 20
497.4919069999998
 30
0.0
 11
515.06658600000003
 21
501.24468399999989
 31
0.0
  0
CIRCLE
  5
F4139
  8
OBJECT
 10
521.56658600000003
 20
504.99745999999959
 30
0.0
 40
6.5
  0
LINE
  5
F4182
  8
OBJECT
 10
113.3018999999999
 20
7.5055530000000061
 30
0.0
 11
118.0
 21
7.5055530000000061
 31
0.0
  0
LINE
  5
F4183
  8
OBJECT
 10
118.0
 20
7.5055530000000061
 30
0.0
 11
118.0
 21
-7.5055540000000169
 31
0.0
  0
LINE
  5
F4184
  8
OBJECT
 10
118.0
 20
-7.5055540000000169
 30
0.0
 11
113.3018999999999
 21
-7.5055540000000169
 31
0.0
  0
LINE
  5
F4185
  8
OBJECT
 10
113.3018999999999
 20
-3.7527769999999792
 30
0.0
 11
118.0
 21
-3.7527769999999792
 31
0.0
  0
LINE
  5
F4186
  8
OBJECT
 10
113.3018999999999
 20
3.7527759999999959
 30
0.0
 11
118.0
 21
3.7527759999999959
 31
0.0
  0
ARC
  5
F4187
  8
OBJECT
 10
124.7
 20
0.0
 30
0.0
 40
12.0
 50
161.77608599999951
 51
198.22391400000041
  0
ARC
  5
F4188
  8
OBJECT
 10
115.9257119999999
 20
-5.6291650000000004
 30
0.0
 40
3.2257129999999989
 50
144.42999000000029
 51
215.57000999999971
  0
ARC
  5
F4189
  8
OBJECT
 10
115.9257119999999
 20
5.6291650000000004
 30
0.0
 40
3.2257129999999989
 50
144.42999000000029
 51
215.57000999999971
  0
LINE
  5
F418A
  8
OBJECT
 10
112.7
 20
-5.6291650000000004
 30
0.0
 11
112.7
 21
5.6291650000000004
 31
0.0
  0
LINE
  5
F418B
  8
OBJECT
 10
162.32341699999981
 20
4.0
 30
0.0
 11
155.9371079999998
 21
4.0
 31
0.0
  0
LINE
  5
F418C
  8
OBJECT
 10
162.32341699999981
 20
4.0
 30
0.0
 11
163.0
 21
3.323417000000005
 31
0.0
  0
LINE
  5
F418D
  8
OBJECT
 10
163.0
 20
3.323417000000005
 30
0.0
 11
163.0
 21
-3.323417999999974
 31
0.0
  0
LINE
  5
F418E
  8
OBJECT
 10
163.0
 20
-3.323417999999974
 30
0.0
 11
162.32341699999981
 21
-4.0
 31
0.0
  0
LINE
  5
F418F
  8
OBJECT
 10
162.32341699999981
 20
-4.0
 30
0.0
 11
155.9371079999998
 21
-4.0
 31
0.0
  0
LINE
  5
F4190
  8
OBJECT
 10
162.32341699999981
 20
-4.0
 30
0.0
 11
162.32341699999981
 21
4.0
 31
0.0
  0
LINE
  5
F4191
  8
OBJECT
 10
163.0
 20
-3.323417999999974
 30
0.0
 11
155.9371079999998
 21
-3.323417999999974
 31
0.0
  0
LINE
  5
F4192
  8
OBJECT
 10
163.0
 20
3.323417000000005
 30
0.0
 11
155.9371079999998
 21
3.323417000000005
 31
0.0
  0
LINE
  5
F4193
  8
OBJECT
 10
136.1371079999999
 20
4.0
 30
0.0
 11
130.0
 21
4.0
 31
0.0
  0
LINE
  5
F4194
  8
OBJECT
 10
136.1371079999999
 20
3.323417000000005
 30
0.0
 11
130.0
 21
3.323417000000005
 31
0.0
  0
LINE
  5
F4195
  8
OBJECT
 10
136.1371079999999
 20
-3.323417999999974
 30
0.0
 11
130.0
 21
-3.323417999999974
 31
0.0
  0
LINE
  5
F4196
  8
OBJECT
 10
136.1371079999999
 20
-4.0
 30
0.0
 11
130.0
 21
-4.0
 31
0.0
  0
LINE
  5
F4197
  8
OBJECT
 10
155.33520799999991
 20
7.5055530000000061
 30
0.0
 11
149.1371079999999
 21
7.5055530000000061
 31
0.0
  0
LINE
  5
F4198
  8
OBJECT
 10
149.1371079999999
 20
7.5055530000000061
 30
0.0
 11
149.1371079999999
 21
-7.5055540000000169
 31
0.0
  0
LINE
  5
F4199
  8
OBJECT
 10
149.1371079999999
 20
-7.5055540000000169
 30
0.0
 11
155.33520799999991
 21
-7.5055540000000169
 31
0.0
  0
LINE
  5
F419A
  8
OBJECT
 10
149.1371079999999
 20
3.7527759999999959
 30
0.0
 11
155.33520799999991
 21
3.7527759999999959
 31
0.0
  0
LINE
  5
F419B
  8
OBJECT
 10
149.1371079999999
 20
-3.7527769999999792
 30
0.0
 11
155.33520799999991
 21
-3.7527769999999792
 31
0.0
  0
ARC
  5
F419C
  8
OBJECT
 10
143.9371079999998
 20
0.0
 30
0.0
 40
12.0
 50
341.77608599999962
 51
18.223914000000448
  0
ARC
  5
F419D
  8
OBJECT
 10
152.71139599999981
 20
-5.6291650000000004
 30
0.0
 40
3.2257129999999989
 50
324.42999000000032
 51
35.57000999999967
  0
ARC
  5
F419E
  8
OBJECT
 10
152.71139599999981
 20
5.6291650000000004
 30
0.0
 40
3.2257129999999989
 50
324.42999000000032
 51
35.57000999999967
  0
LINE
  5
F419F
  8
OBJECT
 10
155.9371079999998
 20
-5.6291650000000004
 30
0.0
 11
155.9371079999998
 21
5.6291650000000004
 31
0.0
  0
LINE
  5
F41A0
  8
OBJECT
 10
19.994445999999918
 20
68.698098999999985
 30
0.0
 11
19.994445999999918
 21
64.0
 31
0.0
  0
LINE
  5
F41A1
  8
OBJECT
 10
19.994445999999918
 20
64.0
 30
0.0
 11
35.005552999999971
 21
64.0
 31
0.0
  0
LINE
  5
F41A2
  8
OBJECT
 10
35.005552999999971
 20
64.0
 30
0.0
 11
35.005552999999971
 21
68.698098999999985
 31
0.0
  0
LINE
  5
F41A3
  8
OBJECT
 10
31.252775999999809
 20
68.698098999999985
 30
0.0
 11
31.252775999999809
 21
64.0
 31
0.0
  0
LINE
  5
F41A4
  8
OBJECT
 10
23.74722300000008
 20
68.698098999999985
 30
0.0
 11
23.74722300000008
 21
64.0
 31
0.0
  0
ARC
  5
F41A5
  8
OBJECT
 10
27.5
 20
57.299999999999997
 30
0.0
 40
12.0
 50
71.776086000002124
 51
108.2239139999979
  0
ARC
  5
F41A6
  8
OBJECT
 10
33.12916500000005
 20
66.074286999999984
 30
0.0
 40
3.2257129999999989
 50
54.429989999999862
 51
125.5700100000001
  0
ARC
  5
F41A7
  8
OBJECT
 10
21.870833999999832
 20
66.074286999999984
 30
0.0
 40
3.2257129999999989
 50
54.429989999999862
 51
125.5700100000001
  0
LINE
  5
F41A8
  8
OBJECT
 10
33.12916500000005
 20
69.300000000000011
 30
0.0
 11
21.870833999999832
 21
69.300000000000011
 31
0.0
  0
LINE
  5
F41A9
  8
OBJECT
 10
-21.870834999999929
 20
69.300000000000011
 30
0.0
 11
-33.129166000000168
 21
69.300000000000011
 31
0.0
  0
ARC
  5
F41AA
  8
OBJECT
 10
-33.129166000000168
 20
66.074286999999984
 30
0.0
 40
3.2257129999999989
 50
54.429989999999862
 51
125.5700100000001
  0
ARC
  5
F41AB
  8
OBJECT
 10
-21.870834999999929
 20
66.074286999999984
 30
0.0
 40
3.2257129999999989
 50
54.429989999999862
 51
125.5700100000001
  0
ARC
  5
F41AC
  8
OBJECT
 10
-27.5
 20
57.299999999999997
 30
0.0
 40
12.0
 50
71.776086000002124
 51
108.2239139999979
  0
LINE
  5
F41AD
  8
OBJECT
 10
-31.252776999999931
 20
68.698098999999985
 30
0.0
 11
-31.252776999999931
 21
64.0
 31
0.0
  0
LINE
  5
F41AE
  8
OBJECT
 10
-23.747224000000191
 20
68.698098999999985
 30
0.0
 11
-23.747224000000191
 21
64.0
 31
0.0
  0
LINE
  5
F41AF
  8
OBJECT
 10
-19.99444700000004
 20
64.0
 30
0.0
 11
-19.99444700000004
 21
68.698098999999985
 31
0.0
  0
LINE
  5
F41B0
  8
OBJECT
 10
-35.005554000000082
 20
64.0
 30
0.0
 11
-19.99444700000004
 21
64.0
 31
0.0
  0
LINE
  5
F41B1
  8
OBJECT
 10
-35.005554000000082
 20
68.698098999999985
 30
0.0
 11
-35.005554000000082
 21
64.0
 31
0.0
  0
LINE
  5
F41B2
  8
OBJECT
 10
-21.908903000000009
 20
58.0
 30
0.0
 11
-37.5
 21
58.0
 31
0.0
  0
LINE
  5
F41B3
  8
OBJECT
 10
37.5
 20
58.0
 30
0.0
 11
21.908902000000118
 21
58.0
 31
0.0
  0
LINE
  5
F41B4
  8
OBJECT
 10
-37.5
 20
58.0
 30
0.0
 11
-37.5
 21
64.0
 31
0.0
  0
LINE
  5
F41B5
  8
OBJECT
 10
-37.5
 20
64.0
 30
0.0
 11
37.5
 21
64.0
 31
0.0
  0
LINE
  5
F41B6
  8
OBJECT
 10
37.5
 20
64.0
 30
0.0
 11
37.5
 21
58.0
 31
0.0
  0
LINE
  5
F41B7
  8
OBJECT
 10
-53.762396000000066
 20
0.0
 30
0.0
 11
-58.381197999999799
 21
-8.0
 31
0.0
  0
LINE
  5
F41B8
  8
OBJECT
 10
-58.381197999999799
 20
-8.0
 30
0.0
 11
-67.618803000000071
 21
-8.0
 31
0.0
  0
LINE
  5
F41B9
  8
OBJECT
 10
-67.618803000000071
 20
-8.0
 30
0.0
 11
-72.23760500000003
 21
0.0
 31
0.0
  0
LINE
  5
F41BA
  8
OBJECT
 10
-72.23760500000003
 20
0.0
 30
0.0
 11
-67.618803000000071
 21
8.0
 31
0.0
  0
LINE
  5
F41BB
  8
OBJECT
 10
-67.618803000000071
 20
8.0
 30
0.0
 11
-58.381197999999799
 21
8.0
 31
0.0
  0
LINE
  5
F41BC
  8
OBJECT
 10
-58.381197999999799
 20
8.0
 30
0.0
 11
-53.762396000000066
 21
0.0
 31
0.0
  0
CIRCLE
  5
F41BD
  8
OBJECT
 10
-63.0
 20
0.0
 30
0.0
 40
8.0
  0
CIRCLE
  5
F41BE
  8
OBJECT
 10
-63.0
 20
0.0
 30
0.0
 40
5.0
  0
CIRCLE
  5
F41BF
  8
OBJECT
 10
-63.0
 20
0.0
 30
0.0
 40
4.1881009999999987
  0
LINE
  5
F41C0
  8
OBJECT
 10
72.237603999999919
 20
0.0
 30
0.0
 11
67.618802000000187
 21
-8.0
 31
0.0
  0
LINE
  5
F41C1
  8
OBJECT
 10
67.618802000000187
 20
-8.0
 30
0.0
 11
58.381196999999922
 21
-8.0
 31
0.0
  0
LINE
  5
F41C2
  8
OBJECT
 10
58.381196999999922
 20
-8.0
 30
0.0
 11
53.762394999999962
 21
0.0
 31
0.0
  0
LINE
  5
F41C3
  8
OBJECT
 10
53.762394999999962
 20
0.0
 30
0.0
 11
58.381196999999922
 21
8.0
 31
0.0
  0
LINE
  5
F41C4
  8
OBJECT
 10
58.381196999999922
 20
8.0
 30
0.0
 11
67.618802000000187
 21
8.0
 31
0.0
  0
LINE
  5
F41C5
  8
OBJECT
 10
67.618802000000187
 20
8.0
 30
0.0
 11
72.237603999999919
 21
0.0
 31
0.0
  0
CIRCLE
  5
F41C6
  8
OBJECT
 10
63.0
 20
0.0
 30
0.0
 40
8.0
  0
CIRCLE
  5
F41C7
  8
OBJECT
 10
63.0
 20
0.0
 30
0.0
 40
5.0
  0
CIRCLE
  5
F41C8
  8
OBJECT
 10
63.0
 20
0.0
 30
0.0
 40
4.1881009999999987
  0
LINE
  5
F41C9
  8
OBJECT
 10
537.19575099999963
 20
321.56035200000002
 30
0.0
 11
525.93742099999986
 21
321.56035200000002
 31
0.0
  0
ARC
  5
F41CA
  8
OBJECT
 10
525.93742099999986
 20
324.78606400000001
 30
0.0
 40
3.2257129999999989
 50
234.42998999999989
 51
305.57001000000008
  0
ARC
  5
F41CB
  8
OBJECT
 10
537.19575099999963
 20
324.78606400000001
 30
0.0
 40
3.2257129999999989
 50
234.42998999999989
 51
305.57001000000008
  0
ARC
  5
F41CC
  8
OBJECT
 10
531.56658600000026
 20
333.56035200000002
 30
0.0
 40
12.0
 50
251.7760860000021
 51
288.22391399999788
  0
LINE
  5
F41CD
  8
OBJECT
 10
535.31936299999995
 20
328.36035199999998
 30
0.0
 11
535.31936299999995
 21
322.16225200000002
 31
0.0
  0
LINE
  5
F41CE
  8
OBJECT
 10
527.81380899999976
 20
328.36035199999998
 30
0.0
 11
527.81380899999976
 21
322.16225200000002
 31
0.0
  0
LINE
  5
F41CF
  8
OBJECT
 10
539.07213899999999
 20
328.36035199999998
 30
0.0
 11
539.07213899999999
 21
322.16225200000002
 31
0.0
  0
LINE
  5
F41D0
  8
OBJECT
 10
524.06103199999995
 20
328.36035199999998
 30
0.0
 11
539.07213899999999
 21
328.36035199999998
 31
0.0
  0
LINE
  5
F41D1
  8
OBJECT
 10
524.06103199999995
 20
322.16225200000002
 30
0.0
 11
524.06103199999995
 21
328.36035199999998
 31
0.0
  0
LINE
  5
F41D2
  8
OBJECT
 10
449.07213899999988
 20
322.16225200000002
 30
0.0
 11
449.07213899999988
 21
328.36035199999998
 31
0.0
  0
LINE
  5
F41D3
  8
OBJECT
 10
449.07213899999988
 20
328.36035199999998
 30
0.0
 11
434.06103200000001
 21
328.36035199999998
 31
0.0
  0
LINE
  5
F41D4
  8
OBJECT
 10
434.06103200000001
 20
328.36035199999998
 30
0.0
 11
434.06103200000001
 21
322.16225200000002
 31
0.0
  0
LINE
  5
F41D5
  8
OBJECT
 10
445.31936300000001
 20
328.36035199999998
 30
0.0
 11
445.31936300000001
 21
322.16225200000002
 31
0.0
  0
LINE
  5
F41D6
  8
OBJECT
 10
437.81380899999999
 20
328.36035199999998
 30
0.0
 11
437.81380899999999
 21
322.16225200000002
 31
0.0
  0
ARC
  5
F41D7
  8
OBJECT
 10
441.56658599999997
 20
333.56035200000002
 30
0.0
 40
12.0
 50
251.7760860000021
 51
288.22391399999788
  0
ARC
  5
F41D8
  8
OBJECT
 10
435.93742100000009
 20
324.78606400000001
 30
0.0
 40
3.2257129999999989
 50
234.42998999999989
 51
305.57001000000008
  0
ARC
  5
F41D9
  8
OBJECT
 10
447.19575099999997
 20
324.78606400000001
 30
0.0
 40
3.2257129999999989
 50
234.42998999999989
 51
305.57001000000008
  0
LINE
  5
F41DA
  8
OBJECT
 10
435.93742100000009
 20
321.56035200000002
 30
0.0
 11
447.19575099999997
 21
321.56035200000002
 31
0.0
  0
LINE
  5
F41DB
  8
OBJECT
 10
644.06103199999995
 20
322.16225200000002
 30
0.0
 11
644.06103199999995
 21
328.36035199999998
 31
0.0
  0
LINE
  5
F41DC
  8
OBJECT
 10
644.06103199999995
 20
328.36035199999998
 30
0.0
 11
659.07213900000011
 21
328.36035199999998
 31
0.0
  0
LINE
  5
F41DD
  8
OBJECT
 10
659.07213900000011
 20
328.36035199999998
 30
0.0
 11
659.07213900000011
 21
322.16225200000002
 31
0.0
  0
LINE
  5
F41DE
  8
OBJECT
 10
647.81380899999976
 20
328.36035199999998
 30
0.0
 11
647.81380899999976
 21
322.16225200000002
 31
0.0
  0
LINE
  5
F41DF
  8
OBJECT
 10
655.31936300000007
 20
328.36035199999998
 30
0.0
 11
655.31936300000007
 21
322.16225200000002
 31
0.0
  0
ARC
  5
F41E0
  8
OBJECT
 10
651.5665859999998
 20
333.56035200000002
 30
0.0
 40
12.0
 50
251.7760860000021
 51
288.22391399999788
  0
ARC
  5
F41E1
  8
OBJECT
 10
657.19575099999975
 20
324.78606400000001
 30
0.0
 40
3.2257129999999989
 50
234.42998999999989
 51
305.57001000000008
  0
ARC
  5
F41E2
  8
OBJECT
 10
645.93742099999997
 20
324.78606400000001
 30
0.0
 40
3.2257129999999989
 50
234.42998999999989
 51
305.57001000000008
  0
LINE
  5
F41E3
  8
OBJECT
 10
657.19575099999975
 20
321.56035200000002
 30
0.0
 11
645.93742099999997
 21
321.56035200000002
 31
0.0
  0
LINE
  5
F41E4
  8
OBJECT
 10
555.93742099999986
 20
321.56035200000002
 30
0.0
 11
567.19575099999975
 21
321.56035200000002
 31
0.0
  0
ARC
  5
F41E5
  8
OBJECT
 10
567.19575099999975
 20
324.78606400000001
 30
0.0
 40
3.2257129999999989
 50
234.42998999999989
 51
305.57001000000008
  0
ARC
  5
F41E6
  8
OBJECT
 10
555.93742099999986
 20
324.78606400000001
 30
0.0
 40
3.2257129999999989
 50
234.42998999999989
 51
305.57001000000008
  0
ARC
  5
F41E7
  8
OBJECT
 10
561.56658600000003
 20
333.56035200000002
 30
0.0
 40
12.0
 50
251.7760860000021
 51
288.22391399999788
  0
LINE
  5
F41E8
  8
OBJECT
 10
557.81380899999965
 20
328.36035199999998
 30
0.0
 11
557.81380899999965
 21
322.16225200000002
 31
0.0
  0
LINE
  5
F41E9
  8
OBJECT
 10
565.31936299999995
 20
328.36035199999998
 30
0.0
 11
565.31936299999995
 21
322.16225200000002
 31
0.0
  0
LINE
  5
F41EA
  8
OBJECT
 10
554.06103199999995
 20
328.36035199999998
 30
0.0
 11
554.06103199999995
 21
322.16225200000002
 31
0.0
  0
LINE
  5
F41EB
  8
OBJECT
 10
569.07213899999999
 20
328.36035199999998
 30
0.0
 11
554.06103199999995
 21
328.36035199999998
 31
0.0
  0
LINE
  5
F41EC
  8
OBJECT
 10
569.07213899999999
 20
322.16225200000002
 30
0.0
 11
569.07213899999999
 21
328.36035199999998
 31
0.0
  0
CIRCLE
  5
F41ED
  8
OBJECT
 10
651.5665859999998
 20
0.0
 30
0.0
 40
3.3234180000000002
  0
CIRCLE
  5
F41EE
  8
OBJECT
 10
651.5665859999998
 20
0.0
 30
0.0
 40
4.0
  0
CIRCLE
  5
F41EF
  8
OBJECT
 10
651.5665859999998
 20
0.0
 30
0.0
 40
6.5
  0
LINE
  5
F41F0
  8
OBJECT
 10
647.81380899999976
 20
6.5
 30
0.0
 11
644.06103199999995
 21
0.0
 31
0.0
  0
LINE
  5
F41F1
  8
OBJECT
 10
655.31936300000007
 20
6.5
 30
0.0
 11
647.81380899999976
 21
6.5
 31
0.0
  0
LINE
  5
F41F2
  8
OBJECT
 10
659.07213900000011
 20
0.0
 30
0.0
 11
655.31936300000007
 21
6.5
 31
0.0
  0
LINE
  5
F41F3
  8
OBJECT
 10
655.31936300000007
 20
-6.5
 30
0.0
 11
659.07213900000011
 21
0.0
 31
0.0
  0
LINE
  5
F41F4
  8
OBJECT
 10
647.81380899999976
 20
-6.5
 30
0.0
 11
655.31936300000007
 21
-6.5
 31
0.0
  0
LINE
  5
F41F5
  8
OBJECT
 10
644.06103199999995
 20
0.0
 30
0.0
 11
647.81380899999976
 21
-6.5
 31
0.0
  0
CIRCLE
  5
F41F6
  8
OBJECT
 10
561.56658600000003
 20
0.0
 30
0.0
 40
3.3234180000000002
  0
CIRCLE
  5
F41F7
  8
OBJECT
 10
561.56658600000003
 20
0.0
 30
0.0
 40
4.0
  0
CIRCLE
  5
F41F8
  8
OBJECT
 10
561.56658600000003
 20
0.0
 30
0.0
 40
6.5
  0
LINE
  5
F41F9
  8
OBJECT
 10
557.81380899999965
 20
6.5
 30
0.0
 11
554.06103199999995
 21
0.0
 31
0.0
  0
LINE
  5
F41FA
  8
OBJECT
 10
565.31936299999995
 20
6.5
 30
0.0
 11
557.81380899999965
 21
6.5
 31
0.0
  0
LINE
  5
F41FB
  8
OBJECT
 10
569.07213899999999
 20
0.0
 30
0.0
 11
565.31936299999995
 21
6.5
 31
0.0
  0
LINE
  5
F41FC
  8
OBJECT
 10
565.31936299999995
 20
-6.5
 30
0.0
 11
569.07213899999999
 21
0.0
 31
0.0
  0
LINE
  5
F41FD
  8
OBJECT
 10
557.81380899999965
 20
-6.5
 30
0.0
 11
565.31936299999995
 21
-6.5
 31
0.0
  0
LINE
  5
F41FE
  8
OBJECT
 10
554.06103199999995
 20
0.0
 30
0.0
 11
557.81380899999965
 21
-6.5
 31
0.0
  0
CIRCLE
  5
F41FF
  8
OBJECT
 10
531.56658600000026
 20
0.0
 30
0.0
 40
3.3234180000000002
  0
CIRCLE
  5
F4200
  8
OBJECT
 10
531.56658600000026
 20
0.0
 30
0.0
 40
4.0
  0
CIRCLE
  5
F4201
  8
OBJECT
 10
531.56658600000026
 20
0.0
 30
0.0
 40
6.5
  0
LINE
  5
F4202
  8
OBJECT
 10
527.81380899999976
 20
6.5
 30
0.0
 11
524.06103199999995
 21
0.0
 31
0.0
  0
LINE
  5
F4203
  8
OBJECT
 10
535.31936299999995
 20
6.5
 30
0.0
 11
527.81380899999976
 21
6.5
 31
0.0
  0
LINE
  5
F4204
  8
OBJECT
 10
539.07213899999999
 20
0.0
 30
0.0
 11
535.31936299999995
 21
6.5
 31
0.0
  0
LINE
  5
F4205
  8
OBJECT
 10
535.31936299999995
 20
-6.5
 30
0.0
 11
539.07213899999999
 21
0.0
 31
0.0
  0
LINE
  5
F4206
  8
OBJECT
 10
527.81380899999976
 20
-6.5
 30
0.0
 11
535.31936299999995
 21
-6.5
 31
0.0
  0
LINE
  5
F4207
  8
OBJECT
 10
524.06103199999995
 20
0.0
 30
0.0
 11
527.81380899999976
 21
-6.5
 31
0.0
  0
CIRCLE
  5
F4208
  8
OBJECT
 10
441.56658599999997
 20
0.0
 30
0.0
 40
3.3234180000000002
  0
CIRCLE
  5
F4209
  8
OBJECT
 10
441.56658599999997
 20
0.0
 30
0.0
 40
4.0
  0
CIRCLE
  5
F420A
  8
OBJECT
 10
441.56658599999997
 20
0.0
 30
0.0
 40
6.5
  0
LINE
  5
F420B
  8
OBJECT
 10
437.81380899999999
 20
6.5
 30
0.0
 11
434.06103200000001
 21
0.0
 31
0.0
  0
LINE
  5
F420C
  8
OBJECT
 10
445.31936300000001
 20
6.5
 30
0.0
 11
437.81380899999999
 21
6.5
 31
0.0
  0
LINE
  5
F420D
  8
OBJECT
 10
449.07213899999988
 20
0.0
 30
0.0
 11
445.31936300000001
 21
6.5
 31
0.0
  0
LINE
  5
F420E
  8
OBJECT
 10
445.31936300000001
 20
-6.5
 30
0.0
 11
449.07213899999988
 21
0.0
 31
0.0
  0
LINE
  5
F420F
  8
OBJECT
 10
437.81380899999999
 20
-6.5
 30
0.0
 11
445.31936300000001
 21
-6.5
 31
0.0
  0
LINE
  5
F4210
  8
OBJECT
 10
434.06103200000001
 20
0.0
 30
0.0
 11
437.81380899999999
 21
-6.5
 31
0.0
  0
LINE
  5
F4211
  8
OBJECT
 10
412.217108
 20
-5.0
 30
0.0
 11
418.56658600000009
 21
-5.0
 31
0.0
  0
LINE
  5
F4212
  8
OBJECT
 10
412.217108
 20
-4.1881010000000032
 30
0.0
 11
418.56658600000009
 21
-4.1881010000000032
 31
0.0
  0
LINE
  5
F4213
  8
OBJECT
 10
412.217108
 20
5.0
 30
0.0
 11
418.56658600000009
 21
5.0
 31
0.0
  0
LINE
  5
F4214
  8
OBJECT
 10
412.217108
 20
4.1881010000000174
 30
0.0
 11
418.56658600000009
 21
4.1881010000000174
 31
0.0
  0
LINE
  5
F4215
  8
OBJECT
 10
383.37848500000001
 20
5.0
 30
0.0
 11
388.81710800000002
 21
5.0
 31
0.0
  0
LINE
  5
F4216
  8
OBJECT
 10
383.37848500000001
 20
5.0
 30
0.0
 11
382.56658600000009
 21
4.1881010000000174
 31
0.0
  0
LINE
  5
F4217
  8
OBJECT
 10
382.56658600000009
 20
4.1881010000000174
 30
0.0
 11
382.56658600000009
 21
-4.1881010000000032
 31
0.0
  0
LINE
  5
F4218
  8
OBJECT
 10
382.56658600000009
 20
-4.1881010000000032
 30
0.0
 11
383.37848500000001
 21
-5.0
 31
0.0
  0
LINE
  5
F4219
  8
OBJECT
 10
383.37848500000001
 20
-5.0
 30
0.0
 11
388.81710800000002
 21
-5.0
 31
0.0
  0
LINE
  5
F421A
  8
OBJECT
 10
383.37848500000001
 20
-5.0
 30
0.0
 11
383.37848500000001
 21
5.0
 31
0.0
  0
LINE
  5
F421B
  8
OBJECT
 10
382.56658600000009
 20
-4.1881010000000032
 30
0.0
 11
388.81710800000002
 21
-4.1881010000000032
 31
0.0
  0
LINE
  5
F421C
  8
OBJECT
 10
382.56658600000009
 20
4.1881010000000174
 30
0.0
 11
388.81710800000002
 21
4.1881010000000174
 31
0.0
  0
LINE
  5
F421D
  8
OBJECT
 10
389.54592400000001
 20
9.2376040000000028
 30
0.0
 11
397.21710800000011
 21
9.2376040000000028
 31
0.0
  0
LINE
  5
F421E
  8
OBJECT
 10
397.21710800000011
 20
9.2376040000000028
 30
0.0
 11
397.21710800000011
 21
-9.2376049999999896
 31
0.0
  0
LINE
  5
F421F
  8
OBJECT
 10
397.21710800000011
 20
-9.2376049999999896
 30
0.0
 11
389.54592400000001
 21
-9.2376049999999896
 31
0.0
  0
LINE
  5
F4220
  8
OBJECT
 10
397.21710800000011
 20
4.6188020000000014
 30
0.0
 11
389.54592400000001
 21
4.6188020000000014
 31
0.0
  0
LINE
  5
F4221
  8
OBJECT
 10
397.21710800000011
 20
-4.6188020000000147
 30
0.0
 11
389.54592400000001
 21
-4.6188020000000147
 31
0.0
  0
ARC
  5
F4222
  8
OBJECT
 10
403.81710799999979
 20
0.0
 30
0.0
 40
15.0
 50
162.06606699999921
 51
197.93393300000071
  0
ARC
  5
F4223
  8
OBJECT
 10
392.84041400000001
 20
-6.9282029999999963
 30
0.0
 40
4.0233059999999981
 50
144.9699640000029
 51
215.0300359999971
  0
ARC
  5
F4224
  8
OBJECT
 10
392.84041400000001
 20
6.9282030000000088
 30
0.0
 40
4.0233059999999981
 50
144.9699640000029
 51
215.0300359999971
  0
LINE
  5
F4225
  8
OBJECT
 10
388.81710800000002
 20
-6.9282029999999963
 30
0.0
 11
388.81710800000002
 21
6.9282030000000088
 31
0.0
  0
LINE
  5
F4226
  8
OBJECT
 10
389.54592400000001
 20
405.25985599999979
 30
0.0
 11
397.21710800000011
 21
405.25985599999979
 31
0.0
  0
LINE
  5
F4227
  8
OBJECT
 10
397.21710800000011
 20
405.25985599999979
 30
0.0
 11
397.21710800000011
 21
423.73506499999979
 31
0.0
  0
LINE
  5
F4228
  8
OBJECT
 10
397.21710800000011
 20
423.73506499999979
 30
0.0
 11
389.54592400000001
 21
423.73506499999979
 31
0.0
  0
LINE
  5
F4229
  8
OBJECT
 10
397.21710800000011
 20
409.87865799999992
 30
0.0
 11
389.54592400000001
 21
409.87865799999992
 31
0.0
  0
LINE
  5
F422A
  8
OBJECT
 10
397.21710800000011
 20
419.116263
 30
0.0
 11
389.54592400000001
 21
419.116263
 31
0.0
  0
ARC
  5
F422B
  8
OBJECT
 10
403.81710799999979
 20
414.49745999999999
 30
0.0
 40
15.0
 50
162.06606699999921
 51
197.93393300000071
  0
ARC
  5
F422C
  8
OBJECT
 10
392.84041400000001
 20
421.42566399999998
 30
0.0
 40
4.0233059999999981
 50
144.9699640000029
 51
215.0300359999971
  0
ARC
  5
F422D
  8
OBJECT
 10
392.84041400000001
 20
407.56925699999999
 30
0.0
 40
4.0233059999999981
 50
144.9699640000029
 51
215.0300359999971
  0
LINE
  5
F422E
  8
OBJECT
 10
388.81710800000002
 20
421.42566399999998
 30
0.0
 11
388.81710800000002
 21
407.56925699999999
 31
0.0
  0
LINE
  5
F422F
  8
OBJECT
 10
649.07213899999999
 20
68.698098999999985
 30
0.0
 11
649.07213899999999
 21
64.0
 31
0.0
  0
LINE
  5
F4230
  8
OBJECT
 10
649.07213899999999
 20
64.0
 30
0.0
 11
634.06103199999995
 21
64.0
 31
0.0
  0
LINE
  5
F4231
  8
OBJECT
 10
634.06103199999995
 20
64.0
 30
0.0
 11
634.06103199999995
 21
68.698098999999985
 31
0.0
  0
LINE
  5
F4232
  8
OBJECT
 10
637.81380899999988
 20
68.698098999999985
 30
0.0
 11
637.81380899999988
 21
64.0
 31
0.0
  0
LINE
  5
F4233
  8
OBJECT
 10
645.31936300000018
 20
68.698098999999985
 30
0.0
 11
645.31936300000018
 21
64.0
 31
0.0
  0
ARC
  5
F4234
  8
OBJECT
 10
641.56658600000014
 20
57.299999999999997
 30
0.0
 40
12.0
 50
71.776086000002124
 51
108.2239139999979
  0
ARC
  5
F4235
  8
OBJECT
 10
635.9374210000002
 20
66.074286999999984
 30
0.0
 40
3.2257129999999989
 50
54.429989999999862
 51
125.5700100000001
  0
ARC
  5
F4236
  8
OBJECT
 10
647.19575099999997
 20
66.074286999999984
 30
0.0
 40
3.2257129999999989
 50
54.429989999999862
 51
125.5700100000001
  0
LINE
  5
F4237
  8
OBJECT
 10
635.9374210000002
 20
69.300000000000011
 30
0.0
 11
647.19575099999997
 21
69.300000000000011
 31
0.0
  0
LINE
  5
F4238
  8
OBJECT
 10
616.56658600000014
 20
58.0
 30
0.0
 11
616.56658600000014
 21
64.0
 31
0.0
  0
LINE
  5
F4239
  8
OBJECT
 10
616.56658600000014
 20
64.0
 30
0.0
 11
666.5665859999998
 21
64.0
 31
0.0
  0
LINE
  5
F423A
  8
OBJECT
 10
666.5665859999998
 20
58.0
 30
0.0
 11
666.5665859999998
 21
64.0
 31
0.0
  0
LINE
  5
F423B
  8
OBJECT
 10
616.56658600000014
 20
58.0
 30
0.0
 11
666.5665859999998
 21
58.0
 31
0.0
  0
LINE
  5
F423C
  8
OBJECT
 10
616.56658600000014
 20
58.0
 30
0.0
 11
616.56658600000014
 21
55.0
 31
0.0
  0
LINE
  5
F423D
  8
OBJECT
 10
666.5665859999998
 20
58.0
 30
0.0
 11
616.56658600000014
 21
58.0
 31
0.0
  0
LINE
  5
F423E
  8
OBJECT
 10
666.5665859999998
 20
55.0
 30
0.0
 11
666.5665859999998
 21
58.0
 31
0.0
  0
LINE
  5
F423F
  8
OBJECT
 10
616.56658600000014
 20
55.0
 30
0.0
 11
666.5665859999998
 21
55.0
 31
0.0
  0
VIEWPORT
  5
F4263
 67
     1
  8
0
 10
142.58924865722659
 20
99.112914085388184
 30
0.0
 40
530.44970065452196
 41
222.15178063964851
 68
     1
 69
     1
1001
ACAD
1000
MVIEW
1002
{
1070
    16
1010
0.0
1020
0.0
1030
0.0
1010
0.0
1020
0.0
1030
1.0
1040
0.0
1040
222.15178063964851
1040
142.58924865722659
1040
99.112914085388184
1040
50.0
1040
0.0
1040
0.0
1070
     0
1070
     0
1070
     1
1070
     1
1070
     0
1070
     0
1070
     0
1070
     0
1040
0.0
1040
0.0
1040
0.0
1040
10.0
1040
10.0
1040
10.0
1040
10.0
1070
     0
1002
{
1002
}
1002
}
  0
VIEWPORT
  5
F4267
 67
     1
  8
OBJECT
 10
142.58924913406369
 20
99.112914562225356
 30
0.0
 40
228.142798614502
 41
158.58066329956051
 68
     2
 69
     2
1001
ACAD
1000
MVIEW
1002
{
1070
    16
1010
0.0
1020
0.0
1030
0.0
1010
0.0
1020
0.0
1030
1.0
1040
0.0
1040
1284.354915481528
1040
539.1639505000004
1040
136.79040154761921
1040
50.0
1040
0.0
1040
0.0
1070
     0
1070
   600
1070
     1
1070
     1
1070
     0
1070
     0
1070
     0
1070
     0
1040
0.0
1040
0.0
1040
0.0
1040
1.0
1040
1.0
1040
0.0
1040
0.0
1070
     0
1002
{
1002
}
1002
}
  0
ENDSEC
  0
EOF
