  0
SECTION
  2
HEADER
  9
$ACADVER
  1
AC1009
  9
$INSBASE
 10
0.0
 20
0.0
 30
0.0
  9
$EXTMIN
 10
-0.0000000000000089
 20
-1758.9999999999991
 30
0.0
  9
$EXTMAX
 10
12387.100000000009
 20
770.0
 30
0.0
  9
$LIMMIN
 10
0.0
 20
0.0
  9
$LIMMAX
 10
210.0
 20
297.0
  9
$ORTHOMODE
 70
     0
  9
$REGENMODE
 70
     1
  9
$FILLMODE
 70
     1
  9
$QTEXTMODE
 70
     0
  9
$MIRRTEXT
 70
     0
  9
$DRAGMODE
 70
     2
  9
$LTSCALE
 40
1.0
  9
$OSMODE
 70
  2557
  9
$ATTMODE
 70
     1
  9
$TEXTSIZE
 40
4.0
  9
$TRACEWID
 40
0.05
  9
$TEXTSTYLE
  7
STANDARD
  9
$CLAYER
  8
OBJECT
  9
$CELTYPE
  6
BYLAYER
  9
$CECOLOR
 62
   256
  9
$DIMSCALE
 40
10.0
  9
$DIMASZ
 40
2.0
  9
$DIMEXO
 40
1.0
  9
$DIMDLI
 40
10.0
  9
$DIMRND
 40
0.0
  9
$DIMDLE
 40
0.0
  9
$DIMEXE
 40
1.0
  9
$DIMTP
 40
0.0
  9
$DIMTM
 40
0.0
  9
$DIMTXT
 40
3.2000000000000002
  9
$DIMCEN
 40
0.0
  9
$DIMTSZ
 40
0.0
  9
$DIMTOL
 70
     0
  9
$DIMLIM
 70
     0
  9
$DIMTIH
 70
     0
  9
$DIMTOH
 70
     0
  9
$DIMSE1
 70
     0
  9
$DIMSE2
 70
     0
  9
$DIMTAD
 70
     1
  9
$DIMZIN
 70
     8
  9
$DIMBLK
  1
OPEN30
  9
$DIMASO
 70
     1
  9
$DIMSHO
 70
     1
  9
$DIMPOST
  1

  9
$DIMAPOST
  1

  9
$DIMALT
 70
     0
  9
$DIMALTD
 70
     2
  9
$DIMALTF
 40
25.399999999999999
  9
$DIMLFAC
 40
1.0
  9
$DIMTOFL
 70
     1
  9
$DIMTVP
 40
0.0
  9
$DIMTIX
 70
     0
  9
$DIMSOXD
 70
     0
  9
$DIMSAH
 70
     0
  9
$DIMBLK1
  1

  9
$DIMBLK2
  1

  9
$DIMSTYLE
  2
S10
  9
$DIMCLRD
 70
   256
  9
$DIMCLRE
 70
   256
  9
$DIMCLRT
 70
   256
  9
$DIMTFAC
 40
1.0
  9
$DIMGAP
 40
0.9
  9
$LUNITS
 70
     2
  9
$LUPREC
 70
     2
  9
$SKETCHINC
 40
0.1
  9
$FILLETRAD
 40
0.0
  9
$AUNITS
 70
     0
  9
$AUPREC
 70
     2
  9
$MENU
  1
ACAD
  9
$ELEVATION
 40
0.0
  9
$PELEVATION
 40
0.0
  9
$THICKNESS
 40
0.0
  9
$LIMCHECK
 70
     0
  9
$BLIPMODE
 70
     0
  9
$CHAMFERA
 40
2.0
  9
$CHAMFERB
 40
2.0
  9
$SKPOLY
 70
     0
  9
$TDCREATE
 40
2453095.4929404748
  9
$TDUPDATE
 40
2456535.7412469219
  9
$TDINDWG
 40
18.424961597199999
  9
$TDUSRTIMER
 40
18.424960868100001
  9
$USRTIMER
 70
     1
  9
$ANGBASE
 50
0.0
  9
$ANGDIR
 70
     0
  9
$PDMODE
 70
    35
  9
$PDSIZE
 40
2.0
  9
$PLINEWID
 40
0.0
  9
$COORDS
 70
     1
  9
$SPLFRAME
 70
     0
  9
$SPLINETYPE
 70
     6
  9
$SPLINESEGS
 70
     8
  9
$ATTDIA
 70
     1
  9
$ATTREQ
 70
     1
  9
$HANDLING
 70
     1
  9
$HANDSEED
  5
124948
  9
$SURFTAB1
 70
     6
  9
$SURFTAB2
 70
     6
  9
$SURFTYPE
 70
     6
  9
$SURFU
 70
     6
  9
$SURFV
 70
     6
  9
$UCSNAME
  2

  9
$UCSORG
 10
0.0
 20
0.0
 30
0.0
  9
$UCSXDIR
 10
1.0
 20
0.0
 30
0.0
  9
$UCSYDIR
 10
0.0
 20
1.0
 30
0.0
  9
$PUCSNAME
  2

  9
$PUCSORG
 10
0.0
 20
0.0
 30
0.0
  9
$PUCSXDIR
 10
1.0
 20
0.0
 30
0.0
  9
$PUCSYDIR
 10
0.0
 20
1.0
 30
0.0
  9
$USERI1
 70
     0
  9
$USERI2
 70
     0
  9
$USERI3
 70
     0
  9
$USERI4
 70
     0
  9
$USERI5
 70
     0
  9
$USERR1
 40
0.0
  9
$USERR2
 40
0.0
  9
$USERR3
 40
0.0
  9
$USERR4
 40
0.0
  9
$USERR5
 40
0.0
  9
$WORLDVIEW
 70
     1
  9
$SHADEDGE
 70
     3
  9
$SHADEDIF
 70
    70
  9
$TILEMODE
 70
     1
  9
$MAXACTVP
 70
    64
  9
$PLIMCHECK
 70
     0
  9
$PEXTMIN
 10
29.066066288948051
 20
20.366566777229309
 30
0.0
  9
$PEXTMAX
 10
261.5945966005325
 20
183.29910099506381
 30
0.0
  9
$PLIMMIN
 10
-3.17498779296875
 20
-3.1749999523162842
  9
$PLIMMAX
 10
293.83566284179687
 20
206.8406708240509
  9
$UNITMODE
 70
     0
  9
$VISRETAIN
 70
     1
  9
$PLINEGEN
 70
     0
  9
$PSLTSCALE
 70
     1
  0
ENDSEC
  0
SECTION
  2
TABLES
  0
TABLE
  2
VPORT
 70
     1
  0
VPORT
  2
*ACTIVE
 70
     0
 10
0.0
 20
0.0
 11
1.0
 21
1.0
 12
8325.4352361987894
 22
-5660.0684043131769
 13
0.0
 23
0.0
 14
1.0
 24
1.0
 15
0.0
 25
0.0
 16
0.0
 26
0.0
 36
1.0
 17
0.0
 27
0.0
 37
0.0
 40
28635.78734173227
 41
1.958525345622119
 42
50.0
 43
0.0
 44
0.0
 50
0.0
 51
0.0
 71
     0
 72
   600
 73
     1
 74
     1
 75
     0
 76
     0
 77
     0
 78
     0
  0
ENDTAB
  0
TABLE
  2
LTYPE
 70
     3
  0
LTYPE
  2
CONTINUOUS
 70
     0
  3
Solid line
 72
    65
 73
     0
 40
0.0
  0
LTYPE
  2
ACAD_ISO08W100
 70
     0
  3
ISO long-dash short-dash ____ __ ____ __ ____ _
 72
    65
 73
     4
 40
36.0
 49
24.0
 49
-3.0
 49
6.0
 49
-3.0
  0
LTYPE
  2
ACAD_ISO02W100
 70
     0
  3
ISO dash __ __ __ __ __ __ __ __ __ __ __ __ __
 72
    65
 73
     2
 40
15.0
 49
12.0
 49
-3.0
  0
ENDTAB
  0
TABLE
  2
LAYER
 70
     7
  0
LAYER
  2
0
 70
     0
 62
     7
  6
CONTINUOUS
  0
LAYER
  2
OBJECT
 70
     0
 62
     4
  6
CONTINUOUS
  0
LAYER
  2
DEFPOINTS
 70
     0
 62
     7
  6
CONTINUOUS
  0
LAYER
  2
HIDDEN
 70
     0
 62
     2
  6
ACAD_ISO02W100
  0
LAYER
  2
CENTER
 70
     0
 62
     2
  6
ACAD_ISO08W100
  0
LAYER
  2
DOTS
 70
     0
 62
     1
  6
CONTINUOUS
  0
LAYER
  2
SLIM
 70
     0
 62
     2
  6
CONTINUOUS
  0
ENDTAB
  0
TABLE
  2
STYLE
 70
     2
  0
STYLE
  2
STANDARD
 70
     0
 40
0.0
 41
0.75
 50
0.0
 71
     0
 42
4.0
  3
simplex.shx
  4
bigfont.shx
  0
ENDTAB
  0
TABLE
  2
VIEW
 70
     0
  0
ENDTAB
  0
TABLE
  2
UCS
 70
     0
  0
ENDTAB
  0
TABLE
  2
APPID
 70
    18
  0
APPID
  2
ACAD
 70
     0
  0
APPID
  2
ACADANNOTATIVE
 70
     0
  0
APPID
  2
ACAD_PSEXT
 70
     0
  0
APPID
  2
ACAD_EXEMPT_FROM_CAD_STANDARDS
 70
     0
  0
APPID
  2
ACAECLAYERSTANDARD
 70
     0
  0
APPID
  2
ACAUTHENVIRON
 70
     0
  0
APPID
  2
ACDBDYNAMICBLOCKTRUENAME
 70
     0
  0
APPID
  2
ACDBDYNAMICBLOCKGUID
 70
     0
  0
APPID
  2
ACDBBLOCKREPETAG
 70
     0
  0
APPID
  2
ACDBBLOCKREPBTAG
 70
     0
  0
APPID
  2
ACAD_NAV_VCDISPLAY
 70
     0
  0
APPID
  2
ACAD_DSTYLE_DIMRADIAL_EXTENSION
 70
     0
  0
APPID
  2
ACAD_DSTYLE_DIMJAG
 70
     0
  0
APPID
  2
ACAD_DSTYLE_DIMTALN
 70
     0
  0
APPID
  2
ACADANNOPO
 70
     0
  0
APPID
  2
GRADIENTCOLOR1ACI
 70
     0
  0
APPID
  2
GRADIENTCOLOR2ACI
 70
     0
  0
APPID
  2
ACAD_MLEADERVER
 70
     0
  0
ENDTAB
  0
TABLE
  2
DIMSTYLE
 70
     3
  0
DIMSTYLE
  2
STANDARD
 70
     0
  3

  4

  5

  6

  7

 40
1.0
 41
0.18
 42
0.0625
 43
0.38
 44
0.18
 45
0.0
 46
0.0
 47
0.0
 48
0.0
140
0.18
141
0.09
142
0.0
143
25.399999999999999
144
1.0
145
0.0
146
1.0
147
0.09
 71
     0
 72
     0
 73
     1
 74
     1
 75
     0
 76
     0
 77
     0
 78
     0
170
     0
171
     2
172
     0
173
     0
174
     0
175
     0
176
     0
177
     0
178
     0
  0
DIMSTYLE
  2
S10
 70
     0
  3

  4

  5

  6

  7

 40
10.0
 41
2.0
 42
1.0
 43
10.0
 44
1.0
 45
0.0
 46
0.0
 47
0.0
 48
0.0
140
3.2000000000000002
141
0.0
142
0.0
143
25.399999999999999
144
1.0
145
0.0
146
1.0
147
0.9
 71
     0
 72
     0
 73
     0
 74
     0
 75
     0
 76
     0
 77
     1
 78
     8
170
     0
171
     2
172
     1
173
     0
174
     0
175
     0
176
   256
177
   256
178
   256
  0
ENDTAB
  0
ENDSEC
  0
SECTION
  2
BLOCKS
  0
BLOCK
  8
0
  2
$MODEL_SPACE
 70
     0
 10
0.0
 20
0.0
 30
0.0
  3
$MODEL_SPACE
  1

  0
ENDBLK
  5
12486D
  8
0
  0
BLOCK
 67
     1
  8
0
  2
$PAPER_SPACE
 70
     0
 10
0.0
 20
0.0
 30
0.0
  3
$PAPER_SPACE
  1

  0
ENDBLK
  5
124869
 67
     1
  8
0
  0
BLOCK
  8
0
  2
_OPEN30
 70
     0
 10
0.0
 20
0.0
 30
0.0
  3
_OPEN30
  1

  0
LINE
  5
202
  8
0
  6
BYBLOCK
 62
     0
 10
-1.0
 20
0.26794919
 30
0.0
 11
0.0
 21
0.0
 31
0.0
  0
LINE
  5
203
  8
0
  6
BYBLOCK
 62
     0
 10
0.0
 20
0.0
 30
0.0
 11
-1.0
 21
-0.26794919
 31
0.0
  0
LINE
  5
204
  8
0
  6
BYBLOCK
 62
     0
 10
0.0
 20
0.0
 30
0.0
 11
-1.0
 21
0.0
 31
0.0
  0
ENDBLK
  5
206
  8
0
  0
ENDSEC
  0
SECTION
  2
ENTITIES
  0
LINE
  5
1243CE
  8
OBJECT
 10
11927.0
 20
-533.99999999999955
 30
0.0
 11
11930.0
 21
-533.99999999999955
 31
0.0
1001
ACDBBLOCKREPETAG
1070
     1
1071
        1
1005
1243CE
  0
ARC
  5
1243CF
  8
OBJECT
 10
11927.0
 20
-536.99999999999955
 30
0.0
 40
3.0
 50
90.0
 51
180.0
1001
ACDBBLOCKREPETAG
1070
     1
1071
        2
1005
1243CF
  0
LINE
  5
1243D0
  8
OBJECT
 10
11930.0
 20
-657.99999999999955
 30
0.0
 11
11927.0
 21
-657.99999999999955
 31
0.0
1001
ACDBBLOCKREPETAG
1070
     1
1071
        3
1005
1243D0
  0
ARC
  5
1243D1
  8
OBJECT
 10
11927.0
 20
-654.99999999999966
 30
0.0
 40
3.0
 50
180.0
 51
270.0
1001
ACDBBLOCKREPETAG
1070
     1
1071
        4
1005
1243D1
  0
LINE
  5
1243D2
  8
OBJECT
 10
11924.0
 20
-654.99999999999966
 30
0.0
 11
11924.0
 21
-536.99999999999955
 31
0.0
1001
ACDBBLOCKREPETAG
1070
     1
1071
        5
1005
1243D2
  0
CIRCLE
  5
1243D3
  8
OBJECT
 10
12000.0
 20
-596.0
 30
0.0
 40
62.0
1001
ACDBBLOCKREPETAG
1070
     1
1071
        0
1005
1243D3
  0
LINE
  5
1243D4
  8
OBJECT
 10
11935.0
 20
-449.99999999999937
 30
0.0
 11
11935.0
 21
-470.99999999999937
 31
0.0
1001
ACDBBLOCKREPETAG
1070
     1
1071
       16
1005
1243D4
  0
LINE
  5
1243D5
  8
OBJECT
 10
11935.0
 20
-470.99999999999937
 30
0.0
 11
12065.0
 21
-470.99999999999937
 31
0.0
1001
ACDBBLOCKREPETAG
1070
     1
1071
       17
1005
1243D5
  0
LINE
  5
1243D6
  8
OBJECT
 10
12065.0
 20
-470.99999999999937
 30
0.0
 11
12065.0
 21
-449.99999999999937
 31
0.0
1001
ACDBBLOCKREPETAG
1070
     1
1071
       18
1005
1243D6
  0
LINE
  5
1243D7
  8
OBJECT
 10
12065.0
 20
-449.99999999999937
 30
0.0
 11
11935.0
 21
-449.99999999999937
 31
0.0
1001
ACDBBLOCKREPETAG
1070
     1
1071
       19
1005
1243D7
  0
LINE
  5
1243D8
  8
HIDDEN
 10
12044.5
 20
-519.99999999999955
 30
0.0
 11
11955.5
 21
-519.99999999999955
 31
0.0
1001
ACDBBLOCKREPETAG
1070
     1
1071
       20
1005
1243D8
  0
LINE
  5
1243D9
  8
CENTER
 10
12000.0
 20
-669.99999999999955
 30
0.0
 11
12000.0
 21
-434.99999999999949
 31
0.0
1001
ACDBBLOCKREPETAG
1070
     1
1071
       21
1005
1243D9
  0
LINE
  5
1243DA
  8
OBJECT
 10
11940.5
 20
-470.99999999999937
 30
0.0
 11
11940.5
 21
-533.99999999999955
 31
0.0
1001
ACDBBLOCKREPETAG
1070
     1
1071
       22
1005
1243DA
  0
LINE
  5
1243DB
  8
OBJECT
 10
11930.0
 20
-533.99999999999955
 30
0.0
 11
12070.0
 21
-533.99999999999955
 31
0.0
1001
ACDBBLOCKREPETAG
1070
     1
1071
       23
1005
1243DB
  0
LINE
  5
1243DC
  8
OBJECT
 10
12059.5
 20
-533.99999999999955
 30
0.0
 11
12059.5
 21
-470.99999999999937
 31
0.0
1001
ACDBBLOCKREPETAG
1070
     1
1071
       24
1005
1243DC
  0
LINE
  5
1243DD
  8
OBJECT
 10
11930.0
 20
-657.99999999999955
 30
0.0
 11
11930.0
 21
-669.99999999999955
 31
0.0
1001
ACDBBLOCKREPETAG
1070
     1
1071
       25
1005
1243DD
  0
LINE
  5
1243DE
  8
OBJECT
 10
11930.0
 20
-669.99999999999955
 30
0.0
 11
12070.0
 21
-669.99999999999955
 31
0.0
1001
ACDBBLOCKREPETAG
1070
     1
1071
       26
1005
1243DE
  0
LINE
  5
1243DF
  8
OBJECT
 10
12070.0
 20
-669.99999999999955
 30
0.0
 11
12070.0
 21
-657.99999999999955
 31
0.0
1001
ACDBBLOCKREPETAG
1070
     1
1071
       27
1005
1243DF
  0
LINE
  5
1243E0
  8
OBJECT
 10
12070.0
 20
-657.99999999999955
 30
0.0
 11
11930.0
 21
-657.99999999999955
 31
0.0
1001
ACDBBLOCKREPETAG
1070
     1
1071
       28
1005
1243E0
  0
ARC
  5
1243E1
  8
OBJECT
 10
12435.038438994679
 20
-898.60813684682694
 30
0.0
 40
519.48776673616965
 50
135.42350667430969
 51
138.50052655621499
1001
ACDBBLOCKREPETAG
1070
     1
1071
       32
1005
1243E1
  0
ARC
  5
1243E2
  8
OBJECT
 10
12435.038438994679
 20
-293.39186315317193
 30
0.0
 40
519.48776673616965
 50
221.49947344378501
 51
224.57649332569039
1001
ACDBBLOCKREPETAG
1070
     1
1071
       33
1005
1243E2
  0
ARC
  5
1243E3
  8
OBJECT
 10
11564.961561005321
 20
-898.60813684682694
 30
0.0
 40
519.48776673616965
 50
41.499473443784993
 51
44.576493325690237
1001
ACDBBLOCKREPETAG
1070
     1
1071
       34
1005
1243E3
  0
ARC
  5
1243E4
  8
OBJECT
 10
11564.961561005321
 20
-293.39186315317193
 30
0.0
 40
519.48776673616965
 50
315.42350667430981
 51
318.50052655621488
1001
ACDBBLOCKREPETAG
1070
     1
1071
       35
1005
1243E4
  0
POINT
  5
1243E5
  8
DOTS
 10
12000.0
 20
-654.99999999999966
 30
0.0
1001
ACDBBLOCKREPETAG
1070
     1
1071
      111
1005
1243E5
  0
LINE
  5
1243E6
  8
CENTER
 10
11909.0
 20
-199.99999999999909
 30
0.0
 11
11930.0
 21
-199.99999999999909
 31
0.0
1001
ACDBBLOCKREPETAG
1070
     1
1071
        0
1005
1243E6
  0
LINE
  5
1243E7
  8
OBJECT
 10
11927.0
 20
-261.99999999999909
 30
0.0
 11
11930.0
 21
-261.99999999999909
 31
0.0
1001
ACDBBLOCKREPETAG
1070
     1
1071
        1
1005
1243E7
  0
ARC
  5
1243E8
  8
OBJECT
 10
11927.0
 20
-258.99999999999909
 30
0.0
 40
3.0
 50
180.0
 51
270.0
1001
ACDBBLOCKREPETAG
1070
     1
1071
        2
1005
1243E8
  0
LINE
  5
1243E9
  8
OBJECT
 10
11930.0
 20
-137.99999999999909
 30
0.0
 11
11927.0
 21
-137.99999999999909
 31
0.0
1001
ACDBBLOCKREPETAG
1070
     1
1071
        3
1005
1243E9
  0
ARC
  5
1243EA
  8
OBJECT
 10
11927.0
 20
-140.99999999999909
 30
0.0
 40
3.0
 50
90.0
 51
180.0
1001
ACDBBLOCKREPETAG
1070
     1
1071
        4
1005
1243EA
  0
LINE
  5
1243EB
  8
OBJECT
 10
11924.0
 20
-140.99999999999909
 30
0.0
 11
11924.0
 21
-258.99999999999909
 31
0.0
1001
ACDBBLOCKREPETAG
1070
     1
1071
        5
1005
1243EB
  0
LINE
  5
1243EC
  8
CENTER
 10
12000.0
 20
-290.99999999999898
 30
0.0
 11
12000.0
 21
-269.99999999999909
 31
0.0
1001
ACDBBLOCKREPETAG
1070
     1
1071
        0
1005
1243EC
  0
LINE
  5
1243ED
  8
OBJECT
 10
12062.0
 20
-273.0
 30
0.0
 11
12062.0
 21
-269.99999999999909
 31
0.0
1001
ACDBBLOCKREPETAG
1070
     1
1071
        1
1005
1243ED
  0
ARC
  5
1243EE
  8
OBJECT
 10
12059.0
 20
-273.0
 30
0.0
 40
3.0
 50
270.0
 51
0.0
1001
ACDBBLOCKREPETAG
1070
     1
1071
        2
1005
1243EE
  0
LINE
  5
1243EF
  8
OBJECT
 10
11938.0
 20
-269.99999999999909
 30
0.0
 11
11938.0
 21
-272.99999999999818
 31
0.0
1001
ACDBBLOCKREPETAG
1070
     1
1071
        3
1005
1243EF
  0
ARC
  5
1243F0
  8
OBJECT
 10
11941.0
 20
-272.99999999999818
 30
0.0
 40
3.0
 50
180.0
 51
270.0
1001
ACDBBLOCKREPETAG
1070
     1
1071
        4
1005
1243F0
  0
LINE
  5
1243F1
  8
OBJECT
 10
11941.0
 20
-275.99999999999818
 30
0.0
 11
12059.0
 21
-276.0
 31
0.0
1001
ACDBBLOCKREPETAG
1070
     1
1071
        5
1005
1243F1
  0
LINE
  5
1243F2
  8
SLIM
 10
11963.217182668241
 20
-137.99999999999909
 30
0.0
 11
11969.921507996291
 21
-131.29567467194681
 31
0.0
1001
GRADIENTCOLOR1ACI
1070
     5
1001
GRADIENTCOLOR2ACI
1070
     2
1001
ACAD
1010
0.0
1020
0.0
1030
0.0
1001
ACDBBLOCKREPETAG
1070
     1
1071
      169
1005
1243F2
  0
LINE
  5
1243F3
  8
SLIM
 10
11972.19743878931
 20
-137.99999999999909
 30
0.0
 11
11983.31883633275
 21
-126.87860245655401
 31
0.0
1001
GRADIENTCOLOR1ACI
1070
     5
1001
GRADIENTCOLOR2ACI
1070
     2
1001
ACAD
1010
0.0
1020
0.0
1030
0.0
1001
ACDBBLOCKREPETAG
1070
     1
1071
      170
1005
1243F3
  0
LINE
  5
1243F4
  8
SLIM
 10
11981.48493728876
 20
-137.6927576216126
 30
0.0
 11
11993.9318052486
 21
-125.245889661777
 31
0.0
1001
GRADIENTCOLOR1ACI
1070
     5
1001
GRADIENTCOLOR2ACI
1070
     2
1001
ACAD
1010
0.0
1020
0.0
1030
0.0
1001
ACDBBLOCKREPETAG
1070
     1
1071
      171
1005
1243F4
  0
LINE
  5
1243F5
  8
SLIM
 10
11992.75265682803
 20
-135.40529420341099
 30
0.0
 11
12000.0
 21
-128.1579510314458
 31
0.0
1001
GRADIENTCOLOR1ACI
1070
     5
1001
GRADIENTCOLOR2ACI
1070
     2
1001
ACAD
1010
0.0
1020
0.0
1030
0.0
1001
ACDBBLOCKREPETAG
1070
     1
1071
      172
1005
1243F5
  0
LINE
  5
1243F6
  8
SLIM
 10
12000.0
 20
-128.1579510314458
 30
0.0
 11
12003.094100787839
 21
-125.0638502435924
 31
0.0
1001
GRADIENTCOLOR1ACI
1070
     5
1001
GRADIENTCOLOR2ACI
1070
     2
1001
ACAD
1010
0.0
1020
0.0
1030
0.0
1001
ACDBBLOCKREPETAG
1070
     1
1071
      173
1005
1243F6
  0
LINE
  5
1243F7
  8
SLIM
 10
12002.10414122347
 20
-135.03406592904389
 30
0.0
 11
12011.28442576865
 21
-125.85378138386341
 31
0.0
1001
GRADIENTCOLOR1ACI
1070
     5
1001
GRADIENTCOLOR2ACI
1070
     2
1001
ACAD
1010
0.0
1020
0.0
1030
0.0
1001
ACDBBLOCKREPETAG
1070
     1
1071
      174
1005
1243F7
  0
LINE
  5
1243F8
  8
SLIM
 10
12010.297585520921
 20
-135.82087775265759
 30
0.0
 11
12018.73958846552
 21
-127.3788748080627
 31
0.0
1001
GRADIENTCOLOR1ACI
1070
     5
1001
GRADIENTCOLOR2ACI
1070
     2
1001
ACAD
1010
0.0
1020
0.0
1030
0.0
1001
ACDBBLOCKREPETAG
1070
     1
1071
      175
1005
1243F8
  0
LINE
  5
1243F9
  8
SLIM
 10
12017.655079364229
 20
-137.4436400304258
 30
0.0
 11
12025.595886626959
 21
-129.50283276769261
 31
0.0
1001
GRADIENTCOLOR1ACI
1070
     5
1001
GRADIENTCOLOR2ACI
1070
     2
1001
ACAD
1010
0.0
1020
0.0
1030
0.0
1001
ACDBBLOCKREPETAG
1070
     1
1071
      176
1005
1243F9
  0
LINE
  5
1243FA
  8
SLIM
 10
12026.07897551572
 20
-137.99999999999909
 30
0.0
 11
12031.9385859461
 21
-132.1403895696169
 31
0.0
1001
GRADIENTCOLOR1ACI
1070
     5
1001
GRADIENTCOLOR2ACI
1070
     2
1001
ACAD
1010
0.0
1020
0.0
1030
0.0
1001
ACDBBLOCKREPETAG
1070
     1
1071
      177
1005
1243FA
  0
LINE
  5
1243FB
  8
SLIM
 10
12035.059231636789
 20
-137.99999999999909
 30
0.0
 11
12037.82336543762
 21
-135.23586619916779
 31
0.0
1001
GRADIENTCOLOR1ACI
1070
     5
1001
GRADIENTCOLOR2ACI
1070
     2
1001
ACAD
1010
0.0
1020
0.0
1030
0.0
1001
ACDBBLOCKREPETAG
1070
     1
1071
      178
1005
1243FB
  0
CIRCLE
  5
1243FC
  8
OBJECT
 10
12000.0
 20
-199.99999999999909
 30
0.0
 40
65.0
1001
ACDBBLOCKREPETAG
1070
     1
1071
       84
1005
1243FC
  0
CIRCLE
  5
1243FD
  8
OBJECT
 10
12000.0
 20
-199.99999999999909
 30
0.0
 40
41.0
1001
ACDBBLOCKREPETAG
1070
     1
1071
       85
1005
1243FD
  0
CIRCLE
  5
1243FE
  8
OBJECT
 10
12000.0
 20
-199.99999999999909
 30
0.0
 40
58.0
1001
ACDBBLOCKREPETAG
1070
     1
1071
       86
1005
1243FE
  0
LINE
  5
1243FF
  8
OBJECT
 10
12070.0
 20
-137.99999999999909
 30
0.0
 11
12019.519221295939
 21
-137.99999999999909
 31
0.0
1001
ACDBBLOCKREPETAG
1070
     1
1071
       87
1005
1243FF
  0
LINE
  5
124400
  8
OBJECT
 10
11930.0
 20
-137.99999999999909
 30
0.0
 11
11980.48077870405
 21
-137.99999999999909
 31
0.0
1001
ACDBBLOCKREPETAG
1070
     1
1071
       88
1005
124400
  0
LINE
  5
124401
  8
OBJECT
 10
11930.0
 20
-261.99999999999909
 30
0.0
 11
11938.0
 21
-261.99999999999909
 31
0.0
1001
ACDBBLOCKREPETAG
1070
     1
1071
       89
1005
124401
  0
LINE
  5
124402
  8
OBJECT
 10
11938.0
 20
-269.99999999999909
 30
0.0
 11
11938.0
 21
-261.99999999999909
 31
0.0
1001
ACDBBLOCKREPETAG
1070
     1
1071
       90
1005
124402
  0
LINE
  5
124403
  8
OBJECT
 10
12070.0
 20
-261.99999999999909
 30
0.0
 11
12062.0
 21
-261.99999999999909
 31
0.0
1001
ACDBBLOCKREPETAG
1070
     1
1071
       91
1005
124403
  0
LINE
  5
124404
  8
OBJECT
 10
12062.0
 20
-269.99999999999909
 30
0.0
 11
12062.0
 21
-261.99999999999909
 31
0.0
1001
ACDBBLOCKREPETAG
1070
     1
1071
       92
1005
124404
  0
LINE
  5
124405
  8
CENTER
 10
11930.0
 20
-199.99999999999909
 30
0.0
 11
12070.0
 21
-199.99999999999909
 31
0.0
1001
ACDBBLOCKREPETAG
1070
     1
1071
       93
1005
124405
  0
LINE
  5
124406
  8
CENTER
 10
12000.0
 20
-269.99999999999909
 30
0.0
 11
12000.0
 21
-109.9999999999991
 31
0.0
1001
ACDBBLOCKREPETAG
1070
     1
1071
       94
1005
124406
  0
ARC
  5
124407
  8
OBJECT
 10
11989.902762139191
 20
-224.44352901899131
 30
0.0
 40
7.0
 50
73.00127222950276
 51
154.0502587892864
1001
ACDBBLOCKREPETAG
1070
     1
1071
       95
1005
124407
  0
ARC
  5
124408
  8
OBJECT
 10
11986.837661070649
 20
-225.5978773169509
 30
0.0
 40
9.0
 50
73.00127222950276
 51
154.0502639259247
1001
ACDBBLOCKREPETAG
1070
     1
1071
       96
1005
124408
  0
ARC
  5
124409
  8
OBJECT
 10
11896.314230131549
 20
-147.28130031148149
 30
0.0
 40
150.0
 50
322.8950337398245
 51
325.8931499695608
1001
ACDBBLOCKREPETAG
1070
     1
1071
       97
1005
124409
  0
ARC
  5
12440A
  8
OBJECT
 10
12000.0
 20
-199.99999999999909
 30
0.0
 40
37.5
 50
303.16276667665232
 51
229.16350249104781
1001
ACDBBLOCKREPETAG
1070
     1
1071
       98
1005
12440A
  0
LINE
  5
12440B
  8
OBJECT
 10
11983.608514518981
 20
-221.38045100897119
 30
0.0
 11
11977.374011
 21
-234.1915870000002
 31
0.0
1001
ACDBBLOCKREPETAG
1070
     1
1071
       99
1005
12440B
  0
LINE
  5
12440C
  8
OBJECT
 10
11978.74505663446
 20
-221.65963488670511
 30
0.0
 11
11973.898671999999
 21
-231.6183599999996
 31
0.0
1001
ACDBBLOCKREPETAG
1070
     1
1071
      100
1005
12440C
  0
LINE
  5
12440D
  8
OBJECT
 10
12018.938018000001
 20
-226.00000000000091
 30
0.0
 11
11989.468815303249
 21
-216.99107608744359
 31
0.0
1001
ACDBBLOCKREPETAG
1070
     1
1071
      101
1005
12440D
  0
LINE
  5
12440E
  8
OBJECT
 10
12020.513225309
 20
-231.39199878029191
 30
0.0
 11
12018.938018000001
 21
-226.00000000000091
 31
0.0
1001
ACDBBLOCKREPETAG
1070
     1
1071
      102
1005
12440E
  0
LINE
  5
12440F
  8
OBJECT
 10
11954.03805922287
 20
-245.96194077712289
 30
0.0
 11
11938.0
 21
-261.99999999999909
 31
0.0
1001
ACDBBLOCKREPETAG
1070
     1
1071
      106
1005
12440F
  0
LINE
  5
124410
  8
OBJECT
 10
12045.96194077713
 20
-245.96194077712289
 30
0.0
 11
12062.0
 21
-261.99999999999909
 31
0.0
1001
ACDBBLOCKREPETAG
1070
     1
1071
      107
1005
124410
  0
ARC
  5
124411
  8
OBJECT
 10
12000.0
 20
-199.99999999999909
 30
0.0
 40
75.0
 50
55.757831297238091
 51
124.2421687027619
1001
ACDBBLOCKREPETAG
1070
     1
1071
      108
1005
124411
  0
POINT
  5
124412
  8
DOTS
 10
12000.0
 20
-199.99999999999909
 30
0.0
 50
270.0
1001
ACDBBLOCKREPETAG
1070
     1
1071
      157
1005
124412
  0
LINE
  5
124413
  8
OBJECT
 10
12073.0
 20
-533.99999999999955
 30
0.0
 11
12070.0
 21
-533.99999999999955
 31
0.0
1001
ACDBBLOCKREPETAG
1070
     1
1071
        1
1005
124413
  0
ARC
  5
124414
  8
OBJECT
 10
12073.0
 20
-536.99999999999955
 30
0.0
 40
3.0
 50
0.0
 51
90.0
1001
ACDBBLOCKREPETAG
1070
     1
1071
        2
1005
124414
  0
LINE
  5
124415
  8
OBJECT
 10
12070.0
 20
-657.99999999999955
 30
0.0
 11
12073.0
 21
-657.99999999999955
 31
0.0
1001
ACDBBLOCKREPETAG
1070
     1
1071
        3
1005
124415
  0
ARC
  5
124416
  8
OBJECT
 10
12073.0
 20
-654.99999999999966
 30
0.0
 40
3.0
 50
270.0
 51
0.0
1001
ACDBBLOCKREPETAG
1070
     1
1071
        4
1005
124416
  0
LINE
  5
124417
  8
OBJECT
 10
12076.0
 20
-654.99999999999966
 30
0.0
 11
12076.0
 21
-536.99999999999955
 31
0.0
1001
ACDBBLOCKREPETAG
1070
     1
1071
        5
1005
124417
  0
LINE
  5
124418
  8
CENTER
 10
12091.0
 20
-199.99999999999909
 30
0.0
 11
12070.0
 21
-199.99999999999909
 31
0.0
1001
ACDBBLOCKREPETAG
1070
     1
1071
        0
1005
124418
  0
LINE
  5
124419
  8
OBJECT
 10
12073.0
 20
-137.99999999999909
 30
0.0
 11
12070.0
 21
-137.99999999999909
 31
0.0
1001
ACDBBLOCKREPETAG
1070
     1
1071
        1
1005
124419
  0
ARC
  5
12441A
  8
OBJECT
 10
12073.0
 20
-140.99999999999909
 30
0.0
 40
3.0
 50
0.0
 51
90.0
1001
ACDBBLOCKREPETAG
1070
     1
1071
        2
1005
12441A
  0
LINE
  5
12441B
  8
OBJECT
 10
12070.0
 20
-261.99999999999909
 30
0.0
 11
12073.0
 21
-261.99999999999909
 31
0.0
1001
ACDBBLOCKREPETAG
1070
     1
1071
        3
1005
12441B
  0
ARC
  5
12441C
  8
OBJECT
 10
12073.0
 20
-258.99999999999909
 30
0.0
 40
3.0
 50
270.0
 51
0.0
1001
ACDBBLOCKREPETAG
1070
     1
1071
        4
1005
12441C
  0
LINE
  5
12441D
  8
OBJECT
 10
12076.0
 20
-258.99999999999909
 30
0.0
 11
12076.0
 21
-140.99999999999909
 31
0.0
1001
ACDBBLOCKREPETAG
1070
     1
1071
        5
1005
12441D
  0
LINE
  5
12441E
  8
OBJECT
 10
9927.0
 20
-533.99999999999955
 30
0.0
 11
9930.0
 21
-533.99999999999955
 31
0.0
1001
ACDBBLOCKREPETAG
1070
     1
1071
        1
1005
12441E
  0
ARC
  5
12441F
  8
OBJECT
 10
9927.0
 20
-536.99999999999955
 30
0.0
 40
3.0
 50
90.0
 51
180.0
1001
ACDBBLOCKREPETAG
1070
     1
1071
        2
1005
12441F
  0
LINE
  5
124420
  8
OBJECT
 10
9930.0
 20
-657.99999999999955
 30
0.0
 11
9927.0
 21
-657.99999999999955
 31
0.0
1001
ACDBBLOCKREPETAG
1070
     1
1071
        3
1005
124420
  0
ARC
  5
124421
  8
OBJECT
 10
9927.0
 20
-654.99999999999966
 30
0.0
 40
3.0
 50
180.0
 51
270.0
1001
ACDBBLOCKREPETAG
1070
     1
1071
        4
1005
124421
  0
LINE
  5
124422
  8
OBJECT
 10
9924.0
 20
-654.99999999999966
 30
0.0
 11
9924.0
 21
-536.99999999999955
 31
0.0
1001
ACDBBLOCKREPETAG
1070
     1
1071
        5
1005
124422
  0
CIRCLE
  5
124423
  8
OBJECT
 10
10000.0
 20
-596.0
 30
0.0
 40
62.0
1001
ACDBBLOCKREPETAG
1070
     1
1071
        0
1005
124423
  0
LINE
  5
124424
  8
OBJECT
 10
9935.0
 20
-449.99999999999937
 30
0.0
 11
9935.0
 21
-470.99999999999937
 31
0.0
1001
ACDBBLOCKREPETAG
1070
     1
1071
       16
1005
124424
  0
LINE
  5
124425
  8
OBJECT
 10
9935.0
 20
-470.99999999999937
 30
0.0
 11
10065.0
 21
-470.99999999999937
 31
0.0
1001
ACDBBLOCKREPETAG
1070
     1
1071
       17
1005
124425
  0
LINE
  5
124426
  8
OBJECT
 10
10065.0
 20
-470.99999999999937
 30
0.0
 11
10065.0
 21
-449.99999999999937
 31
0.0
1001
ACDBBLOCKREPETAG
1070
     1
1071
       18
1005
124426
  0
LINE
  5
124427
  8
OBJECT
 10
10065.0
 20
-449.99999999999937
 30
0.0
 11
9935.0
 21
-449.99999999999937
 31
0.0
1001
ACDBBLOCKREPETAG
1070
     1
1071
       19
1005
124427
  0
LINE
  5
124428
  8
HIDDEN
 10
10044.5
 20
-519.99999999999955
 30
0.0
 11
9955.5
 21
-519.99999999999955
 31
0.0
1001
ACDBBLOCKREPETAG
1070
     1
1071
       20
1005
124428
  0
LINE
  5
124429
  8
CENTER
 10
10000.0
 20
-669.99999999999955
 30
0.0
 11
10000.0
 21
-434.99999999999949
 31
0.0
1001
ACDBBLOCKREPETAG
1070
     1
1071
       21
1005
124429
  0
LINE
  5
12442A
  8
OBJECT
 10
9940.5
 20
-470.99999999999937
 30
0.0
 11
9940.5
 21
-533.99999999999955
 31
0.0
1001
ACDBBLOCKREPETAG
1070
     1
1071
       22
1005
12442A
  0
LINE
  5
12442B
  8
OBJECT
 10
9930.0
 20
-533.99999999999955
 30
0.0
 11
10070.0
 21
-533.99999999999955
 31
0.0
1001
ACDBBLOCKREPETAG
1070
     1
1071
       23
1005
12442B
  0
LINE
  5
12442C
  8
OBJECT
 10
10059.5
 20
-533.99999999999955
 30
0.0
 11
10059.5
 21
-470.99999999999937
 31
0.0
1001
ACDBBLOCKREPETAG
1070
     1
1071
       24
1005
12442C
  0
LINE
  5
12442D
  8
OBJECT
 10
9930.0
 20
-657.99999999999955
 30
0.0
 11
9930.0
 21
-669.99999999999955
 31
0.0
1001
ACDBBLOCKREPETAG
1070
     1
1071
       25
1005
12442D
  0
LINE
  5
12442E
  8
OBJECT
 10
9930.0
 20
-669.99999999999955
 30
0.0
 11
10070.0
 21
-669.99999999999955
 31
0.0
1001
ACDBBLOCKREPETAG
1070
     1
1071
       26
1005
12442E
  0
LINE
  5
12442F
  8
OBJECT
 10
10070.0
 20
-669.99999999999955
 30
0.0
 11
10070.0
 21
-657.99999999999955
 31
0.0
1001
ACDBBLOCKREPETAG
1070
     1
1071
       27
1005
12442F
  0
LINE
  5
124430
  8
OBJECT
 10
10070.0
 20
-657.99999999999955
 30
0.0
 11
9930.0
 21
-657.99999999999955
 31
0.0
1001
ACDBBLOCKREPETAG
1070
     1
1071
       28
1005
124430
  0
ARC
  5
124431
  8
OBJECT
 10
10435.03843899467
 20
-898.60813684682694
 30
0.0
 40
519.48776673616965
 50
135.42350667430969
 51
138.50052655621499
1001
ACDBBLOCKREPETAG
1070
     1
1071
       32
1005
124431
  0
ARC
  5
124432
  8
OBJECT
 10
10435.03843899467
 20
-293.39186315317193
 30
0.0
 40
519.48776673616965
 50
221.49947344378501
 51
224.57649332569039
1001
ACDBBLOCKREPETAG
1070
     1
1071
       33
1005
124432
  0
ARC
  5
124433
  8
OBJECT
 10
9564.9615610053243
 20
-898.60813684682694
 30
0.0
 40
519.48776673616965
 50
41.499473443784993
 51
44.576493325690237
1001
ACDBBLOCKREPETAG
1070
     1
1071
       34
1005
124433
  0
ARC
  5
124434
  8
OBJECT
 10
9564.9615610053243
 20
-293.39186315317193
 30
0.0
 40
519.48776673616965
 50
315.42350667430981
 51
318.50052655621488
1001
ACDBBLOCKREPETAG
1070
     1
1071
       35
1005
124434
  0
POINT
  5
124435
  8
DOTS
 10
10000.0
 20
-654.99999999999966
 30
0.0
1001
ACDBBLOCKREPETAG
1070
     1
1071
      111
1005
124435
  0
LINE
  5
124436
  8
CENTER
 10
9909.0
 20
-199.99999999999909
 30
0.0
 11
9930.0
 21
-199.99999999999909
 31
0.0
1001
ACDBBLOCKREPETAG
1070
     1
1071
        0
1005
124436
  0
LINE
  5
124437
  8
OBJECT
 10
9927.0
 20
-261.99999999999909
 30
0.0
 11
9930.0
 21
-261.99999999999909
 31
0.0
1001
ACDBBLOCKREPETAG
1070
     1
1071
        1
1005
124437
  0
ARC
  5
124438
  8
OBJECT
 10
9927.0
 20
-258.99999999999909
 30
0.0
 40
3.0
 50
180.0
 51
270.0
1001
ACDBBLOCKREPETAG
1070
     1
1071
        2
1005
124438
  0
LINE
  5
124439
  8
OBJECT
 10
9930.0
 20
-137.99999999999909
 30
0.0
 11
9927.0
 21
-137.99999999999909
 31
0.0
1001
ACDBBLOCKREPETAG
1070
     1
1071
        3
1005
124439
  0
ARC
  5
12443A
  8
OBJECT
 10
9927.0
 20
-140.99999999999909
 30
0.0
 40
3.0
 50
90.0
 51
180.0
1001
ACDBBLOCKREPETAG
1070
     1
1071
        4
1005
12443A
  0
LINE
  5
12443B
  8
OBJECT
 10
9924.0
 20
-140.99999999999909
 30
0.0
 11
9924.0
 21
-258.99999999999909
 31
0.0
1001
ACDBBLOCKREPETAG
1070
     1
1071
        5
1005
12443B
  0
LINE
  5
12443C
  8
CENTER
 10
10000.0
 20
-290.99999999999898
 30
0.0
 11
10000.0
 21
-269.99999999999909
 31
0.0
1001
ACDBBLOCKREPETAG
1070
     1
1071
        0
1005
12443C
  0
LINE
  5
12443D
  8
OBJECT
 10
10062.0
 20
-273.0
 30
0.0
 11
10062.0
 21
-269.99999999999909
 31
0.0
1001
ACDBBLOCKREPETAG
1070
     1
1071
        1
1005
12443D
  0
ARC
  5
12443E
  8
OBJECT
 10
10059.0
 20
-273.0
 30
0.0
 40
3.0
 50
270.0
 51
0.0
1001
ACDBBLOCKREPETAG
1070
     1
1071
        2
1005
12443E
  0
LINE
  5
12443F
  8
OBJECT
 10
9938.0
 20
-269.99999999999909
 30
0.0
 11
9938.0
 21
-272.99999999999818
 31
0.0
1001
ACDBBLOCKREPETAG
1070
     1
1071
        3
1005
12443F
  0
ARC
  5
124440
  8
OBJECT
 10
9941.0
 20
-272.99999999999818
 30
0.0
 40
3.0
 50
180.0
 51
270.0
1001
ACDBBLOCKREPETAG
1070
     1
1071
        4
1005
124440
  0
LINE
  5
124441
  8
OBJECT
 10
9941.0
 20
-275.99999999999818
 30
0.0
 11
10059.0
 21
-276.0
 31
0.0
1001
ACDBBLOCKREPETAG
1070
     1
1071
        5
1005
124441
  0
LINE
  5
124442
  8
SLIM
 10
9963.2171826682406
 20
-137.99999999999909
 30
0.0
 11
9969.9215079962923
 21
-131.29567467194681
 31
0.0
1001
GRADIENTCOLOR1ACI
1070
     5
1001
GRADIENTCOLOR2ACI
1070
     2
1001
ACAD
1010
0.0
1020
0.0
1030
0.0
1001
ACDBBLOCKREPETAG
1070
     1
1071
      169
1005
124442
  0
LINE
  5
124443
  8
SLIM
 10
9972.1974387893097
 20
-137.99999999999909
 30
0.0
 11
9983.3188363327517
 21
-126.87860245655401
 31
0.0
1001
GRADIENTCOLOR1ACI
1070
     5
1001
GRADIENTCOLOR2ACI
1070
     2
1001
ACAD
1010
0.0
1020
0.0
1030
0.0
1001
ACDBBLOCKREPETAG
1070
     1
1071
      170
1005
124443
  0
LINE
  5
124444
  8
SLIM
 10
9981.4849372887638
 20
-137.6927576216126
 30
0.0
 11
9993.9318052485996
 21
-125.245889661777
 31
0.0
1001
GRADIENTCOLOR1ACI
1070
     5
1001
GRADIENTCOLOR2ACI
1070
     2
1001
ACAD
1010
0.0
1020
0.0
1030
0.0
1001
ACDBBLOCKREPETAG
1070
     1
1071
      171
1005
124444
  0
LINE
  5
124445
  8
SLIM
 10
9992.7526568280355
 20
-135.40529420341099
 30
0.0
 11
10000.0
 21
-128.1579510314458
 31
0.0
1001
GRADIENTCOLOR1ACI
1070
     5
1001
GRADIENTCOLOR2ACI
1070
     2
1001
ACAD
1010
0.0
1020
0.0
1030
0.0
1001
ACDBBLOCKREPETAG
1070
     1
1071
      172
1005
124445
  0
LINE
  5
124446
  8
SLIM
 10
10000.0
 20
-128.1579510314458
 30
0.0
 11
10003.09410078785
 21
-125.0638502435924
 31
0.0
1001
GRADIENTCOLOR1ACI
1070
     5
1001
GRADIENTCOLOR2ACI
1070
     2
1001
ACAD
1010
0.0
1020
0.0
1030
0.0
1001
ACDBBLOCKREPETAG
1070
     1
1071
      173
1005
124446
  0
LINE
  5
124447
  8
SLIM
 10
10002.10414122347
 20
-135.03406592904389
 30
0.0
 11
10011.28442576865
 21
-125.85378138386341
 31
0.0
1001
GRADIENTCOLOR1ACI
1070
     5
1001
GRADIENTCOLOR2ACI
1070
     2
1001
ACAD
1010
0.0
1020
0.0
1030
0.0
1001
ACDBBLOCKREPETAG
1070
     1
1071
      174
1005
124447
  0
LINE
  5
124448
  8
SLIM
 10
10010.297585520921
 20
-135.82087775265759
 30
0.0
 11
10018.73958846552
 21
-127.3788748080627
 31
0.0
1001
GRADIENTCOLOR1ACI
1070
     5
1001
GRADIENTCOLOR2ACI
1070
     2
1001
ACAD
1010
0.0
1020
0.0
1030
0.0
1001
ACDBBLOCKREPETAG
1070
     1
1071
      175
1005
124448
  0
LINE
  5
124449
  8
SLIM
 10
10017.65507936422
 20
-137.4436400304258
 30
0.0
 11
10025.595886626959
 21
-129.50283276769261
 31
0.0
1001
GRADIENTCOLOR1ACI
1070
     5
1001
GRADIENTCOLOR2ACI
1070
     2
1001
ACAD
1010
0.0
1020
0.0
1030
0.0
1001
ACDBBLOCKREPETAG
1070
     1
1071
      176
1005
124449
  0
LINE
  5
12444A
  8
SLIM
 10
10026.07897551572
 20
-137.99999999999909
 30
0.0
 11
10031.9385859461
 21
-132.1403895696169
 31
0.0
1001
GRADIENTCOLOR1ACI
1070
     5
1001
GRADIENTCOLOR2ACI
1070
     2
1001
ACAD
1010
0.0
1020
0.0
1030
0.0
1001
ACDBBLOCKREPETAG
1070
     1
1071
      177
1005
12444A
  0
LINE
  5
12444B
  8
SLIM
 10
10035.05923163678
 20
-137.99999999999909
 30
0.0
 11
10037.82336543762
 21
-135.23586619916779
 31
0.0
1001
GRADIENTCOLOR1ACI
1070
     5
1001
GRADIENTCOLOR2ACI
1070
     2
1001
ACAD
1010
0.0
1020
0.0
1030
0.0
1001
ACDBBLOCKREPETAG
1070
     1
1071
      178
1005
12444B
  0
CIRCLE
  5
12444C
  8
OBJECT
 10
10000.0
 20
-199.99999999999909
 30
0.0
 40
65.0
1001
ACDBBLOCKREPETAG
1070
     1
1071
       84
1005
12444C
  0
CIRCLE
  5
12444D
  8
OBJECT
 10
10000.0
 20
-199.99999999999909
 30
0.0
 40
41.0
1001
ACDBBLOCKREPETAG
1070
     1
1071
       85
1005
12444D
  0
CIRCLE
  5
12444E
  8
OBJECT
 10
10000.0
 20
-199.99999999999909
 30
0.0
 40
58.0
1001
ACDBBLOCKREPETAG
1070
     1
1071
       86
1005
12444E
  0
LINE
  5
12444F
  8
OBJECT
 10
10070.0
 20
-137.99999999999909
 30
0.0
 11
10019.519221295939
 21
-137.99999999999909
 31
0.0
1001
ACDBBLOCKREPETAG
1070
     1
1071
       87
1005
12444F
  0
LINE
  5
124450
  8
OBJECT
 10
9930.0
 20
-137.99999999999909
 30
0.0
 11
9980.4807787040572
 21
-137.99999999999909
 31
0.0
1001
ACDBBLOCKREPETAG
1070
     1
1071
       88
1005
124450
  0
LINE
  5
124451
  8
OBJECT
 10
9930.0
 20
-261.99999999999909
 30
0.0
 11
9938.0
 21
-261.99999999999909
 31
0.0
1001
ACDBBLOCKREPETAG
1070
     1
1071
       89
1005
124451
  0
LINE
  5
124452
  8
OBJECT
 10
9938.0
 20
-269.99999999999909
 30
0.0
 11
9938.0
 21
-261.99999999999909
 31
0.0
1001
ACDBBLOCKREPETAG
1070
     1
1071
       90
1005
124452
  0
LINE
  5
124453
  8
OBJECT
 10
10070.0
 20
-261.99999999999909
 30
0.0
 11
10062.0
 21
-261.99999999999909
 31
0.0
1001
ACDBBLOCKREPETAG
1070
     1
1071
       91
1005
124453
  0
LINE
  5
124454
  8
OBJECT
 10
10062.0
 20
-269.99999999999909
 30
0.0
 11
10062.0
 21
-261.99999999999909
 31
0.0
1001
ACDBBLOCKREPETAG
1070
     1
1071
       92
1005
124454
  0
LINE
  5
124455
  8
CENTER
 10
9930.0
 20
-199.99999999999909
 30
0.0
 11
10070.0
 21
-199.99999999999909
 31
0.0
1001
ACDBBLOCKREPETAG
1070
     1
1071
       93
1005
124455
  0
LINE
  5
124456
  8
CENTER
 10
10000.0
 20
-269.99999999999909
 30
0.0
 11
10000.0
 21
-109.9999999999991
 31
0.0
1001
ACDBBLOCKREPETAG
1070
     1
1071
       94
1005
124456
  0
ARC
  5
124457
  8
OBJECT
 10
9989.9027621391888
 20
-224.44352901899131
 30
0.0
 40
7.0
 50
73.00127222950276
 51
154.0502587892864
1001
ACDBBLOCKREPETAG
1070
     1
1071
       95
1005
124457
  0
ARC
  5
124458
  8
OBJECT
 10
9986.8376610706546
 20
-225.5978773169509
 30
0.0
 40
9.0
 50
73.00127222950276
 51
154.0502639259247
1001
ACDBBLOCKREPETAG
1070
     1
1071
       96
1005
124458
  0
ARC
  5
124459
  8
OBJECT
 10
9896.3142301315547
 20
-147.28130031148149
 30
0.0
 40
150.0
 50
322.8950337398245
 51
325.8931499695608
1001
ACDBBLOCKREPETAG
1070
     1
1071
       97
1005
124459
  0
ARC
  5
12445A
  8
OBJECT
 10
10000.0
 20
-199.99999999999909
 30
0.0
 40
37.5
 50
303.16276667665232
 51
229.16350249104781
1001
ACDBBLOCKREPETAG
1070
     1
1071
       98
1005
12445A
  0
LINE
  5
12445B
  8
OBJECT
 10
9983.6085145189809
 20
-221.38045100897119
 30
0.0
 11
9977.3740110000017
 21
-234.1915870000002
 31
0.0
1001
ACDBBLOCKREPETAG
1070
     1
1071
       99
1005
12445B
  0
LINE
  5
12445C
  8
OBJECT
 10
9978.7450566344633
 20
-221.65963488670511
 30
0.0
 11
9973.8986720000048
 21
-231.6183599999996
 31
0.0
1001
ACDBBLOCKREPETAG
1070
     1
1071
      100
1005
12445C
  0
LINE
  5
12445D
  8
OBJECT
 10
10018.938018000001
 20
-226.00000000000091
 30
0.0
 11
9989.4688153032548
 21
-216.99107608744359
 31
0.0
1001
ACDBBLOCKREPETAG
1070
     1
1071
      101
1005
12445D
  0
LINE
  5
12445E
  8
OBJECT
 10
10020.513225309
 20
-231.39199878029191
 30
0.0
 11
10018.938018000001
 21
-226.00000000000091
 31
0.0
1001
ACDBBLOCKREPETAG
1070
     1
1071
      102
1005
12445E
  0
LINE
  5
12445F
  8
OBJECT
 10
9954.0380592228739
 20
-245.96194077712289
 30
0.0
 11
9938.0
 21
-261.99999999999909
 31
0.0
1001
ACDBBLOCKREPETAG
1070
     1
1071
      106
1005
12445F
  0
LINE
  5
124460
  8
OBJECT
 10
10045.96194077713
 20
-245.96194077712289
 30
0.0
 11
10062.0
 21
-261.99999999999909
 31
0.0
1001
ACDBBLOCKREPETAG
1070
     1
1071
      107
1005
124460
  0
ARC
  5
124461
  8
OBJECT
 10
10000.0
 20
-199.99999999999909
 30
0.0
 40
75.0
 50
55.757831297238091
 51
124.2421687027619
1001
ACDBBLOCKREPETAG
1070
     1
1071
      108
1005
124461
  0
POINT
  5
124462
  8
DOTS
 10
10000.0
 20
-199.99999999999909
 30
0.0
 50
270.0
1001
ACDBBLOCKREPETAG
1070
     1
1071
      157
1005
124462
  0
LINE
  5
124463
  8
OBJECT
 10
10073.0
 20
-533.99999999999955
 30
0.0
 11
10070.0
 21
-533.99999999999955
 31
0.0
1001
ACDBBLOCKREPETAG
1070
     1
1071
        1
1005
124463
  0
ARC
  5
124464
  8
OBJECT
 10
10073.0
 20
-536.99999999999955
 30
0.0
 40
3.0
 50
0.0
 51
90.0
1001
ACDBBLOCKREPETAG
1070
     1
1071
        2
1005
124464
  0
LINE
  5
124465
  8
OBJECT
 10
10070.0
 20
-657.99999999999955
 30
0.0
 11
10073.0
 21
-657.99999999999955
 31
0.0
1001
ACDBBLOCKREPETAG
1070
     1
1071
        3
1005
124465
  0
ARC
  5
124466
  8
OBJECT
 10
10073.0
 20
-654.99999999999966
 30
0.0
 40
3.0
 50
270.0
 51
0.0
1001
ACDBBLOCKREPETAG
1070
     1
1071
        4
1005
124466
  0
LINE
  5
124467
  8
OBJECT
 10
10076.0
 20
-654.99999999999966
 30
0.0
 11
10076.0
 21
-536.99999999999955
 31
0.0
1001
ACDBBLOCKREPETAG
1070
     1
1071
        5
1005
124467
  0
LINE
  5
124468
  8
CENTER
 10
10091.0
 20
-199.99999999999909
 30
0.0
 11
10070.0
 21
-199.99999999999909
 31
0.0
1001
ACDBBLOCKREPETAG
1070
     1
1071
        0
1005
124468
  0
LINE
  5
124469
  8
OBJECT
 10
10073.0
 20
-137.99999999999909
 30
0.0
 11
10070.0
 21
-137.99999999999909
 31
0.0
1001
ACDBBLOCKREPETAG
1070
     1
1071
        1
1005
124469
  0
ARC
  5
12446A
  8
OBJECT
 10
10073.0
 20
-140.99999999999909
 30
0.0
 40
3.0
 50
0.0
 51
90.0
1001
ACDBBLOCKREPETAG
1070
     1
1071
        2
1005
12446A
  0
LINE
  5
12446B
  8
OBJECT
 10
10070.0
 20
-261.99999999999909
 30
0.0
 11
10073.0
 21
-261.99999999999909
 31
0.0
1001
ACDBBLOCKREPETAG
1070
     1
1071
        3
1005
12446B
  0
ARC
  5
12446C
  8
OBJECT
 10
10073.0
 20
-258.99999999999909
 30
0.0
 40
3.0
 50
270.0
 51
0.0
1001
ACDBBLOCKREPETAG
1070
     1
1071
        4
1005
12446C
  0
LINE
  5
12446D
  8
OBJECT
 10
10076.0
 20
-258.99999999999909
 30
0.0
 11
10076.0
 21
-140.99999999999909
 31
0.0
1001
ACDBBLOCKREPETAG
1070
     1
1071
        5
1005
12446D
  0
LINE
  5
12446E
  8
OBJECT
 10
7927.0
 20
-533.99999999999955
 30
0.0
 11
7930.0
 21
-533.99999999999955
 31
0.0
1001
ACDBBLOCKREPETAG
1070
     1
1071
        1
1005
12446E
  0
ARC
  5
12446F
  8
OBJECT
 10
7927.0
 20
-536.99999999999955
 30
0.0
 40
3.0
 50
90.0
 51
180.0
1001
ACDBBLOCKREPETAG
1070
     1
1071
        2
1005
12446F
  0
LINE
  5
124470
  8
OBJECT
 10
7930.0
 20
-657.99999999999955
 30
0.0
 11
7927.0
 21
-657.99999999999955
 31
0.0
1001
ACDBBLOCKREPETAG
1070
     1
1071
        3
1005
124470
  0
ARC
  5
124471
  8
OBJECT
 10
7927.0
 20
-654.99999999999966
 30
0.0
 40
3.0
 50
180.0
 51
270.0
1001
ACDBBLOCKREPETAG
1070
     1
1071
        4
1005
124471
  0
LINE
  5
124472
  8
OBJECT
 10
7924.0
 20
-654.99999999999966
 30
0.0
 11
7924.0
 21
-536.99999999999955
 31
0.0
1001
ACDBBLOCKREPETAG
1070
     1
1071
        5
1005
124472
  0
CIRCLE
  5
124473
  8
OBJECT
 10
8000.0
 20
-596.0
 30
0.0
 40
62.0
1001
ACDBBLOCKREPETAG
1070
     1
1071
        0
1005
124473
  0
LINE
  5
124474
  8
OBJECT
 10
7935.0
 20
-449.99999999999937
 30
0.0
 11
7935.0
 21
-470.99999999999937
 31
0.0
1001
ACDBBLOCKREPETAG
1070
     1
1071
       16
1005
124474
  0
LINE
  5
124475
  8
OBJECT
 10
7935.0
 20
-470.99999999999937
 30
0.0
 11
8065.0
 21
-470.99999999999937
 31
0.0
1001
ACDBBLOCKREPETAG
1070
     1
1071
       17
1005
124475
  0
LINE
  5
124476
  8
OBJECT
 10
8065.0
 20
-470.99999999999937
 30
0.0
 11
8065.0
 21
-449.99999999999937
 31
0.0
1001
ACDBBLOCKREPETAG
1070
     1
1071
       18
1005
124476
  0
LINE
  5
124477
  8
OBJECT
 10
8065.0
 20
-449.99999999999937
 30
0.0
 11
7935.0
 21
-449.99999999999937
 31
0.0
1001
ACDBBLOCKREPETAG
1070
     1
1071
       19
1005
124477
  0
LINE
  5
124478
  8
HIDDEN
 10
8044.5000000000036
 20
-519.99999999999955
 30
0.0
 11
7955.5
 21
-519.99999999999955
 31
0.0
1001
ACDBBLOCKREPETAG
1070
     1
1071
       20
1005
124478
  0
LINE
  5
124479
  8
CENTER
 10
8000.0
 20
-669.99999999999955
 30
0.0
 11
8000.0
 21
-434.99999999999949
 31
0.0
1001
ACDBBLOCKREPETAG
1070
     1
1071
       21
1005
124479
  0
LINE
  5
12447A
  8
OBJECT
 10
7940.5
 20
-470.99999999999937
 30
0.0
 11
7940.5
 21
-533.99999999999955
 31
0.0
1001
ACDBBLOCKREPETAG
1070
     1
1071
       22
1005
12447A
  0
LINE
  5
12447B
  8
OBJECT
 10
7930.0
 20
-533.99999999999955
 30
0.0
 11
8070.0
 21
-533.99999999999955
 31
0.0
1001
ACDBBLOCKREPETAG
1070
     1
1071
       23
1005
12447B
  0
LINE
  5
12447C
  8
OBJECT
 10
8059.4999999999982
 20
-533.99999999999955
 30
0.0
 11
8059.4999999999982
 21
-470.99999999999937
 31
0.0
1001
ACDBBLOCKREPETAG
1070
     1
1071
       24
1005
12447C
  0
LINE
  5
12447D
  8
OBJECT
 10
7930.0
 20
-657.99999999999955
 30
0.0
 11
7930.0
 21
-669.99999999999955
 31
0.0
1001
ACDBBLOCKREPETAG
1070
     1
1071
       25
1005
12447D
  0
LINE
  5
12447E
  8
OBJECT
 10
7930.0
 20
-669.99999999999955
 30
0.0
 11
8070.0
 21
-669.99999999999955
 31
0.0
1001
ACDBBLOCKREPETAG
1070
     1
1071
       26
1005
12447E
  0
LINE
  5
12447F
  8
OBJECT
 10
8070.0
 20
-669.99999999999955
 30
0.0
 11
8070.0
 21
-657.99999999999955
 31
0.0
1001
ACDBBLOCKREPETAG
1070
     1
1071
       27
1005
12447F
  0
LINE
  5
124480
  8
OBJECT
 10
8070.0
 20
-657.99999999999955
 30
0.0
 11
7930.0
 21
-657.99999999999955
 31
0.0
1001
ACDBBLOCKREPETAG
1070
     1
1071
       28
1005
124480
  0
ARC
  5
124481
  8
OBJECT
 10
8435.0384389946794
 20
-898.60813684682694
 30
0.0
 40
519.48776673616965
 50
135.42350667430969
 51
138.50052655621499
1001
ACDBBLOCKREPETAG
1070
     1
1071
       32
1005
124481
  0
ARC
  5
124482
  8
OBJECT
 10
8435.0384389946794
 20
-293.39186315317193
 30
0.0
 40
519.48776673616965
 50
221.49947344378501
 51
224.57649332569039
1001
ACDBBLOCKREPETAG
1070
     1
1071
       33
1005
124482
  0
ARC
  5
124483
  8
OBJECT
 10
7564.9615610053233
 20
-898.60813684682694
 30
0.0
 40
519.48776673616965
 50
41.499473443784993
 51
44.576493325690237
1001
ACDBBLOCKREPETAG
1070
     1
1071
       34
1005
124483
  0
ARC
  5
124484
  8
OBJECT
 10
7564.9615610053233
 20
-293.39186315317193
 30
0.0
 40
519.48776673616965
 50
315.42350667430981
 51
318.50052655621488
1001
ACDBBLOCKREPETAG
1070
     1
1071
       35
1005
124484
  0
POINT
  5
124485
  8
DOTS
 10
8000.0
 20
-654.99999999999966
 30
0.0
1001
ACDBBLOCKREPETAG
1070
     1
1071
      111
1005
124485
  0
LINE
  5
124486
  8
CENTER
 10
7909.0
 20
-199.99999999999909
 30
0.0
 11
7930.0
 21
-199.99999999999909
 31
0.0
1001
ACDBBLOCKREPETAG
1070
     1
1071
        0
1005
124486
  0
LINE
  5
124487
  8
OBJECT
 10
7927.0
 20
-261.99999999999909
 30
0.0
 11
7930.0
 21
-261.99999999999909
 31
0.0
1001
ACDBBLOCKREPETAG
1070
     1
1071
        1
1005
124487
  0
ARC
  5
124488
  8
OBJECT
 10
7927.0
 20
-258.99999999999909
 30
0.0
 40
3.0
 50
180.0
 51
270.0
1001
ACDBBLOCKREPETAG
1070
     1
1071
        2
1005
124488
  0
LINE
  5
124489
  8
OBJECT
 10
7930.0
 20
-137.99999999999909
 30
0.0
 11
7927.0
 21
-137.99999999999909
 31
0.0
1001
ACDBBLOCKREPETAG
1070
     1
1071
        3
1005
124489
  0
ARC
  5
12448A
  8
OBJECT
 10
7927.0
 20
-140.99999999999909
 30
0.0
 40
3.0
 50
90.0
 51
180.0
1001
ACDBBLOCKREPETAG
1070
     1
1071
        4
1005
12448A
  0
LINE
  5
12448B
  8
OBJECT
 10
7924.0
 20
-140.99999999999909
 30
0.0
 11
7924.0
 21
-258.99999999999909
 31
0.0
1001
ACDBBLOCKREPETAG
1070
     1
1071
        5
1005
12448B
  0
LINE
  5
12448C
  8
CENTER
 10
8000.0
 20
-290.99999999999898
 30
0.0
 11
8000.0
 21
-269.99999999999909
 31
0.0
1001
ACDBBLOCKREPETAG
1070
     1
1071
        0
1005
12448C
  0
LINE
  5
12448D
  8
OBJECT
 10
8062.0
 20
-273.0
 30
0.0
 11
8062.0
 21
-269.99999999999909
 31
0.0
1001
ACDBBLOCKREPETAG
1070
     1
1071
        1
1005
12448D
  0
ARC
  5
12448E
  8
OBJECT
 10
8059.0
 20
-273.0
 30
0.0
 40
3.0
 50
270.0
 51
0.0
1001
ACDBBLOCKREPETAG
1070
     1
1071
        2
1005
12448E
  0
LINE
  5
12448F
  8
OBJECT
 10
7938.0
 20
-269.99999999999909
 30
0.0
 11
7938.0
 21
-272.99999999999818
 31
0.0
1001
ACDBBLOCKREPETAG
1070
     1
1071
        3
1005
12448F
  0
ARC
  5
124490
  8
OBJECT
 10
7941.0
 20
-272.99999999999818
 30
0.0
 40
3.0
 50
180.0
 51
270.0
1001
ACDBBLOCKREPETAG
1070
     1
1071
        4
1005
124490
  0
LINE
  5
124491
  8
OBJECT
 10
7941.0
 20
-275.99999999999818
 30
0.0
 11
8059.0
 21
-276.0
 31
0.0
1001
ACDBBLOCKREPETAG
1070
     1
1071
        5
1005
124491
  0
LINE
  5
124492
  8
SLIM
 10
7963.2171826682388
 20
-137.99999999999909
 30
0.0
 11
7969.9215079962914
 21
-131.29567467194681
 31
0.0
1001
GRADIENTCOLOR1ACI
1070
     5
1001
GRADIENTCOLOR2ACI
1070
     2
1001
ACAD
1010
0.0
1020
0.0
1030
0.0
1001
ACDBBLOCKREPETAG
1070
     1
1071
      169
1005
124492
  0
LINE
  5
124493
  8
SLIM
 10
7972.1974387893079
 20
-137.99999999999909
 30
0.0
 11
7983.3188363327517
 21
-126.87860245655401
 31
0.0
1001
GRADIENTCOLOR1ACI
1070
     5
1001
GRADIENTCOLOR2ACI
1070
     2
1001
ACAD
1010
0.0
1020
0.0
1030
0.0
1001
ACDBBLOCKREPETAG
1070
     1
1071
      170
1005
124493
  0
LINE
  5
124494
  8
SLIM
 10
7981.4849372887629
 20
-137.6927576216126
 30
0.0
 11
7993.9318052485969
 21
-125.245889661777
 31
0.0
1001
GRADIENTCOLOR1ACI
1070
     5
1001
GRADIENTCOLOR2ACI
1070
     2
1001
ACAD
1010
0.0
1020
0.0
1030
0.0
1001
ACDBBLOCKREPETAG
1070
     1
1071
      171
1005
124494
  0
LINE
  5
124495
  8
SLIM
 10
7992.7526568280337
 20
-135.40529420341099
 30
0.0
 11
8000.0
 21
-128.1579510314458
 31
0.0
1001
GRADIENTCOLOR1ACI
1070
     5
1001
GRADIENTCOLOR2ACI
1070
     2
1001
ACAD
1010
0.0
1020
0.0
1030
0.0
1001
ACDBBLOCKREPETAG
1070
     1
1071
      172
1005
124495
  0
LINE
  5
124496
  8
SLIM
 10
8000.0
 20
-128.1579510314458
 30
0.0
 11
8003.0941007878528
 21
-125.0638502435924
 31
0.0
1001
GRADIENTCOLOR1ACI
1070
     5
1001
GRADIENTCOLOR2ACI
1070
     2
1001
ACAD
1010
0.0
1020
0.0
1030
0.0
1001
ACDBBLOCKREPETAG
1070
     1
1071
      173
1005
124496
  0
LINE
  5
124497
  8
SLIM
 10
8002.1041412234727
 20
-135.03406592904389
 30
0.0
 11
8011.284425768652
 21
-125.85378138386341
 31
0.0
1001
GRADIENTCOLOR1ACI
1070
     5
1001
GRADIENTCOLOR2ACI
1070
     2
1001
ACAD
1010
0.0
1020
0.0
1030
0.0
1001
ACDBBLOCKREPETAG
1070
     1
1071
      174
1005
124497
  0
LINE
  5
124498
  8
SLIM
 10
8010.297585520927
 20
-135.82087775265759
 30
0.0
 11
8018.7395884655189
 21
-127.3788748080627
 31
0.0
1001
GRADIENTCOLOR1ACI
1070
     5
1001
GRADIENTCOLOR2ACI
1070
     2
1001
ACAD
1010
0.0
1020
0.0
1030
0.0
1001
ACDBBLOCKREPETAG
1070
     1
1071
      175
1005
124498
  0
LINE
  5
124499
  8
SLIM
 10
8017.6550793642282
 20
-137.4436400304258
 30
0.0
 11
8025.5958866269621
 21
-129.50283276769261
 31
0.0
1001
GRADIENTCOLOR1ACI
1070
     5
1001
GRADIENTCOLOR2ACI
1070
     2
1001
ACAD
1010
0.0
1020
0.0
1030
0.0
1001
ACDBBLOCKREPETAG
1070
     1
1071
      176
1005
124499
  0
LINE
  5
12449A
  8
SLIM
 10
8026.078975515723
 20
-137.99999999999909
 30
0.0
 11
8031.9385859461063
 21
-132.1403895696169
 31
0.0
1001
GRADIENTCOLOR1ACI
1070
     5
1001
GRADIENTCOLOR2ACI
1070
     2
1001
ACAD
1010
0.0
1020
0.0
1030
0.0
1001
ACDBBLOCKREPETAG
1070
     1
1071
      177
1005
12449A
  0
LINE
  5
12449B
  8
SLIM
 10
8035.0592316367947
 20
-137.99999999999909
 30
0.0
 11
8037.8233654376218
 21
-135.23586619916779
 31
0.0
1001
GRADIENTCOLOR1ACI
1070
     5
1001
GRADIENTCOLOR2ACI
1070
     2
1001
ACAD
1010
0.0
1020
0.0
1030
0.0
1001
ACDBBLOCKREPETAG
1070
     1
1071
      178
1005
12449B
  0
CIRCLE
  5
12449C
  8
OBJECT
 10
8000.0
 20
-199.99999999999909
 30
0.0
 40
65.0
1001
ACDBBLOCKREPETAG
1070
     1
1071
       84
1005
12449C
  0
CIRCLE
  5
12449D
  8
OBJECT
 10
8000.0
 20
-199.99999999999909
 30
0.0
 40
41.0
1001
ACDBBLOCKREPETAG
1070
     1
1071
       85
1005
12449D
  0
CIRCLE
  5
12449E
  8
OBJECT
 10
8000.0
 20
-199.99999999999909
 30
0.0
 40
58.0
1001
ACDBBLOCKREPETAG
1070
     1
1071
       86
1005
12449E
  0
LINE
  5
12449F
  8
OBJECT
 10
8070.0
 20
-137.99999999999909
 30
0.0
 11
8019.5192212959419
 21
-137.99999999999909
 31
0.0
1001
ACDBBLOCKREPETAG
1070
     1
1071
       87
1005
12449F
  0
LINE
  5
1244A0
  8
OBJECT
 10
7930.0
 20
-137.99999999999909
 30
0.0
 11
7980.4807787040572
 21
-137.99999999999909
 31
0.0
1001
ACDBBLOCKREPETAG
1070
     1
1071
       88
1005
1244A0
  0
LINE
  5
1244A1
  8
OBJECT
 10
7930.0
 20
-261.99999999999909
 30
0.0
 11
7938.0
 21
-261.99999999999909
 31
0.0
1001
ACDBBLOCKREPETAG
1070
     1
1071
       89
1005
1244A1
  0
LINE
  5
1244A2
  8
OBJECT
 10
7938.0
 20
-269.99999999999909
 30
0.0
 11
7938.0
 21
-261.99999999999909
 31
0.0
1001
ACDBBLOCKREPETAG
1070
     1
1071
       90
1005
1244A2
  0
LINE
  5
1244A3
  8
OBJECT
 10
8070.0
 20
-261.99999999999909
 30
0.0
 11
8062.0
 21
-261.99999999999909
 31
0.0
1001
ACDBBLOCKREPETAG
1070
     1
1071
       91
1005
1244A3
  0
LINE
  5
1244A4
  8
OBJECT
 10
8062.0
 20
-269.99999999999909
 30
0.0
 11
8062.0
 21
-261.99999999999909
 31
0.0
1001
ACDBBLOCKREPETAG
1070
     1
1071
       92
1005
1244A4
  0
LINE
  5
1244A5
  8
CENTER
 10
7930.0
 20
-199.99999999999909
 30
0.0
 11
8070.0
 21
-199.99999999999909
 31
0.0
1001
ACDBBLOCKREPETAG
1070
     1
1071
       93
1005
1244A5
  0
LINE
  5
1244A6
  8
CENTER
 10
8000.0
 20
-269.99999999999909
 30
0.0
 11
8000.0
 21
-109.9999999999991
 31
0.0
1001
ACDBBLOCKREPETAG
1070
     1
1071
       94
1005
1244A6
  0
ARC
  5
1244A7
  8
OBJECT
 10
7989.902762139187
 20
-224.44352901899131
 30
0.0
 40
7.0
 50
73.00127222950276
 51
154.05025878930931
1001
ACDBBLOCKREPETAG
1070
     1
1071
       95
1005
1244A7
  0
ARC
  5
1244A8
  8
OBJECT
 10
7986.8376610706546
 20
-225.5978773169509
 30
0.0
 40
9.0
 50
73.00127222950276
 51
154.0502639259247
1001
ACDBBLOCKREPETAG
1070
     1
1071
       96
1005
1244A8
  0
ARC
  5
1244A9
  8
OBJECT
 10
7896.3142301315538
 20
-147.28130031148149
 30
0.0
 40
150.0
 50
322.89503373979312
 51
325.8931499695608
1001
ACDBBLOCKREPETAG
1070
     1
1071
       97
1005
1244A9
  0
ARC
  5
1244AA
  8
OBJECT
 10
8000.0
 20
-199.99999999999909
 30
0.0
 40
37.5
 50
303.16276667665232
 51
229.16350249100839
1001
ACDBBLOCKREPETAG
1070
     1
1071
       98
1005
1244AA
  0
LINE
  5
1244AB
  8
OBJECT
 10
7983.60851451898
 20
-221.38045100897119
 30
0.0
 11
7977.3740110000008
 21
-234.1915870000002
 31
0.0
1001
ACDBBLOCKREPETAG
1070
     1
1071
       99
1005
1244AB
  0
LINE
  5
1244AC
  8
OBJECT
 10
7978.7450566344623
 20
-221.65963488670511
 30
0.0
 11
7973.898672000003
 21
-231.6183599999996
 31
0.0
1001
ACDBBLOCKREPETAG
1070
     1
1071
      100
1005
1244AC
  0
LINE
  5
1244AD
  8
OBJECT
 10
8018.9380179999998
 20
-226.00000000000091
 30
0.0
 11
7989.4688153032539
 21
-216.99107608744359
 31
0.0
1001
ACDBBLOCKREPETAG
1070
     1
1071
      101
1005
1244AD
  0
LINE
  5
1244AE
  8
OBJECT
 10
8020.513225309006
 20
-231.39199878029191
 30
0.0
 11
8018.9380179999998
 21
-226.00000000000091
 31
0.0
1001
ACDBBLOCKREPETAG
1070
     1
1071
      102
1005
1244AE
  0
LINE
  5
1244AF
  8
OBJECT
 10
7954.0380592228739
 20
-245.96194077712289
 30
0.0
 11
7938.0
 21
-261.99999999999909
 31
0.0
1001
ACDBBLOCKREPETAG
1070
     1
1071
      106
1005
1244AF
  0
LINE
  5
1244B0
  8
OBJECT
 10
8045.9619407771252
 20
-245.96194077712289
 30
0.0
 11
8062.0
 21
-261.99999999999909
 31
0.0
1001
ACDBBLOCKREPETAG
1070
     1
1071
      107
1005
1244B0
  0
ARC
  5
1244B1
  8
OBJECT
 10
8000.0
 20
-199.99999999999909
 30
0.0
 40
75.0
 50
55.757831297238091
 51
124.2421687027619
1001
ACDBBLOCKREPETAG
1070
     1
1071
      108
1005
1244B1
  0
POINT
  5
1244B2
  8
DOTS
 10
8000.0
 20
-199.99999999999909
 30
0.0
 50
270.0
1001
ACDBBLOCKREPETAG
1070
     1
1071
      157
1005
1244B2
  0
LINE
  5
1244B3
  8
OBJECT
 10
8073.0
 20
-533.99999999999955
 30
0.0
 11
8070.0
 21
-533.99999999999955
 31
0.0
1001
ACDBBLOCKREPETAG
1070
     1
1071
        1
1005
1244B3
  0
ARC
  5
1244B4
  8
OBJECT
 10
8073.0
 20
-536.99999999999955
 30
0.0
 40
3.0
 50
0.0
 51
90.0
1001
ACDBBLOCKREPETAG
1070
     1
1071
        2
1005
1244B4
  0
LINE
  5
1244B5
  8
OBJECT
 10
8070.0
 20
-657.99999999999955
 30
0.0
 11
8073.0
 21
-657.99999999999955
 31
0.0
1001
ACDBBLOCKREPETAG
1070
     1
1071
        3
1005
1244B5
  0
ARC
  5
1244B6
  8
OBJECT
 10
8073.0
 20
-654.99999999999966
 30
0.0
 40
3.0
 50
270.0
 51
0.0
1001
ACDBBLOCKREPETAG
1070
     1
1071
        4
1005
1244B6
  0
LINE
  5
1244B7
  8
OBJECT
 10
8076.0
 20
-654.99999999999966
 30
0.0
 11
8076.0
 21
-536.99999999999955
 31
0.0
1001
ACDBBLOCKREPETAG
1070
     1
1071
        5
1005
1244B7
  0
LINE
  5
1244B8
  8
CENTER
 10
8091.0
 20
-199.99999999999909
 30
0.0
 11
8070.0
 21
-199.99999999999909
 31
0.0
1001
ACDBBLOCKREPETAG
1070
     1
1071
        0
1005
1244B8
  0
LINE
  5
1244B9
  8
OBJECT
 10
8073.0
 20
-137.99999999999909
 30
0.0
 11
8070.0
 21
-137.99999999999909
 31
0.0
1001
ACDBBLOCKREPETAG
1070
     1
1071
        1
1005
1244B9
  0
ARC
  5
1244BA
  8
OBJECT
 10
8073.0
 20
-140.99999999999909
 30
0.0
 40
3.0
 50
0.0
 51
90.0
1001
ACDBBLOCKREPETAG
1070
     1
1071
        2
1005
1244BA
  0
LINE
  5
1244BB
  8
OBJECT
 10
8070.0
 20
-261.99999999999909
 30
0.0
 11
8073.0
 21
-261.99999999999909
 31
0.0
1001
ACDBBLOCKREPETAG
1070
     1
1071
        3
1005
1244BB
  0
ARC
  5
1244BC
  8
OBJECT
 10
8073.0
 20
-258.99999999999909
 30
0.0
 40
3.0
 50
270.0
 51
0.0
1001
ACDBBLOCKREPETAG
1070
     1
1071
        4
1005
1244BC
  0
LINE
  5
1244BD
  8
OBJECT
 10
8076.0
 20
-258.99999999999909
 30
0.0
 11
8076.0
 21
-140.99999999999909
 31
0.0
1001
ACDBBLOCKREPETAG
1070
     1
1071
        5
1005
1244BD
  0
LINE
  5
1244BE
  8
OBJECT
 10
5927.0
 20
-533.99999999999955
 30
0.0
 11
5930.0
 21
-533.99999999999955
 31
0.0
1001
ACDBBLOCKREPETAG
1070
     1
1071
        1
1005
1244BE
  0
ARC
  5
1244BF
  8
OBJECT
 10
5927.0
 20
-536.99999999999955
 30
0.0
 40
3.0
 50
90.0
 51
180.0
1001
ACDBBLOCKREPETAG
1070
     1
1071
        2
1005
1244BF
  0
LINE
  5
1244C0
  8
OBJECT
 10
5930.0
 20
-657.99999999999955
 30
0.0
 11
5927.0
 21
-657.99999999999955
 31
0.0
1001
ACDBBLOCKREPETAG
1070
     1
1071
        3
1005
1244C0
  0
ARC
  5
1244C1
  8
OBJECT
 10
5927.0
 20
-654.99999999999966
 30
0.0
 40
3.0
 50
180.0
 51
270.0
1001
ACDBBLOCKREPETAG
1070
     1
1071
        4
1005
1244C1
  0
LINE
  5
1244C2
  8
OBJECT
 10
5924.0
 20
-654.99999999999966
 30
0.0
 11
5924.0
 21
-536.99999999999955
 31
0.0
1001
ACDBBLOCKREPETAG
1070
     1
1071
        5
1005
1244C2
  0
CIRCLE
  5
1244C3
  8
OBJECT
 10
6000.0
 20
-596.0
 30
0.0
 40
62.0
1001
ACDBBLOCKREPETAG
1070
     1
1071
        0
1005
1244C3
  0
LINE
  5
1244C4
  8
OBJECT
 10
5935.0
 20
-449.99999999999937
 30
0.0
 11
5935.0
 21
-470.99999999999937
 31
0.0
1001
ACDBBLOCKREPETAG
1070
     1
1071
       16
1005
1244C4
  0
LINE
  5
1244C5
  8
OBJECT
 10
5935.0
 20
-470.99999999999937
 30
0.0
 11
6065.0
 21
-470.99999999999937
 31
0.0
1001
ACDBBLOCKREPETAG
1070
     1
1071
       17
1005
1244C5
  0
LINE
  5
1244C6
  8
OBJECT
 10
6065.0
 20
-470.99999999999937
 30
0.0
 11
6065.0
 21
-449.99999999999937
 31
0.0
1001
ACDBBLOCKREPETAG
1070
     1
1071
       18
1005
1244C6
  0
LINE
  5
1244C7
  8
OBJECT
 10
6065.0
 20
-449.99999999999937
 30
0.0
 11
5935.0
 21
-449.99999999999937
 31
0.0
1001
ACDBBLOCKREPETAG
1070
     1
1071
       19
1005
1244C7
  0
LINE
  5
1244C8
  8
HIDDEN
 10
6044.5
 20
-519.99999999999955
 30
0.0
 11
5955.5
 21
-519.99999999999955
 31
0.0
1001
ACDBBLOCKREPETAG
1070
     1
1071
       20
1005
1244C8
  0
LINE
  5
1244C9
  8
CENTER
 10
6000.0
 20
-669.99999999999955
 30
0.0
 11
6000.0
 21
-434.99999999999949
 31
0.0
1001
ACDBBLOCKREPETAG
1070
     1
1071
       21
1005
1244C9
  0
LINE
  5
1244CA
  8
OBJECT
 10
5940.5
 20
-470.99999999999937
 30
0.0
 11
5940.5
 21
-533.99999999999955
 31
0.0
1001
ACDBBLOCKREPETAG
1070
     1
1071
       22
1005
1244CA
  0
LINE
  5
1244CB
  8
OBJECT
 10
5930.0
 20
-533.99999999999955
 30
0.0
 11
6070.0
 21
-533.99999999999955
 31
0.0
1001
ACDBBLOCKREPETAG
1070
     1
1071
       23
1005
1244CB
  0
LINE
  5
1244CC
  8
OBJECT
 10
6059.4999999999991
 20
-533.99999999999955
 30
0.0
 11
6059.4999999999991
 21
-470.99999999999937
 31
0.0
1001
ACDBBLOCKREPETAG
1070
     1
1071
       24
1005
1244CC
  0
LINE
  5
1244CD
  8
OBJECT
 10
5930.0
 20
-657.99999999999955
 30
0.0
 11
5930.0
 21
-669.99999999999955
 31
0.0
1001
ACDBBLOCKREPETAG
1070
     1
1071
       25
1005
1244CD
  0
LINE
  5
1244CE
  8
OBJECT
 10
5930.0
 20
-669.99999999999955
 30
0.0
 11
6070.0
 21
-669.99999999999955
 31
0.0
1001
ACDBBLOCKREPETAG
1070
     1
1071
       26
1005
1244CE
  0
LINE
  5
1244CF
  8
OBJECT
 10
6070.0
 20
-669.99999999999955
 30
0.0
 11
6070.0
 21
-657.99999999999955
 31
0.0
1001
ACDBBLOCKREPETAG
1070
     1
1071
       27
1005
1244CF
  0
LINE
  5
1244D0
  8
OBJECT
 10
6070.0
 20
-657.99999999999955
 30
0.0
 11
5930.0
 21
-657.99999999999955
 31
0.0
1001
ACDBBLOCKREPETAG
1070
     1
1071
       28
1005
1244D0
  0
ARC
  5
1244D1
  8
OBJECT
 10
6435.0384389946776
 20
-898.60813684682694
 30
0.0
 40
519.48776673616965
 50
135.42350667430969
 51
138.50052655621499
1001
ACDBBLOCKREPETAG
1070
     1
1071
       32
1005
1244D1
  0
ARC
  5
1244D2
  8
OBJECT
 10
6435.0384389946776
 20
-293.39186315317193
 30
0.0
 40
519.48776673616965
 50
221.49947344378501
 51
224.57649332569039
1001
ACDBBLOCKREPETAG
1070
     1
1071
       33
1005
1244D2
  0
ARC
  5
1244D3
  8
OBJECT
 10
5564.9615610053224
 20
-898.60813684682694
 30
0.0
 40
519.48776673616965
 50
41.499473443784993
 51
44.576493325690237
1001
ACDBBLOCKREPETAG
1070
     1
1071
       34
1005
1244D3
  0
ARC
  5
1244D4
  8
OBJECT
 10
5564.9615610053224
 20
-293.39186315317193
 30
0.0
 40
519.48776673616965
 50
315.42350667430981
 51
318.50052655621488
1001
ACDBBLOCKREPETAG
1070
     1
1071
       35
1005
1244D4
  0
POINT
  5
1244D5
  8
DOTS
 10
6000.0
 20
-654.99999999999966
 30
0.0
1001
ACDBBLOCKREPETAG
1070
     1
1071
      111
1005
1244D5
  0
LINE
  5
1244D6
  8
CENTER
 10
5909.0
 20
-199.99999999999909
 30
0.0
 11
5930.0
 21
-199.99999999999909
 31
0.0
1001
ACDBBLOCKREPETAG
1070
     1
1071
        0
1005
1244D6
  0
LINE
  5
1244D7
  8
OBJECT
 10
5927.0
 20
-261.99999999999909
 30
0.0
 11
5930.0
 21
-261.99999999999909
 31
0.0
1001
ACDBBLOCKREPETAG
1070
     1
1071
        1
1005
1244D7
  0
ARC
  5
1244D8
  8
OBJECT
 10
5927.0
 20
-258.99999999999909
 30
0.0
 40
3.0
 50
180.0
 51
270.0
1001
ACDBBLOCKREPETAG
1070
     1
1071
        2
1005
1244D8
  0
LINE
  5
1244D9
  8
OBJECT
 10
5930.0
 20
-137.99999999999909
 30
0.0
 11
5927.0
 21
-137.99999999999909
 31
0.0
1001
ACDBBLOCKREPETAG
1070
     1
1071
        3
1005
1244D9
  0
ARC
  5
1244DA
  8
OBJECT
 10
5927.0
 20
-140.99999999999909
 30
0.0
 40
3.0
 50
90.0
 51
180.0
1001
ACDBBLOCKREPETAG
1070
     1
1071
        4
1005
1244DA
  0
LINE
  5
1244DB
  8
OBJECT
 10
5924.0
 20
-140.99999999999909
 30
0.0
 11
5924.0
 21
-258.99999999999909
 31
0.0
1001
ACDBBLOCKREPETAG
1070
     1
1071
        5
1005
1244DB
  0
LINE
  5
1244DC
  8
CENTER
 10
6000.0
 20
-290.99999999999898
 30
0.0
 11
6000.0
 21
-269.99999999999909
 31
0.0
1001
ACDBBLOCKREPETAG
1070
     1
1071
        0
1005
1244DC
  0
LINE
  5
1244DD
  8
OBJECT
 10
6062.0
 20
-273.0
 30
0.0
 11
6062.0
 21
-269.99999999999909
 31
0.0
1001
ACDBBLOCKREPETAG
1070
     1
1071
        1
1005
1244DD
  0
ARC
  5
1244DE
  8
OBJECT
 10
6059.0
 20
-273.0
 30
0.0
 40
3.0
 50
270.0
 51
0.0
1001
ACDBBLOCKREPETAG
1070
     1
1071
        2
1005
1244DE
  0
LINE
  5
1244DF
  8
OBJECT
 10
5938.0
 20
-269.99999999999909
 30
0.0
 11
5938.0
 21
-272.99999999999818
 31
0.0
1001
ACDBBLOCKREPETAG
1070
     1
1071
        3
1005
1244DF
  0
ARC
  5
1244E0
  8
OBJECT
 10
5941.0
 20
-272.99999999999818
 30
0.0
 40
3.0
 50
180.0
 51
270.0
1001
ACDBBLOCKREPETAG
1070
     1
1071
        4
1005
1244E0
  0
LINE
  5
1244E1
  8
OBJECT
 10
5941.0
 20
-275.99999999999818
 30
0.0
 11
6059.0
 21
-276.0
 31
0.0
1001
ACDBBLOCKREPETAG
1070
     1
1071
        5
1005
1244E1
  0
POINT
  5
1244E2
  8
DOTS
 10
6000.0
 20
-199.99999999999909
 30
0.0
 50
270.0
1001
ACDBBLOCKREPETAG
1070
     1
1071
      153
1005
1244E2
  0
ARC
  5
1244E3
  8
OBJECT
 10
6000.0
 20
-199.99999999999909
 30
0.0
 40
70.0
 50
62.339550100781771
 51
117.66044989921819
1001
ACDBBLOCKREPETAG
1070
     1
1071
        0
1005
1244E3
  0
CIRCLE
  5
1244E4
  8
OBJECT
 10
6000.0
 20
-199.99999999999909
 30
0.0
 40
65.0
1001
ACDBBLOCKREPETAG
1070
     1
1071
        1
1005
1244E4
  0
CIRCLE
  5
1244E5
  8
OBJECT
 10
6000.0
 20
-199.99999999999909
 30
0.0
 40
41.0
1001
ACDBBLOCKREPETAG
1070
     1
1071
        2
1005
1244E5
  0
CIRCLE
  5
1244E6
  8
OBJECT
 10
6000.0
 20
-199.99999999999909
 30
0.0
 40
58.0
1001
ACDBBLOCKREPETAG
1070
     1
1071
        3
1005
1244E6
  0
LINE
  5
1244E7
  8
OBJECT
 10
6070.0
 20
-137.99999999999909
 30
0.0
 11
6019.5192212959437
 21
-137.99999999999909
 31
0.0
1001
ACDBBLOCKREPETAG
1070
     1
1071
        4
1005
1244E7
  0
LINE
  5
1244E8
  8
OBJECT
 10
5930.0
 20
-137.99999999999909
 30
0.0
 11
5980.4807787040563
 21
-137.99999999999909
 31
0.0
1001
ACDBBLOCKREPETAG
1070
     1
1071
        5
1005
1244E8
  0
LINE
  5
1244E9
  8
OBJECT
 10
5930.0
 20
-261.99999999999909
 30
0.0
 11
5938.0
 21
-261.99999999999909
 31
0.0
1001
ACDBBLOCKREPETAG
1070
     1
1071
        6
1005
1244E9
  0
LINE
  5
1244EA
  8
OBJECT
 10
5938.0
 20
-269.99999999999909
 30
0.0
 11
5938.0
 21
-261.99999999999909
 31
0.0
1001
ACDBBLOCKREPETAG
1070
     1
1071
        7
1005
1244EA
  0
LINE
  5
1244EB
  8
OBJECT
 10
6070.0
 20
-261.99999999999909
 30
0.0
 11
6062.0
 21
-261.99999999999909
 31
0.0
1001
ACDBBLOCKREPETAG
1070
     1
1071
        8
1005
1244EB
  0
LINE
  5
1244EC
  8
OBJECT
 10
6062.0
 20
-269.99999999999909
 30
0.0
 11
6062.0
 21
-261.99999999999909
 31
0.0
1001
ACDBBLOCKREPETAG
1070
     1
1071
        9
1005
1244EC
  0
LINE
  5
1244ED
  8
CENTER
 10
5930.0
 20
-199.99999999999909
 30
0.0
 11
6070.0
 21
-199.99999999999909
 31
0.0
1001
ACDBBLOCKREPETAG
1070
     1
1071
       10
1005
1244ED
  0
LINE
  5
1244EE
  8
CENTER
 10
6000.0
 20
-269.99999999999909
 30
0.0
 11
6000.0
 21
-114.9999999999991
 31
0.0
1001
ACDBBLOCKREPETAG
1070
     1
1071
       11
1005
1244EE
  0
ARC
  5
1244EF
  8
OBJECT
 10
5989.9027621391879
 20
-224.44352901899131
 30
0.0
 40
7.0
 50
73.001272229719234
 51
154.0502587894434
1001
ACDBBLOCKREPETAG
1070
     1
1071
       12
1005
1244EF
  0
ARC
  5
1244F0
  8
OBJECT
 10
5986.8376610706491
 20
-225.5978773169509
 30
0.0
 40
9.0
 50
73.001272229719234
 51
154.0502639259247
1001
ACDBBLOCKREPETAG
1070
     1
1071
       13
1005
1244F0
  0
ARC
  5
1244F1
  8
OBJECT
 10
5896.3142301315529
 20
-147.28130031148149
 30
0.0
 40
150.0
 50
322.89503374001981
 51
325.89314996972843
1001
ACDBBLOCKREPETAG
1070
     1
1071
       14
1005
1244F1
  0
ARC
  5
1244F2
  8
OBJECT
 10
6000.0
 20
-199.99999999999909
 30
0.0
 40
37.5
 50
303.1627666766604
 51
229.1635024908081
1001
ACDBBLOCKREPETAG
1070
     1
1071
       15
1005
1244F2
  0
LINE
  5
1244F3
  8
OBJECT
 10
5983.6085145189763
 20
-221.38045100897119
 30
0.0
 11
5977.3740109999999
 21
-234.1915870000002
 31
0.0
1001
ACDBBLOCKREPETAG
1070
     1
1071
       16
1005
1244F3
  0
LINE
  5
1244F4
  8
OBJECT
 10
5978.7450566344633
 20
-221.65963488670511
 30
0.0
 11
5973.8986720000003
 21
-231.6183599999996
 31
0.0
1001
ACDBBLOCKREPETAG
1070
     1
1071
       17
1005
1244F4
  0
LINE
  5
1244F5
  8
OBJECT
 10
6018.9380179999998
 20
-226.00000000000091
 30
0.0
 11
5989.4688153032585
 21
-216.99107608744359
 31
0.0
1001
ACDBBLOCKREPETAG
1070
     1
1071
       18
1005
1244F5
  0
LINE
  5
1244F6
  8
OBJECT
 10
6020.5132253090051
 20
-231.39199878029191
 30
0.0
 11
6018.9380179999998
 21
-226.00000000000091
 31
0.0
1001
ACDBBLOCKREPETAG
1070
     1
1071
       19
1005
1244F6
  0
LINE
  5
1244F7
  8
OBJECT
 10
5954.0380592228739
 20
-245.96194077712471
 30
0.0
 11
5938.0
 21
-261.99999999999909
 31
0.0
1001
ACDBBLOCKREPETAG
1070
     1
1071
       42
1005
1244F7
  0
LINE
  5
1244F8
  8
OBJECT
 10
6045.9619407771252
 20
-245.96194077712471
 30
0.0
 11
6062.0
 21
-261.99999999999909
 31
0.0
1001
ACDBBLOCKREPETAG
1070
     1
1071
       43
1005
1244F8
  0
LINE
  5
1244F9
  8
OBJECT
 10
6073.0
 20
-533.99999999999955
 30
0.0
 11
6070.0
 21
-533.99999999999955
 31
0.0
1001
ACDBBLOCKREPETAG
1070
     1
1071
        1
1005
1244F9
  0
ARC
  5
1244FA
  8
OBJECT
 10
6073.0
 20
-536.99999999999955
 30
0.0
 40
3.0
 50
0.0
 51
90.0
1001
ACDBBLOCKREPETAG
1070
     1
1071
        2
1005
1244FA
  0
LINE
  5
1244FB
  8
OBJECT
 10
6070.0
 20
-657.99999999999955
 30
0.0
 11
6073.0
 21
-657.99999999999955
 31
0.0
1001
ACDBBLOCKREPETAG
1070
     1
1071
        3
1005
1244FB
  0
ARC
  5
1244FC
  8
OBJECT
 10
6073.0
 20
-654.99999999999966
 30
0.0
 40
3.0
 50
270.0
 51
0.0
1001
ACDBBLOCKREPETAG
1070
     1
1071
        4
1005
1244FC
  0
LINE
  5
1244FD
  8
OBJECT
 10
6076.0
 20
-654.99999999999966
 30
0.0
 11
6076.0
 21
-536.99999999999955
 31
0.0
1001
ACDBBLOCKREPETAG
1070
     1
1071
        5
1005
1244FD
  0
LINE
  5
1244FE
  8
CENTER
 10
6091.0
 20
-199.99999999999909
 30
0.0
 11
6070.0
 21
-199.99999999999909
 31
0.0
1001
ACDBBLOCKREPETAG
1070
     1
1071
        0
1005
1244FE
  0
LINE
  5
1244FF
  8
OBJECT
 10
6073.0
 20
-137.99999999999909
 30
0.0
 11
6070.0
 21
-137.99999999999909
 31
0.0
1001
ACDBBLOCKREPETAG
1070
     1
1071
        1
1005
1244FF
  0
ARC
  5
124500
  8
OBJECT
 10
6073.0
 20
-140.99999999999909
 30
0.0
 40
3.0
 50
0.0
 51
90.0
1001
ACDBBLOCKREPETAG
1070
     1
1071
        2
1005
124500
  0
LINE
  5
124501
  8
OBJECT
 10
6070.0
 20
-261.99999999999909
 30
0.0
 11
6073.0
 21
-261.99999999999909
 31
0.0
1001
ACDBBLOCKREPETAG
1070
     1
1071
        3
1005
124501
  0
ARC
  5
124502
  8
OBJECT
 10
6073.0
 20
-258.99999999999909
 30
0.0
 40
3.0
 50
270.0
 51
0.0
1001
ACDBBLOCKREPETAG
1070
     1
1071
        4
1005
124502
  0
LINE
  5
124503
  8
OBJECT
 10
6076.0
 20
-258.99999999999909
 30
0.0
 11
6076.0
 21
-140.99999999999909
 31
0.0
1001
ACDBBLOCKREPETAG
1070
     1
1071
        5
1005
124503
  0
LINE
  5
124504
  8
OBJECT
 10
3927.0
 20
-533.99999999999955
 30
0.0
 11
3930.0
 21
-533.99999999999955
 31
0.0
1001
ACDBBLOCKREPETAG
1070
     1
1071
        1
1005
124504
  0
ARC
  5
124505
  8
OBJECT
 10
3927.0
 20
-536.99999999999955
 30
0.0
 40
3.0
 50
90.0
 51
180.0
1001
ACDBBLOCKREPETAG
1070
     1
1071
        2
1005
124505
  0
LINE
  5
124506
  8
OBJECT
 10
3930.0
 20
-657.99999999999955
 30
0.0
 11
3927.0
 21
-657.99999999999955
 31
0.0
1001
ACDBBLOCKREPETAG
1070
     1
1071
        3
1005
124506
  0
ARC
  5
124507
  8
OBJECT
 10
3927.0
 20
-654.99999999999966
 30
0.0
 40
3.0
 50
180.0
 51
270.0
1001
ACDBBLOCKREPETAG
1070
     1
1071
        4
1005
124507
  0
LINE
  5
124508
  8
OBJECT
 10
3924.0
 20
-654.99999999999966
 30
0.0
 11
3924.0
 21
-536.99999999999955
 31
0.0
1001
ACDBBLOCKREPETAG
1070
     1
1071
        5
1005
124508
  0
CIRCLE
  5
124509
  8
OBJECT
 10
4000.0
 20
-596.0
 30
0.0
 40
62.0
1001
ACDBBLOCKREPETAG
1070
     1
1071
        0
1005
124509
  0
LINE
  5
12450A
  8
OBJECT
 10
3935.0
 20
-449.99999999999937
 30
0.0
 11
3935.0
 21
-470.99999999999937
 31
0.0
1001
ACDBBLOCKREPETAG
1070
     1
1071
       16
1005
12450A
  0
LINE
  5
12450B
  8
OBJECT
 10
3935.0
 20
-470.99999999999937
 30
0.0
 11
4065.0
 21
-470.99999999999937
 31
0.0
1001
ACDBBLOCKREPETAG
1070
     1
1071
       17
1005
12450B
  0
LINE
  5
12450C
  8
OBJECT
 10
4065.0
 20
-470.99999999999937
 30
0.0
 11
4065.0
 21
-449.99999999999937
 31
0.0
1001
ACDBBLOCKREPETAG
1070
     1
1071
       18
1005
12450C
  0
LINE
  5
12450D
  8
OBJECT
 10
4065.0
 20
-449.99999999999937
 30
0.0
 11
3935.0
 21
-449.99999999999937
 31
0.0
1001
ACDBBLOCKREPETAG
1070
     1
1071
       19
1005
12450D
  0
LINE
  5
12450E
  8
HIDDEN
 10
4044.5
 20
-519.99999999999955
 30
0.0
 11
3955.5
 21
-519.99999999999955
 31
0.0
1001
ACDBBLOCKREPETAG
1070
     1
1071
       20
1005
12450E
  0
LINE
  5
12450F
  8
CENTER
 10
4000.0
 20
-669.99999999999955
 30
0.0
 11
4000.0
 21
-434.99999999999949
 31
0.0
1001
ACDBBLOCKREPETAG
1070
     1
1071
       21
1005
12450F
  0
LINE
  5
124510
  8
OBJECT
 10
3940.5
 20
-470.99999999999937
 30
0.0
 11
3940.5
 21
-533.99999999999955
 31
0.0
1001
ACDBBLOCKREPETAG
1070
     1
1071
       22
1005
124510
  0
LINE
  5
124511
  8
OBJECT
 10
3930.0
 20
-533.99999999999955
 30
0.0
 11
4070.0
 21
-533.99999999999955
 31
0.0
1001
ACDBBLOCKREPETAG
1070
     1
1071
       23
1005
124511
  0
LINE
  5
124512
  8
OBJECT
 10
4059.4999999999982
 20
-533.99999999999955
 30
0.0
 11
4059.4999999999982
 21
-470.99999999999937
 31
0.0
1001
ACDBBLOCKREPETAG
1070
     1
1071
       24
1005
124512
  0
LINE
  5
124513
  8
OBJECT
 10
3930.0
 20
-657.99999999999955
 30
0.0
 11
3930.0
 21
-669.99999999999955
 31
0.0
1001
ACDBBLOCKREPETAG
1070
     1
1071
       25
1005
124513
  0
LINE
  5
124514
  8
OBJECT
 10
3930.0
 20
-669.99999999999955
 30
0.0
 11
4070.0
 21
-669.99999999999955
 31
0.0
1001
ACDBBLOCKREPETAG
1070
     1
1071
       26
1005
124514
  0
LINE
  5
124515
  8
OBJECT
 10
4070.0
 20
-669.99999999999955
 30
0.0
 11
4070.0
 21
-657.99999999999955
 31
0.0
1001
ACDBBLOCKREPETAG
1070
     1
1071
       27
1005
124515
  0
LINE
  5
124516
  8
OBJECT
 10
4070.0
 20
-657.99999999999955
 30
0.0
 11
3930.0
 21
-657.99999999999955
 31
0.0
1001
ACDBBLOCKREPETAG
1070
     1
1071
       28
1005
124516
  0
ARC
  5
124517
  8
OBJECT
 10
4435.0384389946767
 20
-898.60813684682694
 30
0.0
 40
519.48776673616965
 50
135.42350667430969
 51
138.50052655621499
1001
ACDBBLOCKREPETAG
1070
     1
1071
       32
1005
124517
  0
ARC
  5
124518
  8
OBJECT
 10
4435.0384389946767
 20
-293.39186315317193
 30
0.0
 40
519.48776673616965
 50
221.49947344378501
 51
224.57649332569039
1001
ACDBBLOCKREPETAG
1070
     1
1071
       33
1005
124518
  0
ARC
  5
124519
  8
OBJECT
 10
3564.961561005322
 20
-898.60813684682694
 30
0.0
 40
519.48776673616965
 50
41.499473443784993
 51
44.576493325690237
1001
ACDBBLOCKREPETAG
1070
     1
1071
       34
1005
124519
  0
ARC
  5
12451A
  8
OBJECT
 10
3564.961561005322
 20
-293.39186315317193
 30
0.0
 40
519.48776673616965
 50
315.42350667430981
 51
318.50052655621488
1001
ACDBBLOCKREPETAG
1070
     1
1071
       35
1005
12451A
  0
POINT
  5
12451B
  8
DOTS
 10
4000.0
 20
-654.99999999999966
 30
0.0
1001
ACDBBLOCKREPETAG
1070
     1
1071
      111
1005
12451B
  0
LINE
  5
12451C
  8
CENTER
 10
3909.0
 20
-199.99999999999909
 30
0.0
 11
3930.0
 21
-199.99999999999909
 31
0.0
1001
ACDBBLOCKREPETAG
1070
     1
1071
        0
1005
12451C
  0
LINE
  5
12451D
  8
OBJECT
 10
3927.0
 20
-261.99999999999909
 30
0.0
 11
3930.0
 21
-261.99999999999909
 31
0.0
1001
ACDBBLOCKREPETAG
1070
     1
1071
        1
1005
12451D
  0
ARC
  5
12451E
  8
OBJECT
 10
3927.0
 20
-258.99999999999909
 30
0.0
 40
3.0
 50
180.0
 51
270.0
1001
ACDBBLOCKREPETAG
1070
     1
1071
        2
1005
12451E
  0
LINE
  5
12451F
  8
OBJECT
 10
3930.0
 20
-137.99999999999909
 30
0.0
 11
3927.0
 21
-137.99999999999909
 31
0.0
1001
ACDBBLOCKREPETAG
1070
     1
1071
        3
1005
12451F
  0
ARC
  5
124520
  8
OBJECT
 10
3927.0
 20
-140.99999999999909
 30
0.0
 40
3.0
 50
90.0
 51
180.0
1001
ACDBBLOCKREPETAG
1070
     1
1071
        4
1005
124520
  0
LINE
  5
124521
  8
OBJECT
 10
3924.0
 20
-140.99999999999909
 30
0.0
 11
3924.0
 21
-258.99999999999909
 31
0.0
1001
ACDBBLOCKREPETAG
1070
     1
1071
        5
1005
124521
  0
LINE
  5
124522
  8
CENTER
 10
4000.0
 20
-290.99999999999898
 30
0.0
 11
4000.0
 21
-269.99999999999909
 31
0.0
1001
ACDBBLOCKREPETAG
1070
     1
1071
        0
1005
124522
  0
LINE
  5
124523
  8
OBJECT
 10
4062.0
 20
-273.0
 30
0.0
 11
4062.0
 21
-269.99999999999909
 31
0.0
1001
ACDBBLOCKREPETAG
1070
     1
1071
        1
1005
124523
  0
ARC
  5
124524
  8
OBJECT
 10
4059.0
 20
-273.0
 30
0.0
 40
3.0
 50
270.0
 51
0.0
1001
ACDBBLOCKREPETAG
1070
     1
1071
        2
1005
124524
  0
LINE
  5
124525
  8
OBJECT
 10
3938.0
 20
-269.99999999999909
 30
0.0
 11
3938.0
 21
-272.99999999999818
 31
0.0
1001
ACDBBLOCKREPETAG
1070
     1
1071
        3
1005
124525
  0
ARC
  5
124526
  8
OBJECT
 10
3941.0
 20
-272.99999999999818
 30
0.0
 40
3.0
 50
180.0
 51
270.0
1001
ACDBBLOCKREPETAG
1070
     1
1071
        4
1005
124526
  0
LINE
  5
124527
  8
OBJECT
 10
3941.0
 20
-275.99999999999818
 30
0.0
 11
4059.0
 21
-276.0
 31
0.0
1001
ACDBBLOCKREPETAG
1070
     1
1071
        5
1005
124527
  0
POINT
  5
124528
  8
DOTS
 10
4000.0
 20
-199.99999999999909
 30
0.0
 50
270.0
1001
ACDBBLOCKREPETAG
1070
     1
1071
      153
1005
124528
  0
ARC
  5
124529
  8
OBJECT
 10
4000.0
 20
-199.99999999999909
 30
0.0
 40
70.0
 50
62.339550100758693
 51
117.6604498992413
1001
ACDBBLOCKREPETAG
1070
     1
1071
        0
1005
124529
  0
CIRCLE
  5
12452A
  8
OBJECT
 10
4000.0
 20
-199.99999999999909
 30
0.0
 40
65.0
1001
ACDBBLOCKREPETAG
1070
     1
1071
        1
1005
12452A
  0
CIRCLE
  5
12452B
  8
OBJECT
 10
4000.0
 20
-199.99999999999909
 30
0.0
 40
41.0
1001
ACDBBLOCKREPETAG
1070
     1
1071
        2
1005
12452B
  0
CIRCLE
  5
12452C
  8
OBJECT
 10
4000.0
 20
-199.99999999999909
 30
0.0
 40
58.0
1001
ACDBBLOCKREPETAG
1070
     1
1071
        3
1005
12452C
  0
LINE
  5
12452D
  8
OBJECT
 10
4070.0
 20
-137.99999999999909
 30
0.0
 11
4019.5192212959432
 21
-137.99999999999909
 31
0.0
1001
ACDBBLOCKREPETAG
1070
     1
1071
        4
1005
12452D
  0
LINE
  5
12452E
  8
OBJECT
 10
3930.0
 20
-137.99999999999909
 30
0.0
 11
3980.4807787040581
 21
-137.99999999999909
 31
0.0
1001
ACDBBLOCKREPETAG
1070
     1
1071
        5
1005
12452E
  0
LINE
  5
12452F
  8
OBJECT
 10
3930.0
 20
-261.99999999999909
 30
0.0
 11
3938.0
 21
-261.99999999999909
 31
0.0
1001
ACDBBLOCKREPETAG
1070
     1
1071
        6
1005
12452F
  0
LINE
  5
124530
  8
OBJECT
 10
3938.0
 20
-269.99999999999909
 30
0.0
 11
3938.0
 21
-261.99999999999909
 31
0.0
1001
ACDBBLOCKREPETAG
1070
     1
1071
        7
1005
124530
  0
LINE
  5
124531
  8
OBJECT
 10
4070.0
 20
-261.99999999999909
 30
0.0
 11
4062.0
 21
-261.99999999999909
 31
0.0
1001
ACDBBLOCKREPETAG
1070
     1
1071
        8
1005
124531
  0
LINE
  5
124532
  8
OBJECT
 10
4062.0
 20
-269.99999999999909
 30
0.0
 11
4062.0
 21
-261.99999999999909
 31
0.0
1001
ACDBBLOCKREPETAG
1070
     1
1071
        9
1005
124532
  0
LINE
  5
124533
  8
CENTER
 10
3930.0
 20
-199.99999999999909
 30
0.0
 11
4070.0
 21
-199.99999999999909
 31
0.0
1001
ACDBBLOCKREPETAG
1070
     1
1071
       10
1005
124533
  0
LINE
  5
124534
  8
CENTER
 10
4000.0
 20
-269.99999999999909
 30
0.0
 11
4000.0
 21
-114.9999999999991
 31
0.0
1001
ACDBBLOCKREPETAG
1070
     1
1071
       11
1005
124534
  0
ARC
  5
124535
  8
OBJECT
 10
3989.9027621391888
 20
-224.44352901899131
 30
0.0
 40
7.0
 50
73.001272229719234
 51
154.0502587894434
1001
ACDBBLOCKREPETAG
1070
     1
1071
       12
1005
124535
  0
ARC
  5
124536
  8
OBJECT
 10
3986.8376610706509
 20
-225.5978773169509
 30
0.0
 40
9.0
 50
73.001272229719234
 51
154.0502639259247
1001
ACDBBLOCKREPETAG
1070
     1
1071
       13
1005
124536
  0
ARC
  5
124537
  8
OBJECT
 10
3896.3142301315529
 20
-147.28130031148149
 30
0.0
 40
150.0
 50
322.89503374001981
 51
325.8931499697137
1001
ACDBBLOCKREPETAG
1070
     1
1071
       14
1005
124537
  0
ARC
  5
124538
  8
OBJECT
 10
4000.0
 20
-199.99999999999909
 30
0.0
 40
37.5
 50
303.16276667668222
 51
229.1635024908278
1001
ACDBBLOCKREPETAG
1070
     1
1071
       15
1005
124538
  0
LINE
  5
124539
  8
OBJECT
 10
3983.6085145189768
 20
-221.38045100897119
 30
0.0
 11
3977.3740109999999
 21
-234.1915870000002
 31
0.0
1001
ACDBBLOCKREPETAG
1070
     1
1071
       16
1005
124539
  0
LINE
  5
12453A
  8
OBJECT
 10
3978.7450566344628
 20
-221.65963488670511
 30
0.0
 11
3973.8986719999989
 21
-231.6183599999996
 31
0.0
1001
ACDBBLOCKREPETAG
1070
     1
1071
       17
1005
12453A
  0
LINE
  5
12453B
  8
OBJECT
 10
4018.9380179999998
 20
-226.00000000000091
 30
0.0
 11
3989.468815303258
 21
-216.99107608744359
 31
0.0
1001
ACDBBLOCKREPETAG
1070
     1
1071
       18
1005
12453B
  0
LINE
  5
12453C
  8
OBJECT
 10
4020.5132253090051
 20
-231.39199878029191
 30
0.0
 11
4018.9380179999998
 21
-226.00000000000091
 31
0.0
1001
ACDBBLOCKREPETAG
1070
     1
1071
       19
1005
12453C
  0
LINE
  5
12453D
  8
OBJECT
 10
3954.0380592228739
 20
-245.96194077712471
 30
0.0
 11
3938.0
 21
-261.99999999999909
 31
0.0
1001
ACDBBLOCKREPETAG
1070
     1
1071
       42
1005
12453D
  0
LINE
  5
12453E
  8
OBJECT
 10
4045.9619407771238
 20
-245.96194077712471
 30
0.0
 11
4062.0
 21
-261.99999999999909
 31
0.0
1001
ACDBBLOCKREPETAG
1070
     1
1071
       43
1005
12453E
  0
LINE
  5
12453F
  8
OBJECT
 10
4073.0
 20
-533.99999999999955
 30
0.0
 11
4070.0
 21
-533.99999999999955
 31
0.0
1001
ACDBBLOCKREPETAG
1070
     1
1071
        1
1005
12453F
  0
ARC
  5
124540
  8
OBJECT
 10
4073.0
 20
-536.99999999999955
 30
0.0
 40
3.0
 50
0.0
 51
90.0
1001
ACDBBLOCKREPETAG
1070
     1
1071
        2
1005
124540
  0
LINE
  5
124541
  8
OBJECT
 10
4070.0
 20
-657.99999999999955
 30
0.0
 11
4073.0
 21
-657.99999999999955
 31
0.0
1001
ACDBBLOCKREPETAG
1070
     1
1071
        3
1005
124541
  0
ARC
  5
124542
  8
OBJECT
 10
4073.0
 20
-654.99999999999966
 30
0.0
 40
3.0
 50
270.0
 51
0.0
1001
ACDBBLOCKREPETAG
1070
     1
1071
        4
1005
124542
  0
LINE
  5
124543
  8
OBJECT
 10
4076.0
 20
-654.99999999999966
 30
0.0
 11
4076.0
 21
-536.99999999999955
 31
0.0
1001
ACDBBLOCKREPETAG
1070
     1
1071
        5
1005
124543
  0
LINE
  5
124544
  8
CENTER
 10
4091.0
 20
-199.99999999999909
 30
0.0
 11
4070.0
 21
-199.99999999999909
 31
0.0
1001
ACDBBLOCKREPETAG
1070
     1
1071
        0
1005
124544
  0
LINE
  5
124545
  8
OBJECT
 10
4073.0
 20
-137.99999999999909
 30
0.0
 11
4070.0
 21
-137.99999999999909
 31
0.0
1001
ACDBBLOCKREPETAG
1070
     1
1071
        1
1005
124545
  0
ARC
  5
124546
  8
OBJECT
 10
4073.0
 20
-140.99999999999909
 30
0.0
 40
3.0
 50
0.0
 51
90.0
1001
ACDBBLOCKREPETAG
1070
     1
1071
        2
1005
124546
  0
LINE
  5
124547
  8
OBJECT
 10
4070.0
 20
-261.99999999999909
 30
0.0
 11
4073.0
 21
-261.99999999999909
 31
0.0
1001
ACDBBLOCKREPETAG
1070
     1
1071
        3
1005
124547
  0
ARC
  5
124548
  8
OBJECT
 10
4073.0
 20
-258.99999999999909
 30
0.0
 40
3.0
 50
270.0
 51
0.0
1001
ACDBBLOCKREPETAG
1070
     1
1071
        4
1005
124548
  0
LINE
  5
124549
  8
OBJECT
 10
4076.0
 20
-258.99999999999909
 30
0.0
 11
4076.0
 21
-140.99999999999909
 31
0.0
1001
ACDBBLOCKREPETAG
1070
     1
1071
        5
1005
124549
  0
TEXT
  5
12454A
  8
SLIM
 10
7824.6000000000022
 20
-1303.999999999998
 30
0.0
 40
28.0
  1
※ 対応スラブ厚　180～220
 41
0.75
  0
TEXT
  5
12454B
  8
SLIM
 10
7611.4999999999982
 20
-1397.333333333331
 30
0.0
 40
28.0
  1
国土交通大臣認定・（財）日本消防設備安全センター性能評定取得品
 41
0.75
  0
TEXT
  5
12454C
  8
SLIM
 10
7631.1000000000004
 20
-1443.999999999998
 30
0.0
 40
28.0
  1
注）ご採用にあたり、認定書及び評定書の内容をご確認ください。
 41
0.75
  0
LINE
  5
12454D
  8
SLIM
 10
11925.0
 20
-655.19743878930785
 30
0.0
 11
11925.197438789301
 21
-654.99999999999966
 31
0.0
1001
ACAD
1010
0.0
1020
0.0
1030
0.0
1001
ACDBBLOCKREPETAG
1070
     1
1071
        1
1005
0
  0
LINE
  5
12454E
  8
SLIM
 10
11925.0
 20
-673.15795103144626
 30
0.0
 11
11943.15795103144
 21
-654.99999999999966
 31
0.0
1001
ACAD
1010
0.0
1020
0.0
1030
0.0
1001
ACDBBLOCKREPETAG
1070
     1
1071
       10
1005
12454E
  0
LINE
  5
12454F
  8
SLIM
 10
11925.0
 20
-691.11846327358444
 30
0.0
 11
11961.11846327358
 21
-654.99999999999966
 31
0.0
1001
ACAD
1010
0.0
1020
0.0
1030
0.0
1001
ACDBBLOCKREPETAG
1070
     1
1071
       11
1005
12454F
  0
LINE
  5
124550
  8
SLIM
 10
11925.0
 20
-709.07897551572296
 30
0.0
 11
11979.07897551572
 21
-654.99999999999966
 31
0.0
1001
ACAD
1010
0.0
1020
0.0
1030
0.0
1001
ACDBBLOCKREPETAG
1070
     1
1071
       12
1005
124550
  0
LINE
  5
124551
  8
SLIM
 10
11925.0
 20
-727.03948775786114
 30
0.0
 11
11997.03948775786
 21
-654.99999999999966
 31
0.0
1001
ACAD
1010
0.0
1020
0.0
1030
0.0
1001
ACDBBLOCKREPETAG
1070
     1
1071
       13
1005
124551
  0
LINE
  5
124552
  8
SLIM
 10
11925.0
 20
-744.99999999999955
 30
0.0
 11
12015.0
 21
-654.99999999999966
 31
0.0
1001
ACAD
1010
0.0
1020
0.0
1030
0.0
1001
ACDBBLOCKREPETAG
1070
     1
1071
       14
1005
124552
  0
LINE
  5
124553
  8
SLIM
 10
11925.0
 20
-762.96051224213772
 30
0.0
 11
12032.96051224214
 21
-654.99999999999966
 31
0.0
1001
ACAD
1010
0.0
1020
0.0
1030
0.0
1001
ACDBBLOCKREPETAG
1070
     1
1071
       15
1005
124553
  0
LINE
  5
124554
  8
SLIM
 10
11926.57043503541
 20
-779.35058944886373
 30
0.0
 11
12050.921024484271
 21
-654.99999999999966
 31
0.0
1001
ACAD
1010
0.0
1020
0.0
1030
0.0
1001
ACDBBLOCKREPETAG
1070
     1
1071
       16
1005
124554
  0
LINE
  5
124555
  8
SLIM
 10
11929.39181818456
 20
-794.48971854185424
 30
0.0
 11
12068.881536726411
 21
-654.99999999999966
 31
0.0
1001
ACAD
1010
0.0
1020
0.0
1030
0.0
1001
ACDBBLOCKREPETAG
1070
     1
1071
       17
1005
124555
  0
LINE
  5
124556
  8
SLIM
 10
11932.21320133371
 20
-809.62884763484476
 30
0.0
 11
12075.0
 21
-666.84204896855283
 31
0.0
1001
ACAD
1010
0.0
1020
0.0
1030
0.0
1001
ACDBBLOCKREPETAG
1070
     1
1071
       18
1005
124556
  0
LINE
  5
124557
  8
SLIM
 10
11935.03458448285
 20
-824.76797672783539
 30
0.0
 11
12075.0
 21
-684.80256121069112
 31
0.0
1001
ACAD
1010
0.0
1020
0.0
1030
0.0
1001
ACDBBLOCKREPETAG
1070
     1
1071
       19
1005
124557
  0
LINE
  5
124558
  8
SLIM
 10
11937.855967632
 20
-839.90710582082579
 30
0.0
 11
12075.0
 21
-702.76307345282942
 31
0.0
1001
ACAD
1010
0.0
1020
0.0
1030
0.0
1001
ACDBBLOCKREPETAG
1070
     1
1071
       20
1005
124558
  0
LINE
  5
124559
  8
SLIM
 10
11940.67735078115
 20
-855.04623491381665
 30
0.0
 11
12075.0
 21
-720.7235856949676
 31
0.0
1001
ACAD
1010
0.0
1020
0.0
1030
0.0
1001
ACDBBLOCKREPETAG
1070
     1
1071
       21
1005
124559
  0
LINE
  5
12455A
  8
SLIM
 10
11943.498733930301
 20
-870.18536400680739
 30
0.0
 11
12075.0
 21
-738.684097937106
 31
0.0
1001
ACAD
1010
0.0
1020
0.0
1030
0.0
1001
ACDBBLOCKREPETAG
1070
     1
1071
       22
1005
12455A
  0
LINE
  5
12455B
  8
SLIM
 10
11945.5
 20
-886.14461017924543
 30
0.0
 11
12075.0
 21
-756.64461017924407
 31
0.0
1001
ACAD
1010
0.0
1020
0.0
1030
0.0
1001
ACDBBLOCKREPETAG
1070
     1
1071
       23
1005
12455B
  0
LINE
  5
12455C
  8
SLIM
 10
11945.5
 20
-904.10512242138145
 30
0.0
 11
12074.15680692925
 21
-775.44831549213154
 31
0.0
1001
ACAD
1010
0.0
1020
0.0
1030
0.0
1001
ACDBBLOCKREPETAG
1070
     1
1071
       24
1005
12455C
  0
LINE
  5
12455D
  8
SLIM
 10
11945.5
 20
-922.06563466351747
 30
0.0
 11
12070.04294658328
 21
-797.52268808023439
 31
0.0
1001
ACAD
1010
0.0
1020
0.0
1030
0.0
1001
ACDBBLOCKREPETAG
1070
     1
1071
       25
1005
12455D
  0
LINE
  5
12455E
  8
SLIM
 10
11960.52614690566
 20
-924.99999999999955
 30
0.0
 11
12065.92908623732
 21
-819.59706066833724
 31
0.0
1001
ACAD
1010
0.0
1020
0.0
1030
0.0
1001
ACDBBLOCKREPETAG
1070
     1
1071
       26
1005
12455E
  0
LINE
  5
12455F
  8
SLIM
 10
11978.4866591478
 20
-924.99999999999955
 30
0.0
 11
12061.81522589136
 21
-841.67143325643985
 31
0.0
1001
ACAD
1010
0.0
1020
0.0
1030
0.0
1001
ACDBBLOCKREPETAG
1070
     1
1071
       27
1005
12455F
  0
LINE
  5
124560
  8
SLIM
 10
11996.447171389929
 20
-924.99999999999955
 30
0.0
 11
12057.70136554539
 21
-863.74580584454304
 31
0.0
1001
ACAD
1010
0.0
1020
0.0
1030
0.0
1001
ACDBBLOCKREPETAG
1070
     1
1071
       28
1005
124560
  0
LINE
  5
124561
  8
SLIM
 10
12014.407683632069
 20
-924.99999999999955
 30
0.0
 11
12054.5
 21
-884.90768363207417
 31
0.0
1001
ACAD
1010
0.0
1020
0.0
1030
0.0
1001
ACDBBLOCKREPETAG
1070
     1
1071
       29
1005
124561
  0
LINE
  5
124562
  8
SLIM
 10
12032.368195874211
 20
-924.99999999999955
 30
0.0
 11
12054.5
 21
-902.86819587421314
 31
0.0
1001
ACAD
1010
0.0
1020
0.0
1030
0.0
1001
ACDBBLOCKREPETAG
1070
     1
1071
       30
1005
124562
  0
LINE
  5
124563
  8
SLIM
 10
12050.328708116351
 20
-924.99999999999955
 30
0.0
 11
12054.5
 21
-920.82870811635235
 31
0.0
1001
ACAD
1010
0.0
1020
0.0
1030
0.0
1001
ACDBBLOCKREPETAG
1070
     1
1071
       31
1005
124563
  0
LINE
  5
124564
  8
OBJECT
 10
11925.0
 20
-654.99999999999966
 30
0.0
 11
12075.0
 21
-654.99999999999966
 31
0.0
1001
ACDBBLOCKREPETAG
1070
     1
1071
        2
1005
124564
  0
LINE
  5
124565
  8
OBJECT
 10
12075.0
 20
-654.99999999999966
 30
0.0
 11
12075.0
 21
-770.9238648686005
 31
0.0
1001
ACDBBLOCKREPETAG
1070
     1
1071
        3
1005
124565
  0
LINE
  5
124566
  8
OBJECT
 10
12075.0
 20
-770.9238648686005
 30
0.0
 11
12054.5
 21
-880.92386486860221
 31
0.0
1001
ACDBBLOCKREPETAG
1070
     1
1071
        4
1005
124566
  0
LINE
  5
124567
  8
OBJECT
 10
12054.5
 20
-880.92386486860221
 30
0.0
 11
12054.5
 21
-924.99999999999955
 31
0.0
1001
ACDBBLOCKREPETAG
1070
     1
1071
        5
1005
124567
  0
LINE
  5
124568
  8
OBJECT
 10
12054.5
 20
-924.99999999999955
 30
0.0
 11
11945.5
 21
-924.99999999999955
 31
0.0
1001
ACDBBLOCKREPETAG
1070
     1
1071
        6
1005
124568
  0
LINE
  5
124569
  8
OBJECT
 10
11945.5
 20
-924.99999999999955
 30
0.0
 11
11945.5
 21
-880.92386486861199
 31
0.0
1001
ACDBBLOCKREPETAG
1070
     1
1071
        7
1005
124569
  0
LINE
  5
12456A
  8
OBJECT
 10
11945.5
 20
-880.92386486861199
 30
0.0
 11
11925.0
 21
-770.9238648686005
 31
0.0
1001
ACDBBLOCKREPETAG
1070
     1
1071
        8
1005
12456A
  0
LINE
  5
12456B
  8
OBJECT
 10
11925.0
 20
-770.9238648686005
 30
0.0
 11
11925.0
 21
-654.99999999999966
 31
0.0
1001
ACDBBLOCKREPETAG
1070
     1
1071
        9
1005
12456B
  0
LINE
  5
12456C
  8
SLIM
 10
9925.0
 20
-655.19743878930785
 30
0.0
 11
9925.1974387893097
 21
-654.99999999999966
 31
0.0
1001
ACAD
1010
0.0
1020
0.0
1030
0.0
1001
ACDBBLOCKREPETAG
1070
     1
1071
        1
1005
0
  0
LINE
  5
12456D
  8
SLIM
 10
9925.0
 20
-673.15795103144626
 30
0.0
 11
9943.1579510314441
 21
-654.99999999999966
 31
0.0
1001
ACAD
1010
0.0
1020
0.0
1030
0.0
1001
ACDBBLOCKREPETAG
1070
     1
1071
       10
1005
12456D
  0
LINE
  5
12456E
  8
SLIM
 10
9925.0
 20
-691.11846327358444
 30
0.0
 11
9961.1184632735858
 21
-654.99999999999966
 31
0.0
1001
ACAD
1010
0.0
1020
0.0
1030
0.0
1001
ACDBBLOCKREPETAG
1070
     1
1071
       11
1005
12456E
  0
LINE
  5
12456F
  8
SLIM
 10
9925.0
 20
-709.07897551572296
 30
0.0
 11
9979.0789755157257
 21
-654.99999999999966
 31
0.0
1001
ACAD
1010
0.0
1020
0.0
1030
0.0
1001
ACDBBLOCKREPETAG
1070
     1
1071
       12
1005
12456F
  0
LINE
  5
124570
  8
SLIM
 10
9925.0
 20
-727.03948775786114
 30
0.0
 11
9997.0394877578656
 21
-654.99999999999966
 31
0.0
1001
ACAD
1010
0.0
1020
0.0
1030
0.0
1001
ACDBBLOCKREPETAG
1070
     1
1071
       13
1005
124570
  0
LINE
  5
124571
  8
SLIM
 10
9925.0
 20
-744.99999999999955
 30
0.0
 11
10015.0
 21
-654.99999999999966
 31
0.0
1001
ACAD
1010
0.0
1020
0.0
1030
0.0
1001
ACDBBLOCKREPETAG
1070
     1
1071
       14
1005
124571
  0
LINE
  5
124572
  8
SLIM
 10
9925.0
 20
-762.96051224213772
 30
0.0
 11
10032.96051224214
 21
-654.99999999999966
 31
0.0
1001
ACAD
1010
0.0
1020
0.0
1030
0.0
1001
ACDBBLOCKREPETAG
1070
     1
1071
       15
1005
124572
  0
LINE
  5
124573
  8
SLIM
 10
9926.5704350354117
 20
-779.35058944886373
 30
0.0
 11
10050.921024484271
 21
-654.99999999999966
 31
0.0
1001
ACAD
1010
0.0
1020
0.0
1030
0.0
1001
ACDBBLOCKREPETAG
1070
     1
1071
       16
1005
124573
  0
LINE
  5
124574
  8
SLIM
 10
9929.3918181845602
 20
-794.48971854185424
 30
0.0
 11
10068.881536726411
 21
-654.99999999999966
 31
0.0
1001
ACAD
1010
0.0
1020
0.0
1030
0.0
1001
ACDBBLOCKREPETAG
1070
     1
1071
       17
1005
124574
  0
LINE
  5
124575
  8
SLIM
 10
9932.2132013337086
 20
-809.62884763484476
 30
0.0
 11
10075.0
 21
-666.84204896855283
 31
0.0
1001
ACAD
1010
0.0
1020
0.0
1030
0.0
1001
ACDBBLOCKREPETAG
1070
     1
1071
       18
1005
124575
  0
LINE
  5
124576
  8
SLIM
 10
9935.0345844828553
 20
-824.76797672783539
 30
0.0
 11
10075.0
 21
-684.80256121069112
 31
0.0
1001
ACAD
1010
0.0
1020
0.0
1030
0.0
1001
ACDBBLOCKREPETAG
1070
     1
1071
       19
1005
124576
  0
LINE
  5
124577
  8
SLIM
 10
9937.8559676320037
 20
-839.90710582082579
 30
0.0
 11
10075.0
 21
-702.76307345282942
 31
0.0
1001
ACAD
1010
0.0
1020
0.0
1030
0.0
1001
ACDBBLOCKREPETAG
1070
     1
1071
       20
1005
124577
  0
LINE
  5
124578
  8
SLIM
 10
9940.6773507811504
 20
-855.04623491381665
 30
0.0
 11
10075.0
 21
-720.7235856949676
 31
0.0
1001
ACAD
1010
0.0
1020
0.0
1030
0.0
1001
ACDBBLOCKREPETAG
1070
     1
1071
       21
1005
124578
  0
LINE
  5
124579
  8
SLIM
 10
9943.498733930297
 20
-870.18536400680739
 30
0.0
 11
10075.0
 21
-738.684097937106
 31
0.0
1001
ACAD
1010
0.0
1020
0.0
1030
0.0
1001
ACDBBLOCKREPETAG
1070
     1
1071
       22
1005
124579
  0
LINE
  5
12457A
  8
SLIM
 10
9945.4999999999982
 20
-886.14461017924543
 30
0.0
 11
10075.0
 21
-756.64461017924407
 31
0.0
1001
ACAD
1010
0.0
1020
0.0
1030
0.0
1001
ACDBBLOCKREPETAG
1070
     1
1071
       23
1005
12457A
  0
LINE
  5
12457B
  8
SLIM
 10
9945.5
 20
-904.10512242138145
 30
0.0
 11
10074.15680692925
 21
-775.44831549213154
 31
0.0
1001
ACAD
1010
0.0
1020
0.0
1030
0.0
1001
ACDBBLOCKREPETAG
1070
     1
1071
       24
1005
12457B
  0
LINE
  5
12457C
  8
SLIM
 10
9945.5000000000036
 20
-922.06563466351747
 30
0.0
 11
10070.04294658328
 21
-797.52268808023439
 31
0.0
1001
ACAD
1010
0.0
1020
0.0
1030
0.0
1001
ACDBBLOCKREPETAG
1070
     1
1071
       25
1005
12457C
  0
LINE
  5
12457D
  8
SLIM
 10
9960.5261469056604
 20
-924.99999999999955
 30
0.0
 11
10065.92908623732
 21
-819.59706066833724
 31
0.0
1001
ACAD
1010
0.0
1020
0.0
1030
0.0
1001
ACDBBLOCKREPETAG
1070
     1
1071
       26
1005
12457D
  0
LINE
  5
12457E
  8
SLIM
 10
9978.4866591477985
 20
-924.99999999999955
 30
0.0
 11
10061.815225891351
 21
-841.67143325643985
 31
0.0
1001
ACAD
1010
0.0
1020
0.0
1030
0.0
1001
ACDBBLOCKREPETAG
1070
     1
1071
       27
1005
12457E
  0
LINE
  5
12457F
  8
SLIM
 10
9996.4471713899384
 20
-924.99999999999955
 30
0.0
 11
10057.70136554539
 21
-863.74580584454304
 31
0.0
1001
ACAD
1010
0.0
1020
0.0
1030
0.0
1001
ACDBBLOCKREPETAG
1070
     1
1071
       28
1005
12457F
  0
LINE
  5
124580
  8
SLIM
 10
10014.40768363206
 20
-924.99999999999955
 30
0.0
 11
10054.5
 21
-884.90768363207417
 31
0.0
1001
ACAD
1010
0.0
1020
0.0
1030
0.0
1001
ACDBBLOCKREPETAG
1070
     1
1071
       29
1005
124580
  0
LINE
  5
124581
  8
SLIM
 10
10032.368195874211
 20
-924.99999999999955
 30
0.0
 11
10054.5
 21
-902.86819587421314
 31
0.0
1001
ACAD
1010
0.0
1020
0.0
1030
0.0
1001
ACDBBLOCKREPETAG
1070
     1
1071
       30
1005
124581
  0
LINE
  5
124582
  8
SLIM
 10
10050.328708116351
 20
-924.99999999999955
 30
0.0
 11
10054.5
 21
-920.82870811635235
 31
0.0
1001
ACAD
1010
0.0
1020
0.0
1030
0.0
1001
ACDBBLOCKREPETAG
1070
     1
1071
       31
1005
124582
  0
LINE
  5
124583
  8
OBJECT
 10
9925.0
 20
-654.99999999999966
 30
0.0
 11
10075.0
 21
-654.99999999999966
 31
0.0
1001
ACDBBLOCKREPETAG
1070
     1
1071
        2
1005
124583
  0
LINE
  5
124584
  8
OBJECT
 10
10075.0
 20
-654.99999999999966
 30
0.0
 11
10075.0
 21
-770.9238648686005
 31
0.0
1001
ACDBBLOCKREPETAG
1070
     1
1071
        3
1005
124584
  0
LINE
  5
124585
  8
OBJECT
 10
10075.0
 20
-770.9238648686005
 30
0.0
 11
10054.5
 21
-880.92386486860221
 31
0.0
1001
ACDBBLOCKREPETAG
1070
     1
1071
        4
1005
124585
  0
LINE
  5
124586
  8
OBJECT
 10
10054.5
 20
-880.92386486860221
 30
0.0
 11
10054.5
 21
-924.99999999999955
 31
0.0
1001
ACDBBLOCKREPETAG
1070
     1
1071
        5
1005
124586
  0
LINE
  5
124587
  8
OBJECT
 10
10054.5
 20
-924.99999999999955
 30
0.0
 11
9945.5000000000036
 21
-924.99999999999955
 31
0.0
1001
ACDBBLOCKREPETAG
1070
     1
1071
        6
1005
124587
  0
LINE
  5
124588
  8
OBJECT
 10
9945.5000000000036
 20
-924.99999999999955
 30
0.0
 11
9945.4999999999982
 21
-880.92386486861199
 31
0.0
1001
ACDBBLOCKREPETAG
1070
     1
1071
        7
1005
124588
  0
LINE
  5
124589
  8
OBJECT
 10
9945.4999999999982
 20
-880.92386486861199
 30
0.0
 11
9925.0
 21
-770.9238648686005
 31
0.0
1001
ACDBBLOCKREPETAG
1070
     1
1071
        8
1005
124589
  0
LINE
  5
12458A
  8
OBJECT
 10
9925.0
 20
-770.9238648686005
 30
0.0
 11
9925.0
 21
-654.99999999999966
 31
0.0
1001
ACDBBLOCKREPETAG
1070
     1
1071
        9
1005
12458A
  0
LINE
  5
12458B
  8
SLIM
 10
7925.0
 20
-655.19743878930785
 30
0.0
 11
7925.1974387893079
 21
-654.99999999999966
 31
0.0
1001
ACAD
1010
0.0
1020
0.0
1030
0.0
1001
ACDBBLOCKREPETAG
1070
     1
1071
        1
1005
0
  0
LINE
  5
12458C
  8
SLIM
 10
7925.0
 20
-673.15795103144626
 30
0.0
 11
7943.1579510314459
 21
-654.99999999999966
 31
0.0
1001
ACAD
1010
0.0
1020
0.0
1030
0.0
1001
ACDBBLOCKREPETAG
1070
     1
1071
       11
1005
12458C
  0
LINE
  5
12458D
  8
SLIM
 10
7925.0
 20
-691.11846327358444
 30
0.0
 11
7961.1184632735867
 21
-654.99999999999966
 31
0.0
1001
ACAD
1010
0.0
1020
0.0
1030
0.0
1001
ACDBBLOCKREPETAG
1070
     1
1071
       12
1005
12458D
  0
LINE
  5
12458E
  8
SLIM
 10
7925.0
 20
-709.07897551572296
 30
0.0
 11
7979.078975515723
 21
-654.99999999999966
 31
0.0
1001
ACAD
1010
0.0
1020
0.0
1030
0.0
1001
ACDBBLOCKREPETAG
1070
     1
1071
       13
1005
12458E
  0
LINE
  5
12458F
  8
SLIM
 10
7925.0
 20
-727.03948775786114
 30
0.0
 11
7997.0394877578628
 21
-654.99999999999966
 31
0.0
1001
ACAD
1010
0.0
1020
0.0
1030
0.0
1001
ACDBBLOCKREPETAG
1070
     1
1071
       14
1005
12458F
  0
LINE
  5
124590
  8
SLIM
 10
7925.0
 20
-744.99999999999955
 30
0.0
 11
8015.0
 21
-654.99999999999966
 31
0.0
1001
ACAD
1010
0.0
1020
0.0
1030
0.0
1001
ACDBBLOCKREPETAG
1070
     1
1071
       15
1005
124590
  0
LINE
  5
124591
  8
SLIM
 10
7925.0
 20
-762.96051224213772
 30
0.0
 11
8032.960512242139
 21
-654.99999999999966
 31
0.0
1001
ACAD
1010
0.0
1020
0.0
1030
0.0
1001
ACDBBLOCKREPETAG
1070
     1
1071
       16
1005
124591
  0
LINE
  5
124592
  8
SLIM
 10
7926.5704350354117
 20
-779.35058944886373
 30
0.0
 11
8050.9210244842798
 21
-654.99999999999966
 31
0.0
1001
ACAD
1010
0.0
1020
0.0
1030
0.0
1001
ACDBBLOCKREPETAG
1070
     1
1071
       17
1005
124592
  0
LINE
  5
124593
  8
SLIM
 10
7929.3918181845593
 20
-794.4897185418539
 30
0.0
 11
8068.8815367264133
 21
-654.99999999999966
 31
0.0
1001
ACAD
1010
0.0
1020
0.0
1030
0.0
1001
ACDBBLOCKREPETAG
1070
     1
1071
       18
1005
124593
  0
LINE
  5
124594
  8
SLIM
 10
7932.2132013337077
 20
-809.62884763484408
 30
0.0
 11
8075.0
 21
-666.84204896855283
 31
0.0
1001
ACAD
1010
0.0
1020
0.0
1030
0.0
1001
ACDBBLOCKREPETAG
1070
     1
1071
       19
1005
124594
  0
LINE
  5
124595
  8
SLIM
 10
7935.0345844828562
 20
-824.76797672783425
 30
0.0
 11
8075.0
 21
-684.80256121069112
 31
0.0
1001
ACAD
1010
0.0
1020
0.0
1030
0.0
1001
ACDBBLOCKREPETAG
1070
     1
1071
       20
1005
124595
  0
LINE
  5
124596
  8
SLIM
 10
7937.8559676320019
 20
-839.90710582082465
 30
0.0
 11
8075.0
 21
-702.76307345282942
 31
0.0
1001
ACAD
1010
0.0
1020
0.0
1030
0.0
1001
ACDBBLOCKREPETAG
1070
     1
1071
       21
1005
124596
  0
LINE
  5
124597
  8
SLIM
 10
7940.677350781154
 20
-855.04623491381471
 30
0.0
 11
8075.0
 21
-720.7235856949676
 31
0.0
1001
ACAD
1010
0.0
1020
0.0
1030
0.0
1001
ACDBBLOCKREPETAG
1070
     1
1071
       22
1005
124597
  0
LINE
  5
124598
  8
SLIM
 10
7943.4987339303016
 20
-870.18536400680489
 30
0.0
 11
8075.0
 21
-738.684097937106
 31
0.0
1001
ACAD
1010
0.0
1020
0.0
1030
0.0
1001
ACDBBLOCKREPETAG
1070
     1
1071
       23
1005
124598
  0
LINE
  5
124599
  8
SLIM
 10
7946.6446101792453
 20
-884.99999999999955
 30
0.0
 11
8075.0
 21
-756.64461017924407
 31
0.0
1001
ACAD
1010
0.0
1020
0.0
1030
0.0
1001
ACDBBLOCKREPETAG
1070
     1
1071
       24
1005
124599
  0
LINE
  5
12459A
  8
SLIM
 10
7955.5
 20
-894.1051224213827
 30
0.0
 11
7964.6051224213816
 21
-884.99999999999955
 31
0.0
1001
ACAD
1010
0.0
1020
0.0
1030
0.0
1001
ACDBBLOCKREPETAG
1070
     1
1071
       25
1005
12459A
  0
LINE
  5
12459B
  8
SLIM
 10
7964.6051224213816
 20
-884.99999999999955
 30
0.0
 11
8074.1568069292498
 21
-775.44831549213154
 31
0.0
1001
ACAD
1010
0.0
1020
0.0
1030
0.0
1001
ACDBBLOCKREPETAG
1070
     1
1071
       26
1005
12459B
  0
LINE
  5
12459C
  8
SLIM
 10
7962.5656346635215
 20
-904.99999999999966
 30
0.0
 11
7982.5656346635215
 21
-884.99999999999955
 31
0.0
1001
ACAD
1010
0.0
1020
0.0
1030
0.0
1001
ACDBBLOCKREPETAG
1070
     1
1071
       27
1005
12459C
  0
LINE
  5
12459D
  8
SLIM
 10
7982.5656346635215
 20
-884.99999999999955
 30
0.0
 11
8070.0429465832849
 21
-797.52268808023427
 31
0.0
1001
ACAD
1010
0.0
1020
0.0
1030
0.0
1001
ACDBBLOCKREPETAG
1070
     1
1071
       28
1005
12459D
  0
LINE
  5
12459E
  8
SLIM
 10
7980.5261469056604
 20
-904.99999999999966
 30
0.0
 11
8000.5261469056577
 21
-884.99999999999955
 31
0.0
1001
ACAD
1010
0.0
1020
0.0
1030
0.0
1001
ACDBBLOCKREPETAG
1070
     1
1071
       29
1005
12459E
  0
LINE
  5
12459F
  8
SLIM
 10
8000.5261469056577
 20
-884.99999999999955
 30
0.0
 11
8065.9290862373227
 21
-819.59706066833712
 31
0.0
1001
ACAD
1010
0.0
1020
0.0
1030
0.0
1001
ACDBBLOCKREPETAG
1070
     1
1071
       30
1005
12459F
  0
LINE
  5
1245A0
  8
SLIM
 10
7998.4866591477967
 20
-904.99999999999966
 30
0.0
 11
8018.4866591477967
 21
-884.99999999999955
 31
0.0
1001
ACAD
1010
0.0
1020
0.0
1030
0.0
1001
ACDBBLOCKREPETAG
1070
     1
1071
       31
1005
1245A0
  0
LINE
  5
1245A1
  8
SLIM
 10
8018.4866591477967
 20
-884.99999999999955
 30
0.0
 11
8061.8152258913578
 21
-841.67143325643985
 31
0.0
1001
ACAD
1010
0.0
1020
0.0
1030
0.0
1001
ACDBBLOCKREPETAG
1070
     1
1071
       32
1005
1245A1
  0
LINE
  5
1245A2
  8
SLIM
 10
8016.4471713899384
 20
-904.99999999999966
 30
0.0
 11
8036.4471713899338
 21
-884.99999999999955
 31
0.0
1001
ACAD
1010
0.0
1020
0.0
1030
0.0
1001
ACDBBLOCKREPETAG
1070
     1
1071
       33
1005
1245A2
  0
LINE
  5
1245A3
  8
SLIM
 10
8036.4471713899338
 20
-884.99999999999955
 30
0.0
 11
8057.701365545392
 21
-863.74580584454225
 31
0.0
1001
ACAD
1010
0.0
1020
0.0
1030
0.0
1001
ACDBBLOCKREPETAG
1070
     1
1071
       34
1005
1245A3
  0
LINE
  5
1245A4
  8
SLIM
 10
8034.4076836320728
 20
-904.99999999999966
 30
0.0
 11
8044.5000000000036
 21
-894.90768363207417
 31
0.0
1001
ACAD
1010
0.0
1020
0.0
1030
0.0
1001
ACDBBLOCKREPETAG
1070
     1
1071
       35
1005
1245A4
  0
LINE
  5
1245A5
  8
OBJECT
 10
7925.0
 20
-654.99999999999966
 30
0.0
 11
8075.0
 21
-654.99999999999966
 31
0.0
1001
ACDBBLOCKREPETAG
1070
     1
1071
        2
1005
1245A5
  0
LINE
  5
1245A6
  8
OBJECT
 10
8075.0
 20
-654.99999999999966
 30
0.0
 11
8075.0
 21
-770.9238648686005
 31
0.0
1001
ACDBBLOCKREPETAG
1070
     1
1071
        3
1005
1245A6
  0
LINE
  5
1245A7
  8
OBJECT
 10
8075.0
 20
-770.9238648686005
 30
0.0
 11
8053.7403566346029
 21
-884.99999999999955
 31
0.0
1001
ACDBBLOCKREPETAG
1070
     1
1071
        4
1005
1245A7
  0
LINE
  5
1245A8
  8
OBJECT
 10
8044.5000000000036
 20
-884.99999999999955
 30
0.0
 11
8044.5000000000036
 21
-904.99999999999966
 31
0.0
1001
ACDBBLOCKREPETAG
1070
     1
1071
        5
1005
1245A8
  0
LINE
  5
1245A9
  8
OBJECT
 10
8044.5000000000036
 20
-904.99999999999966
 30
0.0
 11
7955.5
 21
-904.99999999999966
 31
0.0
1001
ACDBBLOCKREPETAG
1070
     1
1071
        6
1005
1245A9
  0
LINE
  5
1245AA
  8
OBJECT
 10
7955.5
 20
-904.99999999999966
 30
0.0
 11
7955.5
 21
-884.99999999999955
 31
0.0
1001
ACDBBLOCKREPETAG
1070
     1
1071
        7
1005
1245AA
  0
LINE
  5
1245AB
  8
OBJECT
 10
8053.7403566346029
 20
-884.99999999999955
 30
0.0
 11
7946.2596433653962
 21
-884.99999999999955
 31
0.0
1001
ACDBBLOCKREPETAG
1070
     1
1071
        8
1005
1245AB
  0
LINE
  5
1245AC
  8
OBJECT
 10
7946.2596433653962
 20
-884.99999999999955
 30
0.0
 11
7925.0
 21
-770.9238648686005
 31
0.0
1001
ACDBBLOCKREPETAG
1070
     1
1071
        9
1005
1245AC
  0
LINE
  5
1245AD
  8
OBJECT
 10
7925.0
 20
-770.9238648686005
 30
0.0
 11
7925.0
 21
-654.99999999999966
 31
0.0
1001
ACDBBLOCKREPETAG
1070
     1
1071
       10
1005
1245AD
  0
LINE
  5
1245AE
  8
OBJECT
 10
12055.999999999991
 20
-1003.999999999999
 30
0.0
 11
12055.999999999991
 21
-1013.999999999999
 31
0.0
1001
ACDBBLOCKREPETAG
1070
     1
1071
      121
1005
1245AE
  0
LINE
  5
1245AF
  8
OBJECT
 10
11961.75
 20
-954.69999999999663
 30
0.0
 11
11974.25
 21
-954.69999999999663
 31
0.0
1001
ACDBBLOCKREPETAG
1070
     1
1071
      122
1005
1245AF
  0
LINE
  5
1245B0
  8
OBJECT
 10
12073.499999999991
 20
-962.70000000000005
 30
0.0
 11
12073.499999999991
 21
-964.99999999999955
 31
0.0
1001
ACDBBLOCKREPETAG
1070
     1
1071
      123
1005
1245B0
  0
LINE
  5
1245B1
  8
OBJECT
 10
12057.749999999991
 20
-954.69999999999663
 30
0.0
 11
12070.249999999991
 21
-954.69999999999663
 31
0.0
1001
ACDBBLOCKREPETAG
1070
     1
1071
      124
1005
1245B1
  0
LINE
  5
1245B2
  8
OBJECT
 10
12054.499999999991
 20
-962.70000000000005
 30
0.0
 11
12054.499999999991
 21
-964.99999999999955
 31
0.0
1001
ACDBBLOCKREPETAG
1070
     1
1071
      125
1005
1245B2
  0
LINE
  5
1245B3
  8
OBJECT
 10
11953.0
 20
-964.99999999999955
 30
0.0
 11
11953.0
 21
-962.70000000000005
 31
0.0
1001
ACDBBLOCKREPETAG
1070
     1
1071
      126
1005
1245B3
  0
LINE
  5
1245B4
  8
OBJECT
 10
11983.0
 20
-964.99999999999955
 30
0.0
 11
11983.0
 21
-962.70000000000005
 31
0.0
1001
ACDBBLOCKREPETAG
1070
     1
1071
      127
1005
1245B4
  0
LINE
  5
1245B5
  8
OBJECT
 10
11961.75
 20
-954.69999999999663
 30
0.0
 11
11961.75
 21
-962.70000000000005
 31
0.0
1001
ACDBBLOCKREPETAG
1070
     1
1071
      128
1005
1245B5
  0
LINE
  5
1245B6
  8
OBJECT
 10
11974.25
 20
-954.69999999999663
 30
0.0
 11
11974.25
 21
-962.70000000000005
 31
0.0
1001
ACDBBLOCKREPETAG
1070
     1
1071
      129
1005
1245B6
  0
LINE
  5
1245B7
  8
OBJECT
 10
11953.0
 20
-962.70000000000005
 30
0.0
 11
11983.0
 21
-962.70000000000005
 31
0.0
1001
ACDBBLOCKREPETAG
1070
     1
1071
      130
1005
1245B7
  0
LINE
  5
1245B8
  8
OBJECT
 10
11960.0
 20
-1003.999999999999
 30
0.0
 11
11960.0
 21
-1013.999999999999
 31
0.0
1001
ACDBBLOCKREPETAG
1070
     1
1071
      131
1005
1245B8
  0
LINE
  5
1245B9
  8
OBJECT
 10
11976.0
 20
-1003.999999999999
 30
0.0
 11
11976.0
 21
-1013.999999999999
 31
0.0
1001
ACDBBLOCKREPETAG
1070
     1
1071
      132
1005
1245B9
  0
LINE
  5
1245BA
  8
OBJECT
 10
11960.0
 20
-1013.999999999999
 30
0.0
 11
11976.0
 21
-1013.999999999999
 31
0.0
1001
ACDBBLOCKREPETAG
1070
     1
1071
      133
1005
1245BA
  0
LINE
  5
1245BB
  8
OBJECT
 10
12071.999999999991
 20
-1003.999999999999
 30
0.0
 11
12071.999999999991
 21
-1013.999999999999
 31
0.0
1001
ACDBBLOCKREPETAG
1070
     1
1071
      134
1005
1245BB
  0
LINE
  5
1245BC
  8
OBJECT
 10
12071.999999999991
 20
-1013.999999999999
 30
0.0
 11
12055.999999999991
 21
-1013.999999999999
 31
0.0
1001
ACDBBLOCKREPETAG
1070
     1
1071
      135
1005
1245BC
  0
LINE
  5
1245BD
  8
OBJECT
 10
11944.999999999991
 20
-1044.9999999999991
 30
0.0
 11
11944.999999999991
 21
-1003.999999999999
 31
0.0
1001
ACDBBLOCKREPETAG
1070
     1
1071
      136
1005
1245BD
  0
LINE
  5
1245BE
  8
OBJECT
 10
12054.999999999991
 20
-1003.999999999999
 30
0.0
 11
12054.999999999991
 21
-1044.9999999999991
 31
0.0
1001
ACDBBLOCKREPETAG
1070
     1
1071
      137
1005
1245BE
  0
LINE
  5
1245BF
  8
OBJECT
 10
12070.249999999991
 20
-954.69999999999663
 30
0.0
 11
12070.249999999991
 21
-962.70000000000005
 31
0.0
1001
ACDBBLOCKREPETAG
1070
     1
1071
      138
1005
1245BF
  0
LINE
  5
1245C0
  8
OBJECT
 10
12057.749999999991
 20
-954.69999999999663
 30
0.0
 11
12057.749999999991
 21
-962.70000000000005
 31
0.0
1001
ACDBBLOCKREPETAG
1070
     1
1071
      139
1005
1245C0
  0
LINE
  5
1245C1
  8
OBJECT
 10
12054.499999999991
 20
-962.70000000000005
 30
0.0
 11
12073.499999999991
 21
-962.70000000000005
 31
0.0
1001
ACDBBLOCKREPETAG
1070
     1
1071
      140
1005
1245C1
  0
LINE
  5
1245C2
  8
OBJECT
 10
12054.999999999991
 20
-1044.9999999999991
 30
0.0
 11
11944.999999999991
 21
-1044.9999999999991
 31
0.0
1001
ACDBBLOCKREPETAG
1070
     1
1071
      141
1005
1245C2
  0
LINE
  5
1245C3
  8
OBJECT
 10
12075.999999999991
 20
-979.99999999999966
 30
0.0
 11
11938.999999999991
 21
-979.99999999999966
 31
0.0
1001
ACDBBLOCKREPETAG
1070
     1
1071
      142
1005
1245C3
  0
LINE
  5
1245C4
  8
OBJECT
 10
12075.999999999991
 20
-979.99999999999966
 30
0.0
 11
12075.999999999991
 21
-964.99999999999955
 31
0.0
1001
ACDBBLOCKREPETAG
1070
     1
1071
      143
1005
1245C4
  0
LINE
  5
1245C5
  8
OBJECT
 10
12075.999999999991
 20
-989.99999999999955
 30
0.0
 11
12075.999999999991
 21
-1003.999999999999
 31
0.0
1001
ACDBBLOCKREPETAG
1070
     1
1071
      144
1005
1245C5
  0
LINE
  5
1245C6
  8
OBJECT
 10
12068.999999999991
 20
-989.99999999999955
 30
0.0
 11
12068.999999999991
 21
-979.99999999999966
 31
0.0
1001
ACDBBLOCKREPETAG
1070
     1
1071
      145
1005
1245C6
  0
LINE
  5
1245C7
  8
OBJECT
 10
12058.999999999991
 20
-989.99999999999955
 30
0.0
 11
12058.999999999991
 21
-979.99999999999966
 31
0.0
1001
ACDBBLOCKREPETAG
1070
     1
1071
      146
1005
1245C7
  0
LINE
  5
1245C8
  8
OBJECT
 10
11938.999999999991
 20
-989.99999999999955
 30
0.0
 11
11938.999999999991
 21
-1003.999999999999
 31
0.0
1001
ACDBBLOCKREPETAG
1070
     1
1071
      147
1005
1245C8
  0
LINE
  5
1245C9
  8
OBJECT
 10
11938.999999999991
 20
-1003.999999999999
 30
0.0
 11
12075.999999999991
 21
-1003.999999999999
 31
0.0
1001
ACDBBLOCKREPETAG
1070
     1
1071
      148
1005
1245C9
  0
LINE
  5
1245CA
  8
OBJECT
 10
11973.0
 20
-989.99999999999955
 30
0.0
 11
11973.0
 21
-979.99999999999966
 31
0.0
1001
ACDBBLOCKREPETAG
1070
     1
1071
      149
1005
1245CA
  0
LINE
  5
1245CB
  8
OBJECT
 10
11963.0
 20
-989.99999999999955
 30
0.0
 11
11963.0
 21
-979.99999999999966
 31
0.0
1001
ACDBBLOCKREPETAG
1070
     1
1071
      150
1005
1245CB
  0
LINE
  5
1245CC
  8
OBJECT
 10
11938.999999999991
 20
-989.99999999999955
 30
0.0
 11
12075.999999999991
 21
-989.99999999999955
 31
0.0
1001
ACDBBLOCKREPETAG
1070
     1
1071
      151
1005
1245CC
  0
LINE
  5
1245CD
  8
OBJECT
 10
11945.999999999991
 20
-979.99999999999966
 30
0.0
 11
11945.999999999991
 21
-989.99999999999955
 31
0.0
1001
ACDBBLOCKREPETAG
1070
     1
1071
      152
1005
1245CD
  0
LINE
  5
1245CE
  8
OBJECT
 10
12053.999999999991
 20
-979.99999999999966
 30
0.0
 11
12053.999999999991
 21
-989.99999999999955
 31
0.0
1001
ACDBBLOCKREPETAG
1070
     1
1071
      153
1005
1245CE
  0
LINE
  5
1245CF
  8
OBJECT
 10
12044.5
 20
-879.99999999999955
 30
0.0
 11
12065.0
 21
-769.99999999999955
 31
0.0
1001
ACDBBLOCKREPETAG
1070
     1
1071
      154
1005
1245CF
  0
LINE
  5
1245D0
  8
OBJECT
 10
11955.5
 20
-879.99999999999955
 30
0.0
 11
12044.5
 21
-879.99999999999955
 31
0.0
1001
ACDBBLOCKREPETAG
1070
     1
1071
      155
1005
1245D0
  0
LINE
  5
1245D1
  8
OBJECT
 10
11938.999999999991
 20
-979.99999999999966
 30
0.0
 11
11938.999999999991
 21
-964.99999999999955
 31
0.0
1001
ACDBBLOCKREPETAG
1070
     1
1071
      156
1005
1245D1
  0
LINE
  5
1245D2
  8
OBJECT
 10
11938.999999999991
 20
-964.99999999999955
 30
0.0
 11
12075.999999999991
 21
-964.99999999999955
 31
0.0
1001
ACDBBLOCKREPETAG
1070
     1
1071
      157
1005
1245D2
  0
LINE
  5
1245D3
  8
OBJECT
 10
11955.5
 20
-879.99999999999955
 30
0.0
 11
11955.5
 21
-929.99999999999966
 31
0.0
1001
ACDBBLOCKREPETAG
1070
     1
1071
      158
1005
1245D3
  0
LINE
  5
1245D4
  8
OBJECT
 10
12044.5
 20
-879.99999999999955
 30
0.0
 11
12044.5
 21
-929.99999999999966
 31
0.0
1001
ACDBBLOCKREPETAG
1070
     1
1071
      159
1005
1245D4
  0
LINE
  5
1245D5
  8
OBJECT
 10
11947.0
 20
-929.99999999999966
 30
0.0
 11
12053.0
 21
-929.99999999999966
 31
0.0
1001
ACDBBLOCKREPETAG
1070
     1
1071
      160
1005
1245D5
  0
LINE
  5
1245D6
  8
HIDDEN
 10
11955.5
 20
-939.99999999999955
 30
0.0
 11
12044.5
 21
-939.99999999999955
 31
0.0
1001
ACDBBLOCKREPETAG
1070
     1
1071
      161
1005
1245D6
  0
LINE
  5
1245D7
  8
CENTER
 10
12000.0
 20
-669.99999999999955
 30
0.0
 11
12000.0
 21
-1059.9999999999991
 31
0.0
1001
ACDBBLOCKREPETAG
1070
     1
1071
      162
1005
1245D7
  0
LINE
  5
1245D8
  8
OBJECT
 10
12065.0
 20
-669.99999999999955
 30
0.0
 11
12065.0
 21
-769.99999999999955
 31
0.0
1001
ACDBBLOCKREPETAG
1070
     1
1071
      163
1005
1245D8
  0
LINE
  5
1245D9
  8
OBJECT
 10
11935.0
 20
-669.99999999999955
 30
0.0
 11
11935.0
 21
-769.99999999999955
 31
0.0
1001
ACDBBLOCKREPETAG
1070
     1
1071
      164
1005
1245D9
  0
LINE
  5
1245DA
  8
OBJECT
 10
11955.5
 20
-879.99999999999955
 30
0.0
 11
11935.0
 21
-769.99999999999955
 31
0.0
1001
ACDBBLOCKREPETAG
1070
     1
1071
      165
1005
1245DA
  0
LINE
  5
1245DB
  8
OBJECT
 10
12065.0
 20
-769.99999999999955
 30
0.0
 11
11935.0
 21
-769.99999999999955
 31
0.0
1001
ACDBBLOCKREPETAG
1070
     1
1071
      166
1005
1245DB
  0
LINE
  5
1245DC
  8
OBJECT
 10
11947.0
 20
-929.99999999999966
 30
0.0
 11
11947.0
 21
-964.99999999999955
 31
0.0
1001
ACDBBLOCKREPETAG
1070
     1
1071
      167
1005
1245DC
  0
LINE
  5
1245DD
  8
OBJECT
 10
12053.0
 20
-929.99999999999966
 30
0.0
 11
12053.0
 21
-964.99999999999955
 31
0.0
1001
ACDBBLOCKREPETAG
1070
     1
1071
      168
1005
1245DD
  0
LINE
  5
1245DE
  8
OBJECT
 10
9975.5
 20
-959.99999999999955
 30
0.0
 11
9958.9999999999964
 21
-959.99999999999955
 31
0.0
1001
ACDBBLOCKREPETAG
1070
     1
1071
       12
1005
1245DE
  0
LINE
  5
1245DF
  8
OBJECT
 10
9983.0
 20
-964.99999999999955
 30
0.0
 11
9983.0
 21
-962.99999999999966
 31
0.0
1001
ACDBBLOCKREPETAG
1070
     1
1071
       13
1005
1245DF
  0
LINE
  5
1245E0
  8
OBJECT
 10
10075.999999999991
 20
-979.99999999999966
 30
0.0
 11
9938.9999999999927
 21
-979.99999999999966
 31
0.0
1001
ACDBBLOCKREPETAG
1070
     1
1071
       14
1005
1245E0
  0
LINE
  5
1245E1
  8
OBJECT
 10
10075.999999999991
 20
-979.99999999999966
 30
0.0
 11
10075.999999999991
 21
-964.99999999999955
 31
0.0
1001
ACDBBLOCKREPETAG
1070
     1
1071
       15
1005
1245E1
  0
LINE
  5
1245E2
  8
OBJECT
 10
10075.999999999991
 20
-989.99999999999955
 30
0.0
 11
10075.999999999991
 21
-1003.999999999999
 31
0.0
1001
ACDBBLOCKREPETAG
1070
     1
1071
       16
1005
1245E2
  0
LINE
  5
1245E3
  8
OBJECT
 10
10068.999999999991
 20
-989.99999999999955
 30
0.0
 11
10068.999999999991
 21
-979.99999999999966
 31
0.0
1001
ACDBBLOCKREPETAG
1070
     1
1071
       17
1005
1245E3
  0
LINE
  5
1245E4
  8
OBJECT
 10
10058.999999999991
 20
-989.99999999999955
 30
0.0
 11
10058.999999999991
 21
-979.99999999999966
 31
0.0
1001
ACDBBLOCKREPETAG
1070
     1
1071
       18
1005
1245E4
  0
LINE
  5
1245E5
  8
OBJECT
 10
9938.9999999999927
 20
-989.99999999999955
 30
0.0
 11
9938.9999999999927
 21
-1003.999999999999
 31
0.0
1001
ACDBBLOCKREPETAG
1070
     1
1071
       19
1005
1245E5
  0
LINE
  5
1245E6
  8
OBJECT
 10
9938.9999999999927
 20
-1003.999999999999
 30
0.0
 11
10075.999999999991
 21
-1003.999999999999
 31
0.0
1001
ACDBBLOCKREPETAG
1070
     1
1071
       20
1005
1245E6
  0
LINE
  5
1245E7
  8
OBJECT
 10
9973.0
 20
-989.99999999999955
 30
0.0
 11
9973.0
 21
-979.99999999999966
 31
0.0
1001
ACDBBLOCKREPETAG
1070
     1
1071
       21
1005
1245E7
  0
LINE
  5
1245E8
  8
OBJECT
 10
9963.0
 20
-989.99999999999955
 30
0.0
 11
9963.0
 21
-979.99999999999966
 31
0.0
1001
ACDBBLOCKREPETAG
1070
     1
1071
       22
1005
1245E8
  0
LINE
  5
1245E9
  8
OBJECT
 10
9938.9999999999927
 20
-989.99999999999955
 30
0.0
 11
10075.999999999991
 21
-989.99999999999955
 31
0.0
1001
ACDBBLOCKREPETAG
1070
     1
1071
       23
1005
1245E9
  0
LINE
  5
1245EA
  8
OBJECT
 10
9958.9999999999964
 20
-959.99999999999955
 30
0.0
 11
9958.9999999999964
 21
-964.99999999999955
 31
0.0
1001
ACDBBLOCKREPETAG
1070
     1
1071
       24
1005
1245EA
  0
LINE
  5
1245EB
  8
OBJECT
 10
9963.0
 20
-1011.999999999999
 30
0.0
 11
9963.0
 21
-1014.999999999999
 31
0.0
1001
ACDBBLOCKREPETAG
1070
     1
1071
       25
1005
1245EB
  0
LINE
  5
1245EC
  8
OBJECT
 10
9963.0
 20
-1014.999999999999
 30
0.0
 11
9973.0
 21
-1014.999999999999
 31
0.0
1001
ACDBBLOCKREPETAG
1070
     1
1071
       26
1005
1245EC
  0
LINE
  5
1245ED
  8
OBJECT
 10
9958.1850454237738
 20
-1011.999999999999
 30
0.0
 11
9977.814954576219
 21
-1011.999999999999
 31
0.0
1001
ACDBBLOCKREPETAG
1070
     1
1071
       27
1005
1245ED
  0
LINE
  5
1245EE
  8
OBJECT
 10
9973.0
 20
-1014.999999999999
 30
0.0
 11
9973.0
 21
-1011.999999999999
 31
0.0
1001
ACDBBLOCKREPETAG
1070
     1
1071
       28
1005
1245EE
  0
LINE
  5
1245EF
  8
OBJECT
 10
9945.9999999999909
 20
-979.99999999999966
 30
0.0
 11
9945.9999999999909
 21
-989.99999999999955
 31
0.0
1001
ACDBBLOCKREPETAG
1070
     1
1071
       29
1005
1245EF
  0
LINE
  5
1245F0
  8
OBJECT
 10
10053.999999999991
 20
-979.99999999999966
 30
0.0
 11
10053.999999999991
 21
-989.99999999999955
 31
0.0
1001
ACDBBLOCKREPETAG
1070
     1
1071
       30
1005
1245F0
  0
LINE
  5
1245F1
  8
OBJECT
 10
10044.5
 20
-879.99999999999955
 30
0.0
 11
10065.0
 21
-769.99999999999955
 31
0.0
1001
ACDBBLOCKREPETAG
1070
     1
1071
       31
1005
1245F1
  0
LINE
  5
1245F2
  8
OBJECT
 10
9955.5
 20
-879.99999999999955
 30
0.0
 11
10044.5
 21
-879.99999999999955
 31
0.0
1001
ACDBBLOCKREPETAG
1070
     1
1071
       32
1005
1245F2
  0
LINE
  5
1245F3
  8
OBJECT
 10
9938.9999999999927
 20
-979.99999999999966
 30
0.0
 11
9938.9999999999927
 21
-964.99999999999955
 31
0.0
1001
ACDBBLOCKREPETAG
1070
     1
1071
       33
1005
1245F3
  0
LINE
  5
1245F4
  8
OBJECT
 10
9938.9999999999927
 20
-964.99999999999955
 30
0.0
 11
10075.999999999991
 21
-964.99999999999955
 31
0.0
1001
ACDBBLOCKREPETAG
1070
     1
1071
       34
1005
1245F4
  0
LINE
  5
1245F5
  8
OBJECT
 10
9955.5
 20
-879.99999999999955
 30
0.0
 11
9955.5
 21
-929.99999999999966
 31
0.0
1001
ACDBBLOCKREPETAG
1070
     1
1071
       35
1005
1245F5
  0
LINE
  5
1245F6
  8
OBJECT
 10
10044.5
 20
-879.99999999999955
 30
0.0
 11
10044.5
 21
-929.99999999999966
 31
0.0
1001
ACDBBLOCKREPETAG
1070
     1
1071
       36
1005
1245F6
  0
LINE
  5
1245F7
  8
OBJECT
 10
9947.0
 20
-929.99999999999966
 30
0.0
 11
10053.0
 21
-929.99999999999966
 31
0.0
1001
ACDBBLOCKREPETAG
1070
     1
1071
       37
1005
1245F7
  0
LINE
  5
1245F8
  8
OBJECT
 10
10054.99999999998
 20
-959.99999999999955
 30
0.0
 11
10054.99999999998
 21
-964.99999999999955
 31
0.0
1001
ACDBBLOCKREPETAG
1070
     1
1071
       38
1005
1245F8
  0
LINE
  5
1245F9
  8
OBJECT
 10
10073.0
 20
-959.99999999999955
 30
0.0
 11
10073.0
 21
-964.99999999999955
 31
0.0
1001
ACDBBLOCKREPETAG
1070
     1
1071
       39
1005
1245F9
  0
LINE
  5
1245FA
  8
OBJECT
 10
10073.0
 20
-959.99999999999955
 30
0.0
 11
10054.99999999998
 21
-959.99999999999955
 31
0.0
1001
ACDBBLOCKREPETAG
1070
     1
1071
       40
1005
1245FA
  0
LINE
  5
1245FB
  8
HIDDEN
 10
9955.5
 20
-939.99999999999955
 30
0.0
 11
10044.5
 21
-939.99999999999955
 31
0.0
1001
ACDBBLOCKREPETAG
1070
     1
1071
       41
1005
1245FB
  0
LINE
  5
1245FC
  8
CENTER
 10
10000.0
 20
-669.99999999999955
 30
0.0
 11
10000.0
 21
-1018.999999999999
 31
0.0
1001
ACDBBLOCKREPETAG
1070
     1
1071
       42
1005
1245FC
  0
LINE
  5
1245FD
  8
OBJECT
 10
10065.0
 20
-669.99999999999955
 30
0.0
 11
10065.0
 21
-769.99999999999955
 31
0.0
1001
ACDBBLOCKREPETAG
1070
     1
1071
       43
1005
1245FD
  0
LINE
  5
1245FE
  8
OBJECT
 10
9935.0
 20
-669.99999999999955
 30
0.0
 11
9935.0
 21
-769.99999999999955
 31
0.0
1001
ACDBBLOCKREPETAG
1070
     1
1071
       44
1005
1245FE
  0
LINE
  5
1245FF
  8
OBJECT
 10
9955.5
 20
-879.99999999999955
 30
0.0
 11
9935.0
 21
-769.99999999999955
 31
0.0
1001
ACDBBLOCKREPETAG
1070
     1
1071
       45
1005
1245FF
  0
LINE
  5
124600
  8
OBJECT
 10
10065.0
 20
-769.99999999999955
 30
0.0
 11
9935.0
 21
-769.99999999999955
 31
0.0
1001
ACDBBLOCKREPETAG
1070
     1
1071
       46
1005
124600
  0
LINE
  5
124601
  8
OBJECT
 10
9947.0
 20
-929.99999999999966
 30
0.0
 11
9947.0
 21
-964.99999999999955
 31
0.0
1001
ACDBBLOCKREPETAG
1070
     1
1071
       47
1005
124601
  0
LINE
  5
124602
  8
OBJECT
 10
10053.0
 20
-929.99999999999966
 30
0.0
 11
10053.0
 21
-964.99999999999955
 31
0.0
1001
ACDBBLOCKREPETAG
1070
     1
1071
       48
1005
124602
  0
LINE
  5
124603
  8
OBJECT
 10
9983.0
 20
-962.99999999999966
 30
0.0
 11
9975.5
 21
-959.99999999999955
 31
0.0
1001
ACDBBLOCKREPETAG
1070
     1
1071
       49
1005
124603
  0
LINE
  5
124604
  8
OBJECT
 10
9958.1850359912914
 20
-1003.999986840258
 30
0.0
 11
9958.1850359912914
 21
-1011.999986840258
 31
0.0
1001
ACDBBLOCKREPETAG
1070
     1
1071
       50
1005
124604
  0
LINE
  5
124605
  8
OBJECT
 10
9963.0925013591986
 20
-1003.999986840258
 30
0.0
 11
9963.0925013591986
 21
-1011.999986840258
 31
0.0
1001
ACDBBLOCKREPETAG
1070
     1
1071
       51
1005
124605
  0
LINE
  5
124606
  8
OBJECT
 10
9972.9074320950258
 20
-1003.999986840258
 30
0.0
 11
9972.9074320950258
 21
-1011.999986840258
 31
0.0
1001
ACDBBLOCKREPETAG
1070
     1
1071
       52
1005
124606
  0
LINE
  5
124607
  8
OBJECT
 10
9977.8149915527974
 20
-1003.999986840258
 30
0.0
 11
9977.8149915527974
 21
-1011.999986840258
 31
0.0
1001
ACDBBLOCKREPETAG
1070
     1
1071
       53
1005
124607
  0
LINE
  5
124608
  8
OBJECT
 10
10059.0
 20
-1011.999999999999
 30
0.0
 11
10059.0
 21
-1014.999999999999
 31
0.0
1001
ACDBBLOCKREPETAG
1070
     1
1071
       54
1005
124608
  0
LINE
  5
124609
  8
OBJECT
 10
10059.0
 20
-1014.999999999999
 30
0.0
 11
10069.0
 21
-1014.999999999999
 31
0.0
1001
ACDBBLOCKREPETAG
1070
     1
1071
       55
1005
124609
  0
LINE
  5
12460A
  8
OBJECT
 10
10054.18504542377
 20
-1011.999999999999
 30
0.0
 11
10073.814954576221
 21
-1011.999999999999
 31
0.0
1001
ACDBBLOCKREPETAG
1070
     1
1071
       56
1005
12460A
  0
LINE
  5
12460B
  8
OBJECT
 10
10069.0
 20
-1014.999999999999
 30
0.0
 11
10069.0
 21
-1011.999999999999
 31
0.0
1001
ACDBBLOCKREPETAG
1070
     1
1071
       57
1005
12460B
  0
LINE
  5
12460C
  8
OBJECT
 10
10054.18503599129
 20
-1003.999986840258
 30
0.0
 11
10054.18503599129
 21
-1011.999986840258
 31
0.0
1001
ACDBBLOCKREPETAG
1070
     1
1071
       58
1005
12460C
  0
LINE
  5
12460D
  8
OBJECT
 10
10059.0925013592
 20
-1003.999986840258
 30
0.0
 11
10059.0925013592
 21
-1011.999986840258
 31
0.0
1001
ACDBBLOCKREPETAG
1070
     1
1071
       59
1005
12460D
  0
LINE
  5
12460E
  8
OBJECT
 10
10068.90743209502
 20
-1003.999986840258
 30
0.0
 11
10068.90743209502
 21
-1011.999986840258
 31
0.0
1001
ACDBBLOCKREPETAG
1070
     1
1071
       60
1005
12460E
  0
LINE
  5
12460F
  8
OBJECT
 10
10073.814991552799
 20
-1003.999986840258
 30
0.0
 11
10073.814991552799
 21
-1011.999986840258
 31
0.0
1001
ACDBBLOCKREPETAG
1070
     1
1071
       61
1005
12460F
  0
LINE
  5
124610
  8
OBJECT
 10
8044.5000000000036
 20
-979.99999999999204
 30
0.0
 11
7955.5
 21
-979.99999999999204
 31
0.0
1001
ACDBBLOCKREPETAG
1070
     1
1071
        0
1005
124610
  0
LINE
  5
124611
  8
OBJECT
 10
7935.0
 20
-769.99999999999204
 30
0.0
 11
7935.0
 21
-669.99999999999216
 31
0.0
1001
ACDBBLOCKREPETAG
1070
     1
1071
        1
1005
124611
  0
LINE
  5
124612
  8
OBJECT
 10
8065.0
 20
-769.99999999999204
 30
0.0
 11
8065.0
 21
-669.99999999999216
 31
0.0
1001
ACDBBLOCKREPETAG
1070
     1
1071
        2
1005
124612
  0
LINE
  5
124613
  8
OBJECT
 10
7935.0
 20
-769.99999999999204
 30
0.0
 11
8065.0
 21
-769.99999999999204
 31
0.0
1001
ACDBBLOCKREPETAG
1070
     1
1071
        3
1005
124613
  0
LINE
  5
124614
  8
OBJECT
 10
7955.5
 20
-879.99999999999204
 30
0.0
 11
8044.5000000000036
 21
-879.99999999999204
 31
0.0
1001
ACDBBLOCKREPETAG
1070
     1
1071
        4
1005
124614
  0
LINE
  5
124615
  8
OBJECT
 10
7955.5
 20
-879.99999999999204
 30
0.0
 11
7955.5
 21
-979.99999999999204
 31
0.0
1001
ACDBBLOCKREPETAG
1070
     1
1071
        5
1005
124615
  0
LINE
  5
124616
  8
OBJECT
 10
8044.5000000000036
 20
-879.99999999999204
 30
0.0
 11
8044.5000000000036
 21
-979.99999999999204
 31
0.0
1001
ACDBBLOCKREPETAG
1070
     1
1071
        6
1005
124616
  0
LINE
  5
124617
  8
OBJECT
 10
7935.0
 20
-769.99999999999204
 30
0.0
 11
7955.5
 21
-879.99999999999204
 31
0.0
1001
ACDBBLOCKREPETAG
1070
     1
1071
        7
1005
124617
  0
LINE
  5
124618
  8
OBJECT
 10
8044.5000000000036
 20
-879.99999999999204
 30
0.0
 11
8065.0
 21
-769.99999999999204
 31
0.0
1001
ACDBBLOCKREPETAG
1070
     1
1071
        8
1005
124618
  0
LINE
  5
124619
  8
HIDDEN
 10
7962.5
 20
-879.99999999999204
 30
0.0
 11
7962.5
 21
-979.99999999999204
 31
0.0
1001
ACDBBLOCKREPETAG
1070
     1
1071
        9
1005
124619
  0
LINE
  5
12461A
  8
HIDDEN
 10
8037.4999999999973
 20
-879.99999999999204
 30
0.0
 11
8037.4999999999973
 21
-979.99999999999204
 31
0.0
1001
ACDBBLOCKREPETAG
1070
     1
1071
       10
1005
12461A
  0
LINE
  5
12461B
  8
CENTER
 10
8000.0
 20
-669.99999999999955
 30
0.0
 11
8000.0
 21
-994.99999999999216
 31
0.0
1001
ACDBBLOCKREPETAG
1070
     1
1071
       11
1005
12461B
  0
LINE
  5
12461C
  8
OBJECT
 10
6055.9999999999927
 20
-1003.999999999999
 30
0.0
 11
6055.9999999999927
 21
-1013.999999999999
 31
0.0
1001
ACDBBLOCKREPETAG
1070
     1
1071
      121
1005
12461C
  0
LINE
  5
12461D
  8
OBJECT
 10
5961.75
 20
-954.69999999999663
 30
0.0
 11
5974.25
 21
-954.69999999999663
 31
0.0
1001
ACDBBLOCKREPETAG
1070
     1
1071
      122
1005
12461D
  0
LINE
  5
12461E
  8
OBJECT
 10
6073.4999999999927
 20
-962.70000000000005
 30
0.0
 11
6073.4999999999927
 21
-964.99999999999955
 31
0.0
1001
ACDBBLOCKREPETAG
1070
     1
1071
      123
1005
12461E
  0
LINE
  5
12461F
  8
OBJECT
 10
6057.7499999999927
 20
-954.69999999999663
 30
0.0
 11
6070.2499999999927
 21
-954.69999999999663
 31
0.0
1001
ACDBBLOCKREPETAG
1070
     1
1071
      124
1005
12461F
  0
LINE
  5
124620
  8
OBJECT
 10
6054.4999999999927
 20
-962.70000000000005
 30
0.0
 11
6054.4999999999927
 21
-964.99999999999955
 31
0.0
1001
ACDBBLOCKREPETAG
1070
     1
1071
      125
1005
124620
  0
LINE
  5
124621
  8
OBJECT
 10
5953.0
 20
-964.99999999999955
 30
0.0
 11
5953.0
 21
-962.70000000000005
 31
0.0
1001
ACDBBLOCKREPETAG
1070
     1
1071
      126
1005
124621
  0
LINE
  5
124622
  8
OBJECT
 10
5983.0
 20
-964.99999999999955
 30
0.0
 11
5983.0
 21
-962.70000000000005
 31
0.0
1001
ACDBBLOCKREPETAG
1070
     1
1071
      127
1005
124622
  0
LINE
  5
124623
  8
OBJECT
 10
5961.75
 20
-954.69999999999663
 30
0.0
 11
5961.75
 21
-962.70000000000005
 31
0.0
1001
ACDBBLOCKREPETAG
1070
     1
1071
      128
1005
124623
  0
LINE
  5
124624
  8
OBJECT
 10
5974.25
 20
-954.69999999999663
 30
0.0
 11
5974.25
 21
-962.70000000000005
 31
0.0
1001
ACDBBLOCKREPETAG
1070
     1
1071
      129
1005
124624
  0
LINE
  5
124625
  8
OBJECT
 10
5953.0
 20
-962.70000000000005
 30
0.0
 11
5983.0
 21
-962.70000000000005
 31
0.0
1001
ACDBBLOCKREPETAG
1070
     1
1071
      130
1005
124625
  0
LINE
  5
124626
  8
OBJECT
 10
5960.0
 20
-1003.999999999999
 30
0.0
 11
5960.0
 21
-1013.999999999999
 31
0.0
1001
ACDBBLOCKREPETAG
1070
     1
1071
      131
1005
124626
  0
LINE
  5
124627
  8
OBJECT
 10
5976.0
 20
-1003.999999999999
 30
0.0
 11
5976.0
 21
-1013.999999999999
 31
0.0
1001
ACDBBLOCKREPETAG
1070
     1
1071
      132
1005
124627
  0
LINE
  5
124628
  8
OBJECT
 10
5960.0
 20
-1013.999999999999
 30
0.0
 11
5976.0
 21
-1013.999999999999
 31
0.0
1001
ACDBBLOCKREPETAG
1070
     1
1071
      133
1005
124628
  0
LINE
  5
124629
  8
OBJECT
 10
6071.9999999999918
 20
-1003.999999999999
 30
0.0
 11
6071.9999999999918
 21
-1013.999999999999
 31
0.0
1001
ACDBBLOCKREPETAG
1070
     1
1071
      134
1005
124629
  0
LINE
  5
12462A
  8
OBJECT
 10
6071.9999999999918
 20
-1013.999999999999
 30
0.0
 11
6055.9999999999927
 21
-1013.999999999999
 31
0.0
1001
ACDBBLOCKREPETAG
1070
     1
1071
      135
1005
12462A
  0
LINE
  5
12462B
  8
OBJECT
 10
5944.9999999999927
 20
-1044.9999999999991
 30
0.0
 11
5944.9999999999927
 21
-1003.999999999999
 31
0.0
1001
ACDBBLOCKREPETAG
1070
     1
1071
      136
1005
12462B
  0
LINE
  5
12462C
  8
OBJECT
 10
6054.9999999999918
 20
-1003.999999999999
 30
0.0
 11
6054.9999999999918
 21
-1044.9999999999991
 31
0.0
1001
ACDBBLOCKREPETAG
1070
     1
1071
      137
1005
12462C
  0
LINE
  5
12462D
  8
OBJECT
 10
6070.2499999999927
 20
-954.69999999999663
 30
0.0
 11
6070.2499999999927
 21
-962.70000000000005
 31
0.0
1001
ACDBBLOCKREPETAG
1070
     1
1071
      138
1005
12462D
  0
LINE
  5
12462E
  8
OBJECT
 10
6057.7499999999927
 20
-954.69999999999663
 30
0.0
 11
6057.7499999999927
 21
-962.70000000000005
 31
0.0
1001
ACDBBLOCKREPETAG
1070
     1
1071
      139
1005
12462E
  0
LINE
  5
12462F
  8
OBJECT
 10
6054.4999999999927
 20
-962.70000000000005
 30
0.0
 11
6073.4999999999927
 21
-962.70000000000005
 31
0.0
1001
ACDBBLOCKREPETAG
1070
     1
1071
      140
1005
12462F
  0
LINE
  5
124630
  8
OBJECT
 10
6054.9999999999918
 20
-1044.9999999999991
 30
0.0
 11
5944.9999999999927
 21
-1044.9999999999991
 31
0.0
1001
ACDBBLOCKREPETAG
1070
     1
1071
      141
1005
124630
  0
LINE
  5
124631
  8
OBJECT
 10
6075.9999999999927
 20
-979.99999999999966
 30
0.0
 11
5938.9999999999918
 21
-979.99999999999966
 31
0.0
1001
ACDBBLOCKREPETAG
1070
     1
1071
      142
1005
124631
  0
LINE
  5
124632
  8
OBJECT
 10
6075.9999999999927
 20
-979.99999999999966
 30
0.0
 11
6075.9999999999927
 21
-964.99999999999955
 31
0.0
1001
ACDBBLOCKREPETAG
1070
     1
1071
      143
1005
124632
  0
LINE
  5
124633
  8
OBJECT
 10
6075.9999999999927
 20
-989.99999999999955
 30
0.0
 11
6075.9999999999927
 21
-1003.999999999999
 31
0.0
1001
ACDBBLOCKREPETAG
1070
     1
1071
      144
1005
124633
  0
LINE
  5
124634
  8
OBJECT
 10
6068.9999999999909
 20
-989.99999999999955
 30
0.0
 11
6068.9999999999909
 21
-979.99999999999966
 31
0.0
1001
ACDBBLOCKREPETAG
1070
     1
1071
      145
1005
124634
  0
LINE
  5
124635
  8
OBJECT
 10
6058.9999999999927
 20
-989.99999999999955
 30
0.0
 11
6058.9999999999927
 21
-979.99999999999966
 31
0.0
1001
ACDBBLOCKREPETAG
1070
     1
1071
      146
1005
124635
  0
LINE
  5
124636
  8
OBJECT
 10
5938.9999999999918
 20
-989.99999999999955
 30
0.0
 11
5938.9999999999918
 21
-1003.999999999999
 31
0.0
1001
ACDBBLOCKREPETAG
1070
     1
1071
      147
1005
124636
  0
LINE
  5
124637
  8
OBJECT
 10
5938.9999999999918
 20
-1003.999999999999
 30
0.0
 11
6075.9999999999927
 21
-1003.999999999999
 31
0.0
1001
ACDBBLOCKREPETAG
1070
     1
1071
      148
1005
124637
  0
LINE
  5
124638
  8
OBJECT
 10
5973.0
 20
-989.99999999999955
 30
0.0
 11
5973.0
 21
-979.99999999999966
 31
0.0
1001
ACDBBLOCKREPETAG
1070
     1
1071
      149
1005
124638
  0
LINE
  5
124639
  8
OBJECT
 10
5963.0
 20
-989.99999999999955
 30
0.0
 11
5963.0
 21
-979.99999999999966
 31
0.0
1001
ACDBBLOCKREPETAG
1070
     1
1071
      150
1005
124639
  0
LINE
  5
12463A
  8
OBJECT
 10
5938.9999999999918
 20
-989.99999999999955
 30
0.0
 11
6075.9999999999927
 21
-989.99999999999955
 31
0.0
1001
ACDBBLOCKREPETAG
1070
     1
1071
      151
1005
12463A
  0
LINE
  5
12463B
  8
OBJECT
 10
5945.9999999999927
 20
-979.99999999999966
 30
0.0
 11
5945.9999999999927
 21
-989.99999999999955
 31
0.0
1001
ACDBBLOCKREPETAG
1070
     1
1071
      152
1005
12463B
  0
LINE
  5
12463C
  8
OBJECT
 10
6053.9999999999927
 20
-979.99999999999966
 30
0.0
 11
6053.9999999999927
 21
-989.99999999999955
 31
0.0
1001
ACDBBLOCKREPETAG
1070
     1
1071
      153
1005
12463C
  0
LINE
  5
12463D
  8
OBJECT
 10
6044.5
 20
-879.99999999999955
 30
0.0
 11
6065.0
 21
-769.99999999999955
 31
0.0
1001
ACDBBLOCKREPETAG
1070
     1
1071
      154
1005
12463D
  0
LINE
  5
12463E
  8
OBJECT
 10
5955.5
 20
-879.99999999999955
 30
0.0
 11
6044.5
 21
-879.99999999999955
 31
0.0
1001
ACDBBLOCKREPETAG
1070
     1
1071
      155
1005
12463E
  0
LINE
  5
12463F
  8
OBJECT
 10
5938.9999999999918
 20
-979.99999999999966
 30
0.0
 11
5938.9999999999918
 21
-964.99999999999955
 31
0.0
1001
ACDBBLOCKREPETAG
1070
     1
1071
      156
1005
12463F
  0
LINE
  5
124640
  8
OBJECT
 10
5938.9999999999918
 20
-964.99999999999955
 30
0.0
 11
6075.9999999999927
 21
-964.99999999999955
 31
0.0
1001
ACDBBLOCKREPETAG
1070
     1
1071
      157
1005
124640
  0
LINE
  5
124641
  8
OBJECT
 10
5955.5
 20
-879.99999999999955
 30
0.0
 11
5955.5
 21
-929.99999999999966
 31
0.0
1001
ACDBBLOCKREPETAG
1070
     1
1071
      158
1005
124641
  0
LINE
  5
124642
  8
OBJECT
 10
6044.5
 20
-879.99999999999955
 30
0.0
 11
6044.5
 21
-929.99999999999966
 31
0.0
1001
ACDBBLOCKREPETAG
1070
     1
1071
      159
1005
124642
  0
LINE
  5
124643
  8
OBJECT
 10
5947.0
 20
-929.99999999999966
 30
0.0
 11
6053.0
 21
-929.99999999999966
 31
0.0
1001
ACDBBLOCKREPETAG
1070
     1
1071
      160
1005
124643
  0
LINE
  5
124644
  8
HIDDEN
 10
5955.5
 20
-939.99999999999955
 30
0.0
 11
6044.5
 21
-939.99999999999955
 31
0.0
1001
ACDBBLOCKREPETAG
1070
     1
1071
      161
1005
124644
  0
LINE
  5
124645
  8
CENTER
 10
6000.0
 20
-669.99999999999955
 30
0.0
 11
6000.0
 21
-1059.9999999999991
 31
0.0
1001
ACDBBLOCKREPETAG
1070
     1
1071
      162
1005
124645
  0
LINE
  5
124646
  8
OBJECT
 10
6065.0
 20
-669.99999999999955
 30
0.0
 11
6065.0
 21
-769.99999999999955
 31
0.0
1001
ACDBBLOCKREPETAG
1070
     1
1071
      163
1005
124646
  0
LINE
  5
124647
  8
OBJECT
 10
5935.0
 20
-669.99999999999955
 30
0.0
 11
5935.0
 21
-769.99999999999955
 31
0.0
1001
ACDBBLOCKREPETAG
1070
     1
1071
      164
1005
124647
  0
LINE
  5
124648
  8
OBJECT
 10
5955.5
 20
-879.99999999999955
 30
0.0
 11
5935.0
 21
-769.99999999999955
 31
0.0
1001
ACDBBLOCKREPETAG
1070
     1
1071
      165
1005
124648
  0
LINE
  5
124649
  8
OBJECT
 10
6065.0
 20
-769.99999999999955
 30
0.0
 11
5935.0
 21
-769.99999999999955
 31
0.0
1001
ACDBBLOCKREPETAG
1070
     1
1071
      166
1005
124649
  0
LINE
  5
12464A
  8
OBJECT
 10
5947.0
 20
-929.99999999999966
 30
0.0
 11
5947.0
 21
-964.99999999999955
 31
0.0
1001
ACDBBLOCKREPETAG
1070
     1
1071
      167
1005
12464A
  0
LINE
  5
12464B
  8
OBJECT
 10
6053.0
 20
-929.99999999999966
 30
0.0
 11
6053.0
 21
-964.99999999999955
 31
0.0
1001
ACDBBLOCKREPETAG
1070
     1
1071
      168
1005
12464B
  0
LINE
  5
12464C
  8
OBJECT
 10
3975.5
 20
-959.99999999999955
 30
0.0
 11
3958.9999999999918
 21
-959.99999999999955
 31
0.0
1001
ACDBBLOCKREPETAG
1070
     1
1071
       12
1005
12464C
  0
LINE
  5
12464D
  8
OBJECT
 10
3983.0
 20
-964.99999999999955
 30
0.0
 11
3983.0
 21
-962.99999999999966
 31
0.0
1001
ACDBBLOCKREPETAG
1070
     1
1071
       13
1005
12464D
  0
LINE
  5
12464E
  8
OBJECT
 10
4075.9999999999918
 20
-979.99999999999966
 30
0.0
 11
3938.9999999999932
 21
-979.99999999999966
 31
0.0
1001
ACDBBLOCKREPETAG
1070
     1
1071
       14
1005
12464E
  0
LINE
  5
12464F
  8
OBJECT
 10
4075.9999999999918
 20
-979.99999999999966
 30
0.0
 11
4075.9999999999918
 21
-964.99999999999955
 31
0.0
1001
ACDBBLOCKREPETAG
1070
     1
1071
       15
1005
12464F
  0
LINE
  5
124650
  8
OBJECT
 10
4075.9999999999918
 20
-989.99999999999955
 30
0.0
 11
4075.9999999999918
 21
-1003.999999999999
 31
0.0
1001
ACDBBLOCKREPETAG
1070
     1
1071
       16
1005
124650
  0
LINE
  5
124651
  8
OBJECT
 10
4068.9999999999918
 20
-989.99999999999955
 30
0.0
 11
4068.9999999999918
 21
-979.99999999999966
 31
0.0
1001
ACDBBLOCKREPETAG
1070
     1
1071
       17
1005
124651
  0
LINE
  5
124652
  8
OBJECT
 10
4058.9999999999932
 20
-989.99999999999955
 30
0.0
 11
4058.9999999999932
 21
-979.99999999999966
 31
0.0
1001
ACDBBLOCKREPETAG
1070
     1
1071
       18
1005
124652
  0
LINE
  5
124653
  8
OBJECT
 10
3938.9999999999932
 20
-989.99999999999955
 30
0.0
 11
3938.9999999999932
 21
-1003.999999999999
 31
0.0
1001
ACDBBLOCKREPETAG
1070
     1
1071
       19
1005
124653
  0
LINE
  5
124654
  8
OBJECT
 10
3938.9999999999932
 20
-1003.999999999999
 30
0.0
 11
4075.9999999999918
 21
-1003.999999999999
 31
0.0
1001
ACDBBLOCKREPETAG
1070
     1
1071
       20
1005
124654
  0
LINE
  5
124655
  8
OBJECT
 10
3973.0
 20
-989.99999999999955
 30
0.0
 11
3973.0
 21
-979.99999999999966
 31
0.0
1001
ACDBBLOCKREPETAG
1070
     1
1071
       21
1005
124655
  0
LINE
  5
124656
  8
OBJECT
 10
3963.0
 20
-989.99999999999955
 30
0.0
 11
3963.0
 21
-979.99999999999966
 31
0.0
1001
ACDBBLOCKREPETAG
1070
     1
1071
       22
1005
124656
  0
LINE
  5
124657
  8
OBJECT
 10
3938.9999999999932
 20
-989.99999999999955
 30
0.0
 11
4075.9999999999918
 21
-989.99999999999955
 31
0.0
1001
ACDBBLOCKREPETAG
1070
     1
1071
       23
1005
124657
  0
LINE
  5
124658
  8
OBJECT
 10
3958.9999999999918
 20
-959.99999999999955
 30
0.0
 11
3958.9999999999918
 21
-964.99999999999955
 31
0.0
1001
ACDBBLOCKREPETAG
1070
     1
1071
       24
1005
124658
  0
LINE
  5
124659
  8
OBJECT
 10
3963.0
 20
-1011.999999999999
 30
0.0
 11
3963.0
 21
-1014.999999999999
 31
0.0
1001
ACDBBLOCKREPETAG
1070
     1
1071
       25
1005
124659
  0
LINE
  5
12465A
  8
OBJECT
 10
3963.0
 20
-1014.999999999999
 30
0.0
 11
3973.0
 21
-1014.999999999999
 31
0.0
1001
ACDBBLOCKREPETAG
1070
     1
1071
       26
1005
12465A
  0
LINE
  5
12465B
  8
OBJECT
 10
3958.185045423772
 20
-1011.999999999999
 30
0.0
 11
3977.8149545762212
 21
-1011.999999999999
 31
0.0
1001
ACDBBLOCKREPETAG
1070
     1
1071
       27
1005
12465B
  0
LINE
  5
12465C
  8
OBJECT
 10
3973.0
 20
-1014.999999999999
 30
0.0
 11
3973.0
 21
-1011.999999999999
 31
0.0
1001
ACDBBLOCKREPETAG
1070
     1
1071
       28
1005
12465C
  0
LINE
  5
12465D
  8
OBJECT
 10
3945.9999999999932
 20
-979.99999999999966
 30
0.0
 11
3945.9999999999932
 21
-989.99999999999955
 31
0.0
1001
ACDBBLOCKREPETAG
1070
     1
1071
       29
1005
12465D
  0
LINE
  5
12465E
  8
OBJECT
 10
4053.9999999999941
 20
-979.99999999999966
 30
0.0
 11
4053.9999999999941
 21
-989.99999999999955
 31
0.0
1001
ACDBBLOCKREPETAG
1070
     1
1071
       30
1005
12465E
  0
LINE
  5
12465F
  8
OBJECT
 10
4044.5
 20
-879.99999999999955
 30
0.0
 11
4065.0
 21
-769.99999999999955
 31
0.0
1001
ACDBBLOCKREPETAG
1070
     1
1071
       31
1005
12465F
  0
LINE
  5
124660
  8
OBJECT
 10
3955.5
 20
-879.99999999999955
 30
0.0
 11
4044.5
 21
-879.99999999999955
 31
0.0
1001
ACDBBLOCKREPETAG
1070
     1
1071
       32
1005
124660
  0
LINE
  5
124661
  8
OBJECT
 10
3938.9999999999932
 20
-979.99999999999966
 30
0.0
 11
3938.9999999999932
 21
-964.99999999999955
 31
0.0
1001
ACDBBLOCKREPETAG
1070
     1
1071
       33
1005
124661
  0
LINE
  5
124662
  8
OBJECT
 10
3938.9999999999932
 20
-964.99999999999955
 30
0.0
 11
4075.9999999999918
 21
-964.99999999999955
 31
0.0
1001
ACDBBLOCKREPETAG
1070
     1
1071
       34
1005
124662
  0
LINE
  5
124663
  8
OBJECT
 10
3955.5
 20
-879.99999999999955
 30
0.0
 11
3955.5
 21
-929.99999999999966
 31
0.0
1001
ACDBBLOCKREPETAG
1070
     1
1071
       35
1005
124663
  0
LINE
  5
124664
  8
OBJECT
 10
4044.5
 20
-879.99999999999955
 30
0.0
 11
4044.5
 21
-929.99999999999966
 31
0.0
1001
ACDBBLOCKREPETAG
1070
     1
1071
       36
1005
124664
  0
LINE
  5
124665
  8
OBJECT
 10
3947.0
 20
-929.99999999999966
 30
0.0
 11
4053.0
 21
-929.99999999999966
 31
0.0
1001
ACDBBLOCKREPETAG
1070
     1
1071
       37
1005
124665
  0
LINE
  5
124666
  8
OBJECT
 10
4054.9999999999841
 20
-959.99999999999955
 30
0.0
 11
4054.9999999999841
 21
-964.99999999999955
 31
0.0
1001
ACDBBLOCKREPETAG
1070
     1
1071
       38
1005
124666
  0
LINE
  5
124667
  8
OBJECT
 10
4073.0
 20
-959.99999999999955
 30
0.0
 11
4073.0
 21
-964.99999999999955
 31
0.0
1001
ACDBBLOCKREPETAG
1070
     1
1071
       39
1005
124667
  0
LINE
  5
124668
  8
OBJECT
 10
4073.0
 20
-959.99999999999955
 30
0.0
 11
4054.9999999999841
 21
-959.99999999999955
 31
0.0
1001
ACDBBLOCKREPETAG
1070
     1
1071
       40
1005
124668
  0
LINE
  5
124669
  8
HIDDEN
 10
3955.5
 20
-939.99999999999955
 30
0.0
 11
4044.5
 21
-939.99999999999955
 31
0.0
1001
ACDBBLOCKREPETAG
1070
     1
1071
       41
1005
124669
  0
LINE
  5
12466A
  8
CENTER
 10
4000.0
 20
-669.99999999999955
 30
0.0
 11
4000.0
 21
-1018.999999999999
 31
0.0
1001
ACDBBLOCKREPETAG
1070
     1
1071
       42
1005
12466A
  0
LINE
  5
12466B
  8
OBJECT
 10
4065.0
 20
-669.99999999999955
 30
0.0
 11
4065.0
 21
-769.99999999999955
 31
0.0
1001
ACDBBLOCKREPETAG
1070
     1
1071
       43
1005
12466B
  0
LINE
  5
12466C
  8
OBJECT
 10
3935.0
 20
-669.99999999999955
 30
0.0
 11
3935.0
 21
-769.99999999999955
 31
0.0
1001
ACDBBLOCKREPETAG
1070
     1
1071
       44
1005
12466C
  0
LINE
  5
12466D
  8
OBJECT
 10
3955.5
 20
-879.99999999999955
 30
0.0
 11
3935.0
 21
-769.99999999999955
 31
0.0
1001
ACDBBLOCKREPETAG
1070
     1
1071
       45
1005
12466D
  0
LINE
  5
12466E
  8
OBJECT
 10
4065.0
 20
-769.99999999999955
 30
0.0
 11
3935.0
 21
-769.99999999999955
 31
0.0
1001
ACDBBLOCKREPETAG
1070
     1
1071
       46
1005
12466E
  0
LINE
  5
12466F
  8
OBJECT
 10
3947.0
 20
-929.99999999999966
 30
0.0
 11
3947.0
 21
-964.99999999999955
 31
0.0
1001
ACDBBLOCKREPETAG
1070
     1
1071
       47
1005
12466F
  0
LINE
  5
124670
  8
OBJECT
 10
4053.0
 20
-929.99999999999966
 30
0.0
 11
4053.0
 21
-964.99999999999955
 31
0.0
1001
ACDBBLOCKREPETAG
1070
     1
1071
       48
1005
124670
  0
LINE
  5
124671
  8
OBJECT
 10
3983.0
 20
-962.99999999999966
 30
0.0
 11
3975.5
 21
-959.99999999999955
 31
0.0
1001
ACDBBLOCKREPETAG
1070
     1
1071
       49
1005
124671
  0
LINE
  5
124672
  8
OBJECT
 10
3958.1850359912951
 20
-1003.999986840258
 30
0.0
 11
3958.1850359912951
 21
-1011.999986840258
 31
0.0
1001
ACDBBLOCKREPETAG
1070
     1
1071
       50
1005
124672
  0
LINE
  5
124673
  8
OBJECT
 10
3963.0925013591991
 20
-1003.999986840258
 30
0.0
 11
3963.0925013591991
 21
-1011.999986840258
 31
0.0
1001
ACDBBLOCKREPETAG
1070
     1
1071
       51
1005
124673
  0
LINE
  5
124674
  8
OBJECT
 10
3972.907432095024
 20
-1003.999986840258
 30
0.0
 11
3972.907432095024
 21
-1011.999986840258
 31
0.0
1001
ACDBBLOCKREPETAG
1070
     1
1071
       52
1005
124674
  0
LINE
  5
124675
  8
OBJECT
 10
3977.814991552797
 20
-1003.999986840258
 30
0.0
 11
3977.814991552797
 21
-1011.999986840258
 31
0.0
1001
ACDBBLOCKREPETAG
1070
     1
1071
       53
1005
124675
  0
LINE
  5
124676
  8
OBJECT
 10
4059.0
 20
-1011.999999999999
 30
0.0
 11
4059.0
 21
-1014.999999999999
 31
0.0
1001
ACDBBLOCKREPETAG
1070
     1
1071
       54
1005
124676
  0
LINE
  5
124677
  8
OBJECT
 10
4059.0
 20
-1014.999999999999
 30
0.0
 11
4069.0
 21
-1014.999999999999
 31
0.0
1001
ACDBBLOCKREPETAG
1070
     1
1071
       55
1005
124677
  0
LINE
  5
124678
  8
OBJECT
 10
4054.1850454237701
 20
-1011.999999999999
 30
0.0
 11
4073.8149545762199
 21
-1011.999999999999
 31
0.0
1001
ACDBBLOCKREPETAG
1070
     1
1071
       56
1005
124678
  0
LINE
  5
124679
  8
OBJECT
 10
4069.0
 20
-1014.999999999999
 30
0.0
 11
4069.0
 21
-1011.999999999999
 31
0.0
1001
ACDBBLOCKREPETAG
1070
     1
1071
       57
1005
124679
  0
LINE
  5
12467A
  8
OBJECT
 10
4054.1850359912919
 20
-1003.999986840258
 30
0.0
 11
4054.1850359912919
 21
-1011.999986840258
 31
0.0
1001
ACDBBLOCKREPETAG
1070
     1
1071
       58
1005
12467A
  0
LINE
  5
12467B
  8
OBJECT
 10
4059.0925013591982
 20
-1003.999986840258
 30
0.0
 11
4059.0925013591982
 21
-1011.999986840258
 31
0.0
1001
ACDBBLOCKREPETAG
1070
     1
1071
       59
1005
12467B
  0
LINE
  5
12467C
  8
OBJECT
 10
4068.907432095024
 20
-1003.999986840258
 30
0.0
 11
4068.907432095024
 21
-1011.999986840258
 31
0.0
1001
ACDBBLOCKREPETAG
1070
     1
1071
       60
1005
12467C
  0
LINE
  5
12467D
  8
OBJECT
 10
4073.814991552797
 20
-1003.999986840258
 30
0.0
 11
4073.814991552797
 21
-1011.999986840258
 31
0.0
1001
ACDBBLOCKREPETAG
1070
     1
1071
       61
1005
12467D
  0
LINE
  5
12467E
  8
CENTER
 10
11924.0
 20
-1294.9999999999991
 30
0.0
 11
12091.0
 21
-1294.9999999999991
 31
0.0
1001
ACDBBLOCKREPETAG
1070
     1
1071
       22
1005
12467E
  0
LINE
  5
12467F
  8
CENTER
 10
12000.0
 20
-1218.0518385105161
 30
0.0
 11
12000.0
 21
-1371.948161489478
 31
0.0
1001
ACDBBLOCKREPETAG
1070
     1
1071
       23
1005
12467F
  0
CIRCLE
  5
124680
  8
OBJECT
 10
12000.0
 20
-1294.9999999999991
 30
0.0
 40
37.5
1001
ACDBBLOCKREPETAG
1070
     1
1071
       24
1005
124680
  0
CIRCLE
  5
124681
  8
OBJECT
 10
12000.0
 20
-1294.9999999999991
 30
0.0
 40
47.5
1001
ACDBBLOCKREPETAG
1070
     1
1071
       25
1005
124681
  0
ARC
  5
124682
  8
OBJECT
 10
12000.0
 20
-1294.9999999999991
 30
0.0
 40
61.0
 50
40.03737312998139
 51
79.962626870012684
1001
ACDBBLOCKREPETAG
1070
     1
1071
       26
1005
124682
  0
ARC
  5
124683
  8
OBJECT
 10
12000.0
 20
-1294.9999999999991
 30
0.0
 40
61.0
 50
160.03737312997501
 51
199.96262687002491
1001
ACDBBLOCKREPETAG
1070
     1
1071
       27
1005
124683
  0
ARC
  5
124684
  8
OBJECT
 10
12000.0
 20
-1294.9999999999991
 30
0.0
 40
61.0
 50
280.03737312998732
 51
319.9626268700186
1001
ACDBBLOCKREPETAG
1070
     1
1071
       28
1005
124684
  0
ARC
  5
124685
  8
OBJECT
 10
12064.0
 20
-1294.9999999999991
 30
0.0
 40
12.0
 50
319.9626268700186
 51
40.03737312998139
1001
ACDBBLOCKREPETAG
1070
     1
1071
       29
1005
124685
  0
LINE
  5
124686
  8
OBJECT
 10
12046.703125
 20
-1255.7594837542299
 30
0.0
 11
12073.1875
 21
-1287.2805541811599
 31
0.0
1001
ACDBBLOCKREPETAG
1070
     1
1071
       30
1005
124686
  0
LINE
  5
124687
  8
OBJECT
 10
12046.703125
 20
-1334.240516245768
 30
0.0
 11
12073.1875
 21
-1302.719445818838
 31
0.0
1001
ACDBBLOCKREPETAG
1070
     1
1071
       31
1005
124687
  0
CIRCLE
  5
124688
  8
OBJECT
 10
12000.0
 20
-1294.9999999999991
 30
0.0
 40
55.0
1001
ACDBBLOCKREPETAG
1070
     1
1071
       32
1005
124688
  0
ARC
  5
124689
  8
OBJECT
 10
12064.0
 20
-1294.9999999999991
 30
0.0
 40
12.0
 50
271.2434956101261
 51
88.756504389873882
1001
ACDBBLOCKREPETAG
1070
     1
1071
       33
1005
124689
  0
ARC
  5
12468A
  8
OBJECT
 10
12064.5859375
 20
-1268.006358577504
 30
0.0
 40
15.0
 50
202.68245018366949
 51
268.7565043898739
1001
ACDBBLOCKREPETAG
1070
     1
1071
       34
1005
12468A
  0
CIRCLE
  5
12468B
  8
SLIM
 10
12064.0
 20
-1294.9999999999991
 30
0.0
 40
8.0
1001
ACDBBLOCKREPETAG
1070
     1
1071
       35
1005
12468B
  0
POLYLINE
  5
12468C
  8
SLIM
 66
     1
 10
0.0
 20
0.0
 30
0.0
 70
     1
1001
ACDBBLOCKREPETAG
1070
     1
1071
       36
1005
12468C
  0
VERTEX
  5
1248B4
  8
SLIM
 10
12061.69059892324
 20
-1290.9999999999991
 30
0.0
  0
VERTEX
  5
1248B5
  8
SLIM
 10
12059.38119784648
 20
-1294.9999999999991
 30
0.0
  0
VERTEX
  5
1248B6
  8
SLIM
 10
12061.69059892324
 20
-1298.9999999999991
 30
0.0
  0
VERTEX
  5
1248B7
  8
SLIM
 10
12066.30940107676
 20
-1298.9999999999991
 30
0.0
  0
VERTEX
  5
1248B8
  8
SLIM
 10
12068.618802153511
 20
-1294.9999999999991
 30
0.0
  0
VERTEX
  5
1248B9
  8
SLIM
 10
12066.30940107676
 20
-1290.9999999999991
 30
0.0
  0
SEQEND
  5
1248BA
  8
SLIM
  0
ARC
  5
12468D
  8
OBJECT
 10
12064.5859375
 20
-1321.993641422489
 30
0.0
 40
15.0
 50
91.243495610126089
 51
157.3175498163304
1001
ACDBBLOCKREPETAG
1070
     1
1071
       37
1005
12468D
  0
ARC
  5
12468E
  8
OBJECT
 10
11968.0
 20
-1239.5743741577919
 30
0.0
 40
12.0
 50
79.962626870012684
 51
160.03737312997501
1001
ACDBBLOCKREPETAG
1070
     1
1071
       38
1005
12468E
  0
LINE
  5
12468F
  8
OBJECT
 10
11942.665153573549
 20
-1274.1741654367599
 30
0.0
 11
11956.721013817751
 21
-1235.477488669944
 31
0.0
1001
ACDBBLOCKREPETAG
1070
     1
1071
       39
1005
12468F
  0
LINE
  5
124690
  8
OBJECT
 10
12010.631721426451
 20
-1234.9336491909951
 30
0.0
 11
11970.091486182249
 21
-1227.7580428511051
 31
0.0
1001
ACDBBLOCKREPETAG
1070
     1
1071
       40
1005
124690
  0
ARC
  5
124691
  8
OBJECT
 10
11968.0
 20
-1239.5743741577919
 30
0.0
 40
12.0
 50
31.243495610056922
 51
208.7565043898139
1001
ACDBBLOCKREPETAG
1070
     1
1071
       41
1005
124691
  0
ARC
  5
124692
  8
OBJECT
 10
11944.32985203747
 20
-1252.56375810901
 30
0.0
 40
15.0
 50
322.68245018387239
 51
28.756504389813902
1001
ACDBBLOCKREPETAG
1070
     1
1071
       42
1005
124692
  0
CIRCLE
  5
124693
  8
SLIM
 10
11968.0
 20
-1239.5743741577919
 30
0.0
 40
7.9999999999999982
1001
ACDBBLOCKREPETAG
1070
     1
1071
       43
1005
124693
  0
POLYLINE
  5
124694
  8
SLIM
 66
     1
 10
0.0
 20
0.0
 30
0.0
 70
     1
1001
ACDBBLOCKREPETAG
1070
     1
1071
       44
1005
124694
  0
VERTEX
  5
1248BB
  8
SLIM
 10
11965.69059892324
 20
-1243.574374157796
 30
0.0
  0
VERTEX
  5
1248BC
  8
SLIM
 10
11970.30940107676
 20
-1243.5743741577919
 30
0.0
  0
VERTEX
  5
1248BD
  8
SLIM
 10
11972.618802153511
 20
-1239.574374157796
 30
0.0
  0
VERTEX
  5
1248BE
  8
SLIM
 10
11970.309401076751
 20
-1235.5743741577919
 30
0.0
  0
VERTEX
  5
1248BF
  8
SLIM
 10
11965.69059892324
 20
-1235.574374157796
 30
0.0
  0
VERTEX
  5
1248C0
  8
SLIM
 10
11963.38119784648
 20
-1239.5743741577919
 30
0.0
  0
SEQEND
  5
1248C1
  8
SLIM
  0
ARC
  5
124695
  8
OBJECT
 10
11991.084210462521
 20
-1225.570116686516
 30
0.0
 40
15.0
 50
211.2434956100569
 51
277.31754981622862
1001
ACDBBLOCKREPETAG
1070
     1
1071
       45
1005
124695
  0
ARC
  5
124696
  8
OBJECT
 10
11968.0
 20
-1350.425625842202
 30
0.0
 40
12.0
 50
199.96262687002491
 51
280.03737312998732
1001
ACDBBLOCKREPETAG
1070
     1
1071
       46
1005
124696
  0
LINE
  5
124697
  8
OBJECT
 10
12010.631721426451
 20
-1355.0663508090031
 30
0.0
 11
11970.091486182249
 21
-1362.241957148892
 31
0.0
1001
ACDBBLOCKREPETAG
1070
     1
1071
       47
1005
124697
  0
LINE
  5
124698
  8
OBJECT
 10
11942.665153573549
 20
-1315.8258345632339
 30
0.0
 11
11956.721013817751
 21
-1354.5225113300539
 31
0.0
1001
ACDBBLOCKREPETAG
1070
     1
1071
       48
1005
124698
  0
ARC
  5
124699
  8
OBJECT
 10
11968.0
 20
-1350.425625842202
 30
0.0
 40
12.0
 50
151.2434956101861
 51
328.75650438994307
1001
ACDBBLOCKREPETAG
1070
     1
1071
       49
1005
124699
  0
ARC
  5
12469A
  8
OBJECT
 10
11991.084210462521
 20
-1364.4298833134769
 30
0.0
 40
15.0
 50
82.682450183771394
 51
148.75650438994299
1001
ACDBBLOCKREPETAG
1070
     1
1071
       50
1005
12469A
  0
CIRCLE
  5
12469B
  8
SLIM
 10
11968.0
 20
-1350.425625842202
 30
0.0
 40
8.0
1001
ACDBBLOCKREPETAG
1070
     1
1071
       51
1005
12469B
  0
POLYLINE
  5
12469C
  8
SLIM
 66
     1
 10
0.0
 20
0.0
 30
0.0
 70
     1
1001
ACDBBLOCKREPETAG
1070
     1
1071
       52
1005
12469C
  0
VERTEX
  5
1248C2
  8
SLIM
 10
11972.618802153511
 20
-1350.425625842202
 30
0.0
  0
VERTEX
  5
1248C3
  8
SLIM
 10
11970.309401076751
 20
-1346.425625842202
 30
0.0
  0
VERTEX
  5
1248C4
  8
SLIM
 10
11965.69059892324
 20
-1346.425625842202
 30
0.0
  0
VERTEX
  5
1248C5
  8
SLIM
 10
11963.38119784648
 20
-1350.425625842202
 30
0.0
  0
VERTEX
  5
1248C6
  8
SLIM
 10
11965.69059892324
 20
-1354.425625842202
 30
0.0
  0
VERTEX
  5
1248C7
  8
SLIM
 10
11970.309401076751
 20
-1354.425625842202
 30
0.0
  0
SEQEND
  5
1248C8
  8
SLIM
  0
ARC
  5
12469D
  8
OBJECT
 10
11944.32985203747
 20
-1337.436241890987
 30
0.0
 40
15.0
 50
331.24349561018607
 51
37.317549816127681
1001
ACDBBLOCKREPETAG
1070
     1
1071
       53
1005
12469D
  0
LINE
  5
12469E
  8
CENTER
 10
9924.0
 20
-1253.9999999999959
 30
0.0
 11
10091.0
 21
-1253.9999999999959
 31
0.0
1001
ACDBBLOCKREPETAG
1070
     1
1071
        0
1005
12469E
  0
LINE
  5
12469F
  8
CENTER
 10
10000.0
 20
-1177.0518385105131
 30
0.0
 11
10000.0
 21
-1330.9481614894751
 31
0.0
1001
ACDBBLOCKREPETAG
1070
     1
1071
        1
1005
12469F
  0
CIRCLE
  5
1246A0
  8
OBJECT
 10
10000.0
 20
-1253.9999999999959
 30
0.0
 40
37.5
1001
ACDBBLOCKREPETAG
1070
     1
1071
        2
1005
1246A0
  0
CIRCLE
  5
1246A1
  8
OBJECT
 10
10000.0
 20
-1253.9999999999959
 30
0.0
 40
49.5
1001
ACDBBLOCKREPETAG
1070
     1
1071
        3
1005
1246A1
  0
ARC
  5
1246A2
  8
OBJECT
 10
10000.0
 20
-1253.9999999999959
 30
0.0
 40
61.0
 50
40.03737312998139
 51
79.962626870012684
1001
ACDBBLOCKREPETAG
1070
     1
1071
        4
1005
1246A2
  0
ARC
  5
1246A3
  8
OBJECT
 10
10000.0
 20
-1253.9999999999959
 30
0.0
 40
61.0
 50
160.03737312997501
 51
199.96262687002491
1001
ACDBBLOCKREPETAG
1070
     1
1071
        5
1005
1246A3
  0
ARC
  5
1246A4
  8
OBJECT
 10
10000.0
 20
-1253.9999999999959
 30
0.0
 40
61.0
 50
280.03737312998732
 51
319.9626268700186
1001
ACDBBLOCKREPETAG
1070
     1
1071
        6
1005
1246A4
  0
CIRCLE
  5
1246A5
  8
SLIM
 10
10064.0
 20
-1253.9999999999959
 30
0.0
 40
5.0
1001
ACDBBLOCKREPETAG
1070
     1
1071
        7
1005
1246A5
  0
ARC
  5
1246A6
  8
OBJECT
 10
10064.0
 20
-1253.9999999999959
 30
0.0
 40
12.0
 50
319.9626268700186
 51
40.03737312998139
1001
ACDBBLOCKREPETAG
1070
     1
1071
        8
1005
1246A6
  0
LINE
  5
1246A7
  8
OBJECT
 10
10046.703125
 20
-1214.7594837542269
 30
0.0
 11
10073.1875
 21
-1246.280554181157
 31
0.0
1001
ACDBBLOCKREPETAG
1070
     1
1071
        9
1005
1246A7
  0
LINE
  5
1246A8
  8
OBJECT
 10
10046.703125
 20
-1293.2405162457651
 30
0.0
 11
10073.1875
 21
-1261.7194458188339
 31
0.0
1001
ACDBBLOCKREPETAG
1070
     1
1071
       10
1005
1246A8
  0
POLYLINE
  5
1246A9
  8
SLIM
 66
     1
 10
0.0
 20
0.0
 30
0.0
 70
     1
1001
ACDBBLOCKREPETAG
1070
     1
1071
       11
1005
1246A9
  0
VERTEX
  5
1248C9
  8
SLIM
 10
10059.092522711881
 20
-1245.4999999999959
 30
0.0
  0
VERTEX
  5
1248CA
  8
SLIM
 10
10054.18504542377
 20
-1253.9999999999959
 30
0.0
  0
VERTEX
  5
1248CB
  8
SLIM
 10
10059.092522711881
 20
-1262.4999999999959
 30
0.0
  0
VERTEX
  5
1248CC
  8
SLIM
 10
10068.907477288099
 20
-1262.4999999999959
 30
0.0
  0
VERTEX
  5
1248CD
  8
SLIM
 10
10073.814954576221
 20
-1253.9999999999959
 30
0.0
  0
VERTEX
  5
1248CE
  8
SLIM
 10
10068.907477288099
 20
-1245.4999999999959
 30
0.0
  0
SEQEND
  5
1248CF
  8
SLIM
  0
CIRCLE
  5
1246AA
  8
SLIM
 10
9968.0
 20
-1198.574374157789
 30
0.0
 40
4.9999999999999991
1001
ACDBBLOCKREPETAG
1070
     1
1071
       12
1005
1246AA
  0
ARC
  5
1246AB
  8
OBJECT
 10
9968.0
 20
-1198.574374157789
 30
0.0
 40
12.0
 50
79.962626870012684
 51
160.03737312997501
1001
ACDBBLOCKREPETAG
1070
     1
1071
       13
1005
1246AB
  0
LINE
  5
1246AC
  8
OBJECT
 10
9942.6651535735436
 20
-1233.174165436757
 30
0.0
 11
9956.7210138177488
 21
-1194.4774886699411
 31
0.0
1001
ACDBBLOCKREPETAG
1070
     1
1071
       14
1005
1246AC
  0
LINE
  5
1246AD
  8
OBJECT
 10
10010.631721426451
 20
-1193.9336491909919
 30
0.0
 11
9970.091486182253
 21
-1186.7580428511019
 31
0.0
1001
ACDBBLOCKREPETAG
1070
     1
1071
       15
1005
1246AD
  0
POLYLINE
  5
1246AE
  8
SLIM
 66
     1
 10
0.0
 20
0.0
 30
0.0
 70
     1
1001
ACDBBLOCKREPETAG
1070
     1
1071
       16
1005
1246AE
  0
VERTEX
  5
1248D0
  8
SLIM
 10
9963.0925227118896
 20
-1207.074374157789
 30
0.0
  0
VERTEX
  5
1248D1
  8
SLIM
 10
9972.9074772881177
 20
-1207.074374157793
 30
0.0
  0
VERTEX
  5
1248D2
  8
SLIM
 10
9977.814954576219
 20
-1198.574374157789
 30
0.0
  0
VERTEX
  5
1248D3
  8
SLIM
 10
9972.9074772881177
 20
-1190.074374157793
 30
0.0
  0
VERTEX
  5
1248D4
  8
SLIM
 10
9963.0925227118896
 20
-1190.074374157789
 30
0.0
  0
VERTEX
  5
1248D5
  8
SLIM
 10
9958.1850454237738
 20
-1198.574374157793
 30
0.0
  0
SEQEND
  5
1248D6
  8
SLIM
  0
CIRCLE
  5
1246AF
  8
SLIM
 10
9968.0
 20
-1309.425625842199
 30
0.0
 40
5.0
1001
ACDBBLOCKREPETAG
1070
     1
1071
       17
1005
1246AF
  0
ARC
  5
1246B0
  8
OBJECT
 10
9968.0
 20
-1309.425625842199
 30
0.0
 40
12.0
 50
199.96262687002491
 51
280.03737312998732
1001
ACDBBLOCKREPETAG
1070
     1
1071
       18
1005
1246B0
  0
LINE
  5
1246B1
  8
OBJECT
 10
10010.631721426451
 20
-1314.0663508089999
 30
0.0
 11
9970.091486182253
 21
-1321.241957148889
 31
0.0
1001
ACDBBLOCKREPETAG
1070
     1
1071
       19
1005
1246B1
  0
LINE
  5
1246B2
  8
OBJECT
 10
9942.6651535735436
 20
-1274.825834563231
 30
0.0
 11
9956.7210138177488
 21
-1313.522511330051
 31
0.0
1001
ACDBBLOCKREPETAG
1070
     1
1071
       20
1005
1246B2
  0
POLYLINE
  5
1246B3
  8
SLIM
 66
     1
 10
0.0
 20
0.0
 30
0.0
 70
     1
1001
ACDBBLOCKREPETAG
1070
     1
1071
       21
1005
1246B3
  0
VERTEX
  5
1248D7
  8
SLIM
 10
9977.814954576219
 20
-1309.425625842199
 30
0.0
  0
VERTEX
  5
1248D8
  8
SLIM
 10
9972.9074772881049
 20
-1300.925625842199
 30
0.0
  0
VERTEX
  5
1248D9
  8
SLIM
 10
9963.0925227118896
 20
-1300.925625842199
 30
0.0
  0
VERTEX
  5
1248DA
  8
SLIM
 10
9958.1850454237738
 20
-1309.425625842199
 30
0.0
  0
VERTEX
  5
1248DB
  8
SLIM
 10
9963.0925227118896
 20
-1317.925625842199
 30
0.0
  0
VERTEX
  5
1248DC
  8
SLIM
 10
9972.9074772881177
 20
-1317.925625842199
 30
0.0
  0
SEQEND
  5
1248DD
  8
SLIM
  0
LINE
  5
1246B4
  8
CENTER
 10
5924.0
 20
-1294.9999999999991
 30
0.0
 11
6091.0
 21
-1294.9999999999991
 31
0.0
1001
ACDBBLOCKREPETAG
1070
     1
1071
       22
1005
1246B4
  0
LINE
  5
1246B5
  8
CENTER
 10
6000.0
 20
-1218.0518385105161
 30
0.0
 11
6000.0
 21
-1371.948161489478
 31
0.0
1001
ACDBBLOCKREPETAG
1070
     1
1071
       23
1005
1246B5
  0
CIRCLE
  5
1246B6
  8
OBJECT
 10
6000.0
 20
-1294.9999999999991
 30
0.0
 40
37.5
1001
ACDBBLOCKREPETAG
1070
     1
1071
       24
1005
1246B6
  0
CIRCLE
  5
1246B7
  8
OBJECT
 10
6000.0
 20
-1294.9999999999991
 30
0.0
 40
47.5
1001
ACDBBLOCKREPETAG
1070
     1
1071
       25
1005
1246B7
  0
ARC
  5
1246B8
  8
OBJECT
 10
6000.0
 20
-1294.9999999999991
 30
0.0
 40
61.0
 50
40.03737312998139
 51
79.962626870012684
1001
ACDBBLOCKREPETAG
1070
     1
1071
       26
1005
1246B8
  0
ARC
  5
1246B9
  8
OBJECT
 10
6000.0
 20
-1294.9999999999991
 30
0.0
 40
61.0
 50
160.03737312997501
 51
199.96262687002491
1001
ACDBBLOCKREPETAG
1070
     1
1071
       27
1005
1246B9
  0
ARC
  5
1246BA
  8
OBJECT
 10
6000.0
 20
-1294.9999999999991
 30
0.0
 40
61.0
 50
280.03737312998732
 51
319.9626268700186
1001
ACDBBLOCKREPETAG
1070
     1
1071
       28
1005
1246BA
  0
ARC
  5
1246BB
  8
OBJECT
 10
6064.0
 20
-1294.9999999999991
 30
0.0
 40
12.0
 50
319.9626268700186
 51
40.03737312998139
1001
ACDBBLOCKREPETAG
1070
     1
1071
       29
1005
1246BB
  0
LINE
  5
1246BC
  8
OBJECT
 10
6046.703125
 20
-1255.7594837542299
 30
0.0
 11
6073.1875
 21
-1287.2805541811599
 31
0.0
1001
ACDBBLOCKREPETAG
1070
     1
1071
       30
1005
1246BC
  0
LINE
  5
1246BD
  8
OBJECT
 10
6046.703125
 20
-1334.240516245768
 30
0.0
 11
6073.1875
 21
-1302.719445818838
 31
0.0
1001
ACDBBLOCKREPETAG
1070
     1
1071
       31
1005
1246BD
  0
CIRCLE
  5
1246BE
  8
OBJECT
 10
6000.0
 20
-1294.9999999999991
 30
0.0
 40
55.0
1001
ACDBBLOCKREPETAG
1070
     1
1071
       32
1005
1246BE
  0
ARC
  5
1246BF
  8
OBJECT
 10
6064.0
 20
-1294.9999999999991
 30
0.0
 40
12.0
 50
271.2434956101261
 51
88.756504389873882
1001
ACDBBLOCKREPETAG
1070
     1
1071
       33
1005
1246BF
  0
ARC
  5
1246C0
  8
OBJECT
 10
6064.5859375
 20
-1268.006358577504
 30
0.0
 40
15.0
 50
202.68245018366949
 51
268.7565043898739
1001
ACDBBLOCKREPETAG
1070
     1
1071
       34
1005
1246C0
  0
CIRCLE
  5
1246C1
  8
SLIM
 10
6064.0
 20
-1294.9999999999991
 30
0.0
 40
8.0
1001
ACDBBLOCKREPETAG
1070
     1
1071
       35
1005
1246C1
  0
POLYLINE
  5
1246C2
  8
SLIM
 66
     1
 10
0.0
 20
0.0
 30
0.0
 70
     1
1001
ACDBBLOCKREPETAG
1070
     1
1071
       36
1005
1246C2
  0
VERTEX
  5
1248DE
  8
SLIM
 10
6061.69059892324
 20
-1290.9999999999991
 30
0.0
  0
VERTEX
  5
1248DF
  8
SLIM
 10
6059.3811978464846
 20
-1294.9999999999991
 30
0.0
  0
VERTEX
  5
1248E0
  8
SLIM
 10
6061.69059892324
 20
-1298.9999999999991
 30
0.0
  0
VERTEX
  5
1248E1
  8
SLIM
 10
6066.30940107676
 20
-1298.9999999999991
 30
0.0
  0
VERTEX
  5
1248E2
  8
SLIM
 10
6068.6188021535154
 20
-1294.9999999999991
 30
0.0
  0
VERTEX
  5
1248E3
  8
SLIM
 10
6066.30940107676
 20
-1290.9999999999991
 30
0.0
  0
SEQEND
  5
1248E4
  8
SLIM
  0
ARC
  5
1246C3
  8
OBJECT
 10
6064.5859375
 20
-1321.993641422489
 30
0.0
 40
15.0
 50
91.243495610126089
 51
157.3175498163304
1001
ACDBBLOCKREPETAG
1070
     1
1071
       37
1005
1246C3
  0
ARC
  5
1246C4
  8
OBJECT
 10
5968.0
 20
-1239.5743741577919
 30
0.0
 40
12.0
 50
79.962626870012684
 51
160.03737312997501
1001
ACDBBLOCKREPETAG
1070
     1
1071
       38
1005
1246C4
  0
LINE
  5
1246C5
  8
OBJECT
 10
5942.6651535735473
 20
-1274.1741654367599
 30
0.0
 11
5956.721013817747
 21
-1235.477488669944
 31
0.0
1001
ACDBBLOCKREPETAG
1070
     1
1071
       39
1005
1246C5
  0
LINE
  5
1246C6
  8
OBJECT
 10
6010.6317214264518
 20
-1234.9336491909951
 30
0.0
 11
5970.091486182253
 21
-1227.7580428511051
 31
0.0
1001
ACDBBLOCKREPETAG
1070
     1
1071
       40
1005
1246C6
  0
ARC
  5
1246C7
  8
OBJECT
 10
5968.0
 20
-1239.5743741577919
 30
0.0
 40
12.0
 50
31.243495610056922
 51
208.7565043898139
1001
ACDBBLOCKREPETAG
1070
     1
1071
       41
1005
1246C7
  0
ARC
  5
1246C8
  8
OBJECT
 10
5944.3298520374738
 20
-1252.56375810901
 30
0.0
 40
15.0
 50
322.68245018387239
 51
28.756504389813902
1001
ACDBBLOCKREPETAG
1070
     1
1071
       42
1005
1246C8
  0
CIRCLE
  5
1246C9
  8
SLIM
 10
5968.0
 20
-1239.5743741577919
 30
0.0
 40
7.9999999999999982
1001
ACDBBLOCKREPETAG
1070
     1
1071
       43
1005
1246C9
  0
POLYLINE
  5
1246CA
  8
SLIM
 66
     1
 10
0.0
 20
0.0
 30
0.0
 70
     1
1001
ACDBBLOCKREPETAG
1070
     1
1071
       44
1005
1246CA
  0
VERTEX
  5
1248E5
  8
SLIM
 10
5965.6905989232419
 20
-1243.574374157796
 30
0.0
  0
VERTEX
  5
1248E6
  8
SLIM
 10
5970.30940107676
 20
-1243.5743741577919
 30
0.0
  0
VERTEX
  5
1248E7
  8
SLIM
 10
5972.6188021535154
 20
-1239.574374157796
 30
0.0
  0
VERTEX
  5
1248E8
  8
SLIM
 10
5970.3094010767572
 20
-1235.5743741577919
 30
0.0
  0
VERTEX
  5
1248E9
  8
SLIM
 10
5965.6905989232419
 20
-1235.574374157796
 30
0.0
  0
VERTEX
  5
1248EA
  8
SLIM
 10
5963.3811978464846
 20
-1239.5743741577919
 30
0.0
  0
SEQEND
  5
1248EB
  8
SLIM
  0
ARC
  5
1246CB
  8
OBJECT
 10
5991.0842104625253
 20
-1225.570116686516
 30
0.0
 40
15.0
 50
211.2434956100569
 51
277.31754981622862
1001
ACDBBLOCKREPETAG
1070
     1
1071
       45
1005
1246CB
  0
ARC
  5
1246CC
  8
OBJECT
 10
5968.0
 20
-1350.425625842202
 30
0.0
 40
12.0
 50
199.96262687002491
 51
280.03737312998732
1001
ACDBBLOCKREPETAG
1070
     1
1071
       46
1005
1246CC
  0
LINE
  5
1246CD
  8
OBJECT
 10
6010.6317214264518
 20
-1355.0663508090031
 30
0.0
 11
5970.091486182253
 21
-1362.241957148892
 31
0.0
1001
ACDBBLOCKREPETAG
1070
     1
1071
       47
1005
1246CD
  0
LINE
  5
1246CE
  8
OBJECT
 10
5942.6651535735473
 20
-1315.8258345632339
 30
0.0
 11
5956.721013817747
 21
-1354.5225113300539
 31
0.0
1001
ACDBBLOCKREPETAG
1070
     1
1071
       48
1005
1246CE
  0
ARC
  5
1246CF
  8
OBJECT
 10
5968.0
 20
-1350.425625842202
 30
0.0
 40
12.0
 50
151.2434956101861
 51
328.75650438994307
1001
ACDBBLOCKREPETAG
1070
     1
1071
       49
1005
1246CF
  0
ARC
  5
1246D0
  8
OBJECT
 10
5991.0842104625253
 20
-1364.4298833134769
 30
0.0
 40
15.0
 50
82.682450183771394
 51
148.75650438994299
1001
ACDBBLOCKREPETAG
1070
     1
1071
       50
1005
1246D0
  0
CIRCLE
  5
1246D1
  8
SLIM
 10
5968.0
 20
-1350.425625842202
 30
0.0
 40
8.0
1001
ACDBBLOCKREPETAG
1070
     1
1071
       51
1005
1246D1
  0
POLYLINE
  5
1246D2
  8
SLIM
 66
     1
 10
0.0
 20
0.0
 30
0.0
 70
     1
1001
ACDBBLOCKREPETAG
1070
     1
1071
       52
1005
1246D2
  0
VERTEX
  5
1248EC
  8
SLIM
 10
5972.6188021535154
 20
-1350.425625842202
 30
0.0
  0
VERTEX
  5
1248ED
  8
SLIM
 10
5970.3094010767572
 20
-1346.425625842202
 30
0.0
  0
VERTEX
  5
1248EE
  8
SLIM
 10
5965.6905989232419
 20
-1346.425625842202
 30
0.0
  0
VERTEX
  5
1248EF
  8
SLIM
 10
5963.3811978464846
 20
-1350.425625842202
 30
0.0
  0
VERTEX
  5
1248F0
  8
SLIM
 10
5965.69059892324
 20
-1354.425625842202
 30
0.0
  0
VERTEX
  5
1248F1
  8
SLIM
 10
5970.3094010767572
 20
-1354.425625842202
 30
0.0
  0
SEQEND
  5
1248F2
  8
SLIM
  0
ARC
  5
1246D3
  8
OBJECT
 10
5944.3298520374738
 20
-1337.436241890987
 30
0.0
 40
15.0
 50
331.24349561018607
 51
37.317549816127681
1001
ACDBBLOCKREPETAG
1070
     1
1071
       53
1005
1246D3
  0
LINE
  5
1246D4
  8
CENTER
 10
3924.0
 20
-1253.9999999999959
 30
0.0
 11
4091.0
 21
-1253.9999999999959
 31
0.0
1001
ACDBBLOCKREPETAG
1070
     1
1071
        0
1005
1246D4
  0
LINE
  5
1246D5
  8
CENTER
 10
4000.0
 20
-1177.0518385105131
 30
0.0
 11
4000.0
 21
-1330.9481614894751
 31
0.0
1001
ACDBBLOCKREPETAG
1070
     1
1071
        1
1005
1246D5
  0
CIRCLE
  5
1246D6
  8
OBJECT
 10
4000.0
 20
-1253.9999999999959
 30
0.0
 40
37.5
1001
ACDBBLOCKREPETAG
1070
     1
1071
        2
1005
1246D6
  0
CIRCLE
  5
1246D7
  8
OBJECT
 10
4000.0
 20
-1253.9999999999959
 30
0.0
 40
49.5
1001
ACDBBLOCKREPETAG
1070
     1
1071
        3
1005
1246D7
  0
ARC
  5
1246D8
  8
OBJECT
 10
4000.0
 20
-1253.9999999999959
 30
0.0
 40
61.0
 50
40.03737312998139
 51
79.962626870012684
1001
ACDBBLOCKREPETAG
1070
     1
1071
        4
1005
1246D8
  0
ARC
  5
1246D9
  8
OBJECT
 10
4000.0
 20
-1253.9999999999959
 30
0.0
 40
61.0
 50
160.03737312997501
 51
199.96262687002491
1001
ACDBBLOCKREPETAG
1070
     1
1071
        5
1005
1246D9
  0
ARC
  5
1246DA
  8
OBJECT
 10
4000.0
 20
-1253.9999999999959
 30
0.0
 40
61.0
 50
280.03737312998732
 51
319.9626268700186
1001
ACDBBLOCKREPETAG
1070
     1
1071
        6
1005
1246DA
  0
CIRCLE
  5
1246DB
  8
SLIM
 10
4064.0
 20
-1253.9999999999959
 30
0.0
 40
5.0
1001
ACDBBLOCKREPETAG
1070
     1
1071
        7
1005
1246DB
  0
ARC
  5
1246DC
  8
OBJECT
 10
4064.0
 20
-1253.9999999999959
 30
0.0
 40
12.0
 50
319.9626268700186
 51
40.03737312998139
1001
ACDBBLOCKREPETAG
1070
     1
1071
        8
1005
1246DC
  0
LINE
  5
1246DD
  8
OBJECT
 10
4046.7031249999982
 20
-1214.7594837542269
 30
0.0
 11
4073.1875
 21
-1246.280554181157
 31
0.0
1001
ACDBBLOCKREPETAG
1070
     1
1071
        9
1005
1246DD
  0
LINE
  5
1246DE
  8
OBJECT
 10
4046.7031249999982
 20
-1293.2405162457651
 30
0.0
 11
4073.1875
 21
-1261.7194458188339
 31
0.0
1001
ACDBBLOCKREPETAG
1070
     1
1071
       10
1005
1246DE
  0
POLYLINE
  5
1246DF
  8
SLIM
 66
     1
 10
0.0
 20
0.0
 30
0.0
 70
     1
1001
ACDBBLOCKREPETAG
1070
     1
1071
       11
1005
1246DF
  0
VERTEX
  5
1248F3
  8
SLIM
 10
4059.0925227118851
 20
-1245.4999999999959
 30
0.0
  0
VERTEX
  5
1248F4
  8
SLIM
 10
4054.1850454237701
 20
-1253.9999999999959
 30
0.0
  0
VERTEX
  5
1248F5
  8
SLIM
 10
4059.0925227118851
 20
-1262.4999999999959
 30
0.0
  0
VERTEX
  5
1248F6
  8
SLIM
 10
4068.9074772881072
 20
-1262.4999999999959
 30
0.0
  0
VERTEX
  5
1248F7
  8
SLIM
 10
4073.8149545762199
 20
-1253.9999999999959
 30
0.0
  0
VERTEX
  5
1248F8
  8
SLIM
 10
4068.9074772881072
 20
-1245.4999999999959
 30
0.0
  0
SEQEND
  5
1248F9
  8
SLIM
  0
CIRCLE
  5
1246E0
  8
SLIM
 10
3968.0
 20
-1198.574374157789
 30
0.0
 40
4.9999999999999991
1001
ACDBBLOCKREPETAG
1070
     1
1071
       12
1005
1246E0
  0
ARC
  5
1246E1
  8
OBJECT
 10
3968.0
 20
-1198.574374157789
 30
0.0
 40
12.0
 50
79.962626870012684
 51
160.03737312997501
1001
ACDBBLOCKREPETAG
1070
     1
1071
       13
1005
1246E1
  0
LINE
  5
1246E2
  8
OBJECT
 10
3942.6651535735441
 20
-1233.174165436757
 30
0.0
 11
3956.721013817747
 21
-1194.4774886699411
 31
0.0
1001
ACDBBLOCKREPETAG
1070
     1
1071
       14
1005
1246E2
  0
LINE
  5
1246E3
  8
OBJECT
 10
4010.6317214264491
 20
-1193.9336491909919
 30
0.0
 11
3970.091486182253
 21
-1186.7580428511019
 31
0.0
1001
ACDBBLOCKREPETAG
1070
     1
1071
       15
1005
1246E3
  0
POLYLINE
  5
1246E4
  8
SLIM
 66
     1
 10
0.0
 20
0.0
 30
0.0
 70
     1
1001
ACDBBLOCKREPETAG
1070
     1
1071
       16
1005
1246E4
  0
VERTEX
  5
1248FA
  8
SLIM
 10
3963.092522711886
 20
-1207.074374157789
 30
0.0
  0
VERTEX
  5
1248FB
  8
SLIM
 10
3972.907477288114
 20
-1207.074374157793
 30
0.0
  0
VERTEX
  5
1248FC
  8
SLIM
 10
3977.8149545762212
 20
-1198.574374157789
 30
0.0
  0
VERTEX
  5
1248FD
  8
SLIM
 10
3972.907477288114
 20
-1190.074374157793
 30
0.0
  0
VERTEX
  5
1248FE
  8
SLIM
 10
3963.092522711886
 20
-1190.074374157789
 30
0.0
  0
VERTEX
  5
1248FF
  8
SLIM
 10
3958.185045423772
 20
-1198.574374157793
 30
0.0
  0
SEQEND
  5
124900
  8
SLIM
  0
CIRCLE
  5
1246E5
  8
SLIM
 10
3968.0
 20
-1309.425625842199
 30
0.0
 40
5.0
1001
ACDBBLOCKREPETAG
1070
     1
1071
       17
1005
1246E5
  0
ARC
  5
1246E6
  8
OBJECT
 10
3968.0
 20
-1309.425625842199
 30
0.0
 40
12.0
 50
199.96262687002491
 51
280.03737312998732
1001
ACDBBLOCKREPETAG
1070
     1
1071
       18
1005
1246E6
  0
LINE
  5
1246E7
  8
OBJECT
 10
4010.6317214264491
 20
-1314.0663508089999
 30
0.0
 11
3970.091486182253
 21
-1321.241957148889
 31
0.0
1001
ACDBBLOCKREPETAG
1070
     1
1071
       19
1005
1246E7
  0
LINE
  5
1246E8
  8
OBJECT
 10
3942.6651535735441
 20
-1274.825834563231
 30
0.0
 11
3956.721013817747
 21
-1313.522511330051
 31
0.0
1001
ACDBBLOCKREPETAG
1070
     1
1071
       20
1005
1246E8
  0
POLYLINE
  5
1246E9
  8
SLIM
 66
     1
 10
0.0
 20
0.0
 30
0.0
 70
     1
1001
ACDBBLOCKREPETAG
1070
     1
1071
       21
1005
1246E9
  0
VERTEX
  5
124901
  8
SLIM
 10
3977.8149545762212
 20
-1309.425625842199
 30
0.0
  0
VERTEX
  5
124902
  8
SLIM
 10
3972.9074772881072
 20
-1300.925625842199
 30
0.0
  0
VERTEX
  5
124903
  8
SLIM
 10
3963.092522711886
 20
-1300.925625842199
 30
0.0
  0
VERTEX
  5
124904
  8
SLIM
 10
3958.185045423772
 20
-1309.425625842199
 30
0.0
  0
VERTEX
  5
124905
  8
SLIM
 10
3963.092522711886
 20
-1317.925625842199
 30
0.0
  0
VERTEX
  5
124906
  8
SLIM
 10
3972.907477288114
 20
-1317.925625842199
 30
0.0
  0
SEQEND
  5
124907
  8
SLIM
  0
LINE
  5
1246EA
  8
OBJECT
 10
2044.5
 20
-979.99999999999204
 30
0.0
 11
1955.5
 21
-979.99999999999204
 31
0.0
1001
ACDBBLOCKREPETAG
1070
     1
1071
        0
1005
1246EA
  0
LINE
  5
1246EB
  8
OBJECT
 10
1935.0
 20
-769.99999999999204
 30
0.0
 11
1935.0
 21
-669.99999999999216
 31
0.0
1001
ACDBBLOCKREPETAG
1070
     1
1071
        1
1005
1246EB
  0
LINE
  5
1246EC
  8
OBJECT
 10
2065.0
 20
-769.99999999999204
 30
0.0
 11
2065.0
 21
-669.99999999999216
 31
0.0
1001
ACDBBLOCKREPETAG
1070
     1
1071
        2
1005
1246EC
  0
LINE
  5
1246ED
  8
OBJECT
 10
1935.0
 20
-769.99999999999204
 30
0.0
 11
2065.0
 21
-769.99999999999204
 31
0.0
1001
ACDBBLOCKREPETAG
1070
     1
1071
        3
1005
1246ED
  0
LINE
  5
1246EE
  8
OBJECT
 10
1955.5
 20
-879.99999999999204
 30
0.0
 11
2044.5
 21
-879.99999999999204
 31
0.0
1001
ACDBBLOCKREPETAG
1070
     1
1071
        4
1005
1246EE
  0
LINE
  5
1246EF
  8
OBJECT
 10
1955.5
 20
-879.99999999999204
 30
0.0
 11
1955.5
 21
-979.99999999999204
 31
0.0
1001
ACDBBLOCKREPETAG
1070
     1
1071
        5
1005
1246EF
  0
LINE
  5
1246F0
  8
OBJECT
 10
2044.5
 20
-879.99999999999204
 30
0.0
 11
2044.5
 21
-979.99999999999204
 31
0.0
1001
ACDBBLOCKREPETAG
1070
     1
1071
        6
1005
1246F0
  0
LINE
  5
1246F1
  8
OBJECT
 10
1935.0
 20
-769.99999999999204
 30
0.0
 11
1955.5
 21
-879.99999999999204
 31
0.0
1001
ACDBBLOCKREPETAG
1070
     1
1071
        7
1005
1246F1
  0
LINE
  5
1246F2
  8
OBJECT
 10
2044.5
 20
-879.99999999999204
 30
0.0
 11
2065.0
 21
-769.99999999999204
 31
0.0
1001
ACDBBLOCKREPETAG
1070
     1
1071
        8
1005
1246F2
  0
LINE
  5
1246F3
  8
HIDDEN
 10
1962.5
 20
-879.99999999999204
 30
0.0
 11
1962.5
 21
-979.99999999999204
 31
0.0
1001
ACDBBLOCKREPETAG
1070
     1
1071
        9
1005
1246F3
  0
LINE
  5
1246F4
  8
HIDDEN
 10
2037.5
 20
-879.99999999999204
 30
0.0
 11
2037.5
 21
-979.99999999999204
 31
0.0
1001
ACDBBLOCKREPETAG
1070
     1
1071
       10
1005
1246F4
  0
LINE
  5
1246F5
  8
CENTER
 10
2000.0
 20
-669.99999999999955
 30
0.0
 11
2000.0
 21
-994.99999999999216
 31
0.0
1001
ACDBBLOCKREPETAG
1070
     1
1071
       11
1005
1246F5
  0
LINE
  5
1246F6
  8
OBJECT
 10
1927.0
 20
-533.99999999999955
 30
0.0
 11
1930.0
 21
-533.99999999999955
 31
0.0
1001
ACDBBLOCKREPETAG
1070
     1
1071
        1
1005
1246F6
  0
ARC
  5
1246F7
  8
OBJECT
 10
1927.0
 20
-536.99999999999955
 30
0.0
 40
3.0
 50
90.0
 51
180.0
1001
ACDBBLOCKREPETAG
1070
     1
1071
        2
1005
1246F7
  0
LINE
  5
1246F8
  8
OBJECT
 10
1930.0
 20
-657.99999999999955
 30
0.0
 11
1927.0
 21
-657.99999999999955
 31
0.0
1001
ACDBBLOCKREPETAG
1070
     1
1071
        3
1005
1246F8
  0
ARC
  5
1246F9
  8
OBJECT
 10
1927.0
 20
-654.99999999999966
 30
0.0
 40
3.0
 50
180.0
 51
270.0
1001
ACDBBLOCKREPETAG
1070
     1
1071
        4
1005
1246F9
  0
LINE
  5
1246FA
  8
OBJECT
 10
1924.0
 20
-654.99999999999966
 30
0.0
 11
1924.0
 21
-536.99999999999955
 31
0.0
1001
ACDBBLOCKREPETAG
1070
     1
1071
        5
1005
1246FA
  0
CIRCLE
  5
1246FB
  8
OBJECT
 10
2000.0
 20
-596.0
 30
0.0
 40
62.0
1001
ACDBBLOCKREPETAG
1070
     1
1071
        0
1005
1246FB
  0
LINE
  5
1246FC
  8
OBJECT
 10
1935.0
 20
-449.99999999999937
 30
0.0
 11
1935.0
 21
-470.99999999999937
 31
0.0
1001
ACDBBLOCKREPETAG
1070
     1
1071
       16
1005
1246FC
  0
LINE
  5
1246FD
  8
OBJECT
 10
1935.0
 20
-470.99999999999937
 30
0.0
 11
2065.0
 21
-470.99999999999937
 31
0.0
1001
ACDBBLOCKREPETAG
1070
     1
1071
       17
1005
1246FD
  0
LINE
  5
1246FE
  8
OBJECT
 10
2065.0
 20
-470.99999999999937
 30
0.0
 11
2065.0
 21
-449.99999999999937
 31
0.0
1001
ACDBBLOCKREPETAG
1070
     1
1071
       18
1005
1246FE
  0
LINE
  5
1246FF
  8
OBJECT
 10
2065.0
 20
-449.99999999999937
 30
0.0
 11
1935.0
 21
-449.99999999999937
 31
0.0
1001
ACDBBLOCKREPETAG
1070
     1
1071
       19
1005
1246FF
  0
LINE
  5
124700
  8
HIDDEN
 10
2044.5
 20
-519.99999999999955
 30
0.0
 11
1955.5
 21
-519.99999999999955
 31
0.0
1001
ACDBBLOCKREPETAG
1070
     1
1071
       20
1005
124700
  0
LINE
  5
124701
  8
CENTER
 10
2000.0
 20
-669.99999999999955
 30
0.0
 11
2000.0
 21
-434.99999999999949
 31
0.0
1001
ACDBBLOCKREPETAG
1070
     1
1071
       21
1005
124701
  0
LINE
  5
124702
  8
OBJECT
 10
1940.5
 20
-470.99999999999937
 30
0.0
 11
1940.5
 21
-533.99999999999955
 31
0.0
1001
ACDBBLOCKREPETAG
1070
     1
1071
       22
1005
124702
  0
LINE
  5
124703
  8
OBJECT
 10
1930.0
 20
-533.99999999999955
 30
0.0
 11
2070.0
 21
-533.99999999999955
 31
0.0
1001
ACDBBLOCKREPETAG
1070
     1
1071
       23
1005
124703
  0
LINE
  5
124704
  8
OBJECT
 10
2059.5
 20
-533.99999999999955
 30
0.0
 11
2059.5
 21
-470.99999999999937
 31
0.0
1001
ACDBBLOCKREPETAG
1070
     1
1071
       24
1005
124704
  0
LINE
  5
124705
  8
OBJECT
 10
1930.0
 20
-657.99999999999955
 30
0.0
 11
1930.0
 21
-669.99999999999955
 31
0.0
1001
ACDBBLOCKREPETAG
1070
     1
1071
       25
1005
124705
  0
LINE
  5
124706
  8
OBJECT
 10
1930.0
 20
-669.99999999999955
 30
0.0
 11
2070.0
 21
-669.99999999999955
 31
0.0
1001
ACDBBLOCKREPETAG
1070
     1
1071
       26
1005
124706
  0
LINE
  5
124707
  8
OBJECT
 10
2070.0
 20
-669.99999999999955
 30
0.0
 11
2070.0
 21
-657.99999999999955
 31
0.0
1001
ACDBBLOCKREPETAG
1070
     1
1071
       27
1005
124707
  0
LINE
  5
124708
  8
OBJECT
 10
2070.0
 20
-657.99999999999955
 30
0.0
 11
1930.0
 21
-657.99999999999955
 31
0.0
1001
ACDBBLOCKREPETAG
1070
     1
1071
       28
1005
124708
  0
ARC
  5
124709
  8
OBJECT
 10
2435.0384389946771
 20
-898.60813684682694
 30
0.0
 40
519.48776673616965
 50
135.4235066743189
 51
138.50052655621499
1001
ACDBBLOCKREPETAG
1070
     1
1071
       32
1005
124709
  0
ARC
  5
12470A
  8
OBJECT
 10
2435.0384389946771
 20
-293.39186315317193
 30
0.0
 40
519.48776673616965
 50
221.49947344378501
 51
224.57649332568101
1001
ACDBBLOCKREPETAG
1070
     1
1071
       33
1005
12470A
  0
ARC
  5
12470B
  8
OBJECT
 10
1564.961561005322
 20
-898.60813684682694
 30
0.0
 40
519.48776673616965
 50
41.499473443784993
 51
44.576493325681092
1001
ACDBBLOCKREPETAG
1070
     1
1071
       34
1005
12470B
  0
ARC
  5
12470C
  8
OBJECT
 10
1564.961561005322
 20
-293.39186315317193
 30
0.0
 40
519.48776673616965
 50
315.4235066743189
 51
318.50052655621488
1001
ACDBBLOCKREPETAG
1070
     1
1071
       35
1005
12470C
  0
POINT
  5
12470D
  8
DOTS
 10
2000.0
 20
-654.99999999999966
 30
0.0
1001
ACDBBLOCKREPETAG
1070
     1
1071
      111
1005
12470D
  0
LINE
  5
12470E
  8
CENTER
 10
1909.0
 20
-199.99999999999909
 30
0.0
 11
1930.0
 21
-199.99999999999909
 31
0.0
1001
ACDBBLOCKREPETAG
1070
     1
1071
        0
1005
12470E
  0
LINE
  5
12470F
  8
OBJECT
 10
1927.0
 20
-261.99999999999909
 30
0.0
 11
1930.0
 21
-261.99999999999909
 31
0.0
1001
ACDBBLOCKREPETAG
1070
     1
1071
        1
1005
12470F
  0
ARC
  5
124710
  8
OBJECT
 10
1927.0
 20
-258.99999999999909
 30
0.0
 40
3.0
 50
180.0
 51
270.0
1001
ACDBBLOCKREPETAG
1070
     1
1071
        2
1005
124710
  0
LINE
  5
124711
  8
OBJECT
 10
1930.0
 20
-137.99999999999909
 30
0.0
 11
1927.0
 21
-137.99999999999909
 31
0.0
1001
ACDBBLOCKREPETAG
1070
     1
1071
        3
1005
124711
  0
ARC
  5
124712
  8
OBJECT
 10
1927.0
 20
-140.99999999999909
 30
0.0
 40
3.0
 50
90.0
 51
180.0
1001
ACDBBLOCKREPETAG
1070
     1
1071
        4
1005
124712
  0
LINE
  5
124713
  8
OBJECT
 10
1924.0
 20
-140.99999999999909
 30
0.0
 11
1924.0
 21
-258.99999999999909
 31
0.0
1001
ACDBBLOCKREPETAG
1070
     1
1071
        5
1005
124713
  0
LINE
  5
124714
  8
CENTER
 10
2000.0
 20
-290.99999999999898
 30
0.0
 11
2000.0
 21
-269.99999999999909
 31
0.0
1001
ACDBBLOCKREPETAG
1070
     1
1071
        0
1005
124714
  0
LINE
  5
124715
  8
OBJECT
 10
2062.0
 20
-273.0
 30
0.0
 11
2062.0
 21
-269.99999999999909
 31
0.0
1001
ACDBBLOCKREPETAG
1070
     1
1071
        1
1005
124715
  0
ARC
  5
124716
  8
OBJECT
 10
2059.0
 20
-273.0
 30
0.0
 40
3.0
 50
270.0
 51
0.0
1001
ACDBBLOCKREPETAG
1070
     1
1071
        2
1005
124716
  0
LINE
  5
124717
  8
OBJECT
 10
1938.0
 20
-269.99999999999909
 30
0.0
 11
1938.0
 21
-272.99999999999818
 31
0.0
1001
ACDBBLOCKREPETAG
1070
     1
1071
        3
1005
124717
  0
ARC
  5
124718
  8
OBJECT
 10
1941.0
 20
-272.99999999999818
 30
0.0
 40
3.0
 50
180.0
 51
270.0
1001
ACDBBLOCKREPETAG
1070
     1
1071
        4
1005
124718
  0
LINE
  5
124719
  8
OBJECT
 10
1941.0
 20
-275.99999999999818
 30
0.0
 11
2059.0
 21
-276.0
 31
0.0
1001
ACDBBLOCKREPETAG
1070
     1
1071
        5
1005
124719
  0
POINT
  5
12471A
  8
DOTS
 10
2000.0
 20
-199.99999999999909
 30
0.0
 50
270.0
1001
ACDBBLOCKREPETAG
1070
     1
1071
      153
1005
12471A
  0
ARC
  5
12471B
  8
OBJECT
 10
2000.0
 20
-199.99999999999909
 30
0.0
 40
70.0
 50
62.339550100758693
 51
117.6604498992413
1001
ACDBBLOCKREPETAG
1070
     1
1071
        0
1005
12471B
  0
CIRCLE
  5
12471C
  8
OBJECT
 10
2000.0
 20
-199.99999999999909
 30
0.0
 40
65.0
1001
ACDBBLOCKREPETAG
1070
     1
1071
        1
1005
12471C
  0
CIRCLE
  5
12471D
  8
OBJECT
 10
2000.0
 20
-199.99999999999909
 30
0.0
 40
41.0
1001
ACDBBLOCKREPETAG
1070
     1
1071
        2
1005
12471D
  0
CIRCLE
  5
12471E
  8
OBJECT
 10
2000.0
 20
-199.99999999999909
 30
0.0
 40
58.0
1001
ACDBBLOCKREPETAG
1070
     1
1071
        3
1005
12471E
  0
LINE
  5
12471F
  8
OBJECT
 10
2070.0
 20
-137.99999999999909
 30
0.0
 11
2019.5192212959439
 21
-137.99999999999909
 31
0.0
1001
ACDBBLOCKREPETAG
1070
     1
1071
        4
1005
12471F
  0
LINE
  5
124720
  8
OBJECT
 10
1930.0
 20
-137.99999999999909
 30
0.0
 11
1980.480778704057
 21
-137.99999999999909
 31
0.0
1001
ACDBBLOCKREPETAG
1070
     1
1071
        5
1005
124720
  0
LINE
  5
124721
  8
OBJECT
 10
1930.0
 20
-261.99999999999909
 30
0.0
 11
1938.0
 21
-261.99999999999909
 31
0.0
1001
ACDBBLOCKREPETAG
1070
     1
1071
        6
1005
124721
  0
LINE
  5
124722
  8
OBJECT
 10
1938.0
 20
-269.99999999999909
 30
0.0
 11
1938.0
 21
-261.99999999999909
 31
0.0
1001
ACDBBLOCKREPETAG
1070
     1
1071
        7
1005
124722
  0
LINE
  5
124723
  8
OBJECT
 10
2070.0
 20
-261.99999999999909
 30
0.0
 11
2062.0
 21
-261.99999999999909
 31
0.0
1001
ACDBBLOCKREPETAG
1070
     1
1071
        8
1005
124723
  0
LINE
  5
124724
  8
OBJECT
 10
2062.0
 20
-269.99999999999909
 30
0.0
 11
2062.0
 21
-261.99999999999909
 31
0.0
1001
ACDBBLOCKREPETAG
1070
     1
1071
        9
1005
124724
  0
LINE
  5
124725
  8
CENTER
 10
1930.0
 20
-199.99999999999909
 30
0.0
 11
2070.0
 21
-199.99999999999909
 31
0.0
1001
ACDBBLOCKREPETAG
1070
     1
1071
       10
1005
124725
  0
LINE
  5
124726
  8
CENTER
 10
2000.0
 20
-269.99999999999909
 30
0.0
 11
2000.0
 21
-114.9999999999991
 31
0.0
1001
ACDBBLOCKREPETAG
1070
     1
1071
       11
1005
124726
  0
ARC
  5
124727
  8
OBJECT
 10
1989.902762139187
 20
-224.44352901899131
 30
0.0
 40
7.0
 50
73.001272229706771
 51
154.05025878943769
1001
ACDBBLOCKREPETAG
1070
     1
1071
       12
1005
124727
  0
ARC
  5
124728
  8
OBJECT
 10
1986.8376610706509
 20
-225.5978773169509
 30
0.0
 40
9.0
 50
73.001272229706771
 51
154.05026392593041
1001
ACDBBLOCKREPETAG
1070
     1
1071
       13
1005
124728
  0
ARC
  5
124729
  8
OBJECT
 10
1896.3142301315529
 20
-147.28130031148149
 30
0.0
 40
150.0
 50
322.89503374001202
 51
325.8931499697137
1001
ACDBBLOCKREPETAG
1070
     1
1071
       14
1005
124729
  0
ARC
  5
12472A
  8
OBJECT
 10
2000.0
 20
-199.99999999999909
 30
0.0
 40
37.5
 50
303.16276667667131
 51
229.1635024908278
1001
ACDBBLOCKREPETAG
1070
     1
1071
       15
1005
12472A
  0
LINE
  5
12472B
  8
OBJECT
 10
1983.608514518975
 20
-221.38045100897119
 30
0.0
 11
1977.3740110000001
 21
-234.1915870000002
 31
0.0
1001
ACDBBLOCKREPETAG
1070
     1
1071
       16
1005
12472B
  0
LINE
  5
12472C
  8
OBJECT
 10
1978.745056634463
 20
-221.65963488670511
 30
0.0
 11
1973.898671999998
 21
-231.6183599999996
 31
0.0
1001
ACDBBLOCKREPETAG
1070
     1
1071
       17
1005
12472C
  0
LINE
  5
12472D
  8
OBJECT
 10
2018.938018000001
 20
-226.00000000000091
 30
0.0
 11
1989.468815303258
 21
-216.99107608744359
 31
0.0
1001
ACDBBLOCKREPETAG
1070
     1
1071
       18
1005
12472D
  0
LINE
  5
12472E
  8
OBJECT
 10
2020.5132253090051
 20
-231.39199878029191
 30
0.0
 11
2018.938018000001
 21
-226.00000000000091
 31
0.0
1001
ACDBBLOCKREPETAG
1070
     1
1071
       19
1005
12472E
  0
LINE
  5
12472F
  8
OBJECT
 10
1954.038059222873
 20
-245.96194077712471
 30
0.0
 11
1938.0
 21
-261.99999999999909
 31
0.0
1001
ACDBBLOCKREPETAG
1070
     1
1071
       42
1005
12472F
  0
LINE
  5
124730
  8
OBJECT
 10
2045.9619407771261
 20
-245.96194077712471
 30
0.0
 11
2062.0
 21
-261.99999999999909
 31
0.0
1001
ACDBBLOCKREPETAG
1070
     1
1071
       43
1005
124730
  0
LINE
  5
124731
  8
OBJECT
 10
2073.0
 20
-533.99999999999955
 30
0.0
 11
2070.0
 21
-533.99999999999955
 31
0.0
1001
ACDBBLOCKREPETAG
1070
     1
1071
        1
1005
124731
  0
ARC
  5
124732
  8
OBJECT
 10
2073.0
 20
-536.99999999999955
 30
0.0
 40
3.0
 50
0.0
 51
90.0
1001
ACDBBLOCKREPETAG
1070
     1
1071
        2
1005
124732
  0
LINE
  5
124733
  8
OBJECT
 10
2070.0
 20
-657.99999999999955
 30
0.0
 11
2073.0
 21
-657.99999999999955
 31
0.0
1001
ACDBBLOCKREPETAG
1070
     1
1071
        3
1005
124733
  0
ARC
  5
124734
  8
OBJECT
 10
2073.0
 20
-654.99999999999966
 30
0.0
 40
3.0
 50
270.0
 51
0.0
1001
ACDBBLOCKREPETAG
1070
     1
1071
        4
1005
124734
  0
LINE
  5
124735
  8
OBJECT
 10
2076.0
 20
-654.99999999999966
 30
0.0
 11
2076.0
 21
-536.99999999999955
 31
0.0
1001
ACDBBLOCKREPETAG
1070
     1
1071
        5
1005
124735
  0
LINE
  5
124736
  8
CENTER
 10
2091.0
 20
-199.99999999999909
 30
0.0
 11
2070.0
 21
-199.99999999999909
 31
0.0
1001
ACDBBLOCKREPETAG
1070
     1
1071
        0
1005
124736
  0
LINE
  5
124737
  8
OBJECT
 10
2073.0
 20
-137.99999999999909
 30
0.0
 11
2070.0
 21
-137.99999999999909
 31
0.0
1001
ACDBBLOCKREPETAG
1070
     1
1071
        1
1005
124737
  0
ARC
  5
124738
  8
OBJECT
 10
2073.0
 20
-140.99999999999909
 30
0.0
 40
3.0
 50
0.0
 51
90.0
1001
ACDBBLOCKREPETAG
1070
     1
1071
        2
1005
124738
  0
LINE
  5
124739
  8
OBJECT
 10
2070.0
 20
-261.99999999999909
 30
0.0
 11
2073.0
 21
-261.99999999999909
 31
0.0
1001
ACDBBLOCKREPETAG
1070
     1
1071
        3
1005
124739
  0
ARC
  5
12473A
  8
OBJECT
 10
2073.0
 20
-258.99999999999909
 30
0.0
 40
3.0
 50
270.0
 51
0.0
1001
ACDBBLOCKREPETAG
1070
     1
1071
        4
1005
12473A
  0
LINE
  5
12473B
  8
OBJECT
 10
2076.0
 20
-258.99999999999909
 30
0.0
 11
2076.0
 21
-140.99999999999909
 31
0.0
1001
ACDBBLOCKREPETAG
1070
     1
1071
        5
1005
12473B
  0
TEXT
  5
12473C
  8
SLIM
 10
0.0
 20
670.0
 30
0.0
 40
100.0
  1
3SL-0-S
 41
0.75
  0
TEXT
  5
12473D
  8
SLIM
 10
0.0
 20
520.0
 30
0.0
 40
100.0
  1
3SL-0-W
 41
0.75
  0
TEXT
  5
12473E
  8
SLIM
 10
3853.75
 20
-1521.4999999999959
 30
0.0
 40
35.0
  1
両受けスタイル（W）
 41
0.75
  0
TEXT
  5
12473F
  8
SLIM
 10
5811.8000000000002
 20
-1618.9999999999991
 30
0.0
 40
28.0
  1
※ 対応スラブ厚　150mm以上
 41
0.75
  0
TEXT
  5
124740
  8
SLIM
 10
5611.5
 20
-1712.333333333333
 30
0.0
 40
28.0
  1
国土交通大臣認定・（財）日本消防設備安全センター性能評定取得品
 41
0.75
  0
TEXT
  5
124741
  8
SLIM
 10
5631.1000000000004
 20
-1758.9999999999991
 30
0.0
 40
28.0
  1
注）ご採用にあたり、認定書及び評定書の内容をご確認ください。
 41
0.75
  0
TEXT
  5
124742
  8
SLIM
 10
11824.6
 20
-1577.9999999999959
 30
0.0
 40
28.0
  1
※ 対応スラブ厚　150～260
 41
0.75
  0
TEXT
  5
124743
  8
SLIM
 10
11611.5
 20
-1671.3333333333289
 30
0.0
 40
28.0
  1
国土交通大臣認定・（財）日本消防設備安全センター性能評定取得品
 41
0.75
  0
TEXT
  5
124744
  8
SLIM
 10
11631.1
 20
-1717.9999999999959
 30
0.0
 40
28.0
  1
注）ご採用にあたり、認定書及び評定書の内容をご確認ください。
 41
0.75
  0
TEXT
  5
124745
  8
SLIM
 10
9824.6000000000004
 20
-1577.9999999999959
 30
0.0
 40
28.0
  1
※ 対応スラブ厚　180～260
 41
0.75
  0
TEXT
  5
124746
  8
SLIM
 10
9611.5000000000018
 20
-1671.3333333333289
 30
0.0
 40
28.0
  1
国土交通大臣認定・（財）日本消防設備安全センター性能評定取得品
 41
0.75
  0
TEXT
  5
124747
  8
SLIM
 10
9631.1000000000004
 20
-1717.9999999999959
 30
0.0
 40
28.0
  1
注）ご採用にあたり、認定書及び評定書の内容をご確認ください。
 41
0.75
  0
TEXT
  5
124748
  8
SLIM
 10
9739.1250000000018
 20
-1521.4999999999959
 30
0.0
 40
35.0
  1
両受けスタイル（W）＋シンドカット
 41
0.75
  0
TEXT
  5
124749
  8
SLIM
 10
11743.5
 20
-1521.4999999999959
 30
0.0
 40
35.0
  1
カンペイ君（WKP）＋シンドカット
 41
0.75
  0
TEXT
  5
12474A
  8
SLIM
 10
7741.625
 20
-1247.499999999998
 30
0.0
 40
35.0
  1
片受けスタイル（S）＋シンドカット
 41
0.75
  0
TEXT
  5
12474B
  8
SLIM
 10
5858.1250000000009
 20
-1562.4999999999991
 30
0.0
 40
35.0
  1
カンペイ君（WKP）
 41
0.75
  0
TEXT
  5
12474C
  8
SLIM
 10
1856.25
 20
-1247.499999999998
 30
0.0
 40
35.0
  1
片受けスタイル（S）
 41
0.75
  0
TEXT
  5
12474D
  8
SLIM
 10
0.0
 20
370.0
 30
0.0
 40
100.0
  1
3SL-0-WKP
 41
0.75
  0
VIEWPORT
  5
F6BA7
 67
     1
  8
0
 10
145.33033752441401
 20
101.8328354358673
 30
0.0
 40
334.0025019414623
 41
222.19657968139651
 68
     1
 69
     1
1001
ACAD
1000
MVIEW
1002
{
1070
    16
1010
0.0
1020
0.0
1030
0.0
1010
0.0
1020
0.0
1030
1.0
1040
0.0
1040
222.19657968139651
1040
145.33033752441401
1040
101.8328354358673
1040
50.0
1040
0.0
1040
0.0
1070
     0
1070
     0
1070
     1
1070
     1
1070
     0
1070
     0
1070
     0
1070
     0
1040
0.0
1040
0.0
1040
0.0
1040
10.0
1040
10.0
1040
10.0
1040
10.0
1070
     0
1002
{
1002
}
1002
}
  0
VIEWPORT
  5
F6BA9
 67
     1
  8
OBJECT
 10
145.3303314447403
 20
101.8328338861465
 30
0.0
 40
232.5285303115844
 41
162.93253421783439
 68
     2
 69
     2
1001
ACAD
1000
MVIEW
1002
{
1070
    16
1010
0.0
1020
0.0
1030
0.0
1010
0.0
1020
0.0
1030
1.0
1040
0.0
1040
25942.55904403147
1040
2377.604457077377
1040
-7591.5176687056619
1040
50.0
1040
0.0
1040
0.0
1070
     0
1070
   600
1070
     1
1070
     1
1070
     0
1070
     0
1070
     0
1070
     0
1040
0.0
1040
0.0
1040
0.0
1040
1.0
1040
1.0
1040
0.0
1040
0.0
1070
     0
1002
{
1002
}
1002
}
  0
ENDSEC
  0
EOF
