  0
SECTION
  2
HEADER
  9
$ACADVER
  1
AC1009
  9
$INSBASE
 10
0.0
 20
0.0
 30
0.0
  9
$EXTMIN
 10
-0.0000000000000089
 20
-1839.0
 30
0.0
  9
$EXTMAX
 10
12387.100000000009
 20
770.0
 30
0.0
  9
$LIMMIN
 10
0.0
 20
0.0
  9
$LIMMAX
 10
210.0
 20
297.0
  9
$ORTHOMODE
 70
     0
  9
$REGENMODE
 70
     1
  9
$FILLMODE
 70
     1
  9
$QTEXTMODE
 70
     0
  9
$MIRRTEXT
 70
     0
  9
$DRAGMODE
 70
     2
  9
$LTSCALE
 40
1.0
  9
$OSMODE
 70
   125
  9
$ATTMODE
 70
     1
  9
$TEXTSIZE
 40
4.0
  9
$TRACEWID
 40
0.05
  9
$TEXTSTYLE
  7
STANDARD
  9
$CLAYER
  8
OBJECT
  9
$CELTYPE
  6
BYLAYER
  9
$CECOLOR
 62
   256
  9
$DIMSCALE
 40
10.0
  9
$DIMASZ
 40
2.0
  9
$DIMEXO
 40
1.0
  9
$DIMDLI
 40
10.0
  9
$DIMRND
 40
0.0
  9
$DIMDLE
 40
0.0
  9
$DIMEXE
 40
1.0
  9
$DIMTP
 40
0.0
  9
$DIMTM
 40
0.0
  9
$DIMTXT
 40
3.2000000000000002
  9
$DIMCEN
 40
0.0
  9
$DIMTSZ
 40
0.0
  9
$DIMTOL
 70
     0
  9
$DIMLIM
 70
     0
  9
$DIMTIH
 70
     0
  9
$DIMTOH
 70
     0
  9
$DIMSE1
 70
     0
  9
$DIMSE2
 70
     0
  9
$DIMTAD
 70
     1
  9
$DIMZIN
 70
     8
  9
$DIMBLK
  1
OPEN30
  9
$DIMASO
 70
     1
  9
$DIMSHO
 70
     1
  9
$DIMPOST
  1

  9
$DIMAPOST
  1

  9
$DIMALT
 70
     0
  9
$DIMALTD
 70
     2
  9
$DIMALTF
 40
25.399999999999999
  9
$DIMLFAC
 40
1.0
  9
$DIMTOFL
 70
     1
  9
$DIMTVP
 40
0.0
  9
$DIMTIX
 70
     0
  9
$DIMSOXD
 70
     0
  9
$DIMSAH
 70
     0
  9
$DIMBLK1
  1

  9
$DIMBLK2
  1

  9
$DIMSTYLE
  2
S10
  9
$DIMCLRD
 70
   256
  9
$DIMCLRE
 70
   256
  9
$DIMCLRT
 70
   256
  9
$DIMTFAC
 40
1.0
  9
$DIMGAP
 40
0.9
  9
$LUNITS
 70
     2
  9
$LUPREC
 70
     2
  9
$SKETCHINC
 40
0.1
  9
$FILLETRAD
 40
0.0
  9
$AUNITS
 70
     0
  9
$AUPREC
 70
     2
  9
$MENU
  1
ACAD
  9
$ELEVATION
 40
0.0
  9
$PELEVATION
 40
0.0
  9
$THICKNESS
 40
0.0
  9
$LIMCHECK
 70
     0
  9
$BLIPMODE
 70
     0
  9
$CHAMFERA
 40
2.0
  9
$CHAMFERB
 40
2.0
  9
$SKPOLY
 70
     0
  9
$TDCREATE
 40
2453095.4929404748
  9
$TDUPDATE
 40
2456994.360977523
  9
$TDINDWG
 40
18.426270162000002
  9
$TDUSRTIMER
 40
18.426267789400001
  9
$USRTIMER
 70
     1
  9
$ANGBASE
 50
0.0
  9
$ANGDIR
 70
     0
  9
$PDMODE
 70
    35
  9
$PDSIZE
 40
2.0
  9
$PLINEWID
 40
0.0
  9
$COORDS
 70
     1
  9
$SPLFRAME
 70
     0
  9
$SPLINETYPE
 70
     6
  9
$SPLINESEGS
 70
     8
  9
$ATTDIA
 70
     1
  9
$ATTREQ
 70
     1
  9
$HANDLING
 70
     1
  9
$HANDSEED
  5
124D11
  9
$SURFTAB1
 70
     6
  9
$SURFTAB2
 70
     6
  9
$SURFTYPE
 70
     6
  9
$SURFU
 70
     6
  9
$SURFV
 70
     6
  9
$UCSNAME
  2

  9
$UCSORG
 10
0.0
 20
0.0
 30
0.0
  9
$UCSXDIR
 10
1.0
 20
0.0
 30
0.0
  9
$UCSYDIR
 10
0.0
 20
1.0
 30
0.0
  9
$PUCSNAME
  2

  9
$PUCSORG
 10
0.0
 20
0.0
 30
0.0
  9
$PUCSXDIR
 10
1.0
 20
0.0
 30
0.0
  9
$PUCSYDIR
 10
0.0
 20
1.0
 30
0.0
  9
$USERI1
 70
     0
  9
$USERI2
 70
     0
  9
$USERI3
 70
     0
  9
$USERI4
 70
     0
  9
$USERI5
 70
     0
  9
$USERR1
 40
0.0
  9
$USERR2
 40
0.0
  9
$USERR3
 40
0.0
  9
$USERR4
 40
0.0
  9
$USERR5
 40
0.0
  9
$WORLDVIEW
 70
     1
  9
$SHADEDGE
 70
     3
  9
$SHADEDIF
 70
    70
  9
$TILEMODE
 70
     1
  9
$MAXACTVP
 70
    64
  9
$PLIMCHECK
 70
     0
  9
$PEXTMIN
 10
29.066066288948051
 20
20.366566777229309
 30
0.0
  9
$PEXTMAX
 10
261.5945966005325
 20
183.29910099506381
 30
0.0
  9
$PLIMMIN
 10
-3.17498779296875
 20
-3.1749999523162842
  9
$PLIMMAX
 10
293.83566284179687
 20
206.8406708240509
  9
$UNITMODE
 70
     0
  9
$VISRETAIN
 70
     1
  9
$PLINEGEN
 70
     0
  9
$PSLTSCALE
 70
     1
  0
ENDSEC
  0
SECTION
  2
TABLES
  0
TABLE
  2
VPORT
 70
     1
  0
VPORT
  2
*ACTIVE
 70
     0
 10
0.0
 20
0.0
 11
1.0
 21
1.0
 12
7230.2900739234856
 22
-2112.2201406723152
 13
0.0
 23
0.0
 14
1.0
 24
1.0
 15
0.0
 25
0.0
 16
0.0
 26
0.0
 36
1.0
 17
0.0
 27
0.0
 37
0.0
 40
12562.98664613992
 41
1.846266471449487
 42
50.0
 43
0.0
 44
0.0
 50
0.0
 51
0.0
 71
     0
 72
   600
 73
     1
 74
     1
 75
     0
 76
     0
 77
     0
 78
     0
  0
ENDTAB
  0
TABLE
  2
LTYPE
 70
     3
  0
LTYPE
  2
CONTINUOUS
 70
     0
  3
Solid line
 72
    65
 73
     0
 40
0.0
  0
LTYPE
  2
ACAD_ISO08W100
 70
     0
  3
ISO long-dash short-dash ____ __ ____ __ ____ _
 72
    65
 73
     4
 40
36.0
 49
24.0
 49
-3.0
 49
6.0
 49
-3.0
  0
LTYPE
  2
ACAD_ISO02W100
 70
     0
  3
ISO dash __ __ __ __ __ __ __ __ __ __ __ __ __
 72
    65
 73
     2
 40
15.0
 49
12.0
 49
-3.0
  0
ENDTAB
  0
TABLE
  2
LAYER
 70
     7
  0
LAYER
  2
0
 70
     0
 62
     7
  6
CONTINUOUS
  0
LAYER
  2
OBJECT
 70
     0
 62
     4
  6
CONTINUOUS
  0
LAYER
  2
DEFPOINTS
 70
     0
 62
     7
  6
CONTINUOUS
  0
LAYER
  2
HIDDEN
 70
     0
 62
     2
  6
ACAD_ISO02W100
  0
LAYER
  2
CENTER
 70
     0
 62
     2
  6
ACAD_ISO08W100
  0
LAYER
  2
DOTS
 70
     0
 62
     1
  6
CONTINUOUS
  0
LAYER
  2
SLIM
 70
     0
 62
     2
  6
CONTINUOUS
  0
ENDTAB
  0
TABLE
  2
STYLE
 70
     2
  0
STYLE
  2
STANDARD
 70
     0
 40
0.0
 41
0.75
 50
0.0
 71
     0
 42
4.0
  3
simplex.shx
  4
bigfont.shx
  0
ENDTAB
  0
TABLE
  2
VIEW
 70
     0
  0
ENDTAB
  0
TABLE
  2
UCS
 70
     0
  0
ENDTAB
  0
TABLE
  2
APPID
 70
    18
  0
APPID
  2
ACAD
 70
     0
  0
APPID
  2
ACADANNOTATIVE
 70
     0
  0
APPID
  2
ACAD_PSEXT
 70
     0
  0
APPID
  2
ACAD_EXEMPT_FROM_CAD_STANDARDS
 70
     0
  0
APPID
  2
ACAECLAYERSTANDARD
 70
     0
  0
APPID
  2
ACAUTHENVIRON
 70
     0
  0
APPID
  2
ACDBDYNAMICBLOCKTRUENAME
 70
     0
  0
APPID
  2
ACDBDYNAMICBLOCKGUID
 70
     0
  0
APPID
  2
ACDBBLOCKREPETAG
 70
     0
  0
APPID
  2
ACDBBLOCKREPBTAG
 70
     0
  0
APPID
  2
ACAD_NAV_VCDISPLAY
 70
     0
  0
APPID
  2
ACAD_DSTYLE_DIMRADIAL_EXTENSION
 70
     0
  0
APPID
  2
ACAD_DSTYLE_DIMJAG
 70
     0
  0
APPID
  2
ACAD_DSTYLE_DIMTALN
 70
     0
  0
APPID
  2
ACADANNOPO
 70
     0
  0
APPID
  2
GRADIENTCOLOR1ACI
 70
     0
  0
APPID
  2
GRADIENTCOLOR2ACI
 70
     0
  0
APPID
  2
ACAD_MLEADERVER
 70
     0
  0
ENDTAB
  0
TABLE
  2
DIMSTYLE
 70
     3
  0
DIMSTYLE
  2
STANDARD
 70
     0
  3

  4

  5

  6

  7

 40
1.0
 41
0.18
 42
0.0625
 43
0.38
 44
0.18
 45
0.0
 46
0.0
 47
0.0
 48
0.0
140
0.18
141
0.09
142
0.0
143
25.399999999999999
144
1.0
145
0.0
146
1.0
147
0.09
 71
     0
 72
     0
 73
     1
 74
     1
 75
     0
 76
     0
 77
     0
 78
     0
170
     0
171
     2
172
     0
173
     0
174
     0
175
     0
176
     0
177
     0
178
     0
  0
DIMSTYLE
  2
S10
 70
     0
  3

  4

  5

  6

  7

 40
10.0
 41
2.0
 42
1.0
 43
10.0
 44
1.0
 45
0.0
 46
0.0
 47
0.0
 48
0.0
140
3.2000000000000002
141
0.0
142
0.0
143
25.399999999999999
144
1.0
145
0.0
146
1.0
147
0.9
 71
     0
 72
     0
 73
     0
 74
     0
 75
     0
 76
     0
 77
     1
 78
     8
170
     0
171
     2
172
     1
173
     0
174
     0
175
     0
176
   256
177
   256
178
   256
  0
ENDTAB
  0
ENDSEC
  0
SECTION
  2
BLOCKS
  0
BLOCK
  8
0
  2
$MODEL_SPACE
 70
     0
 10
0.0
 20
0.0
 30
0.0
  3
$MODEL_SPACE
  1

  0
ENDBLK
  5
124C36
  8
0
  0
BLOCK
 67
     1
  8
0
  2
$PAPER_SPACE
 70
     0
 10
0.0
 20
0.0
 30
0.0
  3
$PAPER_SPACE
  1

  0
ENDBLK
  5
124C32
 67
     1
  8
0
  0
BLOCK
  8
0
  2
_OPEN30
 70
     0
 10
0.0
 20
0.0
 30
0.0
  3
_OPEN30
  1

  0
LINE
  5
202
  8
0
  6
BYBLOCK
 62
     0
 10
-1.0
 20
0.26794919
 30
0.0
 11
0.0
 21
0.0
 31
0.0
  0
LINE
  5
203
  8
0
  6
BYBLOCK
 62
     0
 10
0.0
 20
0.0
 30
0.0
 11
-1.0
 21
-0.26794919
 31
0.0
  0
LINE
  5
204
  8
0
  6
BYBLOCK
 62
     0
 10
0.0
 20
0.0
 30
0.0
 11
-1.0
 21
0.0
 31
0.0
  0
ENDBLK
  5
206
  8
0
  0
ENDSEC
  0
SECTION
  2
ENTITIES
  0
LINE
  5
124797
  8
OBJECT
 10
11927.0
 20
-533.99999999999955
 30
0.0
 11
11930.0
 21
-533.99999999999955
 31
0.0
1001
ACDBBLOCKREPETAG
1070
     1
1071
        1
1005
124797
  0
ARC
  5
124798
  8
OBJECT
 10
11927.0
 20
-536.99999999999955
 30
0.0
 40
3.0
 50
90.0
 51
180.0
1001
ACDBBLOCKREPETAG
1070
     1
1071
        2
1005
124798
  0
LINE
  5
124799
  8
OBJECT
 10
11930.0
 20
-657.99999999999955
 30
0.0
 11
11927.0
 21
-657.99999999999955
 31
0.0
1001
ACDBBLOCKREPETAG
1070
     1
1071
        3
1005
124799
  0
ARC
  5
12479A
  8
OBJECT
 10
11927.0
 20
-654.99999999999966
 30
0.0
 40
3.0
 50
180.0
 51
270.0
1001
ACDBBLOCKREPETAG
1070
     1
1071
        4
1005
12479A
  0
LINE
  5
12479B
  8
OBJECT
 10
11924.0
 20
-654.99999999999966
 30
0.0
 11
11924.0
 21
-536.99999999999955
 31
0.0
1001
ACDBBLOCKREPETAG
1070
     1
1071
        5
1005
12479B
  0
CIRCLE
  5
12479C
  8
OBJECT
 10
12000.0
 20
-596.0
 30
0.0
 40
62.0
1001
ACDBBLOCKREPETAG
1070
     1
1071
        0
1005
12479C
  0
LINE
  5
12479D
  8
OBJECT
 10
11935.0
 20
-449.99999999999937
 30
0.0
 11
11935.0
 21
-470.99999999999937
 31
0.0
1001
ACDBBLOCKREPETAG
1070
     1
1071
       16
1005
12479D
  0
LINE
  5
12479E
  8
OBJECT
 10
11935.0
 20
-470.99999999999937
 30
0.0
 11
12065.0
 21
-470.99999999999937
 31
0.0
1001
ACDBBLOCKREPETAG
1070
     1
1071
       17
1005
12479E
  0
LINE
  5
12479F
  8
OBJECT
 10
12065.0
 20
-470.99999999999937
 30
0.0
 11
12065.0
 21
-449.99999999999937
 31
0.0
1001
ACDBBLOCKREPETAG
1070
     1
1071
       18
1005
12479F
  0
LINE
  5
1247A0
  8
OBJECT
 10
12065.0
 20
-449.99999999999937
 30
0.0
 11
11935.0
 21
-449.99999999999937
 31
0.0
1001
ACDBBLOCKREPETAG
1070
     1
1071
       19
1005
1247A0
  0
LINE
  5
1247A1
  8
HIDDEN
 10
12044.5
 20
-519.99999999999955
 30
0.0
 11
11955.5
 21
-519.99999999999955
 31
0.0
1001
ACDBBLOCKREPETAG
1070
     1
1071
       20
1005
1247A1
  0
LINE
  5
1247A2
  8
CENTER
 10
12000.0
 20
-669.99999999999955
 30
0.0
 11
12000.0
 21
-434.99999999999949
 31
0.0
1001
ACDBBLOCKREPETAG
1070
     1
1071
       21
1005
1247A2
  0
LINE
  5
1247A3
  8
OBJECT
 10
11940.5
 20
-470.99999999999937
 30
0.0
 11
11940.5
 21
-533.99999999999955
 31
0.0
1001
ACDBBLOCKREPETAG
1070
     1
1071
       22
1005
1247A3
  0
LINE
  5
1247A4
  8
OBJECT
 10
11930.0
 20
-533.99999999999955
 30
0.0
 11
12070.0
 21
-533.99999999999955
 31
0.0
1001
ACDBBLOCKREPETAG
1070
     1
1071
       23
1005
1247A4
  0
LINE
  5
1247A5
  8
OBJECT
 10
12059.5
 20
-533.99999999999955
 30
0.0
 11
12059.5
 21
-470.99999999999937
 31
0.0
1001
ACDBBLOCKREPETAG
1070
     1
1071
       24
1005
1247A5
  0
LINE
  5
1247A6
  8
OBJECT
 10
11930.0
 20
-657.99999999999955
 30
0.0
 11
11930.0
 21
-669.99999999999955
 31
0.0
1001
ACDBBLOCKREPETAG
1070
     1
1071
       25
1005
1247A6
  0
LINE
  5
1247A7
  8
OBJECT
 10
11930.0
 20
-669.99999999999955
 30
0.0
 11
12070.0
 21
-669.99999999999955
 31
0.0
1001
ACDBBLOCKREPETAG
1070
     1
1071
       26
1005
1247A7
  0
LINE
  5
1247A8
  8
OBJECT
 10
12070.0
 20
-669.99999999999955
 30
0.0
 11
12070.0
 21
-657.99999999999955
 31
0.0
1001
ACDBBLOCKREPETAG
1070
     1
1071
       27
1005
1247A8
  0
LINE
  5
1247A9
  8
OBJECT
 10
12070.0
 20
-657.99999999999955
 30
0.0
 11
11930.0
 21
-657.99999999999955
 31
0.0
1001
ACDBBLOCKREPETAG
1070
     1
1071
       28
1005
1247A9
  0
ARC
  5
1247AA
  8
OBJECT
 10
12435.038438994679
 20
-898.60813684682694
 30
0.0
 40
519.48776673616965
 50
135.42350667430969
 51
138.50052655621499
1001
ACDBBLOCKREPETAG
1070
     1
1071
       32
1005
1247AA
  0
ARC
  5
1247AB
  8
OBJECT
 10
12435.038438994679
 20
-293.39186315317193
 30
0.0
 40
519.48776673616965
 50
221.49947344378501
 51
224.57649332569039
1001
ACDBBLOCKREPETAG
1070
     1
1071
       33
1005
1247AB
  0
ARC
  5
1247AC
  8
OBJECT
 10
11564.961561005321
 20
-898.60813684682694
 30
0.0
 40
519.48776673616965
 50
41.499473443784993
 51
44.576493325690237
1001
ACDBBLOCKREPETAG
1070
     1
1071
       34
1005
1247AC
  0
ARC
  5
1247AD
  8
OBJECT
 10
11564.961561005321
 20
-293.39186315317193
 30
0.0
 40
519.48776673616965
 50
315.42350667430981
 51
318.50052655621488
1001
ACDBBLOCKREPETAG
1070
     1
1071
       35
1005
1247AD
  0
POINT
  5
1247AE
  8
DOTS
 10
12000.0
 20
-654.99999999999966
 30
0.0
1001
ACDBBLOCKREPETAG
1070
     1
1071
      111
1005
1247AE
  0
LINE
  5
1247AF
  8
CENTER
 10
11909.0
 20
-199.99999999999909
 30
0.0
 11
11930.0
 21
-199.99999999999909
 31
0.0
1001
ACDBBLOCKREPETAG
1070
     1
1071
        0
1005
1247AF
  0
LINE
  5
1247B0
  8
OBJECT
 10
11927.0
 20
-261.99999999999909
 30
0.0
 11
11930.0
 21
-261.99999999999909
 31
0.0
1001
ACDBBLOCKREPETAG
1070
     1
1071
        1
1005
1247B0
  0
ARC
  5
1247B1
  8
OBJECT
 10
11927.0
 20
-258.99999999999909
 30
0.0
 40
3.0
 50
180.0
 51
270.0
1001
ACDBBLOCKREPETAG
1070
     1
1071
        2
1005
1247B1
  0
LINE
  5
1247B2
  8
OBJECT
 10
11930.0
 20
-137.99999999999909
 30
0.0
 11
11927.0
 21
-137.99999999999909
 31
0.0
1001
ACDBBLOCKREPETAG
1070
     1
1071
        3
1005
1247B2
  0
ARC
  5
1247B3
  8
OBJECT
 10
11927.0
 20
-140.99999999999909
 30
0.0
 40
3.0
 50
90.0
 51
180.0
1001
ACDBBLOCKREPETAG
1070
     1
1071
        4
1005
1247B3
  0
LINE
  5
1247B4
  8
OBJECT
 10
11924.0
 20
-140.99999999999909
 30
0.0
 11
11924.0
 21
-258.99999999999909
 31
0.0
1001
ACDBBLOCKREPETAG
1070
     1
1071
        5
1005
1247B4
  0
LINE
  5
1247B5
  8
CENTER
 10
12000.0
 20
-290.99999999999898
 30
0.0
 11
12000.0
 21
-269.99999999999909
 31
0.0
1001
ACDBBLOCKREPETAG
1070
     1
1071
        0
1005
1247B5
  0
LINE
  5
1247B6
  8
OBJECT
 10
12062.0
 20
-273.0
 30
0.0
 11
12062.0
 21
-269.99999999999909
 31
0.0
1001
ACDBBLOCKREPETAG
1070
     1
1071
        1
1005
1247B6
  0
ARC
  5
1247B7
  8
OBJECT
 10
12059.0
 20
-273.0
 30
0.0
 40
3.0
 50
270.0
 51
0.0
1001
ACDBBLOCKREPETAG
1070
     1
1071
        2
1005
1247B7
  0
LINE
  5
1247B8
  8
OBJECT
 10
11938.0
 20
-269.99999999999909
 30
0.0
 11
11938.0
 21
-272.99999999999818
 31
0.0
1001
ACDBBLOCKREPETAG
1070
     1
1071
        3
1005
1247B8
  0
ARC
  5
1247B9
  8
OBJECT
 10
11941.0
 20
-272.99999999999818
 30
0.0
 40
3.0
 50
180.0
 51
270.0
1001
ACDBBLOCKREPETAG
1070
     1
1071
        4
1005
1247B9
  0
LINE
  5
1247BA
  8
OBJECT
 10
11941.0
 20
-275.99999999999818
 30
0.0
 11
12059.0
 21
-276.0
 31
0.0
1001
ACDBBLOCKREPETAG
1070
     1
1071
        5
1005
1247BA
  0
LINE
  5
1247BB
  8
SLIM
 10
11963.217182668241
 20
-137.99999999999909
 30
0.0
 11
11969.921507996291
 21
-131.29567467194681
 31
0.0
1001
GRADIENTCOLOR1ACI
1070
     5
1001
GRADIENTCOLOR2ACI
1070
     2
1001
ACAD
1010
0.0
1020
0.0
1030
0.0
1001
ACDBBLOCKREPETAG
1070
     1
1071
      169
1005
1247BB
  0
LINE
  5
1247BC
  8
SLIM
 10
11972.19743878931
 20
-137.99999999999909
 30
0.0
 11
11983.31883633275
 21
-126.87860245655401
 31
0.0
1001
GRADIENTCOLOR1ACI
1070
     5
1001
GRADIENTCOLOR2ACI
1070
     2
1001
ACAD
1010
0.0
1020
0.0
1030
0.0
1001
ACDBBLOCKREPETAG
1070
     1
1071
      170
1005
1247BC
  0
LINE
  5
1247BD
  8
SLIM
 10
11981.48493728876
 20
-137.6927576216126
 30
0.0
 11
11993.9318052486
 21
-125.245889661777
 31
0.0
1001
GRADIENTCOLOR1ACI
1070
     5
1001
GRADIENTCOLOR2ACI
1070
     2
1001
ACAD
1010
0.0
1020
0.0
1030
0.0
1001
ACDBBLOCKREPETAG
1070
     1
1071
      171
1005
1247BD
  0
LINE
  5
1247BE
  8
SLIM
 10
11992.75265682803
 20
-135.40529420341099
 30
0.0
 11
12000.0
 21
-128.1579510314458
 31
0.0
1001
GRADIENTCOLOR1ACI
1070
     5
1001
GRADIENTCOLOR2ACI
1070
     2
1001
ACAD
1010
0.0
1020
0.0
1030
0.0
1001
ACDBBLOCKREPETAG
1070
     1
1071
      172
1005
1247BE
  0
LINE
  5
1247BF
  8
SLIM
 10
12000.0
 20
-128.1579510314458
 30
0.0
 11
12003.094100787839
 21
-125.0638502435924
 31
0.0
1001
GRADIENTCOLOR1ACI
1070
     5
1001
GRADIENTCOLOR2ACI
1070
     2
1001
ACAD
1010
0.0
1020
0.0
1030
0.0
1001
ACDBBLOCKREPETAG
1070
     1
1071
      173
1005
1247BF
  0
LINE
  5
1247C0
  8
SLIM
 10
12002.10414122347
 20
-135.03406592904389
 30
0.0
 11
12011.28442576865
 21
-125.85378138386341
 31
0.0
1001
GRADIENTCOLOR1ACI
1070
     5
1001
GRADIENTCOLOR2ACI
1070
     2
1001
ACAD
1010
0.0
1020
0.0
1030
0.0
1001
ACDBBLOCKREPETAG
1070
     1
1071
      174
1005
1247C0
  0
LINE
  5
1247C1
  8
SLIM
 10
12010.297585520921
 20
-135.82087775265759
 30
0.0
 11
12018.73958846552
 21
-127.3788748080627
 31
0.0
1001
GRADIENTCOLOR1ACI
1070
     5
1001
GRADIENTCOLOR2ACI
1070
     2
1001
ACAD
1010
0.0
1020
0.0
1030
0.0
1001
ACDBBLOCKREPETAG
1070
     1
1071
      175
1005
1247C1
  0
LINE
  5
1247C2
  8
SLIM
 10
12017.655079364229
 20
-137.4436400304258
 30
0.0
 11
12025.595886626959
 21
-129.50283276769261
 31
0.0
1001
GRADIENTCOLOR1ACI
1070
     5
1001
GRADIENTCOLOR2ACI
1070
     2
1001
ACAD
1010
0.0
1020
0.0
1030
0.0
1001
ACDBBLOCKREPETAG
1070
     1
1071
      176
1005
1247C2
  0
LINE
  5
1247C3
  8
SLIM
 10
12026.07897551572
 20
-137.99999999999909
 30
0.0
 11
12031.9385859461
 21
-132.1403895696169
 31
0.0
1001
GRADIENTCOLOR1ACI
1070
     5
1001
GRADIENTCOLOR2ACI
1070
     2
1001
ACAD
1010
0.0
1020
0.0
1030
0.0
1001
ACDBBLOCKREPETAG
1070
     1
1071
      177
1005
1247C3
  0
LINE
  5
1247C4
  8
SLIM
 10
12035.059231636789
 20
-137.99999999999909
 30
0.0
 11
12037.82336543762
 21
-135.23586619916779
 31
0.0
1001
GRADIENTCOLOR1ACI
1070
     5
1001
GRADIENTCOLOR2ACI
1070
     2
1001
ACAD
1010
0.0
1020
0.0
1030
0.0
1001
ACDBBLOCKREPETAG
1070
     1
1071
      178
1005
1247C4
  0
CIRCLE
  5
1247C5
  8
OBJECT
 10
12000.0
 20
-199.99999999999909
 30
0.0
 40
65.0
1001
ACDBBLOCKREPETAG
1070
     1
1071
       84
1005
1247C5
  0
CIRCLE
  5
1247C6
  8
OBJECT
 10
12000.0
 20
-199.99999999999909
 30
0.0
 40
41.0
1001
ACDBBLOCKREPETAG
1070
     1
1071
       85
1005
1247C6
  0
CIRCLE
  5
1247C7
  8
OBJECT
 10
12000.0
 20
-199.99999999999909
 30
0.0
 40
58.0
1001
ACDBBLOCKREPETAG
1070
     1
1071
       86
1005
1247C7
  0
LINE
  5
1247C8
  8
OBJECT
 10
12070.0
 20
-137.99999999999909
 30
0.0
 11
12019.519221295939
 21
-137.99999999999909
 31
0.0
1001
ACDBBLOCKREPETAG
1070
     1
1071
       87
1005
1247C8
  0
LINE
  5
1247C9
  8
OBJECT
 10
11930.0
 20
-137.99999999999909
 30
0.0
 11
11980.48077870405
 21
-137.99999999999909
 31
0.0
1001
ACDBBLOCKREPETAG
1070
     1
1071
       88
1005
1247C9
  0
LINE
  5
1247CA
  8
OBJECT
 10
11930.0
 20
-261.99999999999909
 30
0.0
 11
11938.0
 21
-261.99999999999909
 31
0.0
1001
ACDBBLOCKREPETAG
1070
     1
1071
       89
1005
1247CA
  0
LINE
  5
1247CB
  8
OBJECT
 10
11938.0
 20
-269.99999999999909
 30
0.0
 11
11938.0
 21
-261.99999999999909
 31
0.0
1001
ACDBBLOCKREPETAG
1070
     1
1071
       90
1005
1247CB
  0
LINE
  5
1247CC
  8
OBJECT
 10
12070.0
 20
-261.99999999999909
 30
0.0
 11
12062.0
 21
-261.99999999999909
 31
0.0
1001
ACDBBLOCKREPETAG
1070
     1
1071
       91
1005
1247CC
  0
LINE
  5
1247CD
  8
OBJECT
 10
12062.0
 20
-269.99999999999909
 30
0.0
 11
12062.0
 21
-261.99999999999909
 31
0.0
1001
ACDBBLOCKREPETAG
1070
     1
1071
       92
1005
1247CD
  0
LINE
  5
1247CE
  8
CENTER
 10
11930.0
 20
-199.99999999999909
 30
0.0
 11
12070.0
 21
-199.99999999999909
 31
0.0
1001
ACDBBLOCKREPETAG
1070
     1
1071
       93
1005
1247CE
  0
LINE
  5
1247CF
  8
CENTER
 10
12000.0
 20
-269.99999999999909
 30
0.0
 11
12000.0
 21
-109.9999999999991
 31
0.0
1001
ACDBBLOCKREPETAG
1070
     1
1071
       94
1005
1247CF
  0
ARC
  5
1247D0
  8
OBJECT
 10
11989.902762139191
 20
-224.44352901899131
 30
0.0
 40
7.0
 50
73.00127222950276
 51
154.0502587892864
1001
ACDBBLOCKREPETAG
1070
     1
1071
       95
1005
1247D0
  0
ARC
  5
1247D1
  8
OBJECT
 10
11986.837661070649
 20
-225.5978773169509
 30
0.0
 40
9.0
 50
73.00127222950276
 51
154.0502639259247
1001
ACDBBLOCKREPETAG
1070
     1
1071
       96
1005
1247D1
  0
ARC
  5
1247D2
  8
OBJECT
 10
11896.314230131549
 20
-147.28130031148149
 30
0.0
 40
150.0
 50
322.8950337398245
 51
325.8931499695608
1001
ACDBBLOCKREPETAG
1070
     1
1071
       97
1005
1247D2
  0
ARC
  5
1247D3
  8
OBJECT
 10
12000.0
 20
-199.99999999999909
 30
0.0
 40
37.5
 50
303.16276667665232
 51
229.16350249104781
1001
ACDBBLOCKREPETAG
1070
     1
1071
       98
1005
1247D3
  0
LINE
  5
1247D4
  8
OBJECT
 10
11983.608514518981
 20
-221.38045100897119
 30
0.0
 11
11977.374011
 21
-234.1915870000002
 31
0.0
1001
ACDBBLOCKREPETAG
1070
     1
1071
       99
1005
1247D4
  0
LINE
  5
1247D5
  8
OBJECT
 10
11978.74505663446
 20
-221.65963488670511
 30
0.0
 11
11973.898671999999
 21
-231.6183599999996
 31
0.0
1001
ACDBBLOCKREPETAG
1070
     1
1071
      100
1005
1247D5
  0
LINE
  5
1247D6
  8
OBJECT
 10
12018.938018000001
 20
-226.00000000000091
 30
0.0
 11
11989.468815303249
 21
-216.99107608744359
 31
0.0
1001
ACDBBLOCKREPETAG
1070
     1
1071
      101
1005
1247D6
  0
LINE
  5
1247D7
  8
OBJECT
 10
12020.513225309
 20
-231.39199878029191
 30
0.0
 11
12018.938018000001
 21
-226.00000000000091
 31
0.0
1001
ACDBBLOCKREPETAG
1070
     1
1071
      102
1005
1247D7
  0
LINE
  5
1247D8
  8
OBJECT
 10
11954.03805922287
 20
-245.96194077712289
 30
0.0
 11
11938.0
 21
-261.99999999999909
 31
0.0
1001
ACDBBLOCKREPETAG
1070
     1
1071
      106
1005
1247D8
  0
LINE
  5
1247D9
  8
OBJECT
 10
12045.96194077713
 20
-245.96194077712289
 30
0.0
 11
12062.0
 21
-261.99999999999909
 31
0.0
1001
ACDBBLOCKREPETAG
1070
     1
1071
      107
1005
1247D9
  0
ARC
  5
1247DA
  8
OBJECT
 10
12000.0
 20
-199.99999999999909
 30
0.0
 40
75.0
 50
55.757831297238091
 51
124.2421687027619
1001
ACDBBLOCKREPETAG
1070
     1
1071
      108
1005
1247DA
  0
POINT
  5
1247DB
  8
DOTS
 10
12000.0
 20
-199.99999999999909
 30
0.0
 50
270.0
1001
ACDBBLOCKREPETAG
1070
     1
1071
      157
1005
1247DB
  0
LINE
  5
1247DC
  8
OBJECT
 10
12073.0
 20
-533.99999999999955
 30
0.0
 11
12070.0
 21
-533.99999999999955
 31
0.0
1001
ACDBBLOCKREPETAG
1070
     1
1071
        1
1005
1247DC
  0
ARC
  5
1247DD
  8
OBJECT
 10
12073.0
 20
-536.99999999999955
 30
0.0
 40
3.0
 50
0.0
 51
90.0
1001
ACDBBLOCKREPETAG
1070
     1
1071
        2
1005
1247DD
  0
LINE
  5
1247DE
  8
OBJECT
 10
12070.0
 20
-657.99999999999955
 30
0.0
 11
12073.0
 21
-657.99999999999955
 31
0.0
1001
ACDBBLOCKREPETAG
1070
     1
1071
        3
1005
1247DE
  0
ARC
  5
1247DF
  8
OBJECT
 10
12073.0
 20
-654.99999999999966
 30
0.0
 40
3.0
 50
270.0
 51
0.0
1001
ACDBBLOCKREPETAG
1070
     1
1071
        4
1005
1247DF
  0
LINE
  5
1247E0
  8
OBJECT
 10
12076.0
 20
-654.99999999999966
 30
0.0
 11
12076.0
 21
-536.99999999999955
 31
0.0
1001
ACDBBLOCKREPETAG
1070
     1
1071
        5
1005
1247E0
  0
LINE
  5
1247E1
  8
CENTER
 10
12091.0
 20
-199.99999999999909
 30
0.0
 11
12070.0
 21
-199.99999999999909
 31
0.0
1001
ACDBBLOCKREPETAG
1070
     1
1071
        0
1005
1247E1
  0
LINE
  5
1247E2
  8
OBJECT
 10
12073.0
 20
-137.99999999999909
 30
0.0
 11
12070.0
 21
-137.99999999999909
 31
0.0
1001
ACDBBLOCKREPETAG
1070
     1
1071
        1
1005
1247E2
  0
ARC
  5
1247E3
  8
OBJECT
 10
12073.0
 20
-140.99999999999909
 30
0.0
 40
3.0
 50
0.0
 51
90.0
1001
ACDBBLOCKREPETAG
1070
     1
1071
        2
1005
1247E3
  0
LINE
  5
1247E4
  8
OBJECT
 10
12070.0
 20
-261.99999999999909
 30
0.0
 11
12073.0
 21
-261.99999999999909
 31
0.0
1001
ACDBBLOCKREPETAG
1070
     1
1071
        3
1005
1247E4
  0
ARC
  5
1247E5
  8
OBJECT
 10
12073.0
 20
-258.99999999999909
 30
0.0
 40
3.0
 50
270.0
 51
0.0
1001
ACDBBLOCKREPETAG
1070
     1
1071
        4
1005
1247E5
  0
LINE
  5
1247E6
  8
OBJECT
 10
12076.0
 20
-258.99999999999909
 30
0.0
 11
12076.0
 21
-140.99999999999909
 31
0.0
1001
ACDBBLOCKREPETAG
1070
     1
1071
        5
1005
1247E6
  0
LINE
  5
1247E7
  8
OBJECT
 10
9927.0
 20
-533.99999999999955
 30
0.0
 11
9930.0
 21
-533.99999999999955
 31
0.0
1001
ACDBBLOCKREPETAG
1070
     1
1071
        1
1005
1247E7
  0
ARC
  5
1247E8
  8
OBJECT
 10
9927.0
 20
-536.99999999999955
 30
0.0
 40
3.0
 50
90.0
 51
180.0
1001
ACDBBLOCKREPETAG
1070
     1
1071
        2
1005
1247E8
  0
LINE
  5
1247E9
  8
OBJECT
 10
9930.0
 20
-657.99999999999955
 30
0.0
 11
9927.0
 21
-657.99999999999955
 31
0.0
1001
ACDBBLOCKREPETAG
1070
     1
1071
        3
1005
1247E9
  0
ARC
  5
1247EA
  8
OBJECT
 10
9927.0
 20
-654.99999999999966
 30
0.0
 40
3.0
 50
180.0
 51
270.0
1001
ACDBBLOCKREPETAG
1070
     1
1071
        4
1005
1247EA
  0
LINE
  5
1247EB
  8
OBJECT
 10
9924.0
 20
-654.99999999999966
 30
0.0
 11
9924.0
 21
-536.99999999999955
 31
0.0
1001
ACDBBLOCKREPETAG
1070
     1
1071
        5
1005
1247EB
  0
CIRCLE
  5
1247EC
  8
OBJECT
 10
10000.0
 20
-596.0
 30
0.0
 40
62.0
1001
ACDBBLOCKREPETAG
1070
     1
1071
        0
1005
1247EC
  0
LINE
  5
1247ED
  8
OBJECT
 10
9935.0
 20
-449.99999999999937
 30
0.0
 11
9935.0
 21
-470.99999999999937
 31
0.0
1001
ACDBBLOCKREPETAG
1070
     1
1071
       16
1005
1247ED
  0
LINE
  5
1247EE
  8
OBJECT
 10
9935.0
 20
-470.99999999999937
 30
0.0
 11
10065.0
 21
-470.99999999999937
 31
0.0
1001
ACDBBLOCKREPETAG
1070
     1
1071
       17
1005
1247EE
  0
LINE
  5
1247EF
  8
OBJECT
 10
10065.0
 20
-470.99999999999937
 30
0.0
 11
10065.0
 21
-449.99999999999937
 31
0.0
1001
ACDBBLOCKREPETAG
1070
     1
1071
       18
1005
1247EF
  0
LINE
  5
1247F0
  8
OBJECT
 10
10065.0
 20
-449.99999999999937
 30
0.0
 11
9935.0
 21
-449.99999999999937
 31
0.0
1001
ACDBBLOCKREPETAG
1070
     1
1071
       19
1005
1247F0
  0
LINE
  5
1247F1
  8
HIDDEN
 10
10044.5
 20
-519.99999999999955
 30
0.0
 11
9955.5
 21
-519.99999999999955
 31
0.0
1001
ACDBBLOCKREPETAG
1070
     1
1071
       20
1005
1247F1
  0
LINE
  5
1247F2
  8
CENTER
 10
10000.0
 20
-669.99999999999955
 30
0.0
 11
10000.0
 21
-434.99999999999949
 31
0.0
1001
ACDBBLOCKREPETAG
1070
     1
1071
       21
1005
1247F2
  0
LINE
  5
1247F3
  8
OBJECT
 10
9940.5
 20
-470.99999999999937
 30
0.0
 11
9940.5
 21
-533.99999999999955
 31
0.0
1001
ACDBBLOCKREPETAG
1070
     1
1071
       22
1005
1247F3
  0
LINE
  5
1247F4
  8
OBJECT
 10
9930.0
 20
-533.99999999999955
 30
0.0
 11
10070.0
 21
-533.99999999999955
 31
0.0
1001
ACDBBLOCKREPETAG
1070
     1
1071
       23
1005
1247F4
  0
LINE
  5
1247F5
  8
OBJECT
 10
10059.5
 20
-533.99999999999955
 30
0.0
 11
10059.5
 21
-470.99999999999937
 31
0.0
1001
ACDBBLOCKREPETAG
1070
     1
1071
       24
1005
1247F5
  0
LINE
  5
1247F6
  8
OBJECT
 10
9930.0
 20
-657.99999999999955
 30
0.0
 11
9930.0
 21
-669.99999999999955
 31
0.0
1001
ACDBBLOCKREPETAG
1070
     1
1071
       25
1005
1247F6
  0
LINE
  5
1247F7
  8
OBJECT
 10
9930.0
 20
-669.99999999999955
 30
0.0
 11
10070.0
 21
-669.99999999999955
 31
0.0
1001
ACDBBLOCKREPETAG
1070
     1
1071
       26
1005
1247F7
  0
LINE
  5
1247F8
  8
OBJECT
 10
10070.0
 20
-669.99999999999955
 30
0.0
 11
10070.0
 21
-657.99999999999955
 31
0.0
1001
ACDBBLOCKREPETAG
1070
     1
1071
       27
1005
1247F8
  0
LINE
  5
1247F9
  8
OBJECT
 10
10070.0
 20
-657.99999999999955
 30
0.0
 11
9930.0
 21
-657.99999999999955
 31
0.0
1001
ACDBBLOCKREPETAG
1070
     1
1071
       28
1005
1247F9
  0
ARC
  5
1247FA
  8
OBJECT
 10
10435.03843899467
 20
-898.60813684682694
 30
0.0
 40
519.48776673616965
 50
135.42350667430969
 51
138.50052655621499
1001
ACDBBLOCKREPETAG
1070
     1
1071
       32
1005
1247FA
  0
ARC
  5
1247FB
  8
OBJECT
 10
10435.03843899467
 20
-293.39186315317193
 30
0.0
 40
519.48776673616965
 50
221.49947344378501
 51
224.57649332569039
1001
ACDBBLOCKREPETAG
1070
     1
1071
       33
1005
1247FB
  0
ARC
  5
1247FC
  8
OBJECT
 10
9564.9615610053243
 20
-898.60813684682694
 30
0.0
 40
519.48776673616965
 50
41.499473443784993
 51
44.576493325690237
1001
ACDBBLOCKREPETAG
1070
     1
1071
       34
1005
1247FC
  0
ARC
  5
1247FD
  8
OBJECT
 10
9564.9615610053243
 20
-293.39186315317193
 30
0.0
 40
519.48776673616965
 50
315.42350667430981
 51
318.50052655621488
1001
ACDBBLOCKREPETAG
1070
     1
1071
       35
1005
1247FD
  0
POINT
  5
1247FE
  8
DOTS
 10
10000.0
 20
-654.99999999999966
 30
0.0
1001
ACDBBLOCKREPETAG
1070
     1
1071
      111
1005
1247FE
  0
LINE
  5
1247FF
  8
CENTER
 10
9909.0
 20
-199.99999999999909
 30
0.0
 11
9930.0
 21
-199.99999999999909
 31
0.0
1001
ACDBBLOCKREPETAG
1070
     1
1071
        0
1005
1247FF
  0
LINE
  5
124800
  8
OBJECT
 10
9927.0
 20
-261.99999999999909
 30
0.0
 11
9930.0
 21
-261.99999999999909
 31
0.0
1001
ACDBBLOCKREPETAG
1070
     1
1071
        1
1005
124800
  0
ARC
  5
124801
  8
OBJECT
 10
9927.0
 20
-258.99999999999909
 30
0.0
 40
3.0
 50
180.0
 51
270.0
1001
ACDBBLOCKREPETAG
1070
     1
1071
        2
1005
124801
  0
LINE
  5
124802
  8
OBJECT
 10
9930.0
 20
-137.99999999999909
 30
0.0
 11
9927.0
 21
-137.99999999999909
 31
0.0
1001
ACDBBLOCKREPETAG
1070
     1
1071
        3
1005
124802
  0
ARC
  5
124803
  8
OBJECT
 10
9927.0
 20
-140.99999999999909
 30
0.0
 40
3.0
 50
90.0
 51
180.0
1001
ACDBBLOCKREPETAG
1070
     1
1071
        4
1005
124803
  0
LINE
  5
124804
  8
OBJECT
 10
9924.0
 20
-140.99999999999909
 30
0.0
 11
9924.0
 21
-258.99999999999909
 31
0.0
1001
ACDBBLOCKREPETAG
1070
     1
1071
        5
1005
124804
  0
LINE
  5
124805
  8
CENTER
 10
10000.0
 20
-290.99999999999898
 30
0.0
 11
10000.0
 21
-269.99999999999909
 31
0.0
1001
ACDBBLOCKREPETAG
1070
     1
1071
        0
1005
124805
  0
LINE
  5
124806
  8
OBJECT
 10
10062.0
 20
-273.0
 30
0.0
 11
10062.0
 21
-269.99999999999909
 31
0.0
1001
ACDBBLOCKREPETAG
1070
     1
1071
        1
1005
124806
  0
ARC
  5
124807
  8
OBJECT
 10
10059.0
 20
-273.0
 30
0.0
 40
3.0
 50
270.0
 51
0.0
1001
ACDBBLOCKREPETAG
1070
     1
1071
        2
1005
124807
  0
LINE
  5
124808
  8
OBJECT
 10
9938.0
 20
-269.99999999999909
 30
0.0
 11
9938.0
 21
-272.99999999999818
 31
0.0
1001
ACDBBLOCKREPETAG
1070
     1
1071
        3
1005
124808
  0
ARC
  5
124809
  8
OBJECT
 10
9941.0
 20
-272.99999999999818
 30
0.0
 40
3.0
 50
180.0
 51
270.0
1001
ACDBBLOCKREPETAG
1070
     1
1071
        4
1005
124809
  0
LINE
  5
12480A
  8
OBJECT
 10
9941.0
 20
-275.99999999999818
 30
0.0
 11
10059.0
 21
-276.0
 31
0.0
1001
ACDBBLOCKREPETAG
1070
     1
1071
        5
1005
12480A
  0
LINE
  5
12480B
  8
SLIM
 10
9963.2171826682406
 20
-137.99999999999909
 30
0.0
 11
9969.9215079962923
 21
-131.29567467194681
 31
0.0
1001
GRADIENTCOLOR1ACI
1070
     5
1001
GRADIENTCOLOR2ACI
1070
     2
1001
ACAD
1010
0.0
1020
0.0
1030
0.0
1001
ACDBBLOCKREPETAG
1070
     1
1071
      169
1005
12480B
  0
LINE
  5
12480C
  8
SLIM
 10
9972.1974387893097
 20
-137.99999999999909
 30
0.0
 11
9983.3188363327517
 21
-126.87860245655401
 31
0.0
1001
GRADIENTCOLOR1ACI
1070
     5
1001
GRADIENTCOLOR2ACI
1070
     2
1001
ACAD
1010
0.0
1020
0.0
1030
0.0
1001
ACDBBLOCKREPETAG
1070
     1
1071
      170
1005
12480C
  0
LINE
  5
12480D
  8
SLIM
 10
9981.4849372887638
 20
-137.6927576216126
 30
0.0
 11
9993.9318052485996
 21
-125.245889661777
 31
0.0
1001
GRADIENTCOLOR1ACI
1070
     5
1001
GRADIENTCOLOR2ACI
1070
     2
1001
ACAD
1010
0.0
1020
0.0
1030
0.0
1001
ACDBBLOCKREPETAG
1070
     1
1071
      171
1005
12480D
  0
LINE
  5
12480E
  8
SLIM
 10
9992.7526568280355
 20
-135.40529420341099
 30
0.0
 11
10000.0
 21
-128.1579510314458
 31
0.0
1001
GRADIENTCOLOR1ACI
1070
     5
1001
GRADIENTCOLOR2ACI
1070
     2
1001
ACAD
1010
0.0
1020
0.0
1030
0.0
1001
ACDBBLOCKREPETAG
1070
     1
1071
      172
1005
12480E
  0
LINE
  5
12480F
  8
SLIM
 10
10000.0
 20
-128.1579510314458
 30
0.0
 11
10003.09410078785
 21
-125.0638502435924
 31
0.0
1001
GRADIENTCOLOR1ACI
1070
     5
1001
GRADIENTCOLOR2ACI
1070
     2
1001
ACAD
1010
0.0
1020
0.0
1030
0.0
1001
ACDBBLOCKREPETAG
1070
     1
1071
      173
1005
12480F
  0
LINE
  5
124810
  8
SLIM
 10
10002.10414122347
 20
-135.03406592904389
 30
0.0
 11
10011.28442576865
 21
-125.85378138386341
 31
0.0
1001
GRADIENTCOLOR1ACI
1070
     5
1001
GRADIENTCOLOR2ACI
1070
     2
1001
ACAD
1010
0.0
1020
0.0
1030
0.0
1001
ACDBBLOCKREPETAG
1070
     1
1071
      174
1005
124810
  0
LINE
  5
124811
  8
SLIM
 10
10010.297585520921
 20
-135.82087775265759
 30
0.0
 11
10018.73958846552
 21
-127.3788748080627
 31
0.0
1001
GRADIENTCOLOR1ACI
1070
     5
1001
GRADIENTCOLOR2ACI
1070
     2
1001
ACAD
1010
0.0
1020
0.0
1030
0.0
1001
ACDBBLOCKREPETAG
1070
     1
1071
      175
1005
124811
  0
LINE
  5
124812
  8
SLIM
 10
10017.65507936422
 20
-137.4436400304258
 30
0.0
 11
10025.595886626959
 21
-129.50283276769261
 31
0.0
1001
GRADIENTCOLOR1ACI
1070
     5
1001
GRADIENTCOLOR2ACI
1070
     2
1001
ACAD
1010
0.0
1020
0.0
1030
0.0
1001
ACDBBLOCKREPETAG
1070
     1
1071
      176
1005
124812
  0
LINE
  5
124813
  8
SLIM
 10
10026.07897551572
 20
-137.99999999999909
 30
0.0
 11
10031.9385859461
 21
-132.1403895696169
 31
0.0
1001
GRADIENTCOLOR1ACI
1070
     5
1001
GRADIENTCOLOR2ACI
1070
     2
1001
ACAD
1010
0.0
1020
0.0
1030
0.0
1001
ACDBBLOCKREPETAG
1070
     1
1071
      177
1005
124813
  0
LINE
  5
124814
  8
SLIM
 10
10035.05923163678
 20
-137.99999999999909
 30
0.0
 11
10037.82336543762
 21
-135.23586619916779
 31
0.0
1001
GRADIENTCOLOR1ACI
1070
     5
1001
GRADIENTCOLOR2ACI
1070
     2
1001
ACAD
1010
0.0
1020
0.0
1030
0.0
1001
ACDBBLOCKREPETAG
1070
     1
1071
      178
1005
124814
  0
CIRCLE
  5
124815
  8
OBJECT
 10
10000.0
 20
-199.99999999999909
 30
0.0
 40
65.0
1001
ACDBBLOCKREPETAG
1070
     1
1071
       84
1005
124815
  0
CIRCLE
  5
124816
  8
OBJECT
 10
10000.0
 20
-199.99999999999909
 30
0.0
 40
41.0
1001
ACDBBLOCKREPETAG
1070
     1
1071
       85
1005
124816
  0
CIRCLE
  5
124817
  8
OBJECT
 10
10000.0
 20
-199.99999999999909
 30
0.0
 40
58.0
1001
ACDBBLOCKREPETAG
1070
     1
1071
       86
1005
124817
  0
LINE
  5
124818
  8
OBJECT
 10
10070.0
 20
-137.99999999999909
 30
0.0
 11
10019.519221295939
 21
-137.99999999999909
 31
0.0
1001
ACDBBLOCKREPETAG
1070
     1
1071
       87
1005
124818
  0
LINE
  5
124819
  8
OBJECT
 10
9930.0
 20
-137.99999999999909
 30
0.0
 11
9980.4807787040572
 21
-137.99999999999909
 31
0.0
1001
ACDBBLOCKREPETAG
1070
     1
1071
       88
1005
124819
  0
LINE
  5
12481A
  8
OBJECT
 10
9930.0
 20
-261.99999999999909
 30
0.0
 11
9938.0
 21
-261.99999999999909
 31
0.0
1001
ACDBBLOCKREPETAG
1070
     1
1071
       89
1005
12481A
  0
LINE
  5
12481B
  8
OBJECT
 10
9938.0
 20
-269.99999999999909
 30
0.0
 11
9938.0
 21
-261.99999999999909
 31
0.0
1001
ACDBBLOCKREPETAG
1070
     1
1071
       90
1005
12481B
  0
LINE
  5
12481C
  8
OBJECT
 10
10070.0
 20
-261.99999999999909
 30
0.0
 11
10062.0
 21
-261.99999999999909
 31
0.0
1001
ACDBBLOCKREPETAG
1070
     1
1071
       91
1005
12481C
  0
LINE
  5
12481D
  8
OBJECT
 10
10062.0
 20
-269.99999999999909
 30
0.0
 11
10062.0
 21
-261.99999999999909
 31
0.0
1001
ACDBBLOCKREPETAG
1070
     1
1071
       92
1005
12481D
  0
LINE
  5
12481E
  8
CENTER
 10
9930.0
 20
-199.99999999999909
 30
0.0
 11
10070.0
 21
-199.99999999999909
 31
0.0
1001
ACDBBLOCKREPETAG
1070
     1
1071
       93
1005
12481E
  0
LINE
  5
12481F
  8
CENTER
 10
10000.0
 20
-269.99999999999909
 30
0.0
 11
10000.0
 21
-109.9999999999991
 31
0.0
1001
ACDBBLOCKREPETAG
1070
     1
1071
       94
1005
12481F
  0
ARC
  5
124820
  8
OBJECT
 10
9989.9027621391888
 20
-224.44352901899131
 30
0.0
 40
7.0
 50
73.00127222950276
 51
154.0502587892864
1001
ACDBBLOCKREPETAG
1070
     1
1071
       95
1005
124820
  0
ARC
  5
124821
  8
OBJECT
 10
9986.8376610706546
 20
-225.5978773169509
 30
0.0
 40
9.0
 50
73.00127222950276
 51
154.0502639259247
1001
ACDBBLOCKREPETAG
1070
     1
1071
       96
1005
124821
  0
ARC
  5
124822
  8
OBJECT
 10
9896.3142301315547
 20
-147.28130031148149
 30
0.0
 40
150.0
 50
322.8950337398245
 51
325.8931499695608
1001
ACDBBLOCKREPETAG
1070
     1
1071
       97
1005
124822
  0
ARC
  5
124823
  8
OBJECT
 10
10000.0
 20
-199.99999999999909
 30
0.0
 40
37.5
 50
303.16276667665232
 51
229.16350249104781
1001
ACDBBLOCKREPETAG
1070
     1
1071
       98
1005
124823
  0
LINE
  5
124824
  8
OBJECT
 10
9983.6085145189809
 20
-221.38045100897119
 30
0.0
 11
9977.3740110000017
 21
-234.1915870000002
 31
0.0
1001
ACDBBLOCKREPETAG
1070
     1
1071
       99
1005
124824
  0
LINE
  5
124825
  8
OBJECT
 10
9978.7450566344633
 20
-221.65963488670511
 30
0.0
 11
9973.8986720000048
 21
-231.6183599999996
 31
0.0
1001
ACDBBLOCKREPETAG
1070
     1
1071
      100
1005
124825
  0
LINE
  5
124826
  8
OBJECT
 10
10018.938018000001
 20
-226.00000000000091
 30
0.0
 11
9989.4688153032548
 21
-216.99107608744359
 31
0.0
1001
ACDBBLOCKREPETAG
1070
     1
1071
      101
1005
124826
  0
LINE
  5
124827
  8
OBJECT
 10
10020.513225309
 20
-231.39199878029191
 30
0.0
 11
10018.938018000001
 21
-226.00000000000091
 31
0.0
1001
ACDBBLOCKREPETAG
1070
     1
1071
      102
1005
124827
  0
LINE
  5
124828
  8
OBJECT
 10
9954.0380592228739
 20
-245.96194077712289
 30
0.0
 11
9938.0
 21
-261.99999999999909
 31
0.0
1001
ACDBBLOCKREPETAG
1070
     1
1071
      106
1005
124828
  0
LINE
  5
124829
  8
OBJECT
 10
10045.96194077713
 20
-245.96194077712289
 30
0.0
 11
10062.0
 21
-261.99999999999909
 31
0.0
1001
ACDBBLOCKREPETAG
1070
     1
1071
      107
1005
124829
  0
ARC
  5
12482A
  8
OBJECT
 10
10000.0
 20
-199.99999999999909
 30
0.0
 40
75.0
 50
55.757831297238091
 51
124.2421687027619
1001
ACDBBLOCKREPETAG
1070
     1
1071
      108
1005
12482A
  0
POINT
  5
12482B
  8
DOTS
 10
10000.0
 20
-199.99999999999909
 30
0.0
 50
270.0
1001
ACDBBLOCKREPETAG
1070
     1
1071
      157
1005
12482B
  0
LINE
  5
12482C
  8
OBJECT
 10
10073.0
 20
-533.99999999999955
 30
0.0
 11
10070.0
 21
-533.99999999999955
 31
0.0
1001
ACDBBLOCKREPETAG
1070
     1
1071
        1
1005
12482C
  0
ARC
  5
12482D
  8
OBJECT
 10
10073.0
 20
-536.99999999999955
 30
0.0
 40
3.0
 50
0.0
 51
90.0
1001
ACDBBLOCKREPETAG
1070
     1
1071
        2
1005
12482D
  0
LINE
  5
12482E
  8
OBJECT
 10
10070.0
 20
-657.99999999999955
 30
0.0
 11
10073.0
 21
-657.99999999999955
 31
0.0
1001
ACDBBLOCKREPETAG
1070
     1
1071
        3
1005
12482E
  0
ARC
  5
12482F
  8
OBJECT
 10
10073.0
 20
-654.99999999999966
 30
0.0
 40
3.0
 50
270.0
 51
0.0
1001
ACDBBLOCKREPETAG
1070
     1
1071
        4
1005
12482F
  0
LINE
  5
124830
  8
OBJECT
 10
10076.0
 20
-654.99999999999966
 30
0.0
 11
10076.0
 21
-536.99999999999955
 31
0.0
1001
ACDBBLOCKREPETAG
1070
     1
1071
        5
1005
124830
  0
LINE
  5
124831
  8
CENTER
 10
10091.0
 20
-199.99999999999909
 30
0.0
 11
10070.0
 21
-199.99999999999909
 31
0.0
1001
ACDBBLOCKREPETAG
1070
     1
1071
        0
1005
124831
  0
LINE
  5
124832
  8
OBJECT
 10
10073.0
 20
-137.99999999999909
 30
0.0
 11
10070.0
 21
-137.99999999999909
 31
0.0
1001
ACDBBLOCKREPETAG
1070
     1
1071
        1
1005
124832
  0
ARC
  5
124833
  8
OBJECT
 10
10073.0
 20
-140.99999999999909
 30
0.0
 40
3.0
 50
0.0
 51
90.0
1001
ACDBBLOCKREPETAG
1070
     1
1071
        2
1005
124833
  0
LINE
  5
124834
  8
OBJECT
 10
10070.0
 20
-261.99999999999909
 30
0.0
 11
10073.0
 21
-261.99999999999909
 31
0.0
1001
ACDBBLOCKREPETAG
1070
     1
1071
        3
1005
124834
  0
ARC
  5
124835
  8
OBJECT
 10
10073.0
 20
-258.99999999999909
 30
0.0
 40
3.0
 50
270.0
 51
0.0
1001
ACDBBLOCKREPETAG
1070
     1
1071
        4
1005
124835
  0
LINE
  5
124836
  8
OBJECT
 10
10076.0
 20
-258.99999999999909
 30
0.0
 11
10076.0
 21
-140.99999999999909
 31
0.0
1001
ACDBBLOCKREPETAG
1070
     1
1071
        5
1005
124836
  0
LINE
  5
124837
  8
OBJECT
 10
7927.0
 20
-533.99999999999955
 30
0.0
 11
7930.0
 21
-533.99999999999955
 31
0.0
1001
ACDBBLOCKREPETAG
1070
     1
1071
        1
1005
124837
  0
ARC
  5
124838
  8
OBJECT
 10
7927.0
 20
-536.99999999999955
 30
0.0
 40
3.0
 50
90.0
 51
180.0
1001
ACDBBLOCKREPETAG
1070
     1
1071
        2
1005
124838
  0
LINE
  5
124839
  8
OBJECT
 10
7930.0
 20
-657.99999999999955
 30
0.0
 11
7927.0
 21
-657.99999999999955
 31
0.0
1001
ACDBBLOCKREPETAG
1070
     1
1071
        3
1005
124839
  0
ARC
  5
12483A
  8
OBJECT
 10
7927.0
 20
-654.99999999999966
 30
0.0
 40
3.0
 50
180.0
 51
270.0
1001
ACDBBLOCKREPETAG
1070
     1
1071
        4
1005
12483A
  0
LINE
  5
12483B
  8
OBJECT
 10
7924.0
 20
-654.99999999999966
 30
0.0
 11
7924.0
 21
-536.99999999999955
 31
0.0
1001
ACDBBLOCKREPETAG
1070
     1
1071
        5
1005
12483B
  0
CIRCLE
  5
12483C
  8
OBJECT
 10
8000.0
 20
-596.0
 30
0.0
 40
62.0
1001
ACDBBLOCKREPETAG
1070
     1
1071
        0
1005
12483C
  0
LINE
  5
12483D
  8
OBJECT
 10
7935.0
 20
-449.99999999999937
 30
0.0
 11
7935.0
 21
-470.99999999999937
 31
0.0
1001
ACDBBLOCKREPETAG
1070
     1
1071
       16
1005
12483D
  0
LINE
  5
12483E
  8
OBJECT
 10
7935.0
 20
-470.99999999999937
 30
0.0
 11
8065.0
 21
-470.99999999999937
 31
0.0
1001
ACDBBLOCKREPETAG
1070
     1
1071
       17
1005
12483E
  0
LINE
  5
12483F
  8
OBJECT
 10
8065.0
 20
-470.99999999999937
 30
0.0
 11
8065.0
 21
-449.99999999999937
 31
0.0
1001
ACDBBLOCKREPETAG
1070
     1
1071
       18
1005
12483F
  0
LINE
  5
124840
  8
OBJECT
 10
8065.0
 20
-449.99999999999937
 30
0.0
 11
7935.0
 21
-449.99999999999937
 31
0.0
1001
ACDBBLOCKREPETAG
1070
     1
1071
       19
1005
124840
  0
LINE
  5
124841
  8
HIDDEN
 10
8044.5000000000036
 20
-519.99999999999955
 30
0.0
 11
7955.5
 21
-519.99999999999955
 31
0.0
1001
ACDBBLOCKREPETAG
1070
     1
1071
       20
1005
124841
  0
LINE
  5
124842
  8
CENTER
 10
8000.0
 20
-669.99999999999955
 30
0.0
 11
8000.0
 21
-434.99999999999949
 31
0.0
1001
ACDBBLOCKREPETAG
1070
     1
1071
       21
1005
124842
  0
LINE
  5
124843
  8
OBJECT
 10
7940.5
 20
-470.99999999999937
 30
0.0
 11
7940.5
 21
-533.99999999999955
 31
0.0
1001
ACDBBLOCKREPETAG
1070
     1
1071
       22
1005
124843
  0
LINE
  5
124844
  8
OBJECT
 10
7930.0
 20
-533.99999999999955
 30
0.0
 11
8070.0
 21
-533.99999999999955
 31
0.0
1001
ACDBBLOCKREPETAG
1070
     1
1071
       23
1005
124844
  0
LINE
  5
124845
  8
OBJECT
 10
8059.4999999999982
 20
-533.99999999999955
 30
0.0
 11
8059.4999999999982
 21
-470.99999999999937
 31
0.0
1001
ACDBBLOCKREPETAG
1070
     1
1071
       24
1005
124845
  0
LINE
  5
124846
  8
OBJECT
 10
7930.0
 20
-657.99999999999955
 30
0.0
 11
7930.0
 21
-669.99999999999955
 31
0.0
1001
ACDBBLOCKREPETAG
1070
     1
1071
       25
1005
124846
  0
LINE
  5
124847
  8
OBJECT
 10
7930.0
 20
-669.99999999999955
 30
0.0
 11
8070.0
 21
-669.99999999999955
 31
0.0
1001
ACDBBLOCKREPETAG
1070
     1
1071
       26
1005
124847
  0
LINE
  5
124848
  8
OBJECT
 10
8070.0
 20
-669.99999999999955
 30
0.0
 11
8070.0
 21
-657.99999999999955
 31
0.0
1001
ACDBBLOCKREPETAG
1070
     1
1071
       27
1005
124848
  0
LINE
  5
124849
  8
OBJECT
 10
8070.0
 20
-657.99999999999955
 30
0.0
 11
7930.0
 21
-657.99999999999955
 31
0.0
1001
ACDBBLOCKREPETAG
1070
     1
1071
       28
1005
124849
  0
ARC
  5
12484A
  8
OBJECT
 10
8435.0384389946794
 20
-898.60813684682694
 30
0.0
 40
519.48776673616965
 50
135.42350667430969
 51
138.50052655621499
1001
ACDBBLOCKREPETAG
1070
     1
1071
       32
1005
12484A
  0
ARC
  5
12484B
  8
OBJECT
 10
8435.0384389946794
 20
-293.39186315317193
 30
0.0
 40
519.48776673616965
 50
221.49947344378501
 51
224.57649332569039
1001
ACDBBLOCKREPETAG
1070
     1
1071
       33
1005
12484B
  0
ARC
  5
12484C
  8
OBJECT
 10
7564.9615610053233
 20
-898.60813684682694
 30
0.0
 40
519.48776673616965
 50
41.499473443784993
 51
44.576493325690237
1001
ACDBBLOCKREPETAG
1070
     1
1071
       34
1005
12484C
  0
ARC
  5
12484D
  8
OBJECT
 10
7564.9615610053233
 20
-293.39186315317193
 30
0.0
 40
519.48776673616965
 50
315.42350667430981
 51
318.50052655621488
1001
ACDBBLOCKREPETAG
1070
     1
1071
       35
1005
12484D
  0
POINT
  5
12484E
  8
DOTS
 10
8000.0
 20
-654.99999999999966
 30
0.0
1001
ACDBBLOCKREPETAG
1070
     1
1071
      111
1005
12484E
  0
LINE
  5
12484F
  8
CENTER
 10
7909.0
 20
-199.99999999999909
 30
0.0
 11
7930.0
 21
-199.99999999999909
 31
0.0
1001
ACDBBLOCKREPETAG
1070
     1
1071
        0
1005
12484F
  0
LINE
  5
124850
  8
OBJECT
 10
7927.0
 20
-261.99999999999909
 30
0.0
 11
7930.0
 21
-261.99999999999909
 31
0.0
1001
ACDBBLOCKREPETAG
1070
     1
1071
        1
1005
124850
  0
ARC
  5
124851
  8
OBJECT
 10
7927.0
 20
-258.99999999999909
 30
0.0
 40
3.0
 50
180.0
 51
270.0
1001
ACDBBLOCKREPETAG
1070
     1
1071
        2
1005
124851
  0
LINE
  5
124852
  8
OBJECT
 10
7930.0
 20
-137.99999999999909
 30
0.0
 11
7927.0
 21
-137.99999999999909
 31
0.0
1001
ACDBBLOCKREPETAG
1070
     1
1071
        3
1005
124852
  0
ARC
  5
124853
  8
OBJECT
 10
7927.0
 20
-140.99999999999909
 30
0.0
 40
3.0
 50
90.0
 51
180.0
1001
ACDBBLOCKREPETAG
1070
     1
1071
        4
1005
124853
  0
LINE
  5
124854
  8
OBJECT
 10
7924.0
 20
-140.99999999999909
 30
0.0
 11
7924.0
 21
-258.99999999999909
 31
0.0
1001
ACDBBLOCKREPETAG
1070
     1
1071
        5
1005
124854
  0
LINE
  5
124855
  8
CENTER
 10
8000.0
 20
-290.99999999999898
 30
0.0
 11
8000.0
 21
-269.99999999999909
 31
0.0
1001
ACDBBLOCKREPETAG
1070
     1
1071
        0
1005
124855
  0
LINE
  5
124856
  8
OBJECT
 10
8062.0
 20
-273.0
 30
0.0
 11
8062.0
 21
-269.99999999999909
 31
0.0
1001
ACDBBLOCKREPETAG
1070
     1
1071
        1
1005
124856
  0
ARC
  5
124857
  8
OBJECT
 10
8059.0
 20
-273.0
 30
0.0
 40
3.0
 50
270.0
 51
0.0
1001
ACDBBLOCKREPETAG
1070
     1
1071
        2
1005
124857
  0
LINE
  5
124858
  8
OBJECT
 10
7938.0
 20
-269.99999999999909
 30
0.0
 11
7938.0
 21
-272.99999999999818
 31
0.0
1001
ACDBBLOCKREPETAG
1070
     1
1071
        3
1005
124858
  0
ARC
  5
124859
  8
OBJECT
 10
7941.0
 20
-272.99999999999818
 30
0.0
 40
3.0
 50
180.0
 51
270.0
1001
ACDBBLOCKREPETAG
1070
     1
1071
        4
1005
124859
  0
LINE
  5
12485A
  8
OBJECT
 10
7941.0
 20
-275.99999999999818
 30
0.0
 11
8059.0
 21
-276.0
 31
0.0
1001
ACDBBLOCKREPETAG
1070
     1
1071
        5
1005
12485A
  0
LINE
  5
12485B
  8
SLIM
 10
7963.2171826682388
 20
-137.99999999999909
 30
0.0
 11
7969.9215079962914
 21
-131.29567467194681
 31
0.0
1001
GRADIENTCOLOR1ACI
1070
     5
1001
GRADIENTCOLOR2ACI
1070
     2
1001
ACAD
1010
0.0
1020
0.0
1030
0.0
1001
ACDBBLOCKREPETAG
1070
     1
1071
      169
1005
12485B
  0
LINE
  5
12485C
  8
SLIM
 10
7972.1974387893079
 20
-137.99999999999909
 30
0.0
 11
7983.3188363327517
 21
-126.87860245655401
 31
0.0
1001
GRADIENTCOLOR1ACI
1070
     5
1001
GRADIENTCOLOR2ACI
1070
     2
1001
ACAD
1010
0.0
1020
0.0
1030
0.0
1001
ACDBBLOCKREPETAG
1070
     1
1071
      170
1005
12485C
  0
LINE
  5
12485D
  8
SLIM
 10
7981.4849372887629
 20
-137.6927576216126
 30
0.0
 11
7993.9318052485969
 21
-125.245889661777
 31
0.0
1001
GRADIENTCOLOR1ACI
1070
     5
1001
GRADIENTCOLOR2ACI
1070
     2
1001
ACAD
1010
0.0
1020
0.0
1030
0.0
1001
ACDBBLOCKREPETAG
1070
     1
1071
      171
1005
12485D
  0
LINE
  5
12485E
  8
SLIM
 10
7992.7526568280337
 20
-135.40529420341099
 30
0.0
 11
8000.0
 21
-128.1579510314458
 31
0.0
1001
GRADIENTCOLOR1ACI
1070
     5
1001
GRADIENTCOLOR2ACI
1070
     2
1001
ACAD
1010
0.0
1020
0.0
1030
0.0
1001
ACDBBLOCKREPETAG
1070
     1
1071
      172
1005
12485E
  0
LINE
  5
12485F
  8
SLIM
 10
8000.0
 20
-128.1579510314458
 30
0.0
 11
8003.0941007878528
 21
-125.0638502435924
 31
0.0
1001
GRADIENTCOLOR1ACI
1070
     5
1001
GRADIENTCOLOR2ACI
1070
     2
1001
ACAD
1010
0.0
1020
0.0
1030
0.0
1001
ACDBBLOCKREPETAG
1070
     1
1071
      173
1005
12485F
  0
LINE
  5
124860
  8
SLIM
 10
8002.1041412234727
 20
-135.03406592904389
 30
0.0
 11
8011.284425768652
 21
-125.85378138386341
 31
0.0
1001
GRADIENTCOLOR1ACI
1070
     5
1001
GRADIENTCOLOR2ACI
1070
     2
1001
ACAD
1010
0.0
1020
0.0
1030
0.0
1001
ACDBBLOCKREPETAG
1070
     1
1071
      174
1005
124860
  0
LINE
  5
124861
  8
SLIM
 10
8010.297585520927
 20
-135.82087775265759
 30
0.0
 11
8018.7395884655189
 21
-127.3788748080627
 31
0.0
1001
GRADIENTCOLOR1ACI
1070
     5
1001
GRADIENTCOLOR2ACI
1070
     2
1001
ACAD
1010
0.0
1020
0.0
1030
0.0
1001
ACDBBLOCKREPETAG
1070
     1
1071
      175
1005
124861
  0
LINE
  5
124862
  8
SLIM
 10
8017.6550793642282
 20
-137.4436400304258
 30
0.0
 11
8025.5958866269621
 21
-129.50283276769261
 31
0.0
1001
GRADIENTCOLOR1ACI
1070
     5
1001
GRADIENTCOLOR2ACI
1070
     2
1001
ACAD
1010
0.0
1020
0.0
1030
0.0
1001
ACDBBLOCKREPETAG
1070
     1
1071
      176
1005
124862
  0
LINE
  5
124863
  8
SLIM
 10
8026.078975515723
 20
-137.99999999999909
 30
0.0
 11
8031.9385859461063
 21
-132.1403895696169
 31
0.0
1001
GRADIENTCOLOR1ACI
1070
     5
1001
GRADIENTCOLOR2ACI
1070
     2
1001
ACAD
1010
0.0
1020
0.0
1030
0.0
1001
ACDBBLOCKREPETAG
1070
     1
1071
      177
1005
124863
  0
LINE
  5
124864
  8
SLIM
 10
8035.0592316367947
 20
-137.99999999999909
 30
0.0
 11
8037.8233654376218
 21
-135.23586619916779
 31
0.0
1001
GRADIENTCOLOR1ACI
1070
     5
1001
GRADIENTCOLOR2ACI
1070
     2
1001
ACAD
1010
0.0
1020
0.0
1030
0.0
1001
ACDBBLOCKREPETAG
1070
     1
1071
      178
1005
124864
  0
CIRCLE
  5
124865
  8
OBJECT
 10
8000.0
 20
-199.99999999999909
 30
0.0
 40
65.0
1001
ACDBBLOCKREPETAG
1070
     1
1071
       84
1005
124865
  0
CIRCLE
  5
124866
  8
OBJECT
 10
8000.0
 20
-199.99999999999909
 30
0.0
 40
41.0
1001
ACDBBLOCKREPETAG
1070
     1
1071
       85
1005
124866
  0
CIRCLE
  5
124867
  8
OBJECT
 10
8000.0
 20
-199.99999999999909
 30
0.0
 40
58.0
1001
ACDBBLOCKREPETAG
1070
     1
1071
       86
1005
124867
  0
LINE
  5
124868
  8
OBJECT
 10
8070.0
 20
-137.99999999999909
 30
0.0
 11
8019.5192212959419
 21
-137.99999999999909
 31
0.0
1001
ACDBBLOCKREPETAG
1070
     1
1071
       87
1005
124868
  0
LINE
  5
124869
  8
OBJECT
 10
7930.0
 20
-137.99999999999909
 30
0.0
 11
7980.4807787040572
 21
-137.99999999999909
 31
0.0
1001
ACDBBLOCKREPETAG
1070
     1
1071
       88
1005
124869
  0
LINE
  5
12486A
  8
OBJECT
 10
7930.0
 20
-261.99999999999909
 30
0.0
 11
7938.0
 21
-261.99999999999909
 31
0.0
1001
ACDBBLOCKREPETAG
1070
     1
1071
       89
1005
12486A
  0
LINE
  5
12486B
  8
OBJECT
 10
7938.0
 20
-269.99999999999909
 30
0.0
 11
7938.0
 21
-261.99999999999909
 31
0.0
1001
ACDBBLOCKREPETAG
1070
     1
1071
       90
1005
12486B
  0
LINE
  5
12486C
  8
OBJECT
 10
8070.0
 20
-261.99999999999909
 30
0.0
 11
8062.0
 21
-261.99999999999909
 31
0.0
1001
ACDBBLOCKREPETAG
1070
     1
1071
       91
1005
12486C
  0
LINE
  5
12486D
  8
OBJECT
 10
8062.0
 20
-269.99999999999909
 30
0.0
 11
8062.0
 21
-261.99999999999909
 31
0.0
1001
ACDBBLOCKREPETAG
1070
     1
1071
       92
1005
12486D
  0
LINE
  5
12486E
  8
CENTER
 10
7930.0
 20
-199.99999999999909
 30
0.0
 11
8070.0
 21
-199.99999999999909
 31
0.0
1001
ACDBBLOCKREPETAG
1070
     1
1071
       93
1005
12486E
  0
LINE
  5
12486F
  8
CENTER
 10
8000.0
 20
-269.99999999999909
 30
0.0
 11
8000.0
 21
-109.9999999999991
 31
0.0
1001
ACDBBLOCKREPETAG
1070
     1
1071
       94
1005
12486F
  0
ARC
  5
124870
  8
OBJECT
 10
7989.902762139187
 20
-224.44352901899131
 30
0.0
 40
7.0
 50
73.00127222950276
 51
154.05025878930931
1001
ACDBBLOCKREPETAG
1070
     1
1071
       95
1005
124870
  0
ARC
  5
124871
  8
OBJECT
 10
7986.8376610706546
 20
-225.5978773169509
 30
0.0
 40
9.0
 50
73.00127222950276
 51
154.0502639259247
1001
ACDBBLOCKREPETAG
1070
     1
1071
       96
1005
124871
  0
ARC
  5
124872
  8
OBJECT
 10
7896.3142301315538
 20
-147.28130031148149
 30
0.0
 40
150.0
 50
322.89503373979312
 51
325.8931499695608
1001
ACDBBLOCKREPETAG
1070
     1
1071
       97
1005
124872
  0
ARC
  5
124873
  8
OBJECT
 10
8000.0
 20
-199.99999999999909
 30
0.0
 40
37.5
 50
303.16276667665232
 51
229.16350249100839
1001
ACDBBLOCKREPETAG
1070
     1
1071
       98
1005
124873
  0
LINE
  5
124874
  8
OBJECT
 10
7983.60851451898
 20
-221.38045100897119
 30
0.0
 11
7977.3740110000008
 21
-234.1915870000002
 31
0.0
1001
ACDBBLOCKREPETAG
1070
     1
1071
       99
1005
124874
  0
LINE
  5
124875
  8
OBJECT
 10
7978.7450566344623
 20
-221.65963488670511
 30
0.0
 11
7973.898672000003
 21
-231.6183599999996
 31
0.0
1001
ACDBBLOCKREPETAG
1070
     1
1071
      100
1005
124875
  0
LINE
  5
124876
  8
OBJECT
 10
8018.9380179999998
 20
-226.00000000000091
 30
0.0
 11
7989.4688153032539
 21
-216.99107608744359
 31
0.0
1001
ACDBBLOCKREPETAG
1070
     1
1071
      101
1005
124876
  0
LINE
  5
124877
  8
OBJECT
 10
8020.513225309006
 20
-231.39199878029191
 30
0.0
 11
8018.9380179999998
 21
-226.00000000000091
 31
0.0
1001
ACDBBLOCKREPETAG
1070
     1
1071
      102
1005
124877
  0
LINE
  5
124878
  8
OBJECT
 10
7954.0380592228739
 20
-245.96194077712289
 30
0.0
 11
7938.0
 21
-261.99999999999909
 31
0.0
1001
ACDBBLOCKREPETAG
1070
     1
1071
      106
1005
124878
  0
LINE
  5
124879
  8
OBJECT
 10
8045.9619407771252
 20
-245.96194077712289
 30
0.0
 11
8062.0
 21
-261.99999999999909
 31
0.0
1001
ACDBBLOCKREPETAG
1070
     1
1071
      107
1005
124879
  0
ARC
  5
12487A
  8
OBJECT
 10
8000.0
 20
-199.99999999999909
 30
0.0
 40
75.0
 50
55.757831297238091
 51
124.2421687027619
1001
ACDBBLOCKREPETAG
1070
     1
1071
      108
1005
12487A
  0
POINT
  5
12487B
  8
DOTS
 10
8000.0
 20
-199.99999999999909
 30
0.0
 50
270.0
1001
ACDBBLOCKREPETAG
1070
     1
1071
      157
1005
12487B
  0
LINE
  5
12487C
  8
OBJECT
 10
8073.0
 20
-533.99999999999955
 30
0.0
 11
8070.0
 21
-533.99999999999955
 31
0.0
1001
ACDBBLOCKREPETAG
1070
     1
1071
        1
1005
12487C
  0
ARC
  5
12487D
  8
OBJECT
 10
8073.0
 20
-536.99999999999955
 30
0.0
 40
3.0
 50
0.0
 51
90.0
1001
ACDBBLOCKREPETAG
1070
     1
1071
        2
1005
12487D
  0
LINE
  5
12487E
  8
OBJECT
 10
8070.0
 20
-657.99999999999955
 30
0.0
 11
8073.0
 21
-657.99999999999955
 31
0.0
1001
ACDBBLOCKREPETAG
1070
     1
1071
        3
1005
12487E
  0
ARC
  5
12487F
  8
OBJECT
 10
8073.0
 20
-654.99999999999966
 30
0.0
 40
3.0
 50
270.0
 51
0.0
1001
ACDBBLOCKREPETAG
1070
     1
1071
        4
1005
12487F
  0
LINE
  5
124880
  8
OBJECT
 10
8076.0
 20
-654.99999999999966
 30
0.0
 11
8076.0
 21
-536.99999999999955
 31
0.0
1001
ACDBBLOCKREPETAG
1070
     1
1071
        5
1005
124880
  0
LINE
  5
124881
  8
CENTER
 10
8091.0
 20
-199.99999999999909
 30
0.0
 11
8070.0
 21
-199.99999999999909
 31
0.0
1001
ACDBBLOCKREPETAG
1070
     1
1071
        0
1005
124881
  0
LINE
  5
124882
  8
OBJECT
 10
8073.0
 20
-137.99999999999909
 30
0.0
 11
8070.0
 21
-137.99999999999909
 31
0.0
1001
ACDBBLOCKREPETAG
1070
     1
1071
        1
1005
124882
  0
ARC
  5
124883
  8
OBJECT
 10
8073.0
 20
-140.99999999999909
 30
0.0
 40
3.0
 50
0.0
 51
90.0
1001
ACDBBLOCKREPETAG
1070
     1
1071
        2
1005
124883
  0
LINE
  5
124884
  8
OBJECT
 10
8070.0
 20
-261.99999999999909
 30
0.0
 11
8073.0
 21
-261.99999999999909
 31
0.0
1001
ACDBBLOCKREPETAG
1070
     1
1071
        3
1005
124884
  0
ARC
  5
124885
  8
OBJECT
 10
8073.0
 20
-258.99999999999909
 30
0.0
 40
3.0
 50
270.0
 51
0.0
1001
ACDBBLOCKREPETAG
1070
     1
1071
        4
1005
124885
  0
LINE
  5
124886
  8
OBJECT
 10
8076.0
 20
-258.99999999999909
 30
0.0
 11
8076.0
 21
-140.99999999999909
 31
0.0
1001
ACDBBLOCKREPETAG
1070
     1
1071
        5
1005
124886
  0
LINE
  5
124887
  8
OBJECT
 10
5927.0
 20
-533.99999999999955
 30
0.0
 11
5930.0
 21
-533.99999999999955
 31
0.0
1001
ACDBBLOCKREPETAG
1070
     1
1071
        1
1005
124887
  0
ARC
  5
124888
  8
OBJECT
 10
5927.0
 20
-536.99999999999955
 30
0.0
 40
3.0
 50
90.0
 51
180.0
1001
ACDBBLOCKREPETAG
1070
     1
1071
        2
1005
124888
  0
LINE
  5
124889
  8
OBJECT
 10
5930.0
 20
-657.99999999999955
 30
0.0
 11
5927.0
 21
-657.99999999999955
 31
0.0
1001
ACDBBLOCKREPETAG
1070
     1
1071
        3
1005
124889
  0
ARC
  5
12488A
  8
OBJECT
 10
5927.0
 20
-654.99999999999966
 30
0.0
 40
3.0
 50
180.0
 51
270.0
1001
ACDBBLOCKREPETAG
1070
     1
1071
        4
1005
12488A
  0
LINE
  5
12488B
  8
OBJECT
 10
5924.0
 20
-654.99999999999966
 30
0.0
 11
5924.0
 21
-536.99999999999955
 31
0.0
1001
ACDBBLOCKREPETAG
1070
     1
1071
        5
1005
12488B
  0
CIRCLE
  5
12488C
  8
OBJECT
 10
6000.0
 20
-596.0
 30
0.0
 40
62.0
1001
ACDBBLOCKREPETAG
1070
     1
1071
        0
1005
12488C
  0
LINE
  5
12488D
  8
OBJECT
 10
5935.0
 20
-449.99999999999937
 30
0.0
 11
5935.0
 21
-470.99999999999937
 31
0.0
1001
ACDBBLOCKREPETAG
1070
     1
1071
       16
1005
12488D
  0
LINE
  5
12488E
  8
OBJECT
 10
5935.0
 20
-470.99999999999937
 30
0.0
 11
6065.0
 21
-470.99999999999937
 31
0.0
1001
ACDBBLOCKREPETAG
1070
     1
1071
       17
1005
12488E
  0
LINE
  5
12488F
  8
OBJECT
 10
6065.0
 20
-470.99999999999937
 30
0.0
 11
6065.0
 21
-449.99999999999937
 31
0.0
1001
ACDBBLOCKREPETAG
1070
     1
1071
       18
1005
12488F
  0
LINE
  5
124890
  8
OBJECT
 10
6065.0
 20
-449.99999999999937
 30
0.0
 11
5935.0
 21
-449.99999999999937
 31
0.0
1001
ACDBBLOCKREPETAG
1070
     1
1071
       19
1005
124890
  0
LINE
  5
124891
  8
HIDDEN
 10
6044.5
 20
-519.99999999999955
 30
0.0
 11
5955.5
 21
-519.99999999999955
 31
0.0
1001
ACDBBLOCKREPETAG
1070
     1
1071
       20
1005
124891
  0
LINE
  5
124892
  8
CENTER
 10
6000.0
 20
-669.99999999999955
 30
0.0
 11
6000.0
 21
-434.99999999999949
 31
0.0
1001
ACDBBLOCKREPETAG
1070
     1
1071
       21
1005
124892
  0
LINE
  5
124893
  8
OBJECT
 10
5940.5
 20
-470.99999999999937
 30
0.0
 11
5940.5
 21
-533.99999999999955
 31
0.0
1001
ACDBBLOCKREPETAG
1070
     1
1071
       22
1005
124893
  0
LINE
  5
124894
  8
OBJECT
 10
5930.0
 20
-533.99999999999955
 30
0.0
 11
6070.0
 21
-533.99999999999955
 31
0.0
1001
ACDBBLOCKREPETAG
1070
     1
1071
       23
1005
124894
  0
LINE
  5
124895
  8
OBJECT
 10
6059.4999999999991
 20
-533.99999999999955
 30
0.0
 11
6059.4999999999991
 21
-470.99999999999937
 31
0.0
1001
ACDBBLOCKREPETAG
1070
     1
1071
       24
1005
124895
  0
LINE
  5
124896
  8
OBJECT
 10
5930.0
 20
-657.99999999999955
 30
0.0
 11
5930.0
 21
-669.99999999999955
 31
0.0
1001
ACDBBLOCKREPETAG
1070
     1
1071
       25
1005
124896
  0
LINE
  5
124897
  8
OBJECT
 10
5930.0
 20
-669.99999999999955
 30
0.0
 11
6070.0
 21
-669.99999999999955
 31
0.0
1001
ACDBBLOCKREPETAG
1070
     1
1071
       26
1005
124897
  0
LINE
  5
124898
  8
OBJECT
 10
6070.0
 20
-669.99999999999955
 30
0.0
 11
6070.0
 21
-657.99999999999955
 31
0.0
1001
ACDBBLOCKREPETAG
1070
     1
1071
       27
1005
124898
  0
LINE
  5
124899
  8
OBJECT
 10
6070.0
 20
-657.99999999999955
 30
0.0
 11
5930.0
 21
-657.99999999999955
 31
0.0
1001
ACDBBLOCKREPETAG
1070
     1
1071
       28
1005
124899
  0
ARC
  5
12489A
  8
OBJECT
 10
6435.0384389946776
 20
-898.60813684682694
 30
0.0
 40
519.48776673616965
 50
135.42350667430969
 51
138.50052655621499
1001
ACDBBLOCKREPETAG
1070
     1
1071
       32
1005
12489A
  0
ARC
  5
12489B
  8
OBJECT
 10
6435.0384389946776
 20
-293.39186315317193
 30
0.0
 40
519.48776673616965
 50
221.49947344378501
 51
224.57649332569039
1001
ACDBBLOCKREPETAG
1070
     1
1071
       33
1005
12489B
  0
ARC
  5
12489C
  8
OBJECT
 10
5564.9615610053224
 20
-898.60813684682694
 30
0.0
 40
519.48776673616965
 50
41.499473443784993
 51
44.576493325690237
1001
ACDBBLOCKREPETAG
1070
     1
1071
       34
1005
12489C
  0
ARC
  5
12489D
  8
OBJECT
 10
5564.9615610053224
 20
-293.39186315317193
 30
0.0
 40
519.48776673616965
 50
315.42350667430981
 51
318.50052655621488
1001
ACDBBLOCKREPETAG
1070
     1
1071
       35
1005
12489D
  0
POINT
  5
12489E
  8
DOTS
 10
6000.0
 20
-654.99999999999966
 30
0.0
1001
ACDBBLOCKREPETAG
1070
     1
1071
      111
1005
12489E
  0
LINE
  5
12489F
  8
CENTER
 10
5909.0
 20
-199.99999999999909
 30
0.0
 11
5930.0
 21
-199.99999999999909
 31
0.0
1001
ACDBBLOCKREPETAG
1070
     1
1071
        0
1005
12489F
  0
LINE
  5
1248A0
  8
OBJECT
 10
5927.0
 20
-261.99999999999909
 30
0.0
 11
5930.0
 21
-261.99999999999909
 31
0.0
1001
ACDBBLOCKREPETAG
1070
     1
1071
        1
1005
1248A0
  0
ARC
  5
1248A1
  8
OBJECT
 10
5927.0
 20
-258.99999999999909
 30
0.0
 40
3.0
 50
180.0
 51
270.0
1001
ACDBBLOCKREPETAG
1070
     1
1071
        2
1005
1248A1
  0
LINE
  5
1248A2
  8
OBJECT
 10
5930.0
 20
-137.99999999999909
 30
0.0
 11
5927.0
 21
-137.99999999999909
 31
0.0
1001
ACDBBLOCKREPETAG
1070
     1
1071
        3
1005
1248A2
  0
ARC
  5
1248A3
  8
OBJECT
 10
5927.0
 20
-140.99999999999909
 30
0.0
 40
3.0
 50
90.0
 51
180.0
1001
ACDBBLOCKREPETAG
1070
     1
1071
        4
1005
1248A3
  0
LINE
  5
1248A4
  8
OBJECT
 10
5924.0
 20
-140.99999999999909
 30
0.0
 11
5924.0
 21
-258.99999999999909
 31
0.0
1001
ACDBBLOCKREPETAG
1070
     1
1071
        5
1005
1248A4
  0
LINE
  5
1248A5
  8
CENTER
 10
6000.0
 20
-290.99999999999898
 30
0.0
 11
6000.0
 21
-269.99999999999909
 31
0.0
1001
ACDBBLOCKREPETAG
1070
     1
1071
        0
1005
1248A5
  0
LINE
  5
1248A6
  8
OBJECT
 10
6062.0
 20
-273.0
 30
0.0
 11
6062.0
 21
-269.99999999999909
 31
0.0
1001
ACDBBLOCKREPETAG
1070
     1
1071
        1
1005
1248A6
  0
ARC
  5
1248A7
  8
OBJECT
 10
6059.0
 20
-273.0
 30
0.0
 40
3.0
 50
270.0
 51
0.0
1001
ACDBBLOCKREPETAG
1070
     1
1071
        2
1005
1248A7
  0
LINE
  5
1248A8
  8
OBJECT
 10
5938.0
 20
-269.99999999999909
 30
0.0
 11
5938.0
 21
-272.99999999999818
 31
0.0
1001
ACDBBLOCKREPETAG
1070
     1
1071
        3
1005
1248A8
  0
ARC
  5
1248A9
  8
OBJECT
 10
5941.0
 20
-272.99999999999818
 30
0.0
 40
3.0
 50
180.0
 51
270.0
1001
ACDBBLOCKREPETAG
1070
     1
1071
        4
1005
1248A9
  0
LINE
  5
1248AA
  8
OBJECT
 10
5941.0
 20
-275.99999999999818
 30
0.0
 11
6059.0
 21
-276.0
 31
0.0
1001
ACDBBLOCKREPETAG
1070
     1
1071
        5
1005
1248AA
  0
POINT
  5
1248AB
  8
DOTS
 10
6000.0
 20
-199.99999999999909
 30
0.0
 50
270.0
1001
ACDBBLOCKREPETAG
1070
     1
1071
      153
1005
1248AB
  0
ARC
  5
1248AC
  8
OBJECT
 10
6000.0
 20
-199.99999999999909
 30
0.0
 40
70.0
 50
62.339550100781771
 51
117.66044989921819
1001
ACDBBLOCKREPETAG
1070
     1
1071
        0
1005
1248AC
  0
CIRCLE
  5
1248AD
  8
OBJECT
 10
6000.0
 20
-199.99999999999909
 30
0.0
 40
65.0
1001
ACDBBLOCKREPETAG
1070
     1
1071
        1
1005
1248AD
  0
CIRCLE
  5
1248AE
  8
OBJECT
 10
6000.0
 20
-199.99999999999909
 30
0.0
 40
41.0
1001
ACDBBLOCKREPETAG
1070
     1
1071
        2
1005
1248AE
  0
CIRCLE
  5
1248AF
  8
OBJECT
 10
6000.0
 20
-199.99999999999909
 30
0.0
 40
58.0
1001
ACDBBLOCKREPETAG
1070
     1
1071
        3
1005
1248AF
  0
LINE
  5
1248B0
  8
OBJECT
 10
6070.0
 20
-137.99999999999909
 30
0.0
 11
6019.5192212959437
 21
-137.99999999999909
 31
0.0
1001
ACDBBLOCKREPETAG
1070
     1
1071
        4
1005
1248B0
  0
LINE
  5
1248B1
  8
OBJECT
 10
5930.0
 20
-137.99999999999909
 30
0.0
 11
5980.4807787040563
 21
-137.99999999999909
 31
0.0
1001
ACDBBLOCKREPETAG
1070
     1
1071
        5
1005
1248B1
  0
LINE
  5
1248B2
  8
OBJECT
 10
5930.0
 20
-261.99999999999909
 30
0.0
 11
5938.0
 21
-261.99999999999909
 31
0.0
1001
ACDBBLOCKREPETAG
1070
     1
1071
        6
1005
1248B2
  0
LINE
  5
1248B3
  8
OBJECT
 10
5938.0
 20
-269.99999999999909
 30
0.0
 11
5938.0
 21
-261.99999999999909
 31
0.0
1001
ACDBBLOCKREPETAG
1070
     1
1071
        7
1005
1248B3
  0
LINE
  5
1248B4
  8
OBJECT
 10
6070.0
 20
-261.99999999999909
 30
0.0
 11
6062.0
 21
-261.99999999999909
 31
0.0
1001
ACDBBLOCKREPETAG
1070
     1
1071
        8
1005
1248B4
  0
LINE
  5
1248B5
  8
OBJECT
 10
6062.0
 20
-269.99999999999909
 30
0.0
 11
6062.0
 21
-261.99999999999909
 31
0.0
1001
ACDBBLOCKREPETAG
1070
     1
1071
        9
1005
1248B5
  0
LINE
  5
1248B6
  8
CENTER
 10
5930.0
 20
-199.99999999999909
 30
0.0
 11
6070.0
 21
-199.99999999999909
 31
0.0
1001
ACDBBLOCKREPETAG
1070
     1
1071
       10
1005
1248B6
  0
LINE
  5
1248B7
  8
CENTER
 10
6000.0
 20
-269.99999999999909
 30
0.0
 11
6000.0
 21
-114.9999999999991
 31
0.0
1001
ACDBBLOCKREPETAG
1070
     1
1071
       11
1005
1248B7
  0
ARC
  5
1248B8
  8
OBJECT
 10
5989.9027621391879
 20
-224.44352901899131
 30
0.0
 40
7.0
 50
73.001272229719234
 51
154.0502587894434
1001
ACDBBLOCKREPETAG
1070
     1
1071
       12
1005
1248B8
  0
ARC
  5
1248B9
  8
OBJECT
 10
5986.8376610706491
 20
-225.5978773169509
 30
0.0
 40
9.0
 50
73.001272229719234
 51
154.0502639259247
1001
ACDBBLOCKREPETAG
1070
     1
1071
       13
1005
1248B9
  0
ARC
  5
1248BA
  8
OBJECT
 10
5896.3142301315529
 20
-147.28130031148149
 30
0.0
 40
150.0
 50
322.89503374001981
 51
325.89314996972843
1001
ACDBBLOCKREPETAG
1070
     1
1071
       14
1005
1248BA
  0
ARC
  5
1248BB
  8
OBJECT
 10
6000.0
 20
-199.99999999999909
 30
0.0
 40
37.5
 50
303.1627666766604
 51
229.1635024908081
1001
ACDBBLOCKREPETAG
1070
     1
1071
       15
1005
1248BB
  0
LINE
  5
1248BC
  8
OBJECT
 10
5983.6085145189763
 20
-221.38045100897119
 30
0.0
 11
5977.3740109999999
 21
-234.1915870000002
 31
0.0
1001
ACDBBLOCKREPETAG
1070
     1
1071
       16
1005
1248BC
  0
LINE
  5
1248BD
  8
OBJECT
 10
5978.7450566344633
 20
-221.65963488670511
 30
0.0
 11
5973.8986720000003
 21
-231.6183599999996
 31
0.0
1001
ACDBBLOCKREPETAG
1070
     1
1071
       17
1005
1248BD
  0
LINE
  5
1248BE
  8
OBJECT
 10
6018.9380179999998
 20
-226.00000000000091
 30
0.0
 11
5989.4688153032585
 21
-216.99107608744359
 31
0.0
1001
ACDBBLOCKREPETAG
1070
     1
1071
       18
1005
1248BE
  0
LINE
  5
1248BF
  8
OBJECT
 10
6020.5132253090051
 20
-231.39199878029191
 30
0.0
 11
6018.9380179999998
 21
-226.00000000000091
 31
0.0
1001
ACDBBLOCKREPETAG
1070
     1
1071
       19
1005
1248BF
  0
LINE
  5
1248C0
  8
OBJECT
 10
5954.0380592228739
 20
-245.96194077712471
 30
0.0
 11
5938.0
 21
-261.99999999999909
 31
0.0
1001
ACDBBLOCKREPETAG
1070
     1
1071
       42
1005
1248C0
  0
LINE
  5
1248C1
  8
OBJECT
 10
6045.9619407771252
 20
-245.96194077712471
 30
0.0
 11
6062.0
 21
-261.99999999999909
 31
0.0
1001
ACDBBLOCKREPETAG
1070
     1
1071
       43
1005
1248C1
  0
LINE
  5
1248C2
  8
OBJECT
 10
6073.0
 20
-533.99999999999955
 30
0.0
 11
6070.0
 21
-533.99999999999955
 31
0.0
1001
ACDBBLOCKREPETAG
1070
     1
1071
        1
1005
1248C2
  0
ARC
  5
1248C3
  8
OBJECT
 10
6073.0
 20
-536.99999999999955
 30
0.0
 40
3.0
 50
0.0
 51
90.0
1001
ACDBBLOCKREPETAG
1070
     1
1071
        2
1005
1248C3
  0
LINE
  5
1248C4
  8
OBJECT
 10
6070.0
 20
-657.99999999999955
 30
0.0
 11
6073.0
 21
-657.99999999999955
 31
0.0
1001
ACDBBLOCKREPETAG
1070
     1
1071
        3
1005
1248C4
  0
ARC
  5
1248C5
  8
OBJECT
 10
6073.0
 20
-654.99999999999966
 30
0.0
 40
3.0
 50
270.0
 51
0.0
1001
ACDBBLOCKREPETAG
1070
     1
1071
        4
1005
1248C5
  0
LINE
  5
1248C6
  8
OBJECT
 10
6076.0
 20
-654.99999999999966
 30
0.0
 11
6076.0
 21
-536.99999999999955
 31
0.0
1001
ACDBBLOCKREPETAG
1070
     1
1071
        5
1005
1248C6
  0
LINE
  5
1248C7
  8
CENTER
 10
6091.0
 20
-199.99999999999909
 30
0.0
 11
6070.0
 21
-199.99999999999909
 31
0.0
1001
ACDBBLOCKREPETAG
1070
     1
1071
        0
1005
1248C7
  0
LINE
  5
1248C8
  8
OBJECT
 10
6073.0
 20
-137.99999999999909
 30
0.0
 11
6070.0
 21
-137.99999999999909
 31
0.0
1001
ACDBBLOCKREPETAG
1070
     1
1071
        1
1005
1248C8
  0
ARC
  5
1248C9
  8
OBJECT
 10
6073.0
 20
-140.99999999999909
 30
0.0
 40
3.0
 50
0.0
 51
90.0
1001
ACDBBLOCKREPETAG
1070
     1
1071
        2
1005
1248C9
  0
LINE
  5
1248CA
  8
OBJECT
 10
6070.0
 20
-261.99999999999909
 30
0.0
 11
6073.0
 21
-261.99999999999909
 31
0.0
1001
ACDBBLOCKREPETAG
1070
     1
1071
        3
1005
1248CA
  0
ARC
  5
1248CB
  8
OBJECT
 10
6073.0
 20
-258.99999999999909
 30
0.0
 40
3.0
 50
270.0
 51
0.0
1001
ACDBBLOCKREPETAG
1070
     1
1071
        4
1005
1248CB
  0
LINE
  5
1248CC
  8
OBJECT
 10
6076.0
 20
-258.99999999999909
 30
0.0
 11
6076.0
 21
-140.99999999999909
 31
0.0
1001
ACDBBLOCKREPETAG
1070
     1
1071
        5
1005
1248CC
  0
LINE
  5
1248CD
  8
OBJECT
 10
3927.0
 20
-533.99999999999955
 30
0.0
 11
3930.0
 21
-533.99999999999955
 31
0.0
1001
ACDBBLOCKREPETAG
1070
     1
1071
        1
1005
1248CD
  0
ARC
  5
1248CE
  8
OBJECT
 10
3927.0
 20
-536.99999999999955
 30
0.0
 40
3.0
 50
90.0
 51
180.0
1001
ACDBBLOCKREPETAG
1070
     1
1071
        2
1005
1248CE
  0
LINE
  5
1248CF
  8
OBJECT
 10
3930.0
 20
-657.99999999999955
 30
0.0
 11
3927.0
 21
-657.99999999999955
 31
0.0
1001
ACDBBLOCKREPETAG
1070
     1
1071
        3
1005
1248CF
  0
ARC
  5
1248D0
  8
OBJECT
 10
3927.0
 20
-654.99999999999966
 30
0.0
 40
3.0
 50
180.0
 51
270.0
1001
ACDBBLOCKREPETAG
1070
     1
1071
        4
1005
1248D0
  0
LINE
  5
1248D1
  8
OBJECT
 10
3924.0
 20
-654.99999999999966
 30
0.0
 11
3924.0
 21
-536.99999999999955
 31
0.0
1001
ACDBBLOCKREPETAG
1070
     1
1071
        5
1005
1248D1
  0
CIRCLE
  5
1248D2
  8
OBJECT
 10
4000.0
 20
-596.0
 30
0.0
 40
62.0
1001
ACDBBLOCKREPETAG
1070
     1
1071
        0
1005
1248D2
  0
LINE
  5
1248D3
  8
OBJECT
 10
3935.0
 20
-449.99999999999937
 30
0.0
 11
3935.0
 21
-470.99999999999937
 31
0.0
1001
ACDBBLOCKREPETAG
1070
     1
1071
       16
1005
1248D3
  0
LINE
  5
1248D4
  8
OBJECT
 10
3935.0
 20
-470.99999999999937
 30
0.0
 11
4065.0
 21
-470.99999999999937
 31
0.0
1001
ACDBBLOCKREPETAG
1070
     1
1071
       17
1005
1248D4
  0
LINE
  5
1248D5
  8
OBJECT
 10
4065.0
 20
-470.99999999999937
 30
0.0
 11
4065.0
 21
-449.99999999999937
 31
0.0
1001
ACDBBLOCKREPETAG
1070
     1
1071
       18
1005
1248D5
  0
LINE
  5
1248D6
  8
OBJECT
 10
4065.0
 20
-449.99999999999937
 30
0.0
 11
3935.0
 21
-449.99999999999937
 31
0.0
1001
ACDBBLOCKREPETAG
1070
     1
1071
       19
1005
1248D6
  0
LINE
  5
1248D7
  8
HIDDEN
 10
4044.5
 20
-519.99999999999955
 30
0.0
 11
3955.5
 21
-519.99999999999955
 31
0.0
1001
ACDBBLOCKREPETAG
1070
     1
1071
       20
1005
1248D7
  0
LINE
  5
1248D8
  8
CENTER
 10
4000.0
 20
-669.99999999999955
 30
0.0
 11
4000.0
 21
-434.99999999999949
 31
0.0
1001
ACDBBLOCKREPETAG
1070
     1
1071
       21
1005
1248D8
  0
LINE
  5
1248D9
  8
OBJECT
 10
3940.5
 20
-470.99999999999937
 30
0.0
 11
3940.5
 21
-533.99999999999955
 31
0.0
1001
ACDBBLOCKREPETAG
1070
     1
1071
       22
1005
1248D9
  0
LINE
  5
1248DA
  8
OBJECT
 10
3930.0
 20
-533.99999999999955
 30
0.0
 11
4070.0
 21
-533.99999999999955
 31
0.0
1001
ACDBBLOCKREPETAG
1070
     1
1071
       23
1005
1248DA
  0
LINE
  5
1248DB
  8
OBJECT
 10
4059.4999999999982
 20
-533.99999999999955
 30
0.0
 11
4059.4999999999982
 21
-470.99999999999937
 31
0.0
1001
ACDBBLOCKREPETAG
1070
     1
1071
       24
1005
1248DB
  0
LINE
  5
1248DC
  8
OBJECT
 10
3930.0
 20
-657.99999999999955
 30
0.0
 11
3930.0
 21
-669.99999999999955
 31
0.0
1001
ACDBBLOCKREPETAG
1070
     1
1071
       25
1005
1248DC
  0
LINE
  5
1248DD
  8
OBJECT
 10
3930.0
 20
-669.99999999999955
 30
0.0
 11
4070.0
 21
-669.99999999999955
 31
0.0
1001
ACDBBLOCKREPETAG
1070
     1
1071
       26
1005
1248DD
  0
LINE
  5
1248DE
  8
OBJECT
 10
4070.0
 20
-669.99999999999955
 30
0.0
 11
4070.0
 21
-657.99999999999955
 31
0.0
1001
ACDBBLOCKREPETAG
1070
     1
1071
       27
1005
1248DE
  0
LINE
  5
1248DF
  8
OBJECT
 10
4070.0
 20
-657.99999999999955
 30
0.0
 11
3930.0
 21
-657.99999999999955
 31
0.0
1001
ACDBBLOCKREPETAG
1070
     1
1071
       28
1005
1248DF
  0
ARC
  5
1248E0
  8
OBJECT
 10
4435.0384389946767
 20
-898.60813684682694
 30
0.0
 40
519.48776673616965
 50
135.42350667430969
 51
138.50052655621499
1001
ACDBBLOCKREPETAG
1070
     1
1071
       32
1005
1248E0
  0
ARC
  5
1248E1
  8
OBJECT
 10
4435.0384389946767
 20
-293.39186315317193
 30
0.0
 40
519.48776673616965
 50
221.49947344378501
 51
224.57649332569039
1001
ACDBBLOCKREPETAG
1070
     1
1071
       33
1005
1248E1
  0
ARC
  5
1248E2
  8
OBJECT
 10
3564.961561005322
 20
-898.60813684682694
 30
0.0
 40
519.48776673616965
 50
41.499473443784993
 51
44.576493325690237
1001
ACDBBLOCKREPETAG
1070
     1
1071
       34
1005
1248E2
  0
ARC
  5
1248E3
  8
OBJECT
 10
3564.961561005322
 20
-293.39186315317193
 30
0.0
 40
519.48776673616965
 50
315.42350667430981
 51
318.50052655621488
1001
ACDBBLOCKREPETAG
1070
     1
1071
       35
1005
1248E3
  0
POINT
  5
1248E4
  8
DOTS
 10
4000.0
 20
-654.99999999999966
 30
0.0
1001
ACDBBLOCKREPETAG
1070
     1
1071
      111
1005
1248E4
  0
LINE
  5
1248E5
  8
CENTER
 10
3909.0
 20
-199.99999999999909
 30
0.0
 11
3930.0
 21
-199.99999999999909
 31
0.0
1001
ACDBBLOCKREPETAG
1070
     1
1071
        0
1005
1248E5
  0
LINE
  5
1248E6
  8
OBJECT
 10
3927.0
 20
-261.99999999999909
 30
0.0
 11
3930.0
 21
-261.99999999999909
 31
0.0
1001
ACDBBLOCKREPETAG
1070
     1
1071
        1
1005
1248E6
  0
ARC
  5
1248E7
  8
OBJECT
 10
3927.0
 20
-258.99999999999909
 30
0.0
 40
3.0
 50
180.0
 51
270.0
1001
ACDBBLOCKREPETAG
1070
     1
1071
        2
1005
1248E7
  0
LINE
  5
1248E8
  8
OBJECT
 10
3930.0
 20
-137.99999999999909
 30
0.0
 11
3927.0
 21
-137.99999999999909
 31
0.0
1001
ACDBBLOCKREPETAG
1070
     1
1071
        3
1005
1248E8
  0
ARC
  5
1248E9
  8
OBJECT
 10
3927.0
 20
-140.99999999999909
 30
0.0
 40
3.0
 50
90.0
 51
180.0
1001
ACDBBLOCKREPETAG
1070
     1
1071
        4
1005
1248E9
  0
LINE
  5
1248EA
  8
OBJECT
 10
3924.0
 20
-140.99999999999909
 30
0.0
 11
3924.0
 21
-258.99999999999909
 31
0.0
1001
ACDBBLOCKREPETAG
1070
     1
1071
        5
1005
1248EA
  0
LINE
  5
1248EB
  8
CENTER
 10
4000.0
 20
-290.99999999999898
 30
0.0
 11
4000.0
 21
-269.99999999999909
 31
0.0
1001
ACDBBLOCKREPETAG
1070
     1
1071
        0
1005
1248EB
  0
LINE
  5
1248EC
  8
OBJECT
 10
4062.0
 20
-273.0
 30
0.0
 11
4062.0
 21
-269.99999999999909
 31
0.0
1001
ACDBBLOCKREPETAG
1070
     1
1071
        1
1005
1248EC
  0
ARC
  5
1248ED
  8
OBJECT
 10
4059.0
 20
-273.0
 30
0.0
 40
3.0
 50
270.0
 51
0.0
1001
ACDBBLOCKREPETAG
1070
     1
1071
        2
1005
1248ED
  0
LINE
  5
1248EE
  8
OBJECT
 10
3938.0
 20
-269.99999999999909
 30
0.0
 11
3938.0
 21
-272.99999999999818
 31
0.0
1001
ACDBBLOCKREPETAG
1070
     1
1071
        3
1005
1248EE
  0
ARC
  5
1248EF
  8
OBJECT
 10
3941.0
 20
-272.99999999999818
 30
0.0
 40
3.0
 50
180.0
 51
270.0
1001
ACDBBLOCKREPETAG
1070
     1
1071
        4
1005
1248EF
  0
LINE
  5
1248F0
  8
OBJECT
 10
3941.0
 20
-275.99999999999818
 30
0.0
 11
4059.0
 21
-276.0
 31
0.0
1001
ACDBBLOCKREPETAG
1070
     1
1071
        5
1005
1248F0
  0
POINT
  5
1248F1
  8
DOTS
 10
4000.0
 20
-199.99999999999909
 30
0.0
 50
270.0
1001
ACDBBLOCKREPETAG
1070
     1
1071
      153
1005
1248F1
  0
ARC
  5
1248F2
  8
OBJECT
 10
4000.0
 20
-199.99999999999909
 30
0.0
 40
70.0
 50
62.339550100758693
 51
117.6604498992413
1001
ACDBBLOCKREPETAG
1070
     1
1071
        0
1005
1248F2
  0
CIRCLE
  5
1248F3
  8
OBJECT
 10
4000.0
 20
-199.99999999999909
 30
0.0
 40
65.0
1001
ACDBBLOCKREPETAG
1070
     1
1071
        1
1005
1248F3
  0
CIRCLE
  5
1248F4
  8
OBJECT
 10
4000.0
 20
-199.99999999999909
 30
0.0
 40
41.0
1001
ACDBBLOCKREPETAG
1070
     1
1071
        2
1005
1248F4
  0
CIRCLE
  5
1248F5
  8
OBJECT
 10
4000.0
 20
-199.99999999999909
 30
0.0
 40
58.0
1001
ACDBBLOCKREPETAG
1070
     1
1071
        3
1005
1248F5
  0
LINE
  5
1248F6
  8
OBJECT
 10
4070.0
 20
-137.99999999999909
 30
0.0
 11
4019.5192212959432
 21
-137.99999999999909
 31
0.0
1001
ACDBBLOCKREPETAG
1070
     1
1071
        4
1005
1248F6
  0
LINE
  5
1248F7
  8
OBJECT
 10
3930.0
 20
-137.99999999999909
 30
0.0
 11
3980.4807787040581
 21
-137.99999999999909
 31
0.0
1001
ACDBBLOCKREPETAG
1070
     1
1071
        5
1005
1248F7
  0
LINE
  5
1248F8
  8
OBJECT
 10
3930.0
 20
-261.99999999999909
 30
0.0
 11
3938.0
 21
-261.99999999999909
 31
0.0
1001
ACDBBLOCKREPETAG
1070
     1
1071
        6
1005
1248F8
  0
LINE
  5
1248F9
  8
OBJECT
 10
3938.0
 20
-269.99999999999909
 30
0.0
 11
3938.0
 21
-261.99999999999909
 31
0.0
1001
ACDBBLOCKREPETAG
1070
     1
1071
        7
1005
1248F9
  0
LINE
  5
1248FA
  8
OBJECT
 10
4070.0
 20
-261.99999999999909
 30
0.0
 11
4062.0
 21
-261.99999999999909
 31
0.0
1001
ACDBBLOCKREPETAG
1070
     1
1071
        8
1005
1248FA
  0
LINE
  5
1248FB
  8
OBJECT
 10
4062.0
 20
-269.99999999999909
 30
0.0
 11
4062.0
 21
-261.99999999999909
 31
0.0
1001
ACDBBLOCKREPETAG
1070
     1
1071
        9
1005
1248FB
  0
LINE
  5
1248FC
  8
CENTER
 10
3930.0
 20
-199.99999999999909
 30
0.0
 11
4070.0
 21
-199.99999999999909
 31
0.0
1001
ACDBBLOCKREPETAG
1070
     1
1071
       10
1005
1248FC
  0
LINE
  5
1248FD
  8
CENTER
 10
4000.0
 20
-269.99999999999909
 30
0.0
 11
4000.0
 21
-114.9999999999991
 31
0.0
1001
ACDBBLOCKREPETAG
1070
     1
1071
       11
1005
1248FD
  0
ARC
  5
1248FE
  8
OBJECT
 10
3989.9027621391888
 20
-224.44352901899131
 30
0.0
 40
7.0
 50
73.001272229719234
 51
154.0502587894434
1001
ACDBBLOCKREPETAG
1070
     1
1071
       12
1005
1248FE
  0
ARC
  5
1248FF
  8
OBJECT
 10
3986.8376610706509
 20
-225.5978773169509
 30
0.0
 40
9.0
 50
73.001272229719234
 51
154.0502639259247
1001
ACDBBLOCKREPETAG
1070
     1
1071
       13
1005
1248FF
  0
ARC
  5
124900
  8
OBJECT
 10
3896.3142301315529
 20
-147.28130031148149
 30
0.0
 40
150.0
 50
322.89503374001981
 51
325.8931499697137
1001
ACDBBLOCKREPETAG
1070
     1
1071
       14
1005
124900
  0
ARC
  5
124901
  8
OBJECT
 10
4000.0
 20
-199.99999999999909
 30
0.0
 40
37.5
 50
303.16276667668222
 51
229.1635024908278
1001
ACDBBLOCKREPETAG
1070
     1
1071
       15
1005
124901
  0
LINE
  5
124902
  8
OBJECT
 10
3983.6085145189768
 20
-221.38045100897119
 30
0.0
 11
3977.3740109999999
 21
-234.1915870000002
 31
0.0
1001
ACDBBLOCKREPETAG
1070
     1
1071
       16
1005
124902
  0
LINE
  5
124903
  8
OBJECT
 10
3978.7450566344628
 20
-221.65963488670511
 30
0.0
 11
3973.8986719999989
 21
-231.6183599999996
 31
0.0
1001
ACDBBLOCKREPETAG
1070
     1
1071
       17
1005
124903
  0
LINE
  5
124904
  8
OBJECT
 10
4018.9380179999998
 20
-226.00000000000091
 30
0.0
 11
3989.468815303258
 21
-216.99107608744359
 31
0.0
1001
ACDBBLOCKREPETAG
1070
     1
1071
       18
1005
124904
  0
LINE
  5
124905
  8
OBJECT
 10
4020.5132253090051
 20
-231.39199878029191
 30
0.0
 11
4018.9380179999998
 21
-226.00000000000091
 31
0.0
1001
ACDBBLOCKREPETAG
1070
     1
1071
       19
1005
124905
  0
LINE
  5
124906
  8
OBJECT
 10
3954.0380592228739
 20
-245.96194077712471
 30
0.0
 11
3938.0
 21
-261.99999999999909
 31
0.0
1001
ACDBBLOCKREPETAG
1070
     1
1071
       42
1005
124906
  0
LINE
  5
124907
  8
OBJECT
 10
4045.9619407771238
 20
-245.96194077712471
 30
0.0
 11
4062.0
 21
-261.99999999999909
 31
0.0
1001
ACDBBLOCKREPETAG
1070
     1
1071
       43
1005
124907
  0
LINE
  5
124908
  8
OBJECT
 10
4073.0
 20
-533.99999999999955
 30
0.0
 11
4070.0
 21
-533.99999999999955
 31
0.0
1001
ACDBBLOCKREPETAG
1070
     1
1071
        1
1005
124908
  0
ARC
  5
124909
  8
OBJECT
 10
4073.0
 20
-536.99999999999955
 30
0.0
 40
3.0
 50
0.0
 51
90.0
1001
ACDBBLOCKREPETAG
1070
     1
1071
        2
1005
124909
  0
LINE
  5
12490A
  8
OBJECT
 10
4070.0
 20
-657.99999999999955
 30
0.0
 11
4073.0
 21
-657.99999999999955
 31
0.0
1001
ACDBBLOCKREPETAG
1070
     1
1071
        3
1005
12490A
  0
ARC
  5
12490B
  8
OBJECT
 10
4073.0
 20
-654.99999999999966
 30
0.0
 40
3.0
 50
270.0
 51
0.0
1001
ACDBBLOCKREPETAG
1070
     1
1071
        4
1005
12490B
  0
LINE
  5
12490C
  8
OBJECT
 10
4076.0
 20
-654.99999999999966
 30
0.0
 11
4076.0
 21
-536.99999999999955
 31
0.0
1001
ACDBBLOCKREPETAG
1070
     1
1071
        5
1005
12490C
  0
LINE
  5
12490D
  8
CENTER
 10
4091.0
 20
-199.99999999999909
 30
0.0
 11
4070.0
 21
-199.99999999999909
 31
0.0
1001
ACDBBLOCKREPETAG
1070
     1
1071
        0
1005
12490D
  0
LINE
  5
12490E
  8
OBJECT
 10
4073.0
 20
-137.99999999999909
 30
0.0
 11
4070.0
 21
-137.99999999999909
 31
0.0
1001
ACDBBLOCKREPETAG
1070
     1
1071
        1
1005
12490E
  0
ARC
  5
12490F
  8
OBJECT
 10
4073.0
 20
-140.99999999999909
 30
0.0
 40
3.0
 50
0.0
 51
90.0
1001
ACDBBLOCKREPETAG
1070
     1
1071
        2
1005
12490F
  0
LINE
  5
124910
  8
OBJECT
 10
4070.0
 20
-261.99999999999909
 30
0.0
 11
4073.0
 21
-261.99999999999909
 31
0.0
1001
ACDBBLOCKREPETAG
1070
     1
1071
        3
1005
124910
  0
ARC
  5
124911
  8
OBJECT
 10
4073.0
 20
-258.99999999999909
 30
0.0
 40
3.0
 50
270.0
 51
0.0
1001
ACDBBLOCKREPETAG
1070
     1
1071
        4
1005
124911
  0
LINE
  5
124912
  8
OBJECT
 10
4076.0
 20
-258.99999999999909
 30
0.0
 11
4076.0
 21
-140.99999999999909
 31
0.0
1001
ACDBBLOCKREPETAG
1070
     1
1071
        5
1005
124912
  0
TEXT
  5
124913
  8
SLIM
 10
7824.6000000000022
 20
-1383.999999999997
 30
0.0
 40
28.0
  1
※ 対応スラブ厚　180～300
 41
0.75
  0
TEXT
  5
124914
  8
SLIM
 10
7611.4999999999982
 20
-1477.333333333331
 30
0.0
 40
28.0
  1
国土交通大臣認定・（財）日本消防設備安全センター性能評定取得品
 41
0.75
  0
TEXT
  5
124915
  8
SLIM
 10
7631.1000000000004
 20
-1523.999999999998
 30
0.0
 40
28.0
  1
注）ご採用にあたり、認定書及び評定書の内容をご確認ください。
 41
0.75
  0
LINE
  5
124916
  8
SLIM
 10
11925.0
 20
-655.19743878930785
 30
0.0
 11
11925.197438789301
 21
-654.99999999999966
 31
0.0
1001
ACAD
1010
0.0
1020
0.0
1030
0.0
1001
ACDBBLOCKREPETAG
1070
     1
1071
        1
1005
0
  0
LINE
  5
124917
  8
SLIM
 10
11925.0
 20
-673.15795103144626
 30
0.0
 11
11943.15795103144
 21
-654.99999999999966
 31
0.0
1001
ACAD
1010
0.0
1020
0.0
1030
0.0
1001
ACDBBLOCKREPETAG
1070
     1
1071
       10
1005
124917
  0
LINE
  5
124918
  8
SLIM
 10
11925.0
 20
-691.11846327358444
 30
0.0
 11
11961.11846327358
 21
-654.99999999999966
 31
0.0
1001
ACAD
1010
0.0
1020
0.0
1030
0.0
1001
ACDBBLOCKREPETAG
1070
     1
1071
       11
1005
124918
  0
LINE
  5
124919
  8
SLIM
 10
11925.0
 20
-709.07897551572296
 30
0.0
 11
11979.07897551572
 21
-654.99999999999966
 31
0.0
1001
ACAD
1010
0.0
1020
0.0
1030
0.0
1001
ACDBBLOCKREPETAG
1070
     1
1071
       12
1005
124919
  0
LINE
  5
12491A
  8
SLIM
 10
11925.0
 20
-727.03948775786114
 30
0.0
 11
11997.03948775786
 21
-654.99999999999966
 31
0.0
1001
ACAD
1010
0.0
1020
0.0
1030
0.0
1001
ACDBBLOCKREPETAG
1070
     1
1071
       13
1005
12491A
  0
LINE
  5
12491B
  8
SLIM
 10
11925.0
 20
-744.99999999999955
 30
0.0
 11
12015.0
 21
-654.99999999999966
 31
0.0
1001
ACAD
1010
0.0
1020
0.0
1030
0.0
1001
ACDBBLOCKREPETAG
1070
     1
1071
       14
1005
12491B
  0
LINE
  5
12491C
  8
SLIM
 10
11925.0
 20
-762.96051224213772
 30
0.0
 11
12032.96051224214
 21
-654.99999999999966
 31
0.0
1001
ACAD
1010
0.0
1020
0.0
1030
0.0
1001
ACDBBLOCKREPETAG
1070
     1
1071
       15
1005
12491C
  0
LINE
  5
12491D
  8
SLIM
 10
11926.57043503541
 20
-779.35058944886373
 30
0.0
 11
12050.921024484271
 21
-654.99999999999966
 31
0.0
1001
ACAD
1010
0.0
1020
0.0
1030
0.0
1001
ACDBBLOCKREPETAG
1070
     1
1071
       16
1005
12491D
  0
LINE
  5
12491E
  8
SLIM
 10
11929.39181818456
 20
-794.48971854185424
 30
0.0
 11
12068.881536726411
 21
-654.99999999999966
 31
0.0
1001
ACAD
1010
0.0
1020
0.0
1030
0.0
1001
ACDBBLOCKREPETAG
1070
     1
1071
       17
1005
12491E
  0
LINE
  5
12491F
  8
SLIM
 10
11932.21320133371
 20
-809.62884763484476
 30
0.0
 11
12075.0
 21
-666.84204896855283
 31
0.0
1001
ACAD
1010
0.0
1020
0.0
1030
0.0
1001
ACDBBLOCKREPETAG
1070
     1
1071
       18
1005
12491F
  0
LINE
  5
124920
  8
SLIM
 10
11935.03458448285
 20
-824.76797672783539
 30
0.0
 11
12075.0
 21
-684.80256121069112
 31
0.0
1001
ACAD
1010
0.0
1020
0.0
1030
0.0
1001
ACDBBLOCKREPETAG
1070
     1
1071
       19
1005
124920
  0
LINE
  5
124921
  8
SLIM
 10
11937.855967632
 20
-839.90710582082579
 30
0.0
 11
12075.0
 21
-702.76307345282942
 31
0.0
1001
ACAD
1010
0.0
1020
0.0
1030
0.0
1001
ACDBBLOCKREPETAG
1070
     1
1071
       20
1005
124921
  0
LINE
  5
124922
  8
SLIM
 10
11940.67735078115
 20
-855.04623491381665
 30
0.0
 11
12075.0
 21
-720.7235856949676
 31
0.0
1001
ACAD
1010
0.0
1020
0.0
1030
0.0
1001
ACDBBLOCKREPETAG
1070
     1
1071
       21
1005
124922
  0
LINE
  5
124923
  8
SLIM
 10
11943.498733930301
 20
-870.18536400680739
 30
0.0
 11
12075.0
 21
-738.684097937106
 31
0.0
1001
ACAD
1010
0.0
1020
0.0
1030
0.0
1001
ACDBBLOCKREPETAG
1070
     1
1071
       22
1005
124923
  0
LINE
  5
124924
  8
SLIM
 10
11945.5
 20
-886.14461017924543
 30
0.0
 11
12075.0
 21
-756.64461017924407
 31
0.0
1001
ACAD
1010
0.0
1020
0.0
1030
0.0
1001
ACDBBLOCKREPETAG
1070
     1
1071
       23
1005
124924
  0
LINE
  5
124925
  8
SLIM
 10
11945.5
 20
-904.10512242138145
 30
0.0
 11
12074.15680692925
 21
-775.44831549213154
 31
0.0
1001
ACAD
1010
0.0
1020
0.0
1030
0.0
1001
ACDBBLOCKREPETAG
1070
     1
1071
       24
1005
124925
  0
LINE
  5
124926
  8
SLIM
 10
11945.5
 20
-922.06563466351747
 30
0.0
 11
12070.04294658328
 21
-797.52268808023439
 31
0.0
1001
ACAD
1010
0.0
1020
0.0
1030
0.0
1001
ACDBBLOCKREPETAG
1070
     1
1071
       25
1005
124926
  0
LINE
  5
124927
  8
SLIM
 10
11960.52614690566
 20
-924.99999999999955
 30
0.0
 11
12065.92908623732
 21
-819.59706066833724
 31
0.0
1001
ACAD
1010
0.0
1020
0.0
1030
0.0
1001
ACDBBLOCKREPETAG
1070
     1
1071
       26
1005
124927
  0
LINE
  5
124928
  8
SLIM
 10
11978.4866591478
 20
-924.99999999999955
 30
0.0
 11
12061.81522589136
 21
-841.67143325643985
 31
0.0
1001
ACAD
1010
0.0
1020
0.0
1030
0.0
1001
ACDBBLOCKREPETAG
1070
     1
1071
       27
1005
124928
  0
LINE
  5
124929
  8
SLIM
 10
11996.447171389929
 20
-924.99999999999955
 30
0.0
 11
12057.70136554539
 21
-863.74580584454304
 31
0.0
1001
ACAD
1010
0.0
1020
0.0
1030
0.0
1001
ACDBBLOCKREPETAG
1070
     1
1071
       28
1005
124929
  0
LINE
  5
12492A
  8
SLIM
 10
12014.407683632069
 20
-924.99999999999955
 30
0.0
 11
12054.5
 21
-884.90768363207417
 31
0.0
1001
ACAD
1010
0.0
1020
0.0
1030
0.0
1001
ACDBBLOCKREPETAG
1070
     1
1071
       29
1005
12492A
  0
LINE
  5
12492B
  8
SLIM
 10
12032.368195874211
 20
-924.99999999999955
 30
0.0
 11
12054.5
 21
-902.86819587421314
 31
0.0
1001
ACAD
1010
0.0
1020
0.0
1030
0.0
1001
ACDBBLOCKREPETAG
1070
     1
1071
       30
1005
12492B
  0
LINE
  5
12492C
  8
SLIM
 10
12050.328708116351
 20
-924.99999999999955
 30
0.0
 11
12054.5
 21
-920.82870811635235
 31
0.0
1001
ACAD
1010
0.0
1020
0.0
1030
0.0
1001
ACDBBLOCKREPETAG
1070
     1
1071
       31
1005
12492C
  0
LINE
  5
12492D
  8
OBJECT
 10
11925.0
 20
-654.99999999999966
 30
0.0
 11
12075.0
 21
-654.99999999999966
 31
0.0
1001
ACDBBLOCKREPETAG
1070
     1
1071
        2
1005
12492D
  0
LINE
  5
12492E
  8
OBJECT
 10
12075.0
 20
-654.99999999999966
 30
0.0
 11
12075.0
 21
-770.9238648686005
 31
0.0
1001
ACDBBLOCKREPETAG
1070
     1
1071
        3
1005
12492E
  0
LINE
  5
12492F
  8
OBJECT
 10
12075.0
 20
-770.9238648686005
 30
0.0
 11
12054.5
 21
-880.92386486860221
 31
0.0
1001
ACDBBLOCKREPETAG
1070
     1
1071
        4
1005
12492F
  0
LINE
  5
124930
  8
OBJECT
 10
12054.5
 20
-880.92386486860221
 30
0.0
 11
12054.5
 21
-924.99999999999955
 31
0.0
1001
ACDBBLOCKREPETAG
1070
     1
1071
        5
1005
124930
  0
LINE
  5
124931
  8
OBJECT
 10
12054.5
 20
-924.99999999999955
 30
0.0
 11
11945.5
 21
-924.99999999999955
 31
0.0
1001
ACDBBLOCKREPETAG
1070
     1
1071
        6
1005
124931
  0
LINE
  5
124932
  8
OBJECT
 10
11945.5
 20
-924.99999999999955
 30
0.0
 11
11945.5
 21
-880.92386486861199
 31
0.0
1001
ACDBBLOCKREPETAG
1070
     1
1071
        7
1005
124932
  0
LINE
  5
124933
  8
OBJECT
 10
11945.5
 20
-880.92386486861199
 30
0.0
 11
11925.0
 21
-770.9238648686005
 31
0.0
1001
ACDBBLOCKREPETAG
1070
     1
1071
        8
1005
124933
  0
LINE
  5
124934
  8
OBJECT
 10
11925.0
 20
-770.9238648686005
 30
0.0
 11
11925.0
 21
-654.99999999999966
 31
0.0
1001
ACDBBLOCKREPETAG
1070
     1
1071
        9
1005
124934
  0
LINE
  5
124935
  8
SLIM
 10
9925.0
 20
-655.19743878930785
 30
0.0
 11
9925.1974387893097
 21
-654.99999999999966
 31
0.0
1001
ACAD
1010
0.0
1020
0.0
1030
0.0
1001
ACDBBLOCKREPETAG
1070
     1
1071
        1
1005
0
  0
LINE
  5
124936
  8
SLIM
 10
9925.0
 20
-673.15795103144626
 30
0.0
 11
9943.1579510314441
 21
-654.99999999999966
 31
0.0
1001
ACAD
1010
0.0
1020
0.0
1030
0.0
1001
ACDBBLOCKREPETAG
1070
     1
1071
       10
1005
124936
  0
LINE
  5
124937
  8
SLIM
 10
9925.0
 20
-691.11846327358444
 30
0.0
 11
9961.1184632735858
 21
-654.99999999999966
 31
0.0
1001
ACAD
1010
0.0
1020
0.0
1030
0.0
1001
ACDBBLOCKREPETAG
1070
     1
1071
       11
1005
124937
  0
LINE
  5
124938
  8
SLIM
 10
9925.0
 20
-709.07897551572296
 30
0.0
 11
9979.0789755157257
 21
-654.99999999999966
 31
0.0
1001
ACAD
1010
0.0
1020
0.0
1030
0.0
1001
ACDBBLOCKREPETAG
1070
     1
1071
       12
1005
124938
  0
LINE
  5
124939
  8
SLIM
 10
9925.0
 20
-727.03948775786114
 30
0.0
 11
9997.0394877578656
 21
-654.99999999999966
 31
0.0
1001
ACAD
1010
0.0
1020
0.0
1030
0.0
1001
ACDBBLOCKREPETAG
1070
     1
1071
       13
1005
124939
  0
LINE
  5
12493A
  8
SLIM
 10
9925.0
 20
-744.99999999999955
 30
0.0
 11
10015.0
 21
-654.99999999999966
 31
0.0
1001
ACAD
1010
0.0
1020
0.0
1030
0.0
1001
ACDBBLOCKREPETAG
1070
     1
1071
       14
1005
12493A
  0
LINE
  5
12493B
  8
SLIM
 10
9925.0
 20
-762.96051224213772
 30
0.0
 11
10032.96051224214
 21
-654.99999999999966
 31
0.0
1001
ACAD
1010
0.0
1020
0.0
1030
0.0
1001
ACDBBLOCKREPETAG
1070
     1
1071
       15
1005
12493B
  0
LINE
  5
12493C
  8
SLIM
 10
9926.5704350354117
 20
-779.35058944886373
 30
0.0
 11
10050.921024484271
 21
-654.99999999999966
 31
0.0
1001
ACAD
1010
0.0
1020
0.0
1030
0.0
1001
ACDBBLOCKREPETAG
1070
     1
1071
       16
1005
12493C
  0
LINE
  5
12493D
  8
SLIM
 10
9929.3918181845602
 20
-794.48971854185424
 30
0.0
 11
10068.881536726411
 21
-654.99999999999966
 31
0.0
1001
ACAD
1010
0.0
1020
0.0
1030
0.0
1001
ACDBBLOCKREPETAG
1070
     1
1071
       17
1005
12493D
  0
LINE
  5
12493E
  8
SLIM
 10
9932.2132013337086
 20
-809.62884763484476
 30
0.0
 11
10075.0
 21
-666.84204896855283
 31
0.0
1001
ACAD
1010
0.0
1020
0.0
1030
0.0
1001
ACDBBLOCKREPETAG
1070
     1
1071
       18
1005
12493E
  0
LINE
  5
12493F
  8
SLIM
 10
9935.0345844828553
 20
-824.76797672783539
 30
0.0
 11
10075.0
 21
-684.80256121069112
 31
0.0
1001
ACAD
1010
0.0
1020
0.0
1030
0.0
1001
ACDBBLOCKREPETAG
1070
     1
1071
       19
1005
12493F
  0
LINE
  5
124940
  8
SLIM
 10
9937.8559676320037
 20
-839.90710582082579
 30
0.0
 11
10075.0
 21
-702.76307345282942
 31
0.0
1001
ACAD
1010
0.0
1020
0.0
1030
0.0
1001
ACDBBLOCKREPETAG
1070
     1
1071
       20
1005
124940
  0
LINE
  5
124941
  8
SLIM
 10
9940.6773507811504
 20
-855.04623491381665
 30
0.0
 11
10075.0
 21
-720.7235856949676
 31
0.0
1001
ACAD
1010
0.0
1020
0.0
1030
0.0
1001
ACDBBLOCKREPETAG
1070
     1
1071
       21
1005
124941
  0
LINE
  5
124942
  8
SLIM
 10
9943.498733930297
 20
-870.18536400680739
 30
0.0
 11
10075.0
 21
-738.684097937106
 31
0.0
1001
ACAD
1010
0.0
1020
0.0
1030
0.0
1001
ACDBBLOCKREPETAG
1070
     1
1071
       22
1005
124942
  0
LINE
  5
124943
  8
SLIM
 10
9945.4999999999982
 20
-886.14461017924543
 30
0.0
 11
10075.0
 21
-756.64461017924407
 31
0.0
1001
ACAD
1010
0.0
1020
0.0
1030
0.0
1001
ACDBBLOCKREPETAG
1070
     1
1071
       23
1005
124943
  0
LINE
  5
124944
  8
SLIM
 10
9945.5
 20
-904.10512242138145
 30
0.0
 11
10074.15680692925
 21
-775.44831549213154
 31
0.0
1001
ACAD
1010
0.0
1020
0.0
1030
0.0
1001
ACDBBLOCKREPETAG
1070
     1
1071
       24
1005
124944
  0
LINE
  5
124945
  8
SLIM
 10
9945.5000000000036
 20
-922.06563466351747
 30
0.0
 11
10070.04294658328
 21
-797.52268808023439
 31
0.0
1001
ACAD
1010
0.0
1020
0.0
1030
0.0
1001
ACDBBLOCKREPETAG
1070
     1
1071
       25
1005
124945
  0
LINE
  5
124946
  8
SLIM
 10
9960.5261469056604
 20
-924.99999999999955
 30
0.0
 11
10065.92908623732
 21
-819.59706066833724
 31
0.0
1001
ACAD
1010
0.0
1020
0.0
1030
0.0
1001
ACDBBLOCKREPETAG
1070
     1
1071
       26
1005
124946
  0
LINE
  5
124947
  8
SLIM
 10
9978.4866591477985
 20
-924.99999999999955
 30
0.0
 11
10061.815225891351
 21
-841.67143325643985
 31
0.0
1001
ACAD
1010
0.0
1020
0.0
1030
0.0
1001
ACDBBLOCKREPETAG
1070
     1
1071
       27
1005
124947
  0
LINE
  5
124948
  8
SLIM
 10
9996.4471713899384
 20
-924.99999999999955
 30
0.0
 11
10057.70136554539
 21
-863.74580584454304
 31
0.0
1001
ACAD
1010
0.0
1020
0.0
1030
0.0
1001
ACDBBLOCKREPETAG
1070
     1
1071
       28
1005
124948
  0
LINE
  5
124949
  8
SLIM
 10
10014.40768363206
 20
-924.99999999999955
 30
0.0
 11
10054.5
 21
-884.90768363207417
 31
0.0
1001
ACAD
1010
0.0
1020
0.0
1030
0.0
1001
ACDBBLOCKREPETAG
1070
     1
1071
       29
1005
124949
  0
LINE
  5
12494A
  8
SLIM
 10
10032.368195874211
 20
-924.99999999999955
 30
0.0
 11
10054.5
 21
-902.86819587421314
 31
0.0
1001
ACAD
1010
0.0
1020
0.0
1030
0.0
1001
ACDBBLOCKREPETAG
1070
     1
1071
       30
1005
12494A
  0
LINE
  5
12494B
  8
SLIM
 10
10050.328708116351
 20
-924.99999999999955
 30
0.0
 11
10054.5
 21
-920.82870811635235
 31
0.0
1001
ACAD
1010
0.0
1020
0.0
1030
0.0
1001
ACDBBLOCKREPETAG
1070
     1
1071
       31
1005
12494B
  0
LINE
  5
12494C
  8
OBJECT
 10
9925.0
 20
-654.99999999999966
 30
0.0
 11
10075.0
 21
-654.99999999999966
 31
0.0
1001
ACDBBLOCKREPETAG
1070
     1
1071
        2
1005
12494C
  0
LINE
  5
12494D
  8
OBJECT
 10
10075.0
 20
-654.99999999999966
 30
0.0
 11
10075.0
 21
-770.9238648686005
 31
0.0
1001
ACDBBLOCKREPETAG
1070
     1
1071
        3
1005
12494D
  0
LINE
  5
12494E
  8
OBJECT
 10
10075.0
 20
-770.9238648686005
 30
0.0
 11
10054.5
 21
-880.92386486860221
 31
0.0
1001
ACDBBLOCKREPETAG
1070
     1
1071
        4
1005
12494E
  0
LINE
  5
12494F
  8
OBJECT
 10
10054.5
 20
-880.92386486860221
 30
0.0
 11
10054.5
 21
-924.99999999999955
 31
0.0
1001
ACDBBLOCKREPETAG
1070
     1
1071
        5
1005
12494F
  0
LINE
  5
124950
  8
OBJECT
 10
10054.5
 20
-924.99999999999955
 30
0.0
 11
9945.5000000000036
 21
-924.99999999999955
 31
0.0
1001
ACDBBLOCKREPETAG
1070
     1
1071
        6
1005
124950
  0
LINE
  5
124951
  8
OBJECT
 10
9945.5000000000036
 20
-924.99999999999955
 30
0.0
 11
9945.4999999999982
 21
-880.92386486861199
 31
0.0
1001
ACDBBLOCKREPETAG
1070
     1
1071
        7
1005
124951
  0
LINE
  5
124952
  8
OBJECT
 10
9945.4999999999982
 20
-880.92386486861199
 30
0.0
 11
9925.0
 21
-770.9238648686005
 31
0.0
1001
ACDBBLOCKREPETAG
1070
     1
1071
        8
1005
124952
  0
LINE
  5
124953
  8
OBJECT
 10
9925.0
 20
-770.9238648686005
 30
0.0
 11
9925.0
 21
-654.99999999999966
 31
0.0
1001
ACDBBLOCKREPETAG
1070
     1
1071
        9
1005
124953
  0
LINE
  5
124954
  8
SLIM
 10
7925.0
 20
-655.19743878930785
 30
0.0
 11
7925.1974387893079
 21
-654.99999999999966
 31
0.0
1001
ACAD
1010
0.0
1020
0.0
1030
0.0
1001
ACDBBLOCKREPETAG
1070
     1
1071
        1
1005
0
  0
LINE
  5
124955
  8
SLIM
 10
7925.0
 20
-673.15795103144626
 30
0.0
 11
7943.1579510314459
 21
-654.99999999999966
 31
0.0
1001
ACAD
1010
0.0
1020
0.0
1030
0.0
1001
ACDBBLOCKREPETAG
1070
     1
1071
       11
1005
124955
  0
LINE
  5
124956
  8
SLIM
 10
7925.0
 20
-691.11846327358444
 30
0.0
 11
7961.1184632735867
 21
-654.99999999999966
 31
0.0
1001
ACAD
1010
0.0
1020
0.0
1030
0.0
1001
ACDBBLOCKREPETAG
1070
     1
1071
       12
1005
124956
  0
LINE
  5
124957
  8
SLIM
 10
7925.0
 20
-709.07897551572296
 30
0.0
 11
7979.078975515723
 21
-654.99999999999966
 31
0.0
1001
ACAD
1010
0.0
1020
0.0
1030
0.0
1001
ACDBBLOCKREPETAG
1070
     1
1071
       13
1005
124957
  0
LINE
  5
124958
  8
SLIM
 10
7925.0
 20
-727.03948775786114
 30
0.0
 11
7997.0394877578628
 21
-654.99999999999966
 31
0.0
1001
ACAD
1010
0.0
1020
0.0
1030
0.0
1001
ACDBBLOCKREPETAG
1070
     1
1071
       14
1005
124958
  0
LINE
  5
124959
  8
SLIM
 10
7925.0
 20
-744.99999999999955
 30
0.0
 11
8015.0
 21
-654.99999999999966
 31
0.0
1001
ACAD
1010
0.0
1020
0.0
1030
0.0
1001
ACDBBLOCKREPETAG
1070
     1
1071
       15
1005
124959
  0
LINE
  5
12495A
  8
SLIM
 10
7925.0
 20
-762.96051224213772
 30
0.0
 11
8032.960512242139
 21
-654.99999999999966
 31
0.0
1001
ACAD
1010
0.0
1020
0.0
1030
0.0
1001
ACDBBLOCKREPETAG
1070
     1
1071
       16
1005
12495A
  0
LINE
  5
12495B
  8
SLIM
 10
7926.5704350354117
 20
-779.35058944886373
 30
0.0
 11
8050.9210244842798
 21
-654.99999999999966
 31
0.0
1001
ACAD
1010
0.0
1020
0.0
1030
0.0
1001
ACDBBLOCKREPETAG
1070
     1
1071
       17
1005
12495B
  0
LINE
  5
12495C
  8
SLIM
 10
7929.3918181845593
 20
-794.4897185418539
 30
0.0
 11
8068.8815367264133
 21
-654.99999999999966
 31
0.0
1001
ACAD
1010
0.0
1020
0.0
1030
0.0
1001
ACDBBLOCKREPETAG
1070
     1
1071
       18
1005
12495C
  0
LINE
  5
12495D
  8
SLIM
 10
7932.2132013337077
 20
-809.62884763484408
 30
0.0
 11
8075.0
 21
-666.84204896855283
 31
0.0
1001
ACAD
1010
0.0
1020
0.0
1030
0.0
1001
ACDBBLOCKREPETAG
1070
     1
1071
       19
1005
12495D
  0
LINE
  5
12495E
  8
SLIM
 10
7935.0345844828562
 20
-824.76797672783425
 30
0.0
 11
8075.0
 21
-684.80256121069112
 31
0.0
1001
ACAD
1010
0.0
1020
0.0
1030
0.0
1001
ACDBBLOCKREPETAG
1070
     1
1071
       20
1005
12495E
  0
LINE
  5
12495F
  8
SLIM
 10
7937.8559676320019
 20
-839.90710582082465
 30
0.0
 11
8075.0
 21
-702.76307345282942
 31
0.0
1001
ACAD
1010
0.0
1020
0.0
1030
0.0
1001
ACDBBLOCKREPETAG
1070
     1
1071
       21
1005
12495F
  0
LINE
  5
124960
  8
SLIM
 10
7940.677350781154
 20
-855.04623491381471
 30
0.0
 11
8075.0
 21
-720.7235856949676
 31
0.0
1001
ACAD
1010
0.0
1020
0.0
1030
0.0
1001
ACDBBLOCKREPETAG
1070
     1
1071
       22
1005
124960
  0
LINE
  5
124961
  8
SLIM
 10
7943.4987339303016
 20
-870.18536400680489
 30
0.0
 11
8075.0
 21
-738.684097937106
 31
0.0
1001
ACAD
1010
0.0
1020
0.0
1030
0.0
1001
ACDBBLOCKREPETAG
1070
     1
1071
       23
1005
124961
  0
LINE
  5
124962
  8
SLIM
 10
7946.6446101792453
 20
-884.99999999999955
 30
0.0
 11
8075.0
 21
-756.64461017924407
 31
0.0
1001
ACAD
1010
0.0
1020
0.0
1030
0.0
1001
ACDBBLOCKREPETAG
1070
     1
1071
       24
1005
124962
  0
LINE
  5
124963
  8
SLIM
 10
7955.5
 20
-894.1051224213827
 30
0.0
 11
7964.6051224213816
 21
-884.99999999999955
 31
0.0
1001
ACAD
1010
0.0
1020
0.0
1030
0.0
1001
ACDBBLOCKREPETAG
1070
     1
1071
       25
1005
124963
  0
LINE
  5
124964
  8
SLIM
 10
7964.6051224213816
 20
-884.99999999999955
 30
0.0
 11
8074.1568069292498
 21
-775.44831549213154
 31
0.0
1001
ACAD
1010
0.0
1020
0.0
1030
0.0
1001
ACDBBLOCKREPETAG
1070
     1
1071
       26
1005
124964
  0
LINE
  5
124965
  8
SLIM
 10
7962.5656346635215
 20
-904.99999999999966
 30
0.0
 11
7982.5656346635215
 21
-884.99999999999955
 31
0.0
1001
ACAD
1010
0.0
1020
0.0
1030
0.0
1001
ACDBBLOCKREPETAG
1070
     1
1071
       27
1005
124965
  0
LINE
  5
124966
  8
SLIM
 10
7982.5656346635215
 20
-884.99999999999955
 30
0.0
 11
8070.0429465832849
 21
-797.52268808023427
 31
0.0
1001
ACAD
1010
0.0
1020
0.0
1030
0.0
1001
ACDBBLOCKREPETAG
1070
     1
1071
       28
1005
124966
  0
LINE
  5
124967
  8
SLIM
 10
7980.5261469056604
 20
-904.99999999999966
 30
0.0
 11
8000.5261469056577
 21
-884.99999999999955
 31
0.0
1001
ACAD
1010
0.0
1020
0.0
1030
0.0
1001
ACDBBLOCKREPETAG
1070
     1
1071
       29
1005
124967
  0
LINE
  5
124968
  8
SLIM
 10
8000.5261469056577
 20
-884.99999999999955
 30
0.0
 11
8065.9290862373227
 21
-819.59706066833712
 31
0.0
1001
ACAD
1010
0.0
1020
0.0
1030
0.0
1001
ACDBBLOCKREPETAG
1070
     1
1071
       30
1005
124968
  0
LINE
  5
124969
  8
SLIM
 10
7998.4866591477967
 20
-904.99999999999966
 30
0.0
 11
8018.4866591477967
 21
-884.99999999999955
 31
0.0
1001
ACAD
1010
0.0
1020
0.0
1030
0.0
1001
ACDBBLOCKREPETAG
1070
     1
1071
       31
1005
124969
  0
LINE
  5
12496A
  8
SLIM
 10
8018.4866591477967
 20
-884.99999999999955
 30
0.0
 11
8061.8152258913578
 21
-841.67143325643985
 31
0.0
1001
ACAD
1010
0.0
1020
0.0
1030
0.0
1001
ACDBBLOCKREPETAG
1070
     1
1071
       32
1005
12496A
  0
LINE
  5
12496B
  8
SLIM
 10
8016.4471713899384
 20
-904.99999999999966
 30
0.0
 11
8036.4471713899338
 21
-884.99999999999955
 31
0.0
1001
ACAD
1010
0.0
1020
0.0
1030
0.0
1001
ACDBBLOCKREPETAG
1070
     1
1071
       33
1005
12496B
  0
LINE
  5
12496C
  8
SLIM
 10
8036.4471713899338
 20
-884.99999999999955
 30
0.0
 11
8057.701365545392
 21
-863.74580584454225
 31
0.0
1001
ACAD
1010
0.0
1020
0.0
1030
0.0
1001
ACDBBLOCKREPETAG
1070
     1
1071
       34
1005
12496C
  0
LINE
  5
12496D
  8
SLIM
 10
8034.4076836320728
 20
-904.99999999999966
 30
0.0
 11
8044.5000000000036
 21
-894.90768363207417
 31
0.0
1001
ACAD
1010
0.0
1020
0.0
1030
0.0
1001
ACDBBLOCKREPETAG
1070
     1
1071
       35
1005
12496D
  0
LINE
  5
12496E
  8
OBJECT
 10
7925.0
 20
-654.99999999999966
 30
0.0
 11
8075.0
 21
-654.99999999999966
 31
0.0
1001
ACDBBLOCKREPETAG
1070
     1
1071
        2
1005
12496E
  0
LINE
  5
12496F
  8
OBJECT
 10
8075.0
 20
-654.99999999999966
 30
0.0
 11
8075.0
 21
-770.9238648686005
 31
0.0
1001
ACDBBLOCKREPETAG
1070
     1
1071
        3
1005
12496F
  0
LINE
  5
124970
  8
OBJECT
 10
8075.0
 20
-770.9238648686005
 30
0.0
 11
8053.7403566346029
 21
-884.99999999999955
 31
0.0
1001
ACDBBLOCKREPETAG
1070
     1
1071
        4
1005
124970
  0
LINE
  5
124971
  8
OBJECT
 10
8044.5000000000036
 20
-884.99999999999955
 30
0.0
 11
8044.5000000000036
 21
-904.99999999999966
 31
0.0
1001
ACDBBLOCKREPETAG
1070
     1
1071
        5
1005
124971
  0
LINE
  5
124972
  8
OBJECT
 10
8044.5000000000036
 20
-904.99999999999966
 30
0.0
 11
7955.5
 21
-904.99999999999966
 31
0.0
1001
ACDBBLOCKREPETAG
1070
     1
1071
        6
1005
124972
  0
LINE
  5
124973
  8
OBJECT
 10
7955.5
 20
-904.99999999999966
 30
0.0
 11
7955.5
 21
-884.99999999999955
 31
0.0
1001
ACDBBLOCKREPETAG
1070
     1
1071
        7
1005
124973
  0
LINE
  5
124974
  8
OBJECT
 10
8053.7403566346029
 20
-884.99999999999955
 30
0.0
 11
7946.2596433653962
 21
-884.99999999999955
 31
0.0
1001
ACDBBLOCKREPETAG
1070
     1
1071
        8
1005
124974
  0
LINE
  5
124975
  8
OBJECT
 10
7946.2596433653962
 20
-884.99999999999955
 30
0.0
 11
7925.0
 21
-770.9238648686005
 31
0.0
1001
ACDBBLOCKREPETAG
1070
     1
1071
        9
1005
124975
  0
LINE
  5
124976
  8
OBJECT
 10
7925.0
 20
-770.9238648686005
 30
0.0
 11
7925.0
 21
-654.99999999999966
 31
0.0
1001
ACDBBLOCKREPETAG
1070
     1
1071
       10
1005
124976
  0
LINE
  5
124977
  8
OBJECT
 10
12055.999999999991
 20
-1083.9999999999991
 30
0.0
 11
12055.999999999991
 21
-1093.9999999999991
 31
0.0
1001
ACDBBLOCKREPETAG
1070
     1
1071
      121
1005
124977
  0
LINE
  5
124978
  8
OBJECT
 10
11961.75
 20
-1034.699999999996
 30
0.0
 11
11974.25
 21
-1034.699999999996
 31
0.0
1001
ACDBBLOCKREPETAG
1070
     1
1071
      122
1005
124978
  0
LINE
  5
124979
  8
OBJECT
 10
12073.499999999991
 20
-1042.7
 30
0.0
 11
12073.499999999991
 21
-1044.9999999999991
 31
0.0
1001
ACDBBLOCKREPETAG
1070
     1
1071
      123
1005
124979
  0
LINE
  5
12497A
  8
OBJECT
 10
12057.749999999991
 20
-1034.699999999996
 30
0.0
 11
12070.249999999991
 21
-1034.699999999996
 31
0.0
1001
ACDBBLOCKREPETAG
1070
     1
1071
      124
1005
12497A
  0
LINE
  5
12497B
  8
OBJECT
 10
12054.499999999991
 20
-1042.7
 30
0.0
 11
12054.499999999991
 21
-1044.9999999999991
 31
0.0
1001
ACDBBLOCKREPETAG
1070
     1
1071
      125
1005
12497B
  0
LINE
  5
12497C
  8
OBJECT
 10
11953.0
 20
-1044.9999999999991
 30
0.0
 11
11953.0
 21
-1042.7
 31
0.0
1001
ACDBBLOCKREPETAG
1070
     1
1071
      126
1005
12497C
  0
LINE
  5
12497D
  8
OBJECT
 10
11983.0
 20
-1044.9999999999991
 30
0.0
 11
11983.0
 21
-1042.7
 31
0.0
1001
ACDBBLOCKREPETAG
1070
     1
1071
      127
1005
12497D
  0
LINE
  5
12497E
  8
OBJECT
 10
11961.75
 20
-1034.699999999996
 30
0.0
 11
11961.75
 21
-1042.7
 31
0.0
1001
ACDBBLOCKREPETAG
1070
     1
1071
      128
1005
12497E
  0
LINE
  5
12497F
  8
OBJECT
 10
11974.25
 20
-1034.699999999996
 30
0.0
 11
11974.25
 21
-1042.7
 31
0.0
1001
ACDBBLOCKREPETAG
1070
     1
1071
      129
1005
12497F
  0
LINE
  5
124980
  8
OBJECT
 10
11953.0
 20
-1042.7
 30
0.0
 11
11983.0
 21
-1042.7
 31
0.0
1001
ACDBBLOCKREPETAG
1070
     1
1071
      130
1005
124980
  0
LINE
  5
124981
  8
OBJECT
 10
11960.0
 20
-1083.9999999999991
 30
0.0
 11
11960.0
 21
-1093.9999999999991
 31
0.0
1001
ACDBBLOCKREPETAG
1070
     1
1071
      131
1005
124981
  0
LINE
  5
124982
  8
OBJECT
 10
11976.0
 20
-1083.9999999999991
 30
0.0
 11
11976.0
 21
-1093.9999999999991
 31
0.0
1001
ACDBBLOCKREPETAG
1070
     1
1071
      132
1005
124982
  0
LINE
  5
124983
  8
OBJECT
 10
11960.0
 20
-1093.9999999999991
 30
0.0
 11
11976.0
 21
-1093.9999999999991
 31
0.0
1001
ACDBBLOCKREPETAG
1070
     1
1071
      133
1005
124983
  0
LINE
  5
124984
  8
OBJECT
 10
12071.999999999991
 20
-1083.9999999999991
 30
0.0
 11
12071.999999999991
 21
-1093.9999999999991
 31
0.0
1001
ACDBBLOCKREPETAG
1070
     1
1071
      134
1005
124984
  0
LINE
  5
124985
  8
OBJECT
 10
12071.999999999991
 20
-1093.9999999999991
 30
0.0
 11
12055.999999999991
 21
-1093.9999999999991
 31
0.0
1001
ACDBBLOCKREPETAG
1070
     1
1071
      135
1005
124985
  0
LINE
  5
124986
  8
OBJECT
 10
11944.999999999991
 20
-1125.0
 30
0.0
 11
11944.999999999991
 21
-1083.9999999999991
 31
0.0
1001
ACDBBLOCKREPETAG
1070
     1
1071
      136
1005
124986
  0
LINE
  5
124987
  8
OBJECT
 10
12054.999999999991
 20
-1083.9999999999991
 30
0.0
 11
12054.999999999991
 21
-1125.0
 31
0.0
1001
ACDBBLOCKREPETAG
1070
     1
1071
      137
1005
124987
  0
LINE
  5
124988
  8
OBJECT
 10
12070.249999999991
 20
-1034.699999999996
 30
0.0
 11
12070.249999999991
 21
-1042.7
 31
0.0
1001
ACDBBLOCKREPETAG
1070
     1
1071
      138
1005
124988
  0
LINE
  5
124989
  8
OBJECT
 10
12057.749999999991
 20
-1034.699999999996
 30
0.0
 11
12057.749999999991
 21
-1042.7
 31
0.0
1001
ACDBBLOCKREPETAG
1070
     1
1071
      139
1005
124989
  0
LINE
  5
12498A
  8
OBJECT
 10
12054.499999999991
 20
-1042.7
 30
0.0
 11
12073.499999999991
 21
-1042.7
 31
0.0
1001
ACDBBLOCKREPETAG
1070
     1
1071
      140
1005
12498A
  0
LINE
  5
12498B
  8
OBJECT
 10
12054.999999999991
 20
-1125.0
 30
0.0
 11
11944.999999999991
 21
-1125.0
 31
0.0
1001
ACDBBLOCKREPETAG
1070
     1
1071
      141
1005
12498B
  0
LINE
  5
12498C
  8
OBJECT
 10
12075.999999999991
 20
-1059.9999999999991
 30
0.0
 11
11938.999999999991
 21
-1059.9999999999991
 31
0.0
1001
ACDBBLOCKREPETAG
1070
     1
1071
      142
1005
12498C
  0
LINE
  5
12498D
  8
OBJECT
 10
12075.999999999991
 20
-1059.9999999999991
 30
0.0
 11
12075.999999999991
 21
-1044.9999999999991
 31
0.0
1001
ACDBBLOCKREPETAG
1070
     1
1071
      143
1005
12498D
  0
LINE
  5
12498E
  8
OBJECT
 10
12075.999999999991
 20
-1069.9999999999991
 30
0.0
 11
12075.999999999991
 21
-1083.9999999999991
 31
0.0
1001
ACDBBLOCKREPETAG
1070
     1
1071
      144
1005
12498E
  0
LINE
  5
12498F
  8
OBJECT
 10
12068.999999999991
 20
-1069.9999999999991
 30
0.0
 11
12068.999999999991
 21
-1059.9999999999991
 31
0.0
1001
ACDBBLOCKREPETAG
1070
     1
1071
      145
1005
12498F
  0
LINE
  5
124990
  8
OBJECT
 10
12058.999999999991
 20
-1069.9999999999991
 30
0.0
 11
12058.999999999991
 21
-1059.9999999999991
 31
0.0
1001
ACDBBLOCKREPETAG
1070
     1
1071
      146
1005
124990
  0
LINE
  5
124991
  8
OBJECT
 10
11938.999999999991
 20
-1069.9999999999991
 30
0.0
 11
11938.999999999991
 21
-1083.9999999999991
 31
0.0
1001
ACDBBLOCKREPETAG
1070
     1
1071
      147
1005
124991
  0
LINE
  5
124992
  8
OBJECT
 10
11938.999999999991
 20
-1083.9999999999991
 30
0.0
 11
12075.999999999991
 21
-1083.9999999999991
 31
0.0
1001
ACDBBLOCKREPETAG
1070
     1
1071
      148
1005
124992
  0
LINE
  5
124993
  8
OBJECT
 10
11973.0
 20
-1069.9999999999991
 30
0.0
 11
11973.0
 21
-1059.9999999999991
 31
0.0
1001
ACDBBLOCKREPETAG
1070
     1
1071
      149
1005
124993
  0
LINE
  5
124994
  8
OBJECT
 10
11963.0
 20
-1069.9999999999991
 30
0.0
 11
11963.0
 21
-1059.9999999999991
 31
0.0
1001
ACDBBLOCKREPETAG
1070
     1
1071
      150
1005
124994
  0
LINE
  5
124995
  8
OBJECT
 10
11938.999999999991
 20
-1069.9999999999991
 30
0.0
 11
12075.999999999991
 21
-1069.9999999999991
 31
0.0
1001
ACDBBLOCKREPETAG
1070
     1
1071
      151
1005
124995
  0
LINE
  5
124996
  8
OBJECT
 10
11945.999999999991
 20
-1059.9999999999991
 30
0.0
 11
11945.999999999991
 21
-1069.9999999999991
 31
0.0
1001
ACDBBLOCKREPETAG
1070
     1
1071
      152
1005
124996
  0
LINE
  5
124997
  8
OBJECT
 10
12053.999999999991
 20
-1059.9999999999991
 30
0.0
 11
12053.999999999991
 21
-1069.9999999999991
 31
0.0
1001
ACDBBLOCKREPETAG
1070
     1
1071
      153
1005
124997
  0
LINE
  5
124998
  8
OBJECT
 10
12044.5
 20
-879.99999999999955
 30
0.0
 11
12065.0
 21
-769.99999999999955
 31
0.0
1001
ACDBBLOCKREPETAG
1070
     1
1071
      154
1005
124998
  0
LINE
  5
124999
  8
OBJECT
 10
11955.5
 20
-879.99999999999955
 30
0.0
 11
12044.5
 21
-879.99999999999955
 31
0.0
1001
ACDBBLOCKREPETAG
1070
     1
1071
      155
1005
124999
  0
LINE
  5
12499A
  8
OBJECT
 10
11938.999999999991
 20
-1059.9999999999991
 30
0.0
 11
11938.999999999991
 21
-1044.9999999999991
 31
0.0
1001
ACDBBLOCKREPETAG
1070
     1
1071
      156
1005
12499A
  0
LINE
  5
12499B
  8
OBJECT
 10
11938.999999999991
 20
-1044.9999999999991
 30
0.0
 11
12075.999999999991
 21
-1044.9999999999991
 31
0.0
1001
ACDBBLOCKREPETAG
1070
     1
1071
      157
1005
12499B
  0
LINE
  5
12499C
  8
OBJECT
 10
11955.5
 20
-879.99999999999955
 30
0.0
 11
11955.5
 21
-1009.999999999999
 31
0.0
1001
ACDBBLOCKREPETAG
1070
     1
1071
      158
1005
12499C
  0
LINE
  5
12499D
  8
OBJECT
 10
12044.5
 20
-879.99999999999955
 30
0.0
 11
12044.5
 21
-1009.999999999999
 31
0.0
1001
ACDBBLOCKREPETAG
1070
     1
1071
      159
1005
12499D
  0
LINE
  5
12499E
  8
OBJECT
 10
11947.0
 20
-1009.999999999999
 30
0.0
 11
12053.0
 21
-1009.999999999999
 31
0.0
1001
ACDBBLOCKREPETAG
1070
     1
1071
      160
1005
12499E
  0
LINE
  5
12499F
  8
HIDDEN
 10
11955.5
 20
-1019.999999999999
 30
0.0
 11
12044.5
 21
-1019.999999999999
 31
0.0
1001
ACDBBLOCKREPETAG
1070
     1
1071
      161
1005
12499F
  0
LINE
  5
1249A0
  8
CENTER
 10
12000.0
 20
-669.99999999999955
 30
0.0
 11
12000.0
 21
-1139.9999999999991
 31
0.0
1001
ACDBBLOCKREPETAG
1070
     1
1071
      162
1005
1249A0
  0
LINE
  5
1249A1
  8
OBJECT
 10
12065.0
 20
-669.99999999999955
 30
0.0
 11
12065.0
 21
-769.99999999999955
 31
0.0
1001
ACDBBLOCKREPETAG
1070
     1
1071
      163
1005
1249A1
  0
LINE
  5
1249A2
  8
OBJECT
 10
11935.0
 20
-669.99999999999955
 30
0.0
 11
11935.0
 21
-769.99999999999955
 31
0.0
1001
ACDBBLOCKREPETAG
1070
     1
1071
      164
1005
1249A2
  0
LINE
  5
1249A3
  8
OBJECT
 10
11955.5
 20
-879.99999999999955
 30
0.0
 11
11935.0
 21
-769.99999999999955
 31
0.0
1001
ACDBBLOCKREPETAG
1070
     1
1071
      165
1005
1249A3
  0
LINE
  5
1249A4
  8
OBJECT
 10
12065.0
 20
-769.99999999999955
 30
0.0
 11
11935.0
 21
-769.99999999999955
 31
0.0
1001
ACDBBLOCKREPETAG
1070
     1
1071
      166
1005
1249A4
  0
LINE
  5
1249A5
  8
OBJECT
 10
11947.0
 20
-1009.999999999999
 30
0.0
 11
11947.0
 21
-1044.9999999999991
 31
0.0
1001
ACDBBLOCKREPETAG
1070
     1
1071
      167
1005
1249A5
  0
LINE
  5
1249A6
  8
OBJECT
 10
12053.0
 20
-1009.999999999999
 30
0.0
 11
12053.0
 21
-1044.9999999999991
 31
0.0
1001
ACDBBLOCKREPETAG
1070
     1
1071
      168
1005
1249A6
  0
LINE
  5
1249A7
  8
OBJECT
 10
9975.5
 20
-1039.9999999999991
 30
0.0
 11
9958.9999999999964
 21
-1039.9999999999991
 31
0.0
1001
ACDBBLOCKREPETAG
1070
     1
1071
       12
1005
1249A7
  0
LINE
  5
1249A8
  8
OBJECT
 10
9983.0
 20
-1044.9999999999991
 30
0.0
 11
9983.0
 21
-1042.9999999999991
 31
0.0
1001
ACDBBLOCKREPETAG
1070
     1
1071
       13
1005
1249A8
  0
LINE
  5
1249A9
  8
OBJECT
 10
10075.999999999991
 20
-1059.9999999999991
 30
0.0
 11
9938.9999999999927
 21
-1059.9999999999991
 31
0.0
1001
ACDBBLOCKREPETAG
1070
     1
1071
       14
1005
1249A9
  0
LINE
  5
1249AA
  8
OBJECT
 10
10075.999999999991
 20
-1059.9999999999991
 30
0.0
 11
10075.999999999991
 21
-1044.9999999999991
 31
0.0
1001
ACDBBLOCKREPETAG
1070
     1
1071
       15
1005
1249AA
  0
LINE
  5
1249AB
  8
OBJECT
 10
10075.999999999991
 20
-1069.9999999999991
 30
0.0
 11
10075.999999999991
 21
-1083.9999999999991
 31
0.0
1001
ACDBBLOCKREPETAG
1070
     1
1071
       16
1005
1249AB
  0
LINE
  5
1249AC
  8
OBJECT
 10
10068.999999999991
 20
-1069.9999999999991
 30
0.0
 11
10068.999999999991
 21
-1059.9999999999991
 31
0.0
1001
ACDBBLOCKREPETAG
1070
     1
1071
       17
1005
1249AC
  0
LINE
  5
1249AD
  8
OBJECT
 10
10058.999999999991
 20
-1069.9999999999991
 30
0.0
 11
10058.999999999991
 21
-1059.9999999999991
 31
0.0
1001
ACDBBLOCKREPETAG
1070
     1
1071
       18
1005
1249AD
  0
LINE
  5
1249AE
  8
OBJECT
 10
9938.9999999999927
 20
-1069.9999999999991
 30
0.0
 11
9938.9999999999927
 21
-1083.9999999999991
 31
0.0
1001
ACDBBLOCKREPETAG
1070
     1
1071
       19
1005
1249AE
  0
LINE
  5
1249AF
  8
OBJECT
 10
9938.9999999999927
 20
-1083.9999999999991
 30
0.0
 11
10075.999999999991
 21
-1083.9999999999991
 31
0.0
1001
ACDBBLOCKREPETAG
1070
     1
1071
       20
1005
1249AF
  0
LINE
  5
1249B0
  8
OBJECT
 10
9973.0
 20
-1069.9999999999991
 30
0.0
 11
9973.0
 21
-1059.9999999999991
 31
0.0
1001
ACDBBLOCKREPETAG
1070
     1
1071
       21
1005
1249B0
  0
LINE
  5
1249B1
  8
OBJECT
 10
9963.0
 20
-1069.9999999999991
 30
0.0
 11
9963.0
 21
-1059.9999999999991
 31
0.0
1001
ACDBBLOCKREPETAG
1070
     1
1071
       22
1005
1249B1
  0
LINE
  5
1249B2
  8
OBJECT
 10
9938.9999999999927
 20
-1069.9999999999991
 30
0.0
 11
10075.999999999991
 21
-1069.9999999999991
 31
0.0
1001
ACDBBLOCKREPETAG
1070
     1
1071
       23
1005
1249B2
  0
LINE
  5
1249B3
  8
OBJECT
 10
9958.9999999999964
 20
-1039.9999999999991
 30
0.0
 11
9958.9999999999964
 21
-1044.9999999999991
 31
0.0
1001
ACDBBLOCKREPETAG
1070
     1
1071
       24
1005
1249B3
  0
LINE
  5
1249B4
  8
OBJECT
 10
9963.0
 20
-1091.9999999999991
 30
0.0
 11
9963.0
 21
-1094.9999999999991
 31
0.0
1001
ACDBBLOCKREPETAG
1070
     1
1071
       25
1005
1249B4
  0
LINE
  5
1249B5
  8
OBJECT
 10
9963.0
 20
-1094.9999999999991
 30
0.0
 11
9973.0
 21
-1094.9999999999991
 31
0.0
1001
ACDBBLOCKREPETAG
1070
     1
1071
       26
1005
1249B5
  0
LINE
  5
1249B6
  8
OBJECT
 10
9958.1850454237738
 20
-1091.9999999999991
 30
0.0
 11
9977.814954576219
 21
-1091.9999999999991
 31
0.0
1001
ACDBBLOCKREPETAG
1070
     1
1071
       27
1005
1249B6
  0
LINE
  5
1249B7
  8
OBJECT
 10
9973.0
 20
-1094.9999999999991
 30
0.0
 11
9973.0
 21
-1091.9999999999991
 31
0.0
1001
ACDBBLOCKREPETAG
1070
     1
1071
       28
1005
1249B7
  0
LINE
  5
1249B8
  8
OBJECT
 10
9945.9999999999909
 20
-1059.9999999999991
 30
0.0
 11
9945.9999999999909
 21
-1069.9999999999991
 31
0.0
1001
ACDBBLOCKREPETAG
1070
     1
1071
       29
1005
1249B8
  0
LINE
  5
1249B9
  8
OBJECT
 10
10053.999999999991
 20
-1059.9999999999991
 30
0.0
 11
10053.999999999991
 21
-1069.9999999999991
 31
0.0
1001
ACDBBLOCKREPETAG
1070
     1
1071
       30
1005
1249B9
  0
LINE
  5
1249BA
  8
OBJECT
 10
10044.5
 20
-879.99999999999955
 30
0.0
 11
10065.0
 21
-769.99999999999955
 31
0.0
1001
ACDBBLOCKREPETAG
1070
     1
1071
       31
1005
1249BA
  0
LINE
  5
1249BB
  8
OBJECT
 10
9955.5
 20
-879.99999999999955
 30
0.0
 11
10044.5
 21
-879.99999999999955
 31
0.0
1001
ACDBBLOCKREPETAG
1070
     1
1071
       32
1005
1249BB
  0
LINE
  5
1249BC
  8
OBJECT
 10
9938.9999999999927
 20
-1059.9999999999991
 30
0.0
 11
9938.9999999999927
 21
-1044.9999999999991
 31
0.0
1001
ACDBBLOCKREPETAG
1070
     1
1071
       33
1005
1249BC
  0
LINE
  5
1249BD
  8
OBJECT
 10
9938.9999999999927
 20
-1044.9999999999991
 30
0.0
 11
10075.999999999991
 21
-1044.9999999999991
 31
0.0
1001
ACDBBLOCKREPETAG
1070
     1
1071
       34
1005
1249BD
  0
LINE
  5
1249BE
  8
OBJECT
 10
9955.5
 20
-879.99999999999955
 30
0.0
 11
9955.5
 21
-1009.999999999999
 31
0.0
1001
ACDBBLOCKREPETAG
1070
     1
1071
       35
1005
1249BE
  0
LINE
  5
1249BF
  8
OBJECT
 10
10044.5
 20
-879.99999999999955
 30
0.0
 11
10044.5
 21
-1009.999999999999
 31
0.0
1001
ACDBBLOCKREPETAG
1070
     1
1071
       36
1005
1249BF
  0
LINE
  5
1249C0
  8
OBJECT
 10
9947.0
 20
-1009.999999999999
 30
0.0
 11
10053.0
 21
-1009.999999999999
 31
0.0
1001
ACDBBLOCKREPETAG
1070
     1
1071
       37
1005
1249C0
  0
LINE
  5
1249C1
  8
OBJECT
 10
10054.99999999998
 20
-1039.9999999999991
 30
0.0
 11
10054.99999999998
 21
-1044.9999999999991
 31
0.0
1001
ACDBBLOCKREPETAG
1070
     1
1071
       38
1005
1249C1
  0
LINE
  5
1249C2
  8
OBJECT
 10
10073.0
 20
-1039.9999999999991
 30
0.0
 11
10073.0
 21
-1044.9999999999991
 31
0.0
1001
ACDBBLOCKREPETAG
1070
     1
1071
       39
1005
1249C2
  0
LINE
  5
1249C3
  8
OBJECT
 10
10073.0
 20
-1039.9999999999991
 30
0.0
 11
10054.99999999998
 21
-1039.9999999999991
 31
0.0
1001
ACDBBLOCKREPETAG
1070
     1
1071
       40
1005
1249C3
  0
LINE
  5
1249C4
  8
HIDDEN
 10
9955.5
 20
-1019.999999999999
 30
0.0
 11
10044.5
 21
-1019.999999999999
 31
0.0
1001
ACDBBLOCKREPETAG
1070
     1
1071
       41
1005
1249C4
  0
LINE
  5
1249C5
  8
CENTER
 10
10000.0
 20
-669.99999999999955
 30
0.0
 11
10000.0
 21
-1098.9999999999991
 31
0.0
1001
ACDBBLOCKREPETAG
1070
     1
1071
       42
1005
1249C5
  0
LINE
  5
1249C6
  8
OBJECT
 10
10065.0
 20
-669.99999999999955
 30
0.0
 11
10065.0
 21
-769.99999999999955
 31
0.0
1001
ACDBBLOCKREPETAG
1070
     1
1071
       43
1005
1249C6
  0
LINE
  5
1249C7
  8
OBJECT
 10
9935.0
 20
-669.99999999999955
 30
0.0
 11
9935.0
 21
-769.99999999999955
 31
0.0
1001
ACDBBLOCKREPETAG
1070
     1
1071
       44
1005
1249C7
  0
LINE
  5
1249C8
  8
OBJECT
 10
9955.5
 20
-879.99999999999955
 30
0.0
 11
9935.0
 21
-769.99999999999955
 31
0.0
1001
ACDBBLOCKREPETAG
1070
     1
1071
       45
1005
1249C8
  0
LINE
  5
1249C9
  8
OBJECT
 10
10065.0
 20
-769.99999999999955
 30
0.0
 11
9935.0
 21
-769.99999999999955
 31
0.0
1001
ACDBBLOCKREPETAG
1070
     1
1071
       46
1005
1249C9
  0
LINE
  5
1249CA
  8
OBJECT
 10
9947.0
 20
-1009.999999999999
 30
0.0
 11
9947.0
 21
-1044.9999999999991
 31
0.0
1001
ACDBBLOCKREPETAG
1070
     1
1071
       47
1005
1249CA
  0
LINE
  5
1249CB
  8
OBJECT
 10
10053.0
 20
-1009.999999999999
 30
0.0
 11
10053.0
 21
-1044.9999999999991
 31
0.0
1001
ACDBBLOCKREPETAG
1070
     1
1071
       48
1005
1249CB
  0
LINE
  5
1249CC
  8
OBJECT
 10
9983.0
 20
-1042.9999999999991
 30
0.0
 11
9975.5
 21
-1039.9999999999991
 31
0.0
1001
ACDBBLOCKREPETAG
1070
     1
1071
       49
1005
1249CC
  0
LINE
  5
1249CD
  8
OBJECT
 10
9958.1850359912914
 20
-1083.9999868402581
 30
0.0
 11
9958.1850359912914
 21
-1091.9999868402581
 31
0.0
1001
ACDBBLOCKREPETAG
1070
     1
1071
       50
1005
1249CD
  0
LINE
  5
1249CE
  8
OBJECT
 10
9963.0925013591986
 20
-1083.9999868402581
 30
0.0
 11
9963.0925013591986
 21
-1091.9999868402581
 31
0.0
1001
ACDBBLOCKREPETAG
1070
     1
1071
       51
1005
1249CE
  0
LINE
  5
1249CF
  8
OBJECT
 10
9972.9074320950258
 20
-1083.9999868402581
 30
0.0
 11
9972.9074320950258
 21
-1091.9999868402581
 31
0.0
1001
ACDBBLOCKREPETAG
1070
     1
1071
       52
1005
1249CF
  0
LINE
  5
1249D0
  8
OBJECT
 10
9977.8149915527974
 20
-1083.9999868402581
 30
0.0
 11
9977.8149915527974
 21
-1091.9999868402581
 31
0.0
1001
ACDBBLOCKREPETAG
1070
     1
1071
       53
1005
1249D0
  0
LINE
  5
1249D1
  8
OBJECT
 10
10059.0
 20
-1091.9999999999991
 30
0.0
 11
10059.0
 21
-1094.9999999999991
 31
0.0
1001
ACDBBLOCKREPETAG
1070
     1
1071
       54
1005
1249D1
  0
LINE
  5
1249D2
  8
OBJECT
 10
10059.0
 20
-1094.9999999999991
 30
0.0
 11
10069.0
 21
-1094.9999999999991
 31
0.0
1001
ACDBBLOCKREPETAG
1070
     1
1071
       55
1005
1249D2
  0
LINE
  5
1249D3
  8
OBJECT
 10
10054.18504542377
 20
-1091.9999999999991
 30
0.0
 11
10073.814954576221
 21
-1091.9999999999991
 31
0.0
1001
ACDBBLOCKREPETAG
1070
     1
1071
       56
1005
1249D3
  0
LINE
  5
1249D4
  8
OBJECT
 10
10069.0
 20
-1094.9999999999991
 30
0.0
 11
10069.0
 21
-1091.9999999999991
 31
0.0
1001
ACDBBLOCKREPETAG
1070
     1
1071
       57
1005
1249D4
  0
LINE
  5
1249D5
  8
OBJECT
 10
10054.18503599129
 20
-1083.9999868402581
 30
0.0
 11
10054.18503599129
 21
-1091.9999868402581
 31
0.0
1001
ACDBBLOCKREPETAG
1070
     1
1071
       58
1005
1249D5
  0
LINE
  5
1249D6
  8
OBJECT
 10
10059.0925013592
 20
-1083.9999868402581
 30
0.0
 11
10059.0925013592
 21
-1091.9999868402581
 31
0.0
1001
ACDBBLOCKREPETAG
1070
     1
1071
       59
1005
1249D6
  0
LINE
  5
1249D7
  8
OBJECT
 10
10068.90743209502
 20
-1083.9999868402581
 30
0.0
 11
10068.90743209502
 21
-1091.9999868402581
 31
0.0
1001
ACDBBLOCKREPETAG
1070
     1
1071
       60
1005
1249D7
  0
LINE
  5
1249D8
  8
OBJECT
 10
10073.814991552799
 20
-1083.9999868402581
 30
0.0
 11
10073.814991552799
 21
-1091.9999868402581
 31
0.0
1001
ACDBBLOCKREPETAG
1070
     1
1071
       61
1005
1249D8
  0
LINE
  5
1249D9
  8
OBJECT
 10
8044.5000000000036
 20
-1059.999999999992
 30
0.0
 11
7955.5
 21
-1059.999999999992
 31
0.0
1001
ACDBBLOCKREPETAG
1070
     1
1071
        0
1005
1249D9
  0
LINE
  5
1249DA
  8
OBJECT
 10
7935.0
 20
-769.99999999999204
 30
0.0
 11
7935.0
 21
-669.99999999999216
 31
0.0
1001
ACDBBLOCKREPETAG
1070
     1
1071
        1
1005
1249DA
  0
LINE
  5
1249DB
  8
OBJECT
 10
8065.0
 20
-769.99999999999204
 30
0.0
 11
8065.0
 21
-669.99999999999216
 31
0.0
1001
ACDBBLOCKREPETAG
1070
     1
1071
        2
1005
1249DB
  0
LINE
  5
1249DC
  8
OBJECT
 10
7935.0
 20
-769.99999999999204
 30
0.0
 11
8065.0
 21
-769.99999999999204
 31
0.0
1001
ACDBBLOCKREPETAG
1070
     1
1071
        3
1005
1249DC
  0
LINE
  5
1249DD
  8
OBJECT
 10
7955.5
 20
-879.99999999999204
 30
0.0
 11
8044.5000000000036
 21
-879.99999999999204
 31
0.0
1001
ACDBBLOCKREPETAG
1070
     1
1071
        4
1005
1249DD
  0
LINE
  5
1249DE
  8
OBJECT
 10
7955.5
 20
-879.99999999999204
 30
0.0
 11
7955.5
 21
-1059.999999999992
 31
0.0
1001
ACDBBLOCKREPETAG
1070
     1
1071
        5
1005
1249DE
  0
LINE
  5
1249DF
  8
OBJECT
 10
8044.5000000000036
 20
-879.99999999999204
 30
0.0
 11
8044.5000000000036
 21
-1059.999999999992
 31
0.0
1001
ACDBBLOCKREPETAG
1070
     1
1071
        6
1005
1249DF
  0
LINE
  5
1249E0
  8
OBJECT
 10
7935.0
 20
-769.99999999999204
 30
0.0
 11
7955.5
 21
-879.99999999999204
 31
0.0
1001
ACDBBLOCKREPETAG
1070
     1
1071
        7
1005
1249E0
  0
LINE
  5
1249E1
  8
OBJECT
 10
8044.5000000000036
 20
-879.99999999999204
 30
0.0
 11
8065.0
 21
-769.99999999999204
 31
0.0
1001
ACDBBLOCKREPETAG
1070
     1
1071
        8
1005
1249E1
  0
LINE
  5
1249E2
  8
HIDDEN
 10
7962.5
 20
-879.99999999999204
 30
0.0
 11
7962.5
 21
-1059.999999999992
 31
0.0
1001
ACDBBLOCKREPETAG
1070
     1
1071
        9
1005
1249E2
  0
LINE
  5
1249E3
  8
HIDDEN
 10
8037.4999999999973
 20
-879.99999999999204
 30
0.0
 11
8037.4999999999973
 21
-1059.999999999992
 31
0.0
1001
ACDBBLOCKREPETAG
1070
     1
1071
       10
1005
1249E3
  0
LINE
  5
1249E4
  8
CENTER
 10
8000.0
 20
-669.99999999999955
 30
0.0
 11
8000.0
 21
-1074.999999999992
 31
0.0
1001
ACDBBLOCKREPETAG
1070
     1
1071
       11
1005
1249E4
  0
LINE
  5
1249E5
  8
OBJECT
 10
6055.9999999999927
 20
-1083.9999999999991
 30
0.0
 11
6055.9999999999927
 21
-1093.9999999999991
 31
0.0
1001
ACDBBLOCKREPETAG
1070
     1
1071
      121
1005
1249E5
  0
LINE
  5
1249E6
  8
OBJECT
 10
5961.75
 20
-1034.699999999996
 30
0.0
 11
5974.25
 21
-1034.699999999996
 31
0.0
1001
ACDBBLOCKREPETAG
1070
     1
1071
      122
1005
1249E6
  0
LINE
  5
1249E7
  8
OBJECT
 10
6073.4999999999927
 20
-1042.7
 30
0.0
 11
6073.4999999999927
 21
-1044.9999999999991
 31
0.0
1001
ACDBBLOCKREPETAG
1070
     1
1071
      123
1005
1249E7
  0
LINE
  5
1249E8
  8
OBJECT
 10
6057.7499999999927
 20
-1034.699999999996
 30
0.0
 11
6070.2499999999927
 21
-1034.699999999996
 31
0.0
1001
ACDBBLOCKREPETAG
1070
     1
1071
      124
1005
1249E8
  0
LINE
  5
1249E9
  8
OBJECT
 10
6054.4999999999927
 20
-1042.7
 30
0.0
 11
6054.4999999999927
 21
-1044.9999999999991
 31
0.0
1001
ACDBBLOCKREPETAG
1070
     1
1071
      125
1005
1249E9
  0
LINE
  5
1249EA
  8
OBJECT
 10
5953.0
 20
-1044.9999999999991
 30
0.0
 11
5953.0
 21
-1042.7
 31
0.0
1001
ACDBBLOCKREPETAG
1070
     1
1071
      126
1005
1249EA
  0
LINE
  5
1249EB
  8
OBJECT
 10
5983.0
 20
-1044.9999999999991
 30
0.0
 11
5983.0
 21
-1042.7
 31
0.0
1001
ACDBBLOCKREPETAG
1070
     1
1071
      127
1005
1249EB
  0
LINE
  5
1249EC
  8
OBJECT
 10
5961.75
 20
-1034.699999999996
 30
0.0
 11
5961.75
 21
-1042.7
 31
0.0
1001
ACDBBLOCKREPETAG
1070
     1
1071
      128
1005
1249EC
  0
LINE
  5
1249ED
  8
OBJECT
 10
5974.25
 20
-1034.699999999996
 30
0.0
 11
5974.25
 21
-1042.7
 31
0.0
1001
ACDBBLOCKREPETAG
1070
     1
1071
      129
1005
1249ED
  0
LINE
  5
1249EE
  8
OBJECT
 10
5953.0
 20
-1042.7
 30
0.0
 11
5983.0
 21
-1042.7
 31
0.0
1001
ACDBBLOCKREPETAG
1070
     1
1071
      130
1005
1249EE
  0
LINE
  5
1249EF
  8
OBJECT
 10
5960.0
 20
-1083.9999999999991
 30
0.0
 11
5960.0
 21
-1093.9999999999991
 31
0.0
1001
ACDBBLOCKREPETAG
1070
     1
1071
      131
1005
1249EF
  0
LINE
  5
1249F0
  8
OBJECT
 10
5976.0
 20
-1083.9999999999991
 30
0.0
 11
5976.0
 21
-1093.9999999999991
 31
0.0
1001
ACDBBLOCKREPETAG
1070
     1
1071
      132
1005
1249F0
  0
LINE
  5
1249F1
  8
OBJECT
 10
5960.0
 20
-1093.9999999999991
 30
0.0
 11
5976.0
 21
-1093.9999999999991
 31
0.0
1001
ACDBBLOCKREPETAG
1070
     1
1071
      133
1005
1249F1
  0
LINE
  5
1249F2
  8
OBJECT
 10
6071.9999999999918
 20
-1083.9999999999991
 30
0.0
 11
6071.9999999999918
 21
-1093.9999999999991
 31
0.0
1001
ACDBBLOCKREPETAG
1070
     1
1071
      134
1005
1249F2
  0
LINE
  5
1249F3
  8
OBJECT
 10
6071.9999999999918
 20
-1093.9999999999991
 30
0.0
 11
6055.9999999999927
 21
-1093.9999999999991
 31
0.0
1001
ACDBBLOCKREPETAG
1070
     1
1071
      135
1005
1249F3
  0
LINE
  5
1249F4
  8
OBJECT
 10
5944.9999999999927
 20
-1125.0
 30
0.0
 11
5944.9999999999927
 21
-1083.9999999999991
 31
0.0
1001
ACDBBLOCKREPETAG
1070
     1
1071
      136
1005
1249F4
  0
LINE
  5
1249F5
  8
OBJECT
 10
6054.9999999999918
 20
-1083.9999999999991
 30
0.0
 11
6054.9999999999918
 21
-1125.0
 31
0.0
1001
ACDBBLOCKREPETAG
1070
     1
1071
      137
1005
1249F5
  0
LINE
  5
1249F6
  8
OBJECT
 10
6070.2499999999927
 20
-1034.699999999996
 30
0.0
 11
6070.2499999999927
 21
-1042.7
 31
0.0
1001
ACDBBLOCKREPETAG
1070
     1
1071
      138
1005
1249F6
  0
LINE
  5
1249F7
  8
OBJECT
 10
6057.7499999999927
 20
-1034.699999999996
 30
0.0
 11
6057.7499999999927
 21
-1042.7
 31
0.0
1001
ACDBBLOCKREPETAG
1070
     1
1071
      139
1005
1249F7
  0
LINE
  5
1249F8
  8
OBJECT
 10
6054.4999999999927
 20
-1042.7
 30
0.0
 11
6073.4999999999927
 21
-1042.7
 31
0.0
1001
ACDBBLOCKREPETAG
1070
     1
1071
      140
1005
1249F8
  0
LINE
  5
1249F9
  8
OBJECT
 10
6054.9999999999918
 20
-1125.0
 30
0.0
 11
5944.9999999999927
 21
-1125.0
 31
0.0
1001
ACDBBLOCKREPETAG
1070
     1
1071
      141
1005
1249F9
  0
LINE
  5
1249FA
  8
OBJECT
 10
6075.9999999999927
 20
-1059.9999999999991
 30
0.0
 11
5938.9999999999918
 21
-1059.9999999999991
 31
0.0
1001
ACDBBLOCKREPETAG
1070
     1
1071
      142
1005
1249FA
  0
LINE
  5
1249FB
  8
OBJECT
 10
6075.9999999999927
 20
-1059.9999999999991
 30
0.0
 11
6075.9999999999927
 21
-1044.9999999999991
 31
0.0
1001
ACDBBLOCKREPETAG
1070
     1
1071
      143
1005
1249FB
  0
LINE
  5
1249FC
  8
OBJECT
 10
6075.9999999999927
 20
-1069.9999999999991
 30
0.0
 11
6075.9999999999927
 21
-1083.9999999999991
 31
0.0
1001
ACDBBLOCKREPETAG
1070
     1
1071
      144
1005
1249FC
  0
LINE
  5
1249FD
  8
OBJECT
 10
6068.9999999999909
 20
-1069.9999999999991
 30
0.0
 11
6068.9999999999909
 21
-1059.9999999999991
 31
0.0
1001
ACDBBLOCKREPETAG
1070
     1
1071
      145
1005
1249FD
  0
LINE
  5
1249FE
  8
OBJECT
 10
6058.9999999999927
 20
-1069.9999999999991
 30
0.0
 11
6058.9999999999927
 21
-1059.9999999999991
 31
0.0
1001
ACDBBLOCKREPETAG
1070
     1
1071
      146
1005
1249FE
  0
LINE
  5
1249FF
  8
OBJECT
 10
5938.9999999999918
 20
-1069.9999999999991
 30
0.0
 11
5938.9999999999918
 21
-1083.9999999999991
 31
0.0
1001
ACDBBLOCKREPETAG
1070
     1
1071
      147
1005
1249FF
  0
LINE
  5
124A00
  8
OBJECT
 10
5938.9999999999918
 20
-1083.9999999999991
 30
0.0
 11
6075.9999999999927
 21
-1083.9999999999991
 31
0.0
1001
ACDBBLOCKREPETAG
1070
     1
1071
      148
1005
124A00
  0
LINE
  5
124A01
  8
OBJECT
 10
5973.0
 20
-1069.9999999999991
 30
0.0
 11
5973.0
 21
-1059.9999999999991
 31
0.0
1001
ACDBBLOCKREPETAG
1070
     1
1071
      149
1005
124A01
  0
LINE
  5
124A02
  8
OBJECT
 10
5963.0
 20
-1069.9999999999991
 30
0.0
 11
5963.0
 21
-1059.9999999999991
 31
0.0
1001
ACDBBLOCKREPETAG
1070
     1
1071
      150
1005
124A02
  0
LINE
  5
124A03
  8
OBJECT
 10
5938.9999999999918
 20
-1069.9999999999991
 30
0.0
 11
6075.9999999999927
 21
-1069.9999999999991
 31
0.0
1001
ACDBBLOCKREPETAG
1070
     1
1071
      151
1005
124A03
  0
LINE
  5
124A04
  8
OBJECT
 10
5945.9999999999927
 20
-1059.9999999999991
 30
0.0
 11
5945.9999999999927
 21
-1069.9999999999991
 31
0.0
1001
ACDBBLOCKREPETAG
1070
     1
1071
      152
1005
124A04
  0
LINE
  5
124A05
  8
OBJECT
 10
6053.9999999999927
 20
-1059.9999999999991
 30
0.0
 11
6053.9999999999927
 21
-1069.9999999999991
 31
0.0
1001
ACDBBLOCKREPETAG
1070
     1
1071
      153
1005
124A05
  0
LINE
  5
124A06
  8
OBJECT
 10
6044.5
 20
-879.99999999999955
 30
0.0
 11
6065.0
 21
-769.99999999999955
 31
0.0
1001
ACDBBLOCKREPETAG
1070
     1
1071
      154
1005
124A06
  0
LINE
  5
124A07
  8
OBJECT
 10
5955.5
 20
-879.99999999999955
 30
0.0
 11
6044.5
 21
-879.99999999999955
 31
0.0
1001
ACDBBLOCKREPETAG
1070
     1
1071
      155
1005
124A07
  0
LINE
  5
124A08
  8
OBJECT
 10
5938.9999999999918
 20
-1059.9999999999991
 30
0.0
 11
5938.9999999999918
 21
-1044.9999999999991
 31
0.0
1001
ACDBBLOCKREPETAG
1070
     1
1071
      156
1005
124A08
  0
LINE
  5
124A09
  8
OBJECT
 10
5938.9999999999918
 20
-1044.9999999999991
 30
0.0
 11
6075.9999999999927
 21
-1044.9999999999991
 31
0.0
1001
ACDBBLOCKREPETAG
1070
     1
1071
      157
1005
124A09
  0
LINE
  5
124A0A
  8
OBJECT
 10
5955.5
 20
-879.99999999999955
 30
0.0
 11
5955.5
 21
-1009.999999999999
 31
0.0
1001
ACDBBLOCKREPETAG
1070
     1
1071
      158
1005
124A0A
  0
LINE
  5
124A0B
  8
OBJECT
 10
6044.5
 20
-879.99999999999955
 30
0.0
 11
6044.5
 21
-1009.999999999999
 31
0.0
1001
ACDBBLOCKREPETAG
1070
     1
1071
      159
1005
124A0B
  0
LINE
  5
124A0C
  8
OBJECT
 10
5947.0
 20
-1009.999999999999
 30
0.0
 11
6053.0
 21
-1009.999999999999
 31
0.0
1001
ACDBBLOCKREPETAG
1070
     1
1071
      160
1005
124A0C
  0
LINE
  5
124A0D
  8
HIDDEN
 10
5955.5
 20
-1019.999999999999
 30
0.0
 11
6044.5
 21
-1019.999999999999
 31
0.0
1001
ACDBBLOCKREPETAG
1070
     1
1071
      161
1005
124A0D
  0
LINE
  5
124A0E
  8
CENTER
 10
6000.0
 20
-669.99999999999955
 30
0.0
 11
6000.0
 21
-1139.9999999999991
 31
0.0
1001
ACDBBLOCKREPETAG
1070
     1
1071
      162
1005
124A0E
  0
LINE
  5
124A0F
  8
OBJECT
 10
6065.0
 20
-669.99999999999955
 30
0.0
 11
6065.0
 21
-769.99999999999955
 31
0.0
1001
ACDBBLOCKREPETAG
1070
     1
1071
      163
1005
124A0F
  0
LINE
  5
124A10
  8
OBJECT
 10
5935.0
 20
-669.99999999999955
 30
0.0
 11
5935.0
 21
-769.99999999999955
 31
0.0
1001
ACDBBLOCKREPETAG
1070
     1
1071
      164
1005
124A10
  0
LINE
  5
124A11
  8
OBJECT
 10
5955.5
 20
-879.99999999999955
 30
0.0
 11
5935.0
 21
-769.99999999999955
 31
0.0
1001
ACDBBLOCKREPETAG
1070
     1
1071
      165
1005
124A11
  0
LINE
  5
124A12
  8
OBJECT
 10
6065.0
 20
-769.99999999999955
 30
0.0
 11
5935.0
 21
-769.99999999999955
 31
0.0
1001
ACDBBLOCKREPETAG
1070
     1
1071
      166
1005
124A12
  0
LINE
  5
124A13
  8
OBJECT
 10
5947.0
 20
-1009.999999999999
 30
0.0
 11
5947.0
 21
-1044.9999999999991
 31
0.0
1001
ACDBBLOCKREPETAG
1070
     1
1071
      167
1005
124A13
  0
LINE
  5
124A14
  8
OBJECT
 10
6053.0
 20
-1009.999999999999
 30
0.0
 11
6053.0
 21
-1044.9999999999991
 31
0.0
1001
ACDBBLOCKREPETAG
1070
     1
1071
      168
1005
124A14
  0
LINE
  5
124A15
  8
OBJECT
 10
3975.5
 20
-1039.9999999999991
 30
0.0
 11
3958.9999999999918
 21
-1039.9999999999991
 31
0.0
1001
ACDBBLOCKREPETAG
1070
     1
1071
       12
1005
124A15
  0
LINE
  5
124A16
  8
OBJECT
 10
3983.0
 20
-1044.9999999999991
 30
0.0
 11
3983.0
 21
-1042.9999999999991
 31
0.0
1001
ACDBBLOCKREPETAG
1070
     1
1071
       13
1005
124A16
  0
LINE
  5
124A17
  8
OBJECT
 10
4075.9999999999918
 20
-1059.9999999999991
 30
0.0
 11
3938.9999999999932
 21
-1059.9999999999991
 31
0.0
1001
ACDBBLOCKREPETAG
1070
     1
1071
       14
1005
124A17
  0
LINE
  5
124A18
  8
OBJECT
 10
4075.9999999999918
 20
-1059.9999999999991
 30
0.0
 11
4075.9999999999918
 21
-1044.9999999999991
 31
0.0
1001
ACDBBLOCKREPETAG
1070
     1
1071
       15
1005
124A18
  0
LINE
  5
124A19
  8
OBJECT
 10
4075.9999999999918
 20
-1069.9999999999991
 30
0.0
 11
4075.9999999999918
 21
-1083.9999999999991
 31
0.0
1001
ACDBBLOCKREPETAG
1070
     1
1071
       16
1005
124A19
  0
LINE
  5
124A1A
  8
OBJECT
 10
4068.9999999999918
 20
-1069.9999999999991
 30
0.0
 11
4068.9999999999918
 21
-1059.9999999999991
 31
0.0
1001
ACDBBLOCKREPETAG
1070
     1
1071
       17
1005
124A1A
  0
LINE
  5
124A1B
  8
OBJECT
 10
4058.9999999999932
 20
-1069.9999999999991
 30
0.0
 11
4058.9999999999932
 21
-1059.9999999999991
 31
0.0
1001
ACDBBLOCKREPETAG
1070
     1
1071
       18
1005
124A1B
  0
LINE
  5
124A1C
  8
OBJECT
 10
3938.9999999999932
 20
-1069.9999999999991
 30
0.0
 11
3938.9999999999932
 21
-1083.9999999999991
 31
0.0
1001
ACDBBLOCKREPETAG
1070
     1
1071
       19
1005
124A1C
  0
LINE
  5
124A1D
  8
OBJECT
 10
3938.9999999999932
 20
-1083.9999999999991
 30
0.0
 11
4075.9999999999918
 21
-1083.9999999999991
 31
0.0
1001
ACDBBLOCKREPETAG
1070
     1
1071
       20
1005
124A1D
  0
LINE
  5
124A1E
  8
OBJECT
 10
3973.0
 20
-1069.9999999999991
 30
0.0
 11
3973.0
 21
-1059.9999999999991
 31
0.0
1001
ACDBBLOCKREPETAG
1070
     1
1071
       21
1005
124A1E
  0
LINE
  5
124A1F
  8
OBJECT
 10
3963.0
 20
-1069.9999999999991
 30
0.0
 11
3963.0
 21
-1059.9999999999991
 31
0.0
1001
ACDBBLOCKREPETAG
1070
     1
1071
       22
1005
124A1F
  0
LINE
  5
124A20
  8
OBJECT
 10
3938.9999999999932
 20
-1069.9999999999991
 30
0.0
 11
4075.9999999999918
 21
-1069.9999999999991
 31
0.0
1001
ACDBBLOCKREPETAG
1070
     1
1071
       23
1005
124A20
  0
LINE
  5
124A21
  8
OBJECT
 10
3958.9999999999918
 20
-1039.9999999999991
 30
0.0
 11
3958.9999999999918
 21
-1044.9999999999991
 31
0.0
1001
ACDBBLOCKREPETAG
1070
     1
1071
       24
1005
124A21
  0
LINE
  5
124A22
  8
OBJECT
 10
3963.0
 20
-1091.9999999999991
 30
0.0
 11
3963.0
 21
-1094.9999999999991
 31
0.0
1001
ACDBBLOCKREPETAG
1070
     1
1071
       25
1005
124A22
  0
LINE
  5
124A23
  8
OBJECT
 10
3963.0
 20
-1094.9999999999991
 30
0.0
 11
3973.0
 21
-1094.9999999999991
 31
0.0
1001
ACDBBLOCKREPETAG
1070
     1
1071
       26
1005
124A23
  0
LINE
  5
124A24
  8
OBJECT
 10
3958.185045423772
 20
-1091.9999999999991
 30
0.0
 11
3977.8149545762212
 21
-1091.9999999999991
 31
0.0
1001
ACDBBLOCKREPETAG
1070
     1
1071
       27
1005
124A24
  0
LINE
  5
124A25
  8
OBJECT
 10
3973.0
 20
-1094.9999999999991
 30
0.0
 11
3973.0
 21
-1091.9999999999991
 31
0.0
1001
ACDBBLOCKREPETAG
1070
     1
1071
       28
1005
124A25
  0
LINE
  5
124A26
  8
OBJECT
 10
3945.9999999999932
 20
-1059.9999999999991
 30
0.0
 11
3945.9999999999932
 21
-1069.9999999999991
 31
0.0
1001
ACDBBLOCKREPETAG
1070
     1
1071
       29
1005
124A26
  0
LINE
  5
124A27
  8
OBJECT
 10
4053.9999999999941
 20
-1059.9999999999991
 30
0.0
 11
4053.9999999999941
 21
-1069.9999999999991
 31
0.0
1001
ACDBBLOCKREPETAG
1070
     1
1071
       30
1005
124A27
  0
LINE
  5
124A28
  8
OBJECT
 10
4044.5
 20
-879.99999999999955
 30
0.0
 11
4065.0
 21
-769.99999999999955
 31
0.0
1001
ACDBBLOCKREPETAG
1070
     1
1071
       31
1005
124A28
  0
LINE
  5
124A29
  8
OBJECT
 10
3955.5
 20
-879.99999999999955
 30
0.0
 11
4044.5
 21
-879.99999999999955
 31
0.0
1001
ACDBBLOCKREPETAG
1070
     1
1071
       32
1005
124A29
  0
LINE
  5
124A2A
  8
OBJECT
 10
3938.9999999999932
 20
-1059.9999999999991
 30
0.0
 11
3938.9999999999932
 21
-1044.9999999999991
 31
0.0
1001
ACDBBLOCKREPETAG
1070
     1
1071
       33
1005
124A2A
  0
LINE
  5
124A2B
  8
OBJECT
 10
3938.9999999999932
 20
-1044.9999999999991
 30
0.0
 11
4075.9999999999918
 21
-1044.9999999999991
 31
0.0
1001
ACDBBLOCKREPETAG
1070
     1
1071
       34
1005
124A2B
  0
LINE
  5
124A2C
  8
OBJECT
 10
3955.5
 20
-879.99999999999955
 30
0.0
 11
3955.5
 21
-1009.999999999999
 31
0.0
1001
ACDBBLOCKREPETAG
1070
     1
1071
       35
1005
124A2C
  0
LINE
  5
124A2D
  8
OBJECT
 10
4044.5
 20
-879.99999999999955
 30
0.0
 11
4044.5
 21
-1009.999999999999
 31
0.0
1001
ACDBBLOCKREPETAG
1070
     1
1071
       36
1005
124A2D
  0
LINE
  5
124A2E
  8
OBJECT
 10
3947.0
 20
-1009.999999999999
 30
0.0
 11
4053.0
 21
-1009.999999999999
 31
0.0
1001
ACDBBLOCKREPETAG
1070
     1
1071
       37
1005
124A2E
  0
LINE
  5
124A2F
  8
OBJECT
 10
4054.9999999999841
 20
-1039.9999999999991
 30
0.0
 11
4054.9999999999841
 21
-1044.9999999999991
 31
0.0
1001
ACDBBLOCKREPETAG
1070
     1
1071
       38
1005
124A2F
  0
LINE
  5
124A30
  8
OBJECT
 10
4073.0
 20
-1039.9999999999991
 30
0.0
 11
4073.0
 21
-1044.9999999999991
 31
0.0
1001
ACDBBLOCKREPETAG
1070
     1
1071
       39
1005
124A30
  0
LINE
  5
124A31
  8
OBJECT
 10
4073.0
 20
-1039.9999999999991
 30
0.0
 11
4054.9999999999841
 21
-1039.9999999999991
 31
0.0
1001
ACDBBLOCKREPETAG
1070
     1
1071
       40
1005
124A31
  0
LINE
  5
124A32
  8
HIDDEN
 10
3955.5
 20
-1019.999999999999
 30
0.0
 11
4044.5
 21
-1019.999999999999
 31
0.0
1001
ACDBBLOCKREPETAG
1070
     1
1071
       41
1005
124A32
  0
LINE
  5
124A33
  8
CENTER
 10
4000.0
 20
-669.99999999999955
 30
0.0
 11
4000.0
 21
-1098.9999999999991
 31
0.0
1001
ACDBBLOCKREPETAG
1070
     1
1071
       42
1005
124A33
  0
LINE
  5
124A34
  8
OBJECT
 10
4065.0
 20
-669.99999999999955
 30
0.0
 11
4065.0
 21
-769.99999999999955
 31
0.0
1001
ACDBBLOCKREPETAG
1070
     1
1071
       43
1005
124A34
  0
LINE
  5
124A35
  8
OBJECT
 10
3935.0
 20
-669.99999999999955
 30
0.0
 11
3935.0
 21
-769.99999999999955
 31
0.0
1001
ACDBBLOCKREPETAG
1070
     1
1071
       44
1005
124A35
  0
LINE
  5
124A36
  8
OBJECT
 10
3955.5
 20
-879.99999999999955
 30
0.0
 11
3935.0
 21
-769.99999999999955
 31
0.0
1001
ACDBBLOCKREPETAG
1070
     1
1071
       45
1005
124A36
  0
LINE
  5
124A37
  8
OBJECT
 10
4065.0
 20
-769.99999999999955
 30
0.0
 11
3935.0
 21
-769.99999999999955
 31
0.0
1001
ACDBBLOCKREPETAG
1070
     1
1071
       46
1005
124A37
  0
LINE
  5
124A38
  8
OBJECT
 10
3947.0
 20
-1009.999999999999
 30
0.0
 11
3947.0
 21
-1044.9999999999991
 31
0.0
1001
ACDBBLOCKREPETAG
1070
     1
1071
       47
1005
124A38
  0
LINE
  5
124A39
  8
OBJECT
 10
4053.0
 20
-1009.999999999999
 30
0.0
 11
4053.0
 21
-1044.9999999999991
 31
0.0
1001
ACDBBLOCKREPETAG
1070
     1
1071
       48
1005
124A39
  0
LINE
  5
124A3A
  8
OBJECT
 10
3983.0
 20
-1042.9999999999991
 30
0.0
 11
3975.5
 21
-1039.9999999999991
 31
0.0
1001
ACDBBLOCKREPETAG
1070
     1
1071
       49
1005
124A3A
  0
LINE
  5
124A3B
  8
OBJECT
 10
3958.1850359912951
 20
-1083.9999868402581
 30
0.0
 11
3958.1850359912951
 21
-1091.9999868402581
 31
0.0
1001
ACDBBLOCKREPETAG
1070
     1
1071
       50
1005
124A3B
  0
LINE
  5
124A3C
  8
OBJECT
 10
3963.0925013591991
 20
-1083.9999868402581
 30
0.0
 11
3963.0925013591991
 21
-1091.9999868402581
 31
0.0
1001
ACDBBLOCKREPETAG
1070
     1
1071
       51
1005
124A3C
  0
LINE
  5
124A3D
  8
OBJECT
 10
3972.907432095024
 20
-1083.9999868402581
 30
0.0
 11
3972.907432095024
 21
-1091.9999868402581
 31
0.0
1001
ACDBBLOCKREPETAG
1070
     1
1071
       52
1005
124A3D
  0
LINE
  5
124A3E
  8
OBJECT
 10
3977.814991552797
 20
-1083.9999868402581
 30
0.0
 11
3977.814991552797
 21
-1091.9999868402581
 31
0.0
1001
ACDBBLOCKREPETAG
1070
     1
1071
       53
1005
124A3E
  0
LINE
  5
124A3F
  8
OBJECT
 10
4059.0
 20
-1091.9999999999991
 30
0.0
 11
4059.0
 21
-1094.9999999999991
 31
0.0
1001
ACDBBLOCKREPETAG
1070
     1
1071
       54
1005
124A3F
  0
LINE
  5
124A40
  8
OBJECT
 10
4059.0
 20
-1094.9999999999991
 30
0.0
 11
4069.0
 21
-1094.9999999999991
 31
0.0
1001
ACDBBLOCKREPETAG
1070
     1
1071
       55
1005
124A40
  0
LINE
  5
124A41
  8
OBJECT
 10
4054.1850454237701
 20
-1091.9999999999991
 30
0.0
 11
4073.8149545762199
 21
-1091.9999999999991
 31
0.0
1001
ACDBBLOCKREPETAG
1070
     1
1071
       56
1005
124A41
  0
LINE
  5
124A42
  8
OBJECT
 10
4069.0
 20
-1094.9999999999991
 30
0.0
 11
4069.0
 21
-1091.9999999999991
 31
0.0
1001
ACDBBLOCKREPETAG
1070
     1
1071
       57
1005
124A42
  0
LINE
  5
124A43
  8
OBJECT
 10
4054.1850359912919
 20
-1083.9999868402581
 30
0.0
 11
4054.1850359912919
 21
-1091.9999868402581
 31
0.0
1001
ACDBBLOCKREPETAG
1070
     1
1071
       58
1005
124A43
  0
LINE
  5
124A44
  8
OBJECT
 10
4059.0925013591982
 20
-1083.9999868402581
 30
0.0
 11
4059.0925013591982
 21
-1091.9999868402581
 31
0.0
1001
ACDBBLOCKREPETAG
1070
     1
1071
       59
1005
124A44
  0
LINE
  5
124A45
  8
OBJECT
 10
4068.907432095024
 20
-1083.9999868402581
 30
0.0
 11
4068.907432095024
 21
-1091.9999868402581
 31
0.0
1001
ACDBBLOCKREPETAG
1070
     1
1071
       60
1005
124A45
  0
LINE
  5
124A46
  8
OBJECT
 10
4073.814991552797
 20
-1083.9999868402581
 30
0.0
 11
4073.814991552797
 21
-1091.9999868402581
 31
0.0
1001
ACDBBLOCKREPETAG
1070
     1
1071
       61
1005
124A46
  0
LINE
  5
124A47
  8
CENTER
 10
11924.0
 20
-1374.9999999999991
 30
0.0
 11
12091.0
 21
-1374.9999999999991
 31
0.0
1001
ACDBBLOCKREPETAG
1070
     1
1071
       22
1005
124A47
  0
LINE
  5
124A48
  8
CENTER
 10
12000.0
 20
-1298.0518385105161
 30
0.0
 11
12000.0
 21
-1451.948161489478
 31
0.0
1001
ACDBBLOCKREPETAG
1070
     1
1071
       23
1005
124A48
  0
CIRCLE
  5
124A49
  8
OBJECT
 10
12000.0
 20
-1374.9999999999991
 30
0.0
 40
37.5
1001
ACDBBLOCKREPETAG
1070
     1
1071
       24
1005
124A49
  0
CIRCLE
  5
124A4A
  8
OBJECT
 10
12000.0
 20
-1374.9999999999991
 30
0.0
 40
47.5
1001
ACDBBLOCKREPETAG
1070
     1
1071
       25
1005
124A4A
  0
ARC
  5
124A4B
  8
OBJECT
 10
12000.0
 20
-1374.9999999999991
 30
0.0
 40
61.0
 50
40.03737312998139
 51
79.962626870012684
1001
ACDBBLOCKREPETAG
1070
     1
1071
       26
1005
124A4B
  0
ARC
  5
124A4C
  8
OBJECT
 10
12000.0
 20
-1374.9999999999991
 30
0.0
 40
61.0
 50
160.03737312997501
 51
199.96262687002491
1001
ACDBBLOCKREPETAG
1070
     1
1071
       27
1005
124A4C
  0
ARC
  5
124A4D
  8
OBJECT
 10
12000.0
 20
-1374.9999999999991
 30
0.0
 40
61.0
 50
280.03737312998732
 51
319.9626268700186
1001
ACDBBLOCKREPETAG
1070
     1
1071
       28
1005
124A4D
  0
ARC
  5
124A4E
  8
OBJECT
 10
12064.0
 20
-1374.9999999999991
 30
0.0
 40
12.0
 50
319.9626268700186
 51
40.03737312998139
1001
ACDBBLOCKREPETAG
1070
     1
1071
       29
1005
124A4E
  0
LINE
  5
124A4F
  8
OBJECT
 10
12046.703125
 20
-1335.7594837542299
 30
0.0
 11
12073.1875
 21
-1367.2805541811599
 31
0.0
1001
ACDBBLOCKREPETAG
1070
     1
1071
       30
1005
124A4F
  0
LINE
  5
124A50
  8
OBJECT
 10
12046.703125
 20
-1414.240516245768
 30
0.0
 11
12073.1875
 21
-1382.719445818838
 31
0.0
1001
ACDBBLOCKREPETAG
1070
     1
1071
       31
1005
124A50
  0
CIRCLE
  5
124A51
  8
OBJECT
 10
12000.0
 20
-1374.9999999999991
 30
0.0
 40
55.0
1001
ACDBBLOCKREPETAG
1070
     1
1071
       32
1005
124A51
  0
ARC
  5
124A52
  8
OBJECT
 10
12064.0
 20
-1374.9999999999991
 30
0.0
 40
12.0
 50
271.2434956101261
 51
88.756504389873882
1001
ACDBBLOCKREPETAG
1070
     1
1071
       33
1005
124A52
  0
ARC
  5
124A53
  8
OBJECT
 10
12064.5859375
 20
-1348.0063585775049
 30
0.0
 40
15.0
 50
202.68245018366949
 51
268.7565043898739
1001
ACDBBLOCKREPETAG
1070
     1
1071
       34
1005
124A53
  0
CIRCLE
  5
124A54
  8
SLIM
 10
12064.0
 20
-1374.9999999999991
 30
0.0
 40
8.0
1001
ACDBBLOCKREPETAG
1070
     1
1071
       35
1005
124A54
  0
POLYLINE
  5
124A55
  8
SLIM
 66
     1
 10
0.0
 20
0.0
 30
0.0
 70
     1
1001
ACDBBLOCKREPETAG
1070
     1
1071
       36
1005
124A55
  0
VERTEX
  5
124C7D
  8
SLIM
 10
12061.69059892324
 20
-1370.9999999999991
 30
0.0
  0
VERTEX
  5
124C7E
  8
SLIM
 10
12059.38119784648
 20
-1374.9999999999991
 30
0.0
  0
VERTEX
  5
124C7F
  8
SLIM
 10
12061.69059892324
 20
-1378.9999999999991
 30
0.0
  0
VERTEX
  5
124C80
  8
SLIM
 10
12066.30940107676
 20
-1378.9999999999991
 30
0.0
  0
VERTEX
  5
124C81
  8
SLIM
 10
12068.618802153511
 20
-1374.9999999999991
 30
0.0
  0
VERTEX
  5
124C82
  8
SLIM
 10
12066.30940107676
 20
-1370.9999999999991
 30
0.0
  0
SEQEND
  5
124C83
  8
SLIM
  0
ARC
  5
124A56
  8
OBJECT
 10
12064.5859375
 20
-1401.993641422489
 30
0.0
 40
15.0
 50
91.243495610126089
 51
157.3175498163304
1001
ACDBBLOCKREPETAG
1070
     1
1071
       37
1005
124A56
  0
ARC
  5
124A57
  8
OBJECT
 10
11968.0
 20
-1319.5743741577919
 30
0.0
 40
12.0
 50
79.962626870012684
 51
160.03737312997501
1001
ACDBBLOCKREPETAG
1070
     1
1071
       38
1005
124A57
  0
LINE
  5
124A58
  8
OBJECT
 10
11942.665153573549
 20
-1354.1741654367599
 30
0.0
 11
11956.721013817751
 21
-1315.477488669944
 31
0.0
1001
ACDBBLOCKREPETAG
1070
     1
1071
       39
1005
124A58
  0
LINE
  5
124A59
  8
OBJECT
 10
12010.631721426451
 20
-1314.9336491909951
 30
0.0
 11
11970.091486182249
 21
-1307.7580428511051
 31
0.0
1001
ACDBBLOCKREPETAG
1070
     1
1071
       40
1005
124A59
  0
ARC
  5
124A5A
  8
OBJECT
 10
11968.0
 20
-1319.5743741577919
 30
0.0
 40
12.0
 50
31.243495610056922
 51
208.7565043898139
1001
ACDBBLOCKREPETAG
1070
     1
1071
       41
1005
124A5A
  0
ARC
  5
124A5B
  8
OBJECT
 10
11944.32985203747
 20
-1332.56375810901
 30
0.0
 40
15.0
 50
322.68245018387239
 51
28.756504389813902
1001
ACDBBLOCKREPETAG
1070
     1
1071
       42
1005
124A5B
  0
CIRCLE
  5
124A5C
  8
SLIM
 10
11968.0
 20
-1319.5743741577919
 30
0.0
 40
7.9999999999999982
1001
ACDBBLOCKREPETAG
1070
     1
1071
       43
1005
124A5C
  0
POLYLINE
  5
124A5D
  8
SLIM
 66
     1
 10
0.0
 20
0.0
 30
0.0
 70
     1
1001
ACDBBLOCKREPETAG
1070
     1
1071
       44
1005
124A5D
  0
VERTEX
  5
124C84
  8
SLIM
 10
11965.69059892324
 20
-1323.574374157796
 30
0.0
  0
VERTEX
  5
124C85
  8
SLIM
 10
11970.30940107676
 20
-1323.5743741577919
 30
0.0
  0
VERTEX
  5
124C86
  8
SLIM
 10
11972.618802153511
 20
-1319.574374157796
 30
0.0
  0
VERTEX
  5
124C87
  8
SLIM
 10
11970.309401076751
 20
-1315.5743741577919
 30
0.0
  0
VERTEX
  5
124C88
  8
SLIM
 10
11965.69059892324
 20
-1315.574374157796
 30
0.0
  0
VERTEX
  5
124C89
  8
SLIM
 10
11963.38119784648
 20
-1319.5743741577919
 30
0.0
  0
SEQEND
  5
124C8A
  8
SLIM
  0
ARC
  5
124A5E
  8
OBJECT
 10
11991.084210462521
 20
-1305.5701166865169
 30
0.0
 40
15.0
 50
211.2434956100569
 51
277.31754981622862
1001
ACDBBLOCKREPETAG
1070
     1
1071
       45
1005
124A5E
  0
ARC
  5
124A5F
  8
OBJECT
 10
11968.0
 20
-1430.425625842202
 30
0.0
 40
12.0
 50
199.96262687002491
 51
280.03737312998732
1001
ACDBBLOCKREPETAG
1070
     1
1071
       46
1005
124A5F
  0
LINE
  5
124A60
  8
OBJECT
 10
12010.631721426451
 20
-1435.0663508090031
 30
0.0
 11
11970.091486182249
 21
-1442.241957148892
 31
0.0
1001
ACDBBLOCKREPETAG
1070
     1
1071
       47
1005
124A60
  0
LINE
  5
124A61
  8
OBJECT
 10
11942.665153573549
 20
-1395.8258345632339
 30
0.0
 11
11956.721013817751
 21
-1434.5225113300539
 31
0.0
1001
ACDBBLOCKREPETAG
1070
     1
1071
       48
1005
124A61
  0
ARC
  5
124A62
  8
OBJECT
 10
11968.0
 20
-1430.425625842202
 30
0.0
 40
12.0
 50
151.2434956101861
 51
328.75650438994307
1001
ACDBBLOCKREPETAG
1070
     1
1071
       49
1005
124A62
  0
ARC
  5
124A63
  8
OBJECT
 10
11991.084210462521
 20
-1444.4298833134769
 30
0.0
 40
15.0
 50
82.682450183771394
 51
148.75650438994299
1001
ACDBBLOCKREPETAG
1070
     1
1071
       50
1005
124A63
  0
CIRCLE
  5
124A64
  8
SLIM
 10
11968.0
 20
-1430.425625842202
 30
0.0
 40
8.0
1001
ACDBBLOCKREPETAG
1070
     1
1071
       51
1005
124A64
  0
POLYLINE
  5
124A65
  8
SLIM
 66
     1
 10
0.0
 20
0.0
 30
0.0
 70
     1
1001
ACDBBLOCKREPETAG
1070
     1
1071
       52
1005
124A65
  0
VERTEX
  5
124C8B
  8
SLIM
 10
11972.618802153511
 20
-1430.425625842202
 30
0.0
  0
VERTEX
  5
124C8C
  8
SLIM
 10
11970.309401076751
 20
-1426.425625842202
 30
0.0
  0
VERTEX
  5
124C8D
  8
SLIM
 10
11965.69059892324
 20
-1426.425625842202
 30
0.0
  0
VERTEX
  5
124C8E
  8
SLIM
 10
11963.38119784648
 20
-1430.425625842202
 30
0.0
  0
VERTEX
  5
124C8F
  8
SLIM
 10
11965.69059892324
 20
-1434.425625842202
 30
0.0
  0
VERTEX
  5
124C90
  8
SLIM
 10
11970.309401076751
 20
-1434.425625842202
 30
0.0
  0
SEQEND
  5
124C91
  8
SLIM
  0
ARC
  5
124A66
  8
OBJECT
 10
11944.32985203747
 20
-1417.436241890987
 30
0.0
 40
15.0
 50
331.24349561018607
 51
37.317549816127681
1001
ACDBBLOCKREPETAG
1070
     1
1071
       53
1005
124A66
  0
LINE
  5
124A67
  8
CENTER
 10
9924.0
 20
-1333.9999999999959
 30
0.0
 11
10091.0
 21
-1333.9999999999959
 31
0.0
1001
ACDBBLOCKREPETAG
1070
     1
1071
        0
1005
124A67
  0
LINE
  5
124A68
  8
CENTER
 10
10000.0
 20
-1257.0518385105131
 30
0.0
 11
10000.0
 21
-1410.9481614894751
 31
0.0
1001
ACDBBLOCKREPETAG
1070
     1
1071
        1
1005
124A68
  0
CIRCLE
  5
124A69
  8
OBJECT
 10
10000.0
 20
-1333.9999999999959
 30
0.0
 40
37.5
1001
ACDBBLOCKREPETAG
1070
     1
1071
        2
1005
124A69
  0
CIRCLE
  5
124A6A
  8
OBJECT
 10
10000.0
 20
-1333.9999999999959
 30
0.0
 40
49.5
1001
ACDBBLOCKREPETAG
1070
     1
1071
        3
1005
124A6A
  0
ARC
  5
124A6B
  8
OBJECT
 10
10000.0
 20
-1333.9999999999959
 30
0.0
 40
61.0
 50
40.03737312998139
 51
79.962626870012684
1001
ACDBBLOCKREPETAG
1070
     1
1071
        4
1005
124A6B
  0
ARC
  5
124A6C
  8
OBJECT
 10
10000.0
 20
-1333.9999999999959
 30
0.0
 40
61.0
 50
160.03737312997501
 51
199.96262687002491
1001
ACDBBLOCKREPETAG
1070
     1
1071
        5
1005
124A6C
  0
ARC
  5
124A6D
  8
OBJECT
 10
10000.0
 20
-1333.9999999999959
 30
0.0
 40
61.0
 50
280.03737312998732
 51
319.9626268700186
1001
ACDBBLOCKREPETAG
1070
     1
1071
        6
1005
124A6D
  0
CIRCLE
  5
124A6E
  8
SLIM
 10
10064.0
 20
-1333.9999999999959
 30
0.0
 40
5.0
1001
ACDBBLOCKREPETAG
1070
     1
1071
        7
1005
124A6E
  0
ARC
  5
124A6F
  8
OBJECT
 10
10064.0
 20
-1333.9999999999959
 30
0.0
 40
12.0
 50
319.9626268700186
 51
40.03737312998139
1001
ACDBBLOCKREPETAG
1070
     1
1071
        8
1005
124A6F
  0
LINE
  5
124A70
  8
OBJECT
 10
10046.703125
 20
-1294.7594837542269
 30
0.0
 11
10073.1875
 21
-1326.280554181157
 31
0.0
1001
ACDBBLOCKREPETAG
1070
     1
1071
        9
1005
124A70
  0
LINE
  5
124A71
  8
OBJECT
 10
10046.703125
 20
-1373.2405162457651
 30
0.0
 11
10073.1875
 21
-1341.7194458188339
 31
0.0
1001
ACDBBLOCKREPETAG
1070
     1
1071
       10
1005
124A71
  0
POLYLINE
  5
124A72
  8
SLIM
 66
     1
 10
0.0
 20
0.0
 30
0.0
 70
     1
1001
ACDBBLOCKREPETAG
1070
     1
1071
       11
1005
124A72
  0
VERTEX
  5
124C92
  8
SLIM
 10
10059.092522711881
 20
-1325.4999999999959
 30
0.0
  0
VERTEX
  5
124C93
  8
SLIM
 10
10054.18504542377
 20
-1333.9999999999959
 30
0.0
  0
VERTEX
  5
124C94
  8
SLIM
 10
10059.092522711881
 20
-1342.4999999999959
 30
0.0
  0
VERTEX
  5
124C95
  8
SLIM
 10
10068.907477288099
 20
-1342.4999999999959
 30
0.0
  0
VERTEX
  5
124C96
  8
SLIM
 10
10073.814954576221
 20
-1333.9999999999959
 30
0.0
  0
VERTEX
  5
124C97
  8
SLIM
 10
10068.907477288099
 20
-1325.4999999999959
 30
0.0
  0
SEQEND
  5
124C98
  8
SLIM
  0
CIRCLE
  5
124A73
  8
SLIM
 10
9968.0
 20
-1278.574374157789
 30
0.0
 40
4.9999999999999991
1001
ACDBBLOCKREPETAG
1070
     1
1071
       12
1005
124A73
  0
ARC
  5
124A74
  8
OBJECT
 10
9968.0
 20
-1278.574374157789
 30
0.0
 40
12.0
 50
79.962626870012684
 51
160.03737312997501
1001
ACDBBLOCKREPETAG
1070
     1
1071
       13
1005
124A74
  0
LINE
  5
124A75
  8
OBJECT
 10
9942.6651535735436
 20
-1313.174165436757
 30
0.0
 11
9956.7210138177488
 21
-1274.4774886699411
 31
0.0
1001
ACDBBLOCKREPETAG
1070
     1
1071
       14
1005
124A75
  0
LINE
  5
124A76
  8
OBJECT
 10
10010.631721426451
 20
-1273.9336491909919
 30
0.0
 11
9970.091486182253
 21
-1266.7580428511019
 31
0.0
1001
ACDBBLOCKREPETAG
1070
     1
1071
       15
1005
124A76
  0
POLYLINE
  5
124A77
  8
SLIM
 66
     1
 10
0.0
 20
0.0
 30
0.0
 70
     1
1001
ACDBBLOCKREPETAG
1070
     1
1071
       16
1005
124A77
  0
VERTEX
  5
124C99
  8
SLIM
 10
9963.0925227118896
 20
-1287.074374157789
 30
0.0
  0
VERTEX
  5
124C9A
  8
SLIM
 10
9972.9074772881177
 20
-1287.074374157793
 30
0.0
  0
VERTEX
  5
124C9B
  8
SLIM
 10
9977.814954576219
 20
-1278.574374157789
 30
0.0
  0
VERTEX
  5
124C9C
  8
SLIM
 10
9972.9074772881177
 20
-1270.074374157793
 30
0.0
  0
VERTEX
  5
124C9D
  8
SLIM
 10
9963.0925227118896
 20
-1270.074374157789
 30
0.0
  0
VERTEX
  5
124C9E
  8
SLIM
 10
9958.1850454237738
 20
-1278.574374157793
 30
0.0
  0
SEQEND
  5
124C9F
  8
SLIM
  0
CIRCLE
  5
124A78
  8
SLIM
 10
9968.0
 20
-1389.425625842199
 30
0.0
 40
5.0
1001
ACDBBLOCKREPETAG
1070
     1
1071
       17
1005
124A78
  0
ARC
  5
124A79
  8
OBJECT
 10
9968.0
 20
-1389.425625842199
 30
0.0
 40
12.0
 50
199.96262687002491
 51
280.03737312998732
1001
ACDBBLOCKREPETAG
1070
     1
1071
       18
1005
124A79
  0
LINE
  5
124A7A
  8
OBJECT
 10
10010.631721426451
 20
-1394.0663508089999
 30
0.0
 11
9970.091486182253
 21
-1401.2419571488881
 31
0.0
1001
ACDBBLOCKREPETAG
1070
     1
1071
       19
1005
124A7A
  0
LINE
  5
124A7B
  8
OBJECT
 10
9942.6651535735436
 20
-1354.825834563231
 30
0.0
 11
9956.7210138177488
 21
-1393.522511330051
 31
0.0
1001
ACDBBLOCKREPETAG
1070
     1
1071
       20
1005
124A7B
  0
POLYLINE
  5
124A7C
  8
SLIM
 66
     1
 10
0.0
 20
0.0
 30
0.0
 70
     1
1001
ACDBBLOCKREPETAG
1070
     1
1071
       21
1005
124A7C
  0
VERTEX
  5
124CA0
  8
SLIM
 10
9977.814954576219
 20
-1389.425625842199
 30
0.0
  0
VERTEX
  5
124CA1
  8
SLIM
 10
9972.9074772881049
 20
-1380.925625842199
 30
0.0
  0
VERTEX
  5
124CA2
  8
SLIM
 10
9963.0925227118896
 20
-1380.925625842199
 30
0.0
  0
VERTEX
  5
124CA3
  8
SLIM
 10
9958.1850454237738
 20
-1389.425625842199
 30
0.0
  0
VERTEX
  5
124CA4
  8
SLIM
 10
9963.0925227118896
 20
-1397.925625842199
 30
0.0
  0
VERTEX
  5
124CA5
  8
SLIM
 10
9972.9074772881177
 20
-1397.925625842199
 30
0.0
  0
SEQEND
  5
124CA6
  8
SLIM
  0
LINE
  5
124A7D
  8
CENTER
 10
5924.0
 20
-1374.9999999999991
 30
0.0
 11
6091.0
 21
-1374.9999999999991
 31
0.0
1001
ACDBBLOCKREPETAG
1070
     1
1071
       22
1005
124A7D
  0
LINE
  5
124A7E
  8
CENTER
 10
6000.0
 20
-1298.0518385105161
 30
0.0
 11
6000.0
 21
-1451.948161489478
 31
0.0
1001
ACDBBLOCKREPETAG
1070
     1
1071
       23
1005
124A7E
  0
CIRCLE
  5
124A7F
  8
OBJECT
 10
6000.0
 20
-1374.9999999999991
 30
0.0
 40
37.5
1001
ACDBBLOCKREPETAG
1070
     1
1071
       24
1005
124A7F
  0
CIRCLE
  5
124A80
  8
OBJECT
 10
6000.0
 20
-1374.9999999999991
 30
0.0
 40
47.5
1001
ACDBBLOCKREPETAG
1070
     1
1071
       25
1005
124A80
  0
ARC
  5
124A81
  8
OBJECT
 10
6000.0
 20
-1374.9999999999991
 30
0.0
 40
61.0
 50
40.03737312998139
 51
79.962626870012684
1001
ACDBBLOCKREPETAG
1070
     1
1071
       26
1005
124A81
  0
ARC
  5
124A82
  8
OBJECT
 10
6000.0
 20
-1374.9999999999991
 30
0.0
 40
61.0
 50
160.03737312997501
 51
199.96262687002491
1001
ACDBBLOCKREPETAG
1070
     1
1071
       27
1005
124A82
  0
ARC
  5
124A83
  8
OBJECT
 10
6000.0
 20
-1374.9999999999991
 30
0.0
 40
61.0
 50
280.03737312998732
 51
319.9626268700186
1001
ACDBBLOCKREPETAG
1070
     1
1071
       28
1005
124A83
  0
ARC
  5
124A84
  8
OBJECT
 10
6064.0
 20
-1374.9999999999991
 30
0.0
 40
12.0
 50
319.9626268700186
 51
40.03737312998139
1001
ACDBBLOCKREPETAG
1070
     1
1071
       29
1005
124A84
  0
LINE
  5
124A85
  8
OBJECT
 10
6046.703125
 20
-1335.7594837542299
 30
0.0
 11
6073.1875
 21
-1367.2805541811599
 31
0.0
1001
ACDBBLOCKREPETAG
1070
     1
1071
       30
1005
124A85
  0
LINE
  5
124A86
  8
OBJECT
 10
6046.703125
 20
-1414.240516245768
 30
0.0
 11
6073.1875
 21
-1382.719445818838
 31
0.0
1001
ACDBBLOCKREPETAG
1070
     1
1071
       31
1005
124A86
  0
CIRCLE
  5
124A87
  8
OBJECT
 10
6000.0
 20
-1374.9999999999991
 30
0.0
 40
55.0
1001
ACDBBLOCKREPETAG
1070
     1
1071
       32
1005
124A87
  0
ARC
  5
124A88
  8
OBJECT
 10
6064.0
 20
-1374.9999999999991
 30
0.0
 40
12.0
 50
271.2434956101261
 51
88.756504389873882
1001
ACDBBLOCKREPETAG
1070
     1
1071
       33
1005
124A88
  0
ARC
  5
124A89
  8
OBJECT
 10
6064.5859375
 20
-1348.0063585775049
 30
0.0
 40
15.0
 50
202.68245018366949
 51
268.7565043898739
1001
ACDBBLOCKREPETAG
1070
     1
1071
       34
1005
124A89
  0
CIRCLE
  5
124A8A
  8
SLIM
 10
6064.0
 20
-1374.9999999999991
 30
0.0
 40
8.0
1001
ACDBBLOCKREPETAG
1070
     1
1071
       35
1005
124A8A
  0
POLYLINE
  5
124A8B
  8
SLIM
 66
     1
 10
0.0
 20
0.0
 30
0.0
 70
     1
1001
ACDBBLOCKREPETAG
1070
     1
1071
       36
1005
124A8B
  0
VERTEX
  5
124CA7
  8
SLIM
 10
6061.69059892324
 20
-1370.9999999999991
 30
0.0
  0
VERTEX
  5
124CA8
  8
SLIM
 10
6059.3811978464846
 20
-1374.9999999999991
 30
0.0
  0
VERTEX
  5
124CA9
  8
SLIM
 10
6061.69059892324
 20
-1378.9999999999991
 30
0.0
  0
VERTEX
  5
124CAA
  8
SLIM
 10
6066.30940107676
 20
-1378.9999999999991
 30
0.0
  0
VERTEX
  5
124CAB
  8
SLIM
 10
6068.6188021535154
 20
-1374.9999999999991
 30
0.0
  0
VERTEX
  5
124CAC
  8
SLIM
 10
6066.30940107676
 20
-1370.9999999999991
 30
0.0
  0
SEQEND
  5
124CAD
  8
SLIM
  0
ARC
  5
124A8C
  8
OBJECT
 10
6064.5859375
 20
-1401.993641422489
 30
0.0
 40
15.0
 50
91.243495610126089
 51
157.3175498163304
1001
ACDBBLOCKREPETAG
1070
     1
1071
       37
1005
124A8C
  0
ARC
  5
124A8D
  8
OBJECT
 10
5968.0
 20
-1319.5743741577919
 30
0.0
 40
12.0
 50
79.962626870012684
 51
160.03737312997501
1001
ACDBBLOCKREPETAG
1070
     1
1071
       38
1005
124A8D
  0
LINE
  5
124A8E
  8
OBJECT
 10
5942.6651535735473
 20
-1354.1741654367599
 30
0.0
 11
5956.721013817747
 21
-1315.477488669944
 31
0.0
1001
ACDBBLOCKREPETAG
1070
     1
1071
       39
1005
124A8E
  0
LINE
  5
124A8F
  8
OBJECT
 10
6010.6317214264518
 20
-1314.9336491909951
 30
0.0
 11
5970.091486182253
 21
-1307.7580428511051
 31
0.0
1001
ACDBBLOCKREPETAG
1070
     1
1071
       40
1005
124A8F
  0
ARC
  5
124A90
  8
OBJECT
 10
5968.0
 20
-1319.5743741577919
 30
0.0
 40
12.0
 50
31.243495610056922
 51
208.7565043898139
1001
ACDBBLOCKREPETAG
1070
     1
1071
       41
1005
124A90
  0
ARC
  5
124A91
  8
OBJECT
 10
5944.3298520374738
 20
-1332.56375810901
 30
0.0
 40
15.0
 50
322.68245018387239
 51
28.756504389813902
1001
ACDBBLOCKREPETAG
1070
     1
1071
       42
1005
124A91
  0
CIRCLE
  5
124A92
  8
SLIM
 10
5968.0
 20
-1319.5743741577919
 30
0.0
 40
7.9999999999999982
1001
ACDBBLOCKREPETAG
1070
     1
1071
       43
1005
124A92
  0
POLYLINE
  5
124A93
  8
SLIM
 66
     1
 10
0.0
 20
0.0
 30
0.0
 70
     1
1001
ACDBBLOCKREPETAG
1070
     1
1071
       44
1005
124A93
  0
VERTEX
  5
124CAE
  8
SLIM
 10
5965.6905989232419
 20
-1323.574374157796
 30
0.0
  0
VERTEX
  5
124CAF
  8
SLIM
 10
5970.30940107676
 20
-1323.5743741577919
 30
0.0
  0
VERTEX
  5
124CB0
  8
SLIM
 10
5972.6188021535154
 20
-1319.574374157796
 30
0.0
  0
VERTEX
  5
124CB1
  8
SLIM
 10
5970.3094010767572
 20
-1315.5743741577919
 30
0.0
  0
VERTEX
  5
124CB2
  8
SLIM
 10
5965.6905989232419
 20
-1315.574374157796
 30
0.0
  0
VERTEX
  5
124CB3
  8
SLIM
 10
5963.3811978464846
 20
-1319.5743741577919
 30
0.0
  0
SEQEND
  5
124CB4
  8
SLIM
  0
ARC
  5
124A94
  8
OBJECT
 10
5991.0842104625253
 20
-1305.5701166865169
 30
0.0
 40
15.0
 50
211.2434956100569
 51
277.31754981622862
1001
ACDBBLOCKREPETAG
1070
     1
1071
       45
1005
124A94
  0
ARC
  5
124A95
  8
OBJECT
 10
5968.0
 20
-1430.425625842202
 30
0.0
 40
12.0
 50
199.96262687002491
 51
280.03737312998732
1001
ACDBBLOCKREPETAG
1070
     1
1071
       46
1005
124A95
  0
LINE
  5
124A96
  8
OBJECT
 10
6010.6317214264518
 20
-1435.0663508090031
 30
0.0
 11
5970.091486182253
 21
-1442.241957148892
 31
0.0
1001
ACDBBLOCKREPETAG
1070
     1
1071
       47
1005
124A96
  0
LINE
  5
124A97
  8
OBJECT
 10
5942.6651535735473
 20
-1395.8258345632339
 30
0.0
 11
5956.721013817747
 21
-1434.5225113300539
 31
0.0
1001
ACDBBLOCKREPETAG
1070
     1
1071
       48
1005
124A97
  0
ARC
  5
124A98
  8
OBJECT
 10
5968.0
 20
-1430.425625842202
 30
0.0
 40
12.0
 50
151.2434956101861
 51
328.75650438994307
1001
ACDBBLOCKREPETAG
1070
     1
1071
       49
1005
124A98
  0
ARC
  5
124A99
  8
OBJECT
 10
5991.0842104625253
 20
-1444.4298833134769
 30
0.0
 40
15.0
 50
82.682450183771394
 51
148.75650438994299
1001
ACDBBLOCKREPETAG
1070
     1
1071
       50
1005
124A99
  0
CIRCLE
  5
124A9A
  8
SLIM
 10
5968.0
 20
-1430.425625842202
 30
0.0
 40
8.0
1001
ACDBBLOCKREPETAG
1070
     1
1071
       51
1005
124A9A
  0
POLYLINE
  5
124A9B
  8
SLIM
 66
     1
 10
0.0
 20
0.0
 30
0.0
 70
     1
1001
ACDBBLOCKREPETAG
1070
     1
1071
       52
1005
124A9B
  0
VERTEX
  5
124CB5
  8
SLIM
 10
5972.6188021535154
 20
-1430.425625842202
 30
0.0
  0
VERTEX
  5
124CB6
  8
SLIM
 10
5970.3094010767572
 20
-1426.425625842202
 30
0.0
  0
VERTEX
  5
124CB7
  8
SLIM
 10
5965.6905989232419
 20
-1426.425625842202
 30
0.0
  0
VERTEX
  5
124CB8
  8
SLIM
 10
5963.3811978464846
 20
-1430.425625842202
 30
0.0
  0
VERTEX
  5
124CB9
  8
SLIM
 10
5965.69059892324
 20
-1434.425625842202
 30
0.0
  0
VERTEX
  5
124CBA
  8
SLIM
 10
5970.3094010767572
 20
-1434.425625842202
 30
0.0
  0
SEQEND
  5
124CBB
  8
SLIM
  0
ARC
  5
124A9C
  8
OBJECT
 10
5944.3298520374738
 20
-1417.436241890987
 30
0.0
 40
15.0
 50
331.24349561018607
 51
37.317549816127681
1001
ACDBBLOCKREPETAG
1070
     1
1071
       53
1005
124A9C
  0
LINE
  5
124A9D
  8
CENTER
 10
3924.0
 20
-1333.9999999999959
 30
0.0
 11
4091.0
 21
-1333.9999999999959
 31
0.0
1001
ACDBBLOCKREPETAG
1070
     1
1071
        0
1005
124A9D
  0
LINE
  5
124A9E
  8
CENTER
 10
4000.0
 20
-1257.0518385105131
 30
0.0
 11
4000.0
 21
-1410.9481614894751
 31
0.0
1001
ACDBBLOCKREPETAG
1070
     1
1071
        1
1005
124A9E
  0
CIRCLE
  5
124A9F
  8
OBJECT
 10
4000.0
 20
-1333.9999999999959
 30
0.0
 40
37.5
1001
ACDBBLOCKREPETAG
1070
     1
1071
        2
1005
124A9F
  0
CIRCLE
  5
124AA0
  8
OBJECT
 10
4000.0
 20
-1333.9999999999959
 30
0.0
 40
49.5
1001
ACDBBLOCKREPETAG
1070
     1
1071
        3
1005
124AA0
  0
ARC
  5
124AA1
  8
OBJECT
 10
4000.0
 20
-1333.9999999999959
 30
0.0
 40
61.0
 50
40.03737312998139
 51
79.962626870012684
1001
ACDBBLOCKREPETAG
1070
     1
1071
        4
1005
124AA1
  0
ARC
  5
124AA2
  8
OBJECT
 10
4000.0
 20
-1333.9999999999959
 30
0.0
 40
61.0
 50
160.03737312997501
 51
199.96262687002491
1001
ACDBBLOCKREPETAG
1070
     1
1071
        5
1005
124AA2
  0
ARC
  5
124AA3
  8
OBJECT
 10
4000.0
 20
-1333.9999999999959
 30
0.0
 40
61.0
 50
280.03737312998732
 51
319.9626268700186
1001
ACDBBLOCKREPETAG
1070
     1
1071
        6
1005
124AA3
  0
CIRCLE
  5
124AA4
  8
SLIM
 10
4064.0
 20
-1333.9999999999959
 30
0.0
 40
5.0
1001
ACDBBLOCKREPETAG
1070
     1
1071
        7
1005
124AA4
  0
ARC
  5
124AA5
  8
OBJECT
 10
4064.0
 20
-1333.9999999999959
 30
0.0
 40
12.0
 50
319.9626268700186
 51
40.03737312998139
1001
ACDBBLOCKREPETAG
1070
     1
1071
        8
1005
124AA5
  0
LINE
  5
124AA6
  8
OBJECT
 10
4046.7031249999982
 20
-1294.7594837542269
 30
0.0
 11
4073.1875
 21
-1326.280554181157
 31
0.0
1001
ACDBBLOCKREPETAG
1070
     1
1071
        9
1005
124AA6
  0
LINE
  5
124AA7
  8
OBJECT
 10
4046.7031249999982
 20
-1373.2405162457651
 30
0.0
 11
4073.1875
 21
-1341.7194458188339
 31
0.0
1001
ACDBBLOCKREPETAG
1070
     1
1071
       10
1005
124AA7
  0
POLYLINE
  5
124AA8
  8
SLIM
 66
     1
 10
0.0
 20
0.0
 30
0.0
 70
     1
1001
ACDBBLOCKREPETAG
1070
     1
1071
       11
1005
124AA8
  0
VERTEX
  5
124CBC
  8
SLIM
 10
4059.0925227118851
 20
-1325.4999999999959
 30
0.0
  0
VERTEX
  5
124CBD
  8
SLIM
 10
4054.1850454237701
 20
-1333.9999999999959
 30
0.0
  0
VERTEX
  5
124CBE
  8
SLIM
 10
4059.0925227118851
 20
-1342.4999999999959
 30
0.0
  0
VERTEX
  5
124CBF
  8
SLIM
 10
4068.9074772881072
 20
-1342.4999999999959
 30
0.0
  0
VERTEX
  5
124CC0
  8
SLIM
 10
4073.8149545762199
 20
-1333.9999999999959
 30
0.0
  0
VERTEX
  5
124CC1
  8
SLIM
 10
4068.9074772881072
 20
-1325.4999999999959
 30
0.0
  0
SEQEND
  5
124CC2
  8
SLIM
  0
CIRCLE
  5
124AA9
  8
SLIM
 10
3968.0
 20
-1278.574374157789
 30
0.0
 40
4.9999999999999991
1001
ACDBBLOCKREPETAG
1070
     1
1071
       12
1005
124AA9
  0
ARC
  5
124AAA
  8
OBJECT
 10
3968.0
 20
-1278.574374157789
 30
0.0
 40
12.0
 50
79.962626870012684
 51
160.03737312997501
1001
ACDBBLOCKREPETAG
1070
     1
1071
       13
1005
124AAA
  0
LINE
  5
124AAB
  8
OBJECT
 10
3942.6651535735441
 20
-1313.174165436757
 30
0.0
 11
3956.721013817747
 21
-1274.4774886699411
 31
0.0
1001
ACDBBLOCKREPETAG
1070
     1
1071
       14
1005
124AAB
  0
LINE
  5
124AAC
  8
OBJECT
 10
4010.6317214264491
 20
-1273.9336491909919
 30
0.0
 11
3970.091486182253
 21
-1266.7580428511019
 31
0.0
1001
ACDBBLOCKREPETAG
1070
     1
1071
       15
1005
124AAC
  0
POLYLINE
  5
124AAD
  8
SLIM
 66
     1
 10
0.0
 20
0.0
 30
0.0
 70
     1
1001
ACDBBLOCKREPETAG
1070
     1
1071
       16
1005
124AAD
  0
VERTEX
  5
124CC3
  8
SLIM
 10
3963.092522711886
 20
-1287.074374157789
 30
0.0
  0
VERTEX
  5
124CC4
  8
SLIM
 10
3972.907477288114
 20
-1287.074374157793
 30
0.0
  0
VERTEX
  5
124CC5
  8
SLIM
 10
3977.8149545762212
 20
-1278.574374157789
 30
0.0
  0
VERTEX
  5
124CC6
  8
SLIM
 10
3972.907477288114
 20
-1270.074374157793
 30
0.0
  0
VERTEX
  5
124CC7
  8
SLIM
 10
3963.092522711886
 20
-1270.074374157789
 30
0.0
  0
VERTEX
  5
124CC8
  8
SLIM
 10
3958.185045423772
 20
-1278.574374157793
 30
0.0
  0
SEQEND
  5
124CC9
  8
SLIM
  0
CIRCLE
  5
124AAE
  8
SLIM
 10
3968.0
 20
-1389.425625842199
 30
0.0
 40
5.0
1001
ACDBBLOCKREPETAG
1070
     1
1071
       17
1005
124AAE
  0
ARC
  5
124AAF
  8
OBJECT
 10
3968.0
 20
-1389.425625842199
 30
0.0
 40
12.0
 50
199.96262687002491
 51
280.03737312998732
1001
ACDBBLOCKREPETAG
1070
     1
1071
       18
1005
124AAF
  0
LINE
  5
124AB0
  8
OBJECT
 10
4010.6317214264491
 20
-1394.0663508089999
 30
0.0
 11
3970.091486182253
 21
-1401.2419571488881
 31
0.0
1001
ACDBBLOCKREPETAG
1070
     1
1071
       19
1005
124AB0
  0
LINE
  5
124AB1
  8
OBJECT
 10
3942.6651535735441
 20
-1354.825834563231
 30
0.0
 11
3956.721013817747
 21
-1393.522511330051
 31
0.0
1001
ACDBBLOCKREPETAG
1070
     1
1071
       20
1005
124AB1
  0
POLYLINE
  5
124AB2
  8
SLIM
 66
     1
 10
0.0
 20
0.0
 30
0.0
 70
     1
1001
ACDBBLOCKREPETAG
1070
     1
1071
       21
1005
124AB2
  0
VERTEX
  5
124CCA
  8
SLIM
 10
3977.8149545762212
 20
-1389.425625842199
 30
0.0
  0
VERTEX
  5
124CCB
  8
SLIM
 10
3972.9074772881072
 20
-1380.925625842199
 30
0.0
  0
VERTEX
  5
124CCC
  8
SLIM
 10
3963.092522711886
 20
-1380.925625842199
 30
0.0
  0
VERTEX
  5
124CCD
  8
SLIM
 10
3958.185045423772
 20
-1389.425625842199
 30
0.0
  0
VERTEX
  5
124CCE
  8
SLIM
 10
3963.092522711886
 20
-1397.925625842199
 30
0.0
  0
VERTEX
  5
124CCF
  8
SLIM
 10
3972.907477288114
 20
-1397.925625842199
 30
0.0
  0
SEQEND
  5
124CD0
  8
SLIM
  0
LINE
  5
124AB3
  8
OBJECT
 10
2044.5
 20
-1059.999999999992
 30
0.0
 11
1955.5
 21
-1059.999999999992
 31
0.0
1001
ACDBBLOCKREPETAG
1070
     1
1071
        0
1005
124AB3
  0
LINE
  5
124AB4
  8
OBJECT
 10
1935.0
 20
-769.99999999999204
 30
0.0
 11
1935.0
 21
-669.99999999999216
 31
0.0
1001
ACDBBLOCKREPETAG
1070
     1
1071
        1
1005
124AB4
  0
LINE
  5
124AB5
  8
OBJECT
 10
2065.0
 20
-769.99999999999204
 30
0.0
 11
2065.0
 21
-669.99999999999216
 31
0.0
1001
ACDBBLOCKREPETAG
1070
     1
1071
        2
1005
124AB5
  0
LINE
  5
124AB6
  8
OBJECT
 10
1935.0
 20
-769.99999999999204
 30
0.0
 11
2065.0
 21
-769.99999999999204
 31
0.0
1001
ACDBBLOCKREPETAG
1070
     1
1071
        3
1005
124AB6
  0
LINE
  5
124AB7
  8
OBJECT
 10
1955.5
 20
-879.99999999999204
 30
0.0
 11
2044.5
 21
-879.99999999999204
 31
0.0
1001
ACDBBLOCKREPETAG
1070
     1
1071
        4
1005
124AB7
  0
LINE
  5
124AB8
  8
OBJECT
 10
1955.5
 20
-879.99999999999204
 30
0.0
 11
1955.5
 21
-1059.999999999992
 31
0.0
1001
ACDBBLOCKREPETAG
1070
     1
1071
        5
1005
124AB8
  0
LINE
  5
124AB9
  8
OBJECT
 10
2044.5
 20
-879.99999999999204
 30
0.0
 11
2044.5
 21
-1059.999999999992
 31
0.0
1001
ACDBBLOCKREPETAG
1070
     1
1071
        6
1005
124AB9
  0
LINE
  5
124ABA
  8
OBJECT
 10
1935.0
 20
-769.99999999999204
 30
0.0
 11
1955.5
 21
-879.99999999999204
 31
0.0
1001
ACDBBLOCKREPETAG
1070
     1
1071
        7
1005
124ABA
  0
LINE
  5
124ABB
  8
OBJECT
 10
2044.5
 20
-879.99999999999204
 30
0.0
 11
2065.0
 21
-769.99999999999204
 31
0.0
1001
ACDBBLOCKREPETAG
1070
     1
1071
        8
1005
124ABB
  0
LINE
  5
124ABC
  8
HIDDEN
 10
1962.5
 20
-879.99999999999204
 30
0.0
 11
1962.5
 21
-1059.999999999992
 31
0.0
1001
ACDBBLOCKREPETAG
1070
     1
1071
        9
1005
124ABC
  0
LINE
  5
124ABD
  8
HIDDEN
 10
2037.5
 20
-879.99999999999204
 30
0.0
 11
2037.5
 21
-1059.999999999992
 31
0.0
1001
ACDBBLOCKREPETAG
1070
     1
1071
       10
1005
124ABD
  0
LINE
  5
124ABE
  8
CENTER
 10
2000.0
 20
-669.99999999999955
 30
0.0
 11
2000.0
 21
-1074.999999999992
 31
0.0
1001
ACDBBLOCKREPETAG
1070
     1
1071
       11
1005
124ABE
  0
LINE
  5
124ABF
  8
OBJECT
 10
1927.0
 20
-533.99999999999955
 30
0.0
 11
1930.0
 21
-533.99999999999955
 31
0.0
1001
ACDBBLOCKREPETAG
1070
     1
1071
        1
1005
124ABF
  0
ARC
  5
124AC0
  8
OBJECT
 10
1927.0
 20
-536.99999999999955
 30
0.0
 40
3.0
 50
90.0
 51
180.0
1001
ACDBBLOCKREPETAG
1070
     1
1071
        2
1005
124AC0
  0
LINE
  5
124AC1
  8
OBJECT
 10
1930.0
 20
-657.99999999999955
 30
0.0
 11
1927.0
 21
-657.99999999999955
 31
0.0
1001
ACDBBLOCKREPETAG
1070
     1
1071
        3
1005
124AC1
  0
ARC
  5
124AC2
  8
OBJECT
 10
1927.0
 20
-654.99999999999966
 30
0.0
 40
3.0
 50
180.0
 51
270.0
1001
ACDBBLOCKREPETAG
1070
     1
1071
        4
1005
124AC2
  0
LINE
  5
124AC3
  8
OBJECT
 10
1924.0
 20
-654.99999999999966
 30
0.0
 11
1924.0
 21
-536.99999999999955
 31
0.0
1001
ACDBBLOCKREPETAG
1070
     1
1071
        5
1005
124AC3
  0
CIRCLE
  5
124AC4
  8
OBJECT
 10
2000.0
 20
-596.0
 30
0.0
 40
62.0
1001
ACDBBLOCKREPETAG
1070
     1
1071
        0
1005
124AC4
  0
LINE
  5
124AC5
  8
OBJECT
 10
1935.0
 20
-449.99999999999937
 30
0.0
 11
1935.0
 21
-470.99999999999937
 31
0.0
1001
ACDBBLOCKREPETAG
1070
     1
1071
       16
1005
124AC5
  0
LINE
  5
124AC6
  8
OBJECT
 10
1935.0
 20
-470.99999999999937
 30
0.0
 11
2065.0
 21
-470.99999999999937
 31
0.0
1001
ACDBBLOCKREPETAG
1070
     1
1071
       17
1005
124AC6
  0
LINE
  5
124AC7
  8
OBJECT
 10
2065.0
 20
-470.99999999999937
 30
0.0
 11
2065.0
 21
-449.99999999999937
 31
0.0
1001
ACDBBLOCKREPETAG
1070
     1
1071
       18
1005
124AC7
  0
LINE
  5
124AC8
  8
OBJECT
 10
2065.0
 20
-449.99999999999937
 30
0.0
 11
1935.0
 21
-449.99999999999937
 31
0.0
1001
ACDBBLOCKREPETAG
1070
     1
1071
       19
1005
124AC8
  0
LINE
  5
124AC9
  8
HIDDEN
 10
2044.5
 20
-519.99999999999955
 30
0.0
 11
1955.5
 21
-519.99999999999955
 31
0.0
1001
ACDBBLOCKREPETAG
1070
     1
1071
       20
1005
124AC9
  0
LINE
  5
124ACA
  8
CENTER
 10
2000.0
 20
-669.99999999999955
 30
0.0
 11
2000.0
 21
-434.99999999999949
 31
0.0
1001
ACDBBLOCKREPETAG
1070
     1
1071
       21
1005
124ACA
  0
LINE
  5
124ACB
  8
OBJECT
 10
1940.5
 20
-470.99999999999937
 30
0.0
 11
1940.5
 21
-533.99999999999955
 31
0.0
1001
ACDBBLOCKREPETAG
1070
     1
1071
       22
1005
124ACB
  0
LINE
  5
124ACC
  8
OBJECT
 10
1930.0
 20
-533.99999999999955
 30
0.0
 11
2070.0
 21
-533.99999999999955
 31
0.0
1001
ACDBBLOCKREPETAG
1070
     1
1071
       23
1005
124ACC
  0
LINE
  5
124ACD
  8
OBJECT
 10
2059.5
 20
-533.99999999999955
 30
0.0
 11
2059.5
 21
-470.99999999999937
 31
0.0
1001
ACDBBLOCKREPETAG
1070
     1
1071
       24
1005
124ACD
  0
LINE
  5
124ACE
  8
OBJECT
 10
1930.0
 20
-657.99999999999955
 30
0.0
 11
1930.0
 21
-669.99999999999955
 31
0.0
1001
ACDBBLOCKREPETAG
1070
     1
1071
       25
1005
124ACE
  0
LINE
  5
124ACF
  8
OBJECT
 10
1930.0
 20
-669.99999999999955
 30
0.0
 11
2070.0
 21
-669.99999999999955
 31
0.0
1001
ACDBBLOCKREPETAG
1070
     1
1071
       26
1005
124ACF
  0
LINE
  5
124AD0
  8
OBJECT
 10
2070.0
 20
-669.99999999999955
 30
0.0
 11
2070.0
 21
-657.99999999999955
 31
0.0
1001
ACDBBLOCKREPETAG
1070
     1
1071
       27
1005
124AD0
  0
LINE
  5
124AD1
  8
OBJECT
 10
2070.0
 20
-657.99999999999955
 30
0.0
 11
1930.0
 21
-657.99999999999955
 31
0.0
1001
ACDBBLOCKREPETAG
1070
     1
1071
       28
1005
124AD1
  0
ARC
  5
124AD2
  8
OBJECT
 10
2435.0384389946771
 20
-898.60813684682694
 30
0.0
 40
519.48776673616965
 50
135.4235066743189
 51
138.50052655621499
1001
ACDBBLOCKREPETAG
1070
     1
1071
       32
1005
124AD2
  0
ARC
  5
124AD3
  8
OBJECT
 10
2435.0384389946771
 20
-293.39186315317193
 30
0.0
 40
519.48776673616965
 50
221.49947344378501
 51
224.57649332568101
1001
ACDBBLOCKREPETAG
1070
     1
1071
       33
1005
124AD3
  0
ARC
  5
124AD4
  8
OBJECT
 10
1564.961561005322
 20
-898.60813684682694
 30
0.0
 40
519.48776673616965
 50
41.499473443784993
 51
44.576493325681092
1001
ACDBBLOCKREPETAG
1070
     1
1071
       34
1005
124AD4
  0
ARC
  5
124AD5
  8
OBJECT
 10
1564.961561005322
 20
-293.39186315317193
 30
0.0
 40
519.48776673616965
 50
315.4235066743189
 51
318.50052655621488
1001
ACDBBLOCKREPETAG
1070
     1
1071
       35
1005
124AD5
  0
POINT
  5
124AD6
  8
DOTS
 10
2000.0
 20
-654.99999999999966
 30
0.0
1001
ACDBBLOCKREPETAG
1070
     1
1071
      111
1005
124AD6
  0
LINE
  5
124AD7
  8
CENTER
 10
1909.0
 20
-199.99999999999909
 30
0.0
 11
1930.0
 21
-199.99999999999909
 31
0.0
1001
ACDBBLOCKREPETAG
1070
     1
1071
        0
1005
124AD7
  0
LINE
  5
124AD8
  8
OBJECT
 10
1927.0
 20
-261.99999999999909
 30
0.0
 11
1930.0
 21
-261.99999999999909
 31
0.0
1001
ACDBBLOCKREPETAG
1070
     1
1071
        1
1005
124AD8
  0
ARC
  5
124AD9
  8
OBJECT
 10
1927.0
 20
-258.99999999999909
 30
0.0
 40
3.0
 50
180.0
 51
270.0
1001
ACDBBLOCKREPETAG
1070
     1
1071
        2
1005
124AD9
  0
LINE
  5
124ADA
  8
OBJECT
 10
1930.0
 20
-137.99999999999909
 30
0.0
 11
1927.0
 21
-137.99999999999909
 31
0.0
1001
ACDBBLOCKREPETAG
1070
     1
1071
        3
1005
124ADA
  0
ARC
  5
124ADB
  8
OBJECT
 10
1927.0
 20
-140.99999999999909
 30
0.0
 40
3.0
 50
90.0
 51
180.0
1001
ACDBBLOCKREPETAG
1070
     1
1071
        4
1005
124ADB
  0
LINE
  5
124ADC
  8
OBJECT
 10
1924.0
 20
-140.99999999999909
 30
0.0
 11
1924.0
 21
-258.99999999999909
 31
0.0
1001
ACDBBLOCKREPETAG
1070
     1
1071
        5
1005
124ADC
  0
LINE
  5
124ADD
  8
CENTER
 10
2000.0
 20
-290.99999999999898
 30
0.0
 11
2000.0
 21
-269.99999999999909
 31
0.0
1001
ACDBBLOCKREPETAG
1070
     1
1071
        0
1005
124ADD
  0
LINE
  5
124ADE
  8
OBJECT
 10
2062.0
 20
-273.0
 30
0.0
 11
2062.0
 21
-269.99999999999909
 31
0.0
1001
ACDBBLOCKREPETAG
1070
     1
1071
        1
1005
124ADE
  0
ARC
  5
124ADF
  8
OBJECT
 10
2059.0
 20
-273.0
 30
0.0
 40
3.0
 50
270.0
 51
0.0
1001
ACDBBLOCKREPETAG
1070
     1
1071
        2
1005
124ADF
  0
LINE
  5
124AE0
  8
OBJECT
 10
1938.0
 20
-269.99999999999909
 30
0.0
 11
1938.0
 21
-272.99999999999818
 31
0.0
1001
ACDBBLOCKREPETAG
1070
     1
1071
        3
1005
124AE0
  0
ARC
  5
124AE1
  8
OBJECT
 10
1941.0
 20
-272.99999999999818
 30
0.0
 40
3.0
 50
180.0
 51
270.0
1001
ACDBBLOCKREPETAG
1070
     1
1071
        4
1005
124AE1
  0
LINE
  5
124AE2
  8
OBJECT
 10
1941.0
 20
-275.99999999999818
 30
0.0
 11
2059.0
 21
-276.0
 31
0.0
1001
ACDBBLOCKREPETAG
1070
     1
1071
        5
1005
124AE2
  0
POINT
  5
124AE3
  8
DOTS
 10
2000.0
 20
-199.99999999999909
 30
0.0
 50
270.0
1001
ACDBBLOCKREPETAG
1070
     1
1071
      153
1005
124AE3
  0
ARC
  5
124AE4
  8
OBJECT
 10
2000.0
 20
-199.99999999999909
 30
0.0
 40
70.0
 50
62.339550100758693
 51
117.6604498992413
1001
ACDBBLOCKREPETAG
1070
     1
1071
        0
1005
124AE4
  0
CIRCLE
  5
124AE5
  8
OBJECT
 10
2000.0
 20
-199.99999999999909
 30
0.0
 40
65.0
1001
ACDBBLOCKREPETAG
1070
     1
1071
        1
1005
124AE5
  0
CIRCLE
  5
124AE6
  8
OBJECT
 10
2000.0
 20
-199.99999999999909
 30
0.0
 40
41.0
1001
ACDBBLOCKREPETAG
1070
     1
1071
        2
1005
124AE6
  0
CIRCLE
  5
124AE7
  8
OBJECT
 10
2000.0
 20
-199.99999999999909
 30
0.0
 40
58.0
1001
ACDBBLOCKREPETAG
1070
     1
1071
        3
1005
124AE7
  0
LINE
  5
124AE8
  8
OBJECT
 10
2070.0
 20
-137.99999999999909
 30
0.0
 11
2019.5192212959439
 21
-137.99999999999909
 31
0.0
1001
ACDBBLOCKREPETAG
1070
     1
1071
        4
1005
124AE8
  0
LINE
  5
124AE9
  8
OBJECT
 10
1930.0
 20
-137.99999999999909
 30
0.0
 11
1980.480778704057
 21
-137.99999999999909
 31
0.0
1001
ACDBBLOCKREPETAG
1070
     1
1071
        5
1005
124AE9
  0
LINE
  5
124AEA
  8
OBJECT
 10
1930.0
 20
-261.99999999999909
 30
0.0
 11
1938.0
 21
-261.99999999999909
 31
0.0
1001
ACDBBLOCKREPETAG
1070
     1
1071
        6
1005
124AEA
  0
LINE
  5
124AEB
  8
OBJECT
 10
1938.0
 20
-269.99999999999909
 30
0.0
 11
1938.0
 21
-261.99999999999909
 31
0.0
1001
ACDBBLOCKREPETAG
1070
     1
1071
        7
1005
124AEB
  0
LINE
  5
124AEC
  8
OBJECT
 10
2070.0
 20
-261.99999999999909
 30
0.0
 11
2062.0
 21
-261.99999999999909
 31
0.0
1001
ACDBBLOCKREPETAG
1070
     1
1071
        8
1005
124AEC
  0
LINE
  5
124AED
  8
OBJECT
 10
2062.0
 20
-269.99999999999909
 30
0.0
 11
2062.0
 21
-261.99999999999909
 31
0.0
1001
ACDBBLOCKREPETAG
1070
     1
1071
        9
1005
124AED
  0
LINE
  5
124AEE
  8
CENTER
 10
1930.0
 20
-199.99999999999909
 30
0.0
 11
2070.0
 21
-199.99999999999909
 31
0.0
1001
ACDBBLOCKREPETAG
1070
     1
1071
       10
1005
124AEE
  0
LINE
  5
124AEF
  8
CENTER
 10
2000.0
 20
-269.99999999999909
 30
0.0
 11
2000.0
 21
-114.9999999999991
 31
0.0
1001
ACDBBLOCKREPETAG
1070
     1
1071
       11
1005
124AEF
  0
ARC
  5
124AF0
  8
OBJECT
 10
1989.902762139187
 20
-224.44352901899131
 30
0.0
 40
7.0
 50
73.001272229706771
 51
154.05025878943769
1001
ACDBBLOCKREPETAG
1070
     1
1071
       12
1005
124AF0
  0
ARC
  5
124AF1
  8
OBJECT
 10
1986.8376610706509
 20
-225.5978773169509
 30
0.0
 40
9.0
 50
73.001272229706771
 51
154.05026392593041
1001
ACDBBLOCKREPETAG
1070
     1
1071
       13
1005
124AF1
  0
ARC
  5
124AF2
  8
OBJECT
 10
1896.3142301315529
 20
-147.28130031148149
 30
0.0
 40
150.0
 50
322.89503374001202
 51
325.8931499697137
1001
ACDBBLOCKREPETAG
1070
     1
1071
       14
1005
124AF2
  0
ARC
  5
124AF3
  8
OBJECT
 10
2000.0
 20
-199.99999999999909
 30
0.0
 40
37.5
 50
303.16276667667131
 51
229.1635024908278
1001
ACDBBLOCKREPETAG
1070
     1
1071
       15
1005
124AF3
  0
LINE
  5
124AF4
  8
OBJECT
 10
1983.608514518975
 20
-221.38045100897119
 30
0.0
 11
1977.3740110000001
 21
-234.1915870000002
 31
0.0
1001
ACDBBLOCKREPETAG
1070
     1
1071
       16
1005
124AF4
  0
LINE
  5
124AF5
  8
OBJECT
 10
1978.745056634463
 20
-221.65963488670511
 30
0.0
 11
1973.898671999998
 21
-231.6183599999996
 31
0.0
1001
ACDBBLOCKREPETAG
1070
     1
1071
       17
1005
124AF5
  0
LINE
  5
124AF6
  8
OBJECT
 10
2018.938018000001
 20
-226.00000000000091
 30
0.0
 11
1989.468815303258
 21
-216.99107608744359
 31
0.0
1001
ACDBBLOCKREPETAG
1070
     1
1071
       18
1005
124AF6
  0
LINE
  5
124AF7
  8
OBJECT
 10
2020.5132253090051
 20
-231.39199878029191
 30
0.0
 11
2018.938018000001
 21
-226.00000000000091
 31
0.0
1001
ACDBBLOCKREPETAG
1070
     1
1071
       19
1005
124AF7
  0
LINE
  5
124AF8
  8
OBJECT
 10
1954.038059222873
 20
-245.96194077712471
 30
0.0
 11
1938.0
 21
-261.99999999999909
 31
0.0
1001
ACDBBLOCKREPETAG
1070
     1
1071
       42
1005
124AF8
  0
LINE
  5
124AF9
  8
OBJECT
 10
2045.9619407771261
 20
-245.96194077712471
 30
0.0
 11
2062.0
 21
-261.99999999999909
 31
0.0
1001
ACDBBLOCKREPETAG
1070
     1
1071
       43
1005
124AF9
  0
LINE
  5
124AFA
  8
OBJECT
 10
2073.0
 20
-533.99999999999955
 30
0.0
 11
2070.0
 21
-533.99999999999955
 31
0.0
1001
ACDBBLOCKREPETAG
1070
     1
1071
        1
1005
124AFA
  0
ARC
  5
124AFB
  8
OBJECT
 10
2073.0
 20
-536.99999999999955
 30
0.0
 40
3.0
 50
0.0
 51
90.0
1001
ACDBBLOCKREPETAG
1070
     1
1071
        2
1005
124AFB
  0
LINE
  5
124AFC
  8
OBJECT
 10
2070.0
 20
-657.99999999999955
 30
0.0
 11
2073.0
 21
-657.99999999999955
 31
0.0
1001
ACDBBLOCKREPETAG
1070
     1
1071
        3
1005
124AFC
  0
ARC
  5
124AFD
  8
OBJECT
 10
2073.0
 20
-654.99999999999966
 30
0.0
 40
3.0
 50
270.0
 51
0.0
1001
ACDBBLOCKREPETAG
1070
     1
1071
        4
1005
124AFD
  0
LINE
  5
124AFE
  8
OBJECT
 10
2076.0
 20
-654.99999999999966
 30
0.0
 11
2076.0
 21
-536.99999999999955
 31
0.0
1001
ACDBBLOCKREPETAG
1070
     1
1071
        5
1005
124AFE
  0
LINE
  5
124AFF
  8
CENTER
 10
2091.0
 20
-199.99999999999909
 30
0.0
 11
2070.0
 21
-199.99999999999909
 31
0.0
1001
ACDBBLOCKREPETAG
1070
     1
1071
        0
1005
124AFF
  0
LINE
  5
124B00
  8
OBJECT
 10
2073.0
 20
-137.99999999999909
 30
0.0
 11
2070.0
 21
-137.99999999999909
 31
0.0
1001
ACDBBLOCKREPETAG
1070
     1
1071
        1
1005
124B00
  0
ARC
  5
124B01
  8
OBJECT
 10
2073.0
 20
-140.99999999999909
 30
0.0
 40
3.0
 50
0.0
 51
90.0
1001
ACDBBLOCKREPETAG
1070
     1
1071
        2
1005
124B01
  0
LINE
  5
124B02
  8
OBJECT
 10
2070.0
 20
-261.99999999999909
 30
0.0
 11
2073.0
 21
-261.99999999999909
 31
0.0
1001
ACDBBLOCKREPETAG
1070
     1
1071
        3
1005
124B02
  0
ARC
  5
124B03
  8
OBJECT
 10
2073.0
 20
-258.99999999999909
 30
0.0
 40
3.0
 50
270.0
 51
0.0
1001
ACDBBLOCKREPETAG
1070
     1
1071
        4
1005
124B03
  0
LINE
  5
124B04
  8
OBJECT
 10
2076.0
 20
-258.99999999999909
 30
0.0
 11
2076.0
 21
-140.99999999999909
 31
0.0
1001
ACDBBLOCKREPETAG
1070
     1
1071
        5
1005
124B04
  0
TEXT
  5
124B05
  8
SLIM
 10
0.0
 20
670.0
 30
0.0
 40
100.0
  1
3SL-0-S+80
 41
0.75
  0
TEXT
  5
124B06
  8
SLIM
 10
0.0
 20
520.0
 30
0.0
 40
100.0
  1
3SL-0-W+80
 41
0.75
  0
TEXT
  5
124B07
  8
SLIM
 10
3853.75
 20
-1601.4999999999959
 30
0.0
 40
35.0
  1
両受けスタイル（W）
 41
0.75
  0
TEXT
  5
124B08
  8
SLIM
 10
5811.8000000000002
 20
-1698.9999999999991
 30
0.0
 40
28.0
  1
※ 対応スラブ厚　150mm以上
 41
0.75
  0
TEXT
  5
124B09
  8
SLIM
 10
5611.5
 20
-1792.333333333331
 30
0.0
 40
28.0
  1
国土交通大臣認定・（財）日本消防設備安全センター性能評定取得品
 41
0.75
  0
TEXT
  5
124B0A
  8
SLIM
 10
5631.1000000000004
 20
-1838.9999999999991
 30
0.0
 40
28.0
  1
注）ご採用にあたり、認定書及び評定書の内容をご確認ください。
 41
0.75
  0
TEXT
  5
124B0B
  8
SLIM
 10
11824.6
 20
-1657.9999999999959
 30
0.0
 40
28.0
  1
※ 対応スラブ厚　150～340
 41
0.75
  0
TEXT
  5
124B0C
  8
SLIM
 10
11611.5
 20
-1751.3333333333289
 30
0.0
 40
28.0
  1
国土交通大臣認定・（財）日本消防設備安全センター性能評定取得品
 41
0.75
  0
TEXT
  5
124B0D
  8
SLIM
 10
11631.1
 20
-1797.9999999999959
 30
0.0
 40
28.0
  1
注）ご採用にあたり、認定書及び評定書の内容をご確認ください。
 41
0.75
  0
TEXT
  5
124B0E
  8
SLIM
 10
9824.6000000000004
 20
-1657.9999999999959
 30
0.0
 40
28.0
  1
※ 対応スラブ厚　180～340
 41
0.75
  0
TEXT
  5
124B0F
  8
SLIM
 10
9611.5000000000018
 20
-1751.3333333333289
 30
0.0
 40
28.0
  1
国土交通大臣認定・（財）日本消防設備安全センター性能評定取得品
 41
0.75
  0
TEXT
  5
124B10
  8
SLIM
 10
9631.1000000000004
 20
-1797.9999999999959
 30
0.0
 40
28.0
  1
注）ご採用にあたり、認定書及び評定書の内容をご確認ください。
 41
0.75
  0
TEXT
  5
124B11
  8
SLIM
 10
9739.1250000000018
 20
-1601.4999999999959
 30
0.0
 40
35.0
  1
両受けスタイル（W）＋シンドカット
 41
0.75
  0
TEXT
  5
124B12
  8
SLIM
 10
11743.5
 20
-1601.4999999999959
 30
0.0
 40
35.0
  1
カンペイ君（WKP）＋シンドカット
 41
0.75
  0
TEXT
  5
124B13
  8
SLIM
 10
7741.625
 20
-1327.499999999998
 30
0.0
 40
35.0
  1
片受けスタイル（S）＋シンドカット
 41
0.75
  0
TEXT
  5
124B14
  8
SLIM
 10
5858.1250000000009
 20
-1642.4999999999991
 30
0.0
 40
35.0
  1
カンペイ君（WKP）
 41
0.75
  0
TEXT
  5
124B15
  8
SLIM
 10
1856.25
 20
-1327.499999999998
 30
0.0
 40
35.0
  1
片受けスタイル（S）
 41
0.75
  0
TEXT
  5
124B16
  8
SLIM
 10
0.0
 20
370.0
 30
0.0
 40
100.0
  1
3SL-0-WKP+80
 41
0.75
  0
VIEWPORT
  5
F6BA7
 67
     1
  8
0
 10
183.4461341219413
 20
101.8328354358673
 30
0.0
 40
410.23409513651683
 41
222.19657968139651
 68
     1
 69
     1
1001
ACAD
1000
MVIEW
1002
{
1070
    16
1010
0.0
1020
0.0
1030
0.0
1010
0.0
1020
0.0
1030
1.0
1040
0.0
1040
222.19657968139651
1040
183.4461341219413
1040
101.8328354358673
1040
50.0
1040
0.0
1040
0.0
1070
     0
1070
     0
1070
     1
1070
     1
1070
     0
1070
     0
1070
     0
1070
     0
1040
0.0
1040
0.0
1040
0.0
1040
10.0
1040
10.0
1040
10.0
1040
10.0
1070
     0
1002
{
1002
}
1002
}
  0
VIEWPORT
  5
F6BA9
 67
     1
  8
OBJECT
 10
145.3303314447403
 20
101.8328338861465
 30
0.0
 40
232.5285303115844
 41
162.93253421783439
 68
     2
 69
     2
1001
ACAD
1000
MVIEW
1002
{
1070
    16
1010
0.0
1020
0.0
1030
0.0
1010
0.0
1020
0.0
1030
1.0
1040
0.0
1040
25942.55904403147
1040
2377.604457077377
1040
-7591.5176687056619
1040
50.0
1040
0.0
1040
0.0
1070
     0
1070
   600
1070
     1
1070
     1
1070
     0
1070
     0
1070
     0
1070
     0
1040
0.0
1040
0.0
1040
0.0
1040
1.0
1040
1.0
1040
0.0
1040
0.0
1070
     0
1002
{
1002
}
1002
}
  0
ENDSEC
  0
EOF
