  0
SECTION
  2
HEADER
  9
$ACADVER
  1
AC1009
  9
$INSBASE
 10
0.0
 20
0.0
 30
0.0
  9
$EXTMIN
 10
-0.0000000000000089
 20
-3697.4999999999968
 30
0.0
  9
$EXTMAX
 10
12387.100000000009
 20
767.19448474768467
 30
0.0
  9
$LIMMIN
 10
0.0
 20
0.0
  9
$LIMMAX
 10
210.0
 20
297.0
  9
$ORTHOMODE
 70
     0
  9
$REGENMODE
 70
     1
  9
$FILLMODE
 70
     1
  9
$QTEXTMODE
 70
     0
  9
$MIRRTEXT
 70
     0
  9
$DRAGMODE
 70
     2
  9
$LTSCALE
 40
1.0
  9
$OSMODE
 70
   125
  9
$ATTMODE
 70
     1
  9
$TEXTSIZE
 40
4.0
  9
$TRACEWID
 40
0.05
  9
$TEXTSTYLE
  7
STANDARD
  9
$CLAYER
  8
OBJECT
  9
$CELTYPE
  6
BYLAYER
  9
$CECOLOR
 62
   256
  9
$DIMSCALE
 40
10.0
  9
$DIMASZ
 40
2.0
  9
$DIMEXO
 40
1.0
  9
$DIMDLI
 40
10.0
  9
$DIMRND
 40
0.0
  9
$DIMDLE
 40
0.0
  9
$DIMEXE
 40
1.0
  9
$DIMTP
 40
0.0
  9
$DIMTM
 40
0.0
  9
$DIMTXT
 40
3.2000000000000002
  9
$DIMCEN
 40
0.0
  9
$DIMTSZ
 40
0.0
  9
$DIMTOL
 70
     0
  9
$DIMLIM
 70
     0
  9
$DIMTIH
 70
     0
  9
$DIMTOH
 70
     0
  9
$DIMSE1
 70
     0
  9
$DIMSE2
 70
     0
  9
$DIMTAD
 70
     1
  9
$DIMZIN
 70
     8
  9
$DIMBLK
  1
OPEN30
  9
$DIMASO
 70
     1
  9
$DIMSHO
 70
     1
  9
$DIMPOST
  1

  9
$DIMAPOST
  1

  9
$DIMALT
 70
     0
  9
$DIMALTD
 70
     2
  9
$DIMALTF
 40
25.399999999999999
  9
$DIMLFAC
 40
1.0
  9
$DIMTOFL
 70
     1
  9
$DIMTVP
 40
0.0
  9
$DIMTIX
 70
     0
  9
$DIMSOXD
 70
     0
  9
$DIMSAH
 70
     0
  9
$DIMBLK1
  1

  9
$DIMBLK2
  1

  9
$DIMSTYLE
  2
S10
  9
$DIMCLRD
 70
   256
  9
$DIMCLRE
 70
   256
  9
$DIMCLRT
 70
   256
  9
$DIMTFAC
 40
1.0
  9
$DIMGAP
 40
0.9
  9
$LUNITS
 70
     2
  9
$LUPREC
 70
     2
  9
$SKETCHINC
 40
0.1
  9
$FILLETRAD
 40
0.0
  9
$AUNITS
 70
     0
  9
$AUPREC
 70
     2
  9
$MENU
  1
ACAD
  9
$ELEVATION
 40
0.0
  9
$PELEVATION
 40
0.0
  9
$THICKNESS
 40
0.0
  9
$LIMCHECK
 70
     0
  9
$BLIPMODE
 70
     0
  9
$CHAMFERA
 40
2.0
  9
$CHAMFERB
 40
2.0
  9
$SKPOLY
 70
     0
  9
$TDCREATE
 40
2453095.4929404748
  9
$TDUPDATE
 40
2456931.7201741431
  9
$TDINDWG
 40
18.6641279398
  9
$TDUSRTIMER
 40
18.664127326399999
  9
$USRTIMER
 70
     1
  9
$ANGBASE
 50
0.0
  9
$ANGDIR
 70
     0
  9
$PDMODE
 70
    35
  9
$PDSIZE
 40
2.0
  9
$PLINEWID
 40
0.0
  9
$COORDS
 70
     1
  9
$SPLFRAME
 70
     0
  9
$SPLINETYPE
 70
     6
  9
$SPLINESEGS
 70
     8
  9
$ATTDIA
 70
     1
  9
$ATTREQ
 70
     1
  9
$HANDLING
 70
     1
  9
$HANDSEED
  5
12A21F
  9
$SURFTAB1
 70
     6
  9
$SURFTAB2
 70
     6
  9
$SURFTYPE
 70
     6
  9
$SURFU
 70
     6
  9
$SURFV
 70
     6
  9
$UCSNAME
  2

  9
$UCSORG
 10
0.0
 20
0.0
 30
0.0
  9
$UCSXDIR
 10
1.0
 20
0.0
 30
0.0
  9
$UCSYDIR
 10
0.0
 20
1.0
 30
0.0
  9
$PUCSNAME
  2

  9
$PUCSORG
 10
0.0
 20
0.0
 30
0.0
  9
$PUCSXDIR
 10
1.0
 20
0.0
 30
0.0
  9
$PUCSYDIR
 10
0.0
 20
1.0
 30
0.0
  9
$USERI1
 70
     0
  9
$USERI2
 70
     0
  9
$USERI3
 70
     0
  9
$USERI4
 70
     0
  9
$USERI5
 70
     0
  9
$USERR1
 40
0.0
  9
$USERR2
 40
0.0
  9
$USERR3
 40
0.0
  9
$USERR4
 40
0.0
  9
$USERR5
 40
0.0
  9
$WORLDVIEW
 70
     1
  9
$SHADEDGE
 70
     3
  9
$SHADEDIF
 70
    70
  9
$TILEMODE
 70
     1
  9
$MAXACTVP
 70
    64
  9
$PLIMCHECK
 70
     0
  9
$PEXTMIN
 10
29.066066288948051
 20
20.366566777229309
 30
0.0
  9
$PEXTMAX
 10
261.5945966005325
 20
183.29910099506381
 30
0.0
  9
$PLIMMIN
 10
-3.17498779296875
 20
-3.1749999523162842
  9
$PLIMMAX
 10
293.83566284179687
 20
206.8406708240509
  9
$UNITMODE
 70
     0
  9
$VISRETAIN
 70
     1
  9
$PLINEGEN
 70
     0
  9
$PSLTSCALE
 70
     1
  0
ENDSEC
  0
SECTION
  2
TABLES
  0
TABLE
  2
VPORT
 70
     1
  0
VPORT
  2
*ACTIVE
 70
     0
 10
0.0
 20
0.0
 11
1.0
 21
1.0
 12
7605.5433367595542
 22
-761.4303670293956
 13
0.0
 23
0.0
 14
1.0
 24
1.0
 15
0.0
 25
0.0
 16
0.0
 26
0.0
 36
1.0
 17
0.0
 27
0.0
 37
0.0
 40
13116.701320369521
 41
1.846266471449487
 42
50.0
 43
0.0
 44
0.0
 50
0.0
 51
0.0
 71
     0
 72
   600
 73
     1
 74
     1
 75
     0
 76
     0
 77
     0
 78
     0
  0
ENDTAB
  0
TABLE
  2
LTYPE
 70
     3
  0
LTYPE
  2
CONTINUOUS
 70
     0
  3
Solid line
 72
    65
 73
     0
 40
0.0
  0
LTYPE
  2
ACAD_ISO08W100
 70
     0
  3
ISO long-dash short-dash ____ __ ____ __ ____ _
 72
    65
 73
     4
 40
36.0
 49
24.0
 49
-3.0
 49
6.0
 49
-3.0
  0
LTYPE
  2
ACAD_ISO02W100
 70
     0
  3
ISO dash __ __ __ __ __ __ __ __ __ __ __ __ __
 72
    65
 73
     2
 40
15.0
 49
12.0
 49
-3.0
  0
ENDTAB
  0
TABLE
  2
LAYER
 70
     8
  0
LAYER
  2
0
 70
     0
 62
     7
  6
CONTINUOUS
  0
LAYER
  2
OBJECT
 70
     0
 62
     4
  6
CONTINUOUS
  0
LAYER
  2
DEFPOINTS
 70
     0
 62
     7
  6
CONTINUOUS
  0
LAYER
  2
DIM
 70
     0
 62
     7
  6
CONTINUOUS
  0
LAYER
  2
HIDDEN
 70
     0
 62
     2
  6
ACAD_ISO02W100
  0
LAYER
  2
CENTER
 70
     0
 62
     2
  6
ACAD_ISO08W100
  0
LAYER
  2
DOTS
 70
     0
 62
     1
  6
CONTINUOUS
  0
LAYER
  2
SLIM
 70
     0
 62
     2
  6
CONTINUOUS
  0
ENDTAB
  0
TABLE
  2
STYLE
 70
     2
  0
STYLE
  2
STANDARD
 70
     0
 40
0.0
 41
0.75
 50
0.0
 71
     0
 42
4.0
  3
simplex.shx
  4
bigfont.shx
  0
ENDTAB
  0
TABLE
  2
VIEW
 70
     0
  0
ENDTAB
  0
TABLE
  2
UCS
 70
     0
  0
ENDTAB
  0
TABLE
  2
APPID
 70
    18
  0
APPID
  2
ACAD
 70
     0
  0
APPID
  2
ACADANNOTATIVE
 70
     0
  0
APPID
  2
ACAD_PSEXT
 70
     0
  0
APPID
  2
ACAD_EXEMPT_FROM_CAD_STANDARDS
 70
     0
  0
APPID
  2
ACAECLAYERSTANDARD
 70
     0
  0
APPID
  2
ACAUTHENVIRON
 70
     0
  0
APPID
  2
ACDBDYNAMICBLOCKTRUENAME
 70
     0
  0
APPID
  2
ACDBDYNAMICBLOCKGUID
 70
     0
  0
APPID
  2
ACDBBLOCKREPETAG
 70
     0
  0
APPID
  2
ACDBBLOCKREPBTAG
 70
     0
  0
APPID
  2
ACAD_NAV_VCDISPLAY
 70
     0
  0
APPID
  2
ACAD_DSTYLE_DIMRADIAL_EXTENSION
 70
     0
  0
APPID
  2
ACAD_DSTYLE_DIMJAG
 70
     0
  0
APPID
  2
ACAD_DSTYLE_DIMTALN
 70
     0
  0
APPID
  2
ACADANNOPO
 70
     0
  0
APPID
  2
GRADIENTCOLOR1ACI
 70
     0
  0
APPID
  2
GRADIENTCOLOR2ACI
 70
     0
  0
APPID
  2
ACAD_MLEADERVER
 70
     0
  0
ENDTAB
  0
TABLE
  2
DIMSTYLE
 70
     3
  0
DIMSTYLE
  2
STANDARD
 70
     0
  3

  4

  5

  6

  7

 40
1.0
 41
0.18
 42
0.0625
 43
0.38
 44
0.18
 45
0.0
 46
0.0
 47
0.0
 48
0.0
140
0.18
141
0.09
142
0.0
143
25.399999999999999
144
1.0
145
0.0
146
1.0
147
0.09
 71
     0
 72
     0
 73
     1
 74
     1
 75
     0
 76
     0
 77
     0
 78
     0
170
     0
171
     2
172
     0
173
     0
174
     0
175
     0
176
     0
177
     0
178
     0
  0
DIMSTYLE
  2
S10
 70
     0
  3

  4

  5

  6

  7

 40
10.0
 41
2.0
 42
1.0
 43
10.0
 44
1.0
 45
0.0
 46
0.0
 47
0.0
 48
0.0
140
3.2000000000000002
141
0.0
142
0.0
143
25.399999999999999
144
1.0
145
0.0
146
1.0
147
0.9
 71
     0
 72
     0
 73
     0
 74
     0
 75
     0
 76
     0
 77
     1
 78
     8
170
     0
171
     2
172
     1
173
     0
174
     0
175
     0
176
   256
177
   256
178
   256
  0
ENDTAB
  0
ENDSEC
  0
SECTION
  2
BLOCKS
  0
BLOCK
  8
0
  2
$MODEL_SPACE
 70
     0
 10
0.0
 20
0.0
 30
0.0
  3
$MODEL_SPACE
  1

  0
ENDBLK
  5
12A114
  8
0
  0
BLOCK
 67
     1
  8
0
  2
$PAPER_SPACE
 70
     0
 10
0.0
 20
0.0
 30
0.0
  3
$PAPER_SPACE
  1

  0
ENDBLK
  5
12A110
 67
     1
  8
0
  0
BLOCK
  8
0
  2
_OPEN30
 70
     0
 10
0.0
 20
0.0
 30
0.0
  3
_OPEN30
  1

  0
LINE
  5
202
  8
0
  6
BYBLOCK
 62
     0
 10
-1.0
 20
0.26794919
 30
0.0
 11
0.0
 21
0.0
 31
0.0
  0
LINE
  5
203
  8
0
  6
BYBLOCK
 62
     0
 10
0.0
 20
0.0
 30
0.0
 11
-1.0
 21
-0.26794919
 31
0.0
  0
LINE
  5
204
  8
0
  6
BYBLOCK
 62
     0
 10
0.0
 20
0.0
 30
0.0
 11
-1.0
 21
0.0
 31
0.0
  0
ENDBLK
  5
206
  8
0
  0
BLOCK
  8
0
  2
*U9
 70
     1
 10
0.0
 20
0.0
 30
0.0
  3
*U9
  1

  0
TEXT
  5
12A01E
  8
DIM
 10
2199.479620594459
 20
-3184.1428571428528
 30
0.0
 40
32.0
  1
A
 50
90.0
 41
0.75
  0
ENDBLK
  5
12A020
  8
0
  0
BLOCK
  8
0
  2
*U10
 70
     1
 10
0.0
 20
0.0
 30
0.0
  3
*U10
  1

  0
TEXT
  5
12A022
  8
DIM
 10
2197.840928403733
 20
-3565.9999999999959
 30
0.0
 40
32.0
  1
B
 50
90.0
 41
0.75
  0
ENDBLK
  5
12A024
  8
0
  0
BLOCK
  8
0
  2
*U11
 70
     1
 10
0.0
 20
0.0
 30
0.0
  3
*U11
  1

  0
TEXT
  5
12A026
  8
DIM
 10
2056.4285714285711
 20
-3048.2081219844449
 30
0.0
 40
32.0
  1
C
 41
0.75
  0
ENDBLK
  5
12A028
  8
0
  0
BLOCK
  8
0
  2
*U12
 70
     1
 10
0.0
 20
0.0
 30
0.0
  3
*U12
  1

  0
TEXT
  5
12A02A
  8
SLIM
 10
154.95238095238091
 20
-778.00000000000011
 30
0.0
 40
26.0
  1
65
  0
ENDBLK
  5
12A02C
  8
0
  0
BLOCK
  8
0
  2
*U13
 70
     1
 10
0.0
 20
0.0
 30
0.0
  3
*U13
  1

  0
TEXT
  5
12A02E
  8
SLIM
 10
154.95238095238091
 20
-567.99999999999841
 30
0.0
 40
26.0
  1
65
  0
ENDBLK
  5
12A030
  8
0
  0
BLOCK
  8
0
  2
*U14
 70
     1
 10
0.0
 20
0.0
 30
0.0
  3
*U14
  1

  0
TEXT
  5
12A032
  8
SLIM
 10
514.95238095238085
 20
-314.0
 30
0.0
 40
26.0
  1
65
  0
ENDBLK
  5
12A034
  8
0
  0
BLOCK
  8
0
  2
*U15
 70
     1
 10
0.0
 20
0.0
 30
0.0
  3
*U15
  1

  0
TEXT
  5
12A036
  8
SLIM
 10
514.95238095238085
 20
-103.9999999999982
 30
0.0
 40
26.0
  1
50
  0
ENDBLK
  5
12A038
  8
0
  0
BLOCK
  8
0
  2
*U16
 70
     1
 10
0.0
 20
0.0
 30
0.0
  3
*U16
  1

  0
TEXT
  5
12A03A
  8
SLIM
 10
154.95238095238091
 20
-314.0
 30
0.0
 40
26.0
  1
50
  0
ENDBLK
  5
12A03C
  8
0
  0
BLOCK
  8
0
  2
*U17
 70
     1
 10
0.0
 20
0.0
 30
0.0
  3
*U17
  1

  0
TEXT
  5
12A03E
  8
SLIM
 10
154.95238095238091
 20
-103.9999999999982
 30
0.0
 40
26.0
  1
50
  0
ENDBLK
  5
12A040
  8
0
  0
ENDSEC
  0
SECTION
  2
ENTITIES
  0
LINE
  5
12973A
  8
OBJECT
 10
1825.0
 20
-3579.9999999999959
 30
0.0
 11
3575.0
 21
-3579.9999999999959
 31
0.0
  0
LINE
  5
12973C
  8
SLIM
 10
2616.0
 20
-2637.50001604727
 30
0.0
 11
2616.0
 21
-2967.50001604727
 31
0.0
  0
LINE
  5
12973D
  8
SLIM
 10
2740.0
 20
-2637.50001604727
 30
0.0
 11
2740.0
 21
-2967.50001604727
 31
0.0
  0
LINE
  5
12973E
  8
SLIM
 10
2870.0
 20
-2697.50001604727
 30
0.0
 11
2870.0
 21
-2967.50001604727
 31
0.0
  0
LINE
  5
12973F
  8
SLIM
 10
3000.0
 20
-2637.50001604727
 30
0.0
 11
3000.0
 21
-2967.50001604727
 31
0.0
  0
LINE
  5
129740
  8
SLIM
 10
3000.0
 20
-2637.50001604727
 30
0.0
 11
2616.0
 21
-2637.50001604727
 31
0.0
  0
LINE
  5
129741
  8
SLIM
 10
3000.0
 20
-2697.50001604727
 30
0.0
 11
2740.0
 21
-2697.50001604727
 31
0.0
  0
LINE
  5
129742
  8
SLIM
 10
3000.0
 20
-2757.50001604727
 30
0.0
 11
2616.0
 21
-2757.50001604727
 31
0.0
  0
LINE
  5
129743
  8
SLIM
 10
3000.0
 20
-2827.50001604727
 30
0.0
 11
2616.0
 21
-2827.50001604727
 31
0.0
  0
LINE
  5
129744
  8
SLIM
 10
3000.0
 20
-2897.50001604727
 30
0.0
 11
2616.0
 21
-2897.50001604727
 31
0.0
  0
LINE
  5
129745
  8
SLIM
 10
3000.0
 20
-2967.50001604727
 30
0.0
 11
2616.0
 21
-2967.50001604727
 31
0.0
  0
LINE
  5
129752
  8
SLIM
 10
2740.0
 20
-2757.50001604727
 30
0.0
 11
2615.9999722746579
 21
-2637.5
 31
0.0
  0
LINE
  5
129845
  8
CENTER
 10
2909.0
 20
-3174.9999999999959
 30
0.0
 11
2930.0
 21
-3174.9999999999959
 31
0.0
1001
ACDBBLOCKREPETAG
1070
     1
1071
        0
1005
129845
  0
LINE
  5
129846
  8
OBJECT
 10
2926.9999999999991
 20
-3236.9999999999959
 30
0.0
 11
2930.0
 21
-3236.9999999999959
 31
0.0
1001
ACDBBLOCKREPETAG
1070
     1
1071
        1
1005
129846
  0
ARC
  5
129847
  8
OBJECT
 10
2926.9999999999991
 20
-3233.9999999999959
 30
0.0
 40
3.0
 50
180.0
 51
270.0
1001
ACDBBLOCKREPETAG
1070
     1
1071
        2
1005
129847
  0
LINE
  5
129848
  8
OBJECT
 10
2930.0
 20
-3112.9999999999959
 30
0.0
 11
2926.9999999999991
 21
-3112.9999999999959
 31
0.0
1001
ACDBBLOCKREPETAG
1070
     1
1071
        3
1005
129848
  0
ARC
  5
129849
  8
OBJECT
 10
2926.9999999999991
 20
-3115.9999999999959
 30
0.0
 40
3.0
 50
90.0
 51
180.0
1001
ACDBBLOCKREPETAG
1070
     1
1071
        4
1005
129849
  0
LINE
  5
12984A
  8
OBJECT
 10
2923.9999999999991
 20
-3115.9999999999959
 30
0.0
 11
2923.9999999999991
 21
-3233.9999999999959
 31
0.0
1001
ACDBBLOCKREPETAG
1070
     1
1071
        5
1005
12984A
  0
LINE
  5
12984B
  8
CENTER
 10
3000.0
 20
-3265.9999999999959
 30
0.0
 11
3000.0
 21
-3244.9999999999959
 31
0.0
1001
ACDBBLOCKREPETAG
1070
     1
1071
        0
1005
12984B
  0
LINE
  5
12984C
  8
OBJECT
 10
3062.0
 20
-3247.9999999999968
 30
0.0
 11
3062.0
 21
-3244.9999999999959
 31
0.0
1001
ACDBBLOCKREPETAG
1070
     1
1071
        1
1005
12984C
  0
ARC
  5
12984D
  8
OBJECT
 10
3059.0
 20
-3247.9999999999968
 30
0.0
 40
3.0
 50
270.0
 51
0.0
1001
ACDBBLOCKREPETAG
1070
     1
1071
        2
1005
12984D
  0
LINE
  5
12984E
  8
OBJECT
 10
2938.0
 20
-3244.9999999999959
 30
0.0
 11
2938.0
 21
-3247.999999999995
 31
0.0
1001
ACDBBLOCKREPETAG
1070
     1
1071
        3
1005
12984E
  0
ARC
  5
12984F
  8
OBJECT
 10
2941.0
 20
-3247.999999999995
 30
0.0
 40
3.0
 50
180.0
 51
270.0
1001
ACDBBLOCKREPETAG
1070
     1
1071
        4
1005
12984F
  0
LINE
  5
129850
  8
OBJECT
 10
2941.0
 20
-3250.999999999995
 30
0.0
 11
3059.0
 21
-3250.9999999999968
 31
0.0
1001
ACDBBLOCKREPETAG
1070
     1
1071
        5
1005
129850
  0
POINT
  5
129851
  8
DOTS
 10
3000.0
 20
-3174.9999999999959
 30
0.0
 50
270.0
1001
ACDBBLOCKREPETAG
1070
     1
1071
      153
1005
129851
  0
ARC
  5
129852
  8
OBJECT
 10
3000.0
 20
-3174.9999999999959
 30
0.0
 40
70.0
 50
62.339550100752639
 51
117.6604498992473
1001
ACDBBLOCKREPETAG
1070
     1
1071
        0
1005
129852
  0
CIRCLE
  5
129853
  8
OBJECT
 10
3000.0
 20
-3174.9999999999959
 30
0.0
 40
65.0
1001
ACDBBLOCKREPETAG
1070
     1
1071
        1
1005
129853
  0
CIRCLE
  5
129854
  8
OBJECT
 10
3000.0
 20
-3174.9999999999959
 30
0.0
 40
41.0
1001
ACDBBLOCKREPETAG
1070
     1
1071
        2
1005
129854
  0
CIRCLE
  5
129855
  8
OBJECT
 10
3000.0
 20
-3174.9999999999959
 30
0.0
 40
58.0
1001
ACDBBLOCKREPETAG
1070
     1
1071
        3
1005
129855
  0
LINE
  5
129856
  8
OBJECT
 10
3070.0
 20
-3112.9999999999959
 30
0.0
 11
3019.5192212959432
 21
-3112.9999999999959
 31
0.0
1001
ACDBBLOCKREPETAG
1070
     1
1071
        4
1005
129856
  0
LINE
  5
129857
  8
OBJECT
 10
2930.0
 20
-3112.9999999999959
 30
0.0
 11
2980.4807787040559
 21
-3112.9999999999959
 31
0.0
1001
ACDBBLOCKREPETAG
1070
     1
1071
        5
1005
129857
  0
LINE
  5
129858
  8
OBJECT
 10
2930.0
 20
-3236.9999999999959
 30
0.0
 11
2938.0
 21
-3236.9999999999959
 31
0.0
1001
ACDBBLOCKREPETAG
1070
     1
1071
        6
1005
129858
  0
LINE
  5
129859
  8
OBJECT
 10
2938.0
 20
-3244.9999999999959
 30
0.0
 11
2938.0
 21
-3236.9999999999959
 31
0.0
1001
ACDBBLOCKREPETAG
1070
     1
1071
        7
1005
129859
  0
LINE
  5
12985A
  8
OBJECT
 10
3070.0
 20
-3236.9999999999959
 30
0.0
 11
3062.0
 21
-3236.9999999999959
 31
0.0
1001
ACDBBLOCKREPETAG
1070
     1
1071
        8
1005
12985A
  0
LINE
  5
12985B
  8
OBJECT
 10
3062.0
 20
-3244.9999999999959
 30
0.0
 11
3062.0
 21
-3236.9999999999959
 31
0.0
1001
ACDBBLOCKREPETAG
1070
     1
1071
        9
1005
12985B
  0
LINE
  5
12985C
  8
CENTER
 10
2930.0
 20
-3174.9999999999959
 30
0.0
 11
3070.0
 21
-3174.9999999999959
 31
0.0
1001
ACDBBLOCKREPETAG
1070
     1
1071
       10
1005
12985C
  0
LINE
  5
12985D
  8
CENTER
 10
3000.0
 20
-3244.9999999999959
 30
0.0
 11
3000.0
 21
-3089.9999999999959
 31
0.0
1001
ACDBBLOCKREPETAG
1070
     1
1071
       11
1005
12985D
  0
ARC
  5
12985E
  8
OBJECT
 10
2989.902762139187
 20
-3199.4435290189881
 30
0.0
 40
7.0
 50
73.001272229716378
 51
154.050258789439
1001
ACDBBLOCKREPETAG
1070
     1
1071
       12
1005
12985E
  0
ARC
  5
12985F
  8
OBJECT
 10
2986.8376610706518
 20
-3200.5978773169481
 30
0.0
 40
9.0
 50
73.001272229716378
 51
154.05026392593041
1001
ACDBBLOCKREPETAG
1070
     1
1071
       13
1005
12985F
  0
ARC
  5
129860
  8
OBJECT
 10
2896.3142301315529
 20
-3122.2813003114779
 30
0.0
 40
150.0
 50
322.89503374001322
 51
325.89314996972462
1001
ACDBBLOCKREPETAG
1070
     1
1071
       14
1005
129860
  0
ARC
  5
129861
  8
OBJECT
 10
3000.0
 20
-3174.9999999999959
 30
0.0
 40
37.5
 50
303.16276667668131
 51
229.16350249082569
1001
ACDBBLOCKREPETAG
1070
     1
1071
       15
1005
129861
  0
LINE
  5
129862
  8
OBJECT
 10
2983.6085145189759
 20
-3196.3804510089681
 30
0.0
 11
2977.3740109999999
 21
-3209.191586999998
 31
0.0
1001
ACDBBLOCKREPETAG
1070
     1
1071
       16
1005
129862
  0
LINE
  5
129863
  8
OBJECT
 10
2978.7450566344628
 20
-3196.6596348867029
 30
0.0
 11
2973.8986719999989
 21
-3206.6183599999972
 31
0.0
1001
ACDBBLOCKREPETAG
1070
     1
1071
       17
1005
129863
  0
LINE
  5
129864
  8
OBJECT
 10
3018.9380179999998
 20
-3200.9999999999991
 30
0.0
 11
2989.468815303258
 21
-3191.9910760874409
 31
0.0
1001
ACDBBLOCKREPETAG
1070
     1
1071
       18
1005
129864
  0
LINE
  5
129865
  8
OBJECT
 10
3020.5132253090051
 20
-3206.3919987802892
 30
0.0
 11
3018.9380179999998
 21
-3200.9999999999991
 31
0.0
1001
ACDBBLOCKREPETAG
1070
     1
1071
       19
1005
129865
  0
LINE
  5
129866
  8
OBJECT
 10
2954.0380592228739
 20
-3220.9619407771211
 30
0.0
 11
2938.0
 21
-3236.9999999999959
 31
0.0
1001
ACDBBLOCKREPETAG
1070
     1
1071
       42
1005
129866
  0
LINE
  5
129867
  8
OBJECT
 10
3045.9619407771261
 20
-3220.9619407771211
 30
0.0
 11
3062.0
 21
-3236.9999999999959
 31
0.0
1001
ACDBBLOCKREPETAG
1070
     1
1071
       43
1005
129867
  0
LINE
  5
129868
  8
OBJECT
 10
3123.0
 20
-3119.9999999999959
 30
0.0
 11
3130.0
 21
-3119.9999999999959
 31
0.0
1001
ACDBBLOCKREPETAG
1070
     1
1071
       27
1005
129868
  0
LINE
  5
129869
  8
OBJECT
 10
3130.0
 20
-3119.9999999999959
 30
0.0
 11
3130.0
 21
-3229.9999999999959
 31
0.0
1001
ACDBBLOCKREPETAG
1070
     1
1071
       28
1005
129869
  0
LINE
  5
12986A
  8
OBJECT
 10
3130.0
 20
-3229.9999999999959
 30
0.0
 11
3123.0
 21
-3229.9999999999959
 31
0.0
1001
ACDBBLOCKREPETAG
1070
     1
1071
       29
1005
12986A
  0
LINE
  5
12986B
  8
OBJECT
 10
3123.0
 20
-3229.9999999999959
 30
0.0
 11
3123.0
 21
-3119.9999999999959
 31
0.0
1001
ACDBBLOCKREPETAG
1070
     1
1071
       30
1005
12986B
  0
LINE
  5
12986C
  8
CENTER
 10
3145.0
 20
-3174.9999999999959
 30
0.0
 11
3070.0
 21
-3174.9999999999959
 31
0.0
1001
ACDBBLOCKREPETAG
1070
     1
1071
       31
1005
12986C
  0
LINE
  5
12986D
  8
OBJECT
 10
3123.0
 20
-3122.9999999999959
 30
0.0
 11
3087.0
 21
-3122.9999999999959
 31
0.0
1001
ACDBBLOCKREPETAG
1070
     1
1071
       32
1005
12986D
  0
LINE
  5
12986E
  8
OBJECT
 10
3087.0
 20
-3122.9999999999959
 30
0.0
 11
3087.0
 21
-3226.9999999999959
 31
0.0
1001
ACDBBLOCKREPETAG
1070
     1
1071
       33
1005
12986E
  0
LINE
  5
12986F
  8
OBJECT
 10
3087.0
 20
-3226.9999999999959
 30
0.0
 11
3123.0
 21
-3226.9999999999959
 31
0.0
1001
ACDBBLOCKREPETAG
1070
     1
1071
       34
1005
12986F
  0
LINE
  5
129870
  8
OBJECT
 10
3083.0
 20
-3127.4999999999959
 30
0.0
 11
3076.0
 21
-3127.4999999999959
 31
0.0
1001
ACDBBLOCKREPETAG
1070
     1
1071
       35
1005
129870
  0
LINE
  5
129871
  8
OBJECT
 10
3076.0
 20
-3222.4999999999959
 30
0.0
 11
3083.0
 21
-3222.4999999999959
 31
0.0
1001
ACDBBLOCKREPETAG
1070
     1
1071
       36
1005
129871
  0
LINE
  5
129872
  8
OBJECT
 10
3083.0
 20
-3222.4999999999959
 30
0.0
 11
3083.0
 21
-3127.4999999999959
 31
0.0
1001
ACDBBLOCKREPETAG
1070
     1
1071
       37
1005
129872
  0
LINE
  5
129873
  8
OBJECT
 10
3087.0
 20
-3122.9999999999959
 30
0.0
 11
3083.0
 21
-3127.4999999999959
 31
0.0
1001
ACDBBLOCKREPETAG
1070
     1
1071
       38
1005
129873
  0
LINE
  5
129874
  8
OBJECT
 10
3087.0
 20
-3226.9999999999959
 30
0.0
 11
3083.0
 21
-3222.4999999999959
 31
0.0
1001
ACDBBLOCKREPETAG
1070
     1
1071
       39
1005
129874
  0
LINE
  5
129875
  8
OBJECT
 10
3073.0
 20
-3112.9999999999959
 30
0.0
 11
3070.0
 21
-3112.9999999999959
 31
0.0
1001
ACDBBLOCKREPETAG
1070
     1
1071
       40
1005
129875
  0
ARC
  5
129876
  8
OBJECT
 10
3073.0
 20
-3115.9999999999959
 30
0.0
 40
3.0
 50
0.0
 51
90.0
1001
ACDBBLOCKREPETAG
1070
     1
1071
       41
1005
129876
  0
LINE
  5
129877
  8
OBJECT
 10
3070.0
 20
-3236.9999999999959
 30
0.0
 11
3073.0
 21
-3236.9999999999959
 31
0.0
1001
ACDBBLOCKREPETAG
1070
     1
1071
       42
1005
129877
  0
ARC
  5
129878
  8
OBJECT
 10
3073.0
 20
-3233.9999999999959
 30
0.0
 40
3.0
 50
270.0
 51
0.0
1001
ACDBBLOCKREPETAG
1070
     1
1071
       43
1005
129878
  0
LINE
  5
129879
  8
OBJECT
 10
3076.0
 20
-3233.9999999999959
 30
0.0
 11
3076.0
 21
-3115.9999999999959
 31
0.0
1001
ACDBBLOCKREPETAG
1070
     1
1071
       44
1005
129879
  0
LINE
  5
12987A
  8
HIDDEN
 10
3078.0
 20
-3136.9999999999959
 30
0.0
 11
3078.0
 21
-3212.9999999999959
 31
0.0
1001
ACDBBLOCKREPETAG
1070
     1
1071
       45
1005
12987A
  0
LINE
  5
12987B
  8
CENTER
 10
1908.9999999999991
 20
-3174.9999999999959
 30
0.0
 11
1929.9999999999991
 21
-3174.9999999999959
 31
0.0
1001
ACDBBLOCKREPETAG
1070
     1
1071
        0
1005
12987B
  0
LINE
  5
12987C
  8
OBJECT
 10
1926.9999999999991
 20
-3236.9999999999959
 30
0.0
 11
1929.9999999999991
 21
-3236.9999999999959
 31
0.0
1001
ACDBBLOCKREPETAG
1070
     1
1071
        1
1005
12987C
  0
ARC
  5
12987D
  8
OBJECT
 10
1926.9999999999991
 20
-3233.9999999999959
 30
0.0
 40
3.0
 50
180.0
 51
270.0
1001
ACDBBLOCKREPETAG
1070
     1
1071
        2
1005
12987D
  0
LINE
  5
12987E
  8
OBJECT
 10
1929.9999999999991
 20
-3112.9999999999959
 30
0.0
 11
1926.9999999999991
 21
-3112.9999999999959
 31
0.0
1001
ACDBBLOCKREPETAG
1070
     1
1071
        3
1005
12987E
  0
ARC
  5
12987F
  8
OBJECT
 10
1926.9999999999991
 20
-3115.9999999999959
 30
0.0
 40
3.0
 50
90.0
 51
180.0
1001
ACDBBLOCKREPETAG
1070
     1
1071
        4
1005
12987F
  0
LINE
  5
129880
  8
OBJECT
 10
1923.9999999999991
 20
-3115.9999999999959
 30
0.0
 11
1923.9999999999991
 21
-3233.9999999999959
 31
0.0
1001
ACDBBLOCKREPETAG
1070
     1
1071
        5
1005
129880
  0
LINE
  5
129881
  8
CENTER
 10
2000.0
 20
-3265.9999999999959
 30
0.0
 11
2000.0
 21
-3244.9999999999959
 31
0.0
1001
ACDBBLOCKREPETAG
1070
     1
1071
        0
1005
129881
  0
LINE
  5
129882
  8
OBJECT
 10
2062.0
 20
-3247.9999999999968
 30
0.0
 11
2062.0
 21
-3244.9999999999959
 31
0.0
1001
ACDBBLOCKREPETAG
1070
     1
1071
        1
1005
129882
  0
ARC
  5
129883
  8
OBJECT
 10
2059.0
 20
-3247.9999999999968
 30
0.0
 40
3.0
 50
270.0
 51
0.0
1001
ACDBBLOCKREPETAG
1070
     1
1071
        2
1005
129883
  0
LINE
  5
129884
  8
OBJECT
 10
1937.9999999999991
 20
-3244.9999999999959
 30
0.0
 11
1937.9999999999991
 21
-3247.999999999995
 31
0.0
1001
ACDBBLOCKREPETAG
1070
     1
1071
        3
1005
129884
  0
ARC
  5
129885
  8
OBJECT
 10
1941.0
 20
-3247.999999999995
 30
0.0
 40
3.0
 50
180.0
 51
270.0
1001
ACDBBLOCKREPETAG
1070
     1
1071
        4
1005
129885
  0
LINE
  5
129886
  8
OBJECT
 10
1941.0
 20
-3250.999999999995
 30
0.0
 11
2059.0
 21
-3250.9999999999968
 31
0.0
1001
ACDBBLOCKREPETAG
1070
     1
1071
        5
1005
129886
  0
POINT
  5
129887
  8
DOTS
 10
2000.0
 20
-3174.9999999999959
 30
0.0
 50
270.0
1001
ACDBBLOCKREPETAG
1070
     1
1071
      153
1005
129887
  0
ARC
  5
129888
  8
OBJECT
 10
2000.0
 20
-3174.9999999999959
 30
0.0
 40
70.0
 50
62.339550100752639
 51
117.6604498992473
1001
ACDBBLOCKREPETAG
1070
     1
1071
        0
1005
129888
  0
CIRCLE
  5
129889
  8
OBJECT
 10
2000.0
 20
-3174.9999999999959
 30
0.0
 40
65.0
1001
ACDBBLOCKREPETAG
1070
     1
1071
        1
1005
129889
  0
CIRCLE
  5
12988A
  8
OBJECT
 10
2000.0
 20
-3174.9999999999959
 30
0.0
 40
41.0
1001
ACDBBLOCKREPETAG
1070
     1
1071
        2
1005
12988A
  0
CIRCLE
  5
12988B
  8
OBJECT
 10
2000.0
 20
-3174.9999999999959
 30
0.0
 40
58.0
1001
ACDBBLOCKREPETAG
1070
     1
1071
        3
1005
12988B
  0
LINE
  5
12988C
  8
OBJECT
 10
2070.0
 20
-3112.9999999999959
 30
0.0
 11
2019.519221295943
 21
-3112.9999999999959
 31
0.0
1001
ACDBBLOCKREPETAG
1070
     1
1071
        4
1005
12988C
  0
LINE
  5
12988D
  8
OBJECT
 10
1929.9999999999991
 20
-3112.9999999999959
 30
0.0
 11
1980.4807787040561
 21
-3112.9999999999959
 31
0.0
1001
ACDBBLOCKREPETAG
1070
     1
1071
        5
1005
12988D
  0
LINE
  5
12988E
  8
OBJECT
 10
1929.9999999999991
 20
-3236.9999999999959
 30
0.0
 11
1937.9999999999991
 21
-3236.9999999999959
 31
0.0
1001
ACDBBLOCKREPETAG
1070
     1
1071
        6
1005
12988E
  0
LINE
  5
12988F
  8
OBJECT
 10
1937.9999999999991
 20
-3244.9999999999959
 30
0.0
 11
1937.9999999999991
 21
-3236.9999999999959
 31
0.0
1001
ACDBBLOCKREPETAG
1070
     1
1071
        7
1005
12988F
  0
LINE
  5
129890
  8
OBJECT
 10
2070.0
 20
-3236.9999999999959
 30
0.0
 11
2062.0
 21
-3236.9999999999959
 31
0.0
1001
ACDBBLOCKREPETAG
1070
     1
1071
        8
1005
129890
  0
LINE
  5
129891
  8
OBJECT
 10
2062.0
 20
-3244.9999999999959
 30
0.0
 11
2062.0
 21
-3236.9999999999959
 31
0.0
1001
ACDBBLOCKREPETAG
1070
     1
1071
        9
1005
129891
  0
LINE
  5
129892
  8
CENTER
 10
1929.9999999999991
 20
-3174.9999999999959
 30
0.0
 11
2070.0
 21
-3174.9999999999959
 31
0.0
1001
ACDBBLOCKREPETAG
1070
     1
1071
       10
1005
129892
  0
LINE
  5
129893
  8
CENTER
 10
2000.0
 20
-3244.9999999999959
 30
0.0
 11
2000.0
 21
-3089.9999999999959
 31
0.0
1001
ACDBBLOCKREPETAG
1070
     1
1071
       11
1005
129893
  0
ARC
  5
129894
  8
OBJECT
 10
1989.9027621391861
 20
-3199.4435290189881
 30
0.0
 40
7.0
 50
73.001272229703943
 51
154.05025878943329
1001
ACDBBLOCKREPETAG
1070
     1
1071
       12
1005
129894
  0
ARC
  5
129895
  8
OBJECT
 10
1986.83766107065
 20
-3200.5978773169481
 30
0.0
 40
9.0
 50
73.001272229703943
 51
154.05026392593629
1001
ACDBBLOCKREPETAG
1070
     1
1071
       13
1005
129895
  0
ARC
  5
129896
  8
OBJECT
 10
1896.314230131552
 20
-3122.2813003114779
 30
0.0
 40
150.0
 50
322.89503374000537
 51
325.89314996972462
1001
ACDBBLOCKREPETAG
1070
     1
1071
       14
1005
129896
  0
ARC
  5
129897
  8
OBJECT
 10
2000.0
 20
-3174.9999999999959
 30
0.0
 40
37.5
 50
303.16276667667029
 51
229.16350249082569
1001
ACDBBLOCKREPETAG
1070
     1
1071
       15
1005
129897
  0
LINE
  5
129898
  8
OBJECT
 10
1983.608514518975
 20
-3196.3804510089681
 30
0.0
 11
1977.374010999999
 21
-3209.191586999998
 31
0.0
1001
ACDBBLOCKREPETAG
1070
     1
1071
       16
1005
129898
  0
LINE
  5
129899
  8
OBJECT
 10
1978.745056634463
 20
-3196.6596348867029
 30
0.0
 11
1973.898671999998
 21
-3206.6183599999972
 31
0.0
1001
ACDBBLOCKREPETAG
1070
     1
1071
       17
1005
129899
  0
LINE
  5
12989A
  8
OBJECT
 10
2018.9380180000001
 20
-3200.9999999999991
 30
0.0
 11
1989.468815303258
 21
-3191.9910760874409
 31
0.0
1001
ACDBBLOCKREPETAG
1070
     1
1071
       18
1005
12989A
  0
LINE
  5
12989B
  8
OBJECT
 10
2020.5132253090051
 20
-3206.3919987802892
 30
0.0
 11
2018.9380180000001
 21
-3200.9999999999991
 31
0.0
1001
ACDBBLOCKREPETAG
1070
     1
1071
       19
1005
12989B
  0
LINE
  5
12989C
  8
OBJECT
 10
1954.038059222873
 20
-3220.9619407771211
 30
0.0
 11
1937.9999999999991
 21
-3236.9999999999959
 31
0.0
1001
ACDBBLOCKREPETAG
1070
     1
1071
       42
1005
12989C
  0
LINE
  5
12989D
  8
OBJECT
 10
2045.9619407771249
 20
-3220.9619407771211
 30
0.0
 11
2062.0
 21
-3236.9999999999959
 31
0.0
1001
ACDBBLOCKREPETAG
1070
     1
1071
       43
1005
12989D
  0
LINE
  5
12989E
  8
OBJECT
 10
2123.0
 20
-3127.9999999999959
 30
0.0
 11
2130.0
 21
-3127.9999999999959
 31
0.0
1001
ACDBBLOCKREPETAG
1070
     1
1071
        7
1005
12989E
  0
LINE
  5
12989F
  8
OBJECT
 10
2130.0
 20
-3127.9999999999959
 30
0.0
 11
2130.0
 21
-3221.9999999999959
 31
0.0
1001
ACDBBLOCKREPETAG
1070
     1
1071
        8
1005
12989F
  0
LINE
  5
1298A0
  8
OBJECT
 10
2130.0
 20
-3221.9999999999959
 30
0.0
 11
2123.0
 21
-3221.9999999999959
 31
0.0
1001
ACDBBLOCKREPETAG
1070
     1
1071
        9
1005
1298A0
  0
LINE
  5
1298A1
  8
OBJECT
 10
2123.0
 20
-3221.9999999999959
 30
0.0
 11
2123.0
 21
-3127.9999999999959
 31
0.0
1001
ACDBBLOCKREPETAG
1070
     1
1071
       10
1005
1298A1
  0
LINE
  5
1298A2
  8
CENTER
 10
2145.0
 20
-3174.9999999999959
 30
0.0
 11
2070.0
 21
-3174.9999999999959
 31
0.0
1001
ACDBBLOCKREPETAG
1070
     1
1071
       11
1005
1298A2
  0
LINE
  5
1298A3
  8
OBJECT
 10
2123.0
 20
-3130.9999999999959
 30
0.0
 11
2087.0
 21
-3130.9999999999959
 31
0.0
1001
ACDBBLOCKREPETAG
1070
     1
1071
       12
1005
1298A3
  0
LINE
  5
1298A4
  8
OBJECT
 10
2087.0
 20
-3130.9999999999959
 30
0.0
 11
2087.0
 21
-3218.9999999999959
 31
0.0
1001
ACDBBLOCKREPETAG
1070
     1
1071
       13
1005
1298A4
  0
LINE
  5
1298A5
  8
OBJECT
 10
2087.0
 20
-3218.9999999999959
 30
0.0
 11
2123.0
 21
-3218.9999999999959
 31
0.0
1001
ACDBBLOCKREPETAG
1070
     1
1071
       14
1005
1298A5
  0
LINE
  5
1298A6
  8
OBJECT
 10
2083.0
 20
-3135.4999999999959
 30
0.0
 11
2076.0
 21
-3135.4999999999959
 31
0.0
1001
ACDBBLOCKREPETAG
1070
     1
1071
       15
1005
1298A6
  0
LINE
  5
1298A7
  8
OBJECT
 10
2076.0
 20
-3214.4999999999959
 30
0.0
 11
2083.0
 21
-3214.4999999999959
 31
0.0
1001
ACDBBLOCKREPETAG
1070
     1
1071
       16
1005
1298A7
  0
LINE
  5
1298A8
  8
OBJECT
 10
2083.0
 20
-3214.4999999999959
 30
0.0
 11
2083.0
 21
-3135.4999999999959
 31
0.0
1001
ACDBBLOCKREPETAG
1070
     1
1071
       17
1005
1298A8
  0
LINE
  5
1298A9
  8
OBJECT
 10
2087.0
 20
-3130.9999999999959
 30
0.0
 11
2083.0
 21
-3135.4999999999959
 31
0.0
1001
ACDBBLOCKREPETAG
1070
     1
1071
       18
1005
1298A9
  0
LINE
  5
1298AA
  8
OBJECT
 10
2087.0
 20
-3218.9999999999959
 30
0.0
 11
2083.0
 21
-3214.4999999999959
 31
0.0
1001
ACDBBLOCKREPETAG
1070
     1
1071
       19
1005
1298AA
  0
LINE
  5
1298AB
  8
OBJECT
 10
2073.0
 20
-3112.9999999999959
 30
0.0
 11
2070.0
 21
-3112.9999999999959
 31
0.0
1001
ACDBBLOCKREPETAG
1070
     1
1071
       20
1005
1298AB
  0
ARC
  5
1298AC
  8
OBJECT
 10
2073.0
 20
-3115.9999999999959
 30
0.0
 40
3.0
 50
0.0
 51
90.0
1001
ACDBBLOCKREPETAG
1070
     1
1071
       21
1005
1298AC
  0
LINE
  5
1298AD
  8
OBJECT
 10
2070.0
 20
-3236.9999999999959
 30
0.0
 11
2073.0
 21
-3236.9999999999959
 31
0.0
1001
ACDBBLOCKREPETAG
1070
     1
1071
       22
1005
1298AD
  0
ARC
  5
1298AE
  8
OBJECT
 10
2073.0
 20
-3233.9999999999959
 30
0.0
 40
3.0
 50
270.0
 51
0.0
1001
ACDBBLOCKREPETAG
1070
     1
1071
       23
1005
1298AE
  0
LINE
  5
1298AF
  8
OBJECT
 10
2076.0
 20
-3233.9999999999959
 30
0.0
 11
2076.0
 21
-3115.9999999999959
 31
0.0
1001
ACDBBLOCKREPETAG
1070
     1
1071
       24
1005
1298AF
  0
LINE
  5
1298B0
  8
HIDDEN
 10
2078.0
 20
-3144.9999999999959
 30
0.0
 11
2078.0
 21
-3204.9999999999959
 31
0.0
1001
ACDBBLOCKREPETAG
1070
     1
1071
       25
1005
1298B0
  0
LINE
  5
1298B1
  8
OBJECT
 10
3327.0
 20
-3458.9999999999959
 30
0.0
 11
3330.0
 21
-3458.9999999999959
 31
0.0
1001
ACDBBLOCKREPETAG
1070
     1
1071
        1
1005
1298B1
  0
ARC
  5
1298B2
  8
OBJECT
 10
3327.0
 20
-3461.9999999999959
 30
0.0
 40
3.0
 50
90.0
 51
180.0
1001
ACDBBLOCKREPETAG
1070
     1
1071
        2
1005
1298B2
  0
LINE
  5
1298B3
  8
OBJECT
 10
3330.0
 20
-3582.9999999999968
 30
0.0
 11
3327.0
 21
-3582.9999999999968
 31
0.0
1001
ACDBBLOCKREPETAG
1070
     1
1071
        3
1005
1298B3
  0
ARC
  5
1298B4
  8
OBJECT
 10
3327.0
 20
-3579.9999999999959
 30
0.0
 40
3.0
 50
180.0
 51
270.0
1001
ACDBBLOCKREPETAG
1070
     1
1071
        4
1005
1298B4
  0
LINE
  5
1298B5
  8
OBJECT
 10
3324.0
 20
-3579.9999999999959
 30
0.0
 11
3324.0
 21
-3461.9999999999959
 31
0.0
1001
ACDBBLOCKREPETAG
1070
     1
1071
        5
1005
1298B5
  0
LINE
  5
1298B6
  8
OBJECT
 10
3334.9999999999991
 20
-3374.9999999999959
 30
0.0
 11
3334.9999999999991
 21
-3395.9999999999959
 31
0.0
1001
ACDBBLOCKREPETAG
1070
     1
1071
       36
1005
1298B6
  0
LINE
  5
1298B7
  8
OBJECT
 10
3334.9999999999991
 20
-3395.9999999999959
 30
0.0
 11
3465.0
 21
-3395.9999999999959
 31
0.0
1001
ACDBBLOCKREPETAG
1070
     1
1071
       37
1005
1298B7
  0
LINE
  5
1298B8
  8
OBJECT
 10
3465.0
 20
-3395.9999999999959
 30
0.0
 11
3465.0
 21
-3374.9999999999959
 31
0.0
1001
ACDBBLOCKREPETAG
1070
     1
1071
       38
1005
1298B8
  0
LINE
  5
1298B9
  8
OBJECT
 10
3465.0
 20
-3374.9999999999959
 30
0.0
 11
3334.9999999999991
 21
-3374.9999999999959
 31
0.0
1001
ACDBBLOCKREPETAG
1070
     1
1071
       39
1005
1298B9
  0
LINE
  5
1298BA
  8
HIDDEN
 10
3444.5
 20
-3444.9999999999959
 30
0.0
 11
3355.4999999999991
 21
-3444.9999999999959
 31
0.0
1001
ACDBBLOCKREPETAG
1070
     1
1071
       40
1005
1298BA
  0
LINE
  5
1298BB
  8
CENTER
 10
3399.9999999999991
 20
-3594.9999999999959
 30
0.0
 11
3399.9999999999991
 21
-3359.9999999999959
 31
0.0
1001
ACDBBLOCKREPETAG
1070
     1
1071
       41
1005
1298BB
  0
LINE
  5
1298BC
  8
OBJECT
 10
3340.5
 20
-3395.9999999999959
 30
0.0
 11
3340.5
 21
-3458.9999999999959
 31
0.0
1001
ACDBBLOCKREPETAG
1070
     1
1071
       42
1005
1298BC
  0
LINE
  5
1298BD
  8
OBJECT
 10
3330.0
 20
-3458.9999999999959
 30
0.0
 11
3465.0000101378168
 21
-3458.9999999999959
 31
0.0
1001
ACDBBLOCKREPETAG
1070
     1
1071
       43
1005
1298BD
  0
LINE
  5
1298BE
  8
OBJECT
 10
3459.5
 20
-3458.9999999999959
 30
0.0
 11
3459.5
 21
-3395.9999999999959
 31
0.0
1001
ACDBBLOCKREPETAG
1070
     1
1071
       44
1005
1298BE
  0
LINE
  5
1298BF
  8
OBJECT
 10
3335.0
 20
-3582.9999999999968
 30
0.0
 11
3330.0
 21
-3582.9999999999968
 31
0.0
1001
ACDBBLOCKREPETAG
1070
     1
1071
       48
1005
1298BF
  0
LINE
  5
1298C0
  8
OBJECT
 10
3465.0000101378168
 20
-3583.0000021659139
 30
0.0
 11
3465.0000101378168
 21
-3458.9999999999959
 31
0.0
1001
ACDBBLOCKREPETAG
1070
     1
1071
       51
1005
1298C0
  0
ARC
  5
1298C1
  8
OBJECT
 10
2964.9615610053229
 20
-3823.608136846824
 30
0.0
 40
519.48776673616965
 50
41.499473443784993
 51
44.576493325685597
1001
ACDBBLOCKREPETAG
1070
     1
1071
       52
1005
1298C1
  0
ARC
  5
1298C2
  8
OBJECT
 10
2964.9615610053229
 20
-3218.3918631531678
 30
0.0
 40
519.48776673616965
 50
315.42350667431441
 51
318.50052655621488
1001
ACDBBLOCKREPETAG
1070
     1
1071
       53
1005
1298C2
  0
POINT
  5
1298C3
  8
DOTS
 10
3399.9999999999991
 20
-3579.9999999999959
 30
0.0
1001
ACDBBLOCKREPETAG
1070
     1
1071
      112
1005
1298C3
  0
LINE
  5
1298C4
  8
OBJECT
 10
2927.0
 20
-3458.9999999999959
 30
0.0
 11
2930.0
 21
-3458.9999999999959
 31
0.0
1001
ACDBBLOCKREPETAG
1070
     1
1071
        1
1005
1298C4
  0
ARC
  5
1298C5
  8
OBJECT
 10
2927.0
 20
-3461.9999999999959
 30
0.0
 40
3.0
 50
90.0
 51
180.0
1001
ACDBBLOCKREPETAG
1070
     1
1071
        2
1005
1298C5
  0
LINE
  5
1298C6
  8
OBJECT
 10
2930.0
 20
-3582.9999999999968
 30
0.0
 11
2927.0
 21
-3582.9999999999968
 31
0.0
1001
ACDBBLOCKREPETAG
1070
     1
1071
        3
1005
1298C6
  0
ARC
  5
1298C7
  8
OBJECT
 10
2927.0
 20
-3579.9999999999959
 30
0.0
 40
3.0
 50
180.0
 51
270.0
1001
ACDBBLOCKREPETAG
1070
     1
1071
        4
1005
1298C7
  0
LINE
  5
1298C8
  8
OBJECT
 10
2924.0
 20
-3579.9999999999959
 30
0.0
 11
2924.0
 21
-3461.9999999999959
 31
0.0
1001
ACDBBLOCKREPETAG
1070
     1
1071
        5
1005
1298C8
  0
CIRCLE
  5
1298C9
  8
OBJECT
 10
3000.0
 20
-3520.9999999999968
 30
0.0
 40
62.0
1001
ACDBBLOCKREPETAG
1070
     1
1071
        0
1005
1298C9
  0
LINE
  5
1298CA
  8
OBJECT
 10
2935.0
 20
-3374.9999999999959
 30
0.0
 11
2935.0
 21
-3395.9999999999959
 31
0.0
1001
ACDBBLOCKREPETAG
1070
     1
1071
       16
1005
1298CA
  0
LINE
  5
1298CB
  8
OBJECT
 10
2935.0
 20
-3395.9999999999959
 30
0.0
 11
3064.9999999999991
 21
-3395.9999999999959
 31
0.0
1001
ACDBBLOCKREPETAG
1070
     1
1071
       17
1005
1298CB
  0
LINE
  5
1298CC
  8
OBJECT
 10
3064.9999999999991
 20
-3395.9999999999959
 30
0.0
 11
3064.9999999999991
 21
-3374.9999999999959
 31
0.0
1001
ACDBBLOCKREPETAG
1070
     1
1071
       18
1005
1298CC
  0
LINE
  5
1298CD
  8
OBJECT
 10
3064.9999999999991
 20
-3374.9999999999959
 30
0.0
 11
2935.0
 21
-3374.9999999999959
 31
0.0
1001
ACDBBLOCKREPETAG
1070
     1
1071
       19
1005
1298CD
  0
LINE
  5
1298CE
  8
HIDDEN
 10
3044.5
 20
-3444.9999999999959
 30
0.0
 11
2955.5
 21
-3444.9999999999959
 31
0.0
1001
ACDBBLOCKREPETAG
1070
     1
1071
       20
1005
1298CE
  0
LINE
  5
1298CF
  8
CENTER
 10
3000.0
 20
-3594.9999999999959
 30
0.0
 11
3000.0
 21
-3359.9999999999959
 31
0.0
1001
ACDBBLOCKREPETAG
1070
     1
1071
       21
1005
1298CF
  0
LINE
  5
1298D0
  8
OBJECT
 10
2940.5
 20
-3395.9999999999959
 30
0.0
 11
2940.5
 21
-3458.9999999999959
 31
0.0
1001
ACDBBLOCKREPETAG
1070
     1
1071
       22
1005
1298D0
  0
LINE
  5
1298D1
  8
OBJECT
 10
2930.0
 20
-3458.9999999999959
 30
0.0
 11
3070.0
 21
-3458.9999999999959
 31
0.0
1001
ACDBBLOCKREPETAG
1070
     1
1071
       23
1005
1298D1
  0
LINE
  5
1298D2
  8
OBJECT
 10
3059.5
 20
-3458.9999999999959
 30
0.0
 11
3059.5
 21
-3395.9999999999959
 31
0.0
1001
ACDBBLOCKREPETAG
1070
     1
1071
       24
1005
1298D2
  0
LINE
  5
1298D3
  8
OBJECT
 10
3070.0
 20
-3582.9999999999968
 30
0.0
 11
3064.9999999999991
 21
-3582.9999999999968
 31
0.0
1001
ACDBBLOCKREPETAG
1070
     1
1071
       28
1005
1298D3
  0
LINE
  5
1298D4
  8
OBJECT
 10
2935.0
 20
-3582.9999999999968
 30
0.0
 11
2930.0
 21
-3582.9999999999968
 31
0.0
1001
ACDBBLOCKREPETAG
1070
     1
1071
      116
1005
1298D4
  0
ARC
  5
1298D5
  8
OBJECT
 10
3435.0384389946771
 20
-3823.608136846824
 30
0.0
 40
519.48776673616965
 50
135.42350667431441
 51
138.50052655621499
1001
ACDBBLOCKREPETAG
1070
     1
1071
       32
1005
1298D5
  0
ARC
  5
1298D6
  8
OBJECT
 10
3435.0384389946771
 20
-3218.3918631531678
 30
0.0
 40
519.48776673616965
 50
221.49947344378501
 51
224.57649332568559
1001
ACDBBLOCKREPETAG
1070
     1
1071
       33
1005
1298D6
  0
ARC
  5
1298D7
  8
OBJECT
 10
2564.961561005322
 20
-3823.608136846824
 30
0.0
 40
519.48776673616965
 50
41.499473443784993
 51
44.576493325685597
1001
ACDBBLOCKREPETAG
1070
     1
1071
       34
1005
1298D7
  0
ARC
  5
1298D8
  8
OBJECT
 10
2564.961561005322
 20
-3218.3918631531678
 30
0.0
 40
519.48776673616965
 50
315.42350667431441
 51
318.50052655621488
1001
ACDBBLOCKREPETAG
1070
     1
1071
       35
1005
1298D8
  0
POINT
  5
1298D9
  8
DOTS
 10
3000.0
 20
-3579.9999999999959
 30
0.0
1001
ACDBBLOCKREPETAG
1070
     1
1071
      111
1005
1298D9
  0
CIRCLE
  5
1298DA
  8
OBJECT
 10
3400.0
 20
-3527.9999999999968
 30
0.0
 40
35.5
1001
ACDBBLOCKREPETAG
1070
     1
1071
       10
1005
1298DA
  0
CIRCLE
  5
1298DB
  8
OBJECT
 10
3400.0
 20
-3520.9999999999968
 30
0.0
 40
62.0
1001
ACDBBLOCKREPETAG
1070
     1
1071
       11
1005
1298DB
  0
LINE
  5
1298DC
  8
CENTER
 10
3330.0
 20
-3527.9999999999968
 30
0.0
 11
3470.0
 21
-3527.9999999999968
 31
0.0
1001
ACDBBLOCKREPETAG
1070
     1
1071
       12
1005
1298DC
  0
CIRCLE
  5
1298DD
  8
OBJECT
 10
3400.0
 20
-3527.9999999999968
 30
0.0
 40
47.0
1001
ACDBBLOCKREPETAG
1070
     1
1071
       14
1005
1298DD
  0
ARC
  5
1298DE
  8
OBJECT
 10
3400.0
 20
-3527.9999999999968
 30
0.0
 40
55.0
 50
289.01126526011359
 51
250.98873473988641
1001
ACDBBLOCKREPETAG
1070
     1
1071
       15
1005
1298DE
  0
LINE
  5
1298DF
  8
OBJECT
 10
3382.0835271328328
 20
-3579.9999999999968
 30
0.0
 11
3417.9164728671681
 21
-3579.9999999999968
 31
0.0
1001
ACDBBLOCKREPETAG
1070
     1
1071
       16
1005
1298DF
  0
LINE
  5
1298E0
  8
OBJECT
 10
3123.0
 20
-3472.9999999999968
 30
0.0
 11
3130.0
 21
-3472.9999999999968
 31
0.0
1001
ACDBBLOCKREPETAG
1070
     1
1071
       26
1005
1298E0
  0
LINE
  5
1298E1
  8
OBJECT
 10
3130.0
 20
-3472.9999999999968
 30
0.0
 11
3130.0
 21
-3579.9999999999968
 31
0.0
1001
ACDBBLOCKREPETAG
1070
     1
1071
       27
1005
1298E1
  0
LINE
  5
1298E2
  8
OBJECT
 10
3123.0
 20
-3579.9999999999968
 30
0.0
 11
3123.0
 21
-3472.9999999999968
 31
0.0
1001
ACDBBLOCKREPETAG
1070
     1
1071
       28
1005
1298E2
  0
LINE
  5
1298E3
  8
CENTER
 10
3145.0
 20
-3527.9999999999968
 30
0.0
 11
3061.0
 21
-3527.9999999999968
 31
0.0
1001
ACDBBLOCKREPETAG
1070
     1
1071
       29
1005
1298E3
  0
LINE
  5
1298E4
  8
OBJECT
 10
3123.0
 20
-3475.9999999999968
 30
0.0
 11
3087.0
 21
-3475.9999999999968
 31
0.0
1001
ACDBBLOCKREPETAG
1070
     1
1071
       30
1005
1298E4
  0
LINE
  5
1298E5
  8
OBJECT
 10
3087.0
 20
-3475.9999999999968
 30
0.0
 11
3087.0
 21
-3579.9999999999968
 31
0.0
1001
ACDBBLOCKREPETAG
1070
     1
1071
       31
1005
1298E5
  0
LINE
  5
1298E6
  8
OBJECT
 10
3087.0
 20
-3579.9999999999968
 30
0.0
 11
3130.0
 21
-3579.9999999999968
 31
0.0
1001
ACDBBLOCKREPETAG
1070
     1
1071
       32
1005
1298E6
  0
LINE
  5
1298E7
  8
OBJECT
 10
3083.0
 20
-3480.4999999999968
 30
0.0
 11
3076.0
 21
-3480.4999999999968
 31
0.0
1001
ACDBBLOCKREPETAG
1070
     1
1071
       33
1005
1298E7
  0
LINE
  5
1298E8
  8
OBJECT
 10
3076.0
 20
-3575.4999999999968
 30
0.0
 11
3083.0
 21
-3575.4999999999968
 31
0.0
1001
ACDBBLOCKREPETAG
1070
     1
1071
       34
1005
1298E8
  0
LINE
  5
1298E9
  8
OBJECT
 10
3083.0
 20
-3575.4999999999968
 30
0.0
 11
3083.0
 21
-3480.4999999999968
 31
0.0
1001
ACDBBLOCKREPETAG
1070
     1
1071
       35
1005
1298E9
  0
LINE
  5
1298EA
  8
OBJECT
 10
3087.0
 20
-3475.9999999999968
 30
0.0
 11
3083.0
 21
-3480.4999999999968
 31
0.0
1001
ACDBBLOCKREPETAG
1070
     1
1071
       36
1005
1298EA
  0
LINE
  5
1298EB
  8
OBJECT
 10
3087.0
 20
-3579.9999999999968
 30
0.0
 11
3083.0
 21
-3575.4999999999968
 31
0.0
1001
ACDBBLOCKREPETAG
1070
     1
1071
       37
1005
1298EB
  0
LINE
  5
1298EC
  8
OBJECT
 10
3073.0
 20
-3458.9999999999968
 30
0.0
 11
3070.0
 21
-3458.9999999999968
 31
0.0
1001
ACDBBLOCKREPETAG
1070
     1
1071
       38
1005
1298EC
  0
ARC
  5
1298ED
  8
OBJECT
 10
3073.0
 20
-3461.9999999999968
 30
0.0
 40
3.0
 50
0.0
 51
90.0
1001
ACDBBLOCKREPETAG
1070
     1
1071
       39
1005
1298ED
  0
LINE
  5
1298EE
  8
OBJECT
 10
3070.0
 20
-3582.9999999999968
 30
0.0
 11
3073.0
 21
-3582.9999999999968
 31
0.0
1001
ACDBBLOCKREPETAG
1070
     1
1071
       40
1005
1298EE
  0
ARC
  5
1298EF
  8
OBJECT
 10
3073.0
 20
-3579.9999999999968
 30
0.0
 40
3.0
 50
270.0
 51
0.0
1001
ACDBBLOCKREPETAG
1070
     1
1071
       41
1005
1298EF
  0
LINE
  5
1298F0
  8
OBJECT
 10
3076.0
 20
-3579.9999999999968
 30
0.0
 11
3076.0
 21
-3461.9999999999968
 31
0.0
1001
ACDBBLOCKREPETAG
1070
     1
1071
       42
1005
1298F0
  0
LINE
  5
1298F1
  8
HIDDEN
 10
3078.0
 20
-3489.9999999999968
 30
0.0
 11
3078.0
 21
-3565.9999999999968
 31
0.0
1001
ACDBBLOCKREPETAG
1070
     1
1071
       43
1005
1298F1
  0
LINE
  5
1298F2
  8
OBJECT
 10
2327.0
 20
-3458.9999999999959
 30
0.0
 11
2330.0
 21
-3458.9999999999959
 31
0.0
1001
ACDBBLOCKREPETAG
1070
     1
1071
        1
1005
1298F2
  0
ARC
  5
1298F3
  8
OBJECT
 10
2327.0
 20
-3461.9999999999959
 30
0.0
 40
3.0
 50
90.0
 51
180.0
1001
ACDBBLOCKREPETAG
1070
     1
1071
        2
1005
1298F3
  0
LINE
  5
1298F4
  8
OBJECT
 10
2330.0
 20
-3582.9999999999968
 30
0.0
 11
2327.0
 21
-3582.9999999999968
 31
0.0
1001
ACDBBLOCKREPETAG
1070
     1
1071
        3
1005
1298F4
  0
ARC
  5
1298F5
  8
OBJECT
 10
2327.0
 20
-3579.9999999999959
 30
0.0
 40
3.0
 50
180.0
 51
270.0
1001
ACDBBLOCKREPETAG
1070
     1
1071
        4
1005
1298F5
  0
LINE
  5
1298F6
  8
OBJECT
 10
2324.0
 20
-3579.9999999999959
 30
0.0
 11
2324.0
 21
-3461.9999999999959
 31
0.0
1001
ACDBBLOCKREPETAG
1070
     1
1071
        5
1005
1298F6
  0
LINE
  5
1298F7
  8
OBJECT
 10
2334.9999999999991
 20
-3374.9999999999959
 30
0.0
 11
2334.9999999999991
 21
-3395.9999999999959
 31
0.0
1001
ACDBBLOCKREPETAG
1070
     1
1071
       36
1005
1298F7
  0
LINE
  5
1298F8
  8
OBJECT
 10
2334.9999999999991
 20
-3395.9999999999959
 30
0.0
 11
2465.0
 21
-3395.9999999999959
 31
0.0
1001
ACDBBLOCKREPETAG
1070
     1
1071
       37
1005
1298F8
  0
LINE
  5
1298F9
  8
OBJECT
 10
2465.0
 20
-3395.9999999999959
 30
0.0
 11
2465.0
 21
-3374.9999999999959
 31
0.0
1001
ACDBBLOCKREPETAG
1070
     1
1071
       38
1005
1298F9
  0
LINE
  5
1298FA
  8
OBJECT
 10
2465.0
 20
-3374.9999999999959
 30
0.0
 11
2334.9999999999991
 21
-3374.9999999999959
 31
0.0
1001
ACDBBLOCKREPETAG
1070
     1
1071
       39
1005
1298FA
  0
LINE
  5
1298FB
  8
HIDDEN
 10
2444.5
 20
-3444.9999999999959
 30
0.0
 11
2355.5
 21
-3444.9999999999959
 31
0.0
1001
ACDBBLOCKREPETAG
1070
     1
1071
       40
1005
1298FB
  0
LINE
  5
1298FC
  8
CENTER
 10
2400.0
 20
-3594.9999999999959
 30
0.0
 11
2400.0
 21
-3359.9999999999959
 31
0.0
1001
ACDBBLOCKREPETAG
1070
     1
1071
       41
1005
1298FC
  0
LINE
  5
1298FD
  8
OBJECT
 10
2340.5
 20
-3395.9999999999959
 30
0.0
 11
2340.5
 21
-3458.9999999999959
 31
0.0
1001
ACDBBLOCKREPETAG
1070
     1
1071
       42
1005
1298FD
  0
LINE
  5
1298FE
  8
OBJECT
 10
2330.0
 20
-3458.9999999999959
 30
0.0
 11
2465.0000101378168
 21
-3458.9999999999959
 31
0.0
1001
ACDBBLOCKREPETAG
1070
     1
1071
       43
1005
1298FE
  0
LINE
  5
1298FF
  8
OBJECT
 10
2459.5
 20
-3458.9999999999959
 30
0.0
 11
2459.5
 21
-3395.9999999999959
 31
0.0
1001
ACDBBLOCKREPETAG
1070
     1
1071
       44
1005
1298FF
  0
LINE
  5
129900
  8
OBJECT
 10
2335.0
 20
-3582.9999999999968
 30
0.0
 11
2330.0
 21
-3582.9999999999968
 31
0.0
1001
ACDBBLOCKREPETAG
1070
     1
1071
       48
1005
129900
  0
LINE
  5
129901
  8
OBJECT
 10
2465.0000101378168
 20
-3583.0000021659139
 30
0.0
 11
2465.0000101378168
 21
-3458.9999999999959
 31
0.0
1001
ACDBBLOCKREPETAG
1070
     1
1071
       51
1005
129901
  0
ARC
  5
129902
  8
OBJECT
 10
1964.961561005322
 20
-3823.608136846824
 30
0.0
 40
519.48776673616965
 50
41.499473443784993
 51
44.576493325685597
1001
ACDBBLOCKREPETAG
1070
     1
1071
       52
1005
129902
  0
ARC
  5
129903
  8
OBJECT
 10
1964.961561005322
 20
-3218.3918631531678
 30
0.0
 40
519.48776673616965
 50
315.42350667431441
 51
318.50052655621488
1001
ACDBBLOCKREPETAG
1070
     1
1071
       53
1005
129903
  0
POINT
  5
129904
  8
DOTS
 10
2400.0
 20
-3579.9999999999959
 30
0.0
1001
ACDBBLOCKREPETAG
1070
     1
1071
      112
1005
129904
  0
LINE
  5
129905
  8
OBJECT
 10
1927.0
 20
-3458.9999999999959
 30
0.0
 11
1929.9999999999991
 21
-3458.9999999999959
 31
0.0
1001
ACDBBLOCKREPETAG
1070
     1
1071
        1
1005
129905
  0
ARC
  5
129906
  8
OBJECT
 10
1927.0
 20
-3461.9999999999959
 30
0.0
 40
3.0
 50
90.0
 51
180.0
1001
ACDBBLOCKREPETAG
1070
     1
1071
        2
1005
129906
  0
LINE
  5
129907
  8
OBJECT
 10
1929.9999999999991
 20
-3582.9999999999968
 30
0.0
 11
1927.0
 21
-3582.9999999999968
 31
0.0
1001
ACDBBLOCKREPETAG
1070
     1
1071
        3
1005
129907
  0
ARC
  5
129908
  8
OBJECT
 10
1927.0
 20
-3579.9999999999959
 30
0.0
 40
3.0
 50
180.0
 51
270.0
1001
ACDBBLOCKREPETAG
1070
     1
1071
        4
1005
129908
  0
LINE
  5
129909
  8
OBJECT
 10
1924.0
 20
-3579.9999999999959
 30
0.0
 11
1924.0
 21
-3461.9999999999959
 31
0.0
1001
ACDBBLOCKREPETAG
1070
     1
1071
        5
1005
129909
  0
CIRCLE
  5
12990A
  8
OBJECT
 10
2000.0
 20
-3520.9999999999968
 30
0.0
 40
62.0
1001
ACDBBLOCKREPETAG
1070
     1
1071
        0
1005
12990A
  0
LINE
  5
12990B
  8
OBJECT
 10
1934.9999999999991
 20
-3374.9999999999959
 30
0.0
 11
1934.9999999999991
 21
-3395.9999999999959
 31
0.0
1001
ACDBBLOCKREPETAG
1070
     1
1071
       16
1005
12990B
  0
LINE
  5
12990C
  8
OBJECT
 10
1934.9999999999991
 20
-3395.9999999999959
 30
0.0
 11
2064.9999999999991
 21
-3395.9999999999959
 31
0.0
1001
ACDBBLOCKREPETAG
1070
     1
1071
       17
1005
12990C
  0
LINE
  5
12990D
  8
OBJECT
 10
2064.9999999999991
 20
-3395.9999999999959
 30
0.0
 11
2064.9999999999991
 21
-3374.9999999999959
 31
0.0
1001
ACDBBLOCKREPETAG
1070
     1
1071
       18
1005
12990D
  0
LINE
  5
12990E
  8
OBJECT
 10
2064.9999999999991
 20
-3374.9999999999959
 30
0.0
 11
1934.9999999999991
 21
-3374.9999999999959
 31
0.0
1001
ACDBBLOCKREPETAG
1070
     1
1071
       19
1005
12990E
  0
LINE
  5
12990F
  8
HIDDEN
 10
2044.5
 20
-3444.9999999999959
 30
0.0
 11
1955.4999999999991
 21
-3444.9999999999959
 31
0.0
1001
ACDBBLOCKREPETAG
1070
     1
1071
       20
1005
12990F
  0
LINE
  5
129910
  8
CENTER
 10
2000.0
 20
-3594.9999999999959
 30
0.0
 11
2000.0
 21
-3359.9999999999959
 31
0.0
1001
ACDBBLOCKREPETAG
1070
     1
1071
       21
1005
129910
  0
LINE
  5
129911
  8
OBJECT
 10
1940.5
 20
-3395.9999999999959
 30
0.0
 11
1940.5
 21
-3458.9999999999959
 31
0.0
1001
ACDBBLOCKREPETAG
1070
     1
1071
       22
1005
129911
  0
LINE
  5
129912
  8
OBJECT
 10
1929.9999999999991
 20
-3458.9999999999959
 30
0.0
 11
2070.0
 21
-3458.9999999999959
 31
0.0
1001
ACDBBLOCKREPETAG
1070
     1
1071
       23
1005
129912
  0
LINE
  5
129913
  8
OBJECT
 10
2059.4999999999991
 20
-3458.9999999999959
 30
0.0
 11
2059.4999999999991
 21
-3395.9999999999959
 31
0.0
1001
ACDBBLOCKREPETAG
1070
     1
1071
       24
1005
129913
  0
LINE
  5
129914
  8
OBJECT
 10
2070.0
 20
-3582.9999999999968
 30
0.0
 11
2064.9999999999991
 21
-3582.9999999999968
 31
0.0
1001
ACDBBLOCKREPETAG
1070
     1
1071
       28
1005
129914
  0
LINE
  5
129915
  8
OBJECT
 10
1935.0
 20
-3582.9999999999968
 30
0.0
 11
1929.9999999999991
 21
-3582.9999999999968
 31
0.0
1001
ACDBBLOCKREPETAG
1070
     1
1071
      116
1005
129915
  0
ARC
  5
129916
  8
OBJECT
 10
2435.0384389946771
 20
-3823.608136846824
 30
0.0
 40
519.48776673616965
 50
135.42350667432351
 51
138.50052655621499
1001
ACDBBLOCKREPETAG
1070
     1
1071
       32
1005
129916
  0
ARC
  5
129917
  8
OBJECT
 10
2435.0384389946771
 20
-3218.3918631531678
 30
0.0
 40
519.48776673616965
 50
221.49947344378501
 51
224.57649332567649
1001
ACDBBLOCKREPETAG
1070
     1
1071
       33
1005
129917
  0
ARC
  5
129918
  8
OBJECT
 10
1564.961561005322
 20
-3823.608136846824
 30
0.0
 40
519.48776673616965
 50
41.499473443784993
 51
44.576493325676452
1001
ACDBBLOCKREPETAG
1070
     1
1071
       34
1005
129918
  0
ARC
  5
129919
  8
OBJECT
 10
1564.961561005322
 20
-3218.3918631531678
 30
0.0
 40
519.48776673616965
 50
315.42350667432362
 51
318.50052655621488
1001
ACDBBLOCKREPETAG
1070
     1
1071
       35
1005
129919
  0
POINT
  5
12991A
  8
DOTS
 10
2000.0
 20
-3579.9999999999959
 30
0.0
1001
ACDBBLOCKREPETAG
1070
     1
1071
      111
1005
12991A
  0
LINE
  5
12991B
  8
DIM
 10
2140.0
 20
-3221.9999999999959
 30
0.0
 11
2218.4796205944581
 21
-3221.9999999999959
 31
0.0
  0
LINE
  5
12991C
  8
DIM
 10
2140.0
 20
-3127.9999999999959
 30
0.0
 11
2218.4796205944581
 21
-3127.9999999999959
 31
0.0
  0
LINE
  5
12991D
  8
DIM
 10
2208.4796205944581
 20
-3201.9999999999959
 30
0.0
 11
2208.4796205944581
 21
-3147.9999999999959
 31
0.0
  0
INSERT
  5
12991E
  8
DIM
  2
_OPEN30
 10
2208.4796205944581
 20
-3221.9999999999959
 30
0.0
 41
20.0
 42
20.0
 43
20.0
 50
270.0
  0
INSERT
  5
12991F
  8
DIM
  2
_OPEN30
 10
2208.4796205944581
 20
-3127.9999999999959
 30
0.0
 41
20.0
 42
20.0
 43
20.0
 50
90.0
  0
INSERT
  5
129920
  8
OBJECT
  2
*U9
 10
0.0
 20
0.0
 30
0.0
  0
LINE
  5
129921
  8
DIM
 10
2140.0
 20
-3579.9999999999968
 30
0.0
 11
2216.840928403733
 21
-3579.9999999999968
 31
0.0
  0
LINE
  5
129922
  8
DIM
 10
2155.0
 20
-3535.9999999999968
 30
0.0
 11
2216.840928403733
 21
-3535.9999999999968
 31
0.0
  0
LINE
  5
129923
  8
DIM
 10
2206.840928403733
 20
-3599.9999999999968
 30
0.0
 11
2206.840928403733
 21
-3619.9999999999968
 31
0.0
  0
LINE
  5
129924
  8
DIM
 10
2206.840928403733
 20
-3515.9999999999968
 30
0.0
 11
2206.840928403733
 21
-3495.9999999999968
 31
0.0
  0
LINE
  5
129925
  8
DIM
 10
2206.840928403733
 20
-3579.9999999999968
 30
0.0
 11
2206.840928403733
 21
-3535.9999999999968
 31
0.0
  0
INSERT
  5
129926
  8
DIM
  2
_OPEN30
 10
2206.840928403733
 20
-3579.9999999999968
 30
0.0
 41
20.0
 42
20.0
 43
20.0
 50
90.0
  0
INSERT
  5
129927
  8
DIM
  2
_OPEN30
 10
2206.840928403733
 20
-3535.9999999999968
 30
0.0
 41
20.0
 42
20.0
 43
20.0
 50
270.0
  0
INSERT
  5
129928
  8
OBJECT
  2
*U10
 10
0.0
 20
0.0
 30
0.0
  0
LINE
  5
129929
  8
DIM
 10
2000.0
 20
-3079.9999999999959
 30
0.0
 11
2000.0
 21
-3047.208121984444
 31
0.0
  0
LINE
  5
12992A
  8
DIM
 10
2130.0
 20
-3117.9999999999959
 30
0.0
 11
2130.0
 21
-3047.208121984444
 31
0.0
  0
LINE
  5
12992B
  8
DIM
 10
2020.0
 20
-3057.208121984444
 30
0.0
 11
2109.9999999999991
 21
-3057.208121984444
 31
0.0
  0
INSERT
  5
12992C
  8
DIM
  2
_OPEN30
 10
2000.0
 20
-3057.208121984444
 30
0.0
 41
20.0
 42
20.0
 43
20.0
 50
180.0
  0
INSERT
  5
12992D
  8
DIM
  2
_OPEN30
 10
2130.0
 20
-3057.208121984444
 30
0.0
 41
20.0
 42
20.0
 43
20.0
  0
INSERT
  5
12992E
  8
OBJECT
  2
*U11
 10
0.0
 20
0.0
 30
0.0
  0
TEXT
  5
12992F
  8
SLIM
 10
2631.0
 20
-2952.50001604727
 30
0.0
 40
40.0
  1
C寸法
 41
0.75
  0
TEXT
  5
129930
  8
SLIM
 10
2631.0
 20
-2882.50001604727
 30
0.0
 40
40.0
  1
B寸法
 41
0.75
  0
TEXT
  5
129931
  8
SLIM
 10
2630.2857142857142
 20
-2812.50001604727
 30
0.0
 40
40.0
  1
A寸法
 41
0.75
  0
TEXT
  5
129932
  8
SLIM
 10
2769.2857142857151
 20
-2952.50001604727
 30
0.0
 40
40.0
  1
130
 41
0.75
  0
TEXT
  5
129933
  8
SLIM
 10
2899.2857142857151
 20
-2952.50001604727
 30
0.0
 40
40.0
  1
130
 41
0.75
  0
TEXT
  5
129934
  8
SLIM
 10
2780.0
 20
-2882.50001604727
 30
0.0
 40
40.0
  1
44
 41
0.75
  0
TEXT
  5
129935
  8
SLIM
 10
2910.7142857142858
 20
-2882.50001604727
 30
0.0
 40
40.0
  1
52
 41
0.75
  0
TEXT
  5
129936
  8
SLIM
 10
2766.0
 20
-2687.50001604727
 30
0.0
 40
40.0
  1
横枝管サイズ
 41
0.75
  0
TEXT
  5
129937
  8
SLIM
 10
2884.8571428571431
 20
-2742.50001604727
 30
0.0
 40
30.0
  1
65（2）
 41
0.75
  0
TEXT
  5
129938
  8
SLIM
 10
2757.0
 20
-2742.50001604727
 30
0.0
 40
30.0
  1
50（1）
 41
0.75
  0
TEXT
  5
129939
  8
SLIM
 10
2780.0
 20
-2812.50001604727
 30
0.0
 40
40.0
  1
94
 41
0.75
  0
TEXT
  5
12993A
  8
SLIM
 10
2902.1428571428569
 20
-2812.50001604727
 30
0.0
 40
40.0
  1
110
 41
0.75
  0
TEXT
  5
12993B
  8
SLIM
 10
1849.9999999999991
 20
-2712.5
 30
0.0
 40
75.0
  1
枝管サイズ毎の形状
 41
0.75
  0
TEXT
  5
12993C
  8
SLIM
 10
2894.25
 20
-3697.4999999999959
 30
0.0
 40
35.0
  1
通常枝65（2）
 41
0.75
  0
CIRCLE
  5
12993D
  8
OBJECT
 10
2400.0
 20
-3520.9999999999968
 30
0.0
 40
62.0
1001
ACDBBLOCKREPETAG
1070
     1
1071
        3
1005
12993D
  0
LINE
  5
12993E
  8
CENTER
 10
2338.0
 20
-3535.9999999999968
 30
0.0
 11
2462.0
 21
-3535.9999999999968
 31
0.0
1001
ACDBBLOCKREPETAG
1070
     1
1071
        4
1005
12993E
  0
CIRCLE
  5
12993F
  8
OBJECT
 10
2400.0
 20
-3535.9999999999968
 30
0.0
 40
28.0
1001
ACDBBLOCKREPETAG
1070
     1
1071
        6
1005
12993F
  0
CIRCLE
  5
129940
  8
OBJECT
 10
2400.0
 20
-3535.9999999999968
 30
0.0
 40
39.0
1001
ACDBBLOCKREPETAG
1070
     1
1071
        7
1005
129940
  0
ARC
  5
129941
  8
OBJECT
 10
2400.0
 20
-3535.9999999999968
 30
0.0
 40
47.0
 50
290.58196921144412
 51
249.41803078855591
1001
ACDBBLOCKREPETAG
1070
     1
1071
        8
1005
129941
  0
LINE
  5
129942
  8
OBJECT
 10
2383.4772883581431
 20
-3579.9999999999968
 30
0.0
 11
2416.5227116418569
 21
-3579.9999999999968
 31
0.0
1001
ACDBBLOCKREPETAG
1070
     1
1071
        9
1005
129942
  0
LINE
  5
129943
  8
OBJECT
 10
2123.0
 20
-3488.9999999999968
 30
0.0
 11
2130.0
 21
-3488.9999999999968
 31
0.0
1001
ACDBBLOCKREPETAG
1070
     1
1071
        7
1005
129943
  0
LINE
  5
129944
  8
OBJECT
 10
2130.0
 20
-3488.9999999999968
 30
0.0
 11
2130.0
 21
-3579.9999999999968
 31
0.0
1001
ACDBBLOCKREPETAG
1070
     1
1071
        8
1005
129944
  0
LINE
  5
129945
  8
OBJECT
 10
2123.0
 20
-3579.9999999999968
 30
0.0
 11
2123.0
 21
-3488.9999999999968
 31
0.0
1001
ACDBBLOCKREPETAG
1070
     1
1071
        9
1005
129945
  0
LINE
  5
129946
  8
CENTER
 10
2145.0
 20
-3535.9999999999968
 30
0.0
 11
2060.9999999999991
 21
-3535.9999999999968
 31
0.0
1001
ACDBBLOCKREPETAG
1070
     1
1071
       10
1005
129946
  0
LINE
  5
129947
  8
OBJECT
 10
2123.0
 20
-3491.9999999999968
 30
0.0
 11
2087.0
 21
-3491.9999999999968
 31
0.0
1001
ACDBBLOCKREPETAG
1070
     1
1071
       11
1005
129947
  0
LINE
  5
129948
  8
OBJECT
 10
2087.0
 20
-3491.9999999999968
 30
0.0
 11
2087.0
 21
-3579.9999999999968
 31
0.0
1001
ACDBBLOCKREPETAG
1070
     1
1071
       12
1005
129948
  0
LINE
  5
129949
  8
OBJECT
 10
2087.0
 20
-3579.9999999999968
 30
0.0
 11
2130.0
 21
-3579.9999999999968
 31
0.0
1001
ACDBBLOCKREPETAG
1070
     1
1071
       13
1005
129949
  0
LINE
  5
12994A
  8
OBJECT
 10
2083.0
 20
-3496.4999999999968
 30
0.0
 11
2076.0
 21
-3496.4999999999968
 31
0.0
1001
ACDBBLOCKREPETAG
1070
     1
1071
       14
1005
12994A
  0
LINE
  5
12994B
  8
OBJECT
 10
2076.0
 20
-3575.4999999999968
 30
0.0
 11
2083.0
 21
-3575.4999999999968
 31
0.0
1001
ACDBBLOCKREPETAG
1070
     1
1071
       15
1005
12994B
  0
LINE
  5
12994C
  8
OBJECT
 10
2083.0
 20
-3575.4999999999968
 30
0.0
 11
2083.0
 21
-3496.4999999999968
 31
0.0
1001
ACDBBLOCKREPETAG
1070
     1
1071
       16
1005
12994C
  0
LINE
  5
12994D
  8
OBJECT
 10
2087.0
 20
-3491.9999999999968
 30
0.0
 11
2083.0
 21
-3496.4999999999968
 31
0.0
1001
ACDBBLOCKREPETAG
1070
     1
1071
       17
1005
12994D
  0
LINE
  5
12994E
  8
OBJECT
 10
2087.0
 20
-3579.9999999999968
 30
0.0
 11
2083.0
 21
-3575.4999999999968
 31
0.0
1001
ACDBBLOCKREPETAG
1070
     1
1071
       18
1005
12994E
  0
LINE
  5
12994F
  8
OBJECT
 10
2073.0
 20
-3458.9999999999968
 30
0.0
 11
2070.0
 21
-3458.9999999999968
 31
0.0
1001
ACDBBLOCKREPETAG
1070
     1
1071
       19
1005
12994F
  0
ARC
  5
129950
  8
OBJECT
 10
2073.0
 20
-3461.9999999999968
 30
0.0
 40
3.0
 50
0.0
 51
90.0
1001
ACDBBLOCKREPETAG
1070
     1
1071
       20
1005
129950
  0
LINE
  5
129951
  8
OBJECT
 10
2070.0
 20
-3582.9999999999968
 30
0.0
 11
2073.0
 21
-3582.9999999999968
 31
0.0
1001
ACDBBLOCKREPETAG
1070
     1
1071
       21
1005
129951
  0
ARC
  5
129952
  8
OBJECT
 10
2073.0
 20
-3579.9999999999968
 30
0.0
 40
3.0
 50
270.0
 51
0.0
1001
ACDBBLOCKREPETAG
1070
     1
1071
       22
1005
129952
  0
LINE
  5
129953
  8
OBJECT
 10
2076.0
 20
-3579.9999999999968
 30
0.0
 11
2076.0
 21
-3461.9999999999968
 31
0.0
1001
ACDBBLOCKREPETAG
1070
     1
1071
       23
1005
129953
  0
LINE
  5
129954
  8
HIDDEN
 10
2078.0
 20
-3505.9999999999968
 30
0.0
 11
2078.0
 21
-3565.9999999999968
 31
0.0
1001
ACDBBLOCKREPETAG
1070
     1
1071
       24
1005
129954
  0
TEXT
  5
129955
  8
SLIM
 10
1896.75
 20
-3697.4999999999959
 30
0.0
 40
35.0
  1
通常枝50（1）
 41
0.75
  0
LINE
  5
129956
  8
OBJECT
 10
11877.0
 20
-663.99999999999966
 30
0.0
 11
11870.0
 21
-663.99999999999966
 31
0.0
1001
ACDBBLOCKREPETAG
1070
     1
1071
        7
1005
129956
  0
LINE
  5
129957
  8
OBJECT
 10
11870.0
 20
-663.99999999999966
 30
0.0
 11
11870.0
 21
-754.99999999999955
 31
0.0
1001
ACDBBLOCKREPETAG
1070
     1
1071
        8
1005
129957
  0
LINE
  5
129958
  8
OBJECT
 10
11877.0
 20
-754.99999999999955
 30
0.0
 11
11877.0
 21
-663.99999999999966
 31
0.0
1001
ACDBBLOCKREPETAG
1070
     1
1071
        9
1005
129958
  0
LINE
  5
129959
  8
CENTER
 10
11855.0
 20
-710.99999999999955
 30
0.0
 11
11939.0
 21
-710.99999999999955
 31
0.0
1001
ACDBBLOCKREPETAG
1070
     1
1071
       10
1005
129959
  0
LINE
  5
12995A
  8
OBJECT
 10
11877.0
 20
-666.99999999999955
 30
0.0
 11
11913.0
 21
-666.99999999999955
 31
0.0
1001
ACDBBLOCKREPETAG
1070
     1
1071
       11
1005
12995A
  0
LINE
  5
12995B
  8
OBJECT
 10
11913.0
 20
-666.99999999999955
 30
0.0
 11
11913.0
 21
-754.99999999999955
 31
0.0
1001
ACDBBLOCKREPETAG
1070
     1
1071
       12
1005
12995B
  0
LINE
  5
12995C
  8
OBJECT
 10
11913.0
 20
-754.99999999999955
 30
0.0
 11
11870.0
 21
-754.99999999999955
 31
0.0
1001
ACDBBLOCKREPETAG
1070
     1
1071
       13
1005
12995C
  0
LINE
  5
12995D
  8
OBJECT
 10
11917.0
 20
-671.49999999999955
 30
0.0
 11
11924.0
 21
-671.49999999999955
 31
0.0
1001
ACDBBLOCKREPETAG
1070
     1
1071
       14
1005
12995D
  0
LINE
  5
12995E
  8
OBJECT
 10
11924.0
 20
-750.49999999999955
 30
0.0
 11
11917.0
 21
-750.49999999999955
 31
0.0
1001
ACDBBLOCKREPETAG
1070
     1
1071
       15
1005
12995E
  0
LINE
  5
12995F
  8
OBJECT
 10
11917.0
 20
-750.49999999999955
 30
0.0
 11
11917.0
 21
-671.49999999999955
 31
0.0
1001
ACDBBLOCKREPETAG
1070
     1
1071
       16
1005
12995F
  0
LINE
  5
129960
  8
OBJECT
 10
11913.0
 20
-666.99999999999955
 30
0.0
 11
11917.0
 21
-671.49999999999955
 31
0.0
1001
ACDBBLOCKREPETAG
1070
     1
1071
       17
1005
129960
  0
LINE
  5
129961
  8
OBJECT
 10
11913.0
 20
-754.99999999999955
 30
0.0
 11
11917.0
 21
-750.49999999999955
 31
0.0
1001
ACDBBLOCKREPETAG
1070
     1
1071
       18
1005
129961
  0
LINE
  5
129962
  8
OBJECT
 10
11927.0
 20
-633.99999999999955
 30
0.0
 11
11930.0
 21
-633.99999999999955
 31
0.0
1001
ACDBBLOCKREPETAG
1070
     1
1071
       19
1005
129962
  0
ARC
  5
129963
  8
OBJECT
 10
11927.0
 20
-636.99999999999955
 30
0.0
 40
3.0
 50
90.0
 51
180.0
1001
ACDBBLOCKREPETAG
1070
     1
1071
       20
1005
129963
  0
LINE
  5
129964
  8
OBJECT
 10
11930.0
 20
-757.99999999999955
 30
0.0
 11
11927.0
 21
-757.99999999999955
 31
0.0
1001
ACDBBLOCKREPETAG
1070
     1
1071
       21
1005
129964
  0
ARC
  5
129965
  8
OBJECT
 10
11927.0
 20
-754.99999999999955
 30
0.0
 40
3.0
 50
180.0
 51
270.0
1001
ACDBBLOCKREPETAG
1070
     1
1071
       22
1005
129965
  0
LINE
  5
129966
  8
OBJECT
 10
11924.0
 20
-754.99999999999955
 30
0.0
 11
11924.0
 21
-636.99999999999955
 31
0.0
1001
ACDBBLOCKREPETAG
1070
     1
1071
       23
1005
129966
  0
LINE
  5
129967
  8
HIDDEN
 10
11922.0
 20
-680.99999999999955
 30
0.0
 11
11922.0
 21
-740.99999999999955
 31
0.0
1001
ACDBBLOCKREPETAG
1070
     1
1071
       24
1005
129967
  0
CIRCLE
  5
129968
  8
OBJECT
 10
12000.0
 20
-696.0
 30
0.0
 40
62.0
1001
ACDBBLOCKREPETAG
1070
     1
1071
        0
1005
129968
  0
LINE
  5
129969
  8
OBJECT
 10
11935.0
 20
-549.99999999999955
 30
0.0
 11
11935.0
 21
-570.99999999999955
 31
0.0
1001
ACDBBLOCKREPETAG
1070
     1
1071
       16
1005
129969
  0
LINE
  5
12996A
  8
OBJECT
 10
11935.0
 20
-570.99999999999955
 30
0.0
 11
12065.0
 21
-570.99999999999955
 31
0.0
1001
ACDBBLOCKREPETAG
1070
     1
1071
       17
1005
12996A
  0
LINE
  5
12996B
  8
OBJECT
 10
12065.0
 20
-570.99999999999955
 30
0.0
 11
12065.0
 21
-549.99999999999955
 31
0.0
1001
ACDBBLOCKREPETAG
1070
     1
1071
       18
1005
12996B
  0
LINE
  5
12996C
  8
OBJECT
 10
12065.0
 20
-549.99999999999955
 30
0.0
 11
11935.0
 21
-549.99999999999955
 31
0.0
1001
ACDBBLOCKREPETAG
1070
     1
1071
       19
1005
12996C
  0
LINE
  5
12996D
  8
HIDDEN
 10
12044.5
 20
-619.99999999999955
 30
0.0
 11
11955.5
 21
-619.99999999999955
 31
0.0
1001
ACDBBLOCKREPETAG
1070
     1
1071
       20
1005
12996D
  0
LINE
  5
12996E
  8
CENTER
 10
12000.0
 20
-769.99999999999955
 30
0.0
 11
12000.0
 21
-534.99999999999955
 31
0.0
1001
ACDBBLOCKREPETAG
1070
     1
1071
       21
1005
12996E
  0
LINE
  5
12996F
  8
OBJECT
 10
11940.5
 20
-570.99999999999955
 30
0.0
 11
11940.5
 21
-633.99999999999955
 31
0.0
1001
ACDBBLOCKREPETAG
1070
     1
1071
       22
1005
12996F
  0
LINE
  5
129970
  8
OBJECT
 10
11930.0
 20
-633.99999999999955
 30
0.0
 11
12070.0
 21
-633.99999999999955
 31
0.0
1001
ACDBBLOCKREPETAG
1070
     1
1071
       23
1005
129970
  0
LINE
  5
129971
  8
OBJECT
 10
12059.5
 20
-633.99999999999955
 30
0.0
 11
12059.5
 21
-570.99999999999955
 31
0.0
1001
ACDBBLOCKREPETAG
1070
     1
1071
       24
1005
129971
  0
LINE
  5
129972
  8
OBJECT
 10
11930.0
 20
-757.99999999999955
 30
0.0
 11
11930.0
 21
-769.99999999999955
 31
0.0
1001
ACDBBLOCKREPETAG
1070
     1
1071
       25
1005
129972
  0
LINE
  5
129973
  8
OBJECT
 10
11930.0
 20
-769.99999999999955
 30
0.0
 11
12070.0
 21
-769.99999999999955
 31
0.0
1001
ACDBBLOCKREPETAG
1070
     1
1071
       26
1005
129973
  0
LINE
  5
129974
  8
OBJECT
 10
12070.0
 20
-769.99999999999955
 30
0.0
 11
12070.0
 21
-757.99999999999955
 31
0.0
1001
ACDBBLOCKREPETAG
1070
     1
1071
       27
1005
129974
  0
LINE
  5
129975
  8
OBJECT
 10
12070.0
 20
-757.99999999999955
 30
0.0
 11
11930.0
 21
-757.99999999999955
 31
0.0
1001
ACDBBLOCKREPETAG
1070
     1
1071
       28
1005
129975
  0
ARC
  5
129976
  8
OBJECT
 10
12435.038438994679
 20
-998.60813684682694
 30
0.0
 40
519.48776673616965
 50
135.42350667430969
 51
138.50052655621499
1001
ACDBBLOCKREPETAG
1070
     1
1071
       32
1005
129976
  0
ARC
  5
129977
  8
OBJECT
 10
12435.038438994679
 20
-393.39186315317193
 30
0.0
 40
519.48776673616965
 50
221.49947344378501
 51
224.57649332569039
1001
ACDBBLOCKREPETAG
1070
     1
1071
       33
1005
129977
  0
ARC
  5
129978
  8
OBJECT
 10
11564.961561005321
 20
-998.60813684682694
 30
0.0
 40
519.48776673616965
 50
41.499473443784993
 51
44.576493325690237
1001
ACDBBLOCKREPETAG
1070
     1
1071
       34
1005
129978
  0
ARC
  5
129979
  8
OBJECT
 10
11564.961561005321
 20
-393.39186315317193
 30
0.0
 40
519.48776673616965
 50
315.42350667430981
 51
318.50052655621488
1001
ACDBBLOCKREPETAG
1070
     1
1071
       35
1005
129979
  0
POINT
  5
12997A
  8
DOTS
 10
12000.0
 20
-754.99999999999955
 30
0.0
1001
ACDBBLOCKREPETAG
1070
     1
1071
      111
1005
12997A
  0
LINE
  5
12997B
  8
OBJECT
 10
11877.0
 20
-246.99999999999909
 30
0.0
 11
11870.0
 21
-246.99999999999909
 31
0.0
1001
ACDBBLOCKREPETAG
1070
     1
1071
        7
1005
12997B
  0
LINE
  5
12997C
  8
OBJECT
 10
11870.0
 20
-246.99999999999909
 30
0.0
 11
11870.0
 21
-152.99999999999909
 31
0.0
1001
ACDBBLOCKREPETAG
1070
     1
1071
        8
1005
12997C
  0
LINE
  5
12997D
  8
OBJECT
 10
11870.0
 20
-152.99999999999909
 30
0.0
 11
11877.0
 21
-152.99999999999909
 31
0.0
1001
ACDBBLOCKREPETAG
1070
     1
1071
        9
1005
12997D
  0
LINE
  5
12997E
  8
OBJECT
 10
11877.0
 20
-152.99999999999909
 30
0.0
 11
11877.0
 21
-246.99999999999909
 31
0.0
1001
ACDBBLOCKREPETAG
1070
     1
1071
       10
1005
12997E
  0
LINE
  5
12997F
  8
CENTER
 10
11855.0
 20
-199.99999999999909
 30
0.0
 11
11930.0
 21
-199.99999999999909
 31
0.0
1001
ACDBBLOCKREPETAG
1070
     1
1071
       11
1005
12997F
  0
LINE
  5
129980
  8
OBJECT
 10
11877.0
 20
-243.99999999999909
 30
0.0
 11
11913.0
 21
-243.99999999999909
 31
0.0
1001
ACDBBLOCKREPETAG
1070
     1
1071
       12
1005
129980
  0
LINE
  5
129981
  8
OBJECT
 10
11913.0
 20
-243.99999999999909
 30
0.0
 11
11913.0
 21
-155.99999999999909
 31
0.0
1001
ACDBBLOCKREPETAG
1070
     1
1071
       13
1005
129981
  0
LINE
  5
129982
  8
OBJECT
 10
11913.0
 20
-155.99999999999909
 30
0.0
 11
11877.0
 21
-155.99999999999909
 31
0.0
1001
ACDBBLOCKREPETAG
1070
     1
1071
       14
1005
129982
  0
LINE
  5
129983
  8
OBJECT
 10
11917.0
 20
-239.49999999999909
 30
0.0
 11
11924.0
 21
-239.49999999999909
 31
0.0
1001
ACDBBLOCKREPETAG
1070
     1
1071
       15
1005
129983
  0
LINE
  5
129984
  8
OBJECT
 10
11924.0
 20
-160.49999999999909
 30
0.0
 11
11917.0
 21
-160.49999999999909
 31
0.0
1001
ACDBBLOCKREPETAG
1070
     1
1071
       16
1005
129984
  0
LINE
  5
129985
  8
OBJECT
 10
11917.0
 20
-160.49999999999909
 30
0.0
 11
11917.0
 21
-239.49999999999909
 31
0.0
1001
ACDBBLOCKREPETAG
1070
     1
1071
       17
1005
129985
  0
LINE
  5
129986
  8
OBJECT
 10
11913.0
 20
-243.99999999999909
 30
0.0
 11
11917.0
 21
-239.49999999999909
 31
0.0
1001
ACDBBLOCKREPETAG
1070
     1
1071
       18
1005
129986
  0
LINE
  5
129987
  8
OBJECT
 10
11913.0
 20
-155.99999999999909
 30
0.0
 11
11917.0
 21
-160.49999999999909
 31
0.0
1001
ACDBBLOCKREPETAG
1070
     1
1071
       19
1005
129987
  0
LINE
  5
129988
  8
OBJECT
 10
11927.0
 20
-261.99999999999909
 30
0.0
 11
11930.0
 21
-261.99999999999909
 31
0.0
1001
ACDBBLOCKREPETAG
1070
     1
1071
       20
1005
129988
  0
ARC
  5
129989
  8
OBJECT
 10
11927.0
 20
-258.99999999999909
 30
0.0
 40
3.0
 50
180.0
 51
270.0
1001
ACDBBLOCKREPETAG
1070
     1
1071
       21
1005
129989
  0
LINE
  5
12998A
  8
OBJECT
 10
11930.0
 20
-137.99999999999909
 30
0.0
 11
11927.0
 21
-137.99999999999909
 31
0.0
1001
ACDBBLOCKREPETAG
1070
     1
1071
       22
1005
12998A
  0
ARC
  5
12998B
  8
OBJECT
 10
11927.0
 20
-140.99999999999909
 30
0.0
 40
3.0
 50
90.0
 51
180.0
1001
ACDBBLOCKREPETAG
1070
     1
1071
       23
1005
12998B
  0
LINE
  5
12998C
  8
OBJECT
 10
11924.0
 20
-140.99999999999909
 30
0.0
 11
11924.0
 21
-258.99999999999909
 31
0.0
1001
ACDBBLOCKREPETAG
1070
     1
1071
       24
1005
12998C
  0
LINE
  5
12998D
  8
HIDDEN
 10
11922.0
 20
-229.99999999999909
 30
0.0
 11
11922.0
 21
-169.99999999999909
 31
0.0
1001
ACDBBLOCKREPETAG
1070
     1
1071
       25
1005
12998D
  0
LINE
  5
12998E
  8
CENTER
 10
12000.0
 20
-290.99999999999898
 30
0.0
 11
12000.0
 21
-269.99999999999909
 31
0.0
1001
ACDBBLOCKREPETAG
1070
     1
1071
        0
1005
12998E
  0
LINE
  5
12998F
  8
OBJECT
 10
12062.0
 20
-273.0
 30
0.0
 11
12062.0
 21
-269.99999999999909
 31
0.0
1001
ACDBBLOCKREPETAG
1070
     1
1071
        1
1005
12998F
  0
ARC
  5
129990
  8
OBJECT
 10
12059.0
 20
-273.0
 30
0.0
 40
3.0
 50
270.0
 51
0.0
1001
ACDBBLOCKREPETAG
1070
     1
1071
        2
1005
129990
  0
LINE
  5
129991
  8
OBJECT
 10
11938.0
 20
-269.99999999999909
 30
0.0
 11
11938.0
 21
-272.99999999999818
 31
0.0
1001
ACDBBLOCKREPETAG
1070
     1
1071
        3
1005
129991
  0
ARC
  5
129992
  8
OBJECT
 10
11941.0
 20
-272.99999999999818
 30
0.0
 40
3.0
 50
180.0
 51
270.0
1001
ACDBBLOCKREPETAG
1070
     1
1071
        4
1005
129992
  0
LINE
  5
129993
  8
OBJECT
 10
11941.0
 20
-275.99999999999818
 30
0.0
 11
12059.0
 21
-276.0
 31
0.0
1001
ACDBBLOCKREPETAG
1070
     1
1071
        5
1005
129993
  0
LINE
  5
129994
  8
SLIM
 10
11963.217182668241
 20
-137.99999999999909
 30
0.0
 11
11969.921507996291
 21
-131.29567467194681
 31
0.0
1001
GRADIENTCOLOR1ACI
1070
     5
1001
GRADIENTCOLOR2ACI
1070
     2
1001
ACAD
1010
0.0
1020
0.0
1030
0.0
1001
ACDBBLOCKREPETAG
1070
     1
1071
      169
1005
129994
  0
LINE
  5
129995
  8
SLIM
 10
11972.19743878931
 20
-137.99999999999909
 30
0.0
 11
11983.31883633275
 21
-126.87860245655401
 31
0.0
1001
GRADIENTCOLOR1ACI
1070
     5
1001
GRADIENTCOLOR2ACI
1070
     2
1001
ACAD
1010
0.0
1020
0.0
1030
0.0
1001
ACDBBLOCKREPETAG
1070
     1
1071
      170
1005
129995
  0
LINE
  5
129996
  8
SLIM
 10
11981.48493728876
 20
-137.6927576216126
 30
0.0
 11
11993.9318052486
 21
-125.245889661777
 31
0.0
1001
GRADIENTCOLOR1ACI
1070
     5
1001
GRADIENTCOLOR2ACI
1070
     2
1001
ACAD
1010
0.0
1020
0.0
1030
0.0
1001
ACDBBLOCKREPETAG
1070
     1
1071
      171
1005
129996
  0
LINE
  5
129997
  8
SLIM
 10
11992.75265682803
 20
-135.40529420341099
 30
0.0
 11
12000.0
 21
-128.1579510314458
 31
0.0
1001
GRADIENTCOLOR1ACI
1070
     5
1001
GRADIENTCOLOR2ACI
1070
     2
1001
ACAD
1010
0.0
1020
0.0
1030
0.0
1001
ACDBBLOCKREPETAG
1070
     1
1071
      172
1005
129997
  0
LINE
  5
129998
  8
SLIM
 10
12000.0
 20
-128.1579510314458
 30
0.0
 11
12003.094100787839
 21
-125.0638502435924
 31
0.0
1001
GRADIENTCOLOR1ACI
1070
     5
1001
GRADIENTCOLOR2ACI
1070
     2
1001
ACAD
1010
0.0
1020
0.0
1030
0.0
1001
ACDBBLOCKREPETAG
1070
     1
1071
      173
1005
129998
  0
LINE
  5
129999
  8
SLIM
 10
12002.10414122347
 20
-135.03406592904389
 30
0.0
 11
12011.28442576865
 21
-125.85378138386341
 31
0.0
1001
GRADIENTCOLOR1ACI
1070
     5
1001
GRADIENTCOLOR2ACI
1070
     2
1001
ACAD
1010
0.0
1020
0.0
1030
0.0
1001
ACDBBLOCKREPETAG
1070
     1
1071
      174
1005
129999
  0
LINE
  5
12999A
  8
SLIM
 10
12010.297585520921
 20
-135.82087775265759
 30
0.0
 11
12018.73958846552
 21
-127.3788748080627
 31
0.0
1001
GRADIENTCOLOR1ACI
1070
     5
1001
GRADIENTCOLOR2ACI
1070
     2
1001
ACAD
1010
0.0
1020
0.0
1030
0.0
1001
ACDBBLOCKREPETAG
1070
     1
1071
      175
1005
12999A
  0
LINE
  5
12999B
  8
SLIM
 10
12017.655079364229
 20
-137.4436400304258
 30
0.0
 11
12025.595886626959
 21
-129.50283276769261
 31
0.0
1001
GRADIENTCOLOR1ACI
1070
     5
1001
GRADIENTCOLOR2ACI
1070
     2
1001
ACAD
1010
0.0
1020
0.0
1030
0.0
1001
ACDBBLOCKREPETAG
1070
     1
1071
      176
1005
12999B
  0
LINE
  5
12999C
  8
SLIM
 10
12026.07897551572
 20
-137.99999999999909
 30
0.0
 11
12031.9385859461
 21
-132.1403895696169
 31
0.0
1001
GRADIENTCOLOR1ACI
1070
     5
1001
GRADIENTCOLOR2ACI
1070
     2
1001
ACAD
1010
0.0
1020
0.0
1030
0.0
1001
ACDBBLOCKREPETAG
1070
     1
1071
      177
1005
12999C
  0
LINE
  5
12999D
  8
SLIM
 10
12035.059231636789
 20
-137.99999999999909
 30
0.0
 11
12037.82336543762
 21
-135.23586619916779
 31
0.0
1001
GRADIENTCOLOR1ACI
1070
     5
1001
GRADIENTCOLOR2ACI
1070
     2
1001
ACAD
1010
0.0
1020
0.0
1030
0.0
1001
ACDBBLOCKREPETAG
1070
     1
1071
      178
1005
12999D
  0
CIRCLE
  5
12999E
  8
OBJECT
 10
12000.0
 20
-199.99999999999909
 30
0.0
 40
65.0
1001
ACDBBLOCKREPETAG
1070
     1
1071
       84
1005
12999E
  0
CIRCLE
  5
12999F
  8
OBJECT
 10
12000.0
 20
-199.99999999999909
 30
0.0
 40
41.0
1001
ACDBBLOCKREPETAG
1070
     1
1071
       85
1005
12999F
  0
CIRCLE
  5
1299A0
  8
OBJECT
 10
12000.0
 20
-199.99999999999909
 30
0.0
 40
58.0
1001
ACDBBLOCKREPETAG
1070
     1
1071
       86
1005
1299A0
  0
LINE
  5
1299A1
  8
OBJECT
 10
12070.0
 20
-137.99999999999909
 30
0.0
 11
12019.519221295939
 21
-137.99999999999909
 31
0.0
1001
ACDBBLOCKREPETAG
1070
     1
1071
       87
1005
1299A1
  0
LINE
  5
1299A2
  8
OBJECT
 10
11930.0
 20
-137.99999999999909
 30
0.0
 11
11980.48077870405
 21
-137.99999999999909
 31
0.0
1001
ACDBBLOCKREPETAG
1070
     1
1071
       88
1005
1299A2
  0
LINE
  5
1299A3
  8
OBJECT
 10
11930.0
 20
-261.99999999999909
 30
0.0
 11
11938.0
 21
-261.99999999999909
 31
0.0
1001
ACDBBLOCKREPETAG
1070
     1
1071
       89
1005
1299A3
  0
LINE
  5
1299A4
  8
OBJECT
 10
11938.0
 20
-269.99999999999909
 30
0.0
 11
11938.0
 21
-261.99999999999909
 31
0.0
1001
ACDBBLOCKREPETAG
1070
     1
1071
       90
1005
1299A4
  0
LINE
  5
1299A5
  8
OBJECT
 10
12070.0
 20
-261.99999999999909
 30
0.0
 11
12062.0
 21
-261.99999999999909
 31
0.0
1001
ACDBBLOCKREPETAG
1070
     1
1071
       91
1005
1299A5
  0
LINE
  5
1299A6
  8
OBJECT
 10
12062.0
 20
-269.99999999999909
 30
0.0
 11
12062.0
 21
-261.99999999999909
 31
0.0
1001
ACDBBLOCKREPETAG
1070
     1
1071
       92
1005
1299A6
  0
LINE
  5
1299A7
  8
CENTER
 10
11930.0
 20
-199.99999999999909
 30
0.0
 11
12070.0
 21
-199.99999999999909
 31
0.0
1001
ACDBBLOCKREPETAG
1070
     1
1071
       93
1005
1299A7
  0
LINE
  5
1299A8
  8
CENTER
 10
12000.0
 20
-269.99999999999909
 30
0.0
 11
12000.0
 21
-109.9999999999991
 31
0.0
1001
ACDBBLOCKREPETAG
1070
     1
1071
       94
1005
1299A8
  0
ARC
  5
1299A9
  8
OBJECT
 10
11989.902762139191
 20
-224.44352901899131
 30
0.0
 40
7.0
 50
73.00127222950276
 51
154.0502587892864
1001
ACDBBLOCKREPETAG
1070
     1
1071
       95
1005
1299A9
  0
ARC
  5
1299AA
  8
OBJECT
 10
11986.837661070649
 20
-225.5978773169509
 30
0.0
 40
9.0
 50
73.00127222950276
 51
154.0502639259247
1001
ACDBBLOCKREPETAG
1070
     1
1071
       96
1005
1299AA
  0
ARC
  5
1299AB
  8
OBJECT
 10
11896.314230131549
 20
-147.28130031148149
 30
0.0
 40
150.0
 50
322.8950337398245
 51
325.8931499695608
1001
ACDBBLOCKREPETAG
1070
     1
1071
       97
1005
1299AB
  0
ARC
  5
1299AC
  8
OBJECT
 10
12000.0
 20
-199.99999999999909
 30
0.0
 40
37.5
 50
303.16276667665232
 51
229.16350249104781
1001
ACDBBLOCKREPETAG
1070
     1
1071
       98
1005
1299AC
  0
LINE
  5
1299AD
  8
OBJECT
 10
11983.608514518981
 20
-221.38045100897119
 30
0.0
 11
11977.374011
 21
-234.1915870000002
 31
0.0
1001
ACDBBLOCKREPETAG
1070
     1
1071
       99
1005
1299AD
  0
LINE
  5
1299AE
  8
OBJECT
 10
11978.74505663446
 20
-221.65963488670511
 30
0.0
 11
11973.898671999999
 21
-231.6183599999996
 31
0.0
1001
ACDBBLOCKREPETAG
1070
     1
1071
      100
1005
1299AE
  0
LINE
  5
1299AF
  8
OBJECT
 10
12018.938018000001
 20
-226.00000000000091
 30
0.0
 11
11989.468815303249
 21
-216.99107608744359
 31
0.0
1001
ACDBBLOCKREPETAG
1070
     1
1071
      101
1005
1299AF
  0
LINE
  5
1299B0
  8
OBJECT
 10
12020.513225309
 20
-231.39199878029191
 30
0.0
 11
12018.938018000001
 21
-226.00000000000091
 31
0.0
1001
ACDBBLOCKREPETAG
1070
     1
1071
      102
1005
1299B0
  0
LINE
  5
1299B1
  8
OBJECT
 10
11954.03805922287
 20
-245.96194077712289
 30
0.0
 11
11938.0
 21
-261.99999999999909
 31
0.0
1001
ACDBBLOCKREPETAG
1070
     1
1071
      106
1005
1299B1
  0
LINE
  5
1299B2
  8
OBJECT
 10
12045.96194077713
 20
-245.96194077712289
 30
0.0
 11
12062.0
 21
-261.99999999999909
 31
0.0
1001
ACDBBLOCKREPETAG
1070
     1
1071
      107
1005
1299B2
  0
ARC
  5
1299B3
  8
OBJECT
 10
12000.0
 20
-199.99999999999909
 30
0.0
 40
75.0
 50
55.757831297238091
 51
124.2421687027619
1001
ACDBBLOCKREPETAG
1070
     1
1071
      108
1005
1299B3
  0
POINT
  5
1299B4
  8
DOTS
 10
12000.0
 20
-199.99999999999909
 30
0.0
 50
270.0
1001
ACDBBLOCKREPETAG
1070
     1
1071
      157
1005
1299B4
  0
LINE
  5
1299B5
  8
OBJECT
 10
12123.0
 20
-663.99999999999966
 30
0.0
 11
12130.0
 21
-663.99999999999966
 31
0.0
1001
ACDBBLOCKREPETAG
1070
     1
1071
        7
1005
1299B5
  0
LINE
  5
1299B6
  8
OBJECT
 10
12130.0
 20
-663.99999999999966
 30
0.0
 11
12130.0
 21
-754.99999999999955
 31
0.0
1001
ACDBBLOCKREPETAG
1070
     1
1071
        8
1005
1299B6
  0
LINE
  5
1299B7
  8
OBJECT
 10
12123.0
 20
-754.99999999999955
 30
0.0
 11
12123.0
 21
-663.99999999999966
 31
0.0
1001
ACDBBLOCKREPETAG
1070
     1
1071
        9
1005
1299B7
  0
LINE
  5
1299B8
  8
CENTER
 10
12145.0
 20
-710.99999999999955
 30
0.0
 11
12061.0
 21
-710.99999999999955
 31
0.0
1001
ACDBBLOCKREPETAG
1070
     1
1071
       10
1005
1299B8
  0
LINE
  5
1299B9
  8
OBJECT
 10
12123.0
 20
-666.99999999999955
 30
0.0
 11
12087.0
 21
-666.99999999999955
 31
0.0
1001
ACDBBLOCKREPETAG
1070
     1
1071
       11
1005
1299B9
  0
LINE
  5
1299BA
  8
OBJECT
 10
12087.0
 20
-666.99999999999955
 30
0.0
 11
12087.0
 21
-754.99999999999955
 31
0.0
1001
ACDBBLOCKREPETAG
1070
     1
1071
       12
1005
1299BA
  0
LINE
  5
1299BB
  8
OBJECT
 10
12087.0
 20
-754.99999999999955
 30
0.0
 11
12130.0
 21
-754.99999999999955
 31
0.0
1001
ACDBBLOCKREPETAG
1070
     1
1071
       13
1005
1299BB
  0
LINE
  5
1299BC
  8
OBJECT
 10
12083.0
 20
-671.49999999999955
 30
0.0
 11
12076.0
 21
-671.49999999999955
 31
0.0
1001
ACDBBLOCKREPETAG
1070
     1
1071
       14
1005
1299BC
  0
LINE
  5
1299BD
  8
OBJECT
 10
12076.0
 20
-750.49999999999955
 30
0.0
 11
12083.0
 21
-750.49999999999955
 31
0.0
1001
ACDBBLOCKREPETAG
1070
     1
1071
       15
1005
1299BD
  0
LINE
  5
1299BE
  8
OBJECT
 10
12083.0
 20
-750.49999999999955
 30
0.0
 11
12083.0
 21
-671.49999999999955
 31
0.0
1001
ACDBBLOCKREPETAG
1070
     1
1071
       16
1005
1299BE
  0
LINE
  5
1299BF
  8
OBJECT
 10
12087.0
 20
-666.99999999999955
 30
0.0
 11
12083.0
 21
-671.49999999999955
 31
0.0
1001
ACDBBLOCKREPETAG
1070
     1
1071
       17
1005
1299BF
  0
LINE
  5
1299C0
  8
OBJECT
 10
12087.0
 20
-754.99999999999955
 30
0.0
 11
12083.0
 21
-750.49999999999955
 31
0.0
1001
ACDBBLOCKREPETAG
1070
     1
1071
       18
1005
1299C0
  0
LINE
  5
1299C1
  8
OBJECT
 10
12073.0
 20
-633.99999999999955
 30
0.0
 11
12070.0
 21
-633.99999999999955
 31
0.0
1001
ACDBBLOCKREPETAG
1070
     1
1071
       19
1005
1299C1
  0
ARC
  5
1299C2
  8
OBJECT
 10
12073.0
 20
-636.99999999999955
 30
0.0
 40
3.0
 50
0.0
 51
90.0
1001
ACDBBLOCKREPETAG
1070
     1
1071
       20
1005
1299C2
  0
LINE
  5
1299C3
  8
OBJECT
 10
12070.0
 20
-757.99999999999955
 30
0.0
 11
12073.0
 21
-757.99999999999955
 31
0.0
1001
ACDBBLOCKREPETAG
1070
     1
1071
       21
1005
1299C3
  0
ARC
  5
1299C4
  8
OBJECT
 10
12073.0
 20
-754.99999999999955
 30
0.0
 40
3.0
 50
270.0
 51
0.0
1001
ACDBBLOCKREPETAG
1070
     1
1071
       22
1005
1299C4
  0
LINE
  5
1299C5
  8
OBJECT
 10
12076.0
 20
-754.99999999999955
 30
0.0
 11
12076.0
 21
-636.99999999999955
 31
0.0
1001
ACDBBLOCKREPETAG
1070
     1
1071
       23
1005
1299C5
  0
LINE
  5
1299C6
  8
HIDDEN
 10
12078.0
 20
-680.99999999999955
 30
0.0
 11
12078.0
 21
-740.99999999999955
 31
0.0
1001
ACDBBLOCKREPETAG
1070
     1
1071
       24
1005
1299C6
  0
LINE
  5
1299C7
  8
OBJECT
 10
12123.0
 20
-152.99999999999909
 30
0.0
 11
12130.0
 21
-152.99999999999909
 31
0.0
1001
ACDBBLOCKREPETAG
1070
     1
1071
        7
1005
1299C7
  0
LINE
  5
1299C8
  8
OBJECT
 10
12130.0
 20
-152.99999999999909
 30
0.0
 11
12130.0
 21
-246.99999999999909
 31
0.0
1001
ACDBBLOCKREPETAG
1070
     1
1071
        8
1005
1299C8
  0
LINE
  5
1299C9
  8
OBJECT
 10
12130.0
 20
-246.99999999999909
 30
0.0
 11
12123.0
 21
-246.99999999999909
 31
0.0
1001
ACDBBLOCKREPETAG
1070
     1
1071
        9
1005
1299C9
  0
LINE
  5
1299CA
  8
OBJECT
 10
12123.0
 20
-246.99999999999909
 30
0.0
 11
12123.0
 21
-152.99999999999909
 31
0.0
1001
ACDBBLOCKREPETAG
1070
     1
1071
       10
1005
1299CA
  0
LINE
  5
1299CB
  8
CENTER
 10
12145.0
 20
-199.99999999999909
 30
0.0
 11
12070.0
 21
-199.99999999999909
 31
0.0
1001
ACDBBLOCKREPETAG
1070
     1
1071
       11
1005
1299CB
  0
LINE
  5
1299CC
  8
OBJECT
 10
12123.0
 20
-155.99999999999909
 30
0.0
 11
12087.0
 21
-155.99999999999909
 31
0.0
1001
ACDBBLOCKREPETAG
1070
     1
1071
       12
1005
1299CC
  0
LINE
  5
1299CD
  8
OBJECT
 10
12087.0
 20
-155.99999999999909
 30
0.0
 11
12087.0
 21
-243.99999999999909
 31
0.0
1001
ACDBBLOCKREPETAG
1070
     1
1071
       13
1005
1299CD
  0
LINE
  5
1299CE
  8
OBJECT
 10
12087.0
 20
-243.99999999999909
 30
0.0
 11
12123.0
 21
-243.99999999999909
 31
0.0
1001
ACDBBLOCKREPETAG
1070
     1
1071
       14
1005
1299CE
  0
LINE
  5
1299CF
  8
OBJECT
 10
12083.0
 20
-160.49999999999909
 30
0.0
 11
12076.0
 21
-160.49999999999909
 31
0.0
1001
ACDBBLOCKREPETAG
1070
     1
1071
       15
1005
1299CF
  0
LINE
  5
1299D0
  8
OBJECT
 10
12076.0
 20
-239.49999999999909
 30
0.0
 11
12083.0
 21
-239.49999999999909
 31
0.0
1001
ACDBBLOCKREPETAG
1070
     1
1071
       16
1005
1299D0
  0
LINE
  5
1299D1
  8
OBJECT
 10
12083.0
 20
-239.49999999999909
 30
0.0
 11
12083.0
 21
-160.49999999999909
 31
0.0
1001
ACDBBLOCKREPETAG
1070
     1
1071
       17
1005
1299D1
  0
LINE
  5
1299D2
  8
OBJECT
 10
12087.0
 20
-155.99999999999909
 30
0.0
 11
12083.0
 21
-160.49999999999909
 31
0.0
1001
ACDBBLOCKREPETAG
1070
     1
1071
       18
1005
1299D2
  0
LINE
  5
1299D3
  8
OBJECT
 10
12087.0
 20
-243.99999999999909
 30
0.0
 11
12083.0
 21
-239.49999999999909
 31
0.0
1001
ACDBBLOCKREPETAG
1070
     1
1071
       19
1005
1299D3
  0
LINE
  5
1299D4
  8
OBJECT
 10
12073.0
 20
-137.99999999999909
 30
0.0
 11
12070.0
 21
-137.99999999999909
 31
0.0
1001
ACDBBLOCKREPETAG
1070
     1
1071
       20
1005
1299D4
  0
ARC
  5
1299D5
  8
OBJECT
 10
12073.0
 20
-140.99999999999909
 30
0.0
 40
3.0
 50
0.0
 51
90.0
1001
ACDBBLOCKREPETAG
1070
     1
1071
       21
1005
1299D5
  0
LINE
  5
1299D6
  8
OBJECT
 10
12070.0
 20
-261.99999999999909
 30
0.0
 11
12073.0
 21
-261.99999999999909
 31
0.0
1001
ACDBBLOCKREPETAG
1070
     1
1071
       22
1005
1299D6
  0
ARC
  5
1299D7
  8
OBJECT
 10
12073.0
 20
-258.99999999999909
 30
0.0
 40
3.0
 50
270.0
 51
0.0
1001
ACDBBLOCKREPETAG
1070
     1
1071
       23
1005
1299D7
  0
LINE
  5
1299D8
  8
OBJECT
 10
12076.0
 20
-258.99999999999909
 30
0.0
 11
12076.0
 21
-140.99999999999909
 31
0.0
1001
ACDBBLOCKREPETAG
1070
     1
1071
       24
1005
1299D8
  0
LINE
  5
1299D9
  8
HIDDEN
 10
12078.0
 20
-169.99999999999909
 30
0.0
 11
12078.0
 21
-229.99999999999909
 31
0.0
1001
ACDBBLOCKREPETAG
1070
     1
1071
       25
1005
1299D9
  0
LINE
  5
1299DA
  8
OBJECT
 10
9877.0
 20
-663.99999999999966
 30
0.0
 11
9870.0
 21
-663.99999999999966
 31
0.0
1001
ACDBBLOCKREPETAG
1070
     1
1071
        7
1005
1299DA
  0
LINE
  5
1299DB
  8
OBJECT
 10
9870.0
 20
-663.99999999999966
 30
0.0
 11
9870.0
 21
-754.99999999999955
 31
0.0
1001
ACDBBLOCKREPETAG
1070
     1
1071
        8
1005
1299DB
  0
LINE
  5
1299DC
  8
OBJECT
 10
9877.0
 20
-754.99999999999955
 30
0.0
 11
9877.0
 21
-663.99999999999966
 31
0.0
1001
ACDBBLOCKREPETAG
1070
     1
1071
        9
1005
1299DC
  0
LINE
  5
1299DD
  8
CENTER
 10
9855.0
 20
-710.99999999999955
 30
0.0
 11
9939.0
 21
-710.99999999999955
 31
0.0
1001
ACDBBLOCKREPETAG
1070
     1
1071
       10
1005
1299DD
  0
LINE
  5
1299DE
  8
OBJECT
 10
9877.0
 20
-666.99999999999955
 30
0.0
 11
9913.0
 21
-666.99999999999955
 31
0.0
1001
ACDBBLOCKREPETAG
1070
     1
1071
       11
1005
1299DE
  0
LINE
  5
1299DF
  8
OBJECT
 10
9913.0
 20
-666.99999999999955
 30
0.0
 11
9913.0
 21
-754.99999999999955
 31
0.0
1001
ACDBBLOCKREPETAG
1070
     1
1071
       12
1005
1299DF
  0
LINE
  5
1299E0
  8
OBJECT
 10
9913.0
 20
-754.99999999999955
 30
0.0
 11
9870.0
 21
-754.99999999999955
 31
0.0
1001
ACDBBLOCKREPETAG
1070
     1
1071
       13
1005
1299E0
  0
LINE
  5
1299E1
  8
OBJECT
 10
9917.0
 20
-671.49999999999955
 30
0.0
 11
9924.0
 21
-671.49999999999955
 31
0.0
1001
ACDBBLOCKREPETAG
1070
     1
1071
       14
1005
1299E1
  0
LINE
  5
1299E2
  8
OBJECT
 10
9924.0
 20
-750.49999999999955
 30
0.0
 11
9917.0
 21
-750.49999999999955
 31
0.0
1001
ACDBBLOCKREPETAG
1070
     1
1071
       15
1005
1299E2
  0
LINE
  5
1299E3
  8
OBJECT
 10
9917.0
 20
-750.49999999999955
 30
0.0
 11
9917.0
 21
-671.49999999999955
 31
0.0
1001
ACDBBLOCKREPETAG
1070
     1
1071
       16
1005
1299E3
  0
LINE
  5
1299E4
  8
OBJECT
 10
9913.0
 20
-666.99999999999955
 30
0.0
 11
9917.0
 21
-671.49999999999955
 31
0.0
1001
ACDBBLOCKREPETAG
1070
     1
1071
       17
1005
1299E4
  0
LINE
  5
1299E5
  8
OBJECT
 10
9913.0
 20
-754.99999999999955
 30
0.0
 11
9917.0
 21
-750.49999999999955
 31
0.0
1001
ACDBBLOCKREPETAG
1070
     1
1071
       18
1005
1299E5
  0
LINE
  5
1299E6
  8
OBJECT
 10
9927.0
 20
-633.99999999999955
 30
0.0
 11
9930.0
 21
-633.99999999999955
 31
0.0
1001
ACDBBLOCKREPETAG
1070
     1
1071
       19
1005
1299E6
  0
ARC
  5
1299E7
  8
OBJECT
 10
9927.0
 20
-636.99999999999955
 30
0.0
 40
3.0
 50
90.0
 51
180.0
1001
ACDBBLOCKREPETAG
1070
     1
1071
       20
1005
1299E7
  0
LINE
  5
1299E8
  8
OBJECT
 10
9930.0
 20
-757.99999999999955
 30
0.0
 11
9927.0
 21
-757.99999999999955
 31
0.0
1001
ACDBBLOCKREPETAG
1070
     1
1071
       21
1005
1299E8
  0
ARC
  5
1299E9
  8
OBJECT
 10
9927.0
 20
-754.99999999999955
 30
0.0
 40
3.0
 50
180.0
 51
270.0
1001
ACDBBLOCKREPETAG
1070
     1
1071
       22
1005
1299E9
  0
LINE
  5
1299EA
  8
OBJECT
 10
9924.0
 20
-754.99999999999955
 30
0.0
 11
9924.0
 21
-636.99999999999955
 31
0.0
1001
ACDBBLOCKREPETAG
1070
     1
1071
       23
1005
1299EA
  0
LINE
  5
1299EB
  8
HIDDEN
 10
9922.0
 20
-680.99999999999955
 30
0.0
 11
9922.0
 21
-740.99999999999955
 31
0.0
1001
ACDBBLOCKREPETAG
1070
     1
1071
       24
1005
1299EB
  0
CIRCLE
  5
1299EC
  8
OBJECT
 10
10000.0
 20
-696.0
 30
0.0
 40
62.0
1001
ACDBBLOCKREPETAG
1070
     1
1071
        0
1005
1299EC
  0
LINE
  5
1299ED
  8
OBJECT
 10
9935.0
 20
-549.99999999999955
 30
0.0
 11
9935.0
 21
-570.99999999999955
 31
0.0
1001
ACDBBLOCKREPETAG
1070
     1
1071
       16
1005
1299ED
  0
LINE
  5
1299EE
  8
OBJECT
 10
9935.0
 20
-570.99999999999955
 30
0.0
 11
10065.0
 21
-570.99999999999955
 31
0.0
1001
ACDBBLOCKREPETAG
1070
     1
1071
       17
1005
1299EE
  0
LINE
  5
1299EF
  8
OBJECT
 10
10065.0
 20
-570.99999999999955
 30
0.0
 11
10065.0
 21
-549.99999999999955
 31
0.0
1001
ACDBBLOCKREPETAG
1070
     1
1071
       18
1005
1299EF
  0
LINE
  5
1299F0
  8
OBJECT
 10
10065.0
 20
-549.99999999999955
 30
0.0
 11
9935.0
 21
-549.99999999999955
 31
0.0
1001
ACDBBLOCKREPETAG
1070
     1
1071
       19
1005
1299F0
  0
LINE
  5
1299F1
  8
HIDDEN
 10
10044.5
 20
-619.99999999999955
 30
0.0
 11
9955.5
 21
-619.99999999999955
 31
0.0
1001
ACDBBLOCKREPETAG
1070
     1
1071
       20
1005
1299F1
  0
LINE
  5
1299F2
  8
CENTER
 10
10000.0
 20
-769.99999999999955
 30
0.0
 11
10000.0
 21
-534.99999999999955
 31
0.0
1001
ACDBBLOCKREPETAG
1070
     1
1071
       21
1005
1299F2
  0
LINE
  5
1299F3
  8
OBJECT
 10
9940.5
 20
-570.99999999999955
 30
0.0
 11
9940.5
 21
-633.99999999999955
 31
0.0
1001
ACDBBLOCKREPETAG
1070
     1
1071
       22
1005
1299F3
  0
LINE
  5
1299F4
  8
OBJECT
 10
9930.0
 20
-633.99999999999955
 30
0.0
 11
10070.0
 21
-633.99999999999955
 31
0.0
1001
ACDBBLOCKREPETAG
1070
     1
1071
       23
1005
1299F4
  0
LINE
  5
1299F5
  8
OBJECT
 10
10059.5
 20
-633.99999999999955
 30
0.0
 11
10059.5
 21
-570.99999999999955
 31
0.0
1001
ACDBBLOCKREPETAG
1070
     1
1071
       24
1005
1299F5
  0
LINE
  5
1299F6
  8
OBJECT
 10
9930.0
 20
-757.99999999999955
 30
0.0
 11
9930.0
 21
-769.99999999999955
 31
0.0
1001
ACDBBLOCKREPETAG
1070
     1
1071
       25
1005
1299F6
  0
LINE
  5
1299F7
  8
OBJECT
 10
9930.0
 20
-769.99999999999955
 30
0.0
 11
10070.0
 21
-769.99999999999955
 31
0.0
1001
ACDBBLOCKREPETAG
1070
     1
1071
       26
1005
1299F7
  0
LINE
  5
1299F8
  8
OBJECT
 10
10070.0
 20
-769.99999999999955
 30
0.0
 11
10070.0
 21
-757.99999999999955
 31
0.0
1001
ACDBBLOCKREPETAG
1070
     1
1071
       27
1005
1299F8
  0
LINE
  5
1299F9
  8
OBJECT
 10
10070.0
 20
-757.99999999999955
 30
0.0
 11
9930.0
 21
-757.99999999999955
 31
0.0
1001
ACDBBLOCKREPETAG
1070
     1
1071
       28
1005
1299F9
  0
ARC
  5
1299FA
  8
OBJECT
 10
10435.03843899467
 20
-998.60813684682694
 30
0.0
 40
519.48776673616965
 50
135.42350667430969
 51
138.50052655621499
1001
ACDBBLOCKREPETAG
1070
     1
1071
       32
1005
1299FA
  0
ARC
  5
1299FB
  8
OBJECT
 10
10435.03843899467
 20
-393.39186315317193
 30
0.0
 40
519.48776673616965
 50
221.49947344378501
 51
224.57649332569039
1001
ACDBBLOCKREPETAG
1070
     1
1071
       33
1005
1299FB
  0
ARC
  5
1299FC
  8
OBJECT
 10
9564.9615610053243
 20
-998.60813684682694
 30
0.0
 40
519.48776673616965
 50
41.499473443784993
 51
44.576493325690237
1001
ACDBBLOCKREPETAG
1070
     1
1071
       34
1005
1299FC
  0
ARC
  5
1299FD
  8
OBJECT
 10
9564.9615610053243
 20
-393.39186315317193
 30
0.0
 40
519.48776673616965
 50
315.42350667430981
 51
318.50052655621488
1001
ACDBBLOCKREPETAG
1070
     1
1071
       35
1005
1299FD
  0
POINT
  5
1299FE
  8
DOTS
 10
10000.0
 20
-754.99999999999955
 30
0.0
1001
ACDBBLOCKREPETAG
1070
     1
1071
      111
1005
1299FE
  0
LINE
  5
1299FF
  8
OBJECT
 10
9877.0
 20
-246.99999999999909
 30
0.0
 11
9870.0
 21
-246.99999999999909
 31
0.0
1001
ACDBBLOCKREPETAG
1070
     1
1071
        7
1005
1299FF
  0
LINE
  5
129A00
  8
OBJECT
 10
9870.0
 20
-246.99999999999909
 30
0.0
 11
9870.0
 21
-152.99999999999909
 31
0.0
1001
ACDBBLOCKREPETAG
1070
     1
1071
        8
1005
129A00
  0
LINE
  5
129A01
  8
OBJECT
 10
9870.0
 20
-152.99999999999909
 30
0.0
 11
9877.0
 21
-152.99999999999909
 31
0.0
1001
ACDBBLOCKREPETAG
1070
     1
1071
        9
1005
129A01
  0
LINE
  5
129A02
  8
OBJECT
 10
9877.0
 20
-152.99999999999909
 30
0.0
 11
9877.0
 21
-246.99999999999909
 31
0.0
1001
ACDBBLOCKREPETAG
1070
     1
1071
       10
1005
129A02
  0
LINE
  5
129A03
  8
CENTER
 10
9855.0
 20
-199.99999999999909
 30
0.0
 11
9930.0
 21
-199.99999999999909
 31
0.0
1001
ACDBBLOCKREPETAG
1070
     1
1071
       11
1005
129A03
  0
LINE
  5
129A04
  8
OBJECT
 10
9877.0
 20
-243.99999999999909
 30
0.0
 11
9913.0
 21
-243.99999999999909
 31
0.0
1001
ACDBBLOCKREPETAG
1070
     1
1071
       12
1005
129A04
  0
LINE
  5
129A05
  8
OBJECT
 10
9913.0
 20
-243.99999999999909
 30
0.0
 11
9913.0
 21
-155.99999999999909
 31
0.0
1001
ACDBBLOCKREPETAG
1070
     1
1071
       13
1005
129A05
  0
LINE
  5
129A06
  8
OBJECT
 10
9913.0
 20
-155.99999999999909
 30
0.0
 11
9877.0
 21
-155.99999999999909
 31
0.0
1001
ACDBBLOCKREPETAG
1070
     1
1071
       14
1005
129A06
  0
LINE
  5
129A07
  8
OBJECT
 10
9917.0
 20
-239.49999999999909
 30
0.0
 11
9924.0
 21
-239.49999999999909
 31
0.0
1001
ACDBBLOCKREPETAG
1070
     1
1071
       15
1005
129A07
  0
LINE
  5
129A08
  8
OBJECT
 10
9924.0
 20
-160.49999999999909
 30
0.0
 11
9917.0
 21
-160.49999999999909
 31
0.0
1001
ACDBBLOCKREPETAG
1070
     1
1071
       16
1005
129A08
  0
LINE
  5
129A09
  8
OBJECT
 10
9917.0
 20
-160.49999999999909
 30
0.0
 11
9917.0
 21
-239.49999999999909
 31
0.0
1001
ACDBBLOCKREPETAG
1070
     1
1071
       17
1005
129A09
  0
LINE
  5
129A0A
  8
OBJECT
 10
9913.0
 20
-243.99999999999909
 30
0.0
 11
9917.0
 21
-239.49999999999909
 31
0.0
1001
ACDBBLOCKREPETAG
1070
     1
1071
       18
1005
129A0A
  0
LINE
  5
129A0B
  8
OBJECT
 10
9913.0
 20
-155.99999999999909
 30
0.0
 11
9917.0
 21
-160.49999999999909
 31
0.0
1001
ACDBBLOCKREPETAG
1070
     1
1071
       19
1005
129A0B
  0
LINE
  5
129A0C
  8
OBJECT
 10
9927.0
 20
-261.99999999999909
 30
0.0
 11
9930.0
 21
-261.99999999999909
 31
0.0
1001
ACDBBLOCKREPETAG
1070
     1
1071
       20
1005
129A0C
  0
ARC
  5
129A0D
  8
OBJECT
 10
9927.0
 20
-258.99999999999909
 30
0.0
 40
3.0
 50
180.0
 51
270.0
1001
ACDBBLOCKREPETAG
1070
     1
1071
       21
1005
129A0D
  0
LINE
  5
129A0E
  8
OBJECT
 10
9930.0
 20
-137.99999999999909
 30
0.0
 11
9927.0
 21
-137.99999999999909
 31
0.0
1001
ACDBBLOCKREPETAG
1070
     1
1071
       22
1005
129A0E
  0
ARC
  5
129A0F
  8
OBJECT
 10
9927.0
 20
-140.99999999999909
 30
0.0
 40
3.0
 50
90.0
 51
180.0
1001
ACDBBLOCKREPETAG
1070
     1
1071
       23
1005
129A0F
  0
LINE
  5
129A10
  8
OBJECT
 10
9924.0
 20
-140.99999999999909
 30
0.0
 11
9924.0
 21
-258.99999999999909
 31
0.0
1001
ACDBBLOCKREPETAG
1070
     1
1071
       24
1005
129A10
  0
LINE
  5
129A11
  8
HIDDEN
 10
9922.0
 20
-229.99999999999909
 30
0.0
 11
9922.0
 21
-169.99999999999909
 31
0.0
1001
ACDBBLOCKREPETAG
1070
     1
1071
       25
1005
129A11
  0
LINE
  5
129A12
  8
CENTER
 10
10000.0
 20
-290.99999999999898
 30
0.0
 11
10000.0
 21
-269.99999999999909
 31
0.0
1001
ACDBBLOCKREPETAG
1070
     1
1071
        0
1005
129A12
  0
LINE
  5
129A13
  8
OBJECT
 10
10062.0
 20
-273.0
 30
0.0
 11
10062.0
 21
-269.99999999999909
 31
0.0
1001
ACDBBLOCKREPETAG
1070
     1
1071
        1
1005
129A13
  0
ARC
  5
129A14
  8
OBJECT
 10
10059.0
 20
-273.0
 30
0.0
 40
3.0
 50
270.0
 51
0.0
1001
ACDBBLOCKREPETAG
1070
     1
1071
        2
1005
129A14
  0
LINE
  5
129A15
  8
OBJECT
 10
9938.0
 20
-269.99999999999909
 30
0.0
 11
9938.0
 21
-272.99999999999818
 31
0.0
1001
ACDBBLOCKREPETAG
1070
     1
1071
        3
1005
129A15
  0
ARC
  5
129A16
  8
OBJECT
 10
9941.0
 20
-272.99999999999818
 30
0.0
 40
3.0
 50
180.0
 51
270.0
1001
ACDBBLOCKREPETAG
1070
     1
1071
        4
1005
129A16
  0
LINE
  5
129A17
  8
OBJECT
 10
9941.0
 20
-275.99999999999818
 30
0.0
 11
10059.0
 21
-276.0
 31
0.0
1001
ACDBBLOCKREPETAG
1070
     1
1071
        5
1005
129A17
  0
LINE
  5
129A18
  8
SLIM
 10
9963.2171826682406
 20
-137.99999999999909
 30
0.0
 11
9969.9215079962923
 21
-131.29567467194681
 31
0.0
1001
GRADIENTCOLOR1ACI
1070
     5
1001
GRADIENTCOLOR2ACI
1070
     2
1001
ACAD
1010
0.0
1020
0.0
1030
0.0
1001
ACDBBLOCKREPETAG
1070
     1
1071
      169
1005
129A18
  0
LINE
  5
129A19
  8
SLIM
 10
9972.1974387893097
 20
-137.99999999999909
 30
0.0
 11
9983.3188363327517
 21
-126.87860245655401
 31
0.0
1001
GRADIENTCOLOR1ACI
1070
     5
1001
GRADIENTCOLOR2ACI
1070
     2
1001
ACAD
1010
0.0
1020
0.0
1030
0.0
1001
ACDBBLOCKREPETAG
1070
     1
1071
      170
1005
129A19
  0
LINE
  5
129A1A
  8
SLIM
 10
9981.4849372887638
 20
-137.6927576216126
 30
0.0
 11
9993.9318052485996
 21
-125.245889661777
 31
0.0
1001
GRADIENTCOLOR1ACI
1070
     5
1001
GRADIENTCOLOR2ACI
1070
     2
1001
ACAD
1010
0.0
1020
0.0
1030
0.0
1001
ACDBBLOCKREPETAG
1070
     1
1071
      171
1005
129A1A
  0
LINE
  5
129A1B
  8
SLIM
 10
9992.7526568280355
 20
-135.40529420341099
 30
0.0
 11
10000.0
 21
-128.1579510314458
 31
0.0
1001
GRADIENTCOLOR1ACI
1070
     5
1001
GRADIENTCOLOR2ACI
1070
     2
1001
ACAD
1010
0.0
1020
0.0
1030
0.0
1001
ACDBBLOCKREPETAG
1070
     1
1071
      172
1005
129A1B
  0
LINE
  5
129A1C
  8
SLIM
 10
10000.0
 20
-128.1579510314458
 30
0.0
 11
10003.09410078785
 21
-125.0638502435924
 31
0.0
1001
GRADIENTCOLOR1ACI
1070
     5
1001
GRADIENTCOLOR2ACI
1070
     2
1001
ACAD
1010
0.0
1020
0.0
1030
0.0
1001
ACDBBLOCKREPETAG
1070
     1
1071
      173
1005
129A1C
  0
LINE
  5
129A1D
  8
SLIM
 10
10002.10414122347
 20
-135.03406592904389
 30
0.0
 11
10011.28442576865
 21
-125.85378138386341
 31
0.0
1001
GRADIENTCOLOR1ACI
1070
     5
1001
GRADIENTCOLOR2ACI
1070
     2
1001
ACAD
1010
0.0
1020
0.0
1030
0.0
1001
ACDBBLOCKREPETAG
1070
     1
1071
      174
1005
129A1D
  0
LINE
  5
129A1E
  8
SLIM
 10
10010.297585520921
 20
-135.82087775265759
 30
0.0
 11
10018.73958846552
 21
-127.3788748080627
 31
0.0
1001
GRADIENTCOLOR1ACI
1070
     5
1001
GRADIENTCOLOR2ACI
1070
     2
1001
ACAD
1010
0.0
1020
0.0
1030
0.0
1001
ACDBBLOCKREPETAG
1070
     1
1071
      175
1005
129A1E
  0
LINE
  5
129A1F
  8
SLIM
 10
10017.65507936422
 20
-137.4436400304258
 30
0.0
 11
10025.595886626959
 21
-129.50283276769261
 31
0.0
1001
GRADIENTCOLOR1ACI
1070
     5
1001
GRADIENTCOLOR2ACI
1070
     2
1001
ACAD
1010
0.0
1020
0.0
1030
0.0
1001
ACDBBLOCKREPETAG
1070
     1
1071
      176
1005
129A1F
  0
LINE
  5
129A20
  8
SLIM
 10
10026.07897551572
 20
-137.99999999999909
 30
0.0
 11
10031.9385859461
 21
-132.1403895696169
 31
0.0
1001
GRADIENTCOLOR1ACI
1070
     5
1001
GRADIENTCOLOR2ACI
1070
     2
1001
ACAD
1010
0.0
1020
0.0
1030
0.0
1001
ACDBBLOCKREPETAG
1070
     1
1071
      177
1005
129A20
  0
LINE
  5
129A21
  8
SLIM
 10
10035.05923163678
 20
-137.99999999999909
 30
0.0
 11
10037.82336543762
 21
-135.23586619916779
 31
0.0
1001
GRADIENTCOLOR1ACI
1070
     5
1001
GRADIENTCOLOR2ACI
1070
     2
1001
ACAD
1010
0.0
1020
0.0
1030
0.0
1001
ACDBBLOCKREPETAG
1070
     1
1071
      178
1005
129A21
  0
CIRCLE
  5
129A22
  8
OBJECT
 10
10000.0
 20
-199.99999999999909
 30
0.0
 40
65.0
1001
ACDBBLOCKREPETAG
1070
     1
1071
       84
1005
129A22
  0
CIRCLE
  5
129A23
  8
OBJECT
 10
10000.0
 20
-199.99999999999909
 30
0.0
 40
41.0
1001
ACDBBLOCKREPETAG
1070
     1
1071
       85
1005
129A23
  0
CIRCLE
  5
129A24
  8
OBJECT
 10
10000.0
 20
-199.99999999999909
 30
0.0
 40
58.0
1001
ACDBBLOCKREPETAG
1070
     1
1071
       86
1005
129A24
  0
LINE
  5
129A25
  8
OBJECT
 10
10070.0
 20
-137.99999999999909
 30
0.0
 11
10019.519221295939
 21
-137.99999999999909
 31
0.0
1001
ACDBBLOCKREPETAG
1070
     1
1071
       87
1005
129A25
  0
LINE
  5
129A26
  8
OBJECT
 10
9930.0
 20
-137.99999999999909
 30
0.0
 11
9980.4807787040572
 21
-137.99999999999909
 31
0.0
1001
ACDBBLOCKREPETAG
1070
     1
1071
       88
1005
129A26
  0
LINE
  5
129A27
  8
OBJECT
 10
9930.0
 20
-261.99999999999909
 30
0.0
 11
9938.0
 21
-261.99999999999909
 31
0.0
1001
ACDBBLOCKREPETAG
1070
     1
1071
       89
1005
129A27
  0
LINE
  5
129A28
  8
OBJECT
 10
9938.0
 20
-269.99999999999909
 30
0.0
 11
9938.0
 21
-261.99999999999909
 31
0.0
1001
ACDBBLOCKREPETAG
1070
     1
1071
       90
1005
129A28
  0
LINE
  5
129A29
  8
OBJECT
 10
10070.0
 20
-261.99999999999909
 30
0.0
 11
10062.0
 21
-261.99999999999909
 31
0.0
1001
ACDBBLOCKREPETAG
1070
     1
1071
       91
1005
129A29
  0
LINE
  5
129A2A
  8
OBJECT
 10
10062.0
 20
-269.99999999999909
 30
0.0
 11
10062.0
 21
-261.99999999999909
 31
0.0
1001
ACDBBLOCKREPETAG
1070
     1
1071
       92
1005
129A2A
  0
LINE
  5
129A2B
  8
CENTER
 10
9930.0
 20
-199.99999999999909
 30
0.0
 11
10070.0
 21
-199.99999999999909
 31
0.0
1001
ACDBBLOCKREPETAG
1070
     1
1071
       93
1005
129A2B
  0
LINE
  5
129A2C
  8
CENTER
 10
10000.0
 20
-269.99999999999909
 30
0.0
 11
10000.0
 21
-109.9999999999991
 31
0.0
1001
ACDBBLOCKREPETAG
1070
     1
1071
       94
1005
129A2C
  0
ARC
  5
129A2D
  8
OBJECT
 10
9989.9027621391888
 20
-224.44352901899131
 30
0.0
 40
7.0
 50
73.00127222950276
 51
154.0502587892864
1001
ACDBBLOCKREPETAG
1070
     1
1071
       95
1005
129A2D
  0
ARC
  5
129A2E
  8
OBJECT
 10
9986.8376610706546
 20
-225.5978773169509
 30
0.0
 40
9.0
 50
73.00127222950276
 51
154.0502639259247
1001
ACDBBLOCKREPETAG
1070
     1
1071
       96
1005
129A2E
  0
ARC
  5
129A2F
  8
OBJECT
 10
9896.3142301315547
 20
-147.28130031148149
 30
0.0
 40
150.0
 50
322.8950337398245
 51
325.8931499695608
1001
ACDBBLOCKREPETAG
1070
     1
1071
       97
1005
129A2F
  0
ARC
  5
129A30
  8
OBJECT
 10
10000.0
 20
-199.99999999999909
 30
0.0
 40
37.5
 50
303.16276667665232
 51
229.16350249104781
1001
ACDBBLOCKREPETAG
1070
     1
1071
       98
1005
129A30
  0
LINE
  5
129A31
  8
OBJECT
 10
9983.6085145189809
 20
-221.38045100897119
 30
0.0
 11
9977.3740110000017
 21
-234.1915870000002
 31
0.0
1001
ACDBBLOCKREPETAG
1070
     1
1071
       99
1005
129A31
  0
LINE
  5
129A32
  8
OBJECT
 10
9978.7450566344633
 20
-221.65963488670511
 30
0.0
 11
9973.8986720000048
 21
-231.6183599999996
 31
0.0
1001
ACDBBLOCKREPETAG
1070
     1
1071
      100
1005
129A32
  0
LINE
  5
129A33
  8
OBJECT
 10
10018.938018000001
 20
-226.00000000000091
 30
0.0
 11
9989.4688153032548
 21
-216.99107608744359
 31
0.0
1001
ACDBBLOCKREPETAG
1070
     1
1071
      101
1005
129A33
  0
LINE
  5
129A34
  8
OBJECT
 10
10020.513225309
 20
-231.39199878029191
 30
0.0
 11
10018.938018000001
 21
-226.00000000000091
 31
0.0
1001
ACDBBLOCKREPETAG
1070
     1
1071
      102
1005
129A34
  0
LINE
  5
129A35
  8
OBJECT
 10
9954.0380592228739
 20
-245.96194077712289
 30
0.0
 11
9938.0
 21
-261.99999999999909
 31
0.0
1001
ACDBBLOCKREPETAG
1070
     1
1071
      106
1005
129A35
  0
LINE
  5
129A36
  8
OBJECT
 10
10045.96194077713
 20
-245.96194077712289
 30
0.0
 11
10062.0
 21
-261.99999999999909
 31
0.0
1001
ACDBBLOCKREPETAG
1070
     1
1071
      107
1005
129A36
  0
ARC
  5
129A37
  8
OBJECT
 10
10000.0
 20
-199.99999999999909
 30
0.0
 40
75.0
 50
55.757831297238091
 51
124.2421687027619
1001
ACDBBLOCKREPETAG
1070
     1
1071
      108
1005
129A37
  0
POINT
  5
129A38
  8
DOTS
 10
10000.0
 20
-199.99999999999909
 30
0.0
 50
270.0
1001
ACDBBLOCKREPETAG
1070
     1
1071
      157
1005
129A38
  0
LINE
  5
129A39
  8
OBJECT
 10
10123.0
 20
-663.99999999999966
 30
0.0
 11
10130.0
 21
-663.99999999999966
 31
0.0
1001
ACDBBLOCKREPETAG
1070
     1
1071
        7
1005
129A39
  0
LINE
  5
129A3A
  8
OBJECT
 10
10130.0
 20
-663.99999999999966
 30
0.0
 11
10130.0
 21
-754.99999999999955
 31
0.0
1001
ACDBBLOCKREPETAG
1070
     1
1071
        8
1005
129A3A
  0
LINE
  5
129A3B
  8
OBJECT
 10
10123.0
 20
-754.99999999999955
 30
0.0
 11
10123.0
 21
-663.99999999999966
 31
0.0
1001
ACDBBLOCKREPETAG
1070
     1
1071
        9
1005
129A3B
  0
LINE
  5
129A3C
  8
CENTER
 10
10145.0
 20
-710.99999999999955
 30
0.0
 11
10061.0
 21
-710.99999999999955
 31
0.0
1001
ACDBBLOCKREPETAG
1070
     1
1071
       10
1005
129A3C
  0
LINE
  5
129A3D
  8
OBJECT
 10
10123.0
 20
-666.99999999999955
 30
0.0
 11
10087.0
 21
-666.99999999999955
 31
0.0
1001
ACDBBLOCKREPETAG
1070
     1
1071
       11
1005
129A3D
  0
LINE
  5
129A3E
  8
OBJECT
 10
10087.0
 20
-666.99999999999955
 30
0.0
 11
10087.0
 21
-754.99999999999955
 31
0.0
1001
ACDBBLOCKREPETAG
1070
     1
1071
       12
1005
129A3E
  0
LINE
  5
129A3F
  8
OBJECT
 10
10087.0
 20
-754.99999999999955
 30
0.0
 11
10130.0
 21
-754.99999999999955
 31
0.0
1001
ACDBBLOCKREPETAG
1070
     1
1071
       13
1005
129A3F
  0
LINE
  5
129A40
  8
OBJECT
 10
10083.0
 20
-671.49999999999955
 30
0.0
 11
10076.0
 21
-671.49999999999955
 31
0.0
1001
ACDBBLOCKREPETAG
1070
     1
1071
       14
1005
129A40
  0
LINE
  5
129A41
  8
OBJECT
 10
10076.0
 20
-750.49999999999955
 30
0.0
 11
10083.0
 21
-750.49999999999955
 31
0.0
1001
ACDBBLOCKREPETAG
1070
     1
1071
       15
1005
129A41
  0
LINE
  5
129A42
  8
OBJECT
 10
10083.0
 20
-750.49999999999955
 30
0.0
 11
10083.0
 21
-671.49999999999955
 31
0.0
1001
ACDBBLOCKREPETAG
1070
     1
1071
       16
1005
129A42
  0
LINE
  5
129A43
  8
OBJECT
 10
10087.0
 20
-666.99999999999955
 30
0.0
 11
10083.0
 21
-671.49999999999955
 31
0.0
1001
ACDBBLOCKREPETAG
1070
     1
1071
       17
1005
129A43
  0
LINE
  5
129A44
  8
OBJECT
 10
10087.0
 20
-754.99999999999955
 30
0.0
 11
10083.0
 21
-750.49999999999955
 31
0.0
1001
ACDBBLOCKREPETAG
1070
     1
1071
       18
1005
129A44
  0
LINE
  5
129A45
  8
OBJECT
 10
10073.0
 20
-633.99999999999955
 30
0.0
 11
10070.0
 21
-633.99999999999955
 31
0.0
1001
ACDBBLOCKREPETAG
1070
     1
1071
       19
1005
129A45
  0
ARC
  5
129A46
  8
OBJECT
 10
10073.0
 20
-636.99999999999955
 30
0.0
 40
3.0
 50
0.0
 51
90.0
1001
ACDBBLOCKREPETAG
1070
     1
1071
       20
1005
129A46
  0
LINE
  5
129A47
  8
OBJECT
 10
10070.0
 20
-757.99999999999955
 30
0.0
 11
10073.0
 21
-757.99999999999955
 31
0.0
1001
ACDBBLOCKREPETAG
1070
     1
1071
       21
1005
129A47
  0
ARC
  5
129A48
  8
OBJECT
 10
10073.0
 20
-754.99999999999955
 30
0.0
 40
3.0
 50
270.0
 51
0.0
1001
ACDBBLOCKREPETAG
1070
     1
1071
       22
1005
129A48
  0
LINE
  5
129A49
  8
OBJECT
 10
10076.0
 20
-754.99999999999955
 30
0.0
 11
10076.0
 21
-636.99999999999955
 31
0.0
1001
ACDBBLOCKREPETAG
1070
     1
1071
       23
1005
129A49
  0
LINE
  5
129A4A
  8
HIDDEN
 10
10078.0
 20
-680.99999999999955
 30
0.0
 11
10078.0
 21
-740.99999999999955
 31
0.0
1001
ACDBBLOCKREPETAG
1070
     1
1071
       24
1005
129A4A
  0
LINE
  5
129A4B
  8
OBJECT
 10
10123.0
 20
-152.99999999999909
 30
0.0
 11
10130.0
 21
-152.99999999999909
 31
0.0
1001
ACDBBLOCKREPETAG
1070
     1
1071
        7
1005
129A4B
  0
LINE
  5
129A4C
  8
OBJECT
 10
10130.0
 20
-152.99999999999909
 30
0.0
 11
10130.0
 21
-246.99999999999909
 31
0.0
1001
ACDBBLOCKREPETAG
1070
     1
1071
        8
1005
129A4C
  0
LINE
  5
129A4D
  8
OBJECT
 10
10130.0
 20
-246.99999999999909
 30
0.0
 11
10123.0
 21
-246.99999999999909
 31
0.0
1001
ACDBBLOCKREPETAG
1070
     1
1071
        9
1005
129A4D
  0
LINE
  5
129A4E
  8
OBJECT
 10
10123.0
 20
-246.99999999999909
 30
0.0
 11
10123.0
 21
-152.99999999999909
 31
0.0
1001
ACDBBLOCKREPETAG
1070
     1
1071
       10
1005
129A4E
  0
LINE
  5
129A4F
  8
CENTER
 10
10145.0
 20
-199.99999999999909
 30
0.0
 11
10070.0
 21
-199.99999999999909
 31
0.0
1001
ACDBBLOCKREPETAG
1070
     1
1071
       11
1005
129A4F
  0
LINE
  5
129A50
  8
OBJECT
 10
10123.0
 20
-155.99999999999909
 30
0.0
 11
10087.0
 21
-155.99999999999909
 31
0.0
1001
ACDBBLOCKREPETAG
1070
     1
1071
       12
1005
129A50
  0
LINE
  5
129A51
  8
OBJECT
 10
10087.0
 20
-155.99999999999909
 30
0.0
 11
10087.0
 21
-243.99999999999909
 31
0.0
1001
ACDBBLOCKREPETAG
1070
     1
1071
       13
1005
129A51
  0
LINE
  5
129A52
  8
OBJECT
 10
10087.0
 20
-243.99999999999909
 30
0.0
 11
10123.0
 21
-243.99999999999909
 31
0.0
1001
ACDBBLOCKREPETAG
1070
     1
1071
       14
1005
129A52
  0
LINE
  5
129A53
  8
OBJECT
 10
10083.0
 20
-160.49999999999909
 30
0.0
 11
10076.0
 21
-160.49999999999909
 31
0.0
1001
ACDBBLOCKREPETAG
1070
     1
1071
       15
1005
129A53
  0
LINE
  5
129A54
  8
OBJECT
 10
10076.0
 20
-239.49999999999909
 30
0.0
 11
10083.0
 21
-239.49999999999909
 31
0.0
1001
ACDBBLOCKREPETAG
1070
     1
1071
       16
1005
129A54
  0
LINE
  5
129A55
  8
OBJECT
 10
10083.0
 20
-239.49999999999909
 30
0.0
 11
10083.0
 21
-160.49999999999909
 31
0.0
1001
ACDBBLOCKREPETAG
1070
     1
1071
       17
1005
129A55
  0
LINE
  5
129A56
  8
OBJECT
 10
10087.0
 20
-155.99999999999909
 30
0.0
 11
10083.0
 21
-160.49999999999909
 31
0.0
1001
ACDBBLOCKREPETAG
1070
     1
1071
       18
1005
129A56
  0
LINE
  5
129A57
  8
OBJECT
 10
10087.0
 20
-243.99999999999909
 30
0.0
 11
10083.0
 21
-239.49999999999909
 31
0.0
1001
ACDBBLOCKREPETAG
1070
     1
1071
       19
1005
129A57
  0
LINE
  5
129A58
  8
OBJECT
 10
10073.0
 20
-137.99999999999909
 30
0.0
 11
10070.0
 21
-137.99999999999909
 31
0.0
1001
ACDBBLOCKREPETAG
1070
     1
1071
       20
1005
129A58
  0
ARC
  5
129A59
  8
OBJECT
 10
10073.0
 20
-140.99999999999909
 30
0.0
 40
3.0
 50
0.0
 51
90.0
1001
ACDBBLOCKREPETAG
1070
     1
1071
       21
1005
129A59
  0
LINE
  5
129A5A
  8
OBJECT
 10
10070.0
 20
-261.99999999999909
 30
0.0
 11
10073.0
 21
-261.99999999999909
 31
0.0
1001
ACDBBLOCKREPETAG
1070
     1
1071
       22
1005
129A5A
  0
ARC
  5
129A5B
  8
OBJECT
 10
10073.0
 20
-258.99999999999909
 30
0.0
 40
3.0
 50
270.0
 51
0.0
1001
ACDBBLOCKREPETAG
1070
     1
1071
       23
1005
129A5B
  0
LINE
  5
129A5C
  8
OBJECT
 10
10076.0
 20
-258.99999999999909
 30
0.0
 11
10076.0
 21
-140.99999999999909
 31
0.0
1001
ACDBBLOCKREPETAG
1070
     1
1071
       24
1005
129A5C
  0
LINE
  5
129A5D
  8
HIDDEN
 10
10078.0
 20
-169.99999999999909
 30
0.0
 11
10078.0
 21
-229.99999999999909
 31
0.0
1001
ACDBBLOCKREPETAG
1070
     1
1071
       25
1005
129A5D
  0
LINE
  5
129A5E
  8
OBJECT
 10
7877.0
 20
-663.99999999999966
 30
0.0
 11
7870.0
 21
-663.99999999999966
 31
0.0
1001
ACDBBLOCKREPETAG
1070
     1
1071
        7
1005
129A5E
  0
LINE
  5
129A5F
  8
OBJECT
 10
7870.0
 20
-663.99999999999966
 30
0.0
 11
7870.0
 21
-754.99999999999955
 31
0.0
1001
ACDBBLOCKREPETAG
1070
     1
1071
        8
1005
129A5F
  0
LINE
  5
129A60
  8
OBJECT
 10
7877.0
 20
-754.99999999999955
 30
0.0
 11
7877.0
 21
-663.99999999999966
 31
0.0
1001
ACDBBLOCKREPETAG
1070
     1
1071
        9
1005
129A60
  0
LINE
  5
129A61
  8
CENTER
 10
7855.0
 20
-710.99999999999955
 30
0.0
 11
7939.0
 21
-710.99999999999955
 31
0.0
1001
ACDBBLOCKREPETAG
1070
     1
1071
       10
1005
129A61
  0
LINE
  5
129A62
  8
OBJECT
 10
7877.0
 20
-666.99999999999955
 30
0.0
 11
7913.0
 21
-666.99999999999955
 31
0.0
1001
ACDBBLOCKREPETAG
1070
     1
1071
       11
1005
129A62
  0
LINE
  5
129A63
  8
OBJECT
 10
7913.0
 20
-666.99999999999955
 30
0.0
 11
7913.0
 21
-754.99999999999955
 31
0.0
1001
ACDBBLOCKREPETAG
1070
     1
1071
       12
1005
129A63
  0
LINE
  5
129A64
  8
OBJECT
 10
7913.0
 20
-754.99999999999955
 30
0.0
 11
7870.0
 21
-754.99999999999955
 31
0.0
1001
ACDBBLOCKREPETAG
1070
     1
1071
       13
1005
129A64
  0
LINE
  5
129A65
  8
OBJECT
 10
7917.0
 20
-671.49999999999955
 30
0.0
 11
7924.0
 21
-671.49999999999955
 31
0.0
1001
ACDBBLOCKREPETAG
1070
     1
1071
       14
1005
129A65
  0
LINE
  5
129A66
  8
OBJECT
 10
7924.0
 20
-750.49999999999955
 30
0.0
 11
7917.0
 21
-750.49999999999955
 31
0.0
1001
ACDBBLOCKREPETAG
1070
     1
1071
       15
1005
129A66
  0
LINE
  5
129A67
  8
OBJECT
 10
7917.0
 20
-750.49999999999955
 30
0.0
 11
7917.0
 21
-671.49999999999955
 31
0.0
1001
ACDBBLOCKREPETAG
1070
     1
1071
       16
1005
129A67
  0
LINE
  5
129A68
  8
OBJECT
 10
7913.0
 20
-666.99999999999955
 30
0.0
 11
7917.0
 21
-671.49999999999955
 31
0.0
1001
ACDBBLOCKREPETAG
1070
     1
1071
       17
1005
129A68
  0
LINE
  5
129A69
  8
OBJECT
 10
7913.0
 20
-754.99999999999955
 30
0.0
 11
7917.0
 21
-750.49999999999955
 31
0.0
1001
ACDBBLOCKREPETAG
1070
     1
1071
       18
1005
129A69
  0
LINE
  5
129A6A
  8
OBJECT
 10
7927.0
 20
-633.99999999999955
 30
0.0
 11
7930.0
 21
-633.99999999999955
 31
0.0
1001
ACDBBLOCKREPETAG
1070
     1
1071
       19
1005
129A6A
  0
ARC
  5
129A6B
  8
OBJECT
 10
7927.0
 20
-636.99999999999955
 30
0.0
 40
3.0
 50
90.0
 51
180.0
1001
ACDBBLOCKREPETAG
1070
     1
1071
       20
1005
129A6B
  0
LINE
  5
129A6C
  8
OBJECT
 10
7930.0
 20
-757.99999999999955
 30
0.0
 11
7927.0
 21
-757.99999999999955
 31
0.0
1001
ACDBBLOCKREPETAG
1070
     1
1071
       21
1005
129A6C
  0
ARC
  5
129A6D
  8
OBJECT
 10
7927.0
 20
-754.99999999999955
 30
0.0
 40
3.0
 50
180.0
 51
270.0
1001
ACDBBLOCKREPETAG
1070
     1
1071
       22
1005
129A6D
  0
LINE
  5
129A6E
  8
OBJECT
 10
7924.0
 20
-754.99999999999955
 30
0.0
 11
7924.0
 21
-636.99999999999955
 31
0.0
1001
ACDBBLOCKREPETAG
1070
     1
1071
       23
1005
129A6E
  0
LINE
  5
129A6F
  8
HIDDEN
 10
7922.0
 20
-680.99999999999955
 30
0.0
 11
7922.0
 21
-740.99999999999955
 31
0.0
1001
ACDBBLOCKREPETAG
1070
     1
1071
       24
1005
129A6F
  0
CIRCLE
  5
129A70
  8
OBJECT
 10
8000.0
 20
-696.0
 30
0.0
 40
62.0
1001
ACDBBLOCKREPETAG
1070
     1
1071
        0
1005
129A70
  0
LINE
  5
129A71
  8
OBJECT
 10
7935.0
 20
-549.99999999999955
 30
0.0
 11
7935.0
 21
-570.99999999999955
 31
0.0
1001
ACDBBLOCKREPETAG
1070
     1
1071
       16
1005
129A71
  0
LINE
  5
129A72
  8
OBJECT
 10
7935.0
 20
-570.99999999999955
 30
0.0
 11
8065.0
 21
-570.99999999999955
 31
0.0
1001
ACDBBLOCKREPETAG
1070
     1
1071
       17
1005
129A72
  0
LINE
  5
129A73
  8
OBJECT
 10
8065.0
 20
-570.99999999999955
 30
0.0
 11
8065.0
 21
-549.99999999999955
 31
0.0
1001
ACDBBLOCKREPETAG
1070
     1
1071
       18
1005
129A73
  0
LINE
  5
129A74
  8
OBJECT
 10
8065.0
 20
-549.99999999999955
 30
0.0
 11
7935.0
 21
-549.99999999999955
 31
0.0
1001
ACDBBLOCKREPETAG
1070
     1
1071
       19
1005
129A74
  0
LINE
  5
129A75
  8
HIDDEN
 10
8044.5000000000036
 20
-619.99999999999955
 30
0.0
 11
7955.5
 21
-619.99999999999955
 31
0.0
1001
ACDBBLOCKREPETAG
1070
     1
1071
       20
1005
129A75
  0
LINE
  5
129A76
  8
CENTER
 10
8000.0
 20
-769.99999999999955
 30
0.0
 11
8000.0
 21
-534.99999999999955
 31
0.0
1001
ACDBBLOCKREPETAG
1070
     1
1071
       21
1005
129A76
  0
LINE
  5
129A77
  8
OBJECT
 10
7940.5
 20
-570.99999999999955
 30
0.0
 11
7940.5
 21
-633.99999999999955
 31
0.0
1001
ACDBBLOCKREPETAG
1070
     1
1071
       22
1005
129A77
  0
LINE
  5
129A78
  8
OBJECT
 10
7930.0
 20
-633.99999999999955
 30
0.0
 11
8070.0
 21
-633.99999999999955
 31
0.0
1001
ACDBBLOCKREPETAG
1070
     1
1071
       23
1005
129A78
  0
LINE
  5
129A79
  8
OBJECT
 10
8059.4999999999982
 20
-633.99999999999955
 30
0.0
 11
8059.4999999999982
 21
-570.99999999999955
 31
0.0
1001
ACDBBLOCKREPETAG
1070
     1
1071
       24
1005
129A79
  0
LINE
  5
129A7A
  8
OBJECT
 10
7930.0
 20
-757.99999999999955
 30
0.0
 11
7930.0
 21
-769.99999999999955
 31
0.0
1001
ACDBBLOCKREPETAG
1070
     1
1071
       25
1005
129A7A
  0
LINE
  5
129A7B
  8
OBJECT
 10
7930.0
 20
-769.99999999999955
 30
0.0
 11
8070.0
 21
-769.99999999999955
 31
0.0
1001
ACDBBLOCKREPETAG
1070
     1
1071
       26
1005
129A7B
  0
LINE
  5
129A7C
  8
OBJECT
 10
8070.0
 20
-769.99999999999955
 30
0.0
 11
8070.0
 21
-757.99999999999955
 31
0.0
1001
ACDBBLOCKREPETAG
1070
     1
1071
       27
1005
129A7C
  0
LINE
  5
129A7D
  8
OBJECT
 10
8070.0
 20
-757.99999999999955
 30
0.0
 11
7930.0
 21
-757.99999999999955
 31
0.0
1001
ACDBBLOCKREPETAG
1070
     1
1071
       28
1005
129A7D
  0
ARC
  5
129A7E
  8
OBJECT
 10
8435.0384389946794
 20
-998.60813684682694
 30
0.0
 40
519.48776673616965
 50
135.42350667430969
 51
138.50052655621499
1001
ACDBBLOCKREPETAG
1070
     1
1071
       32
1005
129A7E
  0
ARC
  5
129A7F
  8
OBJECT
 10
8435.0384389946794
 20
-393.39186315317193
 30
0.0
 40
519.48776673616965
 50
221.49947344378501
 51
224.57649332569039
1001
ACDBBLOCKREPETAG
1070
     1
1071
       33
1005
129A7F
  0
ARC
  5
129A80
  8
OBJECT
 10
7564.9615610053233
 20
-998.60813684682694
 30
0.0
 40
519.48776673616965
 50
41.499473443784993
 51
44.576493325690237
1001
ACDBBLOCKREPETAG
1070
     1
1071
       34
1005
129A80
  0
ARC
  5
129A81
  8
OBJECT
 10
7564.9615610053233
 20
-393.39186315317193
 30
0.0
 40
519.48776673616965
 50
315.42350667430981
 51
318.50052655621488
1001
ACDBBLOCKREPETAG
1070
     1
1071
       35
1005
129A81
  0
POINT
  5
129A82
  8
DOTS
 10
8000.0
 20
-754.99999999999955
 30
0.0
1001
ACDBBLOCKREPETAG
1070
     1
1071
      111
1005
129A82
  0
LINE
  5
129A83
  8
OBJECT
 10
7877.0
 20
-246.99999999999909
 30
0.0
 11
7870.0
 21
-246.99999999999909
 31
0.0
1001
ACDBBLOCKREPETAG
1070
     1
1071
        7
1005
129A83
  0
LINE
  5
129A84
  8
OBJECT
 10
7870.0
 20
-246.99999999999909
 30
0.0
 11
7870.0
 21
-152.99999999999909
 31
0.0
1001
ACDBBLOCKREPETAG
1070
     1
1071
        8
1005
129A84
  0
LINE
  5
129A85
  8
OBJECT
 10
7870.0
 20
-152.99999999999909
 30
0.0
 11
7877.0
 21
-152.99999999999909
 31
0.0
1001
ACDBBLOCKREPETAG
1070
     1
1071
        9
1005
129A85
  0
LINE
  5
129A86
  8
OBJECT
 10
7877.0
 20
-152.99999999999909
 30
0.0
 11
7877.0
 21
-246.99999999999909
 31
0.0
1001
ACDBBLOCKREPETAG
1070
     1
1071
       10
1005
129A86
  0
LINE
  5
129A87
  8
CENTER
 10
7855.0
 20
-199.99999999999909
 30
0.0
 11
7930.0
 21
-199.99999999999909
 31
0.0
1001
ACDBBLOCKREPETAG
1070
     1
1071
       11
1005
129A87
  0
LINE
  5
129A88
  8
OBJECT
 10
7877.0
 20
-243.99999999999909
 30
0.0
 11
7913.0
 21
-243.99999999999909
 31
0.0
1001
ACDBBLOCKREPETAG
1070
     1
1071
       12
1005
129A88
  0
LINE
  5
129A89
  8
OBJECT
 10
7913.0
 20
-243.99999999999909
 30
0.0
 11
7913.0
 21
-155.99999999999909
 31
0.0
1001
ACDBBLOCKREPETAG
1070
     1
1071
       13
1005
129A89
  0
LINE
  5
129A8A
  8
OBJECT
 10
7913.0
 20
-155.99999999999909
 30
0.0
 11
7877.0
 21
-155.99999999999909
 31
0.0
1001
ACDBBLOCKREPETAG
1070
     1
1071
       14
1005
129A8A
  0
LINE
  5
129A8B
  8
OBJECT
 10
7917.0
 20
-239.49999999999909
 30
0.0
 11
7924.0
 21
-239.49999999999909
 31
0.0
1001
ACDBBLOCKREPETAG
1070
     1
1071
       15
1005
129A8B
  0
LINE
  5
129A8C
  8
OBJECT
 10
7924.0
 20
-160.49999999999909
 30
0.0
 11
7917.0
 21
-160.49999999999909
 31
0.0
1001
ACDBBLOCKREPETAG
1070
     1
1071
       16
1005
129A8C
  0
LINE
  5
129A8D
  8
OBJECT
 10
7917.0
 20
-160.49999999999909
 30
0.0
 11
7917.0
 21
-239.49999999999909
 31
0.0
1001
ACDBBLOCKREPETAG
1070
     1
1071
       17
1005
129A8D
  0
LINE
  5
129A8E
  8
OBJECT
 10
7913.0
 20
-243.99999999999909
 30
0.0
 11
7917.0
 21
-239.49999999999909
 31
0.0
1001
ACDBBLOCKREPETAG
1070
     1
1071
       18
1005
129A8E
  0
LINE
  5
129A8F
  8
OBJECT
 10
7913.0
 20
-155.99999999999909
 30
0.0
 11
7917.0
 21
-160.49999999999909
 31
0.0
1001
ACDBBLOCKREPETAG
1070
     1
1071
       19
1005
129A8F
  0
LINE
  5
129A90
  8
OBJECT
 10
7927.0
 20
-261.99999999999909
 30
0.0
 11
7930.0
 21
-261.99999999999909
 31
0.0
1001
ACDBBLOCKREPETAG
1070
     1
1071
       20
1005
129A90
  0
ARC
  5
129A91
  8
OBJECT
 10
7927.0
 20
-258.99999999999909
 30
0.0
 40
3.0
 50
180.0
 51
270.0
1001
ACDBBLOCKREPETAG
1070
     1
1071
       21
1005
129A91
  0
LINE
  5
129A92
  8
OBJECT
 10
7930.0
 20
-137.99999999999909
 30
0.0
 11
7927.0
 21
-137.99999999999909
 31
0.0
1001
ACDBBLOCKREPETAG
1070
     1
1071
       22
1005
129A92
  0
ARC
  5
129A93
  8
OBJECT
 10
7927.0
 20
-140.99999999999909
 30
0.0
 40
3.0
 50
90.0
 51
180.0
1001
ACDBBLOCKREPETAG
1070
     1
1071
       23
1005
129A93
  0
LINE
  5
129A94
  8
OBJECT
 10
7924.0
 20
-140.99999999999909
 30
0.0
 11
7924.0
 21
-258.99999999999909
 31
0.0
1001
ACDBBLOCKREPETAG
1070
     1
1071
       24
1005
129A94
  0
LINE
  5
129A95
  8
HIDDEN
 10
7922.0
 20
-229.99999999999909
 30
0.0
 11
7922.0
 21
-169.99999999999909
 31
0.0
1001
ACDBBLOCKREPETAG
1070
     1
1071
       25
1005
129A95
  0
LINE
  5
129A96
  8
CENTER
 10
8000.0
 20
-290.99999999999898
 30
0.0
 11
8000.0
 21
-269.99999999999909
 31
0.0
1001
ACDBBLOCKREPETAG
1070
     1
1071
        0
1005
129A96
  0
LINE
  5
129A97
  8
OBJECT
 10
8062.0
 20
-273.0
 30
0.0
 11
8062.0
 21
-269.99999999999909
 31
0.0
1001
ACDBBLOCKREPETAG
1070
     1
1071
        1
1005
129A97
  0
ARC
  5
129A98
  8
OBJECT
 10
8059.0
 20
-273.0
 30
0.0
 40
3.0
 50
270.0
 51
0.0
1001
ACDBBLOCKREPETAG
1070
     1
1071
        2
1005
129A98
  0
LINE
  5
129A99
  8
OBJECT
 10
7938.0
 20
-269.99999999999909
 30
0.0
 11
7938.0
 21
-272.99999999999818
 31
0.0
1001
ACDBBLOCKREPETAG
1070
     1
1071
        3
1005
129A99
  0
ARC
  5
129A9A
  8
OBJECT
 10
7941.0
 20
-272.99999999999818
 30
0.0
 40
3.0
 50
180.0
 51
270.0
1001
ACDBBLOCKREPETAG
1070
     1
1071
        4
1005
129A9A
  0
LINE
  5
129A9B
  8
OBJECT
 10
7941.0
 20
-275.99999999999818
 30
0.0
 11
8059.0
 21
-276.0
 31
0.0
1001
ACDBBLOCKREPETAG
1070
     1
1071
        5
1005
129A9B
  0
LINE
  5
129A9C
  8
SLIM
 10
7963.2171826682388
 20
-137.99999999999909
 30
0.0
 11
7969.9215079962914
 21
-131.29567467194681
 31
0.0
1001
GRADIENTCOLOR1ACI
1070
     5
1001
GRADIENTCOLOR2ACI
1070
     2
1001
ACAD
1010
0.0
1020
0.0
1030
0.0
1001
ACDBBLOCKREPETAG
1070
     1
1071
      169
1005
129A9C
  0
LINE
  5
129A9D
  8
SLIM
 10
7972.1974387893079
 20
-137.99999999999909
 30
0.0
 11
7983.3188363327517
 21
-126.87860245655401
 31
0.0
1001
GRADIENTCOLOR1ACI
1070
     5
1001
GRADIENTCOLOR2ACI
1070
     2
1001
ACAD
1010
0.0
1020
0.0
1030
0.0
1001
ACDBBLOCKREPETAG
1070
     1
1071
      170
1005
129A9D
  0
LINE
  5
129A9E
  8
SLIM
 10
7981.4849372887629
 20
-137.6927576216126
 30
0.0
 11
7993.9318052485969
 21
-125.245889661777
 31
0.0
1001
GRADIENTCOLOR1ACI
1070
     5
1001
GRADIENTCOLOR2ACI
1070
     2
1001
ACAD
1010
0.0
1020
0.0
1030
0.0
1001
ACDBBLOCKREPETAG
1070
     1
1071
      171
1005
129A9E
  0
LINE
  5
129A9F
  8
SLIM
 10
7992.7526568280337
 20
-135.40529420341099
 30
0.0
 11
8000.0
 21
-128.1579510314458
 31
0.0
1001
GRADIENTCOLOR1ACI
1070
     5
1001
GRADIENTCOLOR2ACI
1070
     2
1001
ACAD
1010
0.0
1020
0.0
1030
0.0
1001
ACDBBLOCKREPETAG
1070
     1
1071
      172
1005
129A9F
  0
LINE
  5
129AA0
  8
SLIM
 10
8000.0
 20
-128.1579510314458
 30
0.0
 11
8003.0941007878528
 21
-125.0638502435924
 31
0.0
1001
GRADIENTCOLOR1ACI
1070
     5
1001
GRADIENTCOLOR2ACI
1070
     2
1001
ACAD
1010
0.0
1020
0.0
1030
0.0
1001
ACDBBLOCKREPETAG
1070
     1
1071
      173
1005
129AA0
  0
LINE
  5
129AA1
  8
SLIM
 10
8002.1041412234727
 20
-135.03406592904389
 30
0.0
 11
8011.284425768652
 21
-125.85378138386341
 31
0.0
1001
GRADIENTCOLOR1ACI
1070
     5
1001
GRADIENTCOLOR2ACI
1070
     2
1001
ACAD
1010
0.0
1020
0.0
1030
0.0
1001
ACDBBLOCKREPETAG
1070
     1
1071
      174
1005
129AA1
  0
LINE
  5
129AA2
  8
SLIM
 10
8010.297585520927
 20
-135.82087775265759
 30
0.0
 11
8018.7395884655189
 21
-127.3788748080627
 31
0.0
1001
GRADIENTCOLOR1ACI
1070
     5
1001
GRADIENTCOLOR2ACI
1070
     2
1001
ACAD
1010
0.0
1020
0.0
1030
0.0
1001
ACDBBLOCKREPETAG
1070
     1
1071
      175
1005
129AA2
  0
LINE
  5
129AA3
  8
SLIM
 10
8017.6550793642282
 20
-137.4436400304258
 30
0.0
 11
8025.5958866269621
 21
-129.50283276769261
 31
0.0
1001
GRADIENTCOLOR1ACI
1070
     5
1001
GRADIENTCOLOR2ACI
1070
     2
1001
ACAD
1010
0.0
1020
0.0
1030
0.0
1001
ACDBBLOCKREPETAG
1070
     1
1071
      176
1005
129AA3
  0
LINE
  5
129AA4
  8
SLIM
 10
8026.078975515723
 20
-137.99999999999909
 30
0.0
 11
8031.9385859461063
 21
-132.1403895696169
 31
0.0
1001
GRADIENTCOLOR1ACI
1070
     5
1001
GRADIENTCOLOR2ACI
1070
     2
1001
ACAD
1010
0.0
1020
0.0
1030
0.0
1001
ACDBBLOCKREPETAG
1070
     1
1071
      177
1005
129AA4
  0
LINE
  5
129AA5
  8
SLIM
 10
8035.0592316367947
 20
-137.99999999999909
 30
0.0
 11
8037.8233654376218
 21
-135.23586619916779
 31
0.0
1001
GRADIENTCOLOR1ACI
1070
     5
1001
GRADIENTCOLOR2ACI
1070
     2
1001
ACAD
1010
0.0
1020
0.0
1030
0.0
1001
ACDBBLOCKREPETAG
1070
     1
1071
      178
1005
129AA5
  0
CIRCLE
  5
129AA6
  8
OBJECT
 10
8000.0
 20
-199.99999999999909
 30
0.0
 40
65.0
1001
ACDBBLOCKREPETAG
1070
     1
1071
       84
1005
129AA6
  0
CIRCLE
  5
129AA7
  8
OBJECT
 10
8000.0
 20
-199.99999999999909
 30
0.0
 40
41.0
1001
ACDBBLOCKREPETAG
1070
     1
1071
       85
1005
129AA7
  0
CIRCLE
  5
129AA8
  8
OBJECT
 10
8000.0
 20
-199.99999999999909
 30
0.0
 40
58.0
1001
ACDBBLOCKREPETAG
1070
     1
1071
       86
1005
129AA8
  0
LINE
  5
129AA9
  8
OBJECT
 10
8070.0
 20
-137.99999999999909
 30
0.0
 11
8019.5192212959419
 21
-137.99999999999909
 31
0.0
1001
ACDBBLOCKREPETAG
1070
     1
1071
       87
1005
129AA9
  0
LINE
  5
129AAA
  8
OBJECT
 10
7930.0
 20
-137.99999999999909
 30
0.0
 11
7980.4807787040572
 21
-137.99999999999909
 31
0.0
1001
ACDBBLOCKREPETAG
1070
     1
1071
       88
1005
129AAA
  0
LINE
  5
129AAB
  8
OBJECT
 10
7930.0
 20
-261.99999999999909
 30
0.0
 11
7938.0
 21
-261.99999999999909
 31
0.0
1001
ACDBBLOCKREPETAG
1070
     1
1071
       89
1005
129AAB
  0
LINE
  5
129AAC
  8
OBJECT
 10
7938.0
 20
-269.99999999999909
 30
0.0
 11
7938.0
 21
-261.99999999999909
 31
0.0
1001
ACDBBLOCKREPETAG
1070
     1
1071
       90
1005
129AAC
  0
LINE
  5
129AAD
  8
OBJECT
 10
8070.0
 20
-261.99999999999909
 30
0.0
 11
8062.0
 21
-261.99999999999909
 31
0.0
1001
ACDBBLOCKREPETAG
1070
     1
1071
       91
1005
129AAD
  0
LINE
  5
129AAE
  8
OBJECT
 10
8062.0
 20
-269.99999999999909
 30
0.0
 11
8062.0
 21
-261.99999999999909
 31
0.0
1001
ACDBBLOCKREPETAG
1070
     1
1071
       92
1005
129AAE
  0
LINE
  5
129AAF
  8
CENTER
 10
7930.0
 20
-199.99999999999909
 30
0.0
 11
8070.0
 21
-199.99999999999909
 31
0.0
1001
ACDBBLOCKREPETAG
1070
     1
1071
       93
1005
129AAF
  0
LINE
  5
129AB0
  8
CENTER
 10
8000.0
 20
-269.99999999999909
 30
0.0
 11
8000.0
 21
-109.9999999999991
 31
0.0
1001
ACDBBLOCKREPETAG
1070
     1
1071
       94
1005
129AB0
  0
ARC
  5
129AB1
  8
OBJECT
 10
7989.902762139187
 20
-224.44352901899131
 30
0.0
 40
7.0
 50
73.00127222950276
 51
154.05025878930931
1001
ACDBBLOCKREPETAG
1070
     1
1071
       95
1005
129AB1
  0
ARC
  5
129AB2
  8
OBJECT
 10
7986.8376610706546
 20
-225.5978773169509
 30
0.0
 40
9.0
 50
73.00127222950276
 51
154.0502639259247
1001
ACDBBLOCKREPETAG
1070
     1
1071
       96
1005
129AB2
  0
ARC
  5
129AB3
  8
OBJECT
 10
7896.3142301315538
 20
-147.28130031148149
 30
0.0
 40
150.0
 50
322.89503373979312
 51
325.8931499695608
1001
ACDBBLOCKREPETAG
1070
     1
1071
       97
1005
129AB3
  0
ARC
  5
129AB4
  8
OBJECT
 10
8000.0
 20
-199.99999999999909
 30
0.0
 40
37.5
 50
303.16276667665232
 51
229.16350249100839
1001
ACDBBLOCKREPETAG
1070
     1
1071
       98
1005
129AB4
  0
LINE
  5
129AB5
  8
OBJECT
 10
7983.60851451898
 20
-221.38045100897119
 30
0.0
 11
7977.3740110000008
 21
-234.1915870000002
 31
0.0
1001
ACDBBLOCKREPETAG
1070
     1
1071
       99
1005
129AB5
  0
LINE
  5
129AB6
  8
OBJECT
 10
7978.7450566344623
 20
-221.65963488670511
 30
0.0
 11
7973.898672000003
 21
-231.6183599999996
 31
0.0
1001
ACDBBLOCKREPETAG
1070
     1
1071
      100
1005
129AB6
  0
LINE
  5
129AB7
  8
OBJECT
 10
8018.9380179999998
 20
-226.00000000000091
 30
0.0
 11
7989.4688153032539
 21
-216.99107608744359
 31
0.0
1001
ACDBBLOCKREPETAG
1070
     1
1071
      101
1005
129AB7
  0
LINE
  5
129AB8
  8
OBJECT
 10
8020.513225309006
 20
-231.39199878029191
 30
0.0
 11
8018.9380179999998
 21
-226.00000000000091
 31
0.0
1001
ACDBBLOCKREPETAG
1070
     1
1071
      102
1005
129AB8
  0
LINE
  5
129AB9
  8
OBJECT
 10
7954.0380592228739
 20
-245.96194077712289
 30
0.0
 11
7938.0
 21
-261.99999999999909
 31
0.0
1001
ACDBBLOCKREPETAG
1070
     1
1071
      106
1005
129AB9
  0
LINE
  5
129ABA
  8
OBJECT
 10
8045.9619407771252
 20
-245.96194077712289
 30
0.0
 11
8062.0
 21
-261.99999999999909
 31
0.0
1001
ACDBBLOCKREPETAG
1070
     1
1071
      107
1005
129ABA
  0
ARC
  5
129ABB
  8
OBJECT
 10
8000.0
 20
-199.99999999999909
 30
0.0
 40
75.0
 50
55.757831297238091
 51
124.2421687027619
1001
ACDBBLOCKREPETAG
1070
     1
1071
      108
1005
129ABB
  0
POINT
  5
129ABC
  8
DOTS
 10
8000.0
 20
-199.99999999999909
 30
0.0
 50
270.0
1001
ACDBBLOCKREPETAG
1070
     1
1071
      157
1005
129ABC
  0
LINE
  5
129ABD
  8
OBJECT
 10
8123.0
 20
-663.99999999999966
 30
0.0
 11
8130.0
 21
-663.99999999999966
 31
0.0
1001
ACDBBLOCKREPETAG
1070
     1
1071
        7
1005
129ABD
  0
LINE
  5
129ABE
  8
OBJECT
 10
8130.0
 20
-663.99999999999966
 30
0.0
 11
8130.0
 21
-754.99999999999955
 31
0.0
1001
ACDBBLOCKREPETAG
1070
     1
1071
        8
1005
129ABE
  0
LINE
  5
129ABF
  8
OBJECT
 10
8123.0
 20
-754.99999999999955
 30
0.0
 11
8123.0
 21
-663.99999999999966
 31
0.0
1001
ACDBBLOCKREPETAG
1070
     1
1071
        9
1005
129ABF
  0
LINE
  5
129AC0
  8
CENTER
 10
8145.0
 20
-710.99999999999955
 30
0.0
 11
8061.0
 21
-710.99999999999955
 31
0.0
1001
ACDBBLOCKREPETAG
1070
     1
1071
       10
1005
129AC0
  0
LINE
  5
129AC1
  8
OBJECT
 10
8123.0
 20
-666.99999999999955
 30
0.0
 11
8087.0
 21
-666.99999999999955
 31
0.0
1001
ACDBBLOCKREPETAG
1070
     1
1071
       11
1005
129AC1
  0
LINE
  5
129AC2
  8
OBJECT
 10
8087.0
 20
-666.99999999999955
 30
0.0
 11
8087.0
 21
-754.99999999999955
 31
0.0
1001
ACDBBLOCKREPETAG
1070
     1
1071
       12
1005
129AC2
  0
LINE
  5
129AC3
  8
OBJECT
 10
8087.0
 20
-754.99999999999955
 30
0.0
 11
8130.0
 21
-754.99999999999955
 31
0.0
1001
ACDBBLOCKREPETAG
1070
     1
1071
       13
1005
129AC3
  0
LINE
  5
129AC4
  8
OBJECT
 10
8083.0
 20
-671.49999999999955
 30
0.0
 11
8076.0
 21
-671.49999999999955
 31
0.0
1001
ACDBBLOCKREPETAG
1070
     1
1071
       14
1005
129AC4
  0
LINE
  5
129AC5
  8
OBJECT
 10
8076.0
 20
-750.49999999999955
 30
0.0
 11
8083.0
 21
-750.49999999999955
 31
0.0
1001
ACDBBLOCKREPETAG
1070
     1
1071
       15
1005
129AC5
  0
LINE
  5
129AC6
  8
OBJECT
 10
8083.0
 20
-750.49999999999955
 30
0.0
 11
8083.0
 21
-671.49999999999955
 31
0.0
1001
ACDBBLOCKREPETAG
1070
     1
1071
       16
1005
129AC6
  0
LINE
  5
129AC7
  8
OBJECT
 10
8087.0
 20
-666.99999999999955
 30
0.0
 11
8083.0
 21
-671.49999999999955
 31
0.0
1001
ACDBBLOCKREPETAG
1070
     1
1071
       17
1005
129AC7
  0
LINE
  5
129AC8
  8
OBJECT
 10
8087.0
 20
-754.99999999999955
 30
0.0
 11
8083.0
 21
-750.49999999999955
 31
0.0
1001
ACDBBLOCKREPETAG
1070
     1
1071
       18
1005
129AC8
  0
LINE
  5
129AC9
  8
OBJECT
 10
8073.0
 20
-633.99999999999955
 30
0.0
 11
8070.0
 21
-633.99999999999955
 31
0.0
1001
ACDBBLOCKREPETAG
1070
     1
1071
       19
1005
129AC9
  0
ARC
  5
129ACA
  8
OBJECT
 10
8073.0
 20
-636.99999999999955
 30
0.0
 40
3.0
 50
0.0
 51
90.0
1001
ACDBBLOCKREPETAG
1070
     1
1071
       20
1005
129ACA
  0
LINE
  5
129ACB
  8
OBJECT
 10
8070.0
 20
-757.99999999999955
 30
0.0
 11
8073.0
 21
-757.99999999999955
 31
0.0
1001
ACDBBLOCKREPETAG
1070
     1
1071
       21
1005
129ACB
  0
ARC
  5
129ACC
  8
OBJECT
 10
8073.0
 20
-754.99999999999955
 30
0.0
 40
3.0
 50
270.0
 51
0.0
1001
ACDBBLOCKREPETAG
1070
     1
1071
       22
1005
129ACC
  0
LINE
  5
129ACD
  8
OBJECT
 10
8076.0
 20
-754.99999999999955
 30
0.0
 11
8076.0
 21
-636.99999999999955
 31
0.0
1001
ACDBBLOCKREPETAG
1070
     1
1071
       23
1005
129ACD
  0
LINE
  5
129ACE
  8
HIDDEN
 10
8078.0
 20
-680.99999999999955
 30
0.0
 11
8078.0
 21
-740.99999999999955
 31
0.0
1001
ACDBBLOCKREPETAG
1070
     1
1071
       24
1005
129ACE
  0
LINE
  5
129ACF
  8
OBJECT
 10
8123.0
 20
-152.99999999999909
 30
0.0
 11
8130.0
 21
-152.99999999999909
 31
0.0
1001
ACDBBLOCKREPETAG
1070
     1
1071
        7
1005
129ACF
  0
LINE
  5
129AD0
  8
OBJECT
 10
8130.0
 20
-152.99999999999909
 30
0.0
 11
8130.0
 21
-246.99999999999909
 31
0.0
1001
ACDBBLOCKREPETAG
1070
     1
1071
        8
1005
129AD0
  0
LINE
  5
129AD1
  8
OBJECT
 10
8130.0
 20
-246.99999999999909
 30
0.0
 11
8123.0
 21
-246.99999999999909
 31
0.0
1001
ACDBBLOCKREPETAG
1070
     1
1071
        9
1005
129AD1
  0
LINE
  5
129AD2
  8
OBJECT
 10
8123.0
 20
-246.99999999999909
 30
0.0
 11
8123.0
 21
-152.99999999999909
 31
0.0
1001
ACDBBLOCKREPETAG
1070
     1
1071
       10
1005
129AD2
  0
LINE
  5
129AD3
  8
CENTER
 10
8145.0
 20
-199.99999999999909
 30
0.0
 11
8070.0
 21
-199.99999999999909
 31
0.0
1001
ACDBBLOCKREPETAG
1070
     1
1071
       11
1005
129AD3
  0
LINE
  5
129AD4
  8
OBJECT
 10
8123.0
 20
-155.99999999999909
 30
0.0
 11
8087.0
 21
-155.99999999999909
 31
0.0
1001
ACDBBLOCKREPETAG
1070
     1
1071
       12
1005
129AD4
  0
LINE
  5
129AD5
  8
OBJECT
 10
8087.0
 20
-155.99999999999909
 30
0.0
 11
8087.0
 21
-243.99999999999909
 31
0.0
1001
ACDBBLOCKREPETAG
1070
     1
1071
       13
1005
129AD5
  0
LINE
  5
129AD6
  8
OBJECT
 10
8087.0
 20
-243.99999999999909
 30
0.0
 11
8123.0
 21
-243.99999999999909
 31
0.0
1001
ACDBBLOCKREPETAG
1070
     1
1071
       14
1005
129AD6
  0
LINE
  5
129AD7
  8
OBJECT
 10
8083.0
 20
-160.49999999999909
 30
0.0
 11
8076.0
 21
-160.49999999999909
 31
0.0
1001
ACDBBLOCKREPETAG
1070
     1
1071
       15
1005
129AD7
  0
LINE
  5
129AD8
  8
OBJECT
 10
8076.0
 20
-239.49999999999909
 30
0.0
 11
8083.0
 21
-239.49999999999909
 31
0.0
1001
ACDBBLOCKREPETAG
1070
     1
1071
       16
1005
129AD8
  0
LINE
  5
129AD9
  8
OBJECT
 10
8083.0
 20
-239.49999999999909
 30
0.0
 11
8083.0
 21
-160.49999999999909
 31
0.0
1001
ACDBBLOCKREPETAG
1070
     1
1071
       17
1005
129AD9
  0
LINE
  5
129ADA
  8
OBJECT
 10
8087.0
 20
-155.99999999999909
 30
0.0
 11
8083.0
 21
-160.49999999999909
 31
0.0
1001
ACDBBLOCKREPETAG
1070
     1
1071
       18
1005
129ADA
  0
LINE
  5
129ADB
  8
OBJECT
 10
8087.0
 20
-243.99999999999909
 30
0.0
 11
8083.0
 21
-239.49999999999909
 31
0.0
1001
ACDBBLOCKREPETAG
1070
     1
1071
       19
1005
129ADB
  0
LINE
  5
129ADC
  8
OBJECT
 10
8073.0
 20
-137.99999999999909
 30
0.0
 11
8070.0
 21
-137.99999999999909
 31
0.0
1001
ACDBBLOCKREPETAG
1070
     1
1071
       20
1005
129ADC
  0
ARC
  5
129ADD
  8
OBJECT
 10
8073.0
 20
-140.99999999999909
 30
0.0
 40
3.0
 50
0.0
 51
90.0
1001
ACDBBLOCKREPETAG
1070
     1
1071
       21
1005
129ADD
  0
LINE
  5
129ADE
  8
OBJECT
 10
8070.0
 20
-261.99999999999909
 30
0.0
 11
8073.0
 21
-261.99999999999909
 31
0.0
1001
ACDBBLOCKREPETAG
1070
     1
1071
       22
1005
129ADE
  0
ARC
  5
129ADF
  8
OBJECT
 10
8073.0
 20
-258.99999999999909
 30
0.0
 40
3.0
 50
270.0
 51
0.0
1001
ACDBBLOCKREPETAG
1070
     1
1071
       23
1005
129ADF
  0
LINE
  5
129AE0
  8
OBJECT
 10
8076.0
 20
-258.99999999999909
 30
0.0
 11
8076.0
 21
-140.99999999999909
 31
0.0
1001
ACDBBLOCKREPETAG
1070
     1
1071
       24
1005
129AE0
  0
LINE
  5
129AE1
  8
HIDDEN
 10
8078.0
 20
-169.99999999999909
 30
0.0
 11
8078.0
 21
-229.99999999999909
 31
0.0
1001
ACDBBLOCKREPETAG
1070
     1
1071
       25
1005
129AE1
  0
LINE
  5
129AE2
  8
OBJECT
 10
5877.0
 20
-663.99999999999966
 30
0.0
 11
5870.0
 21
-663.99999999999966
 31
0.0
1001
ACDBBLOCKREPETAG
1070
     1
1071
        7
1005
129AE2
  0
LINE
  5
129AE3
  8
OBJECT
 10
5870.0
 20
-663.99999999999966
 30
0.0
 11
5870.0
 21
-754.99999999999955
 31
0.0
1001
ACDBBLOCKREPETAG
1070
     1
1071
        8
1005
129AE3
  0
LINE
  5
129AE4
  8
OBJECT
 10
5877.0
 20
-754.99999999999955
 30
0.0
 11
5877.0
 21
-663.99999999999966
 31
0.0
1001
ACDBBLOCKREPETAG
1070
     1
1071
        9
1005
129AE4
  0
LINE
  5
129AE5
  8
CENTER
 10
5855.0
 20
-710.99999999999955
 30
0.0
 11
5939.0
 21
-710.99999999999955
 31
0.0
1001
ACDBBLOCKREPETAG
1070
     1
1071
       10
1005
129AE5
  0
LINE
  5
129AE6
  8
OBJECT
 10
5877.0
 20
-666.99999999999955
 30
0.0
 11
5913.0
 21
-666.99999999999955
 31
0.0
1001
ACDBBLOCKREPETAG
1070
     1
1071
       11
1005
129AE6
  0
LINE
  5
129AE7
  8
OBJECT
 10
5913.0
 20
-666.99999999999955
 30
0.0
 11
5913.0
 21
-754.99999999999955
 31
0.0
1001
ACDBBLOCKREPETAG
1070
     1
1071
       12
1005
129AE7
  0
LINE
  5
129AE8
  8
OBJECT
 10
5913.0
 20
-754.99999999999955
 30
0.0
 11
5870.0
 21
-754.99999999999955
 31
0.0
1001
ACDBBLOCKREPETAG
1070
     1
1071
       13
1005
129AE8
  0
LINE
  5
129AE9
  8
OBJECT
 10
5917.0
 20
-671.49999999999955
 30
0.0
 11
5924.0
 21
-671.49999999999955
 31
0.0
1001
ACDBBLOCKREPETAG
1070
     1
1071
       14
1005
129AE9
  0
LINE
  5
129AEA
  8
OBJECT
 10
5924.0
 20
-750.49999999999955
 30
0.0
 11
5917.0
 21
-750.49999999999955
 31
0.0
1001
ACDBBLOCKREPETAG
1070
     1
1071
       15
1005
129AEA
  0
LINE
  5
129AEB
  8
OBJECT
 10
5917.0
 20
-750.49999999999955
 30
0.0
 11
5917.0
 21
-671.49999999999955
 31
0.0
1001
ACDBBLOCKREPETAG
1070
     1
1071
       16
1005
129AEB
  0
LINE
  5
129AEC
  8
OBJECT
 10
5913.0
 20
-666.99999999999955
 30
0.0
 11
5917.0
 21
-671.49999999999955
 31
0.0
1001
ACDBBLOCKREPETAG
1070
     1
1071
       17
1005
129AEC
  0
LINE
  5
129AED
  8
OBJECT
 10
5913.0
 20
-754.99999999999955
 30
0.0
 11
5917.0
 21
-750.49999999999955
 31
0.0
1001
ACDBBLOCKREPETAG
1070
     1
1071
       18
1005
129AED
  0
LINE
  5
129AEE
  8
OBJECT
 10
5927.0
 20
-633.99999999999955
 30
0.0
 11
5930.0
 21
-633.99999999999955
 31
0.0
1001
ACDBBLOCKREPETAG
1070
     1
1071
       19
1005
129AEE
  0
ARC
  5
129AEF
  8
OBJECT
 10
5927.0
 20
-636.99999999999955
 30
0.0
 40
3.0
 50
90.0
 51
180.0
1001
ACDBBLOCKREPETAG
1070
     1
1071
       20
1005
129AEF
  0
LINE
  5
129AF0
  8
OBJECT
 10
5930.0
 20
-757.99999999999955
 30
0.0
 11
5927.0
 21
-757.99999999999955
 31
0.0
1001
ACDBBLOCKREPETAG
1070
     1
1071
       21
1005
129AF0
  0
ARC
  5
129AF1
  8
OBJECT
 10
5927.0
 20
-754.99999999999955
 30
0.0
 40
3.0
 50
180.0
 51
270.0
1001
ACDBBLOCKREPETAG
1070
     1
1071
       22
1005
129AF1
  0
LINE
  5
129AF2
  8
OBJECT
 10
5924.0
 20
-754.99999999999955
 30
0.0
 11
5924.0
 21
-636.99999999999955
 31
0.0
1001
ACDBBLOCKREPETAG
1070
     1
1071
       23
1005
129AF2
  0
LINE
  5
129AF3
  8
HIDDEN
 10
5922.0
 20
-680.99999999999955
 30
0.0
 11
5922.0
 21
-740.99999999999955
 31
0.0
1001
ACDBBLOCKREPETAG
1070
     1
1071
       24
1005
129AF3
  0
CIRCLE
  5
129AF4
  8
OBJECT
 10
6000.0
 20
-696.0
 30
0.0
 40
62.0
1001
ACDBBLOCKREPETAG
1070
     1
1071
        0
1005
129AF4
  0
LINE
  5
129AF5
  8
OBJECT
 10
5935.0
 20
-549.99999999999955
 30
0.0
 11
5935.0
 21
-570.99999999999955
 31
0.0
1001
ACDBBLOCKREPETAG
1070
     1
1071
       16
1005
129AF5
  0
LINE
  5
129AF6
  8
OBJECT
 10
5935.0
 20
-570.99999999999955
 30
0.0
 11
6065.0
 21
-570.99999999999955
 31
0.0
1001
ACDBBLOCKREPETAG
1070
     1
1071
       17
1005
129AF6
  0
LINE
  5
129AF7
  8
OBJECT
 10
6065.0
 20
-570.99999999999955
 30
0.0
 11
6065.0
 21
-549.99999999999955
 31
0.0
1001
ACDBBLOCKREPETAG
1070
     1
1071
       18
1005
129AF7
  0
LINE
  5
129AF8
  8
OBJECT
 10
6065.0
 20
-549.99999999999955
 30
0.0
 11
5935.0
 21
-549.99999999999955
 31
0.0
1001
ACDBBLOCKREPETAG
1070
     1
1071
       19
1005
129AF8
  0
LINE
  5
129AF9
  8
HIDDEN
 10
6044.5
 20
-619.99999999999955
 30
0.0
 11
5955.5
 21
-619.99999999999955
 31
0.0
1001
ACDBBLOCKREPETAG
1070
     1
1071
       20
1005
129AF9
  0
LINE
  5
129AFA
  8
CENTER
 10
6000.0
 20
-769.99999999999955
 30
0.0
 11
6000.0
 21
-534.99999999999955
 31
0.0
1001
ACDBBLOCKREPETAG
1070
     1
1071
       21
1005
129AFA
  0
LINE
  5
129AFB
  8
OBJECT
 10
5940.5
 20
-570.99999999999955
 30
0.0
 11
5940.5
 21
-633.99999999999955
 31
0.0
1001
ACDBBLOCKREPETAG
1070
     1
1071
       22
1005
129AFB
  0
LINE
  5
129AFC
  8
OBJECT
 10
5930.0
 20
-633.99999999999955
 30
0.0
 11
6070.0
 21
-633.99999999999955
 31
0.0
1001
ACDBBLOCKREPETAG
1070
     1
1071
       23
1005
129AFC
  0
LINE
  5
129AFD
  8
OBJECT
 10
6059.4999999999991
 20
-633.99999999999955
 30
0.0
 11
6059.4999999999991
 21
-570.99999999999955
 31
0.0
1001
ACDBBLOCKREPETAG
1070
     1
1071
       24
1005
129AFD
  0
LINE
  5
129AFE
  8
OBJECT
 10
5930.0
 20
-757.99999999999955
 30
0.0
 11
5930.0
 21
-769.99999999999955
 31
0.0
1001
ACDBBLOCKREPETAG
1070
     1
1071
       25
1005
129AFE
  0
LINE
  5
129AFF
  8
OBJECT
 10
5930.0
 20
-769.99999999999955
 30
0.0
 11
6070.0
 21
-769.99999999999955
 31
0.0
1001
ACDBBLOCKREPETAG
1070
     1
1071
       26
1005
129AFF
  0
LINE
  5
129B00
  8
OBJECT
 10
6070.0
 20
-769.99999999999955
 30
0.0
 11
6070.0
 21
-757.99999999999955
 31
0.0
1001
ACDBBLOCKREPETAG
1070
     1
1071
       27
1005
129B00
  0
LINE
  5
129B01
  8
OBJECT
 10
6070.0
 20
-757.99999999999955
 30
0.0
 11
5930.0
 21
-757.99999999999955
 31
0.0
1001
ACDBBLOCKREPETAG
1070
     1
1071
       28
1005
129B01
  0
ARC
  5
129B02
  8
OBJECT
 10
6435.0384389946776
 20
-998.60813684682694
 30
0.0
 40
519.48776673616965
 50
135.42350667430969
 51
138.50052655621499
1001
ACDBBLOCKREPETAG
1070
     1
1071
       32
1005
129B02
  0
ARC
  5
129B03
  8
OBJECT
 10
6435.0384389946776
 20
-393.39186315317193
 30
0.0
 40
519.48776673616965
 50
221.49947344378501
 51
224.57649332569039
1001
ACDBBLOCKREPETAG
1070
     1
1071
       33
1005
129B03
  0
ARC
  5
129B04
  8
OBJECT
 10
5564.9615610053224
 20
-998.60813684682694
 30
0.0
 40
519.48776673616965
 50
41.499473443784993
 51
44.576493325690237
1001
ACDBBLOCKREPETAG
1070
     1
1071
       34
1005
129B04
  0
ARC
  5
129B05
  8
OBJECT
 10
5564.9615610053224
 20
-393.39186315317193
 30
0.0
 40
519.48776673616965
 50
315.42350667430981
 51
318.50052655621488
1001
ACDBBLOCKREPETAG
1070
     1
1071
       35
1005
129B05
  0
POINT
  5
129B06
  8
DOTS
 10
6000.0
 20
-754.99999999999955
 30
0.0
1001
ACDBBLOCKREPETAG
1070
     1
1071
      111
1005
129B06
  0
LINE
  5
129B07
  8
OBJECT
 10
5877.0
 20
-246.99999999999909
 30
0.0
 11
5870.0
 21
-246.99999999999909
 31
0.0
1001
ACDBBLOCKREPETAG
1070
     1
1071
        7
1005
129B07
  0
LINE
  5
129B08
  8
OBJECT
 10
5870.0
 20
-246.99999999999909
 30
0.0
 11
5870.0
 21
-152.99999999999909
 31
0.0
1001
ACDBBLOCKREPETAG
1070
     1
1071
        8
1005
129B08
  0
LINE
  5
129B09
  8
OBJECT
 10
5870.0
 20
-152.99999999999909
 30
0.0
 11
5877.0
 21
-152.99999999999909
 31
0.0
1001
ACDBBLOCKREPETAG
1070
     1
1071
        9
1005
129B09
  0
LINE
  5
129B0A
  8
OBJECT
 10
5877.0
 20
-152.99999999999909
 30
0.0
 11
5877.0
 21
-246.99999999999909
 31
0.0
1001
ACDBBLOCKREPETAG
1070
     1
1071
       10
1005
129B0A
  0
LINE
  5
129B0B
  8
CENTER
 10
5855.0
 20
-199.99999999999909
 30
0.0
 11
5930.0
 21
-199.99999999999909
 31
0.0
1001
ACDBBLOCKREPETAG
1070
     1
1071
       11
1005
129B0B
  0
LINE
  5
129B0C
  8
OBJECT
 10
5877.0
 20
-243.99999999999909
 30
0.0
 11
5913.0
 21
-243.99999999999909
 31
0.0
1001
ACDBBLOCKREPETAG
1070
     1
1071
       12
1005
129B0C
  0
LINE
  5
129B0D
  8
OBJECT
 10
5913.0
 20
-243.99999999999909
 30
0.0
 11
5913.0
 21
-155.99999999999909
 31
0.0
1001
ACDBBLOCKREPETAG
1070
     1
1071
       13
1005
129B0D
  0
LINE
  5
129B0E
  8
OBJECT
 10
5913.0
 20
-155.99999999999909
 30
0.0
 11
5877.0
 21
-155.99999999999909
 31
0.0
1001
ACDBBLOCKREPETAG
1070
     1
1071
       14
1005
129B0E
  0
LINE
  5
129B0F
  8
OBJECT
 10
5917.0
 20
-239.49999999999909
 30
0.0
 11
5924.0
 21
-239.49999999999909
 31
0.0
1001
ACDBBLOCKREPETAG
1070
     1
1071
       15
1005
129B0F
  0
LINE
  5
129B10
  8
OBJECT
 10
5924.0
 20
-160.49999999999909
 30
0.0
 11
5917.0
 21
-160.49999999999909
 31
0.0
1001
ACDBBLOCKREPETAG
1070
     1
1071
       16
1005
129B10
  0
LINE
  5
129B11
  8
OBJECT
 10
5917.0
 20
-160.49999999999909
 30
0.0
 11
5917.0
 21
-239.49999999999909
 31
0.0
1001
ACDBBLOCKREPETAG
1070
     1
1071
       17
1005
129B11
  0
LINE
  5
129B12
  8
OBJECT
 10
5913.0
 20
-243.99999999999909
 30
0.0
 11
5917.0
 21
-239.49999999999909
 31
0.0
1001
ACDBBLOCKREPETAG
1070
     1
1071
       18
1005
129B12
  0
LINE
  5
129B13
  8
OBJECT
 10
5913.0
 20
-155.99999999999909
 30
0.0
 11
5917.0
 21
-160.49999999999909
 31
0.0
1001
ACDBBLOCKREPETAG
1070
     1
1071
       19
1005
129B13
  0
LINE
  5
129B14
  8
OBJECT
 10
5927.0
 20
-261.99999999999909
 30
0.0
 11
5930.0
 21
-261.99999999999909
 31
0.0
1001
ACDBBLOCKREPETAG
1070
     1
1071
       20
1005
129B14
  0
ARC
  5
129B15
  8
OBJECT
 10
5927.0
 20
-258.99999999999909
 30
0.0
 40
3.0
 50
180.0
 51
270.0
1001
ACDBBLOCKREPETAG
1070
     1
1071
       21
1005
129B15
  0
LINE
  5
129B16
  8
OBJECT
 10
5930.0
 20
-137.99999999999909
 30
0.0
 11
5927.0
 21
-137.99999999999909
 31
0.0
1001
ACDBBLOCKREPETAG
1070
     1
1071
       22
1005
129B16
  0
ARC
  5
129B17
  8
OBJECT
 10
5927.0
 20
-140.99999999999909
 30
0.0
 40
3.0
 50
90.0
 51
180.0
1001
ACDBBLOCKREPETAG
1070
     1
1071
       23
1005
129B17
  0
LINE
  5
129B18
  8
OBJECT
 10
5924.0
 20
-140.99999999999909
 30
0.0
 11
5924.0
 21
-258.99999999999909
 31
0.0
1001
ACDBBLOCKREPETAG
1070
     1
1071
       24
1005
129B18
  0
LINE
  5
129B19
  8
HIDDEN
 10
5922.0
 20
-229.99999999999909
 30
0.0
 11
5922.0
 21
-169.99999999999909
 31
0.0
1001
ACDBBLOCKREPETAG
1070
     1
1071
       25
1005
129B19
  0
LINE
  5
129B1A
  8
CENTER
 10
6000.0
 20
-290.99999999999898
 30
0.0
 11
6000.0
 21
-269.99999999999909
 31
0.0
1001
ACDBBLOCKREPETAG
1070
     1
1071
        0
1005
129B1A
  0
LINE
  5
129B1B
  8
OBJECT
 10
6062.0
 20
-273.0
 30
0.0
 11
6062.0
 21
-269.99999999999909
 31
0.0
1001
ACDBBLOCKREPETAG
1070
     1
1071
        1
1005
129B1B
  0
ARC
  5
129B1C
  8
OBJECT
 10
6059.0
 20
-273.0
 30
0.0
 40
3.0
 50
270.0
 51
0.0
1001
ACDBBLOCKREPETAG
1070
     1
1071
        2
1005
129B1C
  0
LINE
  5
129B1D
  8
OBJECT
 10
5938.0
 20
-269.99999999999909
 30
0.0
 11
5938.0
 21
-272.99999999999818
 31
0.0
1001
ACDBBLOCKREPETAG
1070
     1
1071
        3
1005
129B1D
  0
ARC
  5
129B1E
  8
OBJECT
 10
5941.0
 20
-272.99999999999818
 30
0.0
 40
3.0
 50
180.0
 51
270.0
1001
ACDBBLOCKREPETAG
1070
     1
1071
        4
1005
129B1E
  0
LINE
  5
129B1F
  8
OBJECT
 10
5941.0
 20
-275.99999999999818
 30
0.0
 11
6059.0
 21
-276.0
 31
0.0
1001
ACDBBLOCKREPETAG
1070
     1
1071
        5
1005
129B1F
  0
POINT
  5
129B20
  8
DOTS
 10
6000.0
 20
-199.99999999999909
 30
0.0
 50
270.0
1001
ACDBBLOCKREPETAG
1070
     1
1071
      153
1005
129B20
  0
ARC
  5
129B21
  8
OBJECT
 10
6000.0
 20
-199.99999999999909
 30
0.0
 40
70.0
 50
62.339550100781771
 51
117.66044989921819
1001
ACDBBLOCKREPETAG
1070
     1
1071
        0
1005
129B21
  0
CIRCLE
  5
129B22
  8
OBJECT
 10
6000.0
 20
-199.99999999999909
 30
0.0
 40
65.0
1001
ACDBBLOCKREPETAG
1070
     1
1071
        1
1005
129B22
  0
CIRCLE
  5
129B23
  8
OBJECT
 10
6000.0
 20
-199.99999999999909
 30
0.0
 40
41.0
1001
ACDBBLOCKREPETAG
1070
     1
1071
        2
1005
129B23
  0
CIRCLE
  5
129B24
  8
OBJECT
 10
6000.0
 20
-199.99999999999909
 30
0.0
 40
58.0
1001
ACDBBLOCKREPETAG
1070
     1
1071
        3
1005
129B24
  0
LINE
  5
129B25
  8
OBJECT
 10
6070.0
 20
-137.99999999999909
 30
0.0
 11
6019.5192212959437
 21
-137.99999999999909
 31
0.0
1001
ACDBBLOCKREPETAG
1070
     1
1071
        4
1005
129B25
  0
LINE
  5
129B26
  8
OBJECT
 10
5930.0
 20
-137.99999999999909
 30
0.0
 11
5980.4807787040563
 21
-137.99999999999909
 31
0.0
1001
ACDBBLOCKREPETAG
1070
     1
1071
        5
1005
129B26
  0
LINE
  5
129B27
  8
OBJECT
 10
5930.0
 20
-261.99999999999909
 30
0.0
 11
5938.0
 21
-261.99999999999909
 31
0.0
1001
ACDBBLOCKREPETAG
1070
     1
1071
        6
1005
129B27
  0
LINE
  5
129B28
  8
OBJECT
 10
5938.0
 20
-269.99999999999909
 30
0.0
 11
5938.0
 21
-261.99999999999909
 31
0.0
1001
ACDBBLOCKREPETAG
1070
     1
1071
        7
1005
129B28
  0
LINE
  5
129B29
  8
OBJECT
 10
6070.0
 20
-261.99999999999909
 30
0.0
 11
6062.0
 21
-261.99999999999909
 31
0.0
1001
ACDBBLOCKREPETAG
1070
     1
1071
        8
1005
129B29
  0
LINE
  5
129B2A
  8
OBJECT
 10
6062.0
 20
-269.99999999999909
 30
0.0
 11
6062.0
 21
-261.99999999999909
 31
0.0
1001
ACDBBLOCKREPETAG
1070
     1
1071
        9
1005
129B2A
  0
LINE
  5
129B2B
  8
CENTER
 10
5930.0
 20
-199.99999999999909
 30
0.0
 11
6070.0
 21
-199.99999999999909
 31
0.0
1001
ACDBBLOCKREPETAG
1070
     1
1071
       10
1005
129B2B
  0
LINE
  5
129B2C
  8
CENTER
 10
6000.0
 20
-269.99999999999909
 30
0.0
 11
6000.0
 21
-114.9999999999991
 31
0.0
1001
ACDBBLOCKREPETAG
1070
     1
1071
       11
1005
129B2C
  0
ARC
  5
129B2D
  8
OBJECT
 10
5989.9027621391879
 20
-224.44352901899131
 30
0.0
 40
7.0
 50
73.001272229719234
 51
154.0502587894434
1001
ACDBBLOCKREPETAG
1070
     1
1071
       12
1005
129B2D
  0
ARC
  5
129B2E
  8
OBJECT
 10
5986.8376610706491
 20
-225.5978773169509
 30
0.0
 40
9.0
 50
73.001272229719234
 51
154.0502639259247
1001
ACDBBLOCKREPETAG
1070
     1
1071
       13
1005
129B2E
  0
ARC
  5
129B2F
  8
OBJECT
 10
5896.3142301315529
 20
-147.28130031148149
 30
0.0
 40
150.0
 50
322.89503374001981
 51
325.89314996972843
1001
ACDBBLOCKREPETAG
1070
     1
1071
       14
1005
129B2F
  0
ARC
  5
129B30
  8
OBJECT
 10
6000.0
 20
-199.99999999999909
 30
0.0
 40
37.5
 50
303.1627666766604
 51
229.1635024908081
1001
ACDBBLOCKREPETAG
1070
     1
1071
       15
1005
129B30
  0
LINE
  5
129B31
  8
OBJECT
 10
5983.6085145189763
 20
-221.38045100897119
 30
0.0
 11
5977.3740109999999
 21
-234.1915870000002
 31
0.0
1001
ACDBBLOCKREPETAG
1070
     1
1071
       16
1005
129B31
  0
LINE
  5
129B32
  8
OBJECT
 10
5978.7450566344633
 20
-221.65963488670511
 30
0.0
 11
5973.8986720000003
 21
-231.6183599999996
 31
0.0
1001
ACDBBLOCKREPETAG
1070
     1
1071
       17
1005
129B32
  0
LINE
  5
129B33
  8
OBJECT
 10
6018.9380179999998
 20
-226.00000000000091
 30
0.0
 11
5989.4688153032585
 21
-216.99107608744359
 31
0.0
1001
ACDBBLOCKREPETAG
1070
     1
1071
       18
1005
129B33
  0
LINE
  5
129B34
  8
OBJECT
 10
6020.5132253090051
 20
-231.39199878029191
 30
0.0
 11
6018.9380179999998
 21
-226.00000000000091
 31
0.0
1001
ACDBBLOCKREPETAG
1070
     1
1071
       19
1005
129B34
  0
LINE
  5
129B35
  8
OBJECT
 10
5954.0380592228739
 20
-245.96194077712471
 30
0.0
 11
5938.0
 21
-261.99999999999909
 31
0.0
1001
ACDBBLOCKREPETAG
1070
     1
1071
       42
1005
129B35
  0
LINE
  5
129B36
  8
OBJECT
 10
6045.9619407771252
 20
-245.96194077712471
 30
0.0
 11
6062.0
 21
-261.99999999999909
 31
0.0
1001
ACDBBLOCKREPETAG
1070
     1
1071
       43
1005
129B36
  0
LINE
  5
129B37
  8
OBJECT
 10
6123.0
 20
-663.99999999999966
 30
0.0
 11
6130.0
 21
-663.99999999999966
 31
0.0
1001
ACDBBLOCKREPETAG
1070
     1
1071
        7
1005
129B37
  0
LINE
  5
129B38
  8
OBJECT
 10
6130.0
 20
-663.99999999999966
 30
0.0
 11
6130.0
 21
-754.99999999999955
 31
0.0
1001
ACDBBLOCKREPETAG
1070
     1
1071
        8
1005
129B38
  0
LINE
  5
129B39
  8
OBJECT
 10
6123.0
 20
-754.99999999999955
 30
0.0
 11
6123.0
 21
-663.99999999999966
 31
0.0
1001
ACDBBLOCKREPETAG
1070
     1
1071
        9
1005
129B39
  0
LINE
  5
129B3A
  8
CENTER
 10
6145.0
 20
-710.99999999999955
 30
0.0
 11
6061.0
 21
-710.99999999999955
 31
0.0
1001
ACDBBLOCKREPETAG
1070
     1
1071
       10
1005
129B3A
  0
LINE
  5
129B3B
  8
OBJECT
 10
6123.0
 20
-666.99999999999955
 30
0.0
 11
6087.0
 21
-666.99999999999955
 31
0.0
1001
ACDBBLOCKREPETAG
1070
     1
1071
       11
1005
129B3B
  0
LINE
  5
129B3C
  8
OBJECT
 10
6087.0
 20
-666.99999999999955
 30
0.0
 11
6087.0
 21
-754.99999999999955
 31
0.0
1001
ACDBBLOCKREPETAG
1070
     1
1071
       12
1005
129B3C
  0
LINE
  5
129B3D
  8
OBJECT
 10
6087.0
 20
-754.99999999999955
 30
0.0
 11
6130.0
 21
-754.99999999999955
 31
0.0
1001
ACDBBLOCKREPETAG
1070
     1
1071
       13
1005
129B3D
  0
LINE
  5
129B3E
  8
OBJECT
 10
6083.0
 20
-671.49999999999955
 30
0.0
 11
6076.0
 21
-671.49999999999955
 31
0.0
1001
ACDBBLOCKREPETAG
1070
     1
1071
       14
1005
129B3E
  0
LINE
  5
129B3F
  8
OBJECT
 10
6076.0
 20
-750.49999999999955
 30
0.0
 11
6083.0
 21
-750.49999999999955
 31
0.0
1001
ACDBBLOCKREPETAG
1070
     1
1071
       15
1005
129B3F
  0
LINE
  5
129B40
  8
OBJECT
 10
6083.0
 20
-750.49999999999955
 30
0.0
 11
6083.0
 21
-671.49999999999955
 31
0.0
1001
ACDBBLOCKREPETAG
1070
     1
1071
       16
1005
129B40
  0
LINE
  5
129B41
  8
OBJECT
 10
6087.0
 20
-666.99999999999955
 30
0.0
 11
6083.0
 21
-671.49999999999955
 31
0.0
1001
ACDBBLOCKREPETAG
1070
     1
1071
       17
1005
129B41
  0
LINE
  5
129B42
  8
OBJECT
 10
6087.0
 20
-754.99999999999955
 30
0.0
 11
6083.0
 21
-750.49999999999955
 31
0.0
1001
ACDBBLOCKREPETAG
1070
     1
1071
       18
1005
129B42
  0
LINE
  5
129B43
  8
OBJECT
 10
6073.0
 20
-633.99999999999955
 30
0.0
 11
6070.0
 21
-633.99999999999955
 31
0.0
1001
ACDBBLOCKREPETAG
1070
     1
1071
       19
1005
129B43
  0
ARC
  5
129B44
  8
OBJECT
 10
6073.0
 20
-636.99999999999955
 30
0.0
 40
3.0
 50
0.0
 51
90.0
1001
ACDBBLOCKREPETAG
1070
     1
1071
       20
1005
129B44
  0
LINE
  5
129B45
  8
OBJECT
 10
6070.0
 20
-757.99999999999955
 30
0.0
 11
6073.0
 21
-757.99999999999955
 31
0.0
1001
ACDBBLOCKREPETAG
1070
     1
1071
       21
1005
129B45
  0
ARC
  5
129B46
  8
OBJECT
 10
6073.0
 20
-754.99999999999955
 30
0.0
 40
3.0
 50
270.0
 51
0.0
1001
ACDBBLOCKREPETAG
1070
     1
1071
       22
1005
129B46
  0
LINE
  5
129B47
  8
OBJECT
 10
6076.0
 20
-754.99999999999955
 30
0.0
 11
6076.0
 21
-636.99999999999955
 31
0.0
1001
ACDBBLOCKREPETAG
1070
     1
1071
       23
1005
129B47
  0
LINE
  5
129B48
  8
HIDDEN
 10
6078.0
 20
-680.99999999999955
 30
0.0
 11
6078.0
 21
-740.99999999999955
 31
0.0
1001
ACDBBLOCKREPETAG
1070
     1
1071
       24
1005
129B48
  0
LINE
  5
129B49
  8
OBJECT
 10
6123.0
 20
-152.99999999999909
 30
0.0
 11
6130.0
 21
-152.99999999999909
 31
0.0
1001
ACDBBLOCKREPETAG
1070
     1
1071
        7
1005
129B49
  0
LINE
  5
129B4A
  8
OBJECT
 10
6130.0
 20
-152.99999999999909
 30
0.0
 11
6130.0
 21
-246.99999999999909
 31
0.0
1001
ACDBBLOCKREPETAG
1070
     1
1071
        8
1005
129B4A
  0
LINE
  5
129B4B
  8
OBJECT
 10
6130.0
 20
-246.99999999999909
 30
0.0
 11
6123.0
 21
-246.99999999999909
 31
0.0
1001
ACDBBLOCKREPETAG
1070
     1
1071
        9
1005
129B4B
  0
LINE
  5
129B4C
  8
OBJECT
 10
6123.0
 20
-246.99999999999909
 30
0.0
 11
6123.0
 21
-152.99999999999909
 31
0.0
1001
ACDBBLOCKREPETAG
1070
     1
1071
       10
1005
129B4C
  0
LINE
  5
129B4D
  8
CENTER
 10
6145.0
 20
-199.99999999999909
 30
0.0
 11
6070.0
 21
-199.99999999999909
 31
0.0
1001
ACDBBLOCKREPETAG
1070
     1
1071
       11
1005
129B4D
  0
LINE
  5
129B4E
  8
OBJECT
 10
6123.0
 20
-155.99999999999909
 30
0.0
 11
6087.0
 21
-155.99999999999909
 31
0.0
1001
ACDBBLOCKREPETAG
1070
     1
1071
       12
1005
129B4E
  0
LINE
  5
129B4F
  8
OBJECT
 10
6087.0
 20
-155.99999999999909
 30
0.0
 11
6087.0
 21
-243.99999999999909
 31
0.0
1001
ACDBBLOCKREPETAG
1070
     1
1071
       13
1005
129B4F
  0
LINE
  5
129B50
  8
OBJECT
 10
6087.0
 20
-243.99999999999909
 30
0.0
 11
6123.0
 21
-243.99999999999909
 31
0.0
1001
ACDBBLOCKREPETAG
1070
     1
1071
       14
1005
129B50
  0
LINE
  5
129B51
  8
OBJECT
 10
6083.0
 20
-160.49999999999909
 30
0.0
 11
6076.0
 21
-160.49999999999909
 31
0.0
1001
ACDBBLOCKREPETAG
1070
     1
1071
       15
1005
129B51
  0
LINE
  5
129B52
  8
OBJECT
 10
6076.0
 20
-239.49999999999909
 30
0.0
 11
6083.0
 21
-239.49999999999909
 31
0.0
1001
ACDBBLOCKREPETAG
1070
     1
1071
       16
1005
129B52
  0
LINE
  5
129B53
  8
OBJECT
 10
6083.0
 20
-239.49999999999909
 30
0.0
 11
6083.0
 21
-160.49999999999909
 31
0.0
1001
ACDBBLOCKREPETAG
1070
     1
1071
       17
1005
129B53
  0
LINE
  5
129B54
  8
OBJECT
 10
6087.0
 20
-155.99999999999909
 30
0.0
 11
6083.0
 21
-160.49999999999909
 31
0.0
1001
ACDBBLOCKREPETAG
1070
     1
1071
       18
1005
129B54
  0
LINE
  5
129B55
  8
OBJECT
 10
6087.0
 20
-243.99999999999909
 30
0.0
 11
6083.0
 21
-239.49999999999909
 31
0.0
1001
ACDBBLOCKREPETAG
1070
     1
1071
       19
1005
129B55
  0
LINE
  5
129B56
  8
OBJECT
 10
6073.0
 20
-137.99999999999909
 30
0.0
 11
6070.0
 21
-137.99999999999909
 31
0.0
1001
ACDBBLOCKREPETAG
1070
     1
1071
       20
1005
129B56
  0
ARC
  5
129B57
  8
OBJECT
 10
6073.0
 20
-140.99999999999909
 30
0.0
 40
3.0
 50
0.0
 51
90.0
1001
ACDBBLOCKREPETAG
1070
     1
1071
       21
1005
129B57
  0
LINE
  5
129B58
  8
OBJECT
 10
6070.0
 20
-261.99999999999909
 30
0.0
 11
6073.0
 21
-261.99999999999909
 31
0.0
1001
ACDBBLOCKREPETAG
1070
     1
1071
       22
1005
129B58
  0
ARC
  5
129B59
  8
OBJECT
 10
6073.0
 20
-258.99999999999909
 30
0.0
 40
3.0
 50
270.0
 51
0.0
1001
ACDBBLOCKREPETAG
1070
     1
1071
       23
1005
129B59
  0
LINE
  5
129B5A
  8
OBJECT
 10
6076.0
 20
-258.99999999999909
 30
0.0
 11
6076.0
 21
-140.99999999999909
 31
0.0
1001
ACDBBLOCKREPETAG
1070
     1
1071
       24
1005
129B5A
  0
LINE
  5
129B5B
  8
HIDDEN
 10
6078.0
 20
-169.99999999999909
 30
0.0
 11
6078.0
 21
-229.99999999999909
 31
0.0
1001
ACDBBLOCKREPETAG
1070
     1
1071
       25
1005
129B5B
  0
LINE
  5
129B5C
  8
OBJECT
 10
3877.0
 20
-663.99999999999966
 30
0.0
 11
3870.0
 21
-663.99999999999966
 31
0.0
1001
ACDBBLOCKREPETAG
1070
     1
1071
        7
1005
129B5C
  0
LINE
  5
129B5D
  8
OBJECT
 10
3870.0
 20
-663.99999999999966
 30
0.0
 11
3870.0
 21
-754.99999999999955
 31
0.0
1001
ACDBBLOCKREPETAG
1070
     1
1071
        8
1005
129B5D
  0
LINE
  5
129B5E
  8
OBJECT
 10
3877.0
 20
-754.99999999999955
 30
0.0
 11
3877.0
 21
-663.99999999999966
 31
0.0
1001
ACDBBLOCKREPETAG
1070
     1
1071
        9
1005
129B5E
  0
LINE
  5
129B5F
  8
CENTER
 10
3855.0
 20
-710.99999999999955
 30
0.0
 11
3939.0
 21
-710.99999999999955
 31
0.0
1001
ACDBBLOCKREPETAG
1070
     1
1071
       10
1005
129B5F
  0
LINE
  5
129B60
  8
OBJECT
 10
3877.0
 20
-666.99999999999955
 30
0.0
 11
3913.0
 21
-666.99999999999955
 31
0.0
1001
ACDBBLOCKREPETAG
1070
     1
1071
       11
1005
129B60
  0
LINE
  5
129B61
  8
OBJECT
 10
3913.0
 20
-666.99999999999955
 30
0.0
 11
3913.0
 21
-754.99999999999955
 31
0.0
1001
ACDBBLOCKREPETAG
1070
     1
1071
       12
1005
129B61
  0
LINE
  5
129B62
  8
OBJECT
 10
3913.0
 20
-754.99999999999955
 30
0.0
 11
3870.0
 21
-754.99999999999955
 31
0.0
1001
ACDBBLOCKREPETAG
1070
     1
1071
       13
1005
129B62
  0
LINE
  5
129B63
  8
OBJECT
 10
3917.0
 20
-671.49999999999955
 30
0.0
 11
3924.0
 21
-671.49999999999955
 31
0.0
1001
ACDBBLOCKREPETAG
1070
     1
1071
       14
1005
129B63
  0
LINE
  5
129B64
  8
OBJECT
 10
3924.0
 20
-750.49999999999955
 30
0.0
 11
3917.0
 21
-750.49999999999955
 31
0.0
1001
ACDBBLOCKREPETAG
1070
     1
1071
       15
1005
129B64
  0
LINE
  5
129B65
  8
OBJECT
 10
3917.0
 20
-750.49999999999955
 30
0.0
 11
3917.0
 21
-671.49999999999955
 31
0.0
1001
ACDBBLOCKREPETAG
1070
     1
1071
       16
1005
129B65
  0
LINE
  5
129B66
  8
OBJECT
 10
3913.0
 20
-666.99999999999955
 30
0.0
 11
3917.0
 21
-671.49999999999955
 31
0.0
1001
ACDBBLOCKREPETAG
1070
     1
1071
       17
1005
129B66
  0
LINE
  5
129B67
  8
OBJECT
 10
3913.0
 20
-754.99999999999955
 30
0.0
 11
3917.0
 21
-750.49999999999955
 31
0.0
1001
ACDBBLOCKREPETAG
1070
     1
1071
       18
1005
129B67
  0
LINE
  5
129B68
  8
OBJECT
 10
3927.0
 20
-633.99999999999955
 30
0.0
 11
3930.0
 21
-633.99999999999955
 31
0.0
1001
ACDBBLOCKREPETAG
1070
     1
1071
       19
1005
129B68
  0
ARC
  5
129B69
  8
OBJECT
 10
3927.0
 20
-636.99999999999955
 30
0.0
 40
3.0
 50
90.0
 51
180.0
1001
ACDBBLOCKREPETAG
1070
     1
1071
       20
1005
129B69
  0
LINE
  5
129B6A
  8
OBJECT
 10
3930.0
 20
-757.99999999999955
 30
0.0
 11
3927.0
 21
-757.99999999999955
 31
0.0
1001
ACDBBLOCKREPETAG
1070
     1
1071
       21
1005
129B6A
  0
ARC
  5
129B6B
  8
OBJECT
 10
3927.0
 20
-754.99999999999955
 30
0.0
 40
3.0
 50
180.0
 51
270.0
1001
ACDBBLOCKREPETAG
1070
     1
1071
       22
1005
129B6B
  0
LINE
  5
129B6C
  8
OBJECT
 10
3924.0
 20
-754.99999999999955
 30
0.0
 11
3924.0
 21
-636.99999999999955
 31
0.0
1001
ACDBBLOCKREPETAG
1070
     1
1071
       23
1005
129B6C
  0
LINE
  5
129B6D
  8
HIDDEN
 10
3922.0
 20
-680.99999999999955
 30
0.0
 11
3922.0
 21
-740.99999999999955
 31
0.0
1001
ACDBBLOCKREPETAG
1070
     1
1071
       24
1005
129B6D
  0
CIRCLE
  5
129B6E
  8
OBJECT
 10
4000.0
 20
-696.0
 30
0.0
 40
62.0
1001
ACDBBLOCKREPETAG
1070
     1
1071
        0
1005
129B6E
  0
LINE
  5
129B6F
  8
OBJECT
 10
3935.0
 20
-549.99999999999955
 30
0.0
 11
3935.0
 21
-570.99999999999955
 31
0.0
1001
ACDBBLOCKREPETAG
1070
     1
1071
       16
1005
129B6F
  0
LINE
  5
129B70
  8
OBJECT
 10
3935.0
 20
-570.99999999999955
 30
0.0
 11
4065.0
 21
-570.99999999999955
 31
0.0
1001
ACDBBLOCKREPETAG
1070
     1
1071
       17
1005
129B70
  0
LINE
  5
129B71
  8
OBJECT
 10
4065.0
 20
-570.99999999999955
 30
0.0
 11
4065.0
 21
-549.99999999999955
 31
0.0
1001
ACDBBLOCKREPETAG
1070
     1
1071
       18
1005
129B71
  0
LINE
  5
129B72
  8
OBJECT
 10
4065.0
 20
-549.99999999999955
 30
0.0
 11
3935.0
 21
-549.99999999999955
 31
0.0
1001
ACDBBLOCKREPETAG
1070
     1
1071
       19
1005
129B72
  0
LINE
  5
129B73
  8
HIDDEN
 10
4044.5
 20
-619.99999999999955
 30
0.0
 11
3955.5
 21
-619.99999999999955
 31
0.0
1001
ACDBBLOCKREPETAG
1070
     1
1071
       20
1005
129B73
  0
LINE
  5
129B74
  8
CENTER
 10
4000.0
 20
-769.99999999999955
 30
0.0
 11
4000.0
 21
-534.99999999999955
 31
0.0
1001
ACDBBLOCKREPETAG
1070
     1
1071
       21
1005
129B74
  0
LINE
  5
129B75
  8
OBJECT
 10
3940.5
 20
-570.99999999999955
 30
0.0
 11
3940.5
 21
-633.99999999999955
 31
0.0
1001
ACDBBLOCKREPETAG
1070
     1
1071
       22
1005
129B75
  0
LINE
  5
129B76
  8
OBJECT
 10
3930.0
 20
-633.99999999999955
 30
0.0
 11
4070.0
 21
-633.99999999999955
 31
0.0
1001
ACDBBLOCKREPETAG
1070
     1
1071
       23
1005
129B76
  0
LINE
  5
129B77
  8
OBJECT
 10
4059.4999999999982
 20
-633.99999999999955
 30
0.0
 11
4059.4999999999982
 21
-570.99999999999955
 31
0.0
1001
ACDBBLOCKREPETAG
1070
     1
1071
       24
1005
129B77
  0
LINE
  5
129B78
  8
OBJECT
 10
3930.0
 20
-757.99999999999955
 30
0.0
 11
3930.0
 21
-769.99999999999955
 31
0.0
1001
ACDBBLOCKREPETAG
1070
     1
1071
       25
1005
129B78
  0
LINE
  5
129B79
  8
OBJECT
 10
3930.0
 20
-769.99999999999955
 30
0.0
 11
4070.0
 21
-769.99999999999955
 31
0.0
1001
ACDBBLOCKREPETAG
1070
     1
1071
       26
1005
129B79
  0
LINE
  5
129B7A
  8
OBJECT
 10
4070.0
 20
-769.99999999999955
 30
0.0
 11
4070.0
 21
-757.99999999999955
 31
0.0
1001
ACDBBLOCKREPETAG
1070
     1
1071
       27
1005
129B7A
  0
LINE
  5
129B7B
  8
OBJECT
 10
4070.0
 20
-757.99999999999955
 30
0.0
 11
3930.0
 21
-757.99999999999955
 31
0.0
1001
ACDBBLOCKREPETAG
1070
     1
1071
       28
1005
129B7B
  0
ARC
  5
129B7C
  8
OBJECT
 10
4435.0384389946767
 20
-998.60813684682694
 30
0.0
 40
519.48776673616965
 50
135.42350667430969
 51
138.50052655621499
1001
ACDBBLOCKREPETAG
1070
     1
1071
       32
1005
129B7C
  0
ARC
  5
129B7D
  8
OBJECT
 10
4435.0384389946767
 20
-393.39186315317193
 30
0.0
 40
519.48776673616965
 50
221.49947344378501
 51
224.57649332569039
1001
ACDBBLOCKREPETAG
1070
     1
1071
       33
1005
129B7D
  0
ARC
  5
129B7E
  8
OBJECT
 10
3564.961561005322
 20
-998.60813684682694
 30
0.0
 40
519.48776673616965
 50
41.499473443784993
 51
44.576493325690237
1001
ACDBBLOCKREPETAG
1070
     1
1071
       34
1005
129B7E
  0
ARC
  5
129B7F
  8
OBJECT
 10
3564.961561005322
 20
-393.39186315317193
 30
0.0
 40
519.48776673616965
 50
315.42350667430981
 51
318.50052655621488
1001
ACDBBLOCKREPETAG
1070
     1
1071
       35
1005
129B7F
  0
POINT
  5
129B80
  8
DOTS
 10
4000.0
 20
-754.99999999999955
 30
0.0
1001
ACDBBLOCKREPETAG
1070
     1
1071
      111
1005
129B80
  0
LINE
  5
129B81
  8
OBJECT
 10
3877.0
 20
-246.99999999999909
 30
0.0
 11
3870.0
 21
-246.99999999999909
 31
0.0
1001
ACDBBLOCKREPETAG
1070
     1
1071
        7
1005
129B81
  0
LINE
  5
129B82
  8
OBJECT
 10
3870.0
 20
-246.99999999999909
 30
0.0
 11
3870.0
 21
-152.99999999999909
 31
0.0
1001
ACDBBLOCKREPETAG
1070
     1
1071
        8
1005
129B82
  0
LINE
  5
129B83
  8
OBJECT
 10
3870.0
 20
-152.99999999999909
 30
0.0
 11
3877.0
 21
-152.99999999999909
 31
0.0
1001
ACDBBLOCKREPETAG
1070
     1
1071
        9
1005
129B83
  0
LINE
  5
129B84
  8
OBJECT
 10
3877.0
 20
-152.99999999999909
 30
0.0
 11
3877.0
 21
-246.99999999999909
 31
0.0
1001
ACDBBLOCKREPETAG
1070
     1
1071
       10
1005
129B84
  0
LINE
  5
129B85
  8
CENTER
 10
3855.0
 20
-199.99999999999909
 30
0.0
 11
3930.0
 21
-199.99999999999909
 31
0.0
1001
ACDBBLOCKREPETAG
1070
     1
1071
       11
1005
129B85
  0
LINE
  5
129B86
  8
OBJECT
 10
3877.0
 20
-243.99999999999909
 30
0.0
 11
3913.0
 21
-243.99999999999909
 31
0.0
1001
ACDBBLOCKREPETAG
1070
     1
1071
       12
1005
129B86
  0
LINE
  5
129B87
  8
OBJECT
 10
3913.0
 20
-243.99999999999909
 30
0.0
 11
3913.0
 21
-155.99999999999909
 31
0.0
1001
ACDBBLOCKREPETAG
1070
     1
1071
       13
1005
129B87
  0
LINE
  5
129B88
  8
OBJECT
 10
3913.0
 20
-155.99999999999909
 30
0.0
 11
3877.0
 21
-155.99999999999909
 31
0.0
1001
ACDBBLOCKREPETAG
1070
     1
1071
       14
1005
129B88
  0
LINE
  5
129B89
  8
OBJECT
 10
3917.0
 20
-239.49999999999909
 30
0.0
 11
3924.0
 21
-239.49999999999909
 31
0.0
1001
ACDBBLOCKREPETAG
1070
     1
1071
       15
1005
129B89
  0
LINE
  5
129B8A
  8
OBJECT
 10
3924.0
 20
-160.49999999999909
 30
0.0
 11
3917.0
 21
-160.49999999999909
 31
0.0
1001
ACDBBLOCKREPETAG
1070
     1
1071
       16
1005
129B8A
  0
LINE
  5
129B8B
  8
OBJECT
 10
3917.0
 20
-160.49999999999909
 30
0.0
 11
3917.0
 21
-239.49999999999909
 31
0.0
1001
ACDBBLOCKREPETAG
1070
     1
1071
       17
1005
129B8B
  0
LINE
  5
129B8C
  8
OBJECT
 10
3913.0
 20
-243.99999999999909
 30
0.0
 11
3917.0
 21
-239.49999999999909
 31
0.0
1001
ACDBBLOCKREPETAG
1070
     1
1071
       18
1005
129B8C
  0
LINE
  5
129B8D
  8
OBJECT
 10
3913.0
 20
-155.99999999999909
 30
0.0
 11
3917.0
 21
-160.49999999999909
 31
0.0
1001
ACDBBLOCKREPETAG
1070
     1
1071
       19
1005
129B8D
  0
LINE
  5
129B8E
  8
OBJECT
 10
3927.0
 20
-261.99999999999909
 30
0.0
 11
3930.0
 21
-261.99999999999909
 31
0.0
1001
ACDBBLOCKREPETAG
1070
     1
1071
       20
1005
129B8E
  0
ARC
  5
129B8F
  8
OBJECT
 10
3927.0
 20
-258.99999999999909
 30
0.0
 40
3.0
 50
180.0
 51
270.0
1001
ACDBBLOCKREPETAG
1070
     1
1071
       21
1005
129B8F
  0
LINE
  5
129B90
  8
OBJECT
 10
3930.0
 20
-137.99999999999909
 30
0.0
 11
3927.0
 21
-137.99999999999909
 31
0.0
1001
ACDBBLOCKREPETAG
1070
     1
1071
       22
1005
129B90
  0
ARC
  5
129B91
  8
OBJECT
 10
3927.0
 20
-140.99999999999909
 30
0.0
 40
3.0
 50
90.0
 51
180.0
1001
ACDBBLOCKREPETAG
1070
     1
1071
       23
1005
129B91
  0
LINE
  5
129B92
  8
OBJECT
 10
3924.0
 20
-140.99999999999909
 30
0.0
 11
3924.0
 21
-258.99999999999909
 31
0.0
1001
ACDBBLOCKREPETAG
1070
     1
1071
       24
1005
129B92
  0
LINE
  5
129B93
  8
HIDDEN
 10
3922.0
 20
-229.99999999999909
 30
0.0
 11
3922.0
 21
-169.99999999999909
 31
0.0
1001
ACDBBLOCKREPETAG
1070
     1
1071
       25
1005
129B93
  0
LINE
  5
129B94
  8
CENTER
 10
4000.0
 20
-290.99999999999898
 30
0.0
 11
4000.0
 21
-269.99999999999909
 31
0.0
1001
ACDBBLOCKREPETAG
1070
     1
1071
        0
1005
129B94
  0
LINE
  5
129B95
  8
OBJECT
 10
4062.0
 20
-273.0
 30
0.0
 11
4062.0
 21
-269.99999999999909
 31
0.0
1001
ACDBBLOCKREPETAG
1070
     1
1071
        1
1005
129B95
  0
ARC
  5
129B96
  8
OBJECT
 10
4059.0
 20
-273.0
 30
0.0
 40
3.0
 50
270.0
 51
0.0
1001
ACDBBLOCKREPETAG
1070
     1
1071
        2
1005
129B96
  0
LINE
  5
129B97
  8
OBJECT
 10
3938.0
 20
-269.99999999999909
 30
0.0
 11
3938.0
 21
-272.99999999999818
 31
0.0
1001
ACDBBLOCKREPETAG
1070
     1
1071
        3
1005
129B97
  0
ARC
  5
129B98
  8
OBJECT
 10
3941.0
 20
-272.99999999999818
 30
0.0
 40
3.0
 50
180.0
 51
270.0
1001
ACDBBLOCKREPETAG
1070
     1
1071
        4
1005
129B98
  0
LINE
  5
129B99
  8
OBJECT
 10
3941.0
 20
-275.99999999999818
 30
0.0
 11
4059.0
 21
-276.0
 31
0.0
1001
ACDBBLOCKREPETAG
1070
     1
1071
        5
1005
129B99
  0
POINT
  5
129B9A
  8
DOTS
 10
4000.0
 20
-199.99999999999909
 30
0.0
 50
270.0
1001
ACDBBLOCKREPETAG
1070
     1
1071
      153
1005
129B9A
  0
ARC
  5
129B9B
  8
OBJECT
 10
4000.0
 20
-199.99999999999909
 30
0.0
 40
70.0
 50
62.339550100758693
 51
117.6604498992413
1001
ACDBBLOCKREPETAG
1070
     1
1071
        0
1005
129B9B
  0
CIRCLE
  5
129B9C
  8
OBJECT
 10
4000.0
 20
-199.99999999999909
 30
0.0
 40
65.0
1001
ACDBBLOCKREPETAG
1070
     1
1071
        1
1005
129B9C
  0
CIRCLE
  5
129B9D
  8
OBJECT
 10
4000.0
 20
-199.99999999999909
 30
0.0
 40
41.0
1001
ACDBBLOCKREPETAG
1070
     1
1071
        2
1005
129B9D
  0
CIRCLE
  5
129B9E
  8
OBJECT
 10
4000.0
 20
-199.99999999999909
 30
0.0
 40
58.0
1001
ACDBBLOCKREPETAG
1070
     1
1071
        3
1005
129B9E
  0
LINE
  5
129B9F
  8
OBJECT
 10
4070.0
 20
-137.99999999999909
 30
0.0
 11
4019.5192212959432
 21
-137.99999999999909
 31
0.0
1001
ACDBBLOCKREPETAG
1070
     1
1071
        4
1005
129B9F
  0
LINE
  5
129BA0
  8
OBJECT
 10
3930.0
 20
-137.99999999999909
 30
0.0
 11
3980.4807787040581
 21
-137.99999999999909
 31
0.0
1001
ACDBBLOCKREPETAG
1070
     1
1071
        5
1005
129BA0
  0
LINE
  5
129BA1
  8
OBJECT
 10
3930.0
 20
-261.99999999999909
 30
0.0
 11
3938.0
 21
-261.99999999999909
 31
0.0
1001
ACDBBLOCKREPETAG
1070
     1
1071
        6
1005
129BA1
  0
LINE
  5
129BA2
  8
OBJECT
 10
3938.0
 20
-269.99999999999909
 30
0.0
 11
3938.0
 21
-261.99999999999909
 31
0.0
1001
ACDBBLOCKREPETAG
1070
     1
1071
        7
1005
129BA2
  0
LINE
  5
129BA3
  8
OBJECT
 10
4070.0
 20
-261.99999999999909
 30
0.0
 11
4062.0
 21
-261.99999999999909
 31
0.0
1001
ACDBBLOCKREPETAG
1070
     1
1071
        8
1005
129BA3
  0
LINE
  5
129BA4
  8
OBJECT
 10
4062.0
 20
-269.99999999999909
 30
0.0
 11
4062.0
 21
-261.99999999999909
 31
0.0
1001
ACDBBLOCKREPETAG
1070
     1
1071
        9
1005
129BA4
  0
LINE
  5
129BA5
  8
CENTER
 10
3930.0
 20
-199.99999999999909
 30
0.0
 11
4070.0
 21
-199.99999999999909
 31
0.0
1001
ACDBBLOCKREPETAG
1070
     1
1071
       10
1005
129BA5
  0
LINE
  5
129BA6
  8
CENTER
 10
4000.0
 20
-269.99999999999909
 30
0.0
 11
4000.0
 21
-114.9999999999991
 31
0.0
1001
ACDBBLOCKREPETAG
1070
     1
1071
       11
1005
129BA6
  0
ARC
  5
129BA7
  8
OBJECT
 10
3989.9027621391888
 20
-224.44352901899131
 30
0.0
 40
7.0
 50
73.001272229719234
 51
154.0502587894434
1001
ACDBBLOCKREPETAG
1070
     1
1071
       12
1005
129BA7
  0
ARC
  5
129BA8
  8
OBJECT
 10
3986.8376610706509
 20
-225.5978773169509
 30
0.0
 40
9.0
 50
73.001272229719234
 51
154.0502639259247
1001
ACDBBLOCKREPETAG
1070
     1
1071
       13
1005
129BA8
  0
ARC
  5
129BA9
  8
OBJECT
 10
3896.3142301315529
 20
-147.28130031148149
 30
0.0
 40
150.0
 50
322.89503374001981
 51
325.8931499697137
1001
ACDBBLOCKREPETAG
1070
     1
1071
       14
1005
129BA9
  0
ARC
  5
129BAA
  8
OBJECT
 10
4000.0
 20
-199.99999999999909
 30
0.0
 40
37.5
 50
303.16276667668222
 51
229.1635024908278
1001
ACDBBLOCKREPETAG
1070
     1
1071
       15
1005
129BAA
  0
LINE
  5
129BAB
  8
OBJECT
 10
3983.6085145189768
 20
-221.38045100897119
 30
0.0
 11
3977.3740109999999
 21
-234.1915870000002
 31
0.0
1001
ACDBBLOCKREPETAG
1070
     1
1071
       16
1005
129BAB
  0
LINE
  5
129BAC
  8
OBJECT
 10
3978.7450566344628
 20
-221.65963488670511
 30
0.0
 11
3973.8986719999989
 21
-231.6183599999996
 31
0.0
1001
ACDBBLOCKREPETAG
1070
     1
1071
       17
1005
129BAC
  0
LINE
  5
129BAD
  8
OBJECT
 10
4018.9380179999998
 20
-226.00000000000091
 30
0.0
 11
3989.468815303258
 21
-216.99107608744359
 31
0.0
1001
ACDBBLOCKREPETAG
1070
     1
1071
       18
1005
129BAD
  0
LINE
  5
129BAE
  8
OBJECT
 10
4020.5132253090051
 20
-231.39199878029191
 30
0.0
 11
4018.9380179999998
 21
-226.00000000000091
 31
0.0
1001
ACDBBLOCKREPETAG
1070
     1
1071
       19
1005
129BAE
  0
LINE
  5
129BAF
  8
OBJECT
 10
3954.0380592228739
 20
-245.96194077712471
 30
0.0
 11
3938.0
 21
-261.99999999999909
 31
0.0
1001
ACDBBLOCKREPETAG
1070
     1
1071
       42
1005
129BAF
  0
LINE
  5
129BB0
  8
OBJECT
 10
4045.9619407771238
 20
-245.96194077712471
 30
0.0
 11
4062.0
 21
-261.99999999999909
 31
0.0
1001
ACDBBLOCKREPETAG
1070
     1
1071
       43
1005
129BB0
  0
LINE
  5
129BB1
  8
OBJECT
 10
4123.0
 20
-663.99999999999966
 30
0.0
 11
4130.0
 21
-663.99999999999966
 31
0.0
1001
ACDBBLOCKREPETAG
1070
     1
1071
        7
1005
129BB1
  0
LINE
  5
129BB2
  8
OBJECT
 10
4130.0
 20
-663.99999999999966
 30
0.0
 11
4130.0
 21
-754.99999999999955
 31
0.0
1001
ACDBBLOCKREPETAG
1070
     1
1071
        8
1005
129BB2
  0
LINE
  5
129BB3
  8
OBJECT
 10
4123.0
 20
-754.99999999999955
 30
0.0
 11
4123.0
 21
-663.99999999999966
 31
0.0
1001
ACDBBLOCKREPETAG
1070
     1
1071
        9
1005
129BB3
  0
LINE
  5
129BB4
  8
CENTER
 10
4145.0
 20
-710.99999999999955
 30
0.0
 11
4061.0
 21
-710.99999999999955
 31
0.0
1001
ACDBBLOCKREPETAG
1070
     1
1071
       10
1005
129BB4
  0
LINE
  5
129BB5
  8
OBJECT
 10
4123.0
 20
-666.99999999999955
 30
0.0
 11
4087.0
 21
-666.99999999999955
 31
0.0
1001
ACDBBLOCKREPETAG
1070
     1
1071
       11
1005
129BB5
  0
LINE
  5
129BB6
  8
OBJECT
 10
4087.0
 20
-666.99999999999955
 30
0.0
 11
4087.0
 21
-754.99999999999955
 31
0.0
1001
ACDBBLOCKREPETAG
1070
     1
1071
       12
1005
129BB6
  0
LINE
  5
129BB7
  8
OBJECT
 10
4087.0
 20
-754.99999999999955
 30
0.0
 11
4130.0
 21
-754.99999999999955
 31
0.0
1001
ACDBBLOCKREPETAG
1070
     1
1071
       13
1005
129BB7
  0
LINE
  5
129BB8
  8
OBJECT
 10
4083.0
 20
-671.49999999999955
 30
0.0
 11
4076.0
 21
-671.49999999999955
 31
0.0
1001
ACDBBLOCKREPETAG
1070
     1
1071
       14
1005
129BB8
  0
LINE
  5
129BB9
  8
OBJECT
 10
4076.0
 20
-750.49999999999955
 30
0.0
 11
4083.0
 21
-750.49999999999955
 31
0.0
1001
ACDBBLOCKREPETAG
1070
     1
1071
       15
1005
129BB9
  0
LINE
  5
129BBA
  8
OBJECT
 10
4083.0
 20
-750.49999999999955
 30
0.0
 11
4083.0
 21
-671.49999999999955
 31
0.0
1001
ACDBBLOCKREPETAG
1070
     1
1071
       16
1005
129BBA
  0
LINE
  5
129BBB
  8
OBJECT
 10
4087.0
 20
-666.99999999999955
 30
0.0
 11
4083.0
 21
-671.49999999999955
 31
0.0
1001
ACDBBLOCKREPETAG
1070
     1
1071
       17
1005
129BBB
  0
LINE
  5
129BBC
  8
OBJECT
 10
4087.0
 20
-754.99999999999955
 30
0.0
 11
4083.0
 21
-750.49999999999955
 31
0.0
1001
ACDBBLOCKREPETAG
1070
     1
1071
       18
1005
129BBC
  0
LINE
  5
129BBD
  8
OBJECT
 10
4073.0
 20
-633.99999999999955
 30
0.0
 11
4070.0
 21
-633.99999999999955
 31
0.0
1001
ACDBBLOCKREPETAG
1070
     1
1071
       19
1005
129BBD
  0
ARC
  5
129BBE
  8
OBJECT
 10
4073.0
 20
-636.99999999999955
 30
0.0
 40
3.0
 50
0.0
 51
90.0
1001
ACDBBLOCKREPETAG
1070
     1
1071
       20
1005
129BBE
  0
LINE
  5
129BBF
  8
OBJECT
 10
4070.0
 20
-757.99999999999955
 30
0.0
 11
4073.0
 21
-757.99999999999955
 31
0.0
1001
ACDBBLOCKREPETAG
1070
     1
1071
       21
1005
129BBF
  0
ARC
  5
129BC0
  8
OBJECT
 10
4073.0
 20
-754.99999999999955
 30
0.0
 40
3.0
 50
270.0
 51
0.0
1001
ACDBBLOCKREPETAG
1070
     1
1071
       22
1005
129BC0
  0
LINE
  5
129BC1
  8
OBJECT
 10
4076.0
 20
-754.99999999999955
 30
0.0
 11
4076.0
 21
-636.99999999999955
 31
0.0
1001
ACDBBLOCKREPETAG
1070
     1
1071
       23
1005
129BC1
  0
LINE
  5
129BC2
  8
HIDDEN
 10
4078.0
 20
-680.99999999999955
 30
0.0
 11
4078.0
 21
-740.99999999999955
 31
0.0
1001
ACDBBLOCKREPETAG
1070
     1
1071
       24
1005
129BC2
  0
LINE
  5
129BC3
  8
OBJECT
 10
4123.0
 20
-152.99999999999909
 30
0.0
 11
4130.0
 21
-152.99999999999909
 31
0.0
1001
ACDBBLOCKREPETAG
1070
     1
1071
        7
1005
129BC3
  0
LINE
  5
129BC4
  8
OBJECT
 10
4130.0
 20
-152.99999999999909
 30
0.0
 11
4130.0
 21
-246.99999999999909
 31
0.0
1001
ACDBBLOCKREPETAG
1070
     1
1071
        8
1005
129BC4
  0
LINE
  5
129BC5
  8
OBJECT
 10
4130.0
 20
-246.99999999999909
 30
0.0
 11
4123.0
 21
-246.99999999999909
 31
0.0
1001
ACDBBLOCKREPETAG
1070
     1
1071
        9
1005
129BC5
  0
LINE
  5
129BC6
  8
OBJECT
 10
4123.0
 20
-246.99999999999909
 30
0.0
 11
4123.0
 21
-152.99999999999909
 31
0.0
1001
ACDBBLOCKREPETAG
1070
     1
1071
       10
1005
129BC6
  0
LINE
  5
129BC7
  8
CENTER
 10
4145.0
 20
-199.99999999999909
 30
0.0
 11
4070.0
 21
-199.99999999999909
 31
0.0
1001
ACDBBLOCKREPETAG
1070
     1
1071
       11
1005
129BC7
  0
LINE
  5
129BC8
  8
OBJECT
 10
4123.0
 20
-155.99999999999909
 30
0.0
 11
4087.0
 21
-155.99999999999909
 31
0.0
1001
ACDBBLOCKREPETAG
1070
     1
1071
       12
1005
129BC8
  0
LINE
  5
129BC9
  8
OBJECT
 10
4087.0
 20
-155.99999999999909
 30
0.0
 11
4087.0
 21
-243.99999999999909
 31
0.0
1001
ACDBBLOCKREPETAG
1070
     1
1071
       13
1005
129BC9
  0
LINE
  5
129BCA
  8
OBJECT
 10
4087.0
 20
-243.99999999999909
 30
0.0
 11
4123.0
 21
-243.99999999999909
 31
0.0
1001
ACDBBLOCKREPETAG
1070
     1
1071
       14
1005
129BCA
  0
LINE
  5
129BCB
  8
OBJECT
 10
4083.0
 20
-160.49999999999909
 30
0.0
 11
4076.0
 21
-160.49999999999909
 31
0.0
1001
ACDBBLOCKREPETAG
1070
     1
1071
       15
1005
129BCB
  0
LINE
  5
129BCC
  8
OBJECT
 10
4076.0
 20
-239.49999999999909
 30
0.0
 11
4083.0
 21
-239.49999999999909
 31
0.0
1001
ACDBBLOCKREPETAG
1070
     1
1071
       16
1005
129BCC
  0
LINE
  5
129BCD
  8
OBJECT
 10
4083.0
 20
-239.49999999999909
 30
0.0
 11
4083.0
 21
-160.49999999999909
 31
0.0
1001
ACDBBLOCKREPETAG
1070
     1
1071
       17
1005
129BCD
  0
LINE
  5
129BCE
  8
OBJECT
 10
4087.0
 20
-155.99999999999909
 30
0.0
 11
4083.0
 21
-160.49999999999909
 31
0.0
1001
ACDBBLOCKREPETAG
1070
     1
1071
       18
1005
129BCE
  0
LINE
  5
129BCF
  8
OBJECT
 10
4087.0
 20
-243.99999999999909
 30
0.0
 11
4083.0
 21
-239.49999999999909
 31
0.0
1001
ACDBBLOCKREPETAG
1070
     1
1071
       19
1005
129BCF
  0
LINE
  5
129BD0
  8
OBJECT
 10
4073.0
 20
-137.99999999999909
 30
0.0
 11
4070.0
 21
-137.99999999999909
 31
0.0
1001
ACDBBLOCKREPETAG
1070
     1
1071
       20
1005
129BD0
  0
ARC
  5
129BD1
  8
OBJECT
 10
4073.0
 20
-140.99999999999909
 30
0.0
 40
3.0
 50
0.0
 51
90.0
1001
ACDBBLOCKREPETAG
1070
     1
1071
       21
1005
129BD1
  0
LINE
  5
129BD2
  8
OBJECT
 10
4070.0
 20
-261.99999999999909
 30
0.0
 11
4073.0
 21
-261.99999999999909
 31
0.0
1001
ACDBBLOCKREPETAG
1070
     1
1071
       22
1005
129BD2
  0
ARC
  5
129BD3
  8
OBJECT
 10
4073.0
 20
-258.99999999999909
 30
0.0
 40
3.0
 50
270.0
 51
0.0
1001
ACDBBLOCKREPETAG
1070
     1
1071
       23
1005
129BD3
  0
LINE
  5
129BD4
  8
OBJECT
 10
4076.0
 20
-258.99999999999909
 30
0.0
 11
4076.0
 21
-140.99999999999909
 31
0.0
1001
ACDBBLOCKREPETAG
1070
     1
1071
       24
1005
129BD4
  0
LINE
  5
129BD5
  8
HIDDEN
 10
4078.0
 20
-169.99999999999909
 30
0.0
 11
4078.0
 21
-229.99999999999909
 31
0.0
1001
ACDBBLOCKREPETAG
1070
     1
1071
       25
1005
129BD5
  0
LINE
  5
129BD6
  8
OBJECT
 10
231.0
 20
-783.0
 30
0.0
 11
231.0
 21
-790.00000000000011
 31
0.0
1001
ACDBBLOCKREPETAG
1070
     1
1071
       19
1005
129BD6
  0
LINE
  5
129BD7
  8
OBJECT
 10
231.0
 20
-790.00000000000011
 30
0.0
 11
121.0
 21
-790.00000000000011
 31
0.0
1001
ACDBBLOCKREPETAG
1070
     1
1071
       20
1005
129BD7
  0
LINE
  5
129BD8
  8
OBJECT
 10
121.0
 20
-790.00000000000011
 30
0.0
 11
121.0
 21
-783.0
 31
0.0
1001
ACDBBLOCKREPETAG
1070
     1
1071
       21
1005
129BD8
  0
LINE
  5
129BD9
  8
OBJECT
 10
121.0
 20
-783.0
 30
0.0
 11
231.0
 21
-783.0
 31
0.0
1001
ACDBBLOCKREPETAG
1070
     1
1071
       22
1005
129BD9
  0
LINE
  5
129BDA
  8
OBJECT
 10
228.0
 20
-783.0
 30
0.0
 11
228.0
 21
-747.00000000000011
 31
0.0
1001
ACDBBLOCKREPETAG
1070
     1
1071
       23
1005
129BDA
  0
LINE
  5
129BDB
  8
OBJECT
 10
228.0
 20
-747.00000000000011
 30
0.0
 11
124.0
 21
-747.00000000000011
 31
0.0
1001
ACDBBLOCKREPETAG
1070
     1
1071
       24
1005
129BDB
  0
LINE
  5
129BDC
  8
OBJECT
 10
124.0
 20
-747.00000000000011
 30
0.0
 11
124.0
 21
-783.0
 31
0.0
1001
ACDBBLOCKREPETAG
1070
     1
1071
       25
1005
129BDC
  0
LINE
  5
129BDD
  8
OBJECT
 10
223.5
 20
-743.00000000000011
 30
0.0
 11
223.5
 21
-736.00000000000011
 31
0.0
1001
ACDBBLOCKREPETAG
1070
     1
1071
       26
1005
129BDD
  0
LINE
  5
129BDE
  8
OBJECT
 10
128.5
 20
-736.00000000000011
 30
0.0
 11
128.5
 21
-743.00000000000011
 31
0.0
1001
ACDBBLOCKREPETAG
1070
     1
1071
       27
1005
129BDE
  0
LINE
  5
129BDF
  8
OBJECT
 10
128.5
 20
-743.00000000000011
 30
0.0
 11
223.5
 21
-743.00000000000011
 31
0.0
1001
ACDBBLOCKREPETAG
1070
     1
1071
       28
1005
129BDF
  0
LINE
  5
129BE0
  8
OBJECT
 10
228.0
 20
-747.00000000000011
 30
0.0
 11
223.5
 21
-743.00000000000011
 31
0.0
1001
ACDBBLOCKREPETAG
1070
     1
1071
       29
1005
129BE0
  0
LINE
  5
129BE1
  8
OBJECT
 10
124.0
 20
-747.00000000000011
 30
0.0
 11
128.5
 21
-743.00000000000011
 31
0.0
1001
ACDBBLOCKREPETAG
1070
     1
1071
       30
1005
129BE1
  0
LINE
  5
129BE2
  8
OBJECT
 10
238.0
 20
-733.00000000000102
 30
0.0
 11
238.0
 21
-730.00000000000011
 31
0.0
1001
ACDBBLOCKREPETAG
1070
     1
1071
       31
1005
129BE2
  0
ARC
  5
129BE3
  8
OBJECT
 10
235.0
 20
-733.00000000000102
 30
0.0
 40
3.0
 50
270.0
 51
0.0
1001
ACDBBLOCKREPETAG
1070
     1
1071
       32
1005
129BE3
  0
LINE
  5
129BE4
  8
OBJECT
 10
114.0
 20
-730.00000000000011
 30
0.0
 11
114.0
 21
-732.9999999999992
 31
0.0
1001
ACDBBLOCKREPETAG
1070
     1
1071
       33
1005
129BE4
  0
ARC
  5
129BE5
  8
OBJECT
 10
117.0
 20
-732.9999999999992
 30
0.0
 40
3.0
 50
180.0
 51
270.0
1001
ACDBBLOCKREPETAG
1070
     1
1071
       34
1005
129BE5
  0
LINE
  5
129BE6
  8
OBJECT
 10
117.0
 20
-735.99999999999943
 30
0.0
 11
235.0
 21
-736.00000000000102
 31
0.0
1001
ACDBBLOCKREPETAG
1070
     1
1071
       35
1005
129BE6
  0
INSERT
  5
129BE7
  8
OBJECT
  2
*U12
 10
0.0
 20
0.0
 30
0.0
  0
LINE
  5
129BE8
  8
HIDDEN
 10
214.0
 20
-738.00000000000011
 30
0.0
 11
138.0
 21
-738.00000000000011
 31
0.0
1001
ACDBBLOCKREPETAG
1070
     1
1071
      427
1005
129BE8
  0
LINE
  5
129BE9
  8
OBJECT
 10
249.0
 20
-722.00000000000011
 30
0.0
 11
246.0
 21
-722.00000000000011
 31
0.0
1001
ACDBBLOCKREPETAG
1070
     1
1071
      418
1005
129BE9
  0
ARC
  5
129BEA
  8
OBJECT
 10
249.0
 20
-719.00000000000011
 30
0.0
 40
3.0
 50
270.0
 51
0.0
1001
ACDBBLOCKREPETAG
1070
     1
1071
      419
1005
129BEA
  0
LINE
  5
129BEB
  8
OBJECT
 10
246.0
 20
-598.00000000000011
 30
0.0
 11
249.0
 21
-598.00000000000011
 31
0.0
1001
ACDBBLOCKREPETAG
1070
     1
1071
      420
1005
129BEB
  0
ARC
  5
129BEC
  8
OBJECT
 10
249.0
 20
-601.00000000000011
 30
0.0
 40
3.0
 50
0.0
 51
90.0
1001
ACDBBLOCKREPETAG
1070
     1
1071
      421
1005
129BEC
  0
LINE
  5
129BED
  8
OBJECT
 10
252.0
 20
-601.00000000000011
 30
0.0
 11
252.0
 21
-719.00000000000011
 31
0.0
1001
ACDBBLOCKREPETAG
1070
     1
1071
      422
1005
129BED
  0
ARC
  5
129BEE
  8
OBJECT
 10
176.0
 20
-660.00000000000011
 30
0.0
 40
70.0
 50
152.33955010081621
 51
207.6604498991837
1001
ACDBBLOCKREPETAG
1070
     1
1071
        0
1005
129BEE
  0
CIRCLE
  5
129BEF
  8
OBJECT
 10
176.0
 20
-660.00000000000011
 30
0.0
 40
65.0
1001
ACDBBLOCKREPETAG
1070
     1
1071
        1
1005
129BEF
  0
CIRCLE
  5
129BF0
  8
OBJECT
 10
176.0
 20
-660.00000000000011
 30
0.0
 40
41.0
1001
ACDBBLOCKREPETAG
1070
     1
1071
        2
1005
129BF0
  0
CIRCLE
  5
129BF1
  8
OBJECT
 10
176.0
 20
-660.00000000000011
 30
0.0
 40
58.0
1001
ACDBBLOCKREPETAG
1070
     1
1071
        3
1005
129BF1
  0
LINE
  5
129BF2
  8
OBJECT
 10
114.0
 20
-589.99999999999841
 30
0.0
 11
114.0
 21
-640.48077870405712
 31
0.0
1001
ACDBBLOCKREPETAG
1070
     1
1071
        4
1005
129BF2
  0
LINE
  5
129BF3
  8
OBJECT
 10
114.0
 20
-730.00000000000011
 30
0.0
 11
114.0
 21
-679.51922129594334
 31
0.0
1001
ACDBBLOCKREPETAG
1070
     1
1071
        5
1005
129BF3
  0
LINE
  5
129BF4
  8
OBJECT
 10
238.0
 20
-730.00000000000011
 30
0.0
 11
238.0
 21
-722.00000000000011
 31
0.0
1001
ACDBBLOCKREPETAG
1070
     1
1071
        6
1005
129BF4
  0
LINE
  5
129BF5
  8
OBJECT
 10
246.0
 20
-722.00000000000011
 30
0.0
 11
238.0
 21
-722.00000000000011
 31
0.0
1001
ACDBBLOCKREPETAG
1070
     1
1071
        7
1005
129BF5
  0
LINE
  5
129BF6
  8
OBJECT
 10
238.0
 20
-589.99999999999841
 30
0.0
 11
238.0
 21
-598.00000000000011
 31
0.0
1001
ACDBBLOCKREPETAG
1070
     1
1071
        8
1005
129BF6
  0
LINE
  5
129BF7
  8
OBJECT
 10
246.0
 20
-598.00000000000011
 30
0.0
 11
238.0
 21
-598.00000000000011
 31
0.0
1001
ACDBBLOCKREPETAG
1070
     1
1071
        9
1005
129BF7
  0
ARC
  5
129BF8
  8
OBJECT
 10
176.0
 20
-660.00000000000011
 30
0.0
 40
37.5
 50
33.162766676671247
 51
319.1635024908208
1001
ACDBBLOCKREPETAG
1070
     1
1071
       13
1005
129BF8
  0
LINE
  5
129BF9
  8
OBJECT
 10
221.96194077712559
 20
-705.96194077712585
 30
0.0
 11
238.0
 21
-722.00000000000011
 31
0.0
1001
ACDBBLOCKREPETAG
1070
     1
1071
       21
1005
129BF9
  0
LINE
  5
129BFA
  8
OBJECT
 10
221.96194077712559
 20
-614.03805922287438
 30
0.0
 11
238.0
 21
-598.00000000000011
 31
0.0
1001
ACDBBLOCKREPETAG
1070
     1
1071
       22
1005
129BFA
  0
ARC
  5
129BFB
  8
OBJECT
 10
200.44352901899219
 20
-670.09723786081315
 30
0.0
 40
7.0
 50
163.00127222951571
 51
244.05025878932261
1001
ACDBBLOCKREPETAG
1070
     1
1071
       70
1005
129BFB
  0
ARC
  5
129BFC
  8
OBJECT
 10
201.59787731695181
 20
-673.16233892935293
 30
0.0
 40
9.0
 50
163.00127222951571
 51
244.05026392593629
1001
ACDBBLOCKREPETAG
1070
     1
1071
       71
1005
129BFC
  0
ARC
  5
129BFD
  8
OBJECT
 10
123.2813003114825
 20
-763.68576986844721
 30
0.0
 40
150.0
 50
52.895033739927257
 51
55.893149969628887
1001
ACDBBLOCKREPETAG
1070
     1
1071
       72
1005
129BFD
  0
LINE
  5
129BFE
  8
OBJECT
 10
197.3804510089721
 20
-676.39148548102855
 30
0.0
 11
210.19158700000119
 21
-682.62598900000035
 31
0.0
1001
ACDBBLOCKREPETAG
1070
     1
1071
       73
1005
129BFE
  0
LINE
  5
129BFF
  8
OBJECT
 10
197.65963488670599
 20
-681.25494336553697
 30
0.0
 11
207.61836000000039
 21
-686.10132800000451
 31
0.0
1001
ACDBBLOCKREPETAG
1070
     1
1071
       74
1005
129BFF
  0
LINE
  5
129C00
  8
OBJECT
 10
202.00000000000179
 20
-641.06198199999926
 30
0.0
 11
192.9910760874445
 21
-670.53118469673814
 31
0.0
1001
ACDBBLOCKREPETAG
1070
     1
1071
       75
1005
129C00
  0
LINE
  5
129C01
  8
OBJECT
 10
207.39199878029279
 20
-639.48677469099528
 30
0.0
 11
202.00000000000179
 21
-641.06198199999926
 31
0.0
1001
ACDBBLOCKREPETAG
1070
     1
1071
       76
1005
129C01
  0
POINT
  5
129C02
  8
DOTS
 10
176.0
 20
-660.00000000000011
 30
0.0
1001
ACDBBLOCKREPETAG
1070
     1
1071
       39
1005
129C02
  0
INSERT
  5
129C03
  8
OBJECT
  2
*U13
 10
0.0
 20
0.0
 30
0.0
  0
LINE
  5
129C04
  8
OBJECT
 10
121.0
 20
-536.99999999999841
 30
0.0
 11
121.0
 21
-529.99999999999818
 31
0.0
1001
ACDBBLOCKREPETAG
1070
     1
1071
       20
1005
129C04
  0
LINE
  5
129C05
  8
OBJECT
 10
121.0
 20
-529.99999999999818
 30
0.0
 11
231.0
 21
-529.99999999999818
 31
0.0
1001
ACDBBLOCKREPETAG
1070
     1
1071
       21
1005
129C05
  0
LINE
  5
129C06
  8
OBJECT
 10
231.0
 20
-529.99999999999818
 30
0.0
 11
231.0
 21
-536.99999999999841
 31
0.0
1001
ACDBBLOCKREPETAG
1070
     1
1071
       22
1005
129C06
  0
LINE
  5
129C07
  8
OBJECT
 10
231.0
 20
-536.99999999999841
 30
0.0
 11
121.0
 21
-536.99999999999841
 31
0.0
1001
ACDBBLOCKREPETAG
1070
     1
1071
       23
1005
129C07
  0
LINE
  5
129C08
  8
OBJECT
 10
124.0
 20
-536.99999999999841
 30
0.0
 11
124.0
 21
-572.99999999999841
 31
0.0
1001
ACDBBLOCKREPETAG
1070
     1
1071
       24
1005
129C08
  0
LINE
  5
129C09
  8
OBJECT
 10
124.0
 20
-572.99999999999841
 30
0.0
 11
228.0
 21
-572.99999999999841
 31
0.0
1001
ACDBBLOCKREPETAG
1070
     1
1071
       25
1005
129C09
  0
LINE
  5
129C0A
  8
OBJECT
 10
228.0
 20
-572.99999999999841
 30
0.0
 11
228.0
 21
-536.99999999999841
 31
0.0
1001
ACDBBLOCKREPETAG
1070
     1
1071
       26
1005
129C0A
  0
LINE
  5
129C0B
  8
OBJECT
 10
128.5
 20
-576.99999999999841
 30
0.0
 11
128.5
 21
-583.99999999999829
 31
0.0
1001
ACDBBLOCKREPETAG
1070
     1
1071
       27
1005
129C0B
  0
LINE
  5
129C0C
  8
OBJECT
 10
223.5
 20
-583.99999999999829
 30
0.0
 11
223.5
 21
-576.99999999999841
 31
0.0
1001
ACDBBLOCKREPETAG
1070
     1
1071
       28
1005
129C0C
  0
LINE
  5
129C0D
  8
OBJECT
 10
223.5
 20
-576.99999999999841
 30
0.0
 11
128.5
 21
-576.99999999999841
 31
0.0
1001
ACDBBLOCKREPETAG
1070
     1
1071
       29
1005
129C0D
  0
LINE
  5
129C0E
  8
OBJECT
 10
124.0
 20
-572.99999999999841
 30
0.0
 11
128.5
 21
-576.99999999999841
 31
0.0
1001
ACDBBLOCKREPETAG
1070
     1
1071
       30
1005
129C0E
  0
LINE
  5
129C0F
  8
OBJECT
 10
228.0
 20
-572.99999999999841
 30
0.0
 11
223.5
 21
-576.99999999999841
 31
0.0
1001
ACDBBLOCKREPETAG
1070
     1
1071
       31
1005
129C0F
  0
LINE
  5
129C10
  8
OBJECT
 10
114.0
 20
-586.9999999999975
 30
0.0
 11
114.0
 21
-589.99999999999841
 31
0.0
1001
ACDBBLOCKREPETAG
1070
     1
1071
       32
1005
129C10
  0
ARC
  5
129C11
  8
OBJECT
 10
117.0
 20
-586.9999999999975
 30
0.0
 40
3.0
 50
90.0
 51
180.0
1001
ACDBBLOCKREPETAG
1070
     1
1071
       33
1005
129C11
  0
LINE
  5
129C12
  8
OBJECT
 10
238.0
 20
-589.99999999999841
 30
0.0
 11
238.0
 21
-586.9999999999992
 31
0.0
1001
ACDBBLOCKREPETAG
1070
     1
1071
       34
1005
129C12
  0
ARC
  5
129C13
  8
OBJECT
 10
235.0
 20
-586.9999999999992
 30
0.0
 40
3.0
 50
0.0
 51
90.0
1001
ACDBBLOCKREPETAG
1070
     1
1071
       35
1005
129C13
  0
LINE
  5
129C14
  8
OBJECT
 10
235.0
 20
-583.99999999999909
 30
0.0
 11
117.0
 21
-583.99999999999739
 31
0.0
1001
ACDBBLOCKREPETAG
1070
     1
1071
       36
1005
129C14
  0
LINE
  5
129C15
  8
HIDDEN
 10
138.0
 20
-581.99999999999841
 30
0.0
 11
214.0
 21
-581.99999999999841
 31
0.0
1001
ACDBBLOCKREPETAG
1070
     1
1071
      423
1005
129C15
  0
LINE
  5
129C16
  8
OBJECT
 10
591.0
 20
-319.0
 30
0.0
 11
591.0
 21
-326.0
 31
0.0
1001
ACDBBLOCKREPETAG
1070
     1
1071
       19
1005
129C16
  0
LINE
  5
129C17
  8
OBJECT
 10
591.0
 20
-326.0
 30
0.0
 11
481.0
 21
-326.0
 31
0.0
1001
ACDBBLOCKREPETAG
1070
     1
1071
       20
1005
129C17
  0
LINE
  5
129C18
  8
OBJECT
 10
481.0
 20
-326.0
 30
0.0
 11
481.0
 21
-319.0
 31
0.0
1001
ACDBBLOCKREPETAG
1070
     1
1071
       21
1005
129C18
  0
LINE
  5
129C19
  8
OBJECT
 10
481.0
 20
-319.0
 30
0.0
 11
591.0
 21
-319.0
 31
0.0
1001
ACDBBLOCKREPETAG
1070
     1
1071
       22
1005
129C19
  0
LINE
  5
129C1A
  8
OBJECT
 10
588.0
 20
-319.0
 30
0.0
 11
588.0
 21
-283.0
 31
0.0
1001
ACDBBLOCKREPETAG
1070
     1
1071
       23
1005
129C1A
  0
LINE
  5
129C1B
  8
OBJECT
 10
588.0
 20
-283.0
 30
0.0
 11
484.0
 21
-283.0
 31
0.0
1001
ACDBBLOCKREPETAG
1070
     1
1071
       24
1005
129C1B
  0
LINE
  5
129C1C
  8
OBJECT
 10
484.0
 20
-283.0
 30
0.0
 11
484.0
 21
-319.0
 31
0.0
1001
ACDBBLOCKREPETAG
1070
     1
1071
       25
1005
129C1C
  0
LINE
  5
129C1D
  8
OBJECT
 10
583.49999999999989
 20
-279.0
 30
0.0
 11
583.49999999999989
 21
-272.0
 31
0.0
1001
ACDBBLOCKREPETAG
1070
     1
1071
       26
1005
129C1D
  0
LINE
  5
129C1E
  8
OBJECT
 10
488.49999999999989
 20
-272.0
 30
0.0
 11
488.49999999999989
 21
-279.0
 31
0.0
1001
ACDBBLOCKREPETAG
1070
     1
1071
       27
1005
129C1E
  0
LINE
  5
129C1F
  8
OBJECT
 10
488.49999999999989
 20
-279.0
 30
0.0
 11
583.49999999999989
 21
-279.0
 31
0.0
1001
ACDBBLOCKREPETAG
1070
     1
1071
       28
1005
129C1F
  0
LINE
  5
129C20
  8
OBJECT
 10
588.0
 20
-283.0
 30
0.0
 11
583.49999999999989
 21
-279.0
 31
0.0
1001
ACDBBLOCKREPETAG
1070
     1
1071
       29
1005
129C20
  0
LINE
  5
129C21
  8
OBJECT
 10
484.0
 20
-283.0
 30
0.0
 11
488.49999999999989
 21
-279.0
 31
0.0
1001
ACDBBLOCKREPETAG
1070
     1
1071
       30
1005
129C21
  0
LINE
  5
129C22
  8
OBJECT
 10
598.0
 20
-269.0000000000008
 30
0.0
 11
598.0
 21
-266.0
 31
0.0
1001
ACDBBLOCKREPETAG
1070
     1
1071
       31
1005
129C22
  0
ARC
  5
129C23
  8
OBJECT
 10
595.0
 20
-269.0000000000008
 30
0.0
 40
3.0
 50
270.0
 51
0.0
1001
ACDBBLOCKREPETAG
1070
     1
1071
       32
1005
129C23
  0
LINE
  5
129C24
  8
OBJECT
 10
474.0
 20
-266.0
 30
0.0
 11
474.0
 21
-268.99999999999909
 31
0.0
1001
ACDBBLOCKREPETAG
1070
     1
1071
       33
1005
129C24
  0
ARC
  5
129C25
  8
OBJECT
 10
477.0
 20
-268.99999999999909
 30
0.0
 40
3.0
 50
180.0
 51
270.0
1001
ACDBBLOCKREPETAG
1070
     1
1071
       34
1005
129C25
  0
LINE
  5
129C26
  8
OBJECT
 10
477.0
 20
-271.99999999999909
 30
0.0
 11
595.0
 21
-272.00000000000091
 31
0.0
1001
ACDBBLOCKREPETAG
1070
     1
1071
       35
1005
129C26
  0
INSERT
  5
129C27
  8
OBJECT
  2
*U14
 10
0.0
 20
0.0
 30
0.0
  0
LINE
  5
129C28
  8
HIDDEN
 10
574.0
 20
-274.0
 30
0.0
 11
498.0
 21
-274.0
 31
0.0
1001
ACDBBLOCKREPETAG
1070
     1
1071
      427
1005
129C28
  0
LINE
  5
129C29
  8
OBJECT
 10
609.0
 20
-258.0
 30
0.0
 11
606.0
 21
-258.0
 31
0.0
1001
ACDBBLOCKREPETAG
1070
     1
1071
      418
1005
129C29
  0
ARC
  5
129C2A
  8
OBJECT
 10
609.0
 20
-255.0
 30
0.0
 40
3.0
 50
270.0
 51
0.0
1001
ACDBBLOCKREPETAG
1070
     1
1071
      419
1005
129C2A
  0
LINE
  5
129C2B
  8
OBJECT
 10
606.0
 20
-134.0
 30
0.0
 11
609.0
 21
-134.0
 31
0.0
1001
ACDBBLOCKREPETAG
1070
     1
1071
      420
1005
129C2B
  0
ARC
  5
129C2C
  8
OBJECT
 10
609.0
 20
-137.0
 30
0.0
 40
3.0
 50
0.0
 51
90.0
1001
ACDBBLOCKREPETAG
1070
     1
1071
      421
1005
129C2C
  0
LINE
  5
129C2D
  8
OBJECT
 10
612.0
 20
-137.0
 30
0.0
 11
612.0
 21
-255.0
 31
0.0
1001
ACDBBLOCKREPETAG
1070
     1
1071
      422
1005
129C2D
  0
ARC
  5
129C2E
  8
OBJECT
 10
536.0
 20
-196.0
 30
0.0
 40
70.0
 50
152.33955010081689
 51
207.66044989918311
1001
ACDBBLOCKREPETAG
1070
     1
1071
        0
1005
129C2E
  0
CIRCLE
  5
129C2F
  8
OBJECT
 10
536.0
 20
-196.0
 30
0.0
 40
65.0
1001
ACDBBLOCKREPETAG
1070
     1
1071
        1
1005
129C2F
  0
CIRCLE
  5
129C30
  8
OBJECT
 10
536.0
 20
-196.0
 30
0.0
 40
41.0
1001
ACDBBLOCKREPETAG
1070
     1
1071
        2
1005
129C30
  0
CIRCLE
  5
129C31
  8
OBJECT
 10
536.0
 20
-196.0
 30
0.0
 40
58.0
1001
ACDBBLOCKREPETAG
1070
     1
1071
        3
1005
129C31
  0
LINE
  5
129C32
  8
OBJECT
 10
474.0
 20
-125.9999999999982
 30
0.0
 11
474.0
 21
-176.48077870405689
 31
0.0
1001
ACDBBLOCKREPETAG
1070
     1
1071
        4
1005
129C32
  0
LINE
  5
129C33
  8
OBJECT
 10
474.0
 20
-266.0
 30
0.0
 11
474.0
 21
-215.51922129594311
 31
0.0
1001
ACDBBLOCKREPETAG
1070
     1
1071
        5
1005
129C33
  0
LINE
  5
129C34
  8
OBJECT
 10
598.0
 20
-266.0
 30
0.0
 11
598.0
 21
-258.0
 31
0.0
1001
ACDBBLOCKREPETAG
1070
     1
1071
        6
1005
129C34
  0
LINE
  5
129C35
  8
OBJECT
 10
606.0
 20
-258.0
 30
0.0
 11
598.0
 21
-258.0
 31
0.0
1001
ACDBBLOCKREPETAG
1070
     1
1071
        7
1005
129C35
  0
LINE
  5
129C36
  8
OBJECT
 10
598.0
 20
-125.9999999999982
 30
0.0
 11
598.0
 21
-134.0
 31
0.0
1001
ACDBBLOCKREPETAG
1070
     1
1071
        8
1005
129C36
  0
LINE
  5
129C37
  8
OBJECT
 10
606.0
 20
-134.0
 30
0.0
 11
598.0
 21
-134.0
 31
0.0
1001
ACDBBLOCKREPETAG
1070
     1
1071
        9
1005
129C37
  0
ARC
  5
129C38
  8
OBJECT
 10
536.0
 20
-196.0
 30
0.0
 40
37.5
 50
33.162766676670358
 51
319.16350249081961
1001
ACDBBLOCKREPETAG
1070
     1
1071
       13
1005
129C38
  0
LINE
  5
129C39
  8
OBJECT
 10
581.96194077712562
 20
-241.96194077712559
 30
0.0
 11
598.0
 21
-258.0
 31
0.0
1001
ACDBBLOCKREPETAG
1070
     1
1071
       21
1005
129C39
  0
LINE
  5
129C3A
  8
OBJECT
 10
581.96194077712562
 20
-150.03805922287441
 30
0.0
 11
598.0
 21
-134.0
 31
0.0
1001
ACDBBLOCKREPETAG
1070
     1
1071
       22
1005
129C3A
  0
ARC
  5
129C3B
  8
OBJECT
 10
560.44352901899219
 20
-206.09723786081301
 30
0.0
 40
7.0
 50
163.0012722295161
 51
244.0502587893248
1001
ACDBBLOCKREPETAG
1070
     1
1071
       70
1005
129C3B
  0
ARC
  5
129C3C
  8
OBJECT
 10
561.59787731695155
 20
-209.16233892935259
 30
0.0
 40
9.0
 50
163.0012722295161
 51
244.050263925937
1001
ACDBBLOCKREPETAG
1070
     1
1071
       71
1005
129C3C
  0
ARC
  5
129C3D
  8
OBJECT
 10
483.28130031148231
 20
-299.6857698684471
 30
0.0
 40
150.0
 50
52.895033739929247
 51
55.89314996963072
1001
ACDBBLOCKREPETAG
1070
     1
1071
       72
1005
129C3D
  0
LINE
  5
129C3E
  8
OBJECT
 10
557.38045100897205
 20
-212.39148548102821
 30
0.0
 11
570.19158700000116
 21
-218.62598900000009
 31
0.0
1001
ACDBBLOCKREPETAG
1070
     1
1071
       73
1005
129C3E
  0
LINE
  5
129C3F
  8
OBJECT
 10
557.65963488670604
 20
-217.2549433655368
 30
0.0
 11
567.61836000000039
 21
-222.10132800000429
 31
0.0
1001
ACDBBLOCKREPETAG
1070
     1
1071
       74
1005
129C3F
  0
LINE
  5
129C40
  8
OBJECT
 10
562.00000000000159
 20
-177.06198199999929
 30
0.0
 11
552.99107608744453
 21
-206.53118469673791
 31
0.0
1001
ACDBBLOCKREPETAG
1070
     1
1071
       75
1005
129C40
  0
LINE
  5
129C41
  8
OBJECT
 10
567.39199878029285
 20
-175.48677469099491
 30
0.0
 11
562.00000000000159
 21
-177.06198199999929
 31
0.0
1001
ACDBBLOCKREPETAG
1070
     1
1071
       76
1005
129C41
  0
POINT
  5
129C42
  8
DOTS
 10
536.0
 20
-196.0
 30
0.0
1001
ACDBBLOCKREPETAG
1070
     1
1071
       39
1005
129C42
  0
INSERT
  5
129C43
  8
OBJECT
  2
*U15
 10
0.0
 20
0.0
 30
0.0
  0
LINE
  5
129C44
  8
OBJECT
 10
489.0
 20
-72.999999999998181
 30
0.0
 11
489.0
 21
-65.999999999998181
 31
0.0
1001
ACDBBLOCKREPETAG
1070
     1
1071
        1
1005
129C44
  0
LINE
  5
129C45
  8
OBJECT
 10
489.0
 20
-65.999999999998181
 30
0.0
 11
583.0
 21
-65.999999999998181
 31
0.0
1001
ACDBBLOCKREPETAG
1070
     1
1071
        2
1005
129C45
  0
LINE
  5
129C46
  8
OBJECT
 10
583.0
 20
-65.999999999998181
 30
0.0
 11
583.0
 21
-72.999999999998181
 31
0.0
1001
ACDBBLOCKREPETAG
1070
     1
1071
        3
1005
129C46
  0
LINE
  5
129C47
  8
OBJECT
 10
583.0
 20
-72.999999999998181
 30
0.0
 11
489.0
 21
-72.999999999998181
 31
0.0
1001
ACDBBLOCKREPETAG
1070
     1
1071
        4
1005
129C47
  0
LINE
  5
129C48
  8
OBJECT
 10
492.0
 20
-72.999999999998181
 30
0.0
 11
492.0
 21
-108.9999999999982
 31
0.0
1001
ACDBBLOCKREPETAG
1070
     1
1071
        5
1005
129C48
  0
LINE
  5
129C49
  8
OBJECT
 10
492.0
 20
-108.9999999999982
 30
0.0
 11
580.0
 21
-108.9999999999982
 31
0.0
1001
ACDBBLOCKREPETAG
1070
     1
1071
        6
1005
129C49
  0
LINE
  5
129C4A
  8
OBJECT
 10
580.0
 20
-108.9999999999982
 30
0.0
 11
580.0
 21
-72.999999999998181
 31
0.0
1001
ACDBBLOCKREPETAG
1070
     1
1071
        7
1005
129C4A
  0
LINE
  5
129C4B
  8
OBJECT
 10
496.49999999999989
 20
-112.9999999999982
 30
0.0
 11
496.49999999999989
 21
-119.9999999999981
 31
0.0
1001
ACDBBLOCKREPETAG
1070
     1
1071
        8
1005
129C4B
  0
LINE
  5
129C4C
  8
OBJECT
 10
575.49999999999989
 20
-119.9999999999981
 30
0.0
 11
575.49999999999989
 21
-112.9999999999982
 31
0.0
1001
ACDBBLOCKREPETAG
1070
     1
1071
        9
1005
129C4C
  0
LINE
  5
129C4D
  8
OBJECT
 10
575.49999999999989
 20
-112.9999999999982
 30
0.0
 11
496.49999999999989
 21
-112.9999999999982
 31
0.0
1001
ACDBBLOCKREPETAG
1070
     1
1071
       10
1005
129C4D
  0
LINE
  5
129C4E
  8
OBJECT
 10
492.0
 20
-108.9999999999982
 30
0.0
 11
496.49999999999989
 21
-112.9999999999982
 31
0.0
1001
ACDBBLOCKREPETAG
1070
     1
1071
       11
1005
129C4E
  0
LINE
  5
129C4F
  8
OBJECT
 10
580.0
 20
-108.9999999999982
 30
0.0
 11
575.49999999999989
 21
-112.9999999999982
 31
0.0
1001
ACDBBLOCKREPETAG
1070
     1
1071
       12
1005
129C4F
  0
LINE
  5
129C50
  8
OBJECT
 10
474.0
 20
-122.9999999999972
 30
0.0
 11
474.0
 21
-125.9999999999982
 31
0.0
1001
ACDBBLOCKREPETAG
1070
     1
1071
       13
1005
129C50
  0
ARC
  5
129C51
  8
OBJECT
 10
477.0
 20
-122.9999999999972
 30
0.0
 40
3.0
 50
90.0
 51
180.0
1001
ACDBBLOCKREPETAG
1070
     1
1071
       14
1005
129C51
  0
LINE
  5
129C52
  8
OBJECT
 10
598.0
 20
-125.9999999999982
 30
0.0
 11
598.0
 21
-122.9999999999991
 31
0.0
1001
ACDBBLOCKREPETAG
1070
     1
1071
       15
1005
129C52
  0
ARC
  5
129C53
  8
OBJECT
 10
595.0
 20
-122.9999999999991
 30
0.0
 40
3.0
 50
0.0
 51
90.0
1001
ACDBBLOCKREPETAG
1070
     1
1071
       16
1005
129C53
  0
LINE
  5
129C54
  8
OBJECT
 10
595.0
 20
-119.9999999999991
 30
0.0
 11
477.0
 21
-119.9999999999972
 31
0.0
1001
ACDBBLOCKREPETAG
1070
     1
1071
       17
1005
129C54
  0
LINE
  5
129C55
  8
HIDDEN
 10
506.0
 20
-117.9999999999981
 30
0.0
 11
566.0
 21
-117.9999999999981
 31
0.0
1001
ACDBBLOCKREPETAG
1070
     1
1071
      420
1005
129C55
  0
LINE
  5
129C56
  8
OBJECT
 10
223.0
 20
-319.0
 30
0.0
 11
223.0
 21
-326.0
 31
0.0
1001
ACDBBLOCKREPETAG
1070
     1
1071
        0
1005
129C56
  0
LINE
  5
129C57
  8
OBJECT
 10
223.0
 20
-326.0
 30
0.0
 11
129.0
 21
-326.0
 31
0.0
1001
ACDBBLOCKREPETAG
1070
     1
1071
        1
1005
129C57
  0
LINE
  5
129C58
  8
OBJECT
 10
129.0
 20
-326.0
 30
0.0
 11
129.0
 21
-319.0
 31
0.0
1001
ACDBBLOCKREPETAG
1070
     1
1071
        2
1005
129C58
  0
LINE
  5
129C59
  8
OBJECT
 10
129.0
 20
-319.0
 30
0.0
 11
223.0
 21
-319.0
 31
0.0
1001
ACDBBLOCKREPETAG
1070
     1
1071
        3
1005
129C59
  0
LINE
  5
129C5A
  8
OBJECT
 10
220.0
 20
-319.0
 30
0.0
 11
220.0
 21
-283.0
 31
0.0
1001
ACDBBLOCKREPETAG
1070
     1
1071
        4
1005
129C5A
  0
LINE
  5
129C5B
  8
OBJECT
 10
220.0
 20
-283.0
 30
0.0
 11
132.0
 21
-283.0
 31
0.0
1001
ACDBBLOCKREPETAG
1070
     1
1071
        5
1005
129C5B
  0
LINE
  5
129C5C
  8
OBJECT
 10
132.0
 20
-283.0
 30
0.0
 11
132.0
 21
-319.0
 31
0.0
1001
ACDBBLOCKREPETAG
1070
     1
1071
        6
1005
129C5C
  0
LINE
  5
129C5D
  8
OBJECT
 10
215.5
 20
-279.0
 30
0.0
 11
215.5
 21
-272.0
 31
0.0
1001
ACDBBLOCKREPETAG
1070
     1
1071
        7
1005
129C5D
  0
LINE
  5
129C5E
  8
OBJECT
 10
136.5
 20
-272.0
 30
0.0
 11
136.5
 21
-279.0
 31
0.0
1001
ACDBBLOCKREPETAG
1070
     1
1071
        8
1005
129C5E
  0
LINE
  5
129C5F
  8
OBJECT
 10
136.5
 20
-279.0
 30
0.0
 11
215.5
 21
-279.0
 31
0.0
1001
ACDBBLOCKREPETAG
1070
     1
1071
        9
1005
129C5F
  0
LINE
  5
129C60
  8
OBJECT
 10
220.0
 20
-283.0
 30
0.0
 11
215.5
 21
-279.0
 31
0.0
1001
ACDBBLOCKREPETAG
1070
     1
1071
       10
1005
129C60
  0
LINE
  5
129C61
  8
OBJECT
 10
132.0
 20
-283.0
 30
0.0
 11
136.5
 21
-279.0
 31
0.0
1001
ACDBBLOCKREPETAG
1070
     1
1071
       11
1005
129C61
  0
LINE
  5
129C62
  8
OBJECT
 10
238.0
 20
-269.0000000000008
 30
0.0
 11
238.0
 21
-266.0
 31
0.0
1001
ACDBBLOCKREPETAG
1070
     1
1071
       12
1005
129C62
  0
ARC
  5
129C63
  8
OBJECT
 10
235.0
 20
-269.0000000000008
 30
0.0
 40
3.0
 50
270.0
 51
0.0
1001
ACDBBLOCKREPETAG
1070
     1
1071
       13
1005
129C63
  0
LINE
  5
129C64
  8
OBJECT
 10
114.0
 20
-266.0
 30
0.0
 11
114.0
 21
-268.99999999999909
 31
0.0
1001
ACDBBLOCKREPETAG
1070
     1
1071
       14
1005
129C64
  0
ARC
  5
129C65
  8
OBJECT
 10
117.0
 20
-268.99999999999909
 30
0.0
 40
3.0
 50
180.0
 51
270.0
1001
ACDBBLOCKREPETAG
1070
     1
1071
       15
1005
129C65
  0
LINE
  5
129C66
  8
OBJECT
 10
117.0
 20
-271.99999999999909
 30
0.0
 11
235.0
 21
-272.00000000000091
 31
0.0
1001
ACDBBLOCKREPETAG
1070
     1
1071
       16
1005
129C66
  0
INSERT
  5
129C67
  8
OBJECT
  2
*U16
 10
0.0
 20
0.0
 30
0.0
  0
LINE
  5
129C68
  8
HIDDEN
 10
206.0
 20
-274.0
 30
0.0
 11
146.0
 21
-274.0
 31
0.0
1001
ACDBBLOCKREPETAG
1070
     1
1071
      424
1005
129C68
  0
LINE
  5
129C69
  8
OBJECT
 10
249.0
 20
-258.0
 30
0.0
 11
246.0
 21
-258.0
 31
0.0
1001
ACDBBLOCKREPETAG
1070
     1
1071
      418
1005
129C69
  0
ARC
  5
129C6A
  8
OBJECT
 10
249.0
 20
-255.0
 30
0.0
 40
3.0
 50
270.0
 51
0.0
1001
ACDBBLOCKREPETAG
1070
     1
1071
      419
1005
129C6A
  0
LINE
  5
129C6B
  8
OBJECT
 10
246.0
 20
-134.0
 30
0.0
 11
249.0
 21
-134.0
 31
0.0
1001
ACDBBLOCKREPETAG
1070
     1
1071
      420
1005
129C6B
  0
ARC
  5
129C6C
  8
OBJECT
 10
249.0
 20
-137.0
 30
0.0
 40
3.0
 50
0.0
 51
90.0
1001
ACDBBLOCKREPETAG
1070
     1
1071
      421
1005
129C6C
  0
LINE
  5
129C6D
  8
OBJECT
 10
252.0
 20
-137.0
 30
0.0
 11
252.0
 21
-255.0
 31
0.0
1001
ACDBBLOCKREPETAG
1070
     1
1071
      422
1005
129C6D
  0
ARC
  5
129C6E
  8
OBJECT
 10
176.0
 20
-196.0
 30
0.0
 40
70.0
 50
152.33955010081621
 51
207.6604498991837
1001
ACDBBLOCKREPETAG
1070
     1
1071
        0
1005
129C6E
  0
CIRCLE
  5
129C6F
  8
OBJECT
 10
176.0
 20
-196.0
 30
0.0
 40
65.0
1001
ACDBBLOCKREPETAG
1070
     1
1071
        1
1005
129C6F
  0
CIRCLE
  5
129C70
  8
OBJECT
 10
176.0
 20
-196.0
 30
0.0
 40
41.0
1001
ACDBBLOCKREPETAG
1070
     1
1071
        2
1005
129C70
  0
CIRCLE
  5
129C71
  8
OBJECT
 10
176.0
 20
-196.0
 30
0.0
 40
58.0
1001
ACDBBLOCKREPETAG
1070
     1
1071
        3
1005
129C71
  0
LINE
  5
129C72
  8
OBJECT
 10
114.0
 20
-125.9999999999982
 30
0.0
 11
114.0
 21
-176.48077870405689
 31
0.0
1001
ACDBBLOCKREPETAG
1070
     1
1071
        4
1005
129C72
  0
LINE
  5
129C73
  8
OBJECT
 10
114.0
 20
-266.0
 30
0.0
 11
114.0
 21
-215.51922129594311
 31
0.0
1001
ACDBBLOCKREPETAG
1070
     1
1071
        5
1005
129C73
  0
LINE
  5
129C74
  8
OBJECT
 10
238.0
 20
-266.0
 30
0.0
 11
238.0
 21
-258.0
 31
0.0
1001
ACDBBLOCKREPETAG
1070
     1
1071
        6
1005
129C74
  0
LINE
  5
129C75
  8
OBJECT
 10
246.0
 20
-258.0
 30
0.0
 11
238.0
 21
-258.0
 31
0.0
1001
ACDBBLOCKREPETAG
1070
     1
1071
        7
1005
129C75
  0
LINE
  5
129C76
  8
OBJECT
 10
238.0
 20
-125.9999999999982
 30
0.0
 11
238.0
 21
-134.0
 31
0.0
1001
ACDBBLOCKREPETAG
1070
     1
1071
        8
1005
129C76
  0
LINE
  5
129C77
  8
OBJECT
 10
246.0
 20
-134.0
 30
0.0
 11
238.0
 21
-134.0
 31
0.0
1001
ACDBBLOCKREPETAG
1070
     1
1071
        9
1005
129C77
  0
ARC
  5
129C78
  8
OBJECT
 10
176.0
 20
-196.0
 30
0.0
 40
37.5
 50
33.162766676671247
 51
319.16350249081961
1001
ACDBBLOCKREPETAG
1070
     1
1071
       13
1005
129C78
  0
LINE
  5
129C79
  8
OBJECT
 10
221.96194077712559
 20
-241.96194077712559
 30
0.0
 11
238.0
 21
-258.0
 31
0.0
1001
ACDBBLOCKREPETAG
1070
     1
1071
       21
1005
129C79
  0
LINE
  5
129C7A
  8
OBJECT
 10
221.96194077712559
 20
-150.03805922287441
 30
0.0
 11
238.0
 21
-134.0
 31
0.0
1001
ACDBBLOCKREPETAG
1070
     1
1071
       22
1005
129C7A
  0
ARC
  5
129C7B
  8
OBJECT
 10
200.44352901899219
 20
-206.09723786081301
 30
0.0
 40
7.0
 50
163.00127222951571
 51
244.05025878932179
1001
ACDBBLOCKREPETAG
1070
     1
1071
       70
1005
129C7B
  0
ARC
  5
129C7C
  8
OBJECT
 10
201.59787731695181
 20
-209.16233892935259
 30
0.0
 40
9.0
 50
163.00127222951571
 51
244.050263925937
1001
ACDBBLOCKREPETAG
1070
     1
1071
       71
1005
129C7C
  0
ARC
  5
129C7D
  8
OBJECT
 10
123.2813003114825
 20
-299.6857698684471
 30
0.0
 40
150.0
 50
52.895033739929247
 51
55.89314996963072
1001
ACDBBLOCKREPETAG
1070
     1
1071
       72
1005
129C7D
  0
LINE
  5
129C7E
  8
OBJECT
 10
197.3804510089721
 20
-212.39148548102821
 30
0.0
 11
210.19158700000119
 21
-218.62598900000009
 31
0.0
1001
ACDBBLOCKREPETAG
1070
     1
1071
       73
1005
129C7E
  0
LINE
  5
129C7F
  8
OBJECT
 10
197.65963488670599
 20
-217.2549433655368
 30
0.0
 11
207.61836000000039
 21
-222.10132800000429
 31
0.0
1001
ACDBBLOCKREPETAG
1070
     1
1071
       74
1005
129C7F
  0
LINE
  5
129C80
  8
OBJECT
 10
202.00000000000179
 20
-177.06198199999929
 30
0.0
 11
192.9910760874445
 21
-206.53118469673791
 31
0.0
1001
ACDBBLOCKREPETAG
1070
     1
1071
       75
1005
129C80
  0
LINE
  5
129C81
  8
OBJECT
 10
207.39199878029279
 20
-175.48677469099491
 30
0.0
 11
202.00000000000179
 21
-177.06198199999929
 31
0.0
1001
ACDBBLOCKREPETAG
1070
     1
1071
       76
1005
129C81
  0
POINT
  5
129C82
  8
DOTS
 10
176.0
 20
-196.0
 30
0.0
1001
ACDBBLOCKREPETAG
1070
     1
1071
       39
1005
129C82
  0
INSERT
  5
129C83
  8
OBJECT
  2
*U17
 10
0.0
 20
0.0
 30
0.0
  0
LINE
  5
129C84
  8
OBJECT
 10
129.0
 20
-72.999999999998181
 30
0.0
 11
129.0
 21
-65.999999999998181
 31
0.0
1001
ACDBBLOCKREPETAG
1070
     1
1071
        1
1005
129C84
  0
LINE
  5
129C85
  8
OBJECT
 10
129.0
 20
-65.999999999998181
 30
0.0
 11
223.0
 21
-65.999999999998181
 31
0.0
1001
ACDBBLOCKREPETAG
1070
     1
1071
        2
1005
129C85
  0
LINE
  5
129C86
  8
OBJECT
 10
223.0
 20
-65.999999999998181
 30
0.0
 11
223.0
 21
-72.999999999998181
 31
0.0
1001
ACDBBLOCKREPETAG
1070
     1
1071
        3
1005
129C86
  0
LINE
  5
129C87
  8
OBJECT
 10
223.0
 20
-72.999999999998181
 30
0.0
 11
129.0
 21
-72.999999999998181
 31
0.0
1001
ACDBBLOCKREPETAG
1070
     1
1071
        4
1005
129C87
  0
LINE
  5
129C88
  8
OBJECT
 10
132.0
 20
-72.999999999998181
 30
0.0
 11
132.0
 21
-108.9999999999982
 31
0.0
1001
ACDBBLOCKREPETAG
1070
     1
1071
        5
1005
129C88
  0
LINE
  5
129C89
  8
OBJECT
 10
132.0
 20
-108.9999999999982
 30
0.0
 11
220.0
 21
-108.9999999999982
 31
0.0
1001
ACDBBLOCKREPETAG
1070
     1
1071
        6
1005
129C89
  0
LINE
  5
129C8A
  8
OBJECT
 10
220.0
 20
-108.9999999999982
 30
0.0
 11
220.0
 21
-72.999999999998181
 31
0.0
1001
ACDBBLOCKREPETAG
1070
     1
1071
        7
1005
129C8A
  0
LINE
  5
129C8B
  8
OBJECT
 10
136.5
 20
-112.9999999999982
 30
0.0
 11
136.5
 21
-119.9999999999981
 31
0.0
1001
ACDBBLOCKREPETAG
1070
     1
1071
        8
1005
129C8B
  0
LINE
  5
129C8C
  8
OBJECT
 10
215.5
 20
-119.9999999999981
 30
0.0
 11
215.5
 21
-112.9999999999982
 31
0.0
1001
ACDBBLOCKREPETAG
1070
     1
1071
        9
1005
129C8C
  0
LINE
  5
129C8D
  8
OBJECT
 10
215.5
 20
-112.9999999999982
 30
0.0
 11
136.5
 21
-112.9999999999982
 31
0.0
1001
ACDBBLOCKREPETAG
1070
     1
1071
       10
1005
129C8D
  0
LINE
  5
129C8E
  8
OBJECT
 10
132.0
 20
-108.9999999999982
 30
0.0
 11
136.5
 21
-112.9999999999982
 31
0.0
1001
ACDBBLOCKREPETAG
1070
     1
1071
       11
1005
129C8E
  0
LINE
  5
129C8F
  8
OBJECT
 10
220.0
 20
-108.9999999999982
 30
0.0
 11
215.5
 21
-112.9999999999982
 31
0.0
1001
ACDBBLOCKREPETAG
1070
     1
1071
       12
1005
129C8F
  0
LINE
  5
129C90
  8
OBJECT
 10
114.0
 20
-122.9999999999972
 30
0.0
 11
114.0
 21
-125.9999999999982
 31
0.0
1001
ACDBBLOCKREPETAG
1070
     1
1071
       13
1005
129C90
  0
ARC
  5
129C91
  8
OBJECT
 10
117.0
 20
-122.9999999999972
 30
0.0
 40
3.0
 50
90.0
 51
180.0
1001
ACDBBLOCKREPETAG
1070
     1
1071
       14
1005
129C91
  0
LINE
  5
129C92
  8
OBJECT
 10
238.0
 20
-125.9999999999982
 30
0.0
 11
238.0
 21
-122.9999999999991
 31
0.0
1001
ACDBBLOCKREPETAG
1070
     1
1071
       15
1005
129C92
  0
ARC
  5
129C93
  8
OBJECT
 10
235.0
 20
-122.9999999999991
 30
0.0
 40
3.0
 50
0.0
 51
90.0
1001
ACDBBLOCKREPETAG
1070
     1
1071
       16
1005
129C93
  0
LINE
  5
129C94
  8
OBJECT
 10
235.0
 20
-119.9999999999991
 30
0.0
 11
117.0
 21
-119.9999999999972
 31
0.0
1001
ACDBBLOCKREPETAG
1070
     1
1071
       17
1005
129C94
  0
LINE
  5
129C95
  8
HIDDEN
 10
146.0
 20
-117.9999999999981
 30
0.0
 11
206.0
 21
-117.9999999999981
 31
0.0
1001
ACDBBLOCKREPETAG
1070
     1
1071
      420
1005
129C95
  0
POLYLINE
  5
129C96
  8
HIDDEN
 66
     1
 10
0.0
 20
0.0
 30
0.0
 70
     1
1001
ACDBBLOCKREPETAG
1070
     1
1071
      105
1005
0
  0
VERTEX
  5
12A17C
  8
HIDDEN
 10
359.99999999987818
 20
0.0000000000009095
 30
0.0
  0
VERTEX
  5
12A17D
  8
HIDDEN
 10
719.99999999975626
 20
0.0000000000009095
 30
0.0
  0
VERTEX
  5
12A17E
  8
HIDDEN
 10
719.99999999975626
 20
-463.99999999984078
 30
0.0
  0
VERTEX
  5
12A17F
  8
HIDDEN
 10
359.99999999987818
 20
-463.99999999984078
 30
0.0
  0
SEQEND
  5
12A180
  8
HIDDEN
  0
POLYLINE
  5
129C97
  8
HIDDEN
 66
     1
 10
0.0
 20
0.0
 30
0.0
 70
     1
1001
ACDBBLOCKREPETAG
1070
     1
1071
      110
1005
0
  0
VERTEX
  5
12A181
  8
HIDDEN
 10
0.0
 20
0.0000000000009095
 30
0.0
  0
VERTEX
  5
12A182
  8
HIDDEN
 10
359.99999999987818
 20
0.0000000000009095
 30
0.0
  0
VERTEX
  5
12A183
  8
HIDDEN
 10
359.99999999987818
 20
-463.99999999984078
 30
0.0
  0
VERTEX
  5
12A184
  8
HIDDEN
 10
0.0
 20
-463.99999999984078
 30
0.0
  0
SEQEND
  5
12A185
  8
HIDDEN
  0
POLYLINE
  5
129C98
  8
HIDDEN
 66
     1
 10
0.0
 20
0.0
 30
0.0
 70
     1
1001
ACDBBLOCKREPETAG
1070
     1
1071
      125
1005
0
  0
VERTEX
  5
12A186
  8
HIDDEN
 10
0.0
 20
-463.99999999984078
 30
0.0
  0
VERTEX
  5
12A187
  8
HIDDEN
 10
359.99999999987818
 20
-463.99999999984078
 30
0.0
  0
VERTEX
  5
12A188
  8
HIDDEN
 10
359.99999999987818
 20
-927.99999999968247
 30
0.0
  0
VERTEX
  5
12A189
  8
HIDDEN
 10
0.0
 20
-927.99999999968247
 30
0.0
  0
SEQEND
  5
12A18A
  8
HIDDEN
  0
TEXT
  5
129C99
  8
SLIM
 10
115.7142857142275
 20
-907.99999999968998
 30
0.0
 40
48.0
  1
B202
 41
0.75
1001
ACDBBLOCKREPETAG
1070
     1
1071
      119
1005
0
  0
TEXT
  5
129C9A
  8
SLIM
 10
479.1428571426751
 20
-443.99999999984823
 30
0.0
 40
48.0
  1
B102
 41
0.75
1001
ACDBBLOCKREPETAG
1070
     1
1071
      119
1005
0
  0
TEXT
  5
129C9B
  8
SLIM
 10
126.8571428570846
 20
-443.99999999984823
 30
0.0
 40
48.0
  1
B101
 41
0.75
1001
ACDBBLOCKREPETAG
1070
     1
1071
      119
1005
0
  0
TEXT
  5
129C9C
  8
SLIM
 10
7824.6000000000022
 20
-1403.999999999998
 30
0.0
 40
28.0
  1
※ 対応スラブ厚　180～220
 41
0.75
  0
TEXT
  5
129C9D
  8
SLIM
 10
7611.4999999999982
 20
-1497.333333333331
 30
0.0
 40
28.0
  1
国土交通大臣認定・（財）日本消防設備安全センター性能評定取得品
 41
0.75
  0
TEXT
  5
129C9E
  8
SLIM
 10
7631.1000000000004
 20
-1543.999999999998
 30
0.0
 40
28.0
  1
注）ご採用にあたり、認定書及び評定書の内容をご確認ください。
 41
0.75
  0
LINE
  5
129C9F
  8
SLIM
 10
11925.0
 20
-755.19743878930785
 30
0.0
 11
11925.197438789301
 21
-754.99999999999955
 31
0.0
1001
ACAD
1010
0.0
1020
0.0
1030
0.0
1001
ACDBBLOCKREPETAG
1070
     1
1071
        1
1005
0
  0
LINE
  5
129CA0
  8
SLIM
 10
11925.0
 20
-773.15795103144615
 30
0.0
 11
11943.15795103144
 21
-754.99999999999955
 31
0.0
1001
ACAD
1010
0.0
1020
0.0
1030
0.0
1001
ACDBBLOCKREPETAG
1070
     1
1071
       10
1005
129CA0
  0
LINE
  5
129CA1
  8
SLIM
 10
11925.0
 20
-791.11846327358455
 30
0.0
 11
11961.11846327358
 21
-754.99999999999955
 31
0.0
1001
ACAD
1010
0.0
1020
0.0
1030
0.0
1001
ACDBBLOCKREPETAG
1070
     1
1071
       11
1005
129CA1
  0
LINE
  5
129CA2
  8
SLIM
 10
11925.0
 20
-809.07897551572285
 30
0.0
 11
11979.07897551572
 21
-754.99999999999955
 31
0.0
1001
ACAD
1010
0.0
1020
0.0
1030
0.0
1001
ACDBBLOCKREPETAG
1070
     1
1071
       12
1005
129CA2
  0
LINE
  5
129CA3
  8
SLIM
 10
11925.0
 20
-827.03948775786125
 30
0.0
 11
11997.03948775786
 21
-754.99999999999955
 31
0.0
1001
ACAD
1010
0.0
1020
0.0
1030
0.0
1001
ACDBBLOCKREPETAG
1070
     1
1071
       13
1005
129CA3
  0
LINE
  5
129CA4
  8
SLIM
 10
11925.0
 20
-844.99999999999955
 30
0.0
 11
12015.0
 21
-754.99999999999955
 31
0.0
1001
ACAD
1010
0.0
1020
0.0
1030
0.0
1001
ACDBBLOCKREPETAG
1070
     1
1071
       14
1005
129CA4
  0
LINE
  5
129CA5
  8
SLIM
 10
11925.0
 20
-862.96051224213795
 30
0.0
 11
12032.96051224214
 21
-754.99999999999955
 31
0.0
1001
ACAD
1010
0.0
1020
0.0
1030
0.0
1001
ACDBBLOCKREPETAG
1070
     1
1071
       15
1005
129CA5
  0
LINE
  5
129CA6
  8
SLIM
 10
11926.57043503541
 20
-879.35058944886373
 30
0.0
 11
12050.921024484271
 21
-754.99999999999955
 31
0.0
1001
ACAD
1010
0.0
1020
0.0
1030
0.0
1001
ACDBBLOCKREPETAG
1070
     1
1071
       16
1005
129CA6
  0
LINE
  5
129CA7
  8
SLIM
 10
11929.39181818456
 20
-894.48971854185413
 30
0.0
 11
12068.881536726411
 21
-754.99999999999955
 31
0.0
1001
ACAD
1010
0.0
1020
0.0
1030
0.0
1001
ACDBBLOCKREPETAG
1070
     1
1071
       17
1005
129CA7
  0
LINE
  5
129CA8
  8
SLIM
 10
11932.21320133371
 20
-909.62884763484476
 30
0.0
 11
12075.0
 21
-766.8420489685526
 31
0.0
1001
ACAD
1010
0.0
1020
0.0
1030
0.0
1001
ACDBBLOCKREPETAG
1070
     1
1071
       18
1005
129CA8
  0
LINE
  5
129CA9
  8
SLIM
 10
11935.03458448285
 20
-924.76797672783539
 30
0.0
 11
12075.0
 21
-784.80256121069112
 31
0.0
1001
ACAD
1010
0.0
1020
0.0
1030
0.0
1001
ACDBBLOCKREPETAG
1070
     1
1071
       19
1005
129CA9
  0
LINE
  5
129CAA
  8
SLIM
 10
11937.855967632
 20
-939.90710582082625
 30
0.0
 11
12075.0
 21
-802.76307345282942
 31
0.0
1001
ACAD
1010
0.0
1020
0.0
1030
0.0
1001
ACDBBLOCKREPETAG
1070
     1
1071
       20
1005
129CAA
  0
LINE
  5
129CAB
  8
SLIM
 10
11940.67735078115
 20
-955.04623491381665
 30
0.0
 11
12075.0
 21
-820.7235856949676
 31
0.0
1001
ACAD
1010
0.0
1020
0.0
1030
0.0
1001
ACDBBLOCKREPETAG
1070
     1
1071
       21
1005
129CAB
  0
LINE
  5
129CAC
  8
SLIM
 10
11943.498733930301
 20
-970.18536400680739
 30
0.0
 11
12075.0
 21
-838.684097937106
 31
0.0
1001
ACAD
1010
0.0
1020
0.0
1030
0.0
1001
ACDBBLOCKREPETAG
1070
     1
1071
       22
1005
129CAC
  0
LINE
  5
129CAD
  8
SLIM
 10
11945.5
 20
-986.14461017924543
 30
0.0
 11
12075.0
 21
-856.64461017924418
 31
0.0
1001
ACAD
1010
0.0
1020
0.0
1030
0.0
1001
ACDBBLOCKREPETAG
1070
     1
1071
       23
1005
129CAD
  0
LINE
  5
129CAE
  8
SLIM
 10
11945.5
 20
-1004.105122421381
 30
0.0
 11
12074.15680692925
 21
-875.44831549213154
 31
0.0
1001
ACAD
1010
0.0
1020
0.0
1030
0.0
1001
ACDBBLOCKREPETAG
1070
     1
1071
       24
1005
129CAE
  0
LINE
  5
129CAF
  8
SLIM
 10
11945.5
 20
-1022.065634663517
 30
0.0
 11
12070.04294658328
 21
-897.52268808023439
 31
0.0
1001
ACAD
1010
0.0
1020
0.0
1030
0.0
1001
ACDBBLOCKREPETAG
1070
     1
1071
       25
1005
129CAF
  0
LINE
  5
129CB0
  8
SLIM
 10
11960.52614690566
 20
-1024.9999999999991
 30
0.0
 11
12065.92908623732
 21
-919.59706066833724
 31
0.0
1001
ACAD
1010
0.0
1020
0.0
1030
0.0
1001
ACDBBLOCKREPETAG
1070
     1
1071
       26
1005
129CB0
  0
LINE
  5
129CB1
  8
SLIM
 10
11978.4866591478
 20
-1024.9999999999991
 30
0.0
 11
12061.81522589136
 21
-941.67143325643985
 31
0.0
1001
ACAD
1010
0.0
1020
0.0
1030
0.0
1001
ACDBBLOCKREPETAG
1070
     1
1071
       27
1005
129CB1
  0
LINE
  5
129CB2
  8
SLIM
 10
11996.447171389929
 20
-1024.9999999999991
 30
0.0
 11
12057.70136554539
 21
-963.74580584454304
 31
0.0
1001
ACAD
1010
0.0
1020
0.0
1030
0.0
1001
ACDBBLOCKREPETAG
1070
     1
1071
       28
1005
129CB2
  0
LINE
  5
129CB3
  8
SLIM
 10
12014.407683632069
 20
-1024.9999999999991
 30
0.0
 11
12054.5
 21
-984.90768363207394
 31
0.0
1001
ACAD
1010
0.0
1020
0.0
1030
0.0
1001
ACDBBLOCKREPETAG
1070
     1
1071
       29
1005
129CB3
  0
LINE
  5
129CB4
  8
SLIM
 10
12032.368195874211
 20
-1024.9999999999991
 30
0.0
 11
12054.5
 21
-1002.868195874213
 31
0.0
1001
ACAD
1010
0.0
1020
0.0
1030
0.0
1001
ACDBBLOCKREPETAG
1070
     1
1071
       30
1005
129CB4
  0
LINE
  5
129CB5
  8
SLIM
 10
12050.328708116351
 20
-1024.9999999999991
 30
0.0
 11
12054.5
 21
-1020.828708116352
 31
0.0
1001
ACAD
1010
0.0
1020
0.0
1030
0.0
1001
ACDBBLOCKREPETAG
1070
     1
1071
       31
1005
129CB5
  0
LINE
  5
129CB6
  8
OBJECT
 10
11925.0
 20
-754.99999999999955
 30
0.0
 11
12075.0
 21
-754.99999999999955
 31
0.0
1001
ACDBBLOCKREPETAG
1070
     1
1071
        2
1005
129CB6
  0
LINE
  5
129CB7
  8
OBJECT
 10
12075.0
 20
-754.99999999999955
 30
0.0
 11
12075.0
 21
-870.9238648686005
 31
0.0
1001
ACDBBLOCKREPETAG
1070
     1
1071
        3
1005
129CB7
  0
LINE
  5
129CB8
  8
OBJECT
 10
12075.0
 20
-870.9238648686005
 30
0.0
 11
12054.5
 21
-980.92386486860221
 31
0.0
1001
ACDBBLOCKREPETAG
1070
     1
1071
        4
1005
129CB8
  0
LINE
  5
129CB9
  8
OBJECT
 10
12054.5
 20
-980.92386486860221
 30
0.0
 11
12054.5
 21
-1024.9999999999991
 31
0.0
1001
ACDBBLOCKREPETAG
1070
     1
1071
        5
1005
129CB9
  0
LINE
  5
129CBA
  8
OBJECT
 10
12054.5
 20
-1024.9999999999991
 30
0.0
 11
11945.5
 21
-1024.9999999999991
 31
0.0
1001
ACDBBLOCKREPETAG
1070
     1
1071
        6
1005
129CBA
  0
LINE
  5
129CBB
  8
OBJECT
 10
11945.5
 20
-1024.9999999999991
 30
0.0
 11
11945.5
 21
-980.92386486861199
 31
0.0
1001
ACDBBLOCKREPETAG
1070
     1
1071
        7
1005
129CBB
  0
LINE
  5
129CBC
  8
OBJECT
 10
11945.5
 20
-980.92386486861199
 30
0.0
 11
11925.0
 21
-870.9238648686005
 31
0.0
1001
ACDBBLOCKREPETAG
1070
     1
1071
        8
1005
129CBC
  0
LINE
  5
129CBD
  8
OBJECT
 10
11925.0
 20
-870.9238648686005
 30
0.0
 11
11925.0
 21
-754.99999999999955
 31
0.0
1001
ACDBBLOCKREPETAG
1070
     1
1071
        9
1005
129CBD
  0
LINE
  5
129CBE
  8
SLIM
 10
9925.0
 20
-755.19743878930785
 30
0.0
 11
9925.1974387893097
 21
-754.99999999999955
 31
0.0
1001
ACAD
1010
0.0
1020
0.0
1030
0.0
1001
ACDBBLOCKREPETAG
1070
     1
1071
        1
1005
0
  0
LINE
  5
129CBF
  8
SLIM
 10
9925.0
 20
-773.15795103144615
 30
0.0
 11
9943.1579510314441
 21
-754.99999999999955
 31
0.0
1001
ACAD
1010
0.0
1020
0.0
1030
0.0
1001
ACDBBLOCKREPETAG
1070
     1
1071
       10
1005
129CBF
  0
LINE
  5
129CC0
  8
SLIM
 10
9925.0
 20
-791.11846327358455
 30
0.0
 11
9961.1184632735858
 21
-754.99999999999955
 31
0.0
1001
ACAD
1010
0.0
1020
0.0
1030
0.0
1001
ACDBBLOCKREPETAG
1070
     1
1071
       11
1005
129CC0
  0
LINE
  5
129CC1
  8
SLIM
 10
9925.0
 20
-809.07897551572285
 30
0.0
 11
9979.0789755157257
 21
-754.99999999999955
 31
0.0
1001
ACAD
1010
0.0
1020
0.0
1030
0.0
1001
ACDBBLOCKREPETAG
1070
     1
1071
       12
1005
129CC1
  0
LINE
  5
129CC2
  8
SLIM
 10
9925.0
 20
-827.03948775786125
 30
0.0
 11
9997.0394877578656
 21
-754.99999999999955
 31
0.0
1001
ACAD
1010
0.0
1020
0.0
1030
0.0
1001
ACDBBLOCKREPETAG
1070
     1
1071
       13
1005
129CC2
  0
LINE
  5
129CC3
  8
SLIM
 10
9925.0
 20
-844.99999999999955
 30
0.0
 11
10015.0
 21
-754.99999999999955
 31
0.0
1001
ACAD
1010
0.0
1020
0.0
1030
0.0
1001
ACDBBLOCKREPETAG
1070
     1
1071
       14
1005
129CC3
  0
LINE
  5
129CC4
  8
SLIM
 10
9925.0
 20
-862.96051224213795
 30
0.0
 11
10032.96051224214
 21
-754.99999999999955
 31
0.0
1001
ACAD
1010
0.0
1020
0.0
1030
0.0
1001
ACDBBLOCKREPETAG
1070
     1
1071
       15
1005
129CC4
  0
LINE
  5
129CC5
  8
SLIM
 10
9926.5704350354117
 20
-879.35058944886373
 30
0.0
 11
10050.921024484271
 21
-754.99999999999955
 31
0.0
1001
ACAD
1010
0.0
1020
0.0
1030
0.0
1001
ACDBBLOCKREPETAG
1070
     1
1071
       16
1005
129CC5
  0
LINE
  5
129CC6
  8
SLIM
 10
9929.3918181845602
 20
-894.48971854185413
 30
0.0
 11
10068.881536726411
 21
-754.99999999999955
 31
0.0
1001
ACAD
1010
0.0
1020
0.0
1030
0.0
1001
ACDBBLOCKREPETAG
1070
     1
1071
       17
1005
129CC6
  0
LINE
  5
129CC7
  8
SLIM
 10
9932.2132013337086
 20
-909.62884763484476
 30
0.0
 11
10075.0
 21
-766.8420489685526
 31
0.0
1001
ACAD
1010
0.0
1020
0.0
1030
0.0
1001
ACDBBLOCKREPETAG
1070
     1
1071
       18
1005
129CC7
  0
LINE
  5
129CC8
  8
SLIM
 10
9935.0345844828553
 20
-924.76797672783539
 30
0.0
 11
10075.0
 21
-784.80256121069112
 31
0.0
1001
ACAD
1010
0.0
1020
0.0
1030
0.0
1001
ACDBBLOCKREPETAG
1070
     1
1071
       19
1005
129CC8
  0
LINE
  5
129CC9
  8
SLIM
 10
9937.8559676320037
 20
-939.90710582082625
 30
0.0
 11
10075.0
 21
-802.76307345282942
 31
0.0
1001
ACAD
1010
0.0
1020
0.0
1030
0.0
1001
ACDBBLOCKREPETAG
1070
     1
1071
       20
1005
129CC9
  0
LINE
  5
129CCA
  8
SLIM
 10
9940.6773507811504
 20
-955.04623491381665
 30
0.0
 11
10075.0
 21
-820.7235856949676
 31
0.0
1001
ACAD
1010
0.0
1020
0.0
1030
0.0
1001
ACDBBLOCKREPETAG
1070
     1
1071
       21
1005
129CCA
  0
LINE
  5
129CCB
  8
SLIM
 10
9943.498733930297
 20
-970.18536400680739
 30
0.0
 11
10075.0
 21
-838.684097937106
 31
0.0
1001
ACAD
1010
0.0
1020
0.0
1030
0.0
1001
ACDBBLOCKREPETAG
1070
     1
1071
       22
1005
129CCB
  0
LINE
  5
129CCC
  8
SLIM
 10
9945.4999999999982
 20
-986.14461017924543
 30
0.0
 11
10075.0
 21
-856.64461017924418
 31
0.0
1001
ACAD
1010
0.0
1020
0.0
1030
0.0
1001
ACDBBLOCKREPETAG
1070
     1
1071
       23
1005
129CCC
  0
LINE
  5
129CCD
  8
SLIM
 10
9945.5
 20
-1004.105122421381
 30
0.0
 11
10074.15680692925
 21
-875.44831549213154
 31
0.0
1001
ACAD
1010
0.0
1020
0.0
1030
0.0
1001
ACDBBLOCKREPETAG
1070
     1
1071
       24
1005
129CCD
  0
LINE
  5
129CCE
  8
SLIM
 10
9945.5000000000036
 20
-1022.065634663517
 30
0.0
 11
10070.04294658328
 21
-897.52268808023439
 31
0.0
1001
ACAD
1010
0.0
1020
0.0
1030
0.0
1001
ACDBBLOCKREPETAG
1070
     1
1071
       25
1005
129CCE
  0
LINE
  5
129CCF
  8
SLIM
 10
9960.5261469056604
 20
-1024.9999999999991
 30
0.0
 11
10065.92908623732
 21
-919.59706066833724
 31
0.0
1001
ACAD
1010
0.0
1020
0.0
1030
0.0
1001
ACDBBLOCKREPETAG
1070
     1
1071
       26
1005
129CCF
  0
LINE
  5
129CD0
  8
SLIM
 10
9978.4866591477985
 20
-1024.9999999999991
 30
0.0
 11
10061.815225891351
 21
-941.67143325643985
 31
0.0
1001
ACAD
1010
0.0
1020
0.0
1030
0.0
1001
ACDBBLOCKREPETAG
1070
     1
1071
       27
1005
129CD0
  0
LINE
  5
129CD1
  8
SLIM
 10
9996.4471713899384
 20
-1024.9999999999991
 30
0.0
 11
10057.70136554539
 21
-963.74580584454304
 31
0.0
1001
ACAD
1010
0.0
1020
0.0
1030
0.0
1001
ACDBBLOCKREPETAG
1070
     1
1071
       28
1005
129CD1
  0
LINE
  5
129CD2
  8
SLIM
 10
10014.40768363206
 20
-1024.9999999999991
 30
0.0
 11
10054.5
 21
-984.90768363207394
 31
0.0
1001
ACAD
1010
0.0
1020
0.0
1030
0.0
1001
ACDBBLOCKREPETAG
1070
     1
1071
       29
1005
129CD2
  0
LINE
  5
129CD3
  8
SLIM
 10
10032.368195874211
 20
-1024.9999999999991
 30
0.0
 11
10054.5
 21
-1002.868195874213
 31
0.0
1001
ACAD
1010
0.0
1020
0.0
1030
0.0
1001
ACDBBLOCKREPETAG
1070
     1
1071
       30
1005
129CD3
  0
LINE
  5
129CD4
  8
SLIM
 10
10050.328708116351
 20
-1024.9999999999991
 30
0.0
 11
10054.5
 21
-1020.828708116352
 31
0.0
1001
ACAD
1010
0.0
1020
0.0
1030
0.0
1001
ACDBBLOCKREPETAG
1070
     1
1071
       31
1005
129CD4
  0
LINE
  5
129CD5
  8
OBJECT
 10
9925.0
 20
-754.99999999999955
 30
0.0
 11
10075.0
 21
-754.99999999999955
 31
0.0
1001
ACDBBLOCKREPETAG
1070
     1
1071
        2
1005
129CD5
  0
LINE
  5
129CD6
  8
OBJECT
 10
10075.0
 20
-754.99999999999955
 30
0.0
 11
10075.0
 21
-870.9238648686005
 31
0.0
1001
ACDBBLOCKREPETAG
1070
     1
1071
        3
1005
129CD6
  0
LINE
  5
129CD7
  8
OBJECT
 10
10075.0
 20
-870.9238648686005
 30
0.0
 11
10054.5
 21
-980.92386486860221
 31
0.0
1001
ACDBBLOCKREPETAG
1070
     1
1071
        4
1005
129CD7
  0
LINE
  5
129CD8
  8
OBJECT
 10
10054.5
 20
-980.92386486860221
 30
0.0
 11
10054.5
 21
-1024.9999999999991
 31
0.0
1001
ACDBBLOCKREPETAG
1070
     1
1071
        5
1005
129CD8
  0
LINE
  5
129CD9
  8
OBJECT
 10
10054.5
 20
-1024.9999999999991
 30
0.0
 11
9945.5000000000036
 21
-1024.9999999999991
 31
0.0
1001
ACDBBLOCKREPETAG
1070
     1
1071
        6
1005
129CD9
  0
LINE
  5
129CDA
  8
OBJECT
 10
9945.5000000000036
 20
-1024.9999999999991
 30
0.0
 11
9945.4999999999982
 21
-980.92386486861199
 31
0.0
1001
ACDBBLOCKREPETAG
1070
     1
1071
        7
1005
129CDA
  0
LINE
  5
129CDB
  8
OBJECT
 10
9945.4999999999982
 20
-980.92386486861199
 30
0.0
 11
9925.0
 21
-870.9238648686005
 31
0.0
1001
ACDBBLOCKREPETAG
1070
     1
1071
        8
1005
129CDB
  0
LINE
  5
129CDC
  8
OBJECT
 10
9925.0
 20
-870.9238648686005
 30
0.0
 11
9925.0
 21
-754.99999999999955
 31
0.0
1001
ACDBBLOCKREPETAG
1070
     1
1071
        9
1005
129CDC
  0
LINE
  5
129CDD
  8
SLIM
 10
7925.0
 20
-755.19743878930785
 30
0.0
 11
7925.1974387893079
 21
-754.99999999999955
 31
0.0
1001
ACAD
1010
0.0
1020
0.0
1030
0.0
1001
ACDBBLOCKREPETAG
1070
     1
1071
        1
1005
0
  0
LINE
  5
129CDE
  8
SLIM
 10
7925.0
 20
-773.15795103144615
 30
0.0
 11
7943.1579510314459
 21
-754.99999999999955
 31
0.0
1001
ACAD
1010
0.0
1020
0.0
1030
0.0
1001
ACDBBLOCKREPETAG
1070
     1
1071
       11
1005
129CDE
  0
LINE
  5
129CDF
  8
SLIM
 10
7925.0
 20
-791.11846327358455
 30
0.0
 11
7961.1184632735867
 21
-754.99999999999955
 31
0.0
1001
ACAD
1010
0.0
1020
0.0
1030
0.0
1001
ACDBBLOCKREPETAG
1070
     1
1071
       12
1005
129CDF
  0
LINE
  5
129CE0
  8
SLIM
 10
7925.0
 20
-809.07897551572285
 30
0.0
 11
7979.078975515723
 21
-754.99999999999955
 31
0.0
1001
ACAD
1010
0.0
1020
0.0
1030
0.0
1001
ACDBBLOCKREPETAG
1070
     1
1071
       13
1005
129CE0
  0
LINE
  5
129CE1
  8
SLIM
 10
7925.0
 20
-827.03948775786125
 30
0.0
 11
7997.0394877578628
 21
-754.99999999999955
 31
0.0
1001
ACAD
1010
0.0
1020
0.0
1030
0.0
1001
ACDBBLOCKREPETAG
1070
     1
1071
       14
1005
129CE1
  0
LINE
  5
129CE2
  8
SLIM
 10
7925.0
 20
-844.99999999999955
 30
0.0
 11
8015.0
 21
-754.99999999999955
 31
0.0
1001
ACAD
1010
0.0
1020
0.0
1030
0.0
1001
ACDBBLOCKREPETAG
1070
     1
1071
       15
1005
129CE2
  0
LINE
  5
129CE3
  8
SLIM
 10
7925.0
 20
-862.96051224213795
 30
0.0
 11
8032.960512242139
 21
-754.99999999999955
 31
0.0
1001
ACAD
1010
0.0
1020
0.0
1030
0.0
1001
ACDBBLOCKREPETAG
1070
     1
1071
       16
1005
129CE3
  0
LINE
  5
129CE4
  8
SLIM
 10
7926.5704350354117
 20
-879.3505894488635
 30
0.0
 11
8050.9210244842798
 21
-754.99999999999955
 31
0.0
1001
ACAD
1010
0.0
1020
0.0
1030
0.0
1001
ACDBBLOCKREPETAG
1070
     1
1071
       17
1005
129CE4
  0
LINE
  5
129CE5
  8
SLIM
 10
7929.3918181845593
 20
-894.48971854185379
 30
0.0
 11
8068.8815367264133
 21
-754.99999999999955
 31
0.0
1001
ACAD
1010
0.0
1020
0.0
1030
0.0
1001
ACDBBLOCKREPETAG
1070
     1
1071
       18
1005
129CE5
  0
LINE
  5
129CE6
  8
SLIM
 10
7932.2132013337077
 20
-909.62884763484408
 30
0.0
 11
8075.0
 21
-766.84204896855272
 31
0.0
1001
ACAD
1010
0.0
1020
0.0
1030
0.0
1001
ACDBBLOCKREPETAG
1070
     1
1071
       19
1005
129CE6
  0
LINE
  5
129CE7
  8
SLIM
 10
7935.0345844828562
 20
-924.76797672783425
 30
0.0
 11
8075.0
 21
-784.80256121069112
 31
0.0
1001
ACAD
1010
0.0
1020
0.0
1030
0.0
1001
ACDBBLOCKREPETAG
1070
     1
1071
       20
1005
129CE7
  0
LINE
  5
129CE8
  8
SLIM
 10
7937.8559676320019
 20
-939.90710582082465
 30
0.0
 11
8075.0
 21
-802.76307345282942
 31
0.0
1001
ACAD
1010
0.0
1020
0.0
1030
0.0
1001
ACDBBLOCKREPETAG
1070
     1
1071
       21
1005
129CE8
  0
LINE
  5
129CE9
  8
SLIM
 10
7940.677350781154
 20
-955.04623491381471
 30
0.0
 11
8075.0
 21
-820.7235856949676
 31
0.0
1001
ACAD
1010
0.0
1020
0.0
1030
0.0
1001
ACDBBLOCKREPETAG
1070
     1
1071
       22
1005
129CE9
  0
LINE
  5
129CEA
  8
SLIM
 10
7943.4987339303016
 20
-970.18536400680489
 30
0.0
 11
8075.0
 21
-838.684097937106
 31
0.0
1001
ACAD
1010
0.0
1020
0.0
1030
0.0
1001
ACDBBLOCKREPETAG
1070
     1
1071
       23
1005
129CEA
  0
LINE
  5
129CEB
  8
SLIM
 10
7946.6446101792453
 20
-984.99999999999955
 30
0.0
 11
8075.0
 21
-856.64461017924418
 31
0.0
1001
ACAD
1010
0.0
1020
0.0
1030
0.0
1001
ACDBBLOCKREPETAG
1070
     1
1071
       24
1005
129CEB
  0
LINE
  5
129CEC
  8
SLIM
 10
7955.5
 20
-994.10512242138236
 30
0.0
 11
7964.6051224213816
 21
-984.99999999999955
 31
0.0
1001
ACAD
1010
0.0
1020
0.0
1030
0.0
1001
ACDBBLOCKREPETAG
1070
     1
1071
       25
1005
129CEC
  0
LINE
  5
129CED
  8
SLIM
 10
7964.6051224213816
 20
-984.99999999999955
 30
0.0
 11
8074.1568069292498
 21
-875.44831549213154
 31
0.0
1001
ACAD
1010
0.0
1020
0.0
1030
0.0
1001
ACDBBLOCKREPETAG
1070
     1
1071
       26
1005
129CED
  0
LINE
  5
129CEE
  8
SLIM
 10
7962.5656346635215
 20
-1004.999999999999
 30
0.0
 11
7982.5656346635215
 21
-984.99999999999955
 31
0.0
1001
ACAD
1010
0.0
1020
0.0
1030
0.0
1001
ACDBBLOCKREPETAG
1070
     1
1071
       27
1005
129CEE
  0
LINE
  5
129CEF
  8
SLIM
 10
7982.5656346635215
 20
-984.99999999999955
 30
0.0
 11
8070.0429465832849
 21
-897.52268808023405
 31
0.0
1001
ACAD
1010
0.0
1020
0.0
1030
0.0
1001
ACDBBLOCKREPETAG
1070
     1
1071
       28
1005
129CEF
  0
LINE
  5
129CF0
  8
SLIM
 10
7980.5261469056604
 20
-1004.999999999999
 30
0.0
 11
8000.5261469056577
 21
-984.99999999999955
 31
0.0
1001
ACAD
1010
0.0
1020
0.0
1030
0.0
1001
ACDBBLOCKREPETAG
1070
     1
1071
       29
1005
129CF0
  0
LINE
  5
129CF1
  8
SLIM
 10
8000.5261469056577
 20
-984.99999999999955
 30
0.0
 11
8065.9290862373227
 21
-919.59706066833724
 31
0.0
1001
ACAD
1010
0.0
1020
0.0
1030
0.0
1001
ACDBBLOCKREPETAG
1070
     1
1071
       30
1005
129CF1
  0
LINE
  5
129CF2
  8
SLIM
 10
7998.4866591477967
 20
-1004.999999999999
 30
0.0
 11
8018.4866591477967
 21
-984.99999999999955
 31
0.0
1001
ACAD
1010
0.0
1020
0.0
1030
0.0
1001
ACDBBLOCKREPETAG
1070
     1
1071
       31
1005
129CF2
  0
LINE
  5
129CF3
  8
SLIM
 10
8018.4866591477967
 20
-984.99999999999955
 30
0.0
 11
8061.8152258913578
 21
-941.67143325643985
 31
0.0
1001
ACAD
1010
0.0
1020
0.0
1030
0.0
1001
ACDBBLOCKREPETAG
1070
     1
1071
       32
1005
129CF3
  0
LINE
  5
129CF4
  8
SLIM
 10
8016.4471713899384
 20
-1004.999999999999
 30
0.0
 11
8036.4471713899338
 21
-984.99999999999955
 31
0.0
1001
ACAD
1010
0.0
1020
0.0
1030
0.0
1001
ACDBBLOCKREPETAG
1070
     1
1071
       33
1005
129CF4
  0
LINE
  5
129CF5
  8
SLIM
 10
8036.4471713899338
 20
-984.99999999999955
 30
0.0
 11
8057.701365545392
 21
-963.74580584454225
 31
0.0
1001
ACAD
1010
0.0
1020
0.0
1030
0.0
1001
ACDBBLOCKREPETAG
1070
     1
1071
       34
1005
129CF5
  0
LINE
  5
129CF6
  8
SLIM
 10
8034.4076836320728
 20
-1004.999999999999
 30
0.0
 11
8044.5000000000036
 21
-994.90768363207383
 31
0.0
1001
ACAD
1010
0.0
1020
0.0
1030
0.0
1001
ACDBBLOCKREPETAG
1070
     1
1071
       35
1005
129CF6
  0
LINE
  5
129CF7
  8
OBJECT
 10
7925.0
 20
-754.99999999999955
 30
0.0
 11
8075.0
 21
-754.99999999999955
 31
0.0
1001
ACDBBLOCKREPETAG
1070
     1
1071
        2
1005
129CF7
  0
LINE
  5
129CF8
  8
OBJECT
 10
8075.0
 20
-754.99999999999955
 30
0.0
 11
8075.0
 21
-870.9238648686005
 31
0.0
1001
ACDBBLOCKREPETAG
1070
     1
1071
        3
1005
129CF8
  0
LINE
  5
129CF9
  8
OBJECT
 10
8075.0
 20
-870.9238648686005
 30
0.0
 11
8053.7403566346029
 21
-984.99999999999955
 31
0.0
1001
ACDBBLOCKREPETAG
1070
     1
1071
        4
1005
129CF9
  0
LINE
  5
129CFA
  8
OBJECT
 10
8044.5000000000036
 20
-984.99999999999955
 30
0.0
 11
8044.5000000000036
 21
-1004.999999999999
 31
0.0
1001
ACDBBLOCKREPETAG
1070
     1
1071
        5
1005
129CFA
  0
LINE
  5
129CFB
  8
OBJECT
 10
8044.5000000000036
 20
-1004.999999999999
 30
0.0
 11
7955.5
 21
-1004.999999999999
 31
0.0
1001
ACDBBLOCKREPETAG
1070
     1
1071
        6
1005
129CFB
  0
LINE
  5
129CFC
  8
OBJECT
 10
7955.5
 20
-1004.999999999999
 30
0.0
 11
7955.5
 21
-984.99999999999955
 31
0.0
1001
ACDBBLOCKREPETAG
1070
     1
1071
        7
1005
129CFC
  0
LINE
  5
129CFD
  8
OBJECT
 10
8053.7403566346029
 20
-984.99999999999955
 30
0.0
 11
7946.2596433653962
 21
-984.99999999999955
 31
0.0
1001
ACDBBLOCKREPETAG
1070
     1
1071
        8
1005
129CFD
  0
LINE
  5
129CFE
  8
OBJECT
 10
7946.2596433653962
 20
-984.99999999999955
 30
0.0
 11
7925.0
 21
-870.9238648686005
 31
0.0
1001
ACDBBLOCKREPETAG
1070
     1
1071
        9
1005
129CFE
  0
LINE
  5
129CFF
  8
OBJECT
 10
7925.0
 20
-870.9238648686005
 30
0.0
 11
7925.0
 21
-754.99999999999955
 31
0.0
1001
ACDBBLOCKREPETAG
1070
     1
1071
       10
1005
129CFF
  0
LINE
  5
129D00
  8
OBJECT
 10
12055.999999999991
 20
-1103.9999999999991
 30
0.0
 11
12055.999999999991
 21
-1113.9999999999991
 31
0.0
1001
ACDBBLOCKREPETAG
1070
     1
1071
      121
1005
129D00
  0
LINE
  5
129D01
  8
OBJECT
 10
11961.75
 20
-1054.699999999996
 30
0.0
 11
11974.25
 21
-1054.699999999996
 31
0.0
1001
ACDBBLOCKREPETAG
1070
     1
1071
      122
1005
129D01
  0
LINE
  5
129D02
  8
OBJECT
 10
12073.499999999991
 20
-1062.7
 30
0.0
 11
12073.499999999991
 21
-1064.9999999999991
 31
0.0
1001
ACDBBLOCKREPETAG
1070
     1
1071
      123
1005
129D02
  0
LINE
  5
129D03
  8
OBJECT
 10
12057.749999999991
 20
-1054.699999999996
 30
0.0
 11
12070.249999999991
 21
-1054.699999999996
 31
0.0
1001
ACDBBLOCKREPETAG
1070
     1
1071
      124
1005
129D03
  0
LINE
  5
129D04
  8
OBJECT
 10
12054.499999999991
 20
-1062.7
 30
0.0
 11
12054.499999999991
 21
-1064.9999999999991
 31
0.0
1001
ACDBBLOCKREPETAG
1070
     1
1071
      125
1005
129D04
  0
LINE
  5
129D05
  8
OBJECT
 10
11953.0
 20
-1064.9999999999991
 30
0.0
 11
11953.0
 21
-1062.7
 31
0.0
1001
ACDBBLOCKREPETAG
1070
     1
1071
      126
1005
129D05
  0
LINE
  5
129D06
  8
OBJECT
 10
11983.0
 20
-1064.9999999999991
 30
0.0
 11
11983.0
 21
-1062.7
 31
0.0
1001
ACDBBLOCKREPETAG
1070
     1
1071
      127
1005
129D06
  0
LINE
  5
129D07
  8
OBJECT
 10
11961.75
 20
-1054.699999999996
 30
0.0
 11
11961.75
 21
-1062.7
 31
0.0
1001
ACDBBLOCKREPETAG
1070
     1
1071
      128
1005
129D07
  0
LINE
  5
129D08
  8
OBJECT
 10
11974.25
 20
-1054.699999999996
 30
0.0
 11
11974.25
 21
-1062.7
 31
0.0
1001
ACDBBLOCKREPETAG
1070
     1
1071
      129
1005
129D08
  0
LINE
  5
129D09
  8
OBJECT
 10
11953.0
 20
-1062.7
 30
0.0
 11
11983.0
 21
-1062.7
 31
0.0
1001
ACDBBLOCKREPETAG
1070
     1
1071
      130
1005
129D09
  0
LINE
  5
129D0A
  8
OBJECT
 10
11960.0
 20
-1103.9999999999991
 30
0.0
 11
11960.0
 21
-1113.9999999999991
 31
0.0
1001
ACDBBLOCKREPETAG
1070
     1
1071
      131
1005
129D0A
  0
LINE
  5
129D0B
  8
OBJECT
 10
11976.0
 20
-1103.9999999999991
 30
0.0
 11
11976.0
 21
-1113.9999999999991
 31
0.0
1001
ACDBBLOCKREPETAG
1070
     1
1071
      132
1005
129D0B
  0
LINE
  5
129D0C
  8
OBJECT
 10
11960.0
 20
-1113.9999999999991
 30
0.0
 11
11976.0
 21
-1113.9999999999991
 31
0.0
1001
ACDBBLOCKREPETAG
1070
     1
1071
      133
1005
129D0C
  0
LINE
  5
129D0D
  8
OBJECT
 10
12071.999999999991
 20
-1103.9999999999991
 30
0.0
 11
12071.999999999991
 21
-1113.9999999999991
 31
0.0
1001
ACDBBLOCKREPETAG
1070
     1
1071
      134
1005
129D0D
  0
LINE
  5
129D0E
  8
OBJECT
 10
12071.999999999991
 20
-1113.9999999999991
 30
0.0
 11
12055.999999999991
 21
-1113.9999999999991
 31
0.0
1001
ACDBBLOCKREPETAG
1070
     1
1071
      135
1005
129D0E
  0
LINE
  5
129D0F
  8
OBJECT
 10
11944.999999999991
 20
-1144.9999999999991
 30
0.0
 11
11944.999999999991
 21
-1103.9999999999991
 31
0.0
1001
ACDBBLOCKREPETAG
1070
     1
1071
      136
1005
129D0F
  0
LINE
  5
129D10
  8
OBJECT
 10
12054.999999999991
 20
-1103.9999999999991
 30
0.0
 11
12054.999999999991
 21
-1144.9999999999991
 31
0.0
1001
ACDBBLOCKREPETAG
1070
     1
1071
      137
1005
129D10
  0
LINE
  5
129D11
  8
OBJECT
 10
12070.249999999991
 20
-1054.699999999996
 30
0.0
 11
12070.249999999991
 21
-1062.7
 31
0.0
1001
ACDBBLOCKREPETAG
1070
     1
1071
      138
1005
129D11
  0
LINE
  5
129D12
  8
OBJECT
 10
12057.749999999991
 20
-1054.699999999996
 30
0.0
 11
12057.749999999991
 21
-1062.7
 31
0.0
1001
ACDBBLOCKREPETAG
1070
     1
1071
      139
1005
129D12
  0
LINE
  5
129D13
  8
OBJECT
 10
12054.499999999991
 20
-1062.7
 30
0.0
 11
12073.499999999991
 21
-1062.7
 31
0.0
1001
ACDBBLOCKREPETAG
1070
     1
1071
      140
1005
129D13
  0
LINE
  5
129D14
  8
OBJECT
 10
12054.999999999991
 20
-1144.9999999999991
 30
0.0
 11
11944.999999999991
 21
-1144.9999999999991
 31
0.0
1001
ACDBBLOCKREPETAG
1070
     1
1071
      141
1005
129D14
  0
LINE
  5
129D15
  8
OBJECT
 10
12075.999999999991
 20
-1079.9999999999991
 30
0.0
 11
11938.999999999991
 21
-1079.9999999999991
 31
0.0
1001
ACDBBLOCKREPETAG
1070
     1
1071
      142
1005
129D15
  0
LINE
  5
129D16
  8
OBJECT
 10
12075.999999999991
 20
-1079.9999999999991
 30
0.0
 11
12075.999999999991
 21
-1064.9999999999991
 31
0.0
1001
ACDBBLOCKREPETAG
1070
     1
1071
      143
1005
129D16
  0
LINE
  5
129D17
  8
OBJECT
 10
12075.999999999991
 20
-1089.9999999999991
 30
0.0
 11
12075.999999999991
 21
-1103.9999999999991
 31
0.0
1001
ACDBBLOCKREPETAG
1070
     1
1071
      144
1005
129D17
  0
LINE
  5
129D18
  8
OBJECT
 10
12068.999999999991
 20
-1089.9999999999991
 30
0.0
 11
12068.999999999991
 21
-1079.9999999999991
 31
0.0
1001
ACDBBLOCKREPETAG
1070
     1
1071
      145
1005
129D18
  0
LINE
  5
129D19
  8
OBJECT
 10
12058.999999999991
 20
-1089.9999999999991
 30
0.0
 11
12058.999999999991
 21
-1079.9999999999991
 31
0.0
1001
ACDBBLOCKREPETAG
1070
     1
1071
      146
1005
129D19
  0
LINE
  5
129D1A
  8
OBJECT
 10
11938.999999999991
 20
-1089.9999999999991
 30
0.0
 11
11938.999999999991
 21
-1103.9999999999991
 31
0.0
1001
ACDBBLOCKREPETAG
1070
     1
1071
      147
1005
129D1A
  0
LINE
  5
129D1B
  8
OBJECT
 10
11938.999999999991
 20
-1103.9999999999991
 30
0.0
 11
12075.999999999991
 21
-1103.9999999999991
 31
0.0
1001
ACDBBLOCKREPETAG
1070
     1
1071
      148
1005
129D1B
  0
LINE
  5
129D1C
  8
OBJECT
 10
11973.0
 20
-1089.9999999999991
 30
0.0
 11
11973.0
 21
-1079.9999999999991
 31
0.0
1001
ACDBBLOCKREPETAG
1070
     1
1071
      149
1005
129D1C
  0
LINE
  5
129D1D
  8
OBJECT
 10
11963.0
 20
-1089.9999999999991
 30
0.0
 11
11963.0
 21
-1079.9999999999991
 31
0.0
1001
ACDBBLOCKREPETAG
1070
     1
1071
      150
1005
129D1D
  0
LINE
  5
129D1E
  8
OBJECT
 10
11938.999999999991
 20
-1089.9999999999991
 30
0.0
 11
12075.999999999991
 21
-1089.9999999999991
 31
0.0
1001
ACDBBLOCKREPETAG
1070
     1
1071
      151
1005
129D1E
  0
LINE
  5
129D1F
  8
OBJECT
 10
11945.999999999991
 20
-1079.9999999999991
 30
0.0
 11
11945.999999999991
 21
-1089.9999999999991
 31
0.0
1001
ACDBBLOCKREPETAG
1070
     1
1071
      152
1005
129D1F
  0
LINE
  5
129D20
  8
OBJECT
 10
12053.999999999991
 20
-1079.9999999999991
 30
0.0
 11
12053.999999999991
 21
-1089.9999999999991
 31
0.0
1001
ACDBBLOCKREPETAG
1070
     1
1071
      153
1005
129D20
  0
LINE
  5
129D21
  8
OBJECT
 10
12044.5
 20
-979.99999999999966
 30
0.0
 11
12065.0
 21
-869.99999999999955
 31
0.0
1001
ACDBBLOCKREPETAG
1070
     1
1071
      154
1005
129D21
  0
LINE
  5
129D22
  8
OBJECT
 10
11955.5
 20
-979.99999999999966
 30
0.0
 11
12044.5
 21
-979.99999999999966
 31
0.0
1001
ACDBBLOCKREPETAG
1070
     1
1071
      155
1005
129D22
  0
LINE
  5
129D23
  8
OBJECT
 10
11938.999999999991
 20
-1079.9999999999991
 30
0.0
 11
11938.999999999991
 21
-1064.9999999999991
 31
0.0
1001
ACDBBLOCKREPETAG
1070
     1
1071
      156
1005
129D23
  0
LINE
  5
129D24
  8
OBJECT
 10
11938.999999999991
 20
-1064.9999999999991
 30
0.0
 11
12075.999999999991
 21
-1064.9999999999991
 31
0.0
1001
ACDBBLOCKREPETAG
1070
     1
1071
      157
1005
129D24
  0
LINE
  5
129D25
  8
OBJECT
 10
11955.5
 20
-979.99999999999966
 30
0.0
 11
11955.5
 21
-1029.9999999999991
 31
0.0
1001
ACDBBLOCKREPETAG
1070
     1
1071
      158
1005
129D25
  0
LINE
  5
129D26
  8
OBJECT
 10
12044.5
 20
-979.99999999999966
 30
0.0
 11
12044.5
 21
-1029.9999999999991
 31
0.0
1001
ACDBBLOCKREPETAG
1070
     1
1071
      159
1005
129D26
  0
LINE
  5
129D27
  8
OBJECT
 10
11947.0
 20
-1029.9999999999991
 30
0.0
 11
12053.0
 21
-1029.9999999999991
 31
0.0
1001
ACDBBLOCKREPETAG
1070
     1
1071
      160
1005
129D27
  0
LINE
  5
129D28
  8
HIDDEN
 10
11955.5
 20
-1039.9999999999991
 30
0.0
 11
12044.5
 21
-1039.9999999999991
 31
0.0
1001
ACDBBLOCKREPETAG
1070
     1
1071
      161
1005
129D28
  0
LINE
  5
129D29
  8
CENTER
 10
12000.0
 20
-769.99999999999955
 30
0.0
 11
12000.0
 21
-1159.9999999999991
 31
0.0
1001
ACDBBLOCKREPETAG
1070
     1
1071
      162
1005
129D29
  0
LINE
  5
129D2A
  8
OBJECT
 10
12065.0
 20
-769.99999999999955
 30
0.0
 11
12065.0
 21
-869.99999999999955
 31
0.0
1001
ACDBBLOCKREPETAG
1070
     1
1071
      163
1005
129D2A
  0
LINE
  5
129D2B
  8
OBJECT
 10
11935.0
 20
-769.99999999999955
 30
0.0
 11
11935.0
 21
-869.99999999999955
 31
0.0
1001
ACDBBLOCKREPETAG
1070
     1
1071
      164
1005
129D2B
  0
LINE
  5
129D2C
  8
OBJECT
 10
11955.5
 20
-979.99999999999966
 30
0.0
 11
11935.0
 21
-869.99999999999955
 31
0.0
1001
ACDBBLOCKREPETAG
1070
     1
1071
      165
1005
129D2C
  0
LINE
  5
129D2D
  8
OBJECT
 10
12065.0
 20
-869.99999999999955
 30
0.0
 11
11935.0
 21
-869.99999999999955
 31
0.0
1001
ACDBBLOCKREPETAG
1070
     1
1071
      166
1005
129D2D
  0
LINE
  5
129D2E
  8
OBJECT
 10
11947.0
 20
-1029.9999999999991
 30
0.0
 11
11947.0
 21
-1064.9999999999991
 31
0.0
1001
ACDBBLOCKREPETAG
1070
     1
1071
      167
1005
129D2E
  0
LINE
  5
129D2F
  8
OBJECT
 10
12053.0
 20
-1029.9999999999991
 30
0.0
 11
12053.0
 21
-1064.9999999999991
 31
0.0
1001
ACDBBLOCKREPETAG
1070
     1
1071
      168
1005
129D2F
  0
LINE
  5
129D30
  8
OBJECT
 10
9975.5
 20
-1059.9999999999991
 30
0.0
 11
9958.9999999999964
 21
-1059.9999999999991
 31
0.0
1001
ACDBBLOCKREPETAG
1070
     1
1071
       12
1005
129D30
  0
LINE
  5
129D31
  8
OBJECT
 10
9983.0
 20
-1064.9999999999991
 30
0.0
 11
9983.0
 21
-1062.9999999999991
 31
0.0
1001
ACDBBLOCKREPETAG
1070
     1
1071
       13
1005
129D31
  0
LINE
  5
129D32
  8
OBJECT
 10
10075.999999999991
 20
-1079.9999999999991
 30
0.0
 11
9938.9999999999927
 21
-1079.9999999999991
 31
0.0
1001
ACDBBLOCKREPETAG
1070
     1
1071
       14
1005
129D32
  0
LINE
  5
129D33
  8
OBJECT
 10
10075.999999999991
 20
-1079.9999999999991
 30
0.0
 11
10075.999999999991
 21
-1064.9999999999991
 31
0.0
1001
ACDBBLOCKREPETAG
1070
     1
1071
       15
1005
129D33
  0
LINE
  5
129D34
  8
OBJECT
 10
10075.999999999991
 20
-1089.9999999999991
 30
0.0
 11
10075.999999999991
 21
-1103.9999999999991
 31
0.0
1001
ACDBBLOCKREPETAG
1070
     1
1071
       16
1005
129D34
  0
LINE
  5
129D35
  8
OBJECT
 10
10068.999999999991
 20
-1089.9999999999991
 30
0.0
 11
10068.999999999991
 21
-1079.9999999999991
 31
0.0
1001
ACDBBLOCKREPETAG
1070
     1
1071
       17
1005
129D35
  0
LINE
  5
129D36
  8
OBJECT
 10
10058.999999999991
 20
-1089.9999999999991
 30
0.0
 11
10058.999999999991
 21
-1079.9999999999991
 31
0.0
1001
ACDBBLOCKREPETAG
1070
     1
1071
       18
1005
129D36
  0
LINE
  5
129D37
  8
OBJECT
 10
9938.9999999999927
 20
-1089.9999999999991
 30
0.0
 11
9938.9999999999927
 21
-1103.9999999999991
 31
0.0
1001
ACDBBLOCKREPETAG
1070
     1
1071
       19
1005
129D37
  0
LINE
  5
129D38
  8
OBJECT
 10
9938.9999999999927
 20
-1103.9999999999991
 30
0.0
 11
10075.999999999991
 21
-1103.9999999999991
 31
0.0
1001
ACDBBLOCKREPETAG
1070
     1
1071
       20
1005
129D38
  0
LINE
  5
129D39
  8
OBJECT
 10
9973.0
 20
-1089.9999999999991
 30
0.0
 11
9973.0
 21
-1079.9999999999991
 31
0.0
1001
ACDBBLOCKREPETAG
1070
     1
1071
       21
1005
129D39
  0
LINE
  5
129D3A
  8
OBJECT
 10
9963.0
 20
-1089.9999999999991
 30
0.0
 11
9963.0
 21
-1079.9999999999991
 31
0.0
1001
ACDBBLOCKREPETAG
1070
     1
1071
       22
1005
129D3A
  0
LINE
  5
129D3B
  8
OBJECT
 10
9938.9999999999927
 20
-1089.9999999999991
 30
0.0
 11
10075.999999999991
 21
-1089.9999999999991
 31
0.0
1001
ACDBBLOCKREPETAG
1070
     1
1071
       23
1005
129D3B
  0
LINE
  5
129D3C
  8
OBJECT
 10
9958.9999999999964
 20
-1059.9999999999991
 30
0.0
 11
9958.9999999999964
 21
-1064.9999999999991
 31
0.0
1001
ACDBBLOCKREPETAG
1070
     1
1071
       24
1005
129D3C
  0
LINE
  5
129D3D
  8
OBJECT
 10
9963.0
 20
-1111.9999999999991
 30
0.0
 11
9963.0
 21
-1114.9999999999991
 31
0.0
1001
ACDBBLOCKREPETAG
1070
     1
1071
       25
1005
129D3D
  0
LINE
  5
129D3E
  8
OBJECT
 10
9963.0
 20
-1114.9999999999991
 30
0.0
 11
9973.0
 21
-1114.9999999999991
 31
0.0
1001
ACDBBLOCKREPETAG
1070
     1
1071
       26
1005
129D3E
  0
LINE
  5
129D3F
  8
OBJECT
 10
9958.1850454237738
 20
-1111.9999999999991
 30
0.0
 11
9977.814954576219
 21
-1111.9999999999991
 31
0.0
1001
ACDBBLOCKREPETAG
1070
     1
1071
       27
1005
129D3F
  0
LINE
  5
129D40
  8
OBJECT
 10
9973.0
 20
-1114.9999999999991
 30
0.0
 11
9973.0
 21
-1111.9999999999991
 31
0.0
1001
ACDBBLOCKREPETAG
1070
     1
1071
       28
1005
129D40
  0
LINE
  5
129D41
  8
OBJECT
 10
9945.9999999999909
 20
-1079.9999999999991
 30
0.0
 11
9945.9999999999909
 21
-1089.9999999999991
 31
0.0
1001
ACDBBLOCKREPETAG
1070
     1
1071
       29
1005
129D41
  0
LINE
  5
129D42
  8
OBJECT
 10
10053.999999999991
 20
-1079.9999999999991
 30
0.0
 11
10053.999999999991
 21
-1089.9999999999991
 31
0.0
1001
ACDBBLOCKREPETAG
1070
     1
1071
       30
1005
129D42
  0
LINE
  5
129D43
  8
OBJECT
 10
10044.5
 20
-979.99999999999966
 30
0.0
 11
10065.0
 21
-869.99999999999955
 31
0.0
1001
ACDBBLOCKREPETAG
1070
     1
1071
       31
1005
129D43
  0
LINE
  5
129D44
  8
OBJECT
 10
9955.5
 20
-979.99999999999966
 30
0.0
 11
10044.5
 21
-979.99999999999966
 31
0.0
1001
ACDBBLOCKREPETAG
1070
     1
1071
       32
1005
129D44
  0
LINE
  5
129D45
  8
OBJECT
 10
9938.9999999999927
 20
-1079.9999999999991
 30
0.0
 11
9938.9999999999927
 21
-1064.9999999999991
 31
0.0
1001
ACDBBLOCKREPETAG
1070
     1
1071
       33
1005
129D45
  0
LINE
  5
129D46
  8
OBJECT
 10
9938.9999999999927
 20
-1064.9999999999991
 30
0.0
 11
10075.999999999991
 21
-1064.9999999999991
 31
0.0
1001
ACDBBLOCKREPETAG
1070
     1
1071
       34
1005
129D46
  0
LINE
  5
129D47
  8
OBJECT
 10
9955.5
 20
-979.99999999999966
 30
0.0
 11
9955.5
 21
-1029.9999999999991
 31
0.0
1001
ACDBBLOCKREPETAG
1070
     1
1071
       35
1005
129D47
  0
LINE
  5
129D48
  8
OBJECT
 10
10044.5
 20
-979.99999999999966
 30
0.0
 11
10044.5
 21
-1029.9999999999991
 31
0.0
1001
ACDBBLOCKREPETAG
1070
     1
1071
       36
1005
129D48
  0
LINE
  5
129D49
  8
OBJECT
 10
9947.0
 20
-1029.9999999999991
 30
0.0
 11
10053.0
 21
-1029.9999999999991
 31
0.0
1001
ACDBBLOCKREPETAG
1070
     1
1071
       37
1005
129D49
  0
LINE
  5
129D4A
  8
OBJECT
 10
10054.99999999998
 20
-1059.9999999999991
 30
0.0
 11
10054.99999999998
 21
-1064.9999999999991
 31
0.0
1001
ACDBBLOCKREPETAG
1070
     1
1071
       38
1005
129D4A
  0
LINE
  5
129D4B
  8
OBJECT
 10
10073.0
 20
-1059.9999999999991
 30
0.0
 11
10073.0
 21
-1064.9999999999991
 31
0.0
1001
ACDBBLOCKREPETAG
1070
     1
1071
       39
1005
129D4B
  0
LINE
  5
129D4C
  8
OBJECT
 10
10073.0
 20
-1059.9999999999991
 30
0.0
 11
10054.99999999998
 21
-1059.9999999999991
 31
0.0
1001
ACDBBLOCKREPETAG
1070
     1
1071
       40
1005
129D4C
  0
LINE
  5
129D4D
  8
HIDDEN
 10
9955.5
 20
-1039.9999999999991
 30
0.0
 11
10044.5
 21
-1039.9999999999991
 31
0.0
1001
ACDBBLOCKREPETAG
1070
     1
1071
       41
1005
129D4D
  0
LINE
  5
129D4E
  8
CENTER
 10
10000.0
 20
-769.99999999999955
 30
0.0
 11
10000.0
 21
-1118.9999999999991
 31
0.0
1001
ACDBBLOCKREPETAG
1070
     1
1071
       42
1005
129D4E
  0
LINE
  5
129D4F
  8
OBJECT
 10
10065.0
 20
-769.99999999999955
 30
0.0
 11
10065.0
 21
-869.99999999999955
 31
0.0
1001
ACDBBLOCKREPETAG
1070
     1
1071
       43
1005
129D4F
  0
LINE
  5
129D50
  8
OBJECT
 10
9935.0
 20
-769.99999999999955
 30
0.0
 11
9935.0
 21
-869.99999999999955
 31
0.0
1001
ACDBBLOCKREPETAG
1070
     1
1071
       44
1005
129D50
  0
LINE
  5
129D51
  8
OBJECT
 10
9955.5
 20
-979.99999999999966
 30
0.0
 11
9935.0
 21
-869.99999999999955
 31
0.0
1001
ACDBBLOCKREPETAG
1070
     1
1071
       45
1005
129D51
  0
LINE
  5
129D52
  8
OBJECT
 10
10065.0
 20
-869.99999999999955
 30
0.0
 11
9935.0
 21
-869.99999999999955
 31
0.0
1001
ACDBBLOCKREPETAG
1070
     1
1071
       46
1005
129D52
  0
LINE
  5
129D53
  8
OBJECT
 10
9947.0
 20
-1029.9999999999991
 30
0.0
 11
9947.0
 21
-1064.9999999999991
 31
0.0
1001
ACDBBLOCKREPETAG
1070
     1
1071
       47
1005
129D53
  0
LINE
  5
129D54
  8
OBJECT
 10
10053.0
 20
-1029.9999999999991
 30
0.0
 11
10053.0
 21
-1064.9999999999991
 31
0.0
1001
ACDBBLOCKREPETAG
1070
     1
1071
       48
1005
129D54
  0
LINE
  5
129D55
  8
OBJECT
 10
9983.0
 20
-1062.9999999999991
 30
0.0
 11
9975.5
 21
-1059.9999999999991
 31
0.0
1001
ACDBBLOCKREPETAG
1070
     1
1071
       49
1005
129D55
  0
LINE
  5
129D56
  8
OBJECT
 10
9958.1850359912914
 20
-1103.999986840259
 30
0.0
 11
9958.1850359912914
 21
-1111.999986840259
 31
0.0
1001
ACDBBLOCKREPETAG
1070
     1
1071
       50
1005
129D56
  0
LINE
  5
129D57
  8
OBJECT
 10
9963.0925013591986
 20
-1103.999986840259
 30
0.0
 11
9963.0925013591986
 21
-1111.999986840259
 31
0.0
1001
ACDBBLOCKREPETAG
1070
     1
1071
       51
1005
129D57
  0
LINE
  5
129D58
  8
OBJECT
 10
9972.9074320950258
 20
-1103.999986840259
 30
0.0
 11
9972.9074320950258
 21
-1111.999986840259
 31
0.0
1001
ACDBBLOCKREPETAG
1070
     1
1071
       52
1005
129D58
  0
LINE
  5
129D59
  8
OBJECT
 10
9977.8149915527974
 20
-1103.999986840259
 30
0.0
 11
9977.8149915527974
 21
-1111.999986840259
 31
0.0
1001
ACDBBLOCKREPETAG
1070
     1
1071
       53
1005
129D59
  0
LINE
  5
129D5A
  8
OBJECT
 10
10059.0
 20
-1111.9999999999991
 30
0.0
 11
10059.0
 21
-1114.9999999999991
 31
0.0
1001
ACDBBLOCKREPETAG
1070
     1
1071
       54
1005
129D5A
  0
LINE
  5
129D5B
  8
OBJECT
 10
10059.0
 20
-1114.9999999999991
 30
0.0
 11
10069.0
 21
-1114.9999999999991
 31
0.0
1001
ACDBBLOCKREPETAG
1070
     1
1071
       55
1005
129D5B
  0
LINE
  5
129D5C
  8
OBJECT
 10
10054.18504542377
 20
-1111.9999999999991
 30
0.0
 11
10073.814954576221
 21
-1111.9999999999991
 31
0.0
1001
ACDBBLOCKREPETAG
1070
     1
1071
       56
1005
129D5C
  0
LINE
  5
129D5D
  8
OBJECT
 10
10069.0
 20
-1114.9999999999991
 30
0.0
 11
10069.0
 21
-1111.9999999999991
 31
0.0
1001
ACDBBLOCKREPETAG
1070
     1
1071
       57
1005
129D5D
  0
LINE
  5
129D5E
  8
OBJECT
 10
10054.18503599129
 20
-1103.999986840259
 30
0.0
 11
10054.18503599129
 21
-1111.999986840259
 31
0.0
1001
ACDBBLOCKREPETAG
1070
     1
1071
       58
1005
129D5E
  0
LINE
  5
129D5F
  8
OBJECT
 10
10059.0925013592
 20
-1103.999986840259
 30
0.0
 11
10059.0925013592
 21
-1111.999986840259
 31
0.0
1001
ACDBBLOCKREPETAG
1070
     1
1071
       59
1005
129D5F
  0
LINE
  5
129D60
  8
OBJECT
 10
10068.90743209502
 20
-1103.999986840259
 30
0.0
 11
10068.90743209502
 21
-1111.999986840259
 31
0.0
1001
ACDBBLOCKREPETAG
1070
     1
1071
       60
1005
129D60
  0
LINE
  5
129D61
  8
OBJECT
 10
10073.814991552799
 20
-1103.999986840259
 30
0.0
 11
10073.814991552799
 21
-1111.999986840259
 31
0.0
1001
ACDBBLOCKREPETAG
1070
     1
1071
       61
1005
129D61
  0
LINE
  5
129D62
  8
OBJECT
 10
8044.5000000000036
 20
-1079.999999999992
 30
0.0
 11
7955.5
 21
-1079.999999999992
 31
0.0
1001
ACDBBLOCKREPETAG
1070
     1
1071
        0
1005
129D62
  0
LINE
  5
129D63
  8
OBJECT
 10
7935.0
 20
-869.99999999999216
 30
0.0
 11
7935.0
 21
-769.99999999999204
 31
0.0
1001
ACDBBLOCKREPETAG
1070
     1
1071
        1
1005
129D63
  0
LINE
  5
129D64
  8
OBJECT
 10
8065.0
 20
-869.99999999999216
 30
0.0
 11
8065.0
 21
-769.99999999999204
 31
0.0
1001
ACDBBLOCKREPETAG
1070
     1
1071
        2
1005
129D64
  0
LINE
  5
129D65
  8
OBJECT
 10
7935.0
 20
-869.99999999999216
 30
0.0
 11
8065.0
 21
-869.99999999999216
 31
0.0
1001
ACDBBLOCKREPETAG
1070
     1
1071
        3
1005
129D65
  0
LINE
  5
129D66
  8
OBJECT
 10
7955.5
 20
-979.99999999999204
 30
0.0
 11
8044.5000000000036
 21
-979.99999999999204
 31
0.0
1001
ACDBBLOCKREPETAG
1070
     1
1071
        4
1005
129D66
  0
LINE
  5
129D67
  8
OBJECT
 10
7955.5
 20
-979.99999999999204
 30
0.0
 11
7955.5
 21
-1079.999999999992
 31
0.0
1001
ACDBBLOCKREPETAG
1070
     1
1071
        5
1005
129D67
  0
LINE
  5
129D68
  8
OBJECT
 10
8044.5000000000036
 20
-979.99999999999204
 30
0.0
 11
8044.5000000000036
 21
-1079.999999999992
 31
0.0
1001
ACDBBLOCKREPETAG
1070
     1
1071
        6
1005
129D68
  0
LINE
  5
129D69
  8
OBJECT
 10
7935.0
 20
-869.99999999999216
 30
0.0
 11
7955.5
 21
-979.99999999999204
 31
0.0
1001
ACDBBLOCKREPETAG
1070
     1
1071
        7
1005
129D69
  0
LINE
  5
129D6A
  8
OBJECT
 10
8044.5000000000036
 20
-979.99999999999204
 30
0.0
 11
8065.0
 21
-869.99999999999216
 31
0.0
1001
ACDBBLOCKREPETAG
1070
     1
1071
        8
1005
129D6A
  0
LINE
  5
129D6B
  8
HIDDEN
 10
7962.5
 20
-979.99999999999204
 30
0.0
 11
7962.5
 21
-1079.999999999992
 31
0.0
1001
ACDBBLOCKREPETAG
1070
     1
1071
        9
1005
129D6B
  0
LINE
  5
129D6C
  8
HIDDEN
 10
8037.4999999999973
 20
-979.99999999999204
 30
0.0
 11
8037.4999999999973
 21
-1079.999999999992
 31
0.0
1001
ACDBBLOCKREPETAG
1070
     1
1071
       10
1005
129D6C
  0
LINE
  5
129D6D
  8
CENTER
 10
8000.0
 20
-769.99999999999955
 30
0.0
 11
8000.0
 21
-1094.999999999992
 31
0.0
1001
ACDBBLOCKREPETAG
1070
     1
1071
       11
1005
129D6D
  0
LINE
  5
129D6E
  8
OBJECT
 10
6055.9999999999927
 20
-1103.9999999999991
 30
0.0
 11
6055.9999999999927
 21
-1113.9999999999991
 31
0.0
1001
ACDBBLOCKREPETAG
1070
     1
1071
      121
1005
129D6E
  0
LINE
  5
129D6F
  8
OBJECT
 10
5961.75
 20
-1054.699999999996
 30
0.0
 11
5974.25
 21
-1054.699999999996
 31
0.0
1001
ACDBBLOCKREPETAG
1070
     1
1071
      122
1005
129D6F
  0
LINE
  5
129D70
  8
OBJECT
 10
6073.4999999999927
 20
-1062.7
 30
0.0
 11
6073.4999999999927
 21
-1064.9999999999991
 31
0.0
1001
ACDBBLOCKREPETAG
1070
     1
1071
      123
1005
129D70
  0
LINE
  5
129D71
  8
OBJECT
 10
6057.7499999999927
 20
-1054.699999999996
 30
0.0
 11
6070.2499999999927
 21
-1054.699999999996
 31
0.0
1001
ACDBBLOCKREPETAG
1070
     1
1071
      124
1005
129D71
  0
LINE
  5
129D72
  8
OBJECT
 10
6054.4999999999927
 20
-1062.7
 30
0.0
 11
6054.4999999999927
 21
-1064.9999999999991
 31
0.0
1001
ACDBBLOCKREPETAG
1070
     1
1071
      125
1005
129D72
  0
LINE
  5
129D73
  8
OBJECT
 10
5953.0
 20
-1064.9999999999991
 30
0.0
 11
5953.0
 21
-1062.7
 31
0.0
1001
ACDBBLOCKREPETAG
1070
     1
1071
      126
1005
129D73
  0
LINE
  5
129D74
  8
OBJECT
 10
5983.0
 20
-1064.9999999999991
 30
0.0
 11
5983.0
 21
-1062.7
 31
0.0
1001
ACDBBLOCKREPETAG
1070
     1
1071
      127
1005
129D74
  0
LINE
  5
129D75
  8
OBJECT
 10
5961.75
 20
-1054.699999999996
 30
0.0
 11
5961.75
 21
-1062.7
 31
0.0
1001
ACDBBLOCKREPETAG
1070
     1
1071
      128
1005
129D75
  0
LINE
  5
129D76
  8
OBJECT
 10
5974.25
 20
-1054.699999999996
 30
0.0
 11
5974.25
 21
-1062.7
 31
0.0
1001
ACDBBLOCKREPETAG
1070
     1
1071
      129
1005
129D76
  0
LINE
  5
129D77
  8
OBJECT
 10
5953.0
 20
-1062.7
 30
0.0
 11
5983.0
 21
-1062.7
 31
0.0
1001
ACDBBLOCKREPETAG
1070
     1
1071
      130
1005
129D77
  0
LINE
  5
129D78
  8
OBJECT
 10
5960.0
 20
-1103.9999999999991
 30
0.0
 11
5960.0
 21
-1113.9999999999991
 31
0.0
1001
ACDBBLOCKREPETAG
1070
     1
1071
      131
1005
129D78
  0
LINE
  5
129D79
  8
OBJECT
 10
5976.0
 20
-1103.9999999999991
 30
0.0
 11
5976.0
 21
-1113.9999999999991
 31
0.0
1001
ACDBBLOCKREPETAG
1070
     1
1071
      132
1005
129D79
  0
LINE
  5
129D7A
  8
OBJECT
 10
5960.0
 20
-1113.9999999999991
 30
0.0
 11
5976.0
 21
-1113.9999999999991
 31
0.0
1001
ACDBBLOCKREPETAG
1070
     1
1071
      133
1005
129D7A
  0
LINE
  5
129D7B
  8
OBJECT
 10
6071.9999999999918
 20
-1103.9999999999991
 30
0.0
 11
6071.9999999999918
 21
-1113.9999999999991
 31
0.0
1001
ACDBBLOCKREPETAG
1070
     1
1071
      134
1005
129D7B
  0
LINE
  5
129D7C
  8
OBJECT
 10
6071.9999999999918
 20
-1113.9999999999991
 30
0.0
 11
6055.9999999999927
 21
-1113.9999999999991
 31
0.0
1001
ACDBBLOCKREPETAG
1070
     1
1071
      135
1005
129D7C
  0
LINE
  5
129D7D
  8
OBJECT
 10
5944.9999999999927
 20
-1144.9999999999991
 30
0.0
 11
5944.9999999999927
 21
-1103.9999999999991
 31
0.0
1001
ACDBBLOCKREPETAG
1070
     1
1071
      136
1005
129D7D
  0
LINE
  5
129D7E
  8
OBJECT
 10
6054.9999999999918
 20
-1103.9999999999991
 30
0.0
 11
6054.9999999999918
 21
-1144.9999999999991
 31
0.0
1001
ACDBBLOCKREPETAG
1070
     1
1071
      137
1005
129D7E
  0
LINE
  5
129D7F
  8
OBJECT
 10
6070.2499999999927
 20
-1054.699999999996
 30
0.0
 11
6070.2499999999927
 21
-1062.7
 31
0.0
1001
ACDBBLOCKREPETAG
1070
     1
1071
      138
1005
129D7F
  0
LINE
  5
129D80
  8
OBJECT
 10
6057.7499999999927
 20
-1054.699999999996
 30
0.0
 11
6057.7499999999927
 21
-1062.7
 31
0.0
1001
ACDBBLOCKREPETAG
1070
     1
1071
      139
1005
129D80
  0
LINE
  5
129D81
  8
OBJECT
 10
6054.4999999999927
 20
-1062.7
 30
0.0
 11
6073.4999999999927
 21
-1062.7
 31
0.0
1001
ACDBBLOCKREPETAG
1070
     1
1071
      140
1005
129D81
  0
LINE
  5
129D82
  8
OBJECT
 10
6054.9999999999918
 20
-1144.9999999999991
 30
0.0
 11
5944.9999999999927
 21
-1144.9999999999991
 31
0.0
1001
ACDBBLOCKREPETAG
1070
     1
1071
      141
1005
129D82
  0
LINE
  5
129D83
  8
OBJECT
 10
6075.9999999999927
 20
-1079.9999999999991
 30
0.0
 11
5938.9999999999918
 21
-1079.9999999999991
 31
0.0
1001
ACDBBLOCKREPETAG
1070
     1
1071
      142
1005
129D83
  0
LINE
  5
129D84
  8
OBJECT
 10
6075.9999999999927
 20
-1079.9999999999991
 30
0.0
 11
6075.9999999999927
 21
-1064.9999999999991
 31
0.0
1001
ACDBBLOCKREPETAG
1070
     1
1071
      143
1005
129D84
  0
LINE
  5
129D85
  8
OBJECT
 10
6075.9999999999927
 20
-1089.9999999999991
 30
0.0
 11
6075.9999999999927
 21
-1103.9999999999991
 31
0.0
1001
ACDBBLOCKREPETAG
1070
     1
1071
      144
1005
129D85
  0
LINE
  5
129D86
  8
OBJECT
 10
6068.9999999999909
 20
-1089.9999999999991
 30
0.0
 11
6068.9999999999909
 21
-1079.9999999999991
 31
0.0
1001
ACDBBLOCKREPETAG
1070
     1
1071
      145
1005
129D86
  0
LINE
  5
129D87
  8
OBJECT
 10
6058.9999999999927
 20
-1089.9999999999991
 30
0.0
 11
6058.9999999999927
 21
-1079.9999999999991
 31
0.0
1001
ACDBBLOCKREPETAG
1070
     1
1071
      146
1005
129D87
  0
LINE
  5
129D88
  8
OBJECT
 10
5938.9999999999918
 20
-1089.9999999999991
 30
0.0
 11
5938.9999999999918
 21
-1103.9999999999991
 31
0.0
1001
ACDBBLOCKREPETAG
1070
     1
1071
      147
1005
129D88
  0
LINE
  5
129D89
  8
OBJECT
 10
5938.9999999999918
 20
-1103.9999999999991
 30
0.0
 11
6075.9999999999927
 21
-1103.9999999999991
 31
0.0
1001
ACDBBLOCKREPETAG
1070
     1
1071
      148
1005
129D89
  0
LINE
  5
129D8A
  8
OBJECT
 10
5973.0
 20
-1089.9999999999991
 30
0.0
 11
5973.0
 21
-1079.9999999999991
 31
0.0
1001
ACDBBLOCKREPETAG
1070
     1
1071
      149
1005
129D8A
  0
LINE
  5
129D8B
  8
OBJECT
 10
5963.0
 20
-1089.9999999999991
 30
0.0
 11
5963.0
 21
-1079.9999999999991
 31
0.0
1001
ACDBBLOCKREPETAG
1070
     1
1071
      150
1005
129D8B
  0
LINE
  5
129D8C
  8
OBJECT
 10
5938.9999999999918
 20
-1089.9999999999991
 30
0.0
 11
6075.9999999999927
 21
-1089.9999999999991
 31
0.0
1001
ACDBBLOCKREPETAG
1070
     1
1071
      151
1005
129D8C
  0
LINE
  5
129D8D
  8
OBJECT
 10
5945.9999999999927
 20
-1079.9999999999991
 30
0.0
 11
5945.9999999999927
 21
-1089.9999999999991
 31
0.0
1001
ACDBBLOCKREPETAG
1070
     1
1071
      152
1005
129D8D
  0
LINE
  5
129D8E
  8
OBJECT
 10
6053.9999999999927
 20
-1079.9999999999991
 30
0.0
 11
6053.9999999999927
 21
-1089.9999999999991
 31
0.0
1001
ACDBBLOCKREPETAG
1070
     1
1071
      153
1005
129D8E
  0
LINE
  5
129D8F
  8
OBJECT
 10
6044.5
 20
-979.99999999999966
 30
0.0
 11
6065.0
 21
-869.99999999999955
 31
0.0
1001
ACDBBLOCKREPETAG
1070
     1
1071
      154
1005
129D8F
  0
LINE
  5
129D90
  8
OBJECT
 10
5955.5
 20
-979.99999999999966
 30
0.0
 11
6044.5
 21
-979.99999999999966
 31
0.0
1001
ACDBBLOCKREPETAG
1070
     1
1071
      155
1005
129D90
  0
LINE
  5
129D91
  8
OBJECT
 10
5938.9999999999918
 20
-1079.9999999999991
 30
0.0
 11
5938.9999999999918
 21
-1064.9999999999991
 31
0.0
1001
ACDBBLOCKREPETAG
1070
     1
1071
      156
1005
129D91
  0
LINE
  5
129D92
  8
OBJECT
 10
5938.9999999999918
 20
-1064.9999999999991
 30
0.0
 11
6075.9999999999927
 21
-1064.9999999999991
 31
0.0
1001
ACDBBLOCKREPETAG
1070
     1
1071
      157
1005
129D92
  0
LINE
  5
129D93
  8
OBJECT
 10
5955.5
 20
-979.99999999999966
 30
0.0
 11
5955.5
 21
-1029.9999999999991
 31
0.0
1001
ACDBBLOCKREPETAG
1070
     1
1071
      158
1005
129D93
  0
LINE
  5
129D94
  8
OBJECT
 10
6044.5
 20
-979.99999999999966
 30
0.0
 11
6044.5
 21
-1029.9999999999991
 31
0.0
1001
ACDBBLOCKREPETAG
1070
     1
1071
      159
1005
129D94
  0
LINE
  5
129D95
  8
OBJECT
 10
5947.0
 20
-1029.9999999999991
 30
0.0
 11
6053.0
 21
-1029.9999999999991
 31
0.0
1001
ACDBBLOCKREPETAG
1070
     1
1071
      160
1005
129D95
  0
LINE
  5
129D96
  8
HIDDEN
 10
5955.5
 20
-1039.9999999999991
 30
0.0
 11
6044.5
 21
-1039.9999999999991
 31
0.0
1001
ACDBBLOCKREPETAG
1070
     1
1071
      161
1005
129D96
  0
LINE
  5
129D97
  8
CENTER
 10
6000.0
 20
-769.99999999999955
 30
0.0
 11
6000.0
 21
-1159.9999999999991
 31
0.0
1001
ACDBBLOCKREPETAG
1070
     1
1071
      162
1005
129D97
  0
LINE
  5
129D98
  8
OBJECT
 10
6065.0
 20
-769.99999999999955
 30
0.0
 11
6065.0
 21
-869.99999999999955
 31
0.0
1001
ACDBBLOCKREPETAG
1070
     1
1071
      163
1005
129D98
  0
LINE
  5
129D99
  8
OBJECT
 10
5935.0
 20
-769.99999999999955
 30
0.0
 11
5935.0
 21
-869.99999999999955
 31
0.0
1001
ACDBBLOCKREPETAG
1070
     1
1071
      164
1005
129D99
  0
LINE
  5
129D9A
  8
OBJECT
 10
5955.5
 20
-979.99999999999966
 30
0.0
 11
5935.0
 21
-869.99999999999955
 31
0.0
1001
ACDBBLOCKREPETAG
1070
     1
1071
      165
1005
129D9A
  0
LINE
  5
129D9B
  8
OBJECT
 10
6065.0
 20
-869.99999999999955
 30
0.0
 11
5935.0
 21
-869.99999999999955
 31
0.0
1001
ACDBBLOCKREPETAG
1070
     1
1071
      166
1005
129D9B
  0
LINE
  5
129D9C
  8
OBJECT
 10
5947.0
 20
-1029.9999999999991
 30
0.0
 11
5947.0
 21
-1064.9999999999991
 31
0.0
1001
ACDBBLOCKREPETAG
1070
     1
1071
      167
1005
129D9C
  0
LINE
  5
129D9D
  8
OBJECT
 10
6053.0
 20
-1029.9999999999991
 30
0.0
 11
6053.0
 21
-1064.9999999999991
 31
0.0
1001
ACDBBLOCKREPETAG
1070
     1
1071
      168
1005
129D9D
  0
LINE
  5
129D9E
  8
OBJECT
 10
3975.5
 20
-1059.9999999999991
 30
0.0
 11
3958.9999999999918
 21
-1059.9999999999991
 31
0.0
1001
ACDBBLOCKREPETAG
1070
     1
1071
       12
1005
129D9E
  0
LINE
  5
129D9F
  8
OBJECT
 10
3983.0
 20
-1064.9999999999991
 30
0.0
 11
3983.0
 21
-1062.9999999999991
 31
0.0
1001
ACDBBLOCKREPETAG
1070
     1
1071
       13
1005
129D9F
  0
LINE
  5
129DA0
  8
OBJECT
 10
4075.9999999999918
 20
-1079.9999999999991
 30
0.0
 11
3938.9999999999932
 21
-1079.9999999999991
 31
0.0
1001
ACDBBLOCKREPETAG
1070
     1
1071
       14
1005
129DA0
  0
LINE
  5
129DA1
  8
OBJECT
 10
4075.9999999999918
 20
-1079.9999999999991
 30
0.0
 11
4075.9999999999918
 21
-1064.9999999999991
 31
0.0
1001
ACDBBLOCKREPETAG
1070
     1
1071
       15
1005
129DA1
  0
LINE
  5
129DA2
  8
OBJECT
 10
4075.9999999999918
 20
-1089.9999999999991
 30
0.0
 11
4075.9999999999918
 21
-1103.9999999999991
 31
0.0
1001
ACDBBLOCKREPETAG
1070
     1
1071
       16
1005
129DA2
  0
LINE
  5
129DA3
  8
OBJECT
 10
4068.9999999999918
 20
-1089.9999999999991
 30
0.0
 11
4068.9999999999918
 21
-1079.9999999999991
 31
0.0
1001
ACDBBLOCKREPETAG
1070
     1
1071
       17
1005
129DA3
  0
LINE
  5
129DA4
  8
OBJECT
 10
4058.9999999999932
 20
-1089.9999999999991
 30
0.0
 11
4058.9999999999932
 21
-1079.9999999999991
 31
0.0
1001
ACDBBLOCKREPETAG
1070
     1
1071
       18
1005
129DA4
  0
LINE
  5
129DA5
  8
OBJECT
 10
3938.9999999999932
 20
-1089.9999999999991
 30
0.0
 11
3938.9999999999932
 21
-1103.9999999999991
 31
0.0
1001
ACDBBLOCKREPETAG
1070
     1
1071
       19
1005
129DA5
  0
LINE
  5
129DA6
  8
OBJECT
 10
3938.9999999999932
 20
-1103.9999999999991
 30
0.0
 11
4075.9999999999918
 21
-1103.9999999999991
 31
0.0
1001
ACDBBLOCKREPETAG
1070
     1
1071
       20
1005
129DA6
  0
LINE
  5
129DA7
  8
OBJECT
 10
3973.0
 20
-1089.9999999999991
 30
0.0
 11
3973.0
 21
-1079.9999999999991
 31
0.0
1001
ACDBBLOCKREPETAG
1070
     1
1071
       21
1005
129DA7
  0
LINE
  5
129DA8
  8
OBJECT
 10
3963.0
 20
-1089.9999999999991
 30
0.0
 11
3963.0
 21
-1079.9999999999991
 31
0.0
1001
ACDBBLOCKREPETAG
1070
     1
1071
       22
1005
129DA8
  0
LINE
  5
129DA9
  8
OBJECT
 10
3938.9999999999932
 20
-1089.9999999999991
 30
0.0
 11
4075.9999999999918
 21
-1089.9999999999991
 31
0.0
1001
ACDBBLOCKREPETAG
1070
     1
1071
       23
1005
129DA9
  0
LINE
  5
129DAA
  8
OBJECT
 10
3958.9999999999918
 20
-1059.9999999999991
 30
0.0
 11
3958.9999999999918
 21
-1064.9999999999991
 31
0.0
1001
ACDBBLOCKREPETAG
1070
     1
1071
       24
1005
129DAA
  0
LINE
  5
129DAB
  8
OBJECT
 10
3963.0
 20
-1111.9999999999991
 30
0.0
 11
3963.0
 21
-1114.9999999999991
 31
0.0
1001
ACDBBLOCKREPETAG
1070
     1
1071
       25
1005
129DAB
  0
LINE
  5
129DAC
  8
OBJECT
 10
3963.0
 20
-1114.9999999999991
 30
0.0
 11
3973.0
 21
-1114.9999999999991
 31
0.0
1001
ACDBBLOCKREPETAG
1070
     1
1071
       26
1005
129DAC
  0
LINE
  5
129DAD
  8
OBJECT
 10
3958.185045423772
 20
-1111.9999999999991
 30
0.0
 11
3977.8149545762212
 21
-1111.9999999999991
 31
0.0
1001
ACDBBLOCKREPETAG
1070
     1
1071
       27
1005
129DAD
  0
LINE
  5
129DAE
  8
OBJECT
 10
3973.0
 20
-1114.9999999999991
 30
0.0
 11
3973.0
 21
-1111.9999999999991
 31
0.0
1001
ACDBBLOCKREPETAG
1070
     1
1071
       28
1005
129DAE
  0
LINE
  5
129DAF
  8
OBJECT
 10
3945.9999999999932
 20
-1079.9999999999991
 30
0.0
 11
3945.9999999999932
 21
-1089.9999999999991
 31
0.0
1001
ACDBBLOCKREPETAG
1070
     1
1071
       29
1005
129DAF
  0
LINE
  5
129DB0
  8
OBJECT
 10
4053.9999999999941
 20
-1079.9999999999991
 30
0.0
 11
4053.9999999999941
 21
-1089.9999999999991
 31
0.0
1001
ACDBBLOCKREPETAG
1070
     1
1071
       30
1005
129DB0
  0
LINE
  5
129DB1
  8
OBJECT
 10
4044.5
 20
-979.99999999999966
 30
0.0
 11
4065.0
 21
-869.99999999999955
 31
0.0
1001
ACDBBLOCKREPETAG
1070
     1
1071
       31
1005
129DB1
  0
LINE
  5
129DB2
  8
OBJECT
 10
3955.5
 20
-979.99999999999966
 30
0.0
 11
4044.5
 21
-979.99999999999966
 31
0.0
1001
ACDBBLOCKREPETAG
1070
     1
1071
       32
1005
129DB2
  0
LINE
  5
129DB3
  8
OBJECT
 10
3938.9999999999932
 20
-1079.9999999999991
 30
0.0
 11
3938.9999999999932
 21
-1064.9999999999991
 31
0.0
1001
ACDBBLOCKREPETAG
1070
     1
1071
       33
1005
129DB3
  0
LINE
  5
129DB4
  8
OBJECT
 10
3938.9999999999932
 20
-1064.9999999999991
 30
0.0
 11
4075.9999999999918
 21
-1064.9999999999991
 31
0.0
1001
ACDBBLOCKREPETAG
1070
     1
1071
       34
1005
129DB4
  0
LINE
  5
129DB5
  8
OBJECT
 10
3955.5
 20
-979.99999999999966
 30
0.0
 11
3955.5
 21
-1029.9999999999991
 31
0.0
1001
ACDBBLOCKREPETAG
1070
     1
1071
       35
1005
129DB5
  0
LINE
  5
129DB6
  8
OBJECT
 10
4044.5
 20
-979.99999999999966
 30
0.0
 11
4044.5
 21
-1029.9999999999991
 31
0.0
1001
ACDBBLOCKREPETAG
1070
     1
1071
       36
1005
129DB6
  0
LINE
  5
129DB7
  8
OBJECT
 10
3947.0
 20
-1029.9999999999991
 30
0.0
 11
4053.0
 21
-1029.9999999999991
 31
0.0
1001
ACDBBLOCKREPETAG
1070
     1
1071
       37
1005
129DB7
  0
LINE
  5
129DB8
  8
OBJECT
 10
4054.9999999999841
 20
-1059.9999999999991
 30
0.0
 11
4054.9999999999841
 21
-1064.9999999999991
 31
0.0
1001
ACDBBLOCKREPETAG
1070
     1
1071
       38
1005
129DB8
  0
LINE
  5
129DB9
  8
OBJECT
 10
4073.0
 20
-1059.9999999999991
 30
0.0
 11
4073.0
 21
-1064.9999999999991
 31
0.0
1001
ACDBBLOCKREPETAG
1070
     1
1071
       39
1005
129DB9
  0
LINE
  5
129DBA
  8
OBJECT
 10
4073.0
 20
-1059.9999999999991
 30
0.0
 11
4054.9999999999841
 21
-1059.9999999999991
 31
0.0
1001
ACDBBLOCKREPETAG
1070
     1
1071
       40
1005
129DBA
  0
LINE
  5
129DBB
  8
HIDDEN
 10
3955.5
 20
-1039.9999999999991
 30
0.0
 11
4044.5
 21
-1039.9999999999991
 31
0.0
1001
ACDBBLOCKREPETAG
1070
     1
1071
       41
1005
129DBB
  0
LINE
  5
129DBC
  8
CENTER
 10
4000.0
 20
-769.99999999999955
 30
0.0
 11
4000.0
 21
-1118.9999999999991
 31
0.0
1001
ACDBBLOCKREPETAG
1070
     1
1071
       42
1005
129DBC
  0
LINE
  5
129DBD
  8
OBJECT
 10
4065.0
 20
-769.99999999999955
 30
0.0
 11
4065.0
 21
-869.99999999999955
 31
0.0
1001
ACDBBLOCKREPETAG
1070
     1
1071
       43
1005
129DBD
  0
LINE
  5
129DBE
  8
OBJECT
 10
3935.0
 20
-769.99999999999955
 30
0.0
 11
3935.0
 21
-869.99999999999955
 31
0.0
1001
ACDBBLOCKREPETAG
1070
     1
1071
       44
1005
129DBE
  0
LINE
  5
129DBF
  8
OBJECT
 10
3955.5
 20
-979.99999999999966
 30
0.0
 11
3935.0
 21
-869.99999999999955
 31
0.0
1001
ACDBBLOCKREPETAG
1070
     1
1071
       45
1005
129DBF
  0
LINE
  5
129DC0
  8
OBJECT
 10
4065.0
 20
-869.99999999999955
 30
0.0
 11
3935.0
 21
-869.99999999999955
 31
0.0
1001
ACDBBLOCKREPETAG
1070
     1
1071
       46
1005
129DC0
  0
LINE
  5
129DC1
  8
OBJECT
 10
3947.0
 20
-1029.9999999999991
 30
0.0
 11
3947.0
 21
-1064.9999999999991
 31
0.0
1001
ACDBBLOCKREPETAG
1070
     1
1071
       47
1005
129DC1
  0
LINE
  5
129DC2
  8
OBJECT
 10
4053.0
 20
-1029.9999999999991
 30
0.0
 11
4053.0
 21
-1064.9999999999991
 31
0.0
1001
ACDBBLOCKREPETAG
1070
     1
1071
       48
1005
129DC2
  0
LINE
  5
129DC3
  8
OBJECT
 10
3983.0
 20
-1062.9999999999991
 30
0.0
 11
3975.5
 21
-1059.9999999999991
 31
0.0
1001
ACDBBLOCKREPETAG
1070
     1
1071
       49
1005
129DC3
  0
LINE
  5
129DC4
  8
OBJECT
 10
3958.1850359912951
 20
-1103.999986840259
 30
0.0
 11
3958.1850359912951
 21
-1111.999986840259
 31
0.0
1001
ACDBBLOCKREPETAG
1070
     1
1071
       50
1005
129DC4
  0
LINE
  5
129DC5
  8
OBJECT
 10
3963.0925013591991
 20
-1103.999986840259
 30
0.0
 11
3963.0925013591991
 21
-1111.999986840259
 31
0.0
1001
ACDBBLOCKREPETAG
1070
     1
1071
       51
1005
129DC5
  0
LINE
  5
129DC6
  8
OBJECT
 10
3972.907432095024
 20
-1103.999986840259
 30
0.0
 11
3972.907432095024
 21
-1111.999986840259
 31
0.0
1001
ACDBBLOCKREPETAG
1070
     1
1071
       52
1005
129DC6
  0
LINE
  5
129DC7
  8
OBJECT
 10
3977.814991552797
 20
-1103.999986840259
 30
0.0
 11
3977.814991552797
 21
-1111.999986840259
 31
0.0
1001
ACDBBLOCKREPETAG
1070
     1
1071
       53
1005
129DC7
  0
LINE
  5
129DC8
  8
OBJECT
 10
4059.0
 20
-1111.9999999999991
 30
0.0
 11
4059.0
 21
-1114.9999999999991
 31
0.0
1001
ACDBBLOCKREPETAG
1070
     1
1071
       54
1005
129DC8
  0
LINE
  5
129DC9
  8
OBJECT
 10
4059.0
 20
-1114.9999999999991
 30
0.0
 11
4069.0
 21
-1114.9999999999991
 31
0.0
1001
ACDBBLOCKREPETAG
1070
     1
1071
       55
1005
129DC9
  0
LINE
  5
129DCA
  8
OBJECT
 10
4054.1850454237701
 20
-1111.9999999999991
 30
0.0
 11
4073.8149545762199
 21
-1111.9999999999991
 31
0.0
1001
ACDBBLOCKREPETAG
1070
     1
1071
       56
1005
129DCA
  0
LINE
  5
129DCB
  8
OBJECT
 10
4069.0
 20
-1114.9999999999991
 30
0.0
 11
4069.0
 21
-1111.9999999999991
 31
0.0
1001
ACDBBLOCKREPETAG
1070
     1
1071
       57
1005
129DCB
  0
LINE
  5
129DCC
  8
OBJECT
 10
4054.1850359912919
 20
-1103.999986840259
 30
0.0
 11
4054.1850359912919
 21
-1111.999986840259
 31
0.0
1001
ACDBBLOCKREPETAG
1070
     1
1071
       58
1005
129DCC
  0
LINE
  5
129DCD
  8
OBJECT
 10
4059.0925013591982
 20
-1103.999986840259
 30
0.0
 11
4059.0925013591982
 21
-1111.999986840259
 31
0.0
1001
ACDBBLOCKREPETAG
1070
     1
1071
       59
1005
129DCD
  0
LINE
  5
129DCE
  8
OBJECT
 10
4068.907432095024
 20
-1103.999986840259
 30
0.0
 11
4068.907432095024
 21
-1111.999986840259
 31
0.0
1001
ACDBBLOCKREPETAG
1070
     1
1071
       60
1005
129DCE
  0
LINE
  5
129DCF
  8
OBJECT
 10
4073.814991552797
 20
-1103.999986840259
 30
0.0
 11
4073.814991552797
 21
-1111.999986840259
 31
0.0
1001
ACDBBLOCKREPETAG
1070
     1
1071
       61
1005
129DCF
  0
LINE
  5
129DD0
  8
CENTER
 10
11924.0
 20
-1394.9999999999991
 30
0.0
 11
12091.0
 21
-1394.9999999999991
 31
0.0
1001
ACDBBLOCKREPETAG
1070
     1
1071
       22
1005
129DD0
  0
LINE
  5
129DD1
  8
CENTER
 10
12000.0
 20
-1318.0518385105161
 30
0.0
 11
12000.0
 21
-1471.948161489478
 31
0.0
1001
ACDBBLOCKREPETAG
1070
     1
1071
       23
1005
129DD1
  0
CIRCLE
  5
129DD2
  8
OBJECT
 10
12000.0
 20
-1394.9999999999991
 30
0.0
 40
37.5
1001
ACDBBLOCKREPETAG
1070
     1
1071
       24
1005
129DD2
  0
CIRCLE
  5
129DD3
  8
OBJECT
 10
12000.0
 20
-1394.9999999999991
 30
0.0
 40
47.5
1001
ACDBBLOCKREPETAG
1070
     1
1071
       25
1005
129DD3
  0
ARC
  5
129DD4
  8
OBJECT
 10
12000.0
 20
-1394.9999999999991
 30
0.0
 40
61.0
 50
40.03737312998139
 51
79.962626870012684
1001
ACDBBLOCKREPETAG
1070
     1
1071
       26
1005
129DD4
  0
ARC
  5
129DD5
  8
OBJECT
 10
12000.0
 20
-1394.9999999999991
 30
0.0
 40
61.0
 50
160.03737312997501
 51
199.96262687002491
1001
ACDBBLOCKREPETAG
1070
     1
1071
       27
1005
129DD5
  0
ARC
  5
129DD6
  8
OBJECT
 10
12000.0
 20
-1394.9999999999991
 30
0.0
 40
61.0
 50
280.03737312998732
 51
319.9626268700186
1001
ACDBBLOCKREPETAG
1070
     1
1071
       28
1005
129DD6
  0
ARC
  5
129DD7
  8
OBJECT
 10
12064.0
 20
-1394.9999999999991
 30
0.0
 40
12.0
 50
319.9626268700186
 51
40.03737312998139
1001
ACDBBLOCKREPETAG
1070
     1
1071
       29
1005
129DD7
  0
LINE
  5
129DD8
  8
OBJECT
 10
12046.703125
 20
-1355.7594837542299
 30
0.0
 11
12073.1875
 21
-1387.2805541811599
 31
0.0
1001
ACDBBLOCKREPETAG
1070
     1
1071
       30
1005
129DD8
  0
LINE
  5
129DD9
  8
OBJECT
 10
12046.703125
 20
-1434.240516245768
 30
0.0
 11
12073.1875
 21
-1402.719445818838
 31
0.0
1001
ACDBBLOCKREPETAG
1070
     1
1071
       31
1005
129DD9
  0
CIRCLE
  5
129DDA
  8
OBJECT
 10
12000.0
 20
-1394.9999999999991
 30
0.0
 40
55.0
1001
ACDBBLOCKREPETAG
1070
     1
1071
       32
1005
129DDA
  0
ARC
  5
129DDB
  8
OBJECT
 10
12064.0
 20
-1394.9999999999991
 30
0.0
 40
12.0
 50
271.2434956101261
 51
88.756504389873882
1001
ACDBBLOCKREPETAG
1070
     1
1071
       33
1005
129DDB
  0
ARC
  5
129DDC
  8
OBJECT
 10
12064.5859375
 20
-1368.0063585775049
 30
0.0
 40
15.0
 50
202.68245018366949
 51
268.7565043898739
1001
ACDBBLOCKREPETAG
1070
     1
1071
       34
1005
129DDC
  0
CIRCLE
  5
129DDD
  8
SLIM
 10
12064.0
 20
-1394.9999999999991
 30
0.0
 40
8.0
1001
ACDBBLOCKREPETAG
1070
     1
1071
       35
1005
129DDD
  0
POLYLINE
  5
129DDE
  8
SLIM
 66
     1
 10
0.0
 20
0.0
 30
0.0
 70
     1
1001
ACDBBLOCKREPETAG
1070
     1
1071
       36
1005
129DDE
  0
VERTEX
  5
12A18B
  8
SLIM
 10
12061.69059892324
 20
-1390.9999999999991
 30
0.0
  0
VERTEX
  5
12A18C
  8
SLIM
 10
12059.38119784648
 20
-1394.9999999999991
 30
0.0
  0
VERTEX
  5
12A18D
  8
SLIM
 10
12061.69059892324
 20
-1398.9999999999991
 30
0.0
  0
VERTEX
  5
12A18E
  8
SLIM
 10
12066.30940107676
 20
-1398.9999999999991
 30
0.0
  0
VERTEX
  5
12A18F
  8
SLIM
 10
12068.618802153511
 20
-1394.9999999999991
 30
0.0
  0
VERTEX
  5
12A190
  8
SLIM
 10
12066.30940107676
 20
-1390.9999999999991
 30
0.0
  0
SEQEND
  5
12A191
  8
SLIM
  0
ARC
  5
129DDF
  8
OBJECT
 10
12064.5859375
 20
-1421.993641422489
 30
0.0
 40
15.0
 50
91.243495610126089
 51
157.3175498163304
1001
ACDBBLOCKREPETAG
1070
     1
1071
       37
1005
129DDF
  0
ARC
  5
129DE0
  8
OBJECT
 10
11968.0
 20
-1339.5743741577919
 30
0.0
 40
12.0
 50
79.962626870012684
 51
160.03737312997501
1001
ACDBBLOCKREPETAG
1070
     1
1071
       38
1005
129DE0
  0
LINE
  5
129DE1
  8
OBJECT
 10
11942.665153573549
 20
-1374.1741654367599
 30
0.0
 11
11956.721013817751
 21
-1335.477488669944
 31
0.0
1001
ACDBBLOCKREPETAG
1070
     1
1071
       39
1005
129DE1
  0
LINE
  5
129DE2
  8
OBJECT
 10
12010.631721426451
 20
-1334.9336491909951
 30
0.0
 11
11970.091486182249
 21
-1327.7580428511051
 31
0.0
1001
ACDBBLOCKREPETAG
1070
     1
1071
       40
1005
129DE2
  0
ARC
  5
129DE3
  8
OBJECT
 10
11968.0
 20
-1339.5743741577919
 30
0.0
 40
12.0
 50
31.243495610056922
 51
208.7565043898139
1001
ACDBBLOCKREPETAG
1070
     1
1071
       41
1005
129DE3
  0
ARC
  5
129DE4
  8
OBJECT
 10
11944.32985203747
 20
-1352.5637581090109
 30
0.0
 40
15.0
 50
322.68245018387239
 51
28.756504389813902
1001
ACDBBLOCKREPETAG
1070
     1
1071
       42
1005
129DE4
  0
CIRCLE
  5
129DE5
  8
SLIM
 10
11968.0
 20
-1339.5743741577919
 30
0.0
 40
7.9999999999999982
1001
ACDBBLOCKREPETAG
1070
     1
1071
       43
1005
129DE5
  0
POLYLINE
  5
129DE6
  8
SLIM
 66
     1
 10
0.0
 20
0.0
 30
0.0
 70
     1
1001
ACDBBLOCKREPETAG
1070
     1
1071
       44
1005
129DE6
  0
VERTEX
  5
12A192
  8
SLIM
 10
11965.69059892324
 20
-1343.574374157796
 30
0.0
  0
VERTEX
  5
12A193
  8
SLIM
 10
11970.30940107676
 20
-1343.574374157793
 30
0.0
  0
VERTEX
  5
12A194
  8
SLIM
 10
11972.618802153511
 20
-1339.574374157796
 30
0.0
  0
VERTEX
  5
12A195
  8
SLIM
 10
11970.309401076751
 20
-1335.574374157793
 30
0.0
  0
VERTEX
  5
12A196
  8
SLIM
 10
11965.69059892324
 20
-1335.574374157796
 30
0.0
  0
VERTEX
  5
12A197
  8
SLIM
 10
11963.38119784648
 20
-1339.5743741577919
 30
0.0
  0
SEQEND
  5
12A198
  8
SLIM
  0
ARC
  5
129DE7
  8
OBJECT
 10
11991.084210462521
 20
-1325.5701166865169
 30
0.0
 40
15.0
 50
211.2434956100569
 51
277.31754981622862
1001
ACDBBLOCKREPETAG
1070
     1
1071
       45
1005
129DE7
  0
ARC
  5
129DE8
  8
OBJECT
 10
11968.0
 20
-1450.425625842202
 30
0.0
 40
12.0
 50
199.96262687002491
 51
280.03737312998732
1001
ACDBBLOCKREPETAG
1070
     1
1071
       46
1005
129DE8
  0
LINE
  5
129DE9
  8
OBJECT
 10
12010.631721426451
 20
-1455.0663508090031
 30
0.0
 11
11970.091486182249
 21
-1462.241957148892
 31
0.0
1001
ACDBBLOCKREPETAG
1070
     1
1071
       47
1005
129DE9
  0
LINE
  5
129DEA
  8
OBJECT
 10
11942.665153573549
 20
-1415.8258345632339
 30
0.0
 11
11956.721013817751
 21
-1454.5225113300539
 31
0.0
1001
ACDBBLOCKREPETAG
1070
     1
1071
       48
1005
129DEA
  0
ARC
  5
129DEB
  8
OBJECT
 10
11968.0
 20
-1450.425625842202
 30
0.0
 40
12.0
 50
151.2434956101861
 51
328.75650438994307
1001
ACDBBLOCKREPETAG
1070
     1
1071
       49
1005
129DEB
  0
ARC
  5
129DEC
  8
OBJECT
 10
11991.084210462521
 20
-1464.4298833134769
 30
0.0
 40
15.0
 50
82.682450183771394
 51
148.75650438994299
1001
ACDBBLOCKREPETAG
1070
     1
1071
       50
1005
129DEC
  0
CIRCLE
  5
129DED
  8
SLIM
 10
11968.0
 20
-1450.425625842202
 30
0.0
 40
8.0
1001
ACDBBLOCKREPETAG
1070
     1
1071
       51
1005
129DED
  0
POLYLINE
  5
129DEE
  8
SLIM
 66
     1
 10
0.0
 20
0.0
 30
0.0
 70
     1
1001
ACDBBLOCKREPETAG
1070
     1
1071
       52
1005
129DEE
  0
VERTEX
  5
12A199
  8
SLIM
 10
11972.618802153511
 20
-1450.425625842202
 30
0.0
  0
VERTEX
  5
12A19A
  8
SLIM
 10
11970.309401076751
 20
-1446.425625842202
 30
0.0
  0
VERTEX
  5
12A19B
  8
SLIM
 10
11965.69059892324
 20
-1446.425625842202
 30
0.0
  0
VERTEX
  5
12A19C
  8
SLIM
 10
11963.38119784648
 20
-1450.425625842202
 30
0.0
  0
VERTEX
  5
12A19D
  8
SLIM
 10
11965.69059892324
 20
-1454.425625842202
 30
0.0
  0
VERTEX
  5
12A19E
  8
SLIM
 10
11970.309401076751
 20
-1454.425625842202
 30
0.0
  0
SEQEND
  5
12A19F
  8
SLIM
  0
ARC
  5
129DEF
  8
OBJECT
 10
11944.32985203747
 20
-1437.436241890987
 30
0.0
 40
15.0
 50
331.24349561018607
 51
37.317549816127681
1001
ACDBBLOCKREPETAG
1070
     1
1071
       53
1005
129DEF
  0
LINE
  5
129DF0
  8
CENTER
 10
9924.0
 20
-1353.9999999999959
 30
0.0
 11
10091.0
 21
-1353.9999999999959
 31
0.0
1001
ACDBBLOCKREPETAG
1070
     1
1071
        0
1005
129DF0
  0
LINE
  5
129DF1
  8
CENTER
 10
10000.0
 20
-1277.0518385105131
 30
0.0
 11
10000.0
 21
-1430.9481614894751
 31
0.0
1001
ACDBBLOCKREPETAG
1070
     1
1071
        1
1005
129DF1
  0
CIRCLE
  5
129DF2
  8
OBJECT
 10
10000.0
 20
-1353.9999999999959
 30
0.0
 40
37.5
1001
ACDBBLOCKREPETAG
1070
     1
1071
        2
1005
129DF2
  0
CIRCLE
  5
129DF3
  8
OBJECT
 10
10000.0
 20
-1353.9999999999959
 30
0.0
 40
49.5
1001
ACDBBLOCKREPETAG
1070
     1
1071
        3
1005
129DF3
  0
ARC
  5
129DF4
  8
OBJECT
 10
10000.0
 20
-1353.9999999999959
 30
0.0
 40
61.0
 50
40.03737312998139
 51
79.962626870012684
1001
ACDBBLOCKREPETAG
1070
     1
1071
        4
1005
129DF4
  0
ARC
  5
129DF5
  8
OBJECT
 10
10000.0
 20
-1353.9999999999959
 30
0.0
 40
61.0
 50
160.03737312997501
 51
199.96262687002491
1001
ACDBBLOCKREPETAG
1070
     1
1071
        5
1005
129DF5
  0
ARC
  5
129DF6
  8
OBJECT
 10
10000.0
 20
-1353.9999999999959
 30
0.0
 40
61.0
 50
280.03737312998732
 51
319.9626268700186
1001
ACDBBLOCKREPETAG
1070
     1
1071
        6
1005
129DF6
  0
CIRCLE
  5
129DF7
  8
SLIM
 10
10064.0
 20
-1353.9999999999959
 30
0.0
 40
5.0
1001
ACDBBLOCKREPETAG
1070
     1
1071
        7
1005
129DF7
  0
ARC
  5
129DF8
  8
OBJECT
 10
10064.0
 20
-1353.9999999999959
 30
0.0
 40
12.0
 50
319.9626268700186
 51
40.03737312998139
1001
ACDBBLOCKREPETAG
1070
     1
1071
        8
1005
129DF8
  0
LINE
  5
129DF9
  8
OBJECT
 10
10046.703125
 20
-1314.7594837542269
 30
0.0
 11
10073.1875
 21
-1346.280554181157
 31
0.0
1001
ACDBBLOCKREPETAG
1070
     1
1071
        9
1005
129DF9
  0
LINE
  5
129DFA
  8
OBJECT
 10
10046.703125
 20
-1393.2405162457651
 30
0.0
 11
10073.1875
 21
-1361.7194458188351
 31
0.0
1001
ACDBBLOCKREPETAG
1070
     1
1071
       10
1005
129DFA
  0
POLYLINE
  5
129DFB
  8
SLIM
 66
     1
 10
0.0
 20
0.0
 30
0.0
 70
     1
1001
ACDBBLOCKREPETAG
1070
     1
1071
       11
1005
129DFB
  0
VERTEX
  5
12A1A0
  8
SLIM
 10
10059.092522711881
 20
-1345.4999999999959
 30
0.0
  0
VERTEX
  5
12A1A1
  8
SLIM
 10
10054.18504542377
 20
-1353.9999999999959
 30
0.0
  0
VERTEX
  5
12A1A2
  8
SLIM
 10
10059.092522711881
 20
-1362.4999999999959
 30
0.0
  0
VERTEX
  5
12A1A3
  8
SLIM
 10
10068.907477288099
 20
-1362.4999999999959
 30
0.0
  0
VERTEX
  5
12A1A4
  8
SLIM
 10
10073.814954576221
 20
-1353.9999999999959
 30
0.0
  0
VERTEX
  5
12A1A5
  8
SLIM
 10
10068.907477288099
 20
-1345.4999999999959
 30
0.0
  0
SEQEND
  5
12A1A6
  8
SLIM
  0
CIRCLE
  5
129DFC
  8
SLIM
 10
9968.0
 20
-1298.574374157789
 30
0.0
 40
4.9999999999999991
1001
ACDBBLOCKREPETAG
1070
     1
1071
       12
1005
129DFC
  0
ARC
  5
129DFD
  8
OBJECT
 10
9968.0
 20
-1298.574374157789
 30
0.0
 40
12.0
 50
79.962626870012684
 51
160.03737312997501
1001
ACDBBLOCKREPETAG
1070
     1
1071
       13
1005
129DFD
  0
LINE
  5
129DFE
  8
OBJECT
 10
9942.6651535735436
 20
-1333.174165436757
 30
0.0
 11
9956.7210138177488
 21
-1294.4774886699411
 31
0.0
1001
ACDBBLOCKREPETAG
1070
     1
1071
       14
1005
129DFE
  0
LINE
  5
129DFF
  8
OBJECT
 10
10010.631721426451
 20
-1293.9336491909919
 30
0.0
 11
9970.091486182253
 21
-1286.7580428511019
 31
0.0
1001
ACDBBLOCKREPETAG
1070
     1
1071
       15
1005
129DFF
  0
POLYLINE
  5
129E00
  8
SLIM
 66
     1
 10
0.0
 20
0.0
 30
0.0
 70
     1
1001
ACDBBLOCKREPETAG
1070
     1
1071
       16
1005
129E00
  0
VERTEX
  5
12A1A7
  8
SLIM
 10
9963.0925227118896
 20
-1307.074374157789
 30
0.0
  0
VERTEX
  5
12A1A8
  8
SLIM
 10
9972.9074772881177
 20
-1307.074374157793
 30
0.0
  0
VERTEX
  5
12A1A9
  8
SLIM
 10
9977.814954576219
 20
-1298.574374157789
 30
0.0
  0
VERTEX
  5
12A1AA
  8
SLIM
 10
9972.9074772881177
 20
-1290.074374157793
 30
0.0
  0
VERTEX
  5
12A1AB
  8
SLIM
 10
9963.0925227118896
 20
-1290.074374157789
 30
0.0
  0
VERTEX
  5
12A1AC
  8
SLIM
 10
9958.1850454237738
 20
-1298.574374157793
 30
0.0
  0
SEQEND
  5
12A1AD
  8
SLIM
  0
CIRCLE
  5
129E01
  8
SLIM
 10
9968.0
 20
-1409.425625842199
 30
0.0
 40
5.0
1001
ACDBBLOCKREPETAG
1070
     1
1071
       17
1005
129E01
  0
ARC
  5
129E02
  8
OBJECT
 10
9968.0
 20
-1409.425625842199
 30
0.0
 40
12.0
 50
199.96262687002491
 51
280.03737312998732
1001
ACDBBLOCKREPETAG
1070
     1
1071
       18
1005
129E02
  0
LINE
  5
129E03
  8
OBJECT
 10
10010.631721426451
 20
-1414.066350808999
 30
0.0
 11
9970.091486182253
 21
-1421.241957148889
 31
0.0
1001
ACDBBLOCKREPETAG
1070
     1
1071
       19
1005
129E03
  0
LINE
  5
129E04
  8
OBJECT
 10
9942.6651535735436
 20
-1374.825834563231
 30
0.0
 11
9956.7210138177488
 21
-1413.5225113300501
 31
0.0
1001
ACDBBLOCKREPETAG
1070
     1
1071
       20
1005
129E04
  0
POLYLINE
  5
129E05
  8
SLIM
 66
     1
 10
0.0
 20
0.0
 30
0.0
 70
     1
1001
ACDBBLOCKREPETAG
1070
     1
1071
       21
1005
129E05
  0
VERTEX
  5
12A1AE
  8
SLIM
 10
9977.814954576219
 20
-1409.425625842199
 30
0.0
  0
VERTEX
  5
12A1AF
  8
SLIM
 10
9972.9074772881049
 20
-1400.925625842199
 30
0.0
  0
VERTEX
  5
12A1B0
  8
SLIM
 10
9963.0925227118896
 20
-1400.925625842199
 30
0.0
  0
VERTEX
  5
12A1B1
  8
SLIM
 10
9958.1850454237738
 20
-1409.425625842199
 30
0.0
  0
VERTEX
  5
12A1B2
  8
SLIM
 10
9963.0925227118896
 20
-1417.925625842199
 30
0.0
  0
VERTEX
  5
12A1B3
  8
SLIM
 10
9972.9074772881177
 20
-1417.925625842199
 30
0.0
  0
SEQEND
  5
12A1B4
  8
SLIM
  0
LINE
  5
129E06
  8
CENTER
 10
5924.0
 20
-1394.9999999999991
 30
0.0
 11
6091.0
 21
-1394.9999999999991
 31
0.0
1001
ACDBBLOCKREPETAG
1070
     1
1071
       22
1005
129E06
  0
LINE
  5
129E07
  8
CENTER
 10
6000.0
 20
-1318.0518385105161
 30
0.0
 11
6000.0
 21
-1471.948161489478
 31
0.0
1001
ACDBBLOCKREPETAG
1070
     1
1071
       23
1005
129E07
  0
CIRCLE
  5
129E08
  8
OBJECT
 10
6000.0
 20
-1394.9999999999991
 30
0.0
 40
37.5
1001
ACDBBLOCKREPETAG
1070
     1
1071
       24
1005
129E08
  0
CIRCLE
  5
129E09
  8
OBJECT
 10
6000.0
 20
-1394.9999999999991
 30
0.0
 40
47.5
1001
ACDBBLOCKREPETAG
1070
     1
1071
       25
1005
129E09
  0
ARC
  5
129E0A
  8
OBJECT
 10
6000.0
 20
-1394.9999999999991
 30
0.0
 40
61.0
 50
40.03737312998139
 51
79.962626870012684
1001
ACDBBLOCKREPETAG
1070
     1
1071
       26
1005
129E0A
  0
ARC
  5
129E0B
  8
OBJECT
 10
6000.0
 20
-1394.9999999999991
 30
0.0
 40
61.0
 50
160.03737312997501
 51
199.96262687002491
1001
ACDBBLOCKREPETAG
1070
     1
1071
       27
1005
129E0B
  0
ARC
  5
129E0C
  8
OBJECT
 10
6000.0
 20
-1394.9999999999991
 30
0.0
 40
61.0
 50
280.03737312998732
 51
319.9626268700186
1001
ACDBBLOCKREPETAG
1070
     1
1071
       28
1005
129E0C
  0
ARC
  5
129E0D
  8
OBJECT
 10
6064.0
 20
-1394.9999999999991
 30
0.0
 40
12.0
 50
319.9626268700186
 51
40.03737312998139
1001
ACDBBLOCKREPETAG
1070
     1
1071
       29
1005
129E0D
  0
LINE
  5
129E0E
  8
OBJECT
 10
6046.703125
 20
-1355.7594837542299
 30
0.0
 11
6073.1875
 21
-1387.2805541811599
 31
0.0
1001
ACDBBLOCKREPETAG
1070
     1
1071
       30
1005
129E0E
  0
LINE
  5
129E0F
  8
OBJECT
 10
6046.703125
 20
-1434.240516245768
 30
0.0
 11
6073.1875
 21
-1402.719445818838
 31
0.0
1001
ACDBBLOCKREPETAG
1070
     1
1071
       31
1005
129E0F
  0
CIRCLE
  5
129E10
  8
OBJECT
 10
6000.0
 20
-1394.9999999999991
 30
0.0
 40
55.0
1001
ACDBBLOCKREPETAG
1070
     1
1071
       32
1005
129E10
  0
ARC
  5
129E11
  8
OBJECT
 10
6064.0
 20
-1394.9999999999991
 30
0.0
 40
12.0
 50
271.2434956101261
 51
88.756504389873882
1001
ACDBBLOCKREPETAG
1070
     1
1071
       33
1005
129E11
  0
ARC
  5
129E12
  8
OBJECT
 10
6064.5859375
 20
-1368.0063585775049
 30
0.0
 40
15.0
 50
202.68245018366949
 51
268.7565043898739
1001
ACDBBLOCKREPETAG
1070
     1
1071
       34
1005
129E12
  0
CIRCLE
  5
129E13
  8
SLIM
 10
6064.0
 20
-1394.9999999999991
 30
0.0
 40
8.0
1001
ACDBBLOCKREPETAG
1070
     1
1071
       35
1005
129E13
  0
POLYLINE
  5
129E14
  8
SLIM
 66
     1
 10
0.0
 20
0.0
 30
0.0
 70
     1
1001
ACDBBLOCKREPETAG
1070
     1
1071
       36
1005
129E14
  0
VERTEX
  5
12A1B5
  8
SLIM
 10
6061.69059892324
 20
-1390.9999999999991
 30
0.0
  0
VERTEX
  5
12A1B6
  8
SLIM
 10
6059.3811978464846
 20
-1394.9999999999991
 30
0.0
  0
VERTEX
  5
12A1B7
  8
SLIM
 10
6061.69059892324
 20
-1398.9999999999991
 30
0.0
  0
VERTEX
  5
12A1B8
  8
SLIM
 10
6066.30940107676
 20
-1398.9999999999991
 30
0.0
  0
VERTEX
  5
12A1B9
  8
SLIM
 10
6068.6188021535154
 20
-1394.9999999999991
 30
0.0
  0
VERTEX
  5
12A1BA
  8
SLIM
 10
6066.30940107676
 20
-1390.9999999999991
 30
0.0
  0
SEQEND
  5
12A1BB
  8
SLIM
  0
ARC
  5
129E15
  8
OBJECT
 10
6064.5859375
 20
-1421.993641422489
 30
0.0
 40
15.0
 50
91.243495610126089
 51
157.3175498163304
1001
ACDBBLOCKREPETAG
1070
     1
1071
       37
1005
129E15
  0
ARC
  5
129E16
  8
OBJECT
 10
5968.0
 20
-1339.5743741577919
 30
0.0
 40
12.0
 50
79.962626870012684
 51
160.03737312997501
1001
ACDBBLOCKREPETAG
1070
     1
1071
       38
1005
129E16
  0
LINE
  5
129E17
  8
OBJECT
 10
5942.6651535735473
 20
-1374.1741654367599
 30
0.0
 11
5956.721013817747
 21
-1335.477488669944
 31
0.0
1001
ACDBBLOCKREPETAG
1070
     1
1071
       39
1005
129E17
  0
LINE
  5
129E18
  8
OBJECT
 10
6010.6317214264518
 20
-1334.9336491909951
 30
0.0
 11
5970.091486182253
 21
-1327.7580428511051
 31
0.0
1001
ACDBBLOCKREPETAG
1070
     1
1071
       40
1005
129E18
  0
ARC
  5
129E19
  8
OBJECT
 10
5968.0
 20
-1339.5743741577919
 30
0.0
 40
12.0
 50
31.243495610056922
 51
208.7565043898139
1001
ACDBBLOCKREPETAG
1070
     1
1071
       41
1005
129E19
  0
ARC
  5
129E1A
  8
OBJECT
 10
5944.3298520374738
 20
-1352.5637581090109
 30
0.0
 40
15.0
 50
322.68245018387239
 51
28.756504389813902
1001
ACDBBLOCKREPETAG
1070
     1
1071
       42
1005
129E1A
  0
CIRCLE
  5
129E1B
  8
SLIM
 10
5968.0
 20
-1339.5743741577919
 30
0.0
 40
7.9999999999999982
1001
ACDBBLOCKREPETAG
1070
     1
1071
       43
1005
129E1B
  0
POLYLINE
  5
129E1C
  8
SLIM
 66
     1
 10
0.0
 20
0.0
 30
0.0
 70
     1
1001
ACDBBLOCKREPETAG
1070
     1
1071
       44
1005
129E1C
  0
VERTEX
  5
12A1BC
  8
SLIM
 10
5965.6905989232419
 20
-1343.574374157796
 30
0.0
  0
VERTEX
  5
12A1BD
  8
SLIM
 10
5970.30940107676
 20
-1343.574374157793
 30
0.0
  0
VERTEX
  5
12A1BE
  8
SLIM
 10
5972.6188021535154
 20
-1339.574374157796
 30
0.0
  0
VERTEX
  5
12A1BF
  8
SLIM
 10
5970.3094010767572
 20
-1335.574374157793
 30
0.0
  0
VERTEX
  5
12A1C0
  8
SLIM
 10
5965.6905989232419
 20
-1335.574374157796
 30
0.0
  0
VERTEX
  5
12A1C1
  8
SLIM
 10
5963.3811978464846
 20
-1339.5743741577919
 30
0.0
  0
SEQEND
  5
12A1C2
  8
SLIM
  0
ARC
  5
129E1D
  8
OBJECT
 10
5991.0842104625253
 20
-1325.5701166865169
 30
0.0
 40
15.0
 50
211.2434956100569
 51
277.31754981622862
1001
ACDBBLOCKREPETAG
1070
     1
1071
       45
1005
129E1D
  0
ARC
  5
129E1E
  8
OBJECT
 10
5968.0
 20
-1450.425625842202
 30
0.0
 40
12.0
 50
199.96262687002491
 51
280.03737312998732
1001
ACDBBLOCKREPETAG
1070
     1
1071
       46
1005
129E1E
  0
LINE
  5
129E1F
  8
OBJECT
 10
6010.6317214264518
 20
-1455.0663508090031
 30
0.0
 11
5970.091486182253
 21
-1462.241957148892
 31
0.0
1001
ACDBBLOCKREPETAG
1070
     1
1071
       47
1005
129E1F
  0
LINE
  5
129E20
  8
OBJECT
 10
5942.6651535735473
 20
-1415.8258345632339
 30
0.0
 11
5956.721013817747
 21
-1454.5225113300539
 31
0.0
1001
ACDBBLOCKREPETAG
1070
     1
1071
       48
1005
129E20
  0
ARC
  5
129E21
  8
OBJECT
 10
5968.0
 20
-1450.425625842202
 30
0.0
 40
12.0
 50
151.2434956101861
 51
328.75650438994307
1001
ACDBBLOCKREPETAG
1070
     1
1071
       49
1005
129E21
  0
ARC
  5
129E22
  8
OBJECT
 10
5991.0842104625253
 20
-1464.4298833134769
 30
0.0
 40
15.0
 50
82.682450183771394
 51
148.75650438994299
1001
ACDBBLOCKREPETAG
1070
     1
1071
       50
1005
129E22
  0
CIRCLE
  5
129E23
  8
SLIM
 10
5968.0
 20
-1450.425625842202
 30
0.0
 40
8.0
1001
ACDBBLOCKREPETAG
1070
     1
1071
       51
1005
129E23
  0
POLYLINE
  5
129E24
  8
SLIM
 66
     1
 10
0.0
 20
0.0
 30
0.0
 70
     1
1001
ACDBBLOCKREPETAG
1070
     1
1071
       52
1005
129E24
  0
VERTEX
  5
12A1C3
  8
SLIM
 10
5972.6188021535154
 20
-1450.425625842202
 30
0.0
  0
VERTEX
  5
12A1C4
  8
SLIM
 10
5970.3094010767572
 20
-1446.425625842202
 30
0.0
  0
VERTEX
  5
12A1C5
  8
SLIM
 10
5965.6905989232419
 20
-1446.425625842202
 30
0.0
  0
VERTEX
  5
12A1C6
  8
SLIM
 10
5963.3811978464846
 20
-1450.425625842202
 30
0.0
  0
VERTEX
  5
12A1C7
  8
SLIM
 10
5965.69059892324
 20
-1454.425625842202
 30
0.0
  0
VERTEX
  5
12A1C8
  8
SLIM
 10
5970.3094010767572
 20
-1454.425625842202
 30
0.0
  0
SEQEND
  5
12A1C9
  8
SLIM
  0
ARC
  5
129E25
  8
OBJECT
 10
5944.3298520374738
 20
-1437.436241890987
 30
0.0
 40
15.0
 50
331.24349561018607
 51
37.317549816127681
1001
ACDBBLOCKREPETAG
1070
     1
1071
       53
1005
129E25
  0
LINE
  5
129E26
  8
CENTER
 10
3924.0
 20
-1353.9999999999959
 30
0.0
 11
4091.0
 21
-1353.9999999999959
 31
0.0
1001
ACDBBLOCKREPETAG
1070
     1
1071
        0
1005
129E26
  0
LINE
  5
129E27
  8
CENTER
 10
4000.0
 20
-1277.0518385105131
 30
0.0
 11
4000.0
 21
-1430.9481614894751
 31
0.0
1001
ACDBBLOCKREPETAG
1070
     1
1071
        1
1005
129E27
  0
CIRCLE
  5
129E28
  8
OBJECT
 10
4000.0
 20
-1353.9999999999959
 30
0.0
 40
37.5
1001
ACDBBLOCKREPETAG
1070
     1
1071
        2
1005
129E28
  0
CIRCLE
  5
129E29
  8
OBJECT
 10
4000.0
 20
-1353.9999999999959
 30
0.0
 40
49.5
1001
ACDBBLOCKREPETAG
1070
     1
1071
        3
1005
129E29
  0
ARC
  5
129E2A
  8
OBJECT
 10
4000.0
 20
-1353.9999999999959
 30
0.0
 40
61.0
 50
40.03737312998139
 51
79.962626870012684
1001
ACDBBLOCKREPETAG
1070
     1
1071
        4
1005
129E2A
  0
ARC
  5
129E2B
  8
OBJECT
 10
4000.0
 20
-1353.9999999999959
 30
0.0
 40
61.0
 50
160.03737312997501
 51
199.96262687002491
1001
ACDBBLOCKREPETAG
1070
     1
1071
        5
1005
129E2B
  0
ARC
  5
129E2C
  8
OBJECT
 10
4000.0
 20
-1353.9999999999959
 30
0.0
 40
61.0
 50
280.03737312998732
 51
319.9626268700186
1001
ACDBBLOCKREPETAG
1070
     1
1071
        6
1005
129E2C
  0
CIRCLE
  5
129E2D
  8
SLIM
 10
4064.0
 20
-1353.9999999999959
 30
0.0
 40
5.0
1001
ACDBBLOCKREPETAG
1070
     1
1071
        7
1005
129E2D
  0
ARC
  5
129E2E
  8
OBJECT
 10
4064.0
 20
-1353.9999999999959
 30
0.0
 40
12.0
 50
319.9626268700186
 51
40.03737312998139
1001
ACDBBLOCKREPETAG
1070
     1
1071
        8
1005
129E2E
  0
LINE
  5
129E2F
  8
OBJECT
 10
4046.7031249999982
 20
-1314.7594837542269
 30
0.0
 11
4073.1875
 21
-1346.280554181157
 31
0.0
1001
ACDBBLOCKREPETAG
1070
     1
1071
        9
1005
129E2F
  0
LINE
  5
129E30
  8
OBJECT
 10
4046.7031249999982
 20
-1393.2405162457651
 30
0.0
 11
4073.1875
 21
-1361.7194458188351
 31
0.0
1001
ACDBBLOCKREPETAG
1070
     1
1071
       10
1005
129E30
  0
POLYLINE
  5
129E31
  8
SLIM
 66
     1
 10
0.0
 20
0.0
 30
0.0
 70
     1
1001
ACDBBLOCKREPETAG
1070
     1
1071
       11
1005
129E31
  0
VERTEX
  5
12A1CA
  8
SLIM
 10
4059.0925227118851
 20
-1345.4999999999959
 30
0.0
  0
VERTEX
  5
12A1CB
  8
SLIM
 10
4054.1850454237701
 20
-1353.9999999999959
 30
0.0
  0
VERTEX
  5
12A1CC
  8
SLIM
 10
4059.0925227118851
 20
-1362.4999999999959
 30
0.0
  0
VERTEX
  5
12A1CD
  8
SLIM
 10
4068.9074772881072
 20
-1362.4999999999959
 30
0.0
  0
VERTEX
  5
12A1CE
  8
SLIM
 10
4073.8149545762199
 20
-1353.9999999999959
 30
0.0
  0
VERTEX
  5
12A1CF
  8
SLIM
 10
4068.9074772881072
 20
-1345.4999999999959
 30
0.0
  0
SEQEND
  5
12A1D0
  8
SLIM
  0
CIRCLE
  5
129E32
  8
SLIM
 10
3968.0
 20
-1298.574374157789
 30
0.0
 40
4.9999999999999991
1001
ACDBBLOCKREPETAG
1070
     1
1071
       12
1005
129E32
  0
ARC
  5
129E33
  8
OBJECT
 10
3968.0
 20
-1298.574374157789
 30
0.0
 40
12.0
 50
79.962626870012684
 51
160.03737312997501
1001
ACDBBLOCKREPETAG
1070
     1
1071
       13
1005
129E33
  0
LINE
  5
129E34
  8
OBJECT
 10
3942.6651535735441
 20
-1333.174165436757
 30
0.0
 11
3956.721013817747
 21
-1294.4774886699411
 31
0.0
1001
ACDBBLOCKREPETAG
1070
     1
1071
       14
1005
129E34
  0
LINE
  5
129E35
  8
OBJECT
 10
4010.6317214264491
 20
-1293.9336491909919
 30
0.0
 11
3970.091486182253
 21
-1286.7580428511019
 31
0.0
1001
ACDBBLOCKREPETAG
1070
     1
1071
       15
1005
129E35
  0
POLYLINE
  5
129E36
  8
SLIM
 66
     1
 10
0.0
 20
0.0
 30
0.0
 70
     1
1001
ACDBBLOCKREPETAG
1070
     1
1071
       16
1005
129E36
  0
VERTEX
  5
12A1D1
  8
SLIM
 10
3963.092522711886
 20
-1307.074374157789
 30
0.0
  0
VERTEX
  5
12A1D2
  8
SLIM
 10
3972.907477288114
 20
-1307.074374157793
 30
0.0
  0
VERTEX
  5
12A1D3
  8
SLIM
 10
3977.8149545762212
 20
-1298.574374157789
 30
0.0
  0
VERTEX
  5
12A1D4
  8
SLIM
 10
3972.907477288114
 20
-1290.074374157793
 30
0.0
  0
VERTEX
  5
12A1D5
  8
SLIM
 10
3963.092522711886
 20
-1290.074374157789
 30
0.0
  0
VERTEX
  5
12A1D6
  8
SLIM
 10
3958.185045423772
 20
-1298.574374157793
 30
0.0
  0
SEQEND
  5
12A1D7
  8
SLIM
  0
CIRCLE
  5
129E37
  8
SLIM
 10
3968.0
 20
-1409.425625842199
 30
0.0
 40
5.0
1001
ACDBBLOCKREPETAG
1070
     1
1071
       17
1005
129E37
  0
ARC
  5
129E38
  8
OBJECT
 10
3968.0
 20
-1409.425625842199
 30
0.0
 40
12.0
 50
199.96262687002491
 51
280.03737312998732
1001
ACDBBLOCKREPETAG
1070
     1
1071
       18
1005
129E38
  0
LINE
  5
129E39
  8
OBJECT
 10
4010.6317214264491
 20
-1414.066350808999
 30
0.0
 11
3970.091486182253
 21
-1421.241957148889
 31
0.0
1001
ACDBBLOCKREPETAG
1070
     1
1071
       19
1005
129E39
  0
LINE
  5
129E3A
  8
OBJECT
 10
3942.6651535735441
 20
-1374.825834563231
 30
0.0
 11
3956.721013817747
 21
-1413.5225113300501
 31
0.0
1001
ACDBBLOCKREPETAG
1070
     1
1071
       20
1005
129E3A
  0
POLYLINE
  5
129E3B
  8
SLIM
 66
     1
 10
0.0
 20
0.0
 30
0.0
 70
     1
1001
ACDBBLOCKREPETAG
1070
     1
1071
       21
1005
129E3B
  0
VERTEX
  5
12A1D8
  8
SLIM
 10
3977.8149545762212
 20
-1409.425625842199
 30
0.0
  0
VERTEX
  5
12A1D9
  8
SLIM
 10
3972.9074772881072
 20
-1400.925625842199
 30
0.0
  0
VERTEX
  5
12A1DA
  8
SLIM
 10
3963.092522711886
 20
-1400.925625842199
 30
0.0
  0
VERTEX
  5
12A1DB
  8
SLIM
 10
3958.185045423772
 20
-1409.425625842199
 30
0.0
  0
VERTEX
  5
12A1DC
  8
SLIM
 10
3963.092522711886
 20
-1417.925625842199
 30
0.0
  0
VERTEX
  5
12A1DD
  8
SLIM
 10
3972.907477288114
 20
-1417.925625842199
 30
0.0
  0
SEQEND
  5
12A1DE
  8
SLIM
  0
LINE
  5
129E3C
  8
OBJECT
 10
2044.5
 20
-1079.999999999992
 30
0.0
 11
1955.5
 21
-1079.999999999992
 31
0.0
1001
ACDBBLOCKREPETAG
1070
     1
1071
        0
1005
129E3C
  0
LINE
  5
129E3D
  8
OBJECT
 10
1935.0
 20
-869.99999999999216
 30
0.0
 11
1935.0
 21
-769.99999999999204
 31
0.0
1001
ACDBBLOCKREPETAG
1070
     1
1071
        1
1005
129E3D
  0
LINE
  5
129E3E
  8
OBJECT
 10
2065.0
 20
-869.99999999999216
 30
0.0
 11
2065.0
 21
-769.99999999999204
 31
0.0
1001
ACDBBLOCKREPETAG
1070
     1
1071
        2
1005
129E3E
  0
LINE
  5
129E3F
  8
OBJECT
 10
1935.0
 20
-869.99999999999216
 30
0.0
 11
2065.0
 21
-869.99999999999216
 31
0.0
1001
ACDBBLOCKREPETAG
1070
     1
1071
        3
1005
129E3F
  0
LINE
  5
129E40
  8
OBJECT
 10
1955.5
 20
-979.99999999999204
 30
0.0
 11
2044.5
 21
-979.99999999999204
 31
0.0
1001
ACDBBLOCKREPETAG
1070
     1
1071
        4
1005
129E40
  0
LINE
  5
129E41
  8
OBJECT
 10
1955.5
 20
-979.99999999999204
 30
0.0
 11
1955.5
 21
-1079.999999999992
 31
0.0
1001
ACDBBLOCKREPETAG
1070
     1
1071
        5
1005
129E41
  0
LINE
  5
129E42
  8
OBJECT
 10
2044.5
 20
-979.99999999999204
 30
0.0
 11
2044.5
 21
-1079.999999999992
 31
0.0
1001
ACDBBLOCKREPETAG
1070
     1
1071
        6
1005
129E42
  0
LINE
  5
129E43
  8
OBJECT
 10
1935.0
 20
-869.99999999999216
 30
0.0
 11
1955.5
 21
-979.99999999999204
 31
0.0
1001
ACDBBLOCKREPETAG
1070
     1
1071
        7
1005
129E43
  0
LINE
  5
129E44
  8
OBJECT
 10
2044.5
 20
-979.99999999999204
 30
0.0
 11
2065.0
 21
-869.99999999999216
 31
0.0
1001
ACDBBLOCKREPETAG
1070
     1
1071
        8
1005
129E44
  0
LINE
  5
129E45
  8
HIDDEN
 10
1962.5
 20
-979.99999999999204
 30
0.0
 11
1962.5
 21
-1079.999999999992
 31
0.0
1001
ACDBBLOCKREPETAG
1070
     1
1071
        9
1005
129E45
  0
LINE
  5
129E46
  8
HIDDEN
 10
2037.5
 20
-979.99999999999204
 30
0.0
 11
2037.5
 21
-1079.999999999992
 31
0.0
1001
ACDBBLOCKREPETAG
1070
     1
1071
       10
1005
129E46
  0
LINE
  5
129E47
  8
CENTER
 10
2000.0
 20
-769.99999999999955
 30
0.0
 11
2000.0
 21
-1094.999999999992
 31
0.0
1001
ACDBBLOCKREPETAG
1070
     1
1071
       11
1005
129E47
  0
LINE
  5
129E48
  8
OBJECT
 10
1877.0
 20
-663.99999999999966
 30
0.0
 11
1870.0
 21
-663.99999999999966
 31
0.0
1001
ACDBBLOCKREPETAG
1070
     1
1071
        7
1005
129E48
  0
LINE
  5
129E49
  8
OBJECT
 10
1870.0
 20
-663.99999999999966
 30
0.0
 11
1870.0
 21
-754.99999999999955
 31
0.0
1001
ACDBBLOCKREPETAG
1070
     1
1071
        8
1005
129E49
  0
LINE
  5
129E4A
  8
OBJECT
 10
1877.0
 20
-754.99999999999955
 30
0.0
 11
1877.0
 21
-663.99999999999966
 31
0.0
1001
ACDBBLOCKREPETAG
1070
     1
1071
        9
1005
129E4A
  0
LINE
  5
129E4B
  8
CENTER
 10
1855.0
 20
-710.99999999999955
 30
0.0
 11
1939.0
 21
-710.99999999999955
 31
0.0
1001
ACDBBLOCKREPETAG
1070
     1
1071
       10
1005
129E4B
  0
LINE
  5
129E4C
  8
OBJECT
 10
1877.0
 20
-666.99999999999955
 30
0.0
 11
1913.0
 21
-666.99999999999955
 31
0.0
1001
ACDBBLOCKREPETAG
1070
     1
1071
       11
1005
129E4C
  0
LINE
  5
129E4D
  8
OBJECT
 10
1913.0
 20
-666.99999999999955
 30
0.0
 11
1913.0
 21
-754.99999999999955
 31
0.0
1001
ACDBBLOCKREPETAG
1070
     1
1071
       12
1005
129E4D
  0
LINE
  5
129E4E
  8
OBJECT
 10
1913.0
 20
-754.99999999999955
 30
0.0
 11
1870.0
 21
-754.99999999999955
 31
0.0
1001
ACDBBLOCKREPETAG
1070
     1
1071
       13
1005
129E4E
  0
LINE
  5
129E4F
  8
OBJECT
 10
1917.0
 20
-671.49999999999955
 30
0.0
 11
1924.0
 21
-671.49999999999955
 31
0.0
1001
ACDBBLOCKREPETAG
1070
     1
1071
       14
1005
129E4F
  0
LINE
  5
129E50
  8
OBJECT
 10
1924.0
 20
-750.49999999999955
 30
0.0
 11
1917.0
 21
-750.49999999999955
 31
0.0
1001
ACDBBLOCKREPETAG
1070
     1
1071
       15
1005
129E50
  0
LINE
  5
129E51
  8
OBJECT
 10
1917.0
 20
-750.49999999999955
 30
0.0
 11
1917.0
 21
-671.49999999999955
 31
0.0
1001
ACDBBLOCKREPETAG
1070
     1
1071
       16
1005
129E51
  0
LINE
  5
129E52
  8
OBJECT
 10
1913.0
 20
-666.99999999999955
 30
0.0
 11
1917.0
 21
-671.49999999999955
 31
0.0
1001
ACDBBLOCKREPETAG
1070
     1
1071
       17
1005
129E52
  0
LINE
  5
129E53
  8
OBJECT
 10
1913.0
 20
-754.99999999999955
 30
0.0
 11
1917.0
 21
-750.49999999999955
 31
0.0
1001
ACDBBLOCKREPETAG
1070
     1
1071
       18
1005
129E53
  0
LINE
  5
129E54
  8
OBJECT
 10
1927.0
 20
-633.99999999999955
 30
0.0
 11
1930.0
 21
-633.99999999999955
 31
0.0
1001
ACDBBLOCKREPETAG
1070
     1
1071
       19
1005
129E54
  0
ARC
  5
129E55
  8
OBJECT
 10
1927.0
 20
-636.99999999999955
 30
0.0
 40
3.0
 50
90.0
 51
180.0
1001
ACDBBLOCKREPETAG
1070
     1
1071
       20
1005
129E55
  0
LINE
  5
129E56
  8
OBJECT
 10
1930.0
 20
-757.99999999999955
 30
0.0
 11
1927.0
 21
-757.99999999999955
 31
0.0
1001
ACDBBLOCKREPETAG
1070
     1
1071
       21
1005
129E56
  0
ARC
  5
129E57
  8
OBJECT
 10
1927.0
 20
-754.99999999999955
 30
0.0
 40
3.0
 50
180.0
 51
270.0
1001
ACDBBLOCKREPETAG
1070
     1
1071
       22
1005
129E57
  0
LINE
  5
129E58
  8
OBJECT
 10
1924.0
 20
-754.99999999999955
 30
0.0
 11
1924.0
 21
-636.99999999999955
 31
0.0
1001
ACDBBLOCKREPETAG
1070
     1
1071
       23
1005
129E58
  0
LINE
  5
129E59
  8
HIDDEN
 10
1922.0
 20
-680.99999999999955
 30
0.0
 11
1922.0
 21
-740.99999999999955
 31
0.0
1001
ACDBBLOCKREPETAG
1070
     1
1071
       24
1005
129E59
  0
CIRCLE
  5
129E5A
  8
OBJECT
 10
2000.0
 20
-696.0
 30
0.0
 40
62.0
1001
ACDBBLOCKREPETAG
1070
     1
1071
        0
1005
129E5A
  0
LINE
  5
129E5B
  8
OBJECT
 10
1935.0
 20
-549.99999999999955
 30
0.0
 11
1935.0
 21
-570.99999999999955
 31
0.0
1001
ACDBBLOCKREPETAG
1070
     1
1071
       16
1005
129E5B
  0
LINE
  5
129E5C
  8
OBJECT
 10
1935.0
 20
-570.99999999999955
 30
0.0
 11
2065.0
 21
-570.99999999999955
 31
0.0
1001
ACDBBLOCKREPETAG
1070
     1
1071
       17
1005
129E5C
  0
LINE
  5
129E5D
  8
OBJECT
 10
2065.0
 20
-570.99999999999955
 30
0.0
 11
2065.0
 21
-549.99999999999955
 31
0.0
1001
ACDBBLOCKREPETAG
1070
     1
1071
       18
1005
129E5D
  0
LINE
  5
129E5E
  8
OBJECT
 10
2065.0
 20
-549.99999999999955
 30
0.0
 11
1935.0
 21
-549.99999999999955
 31
0.0
1001
ACDBBLOCKREPETAG
1070
     1
1071
       19
1005
129E5E
  0
LINE
  5
129E5F
  8
HIDDEN
 10
2044.5
 20
-619.99999999999955
 30
0.0
 11
1955.5
 21
-619.99999999999955
 31
0.0
1001
ACDBBLOCKREPETAG
1070
     1
1071
       20
1005
129E5F
  0
LINE
  5
129E60
  8
CENTER
 10
2000.0
 20
-769.99999999999955
 30
0.0
 11
2000.0
 21
-534.99999999999955
 31
0.0
1001
ACDBBLOCKREPETAG
1070
     1
1071
       21
1005
129E60
  0
LINE
  5
129E61
  8
OBJECT
 10
1940.5
 20
-570.99999999999955
 30
0.0
 11
1940.5
 21
-633.99999999999955
 31
0.0
1001
ACDBBLOCKREPETAG
1070
     1
1071
       22
1005
129E61
  0
LINE
  5
129E62
  8
OBJECT
 10
1930.0
 20
-633.99999999999955
 30
0.0
 11
2070.0
 21
-633.99999999999955
 31
0.0
1001
ACDBBLOCKREPETAG
1070
     1
1071
       23
1005
129E62
  0
LINE
  5
129E63
  8
OBJECT
 10
2059.5
 20
-633.99999999999955
 30
0.0
 11
2059.5
 21
-570.99999999999955
 31
0.0
1001
ACDBBLOCKREPETAG
1070
     1
1071
       24
1005
129E63
  0
LINE
  5
129E64
  8
OBJECT
 10
1930.0
 20
-757.99999999999955
 30
0.0
 11
1930.0
 21
-769.99999999999955
 31
0.0
1001
ACDBBLOCKREPETAG
1070
     1
1071
       25
1005
129E64
  0
LINE
  5
129E65
  8
OBJECT
 10
1930.0
 20
-769.99999999999955
 30
0.0
 11
2070.0
 21
-769.99999999999955
 31
0.0
1001
ACDBBLOCKREPETAG
1070
     1
1071
       26
1005
129E65
  0
LINE
  5
129E66
  8
OBJECT
 10
2070.0
 20
-769.99999999999955
 30
0.0
 11
2070.0
 21
-757.99999999999955
 31
0.0
1001
ACDBBLOCKREPETAG
1070
     1
1071
       27
1005
129E66
  0
LINE
  5
129E67
  8
OBJECT
 10
2070.0
 20
-757.99999999999955
 30
0.0
 11
1930.0
 21
-757.99999999999955
 31
0.0
1001
ACDBBLOCKREPETAG
1070
     1
1071
       28
1005
129E67
  0
ARC
  5
129E68
  8
OBJECT
 10
2435.0384389946771
 20
-998.60813684682694
 30
0.0
 40
519.48776673616965
 50
135.4235066743189
 51
138.50052655621499
1001
ACDBBLOCKREPETAG
1070
     1
1071
       32
1005
129E68
  0
ARC
  5
129E69
  8
OBJECT
 10
2435.0384389946771
 20
-393.39186315317193
 30
0.0
 40
519.48776673616965
 50
221.49947344378501
 51
224.57649332568101
1001
ACDBBLOCKREPETAG
1070
     1
1071
       33
1005
129E69
  0
ARC
  5
129E6A
  8
OBJECT
 10
1564.961561005322
 20
-998.60813684682694
 30
0.0
 40
519.48776673616965
 50
41.499473443784993
 51
44.576493325681092
1001
ACDBBLOCKREPETAG
1070
     1
1071
       34
1005
129E6A
  0
ARC
  5
129E6B
  8
OBJECT
 10
1564.961561005322
 20
-393.39186315317193
 30
0.0
 40
519.48776673616965
 50
315.4235066743189
 51
318.50052655621488
1001
ACDBBLOCKREPETAG
1070
     1
1071
       35
1005
129E6B
  0
POINT
  5
129E6C
  8
DOTS
 10
2000.0
 20
-754.99999999999955
 30
0.0
1001
ACDBBLOCKREPETAG
1070
     1
1071
      111
1005
129E6C
  0
LINE
  5
129E6D
  8
OBJECT
 10
1877.0
 20
-246.99999999999909
 30
0.0
 11
1870.0
 21
-246.99999999999909
 31
0.0
1001
ACDBBLOCKREPETAG
1070
     1
1071
        7
1005
129E6D
  0
LINE
  5
129E6E
  8
OBJECT
 10
1870.0
 20
-246.99999999999909
 30
0.0
 11
1870.0
 21
-152.99999999999909
 31
0.0
1001
ACDBBLOCKREPETAG
1070
     1
1071
        8
1005
129E6E
  0
LINE
  5
129E6F
  8
OBJECT
 10
1870.0
 20
-152.99999999999909
 30
0.0
 11
1877.0
 21
-152.99999999999909
 31
0.0
1001
ACDBBLOCKREPETAG
1070
     1
1071
        9
1005
129E6F
  0
LINE
  5
129E70
  8
OBJECT
 10
1877.0
 20
-152.99999999999909
 30
0.0
 11
1877.0
 21
-246.99999999999909
 31
0.0
1001
ACDBBLOCKREPETAG
1070
     1
1071
       10
1005
129E70
  0
LINE
  5
129E71
  8
CENTER
 10
1855.0
 20
-199.99999999999909
 30
0.0
 11
1930.0
 21
-199.99999999999909
 31
0.0
1001
ACDBBLOCKREPETAG
1070
     1
1071
       11
1005
129E71
  0
LINE
  5
129E72
  8
OBJECT
 10
1877.0
 20
-243.99999999999909
 30
0.0
 11
1913.0
 21
-243.99999999999909
 31
0.0
1001
ACDBBLOCKREPETAG
1070
     1
1071
       12
1005
129E72
  0
LINE
  5
129E73
  8
OBJECT
 10
1913.0
 20
-243.99999999999909
 30
0.0
 11
1913.0
 21
-155.99999999999909
 31
0.0
1001
ACDBBLOCKREPETAG
1070
     1
1071
       13
1005
129E73
  0
LINE
  5
129E74
  8
OBJECT
 10
1913.0
 20
-155.99999999999909
 30
0.0
 11
1877.0
 21
-155.99999999999909
 31
0.0
1001
ACDBBLOCKREPETAG
1070
     1
1071
       14
1005
129E74
  0
LINE
  5
129E75
  8
OBJECT
 10
1917.0
 20
-239.49999999999909
 30
0.0
 11
1924.0
 21
-239.49999999999909
 31
0.0
1001
ACDBBLOCKREPETAG
1070
     1
1071
       15
1005
129E75
  0
LINE
  5
129E76
  8
OBJECT
 10
1924.0
 20
-160.49999999999909
 30
0.0
 11
1917.0
 21
-160.49999999999909
 31
0.0
1001
ACDBBLOCKREPETAG
1070
     1
1071
       16
1005
129E76
  0
LINE
  5
129E77
  8
OBJECT
 10
1917.0
 20
-160.49999999999909
 30
0.0
 11
1917.0
 21
-239.49999999999909
 31
0.0
1001
ACDBBLOCKREPETAG
1070
     1
1071
       17
1005
129E77
  0
LINE
  5
129E78
  8
OBJECT
 10
1913.0
 20
-243.99999999999909
 30
0.0
 11
1917.0
 21
-239.49999999999909
 31
0.0
1001
ACDBBLOCKREPETAG
1070
     1
1071
       18
1005
129E78
  0
LINE
  5
129E79
  8
OBJECT
 10
1913.0
 20
-155.99999999999909
 30
0.0
 11
1917.0
 21
-160.49999999999909
 31
0.0
1001
ACDBBLOCKREPETAG
1070
     1
1071
       19
1005
129E79
  0
LINE
  5
129E7A
  8
OBJECT
 10
1927.0
 20
-261.99999999999909
 30
0.0
 11
1930.0
 21
-261.99999999999909
 31
0.0
1001
ACDBBLOCKREPETAG
1070
     1
1071
       20
1005
129E7A
  0
ARC
  5
129E7B
  8
OBJECT
 10
1927.0
 20
-258.99999999999909
 30
0.0
 40
3.0
 50
180.0
 51
270.0
1001
ACDBBLOCKREPETAG
1070
     1
1071
       21
1005
129E7B
  0
LINE
  5
129E7C
  8
OBJECT
 10
1930.0
 20
-137.99999999999909
 30
0.0
 11
1927.0
 21
-137.99999999999909
 31
0.0
1001
ACDBBLOCKREPETAG
1070
     1
1071
       22
1005
129E7C
  0
ARC
  5
129E7D
  8
OBJECT
 10
1927.0
 20
-140.99999999999909
 30
0.0
 40
3.0
 50
90.0
 51
180.0
1001
ACDBBLOCKREPETAG
1070
     1
1071
       23
1005
129E7D
  0
LINE
  5
129E7E
  8
OBJECT
 10
1924.0
 20
-140.99999999999909
 30
0.0
 11
1924.0
 21
-258.99999999999909
 31
0.0
1001
ACDBBLOCKREPETAG
1070
     1
1071
       24
1005
129E7E
  0
LINE
  5
129E7F
  8
HIDDEN
 10
1922.0
 20
-229.99999999999909
 30
0.0
 11
1922.0
 21
-169.99999999999909
 31
0.0
1001
ACDBBLOCKREPETAG
1070
     1
1071
       25
1005
129E7F
  0
LINE
  5
129E80
  8
CENTER
 10
2000.0
 20
-290.99999999999898
 30
0.0
 11
2000.0
 21
-269.99999999999909
 31
0.0
1001
ACDBBLOCKREPETAG
1070
     1
1071
        0
1005
129E80
  0
LINE
  5
129E81
  8
OBJECT
 10
2062.0
 20
-273.0
 30
0.0
 11
2062.0
 21
-269.99999999999909
 31
0.0
1001
ACDBBLOCKREPETAG
1070
     1
1071
        1
1005
129E81
  0
ARC
  5
129E82
  8
OBJECT
 10
2059.0
 20
-273.0
 30
0.0
 40
3.0
 50
270.0
 51
0.0
1001
ACDBBLOCKREPETAG
1070
     1
1071
        2
1005
129E82
  0
LINE
  5
129E83
  8
OBJECT
 10
1938.0
 20
-269.99999999999909
 30
0.0
 11
1938.0
 21
-272.99999999999818
 31
0.0
1001
ACDBBLOCKREPETAG
1070
     1
1071
        3
1005
129E83
  0
ARC
  5
129E84
  8
OBJECT
 10
1941.0
 20
-272.99999999999818
 30
0.0
 40
3.0
 50
180.0
 51
270.0
1001
ACDBBLOCKREPETAG
1070
     1
1071
        4
1005
129E84
  0
LINE
  5
129E85
  8
OBJECT
 10
1941.0
 20
-275.99999999999818
 30
0.0
 11
2059.0
 21
-276.0
 31
0.0
1001
ACDBBLOCKREPETAG
1070
     1
1071
        5
1005
129E85
  0
POINT
  5
129E86
  8
DOTS
 10
2000.0
 20
-199.99999999999909
 30
0.0
 50
270.0
1001
ACDBBLOCKREPETAG
1070
     1
1071
      153
1005
129E86
  0
ARC
  5
129E87
  8
OBJECT
 10
2000.0
 20
-199.99999999999909
 30
0.0
 40
70.0
 50
62.339550100758693
 51
117.6604498992413
1001
ACDBBLOCKREPETAG
1070
     1
1071
        0
1005
129E87
  0
CIRCLE
  5
129E88
  8
OBJECT
 10
2000.0
 20
-199.99999999999909
 30
0.0
 40
65.0
1001
ACDBBLOCKREPETAG
1070
     1
1071
        1
1005
129E88
  0
CIRCLE
  5
129E89
  8
OBJECT
 10
2000.0
 20
-199.99999999999909
 30
0.0
 40
41.0
1001
ACDBBLOCKREPETAG
1070
     1
1071
        2
1005
129E89
  0
CIRCLE
  5
129E8A
  8
OBJECT
 10
2000.0
 20
-199.99999999999909
 30
0.0
 40
58.0
1001
ACDBBLOCKREPETAG
1070
     1
1071
        3
1005
129E8A
  0
LINE
  5
129E8B
  8
OBJECT
 10
2070.0
 20
-137.99999999999909
 30
0.0
 11
2019.5192212959439
 21
-137.99999999999909
 31
0.0
1001
ACDBBLOCKREPETAG
1070
     1
1071
        4
1005
129E8B
  0
LINE
  5
129E8C
  8
OBJECT
 10
1930.0
 20
-137.99999999999909
 30
0.0
 11
1980.480778704057
 21
-137.99999999999909
 31
0.0
1001
ACDBBLOCKREPETAG
1070
     1
1071
        5
1005
129E8C
  0
LINE
  5
129E8D
  8
OBJECT
 10
1930.0
 20
-261.99999999999909
 30
0.0
 11
1938.0
 21
-261.99999999999909
 31
0.0
1001
ACDBBLOCKREPETAG
1070
     1
1071
        6
1005
129E8D
  0
LINE
  5
129E8E
  8
OBJECT
 10
1938.0
 20
-269.99999999999909
 30
0.0
 11
1938.0
 21
-261.99999999999909
 31
0.0
1001
ACDBBLOCKREPETAG
1070
     1
1071
        7
1005
129E8E
  0
LINE
  5
129E8F
  8
OBJECT
 10
2070.0
 20
-261.99999999999909
 30
0.0
 11
2062.0
 21
-261.99999999999909
 31
0.0
1001
ACDBBLOCKREPETAG
1070
     1
1071
        8
1005
129E8F
  0
LINE
  5
129E90
  8
OBJECT
 10
2062.0
 20
-269.99999999999909
 30
0.0
 11
2062.0
 21
-261.99999999999909
 31
0.0
1001
ACDBBLOCKREPETAG
1070
     1
1071
        9
1005
129E90
  0
LINE
  5
129E91
  8
CENTER
 10
1930.0
 20
-199.99999999999909
 30
0.0
 11
2070.0
 21
-199.99999999999909
 31
0.0
1001
ACDBBLOCKREPETAG
1070
     1
1071
       10
1005
129E91
  0
LINE
  5
129E92
  8
CENTER
 10
2000.0
 20
-269.99999999999909
 30
0.0
 11
2000.0
 21
-114.9999999999991
 31
0.0
1001
ACDBBLOCKREPETAG
1070
     1
1071
       11
1005
129E92
  0
ARC
  5
129E93
  8
OBJECT
 10
1989.902762139187
 20
-224.44352901899131
 30
0.0
 40
7.0
 50
73.001272229706771
 51
154.05025878943769
1001
ACDBBLOCKREPETAG
1070
     1
1071
       12
1005
129E93
  0
ARC
  5
129E94
  8
OBJECT
 10
1986.8376610706509
 20
-225.5978773169509
 30
0.0
 40
9.0
 50
73.001272229706771
 51
154.05026392593041
1001
ACDBBLOCKREPETAG
1070
     1
1071
       13
1005
129E94
  0
ARC
  5
129E95
  8
OBJECT
 10
1896.3142301315529
 20
-147.28130031148149
 30
0.0
 40
150.0
 50
322.89503374001202
 51
325.8931499697137
1001
ACDBBLOCKREPETAG
1070
     1
1071
       14
1005
129E95
  0
ARC
  5
129E96
  8
OBJECT
 10
2000.0
 20
-199.99999999999909
 30
0.0
 40
37.5
 50
303.16276667667131
 51
229.1635024908278
1001
ACDBBLOCKREPETAG
1070
     1
1071
       15
1005
129E96
  0
LINE
  5
129E97
  8
OBJECT
 10
1983.608514518975
 20
-221.38045100897119
 30
0.0
 11
1977.3740110000001
 21
-234.1915870000002
 31
0.0
1001
ACDBBLOCKREPETAG
1070
     1
1071
       16
1005
129E97
  0
LINE
  5
129E98
  8
OBJECT
 10
1978.745056634463
 20
-221.65963488670511
 30
0.0
 11
1973.898671999998
 21
-231.6183599999996
 31
0.0
1001
ACDBBLOCKREPETAG
1070
     1
1071
       17
1005
129E98
  0
LINE
  5
129E99
  8
OBJECT
 10
2018.938018000001
 20
-226.00000000000091
 30
0.0
 11
1989.468815303258
 21
-216.99107608744359
 31
0.0
1001
ACDBBLOCKREPETAG
1070
     1
1071
       18
1005
129E99
  0
LINE
  5
129E9A
  8
OBJECT
 10
2020.5132253090051
 20
-231.39199878029191
 30
0.0
 11
2018.938018000001
 21
-226.00000000000091
 31
0.0
1001
ACDBBLOCKREPETAG
1070
     1
1071
       19
1005
129E9A
  0
LINE
  5
129E9B
  8
OBJECT
 10
1954.038059222873
 20
-245.96194077712471
 30
0.0
 11
1938.0
 21
-261.99999999999909
 31
0.0
1001
ACDBBLOCKREPETAG
1070
     1
1071
       42
1005
129E9B
  0
LINE
  5
129E9C
  8
OBJECT
 10
2045.9619407771261
 20
-245.96194077712471
 30
0.0
 11
2062.0
 21
-261.99999999999909
 31
0.0
1001
ACDBBLOCKREPETAG
1070
     1
1071
       43
1005
129E9C
  0
TEXT
  5
129E9D
  8
SLIM
 10
1837.75
 20
282.50000000000011
 30
0.0
 40
35.0
  1
（枝管サイズ毎に寸法が異なります。管底の位置は全サイズで同じです）
 41
0.75
  0
TEXT
  5
129E9E
  8
SLIM
 10
1850.0
 20
532.5
 30
0.0
 40
75.0
  1
側面図の代表機種
 41
0.75
  0
TEXT
  5
129E9F
  8
SLIM
 10
1850.0
 20
369.99999999999989
 30
0.0
 40
100.0
  1
3SL-B101
 41
0.75
  0
LINE
  5
129EA0
  8
OBJECT
 10
2123.0
 20
-663.99999999999966
 30
0.0
 11
2130.0
 21
-663.99999999999966
 31
0.0
1001
ACDBBLOCKREPETAG
1070
     1
1071
        7
1005
129EA0
  0
LINE
  5
129EA1
  8
OBJECT
 10
2130.0
 20
-663.99999999999966
 30
0.0
 11
2130.0
 21
-754.99999999999955
 31
0.0
1001
ACDBBLOCKREPETAG
1070
     1
1071
        8
1005
129EA1
  0
LINE
  5
129EA2
  8
OBJECT
 10
2123.0
 20
-754.99999999999955
 30
0.0
 11
2123.0
 21
-663.99999999999966
 31
0.0
1001
ACDBBLOCKREPETAG
1070
     1
1071
        9
1005
129EA2
  0
LINE
  5
129EA3
  8
CENTER
 10
2145.0
 20
-710.99999999999955
 30
0.0
 11
2061.0
 21
-710.99999999999955
 31
0.0
1001
ACDBBLOCKREPETAG
1070
     1
1071
       10
1005
129EA3
  0
LINE
  5
129EA4
  8
OBJECT
 10
2123.0
 20
-666.99999999999955
 30
0.0
 11
2087.0
 21
-666.99999999999955
 31
0.0
1001
ACDBBLOCKREPETAG
1070
     1
1071
       11
1005
129EA4
  0
LINE
  5
129EA5
  8
OBJECT
 10
2087.0
 20
-666.99999999999955
 30
0.0
 11
2087.0
 21
-754.99999999999955
 31
0.0
1001
ACDBBLOCKREPETAG
1070
     1
1071
       12
1005
129EA5
  0
LINE
  5
129EA6
  8
OBJECT
 10
2087.0
 20
-754.99999999999955
 30
0.0
 11
2130.0
 21
-754.99999999999955
 31
0.0
1001
ACDBBLOCKREPETAG
1070
     1
1071
       13
1005
129EA6
  0
LINE
  5
129EA7
  8
OBJECT
 10
2083.0
 20
-671.49999999999955
 30
0.0
 11
2076.0
 21
-671.49999999999955
 31
0.0
1001
ACDBBLOCKREPETAG
1070
     1
1071
       14
1005
129EA7
  0
LINE
  5
129EA8
  8
OBJECT
 10
2076.0
 20
-750.49999999999955
 30
0.0
 11
2083.0
 21
-750.49999999999955
 31
0.0
1001
ACDBBLOCKREPETAG
1070
     1
1071
       15
1005
129EA8
  0
LINE
  5
129EA9
  8
OBJECT
 10
2083.0
 20
-750.49999999999955
 30
0.0
 11
2083.0
 21
-671.49999999999955
 31
0.0
1001
ACDBBLOCKREPETAG
1070
     1
1071
       16
1005
129EA9
  0
LINE
  5
129EAA
  8
OBJECT
 10
2087.0
 20
-666.99999999999955
 30
0.0
 11
2083.0
 21
-671.49999999999955
 31
0.0
1001
ACDBBLOCKREPETAG
1070
     1
1071
       17
1005
129EAA
  0
LINE
  5
129EAB
  8
OBJECT
 10
2087.0
 20
-754.99999999999955
 30
0.0
 11
2083.0
 21
-750.49999999999955
 31
0.0
1001
ACDBBLOCKREPETAG
1070
     1
1071
       18
1005
129EAB
  0
LINE
  5
129EAC
  8
OBJECT
 10
2073.0
 20
-633.99999999999955
 30
0.0
 11
2070.0
 21
-633.99999999999955
 31
0.0
1001
ACDBBLOCKREPETAG
1070
     1
1071
       19
1005
129EAC
  0
ARC
  5
129EAD
  8
OBJECT
 10
2073.0
 20
-636.99999999999955
 30
0.0
 40
3.0
 50
0.0
 51
90.0
1001
ACDBBLOCKREPETAG
1070
     1
1071
       20
1005
129EAD
  0
LINE
  5
129EAE
  8
OBJECT
 10
2070.0
 20
-757.99999999999955
 30
0.0
 11
2073.0
 21
-757.99999999999955
 31
0.0
1001
ACDBBLOCKREPETAG
1070
     1
1071
       21
1005
129EAE
  0
ARC
  5
129EAF
  8
OBJECT
 10
2073.0
 20
-754.99999999999955
 30
0.0
 40
3.0
 50
270.0
 51
0.0
1001
ACDBBLOCKREPETAG
1070
     1
1071
       22
1005
129EAF
  0
LINE
  5
129EB0
  8
OBJECT
 10
2076.0
 20
-754.99999999999955
 30
0.0
 11
2076.0
 21
-636.99999999999955
 31
0.0
1001
ACDBBLOCKREPETAG
1070
     1
1071
       23
1005
129EB0
  0
LINE
  5
129EB1
  8
HIDDEN
 10
2078.0
 20
-680.99999999999955
 30
0.0
 11
2078.0
 21
-740.99999999999955
 31
0.0
1001
ACDBBLOCKREPETAG
1070
     1
1071
       24
1005
129EB1
  0
LINE
  5
129EB2
  8
OBJECT
 10
2123.0
 20
-152.99999999999909
 30
0.0
 11
2130.0
 21
-152.99999999999909
 31
0.0
1001
ACDBBLOCKREPETAG
1070
     1
1071
        7
1005
129EB2
  0
LINE
  5
129EB3
  8
OBJECT
 10
2130.0
 20
-152.99999999999909
 30
0.0
 11
2130.0
 21
-246.99999999999909
 31
0.0
1001
ACDBBLOCKREPETAG
1070
     1
1071
        8
1005
129EB3
  0
LINE
  5
129EB4
  8
OBJECT
 10
2130.0
 20
-246.99999999999909
 30
0.0
 11
2123.0
 21
-246.99999999999909
 31
0.0
1001
ACDBBLOCKREPETAG
1070
     1
1071
        9
1005
129EB4
  0
LINE
  5
129EB5
  8
OBJECT
 10
2123.0
 20
-246.99999999999909
 30
0.0
 11
2123.0
 21
-152.99999999999909
 31
0.0
1001
ACDBBLOCKREPETAG
1070
     1
1071
       10
1005
129EB5
  0
LINE
  5
129EB6
  8
CENTER
 10
2145.0
 20
-199.99999999999909
 30
0.0
 11
2070.0
 21
-199.99999999999909
 31
0.0
1001
ACDBBLOCKREPETAG
1070
     1
1071
       11
1005
129EB6
  0
LINE
  5
129EB7
  8
OBJECT
 10
2123.0
 20
-155.99999999999909
 30
0.0
 11
2087.0
 21
-155.99999999999909
 31
0.0
1001
ACDBBLOCKREPETAG
1070
     1
1071
       12
1005
129EB7
  0
LINE
  5
129EB8
  8
OBJECT
 10
2087.0
 20
-155.99999999999909
 30
0.0
 11
2087.0
 21
-243.99999999999909
 31
0.0
1001
ACDBBLOCKREPETAG
1070
     1
1071
       13
1005
129EB8
  0
LINE
  5
129EB9
  8
OBJECT
 10
2087.0
 20
-243.99999999999909
 30
0.0
 11
2123.0
 21
-243.99999999999909
 31
0.0
1001
ACDBBLOCKREPETAG
1070
     1
1071
       14
1005
129EB9
  0
LINE
  5
129EBA
  8
OBJECT
 10
2083.0
 20
-160.49999999999909
 30
0.0
 11
2076.0
 21
-160.49999999999909
 31
0.0
1001
ACDBBLOCKREPETAG
1070
     1
1071
       15
1005
129EBA
  0
LINE
  5
129EBB
  8
OBJECT
 10
2076.0
 20
-239.49999999999909
 30
0.0
 11
2083.0
 21
-239.49999999999909
 31
0.0
1001
ACDBBLOCKREPETAG
1070
     1
1071
       16
1005
129EBB
  0
LINE
  5
129EBC
  8
OBJECT
 10
2083.0
 20
-239.49999999999909
 30
0.0
 11
2083.0
 21
-160.49999999999909
 31
0.0
1001
ACDBBLOCKREPETAG
1070
     1
1071
       17
1005
129EBC
  0
LINE
  5
129EBD
  8
OBJECT
 10
2087.0
 20
-155.99999999999909
 30
0.0
 11
2083.0
 21
-160.49999999999909
 31
0.0
1001
ACDBBLOCKREPETAG
1070
     1
1071
       18
1005
129EBD
  0
LINE
  5
129EBE
  8
OBJECT
 10
2087.0
 20
-243.99999999999909
 30
0.0
 11
2083.0
 21
-239.49999999999909
 31
0.0
1001
ACDBBLOCKREPETAG
1070
     1
1071
       19
1005
129EBE
  0
LINE
  5
129EBF
  8
OBJECT
 10
2073.0
 20
-137.99999999999909
 30
0.0
 11
2070.0
 21
-137.99999999999909
 31
0.0
1001
ACDBBLOCKREPETAG
1070
     1
1071
       20
1005
129EBF
  0
ARC
  5
129EC0
  8
OBJECT
 10
2073.0
 20
-140.99999999999909
 30
0.0
 40
3.0
 50
0.0
 51
90.0
1001
ACDBBLOCKREPETAG
1070
     1
1071
       21
1005
129EC0
  0
LINE
  5
129EC1
  8
OBJECT
 10
2070.0
 20
-261.99999999999909
 30
0.0
 11
2073.0
 21
-261.99999999999909
 31
0.0
1001
ACDBBLOCKREPETAG
1070
     1
1071
       22
1005
129EC1
  0
ARC
  5
129EC2
  8
OBJECT
 10
2073.0
 20
-258.99999999999909
 30
0.0
 40
3.0
 50
270.0
 51
0.0
1001
ACDBBLOCKREPETAG
1070
     1
1071
       23
1005
129EC2
  0
LINE
  5
129EC3
  8
OBJECT
 10
2076.0
 20
-258.99999999999909
 30
0.0
 11
2076.0
 21
-140.99999999999909
 31
0.0
1001
ACDBBLOCKREPETAG
1070
     1
1071
       24
1005
129EC3
  0
LINE
  5
129EC4
  8
HIDDEN
 10
2078.0
 20
-169.99999999999909
 30
0.0
 11
2078.0
 21
-229.99999999999909
 31
0.0
1001
ACDBBLOCKREPETAG
1070
     1
1071
       25
1005
129EC4
  0
TEXT
  5
129EC5
  8
SLIM
 10
0.0
 20
667.19448474768467
 30
0.0
 40
100.0
  1
3SL-BX0X-S
 41
0.75
  0
TEXT
  5
129EC6
  8
SLIM
 10
0.0
 20
517.19448474768467
 30
0.0
 40
100.0
  1
3SL-BX0X-W
 41
0.75
  0
TEXT
  5
129EC7
  8
SLIM
 10
0.0000035665234464
 20
24.000004585317601
 30
0.0
 40
79.999999999972701
  1
枝管バリエーション
 41
0.75
1001
ACDBBLOCKREPETAG
1070
     1
1071
      119
1005
F48AB
  0
TEXT
  5
129EC8
  8
SLIM
 10
3853.75
 20
-1621.4999999999959
 30
0.0
 40
35.0
  1
両受けスタイル（W）
 41
0.75
  0
TEXT
  5
129EC9
  8
SLIM
 10
5811.8000000000002
 20
-1718.9999999999991
 30
0.0
 40
28.0
  1
※ 対応スラブ厚　150mm以上
 41
0.75
  0
TEXT
  5
129ECA
  8
SLIM
 10
5611.5
 20
-1812.333333333333
 30
0.0
 40
28.0
  1
国土交通大臣認定・（財）日本消防設備安全センター性能評定取得品
 41
0.75
  0
TEXT
  5
129ECB
  8
SLIM
 10
5631.1000000000004
 20
-1858.9999999999991
 30
0.0
 40
28.0
  1
注）ご採用にあたり、認定書及び評定書の内容をご確認ください。
 41
0.75
  0
TEXT
  5
129ECC
  8
SLIM
 10
11824.6
 20
-1677.9999999999959
 30
0.0
 40
28.0
  1
※ 対応スラブ厚　150～260
 41
0.75
  0
TEXT
  5
129ECD
  8
SLIM
 10
11611.5
 20
-1771.3333333333289
 30
0.0
 40
28.0
  1
国土交通大臣認定・（財）日本消防設備安全センター性能評定取得品
 41
0.75
  0
TEXT
  5
129ECE
  8
SLIM
 10
11631.1
 20
-1817.9999999999959
 30
0.0
 40
28.0
  1
注）ご採用にあたり、認定書及び評定書の内容をご確認ください。
 41
0.75
  0
TEXT
  5
129ECF
  8
SLIM
 10
9824.6000000000004
 20
-1677.9999999999959
 30
0.0
 40
28.0
  1
※ 対応スラブ厚　180～260
 41
0.75
  0
TEXT
  5
129ED0
  8
SLIM
 10
9611.5000000000018
 20
-1771.3333333333289
 30
0.0
 40
28.0
  1
国土交通大臣認定・（財）日本消防設備安全センター性能評定取得品
 41
0.75
  0
TEXT
  5
129ED1
  8
SLIM
 10
9631.1000000000004
 20
-1817.9999999999959
 30
0.0
 40
28.0
  1
注）ご採用にあたり、認定書及び評定書の内容をご確認ください。
 41
0.75
  0
TEXT
  5
129ED2
  8
SLIM
 10
9739.1250000000018
 20
-1621.4999999999959
 30
0.0
 40
35.0
  1
両受けスタイル（W）＋シンドカット
 41
0.75
  0
TEXT
  5
129ED3
  8
SLIM
 10
11743.5
 20
-1621.4999999999959
 30
0.0
 40
35.0
  1
カンペイ君（WKP）＋シンドカット
 41
0.75
  0
TEXT
  5
129ED4
  8
SLIM
 10
7741.625
 20
-1347.499999999998
 30
0.0
 40
35.0
  1
片受けスタイル（S）＋シンドカット
 41
0.75
  0
TEXT
  5
129ED5
  8
SLIM
 10
5858.1250000000009
 20
-1662.4999999999991
 30
0.0
 40
35.0
  1
カンペイ君（WKP）
 41
0.75
  0
TEXT
  5
129ED6
  8
SLIM
 10
1856.25
 20
-1347.499999999998
 30
0.0
 40
35.0
  1
片受けスタイル（S）
 41
0.75
  0
TEXT
  5
129ED7
  8
SLIM
 10
0.0
 20
367.19448474768478
 30
0.0
 40
100.0
  1
3SL-BX0X-WKP
 41
0.75
  0
VIEWPORT
  5
F6BA7
 67
     1
  8
0
 10
145.33033752441401
 20
101.8328354358673
 30
0.0
 40
334.0025019414623
 41
222.19657968139651
 68
     1
 69
     1
1001
ACAD
1000
MVIEW
1002
{
1070
    16
1010
0.0
1020
0.0
1030
0.0
1010
0.0
1020
0.0
1030
1.0
1040
0.0
1040
222.19657968139651
1040
145.33033752441401
1040
101.8328354358673
1040
50.0
1040
0.0
1040
0.0
1070
     0
1070
     0
1070
     1
1070
     1
1070
     0
1070
     0
1070
     0
1070
     0
1040
0.0
1040
0.0
1040
0.0
1040
10.0
1040
10.0
1040
10.0
1040
10.0
1070
     0
1002
{
1002
}
1002
}
  0
VIEWPORT
  5
F6BA9
 67
     1
  8
OBJECT
 10
145.3303314447403
 20
101.8328338861465
 30
0.0
 40
232.5285303115844
 41
162.93253421783439
 68
     2
 69
     2
1001
ACAD
1000
MVIEW
1002
{
1070
    16
1010
0.0
1020
0.0
1030
0.0
1010
0.0
1020
0.0
1030
1.0
1040
0.0
1040
25942.55904403147
1040
2377.604457077377
1040
-7591.5176687056619
1040
50.0
1040
0.0
1040
0.0
1070
     0
1070
   600
1070
     1
1070
     1
1070
     0
1070
     0
1070
     0
1070
     0
1040
0.0
1040
0.0
1040
0.0
1040
1.0
1040
1.0
1040
0.0
1040
0.0
1070
     0
1002
{
1002
}
1002
}
  0
ENDSEC
  0
EOF
