  0
SECTION
  2
HEADER
  9
$ACADVER
  1
AC1009
  9
$INSBASE
 10
0.0
 20
0.0
 30
0.0
  9
$EXTMIN
 10
-0.0000000000000089
 20
-3697.4999999999968
 30
0.0
  9
$EXTMAX
 10
12387.100000000009
 20
767.19448474768467
 30
0.0
  9
$LIMMIN
 10
0.0
 20
0.0
  9
$LIMMAX
 10
210.0
 20
297.0
  9
$ORTHOMODE
 70
     0
  9
$REGENMODE
 70
     1
  9
$FILLMODE
 70
     1
  9
$QTEXTMODE
 70
     0
  9
$MIRRTEXT
 70
     0
  9
$DRAGMODE
 70
     2
  9
$LTSCALE
 40
1.0
  9
$OSMODE
 70
   125
  9
$ATTMODE
 70
     1
  9
$TEXTSIZE
 40
4.0
  9
$TRACEWID
 40
0.05
  9
$TEXTSTYLE
  7
STANDARD
  9
$CLAYER
  8
OBJECT
  9
$CELTYPE
  6
BYLAYER
  9
$CECOLOR
 62
   256
  9
$DIMSCALE
 40
10.0
  9
$DIMASZ
 40
2.0
  9
$DIMEXO
 40
1.0
  9
$DIMDLI
 40
10.0
  9
$DIMRND
 40
0.0
  9
$DIMDLE
 40
0.0
  9
$DIMEXE
 40
1.0
  9
$DIMTP
 40
0.0
  9
$DIMTM
 40
0.0
  9
$DIMTXT
 40
3.2000000000000002
  9
$DIMCEN
 40
0.0
  9
$DIMTSZ
 40
0.0
  9
$DIMTOL
 70
     0
  9
$DIMLIM
 70
     0
  9
$DIMTIH
 70
     0
  9
$DIMTOH
 70
     0
  9
$DIMSE1
 70
     0
  9
$DIMSE2
 70
     0
  9
$DIMTAD
 70
     1
  9
$DIMZIN
 70
     8
  9
$DIMBLK
  1
OPEN30
  9
$DIMASO
 70
     1
  9
$DIMSHO
 70
     1
  9
$DIMPOST
  1

  9
$DIMAPOST
  1

  9
$DIMALT
 70
     0
  9
$DIMALTD
 70
     2
  9
$DIMALTF
 40
25.399999999999999
  9
$DIMLFAC
 40
1.0
  9
$DIMTOFL
 70
     1
  9
$DIMTVP
 40
0.0
  9
$DIMTIX
 70
     0
  9
$DIMSOXD
 70
     0
  9
$DIMSAH
 70
     0
  9
$DIMBLK1
  1

  9
$DIMBLK2
  1

  9
$DIMSTYLE
  2
S10
  9
$DIMCLRD
 70
   256
  9
$DIMCLRE
 70
   256
  9
$DIMCLRT
 70
   256
  9
$DIMTFAC
 40
1.0
  9
$DIMGAP
 40
0.9
  9
$LUNITS
 70
     2
  9
$LUPREC
 70
     2
  9
$SKETCHINC
 40
0.1
  9
$FILLETRAD
 40
0.0
  9
$AUNITS
 70
     0
  9
$AUPREC
 70
     2
  9
$MENU
  1
ACAD
  9
$ELEVATION
 40
0.0
  9
$PELEVATION
 40
0.0
  9
$THICKNESS
 40
0.0
  9
$LIMCHECK
 70
     0
  9
$BLIPMODE
 70
     0
  9
$CHAMFERA
 40
2.0
  9
$CHAMFERB
 40
2.0
  9
$SKPOLY
 70
     0
  9
$TDCREATE
 40
2453095.4929404748
  9
$TDUPDATE
 40
2456931.722837952
  9
$TDINDWG
 40
18.676398796299999
  9
$TDUSRTIMER
 40
18.676398194400001
  9
$USRTIMER
 70
     1
  9
$ANGBASE
 50
0.0
  9
$ANGDIR
 70
     0
  9
$PDMODE
 70
    35
  9
$PDSIZE
 40
2.0
  9
$PLINEWID
 40
0.0
  9
$COORDS
 70
     1
  9
$SPLFRAME
 70
     0
  9
$SPLINETYPE
 70
     6
  9
$SPLINESEGS
 70
     8
  9
$ATTDIA
 70
     1
  9
$ATTREQ
 70
     1
  9
$HANDLING
 70
     1
  9
$HANDSEED
  5
128652
  9
$SURFTAB1
 70
     6
  9
$SURFTAB2
 70
     6
  9
$SURFTYPE
 70
     6
  9
$SURFU
 70
     6
  9
$SURFV
 70
     6
  9
$UCSNAME
  2

  9
$UCSORG
 10
0.0
 20
0.0
 30
0.0
  9
$UCSXDIR
 10
1.0
 20
0.0
 30
0.0
  9
$UCSYDIR
 10
0.0
 20
1.0
 30
0.0
  9
$PUCSNAME
  2

  9
$PUCSORG
 10
0.0
 20
0.0
 30
0.0
  9
$PUCSXDIR
 10
1.0
 20
0.0
 30
0.0
  9
$PUCSYDIR
 10
0.0
 20
1.0
 30
0.0
  9
$USERI1
 70
     0
  9
$USERI2
 70
     0
  9
$USERI3
 70
     0
  9
$USERI4
 70
     0
  9
$USERI5
 70
     0
  9
$USERR1
 40
0.0
  9
$USERR2
 40
0.0
  9
$USERR3
 40
0.0
  9
$USERR4
 40
0.0
  9
$USERR5
 40
0.0
  9
$WORLDVIEW
 70
     1
  9
$SHADEDGE
 70
     3
  9
$SHADEDIF
 70
    70
  9
$TILEMODE
 70
     1
  9
$MAXACTVP
 70
    64
  9
$PLIMCHECK
 70
     0
  9
$PEXTMIN
 10
29.066066288948051
 20
20.366566777229309
 30
0.0
  9
$PEXTMAX
 10
261.5945966005325
 20
183.29910099506381
 30
0.0
  9
$PLIMMIN
 10
-3.17498779296875
 20
-3.1749999523162842
  9
$PLIMMAX
 10
293.83566284179687
 20
206.8406708240509
  9
$UNITMODE
 70
     0
  9
$VISRETAIN
 70
     1
  9
$PLINEGEN
 70
     0
  9
$PSLTSCALE
 70
     1
  0
ENDSEC
  0
SECTION
  2
TABLES
  0
TABLE
  2
VPORT
 70
     1
  0
VPORT
  2
*ACTIVE
 70
     0
 10
0.0
 20
0.0
 11
1.0
 21
1.0
 12
8915.3865794279664
 22
-1000.747831821128
 13
0.0
 23
0.0
 14
1.0
 24
1.0
 15
0.0
 25
0.0
 16
0.0
 26
0.0
 36
1.0
 17
0.0
 27
0.0
 37
0.0
 40
14867.301282871151
 41
1.846266471449487
 42
50.0
 43
0.0
 44
0.0
 50
0.0
 51
0.0
 71
     0
 72
   600
 73
     1
 74
     1
 75
     0
 76
     0
 77
     0
 78
     0
  0
ENDTAB
  0
TABLE
  2
LTYPE
 70
     3
  0
LTYPE
  2
CONTINUOUS
 70
     0
  3
Solid line
 72
    65
 73
     0
 40
0.0
  0
LTYPE
  2
ACAD_ISO08W100
 70
     0
  3
ISO long-dash short-dash ____ __ ____ __ ____ _
 72
    65
 73
     4
 40
36.0
 49
24.0
 49
-3.0
 49
6.0
 49
-3.0
  0
LTYPE
  2
ACAD_ISO02W100
 70
     0
  3
ISO dash __ __ __ __ __ __ __ __ __ __ __ __ __
 72
    65
 73
     2
 40
15.0
 49
12.0
 49
-3.0
  0
ENDTAB
  0
TABLE
  2
LAYER
 70
     8
  0
LAYER
  2
0
 70
     0
 62
     7
  6
CONTINUOUS
  0
LAYER
  2
OBJECT
 70
     0
 62
     4
  6
CONTINUOUS
  0
LAYER
  2
DEFPOINTS
 70
     0
 62
     7
  6
CONTINUOUS
  0
LAYER
  2
DIM
 70
     0
 62
     7
  6
CONTINUOUS
  0
LAYER
  2
HIDDEN
 70
     0
 62
     2
  6
ACAD_ISO02W100
  0
LAYER
  2
CENTER
 70
     0
 62
     2
  6
ACAD_ISO08W100
  0
LAYER
  2
DOTS
 70
     0
 62
     1
  6
CONTINUOUS
  0
LAYER
  2
SLIM
 70
     0
 62
     2
  6
CONTINUOUS
  0
ENDTAB
  0
TABLE
  2
STYLE
 70
     2
  0
STYLE
  2
STANDARD
 70
     0
 40
0.0
 41
0.75
 50
0.0
 71
     0
 42
4.0
  3
simplex.shx
  4
bigfont.shx
  0
ENDTAB
  0
TABLE
  2
VIEW
 70
     0
  0
ENDTAB
  0
TABLE
  2
UCS
 70
     0
  0
ENDTAB
  0
TABLE
  2
APPID
 70
    18
  0
APPID
  2
ACAD
 70
     0
  0
APPID
  2
ACADANNOTATIVE
 70
     0
  0
APPID
  2
ACAD_PSEXT
 70
     0
  0
APPID
  2
ACAD_EXEMPT_FROM_CAD_STANDARDS
 70
     0
  0
APPID
  2
ACAECLAYERSTANDARD
 70
     0
  0
APPID
  2
ACAUTHENVIRON
 70
     0
  0
APPID
  2
ACDBDYNAMICBLOCKTRUENAME
 70
     0
  0
APPID
  2
ACDBDYNAMICBLOCKGUID
 70
     0
  0
APPID
  2
ACDBBLOCKREPETAG
 70
     0
  0
APPID
  2
ACDBBLOCKREPBTAG
 70
     0
  0
APPID
  2
ACAD_NAV_VCDISPLAY
 70
     0
  0
APPID
  2
ACAD_DSTYLE_DIMRADIAL_EXTENSION
 70
     0
  0
APPID
  2
ACAD_DSTYLE_DIMJAG
 70
     0
  0
APPID
  2
ACAD_DSTYLE_DIMTALN
 70
     0
  0
APPID
  2
ACADANNOPO
 70
     0
  0
APPID
  2
GRADIENTCOLOR1ACI
 70
     0
  0
APPID
  2
GRADIENTCOLOR2ACI
 70
     0
  0
APPID
  2
ACAD_MLEADERVER
 70
     0
  0
ENDTAB
  0
TABLE
  2
DIMSTYLE
 70
     3
  0
DIMSTYLE
  2
STANDARD
 70
     0
  3

  4

  5

  6

  7

 40
1.0
 41
0.18
 42
0.0625
 43
0.38
 44
0.18
 45
0.0
 46
0.0
 47
0.0
 48
0.0
140
0.18
141
0.09
142
0.0
143
25.399999999999999
144
1.0
145
0.0
146
1.0
147
0.09
 71
     0
 72
     0
 73
     1
 74
     1
 75
     0
 76
     0
 77
     0
 78
     0
170
     0
171
     2
172
     0
173
     0
174
     0
175
     0
176
     0
177
     0
178
     0
  0
DIMSTYLE
  2
S10
 70
     0
  3

  4

  5

  6

  7

 40
10.0
 41
2.0
 42
1.0
 43
10.0
 44
1.0
 45
0.0
 46
0.0
 47
0.0
 48
0.0
140
3.2000000000000002
141
0.0
142
0.0
143
25.399999999999999
144
1.0
145
0.0
146
1.0
147
0.9
 71
     0
 72
     0
 73
     0
 74
     0
 75
     0
 76
     0
 77
     1
 78
     8
170
     0
171
     2
172
     1
173
     0
174
     0
175
     0
176
   256
177
   256
178
   256
  0
ENDTAB
  0
ENDSEC
  0
SECTION
  2
BLOCKS
  0
BLOCK
  8
0
  2
$MODEL_SPACE
 70
     0
 10
0.0
 20
0.0
 30
0.0
  3
$MODEL_SPACE
  1

  0
ENDBLK
  5
12854A
  8
0
  0
BLOCK
 67
     1
  8
0
  2
$PAPER_SPACE
 70
     0
 10
0.0
 20
0.0
 30
0.0
  3
$PAPER_SPACE
  1

  0
ENDBLK
  5
128546
 67
     1
  8
0
  0
BLOCK
  8
0
  2
_OPEN30
 70
     0
 10
0.0
 20
0.0
 30
0.0
  3
_OPEN30
  1

  0
LINE
  5
202
  8
0
  6
BYBLOCK
 62
     0
 10
-1.0
 20
0.26794919
 30
0.0
 11
0.0
 21
0.0
 31
0.0
  0
LINE
  5
203
  8
0
  6
BYBLOCK
 62
     0
 10
0.0
 20
0.0
 30
0.0
 11
-1.0
 21
-0.26794919
 31
0.0
  0
LINE
  5
204
  8
0
  6
BYBLOCK
 62
     0
 10
0.0
 20
0.0
 30
0.0
 11
-1.0
 21
0.0
 31
0.0
  0
ENDBLK
  5
206
  8
0
  0
BLOCK
  8
0
  2
*U3
 70
     1
 10
0.0
 20
0.0
 30
0.0
  3
*U3
  1

  0
TEXT
  5
128447
  8
SLIM
 10
608.0
 20
-662.9523809523813
 30
0.0
 40
26.0
  1
65
 50
270.0
  0
ENDBLK
  5
128449
  8
0
  0
BLOCK
  8
0
  2
*U4
 70
     1
 10
0.0
 20
0.0
 30
0.0
  3
*U4
  1

  0
TEXT
  5
12844B
  8
SLIM
 10
494.95238095238079
 20
-591.99999999999829
 30
0.0
 40
26.0
  1
65
  0
ENDBLK
  5
12844D
  8
0
  0
BLOCK
  8
0
  2
*U5
 70
     1
 10
0.0
 20
0.0
 30
0.0
  3
*U5
  1

  0
TEXT
  5
12844F
  8
SLIM
 10
248.0
 20
-662.9523809523813
 30
0.0
 40
26.0
  1
50
 50
270.0
  0
ENDBLK
  5
128451
  8
0
  0
BLOCK
  8
0
  2
*U6
 70
     1
 10
0.0
 20
0.0
 30
0.0
  3
*U6
  1

  0
TEXT
  5
128453
  8
SLIM
 10
134.95238095238091
 20
-591.99999999999829
 30
0.0
 40
26.0
  1
65
  0
ENDBLK
  5
128455
  8
0
  0
BLOCK
  8
0
  2
*U7
 70
     1
 10
0.0
 20
0.0
 30
0.0
  3
*U7
  1

  0
TEXT
  5
128457
  8
SLIM
 10
608.0
 20
-198.95238095238091
 30
0.0
 40
26.0
  1
65
 50
270.0
  0
ENDBLK
  5
128459
  8
0
  0
BLOCK
  8
0
  2
*U8
 70
     1
 10
0.0
 20
0.0
 30
0.0
  3
*U8
  1

  0
TEXT
  5
12845B
  8
SLIM
 10
494.95238095238079
 20
-127.9999999999982
 30
0.0
 40
26.0
  1
50
  0
ENDBLK
  5
12845D
  8
0
  0
BLOCK
  8
0
  2
*U9
 70
     1
 10
0.0
 20
0.0
 30
0.0
  3
*U9
  1

  0
TEXT
  5
12845F
  8
SLIM
 10
248.0
 20
-198.95238095238091
 30
0.0
 40
26.0
  1
50
 50
270.0
  0
ENDBLK
  5
128461
  8
0
  0
BLOCK
  8
0
  2
*U10
 70
     1
 10
0.0
 20
0.0
 30
0.0
  3
*U10
  1

  0
TEXT
  5
128463
  8
SLIM
 10
134.95238095238091
 20
-127.9999999999982
 30
0.0
 40
26.0
  1
50
  0
ENDBLK
  5
128465
  8
0
  0
BLOCK
  8
0
  2
*U11
 70
     1
 10
0.0
 20
0.0
 30
0.0
  3
*U11
  1

  0
TEXT
  5
1284CF
  8
DIM
 10
2199.479620594459
 20
-3184.1428571428528
 30
0.0
 40
32.0
  1
A
 50
90.0
 41
0.75
  0
ENDBLK
  5
1284D1
  8
0
  0
BLOCK
  8
0
  2
*U12
 70
     1
 10
0.0
 20
0.0
 30
0.0
  3
*U12
  1

  0
TEXT
  5
1284D3
  8
DIM
 10
2197.840928403733
 20
-3565.9999999999959
 30
0.0
 40
32.0
  1
B
 50
90.0
 41
0.75
  0
ENDBLK
  5
1284D5
  8
0
  0
BLOCK
  8
0
  2
*U13
 70
     1
 10
0.0
 20
0.0
 30
0.0
  3
*U13
  1

  0
TEXT
  5
1284D7
  8
DIM
 10
2056.4285714285711
 20
-3048.2081219844449
 30
0.0
 40
32.0
  1
C
 41
0.75
  0
ENDBLK
  5
1284D9
  8
0
  0
ENDSEC
  0
SECTION
  2
ENTITIES
  0
LINE
  5
11E11D
  8
OBJECT
 10
1825.0
 20
-3579.9999999999959
 30
0.0
 11
3575.0
 21
-3579.9999999999959
 31
0.0
  0
LINE
  5
11E11F
  8
SLIM
 10
2616.0
 20
-2637.50001604727
 30
0.0
 11
2616.0
 21
-2967.50001604727
 31
0.0
  0
LINE
  5
11E120
  8
SLIM
 10
2740.0
 20
-2637.50001604727
 30
0.0
 11
2740.0
 21
-2967.50001604727
 31
0.0
  0
LINE
  5
11E121
  8
SLIM
 10
2870.0
 20
-2697.50001604727
 30
0.0
 11
2870.0
 21
-2967.50001604727
 31
0.0
  0
LINE
  5
11E122
  8
SLIM
 10
3000.0
 20
-2637.50001604727
 30
0.0
 11
3000.0
 21
-2967.50001604727
 31
0.0
  0
LINE
  5
11E125
  8
SLIM
 10
3000.0
 20
-2637.50001604727
 30
0.0
 11
2616.0
 21
-2637.50001604727
 31
0.0
  0
LINE
  5
11E126
  8
SLIM
 10
3000.0
 20
-2697.50001604727
 30
0.0
 11
2740.0
 21
-2697.50001604727
 31
0.0
  0
LINE
  5
11E127
  8
SLIM
 10
3000.0
 20
-2757.50001604727
 30
0.0
 11
2616.0
 21
-2757.50001604727
 31
0.0
  0
LINE
  5
11E128
  8
SLIM
 10
3000.0
 20
-2827.50001604727
 30
0.0
 11
2616.0
 21
-2827.50001604727
 31
0.0
  0
LINE
  5
11E129
  8
SLIM
 10
3000.0
 20
-2897.50001604727
 30
0.0
 11
2616.0
 21
-2897.50001604727
 31
0.0
  0
LINE
  5
11E12A
  8
SLIM
 10
3000.0
 20
-2967.50001604727
 30
0.0
 11
2616.0
 21
-2967.50001604727
 31
0.0
  0
LINE
  5
11E13F
  8
SLIM
 10
2740.0
 20
-2757.50001604727
 30
0.0
 11
2615.9999722746579
 21
-2637.5
 31
0.0
  0
LINE
  5
127D46
  8
OBJECT
 10
454.0
 20
-757.00000000000011
 30
0.0
 11
454.0
 21
-754.0
 31
0.0
1001
ACDBBLOCKREPETAG
1070
     1
1071
      418
1005
127D46
  0
ARC
  5
127D47
  8
OBJECT
 10
457.0
 20
-757.00000000000011
 30
0.0
 40
3.0
 50
180.0
 51
270.0
1001
ACDBBLOCKREPETAG
1070
     1
1071
      419
1005
127D47
  0
LINE
  5
127D48
  8
OBJECT
 10
578.0
 20
-754.0
 30
0.0
 11
578.0
 21
-757.00000000000011
 31
0.0
1001
ACDBBLOCKREPETAG
1070
     1
1071
      420
1005
127D48
  0
ARC
  5
127D49
  8
OBJECT
 10
575.0
 20
-757.00000000000011
 30
0.0
 40
3.0
 50
270.0
 51
0.0
1001
ACDBBLOCKREPETAG
1070
     1
1071
      421
1005
127D49
  0
LINE
  5
127D4A
  8
OBJECT
 10
575.0
 20
-760.00000000000011
 30
0.0
 11
457.0
 21
-760.00000000000011
 31
0.0
1001
ACDBBLOCKREPETAG
1070
     1
1071
      422
1005
127D4A
  0
INSERT
  5
127D4B
  8
OBJECT
  2
*U3
 10
0.0
 20
0.0
 30
0.0
  0
LINE
  5
127D4C
  8
OBJECT
 10
639.0
 20
-629.0
 30
0.0
 11
646.0
 21
-629.0
 31
0.0
1001
ACDBBLOCKREPETAG
1070
     1
1071
       20
1005
127D4C
  0
LINE
  5
127D4D
  8
OBJECT
 10
646.0
 20
-629.0
 30
0.0
 11
646.0
 21
-739.00000000000011
 31
0.0
1001
ACDBBLOCKREPETAG
1070
     1
1071
       21
1005
127D4D
  0
LINE
  5
127D4E
  8
OBJECT
 10
646.0
 20
-739.00000000000011
 30
0.0
 11
639.0
 21
-739.00000000000011
 31
0.0
1001
ACDBBLOCKREPETAG
1070
     1
1071
       22
1005
127D4E
  0
LINE
  5
127D4F
  8
OBJECT
 10
639.0
 20
-739.00000000000011
 30
0.0
 11
639.0
 21
-629.0
 31
0.0
1001
ACDBBLOCKREPETAG
1070
     1
1071
       23
1005
127D4F
  0
LINE
  5
127D50
  8
OBJECT
 10
639.0
 20
-632.00000000000011
 30
0.0
 11
603.0
 21
-632.00000000000011
 31
0.0
1001
ACDBBLOCKREPETAG
1070
     1
1071
       24
1005
127D50
  0
LINE
  5
127D51
  8
OBJECT
 10
603.0
 20
-632.00000000000011
 30
0.0
 11
603.0
 21
-736.00000000000011
 31
0.0
1001
ACDBBLOCKREPETAG
1070
     1
1071
       25
1005
127D51
  0
LINE
  5
127D52
  8
OBJECT
 10
603.0
 20
-736.00000000000011
 30
0.0
 11
639.0
 21
-736.00000000000011
 31
0.0
1001
ACDBBLOCKREPETAG
1070
     1
1071
       26
1005
127D52
  0
LINE
  5
127D53
  8
OBJECT
 10
599.0
 20
-636.50000000000011
 30
0.0
 11
592.0
 21
-636.50000000000011
 31
0.0
1001
ACDBBLOCKREPETAG
1070
     1
1071
       27
1005
127D53
  0
LINE
  5
127D54
  8
OBJECT
 10
592.0
 20
-731.50000000000011
 30
0.0
 11
599.0
 21
-731.50000000000011
 31
0.0
1001
ACDBBLOCKREPETAG
1070
     1
1071
       28
1005
127D54
  0
LINE
  5
127D55
  8
OBJECT
 10
599.0
 20
-731.50000000000011
 30
0.0
 11
599.0
 21
-636.50000000000011
 31
0.0
1001
ACDBBLOCKREPETAG
1070
     1
1071
       29
1005
127D55
  0
LINE
  5
127D56
  8
OBJECT
 10
603.0
 20
-632.00000000000011
 30
0.0
 11
599.0
 21
-636.50000000000011
 31
0.0
1001
ACDBBLOCKREPETAG
1070
     1
1071
       30
1005
127D56
  0
LINE
  5
127D57
  8
OBJECT
 10
603.0
 20
-736.00000000000011
 30
0.0
 11
599.0
 21
-731.50000000000011
 31
0.0
1001
ACDBBLOCKREPETAG
1070
     1
1071
       31
1005
127D57
  0
LINE
  5
127D58
  8
OBJECT
 10
589.00000000000171
 20
-622.00000000000011
 30
0.0
 11
586.0
 21
-622.00000000000011
 31
0.0
1001
ACDBBLOCKREPETAG
1070
     1
1071
       32
1005
127D58
  0
ARC
  5
127D59
  8
OBJECT
 10
589.00000000000171
 20
-625.0
 30
0.0
 40
3.0
 50
0.0
 51
90.0
1001
ACDBBLOCKREPETAG
1070
     1
1071
       33
1005
127D59
  0
LINE
  5
127D5A
  8
OBJECT
 10
586.0
 20
-746.0
 30
0.0
 11
588.99999999999807
 21
-746.0
 31
0.0
1001
ACDBBLOCKREPETAG
1070
     1
1071
       34
1005
127D5A
  0
ARC
  5
127D5B
  8
OBJECT
 10
588.99999999999807
 20
-743.00000000000011
 30
0.0
 40
3.0
 50
270.0
 51
0.0
1001
ACDBBLOCKREPETAG
1070
     1
1071
       35
1005
127D5B
  0
LINE
  5
127D5C
  8
OBJECT
 10
591.99999999999795
 20
-743.00000000000011
 30
0.0
 11
592.00000000000159
 21
-625.0
 31
0.0
1001
ACDBBLOCKREPETAG
1070
     1
1071
       36
1005
127D5C
  0
LINE
  5
127D5D
  8
HIDDEN
 10
594.0
 20
-646.0
 30
0.0
 11
594.0
 21
-722.00000000000011
 31
0.0
1001
ACDBBLOCKREPETAG
1070
     1
1071
      427
1005
127D5D
  0
ARC
  5
127D5E
  8
OBJECT
 10
516.0
 20
-684.00000000000011
 30
0.0
 40
70.0
 50
152.33955010081689
 51
207.66044989918311
1001
ACDBBLOCKREPETAG
1070
     1
1071
        0
1005
127D5E
  0
CIRCLE
  5
127D5F
  8
OBJECT
 10
516.0
 20
-684.00000000000011
 30
0.0
 40
65.0
1001
ACDBBLOCKREPETAG
1070
     1
1071
        1
1005
127D5F
  0
CIRCLE
  5
127D60
  8
OBJECT
 10
516.0
 20
-684.00000000000011
 30
0.0
 40
41.0
1001
ACDBBLOCKREPETAG
1070
     1
1071
        2
1005
127D60
  0
CIRCLE
  5
127D61
  8
OBJECT
 10
516.0
 20
-684.00000000000011
 30
0.0
 40
58.0
1001
ACDBBLOCKREPETAG
1070
     1
1071
        3
1005
127D61
  0
LINE
  5
127D62
  8
OBJECT
 10
454.0
 20
-613.99999999999841
 30
0.0
 11
454.0
 21
-664.48077870405712
 31
0.0
1001
ACDBBLOCKREPETAG
1070
     1
1071
        4
1005
127D62
  0
LINE
  5
127D63
  8
OBJECT
 10
454.0
 20
-754.0
 30
0.0
 11
454.0
 21
-703.51922129594345
 31
0.0
1001
ACDBBLOCKREPETAG
1070
     1
1071
        5
1005
127D63
  0
LINE
  5
127D64
  8
OBJECT
 10
578.0
 20
-754.0
 30
0.0
 11
578.0
 21
-746.0
 31
0.0
1001
ACDBBLOCKREPETAG
1070
     1
1071
        6
1005
127D64
  0
LINE
  5
127D65
  8
OBJECT
 10
586.0
 20
-746.0
 30
0.0
 11
578.0
 21
-746.0
 31
0.0
1001
ACDBBLOCKREPETAG
1070
     1
1071
        7
1005
127D65
  0
LINE
  5
127D66
  8
OBJECT
 10
578.0
 20
-613.99999999999841
 30
0.0
 11
578.0
 21
-622.00000000000011
 31
0.0
1001
ACDBBLOCKREPETAG
1070
     1
1071
        8
1005
127D66
  0
LINE
  5
127D67
  8
OBJECT
 10
586.0
 20
-622.00000000000011
 30
0.0
 11
578.0
 21
-622.00000000000011
 31
0.0
1001
ACDBBLOCKREPETAG
1070
     1
1071
        9
1005
127D67
  0
ARC
  5
127D68
  8
OBJECT
 10
516.0
 20
-684.00000000000011
 30
0.0
 40
37.5
 50
33.162766676670358
 51
319.1635024908208
1001
ACDBBLOCKREPETAG
1070
     1
1071
       13
1005
127D68
  0
LINE
  5
127D69
  8
OBJECT
 10
561.96194077712562
 20
-729.96194077712573
 30
0.0
 11
578.0
 21
-746.0
 31
0.0
1001
ACDBBLOCKREPETAG
1070
     1
1071
       21
1005
127D69
  0
LINE
  5
127D6A
  8
OBJECT
 10
561.96194077712562
 20
-638.03805922287438
 30
0.0
 11
578.0
 21
-622.00000000000011
 31
0.0
1001
ACDBBLOCKREPETAG
1070
     1
1071
       22
1005
127D6A
  0
ARC
  5
127D6B
  8
OBJECT
 10
540.44352901899219
 20
-694.09723786081315
 30
0.0
 40
7.0
 50
163.0012722295161
 51
244.05025878932551
1001
ACDBBLOCKREPETAG
1070
     1
1071
       70
1005
127D6B
  0
ARC
  5
127D6C
  8
OBJECT
 10
541.59787731695155
 20
-697.16233892935293
 30
0.0
 40
9.0
 50
163.0012722295161
 51
244.05026392593629
1001
ACDBBLOCKREPETAG
1070
     1
1071
       71
1005
127D6C
  0
ARC
  5
127D6D
  8
OBJECT
 10
463.28130031148248
 20
-787.68576986844744
 30
0.0
 40
150.0
 50
52.895033739927257
 51
55.893149969628887
1001
ACDBBLOCKREPETAG
1070
     1
1071
       72
1005
127D6D
  0
LINE
  5
127D6E
  8
OBJECT
 10
537.38045100897205
 20
-700.39148548102844
 30
0.0
 11
550.19158700000105
 21
-706.62598900000035
 31
0.0
1001
ACDBBLOCKREPETAG
1070
     1
1071
       73
1005
127D6E
  0
LINE
  5
127D6F
  8
OBJECT
 10
537.65963488670604
 20
-705.25494336553697
 30
0.0
 11
547.61836000000039
 21
-710.1013280000044
 31
0.0
1001
ACDBBLOCKREPETAG
1070
     1
1071
       74
1005
127D6F
  0
LINE
  5
127D70
  8
OBJECT
 10
542.00000000000159
 20
-665.06198199999926
 30
0.0
 11
532.99107608744453
 21
-694.53118469673814
 31
0.0
1001
ACDBBLOCKREPETAG
1070
     1
1071
       75
1005
127D70
  0
LINE
  5
127D71
  8
OBJECT
 10
547.39199878029285
 20
-663.48677469099505
 30
0.0
 11
542.00000000000159
 21
-665.06198199999926
 31
0.0
1001
ACDBBLOCKREPETAG
1070
     1
1071
       76
1005
127D71
  0
POINT
  5
127D72
  8
DOTS
 10
516.0
 20
-684.00000000000011
 30
0.0
1001
ACDBBLOCKREPETAG
1070
     1
1071
       39
1005
127D72
  0
INSERT
  5
127D73
  8
OBJECT
  2
*U4
 10
0.0
 20
0.0
 30
0.0
  0
LINE
  5
127D74
  8
OBJECT
 10
461.0
 20
-560.99999999999841
 30
0.0
 11
461.0
 21
-553.99999999999841
 31
0.0
1001
ACDBBLOCKREPETAG
1070
     1
1071
       20
1005
127D74
  0
LINE
  5
127D75
  8
OBJECT
 10
461.0
 20
-553.99999999999841
 30
0.0
 11
571.0
 21
-553.99999999999841
 31
0.0
1001
ACDBBLOCKREPETAG
1070
     1
1071
       21
1005
127D75
  0
LINE
  5
127D76
  8
OBJECT
 10
571.0
 20
-553.99999999999841
 30
0.0
 11
571.0
 21
-560.99999999999841
 31
0.0
1001
ACDBBLOCKREPETAG
1070
     1
1071
       22
1005
127D76
  0
LINE
  5
127D77
  8
OBJECT
 10
571.0
 20
-560.99999999999841
 30
0.0
 11
461.0
 21
-560.99999999999841
 31
0.0
1001
ACDBBLOCKREPETAG
1070
     1
1071
       23
1005
127D77
  0
LINE
  5
127D78
  8
OBJECT
 10
464.0
 20
-560.99999999999841
 30
0.0
 11
464.0
 21
-596.99999999999829
 31
0.0
1001
ACDBBLOCKREPETAG
1070
     1
1071
       24
1005
127D78
  0
LINE
  5
127D79
  8
OBJECT
 10
464.0
 20
-596.99999999999829
 30
0.0
 11
568.0
 21
-596.99999999999829
 31
0.0
1001
ACDBBLOCKREPETAG
1070
     1
1071
       25
1005
127D79
  0
LINE
  5
127D7A
  8
OBJECT
 10
568.0
 20
-596.99999999999829
 30
0.0
 11
568.0
 21
-560.99999999999841
 31
0.0
1001
ACDBBLOCKREPETAG
1070
     1
1071
       26
1005
127D7A
  0
LINE
  5
127D7B
  8
OBJECT
 10
468.5
 20
-600.99999999999829
 30
0.0
 11
468.5
 21
-607.99999999999841
 31
0.0
1001
ACDBBLOCKREPETAG
1070
     1
1071
       27
1005
127D7B
  0
LINE
  5
127D7C
  8
OBJECT
 10
563.49999999999977
 20
-607.99999999999841
 30
0.0
 11
563.49999999999977
 21
-600.99999999999829
 31
0.0
1001
ACDBBLOCKREPETAG
1070
     1
1071
       28
1005
127D7C
  0
LINE
  5
127D7D
  8
OBJECT
 10
563.49999999999977
 20
-600.99999999999829
 30
0.0
 11
468.5
 21
-600.99999999999829
 31
0.0
1001
ACDBBLOCKREPETAG
1070
     1
1071
       29
1005
127D7D
  0
LINE
  5
127D7E
  8
OBJECT
 10
464.0
 20
-596.99999999999829
 30
0.0
 11
468.5
 21
-600.99999999999829
 31
0.0
1001
ACDBBLOCKREPETAG
1070
     1
1071
       30
1005
127D7E
  0
LINE
  5
127D7F
  8
OBJECT
 10
568.0
 20
-596.99999999999829
 30
0.0
 11
563.49999999999977
 21
-600.99999999999829
 31
0.0
1001
ACDBBLOCKREPETAG
1070
     1
1071
       31
1005
127D7F
  0
LINE
  5
127D80
  8
OBJECT
 10
454.0
 20
-610.9999999999975
 30
0.0
 11
454.0
 21
-613.99999999999841
 31
0.0
1001
ACDBBLOCKREPETAG
1070
     1
1071
       32
1005
127D80
  0
ARC
  5
127D81
  8
OBJECT
 10
457.0
 20
-610.9999999999975
 30
0.0
 40
3.0
 50
90.0
 51
180.0
1001
ACDBBLOCKREPETAG
1070
     1
1071
       33
1005
127D81
  0
LINE
  5
127D82
  8
OBJECT
 10
578.0
 20
-613.99999999999841
 30
0.0
 11
578.0
 21
-610.9999999999992
 31
0.0
1001
ACDBBLOCKREPETAG
1070
     1
1071
       34
1005
127D82
  0
ARC
  5
127D83
  8
OBJECT
 10
575.0
 20
-610.9999999999992
 30
0.0
 40
3.0
 50
0.0
 51
90.0
1001
ACDBBLOCKREPETAG
1070
     1
1071
       35
1005
127D83
  0
LINE
  5
127D84
  8
OBJECT
 10
575.0
 20
-607.9999999999992
 30
0.0
 11
457.0
 21
-607.9999999999975
 31
0.0
1001
ACDBBLOCKREPETAG
1070
     1
1071
       36
1005
127D84
  0
LINE
  5
127D85
  8
HIDDEN
 10
478.0
 20
-605.99999999999841
 30
0.0
 11
554.0
 21
-605.99999999999841
 31
0.0
1001
ACDBBLOCKREPETAG
1070
     1
1071
      423
1005
127D85
  0
LINE
  5
127D86
  8
OBJECT
 10
94.0
 20
-757.00000000000011
 30
0.0
 11
94.0
 21
-754.0
 31
0.0
1001
ACDBBLOCKREPETAG
1070
     1
1071
      418
1005
127D86
  0
ARC
  5
127D87
  8
OBJECT
 10
97.0
 20
-757.00000000000011
 30
0.0
 40
3.0
 50
180.0
 51
270.0
1001
ACDBBLOCKREPETAG
1070
     1
1071
      419
1005
127D87
  0
LINE
  5
127D88
  8
OBJECT
 10
218.0
 20
-754.0
 30
0.0
 11
218.0
 21
-757.00000000000011
 31
0.0
1001
ACDBBLOCKREPETAG
1070
     1
1071
      420
1005
127D88
  0
ARC
  5
127D89
  8
OBJECT
 10
215.0
 20
-757.00000000000011
 30
0.0
 40
3.0
 50
270.0
 51
0.0
1001
ACDBBLOCKREPETAG
1070
     1
1071
      421
1005
127D89
  0
LINE
  5
127D8A
  8
OBJECT
 10
215.0
 20
-760.00000000000011
 30
0.0
 11
97.0
 21
-760.00000000000011
 31
0.0
1001
ACDBBLOCKREPETAG
1070
     1
1071
      422
1005
127D8A
  0
INSERT
  5
127D8B
  8
OBJECT
  2
*U5
 10
0.0
 20
0.0
 30
0.0
  0
LINE
  5
127D8C
  8
OBJECT
 10
279.0
 20
-637.0
 30
0.0
 11
286.0
 21
-637.0
 31
0.0
1001
ACDBBLOCKREPETAG
1070
     1
1071
        1
1005
127D8C
  0
LINE
  5
127D8D
  8
OBJECT
 10
286.0
 20
-637.0
 30
0.0
 11
286.0
 21
-731.00000000000011
 31
0.0
1001
ACDBBLOCKREPETAG
1070
     1
1071
        2
1005
127D8D
  0
LINE
  5
127D8E
  8
OBJECT
 10
286.0
 20
-731.00000000000011
 30
0.0
 11
279.0
 21
-731.00000000000011
 31
0.0
1001
ACDBBLOCKREPETAG
1070
     1
1071
        3
1005
127D8E
  0
LINE
  5
127D8F
  8
OBJECT
 10
279.0
 20
-731.00000000000011
 30
0.0
 11
279.0
 21
-637.0
 31
0.0
1001
ACDBBLOCKREPETAG
1070
     1
1071
        4
1005
127D8F
  0
LINE
  5
127D90
  8
OBJECT
 10
279.0
 20
-640.00000000000011
 30
0.0
 11
243.0
 21
-640.00000000000011
 31
0.0
1001
ACDBBLOCKREPETAG
1070
     1
1071
        5
1005
127D90
  0
LINE
  5
127D91
  8
OBJECT
 10
243.0
 20
-640.00000000000011
 30
0.0
 11
243.0
 21
-728.00000000000011
 31
0.0
1001
ACDBBLOCKREPETAG
1070
     1
1071
        6
1005
127D91
  0
LINE
  5
127D92
  8
OBJECT
 10
243.0
 20
-728.00000000000011
 30
0.0
 11
279.0
 21
-728.00000000000011
 31
0.0
1001
ACDBBLOCKREPETAG
1070
     1
1071
        7
1005
127D92
  0
LINE
  5
127D93
  8
OBJECT
 10
239.0
 20
-644.50000000000011
 30
0.0
 11
232.0
 21
-644.50000000000011
 31
0.0
1001
ACDBBLOCKREPETAG
1070
     1
1071
        8
1005
127D93
  0
LINE
  5
127D94
  8
OBJECT
 10
232.0
 20
-723.50000000000011
 30
0.0
 11
239.0
 21
-723.50000000000011
 31
0.0
1001
ACDBBLOCKREPETAG
1070
     1
1071
        9
1005
127D94
  0
LINE
  5
127D95
  8
OBJECT
 10
239.0
 20
-723.50000000000011
 30
0.0
 11
239.0
 21
-644.50000000000011
 31
0.0
1001
ACDBBLOCKREPETAG
1070
     1
1071
       10
1005
127D95
  0
LINE
  5
127D96
  8
OBJECT
 10
243.0
 20
-640.00000000000011
 30
0.0
 11
239.0
 21
-644.50000000000011
 31
0.0
1001
ACDBBLOCKREPETAG
1070
     1
1071
       11
1005
127D96
  0
LINE
  5
127D97
  8
OBJECT
 10
243.0
 20
-728.00000000000011
 30
0.0
 11
239.0
 21
-723.50000000000011
 31
0.0
1001
ACDBBLOCKREPETAG
1070
     1
1071
       12
1005
127D97
  0
LINE
  5
127D98
  8
OBJECT
 10
229.00000000000179
 20
-622.00000000000011
 30
0.0
 11
226.0
 21
-622.00000000000011
 31
0.0
1001
ACDBBLOCKREPETAG
1070
     1
1071
       13
1005
127D98
  0
ARC
  5
127D99
  8
OBJECT
 10
229.00000000000179
 20
-625.0
 30
0.0
 40
3.0
 50
0.0
 51
90.0
1001
ACDBBLOCKREPETAG
1070
     1
1071
       14
1005
127D99
  0
LINE
  5
127D9A
  8
OBJECT
 10
226.0
 20
-746.0
 30
0.0
 11
228.99999999999821
 21
-746.0
 31
0.0
1001
ACDBBLOCKREPETAG
1070
     1
1071
       15
1005
127D9A
  0
ARC
  5
127D9B
  8
OBJECT
 10
228.99999999999821
 20
-743.00000000000011
 30
0.0
 40
3.0
 50
270.0
 51
0.0
1001
ACDBBLOCKREPETAG
1070
     1
1071
       16
1005
127D9B
  0
LINE
  5
127D9C
  8
OBJECT
 10
231.99999999999821
 20
-743.00000000000011
 30
0.0
 11
232.00000000000179
 21
-625.0
 31
0.0
1001
ACDBBLOCKREPETAG
1070
     1
1071
       17
1005
127D9C
  0
LINE
  5
127D9D
  8
HIDDEN
 10
234.0
 20
-654.0
 30
0.0
 11
234.0
 21
-714.00000000000011
 31
0.0
1001
ACDBBLOCKREPETAG
1070
     1
1071
      424
1005
127D9D
  0
ARC
  5
127D9E
  8
OBJECT
 10
156.0
 20
-684.00000000000011
 30
0.0
 40
70.0
 50
152.33955010081621
 51
207.6604498991837
1001
ACDBBLOCKREPETAG
1070
     1
1071
        0
1005
127D9E
  0
CIRCLE
  5
127D9F
  8
OBJECT
 10
156.0
 20
-684.00000000000011
 30
0.0
 40
65.0
1001
ACDBBLOCKREPETAG
1070
     1
1071
        1
1005
127D9F
  0
CIRCLE
  5
127DA0
  8
OBJECT
 10
156.0
 20
-684.00000000000011
 30
0.0
 40
41.0
1001
ACDBBLOCKREPETAG
1070
     1
1071
        2
1005
127DA0
  0
CIRCLE
  5
127DA1
  8
OBJECT
 10
156.0
 20
-684.00000000000011
 30
0.0
 40
58.0
1001
ACDBBLOCKREPETAG
1070
     1
1071
        3
1005
127DA1
  0
LINE
  5
127DA2
  8
OBJECT
 10
94.0
 20
-613.99999999999841
 30
0.0
 11
94.0
 21
-664.48077870405712
 31
0.0
1001
ACDBBLOCKREPETAG
1070
     1
1071
        4
1005
127DA2
  0
LINE
  5
127DA3
  8
OBJECT
 10
94.0
 20
-754.0
 30
0.0
 11
94.0
 21
-703.51922129594345
 31
0.0
1001
ACDBBLOCKREPETAG
1070
     1
1071
        5
1005
127DA3
  0
LINE
  5
127DA4
  8
OBJECT
 10
218.0
 20
-754.0
 30
0.0
 11
218.0
 21
-746.0
 31
0.0
1001
ACDBBLOCKREPETAG
1070
     1
1071
        6
1005
127DA4
  0
LINE
  5
127DA5
  8
OBJECT
 10
226.0
 20
-746.0
 30
0.0
 11
218.0
 21
-746.0
 31
0.0
1001
ACDBBLOCKREPETAG
1070
     1
1071
        7
1005
127DA5
  0
LINE
  5
127DA6
  8
OBJECT
 10
218.0
 20
-613.99999999999841
 30
0.0
 11
218.0
 21
-622.00000000000011
 31
0.0
1001
ACDBBLOCKREPETAG
1070
     1
1071
        8
1005
127DA6
  0
LINE
  5
127DA7
  8
OBJECT
 10
226.0
 20
-622.00000000000011
 30
0.0
 11
218.0
 21
-622.00000000000011
 31
0.0
1001
ACDBBLOCKREPETAG
1070
     1
1071
        9
1005
127DA7
  0
ARC
  5
127DA8
  8
OBJECT
 10
156.0
 20
-684.00000000000011
 30
0.0
 40
37.5
 50
33.162766676671247
 51
319.1635024908208
1001
ACDBBLOCKREPETAG
1070
     1
1071
       13
1005
127DA8
  0
LINE
  5
127DA9
  8
OBJECT
 10
201.96194077712559
 20
-729.96194077712573
 30
0.0
 11
218.0
 21
-746.0
 31
0.0
1001
ACDBBLOCKREPETAG
1070
     1
1071
       21
1005
127DA9
  0
LINE
  5
127DAA
  8
OBJECT
 10
201.96194077712559
 20
-638.03805922287438
 30
0.0
 11
218.0
 21
-622.00000000000011
 31
0.0
1001
ACDBBLOCKREPETAG
1070
     1
1071
       22
1005
127DAA
  0
ARC
  5
127DAB
  8
OBJECT
 10
180.44352901899211
 20
-694.09723786081315
 30
0.0
 40
7.0
 50
163.00127222951571
 51
244.05025878932261
1001
ACDBBLOCKREPETAG
1070
     1
1071
       70
1005
127DAB
  0
ARC
  5
127DAC
  8
OBJECT
 10
181.59787731695181
 20
-697.16233892935293
 30
0.0
 40
9.0
 50
163.00127222951571
 51
244.05026392593629
1001
ACDBBLOCKREPETAG
1070
     1
1071
       71
1005
127DAC
  0
ARC
  5
127DAD
  8
OBJECT
 10
103.2813003114825
 20
-787.68576986844744
 30
0.0
 40
150.0
 50
52.895033739927257
 51
55.893149969628887
1001
ACDBBLOCKREPETAG
1070
     1
1071
       72
1005
127DAD
  0
LINE
  5
127DAE
  8
OBJECT
 10
177.3804510089721
 20
-700.39148548102844
 30
0.0
 11
190.19158700000111
 21
-706.62598900000035
 31
0.0
1001
ACDBBLOCKREPETAG
1070
     1
1071
       73
1005
127DAE
  0
LINE
  5
127DAF
  8
OBJECT
 10
177.65963488670599
 20
-705.25494336553697
 30
0.0
 11
187.61836000000039
 21
-710.1013280000044
 31
0.0
1001
ACDBBLOCKREPETAG
1070
     1
1071
       74
1005
127DAF
  0
LINE
  5
127DB0
  8
OBJECT
 10
182.00000000000171
 20
-665.06198199999926
 30
0.0
 11
172.9910760874445
 21
-694.53118469673814
 31
0.0
1001
ACDBBLOCKREPETAG
1070
     1
1071
       75
1005
127DB0
  0
LINE
  5
127DB1
  8
OBJECT
 10
187.39199878029279
 20
-663.48677469099505
 30
0.0
 11
182.00000000000171
 21
-665.06198199999926
 31
0.0
1001
ACDBBLOCKREPETAG
1070
     1
1071
       76
1005
127DB1
  0
POINT
  5
127DB2
  8
DOTS
 10
156.0
 20
-684.00000000000011
 30
0.0
1001
ACDBBLOCKREPETAG
1070
     1
1071
       39
1005
127DB2
  0
INSERT
  5
127DB3
  8
OBJECT
  2
*U6
 10
0.0
 20
0.0
 30
0.0
  0
LINE
  5
127DB4
  8
OBJECT
 10
101.0
 20
-560.99999999999841
 30
0.0
 11
101.0
 21
-553.99999999999841
 31
0.0
1001
ACDBBLOCKREPETAG
1070
     1
1071
       20
1005
127DB4
  0
LINE
  5
127DB5
  8
OBJECT
 10
101.0
 20
-553.99999999999841
 30
0.0
 11
211.0
 21
-553.99999999999841
 31
0.0
1001
ACDBBLOCKREPETAG
1070
     1
1071
       21
1005
127DB5
  0
LINE
  5
127DB6
  8
OBJECT
 10
211.0
 20
-553.99999999999841
 30
0.0
 11
211.0
 21
-560.99999999999841
 31
0.0
1001
ACDBBLOCKREPETAG
1070
     1
1071
       22
1005
127DB6
  0
LINE
  5
127DB7
  8
OBJECT
 10
211.0
 20
-560.99999999999841
 30
0.0
 11
101.0
 21
-560.99999999999841
 31
0.0
1001
ACDBBLOCKREPETAG
1070
     1
1071
       23
1005
127DB7
  0
LINE
  5
127DB8
  8
OBJECT
 10
104.0
 20
-560.99999999999841
 30
0.0
 11
104.0
 21
-596.99999999999829
 31
0.0
1001
ACDBBLOCKREPETAG
1070
     1
1071
       24
1005
127DB8
  0
LINE
  5
127DB9
  8
OBJECT
 10
104.0
 20
-596.99999999999829
 30
0.0
 11
208.0
 21
-596.99999999999829
 31
0.0
1001
ACDBBLOCKREPETAG
1070
     1
1071
       25
1005
127DB9
  0
LINE
  5
127DBA
  8
OBJECT
 10
208.0
 20
-596.99999999999829
 30
0.0
 11
208.0
 21
-560.99999999999841
 31
0.0
1001
ACDBBLOCKREPETAG
1070
     1
1071
       26
1005
127DBA
  0
LINE
  5
127DBB
  8
OBJECT
 10
108.5
 20
-600.99999999999829
 30
0.0
 11
108.5
 21
-607.99999999999841
 31
0.0
1001
ACDBBLOCKREPETAG
1070
     1
1071
       27
1005
127DBB
  0
LINE
  5
127DBC
  8
OBJECT
 10
203.5
 20
-607.99999999999841
 30
0.0
 11
203.5
 21
-600.99999999999829
 31
0.0
1001
ACDBBLOCKREPETAG
1070
     1
1071
       28
1005
127DBC
  0
LINE
  5
127DBD
  8
OBJECT
 10
203.5
 20
-600.99999999999829
 30
0.0
 11
108.5
 21
-600.99999999999829
 31
0.0
1001
ACDBBLOCKREPETAG
1070
     1
1071
       29
1005
127DBD
  0
LINE
  5
127DBE
  8
OBJECT
 10
104.0
 20
-596.99999999999829
 30
0.0
 11
108.5
 21
-600.99999999999829
 31
0.0
1001
ACDBBLOCKREPETAG
1070
     1
1071
       30
1005
127DBE
  0
LINE
  5
127DBF
  8
OBJECT
 10
208.0
 20
-596.99999999999829
 30
0.0
 11
203.5
 21
-600.99999999999829
 31
0.0
1001
ACDBBLOCKREPETAG
1070
     1
1071
       31
1005
127DBF
  0
LINE
  5
127DC0
  8
OBJECT
 10
94.0
 20
-610.9999999999975
 30
0.0
 11
94.0
 21
-613.99999999999841
 31
0.0
1001
ACDBBLOCKREPETAG
1070
     1
1071
       32
1005
127DC0
  0
ARC
  5
127DC1
  8
OBJECT
 10
97.0
 20
-610.9999999999975
 30
0.0
 40
3.0
 50
90.0
 51
180.0
1001
ACDBBLOCKREPETAG
1070
     1
1071
       33
1005
127DC1
  0
LINE
  5
127DC2
  8
OBJECT
 10
218.0
 20
-613.99999999999841
 30
0.0
 11
218.0
 21
-610.9999999999992
 31
0.0
1001
ACDBBLOCKREPETAG
1070
     1
1071
       34
1005
127DC2
  0
ARC
  5
127DC3
  8
OBJECT
 10
215.0
 20
-610.9999999999992
 30
0.0
 40
3.0
 50
0.0
 51
90.0
1001
ACDBBLOCKREPETAG
1070
     1
1071
       35
1005
127DC3
  0
LINE
  5
127DC4
  8
OBJECT
 10
215.0
 20
-607.9999999999992
 30
0.0
 11
97.0
 21
-607.9999999999975
 31
0.0
1001
ACDBBLOCKREPETAG
1070
     1
1071
       36
1005
127DC4
  0
LINE
  5
127DC5
  8
HIDDEN
 10
118.0
 20
-605.99999999999841
 30
0.0
 11
194.0
 21
-605.99999999999841
 31
0.0
1001
ACDBBLOCKREPETAG
1070
     1
1071
      423
1005
127DC5
  0
LINE
  5
127DC6
  8
OBJECT
 10
454.0
 20
-293.0
 30
0.0
 11
454.0
 21
-290.0
 31
0.0
1001
ACDBBLOCKREPETAG
1070
     1
1071
      418
1005
127DC6
  0
ARC
  5
127DC7
  8
OBJECT
 10
457.0
 20
-293.0
 30
0.0
 40
3.0
 50
180.0
 51
270.0
1001
ACDBBLOCKREPETAG
1070
     1
1071
      419
1005
127DC7
  0
LINE
  5
127DC8
  8
OBJECT
 10
578.0
 20
-290.0
 30
0.0
 11
578.0
 21
-293.0
 31
0.0
1001
ACDBBLOCKREPETAG
1070
     1
1071
      420
1005
127DC8
  0
ARC
  5
127DC9
  8
OBJECT
 10
575.0
 20
-293.0
 30
0.0
 40
3.0
 50
270.0
 51
0.0
1001
ACDBBLOCKREPETAG
1070
     1
1071
      421
1005
127DC9
  0
LINE
  5
127DCA
  8
OBJECT
 10
575.0
 20
-296.0
 30
0.0
 11
457.0
 21
-296.0
 31
0.0
1001
ACDBBLOCKREPETAG
1070
     1
1071
      422
1005
127DCA
  0
INSERT
  5
127DCB
  8
OBJECT
  2
*U7
 10
0.0
 20
0.0
 30
0.0
  0
LINE
  5
127DCC
  8
OBJECT
 10
639.0
 20
-165.0
 30
0.0
 11
646.0
 21
-165.0
 31
0.0
1001
ACDBBLOCKREPETAG
1070
     1
1071
       20
1005
127DCC
  0
LINE
  5
127DCD
  8
OBJECT
 10
646.0
 20
-165.0
 30
0.0
 11
646.0
 21
-275.0
 31
0.0
1001
ACDBBLOCKREPETAG
1070
     1
1071
       21
1005
127DCD
  0
LINE
  5
127DCE
  8
OBJECT
 10
646.0
 20
-275.0
 30
0.0
 11
639.0
 21
-275.0
 31
0.0
1001
ACDBBLOCKREPETAG
1070
     1
1071
       22
1005
127DCE
  0
LINE
  5
127DCF
  8
OBJECT
 10
639.0
 20
-275.0
 30
0.0
 11
639.0
 21
-165.0
 31
0.0
1001
ACDBBLOCKREPETAG
1070
     1
1071
       23
1005
127DCF
  0
LINE
  5
127DD0
  8
OBJECT
 10
639.0
 20
-168.0
 30
0.0
 11
603.0
 21
-168.0
 31
0.0
1001
ACDBBLOCKREPETAG
1070
     1
1071
       24
1005
127DD0
  0
LINE
  5
127DD1
  8
OBJECT
 10
603.0
 20
-168.0
 30
0.0
 11
603.0
 21
-272.0
 31
0.0
1001
ACDBBLOCKREPETAG
1070
     1
1071
       25
1005
127DD1
  0
LINE
  5
127DD2
  8
OBJECT
 10
603.0
 20
-272.0
 30
0.0
 11
639.0
 21
-272.0
 31
0.0
1001
ACDBBLOCKREPETAG
1070
     1
1071
       26
1005
127DD2
  0
LINE
  5
127DD3
  8
OBJECT
 10
599.0
 20
-172.5
 30
0.0
 11
592.0
 21
-172.5
 31
0.0
1001
ACDBBLOCKREPETAG
1070
     1
1071
       27
1005
127DD3
  0
LINE
  5
127DD4
  8
OBJECT
 10
592.0
 20
-267.5
 30
0.0
 11
599.0
 21
-267.5
 31
0.0
1001
ACDBBLOCKREPETAG
1070
     1
1071
       28
1005
127DD4
  0
LINE
  5
127DD5
  8
OBJECT
 10
599.0
 20
-267.5
 30
0.0
 11
599.0
 21
-172.5
 31
0.0
1001
ACDBBLOCKREPETAG
1070
     1
1071
       29
1005
127DD5
  0
LINE
  5
127DD6
  8
OBJECT
 10
603.0
 20
-168.0
 30
0.0
 11
599.0
 21
-172.5
 31
0.0
1001
ACDBBLOCKREPETAG
1070
     1
1071
       30
1005
127DD6
  0
LINE
  5
127DD7
  8
OBJECT
 10
603.0
 20
-272.0
 30
0.0
 11
599.0
 21
-267.5
 31
0.0
1001
ACDBBLOCKREPETAG
1070
     1
1071
       31
1005
127DD7
  0
LINE
  5
127DD8
  8
OBJECT
 10
589.00000000000171
 20
-158.0
 30
0.0
 11
586.0
 21
-158.0
 31
0.0
1001
ACDBBLOCKREPETAG
1070
     1
1071
       32
1005
127DD8
  0
ARC
  5
127DD9
  8
OBJECT
 10
589.00000000000171
 20
-161.0
 30
0.0
 40
3.0
 50
0.0
 51
90.0
1001
ACDBBLOCKREPETAG
1070
     1
1071
       33
1005
127DD9
  0
LINE
  5
127DDA
  8
OBJECT
 10
586.0
 20
-282.0
 30
0.0
 11
588.99999999999807
 21
-282.0
 31
0.0
1001
ACDBBLOCKREPETAG
1070
     1
1071
       34
1005
127DDA
  0
ARC
  5
127DDB
  8
OBJECT
 10
588.99999999999807
 20
-279.0
 30
0.0
 40
3.0
 50
270.0
 51
0.0
1001
ACDBBLOCKREPETAG
1070
     1
1071
       35
1005
127DDB
  0
LINE
  5
127DDC
  8
OBJECT
 10
591.99999999999795
 20
-279.0
 30
0.0
 11
592.00000000000159
 21
-161.0
 31
0.0
1001
ACDBBLOCKREPETAG
1070
     1
1071
       36
1005
127DDC
  0
LINE
  5
127DDD
  8
HIDDEN
 10
594.0
 20
-182.0
 30
0.0
 11
594.0
 21
-258.0
 31
0.0
1001
ACDBBLOCKREPETAG
1070
     1
1071
      427
1005
127DDD
  0
ARC
  5
127DDE
  8
OBJECT
 10
516.0
 20
-220.0
 30
0.0
 40
70.0
 50
152.33955010081689
 51
207.66044989918311
1001
ACDBBLOCKREPETAG
1070
     1
1071
        0
1005
127DDE
  0
CIRCLE
  5
127DDF
  8
OBJECT
 10
516.0
 20
-220.0
 30
0.0
 40
65.0
1001
ACDBBLOCKREPETAG
1070
     1
1071
        1
1005
127DDF
  0
CIRCLE
  5
127DE0
  8
OBJECT
 10
516.0
 20
-220.0
 30
0.0
 40
41.0
1001
ACDBBLOCKREPETAG
1070
     1
1071
        2
1005
127DE0
  0
CIRCLE
  5
127DE1
  8
OBJECT
 10
516.0
 20
-220.0
 30
0.0
 40
58.0
1001
ACDBBLOCKREPETAG
1070
     1
1071
        3
1005
127DE1
  0
LINE
  5
127DE2
  8
OBJECT
 10
454.0
 20
-149.99999999999821
 30
0.0
 11
454.0
 21
-200.48077870405689
 31
0.0
1001
ACDBBLOCKREPETAG
1070
     1
1071
        4
1005
127DE2
  0
LINE
  5
127DE3
  8
OBJECT
 10
454.0
 20
-290.0
 30
0.0
 11
454.0
 21
-239.51922129594311
 31
0.0
1001
ACDBBLOCKREPETAG
1070
     1
1071
        5
1005
127DE3
  0
LINE
  5
127DE4
  8
OBJECT
 10
578.0
 20
-290.0
 30
0.0
 11
578.0
 21
-282.0
 31
0.0
1001
ACDBBLOCKREPETAG
1070
     1
1071
        6
1005
127DE4
  0
LINE
  5
127DE5
  8
OBJECT
 10
586.0
 20
-282.0
 30
0.0
 11
578.0
 21
-282.0
 31
0.0
1001
ACDBBLOCKREPETAG
1070
     1
1071
        7
1005
127DE5
  0
LINE
  5
127DE6
  8
OBJECT
 10
578.0
 20
-149.99999999999821
 30
0.0
 11
578.0
 21
-158.0
 31
0.0
1001
ACDBBLOCKREPETAG
1070
     1
1071
        8
1005
127DE6
  0
LINE
  5
127DE7
  8
OBJECT
 10
586.0
 20
-158.0
 30
0.0
 11
578.0
 21
-158.0
 31
0.0
1001
ACDBBLOCKREPETAG
1070
     1
1071
        9
1005
127DE7
  0
ARC
  5
127DE8
  8
OBJECT
 10
516.0
 20
-220.0
 30
0.0
 40
37.5
 50
33.162766676670358
 51
319.16350249081961
1001
ACDBBLOCKREPETAG
1070
     1
1071
       13
1005
127DE8
  0
LINE
  5
127DE9
  8
OBJECT
 10
561.96194077712562
 20
-265.96194077712562
 30
0.0
 11
578.0
 21
-282.0
 31
0.0
1001
ACDBBLOCKREPETAG
1070
     1
1071
       21
1005
127DE9
  0
LINE
  5
127DEA
  8
OBJECT
 10
561.96194077712562
 20
-174.03805922287441
 30
0.0
 11
578.0
 21
-158.0
 31
0.0
1001
ACDBBLOCKREPETAG
1070
     1
1071
       22
1005
127DEA
  0
ARC
  5
127DEB
  8
OBJECT
 10
540.44352901899219
 20
-230.09723786081301
 30
0.0
 40
7.0
 50
163.0012722295161
 51
244.0502587893248
1001
ACDBBLOCKREPETAG
1070
     1
1071
       70
1005
127DEB
  0
ARC
  5
127DEC
  8
OBJECT
 10
541.59787731695155
 20
-233.1623389293527
 30
0.0
 40
9.0
 50
163.0012722295161
 51
244.050263925937
1001
ACDBBLOCKREPETAG
1070
     1
1071
       71
1005
127DEC
  0
ARC
  5
127DED
  8
OBJECT
 10
463.28130031148248
 20
-323.6857698684471
 30
0.0
 40
150.0
 50
52.895033739929247
 51
55.89314996963072
1001
ACDBBLOCKREPETAG
1070
     1
1071
       72
1005
127DED
  0
LINE
  5
127DEE
  8
OBJECT
 10
537.38045100897205
 20
-236.39148548102821
 30
0.0
 11
550.19158700000105
 21
-242.62598900000009
 31
0.0
1001
ACDBBLOCKREPETAG
1070
     1
1071
       73
1005
127DEE
  0
LINE
  5
127DEF
  8
OBJECT
 10
537.65963488670604
 20
-241.25494336553669
 30
0.0
 11
547.61836000000039
 21
-246.10132800000429
 31
0.0
1001
ACDBBLOCKREPETAG
1070
     1
1071
       74
1005
127DEF
  0
LINE
  5
127DF0
  8
OBJECT
 10
542.00000000000159
 20
-201.0619819999992
 30
0.0
 11
532.99107608744453
 21
-230.53118469673791
 31
0.0
1001
ACDBBLOCKREPETAG
1070
     1
1071
       75
1005
127DF0
  0
LINE
  5
127DF1
  8
OBJECT
 10
547.39199878029285
 20
-199.48677469099479
 30
0.0
 11
542.00000000000159
 21
-201.0619819999992
 31
0.0
1001
ACDBBLOCKREPETAG
1070
     1
1071
       76
1005
127DF1
  0
POINT
  5
127DF2
  8
DOTS
 10
516.0
 20
-220.0
 30
0.0
1001
ACDBBLOCKREPETAG
1070
     1
1071
       39
1005
127DF2
  0
INSERT
  5
127DF3
  8
OBJECT
  2
*U8
 10
0.0
 20
0.0
 30
0.0
  0
LINE
  5
127DF4
  8
OBJECT
 10
469.0
 20
-96.999999999998181
 30
0.0
 11
469.0
 21
-89.999999999998181
 31
0.0
1001
ACDBBLOCKREPETAG
1070
     1
1071
        1
1005
127DF4
  0
LINE
  5
127DF5
  8
OBJECT
 10
469.0
 20
-89.999999999998181
 30
0.0
 11
563.0
 21
-89.999999999998181
 31
0.0
1001
ACDBBLOCKREPETAG
1070
     1
1071
        2
1005
127DF5
  0
LINE
  5
127DF6
  8
OBJECT
 10
563.0
 20
-89.999999999998181
 30
0.0
 11
563.0
 21
-96.999999999998181
 31
0.0
1001
ACDBBLOCKREPETAG
1070
     1
1071
        3
1005
127DF6
  0
LINE
  5
127DF7
  8
OBJECT
 10
563.0
 20
-96.999999999998181
 30
0.0
 11
469.0
 21
-96.999999999998181
 31
0.0
1001
ACDBBLOCKREPETAG
1070
     1
1071
        4
1005
127DF7
  0
LINE
  5
127DF8
  8
OBJECT
 10
472.0
 20
-96.999999999998181
 30
0.0
 11
472.0
 21
-132.99999999999821
 31
0.0
1001
ACDBBLOCKREPETAG
1070
     1
1071
        5
1005
127DF8
  0
LINE
  5
127DF9
  8
OBJECT
 10
472.0
 20
-132.99999999999821
 30
0.0
 11
560.0
 21
-132.99999999999821
 31
0.0
1001
ACDBBLOCKREPETAG
1070
     1
1071
        6
1005
127DF9
  0
LINE
  5
127DFA
  8
OBJECT
 10
560.0
 20
-132.99999999999821
 30
0.0
 11
560.0
 21
-96.999999999998181
 31
0.0
1001
ACDBBLOCKREPETAG
1070
     1
1071
        7
1005
127DFA
  0
LINE
  5
127DFB
  8
OBJECT
 10
476.49999999999989
 20
-136.99999999999821
 30
0.0
 11
476.49999999999989
 21
-143.9999999999981
 31
0.0
1001
ACDBBLOCKREPETAG
1070
     1
1071
        8
1005
127DFB
  0
LINE
  5
127DFC
  8
OBJECT
 10
555.49999999999977
 20
-143.9999999999981
 30
0.0
 11
555.49999999999977
 21
-136.99999999999821
 31
0.0
1001
ACDBBLOCKREPETAG
1070
     1
1071
        9
1005
127DFC
  0
LINE
  5
127DFD
  8
OBJECT
 10
555.49999999999977
 20
-136.99999999999821
 30
0.0
 11
476.49999999999989
 21
-136.99999999999821
 31
0.0
1001
ACDBBLOCKREPETAG
1070
     1
1071
       10
1005
127DFD
  0
LINE
  5
127DFE
  8
OBJECT
 10
472.0
 20
-132.99999999999821
 30
0.0
 11
476.49999999999989
 21
-136.99999999999821
 31
0.0
1001
ACDBBLOCKREPETAG
1070
     1
1071
       11
1005
127DFE
  0
LINE
  5
127DFF
  8
OBJECT
 10
560.0
 20
-132.99999999999821
 30
0.0
 11
555.49999999999977
 21
-136.99999999999821
 31
0.0
1001
ACDBBLOCKREPETAG
1070
     1
1071
       12
1005
127DFF
  0
LINE
  5
127E00
  8
OBJECT
 10
454.0
 20
-146.99999999999719
 30
0.0
 11
454.0
 21
-149.99999999999821
 31
0.0
1001
ACDBBLOCKREPETAG
1070
     1
1071
       13
1005
127E00
  0
ARC
  5
127E01
  8
OBJECT
 10
457.0
 20
-146.99999999999719
 30
0.0
 40
3.0
 50
90.0
 51
180.0
1001
ACDBBLOCKREPETAG
1070
     1
1071
       14
1005
127E01
  0
LINE
  5
127E02
  8
OBJECT
 10
578.0
 20
-149.99999999999821
 30
0.0
 11
578.0
 21
-146.99999999999909
 31
0.0
1001
ACDBBLOCKREPETAG
1070
     1
1071
       15
1005
127E02
  0
ARC
  5
127E03
  8
OBJECT
 10
575.0
 20
-146.99999999999909
 30
0.0
 40
3.0
 50
0.0
 51
90.0
1001
ACDBBLOCKREPETAG
1070
     1
1071
       16
1005
127E03
  0
LINE
  5
127E04
  8
OBJECT
 10
575.0
 20
-143.99999999999909
 30
0.0
 11
457.0
 21
-143.99999999999719
 31
0.0
1001
ACDBBLOCKREPETAG
1070
     1
1071
       17
1005
127E04
  0
LINE
  5
127E05
  8
HIDDEN
 10
486.0
 20
-141.99999999999821
 30
0.0
 11
546.0
 21
-141.99999999999821
 31
0.0
1001
ACDBBLOCKREPETAG
1070
     1
1071
      420
1005
127E05
  0
LINE
  5
127E06
  8
OBJECT
 10
94.0
 20
-293.0
 30
0.0
 11
94.0
 21
-290.0
 31
0.0
1001
ACDBBLOCKREPETAG
1070
     1
1071
      418
1005
127E06
  0
ARC
  5
127E07
  8
OBJECT
 10
97.0
 20
-293.0
 30
0.0
 40
3.0
 50
180.0
 51
270.0
1001
ACDBBLOCKREPETAG
1070
     1
1071
      419
1005
127E07
  0
LINE
  5
127E08
  8
OBJECT
 10
218.0
 20
-290.0
 30
0.0
 11
218.0
 21
-293.0
 31
0.0
1001
ACDBBLOCKREPETAG
1070
     1
1071
      420
1005
127E08
  0
ARC
  5
127E09
  8
OBJECT
 10
215.0
 20
-293.0
 30
0.0
 40
3.0
 50
270.0
 51
0.0
1001
ACDBBLOCKREPETAG
1070
     1
1071
      421
1005
127E09
  0
LINE
  5
127E0A
  8
OBJECT
 10
215.0
 20
-296.0
 30
0.0
 11
97.0
 21
-296.0
 31
0.0
1001
ACDBBLOCKREPETAG
1070
     1
1071
      422
1005
127E0A
  0
INSERT
  5
127E0B
  8
OBJECT
  2
*U9
 10
0.0
 20
0.0
 30
0.0
  0
LINE
  5
127E0C
  8
OBJECT
 10
279.0
 20
-173.0
 30
0.0
 11
286.0
 21
-173.0
 31
0.0
1001
ACDBBLOCKREPETAG
1070
     1
1071
        1
1005
127E0C
  0
LINE
  5
127E0D
  8
OBJECT
 10
286.0
 20
-173.0
 30
0.0
 11
286.0
 21
-267.0
 31
0.0
1001
ACDBBLOCKREPETAG
1070
     1
1071
        2
1005
127E0D
  0
LINE
  5
127E0E
  8
OBJECT
 10
286.0
 20
-267.0
 30
0.0
 11
279.0
 21
-267.0
 31
0.0
1001
ACDBBLOCKREPETAG
1070
     1
1071
        3
1005
127E0E
  0
LINE
  5
127E0F
  8
OBJECT
 10
279.0
 20
-267.0
 30
0.0
 11
279.0
 21
-173.0
 31
0.0
1001
ACDBBLOCKREPETAG
1070
     1
1071
        4
1005
127E0F
  0
LINE
  5
127E10
  8
OBJECT
 10
279.0
 20
-176.0
 30
0.0
 11
243.0
 21
-176.0
 31
0.0
1001
ACDBBLOCKREPETAG
1070
     1
1071
        5
1005
127E10
  0
LINE
  5
127E11
  8
OBJECT
 10
243.0
 20
-176.0
 30
0.0
 11
243.0
 21
-264.0
 31
0.0
1001
ACDBBLOCKREPETAG
1070
     1
1071
        6
1005
127E11
  0
LINE
  5
127E12
  8
OBJECT
 10
243.0
 20
-264.0
 30
0.0
 11
279.0
 21
-264.0
 31
0.0
1001
ACDBBLOCKREPETAG
1070
     1
1071
        7
1005
127E12
  0
LINE
  5
127E13
  8
OBJECT
 10
239.0
 20
-180.5
 30
0.0
 11
232.0
 21
-180.5
 31
0.0
1001
ACDBBLOCKREPETAG
1070
     1
1071
        8
1005
127E13
  0
LINE
  5
127E14
  8
OBJECT
 10
232.0
 20
-259.5
 30
0.0
 11
239.0
 21
-259.5
 31
0.0
1001
ACDBBLOCKREPETAG
1070
     1
1071
        9
1005
127E14
  0
LINE
  5
127E15
  8
OBJECT
 10
239.0
 20
-259.5
 30
0.0
 11
239.0
 21
-180.5
 31
0.0
1001
ACDBBLOCKREPETAG
1070
     1
1071
       10
1005
127E15
  0
LINE
  5
127E16
  8
OBJECT
 10
243.0
 20
-176.0
 30
0.0
 11
239.0
 21
-180.5
 31
0.0
1001
ACDBBLOCKREPETAG
1070
     1
1071
       11
1005
127E16
  0
LINE
  5
127E17
  8
OBJECT
 10
243.0
 20
-264.0
 30
0.0
 11
239.0
 21
-259.5
 31
0.0
1001
ACDBBLOCKREPETAG
1070
     1
1071
       12
1005
127E17
  0
LINE
  5
127E18
  8
OBJECT
 10
229.00000000000179
 20
-158.0
 30
0.0
 11
226.0
 21
-158.0
 31
0.0
1001
ACDBBLOCKREPETAG
1070
     1
1071
       13
1005
127E18
  0
ARC
  5
127E19
  8
OBJECT
 10
229.00000000000179
 20
-161.0
 30
0.0
 40
3.0
 50
0.0
 51
90.0
1001
ACDBBLOCKREPETAG
1070
     1
1071
       14
1005
127E19
  0
LINE
  5
127E1A
  8
OBJECT
 10
226.0
 20
-282.0
 30
0.0
 11
228.99999999999821
 21
-282.0
 31
0.0
1001
ACDBBLOCKREPETAG
1070
     1
1071
       15
1005
127E1A
  0
ARC
  5
127E1B
  8
OBJECT
 10
228.99999999999821
 20
-279.0
 30
0.0
 40
3.0
 50
270.0
 51
0.0
1001
ACDBBLOCKREPETAG
1070
     1
1071
       16
1005
127E1B
  0
LINE
  5
127E1C
  8
OBJECT
 10
231.99999999999821
 20
-279.0
 30
0.0
 11
232.00000000000179
 21
-161.0
 31
0.0
1001
ACDBBLOCKREPETAG
1070
     1
1071
       17
1005
127E1C
  0
LINE
  5
127E1D
  8
HIDDEN
 10
234.0
 20
-190.0
 30
0.0
 11
234.0
 21
-250.0
 31
0.0
1001
ACDBBLOCKREPETAG
1070
     1
1071
      424
1005
127E1D
  0
ARC
  5
127E1E
  8
OBJECT
 10
156.0
 20
-220.0
 30
0.0
 40
70.0
 50
152.33955010081621
 51
207.6604498991837
1001
ACDBBLOCKREPETAG
1070
     1
1071
        0
1005
127E1E
  0
CIRCLE
  5
127E1F
  8
OBJECT
 10
156.0
 20
-220.0
 30
0.0
 40
65.0
1001
ACDBBLOCKREPETAG
1070
     1
1071
        1
1005
127E1F
  0
CIRCLE
  5
127E20
  8
OBJECT
 10
156.0
 20
-220.0
 30
0.0
 40
41.0
1001
ACDBBLOCKREPETAG
1070
     1
1071
        2
1005
127E20
  0
CIRCLE
  5
127E21
  8
OBJECT
 10
156.0
 20
-220.0
 30
0.0
 40
58.0
1001
ACDBBLOCKREPETAG
1070
     1
1071
        3
1005
127E21
  0
LINE
  5
127E22
  8
OBJECT
 10
94.0
 20
-149.99999999999821
 30
0.0
 11
94.0
 21
-200.48077870405689
 31
0.0
1001
ACDBBLOCKREPETAG
1070
     1
1071
        4
1005
127E22
  0
LINE
  5
127E23
  8
OBJECT
 10
94.0
 20
-290.0
 30
0.0
 11
94.0
 21
-239.51922129594311
 31
0.0
1001
ACDBBLOCKREPETAG
1070
     1
1071
        5
1005
127E23
  0
LINE
  5
127E24
  8
OBJECT
 10
218.0
 20
-290.0
 30
0.0
 11
218.0
 21
-282.0
 31
0.0
1001
ACDBBLOCKREPETAG
1070
     1
1071
        6
1005
127E24
  0
LINE
  5
127E25
  8
OBJECT
 10
226.0
 20
-282.0
 30
0.0
 11
218.0
 21
-282.0
 31
0.0
1001
ACDBBLOCKREPETAG
1070
     1
1071
        7
1005
127E25
  0
LINE
  5
127E26
  8
OBJECT
 10
218.0
 20
-149.99999999999821
 30
0.0
 11
218.0
 21
-158.0
 31
0.0
1001
ACDBBLOCKREPETAG
1070
     1
1071
        8
1005
127E26
  0
LINE
  5
127E27
  8
OBJECT
 10
226.0
 20
-158.0
 30
0.0
 11
218.0
 21
-158.0
 31
0.0
1001
ACDBBLOCKREPETAG
1070
     1
1071
        9
1005
127E27
  0
ARC
  5
127E28
  8
OBJECT
 10
156.0
 20
-220.0
 30
0.0
 40
37.5
 50
33.162766676671247
 51
319.16350249081961
1001
ACDBBLOCKREPETAG
1070
     1
1071
       13
1005
127E28
  0
LINE
  5
127E29
  8
OBJECT
 10
201.96194077712559
 20
-265.96194077712562
 30
0.0
 11
218.0
 21
-282.0
 31
0.0
1001
ACDBBLOCKREPETAG
1070
     1
1071
       21
1005
127E29
  0
LINE
  5
127E2A
  8
OBJECT
 10
201.96194077712559
 20
-174.03805922287441
 30
0.0
 11
218.0
 21
-158.0
 31
0.0
1001
ACDBBLOCKREPETAG
1070
     1
1071
       22
1005
127E2A
  0
ARC
  5
127E2B
  8
OBJECT
 10
180.44352901899211
 20
-230.09723786081301
 30
0.0
 40
7.0
 50
163.00127222951571
 51
244.05025878932179
1001
ACDBBLOCKREPETAG
1070
     1
1071
       70
1005
127E2B
  0
ARC
  5
127E2C
  8
OBJECT
 10
181.59787731695181
 20
-233.1623389293527
 30
0.0
 40
9.0
 50
163.00127222951571
 51
244.050263925937
1001
ACDBBLOCKREPETAG
1070
     1
1071
       71
1005
127E2C
  0
ARC
  5
127E2D
  8
OBJECT
 10
103.2813003114825
 20
-323.6857698684471
 30
0.0
 40
150.0
 50
52.895033739929247
 51
55.89314996963072
1001
ACDBBLOCKREPETAG
1070
     1
1071
       72
1005
127E2D
  0
LINE
  5
127E2E
  8
OBJECT
 10
177.3804510089721
 20
-236.39148548102821
 30
0.0
 11
190.19158700000111
 21
-242.62598900000009
 31
0.0
1001
ACDBBLOCKREPETAG
1070
     1
1071
       73
1005
127E2E
  0
LINE
  5
127E2F
  8
OBJECT
 10
177.65963488670599
 20
-241.25494336553669
 30
0.0
 11
187.61836000000039
 21
-246.10132800000429
 31
0.0
1001
ACDBBLOCKREPETAG
1070
     1
1071
       74
1005
127E2F
  0
LINE
  5
127E30
  8
OBJECT
 10
182.00000000000171
 20
-201.0619819999992
 30
0.0
 11
172.9910760874445
 21
-230.53118469673791
 31
0.0
1001
ACDBBLOCKREPETAG
1070
     1
1071
       75
1005
127E30
  0
LINE
  5
127E31
  8
OBJECT
 10
187.39199878029279
 20
-199.48677469099479
 30
0.0
 11
182.00000000000171
 21
-201.0619819999992
 31
0.0
1001
ACDBBLOCKREPETAG
1070
     1
1071
       76
1005
127E31
  0
POINT
  5
127E32
  8
DOTS
 10
156.0
 20
-220.0
 30
0.0
1001
ACDBBLOCKREPETAG
1070
     1
1071
       39
1005
127E32
  0
INSERT
  5
127E33
  8
OBJECT
  2
*U10
 10
0.0
 20
0.0
 30
0.0
  0
LINE
  5
127E34
  8
OBJECT
 10
109.0
 20
-96.999999999998181
 30
0.0
 11
109.0
 21
-89.999999999998181
 31
0.0
1001
ACDBBLOCKREPETAG
1070
     1
1071
        1
1005
127E34
  0
LINE
  5
127E35
  8
OBJECT
 10
109.0
 20
-89.999999999998181
 30
0.0
 11
203.0
 21
-89.999999999998181
 31
0.0
1001
ACDBBLOCKREPETAG
1070
     1
1071
        2
1005
127E35
  0
LINE
  5
127E36
  8
OBJECT
 10
203.0
 20
-89.999999999998181
 30
0.0
 11
203.0
 21
-96.999999999998181
 31
0.0
1001
ACDBBLOCKREPETAG
1070
     1
1071
        3
1005
127E36
  0
LINE
  5
127E37
  8
OBJECT
 10
203.0
 20
-96.999999999998181
 30
0.0
 11
109.0
 21
-96.999999999998181
 31
0.0
1001
ACDBBLOCKREPETAG
1070
     1
1071
        4
1005
127E37
  0
LINE
  5
127E38
  8
OBJECT
 10
112.0
 20
-96.999999999998181
 30
0.0
 11
112.0
 21
-132.99999999999821
 31
0.0
1001
ACDBBLOCKREPETAG
1070
     1
1071
        5
1005
127E38
  0
LINE
  5
127E39
  8
OBJECT
 10
112.0
 20
-132.99999999999821
 30
0.0
 11
200.0
 21
-132.99999999999821
 31
0.0
1001
ACDBBLOCKREPETAG
1070
     1
1071
        6
1005
127E39
  0
LINE
  5
127E3A
  8
OBJECT
 10
200.0
 20
-132.99999999999821
 30
0.0
 11
200.0
 21
-96.999999999998181
 31
0.0
1001
ACDBBLOCKREPETAG
1070
     1
1071
        7
1005
127E3A
  0
LINE
  5
127E3B
  8
OBJECT
 10
116.5
 20
-136.99999999999821
 30
0.0
 11
116.5
 21
-143.9999999999981
 31
0.0
1001
ACDBBLOCKREPETAG
1070
     1
1071
        8
1005
127E3B
  0
LINE
  5
127E3C
  8
OBJECT
 10
195.5
 20
-143.9999999999981
 30
0.0
 11
195.5
 21
-136.99999999999821
 31
0.0
1001
ACDBBLOCKREPETAG
1070
     1
1071
        9
1005
127E3C
  0
LINE
  5
127E3D
  8
OBJECT
 10
195.5
 20
-136.99999999999821
 30
0.0
 11
116.5
 21
-136.99999999999821
 31
0.0
1001
ACDBBLOCKREPETAG
1070
     1
1071
       10
1005
127E3D
  0
LINE
  5
127E3E
  8
OBJECT
 10
112.0
 20
-132.99999999999821
 30
0.0
 11
116.5
 21
-136.99999999999821
 31
0.0
1001
ACDBBLOCKREPETAG
1070
     1
1071
       11
1005
127E3E
  0
LINE
  5
127E3F
  8
OBJECT
 10
200.0
 20
-132.99999999999821
 30
0.0
 11
195.5
 21
-136.99999999999821
 31
0.0
1001
ACDBBLOCKREPETAG
1070
     1
1071
       12
1005
127E3F
  0
LINE
  5
127E40
  8
OBJECT
 10
94.0
 20
-146.99999999999719
 30
0.0
 11
94.0
 21
-149.99999999999821
 31
0.0
1001
ACDBBLOCKREPETAG
1070
     1
1071
       13
1005
127E40
  0
ARC
  5
127E41
  8
OBJECT
 10
97.0
 20
-146.99999999999719
 30
0.0
 40
3.0
 50
90.0
 51
180.0
1001
ACDBBLOCKREPETAG
1070
     1
1071
       14
1005
127E41
  0
LINE
  5
127E42
  8
OBJECT
 10
218.0
 20
-149.99999999999821
 30
0.0
 11
218.0
 21
-146.99999999999909
 31
0.0
1001
ACDBBLOCKREPETAG
1070
     1
1071
       15
1005
127E42
  0
ARC
  5
127E43
  8
OBJECT
 10
215.0
 20
-146.99999999999909
 30
0.0
 40
3.0
 50
0.0
 51
90.0
1001
ACDBBLOCKREPETAG
1070
     1
1071
       16
1005
127E43
  0
LINE
  5
127E44
  8
OBJECT
 10
215.0
 20
-143.99999999999909
 30
0.0
 11
97.0
 21
-143.99999999999719
 31
0.0
1001
ACDBBLOCKREPETAG
1070
     1
1071
       17
1005
127E44
  0
LINE
  5
127E45
  8
HIDDEN
 10
126.0
 20
-141.99999999999821
 30
0.0
 11
186.0
 21
-141.99999999999821
 31
0.0
1001
ACDBBLOCKREPETAG
1070
     1
1071
      420
1005
127E45
  0
POLYLINE
  5
127E46
  8
HIDDEN
 66
     1
 10
0.0
 20
0.0
 30
0.0
 70
     1
1001
ACDBBLOCKREPETAG
1070
     1
1071
      105
1005
0
  0
VERTEX
  5
1285AA
  8
HIDDEN
 10
359.99999999987818
 20
0.0
 30
0.0
  0
VERTEX
  5
1285AB
  8
HIDDEN
 10
719.99999999975626
 20
0.0
 30
0.0
  0
VERTEX
  5
1285AC
  8
HIDDEN
 10
719.99999999975626
 20
-463.99999999984158
 30
0.0
  0
VERTEX
  5
1285AD
  8
HIDDEN
 10
359.99999999987818
 20
-463.99999999984158
 30
0.0
  0
SEQEND
  5
1285AE
  8
HIDDEN
  0
POLYLINE
  5
127E47
  8
HIDDEN
 66
     1
 10
0.0
 20
0.0
 30
0.0
 70
     1
1001
ACDBBLOCKREPETAG
1070
     1
1071
      110
1005
0
  0
VERTEX
  5
1285AF
  8
HIDDEN
 10
0.0
 20
0.0
 30
0.0
  0
VERTEX
  5
1285B0
  8
HIDDEN
 10
359.99999999987818
 20
0.0
 30
0.0
  0
VERTEX
  5
1285B1
  8
HIDDEN
 10
359.99999999987818
 20
-463.99999999984158
 30
0.0
  0
VERTEX
  5
1285B2
  8
HIDDEN
 10
0.0
 20
-463.99999999984158
 30
0.0
  0
SEQEND
  5
1285B3
  8
HIDDEN
  0
POLYLINE
  5
127E48
  8
HIDDEN
 66
     1
 10
0.0
 20
0.0
 30
0.0
 70
     1
1001
ACDBBLOCKREPETAG
1070
     1
1071
      120
1005
0
  0
VERTEX
  5
1285B4
  8
HIDDEN
 10
359.99999999987818
 20
-463.99999999984158
 30
0.0
  0
VERTEX
  5
1285B5
  8
HIDDEN
 10
719.99999999975626
 20
-463.99999999984158
 30
0.0
  0
VERTEX
  5
1285B6
  8
HIDDEN
 10
719.99999999975626
 20
-927.99999999968372
 30
0.0
  0
VERTEX
  5
1285B7
  8
HIDDEN
 10
359.99999999987818
 20
-927.99999999968372
 30
0.0
  0
SEQEND
  5
1285B8
  8
HIDDEN
  0
POLYLINE
  5
127E49
  8
HIDDEN
 66
     1
 10
0.0
 20
0.0
 30
0.0
 70
     1
1001
ACDBBLOCKREPETAG
1070
     1
1071
      125
1005
0
  0
VERTEX
  5
1285B9
  8
HIDDEN
 10
0.0
 20
-463.99999999984158
 30
0.0
  0
VERTEX
  5
1285BA
  8
HIDDEN
 10
359.99999999987818
 20
-463.99999999984158
 30
0.0
  0
VERTEX
  5
1285BB
  8
HIDDEN
 10
359.99999999987818
 20
-927.99999999968372
 30
0.0
  0
VERTEX
  5
1285BC
  8
HIDDEN
 10
0.0
 20
-927.99999999968372
 30
0.0
  0
SEQEND
  5
1285BD
  8
HIDDEN
  0
TEXT
  5
127E4A
  8
SLIM
 10
492.85714285696088
 20
-907.999999999691
 30
0.0
 40
48.0
  1
C22
 41
0.75
1001
ACDBBLOCKREPETAG
1070
     1
1071
      119
1005
0
  0
TEXT
  5
127E4B
  8
SLIM
 10
140.5714285713685
 20
-907.999999999691
 30
0.0
 40
48.0
  1
C21
 41
0.75
1001
ACDBBLOCKREPETAG
1070
     1
1071
      119
1005
0
  0
TEXT
  5
127E4C
  8
SLIM
 10
496.28571428553232
 20
-443.99999999984919
 30
0.0
 40
48.0
  1
C12
 41
0.75
1001
ACDBBLOCKREPETAG
1070
     1
1071
      119
1005
0
  0
TEXT
  5
127E4D
  8
SLIM
 10
143.99999999993989
 20
-443.99999999984919
 30
0.0
 40
48.0
  1
C11
 41
0.75
1001
ACDBBLOCKREPETAG
1070
     1
1071
      119
1005
0
  0
LINE
  5
127E4E
  8
OBJECT
 10
11927.0
 20
-633.99999999999955
 30
0.0
 11
11930.0
 21
-633.99999999999955
 31
0.0
1001
ACDBBLOCKREPETAG
1070
     1
1071
        1
1005
127E4E
  0
ARC
  5
127E4F
  8
OBJECT
 10
11927.0
 20
-636.99999999999955
 30
0.0
 40
3.0
 50
90.0
 51
180.0
1001
ACDBBLOCKREPETAG
1070
     1
1071
        2
1005
127E4F
  0
LINE
  5
127E50
  8
OBJECT
 10
11930.0
 20
-757.99999999999955
 30
0.0
 11
11927.0
 21
-757.99999999999955
 31
0.0
1001
ACDBBLOCKREPETAG
1070
     1
1071
        3
1005
127E50
  0
ARC
  5
127E51
  8
OBJECT
 10
11927.0
 20
-754.99999999999955
 30
0.0
 40
3.0
 50
180.0
 51
270.0
1001
ACDBBLOCKREPETAG
1070
     1
1071
        4
1005
127E51
  0
LINE
  5
127E52
  8
OBJECT
 10
11924.0
 20
-754.99999999999955
 30
0.0
 11
11924.0
 21
-636.99999999999955
 31
0.0
1001
ACDBBLOCKREPETAG
1070
     1
1071
        5
1005
127E52
  0
CIRCLE
  5
127E53
  8
OBJECT
 10
12000.0
 20
-696.0
 30
0.0
 40
62.0
1001
ACDBBLOCKREPETAG
1070
     1
1071
        3
1005
127E53
  0
LINE
  5
127E54
  8
CENTER
 10
11938.0
 20
-711.0
 30
0.0
 11
12062.0
 21
-711.0
 31
0.0
1001
ACDBBLOCKREPETAG
1070
     1
1071
        4
1005
127E54
  0
CIRCLE
  5
127E55
  8
OBJECT
 10
12000.0
 20
-711.0
 30
0.0
 40
28.0
1001
ACDBBLOCKREPETAG
1070
     1
1071
        6
1005
127E55
  0
CIRCLE
  5
127E56
  8
OBJECT
 10
12000.0
 20
-711.0
 30
0.0
 40
39.0
1001
ACDBBLOCKREPETAG
1070
     1
1071
        7
1005
127E56
  0
ARC
  5
127E57
  8
OBJECT
 10
12000.0
 20
-711.0
 30
0.0
 40
47.0
 50
290.58196921144179
 51
249.41803078855821
1001
ACDBBLOCKREPETAG
1070
     1
1071
        8
1005
127E57
  0
LINE
  5
127E58
  8
OBJECT
 10
11983.477288358141
 20
-755.0
 30
0.0
 11
12016.52271164185
 21
-755.0
 31
0.0
1001
ACDBBLOCKREPETAG
1070
     1
1071
        9
1005
127E58
  0
LINE
  5
127E59
  8
OBJECT
 10
11935.0
 20
-549.99999999999955
 30
0.0
 11
11935.0
 21
-570.99999999999955
 31
0.0
1001
ACDBBLOCKREPETAG
1070
     1
1071
       16
1005
127E59
  0
LINE
  5
127E5A
  8
OBJECT
 10
11935.0
 20
-570.99999999999955
 30
0.0
 11
12065.0
 21
-570.99999999999955
 31
0.0
1001
ACDBBLOCKREPETAG
1070
     1
1071
       17
1005
127E5A
  0
LINE
  5
127E5B
  8
OBJECT
 10
12065.0
 20
-570.99999999999955
 30
0.0
 11
12065.0
 21
-549.99999999999955
 31
0.0
1001
ACDBBLOCKREPETAG
1070
     1
1071
       18
1005
127E5B
  0
LINE
  5
127E5C
  8
OBJECT
 10
12065.0
 20
-549.99999999999955
 30
0.0
 11
11935.0
 21
-549.99999999999955
 31
0.0
1001
ACDBBLOCKREPETAG
1070
     1
1071
       19
1005
127E5C
  0
LINE
  5
127E5D
  8
HIDDEN
 10
12044.5
 20
-619.99999999999955
 30
0.0
 11
11955.5
 21
-619.99999999999955
 31
0.0
1001
ACDBBLOCKREPETAG
1070
     1
1071
       20
1005
127E5D
  0
LINE
  5
127E5E
  8
CENTER
 10
12000.0
 20
-769.99999999999955
 30
0.0
 11
12000.0
 21
-534.99999999999955
 31
0.0
1001
ACDBBLOCKREPETAG
1070
     1
1071
       21
1005
127E5E
  0
LINE
  5
127E5F
  8
OBJECT
 10
11940.5
 20
-570.99999999999955
 30
0.0
 11
11940.5
 21
-633.99999999999955
 31
0.0
1001
ACDBBLOCKREPETAG
1070
     1
1071
       22
1005
127E5F
  0
LINE
  5
127E60
  8
OBJECT
 10
11930.0
 20
-633.99999999999955
 30
0.0
 11
12070.0
 21
-633.99999999999955
 31
0.0
1001
ACDBBLOCKREPETAG
1070
     1
1071
       23
1005
127E60
  0
LINE
  5
127E61
  8
OBJECT
 10
12059.5
 20
-633.99999999999955
 30
0.0
 11
12059.5
 21
-570.99999999999955
 31
0.0
1001
ACDBBLOCKREPETAG
1070
     1
1071
       24
1005
127E61
  0
LINE
  5
127E62
  8
OBJECT
 10
11930.0
 20
-757.99999999999955
 30
0.0
 11
11930.0
 21
-769.99999999999955
 31
0.0
1001
ACDBBLOCKREPETAG
1070
     1
1071
       25
1005
127E62
  0
LINE
  5
127E63
  8
OBJECT
 10
11930.0
 20
-769.99999999999955
 30
0.0
 11
12070.0
 21
-769.99999999999955
 31
0.0
1001
ACDBBLOCKREPETAG
1070
     1
1071
       26
1005
127E63
  0
LINE
  5
127E64
  8
OBJECT
 10
12070.0
 20
-769.99999999999955
 30
0.0
 11
12070.0
 21
-757.99999999999955
 31
0.0
1001
ACDBBLOCKREPETAG
1070
     1
1071
       27
1005
127E64
  0
LINE
  5
127E65
  8
OBJECT
 10
12070.0
 20
-757.99999999999955
 30
0.0
 11
11930.0
 21
-757.99999999999955
 31
0.0
1001
ACDBBLOCKREPETAG
1070
     1
1071
       28
1005
127E65
  0
ARC
  5
127E66
  8
OBJECT
 10
12435.038438994679
 20
-998.60813684682694
 30
0.0
 40
519.48776673616965
 50
135.42350667430969
 51
138.50052655621499
1001
ACDBBLOCKREPETAG
1070
     1
1071
       32
1005
127E66
  0
ARC
  5
127E67
  8
OBJECT
 10
12435.038438994679
 20
-393.39186315317193
 30
0.0
 40
519.48776673616965
 50
221.49947344378501
 51
224.57649332569039
1001
ACDBBLOCKREPETAG
1070
     1
1071
       33
1005
127E67
  0
ARC
  5
127E68
  8
OBJECT
 10
11564.961561005321
 20
-998.60813684682694
 30
0.0
 40
519.48776673616965
 50
41.499473443784993
 51
44.576493325690237
1001
ACDBBLOCKREPETAG
1070
     1
1071
       34
1005
127E68
  0
ARC
  5
127E69
  8
OBJECT
 10
11564.961561005321
 20
-393.39186315317193
 30
0.0
 40
519.48776673616965
 50
315.42350667430981
 51
318.50052655621488
1001
ACDBBLOCKREPETAG
1070
     1
1071
       35
1005
127E69
  0
POINT
  5
127E6A
  8
DOTS
 10
12000.0
 20
-754.99999999999955
 30
0.0
1001
ACDBBLOCKREPETAG
1070
     1
1071
      111
1005
127E6A
  0
LINE
  5
127E6B
  8
CENTER
 10
11909.0
 20
-199.99999999999909
 30
0.0
 11
11930.0
 21
-199.99999999999909
 31
0.0
1001
ACDBBLOCKREPETAG
1070
     1
1071
        0
1005
127E6B
  0
LINE
  5
127E6C
  8
OBJECT
 10
11927.0
 20
-261.99999999999909
 30
0.0
 11
11930.0
 21
-261.99999999999909
 31
0.0
1001
ACDBBLOCKREPETAG
1070
     1
1071
        1
1005
127E6C
  0
ARC
  5
127E6D
  8
OBJECT
 10
11927.0
 20
-258.99999999999909
 30
0.0
 40
3.0
 50
180.0
 51
270.0
1001
ACDBBLOCKREPETAG
1070
     1
1071
        2
1005
127E6D
  0
LINE
  5
127E6E
  8
OBJECT
 10
11930.0
 20
-137.99999999999909
 30
0.0
 11
11927.0
 21
-137.99999999999909
 31
0.0
1001
ACDBBLOCKREPETAG
1070
     1
1071
        3
1005
127E6E
  0
ARC
  5
127E6F
  8
OBJECT
 10
11927.0
 20
-140.99999999999909
 30
0.0
 40
3.0
 50
90.0
 51
180.0
1001
ACDBBLOCKREPETAG
1070
     1
1071
        4
1005
127E6F
  0
LINE
  5
127E70
  8
OBJECT
 10
11924.0
 20
-140.99999999999909
 30
0.0
 11
11924.0
 21
-258.99999999999909
 31
0.0
1001
ACDBBLOCKREPETAG
1070
     1
1071
        5
1005
127E70
  0
LINE
  5
127E71
  8
OBJECT
 10
12047.0
 20
-322.99999999999898
 30
0.0
 11
12047.0
 21
-329.99999999999898
 31
0.0
1001
ACDBBLOCKREPETAG
1070
     1
1071
        7
1005
127E71
  0
LINE
  5
127E72
  8
OBJECT
 10
12047.0
 20
-329.99999999999898
 30
0.0
 11
11953.0
 21
-329.99999999999898
 31
0.0
1001
ACDBBLOCKREPETAG
1070
     1
1071
        8
1005
127E72
  0
LINE
  5
127E73
  8
OBJECT
 10
11953.0
 20
-329.99999999999898
 30
0.0
 11
11953.0
 21
-322.99999999999898
 31
0.0
1001
ACDBBLOCKREPETAG
1070
     1
1071
        9
1005
127E73
  0
LINE
  5
127E74
  8
OBJECT
 10
11953.0
 20
-322.99999999999898
 30
0.0
 11
12047.0
 21
-322.99999999999898
 31
0.0
1001
ACDBBLOCKREPETAG
1070
     1
1071
       10
1005
127E74
  0
LINE
  5
127E75
  8
CENTER
 10
12000.0
 20
-344.99999999999909
 30
0.0
 11
12000.0
 21
-269.99999999999909
 31
0.0
1001
ACDBBLOCKREPETAG
1070
     1
1071
       11
1005
127E75
  0
LINE
  5
127E76
  8
OBJECT
 10
12044.0
 20
-322.99999999999898
 30
0.0
 11
12044.0
 21
-286.99999999999898
 31
0.0
1001
ACDBBLOCKREPETAG
1070
     1
1071
       12
1005
127E76
  0
LINE
  5
127E77
  8
OBJECT
 10
12044.0
 20
-286.99999999999898
 30
0.0
 11
11956.0
 21
-286.99999999999898
 31
0.0
1001
ACDBBLOCKREPETAG
1070
     1
1071
       13
1005
127E77
  0
LINE
  5
127E78
  8
OBJECT
 10
11956.0
 20
-286.99999999999898
 30
0.0
 11
11956.0
 21
-322.99999999999898
 31
0.0
1001
ACDBBLOCKREPETAG
1070
     1
1071
       14
1005
127E78
  0
LINE
  5
127E79
  8
OBJECT
 10
12039.5
 20
-282.99999999999898
 30
0.0
 11
12039.5
 21
-275.99999999999909
 31
0.0
1001
ACDBBLOCKREPETAG
1070
     1
1071
       15
1005
127E79
  0
LINE
  5
127E7A
  8
OBJECT
 10
11960.5
 20
-275.99999999999909
 30
0.0
 11
11960.5
 21
-282.99999999999898
 31
0.0
1001
ACDBBLOCKREPETAG
1070
     1
1071
       16
1005
127E7A
  0
LINE
  5
127E7B
  8
OBJECT
 10
11960.5
 20
-282.99999999999898
 30
0.0
 11
12039.5
 21
-282.99999999999898
 31
0.0
1001
ACDBBLOCKREPETAG
1070
     1
1071
       17
1005
127E7B
  0
LINE
  5
127E7C
  8
OBJECT
 10
12044.0
 20
-286.99999999999898
 30
0.0
 11
12039.5
 21
-282.99999999999898
 31
0.0
1001
ACDBBLOCKREPETAG
1070
     1
1071
       18
1005
127E7C
  0
LINE
  5
127E7D
  8
OBJECT
 10
11956.0
 20
-286.99999999999898
 30
0.0
 11
11960.5
 21
-282.99999999999898
 31
0.0
1001
ACDBBLOCKREPETAG
1070
     1
1071
       19
1005
127E7D
  0
LINE
  5
127E7E
  8
OBJECT
 10
12062.0
 20
-272.99999999999909
 30
0.0
 11
12062.0
 21
-269.99999999999909
 31
0.0
1001
ACDBBLOCKREPETAG
1070
     1
1071
       20
1005
127E7E
  0
ARC
  5
127E7F
  8
OBJECT
 10
12059.0
 20
-272.99999999999909
 30
0.0
 40
3.0
 50
270.0
 51
0.0
1001
ACDBBLOCKREPETAG
1070
     1
1071
       21
1005
127E7F
  0
LINE
  5
127E80
  8
OBJECT
 10
11938.0
 20
-269.99999999999909
 30
0.0
 11
11938.0
 21
-272.99999999999909
 31
0.0
1001
ACDBBLOCKREPETAG
1070
     1
1071
       22
1005
127E80
  0
ARC
  5
127E81
  8
OBJECT
 10
11941.0
 20
-272.99999999999909
 30
0.0
 40
3.0
 50
180.0
 51
270.0
1001
ACDBBLOCKREPETAG
1070
     1
1071
       23
1005
127E81
  0
LINE
  5
127E82
  8
OBJECT
 10
11941.0
 20
-275.99999999999909
 30
0.0
 11
12059.0
 21
-275.99999999999909
 31
0.0
1001
ACDBBLOCKREPETAG
1070
     1
1071
       24
1005
127E82
  0
LINE
  5
127E83
  8
HIDDEN
 10
12030.0
 20
-277.99999999999909
 30
0.0
 11
11970.0
 21
-277.99999999999909
 31
0.0
1001
ACDBBLOCKREPETAG
1070
     1
1071
       25
1005
127E83
  0
LINE
  5
127E84
  8
SLIM
 10
11963.217182668241
 20
-137.99999999999909
 30
0.0
 11
11969.921507996291
 21
-131.29567467194681
 31
0.0
1001
GRADIENTCOLOR1ACI
1070
     5
1001
GRADIENTCOLOR2ACI
1070
     2
1001
ACAD
1010
0.0
1020
0.0
1030
0.0
1001
ACDBBLOCKREPETAG
1070
     1
1071
      169
1005
127E84
  0
LINE
  5
127E85
  8
SLIM
 10
11972.19743878931
 20
-137.99999999999909
 30
0.0
 11
11983.31883633275
 21
-126.87860245655401
 31
0.0
1001
GRADIENTCOLOR1ACI
1070
     5
1001
GRADIENTCOLOR2ACI
1070
     2
1001
ACAD
1010
0.0
1020
0.0
1030
0.0
1001
ACDBBLOCKREPETAG
1070
     1
1071
      170
1005
127E85
  0
LINE
  5
127E86
  8
SLIM
 10
11981.48493728876
 20
-137.6927576216126
 30
0.0
 11
11993.9318052486
 21
-125.245889661777
 31
0.0
1001
GRADIENTCOLOR1ACI
1070
     5
1001
GRADIENTCOLOR2ACI
1070
     2
1001
ACAD
1010
0.0
1020
0.0
1030
0.0
1001
ACDBBLOCKREPETAG
1070
     1
1071
      171
1005
127E86
  0
LINE
  5
127E87
  8
SLIM
 10
11992.75265682803
 20
-135.40529420341099
 30
0.0
 11
12000.0
 21
-128.1579510314458
 31
0.0
1001
GRADIENTCOLOR1ACI
1070
     5
1001
GRADIENTCOLOR2ACI
1070
     2
1001
ACAD
1010
0.0
1020
0.0
1030
0.0
1001
ACDBBLOCKREPETAG
1070
     1
1071
      172
1005
127E87
  0
LINE
  5
127E88
  8
SLIM
 10
12000.0
 20
-128.1579510314458
 30
0.0
 11
12003.094100787839
 21
-125.0638502435924
 31
0.0
1001
GRADIENTCOLOR1ACI
1070
     5
1001
GRADIENTCOLOR2ACI
1070
     2
1001
ACAD
1010
0.0
1020
0.0
1030
0.0
1001
ACDBBLOCKREPETAG
1070
     1
1071
      173
1005
127E88
  0
LINE
  5
127E89
  8
SLIM
 10
12002.10414122347
 20
-135.03406592904389
 30
0.0
 11
12011.28442576865
 21
-125.85378138386341
 31
0.0
1001
GRADIENTCOLOR1ACI
1070
     5
1001
GRADIENTCOLOR2ACI
1070
     2
1001
ACAD
1010
0.0
1020
0.0
1030
0.0
1001
ACDBBLOCKREPETAG
1070
     1
1071
      174
1005
127E89
  0
LINE
  5
127E8A
  8
SLIM
 10
12010.297585520921
 20
-135.82087775265759
 30
0.0
 11
12018.73958846552
 21
-127.3788748080627
 31
0.0
1001
GRADIENTCOLOR1ACI
1070
     5
1001
GRADIENTCOLOR2ACI
1070
     2
1001
ACAD
1010
0.0
1020
0.0
1030
0.0
1001
ACDBBLOCKREPETAG
1070
     1
1071
      175
1005
127E8A
  0
LINE
  5
127E8B
  8
SLIM
 10
12017.655079364229
 20
-137.4436400304258
 30
0.0
 11
12025.595886626959
 21
-129.50283276769261
 31
0.0
1001
GRADIENTCOLOR1ACI
1070
     5
1001
GRADIENTCOLOR2ACI
1070
     2
1001
ACAD
1010
0.0
1020
0.0
1030
0.0
1001
ACDBBLOCKREPETAG
1070
     1
1071
      176
1005
127E8B
  0
LINE
  5
127E8C
  8
SLIM
 10
12026.07897551572
 20
-137.99999999999909
 30
0.0
 11
12031.9385859461
 21
-132.1403895696169
 31
0.0
1001
GRADIENTCOLOR1ACI
1070
     5
1001
GRADIENTCOLOR2ACI
1070
     2
1001
ACAD
1010
0.0
1020
0.0
1030
0.0
1001
ACDBBLOCKREPETAG
1070
     1
1071
      177
1005
127E8C
  0
LINE
  5
127E8D
  8
SLIM
 10
12035.059231636789
 20
-137.99999999999909
 30
0.0
 11
12037.82336543762
 21
-135.23586619916779
 31
0.0
1001
GRADIENTCOLOR1ACI
1070
     5
1001
GRADIENTCOLOR2ACI
1070
     2
1001
ACAD
1010
0.0
1020
0.0
1030
0.0
1001
ACDBBLOCKREPETAG
1070
     1
1071
      178
1005
127E8D
  0
CIRCLE
  5
127E8E
  8
OBJECT
 10
12000.0
 20
-199.99999999999909
 30
0.0
 40
65.0
1001
ACDBBLOCKREPETAG
1070
     1
1071
       84
1005
127E8E
  0
CIRCLE
  5
127E8F
  8
OBJECT
 10
12000.0
 20
-199.99999999999909
 30
0.0
 40
41.0
1001
ACDBBLOCKREPETAG
1070
     1
1071
       85
1005
127E8F
  0
CIRCLE
  5
127E90
  8
OBJECT
 10
12000.0
 20
-199.99999999999909
 30
0.0
 40
58.0
1001
ACDBBLOCKREPETAG
1070
     1
1071
       86
1005
127E90
  0
LINE
  5
127E91
  8
OBJECT
 10
12070.0
 20
-137.99999999999909
 30
0.0
 11
12019.519221295939
 21
-137.99999999999909
 31
0.0
1001
ACDBBLOCKREPETAG
1070
     1
1071
       87
1005
127E91
  0
LINE
  5
127E92
  8
OBJECT
 10
11930.0
 20
-137.99999999999909
 30
0.0
 11
11980.48077870405
 21
-137.99999999999909
 31
0.0
1001
ACDBBLOCKREPETAG
1070
     1
1071
       88
1005
127E92
  0
LINE
  5
127E93
  8
OBJECT
 10
11930.0
 20
-261.99999999999909
 30
0.0
 11
11938.0
 21
-261.99999999999909
 31
0.0
1001
ACDBBLOCKREPETAG
1070
     1
1071
       89
1005
127E93
  0
LINE
  5
127E94
  8
OBJECT
 10
11938.0
 20
-269.99999999999909
 30
0.0
 11
11938.0
 21
-261.99999999999909
 31
0.0
1001
ACDBBLOCKREPETAG
1070
     1
1071
       90
1005
127E94
  0
LINE
  5
127E95
  8
OBJECT
 10
12070.0
 20
-261.99999999999909
 30
0.0
 11
12062.0
 21
-261.99999999999909
 31
0.0
1001
ACDBBLOCKREPETAG
1070
     1
1071
       91
1005
127E95
  0
LINE
  5
127E96
  8
OBJECT
 10
12062.0
 20
-269.99999999999909
 30
0.0
 11
12062.0
 21
-261.99999999999909
 31
0.0
1001
ACDBBLOCKREPETAG
1070
     1
1071
       92
1005
127E96
  0
LINE
  5
127E97
  8
CENTER
 10
11930.0
 20
-199.99999999999909
 30
0.0
 11
12070.0
 21
-199.99999999999909
 31
0.0
1001
ACDBBLOCKREPETAG
1070
     1
1071
       93
1005
127E97
  0
LINE
  5
127E98
  8
CENTER
 10
12000.0
 20
-269.99999999999909
 30
0.0
 11
12000.0
 21
-109.9999999999991
 31
0.0
1001
ACDBBLOCKREPETAG
1070
     1
1071
       94
1005
127E98
  0
ARC
  5
127E99
  8
OBJECT
 10
11989.902762139191
 20
-224.44352901899131
 30
0.0
 40
7.0
 50
73.00127222950276
 51
154.0502587892864
1001
ACDBBLOCKREPETAG
1070
     1
1071
       95
1005
127E99
  0
ARC
  5
127E9A
  8
OBJECT
 10
11986.837661070649
 20
-225.5978773169509
 30
0.0
 40
9.0
 50
73.00127222950276
 51
154.0502639259247
1001
ACDBBLOCKREPETAG
1070
     1
1071
       96
1005
127E9A
  0
ARC
  5
127E9B
  8
OBJECT
 10
11896.314230131549
 20
-147.28130031148149
 30
0.0
 40
150.0
 50
322.8950337398245
 51
325.8931499695608
1001
ACDBBLOCKREPETAG
1070
     1
1071
       97
1005
127E9B
  0
ARC
  5
127E9C
  8
OBJECT
 10
12000.0
 20
-199.99999999999909
 30
0.0
 40
37.5
 50
303.16276667665232
 51
229.16350249104781
1001
ACDBBLOCKREPETAG
1070
     1
1071
       98
1005
127E9C
  0
LINE
  5
127E9D
  8
OBJECT
 10
11983.608514518981
 20
-221.38045100897119
 30
0.0
 11
11977.374011
 21
-234.1915870000002
 31
0.0
1001
ACDBBLOCKREPETAG
1070
     1
1071
       99
1005
127E9D
  0
LINE
  5
127E9E
  8
OBJECT
 10
11978.74505663446
 20
-221.65963488670511
 30
0.0
 11
11973.898671999999
 21
-231.6183599999996
 31
0.0
1001
ACDBBLOCKREPETAG
1070
     1
1071
      100
1005
127E9E
  0
LINE
  5
127E9F
  8
OBJECT
 10
12018.938018000001
 20
-226.00000000000091
 30
0.0
 11
11989.468815303249
 21
-216.99107608744359
 31
0.0
1001
ACDBBLOCKREPETAG
1070
     1
1071
      101
1005
127E9F
  0
LINE
  5
127EA0
  8
OBJECT
 10
12020.513225309
 20
-231.39199878029191
 30
0.0
 11
12018.938018000001
 21
-226.00000000000091
 31
0.0
1001
ACDBBLOCKREPETAG
1070
     1
1071
      102
1005
127EA0
  0
LINE
  5
127EA1
  8
OBJECT
 10
11954.03805922287
 20
-245.96194077712289
 30
0.0
 11
11938.0
 21
-261.99999999999909
 31
0.0
1001
ACDBBLOCKREPETAG
1070
     1
1071
      106
1005
127EA1
  0
LINE
  5
127EA2
  8
OBJECT
 10
12045.96194077713
 20
-245.96194077712289
 30
0.0
 11
12062.0
 21
-261.99999999999909
 31
0.0
1001
ACDBBLOCKREPETAG
1070
     1
1071
      107
1005
127EA2
  0
ARC
  5
127EA3
  8
OBJECT
 10
12000.0
 20
-199.99999999999909
 30
0.0
 40
75.0
 50
55.757831297238091
 51
124.2421687027619
1001
ACDBBLOCKREPETAG
1070
     1
1071
      108
1005
127EA3
  0
POINT
  5
127EA4
  8
DOTS
 10
12000.0
 20
-199.99999999999909
 30
0.0
 50
270.0
1001
ACDBBLOCKREPETAG
1070
     1
1071
      157
1005
127EA4
  0
LINE
  5
127EA5
  8
OBJECT
 10
12123.0
 20
-663.99999999999966
 30
0.0
 11
12130.0
 21
-663.99999999999966
 31
0.0
1001
ACDBBLOCKREPETAG
1070
     1
1071
        7
1005
127EA5
  0
LINE
  5
127EA6
  8
OBJECT
 10
12130.0
 20
-663.99999999999966
 30
0.0
 11
12130.0
 21
-754.99999999999955
 31
0.0
1001
ACDBBLOCKREPETAG
1070
     1
1071
        8
1005
127EA6
  0
LINE
  5
127EA7
  8
OBJECT
 10
12123.0
 20
-754.99999999999955
 30
0.0
 11
12123.0
 21
-663.99999999999966
 31
0.0
1001
ACDBBLOCKREPETAG
1070
     1
1071
        9
1005
127EA7
  0
LINE
  5
127EA8
  8
CENTER
 10
12145.0
 20
-710.99999999999955
 30
0.0
 11
12061.0
 21
-710.99999999999955
 31
0.0
1001
ACDBBLOCKREPETAG
1070
     1
1071
       10
1005
127EA8
  0
LINE
  5
127EA9
  8
OBJECT
 10
12123.0
 20
-666.99999999999955
 30
0.0
 11
12087.0
 21
-666.99999999999955
 31
0.0
1001
ACDBBLOCKREPETAG
1070
     1
1071
       11
1005
127EA9
  0
LINE
  5
127EAA
  8
OBJECT
 10
12087.0
 20
-666.99999999999955
 30
0.0
 11
12087.0
 21
-754.99999999999955
 31
0.0
1001
ACDBBLOCKREPETAG
1070
     1
1071
       12
1005
127EAA
  0
LINE
  5
127EAB
  8
OBJECT
 10
12087.0
 20
-754.99999999999955
 30
0.0
 11
12130.0
 21
-754.99999999999955
 31
0.0
1001
ACDBBLOCKREPETAG
1070
     1
1071
       13
1005
127EAB
  0
LINE
  5
127EAC
  8
OBJECT
 10
12083.0
 20
-671.49999999999955
 30
0.0
 11
12076.0
 21
-671.49999999999955
 31
0.0
1001
ACDBBLOCKREPETAG
1070
     1
1071
       14
1005
127EAC
  0
LINE
  5
127EAD
  8
OBJECT
 10
12076.0
 20
-750.49999999999955
 30
0.0
 11
12083.0
 21
-750.49999999999955
 31
0.0
1001
ACDBBLOCKREPETAG
1070
     1
1071
       15
1005
127EAD
  0
LINE
  5
127EAE
  8
OBJECT
 10
12083.0
 20
-750.49999999999955
 30
0.0
 11
12083.0
 21
-671.49999999999955
 31
0.0
1001
ACDBBLOCKREPETAG
1070
     1
1071
       16
1005
127EAE
  0
LINE
  5
127EAF
  8
OBJECT
 10
12087.0
 20
-666.99999999999955
 30
0.0
 11
12083.0
 21
-671.49999999999955
 31
0.0
1001
ACDBBLOCKREPETAG
1070
     1
1071
       17
1005
127EAF
  0
LINE
  5
127EB0
  8
OBJECT
 10
12087.0
 20
-754.99999999999955
 30
0.0
 11
12083.0
 21
-750.49999999999955
 31
0.0
1001
ACDBBLOCKREPETAG
1070
     1
1071
       18
1005
127EB0
  0
LINE
  5
127EB1
  8
OBJECT
 10
12073.0
 20
-633.99999999999955
 30
0.0
 11
12070.0
 21
-633.99999999999955
 31
0.0
1001
ACDBBLOCKREPETAG
1070
     1
1071
       19
1005
127EB1
  0
ARC
  5
127EB2
  8
OBJECT
 10
12073.0
 20
-636.99999999999955
 30
0.0
 40
3.0
 50
0.0
 51
90.0
1001
ACDBBLOCKREPETAG
1070
     1
1071
       20
1005
127EB2
  0
LINE
  5
127EB3
  8
OBJECT
 10
12070.0
 20
-757.99999999999955
 30
0.0
 11
12073.0
 21
-757.99999999999955
 31
0.0
1001
ACDBBLOCKREPETAG
1070
     1
1071
       21
1005
127EB3
  0
ARC
  5
127EB4
  8
OBJECT
 10
12073.0
 20
-754.99999999999955
 30
0.0
 40
3.0
 50
270.0
 51
0.0
1001
ACDBBLOCKREPETAG
1070
     1
1071
       22
1005
127EB4
  0
LINE
  5
127EB5
  8
OBJECT
 10
12076.0
 20
-754.99999999999955
 30
0.0
 11
12076.0
 21
-636.99999999999955
 31
0.0
1001
ACDBBLOCKREPETAG
1070
     1
1071
       23
1005
127EB5
  0
LINE
  5
127EB6
  8
HIDDEN
 10
12078.0
 20
-680.99999999999955
 30
0.0
 11
12078.0
 21
-740.99999999999955
 31
0.0
1001
ACDBBLOCKREPETAG
1070
     1
1071
       24
1005
127EB6
  0
LINE
  5
127EB7
  8
OBJECT
 10
12123.0
 20
-152.99999999999909
 30
0.0
 11
12130.0
 21
-152.99999999999909
 31
0.0
1001
ACDBBLOCKREPETAG
1070
     1
1071
        7
1005
127EB7
  0
LINE
  5
127EB8
  8
OBJECT
 10
12130.0
 20
-152.99999999999909
 30
0.0
 11
12130.0
 21
-246.99999999999909
 31
0.0
1001
ACDBBLOCKREPETAG
1070
     1
1071
        8
1005
127EB8
  0
LINE
  5
127EB9
  8
OBJECT
 10
12130.0
 20
-246.99999999999909
 30
0.0
 11
12123.0
 21
-246.99999999999909
 31
0.0
1001
ACDBBLOCKREPETAG
1070
     1
1071
        9
1005
127EB9
  0
LINE
  5
127EBA
  8
OBJECT
 10
12123.0
 20
-246.99999999999909
 30
0.0
 11
12123.0
 21
-152.99999999999909
 31
0.0
1001
ACDBBLOCKREPETAG
1070
     1
1071
       10
1005
127EBA
  0
LINE
  5
127EBB
  8
CENTER
 10
12145.0
 20
-199.99999999999909
 30
0.0
 11
12070.0
 21
-199.99999999999909
 31
0.0
1001
ACDBBLOCKREPETAG
1070
     1
1071
       11
1005
127EBB
  0
LINE
  5
127EBC
  8
OBJECT
 10
12123.0
 20
-155.99999999999909
 30
0.0
 11
12087.0
 21
-155.99999999999909
 31
0.0
1001
ACDBBLOCKREPETAG
1070
     1
1071
       12
1005
127EBC
  0
LINE
  5
127EBD
  8
OBJECT
 10
12087.0
 20
-155.99999999999909
 30
0.0
 11
12087.0
 21
-243.99999999999909
 31
0.0
1001
ACDBBLOCKREPETAG
1070
     1
1071
       13
1005
127EBD
  0
LINE
  5
127EBE
  8
OBJECT
 10
12087.0
 20
-243.99999999999909
 30
0.0
 11
12123.0
 21
-243.99999999999909
 31
0.0
1001
ACDBBLOCKREPETAG
1070
     1
1071
       14
1005
127EBE
  0
LINE
  5
127EBF
  8
OBJECT
 10
12083.0
 20
-160.49999999999909
 30
0.0
 11
12076.0
 21
-160.49999999999909
 31
0.0
1001
ACDBBLOCKREPETAG
1070
     1
1071
       15
1005
127EBF
  0
LINE
  5
127EC0
  8
OBJECT
 10
12076.0
 20
-239.49999999999909
 30
0.0
 11
12083.0
 21
-239.49999999999909
 31
0.0
1001
ACDBBLOCKREPETAG
1070
     1
1071
       16
1005
127EC0
  0
LINE
  5
127EC1
  8
OBJECT
 10
12083.0
 20
-239.49999999999909
 30
0.0
 11
12083.0
 21
-160.49999999999909
 31
0.0
1001
ACDBBLOCKREPETAG
1070
     1
1071
       17
1005
127EC1
  0
LINE
  5
127EC2
  8
OBJECT
 10
12087.0
 20
-155.99999999999909
 30
0.0
 11
12083.0
 21
-160.49999999999909
 31
0.0
1001
ACDBBLOCKREPETAG
1070
     1
1071
       18
1005
127EC2
  0
LINE
  5
127EC3
  8
OBJECT
 10
12087.0
 20
-243.99999999999909
 30
0.0
 11
12083.0
 21
-239.49999999999909
 31
0.0
1001
ACDBBLOCKREPETAG
1070
     1
1071
       19
1005
127EC3
  0
LINE
  5
127EC4
  8
OBJECT
 10
12073.0
 20
-137.99999999999909
 30
0.0
 11
12070.0
 21
-137.99999999999909
 31
0.0
1001
ACDBBLOCKREPETAG
1070
     1
1071
       20
1005
127EC4
  0
ARC
  5
127EC5
  8
OBJECT
 10
12073.0
 20
-140.99999999999909
 30
0.0
 40
3.0
 50
0.0
 51
90.0
1001
ACDBBLOCKREPETAG
1070
     1
1071
       21
1005
127EC5
  0
LINE
  5
127EC6
  8
OBJECT
 10
12070.0
 20
-261.99999999999909
 30
0.0
 11
12073.0
 21
-261.99999999999909
 31
0.0
1001
ACDBBLOCKREPETAG
1070
     1
1071
       22
1005
127EC6
  0
ARC
  5
127EC7
  8
OBJECT
 10
12073.0
 20
-258.99999999999909
 30
0.0
 40
3.0
 50
270.0
 51
0.0
1001
ACDBBLOCKREPETAG
1070
     1
1071
       23
1005
127EC7
  0
LINE
  5
127EC8
  8
OBJECT
 10
12076.0
 20
-258.99999999999909
 30
0.0
 11
12076.0
 21
-140.99999999999909
 31
0.0
1001
ACDBBLOCKREPETAG
1070
     1
1071
       24
1005
127EC8
  0
LINE
  5
127EC9
  8
HIDDEN
 10
12078.0
 20
-169.99999999999909
 30
0.0
 11
12078.0
 21
-229.99999999999909
 31
0.0
1001
ACDBBLOCKREPETAG
1070
     1
1071
       25
1005
127EC9
  0
LINE
  5
127ECA
  8
OBJECT
 10
9927.0
 20
-633.99999999999955
 30
0.0
 11
9930.0
 21
-633.99999999999955
 31
0.0
1001
ACDBBLOCKREPETAG
1070
     1
1071
        1
1005
127ECA
  0
ARC
  5
127ECB
  8
OBJECT
 10
9927.0
 20
-636.99999999999955
 30
0.0
 40
3.0
 50
90.0
 51
180.0
1001
ACDBBLOCKREPETAG
1070
     1
1071
        2
1005
127ECB
  0
LINE
  5
127ECC
  8
OBJECT
 10
9930.0
 20
-757.99999999999955
 30
0.0
 11
9927.0
 21
-757.99999999999955
 31
0.0
1001
ACDBBLOCKREPETAG
1070
     1
1071
        3
1005
127ECC
  0
ARC
  5
127ECD
  8
OBJECT
 10
9927.0
 20
-754.99999999999955
 30
0.0
 40
3.0
 50
180.0
 51
270.0
1001
ACDBBLOCKREPETAG
1070
     1
1071
        4
1005
127ECD
  0
LINE
  5
127ECE
  8
OBJECT
 10
9924.0
 20
-754.99999999999955
 30
0.0
 11
9924.0
 21
-636.99999999999955
 31
0.0
1001
ACDBBLOCKREPETAG
1070
     1
1071
        5
1005
127ECE
  0
CIRCLE
  5
127ECF
  8
OBJECT
 10
10000.0
 20
-696.0
 30
0.0
 40
62.0
1001
ACDBBLOCKREPETAG
1070
     1
1071
        3
1005
127ECF
  0
LINE
  5
127ED0
  8
CENTER
 10
9938.0
 20
-711.0
 30
0.0
 11
10062.0
 21
-711.0
 31
0.0
1001
ACDBBLOCKREPETAG
1070
     1
1071
        4
1005
127ED0
  0
CIRCLE
  5
127ED1
  8
OBJECT
 10
10000.0
 20
-711.0
 30
0.0
 40
28.0
1001
ACDBBLOCKREPETAG
1070
     1
1071
        6
1005
127ED1
  0
CIRCLE
  5
127ED2
  8
OBJECT
 10
10000.0
 20
-711.0
 30
0.0
 40
39.0
1001
ACDBBLOCKREPETAG
1070
     1
1071
        7
1005
127ED2
  0
ARC
  5
127ED3
  8
OBJECT
 10
10000.0
 20
-711.0
 30
0.0
 40
47.0
 50
290.58196921144179
 51
249.41803078855821
1001
ACDBBLOCKREPETAG
1070
     1
1071
        8
1005
127ED3
  0
LINE
  5
127ED4
  8
OBJECT
 10
9983.4772883581427
 20
-755.0
 30
0.0
 11
10016.52271164185
 21
-755.0
 31
0.0
1001
ACDBBLOCKREPETAG
1070
     1
1071
        9
1005
127ED4
  0
LINE
  5
127ED5
  8
OBJECT
 10
9935.0
 20
-549.99999999999955
 30
0.0
 11
9935.0
 21
-570.99999999999955
 31
0.0
1001
ACDBBLOCKREPETAG
1070
     1
1071
       16
1005
127ED5
  0
LINE
  5
127ED6
  8
OBJECT
 10
9935.0
 20
-570.99999999999955
 30
0.0
 11
10065.0
 21
-570.99999999999955
 31
0.0
1001
ACDBBLOCKREPETAG
1070
     1
1071
       17
1005
127ED6
  0
LINE
  5
127ED7
  8
OBJECT
 10
10065.0
 20
-570.99999999999955
 30
0.0
 11
10065.0
 21
-549.99999999999955
 31
0.0
1001
ACDBBLOCKREPETAG
1070
     1
1071
       18
1005
127ED7
  0
LINE
  5
127ED8
  8
OBJECT
 10
10065.0
 20
-549.99999999999955
 30
0.0
 11
9935.0
 21
-549.99999999999955
 31
0.0
1001
ACDBBLOCKREPETAG
1070
     1
1071
       19
1005
127ED8
  0
LINE
  5
127ED9
  8
HIDDEN
 10
10044.5
 20
-619.99999999999955
 30
0.0
 11
9955.5
 21
-619.99999999999955
 31
0.0
1001
ACDBBLOCKREPETAG
1070
     1
1071
       20
1005
127ED9
  0
LINE
  5
127EDA
  8
CENTER
 10
10000.0
 20
-769.99999999999955
 30
0.0
 11
10000.0
 21
-534.99999999999955
 31
0.0
1001
ACDBBLOCKREPETAG
1070
     1
1071
       21
1005
127EDA
  0
LINE
  5
127EDB
  8
OBJECT
 10
9940.5
 20
-570.99999999999955
 30
0.0
 11
9940.5
 21
-633.99999999999955
 31
0.0
1001
ACDBBLOCKREPETAG
1070
     1
1071
       22
1005
127EDB
  0
LINE
  5
127EDC
  8
OBJECT
 10
9930.0
 20
-633.99999999999955
 30
0.0
 11
10070.0
 21
-633.99999999999955
 31
0.0
1001
ACDBBLOCKREPETAG
1070
     1
1071
       23
1005
127EDC
  0
LINE
  5
127EDD
  8
OBJECT
 10
10059.5
 20
-633.99999999999955
 30
0.0
 11
10059.5
 21
-570.99999999999955
 31
0.0
1001
ACDBBLOCKREPETAG
1070
     1
1071
       24
1005
127EDD
  0
LINE
  5
127EDE
  8
OBJECT
 10
9930.0
 20
-757.99999999999955
 30
0.0
 11
9930.0
 21
-769.99999999999955
 31
0.0
1001
ACDBBLOCKREPETAG
1070
     1
1071
       25
1005
127EDE
  0
LINE
  5
127EDF
  8
OBJECT
 10
9930.0
 20
-769.99999999999955
 30
0.0
 11
10070.0
 21
-769.99999999999955
 31
0.0
1001
ACDBBLOCKREPETAG
1070
     1
1071
       26
1005
127EDF
  0
LINE
  5
127EE0
  8
OBJECT
 10
10070.0
 20
-769.99999999999955
 30
0.0
 11
10070.0
 21
-757.99999999999955
 31
0.0
1001
ACDBBLOCKREPETAG
1070
     1
1071
       27
1005
127EE0
  0
LINE
  5
127EE1
  8
OBJECT
 10
10070.0
 20
-757.99999999999955
 30
0.0
 11
9930.0
 21
-757.99999999999955
 31
0.0
1001
ACDBBLOCKREPETAG
1070
     1
1071
       28
1005
127EE1
  0
ARC
  5
127EE2
  8
OBJECT
 10
10435.03843899467
 20
-998.60813684682694
 30
0.0
 40
519.48776673616965
 50
135.42350667430969
 51
138.50052655621499
1001
ACDBBLOCKREPETAG
1070
     1
1071
       32
1005
127EE2
  0
ARC
  5
127EE3
  8
OBJECT
 10
10435.03843899467
 20
-393.39186315317193
 30
0.0
 40
519.48776673616965
 50
221.49947344378501
 51
224.57649332569039
1001
ACDBBLOCKREPETAG
1070
     1
1071
       33
1005
127EE3
  0
ARC
  5
127EE4
  8
OBJECT
 10
9564.9615610053243
 20
-998.60813684682694
 30
0.0
 40
519.48776673616965
 50
41.499473443784993
 51
44.576493325690237
1001
ACDBBLOCKREPETAG
1070
     1
1071
       34
1005
127EE4
  0
ARC
  5
127EE5
  8
OBJECT
 10
9564.9615610053243
 20
-393.39186315317193
 30
0.0
 40
519.48776673616965
 50
315.42350667430981
 51
318.50052655621488
1001
ACDBBLOCKREPETAG
1070
     1
1071
       35
1005
127EE5
  0
POINT
  5
127EE6
  8
DOTS
 10
10000.0
 20
-754.99999999999955
 30
0.0
1001
ACDBBLOCKREPETAG
1070
     1
1071
      111
1005
127EE6
  0
LINE
  5
127EE7
  8
CENTER
 10
9909.0
 20
-199.99999999999909
 30
0.0
 11
9930.0
 21
-199.99999999999909
 31
0.0
1001
ACDBBLOCKREPETAG
1070
     1
1071
        0
1005
127EE7
  0
LINE
  5
127EE8
  8
OBJECT
 10
9927.0
 20
-261.99999999999909
 30
0.0
 11
9930.0
 21
-261.99999999999909
 31
0.0
1001
ACDBBLOCKREPETAG
1070
     1
1071
        1
1005
127EE8
  0
ARC
  5
127EE9
  8
OBJECT
 10
9927.0
 20
-258.99999999999909
 30
0.0
 40
3.0
 50
180.0
 51
270.0
1001
ACDBBLOCKREPETAG
1070
     1
1071
        2
1005
127EE9
  0
LINE
  5
127EEA
  8
OBJECT
 10
9930.0
 20
-137.99999999999909
 30
0.0
 11
9927.0
 21
-137.99999999999909
 31
0.0
1001
ACDBBLOCKREPETAG
1070
     1
1071
        3
1005
127EEA
  0
ARC
  5
127EEB
  8
OBJECT
 10
9927.0
 20
-140.99999999999909
 30
0.0
 40
3.0
 50
90.0
 51
180.0
1001
ACDBBLOCKREPETAG
1070
     1
1071
        4
1005
127EEB
  0
LINE
  5
127EEC
  8
OBJECT
 10
9924.0
 20
-140.99999999999909
 30
0.0
 11
9924.0
 21
-258.99999999999909
 31
0.0
1001
ACDBBLOCKREPETAG
1070
     1
1071
        5
1005
127EEC
  0
LINE
  5
127EED
  8
OBJECT
 10
10047.0
 20
-322.99999999999898
 30
0.0
 11
10047.0
 21
-329.99999999999898
 31
0.0
1001
ACDBBLOCKREPETAG
1070
     1
1071
        7
1005
127EED
  0
LINE
  5
127EEE
  8
OBJECT
 10
10047.0
 20
-329.99999999999898
 30
0.0
 11
9953.0
 21
-329.99999999999898
 31
0.0
1001
ACDBBLOCKREPETAG
1070
     1
1071
        8
1005
127EEE
  0
LINE
  5
127EEF
  8
OBJECT
 10
9953.0
 20
-329.99999999999898
 30
0.0
 11
9953.0
 21
-322.99999999999898
 31
0.0
1001
ACDBBLOCKREPETAG
1070
     1
1071
        9
1005
127EEF
  0
LINE
  5
127EF0
  8
OBJECT
 10
9953.0
 20
-322.99999999999898
 30
0.0
 11
10047.0
 21
-322.99999999999898
 31
0.0
1001
ACDBBLOCKREPETAG
1070
     1
1071
       10
1005
127EF0
  0
LINE
  5
127EF1
  8
CENTER
 10
10000.0
 20
-344.99999999999909
 30
0.0
 11
10000.0
 21
-269.99999999999909
 31
0.0
1001
ACDBBLOCKREPETAG
1070
     1
1071
       11
1005
127EF1
  0
LINE
  5
127EF2
  8
OBJECT
 10
10044.0
 20
-322.99999999999898
 30
0.0
 11
10044.0
 21
-286.99999999999898
 31
0.0
1001
ACDBBLOCKREPETAG
1070
     1
1071
       12
1005
127EF2
  0
LINE
  5
127EF3
  8
OBJECT
 10
10044.0
 20
-286.99999999999898
 30
0.0
 11
9956.0
 21
-286.99999999999898
 31
0.0
1001
ACDBBLOCKREPETAG
1070
     1
1071
       13
1005
127EF3
  0
LINE
  5
127EF4
  8
OBJECT
 10
9956.0
 20
-286.99999999999898
 30
0.0
 11
9956.0
 21
-322.99999999999898
 31
0.0
1001
ACDBBLOCKREPETAG
1070
     1
1071
       14
1005
127EF4
  0
LINE
  5
127EF5
  8
OBJECT
 10
10039.5
 20
-282.99999999999898
 30
0.0
 11
10039.5
 21
-275.99999999999909
 31
0.0
1001
ACDBBLOCKREPETAG
1070
     1
1071
       15
1005
127EF5
  0
LINE
  5
127EF6
  8
OBJECT
 10
9960.5000000000018
 20
-275.99999999999909
 30
0.0
 11
9960.5000000000018
 21
-282.99999999999898
 31
0.0
1001
ACDBBLOCKREPETAG
1070
     1
1071
       16
1005
127EF6
  0
LINE
  5
127EF7
  8
OBJECT
 10
9960.5000000000018
 20
-282.99999999999898
 30
0.0
 11
10039.5
 21
-282.99999999999898
 31
0.0
1001
ACDBBLOCKREPETAG
1070
     1
1071
       17
1005
127EF7
  0
LINE
  5
127EF8
  8
OBJECT
 10
10044.0
 20
-286.99999999999898
 30
0.0
 11
10039.5
 21
-282.99999999999898
 31
0.0
1001
ACDBBLOCKREPETAG
1070
     1
1071
       18
1005
127EF8
  0
LINE
  5
127EF9
  8
OBJECT
 10
9956.0
 20
-286.99999999999898
 30
0.0
 11
9960.5000000000018
 21
-282.99999999999898
 31
0.0
1001
ACDBBLOCKREPETAG
1070
     1
1071
       19
1005
127EF9
  0
LINE
  5
127EFA
  8
OBJECT
 10
10062.0
 20
-272.99999999999909
 30
0.0
 11
10062.0
 21
-269.99999999999909
 31
0.0
1001
ACDBBLOCKREPETAG
1070
     1
1071
       20
1005
127EFA
  0
ARC
  5
127EFB
  8
OBJECT
 10
10059.0
 20
-272.99999999999909
 30
0.0
 40
3.0
 50
270.0
 51
0.0
1001
ACDBBLOCKREPETAG
1070
     1
1071
       21
1005
127EFB
  0
LINE
  5
127EFC
  8
OBJECT
 10
9938.0
 20
-269.99999999999909
 30
0.0
 11
9938.0
 21
-272.99999999999909
 31
0.0
1001
ACDBBLOCKREPETAG
1070
     1
1071
       22
1005
127EFC
  0
ARC
  5
127EFD
  8
OBJECT
 10
9941.0
 20
-272.99999999999909
 30
0.0
 40
3.0
 50
180.0
 51
270.0
1001
ACDBBLOCKREPETAG
1070
     1
1071
       23
1005
127EFD
  0
LINE
  5
127EFE
  8
OBJECT
 10
9941.0
 20
-275.99999999999909
 30
0.0
 11
10059.0
 21
-275.99999999999909
 31
0.0
1001
ACDBBLOCKREPETAG
1070
     1
1071
       24
1005
127EFE
  0
LINE
  5
127EFF
  8
HIDDEN
 10
10030.0
 20
-277.99999999999909
 30
0.0
 11
9970.0
 21
-277.99999999999909
 31
0.0
1001
ACDBBLOCKREPETAG
1070
     1
1071
       25
1005
127EFF
  0
LINE
  5
127F00
  8
SLIM
 10
9963.2171826682406
 20
-137.99999999999909
 30
0.0
 11
9969.9215079962923
 21
-131.29567467194681
 31
0.0
1001
GRADIENTCOLOR1ACI
1070
     5
1001
GRADIENTCOLOR2ACI
1070
     2
1001
ACAD
1010
0.0
1020
0.0
1030
0.0
1001
ACDBBLOCKREPETAG
1070
     1
1071
      169
1005
127F00
  0
LINE
  5
127F01
  8
SLIM
 10
9972.1974387893097
 20
-137.99999999999909
 30
0.0
 11
9983.3188363327517
 21
-126.87860245655401
 31
0.0
1001
GRADIENTCOLOR1ACI
1070
     5
1001
GRADIENTCOLOR2ACI
1070
     2
1001
ACAD
1010
0.0
1020
0.0
1030
0.0
1001
ACDBBLOCKREPETAG
1070
     1
1071
      170
1005
127F01
  0
LINE
  5
127F02
  8
SLIM
 10
9981.4849372887638
 20
-137.6927576216126
 30
0.0
 11
9993.9318052485996
 21
-125.245889661777
 31
0.0
1001
GRADIENTCOLOR1ACI
1070
     5
1001
GRADIENTCOLOR2ACI
1070
     2
1001
ACAD
1010
0.0
1020
0.0
1030
0.0
1001
ACDBBLOCKREPETAG
1070
     1
1071
      171
1005
127F02
  0
LINE
  5
127F03
  8
SLIM
 10
9992.7526568280355
 20
-135.40529420341099
 30
0.0
 11
10000.0
 21
-128.1579510314458
 31
0.0
1001
GRADIENTCOLOR1ACI
1070
     5
1001
GRADIENTCOLOR2ACI
1070
     2
1001
ACAD
1010
0.0
1020
0.0
1030
0.0
1001
ACDBBLOCKREPETAG
1070
     1
1071
      172
1005
127F03
  0
LINE
  5
127F04
  8
SLIM
 10
10000.0
 20
-128.1579510314458
 30
0.0
 11
10003.09410078785
 21
-125.0638502435924
 31
0.0
1001
GRADIENTCOLOR1ACI
1070
     5
1001
GRADIENTCOLOR2ACI
1070
     2
1001
ACAD
1010
0.0
1020
0.0
1030
0.0
1001
ACDBBLOCKREPETAG
1070
     1
1071
      173
1005
127F04
  0
LINE
  5
127F05
  8
SLIM
 10
10002.10414122347
 20
-135.03406592904389
 30
0.0
 11
10011.28442576865
 21
-125.85378138386341
 31
0.0
1001
GRADIENTCOLOR1ACI
1070
     5
1001
GRADIENTCOLOR2ACI
1070
     2
1001
ACAD
1010
0.0
1020
0.0
1030
0.0
1001
ACDBBLOCKREPETAG
1070
     1
1071
      174
1005
127F05
  0
LINE
  5
127F06
  8
SLIM
 10
10010.297585520921
 20
-135.82087775265759
 30
0.0
 11
10018.73958846552
 21
-127.3788748080627
 31
0.0
1001
GRADIENTCOLOR1ACI
1070
     5
1001
GRADIENTCOLOR2ACI
1070
     2
1001
ACAD
1010
0.0
1020
0.0
1030
0.0
1001
ACDBBLOCKREPETAG
1070
     1
1071
      175
1005
127F06
  0
LINE
  5
127F07
  8
SLIM
 10
10017.65507936422
 20
-137.4436400304258
 30
0.0
 11
10025.595886626959
 21
-129.50283276769261
 31
0.0
1001
GRADIENTCOLOR1ACI
1070
     5
1001
GRADIENTCOLOR2ACI
1070
     2
1001
ACAD
1010
0.0
1020
0.0
1030
0.0
1001
ACDBBLOCKREPETAG
1070
     1
1071
      176
1005
127F07
  0
LINE
  5
127F08
  8
SLIM
 10
10026.07897551572
 20
-137.99999999999909
 30
0.0
 11
10031.9385859461
 21
-132.1403895696169
 31
0.0
1001
GRADIENTCOLOR1ACI
1070
     5
1001
GRADIENTCOLOR2ACI
1070
     2
1001
ACAD
1010
0.0
1020
0.0
1030
0.0
1001
ACDBBLOCKREPETAG
1070
     1
1071
      177
1005
127F08
  0
LINE
  5
127F09
  8
SLIM
 10
10035.05923163678
 20
-137.99999999999909
 30
0.0
 11
10037.82336543762
 21
-135.23586619916779
 31
0.0
1001
GRADIENTCOLOR1ACI
1070
     5
1001
GRADIENTCOLOR2ACI
1070
     2
1001
ACAD
1010
0.0
1020
0.0
1030
0.0
1001
ACDBBLOCKREPETAG
1070
     1
1071
      178
1005
127F09
  0
CIRCLE
  5
127F0A
  8
OBJECT
 10
10000.0
 20
-199.99999999999909
 30
0.0
 40
65.0
1001
ACDBBLOCKREPETAG
1070
     1
1071
       84
1005
127F0A
  0
CIRCLE
  5
127F0B
  8
OBJECT
 10
10000.0
 20
-199.99999999999909
 30
0.0
 40
41.0
1001
ACDBBLOCKREPETAG
1070
     1
1071
       85
1005
127F0B
  0
CIRCLE
  5
127F0C
  8
OBJECT
 10
10000.0
 20
-199.99999999999909
 30
0.0
 40
58.0
1001
ACDBBLOCKREPETAG
1070
     1
1071
       86
1005
127F0C
  0
LINE
  5
127F0D
  8
OBJECT
 10
10070.0
 20
-137.99999999999909
 30
0.0
 11
10019.519221295939
 21
-137.99999999999909
 31
0.0
1001
ACDBBLOCKREPETAG
1070
     1
1071
       87
1005
127F0D
  0
LINE
  5
127F0E
  8
OBJECT
 10
9930.0
 20
-137.99999999999909
 30
0.0
 11
9980.4807787040572
 21
-137.99999999999909
 31
0.0
1001
ACDBBLOCKREPETAG
1070
     1
1071
       88
1005
127F0E
  0
LINE
  5
127F0F
  8
OBJECT
 10
9930.0
 20
-261.99999999999909
 30
0.0
 11
9938.0
 21
-261.99999999999909
 31
0.0
1001
ACDBBLOCKREPETAG
1070
     1
1071
       89
1005
127F0F
  0
LINE
  5
127F10
  8
OBJECT
 10
9938.0
 20
-269.99999999999909
 30
0.0
 11
9938.0
 21
-261.99999999999909
 31
0.0
1001
ACDBBLOCKREPETAG
1070
     1
1071
       90
1005
127F10
  0
LINE
  5
127F11
  8
OBJECT
 10
10070.0
 20
-261.99999999999909
 30
0.0
 11
10062.0
 21
-261.99999999999909
 31
0.0
1001
ACDBBLOCKREPETAG
1070
     1
1071
       91
1005
127F11
  0
LINE
  5
127F12
  8
OBJECT
 10
10062.0
 20
-269.99999999999909
 30
0.0
 11
10062.0
 21
-261.99999999999909
 31
0.0
1001
ACDBBLOCKREPETAG
1070
     1
1071
       92
1005
127F12
  0
LINE
  5
127F13
  8
CENTER
 10
9930.0
 20
-199.99999999999909
 30
0.0
 11
10070.0
 21
-199.99999999999909
 31
0.0
1001
ACDBBLOCKREPETAG
1070
     1
1071
       93
1005
127F13
  0
LINE
  5
127F14
  8
CENTER
 10
10000.0
 20
-269.99999999999909
 30
0.0
 11
10000.0
 21
-109.9999999999991
 31
0.0
1001
ACDBBLOCKREPETAG
1070
     1
1071
       94
1005
127F14
  0
ARC
  5
127F15
  8
OBJECT
 10
9989.9027621391888
 20
-224.44352901899131
 30
0.0
 40
7.0
 50
73.00127222950276
 51
154.0502587892864
1001
ACDBBLOCKREPETAG
1070
     1
1071
       95
1005
127F15
  0
ARC
  5
127F16
  8
OBJECT
 10
9986.8376610706546
 20
-225.5978773169509
 30
0.0
 40
9.0
 50
73.00127222950276
 51
154.0502639259247
1001
ACDBBLOCKREPETAG
1070
     1
1071
       96
1005
127F16
  0
ARC
  5
127F17
  8
OBJECT
 10
9896.3142301315547
 20
-147.28130031148149
 30
0.0
 40
150.0
 50
322.8950337398245
 51
325.8931499695608
1001
ACDBBLOCKREPETAG
1070
     1
1071
       97
1005
127F17
  0
ARC
  5
127F18
  8
OBJECT
 10
10000.0
 20
-199.99999999999909
 30
0.0
 40
37.5
 50
303.16276667665232
 51
229.16350249104781
1001
ACDBBLOCKREPETAG
1070
     1
1071
       98
1005
127F18
  0
LINE
  5
127F19
  8
OBJECT
 10
9983.6085145189809
 20
-221.38045100897119
 30
0.0
 11
9977.3740110000017
 21
-234.1915870000002
 31
0.0
1001
ACDBBLOCKREPETAG
1070
     1
1071
       99
1005
127F19
  0
LINE
  5
127F1A
  8
OBJECT
 10
9978.7450566344633
 20
-221.65963488670511
 30
0.0
 11
9973.8986720000048
 21
-231.6183599999996
 31
0.0
1001
ACDBBLOCKREPETAG
1070
     1
1071
      100
1005
127F1A
  0
LINE
  5
127F1B
  8
OBJECT
 10
10018.938018000001
 20
-226.00000000000091
 30
0.0
 11
9989.4688153032548
 21
-216.99107608744359
 31
0.0
1001
ACDBBLOCKREPETAG
1070
     1
1071
      101
1005
127F1B
  0
LINE
  5
127F1C
  8
OBJECT
 10
10020.513225309
 20
-231.39199878029191
 30
0.0
 11
10018.938018000001
 21
-226.00000000000091
 31
0.0
1001
ACDBBLOCKREPETAG
1070
     1
1071
      102
1005
127F1C
  0
LINE
  5
127F1D
  8
OBJECT
 10
9954.0380592228739
 20
-245.96194077712289
 30
0.0
 11
9938.0
 21
-261.99999999999909
 31
0.0
1001
ACDBBLOCKREPETAG
1070
     1
1071
      106
1005
127F1D
  0
LINE
  5
127F1E
  8
OBJECT
 10
10045.96194077713
 20
-245.96194077712289
 30
0.0
 11
10062.0
 21
-261.99999999999909
 31
0.0
1001
ACDBBLOCKREPETAG
1070
     1
1071
      107
1005
127F1E
  0
ARC
  5
127F1F
  8
OBJECT
 10
10000.0
 20
-199.99999999999909
 30
0.0
 40
75.0
 50
55.757831297238091
 51
124.2421687027619
1001
ACDBBLOCKREPETAG
1070
     1
1071
      108
1005
127F1F
  0
POINT
  5
127F20
  8
DOTS
 10
10000.0
 20
-199.99999999999909
 30
0.0
 50
270.0
1001
ACDBBLOCKREPETAG
1070
     1
1071
      157
1005
127F20
  0
LINE
  5
127F21
  8
OBJECT
 10
10123.0
 20
-663.99999999999966
 30
0.0
 11
10130.0
 21
-663.99999999999966
 31
0.0
1001
ACDBBLOCKREPETAG
1070
     1
1071
        7
1005
127F21
  0
LINE
  5
127F22
  8
OBJECT
 10
10130.0
 20
-663.99999999999966
 30
0.0
 11
10130.0
 21
-754.99999999999955
 31
0.0
1001
ACDBBLOCKREPETAG
1070
     1
1071
        8
1005
127F22
  0
LINE
  5
127F23
  8
OBJECT
 10
10123.0
 20
-754.99999999999955
 30
0.0
 11
10123.0
 21
-663.99999999999966
 31
0.0
1001
ACDBBLOCKREPETAG
1070
     1
1071
        9
1005
127F23
  0
LINE
  5
127F24
  8
CENTER
 10
10145.0
 20
-710.99999999999955
 30
0.0
 11
10061.0
 21
-710.99999999999955
 31
0.0
1001
ACDBBLOCKREPETAG
1070
     1
1071
       10
1005
127F24
  0
LINE
  5
127F25
  8
OBJECT
 10
10123.0
 20
-666.99999999999955
 30
0.0
 11
10087.0
 21
-666.99999999999955
 31
0.0
1001
ACDBBLOCKREPETAG
1070
     1
1071
       11
1005
127F25
  0
LINE
  5
127F26
  8
OBJECT
 10
10087.0
 20
-666.99999999999955
 30
0.0
 11
10087.0
 21
-754.99999999999955
 31
0.0
1001
ACDBBLOCKREPETAG
1070
     1
1071
       12
1005
127F26
  0
LINE
  5
127F27
  8
OBJECT
 10
10087.0
 20
-754.99999999999955
 30
0.0
 11
10130.0
 21
-754.99999999999955
 31
0.0
1001
ACDBBLOCKREPETAG
1070
     1
1071
       13
1005
127F27
  0
LINE
  5
127F28
  8
OBJECT
 10
10083.0
 20
-671.49999999999955
 30
0.0
 11
10076.0
 21
-671.49999999999955
 31
0.0
1001
ACDBBLOCKREPETAG
1070
     1
1071
       14
1005
127F28
  0
LINE
  5
127F29
  8
OBJECT
 10
10076.0
 20
-750.49999999999955
 30
0.0
 11
10083.0
 21
-750.49999999999955
 31
0.0
1001
ACDBBLOCKREPETAG
1070
     1
1071
       15
1005
127F29
  0
LINE
  5
127F2A
  8
OBJECT
 10
10083.0
 20
-750.49999999999955
 30
0.0
 11
10083.0
 21
-671.49999999999955
 31
0.0
1001
ACDBBLOCKREPETAG
1070
     1
1071
       16
1005
127F2A
  0
LINE
  5
127F2B
  8
OBJECT
 10
10087.0
 20
-666.99999999999955
 30
0.0
 11
10083.0
 21
-671.49999999999955
 31
0.0
1001
ACDBBLOCKREPETAG
1070
     1
1071
       17
1005
127F2B
  0
LINE
  5
127F2C
  8
OBJECT
 10
10087.0
 20
-754.99999999999955
 30
0.0
 11
10083.0
 21
-750.49999999999955
 31
0.0
1001
ACDBBLOCKREPETAG
1070
     1
1071
       18
1005
127F2C
  0
LINE
  5
127F2D
  8
OBJECT
 10
10073.0
 20
-633.99999999999955
 30
0.0
 11
10070.0
 21
-633.99999999999955
 31
0.0
1001
ACDBBLOCKREPETAG
1070
     1
1071
       19
1005
127F2D
  0
ARC
  5
127F2E
  8
OBJECT
 10
10073.0
 20
-636.99999999999955
 30
0.0
 40
3.0
 50
0.0
 51
90.0
1001
ACDBBLOCKREPETAG
1070
     1
1071
       20
1005
127F2E
  0
LINE
  5
127F2F
  8
OBJECT
 10
10070.0
 20
-757.99999999999955
 30
0.0
 11
10073.0
 21
-757.99999999999955
 31
0.0
1001
ACDBBLOCKREPETAG
1070
     1
1071
       21
1005
127F2F
  0
ARC
  5
127F30
  8
OBJECT
 10
10073.0
 20
-754.99999999999955
 30
0.0
 40
3.0
 50
270.0
 51
0.0
1001
ACDBBLOCKREPETAG
1070
     1
1071
       22
1005
127F30
  0
LINE
  5
127F31
  8
OBJECT
 10
10076.0
 20
-754.99999999999955
 30
0.0
 11
10076.0
 21
-636.99999999999955
 31
0.0
1001
ACDBBLOCKREPETAG
1070
     1
1071
       23
1005
127F31
  0
LINE
  5
127F32
  8
HIDDEN
 10
10078.0
 20
-680.99999999999955
 30
0.0
 11
10078.0
 21
-740.99999999999955
 31
0.0
1001
ACDBBLOCKREPETAG
1070
     1
1071
       24
1005
127F32
  0
LINE
  5
127F33
  8
OBJECT
 10
10123.0
 20
-152.99999999999909
 30
0.0
 11
10130.0
 21
-152.99999999999909
 31
0.0
1001
ACDBBLOCKREPETAG
1070
     1
1071
        7
1005
127F33
  0
LINE
  5
127F34
  8
OBJECT
 10
10130.0
 20
-152.99999999999909
 30
0.0
 11
10130.0
 21
-246.99999999999909
 31
0.0
1001
ACDBBLOCKREPETAG
1070
     1
1071
        8
1005
127F34
  0
LINE
  5
127F35
  8
OBJECT
 10
10130.0
 20
-246.99999999999909
 30
0.0
 11
10123.0
 21
-246.99999999999909
 31
0.0
1001
ACDBBLOCKREPETAG
1070
     1
1071
        9
1005
127F35
  0
LINE
  5
127F36
  8
OBJECT
 10
10123.0
 20
-246.99999999999909
 30
0.0
 11
10123.0
 21
-152.99999999999909
 31
0.0
1001
ACDBBLOCKREPETAG
1070
     1
1071
       10
1005
127F36
  0
LINE
  5
127F37
  8
CENTER
 10
10145.0
 20
-199.99999999999909
 30
0.0
 11
10070.0
 21
-199.99999999999909
 31
0.0
1001
ACDBBLOCKREPETAG
1070
     1
1071
       11
1005
127F37
  0
LINE
  5
127F38
  8
OBJECT
 10
10123.0
 20
-155.99999999999909
 30
0.0
 11
10087.0
 21
-155.99999999999909
 31
0.0
1001
ACDBBLOCKREPETAG
1070
     1
1071
       12
1005
127F38
  0
LINE
  5
127F39
  8
OBJECT
 10
10087.0
 20
-155.99999999999909
 30
0.0
 11
10087.0
 21
-243.99999999999909
 31
0.0
1001
ACDBBLOCKREPETAG
1070
     1
1071
       13
1005
127F39
  0
LINE
  5
127F3A
  8
OBJECT
 10
10087.0
 20
-243.99999999999909
 30
0.0
 11
10123.0
 21
-243.99999999999909
 31
0.0
1001
ACDBBLOCKREPETAG
1070
     1
1071
       14
1005
127F3A
  0
LINE
  5
127F3B
  8
OBJECT
 10
10083.0
 20
-160.49999999999909
 30
0.0
 11
10076.0
 21
-160.49999999999909
 31
0.0
1001
ACDBBLOCKREPETAG
1070
     1
1071
       15
1005
127F3B
  0
LINE
  5
127F3C
  8
OBJECT
 10
10076.0
 20
-239.49999999999909
 30
0.0
 11
10083.0
 21
-239.49999999999909
 31
0.0
1001
ACDBBLOCKREPETAG
1070
     1
1071
       16
1005
127F3C
  0
LINE
  5
127F3D
  8
OBJECT
 10
10083.0
 20
-239.49999999999909
 30
0.0
 11
10083.0
 21
-160.49999999999909
 31
0.0
1001
ACDBBLOCKREPETAG
1070
     1
1071
       17
1005
127F3D
  0
LINE
  5
127F3E
  8
OBJECT
 10
10087.0
 20
-155.99999999999909
 30
0.0
 11
10083.0
 21
-160.49999999999909
 31
0.0
1001
ACDBBLOCKREPETAG
1070
     1
1071
       18
1005
127F3E
  0
LINE
  5
127F3F
  8
OBJECT
 10
10087.0
 20
-243.99999999999909
 30
0.0
 11
10083.0
 21
-239.49999999999909
 31
0.0
1001
ACDBBLOCKREPETAG
1070
     1
1071
       19
1005
127F3F
  0
LINE
  5
127F40
  8
OBJECT
 10
10073.0
 20
-137.99999999999909
 30
0.0
 11
10070.0
 21
-137.99999999999909
 31
0.0
1001
ACDBBLOCKREPETAG
1070
     1
1071
       20
1005
127F40
  0
ARC
  5
127F41
  8
OBJECT
 10
10073.0
 20
-140.99999999999909
 30
0.0
 40
3.0
 50
0.0
 51
90.0
1001
ACDBBLOCKREPETAG
1070
     1
1071
       21
1005
127F41
  0
LINE
  5
127F42
  8
OBJECT
 10
10070.0
 20
-261.99999999999909
 30
0.0
 11
10073.0
 21
-261.99999999999909
 31
0.0
1001
ACDBBLOCKREPETAG
1070
     1
1071
       22
1005
127F42
  0
ARC
  5
127F43
  8
OBJECT
 10
10073.0
 20
-258.99999999999909
 30
0.0
 40
3.0
 50
270.0
 51
0.0
1001
ACDBBLOCKREPETAG
1070
     1
1071
       23
1005
127F43
  0
LINE
  5
127F44
  8
OBJECT
 10
10076.0
 20
-258.99999999999909
 30
0.0
 11
10076.0
 21
-140.99999999999909
 31
0.0
1001
ACDBBLOCKREPETAG
1070
     1
1071
       24
1005
127F44
  0
LINE
  5
127F45
  8
HIDDEN
 10
10078.0
 20
-169.99999999999909
 30
0.0
 11
10078.0
 21
-229.99999999999909
 31
0.0
1001
ACDBBLOCKREPETAG
1070
     1
1071
       25
1005
127F45
  0
LINE
  5
127F46
  8
OBJECT
 10
7927.0
 20
-633.99999999999955
 30
0.0
 11
7930.0
 21
-633.99999999999955
 31
0.0
1001
ACDBBLOCKREPETAG
1070
     1
1071
        1
1005
127F46
  0
ARC
  5
127F47
  8
OBJECT
 10
7927.0
 20
-636.99999999999955
 30
0.0
 40
3.0
 50
90.0
 51
180.0
1001
ACDBBLOCKREPETAG
1070
     1
1071
        2
1005
127F47
  0
LINE
  5
127F48
  8
OBJECT
 10
7930.0
 20
-757.99999999999955
 30
0.0
 11
7927.0
 21
-757.99999999999955
 31
0.0
1001
ACDBBLOCKREPETAG
1070
     1
1071
        3
1005
127F48
  0
ARC
  5
127F49
  8
OBJECT
 10
7927.0
 20
-754.99999999999955
 30
0.0
 40
3.0
 50
180.0
 51
270.0
1001
ACDBBLOCKREPETAG
1070
     1
1071
        4
1005
127F49
  0
LINE
  5
127F4A
  8
OBJECT
 10
7924.0
 20
-754.99999999999955
 30
0.0
 11
7924.0
 21
-636.99999999999955
 31
0.0
1001
ACDBBLOCKREPETAG
1070
     1
1071
        5
1005
127F4A
  0
CIRCLE
  5
127F4B
  8
OBJECT
 10
8000.0
 20
-696.0
 30
0.0
 40
62.0
1001
ACDBBLOCKREPETAG
1070
     1
1071
        3
1005
127F4B
  0
LINE
  5
127F4C
  8
CENTER
 10
7938.0
 20
-711.0
 30
0.0
 11
8062.0
 21
-711.0
 31
0.0
1001
ACDBBLOCKREPETAG
1070
     1
1071
        4
1005
127F4C
  0
CIRCLE
  5
127F4D
  8
OBJECT
 10
8000.0
 20
-711.0
 30
0.0
 40
28.0
1001
ACDBBLOCKREPETAG
1070
     1
1071
        6
1005
127F4D
  0
CIRCLE
  5
127F4E
  8
OBJECT
 10
8000.0
 20
-711.0
 30
0.0
 40
39.0
1001
ACDBBLOCKREPETAG
1070
     1
1071
        7
1005
127F4E
  0
ARC
  5
127F4F
  8
OBJECT
 10
8000.0
 20
-711.0
 30
0.0
 40
47.0
 50
290.58196921144179
 51
249.41803078855821
1001
ACDBBLOCKREPETAG
1070
     1
1071
        8
1005
127F4F
  0
LINE
  5
127F50
  8
OBJECT
 10
7983.4772883581409
 20
-755.0
 30
0.0
 11
8016.5227116418582
 21
-755.0
 31
0.0
1001
ACDBBLOCKREPETAG
1070
     1
1071
        9
1005
127F50
  0
LINE
  5
127F51
  8
OBJECT
 10
7935.0
 20
-549.99999999999955
 30
0.0
 11
7935.0
 21
-570.99999999999955
 31
0.0
1001
ACDBBLOCKREPETAG
1070
     1
1071
       16
1005
127F51
  0
LINE
  5
127F52
  8
OBJECT
 10
7935.0
 20
-570.99999999999955
 30
0.0
 11
8065.0
 21
-570.99999999999955
 31
0.0
1001
ACDBBLOCKREPETAG
1070
     1
1071
       17
1005
127F52
  0
LINE
  5
127F53
  8
OBJECT
 10
8065.0
 20
-570.99999999999955
 30
0.0
 11
8065.0
 21
-549.99999999999955
 31
0.0
1001
ACDBBLOCKREPETAG
1070
     1
1071
       18
1005
127F53
  0
LINE
  5
127F54
  8
OBJECT
 10
8065.0
 20
-549.99999999999955
 30
0.0
 11
7935.0
 21
-549.99999999999955
 31
0.0
1001
ACDBBLOCKREPETAG
1070
     1
1071
       19
1005
127F54
  0
LINE
  5
127F55
  8
HIDDEN
 10
8044.5000000000036
 20
-619.99999999999955
 30
0.0
 11
7955.5
 21
-619.99999999999955
 31
0.0
1001
ACDBBLOCKREPETAG
1070
     1
1071
       20
1005
127F55
  0
LINE
  5
127F56
  8
CENTER
 10
8000.0
 20
-769.99999999999955
 30
0.0
 11
8000.0
 21
-534.99999999999955
 31
0.0
1001
ACDBBLOCKREPETAG
1070
     1
1071
       21
1005
127F56
  0
LINE
  5
127F57
  8
OBJECT
 10
7940.5
 20
-570.99999999999955
 30
0.0
 11
7940.5
 21
-633.99999999999955
 31
0.0
1001
ACDBBLOCKREPETAG
1070
     1
1071
       22
1005
127F57
  0
LINE
  5
127F58
  8
OBJECT
 10
7930.0
 20
-633.99999999999955
 30
0.0
 11
8070.0
 21
-633.99999999999955
 31
0.0
1001
ACDBBLOCKREPETAG
1070
     1
1071
       23
1005
127F58
  0
LINE
  5
127F59
  8
OBJECT
 10
8059.4999999999982
 20
-633.99999999999955
 30
0.0
 11
8059.4999999999982
 21
-570.99999999999955
 31
0.0
1001
ACDBBLOCKREPETAG
1070
     1
1071
       24
1005
127F59
  0
LINE
  5
127F5A
  8
OBJECT
 10
7930.0
 20
-757.99999999999955
 30
0.0
 11
7930.0
 21
-769.99999999999955
 31
0.0
1001
ACDBBLOCKREPETAG
1070
     1
1071
       25
1005
127F5A
  0
LINE
  5
127F5B
  8
OBJECT
 10
7930.0
 20
-769.99999999999955
 30
0.0
 11
8070.0
 21
-769.99999999999955
 31
0.0
1001
ACDBBLOCKREPETAG
1070
     1
1071
       26
1005
127F5B
  0
LINE
  5
127F5C
  8
OBJECT
 10
8070.0
 20
-769.99999999999955
 30
0.0
 11
8070.0
 21
-757.99999999999955
 31
0.0
1001
ACDBBLOCKREPETAG
1070
     1
1071
       27
1005
127F5C
  0
LINE
  5
127F5D
  8
OBJECT
 10
8070.0
 20
-757.99999999999955
 30
0.0
 11
7930.0
 21
-757.99999999999955
 31
0.0
1001
ACDBBLOCKREPETAG
1070
     1
1071
       28
1005
127F5D
  0
ARC
  5
127F5E
  8
OBJECT
 10
8435.0384389946794
 20
-998.60813684682694
 30
0.0
 40
519.48776673616965
 50
135.42350667430969
 51
138.50052655621499
1001
ACDBBLOCKREPETAG
1070
     1
1071
       32
1005
127F5E
  0
ARC
  5
127F5F
  8
OBJECT
 10
8435.0384389946794
 20
-393.39186315317193
 30
0.0
 40
519.48776673616965
 50
221.49947344378501
 51
224.57649332569039
1001
ACDBBLOCKREPETAG
1070
     1
1071
       33
1005
127F5F
  0
ARC
  5
127F60
  8
OBJECT
 10
7564.9615610053233
 20
-998.60813684682694
 30
0.0
 40
519.48776673616965
 50
41.499473443784993
 51
44.576493325690237
1001
ACDBBLOCKREPETAG
1070
     1
1071
       34
1005
127F60
  0
ARC
  5
127F61
  8
OBJECT
 10
7564.9615610053233
 20
-393.39186315317193
 30
0.0
 40
519.48776673616965
 50
315.42350667430981
 51
318.50052655621488
1001
ACDBBLOCKREPETAG
1070
     1
1071
       35
1005
127F61
  0
POINT
  5
127F62
  8
DOTS
 10
8000.0
 20
-754.99999999999955
 30
0.0
1001
ACDBBLOCKREPETAG
1070
     1
1071
      111
1005
127F62
  0
LINE
  5
127F63
  8
CENTER
 10
7909.0
 20
-199.99999999999909
 30
0.0
 11
7930.0
 21
-199.99999999999909
 31
0.0
1001
ACDBBLOCKREPETAG
1070
     1
1071
        0
1005
127F63
  0
LINE
  5
127F64
  8
OBJECT
 10
7927.0
 20
-261.99999999999909
 30
0.0
 11
7930.0
 21
-261.99999999999909
 31
0.0
1001
ACDBBLOCKREPETAG
1070
     1
1071
        1
1005
127F64
  0
ARC
  5
127F65
  8
OBJECT
 10
7927.0
 20
-258.99999999999909
 30
0.0
 40
3.0
 50
180.0
 51
270.0
1001
ACDBBLOCKREPETAG
1070
     1
1071
        2
1005
127F65
  0
LINE
  5
127F66
  8
OBJECT
 10
7930.0
 20
-137.99999999999909
 30
0.0
 11
7927.0
 21
-137.99999999999909
 31
0.0
1001
ACDBBLOCKREPETAG
1070
     1
1071
        3
1005
127F66
  0
ARC
  5
127F67
  8
OBJECT
 10
7927.0
 20
-140.99999999999909
 30
0.0
 40
3.0
 50
90.0
 51
180.0
1001
ACDBBLOCKREPETAG
1070
     1
1071
        4
1005
127F67
  0
LINE
  5
127F68
  8
OBJECT
 10
7924.0
 20
-140.99999999999909
 30
0.0
 11
7924.0
 21
-258.99999999999909
 31
0.0
1001
ACDBBLOCKREPETAG
1070
     1
1071
        5
1005
127F68
  0
LINE
  5
127F69
  8
OBJECT
 10
8047.0
 20
-322.99999999999898
 30
0.0
 11
8047.0
 21
-329.99999999999898
 31
0.0
1001
ACDBBLOCKREPETAG
1070
     1
1071
        7
1005
127F69
  0
LINE
  5
127F6A
  8
OBJECT
 10
8047.0
 20
-329.99999999999898
 30
0.0
 11
7953.0
 21
-329.99999999999898
 31
0.0
1001
ACDBBLOCKREPETAG
1070
     1
1071
        8
1005
127F6A
  0
LINE
  5
127F6B
  8
OBJECT
 10
7953.0
 20
-329.99999999999898
 30
0.0
 11
7953.0
 21
-322.99999999999898
 31
0.0
1001
ACDBBLOCKREPETAG
1070
     1
1071
        9
1005
127F6B
  0
LINE
  5
127F6C
  8
OBJECT
 10
7953.0
 20
-322.99999999999898
 30
0.0
 11
8047.0
 21
-322.99999999999898
 31
0.0
1001
ACDBBLOCKREPETAG
1070
     1
1071
       10
1005
127F6C
  0
LINE
  5
127F6D
  8
CENTER
 10
8000.0
 20
-344.99999999999909
 30
0.0
 11
8000.0
 21
-269.99999999999909
 31
0.0
1001
ACDBBLOCKREPETAG
1070
     1
1071
       11
1005
127F6D
  0
LINE
  5
127F6E
  8
OBJECT
 10
8044.0
 20
-322.99999999999898
 30
0.0
 11
8044.0
 21
-286.99999999999898
 31
0.0
1001
ACDBBLOCKREPETAG
1070
     1
1071
       12
1005
127F6E
  0
LINE
  5
127F6F
  8
OBJECT
 10
8044.0
 20
-286.99999999999898
 30
0.0
 11
7956.0
 21
-286.99999999999898
 31
0.0
1001
ACDBBLOCKREPETAG
1070
     1
1071
       13
1005
127F6F
  0
LINE
  5
127F70
  8
OBJECT
 10
7956.0
 20
-286.99999999999898
 30
0.0
 11
7956.0
 21
-322.99999999999898
 31
0.0
1001
ACDBBLOCKREPETAG
1070
     1
1071
       14
1005
127F70
  0
LINE
  5
127F71
  8
OBJECT
 10
8039.5
 20
-282.99999999999898
 30
0.0
 11
8039.5
 21
-275.99999999999909
 31
0.0
1001
ACDBBLOCKREPETAG
1070
     1
1071
       15
1005
127F71
  0
LINE
  5
127F72
  8
OBJECT
 10
7960.5
 20
-275.99999999999909
 30
0.0
 11
7960.5
 21
-282.99999999999898
 31
0.0
1001
ACDBBLOCKREPETAG
1070
     1
1071
       16
1005
127F72
  0
LINE
  5
127F73
  8
OBJECT
 10
7960.5
 20
-282.99999999999898
 30
0.0
 11
8039.5
 21
-282.99999999999898
 31
0.0
1001
ACDBBLOCKREPETAG
1070
     1
1071
       17
1005
127F73
  0
LINE
  5
127F74
  8
OBJECT
 10
8044.0
 20
-286.99999999999898
 30
0.0
 11
8039.5
 21
-282.99999999999898
 31
0.0
1001
ACDBBLOCKREPETAG
1070
     1
1071
       18
1005
127F74
  0
LINE
  5
127F75
  8
OBJECT
 10
7956.0
 20
-286.99999999999898
 30
0.0
 11
7960.5
 21
-282.99999999999898
 31
0.0
1001
ACDBBLOCKREPETAG
1070
     1
1071
       19
1005
127F75
  0
LINE
  5
127F76
  8
OBJECT
 10
8062.0
 20
-272.99999999999909
 30
0.0
 11
8062.0
 21
-269.99999999999909
 31
0.0
1001
ACDBBLOCKREPETAG
1070
     1
1071
       20
1005
127F76
  0
ARC
  5
127F77
  8
OBJECT
 10
8059.0
 20
-272.99999999999909
 30
0.0
 40
3.0
 50
270.0
 51
0.0
1001
ACDBBLOCKREPETAG
1070
     1
1071
       21
1005
127F77
  0
LINE
  5
127F78
  8
OBJECT
 10
7938.0
 20
-269.99999999999909
 30
0.0
 11
7938.0
 21
-272.99999999999909
 31
0.0
1001
ACDBBLOCKREPETAG
1070
     1
1071
       22
1005
127F78
  0
ARC
  5
127F79
  8
OBJECT
 10
7941.0
 20
-272.99999999999909
 30
0.0
 40
3.0
 50
180.0
 51
270.0
1001
ACDBBLOCKREPETAG
1070
     1
1071
       23
1005
127F79
  0
LINE
  5
127F7A
  8
OBJECT
 10
7941.0
 20
-275.99999999999909
 30
0.0
 11
8059.0
 21
-275.99999999999909
 31
0.0
1001
ACDBBLOCKREPETAG
1070
     1
1071
       24
1005
127F7A
  0
LINE
  5
127F7B
  8
HIDDEN
 10
8030.0
 20
-277.99999999999909
 30
0.0
 11
7970.0
 21
-277.99999999999909
 31
0.0
1001
ACDBBLOCKREPETAG
1070
     1
1071
       25
1005
127F7B
  0
LINE
  5
127F7C
  8
SLIM
 10
7963.2171826682388
 20
-137.99999999999909
 30
0.0
 11
7969.9215079962914
 21
-131.29567467194681
 31
0.0
1001
GRADIENTCOLOR1ACI
1070
     5
1001
GRADIENTCOLOR2ACI
1070
     2
1001
ACAD
1010
0.0
1020
0.0
1030
0.0
1001
ACDBBLOCKREPETAG
1070
     1
1071
      169
1005
127F7C
  0
LINE
  5
127F7D
  8
SLIM
 10
7972.1974387893079
 20
-137.99999999999909
 30
0.0
 11
7983.3188363327517
 21
-126.87860245655401
 31
0.0
1001
GRADIENTCOLOR1ACI
1070
     5
1001
GRADIENTCOLOR2ACI
1070
     2
1001
ACAD
1010
0.0
1020
0.0
1030
0.0
1001
ACDBBLOCKREPETAG
1070
     1
1071
      170
1005
127F7D
  0
LINE
  5
127F7E
  8
SLIM
 10
7981.4849372887629
 20
-137.6927576216126
 30
0.0
 11
7993.9318052485969
 21
-125.245889661777
 31
0.0
1001
GRADIENTCOLOR1ACI
1070
     5
1001
GRADIENTCOLOR2ACI
1070
     2
1001
ACAD
1010
0.0
1020
0.0
1030
0.0
1001
ACDBBLOCKREPETAG
1070
     1
1071
      171
1005
127F7E
  0
LINE
  5
127F7F
  8
SLIM
 10
7992.7526568280337
 20
-135.40529420341099
 30
0.0
 11
8000.0
 21
-128.1579510314458
 31
0.0
1001
GRADIENTCOLOR1ACI
1070
     5
1001
GRADIENTCOLOR2ACI
1070
     2
1001
ACAD
1010
0.0
1020
0.0
1030
0.0
1001
ACDBBLOCKREPETAG
1070
     1
1071
      172
1005
127F7F
  0
LINE
  5
127F80
  8
SLIM
 10
8000.0
 20
-128.1579510314458
 30
0.0
 11
8003.0941007878528
 21
-125.0638502435924
 31
0.0
1001
GRADIENTCOLOR1ACI
1070
     5
1001
GRADIENTCOLOR2ACI
1070
     2
1001
ACAD
1010
0.0
1020
0.0
1030
0.0
1001
ACDBBLOCKREPETAG
1070
     1
1071
      173
1005
127F80
  0
LINE
  5
127F81
  8
SLIM
 10
8002.1041412234727
 20
-135.03406592904389
 30
0.0
 11
8011.284425768652
 21
-125.85378138386341
 31
0.0
1001
GRADIENTCOLOR1ACI
1070
     5
1001
GRADIENTCOLOR2ACI
1070
     2
1001
ACAD
1010
0.0
1020
0.0
1030
0.0
1001
ACDBBLOCKREPETAG
1070
     1
1071
      174
1005
127F81
  0
LINE
  5
127F82
  8
SLIM
 10
8010.297585520927
 20
-135.82087775265759
 30
0.0
 11
8018.7395884655189
 21
-127.3788748080627
 31
0.0
1001
GRADIENTCOLOR1ACI
1070
     5
1001
GRADIENTCOLOR2ACI
1070
     2
1001
ACAD
1010
0.0
1020
0.0
1030
0.0
1001
ACDBBLOCKREPETAG
1070
     1
1071
      175
1005
127F82
  0
LINE
  5
127F83
  8
SLIM
 10
8017.6550793642282
 20
-137.4436400304258
 30
0.0
 11
8025.5958866269621
 21
-129.50283276769261
 31
0.0
1001
GRADIENTCOLOR1ACI
1070
     5
1001
GRADIENTCOLOR2ACI
1070
     2
1001
ACAD
1010
0.0
1020
0.0
1030
0.0
1001
ACDBBLOCKREPETAG
1070
     1
1071
      176
1005
127F83
  0
LINE
  5
127F84
  8
SLIM
 10
8026.078975515723
 20
-137.99999999999909
 30
0.0
 11
8031.9385859461063
 21
-132.1403895696169
 31
0.0
1001
GRADIENTCOLOR1ACI
1070
     5
1001
GRADIENTCOLOR2ACI
1070
     2
1001
ACAD
1010
0.0
1020
0.0
1030
0.0
1001
ACDBBLOCKREPETAG
1070
     1
1071
      177
1005
127F84
  0
LINE
  5
127F85
  8
SLIM
 10
8035.0592316367947
 20
-137.99999999999909
 30
0.0
 11
8037.8233654376218
 21
-135.23586619916779
 31
0.0
1001
GRADIENTCOLOR1ACI
1070
     5
1001
GRADIENTCOLOR2ACI
1070
     2
1001
ACAD
1010
0.0
1020
0.0
1030
0.0
1001
ACDBBLOCKREPETAG
1070
     1
1071
      178
1005
127F85
  0
CIRCLE
  5
127F86
  8
OBJECT
 10
8000.0
 20
-199.99999999999909
 30
0.0
 40
65.0
1001
ACDBBLOCKREPETAG
1070
     1
1071
       84
1005
127F86
  0
CIRCLE
  5
127F87
  8
OBJECT
 10
8000.0
 20
-199.99999999999909
 30
0.0
 40
41.0
1001
ACDBBLOCKREPETAG
1070
     1
1071
       85
1005
127F87
  0
CIRCLE
  5
127F88
  8
OBJECT
 10
8000.0
 20
-199.99999999999909
 30
0.0
 40
58.0
1001
ACDBBLOCKREPETAG
1070
     1
1071
       86
1005
127F88
  0
LINE
  5
127F89
  8
OBJECT
 10
8070.0
 20
-137.99999999999909
 30
0.0
 11
8019.5192212959419
 21
-137.99999999999909
 31
0.0
1001
ACDBBLOCKREPETAG
1070
     1
1071
       87
1005
127F89
  0
LINE
  5
127F8A
  8
OBJECT
 10
7930.0
 20
-137.99999999999909
 30
0.0
 11
7980.4807787040572
 21
-137.99999999999909
 31
0.0
1001
ACDBBLOCKREPETAG
1070
     1
1071
       88
1005
127F8A
  0
LINE
  5
127F8B
  8
OBJECT
 10
7930.0
 20
-261.99999999999909
 30
0.0
 11
7938.0
 21
-261.99999999999909
 31
0.0
1001
ACDBBLOCKREPETAG
1070
     1
1071
       89
1005
127F8B
  0
LINE
  5
127F8C
  8
OBJECT
 10
7938.0
 20
-269.99999999999909
 30
0.0
 11
7938.0
 21
-261.99999999999909
 31
0.0
1001
ACDBBLOCKREPETAG
1070
     1
1071
       90
1005
127F8C
  0
LINE
  5
127F8D
  8
OBJECT
 10
8070.0
 20
-261.99999999999909
 30
0.0
 11
8062.0
 21
-261.99999999999909
 31
0.0
1001
ACDBBLOCKREPETAG
1070
     1
1071
       91
1005
127F8D
  0
LINE
  5
127F8E
  8
OBJECT
 10
8062.0
 20
-269.99999999999909
 30
0.0
 11
8062.0
 21
-261.99999999999909
 31
0.0
1001
ACDBBLOCKREPETAG
1070
     1
1071
       92
1005
127F8E
  0
LINE
  5
127F8F
  8
CENTER
 10
7930.0
 20
-199.99999999999909
 30
0.0
 11
8070.0
 21
-199.99999999999909
 31
0.0
1001
ACDBBLOCKREPETAG
1070
     1
1071
       93
1005
127F8F
  0
LINE
  5
127F90
  8
CENTER
 10
8000.0
 20
-269.99999999999909
 30
0.0
 11
8000.0
 21
-109.9999999999991
 31
0.0
1001
ACDBBLOCKREPETAG
1070
     1
1071
       94
1005
127F90
  0
ARC
  5
127F91
  8
OBJECT
 10
7989.902762139187
 20
-224.44352901899131
 30
0.0
 40
7.0
 50
73.00127222950276
 51
154.05025878930931
1001
ACDBBLOCKREPETAG
1070
     1
1071
       95
1005
127F91
  0
ARC
  5
127F92
  8
OBJECT
 10
7986.8376610706546
 20
-225.5978773169509
 30
0.0
 40
9.0
 50
73.00127222950276
 51
154.0502639259247
1001
ACDBBLOCKREPETAG
1070
     1
1071
       96
1005
127F92
  0
ARC
  5
127F93
  8
OBJECT
 10
7896.3142301315538
 20
-147.28130031148149
 30
0.0
 40
150.0
 50
322.89503373979312
 51
325.8931499695608
1001
ACDBBLOCKREPETAG
1070
     1
1071
       97
1005
127F93
  0
ARC
  5
127F94
  8
OBJECT
 10
8000.0
 20
-199.99999999999909
 30
0.0
 40
37.5
 50
303.16276667665232
 51
229.16350249100839
1001
ACDBBLOCKREPETAG
1070
     1
1071
       98
1005
127F94
  0
LINE
  5
127F95
  8
OBJECT
 10
7983.60851451898
 20
-221.38045100897119
 30
0.0
 11
7977.3740110000008
 21
-234.1915870000002
 31
0.0
1001
ACDBBLOCKREPETAG
1070
     1
1071
       99
1005
127F95
  0
LINE
  5
127F96
  8
OBJECT
 10
7978.7450566344623
 20
-221.65963488670511
 30
0.0
 11
7973.898672000003
 21
-231.6183599999996
 31
0.0
1001
ACDBBLOCKREPETAG
1070
     1
1071
      100
1005
127F96
  0
LINE
  5
127F97
  8
OBJECT
 10
8018.9380179999998
 20
-226.00000000000091
 30
0.0
 11
7989.4688153032539
 21
-216.99107608744359
 31
0.0
1001
ACDBBLOCKREPETAG
1070
     1
1071
      101
1005
127F97
  0
LINE
  5
127F98
  8
OBJECT
 10
8020.513225309006
 20
-231.39199878029191
 30
0.0
 11
8018.9380179999998
 21
-226.00000000000091
 31
0.0
1001
ACDBBLOCKREPETAG
1070
     1
1071
      102
1005
127F98
  0
LINE
  5
127F99
  8
OBJECT
 10
7954.0380592228739
 20
-245.96194077712289
 30
0.0
 11
7938.0
 21
-261.99999999999909
 31
0.0
1001
ACDBBLOCKREPETAG
1070
     1
1071
      106
1005
127F99
  0
LINE
  5
127F9A
  8
OBJECT
 10
8045.9619407771252
 20
-245.96194077712289
 30
0.0
 11
8062.0
 21
-261.99999999999909
 31
0.0
1001
ACDBBLOCKREPETAG
1070
     1
1071
      107
1005
127F9A
  0
ARC
  5
127F9B
  8
OBJECT
 10
8000.0
 20
-199.99999999999909
 30
0.0
 40
75.0
 50
55.757831297238091
 51
124.2421687027619
1001
ACDBBLOCKREPETAG
1070
     1
1071
      108
1005
127F9B
  0
POINT
  5
127F9C
  8
DOTS
 10
8000.0
 20
-199.99999999999909
 30
0.0
 50
270.0
1001
ACDBBLOCKREPETAG
1070
     1
1071
      157
1005
127F9C
  0
LINE
  5
127F9D
  8
OBJECT
 10
8123.0
 20
-663.99999999999966
 30
0.0
 11
8130.0
 21
-663.99999999999966
 31
0.0
1001
ACDBBLOCKREPETAG
1070
     1
1071
        7
1005
127F9D
  0
LINE
  5
127F9E
  8
OBJECT
 10
8130.0
 20
-663.99999999999966
 30
0.0
 11
8130.0
 21
-754.99999999999955
 31
0.0
1001
ACDBBLOCKREPETAG
1070
     1
1071
        8
1005
127F9E
  0
LINE
  5
127F9F
  8
OBJECT
 10
8123.0
 20
-754.99999999999955
 30
0.0
 11
8123.0
 21
-663.99999999999966
 31
0.0
1001
ACDBBLOCKREPETAG
1070
     1
1071
        9
1005
127F9F
  0
LINE
  5
127FA0
  8
CENTER
 10
8145.0
 20
-710.99999999999955
 30
0.0
 11
8061.0
 21
-710.99999999999955
 31
0.0
1001
ACDBBLOCKREPETAG
1070
     1
1071
       10
1005
127FA0
  0
LINE
  5
127FA1
  8
OBJECT
 10
8123.0
 20
-666.99999999999955
 30
0.0
 11
8087.0
 21
-666.99999999999955
 31
0.0
1001
ACDBBLOCKREPETAG
1070
     1
1071
       11
1005
127FA1
  0
LINE
  5
127FA2
  8
OBJECT
 10
8087.0
 20
-666.99999999999955
 30
0.0
 11
8087.0
 21
-754.99999999999955
 31
0.0
1001
ACDBBLOCKREPETAG
1070
     1
1071
       12
1005
127FA2
  0
LINE
  5
127FA3
  8
OBJECT
 10
8087.0
 20
-754.99999999999955
 30
0.0
 11
8130.0
 21
-754.99999999999955
 31
0.0
1001
ACDBBLOCKREPETAG
1070
     1
1071
       13
1005
127FA3
  0
LINE
  5
127FA4
  8
OBJECT
 10
8083.0
 20
-671.49999999999955
 30
0.0
 11
8076.0
 21
-671.49999999999955
 31
0.0
1001
ACDBBLOCKREPETAG
1070
     1
1071
       14
1005
127FA4
  0
LINE
  5
127FA5
  8
OBJECT
 10
8076.0
 20
-750.49999999999955
 30
0.0
 11
8083.0
 21
-750.49999999999955
 31
0.0
1001
ACDBBLOCKREPETAG
1070
     1
1071
       15
1005
127FA5
  0
LINE
  5
127FA6
  8
OBJECT
 10
8083.0
 20
-750.49999999999955
 30
0.0
 11
8083.0
 21
-671.49999999999955
 31
0.0
1001
ACDBBLOCKREPETAG
1070
     1
1071
       16
1005
127FA6
  0
LINE
  5
127FA7
  8
OBJECT
 10
8087.0
 20
-666.99999999999955
 30
0.0
 11
8083.0
 21
-671.49999999999955
 31
0.0
1001
ACDBBLOCKREPETAG
1070
     1
1071
       17
1005
127FA7
  0
LINE
  5
127FA8
  8
OBJECT
 10
8087.0
 20
-754.99999999999955
 30
0.0
 11
8083.0
 21
-750.49999999999955
 31
0.0
1001
ACDBBLOCKREPETAG
1070
     1
1071
       18
1005
127FA8
  0
LINE
  5
127FA9
  8
OBJECT
 10
8073.0
 20
-633.99999999999955
 30
0.0
 11
8070.0
 21
-633.99999999999955
 31
0.0
1001
ACDBBLOCKREPETAG
1070
     1
1071
       19
1005
127FA9
  0
ARC
  5
127FAA
  8
OBJECT
 10
8073.0
 20
-636.99999999999955
 30
0.0
 40
3.0
 50
0.0
 51
90.0
1001
ACDBBLOCKREPETAG
1070
     1
1071
       20
1005
127FAA
  0
LINE
  5
127FAB
  8
OBJECT
 10
8070.0
 20
-757.99999999999955
 30
0.0
 11
8073.0
 21
-757.99999999999955
 31
0.0
1001
ACDBBLOCKREPETAG
1070
     1
1071
       21
1005
127FAB
  0
ARC
  5
127FAC
  8
OBJECT
 10
8073.0
 20
-754.99999999999955
 30
0.0
 40
3.0
 50
270.0
 51
0.0
1001
ACDBBLOCKREPETAG
1070
     1
1071
       22
1005
127FAC
  0
LINE
  5
127FAD
  8
OBJECT
 10
8076.0
 20
-754.99999999999955
 30
0.0
 11
8076.0
 21
-636.99999999999955
 31
0.0
1001
ACDBBLOCKREPETAG
1070
     1
1071
       23
1005
127FAD
  0
LINE
  5
127FAE
  8
HIDDEN
 10
8078.0
 20
-680.99999999999955
 30
0.0
 11
8078.0
 21
-740.99999999999955
 31
0.0
1001
ACDBBLOCKREPETAG
1070
     1
1071
       24
1005
127FAE
  0
LINE
  5
127FAF
  8
OBJECT
 10
8123.0
 20
-152.99999999999909
 30
0.0
 11
8130.0
 21
-152.99999999999909
 31
0.0
1001
ACDBBLOCKREPETAG
1070
     1
1071
        7
1005
127FAF
  0
LINE
  5
127FB0
  8
OBJECT
 10
8130.0
 20
-152.99999999999909
 30
0.0
 11
8130.0
 21
-246.99999999999909
 31
0.0
1001
ACDBBLOCKREPETAG
1070
     1
1071
        8
1005
127FB0
  0
LINE
  5
127FB1
  8
OBJECT
 10
8130.0
 20
-246.99999999999909
 30
0.0
 11
8123.0
 21
-246.99999999999909
 31
0.0
1001
ACDBBLOCKREPETAG
1070
     1
1071
        9
1005
127FB1
  0
LINE
  5
127FB2
  8
OBJECT
 10
8123.0
 20
-246.99999999999909
 30
0.0
 11
8123.0
 21
-152.99999999999909
 31
0.0
1001
ACDBBLOCKREPETAG
1070
     1
1071
       10
1005
127FB2
  0
LINE
  5
127FB3
  8
CENTER
 10
8145.0
 20
-199.99999999999909
 30
0.0
 11
8070.0
 21
-199.99999999999909
 31
0.0
1001
ACDBBLOCKREPETAG
1070
     1
1071
       11
1005
127FB3
  0
LINE
  5
127FB4
  8
OBJECT
 10
8123.0
 20
-155.99999999999909
 30
0.0
 11
8087.0
 21
-155.99999999999909
 31
0.0
1001
ACDBBLOCKREPETAG
1070
     1
1071
       12
1005
127FB4
  0
LINE
  5
127FB5
  8
OBJECT
 10
8087.0
 20
-155.99999999999909
 30
0.0
 11
8087.0
 21
-243.99999999999909
 31
0.0
1001
ACDBBLOCKREPETAG
1070
     1
1071
       13
1005
127FB5
  0
LINE
  5
127FB6
  8
OBJECT
 10
8087.0
 20
-243.99999999999909
 30
0.0
 11
8123.0
 21
-243.99999999999909
 31
0.0
1001
ACDBBLOCKREPETAG
1070
     1
1071
       14
1005
127FB6
  0
LINE
  5
127FB7
  8
OBJECT
 10
8083.0
 20
-160.49999999999909
 30
0.0
 11
8076.0
 21
-160.49999999999909
 31
0.0
1001
ACDBBLOCKREPETAG
1070
     1
1071
       15
1005
127FB7
  0
LINE
  5
127FB8
  8
OBJECT
 10
8076.0
 20
-239.49999999999909
 30
0.0
 11
8083.0
 21
-239.49999999999909
 31
0.0
1001
ACDBBLOCKREPETAG
1070
     1
1071
       16
1005
127FB8
  0
LINE
  5
127FB9
  8
OBJECT
 10
8083.0
 20
-239.49999999999909
 30
0.0
 11
8083.0
 21
-160.49999999999909
 31
0.0
1001
ACDBBLOCKREPETAG
1070
     1
1071
       17
1005
127FB9
  0
LINE
  5
127FBA
  8
OBJECT
 10
8087.0
 20
-155.99999999999909
 30
0.0
 11
8083.0
 21
-160.49999999999909
 31
0.0
1001
ACDBBLOCKREPETAG
1070
     1
1071
       18
1005
127FBA
  0
LINE
  5
127FBB
  8
OBJECT
 10
8087.0
 20
-243.99999999999909
 30
0.0
 11
8083.0
 21
-239.49999999999909
 31
0.0
1001
ACDBBLOCKREPETAG
1070
     1
1071
       19
1005
127FBB
  0
LINE
  5
127FBC
  8
OBJECT
 10
8073.0
 20
-137.99999999999909
 30
0.0
 11
8070.0
 21
-137.99999999999909
 31
0.0
1001
ACDBBLOCKREPETAG
1070
     1
1071
       20
1005
127FBC
  0
ARC
  5
127FBD
  8
OBJECT
 10
8073.0
 20
-140.99999999999909
 30
0.0
 40
3.0
 50
0.0
 51
90.0
1001
ACDBBLOCKREPETAG
1070
     1
1071
       21
1005
127FBD
  0
LINE
  5
127FBE
  8
OBJECT
 10
8070.0
 20
-261.99999999999909
 30
0.0
 11
8073.0
 21
-261.99999999999909
 31
0.0
1001
ACDBBLOCKREPETAG
1070
     1
1071
       22
1005
127FBE
  0
ARC
  5
127FBF
  8
OBJECT
 10
8073.0
 20
-258.99999999999909
 30
0.0
 40
3.0
 50
270.0
 51
0.0
1001
ACDBBLOCKREPETAG
1070
     1
1071
       23
1005
127FBF
  0
LINE
  5
127FC0
  8
OBJECT
 10
8076.0
 20
-258.99999999999909
 30
0.0
 11
8076.0
 21
-140.99999999999909
 31
0.0
1001
ACDBBLOCKREPETAG
1070
     1
1071
       24
1005
127FC0
  0
LINE
  5
127FC1
  8
HIDDEN
 10
8078.0
 20
-169.99999999999909
 30
0.0
 11
8078.0
 21
-229.99999999999909
 31
0.0
1001
ACDBBLOCKREPETAG
1070
     1
1071
       25
1005
127FC1
  0
LINE
  5
127FC2
  8
OBJECT
 10
5927.0
 20
-633.99999999999955
 30
0.0
 11
5930.0
 21
-633.99999999999955
 31
0.0
1001
ACDBBLOCKREPETAG
1070
     1
1071
        1
1005
127FC2
  0
ARC
  5
127FC3
  8
OBJECT
 10
5927.0
 20
-636.99999999999955
 30
0.0
 40
3.0
 50
90.0
 51
180.0
1001
ACDBBLOCKREPETAG
1070
     1
1071
        2
1005
127FC3
  0
LINE
  5
127FC4
  8
OBJECT
 10
5930.0
 20
-757.99999999999955
 30
0.0
 11
5927.0
 21
-757.99999999999955
 31
0.0
1001
ACDBBLOCKREPETAG
1070
     1
1071
        3
1005
127FC4
  0
ARC
  5
127FC5
  8
OBJECT
 10
5927.0
 20
-754.99999999999955
 30
0.0
 40
3.0
 50
180.0
 51
270.0
1001
ACDBBLOCKREPETAG
1070
     1
1071
        4
1005
127FC5
  0
LINE
  5
127FC6
  8
OBJECT
 10
5924.0
 20
-754.99999999999955
 30
0.0
 11
5924.0
 21
-636.99999999999955
 31
0.0
1001
ACDBBLOCKREPETAG
1070
     1
1071
        5
1005
127FC6
  0
CIRCLE
  5
127FC7
  8
OBJECT
 10
6000.0
 20
-696.0
 30
0.0
 40
62.0
1001
ACDBBLOCKREPETAG
1070
     1
1071
        3
1005
127FC7
  0
LINE
  5
127FC8
  8
CENTER
 10
5938.0
 20
-711.0
 30
0.0
 11
6062.0
 21
-711.0
 31
0.0
1001
ACDBBLOCKREPETAG
1070
     1
1071
        4
1005
127FC8
  0
CIRCLE
  5
127FC9
  8
OBJECT
 10
6000.0
 20
-711.0
 30
0.0
 40
28.0
1001
ACDBBLOCKREPETAG
1070
     1
1071
        6
1005
127FC9
  0
CIRCLE
  5
127FCA
  8
OBJECT
 10
6000.0
 20
-711.0
 30
0.0
 40
39.0
1001
ACDBBLOCKREPETAG
1070
     1
1071
        7
1005
127FCA
  0
ARC
  5
127FCB
  8
OBJECT
 10
6000.0
 20
-711.0
 30
0.0
 40
47.0
 50
290.58196921144179
 51
249.41803078855821
1001
ACDBBLOCKREPETAG
1070
     1
1071
        8
1005
127FCB
  0
LINE
  5
127FCC
  8
OBJECT
 10
5983.4772883581436
 20
-755.0
 30
0.0
 11
6016.5227116418582
 21
-755.0
 31
0.0
1001
ACDBBLOCKREPETAG
1070
     1
1071
        9
1005
127FCC
  0
LINE
  5
127FCD
  8
OBJECT
 10
5935.0
 20
-549.99999999999955
 30
0.0
 11
5935.0
 21
-570.99999999999955
 31
0.0
1001
ACDBBLOCKREPETAG
1070
     1
1071
       16
1005
127FCD
  0
LINE
  5
127FCE
  8
OBJECT
 10
5935.0
 20
-570.99999999999955
 30
0.0
 11
6065.0
 21
-570.99999999999955
 31
0.0
1001
ACDBBLOCKREPETAG
1070
     1
1071
       17
1005
127FCE
  0
LINE
  5
127FCF
  8
OBJECT
 10
6065.0
 20
-570.99999999999955
 30
0.0
 11
6065.0
 21
-549.99999999999955
 31
0.0
1001
ACDBBLOCKREPETAG
1070
     1
1071
       18
1005
127FCF
  0
LINE
  5
127FD0
  8
OBJECT
 10
6065.0
 20
-549.99999999999955
 30
0.0
 11
5935.0
 21
-549.99999999999955
 31
0.0
1001
ACDBBLOCKREPETAG
1070
     1
1071
       19
1005
127FD0
  0
LINE
  5
127FD1
  8
HIDDEN
 10
6044.5
 20
-619.99999999999955
 30
0.0
 11
5955.5
 21
-619.99999999999955
 31
0.0
1001
ACDBBLOCKREPETAG
1070
     1
1071
       20
1005
127FD1
  0
LINE
  5
127FD2
  8
CENTER
 10
6000.0
 20
-769.99999999999955
 30
0.0
 11
6000.0
 21
-534.99999999999955
 31
0.0
1001
ACDBBLOCKREPETAG
1070
     1
1071
       21
1005
127FD2
  0
LINE
  5
127FD3
  8
OBJECT
 10
5940.5
 20
-570.99999999999955
 30
0.0
 11
5940.5
 21
-633.99999999999955
 31
0.0
1001
ACDBBLOCKREPETAG
1070
     1
1071
       22
1005
127FD3
  0
LINE
  5
127FD4
  8
OBJECT
 10
5930.0
 20
-633.99999999999955
 30
0.0
 11
6070.0
 21
-633.99999999999955
 31
0.0
1001
ACDBBLOCKREPETAG
1070
     1
1071
       23
1005
127FD4
  0
LINE
  5
127FD5
  8
OBJECT
 10
6059.4999999999991
 20
-633.99999999999955
 30
0.0
 11
6059.4999999999991
 21
-570.99999999999955
 31
0.0
1001
ACDBBLOCKREPETAG
1070
     1
1071
       24
1005
127FD5
  0
LINE
  5
127FD6
  8
OBJECT
 10
5930.0
 20
-757.99999999999955
 30
0.0
 11
5930.0
 21
-769.99999999999955
 31
0.0
1001
ACDBBLOCKREPETAG
1070
     1
1071
       25
1005
127FD6
  0
LINE
  5
127FD7
  8
OBJECT
 10
5930.0
 20
-769.99999999999955
 30
0.0
 11
6070.0
 21
-769.99999999999955
 31
0.0
1001
ACDBBLOCKREPETAG
1070
     1
1071
       26
1005
127FD7
  0
LINE
  5
127FD8
  8
OBJECT
 10
6070.0
 20
-769.99999999999955
 30
0.0
 11
6070.0
 21
-757.99999999999955
 31
0.0
1001
ACDBBLOCKREPETAG
1070
     1
1071
       27
1005
127FD8
  0
LINE
  5
127FD9
  8
OBJECT
 10
6070.0
 20
-757.99999999999955
 30
0.0
 11
5930.0
 21
-757.99999999999955
 31
0.0
1001
ACDBBLOCKREPETAG
1070
     1
1071
       28
1005
127FD9
  0
ARC
  5
127FDA
  8
OBJECT
 10
6435.0384389946776
 20
-998.60813684682694
 30
0.0
 40
519.48776673616965
 50
135.42350667430969
 51
138.50052655621499
1001
ACDBBLOCKREPETAG
1070
     1
1071
       32
1005
127FDA
  0
ARC
  5
127FDB
  8
OBJECT
 10
6435.0384389946776
 20
-393.39186315317193
 30
0.0
 40
519.48776673616965
 50
221.49947344378501
 51
224.57649332569039
1001
ACDBBLOCKREPETAG
1070
     1
1071
       33
1005
127FDB
  0
ARC
  5
127FDC
  8
OBJECT
 10
5564.9615610053224
 20
-998.60813684682694
 30
0.0
 40
519.48776673616965
 50
41.499473443784993
 51
44.576493325690237
1001
ACDBBLOCKREPETAG
1070
     1
1071
       34
1005
127FDC
  0
ARC
  5
127FDD
  8
OBJECT
 10
5564.9615610053224
 20
-393.39186315317193
 30
0.0
 40
519.48776673616965
 50
315.42350667430981
 51
318.50052655621488
1001
ACDBBLOCKREPETAG
1070
     1
1071
       35
1005
127FDD
  0
POINT
  5
127FDE
  8
DOTS
 10
6000.0
 20
-754.99999999999955
 30
0.0
1001
ACDBBLOCKREPETAG
1070
     1
1071
      111
1005
127FDE
  0
LINE
  5
127FDF
  8
CENTER
 10
5909.0
 20
-199.99999999999909
 30
0.0
 11
5930.0
 21
-199.99999999999909
 31
0.0
1001
ACDBBLOCKREPETAG
1070
     1
1071
        0
1005
127FDF
  0
LINE
  5
127FE0
  8
OBJECT
 10
5927.0
 20
-261.99999999999909
 30
0.0
 11
5930.0
 21
-261.99999999999909
 31
0.0
1001
ACDBBLOCKREPETAG
1070
     1
1071
        1
1005
127FE0
  0
ARC
  5
127FE1
  8
OBJECT
 10
5927.0
 20
-258.99999999999909
 30
0.0
 40
3.0
 50
180.0
 51
270.0
1001
ACDBBLOCKREPETAG
1070
     1
1071
        2
1005
127FE1
  0
LINE
  5
127FE2
  8
OBJECT
 10
5930.0
 20
-137.99999999999909
 30
0.0
 11
5927.0
 21
-137.99999999999909
 31
0.0
1001
ACDBBLOCKREPETAG
1070
     1
1071
        3
1005
127FE2
  0
ARC
  5
127FE3
  8
OBJECT
 10
5927.0
 20
-140.99999999999909
 30
0.0
 40
3.0
 50
90.0
 51
180.0
1001
ACDBBLOCKREPETAG
1070
     1
1071
        4
1005
127FE3
  0
LINE
  5
127FE4
  8
OBJECT
 10
5924.0
 20
-140.99999999999909
 30
0.0
 11
5924.0
 21
-258.99999999999909
 31
0.0
1001
ACDBBLOCKREPETAG
1070
     1
1071
        5
1005
127FE4
  0
LINE
  5
127FE5
  8
OBJECT
 10
6047.0
 20
-322.99999999999898
 30
0.0
 11
6047.0
 21
-329.99999999999898
 31
0.0
1001
ACDBBLOCKREPETAG
1070
     1
1071
        7
1005
127FE5
  0
LINE
  5
127FE6
  8
OBJECT
 10
6047.0
 20
-329.99999999999898
 30
0.0
 11
5953.0
 21
-329.99999999999898
 31
0.0
1001
ACDBBLOCKREPETAG
1070
     1
1071
        8
1005
127FE6
  0
LINE
  5
127FE7
  8
OBJECT
 10
5953.0
 20
-329.99999999999898
 30
0.0
 11
5953.0
 21
-322.99999999999898
 31
0.0
1001
ACDBBLOCKREPETAG
1070
     1
1071
        9
1005
127FE7
  0
LINE
  5
127FE8
  8
OBJECT
 10
5953.0
 20
-322.99999999999898
 30
0.0
 11
6047.0
 21
-322.99999999999898
 31
0.0
1001
ACDBBLOCKREPETAG
1070
     1
1071
       10
1005
127FE8
  0
LINE
  5
127FE9
  8
CENTER
 10
6000.0
 20
-344.99999999999909
 30
0.0
 11
6000.0
 21
-269.99999999999909
 31
0.0
1001
ACDBBLOCKREPETAG
1070
     1
1071
       11
1005
127FE9
  0
LINE
  5
127FEA
  8
OBJECT
 10
6044.0
 20
-322.99999999999898
 30
0.0
 11
6044.0
 21
-286.99999999999898
 31
0.0
1001
ACDBBLOCKREPETAG
1070
     1
1071
       12
1005
127FEA
  0
LINE
  5
127FEB
  8
OBJECT
 10
6044.0
 20
-286.99999999999898
 30
0.0
 11
5956.0
 21
-286.99999999999898
 31
0.0
1001
ACDBBLOCKREPETAG
1070
     1
1071
       13
1005
127FEB
  0
LINE
  5
127FEC
  8
OBJECT
 10
5956.0
 20
-286.99999999999898
 30
0.0
 11
5956.0
 21
-322.99999999999898
 31
0.0
1001
ACDBBLOCKREPETAG
1070
     1
1071
       14
1005
127FEC
  0
LINE
  5
127FED
  8
OBJECT
 10
6039.5
 20
-282.99999999999898
 30
0.0
 11
6039.5
 21
-275.99999999999909
 31
0.0
1001
ACDBBLOCKREPETAG
1070
     1
1071
       15
1005
127FED
  0
LINE
  5
127FEE
  8
OBJECT
 10
5960.5
 20
-275.99999999999909
 30
0.0
 11
5960.5
 21
-282.99999999999898
 31
0.0
1001
ACDBBLOCKREPETAG
1070
     1
1071
       16
1005
127FEE
  0
LINE
  5
127FEF
  8
OBJECT
 10
5960.5
 20
-282.99999999999898
 30
0.0
 11
6039.5
 21
-282.99999999999898
 31
0.0
1001
ACDBBLOCKREPETAG
1070
     1
1071
       17
1005
127FEF
  0
LINE
  5
127FF0
  8
OBJECT
 10
6044.0
 20
-286.99999999999898
 30
0.0
 11
6039.5
 21
-282.99999999999898
 31
0.0
1001
ACDBBLOCKREPETAG
1070
     1
1071
       18
1005
127FF0
  0
LINE
  5
127FF1
  8
OBJECT
 10
5956.0
 20
-286.99999999999898
 30
0.0
 11
5960.5
 21
-282.99999999999898
 31
0.0
1001
ACDBBLOCKREPETAG
1070
     1
1071
       19
1005
127FF1
  0
LINE
  5
127FF2
  8
OBJECT
 10
6062.0
 20
-272.99999999999909
 30
0.0
 11
6062.0
 21
-269.99999999999909
 31
0.0
1001
ACDBBLOCKREPETAG
1070
     1
1071
       20
1005
127FF2
  0
ARC
  5
127FF3
  8
OBJECT
 10
6059.0
 20
-272.99999999999909
 30
0.0
 40
3.0
 50
270.0
 51
0.0
1001
ACDBBLOCKREPETAG
1070
     1
1071
       21
1005
127FF3
  0
LINE
  5
127FF4
  8
OBJECT
 10
5938.0
 20
-269.99999999999909
 30
0.0
 11
5938.0
 21
-272.99999999999909
 31
0.0
1001
ACDBBLOCKREPETAG
1070
     1
1071
       22
1005
127FF4
  0
ARC
  5
127FF5
  8
OBJECT
 10
5941.0
 20
-272.99999999999909
 30
0.0
 40
3.0
 50
180.0
 51
270.0
1001
ACDBBLOCKREPETAG
1070
     1
1071
       23
1005
127FF5
  0
LINE
  5
127FF6
  8
OBJECT
 10
5941.0
 20
-275.99999999999909
 30
0.0
 11
6059.0
 21
-275.99999999999909
 31
0.0
1001
ACDBBLOCKREPETAG
1070
     1
1071
       24
1005
127FF6
  0
LINE
  5
127FF7
  8
HIDDEN
 10
6030.0
 20
-277.99999999999909
 30
0.0
 11
5970.0
 21
-277.99999999999909
 31
0.0
1001
ACDBBLOCKREPETAG
1070
     1
1071
       25
1005
127FF7
  0
POINT
  5
127FF8
  8
DOTS
 10
6000.0
 20
-199.99999999999909
 30
0.0
 50
270.0
1001
ACDBBLOCKREPETAG
1070
     1
1071
      153
1005
127FF8
  0
ARC
  5
127FF9
  8
OBJECT
 10
6000.0
 20
-199.99999999999909
 30
0.0
 40
70.0
 50
62.339550100781771
 51
117.66044989921819
1001
ACDBBLOCKREPETAG
1070
     1
1071
        0
1005
127FF9
  0
CIRCLE
  5
127FFA
  8
OBJECT
 10
6000.0
 20
-199.99999999999909
 30
0.0
 40
65.0
1001
ACDBBLOCKREPETAG
1070
     1
1071
        1
1005
127FFA
  0
CIRCLE
  5
127FFB
  8
OBJECT
 10
6000.0
 20
-199.99999999999909
 30
0.0
 40
41.0
1001
ACDBBLOCKREPETAG
1070
     1
1071
        2
1005
127FFB
  0
CIRCLE
  5
127FFC
  8
OBJECT
 10
6000.0
 20
-199.99999999999909
 30
0.0
 40
58.0
1001
ACDBBLOCKREPETAG
1070
     1
1071
        3
1005
127FFC
  0
LINE
  5
127FFD
  8
OBJECT
 10
6070.0
 20
-137.99999999999909
 30
0.0
 11
6019.5192212959437
 21
-137.99999999999909
 31
0.0
1001
ACDBBLOCKREPETAG
1070
     1
1071
        4
1005
127FFD
  0
LINE
  5
127FFE
  8
OBJECT
 10
5930.0
 20
-137.99999999999909
 30
0.0
 11
5980.4807787040563
 21
-137.99999999999909
 31
0.0
1001
ACDBBLOCKREPETAG
1070
     1
1071
        5
1005
127FFE
  0
LINE
  5
127FFF
  8
OBJECT
 10
5930.0
 20
-261.99999999999909
 30
0.0
 11
5938.0
 21
-261.99999999999909
 31
0.0
1001
ACDBBLOCKREPETAG
1070
     1
1071
        6
1005
127FFF
  0
LINE
  5
128000
  8
OBJECT
 10
5938.0
 20
-269.99999999999909
 30
0.0
 11
5938.0
 21
-261.99999999999909
 31
0.0
1001
ACDBBLOCKREPETAG
1070
     1
1071
        7
1005
128000
  0
LINE
  5
128001
  8
OBJECT
 10
6070.0
 20
-261.99999999999909
 30
0.0
 11
6062.0
 21
-261.99999999999909
 31
0.0
1001
ACDBBLOCKREPETAG
1070
     1
1071
        8
1005
128001
  0
LINE
  5
128002
  8
OBJECT
 10
6062.0
 20
-269.99999999999909
 30
0.0
 11
6062.0
 21
-261.99999999999909
 31
0.0
1001
ACDBBLOCKREPETAG
1070
     1
1071
        9
1005
128002
  0
LINE
  5
128003
  8
CENTER
 10
5930.0
 20
-199.99999999999909
 30
0.0
 11
6070.0
 21
-199.99999999999909
 31
0.0
1001
ACDBBLOCKREPETAG
1070
     1
1071
       10
1005
128003
  0
LINE
  5
128004
  8
CENTER
 10
6000.0
 20
-269.99999999999909
 30
0.0
 11
6000.0
 21
-114.9999999999991
 31
0.0
1001
ACDBBLOCKREPETAG
1070
     1
1071
       11
1005
128004
  0
ARC
  5
128005
  8
OBJECT
 10
5989.9027621391879
 20
-224.44352901899131
 30
0.0
 40
7.0
 50
73.001272229719234
 51
154.0502587894434
1001
ACDBBLOCKREPETAG
1070
     1
1071
       12
1005
128005
  0
ARC
  5
128006
  8
OBJECT
 10
5986.8376610706491
 20
-225.5978773169509
 30
0.0
 40
9.0
 50
73.001272229719234
 51
154.0502639259247
1001
ACDBBLOCKREPETAG
1070
     1
1071
       13
1005
128006
  0
ARC
  5
128007
  8
OBJECT
 10
5896.3142301315529
 20
-147.28130031148149
 30
0.0
 40
150.0
 50
322.89503374001981
 51
325.89314996972843
1001
ACDBBLOCKREPETAG
1070
     1
1071
       14
1005
128007
  0
ARC
  5
128008
  8
OBJECT
 10
6000.0
 20
-199.99999999999909
 30
0.0
 40
37.5
 50
303.1627666766604
 51
229.1635024908081
1001
ACDBBLOCKREPETAG
1070
     1
1071
       15
1005
128008
  0
LINE
  5
128009
  8
OBJECT
 10
5983.6085145189763
 20
-221.38045100897119
 30
0.0
 11
5977.3740109999999
 21
-234.1915870000002
 31
0.0
1001
ACDBBLOCKREPETAG
1070
     1
1071
       16
1005
128009
  0
LINE
  5
12800A
  8
OBJECT
 10
5978.7450566344633
 20
-221.65963488670511
 30
0.0
 11
5973.8986720000003
 21
-231.6183599999996
 31
0.0
1001
ACDBBLOCKREPETAG
1070
     1
1071
       17
1005
12800A
  0
LINE
  5
12800B
  8
OBJECT
 10
6018.9380179999998
 20
-226.00000000000091
 30
0.0
 11
5989.4688153032585
 21
-216.99107608744359
 31
0.0
1001
ACDBBLOCKREPETAG
1070
     1
1071
       18
1005
12800B
  0
LINE
  5
12800C
  8
OBJECT
 10
6020.5132253090051
 20
-231.39199878029191
 30
0.0
 11
6018.9380179999998
 21
-226.00000000000091
 31
0.0
1001
ACDBBLOCKREPETAG
1070
     1
1071
       19
1005
12800C
  0
LINE
  5
12800D
  8
OBJECT
 10
5954.0380592228739
 20
-245.96194077712471
 30
0.0
 11
5938.0
 21
-261.99999999999909
 31
0.0
1001
ACDBBLOCKREPETAG
1070
     1
1071
       42
1005
12800D
  0
LINE
  5
12800E
  8
OBJECT
 10
6045.9619407771252
 20
-245.96194077712471
 30
0.0
 11
6062.0
 21
-261.99999999999909
 31
0.0
1001
ACDBBLOCKREPETAG
1070
     1
1071
       43
1005
12800E
  0
LINE
  5
12800F
  8
OBJECT
 10
6123.0
 20
-663.99999999999966
 30
0.0
 11
6130.0
 21
-663.99999999999966
 31
0.0
1001
ACDBBLOCKREPETAG
1070
     1
1071
        7
1005
12800F
  0
LINE
  5
128010
  8
OBJECT
 10
6130.0
 20
-663.99999999999966
 30
0.0
 11
6130.0
 21
-754.99999999999955
 31
0.0
1001
ACDBBLOCKREPETAG
1070
     1
1071
        8
1005
128010
  0
LINE
  5
128011
  8
OBJECT
 10
6123.0
 20
-754.99999999999955
 30
0.0
 11
6123.0
 21
-663.99999999999966
 31
0.0
1001
ACDBBLOCKREPETAG
1070
     1
1071
        9
1005
128011
  0
LINE
  5
128012
  8
CENTER
 10
6145.0
 20
-710.99999999999955
 30
0.0
 11
6061.0
 21
-710.99999999999955
 31
0.0
1001
ACDBBLOCKREPETAG
1070
     1
1071
       10
1005
128012
  0
LINE
  5
128013
  8
OBJECT
 10
6123.0
 20
-666.99999999999955
 30
0.0
 11
6087.0
 21
-666.99999999999955
 31
0.0
1001
ACDBBLOCKREPETAG
1070
     1
1071
       11
1005
128013
  0
LINE
  5
128014
  8
OBJECT
 10
6087.0
 20
-666.99999999999955
 30
0.0
 11
6087.0
 21
-754.99999999999955
 31
0.0
1001
ACDBBLOCKREPETAG
1070
     1
1071
       12
1005
128014
  0
LINE
  5
128015
  8
OBJECT
 10
6087.0
 20
-754.99999999999955
 30
0.0
 11
6130.0
 21
-754.99999999999955
 31
0.0
1001
ACDBBLOCKREPETAG
1070
     1
1071
       13
1005
128015
  0
LINE
  5
128016
  8
OBJECT
 10
6083.0
 20
-671.49999999999955
 30
0.0
 11
6076.0
 21
-671.49999999999955
 31
0.0
1001
ACDBBLOCKREPETAG
1070
     1
1071
       14
1005
128016
  0
LINE
  5
128017
  8
OBJECT
 10
6076.0
 20
-750.49999999999955
 30
0.0
 11
6083.0
 21
-750.49999999999955
 31
0.0
1001
ACDBBLOCKREPETAG
1070
     1
1071
       15
1005
128017
  0
LINE
  5
128018
  8
OBJECT
 10
6083.0
 20
-750.49999999999955
 30
0.0
 11
6083.0
 21
-671.49999999999955
 31
0.0
1001
ACDBBLOCKREPETAG
1070
     1
1071
       16
1005
128018
  0
LINE
  5
128019
  8
OBJECT
 10
6087.0
 20
-666.99999999999955
 30
0.0
 11
6083.0
 21
-671.49999999999955
 31
0.0
1001
ACDBBLOCKREPETAG
1070
     1
1071
       17
1005
128019
  0
LINE
  5
12801A
  8
OBJECT
 10
6087.0
 20
-754.99999999999955
 30
0.0
 11
6083.0
 21
-750.49999999999955
 31
0.0
1001
ACDBBLOCKREPETAG
1070
     1
1071
       18
1005
12801A
  0
LINE
  5
12801B
  8
OBJECT
 10
6073.0
 20
-633.99999999999955
 30
0.0
 11
6070.0
 21
-633.99999999999955
 31
0.0
1001
ACDBBLOCKREPETAG
1070
     1
1071
       19
1005
12801B
  0
ARC
  5
12801C
  8
OBJECT
 10
6073.0
 20
-636.99999999999955
 30
0.0
 40
3.0
 50
0.0
 51
90.0
1001
ACDBBLOCKREPETAG
1070
     1
1071
       20
1005
12801C
  0
LINE
  5
12801D
  8
OBJECT
 10
6070.0
 20
-757.99999999999955
 30
0.0
 11
6073.0
 21
-757.99999999999955
 31
0.0
1001
ACDBBLOCKREPETAG
1070
     1
1071
       21
1005
12801D
  0
ARC
  5
12801E
  8
OBJECT
 10
6073.0
 20
-754.99999999999955
 30
0.0
 40
3.0
 50
270.0
 51
0.0
1001
ACDBBLOCKREPETAG
1070
     1
1071
       22
1005
12801E
  0
LINE
  5
12801F
  8
OBJECT
 10
6076.0
 20
-754.99999999999955
 30
0.0
 11
6076.0
 21
-636.99999999999955
 31
0.0
1001
ACDBBLOCKREPETAG
1070
     1
1071
       23
1005
12801F
  0
LINE
  5
128020
  8
HIDDEN
 10
6078.0
 20
-680.99999999999955
 30
0.0
 11
6078.0
 21
-740.99999999999955
 31
0.0
1001
ACDBBLOCKREPETAG
1070
     1
1071
       24
1005
128020
  0
LINE
  5
128021
  8
OBJECT
 10
6123.0
 20
-152.99999999999909
 30
0.0
 11
6130.0
 21
-152.99999999999909
 31
0.0
1001
ACDBBLOCKREPETAG
1070
     1
1071
        7
1005
128021
  0
LINE
  5
128022
  8
OBJECT
 10
6130.0
 20
-152.99999999999909
 30
0.0
 11
6130.0
 21
-246.99999999999909
 31
0.0
1001
ACDBBLOCKREPETAG
1070
     1
1071
        8
1005
128022
  0
LINE
  5
128023
  8
OBJECT
 10
6130.0
 20
-246.99999999999909
 30
0.0
 11
6123.0
 21
-246.99999999999909
 31
0.0
1001
ACDBBLOCKREPETAG
1070
     1
1071
        9
1005
128023
  0
LINE
  5
128024
  8
OBJECT
 10
6123.0
 20
-246.99999999999909
 30
0.0
 11
6123.0
 21
-152.99999999999909
 31
0.0
1001
ACDBBLOCKREPETAG
1070
     1
1071
       10
1005
128024
  0
LINE
  5
128025
  8
CENTER
 10
6145.0
 20
-199.99999999999909
 30
0.0
 11
6070.0
 21
-199.99999999999909
 31
0.0
1001
ACDBBLOCKREPETAG
1070
     1
1071
       11
1005
128025
  0
LINE
  5
128026
  8
OBJECT
 10
6123.0
 20
-155.99999999999909
 30
0.0
 11
6087.0
 21
-155.99999999999909
 31
0.0
1001
ACDBBLOCKREPETAG
1070
     1
1071
       12
1005
128026
  0
LINE
  5
128027
  8
OBJECT
 10
6087.0
 20
-155.99999999999909
 30
0.0
 11
6087.0
 21
-243.99999999999909
 31
0.0
1001
ACDBBLOCKREPETAG
1070
     1
1071
       13
1005
128027
  0
LINE
  5
128028
  8
OBJECT
 10
6087.0
 20
-243.99999999999909
 30
0.0
 11
6123.0
 21
-243.99999999999909
 31
0.0
1001
ACDBBLOCKREPETAG
1070
     1
1071
       14
1005
128028
  0
LINE
  5
128029
  8
OBJECT
 10
6083.0
 20
-160.49999999999909
 30
0.0
 11
6076.0
 21
-160.49999999999909
 31
0.0
1001
ACDBBLOCKREPETAG
1070
     1
1071
       15
1005
128029
  0
LINE
  5
12802A
  8
OBJECT
 10
6076.0
 20
-239.49999999999909
 30
0.0
 11
6083.0
 21
-239.49999999999909
 31
0.0
1001
ACDBBLOCKREPETAG
1070
     1
1071
       16
1005
12802A
  0
LINE
  5
12802B
  8
OBJECT
 10
6083.0
 20
-239.49999999999909
 30
0.0
 11
6083.0
 21
-160.49999999999909
 31
0.0
1001
ACDBBLOCKREPETAG
1070
     1
1071
       17
1005
12802B
  0
LINE
  5
12802C
  8
OBJECT
 10
6087.0
 20
-155.99999999999909
 30
0.0
 11
6083.0
 21
-160.49999999999909
 31
0.0
1001
ACDBBLOCKREPETAG
1070
     1
1071
       18
1005
12802C
  0
LINE
  5
12802D
  8
OBJECT
 10
6087.0
 20
-243.99999999999909
 30
0.0
 11
6083.0
 21
-239.49999999999909
 31
0.0
1001
ACDBBLOCKREPETAG
1070
     1
1071
       19
1005
12802D
  0
LINE
  5
12802E
  8
OBJECT
 10
6073.0
 20
-137.99999999999909
 30
0.0
 11
6070.0
 21
-137.99999999999909
 31
0.0
1001
ACDBBLOCKREPETAG
1070
     1
1071
       20
1005
12802E
  0
ARC
  5
12802F
  8
OBJECT
 10
6073.0
 20
-140.99999999999909
 30
0.0
 40
3.0
 50
0.0
 51
90.0
1001
ACDBBLOCKREPETAG
1070
     1
1071
       21
1005
12802F
  0
LINE
  5
128030
  8
OBJECT
 10
6070.0
 20
-261.99999999999909
 30
0.0
 11
6073.0
 21
-261.99999999999909
 31
0.0
1001
ACDBBLOCKREPETAG
1070
     1
1071
       22
1005
128030
  0
ARC
  5
128031
  8
OBJECT
 10
6073.0
 20
-258.99999999999909
 30
0.0
 40
3.0
 50
270.0
 51
0.0
1001
ACDBBLOCKREPETAG
1070
     1
1071
       23
1005
128031
  0
LINE
  5
128032
  8
OBJECT
 10
6076.0
 20
-258.99999999999909
 30
0.0
 11
6076.0
 21
-140.99999999999909
 31
0.0
1001
ACDBBLOCKREPETAG
1070
     1
1071
       24
1005
128032
  0
LINE
  5
128033
  8
HIDDEN
 10
6078.0
 20
-169.99999999999909
 30
0.0
 11
6078.0
 21
-229.99999999999909
 31
0.0
1001
ACDBBLOCKREPETAG
1070
     1
1071
       25
1005
128033
  0
LINE
  5
128034
  8
OBJECT
 10
3927.0
 20
-633.99999999999955
 30
0.0
 11
3930.0
 21
-633.99999999999955
 31
0.0
1001
ACDBBLOCKREPETAG
1070
     1
1071
        1
1005
128034
  0
ARC
  5
128035
  8
OBJECT
 10
3927.0
 20
-636.99999999999955
 30
0.0
 40
3.0
 50
90.0
 51
180.0
1001
ACDBBLOCKREPETAG
1070
     1
1071
        2
1005
128035
  0
LINE
  5
128036
  8
OBJECT
 10
3930.0
 20
-757.99999999999955
 30
0.0
 11
3927.0
 21
-757.99999999999955
 31
0.0
1001
ACDBBLOCKREPETAG
1070
     1
1071
        3
1005
128036
  0
ARC
  5
128037
  8
OBJECT
 10
3927.0
 20
-754.99999999999955
 30
0.0
 40
3.0
 50
180.0
 51
270.0
1001
ACDBBLOCKREPETAG
1070
     1
1071
        4
1005
128037
  0
LINE
  5
128038
  8
OBJECT
 10
3924.0
 20
-754.99999999999955
 30
0.0
 11
3924.0
 21
-636.99999999999955
 31
0.0
1001
ACDBBLOCKREPETAG
1070
     1
1071
        5
1005
128038
  0
CIRCLE
  5
128039
  8
OBJECT
 10
4000.0
 20
-696.0
 30
0.0
 40
62.0
1001
ACDBBLOCKREPETAG
1070
     1
1071
        3
1005
128039
  0
LINE
  5
12803A
  8
CENTER
 10
3938.0
 20
-711.0
 30
0.0
 11
4062.0
 21
-711.0
 31
0.0
1001
ACDBBLOCKREPETAG
1070
     1
1071
        4
1005
12803A
  0
CIRCLE
  5
12803B
  8
OBJECT
 10
4000.0
 20
-711.0
 30
0.0
 40
28.0
1001
ACDBBLOCKREPETAG
1070
     1
1071
        6
1005
12803B
  0
CIRCLE
  5
12803C
  8
OBJECT
 10
4000.0
 20
-711.0
 30
0.0
 40
39.0
1001
ACDBBLOCKREPETAG
1070
     1
1071
        7
1005
12803C
  0
ARC
  5
12803D
  8
OBJECT
 10
4000.0
 20
-711.0
 30
0.0
 40
47.0
 50
290.58196921144179
 51
249.41803078855821
1001
ACDBBLOCKREPETAG
1070
     1
1071
        8
1005
12803D
  0
LINE
  5
12803E
  8
OBJECT
 10
3983.4772883581431
 20
-755.0
 30
0.0
 11
4016.5227116418569
 21
-755.0
 31
0.0
1001
ACDBBLOCKREPETAG
1070
     1
1071
        9
1005
12803E
  0
LINE
  5
12803F
  8
OBJECT
 10
3935.0
 20
-549.99999999999955
 30
0.0
 11
3935.0
 21
-570.99999999999955
 31
0.0
1001
ACDBBLOCKREPETAG
1070
     1
1071
       16
1005
12803F
  0
LINE
  5
128040
  8
OBJECT
 10
3935.0
 20
-570.99999999999955
 30
0.0
 11
4065.0
 21
-570.99999999999955
 31
0.0
1001
ACDBBLOCKREPETAG
1070
     1
1071
       17
1005
128040
  0
LINE
  5
128041
  8
OBJECT
 10
4065.0
 20
-570.99999999999955
 30
0.0
 11
4065.0
 21
-549.99999999999955
 31
0.0
1001
ACDBBLOCKREPETAG
1070
     1
1071
       18
1005
128041
  0
LINE
  5
128042
  8
OBJECT
 10
4065.0
 20
-549.99999999999955
 30
0.0
 11
3935.0
 21
-549.99999999999955
 31
0.0
1001
ACDBBLOCKREPETAG
1070
     1
1071
       19
1005
128042
  0
LINE
  5
128043
  8
HIDDEN
 10
4044.5
 20
-619.99999999999955
 30
0.0
 11
3955.5
 21
-619.99999999999955
 31
0.0
1001
ACDBBLOCKREPETAG
1070
     1
1071
       20
1005
128043
  0
LINE
  5
128044
  8
CENTER
 10
4000.0
 20
-769.99999999999955
 30
0.0
 11
4000.0
 21
-534.99999999999955
 31
0.0
1001
ACDBBLOCKREPETAG
1070
     1
1071
       21
1005
128044
  0
LINE
  5
128045
  8
OBJECT
 10
3940.5
 20
-570.99999999999955
 30
0.0
 11
3940.5
 21
-633.99999999999955
 31
0.0
1001
ACDBBLOCKREPETAG
1070
     1
1071
       22
1005
128045
  0
LINE
  5
128046
  8
OBJECT
 10
3930.0
 20
-633.99999999999955
 30
0.0
 11
4070.0
 21
-633.99999999999955
 31
0.0
1001
ACDBBLOCKREPETAG
1070
     1
1071
       23
1005
128046
  0
LINE
  5
128047
  8
OBJECT
 10
4059.4999999999982
 20
-633.99999999999955
 30
0.0
 11
4059.4999999999982
 21
-570.99999999999955
 31
0.0
1001
ACDBBLOCKREPETAG
1070
     1
1071
       24
1005
128047
  0
LINE
  5
128048
  8
OBJECT
 10
3930.0
 20
-757.99999999999955
 30
0.0
 11
3930.0
 21
-769.99999999999955
 31
0.0
1001
ACDBBLOCKREPETAG
1070
     1
1071
       25
1005
128048
  0
LINE
  5
128049
  8
OBJECT
 10
3930.0
 20
-769.99999999999955
 30
0.0
 11
4070.0
 21
-769.99999999999955
 31
0.0
1001
ACDBBLOCKREPETAG
1070
     1
1071
       26
1005
128049
  0
LINE
  5
12804A
  8
OBJECT
 10
4070.0
 20
-769.99999999999955
 30
0.0
 11
4070.0
 21
-757.99999999999955
 31
0.0
1001
ACDBBLOCKREPETAG
1070
     1
1071
       27
1005
12804A
  0
LINE
  5
12804B
  8
OBJECT
 10
4070.0
 20
-757.99999999999955
 30
0.0
 11
3930.0
 21
-757.99999999999955
 31
0.0
1001
ACDBBLOCKREPETAG
1070
     1
1071
       28
1005
12804B
  0
ARC
  5
12804C
  8
OBJECT
 10
4435.0384389946767
 20
-998.60813684682694
 30
0.0
 40
519.48776673616965
 50
135.42350667430969
 51
138.50052655621499
1001
ACDBBLOCKREPETAG
1070
     1
1071
       32
1005
12804C
  0
ARC
  5
12804D
  8
OBJECT
 10
4435.0384389946767
 20
-393.39186315317193
 30
0.0
 40
519.48776673616965
 50
221.49947344378501
 51
224.57649332569039
1001
ACDBBLOCKREPETAG
1070
     1
1071
       33
1005
12804D
  0
ARC
  5
12804E
  8
OBJECT
 10
3564.961561005322
 20
-998.60813684682694
 30
0.0
 40
519.48776673616965
 50
41.499473443784993
 51
44.576493325690237
1001
ACDBBLOCKREPETAG
1070
     1
1071
       34
1005
12804E
  0
ARC
  5
12804F
  8
OBJECT
 10
3564.961561005322
 20
-393.39186315317193
 30
0.0
 40
519.48776673616965
 50
315.42350667430981
 51
318.50052655621488
1001
ACDBBLOCKREPETAG
1070
     1
1071
       35
1005
12804F
  0
POINT
  5
128050
  8
DOTS
 10
4000.0
 20
-754.99999999999955
 30
0.0
1001
ACDBBLOCKREPETAG
1070
     1
1071
      111
1005
128050
  0
LINE
  5
128051
  8
CENTER
 10
3909.0
 20
-199.99999999999909
 30
0.0
 11
3930.0
 21
-199.99999999999909
 31
0.0
1001
ACDBBLOCKREPETAG
1070
     1
1071
        0
1005
128051
  0
LINE
  5
128052
  8
OBJECT
 10
3927.0
 20
-261.99999999999909
 30
0.0
 11
3930.0
 21
-261.99999999999909
 31
0.0
1001
ACDBBLOCKREPETAG
1070
     1
1071
        1
1005
128052
  0
ARC
  5
128053
  8
OBJECT
 10
3927.0
 20
-258.99999999999909
 30
0.0
 40
3.0
 50
180.0
 51
270.0
1001
ACDBBLOCKREPETAG
1070
     1
1071
        2
1005
128053
  0
LINE
  5
128054
  8
OBJECT
 10
3930.0
 20
-137.99999999999909
 30
0.0
 11
3927.0
 21
-137.99999999999909
 31
0.0
1001
ACDBBLOCKREPETAG
1070
     1
1071
        3
1005
128054
  0
ARC
  5
128055
  8
OBJECT
 10
3927.0
 20
-140.99999999999909
 30
0.0
 40
3.0
 50
90.0
 51
180.0
1001
ACDBBLOCKREPETAG
1070
     1
1071
        4
1005
128055
  0
LINE
  5
128056
  8
OBJECT
 10
3924.0
 20
-140.99999999999909
 30
0.0
 11
3924.0
 21
-258.99999999999909
 31
0.0
1001
ACDBBLOCKREPETAG
1070
     1
1071
        5
1005
128056
  0
LINE
  5
128057
  8
OBJECT
 10
4047.0
 20
-322.99999999999898
 30
0.0
 11
4047.0
 21
-329.99999999999898
 31
0.0
1001
ACDBBLOCKREPETAG
1070
     1
1071
        7
1005
128057
  0
LINE
  5
128058
  8
OBJECT
 10
4047.0
 20
-329.99999999999898
 30
0.0
 11
3953.0
 21
-329.99999999999898
 31
0.0
1001
ACDBBLOCKREPETAG
1070
     1
1071
        8
1005
128058
  0
LINE
  5
128059
  8
OBJECT
 10
3953.0
 20
-329.99999999999898
 30
0.0
 11
3953.0
 21
-322.99999999999898
 31
0.0
1001
ACDBBLOCKREPETAG
1070
     1
1071
        9
1005
128059
  0
LINE
  5
12805A
  8
OBJECT
 10
3953.0
 20
-322.99999999999898
 30
0.0
 11
4047.0
 21
-322.99999999999898
 31
0.0
1001
ACDBBLOCKREPETAG
1070
     1
1071
       10
1005
12805A
  0
LINE
  5
12805B
  8
CENTER
 10
4000.0
 20
-344.99999999999909
 30
0.0
 11
4000.0
 21
-269.99999999999909
 31
0.0
1001
ACDBBLOCKREPETAG
1070
     1
1071
       11
1005
12805B
  0
LINE
  5
12805C
  8
OBJECT
 10
4044.0
 20
-322.99999999999898
 30
0.0
 11
4044.0
 21
-286.99999999999898
 31
0.0
1001
ACDBBLOCKREPETAG
1070
     1
1071
       12
1005
12805C
  0
LINE
  5
12805D
  8
OBJECT
 10
4044.0
 20
-286.99999999999898
 30
0.0
 11
3956.0
 21
-286.99999999999898
 31
0.0
1001
ACDBBLOCKREPETAG
1070
     1
1071
       13
1005
12805D
  0
LINE
  5
12805E
  8
OBJECT
 10
3956.0
 20
-286.99999999999898
 30
0.0
 11
3956.0
 21
-322.99999999999898
 31
0.0
1001
ACDBBLOCKREPETAG
1070
     1
1071
       14
1005
12805E
  0
LINE
  5
12805F
  8
OBJECT
 10
4039.5
 20
-282.99999999999898
 30
0.0
 11
4039.5
 21
-275.99999999999909
 31
0.0
1001
ACDBBLOCKREPETAG
1070
     1
1071
       15
1005
12805F
  0
LINE
  5
128060
  8
OBJECT
 10
3960.5000000000009
 20
-275.99999999999909
 30
0.0
 11
3960.5000000000009
 21
-282.99999999999898
 31
0.0
1001
ACDBBLOCKREPETAG
1070
     1
1071
       16
1005
128060
  0
LINE
  5
128061
  8
OBJECT
 10
3960.5000000000009
 20
-282.99999999999898
 30
0.0
 11
4039.5
 21
-282.99999999999898
 31
0.0
1001
ACDBBLOCKREPETAG
1070
     1
1071
       17
1005
128061
  0
LINE
  5
128062
  8
OBJECT
 10
4044.0
 20
-286.99999999999898
 30
0.0
 11
4039.5
 21
-282.99999999999898
 31
0.0
1001
ACDBBLOCKREPETAG
1070
     1
1071
       18
1005
128062
  0
LINE
  5
128063
  8
OBJECT
 10
3956.0
 20
-286.99999999999898
 30
0.0
 11
3960.5000000000009
 21
-282.99999999999898
 31
0.0
1001
ACDBBLOCKREPETAG
1070
     1
1071
       19
1005
128063
  0
LINE
  5
128064
  8
OBJECT
 10
4062.0
 20
-272.99999999999909
 30
0.0
 11
4062.0
 21
-269.99999999999909
 31
0.0
1001
ACDBBLOCKREPETAG
1070
     1
1071
       20
1005
128064
  0
ARC
  5
128065
  8
OBJECT
 10
4059.0
 20
-272.99999999999909
 30
0.0
 40
3.0
 50
270.0
 51
0.0
1001
ACDBBLOCKREPETAG
1070
     1
1071
       21
1005
128065
  0
LINE
  5
128066
  8
OBJECT
 10
3938.0
 20
-269.99999999999909
 30
0.0
 11
3938.0
 21
-272.99999999999909
 31
0.0
1001
ACDBBLOCKREPETAG
1070
     1
1071
       22
1005
128066
  0
ARC
  5
128067
  8
OBJECT
 10
3941.0
 20
-272.99999999999909
 30
0.0
 40
3.0
 50
180.0
 51
270.0
1001
ACDBBLOCKREPETAG
1070
     1
1071
       23
1005
128067
  0
LINE
  5
128068
  8
OBJECT
 10
3941.0
 20
-275.99999999999909
 30
0.0
 11
4059.0
 21
-275.99999999999909
 31
0.0
1001
ACDBBLOCKREPETAG
1070
     1
1071
       24
1005
128068
  0
LINE
  5
128069
  8
HIDDEN
 10
4030.0
 20
-277.99999999999909
 30
0.0
 11
3970.0
 21
-277.99999999999909
 31
0.0
1001
ACDBBLOCKREPETAG
1070
     1
1071
       25
1005
128069
  0
POINT
  5
12806A
  8
DOTS
 10
4000.0
 20
-199.99999999999909
 30
0.0
 50
270.0
1001
ACDBBLOCKREPETAG
1070
     1
1071
      153
1005
12806A
  0
ARC
  5
12806B
  8
OBJECT
 10
4000.0
 20
-199.99999999999909
 30
0.0
 40
70.0
 50
62.339550100758693
 51
117.6604498992413
1001
ACDBBLOCKREPETAG
1070
     1
1071
        0
1005
12806B
  0
CIRCLE
  5
12806C
  8
OBJECT
 10
4000.0
 20
-199.99999999999909
 30
0.0
 40
65.0
1001
ACDBBLOCKREPETAG
1070
     1
1071
        1
1005
12806C
  0
CIRCLE
  5
12806D
  8
OBJECT
 10
4000.0
 20
-199.99999999999909
 30
0.0
 40
41.0
1001
ACDBBLOCKREPETAG
1070
     1
1071
        2
1005
12806D
  0
CIRCLE
  5
12806E
  8
OBJECT
 10
4000.0
 20
-199.99999999999909
 30
0.0
 40
58.0
1001
ACDBBLOCKREPETAG
1070
     1
1071
        3
1005
12806E
  0
LINE
  5
12806F
  8
OBJECT
 10
4070.0
 20
-137.99999999999909
 30
0.0
 11
4019.5192212959432
 21
-137.99999999999909
 31
0.0
1001
ACDBBLOCKREPETAG
1070
     1
1071
        4
1005
12806F
  0
LINE
  5
128070
  8
OBJECT
 10
3930.0
 20
-137.99999999999909
 30
0.0
 11
3980.4807787040581
 21
-137.99999999999909
 31
0.0
1001
ACDBBLOCKREPETAG
1070
     1
1071
        5
1005
128070
  0
LINE
  5
128071
  8
OBJECT
 10
3930.0
 20
-261.99999999999909
 30
0.0
 11
3938.0
 21
-261.99999999999909
 31
0.0
1001
ACDBBLOCKREPETAG
1070
     1
1071
        6
1005
128071
  0
LINE
  5
128072
  8
OBJECT
 10
3938.0
 20
-269.99999999999909
 30
0.0
 11
3938.0
 21
-261.99999999999909
 31
0.0
1001
ACDBBLOCKREPETAG
1070
     1
1071
        7
1005
128072
  0
LINE
  5
128073
  8
OBJECT
 10
4070.0
 20
-261.99999999999909
 30
0.0
 11
4062.0
 21
-261.99999999999909
 31
0.0
1001
ACDBBLOCKREPETAG
1070
     1
1071
        8
1005
128073
  0
LINE
  5
128074
  8
OBJECT
 10
4062.0
 20
-269.99999999999909
 30
0.0
 11
4062.0
 21
-261.99999999999909
 31
0.0
1001
ACDBBLOCKREPETAG
1070
     1
1071
        9
1005
128074
  0
LINE
  5
128075
  8
CENTER
 10
3930.0
 20
-199.99999999999909
 30
0.0
 11
4070.0
 21
-199.99999999999909
 31
0.0
1001
ACDBBLOCKREPETAG
1070
     1
1071
       10
1005
128075
  0
LINE
  5
128076
  8
CENTER
 10
4000.0
 20
-269.99999999999909
 30
0.0
 11
4000.0
 21
-114.9999999999991
 31
0.0
1001
ACDBBLOCKREPETAG
1070
     1
1071
       11
1005
128076
  0
ARC
  5
128077
  8
OBJECT
 10
3989.9027621391888
 20
-224.44352901899131
 30
0.0
 40
7.0
 50
73.001272229719234
 51
154.0502587894434
1001
ACDBBLOCKREPETAG
1070
     1
1071
       12
1005
128077
  0
ARC
  5
128078
  8
OBJECT
 10
3986.8376610706509
 20
-225.5978773169509
 30
0.0
 40
9.0
 50
73.001272229719234
 51
154.0502639259247
1001
ACDBBLOCKREPETAG
1070
     1
1071
       13
1005
128078
  0
ARC
  5
128079
  8
OBJECT
 10
3896.3142301315529
 20
-147.28130031148149
 30
0.0
 40
150.0
 50
322.89503374001981
 51
325.8931499697137
1001
ACDBBLOCKREPETAG
1070
     1
1071
       14
1005
128079
  0
ARC
  5
12807A
  8
OBJECT
 10
4000.0
 20
-199.99999999999909
 30
0.0
 40
37.5
 50
303.16276667668222
 51
229.1635024908278
1001
ACDBBLOCKREPETAG
1070
     1
1071
       15
1005
12807A
  0
LINE
  5
12807B
  8
OBJECT
 10
3983.6085145189768
 20
-221.38045100897119
 30
0.0
 11
3977.3740109999999
 21
-234.1915870000002
 31
0.0
1001
ACDBBLOCKREPETAG
1070
     1
1071
       16
1005
12807B
  0
LINE
  5
12807C
  8
OBJECT
 10
3978.7450566344628
 20
-221.65963488670511
 30
0.0
 11
3973.8986719999989
 21
-231.6183599999996
 31
0.0
1001
ACDBBLOCKREPETAG
1070
     1
1071
       17
1005
12807C
  0
LINE
  5
12807D
  8
OBJECT
 10
4018.9380179999998
 20
-226.00000000000091
 30
0.0
 11
3989.468815303258
 21
-216.99107608744359
 31
0.0
1001
ACDBBLOCKREPETAG
1070
     1
1071
       18
1005
12807D
  0
LINE
  5
12807E
  8
OBJECT
 10
4020.5132253090051
 20
-231.39199878029191
 30
0.0
 11
4018.9380179999998
 21
-226.00000000000091
 31
0.0
1001
ACDBBLOCKREPETAG
1070
     1
1071
       19
1005
12807E
  0
LINE
  5
12807F
  8
OBJECT
 10
3954.0380592228739
 20
-245.96194077712471
 30
0.0
 11
3938.0
 21
-261.99999999999909
 31
0.0
1001
ACDBBLOCKREPETAG
1070
     1
1071
       42
1005
12807F
  0
LINE
  5
128080
  8
OBJECT
 10
4045.9619407771238
 20
-245.96194077712471
 30
0.0
 11
4062.0
 21
-261.99999999999909
 31
0.0
1001
ACDBBLOCKREPETAG
1070
     1
1071
       43
1005
128080
  0
LINE
  5
128081
  8
OBJECT
 10
4123.0
 20
-663.99999999999966
 30
0.0
 11
4130.0
 21
-663.99999999999966
 31
0.0
1001
ACDBBLOCKREPETAG
1070
     1
1071
        7
1005
128081
  0
LINE
  5
128082
  8
OBJECT
 10
4130.0
 20
-663.99999999999966
 30
0.0
 11
4130.0
 21
-754.99999999999955
 31
0.0
1001
ACDBBLOCKREPETAG
1070
     1
1071
        8
1005
128082
  0
LINE
  5
128083
  8
OBJECT
 10
4123.0
 20
-754.99999999999955
 30
0.0
 11
4123.0
 21
-663.99999999999966
 31
0.0
1001
ACDBBLOCKREPETAG
1070
     1
1071
        9
1005
128083
  0
LINE
  5
128084
  8
CENTER
 10
4145.0
 20
-710.99999999999955
 30
0.0
 11
4061.0
 21
-710.99999999999955
 31
0.0
1001
ACDBBLOCKREPETAG
1070
     1
1071
       10
1005
128084
  0
LINE
  5
128085
  8
OBJECT
 10
4123.0
 20
-666.99999999999955
 30
0.0
 11
4087.0
 21
-666.99999999999955
 31
0.0
1001
ACDBBLOCKREPETAG
1070
     1
1071
       11
1005
128085
  0
LINE
  5
128086
  8
OBJECT
 10
4087.0
 20
-666.99999999999955
 30
0.0
 11
4087.0
 21
-754.99999999999955
 31
0.0
1001
ACDBBLOCKREPETAG
1070
     1
1071
       12
1005
128086
  0
LINE
  5
128087
  8
OBJECT
 10
4087.0
 20
-754.99999999999955
 30
0.0
 11
4130.0
 21
-754.99999999999955
 31
0.0
1001
ACDBBLOCKREPETAG
1070
     1
1071
       13
1005
128087
  0
LINE
  5
128088
  8
OBJECT
 10
4083.0
 20
-671.49999999999955
 30
0.0
 11
4076.0
 21
-671.49999999999955
 31
0.0
1001
ACDBBLOCKREPETAG
1070
     1
1071
       14
1005
128088
  0
LINE
  5
128089
  8
OBJECT
 10
4076.0
 20
-750.49999999999955
 30
0.0
 11
4083.0
 21
-750.49999999999955
 31
0.0
1001
ACDBBLOCKREPETAG
1070
     1
1071
       15
1005
128089
  0
LINE
  5
12808A
  8
OBJECT
 10
4083.0
 20
-750.49999999999955
 30
0.0
 11
4083.0
 21
-671.49999999999955
 31
0.0
1001
ACDBBLOCKREPETAG
1070
     1
1071
       16
1005
12808A
  0
LINE
  5
12808B
  8
OBJECT
 10
4087.0
 20
-666.99999999999955
 30
0.0
 11
4083.0
 21
-671.49999999999955
 31
0.0
1001
ACDBBLOCKREPETAG
1070
     1
1071
       17
1005
12808B
  0
LINE
  5
12808C
  8
OBJECT
 10
4087.0
 20
-754.99999999999955
 30
0.0
 11
4083.0
 21
-750.49999999999955
 31
0.0
1001
ACDBBLOCKREPETAG
1070
     1
1071
       18
1005
12808C
  0
LINE
  5
12808D
  8
OBJECT
 10
4073.0
 20
-633.99999999999955
 30
0.0
 11
4070.0
 21
-633.99999999999955
 31
0.0
1001
ACDBBLOCKREPETAG
1070
     1
1071
       19
1005
12808D
  0
ARC
  5
12808E
  8
OBJECT
 10
4073.0
 20
-636.99999999999955
 30
0.0
 40
3.0
 50
0.0
 51
90.0
1001
ACDBBLOCKREPETAG
1070
     1
1071
       20
1005
12808E
  0
LINE
  5
12808F
  8
OBJECT
 10
4070.0
 20
-757.99999999999955
 30
0.0
 11
4073.0
 21
-757.99999999999955
 31
0.0
1001
ACDBBLOCKREPETAG
1070
     1
1071
       21
1005
12808F
  0
ARC
  5
128090
  8
OBJECT
 10
4073.0
 20
-754.99999999999955
 30
0.0
 40
3.0
 50
270.0
 51
0.0
1001
ACDBBLOCKREPETAG
1070
     1
1071
       22
1005
128090
  0
LINE
  5
128091
  8
OBJECT
 10
4076.0
 20
-754.99999999999955
 30
0.0
 11
4076.0
 21
-636.99999999999955
 31
0.0
1001
ACDBBLOCKREPETAG
1070
     1
1071
       23
1005
128091
  0
LINE
  5
128092
  8
HIDDEN
 10
4078.0
 20
-680.99999999999955
 30
0.0
 11
4078.0
 21
-740.99999999999955
 31
0.0
1001
ACDBBLOCKREPETAG
1070
     1
1071
       24
1005
128092
  0
LINE
  5
128093
  8
OBJECT
 10
4123.0
 20
-152.99999999999909
 30
0.0
 11
4130.0
 21
-152.99999999999909
 31
0.0
1001
ACDBBLOCKREPETAG
1070
     1
1071
        7
1005
128093
  0
LINE
  5
128094
  8
OBJECT
 10
4130.0
 20
-152.99999999999909
 30
0.0
 11
4130.0
 21
-246.99999999999909
 31
0.0
1001
ACDBBLOCKREPETAG
1070
     1
1071
        8
1005
128094
  0
LINE
  5
128095
  8
OBJECT
 10
4130.0
 20
-246.99999999999909
 30
0.0
 11
4123.0
 21
-246.99999999999909
 31
0.0
1001
ACDBBLOCKREPETAG
1070
     1
1071
        9
1005
128095
  0
LINE
  5
128096
  8
OBJECT
 10
4123.0
 20
-246.99999999999909
 30
0.0
 11
4123.0
 21
-152.99999999999909
 31
0.0
1001
ACDBBLOCKREPETAG
1070
     1
1071
       10
1005
128096
  0
LINE
  5
128097
  8
CENTER
 10
4145.0
 20
-199.99999999999909
 30
0.0
 11
4070.0
 21
-199.99999999999909
 31
0.0
1001
ACDBBLOCKREPETAG
1070
     1
1071
       11
1005
128097
  0
LINE
  5
128098
  8
OBJECT
 10
4123.0
 20
-155.99999999999909
 30
0.0
 11
4087.0
 21
-155.99999999999909
 31
0.0
1001
ACDBBLOCKREPETAG
1070
     1
1071
       12
1005
128098
  0
LINE
  5
128099
  8
OBJECT
 10
4087.0
 20
-155.99999999999909
 30
0.0
 11
4087.0
 21
-243.99999999999909
 31
0.0
1001
ACDBBLOCKREPETAG
1070
     1
1071
       13
1005
128099
  0
LINE
  5
12809A
  8
OBJECT
 10
4087.0
 20
-243.99999999999909
 30
0.0
 11
4123.0
 21
-243.99999999999909
 31
0.0
1001
ACDBBLOCKREPETAG
1070
     1
1071
       14
1005
12809A
  0
LINE
  5
12809B
  8
OBJECT
 10
4083.0
 20
-160.49999999999909
 30
0.0
 11
4076.0
 21
-160.49999999999909
 31
0.0
1001
ACDBBLOCKREPETAG
1070
     1
1071
       15
1005
12809B
  0
LINE
  5
12809C
  8
OBJECT
 10
4076.0
 20
-239.49999999999909
 30
0.0
 11
4083.0
 21
-239.49999999999909
 31
0.0
1001
ACDBBLOCKREPETAG
1070
     1
1071
       16
1005
12809C
  0
LINE
  5
12809D
  8
OBJECT
 10
4083.0
 20
-239.49999999999909
 30
0.0
 11
4083.0
 21
-160.49999999999909
 31
0.0
1001
ACDBBLOCKREPETAG
1070
     1
1071
       17
1005
12809D
  0
LINE
  5
12809E
  8
OBJECT
 10
4087.0
 20
-155.99999999999909
 30
0.0
 11
4083.0
 21
-160.49999999999909
 31
0.0
1001
ACDBBLOCKREPETAG
1070
     1
1071
       18
1005
12809E
  0
LINE
  5
12809F
  8
OBJECT
 10
4087.0
 20
-243.99999999999909
 30
0.0
 11
4083.0
 21
-239.49999999999909
 31
0.0
1001
ACDBBLOCKREPETAG
1070
     1
1071
       19
1005
12809F
  0
LINE
  5
1280A0
  8
OBJECT
 10
4073.0
 20
-137.99999999999909
 30
0.0
 11
4070.0
 21
-137.99999999999909
 31
0.0
1001
ACDBBLOCKREPETAG
1070
     1
1071
       20
1005
1280A0
  0
ARC
  5
1280A1
  8
OBJECT
 10
4073.0
 20
-140.99999999999909
 30
0.0
 40
3.0
 50
0.0
 51
90.0
1001
ACDBBLOCKREPETAG
1070
     1
1071
       21
1005
1280A1
  0
LINE
  5
1280A2
  8
OBJECT
 10
4070.0
 20
-261.99999999999909
 30
0.0
 11
4073.0
 21
-261.99999999999909
 31
0.0
1001
ACDBBLOCKREPETAG
1070
     1
1071
       22
1005
1280A2
  0
ARC
  5
1280A3
  8
OBJECT
 10
4073.0
 20
-258.99999999999909
 30
0.0
 40
3.0
 50
270.0
 51
0.0
1001
ACDBBLOCKREPETAG
1070
     1
1071
       23
1005
1280A3
  0
LINE
  5
1280A4
  8
OBJECT
 10
4076.0
 20
-258.99999999999909
 30
0.0
 11
4076.0
 21
-140.99999999999909
 31
0.0
1001
ACDBBLOCKREPETAG
1070
     1
1071
       24
1005
1280A4
  0
LINE
  5
1280A5
  8
HIDDEN
 10
4078.0
 20
-169.99999999999909
 30
0.0
 11
4078.0
 21
-229.99999999999909
 31
0.0
1001
ACDBBLOCKREPETAG
1070
     1
1071
       25
1005
1280A5
  0
TEXT
  5
1280A6
  8
SLIM
 10
7824.6000000000022
 20
-1403.999999999998
 30
0.0
 40
28.0
  1
※ 対応スラブ厚　180～220
 41
0.75
  0
TEXT
  5
1280A7
  8
SLIM
 10
7611.4999999999982
 20
-1497.333333333331
 30
0.0
 40
28.0
  1
国土交通大臣認定・（財）日本消防設備安全センター性能評定取得品
 41
0.75
  0
TEXT
  5
1280A8
  8
SLIM
 10
7631.1000000000004
 20
-1543.999999999998
 30
0.0
 40
28.0
  1
注）ご採用にあたり、認定書及び評定書の内容をご確認ください。
 41
0.75
  0
LINE
  5
1280A9
  8
CENTER
 10
2909.0
 20
-3174.9999999999959
 30
0.0
 11
2930.0
 21
-3174.9999999999959
 31
0.0
1001
ACDBBLOCKREPETAG
1070
     1
1071
        0
1005
1280A9
  0
LINE
  5
1280AA
  8
OBJECT
 10
2926.9999999999991
 20
-3236.9999999999959
 30
0.0
 11
2930.0
 21
-3236.9999999999959
 31
0.0
1001
ACDBBLOCKREPETAG
1070
     1
1071
        1
1005
1280AA
  0
ARC
  5
1280AB
  8
OBJECT
 10
2926.9999999999991
 20
-3233.9999999999959
 30
0.0
 40
3.0
 50
180.0
 51
270.0
1001
ACDBBLOCKREPETAG
1070
     1
1071
        2
1005
1280AB
  0
LINE
  5
1280AC
  8
OBJECT
 10
2930.0
 20
-3112.9999999999959
 30
0.0
 11
2926.9999999999991
 21
-3112.9999999999959
 31
0.0
1001
ACDBBLOCKREPETAG
1070
     1
1071
        3
1005
1280AC
  0
ARC
  5
1280AD
  8
OBJECT
 10
2926.9999999999991
 20
-3115.9999999999959
 30
0.0
 40
3.0
 50
90.0
 51
180.0
1001
ACDBBLOCKREPETAG
1070
     1
1071
        4
1005
1280AD
  0
LINE
  5
1280AE
  8
OBJECT
 10
2923.9999999999991
 20
-3115.9999999999959
 30
0.0
 11
2923.9999999999991
 21
-3233.9999999999959
 31
0.0
1001
ACDBBLOCKREPETAG
1070
     1
1071
        5
1005
1280AE
  0
LINE
  5
1280AF
  8
CENTER
 10
3000.0
 20
-3265.9999999999959
 30
0.0
 11
3000.0
 21
-3244.9999999999959
 31
0.0
1001
ACDBBLOCKREPETAG
1070
     1
1071
        0
1005
1280AF
  0
LINE
  5
1280B0
  8
OBJECT
 10
3062.0
 20
-3247.9999999999968
 30
0.0
 11
3062.0
 21
-3244.9999999999959
 31
0.0
1001
ACDBBLOCKREPETAG
1070
     1
1071
        1
1005
1280B0
  0
ARC
  5
1280B1
  8
OBJECT
 10
3059.0
 20
-3247.9999999999968
 30
0.0
 40
3.0
 50
270.0
 51
0.0
1001
ACDBBLOCKREPETAG
1070
     1
1071
        2
1005
1280B1
  0
LINE
  5
1280B2
  8
OBJECT
 10
2938.0
 20
-3244.9999999999959
 30
0.0
 11
2938.0
 21
-3247.999999999995
 31
0.0
1001
ACDBBLOCKREPETAG
1070
     1
1071
        3
1005
1280B2
  0
ARC
  5
1280B3
  8
OBJECT
 10
2941.0
 20
-3247.999999999995
 30
0.0
 40
3.0
 50
180.0
 51
270.0
1001
ACDBBLOCKREPETAG
1070
     1
1071
        4
1005
1280B3
  0
LINE
  5
1280B4
  8
OBJECT
 10
2941.0
 20
-3250.999999999995
 30
0.0
 11
3059.0
 21
-3250.9999999999968
 31
0.0
1001
ACDBBLOCKREPETAG
1070
     1
1071
        5
1005
1280B4
  0
POINT
  5
1280B5
  8
DOTS
 10
3000.0
 20
-3174.9999999999959
 30
0.0
 50
270.0
1001
ACDBBLOCKREPETAG
1070
     1
1071
      153
1005
1280B5
  0
ARC
  5
1280B6
  8
OBJECT
 10
3000.0
 20
-3174.9999999999959
 30
0.0
 40
70.0
 50
62.339550100752639
 51
117.6604498992473
1001
ACDBBLOCKREPETAG
1070
     1
1071
        0
1005
1280B6
  0
CIRCLE
  5
1280B7
  8
OBJECT
 10
3000.0
 20
-3174.9999999999959
 30
0.0
 40
65.0
1001
ACDBBLOCKREPETAG
1070
     1
1071
        1
1005
1280B7
  0
CIRCLE
  5
1280B8
  8
OBJECT
 10
3000.0
 20
-3174.9999999999959
 30
0.0
 40
41.0
1001
ACDBBLOCKREPETAG
1070
     1
1071
        2
1005
1280B8
  0
CIRCLE
  5
1280B9
  8
OBJECT
 10
3000.0
 20
-3174.9999999999959
 30
0.0
 40
58.0
1001
ACDBBLOCKREPETAG
1070
     1
1071
        3
1005
1280B9
  0
LINE
  5
1280BA
  8
OBJECT
 10
3070.0
 20
-3112.9999999999959
 30
0.0
 11
3019.5192212959432
 21
-3112.9999999999959
 31
0.0
1001
ACDBBLOCKREPETAG
1070
     1
1071
        4
1005
1280BA
  0
LINE
  5
1280BB
  8
OBJECT
 10
2930.0
 20
-3112.9999999999959
 30
0.0
 11
2980.4807787040559
 21
-3112.9999999999959
 31
0.0
1001
ACDBBLOCKREPETAG
1070
     1
1071
        5
1005
1280BB
  0
LINE
  5
1280BC
  8
OBJECT
 10
2930.0
 20
-3236.9999999999959
 30
0.0
 11
2938.0
 21
-3236.9999999999959
 31
0.0
1001
ACDBBLOCKREPETAG
1070
     1
1071
        6
1005
1280BC
  0
LINE
  5
1280BD
  8
OBJECT
 10
2938.0
 20
-3244.9999999999959
 30
0.0
 11
2938.0
 21
-3236.9999999999959
 31
0.0
1001
ACDBBLOCKREPETAG
1070
     1
1071
        7
1005
1280BD
  0
LINE
  5
1280BE
  8
OBJECT
 10
3070.0
 20
-3236.9999999999959
 30
0.0
 11
3062.0
 21
-3236.9999999999959
 31
0.0
1001
ACDBBLOCKREPETAG
1070
     1
1071
        8
1005
1280BE
  0
LINE
  5
1280BF
  8
OBJECT
 10
3062.0
 20
-3244.9999999999959
 30
0.0
 11
3062.0
 21
-3236.9999999999959
 31
0.0
1001
ACDBBLOCKREPETAG
1070
     1
1071
        9
1005
1280BF
  0
LINE
  5
1280C0
  8
CENTER
 10
2930.0
 20
-3174.9999999999959
 30
0.0
 11
3070.0
 21
-3174.9999999999959
 31
0.0
1001
ACDBBLOCKREPETAG
1070
     1
1071
       10
1005
1280C0
  0
LINE
  5
1280C1
  8
CENTER
 10
3000.0
 20
-3244.9999999999959
 30
0.0
 11
3000.0
 21
-3089.9999999999959
 31
0.0
1001
ACDBBLOCKREPETAG
1070
     1
1071
       11
1005
1280C1
  0
ARC
  5
1280C2
  8
OBJECT
 10
2989.902762139187
 20
-3199.4435290189881
 30
0.0
 40
7.0
 50
73.001272229716378
 51
154.050258789439
1001
ACDBBLOCKREPETAG
1070
     1
1071
       12
1005
1280C2
  0
ARC
  5
1280C3
  8
OBJECT
 10
2986.8376610706518
 20
-3200.5978773169481
 30
0.0
 40
9.0
 50
73.001272229716378
 51
154.05026392593041
1001
ACDBBLOCKREPETAG
1070
     1
1071
       13
1005
1280C3
  0
ARC
  5
1280C4
  8
OBJECT
 10
2896.3142301315529
 20
-3122.2813003114779
 30
0.0
 40
150.0
 50
322.89503374001322
 51
325.89314996972462
1001
ACDBBLOCKREPETAG
1070
     1
1071
       14
1005
1280C4
  0
ARC
  5
1280C5
  8
OBJECT
 10
3000.0
 20
-3174.9999999999959
 30
0.0
 40
37.5
 50
303.16276667668131
 51
229.16350249082569
1001
ACDBBLOCKREPETAG
1070
     1
1071
       15
1005
1280C5
  0
LINE
  5
1280C6
  8
OBJECT
 10
2983.6085145189759
 20
-3196.3804510089681
 30
0.0
 11
2977.3740109999999
 21
-3209.191586999998
 31
0.0
1001
ACDBBLOCKREPETAG
1070
     1
1071
       16
1005
1280C6
  0
LINE
  5
1280C7
  8
OBJECT
 10
2978.7450566344628
 20
-3196.6596348867029
 30
0.0
 11
2973.8986719999989
 21
-3206.6183599999972
 31
0.0
1001
ACDBBLOCKREPETAG
1070
     1
1071
       17
1005
1280C7
  0
LINE
  5
1280C8
  8
OBJECT
 10
3018.9380179999998
 20
-3200.9999999999991
 30
0.0
 11
2989.468815303258
 21
-3191.9910760874409
 31
0.0
1001
ACDBBLOCKREPETAG
1070
     1
1071
       18
1005
1280C8
  0
LINE
  5
1280C9
  8
OBJECT
 10
3020.5132253090051
 20
-3206.3919987802892
 30
0.0
 11
3018.9380179999998
 21
-3200.9999999999991
 31
0.0
1001
ACDBBLOCKREPETAG
1070
     1
1071
       19
1005
1280C9
  0
LINE
  5
1280CA
  8
OBJECT
 10
2954.0380592228739
 20
-3220.9619407771211
 30
0.0
 11
2938.0
 21
-3236.9999999999959
 31
0.0
1001
ACDBBLOCKREPETAG
1070
     1
1071
       42
1005
1280CA
  0
LINE
  5
1280CB
  8
OBJECT
 10
3045.9619407771261
 20
-3220.9619407771211
 30
0.0
 11
3062.0
 21
-3236.9999999999959
 31
0.0
1001
ACDBBLOCKREPETAG
1070
     1
1071
       43
1005
1280CB
  0
LINE
  5
1280CC
  8
OBJECT
 10
3123.0
 20
-3119.9999999999959
 30
0.0
 11
3130.0
 21
-3119.9999999999959
 31
0.0
1001
ACDBBLOCKREPETAG
1070
     1
1071
       27
1005
1280CC
  0
LINE
  5
1280CD
  8
OBJECT
 10
3130.0
 20
-3119.9999999999959
 30
0.0
 11
3130.0
 21
-3229.9999999999959
 31
0.0
1001
ACDBBLOCKREPETAG
1070
     1
1071
       28
1005
1280CD
  0
LINE
  5
1280CE
  8
OBJECT
 10
3130.0
 20
-3229.9999999999959
 30
0.0
 11
3123.0
 21
-3229.9999999999959
 31
0.0
1001
ACDBBLOCKREPETAG
1070
     1
1071
       29
1005
1280CE
  0
LINE
  5
1280CF
  8
OBJECT
 10
3123.0
 20
-3229.9999999999959
 30
0.0
 11
3123.0
 21
-3119.9999999999959
 31
0.0
1001
ACDBBLOCKREPETAG
1070
     1
1071
       30
1005
1280CF
  0
LINE
  5
1280D0
  8
CENTER
 10
3145.0
 20
-3174.9999999999959
 30
0.0
 11
3070.0
 21
-3174.9999999999959
 31
0.0
1001
ACDBBLOCKREPETAG
1070
     1
1071
       31
1005
1280D0
  0
LINE
  5
1280D1
  8
OBJECT
 10
3123.0
 20
-3122.9999999999959
 30
0.0
 11
3087.0
 21
-3122.9999999999959
 31
0.0
1001
ACDBBLOCKREPETAG
1070
     1
1071
       32
1005
1280D1
  0
LINE
  5
1280D2
  8
OBJECT
 10
3087.0
 20
-3122.9999999999959
 30
0.0
 11
3087.0
 21
-3226.9999999999959
 31
0.0
1001
ACDBBLOCKREPETAG
1070
     1
1071
       33
1005
1280D2
  0
LINE
  5
1280D3
  8
OBJECT
 10
3087.0
 20
-3226.9999999999959
 30
0.0
 11
3123.0
 21
-3226.9999999999959
 31
0.0
1001
ACDBBLOCKREPETAG
1070
     1
1071
       34
1005
1280D3
  0
LINE
  5
1280D4
  8
OBJECT
 10
3083.0
 20
-3127.4999999999959
 30
0.0
 11
3076.0
 21
-3127.4999999999959
 31
0.0
1001
ACDBBLOCKREPETAG
1070
     1
1071
       35
1005
1280D4
  0
LINE
  5
1280D5
  8
OBJECT
 10
3076.0
 20
-3222.4999999999959
 30
0.0
 11
3083.0
 21
-3222.4999999999959
 31
0.0
1001
ACDBBLOCKREPETAG
1070
     1
1071
       36
1005
1280D5
  0
LINE
  5
1280D6
  8
OBJECT
 10
3083.0
 20
-3222.4999999999959
 30
0.0
 11
3083.0
 21
-3127.4999999999959
 31
0.0
1001
ACDBBLOCKREPETAG
1070
     1
1071
       37
1005
1280D6
  0
LINE
  5
1280D7
  8
OBJECT
 10
3087.0
 20
-3122.9999999999959
 30
0.0
 11
3083.0
 21
-3127.4999999999959
 31
0.0
1001
ACDBBLOCKREPETAG
1070
     1
1071
       38
1005
1280D7
  0
LINE
  5
1280D8
  8
OBJECT
 10
3087.0
 20
-3226.9999999999959
 30
0.0
 11
3083.0
 21
-3222.4999999999959
 31
0.0
1001
ACDBBLOCKREPETAG
1070
     1
1071
       39
1005
1280D8
  0
LINE
  5
1280D9
  8
OBJECT
 10
3073.0
 20
-3112.9999999999959
 30
0.0
 11
3070.0
 21
-3112.9999999999959
 31
0.0
1001
ACDBBLOCKREPETAG
1070
     1
1071
       40
1005
1280D9
  0
ARC
  5
1280DA
  8
OBJECT
 10
3073.0
 20
-3115.9999999999959
 30
0.0
 40
3.0
 50
0.0
 51
90.0
1001
ACDBBLOCKREPETAG
1070
     1
1071
       41
1005
1280DA
  0
LINE
  5
1280DB
  8
OBJECT
 10
3070.0
 20
-3236.9999999999959
 30
0.0
 11
3073.0
 21
-3236.9999999999959
 31
0.0
1001
ACDBBLOCKREPETAG
1070
     1
1071
       42
1005
1280DB
  0
ARC
  5
1280DC
  8
OBJECT
 10
3073.0
 20
-3233.9999999999959
 30
0.0
 40
3.0
 50
270.0
 51
0.0
1001
ACDBBLOCKREPETAG
1070
     1
1071
       43
1005
1280DC
  0
LINE
  5
1280DD
  8
OBJECT
 10
3076.0
 20
-3233.9999999999959
 30
0.0
 11
3076.0
 21
-3115.9999999999959
 31
0.0
1001
ACDBBLOCKREPETAG
1070
     1
1071
       44
1005
1280DD
  0
LINE
  5
1280DE
  8
HIDDEN
 10
3078.0
 20
-3136.9999999999959
 30
0.0
 11
3078.0
 21
-3212.9999999999959
 31
0.0
1001
ACDBBLOCKREPETAG
1070
     1
1071
       45
1005
1280DE
  0
LINE
  5
1280DF
  8
CENTER
 10
1908.9999999999991
 20
-3174.9999999999959
 30
0.0
 11
1929.9999999999991
 21
-3174.9999999999959
 31
0.0
1001
ACDBBLOCKREPETAG
1070
     1
1071
        0
1005
1280DF
  0
LINE
  5
1280E0
  8
OBJECT
 10
1926.9999999999991
 20
-3236.9999999999959
 30
0.0
 11
1929.9999999999991
 21
-3236.9999999999959
 31
0.0
1001
ACDBBLOCKREPETAG
1070
     1
1071
        1
1005
1280E0
  0
ARC
  5
1280E1
  8
OBJECT
 10
1926.9999999999991
 20
-3233.9999999999959
 30
0.0
 40
3.0
 50
180.0
 51
270.0
1001
ACDBBLOCKREPETAG
1070
     1
1071
        2
1005
1280E1
  0
LINE
  5
1280E2
  8
OBJECT
 10
1929.9999999999991
 20
-3112.9999999999959
 30
0.0
 11
1926.9999999999991
 21
-3112.9999999999959
 31
0.0
1001
ACDBBLOCKREPETAG
1070
     1
1071
        3
1005
1280E2
  0
ARC
  5
1280E3
  8
OBJECT
 10
1926.9999999999991
 20
-3115.9999999999959
 30
0.0
 40
3.0
 50
90.0
 51
180.0
1001
ACDBBLOCKREPETAG
1070
     1
1071
        4
1005
1280E3
  0
LINE
  5
1280E4
  8
OBJECT
 10
1923.9999999999991
 20
-3115.9999999999959
 30
0.0
 11
1923.9999999999991
 21
-3233.9999999999959
 31
0.0
1001
ACDBBLOCKREPETAG
1070
     1
1071
        5
1005
1280E4
  0
LINE
  5
1280E5
  8
CENTER
 10
2000.0
 20
-3265.9999999999959
 30
0.0
 11
2000.0
 21
-3244.9999999999959
 31
0.0
1001
ACDBBLOCKREPETAG
1070
     1
1071
        0
1005
1280E5
  0
LINE
  5
1280E6
  8
OBJECT
 10
2062.0
 20
-3247.9999999999968
 30
0.0
 11
2062.0
 21
-3244.9999999999959
 31
0.0
1001
ACDBBLOCKREPETAG
1070
     1
1071
        1
1005
1280E6
  0
ARC
  5
1280E7
  8
OBJECT
 10
2059.0
 20
-3247.9999999999968
 30
0.0
 40
3.0
 50
270.0
 51
0.0
1001
ACDBBLOCKREPETAG
1070
     1
1071
        2
1005
1280E7
  0
LINE
  5
1280E8
  8
OBJECT
 10
1937.9999999999991
 20
-3244.9999999999959
 30
0.0
 11
1937.9999999999991
 21
-3247.999999999995
 31
0.0
1001
ACDBBLOCKREPETAG
1070
     1
1071
        3
1005
1280E8
  0
ARC
  5
1280E9
  8
OBJECT
 10
1941.0
 20
-3247.999999999995
 30
0.0
 40
3.0
 50
180.0
 51
270.0
1001
ACDBBLOCKREPETAG
1070
     1
1071
        4
1005
1280E9
  0
LINE
  5
1280EA
  8
OBJECT
 10
1941.0
 20
-3250.999999999995
 30
0.0
 11
2059.0
 21
-3250.9999999999968
 31
0.0
1001
ACDBBLOCKREPETAG
1070
     1
1071
        5
1005
1280EA
  0
POINT
  5
1280EB
  8
DOTS
 10
2000.0
 20
-3174.9999999999959
 30
0.0
 50
270.0
1001
ACDBBLOCKREPETAG
1070
     1
1071
      153
1005
1280EB
  0
ARC
  5
1280EC
  8
OBJECT
 10
2000.0
 20
-3174.9999999999959
 30
0.0
 40
70.0
 50
62.339550100752639
 51
117.6604498992473
1001
ACDBBLOCKREPETAG
1070
     1
1071
        0
1005
1280EC
  0
CIRCLE
  5
1280ED
  8
OBJECT
 10
2000.0
 20
-3174.9999999999959
 30
0.0
 40
65.0
1001
ACDBBLOCKREPETAG
1070
     1
1071
        1
1005
1280ED
  0
CIRCLE
  5
1280EE
  8
OBJECT
 10
2000.0
 20
-3174.9999999999959
 30
0.0
 40
41.0
1001
ACDBBLOCKREPETAG
1070
     1
1071
        2
1005
1280EE
  0
CIRCLE
  5
1280EF
  8
OBJECT
 10
2000.0
 20
-3174.9999999999959
 30
0.0
 40
58.0
1001
ACDBBLOCKREPETAG
1070
     1
1071
        3
1005
1280EF
  0
LINE
  5
1280F0
  8
OBJECT
 10
2070.0
 20
-3112.9999999999959
 30
0.0
 11
2019.519221295943
 21
-3112.9999999999959
 31
0.0
1001
ACDBBLOCKREPETAG
1070
     1
1071
        4
1005
1280F0
  0
LINE
  5
1280F1
  8
OBJECT
 10
1929.9999999999991
 20
-3112.9999999999959
 30
0.0
 11
1980.4807787040561
 21
-3112.9999999999959
 31
0.0
1001
ACDBBLOCKREPETAG
1070
     1
1071
        5
1005
1280F1
  0
LINE
  5
1280F2
  8
OBJECT
 10
1929.9999999999991
 20
-3236.9999999999959
 30
0.0
 11
1937.9999999999991
 21
-3236.9999999999959
 31
0.0
1001
ACDBBLOCKREPETAG
1070
     1
1071
        6
1005
1280F2
  0
LINE
  5
1280F3
  8
OBJECT
 10
1937.9999999999991
 20
-3244.9999999999959
 30
0.0
 11
1937.9999999999991
 21
-3236.9999999999959
 31
0.0
1001
ACDBBLOCKREPETAG
1070
     1
1071
        7
1005
1280F3
  0
LINE
  5
1280F4
  8
OBJECT
 10
2070.0
 20
-3236.9999999999959
 30
0.0
 11
2062.0
 21
-3236.9999999999959
 31
0.0
1001
ACDBBLOCKREPETAG
1070
     1
1071
        8
1005
1280F4
  0
LINE
  5
1280F5
  8
OBJECT
 10
2062.0
 20
-3244.9999999999959
 30
0.0
 11
2062.0
 21
-3236.9999999999959
 31
0.0
1001
ACDBBLOCKREPETAG
1070
     1
1071
        9
1005
1280F5
  0
LINE
  5
1280F6
  8
CENTER
 10
1929.9999999999991
 20
-3174.9999999999959
 30
0.0
 11
2070.0
 21
-3174.9999999999959
 31
0.0
1001
ACDBBLOCKREPETAG
1070
     1
1071
       10
1005
1280F6
  0
LINE
  5
1280F7
  8
CENTER
 10
2000.0
 20
-3244.9999999999959
 30
0.0
 11
2000.0
 21
-3089.9999999999959
 31
0.0
1001
ACDBBLOCKREPETAG
1070
     1
1071
       11
1005
1280F7
  0
ARC
  5
1280F8
  8
OBJECT
 10
1989.9027621391861
 20
-3199.4435290189881
 30
0.0
 40
7.0
 50
73.001272229703943
 51
154.05025878943329
1001
ACDBBLOCKREPETAG
1070
     1
1071
       12
1005
1280F8
  0
ARC
  5
1280F9
  8
OBJECT
 10
1986.83766107065
 20
-3200.5978773169481
 30
0.0
 40
9.0
 50
73.001272229703943
 51
154.05026392593629
1001
ACDBBLOCKREPETAG
1070
     1
1071
       13
1005
1280F9
  0
ARC
  5
1280FA
  8
OBJECT
 10
1896.314230131552
 20
-3122.2813003114779
 30
0.0
 40
150.0
 50
322.89503374000537
 51
325.89314996972462
1001
ACDBBLOCKREPETAG
1070
     1
1071
       14
1005
1280FA
  0
ARC
  5
1280FB
  8
OBJECT
 10
2000.0
 20
-3174.9999999999959
 30
0.0
 40
37.5
 50
303.16276667667029
 51
229.16350249082569
1001
ACDBBLOCKREPETAG
1070
     1
1071
       15
1005
1280FB
  0
LINE
  5
1280FC
  8
OBJECT
 10
1983.608514518975
 20
-3196.3804510089681
 30
0.0
 11
1977.374010999999
 21
-3209.191586999998
 31
0.0
1001
ACDBBLOCKREPETAG
1070
     1
1071
       16
1005
1280FC
  0
LINE
  5
1280FD
  8
OBJECT
 10
1978.745056634463
 20
-3196.6596348867029
 30
0.0
 11
1973.898671999998
 21
-3206.6183599999972
 31
0.0
1001
ACDBBLOCKREPETAG
1070
     1
1071
       17
1005
1280FD
  0
LINE
  5
1280FE
  8
OBJECT
 10
2018.9380180000001
 20
-3200.9999999999991
 30
0.0
 11
1989.468815303258
 21
-3191.9910760874409
 31
0.0
1001
ACDBBLOCKREPETAG
1070
     1
1071
       18
1005
1280FE
  0
LINE
  5
1280FF
  8
OBJECT
 10
2020.5132253090051
 20
-3206.3919987802892
 30
0.0
 11
2018.9380180000001
 21
-3200.9999999999991
 31
0.0
1001
ACDBBLOCKREPETAG
1070
     1
1071
       19
1005
1280FF
  0
LINE
  5
128100
  8
OBJECT
 10
1954.038059222873
 20
-3220.9619407771211
 30
0.0
 11
1937.9999999999991
 21
-3236.9999999999959
 31
0.0
1001
ACDBBLOCKREPETAG
1070
     1
1071
       42
1005
128100
  0
LINE
  5
128101
  8
OBJECT
 10
2045.9619407771249
 20
-3220.9619407771211
 30
0.0
 11
2062.0
 21
-3236.9999999999959
 31
0.0
1001
ACDBBLOCKREPETAG
1070
     1
1071
       43
1005
128101
  0
LINE
  5
128102
  8
OBJECT
 10
2123.0
 20
-3127.9999999999959
 30
0.0
 11
2130.0
 21
-3127.9999999999959
 31
0.0
1001
ACDBBLOCKREPETAG
1070
     1
1071
        7
1005
128102
  0
LINE
  5
128103
  8
OBJECT
 10
2130.0
 20
-3127.9999999999959
 30
0.0
 11
2130.0
 21
-3221.9999999999959
 31
0.0
1001
ACDBBLOCKREPETAG
1070
     1
1071
        8
1005
128103
  0
LINE
  5
128104
  8
OBJECT
 10
2130.0
 20
-3221.9999999999959
 30
0.0
 11
2123.0
 21
-3221.9999999999959
 31
0.0
1001
ACDBBLOCKREPETAG
1070
     1
1071
        9
1005
128104
  0
LINE
  5
128105
  8
OBJECT
 10
2123.0
 20
-3221.9999999999959
 30
0.0
 11
2123.0
 21
-3127.9999999999959
 31
0.0
1001
ACDBBLOCKREPETAG
1070
     1
1071
       10
1005
128105
  0
LINE
  5
128106
  8
CENTER
 10
2145.0
 20
-3174.9999999999959
 30
0.0
 11
2070.0
 21
-3174.9999999999959
 31
0.0
1001
ACDBBLOCKREPETAG
1070
     1
1071
       11
1005
128106
  0
LINE
  5
128107
  8
OBJECT
 10
2123.0
 20
-3130.9999999999959
 30
0.0
 11
2087.0
 21
-3130.9999999999959
 31
0.0
1001
ACDBBLOCKREPETAG
1070
     1
1071
       12
1005
128107
  0
LINE
  5
128108
  8
OBJECT
 10
2087.0
 20
-3130.9999999999959
 30
0.0
 11
2087.0
 21
-3218.9999999999959
 31
0.0
1001
ACDBBLOCKREPETAG
1070
     1
1071
       13
1005
128108
  0
LINE
  5
128109
  8
OBJECT
 10
2087.0
 20
-3218.9999999999959
 30
0.0
 11
2123.0
 21
-3218.9999999999959
 31
0.0
1001
ACDBBLOCKREPETAG
1070
     1
1071
       14
1005
128109
  0
LINE
  5
12810A
  8
OBJECT
 10
2083.0
 20
-3135.4999999999959
 30
0.0
 11
2076.0
 21
-3135.4999999999959
 31
0.0
1001
ACDBBLOCKREPETAG
1070
     1
1071
       15
1005
12810A
  0
LINE
  5
12810B
  8
OBJECT
 10
2076.0
 20
-3214.4999999999959
 30
0.0
 11
2083.0
 21
-3214.4999999999959
 31
0.0
1001
ACDBBLOCKREPETAG
1070
     1
1071
       16
1005
12810B
  0
LINE
  5
12810C
  8
OBJECT
 10
2083.0
 20
-3214.4999999999959
 30
0.0
 11
2083.0
 21
-3135.4999999999959
 31
0.0
1001
ACDBBLOCKREPETAG
1070
     1
1071
       17
1005
12810C
  0
LINE
  5
12810D
  8
OBJECT
 10
2087.0
 20
-3130.9999999999959
 30
0.0
 11
2083.0
 21
-3135.4999999999959
 31
0.0
1001
ACDBBLOCKREPETAG
1070
     1
1071
       18
1005
12810D
  0
LINE
  5
12810E
  8
OBJECT
 10
2087.0
 20
-3218.9999999999959
 30
0.0
 11
2083.0
 21
-3214.4999999999959
 31
0.0
1001
ACDBBLOCKREPETAG
1070
     1
1071
       19
1005
12810E
  0
LINE
  5
12810F
  8
OBJECT
 10
2073.0
 20
-3112.9999999999959
 30
0.0
 11
2070.0
 21
-3112.9999999999959
 31
0.0
1001
ACDBBLOCKREPETAG
1070
     1
1071
       20
1005
12810F
  0
ARC
  5
128110
  8
OBJECT
 10
2073.0
 20
-3115.9999999999959
 30
0.0
 40
3.0
 50
0.0
 51
90.0
1001
ACDBBLOCKREPETAG
1070
     1
1071
       21
1005
128110
  0
LINE
  5
128111
  8
OBJECT
 10
2070.0
 20
-3236.9999999999959
 30
0.0
 11
2073.0
 21
-3236.9999999999959
 31
0.0
1001
ACDBBLOCKREPETAG
1070
     1
1071
       22
1005
128111
  0
ARC
  5
128112
  8
OBJECT
 10
2073.0
 20
-3233.9999999999959
 30
0.0
 40
3.0
 50
270.0
 51
0.0
1001
ACDBBLOCKREPETAG
1070
     1
1071
       23
1005
128112
  0
LINE
  5
128113
  8
OBJECT
 10
2076.0
 20
-3233.9999999999959
 30
0.0
 11
2076.0
 21
-3115.9999999999959
 31
0.0
1001
ACDBBLOCKREPETAG
1070
     1
1071
       24
1005
128113
  0
LINE
  5
128114
  8
HIDDEN
 10
2078.0
 20
-3144.9999999999959
 30
0.0
 11
2078.0
 21
-3204.9999999999959
 31
0.0
1001
ACDBBLOCKREPETAG
1070
     1
1071
       25
1005
128114
  0
LINE
  5
128115
  8
OBJECT
 10
3327.0
 20
-3458.9999999999959
 30
0.0
 11
3330.0
 21
-3458.9999999999959
 31
0.0
1001
ACDBBLOCKREPETAG
1070
     1
1071
        1
1005
128115
  0
ARC
  5
128116
  8
OBJECT
 10
3327.0
 20
-3461.9999999999959
 30
0.0
 40
3.0
 50
90.0
 51
180.0
1001
ACDBBLOCKREPETAG
1070
     1
1071
        2
1005
128116
  0
LINE
  5
128117
  8
OBJECT
 10
3330.0
 20
-3582.9999999999968
 30
0.0
 11
3327.0
 21
-3582.9999999999968
 31
0.0
1001
ACDBBLOCKREPETAG
1070
     1
1071
        3
1005
128117
  0
ARC
  5
128118
  8
OBJECT
 10
3327.0
 20
-3579.9999999999959
 30
0.0
 40
3.0
 50
180.0
 51
270.0
1001
ACDBBLOCKREPETAG
1070
     1
1071
        4
1005
128118
  0
LINE
  5
128119
  8
OBJECT
 10
3324.0
 20
-3579.9999999999959
 30
0.0
 11
3324.0
 21
-3461.9999999999959
 31
0.0
1001
ACDBBLOCKREPETAG
1070
     1
1071
        5
1005
128119
  0
LINE
  5
12811A
  8
OBJECT
 10
3334.9999999999991
 20
-3374.9999999999959
 30
0.0
 11
3334.9999999999991
 21
-3395.9999999999959
 31
0.0
1001
ACDBBLOCKREPETAG
1070
     1
1071
       36
1005
12811A
  0
LINE
  5
12811B
  8
OBJECT
 10
3334.9999999999991
 20
-3395.9999999999959
 30
0.0
 11
3465.0
 21
-3395.9999999999959
 31
0.0
1001
ACDBBLOCKREPETAG
1070
     1
1071
       37
1005
12811B
  0
LINE
  5
12811C
  8
OBJECT
 10
3465.0
 20
-3395.9999999999959
 30
0.0
 11
3465.0
 21
-3374.9999999999959
 31
0.0
1001
ACDBBLOCKREPETAG
1070
     1
1071
       38
1005
12811C
  0
LINE
  5
12811D
  8
OBJECT
 10
3465.0
 20
-3374.9999999999959
 30
0.0
 11
3334.9999999999991
 21
-3374.9999999999959
 31
0.0
1001
ACDBBLOCKREPETAG
1070
     1
1071
       39
1005
12811D
  0
LINE
  5
12811E
  8
HIDDEN
 10
3444.5
 20
-3444.9999999999959
 30
0.0
 11
3355.4999999999991
 21
-3444.9999999999959
 31
0.0
1001
ACDBBLOCKREPETAG
1070
     1
1071
       40
1005
12811E
  0
LINE
  5
12811F
  8
CENTER
 10
3399.9999999999991
 20
-3594.9999999999959
 30
0.0
 11
3399.9999999999991
 21
-3359.9999999999959
 31
0.0
1001
ACDBBLOCKREPETAG
1070
     1
1071
       41
1005
12811F
  0
LINE
  5
128120
  8
OBJECT
 10
3340.5
 20
-3395.9999999999959
 30
0.0
 11
3340.5
 21
-3458.9999999999959
 31
0.0
1001
ACDBBLOCKREPETAG
1070
     1
1071
       42
1005
128120
  0
LINE
  5
128121
  8
OBJECT
 10
3330.0
 20
-3458.9999999999959
 30
0.0
 11
3465.0000101378168
 21
-3458.9999999999959
 31
0.0
1001
ACDBBLOCKREPETAG
1070
     1
1071
       43
1005
128121
  0
LINE
  5
128122
  8
OBJECT
 10
3459.5
 20
-3458.9999999999959
 30
0.0
 11
3459.5
 21
-3395.9999999999959
 31
0.0
1001
ACDBBLOCKREPETAG
1070
     1
1071
       44
1005
128122
  0
LINE
  5
128123
  8
OBJECT
 10
3335.0
 20
-3582.9999999999968
 30
0.0
 11
3330.0
 21
-3582.9999999999968
 31
0.0
1001
ACDBBLOCKREPETAG
1070
     1
1071
       48
1005
128123
  0
LINE
  5
128124
  8
OBJECT
 10
3465.0000101378168
 20
-3583.0000021659139
 30
0.0
 11
3465.0000101378168
 21
-3458.9999999999959
 31
0.0
1001
ACDBBLOCKREPETAG
1070
     1
1071
       51
1005
128124
  0
ARC
  5
128125
  8
OBJECT
 10
2964.9615610053229
 20
-3823.608136846824
 30
0.0
 40
519.48776673616965
 50
41.499473443784993
 51
44.576493325685597
1001
ACDBBLOCKREPETAG
1070
     1
1071
       52
1005
128125
  0
ARC
  5
128126
  8
OBJECT
 10
2964.9615610053229
 20
-3218.3918631531678
 30
0.0
 40
519.48776673616965
 50
315.42350667431441
 51
318.50052655621488
1001
ACDBBLOCKREPETAG
1070
     1
1071
       53
1005
128126
  0
POINT
  5
128127
  8
DOTS
 10
3399.9999999999991
 20
-3579.9999999999959
 30
0.0
1001
ACDBBLOCKREPETAG
1070
     1
1071
      112
1005
128127
  0
LINE
  5
128128
  8
OBJECT
 10
2927.0
 20
-3458.9999999999959
 30
0.0
 11
2930.0
 21
-3458.9999999999959
 31
0.0
1001
ACDBBLOCKREPETAG
1070
     1
1071
        1
1005
128128
  0
ARC
  5
128129
  8
OBJECT
 10
2927.0
 20
-3461.9999999999959
 30
0.0
 40
3.0
 50
90.0
 51
180.0
1001
ACDBBLOCKREPETAG
1070
     1
1071
        2
1005
128129
  0
LINE
  5
12812A
  8
OBJECT
 10
2930.0
 20
-3582.9999999999968
 30
0.0
 11
2927.0
 21
-3582.9999999999968
 31
0.0
1001
ACDBBLOCKREPETAG
1070
     1
1071
        3
1005
12812A
  0
ARC
  5
12812B
  8
OBJECT
 10
2927.0
 20
-3579.9999999999959
 30
0.0
 40
3.0
 50
180.0
 51
270.0
1001
ACDBBLOCKREPETAG
1070
     1
1071
        4
1005
12812B
  0
LINE
  5
12812C
  8
OBJECT
 10
2924.0
 20
-3579.9999999999959
 30
0.0
 11
2924.0
 21
-3461.9999999999959
 31
0.0
1001
ACDBBLOCKREPETAG
1070
     1
1071
        5
1005
12812C
  0
CIRCLE
  5
12812D
  8
OBJECT
 10
3000.0
 20
-3520.9999999999968
 30
0.0
 40
62.0
1001
ACDBBLOCKREPETAG
1070
     1
1071
        0
1005
12812D
  0
LINE
  5
12812E
  8
OBJECT
 10
2935.0
 20
-3374.9999999999959
 30
0.0
 11
2935.0
 21
-3395.9999999999959
 31
0.0
1001
ACDBBLOCKREPETAG
1070
     1
1071
       16
1005
12812E
  0
LINE
  5
12812F
  8
OBJECT
 10
2935.0
 20
-3395.9999999999959
 30
0.0
 11
3064.9999999999991
 21
-3395.9999999999959
 31
0.0
1001
ACDBBLOCKREPETAG
1070
     1
1071
       17
1005
12812F
  0
LINE
  5
128130
  8
OBJECT
 10
3064.9999999999991
 20
-3395.9999999999959
 30
0.0
 11
3064.9999999999991
 21
-3374.9999999999959
 31
0.0
1001
ACDBBLOCKREPETAG
1070
     1
1071
       18
1005
128130
  0
LINE
  5
128131
  8
OBJECT
 10
3064.9999999999991
 20
-3374.9999999999959
 30
0.0
 11
2935.0
 21
-3374.9999999999959
 31
0.0
1001
ACDBBLOCKREPETAG
1070
     1
1071
       19
1005
128131
  0
LINE
  5
128132
  8
HIDDEN
 10
3044.5
 20
-3444.9999999999959
 30
0.0
 11
2955.5
 21
-3444.9999999999959
 31
0.0
1001
ACDBBLOCKREPETAG
1070
     1
1071
       20
1005
128132
  0
LINE
  5
128133
  8
CENTER
 10
3000.0
 20
-3594.9999999999959
 30
0.0
 11
3000.0
 21
-3359.9999999999959
 31
0.0
1001
ACDBBLOCKREPETAG
1070
     1
1071
       21
1005
128133
  0
LINE
  5
128134
  8
OBJECT
 10
2940.5
 20
-3395.9999999999959
 30
0.0
 11
2940.5
 21
-3458.9999999999959
 31
0.0
1001
ACDBBLOCKREPETAG
1070
     1
1071
       22
1005
128134
  0
LINE
  5
128135
  8
OBJECT
 10
2930.0
 20
-3458.9999999999959
 30
0.0
 11
3070.0
 21
-3458.9999999999959
 31
0.0
1001
ACDBBLOCKREPETAG
1070
     1
1071
       23
1005
128135
  0
LINE
  5
128136
  8
OBJECT
 10
3059.5
 20
-3458.9999999999959
 30
0.0
 11
3059.5
 21
-3395.9999999999959
 31
0.0
1001
ACDBBLOCKREPETAG
1070
     1
1071
       24
1005
128136
  0
LINE
  5
128137
  8
OBJECT
 10
3070.0
 20
-3582.9999999999968
 30
0.0
 11
3064.9999999999991
 21
-3582.9999999999968
 31
0.0
1001
ACDBBLOCKREPETAG
1070
     1
1071
       28
1005
128137
  0
LINE
  5
128138
  8
OBJECT
 10
2935.0
 20
-3582.9999999999968
 30
0.0
 11
2930.0
 21
-3582.9999999999968
 31
0.0
1001
ACDBBLOCKREPETAG
1070
     1
1071
      116
1005
128138
  0
ARC
  5
128139
  8
OBJECT
 10
3435.0384389946771
 20
-3823.608136846824
 30
0.0
 40
519.48776673616965
 50
135.42350667431441
 51
138.50052655621499
1001
ACDBBLOCKREPETAG
1070
     1
1071
       32
1005
128139
  0
ARC
  5
12813A
  8
OBJECT
 10
3435.0384389946771
 20
-3218.3918631531678
 30
0.0
 40
519.48776673616965
 50
221.49947344378501
 51
224.57649332568559
1001
ACDBBLOCKREPETAG
1070
     1
1071
       33
1005
12813A
  0
ARC
  5
12813B
  8
OBJECT
 10
2564.961561005322
 20
-3823.608136846824
 30
0.0
 40
519.48776673616965
 50
41.499473443784993
 51
44.576493325685597
1001
ACDBBLOCKREPETAG
1070
     1
1071
       34
1005
12813B
  0
ARC
  5
12813C
  8
OBJECT
 10
2564.961561005322
 20
-3218.3918631531678
 30
0.0
 40
519.48776673616965
 50
315.42350667431441
 51
318.50052655621488
1001
ACDBBLOCKREPETAG
1070
     1
1071
       35
1005
12813C
  0
POINT
  5
12813D
  8
DOTS
 10
3000.0
 20
-3579.9999999999959
 30
0.0
1001
ACDBBLOCKREPETAG
1070
     1
1071
      111
1005
12813D
  0
CIRCLE
  5
12813E
  8
OBJECT
 10
3400.0
 20
-3527.9999999999968
 30
0.0
 40
35.5
1001
ACDBBLOCKREPETAG
1070
     1
1071
       10
1005
12813E
  0
CIRCLE
  5
12813F
  8
OBJECT
 10
3400.0
 20
-3520.9999999999968
 30
0.0
 40
62.0
1001
ACDBBLOCKREPETAG
1070
     1
1071
       11
1005
12813F
  0
LINE
  5
128140
  8
CENTER
 10
3330.0
 20
-3527.9999999999968
 30
0.0
 11
3470.0
 21
-3527.9999999999968
 31
0.0
1001
ACDBBLOCKREPETAG
1070
     1
1071
       12
1005
128140
  0
CIRCLE
  5
128141
  8
OBJECT
 10
3400.0
 20
-3527.9999999999968
 30
0.0
 40
47.0
1001
ACDBBLOCKREPETAG
1070
     1
1071
       14
1005
128141
  0
ARC
  5
128142
  8
OBJECT
 10
3400.0
 20
-3527.9999999999968
 30
0.0
 40
55.0
 50
289.01126526011359
 51
250.98873473988641
1001
ACDBBLOCKREPETAG
1070
     1
1071
       15
1005
128142
  0
LINE
  5
128143
  8
OBJECT
 10
3382.0835271328328
 20
-3579.9999999999968
 30
0.0
 11
3417.9164728671681
 21
-3579.9999999999968
 31
0.0
1001
ACDBBLOCKREPETAG
1070
     1
1071
       16
1005
128143
  0
LINE
  5
128144
  8
OBJECT
 10
3123.0
 20
-3472.9999999999968
 30
0.0
 11
3130.0
 21
-3472.9999999999968
 31
0.0
1001
ACDBBLOCKREPETAG
1070
     1
1071
       26
1005
128144
  0
LINE
  5
128145
  8
OBJECT
 10
3130.0
 20
-3472.9999999999968
 30
0.0
 11
3130.0
 21
-3579.9999999999968
 31
0.0
1001
ACDBBLOCKREPETAG
1070
     1
1071
       27
1005
128145
  0
LINE
  5
128146
  8
OBJECT
 10
3123.0
 20
-3579.9999999999968
 30
0.0
 11
3123.0
 21
-3472.9999999999968
 31
0.0
1001
ACDBBLOCKREPETAG
1070
     1
1071
       28
1005
128146
  0
LINE
  5
128147
  8
CENTER
 10
3145.0
 20
-3527.9999999999968
 30
0.0
 11
3061.0
 21
-3527.9999999999968
 31
0.0
1001
ACDBBLOCKREPETAG
1070
     1
1071
       29
1005
128147
  0
LINE
  5
128148
  8
OBJECT
 10
3123.0
 20
-3475.9999999999968
 30
0.0
 11
3087.0
 21
-3475.9999999999968
 31
0.0
1001
ACDBBLOCKREPETAG
1070
     1
1071
       30
1005
128148
  0
LINE
  5
128149
  8
OBJECT
 10
3087.0
 20
-3475.9999999999968
 30
0.0
 11
3087.0
 21
-3579.9999999999968
 31
0.0
1001
ACDBBLOCKREPETAG
1070
     1
1071
       31
1005
128149
  0
LINE
  5
12814A
  8
OBJECT
 10
3087.0
 20
-3579.9999999999968
 30
0.0
 11
3130.0
 21
-3579.9999999999968
 31
0.0
1001
ACDBBLOCKREPETAG
1070
     1
1071
       32
1005
12814A
  0
LINE
  5
12814B
  8
OBJECT
 10
3083.0
 20
-3480.4999999999968
 30
0.0
 11
3076.0
 21
-3480.4999999999968
 31
0.0
1001
ACDBBLOCKREPETAG
1070
     1
1071
       33
1005
12814B
  0
LINE
  5
12814C
  8
OBJECT
 10
3076.0
 20
-3575.4999999999968
 30
0.0
 11
3083.0
 21
-3575.4999999999968
 31
0.0
1001
ACDBBLOCKREPETAG
1070
     1
1071
       34
1005
12814C
  0
LINE
  5
12814D
  8
OBJECT
 10
3083.0
 20
-3575.4999999999968
 30
0.0
 11
3083.0
 21
-3480.4999999999968
 31
0.0
1001
ACDBBLOCKREPETAG
1070
     1
1071
       35
1005
12814D
  0
LINE
  5
12814E
  8
OBJECT
 10
3087.0
 20
-3475.9999999999968
 30
0.0
 11
3083.0
 21
-3480.4999999999968
 31
0.0
1001
ACDBBLOCKREPETAG
1070
     1
1071
       36
1005
12814E
  0
LINE
  5
12814F
  8
OBJECT
 10
3087.0
 20
-3579.9999999999968
 30
0.0
 11
3083.0
 21
-3575.4999999999968
 31
0.0
1001
ACDBBLOCKREPETAG
1070
     1
1071
       37
1005
12814F
  0
LINE
  5
128150
  8
OBJECT
 10
3073.0
 20
-3458.9999999999968
 30
0.0
 11
3070.0
 21
-3458.9999999999968
 31
0.0
1001
ACDBBLOCKREPETAG
1070
     1
1071
       38
1005
128150
  0
ARC
  5
128151
  8
OBJECT
 10
3073.0
 20
-3461.9999999999968
 30
0.0
 40
3.0
 50
0.0
 51
90.0
1001
ACDBBLOCKREPETAG
1070
     1
1071
       39
1005
128151
  0
LINE
  5
128152
  8
OBJECT
 10
3070.0
 20
-3582.9999999999968
 30
0.0
 11
3073.0
 21
-3582.9999999999968
 31
0.0
1001
ACDBBLOCKREPETAG
1070
     1
1071
       40
1005
128152
  0
ARC
  5
128153
  8
OBJECT
 10
3073.0
 20
-3579.9999999999968
 30
0.0
 40
3.0
 50
270.0
 51
0.0
1001
ACDBBLOCKREPETAG
1070
     1
1071
       41
1005
128153
  0
LINE
  5
128154
  8
OBJECT
 10
3076.0
 20
-3579.9999999999968
 30
0.0
 11
3076.0
 21
-3461.9999999999968
 31
0.0
1001
ACDBBLOCKREPETAG
1070
     1
1071
       42
1005
128154
  0
LINE
  5
128155
  8
HIDDEN
 10
3078.0
 20
-3489.9999999999968
 30
0.0
 11
3078.0
 21
-3565.9999999999968
 31
0.0
1001
ACDBBLOCKREPETAG
1070
     1
1071
       43
1005
128155
  0
LINE
  5
128156
  8
OBJECT
 10
2327.0
 20
-3458.9999999999959
 30
0.0
 11
2330.0
 21
-3458.9999999999959
 31
0.0
1001
ACDBBLOCKREPETAG
1070
     1
1071
        1
1005
128156
  0
ARC
  5
128157
  8
OBJECT
 10
2327.0
 20
-3461.9999999999959
 30
0.0
 40
3.0
 50
90.0
 51
180.0
1001
ACDBBLOCKREPETAG
1070
     1
1071
        2
1005
128157
  0
LINE
  5
128158
  8
OBJECT
 10
2330.0
 20
-3582.9999999999968
 30
0.0
 11
2327.0
 21
-3582.9999999999968
 31
0.0
1001
ACDBBLOCKREPETAG
1070
     1
1071
        3
1005
128158
  0
ARC
  5
128159
  8
OBJECT
 10
2327.0
 20
-3579.9999999999959
 30
0.0
 40
3.0
 50
180.0
 51
270.0
1001
ACDBBLOCKREPETAG
1070
     1
1071
        4
1005
128159
  0
LINE
  5
12815A
  8
OBJECT
 10
2324.0
 20
-3579.9999999999959
 30
0.0
 11
2324.0
 21
-3461.9999999999959
 31
0.0
1001
ACDBBLOCKREPETAG
1070
     1
1071
        5
1005
12815A
  0
LINE
  5
12815B
  8
OBJECT
 10
2334.9999999999991
 20
-3374.9999999999959
 30
0.0
 11
2334.9999999999991
 21
-3395.9999999999959
 31
0.0
1001
ACDBBLOCKREPETAG
1070
     1
1071
       36
1005
12815B
  0
LINE
  5
12815C
  8
OBJECT
 10
2334.9999999999991
 20
-3395.9999999999959
 30
0.0
 11
2465.0
 21
-3395.9999999999959
 31
0.0
1001
ACDBBLOCKREPETAG
1070
     1
1071
       37
1005
12815C
  0
LINE
  5
12815D
  8
OBJECT
 10
2465.0
 20
-3395.9999999999959
 30
0.0
 11
2465.0
 21
-3374.9999999999959
 31
0.0
1001
ACDBBLOCKREPETAG
1070
     1
1071
       38
1005
12815D
  0
LINE
  5
12815E
  8
OBJECT
 10
2465.0
 20
-3374.9999999999959
 30
0.0
 11
2334.9999999999991
 21
-3374.9999999999959
 31
0.0
1001
ACDBBLOCKREPETAG
1070
     1
1071
       39
1005
12815E
  0
LINE
  5
12815F
  8
HIDDEN
 10
2444.5
 20
-3444.9999999999959
 30
0.0
 11
2355.5
 21
-3444.9999999999959
 31
0.0
1001
ACDBBLOCKREPETAG
1070
     1
1071
       40
1005
12815F
  0
LINE
  5
128160
  8
CENTER
 10
2400.0
 20
-3594.9999999999959
 30
0.0
 11
2400.0
 21
-3359.9999999999959
 31
0.0
1001
ACDBBLOCKREPETAG
1070
     1
1071
       41
1005
128160
  0
LINE
  5
128161
  8
OBJECT
 10
2340.5
 20
-3395.9999999999959
 30
0.0
 11
2340.5
 21
-3458.9999999999959
 31
0.0
1001
ACDBBLOCKREPETAG
1070
     1
1071
       42
1005
128161
  0
LINE
  5
128162
  8
OBJECT
 10
2330.0
 20
-3458.9999999999959
 30
0.0
 11
2465.0000101378168
 21
-3458.9999999999959
 31
0.0
1001
ACDBBLOCKREPETAG
1070
     1
1071
       43
1005
128162
  0
LINE
  5
128163
  8
OBJECT
 10
2459.5
 20
-3458.9999999999959
 30
0.0
 11
2459.5
 21
-3395.9999999999959
 31
0.0
1001
ACDBBLOCKREPETAG
1070
     1
1071
       44
1005
128163
  0
LINE
  5
128164
  8
OBJECT
 10
2335.0
 20
-3582.9999999999968
 30
0.0
 11
2330.0
 21
-3582.9999999999968
 31
0.0
1001
ACDBBLOCKREPETAG
1070
     1
1071
       48
1005
128164
  0
LINE
  5
128165
  8
OBJECT
 10
2465.0000101378168
 20
-3583.0000021659139
 30
0.0
 11
2465.0000101378168
 21
-3458.9999999999959
 31
0.0
1001
ACDBBLOCKREPETAG
1070
     1
1071
       51
1005
128165
  0
ARC
  5
128166
  8
OBJECT
 10
1964.961561005322
 20
-3823.608136846824
 30
0.0
 40
519.48776673616965
 50
41.499473443784993
 51
44.576493325685597
1001
ACDBBLOCKREPETAG
1070
     1
1071
       52
1005
128166
  0
ARC
  5
128167
  8
OBJECT
 10
1964.961561005322
 20
-3218.3918631531678
 30
0.0
 40
519.48776673616965
 50
315.42350667431441
 51
318.50052655621488
1001
ACDBBLOCKREPETAG
1070
     1
1071
       53
1005
128167
  0
POINT
  5
128168
  8
DOTS
 10
2400.0
 20
-3579.9999999999959
 30
0.0
1001
ACDBBLOCKREPETAG
1070
     1
1071
      112
1005
128168
  0
LINE
  5
128169
  8
OBJECT
 10
1927.0
 20
-3458.9999999999959
 30
0.0
 11
1929.9999999999991
 21
-3458.9999999999959
 31
0.0
1001
ACDBBLOCKREPETAG
1070
     1
1071
        1
1005
128169
  0
ARC
  5
12816A
  8
OBJECT
 10
1927.0
 20
-3461.9999999999959
 30
0.0
 40
3.0
 50
90.0
 51
180.0
1001
ACDBBLOCKREPETAG
1070
     1
1071
        2
1005
12816A
  0
LINE
  5
12816B
  8
OBJECT
 10
1929.9999999999991
 20
-3582.9999999999968
 30
0.0
 11
1927.0
 21
-3582.9999999999968
 31
0.0
1001
ACDBBLOCKREPETAG
1070
     1
1071
        3
1005
12816B
  0
ARC
  5
12816C
  8
OBJECT
 10
1927.0
 20
-3579.9999999999959
 30
0.0
 40
3.0
 50
180.0
 51
270.0
1001
ACDBBLOCKREPETAG
1070
     1
1071
        4
1005
12816C
  0
LINE
  5
12816D
  8
OBJECT
 10
1924.0
 20
-3579.9999999999959
 30
0.0
 11
1924.0
 21
-3461.9999999999959
 31
0.0
1001
ACDBBLOCKREPETAG
1070
     1
1071
        5
1005
12816D
  0
CIRCLE
  5
12816E
  8
OBJECT
 10
2000.0
 20
-3520.9999999999968
 30
0.0
 40
62.0
1001
ACDBBLOCKREPETAG
1070
     1
1071
        0
1005
12816E
  0
LINE
  5
12816F
  8
OBJECT
 10
1934.9999999999991
 20
-3374.9999999999959
 30
0.0
 11
1934.9999999999991
 21
-3395.9999999999959
 31
0.0
1001
ACDBBLOCKREPETAG
1070
     1
1071
       16
1005
12816F
  0
LINE
  5
128170
  8
OBJECT
 10
1934.9999999999991
 20
-3395.9999999999959
 30
0.0
 11
2064.9999999999991
 21
-3395.9999999999959
 31
0.0
1001
ACDBBLOCKREPETAG
1070
     1
1071
       17
1005
128170
  0
LINE
  5
128171
  8
OBJECT
 10
2064.9999999999991
 20
-3395.9999999999959
 30
0.0
 11
2064.9999999999991
 21
-3374.9999999999959
 31
0.0
1001
ACDBBLOCKREPETAG
1070
     1
1071
       18
1005
128171
  0
LINE
  5
128172
  8
OBJECT
 10
2064.9999999999991
 20
-3374.9999999999959
 30
0.0
 11
1934.9999999999991
 21
-3374.9999999999959
 31
0.0
1001
ACDBBLOCKREPETAG
1070
     1
1071
       19
1005
128172
  0
LINE
  5
128173
  8
HIDDEN
 10
2044.5
 20
-3444.9999999999959
 30
0.0
 11
1955.4999999999991
 21
-3444.9999999999959
 31
0.0
1001
ACDBBLOCKREPETAG
1070
     1
1071
       20
1005
128173
  0
LINE
  5
128174
  8
CENTER
 10
2000.0
 20
-3594.9999999999959
 30
0.0
 11
2000.0
 21
-3359.9999999999959
 31
0.0
1001
ACDBBLOCKREPETAG
1070
     1
1071
       21
1005
128174
  0
LINE
  5
128175
  8
OBJECT
 10
1940.5
 20
-3395.9999999999959
 30
0.0
 11
1940.5
 21
-3458.9999999999959
 31
0.0
1001
ACDBBLOCKREPETAG
1070
     1
1071
       22
1005
128175
  0
LINE
  5
128176
  8
OBJECT
 10
1929.9999999999991
 20
-3458.9999999999959
 30
0.0
 11
2070.0
 21
-3458.9999999999959
 31
0.0
1001
ACDBBLOCKREPETAG
1070
     1
1071
       23
1005
128176
  0
LINE
  5
128177
  8
OBJECT
 10
2059.4999999999991
 20
-3458.9999999999959
 30
0.0
 11
2059.4999999999991
 21
-3395.9999999999959
 31
0.0
1001
ACDBBLOCKREPETAG
1070
     1
1071
       24
1005
128177
  0
LINE
  5
128178
  8
OBJECT
 10
2070.0
 20
-3582.9999999999968
 30
0.0
 11
2064.9999999999991
 21
-3582.9999999999968
 31
0.0
1001
ACDBBLOCKREPETAG
1070
     1
1071
       28
1005
128178
  0
LINE
  5
128179
  8
OBJECT
 10
1935.0
 20
-3582.9999999999968
 30
0.0
 11
1929.9999999999991
 21
-3582.9999999999968
 31
0.0
1001
ACDBBLOCKREPETAG
1070
     1
1071
      116
1005
128179
  0
ARC
  5
12817A
  8
OBJECT
 10
2435.0384389946771
 20
-3823.608136846824
 30
0.0
 40
519.48776673616965
 50
135.42350667432351
 51
138.50052655621499
1001
ACDBBLOCKREPETAG
1070
     1
1071
       32
1005
12817A
  0
ARC
  5
12817B
  8
OBJECT
 10
2435.0384389946771
 20
-3218.3918631531678
 30
0.0
 40
519.48776673616965
 50
221.49947344378501
 51
224.57649332567649
1001
ACDBBLOCKREPETAG
1070
     1
1071
       33
1005
12817B
  0
ARC
  5
12817C
  8
OBJECT
 10
1564.961561005322
 20
-3823.608136846824
 30
0.0
 40
519.48776673616965
 50
41.499473443784993
 51
44.576493325676452
1001
ACDBBLOCKREPETAG
1070
     1
1071
       34
1005
12817C
  0
ARC
  5
12817D
  8
OBJECT
 10
1564.961561005322
 20
-3218.3918631531678
 30
0.0
 40
519.48776673616965
 50
315.42350667432362
 51
318.50052655621488
1001
ACDBBLOCKREPETAG
1070
     1
1071
       35
1005
12817D
  0
POINT
  5
12817E
  8
DOTS
 10
2000.0
 20
-3579.9999999999959
 30
0.0
1001
ACDBBLOCKREPETAG
1070
     1
1071
      111
1005
12817E
  0
LINE
  5
12817F
  8
SLIM
 10
11925.0
 20
-755.19743878930785
 30
0.0
 11
11925.197438789301
 21
-754.99999999999955
 31
0.0
1001
ACAD
1010
0.0
1020
0.0
1030
0.0
1001
ACDBBLOCKREPETAG
1070
     1
1071
        1
1005
0
  0
LINE
  5
128180
  8
SLIM
 10
11925.0
 20
-773.15795103144615
 30
0.0
 11
11943.15795103144
 21
-754.99999999999955
 31
0.0
1001
ACAD
1010
0.0
1020
0.0
1030
0.0
1001
ACDBBLOCKREPETAG
1070
     1
1071
       10
1005
128180
  0
LINE
  5
128181
  8
SLIM
 10
11925.0
 20
-791.11846327358455
 30
0.0
 11
11961.11846327358
 21
-754.99999999999955
 31
0.0
1001
ACAD
1010
0.0
1020
0.0
1030
0.0
1001
ACDBBLOCKREPETAG
1070
     1
1071
       11
1005
128181
  0
LINE
  5
128182
  8
SLIM
 10
11925.0
 20
-809.07897551572285
 30
0.0
 11
11979.07897551572
 21
-754.99999999999955
 31
0.0
1001
ACAD
1010
0.0
1020
0.0
1030
0.0
1001
ACDBBLOCKREPETAG
1070
     1
1071
       12
1005
128182
  0
LINE
  5
128183
  8
SLIM
 10
11925.0
 20
-827.03948775786125
 30
0.0
 11
11997.03948775786
 21
-754.99999999999955
 31
0.0
1001
ACAD
1010
0.0
1020
0.0
1030
0.0
1001
ACDBBLOCKREPETAG
1070
     1
1071
       13
1005
128183
  0
LINE
  5
128184
  8
SLIM
 10
11925.0
 20
-844.99999999999955
 30
0.0
 11
12015.0
 21
-754.99999999999955
 31
0.0
1001
ACAD
1010
0.0
1020
0.0
1030
0.0
1001
ACDBBLOCKREPETAG
1070
     1
1071
       14
1005
128184
  0
LINE
  5
128185
  8
SLIM
 10
11925.0
 20
-862.96051224213795
 30
0.0
 11
12032.96051224214
 21
-754.99999999999955
 31
0.0
1001
ACAD
1010
0.0
1020
0.0
1030
0.0
1001
ACDBBLOCKREPETAG
1070
     1
1071
       15
1005
128185
  0
LINE
  5
128186
  8
SLIM
 10
11926.57043503541
 20
-879.35058944886373
 30
0.0
 11
12050.921024484271
 21
-754.99999999999955
 31
0.0
1001
ACAD
1010
0.0
1020
0.0
1030
0.0
1001
ACDBBLOCKREPETAG
1070
     1
1071
       16
1005
128186
  0
LINE
  5
128187
  8
SLIM
 10
11929.39181818456
 20
-894.48971854185413
 30
0.0
 11
12068.881536726411
 21
-754.99999999999955
 31
0.0
1001
ACAD
1010
0.0
1020
0.0
1030
0.0
1001
ACDBBLOCKREPETAG
1070
     1
1071
       17
1005
128187
  0
LINE
  5
128188
  8
SLIM
 10
11932.21320133371
 20
-909.62884763484476
 30
0.0
 11
12075.0
 21
-766.8420489685526
 31
0.0
1001
ACAD
1010
0.0
1020
0.0
1030
0.0
1001
ACDBBLOCKREPETAG
1070
     1
1071
       18
1005
128188
  0
LINE
  5
128189
  8
SLIM
 10
11935.03458448285
 20
-924.76797672783539
 30
0.0
 11
12075.0
 21
-784.80256121069112
 31
0.0
1001
ACAD
1010
0.0
1020
0.0
1030
0.0
1001
ACDBBLOCKREPETAG
1070
     1
1071
       19
1005
128189
  0
LINE
  5
12818A
  8
SLIM
 10
11937.855967632
 20
-939.90710582082625
 30
0.0
 11
12075.0
 21
-802.76307345282942
 31
0.0
1001
ACAD
1010
0.0
1020
0.0
1030
0.0
1001
ACDBBLOCKREPETAG
1070
     1
1071
       20
1005
12818A
  0
LINE
  5
12818B
  8
SLIM
 10
11940.67735078115
 20
-955.04623491381665
 30
0.0
 11
12075.0
 21
-820.7235856949676
 31
0.0
1001
ACAD
1010
0.0
1020
0.0
1030
0.0
1001
ACDBBLOCKREPETAG
1070
     1
1071
       21
1005
12818B
  0
LINE
  5
12818C
  8
SLIM
 10
11943.498733930301
 20
-970.18536400680739
 30
0.0
 11
12075.0
 21
-838.684097937106
 31
0.0
1001
ACAD
1010
0.0
1020
0.0
1030
0.0
1001
ACDBBLOCKREPETAG
1070
     1
1071
       22
1005
12818C
  0
LINE
  5
12818D
  8
SLIM
 10
11945.5
 20
-986.14461017924543
 30
0.0
 11
12075.0
 21
-856.64461017924418
 31
0.0
1001
ACAD
1010
0.0
1020
0.0
1030
0.0
1001
ACDBBLOCKREPETAG
1070
     1
1071
       23
1005
12818D
  0
LINE
  5
12818E
  8
SLIM
 10
11945.5
 20
-1004.105122421381
 30
0.0
 11
12074.15680692925
 21
-875.44831549213154
 31
0.0
1001
ACAD
1010
0.0
1020
0.0
1030
0.0
1001
ACDBBLOCKREPETAG
1070
     1
1071
       24
1005
12818E
  0
LINE
  5
12818F
  8
SLIM
 10
11945.5
 20
-1022.065634663517
 30
0.0
 11
12070.04294658328
 21
-897.52268808023439
 31
0.0
1001
ACAD
1010
0.0
1020
0.0
1030
0.0
1001
ACDBBLOCKREPETAG
1070
     1
1071
       25
1005
12818F
  0
LINE
  5
128190
  8
SLIM
 10
11960.52614690566
 20
-1024.9999999999991
 30
0.0
 11
12065.92908623732
 21
-919.59706066833724
 31
0.0
1001
ACAD
1010
0.0
1020
0.0
1030
0.0
1001
ACDBBLOCKREPETAG
1070
     1
1071
       26
1005
128190
  0
LINE
  5
128191
  8
SLIM
 10
11978.4866591478
 20
-1024.9999999999991
 30
0.0
 11
12061.81522589136
 21
-941.67143325643985
 31
0.0
1001
ACAD
1010
0.0
1020
0.0
1030
0.0
1001
ACDBBLOCKREPETAG
1070
     1
1071
       27
1005
128191
  0
LINE
  5
128192
  8
SLIM
 10
11996.447171389929
 20
-1024.9999999999991
 30
0.0
 11
12057.70136554539
 21
-963.74580584454304
 31
0.0
1001
ACAD
1010
0.0
1020
0.0
1030
0.0
1001
ACDBBLOCKREPETAG
1070
     1
1071
       28
1005
128192
  0
LINE
  5
128193
  8
SLIM
 10
12014.407683632069
 20
-1024.9999999999991
 30
0.0
 11
12054.5
 21
-984.90768363207394
 31
0.0
1001
ACAD
1010
0.0
1020
0.0
1030
0.0
1001
ACDBBLOCKREPETAG
1070
     1
1071
       29
1005
128193
  0
LINE
  5
128194
  8
SLIM
 10
12032.368195874211
 20
-1024.9999999999991
 30
0.0
 11
12054.5
 21
-1002.868195874213
 31
0.0
1001
ACAD
1010
0.0
1020
0.0
1030
0.0
1001
ACDBBLOCKREPETAG
1070
     1
1071
       30
1005
128194
  0
LINE
  5
128195
  8
SLIM
 10
12050.328708116351
 20
-1024.9999999999991
 30
0.0
 11
12054.5
 21
-1020.828708116352
 31
0.0
1001
ACAD
1010
0.0
1020
0.0
1030
0.0
1001
ACDBBLOCKREPETAG
1070
     1
1071
       31
1005
128195
  0
LINE
  5
128196
  8
OBJECT
 10
11925.0
 20
-754.99999999999955
 30
0.0
 11
12075.0
 21
-754.99999999999955
 31
0.0
1001
ACDBBLOCKREPETAG
1070
     1
1071
        2
1005
128196
  0
LINE
  5
128197
  8
OBJECT
 10
12075.0
 20
-754.99999999999955
 30
0.0
 11
12075.0
 21
-870.9238648686005
 31
0.0
1001
ACDBBLOCKREPETAG
1070
     1
1071
        3
1005
128197
  0
LINE
  5
128198
  8
OBJECT
 10
12075.0
 20
-870.9238648686005
 30
0.0
 11
12054.5
 21
-980.92386486860221
 31
0.0
1001
ACDBBLOCKREPETAG
1070
     1
1071
        4
1005
128198
  0
LINE
  5
128199
  8
OBJECT
 10
12054.5
 20
-980.92386486860221
 30
0.0
 11
12054.5
 21
-1024.9999999999991
 31
0.0
1001
ACDBBLOCKREPETAG
1070
     1
1071
        5
1005
128199
  0
LINE
  5
12819A
  8
OBJECT
 10
12054.5
 20
-1024.9999999999991
 30
0.0
 11
11945.5
 21
-1024.9999999999991
 31
0.0
1001
ACDBBLOCKREPETAG
1070
     1
1071
        6
1005
12819A
  0
LINE
  5
12819B
  8
OBJECT
 10
11945.5
 20
-1024.9999999999991
 30
0.0
 11
11945.5
 21
-980.92386486861199
 31
0.0
1001
ACDBBLOCKREPETAG
1070
     1
1071
        7
1005
12819B
  0
LINE
  5
12819C
  8
OBJECT
 10
11945.5
 20
-980.92386486861199
 30
0.0
 11
11925.0
 21
-870.9238648686005
 31
0.0
1001
ACDBBLOCKREPETAG
1070
     1
1071
        8
1005
12819C
  0
LINE
  5
12819D
  8
OBJECT
 10
11925.0
 20
-870.9238648686005
 30
0.0
 11
11925.0
 21
-754.99999999999955
 31
0.0
1001
ACDBBLOCKREPETAG
1070
     1
1071
        9
1005
12819D
  0
LINE
  5
12819E
  8
SLIM
 10
9925.0
 20
-755.19743878930785
 30
0.0
 11
9925.1974387893097
 21
-754.99999999999955
 31
0.0
1001
ACAD
1010
0.0
1020
0.0
1030
0.0
1001
ACDBBLOCKREPETAG
1070
     1
1071
        1
1005
0
  0
LINE
  5
12819F
  8
SLIM
 10
9925.0
 20
-773.15795103144615
 30
0.0
 11
9943.1579510314441
 21
-754.99999999999955
 31
0.0
1001
ACAD
1010
0.0
1020
0.0
1030
0.0
1001
ACDBBLOCKREPETAG
1070
     1
1071
       10
1005
12819F
  0
LINE
  5
1281A0
  8
SLIM
 10
9925.0
 20
-791.11846327358455
 30
0.0
 11
9961.1184632735858
 21
-754.99999999999955
 31
0.0
1001
ACAD
1010
0.0
1020
0.0
1030
0.0
1001
ACDBBLOCKREPETAG
1070
     1
1071
       11
1005
1281A0
  0
LINE
  5
1281A1
  8
SLIM
 10
9925.0
 20
-809.07897551572285
 30
0.0
 11
9979.0789755157257
 21
-754.99999999999955
 31
0.0
1001
ACAD
1010
0.0
1020
0.0
1030
0.0
1001
ACDBBLOCKREPETAG
1070
     1
1071
       12
1005
1281A1
  0
LINE
  5
1281A2
  8
SLIM
 10
9925.0
 20
-827.03948775786125
 30
0.0
 11
9997.0394877578656
 21
-754.99999999999955
 31
0.0
1001
ACAD
1010
0.0
1020
0.0
1030
0.0
1001
ACDBBLOCKREPETAG
1070
     1
1071
       13
1005
1281A2
  0
LINE
  5
1281A3
  8
SLIM
 10
9925.0
 20
-844.99999999999955
 30
0.0
 11
10015.0
 21
-754.99999999999955
 31
0.0
1001
ACAD
1010
0.0
1020
0.0
1030
0.0
1001
ACDBBLOCKREPETAG
1070
     1
1071
       14
1005
1281A3
  0
LINE
  5
1281A4
  8
SLIM
 10
9925.0
 20
-862.96051224213795
 30
0.0
 11
10032.96051224214
 21
-754.99999999999955
 31
0.0
1001
ACAD
1010
0.0
1020
0.0
1030
0.0
1001
ACDBBLOCKREPETAG
1070
     1
1071
       15
1005
1281A4
  0
LINE
  5
1281A5
  8
SLIM
 10
9926.5704350354117
 20
-879.35058944886373
 30
0.0
 11
10050.921024484271
 21
-754.99999999999955
 31
0.0
1001
ACAD
1010
0.0
1020
0.0
1030
0.0
1001
ACDBBLOCKREPETAG
1070
     1
1071
       16
1005
1281A5
  0
LINE
  5
1281A6
  8
SLIM
 10
9929.3918181845602
 20
-894.48971854185413
 30
0.0
 11
10068.881536726411
 21
-754.99999999999955
 31
0.0
1001
ACAD
1010
0.0
1020
0.0
1030
0.0
1001
ACDBBLOCKREPETAG
1070
     1
1071
       17
1005
1281A6
  0
LINE
  5
1281A7
  8
SLIM
 10
9932.2132013337086
 20
-909.62884763484476
 30
0.0
 11
10075.0
 21
-766.8420489685526
 31
0.0
1001
ACAD
1010
0.0
1020
0.0
1030
0.0
1001
ACDBBLOCKREPETAG
1070
     1
1071
       18
1005
1281A7
  0
LINE
  5
1281A8
  8
SLIM
 10
9935.0345844828553
 20
-924.76797672783539
 30
0.0
 11
10075.0
 21
-784.80256121069112
 31
0.0
1001
ACAD
1010
0.0
1020
0.0
1030
0.0
1001
ACDBBLOCKREPETAG
1070
     1
1071
       19
1005
1281A8
  0
LINE
  5
1281A9
  8
SLIM
 10
9937.8559676320037
 20
-939.90710582082625
 30
0.0
 11
10075.0
 21
-802.76307345282942
 31
0.0
1001
ACAD
1010
0.0
1020
0.0
1030
0.0
1001
ACDBBLOCKREPETAG
1070
     1
1071
       20
1005
1281A9
  0
LINE
  5
1281AA
  8
SLIM
 10
9940.6773507811504
 20
-955.04623491381665
 30
0.0
 11
10075.0
 21
-820.7235856949676
 31
0.0
1001
ACAD
1010
0.0
1020
0.0
1030
0.0
1001
ACDBBLOCKREPETAG
1070
     1
1071
       21
1005
1281AA
  0
LINE
  5
1281AB
  8
SLIM
 10
9943.498733930297
 20
-970.18536400680739
 30
0.0
 11
10075.0
 21
-838.684097937106
 31
0.0
1001
ACAD
1010
0.0
1020
0.0
1030
0.0
1001
ACDBBLOCKREPETAG
1070
     1
1071
       22
1005
1281AB
  0
LINE
  5
1281AC
  8
SLIM
 10
9945.4999999999982
 20
-986.14461017924543
 30
0.0
 11
10075.0
 21
-856.64461017924418
 31
0.0
1001
ACAD
1010
0.0
1020
0.0
1030
0.0
1001
ACDBBLOCKREPETAG
1070
     1
1071
       23
1005
1281AC
  0
LINE
  5
1281AD
  8
SLIM
 10
9945.5
 20
-1004.105122421381
 30
0.0
 11
10074.15680692925
 21
-875.44831549213154
 31
0.0
1001
ACAD
1010
0.0
1020
0.0
1030
0.0
1001
ACDBBLOCKREPETAG
1070
     1
1071
       24
1005
1281AD
  0
LINE
  5
1281AE
  8
SLIM
 10
9945.5000000000036
 20
-1022.065634663517
 30
0.0
 11
10070.04294658328
 21
-897.52268808023439
 31
0.0
1001
ACAD
1010
0.0
1020
0.0
1030
0.0
1001
ACDBBLOCKREPETAG
1070
     1
1071
       25
1005
1281AE
  0
LINE
  5
1281AF
  8
SLIM
 10
9960.5261469056604
 20
-1024.9999999999991
 30
0.0
 11
10065.92908623732
 21
-919.59706066833724
 31
0.0
1001
ACAD
1010
0.0
1020
0.0
1030
0.0
1001
ACDBBLOCKREPETAG
1070
     1
1071
       26
1005
1281AF
  0
LINE
  5
1281B0
  8
SLIM
 10
9978.4866591477985
 20
-1024.9999999999991
 30
0.0
 11
10061.815225891351
 21
-941.67143325643985
 31
0.0
1001
ACAD
1010
0.0
1020
0.0
1030
0.0
1001
ACDBBLOCKREPETAG
1070
     1
1071
       27
1005
1281B0
  0
LINE
  5
1281B1
  8
SLIM
 10
9996.4471713899384
 20
-1024.9999999999991
 30
0.0
 11
10057.70136554539
 21
-963.74580584454304
 31
0.0
1001
ACAD
1010
0.0
1020
0.0
1030
0.0
1001
ACDBBLOCKREPETAG
1070
     1
1071
       28
1005
1281B1
  0
LINE
  5
1281B2
  8
SLIM
 10
10014.40768363206
 20
-1024.9999999999991
 30
0.0
 11
10054.5
 21
-984.90768363207394
 31
0.0
1001
ACAD
1010
0.0
1020
0.0
1030
0.0
1001
ACDBBLOCKREPETAG
1070
     1
1071
       29
1005
1281B2
  0
LINE
  5
1281B3
  8
SLIM
 10
10032.368195874211
 20
-1024.9999999999991
 30
0.0
 11
10054.5
 21
-1002.868195874213
 31
0.0
1001
ACAD
1010
0.0
1020
0.0
1030
0.0
1001
ACDBBLOCKREPETAG
1070
     1
1071
       30
1005
1281B3
  0
LINE
  5
1281B4
  8
SLIM
 10
10050.328708116351
 20
-1024.9999999999991
 30
0.0
 11
10054.5
 21
-1020.828708116352
 31
0.0
1001
ACAD
1010
0.0
1020
0.0
1030
0.0
1001
ACDBBLOCKREPETAG
1070
     1
1071
       31
1005
1281B4
  0
LINE
  5
1281B5
  8
OBJECT
 10
9925.0
 20
-754.99999999999955
 30
0.0
 11
10075.0
 21
-754.99999999999955
 31
0.0
1001
ACDBBLOCKREPETAG
1070
     1
1071
        2
1005
1281B5
  0
LINE
  5
1281B6
  8
OBJECT
 10
10075.0
 20
-754.99999999999955
 30
0.0
 11
10075.0
 21
-870.9238648686005
 31
0.0
1001
ACDBBLOCKREPETAG
1070
     1
1071
        3
1005
1281B6
  0
LINE
  5
1281B7
  8
OBJECT
 10
10075.0
 20
-870.9238648686005
 30
0.0
 11
10054.5
 21
-980.92386486860221
 31
0.0
1001
ACDBBLOCKREPETAG
1070
     1
1071
        4
1005
1281B7
  0
LINE
  5
1281B8
  8
OBJECT
 10
10054.5
 20
-980.92386486860221
 30
0.0
 11
10054.5
 21
-1024.9999999999991
 31
0.0
1001
ACDBBLOCKREPETAG
1070
     1
1071
        5
1005
1281B8
  0
LINE
  5
1281B9
  8
OBJECT
 10
10054.5
 20
-1024.9999999999991
 30
0.0
 11
9945.5000000000036
 21
-1024.9999999999991
 31
0.0
1001
ACDBBLOCKREPETAG
1070
     1
1071
        6
1005
1281B9
  0
LINE
  5
1281BA
  8
OBJECT
 10
9945.5000000000036
 20
-1024.9999999999991
 30
0.0
 11
9945.4999999999982
 21
-980.92386486861199
 31
0.0
1001
ACDBBLOCKREPETAG
1070
     1
1071
        7
1005
1281BA
  0
LINE
  5
1281BB
  8
OBJECT
 10
9945.4999999999982
 20
-980.92386486861199
 30
0.0
 11
9925.0
 21
-870.9238648686005
 31
0.0
1001
ACDBBLOCKREPETAG
1070
     1
1071
        8
1005
1281BB
  0
LINE
  5
1281BC
  8
OBJECT
 10
9925.0
 20
-870.9238648686005
 30
0.0
 11
9925.0
 21
-754.99999999999955
 31
0.0
1001
ACDBBLOCKREPETAG
1070
     1
1071
        9
1005
1281BC
  0
LINE
  5
1281BD
  8
SLIM
 10
7925.0
 20
-755.19743878930785
 30
0.0
 11
7925.1974387893079
 21
-754.99999999999955
 31
0.0
1001
ACAD
1010
0.0
1020
0.0
1030
0.0
1001
ACDBBLOCKREPETAG
1070
     1
1071
        1
1005
0
  0
LINE
  5
1281BE
  8
SLIM
 10
7925.0
 20
-773.15795103144615
 30
0.0
 11
7943.1579510314459
 21
-754.99999999999955
 31
0.0
1001
ACAD
1010
0.0
1020
0.0
1030
0.0
1001
ACDBBLOCKREPETAG
1070
     1
1071
       11
1005
1281BE
  0
LINE
  5
1281BF
  8
SLIM
 10
7925.0
 20
-791.11846327358455
 30
0.0
 11
7961.1184632735867
 21
-754.99999999999955
 31
0.0
1001
ACAD
1010
0.0
1020
0.0
1030
0.0
1001
ACDBBLOCKREPETAG
1070
     1
1071
       12
1005
1281BF
  0
LINE
  5
1281C0
  8
SLIM
 10
7925.0
 20
-809.07897551572285
 30
0.0
 11
7979.078975515723
 21
-754.99999999999955
 31
0.0
1001
ACAD
1010
0.0
1020
0.0
1030
0.0
1001
ACDBBLOCKREPETAG
1070
     1
1071
       13
1005
1281C0
  0
LINE
  5
1281C1
  8
SLIM
 10
7925.0
 20
-827.03948775786125
 30
0.0
 11
7997.0394877578628
 21
-754.99999999999955
 31
0.0
1001
ACAD
1010
0.0
1020
0.0
1030
0.0
1001
ACDBBLOCKREPETAG
1070
     1
1071
       14
1005
1281C1
  0
LINE
  5
1281C2
  8
SLIM
 10
7925.0
 20
-844.99999999999955
 30
0.0
 11
8015.0
 21
-754.99999999999955
 31
0.0
1001
ACAD
1010
0.0
1020
0.0
1030
0.0
1001
ACDBBLOCKREPETAG
1070
     1
1071
       15
1005
1281C2
  0
LINE
  5
1281C3
  8
SLIM
 10
7925.0
 20
-862.96051224213795
 30
0.0
 11
8032.960512242139
 21
-754.99999999999955
 31
0.0
1001
ACAD
1010
0.0
1020
0.0
1030
0.0
1001
ACDBBLOCKREPETAG
1070
     1
1071
       16
1005
1281C3
  0
LINE
  5
1281C4
  8
SLIM
 10
7926.5704350354117
 20
-879.3505894488635
 30
0.0
 11
8050.9210244842798
 21
-754.99999999999955
 31
0.0
1001
ACAD
1010
0.0
1020
0.0
1030
0.0
1001
ACDBBLOCKREPETAG
1070
     1
1071
       17
1005
1281C4
  0
LINE
  5
1281C5
  8
SLIM
 10
7929.3918181845593
 20
-894.48971854185379
 30
0.0
 11
8068.8815367264133
 21
-754.99999999999955
 31
0.0
1001
ACAD
1010
0.0
1020
0.0
1030
0.0
1001
ACDBBLOCKREPETAG
1070
     1
1071
       18
1005
1281C5
  0
LINE
  5
1281C6
  8
SLIM
 10
7932.2132013337077
 20
-909.62884763484408
 30
0.0
 11
8075.0
 21
-766.84204896855272
 31
0.0
1001
ACAD
1010
0.0
1020
0.0
1030
0.0
1001
ACDBBLOCKREPETAG
1070
     1
1071
       19
1005
1281C6
  0
LINE
  5
1281C7
  8
SLIM
 10
7935.0345844828562
 20
-924.76797672783425
 30
0.0
 11
8075.0
 21
-784.80256121069112
 31
0.0
1001
ACAD
1010
0.0
1020
0.0
1030
0.0
1001
ACDBBLOCKREPETAG
1070
     1
1071
       20
1005
1281C7
  0
LINE
  5
1281C8
  8
SLIM
 10
7937.8559676320019
 20
-939.90710582082465
 30
0.0
 11
8075.0
 21
-802.76307345282942
 31
0.0
1001
ACAD
1010
0.0
1020
0.0
1030
0.0
1001
ACDBBLOCKREPETAG
1070
     1
1071
       21
1005
1281C8
  0
LINE
  5
1281C9
  8
SLIM
 10
7940.677350781154
 20
-955.04623491381471
 30
0.0
 11
8075.0
 21
-820.7235856949676
 31
0.0
1001
ACAD
1010
0.0
1020
0.0
1030
0.0
1001
ACDBBLOCKREPETAG
1070
     1
1071
       22
1005
1281C9
  0
LINE
  5
1281CA
  8
SLIM
 10
7943.4987339303016
 20
-970.18536400680489
 30
0.0
 11
8075.0
 21
-838.684097937106
 31
0.0
1001
ACAD
1010
0.0
1020
0.0
1030
0.0
1001
ACDBBLOCKREPETAG
1070
     1
1071
       23
1005
1281CA
  0
LINE
  5
1281CB
  8
SLIM
 10
7946.6446101792453
 20
-984.99999999999955
 30
0.0
 11
8075.0
 21
-856.64461017924418
 31
0.0
1001
ACAD
1010
0.0
1020
0.0
1030
0.0
1001
ACDBBLOCKREPETAG
1070
     1
1071
       24
1005
1281CB
  0
LINE
  5
1281CC
  8
SLIM
 10
7955.5
 20
-994.10512242138236
 30
0.0
 11
7964.6051224213816
 21
-984.99999999999955
 31
0.0
1001
ACAD
1010
0.0
1020
0.0
1030
0.0
1001
ACDBBLOCKREPETAG
1070
     1
1071
       25
1005
1281CC
  0
LINE
  5
1281CD
  8
SLIM
 10
7964.6051224213816
 20
-984.99999999999955
 30
0.0
 11
8074.1568069292498
 21
-875.44831549213154
 31
0.0
1001
ACAD
1010
0.0
1020
0.0
1030
0.0
1001
ACDBBLOCKREPETAG
1070
     1
1071
       26
1005
1281CD
  0
LINE
  5
1281CE
  8
SLIM
 10
7962.5656346635215
 20
-1004.999999999999
 30
0.0
 11
7982.5656346635215
 21
-984.99999999999955
 31
0.0
1001
ACAD
1010
0.0
1020
0.0
1030
0.0
1001
ACDBBLOCKREPETAG
1070
     1
1071
       27
1005
1281CE
  0
LINE
  5
1281CF
  8
SLIM
 10
7982.5656346635215
 20
-984.99999999999955
 30
0.0
 11
8070.0429465832849
 21
-897.52268808023405
 31
0.0
1001
ACAD
1010
0.0
1020
0.0
1030
0.0
1001
ACDBBLOCKREPETAG
1070
     1
1071
       28
1005
1281CF
  0
LINE
  5
1281D0
  8
SLIM
 10
7980.5261469056604
 20
-1004.999999999999
 30
0.0
 11
8000.5261469056577
 21
-984.99999999999955
 31
0.0
1001
ACAD
1010
0.0
1020
0.0
1030
0.0
1001
ACDBBLOCKREPETAG
1070
     1
1071
       29
1005
1281D0
  0
LINE
  5
1281D1
  8
SLIM
 10
8000.5261469056577
 20
-984.99999999999955
 30
0.0
 11
8065.9290862373227
 21
-919.59706066833724
 31
0.0
1001
ACAD
1010
0.0
1020
0.0
1030
0.0
1001
ACDBBLOCKREPETAG
1070
     1
1071
       30
1005
1281D1
  0
LINE
  5
1281D2
  8
SLIM
 10
7998.4866591477967
 20
-1004.999999999999
 30
0.0
 11
8018.4866591477967
 21
-984.99999999999955
 31
0.0
1001
ACAD
1010
0.0
1020
0.0
1030
0.0
1001
ACDBBLOCKREPETAG
1070
     1
1071
       31
1005
1281D2
  0
LINE
  5
1281D3
  8
SLIM
 10
8018.4866591477967
 20
-984.99999999999955
 30
0.0
 11
8061.8152258913578
 21
-941.67143325643985
 31
0.0
1001
ACAD
1010
0.0
1020
0.0
1030
0.0
1001
ACDBBLOCKREPETAG
1070
     1
1071
       32
1005
1281D3
  0
LINE
  5
1281D4
  8
SLIM
 10
8016.4471713899384
 20
-1004.999999999999
 30
0.0
 11
8036.4471713899338
 21
-984.99999999999955
 31
0.0
1001
ACAD
1010
0.0
1020
0.0
1030
0.0
1001
ACDBBLOCKREPETAG
1070
     1
1071
       33
1005
1281D4
  0
LINE
  5
1281D5
  8
SLIM
 10
8036.4471713899338
 20
-984.99999999999955
 30
0.0
 11
8057.701365545392
 21
-963.74580584454225
 31
0.0
1001
ACAD
1010
0.0
1020
0.0
1030
0.0
1001
ACDBBLOCKREPETAG
1070
     1
1071
       34
1005
1281D5
  0
LINE
  5
1281D6
  8
SLIM
 10
8034.4076836320728
 20
-1004.999999999999
 30
0.0
 11
8044.5000000000036
 21
-994.90768363207383
 31
0.0
1001
ACAD
1010
0.0
1020
0.0
1030
0.0
1001
ACDBBLOCKREPETAG
1070
     1
1071
       35
1005
1281D6
  0
LINE
  5
1281D7
  8
OBJECT
 10
7925.0
 20
-754.99999999999955
 30
0.0
 11
8075.0
 21
-754.99999999999955
 31
0.0
1001
ACDBBLOCKREPETAG
1070
     1
1071
        2
1005
1281D7
  0
LINE
  5
1281D8
  8
OBJECT
 10
8075.0
 20
-754.99999999999955
 30
0.0
 11
8075.0
 21
-870.9238648686005
 31
0.0
1001
ACDBBLOCKREPETAG
1070
     1
1071
        3
1005
1281D8
  0
LINE
  5
1281D9
  8
OBJECT
 10
8075.0
 20
-870.9238648686005
 30
0.0
 11
8053.7403566346029
 21
-984.99999999999955
 31
0.0
1001
ACDBBLOCKREPETAG
1070
     1
1071
        4
1005
1281D9
  0
LINE
  5
1281DA
  8
OBJECT
 10
8044.5000000000036
 20
-984.99999999999955
 30
0.0
 11
8044.5000000000036
 21
-1004.999999999999
 31
0.0
1001
ACDBBLOCKREPETAG
1070
     1
1071
        5
1005
1281DA
  0
LINE
  5
1281DB
  8
OBJECT
 10
8044.5000000000036
 20
-1004.999999999999
 30
0.0
 11
7955.5
 21
-1004.999999999999
 31
0.0
1001
ACDBBLOCKREPETAG
1070
     1
1071
        6
1005
1281DB
  0
LINE
  5
1281DC
  8
OBJECT
 10
7955.5
 20
-1004.999999999999
 30
0.0
 11
7955.5
 21
-984.99999999999955
 31
0.0
1001
ACDBBLOCKREPETAG
1070
     1
1071
        7
1005
1281DC
  0
LINE
  5
1281DD
  8
OBJECT
 10
8053.7403566346029
 20
-984.99999999999955
 30
0.0
 11
7946.2596433653962
 21
-984.99999999999955
 31
0.0
1001
ACDBBLOCKREPETAG
1070
     1
1071
        8
1005
1281DD
  0
LINE
  5
1281DE
  8
OBJECT
 10
7946.2596433653962
 20
-984.99999999999955
 30
0.0
 11
7925.0
 21
-870.9238648686005
 31
0.0
1001
ACDBBLOCKREPETAG
1070
     1
1071
        9
1005
1281DE
  0
LINE
  5
1281DF
  8
OBJECT
 10
7925.0
 20
-870.9238648686005
 30
0.0
 11
7925.0
 21
-754.99999999999955
 31
0.0
1001
ACDBBLOCKREPETAG
1070
     1
1071
       10
1005
1281DF
  0
LINE
  5
1281E0
  8
OBJECT
 10
12055.999999999991
 20
-1103.9999999999991
 30
0.0
 11
12055.999999999991
 21
-1113.9999999999991
 31
0.0
1001
ACDBBLOCKREPETAG
1070
     1
1071
      121
1005
1281E0
  0
LINE
  5
1281E1
  8
OBJECT
 10
11961.75
 20
-1054.699999999996
 30
0.0
 11
11974.25
 21
-1054.699999999996
 31
0.0
1001
ACDBBLOCKREPETAG
1070
     1
1071
      122
1005
1281E1
  0
LINE
  5
1281E2
  8
OBJECT
 10
12073.499999999991
 20
-1062.7
 30
0.0
 11
12073.499999999991
 21
-1064.9999999999991
 31
0.0
1001
ACDBBLOCKREPETAG
1070
     1
1071
      123
1005
1281E2
  0
LINE
  5
1281E3
  8
OBJECT
 10
12057.749999999991
 20
-1054.699999999996
 30
0.0
 11
12070.249999999991
 21
-1054.699999999996
 31
0.0
1001
ACDBBLOCKREPETAG
1070
     1
1071
      124
1005
1281E3
  0
LINE
  5
1281E4
  8
OBJECT
 10
12054.499999999991
 20
-1062.7
 30
0.0
 11
12054.499999999991
 21
-1064.9999999999991
 31
0.0
1001
ACDBBLOCKREPETAG
1070
     1
1071
      125
1005
1281E4
  0
LINE
  5
1281E5
  8
OBJECT
 10
11953.0
 20
-1064.9999999999991
 30
0.0
 11
11953.0
 21
-1062.7
 31
0.0
1001
ACDBBLOCKREPETAG
1070
     1
1071
      126
1005
1281E5
  0
LINE
  5
1281E6
  8
OBJECT
 10
11983.0
 20
-1064.9999999999991
 30
0.0
 11
11983.0
 21
-1062.7
 31
0.0
1001
ACDBBLOCKREPETAG
1070
     1
1071
      127
1005
1281E6
  0
LINE
  5
1281E7
  8
OBJECT
 10
11961.75
 20
-1054.699999999996
 30
0.0
 11
11961.75
 21
-1062.7
 31
0.0
1001
ACDBBLOCKREPETAG
1070
     1
1071
      128
1005
1281E7
  0
LINE
  5
1281E8
  8
OBJECT
 10
11974.25
 20
-1054.699999999996
 30
0.0
 11
11974.25
 21
-1062.7
 31
0.0
1001
ACDBBLOCKREPETAG
1070
     1
1071
      129
1005
1281E8
  0
LINE
  5
1281E9
  8
OBJECT
 10
11953.0
 20
-1062.7
 30
0.0
 11
11983.0
 21
-1062.7
 31
0.0
1001
ACDBBLOCKREPETAG
1070
     1
1071
      130
1005
1281E9
  0
LINE
  5
1281EA
  8
OBJECT
 10
11960.0
 20
-1103.9999999999991
 30
0.0
 11
11960.0
 21
-1113.9999999999991
 31
0.0
1001
ACDBBLOCKREPETAG
1070
     1
1071
      131
1005
1281EA
  0
LINE
  5
1281EB
  8
OBJECT
 10
11976.0
 20
-1103.9999999999991
 30
0.0
 11
11976.0
 21
-1113.9999999999991
 31
0.0
1001
ACDBBLOCKREPETAG
1070
     1
1071
      132
1005
1281EB
  0
LINE
  5
1281EC
  8
OBJECT
 10
11960.0
 20
-1113.9999999999991
 30
0.0
 11
11976.0
 21
-1113.9999999999991
 31
0.0
1001
ACDBBLOCKREPETAG
1070
     1
1071
      133
1005
1281EC
  0
LINE
  5
1281ED
  8
OBJECT
 10
12071.999999999991
 20
-1103.9999999999991
 30
0.0
 11
12071.999999999991
 21
-1113.9999999999991
 31
0.0
1001
ACDBBLOCKREPETAG
1070
     1
1071
      134
1005
1281ED
  0
LINE
  5
1281EE
  8
OBJECT
 10
12071.999999999991
 20
-1113.9999999999991
 30
0.0
 11
12055.999999999991
 21
-1113.9999999999991
 31
0.0
1001
ACDBBLOCKREPETAG
1070
     1
1071
      135
1005
1281EE
  0
LINE
  5
1281EF
  8
OBJECT
 10
11944.999999999991
 20
-1144.9999999999991
 30
0.0
 11
11944.999999999991
 21
-1103.9999999999991
 31
0.0
1001
ACDBBLOCKREPETAG
1070
     1
1071
      136
1005
1281EF
  0
LINE
  5
1281F0
  8
OBJECT
 10
12054.999999999991
 20
-1103.9999999999991
 30
0.0
 11
12054.999999999991
 21
-1144.9999999999991
 31
0.0
1001
ACDBBLOCKREPETAG
1070
     1
1071
      137
1005
1281F0
  0
LINE
  5
1281F1
  8
OBJECT
 10
12070.249999999991
 20
-1054.699999999996
 30
0.0
 11
12070.249999999991
 21
-1062.7
 31
0.0
1001
ACDBBLOCKREPETAG
1070
     1
1071
      138
1005
1281F1
  0
LINE
  5
1281F2
  8
OBJECT
 10
12057.749999999991
 20
-1054.699999999996
 30
0.0
 11
12057.749999999991
 21
-1062.7
 31
0.0
1001
ACDBBLOCKREPETAG
1070
     1
1071
      139
1005
1281F2
  0
LINE
  5
1281F3
  8
OBJECT
 10
12054.499999999991
 20
-1062.7
 30
0.0
 11
12073.499999999991
 21
-1062.7
 31
0.0
1001
ACDBBLOCKREPETAG
1070
     1
1071
      140
1005
1281F3
  0
LINE
  5
1281F4
  8
OBJECT
 10
12054.999999999991
 20
-1144.9999999999991
 30
0.0
 11
11944.999999999991
 21
-1144.9999999999991
 31
0.0
1001
ACDBBLOCKREPETAG
1070
     1
1071
      141
1005
1281F4
  0
LINE
  5
1281F5
  8
OBJECT
 10
12075.999999999991
 20
-1079.9999999999991
 30
0.0
 11
11938.999999999991
 21
-1079.9999999999991
 31
0.0
1001
ACDBBLOCKREPETAG
1070
     1
1071
      142
1005
1281F5
  0
LINE
  5
1281F6
  8
OBJECT
 10
12075.999999999991
 20
-1079.9999999999991
 30
0.0
 11
12075.999999999991
 21
-1064.9999999999991
 31
0.0
1001
ACDBBLOCKREPETAG
1070
     1
1071
      143
1005
1281F6
  0
LINE
  5
1281F7
  8
OBJECT
 10
12075.999999999991
 20
-1089.9999999999991
 30
0.0
 11
12075.999999999991
 21
-1103.9999999999991
 31
0.0
1001
ACDBBLOCKREPETAG
1070
     1
1071
      144
1005
1281F7
  0
LINE
  5
1281F8
  8
OBJECT
 10
12068.999999999991
 20
-1089.9999999999991
 30
0.0
 11
12068.999999999991
 21
-1079.9999999999991
 31
0.0
1001
ACDBBLOCKREPETAG
1070
     1
1071
      145
1005
1281F8
  0
LINE
  5
1281F9
  8
OBJECT
 10
12058.999999999991
 20
-1089.9999999999991
 30
0.0
 11
12058.999999999991
 21
-1079.9999999999991
 31
0.0
1001
ACDBBLOCKREPETAG
1070
     1
1071
      146
1005
1281F9
  0
LINE
  5
1281FA
  8
OBJECT
 10
11938.999999999991
 20
-1089.9999999999991
 30
0.0
 11
11938.999999999991
 21
-1103.9999999999991
 31
0.0
1001
ACDBBLOCKREPETAG
1070
     1
1071
      147
1005
1281FA
  0
LINE
  5
1281FB
  8
OBJECT
 10
11938.999999999991
 20
-1103.9999999999991
 30
0.0
 11
12075.999999999991
 21
-1103.9999999999991
 31
0.0
1001
ACDBBLOCKREPETAG
1070
     1
1071
      148
1005
1281FB
  0
LINE
  5
1281FC
  8
OBJECT
 10
11973.0
 20
-1089.9999999999991
 30
0.0
 11
11973.0
 21
-1079.9999999999991
 31
0.0
1001
ACDBBLOCKREPETAG
1070
     1
1071
      149
1005
1281FC
  0
LINE
  5
1281FD
  8
OBJECT
 10
11963.0
 20
-1089.9999999999991
 30
0.0
 11
11963.0
 21
-1079.9999999999991
 31
0.0
1001
ACDBBLOCKREPETAG
1070
     1
1071
      150
1005
1281FD
  0
LINE
  5
1281FE
  8
OBJECT
 10
11938.999999999991
 20
-1089.9999999999991
 30
0.0
 11
12075.999999999991
 21
-1089.9999999999991
 31
0.0
1001
ACDBBLOCKREPETAG
1070
     1
1071
      151
1005
1281FE
  0
LINE
  5
1281FF
  8
OBJECT
 10
11945.999999999991
 20
-1079.9999999999991
 30
0.0
 11
11945.999999999991
 21
-1089.9999999999991
 31
0.0
1001
ACDBBLOCKREPETAG
1070
     1
1071
      152
1005
1281FF
  0
LINE
  5
128200
  8
OBJECT
 10
12053.999999999991
 20
-1079.9999999999991
 30
0.0
 11
12053.999999999991
 21
-1089.9999999999991
 31
0.0
1001
ACDBBLOCKREPETAG
1070
     1
1071
      153
1005
128200
  0
LINE
  5
128201
  8
OBJECT
 10
12044.5
 20
-979.99999999999966
 30
0.0
 11
12065.0
 21
-869.99999999999955
 31
0.0
1001
ACDBBLOCKREPETAG
1070
     1
1071
      154
1005
128201
  0
LINE
  5
128202
  8
OBJECT
 10
11955.5
 20
-979.99999999999966
 30
0.0
 11
12044.5
 21
-979.99999999999966
 31
0.0
1001
ACDBBLOCKREPETAG
1070
     1
1071
      155
1005
128202
  0
LINE
  5
128203
  8
OBJECT
 10
11938.999999999991
 20
-1079.9999999999991
 30
0.0
 11
11938.999999999991
 21
-1064.9999999999991
 31
0.0
1001
ACDBBLOCKREPETAG
1070
     1
1071
      156
1005
128203
  0
LINE
  5
128204
  8
OBJECT
 10
11938.999999999991
 20
-1064.9999999999991
 30
0.0
 11
12075.999999999991
 21
-1064.9999999999991
 31
0.0
1001
ACDBBLOCKREPETAG
1070
     1
1071
      157
1005
128204
  0
LINE
  5
128205
  8
OBJECT
 10
11955.5
 20
-979.99999999999966
 30
0.0
 11
11955.5
 21
-1029.9999999999991
 31
0.0
1001
ACDBBLOCKREPETAG
1070
     1
1071
      158
1005
128205
  0
LINE
  5
128206
  8
OBJECT
 10
12044.5
 20
-979.99999999999966
 30
0.0
 11
12044.5
 21
-1029.9999999999991
 31
0.0
1001
ACDBBLOCKREPETAG
1070
     1
1071
      159
1005
128206
  0
LINE
  5
128207
  8
OBJECT
 10
11947.0
 20
-1029.9999999999991
 30
0.0
 11
12053.0
 21
-1029.9999999999991
 31
0.0
1001
ACDBBLOCKREPETAG
1070
     1
1071
      160
1005
128207
  0
LINE
  5
128208
  8
HIDDEN
 10
11955.5
 20
-1039.9999999999991
 30
0.0
 11
12044.5
 21
-1039.9999999999991
 31
0.0
1001
ACDBBLOCKREPETAG
1070
     1
1071
      161
1005
128208
  0
LINE
  5
128209
  8
CENTER
 10
12000.0
 20
-769.99999999999955
 30
0.0
 11
12000.0
 21
-1159.9999999999991
 31
0.0
1001
ACDBBLOCKREPETAG
1070
     1
1071
      162
1005
128209
  0
LINE
  5
12820A
  8
OBJECT
 10
12065.0
 20
-769.99999999999955
 30
0.0
 11
12065.0
 21
-869.99999999999955
 31
0.0
1001
ACDBBLOCKREPETAG
1070
     1
1071
      163
1005
12820A
  0
LINE
  5
12820B
  8
OBJECT
 10
11935.0
 20
-769.99999999999955
 30
0.0
 11
11935.0
 21
-869.99999999999955
 31
0.0
1001
ACDBBLOCKREPETAG
1070
     1
1071
      164
1005
12820B
  0
LINE
  5
12820C
  8
OBJECT
 10
11955.5
 20
-979.99999999999966
 30
0.0
 11
11935.0
 21
-869.99999999999955
 31
0.0
1001
ACDBBLOCKREPETAG
1070
     1
1071
      165
1005
12820C
  0
LINE
  5
12820D
  8
OBJECT
 10
12065.0
 20
-869.99999999999955
 30
0.0
 11
11935.0
 21
-869.99999999999955
 31
0.0
1001
ACDBBLOCKREPETAG
1070
     1
1071
      166
1005
12820D
  0
LINE
  5
12820E
  8
OBJECT
 10
11947.0
 20
-1029.9999999999991
 30
0.0
 11
11947.0
 21
-1064.9999999999991
 31
0.0
1001
ACDBBLOCKREPETAG
1070
     1
1071
      167
1005
12820E
  0
LINE
  5
12820F
  8
OBJECT
 10
12053.0
 20
-1029.9999999999991
 30
0.0
 11
12053.0
 21
-1064.9999999999991
 31
0.0
1001
ACDBBLOCKREPETAG
1070
     1
1071
      168
1005
12820F
  0
LINE
  5
128210
  8
OBJECT
 10
9975.5
 20
-1059.9999999999991
 30
0.0
 11
9958.9999999999964
 21
-1059.9999999999991
 31
0.0
1001
ACDBBLOCKREPETAG
1070
     1
1071
       12
1005
128210
  0
LINE
  5
128211
  8
OBJECT
 10
9983.0
 20
-1064.9999999999991
 30
0.0
 11
9983.0
 21
-1062.9999999999991
 31
0.0
1001
ACDBBLOCKREPETAG
1070
     1
1071
       13
1005
128211
  0
LINE
  5
128212
  8
OBJECT
 10
10075.999999999991
 20
-1079.9999999999991
 30
0.0
 11
9938.9999999999927
 21
-1079.9999999999991
 31
0.0
1001
ACDBBLOCKREPETAG
1070
     1
1071
       14
1005
128212
  0
LINE
  5
128213
  8
OBJECT
 10
10075.999999999991
 20
-1079.9999999999991
 30
0.0
 11
10075.999999999991
 21
-1064.9999999999991
 31
0.0
1001
ACDBBLOCKREPETAG
1070
     1
1071
       15
1005
128213
  0
LINE
  5
128214
  8
OBJECT
 10
10075.999999999991
 20
-1089.9999999999991
 30
0.0
 11
10075.999999999991
 21
-1103.9999999999991
 31
0.0
1001
ACDBBLOCKREPETAG
1070
     1
1071
       16
1005
128214
  0
LINE
  5
128215
  8
OBJECT
 10
10068.999999999991
 20
-1089.9999999999991
 30
0.0
 11
10068.999999999991
 21
-1079.9999999999991
 31
0.0
1001
ACDBBLOCKREPETAG
1070
     1
1071
       17
1005
128215
  0
LINE
  5
128216
  8
OBJECT
 10
10058.999999999991
 20
-1089.9999999999991
 30
0.0
 11
10058.999999999991
 21
-1079.9999999999991
 31
0.0
1001
ACDBBLOCKREPETAG
1070
     1
1071
       18
1005
128216
  0
LINE
  5
128217
  8
OBJECT
 10
9938.9999999999927
 20
-1089.9999999999991
 30
0.0
 11
9938.9999999999927
 21
-1103.9999999999991
 31
0.0
1001
ACDBBLOCKREPETAG
1070
     1
1071
       19
1005
128217
  0
LINE
  5
128218
  8
OBJECT
 10
9938.9999999999927
 20
-1103.9999999999991
 30
0.0
 11
10075.999999999991
 21
-1103.9999999999991
 31
0.0
1001
ACDBBLOCKREPETAG
1070
     1
1071
       20
1005
128218
  0
LINE
  5
128219
  8
OBJECT
 10
9973.0
 20
-1089.9999999999991
 30
0.0
 11
9973.0
 21
-1079.9999999999991
 31
0.0
1001
ACDBBLOCKREPETAG
1070
     1
1071
       21
1005
128219
  0
LINE
  5
12821A
  8
OBJECT
 10
9963.0
 20
-1089.9999999999991
 30
0.0
 11
9963.0
 21
-1079.9999999999991
 31
0.0
1001
ACDBBLOCKREPETAG
1070
     1
1071
       22
1005
12821A
  0
LINE
  5
12821B
  8
OBJECT
 10
9938.9999999999927
 20
-1089.9999999999991
 30
0.0
 11
10075.999999999991
 21
-1089.9999999999991
 31
0.0
1001
ACDBBLOCKREPETAG
1070
     1
1071
       23
1005
12821B
  0
LINE
  5
12821C
  8
OBJECT
 10
9958.9999999999964
 20
-1059.9999999999991
 30
0.0
 11
9958.9999999999964
 21
-1064.9999999999991
 31
0.0
1001
ACDBBLOCKREPETAG
1070
     1
1071
       24
1005
12821C
  0
LINE
  5
12821D
  8
OBJECT
 10
9963.0
 20
-1111.9999999999991
 30
0.0
 11
9963.0
 21
-1114.9999999999991
 31
0.0
1001
ACDBBLOCKREPETAG
1070
     1
1071
       25
1005
12821D
  0
LINE
  5
12821E
  8
OBJECT
 10
9963.0
 20
-1114.9999999999991
 30
0.0
 11
9973.0
 21
-1114.9999999999991
 31
0.0
1001
ACDBBLOCKREPETAG
1070
     1
1071
       26
1005
12821E
  0
LINE
  5
12821F
  8
OBJECT
 10
9958.1850454237738
 20
-1111.9999999999991
 30
0.0
 11
9977.814954576219
 21
-1111.9999999999991
 31
0.0
1001
ACDBBLOCKREPETAG
1070
     1
1071
       27
1005
12821F
  0
LINE
  5
128220
  8
OBJECT
 10
9973.0
 20
-1114.9999999999991
 30
0.0
 11
9973.0
 21
-1111.9999999999991
 31
0.0
1001
ACDBBLOCKREPETAG
1070
     1
1071
       28
1005
128220
  0
LINE
  5
128221
  8
OBJECT
 10
9945.9999999999909
 20
-1079.9999999999991
 30
0.0
 11
9945.9999999999909
 21
-1089.9999999999991
 31
0.0
1001
ACDBBLOCKREPETAG
1070
     1
1071
       29
1005
128221
  0
LINE
  5
128222
  8
OBJECT
 10
10053.999999999991
 20
-1079.9999999999991
 30
0.0
 11
10053.999999999991
 21
-1089.9999999999991
 31
0.0
1001
ACDBBLOCKREPETAG
1070
     1
1071
       30
1005
128222
  0
LINE
  5
128223
  8
OBJECT
 10
10044.5
 20
-979.99999999999966
 30
0.0
 11
10065.0
 21
-869.99999999999955
 31
0.0
1001
ACDBBLOCKREPETAG
1070
     1
1071
       31
1005
128223
  0
LINE
  5
128224
  8
OBJECT
 10
9955.5
 20
-979.99999999999966
 30
0.0
 11
10044.5
 21
-979.99999999999966
 31
0.0
1001
ACDBBLOCKREPETAG
1070
     1
1071
       32
1005
128224
  0
LINE
  5
128225
  8
OBJECT
 10
9938.9999999999927
 20
-1079.9999999999991
 30
0.0
 11
9938.9999999999927
 21
-1064.9999999999991
 31
0.0
1001
ACDBBLOCKREPETAG
1070
     1
1071
       33
1005
128225
  0
LINE
  5
128226
  8
OBJECT
 10
9938.9999999999927
 20
-1064.9999999999991
 30
0.0
 11
10075.999999999991
 21
-1064.9999999999991
 31
0.0
1001
ACDBBLOCKREPETAG
1070
     1
1071
       34
1005
128226
  0
LINE
  5
128227
  8
OBJECT
 10
9955.5
 20
-979.99999999999966
 30
0.0
 11
9955.5
 21
-1029.9999999999991
 31
0.0
1001
ACDBBLOCKREPETAG
1070
     1
1071
       35
1005
128227
  0
LINE
  5
128228
  8
OBJECT
 10
10044.5
 20
-979.99999999999966
 30
0.0
 11
10044.5
 21
-1029.9999999999991
 31
0.0
1001
ACDBBLOCKREPETAG
1070
     1
1071
       36
1005
128228
  0
LINE
  5
128229
  8
OBJECT
 10
9947.0
 20
-1029.9999999999991
 30
0.0
 11
10053.0
 21
-1029.9999999999991
 31
0.0
1001
ACDBBLOCKREPETAG
1070
     1
1071
       37
1005
128229
  0
LINE
  5
12822A
  8
OBJECT
 10
10054.99999999998
 20
-1059.9999999999991
 30
0.0
 11
10054.99999999998
 21
-1064.9999999999991
 31
0.0
1001
ACDBBLOCKREPETAG
1070
     1
1071
       38
1005
12822A
  0
LINE
  5
12822B
  8
OBJECT
 10
10073.0
 20
-1059.9999999999991
 30
0.0
 11
10073.0
 21
-1064.9999999999991
 31
0.0
1001
ACDBBLOCKREPETAG
1070
     1
1071
       39
1005
12822B
  0
LINE
  5
12822C
  8
OBJECT
 10
10073.0
 20
-1059.9999999999991
 30
0.0
 11
10054.99999999998
 21
-1059.9999999999991
 31
0.0
1001
ACDBBLOCKREPETAG
1070
     1
1071
       40
1005
12822C
  0
LINE
  5
12822D
  8
HIDDEN
 10
9955.5
 20
-1039.9999999999991
 30
0.0
 11
10044.5
 21
-1039.9999999999991
 31
0.0
1001
ACDBBLOCKREPETAG
1070
     1
1071
       41
1005
12822D
  0
LINE
  5
12822E
  8
CENTER
 10
10000.0
 20
-769.99999999999955
 30
0.0
 11
10000.0
 21
-1118.9999999999991
 31
0.0
1001
ACDBBLOCKREPETAG
1070
     1
1071
       42
1005
12822E
  0
LINE
  5
12822F
  8
OBJECT
 10
10065.0
 20
-769.99999999999955
 30
0.0
 11
10065.0
 21
-869.99999999999955
 31
0.0
1001
ACDBBLOCKREPETAG
1070
     1
1071
       43
1005
12822F
  0
LINE
  5
128230
  8
OBJECT
 10
9935.0
 20
-769.99999999999955
 30
0.0
 11
9935.0
 21
-869.99999999999955
 31
0.0
1001
ACDBBLOCKREPETAG
1070
     1
1071
       44
1005
128230
  0
LINE
  5
128231
  8
OBJECT
 10
9955.5
 20
-979.99999999999966
 30
0.0
 11
9935.0
 21
-869.99999999999955
 31
0.0
1001
ACDBBLOCKREPETAG
1070
     1
1071
       45
1005
128231
  0
LINE
  5
128232
  8
OBJECT
 10
10065.0
 20
-869.99999999999955
 30
0.0
 11
9935.0
 21
-869.99999999999955
 31
0.0
1001
ACDBBLOCKREPETAG
1070
     1
1071
       46
1005
128232
  0
LINE
  5
128233
  8
OBJECT
 10
9947.0
 20
-1029.9999999999991
 30
0.0
 11
9947.0
 21
-1064.9999999999991
 31
0.0
1001
ACDBBLOCKREPETAG
1070
     1
1071
       47
1005
128233
  0
LINE
  5
128234
  8
OBJECT
 10
10053.0
 20
-1029.9999999999991
 30
0.0
 11
10053.0
 21
-1064.9999999999991
 31
0.0
1001
ACDBBLOCKREPETAG
1070
     1
1071
       48
1005
128234
  0
LINE
  5
128235
  8
OBJECT
 10
9983.0
 20
-1062.9999999999991
 30
0.0
 11
9975.5
 21
-1059.9999999999991
 31
0.0
1001
ACDBBLOCKREPETAG
1070
     1
1071
       49
1005
128235
  0
LINE
  5
128236
  8
OBJECT
 10
9958.1850359912914
 20
-1103.999986840259
 30
0.0
 11
9958.1850359912914
 21
-1111.999986840259
 31
0.0
1001
ACDBBLOCKREPETAG
1070
     1
1071
       50
1005
128236
  0
LINE
  5
128237
  8
OBJECT
 10
9963.0925013591986
 20
-1103.999986840259
 30
0.0
 11
9963.0925013591986
 21
-1111.999986840259
 31
0.0
1001
ACDBBLOCKREPETAG
1070
     1
1071
       51
1005
128237
  0
LINE
  5
128238
  8
OBJECT
 10
9972.9074320950258
 20
-1103.999986840259
 30
0.0
 11
9972.9074320950258
 21
-1111.999986840259
 31
0.0
1001
ACDBBLOCKREPETAG
1070
     1
1071
       52
1005
128238
  0
LINE
  5
128239
  8
OBJECT
 10
9977.8149915527974
 20
-1103.999986840259
 30
0.0
 11
9977.8149915527974
 21
-1111.999986840259
 31
0.0
1001
ACDBBLOCKREPETAG
1070
     1
1071
       53
1005
128239
  0
LINE
  5
12823A
  8
OBJECT
 10
10059.0
 20
-1111.9999999999991
 30
0.0
 11
10059.0
 21
-1114.9999999999991
 31
0.0
1001
ACDBBLOCKREPETAG
1070
     1
1071
       54
1005
12823A
  0
LINE
  5
12823B
  8
OBJECT
 10
10059.0
 20
-1114.9999999999991
 30
0.0
 11
10069.0
 21
-1114.9999999999991
 31
0.0
1001
ACDBBLOCKREPETAG
1070
     1
1071
       55
1005
12823B
  0
LINE
  5
12823C
  8
OBJECT
 10
10054.18504542377
 20
-1111.9999999999991
 30
0.0
 11
10073.814954576221
 21
-1111.9999999999991
 31
0.0
1001
ACDBBLOCKREPETAG
1070
     1
1071
       56
1005
12823C
  0
LINE
  5
12823D
  8
OBJECT
 10
10069.0
 20
-1114.9999999999991
 30
0.0
 11
10069.0
 21
-1111.9999999999991
 31
0.0
1001
ACDBBLOCKREPETAG
1070
     1
1071
       57
1005
12823D
  0
LINE
  5
12823E
  8
OBJECT
 10
10054.18503599129
 20
-1103.999986840259
 30
0.0
 11
10054.18503599129
 21
-1111.999986840259
 31
0.0
1001
ACDBBLOCKREPETAG
1070
     1
1071
       58
1005
12823E
  0
LINE
  5
12823F
  8
OBJECT
 10
10059.0925013592
 20
-1103.999986840259
 30
0.0
 11
10059.0925013592
 21
-1111.999986840259
 31
0.0
1001
ACDBBLOCKREPETAG
1070
     1
1071
       59
1005
12823F
  0
LINE
  5
128240
  8
OBJECT
 10
10068.90743209502
 20
-1103.999986840259
 30
0.0
 11
10068.90743209502
 21
-1111.999986840259
 31
0.0
1001
ACDBBLOCKREPETAG
1070
     1
1071
       60
1005
128240
  0
LINE
  5
128241
  8
OBJECT
 10
10073.814991552799
 20
-1103.999986840259
 30
0.0
 11
10073.814991552799
 21
-1111.999986840259
 31
0.0
1001
ACDBBLOCKREPETAG
1070
     1
1071
       61
1005
128241
  0
LINE
  5
128242
  8
OBJECT
 10
8044.5000000000036
 20
-1079.999999999992
 30
0.0
 11
7955.5
 21
-1079.999999999992
 31
0.0
1001
ACDBBLOCKREPETAG
1070
     1
1071
        0
1005
128242
  0
LINE
  5
128243
  8
OBJECT
 10
7935.0
 20
-869.99999999999216
 30
0.0
 11
7935.0
 21
-769.99999999999204
 31
0.0
1001
ACDBBLOCKREPETAG
1070
     1
1071
        1
1005
128243
  0
LINE
  5
128244
  8
OBJECT
 10
8065.0
 20
-869.99999999999216
 30
0.0
 11
8065.0
 21
-769.99999999999204
 31
0.0
1001
ACDBBLOCKREPETAG
1070
     1
1071
        2
1005
128244
  0
LINE
  5
128245
  8
OBJECT
 10
7935.0
 20
-869.99999999999216
 30
0.0
 11
8065.0
 21
-869.99999999999216
 31
0.0
1001
ACDBBLOCKREPETAG
1070
     1
1071
        3
1005
128245
  0
LINE
  5
128246
  8
OBJECT
 10
7955.5
 20
-979.99999999999204
 30
0.0
 11
8044.5000000000036
 21
-979.99999999999204
 31
0.0
1001
ACDBBLOCKREPETAG
1070
     1
1071
        4
1005
128246
  0
LINE
  5
128247
  8
OBJECT
 10
7955.5
 20
-979.99999999999204
 30
0.0
 11
7955.5
 21
-1079.999999999992
 31
0.0
1001
ACDBBLOCKREPETAG
1070
     1
1071
        5
1005
128247
  0
LINE
  5
128248
  8
OBJECT
 10
8044.5000000000036
 20
-979.99999999999204
 30
0.0
 11
8044.5000000000036
 21
-1079.999999999992
 31
0.0
1001
ACDBBLOCKREPETAG
1070
     1
1071
        6
1005
128248
  0
LINE
  5
128249
  8
OBJECT
 10
7935.0
 20
-869.99999999999216
 30
0.0
 11
7955.5
 21
-979.99999999999204
 31
0.0
1001
ACDBBLOCKREPETAG
1070
     1
1071
        7
1005
128249
  0
LINE
  5
12824A
  8
OBJECT
 10
8044.5000000000036
 20
-979.99999999999204
 30
0.0
 11
8065.0
 21
-869.99999999999216
 31
0.0
1001
ACDBBLOCKREPETAG
1070
     1
1071
        8
1005
12824A
  0
LINE
  5
12824B
  8
HIDDEN
 10
7962.5
 20
-979.99999999999204
 30
0.0
 11
7962.5
 21
-1079.999999999992
 31
0.0
1001
ACDBBLOCKREPETAG
1070
     1
1071
        9
1005
12824B
  0
LINE
  5
12824C
  8
HIDDEN
 10
8037.4999999999973
 20
-979.99999999999204
 30
0.0
 11
8037.4999999999973
 21
-1079.999999999992
 31
0.0
1001
ACDBBLOCKREPETAG
1070
     1
1071
       10
1005
12824C
  0
LINE
  5
12824D
  8
CENTER
 10
8000.0
 20
-769.99999999999955
 30
0.0
 11
8000.0
 21
-1094.999999999992
 31
0.0
1001
ACDBBLOCKREPETAG
1070
     1
1071
       11
1005
12824D
  0
LINE
  5
12824E
  8
OBJECT
 10
6055.9999999999927
 20
-1103.9999999999991
 30
0.0
 11
6055.9999999999927
 21
-1113.9999999999991
 31
0.0
1001
ACDBBLOCKREPETAG
1070
     1
1071
      121
1005
12824E
  0
LINE
  5
12824F
  8
OBJECT
 10
5961.75
 20
-1054.699999999996
 30
0.0
 11
5974.25
 21
-1054.699999999996
 31
0.0
1001
ACDBBLOCKREPETAG
1070
     1
1071
      122
1005
12824F
  0
LINE
  5
128250
  8
OBJECT
 10
6073.4999999999927
 20
-1062.7
 30
0.0
 11
6073.4999999999927
 21
-1064.9999999999991
 31
0.0
1001
ACDBBLOCKREPETAG
1070
     1
1071
      123
1005
128250
  0
LINE
  5
128251
  8
OBJECT
 10
6057.7499999999927
 20
-1054.699999999996
 30
0.0
 11
6070.2499999999927
 21
-1054.699999999996
 31
0.0
1001
ACDBBLOCKREPETAG
1070
     1
1071
      124
1005
128251
  0
LINE
  5
128252
  8
OBJECT
 10
6054.4999999999927
 20
-1062.7
 30
0.0
 11
6054.4999999999927
 21
-1064.9999999999991
 31
0.0
1001
ACDBBLOCKREPETAG
1070
     1
1071
      125
1005
128252
  0
LINE
  5
128253
  8
OBJECT
 10
5953.0
 20
-1064.9999999999991
 30
0.0
 11
5953.0
 21
-1062.7
 31
0.0
1001
ACDBBLOCKREPETAG
1070
     1
1071
      126
1005
128253
  0
LINE
  5
128254
  8
OBJECT
 10
5983.0
 20
-1064.9999999999991
 30
0.0
 11
5983.0
 21
-1062.7
 31
0.0
1001
ACDBBLOCKREPETAG
1070
     1
1071
      127
1005
128254
  0
LINE
  5
128255
  8
OBJECT
 10
5961.75
 20
-1054.699999999996
 30
0.0
 11
5961.75
 21
-1062.7
 31
0.0
1001
ACDBBLOCKREPETAG
1070
     1
1071
      128
1005
128255
  0
LINE
  5
128256
  8
OBJECT
 10
5974.25
 20
-1054.699999999996
 30
0.0
 11
5974.25
 21
-1062.7
 31
0.0
1001
ACDBBLOCKREPETAG
1070
     1
1071
      129
1005
128256
  0
LINE
  5
128257
  8
OBJECT
 10
5953.0
 20
-1062.7
 30
0.0
 11
5983.0
 21
-1062.7
 31
0.0
1001
ACDBBLOCKREPETAG
1070
     1
1071
      130
1005
128257
  0
LINE
  5
128258
  8
OBJECT
 10
5960.0
 20
-1103.9999999999991
 30
0.0
 11
5960.0
 21
-1113.9999999999991
 31
0.0
1001
ACDBBLOCKREPETAG
1070
     1
1071
      131
1005
128258
  0
LINE
  5
128259
  8
OBJECT
 10
5976.0
 20
-1103.9999999999991
 30
0.0
 11
5976.0
 21
-1113.9999999999991
 31
0.0
1001
ACDBBLOCKREPETAG
1070
     1
1071
      132
1005
128259
  0
LINE
  5
12825A
  8
OBJECT
 10
5960.0
 20
-1113.9999999999991
 30
0.0
 11
5976.0
 21
-1113.9999999999991
 31
0.0
1001
ACDBBLOCKREPETAG
1070
     1
1071
      133
1005
12825A
  0
LINE
  5
12825B
  8
OBJECT
 10
6071.9999999999918
 20
-1103.9999999999991
 30
0.0
 11
6071.9999999999918
 21
-1113.9999999999991
 31
0.0
1001
ACDBBLOCKREPETAG
1070
     1
1071
      134
1005
12825B
  0
LINE
  5
12825C
  8
OBJECT
 10
6071.9999999999918
 20
-1113.9999999999991
 30
0.0
 11
6055.9999999999927
 21
-1113.9999999999991
 31
0.0
1001
ACDBBLOCKREPETAG
1070
     1
1071
      135
1005
12825C
  0
LINE
  5
12825D
  8
OBJECT
 10
5944.9999999999927
 20
-1144.9999999999991
 30
0.0
 11
5944.9999999999927
 21
-1103.9999999999991
 31
0.0
1001
ACDBBLOCKREPETAG
1070
     1
1071
      136
1005
12825D
  0
LINE
  5
12825E
  8
OBJECT
 10
6054.9999999999918
 20
-1103.9999999999991
 30
0.0
 11
6054.9999999999918
 21
-1144.9999999999991
 31
0.0
1001
ACDBBLOCKREPETAG
1070
     1
1071
      137
1005
12825E
  0
LINE
  5
12825F
  8
OBJECT
 10
6070.2499999999927
 20
-1054.699999999996
 30
0.0
 11
6070.2499999999927
 21
-1062.7
 31
0.0
1001
ACDBBLOCKREPETAG
1070
     1
1071
      138
1005
12825F
  0
LINE
  5
128260
  8
OBJECT
 10
6057.7499999999927
 20
-1054.699999999996
 30
0.0
 11
6057.7499999999927
 21
-1062.7
 31
0.0
1001
ACDBBLOCKREPETAG
1070
     1
1071
      139
1005
128260
  0
LINE
  5
128261
  8
OBJECT
 10
6054.4999999999927
 20
-1062.7
 30
0.0
 11
6073.4999999999927
 21
-1062.7
 31
0.0
1001
ACDBBLOCKREPETAG
1070
     1
1071
      140
1005
128261
  0
LINE
  5
128262
  8
OBJECT
 10
6054.9999999999918
 20
-1144.9999999999991
 30
0.0
 11
5944.9999999999927
 21
-1144.9999999999991
 31
0.0
1001
ACDBBLOCKREPETAG
1070
     1
1071
      141
1005
128262
  0
LINE
  5
128263
  8
OBJECT
 10
6075.9999999999927
 20
-1079.9999999999991
 30
0.0
 11
5938.9999999999918
 21
-1079.9999999999991
 31
0.0
1001
ACDBBLOCKREPETAG
1070
     1
1071
      142
1005
128263
  0
LINE
  5
128264
  8
OBJECT
 10
6075.9999999999927
 20
-1079.9999999999991
 30
0.0
 11
6075.9999999999927
 21
-1064.9999999999991
 31
0.0
1001
ACDBBLOCKREPETAG
1070
     1
1071
      143
1005
128264
  0
LINE
  5
128265
  8
OBJECT
 10
6075.9999999999927
 20
-1089.9999999999991
 30
0.0
 11
6075.9999999999927
 21
-1103.9999999999991
 31
0.0
1001
ACDBBLOCKREPETAG
1070
     1
1071
      144
1005
128265
  0
LINE
  5
128266
  8
OBJECT
 10
6068.9999999999909
 20
-1089.9999999999991
 30
0.0
 11
6068.9999999999909
 21
-1079.9999999999991
 31
0.0
1001
ACDBBLOCKREPETAG
1070
     1
1071
      145
1005
128266
  0
LINE
  5
128267
  8
OBJECT
 10
6058.9999999999927
 20
-1089.9999999999991
 30
0.0
 11
6058.9999999999927
 21
-1079.9999999999991
 31
0.0
1001
ACDBBLOCKREPETAG
1070
     1
1071
      146
1005
128267
  0
LINE
  5
128268
  8
OBJECT
 10
5938.9999999999918
 20
-1089.9999999999991
 30
0.0
 11
5938.9999999999918
 21
-1103.9999999999991
 31
0.0
1001
ACDBBLOCKREPETAG
1070
     1
1071
      147
1005
128268
  0
LINE
  5
128269
  8
OBJECT
 10
5938.9999999999918
 20
-1103.9999999999991
 30
0.0
 11
6075.9999999999927
 21
-1103.9999999999991
 31
0.0
1001
ACDBBLOCKREPETAG
1070
     1
1071
      148
1005
128269
  0
LINE
  5
12826A
  8
OBJECT
 10
5973.0
 20
-1089.9999999999991
 30
0.0
 11
5973.0
 21
-1079.9999999999991
 31
0.0
1001
ACDBBLOCKREPETAG
1070
     1
1071
      149
1005
12826A
  0
LINE
  5
12826B
  8
OBJECT
 10
5963.0
 20
-1089.9999999999991
 30
0.0
 11
5963.0
 21
-1079.9999999999991
 31
0.0
1001
ACDBBLOCKREPETAG
1070
     1
1071
      150
1005
12826B
  0
LINE
  5
12826C
  8
OBJECT
 10
5938.9999999999918
 20
-1089.9999999999991
 30
0.0
 11
6075.9999999999927
 21
-1089.9999999999991
 31
0.0
1001
ACDBBLOCKREPETAG
1070
     1
1071
      151
1005
12826C
  0
LINE
  5
12826D
  8
OBJECT
 10
5945.9999999999927
 20
-1079.9999999999991
 30
0.0
 11
5945.9999999999927
 21
-1089.9999999999991
 31
0.0
1001
ACDBBLOCKREPETAG
1070
     1
1071
      152
1005
12826D
  0
LINE
  5
12826E
  8
OBJECT
 10
6053.9999999999927
 20
-1079.9999999999991
 30
0.0
 11
6053.9999999999927
 21
-1089.9999999999991
 31
0.0
1001
ACDBBLOCKREPETAG
1070
     1
1071
      153
1005
12826E
  0
LINE
  5
12826F
  8
OBJECT
 10
6044.5
 20
-979.99999999999966
 30
0.0
 11
6065.0
 21
-869.99999999999955
 31
0.0
1001
ACDBBLOCKREPETAG
1070
     1
1071
      154
1005
12826F
  0
LINE
  5
128270
  8
OBJECT
 10
5955.5
 20
-979.99999999999966
 30
0.0
 11
6044.5
 21
-979.99999999999966
 31
0.0
1001
ACDBBLOCKREPETAG
1070
     1
1071
      155
1005
128270
  0
LINE
  5
128271
  8
OBJECT
 10
5938.9999999999918
 20
-1079.9999999999991
 30
0.0
 11
5938.9999999999918
 21
-1064.9999999999991
 31
0.0
1001
ACDBBLOCKREPETAG
1070
     1
1071
      156
1005
128271
  0
LINE
  5
128272
  8
OBJECT
 10
5938.9999999999918
 20
-1064.9999999999991
 30
0.0
 11
6075.9999999999927
 21
-1064.9999999999991
 31
0.0
1001
ACDBBLOCKREPETAG
1070
     1
1071
      157
1005
128272
  0
LINE
  5
128273
  8
OBJECT
 10
5955.5
 20
-979.99999999999966
 30
0.0
 11
5955.5
 21
-1029.9999999999991
 31
0.0
1001
ACDBBLOCKREPETAG
1070
     1
1071
      158
1005
128273
  0
LINE
  5
128274
  8
OBJECT
 10
6044.5
 20
-979.99999999999966
 30
0.0
 11
6044.5
 21
-1029.9999999999991
 31
0.0
1001
ACDBBLOCKREPETAG
1070
     1
1071
      159
1005
128274
  0
LINE
  5
128275
  8
OBJECT
 10
5947.0
 20
-1029.9999999999991
 30
0.0
 11
6053.0
 21
-1029.9999999999991
 31
0.0
1001
ACDBBLOCKREPETAG
1070
     1
1071
      160
1005
128275
  0
LINE
  5
128276
  8
HIDDEN
 10
5955.5
 20
-1039.9999999999991
 30
0.0
 11
6044.5
 21
-1039.9999999999991
 31
0.0
1001
ACDBBLOCKREPETAG
1070
     1
1071
      161
1005
128276
  0
LINE
  5
128277
  8
CENTER
 10
6000.0
 20
-769.99999999999955
 30
0.0
 11
6000.0
 21
-1159.9999999999991
 31
0.0
1001
ACDBBLOCKREPETAG
1070
     1
1071
      162
1005
128277
  0
LINE
  5
128278
  8
OBJECT
 10
6065.0
 20
-769.99999999999955
 30
0.0
 11
6065.0
 21
-869.99999999999955
 31
0.0
1001
ACDBBLOCKREPETAG
1070
     1
1071
      163
1005
128278
  0
LINE
  5
128279
  8
OBJECT
 10
5935.0
 20
-769.99999999999955
 30
0.0
 11
5935.0
 21
-869.99999999999955
 31
0.0
1001
ACDBBLOCKREPETAG
1070
     1
1071
      164
1005
128279
  0
LINE
  5
12827A
  8
OBJECT
 10
5955.5
 20
-979.99999999999966
 30
0.0
 11
5935.0
 21
-869.99999999999955
 31
0.0
1001
ACDBBLOCKREPETAG
1070
     1
1071
      165
1005
12827A
  0
LINE
  5
12827B
  8
OBJECT
 10
6065.0
 20
-869.99999999999955
 30
0.0
 11
5935.0
 21
-869.99999999999955
 31
0.0
1001
ACDBBLOCKREPETAG
1070
     1
1071
      166
1005
12827B
  0
LINE
  5
12827C
  8
OBJECT
 10
5947.0
 20
-1029.9999999999991
 30
0.0
 11
5947.0
 21
-1064.9999999999991
 31
0.0
1001
ACDBBLOCKREPETAG
1070
     1
1071
      167
1005
12827C
  0
LINE
  5
12827D
  8
OBJECT
 10
6053.0
 20
-1029.9999999999991
 30
0.0
 11
6053.0
 21
-1064.9999999999991
 31
0.0
1001
ACDBBLOCKREPETAG
1070
     1
1071
      168
1005
12827D
  0
LINE
  5
12827E
  8
OBJECT
 10
3975.5
 20
-1059.9999999999991
 30
0.0
 11
3958.9999999999918
 21
-1059.9999999999991
 31
0.0
1001
ACDBBLOCKREPETAG
1070
     1
1071
       12
1005
12827E
  0
LINE
  5
12827F
  8
OBJECT
 10
3983.0
 20
-1064.9999999999991
 30
0.0
 11
3983.0
 21
-1062.9999999999991
 31
0.0
1001
ACDBBLOCKREPETAG
1070
     1
1071
       13
1005
12827F
  0
LINE
  5
128280
  8
OBJECT
 10
4075.9999999999918
 20
-1079.9999999999991
 30
0.0
 11
3938.9999999999932
 21
-1079.9999999999991
 31
0.0
1001
ACDBBLOCKREPETAG
1070
     1
1071
       14
1005
128280
  0
LINE
  5
128281
  8
OBJECT
 10
4075.9999999999918
 20
-1079.9999999999991
 30
0.0
 11
4075.9999999999918
 21
-1064.9999999999991
 31
0.0
1001
ACDBBLOCKREPETAG
1070
     1
1071
       15
1005
128281
  0
LINE
  5
128282
  8
OBJECT
 10
4075.9999999999918
 20
-1089.9999999999991
 30
0.0
 11
4075.9999999999918
 21
-1103.9999999999991
 31
0.0
1001
ACDBBLOCKREPETAG
1070
     1
1071
       16
1005
128282
  0
LINE
  5
128283
  8
OBJECT
 10
4068.9999999999918
 20
-1089.9999999999991
 30
0.0
 11
4068.9999999999918
 21
-1079.9999999999991
 31
0.0
1001
ACDBBLOCKREPETAG
1070
     1
1071
       17
1005
128283
  0
LINE
  5
128284
  8
OBJECT
 10
4058.9999999999932
 20
-1089.9999999999991
 30
0.0
 11
4058.9999999999932
 21
-1079.9999999999991
 31
0.0
1001
ACDBBLOCKREPETAG
1070
     1
1071
       18
1005
128284
  0
LINE
  5
128285
  8
OBJECT
 10
3938.9999999999932
 20
-1089.9999999999991
 30
0.0
 11
3938.9999999999932
 21
-1103.9999999999991
 31
0.0
1001
ACDBBLOCKREPETAG
1070
     1
1071
       19
1005
128285
  0
LINE
  5
128286
  8
OBJECT
 10
3938.9999999999932
 20
-1103.9999999999991
 30
0.0
 11
4075.9999999999918
 21
-1103.9999999999991
 31
0.0
1001
ACDBBLOCKREPETAG
1070
     1
1071
       20
1005
128286
  0
LINE
  5
128287
  8
OBJECT
 10
3973.0
 20
-1089.9999999999991
 30
0.0
 11
3973.0
 21
-1079.9999999999991
 31
0.0
1001
ACDBBLOCKREPETAG
1070
     1
1071
       21
1005
128287
  0
LINE
  5
128288
  8
OBJECT
 10
3963.0
 20
-1089.9999999999991
 30
0.0
 11
3963.0
 21
-1079.9999999999991
 31
0.0
1001
ACDBBLOCKREPETAG
1070
     1
1071
       22
1005
128288
  0
LINE
  5
128289
  8
OBJECT
 10
3938.9999999999932
 20
-1089.9999999999991
 30
0.0
 11
4075.9999999999918
 21
-1089.9999999999991
 31
0.0
1001
ACDBBLOCKREPETAG
1070
     1
1071
       23
1005
128289
  0
LINE
  5
12828A
  8
OBJECT
 10
3958.9999999999918
 20
-1059.9999999999991
 30
0.0
 11
3958.9999999999918
 21
-1064.9999999999991
 31
0.0
1001
ACDBBLOCKREPETAG
1070
     1
1071
       24
1005
12828A
  0
LINE
  5
12828B
  8
OBJECT
 10
3963.0
 20
-1111.9999999999991
 30
0.0
 11
3963.0
 21
-1114.9999999999991
 31
0.0
1001
ACDBBLOCKREPETAG
1070
     1
1071
       25
1005
12828B
  0
LINE
  5
12828C
  8
OBJECT
 10
3963.0
 20
-1114.9999999999991
 30
0.0
 11
3973.0
 21
-1114.9999999999991
 31
0.0
1001
ACDBBLOCKREPETAG
1070
     1
1071
       26
1005
12828C
  0
LINE
  5
12828D
  8
OBJECT
 10
3958.185045423772
 20
-1111.9999999999991
 30
0.0
 11
3977.8149545762212
 21
-1111.9999999999991
 31
0.0
1001
ACDBBLOCKREPETAG
1070
     1
1071
       27
1005
12828D
  0
LINE
  5
12828E
  8
OBJECT
 10
3973.0
 20
-1114.9999999999991
 30
0.0
 11
3973.0
 21
-1111.9999999999991
 31
0.0
1001
ACDBBLOCKREPETAG
1070
     1
1071
       28
1005
12828E
  0
LINE
  5
12828F
  8
OBJECT
 10
3945.9999999999932
 20
-1079.9999999999991
 30
0.0
 11
3945.9999999999932
 21
-1089.9999999999991
 31
0.0
1001
ACDBBLOCKREPETAG
1070
     1
1071
       29
1005
12828F
  0
LINE
  5
128290
  8
OBJECT
 10
4053.9999999999941
 20
-1079.9999999999991
 30
0.0
 11
4053.9999999999941
 21
-1089.9999999999991
 31
0.0
1001
ACDBBLOCKREPETAG
1070
     1
1071
       30
1005
128290
  0
LINE
  5
128291
  8
OBJECT
 10
4044.5
 20
-979.99999999999966
 30
0.0
 11
4065.0
 21
-869.99999999999955
 31
0.0
1001
ACDBBLOCKREPETAG
1070
     1
1071
       31
1005
128291
  0
LINE
  5
128292
  8
OBJECT
 10
3955.5
 20
-979.99999999999966
 30
0.0
 11
4044.5
 21
-979.99999999999966
 31
0.0
1001
ACDBBLOCKREPETAG
1070
     1
1071
       32
1005
128292
  0
LINE
  5
128293
  8
OBJECT
 10
3938.9999999999932
 20
-1079.9999999999991
 30
0.0
 11
3938.9999999999932
 21
-1064.9999999999991
 31
0.0
1001
ACDBBLOCKREPETAG
1070
     1
1071
       33
1005
128293
  0
LINE
  5
128294
  8
OBJECT
 10
3938.9999999999932
 20
-1064.9999999999991
 30
0.0
 11
4075.9999999999918
 21
-1064.9999999999991
 31
0.0
1001
ACDBBLOCKREPETAG
1070
     1
1071
       34
1005
128294
  0
LINE
  5
128295
  8
OBJECT
 10
3955.5
 20
-979.99999999999966
 30
0.0
 11
3955.5
 21
-1029.9999999999991
 31
0.0
1001
ACDBBLOCKREPETAG
1070
     1
1071
       35
1005
128295
  0
LINE
  5
128296
  8
OBJECT
 10
4044.5
 20
-979.99999999999966
 30
0.0
 11
4044.5
 21
-1029.9999999999991
 31
0.0
1001
ACDBBLOCKREPETAG
1070
     1
1071
       36
1005
128296
  0
LINE
  5
128297
  8
OBJECT
 10
3947.0
 20
-1029.9999999999991
 30
0.0
 11
4053.0
 21
-1029.9999999999991
 31
0.0
1001
ACDBBLOCKREPETAG
1070
     1
1071
       37
1005
128297
  0
LINE
  5
128298
  8
OBJECT
 10
4054.9999999999841
 20
-1059.9999999999991
 30
0.0
 11
4054.9999999999841
 21
-1064.9999999999991
 31
0.0
1001
ACDBBLOCKREPETAG
1070
     1
1071
       38
1005
128298
  0
LINE
  5
128299
  8
OBJECT
 10
4073.0
 20
-1059.9999999999991
 30
0.0
 11
4073.0
 21
-1064.9999999999991
 31
0.0
1001
ACDBBLOCKREPETAG
1070
     1
1071
       39
1005
128299
  0
LINE
  5
12829A
  8
OBJECT
 10
4073.0
 20
-1059.9999999999991
 30
0.0
 11
4054.9999999999841
 21
-1059.9999999999991
 31
0.0
1001
ACDBBLOCKREPETAG
1070
     1
1071
       40
1005
12829A
  0
LINE
  5
12829B
  8
HIDDEN
 10
3955.5
 20
-1039.9999999999991
 30
0.0
 11
4044.5
 21
-1039.9999999999991
 31
0.0
1001
ACDBBLOCKREPETAG
1070
     1
1071
       41
1005
12829B
  0
LINE
  5
12829C
  8
CENTER
 10
4000.0
 20
-769.99999999999955
 30
0.0
 11
4000.0
 21
-1118.9999999999991
 31
0.0
1001
ACDBBLOCKREPETAG
1070
     1
1071
       42
1005
12829C
  0
LINE
  5
12829D
  8
OBJECT
 10
4065.0
 20
-769.99999999999955
 30
0.0
 11
4065.0
 21
-869.99999999999955
 31
0.0
1001
ACDBBLOCKREPETAG
1070
     1
1071
       43
1005
12829D
  0
LINE
  5
12829E
  8
OBJECT
 10
3935.0
 20
-769.99999999999955
 30
0.0
 11
3935.0
 21
-869.99999999999955
 31
0.0
1001
ACDBBLOCKREPETAG
1070
     1
1071
       44
1005
12829E
  0
LINE
  5
12829F
  8
OBJECT
 10
3955.5
 20
-979.99999999999966
 30
0.0
 11
3935.0
 21
-869.99999999999955
 31
0.0
1001
ACDBBLOCKREPETAG
1070
     1
1071
       45
1005
12829F
  0
LINE
  5
1282A0
  8
OBJECT
 10
4065.0
 20
-869.99999999999955
 30
0.0
 11
3935.0
 21
-869.99999999999955
 31
0.0
1001
ACDBBLOCKREPETAG
1070
     1
1071
       46
1005
1282A0
  0
LINE
  5
1282A1
  8
OBJECT
 10
3947.0
 20
-1029.9999999999991
 30
0.0
 11
3947.0
 21
-1064.9999999999991
 31
0.0
1001
ACDBBLOCKREPETAG
1070
     1
1071
       47
1005
1282A1
  0
LINE
  5
1282A2
  8
OBJECT
 10
4053.0
 20
-1029.9999999999991
 30
0.0
 11
4053.0
 21
-1064.9999999999991
 31
0.0
1001
ACDBBLOCKREPETAG
1070
     1
1071
       48
1005
1282A2
  0
LINE
  5
1282A3
  8
OBJECT
 10
3983.0
 20
-1062.9999999999991
 30
0.0
 11
3975.5
 21
-1059.9999999999991
 31
0.0
1001
ACDBBLOCKREPETAG
1070
     1
1071
       49
1005
1282A3
  0
LINE
  5
1282A4
  8
OBJECT
 10
3958.1850359912951
 20
-1103.999986840259
 30
0.0
 11
3958.1850359912951
 21
-1111.999986840259
 31
0.0
1001
ACDBBLOCKREPETAG
1070
     1
1071
       50
1005
1282A4
  0
LINE
  5
1282A5
  8
OBJECT
 10
3963.0925013591991
 20
-1103.999986840259
 30
0.0
 11
3963.0925013591991
 21
-1111.999986840259
 31
0.0
1001
ACDBBLOCKREPETAG
1070
     1
1071
       51
1005
1282A5
  0
LINE
  5
1282A6
  8
OBJECT
 10
3972.907432095024
 20
-1103.999986840259
 30
0.0
 11
3972.907432095024
 21
-1111.999986840259
 31
0.0
1001
ACDBBLOCKREPETAG
1070
     1
1071
       52
1005
1282A6
  0
LINE
  5
1282A7
  8
OBJECT
 10
3977.814991552797
 20
-1103.999986840259
 30
0.0
 11
3977.814991552797
 21
-1111.999986840259
 31
0.0
1001
ACDBBLOCKREPETAG
1070
     1
1071
       53
1005
1282A7
  0
LINE
  5
1282A8
  8
OBJECT
 10
4059.0
 20
-1111.9999999999991
 30
0.0
 11
4059.0
 21
-1114.9999999999991
 31
0.0
1001
ACDBBLOCKREPETAG
1070
     1
1071
       54
1005
1282A8
  0
LINE
  5
1282A9
  8
OBJECT
 10
4059.0
 20
-1114.9999999999991
 30
0.0
 11
4069.0
 21
-1114.9999999999991
 31
0.0
1001
ACDBBLOCKREPETAG
1070
     1
1071
       55
1005
1282A9
  0
LINE
  5
1282AA
  8
OBJECT
 10
4054.1850454237701
 20
-1111.9999999999991
 30
0.0
 11
4073.8149545762199
 21
-1111.9999999999991
 31
0.0
1001
ACDBBLOCKREPETAG
1070
     1
1071
       56
1005
1282AA
  0
LINE
  5
1282AB
  8
OBJECT
 10
4069.0
 20
-1114.9999999999991
 30
0.0
 11
4069.0
 21
-1111.9999999999991
 31
0.0
1001
ACDBBLOCKREPETAG
1070
     1
1071
       57
1005
1282AB
  0
LINE
  5
1282AC
  8
OBJECT
 10
4054.1850359912919
 20
-1103.999986840259
 30
0.0
 11
4054.1850359912919
 21
-1111.999986840259
 31
0.0
1001
ACDBBLOCKREPETAG
1070
     1
1071
       58
1005
1282AC
  0
LINE
  5
1282AD
  8
OBJECT
 10
4059.0925013591982
 20
-1103.999986840259
 30
0.0
 11
4059.0925013591982
 21
-1111.999986840259
 31
0.0
1001
ACDBBLOCKREPETAG
1070
     1
1071
       59
1005
1282AD
  0
LINE
  5
1282AE
  8
OBJECT
 10
4068.907432095024
 20
-1103.999986840259
 30
0.0
 11
4068.907432095024
 21
-1111.999986840259
 31
0.0
1001
ACDBBLOCKREPETAG
1070
     1
1071
       60
1005
1282AE
  0
LINE
  5
1282AF
  8
OBJECT
 10
4073.814991552797
 20
-1103.999986840259
 30
0.0
 11
4073.814991552797
 21
-1111.999986840259
 31
0.0
1001
ACDBBLOCKREPETAG
1070
     1
1071
       61
1005
1282AF
  0
LINE
  5
1282B0
  8
CENTER
 10
11924.0
 20
-1394.9999999999991
 30
0.0
 11
12091.0
 21
-1394.9999999999991
 31
0.0
1001
ACDBBLOCKREPETAG
1070
     1
1071
       22
1005
1282B0
  0
LINE
  5
1282B1
  8
CENTER
 10
12000.0
 20
-1318.0518385105161
 30
0.0
 11
12000.0
 21
-1471.948161489478
 31
0.0
1001
ACDBBLOCKREPETAG
1070
     1
1071
       23
1005
1282B1
  0
CIRCLE
  5
1282B2
  8
OBJECT
 10
12000.0
 20
-1394.9999999999991
 30
0.0
 40
37.5
1001
ACDBBLOCKREPETAG
1070
     1
1071
       24
1005
1282B2
  0
CIRCLE
  5
1282B3
  8
OBJECT
 10
12000.0
 20
-1394.9999999999991
 30
0.0
 40
47.5
1001
ACDBBLOCKREPETAG
1070
     1
1071
       25
1005
1282B3
  0
ARC
  5
1282B4
  8
OBJECT
 10
12000.0
 20
-1394.9999999999991
 30
0.0
 40
61.0
 50
40.03737312998139
 51
79.962626870012684
1001
ACDBBLOCKREPETAG
1070
     1
1071
       26
1005
1282B4
  0
ARC
  5
1282B5
  8
OBJECT
 10
12000.0
 20
-1394.9999999999991
 30
0.0
 40
61.0
 50
160.03737312997501
 51
199.96262687002491
1001
ACDBBLOCKREPETAG
1070
     1
1071
       27
1005
1282B5
  0
ARC
  5
1282B6
  8
OBJECT
 10
12000.0
 20
-1394.9999999999991
 30
0.0
 40
61.0
 50
280.03737312998732
 51
319.9626268700186
1001
ACDBBLOCKREPETAG
1070
     1
1071
       28
1005
1282B6
  0
ARC
  5
1282B7
  8
OBJECT
 10
12064.0
 20
-1394.9999999999991
 30
0.0
 40
12.0
 50
319.9626268700186
 51
40.03737312998139
1001
ACDBBLOCKREPETAG
1070
     1
1071
       29
1005
1282B7
  0
LINE
  5
1282B8
  8
OBJECT
 10
12046.703125
 20
-1355.7594837542299
 30
0.0
 11
12073.1875
 21
-1387.2805541811599
 31
0.0
1001
ACDBBLOCKREPETAG
1070
     1
1071
       30
1005
1282B8
  0
LINE
  5
1282B9
  8
OBJECT
 10
12046.703125
 20
-1434.240516245768
 30
0.0
 11
12073.1875
 21
-1402.719445818838
 31
0.0
1001
ACDBBLOCKREPETAG
1070
     1
1071
       31
1005
1282B9
  0
CIRCLE
  5
1282BA
  8
OBJECT
 10
12000.0
 20
-1394.9999999999991
 30
0.0
 40
55.0
1001
ACDBBLOCKREPETAG
1070
     1
1071
       32
1005
1282BA
  0
ARC
  5
1282BB
  8
OBJECT
 10
12064.0
 20
-1394.9999999999991
 30
0.0
 40
12.0
 50
271.2434956101261
 51
88.756504389873882
1001
ACDBBLOCKREPETAG
1070
     1
1071
       33
1005
1282BB
  0
ARC
  5
1282BC
  8
OBJECT
 10
12064.5859375
 20
-1368.0063585775049
 30
0.0
 40
15.0
 50
202.68245018366949
 51
268.7565043898739
1001
ACDBBLOCKREPETAG
1070
     1
1071
       34
1005
1282BC
  0
CIRCLE
  5
1282BD
  8
SLIM
 10
12064.0
 20
-1394.9999999999991
 30
0.0
 40
8.0
1001
ACDBBLOCKREPETAG
1070
     1
1071
       35
1005
1282BD
  0
POLYLINE
  5
1282BE
  8
SLIM
 66
     1
 10
0.0
 20
0.0
 30
0.0
 70
     1
1001
ACDBBLOCKREPETAG
1070
     1
1071
       36
1005
1282BE
  0
VERTEX
  5
1285BE
  8
SLIM
 10
12061.69059892324
 20
-1390.9999999999991
 30
0.0
  0
VERTEX
  5
1285BF
  8
SLIM
 10
12059.38119784648
 20
-1394.9999999999991
 30
0.0
  0
VERTEX
  5
1285C0
  8
SLIM
 10
12061.69059892324
 20
-1398.9999999999991
 30
0.0
  0
VERTEX
  5
1285C1
  8
SLIM
 10
12066.30940107676
 20
-1398.9999999999991
 30
0.0
  0
VERTEX
  5
1285C2
  8
SLIM
 10
12068.618802153511
 20
-1394.9999999999991
 30
0.0
  0
VERTEX
  5
1285C3
  8
SLIM
 10
12066.30940107676
 20
-1390.9999999999991
 30
0.0
  0
SEQEND
  5
1285C4
  8
SLIM
  0
ARC
  5
1282BF
  8
OBJECT
 10
12064.5859375
 20
-1421.993641422489
 30
0.0
 40
15.0
 50
91.243495610126089
 51
157.3175498163304
1001
ACDBBLOCKREPETAG
1070
     1
1071
       37
1005
1282BF
  0
ARC
  5
1282C0
  8
OBJECT
 10
11968.0
 20
-1339.5743741577919
 30
0.0
 40
12.0
 50
79.962626870012684
 51
160.03737312997501
1001
ACDBBLOCKREPETAG
1070
     1
1071
       38
1005
1282C0
  0
LINE
  5
1282C1
  8
OBJECT
 10
11942.665153573549
 20
-1374.1741654367599
 30
0.0
 11
11956.721013817751
 21
-1335.477488669944
 31
0.0
1001
ACDBBLOCKREPETAG
1070
     1
1071
       39
1005
1282C1
  0
LINE
  5
1282C2
  8
OBJECT
 10
12010.631721426451
 20
-1334.9336491909951
 30
0.0
 11
11970.091486182249
 21
-1327.7580428511051
 31
0.0
1001
ACDBBLOCKREPETAG
1070
     1
1071
       40
1005
1282C2
  0
ARC
  5
1282C3
  8
OBJECT
 10
11968.0
 20
-1339.5743741577919
 30
0.0
 40
12.0
 50
31.243495610056922
 51
208.7565043898139
1001
ACDBBLOCKREPETAG
1070
     1
1071
       41
1005
1282C3
  0
ARC
  5
1282C4
  8
OBJECT
 10
11944.32985203747
 20
-1352.5637581090109
 30
0.0
 40
15.0
 50
322.68245018387239
 51
28.756504389813902
1001
ACDBBLOCKREPETAG
1070
     1
1071
       42
1005
1282C4
  0
CIRCLE
  5
1282C5
  8
SLIM
 10
11968.0
 20
-1339.5743741577919
 30
0.0
 40
7.9999999999999982
1001
ACDBBLOCKREPETAG
1070
     1
1071
       43
1005
1282C5
  0
POLYLINE
  5
1282C6
  8
SLIM
 66
     1
 10
0.0
 20
0.0
 30
0.0
 70
     1
1001
ACDBBLOCKREPETAG
1070
     1
1071
       44
1005
1282C6
  0
VERTEX
  5
1285C5
  8
SLIM
 10
11965.69059892324
 20
-1343.574374157796
 30
0.0
  0
VERTEX
  5
1285C6
  8
SLIM
 10
11970.30940107676
 20
-1343.574374157793
 30
0.0
  0
VERTEX
  5
1285C7
  8
SLIM
 10
11972.618802153511
 20
-1339.574374157796
 30
0.0
  0
VERTEX
  5
1285C8
  8
SLIM
 10
11970.309401076751
 20
-1335.574374157793
 30
0.0
  0
VERTEX
  5
1285C9
  8
SLIM
 10
11965.69059892324
 20
-1335.574374157796
 30
0.0
  0
VERTEX
  5
1285CA
  8
SLIM
 10
11963.38119784648
 20
-1339.5743741577919
 30
0.0
  0
SEQEND
  5
1285CB
  8
SLIM
  0
ARC
  5
1282C7
  8
OBJECT
 10
11991.084210462521
 20
-1325.5701166865169
 30
0.0
 40
15.0
 50
211.2434956100569
 51
277.31754981622862
1001
ACDBBLOCKREPETAG
1070
     1
1071
       45
1005
1282C7
  0
ARC
  5
1282C8
  8
OBJECT
 10
11968.0
 20
-1450.425625842202
 30
0.0
 40
12.0
 50
199.96262687002491
 51
280.03737312998732
1001
ACDBBLOCKREPETAG
1070
     1
1071
       46
1005
1282C8
  0
LINE
  5
1282C9
  8
OBJECT
 10
12010.631721426451
 20
-1455.0663508090031
 30
0.0
 11
11970.091486182249
 21
-1462.241957148892
 31
0.0
1001
ACDBBLOCKREPETAG
1070
     1
1071
       47
1005
1282C9
  0
LINE
  5
1282CA
  8
OBJECT
 10
11942.665153573549
 20
-1415.8258345632339
 30
0.0
 11
11956.721013817751
 21
-1454.5225113300539
 31
0.0
1001
ACDBBLOCKREPETAG
1070
     1
1071
       48
1005
1282CA
  0
ARC
  5
1282CB
  8
OBJECT
 10
11968.0
 20
-1450.425625842202
 30
0.0
 40
12.0
 50
151.2434956101861
 51
328.75650438994307
1001
ACDBBLOCKREPETAG
1070
     1
1071
       49
1005
1282CB
  0
ARC
  5
1282CC
  8
OBJECT
 10
11991.084210462521
 20
-1464.4298833134769
 30
0.0
 40
15.0
 50
82.682450183771394
 51
148.75650438994299
1001
ACDBBLOCKREPETAG
1070
     1
1071
       50
1005
1282CC
  0
CIRCLE
  5
1282CD
  8
SLIM
 10
11968.0
 20
-1450.425625842202
 30
0.0
 40
8.0
1001
ACDBBLOCKREPETAG
1070
     1
1071
       51
1005
1282CD
  0
POLYLINE
  5
1282CE
  8
SLIM
 66
     1
 10
0.0
 20
0.0
 30
0.0
 70
     1
1001
ACDBBLOCKREPETAG
1070
     1
1071
       52
1005
1282CE
  0
VERTEX
  5
1285CC
  8
SLIM
 10
11972.618802153511
 20
-1450.425625842202
 30
0.0
  0
VERTEX
  5
1285CD
  8
SLIM
 10
11970.309401076751
 20
-1446.425625842202
 30
0.0
  0
VERTEX
  5
1285CE
  8
SLIM
 10
11965.69059892324
 20
-1446.425625842202
 30
0.0
  0
VERTEX
  5
1285CF
  8
SLIM
 10
11963.38119784648
 20
-1450.425625842202
 30
0.0
  0
VERTEX
  5
1285D0
  8
SLIM
 10
11965.69059892324
 20
-1454.425625842202
 30
0.0
  0
VERTEX
  5
1285D1
  8
SLIM
 10
11970.309401076751
 20
-1454.425625842202
 30
0.0
  0
SEQEND
  5
1285D2
  8
SLIM
  0
ARC
  5
1282CF
  8
OBJECT
 10
11944.32985203747
 20
-1437.436241890987
 30
0.0
 40
15.0
 50
331.24349561018607
 51
37.317549816127681
1001
ACDBBLOCKREPETAG
1070
     1
1071
       53
1005
1282CF
  0
LINE
  5
1282D0
  8
CENTER
 10
9924.0
 20
-1353.9999999999959
 30
0.0
 11
10091.0
 21
-1353.9999999999959
 31
0.0
1001
ACDBBLOCKREPETAG
1070
     1
1071
        0
1005
1282D0
  0
LINE
  5
1282D1
  8
CENTER
 10
10000.0
 20
-1277.0518385105131
 30
0.0
 11
10000.0
 21
-1430.9481614894751
 31
0.0
1001
ACDBBLOCKREPETAG
1070
     1
1071
        1
1005
1282D1
  0
CIRCLE
  5
1282D2
  8
OBJECT
 10
10000.0
 20
-1353.9999999999959
 30
0.0
 40
37.5
1001
ACDBBLOCKREPETAG
1070
     1
1071
        2
1005
1282D2
  0
CIRCLE
  5
1282D3
  8
OBJECT
 10
10000.0
 20
-1353.9999999999959
 30
0.0
 40
49.5
1001
ACDBBLOCKREPETAG
1070
     1
1071
        3
1005
1282D3
  0
ARC
  5
1282D4
  8
OBJECT
 10
10000.0
 20
-1353.9999999999959
 30
0.0
 40
61.0
 50
40.03737312998139
 51
79.962626870012684
1001
ACDBBLOCKREPETAG
1070
     1
1071
        4
1005
1282D4
  0
ARC
  5
1282D5
  8
OBJECT
 10
10000.0
 20
-1353.9999999999959
 30
0.0
 40
61.0
 50
160.03737312997501
 51
199.96262687002491
1001
ACDBBLOCKREPETAG
1070
     1
1071
        5
1005
1282D5
  0
ARC
  5
1282D6
  8
OBJECT
 10
10000.0
 20
-1353.9999999999959
 30
0.0
 40
61.0
 50
280.03737312998732
 51
319.9626268700186
1001
ACDBBLOCKREPETAG
1070
     1
1071
        6
1005
1282D6
  0
CIRCLE
  5
1282D7
  8
SLIM
 10
10064.0
 20
-1353.9999999999959
 30
0.0
 40
5.0
1001
ACDBBLOCKREPETAG
1070
     1
1071
        7
1005
1282D7
  0
ARC
  5
1282D8
  8
OBJECT
 10
10064.0
 20
-1353.9999999999959
 30
0.0
 40
12.0
 50
319.9626268700186
 51
40.03737312998139
1001
ACDBBLOCKREPETAG
1070
     1
1071
        8
1005
1282D8
  0
LINE
  5
1282D9
  8
OBJECT
 10
10046.703125
 20
-1314.7594837542269
 30
0.0
 11
10073.1875
 21
-1346.280554181157
 31
0.0
1001
ACDBBLOCKREPETAG
1070
     1
1071
        9
1005
1282D9
  0
LINE
  5
1282DA
  8
OBJECT
 10
10046.703125
 20
-1393.2405162457651
 30
0.0
 11
10073.1875
 21
-1361.7194458188351
 31
0.0
1001
ACDBBLOCKREPETAG
1070
     1
1071
       10
1005
1282DA
  0
POLYLINE
  5
1282DB
  8
SLIM
 66
     1
 10
0.0
 20
0.0
 30
0.0
 70
     1
1001
ACDBBLOCKREPETAG
1070
     1
1071
       11
1005
1282DB
  0
VERTEX
  5
1285D3
  8
SLIM
 10
10059.092522711881
 20
-1345.4999999999959
 30
0.0
  0
VERTEX
  5
1285D4
  8
SLIM
 10
10054.18504542377
 20
-1353.9999999999959
 30
0.0
  0
VERTEX
  5
1285D5
  8
SLIM
 10
10059.092522711881
 20
-1362.4999999999959
 30
0.0
  0
VERTEX
  5
1285D6
  8
SLIM
 10
10068.907477288099
 20
-1362.4999999999959
 30
0.0
  0
VERTEX
  5
1285D7
  8
SLIM
 10
10073.814954576221
 20
-1353.9999999999959
 30
0.0
  0
VERTEX
  5
1285D8
  8
SLIM
 10
10068.907477288099
 20
-1345.4999999999959
 30
0.0
  0
SEQEND
  5
1285D9
  8
SLIM
  0
CIRCLE
  5
1282DC
  8
SLIM
 10
9968.0
 20
-1298.574374157789
 30
0.0
 40
4.9999999999999991
1001
ACDBBLOCKREPETAG
1070
     1
1071
       12
1005
1282DC
  0
ARC
  5
1282DD
  8
OBJECT
 10
9968.0
 20
-1298.574374157789
 30
0.0
 40
12.0
 50
79.962626870012684
 51
160.03737312997501
1001
ACDBBLOCKREPETAG
1070
     1
1071
       13
1005
1282DD
  0
LINE
  5
1282DE
  8
OBJECT
 10
9942.6651535735436
 20
-1333.174165436757
 30
0.0
 11
9956.7210138177488
 21
-1294.4774886699411
 31
0.0
1001
ACDBBLOCKREPETAG
1070
     1
1071
       14
1005
1282DE
  0
LINE
  5
1282DF
  8
OBJECT
 10
10010.631721426451
 20
-1293.9336491909919
 30
0.0
 11
9970.091486182253
 21
-1286.7580428511019
 31
0.0
1001
ACDBBLOCKREPETAG
1070
     1
1071
       15
1005
1282DF
  0
POLYLINE
  5
1282E0
  8
SLIM
 66
     1
 10
0.0
 20
0.0
 30
0.0
 70
     1
1001
ACDBBLOCKREPETAG
1070
     1
1071
       16
1005
1282E0
  0
VERTEX
  5
1285DA
  8
SLIM
 10
9963.0925227118896
 20
-1307.074374157789
 30
0.0
  0
VERTEX
  5
1285DB
  8
SLIM
 10
9972.9074772881177
 20
-1307.074374157793
 30
0.0
  0
VERTEX
  5
1285DC
  8
SLIM
 10
9977.814954576219
 20
-1298.574374157789
 30
0.0
  0
VERTEX
  5
1285DD
  8
SLIM
 10
9972.9074772881177
 20
-1290.074374157793
 30
0.0
  0
VERTEX
  5
1285DE
  8
SLIM
 10
9963.0925227118896
 20
-1290.074374157789
 30
0.0
  0
VERTEX
  5
1285DF
  8
SLIM
 10
9958.1850454237738
 20
-1298.574374157793
 30
0.0
  0
SEQEND
  5
1285E0
  8
SLIM
  0
CIRCLE
  5
1282E1
  8
SLIM
 10
9968.0
 20
-1409.425625842199
 30
0.0
 40
5.0
1001
ACDBBLOCKREPETAG
1070
     1
1071
       17
1005
1282E1
  0
ARC
  5
1282E2
  8
OBJECT
 10
9968.0
 20
-1409.425625842199
 30
0.0
 40
12.0
 50
199.96262687002491
 51
280.03737312998732
1001
ACDBBLOCKREPETAG
1070
     1
1071
       18
1005
1282E2
  0
LINE
  5
1282E3
  8
OBJECT
 10
10010.631721426451
 20
-1414.066350808999
 30
0.0
 11
9970.091486182253
 21
-1421.241957148889
 31
0.0
1001
ACDBBLOCKREPETAG
1070
     1
1071
       19
1005
1282E3
  0
LINE
  5
1282E4
  8
OBJECT
 10
9942.6651535735436
 20
-1374.825834563231
 30
0.0
 11
9956.7210138177488
 21
-1413.5225113300501
 31
0.0
1001
ACDBBLOCKREPETAG
1070
     1
1071
       20
1005
1282E4
  0
POLYLINE
  5
1282E5
  8
SLIM
 66
     1
 10
0.0
 20
0.0
 30
0.0
 70
     1
1001
ACDBBLOCKREPETAG
1070
     1
1071
       21
1005
1282E5
  0
VERTEX
  5
1285E1
  8
SLIM
 10
9977.814954576219
 20
-1409.425625842199
 30
0.0
  0
VERTEX
  5
1285E2
  8
SLIM
 10
9972.9074772881049
 20
-1400.925625842199
 30
0.0
  0
VERTEX
  5
1285E3
  8
SLIM
 10
9963.0925227118896
 20
-1400.925625842199
 30
0.0
  0
VERTEX
  5
1285E4
  8
SLIM
 10
9958.1850454237738
 20
-1409.425625842199
 30
0.0
  0
VERTEX
  5
1285E5
  8
SLIM
 10
9963.0925227118896
 20
-1417.925625842199
 30
0.0
  0
VERTEX
  5
1285E6
  8
SLIM
 10
9972.9074772881177
 20
-1417.925625842199
 30
0.0
  0
SEQEND
  5
1285E7
  8
SLIM
  0
LINE
  5
1282E6
  8
CENTER
 10
5924.0
 20
-1394.9999999999991
 30
0.0
 11
6091.0
 21
-1394.9999999999991
 31
0.0
1001
ACDBBLOCKREPETAG
1070
     1
1071
       22
1005
1282E6
  0
LINE
  5
1282E7
  8
CENTER
 10
6000.0
 20
-1318.0518385105161
 30
0.0
 11
6000.0
 21
-1471.948161489478
 31
0.0
1001
ACDBBLOCKREPETAG
1070
     1
1071
       23
1005
1282E7
  0
CIRCLE
  5
1282E8
  8
OBJECT
 10
6000.0
 20
-1394.9999999999991
 30
0.0
 40
37.5
1001
ACDBBLOCKREPETAG
1070
     1
1071
       24
1005
1282E8
  0
CIRCLE
  5
1282E9
  8
OBJECT
 10
6000.0
 20
-1394.9999999999991
 30
0.0
 40
47.5
1001
ACDBBLOCKREPETAG
1070
     1
1071
       25
1005
1282E9
  0
ARC
  5
1282EA
  8
OBJECT
 10
6000.0
 20
-1394.9999999999991
 30
0.0
 40
61.0
 50
40.03737312998139
 51
79.962626870012684
1001
ACDBBLOCKREPETAG
1070
     1
1071
       26
1005
1282EA
  0
ARC
  5
1282EB
  8
OBJECT
 10
6000.0
 20
-1394.9999999999991
 30
0.0
 40
61.0
 50
160.03737312997501
 51
199.96262687002491
1001
ACDBBLOCKREPETAG
1070
     1
1071
       27
1005
1282EB
  0
ARC
  5
1282EC
  8
OBJECT
 10
6000.0
 20
-1394.9999999999991
 30
0.0
 40
61.0
 50
280.03737312998732
 51
319.9626268700186
1001
ACDBBLOCKREPETAG
1070
     1
1071
       28
1005
1282EC
  0
ARC
  5
1282ED
  8
OBJECT
 10
6064.0
 20
-1394.9999999999991
 30
0.0
 40
12.0
 50
319.9626268700186
 51
40.03737312998139
1001
ACDBBLOCKREPETAG
1070
     1
1071
       29
1005
1282ED
  0
LINE
  5
1282EE
  8
OBJECT
 10
6046.703125
 20
-1355.7594837542299
 30
0.0
 11
6073.1875
 21
-1387.2805541811599
 31
0.0
1001
ACDBBLOCKREPETAG
1070
     1
1071
       30
1005
1282EE
  0
LINE
  5
1282EF
  8
OBJECT
 10
6046.703125
 20
-1434.240516245768
 30
0.0
 11
6073.1875
 21
-1402.719445818838
 31
0.0
1001
ACDBBLOCKREPETAG
1070
     1
1071
       31
1005
1282EF
  0
CIRCLE
  5
1282F0
  8
OBJECT
 10
6000.0
 20
-1394.9999999999991
 30
0.0
 40
55.0
1001
ACDBBLOCKREPETAG
1070
     1
1071
       32
1005
1282F0
  0
ARC
  5
1282F1
  8
OBJECT
 10
6064.0
 20
-1394.9999999999991
 30
0.0
 40
12.0
 50
271.2434956101261
 51
88.756504389873882
1001
ACDBBLOCKREPETAG
1070
     1
1071
       33
1005
1282F1
  0
ARC
  5
1282F2
  8
OBJECT
 10
6064.5859375
 20
-1368.0063585775049
 30
0.0
 40
15.0
 50
202.68245018366949
 51
268.7565043898739
1001
ACDBBLOCKREPETAG
1070
     1
1071
       34
1005
1282F2
  0
CIRCLE
  5
1282F3
  8
SLIM
 10
6064.0
 20
-1394.9999999999991
 30
0.0
 40
8.0
1001
ACDBBLOCKREPETAG
1070
     1
1071
       35
1005
1282F3
  0
POLYLINE
  5
1282F4
  8
SLIM
 66
     1
 10
0.0
 20
0.0
 30
0.0
 70
     1
1001
ACDBBLOCKREPETAG
1070
     1
1071
       36
1005
1282F4
  0
VERTEX
  5
1285E8
  8
SLIM
 10
6061.69059892324
 20
-1390.9999999999991
 30
0.0
  0
VERTEX
  5
1285E9
  8
SLIM
 10
6059.3811978464846
 20
-1394.9999999999991
 30
0.0
  0
VERTEX
  5
1285EA
  8
SLIM
 10
6061.69059892324
 20
-1398.9999999999991
 30
0.0
  0
VERTEX
  5
1285EB
  8
SLIM
 10
6066.30940107676
 20
-1398.9999999999991
 30
0.0
  0
VERTEX
  5
1285EC
  8
SLIM
 10
6068.6188021535154
 20
-1394.9999999999991
 30
0.0
  0
VERTEX
  5
1285ED
  8
SLIM
 10
6066.30940107676
 20
-1390.9999999999991
 30
0.0
  0
SEQEND
  5
1285EE
  8
SLIM
  0
ARC
  5
1282F5
  8
OBJECT
 10
6064.5859375
 20
-1421.993641422489
 30
0.0
 40
15.0
 50
91.243495610126089
 51
157.3175498163304
1001
ACDBBLOCKREPETAG
1070
     1
1071
       37
1005
1282F5
  0
ARC
  5
1282F6
  8
OBJECT
 10
5968.0
 20
-1339.5743741577919
 30
0.0
 40
12.0
 50
79.962626870012684
 51
160.03737312997501
1001
ACDBBLOCKREPETAG
1070
     1
1071
       38
1005
1282F6
  0
LINE
  5
1282F7
  8
OBJECT
 10
5942.6651535735473
 20
-1374.1741654367599
 30
0.0
 11
5956.721013817747
 21
-1335.477488669944
 31
0.0
1001
ACDBBLOCKREPETAG
1070
     1
1071
       39
1005
1282F7
  0
LINE
  5
1282F8
  8
OBJECT
 10
6010.6317214264518
 20
-1334.9336491909951
 30
0.0
 11
5970.091486182253
 21
-1327.7580428511051
 31
0.0
1001
ACDBBLOCKREPETAG
1070
     1
1071
       40
1005
1282F8
  0
ARC
  5
1282F9
  8
OBJECT
 10
5968.0
 20
-1339.5743741577919
 30
0.0
 40
12.0
 50
31.243495610056922
 51
208.7565043898139
1001
ACDBBLOCKREPETAG
1070
     1
1071
       41
1005
1282F9
  0
ARC
  5
1282FA
  8
OBJECT
 10
5944.3298520374738
 20
-1352.5637581090109
 30
0.0
 40
15.0
 50
322.68245018387239
 51
28.756504389813902
1001
ACDBBLOCKREPETAG
1070
     1
1071
       42
1005
1282FA
  0
CIRCLE
  5
1282FB
  8
SLIM
 10
5968.0
 20
-1339.5743741577919
 30
0.0
 40
7.9999999999999982
1001
ACDBBLOCKREPETAG
1070
     1
1071
       43
1005
1282FB
  0
POLYLINE
  5
1282FC
  8
SLIM
 66
     1
 10
0.0
 20
0.0
 30
0.0
 70
     1
1001
ACDBBLOCKREPETAG
1070
     1
1071
       44
1005
1282FC
  0
VERTEX
  5
1285EF
  8
SLIM
 10
5965.6905989232419
 20
-1343.574374157796
 30
0.0
  0
VERTEX
  5
1285F0
  8
SLIM
 10
5970.30940107676
 20
-1343.574374157793
 30
0.0
  0
VERTEX
  5
1285F1
  8
SLIM
 10
5972.6188021535154
 20
-1339.574374157796
 30
0.0
  0
VERTEX
  5
1285F2
  8
SLIM
 10
5970.3094010767572
 20
-1335.574374157793
 30
0.0
  0
VERTEX
  5
1285F3
  8
SLIM
 10
5965.6905989232419
 20
-1335.574374157796
 30
0.0
  0
VERTEX
  5
1285F4
  8
SLIM
 10
5963.3811978464846
 20
-1339.5743741577919
 30
0.0
  0
SEQEND
  5
1285F5
  8
SLIM
  0
ARC
  5
1282FD
  8
OBJECT
 10
5991.0842104625253
 20
-1325.5701166865169
 30
0.0
 40
15.0
 50
211.2434956100569
 51
277.31754981622862
1001
ACDBBLOCKREPETAG
1070
     1
1071
       45
1005
1282FD
  0
ARC
  5
1282FE
  8
OBJECT
 10
5968.0
 20
-1450.425625842202
 30
0.0
 40
12.0
 50
199.96262687002491
 51
280.03737312998732
1001
ACDBBLOCKREPETAG
1070
     1
1071
       46
1005
1282FE
  0
LINE
  5
1282FF
  8
OBJECT
 10
6010.6317214264518
 20
-1455.0663508090031
 30
0.0
 11
5970.091486182253
 21
-1462.241957148892
 31
0.0
1001
ACDBBLOCKREPETAG
1070
     1
1071
       47
1005
1282FF
  0
LINE
  5
128300
  8
OBJECT
 10
5942.6651535735473
 20
-1415.8258345632339
 30
0.0
 11
5956.721013817747
 21
-1454.5225113300539
 31
0.0
1001
ACDBBLOCKREPETAG
1070
     1
1071
       48
1005
128300
  0
ARC
  5
128301
  8
OBJECT
 10
5968.0
 20
-1450.425625842202
 30
0.0
 40
12.0
 50
151.2434956101861
 51
328.75650438994307
1001
ACDBBLOCKREPETAG
1070
     1
1071
       49
1005
128301
  0
ARC
  5
128302
  8
OBJECT
 10
5991.0842104625253
 20
-1464.4298833134769
 30
0.0
 40
15.0
 50
82.682450183771394
 51
148.75650438994299
1001
ACDBBLOCKREPETAG
1070
     1
1071
       50
1005
128302
  0
CIRCLE
  5
128303
  8
SLIM
 10
5968.0
 20
-1450.425625842202
 30
0.0
 40
8.0
1001
ACDBBLOCKREPETAG
1070
     1
1071
       51
1005
128303
  0
POLYLINE
  5
128304
  8
SLIM
 66
     1
 10
0.0
 20
0.0
 30
0.0
 70
     1
1001
ACDBBLOCKREPETAG
1070
     1
1071
       52
1005
128304
  0
VERTEX
  5
1285F6
  8
SLIM
 10
5972.6188021535154
 20
-1450.425625842202
 30
0.0
  0
VERTEX
  5
1285F7
  8
SLIM
 10
5970.3094010767572
 20
-1446.425625842202
 30
0.0
  0
VERTEX
  5
1285F8
  8
SLIM
 10
5965.6905989232419
 20
-1446.425625842202
 30
0.0
  0
VERTEX
  5
1285F9
  8
SLIM
 10
5963.3811978464846
 20
-1450.425625842202
 30
0.0
  0
VERTEX
  5
1285FA
  8
SLIM
 10
5965.69059892324
 20
-1454.425625842202
 30
0.0
  0
VERTEX
  5
1285FB
  8
SLIM
 10
5970.3094010767572
 20
-1454.425625842202
 30
0.0
  0
SEQEND
  5
1285FC
  8
SLIM
  0
ARC
  5
128305
  8
OBJECT
 10
5944.3298520374738
 20
-1437.436241890987
 30
0.0
 40
15.0
 50
331.24349561018607
 51
37.317549816127681
1001
ACDBBLOCKREPETAG
1070
     1
1071
       53
1005
128305
  0
LINE
  5
128306
  8
CENTER
 10
3924.0
 20
-1353.9999999999959
 30
0.0
 11
4091.0
 21
-1353.9999999999959
 31
0.0
1001
ACDBBLOCKREPETAG
1070
     1
1071
        0
1005
128306
  0
LINE
  5
128307
  8
CENTER
 10
4000.0
 20
-1277.0518385105131
 30
0.0
 11
4000.0
 21
-1430.9481614894751
 31
0.0
1001
ACDBBLOCKREPETAG
1070
     1
1071
        1
1005
128307
  0
CIRCLE
  5
128308
  8
OBJECT
 10
4000.0
 20
-1353.9999999999959
 30
0.0
 40
37.5
1001
ACDBBLOCKREPETAG
1070
     1
1071
        2
1005
128308
  0
CIRCLE
  5
128309
  8
OBJECT
 10
4000.0
 20
-1353.9999999999959
 30
0.0
 40
49.5
1001
ACDBBLOCKREPETAG
1070
     1
1071
        3
1005
128309
  0
ARC
  5
12830A
  8
OBJECT
 10
4000.0
 20
-1353.9999999999959
 30
0.0
 40
61.0
 50
40.03737312998139
 51
79.962626870012684
1001
ACDBBLOCKREPETAG
1070
     1
1071
        4
1005
12830A
  0
ARC
  5
12830B
  8
OBJECT
 10
4000.0
 20
-1353.9999999999959
 30
0.0
 40
61.0
 50
160.03737312997501
 51
199.96262687002491
1001
ACDBBLOCKREPETAG
1070
     1
1071
        5
1005
12830B
  0
ARC
  5
12830C
  8
OBJECT
 10
4000.0
 20
-1353.9999999999959
 30
0.0
 40
61.0
 50
280.03737312998732
 51
319.9626268700186
1001
ACDBBLOCKREPETAG
1070
     1
1071
        6
1005
12830C
  0
CIRCLE
  5
12830D
  8
SLIM
 10
4064.0
 20
-1353.9999999999959
 30
0.0
 40
5.0
1001
ACDBBLOCKREPETAG
1070
     1
1071
        7
1005
12830D
  0
ARC
  5
12830E
  8
OBJECT
 10
4064.0
 20
-1353.9999999999959
 30
0.0
 40
12.0
 50
319.9626268700186
 51
40.03737312998139
1001
ACDBBLOCKREPETAG
1070
     1
1071
        8
1005
12830E
  0
LINE
  5
12830F
  8
OBJECT
 10
4046.7031249999982
 20
-1314.7594837542269
 30
0.0
 11
4073.1875
 21
-1346.280554181157
 31
0.0
1001
ACDBBLOCKREPETAG
1070
     1
1071
        9
1005
12830F
  0
LINE
  5
128310
  8
OBJECT
 10
4046.7031249999982
 20
-1393.2405162457651
 30
0.0
 11
4073.1875
 21
-1361.7194458188351
 31
0.0
1001
ACDBBLOCKREPETAG
1070
     1
1071
       10
1005
128310
  0
POLYLINE
  5
128311
  8
SLIM
 66
     1
 10
0.0
 20
0.0
 30
0.0
 70
     1
1001
ACDBBLOCKREPETAG
1070
     1
1071
       11
1005
128311
  0
VERTEX
  5
1285FD
  8
SLIM
 10
4059.0925227118851
 20
-1345.4999999999959
 30
0.0
  0
VERTEX
  5
1285FE
  8
SLIM
 10
4054.1850454237701
 20
-1353.9999999999959
 30
0.0
  0
VERTEX
  5
1285FF
  8
SLIM
 10
4059.0925227118851
 20
-1362.4999999999959
 30
0.0
  0
VERTEX
  5
128600
  8
SLIM
 10
4068.9074772881072
 20
-1362.4999999999959
 30
0.0
  0
VERTEX
  5
128601
  8
SLIM
 10
4073.8149545762199
 20
-1353.9999999999959
 30
0.0
  0
VERTEX
  5
128602
  8
SLIM
 10
4068.9074772881072
 20
-1345.4999999999959
 30
0.0
  0
SEQEND
  5
128603
  8
SLIM
  0
CIRCLE
  5
128312
  8
SLIM
 10
3968.0
 20
-1298.574374157789
 30
0.0
 40
4.9999999999999991
1001
ACDBBLOCKREPETAG
1070
     1
1071
       12
1005
128312
  0
ARC
  5
128313
  8
OBJECT
 10
3968.0
 20
-1298.574374157789
 30
0.0
 40
12.0
 50
79.962626870012684
 51
160.03737312997501
1001
ACDBBLOCKREPETAG
1070
     1
1071
       13
1005
128313
  0
LINE
  5
128314
  8
OBJECT
 10
3942.6651535735441
 20
-1333.174165436757
 30
0.0
 11
3956.721013817747
 21
-1294.4774886699411
 31
0.0
1001
ACDBBLOCKREPETAG
1070
     1
1071
       14
1005
128314
  0
LINE
  5
128315
  8
OBJECT
 10
4010.6317214264491
 20
-1293.9336491909919
 30
0.0
 11
3970.091486182253
 21
-1286.7580428511019
 31
0.0
1001
ACDBBLOCKREPETAG
1070
     1
1071
       15
1005
128315
  0
POLYLINE
  5
128316
  8
SLIM
 66
     1
 10
0.0
 20
0.0
 30
0.0
 70
     1
1001
ACDBBLOCKREPETAG
1070
     1
1071
       16
1005
128316
  0
VERTEX
  5
128604
  8
SLIM
 10
3963.092522711886
 20
-1307.074374157789
 30
0.0
  0
VERTEX
  5
128605
  8
SLIM
 10
3972.907477288114
 20
-1307.074374157793
 30
0.0
  0
VERTEX
  5
128606
  8
SLIM
 10
3977.8149545762212
 20
-1298.574374157789
 30
0.0
  0
VERTEX
  5
128607
  8
SLIM
 10
3972.907477288114
 20
-1290.074374157793
 30
0.0
  0
VERTEX
  5
128608
  8
SLIM
 10
3963.092522711886
 20
-1290.074374157789
 30
0.0
  0
VERTEX
  5
128609
  8
SLIM
 10
3958.185045423772
 20
-1298.574374157793
 30
0.0
  0
SEQEND
  5
12860A
  8
SLIM
  0
CIRCLE
  5
128317
  8
SLIM
 10
3968.0
 20
-1409.425625842199
 30
0.0
 40
5.0
1001
ACDBBLOCKREPETAG
1070
     1
1071
       17
1005
128317
  0
ARC
  5
128318
  8
OBJECT
 10
3968.0
 20
-1409.425625842199
 30
0.0
 40
12.0
 50
199.96262687002491
 51
280.03737312998732
1001
ACDBBLOCKREPETAG
1070
     1
1071
       18
1005
128318
  0
LINE
  5
128319
  8
OBJECT
 10
4010.6317214264491
 20
-1414.066350808999
 30
0.0
 11
3970.091486182253
 21
-1421.241957148889
 31
0.0
1001
ACDBBLOCKREPETAG
1070
     1
1071
       19
1005
128319
  0
LINE
  5
12831A
  8
OBJECT
 10
3942.6651535735441
 20
-1374.825834563231
 30
0.0
 11
3956.721013817747
 21
-1413.5225113300501
 31
0.0
1001
ACDBBLOCKREPETAG
1070
     1
1071
       20
1005
12831A
  0
POLYLINE
  5
12831B
  8
SLIM
 66
     1
 10
0.0
 20
0.0
 30
0.0
 70
     1
1001
ACDBBLOCKREPETAG
1070
     1
1071
       21
1005
12831B
  0
VERTEX
  5
12860B
  8
SLIM
 10
3977.8149545762212
 20
-1409.425625842199
 30
0.0
  0
VERTEX
  5
12860C
  8
SLIM
 10
3972.9074772881072
 20
-1400.925625842199
 30
0.0
  0
VERTEX
  5
12860D
  8
SLIM
 10
3963.092522711886
 20
-1400.925625842199
 30
0.0
  0
VERTEX
  5
12860E
  8
SLIM
 10
3958.185045423772
 20
-1409.425625842199
 30
0.0
  0
VERTEX
  5
12860F
  8
SLIM
 10
3963.092522711886
 20
-1417.925625842199
 30
0.0
  0
VERTEX
  5
128610
  8
SLIM
 10
3972.907477288114
 20
-1417.925625842199
 30
0.0
  0
SEQEND
  5
128611
  8
SLIM
  0
LINE
  5
12831C
  8
OBJECT
 10
2044.5
 20
-1079.999999999992
 30
0.0
 11
1955.5
 21
-1079.999999999992
 31
0.0
1001
ACDBBLOCKREPETAG
1070
     1
1071
        0
1005
12831C
  0
LINE
  5
12831D
  8
OBJECT
 10
1935.0
 20
-869.99999999999216
 30
0.0
 11
1935.0
 21
-769.99999999999204
 31
0.0
1001
ACDBBLOCKREPETAG
1070
     1
1071
        1
1005
12831D
  0
LINE
  5
12831E
  8
OBJECT
 10
2065.0
 20
-869.99999999999216
 30
0.0
 11
2065.0
 21
-769.99999999999204
 31
0.0
1001
ACDBBLOCKREPETAG
1070
     1
1071
        2
1005
12831E
  0
LINE
  5
12831F
  8
OBJECT
 10
1935.0
 20
-869.99999999999216
 30
0.0
 11
2065.0
 21
-869.99999999999216
 31
0.0
1001
ACDBBLOCKREPETAG
1070
     1
1071
        3
1005
12831F
  0
LINE
  5
128320
  8
OBJECT
 10
1955.5
 20
-979.99999999999204
 30
0.0
 11
2044.5
 21
-979.99999999999204
 31
0.0
1001
ACDBBLOCKREPETAG
1070
     1
1071
        4
1005
128320
  0
LINE
  5
128321
  8
OBJECT
 10
1955.5
 20
-979.99999999999204
 30
0.0
 11
1955.5
 21
-1079.999999999992
 31
0.0
1001
ACDBBLOCKREPETAG
1070
     1
1071
        5
1005
128321
  0
LINE
  5
128322
  8
OBJECT
 10
2044.5
 20
-979.99999999999204
 30
0.0
 11
2044.5
 21
-1079.999999999992
 31
0.0
1001
ACDBBLOCKREPETAG
1070
     1
1071
        6
1005
128322
  0
LINE
  5
128323
  8
OBJECT
 10
1935.0
 20
-869.99999999999216
 30
0.0
 11
1955.5
 21
-979.99999999999204
 31
0.0
1001
ACDBBLOCKREPETAG
1070
     1
1071
        7
1005
128323
  0
LINE
  5
128324
  8
OBJECT
 10
2044.5
 20
-979.99999999999204
 30
0.0
 11
2065.0
 21
-869.99999999999216
 31
0.0
1001
ACDBBLOCKREPETAG
1070
     1
1071
        8
1005
128324
  0
LINE
  5
128325
  8
HIDDEN
 10
1962.5
 20
-979.99999999999204
 30
0.0
 11
1962.5
 21
-1079.999999999992
 31
0.0
1001
ACDBBLOCKREPETAG
1070
     1
1071
        9
1005
128325
  0
LINE
  5
128326
  8
HIDDEN
 10
2037.5
 20
-979.99999999999204
 30
0.0
 11
2037.5
 21
-1079.999999999992
 31
0.0
1001
ACDBBLOCKREPETAG
1070
     1
1071
       10
1005
128326
  0
LINE
  5
128327
  8
CENTER
 10
2000.0
 20
-769.99999999999955
 30
0.0
 11
2000.0
 21
-1094.999999999992
 31
0.0
1001
ACDBBLOCKREPETAG
1070
     1
1071
       11
1005
128327
  0
LINE
  5
128328
  8
OBJECT
 10
1927.0
 20
-633.99999999999955
 30
0.0
 11
1930.0
 21
-633.99999999999955
 31
0.0
1001
ACDBBLOCKREPETAG
1070
     1
1071
        1
1005
128328
  0
ARC
  5
128329
  8
OBJECT
 10
1927.0
 20
-636.99999999999955
 30
0.0
 40
3.0
 50
90.0
 51
180.0
1001
ACDBBLOCKREPETAG
1070
     1
1071
        2
1005
128329
  0
LINE
  5
12832A
  8
OBJECT
 10
1930.0
 20
-757.99999999999955
 30
0.0
 11
1927.0
 21
-757.99999999999955
 31
0.0
1001
ACDBBLOCKREPETAG
1070
     1
1071
        3
1005
12832A
  0
ARC
  5
12832B
  8
OBJECT
 10
1927.0
 20
-754.99999999999955
 30
0.0
 40
3.0
 50
180.0
 51
270.0
1001
ACDBBLOCKREPETAG
1070
     1
1071
        4
1005
12832B
  0
LINE
  5
12832C
  8
OBJECT
 10
1924.0
 20
-754.99999999999955
 30
0.0
 11
1924.0
 21
-636.99999999999955
 31
0.0
1001
ACDBBLOCKREPETAG
1070
     1
1071
        5
1005
12832C
  0
CIRCLE
  5
12832D
  8
OBJECT
 10
2000.0
 20
-696.0
 30
0.0
 40
62.0
1001
ACDBBLOCKREPETAG
1070
     1
1071
        3
1005
12832D
  0
LINE
  5
12832E
  8
CENTER
 10
1938.0
 20
-711.0
 30
0.0
 11
2062.0
 21
-711.0
 31
0.0
1001
ACDBBLOCKREPETAG
1070
     1
1071
        4
1005
12832E
  0
CIRCLE
  5
12832F
  8
OBJECT
 10
2000.0
 20
-711.0
 30
0.0
 40
28.0
1001
ACDBBLOCKREPETAG
1070
     1
1071
        6
1005
12832F
  0
CIRCLE
  5
128330
  8
OBJECT
 10
2000.0
 20
-711.0
 30
0.0
 40
39.0
1001
ACDBBLOCKREPETAG
1070
     1
1071
        7
1005
128330
  0
ARC
  5
128331
  8
OBJECT
 10
2000.0
 20
-711.0
 30
0.0
 40
47.0
 50
290.58196921144179
 51
249.41803078855821
1001
ACDBBLOCKREPETAG
1070
     1
1071
        8
1005
128331
  0
LINE
  5
128332
  8
OBJECT
 10
1983.477288358142
 20
-755.0
 30
0.0
 11
2016.522711641858
 21
-755.0
 31
0.0
1001
ACDBBLOCKREPETAG
1070
     1
1071
        9
1005
128332
  0
LINE
  5
128333
  8
OBJECT
 10
1935.0
 20
-549.99999999999955
 30
0.0
 11
1935.0
 21
-570.99999999999955
 31
0.0
1001
ACDBBLOCKREPETAG
1070
     1
1071
       16
1005
128333
  0
LINE
  5
128334
  8
OBJECT
 10
1935.0
 20
-570.99999999999955
 30
0.0
 11
2065.0
 21
-570.99999999999955
 31
0.0
1001
ACDBBLOCKREPETAG
1070
     1
1071
       17
1005
128334
  0
LINE
  5
128335
  8
OBJECT
 10
2065.0
 20
-570.99999999999955
 30
0.0
 11
2065.0
 21
-549.99999999999955
 31
0.0
1001
ACDBBLOCKREPETAG
1070
     1
1071
       18
1005
128335
  0
LINE
  5
128336
  8
OBJECT
 10
2065.0
 20
-549.99999999999955
 30
0.0
 11
1935.0
 21
-549.99999999999955
 31
0.0
1001
ACDBBLOCKREPETAG
1070
     1
1071
       19
1005
128336
  0
LINE
  5
128337
  8
HIDDEN
 10
2044.5
 20
-619.99999999999955
 30
0.0
 11
1955.5
 21
-619.99999999999955
 31
0.0
1001
ACDBBLOCKREPETAG
1070
     1
1071
       20
1005
128337
  0
LINE
  5
128338
  8
CENTER
 10
2000.0
 20
-769.99999999999955
 30
0.0
 11
2000.0
 21
-534.99999999999955
 31
0.0
1001
ACDBBLOCKREPETAG
1070
     1
1071
       21
1005
128338
  0
LINE
  5
128339
  8
OBJECT
 10
1940.5
 20
-570.99999999999955
 30
0.0
 11
1940.5
 21
-633.99999999999955
 31
0.0
1001
ACDBBLOCKREPETAG
1070
     1
1071
       22
1005
128339
  0
LINE
  5
12833A
  8
OBJECT
 10
1930.0
 20
-633.99999999999955
 30
0.0
 11
2070.0
 21
-633.99999999999955
 31
0.0
1001
ACDBBLOCKREPETAG
1070
     1
1071
       23
1005
12833A
  0
LINE
  5
12833B
  8
OBJECT
 10
2059.5
 20
-633.99999999999955
 30
0.0
 11
2059.5
 21
-570.99999999999955
 31
0.0
1001
ACDBBLOCKREPETAG
1070
     1
1071
       24
1005
12833B
  0
LINE
  5
12833C
  8
OBJECT
 10
1930.0
 20
-757.99999999999955
 30
0.0
 11
1930.0
 21
-769.99999999999955
 31
0.0
1001
ACDBBLOCKREPETAG
1070
     1
1071
       25
1005
12833C
  0
LINE
  5
12833D
  8
OBJECT
 10
1930.0
 20
-769.99999999999955
 30
0.0
 11
2070.0
 21
-769.99999999999955
 31
0.0
1001
ACDBBLOCKREPETAG
1070
     1
1071
       26
1005
12833D
  0
LINE
  5
12833E
  8
OBJECT
 10
2070.0
 20
-769.99999999999955
 30
0.0
 11
2070.0
 21
-757.99999999999955
 31
0.0
1001
ACDBBLOCKREPETAG
1070
     1
1071
       27
1005
12833E
  0
LINE
  5
12833F
  8
OBJECT
 10
2070.0
 20
-757.99999999999955
 30
0.0
 11
1930.0
 21
-757.99999999999955
 31
0.0
1001
ACDBBLOCKREPETAG
1070
     1
1071
       28
1005
12833F
  0
ARC
  5
128340
  8
OBJECT
 10
2435.0384389946771
 20
-998.60813684682694
 30
0.0
 40
519.48776673616965
 50
135.4235066743189
 51
138.50052655621499
1001
ACDBBLOCKREPETAG
1070
     1
1071
       32
1005
128340
  0
ARC
  5
128341
  8
OBJECT
 10
2435.0384389946771
 20
-393.39186315317193
 30
0.0
 40
519.48776673616965
 50
221.49947344378501
 51
224.57649332568101
1001
ACDBBLOCKREPETAG
1070
     1
1071
       33
1005
128341
  0
ARC
  5
128342
  8
OBJECT
 10
1564.961561005322
 20
-998.60813684682694
 30
0.0
 40
519.48776673616965
 50
41.499473443784993
 51
44.576493325681092
1001
ACDBBLOCKREPETAG
1070
     1
1071
       34
1005
128342
  0
ARC
  5
128343
  8
OBJECT
 10
1564.961561005322
 20
-393.39186315317193
 30
0.0
 40
519.48776673616965
 50
315.4235066743189
 51
318.50052655621488
1001
ACDBBLOCKREPETAG
1070
     1
1071
       35
1005
128343
  0
POINT
  5
128344
  8
DOTS
 10
2000.0
 20
-754.99999999999955
 30
0.0
1001
ACDBBLOCKREPETAG
1070
     1
1071
      111
1005
128344
  0
LINE
  5
128345
  8
CENTER
 10
1909.0
 20
-199.99999999999909
 30
0.0
 11
1930.0
 21
-199.99999999999909
 31
0.0
1001
ACDBBLOCKREPETAG
1070
     1
1071
        0
1005
128345
  0
LINE
  5
128346
  8
OBJECT
 10
1927.0
 20
-261.99999999999909
 30
0.0
 11
1930.0
 21
-261.99999999999909
 31
0.0
1001
ACDBBLOCKREPETAG
1070
     1
1071
        1
1005
128346
  0
ARC
  5
128347
  8
OBJECT
 10
1927.0
 20
-258.99999999999909
 30
0.0
 40
3.0
 50
180.0
 51
270.0
1001
ACDBBLOCKREPETAG
1070
     1
1071
        2
1005
128347
  0
LINE
  5
128348
  8
OBJECT
 10
1930.0
 20
-137.99999999999909
 30
0.0
 11
1927.0
 21
-137.99999999999909
 31
0.0
1001
ACDBBLOCKREPETAG
1070
     1
1071
        3
1005
128348
  0
ARC
  5
128349
  8
OBJECT
 10
1927.0
 20
-140.99999999999909
 30
0.0
 40
3.0
 50
90.0
 51
180.0
1001
ACDBBLOCKREPETAG
1070
     1
1071
        4
1005
128349
  0
LINE
  5
12834A
  8
OBJECT
 10
1924.0
 20
-140.99999999999909
 30
0.0
 11
1924.0
 21
-258.99999999999909
 31
0.0
1001
ACDBBLOCKREPETAG
1070
     1
1071
        5
1005
12834A
  0
LINE
  5
12834B
  8
OBJECT
 10
2047.0
 20
-322.99999999999898
 30
0.0
 11
2047.0
 21
-329.99999999999898
 31
0.0
1001
ACDBBLOCKREPETAG
1070
     1
1071
        7
1005
12834B
  0
LINE
  5
12834C
  8
OBJECT
 10
2047.0
 20
-329.99999999999898
 30
0.0
 11
1953.0
 21
-329.99999999999898
 31
0.0
1001
ACDBBLOCKREPETAG
1070
     1
1071
        8
1005
12834C
  0
LINE
  5
12834D
  8
OBJECT
 10
1953.0
 20
-329.99999999999898
 30
0.0
 11
1953.0
 21
-322.99999999999898
 31
0.0
1001
ACDBBLOCKREPETAG
1070
     1
1071
        9
1005
12834D
  0
LINE
  5
12834E
  8
OBJECT
 10
1953.0
 20
-322.99999999999898
 30
0.0
 11
2047.0
 21
-322.99999999999898
 31
0.0
1001
ACDBBLOCKREPETAG
1070
     1
1071
       10
1005
12834E
  0
LINE
  5
12834F
  8
CENTER
 10
2000.0
 20
-344.99999999999909
 30
0.0
 11
2000.0
 21
-269.99999999999909
 31
0.0
1001
ACDBBLOCKREPETAG
1070
     1
1071
       11
1005
12834F
  0
LINE
  5
128350
  8
OBJECT
 10
2044.0
 20
-322.99999999999898
 30
0.0
 11
2044.0
 21
-286.99999999999898
 31
0.0
1001
ACDBBLOCKREPETAG
1070
     1
1071
       12
1005
128350
  0
LINE
  5
128351
  8
OBJECT
 10
2044.0
 20
-286.99999999999898
 30
0.0
 11
1956.0
 21
-286.99999999999898
 31
0.0
1001
ACDBBLOCKREPETAG
1070
     1
1071
       13
1005
128351
  0
LINE
  5
128352
  8
OBJECT
 10
1956.0
 20
-286.99999999999898
 30
0.0
 11
1956.0
 21
-322.99999999999898
 31
0.0
1001
ACDBBLOCKREPETAG
1070
     1
1071
       14
1005
128352
  0
LINE
  5
128353
  8
OBJECT
 10
2039.5
 20
-282.99999999999898
 30
0.0
 11
2039.5
 21
-275.99999999999909
 31
0.0
1001
ACDBBLOCKREPETAG
1070
     1
1071
       15
1005
128353
  0
LINE
  5
128354
  8
OBJECT
 10
1960.5
 20
-275.99999999999909
 30
0.0
 11
1960.5
 21
-282.99999999999898
 31
0.0
1001
ACDBBLOCKREPETAG
1070
     1
1071
       16
1005
128354
  0
LINE
  5
128355
  8
OBJECT
 10
1960.5
 20
-282.99999999999898
 30
0.0
 11
2039.5
 21
-282.99999999999898
 31
0.0
1001
ACDBBLOCKREPETAG
1070
     1
1071
       17
1005
128355
  0
LINE
  5
128356
  8
OBJECT
 10
2044.0
 20
-286.99999999999898
 30
0.0
 11
2039.5
 21
-282.99999999999898
 31
0.0
1001
ACDBBLOCKREPETAG
1070
     1
1071
       18
1005
128356
  0
LINE
  5
128357
  8
OBJECT
 10
1956.0
 20
-286.99999999999898
 30
0.0
 11
1960.5
 21
-282.99999999999898
 31
0.0
1001
ACDBBLOCKREPETAG
1070
     1
1071
       19
1005
128357
  0
LINE
  5
128358
  8
OBJECT
 10
2062.0
 20
-272.99999999999909
 30
0.0
 11
2062.0
 21
-269.99999999999909
 31
0.0
1001
ACDBBLOCKREPETAG
1070
     1
1071
       20
1005
128358
  0
ARC
  5
128359
  8
OBJECT
 10
2059.0
 20
-272.99999999999909
 30
0.0
 40
3.0
 50
270.0
 51
0.0
1001
ACDBBLOCKREPETAG
1070
     1
1071
       21
1005
128359
  0
LINE
  5
12835A
  8
OBJECT
 10
1938.0
 20
-269.99999999999909
 30
0.0
 11
1938.0
 21
-272.99999999999909
 31
0.0
1001
ACDBBLOCKREPETAG
1070
     1
1071
       22
1005
12835A
  0
ARC
  5
12835B
  8
OBJECT
 10
1941.0
 20
-272.99999999999909
 30
0.0
 40
3.0
 50
180.0
 51
270.0
1001
ACDBBLOCKREPETAG
1070
     1
1071
       23
1005
12835B
  0
LINE
  5
12835C
  8
OBJECT
 10
1941.0
 20
-275.99999999999909
 30
0.0
 11
2059.0
 21
-275.99999999999909
 31
0.0
1001
ACDBBLOCKREPETAG
1070
     1
1071
       24
1005
12835C
  0
LINE
  5
12835D
  8
HIDDEN
 10
2030.0
 20
-277.99999999999909
 30
0.0
 11
1970.0
 21
-277.99999999999909
 31
0.0
1001
ACDBBLOCKREPETAG
1070
     1
1071
       25
1005
12835D
  0
POINT
  5
12835E
  8
DOTS
 10
2000.0
 20
-199.99999999999909
 30
0.0
 50
270.0
1001
ACDBBLOCKREPETAG
1070
     1
1071
      153
1005
12835E
  0
ARC
  5
12835F
  8
OBJECT
 10
2000.0
 20
-199.99999999999909
 30
0.0
 40
70.0
 50
62.339550100758693
 51
117.6604498992413
1001
ACDBBLOCKREPETAG
1070
     1
1071
        0
1005
12835F
  0
CIRCLE
  5
128360
  8
OBJECT
 10
2000.0
 20
-199.99999999999909
 30
0.0
 40
65.0
1001
ACDBBLOCKREPETAG
1070
     1
1071
        1
1005
128360
  0
CIRCLE
  5
128361
  8
OBJECT
 10
2000.0
 20
-199.99999999999909
 30
0.0
 40
41.0
1001
ACDBBLOCKREPETAG
1070
     1
1071
        2
1005
128361
  0
CIRCLE
  5
128362
  8
OBJECT
 10
2000.0
 20
-199.99999999999909
 30
0.0
 40
58.0
1001
ACDBBLOCKREPETAG
1070
     1
1071
        3
1005
128362
  0
LINE
  5
128363
  8
OBJECT
 10
2070.0
 20
-137.99999999999909
 30
0.0
 11
2019.5192212959439
 21
-137.99999999999909
 31
0.0
1001
ACDBBLOCKREPETAG
1070
     1
1071
        4
1005
128363
  0
LINE
  5
128364
  8
OBJECT
 10
1930.0
 20
-137.99999999999909
 30
0.0
 11
1980.480778704057
 21
-137.99999999999909
 31
0.0
1001
ACDBBLOCKREPETAG
1070
     1
1071
        5
1005
128364
  0
LINE
  5
128365
  8
OBJECT
 10
1930.0
 20
-261.99999999999909
 30
0.0
 11
1938.0
 21
-261.99999999999909
 31
0.0
1001
ACDBBLOCKREPETAG
1070
     1
1071
        6
1005
128365
  0
LINE
  5
128366
  8
OBJECT
 10
1938.0
 20
-269.99999999999909
 30
0.0
 11
1938.0
 21
-261.99999999999909
 31
0.0
1001
ACDBBLOCKREPETAG
1070
     1
1071
        7
1005
128366
  0
LINE
  5
128367
  8
OBJECT
 10
2070.0
 20
-261.99999999999909
 30
0.0
 11
2062.0
 21
-261.99999999999909
 31
0.0
1001
ACDBBLOCKREPETAG
1070
     1
1071
        8
1005
128367
  0
LINE
  5
128368
  8
OBJECT
 10
2062.0
 20
-269.99999999999909
 30
0.0
 11
2062.0
 21
-261.99999999999909
 31
0.0
1001
ACDBBLOCKREPETAG
1070
     1
1071
        9
1005
128368
  0
LINE
  5
128369
  8
CENTER
 10
1930.0
 20
-199.99999999999909
 30
0.0
 11
2070.0
 21
-199.99999999999909
 31
0.0
1001
ACDBBLOCKREPETAG
1070
     1
1071
       10
1005
128369
  0
LINE
  5
12836A
  8
CENTER
 10
2000.0
 20
-269.99999999999909
 30
0.0
 11
2000.0
 21
-114.9999999999991
 31
0.0
1001
ACDBBLOCKREPETAG
1070
     1
1071
       11
1005
12836A
  0
ARC
  5
12836B
  8
OBJECT
 10
1989.902762139187
 20
-224.44352901899131
 30
0.0
 40
7.0
 50
73.001272229706771
 51
154.05025878943769
1001
ACDBBLOCKREPETAG
1070
     1
1071
       12
1005
12836B
  0
ARC
  5
12836C
  8
OBJECT
 10
1986.8376610706509
 20
-225.5978773169509
 30
0.0
 40
9.0
 50
73.001272229706771
 51
154.05026392593041
1001
ACDBBLOCKREPETAG
1070
     1
1071
       13
1005
12836C
  0
ARC
  5
12836D
  8
OBJECT
 10
1896.3142301315529
 20
-147.28130031148149
 30
0.0
 40
150.0
 50
322.89503374001202
 51
325.8931499697137
1001
ACDBBLOCKREPETAG
1070
     1
1071
       14
1005
12836D
  0
ARC
  5
12836E
  8
OBJECT
 10
2000.0
 20
-199.99999999999909
 30
0.0
 40
37.5
 50
303.16276667667131
 51
229.1635024908278
1001
ACDBBLOCKREPETAG
1070
     1
1071
       15
1005
12836E
  0
LINE
  5
12836F
  8
OBJECT
 10
1983.608514518975
 20
-221.38045100897119
 30
0.0
 11
1977.3740110000001
 21
-234.1915870000002
 31
0.0
1001
ACDBBLOCKREPETAG
1070
     1
1071
       16
1005
12836F
  0
LINE
  5
128370
  8
OBJECT
 10
1978.745056634463
 20
-221.65963488670511
 30
0.0
 11
1973.898671999998
 21
-231.6183599999996
 31
0.0
1001
ACDBBLOCKREPETAG
1070
     1
1071
       17
1005
128370
  0
LINE
  5
128371
  8
OBJECT
 10
2018.938018000001
 20
-226.00000000000091
 30
0.0
 11
1989.468815303258
 21
-216.99107608744359
 31
0.0
1001
ACDBBLOCKREPETAG
1070
     1
1071
       18
1005
128371
  0
LINE
  5
128372
  8
OBJECT
 10
2020.5132253090051
 20
-231.39199878029191
 30
0.0
 11
2018.938018000001
 21
-226.00000000000091
 31
0.0
1001
ACDBBLOCKREPETAG
1070
     1
1071
       19
1005
128372
  0
LINE
  5
128373
  8
OBJECT
 10
1954.038059222873
 20
-245.96194077712471
 30
0.0
 11
1938.0
 21
-261.99999999999909
 31
0.0
1001
ACDBBLOCKREPETAG
1070
     1
1071
       42
1005
128373
  0
LINE
  5
128374
  8
OBJECT
 10
2045.9619407771261
 20
-245.96194077712471
 30
0.0
 11
2062.0
 21
-261.99999999999909
 31
0.0
1001
ACDBBLOCKREPETAG
1070
     1
1071
       43
1005
128374
  0
LINE
  5
128375
  8
DIM
 10
2140.0
 20
-3221.9999999999959
 30
0.0
 11
2218.4796205944581
 21
-3221.9999999999959
 31
0.0
  0
LINE
  5
128376
  8
DIM
 10
2140.0
 20
-3127.9999999999959
 30
0.0
 11
2218.4796205944581
 21
-3127.9999999999959
 31
0.0
  0
LINE
  5
128377
  8
DIM
 10
2208.4796205944581
 20
-3201.9999999999959
 30
0.0
 11
2208.4796205944581
 21
-3147.9999999999959
 31
0.0
  0
INSERT
  5
128378
  8
DIM
  2
_OPEN30
 10
2208.4796205944581
 20
-3221.9999999999959
 30
0.0
 41
20.0
 42
20.0
 43
20.0
 50
270.0
  0
INSERT
  5
128379
  8
DIM
  2
_OPEN30
 10
2208.4796205944581
 20
-3127.9999999999959
 30
0.0
 41
20.0
 42
20.0
 43
20.0
 50
90.0
  0
INSERT
  5
12837A
  8
OBJECT
  2
*U11
 10
0.0
 20
0.0
 30
0.0
  0
LINE
  5
12837B
  8
DIM
 10
2140.0
 20
-3579.9999999999968
 30
0.0
 11
2216.840928403733
 21
-3579.9999999999968
 31
0.0
  0
LINE
  5
12837C
  8
DIM
 10
2155.0
 20
-3535.9999999999968
 30
0.0
 11
2216.840928403733
 21
-3535.9999999999968
 31
0.0
  0
LINE
  5
12837D
  8
DIM
 10
2206.840928403733
 20
-3599.9999999999968
 30
0.0
 11
2206.840928403733
 21
-3619.9999999999968
 31
0.0
  0
LINE
  5
12837E
  8
DIM
 10
2206.840928403733
 20
-3515.9999999999968
 30
0.0
 11
2206.840928403733
 21
-3495.9999999999968
 31
0.0
  0
LINE
  5
12837F
  8
DIM
 10
2206.840928403733
 20
-3579.9999999999968
 30
0.0
 11
2206.840928403733
 21
-3535.9999999999968
 31
0.0
  0
INSERT
  5
128380
  8
DIM
  2
_OPEN30
 10
2206.840928403733
 20
-3579.9999999999968
 30
0.0
 41
20.0
 42
20.0
 43
20.0
 50
90.0
  0
INSERT
  5
128381
  8
DIM
  2
_OPEN30
 10
2206.840928403733
 20
-3535.9999999999968
 30
0.0
 41
20.0
 42
20.0
 43
20.0
 50
270.0
  0
INSERT
  5
128382
  8
OBJECT
  2
*U12
 10
0.0
 20
0.0
 30
0.0
  0
LINE
  5
128383
  8
DIM
 10
2000.0
 20
-3079.9999999999959
 30
0.0
 11
2000.0
 21
-3047.208121984444
 31
0.0
  0
LINE
  5
128384
  8
DIM
 10
2130.0
 20
-3117.9999999999959
 30
0.0
 11
2130.0
 21
-3047.208121984444
 31
0.0
  0
LINE
  5
128385
  8
DIM
 10
2020.0
 20
-3057.208121984444
 30
0.0
 11
2109.9999999999991
 21
-3057.208121984444
 31
0.0
  0
INSERT
  5
128386
  8
DIM
  2
_OPEN30
 10
2000.0
 20
-3057.208121984444
 30
0.0
 41
20.0
 42
20.0
 43
20.0
 50
180.0
  0
INSERT
  5
128387
  8
DIM
  2
_OPEN30
 10
2130.0
 20
-3057.208121984444
 30
0.0
 41
20.0
 42
20.0
 43
20.0
  0
INSERT
  5
128388
  8
OBJECT
  2
*U13
 10
0.0
 20
0.0
 30
0.0
  0
TEXT
  5
128389
  8
SLIM
 10
2631.0
 20
-2952.50001604727
 30
0.0
 40
40.0
  1
C寸法
 41
0.75
  0
TEXT
  5
12838A
  8
SLIM
 10
2631.0
 20
-2882.50001604727
 30
0.0
 40
40.0
  1
B寸法
 41
0.75
  0
TEXT
  5
12838B
  8
SLIM
 10
2630.2857142857142
 20
-2812.50001604727
 30
0.0
 40
40.0
  1
A寸法
 41
0.75
  0
TEXT
  5
12838C
  8
SLIM
 10
2769.2857142857151
 20
-2952.50001604727
 30
0.0
 40
40.0
  1
130
 41
0.75
  0
TEXT
  5
12838D
  8
SLIM
 10
2899.2857142857151
 20
-2952.50001604727
 30
0.0
 40
40.0
  1
130
 41
0.75
  0
TEXT
  5
12838E
  8
SLIM
 10
2780.0
 20
-2882.50001604727
 30
0.0
 40
40.0
  1
44
 41
0.75
  0
TEXT
  5
12838F
  8
SLIM
 10
2910.7142857142858
 20
-2882.50001604727
 30
0.0
 40
40.0
  1
52
 41
0.75
  0
TEXT
  5
128390
  8
SLIM
 10
2766.0
 20
-2687.50001604727
 30
0.0
 40
40.0
  1
横枝管サイズ
 41
0.75
  0
TEXT
  5
128391
  8
SLIM
 10
2884.8571428571431
 20
-2742.50001604727
 30
0.0
 40
30.0
  1
65（2）
 41
0.75
  0
TEXT
  5
128392
  8
SLIM
 10
2757.0
 20
-2742.50001604727
 30
0.0
 40
30.0
  1
50（1）
 41
0.75
  0
TEXT
  5
128393
  8
SLIM
 10
2780.0
 20
-2812.50001604727
 30
0.0
 40
40.0
  1
94
 41
0.75
  0
TEXT
  5
128394
  8
SLIM
 10
2902.1428571428569
 20
-2812.50001604727
 30
0.0
 40
40.0
  1
110
 41
0.75
  0
TEXT
  5
128395
  8
SLIM
 10
1849.9999999999991
 20
-2712.5
 30
0.0
 40
75.0
  1
枝管サイズ毎の形状
 41
0.75
  0
TEXT
  5
128396
  8
SLIM
 10
2894.25
 20
-3697.4999999999959
 30
0.0
 40
35.0
  1
通常枝65（2）
 41
0.75
  0
CIRCLE
  5
128397
  8
OBJECT
 10
2400.0
 20
-3520.9999999999968
 30
0.0
 40
62.0
1001
ACDBBLOCKREPETAG
1070
     1
1071
        3
1005
128397
  0
LINE
  5
128398
  8
CENTER
 10
2338.0
 20
-3535.9999999999968
 30
0.0
 11
2462.0
 21
-3535.9999999999968
 31
0.0
1001
ACDBBLOCKREPETAG
1070
     1
1071
        4
1005
128398
  0
CIRCLE
  5
128399
  8
OBJECT
 10
2400.0
 20
-3535.9999999999968
 30
0.0
 40
28.0
1001
ACDBBLOCKREPETAG
1070
     1
1071
        6
1005
128399
  0
CIRCLE
  5
12839A
  8
OBJECT
 10
2400.0
 20
-3535.9999999999968
 30
0.0
 40
39.0
1001
ACDBBLOCKREPETAG
1070
     1
1071
        7
1005
12839A
  0
ARC
  5
12839B
  8
OBJECT
 10
2400.0
 20
-3535.9999999999968
 30
0.0
 40
47.0
 50
290.58196921144412
 51
249.41803078855591
1001
ACDBBLOCKREPETAG
1070
     1
1071
        8
1005
12839B
  0
LINE
  5
12839C
  8
OBJECT
 10
2383.4772883581431
 20
-3579.9999999999968
 30
0.0
 11
2416.5227116418569
 21
-3579.9999999999968
 31
0.0
1001
ACDBBLOCKREPETAG
1070
     1
1071
        9
1005
12839C
  0
LINE
  5
12839D
  8
OBJECT
 10
2123.0
 20
-3488.9999999999968
 30
0.0
 11
2130.0
 21
-3488.9999999999968
 31
0.0
1001
ACDBBLOCKREPETAG
1070
     1
1071
        7
1005
12839D
  0
LINE
  5
12839E
  8
OBJECT
 10
2130.0
 20
-3488.9999999999968
 30
0.0
 11
2130.0
 21
-3579.9999999999968
 31
0.0
1001
ACDBBLOCKREPETAG
1070
     1
1071
        8
1005
12839E
  0
LINE
  5
12839F
  8
OBJECT
 10
2123.0
 20
-3579.9999999999968
 30
0.0
 11
2123.0
 21
-3488.9999999999968
 31
0.0
1001
ACDBBLOCKREPETAG
1070
     1
1071
        9
1005
12839F
  0
LINE
  5
1283A0
  8
CENTER
 10
2145.0
 20
-3535.9999999999968
 30
0.0
 11
2060.9999999999991
 21
-3535.9999999999968
 31
0.0
1001
ACDBBLOCKREPETAG
1070
     1
1071
       10
1005
1283A0
  0
LINE
  5
1283A1
  8
OBJECT
 10
2123.0
 20
-3491.9999999999968
 30
0.0
 11
2087.0
 21
-3491.9999999999968
 31
0.0
1001
ACDBBLOCKREPETAG
1070
     1
1071
       11
1005
1283A1
  0
LINE
  5
1283A2
  8
OBJECT
 10
2087.0
 20
-3491.9999999999968
 30
0.0
 11
2087.0
 21
-3579.9999999999968
 31
0.0
1001
ACDBBLOCKREPETAG
1070
     1
1071
       12
1005
1283A2
  0
LINE
  5
1283A3
  8
OBJECT
 10
2087.0
 20
-3579.9999999999968
 30
0.0
 11
2130.0
 21
-3579.9999999999968
 31
0.0
1001
ACDBBLOCKREPETAG
1070
     1
1071
       13
1005
1283A3
  0
LINE
  5
1283A4
  8
OBJECT
 10
2083.0
 20
-3496.4999999999968
 30
0.0
 11
2076.0
 21
-3496.4999999999968
 31
0.0
1001
ACDBBLOCKREPETAG
1070
     1
1071
       14
1005
1283A4
  0
LINE
  5
1283A5
  8
OBJECT
 10
2076.0
 20
-3575.4999999999968
 30
0.0
 11
2083.0
 21
-3575.4999999999968
 31
0.0
1001
ACDBBLOCKREPETAG
1070
     1
1071
       15
1005
1283A5
  0
LINE
  5
1283A6
  8
OBJECT
 10
2083.0
 20
-3575.4999999999968
 30
0.0
 11
2083.0
 21
-3496.4999999999968
 31
0.0
1001
ACDBBLOCKREPETAG
1070
     1
1071
       16
1005
1283A6
  0
LINE
  5
1283A7
  8
OBJECT
 10
2087.0
 20
-3491.9999999999968
 30
0.0
 11
2083.0
 21
-3496.4999999999968
 31
0.0
1001
ACDBBLOCKREPETAG
1070
     1
1071
       17
1005
1283A7
  0
LINE
  5
1283A8
  8
OBJECT
 10
2087.0
 20
-3579.9999999999968
 30
0.0
 11
2083.0
 21
-3575.4999999999968
 31
0.0
1001
ACDBBLOCKREPETAG
1070
     1
1071
       18
1005
1283A8
  0
LINE
  5
1283A9
  8
OBJECT
 10
2073.0
 20
-3458.9999999999968
 30
0.0
 11
2070.0
 21
-3458.9999999999968
 31
0.0
1001
ACDBBLOCKREPETAG
1070
     1
1071
       19
1005
1283A9
  0
ARC
  5
1283AA
  8
OBJECT
 10
2073.0
 20
-3461.9999999999968
 30
0.0
 40
3.0
 50
0.0
 51
90.0
1001
ACDBBLOCKREPETAG
1070
     1
1071
       20
1005
1283AA
  0
LINE
  5
1283AB
  8
OBJECT
 10
2070.0
 20
-3582.9999999999968
 30
0.0
 11
2073.0
 21
-3582.9999999999968
 31
0.0
1001
ACDBBLOCKREPETAG
1070
     1
1071
       21
1005
1283AB
  0
ARC
  5
1283AC
  8
OBJECT
 10
2073.0
 20
-3579.9999999999968
 30
0.0
 40
3.0
 50
270.0
 51
0.0
1001
ACDBBLOCKREPETAG
1070
     1
1071
       22
1005
1283AC
  0
LINE
  5
1283AD
  8
OBJECT
 10
2076.0
 20
-3579.9999999999968
 30
0.0
 11
2076.0
 21
-3461.9999999999968
 31
0.0
1001
ACDBBLOCKREPETAG
1070
     1
1071
       23
1005
1283AD
  0
LINE
  5
1283AE
  8
HIDDEN
 10
2078.0
 20
-3505.9999999999968
 30
0.0
 11
2078.0
 21
-3565.9999999999968
 31
0.0
1001
ACDBBLOCKREPETAG
1070
     1
1071
       24
1005
1283AE
  0
TEXT
  5
1283AF
  8
SLIM
 10
1896.75
 20
-3697.4999999999959
 30
0.0
 40
35.0
  1
通常枝50（1）
 41
0.75
  0
TEXT
  5
1283B0
  8
SLIM
 10
1837.75
 20
282.50000000000011
 30
0.0
 40
35.0
  1
（枝管サイズ毎に寸法が異なります。管底の位置は全サイズで同じです）
 41
0.75
  0
TEXT
  5
1283B1
  8
SLIM
 10
1850.0
 20
532.5
 30
0.0
 40
75.0
  1
側面図の代表機種
 41
0.75
  0
TEXT
  5
1283B2
  8
SLIM
 10
1850.0
 20
369.99999999999989
 30
0.0
 40
100.0
  1
3SL-C11
 41
0.75
  0
LINE
  5
1283B3
  8
OBJECT
 10
2123.0
 20
-663.99999999999966
 30
0.0
 11
2130.0
 21
-663.99999999999966
 31
0.0
1001
ACDBBLOCKREPETAG
1070
     1
1071
        7
1005
1283B3
  0
LINE
  5
1283B4
  8
OBJECT
 10
2130.0
 20
-663.99999999999966
 30
0.0
 11
2130.0
 21
-754.99999999999955
 31
0.0
1001
ACDBBLOCKREPETAG
1070
     1
1071
        8
1005
1283B4
  0
LINE
  5
1283B5
  8
OBJECT
 10
2123.0
 20
-754.99999999999955
 30
0.0
 11
2123.0
 21
-663.99999999999966
 31
0.0
1001
ACDBBLOCKREPETAG
1070
     1
1071
        9
1005
1283B5
  0
LINE
  5
1283B6
  8
CENTER
 10
2145.0
 20
-710.99999999999955
 30
0.0
 11
2061.0
 21
-710.99999999999955
 31
0.0
1001
ACDBBLOCKREPETAG
1070
     1
1071
       10
1005
1283B6
  0
LINE
  5
1283B7
  8
OBJECT
 10
2123.0
 20
-666.99999999999955
 30
0.0
 11
2087.0
 21
-666.99999999999955
 31
0.0
1001
ACDBBLOCKREPETAG
1070
     1
1071
       11
1005
1283B7
  0
LINE
  5
1283B8
  8
OBJECT
 10
2087.0
 20
-666.99999999999955
 30
0.0
 11
2087.0
 21
-754.99999999999955
 31
0.0
1001
ACDBBLOCKREPETAG
1070
     1
1071
       12
1005
1283B8
  0
LINE
  5
1283B9
  8
OBJECT
 10
2087.0
 20
-754.99999999999955
 30
0.0
 11
2130.0
 21
-754.99999999999955
 31
0.0
1001
ACDBBLOCKREPETAG
1070
     1
1071
       13
1005
1283B9
  0
LINE
  5
1283BA
  8
OBJECT
 10
2083.0
 20
-671.49999999999955
 30
0.0
 11
2076.0
 21
-671.49999999999955
 31
0.0
1001
ACDBBLOCKREPETAG
1070
     1
1071
       14
1005
1283BA
  0
LINE
  5
1283BB
  8
OBJECT
 10
2076.0
 20
-750.49999999999955
 30
0.0
 11
2083.0
 21
-750.49999999999955
 31
0.0
1001
ACDBBLOCKREPETAG
1070
     1
1071
       15
1005
1283BB
  0
LINE
  5
1283BC
  8
OBJECT
 10
2083.0
 20
-750.49999999999955
 30
0.0
 11
2083.0
 21
-671.49999999999955
 31
0.0
1001
ACDBBLOCKREPETAG
1070
     1
1071
       16
1005
1283BC
  0
LINE
  5
1283BD
  8
OBJECT
 10
2087.0
 20
-666.99999999999955
 30
0.0
 11
2083.0
 21
-671.49999999999955
 31
0.0
1001
ACDBBLOCKREPETAG
1070
     1
1071
       17
1005
1283BD
  0
LINE
  5
1283BE
  8
OBJECT
 10
2087.0
 20
-754.99999999999955
 30
0.0
 11
2083.0
 21
-750.49999999999955
 31
0.0
1001
ACDBBLOCKREPETAG
1070
     1
1071
       18
1005
1283BE
  0
LINE
  5
1283BF
  8
OBJECT
 10
2073.0
 20
-633.99999999999955
 30
0.0
 11
2070.0
 21
-633.99999999999955
 31
0.0
1001
ACDBBLOCKREPETAG
1070
     1
1071
       19
1005
1283BF
  0
ARC
  5
1283C0
  8
OBJECT
 10
2073.0
 20
-636.99999999999955
 30
0.0
 40
3.0
 50
0.0
 51
90.0
1001
ACDBBLOCKREPETAG
1070
     1
1071
       20
1005
1283C0
  0
LINE
  5
1283C1
  8
OBJECT
 10
2070.0
 20
-757.99999999999955
 30
0.0
 11
2073.0
 21
-757.99999999999955
 31
0.0
1001
ACDBBLOCKREPETAG
1070
     1
1071
       21
1005
1283C1
  0
ARC
  5
1283C2
  8
OBJECT
 10
2073.0
 20
-754.99999999999955
 30
0.0
 40
3.0
 50
270.0
 51
0.0
1001
ACDBBLOCKREPETAG
1070
     1
1071
       22
1005
1283C2
  0
LINE
  5
1283C3
  8
OBJECT
 10
2076.0
 20
-754.99999999999955
 30
0.0
 11
2076.0
 21
-636.99999999999955
 31
0.0
1001
ACDBBLOCKREPETAG
1070
     1
1071
       23
1005
1283C3
  0
LINE
  5
1283C4
  8
HIDDEN
 10
2078.0
 20
-680.99999999999955
 30
0.0
 11
2078.0
 21
-740.99999999999955
 31
0.0
1001
ACDBBLOCKREPETAG
1070
     1
1071
       24
1005
1283C4
  0
LINE
  5
1283C5
  8
OBJECT
 10
2123.0
 20
-152.99999999999909
 30
0.0
 11
2130.0
 21
-152.99999999999909
 31
0.0
1001
ACDBBLOCKREPETAG
1070
     1
1071
        7
1005
1283C5
  0
LINE
  5
1283C6
  8
OBJECT
 10
2130.0
 20
-152.99999999999909
 30
0.0
 11
2130.0
 21
-246.99999999999909
 31
0.0
1001
ACDBBLOCKREPETAG
1070
     1
1071
        8
1005
1283C6
  0
LINE
  5
1283C7
  8
OBJECT
 10
2130.0
 20
-246.99999999999909
 30
0.0
 11
2123.0
 21
-246.99999999999909
 31
0.0
1001
ACDBBLOCKREPETAG
1070
     1
1071
        9
1005
1283C7
  0
LINE
  5
1283C8
  8
OBJECT
 10
2123.0
 20
-246.99999999999909
 30
0.0
 11
2123.0
 21
-152.99999999999909
 31
0.0
1001
ACDBBLOCKREPETAG
1070
     1
1071
       10
1005
1283C8
  0
LINE
  5
1283C9
  8
CENTER
 10
2145.0
 20
-199.99999999999909
 30
0.0
 11
2070.0
 21
-199.99999999999909
 31
0.0
1001
ACDBBLOCKREPETAG
1070
     1
1071
       11
1005
1283C9
  0
LINE
  5
1283CA
  8
OBJECT
 10
2123.0
 20
-155.99999999999909
 30
0.0
 11
2087.0
 21
-155.99999999999909
 31
0.0
1001
ACDBBLOCKREPETAG
1070
     1
1071
       12
1005
1283CA
  0
LINE
  5
1283CB
  8
OBJECT
 10
2087.0
 20
-155.99999999999909
 30
0.0
 11
2087.0
 21
-243.99999999999909
 31
0.0
1001
ACDBBLOCKREPETAG
1070
     1
1071
       13
1005
1283CB
  0
LINE
  5
1283CC
  8
OBJECT
 10
2087.0
 20
-243.99999999999909
 30
0.0
 11
2123.0
 21
-243.99999999999909
 31
0.0
1001
ACDBBLOCKREPETAG
1070
     1
1071
       14
1005
1283CC
  0
LINE
  5
1283CD
  8
OBJECT
 10
2083.0
 20
-160.49999999999909
 30
0.0
 11
2076.0
 21
-160.49999999999909
 31
0.0
1001
ACDBBLOCKREPETAG
1070
     1
1071
       15
1005
1283CD
  0
LINE
  5
1283CE
  8
OBJECT
 10
2076.0
 20
-239.49999999999909
 30
0.0
 11
2083.0
 21
-239.49999999999909
 31
0.0
1001
ACDBBLOCKREPETAG
1070
     1
1071
       16
1005
1283CE
  0
LINE
  5
1283CF
  8
OBJECT
 10
2083.0
 20
-239.49999999999909
 30
0.0
 11
2083.0
 21
-160.49999999999909
 31
0.0
1001
ACDBBLOCKREPETAG
1070
     1
1071
       17
1005
1283CF
  0
LINE
  5
1283D0
  8
OBJECT
 10
2087.0
 20
-155.99999999999909
 30
0.0
 11
2083.0
 21
-160.49999999999909
 31
0.0
1001
ACDBBLOCKREPETAG
1070
     1
1071
       18
1005
1283D0
  0
LINE
  5
1283D1
  8
OBJECT
 10
2087.0
 20
-243.99999999999909
 30
0.0
 11
2083.0
 21
-239.49999999999909
 31
0.0
1001
ACDBBLOCKREPETAG
1070
     1
1071
       19
1005
1283D1
  0
LINE
  5
1283D2
  8
OBJECT
 10
2073.0
 20
-137.99999999999909
 30
0.0
 11
2070.0
 21
-137.99999999999909
 31
0.0
1001
ACDBBLOCKREPETAG
1070
     1
1071
       20
1005
1283D2
  0
ARC
  5
1283D3
  8
OBJECT
 10
2073.0
 20
-140.99999999999909
 30
0.0
 40
3.0
 50
0.0
 51
90.0
1001
ACDBBLOCKREPETAG
1070
     1
1071
       21
1005
1283D3
  0
LINE
  5
1283D4
  8
OBJECT
 10
2070.0
 20
-261.99999999999909
 30
0.0
 11
2073.0
 21
-261.99999999999909
 31
0.0
1001
ACDBBLOCKREPETAG
1070
     1
1071
       22
1005
1283D4
  0
ARC
  5
1283D5
  8
OBJECT
 10
2073.0
 20
-258.99999999999909
 30
0.0
 40
3.0
 50
270.0
 51
0.0
1001
ACDBBLOCKREPETAG
1070
     1
1071
       23
1005
1283D5
  0
LINE
  5
1283D6
  8
OBJECT
 10
2076.0
 20
-258.99999999999909
 30
0.0
 11
2076.0
 21
-140.99999999999909
 31
0.0
1001
ACDBBLOCKREPETAG
1070
     1
1071
       24
1005
1283D6
  0
LINE
  5
1283D7
  8
HIDDEN
 10
2078.0
 20
-169.99999999999909
 30
0.0
 11
2078.0
 21
-229.99999999999909
 31
0.0
1001
ACDBBLOCKREPETAG
1070
     1
1071
       25
1005
1283D7
  0
TEXT
  5
1283D8
  8
SLIM
 10
0.0
 20
667.19448474768467
 30
0.0
 40
100.0
  1
3SL-CXX-S
 41
0.75
  0
TEXT
  5
1283D9
  8
SLIM
 10
0.0
 20
517.19448474768467
 30
0.0
 40
100.0
  1
3SL-CXX-W
 41
0.75
  0
TEXT
  5
1283DA
  8
SLIM
 10
0.0000035665234464
 20
24.000004585317601
 30
0.0
 40
79.999999999972701
  1
枝管バリエーション
 41
0.75
1001
ACDBBLOCKREPETAG
1070
     1
1071
      119
1005
F48AB
  0
TEXT
  5
1283DB
  8
SLIM
 10
3853.75
 20
-1621.4999999999959
 30
0.0
 40
35.0
  1
両受けスタイル（W）
 41
0.75
  0
TEXT
  5
1283DC
  8
SLIM
 10
5811.8000000000002
 20
-1718.9999999999991
 30
0.0
 40
28.0
  1
※ 対応スラブ厚　150mm以上
 41
0.75
  0
TEXT
  5
1283DD
  8
SLIM
 10
5611.5
 20
-1812.333333333333
 30
0.0
 40
28.0
  1
国土交通大臣認定・（財）日本消防設備安全センター性能評定取得品
 41
0.75
  0
TEXT
  5
1283DE
  8
SLIM
 10
5631.1000000000004
 20
-1858.9999999999991
 30
0.0
 40
28.0
  1
注）ご採用にあたり、認定書及び評定書の内容をご確認ください。
 41
0.75
  0
TEXT
  5
1283DF
  8
SLIM
 10
11824.6
 20
-1677.9999999999959
 30
0.0
 40
28.0
  1
※ 対応スラブ厚　150～260
 41
0.75
  0
TEXT
  5
1283E0
  8
SLIM
 10
11611.5
 20
-1771.3333333333289
 30
0.0
 40
28.0
  1
国土交通大臣認定・（財）日本消防設備安全センター性能評定取得品
 41
0.75
  0
TEXT
  5
1283E1
  8
SLIM
 10
11631.1
 20
-1817.9999999999959
 30
0.0
 40
28.0
  1
注）ご採用にあたり、認定書及び評定書の内容をご確認ください。
 41
0.75
  0
TEXT
  5
1283E2
  8
SLIM
 10
9824.6000000000004
 20
-1677.9999999999959
 30
0.0
 40
28.0
  1
※ 対応スラブ厚　180～260
 41
0.75
  0
TEXT
  5
1283E3
  8
SLIM
 10
9611.5000000000018
 20
-1771.3333333333289
 30
0.0
 40
28.0
  1
国土交通大臣認定・（財）日本消防設備安全センター性能評定取得品
 41
0.75
  0
TEXT
  5
1283E4
  8
SLIM
 10
9631.1000000000004
 20
-1817.9999999999959
 30
0.0
 40
28.0
  1
注）ご採用にあたり、認定書及び評定書の内容をご確認ください。
 41
0.75
  0
TEXT
  5
1283E5
  8
SLIM
 10
9739.1250000000018
 20
-1621.4999999999959
 30
0.0
 40
35.0
  1
両受けスタイル（W）＋シンドカット
 41
0.75
  0
TEXT
  5
1283E6
  8
SLIM
 10
11743.5
 20
-1621.4999999999959
 30
0.0
 40
35.0
  1
カンペイ君（WKP）＋シンドカット
 41
0.75
  0
TEXT
  5
1283E7
  8
SLIM
 10
7741.625
 20
-1347.499999999998
 30
0.0
 40
35.0
  1
片受けスタイル（S）＋シンドカット
 41
0.75
  0
TEXT
  5
1283E8
  8
SLIM
 10
5858.1250000000009
 20
-1662.4999999999991
 30
0.0
 40
35.0
  1
カンペイ君（WKP）
 41
0.75
  0
TEXT
  5
1283E9
  8
SLIM
 10
1856.25
 20
-1347.499999999998
 30
0.0
 40
35.0
  1
片受けスタイル（S）
 41
0.75
  0
TEXT
  5
1283EA
  8
SLIM
 10
0.0
 20
367.19448474768478
 30
0.0
 40
100.0
  1
3SL-CXX-WKP
 41
0.75
  0
VIEWPORT
  5
F6BA7
 67
     1
  8
0
 10
145.33033752441401
 20
101.8328354358673
 30
0.0
 40
334.0025019414623
 41
222.19657968139651
 68
     1
 69
     1
1001
ACAD
1000
MVIEW
1002
{
1070
    16
1010
0.0
1020
0.0
1030
0.0
1010
0.0
1020
0.0
1030
1.0
1040
0.0
1040
222.19657968139651
1040
145.33033752441401
1040
101.8328354358673
1040
50.0
1040
0.0
1040
0.0
1070
     0
1070
     0
1070
     1
1070
     1
1070
     0
1070
     0
1070
     0
1070
     0
1040
0.0
1040
0.0
1040
0.0
1040
10.0
1040
10.0
1040
10.0
1040
10.0
1070
     0
1002
{
1002
}
1002
}
  0
VIEWPORT
  5
F6BA9
 67
     1
  8
OBJECT
 10
145.3303314447403
 20
101.8328338861465
 30
0.0
 40
232.5285303115844
 41
162.93253421783439
 68
     2
 69
     2
1001
ACAD
1000
MVIEW
1002
{
1070
    16
1010
0.0
1020
0.0
1030
0.0
1010
0.0
1020
0.0
1030
1.0
1040
0.0
1040
25942.55904403147
1040
2377.604457077377
1040
-7591.5176687056619
1040
50.0
1040
0.0
1040
0.0
1070
     0
1070
   600
1070
     1
1070
     1
1070
     0
1070
     0
1070
     0
1070
     0
1040
0.0
1040
0.0
1040
0.0
1040
1.0
1040
1.0
1040
0.0
1040
0.0
1070
     0
1002
{
1002
}
1002
}
  0
ENDSEC
  0
EOF
