  0
SECTION
  2
HEADER
  9
$ACADVER
  1
AC1009
  9
$INSBASE
 10
0.0
 20
0.0
 30
0.0
  9
$EXTMIN
 10
-25.796370766537851
 20
-3697.4999999999968
 30
0.0
  9
$EXTMAX
 10
12387.100000000009
 20
767.19448474768467
 30
0.0
  9
$LIMMIN
 10
0.0
 20
0.0
  9
$LIMMAX
 10
210.0
 20
297.0
  9
$ORTHOMODE
 70
     0
  9
$REGENMODE
 70
     1
  9
$FILLMODE
 70
     1
  9
$QTEXTMODE
 70
     0
  9
$MIRRTEXT
 70
     0
  9
$DRAGMODE
 70
     2
  9
$LTSCALE
 40
1.0
  9
$OSMODE
 70
  2557
  9
$ATTMODE
 70
     1
  9
$TEXTSIZE
 40
4.0
  9
$TRACEWID
 40
0.05
  9
$TEXTSTYLE
  7
STANDARD
  9
$CLAYER
  8
OBJECT
  9
$CELTYPE
  6
BYLAYER
  9
$CECOLOR
 62
   256
  9
$DIMSCALE
 40
10.0
  9
$DIMASZ
 40
2.0
  9
$DIMEXO
 40
1.0
  9
$DIMDLI
 40
10.0
  9
$DIMRND
 40
0.0
  9
$DIMDLE
 40
0.0
  9
$DIMEXE
 40
1.0
  9
$DIMTP
 40
0.0
  9
$DIMTM
 40
0.0
  9
$DIMTXT
 40
3.2000000000000002
  9
$DIMCEN
 40
0.0
  9
$DIMTSZ
 40
0.0
  9
$DIMTOL
 70
     0
  9
$DIMLIM
 70
     0
  9
$DIMTIH
 70
     0
  9
$DIMTOH
 70
     0
  9
$DIMSE1
 70
     0
  9
$DIMSE2
 70
     0
  9
$DIMTAD
 70
     1
  9
$DIMZIN
 70
     8
  9
$DIMBLK
  1
OPEN30
  9
$DIMASO
 70
     1
  9
$DIMSHO
 70
     1
  9
$DIMPOST
  1

  9
$DIMAPOST
  1

  9
$DIMALT
 70
     0
  9
$DIMALTD
 70
     2
  9
$DIMALTF
 40
25.399999999999999
  9
$DIMLFAC
 40
1.0
  9
$DIMTOFL
 70
     1
  9
$DIMTVP
 40
0.0
  9
$DIMTIX
 70
     0
  9
$DIMSOXD
 70
     0
  9
$DIMSAH
 70
     0
  9
$DIMBLK1
  1

  9
$DIMBLK2
  1

  9
$DIMSTYLE
  2
S10
  9
$DIMCLRD
 70
   256
  9
$DIMCLRE
 70
   256
  9
$DIMCLRT
 70
   256
  9
$DIMTFAC
 40
1.0
  9
$DIMGAP
 40
0.9
  9
$LUNITS
 70
     2
  9
$LUPREC
 70
     2
  9
$SKETCHINC
 40
0.1
  9
$FILLETRAD
 40
0.0
  9
$AUNITS
 70
     0
  9
$AUPREC
 70
     2
  9
$MENU
  1
ACAD
  9
$ELEVATION
 40
0.0
  9
$PELEVATION
 40
0.0
  9
$THICKNESS
 40
0.0
  9
$LIMCHECK
 70
     0
  9
$BLIPMODE
 70
     0
  9
$CHAMFERA
 40
2.0
  9
$CHAMFERB
 40
2.0
  9
$SKPOLY
 70
     0
  9
$TDCREATE
 40
2453095.4929404748
  9
$TDUPDATE
 40
2456575.397890023
  9
$TDINDWG
 40
18.4353811806
  9
$TDUSRTIMER
 40
18.4353781019
  9
$USRTIMER
 70
     1
  9
$ANGBASE
 50
0.0
  9
$ANGDIR
 70
     0
  9
$PDMODE
 70
    35
  9
$PDSIZE
 40
2.0
  9
$PLINEWID
 40
0.0
  9
$COORDS
 70
     1
  9
$SPLFRAME
 70
     0
  9
$SPLINETYPE
 70
     6
  9
$SPLINESEGS
 70
     8
  9
$ATTDIA
 70
     1
  9
$ATTREQ
 70
     1
  9
$HANDLING
 70
     1
  9
$HANDSEED
  5
12D4DA
  9
$SURFTAB1
 70
     6
  9
$SURFTAB2
 70
     6
  9
$SURFTYPE
 70
     6
  9
$SURFU
 70
     6
  9
$SURFV
 70
     6
  9
$UCSNAME
  2

  9
$UCSORG
 10
0.0
 20
0.0
 30
0.0
  9
$UCSXDIR
 10
1.0
 20
0.0
 30
0.0
  9
$UCSYDIR
 10
0.0
 20
1.0
 30
0.0
  9
$PUCSNAME
  2

  9
$PUCSORG
 10
0.0
 20
0.0
 30
0.0
  9
$PUCSXDIR
 10
1.0
 20
0.0
 30
0.0
  9
$PUCSYDIR
 10
0.0
 20
1.0
 30
0.0
  9
$USERI1
 70
     0
  9
$USERI2
 70
     0
  9
$USERI3
 70
     0
  9
$USERI4
 70
     0
  9
$USERI5
 70
     0
  9
$USERR1
 40
0.0
  9
$USERR2
 40
0.0
  9
$USERR3
 40
0.0
  9
$USERR4
 40
0.0
  9
$USERR5
 40
0.0
  9
$WORLDVIEW
 70
     1
  9
$SHADEDGE
 70
     3
  9
$SHADEDIF
 70
    70
  9
$TILEMODE
 70
     1
  9
$MAXACTVP
 70
    64
  9
$PLIMCHECK
 70
     0
  9
$PEXTMIN
 10
29.066066288948051
 20
20.366566777229309
 30
0.0
  9
$PEXTMAX
 10
261.5945966005325
 20
183.29910099506381
 30
0.0
  9
$PLIMMIN
 10
-3.17498779296875
 20
-3.1749999523162842
  9
$PLIMMAX
 10
293.83566284179687
 20
206.8406708240509
  9
$UNITMODE
 70
     0
  9
$VISRETAIN
 70
     1
  9
$PLINEGEN
 70
     0
  9
$PSLTSCALE
 70
     1
  0
ENDSEC
  0
SECTION
  2
TABLES
  0
TABLE
  2
VPORT
 70
     1
  0
VPORT
  2
*ACTIVE
 70
     0
 10
0.0
 20
0.0
 11
1.0
 21
1.0
 12
6347.5837985752341
 22
-1794.588155191479
 13
0.0
 23
0.0
 14
1.0
 24
1.0
 15
0.0
 25
0.0
 16
0.0
 26
0.0
 36
1.0
 17
0.0
 27
0.0
 37
0.0
 40
7747.4271512732812
 41
1.958525345622119
 42
50.0
 43
0.0
 44
0.0
 50
0.0
 51
0.0
 71
     0
 72
   600
 73
     1
 74
     1
 75
     0
 76
     0
 77
     0
 78
     0
  0
ENDTAB
  0
TABLE
  2
LTYPE
 70
     3
  0
LTYPE
  2
CONTINUOUS
 70
     0
  3
Solid line
 72
    65
 73
     0
 40
0.0
  0
LTYPE
  2
ACAD_ISO08W100
 70
     0
  3
ISO long-dash short-dash ____ __ ____ __ ____ _
 72
    65
 73
     4
 40
36.0
 49
24.0
 49
-3.0
 49
6.0
 49
-3.0
  0
LTYPE
  2
ACAD_ISO02W100
 70
     0
  3
ISO dash __ __ __ __ __ __ __ __ __ __ __ __ __
 72
    65
 73
     2
 40
15.0
 49
12.0
 49
-3.0
  0
ENDTAB
  0
TABLE
  2
LAYER
 70
     8
  0
LAYER
  2
0
 70
     0
 62
     7
  6
CONTINUOUS
  0
LAYER
  2
OBJECT
 70
     0
 62
     4
  6
CONTINUOUS
  0
LAYER
  2
DEFPOINTS
 70
     0
 62
     7
  6
CONTINUOUS
  0
LAYER
  2
DIM
 70
     0
 62
     7
  6
CONTINUOUS
  0
LAYER
  2
HIDDEN
 70
     0
 62
     2
  6
ACAD_ISO02W100
  0
LAYER
  2
CENTER
 70
     0
 62
     2
  6
ACAD_ISO08W100
  0
LAYER
  2
DOTS
 70
     0
 62
     1
  6
CONTINUOUS
  0
LAYER
  2
SLIM
 70
     0
 62
     2
  6
CONTINUOUS
  0
ENDTAB
  0
TABLE
  2
STYLE
 70
     2
  0
STYLE
  2
STANDARD
 70
     0
 40
0.0
 41
0.75
 50
0.0
 71
     0
 42
4.0
  3
simplex.shx
  4
bigfont.shx
  0
ENDTAB
  0
TABLE
  2
VIEW
 70
     0
  0
ENDTAB
  0
TABLE
  2
UCS
 70
     0
  0
ENDTAB
  0
TABLE
  2
APPID
 70
    18
  0
APPID
  2
ACAD
 70
     0
  0
APPID
  2
ACADANNOTATIVE
 70
     0
  0
APPID
  2
ACAD_PSEXT
 70
     0
  0
APPID
  2
ACAD_EXEMPT_FROM_CAD_STANDARDS
 70
     0
  0
APPID
  2
ACAECLAYERSTANDARD
 70
     0
  0
APPID
  2
ACAUTHENVIRON
 70
     0
  0
APPID
  2
ACDBDYNAMICBLOCKTRUENAME
 70
     0
  0
APPID
  2
ACDBDYNAMICBLOCKGUID
 70
     0
  0
APPID
  2
ACDBBLOCKREPETAG
 70
     0
  0
APPID
  2
ACDBBLOCKREPBTAG
 70
     0
  0
APPID
  2
ACAD_NAV_VCDISPLAY
 70
     0
  0
APPID
  2
ACAD_DSTYLE_DIMRADIAL_EXTENSION
 70
     0
  0
APPID
  2
ACAD_DSTYLE_DIMJAG
 70
     0
  0
APPID
  2
ACAD_DSTYLE_DIMTALN
 70
     0
  0
APPID
  2
ACADANNOPO
 70
     0
  0
APPID
  2
GRADIENTCOLOR1ACI
 70
     0
  0
APPID
  2
GRADIENTCOLOR2ACI
 70
     0
  0
APPID
  2
ACAD_MLEADERVER
 70
     0
  0
ENDTAB
  0
TABLE
  2
DIMSTYLE
 70
     3
  0
DIMSTYLE
  2
STANDARD
 70
     0
  3

  4

  5

  6

  7

 40
1.0
 41
0.18
 42
0.0625
 43
0.38
 44
0.18
 45
0.0
 46
0.0
 47
0.0
 48
0.0
140
0.18
141
0.09
142
0.0
143
25.399999999999999
144
1.0
145
0.0
146
1.0
147
0.09
 71
     0
 72
     0
 73
     1
 74
     1
 75
     0
 76
     0
 77
     0
 78
     0
170
     0
171
     2
172
     0
173
     0
174
     0
175
     0
176
     0
177
     0
178
     0
  0
DIMSTYLE
  2
S10
 70
     0
  3

  4

  5

  6

  7

 40
10.0
 41
2.0
 42
1.0
 43
10.0
 44
1.0
 45
0.0
 46
0.0
 47
0.0
 48
0.0
140
3.2000000000000002
141
0.0
142
0.0
143
25.399999999999999
144
1.0
145
0.0
146
1.0
147
0.9
 71
     0
 72
     0
 73
     0
 74
     0
 75
     0
 76
     0
 77
     1
 78
     8
170
     0
171
     2
172
     1
173
     0
174
     0
175
     0
176
   256
177
   256
178
   256
  0
ENDTAB
  0
ENDSEC
  0
SECTION
  2
BLOCKS
  0
BLOCK
  8
0
  2
$MODEL_SPACE
 70
     0
 10
0.0
 20
0.0
 30
0.0
  3
$MODEL_SPACE
  1

  0
ENDBLK
  5
12D16D
  8
0
  0
BLOCK
 67
     1
  8
0
  2
$PAPER_SPACE
 70
     0
 10
0.0
 20
0.0
 30
0.0
  3
$PAPER_SPACE
  1

  0
ENDBLK
  5
12D169
 67
     1
  8
0
  0
BLOCK
  8
0
  2
_OPEN30
 70
     0
 10
0.0
 20
0.0
 30
0.0
  3
_OPEN30
  1

  0
LINE
  5
202
  8
0
  6
BYBLOCK
 62
     0
 10
-1.0
 20
0.26794919
 30
0.0
 11
0.0
 21
0.0
 31
0.0
  0
LINE
  5
203
  8
0
  6
BYBLOCK
 62
     0
 10
0.0
 20
0.0
 30
0.0
 11
-1.0
 21
-0.26794919
 31
0.0
  0
LINE
  5
204
  8
0
  6
BYBLOCK
 62
     0
 10
0.0
 20
0.0
 30
0.0
 11
-1.0
 21
0.0
 31
0.0
  0
ENDBLK
  5
206
  8
0
  0
BLOCK
  8
0
  2
*U311
 70
     1
 10
0.0
 20
0.0
 30
0.0
  3
*U311
  1

  0
TEXT
  5
12D06B
  8
SLIM
 10
146.5714285714285
 20
-812.99999999998511
 30
0.0
 40
26.0
  1
75Z
  0
ENDBLK
  5
12D06D
  8
0
  0
BLOCK
  8
0
  2
*U312
 70
     1
 10
0.0
 20
0.0
 30
0.0
  3
*U312
  1

  0
TEXT
  5
12D06F
  8
SLIM
 10
254.19036330949919
 20
-812.99999999998511
 30
0.0
 40
26.0
  1
通気
  0
ENDBLK
  5
12D071
  8
0
  0
BLOCK
  8
0
  2
*U313
 70
     1
 10
0.0
 20
0.0
 30
0.0
  3
*U313
  1

  0
TEXT
  5
12D073
  8
SLIM
 10
158.95238095238091
 20
-532.99999999999795
 30
0.0
 40
26.0
  1
75
  0
ENDBLK
  5
12D075
  8
0
  0
BLOCK
  8
0
  2
*U314
 70
     1
 10
0.0
 20
0.0
 30
0.0
  3
*U314
  1

  0
TEXT
  5
12D077
  8
SLIM
 10
506.5714285714285
 20
-348.99999999998522
 30
0.0
 40
26.0
  1
75Z
  0
ENDBLK
  5
12D079
  8
0
  0
BLOCK
  8
0
  2
*U315
 70
     1
 10
0.0
 20
0.0
 30
0.0
  3
*U315
  1

  0
TEXT
  5
12D07B
  8
SLIM
 10
614.19036330949905
 20
-348.99999999998522
 30
0.0
 40
26.0
  1
通気
  0
ENDBLK
  5
12D07D
  8
0
  0
BLOCK
  8
0
  2
*U316
 70
     1
 10
0.0
 20
0.0
 30
0.0
  3
*U316
  1

  0
TEXT
  5
12D07F
  8
SLIM
 10
518.95238095238085
 20
-68.999999999997954
 30
0.0
 40
26.0
  1
65
  0
ENDBLK
  5
12D081
  8
0
  0
BLOCK
  8
0
  2
*U317
 70
     1
 10
0.0
 20
0.0
 30
0.0
  3
*U317
  1

  0
TEXT
  5
12D083
  8
SLIM
 10
146.5714285714285
 20
-348.99999999998522
 30
0.0
 40
26.0
  1
75Z
  0
ENDBLK
  5
12D085
  8
0
  0
BLOCK
  8
0
  2
*U318
 70
     1
 10
0.0
 20
0.0
 30
0.0
  3
*U318
  1

  0
TEXT
  5
12D087
  8
SLIM
 10
254.19036330949919
 20
-348.99999999998522
 30
0.0
 40
26.0
  1
通気
  0
ENDBLK
  5
12D089
  8
0
  0
BLOCK
  8
0
  2
*U319
 70
     1
 10
0.0
 20
0.0
 30
0.0
  3
*U319
  1

  0
TEXT
  5
12D08B
  8
SLIM
 10
158.95238095238091
 20
-68.999999999997954
 30
0.0
 40
26.0
  1
50
  0
ENDBLK
  5
12D08D
  8
0
  0
BLOCK
  8
0
  2
*U320
 70
     1
 10
0.0
 20
0.0
 30
0.0
  3
*U320
  1

  0
TEXT
  5
12D0F2
  8
DIM
 10
2199.479620594459
 20
-3184.1428571428528
 30
0.0
 40
32.0
  1
A
 50
90.0
 41
0.75
  0
ENDBLK
  5
12D0F4
  8
0
  0
BLOCK
  8
0
  2
*U321
 70
     1
 10
0.0
 20
0.0
 30
0.0
  3
*U321
  1

  0
TEXT
  5
12D0F6
  8
DIM
 10
2197.840928403733
 20
-3565.9999999999959
 30
0.0
 40
32.0
  1
B
 50
90.0
 41
0.75
  0
ENDBLK
  5
12D0F8
  8
0
  0
BLOCK
  8
0
  2
*U322
 70
     1
 10
0.0
 20
0.0
 30
0.0
  3
*U322
  1

  0
TEXT
  5
12D0FA
  8
DIM
 10
2056.4285714285711
 20
-3048.2081219844449
 30
0.0
 40
32.0
  1
C
 41
0.75
  0
ENDBLK
  5
12D0FC
  8
0
  0
ENDSEC
  0
SECTION
  2
ENTITIES
  0
LINE
  5
11E11D
  8
OBJECT
 10
1825.0
 20
-3579.9999999999959
 30
0.0
 11
4575.0
 21
-3579.9999999999959
 31
0.0
  0
LINE
  5
11E11F
  8
SLIM
 10
2616.0
 20
-2637.50001604727
 30
0.0
 11
2616.0
 21
-2967.50001604727
 31
0.0
  0
LINE
  5
11E120
  8
SLIM
 10
2740.0
 20
-2637.50001604727
 30
0.0
 11
2740.0
 21
-2967.50001604727
 31
0.0
  0
LINE
  5
11E121
  8
SLIM
 10
2870.0
 20
-2697.50001604727
 30
0.0
 11
2870.0
 21
-2967.50001604727
 31
0.0
  0
LINE
  5
11E122
  8
SLIM
 10
3000.0
 20
-2697.50001604727
 30
0.0
 11
3000.0
 21
-2967.50001604727
 31
0.0
  0
LINE
  5
11E123
  8
SLIM
 10
3130.0
 20
-2967.50001604727
 30
0.0
 11
3130.0
 21
-2637.50001604727
 31
0.0
  0
LINE
  5
11E125
  8
SLIM
 10
3130.0
 20
-2637.50001604727
 30
0.0
 11
2616.0
 21
-2637.50001604727
 31
0.0
  0
LINE
  5
11E126
  8
SLIM
 10
3130.0
 20
-2697.50001604727
 30
0.0
 11
2740.0
 21
-2697.50001604727
 31
0.0
  0
LINE
  5
11E127
  8
SLIM
 10
3130.0
 20
-2757.50001604727
 30
0.0
 11
2616.0
 21
-2757.50001604727
 31
0.0
  0
LINE
  5
11E128
  8
SLIM
 10
3130.0
 20
-2827.50001604727
 30
0.0
 11
2616.0
 21
-2827.50001604727
 31
0.0
  0
LINE
  5
11E129
  8
SLIM
 10
3130.0
 20
-2897.50001604727
 30
0.0
 11
2616.0
 21
-2897.50001604727
 31
0.0
  0
LINE
  5
11E12A
  8
SLIM
 10
3130.0
 20
-2967.50001604727
 30
0.0
 11
2616.0
 21
-2967.50001604727
 31
0.0
  0
LINE
  5
11E13F
  8
SLIM
 10
2740.0
 20
-2757.50001604727
 30
0.0
 11
2615.9999722746579
 21
-2637.5
 31
0.0
  0
CIRCLE
  5
12C32B
  8
OBJECT
 10
12000.0
 20
-695.99999999999955
 30
0.0
 40
62.0
1001
ACDBBLOCKREPETAG
1070
     1
1071
        0
1005
12C32B
  0
LINE
  5
12C32C
  8
CENTER
 10
12000.0
 20
-769.99999999999955
 30
0.0
 11
12000.0
 21
-613.99999999999966
 31
0.0
1001
ACDBBLOCKREPETAG
1070
     1
1071
        0
1005
12C32C
  0
LINE
  5
12C32D
  8
OBJECT
 10
11930.0
 20
-633.99999999999955
 30
0.0
 11
12070.0
 21
-633.99999999999955
 31
0.0
1001
ACDBBLOCKREPETAG
1070
     1
1071
        1
1005
12C32D
  0
LINE
  5
12C32E
  8
OBJECT
 10
11930.0
 20
-757.99999999999955
 30
0.0
 11
11930.0
 21
-769.99999999999955
 31
0.0
1001
ACDBBLOCKREPETAG
1070
     1
1071
        2
1005
12C32E
  0
LINE
  5
12C32F
  8
OBJECT
 10
11930.0
 20
-769.99999999999955
 30
0.0
 11
12070.0
 21
-769.99999999999955
 31
0.0
1001
ACDBBLOCKREPETAG
1070
     1
1071
        3
1005
12C32F
  0
LINE
  5
12C330
  8
OBJECT
 10
12070.0
 20
-769.99999999999955
 30
0.0
 11
12070.0
 21
-757.99999999999955
 31
0.0
1001
ACDBBLOCKREPETAG
1070
     1
1071
        4
1005
12C330
  0
LINE
  5
12C331
  8
OBJECT
 10
12070.0
 20
-757.99999999999955
 30
0.0
 11
11930.0
 21
-757.99999999999955
 31
0.0
1001
ACDBBLOCKREPETAG
1070
     1
1071
        5
1005
12C331
  0
ARC
  5
12C332
  8
OBJECT
 10
12435.038438994679
 20
-998.60813684682694
 30
0.0
 40
519.48776673616965
 50
135.42350667430969
 51
138.50052655621499
1001
ACDBBLOCKREPETAG
1070
     1
1071
        9
1005
12C332
  0
ARC
  5
12C333
  8
OBJECT
 10
12435.038438994679
 20
-393.39186315317193
 30
0.0
 40
519.48776673616965
 50
221.49947344378501
 51
224.57649332569039
1001
ACDBBLOCKREPETAG
1070
     1
1071
       10
1005
12C333
  0
ARC
  5
12C334
  8
OBJECT
 10
11564.961561005321
 20
-998.60813684682694
 30
0.0
 40
519.48776673616965
 50
41.499473443784993
 51
44.576493325690237
1001
ACDBBLOCKREPETAG
1070
     1
1071
       11
1005
12C334
  0
ARC
  5
12C335
  8
OBJECT
 10
11564.961561005321
 20
-393.39186315317193
 30
0.0
 40
519.48776673616965
 50
315.42350667430981
 51
318.50052655621488
1001
ACDBBLOCKREPETAG
1070
     1
1071
       12
1005
12C335
  0
LINE
  5
12C336
  8
OBJECT
 10
12047.5
 20
-628.99999999999955
 30
0.0
 11
11952.5
 21
-628.99999999999955
 31
0.0
1001
ACDBBLOCKREPETAG
1070
     1
1071
       24
1005
12C336
  0
ARC
  5
12C337
  8
OBJECT
 10
11952.5
 20
-631.99999999999955
 30
0.0
 40
3.0
 50
90.0
 51
180.0
1001
ACDBBLOCKREPETAG
1070
     1
1071
       25
1005
12C337
  0
LINE
  5
12C338
  8
OBJECT
 10
11949.5
 20
-631.99999999999955
 30
0.0
 11
11949.5
 21
-633.99999999999955
 31
0.0
1001
ACDBBLOCKREPETAG
1070
     1
1071
       26
1005
12C338
  0
LINE
  5
12C339
  8
OBJECT
 10
12050.5
 20
-631.99999999999955
 30
0.0
 11
12050.5
 21
-633.99999999999955
 31
0.0
1001
ACDBBLOCKREPETAG
1070
     1
1071
       27
1005
12C339
  0
ARC
  5
12C33A
  8
OBJECT
 10
12047.5
 20
-631.99999999999955
 30
0.0
 40
3.0
 50
0.0
 51
90.0
1001
ACDBBLOCKREPETAG
1070
     1
1071
       28
1005
12C33A
  0
POINT
  5
12C33B
  8
DOTS
 10
12000.0
 20
-754.99999999999955
 30
0.0
1001
ACDBBLOCKREPETAG
1070
     1
1071
       87
1005
12C33B
  0
LINE
  5
12C33C
  8
SLIM
 10
11963.217182668241
 20
-137.99999999999909
 30
0.0
 11
11969.921507996291
 21
-131.29567467194681
 31
0.0
1001
ACDBBLOCKREPETAG
1070
     1
1071
      157
1005
0
1001
GRADIENTCOLOR1ACI
1070
     5
1001
GRADIENTCOLOR2ACI
1070
     2
1001
ACAD
1010
0.0
1020
0.0
1030
0.0
  0
LINE
  5
12C33D
  8
SLIM
 10
11972.19743878931
 20
-137.99999999999909
 30
0.0
 11
11983.31883633275
 21
-126.87860245655401
 31
0.0
1001
GRADIENTCOLOR1ACI
1070
     5
1001
GRADIENTCOLOR2ACI
1070
     2
1001
ACAD
1010
0.0
1020
0.0
1030
0.0
1001
ACDBBLOCKREPETAG
1070
     1
1071
      160
1005
12C33D
  0
LINE
  5
12C33E
  8
SLIM
 10
11981.48493728876
 20
-137.6927576216126
 30
0.0
 11
11993.9318052486
 21
-125.245889661777
 31
0.0
1001
GRADIENTCOLOR1ACI
1070
     5
1001
GRADIENTCOLOR2ACI
1070
     2
1001
ACAD
1010
0.0
1020
0.0
1030
0.0
1001
ACDBBLOCKREPETAG
1070
     1
1071
      161
1005
12C33E
  0
LINE
  5
12C33F
  8
SLIM
 10
11992.75265682803
 20
-135.40529420341099
 30
0.0
 11
12000.0
 21
-128.1579510314458
 31
0.0
1001
GRADIENTCOLOR1ACI
1070
     5
1001
GRADIENTCOLOR2ACI
1070
     2
1001
ACAD
1010
0.0
1020
0.0
1030
0.0
1001
ACDBBLOCKREPETAG
1070
     1
1071
      162
1005
12C33F
  0
LINE
  5
12C340
  8
SLIM
 10
12000.0
 20
-128.1579510314458
 30
0.0
 11
12003.094100787839
 21
-125.0638502435924
 31
0.0
1001
GRADIENTCOLOR1ACI
1070
     5
1001
GRADIENTCOLOR2ACI
1070
     2
1001
ACAD
1010
0.0
1020
0.0
1030
0.0
1001
ACDBBLOCKREPETAG
1070
     1
1071
      163
1005
12C340
  0
LINE
  5
12C341
  8
SLIM
 10
12002.10414122347
 20
-135.03406592904389
 30
0.0
 11
12011.28442576865
 21
-125.85378138386341
 31
0.0
1001
GRADIENTCOLOR1ACI
1070
     5
1001
GRADIENTCOLOR2ACI
1070
     2
1001
ACAD
1010
0.0
1020
0.0
1030
0.0
1001
ACDBBLOCKREPETAG
1070
     1
1071
      164
1005
12C341
  0
LINE
  5
12C342
  8
SLIM
 10
12010.297585520921
 20
-135.82087775265759
 30
0.0
 11
12018.73958846552
 21
-127.3788748080627
 31
0.0
1001
GRADIENTCOLOR1ACI
1070
     5
1001
GRADIENTCOLOR2ACI
1070
     2
1001
ACAD
1010
0.0
1020
0.0
1030
0.0
1001
ACDBBLOCKREPETAG
1070
     1
1071
      165
1005
12C342
  0
LINE
  5
12C343
  8
SLIM
 10
12017.655079364229
 20
-137.4436400304258
 30
0.0
 11
12025.595886626959
 21
-129.50283276769261
 31
0.0
1001
GRADIENTCOLOR1ACI
1070
     5
1001
GRADIENTCOLOR2ACI
1070
     2
1001
ACAD
1010
0.0
1020
0.0
1030
0.0
1001
ACDBBLOCKREPETAG
1070
     1
1071
      166
1005
12C343
  0
LINE
  5
12C344
  8
SLIM
 10
12026.07897551572
 20
-137.99999999999909
 30
0.0
 11
12031.9385859461
 21
-132.1403895696169
 31
0.0
1001
GRADIENTCOLOR1ACI
1070
     5
1001
GRADIENTCOLOR2ACI
1070
     2
1001
ACAD
1010
0.0
1020
0.0
1030
0.0
1001
ACDBBLOCKREPETAG
1070
     1
1071
      167
1005
12C344
  0
LINE
  5
12C345
  8
SLIM
 10
12035.059231636789
 20
-137.99999999999909
 30
0.0
 11
12037.82336543762
 21
-135.23586619916779
 31
0.0
1001
GRADIENTCOLOR1ACI
1070
     5
1001
GRADIENTCOLOR2ACI
1070
     2
1001
ACAD
1010
0.0
1020
0.0
1030
0.0
1001
ACDBBLOCKREPETAG
1070
     1
1071
      168
1005
12C345
  0
CIRCLE
  5
12C346
  8
OBJECT
 10
12000.0
 20
-199.99999999999909
 30
0.0
 40
65.0
1001
ACDBBLOCKREPETAG
1070
     1
1071
       84
1005
12C346
  0
CIRCLE
  5
12C347
  8
OBJECT
 10
12000.0
 20
-199.99999999999909
 30
0.0
 40
50.5
1001
ACDBBLOCKREPETAG
1070
     1
1071
       86
1005
12C347
  0
LINE
  5
12C348
  8
OBJECT
 10
12070.0
 20
-137.99999999999909
 30
0.0
 11
12019.519221295939
 21
-137.99999999999909
 31
0.0
1001
ACDBBLOCKREPETAG
1070
     1
1071
       87
1005
12C348
  0
LINE
  5
12C349
  8
OBJECT
 10
11930.0
 20
-137.99999999999909
 30
0.0
 11
11980.48077870405
 21
-137.99999999999909
 31
0.0
1001
ACDBBLOCKREPETAG
1070
     1
1071
       88
1005
12C349
  0
LINE
  5
12C34A
  8
OBJECT
 10
11930.0
 20
-261.99999999999909
 30
0.0
 11
11938.0
 21
-261.99999999999909
 31
0.0
1001
ACDBBLOCKREPETAG
1070
     1
1071
       89
1005
12C34A
  0
LINE
  5
12C34B
  8
OBJECT
 10
11938.0
 20
-269.99999999999909
 30
0.0
 11
11938.0
 21
-261.99999999999909
 31
0.0
1001
ACDBBLOCKREPETAG
1070
     1
1071
       90
1005
12C34B
  0
LINE
  5
12C34C
  8
OBJECT
 10
12070.0
 20
-261.99999999999909
 30
0.0
 11
12062.0
 21
-261.99999999999909
 31
0.0
1001
ACDBBLOCKREPETAG
1070
     1
1071
       91
1005
12C34C
  0
LINE
  5
12C34D
  8
OBJECT
 10
12062.0
 20
-269.99999999999909
 30
0.0
 11
12062.0
 21
-261.99999999999909
 31
0.0
1001
ACDBBLOCKREPETAG
1070
     1
1071
       92
1005
12C34D
  0
LINE
  5
12C34E
  8
CENTER
 10
11930.0
 20
-199.99999999999909
 30
0.0
 11
12070.0
 21
-199.99999999999909
 31
0.0
1001
ACDBBLOCKREPETAG
1070
     1
1071
       93
1005
12C34E
  0
LINE
  5
12C34F
  8
CENTER
 10
12000.0
 20
-269.99999999999909
 30
0.0
 11
12000.0
 21
-109.9999999999991
 31
0.0
1001
ACDBBLOCKREPETAG
1070
     1
1071
       94
1005
12C34F
  0
LINE
  5
12C350
  8
OBJECT
 10
11954.03805922287
 20
-245.96194077712289
 30
0.0
 11
11938.0
 21
-261.99999999999909
 31
0.0
1001
ACDBBLOCKREPETAG
1070
     1
1071
      106
1005
12C350
  0
LINE
  5
12C351
  8
OBJECT
 10
12045.96194077713
 20
-245.96194077712289
 30
0.0
 11
12062.0
 21
-261.99999999999909
 31
0.0
1001
ACDBBLOCKREPETAG
1070
     1
1071
      107
1005
12C351
  0
ARC
  5
12C352
  8
OBJECT
 10
12000.0
 20
-199.99999999999909
 30
0.0
 40
75.0
 50
55.757831297238091
 51
124.2421687027619
1001
ACDBBLOCKREPETAG
1070
     1
1071
      108
1005
12C352
  0
POINT
  5
12C353
  8
DOTS
 10
12000.0
 20
-199.99999999999909
 30
0.0
1001
ACDBBLOCKREPETAG
1070
     1
1071
      159
1005
12C353
  0
LINE
  5
12C354
  8
OBJECT
 10
11807.0
 20
-582.99999999999955
 30
0.0
 11
11800.000000000009
 21
-582.99999999999955
 31
0.0
1001
ACDBBLOCKREPETAG
1070
     1
1071
      324
1005
12C354
  0
LINE
  5
12C355
  8
OBJECT
 10
11800.000000000009
 20
-582.99999999999955
 30
0.0
 11
11800.000000000009
 21
-706.99999999999955
 31
0.0
1001
ACDBBLOCKREPETAG
1070
     1
1071
      325
1005
12C355
  0
LINE
  5
12C356
  8
OBJECT
 10
11924.000000000009
 20
-653.35026377572683
 30
0.0
 11
11924.000000000009
 21
-755.00000000000034
 31
0.0
1001
ACDBBLOCKREPETAG
1070
     1
1071
      326
1005
12C356
  0
LINE
  5
12C357
  8
OBJECT
 10
11800.000000000009
 20
-706.99999999999955
 30
0.0
 11
11807.0
 21
-706.99999999999955
 31
0.0
1001
ACDBBLOCKREPETAG
1070
     1
1071
      327
1005
12C357
  0
LINE
  5
12C358
  8
OBJECT
 10
11807.0
 20
-706.99999999999955
 30
0.0
 11
11807.0
 21
-582.99999999999955
 31
0.0
1001
ACDBBLOCKREPETAG
1070
     1
1071
      328
1005
12C358
  0
LINE
  5
12C359
  8
CENTER
 10
11875.000000000009
 20
-645.00000000000045
 30
0.0
 11
11785.0
 21
-644.99999999999955
 31
0.0
1001
ACDBBLOCKREPETAG
1070
     1
1071
      329
1005
12C359
  0
LINE
  5
12C35A
  8
OBJECT
 10
11930.00000000002
 20
-757.99999999999955
 30
0.0
 11
11927.0
 21
-758.00000000000034
 31
0.0
1001
ACDBBLOCKREPETAG
1070
     1
1071
      330
1005
12C35A
  0
ARC
  5
12C35B
  8
OBJECT
 10
11927.0
 20
-755.00000000000034
 30
0.0
 40
3.0
 50
180.0
 51
270.0
1001
ACDBBLOCKREPETAG
1070
     1
1071
      331
1005
12C35B
  0
LINE
  5
12C35C
  8
OBJECT
 10
11807.0
 20
-585.99999999999955
 30
0.0
 11
11843.000000000009
 21
-586.00000000000045
 31
0.0
1001
ACDBBLOCKREPETAG
1070
     1
1071
      332
1005
12C35C
  0
LINE
  5
12C35D
  8
OBJECT
 10
11843.000000000009
 20
-586.00000000000045
 30
0.0
 11
11843.000000000009
 21
-704.00000000000045
 31
0.0
1001
ACDBBLOCKREPETAG
1070
     1
1071
      333
1005
12C35D
  0
LINE
  5
12C35E
  8
OBJECT
 10
11847.0
 20
-590.50000000000045
 30
0.0
 11
11847.0
 21
-699.50000000000045
 31
0.0
1001
ACDBBLOCKREPETAG
1070
     1
1071
      334
1005
12C35E
  0
LINE
  5
12C35F
  8
OBJECT
 10
11847.0
 20
-590.50000000000045
 30
0.0
 11
11860.000000000009
 21
-590.50000000000045
 31
0.0
1001
ACDBBLOCKREPETAG
1070
     1
1071
      335
1005
12C35F
  0
LINE
  5
12C360
  8
OBJECT
 10
11843.000000000009
 20
-704.00000000000045
 30
0.0
 11
11807.0
 21
-703.99999999999955
 31
0.0
1001
ACDBBLOCKREPETAG
1070
     1
1071
      336
1005
12C360
  0
LINE
  5
12C361
  8
OBJECT
 10
11843.000000000009
 20
-586.00000000000045
 30
0.0
 11
11847.0
 21
-590.50000000000045
 31
0.0
1001
ACDBBLOCKREPETAG
1070
     1
1071
      337
1005
12C361
  0
LINE
  5
12C362
  8
OBJECT
 10
11860.000000000009
 20
-590.50000000000045
 30
0.0
 11
11860.000000000009
 21
-675.7449182792875
 31
0.0
1001
ACDBBLOCKREPETAG
1070
     1
1071
      338
1005
12C362
  0
ARC
  5
12C363
  8
OBJECT
 10
11857.20000000001
 20
-685.00000000000045
 30
0.0
 40
85.0
 50
36.869897645890923
 51
88.112268108168848
1001
ACDBBLOCKREPETAG
1070
     1
1071
      339
1005
12C363
  0
LINE
  5
12C364
  8
HIDDEN
 10
11852.0
 20
-600.50000000000057
 30
0.0
 11
11852.0
 21
-689.50000000000045
 31
0.0
1001
ACDBBLOCKREPETAG
1070
     1
1071
      341
1005
12C364
  0
LINE
  5
12C365
  8
OBJECT
 10
11924.000000000009
 20
-751.07945073181725
 30
0.0
 11
11853.368680078969
 21
-699.50000000000045
 31
0.0
1001
ACDBBLOCKREPETAG
1070
     1
1071
      342
1005
12C365
  0
LINE
  5
12C366
  8
OBJECT
 10
11930.00000000002
 20
-633.99999999999955
 30
0.0
 11
11925.20000000001
 21
-633.99999999999955
 31
0.0
1001
ACDBBLOCKREPETAG
1070
     1
1071
      343
1005
12C366
  0
LINE
  5
12C367
  8
OBJECT
 10
11924.000000000009
 20
-653.35026377572945
 30
0.0
 11
11925.20000000001
 21
-633.99999999999955
 31
0.0
1001
ACDBBLOCKREPETAG
1070
     1
1071
      344
1005
12C367
  0
LINE
  5
12C368
  8
OBJECT
 10
11847.0
 20
-699.50000000000045
 30
0.0
 11
11853.368680078969
 21
-699.50000000000045
 31
0.0
1001
ACDBBLOCKREPETAG
1070
     1
1071
      345
1005
12C368
  0
LINE
  5
12C369
  8
OBJECT
 10
11843.000000000009
 20
-704.00000000000045
 30
0.0
 11
11847.0
 21
-699.50000000000045
 31
0.0
1001
ACDBBLOCKREPETAG
1070
     1
1071
      346
1005
12C369
  0
LINE
  5
12C36A
  8
OBJECT
 10
11807.0
 20
-261.99999999999909
 30
0.0
 11
11800.000000000009
 21
-261.99999999999909
 31
0.0
1001
ACDBBLOCKREPETAG
1070
     1
1071
      376
1005
12C36A
  0
LINE
  5
12C36B
  8
OBJECT
 10
11800.000000000009
 20
-261.99999999999909
 30
0.0
 11
11800.000000000009
 21
-137.99999999999909
 31
0.0
1001
ACDBBLOCKREPETAG
1070
     1
1071
      377
1005
12C36B
  0
LINE
  5
12C36C
  8
OBJECT
 10
11800.000000000009
 20
-137.99999999999909
 30
0.0
 11
11807.0
 21
-137.99999999999909
 31
0.0
1001
ACDBBLOCKREPETAG
1070
     1
1071
      378
1005
12C36C
  0
LINE
  5
12C36D
  8
OBJECT
 10
11807.0
 20
-137.99999999999909
 30
0.0
 11
11807.0
 21
-261.99999999999909
 31
0.0
1001
ACDBBLOCKREPETAG
1070
     1
1071
      379
1005
12C36D
  0
LINE
  5
12C36E
  8
CENTER
 10
11785.0
 20
-199.99999999999909
 30
0.0
 11
11930.0
 21
-199.99999999999909
 31
0.0
1001
ACDBBLOCKREPETAG
1070
     1
1071
      380
1005
12C36E
  0
LINE
  5
12C36F
  8
OBJECT
 10
11860.00002503581
 20
-154.9999999999954
 30
0.0
 11
11924.0
 21
-154.99999999999909
 31
0.0
1001
ACDBBLOCKREPETAG
1070
     1
1071
      381
1005
12C36F
  0
LINE
  5
12C370
  8
OBJECT
 10
11860.00002503581
 20
-244.99999999999909
 30
0.0
 11
11924.0
 21
-244.99999999999909
 31
0.0
1001
ACDBBLOCKREPETAG
1070
     1
1071
      382
1005
12C370
  0
LINE
  5
12C371
  8
OBJECT
 10
11807.0
 20
-258.99999999999909
 30
0.0
 11
11843.000000000009
 21
-258.99999999999909
 31
0.0
1001
ACDBBLOCKREPETAG
1070
     1
1071
      383
1005
12C371
  0
LINE
  5
12C372
  8
OBJECT
 10
11843.000000000009
 20
-258.99999999999909
 30
0.0
 11
11843.000000000009
 21
-140.99999999999909
 31
0.0
1001
ACDBBLOCKREPETAG
1070
     1
1071
      384
1005
12C372
  0
LINE
  5
12C373
  8
OBJECT
 10
11843.000000000009
 20
-140.99999999999909
 30
0.0
 11
11807.0
 21
-140.99999999999909
 31
0.0
1001
ACDBBLOCKREPETAG
1070
     1
1071
      385
1005
12C373
  0
LINE
  5
12C374
  8
OBJECT
 10
11847.0
 20
-254.49999999999909
 30
0.0
 11
11860.000000000009
 21
-254.49999999999909
 31
0.0
1001
ACDBBLOCKREPETAG
1070
     1
1071
      386
1005
12C374
  0
LINE
  5
12C375
  8
OBJECT
 10
11860.000000000009
 20
-145.49999999999909
 30
0.0
 11
11847.0
 21
-145.49999999999909
 31
0.0
1001
ACDBBLOCKREPETAG
1070
     1
1071
      387
1005
12C375
  0
LINE
  5
12C376
  8
OBJECT
 10
11847.0
 20
-145.49999999999909
 30
0.0
 11
11847.0
 21
-254.49999999999909
 31
0.0
1001
ACDBBLOCKREPETAG
1070
     1
1071
      388
1005
12C376
  0
LINE
  5
12C377
  8
OBJECT
 10
11843.000000000009
 20
-258.99999999999909
 30
0.0
 11
11847.0
 21
-254.49999999999909
 31
0.0
1001
ACDBBLOCKREPETAG
1070
     1
1071
      389
1005
12C377
  0
LINE
  5
12C378
  8
OBJECT
 10
11843.000000000009
 20
-140.99999999999909
 30
0.0
 11
11847.0
 21
-145.49999999999909
 31
0.0
1001
ACDBBLOCKREPETAG
1070
     1
1071
      390
1005
12C378
  0
LINE
  5
12C379
  8
OBJECT
 10
11927.0
 20
-261.99999999999909
 30
0.0
 11
11930.0
 21
-261.99999999999909
 31
0.0
1001
ACDBBLOCKREPETAG
1070
     1
1071
      391
1005
12C379
  0
ARC
  5
12C37A
  8
OBJECT
 10
11927.0
 20
-258.99999999999909
 30
0.0
 40
3.0
 50
180.0
 51
270.0
1001
ACDBBLOCKREPETAG
1070
     1
1071
      392
1005
12C37A
  0
LINE
  5
12C37B
  8
OBJECT
 10
11930.0
 20
-137.99999999999909
 30
0.0
 11
11927.0
 21
-137.99999999999909
 31
0.0
1001
ACDBBLOCKREPETAG
1070
     1
1071
      393
1005
12C37B
  0
ARC
  5
12C37C
  8
OBJECT
 10
11927.0
 20
-140.99999999999909
 30
0.0
 40
3.0
 50
90.0
 51
180.0
1001
ACDBBLOCKREPETAG
1070
     1
1071
      394
1005
12C37C
  0
LINE
  5
12C37D
  8
OBJECT
 10
11924.0
 20
-140.99999999999909
 30
0.0
 11
11924.0
 21
-189.6772096796403
 31
0.0
1001
ACDBBLOCKREPETAG
1070
     1
1071
      395
1005
12C37D
  0
LINE
  5
12C37E
  8
OBJECT
 10
11924.0
 20
-210.3227903203578
 30
0.0
 11
11924.0
 21
-258.99999999999909
 31
0.0
1001
ACDBBLOCKREPETAG
1070
     1
1071
      396
1005
12C37E
  0
LINE
  5
12C37F
  8
HIDDEN
 10
11852.0
 20
-244.49999999999909
 30
0.0
 11
11852.0
 21
-155.49999999999909
 31
0.0
1001
ACDBBLOCKREPETAG
1070
     1
1071
      397
1005
12C37F
  0
LINE
  5
12C380
  8
OBJECT
 10
11860.00002503581
 20
-145.50004907618759
 30
0.0
 11
11860.00002503581
 21
-254.50004907618771
 31
0.0
1001
ACDBBLOCKREPETAG
1070
     1
1071
      399
1005
12C380
  0
ARC
  5
12C381
  8
OBJECT
 10
11880.19999999997
 20
-199.99999999999909
 30
0.0
 40
45.000000000000547
 50
270.0
 51
90.0
1001
ACDBBLOCKREPETAG
1070
     1
1071
      400
1005
12C381
  0
LINE
  5
12C382
  8
CENTER
 10
12000.0
 20
-290.99999999999898
 30
0.0
 11
12000.0
 21
-269.99999999999909
 31
0.0
1001
ACDBBLOCKREPETAG
1070
     1
1071
        0
1005
12C382
  0
LINE
  5
12C383
  8
OBJECT
 10
12062.0
 20
-273.0
 30
0.0
 11
12062.0
 21
-269.99999999999909
 31
0.0
1001
ACDBBLOCKREPETAG
1070
     1
1071
        1
1005
12C383
  0
ARC
  5
12C384
  8
OBJECT
 10
12059.0
 20
-273.0
 30
0.0
 40
3.0
 50
270.0
 51
0.0
1001
ACDBBLOCKREPETAG
1070
     1
1071
        2
1005
12C384
  0
LINE
  5
12C385
  8
OBJECT
 10
11938.0
 20
-269.99999999999909
 30
0.0
 11
11938.0
 21
-272.99999999999818
 31
0.0
1001
ACDBBLOCKREPETAG
1070
     1
1071
        3
1005
12C385
  0
ARC
  5
12C386
  8
OBJECT
 10
11941.0
 20
-272.99999999999818
 30
0.0
 40
3.0
 50
180.0
 51
270.0
1001
ACDBBLOCKREPETAG
1070
     1
1071
        4
1005
12C386
  0
LINE
  5
12C387
  8
OBJECT
 10
11941.0
 20
-275.99999999999818
 30
0.0
 11
12059.0
 21
-276.0
 31
0.0
1001
ACDBBLOCKREPETAG
1070
     1
1071
        5
1005
12C387
  0
LINE
  5
12C388
  8
OBJECT
 10
12123.0
 20
-663.99999999999966
 30
0.0
 11
12130.0
 21
-663.99999999999966
 31
0.0
1001
ACDBBLOCKREPETAG
1070
     1
1071
        7
1005
12C388
  0
LINE
  5
12C389
  8
OBJECT
 10
12130.0
 20
-663.99999999999966
 30
0.0
 11
12130.0
 21
-754.99999999999955
 31
0.0
1001
ACDBBLOCKREPETAG
1070
     1
1071
        8
1005
12C389
  0
LINE
  5
12C38A
  8
OBJECT
 10
12123.0
 20
-754.99999999999955
 30
0.0
 11
12123.0
 21
-663.99999999999966
 31
0.0
1001
ACDBBLOCKREPETAG
1070
     1
1071
        9
1005
12C38A
  0
LINE
  5
12C38B
  8
CENTER
 10
12145.0
 20
-710.99999999999955
 30
0.0
 11
12061.0
 21
-710.99999999999955
 31
0.0
1001
ACDBBLOCKREPETAG
1070
     1
1071
       10
1005
12C38B
  0
LINE
  5
12C38C
  8
OBJECT
 10
12123.0
 20
-666.99999999999955
 30
0.0
 11
12087.0
 21
-666.99999999999955
 31
0.0
1001
ACDBBLOCKREPETAG
1070
     1
1071
       11
1005
12C38C
  0
LINE
  5
12C38D
  8
OBJECT
 10
12087.0
 20
-666.99999999999955
 30
0.0
 11
12087.0
 21
-754.99999999999955
 31
0.0
1001
ACDBBLOCKREPETAG
1070
     1
1071
       12
1005
12C38D
  0
LINE
  5
12C38E
  8
OBJECT
 10
12087.0
 20
-754.99999999999955
 30
0.0
 11
12130.0
 21
-754.99999999999955
 31
0.0
1001
ACDBBLOCKREPETAG
1070
     1
1071
       13
1005
12C38E
  0
LINE
  5
12C38F
  8
OBJECT
 10
12083.0
 20
-671.49999999999955
 30
0.0
 11
12076.0
 21
-671.49999999999955
 31
0.0
1001
ACDBBLOCKREPETAG
1070
     1
1071
       14
1005
12C38F
  0
LINE
  5
12C390
  8
OBJECT
 10
12076.0
 20
-750.49999999999955
 30
0.0
 11
12083.0
 21
-750.49999999999955
 31
0.0
1001
ACDBBLOCKREPETAG
1070
     1
1071
       15
1005
12C390
  0
LINE
  5
12C391
  8
OBJECT
 10
12083.0
 20
-750.49999999999955
 30
0.0
 11
12083.0
 21
-671.49999999999955
 31
0.0
1001
ACDBBLOCKREPETAG
1070
     1
1071
       16
1005
12C391
  0
LINE
  5
12C392
  8
OBJECT
 10
12087.0
 20
-666.99999999999955
 30
0.0
 11
12083.0
 21
-671.49999999999955
 31
0.0
1001
ACDBBLOCKREPETAG
1070
     1
1071
       17
1005
12C392
  0
LINE
  5
12C393
  8
OBJECT
 10
12087.0
 20
-754.99999999999955
 30
0.0
 11
12083.0
 21
-750.49999999999955
 31
0.0
1001
ACDBBLOCKREPETAG
1070
     1
1071
       18
1005
12C393
  0
LINE
  5
12C394
  8
OBJECT
 10
12073.0
 20
-633.99999999999955
 30
0.0
 11
12070.0
 21
-633.99999999999955
 31
0.0
1001
ACDBBLOCKREPETAG
1070
     1
1071
       19
1005
12C394
  0
ARC
  5
12C395
  8
OBJECT
 10
12073.0
 20
-636.99999999999955
 30
0.0
 40
3.0
 50
0.0
 51
90.0
1001
ACDBBLOCKREPETAG
1070
     1
1071
       20
1005
12C395
  0
LINE
  5
12C396
  8
OBJECT
 10
12070.0
 20
-757.99999999999955
 30
0.0
 11
12073.0
 21
-757.99999999999955
 31
0.0
1001
ACDBBLOCKREPETAG
1070
     1
1071
       21
1005
12C396
  0
ARC
  5
12C397
  8
OBJECT
 10
12073.0
 20
-754.99999999999955
 30
0.0
 40
3.0
 50
270.0
 51
0.0
1001
ACDBBLOCKREPETAG
1070
     1
1071
       22
1005
12C397
  0
LINE
  5
12C398
  8
OBJECT
 10
12076.0
 20
-754.99999999999955
 30
0.0
 11
12076.0
 21
-636.99999999999955
 31
0.0
1001
ACDBBLOCKREPETAG
1070
     1
1071
       23
1005
12C398
  0
LINE
  5
12C399
  8
HIDDEN
 10
12078.0
 20
-680.99999999999955
 30
0.0
 11
12078.0
 21
-740.99999999999955
 31
0.0
1001
ACDBBLOCKREPETAG
1070
     1
1071
       24
1005
12C399
  0
LINE
  5
12C39A
  8
OBJECT
 10
12123.0
 20
-152.99999999999909
 30
0.0
 11
12130.0
 21
-152.99999999999909
 31
0.0
1001
ACDBBLOCKREPETAG
1070
     1
1071
        7
1005
12C39A
  0
LINE
  5
12C39B
  8
OBJECT
 10
12130.0
 20
-152.99999999999909
 30
0.0
 11
12130.0
 21
-246.99999999999909
 31
0.0
1001
ACDBBLOCKREPETAG
1070
     1
1071
        8
1005
12C39B
  0
LINE
  5
12C39C
  8
OBJECT
 10
12130.0
 20
-246.99999999999909
 30
0.0
 11
12123.0
 21
-246.99999999999909
 31
0.0
1001
ACDBBLOCKREPETAG
1070
     1
1071
        9
1005
12C39C
  0
LINE
  5
12C39D
  8
OBJECT
 10
12123.0
 20
-246.99999999999909
 30
0.0
 11
12123.0
 21
-152.99999999999909
 31
0.0
1001
ACDBBLOCKREPETAG
1070
     1
1071
       10
1005
12C39D
  0
LINE
  5
12C39E
  8
CENTER
 10
12145.0
 20
-199.99999999999909
 30
0.0
 11
12070.0
 21
-199.99999999999909
 31
0.0
1001
ACDBBLOCKREPETAG
1070
     1
1071
       11
1005
12C39E
  0
LINE
  5
12C39F
  8
OBJECT
 10
12123.0
 20
-155.99999999999909
 30
0.0
 11
12087.0
 21
-155.99999999999909
 31
0.0
1001
ACDBBLOCKREPETAG
1070
     1
1071
       12
1005
12C39F
  0
LINE
  5
12C3A0
  8
OBJECT
 10
12087.0
 20
-155.99999999999909
 30
0.0
 11
12087.0
 21
-243.99999999999909
 31
0.0
1001
ACDBBLOCKREPETAG
1070
     1
1071
       13
1005
12C3A0
  0
LINE
  5
12C3A1
  8
OBJECT
 10
12087.0
 20
-243.99999999999909
 30
0.0
 11
12123.0
 21
-243.99999999999909
 31
0.0
1001
ACDBBLOCKREPETAG
1070
     1
1071
       14
1005
12C3A1
  0
LINE
  5
12C3A2
  8
OBJECT
 10
12083.0
 20
-160.49999999999909
 30
0.0
 11
12076.0
 21
-160.49999999999909
 31
0.0
1001
ACDBBLOCKREPETAG
1070
     1
1071
       15
1005
12C3A2
  0
LINE
  5
12C3A3
  8
OBJECT
 10
12076.0
 20
-239.49999999999909
 30
0.0
 11
12083.0
 21
-239.49999999999909
 31
0.0
1001
ACDBBLOCKREPETAG
1070
     1
1071
       16
1005
12C3A3
  0
LINE
  5
12C3A4
  8
OBJECT
 10
12083.0
 20
-239.49999999999909
 30
0.0
 11
12083.0
 21
-160.49999999999909
 31
0.0
1001
ACDBBLOCKREPETAG
1070
     1
1071
       17
1005
12C3A4
  0
LINE
  5
12C3A5
  8
OBJECT
 10
12087.0
 20
-155.99999999999909
 30
0.0
 11
12083.0
 21
-160.49999999999909
 31
0.0
1001
ACDBBLOCKREPETAG
1070
     1
1071
       18
1005
12C3A5
  0
LINE
  5
12C3A6
  8
OBJECT
 10
12087.0
 20
-243.99999999999909
 30
0.0
 11
12083.0
 21
-239.49999999999909
 31
0.0
1001
ACDBBLOCKREPETAG
1070
     1
1071
       19
1005
12C3A6
  0
LINE
  5
12C3A7
  8
OBJECT
 10
12073.0
 20
-137.99999999999909
 30
0.0
 11
12070.0
 21
-137.99999999999909
 31
0.0
1001
ACDBBLOCKREPETAG
1070
     1
1071
       20
1005
12C3A7
  0
ARC
  5
12C3A8
  8
OBJECT
 10
12073.0
 20
-140.99999999999909
 30
0.0
 40
3.0
 50
0.0
 51
90.0
1001
ACDBBLOCKREPETAG
1070
     1
1071
       21
1005
12C3A8
  0
LINE
  5
12C3A9
  8
OBJECT
 10
12070.0
 20
-261.99999999999909
 30
0.0
 11
12073.0
 21
-261.99999999999909
 31
0.0
1001
ACDBBLOCKREPETAG
1070
     1
1071
       22
1005
12C3A9
  0
ARC
  5
12C3AA
  8
OBJECT
 10
12073.0
 20
-258.99999999999909
 30
0.0
 40
3.0
 50
270.0
 51
0.0
1001
ACDBBLOCKREPETAG
1070
     1
1071
       23
1005
12C3AA
  0
LINE
  5
12C3AB
  8
OBJECT
 10
12076.0
 20
-258.99999999999909
 30
0.0
 11
12076.0
 21
-140.99999999999909
 31
0.0
1001
ACDBBLOCKREPETAG
1070
     1
1071
       24
1005
12C3AB
  0
LINE
  5
12C3AC
  8
HIDDEN
 10
12078.0
 20
-169.99999999999909
 30
0.0
 11
12078.0
 21
-229.99999999999909
 31
0.0
1001
ACDBBLOCKREPETAG
1070
     1
1071
       25
1005
12C3AC
  0
CIRCLE
  5
12C3AD
  8
OBJECT
 10
10000.0
 20
-695.99999999999955
 30
0.0
 40
62.0
1001
ACDBBLOCKREPETAG
1070
     1
1071
        0
1005
12C3AD
  0
LINE
  5
12C3AE
  8
CENTER
 10
10000.0
 20
-769.99999999999955
 30
0.0
 11
10000.0
 21
-613.99999999999966
 31
0.0
1001
ACDBBLOCKREPETAG
1070
     1
1071
        0
1005
12C3AE
  0
LINE
  5
12C3AF
  8
OBJECT
 10
9930.0
 20
-633.99999999999955
 30
0.0
 11
10070.0
 21
-633.99999999999955
 31
0.0
1001
ACDBBLOCKREPETAG
1070
     1
1071
        1
1005
12C3AF
  0
LINE
  5
12C3B0
  8
OBJECT
 10
9930.0
 20
-757.99999999999955
 30
0.0
 11
9930.0
 21
-769.99999999999955
 31
0.0
1001
ACDBBLOCKREPETAG
1070
     1
1071
        2
1005
12C3B0
  0
LINE
  5
12C3B1
  8
OBJECT
 10
9930.0
 20
-769.99999999999955
 30
0.0
 11
10070.0
 21
-769.99999999999955
 31
0.0
1001
ACDBBLOCKREPETAG
1070
     1
1071
        3
1005
12C3B1
  0
LINE
  5
12C3B2
  8
OBJECT
 10
10070.0
 20
-769.99999999999955
 30
0.0
 11
10070.0
 21
-757.99999999999955
 31
0.0
1001
ACDBBLOCKREPETAG
1070
     1
1071
        4
1005
12C3B2
  0
LINE
  5
12C3B3
  8
OBJECT
 10
10070.0
 20
-757.99999999999955
 30
0.0
 11
9930.0
 21
-757.99999999999955
 31
0.0
1001
ACDBBLOCKREPETAG
1070
     1
1071
        5
1005
12C3B3
  0
ARC
  5
12C3B4
  8
OBJECT
 10
10435.03843899467
 20
-998.60813684682694
 30
0.0
 40
519.48776673616965
 50
135.42350667430969
 51
138.50052655621499
1001
ACDBBLOCKREPETAG
1070
     1
1071
        9
1005
12C3B4
  0
ARC
  5
12C3B5
  8
OBJECT
 10
10435.03843899467
 20
-393.39186315317193
 30
0.0
 40
519.48776673616965
 50
221.49947344378501
 51
224.57649332569039
1001
ACDBBLOCKREPETAG
1070
     1
1071
       10
1005
12C3B5
  0
ARC
  5
12C3B6
  8
OBJECT
 10
9564.9615610053243
 20
-998.60813684682694
 30
0.0
 40
519.48776673616965
 50
41.499473443784993
 51
44.576493325690237
1001
ACDBBLOCKREPETAG
1070
     1
1071
       11
1005
12C3B6
  0
ARC
  5
12C3B7
  8
OBJECT
 10
9564.9615610053243
 20
-393.39186315317193
 30
0.0
 40
519.48776673616965
 50
315.42350667430981
 51
318.50052655621488
1001
ACDBBLOCKREPETAG
1070
     1
1071
       12
1005
12C3B7
  0
LINE
  5
12C3B8
  8
OBJECT
 10
10047.5
 20
-628.99999999999955
 30
0.0
 11
9952.5
 21
-628.99999999999955
 31
0.0
1001
ACDBBLOCKREPETAG
1070
     1
1071
       24
1005
12C3B8
  0
ARC
  5
12C3B9
  8
OBJECT
 10
9952.5
 20
-631.99999999999955
 30
0.0
 40
3.0
 50
90.0
 51
180.0
1001
ACDBBLOCKREPETAG
1070
     1
1071
       25
1005
12C3B9
  0
LINE
  5
12C3BA
  8
OBJECT
 10
9949.5
 20
-631.99999999999955
 30
0.0
 11
9949.5
 21
-633.99999999999955
 31
0.0
1001
ACDBBLOCKREPETAG
1070
     1
1071
       26
1005
12C3BA
  0
LINE
  5
12C3BB
  8
OBJECT
 10
10050.5
 20
-631.99999999999955
 30
0.0
 11
10050.5
 21
-633.99999999999955
 31
0.0
1001
ACDBBLOCKREPETAG
1070
     1
1071
       27
1005
12C3BB
  0
ARC
  5
12C3BC
  8
OBJECT
 10
10047.5
 20
-631.99999999999955
 30
0.0
 40
3.0
 50
0.0
 51
90.0
1001
ACDBBLOCKREPETAG
1070
     1
1071
       28
1005
12C3BC
  0
POINT
  5
12C3BD
  8
DOTS
 10
10000.0
 20
-754.99999999999955
 30
0.0
1001
ACDBBLOCKREPETAG
1070
     1
1071
       87
1005
12C3BD
  0
LINE
  5
12C3BE
  8
SLIM
 10
9963.2171826682406
 20
-137.99999999999909
 30
0.0
 11
9969.9215079962923
 21
-131.29567467194681
 31
0.0
1001
ACDBBLOCKREPETAG
1070
     1
1071
      157
1005
0
1001
GRADIENTCOLOR1ACI
1070
     5
1001
GRADIENTCOLOR2ACI
1070
     2
1001
ACAD
1010
0.0
1020
0.0
1030
0.0
  0
LINE
  5
12C3BF
  8
SLIM
 10
9972.1974387893097
 20
-137.99999999999909
 30
0.0
 11
9983.3188363327517
 21
-126.87860245655401
 31
0.0
1001
GRADIENTCOLOR1ACI
1070
     5
1001
GRADIENTCOLOR2ACI
1070
     2
1001
ACAD
1010
0.0
1020
0.0
1030
0.0
1001
ACDBBLOCKREPETAG
1070
     1
1071
      160
1005
12C3BF
  0
LINE
  5
12C3C0
  8
SLIM
 10
9981.4849372887638
 20
-137.6927576216126
 30
0.0
 11
9993.9318052485996
 21
-125.245889661777
 31
0.0
1001
GRADIENTCOLOR1ACI
1070
     5
1001
GRADIENTCOLOR2ACI
1070
     2
1001
ACAD
1010
0.0
1020
0.0
1030
0.0
1001
ACDBBLOCKREPETAG
1070
     1
1071
      161
1005
12C3C0
  0
LINE
  5
12C3C1
  8
SLIM
 10
9992.7526568280355
 20
-135.40529420341099
 30
0.0
 11
10000.0
 21
-128.1579510314458
 31
0.0
1001
GRADIENTCOLOR1ACI
1070
     5
1001
GRADIENTCOLOR2ACI
1070
     2
1001
ACAD
1010
0.0
1020
0.0
1030
0.0
1001
ACDBBLOCKREPETAG
1070
     1
1071
      162
1005
12C3C1
  0
LINE
  5
12C3C2
  8
SLIM
 10
10000.0
 20
-128.1579510314458
 30
0.0
 11
10003.09410078785
 21
-125.0638502435924
 31
0.0
1001
GRADIENTCOLOR1ACI
1070
     5
1001
GRADIENTCOLOR2ACI
1070
     2
1001
ACAD
1010
0.0
1020
0.0
1030
0.0
1001
ACDBBLOCKREPETAG
1070
     1
1071
      163
1005
12C3C2
  0
LINE
  5
12C3C3
  8
SLIM
 10
10002.10414122347
 20
-135.03406592904389
 30
0.0
 11
10011.28442576865
 21
-125.85378138386341
 31
0.0
1001
GRADIENTCOLOR1ACI
1070
     5
1001
GRADIENTCOLOR2ACI
1070
     2
1001
ACAD
1010
0.0
1020
0.0
1030
0.0
1001
ACDBBLOCKREPETAG
1070
     1
1071
      164
1005
12C3C3
  0
LINE
  5
12C3C4
  8
SLIM
 10
10010.297585520921
 20
-135.82087775265759
 30
0.0
 11
10018.73958846552
 21
-127.3788748080627
 31
0.0
1001
GRADIENTCOLOR1ACI
1070
     5
1001
GRADIENTCOLOR2ACI
1070
     2
1001
ACAD
1010
0.0
1020
0.0
1030
0.0
1001
ACDBBLOCKREPETAG
1070
     1
1071
      165
1005
12C3C4
  0
LINE
  5
12C3C5
  8
SLIM
 10
10017.65507936422
 20
-137.4436400304258
 30
0.0
 11
10025.595886626959
 21
-129.50283276769261
 31
0.0
1001
GRADIENTCOLOR1ACI
1070
     5
1001
GRADIENTCOLOR2ACI
1070
     2
1001
ACAD
1010
0.0
1020
0.0
1030
0.0
1001
ACDBBLOCKREPETAG
1070
     1
1071
      166
1005
12C3C5
  0
LINE
  5
12C3C6
  8
SLIM
 10
10026.07897551572
 20
-137.99999999999909
 30
0.0
 11
10031.9385859461
 21
-132.1403895696169
 31
0.0
1001
GRADIENTCOLOR1ACI
1070
     5
1001
GRADIENTCOLOR2ACI
1070
     2
1001
ACAD
1010
0.0
1020
0.0
1030
0.0
1001
ACDBBLOCKREPETAG
1070
     1
1071
      167
1005
12C3C6
  0
LINE
  5
12C3C7
  8
SLIM
 10
10035.05923163678
 20
-137.99999999999909
 30
0.0
 11
10037.82336543762
 21
-135.23586619916779
 31
0.0
1001
GRADIENTCOLOR1ACI
1070
     5
1001
GRADIENTCOLOR2ACI
1070
     2
1001
ACAD
1010
0.0
1020
0.0
1030
0.0
1001
ACDBBLOCKREPETAG
1070
     1
1071
      168
1005
12C3C7
  0
CIRCLE
  5
12C3C8
  8
OBJECT
 10
10000.0
 20
-199.99999999999909
 30
0.0
 40
65.0
1001
ACDBBLOCKREPETAG
1070
     1
1071
       84
1005
12C3C8
  0
CIRCLE
  5
12C3C9
  8
OBJECT
 10
10000.0
 20
-199.99999999999909
 30
0.0
 40
50.5
1001
ACDBBLOCKREPETAG
1070
     1
1071
       86
1005
12C3C9
  0
LINE
  5
12C3CA
  8
OBJECT
 10
10070.0
 20
-137.99999999999909
 30
0.0
 11
10019.519221295939
 21
-137.99999999999909
 31
0.0
1001
ACDBBLOCKREPETAG
1070
     1
1071
       87
1005
12C3CA
  0
LINE
  5
12C3CB
  8
OBJECT
 10
9930.0
 20
-137.99999999999909
 30
0.0
 11
9980.4807787040572
 21
-137.99999999999909
 31
0.0
1001
ACDBBLOCKREPETAG
1070
     1
1071
       88
1005
12C3CB
  0
LINE
  5
12C3CC
  8
OBJECT
 10
9930.0
 20
-261.99999999999909
 30
0.0
 11
9938.0
 21
-261.99999999999909
 31
0.0
1001
ACDBBLOCKREPETAG
1070
     1
1071
       89
1005
12C3CC
  0
LINE
  5
12C3CD
  8
OBJECT
 10
9938.0
 20
-269.99999999999909
 30
0.0
 11
9938.0
 21
-261.99999999999909
 31
0.0
1001
ACDBBLOCKREPETAG
1070
     1
1071
       90
1005
12C3CD
  0
LINE
  5
12C3CE
  8
OBJECT
 10
10070.0
 20
-261.99999999999909
 30
0.0
 11
10062.0
 21
-261.99999999999909
 31
0.0
1001
ACDBBLOCKREPETAG
1070
     1
1071
       91
1005
12C3CE
  0
LINE
  5
12C3CF
  8
OBJECT
 10
10062.0
 20
-269.99999999999909
 30
0.0
 11
10062.0
 21
-261.99999999999909
 31
0.0
1001
ACDBBLOCKREPETAG
1070
     1
1071
       92
1005
12C3CF
  0
LINE
  5
12C3D0
  8
CENTER
 10
9930.0
 20
-199.99999999999909
 30
0.0
 11
10070.0
 21
-199.99999999999909
 31
0.0
1001
ACDBBLOCKREPETAG
1070
     1
1071
       93
1005
12C3D0
  0
LINE
  5
12C3D1
  8
CENTER
 10
10000.0
 20
-269.99999999999909
 30
0.0
 11
10000.0
 21
-109.9999999999991
 31
0.0
1001
ACDBBLOCKREPETAG
1070
     1
1071
       94
1005
12C3D1
  0
LINE
  5
12C3D2
  8
OBJECT
 10
9954.0380592228739
 20
-245.96194077712289
 30
0.0
 11
9938.0
 21
-261.99999999999909
 31
0.0
1001
ACDBBLOCKREPETAG
1070
     1
1071
      106
1005
12C3D2
  0
LINE
  5
12C3D3
  8
OBJECT
 10
10045.96194077713
 20
-245.96194077712289
 30
0.0
 11
10062.0
 21
-261.99999999999909
 31
0.0
1001
ACDBBLOCKREPETAG
1070
     1
1071
      107
1005
12C3D3
  0
ARC
  5
12C3D4
  8
OBJECT
 10
10000.0
 20
-199.99999999999909
 30
0.0
 40
75.0
 50
55.757831297238091
 51
124.2421687027619
1001
ACDBBLOCKREPETAG
1070
     1
1071
      108
1005
12C3D4
  0
POINT
  5
12C3D5
  8
DOTS
 10
10000.0
 20
-199.99999999999909
 30
0.0
1001
ACDBBLOCKREPETAG
1070
     1
1071
      159
1005
12C3D5
  0
LINE
  5
12C3D6
  8
OBJECT
 10
9807.0000000000164
 20
-582.99999999999955
 30
0.0
 11
9800.0000000000127
 21
-582.99999999999955
 31
0.0
1001
ACDBBLOCKREPETAG
1070
     1
1071
      324
1005
12C3D6
  0
LINE
  5
12C3D7
  8
OBJECT
 10
9800.0000000000127
 20
-582.99999999999955
 30
0.0
 11
9800.0000000000127
 21
-706.99999999999955
 31
0.0
1001
ACDBBLOCKREPETAG
1070
     1
1071
      325
1005
12C3D7
  0
LINE
  5
12C3D8
  8
OBJECT
 10
9924.0000000000127
 20
-653.35026377572683
 30
0.0
 11
9924.0000000000127
 21
-755.00000000000034
 31
0.0
1001
ACDBBLOCKREPETAG
1070
     1
1071
      326
1005
12C3D8
  0
LINE
  5
12C3D9
  8
OBJECT
 10
9800.0000000000127
 20
-706.99999999999955
 30
0.0
 11
9807.0000000000164
 21
-706.99999999999955
 31
0.0
1001
ACDBBLOCKREPETAG
1070
     1
1071
      327
1005
12C3D9
  0
LINE
  5
12C3DA
  8
OBJECT
 10
9807.0000000000164
 20
-706.99999999999955
 30
0.0
 11
9807.0000000000164
 21
-582.99999999999955
 31
0.0
1001
ACDBBLOCKREPETAG
1070
     1
1071
      328
1005
12C3DA
  0
LINE
  5
12C3DB
  8
CENTER
 10
9875.0000000000146
 20
-645.00000000000045
 30
0.0
 11
9785.0000000000164
 21
-644.99999999999955
 31
0.0
1001
ACDBBLOCKREPETAG
1070
     1
1071
      329
1005
12C3DB
  0
LINE
  5
12C3DC
  8
OBJECT
 10
9930.0000000000182
 20
-757.99999999999955
 30
0.0
 11
9927.0000000000127
 21
-758.00000000000034
 31
0.0
1001
ACDBBLOCKREPETAG
1070
     1
1071
      330
1005
12C3DC
  0
ARC
  5
12C3DD
  8
OBJECT
 10
9927.0000000000127
 20
-755.00000000000034
 30
0.0
 40
3.0
 50
180.0
 51
270.0
1001
ACDBBLOCKREPETAG
1070
     1
1071
      331
1005
12C3DD
  0
LINE
  5
12C3DE
  8
OBJECT
 10
9807.0000000000164
 20
-585.99999999999955
 30
0.0
 11
9843.0000000000146
 21
-586.00000000000045
 31
0.0
1001
ACDBBLOCKREPETAG
1070
     1
1071
      332
1005
12C3DE
  0
LINE
  5
12C3DF
  8
OBJECT
 10
9843.0000000000146
 20
-586.00000000000045
 30
0.0
 11
9843.0000000000146
 21
-704.00000000000045
 31
0.0
1001
ACDBBLOCKREPETAG
1070
     1
1071
      333
1005
12C3DF
  0
LINE
  5
12C3E0
  8
OBJECT
 10
9847.0000000000127
 20
-590.50000000000045
 30
0.0
 11
9847.0000000000127
 21
-699.50000000000045
 31
0.0
1001
ACDBBLOCKREPETAG
1070
     1
1071
      334
1005
12C3E0
  0
LINE
  5
12C3E1
  8
OBJECT
 10
9847.0000000000127
 20
-590.50000000000045
 30
0.0
 11
9860.0000000000127
 21
-590.50000000000045
 31
0.0
1001
ACDBBLOCKREPETAG
1070
     1
1071
      335
1005
12C3E1
  0
LINE
  5
12C3E2
  8
OBJECT
 10
9843.0000000000146
 20
-704.00000000000045
 30
0.0
 11
9807.0000000000164
 21
-703.99999999999955
 31
0.0
1001
ACDBBLOCKREPETAG
1070
     1
1071
      336
1005
12C3E2
  0
LINE
  5
12C3E3
  8
OBJECT
 10
9843.0000000000146
 20
-586.00000000000045
 30
0.0
 11
9847.0000000000127
 21
-590.50000000000045
 31
0.0
1001
ACDBBLOCKREPETAG
1070
     1
1071
      337
1005
12C3E3
  0
LINE
  5
12C3E4
  8
OBJECT
 10
9860.0000000000127
 20
-590.50000000000045
 30
0.0
 11
9860.0000000000127
 21
-675.7449182792875
 31
0.0
1001
ACDBBLOCKREPETAG
1070
     1
1071
      338
1005
12C3E4
  0
ARC
  5
12C3E5
  8
OBJECT
 10
9857.2000000000153
 20
-685.00000000000045
 30
0.0
 40
85.0
 50
36.869897645890923
 51
88.112268108168848
1001
ACDBBLOCKREPETAG
1070
     1
1071
      339
1005
12C3E5
  0
LINE
  5
12C3E6
  8
HIDDEN
 10
9852.0000000000182
 20
-600.50000000000057
 30
0.0
 11
9852.0000000000182
 21
-689.50000000000045
 31
0.0
1001
ACDBBLOCKREPETAG
1070
     1
1071
      341
1005
12C3E6
  0
LINE
  5
12C3E7
  8
OBJECT
 10
9924.0000000000127
 20
-751.07945073181725
 30
0.0
 11
9853.3686800789692
 21
-699.50000000000045
 31
0.0
1001
ACDBBLOCKREPETAG
1070
     1
1071
      342
1005
12C3E7
  0
LINE
  5
12C3E8
  8
OBJECT
 10
9930.0000000000182
 20
-633.99999999999955
 30
0.0
 11
9925.2000000000153
 21
-633.99999999999955
 31
0.0
1001
ACDBBLOCKREPETAG
1070
     1
1071
      343
1005
12C3E8
  0
LINE
  5
12C3E9
  8
OBJECT
 10
9924.0000000000127
 20
-653.35026377572945
 30
0.0
 11
9925.2000000000153
 21
-633.99999999999955
 31
0.0
1001
ACDBBLOCKREPETAG
1070
     1
1071
      344
1005
12C3E9
  0
LINE
  5
12C3EA
  8
OBJECT
 10
9847.0000000000127
 20
-699.50000000000045
 30
0.0
 11
9853.3686800789692
 21
-699.50000000000045
 31
0.0
1001
ACDBBLOCKREPETAG
1070
     1
1071
      345
1005
12C3EA
  0
LINE
  5
12C3EB
  8
OBJECT
 10
9843.0000000000146
 20
-704.00000000000045
 30
0.0
 11
9847.0000000000127
 21
-699.50000000000045
 31
0.0
1001
ACDBBLOCKREPETAG
1070
     1
1071
      346
1005
12C3EB
  0
LINE
  5
12C3EC
  8
OBJECT
 10
9807.0000000000164
 20
-261.99999999999909
 30
0.0
 11
9800.0000000000127
 21
-261.99999999999909
 31
0.0
1001
ACDBBLOCKREPETAG
1070
     1
1071
      376
1005
12C3EC
  0
LINE
  5
12C3ED
  8
OBJECT
 10
9800.0000000000127
 20
-261.99999999999909
 30
0.0
 11
9800.0000000000127
 21
-137.99999999999909
 31
0.0
1001
ACDBBLOCKREPETAG
1070
     1
1071
      377
1005
12C3ED
  0
LINE
  5
12C3EE
  8
OBJECT
 10
9800.0000000000127
 20
-137.99999999999909
 30
0.0
 11
9807.0000000000164
 21
-137.99999999999909
 31
0.0
1001
ACDBBLOCKREPETAG
1070
     1
1071
      378
1005
12C3EE
  0
LINE
  5
12C3EF
  8
OBJECT
 10
9807.0000000000164
 20
-137.99999999999909
 30
0.0
 11
9807.0000000000164
 21
-261.99999999999909
 31
0.0
1001
ACDBBLOCKREPETAG
1070
     1
1071
      379
1005
12C3EF
  0
LINE
  5
12C3F0
  8
CENTER
 10
9785.0000000000164
 20
-199.99999999999909
 30
0.0
 11
9930.0
 21
-199.99999999999909
 31
0.0
1001
ACDBBLOCKREPETAG
1070
     1
1071
      380
1005
12C3F0
  0
LINE
  5
12C3F1
  8
OBJECT
 10
9860.0000250358116
 20
-154.9999999999954
 30
0.0
 11
9924.0
 21
-154.99999999999909
 31
0.0
1001
ACDBBLOCKREPETAG
1070
     1
1071
      381
1005
12C3F1
  0
LINE
  5
12C3F2
  8
OBJECT
 10
9860.0000250358116
 20
-244.99999999999909
 30
0.0
 11
9924.0
 21
-244.99999999999909
 31
0.0
1001
ACDBBLOCKREPETAG
1070
     1
1071
      382
1005
12C3F2
  0
LINE
  5
12C3F3
  8
OBJECT
 10
9807.0000000000164
 20
-258.99999999999909
 30
0.0
 11
9843.0000000000146
 21
-258.99999999999909
 31
0.0
1001
ACDBBLOCKREPETAG
1070
     1
1071
      383
1005
12C3F3
  0
LINE
  5
12C3F4
  8
OBJECT
 10
9843.0000000000146
 20
-258.99999999999909
 30
0.0
 11
9843.0000000000146
 21
-140.99999999999909
 31
0.0
1001
ACDBBLOCKREPETAG
1070
     1
1071
      384
1005
12C3F4
  0
LINE
  5
12C3F5
  8
OBJECT
 10
9843.0000000000146
 20
-140.99999999999909
 30
0.0
 11
9807.0000000000164
 21
-140.99999999999909
 31
0.0
1001
ACDBBLOCKREPETAG
1070
     1
1071
      385
1005
12C3F5
  0
LINE
  5
12C3F6
  8
OBJECT
 10
9847.0000000000127
 20
-254.49999999999909
 30
0.0
 11
9860.0000000000127
 21
-254.49999999999909
 31
0.0
1001
ACDBBLOCKREPETAG
1070
     1
1071
      386
1005
12C3F6
  0
LINE
  5
12C3F7
  8
OBJECT
 10
9860.0000000000127
 20
-145.49999999999909
 30
0.0
 11
9847.0000000000127
 21
-145.49999999999909
 31
0.0
1001
ACDBBLOCKREPETAG
1070
     1
1071
      387
1005
12C3F7
  0
LINE
  5
12C3F8
  8
OBJECT
 10
9847.0000000000127
 20
-145.49999999999909
 30
0.0
 11
9847.0000000000127
 21
-254.49999999999909
 31
0.0
1001
ACDBBLOCKREPETAG
1070
     1
1071
      388
1005
12C3F8
  0
LINE
  5
12C3F9
  8
OBJECT
 10
9843.0000000000146
 20
-258.99999999999909
 30
0.0
 11
9847.0000000000127
 21
-254.49999999999909
 31
0.0
1001
ACDBBLOCKREPETAG
1070
     1
1071
      389
1005
12C3F9
  0
LINE
  5
12C3FA
  8
OBJECT
 10
9843.0000000000146
 20
-140.99999999999909
 30
0.0
 11
9847.0000000000127
 21
-145.49999999999909
 31
0.0
1001
ACDBBLOCKREPETAG
1070
     1
1071
      390
1005
12C3FA
  0
LINE
  5
12C3FB
  8
OBJECT
 10
9927.0
 20
-261.99999999999909
 30
0.0
 11
9930.0
 21
-261.99999999999909
 31
0.0
1001
ACDBBLOCKREPETAG
1070
     1
1071
      391
1005
12C3FB
  0
ARC
  5
12C3FC
  8
OBJECT
 10
9927.0
 20
-258.99999999999909
 30
0.0
 40
3.0
 50
180.0
 51
270.0
1001
ACDBBLOCKREPETAG
1070
     1
1071
      392
1005
12C3FC
  0
LINE
  5
12C3FD
  8
OBJECT
 10
9930.0
 20
-137.99999999999909
 30
0.0
 11
9927.0
 21
-137.99999999999909
 31
0.0
1001
ACDBBLOCKREPETAG
1070
     1
1071
      393
1005
12C3FD
  0
ARC
  5
12C3FE
  8
OBJECT
 10
9927.0
 20
-140.99999999999909
 30
0.0
 40
3.0
 50
90.0
 51
180.0
1001
ACDBBLOCKREPETAG
1070
     1
1071
      394
1005
12C3FE
  0
LINE
  5
12C3FF
  8
OBJECT
 10
9924.0
 20
-140.99999999999909
 30
0.0
 11
9924.0
 21
-189.6772096796403
 31
0.0
1001
ACDBBLOCKREPETAG
1070
     1
1071
      395
1005
12C3FF
  0
LINE
  5
12C400
  8
OBJECT
 10
9924.0
 20
-210.3227903203578
 30
0.0
 11
9924.0
 21
-258.99999999999909
 31
0.0
1001
ACDBBLOCKREPETAG
1070
     1
1071
      396
1005
12C400
  0
LINE
  5
12C401
  8
HIDDEN
 10
9852.0000000000182
 20
-244.49999999999909
 30
0.0
 11
9852.0000000000182
 21
-155.49999999999909
 31
0.0
1001
ACDBBLOCKREPETAG
1070
     1
1071
      397
1005
12C401
  0
LINE
  5
12C402
  8
OBJECT
 10
9860.0000250358116
 20
-145.50004907618759
 30
0.0
 11
9860.0000250358116
 21
-254.50004907618771
 31
0.0
1001
ACDBBLOCKREPETAG
1070
     1
1071
      399
1005
12C402
  0
ARC
  5
12C403
  8
OBJECT
 10
9880.1999999999753
 20
-199.99999999999909
 30
0.0
 40
45.000000000000547
 50
270.0
 51
90.0
1001
ACDBBLOCKREPETAG
1070
     1
1071
      400
1005
12C403
  0
LINE
  5
12C404
  8
CENTER
 10
10000.0
 20
-290.99999999999898
 30
0.0
 11
10000.0
 21
-269.99999999999909
 31
0.0
1001
ACDBBLOCKREPETAG
1070
     1
1071
        0
1005
12C404
  0
LINE
  5
12C405
  8
OBJECT
 10
10062.0
 20
-273.0
 30
0.0
 11
10062.0
 21
-269.99999999999909
 31
0.0
1001
ACDBBLOCKREPETAG
1070
     1
1071
        1
1005
12C405
  0
ARC
  5
12C406
  8
OBJECT
 10
10059.0
 20
-273.0
 30
0.0
 40
3.0
 50
270.0
 51
0.0
1001
ACDBBLOCKREPETAG
1070
     1
1071
        2
1005
12C406
  0
LINE
  5
12C407
  8
OBJECT
 10
9938.0
 20
-269.99999999999909
 30
0.0
 11
9938.0
 21
-272.99999999999818
 31
0.0
1001
ACDBBLOCKREPETAG
1070
     1
1071
        3
1005
12C407
  0
ARC
  5
12C408
  8
OBJECT
 10
9941.0
 20
-272.99999999999818
 30
0.0
 40
3.0
 50
180.0
 51
270.0
1001
ACDBBLOCKREPETAG
1070
     1
1071
        4
1005
12C408
  0
LINE
  5
12C409
  8
OBJECT
 10
9941.0
 20
-275.99999999999818
 30
0.0
 11
10059.0
 21
-276.0
 31
0.0
1001
ACDBBLOCKREPETAG
1070
     1
1071
        5
1005
12C409
  0
LINE
  5
12C40A
  8
OBJECT
 10
10123.0
 20
-663.99999999999966
 30
0.0
 11
10130.0
 21
-663.99999999999966
 31
0.0
1001
ACDBBLOCKREPETAG
1070
     1
1071
        7
1005
12C40A
  0
LINE
  5
12C40B
  8
OBJECT
 10
10130.0
 20
-663.99999999999966
 30
0.0
 11
10130.0
 21
-754.99999999999955
 31
0.0
1001
ACDBBLOCKREPETAG
1070
     1
1071
        8
1005
12C40B
  0
LINE
  5
12C40C
  8
OBJECT
 10
10123.0
 20
-754.99999999999955
 30
0.0
 11
10123.0
 21
-663.99999999999966
 31
0.0
1001
ACDBBLOCKREPETAG
1070
     1
1071
        9
1005
12C40C
  0
LINE
  5
12C40D
  8
CENTER
 10
10145.0
 20
-710.99999999999955
 30
0.0
 11
10061.0
 21
-710.99999999999955
 31
0.0
1001
ACDBBLOCKREPETAG
1070
     1
1071
       10
1005
12C40D
  0
LINE
  5
12C40E
  8
OBJECT
 10
10123.0
 20
-666.99999999999955
 30
0.0
 11
10087.0
 21
-666.99999999999955
 31
0.0
1001
ACDBBLOCKREPETAG
1070
     1
1071
       11
1005
12C40E
  0
LINE
  5
12C40F
  8
OBJECT
 10
10087.0
 20
-666.99999999999955
 30
0.0
 11
10087.0
 21
-754.99999999999955
 31
0.0
1001
ACDBBLOCKREPETAG
1070
     1
1071
       12
1005
12C40F
  0
LINE
  5
12C410
  8
OBJECT
 10
10087.0
 20
-754.99999999999955
 30
0.0
 11
10130.0
 21
-754.99999999999955
 31
0.0
1001
ACDBBLOCKREPETAG
1070
     1
1071
       13
1005
12C410
  0
LINE
  5
12C411
  8
OBJECT
 10
10083.0
 20
-671.49999999999955
 30
0.0
 11
10076.0
 21
-671.49999999999955
 31
0.0
1001
ACDBBLOCKREPETAG
1070
     1
1071
       14
1005
12C411
  0
LINE
  5
12C412
  8
OBJECT
 10
10076.0
 20
-750.49999999999955
 30
0.0
 11
10083.0
 21
-750.49999999999955
 31
0.0
1001
ACDBBLOCKREPETAG
1070
     1
1071
       15
1005
12C412
  0
LINE
  5
12C413
  8
OBJECT
 10
10083.0
 20
-750.49999999999955
 30
0.0
 11
10083.0
 21
-671.49999999999955
 31
0.0
1001
ACDBBLOCKREPETAG
1070
     1
1071
       16
1005
12C413
  0
LINE
  5
12C414
  8
OBJECT
 10
10087.0
 20
-666.99999999999955
 30
0.0
 11
10083.0
 21
-671.49999999999955
 31
0.0
1001
ACDBBLOCKREPETAG
1070
     1
1071
       17
1005
12C414
  0
LINE
  5
12C415
  8
OBJECT
 10
10087.0
 20
-754.99999999999955
 30
0.0
 11
10083.0
 21
-750.49999999999955
 31
0.0
1001
ACDBBLOCKREPETAG
1070
     1
1071
       18
1005
12C415
  0
LINE
  5
12C416
  8
OBJECT
 10
10073.0
 20
-633.99999999999955
 30
0.0
 11
10070.0
 21
-633.99999999999955
 31
0.0
1001
ACDBBLOCKREPETAG
1070
     1
1071
       19
1005
12C416
  0
ARC
  5
12C417
  8
OBJECT
 10
10073.0
 20
-636.99999999999955
 30
0.0
 40
3.0
 50
0.0
 51
90.0
1001
ACDBBLOCKREPETAG
1070
     1
1071
       20
1005
12C417
  0
LINE
  5
12C418
  8
OBJECT
 10
10070.0
 20
-757.99999999999955
 30
0.0
 11
10073.0
 21
-757.99999999999955
 31
0.0
1001
ACDBBLOCKREPETAG
1070
     1
1071
       21
1005
12C418
  0
ARC
  5
12C419
  8
OBJECT
 10
10073.0
 20
-754.99999999999955
 30
0.0
 40
3.0
 50
270.0
 51
0.0
1001
ACDBBLOCKREPETAG
1070
     1
1071
       22
1005
12C419
  0
LINE
  5
12C41A
  8
OBJECT
 10
10076.0
 20
-754.99999999999955
 30
0.0
 11
10076.0
 21
-636.99999999999955
 31
0.0
1001
ACDBBLOCKREPETAG
1070
     1
1071
       23
1005
12C41A
  0
LINE
  5
12C41B
  8
HIDDEN
 10
10078.0
 20
-680.99999999999955
 30
0.0
 11
10078.0
 21
-740.99999999999955
 31
0.0
1001
ACDBBLOCKREPETAG
1070
     1
1071
       24
1005
12C41B
  0
LINE
  5
12C41C
  8
OBJECT
 10
10123.0
 20
-152.99999999999909
 30
0.0
 11
10130.0
 21
-152.99999999999909
 31
0.0
1001
ACDBBLOCKREPETAG
1070
     1
1071
        7
1005
12C41C
  0
LINE
  5
12C41D
  8
OBJECT
 10
10130.0
 20
-152.99999999999909
 30
0.0
 11
10130.0
 21
-246.99999999999909
 31
0.0
1001
ACDBBLOCKREPETAG
1070
     1
1071
        8
1005
12C41D
  0
LINE
  5
12C41E
  8
OBJECT
 10
10130.0
 20
-246.99999999999909
 30
0.0
 11
10123.0
 21
-246.99999999999909
 31
0.0
1001
ACDBBLOCKREPETAG
1070
     1
1071
        9
1005
12C41E
  0
LINE
  5
12C41F
  8
OBJECT
 10
10123.0
 20
-246.99999999999909
 30
0.0
 11
10123.0
 21
-152.99999999999909
 31
0.0
1001
ACDBBLOCKREPETAG
1070
     1
1071
       10
1005
12C41F
  0
LINE
  5
12C420
  8
CENTER
 10
10145.0
 20
-199.99999999999909
 30
0.0
 11
10070.0
 21
-199.99999999999909
 31
0.0
1001
ACDBBLOCKREPETAG
1070
     1
1071
       11
1005
12C420
  0
LINE
  5
12C421
  8
OBJECT
 10
10123.0
 20
-155.99999999999909
 30
0.0
 11
10087.0
 21
-155.99999999999909
 31
0.0
1001
ACDBBLOCKREPETAG
1070
     1
1071
       12
1005
12C421
  0
LINE
  5
12C422
  8
OBJECT
 10
10087.0
 20
-155.99999999999909
 30
0.0
 11
10087.0
 21
-243.99999999999909
 31
0.0
1001
ACDBBLOCKREPETAG
1070
     1
1071
       13
1005
12C422
  0
LINE
  5
12C423
  8
OBJECT
 10
10087.0
 20
-243.99999999999909
 30
0.0
 11
10123.0
 21
-243.99999999999909
 31
0.0
1001
ACDBBLOCKREPETAG
1070
     1
1071
       14
1005
12C423
  0
LINE
  5
12C424
  8
OBJECT
 10
10083.0
 20
-160.49999999999909
 30
0.0
 11
10076.0
 21
-160.49999999999909
 31
0.0
1001
ACDBBLOCKREPETAG
1070
     1
1071
       15
1005
12C424
  0
LINE
  5
12C425
  8
OBJECT
 10
10076.0
 20
-239.49999999999909
 30
0.0
 11
10083.0
 21
-239.49999999999909
 31
0.0
1001
ACDBBLOCKREPETAG
1070
     1
1071
       16
1005
12C425
  0
LINE
  5
12C426
  8
OBJECT
 10
10083.0
 20
-239.49999999999909
 30
0.0
 11
10083.0
 21
-160.49999999999909
 31
0.0
1001
ACDBBLOCKREPETAG
1070
     1
1071
       17
1005
12C426
  0
LINE
  5
12C427
  8
OBJECT
 10
10087.0
 20
-155.99999999999909
 30
0.0
 11
10083.0
 21
-160.49999999999909
 31
0.0
1001
ACDBBLOCKREPETAG
1070
     1
1071
       18
1005
12C427
  0
LINE
  5
12C428
  8
OBJECT
 10
10087.0
 20
-243.99999999999909
 30
0.0
 11
10083.0
 21
-239.49999999999909
 31
0.0
1001
ACDBBLOCKREPETAG
1070
     1
1071
       19
1005
12C428
  0
LINE
  5
12C429
  8
OBJECT
 10
10073.0
 20
-137.99999999999909
 30
0.0
 11
10070.0
 21
-137.99999999999909
 31
0.0
1001
ACDBBLOCKREPETAG
1070
     1
1071
       20
1005
12C429
  0
ARC
  5
12C42A
  8
OBJECT
 10
10073.0
 20
-140.99999999999909
 30
0.0
 40
3.0
 50
0.0
 51
90.0
1001
ACDBBLOCKREPETAG
1070
     1
1071
       21
1005
12C42A
  0
LINE
  5
12C42B
  8
OBJECT
 10
10070.0
 20
-261.99999999999909
 30
0.0
 11
10073.0
 21
-261.99999999999909
 31
0.0
1001
ACDBBLOCKREPETAG
1070
     1
1071
       22
1005
12C42B
  0
ARC
  5
12C42C
  8
OBJECT
 10
10073.0
 20
-258.99999999999909
 30
0.0
 40
3.0
 50
270.0
 51
0.0
1001
ACDBBLOCKREPETAG
1070
     1
1071
       23
1005
12C42C
  0
LINE
  5
12C42D
  8
OBJECT
 10
10076.0
 20
-258.99999999999909
 30
0.0
 11
10076.0
 21
-140.99999999999909
 31
0.0
1001
ACDBBLOCKREPETAG
1070
     1
1071
       24
1005
12C42D
  0
LINE
  5
12C42E
  8
HIDDEN
 10
10078.0
 20
-169.99999999999909
 30
0.0
 11
10078.0
 21
-229.99999999999909
 31
0.0
1001
ACDBBLOCKREPETAG
1070
     1
1071
       25
1005
12C42E
  0
CIRCLE
  5
12C42F
  8
OBJECT
 10
8000.0
 20
-695.99999999999955
 30
0.0
 40
62.0
1001
ACDBBLOCKREPETAG
1070
     1
1071
        0
1005
12C42F
  0
LINE
  5
12C430
  8
CENTER
 10
8000.0
 20
-769.99999999999955
 30
0.0
 11
8000.0
 21
-613.99999999999966
 31
0.0
1001
ACDBBLOCKREPETAG
1070
     1
1071
        0
1005
12C430
  0
LINE
  5
12C431
  8
OBJECT
 10
7930.0
 20
-633.99999999999955
 30
0.0
 11
8070.0
 21
-633.99999999999955
 31
0.0
1001
ACDBBLOCKREPETAG
1070
     1
1071
        1
1005
12C431
  0
LINE
  5
12C432
  8
OBJECT
 10
7930.0
 20
-757.99999999999955
 30
0.0
 11
7930.0
 21
-769.99999999999955
 31
0.0
1001
ACDBBLOCKREPETAG
1070
     1
1071
        2
1005
12C432
  0
LINE
  5
12C433
  8
OBJECT
 10
7930.0
 20
-769.99999999999955
 30
0.0
 11
8070.0
 21
-769.99999999999955
 31
0.0
1001
ACDBBLOCKREPETAG
1070
     1
1071
        3
1005
12C433
  0
LINE
  5
12C434
  8
OBJECT
 10
8070.0
 20
-769.99999999999955
 30
0.0
 11
8070.0
 21
-757.99999999999955
 31
0.0
1001
ACDBBLOCKREPETAG
1070
     1
1071
        4
1005
12C434
  0
LINE
  5
12C435
  8
OBJECT
 10
8070.0
 20
-757.99999999999955
 30
0.0
 11
7930.0
 21
-757.99999999999955
 31
0.0
1001
ACDBBLOCKREPETAG
1070
     1
1071
        5
1005
12C435
  0
ARC
  5
12C436
  8
OBJECT
 10
8435.0384389946794
 20
-998.60813684682694
 30
0.0
 40
519.48776673616965
 50
135.42350667430969
 51
138.50052655621499
1001
ACDBBLOCKREPETAG
1070
     1
1071
        9
1005
12C436
  0
ARC
  5
12C437
  8
OBJECT
 10
8435.0384389946794
 20
-393.39186315317193
 30
0.0
 40
519.48776673616965
 50
221.49947344378501
 51
224.57649332569039
1001
ACDBBLOCKREPETAG
1070
     1
1071
       10
1005
12C437
  0
ARC
  5
12C438
  8
OBJECT
 10
7564.9615610053233
 20
-998.60813684682694
 30
0.0
 40
519.48776673616965
 50
41.499473443784993
 51
44.576493325690237
1001
ACDBBLOCKREPETAG
1070
     1
1071
       11
1005
12C438
  0
ARC
  5
12C439
  8
OBJECT
 10
7564.9615610053233
 20
-393.39186315317193
 30
0.0
 40
519.48776673616965
 50
315.42350667430981
 51
318.50052655621488
1001
ACDBBLOCKREPETAG
1070
     1
1071
       12
1005
12C439
  0
LINE
  5
12C43A
  8
OBJECT
 10
8047.5000000000018
 20
-628.99999999999955
 30
0.0
 11
7952.5
 21
-628.99999999999955
 31
0.0
1001
ACDBBLOCKREPETAG
1070
     1
1071
       24
1005
12C43A
  0
ARC
  5
12C43B
  8
OBJECT
 10
7952.5
 20
-631.99999999999955
 30
0.0
 40
3.0
 50
90.0
 51
180.0
1001
ACDBBLOCKREPETAG
1070
     1
1071
       25
1005
12C43B
  0
LINE
  5
12C43C
  8
OBJECT
 10
7949.5
 20
-631.99999999999955
 30
0.0
 11
7949.5
 21
-633.99999999999955
 31
0.0
1001
ACDBBLOCKREPETAG
1070
     1
1071
       26
1005
12C43C
  0
LINE
  5
12C43D
  8
OBJECT
 10
8050.4999999999973
 20
-631.99999999999955
 30
0.0
 11
8050.4999999999973
 21
-633.99999999999955
 31
0.0
1001
ACDBBLOCKREPETAG
1070
     1
1071
       27
1005
12C43D
  0
ARC
  5
12C43E
  8
OBJECT
 10
8047.5000000000018
 20
-631.99999999999955
 30
0.0
 40
3.0
 50
0.0
 51
90.0
1001
ACDBBLOCKREPETAG
1070
     1
1071
       28
1005
12C43E
  0
POINT
  5
12C43F
  8
DOTS
 10
8000.0
 20
-754.99999999999955
 30
0.0
1001
ACDBBLOCKREPETAG
1070
     1
1071
       87
1005
12C43F
  0
LINE
  5
12C440
  8
SLIM
 10
7963.2171826682388
 20
-137.99999999999909
 30
0.0
 11
7969.9215079962914
 21
-131.29567467194681
 31
0.0
1001
ACDBBLOCKREPETAG
1070
     1
1071
      157
1005
0
1001
GRADIENTCOLOR1ACI
1070
     5
1001
GRADIENTCOLOR2ACI
1070
     2
1001
ACAD
1010
0.0
1020
0.0
1030
0.0
  0
LINE
  5
12C441
  8
SLIM
 10
7972.1974387893079
 20
-137.99999999999909
 30
0.0
 11
7983.3188363327517
 21
-126.87860245655401
 31
0.0
1001
GRADIENTCOLOR1ACI
1070
     5
1001
GRADIENTCOLOR2ACI
1070
     2
1001
ACAD
1010
0.0
1020
0.0
1030
0.0
1001
ACDBBLOCKREPETAG
1070
     1
1071
      160
1005
12C441
  0
LINE
  5
12C442
  8
SLIM
 10
7981.4849372887629
 20
-137.6927576216126
 30
0.0
 11
7993.9318052485969
 21
-125.245889661777
 31
0.0
1001
GRADIENTCOLOR1ACI
1070
     5
1001
GRADIENTCOLOR2ACI
1070
     2
1001
ACAD
1010
0.0
1020
0.0
1030
0.0
1001
ACDBBLOCKREPETAG
1070
     1
1071
      161
1005
12C442
  0
LINE
  5
12C443
  8
SLIM
 10
7992.7526568280337
 20
-135.40529420341099
 30
0.0
 11
8000.0
 21
-128.1579510314458
 31
0.0
1001
GRADIENTCOLOR1ACI
1070
     5
1001
GRADIENTCOLOR2ACI
1070
     2
1001
ACAD
1010
0.0
1020
0.0
1030
0.0
1001
ACDBBLOCKREPETAG
1070
     1
1071
      162
1005
12C443
  0
LINE
  5
12C444
  8
SLIM
 10
8000.0
 20
-128.1579510314458
 30
0.0
 11
8003.0941007878528
 21
-125.0638502435924
 31
0.0
1001
GRADIENTCOLOR1ACI
1070
     5
1001
GRADIENTCOLOR2ACI
1070
     2
1001
ACAD
1010
0.0
1020
0.0
1030
0.0
1001
ACDBBLOCKREPETAG
1070
     1
1071
      163
1005
12C444
  0
LINE
  5
12C445
  8
SLIM
 10
8002.1041412234727
 20
-135.03406592904389
 30
0.0
 11
8011.284425768652
 21
-125.85378138386341
 31
0.0
1001
GRADIENTCOLOR1ACI
1070
     5
1001
GRADIENTCOLOR2ACI
1070
     2
1001
ACAD
1010
0.0
1020
0.0
1030
0.0
1001
ACDBBLOCKREPETAG
1070
     1
1071
      164
1005
12C445
  0
LINE
  5
12C446
  8
SLIM
 10
8010.297585520927
 20
-135.82087775265759
 30
0.0
 11
8018.7395884655189
 21
-127.3788748080627
 31
0.0
1001
GRADIENTCOLOR1ACI
1070
     5
1001
GRADIENTCOLOR2ACI
1070
     2
1001
ACAD
1010
0.0
1020
0.0
1030
0.0
1001
ACDBBLOCKREPETAG
1070
     1
1071
      165
1005
12C446
  0
LINE
  5
12C447
  8
SLIM
 10
8017.6550793642282
 20
-137.4436400304258
 30
0.0
 11
8025.5958866269621
 21
-129.50283276769261
 31
0.0
1001
GRADIENTCOLOR1ACI
1070
     5
1001
GRADIENTCOLOR2ACI
1070
     2
1001
ACAD
1010
0.0
1020
0.0
1030
0.0
1001
ACDBBLOCKREPETAG
1070
     1
1071
      166
1005
12C447
  0
LINE
  5
12C448
  8
SLIM
 10
8026.078975515723
 20
-137.99999999999909
 30
0.0
 11
8031.9385859461063
 21
-132.1403895696169
 31
0.0
1001
GRADIENTCOLOR1ACI
1070
     5
1001
GRADIENTCOLOR2ACI
1070
     2
1001
ACAD
1010
0.0
1020
0.0
1030
0.0
1001
ACDBBLOCKREPETAG
1070
     1
1071
      167
1005
12C448
  0
LINE
  5
12C449
  8
SLIM
 10
8035.0592316367947
 20
-137.99999999999909
 30
0.0
 11
8037.8233654376218
 21
-135.23586619916779
 31
0.0
1001
GRADIENTCOLOR1ACI
1070
     5
1001
GRADIENTCOLOR2ACI
1070
     2
1001
ACAD
1010
0.0
1020
0.0
1030
0.0
1001
ACDBBLOCKREPETAG
1070
     1
1071
      168
1005
12C449
  0
CIRCLE
  5
12C44A
  8
OBJECT
 10
8000.0
 20
-199.99999999999909
 30
0.0
 40
65.0
1001
ACDBBLOCKREPETAG
1070
     1
1071
       84
1005
12C44A
  0
CIRCLE
  5
12C44B
  8
OBJECT
 10
8000.0
 20
-199.99999999999909
 30
0.0
 40
50.5
1001
ACDBBLOCKREPETAG
1070
     1
1071
       86
1005
12C44B
  0
LINE
  5
12C44C
  8
OBJECT
 10
8070.0
 20
-137.99999999999909
 30
0.0
 11
8019.5192212959419
 21
-137.99999999999909
 31
0.0
1001
ACDBBLOCKREPETAG
1070
     1
1071
       87
1005
12C44C
  0
LINE
  5
12C44D
  8
OBJECT
 10
7930.0
 20
-137.99999999999909
 30
0.0
 11
7980.4807787040572
 21
-137.99999999999909
 31
0.0
1001
ACDBBLOCKREPETAG
1070
     1
1071
       88
1005
12C44D
  0
LINE
  5
12C44E
  8
OBJECT
 10
7930.0
 20
-261.99999999999909
 30
0.0
 11
7938.0
 21
-261.99999999999909
 31
0.0
1001
ACDBBLOCKREPETAG
1070
     1
1071
       89
1005
12C44E
  0
LINE
  5
12C44F
  8
OBJECT
 10
7938.0
 20
-269.99999999999909
 30
0.0
 11
7938.0
 21
-261.99999999999909
 31
0.0
1001
ACDBBLOCKREPETAG
1070
     1
1071
       90
1005
12C44F
  0
LINE
  5
12C450
  8
OBJECT
 10
8070.0
 20
-261.99999999999909
 30
0.0
 11
8062.0
 21
-261.99999999999909
 31
0.0
1001
ACDBBLOCKREPETAG
1070
     1
1071
       91
1005
12C450
  0
LINE
  5
12C451
  8
OBJECT
 10
8062.0
 20
-269.99999999999909
 30
0.0
 11
8062.0
 21
-261.99999999999909
 31
0.0
1001
ACDBBLOCKREPETAG
1070
     1
1071
       92
1005
12C451
  0
LINE
  5
12C452
  8
CENTER
 10
7930.0
 20
-199.99999999999909
 30
0.0
 11
8070.0
 21
-199.99999999999909
 31
0.0
1001
ACDBBLOCKREPETAG
1070
     1
1071
       93
1005
12C452
  0
LINE
  5
12C453
  8
CENTER
 10
8000.0
 20
-269.99999999999909
 30
0.0
 11
8000.0
 21
-109.9999999999991
 31
0.0
1001
ACDBBLOCKREPETAG
1070
     1
1071
       94
1005
12C453
  0
LINE
  5
12C454
  8
OBJECT
 10
7954.0380592228739
 20
-245.96194077712289
 30
0.0
 11
7938.0
 21
-261.99999999999909
 31
0.0
1001
ACDBBLOCKREPETAG
1070
     1
1071
      106
1005
12C454
  0
LINE
  5
12C455
  8
OBJECT
 10
8045.9619407771252
 20
-245.96194077712289
 30
0.0
 11
8062.0
 21
-261.99999999999909
 31
0.0
1001
ACDBBLOCKREPETAG
1070
     1
1071
      107
1005
12C455
  0
ARC
  5
12C456
  8
OBJECT
 10
8000.0
 20
-199.99999999999909
 30
0.0
 40
75.0
 50
55.757831297238091
 51
124.2421687027619
1001
ACDBBLOCKREPETAG
1070
     1
1071
      108
1005
12C456
  0
POINT
  5
12C457
  8
DOTS
 10
8000.0
 20
-199.99999999999909
 30
0.0
1001
ACDBBLOCKREPETAG
1070
     1
1071
      159
1005
12C457
  0
LINE
  5
12C458
  8
OBJECT
 10
7807.0000000000127
 20
-582.99999999999955
 30
0.0
 11
7800.0000000000136
 21
-582.99999999999955
 31
0.0
1001
ACDBBLOCKREPETAG
1070
     1
1071
      324
1005
12C458
  0
LINE
  5
12C459
  8
OBJECT
 10
7800.0000000000136
 20
-582.99999999999955
 30
0.0
 11
7800.0000000000136
 21
-706.99999999999955
 31
0.0
1001
ACDBBLOCKREPETAG
1070
     1
1071
      325
1005
12C459
  0
LINE
  5
12C45A
  8
OBJECT
 10
7924.0000000000127
 20
-653.35026377572683
 30
0.0
 11
7924.0000000000127
 21
-755.00000000000034
 31
0.0
1001
ACDBBLOCKREPETAG
1070
     1
1071
      326
1005
12C45A
  0
LINE
  5
12C45B
  8
OBJECT
 10
7800.0000000000136
 20
-706.99999999999955
 30
0.0
 11
7807.0000000000127
 21
-706.99999999999955
 31
0.0
1001
ACDBBLOCKREPETAG
1070
     1
1071
      327
1005
12C45B
  0
LINE
  5
12C45C
  8
OBJECT
 10
7807.0000000000127
 20
-706.99999999999955
 30
0.0
 11
7807.0000000000127
 21
-582.99999999999955
 31
0.0
1001
ACDBBLOCKREPETAG
1070
     1
1071
      328
1005
12C45C
  0
LINE
  5
12C45D
  8
CENTER
 10
7875.0000000000136
 20
-645.00000000000045
 30
0.0
 11
7785.0000000000136
 21
-644.99999999999955
 31
0.0
1001
ACDBBLOCKREPETAG
1070
     1
1071
      329
1005
12C45D
  0
LINE
  5
12C45E
  8
OBJECT
 10
7930.0000000000182
 20
-757.99999999999955
 30
0.0
 11
7927.0000000000127
 21
-758.00000000000034
 31
0.0
1001
ACDBBLOCKREPETAG
1070
     1
1071
      330
1005
12C45E
  0
ARC
  5
12C45F
  8
OBJECT
 10
7927.0000000000127
 20
-755.00000000000034
 30
0.0
 40
3.0
 50
180.0
 51
270.0
1001
ACDBBLOCKREPETAG
1070
     1
1071
      331
1005
12C45F
  0
LINE
  5
12C460
  8
OBJECT
 10
7807.0000000000127
 20
-585.99999999999955
 30
0.0
 11
7843.0000000000136
 21
-586.00000000000045
 31
0.0
1001
ACDBBLOCKREPETAG
1070
     1
1071
      332
1005
12C460
  0
LINE
  5
12C461
  8
OBJECT
 10
7843.0000000000136
 20
-586.00000000000045
 30
0.0
 11
7843.0000000000136
 21
-704.00000000000045
 31
0.0
1001
ACDBBLOCKREPETAG
1070
     1
1071
      333
1005
12C461
  0
LINE
  5
12C462
  8
OBJECT
 10
7847.0000000000136
 20
-590.50000000000045
 30
0.0
 11
7847.0000000000136
 21
-699.50000000000045
 31
0.0
1001
ACDBBLOCKREPETAG
1070
     1
1071
      334
1005
12C462
  0
LINE
  5
12C463
  8
OBJECT
 10
7847.0000000000136
 20
-590.50000000000045
 30
0.0
 11
7860.0000000000127
 21
-590.50000000000045
 31
0.0
1001
ACDBBLOCKREPETAG
1070
     1
1071
      335
1005
12C463
  0
LINE
  5
12C464
  8
OBJECT
 10
7843.0000000000136
 20
-704.00000000000045
 30
0.0
 11
7807.0000000000127
 21
-703.99999999999955
 31
0.0
1001
ACDBBLOCKREPETAG
1070
     1
1071
      336
1005
12C464
  0
LINE
  5
12C465
  8
OBJECT
 10
7843.0000000000136
 20
-586.00000000000045
 30
0.0
 11
7847.0000000000136
 21
-590.50000000000045
 31
0.0
1001
ACDBBLOCKREPETAG
1070
     1
1071
      337
1005
12C465
  0
LINE
  5
12C466
  8
OBJECT
 10
7860.0000000000127
 20
-590.50000000000045
 30
0.0
 11
7860.0000000000127
 21
-675.7449182792875
 31
0.0
1001
ACDBBLOCKREPETAG
1070
     1
1071
      338
1005
12C466
  0
ARC
  5
12C467
  8
OBJECT
 10
7857.2000000000162
 20
-685.00000000000045
 30
0.0
 40
85.0
 50
36.869897645890923
 51
88.112268108168848
1001
ACDBBLOCKREPETAG
1070
     1
1071
      339
1005
12C467
  0
LINE
  5
12C468
  8
HIDDEN
 10
7852.0000000000136
 20
-600.50000000000057
 30
0.0
 11
7852.0000000000136
 21
-689.50000000000045
 31
0.0
1001
ACDBBLOCKREPETAG
1070
     1
1071
      341
1005
12C468
  0
LINE
  5
12C469
  8
OBJECT
 10
7924.0000000000127
 20
-751.07945073181725
 30
0.0
 11
7853.368680078971
 21
-699.50000000000045
 31
0.0
1001
ACDBBLOCKREPETAG
1070
     1
1071
      342
1005
12C469
  0
LINE
  5
12C46A
  8
OBJECT
 10
7930.0000000000182
 20
-633.99999999999955
 30
0.0
 11
7925.2000000000144
 21
-633.99999999999955
 31
0.0
1001
ACDBBLOCKREPETAG
1070
     1
1071
      343
1005
12C46A
  0
LINE
  5
12C46B
  8
OBJECT
 10
7924.0000000000127
 20
-653.35026377572945
 30
0.0
 11
7925.2000000000144
 21
-633.99999999999955
 31
0.0
1001
ACDBBLOCKREPETAG
1070
     1
1071
      344
1005
12C46B
  0
LINE
  5
12C46C
  8
OBJECT
 10
7847.0000000000136
 20
-699.50000000000045
 30
0.0
 11
7853.368680078971
 21
-699.50000000000045
 31
0.0
1001
ACDBBLOCKREPETAG
1070
     1
1071
      345
1005
12C46C
  0
LINE
  5
12C46D
  8
OBJECT
 10
7843.0000000000136
 20
-704.00000000000045
 30
0.0
 11
7847.0000000000136
 21
-699.50000000000045
 31
0.0
1001
ACDBBLOCKREPETAG
1070
     1
1071
      346
1005
12C46D
  0
LINE
  5
12C46E
  8
OBJECT
 10
7807.0000000000127
 20
-261.99999999999909
 30
0.0
 11
7800.0000000000136
 21
-261.99999999999909
 31
0.0
1001
ACDBBLOCKREPETAG
1070
     1
1071
      376
1005
12C46E
  0
LINE
  5
12C46F
  8
OBJECT
 10
7800.0000000000136
 20
-261.99999999999909
 30
0.0
 11
7800.0000000000136
 21
-137.99999999999909
 31
0.0
1001
ACDBBLOCKREPETAG
1070
     1
1071
      377
1005
12C46F
  0
LINE
  5
12C470
  8
OBJECT
 10
7800.0000000000136
 20
-137.99999999999909
 30
0.0
 11
7807.0000000000127
 21
-137.99999999999909
 31
0.0
1001
ACDBBLOCKREPETAG
1070
     1
1071
      378
1005
12C470
  0
LINE
  5
12C471
  8
OBJECT
 10
7807.0000000000127
 20
-137.99999999999909
 30
0.0
 11
7807.0000000000127
 21
-261.99999999999909
 31
0.0
1001
ACDBBLOCKREPETAG
1070
     1
1071
      379
1005
12C471
  0
LINE
  5
12C472
  8
CENTER
 10
7785.0000000000136
 20
-199.99999999999909
 30
0.0
 11
7930.0
 21
-199.99999999999909
 31
0.0
1001
ACDBBLOCKREPETAG
1070
     1
1071
      380
1005
12C472
  0
LINE
  5
12C473
  8
OBJECT
 10
7860.0000250358116
 20
-154.9999999999954
 30
0.0
 11
7924.0
 21
-154.99999999999909
 31
0.0
1001
ACDBBLOCKREPETAG
1070
     1
1071
      381
1005
12C473
  0
LINE
  5
12C474
  8
OBJECT
 10
7860.0000250358116
 20
-244.99999999999909
 30
0.0
 11
7924.0
 21
-244.99999999999909
 31
0.0
1001
ACDBBLOCKREPETAG
1070
     1
1071
      382
1005
12C474
  0
LINE
  5
12C475
  8
OBJECT
 10
7807.0000000000127
 20
-258.99999999999909
 30
0.0
 11
7843.0000000000136
 21
-258.99999999999909
 31
0.0
1001
ACDBBLOCKREPETAG
1070
     1
1071
      383
1005
12C475
  0
LINE
  5
12C476
  8
OBJECT
 10
7843.0000000000136
 20
-258.99999999999909
 30
0.0
 11
7843.0000000000136
 21
-140.99999999999909
 31
0.0
1001
ACDBBLOCKREPETAG
1070
     1
1071
      384
1005
12C476
  0
LINE
  5
12C477
  8
OBJECT
 10
7843.0000000000136
 20
-140.99999999999909
 30
0.0
 11
7807.0000000000127
 21
-140.99999999999909
 31
0.0
1001
ACDBBLOCKREPETAG
1070
     1
1071
      385
1005
12C477
  0
LINE
  5
12C478
  8
OBJECT
 10
7847.0000000000136
 20
-254.49999999999909
 30
0.0
 11
7860.0000000000127
 21
-254.49999999999909
 31
0.0
1001
ACDBBLOCKREPETAG
1070
     1
1071
      386
1005
12C478
  0
LINE
  5
12C479
  8
OBJECT
 10
7860.0000000000127
 20
-145.49999999999909
 30
0.0
 11
7847.0000000000136
 21
-145.49999999999909
 31
0.0
1001
ACDBBLOCKREPETAG
1070
     1
1071
      387
1005
12C479
  0
LINE
  5
12C47A
  8
OBJECT
 10
7847.0000000000136
 20
-145.49999999999909
 30
0.0
 11
7847.0000000000136
 21
-254.49999999999909
 31
0.0
1001
ACDBBLOCKREPETAG
1070
     1
1071
      388
1005
12C47A
  0
LINE
  5
12C47B
  8
OBJECT
 10
7843.0000000000136
 20
-258.99999999999909
 30
0.0
 11
7847.0000000000136
 21
-254.49999999999909
 31
0.0
1001
ACDBBLOCKREPETAG
1070
     1
1071
      389
1005
12C47B
  0
LINE
  5
12C47C
  8
OBJECT
 10
7843.0000000000136
 20
-140.99999999999909
 30
0.0
 11
7847.0000000000136
 21
-145.49999999999909
 31
0.0
1001
ACDBBLOCKREPETAG
1070
     1
1071
      390
1005
12C47C
  0
LINE
  5
12C47D
  8
OBJECT
 10
7927.0
 20
-261.99999999999909
 30
0.0
 11
7930.0
 21
-261.99999999999909
 31
0.0
1001
ACDBBLOCKREPETAG
1070
     1
1071
      391
1005
12C47D
  0
ARC
  5
12C47E
  8
OBJECT
 10
7927.0
 20
-258.99999999999909
 30
0.0
 40
3.0
 50
180.0
 51
270.0
1001
ACDBBLOCKREPETAG
1070
     1
1071
      392
1005
12C47E
  0
LINE
  5
12C47F
  8
OBJECT
 10
7930.0
 20
-137.99999999999909
 30
0.0
 11
7927.0
 21
-137.99999999999909
 31
0.0
1001
ACDBBLOCKREPETAG
1070
     1
1071
      393
1005
12C47F
  0
ARC
  5
12C480
  8
OBJECT
 10
7927.0
 20
-140.99999999999909
 30
0.0
 40
3.0
 50
90.0
 51
180.0
1001
ACDBBLOCKREPETAG
1070
     1
1071
      394
1005
12C480
  0
LINE
  5
12C481
  8
OBJECT
 10
7924.0
 20
-140.99999999999909
 30
0.0
 11
7924.0
 21
-189.6772096796403
 31
0.0
1001
ACDBBLOCKREPETAG
1070
     1
1071
      395
1005
12C481
  0
LINE
  5
12C482
  8
OBJECT
 10
7924.0
 20
-210.3227903203578
 30
0.0
 11
7924.0
 21
-258.99999999999909
 31
0.0
1001
ACDBBLOCKREPETAG
1070
     1
1071
      396
1005
12C482
  0
LINE
  5
12C483
  8
HIDDEN
 10
7852.0000000000136
 20
-244.49999999999909
 30
0.0
 11
7852.0000000000136
 21
-155.49999999999909
 31
0.0
1001
ACDBBLOCKREPETAG
1070
     1
1071
      397
1005
12C483
  0
LINE
  5
12C484
  8
OBJECT
 10
7860.0000250358116
 20
-145.50004907618759
 30
0.0
 11
7860.0000250358116
 21
-254.50004907618771
 31
0.0
1001
ACDBBLOCKREPETAG
1070
     1
1071
      399
1005
12C484
  0
ARC
  5
12C485
  8
OBJECT
 10
7880.1999999999753
 20
-199.99999999999909
 30
0.0
 40
45.000000000000547
 50
270.0
 51
90.0
1001
ACDBBLOCKREPETAG
1070
     1
1071
      400
1005
12C485
  0
LINE
  5
12C486
  8
CENTER
 10
8000.0
 20
-290.99999999999898
 30
0.0
 11
8000.0
 21
-269.99999999999909
 31
0.0
1001
ACDBBLOCKREPETAG
1070
     1
1071
        0
1005
12C486
  0
LINE
  5
12C487
  8
OBJECT
 10
8062.0
 20
-273.0
 30
0.0
 11
8062.0
 21
-269.99999999999909
 31
0.0
1001
ACDBBLOCKREPETAG
1070
     1
1071
        1
1005
12C487
  0
ARC
  5
12C488
  8
OBJECT
 10
8059.0
 20
-273.0
 30
0.0
 40
3.0
 50
270.0
 51
0.0
1001
ACDBBLOCKREPETAG
1070
     1
1071
        2
1005
12C488
  0
LINE
  5
12C489
  8
OBJECT
 10
7938.0
 20
-269.99999999999909
 30
0.0
 11
7938.0
 21
-272.99999999999818
 31
0.0
1001
ACDBBLOCKREPETAG
1070
     1
1071
        3
1005
12C489
  0
ARC
  5
12C48A
  8
OBJECT
 10
7941.0
 20
-272.99999999999818
 30
0.0
 40
3.0
 50
180.0
 51
270.0
1001
ACDBBLOCKREPETAG
1070
     1
1071
        4
1005
12C48A
  0
LINE
  5
12C48B
  8
OBJECT
 10
7941.0
 20
-275.99999999999818
 30
0.0
 11
8059.0
 21
-276.0
 31
0.0
1001
ACDBBLOCKREPETAG
1070
     1
1071
        5
1005
12C48B
  0
LINE
  5
12C48C
  8
OBJECT
 10
8123.0
 20
-663.99999999999966
 30
0.0
 11
8130.0
 21
-663.99999999999966
 31
0.0
1001
ACDBBLOCKREPETAG
1070
     1
1071
        7
1005
12C48C
  0
LINE
  5
12C48D
  8
OBJECT
 10
8130.0
 20
-663.99999999999966
 30
0.0
 11
8130.0
 21
-754.99999999999955
 31
0.0
1001
ACDBBLOCKREPETAG
1070
     1
1071
        8
1005
12C48D
  0
LINE
  5
12C48E
  8
OBJECT
 10
8123.0
 20
-754.99999999999955
 30
0.0
 11
8123.0
 21
-663.99999999999966
 31
0.0
1001
ACDBBLOCKREPETAG
1070
     1
1071
        9
1005
12C48E
  0
LINE
  5
12C48F
  8
CENTER
 10
8145.0
 20
-710.99999999999955
 30
0.0
 11
8061.0
 21
-710.99999999999955
 31
0.0
1001
ACDBBLOCKREPETAG
1070
     1
1071
       10
1005
12C48F
  0
LINE
  5
12C490
  8
OBJECT
 10
8123.0
 20
-666.99999999999955
 30
0.0
 11
8087.0
 21
-666.99999999999955
 31
0.0
1001
ACDBBLOCKREPETAG
1070
     1
1071
       11
1005
12C490
  0
LINE
  5
12C491
  8
OBJECT
 10
8087.0
 20
-666.99999999999955
 30
0.0
 11
8087.0
 21
-754.99999999999955
 31
0.0
1001
ACDBBLOCKREPETAG
1070
     1
1071
       12
1005
12C491
  0
LINE
  5
12C492
  8
OBJECT
 10
8087.0
 20
-754.99999999999955
 30
0.0
 11
8130.0
 21
-754.99999999999955
 31
0.0
1001
ACDBBLOCKREPETAG
1070
     1
1071
       13
1005
12C492
  0
LINE
  5
12C493
  8
OBJECT
 10
8083.0
 20
-671.49999999999955
 30
0.0
 11
8076.0
 21
-671.49999999999955
 31
0.0
1001
ACDBBLOCKREPETAG
1070
     1
1071
       14
1005
12C493
  0
LINE
  5
12C494
  8
OBJECT
 10
8076.0
 20
-750.49999999999955
 30
0.0
 11
8083.0
 21
-750.49999999999955
 31
0.0
1001
ACDBBLOCKREPETAG
1070
     1
1071
       15
1005
12C494
  0
LINE
  5
12C495
  8
OBJECT
 10
8083.0
 20
-750.49999999999955
 30
0.0
 11
8083.0
 21
-671.49999999999955
 31
0.0
1001
ACDBBLOCKREPETAG
1070
     1
1071
       16
1005
12C495
  0
LINE
  5
12C496
  8
OBJECT
 10
8087.0
 20
-666.99999999999955
 30
0.0
 11
8083.0
 21
-671.49999999999955
 31
0.0
1001
ACDBBLOCKREPETAG
1070
     1
1071
       17
1005
12C496
  0
LINE
  5
12C497
  8
OBJECT
 10
8087.0
 20
-754.99999999999955
 30
0.0
 11
8083.0
 21
-750.49999999999955
 31
0.0
1001
ACDBBLOCKREPETAG
1070
     1
1071
       18
1005
12C497
  0
LINE
  5
12C498
  8
OBJECT
 10
8073.0
 20
-633.99999999999955
 30
0.0
 11
8070.0
 21
-633.99999999999955
 31
0.0
1001
ACDBBLOCKREPETAG
1070
     1
1071
       19
1005
12C498
  0
ARC
  5
12C499
  8
OBJECT
 10
8073.0
 20
-636.99999999999955
 30
0.0
 40
3.0
 50
0.0
 51
90.0
1001
ACDBBLOCKREPETAG
1070
     1
1071
       20
1005
12C499
  0
LINE
  5
12C49A
  8
OBJECT
 10
8070.0
 20
-757.99999999999955
 30
0.0
 11
8073.0
 21
-757.99999999999955
 31
0.0
1001
ACDBBLOCKREPETAG
1070
     1
1071
       21
1005
12C49A
  0
ARC
  5
12C49B
  8
OBJECT
 10
8073.0
 20
-754.99999999999955
 30
0.0
 40
3.0
 50
270.0
 51
0.0
1001
ACDBBLOCKREPETAG
1070
     1
1071
       22
1005
12C49B
  0
LINE
  5
12C49C
  8
OBJECT
 10
8076.0
 20
-754.99999999999955
 30
0.0
 11
8076.0
 21
-636.99999999999955
 31
0.0
1001
ACDBBLOCKREPETAG
1070
     1
1071
       23
1005
12C49C
  0
LINE
  5
12C49D
  8
HIDDEN
 10
8078.0
 20
-680.99999999999955
 30
0.0
 11
8078.0
 21
-740.99999999999955
 31
0.0
1001
ACDBBLOCKREPETAG
1070
     1
1071
       24
1005
12C49D
  0
LINE
  5
12C49E
  8
OBJECT
 10
8123.0
 20
-152.99999999999909
 30
0.0
 11
8130.0
 21
-152.99999999999909
 31
0.0
1001
ACDBBLOCKREPETAG
1070
     1
1071
        7
1005
12C49E
  0
LINE
  5
12C49F
  8
OBJECT
 10
8130.0
 20
-152.99999999999909
 30
0.0
 11
8130.0
 21
-246.99999999999909
 31
0.0
1001
ACDBBLOCKREPETAG
1070
     1
1071
        8
1005
12C49F
  0
LINE
  5
12C4A0
  8
OBJECT
 10
8130.0
 20
-246.99999999999909
 30
0.0
 11
8123.0
 21
-246.99999999999909
 31
0.0
1001
ACDBBLOCKREPETAG
1070
     1
1071
        9
1005
12C4A0
  0
LINE
  5
12C4A1
  8
OBJECT
 10
8123.0
 20
-246.99999999999909
 30
0.0
 11
8123.0
 21
-152.99999999999909
 31
0.0
1001
ACDBBLOCKREPETAG
1070
     1
1071
       10
1005
12C4A1
  0
LINE
  5
12C4A2
  8
CENTER
 10
8145.0
 20
-199.99999999999909
 30
0.0
 11
8070.0
 21
-199.99999999999909
 31
0.0
1001
ACDBBLOCKREPETAG
1070
     1
1071
       11
1005
12C4A2
  0
LINE
  5
12C4A3
  8
OBJECT
 10
8123.0
 20
-155.99999999999909
 30
0.0
 11
8087.0
 21
-155.99999999999909
 31
0.0
1001
ACDBBLOCKREPETAG
1070
     1
1071
       12
1005
12C4A3
  0
LINE
  5
12C4A4
  8
OBJECT
 10
8087.0
 20
-155.99999999999909
 30
0.0
 11
8087.0
 21
-243.99999999999909
 31
0.0
1001
ACDBBLOCKREPETAG
1070
     1
1071
       13
1005
12C4A4
  0
LINE
  5
12C4A5
  8
OBJECT
 10
8087.0
 20
-243.99999999999909
 30
0.0
 11
8123.0
 21
-243.99999999999909
 31
0.0
1001
ACDBBLOCKREPETAG
1070
     1
1071
       14
1005
12C4A5
  0
LINE
  5
12C4A6
  8
OBJECT
 10
8083.0
 20
-160.49999999999909
 30
0.0
 11
8076.0
 21
-160.49999999999909
 31
0.0
1001
ACDBBLOCKREPETAG
1070
     1
1071
       15
1005
12C4A6
  0
LINE
  5
12C4A7
  8
OBJECT
 10
8076.0
 20
-239.49999999999909
 30
0.0
 11
8083.0
 21
-239.49999999999909
 31
0.0
1001
ACDBBLOCKREPETAG
1070
     1
1071
       16
1005
12C4A7
  0
LINE
  5
12C4A8
  8
OBJECT
 10
8083.0
 20
-239.49999999999909
 30
0.0
 11
8083.0
 21
-160.49999999999909
 31
0.0
1001
ACDBBLOCKREPETAG
1070
     1
1071
       17
1005
12C4A8
  0
LINE
  5
12C4A9
  8
OBJECT
 10
8087.0
 20
-155.99999999999909
 30
0.0
 11
8083.0
 21
-160.49999999999909
 31
0.0
1001
ACDBBLOCKREPETAG
1070
     1
1071
       18
1005
12C4A9
  0
LINE
  5
12C4AA
  8
OBJECT
 10
8087.0
 20
-243.99999999999909
 30
0.0
 11
8083.0
 21
-239.49999999999909
 31
0.0
1001
ACDBBLOCKREPETAG
1070
     1
1071
       19
1005
12C4AA
  0
LINE
  5
12C4AB
  8
OBJECT
 10
8073.0
 20
-137.99999999999909
 30
0.0
 11
8070.0
 21
-137.99999999999909
 31
0.0
1001
ACDBBLOCKREPETAG
1070
     1
1071
       20
1005
12C4AB
  0
ARC
  5
12C4AC
  8
OBJECT
 10
8073.0
 20
-140.99999999999909
 30
0.0
 40
3.0
 50
0.0
 51
90.0
1001
ACDBBLOCKREPETAG
1070
     1
1071
       21
1005
12C4AC
  0
LINE
  5
12C4AD
  8
OBJECT
 10
8070.0
 20
-261.99999999999909
 30
0.0
 11
8073.0
 21
-261.99999999999909
 31
0.0
1001
ACDBBLOCKREPETAG
1070
     1
1071
       22
1005
12C4AD
  0
ARC
  5
12C4AE
  8
OBJECT
 10
8073.0
 20
-258.99999999999909
 30
0.0
 40
3.0
 50
270.0
 51
0.0
1001
ACDBBLOCKREPETAG
1070
     1
1071
       23
1005
12C4AE
  0
LINE
  5
12C4AF
  8
OBJECT
 10
8076.0
 20
-258.99999999999909
 30
0.0
 11
8076.0
 21
-140.99999999999909
 31
0.0
1001
ACDBBLOCKREPETAG
1070
     1
1071
       24
1005
12C4AF
  0
LINE
  5
12C4B0
  8
HIDDEN
 10
8078.0
 20
-169.99999999999909
 30
0.0
 11
8078.0
 21
-229.99999999999909
 31
0.0
1001
ACDBBLOCKREPETAG
1070
     1
1071
       25
1005
12C4B0
  0
CIRCLE
  5
12C4B1
  8
OBJECT
 10
6000.0
 20
-695.99999999999955
 30
0.0
 40
62.0
1001
ACDBBLOCKREPETAG
1070
     1
1071
        0
1005
12C4B1
  0
LINE
  5
12C4B2
  8
CENTER
 10
6000.0
 20
-769.99999999999955
 30
0.0
 11
6000.0
 21
-613.99999999999966
 31
0.0
1001
ACDBBLOCKREPETAG
1070
     1
1071
        0
1005
12C4B2
  0
LINE
  5
12C4B3
  8
OBJECT
 10
5930.0
 20
-633.99999999999955
 30
0.0
 11
6070.0
 21
-633.99999999999955
 31
0.0
1001
ACDBBLOCKREPETAG
1070
     1
1071
        1
1005
12C4B3
  0
LINE
  5
12C4B4
  8
OBJECT
 10
5930.0
 20
-757.99999999999955
 30
0.0
 11
5930.0
 21
-769.99999999999955
 31
0.0
1001
ACDBBLOCKREPETAG
1070
     1
1071
        2
1005
12C4B4
  0
LINE
  5
12C4B5
  8
OBJECT
 10
5930.0
 20
-769.99999999999955
 30
0.0
 11
6070.0
 21
-769.99999999999955
 31
0.0
1001
ACDBBLOCKREPETAG
1070
     1
1071
        3
1005
12C4B5
  0
LINE
  5
12C4B6
  8
OBJECT
 10
6070.0
 20
-769.99999999999955
 30
0.0
 11
6070.0
 21
-757.99999999999955
 31
0.0
1001
ACDBBLOCKREPETAG
1070
     1
1071
        4
1005
12C4B6
  0
LINE
  5
12C4B7
  8
OBJECT
 10
6070.0
 20
-757.99999999999955
 30
0.0
 11
5930.0
 21
-757.99999999999955
 31
0.0
1001
ACDBBLOCKREPETAG
1070
     1
1071
        5
1005
12C4B7
  0
ARC
  5
12C4B8
  8
OBJECT
 10
6435.0384389946776
 20
-998.60813684682694
 30
0.0
 40
519.48776673616965
 50
135.42350667430969
 51
138.50052655621499
1001
ACDBBLOCKREPETAG
1070
     1
1071
        9
1005
12C4B8
  0
ARC
  5
12C4B9
  8
OBJECT
 10
6435.0384389946776
 20
-393.39186315317193
 30
0.0
 40
519.48776673616965
 50
221.49947344378501
 51
224.57649332569039
1001
ACDBBLOCKREPETAG
1070
     1
1071
       10
1005
12C4B9
  0
ARC
  5
12C4BA
  8
OBJECT
 10
5564.9615610053224
 20
-998.60813684682694
 30
0.0
 40
519.48776673616965
 50
41.499473443784993
 51
44.576493325690237
1001
ACDBBLOCKREPETAG
1070
     1
1071
       11
1005
12C4BA
  0
ARC
  5
12C4BB
  8
OBJECT
 10
5564.9615610053224
 20
-393.39186315317193
 30
0.0
 40
519.48776673616965
 50
315.42350667430981
 51
318.50052655621488
1001
ACDBBLOCKREPETAG
1070
     1
1071
       12
1005
12C4BB
  0
LINE
  5
12C4BC
  8
OBJECT
 10
6047.5
 20
-628.99999999999955
 30
0.0
 11
5952.5
 21
-628.99999999999955
 31
0.0
1001
ACDBBLOCKREPETAG
1070
     1
1071
       24
1005
12C4BC
  0
ARC
  5
12C4BD
  8
OBJECT
 10
5952.5
 20
-631.99999999999955
 30
0.0
 40
3.0
 50
90.0
 51
180.0
1001
ACDBBLOCKREPETAG
1070
     1
1071
       25
1005
12C4BD
  0
LINE
  5
12C4BE
  8
OBJECT
 10
5949.5
 20
-631.99999999999955
 30
0.0
 11
5949.5
 21
-633.99999999999955
 31
0.0
1001
ACDBBLOCKREPETAG
1070
     1
1071
       26
1005
12C4BE
  0
LINE
  5
12C4BF
  8
OBJECT
 10
6050.5
 20
-631.99999999999955
 30
0.0
 11
6050.5
 21
-633.99999999999955
 31
0.0
1001
ACDBBLOCKREPETAG
1070
     1
1071
       27
1005
12C4BF
  0
ARC
  5
12C4C0
  8
OBJECT
 10
6047.5
 20
-631.99999999999955
 30
0.0
 40
3.0
 50
0.0
 51
90.0
1001
ACDBBLOCKREPETAG
1070
     1
1071
       28
1005
12C4C0
  0
POINT
  5
12C4C1
  8
DOTS
 10
6000.0
 20
-754.99999999999955
 30
0.0
1001
ACDBBLOCKREPETAG
1070
     1
1071
       87
1005
12C4C1
  0
ARC
  5
12C4C2
  8
OBJECT
 10
6000.0
 20
-199.99999999999909
 30
0.0
 40
70.0
 50
62.339550100781771
 51
117.66044989921819
1001
ACDBBLOCKREPETAG
1070
     1
1071
        0
1005
12C4C2
  0
CIRCLE
  5
12C4C3
  8
OBJECT
 10
6000.0
 20
-199.99999999999909
 30
0.0
 40
65.0
1001
ACDBBLOCKREPETAG
1070
     1
1071
        1
1005
12C4C3
  0
CIRCLE
  5
12C4C4
  8
OBJECT
 10
6000.0
 20
-199.99999999999909
 30
0.0
 40
50.5
1001
ACDBBLOCKREPETAG
1070
     1
1071
        3
1005
12C4C4
  0
LINE
  5
12C4C5
  8
OBJECT
 10
6070.0
 20
-137.99999999999909
 30
0.0
 11
6019.5192212959437
 21
-137.99999999999909
 31
0.0
1001
ACDBBLOCKREPETAG
1070
     1
1071
        4
1005
12C4C5
  0
LINE
  5
12C4C6
  8
OBJECT
 10
5930.0
 20
-137.99999999999909
 30
0.0
 11
5980.4807787040563
 21
-137.99999999999909
 31
0.0
1001
ACDBBLOCKREPETAG
1070
     1
1071
        5
1005
12C4C6
  0
LINE
  5
12C4C7
  8
OBJECT
 10
5930.0
 20
-261.99999999999909
 30
0.0
 11
5938.0
 21
-261.99999999999909
 31
0.0
1001
ACDBBLOCKREPETAG
1070
     1
1071
        6
1005
12C4C7
  0
LINE
  5
12C4C8
  8
OBJECT
 10
5938.0
 20
-269.99999999999909
 30
0.0
 11
5938.0
 21
-261.99999999999909
 31
0.0
1001
ACDBBLOCKREPETAG
1070
     1
1071
        7
1005
12C4C8
  0
LINE
  5
12C4C9
  8
OBJECT
 10
6070.0
 20
-261.99999999999909
 30
0.0
 11
6062.0
 21
-261.99999999999909
 31
0.0
1001
ACDBBLOCKREPETAG
1070
     1
1071
        8
1005
12C4C9
  0
LINE
  5
12C4CA
  8
OBJECT
 10
6062.0
 20
-269.99999999999909
 30
0.0
 11
6062.0
 21
-261.99999999999909
 31
0.0
1001
ACDBBLOCKREPETAG
1070
     1
1071
        9
1005
12C4CA
  0
LINE
  5
12C4CB
  8
CENTER
 10
5930.0
 20
-199.99999999999909
 30
0.0
 11
6070.0
 21
-199.99999999999909
 31
0.0
1001
ACDBBLOCKREPETAG
1070
     1
1071
       10
1005
12C4CB
  0
LINE
  5
12C4CC
  8
CENTER
 10
6000.0
 20
-269.99999999999909
 30
0.0
 11
6000.0
 21
-114.9999999999991
 31
0.0
1001
ACDBBLOCKREPETAG
1070
     1
1071
       11
1005
12C4CC
  0
LINE
  5
12C4CD
  8
OBJECT
 10
5954.0380592228739
 20
-245.96194077712471
 30
0.0
 11
5938.0
 21
-261.99999999999909
 31
0.0
1001
ACDBBLOCKREPETAG
1070
     1
1071
       42
1005
12C4CD
  0
LINE
  5
12C4CE
  8
OBJECT
 10
6045.9619407771252
 20
-245.96194077712471
 30
0.0
 11
6062.0
 21
-261.99999999999909
 31
0.0
1001
ACDBBLOCKREPETAG
1070
     1
1071
       43
1005
12C4CE
  0
POINT
  5
12C4CF
  8
DOTS
 10
6000.0
 20
-199.99999999999909
 30
0.0
1001
ACDBBLOCKREPETAG
1070
     1
1071
      158
1005
12C4CF
  0
LINE
  5
12C4D0
  8
OBJECT
 10
5807.0000000000146
 20
-582.99999999999955
 30
0.0
 11
5800.0000000000136
 21
-582.99999999999955
 31
0.0
1001
ACDBBLOCKREPETAG
1070
     1
1071
      324
1005
12C4D0
  0
LINE
  5
12C4D1
  8
OBJECT
 10
5800.0000000000136
 20
-582.99999999999955
 30
0.0
 11
5800.0000000000136
 21
-706.99999999999955
 31
0.0
1001
ACDBBLOCKREPETAG
1070
     1
1071
      325
1005
12C4D1
  0
LINE
  5
12C4D2
  8
OBJECT
 10
5924.0000000000127
 20
-653.35026377572683
 30
0.0
 11
5924.0000000000127
 21
-755.00000000000034
 31
0.0
1001
ACDBBLOCKREPETAG
1070
     1
1071
      326
1005
12C4D2
  0
LINE
  5
12C4D3
  8
OBJECT
 10
5800.0000000000136
 20
-706.99999999999955
 30
0.0
 11
5807.0000000000146
 21
-706.99999999999955
 31
0.0
1001
ACDBBLOCKREPETAG
1070
     1
1071
      327
1005
12C4D3
  0
LINE
  5
12C4D4
  8
OBJECT
 10
5807.0000000000146
 20
-706.99999999999955
 30
0.0
 11
5807.0000000000146
 21
-582.99999999999955
 31
0.0
1001
ACDBBLOCKREPETAG
1070
     1
1071
      328
1005
12C4D4
  0
LINE
  5
12C4D5
  8
CENTER
 10
5875.0000000000146
 20
-645.00000000000045
 30
0.0
 11
5785.0000000000136
 21
-644.99999999999955
 31
0.0
1001
ACDBBLOCKREPETAG
1070
     1
1071
      329
1005
12C4D5
  0
LINE
  5
12C4D6
  8
OBJECT
 10
5930.0000000000182
 20
-757.99999999999955
 30
0.0
 11
5927.0000000000127
 21
-758.00000000000034
 31
0.0
1001
ACDBBLOCKREPETAG
1070
     1
1071
      330
1005
12C4D6
  0
ARC
  5
12C4D7
  8
OBJECT
 10
5927.0000000000127
 20
-755.00000000000034
 30
0.0
 40
3.0
 50
180.0
 51
270.0
1001
ACDBBLOCKREPETAG
1070
     1
1071
      331
1005
12C4D7
  0
LINE
  5
12C4D8
  8
OBJECT
 10
5807.0000000000146
 20
-585.99999999999955
 30
0.0
 11
5843.0000000000146
 21
-586.00000000000045
 31
0.0
1001
ACDBBLOCKREPETAG
1070
     1
1071
      332
1005
12C4D8
  0
LINE
  5
12C4D9
  8
OBJECT
 10
5843.0000000000146
 20
-586.00000000000045
 30
0.0
 11
5843.0000000000146
 21
-704.00000000000045
 31
0.0
1001
ACDBBLOCKREPETAG
1070
     1
1071
      333
1005
12C4D9
  0
LINE
  5
12C4DA
  8
OBJECT
 10
5847.0000000000146
 20
-590.50000000000045
 30
0.0
 11
5847.0000000000146
 21
-699.50000000000045
 31
0.0
1001
ACDBBLOCKREPETAG
1070
     1
1071
      334
1005
12C4DA
  0
LINE
  5
12C4DB
  8
OBJECT
 10
5847.0000000000146
 20
-590.50000000000045
 30
0.0
 11
5860.0000000000127
 21
-590.50000000000045
 31
0.0
1001
ACDBBLOCKREPETAG
1070
     1
1071
      335
1005
12C4DB
  0
LINE
  5
12C4DC
  8
OBJECT
 10
5843.0000000000146
 20
-704.00000000000045
 30
0.0
 11
5807.0000000000146
 21
-703.99999999999955
 31
0.0
1001
ACDBBLOCKREPETAG
1070
     1
1071
      336
1005
12C4DC
  0
LINE
  5
12C4DD
  8
OBJECT
 10
5843.0000000000146
 20
-586.00000000000045
 30
0.0
 11
5847.0000000000146
 21
-590.50000000000045
 31
0.0
1001
ACDBBLOCKREPETAG
1070
     1
1071
      337
1005
12C4DD
  0
LINE
  5
12C4DE
  8
OBJECT
 10
5860.0000000000127
 20
-590.50000000000045
 30
0.0
 11
5860.0000000000127
 21
-675.7449182792875
 31
0.0
1001
ACDBBLOCKREPETAG
1070
     1
1071
      338
1005
12C4DE
  0
ARC
  5
12C4DF
  8
OBJECT
 10
5857.2000000000144
 20
-685.00000000000045
 30
0.0
 40
85.0
 50
36.869897645890923
 51
88.112268108168848
1001
ACDBBLOCKREPETAG
1070
     1
1071
      339
1005
12C4DF
  0
LINE
  5
12C4E0
  8
HIDDEN
 10
5852.0000000000136
 20
-600.50000000000057
 30
0.0
 11
5852.0000000000136
 21
-689.50000000000045
 31
0.0
1001
ACDBBLOCKREPETAG
1070
     1
1071
      341
1005
12C4E0
  0
LINE
  5
12C4E1
  8
OBJECT
 10
5924.0000000000127
 20
-751.07945073181725
 30
0.0
 11
5853.3686800789683
 21
-699.50000000000045
 31
0.0
1001
ACDBBLOCKREPETAG
1070
     1
1071
      342
1005
12C4E1
  0
LINE
  5
12C4E2
  8
OBJECT
 10
5930.0000000000182
 20
-633.99999999999955
 30
0.0
 11
5925.2000000000144
 21
-633.99999999999955
 31
0.0
1001
ACDBBLOCKREPETAG
1070
     1
1071
      343
1005
12C4E2
  0
LINE
  5
12C4E3
  8
OBJECT
 10
5924.0000000000127
 20
-653.35026377572945
 30
0.0
 11
5925.2000000000144
 21
-633.99999999999955
 31
0.0
1001
ACDBBLOCKREPETAG
1070
     1
1071
      344
1005
12C4E3
  0
LINE
  5
12C4E4
  8
OBJECT
 10
5847.0000000000146
 20
-699.50000000000045
 30
0.0
 11
5853.3686800789683
 21
-699.50000000000045
 31
0.0
1001
ACDBBLOCKREPETAG
1070
     1
1071
      345
1005
12C4E4
  0
LINE
  5
12C4E5
  8
OBJECT
 10
5843.0000000000146
 20
-704.00000000000045
 30
0.0
 11
5847.0000000000146
 21
-699.50000000000045
 31
0.0
1001
ACDBBLOCKREPETAG
1070
     1
1071
      346
1005
12C4E5
  0
LINE
  5
12C4E6
  8
OBJECT
 10
5807.0000000000146
 20
-261.99999999999909
 30
0.0
 11
5800.0000000000136
 21
-261.99999999999909
 31
0.0
1001
ACDBBLOCKREPETAG
1070
     1
1071
      376
1005
12C4E6
  0
LINE
  5
12C4E7
  8
OBJECT
 10
5800.0000000000136
 20
-261.99999999999909
 30
0.0
 11
5800.0000000000136
 21
-137.99999999999909
 31
0.0
1001
ACDBBLOCKREPETAG
1070
     1
1071
      377
1005
12C4E7
  0
LINE
  5
12C4E8
  8
OBJECT
 10
5800.0000000000136
 20
-137.99999999999909
 30
0.0
 11
5807.0000000000146
 21
-137.99999999999909
 31
0.0
1001
ACDBBLOCKREPETAG
1070
     1
1071
      378
1005
12C4E8
  0
LINE
  5
12C4E9
  8
OBJECT
 10
5807.0000000000146
 20
-137.99999999999909
 30
0.0
 11
5807.0000000000146
 21
-261.99999999999909
 31
0.0
1001
ACDBBLOCKREPETAG
1070
     1
1071
      379
1005
12C4E9
  0
LINE
  5
12C4EA
  8
CENTER
 10
5785.0000000000136
 20
-199.99999999999909
 30
0.0
 11
5930.0
 21
-199.99999999999909
 31
0.0
1001
ACDBBLOCKREPETAG
1070
     1
1071
      380
1005
12C4EA
  0
LINE
  5
12C4EB
  8
OBJECT
 10
5860.0000250358144
 20
-154.9999999999954
 30
0.0
 11
5924.0
 21
-154.99999999999909
 31
0.0
1001
ACDBBLOCKREPETAG
1070
     1
1071
      381
1005
12C4EB
  0
LINE
  5
12C4EC
  8
OBJECT
 10
5860.0000250358144
 20
-244.99999999999909
 30
0.0
 11
5924.0
 21
-244.99999999999909
 31
0.0
1001
ACDBBLOCKREPETAG
1070
     1
1071
      382
1005
12C4EC
  0
LINE
  5
12C4ED
  8
OBJECT
 10
5807.0000000000146
 20
-258.99999999999909
 30
0.0
 11
5843.0000000000146
 21
-258.99999999999909
 31
0.0
1001
ACDBBLOCKREPETAG
1070
     1
1071
      383
1005
12C4ED
  0
LINE
  5
12C4EE
  8
OBJECT
 10
5843.0000000000146
 20
-258.99999999999909
 30
0.0
 11
5843.0000000000146
 21
-140.99999999999909
 31
0.0
1001
ACDBBLOCKREPETAG
1070
     1
1071
      384
1005
12C4EE
  0
LINE
  5
12C4EF
  8
OBJECT
 10
5843.0000000000146
 20
-140.99999999999909
 30
0.0
 11
5807.0000000000146
 21
-140.99999999999909
 31
0.0
1001
ACDBBLOCKREPETAG
1070
     1
1071
      385
1005
12C4EF
  0
LINE
  5
12C4F0
  8
OBJECT
 10
5847.0000000000146
 20
-254.49999999999909
 30
0.0
 11
5860.0000000000127
 21
-254.49999999999909
 31
0.0
1001
ACDBBLOCKREPETAG
1070
     1
1071
      386
1005
12C4F0
  0
LINE
  5
12C4F1
  8
OBJECT
 10
5860.0000000000127
 20
-145.49999999999909
 30
0.0
 11
5847.0000000000146
 21
-145.49999999999909
 31
0.0
1001
ACDBBLOCKREPETAG
1070
     1
1071
      387
1005
12C4F1
  0
LINE
  5
12C4F2
  8
OBJECT
 10
5847.0000000000146
 20
-145.49999999999909
 30
0.0
 11
5847.0000000000146
 21
-254.49999999999909
 31
0.0
1001
ACDBBLOCKREPETAG
1070
     1
1071
      388
1005
12C4F2
  0
LINE
  5
12C4F3
  8
OBJECT
 10
5843.0000000000146
 20
-258.99999999999909
 30
0.0
 11
5847.0000000000146
 21
-254.49999999999909
 31
0.0
1001
ACDBBLOCKREPETAG
1070
     1
1071
      389
1005
12C4F3
  0
LINE
  5
12C4F4
  8
OBJECT
 10
5843.0000000000146
 20
-140.99999999999909
 30
0.0
 11
5847.0000000000146
 21
-145.49999999999909
 31
0.0
1001
ACDBBLOCKREPETAG
1070
     1
1071
      390
1005
12C4F4
  0
LINE
  5
12C4F5
  8
OBJECT
 10
5927.0
 20
-261.99999999999909
 30
0.0
 11
5930.0
 21
-261.99999999999909
 31
0.0
1001
ACDBBLOCKREPETAG
1070
     1
1071
      391
1005
12C4F5
  0
ARC
  5
12C4F6
  8
OBJECT
 10
5927.0
 20
-258.99999999999909
 30
0.0
 40
3.0
 50
180.0
 51
270.0
1001
ACDBBLOCKREPETAG
1070
     1
1071
      392
1005
12C4F6
  0
LINE
  5
12C4F7
  8
OBJECT
 10
5930.0
 20
-137.99999999999909
 30
0.0
 11
5927.0
 21
-137.99999999999909
 31
0.0
1001
ACDBBLOCKREPETAG
1070
     1
1071
      393
1005
12C4F7
  0
ARC
  5
12C4F8
  8
OBJECT
 10
5927.0
 20
-140.99999999999909
 30
0.0
 40
3.0
 50
90.0
 51
180.0
1001
ACDBBLOCKREPETAG
1070
     1
1071
      394
1005
12C4F8
  0
LINE
  5
12C4F9
  8
OBJECT
 10
5924.0
 20
-140.99999999999909
 30
0.0
 11
5924.0
 21
-189.6772096796403
 31
0.0
1001
ACDBBLOCKREPETAG
1070
     1
1071
      395
1005
12C4F9
  0
LINE
  5
12C4FA
  8
OBJECT
 10
5924.0
 20
-210.3227903203578
 30
0.0
 11
5924.0
 21
-258.99999999999909
 31
0.0
1001
ACDBBLOCKREPETAG
1070
     1
1071
      396
1005
12C4FA
  0
LINE
  5
12C4FB
  8
HIDDEN
 10
5852.0000000000136
 20
-244.49999999999909
 30
0.0
 11
5852.0000000000136
 21
-155.49999999999909
 31
0.0
1001
ACDBBLOCKREPETAG
1070
     1
1071
      397
1005
12C4FB
  0
LINE
  5
12C4FC
  8
OBJECT
 10
5860.0000250358144
 20
-145.50004907618759
 30
0.0
 11
5860.0000250358144
 21
-254.50004907618771
 31
0.0
1001
ACDBBLOCKREPETAG
1070
     1
1071
      399
1005
12C4FC
  0
ARC
  5
12C4FD
  8
OBJECT
 10
5880.1999999999753
 20
-199.99999999999909
 30
0.0
 40
45.000000000000547
 50
270.0
 51
90.0
1001
ACDBBLOCKREPETAG
1070
     1
1071
      400
1005
12C4FD
  0
LINE
  5
12C4FE
  8
CENTER
 10
6000.0
 20
-290.99999999999898
 30
0.0
 11
6000.0
 21
-269.99999999999909
 31
0.0
1001
ACDBBLOCKREPETAG
1070
     1
1071
        0
1005
12C4FE
  0
LINE
  5
12C4FF
  8
OBJECT
 10
6062.0
 20
-273.0
 30
0.0
 11
6062.0
 21
-269.99999999999909
 31
0.0
1001
ACDBBLOCKREPETAG
1070
     1
1071
        1
1005
12C4FF
  0
ARC
  5
12C500
  8
OBJECT
 10
6059.0
 20
-273.0
 30
0.0
 40
3.0
 50
270.0
 51
0.0
1001
ACDBBLOCKREPETAG
1070
     1
1071
        2
1005
12C500
  0
LINE
  5
12C501
  8
OBJECT
 10
5938.0
 20
-269.99999999999909
 30
0.0
 11
5938.0
 21
-272.99999999999818
 31
0.0
1001
ACDBBLOCKREPETAG
1070
     1
1071
        3
1005
12C501
  0
ARC
  5
12C502
  8
OBJECT
 10
5941.0
 20
-272.99999999999818
 30
0.0
 40
3.0
 50
180.0
 51
270.0
1001
ACDBBLOCKREPETAG
1070
     1
1071
        4
1005
12C502
  0
LINE
  5
12C503
  8
OBJECT
 10
5941.0
 20
-275.99999999999818
 30
0.0
 11
6059.0
 21
-276.0
 31
0.0
1001
ACDBBLOCKREPETAG
1070
     1
1071
        5
1005
12C503
  0
LINE
  5
12C504
  8
OBJECT
 10
6123.0
 20
-663.99999999999966
 30
0.0
 11
6130.0
 21
-663.99999999999966
 31
0.0
1001
ACDBBLOCKREPETAG
1070
     1
1071
        7
1005
12C504
  0
LINE
  5
12C505
  8
OBJECT
 10
6130.0
 20
-663.99999999999966
 30
0.0
 11
6130.0
 21
-754.99999999999955
 31
0.0
1001
ACDBBLOCKREPETAG
1070
     1
1071
        8
1005
12C505
  0
LINE
  5
12C506
  8
OBJECT
 10
6123.0
 20
-754.99999999999955
 30
0.0
 11
6123.0
 21
-663.99999999999966
 31
0.0
1001
ACDBBLOCKREPETAG
1070
     1
1071
        9
1005
12C506
  0
LINE
  5
12C507
  8
CENTER
 10
6145.0
 20
-710.99999999999955
 30
0.0
 11
6061.0
 21
-710.99999999999955
 31
0.0
1001
ACDBBLOCKREPETAG
1070
     1
1071
       10
1005
12C507
  0
LINE
  5
12C508
  8
OBJECT
 10
6123.0
 20
-666.99999999999955
 30
0.0
 11
6087.0
 21
-666.99999999999955
 31
0.0
1001
ACDBBLOCKREPETAG
1070
     1
1071
       11
1005
12C508
  0
LINE
  5
12C509
  8
OBJECT
 10
6087.0
 20
-666.99999999999955
 30
0.0
 11
6087.0
 21
-754.99999999999955
 31
0.0
1001
ACDBBLOCKREPETAG
1070
     1
1071
       12
1005
12C509
  0
LINE
  5
12C50A
  8
OBJECT
 10
6087.0
 20
-754.99999999999955
 30
0.0
 11
6130.0
 21
-754.99999999999955
 31
0.0
1001
ACDBBLOCKREPETAG
1070
     1
1071
       13
1005
12C50A
  0
LINE
  5
12C50B
  8
OBJECT
 10
6083.0
 20
-671.49999999999955
 30
0.0
 11
6076.0
 21
-671.49999999999955
 31
0.0
1001
ACDBBLOCKREPETAG
1070
     1
1071
       14
1005
12C50B
  0
LINE
  5
12C50C
  8
OBJECT
 10
6076.0
 20
-750.49999999999955
 30
0.0
 11
6083.0
 21
-750.49999999999955
 31
0.0
1001
ACDBBLOCKREPETAG
1070
     1
1071
       15
1005
12C50C
  0
LINE
  5
12C50D
  8
OBJECT
 10
6083.0
 20
-750.49999999999955
 30
0.0
 11
6083.0
 21
-671.49999999999955
 31
0.0
1001
ACDBBLOCKREPETAG
1070
     1
1071
       16
1005
12C50D
  0
LINE
  5
12C50E
  8
OBJECT
 10
6087.0
 20
-666.99999999999955
 30
0.0
 11
6083.0
 21
-671.49999999999955
 31
0.0
1001
ACDBBLOCKREPETAG
1070
     1
1071
       17
1005
12C50E
  0
LINE
  5
12C50F
  8
OBJECT
 10
6087.0
 20
-754.99999999999955
 30
0.0
 11
6083.0
 21
-750.49999999999955
 31
0.0
1001
ACDBBLOCKREPETAG
1070
     1
1071
       18
1005
12C50F
  0
LINE
  5
12C510
  8
OBJECT
 10
6073.0
 20
-633.99999999999955
 30
0.0
 11
6070.0
 21
-633.99999999999955
 31
0.0
1001
ACDBBLOCKREPETAG
1070
     1
1071
       19
1005
12C510
  0
ARC
  5
12C511
  8
OBJECT
 10
6073.0
 20
-636.99999999999955
 30
0.0
 40
3.0
 50
0.0
 51
90.0
1001
ACDBBLOCKREPETAG
1070
     1
1071
       20
1005
12C511
  0
LINE
  5
12C512
  8
OBJECT
 10
6070.0
 20
-757.99999999999955
 30
0.0
 11
6073.0
 21
-757.99999999999955
 31
0.0
1001
ACDBBLOCKREPETAG
1070
     1
1071
       21
1005
12C512
  0
ARC
  5
12C513
  8
OBJECT
 10
6073.0
 20
-754.99999999999955
 30
0.0
 40
3.0
 50
270.0
 51
0.0
1001
ACDBBLOCKREPETAG
1070
     1
1071
       22
1005
12C513
  0
LINE
  5
12C514
  8
OBJECT
 10
6076.0
 20
-754.99999999999955
 30
0.0
 11
6076.0
 21
-636.99999999999955
 31
0.0
1001
ACDBBLOCKREPETAG
1070
     1
1071
       23
1005
12C514
  0
LINE
  5
12C515
  8
HIDDEN
 10
6078.0
 20
-680.99999999999955
 30
0.0
 11
6078.0
 21
-740.99999999999955
 31
0.0
1001
ACDBBLOCKREPETAG
1070
     1
1071
       24
1005
12C515
  0
LINE
  5
12C516
  8
OBJECT
 10
6123.0
 20
-152.99999999999909
 30
0.0
 11
6130.0
 21
-152.99999999999909
 31
0.0
1001
ACDBBLOCKREPETAG
1070
     1
1071
        7
1005
12C516
  0
LINE
  5
12C517
  8
OBJECT
 10
6130.0
 20
-152.99999999999909
 30
0.0
 11
6130.0
 21
-246.99999999999909
 31
0.0
1001
ACDBBLOCKREPETAG
1070
     1
1071
        8
1005
12C517
  0
LINE
  5
12C518
  8
OBJECT
 10
6130.0
 20
-246.99999999999909
 30
0.0
 11
6123.0
 21
-246.99999999999909
 31
0.0
1001
ACDBBLOCKREPETAG
1070
     1
1071
        9
1005
12C518
  0
LINE
  5
12C519
  8
OBJECT
 10
6123.0
 20
-246.99999999999909
 30
0.0
 11
6123.0
 21
-152.99999999999909
 31
0.0
1001
ACDBBLOCKREPETAG
1070
     1
1071
       10
1005
12C519
  0
LINE
  5
12C51A
  8
CENTER
 10
6145.0
 20
-199.99999999999909
 30
0.0
 11
6070.0
 21
-199.99999999999909
 31
0.0
1001
ACDBBLOCKREPETAG
1070
     1
1071
       11
1005
12C51A
  0
LINE
  5
12C51B
  8
OBJECT
 10
6123.0
 20
-155.99999999999909
 30
0.0
 11
6087.0
 21
-155.99999999999909
 31
0.0
1001
ACDBBLOCKREPETAG
1070
     1
1071
       12
1005
12C51B
  0
LINE
  5
12C51C
  8
OBJECT
 10
6087.0
 20
-155.99999999999909
 30
0.0
 11
6087.0
 21
-243.99999999999909
 31
0.0
1001
ACDBBLOCKREPETAG
1070
     1
1071
       13
1005
12C51C
  0
LINE
  5
12C51D
  8
OBJECT
 10
6087.0
 20
-243.99999999999909
 30
0.0
 11
6123.0
 21
-243.99999999999909
 31
0.0
1001
ACDBBLOCKREPETAG
1070
     1
1071
       14
1005
12C51D
  0
LINE
  5
12C51E
  8
OBJECT
 10
6083.0
 20
-160.49999999999909
 30
0.0
 11
6076.0
 21
-160.49999999999909
 31
0.0
1001
ACDBBLOCKREPETAG
1070
     1
1071
       15
1005
12C51E
  0
LINE
  5
12C51F
  8
OBJECT
 10
6076.0
 20
-239.49999999999909
 30
0.0
 11
6083.0
 21
-239.49999999999909
 31
0.0
1001
ACDBBLOCKREPETAG
1070
     1
1071
       16
1005
12C51F
  0
LINE
  5
12C520
  8
OBJECT
 10
6083.0
 20
-239.49999999999909
 30
0.0
 11
6083.0
 21
-160.49999999999909
 31
0.0
1001
ACDBBLOCKREPETAG
1070
     1
1071
       17
1005
12C520
  0
LINE
  5
12C521
  8
OBJECT
 10
6087.0
 20
-155.99999999999909
 30
0.0
 11
6083.0
 21
-160.49999999999909
 31
0.0
1001
ACDBBLOCKREPETAG
1070
     1
1071
       18
1005
12C521
  0
LINE
  5
12C522
  8
OBJECT
 10
6087.0
 20
-243.99999999999909
 30
0.0
 11
6083.0
 21
-239.49999999999909
 31
0.0
1001
ACDBBLOCKREPETAG
1070
     1
1071
       19
1005
12C522
  0
LINE
  5
12C523
  8
OBJECT
 10
6073.0
 20
-137.99999999999909
 30
0.0
 11
6070.0
 21
-137.99999999999909
 31
0.0
1001
ACDBBLOCKREPETAG
1070
     1
1071
       20
1005
12C523
  0
ARC
  5
12C524
  8
OBJECT
 10
6073.0
 20
-140.99999999999909
 30
0.0
 40
3.0
 50
0.0
 51
90.0
1001
ACDBBLOCKREPETAG
1070
     1
1071
       21
1005
12C524
  0
LINE
  5
12C525
  8
OBJECT
 10
6070.0
 20
-261.99999999999909
 30
0.0
 11
6073.0
 21
-261.99999999999909
 31
0.0
1001
ACDBBLOCKREPETAG
1070
     1
1071
       22
1005
12C525
  0
ARC
  5
12C526
  8
OBJECT
 10
6073.0
 20
-258.99999999999909
 30
0.0
 40
3.0
 50
270.0
 51
0.0
1001
ACDBBLOCKREPETAG
1070
     1
1071
       23
1005
12C526
  0
LINE
  5
12C527
  8
OBJECT
 10
6076.0
 20
-258.99999999999909
 30
0.0
 11
6076.0
 21
-140.99999999999909
 31
0.0
1001
ACDBBLOCKREPETAG
1070
     1
1071
       24
1005
12C527
  0
LINE
  5
12C528
  8
HIDDEN
 10
6078.0
 20
-169.99999999999909
 30
0.0
 11
6078.0
 21
-229.99999999999909
 31
0.0
1001
ACDBBLOCKREPETAG
1070
     1
1071
       25
1005
12C528
  0
CIRCLE
  5
12C529
  8
OBJECT
 10
4000.0
 20
-695.99999999999955
 30
0.0
 40
62.0
1001
ACDBBLOCKREPETAG
1070
     1
1071
        0
1005
12C529
  0
LINE
  5
12C52A
  8
CENTER
 10
4000.0
 20
-769.99999999999955
 30
0.0
 11
4000.0
 21
-613.99999999999966
 31
0.0
1001
ACDBBLOCKREPETAG
1070
     1
1071
        0
1005
12C52A
  0
LINE
  5
12C52B
  8
OBJECT
 10
3930.0
 20
-633.99999999999955
 30
0.0
 11
4070.0
 21
-633.99999999999955
 31
0.0
1001
ACDBBLOCKREPETAG
1070
     1
1071
        1
1005
12C52B
  0
LINE
  5
12C52C
  8
OBJECT
 10
3930.0
 20
-757.99999999999955
 30
0.0
 11
3930.0
 21
-769.99999999999955
 31
0.0
1001
ACDBBLOCKREPETAG
1070
     1
1071
        2
1005
12C52C
  0
LINE
  5
12C52D
  8
OBJECT
 10
3930.0
 20
-769.99999999999955
 30
0.0
 11
4070.0
 21
-769.99999999999955
 31
0.0
1001
ACDBBLOCKREPETAG
1070
     1
1071
        3
1005
12C52D
  0
LINE
  5
12C52E
  8
OBJECT
 10
4070.0
 20
-769.99999999999955
 30
0.0
 11
4070.0
 21
-757.99999999999955
 31
0.0
1001
ACDBBLOCKREPETAG
1070
     1
1071
        4
1005
12C52E
  0
LINE
  5
12C52F
  8
OBJECT
 10
4070.0
 20
-757.99999999999955
 30
0.0
 11
3930.0
 21
-757.99999999999955
 31
0.0
1001
ACDBBLOCKREPETAG
1070
     1
1071
        5
1005
12C52F
  0
ARC
  5
12C530
  8
OBJECT
 10
4435.0384389946767
 20
-998.60813684682694
 30
0.0
 40
519.48776673616965
 50
135.42350667430969
 51
138.50052655621499
1001
ACDBBLOCKREPETAG
1070
     1
1071
        9
1005
12C530
  0
ARC
  5
12C531
  8
OBJECT
 10
4435.0384389946767
 20
-393.39186315317193
 30
0.0
 40
519.48776673616965
 50
221.49947344378501
 51
224.57649332569039
1001
ACDBBLOCKREPETAG
1070
     1
1071
       10
1005
12C531
  0
ARC
  5
12C532
  8
OBJECT
 10
3564.961561005322
 20
-998.60813684682694
 30
0.0
 40
519.48776673616965
 50
41.499473443784993
 51
44.576493325690237
1001
ACDBBLOCKREPETAG
1070
     1
1071
       11
1005
12C532
  0
ARC
  5
12C533
  8
OBJECT
 10
3564.961561005322
 20
-393.39186315317193
 30
0.0
 40
519.48776673616965
 50
315.42350667430981
 51
318.50052655621488
1001
ACDBBLOCKREPETAG
1070
     1
1071
       12
1005
12C533
  0
LINE
  5
12C534
  8
OBJECT
 10
4047.5
 20
-628.99999999999955
 30
0.0
 11
3952.5
 21
-628.99999999999955
 31
0.0
1001
ACDBBLOCKREPETAG
1070
     1
1071
       24
1005
12C534
  0
ARC
  5
12C535
  8
OBJECT
 10
3952.5
 20
-631.99999999999955
 30
0.0
 40
3.0
 50
90.0
 51
180.0
1001
ACDBBLOCKREPETAG
1070
     1
1071
       25
1005
12C535
  0
LINE
  5
12C536
  8
OBJECT
 10
3949.5
 20
-631.99999999999955
 30
0.0
 11
3949.5
 21
-633.99999999999955
 31
0.0
1001
ACDBBLOCKREPETAG
1070
     1
1071
       26
1005
12C536
  0
LINE
  5
12C537
  8
OBJECT
 10
4050.5
 20
-631.99999999999955
 30
0.0
 11
4050.5
 21
-633.99999999999955
 31
0.0
1001
ACDBBLOCKREPETAG
1070
     1
1071
       27
1005
12C537
  0
ARC
  5
12C538
  8
OBJECT
 10
4047.5
 20
-631.99999999999955
 30
0.0
 40
3.0
 50
0.0
 51
90.0
1001
ACDBBLOCKREPETAG
1070
     1
1071
       28
1005
12C538
  0
POINT
  5
12C539
  8
DOTS
 10
4000.0
 20
-754.99999999999955
 30
0.0
1001
ACDBBLOCKREPETAG
1070
     1
1071
       87
1005
12C539
  0
ARC
  5
12C53A
  8
OBJECT
 10
4000.0
 20
-199.99999999999909
 30
0.0
 40
70.0
 50
62.339550100758693
 51
117.6604498992413
1001
ACDBBLOCKREPETAG
1070
     1
1071
        0
1005
12C53A
  0
CIRCLE
  5
12C53B
  8
OBJECT
 10
4000.0
 20
-199.99999999999909
 30
0.0
 40
65.0
1001
ACDBBLOCKREPETAG
1070
     1
1071
        1
1005
12C53B
  0
CIRCLE
  5
12C53C
  8
OBJECT
 10
4000.0
 20
-199.99999999999909
 30
0.0
 40
50.5
1001
ACDBBLOCKREPETAG
1070
     1
1071
        3
1005
12C53C
  0
LINE
  5
12C53D
  8
OBJECT
 10
4070.0
 20
-137.99999999999909
 30
0.0
 11
4019.5192212959432
 21
-137.99999999999909
 31
0.0
1001
ACDBBLOCKREPETAG
1070
     1
1071
        4
1005
12C53D
  0
LINE
  5
12C53E
  8
OBJECT
 10
3930.0
 20
-137.99999999999909
 30
0.0
 11
3980.4807787040581
 21
-137.99999999999909
 31
0.0
1001
ACDBBLOCKREPETAG
1070
     1
1071
        5
1005
12C53E
  0
LINE
  5
12C53F
  8
OBJECT
 10
3930.0
 20
-261.99999999999909
 30
0.0
 11
3938.0
 21
-261.99999999999909
 31
0.0
1001
ACDBBLOCKREPETAG
1070
     1
1071
        6
1005
12C53F
  0
LINE
  5
12C540
  8
OBJECT
 10
3938.0
 20
-269.99999999999909
 30
0.0
 11
3938.0
 21
-261.99999999999909
 31
0.0
1001
ACDBBLOCKREPETAG
1070
     1
1071
        7
1005
12C540
  0
LINE
  5
12C541
  8
OBJECT
 10
4070.0
 20
-261.99999999999909
 30
0.0
 11
4062.0
 21
-261.99999999999909
 31
0.0
1001
ACDBBLOCKREPETAG
1070
     1
1071
        8
1005
12C541
  0
LINE
  5
12C542
  8
OBJECT
 10
4062.0
 20
-269.99999999999909
 30
0.0
 11
4062.0
 21
-261.99999999999909
 31
0.0
1001
ACDBBLOCKREPETAG
1070
     1
1071
        9
1005
12C542
  0
LINE
  5
12C543
  8
CENTER
 10
3930.0
 20
-199.99999999999909
 30
0.0
 11
4070.0
 21
-199.99999999999909
 31
0.0
1001
ACDBBLOCKREPETAG
1070
     1
1071
       10
1005
12C543
  0
LINE
  5
12C544
  8
CENTER
 10
4000.0
 20
-269.99999999999909
 30
0.0
 11
4000.0
 21
-114.9999999999991
 31
0.0
1001
ACDBBLOCKREPETAG
1070
     1
1071
       11
1005
12C544
  0
LINE
  5
12C545
  8
OBJECT
 10
3954.0380592228739
 20
-245.96194077712471
 30
0.0
 11
3938.0
 21
-261.99999999999909
 31
0.0
1001
ACDBBLOCKREPETAG
1070
     1
1071
       42
1005
12C545
  0
LINE
  5
12C546
  8
OBJECT
 10
4045.9619407771238
 20
-245.96194077712471
 30
0.0
 11
4062.0
 21
-261.99999999999909
 31
0.0
1001
ACDBBLOCKREPETAG
1070
     1
1071
       43
1005
12C546
  0
POINT
  5
12C547
  8
DOTS
 10
4000.0
 20
-199.99999999999909
 30
0.0
1001
ACDBBLOCKREPETAG
1070
     1
1071
      158
1005
12C547
  0
LINE
  5
12C548
  8
OBJECT
 10
3807.0000000000159
 20
-582.99999999999955
 30
0.0
 11
3800.0000000000159
 21
-582.99999999999955
 31
0.0
1001
ACDBBLOCKREPETAG
1070
     1
1071
      324
1005
12C548
  0
LINE
  5
12C549
  8
OBJECT
 10
3800.0000000000159
 20
-582.99999999999955
 30
0.0
 11
3800.0000000000159
 21
-706.99999999999955
 31
0.0
1001
ACDBBLOCKREPETAG
1070
     1
1071
      325
1005
12C549
  0
LINE
  5
12C54A
  8
OBJECT
 10
3924.0000000000159
 20
-653.35026377572683
 30
0.0
 11
3924.0000000000159
 21
-755.00000000000034
 31
0.0
1001
ACDBBLOCKREPETAG
1070
     1
1071
      326
1005
12C54A
  0
LINE
  5
12C54B
  8
OBJECT
 10
3800.0000000000159
 20
-706.99999999999955
 30
0.0
 11
3807.0000000000159
 21
-706.99999999999955
 31
0.0
1001
ACDBBLOCKREPETAG
1070
     1
1071
      327
1005
12C54B
  0
LINE
  5
12C54C
  8
OBJECT
 10
3807.0000000000159
 20
-706.99999999999955
 30
0.0
 11
3807.0000000000159
 21
-582.99999999999955
 31
0.0
1001
ACDBBLOCKREPETAG
1070
     1
1071
      328
1005
12C54C
  0
LINE
  5
12C54D
  8
CENTER
 10
3875.0000000000159
 20
-645.00000000000045
 30
0.0
 11
3785.0000000000141
 21
-644.99999999999955
 31
0.0
1001
ACDBBLOCKREPETAG
1070
     1
1071
      329
1005
12C54D
  0
LINE
  5
12C54E
  8
OBJECT
 10
3930.0000000000168
 20
-757.99999999999955
 30
0.0
 11
3927.000000000015
 21
-758.00000000000034
 31
0.0
1001
ACDBBLOCKREPETAG
1070
     1
1071
      330
1005
12C54E
  0
ARC
  5
12C54F
  8
OBJECT
 10
3927.000000000015
 20
-755.00000000000034
 30
0.0
 40
3.0
 50
180.0
 51
270.0
1001
ACDBBLOCKREPETAG
1070
     1
1071
      331
1005
12C54F
  0
LINE
  5
12C550
  8
OBJECT
 10
3807.0000000000159
 20
-585.99999999999955
 30
0.0
 11
3843.0000000000159
 21
-586.00000000000045
 31
0.0
1001
ACDBBLOCKREPETAG
1070
     1
1071
      332
1005
12C550
  0
LINE
  5
12C551
  8
OBJECT
 10
3843.0000000000159
 20
-586.00000000000045
 30
0.0
 11
3843.0000000000159
 21
-704.00000000000045
 31
0.0
1001
ACDBBLOCKREPETAG
1070
     1
1071
      333
1005
12C551
  0
LINE
  5
12C552
  8
OBJECT
 10
3847.000000000015
 20
-590.50000000000045
 30
0.0
 11
3847.000000000015
 21
-699.50000000000045
 31
0.0
1001
ACDBBLOCKREPETAG
1070
     1
1071
      334
1005
12C552
  0
LINE
  5
12C553
  8
OBJECT
 10
3847.000000000015
 20
-590.50000000000045
 30
0.0
 11
3860.0000000000159
 21
-590.50000000000045
 31
0.0
1001
ACDBBLOCKREPETAG
1070
     1
1071
      335
1005
12C553
  0
LINE
  5
12C554
  8
OBJECT
 10
3843.0000000000159
 20
-704.00000000000045
 30
0.0
 11
3807.0000000000159
 21
-703.99999999999955
 31
0.0
1001
ACDBBLOCKREPETAG
1070
     1
1071
      336
1005
12C554
  0
LINE
  5
12C555
  8
OBJECT
 10
3843.0000000000159
 20
-586.00000000000045
 30
0.0
 11
3847.000000000015
 21
-590.50000000000045
 31
0.0
1001
ACDBBLOCKREPETAG
1070
     1
1071
      337
1005
12C555
  0
LINE
  5
12C556
  8
OBJECT
 10
3860.0000000000159
 20
-590.50000000000045
 30
0.0
 11
3860.0000000000159
 21
-675.7449182792875
 31
0.0
1001
ACDBBLOCKREPETAG
1070
     1
1071
      338
1005
12C556
  0
ARC
  5
12C557
  8
OBJECT
 10
3857.2000000000148
 20
-685.00000000000045
 30
0.0
 40
85.0
 50
36.869897645875277
 51
88.112268108168848
1001
ACDBBLOCKREPETAG
1070
     1
1071
      339
1005
12C557
  0
LINE
  5
12C558
  8
HIDDEN
 10
3852.0000000000141
 20
-600.50000000000057
 30
0.0
 11
3852.0000000000141
 21
-689.50000000000045
 31
0.0
1001
ACDBBLOCKREPETAG
1070
     1
1071
      341
1005
12C558
  0
LINE
  5
12C559
  8
OBJECT
 10
3924.0000000000159
 20
-751.07945073181725
 30
0.0
 11
3853.3686800789701
 21
-699.50000000000045
 31
0.0
1001
ACDBBLOCKREPETAG
1070
     1
1071
      342
1005
12C559
  0
LINE
  5
12C55A
  8
OBJECT
 10
3930.0000000000168
 20
-633.99999999999955
 30
0.0
 11
3925.2000000000148
 21
-633.99999999999955
 31
0.0
1001
ACDBBLOCKREPETAG
1070
     1
1071
      343
1005
12C55A
  0
LINE
  5
12C55B
  8
OBJECT
 10
3924.0000000000159
 20
-653.35026377572945
 30
0.0
 11
3925.2000000000148
 21
-633.99999999999955
 31
0.0
1001
ACDBBLOCKREPETAG
1070
     1
1071
      344
1005
12C55B
  0
LINE
  5
12C55C
  8
OBJECT
 10
3847.000000000015
 20
-699.50000000000045
 30
0.0
 11
3853.3686800789701
 21
-699.50000000000045
 31
0.0
1001
ACDBBLOCKREPETAG
1070
     1
1071
      345
1005
12C55C
  0
LINE
  5
12C55D
  8
OBJECT
 10
3843.0000000000159
 20
-704.00000000000045
 30
0.0
 11
3847.000000000015
 21
-699.50000000000045
 31
0.0
1001
ACDBBLOCKREPETAG
1070
     1
1071
      346
1005
12C55D
  0
LINE
  5
12C55E
  8
OBJECT
 10
3807.0000000000159
 20
-261.99999999999909
 30
0.0
 11
3800.0000000000159
 21
-261.99999999999909
 31
0.0
1001
ACDBBLOCKREPETAG
1070
     1
1071
      376
1005
12C55E
  0
LINE
  5
12C55F
  8
OBJECT
 10
3800.0000000000159
 20
-261.99999999999909
 30
0.0
 11
3800.0000000000159
 21
-137.99999999999909
 31
0.0
1001
ACDBBLOCKREPETAG
1070
     1
1071
      377
1005
12C55F
  0
LINE
  5
12C560
  8
OBJECT
 10
3800.0000000000159
 20
-137.99999999999909
 30
0.0
 11
3807.0000000000159
 21
-137.99999999999909
 31
0.0
1001
ACDBBLOCKREPETAG
1070
     1
1071
      378
1005
12C560
  0
LINE
  5
12C561
  8
OBJECT
 10
3807.0000000000159
 20
-137.99999999999909
 30
0.0
 11
3807.0000000000159
 21
-261.99999999999909
 31
0.0
1001
ACDBBLOCKREPETAG
1070
     1
1071
      379
1005
12C561
  0
LINE
  5
12C562
  8
CENTER
 10
3785.0000000000141
 20
-199.99999999999909
 30
0.0
 11
3930.0
 21
-199.99999999999909
 31
0.0
1001
ACDBBLOCKREPETAG
1070
     1
1071
      380
1005
12C562
  0
LINE
  5
12C563
  8
OBJECT
 10
3860.0000250358139
 20
-154.9999999999954
 30
0.0
 11
3924.0
 21
-154.99999999999909
 31
0.0
1001
ACDBBLOCKREPETAG
1070
     1
1071
      381
1005
12C563
  0
LINE
  5
12C564
  8
OBJECT
 10
3860.0000250358139
 20
-244.99999999999909
 30
0.0
 11
3924.0
 21
-244.99999999999909
 31
0.0
1001
ACDBBLOCKREPETAG
1070
     1
1071
      382
1005
12C564
  0
LINE
  5
12C565
  8
OBJECT
 10
3807.0000000000159
 20
-258.99999999999909
 30
0.0
 11
3843.0000000000159
 21
-258.99999999999909
 31
0.0
1001
ACDBBLOCKREPETAG
1070
     1
1071
      383
1005
12C565
  0
LINE
  5
12C566
  8
OBJECT
 10
3843.0000000000159
 20
-258.99999999999909
 30
0.0
 11
3843.0000000000159
 21
-140.99999999999909
 31
0.0
1001
ACDBBLOCKREPETAG
1070
     1
1071
      384
1005
12C566
  0
LINE
  5
12C567
  8
OBJECT
 10
3843.0000000000159
 20
-140.99999999999909
 30
0.0
 11
3807.0000000000159
 21
-140.99999999999909
 31
0.0
1001
ACDBBLOCKREPETAG
1070
     1
1071
      385
1005
12C567
  0
LINE
  5
12C568
  8
OBJECT
 10
3847.000000000015
 20
-254.49999999999909
 30
0.0
 11
3860.0000000000159
 21
-254.49999999999909
 31
0.0
1001
ACDBBLOCKREPETAG
1070
     1
1071
      386
1005
12C568
  0
LINE
  5
12C569
  8
OBJECT
 10
3860.0000000000159
 20
-145.49999999999909
 30
0.0
 11
3847.000000000015
 21
-145.49999999999909
 31
0.0
1001
ACDBBLOCKREPETAG
1070
     1
1071
      387
1005
12C569
  0
LINE
  5
12C56A
  8
OBJECT
 10
3847.000000000015
 20
-145.49999999999909
 30
0.0
 11
3847.000000000015
 21
-254.49999999999909
 31
0.0
1001
ACDBBLOCKREPETAG
1070
     1
1071
      388
1005
12C56A
  0
LINE
  5
12C56B
  8
OBJECT
 10
3843.0000000000159
 20
-258.99999999999909
 30
0.0
 11
3847.000000000015
 21
-254.49999999999909
 31
0.0
1001
ACDBBLOCKREPETAG
1070
     1
1071
      389
1005
12C56B
  0
LINE
  5
12C56C
  8
OBJECT
 10
3843.0000000000159
 20
-140.99999999999909
 30
0.0
 11
3847.000000000015
 21
-145.49999999999909
 31
0.0
1001
ACDBBLOCKREPETAG
1070
     1
1071
      390
1005
12C56C
  0
LINE
  5
12C56D
  8
OBJECT
 10
3927.0
 20
-261.99999999999909
 30
0.0
 11
3930.0
 21
-261.99999999999909
 31
0.0
1001
ACDBBLOCKREPETAG
1070
     1
1071
      391
1005
12C56D
  0
ARC
  5
12C56E
  8
OBJECT
 10
3927.0
 20
-258.99999999999909
 30
0.0
 40
3.0
 50
180.0
 51
270.0
1001
ACDBBLOCKREPETAG
1070
     1
1071
      392
1005
12C56E
  0
LINE
  5
12C56F
  8
OBJECT
 10
3930.0
 20
-137.99999999999909
 30
0.0
 11
3927.0
 21
-137.99999999999909
 31
0.0
1001
ACDBBLOCKREPETAG
1070
     1
1071
      393
1005
12C56F
  0
ARC
  5
12C570
  8
OBJECT
 10
3927.0
 20
-140.99999999999909
 30
0.0
 40
3.0
 50
90.0
 51
180.0
1001
ACDBBLOCKREPETAG
1070
     1
1071
      394
1005
12C570
  0
LINE
  5
12C571
  8
OBJECT
 10
3924.0
 20
-140.99999999999909
 30
0.0
 11
3924.0
 21
-189.6772096796403
 31
0.0
1001
ACDBBLOCKREPETAG
1070
     1
1071
      395
1005
12C571
  0
LINE
  5
12C572
  8
OBJECT
 10
3924.0
 20
-210.3227903203578
 30
0.0
 11
3924.0
 21
-258.99999999999909
 31
0.0
1001
ACDBBLOCKREPETAG
1070
     1
1071
      396
1005
12C572
  0
LINE
  5
12C573
  8
HIDDEN
 10
3852.0000000000141
 20
-244.49999999999909
 30
0.0
 11
3852.0000000000141
 21
-155.49999999999909
 31
0.0
1001
ACDBBLOCKREPETAG
1070
     1
1071
      397
1005
12C573
  0
LINE
  5
12C574
  8
OBJECT
 10
3860.0000250358139
 20
-145.50004907618759
 30
0.0
 11
3860.0000250358139
 21
-254.50004907618771
 31
0.0
1001
ACDBBLOCKREPETAG
1070
     1
1071
      399
1005
12C574
  0
ARC
  5
12C575
  8
OBJECT
 10
3880.1999999999748
 20
-199.99999999999909
 30
0.0
 40
45.000000000000547
 50
270.0
 51
90.0
1001
ACDBBLOCKREPETAG
1070
     1
1071
      400
1005
12C575
  0
LINE
  5
12C576
  8
CENTER
 10
4000.0
 20
-290.99999999999898
 30
0.0
 11
4000.0
 21
-269.99999999999909
 31
0.0
1001
ACDBBLOCKREPETAG
1070
     1
1071
        0
1005
12C576
  0
LINE
  5
12C577
  8
OBJECT
 10
4062.0
 20
-273.0
 30
0.0
 11
4062.0
 21
-269.99999999999909
 31
0.0
1001
ACDBBLOCKREPETAG
1070
     1
1071
        1
1005
12C577
  0
ARC
  5
12C578
  8
OBJECT
 10
4059.0
 20
-273.0
 30
0.0
 40
3.0
 50
270.0
 51
0.0
1001
ACDBBLOCKREPETAG
1070
     1
1071
        2
1005
12C578
  0
LINE
  5
12C579
  8
OBJECT
 10
3938.0
 20
-269.99999999999909
 30
0.0
 11
3938.0
 21
-272.99999999999818
 31
0.0
1001
ACDBBLOCKREPETAG
1070
     1
1071
        3
1005
12C579
  0
ARC
  5
12C57A
  8
OBJECT
 10
3941.0
 20
-272.99999999999818
 30
0.0
 40
3.0
 50
180.0
 51
270.0
1001
ACDBBLOCKREPETAG
1070
     1
1071
        4
1005
12C57A
  0
LINE
  5
12C57B
  8
OBJECT
 10
3941.0
 20
-275.99999999999818
 30
0.0
 11
4059.0
 21
-276.0
 31
0.0
1001
ACDBBLOCKREPETAG
1070
     1
1071
        5
1005
12C57B
  0
LINE
  5
12C57C
  8
OBJECT
 10
4123.0
 20
-663.99999999999966
 30
0.0
 11
4130.0
 21
-663.99999999999966
 31
0.0
1001
ACDBBLOCKREPETAG
1070
     1
1071
        7
1005
12C57C
  0
LINE
  5
12C57D
  8
OBJECT
 10
4130.0
 20
-663.99999999999966
 30
0.0
 11
4130.0
 21
-754.99999999999955
 31
0.0
1001
ACDBBLOCKREPETAG
1070
     1
1071
        8
1005
12C57D
  0
LINE
  5
12C57E
  8
OBJECT
 10
4123.0
 20
-754.99999999999955
 30
0.0
 11
4123.0
 21
-663.99999999999966
 31
0.0
1001
ACDBBLOCKREPETAG
1070
     1
1071
        9
1005
12C57E
  0
LINE
  5
12C57F
  8
CENTER
 10
4145.0
 20
-710.99999999999955
 30
0.0
 11
4061.0
 21
-710.99999999999955
 31
0.0
1001
ACDBBLOCKREPETAG
1070
     1
1071
       10
1005
12C57F
  0
LINE
  5
12C580
  8
OBJECT
 10
4123.0
 20
-666.99999999999955
 30
0.0
 11
4087.0
 21
-666.99999999999955
 31
0.0
1001
ACDBBLOCKREPETAG
1070
     1
1071
       11
1005
12C580
  0
LINE
  5
12C581
  8
OBJECT
 10
4087.0
 20
-666.99999999999955
 30
0.0
 11
4087.0
 21
-754.99999999999955
 31
0.0
1001
ACDBBLOCKREPETAG
1070
     1
1071
       12
1005
12C581
  0
LINE
  5
12C582
  8
OBJECT
 10
4087.0
 20
-754.99999999999955
 30
0.0
 11
4130.0
 21
-754.99999999999955
 31
0.0
1001
ACDBBLOCKREPETAG
1070
     1
1071
       13
1005
12C582
  0
LINE
  5
12C583
  8
OBJECT
 10
4083.0
 20
-671.49999999999955
 30
0.0
 11
4076.0
 21
-671.49999999999955
 31
0.0
1001
ACDBBLOCKREPETAG
1070
     1
1071
       14
1005
12C583
  0
LINE
  5
12C584
  8
OBJECT
 10
4076.0
 20
-750.49999999999955
 30
0.0
 11
4083.0
 21
-750.49999999999955
 31
0.0
1001
ACDBBLOCKREPETAG
1070
     1
1071
       15
1005
12C584
  0
LINE
  5
12C585
  8
OBJECT
 10
4083.0
 20
-750.49999999999955
 30
0.0
 11
4083.0
 21
-671.49999999999955
 31
0.0
1001
ACDBBLOCKREPETAG
1070
     1
1071
       16
1005
12C585
  0
LINE
  5
12C586
  8
OBJECT
 10
4087.0
 20
-666.99999999999955
 30
0.0
 11
4083.0
 21
-671.49999999999955
 31
0.0
1001
ACDBBLOCKREPETAG
1070
     1
1071
       17
1005
12C586
  0
LINE
  5
12C587
  8
OBJECT
 10
4087.0
 20
-754.99999999999955
 30
0.0
 11
4083.0
 21
-750.49999999999955
 31
0.0
1001
ACDBBLOCKREPETAG
1070
     1
1071
       18
1005
12C587
  0
LINE
  5
12C588
  8
OBJECT
 10
4073.0
 20
-633.99999999999955
 30
0.0
 11
4070.0
 21
-633.99999999999955
 31
0.0
1001
ACDBBLOCKREPETAG
1070
     1
1071
       19
1005
12C588
  0
ARC
  5
12C589
  8
OBJECT
 10
4073.0
 20
-636.99999999999955
 30
0.0
 40
3.0
 50
0.0
 51
90.0
1001
ACDBBLOCKREPETAG
1070
     1
1071
       20
1005
12C589
  0
LINE
  5
12C58A
  8
OBJECT
 10
4070.0
 20
-757.99999999999955
 30
0.0
 11
4073.0
 21
-757.99999999999955
 31
0.0
1001
ACDBBLOCKREPETAG
1070
     1
1071
       21
1005
12C58A
  0
ARC
  5
12C58B
  8
OBJECT
 10
4073.0
 20
-754.99999999999955
 30
0.0
 40
3.0
 50
270.0
 51
0.0
1001
ACDBBLOCKREPETAG
1070
     1
1071
       22
1005
12C58B
  0
LINE
  5
12C58C
  8
OBJECT
 10
4076.0
 20
-754.99999999999955
 30
0.0
 11
4076.0
 21
-636.99999999999955
 31
0.0
1001
ACDBBLOCKREPETAG
1070
     1
1071
       23
1005
12C58C
  0
LINE
  5
12C58D
  8
HIDDEN
 10
4078.0
 20
-680.99999999999955
 30
0.0
 11
4078.0
 21
-740.99999999999955
 31
0.0
1001
ACDBBLOCKREPETAG
1070
     1
1071
       24
1005
12C58D
  0
LINE
  5
12C58E
  8
OBJECT
 10
4123.0
 20
-152.99999999999909
 30
0.0
 11
4130.0
 21
-152.99999999999909
 31
0.0
1001
ACDBBLOCKREPETAG
1070
     1
1071
        7
1005
12C58E
  0
LINE
  5
12C58F
  8
OBJECT
 10
4130.0
 20
-152.99999999999909
 30
0.0
 11
4130.0
 21
-246.99999999999909
 31
0.0
1001
ACDBBLOCKREPETAG
1070
     1
1071
        8
1005
12C58F
  0
LINE
  5
12C590
  8
OBJECT
 10
4130.0
 20
-246.99999999999909
 30
0.0
 11
4123.0
 21
-246.99999999999909
 31
0.0
1001
ACDBBLOCKREPETAG
1070
     1
1071
        9
1005
12C590
  0
LINE
  5
12C591
  8
OBJECT
 10
4123.0
 20
-246.99999999999909
 30
0.0
 11
4123.0
 21
-152.99999999999909
 31
0.0
1001
ACDBBLOCKREPETAG
1070
     1
1071
       10
1005
12C591
  0
LINE
  5
12C592
  8
CENTER
 10
4145.0
 20
-199.99999999999909
 30
0.0
 11
4070.0
 21
-199.99999999999909
 31
0.0
1001
ACDBBLOCKREPETAG
1070
     1
1071
       11
1005
12C592
  0
LINE
  5
12C593
  8
OBJECT
 10
4123.0
 20
-155.99999999999909
 30
0.0
 11
4087.0
 21
-155.99999999999909
 31
0.0
1001
ACDBBLOCKREPETAG
1070
     1
1071
       12
1005
12C593
  0
LINE
  5
12C594
  8
OBJECT
 10
4087.0
 20
-155.99999999999909
 30
0.0
 11
4087.0
 21
-243.99999999999909
 31
0.0
1001
ACDBBLOCKREPETAG
1070
     1
1071
       13
1005
12C594
  0
LINE
  5
12C595
  8
OBJECT
 10
4087.0
 20
-243.99999999999909
 30
0.0
 11
4123.0
 21
-243.99999999999909
 31
0.0
1001
ACDBBLOCKREPETAG
1070
     1
1071
       14
1005
12C595
  0
LINE
  5
12C596
  8
OBJECT
 10
4083.0
 20
-160.49999999999909
 30
0.0
 11
4076.0
 21
-160.49999999999909
 31
0.0
1001
ACDBBLOCKREPETAG
1070
     1
1071
       15
1005
12C596
  0
LINE
  5
12C597
  8
OBJECT
 10
4076.0
 20
-239.49999999999909
 30
0.0
 11
4083.0
 21
-239.49999999999909
 31
0.0
1001
ACDBBLOCKREPETAG
1070
     1
1071
       16
1005
12C597
  0
LINE
  5
12C598
  8
OBJECT
 10
4083.0
 20
-239.49999999999909
 30
0.0
 11
4083.0
 21
-160.49999999999909
 31
0.0
1001
ACDBBLOCKREPETAG
1070
     1
1071
       17
1005
12C598
  0
LINE
  5
12C599
  8
OBJECT
 10
4087.0
 20
-155.99999999999909
 30
0.0
 11
4083.0
 21
-160.49999999999909
 31
0.0
1001
ACDBBLOCKREPETAG
1070
     1
1071
       18
1005
12C599
  0
LINE
  5
12C59A
  8
OBJECT
 10
4087.0
 20
-243.99999999999909
 30
0.0
 11
4083.0
 21
-239.49999999999909
 31
0.0
1001
ACDBBLOCKREPETAG
1070
     1
1071
       19
1005
12C59A
  0
LINE
  5
12C59B
  8
OBJECT
 10
4073.0
 20
-137.99999999999909
 30
0.0
 11
4070.0
 21
-137.99999999999909
 31
0.0
1001
ACDBBLOCKREPETAG
1070
     1
1071
       20
1005
12C59B
  0
ARC
  5
12C59C
  8
OBJECT
 10
4073.0
 20
-140.99999999999909
 30
0.0
 40
3.0
 50
0.0
 51
90.0
1001
ACDBBLOCKREPETAG
1070
     1
1071
       21
1005
12C59C
  0
LINE
  5
12C59D
  8
OBJECT
 10
4070.0
 20
-261.99999999999909
 30
0.0
 11
4073.0
 21
-261.99999999999909
 31
0.0
1001
ACDBBLOCKREPETAG
1070
     1
1071
       22
1005
12C59D
  0
ARC
  5
12C59E
  8
OBJECT
 10
4073.0
 20
-258.99999999999909
 30
0.0
 40
3.0
 50
270.0
 51
0.0
1001
ACDBBLOCKREPETAG
1070
     1
1071
       23
1005
12C59E
  0
LINE
  5
12C59F
  8
OBJECT
 10
4076.0
 20
-258.99999999999909
 30
0.0
 11
4076.0
 21
-140.99999999999909
 31
0.0
1001
ACDBBLOCKREPETAG
1070
     1
1071
       24
1005
12C59F
  0
LINE
  5
12C5A0
  8
HIDDEN
 10
4078.0
 20
-169.99999999999909
 30
0.0
 11
4078.0
 21
-229.99999999999909
 31
0.0
1001
ACDBBLOCKREPETAG
1070
     1
1071
       25
1005
12C5A0
  0
TEXT
  5
12C5A1
  8
SLIM
 10
-18.199999999999999
 20
-1004.000000000006
 30
0.0
 40
52.0
  1
（特）：特注品。大便器の接続が
 41
0.75
1001
ACDBBLOCKREPETAG
1070
     1
1071
       46
1005
12BDEA
  0
TEXT
  5
12C5A2
  8
SLIM
 10
0.0
 20
-1073.3333333333401
 30
0.0
 40
52.0
  1
無いことを確認した場合のみ製作。
 41
0.75
1001
ACDBBLOCKREPETAG
1070
     1
1071
       46
1005
12BDEA
  0
ARC
  5
12C5A3
  8
OBJECT
 10
180.0
 20
-624.99999999999977
 30
0.0
 40
70.0
 50
152.33955010081621
 51
207.6604498991837
1001
ACDBBLOCKREPETAG
1070
     1
1071
        0
1005
12C5A3
  0
CIRCLE
  5
12C5A4
  8
OBJECT
 10
180.0
 20
-624.99999999999977
 30
0.0
 40
65.0
1001
ACDBBLOCKREPETAG
1070
     1
1071
        1
1005
12C5A4
  0
CIRCLE
  5
12C5A5
  8
OBJECT
 10
180.0
 20
-624.99999999999977
 30
0.0
 40
50.5
1001
ACDBBLOCKREPETAG
1070
     1
1071
        3
1005
12C5A5
  0
LINE
  5
12C5A6
  8
OBJECT
 10
118.0
 20
-554.99999999999807
 30
0.0
 11
118.0
 21
-605.48077870405643
 31
0.0
1001
ACDBBLOCKREPETAG
1070
     1
1071
        4
1005
12C5A6
  0
LINE
  5
12C5A7
  8
OBJECT
 10
118.0
 20
-694.99999999999955
 30
0.0
 11
118.0
 21
-644.51922129594288
 31
0.0
1001
ACDBBLOCKREPETAG
1070
     1
1071
        5
1005
12C5A7
  0
LINE
  5
12C5A8
  8
OBJECT
 10
242.0
 20
-694.99999999999955
 30
0.0
 11
242.0
 21
-686.99999999999955
 31
0.0
1001
ACDBBLOCKREPETAG
1070
     1
1071
        6
1005
12C5A8
  0
LINE
  5
12C5A9
  8
OBJECT
 10
250.0
 20
-686.99999999999955
 30
0.0
 11
242.0
 21
-686.99999999999955
 31
0.0
1001
ACDBBLOCKREPETAG
1070
     1
1071
        7
1005
12C5A9
  0
LINE
  5
12C5AA
  8
OBJECT
 10
242.0
 20
-554.99999999999807
 30
0.0
 11
242.0
 21
-562.99999999999977
 31
0.0
1001
ACDBBLOCKREPETAG
1070
     1
1071
        8
1005
12C5AA
  0
LINE
  5
12C5AB
  8
OBJECT
 10
250.0
 20
-562.99999999999977
 30
0.0
 11
242.0
 21
-562.99999999999977
 31
0.0
1001
ACDBBLOCKREPETAG
1070
     1
1071
        9
1005
12C5AB
  0
LINE
  5
12C5AC
  8
OBJECT
 10
225.96194077712559
 20
-670.96194077712539
 30
0.0
 11
242.0
 21
-686.99999999999955
 31
0.0
1001
ACDBBLOCKREPETAG
1070
     1
1071
       21
1005
12C5AC
  0
LINE
  5
12C5AD
  8
OBJECT
 10
225.96194077712559
 20
-579.03805922287415
 30
0.0
 11
242.0
 21
-562.99999999999977
 31
0.0
1001
ACDBBLOCKREPETAG
1070
     1
1071
       22
1005
12C5AD
  0
POINT
  5
12C5AE
  8
DOTS
 10
180.0
 20
-624.99999999999977
 30
0.0
1001
ACDBBLOCKREPETAG
1070
     1
1071
       23
1005
12C5AE
  0
POINT
  5
12C5AF
  8
DOTS
 10
180.0
 20
-624.99999999999977
 30
0.0
 50
270.0
1001
ACDBBLOCKREPETAG
1070
     1
1071
       46
1005
12C5AF
  0
LINE
  5
12C5B0
  8
OBJECT
 10
242.0
 20
-817.99999999998522
 30
0.0
 11
242.0
 21
-824.99999999998522
 31
0.0
1001
ACDBBLOCKREPETAG
1070
     1
1071
      347
1005
12C5B0
  0
LINE
  5
12C5B1
  8
OBJECT
 10
242.0
 20
-824.99999999998522
 30
0.0
 11
118.0
 21
-824.99999999998522
 31
0.0
1001
ACDBBLOCKREPETAG
1070
     1
1071
      348
1005
12C5B1
  0
LINE
  5
12C5B2
  8
OBJECT
 10
118.0
 20
-824.99999999998522
 30
0.0
 11
118.0
 21
-817.99999999998522
 31
0.0
1001
ACDBBLOCKREPETAG
1070
     1
1071
      349
1005
12C5B2
  0
LINE
  5
12C5B3
  8
OBJECT
 10
118.0
 20
-817.99999999998522
 30
0.0
 11
242.0
 21
-817.99999999998522
 31
0.0
1001
ACDBBLOCKREPETAG
1070
     1
1071
      350
1005
12C5B3
  0
LINE
  5
12C5B4
  8
OBJECT
 10
134.99999999999631
 20
-764.99997496418621
 30
0.0
 11
135.0
 21
-700.99999999999898
 31
0.0
1001
ACDBBLOCKREPETAG
1070
     1
1071
      351
1005
12C5B4
  0
LINE
  5
12C5B5
  8
OBJECT
 10
225.0
 20
-764.99997496418621
 30
0.0
 11
225.0
 21
-701.00000000000045
 31
0.0
1001
ACDBBLOCKREPETAG
1070
     1
1071
      352
1005
12C5B5
  0
LINE
  5
12C5B6
  8
OBJECT
 10
239.0
 20
-817.99999999998522
 30
0.0
 11
239.0
 21
-781.99999999998511
 31
0.0
1001
ACDBBLOCKREPETAG
1070
     1
1071
      353
1005
12C5B6
  0
LINE
  5
12C5B7
  8
OBJECT
 10
239.0
 20
-781.99999999998511
 30
0.0
 11
121.0
 21
-781.99999999998511
 31
0.0
1001
ACDBBLOCKREPETAG
1070
     1
1071
      354
1005
12C5B7
  0
LINE
  5
12C5B8
  8
OBJECT
 10
121.0
 20
-781.99999999998511
 30
0.0
 11
121.0
 21
-817.99999999998522
 31
0.0
1001
ACDBBLOCKREPETAG
1070
     1
1071
      355
1005
12C5B8
  0
LINE
  5
12C5B9
  8
OBJECT
 10
234.5
 20
-777.99999999998522
 30
0.0
 11
234.5
 21
-764.99999999998522
 31
0.0
1001
ACDBBLOCKREPETAG
1070
     1
1071
      356
1005
12C5B9
  0
LINE
  5
12C5BA
  8
OBJECT
 10
125.5
 20
-764.99999999998522
 30
0.0
 11
125.5
 21
-777.99999999998522
 31
0.0
1001
ACDBBLOCKREPETAG
1070
     1
1071
      357
1005
12C5BA
  0
LINE
  5
12C5BB
  8
OBJECT
 10
125.5
 20
-777.99999999998522
 30
0.0
 11
234.5
 21
-777.99999999998522
 31
0.0
1001
ACDBBLOCKREPETAG
1070
     1
1071
      358
1005
12C5BB
  0
LINE
  5
12C5BC
  8
OBJECT
 10
239.0
 20
-781.99999999998511
 30
0.0
 11
234.5
 21
-777.99999999998522
 31
0.0
1001
ACDBBLOCKREPETAG
1070
     1
1071
      359
1005
12C5BC
  0
LINE
  5
12C5BD
  8
OBJECT
 10
121.0
 20
-781.99999999998511
 30
0.0
 11
125.5
 21
-777.99999999998522
 31
0.0
1001
ACDBBLOCKREPETAG
1070
     1
1071
      360
1005
12C5BD
  0
LINE
  5
12C5BE
  8
OBJECT
 10
242.0
 20
-698.00000000000045
 30
0.0
 11
242.0
 21
-694.99999999999955
 31
0.0
1001
ACDBBLOCKREPETAG
1070
     1
1071
      361
1005
12C5BE
  0
ARC
  5
12C5BF
  8
OBJECT
 10
239.0
 20
-698.00000000000045
 30
0.0
 40
3.0
 50
270.0
 51
0.0
1001
ACDBBLOCKREPETAG
1070
     1
1071
      362
1005
12C5BF
  0
LINE
  5
12C5C0
  8
OBJECT
 10
118.0
 20
-694.99999999999955
 30
0.0
 11
118.0
 21
-697.99999999999875
 31
0.0
1001
ACDBBLOCKREPETAG
1070
     1
1071
      363
1005
12C5C0
  0
ARC
  5
12C5C1
  8
OBJECT
 10
121.0
 20
-697.99999999999875
 30
0.0
 40
3.0
 50
180.0
 51
270.0
1001
ACDBBLOCKREPETAG
1070
     1
1071
      364
1005
12C5C1
  0
LINE
  5
12C5C2
  8
OBJECT
 10
121.0
 20
-700.99999999999898
 30
0.0
 11
169.67720967964121
 21
-701.00000000000045
 31
0.0
1001
ACDBBLOCKREPETAG
1070
     1
1071
      365
1005
12C5C2
  0
LINE
  5
12C5C3
  8
OBJECT
 10
190.32279032035871
 20
-700.99999999999966
 30
0.0
 11
239.0
 21
-701.00000000000045
 31
0.0
1001
ACDBBLOCKREPETAG
1070
     1
1071
      366
1005
12C5C3
  0
LINE
  5
12C5C4
  8
OBJECT
 10
125.5000490761886
 20
-764.99997496418621
 30
0.0
 11
234.5000490761885
 21
-764.99997496418621
 31
0.0
1001
ACDBBLOCKREPETAG
1070
     1
1071
      368
1005
12C5C4
  0
ARC
  5
12C5C5
  8
OBJECT
 10
180.0
 20
-744.80000000002258
 30
0.0
 40
45.000000000000547
 50
0.0
 51
180.0
1001
ACDBBLOCKREPETAG
1070
     1
1071
      369
1005
12C5C5
  0
INSERT
  5
12C5C6
  8
OBJECT
  2
*U311
 10
0.0
 20
0.0
 30
0.0
  0
INSERT
  5
12C5C7
  8
OBJECT
  2
*U312
 10
0.0
 20
0.0
 30
0.0
  0
LINE
  5
12C5C8
  8
HIDDEN
 10
224.5
 20
-772.99999999998522
 30
0.0
 11
135.5
 21
-772.99999999998522
 31
0.0
1001
ACDBBLOCKREPETAG
1070
     1
1071
      436
1005
12C5C8
  0
LINE
  5
12C5C9
  8
OBJECT
 10
253.0
 20
-686.99999999999955
 30
0.0
 11
250.0
 21
-686.99999999999955
 31
0.0
1001
ACDBBLOCKREPETAG
1070
     1
1071
      418
1005
12C5C9
  0
ARC
  5
12C5CA
  8
OBJECT
 10
253.0
 20
-683.99999999999977
 30
0.0
 40
3.0
 50
270.0
 51
0.0
1001
ACDBBLOCKREPETAG
1070
     1
1071
      419
1005
12C5CA
  0
LINE
  5
12C5CB
  8
OBJECT
 10
250.0
 20
-562.99999999999977
 30
0.0
 11
253.0
 21
-562.99999999999977
 31
0.0
1001
ACDBBLOCKREPETAG
1070
     1
1071
      420
1005
12C5CB
  0
ARC
  5
12C5CC
  8
OBJECT
 10
253.0
 20
-565.99999999999955
 30
0.0
 40
3.0
 50
0.0
 51
90.0
1001
ACDBBLOCKREPETAG
1070
     1
1071
      421
1005
12C5CC
  0
LINE
  5
12C5CD
  8
OBJECT
 10
256.0
 20
-565.99999999999955
 30
0.0
 11
256.0
 21
-683.99999999999977
 31
0.0
1001
ACDBBLOCKREPETAG
1070
     1
1071
      422
1005
12C5CD
  0
INSERT
  5
12C5CE
  8
OBJECT
  2
*U313
 10
0.0
 20
0.0
 30
0.0
  0
LINE
  5
12C5CF
  8
OBJECT
 10
118.0
 20
-501.99999999999801
 30
0.0
 11
118.0
 21
-494.99999999999778
 31
0.0
1001
ACDBBLOCKREPETAG
1070
     1
1071
       39
1005
12C5CF
  0
LINE
  5
12C5D0
  8
OBJECT
 10
118.0
 20
-494.99999999999778
 30
0.0
 11
242.0
 21
-494.99999999999778
 31
0.0
1001
ACDBBLOCKREPETAG
1070
     1
1071
       40
1005
12C5D0
  0
LINE
  5
12C5D1
  8
OBJECT
 10
242.0
 20
-494.99999999999778
 30
0.0
 11
242.0
 21
-501.99999999999801
 31
0.0
1001
ACDBBLOCKREPETAG
1070
     1
1071
       41
1005
12C5D1
  0
LINE
  5
12C5D2
  8
OBJECT
 10
242.0
 20
-501.99999999999801
 30
0.0
 11
118.0
 21
-501.99999999999801
 31
0.0
1001
ACDBBLOCKREPETAG
1070
     1
1071
       42
1005
12C5D2
  0
LINE
  5
12C5D3
  8
OBJECT
 10
121.0
 20
-501.99999999999801
 30
0.0
 11
121.0
 21
-537.99999999999795
 31
0.0
1001
ACDBBLOCKREPETAG
1070
     1
1071
       43
1005
12C5D3
  0
LINE
  5
12C5D4
  8
OBJECT
 10
121.0
 20
-537.99999999999795
 30
0.0
 11
239.0
 21
-537.99999999999795
 31
0.0
1001
ACDBBLOCKREPETAG
1070
     1
1071
       44
1005
12C5D4
  0
LINE
  5
12C5D5
  8
OBJECT
 10
239.0
 20
-537.99999999999795
 30
0.0
 11
239.0
 21
-501.99999999999801
 31
0.0
1001
ACDBBLOCKREPETAG
1070
     1
1071
       45
1005
12C5D5
  0
LINE
  5
12C5D6
  8
OBJECT
 10
125.5
 20
-541.99999999999795
 30
0.0
 11
125.5
 21
-548.99999999999795
 31
0.0
1001
ACDBBLOCKREPETAG
1070
     1
1071
       46
1005
12C5D6
  0
LINE
  5
12C5D7
  8
OBJECT
 10
234.5
 20
-548.99999999999795
 30
0.0
 11
234.5
 21
-541.99999999999795
 31
0.0
1001
ACDBBLOCKREPETAG
1070
     1
1071
       47
1005
12C5D7
  0
LINE
  5
12C5D8
  8
OBJECT
 10
234.5
 20
-541.99999999999795
 30
0.0
 11
125.5
 21
-541.99999999999795
 31
0.0
1001
ACDBBLOCKREPETAG
1070
     1
1071
       48
1005
12C5D8
  0
LINE
  5
12C5D9
  8
OBJECT
 10
121.0
 20
-537.99999999999795
 30
0.0
 11
125.5
 21
-541.99999999999795
 31
0.0
1001
ACDBBLOCKREPETAG
1070
     1
1071
       49
1005
12C5D9
  0
LINE
  5
12C5DA
  8
OBJECT
 10
239.0
 20
-537.99999999999795
 30
0.0
 11
234.5
 21
-541.99999999999795
 31
0.0
1001
ACDBBLOCKREPETAG
1070
     1
1071
       50
1005
12C5DA
  0
LINE
  5
12C5DB
  8
OBJECT
 10
118.0
 20
-551.99999999999693
 30
0.0
 11
118.0
 21
-554.99999999999807
 31
0.0
1001
ACDBBLOCKREPETAG
1070
     1
1071
       51
1005
12C5DB
  0
ARC
  5
12C5DC
  8
OBJECT
 10
121.0
 20
-551.99999999999693
 30
0.0
 40
3.0
 50
90.0
 51
180.0
1001
ACDBBLOCKREPETAG
1070
     1
1071
       52
1005
12C5DC
  0
LINE
  5
12C5DD
  8
OBJECT
 10
242.0
 20
-554.99999999999807
 30
0.0
 11
242.0
 21
-551.99999999999875
 31
0.0
1001
ACDBBLOCKREPETAG
1070
     1
1071
       53
1005
12C5DD
  0
ARC
  5
12C5DE
  8
OBJECT
 10
239.0
 20
-551.99999999999875
 30
0.0
 40
3.0
 50
0.0
 51
90.0
1001
ACDBBLOCKREPETAG
1070
     1
1071
       54
1005
12C5DE
  0
LINE
  5
12C5DF
  8
OBJECT
 10
239.0
 20
-548.99999999999875
 30
0.0
 11
121.0
 21
-548.99999999999693
 31
0.0
1001
ACDBBLOCKREPETAG
1070
     1
1071
       55
1005
12C5DF
  0
LINE
  5
12C5E0
  8
HIDDEN
 10
135.5
 20
-546.99999999999807
 30
0.0
 11
224.5
 21
-546.99999999999807
 31
0.0
1001
ACDBBLOCKREPETAG
1070
     1
1071
      426
1005
12C5E0
  0
ARC
  5
12C5E1
  8
OBJECT
 10
540.0
 20
-160.99999999999969
 30
0.0
 40
70.0
 50
152.33955010081689
 51
207.66044989918311
1001
ACDBBLOCKREPETAG
1070
     1
1071
        0
1005
12C5E1
  0
CIRCLE
  5
12C5E2
  8
OBJECT
 10
540.0
 20
-160.99999999999969
 30
0.0
 40
65.0
1001
ACDBBLOCKREPETAG
1070
     1
1071
        1
1005
12C5E2
  0
CIRCLE
  5
12C5E3
  8
OBJECT
 10
540.0
 20
-160.99999999999969
 30
0.0
 40
50.5
1001
ACDBBLOCKREPETAG
1070
     1
1071
        3
1005
12C5E3
  0
LINE
  5
12C5E4
  8
OBJECT
 10
478.0
 20
-90.999999999997954
 30
0.0
 11
478.0
 21
-141.48077870405649
 31
0.0
1001
ACDBBLOCKREPETAG
1070
     1
1071
        4
1005
12C5E4
  0
LINE
  5
12C5E5
  8
OBJECT
 10
478.0
 20
-230.9999999999998
 30
0.0
 11
478.0
 21
-180.51922129594291
 31
0.0
1001
ACDBBLOCKREPETAG
1070
     1
1071
        5
1005
12C5E5
  0
LINE
  5
12C5E6
  8
OBJECT
 10
602.0
 20
-230.9999999999998
 30
0.0
 11
602.0
 21
-222.9999999999998
 31
0.0
1001
ACDBBLOCKREPETAG
1070
     1
1071
        6
1005
12C5E6
  0
LINE
  5
12C5E7
  8
OBJECT
 10
610.0
 20
-222.9999999999998
 30
0.0
 11
602.0
 21
-222.9999999999998
 31
0.0
1001
ACDBBLOCKREPETAG
1070
     1
1071
        7
1005
12C5E7
  0
LINE
  5
12C5E8
  8
OBJECT
 10
602.0
 20
-90.999999999997954
 30
0.0
 11
602.0
 21
-98.999999999999773
 31
0.0
1001
ACDBBLOCKREPETAG
1070
     1
1071
        8
1005
12C5E8
  0
LINE
  5
12C5E9
  8
OBJECT
 10
610.0
 20
-98.999999999999773
 30
0.0
 11
602.0
 21
-98.999999999999773
 31
0.0
1001
ACDBBLOCKREPETAG
1070
     1
1071
        9
1005
12C5E9
  0
LINE
  5
12C5EA
  8
OBJECT
 10
585.96194077712562
 20
-206.96194077712531
 30
0.0
 11
602.0
 21
-222.9999999999998
 31
0.0
1001
ACDBBLOCKREPETAG
1070
     1
1071
       21
1005
12C5EA
  0
LINE
  5
12C5EB
  8
OBJECT
 10
585.96194077712562
 20
-115.0380592228742
 30
0.0
 11
602.0
 21
-98.999999999999773
 31
0.0
1001
ACDBBLOCKREPETAG
1070
     1
1071
       22
1005
12C5EB
  0
POINT
  5
12C5EC
  8
DOTS
 10
540.0
 20
-160.99999999999969
 30
0.0
1001
ACDBBLOCKREPETAG
1070
     1
1071
       23
1005
12C5EC
  0
POINT
  5
12C5ED
  8
DOTS
 10
540.0
 20
-160.99999999999969
 30
0.0
 50
270.0
1001
ACDBBLOCKREPETAG
1070
     1
1071
       46
1005
12C5ED
  0
LINE
  5
12C5EE
  8
OBJECT
 10
602.0
 20
-353.99999999998522
 30
0.0
 11
602.0
 21
-360.99999999998522
 31
0.0
1001
ACDBBLOCKREPETAG
1070
     1
1071
      347
1005
12C5EE
  0
LINE
  5
12C5EF
  8
OBJECT
 10
602.0
 20
-360.99999999998522
 30
0.0
 11
478.0
 21
-360.99999999998522
 31
0.0
1001
ACDBBLOCKREPETAG
1070
     1
1071
      348
1005
12C5EF
  0
LINE
  5
12C5F0
  8
OBJECT
 10
478.0
 20
-360.99999999998522
 30
0.0
 11
478.0
 21
-353.99999999998522
 31
0.0
1001
ACDBBLOCKREPETAG
1070
     1
1071
      349
1005
12C5F0
  0
LINE
  5
12C5F1
  8
OBJECT
 10
478.0
 20
-353.99999999998522
 30
0.0
 11
602.0
 21
-353.99999999998522
 31
0.0
1001
ACDBBLOCKREPETAG
1070
     1
1071
      350
1005
12C5F1
  0
LINE
  5
12C5F2
  8
OBJECT
 10
494.99999999999631
 20
-300.99997496418632
 30
0.0
 11
495.0
 21
-236.99999999999889
 31
0.0
1001
ACDBBLOCKREPETAG
1070
     1
1071
      351
1005
12C5F2
  0
LINE
  5
12C5F3
  8
OBJECT
 10
585.0
 20
-300.99997496418632
 30
0.0
 11
585.0
 21
-237.0000000000008
 31
0.0
1001
ACDBBLOCKREPETAG
1070
     1
1071
      352
1005
12C5F3
  0
LINE
  5
12C5F4
  8
OBJECT
 10
599.0
 20
-353.99999999998522
 30
0.0
 11
599.0
 21
-317.99999999998522
 31
0.0
1001
ACDBBLOCKREPETAG
1070
     1
1071
      353
1005
12C5F4
  0
LINE
  5
12C5F5
  8
OBJECT
 10
599.0
 20
-317.99999999998522
 30
0.0
 11
481.0
 21
-317.99999999998522
 31
0.0
1001
ACDBBLOCKREPETAG
1070
     1
1071
      354
1005
12C5F5
  0
LINE
  5
12C5F6
  8
OBJECT
 10
481.0
 20
-317.99999999998522
 30
0.0
 11
481.0
 21
-353.99999999998522
 31
0.0
1001
ACDBBLOCKREPETAG
1070
     1
1071
      355
1005
12C5F6
  0
LINE
  5
12C5F7
  8
OBJECT
 10
594.5
 20
-313.99999999998522
 30
0.0
 11
594.5
 21
-300.99999999998522
 31
0.0
1001
ACDBBLOCKREPETAG
1070
     1
1071
      356
1005
12C5F7
  0
LINE
  5
12C5F8
  8
OBJECT
 10
485.5
 20
-300.99999999998522
 30
0.0
 11
485.5
 21
-313.99999999998522
 31
0.0
1001
ACDBBLOCKREPETAG
1070
     1
1071
      357
1005
12C5F8
  0
LINE
  5
12C5F9
  8
OBJECT
 10
485.5
 20
-313.99999999998522
 30
0.0
 11
594.5
 21
-313.99999999998522
 31
0.0
1001
ACDBBLOCKREPETAG
1070
     1
1071
      358
1005
12C5F9
  0
LINE
  5
12C5FA
  8
OBJECT
 10
599.0
 20
-317.99999999998522
 30
0.0
 11
594.5
 21
-313.99999999998522
 31
0.0
1001
ACDBBLOCKREPETAG
1070
     1
1071
      359
1005
12C5FA
  0
LINE
  5
12C5FB
  8
OBJECT
 10
481.0
 20
-317.99999999998522
 30
0.0
 11
485.5
 21
-313.99999999998522
 31
0.0
1001
ACDBBLOCKREPETAG
1070
     1
1071
      360
1005
12C5FB
  0
LINE
  5
12C5FC
  8
OBJECT
 10
602.0
 20
-234.00000000000071
 30
0.0
 11
602.0
 21
-230.9999999999998
 31
0.0
1001
ACDBBLOCKREPETAG
1070
     1
1071
      361
1005
12C5FC
  0
ARC
  5
12C5FD
  8
OBJECT
 10
599.0
 20
-234.00000000000071
 30
0.0
 40
3.0
 50
270.0
 51
0.0
1001
ACDBBLOCKREPETAG
1070
     1
1071
      362
1005
12C5FD
  0
LINE
  5
12C5FE
  8
OBJECT
 10
478.0
 20
-230.9999999999998
 30
0.0
 11
478.0
 21
-233.99999999999889
 31
0.0
1001
ACDBBLOCKREPETAG
1070
     1
1071
      363
1005
12C5FE
  0
ARC
  5
12C5FF
  8
OBJECT
 10
481.0
 20
-233.99999999999889
 30
0.0
 40
3.0
 50
180.0
 51
270.0
1001
ACDBBLOCKREPETAG
1070
     1
1071
      364
1005
12C5FF
  0
LINE
  5
12C600
  8
OBJECT
 10
481.0
 20
-236.99999999999889
 30
0.0
 11
529.67720967964124
 21
-237.0000000000008
 31
0.0
1001
ACDBBLOCKREPETAG
1070
     1
1071
      365
1005
12C600
  0
LINE
  5
12C601
  8
OBJECT
 10
550.32279032035865
 20
-236.9999999999998
 30
0.0
 11
599.0
 21
-237.0000000000008
 31
0.0
1001
ACDBBLOCKREPETAG
1070
     1
1071
      366
1005
12C601
  0
LINE
  5
12C602
  8
OBJECT
 10
485.50004907618847
 20
-300.99997496418632
 30
0.0
 11
594.50004907618836
 21
-300.99997496418632
 31
0.0
1001
ACDBBLOCKREPETAG
1070
     1
1071
      368
1005
12C602
  0
ARC
  5
12C603
  8
OBJECT
 10
540.0
 20
-280.80000000002269
 30
0.0
 40
45.000000000000547
 50
0.0
 51
180.0
1001
ACDBBLOCKREPETAG
1070
     1
1071
      369
1005
12C603
  0
INSERT
  5
12C604
  8
OBJECT
  2
*U314
 10
0.0
 20
0.0
 30
0.0
  0
INSERT
  5
12C605
  8
OBJECT
  2
*U315
 10
0.0
 20
0.0
 30
0.0
  0
LINE
  5
12C606
  8
HIDDEN
 10
584.49999999999977
 20
-308.99999999998522
 30
0.0
 11
495.5
 21
-308.99999999998522
 31
0.0
1001
ACDBBLOCKREPETAG
1070
     1
1071
      436
1005
12C606
  0
LINE
  5
12C607
  8
OBJECT
 10
613.0
 20
-222.9999999999998
 30
0.0
 11
610.0
 21
-222.9999999999998
 31
0.0
1001
ACDBBLOCKREPETAG
1070
     1
1071
      418
1005
12C607
  0
ARC
  5
12C608
  8
OBJECT
 10
613.0
 20
-219.9999999999998
 30
0.0
 40
3.0
 50
270.0
 51
0.0
1001
ACDBBLOCKREPETAG
1070
     1
1071
      419
1005
12C608
  0
LINE
  5
12C609
  8
OBJECT
 10
610.0
 20
-98.999999999999773
 30
0.0
 11
613.0
 21
-98.999999999999773
 31
0.0
1001
ACDBBLOCKREPETAG
1070
     1
1071
      420
1005
12C609
  0
ARC
  5
12C60A
  8
OBJECT
 10
613.0
 20
-101.9999999999998
 30
0.0
 40
3.0
 50
0.0
 51
90.0
1001
ACDBBLOCKREPETAG
1070
     1
1071
      421
1005
12C60A
  0
LINE
  5
12C60B
  8
OBJECT
 10
616.0
 20
-101.9999999999998
 30
0.0
 11
616.0
 21
-219.9999999999998
 31
0.0
1001
ACDBBLOCKREPETAG
1070
     1
1071
      422
1005
12C60B
  0
INSERT
  5
12C60C
  8
OBJECT
  2
*U316
 10
0.0
 20
0.0
 30
0.0
  0
LINE
  5
12C60D
  8
OBJECT
 10
485.0
 20
-37.999999999997947
 30
0.0
 11
485.0
 21
-30.99999999999795
 31
0.0
1001
ACDBBLOCKREPETAG
1070
     1
1071
       20
1005
12C60D
  0
LINE
  5
12C60E
  8
OBJECT
 10
485.0
 20
-30.99999999999795
 30
0.0
 11
595.0
 21
-30.99999999999795
 31
0.0
1001
ACDBBLOCKREPETAG
1070
     1
1071
       21
1005
12C60E
  0
LINE
  5
12C60F
  8
OBJECT
 10
595.0
 20
-30.99999999999795
 30
0.0
 11
595.0
 21
-37.999999999997947
 31
0.0
1001
ACDBBLOCKREPETAG
1070
     1
1071
       22
1005
12C60F
  0
LINE
  5
12C610
  8
OBJECT
 10
595.0
 20
-37.999999999997947
 30
0.0
 11
485.0
 21
-37.999999999997947
 31
0.0
1001
ACDBBLOCKREPETAG
1070
     1
1071
       23
1005
12C610
  0
LINE
  5
12C611
  8
OBJECT
 10
488.0
 20
-37.999999999997947
 30
0.0
 11
488.0
 21
-73.999999999997954
 31
0.0
1001
ACDBBLOCKREPETAG
1070
     1
1071
       24
1005
12C611
  0
LINE
  5
12C612
  8
OBJECT
 10
488.0
 20
-73.999999999997954
 30
0.0
 11
592.0
 21
-73.999999999997954
 31
0.0
1001
ACDBBLOCKREPETAG
1070
     1
1071
       25
1005
12C612
  0
LINE
  5
12C613
  8
OBJECT
 10
592.0
 20
-73.999999999997954
 30
0.0
 11
592.0
 21
-37.999999999997947
 31
0.0
1001
ACDBBLOCKREPETAG
1070
     1
1071
       26
1005
12C613
  0
LINE
  5
12C614
  8
OBJECT
 10
492.49999999999989
 20
-77.999999999997954
 30
0.0
 11
492.49999999999989
 21
-84.999999999997954
 31
0.0
1001
ACDBBLOCKREPETAG
1070
     1
1071
       27
1005
12C614
  0
LINE
  5
12C615
  8
OBJECT
 10
587.5
 20
-84.999999999997954
 30
0.0
 11
587.5
 21
-77.999999999997954
 31
0.0
1001
ACDBBLOCKREPETAG
1070
     1
1071
       28
1005
12C615
  0
LINE
  5
12C616
  8
OBJECT
 10
587.5
 20
-77.999999999997954
 30
0.0
 11
492.49999999999989
 21
-77.999999999997954
 31
0.0
1001
ACDBBLOCKREPETAG
1070
     1
1071
       29
1005
12C616
  0
LINE
  5
12C617
  8
OBJECT
 10
488.0
 20
-73.999999999997954
 30
0.0
 11
492.49999999999989
 21
-77.999999999997954
 31
0.0
1001
ACDBBLOCKREPETAG
1070
     1
1071
       30
1005
12C617
  0
LINE
  5
12C618
  8
OBJECT
 10
592.0
 20
-73.999999999997954
 30
0.0
 11
587.5
 21
-77.999999999997954
 31
0.0
1001
ACDBBLOCKREPETAG
1070
     1
1071
       31
1005
12C618
  0
LINE
  5
12C619
  8
OBJECT
 10
478.0
 20
-87.999999999997044
 30
0.0
 11
478.0
 21
-90.999999999997954
 31
0.0
1001
ACDBBLOCKREPETAG
1070
     1
1071
       32
1005
12C619
  0
ARC
  5
12C61A
  8
OBJECT
 10
481.0
 20
-87.999999999997044
 30
0.0
 40
3.0
 50
90.0
 51
180.0
1001
ACDBBLOCKREPETAG
1070
     1
1071
       33
1005
12C61A
  0
LINE
  5
12C61B
  8
OBJECT
 10
602.0
 20
-90.999999999997954
 30
0.0
 11
602.0
 21
-87.999999999998849
 31
0.0
1001
ACDBBLOCKREPETAG
1070
     1
1071
       34
1005
12C61B
  0
ARC
  5
12C61C
  8
OBJECT
 10
599.0
 20
-87.999999999998849
 30
0.0
 40
3.0
 50
0.0
 51
90.0
1001
ACDBBLOCKREPETAG
1070
     1
1071
       35
1005
12C61C
  0
LINE
  5
12C61D
  8
OBJECT
 10
599.0
 20
-84.999999999998835
 30
0.0
 11
481.0
 21
-84.999999999997044
 31
0.0
1001
ACDBBLOCKREPETAG
1070
     1
1071
       36
1005
12C61D
  0
LINE
  5
12C61E
  8
HIDDEN
 10
502.0
 20
-82.999999999997954
 30
0.0
 11
578.0
 21
-82.999999999997954
 31
0.0
1001
ACDBBLOCKREPETAG
1070
     1
1071
      423
1005
12C61E
  0
TEXT
  5
12C61F
  8
SLIM
 10
61.028571428571396
 20
-908.0
 30
0.0
 40
48.0
  1
Z306（特）
 41
0.75
1001
ACDBBLOCKREPETAG
1070
     1
1071
       46
1005
0
  0
TEXT
  5
12C620
  8
SLIM
 10
477.42857142857139
 20
-444.0
 30
0.0
 40
48.0
  1
Z206
 41
0.75
1001
ACDBBLOCKREPETAG
1070
     1
1071
       46
1005
0
  0
ARC
  5
12C621
  8
OBJECT
 10
180.0
 20
-160.99999999999969
 30
0.0
 40
70.0
 50
152.33955010081621
 51
207.6604498991837
1001
ACDBBLOCKREPETAG
1070
     1
1071
        0
1005
12C621
  0
CIRCLE
  5
12C622
  8
OBJECT
 10
180.0
 20
-160.99999999999969
 30
0.0
 40
65.0
1001
ACDBBLOCKREPETAG
1070
     1
1071
        1
1005
12C622
  0
CIRCLE
  5
12C623
  8
OBJECT
 10
180.0
 20
-160.99999999999969
 30
0.0
 40
50.5
1001
ACDBBLOCKREPETAG
1070
     1
1071
        3
1005
12C623
  0
LINE
  5
12C624
  8
OBJECT
 10
118.0
 20
-90.999999999997954
 30
0.0
 11
118.0
 21
-141.48077870405649
 31
0.0
1001
ACDBBLOCKREPETAG
1070
     1
1071
        4
1005
12C624
  0
LINE
  5
12C625
  8
OBJECT
 10
118.0
 20
-230.9999999999998
 30
0.0
 11
118.0
 21
-180.51922129594291
 31
0.0
1001
ACDBBLOCKREPETAG
1070
     1
1071
        5
1005
12C625
  0
LINE
  5
12C626
  8
OBJECT
 10
242.0
 20
-230.9999999999998
 30
0.0
 11
242.0
 21
-222.9999999999998
 31
0.0
1001
ACDBBLOCKREPETAG
1070
     1
1071
        6
1005
12C626
  0
LINE
  5
12C627
  8
OBJECT
 10
250.0
 20
-222.9999999999998
 30
0.0
 11
242.0
 21
-222.9999999999998
 31
0.0
1001
ACDBBLOCKREPETAG
1070
     1
1071
        7
1005
12C627
  0
LINE
  5
12C628
  8
OBJECT
 10
242.0
 20
-90.999999999997954
 30
0.0
 11
242.0
 21
-98.999999999999773
 31
0.0
1001
ACDBBLOCKREPETAG
1070
     1
1071
        8
1005
12C628
  0
LINE
  5
12C629
  8
OBJECT
 10
250.0
 20
-98.999999999999773
 30
0.0
 11
242.0
 21
-98.999999999999773
 31
0.0
1001
ACDBBLOCKREPETAG
1070
     1
1071
        9
1005
12C629
  0
LINE
  5
12C62A
  8
OBJECT
 10
225.96194077712559
 20
-206.96194077712531
 30
0.0
 11
242.0
 21
-222.9999999999998
 31
0.0
1001
ACDBBLOCKREPETAG
1070
     1
1071
       21
1005
12C62A
  0
LINE
  5
12C62B
  8
OBJECT
 10
225.96194077712559
 20
-115.0380592228742
 30
0.0
 11
242.0
 21
-98.999999999999773
 31
0.0
1001
ACDBBLOCKREPETAG
1070
     1
1071
       22
1005
12C62B
  0
POINT
  5
12C62C
  8
DOTS
 10
180.0
 20
-160.99999999999969
 30
0.0
1001
ACDBBLOCKREPETAG
1070
     1
1071
       23
1005
12C62C
  0
POINT
  5
12C62D
  8
DOTS
 10
180.0
 20
-160.99999999999969
 30
0.0
 50
270.0
1001
ACDBBLOCKREPETAG
1070
     1
1071
       46
1005
12C62D
  0
TEXT
  5
12C62E
  8
SLIM
 10
120.8571428571428
 20
-444.0
 30
0.0
 40
48.0
  1
Z106
 41
0.75
1001
ACDBBLOCKREPETAG
1070
     1
1071
       46
1005
0
  0
LINE
  5
12C62F
  8
OBJECT
 10
242.0
 20
-353.99999999998522
 30
0.0
 11
242.0
 21
-360.99999999998522
 31
0.0
1001
ACDBBLOCKREPETAG
1070
     1
1071
      347
1005
12C62F
  0
LINE
  5
12C630
  8
OBJECT
 10
242.0
 20
-360.99999999998522
 30
0.0
 11
118.0
 21
-360.99999999998522
 31
0.0
1001
ACDBBLOCKREPETAG
1070
     1
1071
      348
1005
12C630
  0
LINE
  5
12C631
  8
OBJECT
 10
118.0
 20
-360.99999999998522
 30
0.0
 11
118.0
 21
-353.99999999998522
 31
0.0
1001
ACDBBLOCKREPETAG
1070
     1
1071
      349
1005
12C631
  0
LINE
  5
12C632
  8
OBJECT
 10
118.0
 20
-353.99999999998522
 30
0.0
 11
242.0
 21
-353.99999999998522
 31
0.0
1001
ACDBBLOCKREPETAG
1070
     1
1071
      350
1005
12C632
  0
LINE
  5
12C633
  8
OBJECT
 10
134.99999999999631
 20
-300.99997496418632
 30
0.0
 11
135.0
 21
-236.99999999999889
 31
0.0
1001
ACDBBLOCKREPETAG
1070
     1
1071
      351
1005
12C633
  0
LINE
  5
12C634
  8
OBJECT
 10
225.0
 20
-300.99997496418632
 30
0.0
 11
225.0
 21
-237.0000000000008
 31
0.0
1001
ACDBBLOCKREPETAG
1070
     1
1071
      352
1005
12C634
  0
LINE
  5
12C635
  8
OBJECT
 10
239.0
 20
-353.99999999998522
 30
0.0
 11
239.0
 21
-317.99999999998522
 31
0.0
1001
ACDBBLOCKREPETAG
1070
     1
1071
      353
1005
12C635
  0
LINE
  5
12C636
  8
OBJECT
 10
239.0
 20
-317.99999999998522
 30
0.0
 11
121.0
 21
-317.99999999998522
 31
0.0
1001
ACDBBLOCKREPETAG
1070
     1
1071
      354
1005
12C636
  0
LINE
  5
12C637
  8
OBJECT
 10
121.0
 20
-317.99999999998522
 30
0.0
 11
121.0
 21
-353.99999999998522
 31
0.0
1001
ACDBBLOCKREPETAG
1070
     1
1071
      355
1005
12C637
  0
LINE
  5
12C638
  8
OBJECT
 10
234.5
 20
-313.99999999998522
 30
0.0
 11
234.5
 21
-300.99999999998522
 31
0.0
1001
ACDBBLOCKREPETAG
1070
     1
1071
      356
1005
12C638
  0
LINE
  5
12C639
  8
OBJECT
 10
125.5
 20
-300.99999999998522
 30
0.0
 11
125.5
 21
-313.99999999998522
 31
0.0
1001
ACDBBLOCKREPETAG
1070
     1
1071
      357
1005
12C639
  0
LINE
  5
12C63A
  8
OBJECT
 10
125.5
 20
-313.99999999998522
 30
0.0
 11
234.5
 21
-313.99999999998522
 31
0.0
1001
ACDBBLOCKREPETAG
1070
     1
1071
      358
1005
12C63A
  0
LINE
  5
12C63B
  8
OBJECT
 10
239.0
 20
-317.99999999998522
 30
0.0
 11
234.5
 21
-313.99999999998522
 31
0.0
1001
ACDBBLOCKREPETAG
1070
     1
1071
      359
1005
12C63B
  0
LINE
  5
12C63C
  8
OBJECT
 10
121.0
 20
-317.99999999998522
 30
0.0
 11
125.5
 21
-313.99999999998522
 31
0.0
1001
ACDBBLOCKREPETAG
1070
     1
1071
      360
1005
12C63C
  0
LINE
  5
12C63D
  8
OBJECT
 10
242.0
 20
-234.00000000000071
 30
0.0
 11
242.0
 21
-230.9999999999998
 31
0.0
1001
ACDBBLOCKREPETAG
1070
     1
1071
      361
1005
12C63D
  0
ARC
  5
12C63E
  8
OBJECT
 10
239.0
 20
-234.00000000000071
 30
0.0
 40
3.0
 50
270.0
 51
0.0
1001
ACDBBLOCKREPETAG
1070
     1
1071
      362
1005
12C63E
  0
LINE
  5
12C63F
  8
OBJECT
 10
118.0
 20
-230.9999999999998
 30
0.0
 11
118.0
 21
-233.99999999999889
 31
0.0
1001
ACDBBLOCKREPETAG
1070
     1
1071
      363
1005
12C63F
  0
ARC
  5
12C640
  8
OBJECT
 10
121.0
 20
-233.99999999999889
 30
0.0
 40
3.0
 50
180.0
 51
270.0
1001
ACDBBLOCKREPETAG
1070
     1
1071
      364
1005
12C640
  0
LINE
  5
12C641
  8
OBJECT
 10
121.0
 20
-236.99999999999889
 30
0.0
 11
169.67720967964121
 21
-237.0000000000008
 31
0.0
1001
ACDBBLOCKREPETAG
1070
     1
1071
      365
1005
12C641
  0
LINE
  5
12C642
  8
OBJECT
 10
190.32279032035871
 20
-236.9999999999998
 30
0.0
 11
239.0
 21
-237.0000000000008
 31
0.0
1001
ACDBBLOCKREPETAG
1070
     1
1071
      366
1005
12C642
  0
LINE
  5
12C643
  8
OBJECT
 10
125.5000490761886
 20
-300.99997496418632
 30
0.0
 11
234.5000490761885
 21
-300.99997496418632
 31
0.0
1001
ACDBBLOCKREPETAG
1070
     1
1071
      368
1005
12C643
  0
ARC
  5
12C644
  8
OBJECT
 10
180.0
 20
-280.80000000002269
 30
0.0
 40
45.000000000000547
 50
0.0
 51
180.0
1001
ACDBBLOCKREPETAG
1070
     1
1071
      369
1005
12C644
  0
INSERT
  5
12C645
  8
OBJECT
  2
*U317
 10
0.0
 20
0.0
 30
0.0
  0
INSERT
  5
12C646
  8
OBJECT
  2
*U318
 10
0.0
 20
0.0
 30
0.0
  0
LINE
  5
12C647
  8
HIDDEN
 10
224.5
 20
-308.99999999998522
 30
0.0
 11
135.5
 21
-308.99999999998522
 31
0.0
1001
ACDBBLOCKREPETAG
1070
     1
1071
      436
1005
12C647
  0
LINE
  5
12C648
  8
OBJECT
 10
253.0
 20
-222.9999999999998
 30
0.0
 11
250.0
 21
-222.9999999999998
 31
0.0
1001
ACDBBLOCKREPETAG
1070
     1
1071
      418
1005
12C648
  0
ARC
  5
12C649
  8
OBJECT
 10
253.0
 20
-219.9999999999998
 30
0.0
 40
3.0
 50
270.0
 51
0.0
1001
ACDBBLOCKREPETAG
1070
     1
1071
      419
1005
12C649
  0
LINE
  5
12C64A
  8
OBJECT
 10
250.0
 20
-98.999999999999773
 30
0.0
 11
253.0
 21
-98.999999999999773
 31
0.0
1001
ACDBBLOCKREPETAG
1070
     1
1071
      420
1005
12C64A
  0
ARC
  5
12C64B
  8
OBJECT
 10
253.0
 20
-101.9999999999998
 30
0.0
 40
3.0
 50
0.0
 51
90.0
1001
ACDBBLOCKREPETAG
1070
     1
1071
      421
1005
12C64B
  0
LINE
  5
12C64C
  8
OBJECT
 10
256.0
 20
-101.9999999999998
 30
0.0
 11
256.0
 21
-219.9999999999998
 31
0.0
1001
ACDBBLOCKREPETAG
1070
     1
1071
      422
1005
12C64C
  0
INSERT
  5
12C64D
  8
OBJECT
  2
*U319
 10
0.0
 20
0.0
 30
0.0
  0
LINE
  5
12C64E
  8
OBJECT
 10
133.0
 20
-37.999999999997947
 30
0.0
 11
133.0
 21
-30.99999999999795
 31
0.0
1001
ACDBBLOCKREPETAG
1070
     1
1071
        1
1005
12C64E
  0
LINE
  5
12C64F
  8
OBJECT
 10
133.0
 20
-30.99999999999795
 30
0.0
 11
227.0
 21
-30.99999999999795
 31
0.0
1001
ACDBBLOCKREPETAG
1070
     1
1071
        2
1005
12C64F
  0
LINE
  5
12C650
  8
OBJECT
 10
227.0
 20
-30.99999999999795
 30
0.0
 11
227.0
 21
-37.999999999997947
 31
0.0
1001
ACDBBLOCKREPETAG
1070
     1
1071
        3
1005
12C650
  0
LINE
  5
12C651
  8
OBJECT
 10
227.0
 20
-37.999999999997947
 30
0.0
 11
133.0
 21
-37.999999999997947
 31
0.0
1001
ACDBBLOCKREPETAG
1070
     1
1071
        4
1005
12C651
  0
LINE
  5
12C652
  8
OBJECT
 10
136.0
 20
-37.999999999997947
 30
0.0
 11
136.0
 21
-73.999999999997954
 31
0.0
1001
ACDBBLOCKREPETAG
1070
     1
1071
        5
1005
12C652
  0
LINE
  5
12C653
  8
OBJECT
 10
136.0
 20
-73.999999999997954
 30
0.0
 11
224.0
 21
-73.999999999997954
 31
0.0
1001
ACDBBLOCKREPETAG
1070
     1
1071
        6
1005
12C653
  0
LINE
  5
12C654
  8
OBJECT
 10
224.0
 20
-73.999999999997954
 30
0.0
 11
224.0
 21
-37.999999999997947
 31
0.0
1001
ACDBBLOCKREPETAG
1070
     1
1071
        7
1005
12C654
  0
LINE
  5
12C655
  8
OBJECT
 10
140.5
 20
-77.999999999997954
 30
0.0
 11
140.5
 21
-84.999999999997954
 31
0.0
1001
ACDBBLOCKREPETAG
1070
     1
1071
        8
1005
12C655
  0
LINE
  5
12C656
  8
OBJECT
 10
219.5
 20
-84.999999999997954
 30
0.0
 11
219.5
 21
-77.999999999997954
 31
0.0
1001
ACDBBLOCKREPETAG
1070
     1
1071
        9
1005
12C656
  0
LINE
  5
12C657
  8
OBJECT
 10
219.5
 20
-77.999999999997954
 30
0.0
 11
140.5
 21
-77.999999999997954
 31
0.0
1001
ACDBBLOCKREPETAG
1070
     1
1071
       10
1005
12C657
  0
LINE
  5
12C658
  8
OBJECT
 10
136.0
 20
-73.999999999997954
 30
0.0
 11
140.5
 21
-77.999999999997954
 31
0.0
1001
ACDBBLOCKREPETAG
1070
     1
1071
       11
1005
12C658
  0
LINE
  5
12C659
  8
OBJECT
 10
224.0
 20
-73.999999999997954
 30
0.0
 11
219.5
 21
-77.999999999997954
 31
0.0
1001
ACDBBLOCKREPETAG
1070
     1
1071
       12
1005
12C659
  0
LINE
  5
12C65A
  8
OBJECT
 10
118.0
 20
-87.999999999997044
 30
0.0
 11
118.0
 21
-90.999999999997954
 31
0.0
1001
ACDBBLOCKREPETAG
1070
     1
1071
       13
1005
12C65A
  0
ARC
  5
12C65B
  8
OBJECT
 10
121.0
 20
-87.999999999997044
 30
0.0
 40
3.0
 50
90.0
 51
180.0
1001
ACDBBLOCKREPETAG
1070
     1
1071
       14
1005
12C65B
  0
LINE
  5
12C65C
  8
OBJECT
 10
242.0
 20
-90.999999999997954
 30
0.0
 11
242.0
 21
-87.999999999998849
 31
0.0
1001
ACDBBLOCKREPETAG
1070
     1
1071
       15
1005
12C65C
  0
ARC
  5
12C65D
  8
OBJECT
 10
239.0
 20
-87.999999999998849
 30
0.0
 40
3.0
 50
0.0
 51
90.0
1001
ACDBBLOCKREPETAG
1070
     1
1071
       16
1005
12C65D
  0
LINE
  5
12C65E
  8
OBJECT
 10
239.0
 20
-84.999999999998835
 30
0.0
 11
121.0
 21
-84.999999999997044
 31
0.0
1001
ACDBBLOCKREPETAG
1070
     1
1071
       17
1005
12C65E
  0
LINE
  5
12C65F
  8
HIDDEN
 10
150.0
 20
-82.999999999997954
 30
0.0
 11
210.0
 21
-82.999999999997954
 31
0.0
1001
ACDBBLOCKREPETAG
1070
     1
1071
      420
1005
12C65F
  0
CIRCLE
  5
12C660
  8
OBJECT
 10
2000.0
 20
-695.99999999999955
 30
0.0
 40
62.0
1001
ACDBBLOCKREPETAG
1070
     1
1071
        0
1005
12C660
  0
LINE
  5
12C661
  8
CENTER
 10
2000.0
 20
-769.99999999999955
 30
0.0
 11
2000.0
 21
-613.99999999999966
 31
0.0
1001
ACDBBLOCKREPETAG
1070
     1
1071
        0
1005
12C661
  0
LINE
  5
12C662
  8
OBJECT
 10
1930.0
 20
-633.99999999999955
 30
0.0
 11
2070.0
 21
-633.99999999999955
 31
0.0
1001
ACDBBLOCKREPETAG
1070
     1
1071
        1
1005
12C662
  0
LINE
  5
12C663
  8
OBJECT
 10
1930.0
 20
-757.99999999999955
 30
0.0
 11
1930.0
 21
-769.99999999999955
 31
0.0
1001
ACDBBLOCKREPETAG
1070
     1
1071
        2
1005
12C663
  0
LINE
  5
12C664
  8
OBJECT
 10
1930.0
 20
-769.99999999999955
 30
0.0
 11
2070.0
 21
-769.99999999999955
 31
0.0
1001
ACDBBLOCKREPETAG
1070
     1
1071
        3
1005
12C664
  0
LINE
  5
12C665
  8
OBJECT
 10
2070.0
 20
-769.99999999999955
 30
0.0
 11
2070.0
 21
-757.99999999999955
 31
0.0
1001
ACDBBLOCKREPETAG
1070
     1
1071
        4
1005
12C665
  0
LINE
  5
12C666
  8
OBJECT
 10
2070.0
 20
-757.99999999999955
 30
0.0
 11
1930.0
 21
-757.99999999999955
 31
0.0
1001
ACDBBLOCKREPETAG
1070
     1
1071
        5
1005
12C666
  0
ARC
  5
12C667
  8
OBJECT
 10
2435.0384389946771
 20
-998.60813684682694
 30
0.0
 40
519.48776673616965
 50
135.4235066743189
 51
138.50052655621499
1001
ACDBBLOCKREPETAG
1070
     1
1071
        9
1005
12C667
  0
ARC
  5
12C668
  8
OBJECT
 10
2435.0384389946771
 20
-393.39186315317193
 30
0.0
 40
519.48776673616965
 50
221.49947344378501
 51
224.57649332568101
1001
ACDBBLOCKREPETAG
1070
     1
1071
       10
1005
12C668
  0
ARC
  5
12C669
  8
OBJECT
 10
1564.961561005322
 20
-998.60813684682694
 30
0.0
 40
519.48776673616965
 50
41.499473443784993
 51
44.576493325681092
1001
ACDBBLOCKREPETAG
1070
     1
1071
       11
1005
12C669
  0
ARC
  5
12C66A
  8
OBJECT
 10
1564.961561005322
 20
-393.39186315317193
 30
0.0
 40
519.48776673616965
 50
315.4235066743189
 51
318.50052655621488
1001
ACDBBLOCKREPETAG
1070
     1
1071
       12
1005
12C66A
  0
LINE
  5
12C66B
  8
OBJECT
 10
2047.5
 20
-628.99999999999955
 30
0.0
 11
1952.5
 21
-628.99999999999955
 31
0.0
1001
ACDBBLOCKREPETAG
1070
     1
1071
       24
1005
12C66B
  0
ARC
  5
12C66C
  8
OBJECT
 10
1952.5
 20
-631.99999999999955
 30
0.0
 40
3.0
 50
90.0
 51
180.0
1001
ACDBBLOCKREPETAG
1070
     1
1071
       25
1005
12C66C
  0
LINE
  5
12C66D
  8
OBJECT
 10
1949.5
 20
-631.99999999999955
 30
0.0
 11
1949.5
 21
-633.99999999999955
 31
0.0
1001
ACDBBLOCKREPETAG
1070
     1
1071
       26
1005
12C66D
  0
LINE
  5
12C66E
  8
OBJECT
 10
2050.5
 20
-631.99999999999955
 30
0.0
 11
2050.5
 21
-633.99999999999955
 31
0.0
1001
ACDBBLOCKREPETAG
1070
     1
1071
       27
1005
12C66E
  0
ARC
  5
12C66F
  8
OBJECT
 10
2047.5
 20
-631.99999999999955
 30
0.0
 40
3.0
 50
0.0
 51
90.0
1001
ACDBBLOCKREPETAG
1070
     1
1071
       28
1005
12C66F
  0
POINT
  5
12C670
  8
DOTS
 10
2000.0
 20
-754.99999999999955
 30
0.0
1001
ACDBBLOCKREPETAG
1070
     1
1071
       87
1005
12C670
  0
LINE
  5
12C671
  8
CENTER
 10
4400.0
 20
-3594.9999999999968
 30
0.0
 11
4400.0
 21
-3438.9999999999968
 31
0.0
1001
ACDBBLOCKREPETAG
1070
     1
1071
       13
1005
12C671
  0
LINE
  5
12C672
  8
OBJECT
 10
4330.0
 20
-3458.9999999999968
 30
0.0
 11
4465.0000101378164
 21
-3458.9999999999968
 31
0.0
1001
ACDBBLOCKREPETAG
1070
     1
1071
       14
1005
12C672
  0
LINE
  5
12C673
  8
OBJECT
 10
4335.0
 20
-3582.9999999999968
 30
0.0
 11
4330.0
 21
-3582.9999999999968
 31
0.0
1001
ACDBBLOCKREPETAG
1070
     1
1071
       18
1005
12C673
  0
LINE
  5
12C674
  8
OBJECT
 10
4465.0000101378164
 20
-3583.0000021659148
 30
0.0
 11
4465.0000101378164
 21
-3458.9999999999968
 31
0.0
1001
ACDBBLOCKREPETAG
1070
     1
1071
       21
1005
12C674
  0
ARC
  5
12C675
  8
OBJECT
 10
3964.9615610053229
 20
-3823.6081368468249
 30
0.0
 40
519.48776673616965
 50
41.499473443784993
 51
44.576493325685597
1001
ACDBBLOCKREPETAG
1070
     1
1071
       22
1005
12C675
  0
ARC
  5
12C676
  8
OBJECT
 10
3964.9615610053229
 20
-3218.3918631531692
 30
0.0
 40
519.48776673616965
 50
315.42350667431441
 51
318.50052655621488
1001
ACDBBLOCKREPETAG
1070
     1
1071
       23
1005
12C676
  0
LINE
  5
12C677
  8
OBJECT
 10
4447.5
 20
-3453.9999999999968
 30
0.0
 11
4352.5
 21
-3453.9999999999968
 31
0.0
1001
ACDBBLOCKREPETAG
1070
     1
1071
       29
1005
12C677
  0
ARC
  5
12C678
  8
OBJECT
 10
4352.5
 20
-3456.9999999999968
 30
0.0
 40
3.0
 50
90.0
 51
180.0
1001
ACDBBLOCKREPETAG
1070
     1
1071
       30
1005
12C678
  0
LINE
  5
12C679
  8
OBJECT
 10
4349.4999999999991
 20
-3456.9999999999968
 30
0.0
 11
4349.4999999999991
 21
-3458.9999999999968
 31
0.0
1001
ACDBBLOCKREPETAG
1070
     1
1071
       31
1005
12C679
  0
LINE
  5
12C67A
  8
OBJECT
 10
4450.5
 20
-3456.9999999999968
 30
0.0
 11
4450.5
 21
-3458.9999999999968
 31
0.0
1001
ACDBBLOCKREPETAG
1070
     1
1071
       32
1005
12C67A
  0
ARC
  5
12C67B
  8
OBJECT
 10
4447.5
 20
-3456.9999999999968
 30
0.0
 40
3.0
 50
0.0
 51
90.0
1001
ACDBBLOCKREPETAG
1070
     1
1071
       33
1005
12C67B
  0
POINT
  5
12C67C
  8
DOTS
 10
4400.0
 20
-3579.9999999999968
 30
0.0
1001
ACDBBLOCKREPETAG
1070
     1
1071
       88
1005
12C67C
  0
LINE
  5
12C67D
  8
CENTER
 10
4000.0
 20
-3594.9999999999968
 30
0.0
 11
4000.0
 21
-3438.9999999999968
 31
0.0
1001
ACDBBLOCKREPETAG
1070
     1
1071
        0
1005
12C67D
  0
LINE
  5
12C67E
  8
OBJECT
 10
3930.0
 20
-3458.9999999999968
 30
0.0
 11
4069.9999999999991
 21
-3458.9999999999968
 31
0.0
1001
ACDBBLOCKREPETAG
1070
     1
1071
        1
1005
12C67E
  0
LINE
  5
12C67F
  8
OBJECT
 10
4069.9999999999991
 20
-3582.9999999999968
 30
0.0
 11
4064.9999999999982
 21
-3582.9999999999968
 31
0.0
1001
ACDBBLOCKREPETAG
1070
     1
1071
        5
1005
12C67F
  0
LINE
  5
12C680
  8
OBJECT
 10
3935.0
 20
-3582.9999999999968
 30
0.0
 11
3930.0
 21
-3582.9999999999968
 31
0.0
1001
ACDBBLOCKREPETAG
1070
     1
1071
       91
1005
12C680
  0
ARC
  5
12C681
  8
OBJECT
 10
4435.0384389946767
 20
-3823.6081368468249
 30
0.0
 40
519.48776673616965
 50
135.42350667431441
 51
138.50052655621499
1001
ACDBBLOCKREPETAG
1070
     1
1071
        9
1005
12C681
  0
ARC
  5
12C682
  8
OBJECT
 10
4435.0384389946767
 20
-3218.3918631531692
 30
0.0
 40
519.48776673616965
 50
221.49947344378501
 51
224.57649332568559
1001
ACDBBLOCKREPETAG
1070
     1
1071
       10
1005
12C682
  0
ARC
  5
12C683
  8
OBJECT
 10
3564.961561005322
 20
-3823.6081368468249
 30
0.0
 40
519.48776673616965
 50
41.499473443784993
 51
44.576493325685597
1001
ACDBBLOCKREPETAG
1070
     1
1071
       11
1005
12C683
  0
ARC
  5
12C684
  8
OBJECT
 10
3564.961561005322
 20
-3218.3918631531692
 30
0.0
 40
519.48776673616965
 50
315.42350667431441
 51
318.50052655621488
1001
ACDBBLOCKREPETAG
1070
     1
1071
       12
1005
12C684
  0
LINE
  5
12C685
  8
OBJECT
 10
4047.4999999999982
 20
-3453.9999999999968
 30
0.0
 11
3952.5
 21
-3453.9999999999968
 31
0.0
1001
ACDBBLOCKREPETAG
1070
     1
1071
       24
1005
12C685
  0
ARC
  5
12C686
  8
OBJECT
 10
3952.5
 20
-3456.9999999999968
 30
0.0
 40
3.0
 50
90.0
 51
180.0
1001
ACDBBLOCKREPETAG
1070
     1
1071
       25
1005
12C686
  0
LINE
  5
12C687
  8
OBJECT
 10
3949.5
 20
-3456.9999999999968
 30
0.0
 11
3949.5
 21
-3458.9999999999968
 31
0.0
1001
ACDBBLOCKREPETAG
1070
     1
1071
       26
1005
12C687
  0
LINE
  5
12C688
  8
OBJECT
 10
4050.4999999999982
 20
-3456.9999999999968
 30
0.0
 11
4050.4999999999982
 21
-3458.9999999999968
 31
0.0
1001
ACDBBLOCKREPETAG
1070
     1
1071
       27
1005
12C688
  0
ARC
  5
12C689
  8
OBJECT
 10
4047.4999999999982
 20
-3456.9999999999968
 30
0.0
 40
3.0
 50
0.0
 51
90.0
1001
ACDBBLOCKREPETAG
1070
     1
1071
       28
1005
12C689
  0
POINT
  5
12C68A
  8
DOTS
 10
4000.0
 20
-3579.9999999999968
 30
0.0
1001
ACDBBLOCKREPETAG
1070
     1
1071
       87
1005
12C68A
  0
ARC
  5
12C68B
  8
OBJECT
 10
4000.0
 20
-3174.9999999999959
 30
0.0
 40
70.0
 50
62.339550100752639
 51
117.6604498992473
1001
ACDBBLOCKREPETAG
1070
     1
1071
        0
1005
12C68B
  0
CIRCLE
  5
12C68C
  8
OBJECT
 10
4000.0
 20
-3174.9999999999959
 30
0.0
 40
65.0
1001
ACDBBLOCKREPETAG
1070
     1
1071
        1
1005
12C68C
  0
CIRCLE
  5
12C68D
  8
OBJECT
 10
4000.0
 20
-3174.9999999999959
 30
0.0
 40
50.5
1001
ACDBBLOCKREPETAG
1070
     1
1071
        3
1005
12C68D
  0
LINE
  5
12C68E
  8
OBJECT
 10
4070.0
 20
-3112.9999999999959
 30
0.0
 11
4019.5192212959432
 21
-3112.9999999999959
 31
0.0
1001
ACDBBLOCKREPETAG
1070
     1
1071
        4
1005
12C68E
  0
LINE
  5
12C68F
  8
OBJECT
 10
3930.0
 20
-3112.9999999999959
 30
0.0
 11
3980.4807787040581
 21
-3112.9999999999959
 31
0.0
1001
ACDBBLOCKREPETAG
1070
     1
1071
        5
1005
12C68F
  0
LINE
  5
12C690
  8
OBJECT
 10
3930.0
 20
-3236.9999999999959
 30
0.0
 11
3938.0
 21
-3236.9999999999959
 31
0.0
1001
ACDBBLOCKREPETAG
1070
     1
1071
        6
1005
12C690
  0
LINE
  5
12C691
  8
OBJECT
 10
3938.0
 20
-3244.9999999999959
 30
0.0
 11
3938.0
 21
-3236.9999999999959
 31
0.0
1001
ACDBBLOCKREPETAG
1070
     1
1071
        7
1005
12C691
  0
LINE
  5
12C692
  8
OBJECT
 10
4070.0
 20
-3236.9999999999959
 30
0.0
 11
4062.0
 21
-3236.9999999999959
 31
0.0
1001
ACDBBLOCKREPETAG
1070
     1
1071
        8
1005
12C692
  0
LINE
  5
12C693
  8
OBJECT
 10
4062.0
 20
-3244.9999999999959
 30
0.0
 11
4062.0
 21
-3236.9999999999959
 31
0.0
1001
ACDBBLOCKREPETAG
1070
     1
1071
        9
1005
12C693
  0
LINE
  5
12C694
  8
CENTER
 10
3930.0
 20
-3174.9999999999959
 30
0.0
 11
4070.0
 21
-3174.9999999999959
 31
0.0
1001
ACDBBLOCKREPETAG
1070
     1
1071
       10
1005
12C694
  0
LINE
  5
12C695
  8
CENTER
 10
4000.0
 20
-3244.9999999999959
 30
0.0
 11
4000.0
 21
-3089.9999999999959
 31
0.0
1001
ACDBBLOCKREPETAG
1070
     1
1071
       11
1005
12C695
  0
LINE
  5
12C696
  8
OBJECT
 10
3954.0380592228739
 20
-3220.9619407771211
 30
0.0
 11
3938.0
 21
-3236.9999999999959
 31
0.0
1001
ACDBBLOCKREPETAG
1070
     1
1071
       42
1005
12C696
  0
LINE
  5
12C697
  8
OBJECT
 10
4045.9619407771238
 20
-3220.9619407771211
 30
0.0
 11
4062.0
 21
-3236.9999999999959
 31
0.0
1001
ACDBBLOCKREPETAG
1070
     1
1071
       43
1005
12C697
  0
POINT
  5
12C698
  8
DOTS
 10
4000.0
 20
-3174.9999999999959
 30
0.0
1001
ACDBBLOCKREPETAG
1070
     1
1071
      158
1005
12C698
  0
LINE
  5
12C699
  8
CENTER
 10
3399.9999999999991
 20
-3594.9999999999968
 30
0.0
 11
3399.9999999999991
 21
-3438.9999999999968
 31
0.0
1001
ACDBBLOCKREPETAG
1070
     1
1071
       13
1005
12C699
  0
LINE
  5
12C69A
  8
OBJECT
 10
3330.0
 20
-3458.9999999999968
 30
0.0
 11
3465.0000101378168
 21
-3458.9999999999968
 31
0.0
1001
ACDBBLOCKREPETAG
1070
     1
1071
       14
1005
12C69A
  0
LINE
  5
12C69B
  8
OBJECT
 10
3335.0
 20
-3582.9999999999968
 30
0.0
 11
3330.0
 21
-3582.9999999999968
 31
0.0
1001
ACDBBLOCKREPETAG
1070
     1
1071
       18
1005
12C69B
  0
LINE
  5
12C69C
  8
OBJECT
 10
3465.0000101378168
 20
-3583.0000021659148
 30
0.0
 11
3465.0000101378168
 21
-3458.9999999999968
 31
0.0
1001
ACDBBLOCKREPETAG
1070
     1
1071
       21
1005
12C69C
  0
ARC
  5
12C69D
  8
OBJECT
 10
2964.9615610053229
 20
-3823.6081368468249
 30
0.0
 40
519.48776673616965
 50
41.499473443784993
 51
44.576493325685597
1001
ACDBBLOCKREPETAG
1070
     1
1071
       22
1005
12C69D
  0
ARC
  5
12C69E
  8
OBJECT
 10
2964.9615610053229
 20
-3218.3918631531692
 30
0.0
 40
519.48776673616965
 50
315.42350667431441
 51
318.50052655621488
1001
ACDBBLOCKREPETAG
1070
     1
1071
       23
1005
12C69E
  0
LINE
  5
12C69F
  8
OBJECT
 10
3447.5
 20
-3453.9999999999968
 30
0.0
 11
3352.5
 21
-3453.9999999999968
 31
0.0
1001
ACDBBLOCKREPETAG
1070
     1
1071
       29
1005
12C69F
  0
ARC
  5
12C6A0
  8
OBJECT
 10
3352.5
 20
-3456.9999999999968
 30
0.0
 40
3.0
 50
90.0
 51
180.0
1001
ACDBBLOCKREPETAG
1070
     1
1071
       30
1005
12C6A0
  0
LINE
  5
12C6A1
  8
OBJECT
 10
3349.5
 20
-3456.9999999999968
 30
0.0
 11
3349.5
 21
-3458.9999999999968
 31
0.0
1001
ACDBBLOCKREPETAG
1070
     1
1071
       31
1005
12C6A1
  0
LINE
  5
12C6A2
  8
OBJECT
 10
3450.5
 20
-3456.9999999999968
 30
0.0
 11
3450.5
 21
-3458.9999999999968
 31
0.0
1001
ACDBBLOCKREPETAG
1070
     1
1071
       32
1005
12C6A2
  0
ARC
  5
12C6A3
  8
OBJECT
 10
3447.5
 20
-3456.9999999999968
 30
0.0
 40
3.0
 50
0.0
 51
90.0
1001
ACDBBLOCKREPETAG
1070
     1
1071
       33
1005
12C6A3
  0
POINT
  5
12C6A4
  8
DOTS
 10
3399.9999999999991
 20
-3579.9999999999968
 30
0.0
1001
ACDBBLOCKREPETAG
1070
     1
1071
       88
1005
12C6A4
  0
LINE
  5
12C6A5
  8
CENTER
 10
3000.0
 20
-3594.9999999999968
 30
0.0
 11
3000.0
 21
-3438.9999999999968
 31
0.0
1001
ACDBBLOCKREPETAG
1070
     1
1071
        0
1005
12C6A5
  0
LINE
  5
12C6A6
  8
OBJECT
 10
2930.0
 20
-3458.9999999999968
 30
0.0
 11
3070.0
 21
-3458.9999999999968
 31
0.0
1001
ACDBBLOCKREPETAG
1070
     1
1071
        1
1005
12C6A6
  0
LINE
  5
12C6A7
  8
OBJECT
 10
3070.0
 20
-3582.9999999999968
 30
0.0
 11
3064.9999999999991
 21
-3582.9999999999968
 31
0.0
1001
ACDBBLOCKREPETAG
1070
     1
1071
        5
1005
12C6A7
  0
LINE
  5
12C6A8
  8
OBJECT
 10
2935.0
 20
-3582.9999999999968
 30
0.0
 11
2930.0
 21
-3582.9999999999968
 31
0.0
1001
ACDBBLOCKREPETAG
1070
     1
1071
       91
1005
12C6A8
  0
ARC
  5
12C6A9
  8
OBJECT
 10
3435.0384389946771
 20
-3823.6081368468249
 30
0.0
 40
519.48776673616965
 50
135.42350667431441
 51
138.50052655621499
1001
ACDBBLOCKREPETAG
1070
     1
1071
        9
1005
12C6A9
  0
ARC
  5
12C6AA
  8
OBJECT
 10
3435.0384389946771
 20
-3218.3918631531692
 30
0.0
 40
519.48776673616965
 50
221.49947344378501
 51
224.57649332568559
1001
ACDBBLOCKREPETAG
1070
     1
1071
       10
1005
12C6AA
  0
ARC
  5
12C6AB
  8
OBJECT
 10
2564.961561005322
 20
-3823.6081368468249
 30
0.0
 40
519.48776673616965
 50
41.499473443784993
 51
44.576493325685597
1001
ACDBBLOCKREPETAG
1070
     1
1071
       11
1005
12C6AB
  0
ARC
  5
12C6AC
  8
OBJECT
 10
2564.961561005322
 20
-3218.3918631531692
 30
0.0
 40
519.48776673616965
 50
315.42350667431441
 51
318.50052655621488
1001
ACDBBLOCKREPETAG
1070
     1
1071
       12
1005
12C6AC
  0
LINE
  5
12C6AD
  8
OBJECT
 10
3047.4999999999991
 20
-3453.9999999999968
 30
0.0
 11
2952.5
 21
-3453.9999999999968
 31
0.0
1001
ACDBBLOCKREPETAG
1070
     1
1071
       24
1005
12C6AD
  0
ARC
  5
12C6AE
  8
OBJECT
 10
2952.5
 20
-3456.9999999999968
 30
0.0
 40
3.0
 50
90.0
 51
180.0
1001
ACDBBLOCKREPETAG
1070
     1
1071
       25
1005
12C6AE
  0
LINE
  5
12C6AF
  8
OBJECT
 10
2949.5
 20
-3456.9999999999968
 30
0.0
 11
2949.5
 21
-3458.9999999999968
 31
0.0
1001
ACDBBLOCKREPETAG
1070
     1
1071
       26
1005
12C6AF
  0
LINE
  5
12C6B0
  8
OBJECT
 10
3050.4999999999991
 20
-3456.9999999999968
 30
0.0
 11
3050.4999999999991
 21
-3458.9999999999968
 31
0.0
1001
ACDBBLOCKREPETAG
1070
     1
1071
       27
1005
12C6B0
  0
ARC
  5
12C6B1
  8
OBJECT
 10
3047.4999999999991
 20
-3456.9999999999968
 30
0.0
 40
3.0
 50
0.0
 51
90.0
1001
ACDBBLOCKREPETAG
1070
     1
1071
       28
1005
12C6B1
  0
POINT
  5
12C6B2
  8
DOTS
 10
3000.0
 20
-3579.9999999999968
 30
0.0
1001
ACDBBLOCKREPETAG
1070
     1
1071
       87
1005
12C6B2
  0
ARC
  5
12C6B3
  8
OBJECT
 10
3000.0
 20
-3174.9999999999959
 30
0.0
 40
70.0
 50
62.339550100752639
 51
117.6604498992473
1001
ACDBBLOCKREPETAG
1070
     1
1071
        0
1005
12C6B3
  0
CIRCLE
  5
12C6B4
  8
OBJECT
 10
3000.0
 20
-3174.9999999999959
 30
0.0
 40
65.0
1001
ACDBBLOCKREPETAG
1070
     1
1071
        1
1005
12C6B4
  0
CIRCLE
  5
12C6B5
  8
OBJECT
 10
3000.0
 20
-3174.9999999999959
 30
0.0
 40
50.5
1001
ACDBBLOCKREPETAG
1070
     1
1071
        3
1005
12C6B5
  0
LINE
  5
12C6B6
  8
OBJECT
 10
3070.0
 20
-3112.9999999999959
 30
0.0
 11
3019.5192212959441
 21
-3112.9999999999959
 31
0.0
1001
ACDBBLOCKREPETAG
1070
     1
1071
        4
1005
12C6B6
  0
LINE
  5
12C6B7
  8
OBJECT
 10
2930.0
 20
-3112.9999999999959
 30
0.0
 11
2980.4807787040581
 21
-3112.9999999999959
 31
0.0
1001
ACDBBLOCKREPETAG
1070
     1
1071
        5
1005
12C6B7
  0
LINE
  5
12C6B8
  8
OBJECT
 10
2930.0
 20
-3236.9999999999959
 30
0.0
 11
2938.0
 21
-3236.9999999999959
 31
0.0
1001
ACDBBLOCKREPETAG
1070
     1
1071
        6
1005
12C6B8
  0
LINE
  5
12C6B9
  8
OBJECT
 10
2938.0
 20
-3244.9999999999959
 30
0.0
 11
2938.0
 21
-3236.9999999999959
 31
0.0
1001
ACDBBLOCKREPETAG
1070
     1
1071
        7
1005
12C6B9
  0
LINE
  5
12C6BA
  8
OBJECT
 10
3070.0
 20
-3236.9999999999959
 30
0.0
 11
3062.0
 21
-3236.9999999999959
 31
0.0
1001
ACDBBLOCKREPETAG
1070
     1
1071
        8
1005
12C6BA
  0
LINE
  5
12C6BB
  8
OBJECT
 10
3062.0
 20
-3244.9999999999959
 30
0.0
 11
3062.0
 21
-3236.9999999999959
 31
0.0
1001
ACDBBLOCKREPETAG
1070
     1
1071
        9
1005
12C6BB
  0
LINE
  5
12C6BC
  8
CENTER
 10
2930.0
 20
-3174.9999999999959
 30
0.0
 11
3070.0
 21
-3174.9999999999959
 31
0.0
1001
ACDBBLOCKREPETAG
1070
     1
1071
       10
1005
12C6BC
  0
LINE
  5
12C6BD
  8
CENTER
 10
3000.0
 20
-3244.9999999999959
 30
0.0
 11
3000.0
 21
-3089.9999999999959
 31
0.0
1001
ACDBBLOCKREPETAG
1070
     1
1071
       11
1005
12C6BD
  0
LINE
  5
12C6BE
  8
OBJECT
 10
2954.0380592228739
 20
-3220.9619407771211
 30
0.0
 11
2938.0
 21
-3236.9999999999959
 31
0.0
1001
ACDBBLOCKREPETAG
1070
     1
1071
       42
1005
12C6BE
  0
LINE
  5
12C6BF
  8
OBJECT
 10
3045.9619407771261
 20
-3220.9619407771211
 30
0.0
 11
3062.0
 21
-3236.9999999999959
 31
0.0
1001
ACDBBLOCKREPETAG
1070
     1
1071
       43
1005
12C6BF
  0
POINT
  5
12C6C0
  8
DOTS
 10
3000.0
 20
-3174.9999999999959
 30
0.0
1001
ACDBBLOCKREPETAG
1070
     1
1071
      158
1005
12C6C0
  0
LINE
  5
12C6C1
  8
CENTER
 10
2400.0
 20
-3594.9999999999968
 30
0.0
 11
2400.0
 21
-3438.9999999999968
 31
0.0
1001
ACDBBLOCKREPETAG
1070
     1
1071
       13
1005
12C6C1
  0
LINE
  5
12C6C2
  8
OBJECT
 10
2330.0
 20
-3458.9999999999968
 30
0.0
 11
2465.0000101378168
 21
-3458.9999999999968
 31
0.0
1001
ACDBBLOCKREPETAG
1070
     1
1071
       14
1005
12C6C2
  0
LINE
  5
12C6C3
  8
OBJECT
 10
2335.0
 20
-3582.9999999999968
 30
0.0
 11
2330.0
 21
-3582.9999999999968
 31
0.0
1001
ACDBBLOCKREPETAG
1070
     1
1071
       18
1005
12C6C3
  0
LINE
  5
12C6C4
  8
OBJECT
 10
2465.0000101378168
 20
-3583.0000021659148
 30
0.0
 11
2465.0000101378168
 21
-3458.9999999999968
 31
0.0
1001
ACDBBLOCKREPETAG
1070
     1
1071
       21
1005
12C6C4
  0
ARC
  5
12C6C5
  8
OBJECT
 10
1964.961561005322
 20
-3823.6081368468249
 30
0.0
 40
519.48776673616965
 50
41.499473443784993
 51
44.576493325685597
1001
ACDBBLOCKREPETAG
1070
     1
1071
       22
1005
12C6C5
  0
ARC
  5
12C6C6
  8
OBJECT
 10
1964.961561005322
 20
-3218.3918631531692
 30
0.0
 40
519.48776673616965
 50
315.42350667431441
 51
318.50052655621488
1001
ACDBBLOCKREPETAG
1070
     1
1071
       23
1005
12C6C6
  0
LINE
  5
12C6C7
  8
OBJECT
 10
2447.5
 20
-3453.9999999999968
 30
0.0
 11
2352.5
 21
-3453.9999999999968
 31
0.0
1001
ACDBBLOCKREPETAG
1070
     1
1071
       29
1005
12C6C7
  0
ARC
  5
12C6C8
  8
OBJECT
 10
2352.5
 20
-3456.9999999999968
 30
0.0
 40
3.0
 50
90.0
 51
180.0
1001
ACDBBLOCKREPETAG
1070
     1
1071
       30
1005
12C6C8
  0
LINE
  5
12C6C9
  8
OBJECT
 10
2349.5
 20
-3456.9999999999968
 30
0.0
 11
2349.5
 21
-3458.9999999999968
 31
0.0
1001
ACDBBLOCKREPETAG
1070
     1
1071
       31
1005
12C6C9
  0
LINE
  5
12C6CA
  8
OBJECT
 10
2450.5
 20
-3456.9999999999968
 30
0.0
 11
2450.5
 21
-3458.9999999999968
 31
0.0
1001
ACDBBLOCKREPETAG
1070
     1
1071
       32
1005
12C6CA
  0
ARC
  5
12C6CB
  8
OBJECT
 10
2447.5
 20
-3456.9999999999968
 30
0.0
 40
3.0
 50
0.0
 51
90.0
1001
ACDBBLOCKREPETAG
1070
     1
1071
       33
1005
12C6CB
  0
POINT
  5
12C6CC
  8
DOTS
 10
2400.0
 20
-3579.9999999999968
 30
0.0
1001
ACDBBLOCKREPETAG
1070
     1
1071
       88
1005
12C6CC
  0
LINE
  5
12C6CD
  8
CENTER
 10
2000.0
 20
-3594.9999999999968
 30
0.0
 11
2000.0
 21
-3438.9999999999968
 31
0.0
1001
ACDBBLOCKREPETAG
1070
     1
1071
        0
1005
12C6CD
  0
LINE
  5
12C6CE
  8
OBJECT
 10
1929.9999999999991
 20
-3458.9999999999968
 30
0.0
 11
2070.0
 21
-3458.9999999999968
 31
0.0
1001
ACDBBLOCKREPETAG
1070
     1
1071
        1
1005
12C6CE
  0
LINE
  5
12C6CF
  8
OBJECT
 10
2070.0
 20
-3582.9999999999968
 30
0.0
 11
2064.9999999999991
 21
-3582.9999999999968
 31
0.0
1001
ACDBBLOCKREPETAG
1070
     1
1071
        5
1005
12C6CF
  0
LINE
  5
12C6D0
  8
OBJECT
 10
1935.0
 20
-3582.9999999999968
 30
0.0
 11
1929.9999999999991
 21
-3582.9999999999968
 31
0.0
1001
ACDBBLOCKREPETAG
1070
     1
1071
       91
1005
12C6D0
  0
ARC
  5
12C6D1
  8
OBJECT
 10
2435.0384389946771
 20
-3823.6081368468249
 30
0.0
 40
519.48776673616965
 50
135.42350667432351
 51
138.50052655621499
1001
ACDBBLOCKREPETAG
1070
     1
1071
        9
1005
12C6D1
  0
ARC
  5
12C6D2
  8
OBJECT
 10
2435.0384389946771
 20
-3218.3918631531692
 30
0.0
 40
519.48776673616965
 50
221.49947344378501
 51
224.57649332567649
1001
ACDBBLOCKREPETAG
1070
     1
1071
       10
1005
12C6D2
  0
ARC
  5
12C6D3
  8
OBJECT
 10
1564.961561005322
 20
-3823.6081368468249
 30
0.0
 40
519.48776673616965
 50
41.499473443784993
 51
44.576493325676452
1001
ACDBBLOCKREPETAG
1070
     1
1071
       11
1005
12C6D3
  0
ARC
  5
12C6D4
  8
OBJECT
 10
1564.961561005322
 20
-3218.3918631531692
 30
0.0
 40
519.48776673616965
 50
315.42350667432362
 51
318.50052655621488
1001
ACDBBLOCKREPETAG
1070
     1
1071
       12
1005
12C6D4
  0
LINE
  5
12C6D5
  8
OBJECT
 10
2047.4999999999991
 20
-3453.9999999999968
 30
0.0
 11
1952.4999999999991
 21
-3453.9999999999968
 31
0.0
1001
ACDBBLOCKREPETAG
1070
     1
1071
       24
1005
12C6D5
  0
ARC
  5
12C6D6
  8
OBJECT
 10
1952.4999999999991
 20
-3456.9999999999968
 30
0.0
 40
3.0
 50
90.0
 51
180.0
1001
ACDBBLOCKREPETAG
1070
     1
1071
       25
1005
12C6D6
  0
LINE
  5
12C6D7
  8
OBJECT
 10
1949.5
 20
-3456.9999999999968
 30
0.0
 11
1949.5
 21
-3458.9999999999968
 31
0.0
1001
ACDBBLOCKREPETAG
1070
     1
1071
       26
1005
12C6D7
  0
LINE
  5
12C6D8
  8
OBJECT
 10
2050.4999999999991
 20
-3456.9999999999968
 30
0.0
 11
2050.4999999999991
 21
-3458.9999999999968
 31
0.0
1001
ACDBBLOCKREPETAG
1070
     1
1071
       27
1005
12C6D8
  0
ARC
  5
12C6D9
  8
OBJECT
 10
2047.4999999999991
 20
-3456.9999999999968
 30
0.0
 40
3.0
 50
0.0
 51
90.0
1001
ACDBBLOCKREPETAG
1070
     1
1071
       28
1005
12C6D9
  0
POINT
  5
12C6DA
  8
DOTS
 10
2000.0
 20
-3579.9999999999968
 30
0.0
1001
ACDBBLOCKREPETAG
1070
     1
1071
       87
1005
12C6DA
  0
ARC
  5
12C6DB
  8
OBJECT
 10
2000.0
 20
-3174.9999999999959
 30
0.0
 40
70.0
 50
62.339550100752639
 51
117.6604498992473
1001
ACDBBLOCKREPETAG
1070
     1
1071
        0
1005
12C6DB
  0
CIRCLE
  5
12C6DC
  8
OBJECT
 10
2000.0
 20
-3174.9999999999959
 30
0.0
 40
65.0
1001
ACDBBLOCKREPETAG
1070
     1
1071
        1
1005
12C6DC
  0
CIRCLE
  5
12C6DD
  8
OBJECT
 10
2000.0
 20
-3174.9999999999959
 30
0.0
 40
50.5
1001
ACDBBLOCKREPETAG
1070
     1
1071
        3
1005
12C6DD
  0
LINE
  5
12C6DE
  8
OBJECT
 10
2070.0
 20
-3112.9999999999959
 30
0.0
 11
2019.519221295943
 21
-3112.9999999999959
 31
0.0
1001
ACDBBLOCKREPETAG
1070
     1
1071
        4
1005
12C6DE
  0
LINE
  5
12C6DF
  8
OBJECT
 10
1929.9999999999991
 20
-3112.9999999999959
 30
0.0
 11
1980.4807787040561
 21
-3112.9999999999959
 31
0.0
1001
ACDBBLOCKREPETAG
1070
     1
1071
        5
1005
12C6DF
  0
LINE
  5
12C6E0
  8
OBJECT
 10
1929.9999999999991
 20
-3236.9999999999959
 30
0.0
 11
1938.0
 21
-3236.9999999999959
 31
0.0
1001
ACDBBLOCKREPETAG
1070
     1
1071
        6
1005
12C6E0
  0
LINE
  5
12C6E1
  8
OBJECT
 10
1938.0
 20
-3244.9999999999959
 30
0.0
 11
1938.0
 21
-3236.9999999999959
 31
0.0
1001
ACDBBLOCKREPETAG
1070
     1
1071
        7
1005
12C6E1
  0
LINE
  5
12C6E2
  8
OBJECT
 10
2070.0
 20
-3236.9999999999959
 30
0.0
 11
2062.0
 21
-3236.9999999999959
 31
0.0
1001
ACDBBLOCKREPETAG
1070
     1
1071
        8
1005
12C6E2
  0
LINE
  5
12C6E3
  8
OBJECT
 10
2062.0
 20
-3244.9999999999959
 30
0.0
 11
2062.0
 21
-3236.9999999999959
 31
0.0
1001
ACDBBLOCKREPETAG
1070
     1
1071
        9
1005
12C6E3
  0
LINE
  5
12C6E4
  8
CENTER
 10
1929.9999999999991
 20
-3174.9999999999959
 30
0.0
 11
2070.0
 21
-3174.9999999999959
 31
0.0
1001
ACDBBLOCKREPETAG
1070
     1
1071
       10
1005
12C6E4
  0
LINE
  5
12C6E5
  8
CENTER
 10
2000.0
 20
-3244.9999999999959
 30
0.0
 11
2000.0
 21
-3089.9999999999959
 31
0.0
1001
ACDBBLOCKREPETAG
1070
     1
1071
       11
1005
12C6E5
  0
LINE
  5
12C6E6
  8
OBJECT
 10
1954.038059222873
 20
-3220.9619407771211
 30
0.0
 11
1938.0
 21
-3236.9999999999959
 31
0.0
1001
ACDBBLOCKREPETAG
1070
     1
1071
       42
1005
12C6E6
  0
LINE
  5
12C6E7
  8
OBJECT
 10
2045.9619407771249
 20
-3220.9619407771211
 30
0.0
 11
2062.0
 21
-3236.9999999999959
 31
0.0
1001
ACDBBLOCKREPETAG
1070
     1
1071
       43
1005
12C6E7
  0
POINT
  5
12C6E8
  8
DOTS
 10
2000.0
 20
-3174.9999999999959
 30
0.0
1001
ACDBBLOCKREPETAG
1070
     1
1071
      158
1005
12C6E8
  0
ARC
  5
12C6E9
  8
OBJECT
 10
2000.0
 20
-199.99999999999909
 30
0.0
 40
70.0
 50
62.339550100758693
 51
117.6604498992413
1001
ACDBBLOCKREPETAG
1070
     1
1071
        0
1005
12C6E9
  0
CIRCLE
  5
12C6EA
  8
OBJECT
 10
2000.0
 20
-199.99999999999909
 30
0.0
 40
65.0
1001
ACDBBLOCKREPETAG
1070
     1
1071
        1
1005
12C6EA
  0
CIRCLE
  5
12C6EB
  8
OBJECT
 10
2000.0
 20
-199.99999999999909
 30
0.0
 40
50.5
1001
ACDBBLOCKREPETAG
1070
     1
1071
        3
1005
12C6EB
  0
LINE
  5
12C6EC
  8
OBJECT
 10
2070.0
 20
-137.99999999999909
 30
0.0
 11
2019.5192212959439
 21
-137.99999999999909
 31
0.0
1001
ACDBBLOCKREPETAG
1070
     1
1071
        4
1005
12C6EC
  0
LINE
  5
12C6ED
  8
OBJECT
 10
1930.0
 20
-137.99999999999909
 30
0.0
 11
1980.480778704057
 21
-137.99999999999909
 31
0.0
1001
ACDBBLOCKREPETAG
1070
     1
1071
        5
1005
12C6ED
  0
LINE
  5
12C6EE
  8
OBJECT
 10
1930.0
 20
-261.99999999999909
 30
0.0
 11
1938.0
 21
-261.99999999999909
 31
0.0
1001
ACDBBLOCKREPETAG
1070
     1
1071
        6
1005
12C6EE
  0
LINE
  5
12C6EF
  8
OBJECT
 10
1938.0
 20
-269.99999999999909
 30
0.0
 11
1938.0
 21
-261.99999999999909
 31
0.0
1001
ACDBBLOCKREPETAG
1070
     1
1071
        7
1005
12C6EF
  0
LINE
  5
12C6F0
  8
OBJECT
 10
2070.0
 20
-261.99999999999909
 30
0.0
 11
2062.0
 21
-261.99999999999909
 31
0.0
1001
ACDBBLOCKREPETAG
1070
     1
1071
        8
1005
12C6F0
  0
LINE
  5
12C6F1
  8
OBJECT
 10
2062.0
 20
-269.99999999999909
 30
0.0
 11
2062.0
 21
-261.99999999999909
 31
0.0
1001
ACDBBLOCKREPETAG
1070
     1
1071
        9
1005
12C6F1
  0
LINE
  5
12C6F2
  8
CENTER
 10
1930.0
 20
-199.99999999999909
 30
0.0
 11
2070.0
 21
-199.99999999999909
 31
0.0
1001
ACDBBLOCKREPETAG
1070
     1
1071
       10
1005
12C6F2
  0
LINE
  5
12C6F3
  8
CENTER
 10
2000.0
 20
-269.99999999999909
 30
0.0
 11
2000.0
 21
-114.9999999999991
 31
0.0
1001
ACDBBLOCKREPETAG
1070
     1
1071
       11
1005
12C6F3
  0
LINE
  5
12C6F4
  8
OBJECT
 10
1954.038059222873
 20
-245.96194077712471
 30
0.0
 11
1938.0
 21
-261.99999999999909
 31
0.0
1001
ACDBBLOCKREPETAG
1070
     1
1071
       42
1005
12C6F4
  0
LINE
  5
12C6F5
  8
OBJECT
 10
2045.9619407771261
 20
-245.96194077712471
 30
0.0
 11
2062.0
 21
-261.99999999999909
 31
0.0
1001
ACDBBLOCKREPETAG
1070
     1
1071
       43
1005
12C6F5
  0
POINT
  5
12C6F6
  8
DOTS
 10
2000.0
 20
-199.99999999999909
 30
0.0
1001
ACDBBLOCKREPETAG
1070
     1
1071
      158
1005
12C6F6
  0
POLYLINE
  5
12C6F7
  8
HIDDEN
 66
     1
 10
0.0
 20
0.0
 30
0.0
 70
     1
1001
ACDBBLOCKREPETAG
1070
     1
1071
      105
1005
0
  0
VERTEX
  5
12D437
  8
HIDDEN
 10
359.99999999987818
 20
0.0000000000009095
 30
0.0
  0
VERTEX
  5
12D438
  8
HIDDEN
 10
719.99999999975626
 20
0.0000000000009095
 30
0.0
  0
VERTEX
  5
12D439
  8
HIDDEN
 10
719.99999999975626
 20
-463.99999999984078
 30
0.0
  0
VERTEX
  5
12D43A
  8
HIDDEN
 10
359.99999999987818
 20
-463.99999999984078
 30
0.0
  0
SEQEND
  5
12D43B
  8
HIDDEN
  0
POLYLINE
  5
12C6F8
  8
HIDDEN
 66
     1
 10
0.0
 20
0.0
 30
0.0
 70
     1
1001
ACDBBLOCKREPETAG
1070
     1
1071
      110
1005
0
  0
VERTEX
  5
12D43C
  8
HIDDEN
 10
0.0
 20
0.0000000000009095
 30
0.0
  0
VERTEX
  5
12D43D
  8
HIDDEN
 10
359.99999999987818
 20
0.0000000000009095
 30
0.0
  0
VERTEX
  5
12D43E
  8
HIDDEN
 10
359.99999999987818
 20
-463.99999999984078
 30
0.0
  0
VERTEX
  5
12D43F
  8
HIDDEN
 10
0.0
 20
-463.99999999984078
 30
0.0
  0
SEQEND
  5
12D440
  8
HIDDEN
  0
POLYLINE
  5
12C6F9
  8
HIDDEN
 66
     1
 10
0.0
 20
0.0
 30
0.0
 70
     1
1001
ACDBBLOCKREPETAG
1070
     1
1071
      125
1005
0
  0
VERTEX
  5
12D441
  8
HIDDEN
 10
0.0
 20
-463.99999999984078
 30
0.0
  0
VERTEX
  5
12D442
  8
HIDDEN
 10
359.99999999987818
 20
-463.99999999984078
 30
0.0
  0
VERTEX
  5
12D443
  8
HIDDEN
 10
359.99999999987818
 20
-927.99999999968247
 30
0.0
  0
VERTEX
  5
12D444
  8
HIDDEN
 10
0.0
 20
-927.99999999968247
 30
0.0
  0
SEQEND
  5
12D445
  8
HIDDEN
  0
TEXT
  5
12C6FA
  8
SLIM
 10
7824.6000000000022
 20
-1403.999999999998
 30
0.0
 40
28.0
  1
※ 対応スラブ厚　180～220
 41
0.75
  0
TEXT
  5
12C6FB
  8
SLIM
 10
7611.4999999999982
 20
-1497.333333333331
 30
0.0
 40
28.0
  1
国土交通大臣認定・（財）日本消防設備安全センター性能評定取得品
 41
0.75
  0
TEXT
  5
12C6FC
  8
SLIM
 10
7631.1000000000004
 20
-1543.999999999998
 30
0.0
 40
28.0
  1
注）ご採用にあたり、認定書及び評定書の内容をご確認ください。
 41
0.75
  0
LINE
  5
12C6FD
  8
CENTER
 10
3909.0
 20
-3174.9999999999959
 30
0.0
 11
3930.0
 21
-3174.9999999999959
 31
0.0
1001
ACDBBLOCKREPETAG
1070
     1
1071
        0
1005
12C6FD
  0
LINE
  5
12C6FE
  8
OBJECT
 10
3926.9999999999991
 20
-3236.9999999999959
 30
0.0
 11
3930.0
 21
-3236.9999999999959
 31
0.0
1001
ACDBBLOCKREPETAG
1070
     1
1071
        1
1005
12C6FE
  0
ARC
  5
12C6FF
  8
OBJECT
 10
3926.9999999999991
 20
-3233.9999999999959
 30
0.0
 40
3.0
 50
180.0
 51
270.0
1001
ACDBBLOCKREPETAG
1070
     1
1071
        2
1005
12C6FF
  0
LINE
  5
12C700
  8
OBJECT
 10
3930.0
 20
-3112.9999999999959
 30
0.0
 11
3926.9999999999991
 21
-3112.9999999999959
 31
0.0
1001
ACDBBLOCKREPETAG
1070
     1
1071
        3
1005
12C700
  0
ARC
  5
12C701
  8
OBJECT
 10
3926.9999999999991
 20
-3115.9999999999959
 30
0.0
 40
3.0
 50
90.0
 51
180.0
1001
ACDBBLOCKREPETAG
1070
     1
1071
        4
1005
12C701
  0
LINE
  5
12C702
  8
OBJECT
 10
3923.9999999999991
 20
-3115.9999999999959
 30
0.0
 11
3923.9999999999991
 21
-3233.9999999999959
 31
0.0
1001
ACDBBLOCKREPETAG
1070
     1
1071
        5
1005
12C702
  0
LINE
  5
12C703
  8
CENTER
 10
4000.0
 20
-3265.9999999999959
 30
0.0
 11
4000.0
 21
-3244.9999999999959
 31
0.0
1001
ACDBBLOCKREPETAG
1070
     1
1071
        0
1005
12C703
  0
LINE
  5
12C704
  8
OBJECT
 10
4062.0
 20
-3247.9999999999968
 30
0.0
 11
4062.0
 21
-3244.9999999999959
 31
0.0
1001
ACDBBLOCKREPETAG
1070
     1
1071
        1
1005
12C704
  0
ARC
  5
12C705
  8
OBJECT
 10
4059.0
 20
-3247.9999999999968
 30
0.0
 40
3.0
 50
270.0
 51
0.0
1001
ACDBBLOCKREPETAG
1070
     1
1071
        2
1005
12C705
  0
LINE
  5
12C706
  8
OBJECT
 10
3938.0
 20
-3244.9999999999959
 30
0.0
 11
3938.0
 21
-3247.999999999995
 31
0.0
1001
ACDBBLOCKREPETAG
1070
     1
1071
        3
1005
12C706
  0
ARC
  5
12C707
  8
OBJECT
 10
3941.0
 20
-3247.999999999995
 30
0.0
 40
3.0
 50
180.0
 51
270.0
1001
ACDBBLOCKREPETAG
1070
     1
1071
        4
1005
12C707
  0
LINE
  5
12C708
  8
OBJECT
 10
3941.0
 20
-3250.999999999995
 30
0.0
 11
4059.0
 21
-3250.9999999999968
 31
0.0
1001
ACDBBLOCKREPETAG
1070
     1
1071
        5
1005
12C708
  0
LINE
  5
12C709
  8
OBJECT
 10
4123.0
 20
-3112.9999999999959
 30
0.0
 11
4130.0
 21
-3112.9999999999959
 31
0.0
1001
ACDBBLOCKREPETAG
1070
     1
1071
       47
1005
12C709
  0
LINE
  5
12C70A
  8
OBJECT
 10
4130.0
 20
-3112.9999999999959
 30
0.0
 11
4130.0
 21
-3236.9999999999959
 31
0.0
1001
ACDBBLOCKREPETAG
1070
     1
1071
       48
1005
12C70A
  0
LINE
  5
12C70B
  8
OBJECT
 10
4130.0
 20
-3236.9999999999959
 30
0.0
 11
4123.0
 21
-3236.9999999999959
 31
0.0
1001
ACDBBLOCKREPETAG
1070
     1
1071
       49
1005
12C70B
  0
LINE
  5
12C70C
  8
OBJECT
 10
4123.0
 20
-3236.9999999999959
 30
0.0
 11
4123.0
 21
-3112.9999999999959
 31
0.0
1001
ACDBBLOCKREPETAG
1070
     1
1071
       50
1005
12C70C
  0
LINE
  5
12C70D
  8
CENTER
 10
4145.0
 20
-3174.9999999999959
 30
0.0
 11
4069.9999999999991
 21
-3174.9999999999959
 31
0.0
1001
ACDBBLOCKREPETAG
1070
     1
1071
       51
1005
12C70D
  0
LINE
  5
12C70E
  8
OBJECT
 10
4123.0
 20
-3115.9999999999959
 30
0.0
 11
4086.9999999999982
 21
-3115.9999999999959
 31
0.0
1001
ACDBBLOCKREPETAG
1070
     1
1071
       52
1005
12C70E
  0
LINE
  5
12C70F
  8
OBJECT
 10
4086.9999999999982
 20
-3115.9999999999959
 30
0.0
 11
4086.9999999999982
 21
-3233.9999999999959
 31
0.0
1001
ACDBBLOCKREPETAG
1070
     1
1071
       53
1005
12C70F
  0
LINE
  5
12C710
  8
OBJECT
 10
4086.9999999999982
 20
-3233.9999999999959
 30
0.0
 11
4123.0
 21
-3233.9999999999959
 31
0.0
1001
ACDBBLOCKREPETAG
1070
     1
1071
       54
1005
12C710
  0
LINE
  5
12C711
  8
OBJECT
 10
4083.0
 20
-3120.4999999999959
 30
0.0
 11
4075.9999999999982
 21
-3120.4999999999959
 31
0.0
1001
ACDBBLOCKREPETAG
1070
     1
1071
       55
1005
12C711
  0
LINE
  5
12C712
  8
OBJECT
 10
4075.9999999999982
 20
-3229.4999999999959
 30
0.0
 11
4083.0
 21
-3229.4999999999959
 31
0.0
1001
ACDBBLOCKREPETAG
1070
     1
1071
       56
1005
12C712
  0
LINE
  5
12C713
  8
OBJECT
 10
4083.0
 20
-3229.4999999999959
 30
0.0
 11
4083.0
 21
-3120.4999999999959
 31
0.0
1001
ACDBBLOCKREPETAG
1070
     1
1071
       57
1005
12C713
  0
LINE
  5
12C714
  8
OBJECT
 10
4086.9999999999982
 20
-3115.9999999999959
 30
0.0
 11
4083.0
 21
-3120.4999999999959
 31
0.0
1001
ACDBBLOCKREPETAG
1070
     1
1071
       58
1005
12C714
  0
LINE
  5
12C715
  8
OBJECT
 10
4086.9999999999982
 20
-3233.9999999999959
 30
0.0
 11
4083.0
 21
-3229.4999999999959
 31
0.0
1001
ACDBBLOCKREPETAG
1070
     1
1071
       59
1005
12C715
  0
LINE
  5
12C716
  8
OBJECT
 10
4072.9999999999991
 20
-3112.9999999999959
 30
0.0
 11
4069.9999999999991
 21
-3112.9999999999959
 31
0.0
1001
ACDBBLOCKREPETAG
1070
     1
1071
       60
1005
12C716
  0
ARC
  5
12C717
  8
OBJECT
 10
4072.9999999999991
 20
-3115.9999999999959
 30
0.0
 40
3.0
 50
0.0
 51
90.0
1001
ACDBBLOCKREPETAG
1070
     1
1071
       61
1005
12C717
  0
LINE
  5
12C718
  8
OBJECT
 10
4069.9999999999991
 20
-3236.9999999999959
 30
0.0
 11
4072.9999999999991
 21
-3236.9999999999959
 31
0.0
1001
ACDBBLOCKREPETAG
1070
     1
1071
       62
1005
12C718
  0
ARC
  5
12C719
  8
OBJECT
 10
4072.9999999999991
 20
-3233.9999999999959
 30
0.0
 40
3.0
 50
270.0
 51
0.0
1001
ACDBBLOCKREPETAG
1070
     1
1071
       63
1005
12C719
  0
LINE
  5
12C71A
  8
OBJECT
 10
4075.9999999999982
 20
-3233.9999999999959
 30
0.0
 11
4075.9999999999982
 21
-3115.9999999999959
 31
0.0
1001
ACDBBLOCKREPETAG
1070
     1
1071
       64
1005
12C71A
  0
LINE
  5
12C71B
  8
HIDDEN
 10
4077.9999999999982
 20
-3130.4999999999959
 30
0.0
 11
4077.9999999999982
 21
-3219.4999999999959
 31
0.0
1001
ACDBBLOCKREPETAG
1070
     1
1071
       65
1005
12C71B
  0
LINE
  5
12C71C
  8
CENTER
 10
2909.0
 20
-3174.9999999999959
 30
0.0
 11
2930.0
 21
-3174.9999999999959
 31
0.0
1001
ACDBBLOCKREPETAG
1070
     1
1071
        0
1005
12C71C
  0
LINE
  5
12C71D
  8
OBJECT
 10
2926.9999999999991
 20
-3236.9999999999959
 30
0.0
 11
2930.0
 21
-3236.9999999999959
 31
0.0
1001
ACDBBLOCKREPETAG
1070
     1
1071
        1
1005
12C71D
  0
ARC
  5
12C71E
  8
OBJECT
 10
2926.9999999999991
 20
-3233.9999999999959
 30
0.0
 40
3.0
 50
180.0
 51
270.0
1001
ACDBBLOCKREPETAG
1070
     1
1071
        2
1005
12C71E
  0
LINE
  5
12C71F
  8
OBJECT
 10
2930.0
 20
-3112.9999999999959
 30
0.0
 11
2926.9999999999991
 21
-3112.9999999999959
 31
0.0
1001
ACDBBLOCKREPETAG
1070
     1
1071
        3
1005
12C71F
  0
ARC
  5
12C720
  8
OBJECT
 10
2926.9999999999991
 20
-3115.9999999999959
 30
0.0
 40
3.0
 50
90.0
 51
180.0
1001
ACDBBLOCKREPETAG
1070
     1
1071
        4
1005
12C720
  0
LINE
  5
12C721
  8
OBJECT
 10
2923.9999999999991
 20
-3115.9999999999959
 30
0.0
 11
2923.9999999999991
 21
-3233.9999999999959
 31
0.0
1001
ACDBBLOCKREPETAG
1070
     1
1071
        5
1005
12C721
  0
LINE
  5
12C722
  8
CENTER
 10
3000.0
 20
-3265.9999999999959
 30
0.0
 11
3000.0
 21
-3244.9999999999959
 31
0.0
1001
ACDBBLOCKREPETAG
1070
     1
1071
        0
1005
12C722
  0
LINE
  5
12C723
  8
OBJECT
 10
3062.0
 20
-3247.9999999999968
 30
0.0
 11
3062.0
 21
-3244.9999999999959
 31
0.0
1001
ACDBBLOCKREPETAG
1070
     1
1071
        1
1005
12C723
  0
ARC
  5
12C724
  8
OBJECT
 10
3059.0
 20
-3247.9999999999968
 30
0.0
 40
3.0
 50
270.0
 51
0.0
1001
ACDBBLOCKREPETAG
1070
     1
1071
        2
1005
12C724
  0
LINE
  5
12C725
  8
OBJECT
 10
2938.0
 20
-3244.9999999999959
 30
0.0
 11
2938.0
 21
-3247.999999999995
 31
0.0
1001
ACDBBLOCKREPETAG
1070
     1
1071
        3
1005
12C725
  0
ARC
  5
12C726
  8
OBJECT
 10
2941.0
 20
-3247.999999999995
 30
0.0
 40
3.0
 50
180.0
 51
270.0
1001
ACDBBLOCKREPETAG
1070
     1
1071
        4
1005
12C726
  0
LINE
  5
12C727
  8
OBJECT
 10
2941.0
 20
-3250.999999999995
 30
0.0
 11
3059.0
 21
-3250.9999999999968
 31
0.0
1001
ACDBBLOCKREPETAG
1070
     1
1071
        5
1005
12C727
  0
LINE
  5
12C728
  8
OBJECT
 10
3123.0
 20
-3119.9999999999959
 30
0.0
 11
3130.0
 21
-3119.9999999999959
 31
0.0
1001
ACDBBLOCKREPETAG
1070
     1
1071
       27
1005
12C728
  0
LINE
  5
12C729
  8
OBJECT
 10
3130.0
 20
-3119.9999999999959
 30
0.0
 11
3130.0
 21
-3229.9999999999959
 31
0.0
1001
ACDBBLOCKREPETAG
1070
     1
1071
       28
1005
12C729
  0
LINE
  5
12C72A
  8
OBJECT
 10
3130.0
 20
-3229.9999999999959
 30
0.0
 11
3123.0
 21
-3229.9999999999959
 31
0.0
1001
ACDBBLOCKREPETAG
1070
     1
1071
       29
1005
12C72A
  0
LINE
  5
12C72B
  8
OBJECT
 10
3123.0
 20
-3229.9999999999959
 30
0.0
 11
3123.0
 21
-3119.9999999999959
 31
0.0
1001
ACDBBLOCKREPETAG
1070
     1
1071
       30
1005
12C72B
  0
LINE
  5
12C72C
  8
CENTER
 10
3145.0
 20
-3174.9999999999959
 30
0.0
 11
3070.0
 21
-3174.9999999999959
 31
0.0
1001
ACDBBLOCKREPETAG
1070
     1
1071
       31
1005
12C72C
  0
LINE
  5
12C72D
  8
OBJECT
 10
3123.0
 20
-3122.9999999999959
 30
0.0
 11
3087.0
 21
-3122.9999999999959
 31
0.0
1001
ACDBBLOCKREPETAG
1070
     1
1071
       32
1005
12C72D
  0
LINE
  5
12C72E
  8
OBJECT
 10
3087.0
 20
-3122.9999999999959
 30
0.0
 11
3087.0
 21
-3226.9999999999959
 31
0.0
1001
ACDBBLOCKREPETAG
1070
     1
1071
       33
1005
12C72E
  0
LINE
  5
12C72F
  8
OBJECT
 10
3087.0
 20
-3226.9999999999959
 30
0.0
 11
3123.0
 21
-3226.9999999999959
 31
0.0
1001
ACDBBLOCKREPETAG
1070
     1
1071
       34
1005
12C72F
  0
LINE
  5
12C730
  8
OBJECT
 10
3083.0
 20
-3127.4999999999959
 30
0.0
 11
3076.0
 21
-3127.4999999999959
 31
0.0
1001
ACDBBLOCKREPETAG
1070
     1
1071
       35
1005
12C730
  0
LINE
  5
12C731
  8
OBJECT
 10
3076.0
 20
-3222.4999999999959
 30
0.0
 11
3083.0
 21
-3222.4999999999959
 31
0.0
1001
ACDBBLOCKREPETAG
1070
     1
1071
       36
1005
12C731
  0
LINE
  5
12C732
  8
OBJECT
 10
3083.0
 20
-3222.4999999999959
 30
0.0
 11
3083.0
 21
-3127.4999999999959
 31
0.0
1001
ACDBBLOCKREPETAG
1070
     1
1071
       37
1005
12C732
  0
LINE
  5
12C733
  8
OBJECT
 10
3087.0
 20
-3122.9999999999959
 30
0.0
 11
3083.0
 21
-3127.4999999999959
 31
0.0
1001
ACDBBLOCKREPETAG
1070
     1
1071
       38
1005
12C733
  0
LINE
  5
12C734
  8
OBJECT
 10
3087.0
 20
-3226.9999999999959
 30
0.0
 11
3083.0
 21
-3222.4999999999959
 31
0.0
1001
ACDBBLOCKREPETAG
1070
     1
1071
       39
1005
12C734
  0
LINE
  5
12C735
  8
OBJECT
 10
3073.0
 20
-3112.9999999999959
 30
0.0
 11
3070.0
 21
-3112.9999999999959
 31
0.0
1001
ACDBBLOCKREPETAG
1070
     1
1071
       40
1005
12C735
  0
ARC
  5
12C736
  8
OBJECT
 10
3073.0
 20
-3115.9999999999959
 30
0.0
 40
3.0
 50
0.0
 51
90.0
1001
ACDBBLOCKREPETAG
1070
     1
1071
       41
1005
12C736
  0
LINE
  5
12C737
  8
OBJECT
 10
3070.0
 20
-3236.9999999999959
 30
0.0
 11
3073.0
 21
-3236.9999999999959
 31
0.0
1001
ACDBBLOCKREPETAG
1070
     1
1071
       42
1005
12C737
  0
ARC
  5
12C738
  8
OBJECT
 10
3073.0
 20
-3233.9999999999959
 30
0.0
 40
3.0
 50
270.0
 51
0.0
1001
ACDBBLOCKREPETAG
1070
     1
1071
       43
1005
12C738
  0
LINE
  5
12C739
  8
OBJECT
 10
3076.0
 20
-3233.9999999999959
 30
0.0
 11
3076.0
 21
-3115.9999999999959
 31
0.0
1001
ACDBBLOCKREPETAG
1070
     1
1071
       44
1005
12C739
  0
LINE
  5
12C73A
  8
HIDDEN
 10
3078.0
 20
-3136.9999999999959
 30
0.0
 11
3078.0
 21
-3212.9999999999959
 31
0.0
1001
ACDBBLOCKREPETAG
1070
     1
1071
       45
1005
12C73A
  0
LINE
  5
12C73B
  8
CENTER
 10
1908.9999999999991
 20
-3174.9999999999959
 30
0.0
 11
1929.9999999999991
 21
-3174.9999999999959
 31
0.0
1001
ACDBBLOCKREPETAG
1070
     1
1071
        0
1005
12C73B
  0
LINE
  5
12C73C
  8
OBJECT
 10
1926.9999999999991
 20
-3236.9999999999959
 30
0.0
 11
1929.9999999999991
 21
-3236.9999999999959
 31
0.0
1001
ACDBBLOCKREPETAG
1070
     1
1071
        1
1005
12C73C
  0
ARC
  5
12C73D
  8
OBJECT
 10
1926.9999999999991
 20
-3233.9999999999959
 30
0.0
 40
3.0
 50
180.0
 51
270.0
1001
ACDBBLOCKREPETAG
1070
     1
1071
        2
1005
12C73D
  0
LINE
  5
12C73E
  8
OBJECT
 10
1929.9999999999991
 20
-3112.9999999999959
 30
0.0
 11
1926.9999999999991
 21
-3112.9999999999959
 31
0.0
1001
ACDBBLOCKREPETAG
1070
     1
1071
        3
1005
12C73E
  0
ARC
  5
12C73F
  8
OBJECT
 10
1926.9999999999991
 20
-3115.9999999999959
 30
0.0
 40
3.0
 50
90.0
 51
180.0
1001
ACDBBLOCKREPETAG
1070
     1
1071
        4
1005
12C73F
  0
LINE
  5
12C740
  8
OBJECT
 10
1923.9999999999991
 20
-3115.9999999999959
 30
0.0
 11
1923.9999999999991
 21
-3233.9999999999959
 31
0.0
1001
ACDBBLOCKREPETAG
1070
     1
1071
        5
1005
12C740
  0
LINE
  5
12C741
  8
CENTER
 10
2000.0
 20
-3265.9999999999959
 30
0.0
 11
2000.0
 21
-3244.9999999999959
 31
0.0
1001
ACDBBLOCKREPETAG
1070
     1
1071
        0
1005
12C741
  0
LINE
  5
12C742
  8
OBJECT
 10
2062.0
 20
-3247.9999999999968
 30
0.0
 11
2062.0
 21
-3244.9999999999959
 31
0.0
1001
ACDBBLOCKREPETAG
1070
     1
1071
        1
1005
12C742
  0
ARC
  5
12C743
  8
OBJECT
 10
2059.0
 20
-3247.9999999999968
 30
0.0
 40
3.0
 50
270.0
 51
0.0
1001
ACDBBLOCKREPETAG
1070
     1
1071
        2
1005
12C743
  0
LINE
  5
12C744
  8
OBJECT
 10
1937.9999999999991
 20
-3244.9999999999959
 30
0.0
 11
1937.9999999999991
 21
-3247.999999999995
 31
0.0
1001
ACDBBLOCKREPETAG
1070
     1
1071
        3
1005
12C744
  0
ARC
  5
12C745
  8
OBJECT
 10
1941.0
 20
-3247.999999999995
 30
0.0
 40
3.0
 50
180.0
 51
270.0
1001
ACDBBLOCKREPETAG
1070
     1
1071
        4
1005
12C745
  0
LINE
  5
12C746
  8
OBJECT
 10
1941.0
 20
-3250.999999999995
 30
0.0
 11
2059.0
 21
-3250.9999999999968
 31
0.0
1001
ACDBBLOCKREPETAG
1070
     1
1071
        5
1005
12C746
  0
LINE
  5
12C747
  8
OBJECT
 10
2123.0
 20
-3127.9999999999959
 30
0.0
 11
2130.0
 21
-3127.9999999999959
 31
0.0
1001
ACDBBLOCKREPETAG
1070
     1
1071
        7
1005
12C747
  0
LINE
  5
12C748
  8
OBJECT
 10
2130.0
 20
-3127.9999999999959
 30
0.0
 11
2130.0
 21
-3221.9999999999959
 31
0.0
1001
ACDBBLOCKREPETAG
1070
     1
1071
        8
1005
12C748
  0
LINE
  5
12C749
  8
OBJECT
 10
2130.0
 20
-3221.9999999999959
 30
0.0
 11
2123.0
 21
-3221.9999999999959
 31
0.0
1001
ACDBBLOCKREPETAG
1070
     1
1071
        9
1005
12C749
  0
LINE
  5
12C74A
  8
OBJECT
 10
2123.0
 20
-3221.9999999999959
 30
0.0
 11
2123.0
 21
-3127.9999999999959
 31
0.0
1001
ACDBBLOCKREPETAG
1070
     1
1071
       10
1005
12C74A
  0
LINE
  5
12C74B
  8
CENTER
 10
2145.0
 20
-3174.9999999999959
 30
0.0
 11
2070.0
 21
-3174.9999999999959
 31
0.0
1001
ACDBBLOCKREPETAG
1070
     1
1071
       11
1005
12C74B
  0
LINE
  5
12C74C
  8
OBJECT
 10
2123.0
 20
-3130.9999999999959
 30
0.0
 11
2087.0
 21
-3130.9999999999959
 31
0.0
1001
ACDBBLOCKREPETAG
1070
     1
1071
       12
1005
12C74C
  0
LINE
  5
12C74D
  8
OBJECT
 10
2087.0
 20
-3130.9999999999959
 30
0.0
 11
2087.0
 21
-3218.9999999999959
 31
0.0
1001
ACDBBLOCKREPETAG
1070
     1
1071
       13
1005
12C74D
  0
LINE
  5
12C74E
  8
OBJECT
 10
2087.0
 20
-3218.9999999999959
 30
0.0
 11
2123.0
 21
-3218.9999999999959
 31
0.0
1001
ACDBBLOCKREPETAG
1070
     1
1071
       14
1005
12C74E
  0
LINE
  5
12C74F
  8
OBJECT
 10
2083.0
 20
-3135.4999999999959
 30
0.0
 11
2076.0
 21
-3135.4999999999959
 31
0.0
1001
ACDBBLOCKREPETAG
1070
     1
1071
       15
1005
12C74F
  0
LINE
  5
12C750
  8
OBJECT
 10
2076.0
 20
-3214.4999999999959
 30
0.0
 11
2083.0
 21
-3214.4999999999959
 31
0.0
1001
ACDBBLOCKREPETAG
1070
     1
1071
       16
1005
12C750
  0
LINE
  5
12C751
  8
OBJECT
 10
2083.0
 20
-3214.4999999999959
 30
0.0
 11
2083.0
 21
-3135.4999999999959
 31
0.0
1001
ACDBBLOCKREPETAG
1070
     1
1071
       17
1005
12C751
  0
LINE
  5
12C752
  8
OBJECT
 10
2087.0
 20
-3130.9999999999959
 30
0.0
 11
2083.0
 21
-3135.4999999999959
 31
0.0
1001
ACDBBLOCKREPETAG
1070
     1
1071
       18
1005
12C752
  0
LINE
  5
12C753
  8
OBJECT
 10
2087.0
 20
-3218.9999999999959
 30
0.0
 11
2083.0
 21
-3214.4999999999959
 31
0.0
1001
ACDBBLOCKREPETAG
1070
     1
1071
       19
1005
12C753
  0
LINE
  5
12C754
  8
OBJECT
 10
2073.0
 20
-3112.9999999999959
 30
0.0
 11
2070.0
 21
-3112.9999999999959
 31
0.0
1001
ACDBBLOCKREPETAG
1070
     1
1071
       20
1005
12C754
  0
ARC
  5
12C755
  8
OBJECT
 10
2073.0
 20
-3115.9999999999959
 30
0.0
 40
3.0
 50
0.0
 51
90.0
1001
ACDBBLOCKREPETAG
1070
     1
1071
       21
1005
12C755
  0
LINE
  5
12C756
  8
OBJECT
 10
2070.0
 20
-3236.9999999999959
 30
0.0
 11
2073.0
 21
-3236.9999999999959
 31
0.0
1001
ACDBBLOCKREPETAG
1070
     1
1071
       22
1005
12C756
  0
ARC
  5
12C757
  8
OBJECT
 10
2073.0
 20
-3233.9999999999959
 30
0.0
 40
3.0
 50
270.0
 51
0.0
1001
ACDBBLOCKREPETAG
1070
     1
1071
       23
1005
12C757
  0
LINE
  5
12C758
  8
OBJECT
 10
2076.0
 20
-3233.9999999999959
 30
0.0
 11
2076.0
 21
-3115.9999999999959
 31
0.0
1001
ACDBBLOCKREPETAG
1070
     1
1071
       24
1005
12C758
  0
LINE
  5
12C759
  8
HIDDEN
 10
2078.0
 20
-3144.9999999999959
 30
0.0
 11
2078.0
 21
-3204.9999999999959
 31
0.0
1001
ACDBBLOCKREPETAG
1070
     1
1071
       25
1005
12C759
  0
LINE
  5
12C75A
  8
OBJECT
 10
4327.0
 20
-3458.9999999999959
 30
0.0
 11
4330.0
 21
-3458.9999999999959
 31
0.0
1001
ACDBBLOCKREPETAG
1070
     1
1071
        1
1005
12C75A
  0
ARC
  5
12C75B
  8
OBJECT
 10
4327.0
 20
-3461.9999999999959
 30
0.0
 40
3.0
 50
90.0
 51
180.0
1001
ACDBBLOCKREPETAG
1070
     1
1071
        2
1005
12C75B
  0
LINE
  5
12C75C
  8
OBJECT
 10
4330.0
 20
-3582.9999999999968
 30
0.0
 11
4327.0
 21
-3582.9999999999968
 31
0.0
1001
ACDBBLOCKREPETAG
1070
     1
1071
        3
1005
12C75C
  0
ARC
  5
12C75D
  8
OBJECT
 10
4327.0
 20
-3579.9999999999959
 30
0.0
 40
3.0
 50
180.0
 51
270.0
1001
ACDBBLOCKREPETAG
1070
     1
1071
        4
1005
12C75D
  0
LINE
  5
12C75E
  8
OBJECT
 10
4324.0
 20
-3579.9999999999959
 30
0.0
 11
4324.0
 21
-3461.9999999999959
 31
0.0
1001
ACDBBLOCKREPETAG
1070
     1
1071
        5
1005
12C75E
  0
LINE
  5
12C75F
  8
OBJECT
 10
3927.0
 20
-3458.9999999999959
 30
0.0
 11
3930.0
 21
-3458.9999999999959
 31
0.0
1001
ACDBBLOCKREPETAG
1070
     1
1071
        1
1005
12C75F
  0
ARC
  5
12C760
  8
OBJECT
 10
3927.0
 20
-3461.9999999999959
 30
0.0
 40
3.0
 50
90.0
 51
180.0
1001
ACDBBLOCKREPETAG
1070
     1
1071
        2
1005
12C760
  0
LINE
  5
12C761
  8
OBJECT
 10
3930.0
 20
-3582.9999999999968
 30
0.0
 11
3927.0
 21
-3582.9999999999968
 31
0.0
1001
ACDBBLOCKREPETAG
1070
     1
1071
        3
1005
12C761
  0
ARC
  5
12C762
  8
OBJECT
 10
3927.0
 20
-3579.9999999999959
 30
0.0
 40
3.0
 50
180.0
 51
270.0
1001
ACDBBLOCKREPETAG
1070
     1
1071
        4
1005
12C762
  0
LINE
  5
12C763
  8
OBJECT
 10
3924.0
 20
-3579.9999999999959
 30
0.0
 11
3924.0
 21
-3461.9999999999959
 31
0.0
1001
ACDBBLOCKREPETAG
1070
     1
1071
        5
1005
12C763
  0
CIRCLE
  5
12C764
  8
OBJECT
 10
4000.0
 20
-3520.9999999999968
 30
0.0
 40
62.0
1001
ACDBBLOCKREPETAG
1070
     1
1071
        0
1005
12C764
  0
LINE
  5
12C765
  8
CENTER
 10
4477.0
 20
-3520.9999999999968
 30
0.0
 11
4323.0
 21
-3520.9999999999968
 31
0.0
1001
ACDBBLOCKREPETAG
1070
     1
1071
       17
1005
12C765
  0
CIRCLE
  5
12C766
  8
OBJECT
 10
4400.0
 20
-3520.9999999999968
 30
0.0
 40
41.5
1001
ACDBBLOCKREPETAG
1070
     1
1071
       19
1005
12C766
  0
CIRCLE
  5
12C767
  8
OBJECT
 10
4400.0
 20
-3520.9999999999968
 30
0.0
 40
54.0
1001
ACDBBLOCKREPETAG
1070
     1
1071
       20
1005
12C767
  0
ARC
  5
12C768
  8
OBJECT
 10
4400.0
 20
-3520.9999999999968
 30
0.0
 40
62.0
 50
287.89655112921122
 51
252.1034488707887
1001
ACDBBLOCKREPETAG
1070
     1
1071
       21
1005
12C768
  0
LINE
  5
12C769
  8
OBJECT
 10
4380.947441116743
 20
-3579.9999999999968
 30
0.0
 11
4419.052558883257
 21
-3579.9999999999968
 31
0.0
1001
ACDBBLOCKREPETAG
1070
     1
1071
       22
1005
12C769
  0
LINE
  5
12C76A
  8
OBJECT
 10
4123.0
 20
-3458.9999999999968
 30
0.0
 11
4130.0
 21
-3458.9999999999968
 31
0.0
1001
ACDBBLOCKREPETAG
1070
     1
1071
       45
1005
12C76A
  0
LINE
  5
12C76B
  8
OBJECT
 10
4130.0
 20
-3458.9999999999968
 30
0.0
 11
4130.0
 21
-3579.9999999999968
 31
0.0
1001
ACDBBLOCKREPETAG
1070
     1
1071
       46
1005
12C76B
  0
LINE
  5
12C76C
  8
OBJECT
 10
4123.0
 20
-3579.9999999999968
 30
0.0
 11
4123.0
 21
-3458.9999999999968
 31
0.0
1001
ACDBBLOCKREPETAG
1070
     1
1071
       47
1005
12C76C
  0
LINE
  5
12C76D
  8
CENTER
 10
4145.0
 20
-3520.9999999999968
 30
0.0
 11
4060.9999999999991
 21
-3520.9999999999968
 31
0.0
1001
ACDBBLOCKREPETAG
1070
     1
1071
       48
1005
12C76D
  0
LINE
  5
12C76E
  8
OBJECT
 10
4123.0
 20
-3461.9999999999968
 30
0.0
 11
4086.9999999999982
 21
-3461.9999999999968
 31
0.0
1001
ACDBBLOCKREPETAG
1070
     1
1071
       49
1005
12C76E
  0
LINE
  5
12C76F
  8
OBJECT
 10
4086.9999999999982
 20
-3461.9999999999968
 30
0.0
 11
4086.9999999999982
 21
-3579.9999999999968
 31
0.0
1001
ACDBBLOCKREPETAG
1070
     1
1071
       50
1005
12C76F
  0
LINE
  5
12C770
  8
OBJECT
 10
4086.9999999999982
 20
-3579.9999999999968
 30
0.0
 11
4130.0
 21
-3579.9999999999968
 31
0.0
1001
ACDBBLOCKREPETAG
1070
     1
1071
       51
1005
12C770
  0
LINE
  5
12C771
  8
OBJECT
 10
4083.0
 20
-3466.4999999999968
 30
0.0
 11
4075.9999999999982
 21
-3466.4999999999968
 31
0.0
1001
ACDBBLOCKREPETAG
1070
     1
1071
       52
1005
12C771
  0
LINE
  5
12C772
  8
OBJECT
 10
4075.9999999999982
 20
-3575.4999999999968
 30
0.0
 11
4083.0
 21
-3575.4999999999968
 31
0.0
1001
ACDBBLOCKREPETAG
1070
     1
1071
       53
1005
12C772
  0
LINE
  5
12C773
  8
OBJECT
 10
4083.0
 20
-3575.4999999999968
 30
0.0
 11
4083.0
 21
-3466.4999999999968
 31
0.0
1001
ACDBBLOCKREPETAG
1070
     1
1071
       54
1005
12C773
  0
LINE
  5
12C774
  8
OBJECT
 10
4086.9999999999982
 20
-3461.9999999999968
 30
0.0
 11
4083.0
 21
-3466.4999999999968
 31
0.0
1001
ACDBBLOCKREPETAG
1070
     1
1071
       55
1005
12C774
  0
LINE
  5
12C775
  8
OBJECT
 10
4086.9999999999982
 20
-3579.9999999999968
 30
0.0
 11
4083.0
 21
-3575.4999999999968
 31
0.0
1001
ACDBBLOCKREPETAG
1070
     1
1071
       56
1005
12C775
  0
LINE
  5
12C776
  8
OBJECT
 10
4072.9999999999991
 20
-3458.9999999999968
 30
0.0
 11
4069.9999999999991
 21
-3458.9999999999968
 31
0.0
1001
ACDBBLOCKREPETAG
1070
     1
1071
       57
1005
12C776
  0
ARC
  5
12C777
  8
OBJECT
 10
4072.9999999999991
 20
-3461.9999999999968
 30
0.0
 40
3.0
 50
0.0
 51
90.0
1001
ACDBBLOCKREPETAG
1070
     1
1071
       58
1005
12C777
  0
LINE
  5
12C778
  8
OBJECT
 10
4069.9999999999991
 20
-3582.9999999999968
 30
0.0
 11
4072.9999999999991
 21
-3582.9999999999968
 31
0.0
1001
ACDBBLOCKREPETAG
1070
     1
1071
       59
1005
12C778
  0
ARC
  5
12C779
  8
OBJECT
 10
4072.9999999999991
 20
-3579.9999999999968
 30
0.0
 40
3.0
 50
270.0
 51
0.0
1001
ACDBBLOCKREPETAG
1070
     1
1071
       60
1005
12C779
  0
LINE
  5
12C77A
  8
OBJECT
 10
4075.9999999999982
 20
-3579.9999999999968
 30
0.0
 11
4075.9999999999982
 21
-3461.9999999999968
 31
0.0
1001
ACDBBLOCKREPETAG
1070
     1
1071
       61
1005
12C77A
  0
LINE
  5
12C77B
  8
HIDDEN
 10
4077.9999999999982
 20
-3476.4999999999968
 30
0.0
 11
4077.9999999999982
 21
-3565.4999999999968
 31
0.0
1001
ACDBBLOCKREPETAG
1070
     1
1071
       63
1005
12C77B
  0
LINE
  5
12C77C
  8
OBJECT
 10
3327.0
 20
-3458.9999999999959
 30
0.0
 11
3330.0
 21
-3458.9999999999959
 31
0.0
1001
ACDBBLOCKREPETAG
1070
     1
1071
        1
1005
12C77C
  0
ARC
  5
12C77D
  8
OBJECT
 10
3327.0
 20
-3461.9999999999959
 30
0.0
 40
3.0
 50
90.0
 51
180.0
1001
ACDBBLOCKREPETAG
1070
     1
1071
        2
1005
12C77D
  0
LINE
  5
12C77E
  8
OBJECT
 10
3330.0
 20
-3582.9999999999968
 30
0.0
 11
3327.0
 21
-3582.9999999999968
 31
0.0
1001
ACDBBLOCKREPETAG
1070
     1
1071
        3
1005
12C77E
  0
ARC
  5
12C77F
  8
OBJECT
 10
3327.0
 20
-3579.9999999999959
 30
0.0
 40
3.0
 50
180.0
 51
270.0
1001
ACDBBLOCKREPETAG
1070
     1
1071
        4
1005
12C77F
  0
LINE
  5
12C780
  8
OBJECT
 10
3324.0
 20
-3579.9999999999959
 30
0.0
 11
3324.0
 21
-3461.9999999999959
 31
0.0
1001
ACDBBLOCKREPETAG
1070
     1
1071
        5
1005
12C780
  0
LINE
  5
12C781
  8
OBJECT
 10
2927.0
 20
-3458.9999999999959
 30
0.0
 11
2930.0
 21
-3458.9999999999959
 31
0.0
1001
ACDBBLOCKREPETAG
1070
     1
1071
        1
1005
12C781
  0
ARC
  5
12C782
  8
OBJECT
 10
2927.0
 20
-3461.9999999999959
 30
0.0
 40
3.0
 50
90.0
 51
180.0
1001
ACDBBLOCKREPETAG
1070
     1
1071
        2
1005
12C782
  0
LINE
  5
12C783
  8
OBJECT
 10
2930.0
 20
-3582.9999999999968
 30
0.0
 11
2927.0
 21
-3582.9999999999968
 31
0.0
1001
ACDBBLOCKREPETAG
1070
     1
1071
        3
1005
12C783
  0
ARC
  5
12C784
  8
OBJECT
 10
2927.0
 20
-3579.9999999999959
 30
0.0
 40
3.0
 50
180.0
 51
270.0
1001
ACDBBLOCKREPETAG
1070
     1
1071
        4
1005
12C784
  0
LINE
  5
12C785
  8
OBJECT
 10
2924.0
 20
-3579.9999999999959
 30
0.0
 11
2924.0
 21
-3461.9999999999959
 31
0.0
1001
ACDBBLOCKREPETAG
1070
     1
1071
        5
1005
12C785
  0
CIRCLE
  5
12C786
  8
OBJECT
 10
3000.0
 20
-3520.9999999999968
 30
0.0
 40
62.0
1001
ACDBBLOCKREPETAG
1070
     1
1071
        0
1005
12C786
  0
CIRCLE
  5
12C787
  8
OBJECT
 10
3400.0
 20
-3527.9999999999968
 30
0.0
 40
35.5
1001
ACDBBLOCKREPETAG
1070
     1
1071
       10
1005
12C787
  0
CIRCLE
  5
12C788
  8
OBJECT
 10
3400.0
 20
-3520.9999999999968
 30
0.0
 40
62.0
1001
ACDBBLOCKREPETAG
1070
     1
1071
       11
1005
12C788
  0
LINE
  5
12C789
  8
CENTER
 10
3330.0
 20
-3527.9999999999968
 30
0.0
 11
3470.0
 21
-3527.9999999999968
 31
0.0
1001
ACDBBLOCKREPETAG
1070
     1
1071
       12
1005
12C789
  0
CIRCLE
  5
12C78A
  8
OBJECT
 10
3400.0
 20
-3527.9999999999968
 30
0.0
 40
47.0
1001
ACDBBLOCKREPETAG
1070
     1
1071
       14
1005
12C78A
  0
ARC
  5
12C78B
  8
OBJECT
 10
3400.0
 20
-3527.9999999999968
 30
0.0
 40
55.0
 50
289.01126526011359
 51
250.98873473988641
1001
ACDBBLOCKREPETAG
1070
     1
1071
       15
1005
12C78B
  0
LINE
  5
12C78C
  8
OBJECT
 10
3382.0835271328328
 20
-3579.9999999999968
 30
0.0
 11
3417.9164728671681
 21
-3579.9999999999968
 31
0.0
1001
ACDBBLOCKREPETAG
1070
     1
1071
       16
1005
12C78C
  0
LINE
  5
12C78D
  8
OBJECT
 10
3123.0
 20
-3472.9999999999968
 30
0.0
 11
3130.0
 21
-3472.9999999999968
 31
0.0
1001
ACDBBLOCKREPETAG
1070
     1
1071
       26
1005
12C78D
  0
LINE
  5
12C78E
  8
OBJECT
 10
3130.0
 20
-3472.9999999999968
 30
0.0
 11
3130.0
 21
-3579.9999999999968
 31
0.0
1001
ACDBBLOCKREPETAG
1070
     1
1071
       27
1005
12C78E
  0
LINE
  5
12C78F
  8
OBJECT
 10
3123.0
 20
-3579.9999999999968
 30
0.0
 11
3123.0
 21
-3472.9999999999968
 31
0.0
1001
ACDBBLOCKREPETAG
1070
     1
1071
       28
1005
12C78F
  0
LINE
  5
12C790
  8
CENTER
 10
3145.0
 20
-3527.9999999999968
 30
0.0
 11
3061.0
 21
-3527.9999999999968
 31
0.0
1001
ACDBBLOCKREPETAG
1070
     1
1071
       29
1005
12C790
  0
LINE
  5
12C791
  8
OBJECT
 10
3123.0
 20
-3475.9999999999968
 30
0.0
 11
3087.0
 21
-3475.9999999999968
 31
0.0
1001
ACDBBLOCKREPETAG
1070
     1
1071
       30
1005
12C791
  0
LINE
  5
12C792
  8
OBJECT
 10
3087.0
 20
-3475.9999999999968
 30
0.0
 11
3087.0
 21
-3579.9999999999968
 31
0.0
1001
ACDBBLOCKREPETAG
1070
     1
1071
       31
1005
12C792
  0
LINE
  5
12C793
  8
OBJECT
 10
3087.0
 20
-3579.9999999999968
 30
0.0
 11
3130.0
 21
-3579.9999999999968
 31
0.0
1001
ACDBBLOCKREPETAG
1070
     1
1071
       32
1005
12C793
  0
LINE
  5
12C794
  8
OBJECT
 10
3083.0
 20
-3480.4999999999968
 30
0.0
 11
3076.0
 21
-3480.4999999999968
 31
0.0
1001
ACDBBLOCKREPETAG
1070
     1
1071
       33
1005
12C794
  0
LINE
  5
12C795
  8
OBJECT
 10
3076.0
 20
-3575.4999999999968
 30
0.0
 11
3083.0
 21
-3575.4999999999968
 31
0.0
1001
ACDBBLOCKREPETAG
1070
     1
1071
       34
1005
12C795
  0
LINE
  5
12C796
  8
OBJECT
 10
3083.0
 20
-3575.4999999999968
 30
0.0
 11
3083.0
 21
-3480.4999999999968
 31
0.0
1001
ACDBBLOCKREPETAG
1070
     1
1071
       35
1005
12C796
  0
LINE
  5
12C797
  8
OBJECT
 10
3087.0
 20
-3475.9999999999968
 30
0.0
 11
3083.0
 21
-3480.4999999999968
 31
0.0
1001
ACDBBLOCKREPETAG
1070
     1
1071
       36
1005
12C797
  0
LINE
  5
12C798
  8
OBJECT
 10
3087.0
 20
-3579.9999999999968
 30
0.0
 11
3083.0
 21
-3575.4999999999968
 31
0.0
1001
ACDBBLOCKREPETAG
1070
     1
1071
       37
1005
12C798
  0
LINE
  5
12C799
  8
OBJECT
 10
3073.0
 20
-3458.9999999999968
 30
0.0
 11
3070.0
 21
-3458.9999999999968
 31
0.0
1001
ACDBBLOCKREPETAG
1070
     1
1071
       38
1005
12C799
  0
ARC
  5
12C79A
  8
OBJECT
 10
3073.0
 20
-3461.9999999999968
 30
0.0
 40
3.0
 50
0.0
 51
90.0
1001
ACDBBLOCKREPETAG
1070
     1
1071
       39
1005
12C79A
  0
LINE
  5
12C79B
  8
OBJECT
 10
3070.0
 20
-3582.9999999999968
 30
0.0
 11
3073.0
 21
-3582.9999999999968
 31
0.0
1001
ACDBBLOCKREPETAG
1070
     1
1071
       40
1005
12C79B
  0
ARC
  5
12C79C
  8
OBJECT
 10
3073.0
 20
-3579.9999999999968
 30
0.0
 40
3.0
 50
270.0
 51
0.0
1001
ACDBBLOCKREPETAG
1070
     1
1071
       41
1005
12C79C
  0
LINE
  5
12C79D
  8
OBJECT
 10
3076.0
 20
-3579.9999999999968
 30
0.0
 11
3076.0
 21
-3461.9999999999968
 31
0.0
1001
ACDBBLOCKREPETAG
1070
     1
1071
       42
1005
12C79D
  0
LINE
  5
12C79E
  8
HIDDEN
 10
3078.0
 20
-3489.9999999999968
 30
0.0
 11
3078.0
 21
-3565.9999999999968
 31
0.0
1001
ACDBBLOCKREPETAG
1070
     1
1071
       43
1005
12C79E
  0
LINE
  5
12C79F
  8
OBJECT
 10
2327.0
 20
-3458.9999999999959
 30
0.0
 11
2330.0
 21
-3458.9999999999959
 31
0.0
1001
ACDBBLOCKREPETAG
1070
     1
1071
        1
1005
12C79F
  0
ARC
  5
12C7A0
  8
OBJECT
 10
2327.0
 20
-3461.9999999999959
 30
0.0
 40
3.0
 50
90.0
 51
180.0
1001
ACDBBLOCKREPETAG
1070
     1
1071
        2
1005
12C7A0
  0
LINE
  5
12C7A1
  8
OBJECT
 10
2330.0
 20
-3582.9999999999968
 30
0.0
 11
2327.0
 21
-3582.9999999999968
 31
0.0
1001
ACDBBLOCKREPETAG
1070
     1
1071
        3
1005
12C7A1
  0
ARC
  5
12C7A2
  8
OBJECT
 10
2327.0
 20
-3579.9999999999959
 30
0.0
 40
3.0
 50
180.0
 51
270.0
1001
ACDBBLOCKREPETAG
1070
     1
1071
        4
1005
12C7A2
  0
LINE
  5
12C7A3
  8
OBJECT
 10
2324.0
 20
-3579.9999999999959
 30
0.0
 11
2324.0
 21
-3461.9999999999959
 31
0.0
1001
ACDBBLOCKREPETAG
1070
     1
1071
        5
1005
12C7A3
  0
LINE
  5
12C7A4
  8
OBJECT
 10
1927.0
 20
-3458.9999999999959
 30
0.0
 11
1929.9999999999991
 21
-3458.9999999999959
 31
0.0
1001
ACDBBLOCKREPETAG
1070
     1
1071
        1
1005
12C7A4
  0
ARC
  5
12C7A5
  8
OBJECT
 10
1927.0
 20
-3461.9999999999959
 30
0.0
 40
3.0
 50
90.0
 51
180.0
1001
ACDBBLOCKREPETAG
1070
     1
1071
        2
1005
12C7A5
  0
LINE
  5
12C7A6
  8
OBJECT
 10
1929.9999999999991
 20
-3582.9999999999968
 30
0.0
 11
1927.0
 21
-3582.9999999999968
 31
0.0
1001
ACDBBLOCKREPETAG
1070
     1
1071
        3
1005
12C7A6
  0
ARC
  5
12C7A7
  8
OBJECT
 10
1927.0
 20
-3579.9999999999959
 30
0.0
 40
3.0
 50
180.0
 51
270.0
1001
ACDBBLOCKREPETAG
1070
     1
1071
        4
1005
12C7A7
  0
LINE
  5
12C7A8
  8
OBJECT
 10
1924.0
 20
-3579.9999999999959
 30
0.0
 11
1924.0
 21
-3461.9999999999959
 31
0.0
1001
ACDBBLOCKREPETAG
1070
     1
1071
        5
1005
12C7A8
  0
CIRCLE
  5
12C7A9
  8
OBJECT
 10
2000.0
 20
-3520.9999999999968
 30
0.0
 40
62.0
1001
ACDBBLOCKREPETAG
1070
     1
1071
        0
1005
12C7A9
  0
LINE
  5
12C7AA
  8
SLIM
 10
11925.0
 20
-755.19743878930785
 30
0.0
 11
11925.197438789301
 21
-754.99999999999955
 31
0.0
1001
ACAD
1010
0.0
1020
0.0
1030
0.0
1001
ACDBBLOCKREPETAG
1070
     1
1071
        1
1005
0
  0
LINE
  5
12C7AB
  8
SLIM
 10
11925.0
 20
-773.15795103144615
 30
0.0
 11
11943.15795103144
 21
-754.99999999999955
 31
0.0
1001
ACAD
1010
0.0
1020
0.0
1030
0.0
1001
ACDBBLOCKREPETAG
1070
     1
1071
       10
1005
12C7AB
  0
LINE
  5
12C7AC
  8
SLIM
 10
11925.0
 20
-791.11846327358455
 30
0.0
 11
11961.11846327358
 21
-754.99999999999955
 31
0.0
1001
ACAD
1010
0.0
1020
0.0
1030
0.0
1001
ACDBBLOCKREPETAG
1070
     1
1071
       11
1005
12C7AC
  0
LINE
  5
12C7AD
  8
SLIM
 10
11925.0
 20
-809.07897551572285
 30
0.0
 11
11979.07897551572
 21
-754.99999999999955
 31
0.0
1001
ACAD
1010
0.0
1020
0.0
1030
0.0
1001
ACDBBLOCKREPETAG
1070
     1
1071
       12
1005
12C7AD
  0
LINE
  5
12C7AE
  8
SLIM
 10
11925.0
 20
-827.03948775786125
 30
0.0
 11
11997.03948775786
 21
-754.99999999999955
 31
0.0
1001
ACAD
1010
0.0
1020
0.0
1030
0.0
1001
ACDBBLOCKREPETAG
1070
     1
1071
       13
1005
12C7AE
  0
LINE
  5
12C7AF
  8
SLIM
 10
11925.0
 20
-844.99999999999955
 30
0.0
 11
12015.0
 21
-754.99999999999955
 31
0.0
1001
ACAD
1010
0.0
1020
0.0
1030
0.0
1001
ACDBBLOCKREPETAG
1070
     1
1071
       14
1005
12C7AF
  0
LINE
  5
12C7B0
  8
SLIM
 10
11925.0
 20
-862.96051224213795
 30
0.0
 11
12032.96051224214
 21
-754.99999999999955
 31
0.0
1001
ACAD
1010
0.0
1020
0.0
1030
0.0
1001
ACDBBLOCKREPETAG
1070
     1
1071
       15
1005
12C7B0
  0
LINE
  5
12C7B1
  8
SLIM
 10
11926.57043503541
 20
-879.35058944886373
 30
0.0
 11
12050.921024484271
 21
-754.99999999999955
 31
0.0
1001
ACAD
1010
0.0
1020
0.0
1030
0.0
1001
ACDBBLOCKREPETAG
1070
     1
1071
       16
1005
12C7B1
  0
LINE
  5
12C7B2
  8
SLIM
 10
11929.39181818456
 20
-894.48971854185413
 30
0.0
 11
12068.881536726411
 21
-754.99999999999955
 31
0.0
1001
ACAD
1010
0.0
1020
0.0
1030
0.0
1001
ACDBBLOCKREPETAG
1070
     1
1071
       17
1005
12C7B2
  0
LINE
  5
12C7B3
  8
SLIM
 10
11932.21320133371
 20
-909.62884763484476
 30
0.0
 11
12075.0
 21
-766.8420489685526
 31
0.0
1001
ACAD
1010
0.0
1020
0.0
1030
0.0
1001
ACDBBLOCKREPETAG
1070
     1
1071
       18
1005
12C7B3
  0
LINE
  5
12C7B4
  8
SLIM
 10
11935.03458448285
 20
-924.76797672783539
 30
0.0
 11
12075.0
 21
-784.80256121069112
 31
0.0
1001
ACAD
1010
0.0
1020
0.0
1030
0.0
1001
ACDBBLOCKREPETAG
1070
     1
1071
       19
1005
12C7B4
  0
LINE
  5
12C7B5
  8
SLIM
 10
11937.855967632
 20
-939.90710582082625
 30
0.0
 11
12075.0
 21
-802.76307345282942
 31
0.0
1001
ACAD
1010
0.0
1020
0.0
1030
0.0
1001
ACDBBLOCKREPETAG
1070
     1
1071
       20
1005
12C7B5
  0
LINE
  5
12C7B6
  8
SLIM
 10
11940.67735078115
 20
-955.04623491381665
 30
0.0
 11
12075.0
 21
-820.7235856949676
 31
0.0
1001
ACAD
1010
0.0
1020
0.0
1030
0.0
1001
ACDBBLOCKREPETAG
1070
     1
1071
       21
1005
12C7B6
  0
LINE
  5
12C7B7
  8
SLIM
 10
11943.498733930301
 20
-970.18536400680739
 30
0.0
 11
12075.0
 21
-838.684097937106
 31
0.0
1001
ACAD
1010
0.0
1020
0.0
1030
0.0
1001
ACDBBLOCKREPETAG
1070
     1
1071
       22
1005
12C7B7
  0
LINE
  5
12C7B8
  8
SLIM
 10
11945.5
 20
-986.14461017924543
 30
0.0
 11
12075.0
 21
-856.64461017924418
 31
0.0
1001
ACAD
1010
0.0
1020
0.0
1030
0.0
1001
ACDBBLOCKREPETAG
1070
     1
1071
       23
1005
12C7B8
  0
LINE
  5
12C7B9
  8
SLIM
 10
11945.5
 20
-1004.105122421381
 30
0.0
 11
12074.15680692925
 21
-875.44831549213154
 31
0.0
1001
ACAD
1010
0.0
1020
0.0
1030
0.0
1001
ACDBBLOCKREPETAG
1070
     1
1071
       24
1005
12C7B9
  0
LINE
  5
12C7BA
  8
SLIM
 10
11945.5
 20
-1022.065634663517
 30
0.0
 11
12070.04294658328
 21
-897.52268808023439
 31
0.0
1001
ACAD
1010
0.0
1020
0.0
1030
0.0
1001
ACDBBLOCKREPETAG
1070
     1
1071
       25
1005
12C7BA
  0
LINE
  5
12C7BB
  8
SLIM
 10
11960.52614690566
 20
-1024.9999999999991
 30
0.0
 11
12065.92908623732
 21
-919.59706066833724
 31
0.0
1001
ACAD
1010
0.0
1020
0.0
1030
0.0
1001
ACDBBLOCKREPETAG
1070
     1
1071
       26
1005
12C7BB
  0
LINE
  5
12C7BC
  8
SLIM
 10
11978.4866591478
 20
-1024.9999999999991
 30
0.0
 11
12061.81522589136
 21
-941.67143325643985
 31
0.0
1001
ACAD
1010
0.0
1020
0.0
1030
0.0
1001
ACDBBLOCKREPETAG
1070
     1
1071
       27
1005
12C7BC
  0
LINE
  5
12C7BD
  8
SLIM
 10
11996.447171389929
 20
-1024.9999999999991
 30
0.0
 11
12057.70136554539
 21
-963.74580584454304
 31
0.0
1001
ACAD
1010
0.0
1020
0.0
1030
0.0
1001
ACDBBLOCKREPETAG
1070
     1
1071
       28
1005
12C7BD
  0
LINE
  5
12C7BE
  8
SLIM
 10
12014.407683632069
 20
-1024.9999999999991
 30
0.0
 11
12054.5
 21
-984.90768363207394
 31
0.0
1001
ACAD
1010
0.0
1020
0.0
1030
0.0
1001
ACDBBLOCKREPETAG
1070
     1
1071
       29
1005
12C7BE
  0
LINE
  5
12C7BF
  8
SLIM
 10
12032.368195874211
 20
-1024.9999999999991
 30
0.0
 11
12054.5
 21
-1002.868195874213
 31
0.0
1001
ACAD
1010
0.0
1020
0.0
1030
0.0
1001
ACDBBLOCKREPETAG
1070
     1
1071
       30
1005
12C7BF
  0
LINE
  5
12C7C0
  8
SLIM
 10
12050.328708116351
 20
-1024.9999999999991
 30
0.0
 11
12054.5
 21
-1020.828708116352
 31
0.0
1001
ACAD
1010
0.0
1020
0.0
1030
0.0
1001
ACDBBLOCKREPETAG
1070
     1
1071
       31
1005
12C7C0
  0
LINE
  5
12C7C1
  8
OBJECT
 10
11925.0
 20
-754.99999999999955
 30
0.0
 11
12075.0
 21
-754.99999999999955
 31
0.0
1001
ACDBBLOCKREPETAG
1070
     1
1071
        2
1005
12C7C1
  0
LINE
  5
12C7C2
  8
OBJECT
 10
12075.0
 20
-754.99999999999955
 30
0.0
 11
12075.0
 21
-870.9238648686005
 31
0.0
1001
ACDBBLOCKREPETAG
1070
     1
1071
        3
1005
12C7C2
  0
LINE
  5
12C7C3
  8
OBJECT
 10
12075.0
 20
-870.9238648686005
 30
0.0
 11
12054.5
 21
-980.92386486860221
 31
0.0
1001
ACDBBLOCKREPETAG
1070
     1
1071
        4
1005
12C7C3
  0
LINE
  5
12C7C4
  8
OBJECT
 10
12054.5
 20
-980.92386486860221
 30
0.0
 11
12054.5
 21
-1024.9999999999991
 31
0.0
1001
ACDBBLOCKREPETAG
1070
     1
1071
        5
1005
12C7C4
  0
LINE
  5
12C7C5
  8
OBJECT
 10
12054.5
 20
-1024.9999999999991
 30
0.0
 11
11945.5
 21
-1024.9999999999991
 31
0.0
1001
ACDBBLOCKREPETAG
1070
     1
1071
        6
1005
12C7C5
  0
LINE
  5
12C7C6
  8
OBJECT
 10
11945.5
 20
-1024.9999999999991
 30
0.0
 11
11945.5
 21
-980.92386486861199
 31
0.0
1001
ACDBBLOCKREPETAG
1070
     1
1071
        7
1005
12C7C6
  0
LINE
  5
12C7C7
  8
OBJECT
 10
11945.5
 20
-980.92386486861199
 30
0.0
 11
11925.0
 21
-870.9238648686005
 31
0.0
1001
ACDBBLOCKREPETAG
1070
     1
1071
        8
1005
12C7C7
  0
LINE
  5
12C7C8
  8
OBJECT
 10
11925.0
 20
-870.9238648686005
 30
0.0
 11
11925.0
 21
-754.99999999999955
 31
0.0
1001
ACDBBLOCKREPETAG
1070
     1
1071
        9
1005
12C7C8
  0
LINE
  5
12C7C9
  8
SLIM
 10
9925.0
 20
-755.19743878930785
 30
0.0
 11
9925.1974387893097
 21
-754.99999999999955
 31
0.0
1001
ACAD
1010
0.0
1020
0.0
1030
0.0
1001
ACDBBLOCKREPETAG
1070
     1
1071
        1
1005
0
  0
LINE
  5
12C7CA
  8
SLIM
 10
9925.0
 20
-773.15795103144615
 30
0.0
 11
9943.1579510314441
 21
-754.99999999999955
 31
0.0
1001
ACAD
1010
0.0
1020
0.0
1030
0.0
1001
ACDBBLOCKREPETAG
1070
     1
1071
       10
1005
12C7CA
  0
LINE
  5
12C7CB
  8
SLIM
 10
9925.0
 20
-791.11846327358455
 30
0.0
 11
9961.1184632735858
 21
-754.99999999999955
 31
0.0
1001
ACAD
1010
0.0
1020
0.0
1030
0.0
1001
ACDBBLOCKREPETAG
1070
     1
1071
       11
1005
12C7CB
  0
LINE
  5
12C7CC
  8
SLIM
 10
9925.0
 20
-809.07897551572285
 30
0.0
 11
9979.0789755157257
 21
-754.99999999999955
 31
0.0
1001
ACAD
1010
0.0
1020
0.0
1030
0.0
1001
ACDBBLOCKREPETAG
1070
     1
1071
       12
1005
12C7CC
  0
LINE
  5
12C7CD
  8
SLIM
 10
9925.0
 20
-827.03948775786125
 30
0.0
 11
9997.0394877578656
 21
-754.99999999999955
 31
0.0
1001
ACAD
1010
0.0
1020
0.0
1030
0.0
1001
ACDBBLOCKREPETAG
1070
     1
1071
       13
1005
12C7CD
  0
LINE
  5
12C7CE
  8
SLIM
 10
9925.0
 20
-844.99999999999955
 30
0.0
 11
10015.0
 21
-754.99999999999955
 31
0.0
1001
ACAD
1010
0.0
1020
0.0
1030
0.0
1001
ACDBBLOCKREPETAG
1070
     1
1071
       14
1005
12C7CE
  0
LINE
  5
12C7CF
  8
SLIM
 10
9925.0
 20
-862.96051224213795
 30
0.0
 11
10032.96051224214
 21
-754.99999999999955
 31
0.0
1001
ACAD
1010
0.0
1020
0.0
1030
0.0
1001
ACDBBLOCKREPETAG
1070
     1
1071
       15
1005
12C7CF
  0
LINE
  5
12C7D0
  8
SLIM
 10
9926.5704350354117
 20
-879.35058944886373
 30
0.0
 11
10050.921024484271
 21
-754.99999999999955
 31
0.0
1001
ACAD
1010
0.0
1020
0.0
1030
0.0
1001
ACDBBLOCKREPETAG
1070
     1
1071
       16
1005
12C7D0
  0
LINE
  5
12C7D1
  8
SLIM
 10
9929.3918181845602
 20
-894.48971854185413
 30
0.0
 11
10068.881536726411
 21
-754.99999999999955
 31
0.0
1001
ACAD
1010
0.0
1020
0.0
1030
0.0
1001
ACDBBLOCKREPETAG
1070
     1
1071
       17
1005
12C7D1
  0
LINE
  5
12C7D2
  8
SLIM
 10
9932.2132013337086
 20
-909.62884763484476
 30
0.0
 11
10075.0
 21
-766.8420489685526
 31
0.0
1001
ACAD
1010
0.0
1020
0.0
1030
0.0
1001
ACDBBLOCKREPETAG
1070
     1
1071
       18
1005
12C7D2
  0
LINE
  5
12C7D3
  8
SLIM
 10
9935.0345844828553
 20
-924.76797672783539
 30
0.0
 11
10075.0
 21
-784.80256121069112
 31
0.0
1001
ACAD
1010
0.0
1020
0.0
1030
0.0
1001
ACDBBLOCKREPETAG
1070
     1
1071
       19
1005
12C7D3
  0
LINE
  5
12C7D4
  8
SLIM
 10
9937.8559676320037
 20
-939.90710582082625
 30
0.0
 11
10075.0
 21
-802.76307345282942
 31
0.0
1001
ACAD
1010
0.0
1020
0.0
1030
0.0
1001
ACDBBLOCKREPETAG
1070
     1
1071
       20
1005
12C7D4
  0
LINE
  5
12C7D5
  8
SLIM
 10
9940.6773507811504
 20
-955.04623491381665
 30
0.0
 11
10075.0
 21
-820.7235856949676
 31
0.0
1001
ACAD
1010
0.0
1020
0.0
1030
0.0
1001
ACDBBLOCKREPETAG
1070
     1
1071
       21
1005
12C7D5
  0
LINE
  5
12C7D6
  8
SLIM
 10
9943.498733930297
 20
-970.18536400680739
 30
0.0
 11
10075.0
 21
-838.684097937106
 31
0.0
1001
ACAD
1010
0.0
1020
0.0
1030
0.0
1001
ACDBBLOCKREPETAG
1070
     1
1071
       22
1005
12C7D6
  0
LINE
  5
12C7D7
  8
SLIM
 10
9945.4999999999982
 20
-986.14461017924543
 30
0.0
 11
10075.0
 21
-856.64461017924418
 31
0.0
1001
ACAD
1010
0.0
1020
0.0
1030
0.0
1001
ACDBBLOCKREPETAG
1070
     1
1071
       23
1005
12C7D7
  0
LINE
  5
12C7D8
  8
SLIM
 10
9945.5
 20
-1004.105122421381
 30
0.0
 11
10074.15680692925
 21
-875.44831549213154
 31
0.0
1001
ACAD
1010
0.0
1020
0.0
1030
0.0
1001
ACDBBLOCKREPETAG
1070
     1
1071
       24
1005
12C7D8
  0
LINE
  5
12C7D9
  8
SLIM
 10
9945.5000000000036
 20
-1022.065634663517
 30
0.0
 11
10070.04294658328
 21
-897.52268808023439
 31
0.0
1001
ACAD
1010
0.0
1020
0.0
1030
0.0
1001
ACDBBLOCKREPETAG
1070
     1
1071
       25
1005
12C7D9
  0
LINE
  5
12C7DA
  8
SLIM
 10
9960.5261469056604
 20
-1024.9999999999991
 30
0.0
 11
10065.92908623732
 21
-919.59706066833724
 31
0.0
1001
ACAD
1010
0.0
1020
0.0
1030
0.0
1001
ACDBBLOCKREPETAG
1070
     1
1071
       26
1005
12C7DA
  0
LINE
  5
12C7DB
  8
SLIM
 10
9978.4866591477985
 20
-1024.9999999999991
 30
0.0
 11
10061.815225891351
 21
-941.67143325643985
 31
0.0
1001
ACAD
1010
0.0
1020
0.0
1030
0.0
1001
ACDBBLOCKREPETAG
1070
     1
1071
       27
1005
12C7DB
  0
LINE
  5
12C7DC
  8
SLIM
 10
9996.4471713899384
 20
-1024.9999999999991
 30
0.0
 11
10057.70136554539
 21
-963.74580584454304
 31
0.0
1001
ACAD
1010
0.0
1020
0.0
1030
0.0
1001
ACDBBLOCKREPETAG
1070
     1
1071
       28
1005
12C7DC
  0
LINE
  5
12C7DD
  8
SLIM
 10
10014.40768363206
 20
-1024.9999999999991
 30
0.0
 11
10054.5
 21
-984.90768363207394
 31
0.0
1001
ACAD
1010
0.0
1020
0.0
1030
0.0
1001
ACDBBLOCKREPETAG
1070
     1
1071
       29
1005
12C7DD
  0
LINE
  5
12C7DE
  8
SLIM
 10
10032.368195874211
 20
-1024.9999999999991
 30
0.0
 11
10054.5
 21
-1002.868195874213
 31
0.0
1001
ACAD
1010
0.0
1020
0.0
1030
0.0
1001
ACDBBLOCKREPETAG
1070
     1
1071
       30
1005
12C7DE
  0
LINE
  5
12C7DF
  8
SLIM
 10
10050.328708116351
 20
-1024.9999999999991
 30
0.0
 11
10054.5
 21
-1020.828708116352
 31
0.0
1001
ACAD
1010
0.0
1020
0.0
1030
0.0
1001
ACDBBLOCKREPETAG
1070
     1
1071
       31
1005
12C7DF
  0
LINE
  5
12C7E0
  8
OBJECT
 10
9925.0
 20
-754.99999999999955
 30
0.0
 11
10075.0
 21
-754.99999999999955
 31
0.0
1001
ACDBBLOCKREPETAG
1070
     1
1071
        2
1005
12C7E0
  0
LINE
  5
12C7E1
  8
OBJECT
 10
10075.0
 20
-754.99999999999955
 30
0.0
 11
10075.0
 21
-870.9238648686005
 31
0.0
1001
ACDBBLOCKREPETAG
1070
     1
1071
        3
1005
12C7E1
  0
LINE
  5
12C7E2
  8
OBJECT
 10
10075.0
 20
-870.9238648686005
 30
0.0
 11
10054.5
 21
-980.92386486860221
 31
0.0
1001
ACDBBLOCKREPETAG
1070
     1
1071
        4
1005
12C7E2
  0
LINE
  5
12C7E3
  8
OBJECT
 10
10054.5
 20
-980.92386486860221
 30
0.0
 11
10054.5
 21
-1024.9999999999991
 31
0.0
1001
ACDBBLOCKREPETAG
1070
     1
1071
        5
1005
12C7E3
  0
LINE
  5
12C7E4
  8
OBJECT
 10
10054.5
 20
-1024.9999999999991
 30
0.0
 11
9945.5000000000036
 21
-1024.9999999999991
 31
0.0
1001
ACDBBLOCKREPETAG
1070
     1
1071
        6
1005
12C7E4
  0
LINE
  5
12C7E5
  8
OBJECT
 10
9945.5000000000036
 20
-1024.9999999999991
 30
0.0
 11
9945.4999999999982
 21
-980.92386486861199
 31
0.0
1001
ACDBBLOCKREPETAG
1070
     1
1071
        7
1005
12C7E5
  0
LINE
  5
12C7E6
  8
OBJECT
 10
9945.4999999999982
 20
-980.92386486861199
 30
0.0
 11
9925.0
 21
-870.9238648686005
 31
0.0
1001
ACDBBLOCKREPETAG
1070
     1
1071
        8
1005
12C7E6
  0
LINE
  5
12C7E7
  8
OBJECT
 10
9925.0
 20
-870.9238648686005
 30
0.0
 11
9925.0
 21
-754.99999999999955
 31
0.0
1001
ACDBBLOCKREPETAG
1070
     1
1071
        9
1005
12C7E7
  0
LINE
  5
12C7E8
  8
SLIM
 10
7925.0
 20
-755.19743878930785
 30
0.0
 11
7925.1974387893079
 21
-754.99999999999955
 31
0.0
1001
ACAD
1010
0.0
1020
0.0
1030
0.0
1001
ACDBBLOCKREPETAG
1070
     1
1071
        1
1005
0
  0
LINE
  5
12C7E9
  8
SLIM
 10
7925.0
 20
-773.15795103144615
 30
0.0
 11
7943.1579510314459
 21
-754.99999999999955
 31
0.0
1001
ACAD
1010
0.0
1020
0.0
1030
0.0
1001
ACDBBLOCKREPETAG
1070
     1
1071
       11
1005
12C7E9
  0
LINE
  5
12C7EA
  8
SLIM
 10
7925.0
 20
-791.11846327358455
 30
0.0
 11
7961.1184632735867
 21
-754.99999999999955
 31
0.0
1001
ACAD
1010
0.0
1020
0.0
1030
0.0
1001
ACDBBLOCKREPETAG
1070
     1
1071
       12
1005
12C7EA
  0
LINE
  5
12C7EB
  8
SLIM
 10
7925.0
 20
-809.07897551572285
 30
0.0
 11
7979.078975515723
 21
-754.99999999999955
 31
0.0
1001
ACAD
1010
0.0
1020
0.0
1030
0.0
1001
ACDBBLOCKREPETAG
1070
     1
1071
       13
1005
12C7EB
  0
LINE
  5
12C7EC
  8
SLIM
 10
7925.0
 20
-827.03948775786125
 30
0.0
 11
7997.0394877578628
 21
-754.99999999999955
 31
0.0
1001
ACAD
1010
0.0
1020
0.0
1030
0.0
1001
ACDBBLOCKREPETAG
1070
     1
1071
       14
1005
12C7EC
  0
LINE
  5
12C7ED
  8
SLIM
 10
7925.0
 20
-844.99999999999955
 30
0.0
 11
8015.0
 21
-754.99999999999955
 31
0.0
1001
ACAD
1010
0.0
1020
0.0
1030
0.0
1001
ACDBBLOCKREPETAG
1070
     1
1071
       15
1005
12C7ED
  0
LINE
  5
12C7EE
  8
SLIM
 10
7925.0
 20
-862.96051224213795
 30
0.0
 11
8032.960512242139
 21
-754.99999999999955
 31
0.0
1001
ACAD
1010
0.0
1020
0.0
1030
0.0
1001
ACDBBLOCKREPETAG
1070
     1
1071
       16
1005
12C7EE
  0
LINE
  5
12C7EF
  8
SLIM
 10
7926.5704350354117
 20
-879.3505894488635
 30
0.0
 11
8050.9210244842798
 21
-754.99999999999955
 31
0.0
1001
ACAD
1010
0.0
1020
0.0
1030
0.0
1001
ACDBBLOCKREPETAG
1070
     1
1071
       17
1005
12C7EF
  0
LINE
  5
12C7F0
  8
SLIM
 10
7929.3918181845593
 20
-894.48971854185379
 30
0.0
 11
8068.8815367264133
 21
-754.99999999999955
 31
0.0
1001
ACAD
1010
0.0
1020
0.0
1030
0.0
1001
ACDBBLOCKREPETAG
1070
     1
1071
       18
1005
12C7F0
  0
LINE
  5
12C7F1
  8
SLIM
 10
7932.2132013337077
 20
-909.62884763484408
 30
0.0
 11
8075.0
 21
-766.84204896855272
 31
0.0
1001
ACAD
1010
0.0
1020
0.0
1030
0.0
1001
ACDBBLOCKREPETAG
1070
     1
1071
       19
1005
12C7F1
  0
LINE
  5
12C7F2
  8
SLIM
 10
7935.0345844828562
 20
-924.76797672783425
 30
0.0
 11
8075.0
 21
-784.80256121069112
 31
0.0
1001
ACAD
1010
0.0
1020
0.0
1030
0.0
1001
ACDBBLOCKREPETAG
1070
     1
1071
       20
1005
12C7F2
  0
LINE
  5
12C7F3
  8
SLIM
 10
7937.8559676320019
 20
-939.90710582082465
 30
0.0
 11
8075.0
 21
-802.76307345282942
 31
0.0
1001
ACAD
1010
0.0
1020
0.0
1030
0.0
1001
ACDBBLOCKREPETAG
1070
     1
1071
       21
1005
12C7F3
  0
LINE
  5
12C7F4
  8
SLIM
 10
7940.677350781154
 20
-955.04623491381471
 30
0.0
 11
8075.0
 21
-820.7235856949676
 31
0.0
1001
ACAD
1010
0.0
1020
0.0
1030
0.0
1001
ACDBBLOCKREPETAG
1070
     1
1071
       22
1005
12C7F4
  0
LINE
  5
12C7F5
  8
SLIM
 10
7943.4987339303016
 20
-970.18536400680489
 30
0.0
 11
8075.0
 21
-838.684097937106
 31
0.0
1001
ACAD
1010
0.0
1020
0.0
1030
0.0
1001
ACDBBLOCKREPETAG
1070
     1
1071
       23
1005
12C7F5
  0
LINE
  5
12C7F6
  8
SLIM
 10
7946.6446101792453
 20
-984.99999999999955
 30
0.0
 11
8075.0
 21
-856.64461017924418
 31
0.0
1001
ACAD
1010
0.0
1020
0.0
1030
0.0
1001
ACDBBLOCKREPETAG
1070
     1
1071
       24
1005
12C7F6
  0
LINE
  5
12C7F7
  8
SLIM
 10
7955.5
 20
-994.10512242138236
 30
0.0
 11
7964.6051224213816
 21
-984.99999999999955
 31
0.0
1001
ACAD
1010
0.0
1020
0.0
1030
0.0
1001
ACDBBLOCKREPETAG
1070
     1
1071
       25
1005
12C7F7
  0
LINE
  5
12C7F8
  8
SLIM
 10
7964.6051224213816
 20
-984.99999999999955
 30
0.0
 11
8074.1568069292498
 21
-875.44831549213154
 31
0.0
1001
ACAD
1010
0.0
1020
0.0
1030
0.0
1001
ACDBBLOCKREPETAG
1070
     1
1071
       26
1005
12C7F8
  0
LINE
  5
12C7F9
  8
SLIM
 10
7962.5656346635215
 20
-1004.999999999999
 30
0.0
 11
7982.5656346635215
 21
-984.99999999999955
 31
0.0
1001
ACAD
1010
0.0
1020
0.0
1030
0.0
1001
ACDBBLOCKREPETAG
1070
     1
1071
       27
1005
12C7F9
  0
LINE
  5
12C7FA
  8
SLIM
 10
7982.5656346635215
 20
-984.99999999999955
 30
0.0
 11
8070.0429465832849
 21
-897.52268808023405
 31
0.0
1001
ACAD
1010
0.0
1020
0.0
1030
0.0
1001
ACDBBLOCKREPETAG
1070
     1
1071
       28
1005
12C7FA
  0
LINE
  5
12C7FB
  8
SLIM
 10
7980.5261469056604
 20
-1004.999999999999
 30
0.0
 11
8000.5261469056577
 21
-984.99999999999955
 31
0.0
1001
ACAD
1010
0.0
1020
0.0
1030
0.0
1001
ACDBBLOCKREPETAG
1070
     1
1071
       29
1005
12C7FB
  0
LINE
  5
12C7FC
  8
SLIM
 10
8000.5261469056577
 20
-984.99999999999955
 30
0.0
 11
8065.9290862373227
 21
-919.59706066833724
 31
0.0
1001
ACAD
1010
0.0
1020
0.0
1030
0.0
1001
ACDBBLOCKREPETAG
1070
     1
1071
       30
1005
12C7FC
  0
LINE
  5
12C7FD
  8
SLIM
 10
7998.4866591477967
 20
-1004.999999999999
 30
0.0
 11
8018.4866591477967
 21
-984.99999999999955
 31
0.0
1001
ACAD
1010
0.0
1020
0.0
1030
0.0
1001
ACDBBLOCKREPETAG
1070
     1
1071
       31
1005
12C7FD
  0
LINE
  5
12C7FE
  8
SLIM
 10
8018.4866591477967
 20
-984.99999999999955
 30
0.0
 11
8061.8152258913578
 21
-941.67143325643985
 31
0.0
1001
ACAD
1010
0.0
1020
0.0
1030
0.0
1001
ACDBBLOCKREPETAG
1070
     1
1071
       32
1005
12C7FE
  0
LINE
  5
12C7FF
  8
SLIM
 10
8016.4471713899384
 20
-1004.999999999999
 30
0.0
 11
8036.4471713899338
 21
-984.99999999999955
 31
0.0
1001
ACAD
1010
0.0
1020
0.0
1030
0.0
1001
ACDBBLOCKREPETAG
1070
     1
1071
       33
1005
12C7FF
  0
LINE
  5
12C800
  8
SLIM
 10
8036.4471713899338
 20
-984.99999999999955
 30
0.0
 11
8057.701365545392
 21
-963.74580584454225
 31
0.0
1001
ACAD
1010
0.0
1020
0.0
1030
0.0
1001
ACDBBLOCKREPETAG
1070
     1
1071
       34
1005
12C800
  0
LINE
  5
12C801
  8
SLIM
 10
8034.4076836320728
 20
-1004.999999999999
 30
0.0
 11
8044.5000000000036
 21
-994.90768363207383
 31
0.0
1001
ACAD
1010
0.0
1020
0.0
1030
0.0
1001
ACDBBLOCKREPETAG
1070
     1
1071
       35
1005
12C801
  0
LINE
  5
12C802
  8
OBJECT
 10
7925.0
 20
-754.99999999999955
 30
0.0
 11
8075.0
 21
-754.99999999999955
 31
0.0
1001
ACDBBLOCKREPETAG
1070
     1
1071
        2
1005
12C802
  0
LINE
  5
12C803
  8
OBJECT
 10
8075.0
 20
-754.99999999999955
 30
0.0
 11
8075.0
 21
-870.9238648686005
 31
0.0
1001
ACDBBLOCKREPETAG
1070
     1
1071
        3
1005
12C803
  0
LINE
  5
12C804
  8
OBJECT
 10
8075.0
 20
-870.9238648686005
 30
0.0
 11
8053.7403566346029
 21
-984.99999999999955
 31
0.0
1001
ACDBBLOCKREPETAG
1070
     1
1071
        4
1005
12C804
  0
LINE
  5
12C805
  8
OBJECT
 10
8044.5000000000036
 20
-984.99999999999955
 30
0.0
 11
8044.5000000000036
 21
-1004.999999999999
 31
0.0
1001
ACDBBLOCKREPETAG
1070
     1
1071
        5
1005
12C805
  0
LINE
  5
12C806
  8
OBJECT
 10
8044.5000000000036
 20
-1004.999999999999
 30
0.0
 11
7955.5
 21
-1004.999999999999
 31
0.0
1001
ACDBBLOCKREPETAG
1070
     1
1071
        6
1005
12C806
  0
LINE
  5
12C807
  8
OBJECT
 10
7955.5
 20
-1004.999999999999
 30
0.0
 11
7955.5
 21
-984.99999999999955
 31
0.0
1001
ACDBBLOCKREPETAG
1070
     1
1071
        7
1005
12C807
  0
LINE
  5
12C808
  8
OBJECT
 10
8053.7403566346029
 20
-984.99999999999955
 30
0.0
 11
7946.2596433653962
 21
-984.99999999999955
 31
0.0
1001
ACDBBLOCKREPETAG
1070
     1
1071
        8
1005
12C808
  0
LINE
  5
12C809
  8
OBJECT
 10
7946.2596433653962
 20
-984.99999999999955
 30
0.0
 11
7925.0
 21
-870.9238648686005
 31
0.0
1001
ACDBBLOCKREPETAG
1070
     1
1071
        9
1005
12C809
  0
LINE
  5
12C80A
  8
OBJECT
 10
7925.0
 20
-870.9238648686005
 30
0.0
 11
7925.0
 21
-754.99999999999955
 31
0.0
1001
ACDBBLOCKREPETAG
1070
     1
1071
       10
1005
12C80A
  0
LINE
  5
12C80B
  8
OBJECT
 10
12055.999999999991
 20
-1103.9999999999991
 30
0.0
 11
12055.999999999991
 21
-1113.9999999999991
 31
0.0
1001
ACDBBLOCKREPETAG
1070
     1
1071
      121
1005
12C80B
  0
LINE
  5
12C80C
  8
OBJECT
 10
11961.75
 20
-1054.699999999996
 30
0.0
 11
11974.25
 21
-1054.699999999996
 31
0.0
1001
ACDBBLOCKREPETAG
1070
     1
1071
      122
1005
12C80C
  0
LINE
  5
12C80D
  8
OBJECT
 10
12073.499999999991
 20
-1062.7
 30
0.0
 11
12073.499999999991
 21
-1064.9999999999991
 31
0.0
1001
ACDBBLOCKREPETAG
1070
     1
1071
      123
1005
12C80D
  0
LINE
  5
12C80E
  8
OBJECT
 10
12057.749999999991
 20
-1054.699999999996
 30
0.0
 11
12070.249999999991
 21
-1054.699999999996
 31
0.0
1001
ACDBBLOCKREPETAG
1070
     1
1071
      124
1005
12C80E
  0
LINE
  5
12C80F
  8
OBJECT
 10
12054.499999999991
 20
-1062.7
 30
0.0
 11
12054.499999999991
 21
-1064.9999999999991
 31
0.0
1001
ACDBBLOCKREPETAG
1070
     1
1071
      125
1005
12C80F
  0
LINE
  5
12C810
  8
OBJECT
 10
11953.0
 20
-1064.9999999999991
 30
0.0
 11
11953.0
 21
-1062.7
 31
0.0
1001
ACDBBLOCKREPETAG
1070
     1
1071
      126
1005
12C810
  0
LINE
  5
12C811
  8
OBJECT
 10
11983.0
 20
-1064.9999999999991
 30
0.0
 11
11983.0
 21
-1062.7
 31
0.0
1001
ACDBBLOCKREPETAG
1070
     1
1071
      127
1005
12C811
  0
LINE
  5
12C812
  8
OBJECT
 10
11961.75
 20
-1054.699999999996
 30
0.0
 11
11961.75
 21
-1062.7
 31
0.0
1001
ACDBBLOCKREPETAG
1070
     1
1071
      128
1005
12C812
  0
LINE
  5
12C813
  8
OBJECT
 10
11974.25
 20
-1054.699999999996
 30
0.0
 11
11974.25
 21
-1062.7
 31
0.0
1001
ACDBBLOCKREPETAG
1070
     1
1071
      129
1005
12C813
  0
LINE
  5
12C814
  8
OBJECT
 10
11953.0
 20
-1062.7
 30
0.0
 11
11983.0
 21
-1062.7
 31
0.0
1001
ACDBBLOCKREPETAG
1070
     1
1071
      130
1005
12C814
  0
LINE
  5
12C815
  8
OBJECT
 10
11960.0
 20
-1103.9999999999991
 30
0.0
 11
11960.0
 21
-1113.9999999999991
 31
0.0
1001
ACDBBLOCKREPETAG
1070
     1
1071
      131
1005
12C815
  0
LINE
  5
12C816
  8
OBJECT
 10
11976.0
 20
-1103.9999999999991
 30
0.0
 11
11976.0
 21
-1113.9999999999991
 31
0.0
1001
ACDBBLOCKREPETAG
1070
     1
1071
      132
1005
12C816
  0
LINE
  5
12C817
  8
OBJECT
 10
11960.0
 20
-1113.9999999999991
 30
0.0
 11
11976.0
 21
-1113.9999999999991
 31
0.0
1001
ACDBBLOCKREPETAG
1070
     1
1071
      133
1005
12C817
  0
LINE
  5
12C818
  8
OBJECT
 10
12071.999999999991
 20
-1103.9999999999991
 30
0.0
 11
12071.999999999991
 21
-1113.9999999999991
 31
0.0
1001
ACDBBLOCKREPETAG
1070
     1
1071
      134
1005
12C818
  0
LINE
  5
12C819
  8
OBJECT
 10
12071.999999999991
 20
-1113.9999999999991
 30
0.0
 11
12055.999999999991
 21
-1113.9999999999991
 31
0.0
1001
ACDBBLOCKREPETAG
1070
     1
1071
      135
1005
12C819
  0
LINE
  5
12C81A
  8
OBJECT
 10
11944.999999999991
 20
-1144.9999999999991
 30
0.0
 11
11944.999999999991
 21
-1103.9999999999991
 31
0.0
1001
ACDBBLOCKREPETAG
1070
     1
1071
      136
1005
12C81A
  0
LINE
  5
12C81B
  8
OBJECT
 10
12054.999999999991
 20
-1103.9999999999991
 30
0.0
 11
12054.999999999991
 21
-1144.9999999999991
 31
0.0
1001
ACDBBLOCKREPETAG
1070
     1
1071
      137
1005
12C81B
  0
LINE
  5
12C81C
  8
OBJECT
 10
12070.249999999991
 20
-1054.699999999996
 30
0.0
 11
12070.249999999991
 21
-1062.7
 31
0.0
1001
ACDBBLOCKREPETAG
1070
     1
1071
      138
1005
12C81C
  0
LINE
  5
12C81D
  8
OBJECT
 10
12057.749999999991
 20
-1054.699999999996
 30
0.0
 11
12057.749999999991
 21
-1062.7
 31
0.0
1001
ACDBBLOCKREPETAG
1070
     1
1071
      139
1005
12C81D
  0
LINE
  5
12C81E
  8
OBJECT
 10
12054.499999999991
 20
-1062.7
 30
0.0
 11
12073.499999999991
 21
-1062.7
 31
0.0
1001
ACDBBLOCKREPETAG
1070
     1
1071
      140
1005
12C81E
  0
LINE
  5
12C81F
  8
OBJECT
 10
12054.999999999991
 20
-1144.9999999999991
 30
0.0
 11
11944.999999999991
 21
-1144.9999999999991
 31
0.0
1001
ACDBBLOCKREPETAG
1070
     1
1071
      141
1005
12C81F
  0
LINE
  5
12C820
  8
OBJECT
 10
12075.999999999991
 20
-1079.9999999999991
 30
0.0
 11
11938.999999999991
 21
-1079.9999999999991
 31
0.0
1001
ACDBBLOCKREPETAG
1070
     1
1071
      142
1005
12C820
  0
LINE
  5
12C821
  8
OBJECT
 10
12075.999999999991
 20
-1079.9999999999991
 30
0.0
 11
12075.999999999991
 21
-1064.9999999999991
 31
0.0
1001
ACDBBLOCKREPETAG
1070
     1
1071
      143
1005
12C821
  0
LINE
  5
12C822
  8
OBJECT
 10
12075.999999999991
 20
-1089.9999999999991
 30
0.0
 11
12075.999999999991
 21
-1103.9999999999991
 31
0.0
1001
ACDBBLOCKREPETAG
1070
     1
1071
      144
1005
12C822
  0
LINE
  5
12C823
  8
OBJECT
 10
12068.999999999991
 20
-1089.9999999999991
 30
0.0
 11
12068.999999999991
 21
-1079.9999999999991
 31
0.0
1001
ACDBBLOCKREPETAG
1070
     1
1071
      145
1005
12C823
  0
LINE
  5
12C824
  8
OBJECT
 10
12058.999999999991
 20
-1089.9999999999991
 30
0.0
 11
12058.999999999991
 21
-1079.9999999999991
 31
0.0
1001
ACDBBLOCKREPETAG
1070
     1
1071
      146
1005
12C824
  0
LINE
  5
12C825
  8
OBJECT
 10
11938.999999999991
 20
-1089.9999999999991
 30
0.0
 11
11938.999999999991
 21
-1103.9999999999991
 31
0.0
1001
ACDBBLOCKREPETAG
1070
     1
1071
      147
1005
12C825
  0
LINE
  5
12C826
  8
OBJECT
 10
11938.999999999991
 20
-1103.9999999999991
 30
0.0
 11
12075.999999999991
 21
-1103.9999999999991
 31
0.0
1001
ACDBBLOCKREPETAG
1070
     1
1071
      148
1005
12C826
  0
LINE
  5
12C827
  8
OBJECT
 10
11973.0
 20
-1089.9999999999991
 30
0.0
 11
11973.0
 21
-1079.9999999999991
 31
0.0
1001
ACDBBLOCKREPETAG
1070
     1
1071
      149
1005
12C827
  0
LINE
  5
12C828
  8
OBJECT
 10
11963.0
 20
-1089.9999999999991
 30
0.0
 11
11963.0
 21
-1079.9999999999991
 31
0.0
1001
ACDBBLOCKREPETAG
1070
     1
1071
      150
1005
12C828
  0
LINE
  5
12C829
  8
OBJECT
 10
11938.999999999991
 20
-1089.9999999999991
 30
0.0
 11
12075.999999999991
 21
-1089.9999999999991
 31
0.0
1001
ACDBBLOCKREPETAG
1070
     1
1071
      151
1005
12C829
  0
LINE
  5
12C82A
  8
OBJECT
 10
11945.999999999991
 20
-1079.9999999999991
 30
0.0
 11
11945.999999999991
 21
-1089.9999999999991
 31
0.0
1001
ACDBBLOCKREPETAG
1070
     1
1071
      152
1005
12C82A
  0
LINE
  5
12C82B
  8
OBJECT
 10
12053.999999999991
 20
-1079.9999999999991
 30
0.0
 11
12053.999999999991
 21
-1089.9999999999991
 31
0.0
1001
ACDBBLOCKREPETAG
1070
     1
1071
      153
1005
12C82B
  0
LINE
  5
12C82C
  8
OBJECT
 10
12044.5
 20
-979.99999999999966
 30
0.0
 11
12065.0
 21
-869.99999999999955
 31
0.0
1001
ACDBBLOCKREPETAG
1070
     1
1071
      154
1005
12C82C
  0
LINE
  5
12C82D
  8
OBJECT
 10
11955.5
 20
-979.99999999999966
 30
0.0
 11
12044.5
 21
-979.99999999999966
 31
0.0
1001
ACDBBLOCKREPETAG
1070
     1
1071
      155
1005
12C82D
  0
LINE
  5
12C82E
  8
OBJECT
 10
11938.999999999991
 20
-1079.9999999999991
 30
0.0
 11
11938.999999999991
 21
-1064.9999999999991
 31
0.0
1001
ACDBBLOCKREPETAG
1070
     1
1071
      156
1005
12C82E
  0
LINE
  5
12C82F
  8
OBJECT
 10
11938.999999999991
 20
-1064.9999999999991
 30
0.0
 11
12075.999999999991
 21
-1064.9999999999991
 31
0.0
1001
ACDBBLOCKREPETAG
1070
     1
1071
      157
1005
12C82F
  0
LINE
  5
12C830
  8
OBJECT
 10
11955.5
 20
-979.99999999999966
 30
0.0
 11
11955.5
 21
-1029.9999999999991
 31
0.0
1001
ACDBBLOCKREPETAG
1070
     1
1071
      158
1005
12C830
  0
LINE
  5
12C831
  8
OBJECT
 10
12044.5
 20
-979.99999999999966
 30
0.0
 11
12044.5
 21
-1029.9999999999991
 31
0.0
1001
ACDBBLOCKREPETAG
1070
     1
1071
      159
1005
12C831
  0
LINE
  5
12C832
  8
OBJECT
 10
11947.0
 20
-1029.9999999999991
 30
0.0
 11
12053.0
 21
-1029.9999999999991
 31
0.0
1001
ACDBBLOCKREPETAG
1070
     1
1071
      160
1005
12C832
  0
LINE
  5
12C833
  8
HIDDEN
 10
11955.5
 20
-1039.9999999999991
 30
0.0
 11
12044.5
 21
-1039.9999999999991
 31
0.0
1001
ACDBBLOCKREPETAG
1070
     1
1071
      161
1005
12C833
  0
LINE
  5
12C834
  8
CENTER
 10
12000.0
 20
-769.99999999999955
 30
0.0
 11
12000.0
 21
-1159.9999999999991
 31
0.0
1001
ACDBBLOCKREPETAG
1070
     1
1071
      162
1005
12C834
  0
LINE
  5
12C835
  8
OBJECT
 10
12065.0
 20
-769.99999999999955
 30
0.0
 11
12065.0
 21
-869.99999999999955
 31
0.0
1001
ACDBBLOCKREPETAG
1070
     1
1071
      163
1005
12C835
  0
LINE
  5
12C836
  8
OBJECT
 10
11935.0
 20
-769.99999999999955
 30
0.0
 11
11935.0
 21
-869.99999999999955
 31
0.0
1001
ACDBBLOCKREPETAG
1070
     1
1071
      164
1005
12C836
  0
LINE
  5
12C837
  8
OBJECT
 10
11955.5
 20
-979.99999999999966
 30
0.0
 11
11935.0
 21
-869.99999999999955
 31
0.0
1001
ACDBBLOCKREPETAG
1070
     1
1071
      165
1005
12C837
  0
LINE
  5
12C838
  8
OBJECT
 10
12065.0
 20
-869.99999999999955
 30
0.0
 11
11935.0
 21
-869.99999999999955
 31
0.0
1001
ACDBBLOCKREPETAG
1070
     1
1071
      166
1005
12C838
  0
LINE
  5
12C839
  8
OBJECT
 10
11947.0
 20
-1029.9999999999991
 30
0.0
 11
11947.0
 21
-1064.9999999999991
 31
0.0
1001
ACDBBLOCKREPETAG
1070
     1
1071
      167
1005
12C839
  0
LINE
  5
12C83A
  8
OBJECT
 10
12053.0
 20
-1029.9999999999991
 30
0.0
 11
12053.0
 21
-1064.9999999999991
 31
0.0
1001
ACDBBLOCKREPETAG
1070
     1
1071
      168
1005
12C83A
  0
LINE
  5
12C83B
  8
OBJECT
 10
9975.5
 20
-1059.9999999999991
 30
0.0
 11
9958.9999999999964
 21
-1059.9999999999991
 31
0.0
1001
ACDBBLOCKREPETAG
1070
     1
1071
       12
1005
12C83B
  0
LINE
  5
12C83C
  8
OBJECT
 10
9983.0
 20
-1064.9999999999991
 30
0.0
 11
9983.0
 21
-1062.9999999999991
 31
0.0
1001
ACDBBLOCKREPETAG
1070
     1
1071
       13
1005
12C83C
  0
LINE
  5
12C83D
  8
OBJECT
 10
10075.999999999991
 20
-1079.9999999999991
 30
0.0
 11
9938.9999999999927
 21
-1079.9999999999991
 31
0.0
1001
ACDBBLOCKREPETAG
1070
     1
1071
       14
1005
12C83D
  0
LINE
  5
12C83E
  8
OBJECT
 10
10075.999999999991
 20
-1079.9999999999991
 30
0.0
 11
10075.999999999991
 21
-1064.9999999999991
 31
0.0
1001
ACDBBLOCKREPETAG
1070
     1
1071
       15
1005
12C83E
  0
LINE
  5
12C83F
  8
OBJECT
 10
10075.999999999991
 20
-1089.9999999999991
 30
0.0
 11
10075.999999999991
 21
-1103.9999999999991
 31
0.0
1001
ACDBBLOCKREPETAG
1070
     1
1071
       16
1005
12C83F
  0
LINE
  5
12C840
  8
OBJECT
 10
10068.999999999991
 20
-1089.9999999999991
 30
0.0
 11
10068.999999999991
 21
-1079.9999999999991
 31
0.0
1001
ACDBBLOCKREPETAG
1070
     1
1071
       17
1005
12C840
  0
LINE
  5
12C841
  8
OBJECT
 10
10058.999999999991
 20
-1089.9999999999991
 30
0.0
 11
10058.999999999991
 21
-1079.9999999999991
 31
0.0
1001
ACDBBLOCKREPETAG
1070
     1
1071
       18
1005
12C841
  0
LINE
  5
12C842
  8
OBJECT
 10
9938.9999999999927
 20
-1089.9999999999991
 30
0.0
 11
9938.9999999999927
 21
-1103.9999999999991
 31
0.0
1001
ACDBBLOCKREPETAG
1070
     1
1071
       19
1005
12C842
  0
LINE
  5
12C843
  8
OBJECT
 10
9938.9999999999927
 20
-1103.9999999999991
 30
0.0
 11
10075.999999999991
 21
-1103.9999999999991
 31
0.0
1001
ACDBBLOCKREPETAG
1070
     1
1071
       20
1005
12C843
  0
LINE
  5
12C844
  8
OBJECT
 10
9973.0
 20
-1089.9999999999991
 30
0.0
 11
9973.0
 21
-1079.9999999999991
 31
0.0
1001
ACDBBLOCKREPETAG
1070
     1
1071
       21
1005
12C844
  0
LINE
  5
12C845
  8
OBJECT
 10
9963.0
 20
-1089.9999999999991
 30
0.0
 11
9963.0
 21
-1079.9999999999991
 31
0.0
1001
ACDBBLOCKREPETAG
1070
     1
1071
       22
1005
12C845
  0
LINE
  5
12C846
  8
OBJECT
 10
9938.9999999999927
 20
-1089.9999999999991
 30
0.0
 11
10075.999999999991
 21
-1089.9999999999991
 31
0.0
1001
ACDBBLOCKREPETAG
1070
     1
1071
       23
1005
12C846
  0
LINE
  5
12C847
  8
OBJECT
 10
9958.9999999999964
 20
-1059.9999999999991
 30
0.0
 11
9958.9999999999964
 21
-1064.9999999999991
 31
0.0
1001
ACDBBLOCKREPETAG
1070
     1
1071
       24
1005
12C847
  0
LINE
  5
12C848
  8
OBJECT
 10
9963.0
 20
-1111.9999999999991
 30
0.0
 11
9963.0
 21
-1114.9999999999991
 31
0.0
1001
ACDBBLOCKREPETAG
1070
     1
1071
       25
1005
12C848
  0
LINE
  5
12C849
  8
OBJECT
 10
9963.0
 20
-1114.9999999999991
 30
0.0
 11
9973.0
 21
-1114.9999999999991
 31
0.0
1001
ACDBBLOCKREPETAG
1070
     1
1071
       26
1005
12C849
  0
LINE
  5
12C84A
  8
OBJECT
 10
9958.1850454237738
 20
-1111.9999999999991
 30
0.0
 11
9977.814954576219
 21
-1111.9999999999991
 31
0.0
1001
ACDBBLOCKREPETAG
1070
     1
1071
       27
1005
12C84A
  0
LINE
  5
12C84B
  8
OBJECT
 10
9973.0
 20
-1114.9999999999991
 30
0.0
 11
9973.0
 21
-1111.9999999999991
 31
0.0
1001
ACDBBLOCKREPETAG
1070
     1
1071
       28
1005
12C84B
  0
LINE
  5
12C84C
  8
OBJECT
 10
9945.9999999999909
 20
-1079.9999999999991
 30
0.0
 11
9945.9999999999909
 21
-1089.9999999999991
 31
0.0
1001
ACDBBLOCKREPETAG
1070
     1
1071
       29
1005
12C84C
  0
LINE
  5
12C84D
  8
OBJECT
 10
10053.999999999991
 20
-1079.9999999999991
 30
0.0
 11
10053.999999999991
 21
-1089.9999999999991
 31
0.0
1001
ACDBBLOCKREPETAG
1070
     1
1071
       30
1005
12C84D
  0
LINE
  5
12C84E
  8
OBJECT
 10
10044.5
 20
-979.99999999999966
 30
0.0
 11
10065.0
 21
-869.99999999999955
 31
0.0
1001
ACDBBLOCKREPETAG
1070
     1
1071
       31
1005
12C84E
  0
LINE
  5
12C84F
  8
OBJECT
 10
9955.5
 20
-979.99999999999966
 30
0.0
 11
10044.5
 21
-979.99999999999966
 31
0.0
1001
ACDBBLOCKREPETAG
1070
     1
1071
       32
1005
12C84F
  0
LINE
  5
12C850
  8
OBJECT
 10
9938.9999999999927
 20
-1079.9999999999991
 30
0.0
 11
9938.9999999999927
 21
-1064.9999999999991
 31
0.0
1001
ACDBBLOCKREPETAG
1070
     1
1071
       33
1005
12C850
  0
LINE
  5
12C851
  8
OBJECT
 10
9938.9999999999927
 20
-1064.9999999999991
 30
0.0
 11
10075.999999999991
 21
-1064.9999999999991
 31
0.0
1001
ACDBBLOCKREPETAG
1070
     1
1071
       34
1005
12C851
  0
LINE
  5
12C852
  8
OBJECT
 10
9955.5
 20
-979.99999999999966
 30
0.0
 11
9955.5
 21
-1029.9999999999991
 31
0.0
1001
ACDBBLOCKREPETAG
1070
     1
1071
       35
1005
12C852
  0
LINE
  5
12C853
  8
OBJECT
 10
10044.5
 20
-979.99999999999966
 30
0.0
 11
10044.5
 21
-1029.9999999999991
 31
0.0
1001
ACDBBLOCKREPETAG
1070
     1
1071
       36
1005
12C853
  0
LINE
  5
12C854
  8
OBJECT
 10
9947.0
 20
-1029.9999999999991
 30
0.0
 11
10053.0
 21
-1029.9999999999991
 31
0.0
1001
ACDBBLOCKREPETAG
1070
     1
1071
       37
1005
12C854
  0
LINE
  5
12C855
  8
OBJECT
 10
10054.99999999998
 20
-1059.9999999999991
 30
0.0
 11
10054.99999999998
 21
-1064.9999999999991
 31
0.0
1001
ACDBBLOCKREPETAG
1070
     1
1071
       38
1005
12C855
  0
LINE
  5
12C856
  8
OBJECT
 10
10073.0
 20
-1059.9999999999991
 30
0.0
 11
10073.0
 21
-1064.9999999999991
 31
0.0
1001
ACDBBLOCKREPETAG
1070
     1
1071
       39
1005
12C856
  0
LINE
  5
12C857
  8
OBJECT
 10
10073.0
 20
-1059.9999999999991
 30
0.0
 11
10054.99999999998
 21
-1059.9999999999991
 31
0.0
1001
ACDBBLOCKREPETAG
1070
     1
1071
       40
1005
12C857
  0
LINE
  5
12C858
  8
HIDDEN
 10
9955.5
 20
-1039.9999999999991
 30
0.0
 11
10044.5
 21
-1039.9999999999991
 31
0.0
1001
ACDBBLOCKREPETAG
1070
     1
1071
       41
1005
12C858
  0
LINE
  5
12C859
  8
CENTER
 10
10000.0
 20
-769.99999999999955
 30
0.0
 11
10000.0
 21
-1118.9999999999991
 31
0.0
1001
ACDBBLOCKREPETAG
1070
     1
1071
       42
1005
12C859
  0
LINE
  5
12C85A
  8
OBJECT
 10
10065.0
 20
-769.99999999999955
 30
0.0
 11
10065.0
 21
-869.99999999999955
 31
0.0
1001
ACDBBLOCKREPETAG
1070
     1
1071
       43
1005
12C85A
  0
LINE
  5
12C85B
  8
OBJECT
 10
9935.0
 20
-769.99999999999955
 30
0.0
 11
9935.0
 21
-869.99999999999955
 31
0.0
1001
ACDBBLOCKREPETAG
1070
     1
1071
       44
1005
12C85B
  0
LINE
  5
12C85C
  8
OBJECT
 10
9955.5
 20
-979.99999999999966
 30
0.0
 11
9935.0
 21
-869.99999999999955
 31
0.0
1001
ACDBBLOCKREPETAG
1070
     1
1071
       45
1005
12C85C
  0
LINE
  5
12C85D
  8
OBJECT
 10
10065.0
 20
-869.99999999999955
 30
0.0
 11
9935.0
 21
-869.99999999999955
 31
0.0
1001
ACDBBLOCKREPETAG
1070
     1
1071
       46
1005
12C85D
  0
LINE
  5
12C85E
  8
OBJECT
 10
9947.0
 20
-1029.9999999999991
 30
0.0
 11
9947.0
 21
-1064.9999999999991
 31
0.0
1001
ACDBBLOCKREPETAG
1070
     1
1071
       47
1005
12C85E
  0
LINE
  5
12C85F
  8
OBJECT
 10
10053.0
 20
-1029.9999999999991
 30
0.0
 11
10053.0
 21
-1064.9999999999991
 31
0.0
1001
ACDBBLOCKREPETAG
1070
     1
1071
       48
1005
12C85F
  0
LINE
  5
12C860
  8
OBJECT
 10
9983.0
 20
-1062.9999999999991
 30
0.0
 11
9975.5
 21
-1059.9999999999991
 31
0.0
1001
ACDBBLOCKREPETAG
1070
     1
1071
       49
1005
12C860
  0
LINE
  5
12C861
  8
OBJECT
 10
9958.1850359912914
 20
-1103.999986840259
 30
0.0
 11
9958.1850359912914
 21
-1111.999986840259
 31
0.0
1001
ACDBBLOCKREPETAG
1070
     1
1071
       50
1005
12C861
  0
LINE
  5
12C862
  8
OBJECT
 10
9963.0925013591986
 20
-1103.999986840259
 30
0.0
 11
9963.0925013591986
 21
-1111.999986840259
 31
0.0
1001
ACDBBLOCKREPETAG
1070
     1
1071
       51
1005
12C862
  0
LINE
  5
12C863
  8
OBJECT
 10
9972.9074320950258
 20
-1103.999986840259
 30
0.0
 11
9972.9074320950258
 21
-1111.999986840259
 31
0.0
1001
ACDBBLOCKREPETAG
1070
     1
1071
       52
1005
12C863
  0
LINE
  5
12C864
  8
OBJECT
 10
9977.8149915527974
 20
-1103.999986840259
 30
0.0
 11
9977.8149915527974
 21
-1111.999986840259
 31
0.0
1001
ACDBBLOCKREPETAG
1070
     1
1071
       53
1005
12C864
  0
LINE
  5
12C865
  8
OBJECT
 10
10059.0
 20
-1111.9999999999991
 30
0.0
 11
10059.0
 21
-1114.9999999999991
 31
0.0
1001
ACDBBLOCKREPETAG
1070
     1
1071
       54
1005
12C865
  0
LINE
  5
12C866
  8
OBJECT
 10
10059.0
 20
-1114.9999999999991
 30
0.0
 11
10069.0
 21
-1114.9999999999991
 31
0.0
1001
ACDBBLOCKREPETAG
1070
     1
1071
       55
1005
12C866
  0
LINE
  5
12C867
  8
OBJECT
 10
10054.18504542377
 20
-1111.9999999999991
 30
0.0
 11
10073.814954576221
 21
-1111.9999999999991
 31
0.0
1001
ACDBBLOCKREPETAG
1070
     1
1071
       56
1005
12C867
  0
LINE
  5
12C868
  8
OBJECT
 10
10069.0
 20
-1114.9999999999991
 30
0.0
 11
10069.0
 21
-1111.9999999999991
 31
0.0
1001
ACDBBLOCKREPETAG
1070
     1
1071
       57
1005
12C868
  0
LINE
  5
12C869
  8
OBJECT
 10
10054.18503599129
 20
-1103.999986840259
 30
0.0
 11
10054.18503599129
 21
-1111.999986840259
 31
0.0
1001
ACDBBLOCKREPETAG
1070
     1
1071
       58
1005
12C869
  0
LINE
  5
12C86A
  8
OBJECT
 10
10059.0925013592
 20
-1103.999986840259
 30
0.0
 11
10059.0925013592
 21
-1111.999986840259
 31
0.0
1001
ACDBBLOCKREPETAG
1070
     1
1071
       59
1005
12C86A
  0
LINE
  5
12C86B
  8
OBJECT
 10
10068.90743209502
 20
-1103.999986840259
 30
0.0
 11
10068.90743209502
 21
-1111.999986840259
 31
0.0
1001
ACDBBLOCKREPETAG
1070
     1
1071
       60
1005
12C86B
  0
LINE
  5
12C86C
  8
OBJECT
 10
10073.814991552799
 20
-1103.999986840259
 30
0.0
 11
10073.814991552799
 21
-1111.999986840259
 31
0.0
1001
ACDBBLOCKREPETAG
1070
     1
1071
       61
1005
12C86C
  0
LINE
  5
12C86D
  8
OBJECT
 10
8044.5000000000036
 20
-1079.999999999992
 30
0.0
 11
7955.5
 21
-1079.999999999992
 31
0.0
1001
ACDBBLOCKREPETAG
1070
     1
1071
        0
1005
12C86D
  0
LINE
  5
12C86E
  8
OBJECT
 10
7935.0
 20
-869.99999999999216
 30
0.0
 11
7935.0
 21
-769.99999999999204
 31
0.0
1001
ACDBBLOCKREPETAG
1070
     1
1071
        1
1005
12C86E
  0
LINE
  5
12C86F
  8
OBJECT
 10
8065.0
 20
-869.99999999999216
 30
0.0
 11
8065.0
 21
-769.99999999999204
 31
0.0
1001
ACDBBLOCKREPETAG
1070
     1
1071
        2
1005
12C86F
  0
LINE
  5
12C870
  8
OBJECT
 10
7935.0
 20
-869.99999999999216
 30
0.0
 11
8065.0
 21
-869.99999999999216
 31
0.0
1001
ACDBBLOCKREPETAG
1070
     1
1071
        3
1005
12C870
  0
LINE
  5
12C871
  8
OBJECT
 10
7955.5
 20
-979.99999999999204
 30
0.0
 11
8044.5000000000036
 21
-979.99999999999204
 31
0.0
1001
ACDBBLOCKREPETAG
1070
     1
1071
        4
1005
12C871
  0
LINE
  5
12C872
  8
OBJECT
 10
7955.5
 20
-979.99999999999204
 30
0.0
 11
7955.5
 21
-1079.999999999992
 31
0.0
1001
ACDBBLOCKREPETAG
1070
     1
1071
        5
1005
12C872
  0
LINE
  5
12C873
  8
OBJECT
 10
8044.5000000000036
 20
-979.99999999999204
 30
0.0
 11
8044.5000000000036
 21
-1079.999999999992
 31
0.0
1001
ACDBBLOCKREPETAG
1070
     1
1071
        6
1005
12C873
  0
LINE
  5
12C874
  8
OBJECT
 10
7935.0
 20
-869.99999999999216
 30
0.0
 11
7955.5
 21
-979.99999999999204
 31
0.0
1001
ACDBBLOCKREPETAG
1070
     1
1071
        7
1005
12C874
  0
LINE
  5
12C875
  8
OBJECT
 10
8044.5000000000036
 20
-979.99999999999204
 30
0.0
 11
8065.0
 21
-869.99999999999216
 31
0.0
1001
ACDBBLOCKREPETAG
1070
     1
1071
        8
1005
12C875
  0
LINE
  5
12C876
  8
HIDDEN
 10
7962.5
 20
-979.99999999999204
 30
0.0
 11
7962.5
 21
-1079.999999999992
 31
0.0
1001
ACDBBLOCKREPETAG
1070
     1
1071
        9
1005
12C876
  0
LINE
  5
12C877
  8
HIDDEN
 10
8037.4999999999973
 20
-979.99999999999204
 30
0.0
 11
8037.4999999999973
 21
-1079.999999999992
 31
0.0
1001
ACDBBLOCKREPETAG
1070
     1
1071
       10
1005
12C877
  0
LINE
  5
12C878
  8
CENTER
 10
8000.0
 20
-769.99999999999955
 30
0.0
 11
8000.0
 21
-1094.999999999992
 31
0.0
1001
ACDBBLOCKREPETAG
1070
     1
1071
       11
1005
12C878
  0
LINE
  5
12C879
  8
OBJECT
 10
6055.9999999999927
 20
-1103.9999999999991
 30
0.0
 11
6055.9999999999927
 21
-1113.9999999999991
 31
0.0
1001
ACDBBLOCKREPETAG
1070
     1
1071
      121
1005
12C879
  0
LINE
  5
12C87A
  8
OBJECT
 10
5961.75
 20
-1054.699999999996
 30
0.0
 11
5974.25
 21
-1054.699999999996
 31
0.0
1001
ACDBBLOCKREPETAG
1070
     1
1071
      122
1005
12C87A
  0
LINE
  5
12C87B
  8
OBJECT
 10
6073.4999999999927
 20
-1062.7
 30
0.0
 11
6073.4999999999927
 21
-1064.9999999999991
 31
0.0
1001
ACDBBLOCKREPETAG
1070
     1
1071
      123
1005
12C87B
  0
LINE
  5
12C87C
  8
OBJECT
 10
6057.7499999999927
 20
-1054.699999999996
 30
0.0
 11
6070.2499999999927
 21
-1054.699999999996
 31
0.0
1001
ACDBBLOCKREPETAG
1070
     1
1071
      124
1005
12C87C
  0
LINE
  5
12C87D
  8
OBJECT
 10
6054.4999999999927
 20
-1062.7
 30
0.0
 11
6054.4999999999927
 21
-1064.9999999999991
 31
0.0
1001
ACDBBLOCKREPETAG
1070
     1
1071
      125
1005
12C87D
  0
LINE
  5
12C87E
  8
OBJECT
 10
5953.0
 20
-1064.9999999999991
 30
0.0
 11
5953.0
 21
-1062.7
 31
0.0
1001
ACDBBLOCKREPETAG
1070
     1
1071
      126
1005
12C87E
  0
LINE
  5
12C87F
  8
OBJECT
 10
5983.0
 20
-1064.9999999999991
 30
0.0
 11
5983.0
 21
-1062.7
 31
0.0
1001
ACDBBLOCKREPETAG
1070
     1
1071
      127
1005
12C87F
  0
LINE
  5
12C880
  8
OBJECT
 10
5961.75
 20
-1054.699999999996
 30
0.0
 11
5961.75
 21
-1062.7
 31
0.0
1001
ACDBBLOCKREPETAG
1070
     1
1071
      128
1005
12C880
  0
LINE
  5
12C881
  8
OBJECT
 10
5974.25
 20
-1054.699999999996
 30
0.0
 11
5974.25
 21
-1062.7
 31
0.0
1001
ACDBBLOCKREPETAG
1070
     1
1071
      129
1005
12C881
  0
LINE
  5
12C882
  8
OBJECT
 10
5953.0
 20
-1062.7
 30
0.0
 11
5983.0
 21
-1062.7
 31
0.0
1001
ACDBBLOCKREPETAG
1070
     1
1071
      130
1005
12C882
  0
LINE
  5
12C883
  8
OBJECT
 10
5960.0
 20
-1103.9999999999991
 30
0.0
 11
5960.0
 21
-1113.9999999999991
 31
0.0
1001
ACDBBLOCKREPETAG
1070
     1
1071
      131
1005
12C883
  0
LINE
  5
12C884
  8
OBJECT
 10
5976.0
 20
-1103.9999999999991
 30
0.0
 11
5976.0
 21
-1113.9999999999991
 31
0.0
1001
ACDBBLOCKREPETAG
1070
     1
1071
      132
1005
12C884
  0
LINE
  5
12C885
  8
OBJECT
 10
5960.0
 20
-1113.9999999999991
 30
0.0
 11
5976.0
 21
-1113.9999999999991
 31
0.0
1001
ACDBBLOCKREPETAG
1070
     1
1071
      133
1005
12C885
  0
LINE
  5
12C886
  8
OBJECT
 10
6071.9999999999918
 20
-1103.9999999999991
 30
0.0
 11
6071.9999999999918
 21
-1113.9999999999991
 31
0.0
1001
ACDBBLOCKREPETAG
1070
     1
1071
      134
1005
12C886
  0
LINE
  5
12C887
  8
OBJECT
 10
6071.9999999999918
 20
-1113.9999999999991
 30
0.0
 11
6055.9999999999927
 21
-1113.9999999999991
 31
0.0
1001
ACDBBLOCKREPETAG
1070
     1
1071
      135
1005
12C887
  0
LINE
  5
12C888
  8
OBJECT
 10
5944.9999999999927
 20
-1144.9999999999991
 30
0.0
 11
5944.9999999999927
 21
-1103.9999999999991
 31
0.0
1001
ACDBBLOCKREPETAG
1070
     1
1071
      136
1005
12C888
  0
LINE
  5
12C889
  8
OBJECT
 10
6054.9999999999918
 20
-1103.9999999999991
 30
0.0
 11
6054.9999999999918
 21
-1144.9999999999991
 31
0.0
1001
ACDBBLOCKREPETAG
1070
     1
1071
      137
1005
12C889
  0
LINE
  5
12C88A
  8
OBJECT
 10
6070.2499999999927
 20
-1054.699999999996
 30
0.0
 11
6070.2499999999927
 21
-1062.7
 31
0.0
1001
ACDBBLOCKREPETAG
1070
     1
1071
      138
1005
12C88A
  0
LINE
  5
12C88B
  8
OBJECT
 10
6057.7499999999927
 20
-1054.699999999996
 30
0.0
 11
6057.7499999999927
 21
-1062.7
 31
0.0
1001
ACDBBLOCKREPETAG
1070
     1
1071
      139
1005
12C88B
  0
LINE
  5
12C88C
  8
OBJECT
 10
6054.4999999999927
 20
-1062.7
 30
0.0
 11
6073.4999999999927
 21
-1062.7
 31
0.0
1001
ACDBBLOCKREPETAG
1070
     1
1071
      140
1005
12C88C
  0
LINE
  5
12C88D
  8
OBJECT
 10
6054.9999999999918
 20
-1144.9999999999991
 30
0.0
 11
5944.9999999999927
 21
-1144.9999999999991
 31
0.0
1001
ACDBBLOCKREPETAG
1070
     1
1071
      141
1005
12C88D
  0
LINE
  5
12C88E
  8
OBJECT
 10
6075.9999999999927
 20
-1079.9999999999991
 30
0.0
 11
5938.9999999999918
 21
-1079.9999999999991
 31
0.0
1001
ACDBBLOCKREPETAG
1070
     1
1071
      142
1005
12C88E
  0
LINE
  5
12C88F
  8
OBJECT
 10
6075.9999999999927
 20
-1079.9999999999991
 30
0.0
 11
6075.9999999999927
 21
-1064.9999999999991
 31
0.0
1001
ACDBBLOCKREPETAG
1070
     1
1071
      143
1005
12C88F
  0
LINE
  5
12C890
  8
OBJECT
 10
6075.9999999999927
 20
-1089.9999999999991
 30
0.0
 11
6075.9999999999927
 21
-1103.9999999999991
 31
0.0
1001
ACDBBLOCKREPETAG
1070
     1
1071
      144
1005
12C890
  0
LINE
  5
12C891
  8
OBJECT
 10
6068.9999999999909
 20
-1089.9999999999991
 30
0.0
 11
6068.9999999999909
 21
-1079.9999999999991
 31
0.0
1001
ACDBBLOCKREPETAG
1070
     1
1071
      145
1005
12C891
  0
LINE
  5
12C892
  8
OBJECT
 10
6058.9999999999927
 20
-1089.9999999999991
 30
0.0
 11
6058.9999999999927
 21
-1079.9999999999991
 31
0.0
1001
ACDBBLOCKREPETAG
1070
     1
1071
      146
1005
12C892
  0
LINE
  5
12C893
  8
OBJECT
 10
5938.9999999999918
 20
-1089.9999999999991
 30
0.0
 11
5938.9999999999918
 21
-1103.9999999999991
 31
0.0
1001
ACDBBLOCKREPETAG
1070
     1
1071
      147
1005
12C893
  0
LINE
  5
12C894
  8
OBJECT
 10
5938.9999999999918
 20
-1103.9999999999991
 30
0.0
 11
6075.9999999999927
 21
-1103.9999999999991
 31
0.0
1001
ACDBBLOCKREPETAG
1070
     1
1071
      148
1005
12C894
  0
LINE
  5
12C895
  8
OBJECT
 10
5973.0
 20
-1089.9999999999991
 30
0.0
 11
5973.0
 21
-1079.9999999999991
 31
0.0
1001
ACDBBLOCKREPETAG
1070
     1
1071
      149
1005
12C895
  0
LINE
  5
12C896
  8
OBJECT
 10
5963.0
 20
-1089.9999999999991
 30
0.0
 11
5963.0
 21
-1079.9999999999991
 31
0.0
1001
ACDBBLOCKREPETAG
1070
     1
1071
      150
1005
12C896
  0
LINE
  5
12C897
  8
OBJECT
 10
5938.9999999999918
 20
-1089.9999999999991
 30
0.0
 11
6075.9999999999927
 21
-1089.9999999999991
 31
0.0
1001
ACDBBLOCKREPETAG
1070
     1
1071
      151
1005
12C897
  0
LINE
  5
12C898
  8
OBJECT
 10
5945.9999999999927
 20
-1079.9999999999991
 30
0.0
 11
5945.9999999999927
 21
-1089.9999999999991
 31
0.0
1001
ACDBBLOCKREPETAG
1070
     1
1071
      152
1005
12C898
  0
LINE
  5
12C899
  8
OBJECT
 10
6053.9999999999927
 20
-1079.9999999999991
 30
0.0
 11
6053.9999999999927
 21
-1089.9999999999991
 31
0.0
1001
ACDBBLOCKREPETAG
1070
     1
1071
      153
1005
12C899
  0
LINE
  5
12C89A
  8
OBJECT
 10
6044.5
 20
-979.99999999999966
 30
0.0
 11
6065.0
 21
-869.99999999999955
 31
0.0
1001
ACDBBLOCKREPETAG
1070
     1
1071
      154
1005
12C89A
  0
LINE
  5
12C89B
  8
OBJECT
 10
5955.5
 20
-979.99999999999966
 30
0.0
 11
6044.5
 21
-979.99999999999966
 31
0.0
1001
ACDBBLOCKREPETAG
1070
     1
1071
      155
1005
12C89B
  0
LINE
  5
12C89C
  8
OBJECT
 10
5938.9999999999918
 20
-1079.9999999999991
 30
0.0
 11
5938.9999999999918
 21
-1064.9999999999991
 31
0.0
1001
ACDBBLOCKREPETAG
1070
     1
1071
      156
1005
12C89C
  0
LINE
  5
12C89D
  8
OBJECT
 10
5938.9999999999918
 20
-1064.9999999999991
 30
0.0
 11
6075.9999999999927
 21
-1064.9999999999991
 31
0.0
1001
ACDBBLOCKREPETAG
1070
     1
1071
      157
1005
12C89D
  0
LINE
  5
12C89E
  8
OBJECT
 10
5955.5
 20
-979.99999999999966
 30
0.0
 11
5955.5
 21
-1029.9999999999991
 31
0.0
1001
ACDBBLOCKREPETAG
1070
     1
1071
      158
1005
12C89E
  0
LINE
  5
12C89F
  8
OBJECT
 10
6044.5
 20
-979.99999999999966
 30
0.0
 11
6044.5
 21
-1029.9999999999991
 31
0.0
1001
ACDBBLOCKREPETAG
1070
     1
1071
      159
1005
12C89F
  0
LINE
  5
12C8A0
  8
OBJECT
 10
5947.0
 20
-1029.9999999999991
 30
0.0
 11
6053.0
 21
-1029.9999999999991
 31
0.0
1001
ACDBBLOCKREPETAG
1070
     1
1071
      160
1005
12C8A0
  0
LINE
  5
12C8A1
  8
HIDDEN
 10
5955.5
 20
-1039.9999999999991
 30
0.0
 11
6044.5
 21
-1039.9999999999991
 31
0.0
1001
ACDBBLOCKREPETAG
1070
     1
1071
      161
1005
12C8A1
  0
LINE
  5
12C8A2
  8
CENTER
 10
6000.0
 20
-769.99999999999955
 30
0.0
 11
6000.0
 21
-1159.9999999999991
 31
0.0
1001
ACDBBLOCKREPETAG
1070
     1
1071
      162
1005
12C8A2
  0
LINE
  5
12C8A3
  8
OBJECT
 10
6065.0
 20
-769.99999999999955
 30
0.0
 11
6065.0
 21
-869.99999999999955
 31
0.0
1001
ACDBBLOCKREPETAG
1070
     1
1071
      163
1005
12C8A3
  0
LINE
  5
12C8A4
  8
OBJECT
 10
5935.0
 20
-769.99999999999955
 30
0.0
 11
5935.0
 21
-869.99999999999955
 31
0.0
1001
ACDBBLOCKREPETAG
1070
     1
1071
      164
1005
12C8A4
  0
LINE
  5
12C8A5
  8
OBJECT
 10
5955.5
 20
-979.99999999999966
 30
0.0
 11
5935.0
 21
-869.99999999999955
 31
0.0
1001
ACDBBLOCKREPETAG
1070
     1
1071
      165
1005
12C8A5
  0
LINE
  5
12C8A6
  8
OBJECT
 10
6065.0
 20
-869.99999999999955
 30
0.0
 11
5935.0
 21
-869.99999999999955
 31
0.0
1001
ACDBBLOCKREPETAG
1070
     1
1071
      166
1005
12C8A6
  0
LINE
  5
12C8A7
  8
OBJECT
 10
5947.0
 20
-1029.9999999999991
 30
0.0
 11
5947.0
 21
-1064.9999999999991
 31
0.0
1001
ACDBBLOCKREPETAG
1070
     1
1071
      167
1005
12C8A7
  0
LINE
  5
12C8A8
  8
OBJECT
 10
6053.0
 20
-1029.9999999999991
 30
0.0
 11
6053.0
 21
-1064.9999999999991
 31
0.0
1001
ACDBBLOCKREPETAG
1070
     1
1071
      168
1005
12C8A8
  0
LINE
  5
12C8A9
  8
OBJECT
 10
3975.5
 20
-1059.9999999999991
 30
0.0
 11
3958.9999999999918
 21
-1059.9999999999991
 31
0.0
1001
ACDBBLOCKREPETAG
1070
     1
1071
       12
1005
12C8A9
  0
LINE
  5
12C8AA
  8
OBJECT
 10
3983.0
 20
-1064.9999999999991
 30
0.0
 11
3983.0
 21
-1062.9999999999991
 31
0.0
1001
ACDBBLOCKREPETAG
1070
     1
1071
       13
1005
12C8AA
  0
LINE
  5
12C8AB
  8
OBJECT
 10
4075.9999999999918
 20
-1079.9999999999991
 30
0.0
 11
3938.9999999999932
 21
-1079.9999999999991
 31
0.0
1001
ACDBBLOCKREPETAG
1070
     1
1071
       14
1005
12C8AB
  0
LINE
  5
12C8AC
  8
OBJECT
 10
4075.9999999999918
 20
-1079.9999999999991
 30
0.0
 11
4075.9999999999918
 21
-1064.9999999999991
 31
0.0
1001
ACDBBLOCKREPETAG
1070
     1
1071
       15
1005
12C8AC
  0
LINE
  5
12C8AD
  8
OBJECT
 10
4075.9999999999918
 20
-1089.9999999999991
 30
0.0
 11
4075.9999999999918
 21
-1103.9999999999991
 31
0.0
1001
ACDBBLOCKREPETAG
1070
     1
1071
       16
1005
12C8AD
  0
LINE
  5
12C8AE
  8
OBJECT
 10
4068.9999999999918
 20
-1089.9999999999991
 30
0.0
 11
4068.9999999999918
 21
-1079.9999999999991
 31
0.0
1001
ACDBBLOCKREPETAG
1070
     1
1071
       17
1005
12C8AE
  0
LINE
  5
12C8AF
  8
OBJECT
 10
4058.9999999999932
 20
-1089.9999999999991
 30
0.0
 11
4058.9999999999932
 21
-1079.9999999999991
 31
0.0
1001
ACDBBLOCKREPETAG
1070
     1
1071
       18
1005
12C8AF
  0
LINE
  5
12C8B0
  8
OBJECT
 10
3938.9999999999932
 20
-1089.9999999999991
 30
0.0
 11
3938.9999999999932
 21
-1103.9999999999991
 31
0.0
1001
ACDBBLOCKREPETAG
1070
     1
1071
       19
1005
12C8B0
  0
LINE
  5
12C8B1
  8
OBJECT
 10
3938.9999999999932
 20
-1103.9999999999991
 30
0.0
 11
4075.9999999999918
 21
-1103.9999999999991
 31
0.0
1001
ACDBBLOCKREPETAG
1070
     1
1071
       20
1005
12C8B1
  0
LINE
  5
12C8B2
  8
OBJECT
 10
3973.0
 20
-1089.9999999999991
 30
0.0
 11
3973.0
 21
-1079.9999999999991
 31
0.0
1001
ACDBBLOCKREPETAG
1070
     1
1071
       21
1005
12C8B2
  0
LINE
  5
12C8B3
  8
OBJECT
 10
3963.0
 20
-1089.9999999999991
 30
0.0
 11
3963.0
 21
-1079.9999999999991
 31
0.0
1001
ACDBBLOCKREPETAG
1070
     1
1071
       22
1005
12C8B3
  0
LINE
  5
12C8B4
  8
OBJECT
 10
3938.9999999999932
 20
-1089.9999999999991
 30
0.0
 11
4075.9999999999918
 21
-1089.9999999999991
 31
0.0
1001
ACDBBLOCKREPETAG
1070
     1
1071
       23
1005
12C8B4
  0
LINE
  5
12C8B5
  8
OBJECT
 10
3958.9999999999918
 20
-1059.9999999999991
 30
0.0
 11
3958.9999999999918
 21
-1064.9999999999991
 31
0.0
1001
ACDBBLOCKREPETAG
1070
     1
1071
       24
1005
12C8B5
  0
LINE
  5
12C8B6
  8
OBJECT
 10
3963.0
 20
-1111.9999999999991
 30
0.0
 11
3963.0
 21
-1114.9999999999991
 31
0.0
1001
ACDBBLOCKREPETAG
1070
     1
1071
       25
1005
12C8B6
  0
LINE
  5
12C8B7
  8
OBJECT
 10
3963.0
 20
-1114.9999999999991
 30
0.0
 11
3973.0
 21
-1114.9999999999991
 31
0.0
1001
ACDBBLOCKREPETAG
1070
     1
1071
       26
1005
12C8B7
  0
LINE
  5
12C8B8
  8
OBJECT
 10
3958.185045423772
 20
-1111.9999999999991
 30
0.0
 11
3977.8149545762212
 21
-1111.9999999999991
 31
0.0
1001
ACDBBLOCKREPETAG
1070
     1
1071
       27
1005
12C8B8
  0
LINE
  5
12C8B9
  8
OBJECT
 10
3973.0
 20
-1114.9999999999991
 30
0.0
 11
3973.0
 21
-1111.9999999999991
 31
0.0
1001
ACDBBLOCKREPETAG
1070
     1
1071
       28
1005
12C8B9
  0
LINE
  5
12C8BA
  8
OBJECT
 10
3945.9999999999932
 20
-1079.9999999999991
 30
0.0
 11
3945.9999999999932
 21
-1089.9999999999991
 31
0.0
1001
ACDBBLOCKREPETAG
1070
     1
1071
       29
1005
12C8BA
  0
LINE
  5
12C8BB
  8
OBJECT
 10
4053.9999999999941
 20
-1079.9999999999991
 30
0.0
 11
4053.9999999999941
 21
-1089.9999999999991
 31
0.0
1001
ACDBBLOCKREPETAG
1070
     1
1071
       30
1005
12C8BB
  0
LINE
  5
12C8BC
  8
OBJECT
 10
4044.5
 20
-979.99999999999966
 30
0.0
 11
4065.0
 21
-869.99999999999955
 31
0.0
1001
ACDBBLOCKREPETAG
1070
     1
1071
       31
1005
12C8BC
  0
LINE
  5
12C8BD
  8
OBJECT
 10
3955.5
 20
-979.99999999999966
 30
0.0
 11
4044.5
 21
-979.99999999999966
 31
0.0
1001
ACDBBLOCKREPETAG
1070
     1
1071
       32
1005
12C8BD
  0
LINE
  5
12C8BE
  8
OBJECT
 10
3938.9999999999932
 20
-1079.9999999999991
 30
0.0
 11
3938.9999999999932
 21
-1064.9999999999991
 31
0.0
1001
ACDBBLOCKREPETAG
1070
     1
1071
       33
1005
12C8BE
  0
LINE
  5
12C8BF
  8
OBJECT
 10
3938.9999999999932
 20
-1064.9999999999991
 30
0.0
 11
4075.9999999999918
 21
-1064.9999999999991
 31
0.0
1001
ACDBBLOCKREPETAG
1070
     1
1071
       34
1005
12C8BF
  0
LINE
  5
12C8C0
  8
OBJECT
 10
3955.5
 20
-979.99999999999966
 30
0.0
 11
3955.5
 21
-1029.9999999999991
 31
0.0
1001
ACDBBLOCKREPETAG
1070
     1
1071
       35
1005
12C8C0
  0
LINE
  5
12C8C1
  8
OBJECT
 10
4044.5
 20
-979.99999999999966
 30
0.0
 11
4044.5
 21
-1029.9999999999991
 31
0.0
1001
ACDBBLOCKREPETAG
1070
     1
1071
       36
1005
12C8C1
  0
LINE
  5
12C8C2
  8
OBJECT
 10
3947.0
 20
-1029.9999999999991
 30
0.0
 11
4053.0
 21
-1029.9999999999991
 31
0.0
1001
ACDBBLOCKREPETAG
1070
     1
1071
       37
1005
12C8C2
  0
LINE
  5
12C8C3
  8
OBJECT
 10
4054.9999999999841
 20
-1059.9999999999991
 30
0.0
 11
4054.9999999999841
 21
-1064.9999999999991
 31
0.0
1001
ACDBBLOCKREPETAG
1070
     1
1071
       38
1005
12C8C3
  0
LINE
  5
12C8C4
  8
OBJECT
 10
4073.0
 20
-1059.9999999999991
 30
0.0
 11
4073.0
 21
-1064.9999999999991
 31
0.0
1001
ACDBBLOCKREPETAG
1070
     1
1071
       39
1005
12C8C4
  0
LINE
  5
12C8C5
  8
OBJECT
 10
4073.0
 20
-1059.9999999999991
 30
0.0
 11
4054.9999999999841
 21
-1059.9999999999991
 31
0.0
1001
ACDBBLOCKREPETAG
1070
     1
1071
       40
1005
12C8C5
  0
LINE
  5
12C8C6
  8
HIDDEN
 10
3955.5
 20
-1039.9999999999991
 30
0.0
 11
4044.5
 21
-1039.9999999999991
 31
0.0
1001
ACDBBLOCKREPETAG
1070
     1
1071
       41
1005
12C8C6
  0
LINE
  5
12C8C7
  8
CENTER
 10
4000.0
 20
-769.99999999999955
 30
0.0
 11
4000.0
 21
-1118.9999999999991
 31
0.0
1001
ACDBBLOCKREPETAG
1070
     1
1071
       42
1005
12C8C7
  0
LINE
  5
12C8C8
  8
OBJECT
 10
4065.0
 20
-769.99999999999955
 30
0.0
 11
4065.0
 21
-869.99999999999955
 31
0.0
1001
ACDBBLOCKREPETAG
1070
     1
1071
       43
1005
12C8C8
  0
LINE
  5
12C8C9
  8
OBJECT
 10
3935.0
 20
-769.99999999999955
 30
0.0
 11
3935.0
 21
-869.99999999999955
 31
0.0
1001
ACDBBLOCKREPETAG
1070
     1
1071
       44
1005
12C8C9
  0
LINE
  5
12C8CA
  8
OBJECT
 10
3955.5
 20
-979.99999999999966
 30
0.0
 11
3935.0
 21
-869.99999999999955
 31
0.0
1001
ACDBBLOCKREPETAG
1070
     1
1071
       45
1005
12C8CA
  0
LINE
  5
12C8CB
  8
OBJECT
 10
4065.0
 20
-869.99999999999955
 30
0.0
 11
3935.0
 21
-869.99999999999955
 31
0.0
1001
ACDBBLOCKREPETAG
1070
     1
1071
       46
1005
12C8CB
  0
LINE
  5
12C8CC
  8
OBJECT
 10
3947.0
 20
-1029.9999999999991
 30
0.0
 11
3947.0
 21
-1064.9999999999991
 31
0.0
1001
ACDBBLOCKREPETAG
1070
     1
1071
       47
1005
12C8CC
  0
LINE
  5
12C8CD
  8
OBJECT
 10
4053.0
 20
-1029.9999999999991
 30
0.0
 11
4053.0
 21
-1064.9999999999991
 31
0.0
1001
ACDBBLOCKREPETAG
1070
     1
1071
       48
1005
12C8CD
  0
LINE
  5
12C8CE
  8
OBJECT
 10
3983.0
 20
-1062.9999999999991
 30
0.0
 11
3975.5
 21
-1059.9999999999991
 31
0.0
1001
ACDBBLOCKREPETAG
1070
     1
1071
       49
1005
12C8CE
  0
LINE
  5
12C8CF
  8
OBJECT
 10
3958.1850359912951
 20
-1103.999986840259
 30
0.0
 11
3958.1850359912951
 21
-1111.999986840259
 31
0.0
1001
ACDBBLOCKREPETAG
1070
     1
1071
       50
1005
12C8CF
  0
LINE
  5
12C8D0
  8
OBJECT
 10
3963.0925013591991
 20
-1103.999986840259
 30
0.0
 11
3963.0925013591991
 21
-1111.999986840259
 31
0.0
1001
ACDBBLOCKREPETAG
1070
     1
1071
       51
1005
12C8D0
  0
LINE
  5
12C8D1
  8
OBJECT
 10
3972.907432095024
 20
-1103.999986840259
 30
0.0
 11
3972.907432095024
 21
-1111.999986840259
 31
0.0
1001
ACDBBLOCKREPETAG
1070
     1
1071
       52
1005
12C8D1
  0
LINE
  5
12C8D2
  8
OBJECT
 10
3977.814991552797
 20
-1103.999986840259
 30
0.0
 11
3977.814991552797
 21
-1111.999986840259
 31
0.0
1001
ACDBBLOCKREPETAG
1070
     1
1071
       53
1005
12C8D2
  0
LINE
  5
12C8D3
  8
OBJECT
 10
4059.0
 20
-1111.9999999999991
 30
0.0
 11
4059.0
 21
-1114.9999999999991
 31
0.0
1001
ACDBBLOCKREPETAG
1070
     1
1071
       54
1005
12C8D3
  0
LINE
  5
12C8D4
  8
OBJECT
 10
4059.0
 20
-1114.9999999999991
 30
0.0
 11
4069.0
 21
-1114.9999999999991
 31
0.0
1001
ACDBBLOCKREPETAG
1070
     1
1071
       55
1005
12C8D4
  0
LINE
  5
12C8D5
  8
OBJECT
 10
4054.1850454237701
 20
-1111.9999999999991
 30
0.0
 11
4073.8149545762199
 21
-1111.9999999999991
 31
0.0
1001
ACDBBLOCKREPETAG
1070
     1
1071
       56
1005
12C8D5
  0
LINE
  5
12C8D6
  8
OBJECT
 10
4069.0
 20
-1114.9999999999991
 30
0.0
 11
4069.0
 21
-1111.9999999999991
 31
0.0
1001
ACDBBLOCKREPETAG
1070
     1
1071
       57
1005
12C8D6
  0
LINE
  5
12C8D7
  8
OBJECT
 10
4054.1850359912919
 20
-1103.999986840259
 30
0.0
 11
4054.1850359912919
 21
-1111.999986840259
 31
0.0
1001
ACDBBLOCKREPETAG
1070
     1
1071
       58
1005
12C8D7
  0
LINE
  5
12C8D8
  8
OBJECT
 10
4059.0925013591982
 20
-1103.999986840259
 30
0.0
 11
4059.0925013591982
 21
-1111.999986840259
 31
0.0
1001
ACDBBLOCKREPETAG
1070
     1
1071
       59
1005
12C8D8
  0
LINE
  5
12C8D9
  8
OBJECT
 10
4068.907432095024
 20
-1103.999986840259
 30
0.0
 11
4068.907432095024
 21
-1111.999986840259
 31
0.0
1001
ACDBBLOCKREPETAG
1070
     1
1071
       60
1005
12C8D9
  0
LINE
  5
12C8DA
  8
OBJECT
 10
4073.814991552797
 20
-1103.999986840259
 30
0.0
 11
4073.814991552797
 21
-1111.999986840259
 31
0.0
1001
ACDBBLOCKREPETAG
1070
     1
1071
       61
1005
12C8DA
  0
LINE
  5
12C8DB
  8
CENTER
 10
11924.0
 20
-1394.9999999999991
 30
0.0
 11
12091.0
 21
-1394.9999999999991
 31
0.0
1001
ACDBBLOCKREPETAG
1070
     1
1071
       22
1005
12C8DB
  0
LINE
  5
12C8DC
  8
CENTER
 10
12000.0
 20
-1318.0518385105161
 30
0.0
 11
12000.0
 21
-1471.948161489478
 31
0.0
1001
ACDBBLOCKREPETAG
1070
     1
1071
       23
1005
12C8DC
  0
CIRCLE
  5
12C8DD
  8
OBJECT
 10
12000.0
 20
-1394.9999999999991
 30
0.0
 40
37.5
1001
ACDBBLOCKREPETAG
1070
     1
1071
       24
1005
12C8DD
  0
CIRCLE
  5
12C8DE
  8
OBJECT
 10
12000.0
 20
-1394.9999999999991
 30
0.0
 40
47.5
1001
ACDBBLOCKREPETAG
1070
     1
1071
       25
1005
12C8DE
  0
ARC
  5
12C8DF
  8
OBJECT
 10
12000.0
 20
-1394.9999999999991
 30
0.0
 40
61.0
 50
40.03737312998139
 51
79.962626870012684
1001
ACDBBLOCKREPETAG
1070
     1
1071
       26
1005
12C8DF
  0
ARC
  5
12C8E0
  8
OBJECT
 10
12000.0
 20
-1394.9999999999991
 30
0.0
 40
61.0
 50
160.03737312997501
 51
199.96262687002491
1001
ACDBBLOCKREPETAG
1070
     1
1071
       27
1005
12C8E0
  0
ARC
  5
12C8E1
  8
OBJECT
 10
12000.0
 20
-1394.9999999999991
 30
0.0
 40
61.0
 50
280.03737312998732
 51
319.9626268700186
1001
ACDBBLOCKREPETAG
1070
     1
1071
       28
1005
12C8E1
  0
ARC
  5
12C8E2
  8
OBJECT
 10
12064.0
 20
-1394.9999999999991
 30
0.0
 40
12.0
 50
319.9626268700186
 51
40.03737312998139
1001
ACDBBLOCKREPETAG
1070
     1
1071
       29
1005
12C8E2
  0
LINE
  5
12C8E3
  8
OBJECT
 10
12046.703125
 20
-1355.7594837542299
 30
0.0
 11
12073.1875
 21
-1387.2805541811599
 31
0.0
1001
ACDBBLOCKREPETAG
1070
     1
1071
       30
1005
12C8E3
  0
LINE
  5
12C8E4
  8
OBJECT
 10
12046.703125
 20
-1434.240516245768
 30
0.0
 11
12073.1875
 21
-1402.719445818838
 31
0.0
1001
ACDBBLOCKREPETAG
1070
     1
1071
       31
1005
12C8E4
  0
CIRCLE
  5
12C8E5
  8
OBJECT
 10
12000.0
 20
-1394.9999999999991
 30
0.0
 40
55.0
1001
ACDBBLOCKREPETAG
1070
     1
1071
       32
1005
12C8E5
  0
ARC
  5
12C8E6
  8
OBJECT
 10
12064.0
 20
-1394.9999999999991
 30
0.0
 40
12.0
 50
271.2434956101261
 51
88.756504389873882
1001
ACDBBLOCKREPETAG
1070
     1
1071
       33
1005
12C8E6
  0
ARC
  5
12C8E7
  8
OBJECT
 10
12064.5859375
 20
-1368.0063585775049
 30
0.0
 40
15.0
 50
202.68245018366949
 51
268.7565043898739
1001
ACDBBLOCKREPETAG
1070
     1
1071
       34
1005
12C8E7
  0
CIRCLE
  5
12C8E8
  8
SLIM
 10
12064.0
 20
-1394.9999999999991
 30
0.0
 40
8.0
1001
ACDBBLOCKREPETAG
1070
     1
1071
       35
1005
12C8E8
  0
POLYLINE
  5
12C8E9
  8
SLIM
 66
     1
 10
0.0
 20
0.0
 30
0.0
 70
     1
1001
ACDBBLOCKREPETAG
1070
     1
1071
       36
1005
12C8E9
  0
VERTEX
  5
12D446
  8
SLIM
 10
12061.69059892324
 20
-1390.9999999999991
 30
0.0
  0
VERTEX
  5
12D447
  8
SLIM
 10
12059.38119784648
 20
-1394.9999999999991
 30
0.0
  0
VERTEX
  5
12D448
  8
SLIM
 10
12061.69059892324
 20
-1398.9999999999991
 30
0.0
  0
VERTEX
  5
12D449
  8
SLIM
 10
12066.30940107676
 20
-1398.9999999999991
 30
0.0
  0
VERTEX
  5
12D44A
  8
SLIM
 10
12068.618802153511
 20
-1394.9999999999991
 30
0.0
  0
VERTEX
  5
12D44B
  8
SLIM
 10
12066.30940107676
 20
-1390.9999999999991
 30
0.0
  0
SEQEND
  5
12D44C
  8
SLIM
  0
ARC
  5
12C8EA
  8
OBJECT
 10
12064.5859375
 20
-1421.993641422489
 30
0.0
 40
15.0
 50
91.243495610126089
 51
157.3175498163304
1001
ACDBBLOCKREPETAG
1070
     1
1071
       37
1005
12C8EA
  0
ARC
  5
12C8EB
  8
OBJECT
 10
11968.0
 20
-1339.5743741577919
 30
0.0
 40
12.0
 50
79.962626870012684
 51
160.03737312997501
1001
ACDBBLOCKREPETAG
1070
     1
1071
       38
1005
12C8EB
  0
LINE
  5
12C8EC
  8
OBJECT
 10
11942.665153573549
 20
-1374.1741654367599
 30
0.0
 11
11956.721013817751
 21
-1335.477488669944
 31
0.0
1001
ACDBBLOCKREPETAG
1070
     1
1071
       39
1005
12C8EC
  0
LINE
  5
12C8ED
  8
OBJECT
 10
12010.631721426451
 20
-1334.9336491909951
 30
0.0
 11
11970.091486182249
 21
-1327.7580428511051
 31
0.0
1001
ACDBBLOCKREPETAG
1070
     1
1071
       40
1005
12C8ED
  0
ARC
  5
12C8EE
  8
OBJECT
 10
11968.0
 20
-1339.5743741577919
 30
0.0
 40
12.0
 50
31.243495610056922
 51
208.7565043898139
1001
ACDBBLOCKREPETAG
1070
     1
1071
       41
1005
12C8EE
  0
ARC
  5
12C8EF
  8
OBJECT
 10
11944.32985203747
 20
-1352.5637581090109
 30
0.0
 40
15.0
 50
322.68245018387239
 51
28.756504389813902
1001
ACDBBLOCKREPETAG
1070
     1
1071
       42
1005
12C8EF
  0
CIRCLE
  5
12C8F0
  8
SLIM
 10
11968.0
 20
-1339.5743741577919
 30
0.0
 40
7.9999999999999982
1001
ACDBBLOCKREPETAG
1070
     1
1071
       43
1005
12C8F0
  0
POLYLINE
  5
12C8F1
  8
SLIM
 66
     1
 10
0.0
 20
0.0
 30
0.0
 70
     1
1001
ACDBBLOCKREPETAG
1070
     1
1071
       44
1005
12C8F1
  0
VERTEX
  5
12D44D
  8
SLIM
 10
11965.69059892324
 20
-1343.574374157796
 30
0.0
  0
VERTEX
  5
12D44E
  8
SLIM
 10
11970.30940107676
 20
-1343.574374157793
 30
0.0
  0
VERTEX
  5
12D44F
  8
SLIM
 10
11972.618802153511
 20
-1339.574374157796
 30
0.0
  0
VERTEX
  5
12D450
  8
SLIM
 10
11970.309401076751
 20
-1335.574374157793
 30
0.0
  0
VERTEX
  5
12D451
  8
SLIM
 10
11965.69059892324
 20
-1335.574374157796
 30
0.0
  0
VERTEX
  5
12D452
  8
SLIM
 10
11963.38119784648
 20
-1339.5743741577919
 30
0.0
  0
SEQEND
  5
12D453
  8
SLIM
  0
ARC
  5
12C8F2
  8
OBJECT
 10
11991.084210462521
 20
-1325.5701166865169
 30
0.0
 40
15.0
 50
211.2434956100569
 51
277.31754981622862
1001
ACDBBLOCKREPETAG
1070
     1
1071
       45
1005
12C8F2
  0
ARC
  5
12C8F3
  8
OBJECT
 10
11968.0
 20
-1450.425625842202
 30
0.0
 40
12.0
 50
199.96262687002491
 51
280.03737312998732
1001
ACDBBLOCKREPETAG
1070
     1
1071
       46
1005
12C8F3
  0
LINE
  5
12C8F4
  8
OBJECT
 10
12010.631721426451
 20
-1455.0663508090031
 30
0.0
 11
11970.091486182249
 21
-1462.241957148892
 31
0.0
1001
ACDBBLOCKREPETAG
1070
     1
1071
       47
1005
12C8F4
  0
LINE
  5
12C8F5
  8
OBJECT
 10
11942.665153573549
 20
-1415.8258345632339
 30
0.0
 11
11956.721013817751
 21
-1454.5225113300539
 31
0.0
1001
ACDBBLOCKREPETAG
1070
     1
1071
       48
1005
12C8F5
  0
ARC
  5
12C8F6
  8
OBJECT
 10
11968.0
 20
-1450.425625842202
 30
0.0
 40
12.0
 50
151.2434956101861
 51
328.75650438994307
1001
ACDBBLOCKREPETAG
1070
     1
1071
       49
1005
12C8F6
  0
ARC
  5
12C8F7
  8
OBJECT
 10
11991.084210462521
 20
-1464.4298833134769
 30
0.0
 40
15.0
 50
82.682450183771394
 51
148.75650438994299
1001
ACDBBLOCKREPETAG
1070
     1
1071
       50
1005
12C8F7
  0
CIRCLE
  5
12C8F8
  8
SLIM
 10
11968.0
 20
-1450.425625842202
 30
0.0
 40
8.0
1001
ACDBBLOCKREPETAG
1070
     1
1071
       51
1005
12C8F8
  0
POLYLINE
  5
12C8F9
  8
SLIM
 66
     1
 10
0.0
 20
0.0
 30
0.0
 70
     1
1001
ACDBBLOCKREPETAG
1070
     1
1071
       52
1005
12C8F9
  0
VERTEX
  5
12D454
  8
SLIM
 10
11972.618802153511
 20
-1450.425625842202
 30
0.0
  0
VERTEX
  5
12D455
  8
SLIM
 10
11970.309401076751
 20
-1446.425625842202
 30
0.0
  0
VERTEX
  5
12D456
  8
SLIM
 10
11965.69059892324
 20
-1446.425625842202
 30
0.0
  0
VERTEX
  5
12D457
  8
SLIM
 10
11963.38119784648
 20
-1450.425625842202
 30
0.0
  0
VERTEX
  5
12D458
  8
SLIM
 10
11965.69059892324
 20
-1454.425625842202
 30
0.0
  0
VERTEX
  5
12D459
  8
SLIM
 10
11970.309401076751
 20
-1454.425625842202
 30
0.0
  0
SEQEND
  5
12D45A
  8
SLIM
  0
ARC
  5
12C8FA
  8
OBJECT
 10
11944.32985203747
 20
-1437.436241890987
 30
0.0
 40
15.0
 50
331.24349561018607
 51
37.317549816127681
1001
ACDBBLOCKREPETAG
1070
     1
1071
       53
1005
12C8FA
  0
LINE
  5
12C8FB
  8
CENTER
 10
9924.0
 20
-1353.9999999999959
 30
0.0
 11
10091.0
 21
-1353.9999999999959
 31
0.0
1001
ACDBBLOCKREPETAG
1070
     1
1071
        0
1005
12C8FB
  0
LINE
  5
12C8FC
  8
CENTER
 10
10000.0
 20
-1277.0518385105131
 30
0.0
 11
10000.0
 21
-1430.9481614894751
 31
0.0
1001
ACDBBLOCKREPETAG
1070
     1
1071
        1
1005
12C8FC
  0
CIRCLE
  5
12C8FD
  8
OBJECT
 10
10000.0
 20
-1353.9999999999959
 30
0.0
 40
37.5
1001
ACDBBLOCKREPETAG
1070
     1
1071
        2
1005
12C8FD
  0
CIRCLE
  5
12C8FE
  8
OBJECT
 10
10000.0
 20
-1353.9999999999959
 30
0.0
 40
49.5
1001
ACDBBLOCKREPETAG
1070
     1
1071
        3
1005
12C8FE
  0
ARC
  5
12C8FF
  8
OBJECT
 10
10000.0
 20
-1353.9999999999959
 30
0.0
 40
61.0
 50
40.03737312998139
 51
79.962626870012684
1001
ACDBBLOCKREPETAG
1070
     1
1071
        4
1005
12C8FF
  0
ARC
  5
12C900
  8
OBJECT
 10
10000.0
 20
-1353.9999999999959
 30
0.0
 40
61.0
 50
160.03737312997501
 51
199.96262687002491
1001
ACDBBLOCKREPETAG
1070
     1
1071
        5
1005
12C900
  0
ARC
  5
12C901
  8
OBJECT
 10
10000.0
 20
-1353.9999999999959
 30
0.0
 40
61.0
 50
280.03737312998732
 51
319.9626268700186
1001
ACDBBLOCKREPETAG
1070
     1
1071
        6
1005
12C901
  0
CIRCLE
  5
12C902
  8
SLIM
 10
10064.0
 20
-1353.9999999999959
 30
0.0
 40
5.0
1001
ACDBBLOCKREPETAG
1070
     1
1071
        7
1005
12C902
  0
ARC
  5
12C903
  8
OBJECT
 10
10064.0
 20
-1353.9999999999959
 30
0.0
 40
12.0
 50
319.9626268700186
 51
40.03737312998139
1001
ACDBBLOCKREPETAG
1070
     1
1071
        8
1005
12C903
  0
LINE
  5
12C904
  8
OBJECT
 10
10046.703125
 20
-1314.7594837542269
 30
0.0
 11
10073.1875
 21
-1346.280554181157
 31
0.0
1001
ACDBBLOCKREPETAG
1070
     1
1071
        9
1005
12C904
  0
LINE
  5
12C905
  8
OBJECT
 10
10046.703125
 20
-1393.2405162457651
 30
0.0
 11
10073.1875
 21
-1361.7194458188351
 31
0.0
1001
ACDBBLOCKREPETAG
1070
     1
1071
       10
1005
12C905
  0
POLYLINE
  5
12C906
  8
SLIM
 66
     1
 10
0.0
 20
0.0
 30
0.0
 70
     1
1001
ACDBBLOCKREPETAG
1070
     1
1071
       11
1005
12C906
  0
VERTEX
  5
12D45B
  8
SLIM
 10
10059.092522711881
 20
-1345.4999999999959
 30
0.0
  0
VERTEX
  5
12D45C
  8
SLIM
 10
10054.18504542377
 20
-1353.9999999999959
 30
0.0
  0
VERTEX
  5
12D45D
  8
SLIM
 10
10059.092522711881
 20
-1362.4999999999959
 30
0.0
  0
VERTEX
  5
12D45E
  8
SLIM
 10
10068.907477288099
 20
-1362.4999999999959
 30
0.0
  0
VERTEX
  5
12D45F
  8
SLIM
 10
10073.814954576221
 20
-1353.9999999999959
 30
0.0
  0
VERTEX
  5
12D460
  8
SLIM
 10
10068.907477288099
 20
-1345.4999999999959
 30
0.0
  0
SEQEND
  5
12D461
  8
SLIM
  0
CIRCLE
  5
12C907
  8
SLIM
 10
9968.0
 20
-1298.574374157789
 30
0.0
 40
4.9999999999999991
1001
ACDBBLOCKREPETAG
1070
     1
1071
       12
1005
12C907
  0
ARC
  5
12C908
  8
OBJECT
 10
9968.0
 20
-1298.574374157789
 30
0.0
 40
12.0
 50
79.962626870012684
 51
160.03737312997501
1001
ACDBBLOCKREPETAG
1070
     1
1071
       13
1005
12C908
  0
LINE
  5
12C909
  8
OBJECT
 10
9942.6651535735436
 20
-1333.174165436757
 30
0.0
 11
9956.7210138177488
 21
-1294.4774886699411
 31
0.0
1001
ACDBBLOCKREPETAG
1070
     1
1071
       14
1005
12C909
  0
LINE
  5
12C90A
  8
OBJECT
 10
10010.631721426451
 20
-1293.9336491909919
 30
0.0
 11
9970.091486182253
 21
-1286.7580428511019
 31
0.0
1001
ACDBBLOCKREPETAG
1070
     1
1071
       15
1005
12C90A
  0
POLYLINE
  5
12C90B
  8
SLIM
 66
     1
 10
0.0
 20
0.0
 30
0.0
 70
     1
1001
ACDBBLOCKREPETAG
1070
     1
1071
       16
1005
12C90B
  0
VERTEX
  5
12D462
  8
SLIM
 10
9963.0925227118896
 20
-1307.074374157789
 30
0.0
  0
VERTEX
  5
12D463
  8
SLIM
 10
9972.9074772881177
 20
-1307.074374157793
 30
0.0
  0
VERTEX
  5
12D464
  8
SLIM
 10
9977.814954576219
 20
-1298.574374157789
 30
0.0
  0
VERTEX
  5
12D465
  8
SLIM
 10
9972.9074772881177
 20
-1290.074374157793
 30
0.0
  0
VERTEX
  5
12D466
  8
SLIM
 10
9963.0925227118896
 20
-1290.074374157789
 30
0.0
  0
VERTEX
  5
12D467
  8
SLIM
 10
9958.1850454237738
 20
-1298.574374157793
 30
0.0
  0
SEQEND
  5
12D468
  8
SLIM
  0
CIRCLE
  5
12C90C
  8
SLIM
 10
9968.0
 20
-1409.425625842199
 30
0.0
 40
5.0
1001
ACDBBLOCKREPETAG
1070
     1
1071
       17
1005
12C90C
  0
ARC
  5
12C90D
  8
OBJECT
 10
9968.0
 20
-1409.425625842199
 30
0.0
 40
12.0
 50
199.96262687002491
 51
280.03737312998732
1001
ACDBBLOCKREPETAG
1070
     1
1071
       18
1005
12C90D
  0
LINE
  5
12C90E
  8
OBJECT
 10
10010.631721426451
 20
-1414.066350808999
 30
0.0
 11
9970.091486182253
 21
-1421.241957148889
 31
0.0
1001
ACDBBLOCKREPETAG
1070
     1
1071
       19
1005
12C90E
  0
LINE
  5
12C90F
  8
OBJECT
 10
9942.6651535735436
 20
-1374.825834563231
 30
0.0
 11
9956.7210138177488
 21
-1413.5225113300501
 31
0.0
1001
ACDBBLOCKREPETAG
1070
     1
1071
       20
1005
12C90F
  0
POLYLINE
  5
12C910
  8
SLIM
 66
     1
 10
0.0
 20
0.0
 30
0.0
 70
     1
1001
ACDBBLOCKREPETAG
1070
     1
1071
       21
1005
12C910
  0
VERTEX
  5
12D469
  8
SLIM
 10
9977.814954576219
 20
-1409.425625842199
 30
0.0
  0
VERTEX
  5
12D46A
  8
SLIM
 10
9972.9074772881049
 20
-1400.925625842199
 30
0.0
  0
VERTEX
  5
12D46B
  8
SLIM
 10
9963.0925227118896
 20
-1400.925625842199
 30
0.0
  0
VERTEX
  5
12D46C
  8
SLIM
 10
9958.1850454237738
 20
-1409.425625842199
 30
0.0
  0
VERTEX
  5
12D46D
  8
SLIM
 10
9963.0925227118896
 20
-1417.925625842199
 30
0.0
  0
VERTEX
  5
12D46E
  8
SLIM
 10
9972.9074772881177
 20
-1417.925625842199
 30
0.0
  0
SEQEND
  5
12D46F
  8
SLIM
  0
LINE
  5
12C911
  8
CENTER
 10
5924.0
 20
-1394.9999999999991
 30
0.0
 11
6091.0
 21
-1394.9999999999991
 31
0.0
1001
ACDBBLOCKREPETAG
1070
     1
1071
       22
1005
12C911
  0
LINE
  5
12C912
  8
CENTER
 10
6000.0
 20
-1318.0518385105161
 30
0.0
 11
6000.0
 21
-1471.948161489478
 31
0.0
1001
ACDBBLOCKREPETAG
1070
     1
1071
       23
1005
12C912
  0
CIRCLE
  5
12C913
  8
OBJECT
 10
6000.0
 20
-1394.9999999999991
 30
0.0
 40
37.5
1001
ACDBBLOCKREPETAG
1070
     1
1071
       24
1005
12C913
  0
CIRCLE
  5
12C914
  8
OBJECT
 10
6000.0
 20
-1394.9999999999991
 30
0.0
 40
47.5
1001
ACDBBLOCKREPETAG
1070
     1
1071
       25
1005
12C914
  0
ARC
  5
12C915
  8
OBJECT
 10
6000.0
 20
-1394.9999999999991
 30
0.0
 40
61.0
 50
40.03737312998139
 51
79.962626870012684
1001
ACDBBLOCKREPETAG
1070
     1
1071
       26
1005
12C915
  0
ARC
  5
12C916
  8
OBJECT
 10
6000.0
 20
-1394.9999999999991
 30
0.0
 40
61.0
 50
160.03737312997501
 51
199.96262687002491
1001
ACDBBLOCKREPETAG
1070
     1
1071
       27
1005
12C916
  0
ARC
  5
12C917
  8
OBJECT
 10
6000.0
 20
-1394.9999999999991
 30
0.0
 40
61.0
 50
280.03737312998732
 51
319.9626268700186
1001
ACDBBLOCKREPETAG
1070
     1
1071
       28
1005
12C917
  0
ARC
  5
12C918
  8
OBJECT
 10
6064.0
 20
-1394.9999999999991
 30
0.0
 40
12.0
 50
319.9626268700186
 51
40.03737312998139
1001
ACDBBLOCKREPETAG
1070
     1
1071
       29
1005
12C918
  0
LINE
  5
12C919
  8
OBJECT
 10
6046.703125
 20
-1355.7594837542299
 30
0.0
 11
6073.1875
 21
-1387.2805541811599
 31
0.0
1001
ACDBBLOCKREPETAG
1070
     1
1071
       30
1005
12C919
  0
LINE
  5
12C91A
  8
OBJECT
 10
6046.703125
 20
-1434.240516245768
 30
0.0
 11
6073.1875
 21
-1402.719445818838
 31
0.0
1001
ACDBBLOCKREPETAG
1070
     1
1071
       31
1005
12C91A
  0
CIRCLE
  5
12C91B
  8
OBJECT
 10
6000.0
 20
-1394.9999999999991
 30
0.0
 40
55.0
1001
ACDBBLOCKREPETAG
1070
     1
1071
       32
1005
12C91B
  0
ARC
  5
12C91C
  8
OBJECT
 10
6064.0
 20
-1394.9999999999991
 30
0.0
 40
12.0
 50
271.2434956101261
 51
88.756504389873882
1001
ACDBBLOCKREPETAG
1070
     1
1071
       33
1005
12C91C
  0
ARC
  5
12C91D
  8
OBJECT
 10
6064.5859375
 20
-1368.0063585775049
 30
0.0
 40
15.0
 50
202.68245018366949
 51
268.7565043898739
1001
ACDBBLOCKREPETAG
1070
     1
1071
       34
1005
12C91D
  0
CIRCLE
  5
12C91E
  8
SLIM
 10
6064.0
 20
-1394.9999999999991
 30
0.0
 40
8.0
1001
ACDBBLOCKREPETAG
1070
     1
1071
       35
1005
12C91E
  0
POLYLINE
  5
12C91F
  8
SLIM
 66
     1
 10
0.0
 20
0.0
 30
0.0
 70
     1
1001
ACDBBLOCKREPETAG
1070
     1
1071
       36
1005
12C91F
  0
VERTEX
  5
12D470
  8
SLIM
 10
6061.69059892324
 20
-1390.9999999999991
 30
0.0
  0
VERTEX
  5
12D471
  8
SLIM
 10
6059.3811978464846
 20
-1394.9999999999991
 30
0.0
  0
VERTEX
  5
12D472
  8
SLIM
 10
6061.69059892324
 20
-1398.9999999999991
 30
0.0
  0
VERTEX
  5
12D473
  8
SLIM
 10
6066.30940107676
 20
-1398.9999999999991
 30
0.0
  0
VERTEX
  5
12D474
  8
SLIM
 10
6068.6188021535154
 20
-1394.9999999999991
 30
0.0
  0
VERTEX
  5
12D475
  8
SLIM
 10
6066.30940107676
 20
-1390.9999999999991
 30
0.0
  0
SEQEND
  5
12D476
  8
SLIM
  0
ARC
  5
12C920
  8
OBJECT
 10
6064.5859375
 20
-1421.993641422489
 30
0.0
 40
15.0
 50
91.243495610126089
 51
157.3175498163304
1001
ACDBBLOCKREPETAG
1070
     1
1071
       37
1005
12C920
  0
ARC
  5
12C921
  8
OBJECT
 10
5968.0
 20
-1339.5743741577919
 30
0.0
 40
12.0
 50
79.962626870012684
 51
160.03737312997501
1001
ACDBBLOCKREPETAG
1070
     1
1071
       38
1005
12C921
  0
LINE
  5
12C922
  8
OBJECT
 10
5942.6651535735473
 20
-1374.1741654367599
 30
0.0
 11
5956.721013817747
 21
-1335.477488669944
 31
0.0
1001
ACDBBLOCKREPETAG
1070
     1
1071
       39
1005
12C922
  0
LINE
  5
12C923
  8
OBJECT
 10
6010.6317214264518
 20
-1334.9336491909951
 30
0.0
 11
5970.091486182253
 21
-1327.7580428511051
 31
0.0
1001
ACDBBLOCKREPETAG
1070
     1
1071
       40
1005
12C923
  0
ARC
  5
12C924
  8
OBJECT
 10
5968.0
 20
-1339.5743741577919
 30
0.0
 40
12.0
 50
31.243495610056922
 51
208.7565043898139
1001
ACDBBLOCKREPETAG
1070
     1
1071
       41
1005
12C924
  0
ARC
  5
12C925
  8
OBJECT
 10
5944.3298520374738
 20
-1352.5637581090109
 30
0.0
 40
15.0
 50
322.68245018387239
 51
28.756504389813902
1001
ACDBBLOCKREPETAG
1070
     1
1071
       42
1005
12C925
  0
CIRCLE
  5
12C926
  8
SLIM
 10
5968.0
 20
-1339.5743741577919
 30
0.0
 40
7.9999999999999982
1001
ACDBBLOCKREPETAG
1070
     1
1071
       43
1005
12C926
  0
POLYLINE
  5
12C927
  8
SLIM
 66
     1
 10
0.0
 20
0.0
 30
0.0
 70
     1
1001
ACDBBLOCKREPETAG
1070
     1
1071
       44
1005
12C927
  0
VERTEX
  5
12D477
  8
SLIM
 10
5965.6905989232419
 20
-1343.574374157796
 30
0.0
  0
VERTEX
  5
12D478
  8
SLIM
 10
5970.30940107676
 20
-1343.574374157793
 30
0.0
  0
VERTEX
  5
12D479
  8
SLIM
 10
5972.6188021535154
 20
-1339.574374157796
 30
0.0
  0
VERTEX
  5
12D47A
  8
SLIM
 10
5970.3094010767572
 20
-1335.574374157793
 30
0.0
  0
VERTEX
  5
12D47B
  8
SLIM
 10
5965.6905989232419
 20
-1335.574374157796
 30
0.0
  0
VERTEX
  5
12D47C
  8
SLIM
 10
5963.3811978464846
 20
-1339.5743741577919
 30
0.0
  0
SEQEND
  5
12D47D
  8
SLIM
  0
ARC
  5
12C928
  8
OBJECT
 10
5991.0842104625253
 20
-1325.5701166865169
 30
0.0
 40
15.0
 50
211.2434956100569
 51
277.31754981622862
1001
ACDBBLOCKREPETAG
1070
     1
1071
       45
1005
12C928
  0
ARC
  5
12C929
  8
OBJECT
 10
5968.0
 20
-1450.425625842202
 30
0.0
 40
12.0
 50
199.96262687002491
 51
280.03737312998732
1001
ACDBBLOCKREPETAG
1070
     1
1071
       46
1005
12C929
  0
LINE
  5
12C92A
  8
OBJECT
 10
6010.6317214264518
 20
-1455.0663508090031
 30
0.0
 11
5970.091486182253
 21
-1462.241957148892
 31
0.0
1001
ACDBBLOCKREPETAG
1070
     1
1071
       47
1005
12C92A
  0
LINE
  5
12C92B
  8
OBJECT
 10
5942.6651535735473
 20
-1415.8258345632339
 30
0.0
 11
5956.721013817747
 21
-1454.5225113300539
 31
0.0
1001
ACDBBLOCKREPETAG
1070
     1
1071
       48
1005
12C92B
  0
ARC
  5
12C92C
  8
OBJECT
 10
5968.0
 20
-1450.425625842202
 30
0.0
 40
12.0
 50
151.2434956101861
 51
328.75650438994307
1001
ACDBBLOCKREPETAG
1070
     1
1071
       49
1005
12C92C
  0
ARC
  5
12C92D
  8
OBJECT
 10
5991.0842104625253
 20
-1464.4298833134769
 30
0.0
 40
15.0
 50
82.682450183771394
 51
148.75650438994299
1001
ACDBBLOCKREPETAG
1070
     1
1071
       50
1005
12C92D
  0
CIRCLE
  5
12C92E
  8
SLIM
 10
5968.0
 20
-1450.425625842202
 30
0.0
 40
8.0
1001
ACDBBLOCKREPETAG
1070
     1
1071
       51
1005
12C92E
  0
POLYLINE
  5
12C92F
  8
SLIM
 66
     1
 10
0.0
 20
0.0
 30
0.0
 70
     1
1001
ACDBBLOCKREPETAG
1070
     1
1071
       52
1005
12C92F
  0
VERTEX
  5
12D47E
  8
SLIM
 10
5972.6188021535154
 20
-1450.425625842202
 30
0.0
  0
VERTEX
  5
12D47F
  8
SLIM
 10
5970.3094010767572
 20
-1446.425625842202
 30
0.0
  0
VERTEX
  5
12D480
  8
SLIM
 10
5965.6905989232419
 20
-1446.425625842202
 30
0.0
  0
VERTEX
  5
12D481
  8
SLIM
 10
5963.3811978464846
 20
-1450.425625842202
 30
0.0
  0
VERTEX
  5
12D482
  8
SLIM
 10
5965.69059892324
 20
-1454.425625842202
 30
0.0
  0
VERTEX
  5
12D483
  8
SLIM
 10
5970.3094010767572
 20
-1454.425625842202
 30
0.0
  0
SEQEND
  5
12D484
  8
SLIM
  0
ARC
  5
12C930
  8
OBJECT
 10
5944.3298520374738
 20
-1437.436241890987
 30
0.0
 40
15.0
 50
331.24349561018607
 51
37.317549816127681
1001
ACDBBLOCKREPETAG
1070
     1
1071
       53
1005
12C930
  0
LINE
  5
12C931
  8
CENTER
 10
3924.0
 20
-1353.9999999999959
 30
0.0
 11
4091.0
 21
-1353.9999999999959
 31
0.0
1001
ACDBBLOCKREPETAG
1070
     1
1071
        0
1005
12C931
  0
LINE
  5
12C932
  8
CENTER
 10
4000.0
 20
-1277.0518385105131
 30
0.0
 11
4000.0
 21
-1430.9481614894751
 31
0.0
1001
ACDBBLOCKREPETAG
1070
     1
1071
        1
1005
12C932
  0
CIRCLE
  5
12C933
  8
OBJECT
 10
4000.0
 20
-1353.9999999999959
 30
0.0
 40
37.5
1001
ACDBBLOCKREPETAG
1070
     1
1071
        2
1005
12C933
  0
CIRCLE
  5
12C934
  8
OBJECT
 10
4000.0
 20
-1353.9999999999959
 30
0.0
 40
49.5
1001
ACDBBLOCKREPETAG
1070
     1
1071
        3
1005
12C934
  0
ARC
  5
12C935
  8
OBJECT
 10
4000.0
 20
-1353.9999999999959
 30
0.0
 40
61.0
 50
40.03737312998139
 51
79.962626870012684
1001
ACDBBLOCKREPETAG
1070
     1
1071
        4
1005
12C935
  0
ARC
  5
12C936
  8
OBJECT
 10
4000.0
 20
-1353.9999999999959
 30
0.0
 40
61.0
 50
160.03737312997501
 51
199.96262687002491
1001
ACDBBLOCKREPETAG
1070
     1
1071
        5
1005
12C936
  0
ARC
  5
12C937
  8
OBJECT
 10
4000.0
 20
-1353.9999999999959
 30
0.0
 40
61.0
 50
280.03737312998732
 51
319.9626268700186
1001
ACDBBLOCKREPETAG
1070
     1
1071
        6
1005
12C937
  0
CIRCLE
  5
12C938
  8
SLIM
 10
4064.0
 20
-1353.9999999999959
 30
0.0
 40
5.0
1001
ACDBBLOCKREPETAG
1070
     1
1071
        7
1005
12C938
  0
ARC
  5
12C939
  8
OBJECT
 10
4064.0
 20
-1353.9999999999959
 30
0.0
 40
12.0
 50
319.9626268700186
 51
40.03737312998139
1001
ACDBBLOCKREPETAG
1070
     1
1071
        8
1005
12C939
  0
LINE
  5
12C93A
  8
OBJECT
 10
4046.7031249999982
 20
-1314.7594837542269
 30
0.0
 11
4073.1875
 21
-1346.280554181157
 31
0.0
1001
ACDBBLOCKREPETAG
1070
     1
1071
        9
1005
12C93A
  0
LINE
  5
12C93B
  8
OBJECT
 10
4046.7031249999982
 20
-1393.2405162457651
 30
0.0
 11
4073.1875
 21
-1361.7194458188351
 31
0.0
1001
ACDBBLOCKREPETAG
1070
     1
1071
       10
1005
12C93B
  0
POLYLINE
  5
12C93C
  8
SLIM
 66
     1
 10
0.0
 20
0.0
 30
0.0
 70
     1
1001
ACDBBLOCKREPETAG
1070
     1
1071
       11
1005
12C93C
  0
VERTEX
  5
12D485
  8
SLIM
 10
4059.0925227118851
 20
-1345.4999999999959
 30
0.0
  0
VERTEX
  5
12D486
  8
SLIM
 10
4054.1850454237701
 20
-1353.9999999999959
 30
0.0
  0
VERTEX
  5
12D487
  8
SLIM
 10
4059.0925227118851
 20
-1362.4999999999959
 30
0.0
  0
VERTEX
  5
12D488
  8
SLIM
 10
4068.9074772881072
 20
-1362.4999999999959
 30
0.0
  0
VERTEX
  5
12D489
  8
SLIM
 10
4073.8149545762199
 20
-1353.9999999999959
 30
0.0
  0
VERTEX
  5
12D48A
  8
SLIM
 10
4068.9074772881072
 20
-1345.4999999999959
 30
0.0
  0
SEQEND
  5
12D48B
  8
SLIM
  0
CIRCLE
  5
12C93D
  8
SLIM
 10
3968.0
 20
-1298.574374157789
 30
0.0
 40
4.9999999999999991
1001
ACDBBLOCKREPETAG
1070
     1
1071
       12
1005
12C93D
  0
ARC
  5
12C93E
  8
OBJECT
 10
3968.0
 20
-1298.574374157789
 30
0.0
 40
12.0
 50
79.962626870012684
 51
160.03737312997501
1001
ACDBBLOCKREPETAG
1070
     1
1071
       13
1005
12C93E
  0
LINE
  5
12C93F
  8
OBJECT
 10
3942.6651535735441
 20
-1333.174165436757
 30
0.0
 11
3956.721013817747
 21
-1294.4774886699411
 31
0.0
1001
ACDBBLOCKREPETAG
1070
     1
1071
       14
1005
12C93F
  0
LINE
  5
12C940
  8
OBJECT
 10
4010.6317214264491
 20
-1293.9336491909919
 30
0.0
 11
3970.091486182253
 21
-1286.7580428511019
 31
0.0
1001
ACDBBLOCKREPETAG
1070
     1
1071
       15
1005
12C940
  0
POLYLINE
  5
12C941
  8
SLIM
 66
     1
 10
0.0
 20
0.0
 30
0.0
 70
     1
1001
ACDBBLOCKREPETAG
1070
     1
1071
       16
1005
12C941
  0
VERTEX
  5
12D48C
  8
SLIM
 10
3963.092522711886
 20
-1307.074374157789
 30
0.0
  0
VERTEX
  5
12D48D
  8
SLIM
 10
3972.907477288114
 20
-1307.074374157793
 30
0.0
  0
VERTEX
  5
12D48E
  8
SLIM
 10
3977.8149545762212
 20
-1298.574374157789
 30
0.0
  0
VERTEX
  5
12D48F
  8
SLIM
 10
3972.907477288114
 20
-1290.074374157793
 30
0.0
  0
VERTEX
  5
12D490
  8
SLIM
 10
3963.092522711886
 20
-1290.074374157789
 30
0.0
  0
VERTEX
  5
12D491
  8
SLIM
 10
3958.185045423772
 20
-1298.574374157793
 30
0.0
  0
SEQEND
  5
12D492
  8
SLIM
  0
CIRCLE
  5
12C942
  8
SLIM
 10
3968.0
 20
-1409.425625842199
 30
0.0
 40
5.0
1001
ACDBBLOCKREPETAG
1070
     1
1071
       17
1005
12C942
  0
ARC
  5
12C943
  8
OBJECT
 10
3968.0
 20
-1409.425625842199
 30
0.0
 40
12.0
 50
199.96262687002491
 51
280.03737312998732
1001
ACDBBLOCKREPETAG
1070
     1
1071
       18
1005
12C943
  0
LINE
  5
12C944
  8
OBJECT
 10
4010.6317214264491
 20
-1414.066350808999
 30
0.0
 11
3970.091486182253
 21
-1421.241957148889
 31
0.0
1001
ACDBBLOCKREPETAG
1070
     1
1071
       19
1005
12C944
  0
LINE
  5
12C945
  8
OBJECT
 10
3942.6651535735441
 20
-1374.825834563231
 30
0.0
 11
3956.721013817747
 21
-1413.5225113300501
 31
0.0
1001
ACDBBLOCKREPETAG
1070
     1
1071
       20
1005
12C945
  0
POLYLINE
  5
12C946
  8
SLIM
 66
     1
 10
0.0
 20
0.0
 30
0.0
 70
     1
1001
ACDBBLOCKREPETAG
1070
     1
1071
       21
1005
12C946
  0
VERTEX
  5
12D493
  8
SLIM
 10
3977.8149545762212
 20
-1409.425625842199
 30
0.0
  0
VERTEX
  5
12D494
  8
SLIM
 10
3972.9074772881072
 20
-1400.925625842199
 30
0.0
  0
VERTEX
  5
12D495
  8
SLIM
 10
3963.092522711886
 20
-1400.925625842199
 30
0.0
  0
VERTEX
  5
12D496
  8
SLIM
 10
3958.185045423772
 20
-1409.425625842199
 30
0.0
  0
VERTEX
  5
12D497
  8
SLIM
 10
3963.092522711886
 20
-1417.925625842199
 30
0.0
  0
VERTEX
  5
12D498
  8
SLIM
 10
3972.907477288114
 20
-1417.925625842199
 30
0.0
  0
SEQEND
  5
12D499
  8
SLIM
  0
LINE
  5
12C947
  8
OBJECT
 10
2044.5
 20
-1079.999999999992
 30
0.0
 11
1955.5
 21
-1079.999999999992
 31
0.0
1001
ACDBBLOCKREPETAG
1070
     1
1071
        0
1005
12C947
  0
LINE
  5
12C948
  8
OBJECT
 10
1935.0
 20
-869.99999999999216
 30
0.0
 11
1935.0
 21
-769.99999999999204
 31
0.0
1001
ACDBBLOCKREPETAG
1070
     1
1071
        1
1005
12C948
  0
LINE
  5
12C949
  8
OBJECT
 10
2065.0
 20
-869.99999999999216
 30
0.0
 11
2065.0
 21
-769.99999999999204
 31
0.0
1001
ACDBBLOCKREPETAG
1070
     1
1071
        2
1005
12C949
  0
LINE
  5
12C94A
  8
OBJECT
 10
1935.0
 20
-869.99999999999216
 30
0.0
 11
2065.0
 21
-869.99999999999216
 31
0.0
1001
ACDBBLOCKREPETAG
1070
     1
1071
        3
1005
12C94A
  0
LINE
  5
12C94B
  8
OBJECT
 10
1955.5
 20
-979.99999999999204
 30
0.0
 11
2044.5
 21
-979.99999999999204
 31
0.0
1001
ACDBBLOCKREPETAG
1070
     1
1071
        4
1005
12C94B
  0
LINE
  5
12C94C
  8
OBJECT
 10
1955.5
 20
-979.99999999999204
 30
0.0
 11
1955.5
 21
-1079.999999999992
 31
0.0
1001
ACDBBLOCKREPETAG
1070
     1
1071
        5
1005
12C94C
  0
LINE
  5
12C94D
  8
OBJECT
 10
2044.5
 20
-979.99999999999204
 30
0.0
 11
2044.5
 21
-1079.999999999992
 31
0.0
1001
ACDBBLOCKREPETAG
1070
     1
1071
        6
1005
12C94D
  0
LINE
  5
12C94E
  8
OBJECT
 10
1935.0
 20
-869.99999999999216
 30
0.0
 11
1955.5
 21
-979.99999999999204
 31
0.0
1001
ACDBBLOCKREPETAG
1070
     1
1071
        7
1005
12C94E
  0
LINE
  5
12C94F
  8
OBJECT
 10
2044.5
 20
-979.99999999999204
 30
0.0
 11
2065.0
 21
-869.99999999999216
 31
0.0
1001
ACDBBLOCKREPETAG
1070
     1
1071
        8
1005
12C94F
  0
LINE
  5
12C950
  8
HIDDEN
 10
1962.5
 20
-979.99999999999204
 30
0.0
 11
1962.5
 21
-1079.999999999992
 31
0.0
1001
ACDBBLOCKREPETAG
1070
     1
1071
        9
1005
12C950
  0
LINE
  5
12C951
  8
HIDDEN
 10
2037.5
 20
-979.99999999999204
 30
0.0
 11
2037.5
 21
-1079.999999999992
 31
0.0
1001
ACDBBLOCKREPETAG
1070
     1
1071
       10
1005
12C951
  0
LINE
  5
12C952
  8
CENTER
 10
2000.0
 20
-769.99999999999955
 30
0.0
 11
2000.0
 21
-1094.999999999992
 31
0.0
1001
ACDBBLOCKREPETAG
1070
     1
1071
       11
1005
12C952
  0
LINE
  5
12C953
  8
OBJECT
 10
1807.0000000000141
 20
-582.99999999999955
 30
0.0
 11
1800.0000000000141
 21
-582.99999999999955
 31
0.0
1001
ACDBBLOCKREPETAG
1070
     1
1071
      324
1005
12C953
  0
LINE
  5
12C954
  8
OBJECT
 10
1800.0000000000141
 20
-582.99999999999955
 30
0.0
 11
1800.0000000000141
 21
-706.99999999999955
 31
0.0
1001
ACDBBLOCKREPETAG
1070
     1
1071
      325
1005
12C954
  0
LINE
  5
12C955
  8
OBJECT
 10
1924.000000000015
 20
-653.35026377572683
 30
0.0
 11
1924.000000000015
 21
-755.00000000000034
 31
0.0
1001
ACDBBLOCKREPETAG
1070
     1
1071
      326
1005
12C955
  0
LINE
  5
12C956
  8
OBJECT
 10
1800.0000000000141
 20
-706.99999999999955
 30
0.0
 11
1807.0000000000141
 21
-706.99999999999955
 31
0.0
1001
ACDBBLOCKREPETAG
1070
     1
1071
      327
1005
12C956
  0
LINE
  5
12C957
  8
OBJECT
 10
1807.0000000000141
 20
-706.99999999999955
 30
0.0
 11
1807.0000000000141
 21
-582.99999999999955
 31
0.0
1001
ACDBBLOCKREPETAG
1070
     1
1071
      328
1005
12C957
  0
LINE
  5
12C958
  8
CENTER
 10
1875.0000000000141
 20
-645.00000000000045
 30
0.0
 11
1785.000000000015
 21
-644.99999999999955
 31
0.0
1001
ACDBBLOCKREPETAG
1070
     1
1071
      329
1005
12C958
  0
LINE
  5
12C959
  8
OBJECT
 10
1930.000000000018
 20
-757.99999999999955
 30
0.0
 11
1927.0000000000141
 21
-758.00000000000034
 31
0.0
1001
ACDBBLOCKREPETAG
1070
     1
1071
      330
1005
12C959
  0
ARC
  5
12C95A
  8
OBJECT
 10
1927.0000000000141
 20
-755.00000000000034
 30
0.0
 40
3.0
 50
180.0
 51
270.0
1001
ACDBBLOCKREPETAG
1070
     1
1071
      331
1005
12C95A
  0
LINE
  5
12C95B
  8
OBJECT
 10
1807.0000000000141
 20
-585.99999999999955
 30
0.0
 11
1843.0000000000141
 21
-586.00000000000045
 31
0.0
1001
ACDBBLOCKREPETAG
1070
     1
1071
      332
1005
12C95B
  0
LINE
  5
12C95C
  8
OBJECT
 10
1843.0000000000141
 20
-586.00000000000045
 30
0.0
 11
1843.0000000000141
 21
-704.00000000000045
 31
0.0
1001
ACDBBLOCKREPETAG
1070
     1
1071
      333
1005
12C95C
  0
LINE
  5
12C95D
  8
OBJECT
 10
1847.0000000000141
 20
-590.50000000000045
 30
0.0
 11
1847.0000000000141
 21
-699.50000000000045
 31
0.0
1001
ACDBBLOCKREPETAG
1070
     1
1071
      334
1005
12C95D
  0
LINE
  5
12C95E
  8
OBJECT
 10
1847.0000000000141
 20
-590.50000000000045
 30
0.0
 11
1860.000000000015
 21
-590.50000000000045
 31
0.0
1001
ACDBBLOCKREPETAG
1070
     1
1071
      335
1005
12C95E
  0
LINE
  5
12C95F
  8
OBJECT
 10
1843.0000000000141
 20
-704.00000000000045
 30
0.0
 11
1807.0000000000141
 21
-703.99999999999955
 31
0.0
1001
ACDBBLOCKREPETAG
1070
     1
1071
      336
1005
12C95F
  0
LINE
  5
12C960
  8
OBJECT
 10
1843.0000000000141
 20
-586.00000000000045
 30
0.0
 11
1847.0000000000141
 21
-590.50000000000045
 31
0.0
1001
ACDBBLOCKREPETAG
1070
     1
1071
      337
1005
12C960
  0
LINE
  5
12C961
  8
OBJECT
 10
1860.000000000015
 20
-590.50000000000045
 30
0.0
 11
1860.000000000015
 21
-675.7449182792875
 31
0.0
1001
ACDBBLOCKREPETAG
1070
     1
1071
      338
1005
12C961
  0
ARC
  5
12C962
  8
OBJECT
 10
1857.2000000000151
 20
-685.00000000000045
 30
0.0
 40
85.0
 50
36.869897645875277
 51
88.112268108168848
1001
ACDBBLOCKREPETAG
1070
     1
1071
      339
1005
12C962
  0
LINE
  5
12C963
  8
HIDDEN
 10
1852.0000000000141
 20
-600.50000000000057
 30
0.0
 11
1852.0000000000141
 21
-689.50000000000045
 31
0.0
1001
ACDBBLOCKREPETAG
1070
     1
1071
      341
1005
12C963
  0
LINE
  5
12C964
  8
OBJECT
 10
1924.000000000015
 20
-751.07945073181725
 30
0.0
 11
1853.368680078969
 21
-699.50000000000045
 31
0.0
1001
ACDBBLOCKREPETAG
1070
     1
1071
      342
1005
12C964
  0
LINE
  5
12C965
  8
OBJECT
 10
1930.000000000018
 20
-633.99999999999955
 30
0.0
 11
1925.2000000000151
 21
-633.99999999999955
 31
0.0
1001
ACDBBLOCKREPETAG
1070
     1
1071
      343
1005
12C965
  0
LINE
  5
12C966
  8
OBJECT
 10
1924.000000000015
 20
-653.35026377572945
 30
0.0
 11
1925.2000000000151
 21
-633.99999999999955
 31
0.0
1001
ACDBBLOCKREPETAG
1070
     1
1071
      344
1005
12C966
  0
LINE
  5
12C967
  8
OBJECT
 10
1847.0000000000141
 20
-699.50000000000045
 30
0.0
 11
1853.368680078969
 21
-699.50000000000045
 31
0.0
1001
ACDBBLOCKREPETAG
1070
     1
1071
      345
1005
12C967
  0
LINE
  5
12C968
  8
OBJECT
 10
1843.0000000000141
 20
-704.00000000000045
 30
0.0
 11
1847.0000000000141
 21
-699.50000000000045
 31
0.0
1001
ACDBBLOCKREPETAG
1070
     1
1071
      346
1005
12C968
  0
LINE
  5
12C969
  8
OBJECT
 10
1807.0000000000141
 20
-261.99999999999909
 30
0.0
 11
1800.0000000000141
 21
-261.99999999999909
 31
0.0
1001
ACDBBLOCKREPETAG
1070
     1
1071
      376
1005
12C969
  0
LINE
  5
12C96A
  8
OBJECT
 10
1800.0000000000141
 20
-261.99999999999909
 30
0.0
 11
1800.0000000000141
 21
-137.99999999999909
 31
0.0
1001
ACDBBLOCKREPETAG
1070
     1
1071
      377
1005
12C96A
  0
LINE
  5
12C96B
  8
OBJECT
 10
1800.0000000000141
 20
-137.99999999999909
 30
0.0
 11
1807.0000000000141
 21
-137.99999999999909
 31
0.0
1001
ACDBBLOCKREPETAG
1070
     1
1071
      378
1005
12C96B
  0
LINE
  5
12C96C
  8
OBJECT
 10
1807.0000000000141
 20
-137.99999999999909
 30
0.0
 11
1807.0000000000141
 21
-261.99999999999909
 31
0.0
1001
ACDBBLOCKREPETAG
1070
     1
1071
      379
1005
12C96C
  0
LINE
  5
12C96D
  8
CENTER
 10
1785.000000000015
 20
-199.99999999999909
 30
0.0
 11
1930.0
 21
-199.99999999999909
 31
0.0
1001
ACDBBLOCKREPETAG
1070
     1
1071
      380
1005
12C96D
  0
LINE
  5
12C96E
  8
OBJECT
 10
1860.000025035813
 20
-154.9999999999954
 30
0.0
 11
1924.0
 21
-154.99999999999909
 31
0.0
1001
ACDBBLOCKREPETAG
1070
     1
1071
      381
1005
12C96E
  0
LINE
  5
12C96F
  8
OBJECT
 10
1860.000025035813
 20
-244.99999999999909
 30
0.0
 11
1924.0
 21
-244.99999999999909
 31
0.0
1001
ACDBBLOCKREPETAG
1070
     1
1071
      382
1005
12C96F
  0
LINE
  5
12C970
  8
OBJECT
 10
1807.0000000000141
 20
-258.99999999999909
 30
0.0
 11
1843.0000000000141
 21
-258.99999999999909
 31
0.0
1001
ACDBBLOCKREPETAG
1070
     1
1071
      383
1005
12C970
  0
LINE
  5
12C971
  8
OBJECT
 10
1843.0000000000141
 20
-258.99999999999909
 30
0.0
 11
1843.0000000000141
 21
-140.99999999999909
 31
0.0
1001
ACDBBLOCKREPETAG
1070
     1
1071
      384
1005
12C971
  0
LINE
  5
12C972
  8
OBJECT
 10
1843.0000000000141
 20
-140.99999999999909
 30
0.0
 11
1807.0000000000141
 21
-140.99999999999909
 31
0.0
1001
ACDBBLOCKREPETAG
1070
     1
1071
      385
1005
12C972
  0
LINE
  5
12C973
  8
OBJECT
 10
1847.0000000000141
 20
-254.49999999999909
 30
0.0
 11
1860.000000000015
 21
-254.49999999999909
 31
0.0
1001
ACDBBLOCKREPETAG
1070
     1
1071
      386
1005
12C973
  0
LINE
  5
12C974
  8
OBJECT
 10
1860.000000000015
 20
-145.49999999999909
 30
0.0
 11
1847.0000000000141
 21
-145.49999999999909
 31
0.0
1001
ACDBBLOCKREPETAG
1070
     1
1071
      387
1005
12C974
  0
LINE
  5
12C975
  8
OBJECT
 10
1847.0000000000141
 20
-145.49999999999909
 30
0.0
 11
1847.0000000000141
 21
-254.49999999999909
 31
0.0
1001
ACDBBLOCKREPETAG
1070
     1
1071
      388
1005
12C975
  0
LINE
  5
12C976
  8
OBJECT
 10
1843.0000000000141
 20
-258.99999999999909
 30
0.0
 11
1847.0000000000141
 21
-254.49999999999909
 31
0.0
1001
ACDBBLOCKREPETAG
1070
     1
1071
      389
1005
12C976
  0
LINE
  5
12C977
  8
OBJECT
 10
1843.0000000000141
 20
-140.99999999999909
 30
0.0
 11
1847.0000000000141
 21
-145.49999999999909
 31
0.0
1001
ACDBBLOCKREPETAG
1070
     1
1071
      390
1005
12C977
  0
LINE
  5
12C978
  8
OBJECT
 10
1927.0
 20
-261.99999999999909
 30
0.0
 11
1930.0
 21
-261.99999999999909
 31
0.0
1001
ACDBBLOCKREPETAG
1070
     1
1071
      391
1005
12C978
  0
ARC
  5
12C979
  8
OBJECT
 10
1927.0
 20
-258.99999999999909
 30
0.0
 40
3.0
 50
180.0
 51
270.0
1001
ACDBBLOCKREPETAG
1070
     1
1071
      392
1005
12C979
  0
LINE
  5
12C97A
  8
OBJECT
 10
1930.0
 20
-137.99999999999909
 30
0.0
 11
1927.0
 21
-137.99999999999909
 31
0.0
1001
ACDBBLOCKREPETAG
1070
     1
1071
      393
1005
12C97A
  0
ARC
  5
12C97B
  8
OBJECT
 10
1927.0
 20
-140.99999999999909
 30
0.0
 40
3.0
 50
90.0
 51
180.0
1001
ACDBBLOCKREPETAG
1070
     1
1071
      394
1005
12C97B
  0
LINE
  5
12C97C
  8
OBJECT
 10
1924.0
 20
-140.99999999999909
 30
0.0
 11
1924.0
 21
-189.6772096796403
 31
0.0
1001
ACDBBLOCKREPETAG
1070
     1
1071
      395
1005
12C97C
  0
LINE
  5
12C97D
  8
OBJECT
 10
1924.0
 20
-210.3227903203578
 30
0.0
 11
1924.0
 21
-258.99999999999909
 31
0.0
1001
ACDBBLOCKREPETAG
1070
     1
1071
      396
1005
12C97D
  0
LINE
  5
12C97E
  8
HIDDEN
 10
1852.0000000000141
 20
-244.49999999999909
 30
0.0
 11
1852.0000000000141
 21
-155.49999999999909
 31
0.0
1001
ACDBBLOCKREPETAG
1070
     1
1071
      397
1005
12C97E
  0
LINE
  5
12C97F
  8
OBJECT
 10
1860.000025035813
 20
-145.50004907618759
 30
0.0
 11
1860.000025035813
 21
-254.50004907618771
 31
0.0
1001
ACDBBLOCKREPETAG
1070
     1
1071
      399
1005
12C97F
  0
ARC
  5
12C980
  8
OBJECT
 10
1880.199999999975
 20
-199.99999999999909
 30
0.0
 40
45.000000000000547
 50
270.0
 51
90.0
1001
ACDBBLOCKREPETAG
1070
     1
1071
      400
1005
12C980
  0
LINE
  5
12C981
  8
CENTER
 10
2000.0
 20
-290.99999999999898
 30
0.0
 11
2000.0
 21
-269.99999999999909
 31
0.0
1001
ACDBBLOCKREPETAG
1070
     1
1071
        0
1005
12C981
  0
LINE
  5
12C982
  8
OBJECT
 10
2062.0
 20
-273.0
 30
0.0
 11
2062.0
 21
-269.99999999999909
 31
0.0
1001
ACDBBLOCKREPETAG
1070
     1
1071
        1
1005
12C982
  0
ARC
  5
12C983
  8
OBJECT
 10
2059.0
 20
-273.0
 30
0.0
 40
3.0
 50
270.0
 51
0.0
1001
ACDBBLOCKREPETAG
1070
     1
1071
        2
1005
12C983
  0
LINE
  5
12C984
  8
OBJECT
 10
1938.0
 20
-269.99999999999909
 30
0.0
 11
1938.0
 21
-272.99999999999818
 31
0.0
1001
ACDBBLOCKREPETAG
1070
     1
1071
        3
1005
12C984
  0
ARC
  5
12C985
  8
OBJECT
 10
1941.0
 20
-272.99999999999818
 30
0.0
 40
3.0
 50
180.0
 51
270.0
1001
ACDBBLOCKREPETAG
1070
     1
1071
        4
1005
12C985
  0
LINE
  5
12C986
  8
OBJECT
 10
1941.0
 20
-275.99999999999818
 30
0.0
 11
2059.0
 21
-276.0
 31
0.0
1001
ACDBBLOCKREPETAG
1070
     1
1071
        5
1005
12C986
  0
LINE
  5
12C987
  8
DIM
 10
2140.0
 20
-3221.9999999999959
 30
0.0
 11
2218.4796205944581
 21
-3221.9999999999959
 31
0.0
  0
LINE
  5
12C988
  8
DIM
 10
2140.0
 20
-3127.9999999999959
 30
0.0
 11
2218.4796205944581
 21
-3127.9999999999959
 31
0.0
  0
LINE
  5
12C989
  8
DIM
 10
2208.4796205944581
 20
-3201.9999999999959
 30
0.0
 11
2208.4796205944581
 21
-3147.9999999999959
 31
0.0
  0
INSERT
  5
12C98A
  8
DIM
  2
_OPEN30
 10
2208.4796205944581
 20
-3221.9999999999959
 30
0.0
 41
20.0
 42
20.0
 43
20.0
 50
270.0
  0
INSERT
  5
12C98B
  8
DIM
  2
_OPEN30
 10
2208.4796205944581
 20
-3127.9999999999959
 30
0.0
 41
20.0
 42
20.0
 43
20.0
 50
90.0
  0
INSERT
  5
12C98C
  8
OBJECT
  2
*U320
 10
0.0
 20
0.0
 30
0.0
  0
LINE
  5
12C98D
  8
DIM
 10
2140.0
 20
-3579.9999999999968
 30
0.0
 11
2216.840928403733
 21
-3579.9999999999968
 31
0.0
  0
LINE
  5
12C98E
  8
DIM
 10
2155.0
 20
-3535.9999999999968
 30
0.0
 11
2216.840928403733
 21
-3535.9999999999968
 31
0.0
  0
LINE
  5
12C98F
  8
DIM
 10
2206.840928403733
 20
-3599.9999999999968
 30
0.0
 11
2206.840928403733
 21
-3619.9999999999968
 31
0.0
  0
LINE
  5
12C990
  8
DIM
 10
2206.840928403733
 20
-3515.9999999999968
 30
0.0
 11
2206.840928403733
 21
-3495.9999999999968
 31
0.0
  0
LINE
  5
12C991
  8
DIM
 10
2206.840928403733
 20
-3579.9999999999968
 30
0.0
 11
2206.840928403733
 21
-3535.9999999999968
 31
0.0
  0
INSERT
  5
12C992
  8
DIM
  2
_OPEN30
 10
2206.840928403733
 20
-3579.9999999999968
 30
0.0
 41
20.0
 42
20.0
 43
20.0
 50
90.0
  0
INSERT
  5
12C993
  8
DIM
  2
_OPEN30
 10
2206.840928403733
 20
-3535.9999999999968
 30
0.0
 41
20.0
 42
20.0
 43
20.0
 50
270.0
  0
INSERT
  5
12C994
  8
OBJECT
  2
*U321
 10
0.0
 20
0.0
 30
0.0
  0
LINE
  5
12C995
  8
DIM
 10
2000.0
 20
-3079.9999999999959
 30
0.0
 11
2000.0
 21
-3047.208121984444
 31
0.0
  0
LINE
  5
12C996
  8
DIM
 10
2130.0
 20
-3117.9999999999959
 30
0.0
 11
2130.0
 21
-3047.208121984444
 31
0.0
  0
LINE
  5
12C997
  8
DIM
 10
2020.0
 20
-3057.208121984444
 30
0.0
 11
2109.9999999999991
 21
-3057.208121984444
 31
0.0
  0
INSERT
  5
12C998
  8
DIM
  2
_OPEN30
 10
2000.0
 20
-3057.208121984444
 30
0.0
 41
20.0
 42
20.0
 43
20.0
 50
180.0
  0
INSERT
  5
12C999
  8
DIM
  2
_OPEN30
 10
2130.0
 20
-3057.208121984444
 30
0.0
 41
20.0
 42
20.0
 43
20.0
  0
INSERT
  5
12C99A
  8
OBJECT
  2
*U322
 10
0.0
 20
0.0
 30
0.0
  0
TEXT
  5
12C99B
  8
SLIM
 10
2631.0
 20
-2952.50001604727
 30
0.0
 40
40.0
  1
C寸法
 41
0.75
  0
TEXT
  5
12C99C
  8
SLIM
 10
2631.0
 20
-2882.50001604727
 30
0.0
 40
40.0
  1
B寸法
 41
0.75
  0
TEXT
  5
12C99D
  8
SLIM
 10
2630.2857142857142
 20
-2812.50001604727
 30
0.0
 40
40.0
  1
A寸法
 41
0.75
  0
TEXT
  5
12C99E
  8
SLIM
 10
3029.2857142857151
 20
-2952.50001604727
 30
0.0
 40
40.0
  1
130
 41
0.75
  0
TEXT
  5
12C99F
  8
SLIM
 10
2769.2857142857151
 20
-2952.50001604727
 30
0.0
 40
40.0
  1
130
 41
0.75
  0
TEXT
  5
12C9A0
  8
SLIM
 10
2899.2857142857151
 20
-2952.50001604727
 30
0.0
 40
40.0
  1
130
 41
0.75
  0
TEXT
  5
12C9A1
  8
SLIM
 10
3041.4285714285711
 20
-2882.50001604727
 30
0.0
 40
40.0
  1
59
 41
0.75
  0
TEXT
  5
12C9A2
  8
SLIM
 10
2780.0
 20
-2882.50001604727
 30
0.0
 40
40.0
  1
44
 41
0.75
  0
TEXT
  5
12C9A3
  8
SLIM
 10
2910.7142857142858
 20
-2882.50001604727
 30
0.0
 40
40.0
  1
52
 41
0.75
  0
TEXT
  5
12C9A4
  8
SLIM
 10
2831.0
 20
-2687.50001604727
 30
0.0
 40
40.0
  1
横枝管サイズ
 41
0.75
  0
TEXT
  5
12C9A5
  8
SLIM
 10
3014.857142857144
 20
-2742.50001604727
 30
0.0
 40
30.0
  1
75（3）
 41
0.75
  0
TEXT
  5
12C9A6
  8
SLIM
 10
2884.8571428571431
 20
-2742.50001604727
 30
0.0
 40
30.0
  1
65（2）
 41
0.75
  0
TEXT
  5
12C9A7
  8
SLIM
 10
2757.0
 20
-2742.50001604727
 30
0.0
 40
30.0
  1
50（1）
 41
0.75
  0
TEXT
  5
12C9A8
  8
SLIM
 10
3028.571428571428
 20
-2812.50001604727
 30
0.0
 40
40.0
  1
124
 41
0.75
  0
TEXT
  5
12C9A9
  8
SLIM
 10
2780.0
 20
-2812.50001604727
 30
0.0
 40
40.0
  1
94
 41
0.75
  0
TEXT
  5
12C9AA
  8
SLIM
 10
2902.1428571428569
 20
-2812.50001604727
 30
0.0
 40
40.0
  1
110
 41
0.75
  0
TEXT
  5
12C9AB
  8
SLIM
 10
1849.9999999999991
 20
-2712.5
 30
0.0
 40
75.0
  1
枝管サイズ毎の形状
 41
0.75
  0
TEXT
  5
12C9AC
  8
SLIM
 10
3894.25
 20
-3697.4999999999959
 30
0.0
 40
35.0
  1
通常枝75（3）
 41
0.75
  0
TEXT
  5
12C9AD
  8
SLIM
 10
2894.25
 20
-3697.4999999999959
 30
0.0
 40
35.0
  1
通常枝65（2）
 41
0.75
  0
CIRCLE
  5
12C9AE
  8
OBJECT
 10
2400.0
 20
-3520.9999999999968
 30
0.0
 40
62.0
1001
ACDBBLOCKREPETAG
1070
     1
1071
        3
1005
12C9AE
  0
LINE
  5
12C9AF
  8
CENTER
 10
2338.0
 20
-3535.9999999999968
 30
0.0
 11
2462.0
 21
-3535.9999999999968
 31
0.0
1001
ACDBBLOCKREPETAG
1070
     1
1071
        4
1005
12C9AF
  0
CIRCLE
  5
12C9B0
  8
OBJECT
 10
2400.0
 20
-3535.9999999999968
 30
0.0
 40
28.0
1001
ACDBBLOCKREPETAG
1070
     1
1071
        6
1005
12C9B0
  0
CIRCLE
  5
12C9B1
  8
OBJECT
 10
2400.0
 20
-3535.9999999999968
 30
0.0
 40
39.0
1001
ACDBBLOCKREPETAG
1070
     1
1071
        7
1005
12C9B1
  0
ARC
  5
12C9B2
  8
OBJECT
 10
2400.0
 20
-3535.9999999999968
 30
0.0
 40
47.0
 50
290.58196921144412
 51
249.41803078855591
1001
ACDBBLOCKREPETAG
1070
     1
1071
        8
1005
12C9B2
  0
LINE
  5
12C9B3
  8
OBJECT
 10
2383.4772883581431
 20
-3579.9999999999968
 30
0.0
 11
2416.5227116418569
 21
-3579.9999999999968
 31
0.0
1001
ACDBBLOCKREPETAG
1070
     1
1071
        9
1005
12C9B3
  0
LINE
  5
12C9B4
  8
OBJECT
 10
2123.0
 20
-3488.9999999999968
 30
0.0
 11
2130.0
 21
-3488.9999999999968
 31
0.0
1001
ACDBBLOCKREPETAG
1070
     1
1071
        7
1005
12C9B4
  0
LINE
  5
12C9B5
  8
OBJECT
 10
2130.0
 20
-3488.9999999999968
 30
0.0
 11
2130.0
 21
-3579.9999999999968
 31
0.0
1001
ACDBBLOCKREPETAG
1070
     1
1071
        8
1005
12C9B5
  0
LINE
  5
12C9B6
  8
OBJECT
 10
2123.0
 20
-3579.9999999999968
 30
0.0
 11
2123.0
 21
-3488.9999999999968
 31
0.0
1001
ACDBBLOCKREPETAG
1070
     1
1071
        9
1005
12C9B6
  0
LINE
  5
12C9B7
  8
CENTER
 10
2145.0
 20
-3535.9999999999968
 30
0.0
 11
2060.9999999999991
 21
-3535.9999999999968
 31
0.0
1001
ACDBBLOCKREPETAG
1070
     1
1071
       10
1005
12C9B7
  0
LINE
  5
12C9B8
  8
OBJECT
 10
2123.0
 20
-3491.9999999999968
 30
0.0
 11
2087.0
 21
-3491.9999999999968
 31
0.0
1001
ACDBBLOCKREPETAG
1070
     1
1071
       11
1005
12C9B8
  0
LINE
  5
12C9B9
  8
OBJECT
 10
2087.0
 20
-3491.9999999999968
 30
0.0
 11
2087.0
 21
-3579.9999999999968
 31
0.0
1001
ACDBBLOCKREPETAG
1070
     1
1071
       12
1005
12C9B9
  0
LINE
  5
12C9BA
  8
OBJECT
 10
2087.0
 20
-3579.9999999999968
 30
0.0
 11
2130.0
 21
-3579.9999999999968
 31
0.0
1001
ACDBBLOCKREPETAG
1070
     1
1071
       13
1005
12C9BA
  0
LINE
  5
12C9BB
  8
OBJECT
 10
2083.0
 20
-3496.4999999999968
 30
0.0
 11
2076.0
 21
-3496.4999999999968
 31
0.0
1001
ACDBBLOCKREPETAG
1070
     1
1071
       14
1005
12C9BB
  0
LINE
  5
12C9BC
  8
OBJECT
 10
2076.0
 20
-3575.4999999999968
 30
0.0
 11
2083.0
 21
-3575.4999999999968
 31
0.0
1001
ACDBBLOCKREPETAG
1070
     1
1071
       15
1005
12C9BC
  0
LINE
  5
12C9BD
  8
OBJECT
 10
2083.0
 20
-3575.4999999999968
 30
0.0
 11
2083.0
 21
-3496.4999999999968
 31
0.0
1001
ACDBBLOCKREPETAG
1070
     1
1071
       16
1005
12C9BD
  0
LINE
  5
12C9BE
  8
OBJECT
 10
2087.0
 20
-3491.9999999999968
 30
0.0
 11
2083.0
 21
-3496.4999999999968
 31
0.0
1001
ACDBBLOCKREPETAG
1070
     1
1071
       17
1005
12C9BE
  0
LINE
  5
12C9BF
  8
OBJECT
 10
2087.0
 20
-3579.9999999999968
 30
0.0
 11
2083.0
 21
-3575.4999999999968
 31
0.0
1001
ACDBBLOCKREPETAG
1070
     1
1071
       18
1005
12C9BF
  0
LINE
  5
12C9C0
  8
OBJECT
 10
2073.0
 20
-3458.9999999999968
 30
0.0
 11
2070.0
 21
-3458.9999999999968
 31
0.0
1001
ACDBBLOCKREPETAG
1070
     1
1071
       19
1005
12C9C0
  0
ARC
  5
12C9C1
  8
OBJECT
 10
2073.0
 20
-3461.9999999999968
 30
0.0
 40
3.0
 50
0.0
 51
90.0
1001
ACDBBLOCKREPETAG
1070
     1
1071
       20
1005
12C9C1
  0
LINE
  5
12C9C2
  8
OBJECT
 10
2070.0
 20
-3582.9999999999968
 30
0.0
 11
2073.0
 21
-3582.9999999999968
 31
0.0
1001
ACDBBLOCKREPETAG
1070
     1
1071
       21
1005
12C9C2
  0
ARC
  5
12C9C3
  8
OBJECT
 10
2073.0
 20
-3579.9999999999968
 30
0.0
 40
3.0
 50
270.0
 51
0.0
1001
ACDBBLOCKREPETAG
1070
     1
1071
       22
1005
12C9C3
  0
LINE
  5
12C9C4
  8
OBJECT
 10
2076.0
 20
-3579.9999999999968
 30
0.0
 11
2076.0
 21
-3461.9999999999968
 31
0.0
1001
ACDBBLOCKREPETAG
1070
     1
1071
       23
1005
12C9C4
  0
LINE
  5
12C9C5
  8
HIDDEN
 10
2078.0
 20
-3505.9999999999968
 30
0.0
 11
2078.0
 21
-3565.9999999999968
 31
0.0
1001
ACDBBLOCKREPETAG
1070
     1
1071
       24
1005
12C9C5
  0
TEXT
  5
12C9C6
  8
SLIM
 10
1896.75
 20
-3697.4999999999959
 30
0.0
 40
35.0
  1
通常枝50（1）
 41
0.75
  0
TEXT
  5
12C9C7
  8
SLIM
 10
1837.75
 20
282.50000000000011
 30
0.0
 40
35.0
  1
（枝管サイズ毎に寸法が異なります。管底の位置は全サイズで同じです）
 41
0.75
  0
TEXT
  5
12C9C8
  8
SLIM
 10
1850.0
 20
532.5
 30
0.0
 40
75.0
  1
側面図の代表機種
 41
0.75
  0
TEXT
  5
12C9C9
  8
SLIM
 10
1850.0
 20
369.99999999999989
 30
0.0
 40
100.0
  1
3SV-Z106
 41
0.75
  0
LINE
  5
12C9CA
  8
OBJECT
 10
2123.0
 20
-663.99999999999966
 30
0.0
 11
2130.0
 21
-663.99999999999966
 31
0.0
1001
ACDBBLOCKREPETAG
1070
     1
1071
        7
1005
12C9CA
  0
LINE
  5
12C9CB
  8
OBJECT
 10
2130.0
 20
-663.99999999999966
 30
0.0
 11
2130.0
 21
-754.99999999999955
 31
0.0
1001
ACDBBLOCKREPETAG
1070
     1
1071
        8
1005
12C9CB
  0
LINE
  5
12C9CC
  8
OBJECT
 10
2123.0
 20
-754.99999999999955
 30
0.0
 11
2123.0
 21
-663.99999999999966
 31
0.0
1001
ACDBBLOCKREPETAG
1070
     1
1071
        9
1005
12C9CC
  0
LINE
  5
12C9CD
  8
CENTER
 10
2145.0
 20
-710.99999999999955
 30
0.0
 11
2061.0
 21
-710.99999999999955
 31
0.0
1001
ACDBBLOCKREPETAG
1070
     1
1071
       10
1005
12C9CD
  0
LINE
  5
12C9CE
  8
OBJECT
 10
2123.0
 20
-666.99999999999955
 30
0.0
 11
2087.0
 21
-666.99999999999955
 31
0.0
1001
ACDBBLOCKREPETAG
1070
     1
1071
       11
1005
12C9CE
  0
LINE
  5
12C9CF
  8
OBJECT
 10
2087.0
 20
-666.99999999999955
 30
0.0
 11
2087.0
 21
-754.99999999999955
 31
0.0
1001
ACDBBLOCKREPETAG
1070
     1
1071
       12
1005
12C9CF
  0
LINE
  5
12C9D0
  8
OBJECT
 10
2087.0
 20
-754.99999999999955
 30
0.0
 11
2130.0
 21
-754.99999999999955
 31
0.0
1001
ACDBBLOCKREPETAG
1070
     1
1071
       13
1005
12C9D0
  0
LINE
  5
12C9D1
  8
OBJECT
 10
2083.0
 20
-671.49999999999955
 30
0.0
 11
2076.0
 21
-671.49999999999955
 31
0.0
1001
ACDBBLOCKREPETAG
1070
     1
1071
       14
1005
12C9D1
  0
LINE
  5
12C9D2
  8
OBJECT
 10
2076.0
 20
-750.49999999999955
 30
0.0
 11
2083.0
 21
-750.49999999999955
 31
0.0
1001
ACDBBLOCKREPETAG
1070
     1
1071
       15
1005
12C9D2
  0
LINE
  5
12C9D3
  8
OBJECT
 10
2083.0
 20
-750.49999999999955
 30
0.0
 11
2083.0
 21
-671.49999999999955
 31
0.0
1001
ACDBBLOCKREPETAG
1070
     1
1071
       16
1005
12C9D3
  0
LINE
  5
12C9D4
  8
OBJECT
 10
2087.0
 20
-666.99999999999955
 30
0.0
 11
2083.0
 21
-671.49999999999955
 31
0.0
1001
ACDBBLOCKREPETAG
1070
     1
1071
       17
1005
12C9D4
  0
LINE
  5
12C9D5
  8
OBJECT
 10
2087.0
 20
-754.99999999999955
 30
0.0
 11
2083.0
 21
-750.49999999999955
 31
0.0
1001
ACDBBLOCKREPETAG
1070
     1
1071
       18
1005
12C9D5
  0
LINE
  5
12C9D6
  8
OBJECT
 10
2073.0
 20
-633.99999999999955
 30
0.0
 11
2070.0
 21
-633.99999999999955
 31
0.0
1001
ACDBBLOCKREPETAG
1070
     1
1071
       19
1005
12C9D6
  0
ARC
  5
12C9D7
  8
OBJECT
 10
2073.0
 20
-636.99999999999955
 30
0.0
 40
3.0
 50
0.0
 51
90.0
1001
ACDBBLOCKREPETAG
1070
     1
1071
       20
1005
12C9D7
  0
LINE
  5
12C9D8
  8
OBJECT
 10
2070.0
 20
-757.99999999999955
 30
0.0
 11
2073.0
 21
-757.99999999999955
 31
0.0
1001
ACDBBLOCKREPETAG
1070
     1
1071
       21
1005
12C9D8
  0
ARC
  5
12C9D9
  8
OBJECT
 10
2073.0
 20
-754.99999999999955
 30
0.0
 40
3.0
 50
270.0
 51
0.0
1001
ACDBBLOCKREPETAG
1070
     1
1071
       22
1005
12C9D9
  0
LINE
  5
12C9DA
  8
OBJECT
 10
2076.0
 20
-754.99999999999955
 30
0.0
 11
2076.0
 21
-636.99999999999955
 31
0.0
1001
ACDBBLOCKREPETAG
1070
     1
1071
       23
1005
12C9DA
  0
LINE
  5
12C9DB
  8
HIDDEN
 10
2078.0
 20
-680.99999999999955
 30
0.0
 11
2078.0
 21
-740.99999999999955
 31
0.0
1001
ACDBBLOCKREPETAG
1070
     1
1071
       24
1005
12C9DB
  0
LINE
  5
12C9DC
  8
OBJECT
 10
2123.0
 20
-152.99999999999909
 30
0.0
 11
2130.0
 21
-152.99999999999909
 31
0.0
1001
ACDBBLOCKREPETAG
1070
     1
1071
        7
1005
12C9DC
  0
LINE
  5
12C9DD
  8
OBJECT
 10
2130.0
 20
-152.99999999999909
 30
0.0
 11
2130.0
 21
-246.99999999999909
 31
0.0
1001
ACDBBLOCKREPETAG
1070
     1
1071
        8
1005
12C9DD
  0
LINE
  5
12C9DE
  8
OBJECT
 10
2130.0
 20
-246.99999999999909
 30
0.0
 11
2123.0
 21
-246.99999999999909
 31
0.0
1001
ACDBBLOCKREPETAG
1070
     1
1071
        9
1005
12C9DE
  0
LINE
  5
12C9DF
  8
OBJECT
 10
2123.0
 20
-246.99999999999909
 30
0.0
 11
2123.0
 21
-152.99999999999909
 31
0.0
1001
ACDBBLOCKREPETAG
1070
     1
1071
       10
1005
12C9DF
  0
LINE
  5
12C9E0
  8
CENTER
 10
2145.0
 20
-199.99999999999909
 30
0.0
 11
2070.0
 21
-199.99999999999909
 31
0.0
1001
ACDBBLOCKREPETAG
1070
     1
1071
       11
1005
12C9E0
  0
LINE
  5
12C9E1
  8
OBJECT
 10
2123.0
 20
-155.99999999999909
 30
0.0
 11
2087.0
 21
-155.99999999999909
 31
0.0
1001
ACDBBLOCKREPETAG
1070
     1
1071
       12
1005
12C9E1
  0
LINE
  5
12C9E2
  8
OBJECT
 10
2087.0
 20
-155.99999999999909
 30
0.0
 11
2087.0
 21
-243.99999999999909
 31
0.0
1001
ACDBBLOCKREPETAG
1070
     1
1071
       13
1005
12C9E2
  0
LINE
  5
12C9E3
  8
OBJECT
 10
2087.0
 20
-243.99999999999909
 30
0.0
 11
2123.0
 21
-243.99999999999909
 31
0.0
1001
ACDBBLOCKREPETAG
1070
     1
1071
       14
1005
12C9E3
  0
LINE
  5
12C9E4
  8
OBJECT
 10
2083.0
 20
-160.49999999999909
 30
0.0
 11
2076.0
 21
-160.49999999999909
 31
0.0
1001
ACDBBLOCKREPETAG
1070
     1
1071
       15
1005
12C9E4
  0
LINE
  5
12C9E5
  8
OBJECT
 10
2076.0
 20
-239.49999999999909
 30
0.0
 11
2083.0
 21
-239.49999999999909
 31
0.0
1001
ACDBBLOCKREPETAG
1070
     1
1071
       16
1005
12C9E5
  0
LINE
  5
12C9E6
  8
OBJECT
 10
2083.0
 20
-239.49999999999909
 30
0.0
 11
2083.0
 21
-160.49999999999909
 31
0.0
1001
ACDBBLOCKREPETAG
1070
     1
1071
       17
1005
12C9E6
  0
LINE
  5
12C9E7
  8
OBJECT
 10
2087.0
 20
-155.99999999999909
 30
0.0
 11
2083.0
 21
-160.49999999999909
 31
0.0
1001
ACDBBLOCKREPETAG
1070
     1
1071
       18
1005
12C9E7
  0
LINE
  5
12C9E8
  8
OBJECT
 10
2087.0
 20
-243.99999999999909
 30
0.0
 11
2083.0
 21
-239.49999999999909
 31
0.0
1001
ACDBBLOCKREPETAG
1070
     1
1071
       19
1005
12C9E8
  0
LINE
  5
12C9E9
  8
OBJECT
 10
2073.0
 20
-137.99999999999909
 30
0.0
 11
2070.0
 21
-137.99999999999909
 31
0.0
1001
ACDBBLOCKREPETAG
1070
     1
1071
       20
1005
12C9E9
  0
ARC
  5
12C9EA
  8
OBJECT
 10
2073.0
 20
-140.99999999999909
 30
0.0
 40
3.0
 50
0.0
 51
90.0
1001
ACDBBLOCKREPETAG
1070
     1
1071
       21
1005
12C9EA
  0
LINE
  5
12C9EB
  8
OBJECT
 10
2070.0
 20
-261.99999999999909
 30
0.0
 11
2073.0
 21
-261.99999999999909
 31
0.0
1001
ACDBBLOCKREPETAG
1070
     1
1071
       22
1005
12C9EB
  0
ARC
  5
12C9EC
  8
OBJECT
 10
2073.0
 20
-258.99999999999909
 30
0.0
 40
3.0
 50
270.0
 51
0.0
1001
ACDBBLOCKREPETAG
1070
     1
1071
       23
1005
12C9EC
  0
LINE
  5
12C9ED
  8
OBJECT
 10
2076.0
 20
-258.99999999999909
 30
0.0
 11
2076.0
 21
-140.99999999999909
 31
0.0
1001
ACDBBLOCKREPETAG
1070
     1
1071
       24
1005
12C9ED
  0
LINE
  5
12C9EE
  8
HIDDEN
 10
2078.0
 20
-169.99999999999909
 30
0.0
 11
2078.0
 21
-229.99999999999909
 31
0.0
1001
ACDBBLOCKREPETAG
1070
     1
1071
       25
1005
12C9EE
  0
TEXT
  5
12C9EF
  8
SLIM
 10
-25.796370766537851
 20
667.19448474768467
 30
0.0
 40
100.0
  1
3SV-ZX06-S
 41
0.75
  0
TEXT
  5
12C9F0
  8
SLIM
 10
-25.796370766537851
 20
517.19448474768467
 30
0.0
 40
100.0
  1
3SV-ZX06-W
 41
0.75
  0
TEXT
  5
12C9F1
  8
SLIM
 10
0.0000035665234464
 20
24.000004585317601
 30
0.0
 40
79.999999999972701
  1
枝管バリエーション
 41
0.75
1001
ACDBBLOCKREPETAG
1070
     1
1071
      119
1005
F48AB
  0
TEXT
  5
12C9F2
  8
SLIM
 10
3853.75
 20
-1621.4999999999959
 30
0.0
 40
35.0
  1
両受けスタイル（W）
 41
0.75
  0
TEXT
  5
12C9F3
  8
SLIM
 10
5811.8000000000002
 20
-1718.9999999999991
 30
0.0
 40
28.0
  1
※ 対応スラブ厚　150mm以上
 41
0.75
  0
TEXT
  5
12C9F4
  8
SLIM
 10
5611.5
 20
-1812.333333333333
 30
0.0
 40
28.0
  1
国土交通大臣認定・（財）日本消防設備安全センター性能評定取得品
 41
0.75
  0
TEXT
  5
12C9F5
  8
SLIM
 10
5631.1000000000004
 20
-1858.9999999999991
 30
0.0
 40
28.0
  1
注）ご採用にあたり、認定書及び評定書の内容をご確認ください。
 41
0.75
  0
TEXT
  5
12C9F6
  8
SLIM
 10
11824.6
 20
-1677.9999999999959
 30
0.0
 40
28.0
  1
※ 対応スラブ厚　150～260
 41
0.75
  0
TEXT
  5
12C9F7
  8
SLIM
 10
11611.5
 20
-1771.3333333333289
 30
0.0
 40
28.0
  1
国土交通大臣認定・（財）日本消防設備安全センター性能評定取得品
 41
0.75
  0
TEXT
  5
12C9F8
  8
SLIM
 10
11631.1
 20
-1817.9999999999959
 30
0.0
 40
28.0
  1
注）ご採用にあたり、認定書及び評定書の内容をご確認ください。
 41
0.75
  0
TEXT
  5
12C9F9
  8
SLIM
 10
9824.6000000000004
 20
-1677.9999999999959
 30
0.0
 40
28.0
  1
※ 対応スラブ厚　180～260
 41
0.75
  0
TEXT
  5
12C9FA
  8
SLIM
 10
9611.5000000000018
 20
-1771.3333333333289
 30
0.0
 40
28.0
  1
国土交通大臣認定・（財）日本消防設備安全センター性能評定取得品
 41
0.75
  0
TEXT
  5
12C9FB
  8
SLIM
 10
9631.1000000000004
 20
-1817.9999999999959
 30
0.0
 40
28.0
  1
注）ご採用にあたり、認定書及び評定書の内容をご確認ください。
 41
0.75
  0
TEXT
  5
12C9FC
  8
SLIM
 10
9739.1250000000018
 20
-1621.4999999999959
 30
0.0
 40
35.0
  1
両受けスタイル（W）＋シンドカット
 41
0.75
  0
TEXT
  5
12C9FD
  8
SLIM
 10
11743.5
 20
-1621.4999999999959
 30
0.0
 40
35.0
  1
カンペイ君（WKP）＋シンドカット
 41
0.75
  0
TEXT
  5
12C9FE
  8
SLIM
 10
7741.625
 20
-1347.499999999998
 30
0.0
 40
35.0
  1
片受けスタイル（S）＋シンドカット
 41
0.75
  0
TEXT
  5
12C9FF
  8
SLIM
 10
5858.1250000000009
 20
-1662.4999999999991
 30
0.0
 40
35.0
  1
カンペイ君（WKP）
 41
0.75
  0
TEXT
  5
12CA00
  8
SLIM
 10
1856.25
 20
-1347.499999999998
 30
0.0
 40
35.0
  1
片受けスタイル（S）
 41
0.75
  0
TEXT
  5
12CA01
  8
SLIM
 10
-25.796370766537851
 20
367.19448474768478
 30
0.0
 40
100.0
  1
3SV-ZX06-WKP
 41
0.75
  0
VIEWPORT
  5
F6BA7
 67
     1
  8
0
 10
145.33033752441401
 20
101.8328354358673
 30
0.0
 40
334.0025019414623
 41
222.19657968139651
 68
     1
 69
     1
1001
ACAD
1000
MVIEW
1002
{
1070
    16
1010
0.0
1020
0.0
1030
0.0
1010
0.0
1020
0.0
1030
1.0
1040
0.0
1040
222.19657968139651
1040
145.33033752441401
1040
101.8328354358673
1040
50.0
1040
0.0
1040
0.0
1070
     0
1070
     0
1070
     1
1070
     1
1070
     0
1070
     0
1070
     0
1070
     0
1040
0.0
1040
0.0
1040
0.0
1040
10.0
1040
10.0
1040
10.0
1040
10.0
1070
     0
1002
{
1002
}
1002
}
  0
VIEWPORT
  5
F6BA9
 67
     1
  8
OBJECT
 10
145.3303314447403
 20
101.8328338861465
 30
0.0
 40
232.5285303115844
 41
162.93253421783439
 68
     2
 69
     2
1001
ACAD
1000
MVIEW
1002
{
1070
    16
1010
0.0
1020
0.0
1030
0.0
1010
0.0
1020
0.0
1030
1.0
1040
0.0
1040
25942.55904403147
1040
2377.604457077377
1040
-7591.5176687056619
1040
50.0
1040
0.0
1040
0.0
1070
     0
1070
   600
1070
     1
1070
     1
1070
     0
1070
     0
1070
     0
1070
     0
1040
0.0
1040
0.0
1040
0.0
1040
1.0
1040
1.0
1040
0.0
1040
0.0
1070
     0
1002
{
1002
}
1002
}
  0
ENDSEC
  0
EOF
