  0
SECTION
  2
HEADER
  9
$ACADVER
  1
AC1009
  9
$INSBASE
 10
0.0
 20
0.0
 30
0.0
  9
$EXTMIN
 10
0.0
 20
-3537.4999999999959
 30
0.0
  9
$EXTMAX
 10
6580.0
 20
770.0
 30
0.0
  9
$LIMMIN
 10
0.0
 20
0.0
  9
$LIMMAX
 10
210.0
 20
297.0
  9
$ORTHOMODE
 70
     0
  9
$REGENMODE
 70
     1
  9
$FILLMODE
 70
     1
  9
$QTEXTMODE
 70
     0
  9
$MIRRTEXT
 70
     0
  9
$DRAGMODE
 70
     2
  9
$LTSCALE
 40
1.0
  9
$OSMODE
 70
   109
  9
$ATTMODE
 70
     1
  9
$TEXTSIZE
 40
4.0
  9
$TRACEWID
 40
0.05
  9
$TEXTSTYLE
  7
STANDARD
  9
$CLAYER
  8
OBJECT
  9
$CELTYPE
  6
BYLAYER
  9
$CECOLOR
 62
   256
  9
$DIMSCALE
 40
10.0
  9
$DIMASZ
 40
2.0
  9
$DIMEXO
 40
1.0
  9
$DIMDLI
 40
10.0
  9
$DIMRND
 40
0.0
  9
$DIMDLE
 40
0.0
  9
$DIMEXE
 40
1.0
  9
$DIMTP
 40
0.0
  9
$DIMTM
 40
0.0
  9
$DIMTXT
 40
3.2000000000000002
  9
$DIMCEN
 40
0.0
  9
$DIMTSZ
 40
0.0
  9
$DIMTOL
 70
     0
  9
$DIMLIM
 70
     0
  9
$DIMTIH
 70
     0
  9
$DIMTOH
 70
     0
  9
$DIMSE1
 70
     0
  9
$DIMSE2
 70
     0
  9
$DIMTAD
 70
     1
  9
$DIMZIN
 70
     8
  9
$DIMBLK
  1
OPEN30
  9
$DIMASO
 70
     1
  9
$DIMSHO
 70
     1
  9
$DIMPOST
  1

  9
$DIMAPOST
  1

  9
$DIMALT
 70
     0
  9
$DIMALTD
 70
     2
  9
$DIMALTF
 40
25.399999999999999
  9
$DIMLFAC
 40
1.0
  9
$DIMTOFL
 70
     1
  9
$DIMTVP
 40
0.0
  9
$DIMTIX
 70
     0
  9
$DIMSOXD
 70
     0
  9
$DIMSAH
 70
     0
  9
$DIMBLK1
  1

  9
$DIMBLK2
  1

  9
$DIMSTYLE
  2
S10
  9
$DIMCLRD
 70
   256
  9
$DIMCLRE
 70
   256
  9
$DIMCLRT
 70
   256
  9
$DIMTFAC
 40
1.0
  9
$DIMGAP
 40
0.9
  9
$LUNITS
 70
     2
  9
$LUPREC
 70
     2
  9
$SKETCHINC
 40
0.1
  9
$FILLETRAD
 40
0.0
  9
$AUNITS
 70
     0
  9
$AUPREC
 70
     2
  9
$MENU
  1
ACAD
  9
$ELEVATION
 40
0.0
  9
$PELEVATION
 40
0.0
  9
$THICKNESS
 40
0.0
  9
$LIMCHECK
 70
     0
  9
$BLIPMODE
 70
     0
  9
$CHAMFERA
 40
2.0
  9
$CHAMFERB
 40
2.0
  9
$SKPOLY
 70
     0
  9
$TDCREATE
 40
2453095.4929404748
  9
$TDUPDATE
 40
2456576.485867084
  9
$TDINDWG
 40
18.325346423599999
  9
$TDUSRTIMER
 40
18.3253458796
  9
$USRTIMER
 70
     1
  9
$ANGBASE
 50
0.0
  9
$ANGDIR
 70
     0
  9
$PDMODE
 70
    35
  9
$PDSIZE
 40
2.0
  9
$PLINEWID
 40
0.0
  9
$COORDS
 70
     1
  9
$SPLFRAME
 70
     0
  9
$SPLINETYPE
 70
     6
  9
$SPLINESEGS
 70
     8
  9
$ATTDIA
 70
     0
  9
$ATTREQ
 70
     1
  9
$HANDLING
 70
     1
  9
$HANDSEED
  5
128C2A
  9
$SURFTAB1
 70
     6
  9
$SURFTAB2
 70
     6
  9
$SURFTYPE
 70
     6
  9
$SURFU
 70
     6
  9
$SURFV
 70
     6
  9
$UCSNAME
  2

  9
$UCSORG
 10
0.0
 20
0.0
 30
0.0
  9
$UCSXDIR
 10
1.0
 20
0.0
 30
0.0
  9
$UCSYDIR
 10
0.0
 20
1.0
 30
0.0
  9
$PUCSNAME
  2

  9
$PUCSORG
 10
0.0
 20
0.0
 30
0.0
  9
$PUCSXDIR
 10
1.0
 20
0.0
 30
0.0
  9
$PUCSYDIR
 10
0.0
 20
1.0
 30
0.0
  9
$USERI1
 70
     0
  9
$USERI2
 70
     0
  9
$USERI3
 70
     0
  9
$USERI4
 70
     0
  9
$USERI5
 70
     0
  9
$USERR1
 40
0.0
  9
$USERR2
 40
0.0
  9
$USERR3
 40
0.0
  9
$USERR4
 40
0.0
  9
$USERR5
 40
0.0
  9
$WORLDVIEW
 70
     1
  9
$SHADEDGE
 70
     3
  9
$SHADEDIF
 70
    70
  9
$TILEMODE
 70
     1
  9
$MAXACTVP
 70
    64
  9
$PLIMCHECK
 70
     0
  9
$PEXTMIN
 10
29.066066288948051
 20
20.366566777229309
 30
0.0
  9
$PEXTMAX
 10
261.5945966005325
 20
183.29910099506381
 30
0.0
  9
$PLIMMIN
 10
-3.17498779296875
 20
-3.1749999523162842
  9
$PLIMMAX
 10
293.83566284179687
 20
206.8406708240509
  9
$UNITMODE
 70
     0
  9
$VISRETAIN
 70
     1
  9
$PLINEGEN
 70
     0
  9
$PSLTSCALE
 70
     1
  0
ENDSEC
  0
SECTION
  2
TABLES
  0
TABLE
  2
VPORT
 70
     1
  0
VPORT
  2
*ACTIVE
 70
     0
 10
0.0
 20
0.0
 11
1.0
 21
1.0
 12
3490.332253136055
 22
-689.61137113526183
 13
0.0
 23
0.0
 14
1.0
 24
1.0
 15
0.0
 25
0.0
 16
0.0
 26
0.0
 36
1.0
 17
0.0
 27
0.0
 37
0.0
 40
7020.7875499830261
 41
1.6622516556291389
 42
50.0
 43
0.0
 44
0.0
 50
0.0
 51
0.0
 71
     0
 72
   600
 73
     1
 74
     1
 75
     0
 76
     0
 77
     0
 78
     0
  0
ENDTAB
  0
TABLE
  2
LTYPE
 70
     4
  0
LTYPE
  2
CONTINUOUS
 70
     0
  3
Solid line
 72
    65
 73
     0
 40
0.0
  0
LTYPE
  2
PHANTOM2
 70
     0
  3
___ _ _ ___ _ _ ___ _ _ ___ _ _
 72
    65
 73
     6
 40
1.25
 49
0.625
 49
-0.125
 49
0.125
 49
-0.125
 49
0.125
 49
-0.125
  0
LTYPE
  2
ACAD_ISO08W100
 70
     0
  3
ISO long-dash short-dash ____ __ ____ __ ____ _
 72
    65
 73
     4
 40
36.0
 49
24.0
 49
-3.0
 49
6.0
 49
-3.0
  0
LTYPE
  2
ACAD_ISO02W100
 70
     0
  3
ISO dash __ __ __ __ __ __ __ __ __ __ __ __ __
 72
    65
 73
     2
 40
15.0
 49
12.0
 49
-3.0
  0
ENDTAB
  0
TABLE
  2
LAYER
 70
     8
  0
LAYER
  2
0
 70
     0
 62
     7
  6
CONTINUOUS
  0
LAYER
  2
OBJECT
 70
     0
 62
     4
  6
CONTINUOUS
  0
LAYER
  2
DEFPOINTS
 70
     0
 62
     7
  6
CONTINUOUS
  0
LAYER
  2
DIM
 70
     0
 62
     7
  6
CONTINUOUS
  0
LAYER
  2
HIDDEN
 70
     0
 62
     2
  6
ACAD_ISO02W100
  0
LAYER
  2
CENTER
 70
     0
 62
     2
  6
ACAD_ISO08W100
  0
LAYER
  2
DOTS
 70
     0
 62
     1
  6
CONTINUOUS
  0
LAYER
  2
SLIM
 70
     0
 62
     2
  6
CONTINUOUS
  0
ENDTAB
  0
TABLE
  2
STYLE
 70
     2
  0
STYLE
  2
STANDARD
 70
     0
 40
0.0
 41
0.75
 50
0.0
 71
     0
 42
4.0
  3
simplex.shx
  4
bigfont.shx
  0
ENDTAB
  0
TABLE
  2
VIEW
 70
     0
  0
ENDTAB
  0
TABLE
  2
UCS
 70
     0
  0
ENDTAB
  0
TABLE
  2
APPID
 70
    18
  0
APPID
  2
ACAD
 70
     0
  0
APPID
  2
ACADANNOTATIVE
 70
     0
  0
APPID
  2
ACAD_PSEXT
 70
     0
  0
APPID
  2
ACAD_EXEMPT_FROM_CAD_STANDARDS
 70
     0
  0
APPID
  2
ACAECLAYERSTANDARD
 70
     0
  0
APPID
  2
ACAUTHENVIRON
 70
     0
  0
APPID
  2
ACDBDYNAMICBLOCKTRUENAME
 70
     0
  0
APPID
  2
ACDBDYNAMICBLOCKGUID
 70
     0
  0
APPID
  2
ACDBBLOCKREPETAG
 70
     0
  0
APPID
  2
ACDBBLOCKREPBTAG
 70
     0
  0
APPID
  2
ACAD_NAV_VCDISPLAY
 70
     0
  0
APPID
  2
ACAD_DSTYLE_DIMRADIAL_EXTENSION
 70
     0
  0
APPID
  2
ACAD_DSTYLE_DIMJAG
 70
     0
  0
APPID
  2
ACAD_DSTYLE_DIMTALN
 70
     0
  0
APPID
  2
ACADANNOPO
 70
     0
  0
APPID
  2
GRADIENTCOLOR1ACI
 70
     0
  0
APPID
  2
GRADIENTCOLOR2ACI
 70
     0
  0
APPID
  2
ACAD_MLEADERVER
 70
     0
  0
ENDTAB
  0
TABLE
  2
DIMSTYLE
 70
     3
  0
DIMSTYLE
  2
STANDARD
 70
     0
  3

  4

  5

  6

  7

 40
1.0
 41
0.18
 42
0.0625
 43
0.38
 44
0.18
 45
0.0
 46
0.0
 47
0.0
 48
0.0
140
0.18
141
0.09
142
0.0
143
25.399999999999999
144
1.0
145
0.0
146
1.0
147
0.09
 71
     0
 72
     0
 73
     1
 74
     1
 75
     0
 76
     0
 77
     0
 78
     0
170
     0
171
     2
172
     0
173
     0
174
     0
175
     0
176
     0
177
     0
178
     0
  0
DIMSTYLE
  2
S10
 70
     0
  3

  4

  5

  6

  7

 40
10.0
 41
2.0
 42
1.0
 43
10.0
 44
1.0
 45
0.0
 46
0.0
 47
0.0
 48
0.0
140
3.2000000000000002
141
0.0
142
0.0
143
25.399999999999999
144
1.0
145
0.0
146
1.0
147
0.9
 71
     0
 72
     0
 73
     0
 74
     0
 75
     0
 76
     0
 77
     1
 78
     8
170
     0
171
     2
172
     1
173
     0
174
     0
175
     0
176
   256
177
   256
178
   256
  0
ENDTAB
  0
ENDSEC
  0
SECTION
  2
BLOCKS
  0
BLOCK
  8
0
  2
$MODEL_SPACE
 70
     0
 10
0.0
 20
0.0
 30
0.0
  3
$MODEL_SPACE
  1

  0
ENDBLK
  5
128B3C
  8
0
  0
BLOCK
 67
     1
  8
0
  2
$PAPER_SPACE
 70
     0
 10
0.0
 20
0.0
 30
0.0
  3
$PAPER_SPACE
  1

  0
ENDBLK
  5
128B38
 67
     1
  8
0
  0
BLOCK
  8
0
  2
_OPEN30
 70
     0
 10
0.0
 20
0.0
 30
0.0
  3
_OPEN30
  1

  0
LINE
  5
202
  8
0
  6
BYBLOCK
 62
     0
 10
-1.0
 20
0.26794919
 30
0.0
 11
0.0
 21
0.0
 31
0.0
  0
LINE
  5
203
  8
0
  6
BYBLOCK
 62
     0
 10
0.0
 20
0.0
 30
0.0
 11
-1.0
 21
-0.26794919
 31
0.0
  0
LINE
  5
204
  8
0
  6
BYBLOCK
 62
     0
 10
0.0
 20
0.0
 30
0.0
 11
-1.0
 21
0.0
 31
0.0
  0
ENDBLK
  5
206
  8
0
  0
BLOCK
  8
0
  2
*U17
 70
     1
 10
0.0
 20
0.0
 30
0.0
  3
*U17
  1

  0
TEXT
  5
128A72
  8
DIM
 10
2209.479620594459
 20
-3024.1428571428528
 30
0.0
 40
32.0
  1
A
 50
90.0
 41
0.75
  0
ENDBLK
  5
128A74
  8
0
  0
BLOCK
  8
0
  2
*U18
 70
     1
 10
0.0
 20
0.0
 30
0.0
  3
*U18
  1

  0
TEXT
  5
128A76
  8
DIM
 10
2207.8409284037348
 20
-3405.9999999999968
 30
0.0
 40
32.0
  1
B
 50
90.0
 41
0.75
  0
ENDBLK
  5
128A78
  8
0
  0
BLOCK
  8
0
  2
*U19
 70
     1
 10
0.0
 20
0.0
 30
0.0
  3
*U19
  1

  0
TEXT
  5
128A7A
  8
DIM
 10
2061.428571428572
 20
-2878.208121984444
 30
0.0
 40
32.0
  1
C
 41
0.75
  0
ENDBLK
  5
128A7C
  8
0
  0
BLOCK
  8
0
  2
*U20
 70
     1
 10
0.0
 20
0.0
 30
0.0
  3
*U20
  1

  0
TEXT
  5
128A7E
  8
SLIM
 10
509.0476190477408
 20
-586.75000000000955
 30
0.0
 40
26.0
  1
100
  0
ENDBLK
  5
128A80
  8
0
  0
BLOCK
  8
0
  2
*U21
 70
     1
 10
0.0
 20
0.0
 30
0.0
  3
*U21
  1

  0
TEXT
  5
128A82
  8
SLIM
 10
158.9523809524228
 20
-594.00000000000955
 30
0.0
 40
26.0
  1
75
  0
ENDBLK
  5
128A84
  8
0
  0
BLOCK
  8
0
  2
*U22
 70
     1
 10
0.0
 20
0.0
 30
0.0
  3
*U22
  1

  0
TEXT
  5
128A86
  8
SLIM
 10
518.95238095250295
 20
-130.00000000000321
 30
0.0
 40
26.0
  1
65
  0
ENDBLK
  5
128A88
  8
0
  0
BLOCK
  8
0
  2
*U23
 70
     1
 10
0.0
 20
0.0
 30
0.0
  3
*U23
  1

  0
TEXT
  5
128A8A
  8
SLIM
 10
158.9523809524228
 20
-130.00000000000321
 30
0.0
 40
26.0
  1
50
  0
ENDBLK
  5
128A8C
  8
0
  0
ENDSEC
  0
SECTION
  2
ENTITIES
  0
TEXT
  5
124845
  8
SLIM
 10
-0.0000000000000011
 20
282.5
 30
0.0
 40
35.0
  1
※ 100枝（4）がある場合、品名の最後に【管底】が付きます。
 41
0.9
 11
0.0
 21
300.0
 31
0.0
 73
     2
  0
LINE
  5
127012
  8
OBJECT
 10
1825.0
 20
-3419.9999999999959
 30
0.0
 11
5575.0
 21
-3419.9999999999959
 31
0.0
  0
LINE
  5
127014
  8
SLIM
 10
2616.0
 20
-2477.50001604727
 30
0.0
 11
2616.0
 21
-2807.50001604727
 31
0.0
  0
LINE
  5
127015
  8
SLIM
 10
2740.0
 20
-2477.50001604727
 30
0.0
 11
2740.0
 21
-2807.50001604727
 31
0.0
  0
LINE
  5
127016
  8
SLIM
 10
2870.0
 20
-2537.50001604727
 30
0.0
 11
2870.0
 21
-2807.50001604727
 31
0.0
  0
LINE
  5
127017
  8
SLIM
 10
3000.0
 20
-2537.50001604727
 30
0.0
 11
3000.0
 21
-2807.50001604727
 31
0.0
  0
LINE
  5
127018
  8
SLIM
 10
3130.0
 20
-2807.50001604727
 30
0.0
 11
3130.0
 21
-2537.50001604727
 31
0.0
  0
LINE
  5
127019
  8
SLIM
 10
3260.0
 20
-2807.50001604727
 30
0.0
 11
3260.0
 21
-2477.50001604727
 31
0.0
  0
LINE
  5
12701A
  8
SLIM
 10
3260.0
 20
-2477.50001604727
 30
0.0
 11
2616.0
 21
-2477.50001604727
 31
0.0
  0
LINE
  5
12701B
  8
SLIM
 10
3260.0
 20
-2537.50001604727
 30
0.0
 11
2740.0
 21
-2537.50001604727
 31
0.0
  0
LINE
  5
12701C
  8
SLIM
 10
3260.0
 20
-2597.50001604727
 30
0.0
 11
2616.0
 21
-2597.50001604727
 31
0.0
  0
LINE
  5
12701D
  8
SLIM
 10
3260.0
 20
-2667.5000160472709
 30
0.0
 11
2616.0
 21
-2667.5000160472709
 31
0.0
  0
LINE
  5
12701E
  8
SLIM
 10
3260.0
 20
-2737.50001604727
 30
0.0
 11
2616.0
 21
-2737.50001604727
 31
0.0
  0
LINE
  5
12701F
  8
SLIM
 10
3260.0
 20
-2807.50001604727
 30
0.0
 11
2616.0
 21
-2807.50001604727
 31
0.0
  0
LINE
  5
127034
  8
SLIM
 10
2740.0
 20
-2597.50001604727
 30
0.0
 11
2615.9999722746579
 21
-2477.5
 31
0.0
  0
LINE
  5
127069
  8
OBJECT
 10
5323.0
 20
-3235.9999999999968
 30
0.0
 11
5323.0
 21
-3214.9999999999968
 31
0.0
1001
ACDBBLOCKREPETAG
1070
     1
1071
       20
1005
127069
  0
LINE
  5
12706A
  8
OBJECT
 10
5323.0
 20
-3214.9999999999968
 30
0.0
 11
5477.0
 21
-3214.9999999999968
 31
0.0
1001
ACDBBLOCKREPETAG
1070
     1
1071
       21
1005
12706A
  0
LINE
  5
12706B
  8
HIDDEN
 10
5343.0
 20
-3284.9999999999968
 30
0.0
 11
5457.0
 21
-3284.9999999999968
 31
0.0
1001
ACDBBLOCKREPETAG
1070
     1
1071
       22
1005
12706B
  0
LINE
  5
12706C
  8
OBJECT
 10
5477.0
 20
-3214.9999999999968
 30
0.0
 11
5477.0
 21
-3235.9999999999968
 31
0.0
1001
ACDBBLOCKREPETAG
1070
     1
1071
       23
1005
12706C
  0
LINE
  5
12706D
  8
OBJECT
 10
5477.0
 20
-3235.9999999999968
 30
0.0
 11
5323.0
 21
-3235.9999999999968
 31
0.0
1001
ACDBBLOCKREPETAG
1070
     1
1071
       24
1005
12706D
  0
LINE
  5
12706E
  8
CENTER
 10
5400.0
 20
-3199.9999999999968
 30
0.0
 11
5400.0
 21
-3434.9999999999968
 31
0.0
1001
ACDBBLOCKREPETAG
1070
     1
1071
       25
1005
12706E
  0
LINE
  5
12706F
  8
OBJECT
 10
5325.0
 20
-3298.9999999999968
 30
0.0
 11
5325.0
 21
-3422.9999999999968
 31
0.0
1001
ACDBBLOCKREPETAG
1070
     1
1071
       26
1005
12706F
  0
LINE
  5
127070
  8
OBJECT
 10
5328.0
 20
-3235.9999999999968
 30
0.0
 11
5328.0
 21
-3298.9999999999968
 31
0.0
1001
ACDBBLOCKREPETAG
1070
     1
1071
       27
1005
127070
  0
LINE
  5
127071
  8
OBJECT
 10
5472.0
 20
-3298.9999999999968
 30
0.0
 11
5472.0
 21
-3235.9999999999968
 31
0.0
1001
ACDBBLOCKREPETAG
1070
     1
1071
       28
1005
127071
  0
LINE
  5
127072
  8
OBJECT
 10
5475.0
 20
-3298.9999999999968
 30
0.0
 11
5456.7802782663139
 21
-3298.9999999999968
 31
0.0
1001
ACDBBLOCKREPETAG
1070
     1
1071
       30
1005
127072
  0
LINE
  5
127073
  8
OBJECT
 10
5475.0
 20
-3298.9999999999968
 30
0.0
 11
5475.0
 21
-3422.9999999999968
 31
0.0
1001
ACDBBLOCKREPETAG
1070
     1
1071
       34
1005
127073
  0
POINT
  5
127074
  8
DOTS
 10
5400.0
 20
-3419.9999999999968
 30
0.0
1001
ACDBBLOCKREPETAG
1070
     1
1071
      187
1005
127074
  0
LINE
  5
127075
  8
CENTER
 10
5310.0
 20
-3347.9999999999968
 30
0.0
 11
5490.0
 21
-3347.9999999999968
 31
0.0
1001
ACDBBLOCKREPETAG
1070
     1
1071
       23
1005
127075
  0
CIRCLE
  5
127076
  8
OBJECT
 10
5400.0
 20
-3347.9999999999968
 30
0.0
 40
53.5
1001
ACDBBLOCKREPETAG
1070
     1
1071
       24
1005
127076
  0
CIRCLE
  5
127077
  8
OBJECT
 10
5400.0
 20
-3347.9999999999968
 30
0.0
 40
67.0
1001
ACDBBLOCKREPETAG
1070
     1
1071
       25
1005
127077
  0
ARC
  5
127078
  8
OBJECT
 10
5400.0
 20
-3347.9999999999968
 30
0.0
 40
75.0
 50
286.26020470824182
 51
253.73979529175821
1001
ACDBBLOCKREPETAG
1070
     1
1071
       27
1005
127078
  0
LINE
  5
127079
  8
OBJECT
 10
5379.0
 20
-3419.9999999999968
 30
0.0
 11
5421.0
 21
-3419.9999999999968
 31
0.0
1001
ACDBBLOCKREPETAG
1070
     1
1071
       28
1005
127079
  0
LINE
  5
12707A
  8
OBJECT
 10
5343.2197217336861
 20
-3298.9999999999968
 30
0.0
 11
5325.0
 21
-3298.9999999999968
 31
0.0
1001
ACDBBLOCKREPETAG
1070
     1
1071
       30
1005
127072
  0
ARC
  5
127D79
  8
OBJECT
 10
6000.0
 20
-199.99999999999909
 30
0.0
 40
50.0
 50
298.81994300000417
 51
228.52376955965491
1001
ACDBBLOCKREPETAG
1070
     1
1071
        1
1005
127D79
  0
LINE
  5
127D7A
  8
CENTER
 10
6080.0
 20
-199.99999999999909
 30
0.0
 11
5905.0
 21
-199.99999999999909
 31
0.0
1001
ACDBBLOCKREPETAG
1070
     1
1071
        2
1005
127D7A
  0
LINE
  5
127D7B
  8
CENTER
 10
6000.0
 20
-294.99999999999898
 30
0.0
 11
6000.0
 21
-104.9999999999991
 31
0.0
1001
ACDBBLOCKREPETAG
1070
     1
1071
        3
1005
127D7B
  0
CIRCLE
  5
127D7C
  8
OBJECT
 10
6000.0
 20
-199.99999999999909
 30
0.0
 40
70.0
1001
ACDBBLOCKREPETAG
1070
     1
1071
        4
1005
127D7C
  0
CIRCLE
  5
127D7D
  8
OBJECT
 10
6000.0
 20
-199.99999999999909
 30
0.0
 40
77.0
1001
ACDBBLOCKREPETAG
1070
     1
1071
        5
1005
127D7D
  0
ARC
  5
127D7E
  8
OBJECT
 10
6000.0
 20
-199.99999999999909
 30
0.0
 40
80.0
 50
50.80503257388439
 51
309.19496742611562
1001
ACDBBLOCKREPETAG
1070
     1
1071
        6
1005
127D7E
  0
LINE
  5
127D7F
  8
OBJECT
 10
6045.6618002273253
 20
-137.99999999999909
 30
0.0
 11
6080.0
 21
-137.99999999999909
 31
0.0
1001
ACDBBLOCKREPETAG
1070
     1
1071
        7
1005
127D7F
  0
LINE
  5
127D80
  8
OBJECT
 10
6045.6618002273253
 20
-261.99999999999909
 30
0.0
 11
6080.0
 21
-261.99999999999909
 31
0.0
1001
ACDBBLOCKREPETAG
1070
     1
1071
        8
1005
127D80
  0
LINE
  5
127D81
  8
OBJECT
 10
6024.1029330932433
 20
-243.80694712379321
 30
0.0
 11
6024.1029330932433
 21
-234.00999999999931
 31
0.0
1001
ACDBBLOCKREPETAG
1070
     1
1071
      138
1005
127D81
  0
LINE
  5
127D82
  8
OBJECT
 10
6024.1029330932433
 20
-234.00999999999931
 30
0.0
 11
5986.589017458864
 21
-218.4712273665109
 31
0.0
1001
ACDBBLOCKREPETAG
1070
     1
1071
      139
1005
127D82
  0
ARC
  5
127D83
  8
OBJECT
 10
5982.7621831352144
 20
-227.7100226916217
 30
0.0
 40
10.0
 50
67.500000000096563
 51
154.0147343702935
1001
ACDBBLOCKREPETAG
1070
     1
1071
      140
1005
127D83
  0
ARC
  5
127D84
  8
OBJECT
 10
5986.022399255904
 20
-225.81327182420949
 30
0.0
 40
7.0
 50
67.500000000096563
 51
154.01473377488369
1001
ACDBBLOCKREPETAG
1070
     1
1071
      141
1005
127D84
  0
ARC
  5
127D85
  8
OBJECT
 10
5976.5796953073141
 20
-207.1289369828437
 30
0.0
 40
60.031113246032611
 50
314.07020130418567
 51
322.33936106089681
1001
ACDBBLOCKREPETAG
1070
     1
1071
      150
1005
127D85
  0
LINE
  5
127D86
  8
OBJECT
 10
5969.4199755553018
 20
-243.89888500818171
 30
0.0
 11
5979.7300520410208
 21
-222.74629179048591
 31
0.0
1001
ACDBBLOCKREPETAG
1070
     1
1071
      151
1005
127D86
  0
LINE
  5
127D87
  8
OBJECT
 10
5965.2972169006089
 20
-240.71813901882729
 30
0.0
 11
5973.773115639814
 21
-223.32862273686899
 31
0.0
1001
ACDBBLOCKREPETAG
1070
     1
1071
      152
1005
127D87
  0
CIRCLE
  5
127D88
  8
OBJECT
 10
6000.0
 20
-199.99999999999909
 30
0.0
 40
53.5
1001
ACDBBLOCKREPETAG
1070
     1
1071
      153
1005
127D88
  0
POINT
  5
127D89
  8
DOTS
 10
6000.0
 20
-199.99999999999909
 30
0.0
 50
270.0
1001
ACDBBLOCKREPETAG
1070
     1
1071
      159
1005
127D89
  0
ARC
  5
127D8A
  8
OBJECT
 10
4000.0
 20
-199.99999999999909
 30
0.0
 40
50.0
 50
298.81994300000417
 51
228.52376955967449
1001
ACDBBLOCKREPETAG
1070
     1
1071
        1
1005
127D8A
  0
LINE
  5
127D8B
  8
CENTER
 10
4080.0
 20
-199.99999999999909
 30
0.0
 11
3905.0
 21
-199.99999999999909
 31
0.0
1001
ACDBBLOCKREPETAG
1070
     1
1071
        2
1005
127D8B
  0
LINE
  5
127D8C
  8
CENTER
 10
4000.0
 20
-294.99999999999898
 30
0.0
 11
4000.0
 21
-104.9999999999991
 31
0.0
1001
ACDBBLOCKREPETAG
1070
     1
1071
        3
1005
127D8C
  0
CIRCLE
  5
127D8D
  8
OBJECT
 10
4000.0
 20
-199.99999999999909
 30
0.0
 40
70.0
1001
ACDBBLOCKREPETAG
1070
     1
1071
        4
1005
127D8D
  0
CIRCLE
  5
127D8E
  8
OBJECT
 10
4000.0
 20
-199.99999999999909
 30
0.0
 40
77.0
1001
ACDBBLOCKREPETAG
1070
     1
1071
        5
1005
127D8E
  0
ARC
  5
127D8F
  8
OBJECT
 10
4000.0
 20
-199.99999999999909
 30
0.0
 40
80.0
 50
50.805032573864182
 51
309.1949674261358
1001
ACDBBLOCKREPETAG
1070
     1
1071
        6
1005
127D8F
  0
LINE
  5
127D90
  8
OBJECT
 10
4045.661800227324
 20
-137.99999999999909
 30
0.0
 11
4080.0
 21
-137.99999999999909
 31
0.0
1001
ACDBBLOCKREPETAG
1070
     1
1071
        7
1005
127D90
  0
LINE
  5
127D91
  8
OBJECT
 10
4045.661800227324
 20
-261.99999999999909
 30
0.0
 11
4080.0
 21
-261.99999999999909
 31
0.0
1001
ACDBBLOCKREPETAG
1070
     1
1071
        8
1005
127D91
  0
LINE
  5
127D92
  8
OBJECT
 10
4024.102933093242
 20
-243.80694712379321
 30
0.0
 11
4024.102933093242
 21
-234.00999999999931
 31
0.0
1001
ACDBBLOCKREPETAG
1070
     1
1071
      138
1005
127D92
  0
LINE
  5
127D93
  8
OBJECT
 10
4024.102933093242
 20
-234.00999999999931
 30
0.0
 11
3986.589017458864
 21
-218.4712273665109
 31
0.0
1001
ACDBBLOCKREPETAG
1070
     1
1071
      139
1005
127D93
  0
ARC
  5
127D94
  8
OBJECT
 10
3982.7621831352162
 20
-227.7100226916217
 30
0.0
 40
10.0
 50
67.500000000120636
 51
154.0147343702935
1001
ACDBBLOCKREPETAG
1070
     1
1071
      140
1005
127D94
  0
ARC
  5
127D95
  8
OBJECT
 10
3986.022399255904
 20
-225.81327182420949
 30
0.0
 40
7.0
 50
67.500000000120636
 51
154.01473377488369
1001
ACDBBLOCKREPETAG
1070
     1
1071
      141
1005
127D95
  0
ARC
  5
127D96
  8
OBJECT
 10
3976.579695307315
 20
-207.1289369828437
 30
0.0
 40
60.031113246032611
 50
314.07020130418567
 51
322.33936106091278
1001
ACDBBLOCKREPETAG
1070
     1
1071
      150
1005
127D96
  0
LINE
  5
127D97
  8
OBJECT
 10
3969.4199755553018
 20
-243.89888500818171
 30
0.0
 11
3979.7300520410208
 21
-222.74629179048591
 31
0.0
1001
ACDBBLOCKREPETAG
1070
     1
1071
      151
1005
127D97
  0
LINE
  5
127D98
  8
OBJECT
 10
3965.2972169006089
 20
-240.71813901882729
 30
0.0
 11
3973.7731156398149
 21
-223.32862273686899
 31
0.0
1001
ACDBBLOCKREPETAG
1070
     1
1071
      152
1005
127D98
  0
CIRCLE
  5
127D99
  8
OBJECT
 10
4000.0
 20
-199.99999999999909
 30
0.0
 40
53.5
1001
ACDBBLOCKREPETAG
1070
     1
1071
      153
1005
127D99
  0
POINT
  5
127D9A
  8
DOTS
 10
4000.0
 20
-199.99999999999909
 30
0.0
 50
270.0
1001
ACDBBLOCKREPETAG
1070
     1
1071
      159
1005
127D9A
  0
ARC
  5
127D9B
  8
OBJECT
 10
2000.0
 20
-199.99999999999909
 30
0.0
 40
50.0
 50
298.81994300000417
 51
228.52376955967449
1001
ACDBBLOCKREPETAG
1070
     1
1071
        1
1005
127D9B
  0
LINE
  5
127D9C
  8
CENTER
 10
2080.0
 20
-199.99999999999909
 30
0.0
 11
1905.0
 21
-199.99999999999909
 31
0.0
1001
ACDBBLOCKREPETAG
1070
     1
1071
        2
1005
127D9C
  0
LINE
  5
127D9D
  8
CENTER
 10
2000.0
 20
-294.99999999999898
 30
0.0
 11
2000.0
 21
-104.9999999999991
 31
0.0
1001
ACDBBLOCKREPETAG
1070
     1
1071
        3
1005
127D9D
  0
CIRCLE
  5
127D9E
  8
OBJECT
 10
2000.0
 20
-199.99999999999909
 30
0.0
 40
70.0
1001
ACDBBLOCKREPETAG
1070
     1
1071
        4
1005
127D9E
  0
CIRCLE
  5
127D9F
  8
OBJECT
 10
2000.0
 20
-199.99999999999909
 30
0.0
 40
77.0
1001
ACDBBLOCKREPETAG
1070
     1
1071
        5
1005
127D9F
  0
ARC
  5
127DA0
  8
OBJECT
 10
2000.0
 20
-199.99999999999909
 30
0.0
 40
80.0
 50
50.805032573864182
 51
309.1949674261358
1001
ACDBBLOCKREPETAG
1070
     1
1071
        6
1005
127DA0
  0
LINE
  5
127DA1
  8
OBJECT
 10
2045.6618002273251
 20
-137.99999999999909
 30
0.0
 11
2080.0
 21
-137.99999999999909
 31
0.0
1001
ACDBBLOCKREPETAG
1070
     1
1071
        7
1005
127DA1
  0
LINE
  5
127DA2
  8
OBJECT
 10
2045.6618002273251
 20
-261.99999999999909
 30
0.0
 11
2080.0
 21
-261.99999999999909
 31
0.0
1001
ACDBBLOCKREPETAG
1070
     1
1071
        8
1005
127DA2
  0
LINE
  5
127DA3
  8
OBJECT
 10
2024.102933093244
 20
-243.80694712379321
 30
0.0
 11
2024.102933093244
 21
-234.00999999999931
 31
0.0
1001
ACDBBLOCKREPETAG
1070
     1
1071
      138
1005
127DA3
  0
LINE
  5
127DA4
  8
OBJECT
 10
2024.102933093244
 20
-234.00999999999931
 30
0.0
 11
1986.589017458864
 21
-218.4712273665109
 31
0.0
1001
ACDBBLOCKREPETAG
1070
     1
1071
      139
1005
127DA4
  0
ARC
  5
127DA5
  8
OBJECT
 10
1982.7621831352151
 20
-227.7100226916217
 30
0.0
 40
10.0
 50
67.500000000120636
 51
154.0147343702935
1001
ACDBBLOCKREPETAG
1070
     1
1071
      140
1005
127DA5
  0
ARC
  5
127DA6
  8
OBJECT
 10
1986.022399255904
 20
-225.81327182420949
 30
0.0
 40
7.0
 50
67.500000000120636
 51
154.01473377487801
1001
ACDBBLOCKREPETAG
1070
     1
1071
      141
1005
127DA6
  0
ARC
  5
127DA7
  8
OBJECT
 10
1976.579695307315
 20
-207.1289369828437
 30
0.0
 40
60.031113246032611
 50
314.07020130418567
 51
322.33936106091278
1001
ACDBBLOCKREPETAG
1070
     1
1071
      150
1005
127DA7
  0
LINE
  5
127DA8
  8
OBJECT
 10
1969.4199755553
 20
-243.89888500818171
 30
0.0
 11
1979.7300520410211
 21
-222.74629179048591
 31
0.0
1001
ACDBBLOCKREPETAG
1070
     1
1071
      151
1005
127DA8
  0
LINE
  5
127DA9
  8
OBJECT
 10
1965.2972169006091
 20
-240.71813901882729
 30
0.0
 11
1973.7731156398149
 21
-223.32862273686899
 31
0.0
1001
ACDBBLOCKREPETAG
1070
     1
1071
      152
1005
127DA9
  0
CIRCLE
  5
127DAA
  8
OBJECT
 10
2000.0
 20
-199.99999999999909
 30
0.0
 40
53.5
1001
ACDBBLOCKREPETAG
1070
     1
1071
      153
1005
127DAA
  0
POINT
  5
127DAB
  8
DOTS
 10
2000.0
 20
-199.99999999999909
 30
0.0
 50
270.0
1001
ACDBBLOCKREPETAG
1070
     1
1071
      159
1005
127DAB
  0
ARC
  5
127DAC
  8
OBJECT
 10
5000.0
 20
-3014.9999999999959
 30
0.0
 40
50.0
 50
298.81994299999963
 51
228.52376955965599
1001
ACDBBLOCKREPETAG
1070
     1
1071
        1
1005
127DAC
  0
LINE
  5
127DAD
  8
CENTER
 10
5080.0
 20
-3014.9999999999959
 30
0.0
 11
4905.0
 21
-3014.9999999999959
 31
0.0
1001
ACDBBLOCKREPETAG
1070
     1
1071
        2
1005
127DAD
  0
LINE
  5
127DAE
  8
CENTER
 10
5000.0
 20
-3109.9999999999959
 30
0.0
 11
5000.0
 21
-2919.9999999999959
 31
0.0
1001
ACDBBLOCKREPETAG
1070
     1
1071
        3
1005
127DAE
  0
CIRCLE
  5
127DAF
  8
OBJECT
 10
5000.0
 20
-3014.9999999999959
 30
0.0
 40
70.0
1001
ACDBBLOCKREPETAG
1070
     1
1071
        4
1005
127DAF
  0
CIRCLE
  5
127DB0
  8
OBJECT
 10
5000.0
 20
-3014.9999999999959
 30
0.0
 40
77.0
1001
ACDBBLOCKREPETAG
1070
     1
1071
        5
1005
127DB0
  0
ARC
  5
127DB1
  8
OBJECT
 10
5000.0
 20
-3014.9999999999959
 30
0.0
 40
80.0
 50
50.805032573882329
 51
309.19496742611773
1001
ACDBBLOCKREPETAG
1070
     1
1071
        6
1005
127DB1
  0
LINE
  5
127DB2
  8
OBJECT
 10
5045.6618002273253
 20
-2952.9999999999959
 30
0.0
 11
5080.0
 21
-2952.9999999999959
 31
0.0
1001
ACDBBLOCKREPETAG
1070
     1
1071
        7
1005
127DB2
  0
LINE
  5
127DB3
  8
OBJECT
 10
5045.6618002273253
 20
-3076.9999999999959
 30
0.0
 11
5080.0
 21
-3076.9999999999959
 31
0.0
1001
ACDBBLOCKREPETAG
1070
     1
1071
        8
1005
127DB3
  0
LINE
  5
127DB4
  8
OBJECT
 10
5024.1029330932424
 20
-3058.80694712379
 30
0.0
 11
5024.1029330932424
 21
-3049.0099999999961
 31
0.0
1001
ACDBBLOCKREPETAG
1070
     1
1071
      138
1005
127DB4
  0
LINE
  5
127DB5
  8
OBJECT
 10
5024.1029330932424
 20
-3049.0099999999961
 30
0.0
 11
4986.589017458864
 21
-3033.4712273665082
 31
0.0
1001
ACDBBLOCKREPETAG
1070
     1
1071
      139
1005
127DB5
  0
ARC
  5
127DB6
  8
OBJECT
 10
4982.7621831352144
 20
-3042.7100226916191
 30
0.0
 40
10.0
 50
67.500000000100925
 51
154.01473437029199
1001
ACDBBLOCKREPETAG
1070
     1
1071
      140
1005
127DB6
  0
ARC
  5
127DB7
  8
OBJECT
 10
4986.022399255904
 20
-3040.8132718242082
 30
0.0
 40
7.0
 50
67.500000000100925
 51
154.01473377488071
1001
ACDBBLOCKREPETAG
1070
     1
1071
      141
1005
127DB7
  0
ARC
  5
127DB8
  8
OBJECT
 10
4976.5796953073141
 20
-3022.128936982841
 30
0.0
 40
60.031113246032611
 50
314.070201304188
 51
322.33936106089038
1001
ACDBBLOCKREPETAG
1070
     1
1071
      150
1005
127DB8
  0
LINE
  5
127DB9
  8
OBJECT
 10
4969.4199755553018
 20
-3058.8988850081791
 30
0.0
 11
4979.7300520410208
 21
-3037.7462917904832
 31
0.0
1001
ACDBBLOCKREPETAG
1070
     1
1071
      151
1005
127DB9
  0
LINE
  5
127DBA
  8
OBJECT
 10
4965.2972169006089
 20
-3055.7181390188248
 30
0.0
 11
4973.7731156398149
 21
-3038.3286227368649
 31
0.0
1001
ACDBBLOCKREPETAG
1070
     1
1071
      152
1005
127DBA
  0
CIRCLE
  5
127DBB
  8
OBJECT
 10
5000.0
 20
-3014.9999999999959
 30
0.0
 40
53.5
1001
ACDBBLOCKREPETAG
1070
     1
1071
      153
1005
127DBB
  0
POINT
  5
127DBC
  8
DOTS
 10
5000.0
 20
-3014.9999999999959
 30
0.0
 50
270.0
1001
ACDBBLOCKREPETAG
1070
     1
1071
      159
1005
127DBC
  0
ARC
  5
127DBD
  8
OBJECT
 10
4000.0
 20
-3014.9999999999959
 30
0.0
 40
50.0
 50
298.81994299999963
 51
228.52376955967549
1001
ACDBBLOCKREPETAG
1070
     1
1071
        1
1005
127DBD
  0
LINE
  5
127DBE
  8
CENTER
 10
4080.0
 20
-3014.9999999999959
 30
0.0
 11
3905.0
 21
-3014.9999999999959
 31
0.0
1001
ACDBBLOCKREPETAG
1070
     1
1071
        2
1005
127DBE
  0
LINE
  5
127DBF
  8
CENTER
 10
4000.0
 20
-3109.9999999999959
 30
0.0
 11
4000.0
 21
-2919.9999999999959
 31
0.0
1001
ACDBBLOCKREPETAG
1070
     1
1071
        3
1005
127DBF
  0
CIRCLE
  5
127DC0
  8
OBJECT
 10
4000.0
 20
-3014.9999999999959
 30
0.0
 40
70.0
1001
ACDBBLOCKREPETAG
1070
     1
1071
        4
1005
127DC0
  0
CIRCLE
  5
127DC1
  8
OBJECT
 10
4000.0
 20
-3014.9999999999959
 30
0.0
 40
77.0
1001
ACDBBLOCKREPETAG
1070
     1
1071
        5
1005
127DC1
  0
ARC
  5
127DC2
  8
OBJECT
 10
4000.0
 20
-3014.9999999999959
 30
0.0
 40
80.0
 50
50.805032573862128
 51
309.19496742613791
1001
ACDBBLOCKREPETAG
1070
     1
1071
        6
1005
127DC2
  0
LINE
  5
127DC3
  8
OBJECT
 10
4045.661800227324
 20
-2952.9999999999959
 30
0.0
 11
4080.0
 21
-2952.9999999999959
 31
0.0
1001
ACDBBLOCKREPETAG
1070
     1
1071
        7
1005
127DC3
  0
LINE
  5
127DC4
  8
OBJECT
 10
4045.661800227324
 20
-3076.9999999999959
 30
0.0
 11
4080.0
 21
-3076.9999999999959
 31
0.0
1001
ACDBBLOCKREPETAG
1070
     1
1071
        8
1005
127DC4
  0
LINE
  5
127DC5
  8
OBJECT
 10
4024.102933093242
 20
-3058.80694712379
 30
0.0
 11
4024.102933093242
 21
-3049.0099999999961
 31
0.0
1001
ACDBBLOCKREPETAG
1070
     1
1071
      138
1005
127DC5
  0
LINE
  5
127DC6
  8
OBJECT
 10
4024.102933093242
 20
-3049.0099999999961
 30
0.0
 11
3986.589017458864
 21
-3033.4712273665082
 31
0.0
1001
ACDBBLOCKREPETAG
1070
     1
1071
      139
1005
127DC6
  0
ARC
  5
127DC7
  8
OBJECT
 10
3982.7621831352162
 20
-3042.7100226916191
 30
0.0
 40
10.0
 50
67.500000000124999
 51
154.01473437029199
1001
ACDBBLOCKREPETAG
1070
     1
1071
      140
1005
127DC7
  0
ARC
  5
127DC8
  8
OBJECT
 10
3986.022399255904
 20
-3040.8132718242082
 30
0.0
 40
7.0
 50
67.500000000124999
 51
154.01473377488071
1001
ACDBBLOCKREPETAG
1070
     1
1071
      141
1005
127DC8
  0
ARC
  5
127DC9
  8
OBJECT
 10
3976.579695307315
 20
-3022.128936982841
 30
0.0
 40
60.031113246032611
 50
314.070201304188
 51
322.3393610609063
1001
ACDBBLOCKREPETAG
1070
     1
1071
      150
1005
127DC9
  0
LINE
  5
127DCA
  8
OBJECT
 10
3969.4199755553018
 20
-3058.8988850081791
 30
0.0
 11
3979.7300520410208
 21
-3037.7462917904832
 31
0.0
1001
ACDBBLOCKREPETAG
1070
     1
1071
      151
1005
127DCA
  0
LINE
  5
127DCB
  8
OBJECT
 10
3965.2972169006089
 20
-3055.7181390188248
 30
0.0
 11
3973.7731156398149
 21
-3038.3286227368649
 31
0.0
1001
ACDBBLOCKREPETAG
1070
     1
1071
      152
1005
127DCB
  0
CIRCLE
  5
127DCC
  8
OBJECT
 10
4000.0
 20
-3014.9999999999959
 30
0.0
 40
53.5
1001
ACDBBLOCKREPETAG
1070
     1
1071
      153
1005
127DCC
  0
POINT
  5
127DCD
  8
DOTS
 10
4000.0
 20
-3014.9999999999959
 30
0.0
 50
270.0
1001
ACDBBLOCKREPETAG
1070
     1
1071
      159
1005
127DCD
  0
ARC
  5
127DCE
  8
OBJECT
 10
3000.0
 20
-3014.9999999999959
 30
0.0
 40
50.0
 50
298.81994299999963
 51
228.52376955967549
1001
ACDBBLOCKREPETAG
1070
     1
1071
        1
1005
127DCE
  0
LINE
  5
127DCF
  8
CENTER
 10
3080.0
 20
-3014.9999999999959
 30
0.0
 11
2905.0
 21
-3014.9999999999959
 31
0.0
1001
ACDBBLOCKREPETAG
1070
     1
1071
        2
1005
127DCF
  0
LINE
  5
127DD0
  8
CENTER
 10
3000.0
 20
-3109.9999999999959
 30
0.0
 11
3000.0
 21
-2919.9999999999959
 31
0.0
1001
ACDBBLOCKREPETAG
1070
     1
1071
        3
1005
127DD0
  0
CIRCLE
  5
127DD1
  8
OBJECT
 10
3000.0
 20
-3014.9999999999959
 30
0.0
 40
70.0
1001
ACDBBLOCKREPETAG
1070
     1
1071
        4
1005
127DD1
  0
CIRCLE
  5
127DD2
  8
OBJECT
 10
3000.0
 20
-3014.9999999999959
 30
0.0
 40
77.0
1001
ACDBBLOCKREPETAG
1070
     1
1071
        5
1005
127DD2
  0
ARC
  5
127DD3
  8
OBJECT
 10
3000.0
 20
-3014.9999999999959
 30
0.0
 40
80.0
 50
50.805032573862128
 51
309.19496742613791
1001
ACDBBLOCKREPETAG
1070
     1
1071
        6
1005
127DD3
  0
LINE
  5
127DD4
  8
OBJECT
 10
3045.6618002273249
 20
-2952.9999999999959
 30
0.0
 11
3080.0
 21
-2952.9999999999959
 31
0.0
1001
ACDBBLOCKREPETAG
1070
     1
1071
        7
1005
127DD4
  0
LINE
  5
127DD5
  8
OBJECT
 10
3045.6618002273249
 20
-3076.9999999999959
 30
0.0
 11
3080.0
 21
-3076.9999999999959
 31
0.0
1001
ACDBBLOCKREPETAG
1070
     1
1071
        8
1005
127DD5
  0
LINE
  5
127DD6
  8
OBJECT
 10
3024.1029330932438
 20
-3058.80694712379
 30
0.0
 11
3024.1029330932438
 21
-3049.0099999999961
 31
0.0
1001
ACDBBLOCKREPETAG
1070
     1
1071
      138
1005
127DD6
  0
LINE
  5
127DD7
  8
OBJECT
 10
3024.1029330932438
 20
-3049.0099999999961
 30
0.0
 11
2986.589017458864
 21
-3033.4712273665082
 31
0.0
1001
ACDBBLOCKREPETAG
1070
     1
1071
      139
1005
127DD7
  0
ARC
  5
127DD8
  8
OBJECT
 10
2982.7621831352162
 20
-3042.7100226916191
 30
0.0
 40
10.0
 50
67.500000000124999
 51
154.01473437029199
1001
ACDBBLOCKREPETAG
1070
     1
1071
      140
1005
127DD8
  0
ARC
  5
127DD9
  8
OBJECT
 10
2986.022399255904
 20
-3040.8132718242082
 30
0.0
 40
7.0
 50
67.500000000124999
 51
154.01473377488071
1001
ACDBBLOCKREPETAG
1070
     1
1071
      141
1005
127DD9
  0
ARC
  5
127DDA
  8
OBJECT
 10
2976.579695307315
 20
-3022.128936982841
 30
0.0
 40
60.031113246032611
 50
314.070201304188
 51
322.3393610609063
1001
ACDBBLOCKREPETAG
1070
     1
1071
      150
1005
127DDA
  0
LINE
  5
127DDB
  8
OBJECT
 10
2969.4199755553018
 20
-3058.8988850081791
 30
0.0
 11
2979.7300520410222
 21
-3037.7462917904832
 31
0.0
1001
ACDBBLOCKREPETAG
1070
     1
1071
      151
1005
127DDB
  0
LINE
  5
127DDC
  8
OBJECT
 10
2965.2972169006089
 20
-3055.7181390188248
 30
0.0
 11
2973.7731156398149
 21
-3038.3286227368649
 31
0.0
1001
ACDBBLOCKREPETAG
1070
     1
1071
      152
1005
127DDC
  0
CIRCLE
  5
127DDD
  8
OBJECT
 10
3000.0
 20
-3014.9999999999959
 30
0.0
 40
53.5
1001
ACDBBLOCKREPETAG
1070
     1
1071
      153
1005
127DDD
  0
POINT
  5
127DDE
  8
DOTS
 10
3000.0
 20
-3014.9999999999959
 30
0.0
 50
270.0
1001
ACDBBLOCKREPETAG
1070
     1
1071
      159
1005
127DDE
  0
ARC
  5
127DDF
  8
OBJECT
 10
2000.0
 20
-3014.9999999999959
 30
0.0
 40
50.0
 50
298.81994299999963
 51
228.52376955967549
1001
ACDBBLOCKREPETAG
1070
     1
1071
        1
1005
127DDF
  0
LINE
  5
127DE0
  8
CENTER
 10
2080.0
 20
-3014.9999999999959
 30
0.0
 11
1905.0
 21
-3014.9999999999959
 31
0.0
1001
ACDBBLOCKREPETAG
1070
     1
1071
        2
1005
127DE0
  0
LINE
  5
127DE1
  8
CENTER
 10
2000.0
 20
-3109.9999999999959
 30
0.0
 11
2000.0
 21
-2919.9999999999959
 31
0.0
1001
ACDBBLOCKREPETAG
1070
     1
1071
        3
1005
127DE1
  0
CIRCLE
  5
127DE2
  8
OBJECT
 10
2000.0
 20
-3014.9999999999959
 30
0.0
 40
70.0
1001
ACDBBLOCKREPETAG
1070
     1
1071
        4
1005
127DE2
  0
CIRCLE
  5
127DE3
  8
OBJECT
 10
2000.0
 20
-3014.9999999999959
 30
0.0
 40
77.0
1001
ACDBBLOCKREPETAG
1070
     1
1071
        5
1005
127DE3
  0
ARC
  5
127DE4
  8
OBJECT
 10
2000.0
 20
-3014.9999999999959
 30
0.0
 40
80.0
 50
50.805032573862128
 51
309.19496742613791
1001
ACDBBLOCKREPETAG
1070
     1
1071
        6
1005
127DE4
  0
LINE
  5
127DE5
  8
OBJECT
 10
2045.6618002273251
 20
-2952.9999999999959
 30
0.0
 11
2080.0
 21
-2952.9999999999959
 31
0.0
1001
ACDBBLOCKREPETAG
1070
     1
1071
        7
1005
127DE5
  0
LINE
  5
127DE6
  8
OBJECT
 10
2045.6618002273251
 20
-3076.9999999999959
 30
0.0
 11
2080.0
 21
-3076.9999999999959
 31
0.0
1001
ACDBBLOCKREPETAG
1070
     1
1071
        8
1005
127DE6
  0
LINE
  5
127DE7
  8
OBJECT
 10
2024.102933093244
 20
-3058.80694712379
 30
0.0
 11
2024.102933093244
 21
-3049.0099999999961
 31
0.0
1001
ACDBBLOCKREPETAG
1070
     1
1071
      138
1005
127DE7
  0
LINE
  5
127DE8
  8
OBJECT
 10
2024.102933093244
 20
-3049.0099999999961
 30
0.0
 11
1986.589017458864
 21
-3033.4712273665082
 31
0.0
1001
ACDBBLOCKREPETAG
1070
     1
1071
      139
1005
127DE8
  0
ARC
  5
127DE9
  8
OBJECT
 10
1982.7621831352151
 20
-3042.7100226916191
 30
0.0
 40
10.0
 50
67.500000000124999
 51
154.01473437029199
1001
ACDBBLOCKREPETAG
1070
     1
1071
      140
1005
127DE9
  0
ARC
  5
127DEA
  8
OBJECT
 10
1986.022399255904
 20
-3040.8132718242082
 30
0.0
 40
7.0
 50
67.500000000124999
 51
154.01473377487511
1001
ACDBBLOCKREPETAG
1070
     1
1071
      141
1005
127DEA
  0
ARC
  5
127DEB
  8
OBJECT
 10
1976.579695307315
 20
-3022.128936982841
 30
0.0
 40
60.031113246032611
 50
314.070201304188
 51
322.3393610609063
1001
ACDBBLOCKREPETAG
1070
     1
1071
      150
1005
127DEB
  0
LINE
  5
127DEC
  8
OBJECT
 10
1969.4199755553
 20
-3058.8988850081791
 30
0.0
 11
1979.7300520410211
 21
-3037.7462917904832
 31
0.0
1001
ACDBBLOCKREPETAG
1070
     1
1071
      151
1005
127DEC
  0
LINE
  5
127DED
  8
OBJECT
 10
1965.2972169006091
 20
-3055.7181390188248
 30
0.0
 11
1973.7731156398149
 21
-3038.3286227368649
 31
0.0
1001
ACDBBLOCKREPETAG
1070
     1
1071
      152
1005
127DED
  0
CIRCLE
  5
127DEE
  8
OBJECT
 10
2000.0
 20
-3014.9999999999959
 30
0.0
 40
53.5
1001
ACDBBLOCKREPETAG
1070
     1
1071
      153
1005
127DEE
  0
POINT
  5
127DEF
  8
DOTS
 10
2000.0
 20
-3014.9999999999959
 30
0.0
 50
270.0
1001
ACDBBLOCKREPETAG
1070
     1
1071
      159
1005
127DEF
  0
LINE
  5
127DF0
  8
OBJECT
 10
4923.0
 20
-3235.9999999999968
 30
0.0
 11
4923.0
 21
-3214.9999999999968
 31
0.0
1001
ACDBBLOCKREPETAG
1070
     1
1071
        0
1005
127DF0
  0
LINE
  5
127DF1
  8
OBJECT
 10
4923.0
 20
-3214.9999999999968
 30
0.0
 11
5077.0
 21
-3214.9999999999968
 31
0.0
1001
ACDBBLOCKREPETAG
1070
     1
1071
        1
1005
127DF1
  0
LINE
  5
127DF2
  8
HIDDEN
 10
4943.0
 20
-3284.9999999999968
 30
0.0
 11
5057.0
 21
-3284.9999999999968
 31
0.0
1001
ACDBBLOCKREPETAG
1070
     1
1071
        2
1005
127DF2
  0
LINE
  5
127DF3
  8
OBJECT
 10
5077.0
 20
-3214.9999999999968
 30
0.0
 11
5077.0
 21
-3235.9999999999968
 31
0.0
1001
ACDBBLOCKREPETAG
1070
     1
1071
        3
1005
127DF3
  0
LINE
  5
127DF4
  8
OBJECT
 10
5077.0
 20
-3235.9999999999968
 30
0.0
 11
4923.0
 21
-3235.9999999999968
 31
0.0
1001
ACDBBLOCKREPETAG
1070
     1
1071
        4
1005
127DF4
  0
LINE
  5
127DF5
  8
CENTER
 10
5000.0
 20
-3199.9999999999968
 30
0.0
 11
5000.0
 21
-3434.9999999999968
 31
0.0
1001
ACDBBLOCKREPETAG
1070
     1
1071
        5
1005
127DF5
  0
LINE
  5
127DF6
  8
OBJECT
 10
4925.0
 20
-3298.9999999999968
 30
0.0
 11
4925.0
 21
-3422.9999999999968
 31
0.0
1001
ACDBBLOCKREPETAG
1070
     1
1071
        6
1005
127DF6
  0
LINE
  5
127DF7
  8
OBJECT
 10
4928.0
 20
-3235.9999999999968
 30
0.0
 11
4928.0
 21
-3298.9999999999968
 31
0.0
1001
ACDBBLOCKREPETAG
1070
     1
1071
        7
1005
127DF7
  0
LINE
  5
127DF8
  8
OBJECT
 10
5072.0
 20
-3298.9999999999968
 30
0.0
 11
5072.0
 21
-3235.9999999999968
 31
0.0
1001
ACDBBLOCKREPETAG
1070
     1
1071
        8
1005
127DF8
  0
LINE
  5
127DF9
  8
OBJECT
 10
5074.9999999997999
 20
-3422.9999999997772
 30
0.0
 11
5080.0
 21
-3422.9999999999968
 31
0.0
1001
ACDBBLOCKREPETAG
1070
     1
1071
        9
1005
127DF9
  0
LINE
  5
127DFA
  8
OBJECT
 10
5080.0
 20
-3298.9999999999968
 30
0.0
 11
4925.0
 21
-3298.9999999999968
 31
0.0
1001
ACDBBLOCKREPETAG
1070
     1
1071
       10
1005
127DFA
  0
ARC
  5
127DFB
  8
OBJECT
 10
5200.6872746716726
 20
-3414.408099410105
 30
0.0
 40
170.6350503965856
 50
137.44134459184301
 51
149.9194958133665
1001
ACDBBLOCKREPETAG
1070
     1
1071
       15
1005
127DFB
  0
ARC
  5
127DFC
  8
OBJECT
 10
5118.8455987040506
 20
-3370.8827266953631
 30
0.0
 40
78.072222021763665
 50
147.4551531037684
 51
164.66365997719291
1001
ACDBBLOCKREPETAG
1070
     1
1071
       16
1005
127DFC
  0
ARC
  5
127DFD
  8
OBJECT
 10
5085.7554349608727
 20
-3360.9999999999968
 30
0.0
 40
43.55353926885617
 50
165.6884523008477
 51
194.3115476991523
1001
ACDBBLOCKREPETAG
1070
     1
1071
       17
1005
127DFD
  0
ARC
  5
127DFE
  8
OBJECT
 10
5200.6872746716726
 20
-3307.5919005898891
 30
0.0
 40
170.6350503965856
 50
210.0805041866335
 51
222.55865540815699
1001
ACDBBLOCKREPETAG
1070
     1
1071
       18
1005
127DFE
  0
ARC
  5
127DFF
  8
OBJECT
 10
5118.8455987040506
 20
-3351.1172733046342
 30
0.0
 40
78.072222021763665
 50
195.33634002280701
 51
212.5448468962316
1001
ACDBBLOCKREPETAG
1070
     1
1071
       19
1005
127DFF
  0
POINT
  5
127E00
  8
DOTS
 10
5000.0
 20
-3419.9999999999968
 30
0.0
1001
ACDBBLOCKREPETAG
1070
     1
1071
      186
1005
127E00
  0
LINE
  5
127E01
  8
OBJECT
 10
4323.0
 20
-3235.9999999999968
 30
0.0
 11
4323.0
 21
-3214.9999999999968
 31
0.0
1001
ACDBBLOCKREPETAG
1070
     1
1071
       20
1005
127E01
  0
LINE
  5
127E02
  8
OBJECT
 10
4323.0
 20
-3214.9999999999968
 30
0.0
 11
4477.0
 21
-3214.9999999999968
 31
0.0
1001
ACDBBLOCKREPETAG
1070
     1
1071
       21
1005
127E02
  0
LINE
  5
127E03
  8
HIDDEN
 10
4343.0
 20
-3284.9999999999968
 30
0.0
 11
4457.0
 21
-3284.9999999999968
 31
0.0
1001
ACDBBLOCKREPETAG
1070
     1
1071
       22
1005
127E03
  0
LINE
  5
127E04
  8
OBJECT
 10
4477.0
 20
-3214.9999999999968
 30
0.0
 11
4477.0
 21
-3235.9999999999968
 31
0.0
1001
ACDBBLOCKREPETAG
1070
     1
1071
       23
1005
127E04
  0
LINE
  5
127E05
  8
OBJECT
 10
4477.0
 20
-3235.9999999999968
 30
0.0
 11
4323.0
 21
-3235.9999999999968
 31
0.0
1001
ACDBBLOCKREPETAG
1070
     1
1071
       24
1005
127E05
  0
LINE
  5
127E06
  8
CENTER
 10
4400.0
 20
-3199.9999999999968
 30
0.0
 11
4400.0
 21
-3434.9999999999968
 31
0.0
1001
ACDBBLOCKREPETAG
1070
     1
1071
       25
1005
127E06
  0
LINE
  5
127E07
  8
OBJECT
 10
4325.0
 20
-3298.9999999999968
 30
0.0
 11
4325.0
 21
-3422.9999999999968
 31
0.0
1001
ACDBBLOCKREPETAG
1070
     1
1071
       26
1005
127E07
  0
LINE
  5
127E08
  8
OBJECT
 10
4328.0
 20
-3235.9999999999968
 30
0.0
 11
4328.0
 21
-3298.9999999999968
 31
0.0
1001
ACDBBLOCKREPETAG
1070
     1
1071
       27
1005
127E08
  0
LINE
  5
127E09
  8
OBJECT
 10
4472.0
 20
-3298.9999999999968
 30
0.0
 11
4472.0
 21
-3235.9999999999968
 31
0.0
1001
ACDBBLOCKREPETAG
1070
     1
1071
       28
1005
127E09
  0
LINE
  5
127E0A
  8
OBJECT
 10
4475.0
 20
-3298.9999999999968
 30
0.0
 11
4325.0
 21
-3298.9999999999968
 31
0.0
1001
ACDBBLOCKREPETAG
1070
     1
1071
       30
1005
127E0A
  0
LINE
  5
127E0B
  8
OBJECT
 10
4475.0
 20
-3298.9999999999968
 30
0.0
 11
4475.0
 21
-3422.9999999999968
 31
0.0
1001
ACDBBLOCKREPETAG
1070
     1
1071
       34
1005
127E0B
  0
POINT
  5
127E0C
  8
DOTS
 10
4400.0
 20
-3419.9999999999968
 30
0.0
1001
ACDBBLOCKREPETAG
1070
     1
1071
      187
1005
127E0C
  0
LINE
  5
127E0D
  8
OBJECT
 10
3923.0
 20
-3235.9999999999968
 30
0.0
 11
3923.0
 21
-3214.9999999999968
 31
0.0
1001
ACDBBLOCKREPETAG
1070
     1
1071
        0
1005
127E0D
  0
LINE
  5
127E0E
  8
OBJECT
 10
3923.0
 20
-3214.9999999999968
 30
0.0
 11
4077.0
 21
-3214.9999999999968
 31
0.0
1001
ACDBBLOCKREPETAG
1070
     1
1071
        1
1005
127E0E
  0
LINE
  5
127E0F
  8
HIDDEN
 10
3943.0
 20
-3284.9999999999968
 30
0.0
 11
4057.0
 21
-3284.9999999999968
 31
0.0
1001
ACDBBLOCKREPETAG
1070
     1
1071
        2
1005
127E0F
  0
LINE
  5
127E10
  8
OBJECT
 10
4077.0
 20
-3214.9999999999968
 30
0.0
 11
4077.0
 21
-3235.9999999999968
 31
0.0
1001
ACDBBLOCKREPETAG
1070
     1
1071
        3
1005
127E10
  0
LINE
  5
127E11
  8
OBJECT
 10
4077.0
 20
-3235.9999999999968
 30
0.0
 11
3923.0
 21
-3235.9999999999968
 31
0.0
1001
ACDBBLOCKREPETAG
1070
     1
1071
        4
1005
127E11
  0
LINE
  5
127E12
  8
CENTER
 10
4000.0
 20
-3199.9999999999968
 30
0.0
 11
4000.0
 21
-3434.9999999999968
 31
0.0
1001
ACDBBLOCKREPETAG
1070
     1
1071
        5
1005
127E12
  0
LINE
  5
127E13
  8
OBJECT
 10
3925.0
 20
-3298.9999999999968
 30
0.0
 11
3925.0
 21
-3422.9999999999968
 31
0.0
1001
ACDBBLOCKREPETAG
1070
     1
1071
        6
1005
127E13
  0
LINE
  5
127E14
  8
OBJECT
 10
3928.0
 20
-3235.9999999999968
 30
0.0
 11
3928.0
 21
-3298.9999999999968
 31
0.0
1001
ACDBBLOCKREPETAG
1070
     1
1071
        7
1005
127E14
  0
LINE
  5
127E15
  8
OBJECT
 10
4072.0
 20
-3298.9999999999968
 30
0.0
 11
4072.0
 21
-3235.9999999999968
 31
0.0
1001
ACDBBLOCKREPETAG
1070
     1
1071
        8
1005
127E15
  0
LINE
  5
127E16
  8
OBJECT
 10
4074.999999999799
 20
-3422.9999999997772
 30
0.0
 11
4080.0
 21
-3422.9999999999968
 31
0.0
1001
ACDBBLOCKREPETAG
1070
     1
1071
        9
1005
127E16
  0
LINE
  5
127E17
  8
OBJECT
 10
4080.0
 20
-3298.9999999999968
 30
0.0
 11
3925.0
 21
-3298.9999999999968
 31
0.0
1001
ACDBBLOCKREPETAG
1070
     1
1071
       10
1005
127E17
  0
ARC
  5
127E18
  8
OBJECT
 10
4200.6872746716726
 20
-3414.408099410105
 30
0.0
 40
170.6350503965856
 50
137.44134459184301
 51
149.9194958133665
1001
ACDBBLOCKREPETAG
1070
     1
1071
       15
1005
127E18
  0
ARC
  5
127E19
  8
OBJECT
 10
4118.8455987040506
 20
-3370.8827266953631
 30
0.0
 40
78.072222021763665
 50
147.4551531037684
 51
164.663659977186
1001
ACDBBLOCKREPETAG
1070
     1
1071
       16
1005
127E19
  0
ARC
  5
127E1A
  8
OBJECT
 10
4085.7554349608722
 20
-3360.9999999999968
 30
0.0
 40
43.55353926885617
 50
165.6884523008477
 51
194.3115476991523
1001
ACDBBLOCKREPETAG
1070
     1
1071
       17
1005
127E1A
  0
ARC
  5
127E1B
  8
OBJECT
 10
4200.6872746716726
 20
-3307.5919005898891
 30
0.0
 40
170.6350503965856
 50
210.0805041866335
 51
222.55865540815699
1001
ACDBBLOCKREPETAG
1070
     1
1071
       18
1005
127E1B
  0
ARC
  5
127E1C
  8
OBJECT
 10
4118.8455987040506
 20
-3351.1172733046342
 30
0.0
 40
78.072222021763665
 50
195.33634002281391
 51
212.5448468962316
1001
ACDBBLOCKREPETAG
1070
     1
1071
       19
1005
127E1C
  0
POINT
  5
127E1D
  8
DOTS
 10
4000.0
 20
-3419.9999999999968
 30
0.0
1001
ACDBBLOCKREPETAG
1070
     1
1071
      186
1005
127E1D
  0
LINE
  5
127E1E
  8
OBJECT
 10
3323.0
 20
-3235.9999999999968
 30
0.0
 11
3323.0
 21
-3214.9999999999968
 31
0.0
1001
ACDBBLOCKREPETAG
1070
     1
1071
       20
1005
127E1E
  0
LINE
  5
127E1F
  8
OBJECT
 10
3323.0
 20
-3214.9999999999968
 30
0.0
 11
3477.0
 21
-3214.9999999999968
 31
0.0
1001
ACDBBLOCKREPETAG
1070
     1
1071
       21
1005
127E1F
  0
LINE
  5
127E20
  8
HIDDEN
 10
3343.0
 20
-3284.9999999999968
 30
0.0
 11
3457.0
 21
-3284.9999999999968
 31
0.0
1001
ACDBBLOCKREPETAG
1070
     1
1071
       22
1005
127E20
  0
LINE
  5
127E21
  8
OBJECT
 10
3477.0
 20
-3214.9999999999968
 30
0.0
 11
3477.0
 21
-3235.9999999999968
 31
0.0
1001
ACDBBLOCKREPETAG
1070
     1
1071
       23
1005
127E21
  0
LINE
  5
127E22
  8
OBJECT
 10
3477.0
 20
-3235.9999999999968
 30
0.0
 11
3323.0
 21
-3235.9999999999968
 31
0.0
1001
ACDBBLOCKREPETAG
1070
     1
1071
       24
1005
127E22
  0
LINE
  5
127E23
  8
CENTER
 10
3400.0
 20
-3199.9999999999968
 30
0.0
 11
3400.0
 21
-3434.9999999999968
 31
0.0
1001
ACDBBLOCKREPETAG
1070
     1
1071
       25
1005
127E23
  0
LINE
  5
127E24
  8
OBJECT
 10
3325.0
 20
-3298.9999999999968
 30
0.0
 11
3325.0
 21
-3422.9999999999968
 31
0.0
1001
ACDBBLOCKREPETAG
1070
     1
1071
       26
1005
127E24
  0
LINE
  5
127E25
  8
OBJECT
 10
3328.0
 20
-3235.9999999999968
 30
0.0
 11
3328.0
 21
-3298.9999999999968
 31
0.0
1001
ACDBBLOCKREPETAG
1070
     1
1071
       27
1005
127E25
  0
LINE
  5
127E26
  8
OBJECT
 10
3472.0
 20
-3298.9999999999968
 30
0.0
 11
3472.0
 21
-3235.9999999999968
 31
0.0
1001
ACDBBLOCKREPETAG
1070
     1
1071
       28
1005
127E26
  0
LINE
  5
127E27
  8
OBJECT
 10
3475.0
 20
-3298.9999999999968
 30
0.0
 11
3325.0
 21
-3298.9999999999968
 31
0.0
1001
ACDBBLOCKREPETAG
1070
     1
1071
       30
1005
127E27
  0
LINE
  5
127E28
  8
OBJECT
 10
3475.0
 20
-3298.9999999999968
 30
0.0
 11
3475.0
 21
-3422.9999999999968
 31
0.0
1001
ACDBBLOCKREPETAG
1070
     1
1071
       34
1005
127E28
  0
POINT
  5
127E29
  8
DOTS
 10
3400.0
 20
-3419.9999999999968
 30
0.0
1001
ACDBBLOCKREPETAG
1070
     1
1071
      187
1005
127E29
  0
LINE
  5
127E2A
  8
OBJECT
 10
2923.0
 20
-3235.9999999999968
 30
0.0
 11
2923.0
 21
-3214.9999999999968
 31
0.0
1001
ACDBBLOCKREPETAG
1070
     1
1071
        0
1005
127E2A
  0
LINE
  5
127E2B
  8
OBJECT
 10
2923.0
 20
-3214.9999999999968
 30
0.0
 11
3077.0
 21
-3214.9999999999968
 31
0.0
1001
ACDBBLOCKREPETAG
1070
     1
1071
        1
1005
127E2B
  0
LINE
  5
127E2C
  8
HIDDEN
 10
2943.0
 20
-3284.9999999999968
 30
0.0
 11
3057.0
 21
-3284.9999999999968
 31
0.0
1001
ACDBBLOCKREPETAG
1070
     1
1071
        2
1005
127E2C
  0
LINE
  5
127E2D
  8
OBJECT
 10
3077.0
 20
-3214.9999999999968
 30
0.0
 11
3077.0
 21
-3235.9999999999968
 31
0.0
1001
ACDBBLOCKREPETAG
1070
     1
1071
        3
1005
127E2D
  0
LINE
  5
127E2E
  8
OBJECT
 10
3077.0
 20
-3235.9999999999968
 30
0.0
 11
2923.0
 21
-3235.9999999999968
 31
0.0
1001
ACDBBLOCKREPETAG
1070
     1
1071
        4
1005
127E2E
  0
LINE
  5
127E2F
  8
CENTER
 10
3000.0
 20
-3199.9999999999968
 30
0.0
 11
3000.0
 21
-3434.9999999999968
 31
0.0
1001
ACDBBLOCKREPETAG
1070
     1
1071
        5
1005
127E2F
  0
LINE
  5
127E30
  8
OBJECT
 10
2925.0
 20
-3298.9999999999968
 30
0.0
 11
2925.0
 21
-3422.9999999999968
 31
0.0
1001
ACDBBLOCKREPETAG
1070
     1
1071
        6
1005
127E30
  0
LINE
  5
127E31
  8
OBJECT
 10
2928.0
 20
-3235.9999999999968
 30
0.0
 11
2928.0
 21
-3298.9999999999968
 31
0.0
1001
ACDBBLOCKREPETAG
1070
     1
1071
        7
1005
127E31
  0
LINE
  5
127E32
  8
OBJECT
 10
3072.0
 20
-3298.9999999999968
 30
0.0
 11
3072.0
 21
-3235.9999999999968
 31
0.0
1001
ACDBBLOCKREPETAG
1070
     1
1071
        8
1005
127E32
  0
LINE
  5
127E33
  8
OBJECT
 10
3074.9999999997999
 20
-3422.9999999997772
 30
0.0
 11
3080.0
 21
-3422.9999999999968
 31
0.0
1001
ACDBBLOCKREPETAG
1070
     1
1071
        9
1005
127E33
  0
LINE
  5
127E34
  8
OBJECT
 10
3080.0
 20
-3298.9999999999968
 30
0.0
 11
2925.0
 21
-3298.9999999999968
 31
0.0
1001
ACDBBLOCKREPETAG
1070
     1
1071
       10
1005
127E34
  0
ARC
  5
127E35
  8
OBJECT
 10
3200.6872746716722
 20
-3414.408099410105
 30
0.0
 40
170.6350503965856
 50
137.44134459184301
 51
149.9194958133665
1001
ACDBBLOCKREPETAG
1070
     1
1071
       15
1005
127E35
  0
ARC
  5
127E36
  8
OBJECT
 10
3118.8455987040511
 20
-3370.8827266953631
 30
0.0
 40
78.072222021763665
 50
147.4551531037684
 51
164.663659977186
1001
ACDBBLOCKREPETAG
1070
     1
1071
       16
1005
127E36
  0
ARC
  5
127E37
  8
OBJECT
 10
3085.7554349608731
 20
-3360.9999999999968
 30
0.0
 40
43.55353926885617
 50
165.6884523008477
 51
194.3115476991523
1001
ACDBBLOCKREPETAG
1070
     1
1071
       17
1005
127E37
  0
ARC
  5
127E38
  8
OBJECT
 10
3200.6872746716722
 20
-3307.5919005898891
 30
0.0
 40
170.6350503965856
 50
210.0805041866335
 51
222.55865540815699
1001
ACDBBLOCKREPETAG
1070
     1
1071
       18
1005
127E38
  0
ARC
  5
127E39
  8
OBJECT
 10
3118.8455987040511
 20
-3351.1172733046342
 30
0.0
 40
78.072222021763665
 50
195.33634002281391
 51
212.5448468962316
1001
ACDBBLOCKREPETAG
1070
     1
1071
       19
1005
127E39
  0
POINT
  5
127E3A
  8
DOTS
 10
3000.0
 20
-3419.9999999999968
 30
0.0
1001
ACDBBLOCKREPETAG
1070
     1
1071
      186
1005
127E3A
  0
LINE
  5
127E3B
  8
OBJECT
 10
2323.0
 20
-3235.9999999999968
 30
0.0
 11
2323.0
 21
-3214.9999999999968
 31
0.0
1001
ACDBBLOCKREPETAG
1070
     1
1071
       20
1005
127E3B
  0
LINE
  5
127E3C
  8
OBJECT
 10
2323.0
 20
-3214.9999999999968
 30
0.0
 11
2477.0
 21
-3214.9999999999968
 31
0.0
1001
ACDBBLOCKREPETAG
1070
     1
1071
       21
1005
127E3C
  0
LINE
  5
127E3D
  8
HIDDEN
 10
2343.0
 20
-3284.9999999999968
 30
0.0
 11
2457.0
 21
-3284.9999999999968
 31
0.0
1001
ACDBBLOCKREPETAG
1070
     1
1071
       22
1005
127E3D
  0
LINE
  5
127E3E
  8
OBJECT
 10
2477.0
 20
-3214.9999999999968
 30
0.0
 11
2477.0
 21
-3235.9999999999968
 31
0.0
1001
ACDBBLOCKREPETAG
1070
     1
1071
       23
1005
127E3E
  0
LINE
  5
127E3F
  8
OBJECT
 10
2477.0
 20
-3235.9999999999968
 30
0.0
 11
2323.0
 21
-3235.9999999999968
 31
0.0
1001
ACDBBLOCKREPETAG
1070
     1
1071
       24
1005
127E3F
  0
LINE
  5
127E40
  8
CENTER
 10
2400.0
 20
-3199.9999999999968
 30
0.0
 11
2400.0
 21
-3434.9999999999968
 31
0.0
1001
ACDBBLOCKREPETAG
1070
     1
1071
       25
1005
127E40
  0
LINE
  5
127E41
  8
OBJECT
 10
2325.0
 20
-3298.9999999999968
 30
0.0
 11
2325.0
 21
-3422.9999999999968
 31
0.0
1001
ACDBBLOCKREPETAG
1070
     1
1071
       26
1005
127E41
  0
LINE
  5
127E42
  8
OBJECT
 10
2328.0
 20
-3235.9999999999968
 30
0.0
 11
2328.0
 21
-3298.9999999999968
 31
0.0
1001
ACDBBLOCKREPETAG
1070
     1
1071
       27
1005
127E42
  0
LINE
  5
127E43
  8
OBJECT
 10
2472.0
 20
-3298.9999999999968
 30
0.0
 11
2472.0
 21
-3235.9999999999968
 31
0.0
1001
ACDBBLOCKREPETAG
1070
     1
1071
       28
1005
127E43
  0
LINE
  5
127E44
  8
OBJECT
 10
2475.0
 20
-3298.9999999999968
 30
0.0
 11
2325.0
 21
-3298.9999999999968
 31
0.0
1001
ACDBBLOCKREPETAG
1070
     1
1071
       30
1005
127E44
  0
LINE
  5
127E45
  8
OBJECT
 10
2475.0
 20
-3298.9999999999968
 30
0.0
 11
2475.0
 21
-3422.9999999999968
 31
0.0
1001
ACDBBLOCKREPETAG
1070
     1
1071
       34
1005
127E45
  0
POINT
  5
127E46
  8
DOTS
 10
2400.0
 20
-3419.9999999999968
 30
0.0
1001
ACDBBLOCKREPETAG
1070
     1
1071
      187
1005
127E46
  0
LINE
  5
127E47
  8
OBJECT
 10
1923.0
 20
-3235.9999999999968
 30
0.0
 11
1923.0
 21
-3214.9999999999968
 31
0.0
1001
ACDBBLOCKREPETAG
1070
     1
1071
        0
1005
127E47
  0
LINE
  5
127E48
  8
OBJECT
 10
1923.0
 20
-3214.9999999999968
 30
0.0
 11
2077.0
 21
-3214.9999999999968
 31
0.0
1001
ACDBBLOCKREPETAG
1070
     1
1071
        1
1005
127E48
  0
LINE
  5
127E49
  8
HIDDEN
 10
1943.0
 20
-3284.9999999999968
 30
0.0
 11
2057.0
 21
-3284.9999999999968
 31
0.0
1001
ACDBBLOCKREPETAG
1070
     1
1071
        2
1005
127E49
  0
LINE
  5
127E4A
  8
OBJECT
 10
2077.0
 20
-3214.9999999999968
 30
0.0
 11
2077.0
 21
-3235.9999999999968
 31
0.0
1001
ACDBBLOCKREPETAG
1070
     1
1071
        3
1005
127E4A
  0
LINE
  5
127E4B
  8
OBJECT
 10
2077.0
 20
-3235.9999999999968
 30
0.0
 11
1923.0
 21
-3235.9999999999968
 31
0.0
1001
ACDBBLOCKREPETAG
1070
     1
1071
        4
1005
127E4B
  0
LINE
  5
127E4C
  8
CENTER
 10
2000.0
 20
-3199.9999999999968
 30
0.0
 11
2000.0
 21
-3434.9999999999968
 31
0.0
1001
ACDBBLOCKREPETAG
1070
     1
1071
        5
1005
127E4C
  0
LINE
  5
127E4D
  8
OBJECT
 10
1925.0
 20
-3298.9999999999968
 30
0.0
 11
1925.0
 21
-3422.9999999999968
 31
0.0
1001
ACDBBLOCKREPETAG
1070
     1
1071
        6
1005
127E4D
  0
LINE
  5
127E4E
  8
OBJECT
 10
1928.0
 20
-3235.9999999999968
 30
0.0
 11
1928.0
 21
-3298.9999999999968
 31
0.0
1001
ACDBBLOCKREPETAG
1070
     1
1071
        7
1005
127E4E
  0
LINE
  5
127E4F
  8
OBJECT
 10
2072.0
 20
-3298.9999999999968
 30
0.0
 11
2072.0
 21
-3235.9999999999968
 31
0.0
1001
ACDBBLOCKREPETAG
1070
     1
1071
        8
1005
127E4F
  0
LINE
  5
127E50
  8
OBJECT
 10
2074.999999999799
 20
-3422.9999999997772
 30
0.0
 11
2080.0
 21
-3422.9999999999968
 31
0.0
1001
ACDBBLOCKREPETAG
1070
     1
1071
        9
1005
127E50
  0
LINE
  5
127E51
  8
OBJECT
 10
2080.0
 20
-3298.9999999999968
 30
0.0
 11
1925.0
 21
-3298.9999999999968
 31
0.0
1001
ACDBBLOCKREPETAG
1070
     1
1071
       10
1005
127E51
  0
ARC
  5
127E52
  8
OBJECT
 10
2200.6872746716731
 20
-3414.408099410105
 30
0.0
 40
170.6350503965856
 50
137.44134459184301
 51
149.91949581335999
1001
ACDBBLOCKREPETAG
1070
     1
1071
       15
1005
127E52
  0
ARC
  5
127E53
  8
OBJECT
 10
2118.8455987040511
 20
-3370.8827266953631
 30
0.0
 40
78.072222021763665
 50
147.45515310377539
 51
164.663659977186
1001
ACDBBLOCKREPETAG
1070
     1
1071
       16
1005
127E53
  0
ARC
  5
127E54
  8
OBJECT
 10
2085.7554349608731
 20
-3360.9999999999968
 30
0.0
 40
43.55353926885617
 50
165.6884523008477
 51
194.3115476991523
1001
ACDBBLOCKREPETAG
1070
     1
1071
       17
1005
127E54
  0
ARC
  5
127E55
  8
OBJECT
 10
2200.6872746716731
 20
-3307.5919005898891
 30
0.0
 40
170.6350503965856
 50
210.08050418664001
 51
222.55865540815699
1001
ACDBBLOCKREPETAG
1070
     1
1071
       18
1005
127E55
  0
ARC
  5
127E56
  8
OBJECT
 10
2118.8455987040511
 20
-3351.1172733046342
 30
0.0
 40
78.072222021763665
 50
195.33634002281391
 51
212.54484689622461
1001
ACDBBLOCKREPETAG
1070
     1
1071
       19
1005
127E56
  0
POINT
  5
127E57
  8
DOTS
 10
2000.0
 20
-3419.9999999999968
 30
0.0
1001
ACDBBLOCKREPETAG
1070
     1
1071
      186
1005
127E57
  0
LINE
  5
127E58
  8
DIM
 10
2150.0
 20
-3061.9999999999959
 30
0.0
 11
2228.479620594459
 21
-3061.9999999999959
 31
0.0
  0
LINE
  5
127E59
  8
DIM
 10
2150.0
 20
-2967.9999999999959
 30
0.0
 11
2228.479620594459
 21
-2967.9999999999959
 31
0.0
  0
LINE
  5
127E5A
  8
DIM
 10
2218.479620594459
 20
-3041.9999999999959
 30
0.0
 11
2218.479620594459
 21
-2987.9999999999959
 31
0.0
  0
INSERT
  5
127E5B
  8
DIM
  2
_OPEN30
 10
2218.479620594459
 20
-3061.9999999999959
 30
0.0
 41
20.0
 42
20.0
 43
20.0
 50
270.0
  0
INSERT
  5
127E5C
  8
DIM
  2
_OPEN30
 10
2218.479620594459
 20
-2967.9999999999959
 30
0.0
 41
20.0
 42
20.0
 43
20.0
 50
90.0
  0
INSERT
  5
127E5D
  8
OBJECT
  2
*U17
 10
0.0
 20
0.0
 30
0.0
  0
LINE
  5
127E5E
  8
DIM
 10
2150.0
 20
-3419.9999999999968
 30
0.0
 11
2226.8409284037339
 21
-3419.9999999999968
 31
0.0
  0
LINE
  5
127E5F
  8
DIM
 10
2165.0
 20
-3375.9999999999968
 30
0.0
 11
2226.8409284037339
 21
-3375.9999999999968
 31
0.0
  0
LINE
  5
127E60
  8
DIM
 10
2216.840928403733
 20
-3439.9999999999968
 30
0.0
 11
2216.840928403733
 21
-3459.9999999999968
 31
0.0
  0
LINE
  5
127E61
  8
DIM
 10
2216.840928403733
 20
-3355.9999999999968
 30
0.0
 11
2216.840928403733
 21
-3335.9999999999968
 31
0.0
  0
LINE
  5
127E62
  8
DIM
 10
2216.840928403733
 20
-3419.9999999999968
 30
0.0
 11
2216.840928403733
 21
-3375.9999999999968
 31
0.0
  0
INSERT
  5
127E63
  8
DIM
  2
_OPEN30
 10
2216.840928403733
 20
-3419.9999999999968
 30
0.0
 41
20.0
 42
20.0
 43
20.0
 50
90.0
  0
INSERT
  5
127E64
  8
DIM
  2
_OPEN30
 10
2216.840928403733
 20
-3375.9999999999968
 30
0.0
 41
20.0
 42
20.0
 43
20.0
 50
270.0
  0
INSERT
  5
127E65
  8
OBJECT
  2
*U18
 10
0.0
 20
0.0
 30
0.0
  0
LINE
  5
127E66
  8
DIM
 10
2000.0
 20
-2909.9999999999959
 30
0.0
 11
2000.0
 21
-2877.208121984444
 31
0.0
  0
LINE
  5
127E67
  8
DIM
 10
2140.0
 20
-2957.9999999999959
 30
0.0
 11
2140.0
 21
-2877.208121984444
 31
0.0
  0
LINE
  5
127E68
  8
DIM
 10
2020.0
 20
-2887.208121984444
 30
0.0
 11
2120.0
 21
-2887.208121984444
 31
0.0
  0
INSERT
  5
127E69
  8
DIM
  2
_OPEN30
 10
2000.0
 20
-2887.208121984444
 30
0.0
 41
20.0
 42
20.0
 43
20.0
 50
180.0
  0
INSERT
  5
127E6A
  8
DIM
  2
_OPEN30
 10
2140.0
 20
-2887.208121984444
 30
0.0
 41
20.0
 42
20.0
 43
20.0
  0
INSERT
  5
127E6B
  8
OBJECT
  2
*U19
 10
0.0
 20
0.0
 30
0.0
  0
TEXT
  5
127E6C
  8
SLIM
 10
2631.0
 20
-2792.5000160472709
 30
0.0
 40
40.0
  1
C寸法
 41
0.75
  0
TEXT
  5
127E6D
  8
SLIM
 10
2631.0
 20
-2722.50001604727
 30
0.0
 40
40.0
  1
B寸法
 41
0.75
  0
TEXT
  5
127E6E
  8
SLIM
 10
2630.2857142857142
 20
-2652.50001604727
 30
0.0
 40
40.0
  1
A寸法
 41
0.75
  0
TEXT
  5
127E6F
  8
SLIM
 10
3159.2857142857151
 20
-2792.5000160472709
 30
0.0
 40
40.0
  1
150
 41
0.75
  0
TEXT
  5
127E70
  8
SLIM
 10
3029.2857142857151
 20
-2792.5000160472709
 30
0.0
 40
40.0
  1
140
 41
0.75
  0
TEXT
  5
127E71
  8
SLIM
 10
2769.2857142857151
 20
-2792.5000160472709
 30
0.0
 40
40.0
  1
140
 41
0.75
  0
TEXT
  5
127E72
  8
SLIM
 10
2899.2857142857151
 20
-2792.5000160472709
 30
0.0
 40
40.0
  1
140
 41
0.75
  0
TEXT
  5
127E73
  8
SLIM
 10
3170.7142857142858
 20
-2722.50001604727
 30
0.0
 40
40.0
  1
72
 41
0.75
  0
TEXT
  5
127E74
  8
SLIM
 10
3041.4285714285711
 20
-2722.50001604727
 30
0.0
 40
40.0
  1
59
 41
0.75
  0
TEXT
  5
127E75
  8
SLIM
 10
2780.0
 20
-2722.50001604727
 30
0.0
 40
40.0
  1
44
 41
0.75
  0
TEXT
  5
127E76
  8
SLIM
 10
2910.7142857142858
 20
-2722.50001604727
 30
0.0
 40
40.0
  1
52
 41
0.75
  0
TEXT
  5
127E77
  8
SLIM
 10
2891.0
 20
-2527.50001604727
 30
0.0
 40
40.0
  1
横枝管サイズ
 41
0.75
  0
TEXT
  5
127E78
  8
SLIM
 10
3136.2857142857151
 20
-2582.50001604727
 30
0.0
 40
30.0
  1
100（4）
 41
0.75
  0
TEXT
  5
127E79
  8
SLIM
 10
3014.857142857144
 20
-2582.50001604727
 30
0.0
 40
30.0
  1
75（3）
 41
0.75
  0
TEXT
  5
127E7A
  8
SLIM
 10
2884.8571428571431
 20
-2582.50001604727
 30
0.0
 40
30.0
  1
65（2）
 41
0.75
  0
TEXT
  5
127E7B
  8
SLIM
 10
2757.0
 20
-2582.50001604727
 30
0.0
 40
30.0
  1
50（1）
 41
0.75
  0
TEXT
  5
127E7C
  8
SLIM
 10
3159.2857142857151
 20
-2652.50001604727
 30
0.0
 40
40.0
  1
150
 41
0.75
  0
TEXT
  5
127E7D
  8
SLIM
 10
3028.571428571428
 20
-2652.50001604727
 30
0.0
 40
40.0
  1
124
 41
0.75
  0
TEXT
  5
127E7E
  8
SLIM
 10
2780.0
 20
-2652.50001604727
 30
0.0
 40
40.0
  1
94
 41
0.75
  0
TEXT
  5
127E7F
  8
SLIM
 10
2902.1428571428569
 20
-2652.50001604727
 30
0.0
 40
40.0
  1
110
 41
0.75
  0
TEXT
  5
127E80
  8
SLIM
 10
1849.9999999999991
 20
-2552.5
 30
0.0
 40
75.0
  1
枝管サイズ毎の形状
 41
0.75
  0
LINE
  5
127E81
  8
OBJECT
 10
5150.0
 20
-3272.9999999999968
 30
0.0
 11
5143.0
 21
-3272.9999999999968
 31
0.0
1001
ACDBBLOCKREPETAG
1070
     1
1071
       64
1005
127E81
  0
LINE
  5
127E82
  8
OBJECT
 10
5143.0
 20
-3272.9999999999968
 30
0.0
 11
5143.0
 21
-3419.9999999999968
 31
0.0
1001
ACDBBLOCKREPETAG
1070
     1
1071
       65
1005
127E82
  0
LINE
  5
127E83
  8
OBJECT
 10
5101.5
 20
-3275.9999999999968
 30
0.0
 11
5101.5
 21
-3419.9999999999968
 31
0.0
1001
ACDBBLOCKREPETAG
1070
     1
1071
       66
1005
127E83
  0
LINE
  5
127E84
  8
OBJECT
 10
5090.0
 20
-3282.4999999999968
 30
0.0
 11
5090.0
 21
-3413.4999999999968
 31
0.0
1001
ACDBBLOCKREPETAG
1070
     1
1071
       67
1005
127E84
  0
LINE
  5
127E85
  8
OBJECT
 10
5086.0
 20
-3354.500000000005
 30
0.0
 11
5086.0
 21
-3419.9999999999968
 31
0.0
1001
ACDBBLOCKREPETAG
1070
     1
1071
       68
1005
127E85
  0
LINE
  5
127E86
  8
OBJECT
 10
5150.0
 20
-3419.9999999999968
 30
0.0
 11
5150.0
 21
-3272.9999999999968
 31
0.0
1001
ACDBBLOCKREPETAG
1070
     1
1071
       69
1005
127E86
  0
LINE
  5
127E87
  8
CENTER
 10
5165.0
 20
-3347.9999999999968
 30
0.0
 11
5070.4144144144157
 21
-3347.9999999999968
 31
0.0
1001
ACDBBLOCKREPETAG
1070
     1
1071
       70
1005
127E87
  0
LINE
  5
127E88
  8
OBJECT
 10
5083.0000000000045
 20
-3422.9999999999968
 30
0.0
 11
5080.0
 21
-3422.9999999999968
 31
0.0
1001
ACDBBLOCKREPETAG
1070
     1
1071
       71
1005
127E88
  0
ARC
  5
127E89
  8
OBJECT
 10
5091.8815171830656
 20
-3421.4555591801418
 30
0.0
 40
6.0
 50
60.52411099686767
 51
170.6927439126847
1001
ACDBBLOCKREPETAG
1070
     1
1071
       72
1005
127E89
  0
ARC
  5
127E8A
  8
OBJECT
 10
5083.0
 20
-3419.9999999999968
 30
0.0
 40
3.0
 50
270.0
 51
350.69274391268482
1001
ACDBBLOCKREPETAG
1070
     1
1071
       73
1005
127E8A
  0
LINE
  5
127E8B
  8
OBJECT
 10
5081.0
 20
-3298.9999999999968
 30
0.0
 11
5080.0
 21
-3298.9999999999968
 31
0.0
1001
ACDBBLOCKREPETAG
1070
     1
1071
       74
1005
127E8B
  0
LINE
  5
127E8C
  8
OBJECT
 10
5150.0
 20
-3419.9999999999968
 30
0.0
 11
5101.5
 21
-3419.9999999999968
 31
0.0
1001
ACDBBLOCKREPETAG
1070
     1
1071
       75
1005
127E8C
  0
LINE
  5
127E8D
  8
OBJECT
 10
5101.5
 20
-3275.9999999999968
 30
0.0
 11
5090.0
 21
-3282.4999999999968
 31
0.0
1001
ACDBBLOCKREPETAG
1070
     1
1071
       76
1005
127E8D
  0
LINE
  5
127E8E
  8
OBJECT
 10
5143.0
 20
-3275.9999999999968
 30
0.0
 11
5101.5
 21
-3275.9999999999968
 31
0.0
1001
ACDBBLOCKREPETAG
1070
     1
1071
       77
1005
127E8E
  0
LINE
  5
127E8F
  8
OBJECT
 10
5086.0
 20
-3354.500000000005
 30
0.0
 11
5081.0
 21
-3298.9999999999968
 31
0.0
1001
ACDBBLOCKREPETAG
1070
     1
1071
       78
1005
127E8F
  0
LINE
  5
127E90
  8
OBJECT
 10
5090.0
 20
-3282.4999999999968
 30
0.0
 11
5081.0
 21
-3298.9999999999968
 31
0.0
1001
ACDBBLOCKREPETAG
1070
     1
1071
       79
1005
127E90
  0
LINE
  5
127E91
  8
OBJECT
 10
5101.5
 20
-3419.9999999999968
 30
0.0
 11
5094.8338607230708
 21
-3416.232182147819
 31
0.0
1001
ACDBBLOCKREPETAG
1070
     1
1071
       80
1005
127E91
  0
LINE
  5
127E92
  8
HIDDEN
 10
5098.0
 20
-3404.9999999999968
 30
0.0
 11
5098.0
 21
-3290.9999999999968
 31
0.0
1001
ACDBBLOCKREPETAG
1070
     1
1071
       81
1005
127E92
  0
LINE
  5
127E93
  8
OBJECT
 10
5150.0
 20
-2939.9999999999959
 30
0.0
 11
5143.0
 21
-2939.9999999999959
 31
0.0
1001
ACDBBLOCKREPETAG
1070
     1
1071
       67
1005
127E93
  0
LINE
  5
127E94
  8
OBJECT
 10
5143.0
 20
-2939.9999999999959
 30
0.0
 11
5143.0
 21
-3089.9999999999959
 31
0.0
1001
ACDBBLOCKREPETAG
1070
     1
1071
       68
1005
127E94
  0
LINE
  5
127E95
  8
OBJECT
 10
5101.5
 20
-2942.9999999999959
 30
0.0
 11
5101.5
 21
-3086.9999999999959
 31
0.0
1001
ACDBBLOCKREPETAG
1070
     1
1071
       69
1005
127E95
  0
LINE
  5
127E96
  8
OBJECT
 10
5090.0
 20
-2949.4999999999959
 30
0.0
 11
5090.0
 21
-3080.4999999999959
 31
0.0
1001
ACDBBLOCKREPETAG
1070
     1
1071
       70
1005
127E96
  0
LINE
  5
127E97
  8
OBJECT
 10
5143.0
 20
-3089.9999999999959
 30
0.0
 11
5150.0
 21
-3089.9999999999959
 31
0.0
1001
ACDBBLOCKREPETAG
1070
     1
1071
       71
1005
127E97
  0
LINE
  5
127E98
  8
OBJECT
 10
5150.0
 20
-3089.9999999999959
 30
0.0
 11
5150.0
 21
-2939.9999999999959
 31
0.0
1001
ACDBBLOCKREPETAG
1070
     1
1071
       72
1005
127E98
  0
LINE
  5
127E99
  8
HIDDEN
 10
5098.0
 20
-3071.9999999999959
 30
0.0
 11
5098.0
 21
-2957.9999999999959
 31
0.0
1001
ACDBBLOCKREPETAG
1070
     1
1071
       73
1005
127E99
  0
LINE
  5
127E9A
  8
CENTER
 10
5165.0
 20
-3014.9999999999959
 30
0.0
 11
5080.0
 21
-3014.9999999999959
 31
0.0
1001
ACDBBLOCKREPETAG
1070
     1
1071
       74
1005
127E9A
  0
LINE
  5
127E9B
  8
OBJECT
 10
5086.0
 20
-3076.9999999999959
 30
0.0
 11
5080.0
 21
-3076.9999999999959
 31
0.0
1001
ACDBBLOCKREPETAG
1070
     1
1071
       75
1005
127E9B
  0
LINE
  5
127E9C
  8
OBJECT
 10
5143.0
 20
-3086.9999999999959
 30
0.0
 11
5101.5
 21
-3086.9999999999959
 31
0.0
1001
ACDBBLOCKREPETAG
1070
     1
1071
       76
1005
127E9C
  0
LINE
  5
127E9D
  8
OBJECT
 10
5101.5
 20
-3086.9999999999959
 30
0.0
 11
5090.0
 21
-3080.4999999999959
 31
0.0
1001
ACDBBLOCKREPETAG
1070
     1
1071
       77
1005
127E9D
  0
LINE
  5
127E9E
  8
OBJECT
 10
5090.0
 20
-3080.4999999999959
 30
0.0
 11
5086.0
 21
-3076.9999999999959
 31
0.0
1001
ACDBBLOCKREPETAG
1070
     1
1071
       78
1005
127E9E
  0
LINE
  5
127E9F
  8
OBJECT
 10
5101.5
 20
-2942.9999999999959
 30
0.0
 11
5090.0
 21
-2949.4999999999959
 31
0.0
1001
ACDBBLOCKREPETAG
1070
     1
1071
       79
1005
127E9F
  0
LINE
  5
127EA0
  8
OBJECT
 10
5090.0
 20
-2949.4999999999959
 30
0.0
 11
5086.0
 21
-2952.9999999999959
 31
0.0
1001
ACDBBLOCKREPETAG
1070
     1
1071
       80
1005
127EA0
  0
ARC
  5
127EA1
  8
OBJECT
 10
5467.9000000000005
 20
-3014.9999999999959
 30
0.0
 40
386.89999999999998
 50
170.77870136260421
 51
189.22129863739571
1001
ACDBBLOCKREPETAG
1070
     1
1071
       81
1005
127EA1
  0
LINE
  5
127EA2
  8
OBJECT
 10
5086.0
 20
-2952.9999999999959
 30
0.0
 11
5080.0
 21
-2952.9999999999959
 31
0.0
1001
ACDBBLOCKREPETAG
1070
     1
1071
       82
1005
127EA2
  0
LINE
  5
127EA3
  8
OBJECT
 10
5143.0
 20
-2942.9999999999959
 30
0.0
 11
5101.5
 21
-2942.9999999999959
 31
0.0
1001
ACDBBLOCKREPETAG
1070
     1
1071
       83
1005
127EA3
  0
TEXT
  5
127EA4
  8
SLIM
 10
4884.25
 20
-3537.4999999999959
 30
0.0
 40
35.0
  1
通常枝100（4）
 41
0.75
  0
LINE
  5
127EA5
  8
CENTER
 10
4477.0
 20
-3360.9999999999968
 30
0.0
 11
4323.0
 21
-3360.9999999999968
 31
0.0
1001
ACDBBLOCKREPETAG
1070
     1
1071
       17
1005
127EA5
  0
CIRCLE
  5
127EA6
  8
OBJECT
 10
4400.0
 20
-3360.9999999999968
 30
0.0
 40
41.5
1001
ACDBBLOCKREPETAG
1070
     1
1071
       19
1005
127EA6
  0
CIRCLE
  5
127EA7
  8
OBJECT
 10
4400.0
 20
-3360.9999999999968
 30
0.0
 40
54.0
1001
ACDBBLOCKREPETAG
1070
     1
1071
       20
1005
127EA7
  0
ARC
  5
127EA8
  8
OBJECT
 10
4400.0
 20
-3360.9999999999968
 30
0.0
 40
62.0
 50
287.89655112921122
 51
252.1034488707887
1001
ACDBBLOCKREPETAG
1070
     1
1071
       21
1005
127EA8
  0
LINE
  5
127EA9
  8
OBJECT
 10
4380.947441116743
 20
-3419.9999999999968
 30
0.0
 11
4419.052558883257
 21
-3419.9999999999968
 31
0.0
1001
ACDBBLOCKREPETAG
1070
     1
1071
       22
1005
127EA9
  0
LINE
  5
127EAA
  8
OBJECT
 10
4133.0
 20
-3298.9999999999968
 30
0.0
 11
4140.0
 21
-3298.9999999999968
 31
0.0
1001
ACDBBLOCKREPETAG
1070
     1
1071
       45
1005
127EAA
  0
LINE
  5
127EAB
  8
OBJECT
 10
4140.0
 20
-3298.9999999999968
 30
0.0
 11
4140.0
 21
-3419.9999999999968
 31
0.0
1001
ACDBBLOCKREPETAG
1070
     1
1071
       46
1005
127EAB
  0
LINE
  5
127EAC
  8
OBJECT
 10
4133.0
 20
-3419.9999999999968
 30
0.0
 11
4133.0
 21
-3298.9999999999968
 31
0.0
1001
ACDBBLOCKREPETAG
1070
     1
1071
       47
1005
127EAC
  0
LINE
  5
127EAD
  8
CENTER
 10
4155.0
 20
-3360.9999999999968
 30
0.0
 11
4071.0
 21
-3360.9999999999968
 31
0.0
1001
ACDBBLOCKREPETAG
1070
     1
1071
       48
1005
127EAD
  0
LINE
  5
127EAE
  8
OBJECT
 10
4133.0
 20
-3301.9999999999968
 30
0.0
 11
4097.0
 21
-3301.9999999999968
 31
0.0
1001
ACDBBLOCKREPETAG
1070
     1
1071
       49
1005
127EAE
  0
LINE
  5
127EAF
  8
OBJECT
 10
4097.0
 20
-3301.9999999999968
 30
0.0
 11
4097.0
 21
-3419.9999999999968
 31
0.0
1001
ACDBBLOCKREPETAG
1070
     1
1071
       50
1005
127EAF
  0
LINE
  5
127EB0
  8
OBJECT
 10
4097.0
 20
-3419.9999999999968
 30
0.0
 11
4140.0
 21
-3419.9999999999968
 31
0.0
1001
ACDBBLOCKREPETAG
1070
     1
1071
       51
1005
127EB0
  0
LINE
  5
127EB1
  8
OBJECT
 10
4093.0
 20
-3306.4999999999968
 30
0.0
 11
4086.0
 21
-3306.4999999999968
 31
0.0
1001
ACDBBLOCKREPETAG
1070
     1
1071
       52
1005
127EB1
  0
LINE
  5
127EB2
  8
OBJECT
 10
4086.0
 20
-3415.4999999999968
 30
0.0
 11
4093.0
 21
-3415.4999999999968
 31
0.0
1001
ACDBBLOCKREPETAG
1070
     1
1071
       53
1005
127EB2
  0
LINE
  5
127EB3
  8
OBJECT
 10
4093.0
 20
-3415.4999999999968
 30
0.0
 11
4093.0
 21
-3306.4999999999968
 31
0.0
1001
ACDBBLOCKREPETAG
1070
     1
1071
       54
1005
127EB3
  0
LINE
  5
127EB4
  8
OBJECT
 10
4097.0
 20
-3301.9999999999968
 30
0.0
 11
4093.0
 21
-3306.4999999999968
 31
0.0
1001
ACDBBLOCKREPETAG
1070
     1
1071
       55
1005
127EB4
  0
LINE
  5
127EB5
  8
OBJECT
 10
4097.0
 20
-3419.9999999999968
 30
0.0
 11
4093.0
 21
-3415.4999999999968
 31
0.0
1001
ACDBBLOCKREPETAG
1070
     1
1071
       56
1005
127EB5
  0
LINE
  5
127EB6
  8
OBJECT
 10
4083.0
 20
-3298.9999999999968
 30
0.0
 11
4080.0
 21
-3298.9999999999968
 31
0.0
1001
ACDBBLOCKREPETAG
1070
     1
1071
       57
1005
127EB6
  0
ARC
  5
127EB7
  8
OBJECT
 10
4083.0
 20
-3301.9999999999968
 30
0.0
 40
3.0
 50
0.0
 51
90.0
1001
ACDBBLOCKREPETAG
1070
     1
1071
       58
1005
127EB7
  0
LINE
  5
127EB8
  8
OBJECT
 10
4080.0
 20
-3422.9999999999968
 30
0.0
 11
4083.0
 21
-3422.9999999999968
 31
0.0
1001
ACDBBLOCKREPETAG
1070
     1
1071
       59
1005
127EB8
  0
ARC
  5
127EB9
  8
OBJECT
 10
4083.0
 20
-3419.9999999999968
 30
0.0
 40
3.0
 50
270.0
 51
0.0
1001
ACDBBLOCKREPETAG
1070
     1
1071
       60
1005
127EB9
  0
LINE
  5
127EBA
  8
OBJECT
 10
4086.0
 20
-3419.9999999999968
 30
0.0
 11
4086.0
 21
-3301.9999999999968
 31
0.0
1001
ACDBBLOCKREPETAG
1070
     1
1071
       61
1005
127EBA
  0
LINE
  5
127EBB
  8
HIDDEN
 10
4088.0
 20
-3316.4999999999968
 30
0.0
 11
4088.0
 21
-3405.4999999999968
 31
0.0
1001
ACDBBLOCKREPETAG
1070
     1
1071
       63
1005
127EBB
  0
LINE
  5
127EBC
  8
OBJECT
 10
4133.0
 20
-2952.9999999999959
 30
0.0
 11
4140.0
 21
-2952.9999999999959
 31
0.0
1001
ACDBBLOCKREPETAG
1070
     1
1071
       47
1005
127EBC
  0
LINE
  5
127EBD
  8
OBJECT
 10
4140.0
 20
-2952.9999999999959
 30
0.0
 11
4140.0
 21
-3076.9999999999959
 31
0.0
1001
ACDBBLOCKREPETAG
1070
     1
1071
       48
1005
127EBD
  0
LINE
  5
127EBE
  8
OBJECT
 10
4140.0
 20
-3076.9999999999959
 30
0.0
 11
4133.0
 21
-3076.9999999999959
 31
0.0
1001
ACDBBLOCKREPETAG
1070
     1
1071
       49
1005
127EBE
  0
LINE
  5
127EBF
  8
OBJECT
 10
4133.0
 20
-3076.9999999999959
 30
0.0
 11
4133.0
 21
-2952.9999999999959
 31
0.0
1001
ACDBBLOCKREPETAG
1070
     1
1071
       50
1005
127EBF
  0
LINE
  5
127EC0
  8
CENTER
 10
4155.0
 20
-3014.9999999999959
 30
0.0
 11
4080.0
 21
-3014.9999999999959
 31
0.0
1001
ACDBBLOCKREPETAG
1070
     1
1071
       51
1005
127EC0
  0
LINE
  5
127EC1
  8
OBJECT
 10
4133.0
 20
-2955.9999999999959
 30
0.0
 11
4097.0
 21
-2955.9999999999959
 31
0.0
1001
ACDBBLOCKREPETAG
1070
     1
1071
       52
1005
127EC1
  0
LINE
  5
127EC2
  8
OBJECT
 10
4097.0
 20
-2955.9999999999959
 30
0.0
 11
4097.0
 21
-3073.9999999999959
 31
0.0
1001
ACDBBLOCKREPETAG
1070
     1
1071
       53
1005
127EC2
  0
LINE
  5
127EC3
  8
OBJECT
 10
4097.0
 20
-3073.9999999999959
 30
0.0
 11
4133.0
 21
-3073.9999999999959
 31
0.0
1001
ACDBBLOCKREPETAG
1070
     1
1071
       54
1005
127EC3
  0
LINE
  5
127EC4
  8
OBJECT
 10
4093.0
 20
-2960.4999999999959
 30
0.0
 11
4086.0
 21
-2960.4999999999959
 31
0.0
1001
ACDBBLOCKREPETAG
1070
     1
1071
       55
1005
127EC4
  0
LINE
  5
127EC5
  8
OBJECT
 10
4086.0
 20
-3069.4999999999959
 30
0.0
 11
4093.0
 21
-3069.4999999999959
 31
0.0
1001
ACDBBLOCKREPETAG
1070
     1
1071
       56
1005
127EC5
  0
LINE
  5
127EC6
  8
OBJECT
 10
4093.0
 20
-3069.4999999999959
 30
0.0
 11
4093.0
 21
-2960.4999999999959
 31
0.0
1001
ACDBBLOCKREPETAG
1070
     1
1071
       57
1005
127EC6
  0
LINE
  5
127EC7
  8
OBJECT
 10
4097.0
 20
-2955.9999999999959
 30
0.0
 11
4093.0
 21
-2960.4999999999959
 31
0.0
1001
ACDBBLOCKREPETAG
1070
     1
1071
       58
1005
127EC7
  0
LINE
  5
127EC8
  8
OBJECT
 10
4097.0
 20
-3073.9999999999959
 30
0.0
 11
4093.0
 21
-3069.4999999999959
 31
0.0
1001
ACDBBLOCKREPETAG
1070
     1
1071
       59
1005
127EC8
  0
LINE
  5
127EC9
  8
OBJECT
 10
4083.0
 20
-2952.9999999999959
 30
0.0
 11
4080.0
 21
-2952.9999999999959
 31
0.0
1001
ACDBBLOCKREPETAG
1070
     1
1071
       60
1005
127EC9
  0
ARC
  5
127ECA
  8
OBJECT
 10
4083.0
 20
-2955.9999999999959
 30
0.0
 40
3.0
 50
0.0
 51
90.0
1001
ACDBBLOCKREPETAG
1070
     1
1071
       61
1005
127ECA
  0
LINE
  5
127ECB
  8
OBJECT
 10
4080.0
 20
-3076.9999999999959
 30
0.0
 11
4083.0
 21
-3076.9999999999959
 31
0.0
1001
ACDBBLOCKREPETAG
1070
     1
1071
       62
1005
127ECB
  0
ARC
  5
127ECC
  8
OBJECT
 10
4083.0
 20
-3073.9999999999959
 30
0.0
 40
3.0
 50
270.0
 51
0.0
1001
ACDBBLOCKREPETAG
1070
     1
1071
       63
1005
127ECC
  0
LINE
  5
127ECD
  8
OBJECT
 10
4086.0
 20
-3073.9999999999959
 30
0.0
 11
4086.0
 21
-2955.9999999999959
 31
0.0
1001
ACDBBLOCKREPETAG
1070
     1
1071
       64
1005
127ECD
  0
LINE
  5
127ECE
  8
HIDDEN
 10
4088.0
 20
-2970.4999999999959
 30
0.0
 11
4088.0
 21
-3059.4999999999959
 31
0.0
1001
ACDBBLOCKREPETAG
1070
     1
1071
       65
1005
127ECE
  0
TEXT
  5
127ECF
  8
SLIM
 10
3894.25
 20
-3537.4999999999959
 30
0.0
 40
35.0
  1
通常枝75（3）
 41
0.75
  0
CIRCLE
  5
127ED0
  8
OBJECT
 10
3400.0
 20
-3367.9999999999968
 30
0.0
 40
35.5
1001
ACDBBLOCKREPETAG
1070
     1
1071
       10
1005
127ED0
  0
CIRCLE
  5
127ED1
  8
OBJECT
 10
3400.0
 20
-3360.9999999999968
 30
0.0
 40
62.0
1001
ACDBBLOCKREPETAG
1070
     1
1071
       11
1005
127ED1
  0
LINE
  5
127ED2
  8
CENTER
 10
3330.0
 20
-3367.9999999999968
 30
0.0
 11
3470.0
 21
-3367.9999999999968
 31
0.0
1001
ACDBBLOCKREPETAG
1070
     1
1071
       12
1005
127ED2
  0
CIRCLE
  5
127ED3
  8
OBJECT
 10
3400.0
 20
-3367.9999999999968
 30
0.0
 40
47.0
1001
ACDBBLOCKREPETAG
1070
     1
1071
       14
1005
127ED3
  0
ARC
  5
127ED4
  8
OBJECT
 10
3400.0
 20
-3367.9999999999968
 30
0.0
 40
55.0
 50
289.01126526011359
 51
250.98873473988641
1001
ACDBBLOCKREPETAG
1070
     1
1071
       15
1005
127ED4
  0
LINE
  5
127ED5
  8
OBJECT
 10
3382.0835271328328
 20
-3419.9999999999968
 30
0.0
 11
3417.9164728671681
 21
-3419.9999999999968
 31
0.0
1001
ACDBBLOCKREPETAG
1070
     1
1071
       16
1005
127ED5
  0
LINE
  5
127ED6
  8
OBJECT
 10
3133.0
 20
-3312.9999999999968
 30
0.0
 11
3140.0
 21
-3312.9999999999968
 31
0.0
1001
ACDBBLOCKREPETAG
1070
     1
1071
       26
1005
127ED6
  0
LINE
  5
127ED7
  8
OBJECT
 10
3140.0
 20
-3312.9999999999968
 30
0.0
 11
3140.0
 21
-3419.9999999999968
 31
0.0
1001
ACDBBLOCKREPETAG
1070
     1
1071
       27
1005
127ED7
  0
LINE
  5
127ED8
  8
OBJECT
 10
3133.0
 20
-3419.9999999999968
 30
0.0
 11
3133.0
 21
-3312.9999999999968
 31
0.0
1001
ACDBBLOCKREPETAG
1070
     1
1071
       28
1005
127ED8
  0
LINE
  5
127ED9
  8
CENTER
 10
3155.0
 20
-3367.9999999999968
 30
0.0
 11
3071.0
 21
-3367.9999999999968
 31
0.0
1001
ACDBBLOCKREPETAG
1070
     1
1071
       29
1005
127ED9
  0
LINE
  5
127EDA
  8
OBJECT
 10
3133.0
 20
-3315.9999999999968
 30
0.0
 11
3097.0
 21
-3315.9999999999968
 31
0.0
1001
ACDBBLOCKREPETAG
1070
     1
1071
       30
1005
127EDA
  0
LINE
  5
127EDB
  8
OBJECT
 10
3097.0
 20
-3315.9999999999968
 30
0.0
 11
3097.0
 21
-3419.9999999999968
 31
0.0
1001
ACDBBLOCKREPETAG
1070
     1
1071
       31
1005
127EDB
  0
LINE
  5
127EDC
  8
OBJECT
 10
3097.0
 20
-3419.9999999999968
 30
0.0
 11
3140.0
 21
-3419.9999999999968
 31
0.0
1001
ACDBBLOCKREPETAG
1070
     1
1071
       32
1005
127EDC
  0
LINE
  5
127EDD
  8
OBJECT
 10
3093.0
 20
-3320.4999999999968
 30
0.0
 11
3086.0
 21
-3320.4999999999968
 31
0.0
1001
ACDBBLOCKREPETAG
1070
     1
1071
       33
1005
127EDD
  0
LINE
  5
127EDE
  8
OBJECT
 10
3086.0
 20
-3415.4999999999968
 30
0.0
 11
3093.0
 21
-3415.4999999999968
 31
0.0
1001
ACDBBLOCKREPETAG
1070
     1
1071
       34
1005
127EDE
  0
LINE
  5
127EDF
  8
OBJECT
 10
3093.0
 20
-3415.4999999999968
 30
0.0
 11
3093.0
 21
-3320.4999999999968
 31
0.0
1001
ACDBBLOCKREPETAG
1070
     1
1071
       35
1005
127EDF
  0
LINE
  5
127EE0
  8
OBJECT
 10
3097.0
 20
-3315.9999999999968
 30
0.0
 11
3093.0
 21
-3320.4999999999968
 31
0.0
1001
ACDBBLOCKREPETAG
1070
     1
1071
       36
1005
127EE0
  0
LINE
  5
127EE1
  8
OBJECT
 10
3097.0
 20
-3419.9999999999968
 30
0.0
 11
3093.0
 21
-3415.4999999999968
 31
0.0
1001
ACDBBLOCKREPETAG
1070
     1
1071
       37
1005
127EE1
  0
LINE
  5
127EE2
  8
OBJECT
 10
3083.0
 20
-3298.9999999999968
 30
0.0
 11
3080.0
 21
-3298.9999999999968
 31
0.0
1001
ACDBBLOCKREPETAG
1070
     1
1071
       38
1005
127EE2
  0
ARC
  5
127EE3
  8
OBJECT
 10
3083.0
 20
-3301.9999999999968
 30
0.0
 40
3.0
 50
0.0
 51
90.0
1001
ACDBBLOCKREPETAG
1070
     1
1071
       39
1005
127EE3
  0
LINE
  5
127EE4
  8
OBJECT
 10
3080.0
 20
-3422.9999999999968
 30
0.0
 11
3083.0
 21
-3422.9999999999968
 31
0.0
1001
ACDBBLOCKREPETAG
1070
     1
1071
       40
1005
127EE4
  0
ARC
  5
127EE5
  8
OBJECT
 10
3083.0
 20
-3419.9999999999968
 30
0.0
 40
3.0
 50
270.0
 51
0.0
1001
ACDBBLOCKREPETAG
1070
     1
1071
       41
1005
127EE5
  0
LINE
  5
127EE6
  8
OBJECT
 10
3086.0
 20
-3419.9999999999968
 30
0.0
 11
3086.0
 21
-3301.9999999999968
 31
0.0
1001
ACDBBLOCKREPETAG
1070
     1
1071
       42
1005
127EE6
  0
LINE
  5
127EE7
  8
HIDDEN
 10
3088.0
 20
-3329.9999999999968
 30
0.0
 11
3088.0
 21
-3405.9999999999968
 31
0.0
1001
ACDBBLOCKREPETAG
1070
     1
1071
       43
1005
127EE7
  0
LINE
  5
127EE8
  8
OBJECT
 10
3133.0
 20
-2959.9999999999959
 30
0.0
 11
3140.0
 21
-2959.9999999999959
 31
0.0
1001
ACDBBLOCKREPETAG
1070
     1
1071
       27
1005
127EE8
  0
LINE
  5
127EE9
  8
OBJECT
 10
3140.0
 20
-2959.9999999999959
 30
0.0
 11
3140.0
 21
-3069.9999999999959
 31
0.0
1001
ACDBBLOCKREPETAG
1070
     1
1071
       28
1005
127EE9
  0
LINE
  5
127EEA
  8
OBJECT
 10
3140.0
 20
-3069.9999999999959
 30
0.0
 11
3133.0
 21
-3069.9999999999959
 31
0.0
1001
ACDBBLOCKREPETAG
1070
     1
1071
       29
1005
127EEA
  0
LINE
  5
127EEB
  8
OBJECT
 10
3133.0
 20
-3069.9999999999959
 30
0.0
 11
3133.0
 21
-2959.9999999999959
 31
0.0
1001
ACDBBLOCKREPETAG
1070
     1
1071
       30
1005
127EEB
  0
LINE
  5
127EEC
  8
CENTER
 10
3155.0
 20
-3014.9999999999959
 30
0.0
 11
3080.0
 21
-3014.9999999999959
 31
0.0
1001
ACDBBLOCKREPETAG
1070
     1
1071
       31
1005
127EEC
  0
LINE
  5
127EED
  8
OBJECT
 10
3133.0
 20
-2962.9999999999959
 30
0.0
 11
3097.0
 21
-2962.9999999999959
 31
0.0
1001
ACDBBLOCKREPETAG
1070
     1
1071
       32
1005
127EED
  0
LINE
  5
127EEE
  8
OBJECT
 10
3097.0
 20
-2962.9999999999959
 30
0.0
 11
3097.0
 21
-3066.9999999999959
 31
0.0
1001
ACDBBLOCKREPETAG
1070
     1
1071
       33
1005
127EEE
  0
LINE
  5
127EEF
  8
OBJECT
 10
3097.0
 20
-3066.9999999999959
 30
0.0
 11
3133.0
 21
-3066.9999999999959
 31
0.0
1001
ACDBBLOCKREPETAG
1070
     1
1071
       34
1005
127EEF
  0
LINE
  5
127EF0
  8
OBJECT
 10
3093.0
 20
-2967.4999999999959
 30
0.0
 11
3086.0
 21
-2967.4999999999959
 31
0.0
1001
ACDBBLOCKREPETAG
1070
     1
1071
       35
1005
127EF0
  0
LINE
  5
127EF1
  8
OBJECT
 10
3086.0
 20
-3062.4999999999959
 30
0.0
 11
3093.0
 21
-3062.4999999999959
 31
0.0
1001
ACDBBLOCKREPETAG
1070
     1
1071
       36
1005
127EF1
  0
LINE
  5
127EF2
  8
OBJECT
 10
3093.0
 20
-3062.4999999999959
 30
0.0
 11
3093.0
 21
-2967.4999999999959
 31
0.0
1001
ACDBBLOCKREPETAG
1070
     1
1071
       37
1005
127EF2
  0
LINE
  5
127EF3
  8
OBJECT
 10
3097.0
 20
-2962.9999999999959
 30
0.0
 11
3093.0
 21
-2967.4999999999959
 31
0.0
1001
ACDBBLOCKREPETAG
1070
     1
1071
       38
1005
127EF3
  0
LINE
  5
127EF4
  8
OBJECT
 10
3097.0
 20
-3066.9999999999959
 30
0.0
 11
3093.0
 21
-3062.4999999999959
 31
0.0
1001
ACDBBLOCKREPETAG
1070
     1
1071
       39
1005
127EF4
  0
LINE
  5
127EF5
  8
OBJECT
 10
3083.0
 20
-2952.9999999999959
 30
0.0
 11
3080.0
 21
-2952.9999999999959
 31
0.0
1001
ACDBBLOCKREPETAG
1070
     1
1071
       40
1005
127EF5
  0
ARC
  5
127EF6
  8
OBJECT
 10
3083.0
 20
-2955.9999999999959
 30
0.0
 40
3.0
 50
0.0
 51
90.0
1001
ACDBBLOCKREPETAG
1070
     1
1071
       41
1005
127EF6
  0
LINE
  5
127EF7
  8
OBJECT
 10
3080.0
 20
-3076.9999999999959
 30
0.0
 11
3083.0
 21
-3076.9999999999959
 31
0.0
1001
ACDBBLOCKREPETAG
1070
     1
1071
       42
1005
127EF7
  0
ARC
  5
127EF8
  8
OBJECT
 10
3083.0
 20
-3073.9999999999959
 30
0.0
 40
3.0
 50
270.0
 51
0.0
1001
ACDBBLOCKREPETAG
1070
     1
1071
       43
1005
127EF8
  0
LINE
  5
127EF9
  8
OBJECT
 10
3086.0
 20
-3073.9999999999959
 30
0.0
 11
3086.0
 21
-2955.9999999999959
 31
0.0
1001
ACDBBLOCKREPETAG
1070
     1
1071
       44
1005
127EF9
  0
LINE
  5
127EFA
  8
HIDDEN
 10
3088.0
 20
-2976.9999999999959
 30
0.0
 11
3088.0
 21
-3052.9999999999959
 31
0.0
1001
ACDBBLOCKREPETAG
1070
     1
1071
       45
1005
127EFA
  0
TEXT
  5
127EFB
  8
SLIM
 10
2894.25
 20
-3537.4999999999959
 30
0.0
 40
35.0
  1
通常枝65（2）
 41
0.75
  0
CIRCLE
  5
127EFC
  8
OBJECT
 10
2400.0
 20
-3360.9999999999968
 30
0.0
 40
62.0
1001
ACDBBLOCKREPETAG
1070
     1
1071
        3
1005
127EFC
  0
LINE
  5
127EFD
  8
CENTER
 10
2338.0
 20
-3375.9999999999968
 30
0.0
 11
2462.0
 21
-3375.9999999999968
 31
0.0
1001
ACDBBLOCKREPETAG
1070
     1
1071
        4
1005
127EFD
  0
CIRCLE
  5
127EFE
  8
OBJECT
 10
2400.0
 20
-3375.9999999999968
 30
0.0
 40
28.0
1001
ACDBBLOCKREPETAG
1070
     1
1071
        6
1005
127EFE
  0
CIRCLE
  5
127EFF
  8
OBJECT
 10
2400.0
 20
-3375.9999999999968
 30
0.0
 40
39.0
1001
ACDBBLOCKREPETAG
1070
     1
1071
        7
1005
127EFF
  0
ARC
  5
127F00
  8
OBJECT
 10
2400.0
 20
-3375.9999999999968
 30
0.0
 40
47.0
 50
290.58196921144412
 51
249.41803078855591
1001
ACDBBLOCKREPETAG
1070
     1
1071
        8
1005
127F00
  0
LINE
  5
127F01
  8
OBJECT
 10
2383.4772883581431
 20
-3419.9999999999968
 30
0.0
 11
2416.5227116418569
 21
-3419.9999999999968
 31
0.0
1001
ACDBBLOCKREPETAG
1070
     1
1071
        9
1005
127F01
  0
LINE
  5
127F02
  8
OBJECT
 10
2133.0
 20
-3328.9999999999968
 30
0.0
 11
2140.0
 21
-3328.9999999999968
 31
0.0
1001
ACDBBLOCKREPETAG
1070
     1
1071
        7
1005
127F02
  0
LINE
  5
127F03
  8
OBJECT
 10
2140.0
 20
-3328.9999999999968
 30
0.0
 11
2140.0
 21
-3419.9999999999968
 31
0.0
1001
ACDBBLOCKREPETAG
1070
     1
1071
        8
1005
127F03
  0
LINE
  5
127F04
  8
OBJECT
 10
2133.0
 20
-3419.9999999999968
 30
0.0
 11
2133.0
 21
-3328.9999999999968
 31
0.0
1001
ACDBBLOCKREPETAG
1070
     1
1071
        9
1005
127F04
  0
LINE
  5
127F05
  8
CENTER
 10
2155.0
 20
-3375.9999999999968
 30
0.0
 11
2071.0
 21
-3375.9999999999968
 31
0.0
1001
ACDBBLOCKREPETAG
1070
     1
1071
       10
1005
127F05
  0
LINE
  5
127F06
  8
OBJECT
 10
2133.0
 20
-3331.9999999999968
 30
0.0
 11
2097.0
 21
-3331.9999999999968
 31
0.0
1001
ACDBBLOCKREPETAG
1070
     1
1071
       11
1005
127F06
  0
LINE
  5
127F07
  8
OBJECT
 10
2097.0
 20
-3331.9999999999968
 30
0.0
 11
2097.0
 21
-3419.9999999999968
 31
0.0
1001
ACDBBLOCKREPETAG
1070
     1
1071
       12
1005
127F07
  0
LINE
  5
127F08
  8
OBJECT
 10
2097.0
 20
-3419.9999999999968
 30
0.0
 11
2140.0
 21
-3419.9999999999968
 31
0.0
1001
ACDBBLOCKREPETAG
1070
     1
1071
       13
1005
127F08
  0
LINE
  5
127F09
  8
OBJECT
 10
2093.0
 20
-3336.4999999999968
 30
0.0
 11
2086.0
 21
-3336.4999999999968
 31
0.0
1001
ACDBBLOCKREPETAG
1070
     1
1071
       14
1005
127F09
  0
LINE
  5
127F0A
  8
OBJECT
 10
2086.0
 20
-3415.4999999999968
 30
0.0
 11
2093.0
 21
-3415.4999999999968
 31
0.0
1001
ACDBBLOCKREPETAG
1070
     1
1071
       15
1005
127F0A
  0
LINE
  5
127F0B
  8
OBJECT
 10
2093.0
 20
-3415.4999999999968
 30
0.0
 11
2093.0
 21
-3336.4999999999968
 31
0.0
1001
ACDBBLOCKREPETAG
1070
     1
1071
       16
1005
127F0B
  0
LINE
  5
127F0C
  8
OBJECT
 10
2097.0
 20
-3331.9999999999968
 30
0.0
 11
2093.0
 21
-3336.4999999999968
 31
0.0
1001
ACDBBLOCKREPETAG
1070
     1
1071
       17
1005
127F0C
  0
LINE
  5
127F0D
  8
OBJECT
 10
2097.0
 20
-3419.9999999999968
 30
0.0
 11
2093.0
 21
-3415.4999999999968
 31
0.0
1001
ACDBBLOCKREPETAG
1070
     1
1071
       18
1005
127F0D
  0
LINE
  5
127F0E
  8
OBJECT
 10
2083.0
 20
-3298.9999999999968
 30
0.0
 11
2080.0
 21
-3298.9999999999968
 31
0.0
1001
ACDBBLOCKREPETAG
1070
     1
1071
       19
1005
127F0E
  0
ARC
  5
127F0F
  8
OBJECT
 10
2083.0
 20
-3301.9999999999968
 30
0.0
 40
3.0
 50
0.0
 51
90.0
1001
ACDBBLOCKREPETAG
1070
     1
1071
       20
1005
127F0F
  0
LINE
  5
127F10
  8
OBJECT
 10
2080.0
 20
-3422.9999999999968
 30
0.0
 11
2083.0
 21
-3422.9999999999968
 31
0.0
1001
ACDBBLOCKREPETAG
1070
     1
1071
       21
1005
127F10
  0
ARC
  5
127F11
  8
OBJECT
 10
2083.0
 20
-3419.9999999999968
 30
0.0
 40
3.0
 50
270.0
 51
0.0
1001
ACDBBLOCKREPETAG
1070
     1
1071
       22
1005
127F11
  0
LINE
  5
127F12
  8
OBJECT
 10
2086.0
 20
-3419.9999999999968
 30
0.0
 11
2086.0
 21
-3301.9999999999968
 31
0.0
1001
ACDBBLOCKREPETAG
1070
     1
1071
       23
1005
127F12
  0
LINE
  5
127F13
  8
HIDDEN
 10
2088.0
 20
-3345.9999999999959
 30
0.0
 11
2088.0
 21
-3405.9999999999968
 31
0.0
1001
ACDBBLOCKREPETAG
1070
     1
1071
       24
1005
127F13
  0
LINE
  5
127F14
  8
OBJECT
 10
2133.0
 20
-2967.9999999999959
 30
0.0
 11
2140.0
 21
-2967.9999999999959
 31
0.0
1001
ACDBBLOCKREPETAG
1070
     1
1071
        7
1005
127F14
  0
LINE
  5
127F15
  8
OBJECT
 10
2140.0
 20
-2967.9999999999959
 30
0.0
 11
2140.0
 21
-3061.9999999999959
 31
0.0
1001
ACDBBLOCKREPETAG
1070
     1
1071
        8
1005
127F15
  0
LINE
  5
127F16
  8
OBJECT
 10
2140.0
 20
-3061.9999999999959
 30
0.0
 11
2133.0
 21
-3061.9999999999959
 31
0.0
1001
ACDBBLOCKREPETAG
1070
     1
1071
        9
1005
127F16
  0
LINE
  5
127F17
  8
OBJECT
 10
2133.0
 20
-3061.9999999999959
 30
0.0
 11
2133.0
 21
-2967.9999999999959
 31
0.0
1001
ACDBBLOCKREPETAG
1070
     1
1071
       10
1005
127F17
  0
LINE
  5
127F18
  8
CENTER
 10
2155.0
 20
-3014.9999999999959
 30
0.0
 11
2080.0
 21
-3014.9999999999959
 31
0.0
1001
ACDBBLOCKREPETAG
1070
     1
1071
       11
1005
127F18
  0
LINE
  5
127F19
  8
OBJECT
 10
2133.0
 20
-2970.9999999999959
 30
0.0
 11
2097.0
 21
-2970.9999999999959
 31
0.0
1001
ACDBBLOCKREPETAG
1070
     1
1071
       12
1005
127F19
  0
LINE
  5
127F1A
  8
OBJECT
 10
2097.0
 20
-2970.9999999999959
 30
0.0
 11
2097.0
 21
-3058.9999999999959
 31
0.0
1001
ACDBBLOCKREPETAG
1070
     1
1071
       13
1005
127F1A
  0
LINE
  5
127F1B
  8
OBJECT
 10
2097.0
 20
-3058.9999999999959
 30
0.0
 11
2133.0
 21
-3058.9999999999959
 31
0.0
1001
ACDBBLOCKREPETAG
1070
     1
1071
       14
1005
127F1B
  0
LINE
  5
127F1C
  8
OBJECT
 10
2093.0
 20
-2975.4999999999959
 30
0.0
 11
2086.0
 21
-2975.4999999999959
 31
0.0
1001
ACDBBLOCKREPETAG
1070
     1
1071
       15
1005
127F1C
  0
LINE
  5
127F1D
  8
OBJECT
 10
2086.0
 20
-3054.4999999999959
 30
0.0
 11
2093.0
 21
-3054.4999999999959
 31
0.0
1001
ACDBBLOCKREPETAG
1070
     1
1071
       16
1005
127F1D
  0
LINE
  5
127F1E
  8
OBJECT
 10
2093.0
 20
-3054.4999999999959
 30
0.0
 11
2093.0
 21
-2975.4999999999959
 31
0.0
1001
ACDBBLOCKREPETAG
1070
     1
1071
       17
1005
127F1E
  0
LINE
  5
127F1F
  8
OBJECT
 10
2097.0
 20
-2970.9999999999959
 30
0.0
 11
2093.0
 21
-2975.4999999999959
 31
0.0
1001
ACDBBLOCKREPETAG
1070
     1
1071
       18
1005
127F1F
  0
LINE
  5
127F20
  8
OBJECT
 10
2097.0
 20
-3058.9999999999959
 30
0.0
 11
2093.0
 21
-3054.4999999999959
 31
0.0
1001
ACDBBLOCKREPETAG
1070
     1
1071
       19
1005
127F20
  0
LINE
  5
127F21
  8
OBJECT
 10
2083.0
 20
-2952.9999999999959
 30
0.0
 11
2080.0
 21
-2952.9999999999959
 31
0.0
1001
ACDBBLOCKREPETAG
1070
     1
1071
       20
1005
127F21
  0
ARC
  5
127F22
  8
OBJECT
 10
2083.0
 20
-2955.9999999999959
 30
0.0
 40
3.0
 50
0.0
 51
90.0
1001
ACDBBLOCKREPETAG
1070
     1
1071
       21
1005
127F22
  0
LINE
  5
127F23
  8
OBJECT
 10
2080.0
 20
-3076.9999999999959
 30
0.0
 11
2083.0
 21
-3076.9999999999959
 31
0.0
1001
ACDBBLOCKREPETAG
1070
     1
1071
       22
1005
127F23
  0
ARC
  5
127F24
  8
OBJECT
 10
2083.0
 20
-3073.9999999999959
 30
0.0
 40
3.0
 50
270.0
 51
0.0
1001
ACDBBLOCKREPETAG
1070
     1
1071
       23
1005
127F24
  0
LINE
  5
127F25
  8
OBJECT
 10
2086.0
 20
-3073.9999999999959
 30
0.0
 11
2086.0
 21
-2955.9999999999959
 31
0.0
1001
ACDBBLOCKREPETAG
1070
     1
1071
       24
1005
127F25
  0
LINE
  5
127F26
  8
HIDDEN
 10
2088.0
 20
-2984.9999999999959
 30
0.0
 11
2088.0
 21
-3044.9999999999959
 31
0.0
1001
ACDBBLOCKREPETAG
1070
     1
1071
       25
1005
127F26
  0
TEXT
  5
127F27
  8
SLIM
 10
1896.75
 20
-3537.4999999999959
 30
0.0
 40
35.0
  1
通常枝50（1）
 41
0.75
  0
ARC
  5
127F28
  8
OBJECT
 10
539.99970544976713
 20
-695.99999999984175
 30
0.0
 40
50.0
 50
28.819943000140022
 51
318.52376955951871
1001
ACDBBLOCKREPETAG
1070
     1
1071
        1
1005
127F28
  0
CIRCLE
  5
127F29
  8
OBJECT
 10
539.99970544976713
 20
-695.99999999984175
 30
0.0
 40
70.0
1001
ACDBBLOCKREPETAG
1070
     1
1071
        2
1005
127F29
  0
CIRCLE
  5
127F2A
  8
OBJECT
 10
539.99970544976713
 20
-695.99999999984175
 30
0.0
 40
77.0
1001
ACDBBLOCKREPETAG
1070
     1
1071
        3
1005
127F2A
  0
ARC
  5
127F2B
  8
OBJECT
 10
539.99970544976713
 20
-695.99999999984175
 30
0.0
 40
80.0
 50
140.8050325737787
 51
39.194967426221282
1001
ACDBBLOCKREPETAG
1070
     1
1071
        4
1005
127F2B
  0
LINE
  5
127F2C
  8
OBJECT
 10
477.99970544976708
 20
-650.3381997725171
 30
0.0
 11
477.99970544976708
 21
-615.99999999984175
 31
0.0
1001
ACDBBLOCKREPETAG
1070
     1
1071
        5
1005
127F2C
  0
LINE
  5
127F2D
  8
OBJECT
 10
601.99970544976713
 20
-650.3381997725171
 30
0.0
 11
601.99970544976713
 21
-615.99999999984175
 31
0.0
1001
ACDBBLOCKREPETAG
1070
     1
1071
        6
1005
127F2D
  0
LINE
  5
127F2E
  8
OBJECT
 10
583.80694712367199
 20
-671.89706690659841
 30
0.0
 11
574.00999999987835
 21
-671.89706690659841
 31
0.0
1001
ACDBBLOCKREPETAG
1070
     1
1071
      141
1005
127F2E
  0
LINE
  5
127F2F
  8
OBJECT
 10
574.00999999987835
 20
-671.89706690659841
 30
0.0
 11
558.47122736638994
 21
-709.41098254097778
 31
0.0
1001
ACDBBLOCKREPETAG
1070
     1
1071
      142
1005
127F2F
  0
ARC
  5
127F30
  8
OBJECT
 10
567.71002269150085
 20
-713.23781686462632
 30
0.0
 40
10.0
 50
157.5000000001636
 51
244.01473437020459
1001
ACDBBLOCKREPETAG
1070
     1
1071
      143
1005
127F30
  0
ARC
  5
127F31
  8
OBJECT
 10
565.81327182408836
 20
-709.97760074393773
 30
0.0
 40
7.0
 50
157.5000000001636
 51
244.01473377496251
1001
ACDBBLOCKREPETAG
1070
     1
1071
      144
1005
127F31
  0
ARC
  5
127F32
  8
OBJECT
 10
547.12893698272273
 20
-719.42030469252666
 30
0.0
 40
60.031113246032611
 50
44.070201304183492
 51
52.339361060976579
1001
ACDBBLOCKREPETAG
1070
     1
1071
      153
1005
127F32
  0
LINE
  5
127F33
  8
OBJECT
 10
583.8988850080608
 20
-726.5800244445403
 30
0.0
 11
562.74629179036481
 21
-716.26994795882081
 31
0.0
1001
ACDBBLOCKREPETAG
1070
     1
1071
      154
1005
127F33
  0
LINE
  5
127F34
  8
OBJECT
 10
580.71813901870632
 20
-730.70278309923265
 30
0.0
 11
563.328622736748
 21
-722.22688436002682
 31
0.0
1001
ACDBBLOCKREPETAG
1070
     1
1071
      155
1005
127F34
  0
CIRCLE
  5
127F35
  8
OBJECT
 10
539.99999999987813
 20
-695.99999999984175
 30
0.0
 40
53.5
1001
ACDBBLOCKREPETAG
1070
     1
1071
      156
1005
127F35
  0
POINT
  5
127F36
  8
DOTS
 10
539.99999999987813
 20
-695.99999999984175
 30
0.0
1001
ACDBBLOCKREPETAG
1070
     1
1071
      161
1005
127F36
  0
ARC
  5
127F37
  8
OBJECT
 10
179.99970544988881
 20
-695.99999999984175
 30
0.0
 40
50.0
 50
28.819943000140022
 51
318.52376955951968
1001
ACDBBLOCKREPETAG
1070
     1
1071
        1
1005
127F37
  0
CIRCLE
  5
127F38
  8
OBJECT
 10
179.99970544988881
 20
-695.99999999984175
 30
0.0
 40
70.0
1001
ACDBBLOCKREPETAG
1070
     1
1071
        2
1005
127F38
  0
CIRCLE
  5
127F39
  8
OBJECT
 10
179.99970544988881
 20
-695.99999999984175
 30
0.0
 40
77.0
1001
ACDBBLOCKREPETAG
1070
     1
1071
        3
1005
127F39
  0
ARC
  5
127F3A
  8
OBJECT
 10
179.99970544988881
 20
-695.99999999984175
 30
0.0
 40
80.0
 50
140.80503257377961
 51
39.194967426220252
1001
ACDBBLOCKREPETAG
1070
     1
1071
        4
1005
127F3A
  0
LINE
  5
127F3B
  8
OBJECT
 10
117.99970544988891
 20
-650.3381997725171
 30
0.0
 11
117.99970544988891
 21
-615.99999999984175
 31
0.0
1001
ACDBBLOCKREPETAG
1070
     1
1071
        5
1005
127F3B
  0
LINE
  5
127F3C
  8
OBJECT
 10
241.99970544988889
 20
-650.3381997725171
 30
0.0
 11
241.99970544988889
 21
-615.99999999984175
 31
0.0
1001
ACDBBLOCKREPETAG
1070
     1
1071
        6
1005
127F3C
  0
LINE
  5
127F3D
  8
OBJECT
 10
223.806947123794
 20
-671.89706690659841
 30
0.0
 11
214.01000000000019
 21
-671.89706690659841
 31
0.0
1001
ACDBBLOCKREPETAG
1070
     1
1071
      141
1005
127F3D
  0
LINE
  5
127F3E
  8
OBJECT
 10
214.01000000000019
 20
-671.89706690659841
 30
0.0
 11
198.4712273665117
 21
-709.41098254097778
 31
0.0
1001
ACDBBLOCKREPETAG
1070
     1
1071
      142
1005
127F3E
  0
ARC
  5
127F3F
  8
OBJECT
 10
207.7100226916227
 20
-713.23781686462632
 30
0.0
 40
10.0
 50
157.5000000001636
 51
244.01473437020459
1001
ACDBBLOCKREPETAG
1070
     1
1071
      143
1005
127F3F
  0
ARC
  5
127F40
  8
OBJECT
 10
205.8132718242104
 20
-709.97760074393773
 30
0.0
 40
7.0
 50
157.5000000001636
 51
244.01473377496541
1001
ACDBBLOCKREPETAG
1070
     1
1071
      144
1005
127F40
  0
ARC
  5
127F41
  8
OBJECT
 10
187.12893698284449
 20
-719.42030469252666
 30
0.0
 40
60.031113246032611
 50
44.070201304185751
 51
52.339361060977858
1001
ACDBBLOCKREPETAG
1070
     1
1071
      153
1005
127F41
  0
LINE
  5
127F42
  8
OBJECT
 10
223.89888500818259
 20
-726.5800244445403
 30
0.0
 11
202.74629179048671
 21
-716.26994795882081
 31
0.0
1001
ACDBBLOCKREPETAG
1070
     1
1071
      154
1005
127F42
  0
LINE
  5
127F43
  8
OBJECT
 10
220.71813901882811
 20
-730.70278309923265
 30
0.0
 11
203.32862273686979
 21
-722.22688436002682
 31
0.0
1001
ACDBBLOCKREPETAG
1070
     1
1071
      155
1005
127F43
  0
CIRCLE
  5
127F44
  8
OBJECT
 10
179.99999999999989
 20
-695.99999999984175
 30
0.0
 40
53.5
1001
ACDBBLOCKREPETAG
1070
     1
1071
      156
1005
127F44
  0
POINT
  5
127F45
  8
DOTS
 10
179.99999999999989
 20
-695.99999999984175
 30
0.0
1001
ACDBBLOCKREPETAG
1070
     1
1071
      161
1005
127F45
  0
ARC
  5
127F46
  8
OBJECT
 10
539.99970544976713
 20
-232.0
 30
0.0
 40
50.0
 50
28.819943000140022
 51
318.52376955951871
1001
ACDBBLOCKREPETAG
1070
     1
1071
        1
1005
127F46
  0
CIRCLE
  5
127F47
  8
OBJECT
 10
539.99970544976713
 20
-232.0
 30
0.0
 40
70.0
1001
ACDBBLOCKREPETAG
1070
     1
1071
        2
1005
127F47
  0
CIRCLE
  5
127F48
  8
OBJECT
 10
539.99970544976713
 20
-232.0
 30
0.0
 40
77.0
1001
ACDBBLOCKREPETAG
1070
     1
1071
        3
1005
127F48
  0
ARC
  5
127F49
  8
OBJECT
 10
539.99970544976713
 20
-232.0
 30
0.0
 40
80.0
 50
140.8050325737787
 51
39.194967426221282
1001
ACDBBLOCKREPETAG
1070
     1
1071
        4
1005
127F49
  0
LINE
  5
127F4A
  8
OBJECT
 10
477.99970544976708
 20
-186.33819977267561
 30
0.0
 11
477.99970544976708
 21
-152.0
 31
0.0
1001
ACDBBLOCKREPETAG
1070
     1
1071
        5
1005
127F4A
  0
LINE
  5
127F4B
  8
OBJECT
 10
601.99970544976713
 20
-186.33819977267561
 30
0.0
 11
601.99970544976713
 21
-152.0
 31
0.0
1001
ACDBBLOCKREPETAG
1070
     1
1071
        6
1005
127F4B
  0
LINE
  5
127F4C
  8
OBJECT
 10
583.80694712367199
 20
-207.89706690675669
 30
0.0
 11
574.00999999987835
 21
-207.89706690675669
 31
0.0
1001
ACDBBLOCKREPETAG
1070
     1
1071
      141
1005
127F4C
  0
LINE
  5
127F4D
  8
OBJECT
 10
574.00999999987835
 20
-207.89706690675669
 30
0.0
 11
558.47122736638994
 21
-245.41098254113601
 31
0.0
1001
ACDBBLOCKREPETAG
1070
     1
1071
      142
1005
127F4D
  0
ARC
  5
127F4E
  8
OBJECT
 10
567.71002269150085
 20
-249.23781686478469
 30
0.0
 40
10.0
 50
157.5000000001651
 51
244.01473437020459
1001
ACDBBLOCKREPETAG
1070
     1
1071
      143
1005
127F4E
  0
ARC
  5
127F4F
  8
OBJECT
 10
565.81327182408836
 20
-245.97760074409601
 30
0.0
 40
7.0
 50
157.5000000001651
 51
244.01473377496251
1001
ACDBBLOCKREPETAG
1070
     1
1071
      144
1005
127F4F
  0
ARC
  5
127F50
  8
OBJECT
 10
547.12893698272273
 20
-255.42030469268499
 30
0.0
 40
60.031113246032611
 50
44.07020130418465
 51
52.339361060977581
1001
ACDBBLOCKREPETAG
1070
     1
1071
      153
1005
127F50
  0
LINE
  5
127F51
  8
OBJECT
 10
583.8988850080608
 20
-262.58002444469838
 30
0.0
 11
562.74629179036481
 21
-252.2699479589792
 31
0.0
1001
ACDBBLOCKREPETAG
1070
     1
1071
      154
1005
127F51
  0
LINE
  5
127F52
  8
OBJECT
 10
580.71813901870632
 20
-266.70278309939101
 30
0.0
 11
563.328622736748
 21
-258.22688436018512
 31
0.0
1001
ACDBBLOCKREPETAG
1070
     1
1071
      155
1005
127F52
  0
CIRCLE
  5
127F53
  8
OBJECT
 10
539.99999999987813
 20
-232.0
 30
0.0
 40
53.5
1001
ACDBBLOCKREPETAG
1070
     1
1071
      156
1005
127F53
  0
POINT
  5
127F54
  8
DOTS
 10
539.99999999987813
 20
-232.0
 30
0.0
1001
ACDBBLOCKREPETAG
1070
     1
1071
      161
1005
127F54
  0
ARC
  5
127F55
  8
OBJECT
 10
179.99970544988901
 20
-232.0
 30
0.0
 40
50.0
 50
28.819943000140022
 51
318.52376955951968
1001
ACDBBLOCKREPETAG
1070
     1
1071
        1
1005
127F55
  0
CIRCLE
  5
127F56
  8
OBJECT
 10
179.99970544988901
 20
-232.0
 30
0.0
 40
70.0
1001
ACDBBLOCKREPETAG
1070
     1
1071
        2
1005
127F56
  0
CIRCLE
  5
127F57
  8
OBJECT
 10
179.99970544988901
 20
-232.0
 30
0.0
 40
77.0
1001
ACDBBLOCKREPETAG
1070
     1
1071
        3
1005
127F57
  0
ARC
  5
127F58
  8
OBJECT
 10
179.99970544988901
 20
-232.0
 30
0.0
 40
80.0
 50
140.80503257377961
 51
39.194967426220252
1001
ACDBBLOCKREPETAG
1070
     1
1071
        4
1005
127F58
  0
LINE
  5
127F59
  8
OBJECT
 10
117.99970544988901
 20
-186.33819977267561
 30
0.0
 11
117.99970544988901
 21
-152.0
 31
0.0
1001
ACDBBLOCKREPETAG
1070
     1
1071
        5
1005
127F59
  0
LINE
  5
127F5A
  8
OBJECT
 10
241.99970544988901
 20
-186.33819977267561
 30
0.0
 11
241.99970544988901
 21
-152.0
 31
0.0
1001
ACDBBLOCKREPETAG
1070
     1
1071
        6
1005
127F5A
  0
LINE
  5
127F5B
  8
OBJECT
 10
223.80694712379409
 20
-207.89706690675669
 30
0.0
 11
214.01000000000019
 21
-207.89706690675669
 31
0.0
1001
ACDBBLOCKREPETAG
1070
     1
1071
      141
1005
127F5B
  0
LINE
  5
127F5C
  8
OBJECT
 10
214.01000000000019
 20
-207.89706690675669
 30
0.0
 11
198.47122736651181
 21
-245.41098254113601
 31
0.0
1001
ACDBBLOCKREPETAG
1070
     1
1071
      142
1005
127F5C
  0
ARC
  5
127F5D
  8
OBJECT
 10
207.7100226916227
 20
-249.23781686478469
 30
0.0
 40
10.0
 50
157.5000000001651
 51
244.01473437020459
1001
ACDBBLOCKREPETAG
1070
     1
1071
      143
1005
127F5D
  0
ARC
  5
127F5E
  8
OBJECT
 10
205.8132718242104
 20
-245.97760074409601
 30
0.0
 40
7.0
 50
157.5000000001651
 51
244.01473377496541
1001
ACDBBLOCKREPETAG
1070
     1
1071
      144
1005
127F5E
  0
ARC
  5
127F5F
  8
OBJECT
 10
187.12893698284461
 20
-255.42030469268499
 30
0.0
 40
60.031113246032611
 50
44.070201304186917
 51
52.339361060978852
1001
ACDBBLOCKREPETAG
1070
     1
1071
      153
1005
127F5F
  0
LINE
  5
127F60
  8
OBJECT
 10
223.8988850081827
 20
-262.58002444469838
 30
0.0
 11
202.74629179048679
 21
-252.2699479589792
 31
0.0
1001
ACDBBLOCKREPETAG
1070
     1
1071
      154
1005
127F60
  0
LINE
  5
127F61
  8
OBJECT
 10
220.7181390188282
 20
-266.70278309939101
 30
0.0
 11
203.3286227368699
 21
-258.22688436018512
 31
0.0
1001
ACDBBLOCKREPETAG
1070
     1
1071
      155
1005
127F61
  0
CIRCLE
  5
127F62
  8
OBJECT
 10
180.0
 20
-232.0
 30
0.0
 40
53.5
1001
ACDBBLOCKREPETAG
1070
     1
1071
      156
1005
127F62
  0
POINT
  5
127F63
  8
DOTS
 10
180.0
 20
-232.0
 30
0.0
1001
ACDBBLOCKREPETAG
1070
     1
1071
      161
1005
127F63
  0
LINE
  5
127F64
  8
OBJECT
 10
6423.0
 20
-470.99999999999937
 30
0.0
 11
6423.0
 21
-449.99999999999937
 31
0.0
1001
ACDBBLOCKREPETAG
1070
     1
1071
       20
1005
127F64
  0
LINE
  5
127F65
  8
OBJECT
 10
6423.0
 20
-449.99999999999937
 30
0.0
 11
6577.0
 21
-449.99999999999937
 31
0.0
1001
ACDBBLOCKREPETAG
1070
     1
1071
       21
1005
127F65
  0
LINE
  5
127F66
  8
HIDDEN
 10
6443.0
 20
-519.99999999999955
 30
0.0
 11
6557.0
 21
-519.99999999999955
 31
0.0
1001
ACDBBLOCKREPETAG
1070
     1
1071
       22
1005
127F66
  0
LINE
  5
127F67
  8
OBJECT
 10
6577.0
 20
-449.99999999999937
 30
0.0
 11
6577.0
 21
-470.99999999999937
 31
0.0
1001
ACDBBLOCKREPETAG
1070
     1
1071
       23
1005
127F67
  0
LINE
  5
127F68
  8
OBJECT
 10
6577.0
 20
-470.99999999999937
 30
0.0
 11
6423.0
 21
-470.99999999999937
 31
0.0
1001
ACDBBLOCKREPETAG
1070
     1
1071
       24
1005
127F68
  0
LINE
  5
127F69
  8
CENTER
 10
6500.0
 20
-434.99999999999949
 30
0.0
 11
6500.0
 21
-669.99999999999955
 31
0.0
1001
ACDBBLOCKREPETAG
1070
     1
1071
       25
1005
127F69
  0
LINE
  5
127F6A
  8
OBJECT
 10
6425.0
 20
-533.99999999999955
 30
0.0
 11
6425.0
 21
-657.99999999999955
 31
0.0
1001
ACDBBLOCKREPETAG
1070
     1
1071
       26
1005
127F6A
  0
LINE
  5
127F6B
  8
OBJECT
 10
6428.0
 20
-470.99999999999937
 30
0.0
 11
6428.0
 21
-533.99999999999955
 31
0.0
1001
ACDBBLOCKREPETAG
1070
     1
1071
       27
1005
127F6B
  0
LINE
  5
127F6C
  8
OBJECT
 10
6572.0
 20
-533.99999999999955
 30
0.0
 11
6572.0
 21
-470.99999999999937
 31
0.0
1001
ACDBBLOCKREPETAG
1070
     1
1071
       28
1005
127F6C
  0
LINE
  5
127F6D
  8
OBJECT
 10
6420.0
 20
-657.99999999999955
 30
0.0
 11
6580.0
 21
-657.99999999999955
 31
0.0
1001
ACDBBLOCKREPETAG
1070
     1
1071
       29
1005
127F6D
  0
LINE
  5
127F6E
  8
OBJECT
 10
6575.0
 20
-533.99999999999955
 30
0.0
 11
6425.0
 21
-533.99999999999955
 31
0.0
1001
ACDBBLOCKREPETAG
1070
     1
1071
       30
1005
127F6E
  0
LINE
  5
127F6F
  8
OBJECT
 10
6420.0
 20
-657.99999999999955
 30
0.0
 11
6420.0
 21
-669.99999999999955
 31
0.0
1001
ACDBBLOCKREPETAG
1070
     1
1071
       31
1005
127F6F
  0
LINE
  5
127F70
  8
OBJECT
 10
6420.0
 20
-669.99999999999955
 30
0.0
 11
6580.0
 21
-669.99999999999955
 31
0.0
1001
ACDBBLOCKREPETAG
1070
     1
1071
       32
1005
127F70
  0
LINE
  5
127F71
  8
OBJECT
 10
6580.0
 20
-669.99999999999955
 30
0.0
 11
6580.0
 21
-657.99999999999955
 31
0.0
1001
ACDBBLOCKREPETAG
1070
     1
1071
       33
1005
127F71
  0
LINE
  5
127F72
  8
OBJECT
 10
6575.0
 20
-533.99999999999955
 30
0.0
 11
6575.0
 21
-657.99999999999955
 31
0.0
1001
ACDBBLOCKREPETAG
1070
     1
1071
       34
1005
127F72
  0
POINT
  5
127F73
  8
DOTS
 10
6500.0
 20
-654.99999999999966
 30
0.0
1001
ACDBBLOCKREPETAG
1070
     1
1071
      187
1005
127F73
  0
LINE
  5
127F74
  8
OBJECT
 10
5923.0
 20
-470.99999999999937
 30
0.0
 11
5923.0
 21
-449.99999999999937
 31
0.0
1001
ACDBBLOCKREPETAG
1070
     1
1071
        0
1005
127F74
  0
LINE
  5
127F75
  8
OBJECT
 10
5923.0
 20
-449.99999999999937
 30
0.0
 11
6077.0
 21
-449.99999999999937
 31
0.0
1001
ACDBBLOCKREPETAG
1070
     1
1071
        1
1005
127F75
  0
LINE
  5
127F76
  8
HIDDEN
 10
5943.0
 20
-519.99999999999955
 30
0.0
 11
6057.0
 21
-519.99999999999955
 31
0.0
1001
ACDBBLOCKREPETAG
1070
     1
1071
        2
1005
127F76
  0
LINE
  5
127F77
  8
OBJECT
 10
6077.0
 20
-449.99999999999937
 30
0.0
 11
6077.0
 21
-470.99999999999937
 31
0.0
1001
ACDBBLOCKREPETAG
1070
     1
1071
        3
1005
127F77
  0
LINE
  5
127F78
  8
OBJECT
 10
6077.0
 20
-470.99999999999937
 30
0.0
 11
5923.0
 21
-470.99999999999937
 31
0.0
1001
ACDBBLOCKREPETAG
1070
     1
1071
        4
1005
127F78
  0
LINE
  5
127F79
  8
CENTER
 10
6000.0
 20
-434.99999999999949
 30
0.0
 11
6000.0
 21
-669.99999999999955
 31
0.0
1001
ACDBBLOCKREPETAG
1070
     1
1071
        5
1005
127F79
  0
LINE
  5
127F7A
  8
OBJECT
 10
5925.0
 20
-533.99999999999955
 30
0.0
 11
5925.0
 21
-657.99999999999955
 31
0.0
1001
ACDBBLOCKREPETAG
1070
     1
1071
        6
1005
127F7A
  0
LINE
  5
127F7B
  8
OBJECT
 10
5928.0
 20
-470.99999999999937
 30
0.0
 11
5928.0
 21
-533.99999999999955
 31
0.0
1001
ACDBBLOCKREPETAG
1070
     1
1071
        7
1005
127F7B
  0
LINE
  5
127F7C
  8
OBJECT
 10
6072.0
 20
-533.99999999999955
 30
0.0
 11
6072.0
 21
-470.99999999999937
 31
0.0
1001
ACDBBLOCKREPETAG
1070
     1
1071
        8
1005
127F7C
  0
LINE
  5
127F7D
  8
OBJECT
 10
5920.0
 20
-657.99999999999955
 30
0.0
 11
6080.0
 21
-657.99999999999955
 31
0.0
1001
ACDBBLOCKREPETAG
1070
     1
1071
        9
1005
127F7D
  0
LINE
  5
127F7E
  8
OBJECT
 10
6080.0
 20
-533.99999999999955
 30
0.0
 11
5925.0
 21
-533.99999999999955
 31
0.0
1001
ACDBBLOCKREPETAG
1070
     1
1071
       10
1005
127F7E
  0
LINE
  5
127F7F
  8
OBJECT
 10
5920.0
 20
-657.99999999999955
 30
0.0
 11
5920.0
 21
-669.99999999999955
 31
0.0
1001
ACDBBLOCKREPETAG
1070
     1
1071
       11
1005
127F7F
  0
LINE
  5
127F80
  8
OBJECT
 10
5920.0
 20
-669.99999999999955
 30
0.0
 11
6080.0
 21
-669.99999999999955
 31
0.0
1001
ACDBBLOCKREPETAG
1070
     1
1071
       12
1005
127F80
  0
LINE
  5
127F81
  8
OBJECT
 10
6080.0
 20
-669.99999999999955
 30
0.0
 11
6080.0
 21
-657.99999999999955
 31
0.0
1001
ACDBBLOCKREPETAG
1070
     1
1071
       13
1005
127F81
  0
ARC
  5
127F82
  8
OBJECT
 10
6200.6872746716735
 20
-649.40809941010718
 30
0.0
 40
170.6350503965856
 50
137.44134459184301
 51
149.91949581337221
1001
ACDBBLOCKREPETAG
1070
     1
1071
       15
1005
127F82
  0
ARC
  5
127F83
  8
OBJECT
 10
6118.8455987040506
 20
-605.88272669536445
 30
0.0
 40
78.072222021763665
 50
147.4551531037684
 51
164.66365997718671
1001
ACDBBLOCKREPETAG
1070
     1
1071
       16
1005
127F83
  0
ARC
  5
127F84
  8
OBJECT
 10
6085.7554349608727
 20
-595.99999999999955
 30
0.0
 40
43.55353926885617
 50
165.6884523008477
 51
194.3115476991523
1001
ACDBBLOCKREPETAG
1070
     1
1071
       17
1005
127F84
  0
ARC
  5
127F85
  8
OBJECT
 10
6200.6872746716735
 20
-542.59190058989179
 30
0.0
 40
170.6350503965856
 50
210.08050418662771
 51
222.55865540815699
1001
ACDBBLOCKREPETAG
1070
     1
1071
       18
1005
127F85
  0
ARC
  5
127F86
  8
OBJECT
 10
6118.8455987040506
 20
-586.11727330463452
 30
0.0
 40
78.072222021763665
 50
195.3363400228132
 51
212.5448468962316
1001
ACDBBLOCKREPETAG
1070
     1
1071
       19
1005
127F86
  0
POINT
  5
127F87
  8
DOTS
 10
6000.0
 20
-654.99999999999966
 30
0.0
1001
ACDBBLOCKREPETAG
1070
     1
1071
      186
1005
127F87
  0
LINE
  5
127F88
  8
OBJECT
 10
2423.0
 20
-470.99999999999937
 30
0.0
 11
2423.0
 21
-449.99999999999937
 31
0.0
1001
ACDBBLOCKREPETAG
1070
     1
1071
       20
1005
127F88
  0
LINE
  5
127F89
  8
OBJECT
 10
2423.0
 20
-449.99999999999937
 30
0.0
 11
2577.0
 21
-449.99999999999937
 31
0.0
1001
ACDBBLOCKREPETAG
1070
     1
1071
       21
1005
127F89
  0
LINE
  5
127F8A
  8
HIDDEN
 10
2443.0
 20
-519.99999999999955
 30
0.0
 11
2557.0
 21
-519.99999999999955
 31
0.0
1001
ACDBBLOCKREPETAG
1070
     1
1071
       22
1005
127F8A
  0
LINE
  5
127F8B
  8
OBJECT
 10
2577.0
 20
-449.99999999999937
 30
0.0
 11
2577.0
 21
-470.99999999999937
 31
0.0
1001
ACDBBLOCKREPETAG
1070
     1
1071
       23
1005
127F8B
  0
LINE
  5
127F8C
  8
OBJECT
 10
2577.0
 20
-470.99999999999937
 30
0.0
 11
2423.0
 21
-470.99999999999937
 31
0.0
1001
ACDBBLOCKREPETAG
1070
     1
1071
       24
1005
127F8C
  0
LINE
  5
127F8D
  8
CENTER
 10
2500.0
 20
-434.99999999999949
 30
0.0
 11
2500.0
 21
-669.99999999999955
 31
0.0
1001
ACDBBLOCKREPETAG
1070
     1
1071
       25
1005
127F8D
  0
LINE
  5
127F8E
  8
OBJECT
 10
2425.0
 20
-533.99999999999955
 30
0.0
 11
2425.0
 21
-657.99999999999955
 31
0.0
1001
ACDBBLOCKREPETAG
1070
     1
1071
       26
1005
127F8E
  0
LINE
  5
127F8F
  8
OBJECT
 10
2428.0
 20
-470.99999999999937
 30
0.0
 11
2428.0
 21
-533.99999999999955
 31
0.0
1001
ACDBBLOCKREPETAG
1070
     1
1071
       27
1005
127F8F
  0
LINE
  5
127F90
  8
OBJECT
 10
2572.0
 20
-533.99999999999955
 30
0.0
 11
2572.0
 21
-470.99999999999937
 31
0.0
1001
ACDBBLOCKREPETAG
1070
     1
1071
       28
1005
127F90
  0
LINE
  5
127F91
  8
OBJECT
 10
2420.0
 20
-657.99999999999955
 30
0.0
 11
2580.0
 21
-657.99999999999955
 31
0.0
1001
ACDBBLOCKREPETAG
1070
     1
1071
       29
1005
127F91
  0
LINE
  5
127F92
  8
OBJECT
 10
2575.0
 20
-533.99999999999955
 30
0.0
 11
2425.0
 21
-533.99999999999955
 31
0.0
1001
ACDBBLOCKREPETAG
1070
     1
1071
       30
1005
127F92
  0
LINE
  5
127F93
  8
OBJECT
 10
2420.0
 20
-657.99999999999955
 30
0.0
 11
2420.0
 21
-669.99999999999955
 31
0.0
1001
ACDBBLOCKREPETAG
1070
     1
1071
       31
1005
127F93
  0
LINE
  5
127F94
  8
OBJECT
 10
2420.0
 20
-669.99999999999955
 30
0.0
 11
2580.0
 21
-669.99999999999955
 31
0.0
1001
ACDBBLOCKREPETAG
1070
     1
1071
       32
1005
127F94
  0
LINE
  5
127F95
  8
OBJECT
 10
2580.0
 20
-669.99999999999955
 30
0.0
 11
2580.0
 21
-657.99999999999955
 31
0.0
1001
ACDBBLOCKREPETAG
1070
     1
1071
       33
1005
127F95
  0
LINE
  5
127F96
  8
OBJECT
 10
2575.0
 20
-533.99999999999955
 30
0.0
 11
2575.0
 21
-657.99999999999955
 31
0.0
1001
ACDBBLOCKREPETAG
1070
     1
1071
       34
1005
127F96
  0
POINT
  5
127F97
  8
DOTS
 10
2500.0
 20
-654.99999999999966
 30
0.0
1001
ACDBBLOCKREPETAG
1070
     1
1071
      187
1005
127F97
  0
LINE
  5
127F98
  8
OBJECT
 10
1923.0
 20
-470.99999999999937
 30
0.0
 11
1923.0
 21
-449.99999999999937
 31
0.0
1001
ACDBBLOCKREPETAG
1070
     1
1071
        0
1005
127F98
  0
LINE
  5
127F99
  8
OBJECT
 10
1923.0
 20
-449.99999999999937
 30
0.0
 11
2077.0
 21
-449.99999999999937
 31
0.0
1001
ACDBBLOCKREPETAG
1070
     1
1071
        1
1005
127F99
  0
LINE
  5
127F9A
  8
HIDDEN
 10
1943.0
 20
-519.99999999999955
 30
0.0
 11
2057.0
 21
-519.99999999999955
 31
0.0
1001
ACDBBLOCKREPETAG
1070
     1
1071
        2
1005
127F9A
  0
LINE
  5
127F9B
  8
OBJECT
 10
2077.0
 20
-449.99999999999937
 30
0.0
 11
2077.0
 21
-470.99999999999937
 31
0.0
1001
ACDBBLOCKREPETAG
1070
     1
1071
        3
1005
127F9B
  0
LINE
  5
127F9C
  8
OBJECT
 10
2077.0
 20
-470.99999999999937
 30
0.0
 11
1923.0
 21
-470.99999999999937
 31
0.0
1001
ACDBBLOCKREPETAG
1070
     1
1071
        4
1005
127F9C
  0
LINE
  5
127F9D
  8
CENTER
 10
2000.0
 20
-434.99999999999949
 30
0.0
 11
2000.0
 21
-669.99999999999955
 31
0.0
1001
ACDBBLOCKREPETAG
1070
     1
1071
        5
1005
127F9D
  0
LINE
  5
127F9E
  8
OBJECT
 10
1925.0
 20
-533.99999999999955
 30
0.0
 11
1925.0
 21
-657.99999999999955
 31
0.0
1001
ACDBBLOCKREPETAG
1070
     1
1071
        6
1005
127F9E
  0
LINE
  5
127F9F
  8
OBJECT
 10
1928.0
 20
-470.99999999999937
 30
0.0
 11
1928.0
 21
-533.99999999999955
 31
0.0
1001
ACDBBLOCKREPETAG
1070
     1
1071
        7
1005
127F9F
  0
LINE
  5
127FA0
  8
OBJECT
 10
2072.0
 20
-533.99999999999955
 30
0.0
 11
2072.0
 21
-470.99999999999937
 31
0.0
1001
ACDBBLOCKREPETAG
1070
     1
1071
        8
1005
127FA0
  0
LINE
  5
127FA1
  8
OBJECT
 10
1920.0
 20
-657.99999999999955
 30
0.0
 11
2080.0
 21
-657.99999999999955
 31
0.0
1001
ACDBBLOCKREPETAG
1070
     1
1071
        9
1005
127FA1
  0
LINE
  5
127FA2
  8
OBJECT
 10
2080.0
 20
-533.99999999999955
 30
0.0
 11
1925.0
 21
-533.99999999999955
 31
0.0
1001
ACDBBLOCKREPETAG
1070
     1
1071
       10
1005
127FA2
  0
LINE
  5
127FA3
  8
OBJECT
 10
1920.0
 20
-657.99999999999955
 30
0.0
 11
1920.0
 21
-669.99999999999955
 31
0.0
1001
ACDBBLOCKREPETAG
1070
     1
1071
       11
1005
127FA3
  0
LINE
  5
127FA4
  8
OBJECT
 10
1920.0
 20
-669.99999999999955
 30
0.0
 11
2080.0
 21
-669.99999999999955
 31
0.0
1001
ACDBBLOCKREPETAG
1070
     1
1071
       12
1005
127FA4
  0
LINE
  5
127FA5
  8
OBJECT
 10
2080.0
 20
-669.99999999999955
 30
0.0
 11
2080.0
 21
-657.99999999999955
 31
0.0
1001
ACDBBLOCKREPETAG
1070
     1
1071
       13
1005
127FA5
  0
ARC
  5
127FA6
  8
OBJECT
 10
2200.6872746716731
 20
-649.40809941010718
 30
0.0
 40
170.6350503965856
 50
137.44134459184301
 51
149.91949581336559
1001
ACDBBLOCKREPETAG
1070
     1
1071
       15
1005
127FA6
  0
ARC
  5
127FA7
  8
OBJECT
 10
2118.8455987040511
 20
-605.88272669536445
 30
0.0
 40
78.072222021763665
 50
147.45515310377539
 51
164.6636599771798
1001
ACDBBLOCKREPETAG
1070
     1
1071
       16
1005
127FA7
  0
ARC
  5
127FA8
  8
OBJECT
 10
2085.7554349608731
 20
-595.99999999999955
 30
0.0
 40
43.55353926885617
 50
165.6884523008477
 51
194.3115476991523
1001
ACDBBLOCKREPETAG
1070
     1
1071
       17
1005
127FA8
  0
ARC
  5
127FA9
  8
OBJECT
 10
2200.6872746716731
 20
-542.59190058989179
 30
0.0
 40
170.6350503965856
 50
210.0805041866343
 51
222.55865540815699
1001
ACDBBLOCKREPETAG
1070
     1
1071
       18
1005
127FA9
  0
ARC
  5
127FAA
  8
OBJECT
 10
2118.8455987040511
 20
-586.11727330463452
 30
0.0
 40
78.072222021763665
 50
195.3363400228202
 51
212.54484689622461
1001
ACDBBLOCKREPETAG
1070
     1
1071
       19
1005
127FAA
  0
POINT
  5
127FAB
  8
DOTS
 10
2000.0
 20
-654.99999999999966
 30
0.0
1001
ACDBBLOCKREPETAG
1070
     1
1071
      186
1005
127FAB
  0
LINE
  5
127FAC
  8
OBJECT
 10
4423.0
 20
-470.99999999999937
 30
0.0
 11
4423.0
 21
-449.99999999999937
 31
0.0
1001
ACDBBLOCKREPETAG
1070
     1
1071
       20
1005
127FAC
  0
LINE
  5
127FAD
  8
OBJECT
 10
4423.0
 20
-449.99999999999937
 30
0.0
 11
4577.0
 21
-449.99999999999937
 31
0.0
1001
ACDBBLOCKREPETAG
1070
     1
1071
       21
1005
127FAD
  0
LINE
  5
127FAE
  8
HIDDEN
 10
4443.0
 20
-519.99999999999955
 30
0.0
 11
4557.0
 21
-519.99999999999955
 31
0.0
1001
ACDBBLOCKREPETAG
1070
     1
1071
       22
1005
127FAE
  0
LINE
  5
127FAF
  8
OBJECT
 10
4577.0
 20
-449.99999999999937
 30
0.0
 11
4577.0
 21
-470.99999999999937
 31
0.0
1001
ACDBBLOCKREPETAG
1070
     1
1071
       23
1005
127FAF
  0
LINE
  5
127FB0
  8
OBJECT
 10
4577.0
 20
-470.99999999999937
 30
0.0
 11
4423.0
 21
-470.99999999999937
 31
0.0
1001
ACDBBLOCKREPETAG
1070
     1
1071
       24
1005
127FB0
  0
LINE
  5
127FB1
  8
CENTER
 10
4500.0
 20
-434.99999999999949
 30
0.0
 11
4500.0
 21
-669.99999999999955
 31
0.0
1001
ACDBBLOCKREPETAG
1070
     1
1071
       25
1005
127FB1
  0
LINE
  5
127FB2
  8
OBJECT
 10
4425.0
 20
-533.99999999999955
 30
0.0
 11
4425.0
 21
-657.99999999999955
 31
0.0
1001
ACDBBLOCKREPETAG
1070
     1
1071
       26
1005
127FB2
  0
LINE
  5
127FB3
  8
OBJECT
 10
4428.0
 20
-470.99999999999937
 30
0.0
 11
4428.0
 21
-533.99999999999955
 31
0.0
1001
ACDBBLOCKREPETAG
1070
     1
1071
       27
1005
127FB3
  0
LINE
  5
127FB4
  8
OBJECT
 10
4572.0
 20
-533.99999999999955
 30
0.0
 11
4572.0
 21
-470.99999999999937
 31
0.0
1001
ACDBBLOCKREPETAG
1070
     1
1071
       28
1005
127FB4
  0
LINE
  5
127FB5
  8
OBJECT
 10
4420.0
 20
-657.99999999999955
 30
0.0
 11
4580.0
 21
-657.99999999999955
 31
0.0
1001
ACDBBLOCKREPETAG
1070
     1
1071
       29
1005
127FB5
  0
LINE
  5
127FB6
  8
OBJECT
 10
4575.0
 20
-533.99999999999955
 30
0.0
 11
4425.0
 21
-533.99999999999955
 31
0.0
1001
ACDBBLOCKREPETAG
1070
     1
1071
       30
1005
127FB6
  0
LINE
  5
127FB7
  8
OBJECT
 10
4420.0
 20
-657.99999999999955
 30
0.0
 11
4420.0
 21
-669.99999999999955
 31
0.0
1001
ACDBBLOCKREPETAG
1070
     1
1071
       31
1005
127FB7
  0
LINE
  5
127FB8
  8
OBJECT
 10
4420.0
 20
-669.99999999999955
 30
0.0
 11
4580.0
 21
-669.99999999999955
 31
0.0
1001
ACDBBLOCKREPETAG
1070
     1
1071
       32
1005
127FB8
  0
LINE
  5
127FB9
  8
OBJECT
 10
4580.0
 20
-669.99999999999955
 30
0.0
 11
4580.0
 21
-657.99999999999955
 31
0.0
1001
ACDBBLOCKREPETAG
1070
     1
1071
       33
1005
127FB9
  0
LINE
  5
127FBA
  8
OBJECT
 10
4575.0
 20
-533.99999999999955
 30
0.0
 11
4575.0
 21
-657.99999999999955
 31
0.0
1001
ACDBBLOCKREPETAG
1070
     1
1071
       34
1005
127FBA
  0
POINT
  5
127FBB
  8
DOTS
 10
4500.0
 20
-654.99999999999966
 30
0.0
1001
ACDBBLOCKREPETAG
1070
     1
1071
      187
1005
127FBB
  0
LINE
  5
127FBC
  8
OBJECT
 10
3923.0
 20
-470.99999999999937
 30
0.0
 11
3923.0
 21
-449.99999999999937
 31
0.0
1001
ACDBBLOCKREPETAG
1070
     1
1071
        0
1005
127FBC
  0
LINE
  5
127FBD
  8
OBJECT
 10
3923.0
 20
-449.99999999999937
 30
0.0
 11
4077.0
 21
-449.99999999999937
 31
0.0
1001
ACDBBLOCKREPETAG
1070
     1
1071
        1
1005
127FBD
  0
LINE
  5
127FBE
  8
HIDDEN
 10
3943.0
 20
-519.99999999999955
 30
0.0
 11
4057.0
 21
-519.99999999999955
 31
0.0
1001
ACDBBLOCKREPETAG
1070
     1
1071
        2
1005
127FBE
  0
LINE
  5
127FBF
  8
OBJECT
 10
4077.0
 20
-449.99999999999937
 30
0.0
 11
4077.0
 21
-470.99999999999937
 31
0.0
1001
ACDBBLOCKREPETAG
1070
     1
1071
        3
1005
127FBF
  0
LINE
  5
127FC0
  8
OBJECT
 10
4077.0
 20
-470.99999999999937
 30
0.0
 11
3923.0
 21
-470.99999999999937
 31
0.0
1001
ACDBBLOCKREPETAG
1070
     1
1071
        4
1005
127FC0
  0
LINE
  5
127FC1
  8
CENTER
 10
4000.0
 20
-434.99999999999949
 30
0.0
 11
4000.0
 21
-669.99999999999955
 31
0.0
1001
ACDBBLOCKREPETAG
1070
     1
1071
        5
1005
127FC1
  0
LINE
  5
127FC2
  8
OBJECT
 10
3925.0
 20
-533.99999999999955
 30
0.0
 11
3925.0
 21
-657.99999999999955
 31
0.0
1001
ACDBBLOCKREPETAG
1070
     1
1071
        6
1005
127FC2
  0
LINE
  5
127FC3
  8
OBJECT
 10
3928.0
 20
-470.99999999999937
 30
0.0
 11
3928.0
 21
-533.99999999999955
 31
0.0
1001
ACDBBLOCKREPETAG
1070
     1
1071
        7
1005
127FC3
  0
LINE
  5
127FC4
  8
OBJECT
 10
4072.0
 20
-533.99999999999955
 30
0.0
 11
4072.0
 21
-470.99999999999937
 31
0.0
1001
ACDBBLOCKREPETAG
1070
     1
1071
        8
1005
127FC4
  0
LINE
  5
127FC5
  8
OBJECT
 10
3920.0
 20
-657.99999999999955
 30
0.0
 11
4080.0
 21
-657.99999999999955
 31
0.0
1001
ACDBBLOCKREPETAG
1070
     1
1071
        9
1005
127FC5
  0
LINE
  5
127FC6
  8
OBJECT
 10
4080.0
 20
-533.99999999999955
 30
0.0
 11
3925.0
 21
-533.99999999999955
 31
0.0
1001
ACDBBLOCKREPETAG
1070
     1
1071
       10
1005
127FC6
  0
LINE
  5
127FC7
  8
OBJECT
 10
3920.0
 20
-657.99999999999955
 30
0.0
 11
3920.0
 21
-669.99999999999955
 31
0.0
1001
ACDBBLOCKREPETAG
1070
     1
1071
       11
1005
127FC7
  0
LINE
  5
127FC8
  8
OBJECT
 10
3920.0
 20
-669.99999999999955
 30
0.0
 11
4080.0
 21
-669.99999999999955
 31
0.0
1001
ACDBBLOCKREPETAG
1070
     1
1071
       12
1005
127FC8
  0
LINE
  5
127FC9
  8
OBJECT
 10
4080.0
 20
-669.99999999999955
 30
0.0
 11
4080.0
 21
-657.99999999999955
 31
0.0
1001
ACDBBLOCKREPETAG
1070
     1
1071
       13
1005
127FC9
  0
ARC
  5
127FCA
  8
OBJECT
 10
4200.6872746716726
 20
-649.40809941010718
 30
0.0
 40
170.6350503965856
 50
137.44134459184301
 51
149.91949581337221
1001
ACDBBLOCKREPETAG
1070
     1
1071
       15
1005
127FCA
  0
ARC
  5
127FCB
  8
OBJECT
 10
4118.8455987040506
 20
-605.88272669536445
 30
0.0
 40
78.072222021763665
 50
147.4551531037684
 51
164.6636599771798
1001
ACDBBLOCKREPETAG
1070
     1
1071
       16
1005
127FCB
  0
ARC
  5
127FCC
  8
OBJECT
 10
4085.7554349608722
 20
-595.99999999999955
 30
0.0
 40
43.55353926885617
 50
165.6884523008477
 51
194.3115476991523
1001
ACDBBLOCKREPETAG
1070
     1
1071
       17
1005
127FCC
  0
ARC
  5
127FCD
  8
OBJECT
 10
4200.6872746716726
 20
-542.59190058989179
 30
0.0
 40
170.6350503965856
 50
210.08050418662771
 51
222.55865540815699
1001
ACDBBLOCKREPETAG
1070
     1
1071
       18
1005
127FCD
  0
ARC
  5
127FCE
  8
OBJECT
 10
4118.8455987040506
 20
-586.11727330463452
 30
0.0
 40
78.072222021763665
 50
195.3363400228202
 51
212.5448468962316
1001
ACDBBLOCKREPETAG
1070
     1
1071
       19
1005
127FCE
  0
POINT
  5
127FCF
  8
DOTS
 10
4000.0
 20
-654.99999999999966
 30
0.0
1001
ACDBBLOCKREPETAG
1070
     1
1071
      186
1005
127FCF
  0
TEXT
  5
127FD0
  8
SLIM
 10
1837.75
 20
282.50000000000011
 30
0.0
 40
35.0
  1
（枝管サイズ毎に寸法が異なります。管底の位置は全サイズで同じです）
 41
0.75
  0
TEXT
  5
127FD1
  8
SLIM
 10
1850.0
 20
532.5
 30
0.0
 40
75.0
  1
側面図の代表機種
 41
0.75
  0
TEXT
  5
127FD2
  8
SLIM
 10
1850.0
 20
369.99999999999989
 30
0.0
 40
100.0
  1
4CL-A3
 41
0.75
  0
LINE
  5
127FD3
  8
CENTER
 10
6577.0
 20
-596.0
 30
0.0
 11
6423.0
 21
-596.0
 31
0.0
1001
ACDBBLOCKREPETAG
1070
     1
1071
       17
1005
127FD3
  0
CIRCLE
  5
127FD4
  8
OBJECT
 10
6500.0
 20
-596.0
 30
0.0
 40
41.5
1001
ACDBBLOCKREPETAG
1070
     1
1071
       19
1005
127FD4
  0
CIRCLE
  5
127FD5
  8
OBJECT
 10
6500.0
 20
-596.0
 30
0.0
 40
54.0
1001
ACDBBLOCKREPETAG
1070
     1
1071
       20
1005
127FD5
  0
ARC
  5
127FD6
  8
OBJECT
 10
6500.0
 20
-596.0
 30
0.0
 40
62.0
 50
287.89655112920718
 51
252.10344887079279
1001
ACDBBLOCKREPETAG
1070
     1
1071
       21
1005
127FD6
  0
LINE
  5
127FD7
  8
OBJECT
 10
6480.947441116743
 20
-655.0
 30
0.0
 11
6519.052558883257
 21
-655.0
 31
0.0
1001
ACDBBLOCKREPETAG
1070
     1
1071
       22
1005
127FD7
  0
LINE
  5
127FD8
  8
OBJECT
 10
6133.0
 20
-137.99999999999909
 30
0.0
 11
6140.0
 21
-137.99999999999909
 31
0.0
1001
ACDBBLOCKREPETAG
1070
     1
1071
       47
1005
127FD8
  0
LINE
  5
127FD9
  8
OBJECT
 10
6140.0
 20
-137.99999999999909
 30
0.0
 11
6140.0
 21
-261.99999999999909
 31
0.0
1001
ACDBBLOCKREPETAG
1070
     1
1071
       48
1005
127FD9
  0
LINE
  5
127FDA
  8
OBJECT
 10
6140.0
 20
-261.99999999999909
 30
0.0
 11
6133.0
 21
-261.99999999999909
 31
0.0
1001
ACDBBLOCKREPETAG
1070
     1
1071
       49
1005
127FDA
  0
LINE
  5
127FDB
  8
OBJECT
 10
6133.0
 20
-261.99999999999909
 30
0.0
 11
6133.0
 21
-137.99999999999909
 31
0.0
1001
ACDBBLOCKREPETAG
1070
     1
1071
       50
1005
127FDB
  0
LINE
  5
127FDC
  8
CENTER
 10
6155.0
 20
-199.99999999999909
 30
0.0
 11
6080.0
 21
-199.99999999999909
 31
0.0
1001
ACDBBLOCKREPETAG
1070
     1
1071
       51
1005
127FDC
  0
LINE
  5
127FDD
  8
OBJECT
 10
6133.0
 20
-140.99999999999909
 30
0.0
 11
6097.0
 21
-140.99999999999909
 31
0.0
1001
ACDBBLOCKREPETAG
1070
     1
1071
       52
1005
127FDD
  0
LINE
  5
127FDE
  8
OBJECT
 10
6097.0
 20
-140.99999999999909
 30
0.0
 11
6097.0
 21
-258.99999999999909
 31
0.0
1001
ACDBBLOCKREPETAG
1070
     1
1071
       53
1005
127FDE
  0
LINE
  5
127FDF
  8
OBJECT
 10
6097.0
 20
-258.99999999999909
 30
0.0
 11
6133.0
 21
-258.99999999999909
 31
0.0
1001
ACDBBLOCKREPETAG
1070
     1
1071
       54
1005
127FDF
  0
LINE
  5
127FE0
  8
OBJECT
 10
6093.0
 20
-145.49999999999909
 30
0.0
 11
6086.0
 21
-145.49999999999909
 31
0.0
1001
ACDBBLOCKREPETAG
1070
     1
1071
       55
1005
127FE0
  0
LINE
  5
127FE1
  8
OBJECT
 10
6086.0
 20
-254.49999999999909
 30
0.0
 11
6093.0
 21
-254.49999999999909
 31
0.0
1001
ACDBBLOCKREPETAG
1070
     1
1071
       56
1005
127FE1
  0
LINE
  5
127FE2
  8
OBJECT
 10
6093.0
 20
-254.49999999999909
 30
0.0
 11
6093.0
 21
-145.49999999999909
 31
0.0
1001
ACDBBLOCKREPETAG
1070
     1
1071
       57
1005
127FE2
  0
LINE
  5
127FE3
  8
OBJECT
 10
6097.0
 20
-140.99999999999909
 30
0.0
 11
6093.0
 21
-145.49999999999909
 31
0.0
1001
ACDBBLOCKREPETAG
1070
     1
1071
       58
1005
127FE3
  0
LINE
  5
127FE4
  8
OBJECT
 10
6097.0
 20
-258.99999999999909
 30
0.0
 11
6093.0
 21
-254.49999999999909
 31
0.0
1001
ACDBBLOCKREPETAG
1070
     1
1071
       59
1005
127FE4
  0
LINE
  5
127FE5
  8
OBJECT
 10
6083.0
 20
-137.99999999999909
 30
0.0
 11
6080.0
 21
-137.99999999999909
 31
0.0
1001
ACDBBLOCKREPETAG
1070
     1
1071
       60
1005
127FE5
  0
ARC
  5
127FE6
  8
OBJECT
 10
6083.0
 20
-140.99999999999909
 30
0.0
 40
3.0
 50
0.0
 51
90.0
1001
ACDBBLOCKREPETAG
1070
     1
1071
       61
1005
127FE6
  0
LINE
  5
127FE7
  8
OBJECT
 10
6080.0
 20
-261.99999999999909
 30
0.0
 11
6083.0
 21
-261.99999999999909
 31
0.0
1001
ACDBBLOCKREPETAG
1070
     1
1071
       62
1005
127FE7
  0
ARC
  5
127FE8
  8
OBJECT
 10
6083.0
 20
-258.99999999999909
 30
0.0
 40
3.0
 50
270.0
 51
0.0
1001
ACDBBLOCKREPETAG
1070
     1
1071
       63
1005
127FE8
  0
LINE
  5
127FE9
  8
OBJECT
 10
6086.0
 20
-258.99999999999909
 30
0.0
 11
6086.0
 21
-140.99999999999909
 31
0.0
1001
ACDBBLOCKREPETAG
1070
     1
1071
       64
1005
127FE9
  0
LINE
  5
127FEA
  8
HIDDEN
 10
6088.0
 20
-155.49999999999909
 30
0.0
 11
6088.0
 21
-244.49999999999909
 31
0.0
1001
ACDBBLOCKREPETAG
1070
     1
1071
       65
1005
127FEA
  0
LINE
  5
127FEB
  8
OBJECT
 10
4133.0
 20
-137.99999999999909
 30
0.0
 11
4140.0
 21
-137.99999999999909
 31
0.0
1001
ACDBBLOCKREPETAG
1070
     1
1071
       47
1005
127FEB
  0
LINE
  5
127FEC
  8
OBJECT
 10
4140.0
 20
-137.99999999999909
 30
0.0
 11
4140.0
 21
-261.99999999999909
 31
0.0
1001
ACDBBLOCKREPETAG
1070
     1
1071
       48
1005
127FEC
  0
LINE
  5
127FED
  8
OBJECT
 10
4140.0
 20
-261.99999999999909
 30
0.0
 11
4133.0
 21
-261.99999999999909
 31
0.0
1001
ACDBBLOCKREPETAG
1070
     1
1071
       49
1005
127FED
  0
LINE
  5
127FEE
  8
OBJECT
 10
4133.0
 20
-261.99999999999909
 30
0.0
 11
4133.0
 21
-137.99999999999909
 31
0.0
1001
ACDBBLOCKREPETAG
1070
     1
1071
       50
1005
127FEE
  0
LINE
  5
127FEF
  8
CENTER
 10
4155.0
 20
-199.99999999999909
 30
0.0
 11
4080.0
 21
-199.99999999999909
 31
0.0
1001
ACDBBLOCKREPETAG
1070
     1
1071
       51
1005
127FEF
  0
LINE
  5
127FF0
  8
OBJECT
 10
4133.0
 20
-140.99999999999909
 30
0.0
 11
4097.0
 21
-140.99999999999909
 31
0.0
1001
ACDBBLOCKREPETAG
1070
     1
1071
       52
1005
127FF0
  0
LINE
  5
127FF1
  8
OBJECT
 10
4097.0
 20
-140.99999999999909
 30
0.0
 11
4097.0
 21
-258.99999999999909
 31
0.0
1001
ACDBBLOCKREPETAG
1070
     1
1071
       53
1005
127FF1
  0
LINE
  5
127FF2
  8
OBJECT
 10
4097.0
 20
-258.99999999999909
 30
0.0
 11
4133.0
 21
-258.99999999999909
 31
0.0
1001
ACDBBLOCKREPETAG
1070
     1
1071
       54
1005
127FF2
  0
LINE
  5
127FF3
  8
OBJECT
 10
4093.0
 20
-145.49999999999909
 30
0.0
 11
4086.0
 21
-145.49999999999909
 31
0.0
1001
ACDBBLOCKREPETAG
1070
     1
1071
       55
1005
127FF3
  0
LINE
  5
127FF4
  8
OBJECT
 10
4086.0
 20
-254.49999999999909
 30
0.0
 11
4093.0
 21
-254.49999999999909
 31
0.0
1001
ACDBBLOCKREPETAG
1070
     1
1071
       56
1005
127FF4
  0
LINE
  5
127FF5
  8
OBJECT
 10
4093.0
 20
-254.49999999999909
 30
0.0
 11
4093.0
 21
-145.49999999999909
 31
0.0
1001
ACDBBLOCKREPETAG
1070
     1
1071
       57
1005
127FF5
  0
LINE
  5
127FF6
  8
OBJECT
 10
4097.0
 20
-140.99999999999909
 30
0.0
 11
4093.0
 21
-145.49999999999909
 31
0.0
1001
ACDBBLOCKREPETAG
1070
     1
1071
       58
1005
127FF6
  0
LINE
  5
127FF7
  8
OBJECT
 10
4097.0
 20
-258.99999999999909
 30
0.0
 11
4093.0
 21
-254.49999999999909
 31
0.0
1001
ACDBBLOCKREPETAG
1070
     1
1071
       59
1005
127FF7
  0
LINE
  5
127FF8
  8
OBJECT
 10
4083.0
 20
-137.99999999999909
 30
0.0
 11
4080.0
 21
-137.99999999999909
 31
0.0
1001
ACDBBLOCKREPETAG
1070
     1
1071
       60
1005
127FF8
  0
ARC
  5
127FF9
  8
OBJECT
 10
4083.0
 20
-140.99999999999909
 30
0.0
 40
3.0
 50
0.0
 51
90.0
1001
ACDBBLOCKREPETAG
1070
     1
1071
       61
1005
127FF9
  0
LINE
  5
127FFA
  8
OBJECT
 10
4080.0
 20
-261.99999999999909
 30
0.0
 11
4083.0
 21
-261.99999999999909
 31
0.0
1001
ACDBBLOCKREPETAG
1070
     1
1071
       62
1005
127FFA
  0
ARC
  5
127FFB
  8
OBJECT
 10
4083.0
 20
-258.99999999999909
 30
0.0
 40
3.0
 50
270.0
 51
0.0
1001
ACDBBLOCKREPETAG
1070
     1
1071
       63
1005
127FFB
  0
LINE
  5
127FFC
  8
OBJECT
 10
4086.0
 20
-258.99999999999909
 30
0.0
 11
4086.0
 21
-140.99999999999909
 31
0.0
1001
ACDBBLOCKREPETAG
1070
     1
1071
       64
1005
127FFC
  0
LINE
  5
127FFD
  8
HIDDEN
 10
4088.0
 20
-155.49999999999909
 30
0.0
 11
4088.0
 21
-244.49999999999909
 31
0.0
1001
ACDBBLOCKREPETAG
1070
     1
1071
       65
1005
127FFD
  0
LINE
  5
127FFE
  8
OBJECT
 10
6133.0
 20
-534.0
 30
0.0
 11
6140.0
 21
-534.0
 31
0.0
1001
ACDBBLOCKREPETAG
1070
     1
1071
       45
1005
127FFE
  0
LINE
  5
127FFF
  8
OBJECT
 10
6140.0
 20
-534.0
 30
0.0
 11
6140.0
 21
-655.0
 31
0.0
1001
ACDBBLOCKREPETAG
1070
     1
1071
       46
1005
127FFF
  0
LINE
  5
128000
  8
OBJECT
 10
6133.0
 20
-655.0
 30
0.0
 11
6133.0
 21
-534.0
 31
0.0
1001
ACDBBLOCKREPETAG
1070
     1
1071
       47
1005
128000
  0
LINE
  5
128001
  8
CENTER
 10
6155.0
 20
-596.0
 30
0.0
 11
6071.0
 21
-596.0
 31
0.0
1001
ACDBBLOCKREPETAG
1070
     1
1071
       48
1005
128001
  0
LINE
  5
128002
  8
OBJECT
 10
6133.0
 20
-537.0
 30
0.0
 11
6097.0
 21
-537.0
 31
0.0
1001
ACDBBLOCKREPETAG
1070
     1
1071
       49
1005
128002
  0
LINE
  5
128003
  8
OBJECT
 10
6097.0
 20
-537.0
 30
0.0
 11
6097.0
 21
-655.0
 31
0.0
1001
ACDBBLOCKREPETAG
1070
     1
1071
       50
1005
128003
  0
LINE
  5
128004
  8
OBJECT
 10
6097.0
 20
-655.0
 30
0.0
 11
6140.0
 21
-655.0
 31
0.0
1001
ACDBBLOCKREPETAG
1070
     1
1071
       51
1005
128004
  0
LINE
  5
128005
  8
OBJECT
 10
6093.0
 20
-541.5
 30
0.0
 11
6086.0
 21
-541.5
 31
0.0
1001
ACDBBLOCKREPETAG
1070
     1
1071
       52
1005
128005
  0
LINE
  5
128006
  8
OBJECT
 10
6086.0
 20
-650.49999999999989
 30
0.0
 11
6093.0
 21
-650.49999999999989
 31
0.0
1001
ACDBBLOCKREPETAG
1070
     1
1071
       53
1005
128006
  0
LINE
  5
128007
  8
OBJECT
 10
6093.0
 20
-650.49999999999989
 30
0.0
 11
6093.0
 21
-541.5
 31
0.0
1001
ACDBBLOCKREPETAG
1070
     1
1071
       54
1005
128007
  0
LINE
  5
128008
  8
OBJECT
 10
6097.0
 20
-537.0
 30
0.0
 11
6093.0
 21
-541.5
 31
0.0
1001
ACDBBLOCKREPETAG
1070
     1
1071
       55
1005
128008
  0
LINE
  5
128009
  8
OBJECT
 10
6097.0
 20
-655.0
 30
0.0
 11
6093.0
 21
-650.49999999999989
 31
0.0
1001
ACDBBLOCKREPETAG
1070
     1
1071
       56
1005
128009
  0
LINE
  5
12800A
  8
OBJECT
 10
6083.0
 20
-534.0
 30
0.0
 11
6080.0
 21
-534.0
 31
0.0
1001
ACDBBLOCKREPETAG
1070
     1
1071
       57
1005
12800A
  0
ARC
  5
12800B
  8
OBJECT
 10
6083.0
 20
-537.0
 30
0.0
 40
3.0
 50
0.0
 51
90.0
1001
ACDBBLOCKREPETAG
1070
     1
1071
       58
1005
12800B
  0
LINE
  5
12800C
  8
OBJECT
 10
6080.0
 20
-658.0
 30
0.0
 11
6083.0
 21
-658.0
 31
0.0
1001
ACDBBLOCKREPETAG
1070
     1
1071
       59
1005
12800C
  0
ARC
  5
12800D
  8
OBJECT
 10
6083.0
 20
-655.0
 30
0.0
 40
3.0
 50
270.0
 51
0.0
1001
ACDBBLOCKREPETAG
1070
     1
1071
       60
1005
12800D
  0
LINE
  5
12800E
  8
OBJECT
 10
6086.0
 20
-655.0
 30
0.0
 11
6086.0
 21
-537.0
 31
0.0
1001
ACDBBLOCKREPETAG
1070
     1
1071
       61
1005
12800E
  0
LINE
  5
12800F
  8
HIDDEN
 10
6088.0
 20
-551.49999999999977
 30
0.0
 11
6088.0
 21
-640.5
 31
0.0
1001
ACDBBLOCKREPETAG
1070
     1
1071
       63
1005
12800F
  0
LINE
  5
128010
  8
CENTER
 10
4577.0
 20
-596.0
 30
0.0
 11
4423.0
 21
-596.0
 31
0.0
1001
ACDBBLOCKREPETAG
1070
     1
1071
       17
1005
128010
  0
CIRCLE
  5
128011
  8
OBJECT
 10
4500.0
 20
-596.0
 30
0.0
 40
41.5
1001
ACDBBLOCKREPETAG
1070
     1
1071
       19
1005
128011
  0
CIRCLE
  5
128012
  8
OBJECT
 10
4500.0
 20
-596.0
 30
0.0
 40
54.0
1001
ACDBBLOCKREPETAG
1070
     1
1071
       20
1005
128012
  0
ARC
  5
128013
  8
OBJECT
 10
4500.0
 20
-596.0
 30
0.0
 40
62.0
 50
287.89655112920718
 51
252.10344887079279
1001
ACDBBLOCKREPETAG
1070
     1
1071
       21
1005
128013
  0
LINE
  5
128014
  8
OBJECT
 10
4480.9474411167421
 20
-655.0
 30
0.0
 11
4519.052558883257
 21
-655.0
 31
0.0
1001
ACDBBLOCKREPETAG
1070
     1
1071
       22
1005
128014
  0
LINE
  5
128015
  8
OBJECT
 10
4133.0
 20
-534.0
 30
0.0
 11
4140.0
 21
-534.0
 31
0.0
1001
ACDBBLOCKREPETAG
1070
     1
1071
       45
1005
128015
  0
LINE
  5
128016
  8
OBJECT
 10
4140.0
 20
-534.0
 30
0.0
 11
4140.0
 21
-655.0
 31
0.0
1001
ACDBBLOCKREPETAG
1070
     1
1071
       46
1005
128016
  0
LINE
  5
128017
  8
OBJECT
 10
4133.0
 20
-655.0
 30
0.0
 11
4133.0
 21
-534.0
 31
0.0
1001
ACDBBLOCKREPETAG
1070
     1
1071
       47
1005
128017
  0
LINE
  5
128018
  8
CENTER
 10
4155.0
 20
-596.0
 30
0.0
 11
4071.0
 21
-596.0
 31
0.0
1001
ACDBBLOCKREPETAG
1070
     1
1071
       48
1005
128018
  0
LINE
  5
128019
  8
OBJECT
 10
4133.0
 20
-537.0
 30
0.0
 11
4097.0
 21
-537.0
 31
0.0
1001
ACDBBLOCKREPETAG
1070
     1
1071
       49
1005
128019
  0
LINE
  5
12801A
  8
OBJECT
 10
4097.0
 20
-537.0
 30
0.0
 11
4097.0
 21
-655.0
 31
0.0
1001
ACDBBLOCKREPETAG
1070
     1
1071
       50
1005
12801A
  0
LINE
  5
12801B
  8
OBJECT
 10
4097.0
 20
-655.0
 30
0.0
 11
4140.0
 21
-655.0
 31
0.0
1001
ACDBBLOCKREPETAG
1070
     1
1071
       51
1005
12801B
  0
LINE
  5
12801C
  8
OBJECT
 10
4093.0
 20
-541.5
 30
0.0
 11
4086.0
 21
-541.5
 31
0.0
1001
ACDBBLOCKREPETAG
1070
     1
1071
       52
1005
12801C
  0
LINE
  5
12801D
  8
OBJECT
 10
4086.0
 20
-650.49999999999989
 30
0.0
 11
4093.0
 21
-650.49999999999989
 31
0.0
1001
ACDBBLOCKREPETAG
1070
     1
1071
       53
1005
12801D
  0
LINE
  5
12801E
  8
OBJECT
 10
4093.0
 20
-650.49999999999989
 30
0.0
 11
4093.0
 21
-541.5
 31
0.0
1001
ACDBBLOCKREPETAG
1070
     1
1071
       54
1005
12801E
  0
LINE
  5
12801F
  8
OBJECT
 10
4097.0
 20
-537.0
 30
0.0
 11
4093.0
 21
-541.5
 31
0.0
1001
ACDBBLOCKREPETAG
1070
     1
1071
       55
1005
12801F
  0
LINE
  5
128020
  8
OBJECT
 10
4097.0
 20
-655.0
 30
0.0
 11
4093.0
 21
-650.49999999999989
 31
0.0
1001
ACDBBLOCKREPETAG
1070
     1
1071
       56
1005
128020
  0
LINE
  5
128021
  8
OBJECT
 10
4083.0
 20
-534.0
 30
0.0
 11
4080.0
 21
-534.0
 31
0.0
1001
ACDBBLOCKREPETAG
1070
     1
1071
       57
1005
128021
  0
ARC
  5
128022
  8
OBJECT
 10
4083.0
 20
-537.0
 30
0.0
 40
3.0
 50
0.0
 51
90.0
1001
ACDBBLOCKREPETAG
1070
     1
1071
       58
1005
128022
  0
LINE
  5
128023
  8
OBJECT
 10
4080.0
 20
-658.0
 30
0.0
 11
4083.0
 21
-658.0
 31
0.0
1001
ACDBBLOCKREPETAG
1070
     1
1071
       59
1005
128023
  0
ARC
  5
128024
  8
OBJECT
 10
4083.0
 20
-655.0
 30
0.0
 40
3.0
 50
270.0
 51
0.0
1001
ACDBBLOCKREPETAG
1070
     1
1071
       60
1005
128024
  0
LINE
  5
128025
  8
OBJECT
 10
4086.0
 20
-655.0
 30
0.0
 11
4086.0
 21
-537.0
 31
0.0
1001
ACDBBLOCKREPETAG
1070
     1
1071
       61
1005
128025
  0
LINE
  5
128026
  8
HIDDEN
 10
4088.0
 20
-551.49999999999977
 30
0.0
 11
4088.0
 21
-640.5
 31
0.0
1001
ACDBBLOCKREPETAG
1070
     1
1071
       63
1005
128026
  0
LINE
  5
128027
  8
CENTER
 10
2577.0
 20
-596.0
 30
0.0
 11
2423.0
 21
-596.0
 31
0.0
1001
ACDBBLOCKREPETAG
1070
     1
1071
       17
1005
128027
  0
CIRCLE
  5
128028
  8
OBJECT
 10
2500.0
 20
-596.0
 30
0.0
 40
41.5
1001
ACDBBLOCKREPETAG
1070
     1
1071
       19
1005
128028
  0
CIRCLE
  5
128029
  8
OBJECT
 10
2500.0
 20
-596.0
 30
0.0
 40
54.0
1001
ACDBBLOCKREPETAG
1070
     1
1071
       20
1005
128029
  0
ARC
  5
12802A
  8
OBJECT
 10
2500.0
 20
-596.0
 30
0.0
 40
62.0
 50
287.89655112920718
 51
252.10344887079279
1001
ACDBBLOCKREPETAG
1070
     1
1071
       21
1005
12802A
  0
LINE
  5
12802B
  8
OBJECT
 10
2480.947441116743
 20
-655.0
 30
0.0
 11
2519.052558883257
 21
-655.0
 31
0.0
1001
ACDBBLOCKREPETAG
1070
     1
1071
       22
1005
12802B
  0
LINE
  5
12802C
  8
OBJECT
 10
2133.0
 20
-534.0
 30
0.0
 11
2140.0
 21
-534.0
 31
0.0
1001
ACDBBLOCKREPETAG
1070
     1
1071
       45
1005
12802C
  0
LINE
  5
12802D
  8
OBJECT
 10
2140.0
 20
-534.0
 30
0.0
 11
2140.0
 21
-655.0
 31
0.0
1001
ACDBBLOCKREPETAG
1070
     1
1071
       46
1005
12802D
  0
LINE
  5
12802E
  8
OBJECT
 10
2133.0
 20
-655.0
 30
0.0
 11
2133.0
 21
-534.0
 31
0.0
1001
ACDBBLOCKREPETAG
1070
     1
1071
       47
1005
12802E
  0
LINE
  5
12802F
  8
CENTER
 10
2155.0
 20
-596.0
 30
0.0
 11
2071.0
 21
-596.0
 31
0.0
1001
ACDBBLOCKREPETAG
1070
     1
1071
       48
1005
12802F
  0
LINE
  5
128030
  8
OBJECT
 10
2133.0
 20
-537.0
 30
0.0
 11
2097.0
 21
-537.0
 31
0.0
1001
ACDBBLOCKREPETAG
1070
     1
1071
       49
1005
128030
  0
LINE
  5
128031
  8
OBJECT
 10
2097.0
 20
-537.0
 30
0.0
 11
2097.0
 21
-655.0
 31
0.0
1001
ACDBBLOCKREPETAG
1070
     1
1071
       50
1005
128031
  0
LINE
  5
128032
  8
OBJECT
 10
2097.0
 20
-655.0
 30
0.0
 11
2140.0
 21
-655.0
 31
0.0
1001
ACDBBLOCKREPETAG
1070
     1
1071
       51
1005
128032
  0
LINE
  5
128033
  8
OBJECT
 10
2093.0
 20
-541.5
 30
0.0
 11
2086.0
 21
-541.5
 31
0.0
1001
ACDBBLOCKREPETAG
1070
     1
1071
       52
1005
128033
  0
LINE
  5
128034
  8
OBJECT
 10
2086.0
 20
-650.49999999999989
 30
0.0
 11
2093.0
 21
-650.49999999999989
 31
0.0
1001
ACDBBLOCKREPETAG
1070
     1
1071
       53
1005
128034
  0
LINE
  5
128035
  8
OBJECT
 10
2093.0
 20
-650.49999999999989
 30
0.0
 11
2093.0
 21
-541.5
 31
0.0
1001
ACDBBLOCKREPETAG
1070
     1
1071
       54
1005
128035
  0
LINE
  5
128036
  8
OBJECT
 10
2097.0
 20
-537.0
 30
0.0
 11
2093.0
 21
-541.5
 31
0.0
1001
ACDBBLOCKREPETAG
1070
     1
1071
       55
1005
128036
  0
LINE
  5
128037
  8
OBJECT
 10
2097.0
 20
-655.0
 30
0.0
 11
2093.0
 21
-650.49999999999989
 31
0.0
1001
ACDBBLOCKREPETAG
1070
     1
1071
       56
1005
128037
  0
LINE
  5
128038
  8
OBJECT
 10
2083.0
 20
-534.0
 30
0.0
 11
2080.0
 21
-534.0
 31
0.0
1001
ACDBBLOCKREPETAG
1070
     1
1071
       57
1005
128038
  0
ARC
  5
128039
  8
OBJECT
 10
2083.0
 20
-537.0
 30
0.0
 40
3.0
 50
0.0
 51
90.0
1001
ACDBBLOCKREPETAG
1070
     1
1071
       58
1005
128039
  0
LINE
  5
12803A
  8
OBJECT
 10
2080.0
 20
-658.0
 30
0.0
 11
2083.0
 21
-658.0
 31
0.0
1001
ACDBBLOCKREPETAG
1070
     1
1071
       59
1005
12803A
  0
ARC
  5
12803B
  8
OBJECT
 10
2083.0
 20
-655.0
 30
0.0
 40
3.0
 50
270.0
 51
0.0
1001
ACDBBLOCKREPETAG
1070
     1
1071
       60
1005
12803B
  0
LINE
  5
12803C
  8
OBJECT
 10
2086.0
 20
-655.0
 30
0.0
 11
2086.0
 21
-537.0
 31
0.0
1001
ACDBBLOCKREPETAG
1070
     1
1071
       61
1005
12803C
  0
LINE
  5
12803D
  8
HIDDEN
 10
2088.0
 20
-551.49999999999977
 30
0.0
 11
2088.0
 21
-640.5
 31
0.0
1001
ACDBBLOCKREPETAG
1070
     1
1071
       63
1005
12803D
  0
LINE
  5
12803E
  8
OBJECT
 10
2133.0
 20
-137.99999999999909
 30
0.0
 11
2140.0
 21
-137.99999999999909
 31
0.0
1001
ACDBBLOCKREPETAG
1070
     1
1071
       47
1005
12803E
  0
LINE
  5
12803F
  8
OBJECT
 10
2140.0
 20
-137.99999999999909
 30
0.0
 11
2140.0
 21
-261.99999999999909
 31
0.0
1001
ACDBBLOCKREPETAG
1070
     1
1071
       48
1005
12803F
  0
LINE
  5
128040
  8
OBJECT
 10
2140.0
 20
-261.99999999999909
 30
0.0
 11
2133.0
 21
-261.99999999999909
 31
0.0
1001
ACDBBLOCKREPETAG
1070
     1
1071
       49
1005
128040
  0
LINE
  5
128041
  8
OBJECT
 10
2133.0
 20
-261.99999999999909
 30
0.0
 11
2133.0
 21
-137.99999999999909
 31
0.0
1001
ACDBBLOCKREPETAG
1070
     1
1071
       50
1005
128041
  0
LINE
  5
128042
  8
CENTER
 10
2155.0
 20
-199.99999999999909
 30
0.0
 11
2080.0
 21
-199.99999999999909
 31
0.0
1001
ACDBBLOCKREPETAG
1070
     1
1071
       51
1005
128042
  0
LINE
  5
128043
  8
OBJECT
 10
2133.0
 20
-140.99999999999909
 30
0.0
 11
2097.0
 21
-140.99999999999909
 31
0.0
1001
ACDBBLOCKREPETAG
1070
     1
1071
       52
1005
128043
  0
LINE
  5
128044
  8
OBJECT
 10
2097.0
 20
-140.99999999999909
 30
0.0
 11
2097.0
 21
-258.99999999999909
 31
0.0
1001
ACDBBLOCKREPETAG
1070
     1
1071
       53
1005
128044
  0
LINE
  5
128045
  8
OBJECT
 10
2097.0
 20
-258.99999999999909
 30
0.0
 11
2133.0
 21
-258.99999999999909
 31
0.0
1001
ACDBBLOCKREPETAG
1070
     1
1071
       54
1005
128045
  0
LINE
  5
128046
  8
OBJECT
 10
2093.0
 20
-145.49999999999909
 30
0.0
 11
2086.0
 21
-145.49999999999909
 31
0.0
1001
ACDBBLOCKREPETAG
1070
     1
1071
       55
1005
128046
  0
LINE
  5
128047
  8
OBJECT
 10
2086.0
 20
-254.49999999999909
 30
0.0
 11
2093.0
 21
-254.49999999999909
 31
0.0
1001
ACDBBLOCKREPETAG
1070
     1
1071
       56
1005
128047
  0
LINE
  5
128048
  8
OBJECT
 10
2093.0
 20
-254.49999999999909
 30
0.0
 11
2093.0
 21
-145.49999999999909
 31
0.0
1001
ACDBBLOCKREPETAG
1070
     1
1071
       57
1005
128048
  0
LINE
  5
128049
  8
OBJECT
 10
2097.0
 20
-140.99999999999909
 30
0.0
 11
2093.0
 21
-145.49999999999909
 31
0.0
1001
ACDBBLOCKREPETAG
1070
     1
1071
       58
1005
128049
  0
LINE
  5
12804A
  8
OBJECT
 10
2097.0
 20
-258.99999999999909
 30
0.0
 11
2093.0
 21
-254.49999999999909
 31
0.0
1001
ACDBBLOCKREPETAG
1070
     1
1071
       59
1005
12804A
  0
LINE
  5
12804B
  8
OBJECT
 10
2083.0
 20
-137.99999999999909
 30
0.0
 11
2080.0
 21
-137.99999999999909
 31
0.0
1001
ACDBBLOCKREPETAG
1070
     1
1071
       60
1005
12804B
  0
ARC
  5
12804C
  8
OBJECT
 10
2083.0
 20
-140.99999999999909
 30
0.0
 40
3.0
 50
0.0
 51
90.0
1001
ACDBBLOCKREPETAG
1070
     1
1071
       61
1005
12804C
  0
LINE
  5
12804D
  8
OBJECT
 10
2080.0
 20
-261.99999999999909
 30
0.0
 11
2083.0
 21
-261.99999999999909
 31
0.0
1001
ACDBBLOCKREPETAG
1070
     1
1071
       62
1005
12804D
  0
ARC
  5
12804E
  8
OBJECT
 10
2083.0
 20
-258.99999999999909
 30
0.0
 40
3.0
 50
270.0
 51
0.0
1001
ACDBBLOCKREPETAG
1070
     1
1071
       63
1005
12804E
  0
LINE
  5
12804F
  8
OBJECT
 10
2086.0
 20
-258.99999999999909
 30
0.0
 11
2086.0
 21
-140.99999999999909
 31
0.0
1001
ACDBBLOCKREPETAG
1070
     1
1071
       64
1005
12804F
  0
LINE
  5
128050
  8
HIDDEN
 10
2088.0
 20
-155.49999999999909
 30
0.0
 11
2088.0
 21
-244.49999999999909
 31
0.0
1001
ACDBBLOCKREPETAG
1070
     1
1071
       65
1005
128050
  0
LINE
  5
128051
  8
OBJECT
 10
465.00000000012182
 20
-546.00000000000955
 30
0.0
 11
465.00000000012182
 21
-553.00000000000966
 31
0.0
1001
ACDBBLOCKREPETAG
1070
     1
1071
       57
1005
128051
  0
LINE
  5
128052
  8
OBJECT
 10
465.00000000012182
 20
-553.00000000000966
 30
0.0
 11
615.00000000012176
 21
-553.00000000000966
 31
0.0
1001
ACDBBLOCKREPETAG
1070
     1
1071
       58
1005
128052
  0
LINE
  5
128053
  8
OBJECT
 10
468.00000000012182
 20
-594.50000000000966
 30
0.0
 11
612.00000000012164
 21
-594.50000000000966
 31
0.0
1001
ACDBBLOCKREPETAG
1070
     1
1071
       59
1005
128053
  0
LINE
  5
128054
  8
OBJECT
 10
474.5000000001217
 20
-606.00000000000955
 30
0.0
 11
605.50000000012187
 21
-606.00000000000955
 31
0.0
1001
ACDBBLOCKREPETAG
1070
     1
1071
       60
1005
128054
  0
LINE
  5
128055
  8
OBJECT
 10
615.00000000012176
 20
-553.00000000000966
 30
0.0
 11
615.00000000012176
 21
-546.00000000000955
 31
0.0
1001
ACDBBLOCKREPETAG
1070
     1
1071
       61
1005
128055
  0
LINE
  5
128056
  8
OBJECT
 10
615.00000000012176
 20
-546.00000000000955
 30
0.0
 11
465.00000000012182
 21
-546.00000000000955
 31
0.0
1001
ACDBBLOCKREPETAG
1070
     1
1071
       62
1005
128056
  0
LINE
  5
128057
  8
OBJECT
 10
602.00000000012187
 20
-610.00000000000955
 30
0.0
 11
602.00000000012187
 21
-616.00000000000955
 31
0.0
1001
ACDBBLOCKREPETAG
1070
     1
1071
       63
1005
128057
  0
LINE
  5
128058
  8
OBJECT
 10
612.00000000012164
 20
-553.00000000000966
 30
0.0
 11
612.00000000012164
 21
-594.50000000000966
 31
0.0
1001
ACDBBLOCKREPETAG
1070
     1
1071
       64
1005
128058
  0
LINE
  5
128059
  8
OBJECT
 10
612.00000000012164
 20
-594.50000000000966
 30
0.0
 11
605.50000000012187
 21
-606.00000000000955
 31
0.0
1001
ACDBBLOCKREPETAG
1070
     1
1071
       65
1005
128059
  0
LINE
  5
12805A
  8
OBJECT
 10
605.50000000012187
 20
-606.00000000000955
 30
0.0
 11
602.00000000012187
 21
-610.00000000000955
 31
0.0
1001
ACDBBLOCKREPETAG
1070
     1
1071
       66
1005
12805A
  0
LINE
  5
12805B
  8
OBJECT
 10
468.00000000012182
 20
-594.50000000000966
 30
0.0
 11
474.5000000001217
 21
-606.00000000000955
 31
0.0
1001
ACDBBLOCKREPETAG
1070
     1
1071
       67
1005
12805B
  0
LINE
  5
12805C
  8
OBJECT
 10
474.5000000001217
 20
-606.00000000000955
 30
0.0
 11
478.0000000001217
 21
-610.00000000000955
 31
0.0
1001
ACDBBLOCKREPETAG
1070
     1
1071
       68
1005
12805C
  0
ARC
  5
12805D
  8
OBJECT
 10
540.00000000012176
 20
-228.10000000000809
 30
0.0
 40
386.89999999999998
 50
260.77870136257951
 51
279.22129863742049
1001
ACDBBLOCKREPETAG
1070
     1
1071
       69
1005
12805D
  0
LINE
  5
12805E
  8
OBJECT
 10
478.0000000001217
 20
-610.00000000000955
 30
0.0
 11
478.0000000001217
 21
-616.00000000000955
 31
0.0
1001
ACDBBLOCKREPETAG
1070
     1
1071
       70
1005
12805E
  0
LINE
  5
12805F
  8
OBJECT
 10
468.00000000012182
 20
-553.00000000000966
 30
0.0
 11
468.00000000012182
 21
-594.50000000000966
 31
0.0
1001
ACDBBLOCKREPETAG
1070
     1
1071
       71
1005
12805F
  0
INSERT
  5
128060
  8
OBJECT
  2
*U20
 10
0.0
 20
0.0
 30
0.0
  0
LINE
  5
128061
  8
HIDDEN
 10
597.00000000012187
 20
-598.00000000000955
 30
0.0
 11
483.0000000001217
 21
-598.00000000000955
 31
0.0
1001
ACDBBLOCKREPETAG
1070
     1
1071
      431
1005
128061
  0
INSERT
  5
128062
  8
OBJECT
  2
*U21
 10
0.0
 20
0.0
 30
0.0
  0
LINE
  5
128063
  8
OBJECT
 10
118.00000000004179
 20
-563.00000000000955
 30
0.0
 11
118.00000000004179
 21
-556.00000000000955
 31
0.0
1001
ACDBBLOCKREPETAG
1070
     1
1071
       39
1005
128063
  0
LINE
  5
128064
  8
OBJECT
 10
118.00000000004179
 20
-556.00000000000955
 30
0.0
 11
242.00000000004181
 21
-556.00000000000955
 31
0.0
1001
ACDBBLOCKREPETAG
1070
     1
1071
       40
1005
128064
  0
LINE
  5
128065
  8
OBJECT
 10
242.00000000004181
 20
-556.00000000000955
 30
0.0
 11
242.00000000004181
 21
-563.00000000000955
 31
0.0
1001
ACDBBLOCKREPETAG
1070
     1
1071
       41
1005
128065
  0
LINE
  5
128066
  8
OBJECT
 10
242.00000000004181
 20
-563.00000000000955
 30
0.0
 11
118.00000000004179
 21
-563.00000000000955
 31
0.0
1001
ACDBBLOCKREPETAG
1070
     1
1071
       42
1005
128066
  0
LINE
  5
128067
  8
OBJECT
 10
121.00000000004179
 20
-563.00000000000955
 30
0.0
 11
121.00000000004179
 21
-599.00000000000966
 31
0.0
1001
ACDBBLOCKREPETAG
1070
     1
1071
       43
1005
128067
  0
LINE
  5
128068
  8
OBJECT
 10
121.00000000004179
 20
-599.00000000000966
 30
0.0
 11
239.00000000004181
 21
-599.00000000000966
 31
0.0
1001
ACDBBLOCKREPETAG
1070
     1
1071
       44
1005
128068
  0
LINE
  5
128069
  8
OBJECT
 10
239.00000000004181
 20
-599.00000000000966
 30
0.0
 11
239.00000000004181
 21
-563.00000000000955
 31
0.0
1001
ACDBBLOCKREPETAG
1070
     1
1071
       45
1005
128069
  0
LINE
  5
12806A
  8
OBJECT
 10
125.50000000004179
 20
-603.00000000000966
 30
0.0
 11
125.50000000004179
 21
-610.00000000000955
 31
0.0
1001
ACDBBLOCKREPETAG
1070
     1
1071
       46
1005
12806A
  0
LINE
  5
12806B
  8
OBJECT
 10
234.50000000004181
 20
-610.00000000000955
 30
0.0
 11
234.50000000004181
 21
-603.00000000000966
 31
0.0
1001
ACDBBLOCKREPETAG
1070
     1
1071
       47
1005
12806B
  0
LINE
  5
12806C
  8
OBJECT
 10
234.50000000004181
 20
-603.00000000000966
 30
0.0
 11
125.50000000004179
 21
-603.00000000000966
 31
0.0
1001
ACDBBLOCKREPETAG
1070
     1
1071
       48
1005
12806C
  0
LINE
  5
12806D
  8
OBJECT
 10
121.00000000004179
 20
-599.00000000000966
 30
0.0
 11
125.50000000004179
 21
-603.00000000000966
 31
0.0
1001
ACDBBLOCKREPETAG
1070
     1
1071
       49
1005
12806D
  0
LINE
  5
12806E
  8
OBJECT
 10
239.00000000004181
 20
-599.00000000000966
 30
0.0
 11
234.50000000004181
 21
-603.00000000000966
 31
0.0
1001
ACDBBLOCKREPETAG
1070
     1
1071
       50
1005
12806E
  0
LINE
  5
12806F
  8
OBJECT
 10
118.00000000004179
 20
-613.00000000000864
 30
0.0
 11
118.00000000004179
 21
-616.00000000000955
 31
0.0
1001
ACDBBLOCKREPETAG
1070
     1
1071
       51
1005
12806F
  0
ARC
  5
128070
  8
OBJECT
 10
121.00000000004179
 20
-613.00000000000864
 30
0.0
 40
3.0
 50
90.0
 51
180.0
1001
ACDBBLOCKREPETAG
1070
     1
1071
       52
1005
128070
  0
LINE
  5
128071
  8
OBJECT
 10
242.00000000004181
 20
-616.00000000000955
 30
0.0
 11
242.00000000004181
 21
-613.00000000001035
 31
0.0
1001
ACDBBLOCKREPETAG
1070
     1
1071
       53
1005
128071
  0
ARC
  5
128072
  8
OBJECT
 10
239.00000000004181
 20
-613.00000000001035
 30
0.0
 40
3.0
 50
0.0
 51
90.0
1001
ACDBBLOCKREPETAG
1070
     1
1071
       54
1005
128072
  0
LINE
  5
128073
  8
OBJECT
 10
239.00000000004181
 20
-610.00000000001035
 30
0.0
 11
121.00000000004179
 21
-610.00000000000864
 31
0.0
1001
ACDBBLOCKREPETAG
1070
     1
1071
       55
1005
128073
  0
LINE
  5
128074
  8
HIDDEN
 10
135.50000000004181
 20
-608.00000000000955
 30
0.0
 11
224.50000000004181
 21
-608.00000000000955
 31
0.0
1001
ACDBBLOCKREPETAG
1070
     1
1071
      426
1005
128074
  0
INSERT
  5
128075
  8
OBJECT
  2
*U22
 10
0.0
 20
0.0
 30
0.0
  0
LINE
  5
128076
  8
OBJECT
 10
485.00000000012182
 20
-99.000000000003183
 30
0.0
 11
485.00000000012182
 21
-92.000000000003183
 31
0.0
1001
ACDBBLOCKREPETAG
1070
     1
1071
       20
1005
128076
  0
LINE
  5
128077
  8
OBJECT
 10
485.00000000012182
 20
-92.000000000003183
 30
0.0
 11
595.00000000012164
 21
-92.000000000003183
 31
0.0
1001
ACDBBLOCKREPETAG
1070
     1
1071
       21
1005
128077
  0
LINE
  5
128078
  8
OBJECT
 10
595.00000000012164
 20
-92.000000000003183
 30
0.0
 11
595.00000000012164
 21
-99.000000000003183
 31
0.0
1001
ACDBBLOCKREPETAG
1070
     1
1071
       22
1005
128078
  0
LINE
  5
128079
  8
OBJECT
 10
595.00000000012164
 20
-99.000000000003183
 30
0.0
 11
485.00000000012182
 21
-99.000000000003183
 31
0.0
1001
ACDBBLOCKREPETAG
1070
     1
1071
       23
1005
128079
  0
LINE
  5
12807A
  8
OBJECT
 10
488.0000000001217
 20
-99.000000000003183
 30
0.0
 11
488.0000000001217
 21
-135.00000000000321
 31
0.0
1001
ACDBBLOCKREPETAG
1070
     1
1071
       24
1005
12807A
  0
LINE
  5
12807B
  8
OBJECT
 10
488.0000000001217
 20
-135.00000000000321
 30
0.0
 11
592.00000000012164
 21
-135.00000000000321
 31
0.0
1001
ACDBBLOCKREPETAG
1070
     1
1071
       25
1005
12807B
  0
LINE
  5
12807C
  8
OBJECT
 10
592.00000000012164
 20
-135.00000000000321
 30
0.0
 11
592.00000000012164
 21
-99.000000000003183
 31
0.0
1001
ACDBBLOCKREPETAG
1070
     1
1071
       26
1005
12807C
  0
LINE
  5
12807D
  8
OBJECT
 10
492.5000000001217
 20
-139.00000000000321
 30
0.0
 11
492.5000000001217
 21
-146.00000000000321
 31
0.0
1001
ACDBBLOCKREPETAG
1070
     1
1071
       27
1005
12807D
  0
LINE
  5
12807E
  8
OBJECT
 10
587.50000000012164
 20
-146.00000000000321
 30
0.0
 11
587.50000000012164
 21
-139.00000000000321
 31
0.0
1001
ACDBBLOCKREPETAG
1070
     1
1071
       28
1005
12807E
  0
LINE
  5
12807F
  8
OBJECT
 10
587.50000000012164
 20
-139.00000000000321
 30
0.0
 11
492.5000000001217
 21
-139.00000000000321
 31
0.0
1001
ACDBBLOCKREPETAG
1070
     1
1071
       29
1005
12807F
  0
LINE
  5
128080
  8
OBJECT
 10
488.0000000001217
 20
-135.00000000000321
 30
0.0
 11
492.5000000001217
 21
-139.00000000000321
 31
0.0
1001
ACDBBLOCKREPETAG
1070
     1
1071
       30
1005
128080
  0
LINE
  5
128081
  8
OBJECT
 10
592.00000000012164
 20
-135.00000000000321
 30
0.0
 11
587.50000000012164
 21
-139.00000000000321
 31
0.0
1001
ACDBBLOCKREPETAG
1070
     1
1071
       31
1005
128081
  0
LINE
  5
128082
  8
OBJECT
 10
478.0000000001217
 20
-149.0000000000023
 30
0.0
 11
478.0000000001217
 21
-152.0000000000031
 31
0.0
1001
ACDBBLOCKREPETAG
1070
     1
1071
       32
1005
128082
  0
ARC
  5
128083
  8
OBJECT
 10
481.00000000012182
 20
-149.0000000000023
 30
0.0
 40
3.0
 50
90.0
 51
180.0
1001
ACDBBLOCKREPETAG
1070
     1
1071
       33
1005
128083
  0
LINE
  5
128084
  8
OBJECT
 10
602.00000000012187
 20
-152.0000000000031
 30
0.0
 11
602.00000000012187
 21
-149.00000000000409
 31
0.0
1001
ACDBBLOCKREPETAG
1070
     1
1071
       34
1005
128084
  0
ARC
  5
128085
  8
OBJECT
 10
599.00000000012164
 20
-149.00000000000409
 30
0.0
 40
3.0
 50
0.0
 51
90.0
1001
ACDBBLOCKREPETAG
1070
     1
1071
       35
1005
128085
  0
LINE
  5
128086
  8
OBJECT
 10
599.00000000012164
 20
-146.00000000000409
 30
0.0
 11
481.00000000012182
 21
-146.0000000000023
 31
0.0
1001
ACDBBLOCKREPETAG
1070
     1
1071
       36
1005
128086
  0
LINE
  5
128087
  8
HIDDEN
 10
502.00000000012182
 20
-144.00000000000321
 30
0.0
 11
578.00000000012164
 21
-144.00000000000321
 31
0.0
1001
ACDBBLOCKREPETAG
1070
     1
1071
      423
1005
128087
  0
INSERT
  5
128088
  8
OBJECT
  2
*U23
 10
0.0
 20
0.0
 30
0.0
  0
LINE
  5
128089
  8
OBJECT
 10
133.00000000004169
 20
-99.000000000003183
 30
0.0
 11
133.00000000004169
 21
-92.000000000003183
 31
0.0
1001
ACDBBLOCKREPETAG
1070
     1
1071
        1
1005
128089
  0
LINE
  5
12808A
  8
OBJECT
 10
133.00000000004169
 20
-92.000000000003183
 30
0.0
 11
227.00000000004181
 21
-92.000000000003183
 31
0.0
1001
ACDBBLOCKREPETAG
1070
     1
1071
        2
1005
12808A
  0
LINE
  5
12808B
  8
OBJECT
 10
227.00000000004181
 20
-92.000000000003183
 30
0.0
 11
227.00000000004181
 21
-99.000000000003183
 31
0.0
1001
ACDBBLOCKREPETAG
1070
     1
1071
        3
1005
12808B
  0
LINE
  5
12808C
  8
OBJECT
 10
227.00000000004181
 20
-99.000000000003183
 30
0.0
 11
133.00000000004169
 21
-99.000000000003183
 31
0.0
1001
ACDBBLOCKREPETAG
1070
     1
1071
        4
1005
12808C
  0
LINE
  5
12808D
  8
OBJECT
 10
136.00000000004169
 20
-99.000000000003183
 30
0.0
 11
136.00000000004169
 21
-135.00000000000321
 31
0.0
1001
ACDBBLOCKREPETAG
1070
     1
1071
        5
1005
12808D
  0
LINE
  5
12808E
  8
OBJECT
 10
136.00000000004169
 20
-135.00000000000321
 30
0.0
 11
224.00000000004181
 21
-135.00000000000321
 31
0.0
1001
ACDBBLOCKREPETAG
1070
     1
1071
        6
1005
12808E
  0
LINE
  5
12808F
  8
OBJECT
 10
224.00000000004181
 20
-135.00000000000321
 30
0.0
 11
224.00000000004181
 21
-99.000000000003183
 31
0.0
1001
ACDBBLOCKREPETAG
1070
     1
1071
        7
1005
12808F
  0
LINE
  5
128090
  8
OBJECT
 10
140.50000000004181
 20
-139.00000000000321
 30
0.0
 11
140.50000000004181
 21
-146.00000000000321
 31
0.0
1001
ACDBBLOCKREPETAG
1070
     1
1071
        8
1005
128090
  0
LINE
  5
128091
  8
OBJECT
 10
219.50000000004189
 20
-146.00000000000321
 30
0.0
 11
219.50000000004189
 21
-139.00000000000321
 31
0.0
1001
ACDBBLOCKREPETAG
1070
     1
1071
        9
1005
128091
  0
LINE
  5
128092
  8
OBJECT
 10
219.50000000004189
 20
-139.00000000000321
 30
0.0
 11
140.50000000004181
 21
-139.00000000000321
 31
0.0
1001
ACDBBLOCKREPETAG
1070
     1
1071
       10
1005
128092
  0
LINE
  5
128093
  8
OBJECT
 10
136.00000000004169
 20
-135.00000000000321
 30
0.0
 11
140.50000000004181
 21
-139.00000000000321
 31
0.0
1001
ACDBBLOCKREPETAG
1070
     1
1071
       11
1005
128093
  0
LINE
  5
128094
  8
OBJECT
 10
224.00000000004181
 20
-135.00000000000321
 30
0.0
 11
219.50000000004189
 21
-139.00000000000321
 31
0.0
1001
ACDBBLOCKREPETAG
1070
     1
1071
       12
1005
128094
  0
LINE
  5
128095
  8
OBJECT
 10
118.00000000004179
 20
-149.0000000000023
 30
0.0
 11
118.00000000004179
 21
-152.0000000000031
 31
0.0
1001
ACDBBLOCKREPETAG
1070
     1
1071
       13
1005
128095
  0
ARC
  5
128096
  8
OBJECT
 10
121.00000000004179
 20
-149.0000000000023
 30
0.0
 40
3.0
 50
90.0
 51
180.0
1001
ACDBBLOCKREPETAG
1070
     1
1071
       14
1005
128096
  0
LINE
  5
128097
  8
OBJECT
 10
242.00000000004181
 20
-152.0000000000031
 30
0.0
 11
242.00000000004181
 21
-149.00000000000409
 31
0.0
1001
ACDBBLOCKREPETAG
1070
     1
1071
       15
1005
128097
  0
ARC
  5
128098
  8
OBJECT
 10
239.00000000004181
 20
-149.00000000000409
 30
0.0
 40
3.0
 50
0.0
 51
90.0
1001
ACDBBLOCKREPETAG
1070
     1
1071
       16
1005
128098
  0
LINE
  5
128099
  8
OBJECT
 10
239.00000000004181
 20
-146.00000000000409
 30
0.0
 11
121.00000000004179
 21
-146.0000000000023
 31
0.0
1001
ACDBBLOCKREPETAG
1070
     1
1071
       17
1005
128099
  0
LINE
  5
12809A
  8
HIDDEN
 10
150.00000000004181
 20
-144.00000000000321
 30
0.0
 11
210.00000000004181
 21
-144.00000000000321
 31
0.0
1001
ACDBBLOCKREPETAG
1070
     1
1071
      420
1005
12809A
  0
POLYLINE
  5
12809B
  8
HIDDEN
 66
     1
 10
0.0
 20
0.0
 30
0.0
 70
     1
1001
ACDBBLOCKREPETAG
1070
     1
1071
      105
1005
0
  0
VERTEX
  5
128BB0
  8
HIDDEN
 10
359.99999999987818
 20
0.0
 30
0.0
  0
VERTEX
  5
128BB1
  8
HIDDEN
 10
719.99999999975626
 20
0.0
 30
0.0
  0
VERTEX
  5
128BB2
  8
HIDDEN
 10
719.99999999975626
 20
-463.99999999984158
 30
0.0
  0
VERTEX
  5
128BB3
  8
HIDDEN
 10
359.99999999987818
 20
-463.99999999984158
 30
0.0
  0
SEQEND
  5
128BB4
  8
HIDDEN
  0
POLYLINE
  5
12809C
  8
HIDDEN
 66
     1
 10
0.0
 20
0.0
 30
0.0
 70
     1
1001
ACDBBLOCKREPETAG
1070
     1
1071
      110
1005
0
  0
VERTEX
  5
128BB5
  8
HIDDEN
 10
0.0
 20
0.0
 30
0.0
  0
VERTEX
  5
128BB6
  8
HIDDEN
 10
359.99999999987818
 20
0.0
 30
0.0
  0
VERTEX
  5
128BB7
  8
HIDDEN
 10
359.99999999987818
 20
-463.99999999984158
 30
0.0
  0
VERTEX
  5
128BB8
  8
HIDDEN
 10
0.0
 20
-463.99999999984158
 30
0.0
  0
SEQEND
  5
128BB9
  8
HIDDEN
  0
POLYLINE
  5
12809D
  8
HIDDEN
 66
     1
 10
0.0
 20
0.0
 30
0.0
 70
     1
1001
ACDBBLOCKREPETAG
1070
     1
1071
      120
1005
0
  0
VERTEX
  5
128BBA
  8
HIDDEN
 10
359.99999999987818
 20
-463.99999999984158
 30
0.0
  0
VERTEX
  5
128BBB
  8
HIDDEN
 10
719.99999999975626
 20
-463.99999999984158
 30
0.0
  0
VERTEX
  5
128BBC
  8
HIDDEN
 10
719.99999999975626
 20
-927.99999999968372
 30
0.0
  0
VERTEX
  5
128BBD
  8
HIDDEN
 10
359.99999999987818
 20
-927.99999999968372
 30
0.0
  0
SEQEND
  5
128BBE
  8
HIDDEN
  0
POLYLINE
  5
12809E
  8
HIDDEN
 66
     1
 10
0.0
 20
0.0
 30
0.0
 70
     1
1001
ACDBBLOCKREPETAG
1070
     1
1071
      125
1005
0
  0
VERTEX
  5
128BBF
  8
HIDDEN
 10
0.0
 20
-463.99999999984158
 30
0.0
  0
VERTEX
  5
128BC0
  8
HIDDEN
 10
359.99999999987818
 20
-463.99999999984158
 30
0.0
  0
VERTEX
  5
128BC1
  8
HIDDEN
 10
359.99999999987818
 20
-927.99999999968372
 30
0.0
  0
VERTEX
  5
128BC2
  8
HIDDEN
 10
0.0
 20
-927.99999999968372
 30
0.0
  0
SEQEND
  5
128BC3
  8
HIDDEN
  0
TEXT
  5
12809F
  8
SLIM
 10
508.28571428553232
 20
-907.999999999691
 30
0.0
 40
48.0
  1
A4
 41
0.75
1001
ACDBBLOCKREPETAG
1070
     1
1071
      119
1005
0
  0
TEXT
  5
1280A0
  8
SLIM
 10
149.14285714279711
 20
-907.999999999691
 30
0.0
 40
48.0
  1
A3
 41
0.75
1001
ACDBBLOCKREPETAG
1070
     1
1071
      119
1005
0
  0
TEXT
  5
1280A1
  8
SLIM
 10
509.1428571426751
 20
-443.99999999984919
 30
0.0
 40
48.0
  1
A2
 41
0.75
1001
ACDBBLOCKREPETAG
1070
     1
1071
      119
1005
0
  0
TEXT
  5
1280A2
  8
SLIM
 10
156.85714285708281
 20
-443.99999999984919
 30
0.0
 40
48.0
  1
A1
 41
0.75
1001
ACDBBLOCKREPETAG
1070
     1
1071
      119
1005
0
  0
TEXT
  5
1280A3
  8
SLIM
 10
0.0
 20
670.0
 30
0.0
 40
100.0
  1
4CL-AX-S
 41
0.75
  0
TEXT
  5
1280A4
  8
SLIM
 10
0.0
 20
520.0
 30
0.0
 40
100.0
  1
4CL-AX-W
 41
0.75
  0
TEXT
  5
1280A5
  8
SLIM
 10
0.0000035665234464
 20
24.000004585317601
 30
0.0
 40
79.999999999972701
  1
枝管バリエーション
 41
0.75
1001
ACDBBLOCKREPETAG
1070
     1
1071
      119
1005
12475A
  0
TEXT
  5
1280A6
  8
SLIM
 10
0.0
 20
370.0
 30
0.0
 40
100.0
  1
4CL-AX-WKP
 41
0.75
  0
LINE
  5
1280A7
  8
OBJECT
 10
6566.0
 20
-840.49999999999579
 30
0.0
 11
6434.0
 21
-840.49999999999579
 31
0.0
1001
ACDBBLOCKREPETAG
1070
     1
1071
      163
1005
1280A7
  0
LINE
  5
1280A8
  8
HIDDEN
 10
6443.0
 20
-849.99999999999955
 30
0.0
 11
6557.0
 21
-849.99999999999955
 31
0.0
1001
ACDBBLOCKREPETAG
1070
     1
1071
      164
1005
1280A8
  0
LINE
  5
1280A9
  8
CENTER
 10
6500.0
 20
-669.99999999999955
 30
0.0
 11
6500.0
 21
-969.99999999999966
 31
0.0
1001
ACDBBLOCKREPETAG
1070
     1
1071
      165
1005
1280A9
  0
LINE
  5
1280AA
  8
OBJECT
 10
6425.0
 20
-669.99999999999955
 30
0.0
 11
6425.0
 21
-722.99999999999591
 31
0.0
1001
ACDBBLOCKREPETAG
1070
     1
1071
      166
1005
1280AA
  0
LINE
  5
1280AB
  8
OBJECT
 10
6575.0
 20
-669.99999999999955
 30
0.0
 11
6575.0
 21
-722.99999999999204
 31
0.0
1001
ACDBBLOCKREPETAG
1070
     1
1071
      167
1005
1280AB
  0
LINE
  5
1280AC
  8
OBJECT
 10
6425.0
 20
-722.99999999999591
 30
0.0
 11
6575.0
 21
-722.99999999999204
 31
0.0
1001
ACDBBLOCKREPETAG
1070
     1
1071
      168
1005
1280AC
  0
LINE
  5
1280AD
  8
OBJECT
 10
6557.0
 20
-840.49999999999216
 30
0.0
 11
6443.0
 21
-840.49999999999216
 31
0.0
1001
ACDBBLOCKREPETAG
1070
     1
1071
      169
1005
1280AD
  0
LINE
  5
1280AE
  8
OBJECT
 10
6425.0
 20
-722.99999999999591
 30
0.0
 11
6443.0
 21
-840.49999999999216
 31
0.0
1001
ACDBBLOCKREPETAG
1070
     1
1071
      170
1005
1280AE
  0
LINE
  5
1280AF
  8
OBJECT
 10
6557.0
 20
-840.49999999999216
 30
0.0
 11
6575.0
 21
-722.99999999999204
 31
0.0
1001
ACDBBLOCKREPETAG
1070
     1
1071
      171
1005
1280AF
  0
LINE
  5
1280B0
  8
OBJECT
 10
6434.0
 20
-840.49999999999579
 30
0.0
 11
6434.0
 21
-874.99999999999591
 31
0.0
1001
ACDBBLOCKREPETAG
1070
     1
1071
      172
1005
1280B0
  0
LINE
  5
1280B1
  8
OBJECT
 10
6566.0
 20
-840.49999999999579
 30
0.0
 11
6566.0
 21
-874.99999999999591
 31
0.0
1001
ACDBBLOCKREPETAG
1070
     1
1071
      173
1005
1280B1
  0
LINE
  5
1280B2
  8
OBJECT
 10
6492.0
 20
-913.99999999999966
 30
0.0
 11
6492.0
 21
-923.99999999999943
 31
0.0
1001
ACDBBLOCKREPETAG
1070
     1
1071
      174
1005
1280B2
  0
LINE
  5
1280B3
  8
OBJECT
 10
6508.0
 20
-913.99999999999966
 30
0.0
 11
6508.0
 21
-923.99999999999943
 31
0.0
1001
ACDBBLOCKREPETAG
1070
     1
1071
      175
1005
1280B3
  0
LINE
  5
1280B4
  8
OBJECT
 10
6492.0
 20
-923.99999999999943
 30
0.0
 11
6508.0
 21
-923.99999999999943
 31
0.0
1001
ACDBBLOCKREPETAG
1070
     1
1071
      176
1005
1280B4
  0
LINE
  5
1280B5
  8
OBJECT
 10
6579.5499814951818
 20
-874.99999999999591
 30
0.0
 11
6420.4500185047982
 21
-874.99999999999955
 31
0.0
1001
ACDBBLOCKREPETAG
1070
     1
1071
      177
1005
1280B5
  0
LINE
  5
1280B6
  8
OBJECT
 10
6420.4500185047982
 20
-889.99999999999955
 30
0.0
 11
6579.5499814951818
 21
-889.99999999999955
 31
0.0
1001
ACDBBLOCKREPETAG
1070
     1
1071
      178
1005
1280B6
  0
LINE
  5
1280B7
  8
OBJECT
 10
6495.0
 20
-899.99999999999955
 30
0.0
 11
6495.0
 21
-889.99999999999955
 31
0.0
1001
ACDBBLOCKREPETAG
1070
     1
1071
      179
1005
1280B7
  0
LINE
  5
1280B8
  8
OBJECT
 10
6505.0
 20
-899.99999999999955
 30
0.0
 11
6505.0
 21
-889.99999999999955
 31
0.0
1001
ACDBBLOCKREPETAG
1070
     1
1071
      180
1005
1280B8
  0
LINE
  5
1280B9
  8
OBJECT
 10
6567.4999999999873
 20
-889.99999999999955
 30
0.0
 11
6567.4999999999873
 21
-899.99999999999955
 31
0.0
1001
ACDBBLOCKREPETAG
1070
     1
1071
      181
1005
1280B9
  0
LINE
  5
1280BA
  8
OBJECT
 10
6420.4500185047982
 20
-913.99999999999966
 30
0.0
 11
6579.5499814951818
 21
-913.99999999999591
 31
0.0
1001
ACDBBLOCKREPETAG
1070
     1
1071
      182
1005
1280BA
  0
LINE
  5
1280BB
  8
OBJECT
 10
6420.4500185047982
 20
-899.99999999999955
 30
0.0
 11
6579.5499814951818
 21
-899.99999999999955
 31
0.0
1001
ACDBBLOCKREPETAG
1070
     1
1071
      183
1005
1280BB
  0
LINE
  5
1280BC
  8
OBJECT
 10
6432.4999999999864
 20
-889.99999999999955
 30
0.0
 11
6432.4999999999864
 21
-899.99999999999955
 31
0.0
1001
ACDBBLOCKREPETAG
1070
     1
1071
      184
1005
1280BC
  0
LINE
  5
1280BD
  8
OBJECT
 10
6515.0
 20
-873.20000000000005
 30
0.0
 11
6515.0
 21
-874.99999999999955
 31
0.0
1001
ACDBBLOCKREPETAG
1070
     1
1071
      185
1005
1280BD
  0
LINE
  5
1280BE
  8
OBJECT
 10
6485.0
 20
-873.20000000000005
 30
0.0
 11
6485.0
 21
-874.99999999999955
 31
0.0
1001
ACDBBLOCKREPETAG
1070
     1
1071
      186
1005
1280BE
  0
LINE
  5
1280BF
  8
OBJECT
 10
6494.25
 20
-863.49999999999955
 30
0.0
 11
6505.75
 21
-863.49999999999955
 31
0.0
1001
ACDBBLOCKREPETAG
1070
     1
1071
      187
1005
1280BF
  0
LINE
  5
1280C0
  8
OBJECT
 10
6494.25
 20
-863.49999999999955
 30
0.0
 11
6494.25
 21
-873.20000000000005
 31
0.0
1001
ACDBBLOCKREPETAG
1070
     1
1071
      188
1005
1280C0
  0
LINE
  5
1280C1
  8
OBJECT
 10
6505.75
 20
-863.49999999999955
 30
0.0
 11
6505.75
 21
-873.20000000000005
 31
0.0
1001
ACDBBLOCKREPETAG
1070
     1
1071
      189
1005
1280C1
  0
LINE
  5
1280C2
  8
OBJECT
 10
6431.9999999999873
 20
-954.99999999999966
 30
0.0
 11
6567.9999999999873
 21
-954.99999999999966
 31
0.0
1001
ACDBBLOCKREPETAG
1070
     1
1071
      190
1005
1280C2
  0
LINE
  5
1280C3
  8
OBJECT
 10
6431.9999999999873
 20
-954.99999999999966
 30
0.0
 11
6431.9999999999873
 21
-913.99999999999966
 31
0.0
1001
ACDBBLOCKREPETAG
1070
     1
1071
      191
1005
1280C3
  0
LINE
  5
1280C4
  8
OBJECT
 10
6567.9999999999873
 20
-954.99999999999966
 30
0.0
 11
6567.9999999999873
 21
-913.99999999999966
 31
0.0
1001
ACDBBLOCKREPETAG
1070
     1
1071
      192
1005
1280C4
  0
LINE
  5
1280C5
  8
OBJECT
 10
6515.0
 20
-873.20000000000005
 30
0.0
 11
6485.0
 21
-873.20000000000005
 31
0.0
1001
ACDBBLOCKREPETAG
1070
     1
1071
      193
1005
1280C5
  0
LINE
  5
1280C6
  8
OBJECT
 10
6567.4999999999991
 20
-889.99999999999955
 30
0.0
 11
6567.4999999999991
 21
-899.99999999999955
 31
0.0
1001
ACDBBLOCKREPETAG
1070
     1
1071
      194
1005
1280C6
  0
LINE
  5
1280C7
  8
OBJECT
 10
6579.5499814951818
 20
-889.99999999999955
 30
0.0
 11
6579.5499814951818
 21
-874.99999999999955
 31
0.0
1001
ACDBBLOCKREPETAG
1070
     1
1071
      195
1005
1280C7
  0
LINE
  5
1280C8
  8
OBJECT
 10
6579.5499814951818
 20
-899.99999999999955
 30
0.0
 11
6579.5499814951818
 21
-913.99999999999966
 31
0.0
1001
ACDBBLOCKREPETAG
1070
     1
1071
      196
1005
1280C8
  0
LINE
  5
1280C9
  8
OBJECT
 10
6420.4500185047982
 20
-889.99999999999955
 30
0.0
 11
6420.4500185047982
 21
-874.99999999999955
 31
0.0
1001
ACDBBLOCKREPETAG
1070
     1
1071
      197
1005
1280C9
  0
LINE
  5
1280CA
  8
OBJECT
 10
6420.4500185047982
 20
-899.99999999999955
 30
0.0
 11
6420.4500185047982
 21
-913.99999999999966
 31
0.0
1001
ACDBBLOCKREPETAG
1070
     1
1071
      198
1005
1280CA
  0
LINE
  5
1280CB
  8
OBJECT
 10
6424.45001850481
 20
-913.99999999999966
 30
0.0
 11
6424.45001850481
 21
-923.99999999999943
 31
0.0
1001
ACDBBLOCKREPETAG
1070
     1
1071
      199
1005
1280CB
  0
LINE
  5
1280CC
  8
OBJECT
 10
6431.9999999999873
 20
-923.99999999999943
 30
0.0
 11
6424.45001850481
 21
-923.99999999999943
 31
0.0
1001
ACDBBLOCKREPETAG
1070
     1
1071
      200
1005
1280CC
  0
LINE
  5
1280CD
  8
OBJECT
 10
6427.45001850481
 20
-899.99999999999955
 30
0.0
 11
6427.45001850481
 21
-889.99999999999955
 31
0.0
1001
ACDBBLOCKREPETAG
1070
     1
1071
      201
1005
1280CD
  0
LINE
  5
1280CE
  8
OBJECT
 10
6423.4500185048091
 20
-873.20000000000005
 30
0.0
 11
6423.4500185048091
 21
-874.99999999999955
 31
0.0
1001
ACDBBLOCKREPETAG
1070
     1
1071
      202
1005
1280CE
  0
LINE
  5
1280CF
  8
OBJECT
 10
6426.7000185048091
 20
-863.49999999999955
 30
0.0
 11
6434.0
 21
-863.49999999999955
 31
0.0
1001
ACDBBLOCKREPETAG
1070
     1
1071
      203
1005
1280CF
  0
LINE
  5
1280D0
  8
OBJECT
 10
6426.7000185048091
 20
-863.49999999999955
 30
0.0
 11
6426.7000185048091
 21
-873.20000000000005
 31
0.0
1001
ACDBBLOCKREPETAG
1070
     1
1071
      204
1005
1280D0
  0
LINE
  5
1280D1
  8
OBJECT
 10
6433.9999999999927
 20
-873.20000000000005
 30
0.0
 11
6423.4500185048091
 21
-873.20000000000005
 31
0.0
1001
ACDBBLOCKREPETAG
1070
     1
1071
      205
1005
1280D1
  0
LINE
  5
1280D2
  8
OBJECT
 10
6575.54998149519
 20
-913.99999999999966
 30
0.0
 11
6575.54998149519
 21
-923.99999999999943
 31
0.0
1001
ACDBBLOCKREPETAG
1070
     1
1071
      206
1005
1280D2
  0
LINE
  5
1280D3
  8
OBJECT
 10
6568.0
 20
-923.99999999999943
 30
0.0
 11
6575.54998149519
 21
-923.99999999999943
 31
0.0
1001
ACDBBLOCKREPETAG
1070
     1
1071
      207
1005
1280D3
  0
LINE
  5
1280D4
  8
OBJECT
 10
6572.5499814951918
 20
-899.99999999999955
 30
0.0
 11
6572.5499814951918
 21
-889.99999999999955
 31
0.0
1001
ACDBBLOCKREPETAG
1070
     1
1071
      208
1005
1280D4
  0
LINE
  5
1280D5
  8
OBJECT
 10
6576.54998149519
 20
-873.20000000000005
 30
0.0
 11
6576.54998149519
 21
-874.99999999999955
 31
0.0
1001
ACDBBLOCKREPETAG
1070
     1
1071
      209
1005
1280D5
  0
LINE
  5
1280D6
  8
OBJECT
 10
6573.2999814951909
 20
-863.49999999999955
 30
0.0
 11
6566.0
 21
-863.49999999999955
 31
0.0
1001
ACDBBLOCKREPETAG
1070
     1
1071
      210
1005
1280D6
  0
LINE
  5
1280D7
  8
OBJECT
 10
6573.2999814951909
 20
-863.49999999999955
 30
0.0
 11
6573.2999814951909
 21
-873.20000000000005
 31
0.0
1001
ACDBBLOCKREPETAG
1070
     1
1071
      211
1005
1280D7
  0
LINE
  5
1280D8
  8
OBJECT
 10
6566.0
 20
-873.20000000000005
 30
0.0
 11
6576.54998149519
 21
-873.20000000000005
 31
0.0
1001
ACDBBLOCKREPETAG
1070
     1
1071
      212
1005
1280D8
  0
LINE
  5
1280D9
  8
OBJECT
 10
6066.0
 20
-840.49999999999579
 30
0.0
 11
5934.0
 21
-840.49999999999579
 31
0.0
1001
ACDBBLOCKREPETAG
1070
     1
1071
      117
1005
1280D9
  0
LINE
  5
1280DA
  8
HIDDEN
 10
5943.0
 20
-849.99999999999955
 30
0.0
 11
6057.0
 21
-849.99999999999955
 31
0.0
1001
ACDBBLOCKREPETAG
1070
     1
1071
      118
1005
1280DA
  0
LINE
  5
1280DB
  8
CENTER
 10
6000.0
 20
-669.99999999999955
 30
0.0
 11
6000.0
 21
-969.99999999999966
 31
0.0
1001
ACDBBLOCKREPETAG
1070
     1
1071
      119
1005
1280DB
  0
LINE
  5
1280DC
  8
OBJECT
 10
5925.0
 20
-669.99999999999955
 30
0.0
 11
5925.0
 21
-722.99999999999591
 31
0.0
1001
ACDBBLOCKREPETAG
1070
     1
1071
      120
1005
1280DC
  0
LINE
  5
1280DD
  8
OBJECT
 10
6075.0
 20
-669.99999999999955
 30
0.0
 11
6075.0
 21
-722.99999999999204
 31
0.0
1001
ACDBBLOCKREPETAG
1070
     1
1071
      121
1005
1280DD
  0
LINE
  5
1280DE
  8
OBJECT
 10
5925.0
 20
-722.99999999999591
 30
0.0
 11
6075.0
 21
-722.99999999999204
 31
0.0
1001
ACDBBLOCKREPETAG
1070
     1
1071
      122
1005
1280DE
  0
LINE
  5
1280DF
  8
OBJECT
 10
6057.0
 20
-840.49999999999216
 30
0.0
 11
5943.0
 21
-840.49999999999216
 31
0.0
1001
ACDBBLOCKREPETAG
1070
     1
1071
      123
1005
1280DF
  0
LINE
  5
1280E0
  8
OBJECT
 10
5925.0
 20
-722.99999999999591
 30
0.0
 11
5943.0
 21
-840.49999999999216
 31
0.0
1001
ACDBBLOCKREPETAG
1070
     1
1071
      124
1005
1280E0
  0
LINE
  5
1280E1
  8
OBJECT
 10
6057.0
 20
-840.49999999999216
 30
0.0
 11
6075.0
 21
-722.99999999999204
 31
0.0
1001
ACDBBLOCKREPETAG
1070
     1
1071
      125
1005
1280E1
  0
LINE
  5
1280E2
  8
OBJECT
 10
5934.0
 20
-840.49999999999579
 30
0.0
 11
5934.0
 21
-874.99999999999591
 31
0.0
1001
ACDBBLOCKREPETAG
1070
     1
1071
      126
1005
1280E2
  0
LINE
  5
1280E3
  8
OBJECT
 10
6066.0
 20
-840.49999999999579
 30
0.0
 11
6066.0
 21
-874.99999999999591
 31
0.0
1001
ACDBBLOCKREPETAG
1070
     1
1071
      127
1005
1280E3
  0
LINE
  5
1280E4
  8
OBJECT
 10
6085.9999999999927
 20
-913.99999999999966
 30
0.0
 11
6085.9999999999927
 21
-923.99999999999943
 31
0.0
1001
ACDBBLOCKREPETAG
1070
     1
1071
      128
1005
1280E4
  0
LINE
  5
1280E5
  8
OBJECT
 10
6069.9999999999927
 20
-913.99999999999966
 30
0.0
 11
6069.9999999999927
 21
-923.99999999999943
 31
0.0
1001
ACDBBLOCKREPETAG
1070
     1
1071
      129
1005
1280E5
  0
LINE
  5
1280E6
  8
OBJECT
 10
6085.9999999999927
 20
-923.99999999999943
 30
0.0
 11
6069.9999999999927
 21
-923.99999999999943
 31
0.0
1001
ACDBBLOCKREPETAG
1070
     1
1071
      130
1005
1280E6
  0
LINE
  5
1280E7
  8
OBJECT
 10
6090.0
 20
-874.99999999999591
 30
0.0
 11
5924.0
 21
-874.99999999999591
 31
0.0
1001
ACDBBLOCKREPETAG
1070
     1
1071
      131
1005
1280E7
  0
LINE
  5
1280E8
  8
OBJECT
 10
6090.0
 20
-889.99999999999955
 30
0.0
 11
6090.0
 21
-874.99999999999591
 31
0.0
1001
ACDBBLOCKREPETAG
1070
     1
1071
      132
1005
1280E8
  0
LINE
  5
1280E9
  8
OBJECT
 10
5924.0
 20
-889.99999999999955
 30
0.0
 11
6090.0
 21
-889.99999999999955
 31
0.0
1001
ACDBBLOCKREPETAG
1070
     1
1071
      133
1005
1280E9
  0
LINE
  5
1280EA
  8
OBJECT
 10
6067.4999999999864
 20
-889.99999999999955
 30
0.0
 11
6067.4999999999864
 21
-899.99999999999955
 31
0.0
1001
ACDBBLOCKREPETAG
1070
     1
1071
      134
1005
1280EA
  0
LINE
  5
1280EB
  8
OBJECT
 10
6072.9999999999927
 20
-899.99999999999955
 30
0.0
 11
6072.9999999999927
 21
-889.99999999999955
 31
0.0
1001
ACDBBLOCKREPETAG
1070
     1
1071
      135
1005
1280EB
  0
LINE
  5
1280EC
  8
OBJECT
 10
6082.9999999999927
 20
-899.99999999999955
 30
0.0
 11
6082.9999999999927
 21
-889.99999999999955
 31
0.0
1001
ACDBBLOCKREPETAG
1070
     1
1071
      136
1005
1280EC
  0
LINE
  5
1280ED
  8
OBJECT
 10
5924.0
 20
-899.99999999999955
 30
0.0
 11
5924.0
 21
-913.99999999999591
 31
0.0
1001
ACDBBLOCKREPETAG
1070
     1
1071
      137
1005
1280ED
  0
LINE
  5
1280EE
  8
OBJECT
 10
6090.0
 20
-899.99999999999955
 30
0.0
 11
6090.0
 21
-913.99999999999591
 31
0.0
1001
ACDBBLOCKREPETAG
1070
     1
1071
      138
1005
1280EE
  0
LINE
  5
1280EF
  8
OBJECT
 10
5924.0
 20
-913.99999999999591
 30
0.0
 11
6090.0
 21
-913.99999999999591
 31
0.0
1001
ACDBBLOCKREPETAG
1070
     1
1071
      139
1005
1280EF
  0
LINE
  5
1280F0
  8
OBJECT
 10
5924.0
 20
-899.99999999999955
 30
0.0
 11
6090.0
 21
-899.99999999999955
 31
0.0
1001
ACDBBLOCKREPETAG
1070
     1
1071
      140
1005
1280F0
  0
LINE
  5
1280F1
  8
OBJECT
 10
5932.4999999999864
 20
-889.99999999999955
 30
0.0
 11
5932.4999999999864
 21
-899.99999999999955
 31
0.0
1001
ACDBBLOCKREPETAG
1070
     1
1071
      141
1005
1280F1
  0
LINE
  5
1280F2
  8
OBJECT
 10
5924.0
 20
-889.99999999999955
 30
0.0
 11
5924.0
 21
-874.99999999999591
 31
0.0
1001
ACDBBLOCKREPETAG
1070
     1
1071
      142
1005
1280F2
  0
LINE
  5
1280F3
  8
OBJECT
 10
6086.9999999999918
 20
-873.20000000000005
 30
0.0
 11
6086.9999999999918
 21
-874.99999999999955
 31
0.0
1001
ACDBBLOCKREPETAG
1070
     1
1071
      143
1005
1280F3
  0
LINE
  5
1280F4
  8
OBJECT
 10
6068.9999999999909
 20
-873.20000000000005
 30
0.0
 11
6068.9999999999909
 21
-874.99999999999955
 31
0.0
1001
ACDBBLOCKREPETAG
1070
     1
1071
      144
1005
1280F4
  0
LINE
  5
1280F5
  8
OBJECT
 10
6072.2499999999927
 20
-863.49999999999955
 30
0.0
 11
6083.7499999999927
 21
-863.49999999999955
 31
0.0
1001
ACDBBLOCKREPETAG
1070
     1
1071
      145
1005
1280F5
  0
LINE
  5
1280F6
  8
OBJECT
 10
6072.2499999999927
 20
-863.49999999999955
 30
0.0
 11
6072.2499999999927
 21
-873.20000000000005
 31
0.0
1001
ACDBBLOCKREPETAG
1070
     1
1071
      146
1005
1280F6
  0
LINE
  5
1280F7
  8
OBJECT
 10
6083.7499999999927
 20
-863.49999999999955
 30
0.0
 11
6083.7499999999927
 21
-873.20000000000005
 31
0.0
1001
ACDBBLOCKREPETAG
1070
     1
1071
      147
1005
1280F7
  0
LINE
  5
1280F8
  8
OBJECT
 10
5931.9999999999873
 20
-954.99999999999966
 30
0.0
 11
6067.9999999999873
 21
-954.99999999999966
 31
0.0
1001
ACDBBLOCKREPETAG
1070
     1
1071
      148
1005
1280F8
  0
LINE
  5
1280F9
  8
OBJECT
 10
5931.9999999999873
 20
-954.99999999999966
 30
0.0
 11
5931.9999999999873
 21
-913.99999999999966
 31
0.0
1001
ACDBBLOCKREPETAG
1070
     1
1071
      149
1005
1280F9
  0
LINE
  5
1280FA
  8
OBJECT
 10
6067.9999999999873
 20
-954.99999999999966
 30
0.0
 11
6067.9999999999873
 21
-913.99999999999966
 31
0.0
1001
ACDBBLOCKREPETAG
1070
     1
1071
      150
1005
1280FA
  0
LINE
  5
1280FB
  8
OBJECT
 10
6086.9999999999918
 20
-873.20000000000005
 30
0.0
 11
6068.9999999999909
 21
-873.20000000000005
 31
0.0
1001
ACDBBLOCKREPETAG
1070
     1
1071
      151
1005
1280FB
  0
LINE
  5
1280FC
  8
OBJECT
 10
5954.75
 20
-864.699999999993
 30
0.0
 11
5967.2499999999991
 21
-864.699999999993
 31
0.0
1001
ACDBBLOCKREPETAG
1070
     1
1071
      152
1005
1280FC
  0
LINE
  5
1280FD
  8
OBJECT
 10
5946.0
 20
-874.99999999999591
 30
0.0
 11
5946.0
 21
-872.69999999999663
 31
0.0
1001
ACDBBLOCKREPETAG
1070
     1
1071
      153
1005
1280FD
  0
LINE
  5
1280FE
  8
OBJECT
 10
5976.0
 20
-874.99999999999591
 30
0.0
 11
5976.0
 21
-872.69999999999663
 31
0.0
1001
ACDBBLOCKREPETAG
1070
     1
1071
      154
1005
1280FE
  0
LINE
  5
1280FF
  8
OBJECT
 10
5954.75
 20
-864.699999999993
 30
0.0
 11
5954.75
 21
-872.69999999999663
 31
0.0
1001
ACDBBLOCKREPETAG
1070
     1
1071
      155
1005
1280FF
  0
LINE
  5
128100
  8
OBJECT
 10
5967.2499999999991
 20
-864.699999999993
 30
0.0
 11
5967.2499999999991
 21
-872.69999999999663
 31
0.0
1001
ACDBBLOCKREPETAG
1070
     1
1071
      156
1005
128100
  0
LINE
  5
128101
  8
OBJECT
 10
5946.0
 20
-872.69999999999663
 30
0.0
 11
5976.0
 21
-872.69999999999663
 31
0.0
1001
ACDBBLOCKREPETAG
1070
     1
1071
      157
1005
128101
  0
LINE
  5
128102
  8
OBJECT
 10
5953.0
 20
-913.99999999999591
 30
0.0
 11
5953.0
 21
-923.99999999999613
 31
0.0
1001
ACDBBLOCKREPETAG
1070
     1
1071
      158
1005
128102
  0
LINE
  5
128103
  8
OBJECT
 10
5969.0
 20
-913.99999999999591
 30
0.0
 11
5969.0
 21
-923.99999999999613
 31
0.0
1001
ACDBBLOCKREPETAG
1070
     1
1071
      159
1005
128103
  0
LINE
  5
128104
  8
OBJECT
 10
5953.0
 20
-923.99999999999613
 30
0.0
 11
5969.0
 21
-923.99999999999613
 31
0.0
1001
ACDBBLOCKREPETAG
1070
     1
1071
      160
1005
128104
  0
LINE
  5
128105
  8
OBJECT
 10
5966.0
 20
-899.99999999999591
 30
0.0
 11
5966.0
 21
-889.99999999999591
 31
0.0
1001
ACDBBLOCKREPETAG
1070
     1
1071
      161
1005
128105
  0
LINE
  5
128106
  8
OBJECT
 10
5956.0
 20
-899.99999999999591
 30
0.0
 11
5956.0
 21
-889.99999999999591
 31
0.0
1001
ACDBBLOCKREPETAG
1070
     1
1071
      162
1005
128106
  0
LINE
  5
128107
  8
OBJECT
 10
4579.5499814951818
 20
-874.99999999999591
 30
0.0
 11
4420.4500185047982
 21
-874.99999999999591
 31
0.0
1001
ACDBBLOCKREPETAG
1070
     1
1071
       60
1005
128107
  0
LINE
  5
128108
  8
OBJECT
 10
4566.0
 20
-840.49999999999579
 30
0.0
 11
4434.0
 21
-840.49999999999579
 31
0.0
1001
ACDBBLOCKREPETAG
1070
     1
1071
       61
1005
128108
  0
LINE
  5
128109
  8
OBJECT
 10
4579.5499814951818
 20
-889.99999999999955
 30
0.0
 11
4579.5499814951818
 21
-874.99999999999591
 31
0.0
1001
ACDBBLOCKREPETAG
1070
     1
1071
       62
1005
128109
  0
LINE
  5
12810A
  8
OBJECT
 10
4420.4500185047982
 20
-889.99999999999955
 30
0.0
 11
4579.5499814951818
 21
-889.99999999999955
 31
0.0
1001
ACDBBLOCKREPETAG
1070
     1
1071
       63
1005
12810A
  0
LINE
  5
12810B
  8
OBJECT
 10
4567.4999999999864
 20
-889.99999999999955
 30
0.0
 11
4567.4999999999864
 21
-899.99999999999955
 31
0.0
1001
ACDBBLOCKREPETAG
1070
     1
1071
       64
1005
12810B
  0
LINE
  5
12810C
  8
OBJECT
 10
4579.5499814951818
 20
-899.99999999999955
 30
0.0
 11
4579.5499814951818
 21
-913.99999999999591
 31
0.0
1001
ACDBBLOCKREPETAG
1070
     1
1071
       65
1005
12810C
  0
LINE
  5
12810D
  8
OBJECT
 10
4420.4500185048046
 20
-913.99999999999591
 30
0.0
 11
4579.5499814951818
 21
-913.99999999999591
 31
0.0
1001
ACDBBLOCKREPETAG
1070
     1
1071
       66
1005
12810D
  0
LINE
  5
12810E
  8
OBJECT
 10
4420.4500185048046
 20
-899.99999999999955
 30
0.0
 11
4579.5499814951818
 21
-899.99999999999955
 31
0.0
1001
ACDBBLOCKREPETAG
1070
     1
1071
       67
1005
12810E
  0
LINE
  5
12810F
  8
HIDDEN
 10
4443.0
 20
-849.99999999999955
 30
0.0
 11
4557.0
 21
-849.99999999999955
 31
0.0
1001
ACDBBLOCKREPETAG
1070
     1
1071
       68
1005
12810F
  0
LINE
  5
128110
  8
CENTER
 10
4500.0
 20
-669.99999999999955
 30
0.0
 11
4500.0
 21
-939.99999999999613
 31
0.0
1001
ACDBBLOCKREPETAG
1070
     1
1071
       69
1005
128110
  0
LINE
  5
128111
  8
OBJECT
 10
4425.0
 20
-669.99999999999955
 30
0.0
 11
4425.0
 21
-722.99999999999591
 31
0.0
1001
ACDBBLOCKREPETAG
1070
     1
1071
       70
1005
128111
  0
LINE
  5
128112
  8
OBJECT
 10
4575.0
 20
-669.99999999999955
 30
0.0
 11
4575.0
 21
-722.99999999999204
 31
0.0
1001
ACDBBLOCKREPETAG
1070
     1
1071
       71
1005
128112
  0
LINE
  5
128113
  8
OBJECT
 10
4425.0
 20
-722.99999999999591
 30
0.0
 11
4575.0
 21
-722.99999999999204
 31
0.0
1001
ACDBBLOCKREPETAG
1070
     1
1071
       72
1005
128113
  0
LINE
  5
128114
  8
OBJECT
 10
4557.0
 20
-840.49999999999216
 30
0.0
 11
4443.0
 21
-840.49999999999216
 31
0.0
1001
ACDBBLOCKREPETAG
1070
     1
1071
       73
1005
128114
  0
LINE
  5
128115
  8
OBJECT
 10
4425.0
 20
-722.99999999999591
 30
0.0
 11
4443.0
 21
-840.49999999999216
 31
0.0
1001
ACDBBLOCKREPETAG
1070
     1
1071
       74
1005
128115
  0
LINE
  5
128116
  8
OBJECT
 10
4557.0
 20
-840.49999999999216
 30
0.0
 11
4575.0
 21
-722.99999999999204
 31
0.0
1001
ACDBBLOCKREPETAG
1070
     1
1071
       75
1005
128116
  0
LINE
  5
128117
  8
OBJECT
 10
4434.0
 20
-840.49999999999579
 30
0.0
 11
4434.0
 21
-874.99999999999591
 31
0.0
1001
ACDBBLOCKREPETAG
1070
     1
1071
       76
1005
128117
  0
LINE
  5
128118
  8
OBJECT
 10
4566.0
 20
-840.49999999999579
 30
0.0
 11
4566.0
 21
-874.99999999999591
 31
0.0
1001
ACDBBLOCKREPETAG
1070
     1
1071
       77
1005
128118
  0
LINE
  5
128119
  8
OBJECT
 10
4420.4500185047982
 20
-889.99999999999955
 30
0.0
 11
4420.4500185047982
 21
-874.99999999999591
 31
0.0
1001
ACDBBLOCKREPETAG
1070
     1
1071
       78
1005
128119
  0
LINE
  5
12811A
  8
OBJECT
 10
4432.5
 20
-889.99999999999955
 30
0.0
 11
4432.5
 21
-899.99999999999955
 31
0.0
1001
ACDBBLOCKREPETAG
1070
     1
1071
       79
1005
12811A
  0
LINE
  5
12811B
  8
OBJECT
 10
4420.4500185047982
 20
-899.99999999999955
 30
0.0
 11
4420.4500185047982
 21
-913.99999999999591
 31
0.0
1001
ACDBBLOCKREPETAG
1070
     1
1071
       80
1005
12811B
  0
LINE
  5
12811C
  8
OBJECT
 10
4507.5
 20
-869.99999999999579
 30
0.0
 11
4490.9999999999909
 21
-869.99999999999579
 31
0.0
1001
ACDBBLOCKREPETAG
1070
     1
1071
       81
1005
12811C
  0
LINE
  5
12811D
  8
OBJECT
 10
4515.0
 20
-874.99999999999591
 30
0.0
 11
4515.0
 21
-872.99999999999591
 31
0.0
1001
ACDBBLOCKREPETAG
1070
     1
1071
       82
1005
12811D
  0
LINE
  5
12811E
  8
OBJECT
 10
4505.0
 20
-899.99999999999591
 30
0.0
 11
4505.0
 21
-889.99999999999591
 31
0.0
1001
ACDBBLOCKREPETAG
1070
     1
1071
       83
1005
12811E
  0
LINE
  5
12811F
  8
OBJECT
 10
4495.0
 20
-899.99999999999591
 30
0.0
 11
4495.0
 21
-889.99999999999591
 31
0.0
1001
ACDBBLOCKREPETAG
1070
     1
1071
       84
1005
12811F
  0
LINE
  5
128120
  8
OBJECT
 10
4490.9999999999909
 20
-869.99999999999579
 30
0.0
 11
4490.9999999999909
 21
-874.99999999999591
 31
0.0
1001
ACDBBLOCKREPETAG
1070
     1
1071
       85
1005
128120
  0
LINE
  5
128121
  8
OBJECT
 10
4495.0
 20
-921.99999999999591
 30
0.0
 11
4495.0
 21
-924.99999999999602
 31
0.0
1001
ACDBBLOCKREPETAG
1070
     1
1071
       86
1005
128121
  0
LINE
  5
128122
  8
OBJECT
 10
4495.0
 20
-924.99999999999602
 30
0.0
 11
4505.0
 21
-924.99999999999602
 31
0.0
1001
ACDBBLOCKREPETAG
1070
     1
1071
       87
1005
128122
  0
LINE
  5
128123
  8
OBJECT
 10
4490.1850454237701
 20
-921.99999999999591
 30
0.0
 11
4509.8149545762208
 21
-921.99999999999591
 31
0.0
1001
ACDBBLOCKREPETAG
1070
     1
1071
       88
1005
128123
  0
LINE
  5
128124
  8
OBJECT
 10
4505.0
 20
-924.99999999999602
 30
0.0
 11
4505.0
 21
-921.99999999999591
 31
0.0
1001
ACDBBLOCKREPETAG
1070
     1
1071
       89
1005
128124
  0
LINE
  5
128125
  8
OBJECT
 10
4515.0
 20
-872.99999999999591
 30
0.0
 11
4507.5
 21
-869.99999999999579
 31
0.0
1001
ACDBBLOCKREPETAG
1070
     1
1071
       90
1005
128125
  0
LINE
  5
128126
  8
OBJECT
 10
4490.1850359912924
 20
-913.99998684025525
 30
0.0
 11
4490.1850359912924
 21
-921.99998684025525
 31
0.0
1001
ACDBBLOCKREPETAG
1070
     1
1071
       91
1005
128126
  0
LINE
  5
128127
  8
OBJECT
 10
4495.0925013591977
 20
-913.99998684025525
 30
0.0
 11
4495.0925013591977
 21
-921.99998684025525
 31
0.0
1001
ACDBBLOCKREPETAG
1070
     1
1071
       92
1005
128127
  0
LINE
  5
128128
  8
OBJECT
 10
4504.9074320950231
 20
-913.99998684025525
 30
0.0
 11
4504.9074320950231
 21
-921.99998684025525
 31
0.0
1001
ACDBBLOCKREPETAG
1070
     1
1071
       93
1005
128128
  0
LINE
  5
128129
  8
OBJECT
 10
4509.8149915527974
 20
-913.99998684025525
 30
0.0
 11
4509.8149915527974
 21
-921.99998684025525
 31
0.0
1001
ACDBBLOCKREPETAG
1070
     1
1071
       94
1005
128129
  0
LINE
  5
12812A
  8
OBJECT
 10
4427.4500185048091
 20
-899.99999999999591
 30
0.0
 11
4427.4500185048091
 21
-889.99999999999591
 31
0.0
1001
ACDBBLOCKREPETAG
1070
     1
1071
       95
1005
12812A
  0
LINE
  5
12812B
  8
OBJECT
 10
4423.4500185048018
 20
-869.99999999999579
 30
0.0
 11
4423.4500185048018
 21
-874.99999999999591
 31
0.0
1001
ACDBBLOCKREPETAG
1070
     1
1071
       96
1005
12812B
  0
LINE
  5
12812C
  8
OBJECT
 10
4434.0
 20
-869.99999999999579
 30
0.0
 11
4423.4500185048018
 21
-869.99999999999579
 31
0.0
1001
ACDBBLOCKREPETAG
1070
     1
1071
       97
1005
12812C
  0
LINE
  5
12812D
  8
OBJECT
 10
4427.4500185048091
 20
-921.99999999999591
 30
0.0
 11
4427.4500185048091
 21
-924.99999999999602
 31
0.0
1001
ACDBBLOCKREPETAG
1070
     1
1071
       98
1005
12812D
  0
LINE
  5
12812E
  8
OBJECT
 10
4427.4500185048091
 20
-924.99999999999602
 30
0.0
 11
4437.4500185048091
 21
-924.99999999999602
 31
0.0
1001
ACDBBLOCKREPETAG
1070
     1
1071
       99
1005
12812E
  0
LINE
  5
12812F
  8
OBJECT
 10
4422.6350639285811
 20
-921.99999999999591
 30
0.0
 11
4442.2649730810354
 21
-921.99999999999591
 31
0.0
1001
ACDBBLOCKREPETAG
1070
     1
1071
      100
1005
12812F
  0
LINE
  5
128130
  8
OBJECT
 10
4437.4500185048091
 20
-924.99999999999602
 30
0.0
 11
4437.4500185048091
 21
-921.99999999999591
 31
0.0
1001
ACDBBLOCKREPETAG
1070
     1
1071
      101
1005
128130
  0
LINE
  5
128131
  8
OBJECT
 10
4422.6350544961097
 20
-913.99998684025525
 30
0.0
 11
4422.6350544961097
 21
-921.99998684025525
 31
0.0
1001
ACDBBLOCKREPETAG
1070
     1
1071
      102
1005
128131
  0
LINE
  5
128132
  8
OBJECT
 10
4427.5425198640141
 20
-913.99998684025525
 30
0.0
 11
4427.5425198640141
 21
-921.99998684025525
 31
0.0
1001
ACDBBLOCKREPETAG
1070
     1
1071
      103
1005
128132
  0
LINE
  5
128133
  8
OBJECT
 10
4437.3574505998404
 20
-913.99998684025525
 30
0.0
 11
4437.3574505998404
 21
-921.99998684025525
 31
0.0
1001
ACDBBLOCKREPETAG
1070
     1
1071
      104
1005
128133
  0
LINE
  5
128134
  8
OBJECT
 10
4442.2650100576138
 20
-913.99998684025525
 30
0.0
 11
4442.2650100576138
 21
-921.99998684025525
 31
0.0
1001
ACDBBLOCKREPETAG
1070
     1
1071
      105
1005
128134
  0
LINE
  5
128135
  8
OBJECT
 10
4572.5499814951909
 20
-899.99999999999591
 30
0.0
 11
4572.5499814951909
 21
-889.99999999999591
 31
0.0
1001
ACDBBLOCKREPETAG
1070
     1
1071
      106
1005
128135
  0
LINE
  5
128136
  8
OBJECT
 10
4576.5499814951891
 20
-869.99999999999579
 30
0.0
 11
4576.5499814951891
 21
-874.99999999999591
 31
0.0
1001
ACDBBLOCKREPETAG
1070
     1
1071
      107
1005
128136
  0
LINE
  5
128137
  8
OBJECT
 10
4566.0
 20
-869.99999999999579
 30
0.0
 11
4576.5499814951891
 21
-869.99999999999579
 31
0.0
1001
ACDBBLOCKREPETAG
1070
     1
1071
      108
1005
128137
  0
LINE
  5
128138
  8
OBJECT
 10
4572.5499814951836
 20
-921.99999999999591
 30
0.0
 11
4572.5499814951836
 21
-924.99999999999602
 31
0.0
1001
ACDBBLOCKREPETAG
1070
     1
1071
      109
1005
128138
  0
LINE
  5
128139
  8
OBJECT
 10
4572.5499814951836
 20
-924.99999999999602
 30
0.0
 11
4562.5499814951827
 21
-924.99999999999602
 31
0.0
1001
ACDBBLOCKREPETAG
1070
     1
1071
      110
1005
128139
  0
LINE
  5
12813A
  8
OBJECT
 10
4577.3649360714053
 20
-921.99999999999591
 30
0.0
 11
4557.7350269189619
 21
-921.99999999999591
 31
0.0
1001
ACDBBLOCKREPETAG
1070
     1
1071
      111
1005
12813A
  0
LINE
  5
12813B
  8
OBJECT
 10
4562.5499814951827
 20
-924.99999999999602
 30
0.0
 11
4562.5499814951827
 21
-921.99999999999591
 31
0.0
1001
ACDBBLOCKREPETAG
1070
     1
1071
      112
1005
12813B
  0
LINE
  5
12813C
  8
OBJECT
 10
4577.3649455038831
 20
-913.99998684025525
 30
0.0
 11
4577.3649455038831
 21
-921.99998684025525
 31
0.0
1001
ACDBBLOCKREPETAG
1070
     1
1071
      113
1005
12813C
  0
LINE
  5
12813D
  8
OBJECT
 10
4572.457480135985
 20
-913.99998684025525
 30
0.0
 11
4572.457480135985
 21
-921.99998684025525
 31
0.0
1001
ACDBBLOCKREPETAG
1070
     1
1071
      114
1005
12813D
  0
LINE
  5
12813E
  8
OBJECT
 10
4562.6425494001587
 20
-913.99998684025525
 30
0.0
 11
4562.6425494001587
 21
-921.99998684025525
 31
0.0
1001
ACDBBLOCKREPETAG
1070
     1
1071
      115
1005
12813E
  0
LINE
  5
12813F
  8
OBJECT
 10
4557.7349899423862
 20
-913.99998684025525
 30
0.0
 11
4557.7349899423862
 21
-921.99998684025525
 31
0.0
1001
ACDBBLOCKREPETAG
1070
     1
1071
      116
1005
12813F
  0
LINE
  5
128140
  8
OBJECT
 10
4090.0
 20
-874.99999999999591
 30
0.0
 11
3924.0
 21
-874.99999999999591
 31
0.0
1001
ACDBBLOCKREPETAG
1070
     1
1071
       12
1005
128140
  0
LINE
  5
128141
  8
OBJECT
 10
4066.0
 20
-840.49999999999579
 30
0.0
 11
3934.0
 21
-840.49999999999579
 31
0.0
1001
ACDBBLOCKREPETAG
1070
     1
1071
       13
1005
128141
  0
LINE
  5
128142
  8
OBJECT
 10
4090.0
 20
-889.99999999999955
 30
0.0
 11
4090.0
 21
-874.99999999999591
 31
0.0
1001
ACDBBLOCKREPETAG
1070
     1
1071
       14
1005
128142
  0
LINE
  5
128143
  8
OBJECT
 10
3924.0
 20
-889.99999999999955
 30
0.0
 11
4090.0
 21
-889.99999999999955
 31
0.0
1001
ACDBBLOCKREPETAG
1070
     1
1071
       15
1005
128143
  0
LINE
  5
128144
  8
OBJECT
 10
4067.4999999999841
 20
-889.99999999999955
 30
0.0
 11
4067.4999999999841
 21
-899.99999999999955
 31
0.0
1001
ACDBBLOCKREPETAG
1070
     1
1071
       16
1005
128144
  0
LINE
  5
128145
  8
OBJECT
 10
3924.0
 20
-899.99999999999955
 30
0.0
 11
3924.0
 21
-913.99999999999591
 31
0.0
1001
ACDBBLOCKREPETAG
1070
     1
1071
       17
1005
128145
  0
LINE
  5
128146
  8
OBJECT
 10
4090.0
 20
-899.99999999999955
 30
0.0
 11
4090.0
 21
-913.99999999999591
 31
0.0
1001
ACDBBLOCKREPETAG
1070
     1
1071
       18
1005
128146
  0
LINE
  5
128147
  8
OBJECT
 10
3924.0
 20
-913.99999999999591
 30
0.0
 11
4090.0
 21
-913.99999999999591
 31
0.0
1001
ACDBBLOCKREPETAG
1070
     1
1071
       19
1005
128147
  0
LINE
  5
128148
  8
OBJECT
 10
3924.0
 20
-899.99999999999955
 30
0.0
 11
4090.0
 21
-899.99999999999955
 31
0.0
1001
ACDBBLOCKREPETAG
1070
     1
1071
       20
1005
128148
  0
LINE
  5
128149
  8
OBJECT
 10
3932.499999999985
 20
-889.99999999999955
 30
0.0
 11
3932.499999999985
 21
-899.99999999999955
 31
0.0
1001
ACDBBLOCKREPETAG
1070
     1
1071
       21
1005
128149
  0
LINE
  5
12814A
  8
OBJECT
 10
3924.0
 20
-889.99999999999955
 30
0.0
 11
3924.0
 21
-874.99999999999591
 31
0.0
1001
ACDBBLOCKREPETAG
1070
     1
1071
       22
1005
12814A
  0
LINE
  5
12814B
  8
HIDDEN
 10
3943.0
 20
-849.99999999999955
 30
0.0
 11
4057.0
 21
-849.99999999999955
 31
0.0
1001
ACDBBLOCKREPETAG
1070
     1
1071
       23
1005
12814B
  0
LINE
  5
12814C
  8
CENTER
 10
4000.0
 20
-669.99999999999955
 30
0.0
 11
4000.0
 21
-928.99999999999602
 31
0.0
1001
ACDBBLOCKREPETAG
1070
     1
1071
       24
1005
12814C
  0
LINE
  5
12814D
  8
OBJECT
 10
3925.0
 20
-669.99999999999955
 30
0.0
 11
3925.0
 21
-722.99999999999591
 31
0.0
1001
ACDBBLOCKREPETAG
1070
     1
1071
       25
1005
12814D
  0
LINE
  5
12814E
  8
OBJECT
 10
4075.0
 20
-669.99999999999955
 30
0.0
 11
4075.0
 21
-722.99999999999204
 31
0.0
1001
ACDBBLOCKREPETAG
1070
     1
1071
       26
1005
12814E
  0
LINE
  5
12814F
  8
OBJECT
 10
3925.0
 20
-722.99999999999591
 30
0.0
 11
4075.0
 21
-722.99999999999204
 31
0.0
1001
ACDBBLOCKREPETAG
1070
     1
1071
       27
1005
12814F
  0
LINE
  5
128150
  8
OBJECT
 10
4057.0
 20
-840.49999999999216
 30
0.0
 11
3943.0
 21
-840.49999999999216
 31
0.0
1001
ACDBBLOCKREPETAG
1070
     1
1071
       28
1005
128150
  0
LINE
  5
128151
  8
OBJECT
 10
3925.0
 20
-722.99999999999591
 30
0.0
 11
3943.0
 21
-840.49999999999216
 31
0.0
1001
ACDBBLOCKREPETAG
1070
     1
1071
       29
1005
128151
  0
LINE
  5
128152
  8
OBJECT
 10
4057.0
 20
-840.49999999999216
 30
0.0
 11
4075.0
 21
-722.99999999999204
 31
0.0
1001
ACDBBLOCKREPETAG
1070
     1
1071
       30
1005
128152
  0
LINE
  5
128153
  8
OBJECT
 10
3934.0
 20
-840.49999999999579
 30
0.0
 11
3934.0
 21
-874.99999999999591
 31
0.0
1001
ACDBBLOCKREPETAG
1070
     1
1071
       31
1005
128153
  0
LINE
  5
128154
  8
OBJECT
 10
4066.0
 20
-840.49999999999579
 30
0.0
 11
4066.0
 21
-874.99999999999591
 31
0.0
1001
ACDBBLOCKREPETAG
1070
     1
1071
       32
1005
128154
  0
LINE
  5
128155
  8
OBJECT
 10
4082.9999999999932
 20
-899.99999999999591
 30
0.0
 11
4082.9999999999932
 21
-889.99999999999591
 31
0.0
1001
ACDBBLOCKREPETAG
1070
     1
1071
       33
1005
128155
  0
LINE
  5
128156
  8
OBJECT
 10
4072.9999999999918
 20
-899.99999999999591
 30
0.0
 11
4072.9999999999918
 21
-889.99999999999591
 31
0.0
1001
ACDBBLOCKREPETAG
1070
     1
1071
       34
1005
128156
  0
LINE
  5
128157
  8
OBJECT
 10
4068.9999999999841
 20
-869.99999999999579
 30
0.0
 11
4068.9999999999841
 21
-874.99999999999591
 31
0.0
1001
ACDBBLOCKREPETAG
1070
     1
1071
       35
1005
128157
  0
LINE
  5
128158
  8
OBJECT
 10
4087.0
 20
-869.99999999999579
 30
0.0
 11
4087.0
 21
-874.99999999999591
 31
0.0
1001
ACDBBLOCKREPETAG
1070
     1
1071
       36
1005
128158
  0
LINE
  5
128159
  8
OBJECT
 10
4087.0
 20
-869.99999999999579
 30
0.0
 11
4068.9999999999841
 21
-869.99999999999579
 31
0.0
1001
ACDBBLOCKREPETAG
1070
     1
1071
       37
1005
128159
  0
LINE
  5
12815A
  8
OBJECT
 10
4073.0
 20
-921.99999999999591
 30
0.0
 11
4073.0
 21
-924.99999999999602
 31
0.0
1001
ACDBBLOCKREPETAG
1070
     1
1071
       38
1005
12815A
  0
LINE
  5
12815B
  8
OBJECT
 10
4073.0
 20
-924.99999999999602
 30
0.0
 11
4083.0
 21
-924.99999999999602
 31
0.0
1001
ACDBBLOCKREPETAG
1070
     1
1071
       39
1005
12815B
  0
LINE
  5
12815C
  8
OBJECT
 10
4068.185045423772
 20
-921.99999999999591
 30
0.0
 11
4087.8149545762199
 21
-921.99999999999591
 31
0.0
1001
ACDBBLOCKREPETAG
1070
     1
1071
       40
1005
12815C
  0
LINE
  5
12815D
  8
OBJECT
 10
4083.0
 20
-924.99999999999602
 30
0.0
 11
4083.0
 21
-921.99999999999591
 31
0.0
1001
ACDBBLOCKREPETAG
1070
     1
1071
       41
1005
12815D
  0
LINE
  5
12815E
  8
OBJECT
 10
4068.1850359912942
 20
-913.99998684025525
 30
0.0
 11
4068.1850359912942
 21
-921.99998684025525
 31
0.0
1001
ACDBBLOCKREPETAG
1070
     1
1071
       42
1005
12815E
  0
LINE
  5
12815F
  8
OBJECT
 10
4073.0925013591982
 20
-913.99998684025525
 30
0.0
 11
4073.0925013591982
 21
-921.99998684025525
 31
0.0
1001
ACDBBLOCKREPETAG
1070
     1
1071
       43
1005
12815F
  0
LINE
  5
128160
  8
OBJECT
 10
4082.907432095024
 20
-913.99998684025525
 30
0.0
 11
4082.907432095024
 21
-921.99998684025525
 31
0.0
1001
ACDBBLOCKREPETAG
1070
     1
1071
       44
1005
128160
  0
LINE
  5
128161
  8
OBJECT
 10
4087.814991552797
 20
-913.99998684025525
 30
0.0
 11
4087.814991552797
 21
-921.99998684025525
 31
0.0
1001
ACDBBLOCKREPETAG
1070
     1
1071
       45
1005
128161
  0
LINE
  5
128162
  8
OBJECT
 10
3968.5
 20
-869.99999999999579
 30
0.0
 11
3951.9999999999932
 21
-869.99999999999579
 31
0.0
1001
ACDBBLOCKREPETAG
1070
     1
1071
       46
1005
128162
  0
LINE
  5
128163
  8
OBJECT
 10
3976.0
 20
-874.99999999999591
 30
0.0
 11
3976.0
 21
-872.99999999999591
 31
0.0
1001
ACDBBLOCKREPETAG
1070
     1
1071
       47
1005
128163
  0
LINE
  5
128164
  8
OBJECT
 10
3966.0
 20
-899.99999999999591
 30
0.0
 11
3966.0
 21
-889.99999999999591
 31
0.0
1001
ACDBBLOCKREPETAG
1070
     1
1071
       48
1005
128164
  0
LINE
  5
128165
  8
OBJECT
 10
3956.0
 20
-899.99999999999591
 30
0.0
 11
3956.0
 21
-889.99999999999591
 31
0.0
1001
ACDBBLOCKREPETAG
1070
     1
1071
       49
1005
128165
  0
LINE
  5
128166
  8
OBJECT
 10
3951.9999999999932
 20
-869.99999999999579
 30
0.0
 11
3951.9999999999932
 21
-874.99999999999591
 31
0.0
1001
ACDBBLOCKREPETAG
1070
     1
1071
       50
1005
128166
  0
LINE
  5
128167
  8
OBJECT
 10
3956.0
 20
-921.99999999999591
 30
0.0
 11
3956.0
 21
-924.99999999999602
 31
0.0
1001
ACDBBLOCKREPETAG
1070
     1
1071
       51
1005
128167
  0
LINE
  5
128168
  8
OBJECT
 10
3956.0
 20
-924.99999999999602
 30
0.0
 11
3966.0
 21
-924.99999999999602
 31
0.0
1001
ACDBBLOCKREPETAG
1070
     1
1071
       52
1005
128168
  0
LINE
  5
128169
  8
OBJECT
 10
3951.185045423772
 20
-921.99999999999591
 30
0.0
 11
3970.8149545762212
 21
-921.99999999999591
 31
0.0
1001
ACDBBLOCKREPETAG
1070
     1
1071
       53
1005
128169
  0
LINE
  5
12816A
  8
OBJECT
 10
3966.0
 20
-924.99999999999602
 30
0.0
 11
3966.0
 21
-921.99999999999591
 31
0.0
1001
ACDBBLOCKREPETAG
1070
     1
1071
       54
1005
12816A
  0
LINE
  5
12816B
  8
OBJECT
 10
3976.0
 20
-872.99999999999591
 30
0.0
 11
3968.5
 21
-869.99999999999579
 31
0.0
1001
ACDBBLOCKREPETAG
1070
     1
1071
       55
1005
12816B
  0
LINE
  5
12816C
  8
OBJECT
 10
3951.1850359912951
 20
-913.99998684025525
 30
0.0
 11
3951.1850359912951
 21
-921.99998684025525
 31
0.0
1001
ACDBBLOCKREPETAG
1070
     1
1071
       56
1005
12816C
  0
LINE
  5
12816D
  8
OBJECT
 10
3956.0925013591991
 20
-913.99998684025525
 30
0.0
 11
3956.0925013591991
 21
-921.99998684025525
 31
0.0
1001
ACDBBLOCKREPETAG
1070
     1
1071
       57
1005
12816D
  0
LINE
  5
12816E
  8
OBJECT
 10
3965.907432095024
 20
-913.99998684025525
 30
0.0
 11
3965.907432095024
 21
-921.99998684025525
 31
0.0
1001
ACDBBLOCKREPETAG
1070
     1
1071
       58
1005
12816E
  0
LINE
  5
12816F
  8
OBJECT
 10
3970.8149915527979
 20
-913.99998684025525
 30
0.0
 11
3970.8149915527979
 21
-921.99998684025525
 31
0.0
1001
ACDBBLOCKREPETAG
1070
     1
1071
       59
1005
12816F
  0
LINE
  5
128170
  8
OBJECT
 10
2443.0
 20
-919.99999999999557
 30
0.0
 11
2557.0
 21
-919.99999999999557
 31
0.0
1001
ACDBBLOCKREPETAG
1070
     1
1071
        0
1005
128170
  0
LINE
  5
128171
  8
OBJECT
 10
2443.0
 20
-919.99999999999557
 30
0.0
 11
2443.0
 21
-839.99999999999591
 31
0.0
1001
ACDBBLOCKREPETAG
1070
     1
1071
        1
1005
128171
  0
LINE
  5
128172
  8
OBJECT
 10
2557.0
 20
-919.99999999999557
 30
0.0
 11
2557.0
 21
-839.99999999999591
 31
0.0
1001
ACDBBLOCKREPETAG
1070
     1
1071
        2
1005
128172
  0
LINE
  5
128173
  8
OBJECT
 10
2443.0
 20
-839.99999999999591
 30
0.0
 11
2557.0
 21
-839.99999999999591
 31
0.0
1001
ACDBBLOCKREPETAG
1070
     1
1071
        3
1005
128173
  0
LINE
  5
128174
  8
HIDDEN
 10
2450.0
 20
-839.99999999999591
 30
0.0
 11
2450.0
 21
-919.99999999999557
 31
0.0
1001
ACDBBLOCKREPETAG
1070
     1
1071
        4
1005
128174
  0
LINE
  5
128175
  8
HIDDEN
 10
2550.0
 20
-839.99999999999591
 30
0.0
 11
2550.0
 21
-919.99999999999557
 31
0.0
1001
ACDBBLOCKREPETAG
1070
     1
1071
        5
1005
128175
  0
LINE
  5
128176
  8
CENTER
 10
2500.0
 20
-669.99999999999955
 30
0.0
 11
2500.0
 21
-934.99999999999545
 31
0.0
1001
ACDBBLOCKREPETAG
1070
     1
1071
        6
1005
128176
  0
LINE
  5
128177
  8
OBJECT
 10
2425.0
 20
-669.99999999999955
 30
0.0
 11
2425.0
 21
-722.99999999999591
 31
0.0
1001
ACDBBLOCKREPETAG
1070
     1
1071
        7
1005
128177
  0
LINE
  5
128178
  8
OBJECT
 10
2575.0
 20
-669.99999999999955
 30
0.0
 11
2575.0
 21
-722.99999999999591
 31
0.0
1001
ACDBBLOCKREPETAG
1070
     1
1071
        8
1005
128178
  0
LINE
  5
128179
  8
OBJECT
 10
2425.0
 20
-722.99999999999591
 30
0.0
 11
2575.0
 21
-722.99999999999591
 31
0.0
1001
ACDBBLOCKREPETAG
1070
     1
1071
        9
1005
128179
  0
LINE
  5
12817A
  8
OBJECT
 10
2425.0
 20
-722.99999999999591
 30
0.0
 11
2443.0
 21
-839.99999999999591
 31
0.0
1001
ACDBBLOCKREPETAG
1070
     1
1071
       10
1005
12817A
  0
LINE
  5
12817B
  8
OBJECT
 10
2557.0
 20
-839.99999999999591
 30
0.0
 11
2575.0
 21
-722.99999999999591
 31
0.0
1001
ACDBBLOCKREPETAG
1070
     1
1071
       11
1005
12817B
  0
LINE
  5
12817C
  8
OBJECT
 10
1943.0
 20
-919.99999999999557
 30
0.0
 11
2057.0
 21
-919.99999999999557
 31
0.0
1001
ACDBBLOCKREPETAG
1070
     1
1071
        0
1005
12817C
  0
LINE
  5
12817D
  8
OBJECT
 10
1943.0
 20
-919.99999999999557
 30
0.0
 11
1943.0
 21
-839.99999999999591
 31
0.0
1001
ACDBBLOCKREPETAG
1070
     1
1071
        1
1005
12817D
  0
LINE
  5
12817E
  8
OBJECT
 10
2057.0
 20
-919.99999999999557
 30
0.0
 11
2057.0
 21
-839.99999999999591
 31
0.0
1001
ACDBBLOCKREPETAG
1070
     1
1071
        2
1005
12817E
  0
LINE
  5
12817F
  8
OBJECT
 10
1943.0
 20
-839.99999999999591
 30
0.0
 11
2057.0
 21
-839.99999999999591
 31
0.0
1001
ACDBBLOCKREPETAG
1070
     1
1071
        3
1005
12817F
  0
LINE
  5
128180
  8
HIDDEN
 10
1950.0
 20
-839.99999999999591
 30
0.0
 11
1950.0
 21
-919.99999999999557
 31
0.0
1001
ACDBBLOCKREPETAG
1070
     1
1071
        4
1005
128180
  0
LINE
  5
128181
  8
HIDDEN
 10
2050.0
 20
-839.99999999999591
 30
0.0
 11
2050.0
 21
-919.99999999999557
 31
0.0
1001
ACDBBLOCKREPETAG
1070
     1
1071
        5
1005
128181
  0
LINE
  5
128182
  8
CENTER
 10
2000.0
 20
-669.99999999999955
 30
0.0
 11
2000.0
 21
-934.99999999999545
 31
0.0
1001
ACDBBLOCKREPETAG
1070
     1
1071
        6
1005
128182
  0
LINE
  5
128183
  8
OBJECT
 10
1925.0
 20
-669.99999999999955
 30
0.0
 11
1925.0
 21
-722.99999999999591
 31
0.0
1001
ACDBBLOCKREPETAG
1070
     1
1071
        7
1005
128183
  0
LINE
  5
128184
  8
OBJECT
 10
2075.0
 20
-669.99999999999955
 30
0.0
 11
2075.0
 21
-722.99999999999591
 31
0.0
1001
ACDBBLOCKREPETAG
1070
     1
1071
        8
1005
128184
  0
LINE
  5
128185
  8
OBJECT
 10
1925.0
 20
-722.99999999999591
 30
0.0
 11
2075.0
 21
-722.99999999999591
 31
0.0
1001
ACDBBLOCKREPETAG
1070
     1
1071
        9
1005
128185
  0
LINE
  5
128186
  8
OBJECT
 10
1925.0
 20
-722.99999999999591
 30
0.0
 11
1943.0
 21
-839.99999999999591
 31
0.0
1001
ACDBBLOCKREPETAG
1070
     1
1071
       10
1005
128186
  0
LINE
  5
128187
  8
OBJECT
 10
2057.0
 20
-839.99999999999591
 30
0.0
 11
2075.0
 21
-722.99999999999591
 31
0.0
1001
ACDBBLOCKREPETAG
1070
     1
1071
       11
1005
128187
  0
TEXT
  5
128188
  8
SLIM
 10
5797.6000000000004
 20
-1528.9999999999991
 30
0.0
 40
28.0
  1
※ 対応スラブ厚　150～180mm
 41
0.75
  0
TEXT
  5
128189
  8
SLIM
 10
5611.5
 20
-1622.3333333333319
 30
0.0
 40
28.0
  1
国土交通大臣認定・（財）日本消防設備安全センター性能評定取得品
 41
0.75
  0
TEXT
  5
12818A
  8
SLIM
 10
5631.1000000000004
 20
-1668.9999999999991
 30
0.0
 40
28.0
  1
注）ご採用にあたり、認定書及び評定書の内容をご確認ください。
 41
0.75
  0
TEXT
  5
12818B
  8
SLIM
 10
3811.8000000000002
 20
-1507.9999999999959
 30
0.0
 40
28.0
  1
※ 対応スラブ厚　180mm以下
 41
0.75
  0
TEXT
  5
12818C
  8
SLIM
 10
1811.8
 20
-1263.999999999998
 30
0.0
 40
28.0
  1
※ 対応スラブ厚　180mm以下
 41
0.75
  0
LINE
  5
12818D
  8
CENTER
 10
5909.0
 20
-1204.9999999999991
 30
0.0
 11
6105.0
 21
-1204.9999999999991
 31
0.0
1001
ACDBBLOCKREPETAG
1070
     1
1071
       10
1005
12818D
  0
LINE
  5
12818E
  8
CENTER
 10
6000.0
 20
-1113.7253355707819
 30
0.0
 11
6000.0
 21
-1296.274664429216
 31
0.0
1001
ACDBBLOCKREPETAG
1070
     1
1071
       11
1005
12818E
  0
CIRCLE
  5
12818F
  8
OBJECT
 10
6000.0
 20
-1204.9999999999991
 30
0.0
 40
50.0
1001
ACDBBLOCKREPETAG
1070
     1
1071
       12
1005
12818F
  0
CIRCLE
  5
128190
  8
OBJECT
 10
6000.0
 20
-1204.9999999999991
 30
0.0
 40
60.0
1001
ACDBBLOCKREPETAG
1070
     1
1071
       13
1005
128190
  0
CIRCLE
  5
128191
  8
OBJECT
 10
6000.0
 20
-1204.9999999999991
 30
0.0
 40
68.0
1001
ACDBBLOCKREPETAG
1070
     1
1071
       14
1005
128191
  0
ARC
  5
128192
  8
OBJECT
 10
6077.5
 20
-1204.9999999999991
 30
0.0
 40
12.0
 50
272.10542627221611
 51
87.894573727783893
1001
ACDBBLOCKREPETAG
1070
     1
1071
       15
1005
128192
  0
ARC
  5
128193
  8
OBJECT
 10
6078.4919354838639
 20
-1178.0182271895269
 30
0.0
 40
15.0
 50
198.9705187796356
 51
267.89457372778372
1001
ACDBBLOCKREPETAG
1070
     1
1071
       16
1005
128193
  0
ARC
  5
128194
  8
OBJECT
 10
6078.4919354838639
 20
-1231.981772810467
 30
0.0
 40
15.0
 50
92.105426272216135
 51
161.02948122036429
1001
ACDBBLOCKREPETAG
1070
     1
1071
       17
1005
128194
  0
CIRCLE
  5
128195
  8
SLIM
 10
6078.0
 20
-1204.9999999999991
 30
0.0
 40
8.0
1001
ACDBBLOCKREPETAG
1070
     1
1071
       18
1005
128195
  0
POLYLINE
  5
128196
  8
SLIM
 66
     1
 10
0.0
 20
0.0
 30
0.0
 70
     1
1001
ACDBBLOCKREPETAG
1070
     1
1071
       19
1005
128196
  0
VERTEX
  5
128BC4
  8
SLIM
 10
6075.6905989232328
 20
-1200.9999999999991
 30
0.0
  0
VERTEX
  5
128BC5
  8
SLIM
 10
6073.3811978464801
 20
-1204.9999999999991
 30
0.0
  0
VERTEX
  5
128BC6
  8
SLIM
 10
6075.6905989232328
 20
-1208.9999999999991
 30
0.0
  0
VERTEX
  5
128BC7
  8
SLIM
 10
6080.3094010767527
 20
-1208.9999999999991
 30
0.0
  0
VERTEX
  5
128BC8
  8
SLIM
 10
6082.6188021535136
 20
-1204.9999999999991
 30
0.0
  0
VERTEX
  5
128BC9
  8
SLIM
 10
6080.3094010767527
 20
-1200.9999999999991
 30
0.0
  0
SEQEND
  5
128BCA
  8
SLIM
  0
ARC
  5
128197
  8
OBJECT
 10
5961.25
 20
-1137.883031206703
 30
0.0
 40
12.0
 50
32.105426272157878
 51
207.89457372770741
1001
ACDBBLOCKREPETAG
1070
     1
1071
       20
1005
128197
  0
ARC
  5
128198
  8
OBJECT
 10
5937.387131565054
 20
-1150.514876283992
 30
0.0
 40
15.0
 50
318.97051877944762
 51
27.894573727707481
1001
ACDBBLOCKREPETAG
1070
     1
1071
       21
1005
128198
  0
ARC
  5
128199
  8
OBJECT
 10
5984.1209329510702
 20
-1123.53310347352
 30
0.0
 40
15.0
 50
212.1054262721579
 51
281.02948122044069
1001
ACDBBLOCKREPETAG
1070
     1
1071
       22
1005
128199
  0
CIRCLE
  5
12819A
  8
SLIM
 10
5961.0
 20
-1137.4500185048121
 30
0.0
 40
7.9999999999999982
1001
ACDBBLOCKREPETAG
1070
     1
1071
       23
1005
12819A
  0
POLYLINE
  5
12819B
  8
SLIM
 66
     1
 10
0.0
 20
0.0
 30
0.0
 70
     1
1001
ACDBBLOCKREPETAG
1070
     1
1071
       24
1005
12819B
  0
VERTEX
  5
128BCB
  8
SLIM
 10
5958.69059892324
 20
-1141.4500185048121
 30
0.0
  0
VERTEX
  5
128BCC
  8
SLIM
 10
5963.3094010767518
 20
-1141.4500185048121
 30
0.0
  0
VERTEX
  5
128BCD
  8
SLIM
 10
5965.6188021535136
 20
-1137.4500185048121
 30
0.0
  0
VERTEX
  5
128BCE
  8
SLIM
 10
5963.3094010767518
 20
-1133.4500185048121
 30
0.0
  0
VERTEX
  5
128BCF
  8
SLIM
 10
5958.69059892324
 20
-1133.4500185048121
 30
0.0
  0
VERTEX
  5
128BD0
  8
SLIM
 10
5956.3811978464792
 20
-1137.4500185048121
 30
0.0
  0
SEQEND
  5
128BD1
  8
SLIM
  0
ARC
  5
12819C
  8
OBJECT
 10
5961.25
 20
-1272.1169687932911
 30
0.0
 40
12.0
 50
152.1054262722925
 51
327.89457372784221
1001
ACDBBLOCKREPETAG
1070
     1
1071
       25
1005
12819C
  0
ARC
  5
12819D
  8
OBJECT
 10
5984.1209329510702
 20
-1286.4668965264741
 30
0.0
 40
15.0
 50
78.970518779559228
 51
147.8945737278421
1001
ACDBBLOCKREPETAG
1070
     1
1071
       26
1005
12819D
  0
ARC
  5
12819E
  8
OBJECT
 10
5937.387131565054
 20
-1259.485123716006
 30
0.0
 40
15.0
 50
332.1054262722925
 51
41.029481220552412
1001
ACDBBLOCKREPETAG
1070
     1
1071
       27
1005
12819E
  0
CIRCLE
  5
12819F
  8
SLIM
 10
5961.0
 20
-1272.5499814951861
 30
0.0
 40
8.0
1001
ACDBBLOCKREPETAG
1070
     1
1071
       28
1005
12819F
  0
POLYLINE
  5
1281A0
  8
SLIM
 66
     1
 10
0.0
 20
0.0
 30
0.0
 70
     1
1001
ACDBBLOCKREPETAG
1070
     1
1071
       29
1005
1281A0
  0
VERTEX
  5
128BD2
  8
SLIM
 10
5965.6188021535136
 20
-1272.5499814951829
 30
0.0
  0
VERTEX
  5
128BD3
  8
SLIM
 10
5963.3094010767518
 20
-1268.5499814951861
 30
0.0
  0
VERTEX
  5
128BD4
  8
SLIM
 10
5958.69059892324
 20
-1268.5499814951829
 30
0.0
  0
VERTEX
  5
128BD5
  8
SLIM
 10
5956.3811978464792
 20
-1272.5499814951861
 30
0.0
  0
VERTEX
  5
128BD6
  8
SLIM
 10
5958.6905989232328
 20
-1276.5499814951829
 30
0.0
  0
VERTEX
  5
128BD7
  8
SLIM
 10
5963.3094010767518
 20
-1276.5499814951861
 30
0.0
  0
SEQEND
  5
128BD8
  8
SLIM
  0
ARC
  5
1281A1
  8
OBJECT
 10
6000.0
 20
-1204.9999999999991
 30
0.0
 40
76.0
 50
34.863837954142063
 51
85.136162045732945
1001
ACDBBLOCKREPETAG
1070
     1
1071
       42
1005
1281A1
  0
ARC
  5
1281A2
  8
OBJECT
 10
6000.0
 20
-1204.9999999999991
 30
0.0
 40
76.0
 50
154.86383795430939
 51
205.1361620456905
1001
ACDBBLOCKREPETAG
1070
     1
1071
       43
1005
1281A2
  0
ARC
  5
1281A3
  8
OBJECT
 10
6000.0
 20
-1204.9999999999991
 30
0.0
 40
76.0
 50
274.86383795426718
 51
325.13616204585799
1001
ACDBBLOCKREPETAG
1070
     1
1071
       44
1005
1281A3
  0
ARC
  5
1281A4
  8
OBJECT
 10
6078.0
 20
-1204.9999999999991
 30
0.0
 40
12.0
 50
325.13616204585799
 51
34.863837954142063
1001
ACDBBLOCKREPETAG
1070
     1
1071
       45
1005
1281A4
  0
LINE
  5
1281A5
  8
OBJECT
 10
6087.846153846167
 20
-1198.1404625201369
 30
0.0
 11
6062.3589743590501
 21
-1161.5562626275371
 31
0.0
1001
ACDBBLOCKREPETAG
1070
     1
1071
       46
1005
1281A5
  0
LINE
  5
1281A6
  8
OBJECT
 10
6087.8461538461697
 20
-1211.859537479859
 30
0.0
 11
6062.3589743590501
 21
-1248.443737372462
 31
0.0
1001
ACDBBLOCKREPETAG
1070
     1
1071
       47
1005
1281A6
  0
ARC
  5
1281A7
  8
OBJECT
 10
5961.0
 20
-1137.450018504813
 30
0.0
 40
12.0
 50
85.136162045942811
 51
154.86383795410001
1001
ACDBBLOCKREPETAG
1070
     1
1071
       48
1005
1281A7
  0
LINE
  5
1281A8
  8
OBJECT
 10
5950.1363893611451
 20
-1132.3527678843941
 30
0.0
 11
5931.1971326205849
 21
-1172.7174127373501
 31
0.0
1001
ACDBBLOCKREPETAG
1070
     1
1071
       49
1005
1281A8
  0
LINE
  5
1281A9
  8
OBJECT
 10
5962.0174567926842
 20
-1125.493230404529
 30
0.0
 11
6006.4438930203669
 21
-1129.273675364888
 31
0.0
1001
ACDBBLOCKREPETAG
1070
     1
1071
       50
1005
1281A9
  0
ARC
  5
1281AA
  8
OBJECT
 10
5961.0
 20
-1272.5499814951841
 30
0.0
 40
12.0
 50
205.13616204589991
 51
274.8638379540572
1001
ACDBBLOCKREPETAG
1070
     1
1071
       51
1005
1281AA
  0
LINE
  5
1281AB
  8
OBJECT
 10
5962.0174567926879
 20
-1284.5067695954669
 30
0.0
 11
6006.4438930203651
 21
-1280.726324635109
 31
0.0
1001
ACDBBLOCKREPETAG
1070
     1
1071
       52
1005
1281AB
  0
LINE
  5
1281AC
  8
OBJECT
 10
5950.1363893611451
 20
-1277.6472321156079
 30
0.0
 11
5931.1971326205821
 21
-1237.2825872626461
 31
0.0
1001
ACDBBLOCKREPETAG
1070
     1
1071
       53
1005
1281AC
  0
LINE
  5
1281AD
  8
CENTER
 10
3909.0
 20
-1163.9999999999959
 30
0.0
 11
4105.0
 21
-1163.9999999999959
 31
0.0
1001
ACDBBLOCKREPETAG
1070
     1
1071
        0
1005
1281AD
  0
LINE
  5
1281AE
  8
CENTER
 10
4000.0
 20
-1072.725335570779
 30
0.0
 11
4000.0
 21
-1255.274664429212
 31
0.0
1001
ACDBBLOCKREPETAG
1070
     1
1071
        1
1005
1281AE
  0
CIRCLE
  5
1281AF
  8
OBJECT
 10
4000.0
 20
-1163.9999999999959
 30
0.0
 40
50.0
1001
ACDBBLOCKREPETAG
1070
     1
1071
        2
1005
1281AF
  0
CIRCLE
  5
1281B0
  8
OBJECT
 10
4000.0
 20
-1163.9999999999959
 30
0.0
 40
62.0
1001
ACDBBLOCKREPETAG
1070
     1
1071
        3
1005
1281B0
  0
CIRCLE
  5
1281B1
  8
SLIM
 10
4078.0
 20
-1163.9999999999959
 30
0.0
 40
5.0
1001
ACDBBLOCKREPETAG
1070
     1
1071
        4
1005
1281B1
  0
POLYLINE
  5
1281B2
  8
SLIM
 66
     1
 10
0.0
 20
0.0
 30
0.0
 70
     1
1001
ACDBBLOCKREPETAG
1070
     1
1071
        5
1005
1281B2
  0
VERTEX
  5
128BD9
  8
SLIM
 10
4073.092522711886
 20
-1155.4999999999959
 30
0.0
  0
VERTEX
  5
128BDA
  8
SLIM
 10
4068.185045423772
 20
-1163.9999999999959
 30
0.0
  0
VERTEX
  5
128BDB
  8
SLIM
 10
4073.092522711886
 20
-1172.4999999999959
 30
0.0
  0
VERTEX
  5
128BDC
  8
SLIM
 10
4082.9074772881072
 20
-1172.4999999999959
 30
0.0
  0
VERTEX
  5
128BDD
  8
SLIM
 10
4087.8149545762199
 20
-1163.9999999999959
 30
0.0
  0
VERTEX
  5
128BDE
  8
SLIM
 10
4082.9074772881072
 20
-1155.4999999999959
 30
0.0
  0
SEQEND
  5
128BDF
  8
SLIM
  0
CIRCLE
  5
1281B3
  8
SLIM
 10
3961.0
 20
-1096.450018504808
 30
0.0
 40
4.9999999999999991
1001
ACDBBLOCKREPETAG
1070
     1
1071
        6
1005
1281B3
  0
POLYLINE
  5
1281B4
  8
SLIM
 66
     1
 10
0.0
 20
0.0
 30
0.0
 70
     1
1001
ACDBBLOCKREPETAG
1070
     1
1071
        7
1005
1281B4
  0
VERTEX
  5
128BE0
  8
SLIM
 10
3956.092522711886
 20
-1104.950018504808
 30
0.0
  0
VERTEX
  5
128BE1
  8
SLIM
 10
3965.907477288114
 20
-1104.950018504808
 30
0.0
  0
VERTEX
  5
128BE2
  8
SLIM
 10
3970.8149545762212
 20
-1096.450018504808
 30
0.0
  0
VERTEX
  5
128BE3
  8
SLIM
 10
3965.907477288114
 20
-1087.950018504808
 30
0.0
  0
VERTEX
  5
128BE4
  8
SLIM
 10
3956.092522711886
 20
-1087.950018504808
 30
0.0
  0
VERTEX
  5
128BE5
  8
SLIM
 10
3951.185045423772
 20
-1096.450018504808
 30
0.0
  0
SEQEND
  5
128BE6
  8
SLIM
  0
CIRCLE
  5
1281B5
  8
SLIM
 10
3961.0
 20
-1231.5499814951829
 30
0.0
 40
5.0
1001
ACDBBLOCKREPETAG
1070
     1
1071
        8
1005
1281B5
  0
POLYLINE
  5
1281B6
  8
SLIM
 66
     1
 10
0.0
 20
0.0
 30
0.0
 70
     1
1001
ACDBBLOCKREPETAG
1070
     1
1071
        9
1005
1281B6
  0
VERTEX
  5
128BE7
  8
SLIM
 10
3970.8149545762212
 20
-1231.5499814951829
 30
0.0
  0
VERTEX
  5
128BE8
  8
SLIM
 10
3965.9074772881072
 20
-1223.0499814951791
 30
0.0
  0
VERTEX
  5
128BE9
  8
SLIM
 10
3956.092522711886
 20
-1223.049981495182
 30
0.0
  0
VERTEX
  5
128BEA
  8
SLIM
 10
3951.185045423772
 20
-1231.5499814951791
 30
0.0
  0
VERTEX
  5
128BEB
  8
SLIM
 10
3956.092522711886
 20
-1240.0499814951829
 30
0.0
  0
VERTEX
  5
128BEC
  8
SLIM
 10
3965.907477288114
 20
-1240.0499814951791
 30
0.0
  0
SEQEND
  5
128BED
  8
SLIM
  0
ARC
  5
1281B7
  8
OBJECT
 10
4000.0
 20
-1163.9999999999959
 30
0.0
 40
76.0
 50
34.863837954142063
 51
85.136162045732945
1001
ACDBBLOCKREPETAG
1070
     1
1071
       30
1005
1281B7
  0
ARC
  5
1281B8
  8
OBJECT
 10
4000.0
 20
-1163.9999999999959
 30
0.0
 40
76.0
 50
154.86383795430939
 51
205.1361620456905
1001
ACDBBLOCKREPETAG
1070
     1
1071
       31
1005
1281B8
  0
ARC
  5
1281B9
  8
OBJECT
 10
4000.0
 20
-1163.9999999999959
 30
0.0
 40
76.0
 50
274.86383795426718
 51
325.13616204585799
1001
ACDBBLOCKREPETAG
1070
     1
1071
       32
1005
1281B9
  0
ARC
  5
1281BA
  8
OBJECT
 10
4078.0
 20
-1163.9999999999959
 30
0.0
 40
12.0
 50
325.13616204585799
 51
34.863837954142063
1001
ACDBBLOCKREPETAG
1070
     1
1071
       33
1005
1281BA
  0
LINE
  5
1281BB
  8
OBJECT
 10
4087.846153846167
 20
-1157.140462520133
 30
0.0
 11
4062.3589743590492
 21
-1120.5562626275339
 31
0.0
1001
ACDBBLOCKREPETAG
1070
     1
1071
       34
1005
1281BB
  0
LINE
  5
1281BC
  8
OBJECT
 10
4087.8461538461711
 20
-1170.859537479856
 30
0.0
 11
4062.3589743590492
 21
-1207.4437373724591
 31
0.0
1001
ACDBBLOCKREPETAG
1070
     1
1071
       35
1005
1281BC
  0
ARC
  5
1281BD
  8
OBJECT
 10
3961.0
 20
-1096.45001850481
 30
0.0
 40
12.0
 50
85.136162045942811
 51
154.86383795411109
1001
ACDBBLOCKREPETAG
1070
     1
1071
       36
1005
1281BD
  0
LINE
  5
1281BE
  8
OBJECT
 10
3950.136389361146
 20
-1091.3527678843909
 30
0.0
 11
3931.1971326205862
 21
-1131.7174127373471
 31
0.0
1001
ACDBBLOCKREPETAG
1070
     1
1071
       37
1005
1281BE
  0
LINE
  5
1281BF
  8
OBJECT
 10
3962.0174567926852
 20
-1084.493230404526
 30
0.0
 11
4006.4438930203678
 21
-1088.2736753648851
 31
0.0
1001
ACDBBLOCKREPETAG
1070
     1
1071
       38
1005
1281BF
  0
ARC
  5
1281C0
  8
OBJECT
 10
3961.0
 20
-1231.5499814951811
 30
0.0
 40
12.0
 50
205.13616204588891
 51
274.8638379540572
1001
ACDBBLOCKREPETAG
1070
     1
1071
       39
1005
1281C0
  0
LINE
  5
1281C1
  8
OBJECT
 10
3962.0174567926879
 20
-1243.506769595464
 30
0.0
 11
4006.4438930203651
 21
-1239.726324635106
 31
0.0
1001
ACDBBLOCKREPETAG
1070
     1
1071
       40
1005
1281C1
  0
LINE
  5
1281C2
  8
OBJECT
 10
3950.136389361146
 20
-1236.647232115605
 30
0.0
 11
3931.1971326205821
 21
-1196.2825872626429
 31
0.0
1001
ACDBBLOCKREPETAG
1070
     1
1071
       41
1005
1281C2
  0
TEXT
  5
1281C3
  8
SLIM
 10
3853.75
 20
-1431.4999999999959
 30
0.0
 40
35.0
  1
両受けスタイル（W）
 41
0.75
  0
TEXT
  5
1281C4
  8
SLIM
 10
5858.1250000000009
 20
-1472.4999999999991
 30
0.0
 40
35.0
  1
カンペイ君（WKP）
 41
0.75
  0
TEXT
  5
1281C5
  8
SLIM
 10
1856.25
 20
-1187.499999999998
 30
0.0
 40
35.0
  1
片受けスタイル（S）
 41
0.75
  0
VIEWPORT
  5
F6BA7
 67
     1
  8
0
 10
145.33033752441401
 20
101.8328354358673
 30
0.0
 40
334.0025019414623
 41
222.19657968139651
 68
     1
 69
     1
1001
ACAD
1000
MVIEW
1002
{
1070
    16
1010
0.0
1020
0.0
1030
0.0
1010
0.0
1020
0.0
1030
1.0
1040
0.0
1040
222.19657968139651
1040
145.33033752441401
1040
101.8328354358673
1040
50.0
1040
0.0
1040
0.0
1070
     0
1070
     0
1070
     1
1070
     1
1070
     0
1070
     0
1070
     0
1070
     0
1040
0.0
1040
0.0
1040
0.0
1040
10.0
1040
10.0
1040
10.0
1040
10.0
1070
     0
1002
{
1002
}
1002
}
  0
VIEWPORT
  5
F6BA9
 67
     1
  8
OBJECT
 10
145.3303314447403
 20
101.8328338861465
 30
0.0
 40
232.5285303115844
 41
162.93253421783439
 68
     2
 69
     2
1001
ACAD
1000
MVIEW
1002
{
1070
    16
1010
0.0
1020
0.0
1030
0.0
1010
0.0
1020
0.0
1030
1.0
1040
0.0
1040
25942.55904403147
1040
2377.604457077377
1040
-7591.5176687056619
1040
50.0
1040
0.0
1040
0.0
1070
     0
1070
   600
1070
     1
1070
     1
1070
     0
1070
     0
1070
     0
1070
     0
1040
0.0
1040
0.0
1040
0.0
1040
1.0
1040
1.0
1040
0.0
1040
0.0
1070
     0
1002
{
1002
}
1002
}
  0
ENDSEC
  0
EOF
