  0
SECTION
  2
HEADER
  9
$ACADVER
  1
AC1009
  9
$INSBASE
 10
0.0
 20
0.0
 30
0.0
  9
$EXTMIN
 10
0.0
 20
-3637.4999999999968
 30
0.0
  9
$EXTMAX
 10
6387.1000000000004
 20
770.0
 30
0.0
  9
$LIMMIN
 10
0.0
 20
0.0
  9
$LIMMAX
 10
210.0
 20
297.0
  9
$ORTHOMODE
 70
     0
  9
$REGENMODE
 70
     1
  9
$FILLMODE
 70
     1
  9
$QTEXTMODE
 70
     0
  9
$MIRRTEXT
 70
     0
  9
$DRAGMODE
 70
     2
  9
$LTSCALE
 40
1.0
  9
$OSMODE
 70
   109
  9
$ATTMODE
 70
     1
  9
$TEXTSIZE
 40
4.0
  9
$TRACEWID
 40
0.05
  9
$TEXTSTYLE
  7
STANDARD
  9
$CLAYER
  8
OBJECT
  9
$CELTYPE
  6
BYLAYER
  9
$CECOLOR
 62
   256
  9
$DIMSCALE
 40
10.0
  9
$DIMASZ
 40
2.0
  9
$DIMEXO
 40
1.0
  9
$DIMDLI
 40
10.0
  9
$DIMRND
 40
0.0
  9
$DIMDLE
 40
0.0
  9
$DIMEXE
 40
1.0
  9
$DIMTP
 40
0.0
  9
$DIMTM
 40
0.0
  9
$DIMTXT
 40
3.2000000000000002
  9
$DIMCEN
 40
0.0
  9
$DIMTSZ
 40
0.0
  9
$DIMTOL
 70
     0
  9
$DIMLIM
 70
     0
  9
$DIMTIH
 70
     0
  9
$DIMTOH
 70
     0
  9
$DIMSE1
 70
     0
  9
$DIMSE2
 70
     0
  9
$DIMTAD
 70
     1
  9
$DIMZIN
 70
     8
  9
$DIMBLK
  1
OPEN30
  9
$DIMASO
 70
     1
  9
$DIMSHO
 70
     1
  9
$DIMPOST
  1

  9
$DIMAPOST
  1

  9
$DIMALT
 70
     0
  9
$DIMALTD
 70
     2
  9
$DIMALTF
 40
25.399999999999999
  9
$DIMLFAC
 40
1.0
  9
$DIMTOFL
 70
     1
  9
$DIMTVP
 40
0.0
  9
$DIMTIX
 70
     0
  9
$DIMSOXD
 70
     0
  9
$DIMSAH
 70
     0
  9
$DIMBLK1
  1

  9
$DIMBLK2
  1

  9
$DIMSTYLE
  2
S10
  9
$DIMCLRD
 70
   256
  9
$DIMCLRE
 70
   256
  9
$DIMCLRT
 70
   256
  9
$DIMTFAC
 40
1.0
  9
$DIMGAP
 40
0.9
  9
$LUNITS
 70
     2
  9
$LUPREC
 70
     2
  9
$SKETCHINC
 40
0.1
  9
$FILLETRAD
 40
0.0
  9
$AUNITS
 70
     0
  9
$AUPREC
 70
     2
  9
$MENU
  1
ACAD
  9
$ELEVATION
 40
0.0
  9
$PELEVATION
 40
0.0
  9
$THICKNESS
 40
0.0
  9
$LIMCHECK
 70
     0
  9
$BLIPMODE
 70
     0
  9
$CHAMFERA
 40
2.0
  9
$CHAMFERB
 40
2.0
  9
$SKPOLY
 70
     0
  9
$TDCREATE
 40
2453095.4929404748
  9
$TDUPDATE
 40
2456576.4881094559
  9
$TDINDWG
 40
18.3390457639
  9
$TDUSRTIMER
 40
18.339045162000001
  9
$USRTIMER
 70
     1
  9
$ANGBASE
 50
0.0
  9
$ANGDIR
 70
     0
  9
$PDMODE
 70
    35
  9
$PDSIZE
 40
2.0
  9
$PLINEWID
 40
0.0
  9
$COORDS
 70
     1
  9
$SPLFRAME
 70
     0
  9
$SPLINETYPE
 70
     6
  9
$SPLINESEGS
 70
     8
  9
$ATTDIA
 70
     0
  9
$ATTREQ
 70
     1
  9
$HANDLING
 70
     1
  9
$HANDSEED
  5
12FD96
  9
$SURFTAB1
 70
     6
  9
$SURFTAB2
 70
     6
  9
$SURFTYPE
 70
     6
  9
$SURFU
 70
     6
  9
$SURFV
 70
     6
  9
$UCSNAME
  2

  9
$UCSORG
 10
0.0
 20
0.0
 30
0.0
  9
$UCSXDIR
 10
1.0
 20
0.0
 30
0.0
  9
$UCSYDIR
 10
0.0
 20
1.0
 30
0.0
  9
$PUCSNAME
  2

  9
$PUCSORG
 10
0.0
 20
0.0
 30
0.0
  9
$PUCSXDIR
 10
1.0
 20
0.0
 30
0.0
  9
$PUCSYDIR
 10
0.0
 20
1.0
 30
0.0
  9
$USERI1
 70
     0
  9
$USERI2
 70
     0
  9
$USERI3
 70
     0
  9
$USERI4
 70
     0
  9
$USERI5
 70
     0
  9
$USERR1
 40
0.0
  9
$USERR2
 40
0.0
  9
$USERR3
 40
0.0
  9
$USERR4
 40
0.0
  9
$USERR5
 40
0.0
  9
$WORLDVIEW
 70
     1
  9
$SHADEDGE
 70
     3
  9
$SHADEDIF
 70
    70
  9
$TILEMODE
 70
     1
  9
$MAXACTVP
 70
    64
  9
$PLIMCHECK
 70
     0
  9
$PEXTMIN
 10
29.066066288948051
 20
20.366566777229309
 30
0.0
  9
$PEXTMAX
 10
261.5945966005325
 20
183.29910099506381
 30
0.0
  9
$PLIMMIN
 10
-3.17498779296875
 20
-3.1749999523162842
  9
$PLIMMAX
 10
293.83566284179687
 20
206.8406708240509
  9
$UNITMODE
 70
     0
  9
$VISRETAIN
 70
     1
  9
$PLINEGEN
 70
     0
  9
$PSLTSCALE
 70
     1
  0
ENDSEC
  0
SECTION
  2
TABLES
  0
TABLE
  2
VPORT
 70
     1
  0
VPORT
  2
*ACTIVE
 70
     0
 10
0.0
 20
0.0
 11
1.0
 21
1.0
 12
4562.5479985200454
 22
-476.05935617522198
 13
0.0
 23
0.0
 14
1.0
 24
1.0
 15
0.0
 25
0.0
 16
0.0
 26
0.0
 36
1.0
 17
0.0
 27
0.0
 37
0.0
 40
6227.0643711267512
 41
1.6622516556291389
 42
50.0
 43
0.0
 44
0.0
 50
0.0
 51
0.0
 71
     0
 72
   600
 73
     1
 74
     1
 75
     0
 76
     0
 77
     0
 78
     0
  0
ENDTAB
  0
TABLE
  2
LTYPE
 70
     4
  0
LTYPE
  2
CONTINUOUS
 70
     0
  3
Solid line
 72
    65
 73
     0
 40
0.0
  0
LTYPE
  2
PHANTOM2
 70
     0
  3
___ _ _ ___ _ _ ___ _ _ ___ _ _
 72
    65
 73
     6
 40
1.25
 49
0.625
 49
-0.125
 49
0.125
 49
-0.125
 49
0.125
 49
-0.125
  0
LTYPE
  2
ACAD_ISO08W100
 70
     0
  3
ISO long-dash short-dash ____ __ ____ __ ____ _
 72
    65
 73
     4
 40
36.0
 49
24.0
 49
-3.0
 49
6.0
 49
-3.0
  0
LTYPE
  2
ACAD_ISO02W100
 70
     0
  3
ISO dash __ __ __ __ __ __ __ __ __ __ __ __ __
 72
    65
 73
     2
 40
15.0
 49
12.0
 49
-3.0
  0
ENDTAB
  0
TABLE
  2
LAYER
 70
     8
  0
LAYER
  2
0
 70
     0
 62
     7
  6
CONTINUOUS
  0
LAYER
  2
OBJECT
 70
     0
 62
     4
  6
CONTINUOUS
  0
LAYER
  2
DEFPOINTS
 70
     0
 62
     7
  6
CONTINUOUS
  0
LAYER
  2
DIM
 70
     0
 62
     7
  6
CONTINUOUS
  0
LAYER
  2
HIDDEN
 70
     0
 62
     2
  6
ACAD_ISO02W100
  0
LAYER
  2
CENTER
 70
     0
 62
     2
  6
ACAD_ISO08W100
  0
LAYER
  2
DOTS
 70
     0
 62
     1
  6
CONTINUOUS
  0
LAYER
  2
SLIM
 70
     0
 62
     2
  6
CONTINUOUS
  0
ENDTAB
  0
TABLE
  2
STYLE
 70
     2
  0
STYLE
  2
STANDARD
 70
     0
 40
0.0
 41
0.75
 50
0.0
 71
     0
 42
4.0
  3
simplex.shx
  4
bigfont.shx
  0
ENDTAB
  0
TABLE
  2
VIEW
 70
     0
  0
ENDTAB
  0
TABLE
  2
UCS
 70
     0
  0
ENDTAB
  0
TABLE
  2
APPID
 70
    18
  0
APPID
  2
ACAD
 70
     0
  0
APPID
  2
ACADANNOTATIVE
 70
     0
  0
APPID
  2
ACAD_PSEXT
 70
     0
  0
APPID
  2
ACAD_EXEMPT_FROM_CAD_STANDARDS
 70
     0
  0
APPID
  2
ACAECLAYERSTANDARD
 70
     0
  0
APPID
  2
ACAUTHENVIRON
 70
     0
  0
APPID
  2
ACDBDYNAMICBLOCKTRUENAME
 70
     0
  0
APPID
  2
ACDBDYNAMICBLOCKGUID
 70
     0
  0
APPID
  2
ACDBBLOCKREPETAG
 70
     0
  0
APPID
  2
ACDBBLOCKREPBTAG
 70
     0
  0
APPID
  2
ACAD_NAV_VCDISPLAY
 70
     0
  0
APPID
  2
ACAD_DSTYLE_DIMRADIAL_EXTENSION
 70
     0
  0
APPID
  2
ACAD_DSTYLE_DIMJAG
 70
     0
  0
APPID
  2
ACAD_DSTYLE_DIMTALN
 70
     0
  0
APPID
  2
ACADANNOPO
 70
     0
  0
APPID
  2
GRADIENTCOLOR1ACI
 70
     0
  0
APPID
  2
GRADIENTCOLOR2ACI
 70
     0
  0
APPID
  2
ACAD_MLEADERVER
 70
     0
  0
ENDTAB
  0
TABLE
  2
DIMSTYLE
 70
     3
  0
DIMSTYLE
  2
STANDARD
 70
     0
  3

  4

  5

  6

  7

 40
1.0
 41
0.18
 42
0.0625
 43
0.38
 44
0.18
 45
0.0
 46
0.0
 47
0.0
 48
0.0
140
0.18
141
0.09
142
0.0
143
25.399999999999999
144
1.0
145
0.0
146
1.0
147
0.09
 71
     0
 72
     0
 73
     1
 74
     1
 75
     0
 76
     0
 77
     0
 78
     0
170
     0
171
     2
172
     0
173
     0
174
     0
175
     0
176
     0
177
     0
178
     0
  0
DIMSTYLE
  2
S10
 70
     0
  3

  4

  5

  6

  7

 40
10.0
 41
2.0
 42
1.0
 43
10.0
 44
1.0
 45
0.0
 46
0.0
 47
0.0
 48
0.0
140
3.2000000000000002
141
0.0
142
0.0
143
25.399999999999999
144
1.0
145
0.0
146
1.0
147
0.9
 71
     0
 72
     0
 73
     0
 74
     0
 75
     0
 76
     0
 77
     1
 78
     8
170
     0
171
     2
172
     1
173
     0
174
     0
175
     0
176
   256
177
   256
178
   256
  0
ENDTAB
  0
ENDSEC
  0
SECTION
  2
BLOCKS
  0
BLOCK
  8
0
  2
$MODEL_SPACE
 70
     0
 10
0.0
 20
0.0
 30
0.0
  3
$MODEL_SPACE
  1

  0
ENDBLK
  5
12FC64
  8
0
  0
BLOCK
 67
     1
  8
0
  2
$PAPER_SPACE
 70
     0
 10
0.0
 20
0.0
 30
0.0
  3
$PAPER_SPACE
  1

  0
ENDBLK
  5
12FC60
 67
     1
  8
0
  0
BLOCK
  8
0
  2
_OPEN30
 70
     0
 10
0.0
 20
0.0
 30
0.0
  3
_OPEN30
  1

  0
LINE
  5
202
  8
0
  6
BYBLOCK
 62
     0
 10
-1.0
 20
0.26794919
 30
0.0
 11
0.0
 21
0.0
 31
0.0
  0
LINE
  5
203
  8
0
  6
BYBLOCK
 62
     0
 10
0.0
 20
0.0
 30
0.0
 11
-1.0
 21
-0.26794919
 31
0.0
  0
LINE
  5
204
  8
0
  6
BYBLOCK
 62
     0
 10
0.0
 20
0.0
 30
0.0
 11
-1.0
 21
0.0
 31
0.0
  0
ENDBLK
  5
206
  8
0
  0
BLOCK
  8
0
  2
*U20
 70
     1
 10
0.0
 20
0.0
 30
0.0
  3
*U20
  1

  0
TEXT
  5
12FB6E
  8
SLIM
 10
505.04761904610911
 20
-2187.2499999970728
 30
0.0
 40
26.0
  1
100
  0
ENDBLK
  5
12FB70
  8
0
  0
BLOCK
  8
0
  2
*U21
 70
     1
 10
0.0
 20
0.0
 30
0.0
  3
*U21
  1

  0
TEXT
  5
12FB72
  8
SLIM
 10
505.04761904610911
 20
-1942.749999997073
 30
0.0
 40
26.0
  1
100
  0
ENDBLK
  5
12FB74
  8
0
  0
BLOCK
  8
0
  2
*U22
 70
     1
 10
0.0
 20
0.0
 30
0.0
  3
*U22
  1

  0
TEXT
  5
12FB76
  8
SLIM
 10
145.04761904623109
 20
-2187.2499999970728
 30
0.0
 40
26.0
  1
100
  0
ENDBLK
  5
12FB78
  8
0
  0
BLOCK
  8
0
  2
*U23
 70
     1
 10
0.0
 20
0.0
 30
0.0
  3
*U23
  1

  0
TEXT
  5
12FB7A
  8
SLIM
 10
154.9523809509931
 20
-1949.999999997073
 30
0.0
 40
26.0
  1
75
  0
ENDBLK
  5
12FB7C
  8
0
  0
BLOCK
  8
0
  2
*U24
 70
     1
 10
0.0
 20
0.0
 30
0.0
  3
*U24
  1

  0
TEXT
  5
12FB7E
  8
SLIM
 10
514.95238095087109
 20
-1715.999999997231
 30
0.0
 40
26.0
  1
75
  0
ENDBLK
  5
12FB80
  8
0
  0
BLOCK
  8
0
  2
*U25
 70
     1
 10
0.0
 20
0.0
 30
0.0
  3
*U25
  1

  0
TEXT
  5
12FB82
  8
SLIM
 10
514.95238095087109
 20
-1485.999999997231
 30
0.0
 40
26.0
  1
75
  0
ENDBLK
  5
12FB84
  8
0
  0
BLOCK
  8
0
  2
*U26
 70
     1
 10
0.0
 20
0.0
 30
0.0
  3
*U26
  1

  0
TEXT
  5
12FB86
  8
SLIM
 10
145.04761904623109
 20
-1723.249999997231
 30
0.0
 40
26.0
  1
100
  0
ENDBLK
  5
12FB88
  8
0
  0
BLOCK
  8
0
  2
*U27
 70
     1
 10
0.0
 20
0.0
 30
0.0
  3
*U27
  1

  0
TEXT
  5
12FB8A
  8
SLIM
 10
154.9523809509931
 20
-1485.999999997231
 30
0.0
 40
26.0
  1
65
  0
ENDBLK
  5
12FB8C
  8
0
  0
BLOCK
  8
0
  2
*U28
 70
     1
 10
0.0
 20
0.0
 30
0.0
  3
*U28
  1

  0
TEXT
  5
12FB8E
  8
SLIM
 10
514.95238095087109
 20
-1251.99999999739
 30
0.0
 40
26.0
  1
75
  0
ENDBLK
  5
12FB90
  8
0
  0
BLOCK
  8
0
  2
*U29
 70
     1
 10
0.0
 20
0.0
 30
0.0
  3
*U29
  1

  0
TEXT
  5
12FB92
  8
SLIM
 10
514.95238095087109
 20
-1021.999999997389
 30
0.0
 40
26.0
  1
65
  0
ENDBLK
  5
12FB94
  8
0
  0
BLOCK
  8
0
  2
*U30
 70
     1
 10
0.0
 20
0.0
 30
0.0
  3
*U30
  1

  0
TEXT
  5
12FB96
  8
SLIM
 10
154.9523809509929
 20
-1251.99999999739
 30
0.0
 40
26.0
  1
65
  0
ENDBLK
  5
12FB98
  8
0
  0
BLOCK
  8
0
  2
*U31
 70
     1
 10
0.0
 20
0.0
 30
0.0
  3
*U31
  1

  0
TEXT
  5
12FB9A
  8
SLIM
 10
154.9523809509929
 20
-1021.999999997389
 30
0.0
 40
26.0
  1
65
  0
ENDBLK
  5
12FB9C
  8
0
  0
BLOCK
  8
0
  2
*U32
 70
     1
 10
0.0
 20
0.0
 30
0.0
  3
*U32
  1

  0
TEXT
  5
12FB9E
  8
SLIM
 10
505.04761904610911
 20
-795.24999999754812
 30
0.0
 40
26.0
  1
100
  0
ENDBLK
  5
12FBA0
  8
0
  0
BLOCK
  8
0
  2
*U33
 70
     1
 10
0.0
 20
0.0
 30
0.0
  3
*U33
  1

  0
TEXT
  5
12FBA2
  8
SLIM
 10
514.95238095087109
 20
-557.999999997548
 30
0.0
 40
26.0
  1
50
  0
ENDBLK
  5
12FBA4
  8
0
  0
BLOCK
  8
0
  2
*U34
 70
     1
 10
0.0
 20
0.0
 30
0.0
  3
*U34
  1

  0
TEXT
  5
12FBA6
  8
SLIM
 10
154.95238095099299
 20
-787.99999999754812
 30
0.0
 40
26.0
  1
75
  0
ENDBLK
  5
12FBA8
  8
0
  0
BLOCK
  8
0
  2
*U35
 70
     1
 10
0.0
 20
0.0
 30
0.0
  3
*U35
  1

  0
TEXT
  5
12FBAA
  8
SLIM
 10
154.95238095099299
 20
-557.999999997548
 30
0.0
 40
26.0
  1
50
  0
ENDBLK
  5
12FBAC
  8
0
  0
BLOCK
  8
0
  2
*U36
 70
     1
 10
0.0
 20
0.0
 30
0.0
  3
*U36
  1

  0
TEXT
  5
12FBAE
  8
SLIM
 10
514.95238095087109
 20
-323.99999999770631
 30
0.0
 40
26.0
  1
65
  0
ENDBLK
  5
12FBB0
  8
0
  0
BLOCK
  8
0
  2
*U37
 70
     1
 10
0.0
 20
0.0
 30
0.0
  3
*U37
  1

  0
TEXT
  5
12FBB2
  8
SLIM
 10
514.95238095087109
 20
-93.99999999770624
 30
0.0
 40
26.0
  1
50
  0
ENDBLK
  5
12FBB4
  8
0
  0
BLOCK
  8
0
  2
*U38
 70
     1
 10
0.0
 20
0.0
 30
0.0
  3
*U38
  1

  0
TEXT
  5
12FBB6
  8
SLIM
 10
154.9523809509931
 20
-323.99999999770631
 30
0.0
 40
26.0
  1
50
  0
ENDBLK
  5
12FBB8
  8
0
  0
BLOCK
  8
0
  2
*U39
 70
     1
 10
0.0
 20
0.0
 30
0.0
  3
*U39
  1

  0
TEXT
  5
12FBBA
  8
SLIM
 10
154.9523809509931
 20
-93.99999999770624
 30
0.0
 40
26.0
  1
50
  0
ENDBLK
  5
12FBBC
  8
0
  0
BLOCK
  8
0
  2
*U40
 70
     1
 10
0.0
 20
0.0
 30
0.0
  3
*U40
  1

  0
TEXT
  5
12FBBE
  8
DIM
 10
2209.479620594459
 20
-3124.1428571428528
 30
0.0
 40
32.0
  1
A
 50
90.0
 41
0.75
  0
ENDBLK
  5
12FBC0
  8
0
  0
BLOCK
  8
0
  2
*U41
 70
     1
 10
0.0
 20
0.0
 30
0.0
  3
*U41
  1

  0
TEXT
  5
12FBC2
  8
DIM
 10
2207.8409284037348
 20
-3505.9999999999968
 30
0.0
 40
32.0
  1
B
 50
90.0
 41
0.75
  0
ENDBLK
  5
12FBC4
  8
0
  0
BLOCK
  8
0
  2
*U42
 70
     1
 10
0.0
 20
0.0
 30
0.0
  3
*U42
  1

  0
TEXT
  5
12FBC6
  8
DIM
 10
2061.428571428572
 20
-2978.208121984444
 30
0.0
 40
32.0
  1
C
 41
0.75
  0
ENDBLK
  5
12FBC8
  8
0
  0
ENDSEC
  0
SECTION
  2
ENTITIES
  0
LINE
  5
127012
  8
OBJECT
 10
1825.0
 20
-3519.9999999999959
 30
0.0
 11
5575.0
 21
-3519.9999999999959
 31
0.0
  0
LINE
  5
127014
  8
SLIM
 10
2616.0
 20
-2577.50001604727
 30
0.0
 11
2616.0
 21
-2907.50001604727
 31
0.0
  0
LINE
  5
127015
  8
SLIM
 10
2740.0
 20
-2577.50001604727
 30
0.0
 11
2740.0
 21
-2907.50001604727
 31
0.0
  0
LINE
  5
127016
  8
SLIM
 10
2870.0
 20
-2637.50001604727
 30
0.0
 11
2870.0
 21
-2907.50001604727
 31
0.0
  0
LINE
  5
127017
  8
SLIM
 10
3000.0
 20
-2637.50001604727
 30
0.0
 11
3000.0
 21
-2907.50001604727
 31
0.0
  0
LINE
  5
127018
  8
SLIM
 10
3130.0
 20
-2907.50001604727
 30
0.0
 11
3130.0
 21
-2637.50001604727
 31
0.0
  0
LINE
  5
127019
  8
SLIM
 10
3260.0
 20
-2907.50001604727
 30
0.0
 11
3260.0
 21
-2577.50001604727
 31
0.0
  0
LINE
  5
12701A
  8
SLIM
 10
3260.0
 20
-2577.50001604727
 30
0.0
 11
2616.0
 21
-2577.50001604727
 31
0.0
  0
LINE
  5
12701B
  8
SLIM
 10
3260.0
 20
-2637.50001604727
 30
0.0
 11
2740.0
 21
-2637.50001604727
 31
0.0
  0
LINE
  5
12701C
  8
SLIM
 10
3260.0
 20
-2697.50001604727
 30
0.0
 11
2616.0
 21
-2697.50001604727
 31
0.0
  0
LINE
  5
12701D
  8
SLIM
 10
3260.0
 20
-2767.50001604727
 30
0.0
 11
2616.0
 21
-2767.50001604727
 31
0.0
  0
LINE
  5
12701E
  8
SLIM
 10
3260.0
 20
-2837.50001604727
 30
0.0
 11
2616.0
 21
-2837.50001604727
 31
0.0
  0
LINE
  5
12701F
  8
SLIM
 10
3260.0
 20
-2907.50001604727
 30
0.0
 11
2616.0
 21
-2907.50001604727
 31
0.0
  0
LINE
  5
127034
  8
SLIM
 10
2740.0
 20
-2697.50001604727
 30
0.0
 11
2615.9999722746579
 21
-2577.5000000000009
 31
0.0
  0
LINE
  5
127069
  8
OBJECT
 10
5323.0
 20
-3335.9999999999968
 30
0.0
 11
5323.0
 21
-3314.9999999999968
 31
0.0
1001
ACDBBLOCKREPETAG
1070
     1
1071
       20
1005
127069
  0
LINE
  5
12706A
  8
OBJECT
 10
5323.0
 20
-3314.9999999999968
 30
0.0
 11
5477.0
 21
-3314.9999999999968
 31
0.0
1001
ACDBBLOCKREPETAG
1070
     1
1071
       21
1005
12706A
  0
LINE
  5
12706B
  8
HIDDEN
 10
5343.0
 20
-3384.9999999999968
 30
0.0
 11
5457.0
 21
-3384.9999999999968
 31
0.0
1001
ACDBBLOCKREPETAG
1070
     1
1071
       22
1005
12706B
  0
LINE
  5
12706C
  8
OBJECT
 10
5477.0
 20
-3314.9999999999968
 30
0.0
 11
5477.0
 21
-3335.9999999999968
 31
0.0
1001
ACDBBLOCKREPETAG
1070
     1
1071
       23
1005
12706C
  0
LINE
  5
12706D
  8
OBJECT
 10
5477.0
 20
-3335.9999999999968
 30
0.0
 11
5323.0
 21
-3335.9999999999968
 31
0.0
1001
ACDBBLOCKREPETAG
1070
     1
1071
       24
1005
12706D
  0
LINE
  5
12706E
  8
CENTER
 10
5400.0
 20
-3299.9999999999968
 30
0.0
 11
5400.0
 21
-3534.9999999999968
 31
0.0
1001
ACDBBLOCKREPETAG
1070
     1
1071
       25
1005
12706E
  0
LINE
  5
12706F
  8
OBJECT
 10
5325.0
 20
-3398.9999999999968
 30
0.0
 11
5325.0
 21
-3522.9999999999968
 31
0.0
1001
ACDBBLOCKREPETAG
1070
     1
1071
       26
1005
12706F
  0
LINE
  5
127070
  8
OBJECT
 10
5328.0
 20
-3335.9999999999968
 30
0.0
 11
5328.0
 21
-3398.9999999999968
 31
0.0
1001
ACDBBLOCKREPETAG
1070
     1
1071
       27
1005
127070
  0
LINE
  5
127071
  8
OBJECT
 10
5472.0
 20
-3398.9999999999968
 30
0.0
 11
5472.0
 21
-3335.9999999999968
 31
0.0
1001
ACDBBLOCKREPETAG
1070
     1
1071
       28
1005
127071
  0
LINE
  5
127072
  8
OBJECT
 10
5475.0
 20
-3398.9999999999968
 30
0.0
 11
5456.7802782663139
 21
-3398.9999999999968
 31
0.0
1001
ACDBBLOCKREPETAG
1070
     1
1071
       30
1005
127072
  0
LINE
  5
127073
  8
OBJECT
 10
5475.0
 20
-3398.9999999999968
 30
0.0
 11
5475.0
 21
-3522.9999999999968
 31
0.0
1001
ACDBBLOCKREPETAG
1070
     1
1071
       34
1005
127073
  0
POINT
  5
127074
  8
DOTS
 10
5400.0
 20
-3519.9999999999968
 30
0.0
1001
ACDBBLOCKREPETAG
1070
     1
1071
      187
1005
127074
  0
LINE
  5
127075
  8
CENTER
 10
5310.0
 20
-3447.9999999999968
 30
0.0
 11
5490.0
 21
-3447.9999999999968
 31
0.0
1001
ACDBBLOCKREPETAG
1070
     1
1071
       23
1005
127075
  0
CIRCLE
  5
127076
  8
OBJECT
 10
5400.0
 20
-3447.9999999999968
 30
0.0
 40
53.5
1001
ACDBBLOCKREPETAG
1070
     1
1071
       24
1005
127076
  0
CIRCLE
  5
127077
  8
OBJECT
 10
5400.0
 20
-3447.9999999999968
 30
0.0
 40
67.0
1001
ACDBBLOCKREPETAG
1070
     1
1071
       25
1005
127077
  0
ARC
  5
127078
  8
OBJECT
 10
5400.0
 20
-3447.9999999999968
 30
0.0
 40
75.0
 50
286.26020470824182
 51
253.7397952917583
1001
ACDBBLOCKREPETAG
1070
     1
1071
       27
1005
127078
  0
LINE
  5
127079
  8
OBJECT
 10
5379.0
 20
-3519.9999999999968
 30
0.0
 11
5421.0
 21
-3519.9999999999968
 31
0.0
1001
ACDBBLOCKREPETAG
1070
     1
1071
       28
1005
127079
  0
LINE
  5
12707A
  8
OBJECT
 10
5343.2197217336861
 20
-3398.9999999999968
 30
0.0
 11
5325.0
 21
-3398.9999999999968
 31
0.0
1001
ACDBBLOCKREPETAG
1070
     1
1071
       30
1005
127072
  0
TEXT
  5
12DC7A
  8
SLIM
 10
-0.0000000000000011
 20
282.5
 30
0.0
 40
35.0
  1
※ 100枝（4）がある場合、品名の最後に【管底】が付きます。
 41
0.9
 11
0.0
 21
300.0
 31
0.0
 73
     2
  0
ARC
  5
12EC26
  8
OBJECT
 10
6000.0
 20
-199.99999999999909
 30
0.0
 40
50.0
 50
298.81994300000417
 51
228.50208251168971
1001
ACDBBLOCKREPETAG
1070
     1
1071
       18
1005
12EC26
  0
LINE
  5
12EC27
  8
CENTER
 10
6080.0
 20
-199.99999999999909
 30
0.0
 11
5920.0
 21
-199.99999999999909
 31
0.0
1001
ACDBBLOCKREPETAG
1070
     1
1071
       19
1005
12EC27
  0
LINE
  5
12EC28
  8
CENTER
 10
6000.0
 20
-279.99999999999909
 30
0.0
 11
6000.0
 21
-104.9999999999991
 31
0.0
1001
ACDBBLOCKREPETAG
1070
     1
1071
       20
1005
12EC28
  0
CIRCLE
  5
12EC29
  8
OBJECT
 10
6000.0
 20
-199.99999999999909
 30
0.0
 40
70.0
1001
ACDBBLOCKREPETAG
1070
     1
1071
       21
1005
12EC29
  0
CIRCLE
  5
12EC2A
  8
OBJECT
 10
6000.0
 20
-199.99999999999909
 30
0.0
 40
77.0
1001
ACDBBLOCKREPETAG
1070
     1
1071
       22
1005
12EC2A
  0
ARC
  5
12EC2B
  8
OBJECT
 10
6000.0
 20
-199.99999999999909
 30
0.0
 40
80.0
 50
50.80503257388439
 51
129.1949674261156
1001
ACDBBLOCKREPETAG
1070
     1
1071
       23
1005
12EC2B
  0
LINE
  5
12EC2C
  8
OBJECT
 10
6045.6618002273253
 20
-137.99999999999909
 30
0.0
 11
6080.0
 21
-137.99999999999909
 31
0.0
1001
ACDBBLOCKREPETAG
1070
     1
1071
       24
1005
12EC2C
  0
LINE
  5
12EC2D
  8
OBJECT
 10
6062.0
 20
-261.99999999999909
 30
0.0
 11
6080.0
 21
-261.99999999999909
 31
0.0
1001
ACDBBLOCKREPETAG
1070
     1
1071
       25
1005
12EC2D
  0
LINE
  5
12EC2E
  8
OBJECT
 10
6062.0
 20
-261.99999999999909
 30
0.0
 11
6062.0
 21
-279.99999999999909
 31
0.0
1001
ACDBBLOCKREPETAG
1070
     1
1071
       27
1005
12EC2E
  0
LINE
  5
12EC2F
  8
OBJECT
 10
5938.0
 20
-261.99999999999909
 30
0.0
 11
5938.0
 21
-279.99999999999909
 31
0.0
1001
ACDBBLOCKREPETAG
1070
     1
1071
       28
1005
12EC2F
  0
LINE
  5
12EC30
  8
OBJECT
 10
5938.0
 20
-261.99999999999909
 30
0.0
 11
5920.0
 21
-261.99999999999909
 31
0.0
1001
ACDBBLOCKREPETAG
1070
     1
1071
       30
1005
12EC30
  0
LINE
  5
12EC31
  8
OBJECT
 10
5954.3381997726738
 20
-137.99999999999909
 30
0.0
 11
5920.0
 21
-137.99999999999909
 31
0.0
1001
ACDBBLOCKREPETAG
1070
     1
1071
       31
1005
12EC31
  0
LINE
  5
12EC32
  8
OBJECT
 10
5945.5527778486367
 20
-254.44722215136329
 30
0.0
 11
5938.0
 21
-261.99999999999909
 31
0.0
1001
ACDBBLOCKREPETAG
1070
     1
1071
       40
1005
12EC32
  0
LINE
  5
12EC33
  8
OBJECT
 10
6054.4472221513633
 20
-254.44722215136329
 30
0.0
 11
6062.0
 21
-261.99999999999909
 31
0.0
1001
ACDBBLOCKREPETAG
1070
     1
1071
       41
1005
12EC33
  0
ARC
  5
12EC34
  8
OBJECT
 10
5976.5796953073141
 20
-207.1289369828437
 30
0.0
 40
60.031113246032611
 50
314.07020130418567
 51
322.33936106089681
1001
ACDBBLOCKREPETAG
1070
     1
1071
       33
1005
12EC34
  0
LINE
  5
12EC35
  8
OBJECT
 10
5969.4199755553018
 20
-243.89888500818171
 30
0.0
 11
5979.7300520410208
 21
-222.74629179048591
 31
0.0
1001
ACDBBLOCKREPETAG
1070
     1
1071
       34
1005
12EC35
  0
LINE
  5
12EC36
  8
OBJECT
 10
5965.2972169006089
 20
-240.71813901882729
 30
0.0
 11
5973.773115639814
 21
-223.32862273686899
 31
0.0
1001
ACDBBLOCKREPETAG
1070
     1
1071
       35
1005
12EC36
  0
LINE
  5
12EC37
  8
OBJECT
 10
6024.1029330932433
 20
-243.80694712379321
 30
0.0
 11
6024.1029330932433
 21
-234.00999999999931
 31
0.0
1001
ACDBBLOCKREPETAG
1070
     1
1071
       36
1005
12EC37
  0
LINE
  5
12EC38
  8
OBJECT
 10
6024.1029330932433
 20
-234.00999999999931
 30
0.0
 11
5986.589017458864
 21
-218.4712273665109
 31
0.0
1001
ACDBBLOCKREPETAG
1070
     1
1071
       37
1005
12EC38
  0
ARC
  5
12EC39
  8
OBJECT
 10
5982.7621831352144
 20
-227.7100226916217
 30
0.0
 40
10.0
 50
67.500000000096563
 51
154.0147343702935
1001
ACDBBLOCKREPETAG
1070
     1
1071
      133
1005
12EC39
  0
ARC
  5
12EC3A
  8
OBJECT
 10
5986.022399255904
 20
-225.81327182420949
 30
0.0
 40
7.0
 50
67.500000000096563
 51
154.01473377488369
1001
ACDBBLOCKREPETAG
1070
     1
1071
      134
1005
12EC3A
  0
CIRCLE
  5
12EC3B
  8
OBJECT
 10
6000.0
 20
-199.99999999999909
 30
0.0
 40
53.5
1001
ACDBBLOCKREPETAG
1070
     1
1071
      149
1005
12EC3B
  0
POINT
  5
12EC3C
  8
DOTS
 10
6000.0
 20
-199.99999999999909
 30
0.0
 50
270.0
1001
ACDBBLOCKREPETAG
1070
     1
1071
      158
1005
12EC3C
  0
ARC
  5
12EC3D
  8
OBJECT
 10
4000.0
 20
-199.99999999999909
 30
0.0
 40
50.0
 50
298.81994300000417
 51
228.50208251168971
1001
ACDBBLOCKREPETAG
1070
     1
1071
       18
1005
12EC3D
  0
LINE
  5
12EC3E
  8
CENTER
 10
4080.0
 20
-199.99999999999909
 30
0.0
 11
3920.0
 21
-199.99999999999909
 31
0.0
1001
ACDBBLOCKREPETAG
1070
     1
1071
       19
1005
12EC3E
  0
LINE
  5
12EC3F
  8
CENTER
 10
4000.0
 20
-279.99999999999909
 30
0.0
 11
4000.0
 21
-104.9999999999991
 31
0.0
1001
ACDBBLOCKREPETAG
1070
     1
1071
       20
1005
12EC3F
  0
CIRCLE
  5
12EC40
  8
OBJECT
 10
4000.0
 20
-199.99999999999909
 30
0.0
 40
70.0
1001
ACDBBLOCKREPETAG
1070
     1
1071
       21
1005
12EC40
  0
CIRCLE
  5
12EC41
  8
OBJECT
 10
4000.0
 20
-199.99999999999909
 30
0.0
 40
77.0
1001
ACDBBLOCKREPETAG
1070
     1
1071
       22
1005
12EC41
  0
ARC
  5
12EC42
  8
OBJECT
 10
4000.0
 20
-199.99999999999909
 30
0.0
 40
80.0
 50
50.805032573864182
 51
129.1949674261358
1001
ACDBBLOCKREPETAG
1070
     1
1071
       23
1005
12EC42
  0
LINE
  5
12EC43
  8
OBJECT
 10
4045.661800227324
 20
-137.99999999999909
 30
0.0
 11
4080.0
 21
-137.99999999999909
 31
0.0
1001
ACDBBLOCKREPETAG
1070
     1
1071
       24
1005
12EC43
  0
LINE
  5
12EC44
  8
OBJECT
 10
4062.0
 20
-261.99999999999909
 30
0.0
 11
4080.0
 21
-261.99999999999909
 31
0.0
1001
ACDBBLOCKREPETAG
1070
     1
1071
       25
1005
12EC44
  0
LINE
  5
12EC45
  8
OBJECT
 10
4062.0
 20
-261.99999999999909
 30
0.0
 11
4062.0
 21
-279.99999999999909
 31
0.0
1001
ACDBBLOCKREPETAG
1070
     1
1071
       27
1005
12EC45
  0
LINE
  5
12EC46
  8
OBJECT
 10
3938.0
 20
-261.99999999999909
 30
0.0
 11
3938.0
 21
-279.99999999999909
 31
0.0
1001
ACDBBLOCKREPETAG
1070
     1
1071
       28
1005
12EC46
  0
LINE
  5
12EC47
  8
OBJECT
 10
3938.0
 20
-261.99999999999909
 30
0.0
 11
3920.0
 21
-261.99999999999909
 31
0.0
1001
ACDBBLOCKREPETAG
1070
     1
1071
       30
1005
12EC47
  0
LINE
  5
12EC48
  8
OBJECT
 10
3954.338199772676
 20
-137.99999999999909
 30
0.0
 11
3920.0
 21
-137.99999999999909
 31
0.0
1001
ACDBBLOCKREPETAG
1070
     1
1071
       31
1005
12EC48
  0
LINE
  5
12EC49
  8
OBJECT
 10
3945.5527778486362
 20
-254.44722215136329
 30
0.0
 11
3938.0
 21
-261.99999999999909
 31
0.0
1001
ACDBBLOCKREPETAG
1070
     1
1071
       40
1005
12EC49
  0
LINE
  5
12EC4A
  8
OBJECT
 10
4054.4472221513638
 20
-254.44722215136329
 30
0.0
 11
4062.0
 21
-261.99999999999909
 31
0.0
1001
ACDBBLOCKREPETAG
1070
     1
1071
       41
1005
12EC4A
  0
ARC
  5
12EC4B
  8
OBJECT
 10
3976.579695307315
 20
-207.1289369828437
 30
0.0
 40
60.031113246032611
 50
314.07020130418567
 51
322.33936106091278
1001
ACDBBLOCKREPETAG
1070
     1
1071
       33
1005
12EC4B
  0
LINE
  5
12EC4C
  8
OBJECT
 10
3969.4199755553018
 20
-243.89888500818171
 30
0.0
 11
3979.7300520410208
 21
-222.74629179048591
 31
0.0
1001
ACDBBLOCKREPETAG
1070
     1
1071
       34
1005
12EC4C
  0
LINE
  5
12EC4D
  8
OBJECT
 10
3965.2972169006089
 20
-240.71813901882729
 30
0.0
 11
3973.7731156398149
 21
-223.32862273686899
 31
0.0
1001
ACDBBLOCKREPETAG
1070
     1
1071
       35
1005
12EC4D
  0
LINE
  5
12EC4E
  8
OBJECT
 10
4024.102933093242
 20
-243.80694712379321
 30
0.0
 11
4024.102933093242
 21
-234.00999999999931
 31
0.0
1001
ACDBBLOCKREPETAG
1070
     1
1071
       36
1005
12EC4E
  0
LINE
  5
12EC4F
  8
OBJECT
 10
4024.102933093242
 20
-234.00999999999931
 30
0.0
 11
3986.589017458864
 21
-218.4712273665109
 31
0.0
1001
ACDBBLOCKREPETAG
1070
     1
1071
       37
1005
12EC4F
  0
ARC
  5
12EC50
  8
OBJECT
 10
3982.7621831352162
 20
-227.7100226916217
 30
0.0
 40
10.0
 50
67.500000000120636
 51
154.0147343702935
1001
ACDBBLOCKREPETAG
1070
     1
1071
      133
1005
12EC50
  0
ARC
  5
12EC51
  8
OBJECT
 10
3986.022399255904
 20
-225.81327182420949
 30
0.0
 40
7.0
 50
67.500000000120636
 51
154.01473377488369
1001
ACDBBLOCKREPETAG
1070
     1
1071
      134
1005
12EC51
  0
CIRCLE
  5
12EC52
  8
OBJECT
 10
4000.0
 20
-199.99999999999909
 30
0.0
 40
53.5
1001
ACDBBLOCKREPETAG
1070
     1
1071
      149
1005
12EC52
  0
POINT
  5
12EC53
  8
DOTS
 10
4000.0
 20
-199.99999999999909
 30
0.0
 50
270.0
1001
ACDBBLOCKREPETAG
1070
     1
1071
      158
1005
12EC53
  0
ARC
  5
12EC54
  8
OBJECT
 10
2000.0
 20
-199.99999999999909
 30
0.0
 40
50.0
 50
298.81994300000417
 51
228.50208251168971
1001
ACDBBLOCKREPETAG
1070
     1
1071
       18
1005
12EC54
  0
LINE
  5
12EC55
  8
CENTER
 10
2080.0
 20
-199.99999999999909
 30
0.0
 11
1920.0
 21
-199.99999999999909
 31
0.0
1001
ACDBBLOCKREPETAG
1070
     1
1071
       19
1005
12EC55
  0
LINE
  5
12EC56
  8
CENTER
 10
2000.0
 20
-279.99999999999909
 30
0.0
 11
2000.0
 21
-104.9999999999991
 31
0.0
1001
ACDBBLOCKREPETAG
1070
     1
1071
       20
1005
12EC56
  0
CIRCLE
  5
12EC57
  8
OBJECT
 10
2000.0
 20
-199.99999999999909
 30
0.0
 40
70.0
1001
ACDBBLOCKREPETAG
1070
     1
1071
       21
1005
12EC57
  0
CIRCLE
  5
12EC58
  8
OBJECT
 10
2000.0
 20
-199.99999999999909
 30
0.0
 40
77.0
1001
ACDBBLOCKREPETAG
1070
     1
1071
       22
1005
12EC58
  0
ARC
  5
12EC59
  8
OBJECT
 10
2000.0
 20
-199.99999999999909
 30
0.0
 40
80.0
 50
50.805032573864182
 51
129.1949674261358
1001
ACDBBLOCKREPETAG
1070
     1
1071
       23
1005
12EC59
  0
LINE
  5
12EC5A
  8
OBJECT
 10
2045.6618002273251
 20
-137.99999999999909
 30
0.0
 11
2080.0
 21
-137.99999999999909
 31
0.0
1001
ACDBBLOCKREPETAG
1070
     1
1071
       24
1005
12EC5A
  0
LINE
  5
12EC5B
  8
OBJECT
 10
2062.0
 20
-261.99999999999909
 30
0.0
 11
2080.0
 21
-261.99999999999909
 31
0.0
1001
ACDBBLOCKREPETAG
1070
     1
1071
       25
1005
12EC5B
  0
LINE
  5
12EC5C
  8
OBJECT
 10
2062.0
 20
-261.99999999999909
 30
0.0
 11
2062.0
 21
-279.99999999999909
 31
0.0
1001
ACDBBLOCKREPETAG
1070
     1
1071
       27
1005
12EC5C
  0
LINE
  5
12EC5D
  8
OBJECT
 10
1938.0
 20
-261.99999999999909
 30
0.0
 11
1938.0
 21
-279.99999999999909
 31
0.0
1001
ACDBBLOCKREPETAG
1070
     1
1071
       28
1005
12EC5D
  0
LINE
  5
12EC5E
  8
OBJECT
 10
1938.0
 20
-261.99999999999909
 30
0.0
 11
1920.0
 21
-261.99999999999909
 31
0.0
1001
ACDBBLOCKREPETAG
1070
     1
1071
       30
1005
12EC5E
  0
LINE
  5
12EC5F
  8
OBJECT
 10
1954.3381997726749
 20
-137.99999999999909
 30
0.0
 11
1920.0
 21
-137.99999999999909
 31
0.0
1001
ACDBBLOCKREPETAG
1070
     1
1071
       31
1005
12EC5F
  0
LINE
  5
12EC60
  8
OBJECT
 10
1945.5527778486351
 20
-254.44722215136329
 30
0.0
 11
1938.0
 21
-261.99999999999909
 31
0.0
1001
ACDBBLOCKREPETAG
1070
     1
1071
       40
1005
12EC60
  0
LINE
  5
12EC61
  8
OBJECT
 10
2054.4472221513638
 20
-254.44722215136329
 30
0.0
 11
2062.0
 21
-261.99999999999909
 31
0.0
1001
ACDBBLOCKREPETAG
1070
     1
1071
       41
1005
12EC61
  0
ARC
  5
12EC62
  8
OBJECT
 10
1976.579695307315
 20
-207.1289369828437
 30
0.0
 40
60.031113246032611
 50
314.07020130418567
 51
322.33936106091278
1001
ACDBBLOCKREPETAG
1070
     1
1071
       33
1005
12EC62
  0
LINE
  5
12EC63
  8
OBJECT
 10
1969.4199755553
 20
-243.89888500818171
 30
0.0
 11
1979.7300520410211
 21
-222.74629179048591
 31
0.0
1001
ACDBBLOCKREPETAG
1070
     1
1071
       34
1005
12EC63
  0
LINE
  5
12EC64
  8
OBJECT
 10
1965.2972169006091
 20
-240.71813901882729
 30
0.0
 11
1973.7731156398149
 21
-223.32862273686899
 31
0.0
1001
ACDBBLOCKREPETAG
1070
     1
1071
       35
1005
12EC64
  0
LINE
  5
12EC65
  8
OBJECT
 10
2024.102933093244
 20
-243.80694712379321
 30
0.0
 11
2024.102933093244
 21
-234.00999999999931
 31
0.0
1001
ACDBBLOCKREPETAG
1070
     1
1071
       36
1005
12EC65
  0
LINE
  5
12EC66
  8
OBJECT
 10
2024.102933093244
 20
-234.00999999999931
 30
0.0
 11
1986.589017458864
 21
-218.4712273665109
 31
0.0
1001
ACDBBLOCKREPETAG
1070
     1
1071
       37
1005
12EC66
  0
ARC
  5
12EC67
  8
OBJECT
 10
1982.7621831352151
 20
-227.7100226916217
 30
0.0
 40
10.0
 50
67.500000000120636
 51
154.0147343702935
1001
ACDBBLOCKREPETAG
1070
     1
1071
      133
1005
12EC67
  0
ARC
  5
12EC68
  8
OBJECT
 10
1986.022399255904
 20
-225.81327182420949
 30
0.0
 40
7.0
 50
67.500000000120636
 51
154.01473377487801
1001
ACDBBLOCKREPETAG
1070
     1
1071
      134
1005
12EC68
  0
CIRCLE
  5
12EC69
  8
OBJECT
 10
2000.0
 20
-199.99999999999909
 30
0.0
 40
53.5
1001
ACDBBLOCKREPETAG
1070
     1
1071
      149
1005
12EC69
  0
POINT
  5
12EC6A
  8
DOTS
 10
2000.0
 20
-199.99999999999909
 30
0.0
 50
270.0
1001
ACDBBLOCKREPETAG
1070
     1
1071
      158
1005
12EC6A
  0
ARC
  5
12EC6B
  8
OBJECT
 10
5000.0
 20
-3114.9999999999959
 30
0.0
 40
50.0
 50
298.81994299999963
 51
228.52376955965599
1001
ACDBBLOCKREPETAG
1070
     1
1071
        1
1005
12EC6B
  0
LINE
  5
12EC6C
  8
CENTER
 10
5080.0
 20
-3114.9999999999959
 30
0.0
 11
4905.0
 21
-3114.9999999999959
 31
0.0
1001
ACDBBLOCKREPETAG
1070
     1
1071
        2
1005
12EC6C
  0
LINE
  5
12EC6D
  8
CENTER
 10
5000.0
 20
-3209.9999999999959
 30
0.0
 11
5000.0
 21
-3019.9999999999959
 31
0.0
1001
ACDBBLOCKREPETAG
1070
     1
1071
        3
1005
12EC6D
  0
CIRCLE
  5
12EC6E
  8
OBJECT
 10
5000.0
 20
-3114.9999999999959
 30
0.0
 40
70.0
1001
ACDBBLOCKREPETAG
1070
     1
1071
        4
1005
12EC6E
  0
CIRCLE
  5
12EC6F
  8
OBJECT
 10
5000.0
 20
-3114.9999999999959
 30
0.0
 40
77.0
1001
ACDBBLOCKREPETAG
1070
     1
1071
        5
1005
12EC6F
  0
ARC
  5
12EC70
  8
OBJECT
 10
5000.0
 20
-3114.9999999999959
 30
0.0
 40
80.0
 50
50.805032573882329
 51
309.19496742611773
1001
ACDBBLOCKREPETAG
1070
     1
1071
        6
1005
12EC70
  0
LINE
  5
12EC71
  8
OBJECT
 10
5045.6618002273253
 20
-3052.9999999999959
 30
0.0
 11
5080.0
 21
-3052.9999999999959
 31
0.0
1001
ACDBBLOCKREPETAG
1070
     1
1071
        7
1005
12EC71
  0
LINE
  5
12EC72
  8
OBJECT
 10
5045.6618002273253
 20
-3176.9999999999959
 30
0.0
 11
5080.0
 21
-3176.9999999999959
 31
0.0
1001
ACDBBLOCKREPETAG
1070
     1
1071
        8
1005
12EC72
  0
LINE
  5
12EC73
  8
OBJECT
 10
5024.1029330932424
 20
-3158.80694712379
 30
0.0
 11
5024.1029330932424
 21
-3149.0099999999961
 31
0.0
1001
ACDBBLOCKREPETAG
1070
     1
1071
      138
1005
12EC73
  0
LINE
  5
12EC74
  8
OBJECT
 10
5024.1029330932424
 20
-3149.0099999999961
 30
0.0
 11
4986.589017458864
 21
-3133.4712273665082
 31
0.0
1001
ACDBBLOCKREPETAG
1070
     1
1071
      139
1005
12EC74
  0
ARC
  5
12EC75
  8
OBJECT
 10
4982.7621831352144
 20
-3142.7100226916191
 30
0.0
 40
10.0
 50
67.500000000100925
 51
154.01473437029199
1001
ACDBBLOCKREPETAG
1070
     1
1071
      140
1005
12EC75
  0
ARC
  5
12EC76
  8
OBJECT
 10
4986.022399255904
 20
-3140.8132718242068
 30
0.0
 40
7.0
 50
67.500000000100925
 51
154.01473377488071
1001
ACDBBLOCKREPETAG
1070
     1
1071
      141
1005
12EC76
  0
ARC
  5
12EC77
  8
OBJECT
 10
4976.5796953073141
 20
-3122.128936982841
 30
0.0
 40
60.031113246032611
 50
314.070201304188
 51
322.33936106089038
1001
ACDBBLOCKREPETAG
1070
     1
1071
      150
1005
12EC77
  0
LINE
  5
12EC78
  8
OBJECT
 10
4969.4199755553018
 20
-3158.8988850081791
 30
0.0
 11
4979.7300520410208
 21
-3137.7462917904832
 31
0.0
1001
ACDBBLOCKREPETAG
1070
     1
1071
      151
1005
12EC78
  0
LINE
  5
12EC79
  8
OBJECT
 10
4965.2972169006089
 20
-3155.7181390188248
 30
0.0
 11
4973.7731156398149
 21
-3138.3286227368658
 31
0.0
1001
ACDBBLOCKREPETAG
1070
     1
1071
      152
1005
12EC79
  0
CIRCLE
  5
12EC7A
  8
OBJECT
 10
5000.0
 20
-3114.9999999999959
 30
0.0
 40
53.5
1001
ACDBBLOCKREPETAG
1070
     1
1071
      153
1005
12EC7A
  0
POINT
  5
12EC7B
  8
DOTS
 10
5000.0
 20
-3114.9999999999959
 30
0.0
 50
270.0
1001
ACDBBLOCKREPETAG
1070
     1
1071
      159
1005
12EC7B
  0
ARC
  5
12EC7C
  8
OBJECT
 10
4000.0
 20
-3114.9999999999959
 30
0.0
 40
50.0
 50
298.81994299999963
 51
228.52376955967549
1001
ACDBBLOCKREPETAG
1070
     1
1071
        1
1005
12EC7C
  0
LINE
  5
12EC7D
  8
CENTER
 10
4080.0
 20
-3114.9999999999959
 30
0.0
 11
3905.0
 21
-3114.9999999999959
 31
0.0
1001
ACDBBLOCKREPETAG
1070
     1
1071
        2
1005
12EC7D
  0
LINE
  5
12EC7E
  8
CENTER
 10
4000.0
 20
-3209.9999999999959
 30
0.0
 11
4000.0
 21
-3019.9999999999959
 31
0.0
1001
ACDBBLOCKREPETAG
1070
     1
1071
        3
1005
12EC7E
  0
CIRCLE
  5
12EC7F
  8
OBJECT
 10
4000.0
 20
-3114.9999999999959
 30
0.0
 40
70.0
1001
ACDBBLOCKREPETAG
1070
     1
1071
        4
1005
12EC7F
  0
CIRCLE
  5
12EC80
  8
OBJECT
 10
4000.0
 20
-3114.9999999999959
 30
0.0
 40
77.0
1001
ACDBBLOCKREPETAG
1070
     1
1071
        5
1005
12EC80
  0
ARC
  5
12EC81
  8
OBJECT
 10
4000.0
 20
-3114.9999999999959
 30
0.0
 40
80.0
 50
50.805032573862128
 51
309.19496742613791
1001
ACDBBLOCKREPETAG
1070
     1
1071
        6
1005
12EC81
  0
LINE
  5
12EC82
  8
OBJECT
 10
4045.661800227324
 20
-3052.9999999999959
 30
0.0
 11
4080.0
 21
-3052.9999999999959
 31
0.0
1001
ACDBBLOCKREPETAG
1070
     1
1071
        7
1005
12EC82
  0
LINE
  5
12EC83
  8
OBJECT
 10
4045.661800227324
 20
-3176.9999999999959
 30
0.0
 11
4080.0
 21
-3176.9999999999959
 31
0.0
1001
ACDBBLOCKREPETAG
1070
     1
1071
        8
1005
12EC83
  0
LINE
  5
12EC84
  8
OBJECT
 10
4024.102933093242
 20
-3158.80694712379
 30
0.0
 11
4024.102933093242
 21
-3149.0099999999961
 31
0.0
1001
ACDBBLOCKREPETAG
1070
     1
1071
      138
1005
12EC84
  0
LINE
  5
12EC85
  8
OBJECT
 10
4024.102933093242
 20
-3149.0099999999961
 30
0.0
 11
3986.589017458864
 21
-3133.4712273665082
 31
0.0
1001
ACDBBLOCKREPETAG
1070
     1
1071
      139
1005
12EC85
  0
ARC
  5
12EC86
  8
OBJECT
 10
3982.7621831352162
 20
-3142.7100226916191
 30
0.0
 40
10.0
 50
67.500000000124999
 51
154.01473437029199
1001
ACDBBLOCKREPETAG
1070
     1
1071
      140
1005
12EC86
  0
ARC
  5
12EC87
  8
OBJECT
 10
3986.022399255904
 20
-3140.8132718242068
 30
0.0
 40
7.0
 50
67.500000000124999
 51
154.01473377488071
1001
ACDBBLOCKREPETAG
1070
     1
1071
      141
1005
12EC87
  0
ARC
  5
12EC88
  8
OBJECT
 10
3976.579695307315
 20
-3122.128936982841
 30
0.0
 40
60.031113246032611
 50
314.070201304188
 51
322.3393610609063
1001
ACDBBLOCKREPETAG
1070
     1
1071
      150
1005
12EC88
  0
LINE
  5
12EC89
  8
OBJECT
 10
3969.4199755553018
 20
-3158.8988850081791
 30
0.0
 11
3979.7300520410208
 21
-3137.7462917904832
 31
0.0
1001
ACDBBLOCKREPETAG
1070
     1
1071
      151
1005
12EC89
  0
LINE
  5
12EC8A
  8
OBJECT
 10
3965.2972169006089
 20
-3155.7181390188248
 30
0.0
 11
3973.7731156398149
 21
-3138.3286227368658
 31
0.0
1001
ACDBBLOCKREPETAG
1070
     1
1071
      152
1005
12EC8A
  0
CIRCLE
  5
12EC8B
  8
OBJECT
 10
4000.0
 20
-3114.9999999999959
 30
0.0
 40
53.5
1001
ACDBBLOCKREPETAG
1070
     1
1071
      153
1005
12EC8B
  0
POINT
  5
12EC8C
  8
DOTS
 10
4000.0
 20
-3114.9999999999959
 30
0.0
 50
270.0
1001
ACDBBLOCKREPETAG
1070
     1
1071
      159
1005
12EC8C
  0
ARC
  5
12EC8D
  8
OBJECT
 10
3000.0
 20
-3114.9999999999959
 30
0.0
 40
50.0
 50
298.81994299999963
 51
228.52376955967549
1001
ACDBBLOCKREPETAG
1070
     1
1071
        1
1005
12EC8D
  0
LINE
  5
12EC8E
  8
CENTER
 10
3080.0
 20
-3114.9999999999959
 30
0.0
 11
2905.0
 21
-3114.9999999999959
 31
0.0
1001
ACDBBLOCKREPETAG
1070
     1
1071
        2
1005
12EC8E
  0
LINE
  5
12EC8F
  8
CENTER
 10
3000.0
 20
-3209.9999999999959
 30
0.0
 11
3000.0
 21
-3019.9999999999959
 31
0.0
1001
ACDBBLOCKREPETAG
1070
     1
1071
        3
1005
12EC8F
  0
CIRCLE
  5
12EC90
  8
OBJECT
 10
3000.0
 20
-3114.9999999999959
 30
0.0
 40
70.0
1001
ACDBBLOCKREPETAG
1070
     1
1071
        4
1005
12EC90
  0
CIRCLE
  5
12EC91
  8
OBJECT
 10
3000.0
 20
-3114.9999999999959
 30
0.0
 40
77.0
1001
ACDBBLOCKREPETAG
1070
     1
1071
        5
1005
12EC91
  0
ARC
  5
12EC92
  8
OBJECT
 10
3000.0
 20
-3114.9999999999959
 30
0.0
 40
80.0
 50
50.805032573862128
 51
309.19496742613791
1001
ACDBBLOCKREPETAG
1070
     1
1071
        6
1005
12EC92
  0
LINE
  5
12EC93
  8
OBJECT
 10
3045.6618002273249
 20
-3052.9999999999959
 30
0.0
 11
3080.0
 21
-3052.9999999999959
 31
0.0
1001
ACDBBLOCKREPETAG
1070
     1
1071
        7
1005
12EC93
  0
LINE
  5
12EC94
  8
OBJECT
 10
3045.6618002273249
 20
-3176.9999999999959
 30
0.0
 11
3080.0
 21
-3176.9999999999959
 31
0.0
1001
ACDBBLOCKREPETAG
1070
     1
1071
        8
1005
12EC94
  0
LINE
  5
12EC95
  8
OBJECT
 10
3024.1029330932438
 20
-3158.80694712379
 30
0.0
 11
3024.1029330932438
 21
-3149.0099999999961
 31
0.0
1001
ACDBBLOCKREPETAG
1070
     1
1071
      138
1005
12EC95
  0
LINE
  5
12EC96
  8
OBJECT
 10
3024.1029330932438
 20
-3149.0099999999961
 30
0.0
 11
2986.589017458864
 21
-3133.4712273665082
 31
0.0
1001
ACDBBLOCKREPETAG
1070
     1
1071
      139
1005
12EC96
  0
ARC
  5
12EC97
  8
OBJECT
 10
2982.7621831352162
 20
-3142.7100226916191
 30
0.0
 40
10.0
 50
67.500000000124999
 51
154.01473437029199
1001
ACDBBLOCKREPETAG
1070
     1
1071
      140
1005
12EC97
  0
ARC
  5
12EC98
  8
OBJECT
 10
2986.022399255904
 20
-3140.8132718242068
 30
0.0
 40
7.0
 50
67.500000000124999
 51
154.01473377488071
1001
ACDBBLOCKREPETAG
1070
     1
1071
      141
1005
12EC98
  0
ARC
  5
12EC99
  8
OBJECT
 10
2976.579695307315
 20
-3122.128936982841
 30
0.0
 40
60.031113246032611
 50
314.070201304188
 51
322.3393610609063
1001
ACDBBLOCKREPETAG
1070
     1
1071
      150
1005
12EC99
  0
LINE
  5
12EC9A
  8
OBJECT
 10
2969.4199755553018
 20
-3158.8988850081791
 30
0.0
 11
2979.7300520410222
 21
-3137.7462917904832
 31
0.0
1001
ACDBBLOCKREPETAG
1070
     1
1071
      151
1005
12EC9A
  0
LINE
  5
12EC9B
  8
OBJECT
 10
2965.2972169006089
 20
-3155.7181390188248
 30
0.0
 11
2973.7731156398149
 21
-3138.3286227368658
 31
0.0
1001
ACDBBLOCKREPETAG
1070
     1
1071
      152
1005
12EC9B
  0
CIRCLE
  5
12EC9C
  8
OBJECT
 10
3000.0
 20
-3114.9999999999959
 30
0.0
 40
53.5
1001
ACDBBLOCKREPETAG
1070
     1
1071
      153
1005
12EC9C
  0
POINT
  5
12EC9D
  8
DOTS
 10
3000.0
 20
-3114.9999999999959
 30
0.0
 50
270.0
1001
ACDBBLOCKREPETAG
1070
     1
1071
      159
1005
12EC9D
  0
ARC
  5
12EC9E
  8
OBJECT
 10
2000.0
 20
-3114.9999999999959
 30
0.0
 40
50.0
 50
298.81994299999963
 51
228.52376955967549
1001
ACDBBLOCKREPETAG
1070
     1
1071
        1
1005
12EC9E
  0
LINE
  5
12EC9F
  8
CENTER
 10
2080.0
 20
-3114.9999999999959
 30
0.0
 11
1905.0
 21
-3114.9999999999959
 31
0.0
1001
ACDBBLOCKREPETAG
1070
     1
1071
        2
1005
12EC9F
  0
LINE
  5
12ECA0
  8
CENTER
 10
2000.0
 20
-3209.9999999999959
 30
0.0
 11
2000.0
 21
-3019.9999999999959
 31
0.0
1001
ACDBBLOCKREPETAG
1070
     1
1071
        3
1005
12ECA0
  0
CIRCLE
  5
12ECA1
  8
OBJECT
 10
2000.0
 20
-3114.9999999999959
 30
0.0
 40
70.0
1001
ACDBBLOCKREPETAG
1070
     1
1071
        4
1005
12ECA1
  0
CIRCLE
  5
12ECA2
  8
OBJECT
 10
2000.0
 20
-3114.9999999999959
 30
0.0
 40
77.0
1001
ACDBBLOCKREPETAG
1070
     1
1071
        5
1005
12ECA2
  0
ARC
  5
12ECA3
  8
OBJECT
 10
2000.0
 20
-3114.9999999999959
 30
0.0
 40
80.0
 50
50.805032573862128
 51
309.19496742613791
1001
ACDBBLOCKREPETAG
1070
     1
1071
        6
1005
12ECA3
  0
LINE
  5
12ECA4
  8
OBJECT
 10
2045.6618002273251
 20
-3052.9999999999959
 30
0.0
 11
2080.0
 21
-3052.9999999999959
 31
0.0
1001
ACDBBLOCKREPETAG
1070
     1
1071
        7
1005
12ECA4
  0
LINE
  5
12ECA5
  8
OBJECT
 10
2045.6618002273251
 20
-3176.9999999999959
 30
0.0
 11
2080.0
 21
-3176.9999999999959
 31
0.0
1001
ACDBBLOCKREPETAG
1070
     1
1071
        8
1005
12ECA5
  0
LINE
  5
12ECA6
  8
OBJECT
 10
2024.102933093244
 20
-3158.80694712379
 30
0.0
 11
2024.102933093244
 21
-3149.0099999999961
 31
0.0
1001
ACDBBLOCKREPETAG
1070
     1
1071
      138
1005
12ECA6
  0
LINE
  5
12ECA7
  8
OBJECT
 10
2024.102933093244
 20
-3149.0099999999961
 30
0.0
 11
1986.589017458864
 21
-3133.4712273665082
 31
0.0
1001
ACDBBLOCKREPETAG
1070
     1
1071
      139
1005
12ECA7
  0
ARC
  5
12ECA8
  8
OBJECT
 10
1982.7621831352151
 20
-3142.7100226916191
 30
0.0
 40
10.0
 50
67.500000000124999
 51
154.01473437029199
1001
ACDBBLOCKREPETAG
1070
     1
1071
      140
1005
12ECA8
  0
ARC
  5
12ECA9
  8
OBJECT
 10
1986.022399255904
 20
-3140.8132718242068
 30
0.0
 40
7.0
 50
67.500000000124999
 51
154.01473377487511
1001
ACDBBLOCKREPETAG
1070
     1
1071
      141
1005
12ECA9
  0
ARC
  5
12ECAA
  8
OBJECT
 10
1976.579695307315
 20
-3122.128936982841
 30
0.0
 40
60.031113246032611
 50
314.070201304188
 51
322.3393610609063
1001
ACDBBLOCKREPETAG
1070
     1
1071
      150
1005
12ECAA
  0
LINE
  5
12ECAB
  8
OBJECT
 10
1969.4199755553
 20
-3158.8988850081791
 30
0.0
 11
1979.7300520410211
 21
-3137.7462917904832
 31
0.0
1001
ACDBBLOCKREPETAG
1070
     1
1071
      151
1005
12ECAB
  0
LINE
  5
12ECAC
  8
OBJECT
 10
1965.2972169006091
 20
-3155.7181390188248
 30
0.0
 11
1973.7731156398149
 21
-3138.3286227368658
 31
0.0
1001
ACDBBLOCKREPETAG
1070
     1
1071
      152
1005
12ECAC
  0
CIRCLE
  5
12ECAD
  8
OBJECT
 10
2000.0
 20
-3114.9999999999959
 30
0.0
 40
53.5
1001
ACDBBLOCKREPETAG
1070
     1
1071
      153
1005
12ECAD
  0
POINT
  5
12ECAE
  8
DOTS
 10
2000.0
 20
-3114.9999999999959
 30
0.0
 50
270.0
1001
ACDBBLOCKREPETAG
1070
     1
1071
      159
1005
12ECAE
  0
ARC
  5
12ECAF
  8
OBJECT
 10
535.99999999987813
 20
-2051.999999999367
 30
0.0
 40
50.0
 50
28.819943000151429
 51
318.5020825118325
1001
ACDBBLOCKREPETAG
1070
     1
1071
       17
1005
12ECAF
  0
CIRCLE
  5
12ECB0
  8
OBJECT
 10
535.99999999987813
 20
-2051.999999999367
 30
0.0
 40
70.0
1001
ACDBBLOCKREPETAG
1070
     1
1071
       18
1005
12ECB0
  0
CIRCLE
  5
12ECB1
  8
OBJECT
 10
535.99999999987813
 20
-2051.999999999367
 30
0.0
 40
77.0
1001
ACDBBLOCKREPETAG
1070
     1
1071
       19
1005
12ECB1
  0
ARC
  5
12ECB2
  8
OBJECT
 10
535.99999999987813
 20
-2051.999999999367
 30
0.0
 40
80.0
 50
140.80503257378879
 51
219.19496742621121
1001
ACDBBLOCKREPETAG
1070
     1
1071
       20
1005
12ECB2
  0
LINE
  5
12ECB3
  8
OBJECT
 10
473.99999999987801
 20
-2006.338199772043
 30
0.0
 11
473.99999999987801
 21
-1971.999999999367
 31
0.0
1001
ACDBBLOCKREPETAG
1070
     1
1071
       21
1005
12ECB3
  0
LINE
  5
12ECB4
  8
OBJECT
 10
597.99999999987813
 20
-1989.999999999367
 30
0.0
 11
597.99999999987813
 21
-1971.999999999367
 31
0.0
1001
ACDBBLOCKREPETAG
1070
     1
1071
       22
1005
12ECB4
  0
LINE
  5
12ECB5
  8
OBJECT
 10
597.99999999987813
 20
-1989.999999999367
 30
0.0
 11
615.99999999987813
 21
-1989.999999999367
 31
0.0
1001
ACDBBLOCKREPETAG
1070
     1
1071
       24
1005
12ECB5
  0
LINE
  5
12ECB6
  8
OBJECT
 10
597.99999999987813
 20
-2113.999999999367
 30
0.0
 11
615.99999999987813
 21
-2113.999999999367
 31
0.0
1001
ACDBBLOCKREPETAG
1070
     1
1071
       25
1005
12ECB6
  0
LINE
  5
12ECB7
  8
OBJECT
 10
597.99999999987813
 20
-2113.999999999367
 30
0.0
 11
597.99999999987813
 21
-2131.999999999367
 31
0.0
1001
ACDBBLOCKREPETAG
1070
     1
1071
       27
1005
12ECB7
  0
LINE
  5
12ECB8
  8
OBJECT
 10
473.99999999987801
 20
-2097.6618002266919
 30
0.0
 11
473.99999999987801
 21
-2131.999999999367
 31
0.0
1001
ACDBBLOCKREPETAG
1070
     1
1071
       28
1005
12ECB8
  0
LINE
  5
12ECB9
  8
OBJECT
 10
590.44722215124227
 20
-2106.4472221507308
 30
0.0
 11
597.99999999987813
 21
-2113.999999999367
 31
0.0
1001
ACDBBLOCKREPETAG
1070
     1
1071
       37
1005
12ECB9
  0
LINE
  5
12ECBA
  8
OBJECT
 10
590.44722215124227
 20
-1997.552777848003
 30
0.0
 11
597.99999999987813
 21
-1989.999999999367
 31
0.0
1001
ACDBBLOCKREPETAG
1070
     1
1071
       38
1005
12ECBA
  0
ARC
  5
12ECBB
  8
OBJECT
 10
543.12893698272273
 20
-2075.420304692052
 30
0.0
 40
60.031113246032611
 50
44.070201304183492
 51
52.339361060984537
1001
ACDBBLOCKREPETAG
1070
     1
1071
      131
1005
12ECBB
  0
LINE
  5
12ECBC
  8
OBJECT
 10
579.8988850080608
 20
-2082.5800244440661
 30
0.0
 11
558.74629179036481
 21
-2072.2699479583462
 31
0.0
1001
ACDBBLOCKREPETAG
1070
     1
1071
      132
1005
12ECBC
  0
LINE
  5
12ECBD
  8
OBJECT
 10
576.71813901870621
 20
-2086.7027830987581
 30
0.0
 11
559.328622736748
 21
-2078.2268843595521
 31
0.0
1001
ACDBBLOCKREPETAG
1070
     1
1071
      133
1005
12ECBD
  0
LINE
  5
12ECBE
  8
OBJECT
 10
579.8069471236721
 20
-2027.8970669061241
 30
0.0
 11
570.00999999987835
 21
-2027.8970669061241
 31
0.0
1001
ACDBBLOCKREPETAG
1070
     1
1071
      134
1005
12ECBE
  0
LINE
  5
12ECBF
  8
OBJECT
 10
570.00999999987835
 20
-2027.8970669061241
 30
0.0
 11
554.47122736638994
 21
-2065.410982540503
 31
0.0
1001
ACDBBLOCKREPETAG
1070
     1
1071
      135
1005
12ECBF
  0
ARC
  5
12ECC0
  8
OBJECT
 10
563.71002269150085
 20
-2069.2378168641521
 30
0.0
 40
10.0
 50
157.50000000017559
 51
244.01473437021031
1001
ACDBBLOCKREPETAG
1070
     1
1071
      136
1005
12ECC0
  0
ARC
  5
12ECC1
  8
OBJECT
 10
561.81327182408836
 20
-2065.977600743463
 30
0.0
 40
7.0
 50
157.50000000017559
 51
244.01473377496251
1001
ACDBBLOCKREPETAG
1070
     1
1071
      137
1005
12ECC1
  0
CIRCLE
  5
12ECC2
  8
OBJECT
 10
535.99999999987813
 20
-2051.999999999367
 30
0.0
 40
53.5
1001
ACDBBLOCKREPETAG
1070
     1
1071
      152
1005
12ECC2
  0
POINT
  5
12ECC3
  8
DOTS
 10
535.99999999987813
 20
-2051.999999999367
 30
0.0
1001
ACDBBLOCKREPETAG
1070
     1
1071
       39
1005
12ECC3
  0
ARC
  5
12ECC4
  8
OBJECT
 10
176.0
 20
-2051.999999999367
 30
0.0
 40
50.0
 50
28.819943000151429
 51
318.5020825118325
1001
ACDBBLOCKREPETAG
1070
     1
1071
       17
1005
12ECC4
  0
CIRCLE
  5
12ECC5
  8
OBJECT
 10
176.0
 20
-2051.999999999367
 30
0.0
 40
70.0
1001
ACDBBLOCKREPETAG
1070
     1
1071
       18
1005
12ECC5
  0
CIRCLE
  5
12ECC6
  8
OBJECT
 10
176.0
 20
-2051.999999999367
 30
0.0
 40
77.0
1001
ACDBBLOCKREPETAG
1070
     1
1071
       19
1005
12ECC6
  0
ARC
  5
12ECC7
  8
OBJECT
 10
176.0
 20
-2051.999999999367
 30
0.0
 40
80.0
 50
140.80503257378979
 51
219.1949674262101
1001
ACDBBLOCKREPETAG
1070
     1
1071
       20
1005
12ECC7
  0
LINE
  5
12ECC8
  8
OBJECT
 10
114.0
 20
-2006.338199772043
 30
0.0
 11
114.0
 21
-1971.999999999367
 31
0.0
1001
ACDBBLOCKREPETAG
1070
     1
1071
       21
1005
12ECC8
  0
LINE
  5
12ECC9
  8
OBJECT
 10
238.0
 20
-1989.999999999367
 30
0.0
 11
238.0
 21
-1971.999999999367
 31
0.0
1001
ACDBBLOCKREPETAG
1070
     1
1071
       22
1005
12ECC9
  0
LINE
  5
12ECCA
  8
OBJECT
 10
238.0
 20
-1989.999999999367
 30
0.0
 11
256.0
 21
-1989.999999999367
 31
0.0
1001
ACDBBLOCKREPETAG
1070
     1
1071
       24
1005
12ECCA
  0
LINE
  5
12ECCB
  8
OBJECT
 10
238.0
 20
-2113.999999999367
 30
0.0
 11
256.0
 21
-2113.999999999367
 31
0.0
1001
ACDBBLOCKREPETAG
1070
     1
1071
       25
1005
12ECCB
  0
LINE
  5
12ECCC
  8
OBJECT
 10
238.0
 20
-2113.999999999367
 30
0.0
 11
238.0
 21
-2131.999999999367
 31
0.0
1001
ACDBBLOCKREPETAG
1070
     1
1071
       27
1005
12ECCC
  0
LINE
  5
12ECCD
  8
OBJECT
 10
114.0
 20
-2097.6618002266919
 30
0.0
 11
114.0
 21
-2131.999999999367
 31
0.0
1001
ACDBBLOCKREPETAG
1070
     1
1071
       28
1005
12ECCD
  0
LINE
  5
12ECCE
  8
OBJECT
 10
230.44722215136429
 20
-2106.4472221507308
 30
0.0
 11
238.0
 21
-2113.999999999367
 31
0.0
1001
ACDBBLOCKREPETAG
1070
     1
1071
       37
1005
12ECCE
  0
LINE
  5
12ECCF
  8
OBJECT
 10
230.44722215136429
 20
-1997.552777848003
 30
0.0
 11
238.0
 21
-1989.999999999367
 31
0.0
1001
ACDBBLOCKREPETAG
1070
     1
1071
       38
1005
12ECCF
  0
ARC
  5
12ECD0
  8
OBJECT
 10
183.12893698284461
 20
-2075.420304692052
 30
0.0
 40
60.031113246032611
 50
44.070201304185751
 51
52.339361060985823
1001
ACDBBLOCKREPETAG
1070
     1
1071
      131
1005
12ECD0
  0
LINE
  5
12ECD1
  8
OBJECT
 10
219.8988850081827
 20
-2082.5800244440661
 30
0.0
 11
198.74629179048679
 21
-2072.2699479583462
 31
0.0
1001
ACDBBLOCKREPETAG
1070
     1
1071
      132
1005
12ECD1
  0
LINE
  5
12ECD2
  8
OBJECT
 10
216.7181390188282
 20
-2086.7027830987581
 30
0.0
 11
199.3286227368699
 21
-2078.2268843595521
 31
0.0
1001
ACDBBLOCKREPETAG
1070
     1
1071
      133
1005
12ECD2
  0
LINE
  5
12ECD3
  8
OBJECT
 10
219.80694712379409
 20
-2027.8970669061241
 30
0.0
 11
210.01000000000019
 21
-2027.8970669061241
 31
0.0
1001
ACDBBLOCKREPETAG
1070
     1
1071
      134
1005
12ECD3
  0
LINE
  5
12ECD4
  8
OBJECT
 10
210.01000000000019
 20
-2027.8970669061241
 30
0.0
 11
194.47122736651181
 21
-2065.410982540503
 31
0.0
1001
ACDBBLOCKREPETAG
1070
     1
1071
      135
1005
12ECD4
  0
ARC
  5
12ECD5
  8
OBJECT
 10
203.7100226916227
 20
-2069.2378168641521
 30
0.0
 40
10.0
 50
157.50000000017559
 51
244.01473437021031
1001
ACDBBLOCKREPETAG
1070
     1
1071
      136
1005
12ECD5
  0
ARC
  5
12ECD6
  8
OBJECT
 10
201.8132718242104
 20
-2065.977600743463
 30
0.0
 40
7.0
 50
157.50000000017559
 51
244.01473377496541
1001
ACDBBLOCKREPETAG
1070
     1
1071
      137
1005
12ECD6
  0
CIRCLE
  5
12ECD7
  8
OBJECT
 10
176.0
 20
-2051.999999999367
 30
0.0
 40
53.5
1001
ACDBBLOCKREPETAG
1070
     1
1071
      152
1005
12ECD7
  0
POINT
  5
12ECD8
  8
DOTS
 10
176.0
 20
-2051.999999999367
 30
0.0
1001
ACDBBLOCKREPETAG
1070
     1
1071
       39
1005
12ECD8
  0
ARC
  5
12ECD9
  8
OBJECT
 10
535.99999999987813
 20
-1587.999999999525
 30
0.0
 40
50.0
 50
28.819943000140022
 51
318.50208251184222
1001
ACDBBLOCKREPETAG
1070
     1
1071
       17
1005
12ECD9
  0
CIRCLE
  5
12ECDA
  8
OBJECT
 10
535.99999999987813
 20
-1587.999999999525
 30
0.0
 40
70.0
1001
ACDBBLOCKREPETAG
1070
     1
1071
       18
1005
12ECDA
  0
CIRCLE
  5
12ECDB
  8
OBJECT
 10
535.99999999987813
 20
-1587.999999999525
 30
0.0
 40
77.0
1001
ACDBBLOCKREPETAG
1070
     1
1071
       19
1005
12ECDB
  0
ARC
  5
12ECDC
  8
OBJECT
 10
535.99999999987813
 20
-1587.999999999525
 30
0.0
 40
80.0
 50
140.8050325737787
 51
219.1949674262213
1001
ACDBBLOCKREPETAG
1070
     1
1071
       20
1005
12ECDC
  0
LINE
  5
12ECDD
  8
OBJECT
 10
473.99999999987801
 20
-1542.3381997722011
 30
0.0
 11
473.99999999987801
 21
-1507.999999999525
 31
0.0
1001
ACDBBLOCKREPETAG
1070
     1
1071
       21
1005
12ECDD
  0
LINE
  5
12ECDE
  8
OBJECT
 10
597.99999999987813
 20
-1525.999999999525
 30
0.0
 11
597.99999999987813
 21
-1507.999999999525
 31
0.0
1001
ACDBBLOCKREPETAG
1070
     1
1071
       22
1005
12ECDE
  0
LINE
  5
12ECDF
  8
OBJECT
 10
597.99999999987813
 20
-1525.999999999525
 30
0.0
 11
615.99999999987813
 21
-1525.999999999525
 31
0.0
1001
ACDBBLOCKREPETAG
1070
     1
1071
       24
1005
12ECDF
  0
LINE
  5
12ECE0
  8
OBJECT
 10
597.99999999987813
 20
-1649.999999999525
 30
0.0
 11
615.99999999987813
 21
-1649.999999999525
 31
0.0
1001
ACDBBLOCKREPETAG
1070
     1
1071
       25
1005
12ECE0
  0
LINE
  5
12ECE1
  8
OBJECT
 10
597.99999999987813
 20
-1649.999999999525
 30
0.0
 11
597.99999999987813
 21
-1667.999999999525
 31
0.0
1001
ACDBBLOCKREPETAG
1070
     1
1071
       27
1005
12ECE1
  0
LINE
  5
12ECE2
  8
OBJECT
 10
473.99999999987801
 20
-1633.6618002268499
 30
0.0
 11
473.99999999987801
 21
-1667.999999999525
 31
0.0
1001
ACDBBLOCKREPETAG
1070
     1
1071
       28
1005
12ECE2
  0
LINE
  5
12ECE3
  8
OBJECT
 10
590.44722215124227
 20
-1642.447222150889
 30
0.0
 11
597.99999999987813
 21
-1649.999999999525
 31
0.0
1001
ACDBBLOCKREPETAG
1070
     1
1071
       37
1005
12ECE3
  0
LINE
  5
12ECE4
  8
OBJECT
 10
590.44722215124227
 20
-1533.552777848161
 30
0.0
 11
597.99999999987813
 21
-1525.999999999525
 31
0.0
1001
ACDBBLOCKREPETAG
1070
     1
1071
       38
1005
12ECE4
  0
ARC
  5
12ECE5
  8
OBJECT
 10
543.12893698272273
 20
-1611.4203046922109
 30
0.0
 40
60.031113246032611
 50
44.070201304183492
 51
52.339361060976579
1001
ACDBBLOCKREPETAG
1070
     1
1071
      131
1005
12ECE5
  0
LINE
  5
12ECE6
  8
OBJECT
 10
579.8988850080608
 20
-1618.5800244442239
 30
0.0
 11
558.74629179036481
 21
-1608.269947958504
 31
0.0
1001
ACDBBLOCKREPETAG
1070
     1
1071
      132
1005
12ECE6
  0
LINE
  5
12ECE7
  8
OBJECT
 10
576.71813901870621
 20
-1622.702783098915
 30
0.0
 11
559.328622736748
 21
-1614.2268843597101
 31
0.0
1001
ACDBBLOCKREPETAG
1070
     1
1071
      133
1005
12ECE7
  0
LINE
  5
12ECE8
  8
OBJECT
 10
579.8069471236721
 20
-1563.8970669062819
 30
0.0
 11
570.00999999987835
 21
-1563.8970669062819
 31
0.0
1001
ACDBBLOCKREPETAG
1070
     1
1071
      134
1005
12ECE8
  0
LINE
  5
12ECE9
  8
OBJECT
 10
570.00999999987835
 20
-1563.8970669062819
 30
0.0
 11
554.47122736638994
 21
-1601.4109825406611
 31
0.0
1001
ACDBBLOCKREPETAG
1070
     1
1071
      135
1005
12ECE9
  0
ARC
  5
12ECEA
  8
OBJECT
 10
563.71002269150085
 20
-1605.2378168643099
 30
0.0
 40
10.0
 50
157.5000000001636
 51
244.01473437020459
1001
ACDBBLOCKREPETAG
1070
     1
1071
      136
1005
12ECEA
  0
ARC
  5
12ECEB
  8
OBJECT
 10
561.81327182408836
 20
-1601.977600743621
 30
0.0
 40
7.0
 50
157.5000000001636
 51
244.01473377496251
1001
ACDBBLOCKREPETAG
1070
     1
1071
      137
1005
12ECEB
  0
CIRCLE
  5
12ECEC
  8
OBJECT
 10
535.99999999987813
 20
-1587.999999999525
 30
0.0
 40
53.5
1001
ACDBBLOCKREPETAG
1070
     1
1071
      152
1005
12ECEC
  0
POINT
  5
12ECED
  8
DOTS
 10
535.99999999987813
 20
-1587.999999999525
 30
0.0
1001
ACDBBLOCKREPETAG
1070
     1
1071
       39
1005
12ECED
  0
ARC
  5
12ECEE
  8
OBJECT
 10
176.0
 20
-1587.999999999525
 30
0.0
 40
50.0
 50
28.819943000140022
 51
318.50208251184222
1001
ACDBBLOCKREPETAG
1070
     1
1071
       17
1005
12ECEE
  0
CIRCLE
  5
12ECEF
  8
OBJECT
 10
176.0
 20
-1587.999999999525
 30
0.0
 40
70.0
1001
ACDBBLOCKREPETAG
1070
     1
1071
       18
1005
12ECEF
  0
CIRCLE
  5
12ECF0
  8
OBJECT
 10
176.0
 20
-1587.999999999525
 30
0.0
 40
77.0
1001
ACDBBLOCKREPETAG
1070
     1
1071
       19
1005
12ECF0
  0
ARC
  5
12ECF1
  8
OBJECT
 10
176.0
 20
-1587.999999999525
 30
0.0
 40
80.0
 50
140.80503257377961
 51
219.1949674262203
1001
ACDBBLOCKREPETAG
1070
     1
1071
       20
1005
12ECF1
  0
LINE
  5
12ECF2
  8
OBJECT
 10
114.0
 20
-1542.3381997722011
 30
0.0
 11
114.0
 21
-1507.999999999525
 31
0.0
1001
ACDBBLOCKREPETAG
1070
     1
1071
       21
1005
12ECF2
  0
LINE
  5
12ECF3
  8
OBJECT
 10
238.0
 20
-1525.999999999525
 30
0.0
 11
238.0
 21
-1507.999999999525
 31
0.0
1001
ACDBBLOCKREPETAG
1070
     1
1071
       22
1005
12ECF3
  0
LINE
  5
12ECF4
  8
OBJECT
 10
238.0
 20
-1525.999999999525
 30
0.0
 11
256.0
 21
-1525.999999999525
 31
0.0
1001
ACDBBLOCKREPETAG
1070
     1
1071
       24
1005
12ECF4
  0
LINE
  5
12ECF5
  8
OBJECT
 10
238.0
 20
-1649.999999999525
 30
0.0
 11
256.0
 21
-1649.999999999525
 31
0.0
1001
ACDBBLOCKREPETAG
1070
     1
1071
       25
1005
12ECF5
  0
LINE
  5
12ECF6
  8
OBJECT
 10
238.0
 20
-1649.999999999525
 30
0.0
 11
238.0
 21
-1667.999999999525
 31
0.0
1001
ACDBBLOCKREPETAG
1070
     1
1071
       27
1005
12ECF6
  0
LINE
  5
12ECF7
  8
OBJECT
 10
114.0
 20
-1633.6618002268499
 30
0.0
 11
114.0
 21
-1667.999999999525
 31
0.0
1001
ACDBBLOCKREPETAG
1070
     1
1071
       28
1005
12ECF7
  0
LINE
  5
12ECF8
  8
OBJECT
 10
230.44722215136429
 20
-1642.447222150889
 30
0.0
 11
238.0
 21
-1649.999999999525
 31
0.0
1001
ACDBBLOCKREPETAG
1070
     1
1071
       37
1005
12ECF8
  0
LINE
  5
12ECF9
  8
OBJECT
 10
230.44722215136429
 20
-1533.552777848161
 30
0.0
 11
238.0
 21
-1525.999999999525
 31
0.0
1001
ACDBBLOCKREPETAG
1070
     1
1071
       38
1005
12ECF9
  0
ARC
  5
12ECFA
  8
OBJECT
 10
183.12893698284461
 20
-1611.4203046922109
 30
0.0
 40
60.031113246032611
 50
44.070201304185751
 51
52.339361060977858
1001
ACDBBLOCKREPETAG
1070
     1
1071
      131
1005
12ECFA
  0
LINE
  5
12ECFB
  8
OBJECT
 10
219.8988850081827
 20
-1618.5800244442239
 30
0.0
 11
198.74629179048679
 21
-1608.269947958504
 31
0.0
1001
ACDBBLOCKREPETAG
1070
     1
1071
      132
1005
12ECFB
  0
LINE
  5
12ECFC
  8
OBJECT
 10
216.7181390188282
 20
-1622.702783098915
 30
0.0
 11
199.3286227368699
 21
-1614.2268843597101
 31
0.0
1001
ACDBBLOCKREPETAG
1070
     1
1071
      133
1005
12ECFC
  0
LINE
  5
12ECFD
  8
OBJECT
 10
219.80694712379409
 20
-1563.8970669062819
 30
0.0
 11
210.01000000000019
 21
-1563.8970669062819
 31
0.0
1001
ACDBBLOCKREPETAG
1070
     1
1071
      134
1005
12ECFD
  0
LINE
  5
12ECFE
  8
OBJECT
 10
210.01000000000019
 20
-1563.8970669062819
 30
0.0
 11
194.47122736651181
 21
-1601.4109825406611
 31
0.0
1001
ACDBBLOCKREPETAG
1070
     1
1071
      135
1005
12ECFE
  0
ARC
  5
12ECFF
  8
OBJECT
 10
203.7100226916227
 20
-1605.2378168643099
 30
0.0
 40
10.0
 50
157.5000000001636
 51
244.01473437020459
1001
ACDBBLOCKREPETAG
1070
     1
1071
      136
1005
12ECFF
  0
ARC
  5
12ED00
  8
OBJECT
 10
201.8132718242104
 20
-1601.977600743621
 30
0.0
 40
7.0
 50
157.5000000001636
 51
244.01473377496541
1001
ACDBBLOCKREPETAG
1070
     1
1071
      137
1005
12ED00
  0
CIRCLE
  5
12ED01
  8
OBJECT
 10
176.0
 20
-1587.999999999525
 30
0.0
 40
53.5
1001
ACDBBLOCKREPETAG
1070
     1
1071
      152
1005
12ED01
  0
POINT
  5
12ED02
  8
DOTS
 10
176.0
 20
-1587.999999999525
 30
0.0
1001
ACDBBLOCKREPETAG
1070
     1
1071
       39
1005
12ED02
  0
ARC
  5
12ED03
  8
OBJECT
 10
535.99999999987813
 20
-1123.999999999684
 30
0.0
 40
50.0
 50
28.819943000140022
 51
318.50208251184222
1001
ACDBBLOCKREPETAG
1070
     1
1071
       17
1005
12ED03
  0
CIRCLE
  5
12ED04
  8
OBJECT
 10
535.99999999987813
 20
-1123.999999999684
 30
0.0
 40
70.0
1001
ACDBBLOCKREPETAG
1070
     1
1071
       18
1005
12ED04
  0
CIRCLE
  5
12ED05
  8
OBJECT
 10
535.99999999987813
 20
-1123.999999999684
 30
0.0
 40
77.0
1001
ACDBBLOCKREPETAG
1070
     1
1071
       19
1005
12ED05
  0
ARC
  5
12ED06
  8
OBJECT
 10
535.99999999987813
 20
-1123.999999999684
 30
0.0
 40
80.0
 50
140.8050325737787
 51
219.1949674262213
1001
ACDBBLOCKREPETAG
1070
     1
1071
       20
1005
12ED06
  0
LINE
  5
12ED07
  8
OBJECT
 10
473.99999999987801
 20
-1078.3381997723591
 30
0.0
 11
473.99999999987801
 21
-1043.999999999684
 31
0.0
1001
ACDBBLOCKREPETAG
1070
     1
1071
       21
1005
12ED07
  0
LINE
  5
12ED08
  8
OBJECT
 10
597.99999999987813
 20
-1061.999999999684
 30
0.0
 11
597.99999999987813
 21
-1043.999999999684
 31
0.0
1001
ACDBBLOCKREPETAG
1070
     1
1071
       22
1005
12ED08
  0
LINE
  5
12ED09
  8
OBJECT
 10
597.99999999987813
 20
-1061.999999999684
 30
0.0
 11
615.99999999987813
 21
-1061.999999999684
 31
0.0
1001
ACDBBLOCKREPETAG
1070
     1
1071
       24
1005
12ED09
  0
LINE
  5
12ED0A
  8
OBJECT
 10
597.99999999987813
 20
-1185.999999999683
 30
0.0
 11
615.99999999987813
 21
-1185.999999999683
 31
0.0
1001
ACDBBLOCKREPETAG
1070
     1
1071
       25
1005
12ED0A
  0
LINE
  5
12ED0B
  8
OBJECT
 10
597.99999999987813
 20
-1185.999999999683
 30
0.0
 11
597.99999999987813
 21
-1203.999999999683
 31
0.0
1001
ACDBBLOCKREPETAG
1070
     1
1071
       27
1005
12ED0B
  0
LINE
  5
12ED0C
  8
OBJECT
 10
473.99999999987801
 20
-1169.6618002270079
 30
0.0
 11
473.99999999987801
 21
-1203.999999999683
 31
0.0
1001
ACDBBLOCKREPETAG
1070
     1
1071
       28
1005
12ED0C
  0
LINE
  5
12ED0D
  8
OBJECT
 10
590.44722215124227
 20
-1178.447222151048
 30
0.0
 11
597.99999999987813
 21
-1185.999999999683
 31
0.0
1001
ACDBBLOCKREPETAG
1070
     1
1071
       37
1005
12ED0D
  0
LINE
  5
12ED0E
  8
OBJECT
 10
590.44722215124227
 20
-1069.552777848319
 30
0.0
 11
597.99999999987813
 21
-1061.999999999684
 31
0.0
1001
ACDBBLOCKREPETAG
1070
     1
1071
       38
1005
12ED0E
  0
ARC
  5
12ED0F
  8
OBJECT
 10
543.12893698272273
 20
-1147.4203046923681
 30
0.0
 40
60.031113246032611
 50
44.070201304183492
 51
52.339361060976579
1001
ACDBBLOCKREPETAG
1070
     1
1071
      131
1005
12ED0F
  0
LINE
  5
12ED10
  8
OBJECT
 10
579.8988850080608
 20
-1154.5800244443819
 30
0.0
 11
558.74629179036481
 21
-1144.2699479586629
 31
0.0
1001
ACDBBLOCKREPETAG
1070
     1
1071
      132
1005
12ED10
  0
LINE
  5
12ED11
  8
OBJECT
 10
576.71813901870621
 20
-1158.7027830990751
 30
0.0
 11
559.328622736748
 21
-1150.226884359869
 31
0.0
1001
ACDBBLOCKREPETAG
1070
     1
1071
      133
1005
12ED11
  0
LINE
  5
12ED12
  8
OBJECT
 10
579.8069471236721
 20
-1099.8970669064399
 30
0.0
 11
570.00999999987835
 21
-1099.8970669064399
 31
0.0
1001
ACDBBLOCKREPETAG
1070
     1
1071
      134
1005
12ED12
  0
LINE
  5
12ED13
  8
OBJECT
 10
570.00999999987835
 20
-1099.8970669064399
 30
0.0
 11
554.47122736638994
 21
-1137.41098254082
 31
0.0
1001
ACDBBLOCKREPETAG
1070
     1
1071
      135
1005
12ED13
  0
ARC
  5
12ED14
  8
OBJECT
 10
563.71002269150085
 20
-1141.237816864468
 30
0.0
 40
10.0
 50
157.5000000001636
 51
244.01473437020459
1001
ACDBBLOCKREPETAG
1070
     1
1071
      136
1005
12ED14
  0
ARC
  5
12ED15
  8
OBJECT
 10
561.81327182408836
 20
-1137.9776007437799
 30
0.0
 40
7.0
 50
157.5000000001636
 51
244.01473377496251
1001
ACDBBLOCKREPETAG
1070
     1
1071
      137
1005
12ED15
  0
CIRCLE
  5
12ED16
  8
OBJECT
 10
535.99999999987813
 20
-1123.999999999684
 30
0.0
 40
53.5
1001
ACDBBLOCKREPETAG
1070
     1
1071
      152
1005
12ED16
  0
POINT
  5
12ED17
  8
DOTS
 10
535.99999999987813
 20
-1123.999999999684
 30
0.0
1001
ACDBBLOCKREPETAG
1070
     1
1071
       39
1005
12ED17
  0
ARC
  5
12ED18
  8
OBJECT
 10
175.9999999999998
 20
-1123.999999999684
 30
0.0
 40
50.0
 50
28.819943000140022
 51
318.50208251184222
1001
ACDBBLOCKREPETAG
1070
     1
1071
       17
1005
12ED18
  0
CIRCLE
  5
12ED19
  8
OBJECT
 10
175.9999999999998
 20
-1123.999999999684
 30
0.0
 40
70.0
1001
ACDBBLOCKREPETAG
1070
     1
1071
       18
1005
12ED19
  0
CIRCLE
  5
12ED1A
  8
OBJECT
 10
175.9999999999998
 20
-1123.999999999684
 30
0.0
 40
77.0
1001
ACDBBLOCKREPETAG
1070
     1
1071
       19
1005
12ED1A
  0
ARC
  5
12ED1B
  8
OBJECT
 10
175.9999999999998
 20
-1123.999999999684
 30
0.0
 40
80.0
 50
140.80503257377961
 51
219.1949674262203
1001
ACDBBLOCKREPETAG
1070
     1
1071
       20
1005
12ED1B
  0
LINE
  5
12ED1C
  8
OBJECT
 10
113.9999999999998
 20
-1078.3381997723591
 30
0.0
 11
113.9999999999998
 21
-1043.999999999684
 31
0.0
1001
ACDBBLOCKREPETAG
1070
     1
1071
       21
1005
12ED1C
  0
LINE
  5
12ED1D
  8
OBJECT
 10
237.99999999999989
 20
-1061.999999999684
 30
0.0
 11
237.99999999999989
 21
-1043.999999999684
 31
0.0
1001
ACDBBLOCKREPETAG
1070
     1
1071
       22
1005
12ED1D
  0
LINE
  5
12ED1E
  8
OBJECT
 10
237.99999999999989
 20
-1061.999999999684
 30
0.0
 11
255.9999999999998
 21
-1061.999999999684
 31
0.0
1001
ACDBBLOCKREPETAG
1070
     1
1071
       24
1005
12ED1E
  0
LINE
  5
12ED1F
  8
OBJECT
 10
237.99999999999989
 20
-1185.999999999683
 30
0.0
 11
255.9999999999998
 21
-1185.999999999683
 31
0.0
1001
ACDBBLOCKREPETAG
1070
     1
1071
       25
1005
12ED1F
  0
LINE
  5
12ED20
  8
OBJECT
 10
237.99999999999989
 20
-1185.999999999683
 30
0.0
 11
237.99999999999989
 21
-1203.999999999683
 31
0.0
1001
ACDBBLOCKREPETAG
1070
     1
1071
       27
1005
12ED20
  0
LINE
  5
12ED21
  8
OBJECT
 10
113.9999999999998
 20
-1169.6618002270079
 30
0.0
 11
113.9999999999998
 21
-1203.999999999683
 31
0.0
1001
ACDBBLOCKREPETAG
1070
     1
1071
       28
1005
12ED21
  0
LINE
  5
12ED22
  8
OBJECT
 10
230.44722215136409
 20
-1178.447222151048
 30
0.0
 11
237.99999999999989
 21
-1185.999999999683
 31
0.0
1001
ACDBBLOCKREPETAG
1070
     1
1071
       37
1005
12ED22
  0
LINE
  5
12ED23
  8
OBJECT
 10
230.44722215136409
 20
-1069.552777848319
 30
0.0
 11
237.99999999999989
 21
-1061.999999999684
 31
0.0
1001
ACDBBLOCKREPETAG
1070
     1
1071
       38
1005
12ED23
  0
ARC
  5
12ED24
  8
OBJECT
 10
183.12893698284441
 20
-1147.4203046923681
 30
0.0
 40
60.031113246032611
 50
44.070201304185751
 51
52.339361060977858
1001
ACDBBLOCKREPETAG
1070
     1
1071
      131
1005
12ED24
  0
LINE
  5
12ED25
  8
OBJECT
 10
219.8988850081825
 20
-1154.5800244443819
 30
0.0
 11
198.74629179048651
 21
-1144.2699479586629
 31
0.0
1001
ACDBBLOCKREPETAG
1070
     1
1071
      132
1005
12ED25
  0
LINE
  5
12ED26
  8
OBJECT
 10
216.71813901882811
 20
-1158.7027830990751
 30
0.0
 11
199.3286227368697
 21
-1150.226884359869
 31
0.0
1001
ACDBBLOCKREPETAG
1070
     1
1071
      133
1005
12ED26
  0
LINE
  5
12ED27
  8
OBJECT
 10
219.80694712379389
 20
-1099.8970669064399
 30
0.0
 11
210.00999999999999
 21
-1099.8970669064399
 31
0.0
1001
ACDBBLOCKREPETAG
1070
     1
1071
      134
1005
12ED27
  0
LINE
  5
12ED28
  8
OBJECT
 10
210.00999999999999
 20
-1099.8970669064399
 30
0.0
 11
194.47122736651161
 21
-1137.41098254082
 31
0.0
1001
ACDBBLOCKREPETAG
1070
     1
1071
      135
1005
12ED28
  0
ARC
  5
12ED29
  8
OBJECT
 10
203.7100226916225
 20
-1141.237816864468
 30
0.0
 40
10.0
 50
157.5000000001636
 51
244.01473437020459
1001
ACDBBLOCKREPETAG
1070
     1
1071
      136
1005
12ED29
  0
ARC
  5
12ED2A
  8
OBJECT
 10
201.81327182421029
 20
-1137.9776007437799
 30
0.0
 40
7.0
 50
157.5000000001636
 51
244.01473377496541
1001
ACDBBLOCKREPETAG
1070
     1
1071
      137
1005
12ED2A
  0
CIRCLE
  5
12ED2B
  8
OBJECT
 10
175.9999999999998
 20
-1123.999999999684
 30
0.0
 40
53.5
1001
ACDBBLOCKREPETAG
1070
     1
1071
      152
1005
12ED2B
  0
POINT
  5
12ED2C
  8
DOTS
 10
175.9999999999998
 20
-1123.999999999684
 30
0.0
1001
ACDBBLOCKREPETAG
1070
     1
1071
       39
1005
12ED2C
  0
ARC
  5
12ED2D
  8
OBJECT
 10
535.99999999987813
 20
-659.99999999984175
 30
0.0
 40
50.0
 50
28.819943000140022
 51
318.50208251184222
1001
ACDBBLOCKREPETAG
1070
     1
1071
       17
1005
12ED2D
  0
CIRCLE
  5
12ED2E
  8
OBJECT
 10
535.99999999987813
 20
-659.99999999984175
 30
0.0
 40
70.0
1001
ACDBBLOCKREPETAG
1070
     1
1071
       18
1005
12ED2E
  0
CIRCLE
  5
12ED2F
  8
OBJECT
 10
535.99999999987813
 20
-659.99999999984175
 30
0.0
 40
77.0
1001
ACDBBLOCKREPETAG
1070
     1
1071
       19
1005
12ED2F
  0
ARC
  5
12ED30
  8
OBJECT
 10
535.99999999987813
 20
-659.99999999984175
 30
0.0
 40
80.0
 50
140.8050325737787
 51
219.1949674262213
1001
ACDBBLOCKREPETAG
1070
     1
1071
       20
1005
12ED30
  0
LINE
  5
12ED31
  8
OBJECT
 10
473.99999999987801
 20
-614.33819977251721
 30
0.0
 11
473.99999999987801
 21
-579.99999999984175
 31
0.0
1001
ACDBBLOCKREPETAG
1070
     1
1071
       21
1005
12ED31
  0
LINE
  5
12ED32
  8
OBJECT
 10
597.99999999987813
 20
-597.99999999984175
 30
0.0
 11
597.99999999987813
 21
-579.99999999984175
 31
0.0
1001
ACDBBLOCKREPETAG
1070
     1
1071
       22
1005
12ED32
  0
LINE
  5
12ED33
  8
OBJECT
 10
597.99999999987813
 20
-597.99999999984175
 30
0.0
 11
615.99999999987813
 21
-597.99999999984175
 31
0.0
1001
ACDBBLOCKREPETAG
1070
     1
1071
       24
1005
12ED33
  0
LINE
  5
12ED34
  8
OBJECT
 10
597.99999999987813
 20
-721.99999999984175
 30
0.0
 11
615.99999999987813
 21
-721.99999999984175
 31
0.0
1001
ACDBBLOCKREPETAG
1070
     1
1071
       25
1005
12ED34
  0
LINE
  5
12ED35
  8
OBJECT
 10
597.99999999987813
 20
-721.99999999984175
 30
0.0
 11
597.99999999987813
 21
-739.99999999984175
 31
0.0
1001
ACDBBLOCKREPETAG
1070
     1
1071
       27
1005
12ED35
  0
LINE
  5
12ED36
  8
OBJECT
 10
473.99999999987801
 20
-705.66180022716617
 30
0.0
 11
473.99999999987801
 21
-739.99999999984175
 31
0.0
1001
ACDBBLOCKREPETAG
1070
     1
1071
       28
1005
12ED36
  0
LINE
  5
12ED37
  8
OBJECT
 10
590.44722215124227
 20
-714.44722215120601
 30
0.0
 11
597.99999999987813
 21
-721.99999999984175
 31
0.0
1001
ACDBBLOCKREPETAG
1070
     1
1071
       37
1005
12ED37
  0
LINE
  5
12ED38
  8
OBJECT
 10
590.44722215124227
 20
-605.55277784847738
 30
0.0
 11
597.99999999987813
 21
-597.99999999984175
 31
0.0
1001
ACDBBLOCKREPETAG
1070
     1
1071
       38
1005
12ED38
  0
ARC
  5
12ED39
  8
OBJECT
 10
543.12893698272273
 20
-683.42030469252666
 30
0.0
 40
60.031113246032611
 50
44.070201304183492
 51
52.339361060976579
1001
ACDBBLOCKREPETAG
1070
     1
1071
      131
1005
12ED39
  0
LINE
  5
12ED3A
  8
OBJECT
 10
579.8988850080608
 20
-690.58002444453996
 30
0.0
 11
558.74629179036481
 21
-680.26994795882092
 31
0.0
1001
ACDBBLOCKREPETAG
1070
     1
1071
      132
1005
12ED3A
  0
LINE
  5
12ED3B
  8
OBJECT
 10
576.71813901870621
 20
-694.70278309923265
 30
0.0
 11
559.328622736748
 21
-686.22688436002682
 31
0.0
1001
ACDBBLOCKREPETAG
1070
     1
1071
      133
1005
12ED3B
  0
LINE
  5
12ED3C
  8
OBJECT
 10
579.8069471236721
 20
-635.89706690659841
 30
0.0
 11
570.00999999987835
 21
-635.89706690659841
 31
0.0
1001
ACDBBLOCKREPETAG
1070
     1
1071
      134
1005
12ED3C
  0
LINE
  5
12ED3D
  8
OBJECT
 10
570.00999999987835
 20
-635.89706690659841
 30
0.0
 11
554.47122736638994
 21
-673.41098254097767
 31
0.0
1001
ACDBBLOCKREPETAG
1070
     1
1071
      135
1005
12ED3D
  0
ARC
  5
12ED3E
  8
OBJECT
 10
563.71002269150085
 20
-677.23781686462644
 30
0.0
 40
10.0
 50
157.5000000001636
 51
244.01473437020459
1001
ACDBBLOCKREPETAG
1070
     1
1071
      136
1005
12ED3E
  0
ARC
  5
12ED3F
  8
OBJECT
 10
561.81327182408836
 20
-673.97760074393761
 30
0.0
 40
7.0
 50
157.5000000001636
 51
244.01473377496251
1001
ACDBBLOCKREPETAG
1070
     1
1071
      137
1005
12ED3F
  0
CIRCLE
  5
12ED40
  8
OBJECT
 10
535.99999999987813
 20
-659.99999999984175
 30
0.0
 40
53.5
1001
ACDBBLOCKREPETAG
1070
     1
1071
      152
1005
12ED40
  0
POINT
  5
12ED41
  8
DOTS
 10
535.99999999987813
 20
-659.99999999984175
 30
0.0
1001
ACDBBLOCKREPETAG
1070
     1
1071
       39
1005
12ED41
  0
ARC
  5
12ED42
  8
OBJECT
 10
175.99999999999989
 20
-659.99999999984175
 30
0.0
 40
50.0
 50
28.819943000140022
 51
318.50208251184222
1001
ACDBBLOCKREPETAG
1070
     1
1071
       17
1005
12ED42
  0
CIRCLE
  5
12ED43
  8
OBJECT
 10
175.99999999999989
 20
-659.99999999984175
 30
0.0
 40
70.0
1001
ACDBBLOCKREPETAG
1070
     1
1071
       18
1005
12ED43
  0
CIRCLE
  5
12ED44
  8
OBJECT
 10
175.99999999999989
 20
-659.99999999984175
 30
0.0
 40
77.0
1001
ACDBBLOCKREPETAG
1070
     1
1071
       19
1005
12ED44
  0
ARC
  5
12ED45
  8
OBJECT
 10
175.99999999999989
 20
-659.99999999984175
 30
0.0
 40
80.0
 50
140.80503257377961
 51
219.1949674262203
1001
ACDBBLOCKREPETAG
1070
     1
1071
       20
1005
12ED45
  0
LINE
  5
12ED46
  8
OBJECT
 10
113.9999999999999
 20
-614.33819977251721
 30
0.0
 11
113.9999999999999
 21
-579.99999999984175
 31
0.0
1001
ACDBBLOCKREPETAG
1070
     1
1071
       21
1005
12ED46
  0
LINE
  5
12ED47
  8
OBJECT
 10
237.99999999999989
 20
-597.99999999984175
 30
0.0
 11
237.99999999999989
 21
-579.99999999984175
 31
0.0
1001
ACDBBLOCKREPETAG
1070
     1
1071
       22
1005
12ED47
  0
LINE
  5
12ED48
  8
OBJECT
 10
237.99999999999989
 20
-597.99999999984175
 30
0.0
 11
256.0
 21
-597.99999999984175
 31
0.0
1001
ACDBBLOCKREPETAG
1070
     1
1071
       24
1005
12ED48
  0
LINE
  5
12ED49
  8
OBJECT
 10
237.99999999999989
 20
-721.99999999984175
 30
0.0
 11
256.0
 21
-721.99999999984175
 31
0.0
1001
ACDBBLOCKREPETAG
1070
     1
1071
       25
1005
12ED49
  0
LINE
  5
12ED4A
  8
OBJECT
 10
237.99999999999989
 20
-721.99999999984175
 30
0.0
 11
237.99999999999989
 21
-739.99999999984175
 31
0.0
1001
ACDBBLOCKREPETAG
1070
     1
1071
       27
1005
12ED4A
  0
LINE
  5
12ED4B
  8
OBJECT
 10
113.9999999999999
 20
-705.66180022716617
 30
0.0
 11
113.9999999999999
 21
-739.99999999984175
 31
0.0
1001
ACDBBLOCKREPETAG
1070
     1
1071
       28
1005
12ED4B
  0
LINE
  5
12ED4C
  8
OBJECT
 10
230.4472221513642
 20
-714.44722215120601
 30
0.0
 11
237.99999999999989
 21
-721.99999999984175
 31
0.0
1001
ACDBBLOCKREPETAG
1070
     1
1071
       37
1005
12ED4C
  0
LINE
  5
12ED4D
  8
OBJECT
 10
230.4472221513642
 20
-605.55277784847738
 30
0.0
 11
237.99999999999989
 21
-597.99999999984175
 31
0.0
1001
ACDBBLOCKREPETAG
1070
     1
1071
       38
1005
12ED4D
  0
ARC
  5
12ED4E
  8
OBJECT
 10
183.12893698284441
 20
-683.42030469252666
 30
0.0
 40
60.031113246032611
 50
44.070201304185751
 51
52.339361060977858
1001
ACDBBLOCKREPETAG
1070
     1
1071
      131
1005
12ED4E
  0
LINE
  5
12ED4F
  8
OBJECT
 10
219.89888500818259
 20
-690.58002444453996
 30
0.0
 11
198.74629179048671
 21
-680.26994795882092
 31
0.0
1001
ACDBBLOCKREPETAG
1070
     1
1071
      132
1005
12ED4F
  0
LINE
  5
12ED50
  8
OBJECT
 10
216.7181390188282
 20
-694.70278309923265
 30
0.0
 11
199.3286227368697
 21
-686.22688436002682
 31
0.0
1001
ACDBBLOCKREPETAG
1070
     1
1071
      133
1005
12ED50
  0
LINE
  5
12ED51
  8
OBJECT
 10
219.806947123794
 20
-635.89706690659841
 30
0.0
 11
210.01000000000019
 21
-635.89706690659841
 31
0.0
1001
ACDBBLOCKREPETAG
1070
     1
1071
      134
1005
12ED51
  0
LINE
  5
12ED52
  8
OBJECT
 10
210.01000000000019
 20
-635.89706690659841
 30
0.0
 11
194.4712273665117
 21
-673.41098254097767
 31
0.0
1001
ACDBBLOCKREPETAG
1070
     1
1071
      135
1005
12ED52
  0
ARC
  5
12ED53
  8
OBJECT
 10
203.7100226916227
 20
-677.23781686462644
 30
0.0
 40
10.0
 50
157.5000000001636
 51
244.01473437020459
1001
ACDBBLOCKREPETAG
1070
     1
1071
      136
1005
12ED53
  0
ARC
  5
12ED54
  8
OBJECT
 10
201.8132718242104
 20
-673.97760074393761
 30
0.0
 40
7.0
 50
157.5000000001636
 51
244.01473377496541
1001
ACDBBLOCKREPETAG
1070
     1
1071
      137
1005
12ED54
  0
CIRCLE
  5
12ED55
  8
OBJECT
 10
175.99999999999989
 20
-659.99999999984175
 30
0.0
 40
53.5
1001
ACDBBLOCKREPETAG
1070
     1
1071
      152
1005
12ED55
  0
POINT
  5
12ED56
  8
DOTS
 10
175.99999999999989
 20
-659.99999999984175
 30
0.0
1001
ACDBBLOCKREPETAG
1070
     1
1071
       39
1005
12ED56
  0
ARC
  5
12ED57
  8
OBJECT
 10
535.99999999987813
 20
-196.0
 30
0.0
 40
50.0
 50
28.819943000140022
 51
318.50208251184102
1001
ACDBBLOCKREPETAG
1070
     1
1071
       17
1005
12ED57
  0
CIRCLE
  5
12ED58
  8
OBJECT
 10
535.99999999987813
 20
-196.0
 30
0.0
 40
70.0
1001
ACDBBLOCKREPETAG
1070
     1
1071
       18
1005
12ED58
  0
CIRCLE
  5
12ED59
  8
OBJECT
 10
535.99999999987813
 20
-196.0
 30
0.0
 40
77.0
1001
ACDBBLOCKREPETAG
1070
     1
1071
       19
1005
12ED59
  0
ARC
  5
12ED5A
  8
OBJECT
 10
535.99999999987813
 20
-196.0
 30
0.0
 40
80.0
 50
140.80503257378001
 51
219.19496742621999
1001
ACDBBLOCKREPETAG
1070
     1
1071
       20
1005
12ED5A
  0
LINE
  5
12ED5B
  8
OBJECT
 10
473.99999999987801
 20
-150.33819977267541
 30
0.0
 11
473.99999999987801
 21
-116.0
 31
0.0
1001
ACDBBLOCKREPETAG
1070
     1
1071
       21
1005
12ED5B
  0
LINE
  5
12ED5C
  8
OBJECT
 10
597.99999999987813
 20
-134.0
 30
0.0
 11
597.99999999987813
 21
-116.0
 31
0.0
1001
ACDBBLOCKREPETAG
1070
     1
1071
       22
1005
12ED5C
  0
LINE
  5
12ED5D
  8
OBJECT
 10
597.99999999987813
 20
-134.0
 30
0.0
 11
615.99999999987813
 21
-134.0
 31
0.0
1001
ACDBBLOCKREPETAG
1070
     1
1071
       24
1005
12ED5D
  0
LINE
  5
12ED5E
  8
OBJECT
 10
597.99999999987813
 20
-258.0
 30
0.0
 11
615.99999999987813
 21
-258.0
 31
0.0
1001
ACDBBLOCKREPETAG
1070
     1
1071
       25
1005
12ED5E
  0
LINE
  5
12ED5F
  8
OBJECT
 10
597.99999999987813
 20
-258.0
 30
0.0
 11
597.99999999987813
 21
-276.0
 31
0.0
1001
ACDBBLOCKREPETAG
1070
     1
1071
       27
1005
12ED5F
  0
LINE
  5
12ED60
  8
OBJECT
 10
473.99999999987801
 20
-241.66180022732439
 30
0.0
 11
473.99999999987801
 21
-276.0
 31
0.0
1001
ACDBBLOCKREPETAG
1070
     1
1071
       28
1005
12ED60
  0
LINE
  5
12ED61
  8
OBJECT
 10
590.44722215124227
 20
-250.44722215136429
 30
0.0
 11
597.99999999987813
 21
-258.0
 31
0.0
1001
ACDBBLOCKREPETAG
1070
     1
1071
       37
1005
12ED61
  0
LINE
  5
12ED62
  8
OBJECT
 10
590.44722215124227
 20
-141.55277784863571
 30
0.0
 11
597.99999999987813
 21
-134.0
 31
0.0
1001
ACDBBLOCKREPETAG
1070
     1
1071
       38
1005
12ED62
  0
ARC
  5
12ED63
  8
OBJECT
 10
543.12893698272273
 20
-219.42030469268499
 30
0.0
 40
60.031113246032611
 50
44.07020130418465
 51
52.339361060977581
1001
ACDBBLOCKREPETAG
1070
     1
1071
      131
1005
12ED63
  0
LINE
  5
12ED64
  8
OBJECT
 10
579.8988850080608
 20
-226.58002444469849
 30
0.0
 11
558.74629179036481
 21
-216.2699479589792
 31
0.0
1001
ACDBBLOCKREPETAG
1070
     1
1071
      132
1005
12ED64
  0
LINE
  5
12ED65
  8
OBJECT
 10
576.71813901870621
 20
-230.70278309939101
 30
0.0
 11
559.328622736748
 21
-222.2268843601851
 31
0.0
1001
ACDBBLOCKREPETAG
1070
     1
1071
      133
1005
12ED65
  0
LINE
  5
12ED66
  8
OBJECT
 10
579.8069471236721
 20
-171.89706690675661
 30
0.0
 11
570.00999999987835
 21
-171.89706690675661
 31
0.0
1001
ACDBBLOCKREPETAG
1070
     1
1071
      134
1005
12ED66
  0
LINE
  5
12ED67
  8
OBJECT
 10
570.00999999987835
 20
-171.89706690675661
 30
0.0
 11
554.47122736638994
 21
-209.41098254113609
 31
0.0
1001
ACDBBLOCKREPETAG
1070
     1
1071
      135
1005
12ED67
  0
ARC
  5
12ED68
  8
OBJECT
 10
563.71002269150085
 20
-213.23781686478469
 30
0.0
 40
10.0
 50
157.5000000001651
 51
244.01473437020459
1001
ACDBBLOCKREPETAG
1070
     1
1071
      136
1005
12ED68
  0
ARC
  5
12ED69
  8
OBJECT
 10
561.81327182408836
 20
-209.97760074409601
 30
0.0
 40
7.0
 50
157.5000000001651
 51
244.01473377496251
1001
ACDBBLOCKREPETAG
1070
     1
1071
      137
1005
12ED69
  0
CIRCLE
  5
12ED6A
  8
OBJECT
 10
535.99999999987813
 20
-196.0
 30
0.0
 40
53.5
1001
ACDBBLOCKREPETAG
1070
     1
1071
      152
1005
12ED6A
  0
POINT
  5
12ED6B
  8
DOTS
 10
535.99999999987813
 20
-196.0
 30
0.0
1001
ACDBBLOCKREPETAG
1070
     1
1071
       39
1005
12ED6B
  0
ARC
  5
12ED6C
  8
OBJECT
 10
176.0
 20
-196.0
 30
0.0
 40
50.0
 50
28.819943000140022
 51
318.50208251184102
1001
ACDBBLOCKREPETAG
1070
     1
1071
       17
1005
12ED6C
  0
CIRCLE
  5
12ED6D
  8
OBJECT
 10
176.0
 20
-196.0
 30
0.0
 40
70.0
1001
ACDBBLOCKREPETAG
1070
     1
1071
       18
1005
12ED6D
  0
CIRCLE
  5
12ED6E
  8
OBJECT
 10
176.0
 20
-196.0
 30
0.0
 40
77.0
1001
ACDBBLOCKREPETAG
1070
     1
1071
       19
1005
12ED6E
  0
ARC
  5
12ED6F
  8
OBJECT
 10
176.0
 20
-196.0
 30
0.0
 40
80.0
 50
140.80503257378101
 51
219.19496742621899
1001
ACDBBLOCKREPETAG
1070
     1
1071
       20
1005
12ED6F
  0
LINE
  5
12ED70
  8
OBJECT
 10
114.0
 20
-150.33819977267541
 30
0.0
 11
114.0
 21
-116.0
 31
0.0
1001
ACDBBLOCKREPETAG
1070
     1
1071
       21
1005
12ED70
  0
LINE
  5
12ED71
  8
OBJECT
 10
238.0
 20
-134.0
 30
0.0
 11
238.0
 21
-116.0
 31
0.0
1001
ACDBBLOCKREPETAG
1070
     1
1071
       22
1005
12ED71
  0
LINE
  5
12ED72
  8
OBJECT
 10
238.0
 20
-134.0
 30
0.0
 11
256.0
 21
-134.0
 31
0.0
1001
ACDBBLOCKREPETAG
1070
     1
1071
       24
1005
12ED72
  0
LINE
  5
12ED73
  8
OBJECT
 10
238.0
 20
-258.0
 30
0.0
 11
256.0
 21
-258.0
 31
0.0
1001
ACDBBLOCKREPETAG
1070
     1
1071
       25
1005
12ED73
  0
LINE
  5
12ED74
  8
OBJECT
 10
238.0
 20
-258.0
 30
0.0
 11
238.0
 21
-276.0
 31
0.0
1001
ACDBBLOCKREPETAG
1070
     1
1071
       27
1005
12ED74
  0
LINE
  5
12ED75
  8
OBJECT
 10
114.0
 20
-241.66180022732439
 30
0.0
 11
114.0
 21
-276.0
 31
0.0
1001
ACDBBLOCKREPETAG
1070
     1
1071
       28
1005
12ED75
  0
LINE
  5
12ED76
  8
OBJECT
 10
230.44722215136429
 20
-250.44722215136429
 30
0.0
 11
238.0
 21
-258.0
 31
0.0
1001
ACDBBLOCKREPETAG
1070
     1
1071
       37
1005
12ED76
  0
LINE
  5
12ED77
  8
OBJECT
 10
230.44722215136429
 20
-141.55277784863571
 30
0.0
 11
238.0
 21
-134.0
 31
0.0
1001
ACDBBLOCKREPETAG
1070
     1
1071
       38
1005
12ED77
  0
ARC
  5
12ED78
  8
OBJECT
 10
183.12893698284461
 20
-219.42030469268499
 30
0.0
 40
60.031113246032611
 50
44.070201304186917
 51
52.339361060978852
1001
ACDBBLOCKREPETAG
1070
     1
1071
      131
1005
12ED78
  0
LINE
  5
12ED79
  8
OBJECT
 10
219.8988850081827
 20
-226.58002444469849
 30
0.0
 11
198.74629179048679
 21
-216.2699479589792
 31
0.0
1001
ACDBBLOCKREPETAG
1070
     1
1071
      132
1005
12ED79
  0
LINE
  5
12ED7A
  8
OBJECT
 10
216.7181390188282
 20
-230.70278309939101
 30
0.0
 11
199.3286227368699
 21
-222.2268843601851
 31
0.0
1001
ACDBBLOCKREPETAG
1070
     1
1071
      133
1005
12ED7A
  0
LINE
  5
12ED7B
  8
OBJECT
 10
219.80694712379409
 20
-171.89706690675661
 30
0.0
 11
210.01000000000019
 21
-171.89706690675661
 31
0.0
1001
ACDBBLOCKREPETAG
1070
     1
1071
      134
1005
12ED7B
  0
LINE
  5
12ED7C
  8
OBJECT
 10
210.01000000000019
 20
-171.89706690675661
 30
0.0
 11
194.47122736651181
 21
-209.41098254113609
 31
0.0
1001
ACDBBLOCKREPETAG
1070
     1
1071
      135
1005
12ED7C
  0
ARC
  5
12ED7D
  8
OBJECT
 10
203.7100226916227
 20
-213.23781686478469
 30
0.0
 40
10.0
 50
157.5000000001651
 51
244.01473437020459
1001
ACDBBLOCKREPETAG
1070
     1
1071
      136
1005
12ED7D
  0
ARC
  5
12ED7E
  8
OBJECT
 10
201.8132718242104
 20
-209.97760074409601
 30
0.0
 40
7.0
 50
157.5000000001651
 51
244.01473377496541
1001
ACDBBLOCKREPETAG
1070
     1
1071
      137
1005
12ED7E
  0
CIRCLE
  5
12ED7F
  8
OBJECT
 10
176.0
 20
-196.0
 30
0.0
 40
53.5
1001
ACDBBLOCKREPETAG
1070
     1
1071
      152
1005
12ED7F
  0
POINT
  5
12ED80
  8
DOTS
 10
176.0
 20
-196.0
 30
0.0
1001
ACDBBLOCKREPETAG
1070
     1
1071
       39
1005
12ED80
  0
LINE
  5
12ED81
  8
OBJECT
 10
5923.0
 20
-570.99999999999432
 30
0.0
 11
5923.0
 21
-549.99999999999432
 31
0.0
1001
ACDBBLOCKREPETAG
1070
     1
1071
       36
1005
12ED81
  0
LINE
  5
12ED82
  8
OBJECT
 10
5923.0
 20
-549.99999999999432
 30
0.0
 11
6077.0
 21
-549.99999999999432
 31
0.0
1001
ACDBBLOCKREPETAG
1070
     1
1071
       37
1005
12ED82
  0
LINE
  5
12ED83
  8
HIDDEN
 10
5943.0
 20
-619.99999999999432
 30
0.0
 11
6057.0
 21
-619.99999999999432
 31
0.0
1001
ACDBBLOCKREPETAG
1070
     1
1071
       38
1005
12ED83
  0
LINE
  5
12ED84
  8
OBJECT
 10
6077.0
 20
-549.99999999999432
 30
0.0
 11
6077.0
 21
-570.99999999999432
 31
0.0
1001
ACDBBLOCKREPETAG
1070
     1
1071
       39
1005
12ED84
  0
LINE
  5
12ED85
  8
OBJECT
 10
6077.0
 20
-570.99999999999432
 30
0.0
 11
5923.0
 21
-570.99999999999432
 31
0.0
1001
ACDBBLOCKREPETAG
1070
     1
1071
       40
1005
12ED85
  0
LINE
  5
12ED86
  8
CENTER
 10
6000.0
 20
-534.99999999999432
 30
0.0
 11
6000.0
 21
-769.9999999999942
 31
0.0
1001
ACDBBLOCKREPETAG
1070
     1
1071
       41
1005
12ED86
  0
LINE
  5
12ED87
  8
OBJECT
 10
5928.0
 20
-570.99999999999432
 30
0.0
 11
5928.0
 21
-633.99999999999432
 31
0.0
1001
ACDBBLOCKREPETAG
1070
     1
1071
       42
1005
12ED87
  0
LINE
  5
12ED88
  8
OBJECT
 10
6072.0
 20
-633.99999999999432
 30
0.0
 11
6072.0
 21
-570.99999999999432
 31
0.0
1001
ACDBBLOCKREPETAG
1070
     1
1071
       43
1005
12ED88
  0
LINE
  5
12ED89
  8
OBJECT
 10
5920.0
 20
-757.9999999999942
 30
0.0
 11
6080.0
 21
-757.9999999999942
 31
0.0
1001
ACDBBLOCKREPETAG
1070
     1
1071
       44
1005
12ED89
  0
LINE
  5
12ED8A
  8
OBJECT
 10
6080.0
 20
-633.99999999999432
 30
0.0
 11
5920.0
 21
-633.99999999999432
 31
0.0
1001
ACDBBLOCKREPETAG
1070
     1
1071
       45
1005
12ED8A
  0
LINE
  5
12ED8B
  8
OBJECT
 10
5920.0
 20
-757.9999999999942
 30
0.0
 11
5920.0
 21
-769.9999999999942
 31
0.0
1001
ACDBBLOCKREPETAG
1070
     1
1071
       46
1005
12ED8B
  0
LINE
  5
12ED8C
  8
OBJECT
 10
5920.0
 20
-769.9999999999942
 30
0.0
 11
6080.0
 21
-769.9999999999942
 31
0.0
1001
ACDBBLOCKREPETAG
1070
     1
1071
       47
1005
12ED8C
  0
LINE
  5
12ED8D
  8
OBJECT
 10
6080.0
 20
-769.9999999999942
 30
0.0
 11
6080.0
 21
-757.9999999999942
 31
0.0
1001
ACDBBLOCKREPETAG
1070
     1
1071
       48
1005
12ED8D
  0
ARC
  5
12ED8E
  8
OBJECT
 10
6200.6872746716735
 20
-749.40809941010195
 30
0.0
 40
170.6350503965856
 50
137.44134459184301
 51
149.91949581337221
1001
ACDBBLOCKREPETAG
1070
     1
1071
       52
1005
12ED8E
  0
ARC
  5
12ED8F
  8
OBJECT
 10
6200.6872746716735
 20
-642.59190058988645
 30
0.0
 40
170.6350503965856
 50
210.08050418662771
 51
222.55865540815699
1001
ACDBBLOCKREPETAG
1070
     1
1071
       53
1005
12ED8F
  0
ARC
  5
12ED90
  8
OBJECT
 10
5799.3127253283274
 20
-749.40809941010195
 30
0.0
 40
170.6350503965856
 50
30.080504186787142
 51
42.558655408456282
1001
ACDBBLOCKREPETAG
1070
     1
1071
       54
1005
12ED90
  0
ARC
  5
12ED91
  8
OBJECT
 10
5799.3127253283274
 20
-642.59190058988645
 30
0.0
 40
170.6350503965856
 50
317.44134459154373
 51
329.9194958132129
1001
ACDBBLOCKREPETAG
1070
     1
1071
       55
1005
12ED91
  0
POINT
  5
12ED92
  8
DOTS
 10
6000.0
 20
-754.9999999999942
 30
0.0
1001
ACDBBLOCKREPETAG
1070
     1
1071
      184
1005
12ED92
  0
LINE
  5
12ED93
  8
OBJECT
 10
5867.0
 20
-261.99999999999909
 30
0.0
 11
5860.0
 21
-261.99999999999909
 31
0.0
1001
ACDBBLOCKREPETAG
1070
     1
1071
       47
1005
12ED93
  0
LINE
  5
12ED94
  8
OBJECT
 10
5860.0
 20
-261.99999999999909
 30
0.0
 11
5860.0
 21
-137.99999999999909
 31
0.0
1001
ACDBBLOCKREPETAG
1070
     1
1071
       48
1005
12ED94
  0
LINE
  5
12ED95
  8
OBJECT
 10
5860.0
 20
-137.99999999999909
 30
0.0
 11
5867.0
 21
-137.99999999999909
 31
0.0
1001
ACDBBLOCKREPETAG
1070
     1
1071
       49
1005
12ED95
  0
LINE
  5
12ED96
  8
OBJECT
 10
5867.0
 20
-137.99999999999909
 30
0.0
 11
5867.0
 21
-261.99999999999909
 31
0.0
1001
ACDBBLOCKREPETAG
1070
     1
1071
       50
1005
12ED96
  0
LINE
  5
12ED97
  8
CENTER
 10
5845.0
 20
-199.99999999999909
 30
0.0
 11
5920.0
 21
-199.99999999999909
 31
0.0
1001
ACDBBLOCKREPETAG
1070
     1
1071
       51
1005
12ED97
  0
LINE
  5
12ED98
  8
OBJECT
 10
5867.0
 20
-258.99999999999909
 30
0.0
 11
5903.0
 21
-258.99999999999909
 31
0.0
1001
ACDBBLOCKREPETAG
1070
     1
1071
       52
1005
12ED98
  0
LINE
  5
12ED99
  8
OBJECT
 10
5903.0
 20
-258.99999999999909
 30
0.0
 11
5903.0
 21
-140.99999999999909
 31
0.0
1001
ACDBBLOCKREPETAG
1070
     1
1071
       53
1005
12ED99
  0
LINE
  5
12ED9A
  8
OBJECT
 10
5903.0
 20
-140.99999999999909
 30
0.0
 11
5867.0
 21
-140.99999999999909
 31
0.0
1001
ACDBBLOCKREPETAG
1070
     1
1071
       54
1005
12ED9A
  0
LINE
  5
12ED9B
  8
OBJECT
 10
5907.0
 20
-254.49999999999909
 30
0.0
 11
5914.0
 21
-254.49999999999909
 31
0.0
1001
ACDBBLOCKREPETAG
1070
     1
1071
       55
1005
12ED9B
  0
LINE
  5
12ED9C
  8
OBJECT
 10
5914.0
 20
-145.49999999999909
 30
0.0
 11
5907.0
 21
-145.49999999999909
 31
0.0
1001
ACDBBLOCKREPETAG
1070
     1
1071
       56
1005
12ED9C
  0
LINE
  5
12ED9D
  8
OBJECT
 10
5907.0
 20
-145.49999999999909
 30
0.0
 11
5907.0
 21
-254.49999999999909
 31
0.0
1001
ACDBBLOCKREPETAG
1070
     1
1071
       57
1005
12ED9D
  0
LINE
  5
12ED9E
  8
OBJECT
 10
5903.0
 20
-258.99999999999909
 30
0.0
 11
5907.0
 21
-254.49999999999909
 31
0.0
1001
ACDBBLOCKREPETAG
1070
     1
1071
       58
1005
12ED9E
  0
LINE
  5
12ED9F
  8
OBJECT
 10
5903.0
 20
-140.99999999999909
 30
0.0
 11
5907.0
 21
-145.49999999999909
 31
0.0
1001
ACDBBLOCKREPETAG
1070
     1
1071
       59
1005
12ED9F
  0
LINE
  5
12EDA0
  8
OBJECT
 10
5917.0
 20
-261.99999999999909
 30
0.0
 11
5920.0
 21
-261.99999999999909
 31
0.0
1001
ACDBBLOCKREPETAG
1070
     1
1071
       60
1005
12EDA0
  0
ARC
  5
12EDA1
  8
OBJECT
 10
5917.0
 20
-258.99999999999909
 30
0.0
 40
3.0
 50
180.0
 51
270.0
1001
ACDBBLOCKREPETAG
1070
     1
1071
       61
1005
12EDA1
  0
LINE
  5
12EDA2
  8
OBJECT
 10
5920.0
 20
-137.99999999999909
 30
0.0
 11
5917.0
 21
-137.99999999999909
 31
0.0
1001
ACDBBLOCKREPETAG
1070
     1
1071
       62
1005
12EDA2
  0
ARC
  5
12EDA3
  8
OBJECT
 10
5917.0
 20
-140.99999999999909
 30
0.0
 40
3.0
 50
90.0
 51
180.0
1001
ACDBBLOCKREPETAG
1070
     1
1071
       63
1005
12EDA3
  0
LINE
  5
12EDA4
  8
OBJECT
 10
5914.0
 20
-140.99999999999909
 30
0.0
 11
5914.0
 21
-258.99999999999909
 31
0.0
1001
ACDBBLOCKREPETAG
1070
     1
1071
       64
1005
12EDA4
  0
LINE
  5
12EDA5
  8
HIDDEN
 10
5912.0
 20
-244.49999999999909
 30
0.0
 11
5912.0
 21
-155.49999999999909
 31
0.0
1001
ACDBBLOCKREPETAG
1070
     1
1071
       65
1005
12EDA5
  0
LINE
  5
12EDA6
  8
CENTER
 10
6000.0
 20
-300.99999999999898
 30
0.0
 11
6000.0
 21
-279.99999999999909
 31
0.0
1001
ACDBBLOCKREPETAG
1070
     1
1071
        0
1005
12EDA6
  0
LINE
  5
12EDA7
  8
OBJECT
 10
6062.0
 20
-283.0
 30
0.0
 11
6062.0
 21
-279.99999999999909
 31
0.0
1001
ACDBBLOCKREPETAG
1070
     1
1071
        1
1005
12EDA7
  0
ARC
  5
12EDA8
  8
OBJECT
 10
6059.0
 20
-283.0
 30
0.0
 40
3.0
 50
270.0
 51
0.0
1001
ACDBBLOCKREPETAG
1070
     1
1071
        2
1005
12EDA8
  0
LINE
  5
12EDA9
  8
OBJECT
 10
5938.0
 20
-279.99999999999909
 30
0.0
 11
5938.0
 21
-282.99999999999818
 31
0.0
1001
ACDBBLOCKREPETAG
1070
     1
1071
        3
1005
12EDA9
  0
ARC
  5
12EDAA
  8
OBJECT
 10
5941.0
 20
-282.99999999999818
 30
0.0
 40
3.0
 50
180.0
 51
270.0
1001
ACDBBLOCKREPETAG
1070
     1
1071
        4
1005
12EDAA
  0
LINE
  5
12EDAB
  8
OBJECT
 10
5941.0
 20
-285.99999999999818
 30
0.0
 11
6059.0
 21
-286.0
 31
0.0
1001
ACDBBLOCKREPETAG
1070
     1
1071
        5
1005
12EDAB
  0
LINE
  5
12EDAC
  8
OBJECT
 10
6133.0
 20
-137.99999999999909
 30
0.0
 11
6140.0
 21
-137.99999999999909
 31
0.0
1001
ACDBBLOCKREPETAG
1070
     1
1071
       47
1005
12EDAC
  0
LINE
  5
12EDAD
  8
OBJECT
 10
6140.0
 20
-137.99999999999909
 30
0.0
 11
6140.0
 21
-261.99999999999909
 31
0.0
1001
ACDBBLOCKREPETAG
1070
     1
1071
       48
1005
12EDAD
  0
LINE
  5
12EDAE
  8
OBJECT
 10
6140.0
 20
-261.99999999999909
 30
0.0
 11
6133.0
 21
-261.99999999999909
 31
0.0
1001
ACDBBLOCKREPETAG
1070
     1
1071
       49
1005
12EDAE
  0
LINE
  5
12EDAF
  8
OBJECT
 10
6133.0
 20
-261.99999999999909
 30
0.0
 11
6133.0
 21
-137.99999999999909
 31
0.0
1001
ACDBBLOCKREPETAG
1070
     1
1071
       50
1005
12EDAF
  0
LINE
  5
12EDB0
  8
CENTER
 10
6155.0
 20
-199.99999999999909
 30
0.0
 11
6080.0
 21
-199.99999999999909
 31
0.0
1001
ACDBBLOCKREPETAG
1070
     1
1071
       51
1005
12EDB0
  0
LINE
  5
12EDB1
  8
OBJECT
 10
6133.0
 20
-140.99999999999909
 30
0.0
 11
6097.0
 21
-140.99999999999909
 31
0.0
1001
ACDBBLOCKREPETAG
1070
     1
1071
       52
1005
12EDB1
  0
LINE
  5
12EDB2
  8
OBJECT
 10
6097.0
 20
-140.99999999999909
 30
0.0
 11
6097.0
 21
-258.99999999999909
 31
0.0
1001
ACDBBLOCKREPETAG
1070
     1
1071
       53
1005
12EDB2
  0
LINE
  5
12EDB3
  8
OBJECT
 10
6097.0
 20
-258.99999999999909
 30
0.0
 11
6133.0
 21
-258.99999999999909
 31
0.0
1001
ACDBBLOCKREPETAG
1070
     1
1071
       54
1005
12EDB3
  0
LINE
  5
12EDB4
  8
OBJECT
 10
6093.0
 20
-145.49999999999909
 30
0.0
 11
6086.0
 21
-145.49999999999909
 31
0.0
1001
ACDBBLOCKREPETAG
1070
     1
1071
       55
1005
12EDB4
  0
LINE
  5
12EDB5
  8
OBJECT
 10
6086.0
 20
-254.49999999999909
 30
0.0
 11
6093.0
 21
-254.49999999999909
 31
0.0
1001
ACDBBLOCKREPETAG
1070
     1
1071
       56
1005
12EDB5
  0
LINE
  5
12EDB6
  8
OBJECT
 10
6093.0
 20
-254.49999999999909
 30
0.0
 11
6093.0
 21
-145.49999999999909
 31
0.0
1001
ACDBBLOCKREPETAG
1070
     1
1071
       57
1005
12EDB6
  0
LINE
  5
12EDB7
  8
OBJECT
 10
6097.0
 20
-140.99999999999909
 30
0.0
 11
6093.0
 21
-145.49999999999909
 31
0.0
1001
ACDBBLOCKREPETAG
1070
     1
1071
       58
1005
12EDB7
  0
LINE
  5
12EDB8
  8
OBJECT
 10
6097.0
 20
-258.99999999999909
 30
0.0
 11
6093.0
 21
-254.49999999999909
 31
0.0
1001
ACDBBLOCKREPETAG
1070
     1
1071
       59
1005
12EDB8
  0
LINE
  5
12EDB9
  8
OBJECT
 10
6083.0
 20
-137.99999999999909
 30
0.0
 11
6080.0
 21
-137.99999999999909
 31
0.0
1001
ACDBBLOCKREPETAG
1070
     1
1071
       60
1005
12EDB9
  0
ARC
  5
12EDBA
  8
OBJECT
 10
6083.0
 20
-140.99999999999909
 30
0.0
 40
3.0
 50
0.0
 51
90.0
1001
ACDBBLOCKREPETAG
1070
     1
1071
       61
1005
12EDBA
  0
LINE
  5
12EDBB
  8
OBJECT
 10
6080.0
 20
-261.99999999999909
 30
0.0
 11
6083.0
 21
-261.99999999999909
 31
0.0
1001
ACDBBLOCKREPETAG
1070
     1
1071
       62
1005
12EDBB
  0
ARC
  5
12EDBC
  8
OBJECT
 10
6083.0
 20
-258.99999999999909
 30
0.0
 40
3.0
 50
270.0
 51
0.0
1001
ACDBBLOCKREPETAG
1070
     1
1071
       63
1005
12EDBC
  0
LINE
  5
12EDBD
  8
OBJECT
 10
6086.0
 20
-258.99999999999909
 30
0.0
 11
6086.0
 21
-140.99999999999909
 31
0.0
1001
ACDBBLOCKREPETAG
1070
     1
1071
       64
1005
12EDBD
  0
LINE
  5
12EDBE
  8
HIDDEN
 10
6088.0
 20
-155.49999999999909
 30
0.0
 11
6088.0
 21
-244.49999999999909
 31
0.0
1001
ACDBBLOCKREPETAG
1070
     1
1071
       65
1005
12EDBE
  0
LINE
  5
12EDBF
  8
OBJECT
 10
5867.0
 20
-634.0
 30
0.0
 11
5860.0
 21
-634.0
 31
0.0
1001
ACDBBLOCKREPETAG
1070
     1
1071
       45
1005
12EDBF
  0
LINE
  5
12EDC0
  8
OBJECT
 10
5860.0
 20
-634.0
 30
0.0
 11
5860.0
 21
-755.0
 31
0.0
1001
ACDBBLOCKREPETAG
1070
     1
1071
       46
1005
12EDC0
  0
LINE
  5
12EDC1
  8
OBJECT
 10
5867.0
 20
-755.0
 30
0.0
 11
5867.0
 21
-634.0
 31
0.0
1001
ACDBBLOCKREPETAG
1070
     1
1071
       47
1005
12EDC1
  0
LINE
  5
12EDC2
  8
CENTER
 10
5845.0
 20
-696.0
 30
0.0
 11
5929.0
 21
-696.0
 31
0.0
1001
ACDBBLOCKREPETAG
1070
     1
1071
       48
1005
12EDC2
  0
LINE
  5
12EDC3
  8
OBJECT
 10
5867.0
 20
-637.0
 30
0.0
 11
5903.0
 21
-637.0
 31
0.0
1001
ACDBBLOCKREPETAG
1070
     1
1071
       49
1005
12EDC3
  0
LINE
  5
12EDC4
  8
OBJECT
 10
5903.0
 20
-637.0
 30
0.0
 11
5903.0
 21
-755.0
 31
0.0
1001
ACDBBLOCKREPETAG
1070
     1
1071
       50
1005
12EDC4
  0
LINE
  5
12EDC5
  8
OBJECT
 10
5903.0
 20
-755.0
 30
0.0
 11
5860.0
 21
-755.0
 31
0.0
1001
ACDBBLOCKREPETAG
1070
     1
1071
       51
1005
12EDC5
  0
LINE
  5
12EDC6
  8
OBJECT
 10
5907.0
 20
-641.5
 30
0.0
 11
5914.0
 21
-641.5
 31
0.0
1001
ACDBBLOCKREPETAG
1070
     1
1071
       52
1005
12EDC6
  0
LINE
  5
12EDC7
  8
OBJECT
 10
5914.0
 20
-750.49999999999989
 30
0.0
 11
5907.0
 21
-750.49999999999989
 31
0.0
1001
ACDBBLOCKREPETAG
1070
     1
1071
       53
1005
12EDC7
  0
LINE
  5
12EDC8
  8
OBJECT
 10
5907.0
 20
-750.49999999999989
 30
0.0
 11
5907.0
 21
-641.5
 31
0.0
1001
ACDBBLOCKREPETAG
1070
     1
1071
       54
1005
12EDC8
  0
LINE
  5
12EDC9
  8
OBJECT
 10
5903.0
 20
-637.0
 30
0.0
 11
5907.0
 21
-641.5
 31
0.0
1001
ACDBBLOCKREPETAG
1070
     1
1071
       55
1005
12EDC9
  0
LINE
  5
12EDCA
  8
OBJECT
 10
5903.0
 20
-755.0
 30
0.0
 11
5907.0
 21
-750.49999999999989
 31
0.0
1001
ACDBBLOCKREPETAG
1070
     1
1071
       56
1005
12EDCA
  0
LINE
  5
12EDCB
  8
OBJECT
 10
5917.0
 20
-634.0
 30
0.0
 11
5920.0
 21
-634.0
 31
0.0
1001
ACDBBLOCKREPETAG
1070
     1
1071
       57
1005
12EDCB
  0
ARC
  5
12EDCC
  8
OBJECT
 10
5917.0
 20
-637.0
 30
0.0
 40
3.0
 50
90.0
 51
180.0
1001
ACDBBLOCKREPETAG
1070
     1
1071
       58
1005
12EDCC
  0
LINE
  5
12EDCD
  8
OBJECT
 10
5920.0
 20
-758.0
 30
0.0
 11
5917.0
 21
-758.0
 31
0.0
1001
ACDBBLOCKREPETAG
1070
     1
1071
       59
1005
12EDCD
  0
ARC
  5
12EDCE
  8
OBJECT
 10
5917.0
 20
-755.0
 30
0.0
 40
3.0
 50
180.0
 51
270.0
1001
ACDBBLOCKREPETAG
1070
     1
1071
       60
1005
12EDCE
  0
LINE
  5
12EDCF
  8
OBJECT
 10
5914.0
 20
-755.0
 30
0.0
 11
5914.0
 21
-637.0
 31
0.0
1001
ACDBBLOCKREPETAG
1070
     1
1071
       61
1005
12EDCF
  0
LINE
  5
12EDD0
  8
HIDDEN
 10
5912.0
 20
-651.5
 30
0.0
 11
5912.0
 21
-740.5
 31
0.0
1001
ACDBBLOCKREPETAG
1070
     1
1071
       63
1005
12EDD0
  0
CIRCLE
  5
12EDD1
  8
OBJECT
 10
6000.0
 20
-696.0
 30
0.0
 40
62.0
1001
ACDBBLOCKREPETAG
1070
     1
1071
        0
1005
12EDD1
  0
LINE
  5
12EDD2
  8
OBJECT
 10
6133.0
 20
-634.0
 30
0.0
 11
6140.0
 21
-634.0
 31
0.0
1001
ACDBBLOCKREPETAG
1070
     1
1071
       45
1005
12EDD2
  0
LINE
  5
12EDD3
  8
OBJECT
 10
6140.0
 20
-634.0
 30
0.0
 11
6140.0
 21
-755.0
 31
0.0
1001
ACDBBLOCKREPETAG
1070
     1
1071
       46
1005
12EDD3
  0
LINE
  5
12EDD4
  8
OBJECT
 10
6133.0
 20
-755.0
 30
0.0
 11
6133.0
 21
-634.0
 31
0.0
1001
ACDBBLOCKREPETAG
1070
     1
1071
       47
1005
12EDD4
  0
LINE
  5
12EDD5
  8
CENTER
 10
6155.0
 20
-696.0
 30
0.0
 11
6071.0
 21
-696.0
 31
0.0
1001
ACDBBLOCKREPETAG
1070
     1
1071
       48
1005
12EDD5
  0
LINE
  5
12EDD6
  8
OBJECT
 10
6133.0
 20
-637.0
 30
0.0
 11
6097.0
 21
-637.0
 31
0.0
1001
ACDBBLOCKREPETAG
1070
     1
1071
       49
1005
12EDD6
  0
LINE
  5
12EDD7
  8
OBJECT
 10
6097.0
 20
-637.0
 30
0.0
 11
6097.0
 21
-755.0
 31
0.0
1001
ACDBBLOCKREPETAG
1070
     1
1071
       50
1005
12EDD7
  0
LINE
  5
12EDD8
  8
OBJECT
 10
6097.0
 20
-755.0
 30
0.0
 11
6140.0
 21
-755.0
 31
0.0
1001
ACDBBLOCKREPETAG
1070
     1
1071
       51
1005
12EDD8
  0
LINE
  5
12EDD9
  8
OBJECT
 10
6093.0
 20
-641.5
 30
0.0
 11
6086.0
 21
-641.5
 31
0.0
1001
ACDBBLOCKREPETAG
1070
     1
1071
       52
1005
12EDD9
  0
LINE
  5
12EDDA
  8
OBJECT
 10
6086.0
 20
-750.49999999999989
 30
0.0
 11
6093.0
 21
-750.49999999999989
 31
0.0
1001
ACDBBLOCKREPETAG
1070
     1
1071
       53
1005
12EDDA
  0
LINE
  5
12EDDB
  8
OBJECT
 10
6093.0
 20
-750.49999999999989
 30
0.0
 11
6093.0
 21
-641.5
 31
0.0
1001
ACDBBLOCKREPETAG
1070
     1
1071
       54
1005
12EDDB
  0
LINE
  5
12EDDC
  8
OBJECT
 10
6097.0
 20
-637.0
 30
0.0
 11
6093.0
 21
-641.5
 31
0.0
1001
ACDBBLOCKREPETAG
1070
     1
1071
       55
1005
12EDDC
  0
LINE
  5
12EDDD
  8
OBJECT
 10
6097.0
 20
-755.0
 30
0.0
 11
6093.0
 21
-750.49999999999989
 31
0.0
1001
ACDBBLOCKREPETAG
1070
     1
1071
       56
1005
12EDDD
  0
LINE
  5
12EDDE
  8
OBJECT
 10
6083.0
 20
-634.0
 30
0.0
 11
6080.0
 21
-634.0
 31
0.0
1001
ACDBBLOCKREPETAG
1070
     1
1071
       57
1005
12EDDE
  0
ARC
  5
12EDDF
  8
OBJECT
 10
6083.0
 20
-637.0
 30
0.0
 40
3.0
 50
0.0
 51
90.0
1001
ACDBBLOCKREPETAG
1070
     1
1071
       58
1005
12EDDF
  0
LINE
  5
12EDE0
  8
OBJECT
 10
6080.0
 20
-758.0
 30
0.0
 11
6083.0
 21
-758.0
 31
0.0
1001
ACDBBLOCKREPETAG
1070
     1
1071
       59
1005
12EDE0
  0
ARC
  5
12EDE1
  8
OBJECT
 10
6083.0
 20
-755.0
 30
0.0
 40
3.0
 50
270.0
 51
0.0
1001
ACDBBLOCKREPETAG
1070
     1
1071
       60
1005
12EDE1
  0
LINE
  5
12EDE2
  8
OBJECT
 10
6086.0
 20
-755.0
 30
0.0
 11
6086.0
 21
-637.0
 31
0.0
1001
ACDBBLOCKREPETAG
1070
     1
1071
       61
1005
12EDE2
  0
LINE
  5
12EDE3
  8
HIDDEN
 10
6088.0
 20
-651.5
 30
0.0
 11
6088.0
 21
-740.5
 31
0.0
1001
ACDBBLOCKREPETAG
1070
     1
1071
       63
1005
12EDE3
  0
LINE
  5
12EDE4
  8
OBJECT
 10
3923.0
 20
-570.99999999999432
 30
0.0
 11
3923.0
 21
-549.99999999999432
 31
0.0
1001
ACDBBLOCKREPETAG
1070
     1
1071
       36
1005
12EDE4
  0
LINE
  5
12EDE5
  8
OBJECT
 10
3923.0
 20
-549.99999999999432
 30
0.0
 11
4077.0
 21
-549.99999999999432
 31
0.0
1001
ACDBBLOCKREPETAG
1070
     1
1071
       37
1005
12EDE5
  0
LINE
  5
12EDE6
  8
HIDDEN
 10
3943.0
 20
-619.99999999999432
 30
0.0
 11
4057.0
 21
-619.99999999999432
 31
0.0
1001
ACDBBLOCKREPETAG
1070
     1
1071
       38
1005
12EDE6
  0
LINE
  5
12EDE7
  8
OBJECT
 10
4077.0
 20
-549.99999999999432
 30
0.0
 11
4077.0
 21
-570.99999999999432
 31
0.0
1001
ACDBBLOCKREPETAG
1070
     1
1071
       39
1005
12EDE7
  0
LINE
  5
12EDE8
  8
OBJECT
 10
4077.0
 20
-570.99999999999432
 30
0.0
 11
3923.0
 21
-570.99999999999432
 31
0.0
1001
ACDBBLOCKREPETAG
1070
     1
1071
       40
1005
12EDE8
  0
LINE
  5
12EDE9
  8
CENTER
 10
4000.0
 20
-534.99999999999432
 30
0.0
 11
4000.0
 21
-769.9999999999942
 31
0.0
1001
ACDBBLOCKREPETAG
1070
     1
1071
       41
1005
12EDE9
  0
LINE
  5
12EDEA
  8
OBJECT
 10
3928.0
 20
-570.99999999999432
 30
0.0
 11
3928.0
 21
-633.99999999999432
 31
0.0
1001
ACDBBLOCKREPETAG
1070
     1
1071
       42
1005
12EDEA
  0
LINE
  5
12EDEB
  8
OBJECT
 10
4072.0
 20
-633.99999999999432
 30
0.0
 11
4072.0
 21
-570.99999999999432
 31
0.0
1001
ACDBBLOCKREPETAG
1070
     1
1071
       43
1005
12EDEB
  0
LINE
  5
12EDEC
  8
OBJECT
 10
3920.0
 20
-757.9999999999942
 30
0.0
 11
4080.0
 21
-757.9999999999942
 31
0.0
1001
ACDBBLOCKREPETAG
1070
     1
1071
       44
1005
12EDEC
  0
LINE
  5
12EDED
  8
OBJECT
 10
4080.0
 20
-633.99999999999432
 30
0.0
 11
3920.0
 21
-633.99999999999432
 31
0.0
1001
ACDBBLOCKREPETAG
1070
     1
1071
       45
1005
12EDED
  0
LINE
  5
12EDEE
  8
OBJECT
 10
3920.0
 20
-757.9999999999942
 30
0.0
 11
3920.0
 21
-769.9999999999942
 31
0.0
1001
ACDBBLOCKREPETAG
1070
     1
1071
       46
1005
12EDEE
  0
LINE
  5
12EDEF
  8
OBJECT
 10
3920.0
 20
-769.9999999999942
 30
0.0
 11
4080.0
 21
-769.9999999999942
 31
0.0
1001
ACDBBLOCKREPETAG
1070
     1
1071
       47
1005
12EDEF
  0
LINE
  5
12EDF0
  8
OBJECT
 10
4080.0
 20
-769.9999999999942
 30
0.0
 11
4080.0
 21
-757.9999999999942
 31
0.0
1001
ACDBBLOCKREPETAG
1070
     1
1071
       48
1005
12EDF0
  0
ARC
  5
12EDF1
  8
OBJECT
 10
4200.6872746716726
 20
-749.40809941010195
 30
0.0
 40
170.6350503965856
 50
137.44134459184301
 51
149.91949581337221
1001
ACDBBLOCKREPETAG
1070
     1
1071
       52
1005
12EDF1
  0
ARC
  5
12EDF2
  8
OBJECT
 10
4200.6872746716726
 20
-642.59190058988645
 30
0.0
 40
170.6350503965856
 50
210.08050418662771
 51
222.55865540815699
1001
ACDBBLOCKREPETAG
1070
     1
1071
       53
1005
12EDF2
  0
ARC
  5
12EDF3
  8
OBJECT
 10
3799.3127253283278
 20
-749.40809941010195
 30
0.0
 40
170.6350503965856
 50
30.080504186774089
 51
42.558655408456282
1001
ACDBBLOCKREPETAG
1070
     1
1071
       54
1005
12EDF3
  0
ARC
  5
12EDF4
  8
OBJECT
 10
3799.3127253283278
 20
-642.59190058988645
 30
0.0
 40
170.6350503965856
 50
317.44134459154373
 51
329.91949581322592
1001
ACDBBLOCKREPETAG
1070
     1
1071
       55
1005
12EDF4
  0
POINT
  5
12EDF5
  8
DOTS
 10
4000.0
 20
-754.9999999999942
 30
0.0
1001
ACDBBLOCKREPETAG
1070
     1
1071
      184
1005
12EDF5
  0
LINE
  5
12EDF6
  8
OBJECT
 10
3867.0
 20
-261.99999999999909
 30
0.0
 11
3860.0
 21
-261.99999999999909
 31
0.0
1001
ACDBBLOCKREPETAG
1070
     1
1071
       47
1005
12EDF6
  0
LINE
  5
12EDF7
  8
OBJECT
 10
3860.0
 20
-261.99999999999909
 30
0.0
 11
3860.0
 21
-137.99999999999909
 31
0.0
1001
ACDBBLOCKREPETAG
1070
     1
1071
       48
1005
12EDF7
  0
LINE
  5
12EDF8
  8
OBJECT
 10
3860.0
 20
-137.99999999999909
 30
0.0
 11
3867.0
 21
-137.99999999999909
 31
0.0
1001
ACDBBLOCKREPETAG
1070
     1
1071
       49
1005
12EDF8
  0
LINE
  5
12EDF9
  8
OBJECT
 10
3867.0
 20
-137.99999999999909
 30
0.0
 11
3867.0
 21
-261.99999999999909
 31
0.0
1001
ACDBBLOCKREPETAG
1070
     1
1071
       50
1005
12EDF9
  0
LINE
  5
12EDFA
  8
CENTER
 10
3845.0
 20
-199.99999999999909
 30
0.0
 11
3920.0
 21
-199.99999999999909
 31
0.0
1001
ACDBBLOCKREPETAG
1070
     1
1071
       51
1005
12EDFA
  0
LINE
  5
12EDFB
  8
OBJECT
 10
3867.0
 20
-258.99999999999909
 30
0.0
 11
3903.0
 21
-258.99999999999909
 31
0.0
1001
ACDBBLOCKREPETAG
1070
     1
1071
       52
1005
12EDFB
  0
LINE
  5
12EDFC
  8
OBJECT
 10
3903.0
 20
-258.99999999999909
 30
0.0
 11
3903.0
 21
-140.99999999999909
 31
0.0
1001
ACDBBLOCKREPETAG
1070
     1
1071
       53
1005
12EDFC
  0
LINE
  5
12EDFD
  8
OBJECT
 10
3903.0
 20
-140.99999999999909
 30
0.0
 11
3867.0
 21
-140.99999999999909
 31
0.0
1001
ACDBBLOCKREPETAG
1070
     1
1071
       54
1005
12EDFD
  0
LINE
  5
12EDFE
  8
OBJECT
 10
3907.0
 20
-254.49999999999909
 30
0.0
 11
3914.0
 21
-254.49999999999909
 31
0.0
1001
ACDBBLOCKREPETAG
1070
     1
1071
       55
1005
12EDFE
  0
LINE
  5
12EDFF
  8
OBJECT
 10
3914.0
 20
-145.49999999999909
 30
0.0
 11
3907.0
 21
-145.49999999999909
 31
0.0
1001
ACDBBLOCKREPETAG
1070
     1
1071
       56
1005
12EDFF
  0
LINE
  5
12EE00
  8
OBJECT
 10
3907.0
 20
-145.49999999999909
 30
0.0
 11
3907.0
 21
-254.49999999999909
 31
0.0
1001
ACDBBLOCKREPETAG
1070
     1
1071
       57
1005
12EE00
  0
LINE
  5
12EE01
  8
OBJECT
 10
3903.0
 20
-258.99999999999909
 30
0.0
 11
3907.0
 21
-254.49999999999909
 31
0.0
1001
ACDBBLOCKREPETAG
1070
     1
1071
       58
1005
12EE01
  0
LINE
  5
12EE02
  8
OBJECT
 10
3903.0
 20
-140.99999999999909
 30
0.0
 11
3907.0
 21
-145.49999999999909
 31
0.0
1001
ACDBBLOCKREPETAG
1070
     1
1071
       59
1005
12EE02
  0
LINE
  5
12EE03
  8
OBJECT
 10
3917.0
 20
-261.99999999999909
 30
0.0
 11
3920.0
 21
-261.99999999999909
 31
0.0
1001
ACDBBLOCKREPETAG
1070
     1
1071
       60
1005
12EE03
  0
ARC
  5
12EE04
  8
OBJECT
 10
3917.0
 20
-258.99999999999909
 30
0.0
 40
3.0
 50
180.0
 51
270.0
1001
ACDBBLOCKREPETAG
1070
     1
1071
       61
1005
12EE04
  0
LINE
  5
12EE05
  8
OBJECT
 10
3920.0
 20
-137.99999999999909
 30
0.0
 11
3917.0
 21
-137.99999999999909
 31
0.0
1001
ACDBBLOCKREPETAG
1070
     1
1071
       62
1005
12EE05
  0
ARC
  5
12EE06
  8
OBJECT
 10
3917.0
 20
-140.99999999999909
 30
0.0
 40
3.0
 50
90.0
 51
180.0
1001
ACDBBLOCKREPETAG
1070
     1
1071
       63
1005
12EE06
  0
LINE
  5
12EE07
  8
OBJECT
 10
3914.0
 20
-140.99999999999909
 30
0.0
 11
3914.0
 21
-258.99999999999909
 31
0.0
1001
ACDBBLOCKREPETAG
1070
     1
1071
       64
1005
12EE07
  0
LINE
  5
12EE08
  8
HIDDEN
 10
3912.0
 20
-244.49999999999909
 30
0.0
 11
3912.0
 21
-155.49999999999909
 31
0.0
1001
ACDBBLOCKREPETAG
1070
     1
1071
       65
1005
12EE08
  0
LINE
  5
12EE09
  8
CENTER
 10
4000.0
 20
-300.99999999999898
 30
0.0
 11
4000.0
 21
-279.99999999999909
 31
0.0
1001
ACDBBLOCKREPETAG
1070
     1
1071
        0
1005
12EE09
  0
LINE
  5
12EE0A
  8
OBJECT
 10
4062.0
 20
-283.0
 30
0.0
 11
4062.0
 21
-279.99999999999909
 31
0.0
1001
ACDBBLOCKREPETAG
1070
     1
1071
        1
1005
12EE0A
  0
ARC
  5
12EE0B
  8
OBJECT
 10
4059.0
 20
-283.0
 30
0.0
 40
3.0
 50
270.0
 51
0.0
1001
ACDBBLOCKREPETAG
1070
     1
1071
        2
1005
12EE0B
  0
LINE
  5
12EE0C
  8
OBJECT
 10
3938.0
 20
-279.99999999999909
 30
0.0
 11
3938.0
 21
-282.99999999999818
 31
0.0
1001
ACDBBLOCKREPETAG
1070
     1
1071
        3
1005
12EE0C
  0
ARC
  5
12EE0D
  8
OBJECT
 10
3941.0
 20
-282.99999999999818
 30
0.0
 40
3.0
 50
180.0
 51
270.0
1001
ACDBBLOCKREPETAG
1070
     1
1071
        4
1005
12EE0D
  0
LINE
  5
12EE0E
  8
OBJECT
 10
3941.0
 20
-285.99999999999818
 30
0.0
 11
4059.0
 21
-286.0
 31
0.0
1001
ACDBBLOCKREPETAG
1070
     1
1071
        5
1005
12EE0E
  0
LINE
  5
12EE0F
  8
OBJECT
 10
4133.0
 20
-137.99999999999909
 30
0.0
 11
4140.0
 21
-137.99999999999909
 31
0.0
1001
ACDBBLOCKREPETAG
1070
     1
1071
       47
1005
12EE0F
  0
LINE
  5
12EE10
  8
OBJECT
 10
4140.0
 20
-137.99999999999909
 30
0.0
 11
4140.0
 21
-261.99999999999909
 31
0.0
1001
ACDBBLOCKREPETAG
1070
     1
1071
       48
1005
12EE10
  0
LINE
  5
12EE11
  8
OBJECT
 10
4140.0
 20
-261.99999999999909
 30
0.0
 11
4133.0
 21
-261.99999999999909
 31
0.0
1001
ACDBBLOCKREPETAG
1070
     1
1071
       49
1005
12EE11
  0
LINE
  5
12EE12
  8
OBJECT
 10
4133.0
 20
-261.99999999999909
 30
0.0
 11
4133.0
 21
-137.99999999999909
 31
0.0
1001
ACDBBLOCKREPETAG
1070
     1
1071
       50
1005
12EE12
  0
LINE
  5
12EE13
  8
CENTER
 10
4155.0
 20
-199.99999999999909
 30
0.0
 11
4080.0
 21
-199.99999999999909
 31
0.0
1001
ACDBBLOCKREPETAG
1070
     1
1071
       51
1005
12EE13
  0
LINE
  5
12EE14
  8
OBJECT
 10
4133.0
 20
-140.99999999999909
 30
0.0
 11
4097.0
 21
-140.99999999999909
 31
0.0
1001
ACDBBLOCKREPETAG
1070
     1
1071
       52
1005
12EE14
  0
LINE
  5
12EE15
  8
OBJECT
 10
4097.0
 20
-140.99999999999909
 30
0.0
 11
4097.0
 21
-258.99999999999909
 31
0.0
1001
ACDBBLOCKREPETAG
1070
     1
1071
       53
1005
12EE15
  0
LINE
  5
12EE16
  8
OBJECT
 10
4097.0
 20
-258.99999999999909
 30
0.0
 11
4133.0
 21
-258.99999999999909
 31
0.0
1001
ACDBBLOCKREPETAG
1070
     1
1071
       54
1005
12EE16
  0
LINE
  5
12EE17
  8
OBJECT
 10
4093.0
 20
-145.49999999999909
 30
0.0
 11
4086.0
 21
-145.49999999999909
 31
0.0
1001
ACDBBLOCKREPETAG
1070
     1
1071
       55
1005
12EE17
  0
LINE
  5
12EE18
  8
OBJECT
 10
4086.0
 20
-254.49999999999909
 30
0.0
 11
4093.0
 21
-254.49999999999909
 31
0.0
1001
ACDBBLOCKREPETAG
1070
     1
1071
       56
1005
12EE18
  0
LINE
  5
12EE19
  8
OBJECT
 10
4093.0
 20
-254.49999999999909
 30
0.0
 11
4093.0
 21
-145.49999999999909
 31
0.0
1001
ACDBBLOCKREPETAG
1070
     1
1071
       57
1005
12EE19
  0
LINE
  5
12EE1A
  8
OBJECT
 10
4097.0
 20
-140.99999999999909
 30
0.0
 11
4093.0
 21
-145.49999999999909
 31
0.0
1001
ACDBBLOCKREPETAG
1070
     1
1071
       58
1005
12EE1A
  0
LINE
  5
12EE1B
  8
OBJECT
 10
4097.0
 20
-258.99999999999909
 30
0.0
 11
4093.0
 21
-254.49999999999909
 31
0.0
1001
ACDBBLOCKREPETAG
1070
     1
1071
       59
1005
12EE1B
  0
LINE
  5
12EE1C
  8
OBJECT
 10
4083.0
 20
-137.99999999999909
 30
0.0
 11
4080.0
 21
-137.99999999999909
 31
0.0
1001
ACDBBLOCKREPETAG
1070
     1
1071
       60
1005
12EE1C
  0
ARC
  5
12EE1D
  8
OBJECT
 10
4083.0
 20
-140.99999999999909
 30
0.0
 40
3.0
 50
0.0
 51
90.0
1001
ACDBBLOCKREPETAG
1070
     1
1071
       61
1005
12EE1D
  0
LINE
  5
12EE1E
  8
OBJECT
 10
4080.0
 20
-261.99999999999909
 30
0.0
 11
4083.0
 21
-261.99999999999909
 31
0.0
1001
ACDBBLOCKREPETAG
1070
     1
1071
       62
1005
12EE1E
  0
ARC
  5
12EE1F
  8
OBJECT
 10
4083.0
 20
-258.99999999999909
 30
0.0
 40
3.0
 50
270.0
 51
0.0
1001
ACDBBLOCKREPETAG
1070
     1
1071
       63
1005
12EE1F
  0
LINE
  5
12EE20
  8
OBJECT
 10
4086.0
 20
-258.99999999999909
 30
0.0
 11
4086.0
 21
-140.99999999999909
 31
0.0
1001
ACDBBLOCKREPETAG
1070
     1
1071
       64
1005
12EE20
  0
LINE
  5
12EE21
  8
HIDDEN
 10
4088.0
 20
-155.49999999999909
 30
0.0
 11
4088.0
 21
-244.49999999999909
 31
0.0
1001
ACDBBLOCKREPETAG
1070
     1
1071
       65
1005
12EE21
  0
LINE
  5
12EE22
  8
OBJECT
 10
3867.0
 20
-634.0
 30
0.0
 11
3860.0
 21
-634.0
 31
0.0
1001
ACDBBLOCKREPETAG
1070
     1
1071
       45
1005
12EE22
  0
LINE
  5
12EE23
  8
OBJECT
 10
3860.0
 20
-634.0
 30
0.0
 11
3860.0
 21
-755.0
 31
0.0
1001
ACDBBLOCKREPETAG
1070
     1
1071
       46
1005
12EE23
  0
LINE
  5
12EE24
  8
OBJECT
 10
3867.0
 20
-755.0
 30
0.0
 11
3867.0
 21
-634.0
 31
0.0
1001
ACDBBLOCKREPETAG
1070
     1
1071
       47
1005
12EE24
  0
LINE
  5
12EE25
  8
CENTER
 10
3845.0
 20
-696.0
 30
0.0
 11
3929.0
 21
-696.0
 31
0.0
1001
ACDBBLOCKREPETAG
1070
     1
1071
       48
1005
12EE25
  0
LINE
  5
12EE26
  8
OBJECT
 10
3867.0
 20
-637.0
 30
0.0
 11
3903.0
 21
-637.0
 31
0.0
1001
ACDBBLOCKREPETAG
1070
     1
1071
       49
1005
12EE26
  0
LINE
  5
12EE27
  8
OBJECT
 10
3903.0
 20
-637.0
 30
0.0
 11
3903.0
 21
-755.0
 31
0.0
1001
ACDBBLOCKREPETAG
1070
     1
1071
       50
1005
12EE27
  0
LINE
  5
12EE28
  8
OBJECT
 10
3903.0
 20
-755.0
 30
0.0
 11
3860.0
 21
-755.0
 31
0.0
1001
ACDBBLOCKREPETAG
1070
     1
1071
       51
1005
12EE28
  0
LINE
  5
12EE29
  8
OBJECT
 10
3907.0
 20
-641.5
 30
0.0
 11
3914.0
 21
-641.5
 31
0.0
1001
ACDBBLOCKREPETAG
1070
     1
1071
       52
1005
12EE29
  0
LINE
  5
12EE2A
  8
OBJECT
 10
3914.0
 20
-750.49999999999989
 30
0.0
 11
3907.0
 21
-750.49999999999989
 31
0.0
1001
ACDBBLOCKREPETAG
1070
     1
1071
       53
1005
12EE2A
  0
LINE
  5
12EE2B
  8
OBJECT
 10
3907.0
 20
-750.49999999999989
 30
0.0
 11
3907.0
 21
-641.5
 31
0.0
1001
ACDBBLOCKREPETAG
1070
     1
1071
       54
1005
12EE2B
  0
LINE
  5
12EE2C
  8
OBJECT
 10
3903.0
 20
-637.0
 30
0.0
 11
3907.0
 21
-641.5
 31
0.0
1001
ACDBBLOCKREPETAG
1070
     1
1071
       55
1005
12EE2C
  0
LINE
  5
12EE2D
  8
OBJECT
 10
3903.0
 20
-755.0
 30
0.0
 11
3907.0
 21
-750.49999999999989
 31
0.0
1001
ACDBBLOCKREPETAG
1070
     1
1071
       56
1005
12EE2D
  0
LINE
  5
12EE2E
  8
OBJECT
 10
3917.0
 20
-634.0
 30
0.0
 11
3920.0
 21
-634.0
 31
0.0
1001
ACDBBLOCKREPETAG
1070
     1
1071
       57
1005
12EE2E
  0
ARC
  5
12EE2F
  8
OBJECT
 10
3917.0
 20
-637.0
 30
0.0
 40
3.0
 50
90.0
 51
180.0
1001
ACDBBLOCKREPETAG
1070
     1
1071
       58
1005
12EE2F
  0
LINE
  5
12EE30
  8
OBJECT
 10
3920.0
 20
-758.0
 30
0.0
 11
3917.0
 21
-758.0
 31
0.0
1001
ACDBBLOCKREPETAG
1070
     1
1071
       59
1005
12EE30
  0
ARC
  5
12EE31
  8
OBJECT
 10
3917.0
 20
-755.0
 30
0.0
 40
3.0
 50
180.0
 51
270.0
1001
ACDBBLOCKREPETAG
1070
     1
1071
       60
1005
12EE31
  0
LINE
  5
12EE32
  8
OBJECT
 10
3914.0
 20
-755.0
 30
0.0
 11
3914.0
 21
-637.0
 31
0.0
1001
ACDBBLOCKREPETAG
1070
     1
1071
       61
1005
12EE32
  0
LINE
  5
12EE33
  8
HIDDEN
 10
3912.0
 20
-651.5
 30
0.0
 11
3912.0
 21
-740.5
 31
0.0
1001
ACDBBLOCKREPETAG
1070
     1
1071
       63
1005
12EE33
  0
CIRCLE
  5
12EE34
  8
OBJECT
 10
4000.0
 20
-696.0
 30
0.0
 40
62.0
1001
ACDBBLOCKREPETAG
1070
     1
1071
        0
1005
12EE34
  0
LINE
  5
12EE35
  8
OBJECT
 10
4133.0
 20
-634.0
 30
0.0
 11
4140.0
 21
-634.0
 31
0.0
1001
ACDBBLOCKREPETAG
1070
     1
1071
       45
1005
12EE35
  0
LINE
  5
12EE36
  8
OBJECT
 10
4140.0
 20
-634.0
 30
0.0
 11
4140.0
 21
-755.0
 31
0.0
1001
ACDBBLOCKREPETAG
1070
     1
1071
       46
1005
12EE36
  0
LINE
  5
12EE37
  8
OBJECT
 10
4133.0
 20
-755.0
 30
0.0
 11
4133.0
 21
-634.0
 31
0.0
1001
ACDBBLOCKREPETAG
1070
     1
1071
       47
1005
12EE37
  0
LINE
  5
12EE38
  8
CENTER
 10
4155.0
 20
-696.0
 30
0.0
 11
4071.0
 21
-696.0
 31
0.0
1001
ACDBBLOCKREPETAG
1070
     1
1071
       48
1005
12EE38
  0
LINE
  5
12EE39
  8
OBJECT
 10
4133.0
 20
-637.0
 30
0.0
 11
4097.0
 21
-637.0
 31
0.0
1001
ACDBBLOCKREPETAG
1070
     1
1071
       49
1005
12EE39
  0
LINE
  5
12EE3A
  8
OBJECT
 10
4097.0
 20
-637.0
 30
0.0
 11
4097.0
 21
-755.0
 31
0.0
1001
ACDBBLOCKREPETAG
1070
     1
1071
       50
1005
12EE3A
  0
LINE
  5
12EE3B
  8
OBJECT
 10
4097.0
 20
-755.0
 30
0.0
 11
4140.0
 21
-755.0
 31
0.0
1001
ACDBBLOCKREPETAG
1070
     1
1071
       51
1005
12EE3B
  0
LINE
  5
12EE3C
  8
OBJECT
 10
4093.0
 20
-641.5
 30
0.0
 11
4086.0
 21
-641.5
 31
0.0
1001
ACDBBLOCKREPETAG
1070
     1
1071
       52
1005
12EE3C
  0
LINE
  5
12EE3D
  8
OBJECT
 10
4086.0
 20
-750.49999999999989
 30
0.0
 11
4093.0
 21
-750.49999999999989
 31
0.0
1001
ACDBBLOCKREPETAG
1070
     1
1071
       53
1005
12EE3D
  0
LINE
  5
12EE3E
  8
OBJECT
 10
4093.0
 20
-750.49999999999989
 30
0.0
 11
4093.0
 21
-641.5
 31
0.0
1001
ACDBBLOCKREPETAG
1070
     1
1071
       54
1005
12EE3E
  0
LINE
  5
12EE3F
  8
OBJECT
 10
4097.0
 20
-637.0
 30
0.0
 11
4093.0
 21
-641.5
 31
0.0
1001
ACDBBLOCKREPETAG
1070
     1
1071
       55
1005
12EE3F
  0
LINE
  5
12EE40
  8
OBJECT
 10
4097.0
 20
-755.0
 30
0.0
 11
4093.0
 21
-750.49999999999989
 31
0.0
1001
ACDBBLOCKREPETAG
1070
     1
1071
       56
1005
12EE40
  0
LINE
  5
12EE41
  8
OBJECT
 10
4083.0
 20
-634.0
 30
0.0
 11
4080.0
 21
-634.0
 31
0.0
1001
ACDBBLOCKREPETAG
1070
     1
1071
       57
1005
12EE41
  0
ARC
  5
12EE42
  8
OBJECT
 10
4083.0
 20
-637.0
 30
0.0
 40
3.0
 50
0.0
 51
90.0
1001
ACDBBLOCKREPETAG
1070
     1
1071
       58
1005
12EE42
  0
LINE
  5
12EE43
  8
OBJECT
 10
4080.0
 20
-758.0
 30
0.0
 11
4083.0
 21
-758.0
 31
0.0
1001
ACDBBLOCKREPETAG
1070
     1
1071
       59
1005
12EE43
  0
ARC
  5
12EE44
  8
OBJECT
 10
4083.0
 20
-755.0
 30
0.0
 40
3.0
 50
270.0
 51
0.0
1001
ACDBBLOCKREPETAG
1070
     1
1071
       60
1005
12EE44
  0
LINE
  5
12EE45
  8
OBJECT
 10
4086.0
 20
-755.0
 30
0.0
 11
4086.0
 21
-637.0
 31
0.0
1001
ACDBBLOCKREPETAG
1070
     1
1071
       61
1005
12EE45
  0
LINE
  5
12EE46
  8
HIDDEN
 10
4088.0
 20
-651.5
 30
0.0
 11
4088.0
 21
-740.5
 31
0.0
1001
ACDBBLOCKREPETAG
1070
     1
1071
       63
1005
12EE46
  0
POLYLINE
  5
12EE47
  8
HIDDEN
 66
     1
 10
0.0
 20
0.0
 30
0.0
 70
     1
1001
ACDBBLOCKREPETAG
1070
     1
1071
      105
1005
0
  0
VERTEX
  5
12FCFE
  8
HIDDEN
 10
359.99999999987818
 20
0.0
 30
0.0
  0
VERTEX
  5
12FCFF
  8
HIDDEN
 10
719.99999999975626
 20
0.0
 30
0.0
  0
VERTEX
  5
12FD00
  8
HIDDEN
 10
719.99999999975626
 20
-463.99999999984158
 30
0.0
  0
VERTEX
  5
12FD01
  8
HIDDEN
 10
359.99999999987818
 20
-463.99999999984158
 30
0.0
  0
SEQEND
  5
12FD02
  8
HIDDEN
  0
POLYLINE
  5
12EE48
  8
HIDDEN
 66
     1
 10
0.0
 20
0.0
 30
0.0
 70
     1
1001
ACDBBLOCKREPETAG
1070
     1
1071
      110
1005
0
  0
VERTEX
  5
12FD03
  8
HIDDEN
 10
0.0
 20
0.0
 30
0.0
  0
VERTEX
  5
12FD04
  8
HIDDEN
 10
359.99999999987818
 20
0.0
 30
0.0
  0
VERTEX
  5
12FD05
  8
HIDDEN
 10
359.99999999987818
 20
-463.99999999984158
 30
0.0
  0
VERTEX
  5
12FD06
  8
HIDDEN
 10
0.0
 20
-463.99999999984158
 30
0.0
  0
SEQEND
  5
12FD07
  8
HIDDEN
  0
POLYLINE
  5
12EE49
  8
HIDDEN
 66
     1
 10
0.0
 20
0.0
 30
0.0
 70
     1
1001
ACDBBLOCKREPETAG
1070
     1
1071
      120
1005
0
  0
VERTEX
  5
12FD08
  8
HIDDEN
 10
359.99999999987818
 20
-463.99999999984158
 30
0.0
  0
VERTEX
  5
12FD09
  8
HIDDEN
 10
719.99999999975626
 20
-463.99999999984158
 30
0.0
  0
VERTEX
  5
12FD0A
  8
HIDDEN
 10
719.99999999975626
 20
-927.9999999996835
 30
0.0
  0
VERTEX
  5
12FD0B
  8
HIDDEN
 10
359.99999999987818
 20
-927.9999999996835
 30
0.0
  0
SEQEND
  5
12FD0C
  8
HIDDEN
  0
POLYLINE
  5
12EE4A
  8
HIDDEN
 66
     1
 10
0.0
 20
0.0
 30
0.0
 70
     1
1001
ACDBBLOCKREPETAG
1070
     1
1071
      125
1005
0
  0
VERTEX
  5
12FD0D
  8
HIDDEN
 10
0.0
 20
-463.99999999984158
 30
0.0
  0
VERTEX
  5
12FD0E
  8
HIDDEN
 10
359.99999999987818
 20
-463.99999999984158
 30
0.0
  0
VERTEX
  5
12FD0F
  8
HIDDEN
 10
359.99999999987818
 20
-927.9999999996835
 30
0.0
  0
VERTEX
  5
12FD10
  8
HIDDEN
 10
0.0
 20
-927.9999999996835
 30
0.0
  0
SEQEND
  5
12FD11
  8
HIDDEN
  0
POLYLINE
  5
12EE4B
  8
HIDDEN
 66
     1
 10
0.0
 20
0.0
 30
0.0
 70
     1
1001
ACDBBLOCKREPETAG
1070
     1
1071
      130
1005
0
  0
VERTEX
  5
12FD12
  8
HIDDEN
 10
359.99999999987818
 20
-927.9999999996835
 30
0.0
  0
VERTEX
  5
12FD13
  8
HIDDEN
 10
719.99999999975626
 20
-927.9999999996835
 30
0.0
  0
VERTEX
  5
12FD14
  8
HIDDEN
 10
719.99999999975626
 20
-1391.999999999525
 30
0.0
  0
VERTEX
  5
12FD15
  8
HIDDEN
 10
359.99999999987818
 20
-1391.999999999525
 30
0.0
  0
SEQEND
  5
12FD16
  8
HIDDEN
  0
POLYLINE
  5
12EE4C
  8
HIDDEN
 66
     1
 10
0.0
 20
0.0
 30
0.0
 70
     1
1001
ACDBBLOCKREPETAG
1070
     1
1071
      135
1005
0
  0
VERTEX
  5
12FD17
  8
HIDDEN
 10
0.0
 20
-927.9999999996835
 30
0.0
  0
VERTEX
  5
12FD18
  8
HIDDEN
 10
359.99999999987818
 20
-927.9999999996835
 30
0.0
  0
VERTEX
  5
12FD19
  8
HIDDEN
 10
359.99999999987818
 20
-1391.999999999525
 30
0.0
  0
VERTEX
  5
12FD1A
  8
HIDDEN
 10
0.0
 20
-1391.999999999525
 30
0.0
  0
SEQEND
  5
12FD1B
  8
HIDDEN
  0
POLYLINE
  5
12EE4D
  8
HIDDEN
 66
     1
 10
0.0
 20
0.0
 30
0.0
 70
     1
1001
ACDBBLOCKREPETAG
1070
     1
1071
      160
1005
0
  0
VERTEX
  5
12FD1C
  8
HIDDEN
 10
359.99999999987818
 20
-1391.999999999525
 30
0.0
  0
VERTEX
  5
12FD1D
  8
HIDDEN
 10
719.99999999975626
 20
-1391.999999999525
 30
0.0
  0
VERTEX
  5
12FD1E
  8
HIDDEN
 10
719.99999999975626
 20
-1855.999999999367
 30
0.0
  0
VERTEX
  5
12FD1F
  8
HIDDEN
 10
359.99999999987818
 20
-1855.999999999367
 30
0.0
  0
SEQEND
  5
12FD20
  8
HIDDEN
  0
POLYLINE
  5
12EE4E
  8
HIDDEN
 66
     1
 10
0.0
 20
0.0
 30
0.0
 70
     1
1001
ACDBBLOCKREPETAG
1070
     1
1071
      165
1005
0
  0
VERTEX
  5
12FD21
  8
HIDDEN
 10
0.0
 20
-1391.999999999525
 30
0.0
  0
VERTEX
  5
12FD22
  8
HIDDEN
 10
359.99999999987818
 20
-1391.999999999525
 30
0.0
  0
VERTEX
  5
12FD23
  8
HIDDEN
 10
359.99999999987818
 20
-1855.999999999367
 30
0.0
  0
VERTEX
  5
12FD24
  8
HIDDEN
 10
0.0
 20
-1855.999999999367
 30
0.0
  0
SEQEND
  5
12FD25
  8
HIDDEN
  0
POLYLINE
  5
12EE4F
  8
HIDDEN
 66
     1
 10
0.0
 20
0.0
 30
0.0
 70
     1
1001
ACDBBLOCKREPETAG
1070
     1
1071
      170
1005
0
  0
VERTEX
  5
12FD26
  8
HIDDEN
 10
359.99999999987818
 20
-1855.999999999367
 30
0.0
  0
VERTEX
  5
12FD27
  8
HIDDEN
 10
719.99999999975626
 20
-1855.999999999367
 30
0.0
  0
VERTEX
  5
12FD28
  8
HIDDEN
 10
719.99999999975626
 20
-2319.9999999992092
 30
0.0
  0
VERTEX
  5
12FD29
  8
HIDDEN
 10
359.99999999987818
 20
-2319.9999999992092
 30
0.0
  0
SEQEND
  5
12FD2A
  8
HIDDEN
  0
POLYLINE
  5
12EE50
  8
HIDDEN
 66
     1
 10
0.0
 20
0.0
 30
0.0
 70
     1
1001
ACDBBLOCKREPETAG
1070
     1
1071
      175
1005
0
  0
VERTEX
  5
12FD2B
  8
HIDDEN
 10
0.0
 20
-1855.999999999367
 30
0.0
  0
VERTEX
  5
12FD2C
  8
HIDDEN
 10
359.99999999987818
 20
-1855.999999999367
 30
0.0
  0
VERTEX
  5
12FD2D
  8
HIDDEN
 10
359.99999999987818
 20
-2319.9999999992092
 30
0.0
  0
VERTEX
  5
12FD2E
  8
HIDDEN
 10
0.0
 20
-2319.9999999992092
 30
0.0
  0
SEQEND
  5
12FD2F
  8
HIDDEN
  0
TEXT
  5
12EE51
  8
SLIM
 10
420.17142857124622
 20
-2299.999999999216
 30
0.0
 40
48.0
  1
B404（特）
 41
0.75
1001
ACDBBLOCKREPETAG
1070
     1
1071
      119
1005
12DC99
  0
LINE
  5
12EE52
  8
OBJECT
 10
610.99999999849024
 20
-2201.9999999970728
 30
0.0
 11
610.99999999849024
 21
-2194.9999999970728
 31
0.0
1001
ACDBBLOCKREPETAG
1070
     1
1071
       57
1005
12EE52
  0
LINE
  5
12EE53
  8
OBJECT
 10
610.99999999849024
 20
-2194.9999999970728
 30
0.0
 11
460.99999999849018
 21
-2194.9999999970728
 31
0.0
1001
ACDBBLOCKREPETAG
1070
     1
1071
       58
1005
12EE53
  0
LINE
  5
12EE54
  8
OBJECT
 10
607.99999999849024
 20
-2153.4999999970728
 30
0.0
 11
463.99999999849018
 21
-2153.4999999970728
 31
0.0
1001
ACDBBLOCKREPETAG
1070
     1
1071
       59
1005
12EE54
  0
LINE
  5
12EE55
  8
OBJECT
 10
601.49999999849024
 20
-2141.9999999970728
 30
0.0
 11
470.49999999849018
 21
-2141.9999999970728
 31
0.0
1001
ACDBBLOCKREPETAG
1070
     1
1071
       60
1005
12EE55
  0
LINE
  5
12EE56
  8
OBJECT
 10
460.99999999849018
 20
-2194.9999999970728
 30
0.0
 11
460.99999999849018
 21
-2201.9999999970728
 31
0.0
1001
ACDBBLOCKREPETAG
1070
     1
1071
       61
1005
12EE56
  0
LINE
  5
12EE57
  8
OBJECT
 10
460.99999999849018
 20
-2201.9999999970728
 30
0.0
 11
610.99999999849024
 21
-2201.9999999970728
 31
0.0
1001
ACDBBLOCKREPETAG
1070
     1
1071
       62
1005
12EE57
  0
LINE
  5
12EE58
  8
OBJECT
 10
473.99999999849018
 20
-2137.9999999970728
 30
0.0
 11
473.99999999849018
 21
-2131.9999999970751
 31
0.0
1001
ACDBBLOCKREPETAG
1070
     1
1071
       63
1005
12EE58
  0
LINE
  5
12EE59
  8
OBJECT
 10
463.99999999849018
 20
-2194.9999999970728
 30
0.0
 11
463.99999999849018
 21
-2153.4999999970728
 31
0.0
1001
ACDBBLOCKREPETAG
1070
     1
1071
       64
1005
12EE59
  0
LINE
  5
12EE5A
  8
OBJECT
 10
463.99999999849018
 20
-2153.4999999970728
 30
0.0
 11
470.49999999849018
 21
-2141.9999999970728
 31
0.0
1001
ACDBBLOCKREPETAG
1070
     1
1071
       65
1005
12EE5A
  0
LINE
  5
12EE5B
  8
OBJECT
 10
470.49999999849018
 20
-2141.9999999970728
 30
0.0
 11
473.99999999849018
 21
-2137.9999999970728
 31
0.0
1001
ACDBBLOCKREPETAG
1070
     1
1071
       66
1005
12EE5B
  0
LINE
  5
12EE5C
  8
OBJECT
 10
607.99999999849024
 20
-2153.4999999970728
 30
0.0
 11
601.49999999849024
 21
-2141.9999999970728
 31
0.0
1001
ACDBBLOCKREPETAG
1070
     1
1071
       67
1005
12EE5C
  0
LINE
  5
12EE5D
  8
OBJECT
 10
601.49999999849024
 20
-2141.9999999970728
 30
0.0
 11
597.99999999849024
 21
-2137.9999999970728
 31
0.0
1001
ACDBBLOCKREPETAG
1070
     1
1071
       68
1005
12EE5D
  0
ARC
  5
12EE5E
  8
OBJECT
 10
535.99999999849024
 20
-2519.8999999970752
 30
0.0
 40
386.89999999999998
 50
80.778701362368551
 51
99.221298637631435
1001
ACDBBLOCKREPETAG
1070
     1
1071
       69
1005
12EE5E
  0
LINE
  5
12EE5F
  8
OBJECT
 10
597.99999999849024
 20
-2137.9999999970728
 30
0.0
 11
597.99999999849024
 21
-2131.9999999970751
 31
0.0
1001
ACDBBLOCKREPETAG
1070
     1
1071
       70
1005
12EE5F
  0
LINE
  5
12EE60
  8
OBJECT
 10
607.99999999849024
 20
-2194.9999999970728
 30
0.0
 11
607.99999999849024
 21
-2153.4999999970728
 31
0.0
1001
ACDBBLOCKREPETAG
1070
     1
1071
       71
1005
12EE60
  0
INSERT
  5
12EE61
  8
OBJECT
  2
*U20
 10
0.0
 20
0.0
 30
0.0
  0
LINE
  5
12EE62
  8
HIDDEN
 10
478.99999999849018
 20
-2149.9999999970728
 30
0.0
 11
592.99999999849024
 21
-2149.9999999970728
 31
0.0
1001
ACDBBLOCKREPETAG
1070
     1
1071
      437
1005
12EE62
  0
LINE
  5
12EE63
  8
OBJECT
 10
618.99999999849024
 20
-2113.9999999970728
 30
0.0
 11
615.99999999849024
 21
-2113.9999999970728
 31
0.0
1001
ACDBBLOCKREPETAG
1070
     1
1071
      418
1005
12EE63
  0
ARC
  5
12EE64
  8
OBJECT
 10
618.99999999849024
 20
-2110.9999999970728
 30
0.0
 40
3.0
 50
270.0
 51
0.0
1001
ACDBBLOCKREPETAG
1070
     1
1071
      419
1005
12EE64
  0
LINE
  5
12EE65
  8
OBJECT
 10
615.99999999849024
 20
-1989.999999997073
 30
0.0
 11
618.99999999849024
 21
-1989.999999997073
 31
0.0
1001
ACDBBLOCKREPETAG
1070
     1
1071
      420
1005
12EE65
  0
ARC
  5
12EE66
  8
OBJECT
 10
618.99999999849024
 20
-1992.999999997073
 30
0.0
 40
3.0
 50
0.0
 51
90.0
1001
ACDBBLOCKREPETAG
1070
     1
1071
      421
1005
12EE66
  0
LINE
  5
12EE67
  8
OBJECT
 10
621.99999999849024
 20
-1992.999999997073
 30
0.0
 11
621.99999999849024
 21
-2110.9999999970728
 31
0.0
1001
ACDBBLOCKREPETAG
1070
     1
1071
      422
1005
12EE67
  0
LINE
  5
12EE68
  8
OBJECT
 10
460.99999999849018
 20
-1901.999999997073
 30
0.0
 11
460.99999999849018
 21
-1908.999999997073
 31
0.0
1001
ACDBBLOCKREPETAG
1070
     1
1071
       57
1005
12EE68
  0
LINE
  5
12EE69
  8
OBJECT
 10
460.99999999849018
 20
-1908.999999997073
 30
0.0
 11
610.99999999849024
 21
-1908.999999997073
 31
0.0
1001
ACDBBLOCKREPETAG
1070
     1
1071
       58
1005
12EE69
  0
LINE
  5
12EE6A
  8
OBJECT
 10
463.99999999849018
 20
-1950.499999997073
 30
0.0
 11
607.99999999849024
 21
-1950.499999997073
 31
0.0
1001
ACDBBLOCKREPETAG
1070
     1
1071
       59
1005
12EE6A
  0
LINE
  5
12EE6B
  8
OBJECT
 10
470.49999999849018
 20
-1961.999999997073
 30
0.0
 11
601.49999999849024
 21
-1961.999999997073
 31
0.0
1001
ACDBBLOCKREPETAG
1070
     1
1071
       60
1005
12EE6B
  0
LINE
  5
12EE6C
  8
OBJECT
 10
610.99999999849024
 20
-1908.999999997073
 30
0.0
 11
610.99999999849024
 21
-1901.999999997073
 31
0.0
1001
ACDBBLOCKREPETAG
1070
     1
1071
       61
1005
12EE6C
  0
LINE
  5
12EE6D
  8
OBJECT
 10
610.99999999849024
 20
-1901.999999997073
 30
0.0
 11
460.99999999849018
 21
-1901.999999997073
 31
0.0
1001
ACDBBLOCKREPETAG
1070
     1
1071
       62
1005
12EE6D
  0
LINE
  5
12EE6E
  8
OBJECT
 10
597.99999999849024
 20
-1965.999999997073
 30
0.0
 11
597.99999999849024
 21
-1971.999999997073
 31
0.0
1001
ACDBBLOCKREPETAG
1070
     1
1071
       63
1005
12EE6E
  0
LINE
  5
12EE6F
  8
OBJECT
 10
607.99999999849024
 20
-1908.999999997073
 30
0.0
 11
607.99999999849024
 21
-1950.499999997073
 31
0.0
1001
ACDBBLOCKREPETAG
1070
     1
1071
       64
1005
12EE6F
  0
LINE
  5
12EE70
  8
OBJECT
 10
607.99999999849024
 20
-1950.499999997073
 30
0.0
 11
601.49999999849024
 21
-1961.999999997073
 31
0.0
1001
ACDBBLOCKREPETAG
1070
     1
1071
       65
1005
12EE70
  0
LINE
  5
12EE71
  8
OBJECT
 10
601.49999999849024
 20
-1961.999999997073
 30
0.0
 11
597.99999999849024
 21
-1965.999999997073
 31
0.0
1001
ACDBBLOCKREPETAG
1070
     1
1071
       66
1005
12EE71
  0
LINE
  5
12EE72
  8
OBJECT
 10
463.99999999849018
 20
-1950.499999997073
 30
0.0
 11
470.49999999849018
 21
-1961.999999997073
 31
0.0
1001
ACDBBLOCKREPETAG
1070
     1
1071
       67
1005
12EE72
  0
LINE
  5
12EE73
  8
OBJECT
 10
470.49999999849018
 20
-1961.999999997073
 30
0.0
 11
473.99999999849018
 21
-1965.999999997073
 31
0.0
1001
ACDBBLOCKREPETAG
1070
     1
1071
       68
1005
12EE73
  0
ARC
  5
12EE74
  8
OBJECT
 10
535.99999999849024
 20
-1584.099999997072
 30
0.0
 40
386.89999999999998
 50
260.77870136257849
 51
279.22129863742163
1001
ACDBBLOCKREPETAG
1070
     1
1071
       69
1005
12EE74
  0
LINE
  5
12EE75
  8
OBJECT
 10
473.99999999849018
 20
-1965.999999997073
 30
0.0
 11
473.99999999849018
 21
-1971.999999997073
 31
0.0
1001
ACDBBLOCKREPETAG
1070
     1
1071
       70
1005
12EE75
  0
LINE
  5
12EE76
  8
OBJECT
 10
463.99999999849018
 20
-1908.999999997073
 30
0.0
 11
463.99999999849018
 21
-1950.499999997073
 31
0.0
1001
ACDBBLOCKREPETAG
1070
     1
1071
       71
1005
12EE76
  0
INSERT
  5
12EE77
  8
OBJECT
  2
*U21
 10
0.0
 20
0.0
 30
0.0
  0
LINE
  5
12EE78
  8
HIDDEN
 10
592.99999999849024
 20
-1953.999999997073
 30
0.0
 11
478.99999999849018
 21
-1953.999999997073
 31
0.0
1001
ACDBBLOCKREPETAG
1070
     1
1071
      431
1005
12EE78
  0
TEXT
  5
12EE79
  8
SLIM
 10
60.171428571368068
 20
-2299.999999999216
 30
0.0
 40
48.0
  1
B304（特）
 41
0.75
1001
ACDBBLOCKREPETAG
1070
     1
1071
      119
1005
12DC99
  0
LINE
  5
12EE7A
  8
OBJECT
 10
250.99999999861211
 20
-2201.9999999970728
 30
0.0
 11
250.99999999861211
 21
-2194.9999999970728
 31
0.0
1001
ACDBBLOCKREPETAG
1070
     1
1071
       57
1005
12EE7A
  0
LINE
  5
12EE7B
  8
OBJECT
 10
250.99999999861211
 20
-2194.9999999970728
 30
0.0
 11
100.9999999986121
 21
-2194.9999999970728
 31
0.0
1001
ACDBBLOCKREPETAG
1070
     1
1071
       58
1005
12EE7B
  0
LINE
  5
12EE7C
  8
OBJECT
 10
247.99999999861211
 20
-2153.4999999970728
 30
0.0
 11
103.9999999986121
 21
-2153.4999999970728
 31
0.0
1001
ACDBBLOCKREPETAG
1070
     1
1071
       59
1005
12EE7C
  0
LINE
  5
12EE7D
  8
OBJECT
 10
241.49999999861211
 20
-2141.9999999970728
 30
0.0
 11
110.4999999986121
 21
-2141.9999999970728
 31
0.0
1001
ACDBBLOCKREPETAG
1070
     1
1071
       60
1005
12EE7D
  0
LINE
  5
12EE7E
  8
OBJECT
 10
100.9999999986121
 20
-2194.9999999970728
 30
0.0
 11
100.9999999986121
 21
-2201.9999999970728
 31
0.0
1001
ACDBBLOCKREPETAG
1070
     1
1071
       61
1005
12EE7E
  0
LINE
  5
12EE7F
  8
OBJECT
 10
100.9999999986121
 20
-2201.9999999970728
 30
0.0
 11
250.99999999861211
 21
-2201.9999999970728
 31
0.0
1001
ACDBBLOCKREPETAG
1070
     1
1071
       62
1005
12EE7F
  0
LINE
  5
12EE80
  8
OBJECT
 10
113.9999999986121
 20
-2137.9999999970728
 30
0.0
 11
113.9999999986121
 21
-2131.9999999970751
 31
0.0
1001
ACDBBLOCKREPETAG
1070
     1
1071
       63
1005
12EE80
  0
LINE
  5
12EE81
  8
OBJECT
 10
103.9999999986121
 20
-2194.9999999970728
 30
0.0
 11
103.9999999986121
 21
-2153.4999999970728
 31
0.0
1001
ACDBBLOCKREPETAG
1070
     1
1071
       64
1005
12EE81
  0
LINE
  5
12EE82
  8
OBJECT
 10
103.9999999986121
 20
-2153.4999999970728
 30
0.0
 11
110.4999999986121
 21
-2141.9999999970728
 31
0.0
1001
ACDBBLOCKREPETAG
1070
     1
1071
       65
1005
12EE82
  0
LINE
  5
12EE83
  8
OBJECT
 10
110.4999999986121
 20
-2141.9999999970728
 30
0.0
 11
113.9999999986121
 21
-2137.9999999970728
 31
0.0
1001
ACDBBLOCKREPETAG
1070
     1
1071
       66
1005
12EE83
  0
LINE
  5
12EE84
  8
OBJECT
 10
247.99999999861211
 20
-2153.4999999970728
 30
0.0
 11
241.49999999861211
 21
-2141.9999999970728
 31
0.0
1001
ACDBBLOCKREPETAG
1070
     1
1071
       67
1005
12EE84
  0
LINE
  5
12EE85
  8
OBJECT
 10
241.49999999861211
 20
-2141.9999999970728
 30
0.0
 11
237.99999999861211
 21
-2137.9999999970728
 31
0.0
1001
ACDBBLOCKREPETAG
1070
     1
1071
       68
1005
12EE85
  0
ARC
  5
12EE86
  8
OBJECT
 10
175.99999999861211
 20
-2519.8999999970752
 30
0.0
 40
386.89999999999998
 50
80.778701362368551
 51
99.221298637631435
1001
ACDBBLOCKREPETAG
1070
     1
1071
       69
1005
12EE86
  0
LINE
  5
12EE87
  8
OBJECT
 10
237.99999999861211
 20
-2137.9999999970728
 30
0.0
 11
237.99999999861211
 21
-2131.9999999970751
 31
0.0
1001
ACDBBLOCKREPETAG
1070
     1
1071
       70
1005
12EE87
  0
LINE
  5
12EE88
  8
OBJECT
 10
247.99999999861211
 20
-2194.9999999970728
 30
0.0
 11
247.99999999861211
 21
-2153.4999999970728
 31
0.0
1001
ACDBBLOCKREPETAG
1070
     1
1071
       71
1005
12EE88
  0
INSERT
  5
12EE89
  8
OBJECT
  2
*U22
 10
0.0
 20
0.0
 30
0.0
  0
LINE
  5
12EE8A
  8
HIDDEN
 10
118.9999999986121
 20
-2149.9999999970728
 30
0.0
 11
232.99999999861211
 21
-2149.9999999970728
 31
0.0
1001
ACDBBLOCKREPETAG
1070
     1
1071
      437
1005
12EE8A
  0
LINE
  5
12EE8B
  8
OBJECT
 10
258.99999999861211
 20
-2113.9999999970728
 30
0.0
 11
255.99999999861211
 21
-2113.9999999970728
 31
0.0
1001
ACDBBLOCKREPETAG
1070
     1
1071
      418
1005
12EE8B
  0
ARC
  5
12EE8C
  8
OBJECT
 10
258.99999999861211
 20
-2110.9999999970728
 30
0.0
 40
3.0
 50
270.0
 51
0.0
1001
ACDBBLOCKREPETAG
1070
     1
1071
      419
1005
12EE8C
  0
LINE
  5
12EE8D
  8
OBJECT
 10
255.99999999861211
 20
-1989.999999997073
 30
0.0
 11
258.99999999861211
 21
-1989.999999997073
 31
0.0
1001
ACDBBLOCKREPETAG
1070
     1
1071
      420
1005
12EE8D
  0
ARC
  5
12EE8E
  8
OBJECT
 10
258.99999999861211
 20
-1992.999999997073
 30
0.0
 40
3.0
 50
0.0
 51
90.0
1001
ACDBBLOCKREPETAG
1070
     1
1071
      421
1005
12EE8E
  0
LINE
  5
12EE8F
  8
OBJECT
 10
261.99999999861211
 20
-1992.999999997073
 30
0.0
 11
261.99999999861211
 21
-2110.9999999970728
 31
0.0
1001
ACDBBLOCKREPETAG
1070
     1
1071
      422
1005
12EE8F
  0
INSERT
  5
12EE90
  8
OBJECT
  2
*U23
 10
0.0
 20
0.0
 30
0.0
  0
LINE
  5
12EE91
  8
OBJECT
 10
113.9999999986121
 20
-1918.999999997073
 30
0.0
 11
113.9999999986121
 21
-1911.999999997073
 31
0.0
1001
ACDBBLOCKREPETAG
1070
     1
1071
       39
1005
12EE91
  0
LINE
  5
12EE92
  8
OBJECT
 10
113.9999999986121
 20
-1911.999999997073
 30
0.0
 11
237.99999999861211
 21
-1911.999999997073
 31
0.0
1001
ACDBBLOCKREPETAG
1070
     1
1071
       40
1005
12EE92
  0
LINE
  5
12EE93
  8
OBJECT
 10
237.99999999861211
 20
-1911.999999997073
 30
0.0
 11
237.99999999861211
 21
-1918.999999997073
 31
0.0
1001
ACDBBLOCKREPETAG
1070
     1
1071
       41
1005
12EE93
  0
LINE
  5
12EE94
  8
OBJECT
 10
237.99999999861211
 20
-1918.999999997073
 30
0.0
 11
113.9999999986121
 21
-1918.999999997073
 31
0.0
1001
ACDBBLOCKREPETAG
1070
     1
1071
       42
1005
12EE94
  0
LINE
  5
12EE95
  8
OBJECT
 10
116.9999999986121
 20
-1918.999999997073
 30
0.0
 11
116.9999999986121
 21
-1954.999999997073
 31
0.0
1001
ACDBBLOCKREPETAG
1070
     1
1071
       43
1005
12EE95
  0
LINE
  5
12EE96
  8
OBJECT
 10
116.9999999986121
 20
-1954.999999997073
 30
0.0
 11
234.99999999861211
 21
-1954.999999997073
 31
0.0
1001
ACDBBLOCKREPETAG
1070
     1
1071
       44
1005
12EE96
  0
LINE
  5
12EE97
  8
OBJECT
 10
234.99999999861211
 20
-1954.999999997073
 30
0.0
 11
234.99999999861211
 21
-1918.999999997073
 31
0.0
1001
ACDBBLOCKREPETAG
1070
     1
1071
       45
1005
12EE97
  0
LINE
  5
12EE98
  8
OBJECT
 10
121.4999999986121
 20
-1958.999999997073
 30
0.0
 11
121.4999999986121
 21
-1965.999999997073
 31
0.0
1001
ACDBBLOCKREPETAG
1070
     1
1071
       46
1005
12EE98
  0
LINE
  5
12EE99
  8
OBJECT
 10
230.49999999861211
 20
-1965.999999997073
 30
0.0
 11
230.49999999861211
 21
-1958.999999997073
 31
0.0
1001
ACDBBLOCKREPETAG
1070
     1
1071
       47
1005
12EE99
  0
LINE
  5
12EE9A
  8
OBJECT
 10
230.49999999861211
 20
-1958.999999997073
 30
0.0
 11
121.4999999986121
 21
-1958.999999997073
 31
0.0
1001
ACDBBLOCKREPETAG
1070
     1
1071
       48
1005
12EE9A
  0
LINE
  5
12EE9B
  8
OBJECT
 10
116.9999999986121
 20
-1954.999999997073
 30
0.0
 11
121.4999999986121
 21
-1958.999999997073
 31
0.0
1001
ACDBBLOCKREPETAG
1070
     1
1071
       49
1005
12EE9B
  0
LINE
  5
12EE9C
  8
OBJECT
 10
234.99999999861211
 20
-1954.999999997073
 30
0.0
 11
230.49999999861211
 21
-1958.999999997073
 31
0.0
1001
ACDBBLOCKREPETAG
1070
     1
1071
       50
1005
12EE9C
  0
LINE
  5
12EE9D
  8
OBJECT
 10
113.9999999986121
 20
-1968.9999999970721
 30
0.0
 11
113.9999999986121
 21
-1971.999999997073
 31
0.0
1001
ACDBBLOCKREPETAG
1070
     1
1071
       51
1005
12EE9D
  0
ARC
  5
12EE9E
  8
OBJECT
 10
116.9999999986121
 20
-1968.9999999970721
 30
0.0
 40
3.0
 50
90.0
 51
180.0
1001
ACDBBLOCKREPETAG
1070
     1
1071
       52
1005
12EE9E
  0
LINE
  5
12EE9F
  8
OBJECT
 10
237.99999999861211
 20
-1971.999999997073
 30
0.0
 11
237.99999999861211
 21
-1968.999999997073
 31
0.0
1001
ACDBBLOCKREPETAG
1070
     1
1071
       53
1005
12EE9F
  0
ARC
  5
12EEA0
  8
OBJECT
 10
234.99999999861211
 20
-1968.999999997073
 30
0.0
 40
3.0
 50
0.0
 51
90.0
1001
ACDBBLOCKREPETAG
1070
     1
1071
       54
1005
12EEA0
  0
LINE
  5
12EEA1
  8
OBJECT
 10
234.99999999861211
 20
-1965.999999997073
 30
0.0
 11
116.9999999986121
 21
-1965.9999999970721
 31
0.0
1001
ACDBBLOCKREPETAG
1070
     1
1071
       55
1005
12EEA1
  0
LINE
  5
12EEA2
  8
HIDDEN
 10
131.49999999861211
 20
-1963.999999997073
 30
0.0
 11
220.49999999861211
 21
-1963.999999997073
 31
0.0
1001
ACDBBLOCKREPETAG
1070
     1
1071
      426
1005
12EEA2
  0
TEXT
  5
12EEA3
  8
SLIM
 10
420.17142857124622
 20
-1835.9999999993749
 30
0.0
 40
48.0
  1
B303（特）
 41
0.75
1001
ACDBBLOCKREPETAG
1070
     1
1071
      119
1005
12DC99
  0
LINE
  5
12EEA4
  8
OBJECT
 10
597.99999999849024
 20
-1720.999999997231
 30
0.0
 11
597.99999999849024
 21
-1727.999999997231
 31
0.0
1001
ACDBBLOCKREPETAG
1070
     1
1071
       38
1005
12EEA4
  0
LINE
  5
12EEA5
  8
OBJECT
 10
597.99999999849024
 20
-1727.999999997231
 30
0.0
 11
473.99999999849018
 21
-1727.999999997231
 31
0.0
1001
ACDBBLOCKREPETAG
1070
     1
1071
       39
1005
12EEA5
  0
LINE
  5
12EEA6
  8
OBJECT
 10
473.99999999849018
 20
-1727.999999997231
 30
0.0
 11
473.99999999849018
 21
-1720.999999997231
 31
0.0
1001
ACDBBLOCKREPETAG
1070
     1
1071
       40
1005
12EEA6
  0
LINE
  5
12EEA7
  8
OBJECT
 10
473.99999999849018
 20
-1720.999999997231
 30
0.0
 11
597.99999999849024
 21
-1720.999999997231
 31
0.0
1001
ACDBBLOCKREPETAG
1070
     1
1071
       41
1005
12EEA7
  0
LINE
  5
12EEA8
  8
OBJECT
 10
594.99999999849024
 20
-1720.999999997231
 30
0.0
 11
594.99999999849024
 21
-1684.999999997231
 31
0.0
1001
ACDBBLOCKREPETAG
1070
     1
1071
       42
1005
12EEA8
  0
LINE
  5
12EEA9
  8
OBJECT
 10
594.99999999849024
 20
-1684.999999997231
 30
0.0
 11
476.99999999849018
 21
-1684.999999997231
 31
0.0
1001
ACDBBLOCKREPETAG
1070
     1
1071
       43
1005
12EEA9
  0
LINE
  5
12EEAA
  8
OBJECT
 10
476.99999999849018
 20
-1684.999999997231
 30
0.0
 11
476.99999999849018
 21
-1720.999999997231
 31
0.0
1001
ACDBBLOCKREPETAG
1070
     1
1071
       44
1005
12EEAA
  0
LINE
  5
12EEAB
  8
OBJECT
 10
590.49999999849024
 20
-1680.999999997231
 30
0.0
 11
590.49999999849024
 21
-1673.999999997231
 31
0.0
1001
ACDBBLOCKREPETAG
1070
     1
1071
       45
1005
12EEAB
  0
LINE
  5
12EEAC
  8
OBJECT
 10
481.49999999849018
 20
-1673.999999997231
 30
0.0
 11
481.49999999849018
 21
-1680.999999997231
 31
0.0
1001
ACDBBLOCKREPETAG
1070
     1
1071
       46
1005
12EEAC
  0
LINE
  5
12EEAD
  8
OBJECT
 10
481.49999999849018
 20
-1680.999999997231
 30
0.0
 11
590.49999999849024
 21
-1680.999999997231
 31
0.0
1001
ACDBBLOCKREPETAG
1070
     1
1071
       47
1005
12EEAD
  0
LINE
  5
12EEAE
  8
OBJECT
 10
594.99999999849024
 20
-1684.999999997231
 30
0.0
 11
590.49999999849024
 21
-1680.999999997231
 31
0.0
1001
ACDBBLOCKREPETAG
1070
     1
1071
       48
1005
12EEAE
  0
LINE
  5
12EEAF
  8
OBJECT
 10
476.99999999849018
 20
-1684.999999997231
 30
0.0
 11
481.49999999849018
 21
-1680.999999997231
 31
0.0
1001
ACDBBLOCKREPETAG
1070
     1
1071
       49
1005
12EEAF
  0
LINE
  5
12EEB0
  8
OBJECT
 10
597.99999999849024
 20
-1670.999999997231
 30
0.0
 11
597.99999999849024
 21
-1667.999999997231
 31
0.0
1001
ACDBBLOCKREPETAG
1070
     1
1071
       50
1005
12EEB0
  0
ARC
  5
12EEB1
  8
OBJECT
 10
594.99999999849024
 20
-1670.999999997231
 30
0.0
 40
3.0
 50
270.0
 51
0.0
1001
ACDBBLOCKREPETAG
1070
     1
1071
       51
1005
12EEB1
  0
LINE
  5
12EEB2
  8
OBJECT
 10
473.99999999849018
 20
-1667.999999997231
 30
0.0
 11
473.99999999849018
 21
-1670.999999997231
 31
0.0
1001
ACDBBLOCKREPETAG
1070
     1
1071
       52
1005
12EEB2
  0
ARC
  5
12EEB3
  8
OBJECT
 10
476.99999999849018
 20
-1670.999999997231
 30
0.0
 40
3.0
 50
180.0
 51
270.0
1001
ACDBBLOCKREPETAG
1070
     1
1071
       53
1005
12EEB3
  0
LINE
  5
12EEB4
  8
OBJECT
 10
476.99999999849018
 20
-1673.9999999972299
 30
0.0
 11
594.99999999849024
 21
-1673.999999997232
 31
0.0
1001
ACDBBLOCKREPETAG
1070
     1
1071
       54
1005
12EEB4
  0
INSERT
  5
12EEB5
  8
OBJECT
  2
*U24
 10
0.0
 20
0.0
 30
0.0
  0
LINE
  5
12EEB6
  8
HIDDEN
 10
580.49999999849024
 20
-1675.999999997231
 30
0.0
 11
491.49999999849018
 21
-1675.999999997231
 31
0.0
1001
ACDBBLOCKREPETAG
1070
     1
1071
      430
1005
12EEB6
  0
LINE
  5
12EEB7
  8
OBJECT
 10
618.99999999849024
 20
-1649.999999997231
 30
0.0
 11
615.99999999849024
 21
-1649.999999997231
 31
0.0
1001
ACDBBLOCKREPETAG
1070
     1
1071
      418
1005
12EEB7
  0
ARC
  5
12EEB8
  8
OBJECT
 10
618.99999999849024
 20
-1646.999999997231
 30
0.0
 40
3.0
 50
270.0
 51
0.0
1001
ACDBBLOCKREPETAG
1070
     1
1071
      419
1005
12EEB8
  0
LINE
  5
12EEB9
  8
OBJECT
 10
615.99999999849024
 20
-1525.999999997231
 30
0.0
 11
618.99999999849024
 21
-1525.999999997231
 31
0.0
1001
ACDBBLOCKREPETAG
1070
     1
1071
      420
1005
12EEB9
  0
ARC
  5
12EEBA
  8
OBJECT
 10
618.99999999849024
 20
-1528.999999997231
 30
0.0
 40
3.0
 50
0.0
 51
90.0
1001
ACDBBLOCKREPETAG
1070
     1
1071
      421
1005
12EEBA
  0
LINE
  5
12EEBB
  8
OBJECT
 10
621.99999999849024
 20
-1528.999999997231
 30
0.0
 11
621.99999999849024
 21
-1646.999999997231
 31
0.0
1001
ACDBBLOCKREPETAG
1070
     1
1071
      422
1005
12EEBB
  0
INSERT
  5
12EEBC
  8
OBJECT
  2
*U25
 10
0.0
 20
0.0
 30
0.0
  0
LINE
  5
12EEBD
  8
OBJECT
 10
473.99999999849018
 20
-1454.999999997231
 30
0.0
 11
473.99999999849018
 21
-1447.999999997231
 31
0.0
1001
ACDBBLOCKREPETAG
1070
     1
1071
       39
1005
12EEBD
  0
LINE
  5
12EEBE
  8
OBJECT
 10
473.99999999849018
 20
-1447.999999997231
 30
0.0
 11
597.99999999849024
 21
-1447.999999997231
 31
0.0
1001
ACDBBLOCKREPETAG
1070
     1
1071
       40
1005
12EEBE
  0
LINE
  5
12EEBF
  8
OBJECT
 10
597.99999999849024
 20
-1447.999999997231
 30
0.0
 11
597.99999999849024
 21
-1454.999999997231
 31
0.0
1001
ACDBBLOCKREPETAG
1070
     1
1071
       41
1005
12EEBF
  0
LINE
  5
12EEC0
  8
OBJECT
 10
597.99999999849024
 20
-1454.999999997231
 30
0.0
 11
473.99999999849018
 21
-1454.999999997231
 31
0.0
1001
ACDBBLOCKREPETAG
1070
     1
1071
       42
1005
12EEC0
  0
LINE
  5
12EEC1
  8
OBJECT
 10
476.99999999849018
 20
-1454.999999997231
 30
0.0
 11
476.99999999849018
 21
-1490.999999997231
 31
0.0
1001
ACDBBLOCKREPETAG
1070
     1
1071
       43
1005
12EEC1
  0
LINE
  5
12EEC2
  8
OBJECT
 10
476.99999999849018
 20
-1490.999999997231
 30
0.0
 11
594.99999999849024
 21
-1490.999999997231
 31
0.0
1001
ACDBBLOCKREPETAG
1070
     1
1071
       44
1005
12EEC2
  0
LINE
  5
12EEC3
  8
OBJECT
 10
594.99999999849024
 20
-1490.999999997231
 30
0.0
 11
594.99999999849024
 21
-1454.999999997231
 31
0.0
1001
ACDBBLOCKREPETAG
1070
     1
1071
       45
1005
12EEC3
  0
LINE
  5
12EEC4
  8
OBJECT
 10
481.49999999849018
 20
-1494.999999997231
 30
0.0
 11
481.49999999849018
 21
-1501.999999997231
 31
0.0
1001
ACDBBLOCKREPETAG
1070
     1
1071
       46
1005
12EEC4
  0
LINE
  5
12EEC5
  8
OBJECT
 10
590.49999999849024
 20
-1501.999999997231
 30
0.0
 11
590.49999999849024
 21
-1494.999999997231
 31
0.0
1001
ACDBBLOCKREPETAG
1070
     1
1071
       47
1005
12EEC5
  0
LINE
  5
12EEC6
  8
OBJECT
 10
590.49999999849024
 20
-1494.999999997231
 30
0.0
 11
481.49999999849018
 21
-1494.999999997231
 31
0.0
1001
ACDBBLOCKREPETAG
1070
     1
1071
       48
1005
12EEC6
  0
LINE
  5
12EEC7
  8
OBJECT
 10
476.99999999849018
 20
-1490.999999997231
 30
0.0
 11
481.49999999849018
 21
-1494.999999997231
 31
0.0
1001
ACDBBLOCKREPETAG
1070
     1
1071
       49
1005
12EEC7
  0
LINE
  5
12EEC8
  8
OBJECT
 10
594.99999999849024
 20
-1490.999999997231
 30
0.0
 11
590.49999999849024
 21
-1494.999999997231
 31
0.0
1001
ACDBBLOCKREPETAG
1070
     1
1071
       50
1005
12EEC8
  0
LINE
  5
12EEC9
  8
OBJECT
 10
473.99999999849018
 20
-1504.9999999972299
 30
0.0
 11
473.99999999849018
 21
-1507.999999997231
 31
0.0
1001
ACDBBLOCKREPETAG
1070
     1
1071
       51
1005
12EEC9
  0
ARC
  5
12EECA
  8
OBJECT
 10
476.99999999849018
 20
-1504.9999999972299
 30
0.0
 40
3.0
 50
90.0
 51
180.0
1001
ACDBBLOCKREPETAG
1070
     1
1071
       52
1005
12EECA
  0
LINE
  5
12EECB
  8
OBJECT
 10
597.99999999849024
 20
-1507.999999997231
 30
0.0
 11
597.99999999849024
 21
-1504.999999997232
 31
0.0
1001
ACDBBLOCKREPETAG
1070
     1
1071
       53
1005
12EECB
  0
ARC
  5
12EECC
  8
OBJECT
 10
594.99999999849024
 20
-1504.999999997232
 30
0.0
 40
3.0
 50
0.0
 51
90.0
1001
ACDBBLOCKREPETAG
1070
     1
1071
       54
1005
12EECC
  0
LINE
  5
12EECD
  8
OBJECT
 10
594.99999999849024
 20
-1501.999999997232
 30
0.0
 11
476.99999999849018
 21
-1501.9999999972299
 31
0.0
1001
ACDBBLOCKREPETAG
1070
     1
1071
       55
1005
12EECD
  0
LINE
  5
12EECE
  8
HIDDEN
 10
491.49999999849018
 20
-1499.999999997231
 30
0.0
 11
580.49999999849024
 21
-1499.999999997231
 31
0.0
1001
ACDBBLOCKREPETAG
1070
     1
1071
      426
1005
12EECE
  0
TEXT
  5
12EECF
  8
SLIM
 10
60.171428571368068
 20
-1835.9999999993749
 30
0.0
 40
48.0
  1
B204（特）
 41
0.75
1001
ACDBBLOCKREPETAG
1070
     1
1071
      119
1005
12DC99
  0
LINE
  5
12EED0
  8
OBJECT
 10
250.99999999861211
 20
-1737.999999997231
 30
0.0
 11
250.99999999861211
 21
-1730.999999997231
 31
0.0
1001
ACDBBLOCKREPETAG
1070
     1
1071
       57
1005
12EED0
  0
LINE
  5
12EED1
  8
OBJECT
 10
250.99999999861211
 20
-1730.999999997231
 30
0.0
 11
100.9999999986121
 21
-1730.999999997231
 31
0.0
1001
ACDBBLOCKREPETAG
1070
     1
1071
       58
1005
12EED1
  0
LINE
  5
12EED2
  8
OBJECT
 10
247.99999999861211
 20
-1689.499999997232
 30
0.0
 11
103.9999999986121
 21
-1689.499999997232
 31
0.0
1001
ACDBBLOCKREPETAG
1070
     1
1071
       59
1005
12EED2
  0
LINE
  5
12EED3
  8
OBJECT
 10
241.49999999861211
 20
-1677.999999997231
 30
0.0
 11
110.4999999986121
 21
-1677.999999997231
 31
0.0
1001
ACDBBLOCKREPETAG
1070
     1
1071
       60
1005
12EED3
  0
LINE
  5
12EED4
  8
OBJECT
 10
100.9999999986121
 20
-1730.999999997231
 30
0.0
 11
100.9999999986121
 21
-1737.999999997231
 31
0.0
1001
ACDBBLOCKREPETAG
1070
     1
1071
       61
1005
12EED4
  0
LINE
  5
12EED5
  8
OBJECT
 10
100.9999999986121
 20
-1737.999999997231
 30
0.0
 11
250.99999999861211
 21
-1737.999999997231
 31
0.0
1001
ACDBBLOCKREPETAG
1070
     1
1071
       62
1005
12EED5
  0
LINE
  5
12EED6
  8
OBJECT
 10
113.9999999986121
 20
-1673.999999997231
 30
0.0
 11
113.9999999986121
 21
-1667.999999997231
 31
0.0
1001
ACDBBLOCKREPETAG
1070
     1
1071
       63
1005
12EED6
  0
LINE
  5
12EED7
  8
OBJECT
 10
103.9999999986121
 20
-1730.999999997231
 30
0.0
 11
103.9999999986121
 21
-1689.499999997232
 31
0.0
1001
ACDBBLOCKREPETAG
1070
     1
1071
       64
1005
12EED7
  0
LINE
  5
12EED8
  8
OBJECT
 10
103.9999999986121
 20
-1689.499999997232
 30
0.0
 11
110.4999999986121
 21
-1677.999999997231
 31
0.0
1001
ACDBBLOCKREPETAG
1070
     1
1071
       65
1005
12EED8
  0
LINE
  5
12EED9
  8
OBJECT
 10
110.4999999986121
 20
-1677.999999997231
 30
0.0
 11
113.9999999986121
 21
-1673.999999997231
 31
0.0
1001
ACDBBLOCKREPETAG
1070
     1
1071
       66
1005
12EED9
  0
LINE
  5
12EEDA
  8
OBJECT
 10
247.99999999861211
 20
-1689.499999997232
 30
0.0
 11
241.49999999861211
 21
-1677.999999997231
 31
0.0
1001
ACDBBLOCKREPETAG
1070
     1
1071
       67
1005
12EEDA
  0
LINE
  5
12EEDB
  8
OBJECT
 10
241.49999999861211
 20
-1677.999999997231
 30
0.0
 11
237.99999999861211
 21
-1673.999999997231
 31
0.0
1001
ACDBBLOCKREPETAG
1070
     1
1071
       68
1005
12EEDB
  0
ARC
  5
12EEDC
  8
OBJECT
 10
175.99999999861211
 20
-2055.899999997233
 30
0.0
 40
386.89999999999998
 50
80.778701362368551
 51
99.221298637631435
1001
ACDBBLOCKREPETAG
1070
     1
1071
       69
1005
12EEDC
  0
LINE
  5
12EEDD
  8
OBJECT
 10
237.99999999861211
 20
-1673.999999997231
 30
0.0
 11
237.99999999861211
 21
-1667.999999997231
 31
0.0
1001
ACDBBLOCKREPETAG
1070
     1
1071
       70
1005
12EEDD
  0
LINE
  5
12EEDE
  8
OBJECT
 10
247.99999999861211
 20
-1730.999999997231
 30
0.0
 11
247.99999999861211
 21
-1689.499999997232
 31
0.0
1001
ACDBBLOCKREPETAG
1070
     1
1071
       71
1005
12EEDE
  0
INSERT
  5
12EEDF
  8
OBJECT
  2
*U26
 10
0.0
 20
0.0
 30
0.0
  0
LINE
  5
12EEE0
  8
HIDDEN
 10
118.9999999986121
 20
-1685.999999997231
 30
0.0
 11
232.99999999861211
 21
-1685.999999997231
 31
0.0
1001
ACDBBLOCKREPETAG
1070
     1
1071
      437
1005
12EEE0
  0
LINE
  5
12EEE1
  8
OBJECT
 10
258.99999999861211
 20
-1649.999999997231
 30
0.0
 11
255.99999999861211
 21
-1649.999999997231
 31
0.0
1001
ACDBBLOCKREPETAG
1070
     1
1071
      418
1005
12EEE1
  0
ARC
  5
12EEE2
  8
OBJECT
 10
258.99999999861211
 20
-1646.999999997231
 30
0.0
 40
3.0
 50
270.0
 51
0.0
1001
ACDBBLOCKREPETAG
1070
     1
1071
      419
1005
12EEE2
  0
LINE
  5
12EEE3
  8
OBJECT
 10
255.99999999861211
 20
-1525.999999997231
 30
0.0
 11
258.99999999861211
 21
-1525.999999997231
 31
0.0
1001
ACDBBLOCKREPETAG
1070
     1
1071
      420
1005
12EEE3
  0
ARC
  5
12EEE4
  8
OBJECT
 10
258.99999999861211
 20
-1528.999999997231
 30
0.0
 40
3.0
 50
0.0
 51
90.0
1001
ACDBBLOCKREPETAG
1070
     1
1071
      421
1005
12EEE4
  0
LINE
  5
12EEE5
  8
OBJECT
 10
261.99999999861211
 20
-1528.999999997231
 30
0.0
 11
261.99999999861211
 21
-1646.999999997231
 31
0.0
1001
ACDBBLOCKREPETAG
1070
     1
1071
      422
1005
12EEE5
  0
INSERT
  5
12EEE6
  8
OBJECT
  2
*U27
 10
0.0
 20
0.0
 30
0.0
  0
LINE
  5
12EEE7
  8
OBJECT
 10
120.9999999986121
 20
-1454.999999997231
 30
0.0
 11
120.9999999986121
 21
-1447.999999997231
 31
0.0
1001
ACDBBLOCKREPETAG
1070
     1
1071
       20
1005
12EEE7
  0
LINE
  5
12EEE8
  8
OBJECT
 10
120.9999999986121
 20
-1447.999999997231
 30
0.0
 11
230.99999999861211
 21
-1447.999999997231
 31
0.0
1001
ACDBBLOCKREPETAG
1070
     1
1071
       21
1005
12EEE8
  0
LINE
  5
12EEE9
  8
OBJECT
 10
230.99999999861211
 20
-1447.999999997231
 30
0.0
 11
230.99999999861211
 21
-1454.999999997231
 31
0.0
1001
ACDBBLOCKREPETAG
1070
     1
1071
       22
1005
12EEE9
  0
LINE
  5
12EEEA
  8
OBJECT
 10
230.99999999861211
 20
-1454.999999997231
 30
0.0
 11
120.9999999986121
 21
-1454.999999997231
 31
0.0
1001
ACDBBLOCKREPETAG
1070
     1
1071
       23
1005
12EEEA
  0
LINE
  5
12EEEB
  8
OBJECT
 10
123.9999999986121
 20
-1454.999999997231
 30
0.0
 11
123.9999999986121
 21
-1490.999999997231
 31
0.0
1001
ACDBBLOCKREPETAG
1070
     1
1071
       24
1005
12EEEB
  0
LINE
  5
12EEEC
  8
OBJECT
 10
123.9999999986121
 20
-1490.999999997231
 30
0.0
 11
227.99999999861211
 21
-1490.999999997231
 31
0.0
1001
ACDBBLOCKREPETAG
1070
     1
1071
       25
1005
12EEEC
  0
LINE
  5
12EEED
  8
OBJECT
 10
227.99999999861211
 20
-1490.999999997231
 30
0.0
 11
227.99999999861211
 21
-1454.999999997231
 31
0.0
1001
ACDBBLOCKREPETAG
1070
     1
1071
       26
1005
12EEED
  0
LINE
  5
12EEEE
  8
OBJECT
 10
128.49999999861211
 20
-1494.999999997231
 30
0.0
 11
128.49999999861211
 21
-1501.999999997231
 31
0.0
1001
ACDBBLOCKREPETAG
1070
     1
1071
       27
1005
12EEEE
  0
LINE
  5
12EEEF
  8
OBJECT
 10
223.49999999861211
 20
-1501.999999997231
 30
0.0
 11
223.49999999861211
 21
-1494.999999997231
 31
0.0
1001
ACDBBLOCKREPETAG
1070
     1
1071
       28
1005
12EEEF
  0
LINE
  5
12EEF0
  8
OBJECT
 10
223.49999999861211
 20
-1494.999999997231
 30
0.0
 11
128.49999999861211
 21
-1494.999999997231
 31
0.0
1001
ACDBBLOCKREPETAG
1070
     1
1071
       29
1005
12EEF0
  0
LINE
  5
12EEF1
  8
OBJECT
 10
123.9999999986121
 20
-1490.999999997231
 30
0.0
 11
128.49999999861211
 21
-1494.999999997231
 31
0.0
1001
ACDBBLOCKREPETAG
1070
     1
1071
       30
1005
12EEF1
  0
LINE
  5
12EEF2
  8
OBJECT
 10
227.99999999861211
 20
-1490.999999997231
 30
0.0
 11
223.49999999861211
 21
-1494.999999997231
 31
0.0
1001
ACDBBLOCKREPETAG
1070
     1
1071
       31
1005
12EEF2
  0
LINE
  5
12EEF3
  8
OBJECT
 10
113.9999999986121
 20
-1504.9999999972299
 30
0.0
 11
113.9999999986121
 21
-1507.999999997231
 31
0.0
1001
ACDBBLOCKREPETAG
1070
     1
1071
       32
1005
12EEF3
  0
ARC
  5
12EEF4
  8
OBJECT
 10
116.9999999986121
 20
-1504.9999999972299
 30
0.0
 40
3.0
 50
90.0
 51
180.0
1001
ACDBBLOCKREPETAG
1070
     1
1071
       33
1005
12EEF4
  0
LINE
  5
12EEF5
  8
OBJECT
 10
237.99999999861211
 20
-1507.999999997231
 30
0.0
 11
237.99999999861211
 21
-1504.999999997232
 31
0.0
1001
ACDBBLOCKREPETAG
1070
     1
1071
       34
1005
12EEF5
  0
ARC
  5
12EEF6
  8
OBJECT
 10
234.99999999861211
 20
-1504.999999997232
 30
0.0
 40
3.0
 50
0.0
 51
90.0
1001
ACDBBLOCKREPETAG
1070
     1
1071
       35
1005
12EEF6
  0
LINE
  5
12EEF7
  8
OBJECT
 10
234.99999999861211
 20
-1501.999999997232
 30
0.0
 11
116.9999999986121
 21
-1501.9999999972299
 31
0.0
1001
ACDBBLOCKREPETAG
1070
     1
1071
       36
1005
12EEF7
  0
LINE
  5
12EEF8
  8
HIDDEN
 10
137.99999999861211
 20
-1499.999999997231
 30
0.0
 11
213.99999999861211
 21
-1499.999999997231
 31
0.0
1001
ACDBBLOCKREPETAG
1070
     1
1071
      423
1005
12EEF8
  0
TEXT
  5
12EEF9
  8
SLIM
 10
420.17142857124622
 20
-1371.9999999995321
 30
0.0
 40
48.0
  1
B203（特）
 41
0.75
1001
ACDBBLOCKREPETAG
1070
     1
1071
      119
1005
12DC99
  0
LINE
  5
12EEFA
  8
OBJECT
 10
597.99999999849024
 20
-1256.99999999739
 30
0.0
 11
597.99999999849024
 21
-1263.99999999739
 31
0.0
1001
ACDBBLOCKREPETAG
1070
     1
1071
       38
1005
12EEFA
  0
LINE
  5
12EEFB
  8
OBJECT
 10
597.99999999849024
 20
-1263.99999999739
 30
0.0
 11
473.99999999849018
 21
-1263.99999999739
 31
0.0
1001
ACDBBLOCKREPETAG
1070
     1
1071
       39
1005
12EEFB
  0
LINE
  5
12EEFC
  8
OBJECT
 10
473.99999999849018
 20
-1263.99999999739
 30
0.0
 11
473.99999999849018
 21
-1256.99999999739
 31
0.0
1001
ACDBBLOCKREPETAG
1070
     1
1071
       40
1005
12EEFC
  0
LINE
  5
12EEFD
  8
OBJECT
 10
473.99999999849018
 20
-1256.99999999739
 30
0.0
 11
597.99999999849024
 21
-1256.99999999739
 31
0.0
1001
ACDBBLOCKREPETAG
1070
     1
1071
       41
1005
12EEFD
  0
LINE
  5
12EEFE
  8
OBJECT
 10
594.99999999849024
 20
-1256.99999999739
 30
0.0
 11
594.99999999849024
 21
-1220.9999999973891
 31
0.0
1001
ACDBBLOCKREPETAG
1070
     1
1071
       42
1005
12EEFE
  0
LINE
  5
12EEFF
  8
OBJECT
 10
594.99999999849024
 20
-1220.9999999973891
 30
0.0
 11
476.99999999849018
 21
-1220.9999999973891
 31
0.0
1001
ACDBBLOCKREPETAG
1070
     1
1071
       43
1005
12EEFF
  0
LINE
  5
12EF00
  8
OBJECT
 10
476.99999999849018
 20
-1220.9999999973891
 30
0.0
 11
476.99999999849018
 21
-1256.99999999739
 31
0.0
1001
ACDBBLOCKREPETAG
1070
     1
1071
       44
1005
12EF00
  0
LINE
  5
12EF01
  8
OBJECT
 10
590.49999999849024
 20
-1216.99999999739
 30
0.0
 11
590.49999999849024
 21
-1209.99999999739
 31
0.0
1001
ACDBBLOCKREPETAG
1070
     1
1071
       45
1005
12EF01
  0
LINE
  5
12EF02
  8
OBJECT
 10
481.49999999849018
 20
-1209.99999999739
 30
0.0
 11
481.49999999849018
 21
-1216.99999999739
 31
0.0
1001
ACDBBLOCKREPETAG
1070
     1
1071
       46
1005
12EF02
  0
LINE
  5
12EF03
  8
OBJECT
 10
481.49999999849018
 20
-1216.99999999739
 30
0.0
 11
590.49999999849024
 21
-1216.99999999739
 31
0.0
1001
ACDBBLOCKREPETAG
1070
     1
1071
       47
1005
12EF03
  0
LINE
  5
12EF04
  8
OBJECT
 10
594.99999999849024
 20
-1220.9999999973891
 30
0.0
 11
590.49999999849024
 21
-1216.99999999739
 31
0.0
1001
ACDBBLOCKREPETAG
1070
     1
1071
       48
1005
12EF04
  0
LINE
  5
12EF05
  8
OBJECT
 10
476.99999999849018
 20
-1220.9999999973891
 30
0.0
 11
481.49999999849018
 21
-1216.99999999739
 31
0.0
1001
ACDBBLOCKREPETAG
1070
     1
1071
       49
1005
12EF05
  0
LINE
  5
12EF06
  8
OBJECT
 10
597.99999999849024
 20
-1206.9999999973909
 30
0.0
 11
597.99999999849024
 21
-1203.99999999739
 31
0.0
1001
ACDBBLOCKREPETAG
1070
     1
1071
       50
1005
12EF06
  0
ARC
  5
12EF07
  8
OBJECT
 10
594.99999999849024
 20
-1206.9999999973909
 30
0.0
 40
3.0
 50
270.0
 51
0.0
1001
ACDBBLOCKREPETAG
1070
     1
1071
       51
1005
12EF07
  0
LINE
  5
12EF08
  8
OBJECT
 10
473.99999999849018
 20
-1203.99999999739
 30
0.0
 11
473.99999999849018
 21
-1206.9999999973891
 31
0.0
1001
ACDBBLOCKREPETAG
1070
     1
1071
       52
1005
12EF08
  0
ARC
  5
12EF09
  8
OBJECT
 10
476.99999999849018
 20
-1206.9999999973891
 30
0.0
 40
3.0
 50
180.0
 51
270.0
1001
ACDBBLOCKREPETAG
1070
     1
1071
       53
1005
12EF09
  0
LINE
  5
12EF0A
  8
OBJECT
 10
476.99999999849018
 20
-1209.9999999973891
 30
0.0
 11
594.99999999849024
 21
-1209.99999999739
 31
0.0
1001
ACDBBLOCKREPETAG
1070
     1
1071
       54
1005
12EF0A
  0
INSERT
  5
12EF0B
  8
OBJECT
  2
*U28
 10
0.0
 20
0.0
 30
0.0
  0
LINE
  5
12EF0C
  8
HIDDEN
 10
580.49999999849024
 20
-1211.99999999739
 30
0.0
 11
491.49999999849018
 21
-1211.99999999739
 31
0.0
1001
ACDBBLOCKREPETAG
1070
     1
1071
      430
1005
12EF0C
  0
LINE
  5
12EF0D
  8
OBJECT
 10
618.99999999849024
 20
-1185.99999999739
 30
0.0
 11
615.99999999849024
 21
-1185.99999999739
 31
0.0
1001
ACDBBLOCKREPETAG
1070
     1
1071
      418
1005
12EF0D
  0
ARC
  5
12EF0E
  8
OBJECT
 10
618.99999999849024
 20
-1182.99999999739
 30
0.0
 40
3.0
 50
270.0
 51
0.0
1001
ACDBBLOCKREPETAG
1070
     1
1071
      419
1005
12EF0E
  0
LINE
  5
12EF0F
  8
OBJECT
 10
615.99999999849024
 20
-1061.9999999973891
 30
0.0
 11
618.99999999849024
 21
-1061.9999999973891
 31
0.0
1001
ACDBBLOCKREPETAG
1070
     1
1071
      420
1005
12EF0F
  0
ARC
  5
12EF10
  8
OBJECT
 10
618.99999999849024
 20
-1064.99999999739
 30
0.0
 40
3.0
 50
0.0
 51
90.0
1001
ACDBBLOCKREPETAG
1070
     1
1071
      421
1005
12EF10
  0
LINE
  5
12EF11
  8
OBJECT
 10
621.99999999849024
 20
-1064.99999999739
 30
0.0
 11
621.99999999849024
 21
-1182.99999999739
 31
0.0
1001
ACDBBLOCKREPETAG
1070
     1
1071
      422
1005
12EF11
  0
INSERT
  5
12EF12
  8
OBJECT
  2
*U29
 10
0.0
 20
0.0
 30
0.0
  0
LINE
  5
12EF13
  8
OBJECT
 10
480.99999999849018
 20
-990.99999999738964
 30
0.0
 11
480.99999999849018
 21
-983.99999999738964
 31
0.0
1001
ACDBBLOCKREPETAG
1070
     1
1071
       20
1005
12EF13
  0
LINE
  5
12EF14
  8
OBJECT
 10
480.99999999849018
 20
-983.99999999738964
 30
0.0
 11
590.99999999849024
 21
-983.99999999738964
 31
0.0
1001
ACDBBLOCKREPETAG
1070
     1
1071
       21
1005
12EF14
  0
LINE
  5
12EF15
  8
OBJECT
 10
590.99999999849024
 20
-983.99999999738964
 30
0.0
 11
590.99999999849024
 21
-990.99999999738964
 31
0.0
1001
ACDBBLOCKREPETAG
1070
     1
1071
       22
1005
12EF15
  0
LINE
  5
12EF16
  8
OBJECT
 10
590.99999999849024
 20
-990.99999999738964
 30
0.0
 11
480.99999999849018
 21
-990.99999999738964
 31
0.0
1001
ACDBBLOCKREPETAG
1070
     1
1071
       23
1005
12EF16
  0
LINE
  5
12EF17
  8
OBJECT
 10
483.99999999849018
 20
-990.99999999738964
 30
0.0
 11
483.99999999849018
 21
-1026.99999999739
 31
0.0
1001
ACDBBLOCKREPETAG
1070
     1
1071
       24
1005
12EF17
  0
LINE
  5
12EF18
  8
OBJECT
 10
483.99999999849018
 20
-1026.99999999739
 30
0.0
 11
587.99999999849024
 21
-1026.99999999739
 31
0.0
1001
ACDBBLOCKREPETAG
1070
     1
1071
       25
1005
12EF18
  0
LINE
  5
12EF19
  8
OBJECT
 10
587.99999999849024
 20
-1026.99999999739
 30
0.0
 11
587.99999999849024
 21
-990.99999999738964
 31
0.0
1001
ACDBBLOCKREPETAG
1070
     1
1071
       26
1005
12EF19
  0
LINE
  5
12EF1A
  8
OBJECT
 10
488.49999999849018
 20
-1030.99999999739
 30
0.0
 11
488.49999999849018
 21
-1037.9999999973891
 31
0.0
1001
ACDBBLOCKREPETAG
1070
     1
1071
       27
1005
12EF1A
  0
LINE
  5
12EF1B
  8
OBJECT
 10
583.49999999849024
 20
-1037.9999999973891
 30
0.0
 11
583.49999999849024
 21
-1030.99999999739
 31
0.0
1001
ACDBBLOCKREPETAG
1070
     1
1071
       28
1005
12EF1B
  0
LINE
  5
12EF1C
  8
OBJECT
 10
583.49999999849024
 20
-1030.99999999739
 30
0.0
 11
488.49999999849018
 21
-1030.99999999739
 31
0.0
1001
ACDBBLOCKREPETAG
1070
     1
1071
       29
1005
12EF1C
  0
LINE
  5
12EF1D
  8
OBJECT
 10
483.99999999849018
 20
-1026.99999999739
 30
0.0
 11
488.49999999849018
 21
-1030.99999999739
 31
0.0
1001
ACDBBLOCKREPETAG
1070
     1
1071
       30
1005
12EF1D
  0
LINE
  5
12EF1E
  8
OBJECT
 10
587.99999999849024
 20
-1026.99999999739
 30
0.0
 11
583.49999999849024
 21
-1030.99999999739
 31
0.0
1001
ACDBBLOCKREPETAG
1070
     1
1071
       31
1005
12EF1E
  0
LINE
  5
12EF1F
  8
OBJECT
 10
473.99999999849018
 20
-1040.9999999973891
 30
0.0
 11
473.99999999849018
 21
-1043.99999999739
 31
0.0
1001
ACDBBLOCKREPETAG
1070
     1
1071
       32
1005
12EF1F
  0
ARC
  5
12EF20
  8
OBJECT
 10
476.99999999849018
 20
-1040.9999999973891
 30
0.0
 40
3.0
 50
90.0
 51
180.0
1001
ACDBBLOCKREPETAG
1070
     1
1071
       33
1005
12EF20
  0
LINE
  5
12EF21
  8
OBJECT
 10
597.99999999849024
 20
-1043.99999999739
 30
0.0
 11
597.99999999849024
 21
-1040.99999999739
 31
0.0
1001
ACDBBLOCKREPETAG
1070
     1
1071
       34
1005
12EF21
  0
ARC
  5
12EF22
  8
OBJECT
 10
594.99999999849024
 20
-1040.99999999739
 30
0.0
 40
3.0
 50
0.0
 51
90.0
1001
ACDBBLOCKREPETAG
1070
     1
1071
       35
1005
12EF22
  0
LINE
  5
12EF23
  8
OBJECT
 10
594.99999999849024
 20
-1037.99999999739
 30
0.0
 11
476.99999999849018
 21
-1037.9999999973891
 31
0.0
1001
ACDBBLOCKREPETAG
1070
     1
1071
       36
1005
12EF23
  0
LINE
  5
12EF24
  8
HIDDEN
 10
497.99999999849018
 20
-1035.99999999739
 30
0.0
 11
573.99999999849024
 21
-1035.99999999739
 31
0.0
1001
ACDBBLOCKREPETAG
1070
     1
1071
      423
1005
12EF24
  0
TEXT
  5
12EF25
  8
SLIM
 10
115.714285714225
 20
-1371.9999999995321
 30
0.0
 40
48.0
  1
B202
 41
0.75
1001
ACDBBLOCKREPETAG
1070
     1
1071
      119
1005
12DC99
  0
LINE
  5
12EF26
  8
OBJECT
 10
230.999999998612
 20
-1256.99999999739
 30
0.0
 11
230.999999998612
 21
-1263.99999999739
 31
0.0
1001
ACDBBLOCKREPETAG
1070
     1
1071
       19
1005
12EF26
  0
LINE
  5
12EF27
  8
OBJECT
 10
230.999999998612
 20
-1263.99999999739
 30
0.0
 11
120.9999999986119
 21
-1263.99999999739
 31
0.0
1001
ACDBBLOCKREPETAG
1070
     1
1071
       20
1005
12EF27
  0
LINE
  5
12EF28
  8
OBJECT
 10
120.9999999986119
 20
-1263.99999999739
 30
0.0
 11
120.9999999986119
 21
-1256.99999999739
 31
0.0
1001
ACDBBLOCKREPETAG
1070
     1
1071
       21
1005
12EF28
  0
LINE
  5
12EF29
  8
OBJECT
 10
120.9999999986119
 20
-1256.99999999739
 30
0.0
 11
230.999999998612
 21
-1256.99999999739
 31
0.0
1001
ACDBBLOCKREPETAG
1070
     1
1071
       22
1005
12EF29
  0
LINE
  5
12EF2A
  8
OBJECT
 10
227.99999999861191
 20
-1256.99999999739
 30
0.0
 11
227.99999999861191
 21
-1220.9999999973891
 31
0.0
1001
ACDBBLOCKREPETAG
1070
     1
1071
       23
1005
12EF2A
  0
LINE
  5
12EF2B
  8
OBJECT
 10
227.99999999861191
 20
-1220.9999999973891
 30
0.0
 11
123.9999999986119
 21
-1220.9999999973891
 31
0.0
1001
ACDBBLOCKREPETAG
1070
     1
1071
       24
1005
12EF2B
  0
LINE
  5
12EF2C
  8
OBJECT
 10
123.9999999986119
 20
-1220.9999999973891
 30
0.0
 11
123.9999999986119
 21
-1256.99999999739
 31
0.0
1001
ACDBBLOCKREPETAG
1070
     1
1071
       25
1005
12EF2C
  0
LINE
  5
12EF2D
  8
OBJECT
 10
223.49999999861191
 20
-1216.99999999739
 30
0.0
 11
223.49999999861191
 21
-1209.99999999739
 31
0.0
1001
ACDBBLOCKREPETAG
1070
     1
1071
       26
1005
12EF2D
  0
LINE
  5
12EF2E
  8
OBJECT
 10
128.49999999861191
 20
-1209.99999999739
 30
0.0
 11
128.49999999861191
 21
-1216.99999999739
 31
0.0
1001
ACDBBLOCKREPETAG
1070
     1
1071
       27
1005
12EF2E
  0
LINE
  5
12EF2F
  8
OBJECT
 10
128.49999999861191
 20
-1216.99999999739
 30
0.0
 11
223.49999999861191
 21
-1216.99999999739
 31
0.0
1001
ACDBBLOCKREPETAG
1070
     1
1071
       28
1005
12EF2F
  0
LINE
  5
12EF30
  8
OBJECT
 10
227.99999999861191
 20
-1220.9999999973891
 30
0.0
 11
223.49999999861191
 21
-1216.99999999739
 31
0.0
1001
ACDBBLOCKREPETAG
1070
     1
1071
       29
1005
12EF30
  0
LINE
  5
12EF31
  8
OBJECT
 10
123.9999999986119
 20
-1220.9999999973891
 30
0.0
 11
128.49999999861191
 21
-1216.99999999739
 31
0.0
1001
ACDBBLOCKREPETAG
1070
     1
1071
       30
1005
12EF31
  0
LINE
  5
12EF32
  8
OBJECT
 10
237.99999999861191
 20
-1206.9999999973909
 30
0.0
 11
237.99999999861191
 21
-1203.99999999739
 31
0.0
1001
ACDBBLOCKREPETAG
1070
     1
1071
       31
1005
12EF32
  0
ARC
  5
12EF33
  8
OBJECT
 10
234.999999998612
 20
-1206.9999999973909
 30
0.0
 40
3.0
 50
270.0
 51
0.0
1001
ACDBBLOCKREPETAG
1070
     1
1071
       32
1005
12EF33
  0
LINE
  5
12EF34
  8
OBJECT
 10
113.9999999986119
 20
-1203.99999999739
 30
0.0
 11
113.9999999986119
 21
-1206.9999999973891
 31
0.0
1001
ACDBBLOCKREPETAG
1070
     1
1071
       33
1005
12EF34
  0
ARC
  5
12EF35
  8
OBJECT
 10
116.9999999986119
 20
-1206.9999999973891
 30
0.0
 40
3.0
 50
180.0
 51
270.0
1001
ACDBBLOCKREPETAG
1070
     1
1071
       34
1005
12EF35
  0
LINE
  5
12EF36
  8
OBJECT
 10
116.9999999986119
 20
-1209.9999999973891
 30
0.0
 11
234.999999998612
 21
-1209.99999999739
 31
0.0
1001
ACDBBLOCKREPETAG
1070
     1
1071
       35
1005
12EF36
  0
INSERT
  5
12EF37
  8
OBJECT
  2
*U30
 10
0.0
 20
0.0
 30
0.0
  0
LINE
  5
12EF38
  8
HIDDEN
 10
213.999999998612
 20
-1211.99999999739
 30
0.0
 11
137.99999999861191
 21
-1211.99999999739
 31
0.0
1001
ACDBBLOCKREPETAG
1070
     1
1071
      427
1005
12EF38
  0
LINE
  5
12EF39
  8
OBJECT
 10
258.99999999861188
 20
-1185.99999999739
 30
0.0
 11
255.999999998612
 21
-1185.99999999739
 31
0.0
1001
ACDBBLOCKREPETAG
1070
     1
1071
      418
1005
12EF39
  0
ARC
  5
12EF3A
  8
OBJECT
 10
258.99999999861188
 20
-1182.99999999739
 30
0.0
 40
3.0
 50
270.0
 51
0.0
1001
ACDBBLOCKREPETAG
1070
     1
1071
      419
1005
12EF3A
  0
LINE
  5
12EF3B
  8
OBJECT
 10
255.999999998612
 20
-1061.9999999973891
 30
0.0
 11
258.99999999861188
 21
-1061.9999999973891
 31
0.0
1001
ACDBBLOCKREPETAG
1070
     1
1071
      420
1005
12EF3B
  0
ARC
  5
12EF3C
  8
OBJECT
 10
258.99999999861188
 20
-1064.99999999739
 30
0.0
 40
3.0
 50
0.0
 51
90.0
1001
ACDBBLOCKREPETAG
1070
     1
1071
      421
1005
12EF3C
  0
LINE
  5
12EF3D
  8
OBJECT
 10
261.999999998612
 20
-1064.99999999739
 30
0.0
 11
261.999999998612
 21
-1182.99999999739
 31
0.0
1001
ACDBBLOCKREPETAG
1070
     1
1071
      422
1005
12EF3D
  0
INSERT
  5
12EF3E
  8
OBJECT
  2
*U31
 10
0.0
 20
0.0
 30
0.0
  0
LINE
  5
12EF3F
  8
OBJECT
 10
120.9999999986119
 20
-990.99999999738964
 30
0.0
 11
120.9999999986119
 21
-983.99999999738964
 31
0.0
1001
ACDBBLOCKREPETAG
1070
     1
1071
       20
1005
12EF3F
  0
LINE
  5
12EF40
  8
OBJECT
 10
120.9999999986119
 20
-983.99999999738964
 30
0.0
 11
230.999999998612
 21
-983.99999999738964
 31
0.0
1001
ACDBBLOCKREPETAG
1070
     1
1071
       21
1005
12EF40
  0
LINE
  5
12EF41
  8
OBJECT
 10
230.999999998612
 20
-983.99999999738964
 30
0.0
 11
230.999999998612
 21
-990.99999999738964
 31
0.0
1001
ACDBBLOCKREPETAG
1070
     1
1071
       22
1005
12EF41
  0
LINE
  5
12EF42
  8
OBJECT
 10
230.999999998612
 20
-990.99999999738964
 30
0.0
 11
120.9999999986119
 21
-990.99999999738964
 31
0.0
1001
ACDBBLOCKREPETAG
1070
     1
1071
       23
1005
12EF42
  0
LINE
  5
12EF43
  8
OBJECT
 10
123.9999999986119
 20
-990.99999999738964
 30
0.0
 11
123.9999999986119
 21
-1026.99999999739
 31
0.0
1001
ACDBBLOCKREPETAG
1070
     1
1071
       24
1005
12EF43
  0
LINE
  5
12EF44
  8
OBJECT
 10
123.9999999986119
 20
-1026.99999999739
 30
0.0
 11
227.99999999861191
 21
-1026.99999999739
 31
0.0
1001
ACDBBLOCKREPETAG
1070
     1
1071
       25
1005
12EF44
  0
LINE
  5
12EF45
  8
OBJECT
 10
227.99999999861191
 20
-1026.99999999739
 30
0.0
 11
227.99999999861191
 21
-990.99999999738964
 31
0.0
1001
ACDBBLOCKREPETAG
1070
     1
1071
       26
1005
12EF45
  0
LINE
  5
12EF46
  8
OBJECT
 10
128.49999999861191
 20
-1030.99999999739
 30
0.0
 11
128.49999999861191
 21
-1037.9999999973891
 31
0.0
1001
ACDBBLOCKREPETAG
1070
     1
1071
       27
1005
12EF46
  0
LINE
  5
12EF47
  8
OBJECT
 10
223.49999999861191
 20
-1037.9999999973891
 30
0.0
 11
223.49999999861191
 21
-1030.99999999739
 31
0.0
1001
ACDBBLOCKREPETAG
1070
     1
1071
       28
1005
12EF47
  0
LINE
  5
12EF48
  8
OBJECT
 10
223.49999999861191
 20
-1030.99999999739
 30
0.0
 11
128.49999999861191
 21
-1030.99999999739
 31
0.0
1001
ACDBBLOCKREPETAG
1070
     1
1071
       29
1005
12EF48
  0
LINE
  5
12EF49
  8
OBJECT
 10
123.9999999986119
 20
-1026.99999999739
 30
0.0
 11
128.49999999861191
 21
-1030.99999999739
 31
0.0
1001
ACDBBLOCKREPETAG
1070
     1
1071
       30
1005
12EF49
  0
LINE
  5
12EF4A
  8
OBJECT
 10
227.99999999861191
 20
-1026.99999999739
 30
0.0
 11
223.49999999861191
 21
-1030.99999999739
 31
0.0
1001
ACDBBLOCKREPETAG
1070
     1
1071
       31
1005
12EF4A
  0
LINE
  5
12EF4B
  8
OBJECT
 10
113.9999999986119
 20
-1040.9999999973891
 30
0.0
 11
113.9999999986119
 21
-1043.99999999739
 31
0.0
1001
ACDBBLOCKREPETAG
1070
     1
1071
       32
1005
12EF4B
  0
ARC
  5
12EF4C
  8
OBJECT
 10
116.9999999986119
 20
-1040.9999999973891
 30
0.0
 40
3.0
 50
90.0
 51
180.0
1001
ACDBBLOCKREPETAG
1070
     1
1071
       33
1005
12EF4C
  0
LINE
  5
12EF4D
  8
OBJECT
 10
237.99999999861191
 20
-1043.99999999739
 30
0.0
 11
237.99999999861191
 21
-1040.99999999739
 31
0.0
1001
ACDBBLOCKREPETAG
1070
     1
1071
       34
1005
12EF4D
  0
ARC
  5
12EF4E
  8
OBJECT
 10
234.999999998612
 20
-1040.99999999739
 30
0.0
 40
3.0
 50
0.0
 51
90.0
1001
ACDBBLOCKREPETAG
1070
     1
1071
       35
1005
12EF4E
  0
LINE
  5
12EF4F
  8
OBJECT
 10
234.999999998612
 20
-1037.99999999739
 30
0.0
 11
116.9999999986119
 21
-1037.9999999973891
 31
0.0
1001
ACDBBLOCKREPETAG
1070
     1
1071
       36
1005
12EF4F
  0
LINE
  5
12EF50
  8
HIDDEN
 10
137.99999999861191
 20
-1035.99999999739
 30
0.0
 11
213.999999998612
 21
-1035.99999999739
 31
0.0
1001
ACDBBLOCKREPETAG
1070
     1
1071
      423
1005
12EF50
  0
TEXT
  5
12EF51
  8
SLIM
 10
423.59999999981761
 20
-907.999999999691
 30
0.0
 40
48.0
  1
B104（特）
 41
0.75
1001
ACDBBLOCKREPETAG
1070
     1
1071
      119
1005
12DC99
  0
LINE
  5
12EF52
  8
OBJECT
 10
610.99999999849024
 20
-809.999999997548
 30
0.0
 11
610.99999999849024
 21
-802.99999999754823
 31
0.0
1001
ACDBBLOCKREPETAG
1070
     1
1071
       57
1005
12EF52
  0
LINE
  5
12EF53
  8
OBJECT
 10
610.99999999849024
 20
-802.99999999754823
 30
0.0
 11
460.99999999849018
 21
-802.99999999754823
 31
0.0
1001
ACDBBLOCKREPETAG
1070
     1
1071
       58
1005
12EF53
  0
LINE
  5
12EF54
  8
OBJECT
 10
607.99999999849024
 20
-761.49999999754812
 30
0.0
 11
463.99999999849018
 21
-761.49999999754812
 31
0.0
1001
ACDBBLOCKREPETAG
1070
     1
1071
       59
1005
12EF54
  0
LINE
  5
12EF55
  8
OBJECT
 10
601.49999999849024
 20
-749.999999997548
 30
0.0
 11
470.49999999849018
 21
-749.999999997548
 31
0.0
1001
ACDBBLOCKREPETAG
1070
     1
1071
       60
1005
12EF55
  0
LINE
  5
12EF56
  8
OBJECT
 10
460.99999999849018
 20
-802.99999999754823
 30
0.0
 11
460.99999999849018
 21
-809.999999997548
 31
0.0
1001
ACDBBLOCKREPETAG
1070
     1
1071
       61
1005
12EF56
  0
LINE
  5
12EF57
  8
OBJECT
 10
460.99999999849018
 20
-809.999999997548
 30
0.0
 11
610.99999999849024
 21
-809.999999997548
 31
0.0
1001
ACDBBLOCKREPETAG
1070
     1
1071
       62
1005
12EF57
  0
LINE
  5
12EF58
  8
OBJECT
 10
473.99999999849018
 20
-745.999999997548
 30
0.0
 11
473.99999999849018
 21
-739.99999999754812
 31
0.0
1001
ACDBBLOCKREPETAG
1070
     1
1071
       63
1005
12EF58
  0
LINE
  5
12EF59
  8
OBJECT
 10
463.99999999849018
 20
-802.99999999754823
 30
0.0
 11
463.99999999849018
 21
-761.49999999754812
 31
0.0
1001
ACDBBLOCKREPETAG
1070
     1
1071
       64
1005
12EF59
  0
LINE
  5
12EF5A
  8
OBJECT
 10
463.99999999849018
 20
-761.49999999754812
 30
0.0
 11
470.49999999849018
 21
-749.999999997548
 31
0.0
1001
ACDBBLOCKREPETAG
1070
     1
1071
       65
1005
12EF5A
  0
LINE
  5
12EF5B
  8
OBJECT
 10
470.49999999849018
 20
-749.999999997548
 30
0.0
 11
473.99999999849018
 21
-745.999999997548
 31
0.0
1001
ACDBBLOCKREPETAG
1070
     1
1071
       66
1005
12EF5B
  0
LINE
  5
12EF5C
  8
OBJECT
 10
607.99999999849024
 20
-761.49999999754812
 30
0.0
 11
601.49999999849024
 21
-749.999999997548
 31
0.0
1001
ACDBBLOCKREPETAG
1070
     1
1071
       67
1005
12EF5C
  0
LINE
  5
12EF5D
  8
OBJECT
 10
601.49999999849024
 20
-749.999999997548
 30
0.0
 11
597.99999999849024
 21
-745.999999997548
 31
0.0
1001
ACDBBLOCKREPETAG
1070
     1
1071
       68
1005
12EF5D
  0
ARC
  5
12EF5E
  8
OBJECT
 10
535.99999999849024
 20
-1127.899999997549
 30
0.0
 40
386.89999999999998
 50
80.778701362367499
 51
99.221298637632543
1001
ACDBBLOCKREPETAG
1070
     1
1071
       69
1005
12EF5E
  0
LINE
  5
12EF5F
  8
OBJECT
 10
597.99999999849024
 20
-745.999999997548
 30
0.0
 11
597.99999999849024
 21
-739.99999999754812
 31
0.0
1001
ACDBBLOCKREPETAG
1070
     1
1071
       70
1005
12EF5F
  0
LINE
  5
12EF60
  8
OBJECT
 10
607.99999999849024
 20
-802.99999999754823
 30
0.0
 11
607.99999999849024
 21
-761.49999999754812
 31
0.0
1001
ACDBBLOCKREPETAG
1070
     1
1071
       71
1005
12EF60
  0
INSERT
  5
12EF61
  8
OBJECT
  2
*U32
 10
0.0
 20
0.0
 30
0.0
  0
LINE
  5
12EF62
  8
HIDDEN
 10
478.99999999849018
 20
-757.99999999754812
 30
0.0
 11
592.99999999849024
 21
-757.99999999754812
 31
0.0
1001
ACDBBLOCKREPETAG
1070
     1
1071
      437
1005
12EF62
  0
LINE
  5
12EF63
  8
OBJECT
 10
618.99999999849024
 20
-721.99999999754812
 30
0.0
 11
615.99999999849024
 21
-721.99999999754812
 31
0.0
1001
ACDBBLOCKREPETAG
1070
     1
1071
      418
1005
12EF63
  0
ARC
  5
12EF64
  8
OBJECT
 10
618.99999999849024
 20
-718.99999999754812
 30
0.0
 40
3.0
 50
270.0
 51
0.0
1001
ACDBBLOCKREPETAG
1070
     1
1071
      419
1005
12EF64
  0
LINE
  5
12EF65
  8
OBJECT
 10
615.99999999849024
 20
-597.999999997548
 30
0.0
 11
618.99999999849024
 21
-597.999999997548
 31
0.0
1001
ACDBBLOCKREPETAG
1070
     1
1071
      420
1005
12EF65
  0
ARC
  5
12EF66
  8
OBJECT
 10
618.99999999849024
 20
-600.99999999754777
 30
0.0
 40
3.0
 50
0.0
 51
90.0
1001
ACDBBLOCKREPETAG
1070
     1
1071
      421
1005
12EF66
  0
LINE
  5
12EF67
  8
OBJECT
 10
621.99999999849024
 20
-600.99999999754777
 30
0.0
 11
621.99999999849024
 21
-718.99999999754812
 31
0.0
1001
ACDBBLOCKREPETAG
1070
     1
1071
      422
1005
12EF67
  0
INSERT
  5
12EF68
  8
OBJECT
  2
*U33
 10
0.0
 20
0.0
 30
0.0
  0
LINE
  5
12EF69
  8
OBJECT
 10
488.99999999849018
 20
-526.999999997548
 30
0.0
 11
488.99999999849018
 21
-519.999999997548
 31
0.0
1001
ACDBBLOCKREPETAG
1070
     1
1071
        1
1005
12EF69
  0
LINE
  5
12EF6A
  8
OBJECT
 10
488.99999999849018
 20
-519.999999997548
 30
0.0
 11
582.99999999849024
 21
-519.999999997548
 31
0.0
1001
ACDBBLOCKREPETAG
1070
     1
1071
        2
1005
12EF6A
  0
LINE
  5
12EF6B
  8
OBJECT
 10
582.99999999849024
 20
-519.999999997548
 30
0.0
 11
582.99999999849024
 21
-526.999999997548
 31
0.0
1001
ACDBBLOCKREPETAG
1070
     1
1071
        3
1005
12EF6B
  0
LINE
  5
12EF6C
  8
OBJECT
 10
582.99999999849024
 20
-526.999999997548
 30
0.0
 11
488.99999999849018
 21
-526.999999997548
 31
0.0
1001
ACDBBLOCKREPETAG
1070
     1
1071
        4
1005
12EF6C
  0
LINE
  5
12EF6D
  8
OBJECT
 10
491.99999999849018
 20
-526.999999997548
 30
0.0
 11
491.99999999849018
 21
-562.99999999754789
 31
0.0
1001
ACDBBLOCKREPETAG
1070
     1
1071
        5
1005
12EF6D
  0
LINE
  5
12EF6E
  8
OBJECT
 10
491.99999999849018
 20
-562.99999999754789
 30
0.0
 11
579.99999999849024
 21
-562.99999999754789
 31
0.0
1001
ACDBBLOCKREPETAG
1070
     1
1071
        6
1005
12EF6E
  0
LINE
  5
12EF6F
  8
OBJECT
 10
579.99999999849024
 20
-562.99999999754789
 30
0.0
 11
579.99999999849024
 21
-526.999999997548
 31
0.0
1001
ACDBBLOCKREPETAG
1070
     1
1071
        7
1005
12EF6F
  0
LINE
  5
12EF70
  8
OBJECT
 10
496.49999999849018
 20
-566.99999999754789
 30
0.0
 11
496.49999999849018
 21
-573.999999997548
 31
0.0
1001
ACDBBLOCKREPETAG
1070
     1
1071
        8
1005
12EF70
  0
LINE
  5
12EF71
  8
OBJECT
 10
575.49999999849024
 20
-573.999999997548
 30
0.0
 11
575.49999999849024
 21
-566.99999999754789
 31
0.0
1001
ACDBBLOCKREPETAG
1070
     1
1071
        9
1005
12EF71
  0
LINE
  5
12EF72
  8
OBJECT
 10
575.49999999849024
 20
-566.99999999754789
 30
0.0
 11
496.49999999849018
 21
-566.99999999754789
 31
0.0
1001
ACDBBLOCKREPETAG
1070
     1
1071
       10
1005
12EF72
  0
LINE
  5
12EF73
  8
OBJECT
 10
491.99999999849018
 20
-562.99999999754789
 30
0.0
 11
496.49999999849018
 21
-566.99999999754789
 31
0.0
1001
ACDBBLOCKREPETAG
1070
     1
1071
       11
1005
12EF73
  0
LINE
  5
12EF74
  8
OBJECT
 10
579.99999999849024
 20
-562.99999999754789
 30
0.0
 11
575.49999999849024
 21
-566.99999999754789
 31
0.0
1001
ACDBBLOCKREPETAG
1070
     1
1071
       12
1005
12EF74
  0
LINE
  5
12EF75
  8
OBJECT
 10
473.99999999849018
 20
-576.99999999754687
 30
0.0
 11
473.99999999849018
 21
-579.99999999754777
 31
0.0
1001
ACDBBLOCKREPETAG
1070
     1
1071
       13
1005
12EF75
  0
ARC
  5
12EF76
  8
OBJECT
 10
476.99999999849018
 20
-576.99999999754687
 30
0.0
 40
3.0
 50
90.0
 51
180.0
1001
ACDBBLOCKREPETAG
1070
     1
1071
       14
1005
12EF76
  0
LINE
  5
12EF77
  8
OBJECT
 10
597.99999999849024
 20
-579.99999999754777
 30
0.0
 11
597.99999999849024
 21
-576.99999999754891
 31
0.0
1001
ACDBBLOCKREPETAG
1070
     1
1071
       15
1005
12EF77
  0
ARC
  5
12EF78
  8
OBJECT
 10
594.99999999849024
 20
-576.99999999754891
 30
0.0
 40
3.0
 50
0.0
 51
90.0
1001
ACDBBLOCKREPETAG
1070
     1
1071
       16
1005
12EF78
  0
LINE
  5
12EF79
  8
OBJECT
 10
594.99999999849024
 20
-573.99999999754891
 30
0.0
 11
476.99999999849018
 21
-573.99999999754721
 31
0.0
1001
ACDBBLOCKREPETAG
1070
     1
1071
       17
1005
12EF79
  0
LINE
  5
12EF7A
  8
HIDDEN
 10
505.99999999849018
 20
-571.99999999754777
 30
0.0
 11
565.99999999849024
 21
-571.99999999754777
 31
0.0
1001
ACDBBLOCKREPETAG
1070
     1
1071
      420
1005
12EF7A
  0
TEXT
  5
12EF7B
  8
SLIM
 10
63.599999999939421
 20
-907.999999999691
 30
0.0
 40
48.0
  1
B103（特）
 41
0.75
1001
ACDBBLOCKREPETAG
1070
     1
1071
      119
1005
12DC99
  0
LINE
  5
12EF7C
  8
OBJECT
 10
237.99999999861211
 20
-792.99999999754812
 30
0.0
 11
237.99999999861211
 21
-799.999999997548
 31
0.0
1001
ACDBBLOCKREPETAG
1070
     1
1071
       38
1005
12EF7C
  0
LINE
  5
12EF7D
  8
OBJECT
 10
237.99999999861211
 20
-799.999999997548
 30
0.0
 11
113.999999998612
 21
-799.999999997548
 31
0.0
1001
ACDBBLOCKREPETAG
1070
     1
1071
       39
1005
12EF7D
  0
LINE
  5
12EF7E
  8
OBJECT
 10
113.999999998612
 20
-799.999999997548
 30
0.0
 11
113.999999998612
 21
-792.99999999754812
 31
0.0
1001
ACDBBLOCKREPETAG
1070
     1
1071
       40
1005
12EF7E
  0
LINE
  5
12EF7F
  8
OBJECT
 10
113.999999998612
 20
-792.99999999754812
 30
0.0
 11
237.99999999861211
 21
-792.99999999754812
 31
0.0
1001
ACDBBLOCKREPETAG
1070
     1
1071
       41
1005
12EF7F
  0
LINE
  5
12EF80
  8
OBJECT
 10
234.999999998612
 20
-792.99999999754812
 30
0.0
 11
234.999999998612
 21
-756.99999999754812
 31
0.0
1001
ACDBBLOCKREPETAG
1070
     1
1071
       42
1005
12EF80
  0
LINE
  5
12EF81
  8
OBJECT
 10
234.999999998612
 20
-756.99999999754812
 30
0.0
 11
116.999999998612
 21
-756.99999999754812
 31
0.0
1001
ACDBBLOCKREPETAG
1070
     1
1071
       43
1005
12EF81
  0
LINE
  5
12EF82
  8
OBJECT
 10
116.999999998612
 20
-756.99999999754812
 30
0.0
 11
116.999999998612
 21
-792.99999999754812
 31
0.0
1001
ACDBBLOCKREPETAG
1070
     1
1071
       44
1005
12EF82
  0
LINE
  5
12EF83
  8
OBJECT
 10
230.49999999861211
 20
-752.99999999754812
 30
0.0
 11
230.49999999861211
 21
-745.999999997548
 31
0.0
1001
ACDBBLOCKREPETAG
1070
     1
1071
       45
1005
12EF83
  0
LINE
  5
12EF84
  8
OBJECT
 10
121.499999998612
 20
-745.999999997548
 30
0.0
 11
121.499999998612
 21
-752.99999999754812
 31
0.0
1001
ACDBBLOCKREPETAG
1070
     1
1071
       46
1005
12EF84
  0
LINE
  5
12EF85
  8
OBJECT
 10
121.499999998612
 20
-752.99999999754812
 30
0.0
 11
230.49999999861211
 21
-752.99999999754812
 31
0.0
1001
ACDBBLOCKREPETAG
1070
     1
1071
       47
1005
12EF85
  0
LINE
  5
12EF86
  8
OBJECT
 10
234.999999998612
 20
-756.99999999754812
 30
0.0
 11
230.49999999861211
 21
-752.99999999754812
 31
0.0
1001
ACDBBLOCKREPETAG
1070
     1
1071
       48
1005
12EF86
  0
LINE
  5
12EF87
  8
OBJECT
 10
116.999999998612
 20
-756.99999999754812
 30
0.0
 11
121.499999998612
 21
-752.99999999754812
 31
0.0
1001
ACDBBLOCKREPETAG
1070
     1
1071
       49
1005
12EF87
  0
LINE
  5
12EF88
  8
OBJECT
 10
237.99999999861211
 20
-742.99999999754903
 30
0.0
 11
237.99999999861211
 21
-739.99999999754812
 31
0.0
1001
ACDBBLOCKREPETAG
1070
     1
1071
       50
1005
12EF88
  0
ARC
  5
12EF89
  8
OBJECT
 10
234.999999998612
 20
-742.99999999754903
 30
0.0
 40
3.0
 50
270.0
 51
0.0
1001
ACDBBLOCKREPETAG
1070
     1
1071
       51
1005
12EF89
  0
LINE
  5
12EF8A
  8
OBJECT
 10
113.999999998612
 20
-739.99999999754812
 30
0.0
 11
113.999999998612
 21
-742.99999999754687
 31
0.0
1001
ACDBBLOCKREPETAG
1070
     1
1071
       52
1005
12EF8A
  0
ARC
  5
12EF8B
  8
OBJECT
 10
116.999999998612
 20
-742.99999999754687
 30
0.0
 40
3.0
 50
180.0
 51
270.0
1001
ACDBBLOCKREPETAG
1070
     1
1071
       53
1005
12EF8B
  0
LINE
  5
12EF8C
  8
OBJECT
 10
116.999999998612
 20
-745.99999999754721
 30
0.0
 11
234.999999998612
 21
-745.99999999754868
 31
0.0
1001
ACDBBLOCKREPETAG
1070
     1
1071
       54
1005
12EF8C
  0
INSERT
  5
12EF8D
  8
OBJECT
  2
*U34
 10
0.0
 20
0.0
 30
0.0
  0
LINE
  5
12EF8E
  8
HIDDEN
 10
220.499999998612
 20
-747.99999999754812
 30
0.0
 11
131.499999998612
 21
-747.99999999754812
 31
0.0
1001
ACDBBLOCKREPETAG
1070
     1
1071
      430
1005
12EF8E
  0
LINE
  5
12EF8F
  8
OBJECT
 10
258.99999999861211
 20
-721.99999999754812
 30
0.0
 11
255.999999998612
 21
-721.99999999754812
 31
0.0
1001
ACDBBLOCKREPETAG
1070
     1
1071
      418
1005
12EF8F
  0
ARC
  5
12EF90
  8
OBJECT
 10
258.99999999861211
 20
-718.99999999754812
 30
0.0
 40
3.0
 50
270.0
 51
0.0
1001
ACDBBLOCKREPETAG
1070
     1
1071
      419
1005
12EF90
  0
LINE
  5
12EF91
  8
OBJECT
 10
255.999999998612
 20
-597.999999997548
 30
0.0
 11
258.99999999861211
 21
-597.999999997548
 31
0.0
1001
ACDBBLOCKREPETAG
1070
     1
1071
      420
1005
12EF91
  0
ARC
  5
12EF92
  8
OBJECT
 10
258.99999999861211
 20
-600.99999999754777
 30
0.0
 40
3.0
 50
0.0
 51
90.0
1001
ACDBBLOCKREPETAG
1070
     1
1071
      421
1005
12EF92
  0
LINE
  5
12EF93
  8
OBJECT
 10
261.999999998612
 20
-600.99999999754777
 30
0.0
 11
261.999999998612
 21
-718.99999999754812
 31
0.0
1001
ACDBBLOCKREPETAG
1070
     1
1071
      422
1005
12EF93
  0
INSERT
  5
12EF94
  8
OBJECT
  2
*U35
 10
0.0
 20
0.0
 30
0.0
  0
LINE
  5
12EF95
  8
OBJECT
 10
128.999999998612
 20
-526.999999997548
 30
0.0
 11
128.999999998612
 21
-519.999999997548
 31
0.0
1001
ACDBBLOCKREPETAG
1070
     1
1071
        1
1005
12EF95
  0
LINE
  5
12EF96
  8
OBJECT
 10
128.999999998612
 20
-519.999999997548
 30
0.0
 11
222.999999998612
 21
-519.999999997548
 31
0.0
1001
ACDBBLOCKREPETAG
1070
     1
1071
        2
1005
12EF96
  0
LINE
  5
12EF97
  8
OBJECT
 10
222.999999998612
 20
-519.999999997548
 30
0.0
 11
222.999999998612
 21
-526.999999997548
 31
0.0
1001
ACDBBLOCKREPETAG
1070
     1
1071
        3
1005
12EF97
  0
LINE
  5
12EF98
  8
OBJECT
 10
222.999999998612
 20
-526.999999997548
 30
0.0
 11
128.999999998612
 21
-526.999999997548
 31
0.0
1001
ACDBBLOCKREPETAG
1070
     1
1071
        4
1005
12EF98
  0
LINE
  5
12EF99
  8
OBJECT
 10
131.999999998612
 20
-526.999999997548
 30
0.0
 11
131.999999998612
 21
-562.99999999754789
 31
0.0
1001
ACDBBLOCKREPETAG
1070
     1
1071
        5
1005
12EF99
  0
LINE
  5
12EF9A
  8
OBJECT
 10
131.999999998612
 20
-562.99999999754789
 30
0.0
 11
219.99999999861211
 21
-562.99999999754789
 31
0.0
1001
ACDBBLOCKREPETAG
1070
     1
1071
        6
1005
12EF9A
  0
LINE
  5
12EF9B
  8
OBJECT
 10
219.99999999861211
 20
-562.99999999754789
 30
0.0
 11
219.99999999861211
 21
-526.999999997548
 31
0.0
1001
ACDBBLOCKREPETAG
1070
     1
1071
        7
1005
12EF9B
  0
LINE
  5
12EF9C
  8
OBJECT
 10
136.499999998612
 20
-566.99999999754789
 30
0.0
 11
136.499999998612
 21
-573.999999997548
 31
0.0
1001
ACDBBLOCKREPETAG
1070
     1
1071
        8
1005
12EF9C
  0
LINE
  5
12EF9D
  8
OBJECT
 10
215.49999999861211
 20
-573.999999997548
 30
0.0
 11
215.49999999861211
 21
-566.99999999754789
 31
0.0
1001
ACDBBLOCKREPETAG
1070
     1
1071
        9
1005
12EF9D
  0
LINE
  5
12EF9E
  8
OBJECT
 10
215.49999999861211
 20
-566.99999999754789
 30
0.0
 11
136.499999998612
 21
-566.99999999754789
 31
0.0
1001
ACDBBLOCKREPETAG
1070
     1
1071
       10
1005
12EF9E
  0
LINE
  5
12EF9F
  8
OBJECT
 10
131.999999998612
 20
-562.99999999754789
 30
0.0
 11
136.499999998612
 21
-566.99999999754789
 31
0.0
1001
ACDBBLOCKREPETAG
1070
     1
1071
       11
1005
12EF9F
  0
LINE
  5
12EFA0
  8
OBJECT
 10
219.99999999861211
 20
-562.99999999754789
 30
0.0
 11
215.49999999861211
 21
-566.99999999754789
 31
0.0
1001
ACDBBLOCKREPETAG
1070
     1
1071
       12
1005
12EFA0
  0
LINE
  5
12EFA1
  8
OBJECT
 10
113.999999998612
 20
-576.99999999754687
 30
0.0
 11
113.999999998612
 21
-579.99999999754777
 31
0.0
1001
ACDBBLOCKREPETAG
1070
     1
1071
       13
1005
12EFA1
  0
ARC
  5
12EFA2
  8
OBJECT
 10
116.999999998612
 20
-576.99999999754687
 30
0.0
 40
3.0
 50
90.0
 51
180.0
1001
ACDBBLOCKREPETAG
1070
     1
1071
       14
1005
12EFA2
  0
LINE
  5
12EFA3
  8
OBJECT
 10
237.99999999861211
 20
-579.99999999754777
 30
0.0
 11
237.99999999861211
 21
-576.99999999754891
 31
0.0
1001
ACDBBLOCKREPETAG
1070
     1
1071
       15
1005
12EFA3
  0
ARC
  5
12EFA4
  8
OBJECT
 10
234.999999998612
 20
-576.99999999754891
 30
0.0
 40
3.0
 50
0.0
 51
90.0
1001
ACDBBLOCKREPETAG
1070
     1
1071
       16
1005
12EFA4
  0
LINE
  5
12EFA5
  8
OBJECT
 10
234.999999998612
 20
-573.99999999754891
 30
0.0
 11
116.999999998612
 21
-573.99999999754721
 31
0.0
1001
ACDBBLOCKREPETAG
1070
     1
1071
       17
1005
12EFA5
  0
LINE
  5
12EFA6
  8
HIDDEN
 10
145.999999998612
 20
-571.99999999754777
 30
0.0
 11
205.999999998612
 21
-571.99999999754777
 31
0.0
1001
ACDBBLOCKREPETAG
1070
     1
1071
      420
1005
12EFA6
  0
TEXT
  5
12EFA7
  8
SLIM
 10
479.14285714267481
 20
-443.99999999984919
 30
0.0
 40
48.0
  1
B102
 41
0.75
1001
ACDBBLOCKREPETAG
1070
     1
1071
      119
1005
12DC99
  0
LINE
  5
12EFA8
  8
OBJECT
 10
590.99999999849024
 20
-328.99999999770631
 30
0.0
 11
590.99999999849024
 21
-335.99999999770631
 31
0.0
1001
ACDBBLOCKREPETAG
1070
     1
1071
       19
1005
12EFA8
  0
LINE
  5
12EFA9
  8
OBJECT
 10
590.99999999849024
 20
-335.99999999770631
 30
0.0
 11
480.99999999849018
 21
-335.99999999770631
 31
0.0
1001
ACDBBLOCKREPETAG
1070
     1
1071
       20
1005
12EFA9
  0
LINE
  5
12EFAA
  8
OBJECT
 10
480.99999999849018
 20
-335.99999999770631
 30
0.0
 11
480.99999999849018
 21
-328.99999999770631
 31
0.0
1001
ACDBBLOCKREPETAG
1070
     1
1071
       21
1005
12EFAA
  0
LINE
  5
12EFAB
  8
OBJECT
 10
480.99999999849018
 20
-328.99999999770631
 30
0.0
 11
590.99999999849024
 21
-328.99999999770631
 31
0.0
1001
ACDBBLOCKREPETAG
1070
     1
1071
       22
1005
12EFAB
  0
LINE
  5
12EFAC
  8
OBJECT
 10
587.99999999849024
 20
-328.99999999770631
 30
0.0
 11
587.99999999849024
 21
-292.99999999770631
 31
0.0
1001
ACDBBLOCKREPETAG
1070
     1
1071
       23
1005
12EFAC
  0
LINE
  5
12EFAD
  8
OBJECT
 10
587.99999999849024
 20
-292.99999999770631
 30
0.0
 11
483.99999999849018
 21
-292.99999999770631
 31
0.0
1001
ACDBBLOCKREPETAG
1070
     1
1071
       24
1005
12EFAD
  0
LINE
  5
12EFAE
  8
OBJECT
 10
483.99999999849018
 20
-292.99999999770631
 30
0.0
 11
483.99999999849018
 21
-328.99999999770631
 31
0.0
1001
ACDBBLOCKREPETAG
1070
     1
1071
       25
1005
12EFAE
  0
LINE
  5
12EFAF
  8
OBJECT
 10
583.49999999849024
 20
-288.9999999977062
 30
0.0
 11
583.49999999849024
 21
-281.99999999770631
 31
0.0
1001
ACDBBLOCKREPETAG
1070
     1
1071
       26
1005
12EFAF
  0
LINE
  5
12EFB0
  8
OBJECT
 10
488.49999999849018
 20
-281.99999999770631
 30
0.0
 11
488.49999999849018
 21
-288.9999999977062
 31
0.0
1001
ACDBBLOCKREPETAG
1070
     1
1071
       27
1005
12EFB0
  0
LINE
  5
12EFB1
  8
OBJECT
 10
488.49999999849018
 20
-288.9999999977062
 30
0.0
 11
583.49999999849024
 21
-288.9999999977062
 31
0.0
1001
ACDBBLOCKREPETAG
1070
     1
1071
       28
1005
12EFB1
  0
LINE
  5
12EFB2
  8
OBJECT
 10
587.99999999849024
 20
-292.99999999770631
 30
0.0
 11
583.49999999849024
 21
-288.9999999977062
 31
0.0
1001
ACDBBLOCKREPETAG
1070
     1
1071
       29
1005
12EFB2
  0
LINE
  5
12EFB3
  8
OBJECT
 10
483.99999999849018
 20
-292.99999999770631
 30
0.0
 11
488.49999999849018
 21
-288.9999999977062
 31
0.0
1001
ACDBBLOCKREPETAG
1070
     1
1071
       30
1005
12EFB3
  0
LINE
  5
12EFB4
  8
OBJECT
 10
597.99999999849024
 20
-278.99999999770722
 30
0.0
 11
597.99999999849024
 21
-275.99999999770631
 31
0.0
1001
ACDBBLOCKREPETAG
1070
     1
1071
       31
1005
12EFB4
  0
ARC
  5
12EFB5
  8
OBJECT
 10
594.99999999849024
 20
-278.99999999770722
 30
0.0
 40
3.0
 50
270.0
 51
0.0
1001
ACDBBLOCKREPETAG
1070
     1
1071
       32
1005
12EFB5
  0
LINE
  5
12EFB6
  8
OBJECT
 10
473.99999999849018
 20
-275.99999999770631
 30
0.0
 11
473.99999999849018
 21
-278.99999999770529
 31
0.0
1001
ACDBBLOCKREPETAG
1070
     1
1071
       33
1005
12EFB6
  0
ARC
  5
12EFB7
  8
OBJECT
 10
476.99999999849018
 20
-278.99999999770529
 30
0.0
 40
3.0
 50
180.0
 51
270.0
1001
ACDBBLOCKREPETAG
1070
     1
1071
       34
1005
12EFB7
  0
LINE
  5
12EFB8
  8
OBJECT
 10
476.99999999849018
 20
-281.99999999770529
 30
0.0
 11
594.99999999849024
 21
-281.99999999770711
 31
0.0
1001
ACDBBLOCKREPETAG
1070
     1
1071
       35
1005
12EFB8
  0
INSERT
  5
12EFB9
  8
OBJECT
  2
*U36
 10
0.0
 20
0.0
 30
0.0
  0
LINE
  5
12EFBA
  8
HIDDEN
 10
573.99999999849024
 20
-283.99999999770631
 30
0.0
 11
497.99999999849018
 21
-283.99999999770631
 31
0.0
1001
ACDBBLOCKREPETAG
1070
     1
1071
      427
1005
12EFBA
  0
LINE
  5
12EFBB
  8
OBJECT
 10
618.99999999849024
 20
-257.9999999977062
 30
0.0
 11
615.99999999849024
 21
-257.9999999977062
 31
0.0
1001
ACDBBLOCKREPETAG
1070
     1
1071
      418
1005
12EFBB
  0
ARC
  5
12EFBC
  8
OBJECT
 10
618.99999999849024
 20
-254.99999999770631
 30
0.0
 40
3.0
 50
270.0
 51
0.0
1001
ACDBBLOCKREPETAG
1070
     1
1071
      419
1005
12EFBC
  0
LINE
  5
12EFBD
  8
OBJECT
 10
615.99999999849024
 20
-133.9999999977062
 30
0.0
 11
618.99999999849024
 21
-133.9999999977062
 31
0.0
1001
ACDBBLOCKREPETAG
1070
     1
1071
      420
1005
12EFBD
  0
ARC
  5
12EFBE
  8
OBJECT
 10
618.99999999849024
 20
-136.9999999977062
 30
0.0
 40
3.0
 50
0.0
 51
90.0
1001
ACDBBLOCKREPETAG
1070
     1
1071
      421
1005
12EFBE
  0
LINE
  5
12EFBF
  8
OBJECT
 10
621.99999999849024
 20
-136.9999999977062
 30
0.0
 11
621.99999999849024
 21
-254.99999999770631
 31
0.0
1001
ACDBBLOCKREPETAG
1070
     1
1071
      422
1005
12EFBF
  0
INSERT
  5
12EFC0
  8
OBJECT
  2
*U37
 10
0.0
 20
0.0
 30
0.0
  0
LINE
  5
12EFC1
  8
OBJECT
 10
488.99999999849018
 20
-62.999999997706247
 30
0.0
 11
488.99999999849018
 21
-55.999999997706247
 31
0.0
1001
ACDBBLOCKREPETAG
1070
     1
1071
        1
1005
12EFC1
  0
LINE
  5
12EFC2
  8
OBJECT
 10
488.99999999849018
 20
-55.999999997706247
 30
0.0
 11
582.99999999849024
 21
-55.999999997706247
 31
0.0
1001
ACDBBLOCKREPETAG
1070
     1
1071
        2
1005
12EFC2
  0
LINE
  5
12EFC3
  8
OBJECT
 10
582.99999999849024
 20
-55.999999997706247
 30
0.0
 11
582.99999999849024
 21
-62.999999997706247
 31
0.0
1001
ACDBBLOCKREPETAG
1070
     1
1071
        3
1005
12EFC3
  0
LINE
  5
12EFC4
  8
OBJECT
 10
582.99999999849024
 20
-62.999999997706247
 30
0.0
 11
488.99999999849018
 21
-62.999999997706247
 31
0.0
1001
ACDBBLOCKREPETAG
1070
     1
1071
        4
1005
12EFC4
  0
LINE
  5
12EFC5
  8
OBJECT
 10
491.99999999849018
 20
-62.999999997706247
 30
0.0
 11
491.99999999849018
 21
-98.99999999770624
 31
0.0
1001
ACDBBLOCKREPETAG
1070
     1
1071
        5
1005
12EFC5
  0
LINE
  5
12EFC6
  8
OBJECT
 10
491.99999999849018
 20
-98.99999999770624
 30
0.0
 11
579.99999999849024
 21
-98.99999999770624
 31
0.0
1001
ACDBBLOCKREPETAG
1070
     1
1071
        6
1005
12EFC6
  0
LINE
  5
12EFC7
  8
OBJECT
 10
579.99999999849024
 20
-98.99999999770624
 30
0.0
 11
579.99999999849024
 21
-62.999999997706247
 31
0.0
1001
ACDBBLOCKREPETAG
1070
     1
1071
        7
1005
12EFC7
  0
LINE
  5
12EFC8
  8
OBJECT
 10
496.49999999849018
 20
-102.9999999977062
 30
0.0
 11
496.49999999849018
 21
-109.9999999977062
 31
0.0
1001
ACDBBLOCKREPETAG
1070
     1
1071
        8
1005
12EFC8
  0
LINE
  5
12EFC9
  8
OBJECT
 10
575.49999999849024
 20
-109.9999999977062
 30
0.0
 11
575.49999999849024
 21
-102.9999999977062
 31
0.0
1001
ACDBBLOCKREPETAG
1070
     1
1071
        9
1005
12EFC9
  0
LINE
  5
12EFCA
  8
OBJECT
 10
575.49999999849024
 20
-102.9999999977062
 30
0.0
 11
496.49999999849018
 21
-102.9999999977062
 31
0.0
1001
ACDBBLOCKREPETAG
1070
     1
1071
       10
1005
12EFCA
  0
LINE
  5
12EFCB
  8
OBJECT
 10
491.99999999849018
 20
-98.99999999770624
 30
0.0
 11
496.49999999849018
 21
-102.9999999977062
 31
0.0
1001
ACDBBLOCKREPETAG
1070
     1
1071
       11
1005
12EFCB
  0
LINE
  5
12EFCC
  8
OBJECT
 10
579.99999999849024
 20
-98.99999999770624
 30
0.0
 11
575.49999999849024
 21
-102.9999999977062
 31
0.0
1001
ACDBBLOCKREPETAG
1070
     1
1071
       12
1005
12EFCC
  0
LINE
  5
12EFCD
  8
OBJECT
 10
473.99999999849018
 20
-112.9999999977053
 30
0.0
 11
473.99999999849018
 21
-115.9999999977062
 31
0.0
1001
ACDBBLOCKREPETAG
1070
     1
1071
       13
1005
12EFCD
  0
ARC
  5
12EFCE
  8
OBJECT
 10
476.99999999849018
 20
-112.9999999977053
 30
0.0
 40
3.0
 50
90.0
 51
180.0
1001
ACDBBLOCKREPETAG
1070
     1
1071
       14
1005
12EFCE
  0
LINE
  5
12EFCF
  8
OBJECT
 10
597.99999999849024
 20
-115.9999999977062
 30
0.0
 11
597.99999999849024
 21
-112.99999999770711
 31
0.0
1001
ACDBBLOCKREPETAG
1070
     1
1071
       15
1005
12EFCF
  0
ARC
  5
12EFD0
  8
OBJECT
 10
594.99999999849024
 20
-112.99999999770711
 30
0.0
 40
3.0
 50
0.0
 51
90.0
1001
ACDBBLOCKREPETAG
1070
     1
1071
       16
1005
12EFD0
  0
LINE
  5
12EFD1
  8
OBJECT
 10
594.99999999849024
 20
-109.99999999770711
 30
0.0
 11
476.99999999849018
 21
-109.9999999977053
 31
0.0
1001
ACDBBLOCKREPETAG
1070
     1
1071
       17
1005
12EFD1
  0
LINE
  5
12EFD2
  8
HIDDEN
 10
505.99999999849018
 20
-107.9999999977062
 30
0.0
 11
565.99999999849024
 21
-107.9999999977062
 31
0.0
1001
ACDBBLOCKREPETAG
1070
     1
1071
      420
1005
12EFD2
  0
LINE
  5
12EFD3
  8
OBJECT
 10
1923.0
 20
-570.99999999999432
 30
0.0
 11
1923.0
 21
-549.99999999999432
 31
0.0
1001
ACDBBLOCKREPETAG
1070
     1
1071
       36
1005
12EFD3
  0
LINE
  5
12EFD4
  8
OBJECT
 10
1923.0
 20
-549.99999999999432
 30
0.0
 11
2077.0
 21
-549.99999999999432
 31
0.0
1001
ACDBBLOCKREPETAG
1070
     1
1071
       37
1005
12EFD4
  0
LINE
  5
12EFD5
  8
HIDDEN
 10
1943.0
 20
-619.99999999999432
 30
0.0
 11
2057.0
 21
-619.99999999999432
 31
0.0
1001
ACDBBLOCKREPETAG
1070
     1
1071
       38
1005
12EFD5
  0
LINE
  5
12EFD6
  8
OBJECT
 10
2077.0
 20
-549.99999999999432
 30
0.0
 11
2077.0
 21
-570.99999999999432
 31
0.0
1001
ACDBBLOCKREPETAG
1070
     1
1071
       39
1005
12EFD6
  0
LINE
  5
12EFD7
  8
OBJECT
 10
2077.0
 20
-570.99999999999432
 30
0.0
 11
1923.0
 21
-570.99999999999432
 31
0.0
1001
ACDBBLOCKREPETAG
1070
     1
1071
       40
1005
12EFD7
  0
LINE
  5
12EFD8
  8
CENTER
 10
2000.0
 20
-534.99999999999432
 30
0.0
 11
2000.0
 21
-769.9999999999942
 31
0.0
1001
ACDBBLOCKREPETAG
1070
     1
1071
       41
1005
12EFD8
  0
LINE
  5
12EFD9
  8
OBJECT
 10
1928.0
 20
-570.99999999999432
 30
0.0
 11
1928.0
 21
-633.99999999999432
 31
0.0
1001
ACDBBLOCKREPETAG
1070
     1
1071
       42
1005
12EFD9
  0
LINE
  5
12EFDA
  8
OBJECT
 10
2072.0
 20
-633.99999999999432
 30
0.0
 11
2072.0
 21
-570.99999999999432
 31
0.0
1001
ACDBBLOCKREPETAG
1070
     1
1071
       43
1005
12EFDA
  0
LINE
  5
12EFDB
  8
OBJECT
 10
1920.0
 20
-757.9999999999942
 30
0.0
 11
2080.0
 21
-757.9999999999942
 31
0.0
1001
ACDBBLOCKREPETAG
1070
     1
1071
       44
1005
12EFDB
  0
LINE
  5
12EFDC
  8
OBJECT
 10
2080.0
 20
-633.99999999999432
 30
0.0
 11
1920.0
 21
-633.99999999999432
 31
0.0
1001
ACDBBLOCKREPETAG
1070
     1
1071
       45
1005
12EFDC
  0
LINE
  5
12EFDD
  8
OBJECT
 10
1920.0
 20
-757.9999999999942
 30
0.0
 11
1920.0
 21
-769.9999999999942
 31
0.0
1001
ACDBBLOCKREPETAG
1070
     1
1071
       46
1005
12EFDD
  0
LINE
  5
12EFDE
  8
OBJECT
 10
1920.0
 20
-769.9999999999942
 30
0.0
 11
2080.0
 21
-769.9999999999942
 31
0.0
1001
ACDBBLOCKREPETAG
1070
     1
1071
       47
1005
12EFDE
  0
LINE
  5
12EFDF
  8
OBJECT
 10
2080.0
 20
-769.9999999999942
 30
0.0
 11
2080.0
 21
-757.9999999999942
 31
0.0
1001
ACDBBLOCKREPETAG
1070
     1
1071
       48
1005
12EFDF
  0
ARC
  5
12EFE0
  8
OBJECT
 10
2200.6872746716731
 20
-749.40809941010195
 30
0.0
 40
170.6350503965856
 50
137.44134459184301
 51
149.91949581336559
1001
ACDBBLOCKREPETAG
1070
     1
1071
       52
1005
12EFE0
  0
ARC
  5
12EFE1
  8
OBJECT
 10
2200.6872746716731
 20
-642.59190058988645
 30
0.0
 40
170.6350503965856
 50
210.0805041866343
 51
222.55865540815699
1001
ACDBBLOCKREPETAG
1070
     1
1071
       53
1005
12EFE1
  0
ARC
  5
12EFE2
  8
OBJECT
 10
1799.312725328326
 20
-749.40809941010195
 30
0.0
 40
170.6350503965856
 50
30.080504186774089
 51
42.558655408447443
1001
ACDBBLOCKREPETAG
1070
     1
1071
       54
1005
12EFE2
  0
ARC
  5
12EFE3
  8
OBJECT
 10
1799.312725328326
 20
-642.59190058988645
 30
0.0
 40
170.6350503965856
 50
317.44134459155248
 51
329.91949581322592
1001
ACDBBLOCKREPETAG
1070
     1
1071
       55
1005
12EFE3
  0
POINT
  5
12EFE4
  8
DOTS
 10
2000.0
 20
-754.9999999999942
 30
0.0
1001
ACDBBLOCKREPETAG
1070
     1
1071
      184
1005
12EFE4
  0
LINE
  5
12EFE5
  8
OBJECT
 10
1867.0
 20
-261.99999999999909
 30
0.0
 11
1860.0
 21
-261.99999999999909
 31
0.0
1001
ACDBBLOCKREPETAG
1070
     1
1071
       47
1005
12EFE5
  0
LINE
  5
12EFE6
  8
OBJECT
 10
1860.0
 20
-261.99999999999909
 30
0.0
 11
1860.0
 21
-137.99999999999909
 31
0.0
1001
ACDBBLOCKREPETAG
1070
     1
1071
       48
1005
12EFE6
  0
LINE
  5
12EFE7
  8
OBJECT
 10
1860.0
 20
-137.99999999999909
 30
0.0
 11
1867.0
 21
-137.99999999999909
 31
0.0
1001
ACDBBLOCKREPETAG
1070
     1
1071
       49
1005
12EFE7
  0
LINE
  5
12EFE8
  8
OBJECT
 10
1867.0
 20
-137.99999999999909
 30
0.0
 11
1867.0
 21
-261.99999999999909
 31
0.0
1001
ACDBBLOCKREPETAG
1070
     1
1071
       50
1005
12EFE8
  0
LINE
  5
12EFE9
  8
CENTER
 10
1845.0
 20
-199.99999999999909
 30
0.0
 11
1920.0
 21
-199.99999999999909
 31
0.0
1001
ACDBBLOCKREPETAG
1070
     1
1071
       51
1005
12EFE9
  0
LINE
  5
12EFEA
  8
OBJECT
 10
1867.0
 20
-258.99999999999909
 30
0.0
 11
1903.0
 21
-258.99999999999909
 31
0.0
1001
ACDBBLOCKREPETAG
1070
     1
1071
       52
1005
12EFEA
  0
LINE
  5
12EFEB
  8
OBJECT
 10
1903.0
 20
-258.99999999999909
 30
0.0
 11
1903.0
 21
-140.99999999999909
 31
0.0
1001
ACDBBLOCKREPETAG
1070
     1
1071
       53
1005
12EFEB
  0
LINE
  5
12EFEC
  8
OBJECT
 10
1903.0
 20
-140.99999999999909
 30
0.0
 11
1867.0
 21
-140.99999999999909
 31
0.0
1001
ACDBBLOCKREPETAG
1070
     1
1071
       54
1005
12EFEC
  0
LINE
  5
12EFED
  8
OBJECT
 10
1907.0
 20
-254.49999999999909
 30
0.0
 11
1914.0
 21
-254.49999999999909
 31
0.0
1001
ACDBBLOCKREPETAG
1070
     1
1071
       55
1005
12EFED
  0
LINE
  5
12EFEE
  8
OBJECT
 10
1914.0
 20
-145.49999999999909
 30
0.0
 11
1907.0
 21
-145.49999999999909
 31
0.0
1001
ACDBBLOCKREPETAG
1070
     1
1071
       56
1005
12EFEE
  0
LINE
  5
12EFEF
  8
OBJECT
 10
1907.0
 20
-145.49999999999909
 30
0.0
 11
1907.0
 21
-254.49999999999909
 31
0.0
1001
ACDBBLOCKREPETAG
1070
     1
1071
       57
1005
12EFEF
  0
LINE
  5
12EFF0
  8
OBJECT
 10
1903.0
 20
-258.99999999999909
 30
0.0
 11
1907.0
 21
-254.49999999999909
 31
0.0
1001
ACDBBLOCKREPETAG
1070
     1
1071
       58
1005
12EFF0
  0
LINE
  5
12EFF1
  8
OBJECT
 10
1903.0
 20
-140.99999999999909
 30
0.0
 11
1907.0
 21
-145.49999999999909
 31
0.0
1001
ACDBBLOCKREPETAG
1070
     1
1071
       59
1005
12EFF1
  0
LINE
  5
12EFF2
  8
OBJECT
 10
1917.0
 20
-261.99999999999909
 30
0.0
 11
1920.0
 21
-261.99999999999909
 31
0.0
1001
ACDBBLOCKREPETAG
1070
     1
1071
       60
1005
12EFF2
  0
ARC
  5
12EFF3
  8
OBJECT
 10
1917.0
 20
-258.99999999999909
 30
0.0
 40
3.0
 50
180.0
 51
270.0
1001
ACDBBLOCKREPETAG
1070
     1
1071
       61
1005
12EFF3
  0
LINE
  5
12EFF4
  8
OBJECT
 10
1920.0
 20
-137.99999999999909
 30
0.0
 11
1917.0
 21
-137.99999999999909
 31
0.0
1001
ACDBBLOCKREPETAG
1070
     1
1071
       62
1005
12EFF4
  0
ARC
  5
12EFF5
  8
OBJECT
 10
1917.0
 20
-140.99999999999909
 30
0.0
 40
3.0
 50
90.0
 51
180.0
1001
ACDBBLOCKREPETAG
1070
     1
1071
       63
1005
12EFF5
  0
LINE
  5
12EFF6
  8
OBJECT
 10
1914.0
 20
-140.99999999999909
 30
0.0
 11
1914.0
 21
-258.99999999999909
 31
0.0
1001
ACDBBLOCKREPETAG
1070
     1
1071
       64
1005
12EFF6
  0
LINE
  5
12EFF7
  8
HIDDEN
 10
1912.0
 20
-244.49999999999909
 30
0.0
 11
1912.0
 21
-155.49999999999909
 31
0.0
1001
ACDBBLOCKREPETAG
1070
     1
1071
       65
1005
12EFF7
  0
LINE
  5
12EFF8
  8
CENTER
 10
2000.0
 20
-300.99999999999898
 30
0.0
 11
2000.0
 21
-279.99999999999909
 31
0.0
1001
ACDBBLOCKREPETAG
1070
     1
1071
        0
1005
12EFF8
  0
LINE
  5
12EFF9
  8
OBJECT
 10
2062.0
 20
-283.0
 30
0.0
 11
2062.0
 21
-279.99999999999909
 31
0.0
1001
ACDBBLOCKREPETAG
1070
     1
1071
        1
1005
12EFF9
  0
ARC
  5
12EFFA
  8
OBJECT
 10
2059.0
 20
-283.0
 30
0.0
 40
3.0
 50
270.0
 51
0.0
1001
ACDBBLOCKREPETAG
1070
     1
1071
        2
1005
12EFFA
  0
LINE
  5
12EFFB
  8
OBJECT
 10
1938.0
 20
-279.99999999999909
 30
0.0
 11
1938.0
 21
-282.99999999999818
 31
0.0
1001
ACDBBLOCKREPETAG
1070
     1
1071
        3
1005
12EFFB
  0
ARC
  5
12EFFC
  8
OBJECT
 10
1941.0
 20
-282.99999999999818
 30
0.0
 40
3.0
 50
180.0
 51
270.0
1001
ACDBBLOCKREPETAG
1070
     1
1071
        4
1005
12EFFC
  0
LINE
  5
12EFFD
  8
OBJECT
 10
1941.0
 20
-285.99999999999818
 30
0.0
 11
2059.0
 21
-286.0
 31
0.0
1001
ACDBBLOCKREPETAG
1070
     1
1071
        5
1005
12EFFD
  0
LINE
  5
12EFFE
  8
OBJECT
 10
2133.0
 20
-137.99999999999909
 30
0.0
 11
2140.0
 21
-137.99999999999909
 31
0.0
1001
ACDBBLOCKREPETAG
1070
     1
1071
       47
1005
12EFFE
  0
LINE
  5
12EFFF
  8
OBJECT
 10
2140.0
 20
-137.99999999999909
 30
0.0
 11
2140.0
 21
-261.99999999999909
 31
0.0
1001
ACDBBLOCKREPETAG
1070
     1
1071
       48
1005
12EFFF
  0
LINE
  5
12F000
  8
OBJECT
 10
2140.0
 20
-261.99999999999909
 30
0.0
 11
2133.0
 21
-261.99999999999909
 31
0.0
1001
ACDBBLOCKREPETAG
1070
     1
1071
       49
1005
12F000
  0
LINE
  5
12F001
  8
OBJECT
 10
2133.0
 20
-261.99999999999909
 30
0.0
 11
2133.0
 21
-137.99999999999909
 31
0.0
1001
ACDBBLOCKREPETAG
1070
     1
1071
       50
1005
12F001
  0
LINE
  5
12F002
  8
CENTER
 10
2155.0
 20
-199.99999999999909
 30
0.0
 11
2080.0
 21
-199.99999999999909
 31
0.0
1001
ACDBBLOCKREPETAG
1070
     1
1071
       51
1005
12F002
  0
LINE
  5
12F003
  8
OBJECT
 10
2133.0
 20
-140.99999999999909
 30
0.0
 11
2097.0
 21
-140.99999999999909
 31
0.0
1001
ACDBBLOCKREPETAG
1070
     1
1071
       52
1005
12F003
  0
LINE
  5
12F004
  8
OBJECT
 10
2097.0
 20
-140.99999999999909
 30
0.0
 11
2097.0
 21
-258.99999999999909
 31
0.0
1001
ACDBBLOCKREPETAG
1070
     1
1071
       53
1005
12F004
  0
LINE
  5
12F005
  8
OBJECT
 10
2097.0
 20
-258.99999999999909
 30
0.0
 11
2133.0
 21
-258.99999999999909
 31
0.0
1001
ACDBBLOCKREPETAG
1070
     1
1071
       54
1005
12F005
  0
LINE
  5
12F006
  8
OBJECT
 10
2093.0
 20
-145.49999999999909
 30
0.0
 11
2086.0
 21
-145.49999999999909
 31
0.0
1001
ACDBBLOCKREPETAG
1070
     1
1071
       55
1005
12F006
  0
LINE
  5
12F007
  8
OBJECT
 10
2086.0
 20
-254.49999999999909
 30
0.0
 11
2093.0
 21
-254.49999999999909
 31
0.0
1001
ACDBBLOCKREPETAG
1070
     1
1071
       56
1005
12F007
  0
LINE
  5
12F008
  8
OBJECT
 10
2093.0
 20
-254.49999999999909
 30
0.0
 11
2093.0
 21
-145.49999999999909
 31
0.0
1001
ACDBBLOCKREPETAG
1070
     1
1071
       57
1005
12F008
  0
LINE
  5
12F009
  8
OBJECT
 10
2097.0
 20
-140.99999999999909
 30
0.0
 11
2093.0
 21
-145.49999999999909
 31
0.0
1001
ACDBBLOCKREPETAG
1070
     1
1071
       58
1005
12F009
  0
LINE
  5
12F00A
  8
OBJECT
 10
2097.0
 20
-258.99999999999909
 30
0.0
 11
2093.0
 21
-254.49999999999909
 31
0.0
1001
ACDBBLOCKREPETAG
1070
     1
1071
       59
1005
12F00A
  0
LINE
  5
12F00B
  8
OBJECT
 10
2083.0
 20
-137.99999999999909
 30
0.0
 11
2080.0
 21
-137.99999999999909
 31
0.0
1001
ACDBBLOCKREPETAG
1070
     1
1071
       60
1005
12F00B
  0
ARC
  5
12F00C
  8
OBJECT
 10
2083.0
 20
-140.99999999999909
 30
0.0
 40
3.0
 50
0.0
 51
90.0
1001
ACDBBLOCKREPETAG
1070
     1
1071
       61
1005
12F00C
  0
LINE
  5
12F00D
  8
OBJECT
 10
2080.0
 20
-261.99999999999909
 30
0.0
 11
2083.0
 21
-261.99999999999909
 31
0.0
1001
ACDBBLOCKREPETAG
1070
     1
1071
       62
1005
12F00D
  0
ARC
  5
12F00E
  8
OBJECT
 10
2083.0
 20
-258.99999999999909
 30
0.0
 40
3.0
 50
270.0
 51
0.0
1001
ACDBBLOCKREPETAG
1070
     1
1071
       63
1005
12F00E
  0
LINE
  5
12F00F
  8
OBJECT
 10
2086.0
 20
-258.99999999999909
 30
0.0
 11
2086.0
 21
-140.99999999999909
 31
0.0
1001
ACDBBLOCKREPETAG
1070
     1
1071
       64
1005
12F00F
  0
LINE
  5
12F010
  8
HIDDEN
 10
2088.0
 20
-155.49999999999909
 30
0.0
 11
2088.0
 21
-244.49999999999909
 31
0.0
1001
ACDBBLOCKREPETAG
1070
     1
1071
       65
1005
12F010
  0
LINE
  5
12F011
  8
OBJECT
 10
1867.0
 20
-634.0
 30
0.0
 11
1860.0
 21
-634.0
 31
0.0
1001
ACDBBLOCKREPETAG
1070
     1
1071
       45
1005
12F011
  0
LINE
  5
12F012
  8
OBJECT
 10
1860.0
 20
-634.0
 30
0.0
 11
1860.0
 21
-755.0
 31
0.0
1001
ACDBBLOCKREPETAG
1070
     1
1071
       46
1005
12F012
  0
LINE
  5
12F013
  8
OBJECT
 10
1867.0
 20
-755.0
 30
0.0
 11
1867.0
 21
-634.0
 31
0.0
1001
ACDBBLOCKREPETAG
1070
     1
1071
       47
1005
12F013
  0
LINE
  5
12F014
  8
CENTER
 10
1845.0
 20
-696.0
 30
0.0
 11
1929.0
 21
-696.0
 31
0.0
1001
ACDBBLOCKREPETAG
1070
     1
1071
       48
1005
12F014
  0
LINE
  5
12F015
  8
OBJECT
 10
1867.0
 20
-637.0
 30
0.0
 11
1903.0
 21
-637.0
 31
0.0
1001
ACDBBLOCKREPETAG
1070
     1
1071
       49
1005
12F015
  0
LINE
  5
12F016
  8
OBJECT
 10
1903.0
 20
-637.0
 30
0.0
 11
1903.0
 21
-755.0
 31
0.0
1001
ACDBBLOCKREPETAG
1070
     1
1071
       50
1005
12F016
  0
LINE
  5
12F017
  8
OBJECT
 10
1903.0
 20
-755.0
 30
0.0
 11
1860.0
 21
-755.0
 31
0.0
1001
ACDBBLOCKREPETAG
1070
     1
1071
       51
1005
12F017
  0
LINE
  5
12F018
  8
OBJECT
 10
1907.0
 20
-641.5
 30
0.0
 11
1914.0
 21
-641.5
 31
0.0
1001
ACDBBLOCKREPETAG
1070
     1
1071
       52
1005
12F018
  0
LINE
  5
12F019
  8
OBJECT
 10
1914.0
 20
-750.49999999999989
 30
0.0
 11
1907.0
 21
-750.49999999999989
 31
0.0
1001
ACDBBLOCKREPETAG
1070
     1
1071
       53
1005
12F019
  0
LINE
  5
12F01A
  8
OBJECT
 10
1907.0
 20
-750.49999999999989
 30
0.0
 11
1907.0
 21
-641.5
 31
0.0
1001
ACDBBLOCKREPETAG
1070
     1
1071
       54
1005
12F01A
  0
LINE
  5
12F01B
  8
OBJECT
 10
1903.0
 20
-637.0
 30
0.0
 11
1907.0
 21
-641.5
 31
0.0
1001
ACDBBLOCKREPETAG
1070
     1
1071
       55
1005
12F01B
  0
LINE
  5
12F01C
  8
OBJECT
 10
1903.0
 20
-755.0
 30
0.0
 11
1907.0
 21
-750.49999999999989
 31
0.0
1001
ACDBBLOCKREPETAG
1070
     1
1071
       56
1005
12F01C
  0
LINE
  5
12F01D
  8
OBJECT
 10
1917.0
 20
-634.0
 30
0.0
 11
1920.0
 21
-634.0
 31
0.0
1001
ACDBBLOCKREPETAG
1070
     1
1071
       57
1005
12F01D
  0
ARC
  5
12F01E
  8
OBJECT
 10
1917.0
 20
-637.0
 30
0.0
 40
3.0
 50
90.0
 51
180.0
1001
ACDBBLOCKREPETAG
1070
     1
1071
       58
1005
12F01E
  0
LINE
  5
12F01F
  8
OBJECT
 10
1920.0
 20
-758.0
 30
0.0
 11
1917.0
 21
-758.0
 31
0.0
1001
ACDBBLOCKREPETAG
1070
     1
1071
       59
1005
12F01F
  0
ARC
  5
12F020
  8
OBJECT
 10
1917.0
 20
-755.0
 30
0.0
 40
3.0
 50
180.0
 51
270.0
1001
ACDBBLOCKREPETAG
1070
     1
1071
       60
1005
12F020
  0
LINE
  5
12F021
  8
OBJECT
 10
1914.0
 20
-755.0
 30
0.0
 11
1914.0
 21
-637.0
 31
0.0
1001
ACDBBLOCKREPETAG
1070
     1
1071
       61
1005
12F021
  0
LINE
  5
12F022
  8
HIDDEN
 10
1912.0
 20
-651.5
 30
0.0
 11
1912.0
 21
-740.5
 31
0.0
1001
ACDBBLOCKREPETAG
1070
     1
1071
       63
1005
12F022
  0
CIRCLE
  5
12F023
  8
OBJECT
 10
2000.0
 20
-696.0
 30
0.0
 40
62.0
1001
ACDBBLOCKREPETAG
1070
     1
1071
        0
1005
12F023
  0
LINE
  5
12F024
  8
OBJECT
 10
2133.0
 20
-634.0
 30
0.0
 11
2140.0
 21
-634.0
 31
0.0
1001
ACDBBLOCKREPETAG
1070
     1
1071
       45
1005
12F024
  0
LINE
  5
12F025
  8
OBJECT
 10
2140.0
 20
-634.0
 30
0.0
 11
2140.0
 21
-755.0
 31
0.0
1001
ACDBBLOCKREPETAG
1070
     1
1071
       46
1005
12F025
  0
LINE
  5
12F026
  8
OBJECT
 10
2133.0
 20
-755.0
 30
0.0
 11
2133.0
 21
-634.0
 31
0.0
1001
ACDBBLOCKREPETAG
1070
     1
1071
       47
1005
12F026
  0
LINE
  5
12F027
  8
CENTER
 10
2155.0
 20
-696.0
 30
0.0
 11
2071.0
 21
-696.0
 31
0.0
1001
ACDBBLOCKREPETAG
1070
     1
1071
       48
1005
12F027
  0
LINE
  5
12F028
  8
OBJECT
 10
2133.0
 20
-637.0
 30
0.0
 11
2097.0
 21
-637.0
 31
0.0
1001
ACDBBLOCKREPETAG
1070
     1
1071
       49
1005
12F028
  0
LINE
  5
12F029
  8
OBJECT
 10
2097.0
 20
-637.0
 30
0.0
 11
2097.0
 21
-755.0
 31
0.0
1001
ACDBBLOCKREPETAG
1070
     1
1071
       50
1005
12F029
  0
LINE
  5
12F02A
  8
OBJECT
 10
2097.0
 20
-755.0
 30
0.0
 11
2140.0
 21
-755.0
 31
0.0
1001
ACDBBLOCKREPETAG
1070
     1
1071
       51
1005
12F02A
  0
LINE
  5
12F02B
  8
OBJECT
 10
2093.0
 20
-641.5
 30
0.0
 11
2086.0
 21
-641.5
 31
0.0
1001
ACDBBLOCKREPETAG
1070
     1
1071
       52
1005
12F02B
  0
LINE
  5
12F02C
  8
OBJECT
 10
2086.0
 20
-750.49999999999989
 30
0.0
 11
2093.0
 21
-750.49999999999989
 31
0.0
1001
ACDBBLOCKREPETAG
1070
     1
1071
       53
1005
12F02C
  0
LINE
  5
12F02D
  8
OBJECT
 10
2093.0
 20
-750.49999999999989
 30
0.0
 11
2093.0
 21
-641.5
 31
0.0
1001
ACDBBLOCKREPETAG
1070
     1
1071
       54
1005
12F02D
  0
LINE
  5
12F02E
  8
OBJECT
 10
2097.0
 20
-637.0
 30
0.0
 11
2093.0
 21
-641.5
 31
0.0
1001
ACDBBLOCKREPETAG
1070
     1
1071
       55
1005
12F02E
  0
LINE
  5
12F02F
  8
OBJECT
 10
2097.0
 20
-755.0
 30
0.0
 11
2093.0
 21
-750.49999999999989
 31
0.0
1001
ACDBBLOCKREPETAG
1070
     1
1071
       56
1005
12F02F
  0
LINE
  5
12F030
  8
OBJECT
 10
2083.0
 20
-634.0
 30
0.0
 11
2080.0
 21
-634.0
 31
0.0
1001
ACDBBLOCKREPETAG
1070
     1
1071
       57
1005
12F030
  0
ARC
  5
12F031
  8
OBJECT
 10
2083.0
 20
-637.0
 30
0.0
 40
3.0
 50
0.0
 51
90.0
1001
ACDBBLOCKREPETAG
1070
     1
1071
       58
1005
12F031
  0
LINE
  5
12F032
  8
OBJECT
 10
2080.0
 20
-758.0
 30
0.0
 11
2083.0
 21
-758.0
 31
0.0
1001
ACDBBLOCKREPETAG
1070
     1
1071
       59
1005
12F032
  0
ARC
  5
12F033
  8
OBJECT
 10
2083.0
 20
-755.0
 30
0.0
 40
3.0
 50
270.0
 51
0.0
1001
ACDBBLOCKREPETAG
1070
     1
1071
       60
1005
12F033
  0
LINE
  5
12F034
  8
OBJECT
 10
2086.0
 20
-755.0
 30
0.0
 11
2086.0
 21
-637.0
 31
0.0
1001
ACDBBLOCKREPETAG
1070
     1
1071
       61
1005
12F034
  0
LINE
  5
12F035
  8
HIDDEN
 10
2088.0
 20
-651.5
 30
0.0
 11
2088.0
 21
-740.5
 31
0.0
1001
ACDBBLOCKREPETAG
1070
     1
1071
       63
1005
12F035
  0
TEXT
  5
12F036
  8
SLIM
 10
126.85714285708239
 20
-443.99999999984919
 30
0.0
 40
48.0
  1
B101
 41
0.75
1001
ACDBBLOCKREPETAG
1070
     1
1071
      119
1005
12DC99
  0
TEXT
  5
12F037
  8
SLIM
 10
0.0000035665234464
 20
24.000004585317601
 30
0.0
 40
79.999999999972701
  1
枝管バリエーション
 41
0.75
1001
ACDBBLOCKREPETAG
1070
     1
1071
      119
1005
12DC98
  0
TEXT
  5
12F038
  8
SLIM
 10
-18.199999999993789
 20
-2395.9999999991828
 30
0.0
 40
51.999999999982258
  1
（特）：特注品。対向枝への排水の流入
 41
0.75
1001
ACDBBLOCKREPETAG
1070
     1
1071
      118
1005
12DC97
  0
TEXT
  5
12F039
  8
SLIM
 10
0.0
 20
-2465.3333333324931
 30
0.0
 40
51.999999999982258
  1
が無いことを確認した場合のみ製作。
 41
0.75
1001
ACDBBLOCKREPETAG
1070
     1
1071
      118
1005
12DC97
  0
LINE
  5
12F03A
  8
OBJECT
 10
222.99999999861211
 20
-328.99999999770631
 30
0.0
 11
222.99999999861211
 21
-335.99999999770631
 31
0.0
1001
ACDBBLOCKREPETAG
1070
     1
1071
        0
1005
12F03A
  0
LINE
  5
12F03B
  8
OBJECT
 10
222.99999999861211
 20
-335.99999999770631
 30
0.0
 11
128.99999999861211
 21
-335.99999999770631
 31
0.0
1001
ACDBBLOCKREPETAG
1070
     1
1071
        1
1005
12F03B
  0
LINE
  5
12F03C
  8
OBJECT
 10
128.99999999861211
 20
-335.99999999770631
 30
0.0
 11
128.99999999861211
 21
-328.99999999770631
 31
0.0
1001
ACDBBLOCKREPETAG
1070
     1
1071
        2
1005
12F03C
  0
LINE
  5
12F03D
  8
OBJECT
 10
128.99999999861211
 20
-328.99999999770631
 30
0.0
 11
222.99999999861211
 21
-328.99999999770631
 31
0.0
1001
ACDBBLOCKREPETAG
1070
     1
1071
        3
1005
12F03D
  0
LINE
  5
12F03E
  8
OBJECT
 10
219.99999999861211
 20
-328.99999999770631
 30
0.0
 11
219.99999999861211
 21
-292.99999999770631
 31
0.0
1001
ACDBBLOCKREPETAG
1070
     1
1071
        4
1005
12F03E
  0
LINE
  5
12F03F
  8
OBJECT
 10
219.99999999861211
 20
-292.99999999770631
 30
0.0
 11
131.99999999861211
 21
-292.99999999770631
 31
0.0
1001
ACDBBLOCKREPETAG
1070
     1
1071
        5
1005
12F03F
  0
LINE
  5
12F040
  8
OBJECT
 10
131.99999999861211
 20
-292.99999999770631
 30
0.0
 11
131.99999999861211
 21
-328.99999999770631
 31
0.0
1001
ACDBBLOCKREPETAG
1070
     1
1071
        6
1005
12F040
  0
LINE
  5
12F041
  8
OBJECT
 10
215.49999999861211
 20
-288.9999999977062
 30
0.0
 11
215.49999999861211
 21
-281.99999999770631
 31
0.0
1001
ACDBBLOCKREPETAG
1070
     1
1071
        7
1005
12F041
  0
LINE
  5
12F042
  8
OBJECT
 10
136.49999999861211
 20
-281.99999999770631
 30
0.0
 11
136.49999999861211
 21
-288.9999999977062
 31
0.0
1001
ACDBBLOCKREPETAG
1070
     1
1071
        8
1005
12F042
  0
LINE
  5
12F043
  8
OBJECT
 10
136.49999999861211
 20
-288.9999999977062
 30
0.0
 11
215.49999999861211
 21
-288.9999999977062
 31
0.0
1001
ACDBBLOCKREPETAG
1070
     1
1071
        9
1005
12F043
  0
LINE
  5
12F044
  8
OBJECT
 10
219.99999999861211
 20
-292.99999999770631
 30
0.0
 11
215.49999999861211
 21
-288.9999999977062
 31
0.0
1001
ACDBBLOCKREPETAG
1070
     1
1071
       10
1005
12F044
  0
LINE
  5
12F045
  8
OBJECT
 10
131.99999999861211
 20
-292.99999999770631
 30
0.0
 11
136.49999999861211
 21
-288.9999999977062
 31
0.0
1001
ACDBBLOCKREPETAG
1070
     1
1071
       11
1005
12F045
  0
LINE
  5
12F046
  8
OBJECT
 10
237.99999999861211
 20
-278.99999999770722
 30
0.0
 11
237.99999999861211
 21
-275.99999999770631
 31
0.0
1001
ACDBBLOCKREPETAG
1070
     1
1071
       12
1005
12F046
  0
ARC
  5
12F047
  8
OBJECT
 10
234.99999999861211
 20
-278.99999999770722
 30
0.0
 40
3.0
 50
270.0
 51
0.0
1001
ACDBBLOCKREPETAG
1070
     1
1071
       13
1005
12F047
  0
LINE
  5
12F048
  8
OBJECT
 10
113.9999999986121
 20
-275.99999999770631
 30
0.0
 11
113.9999999986121
 21
-278.99999999770529
 31
0.0
1001
ACDBBLOCKREPETAG
1070
     1
1071
       14
1005
12F048
  0
ARC
  5
12F049
  8
OBJECT
 10
116.9999999986121
 20
-278.99999999770529
 30
0.0
 40
3.0
 50
180.0
 51
270.0
1001
ACDBBLOCKREPETAG
1070
     1
1071
       15
1005
12F049
  0
LINE
  5
12F04A
  8
OBJECT
 10
116.9999999986121
 20
-281.99999999770529
 30
0.0
 11
234.99999999861211
 21
-281.99999999770711
 31
0.0
1001
ACDBBLOCKREPETAG
1070
     1
1071
       16
1005
12F04A
  0
INSERT
  5
12F04B
  8
OBJECT
  2
*U38
 10
0.0
 20
0.0
 30
0.0
  0
LINE
  5
12F04C
  8
HIDDEN
 10
205.99999999861211
 20
-283.99999999770631
 30
0.0
 11
145.99999999861211
 21
-283.99999999770631
 31
0.0
1001
ACDBBLOCKREPETAG
1070
     1
1071
      424
1005
12F04C
  0
LINE
  5
12F04D
  8
OBJECT
 10
258.99999999861211
 20
-257.9999999977062
 30
0.0
 11
255.99999999861211
 21
-257.9999999977062
 31
0.0
1001
ACDBBLOCKREPETAG
1070
     1
1071
      418
1005
12F04D
  0
ARC
  5
12F04E
  8
OBJECT
 10
258.99999999861211
 20
-254.99999999770631
 30
0.0
 40
3.0
 50
270.0
 51
0.0
1001
ACDBBLOCKREPETAG
1070
     1
1071
      419
1005
12F04E
  0
LINE
  5
12F04F
  8
OBJECT
 10
255.99999999861211
 20
-133.9999999977062
 30
0.0
 11
258.99999999861211
 21
-133.9999999977062
 31
0.0
1001
ACDBBLOCKREPETAG
1070
     1
1071
      420
1005
12F04F
  0
ARC
  5
12F050
  8
OBJECT
 10
258.99999999861211
 20
-136.9999999977062
 30
0.0
 40
3.0
 50
0.0
 51
90.0
1001
ACDBBLOCKREPETAG
1070
     1
1071
      421
1005
12F050
  0
LINE
  5
12F051
  8
OBJECT
 10
261.99999999861211
 20
-136.9999999977062
 30
0.0
 11
261.99999999861211
 21
-254.99999999770631
 31
0.0
1001
ACDBBLOCKREPETAG
1070
     1
1071
      422
1005
12F051
  0
INSERT
  5
12F052
  8
OBJECT
  2
*U39
 10
0.0
 20
0.0
 30
0.0
  0
LINE
  5
12F053
  8
OBJECT
 10
128.99999999861211
 20
-62.999999997706247
 30
0.0
 11
128.99999999861211
 21
-55.999999997706247
 31
0.0
1001
ACDBBLOCKREPETAG
1070
     1
1071
        1
1005
12F053
  0
LINE
  5
12F054
  8
OBJECT
 10
128.99999999861211
 20
-55.999999997706247
 30
0.0
 11
222.99999999861211
 21
-55.999999997706247
 31
0.0
1001
ACDBBLOCKREPETAG
1070
     1
1071
        2
1005
12F054
  0
LINE
  5
12F055
  8
OBJECT
 10
222.99999999861211
 20
-55.999999997706247
 30
0.0
 11
222.99999999861211
 21
-62.999999997706247
 31
0.0
1001
ACDBBLOCKREPETAG
1070
     1
1071
        3
1005
12F055
  0
LINE
  5
12F056
  8
OBJECT
 10
222.99999999861211
 20
-62.999999997706247
 30
0.0
 11
128.99999999861211
 21
-62.999999997706247
 31
0.0
1001
ACDBBLOCKREPETAG
1070
     1
1071
        4
1005
12F056
  0
LINE
  5
12F057
  8
OBJECT
 10
131.99999999861211
 20
-62.999999997706247
 30
0.0
 11
131.99999999861211
 21
-98.99999999770624
 31
0.0
1001
ACDBBLOCKREPETAG
1070
     1
1071
        5
1005
12F057
  0
LINE
  5
12F058
  8
OBJECT
 10
131.99999999861211
 20
-98.99999999770624
 30
0.0
 11
219.99999999861211
 21
-98.99999999770624
 31
0.0
1001
ACDBBLOCKREPETAG
1070
     1
1071
        6
1005
12F058
  0
LINE
  5
12F059
  8
OBJECT
 10
219.99999999861211
 20
-98.99999999770624
 30
0.0
 11
219.99999999861211
 21
-62.999999997706247
 31
0.0
1001
ACDBBLOCKREPETAG
1070
     1
1071
        7
1005
12F059
  0
LINE
  5
12F05A
  8
OBJECT
 10
136.49999999861211
 20
-102.9999999977062
 30
0.0
 11
136.49999999861211
 21
-109.9999999977062
 31
0.0
1001
ACDBBLOCKREPETAG
1070
     1
1071
        8
1005
12F05A
  0
LINE
  5
12F05B
  8
OBJECT
 10
215.49999999861211
 20
-109.9999999977062
 30
0.0
 11
215.49999999861211
 21
-102.9999999977062
 31
0.0
1001
ACDBBLOCKREPETAG
1070
     1
1071
        9
1005
12F05B
  0
LINE
  5
12F05C
  8
OBJECT
 10
215.49999999861211
 20
-102.9999999977062
 30
0.0
 11
136.49999999861211
 21
-102.9999999977062
 31
0.0
1001
ACDBBLOCKREPETAG
1070
     1
1071
       10
1005
12F05C
  0
LINE
  5
12F05D
  8
OBJECT
 10
131.99999999861211
 20
-98.99999999770624
 30
0.0
 11
136.49999999861211
 21
-102.9999999977062
 31
0.0
1001
ACDBBLOCKREPETAG
1070
     1
1071
       11
1005
12F05D
  0
LINE
  5
12F05E
  8
OBJECT
 10
219.99999999861211
 20
-98.99999999770624
 30
0.0
 11
215.49999999861211
 21
-102.9999999977062
 31
0.0
1001
ACDBBLOCKREPETAG
1070
     1
1071
       12
1005
12F05E
  0
LINE
  5
12F05F
  8
OBJECT
 10
113.9999999986121
 20
-112.9999999977053
 30
0.0
 11
113.9999999986121
 21
-115.9999999977062
 31
0.0
1001
ACDBBLOCKREPETAG
1070
     1
1071
       13
1005
12F05F
  0
ARC
  5
12F060
  8
OBJECT
 10
116.9999999986121
 20
-112.9999999977053
 30
0.0
 40
3.0
 50
90.0
 51
180.0
1001
ACDBBLOCKREPETAG
1070
     1
1071
       14
1005
12F060
  0
LINE
  5
12F061
  8
OBJECT
 10
237.99999999861211
 20
-115.9999999977062
 30
0.0
 11
237.99999999861211
 21
-112.99999999770711
 31
0.0
1001
ACDBBLOCKREPETAG
1070
     1
1071
       15
1005
12F061
  0
ARC
  5
12F062
  8
OBJECT
 10
234.99999999861211
 20
-112.99999999770711
 30
0.0
 40
3.0
 50
0.0
 51
90.0
1001
ACDBBLOCKREPETAG
1070
     1
1071
       16
1005
12F062
  0
LINE
  5
12F063
  8
OBJECT
 10
234.99999999861211
 20
-109.99999999770711
 30
0.0
 11
116.9999999986121
 21
-109.9999999977053
 31
0.0
1001
ACDBBLOCKREPETAG
1070
     1
1071
       17
1005
12F063
  0
LINE
  5
12F064
  8
HIDDEN
 10
145.99999999861211
 20
-107.9999999977062
 30
0.0
 11
205.99999999861211
 21
-107.9999999977062
 31
0.0
1001
ACDBBLOCKREPETAG
1070
     1
1071
      420
1005
12F064
  0
TEXT
  5
12F065
  8
SLIM
 10
1837.75
 20
282.50000000000011
 30
0.0
 40
35.0
  1
（枝管サイズ毎に寸法が異なります。管底の位置は全サイズで同じです）
 41
0.75
  0
TEXT
  5
12F066
  8
SLIM
 10
1850.0
 20
532.5
 30
0.0
 40
75.0
  1
側面図の代表機種
 41
0.75
  0
TEXT
  5
12F067
  8
SLIM
 10
1850.0
 20
369.99999999999989
 30
0.0
 40
100.0
  1
4CL-B303（特注品）
 41
0.75
  0
TEXT
  5
12F068
  8
SLIM
 10
0.0
 20
670.0
 30
0.0
 40
100.0
  1
4CL-BX0X-S
 41
0.75
  0
TEXT
  5
12F069
  8
SLIM
 10
0.0
 20
520.0
 30
0.0
 40
100.0
  1
4CL-BX0X-W
 41
0.75
  0
TEXT
  5
12F06A
  8
SLIM
 10
0.0
 20
369.99999999999989
 30
0.0
 40
100.0
  1
4CL-BX0X-WKP
 41
0.75
  0
LINE
  5
12F06B
  8
OBJECT
 10
4923.0
 20
-3335.9999999999968
 30
0.0
 11
4923.0
 21
-3314.9999999999968
 31
0.0
1001
ACDBBLOCKREPETAG
1070
     1
1071
        0
1005
12F06B
  0
LINE
  5
12F06C
  8
OBJECT
 10
4923.0
 20
-3314.9999999999968
 30
0.0
 11
5077.0
 21
-3314.9999999999968
 31
0.0
1001
ACDBBLOCKREPETAG
1070
     1
1071
        1
1005
12F06C
  0
LINE
  5
12F06D
  8
HIDDEN
 10
4943.0
 20
-3384.9999999999968
 30
0.0
 11
5057.0
 21
-3384.9999999999968
 31
0.0
1001
ACDBBLOCKREPETAG
1070
     1
1071
        2
1005
12F06D
  0
LINE
  5
12F06E
  8
OBJECT
 10
5077.0
 20
-3314.9999999999968
 30
0.0
 11
5077.0
 21
-3335.9999999999968
 31
0.0
1001
ACDBBLOCKREPETAG
1070
     1
1071
        3
1005
12F06E
  0
LINE
  5
12F06F
  8
OBJECT
 10
5077.0
 20
-3335.9999999999968
 30
0.0
 11
4923.0
 21
-3335.9999999999968
 31
0.0
1001
ACDBBLOCKREPETAG
1070
     1
1071
        4
1005
12F06F
  0
LINE
  5
12F070
  8
CENTER
 10
5000.0
 20
-3299.9999999999968
 30
0.0
 11
5000.0
 21
-3534.9999999999968
 31
0.0
1001
ACDBBLOCKREPETAG
1070
     1
1071
        5
1005
12F070
  0
LINE
  5
12F071
  8
OBJECT
 10
4925.0
 20
-3398.9999999999968
 30
0.0
 11
4925.0
 21
-3522.9999999999968
 31
0.0
1001
ACDBBLOCKREPETAG
1070
     1
1071
        6
1005
12F071
  0
LINE
  5
12F072
  8
OBJECT
 10
4928.0
 20
-3335.9999999999968
 30
0.0
 11
4928.0
 21
-3398.9999999999968
 31
0.0
1001
ACDBBLOCKREPETAG
1070
     1
1071
        7
1005
12F072
  0
LINE
  5
12F073
  8
OBJECT
 10
5072.0
 20
-3398.9999999999968
 30
0.0
 11
5072.0
 21
-3335.9999999999968
 31
0.0
1001
ACDBBLOCKREPETAG
1070
     1
1071
        8
1005
12F073
  0
LINE
  5
12F074
  8
OBJECT
 10
5074.9999999997999
 20
-3522.9999999997781
 30
0.0
 11
5080.0
 21
-3522.9999999999968
 31
0.0
1001
ACDBBLOCKREPETAG
1070
     1
1071
        9
1005
12F074
  0
LINE
  5
12F075
  8
OBJECT
 10
5080.0
 20
-3398.9999999999968
 30
0.0
 11
4925.0
 21
-3398.9999999999968
 31
0.0
1001
ACDBBLOCKREPETAG
1070
     1
1071
       10
1005
12F075
  0
ARC
  5
12F076
  8
OBJECT
 10
5200.6872746716726
 20
-3514.408099410105
 30
0.0
 40
170.6350503965856
 50
137.44134459184301
 51
149.9194958133665
1001
ACDBBLOCKREPETAG
1070
     1
1071
       15
1005
12F076
  0
ARC
  5
12F077
  8
OBJECT
 10
5118.8455987040506
 20
-3470.8827266953631
 30
0.0
 40
78.072222021763665
 50
147.4551531037684
 51
164.66365997719291
1001
ACDBBLOCKREPETAG
1070
     1
1071
       16
1005
12F077
  0
ARC
  5
12F078
  8
OBJECT
 10
5085.7554349608727
 20
-3460.9999999999968
 30
0.0
 40
43.55353926885617
 50
165.6884523008477
 51
194.3115476991523
1001
ACDBBLOCKREPETAG
1070
     1
1071
       17
1005
12F078
  0
ARC
  5
12F079
  8
OBJECT
 10
5200.6872746716726
 20
-3407.5919005898891
 30
0.0
 40
170.6350503965856
 50
210.0805041866335
 51
222.55865540815699
1001
ACDBBLOCKREPETAG
1070
     1
1071
       18
1005
12F079
  0
ARC
  5
12F07A
  8
OBJECT
 10
5118.8455987040506
 20
-3451.1172733046319
 30
0.0
 40
78.072222021763665
 50
195.33634002280701
 51
212.5448468962316
1001
ACDBBLOCKREPETAG
1070
     1
1071
       19
1005
12F07A
  0
POINT
  5
12F07B
  8
DOTS
 10
5000.0
 20
-3519.9999999999968
 30
0.0
1001
ACDBBLOCKREPETAG
1070
     1
1071
      186
1005
12F07B
  0
LINE
  5
12F07C
  8
OBJECT
 10
4323.0
 20
-3335.9999999999968
 30
0.0
 11
4323.0
 21
-3314.9999999999968
 31
0.0
1001
ACDBBLOCKREPETAG
1070
     1
1071
       20
1005
12F07C
  0
LINE
  5
12F07D
  8
OBJECT
 10
4323.0
 20
-3314.9999999999968
 30
0.0
 11
4477.0
 21
-3314.9999999999968
 31
0.0
1001
ACDBBLOCKREPETAG
1070
     1
1071
       21
1005
12F07D
  0
LINE
  5
12F07E
  8
HIDDEN
 10
4343.0
 20
-3384.9999999999968
 30
0.0
 11
4457.0
 21
-3384.9999999999968
 31
0.0
1001
ACDBBLOCKREPETAG
1070
     1
1071
       22
1005
12F07E
  0
LINE
  5
12F07F
  8
OBJECT
 10
4477.0
 20
-3314.9999999999968
 30
0.0
 11
4477.0
 21
-3335.9999999999968
 31
0.0
1001
ACDBBLOCKREPETAG
1070
     1
1071
       23
1005
12F07F
  0
LINE
  5
12F080
  8
OBJECT
 10
4477.0
 20
-3335.9999999999968
 30
0.0
 11
4323.0
 21
-3335.9999999999968
 31
0.0
1001
ACDBBLOCKREPETAG
1070
     1
1071
       24
1005
12F080
  0
LINE
  5
12F081
  8
CENTER
 10
4400.0
 20
-3299.9999999999968
 30
0.0
 11
4400.0
 21
-3534.9999999999968
 31
0.0
1001
ACDBBLOCKREPETAG
1070
     1
1071
       25
1005
12F081
  0
LINE
  5
12F082
  8
OBJECT
 10
4325.0
 20
-3398.9999999999968
 30
0.0
 11
4325.0
 21
-3522.9999999999968
 31
0.0
1001
ACDBBLOCKREPETAG
1070
     1
1071
       26
1005
12F082
  0
LINE
  5
12F083
  8
OBJECT
 10
4328.0
 20
-3335.9999999999968
 30
0.0
 11
4328.0
 21
-3398.9999999999968
 31
0.0
1001
ACDBBLOCKREPETAG
1070
     1
1071
       27
1005
12F083
  0
LINE
  5
12F084
  8
OBJECT
 10
4472.0
 20
-3398.9999999999968
 30
0.0
 11
4472.0
 21
-3335.9999999999968
 31
0.0
1001
ACDBBLOCKREPETAG
1070
     1
1071
       28
1005
12F084
  0
LINE
  5
12F085
  8
OBJECT
 10
4475.0
 20
-3398.9999999999968
 30
0.0
 11
4325.0
 21
-3398.9999999999968
 31
0.0
1001
ACDBBLOCKREPETAG
1070
     1
1071
       30
1005
12F085
  0
LINE
  5
12F086
  8
OBJECT
 10
4475.0
 20
-3398.9999999999968
 30
0.0
 11
4475.0
 21
-3522.9999999999968
 31
0.0
1001
ACDBBLOCKREPETAG
1070
     1
1071
       34
1005
12F086
  0
POINT
  5
12F087
  8
DOTS
 10
4400.0
 20
-3519.9999999999968
 30
0.0
1001
ACDBBLOCKREPETAG
1070
     1
1071
      187
1005
12F087
  0
LINE
  5
12F088
  8
OBJECT
 10
3923.0
 20
-3335.9999999999968
 30
0.0
 11
3923.0
 21
-3314.9999999999968
 31
0.0
1001
ACDBBLOCKREPETAG
1070
     1
1071
        0
1005
12F088
  0
LINE
  5
12F089
  8
OBJECT
 10
3923.0
 20
-3314.9999999999968
 30
0.0
 11
4077.0
 21
-3314.9999999999968
 31
0.0
1001
ACDBBLOCKREPETAG
1070
     1
1071
        1
1005
12F089
  0
LINE
  5
12F08A
  8
HIDDEN
 10
3943.0
 20
-3384.9999999999968
 30
0.0
 11
4057.0
 21
-3384.9999999999968
 31
0.0
1001
ACDBBLOCKREPETAG
1070
     1
1071
        2
1005
12F08A
  0
LINE
  5
12F08B
  8
OBJECT
 10
4077.0
 20
-3314.9999999999968
 30
0.0
 11
4077.0
 21
-3335.9999999999968
 31
0.0
1001
ACDBBLOCKREPETAG
1070
     1
1071
        3
1005
12F08B
  0
LINE
  5
12F08C
  8
OBJECT
 10
4077.0
 20
-3335.9999999999968
 30
0.0
 11
3923.0
 21
-3335.9999999999968
 31
0.0
1001
ACDBBLOCKREPETAG
1070
     1
1071
        4
1005
12F08C
  0
LINE
  5
12F08D
  8
CENTER
 10
4000.0
 20
-3299.9999999999968
 30
0.0
 11
4000.0
 21
-3534.9999999999968
 31
0.0
1001
ACDBBLOCKREPETAG
1070
     1
1071
        5
1005
12F08D
  0
LINE
  5
12F08E
  8
OBJECT
 10
3925.0
 20
-3398.9999999999968
 30
0.0
 11
3925.0
 21
-3522.9999999999968
 31
0.0
1001
ACDBBLOCKREPETAG
1070
     1
1071
        6
1005
12F08E
  0
LINE
  5
12F08F
  8
OBJECT
 10
3928.0
 20
-3335.9999999999968
 30
0.0
 11
3928.0
 21
-3398.9999999999968
 31
0.0
1001
ACDBBLOCKREPETAG
1070
     1
1071
        7
1005
12F08F
  0
LINE
  5
12F090
  8
OBJECT
 10
4072.0
 20
-3398.9999999999968
 30
0.0
 11
4072.0
 21
-3335.9999999999968
 31
0.0
1001
ACDBBLOCKREPETAG
1070
     1
1071
        8
1005
12F090
  0
LINE
  5
12F091
  8
OBJECT
 10
4074.999999999799
 20
-3522.9999999997781
 30
0.0
 11
4080.0
 21
-3522.9999999999968
 31
0.0
1001
ACDBBLOCKREPETAG
1070
     1
1071
        9
1005
12F091
  0
LINE
  5
12F092
  8
OBJECT
 10
4080.0
 20
-3398.9999999999968
 30
0.0
 11
3925.0
 21
-3398.9999999999968
 31
0.0
1001
ACDBBLOCKREPETAG
1070
     1
1071
       10
1005
12F092
  0
ARC
  5
12F093
  8
OBJECT
 10
4200.6872746716726
 20
-3514.408099410105
 30
0.0
 40
170.6350503965856
 50
137.44134459184301
 51
149.9194958133665
1001
ACDBBLOCKREPETAG
1070
     1
1071
       15
1005
12F093
  0
ARC
  5
12F094
  8
OBJECT
 10
4118.8455987040506
 20
-3470.8827266953631
 30
0.0
 40
78.072222021763665
 50
147.4551531037684
 51
164.663659977186
1001
ACDBBLOCKREPETAG
1070
     1
1071
       16
1005
12F094
  0
ARC
  5
12F095
  8
OBJECT
 10
4085.7554349608722
 20
-3460.9999999999968
 30
0.0
 40
43.55353926885617
 50
165.6884523008477
 51
194.3115476991523
1001
ACDBBLOCKREPETAG
1070
     1
1071
       17
1005
12F095
  0
ARC
  5
12F096
  8
OBJECT
 10
4200.6872746716726
 20
-3407.5919005898891
 30
0.0
 40
170.6350503965856
 50
210.0805041866335
 51
222.55865540815699
1001
ACDBBLOCKREPETAG
1070
     1
1071
       18
1005
12F096
  0
ARC
  5
12F097
  8
OBJECT
 10
4118.8455987040506
 20
-3451.1172733046319
 30
0.0
 40
78.072222021763665
 50
195.33634002281391
 51
212.5448468962316
1001
ACDBBLOCKREPETAG
1070
     1
1071
       19
1005
12F097
  0
POINT
  5
12F098
  8
DOTS
 10
4000.0
 20
-3519.9999999999968
 30
0.0
1001
ACDBBLOCKREPETAG
1070
     1
1071
      186
1005
12F098
  0
LINE
  5
12F099
  8
OBJECT
 10
3323.0
 20
-3335.9999999999968
 30
0.0
 11
3323.0
 21
-3314.9999999999968
 31
0.0
1001
ACDBBLOCKREPETAG
1070
     1
1071
       20
1005
12F099
  0
LINE
  5
12F09A
  8
OBJECT
 10
3323.0
 20
-3314.9999999999968
 30
0.0
 11
3477.0
 21
-3314.9999999999968
 31
0.0
1001
ACDBBLOCKREPETAG
1070
     1
1071
       21
1005
12F09A
  0
LINE
  5
12F09B
  8
HIDDEN
 10
3343.0
 20
-3384.9999999999968
 30
0.0
 11
3457.0
 21
-3384.9999999999968
 31
0.0
1001
ACDBBLOCKREPETAG
1070
     1
1071
       22
1005
12F09B
  0
LINE
  5
12F09C
  8
OBJECT
 10
3477.0
 20
-3314.9999999999968
 30
0.0
 11
3477.0
 21
-3335.9999999999968
 31
0.0
1001
ACDBBLOCKREPETAG
1070
     1
1071
       23
1005
12F09C
  0
LINE
  5
12F09D
  8
OBJECT
 10
3477.0
 20
-3335.9999999999968
 30
0.0
 11
3323.0
 21
-3335.9999999999968
 31
0.0
1001
ACDBBLOCKREPETAG
1070
     1
1071
       24
1005
12F09D
  0
LINE
  5
12F09E
  8
CENTER
 10
3400.0
 20
-3299.9999999999968
 30
0.0
 11
3400.0
 21
-3534.9999999999968
 31
0.0
1001
ACDBBLOCKREPETAG
1070
     1
1071
       25
1005
12F09E
  0
LINE
  5
12F09F
  8
OBJECT
 10
3325.0
 20
-3398.9999999999968
 30
0.0
 11
3325.0
 21
-3522.9999999999968
 31
0.0
1001
ACDBBLOCKREPETAG
1070
     1
1071
       26
1005
12F09F
  0
LINE
  5
12F0A0
  8
OBJECT
 10
3328.0
 20
-3335.9999999999968
 30
0.0
 11
3328.0
 21
-3398.9999999999968
 31
0.0
1001
ACDBBLOCKREPETAG
1070
     1
1071
       27
1005
12F0A0
  0
LINE
  5
12F0A1
  8
OBJECT
 10
3472.0
 20
-3398.9999999999968
 30
0.0
 11
3472.0
 21
-3335.9999999999968
 31
0.0
1001
ACDBBLOCKREPETAG
1070
     1
1071
       28
1005
12F0A1
  0
LINE
  5
12F0A2
  8
OBJECT
 10
3475.0
 20
-3398.9999999999968
 30
0.0
 11
3325.0
 21
-3398.9999999999968
 31
0.0
1001
ACDBBLOCKREPETAG
1070
     1
1071
       30
1005
12F0A2
  0
LINE
  5
12F0A3
  8
OBJECT
 10
3475.0
 20
-3398.9999999999968
 30
0.0
 11
3475.0
 21
-3522.9999999999968
 31
0.0
1001
ACDBBLOCKREPETAG
1070
     1
1071
       34
1005
12F0A3
  0
POINT
  5
12F0A4
  8
DOTS
 10
3400.0
 20
-3519.9999999999968
 30
0.0
1001
ACDBBLOCKREPETAG
1070
     1
1071
      187
1005
12F0A4
  0
LINE
  5
12F0A5
  8
OBJECT
 10
2923.0
 20
-3335.9999999999968
 30
0.0
 11
2923.0
 21
-3314.9999999999968
 31
0.0
1001
ACDBBLOCKREPETAG
1070
     1
1071
        0
1005
12F0A5
  0
LINE
  5
12F0A6
  8
OBJECT
 10
2923.0
 20
-3314.9999999999968
 30
0.0
 11
3077.0
 21
-3314.9999999999968
 31
0.0
1001
ACDBBLOCKREPETAG
1070
     1
1071
        1
1005
12F0A6
  0
LINE
  5
12F0A7
  8
HIDDEN
 10
2943.0
 20
-3384.9999999999968
 30
0.0
 11
3057.0
 21
-3384.9999999999968
 31
0.0
1001
ACDBBLOCKREPETAG
1070
     1
1071
        2
1005
12F0A7
  0
LINE
  5
12F0A8
  8
OBJECT
 10
3077.0
 20
-3314.9999999999968
 30
0.0
 11
3077.0
 21
-3335.9999999999968
 31
0.0
1001
ACDBBLOCKREPETAG
1070
     1
1071
        3
1005
12F0A8
  0
LINE
  5
12F0A9
  8
OBJECT
 10
3077.0
 20
-3335.9999999999968
 30
0.0
 11
2923.0
 21
-3335.9999999999968
 31
0.0
1001
ACDBBLOCKREPETAG
1070
     1
1071
        4
1005
12F0A9
  0
LINE
  5
12F0AA
  8
CENTER
 10
3000.0
 20
-3299.9999999999968
 30
0.0
 11
3000.0
 21
-3534.9999999999968
 31
0.0
1001
ACDBBLOCKREPETAG
1070
     1
1071
        5
1005
12F0AA
  0
LINE
  5
12F0AB
  8
OBJECT
 10
2925.0
 20
-3398.9999999999968
 30
0.0
 11
2925.0
 21
-3522.9999999999968
 31
0.0
1001
ACDBBLOCKREPETAG
1070
     1
1071
        6
1005
12F0AB
  0
LINE
  5
12F0AC
  8
OBJECT
 10
2928.0
 20
-3335.9999999999968
 30
0.0
 11
2928.0
 21
-3398.9999999999968
 31
0.0
1001
ACDBBLOCKREPETAG
1070
     1
1071
        7
1005
12F0AC
  0
LINE
  5
12F0AD
  8
OBJECT
 10
3072.0
 20
-3398.9999999999968
 30
0.0
 11
3072.0
 21
-3335.9999999999968
 31
0.0
1001
ACDBBLOCKREPETAG
1070
     1
1071
        8
1005
12F0AD
  0
LINE
  5
12F0AE
  8
OBJECT
 10
3074.9999999997999
 20
-3522.9999999997781
 30
0.0
 11
3080.0
 21
-3522.9999999999968
 31
0.0
1001
ACDBBLOCKREPETAG
1070
     1
1071
        9
1005
12F0AE
  0
LINE
  5
12F0AF
  8
OBJECT
 10
3080.0
 20
-3398.9999999999968
 30
0.0
 11
2925.0
 21
-3398.9999999999968
 31
0.0
1001
ACDBBLOCKREPETAG
1070
     1
1071
       10
1005
12F0AF
  0
ARC
  5
12F0B0
  8
OBJECT
 10
3200.6872746716722
 20
-3514.408099410105
 30
0.0
 40
170.6350503965856
 50
137.44134459184301
 51
149.9194958133665
1001
ACDBBLOCKREPETAG
1070
     1
1071
       15
1005
12F0B0
  0
ARC
  5
12F0B1
  8
OBJECT
 10
3118.8455987040511
 20
-3470.8827266953631
 30
0.0
 40
78.072222021763665
 50
147.4551531037684
 51
164.663659977186
1001
ACDBBLOCKREPETAG
1070
     1
1071
       16
1005
12F0B1
  0
ARC
  5
12F0B2
  8
OBJECT
 10
3085.7554349608731
 20
-3460.9999999999968
 30
0.0
 40
43.55353926885617
 50
165.6884523008477
 51
194.3115476991523
1001
ACDBBLOCKREPETAG
1070
     1
1071
       17
1005
12F0B2
  0
ARC
  5
12F0B3
  8
OBJECT
 10
3200.6872746716722
 20
-3407.5919005898891
 30
0.0
 40
170.6350503965856
 50
210.0805041866335
 51
222.55865540815699
1001
ACDBBLOCKREPETAG
1070
     1
1071
       18
1005
12F0B3
  0
ARC
  5
12F0B4
  8
OBJECT
 10
3118.8455987040511
 20
-3451.1172733046319
 30
0.0
 40
78.072222021763665
 50
195.33634002281391
 51
212.5448468962316
1001
ACDBBLOCKREPETAG
1070
     1
1071
       19
1005
12F0B4
  0
POINT
  5
12F0B5
  8
DOTS
 10
3000.0
 20
-3519.9999999999968
 30
0.0
1001
ACDBBLOCKREPETAG
1070
     1
1071
      186
1005
12F0B5
  0
LINE
  5
12F0B6
  8
OBJECT
 10
2323.0
 20
-3335.9999999999968
 30
0.0
 11
2323.0
 21
-3314.9999999999968
 31
0.0
1001
ACDBBLOCKREPETAG
1070
     1
1071
       20
1005
12F0B6
  0
LINE
  5
12F0B7
  8
OBJECT
 10
2323.0
 20
-3314.9999999999968
 30
0.0
 11
2477.0
 21
-3314.9999999999968
 31
0.0
1001
ACDBBLOCKREPETAG
1070
     1
1071
       21
1005
12F0B7
  0
LINE
  5
12F0B8
  8
HIDDEN
 10
2343.0
 20
-3384.9999999999968
 30
0.0
 11
2457.0
 21
-3384.9999999999968
 31
0.0
1001
ACDBBLOCKREPETAG
1070
     1
1071
       22
1005
12F0B8
  0
LINE
  5
12F0B9
  8
OBJECT
 10
2477.0
 20
-3314.9999999999968
 30
0.0
 11
2477.0
 21
-3335.9999999999968
 31
0.0
1001
ACDBBLOCKREPETAG
1070
     1
1071
       23
1005
12F0B9
  0
LINE
  5
12F0BA
  8
OBJECT
 10
2477.0
 20
-3335.9999999999968
 30
0.0
 11
2323.0
 21
-3335.9999999999968
 31
0.0
1001
ACDBBLOCKREPETAG
1070
     1
1071
       24
1005
12F0BA
  0
LINE
  5
12F0BB
  8
CENTER
 10
2400.0
 20
-3299.9999999999968
 30
0.0
 11
2400.0
 21
-3534.9999999999968
 31
0.0
1001
ACDBBLOCKREPETAG
1070
     1
1071
       25
1005
12F0BB
  0
LINE
  5
12F0BC
  8
OBJECT
 10
2325.0
 20
-3398.9999999999968
 30
0.0
 11
2325.0
 21
-3522.9999999999968
 31
0.0
1001
ACDBBLOCKREPETAG
1070
     1
1071
       26
1005
12F0BC
  0
LINE
  5
12F0BD
  8
OBJECT
 10
2328.0
 20
-3335.9999999999968
 30
0.0
 11
2328.0
 21
-3398.9999999999968
 31
0.0
1001
ACDBBLOCKREPETAG
1070
     1
1071
       27
1005
12F0BD
  0
LINE
  5
12F0BE
  8
OBJECT
 10
2472.0
 20
-3398.9999999999968
 30
0.0
 11
2472.0
 21
-3335.9999999999968
 31
0.0
1001
ACDBBLOCKREPETAG
1070
     1
1071
       28
1005
12F0BE
  0
LINE
  5
12F0BF
  8
OBJECT
 10
2475.0
 20
-3398.9999999999968
 30
0.0
 11
2325.0
 21
-3398.9999999999968
 31
0.0
1001
ACDBBLOCKREPETAG
1070
     1
1071
       30
1005
12F0BF
  0
LINE
  5
12F0C0
  8
OBJECT
 10
2475.0
 20
-3398.9999999999968
 30
0.0
 11
2475.0
 21
-3522.9999999999968
 31
0.0
1001
ACDBBLOCKREPETAG
1070
     1
1071
       34
1005
12F0C0
  0
POINT
  5
12F0C1
  8
DOTS
 10
2400.0
 20
-3519.9999999999968
 30
0.0
1001
ACDBBLOCKREPETAG
1070
     1
1071
      187
1005
12F0C1
  0
LINE
  5
12F0C2
  8
OBJECT
 10
1923.0
 20
-3335.9999999999968
 30
0.0
 11
1923.0
 21
-3314.9999999999968
 31
0.0
1001
ACDBBLOCKREPETAG
1070
     1
1071
        0
1005
12F0C2
  0
LINE
  5
12F0C3
  8
OBJECT
 10
1923.0
 20
-3314.9999999999968
 30
0.0
 11
2077.0
 21
-3314.9999999999968
 31
0.0
1001
ACDBBLOCKREPETAG
1070
     1
1071
        1
1005
12F0C3
  0
LINE
  5
12F0C4
  8
HIDDEN
 10
1943.0
 20
-3384.9999999999968
 30
0.0
 11
2057.0
 21
-3384.9999999999968
 31
0.0
1001
ACDBBLOCKREPETAG
1070
     1
1071
        2
1005
12F0C4
  0
LINE
  5
12F0C5
  8
OBJECT
 10
2077.0
 20
-3314.9999999999968
 30
0.0
 11
2077.0
 21
-3335.9999999999968
 31
0.0
1001
ACDBBLOCKREPETAG
1070
     1
1071
        3
1005
12F0C5
  0
LINE
  5
12F0C6
  8
OBJECT
 10
2077.0
 20
-3335.9999999999968
 30
0.0
 11
1923.0
 21
-3335.9999999999968
 31
0.0
1001
ACDBBLOCKREPETAG
1070
     1
1071
        4
1005
12F0C6
  0
LINE
  5
12F0C7
  8
CENTER
 10
2000.0
 20
-3299.9999999999968
 30
0.0
 11
2000.0
 21
-3534.9999999999968
 31
0.0
1001
ACDBBLOCKREPETAG
1070
     1
1071
        5
1005
12F0C7
  0
LINE
  5
12F0C8
  8
OBJECT
 10
1925.0
 20
-3398.9999999999968
 30
0.0
 11
1925.0
 21
-3522.9999999999968
 31
0.0
1001
ACDBBLOCKREPETAG
1070
     1
1071
        6
1005
12F0C8
  0
LINE
  5
12F0C9
  8
OBJECT
 10
1928.0
 20
-3335.9999999999968
 30
0.0
 11
1928.0
 21
-3398.9999999999968
 31
0.0
1001
ACDBBLOCKREPETAG
1070
     1
1071
        7
1005
12F0C9
  0
LINE
  5
12F0CA
  8
OBJECT
 10
2072.0
 20
-3398.9999999999968
 30
0.0
 11
2072.0
 21
-3335.9999999999968
 31
0.0
1001
ACDBBLOCKREPETAG
1070
     1
1071
        8
1005
12F0CA
  0
LINE
  5
12F0CB
  8
OBJECT
 10
2074.999999999799
 20
-3522.9999999997781
 30
0.0
 11
2080.0
 21
-3522.9999999999968
 31
0.0
1001
ACDBBLOCKREPETAG
1070
     1
1071
        9
1005
12F0CB
  0
LINE
  5
12F0CC
  8
OBJECT
 10
2080.0
 20
-3398.9999999999968
 30
0.0
 11
1925.0
 21
-3398.9999999999968
 31
0.0
1001
ACDBBLOCKREPETAG
1070
     1
1071
       10
1005
12F0CC
  0
ARC
  5
12F0CD
  8
OBJECT
 10
2200.6872746716731
 20
-3514.408099410105
 30
0.0
 40
170.6350503965856
 50
137.44134459184301
 51
149.91949581335999
1001
ACDBBLOCKREPETAG
1070
     1
1071
       15
1005
12F0CD
  0
ARC
  5
12F0CE
  8
OBJECT
 10
2118.8455987040511
 20
-3470.8827266953631
 30
0.0
 40
78.072222021763665
 50
147.45515310377539
 51
164.663659977186
1001
ACDBBLOCKREPETAG
1070
     1
1071
       16
1005
12F0CE
  0
ARC
  5
12F0CF
  8
OBJECT
 10
2085.7554349608731
 20
-3460.9999999999968
 30
0.0
 40
43.55353926885617
 50
165.6884523008477
 51
194.3115476991523
1001
ACDBBLOCKREPETAG
1070
     1
1071
       17
1005
12F0CF
  0
ARC
  5
12F0D0
  8
OBJECT
 10
2200.6872746716731
 20
-3407.5919005898891
 30
0.0
 40
170.6350503965856
 50
210.08050418664001
 51
222.55865540815699
1001
ACDBBLOCKREPETAG
1070
     1
1071
       18
1005
12F0D0
  0
ARC
  5
12F0D1
  8
OBJECT
 10
2118.8455987040511
 20
-3451.1172733046319
 30
0.0
 40
78.072222021763665
 50
195.33634002281391
 51
212.54484689622461
1001
ACDBBLOCKREPETAG
1070
     1
1071
       19
1005
12F0D1
  0
POINT
  5
12F0D2
  8
DOTS
 10
2000.0
 20
-3519.9999999999968
 30
0.0
1001
ACDBBLOCKREPETAG
1070
     1
1071
      186
1005
12F0D2
  0
LINE
  5
12F0D3
  8
DIM
 10
2150.0
 20
-3161.9999999999959
 30
0.0
 11
2228.4796205944581
 21
-3161.9999999999959
 31
0.0
  0
LINE
  5
12F0D4
  8
DIM
 10
2150.0
 20
-3067.9999999999959
 30
0.0
 11
2228.479620594459
 21
-3067.9999999999959
 31
0.0
  0
LINE
  5
12F0D5
  8
DIM
 10
2218.4796205944581
 20
-3141.9999999999959
 30
0.0
 11
2218.4796205944581
 21
-3087.9999999999959
 31
0.0
  0
INSERT
  5
12F0D6
  8
DIM
  2
_OPEN30
 10
2218.4796205944581
 20
-3161.9999999999959
 30
0.0
 41
20.0
 42
20.0
 43
20.0
 50
270.0
  0
INSERT
  5
12F0D7
  8
DIM
  2
_OPEN30
 10
2218.479620594459
 20
-3067.9999999999959
 30
0.0
 41
20.0
 42
20.0
 43
20.0
 50
90.0
  0
INSERT
  5
12F0D8
  8
OBJECT
  2
*U40
 10
0.0
 20
0.0
 30
0.0
  0
LINE
  5
12F0D9
  8
DIM
 10
2150.0
 20
-3519.9999999999968
 30
0.0
 11
2226.8409284037339
 21
-3519.9999999999968
 31
0.0
  0
LINE
  5
12F0DA
  8
DIM
 10
2165.0
 20
-3475.9999999999968
 30
0.0
 11
2226.8409284037339
 21
-3475.9999999999968
 31
0.0
  0
LINE
  5
12F0DB
  8
DIM
 10
2216.840928403733
 20
-3539.9999999999968
 30
0.0
 11
2216.840928403733
 21
-3559.9999999999968
 31
0.0
  0
LINE
  5
12F0DC
  8
DIM
 10
2216.840928403733
 20
-3455.9999999999968
 30
0.0
 11
2216.840928403733
 21
-3435.9999999999968
 31
0.0
  0
LINE
  5
12F0DD
  8
DIM
 10
2216.840928403733
 20
-3519.9999999999968
 30
0.0
 11
2216.840928403733
 21
-3475.9999999999968
 31
0.0
  0
INSERT
  5
12F0DE
  8
DIM
  2
_OPEN30
 10
2216.840928403733
 20
-3519.9999999999968
 30
0.0
 41
20.0
 42
20.0
 43
20.0
 50
90.0
  0
INSERT
  5
12F0DF
  8
DIM
  2
_OPEN30
 10
2216.840928403733
 20
-3475.9999999999968
 30
0.0
 41
20.0
 42
20.0
 43
20.0
 50
270.0
  0
INSERT
  5
12F0E0
  8
OBJECT
  2
*U41
 10
0.0
 20
0.0
 30
0.0
  0
LINE
  5
12F0E1
  8
DIM
 10
2000.0
 20
-3009.9999999999959
 30
0.0
 11
2000.0
 21
-2977.208121984444
 31
0.0
  0
LINE
  5
12F0E2
  8
DIM
 10
2140.0
 20
-3057.9999999999959
 30
0.0
 11
2140.0
 21
-2977.208121984444
 31
0.0
  0
LINE
  5
12F0E3
  8
DIM
 10
2020.0
 20
-2987.208121984444
 30
0.0
 11
2120.0
 21
-2987.208121984444
 31
0.0
  0
INSERT
  5
12F0E4
  8
DIM
  2
_OPEN30
 10
2000.0
 20
-2987.208121984444
 30
0.0
 41
20.0
 42
20.0
 43
20.0
 50
180.0
  0
INSERT
  5
12F0E5
  8
DIM
  2
_OPEN30
 10
2140.0
 20
-2987.208121984444
 30
0.0
 41
20.0
 42
20.0
 43
20.0
  0
INSERT
  5
12F0E6
  8
OBJECT
  2
*U42
 10
0.0
 20
0.0
 30
0.0
  0
TEXT
  5
12F0E7
  8
SLIM
 10
2631.0
 20
-2892.50001604727
 30
0.0
 40
40.0
  1
C寸法
 41
0.75
  0
TEXT
  5
12F0E8
  8
SLIM
 10
2631.0
 20
-2822.50001604727
 30
0.0
 40
40.0
  1
B寸法
 41
0.75
  0
TEXT
  5
12F0E9
  8
SLIM
 10
2630.2857142857142
 20
-2752.50001604727
 30
0.0
 40
40.0
  1
A寸法
 41
0.75
  0
TEXT
  5
12F0EA
  8
SLIM
 10
3159.2857142857151
 20
-2892.50001604727
 30
0.0
 40
40.0
  1
150
 41
0.75
  0
TEXT
  5
12F0EB
  8
SLIM
 10
3029.2857142857151
 20
-2892.50001604727
 30
0.0
 40
40.0
  1
140
 41
0.75
  0
TEXT
  5
12F0EC
  8
SLIM
 10
2769.2857142857151
 20
-2892.50001604727
 30
0.0
 40
40.0
  1
140
 41
0.75
  0
TEXT
  5
12F0ED
  8
SLIM
 10
2899.2857142857151
 20
-2892.50001604727
 30
0.0
 40
40.0
  1
140
 41
0.75
  0
TEXT
  5
12F0EE
  8
SLIM
 10
3170.7142857142858
 20
-2822.50001604727
 30
0.0
 40
40.0
  1
72
 41
0.75
  0
TEXT
  5
12F0EF
  8
SLIM
 10
3041.4285714285711
 20
-2822.50001604727
 30
0.0
 40
40.0
  1
59
 41
0.75
  0
TEXT
  5
12F0F0
  8
SLIM
 10
2780.0
 20
-2822.50001604727
 30
0.0
 40
40.0
  1
44
 41
0.75
  0
TEXT
  5
12F0F1
  8
SLIM
 10
2910.7142857142858
 20
-2822.50001604727
 30
0.0
 40
40.0
  1
52
 41
0.75
  0
TEXT
  5
12F0F2
  8
SLIM
 10
2891.0
 20
-2627.50001604727
 30
0.0
 40
40.0
  1
横枝管サイズ
 41
0.75
  0
TEXT
  5
12F0F3
  8
SLIM
 10
3136.2857142857151
 20
-2682.50001604727
 30
0.0
 40
30.0
  1
100（4）
 41
0.75
  0
TEXT
  5
12F0F4
  8
SLIM
 10
3014.857142857144
 20
-2682.50001604727
 30
0.0
 40
30.0
  1
75（3）
 41
0.75
  0
TEXT
  5
12F0F5
  8
SLIM
 10
2884.8571428571431
 20
-2682.50001604727
 30
0.0
 40
30.0
  1
65（2）
 41
0.75
  0
TEXT
  5
12F0F6
  8
SLIM
 10
2757.0
 20
-2682.50001604727
 30
0.0
 40
30.0
  1
50（1）
 41
0.75
  0
TEXT
  5
12F0F7
  8
SLIM
 10
3159.2857142857151
 20
-2752.50001604727
 30
0.0
 40
40.0
  1
150
 41
0.75
  0
TEXT
  5
12F0F8
  8
SLIM
 10
3028.571428571428
 20
-2752.50001604727
 30
0.0
 40
40.0
  1
124
 41
0.75
  0
TEXT
  5
12F0F9
  8
SLIM
 10
2780.0
 20
-2752.50001604727
 30
0.0
 40
40.0
  1
94
 41
0.75
  0
TEXT
  5
12F0FA
  8
SLIM
 10
2902.1428571428569
 20
-2752.50001604727
 30
0.0
 40
40.0
  1
110
 41
0.75
  0
TEXT
  5
12F0FB
  8
SLIM
 10
1849.9999999999991
 20
-2652.5
 30
0.0
 40
75.0
  1
枝管サイズ毎の形状
 41
0.75
  0
LINE
  5
12F0FC
  8
OBJECT
 10
5150.0
 20
-3372.9999999999968
 30
0.0
 11
5143.0
 21
-3372.9999999999968
 31
0.0
1001
ACDBBLOCKREPETAG
1070
     1
1071
       64
1005
12F0FC
  0
LINE
  5
12F0FD
  8
OBJECT
 10
5143.0
 20
-3372.9999999999968
 30
0.0
 11
5143.0
 21
-3519.9999999999968
 31
0.0
1001
ACDBBLOCKREPETAG
1070
     1
1071
       65
1005
12F0FD
  0
LINE
  5
12F0FE
  8
OBJECT
 10
5101.5
 20
-3375.9999999999968
 30
0.0
 11
5101.5
 21
-3519.9999999999968
 31
0.0
1001
ACDBBLOCKREPETAG
1070
     1
1071
       66
1005
12F0FE
  0
LINE
  5
12F0FF
  8
OBJECT
 10
5090.0
 20
-3382.4999999999968
 30
0.0
 11
5090.0
 21
-3513.4999999999968
 31
0.0
1001
ACDBBLOCKREPETAG
1070
     1
1071
       67
1005
12F0FF
  0
LINE
  5
12F100
  8
OBJECT
 10
5086.0
 20
-3454.500000000005
 30
0.0
 11
5086.0
 21
-3519.9999999999968
 31
0.0
1001
ACDBBLOCKREPETAG
1070
     1
1071
       68
1005
12F100
  0
LINE
  5
12F101
  8
OBJECT
 10
5150.0
 20
-3519.9999999999968
 30
0.0
 11
5150.0
 21
-3372.9999999999968
 31
0.0
1001
ACDBBLOCKREPETAG
1070
     1
1071
       69
1005
12F101
  0
LINE
  5
12F102
  8
CENTER
 10
5165.0
 20
-3447.9999999999968
 30
0.0
 11
5070.4144144144157
 21
-3447.9999999999968
 31
0.0
1001
ACDBBLOCKREPETAG
1070
     1
1071
       70
1005
12F102
  0
LINE
  5
12F103
  8
OBJECT
 10
5083.0000000000045
 20
-3522.9999999999968
 30
0.0
 11
5080.0
 21
-3522.9999999999968
 31
0.0
1001
ACDBBLOCKREPETAG
1070
     1
1071
       71
1005
12F103
  0
ARC
  5
12F104
  8
OBJECT
 10
5091.8815171830656
 20
-3521.4555591801418
 30
0.0
 40
6.0
 50
60.52411099686767
 51
170.6927439126847
1001
ACDBBLOCKREPETAG
1070
     1
1071
       72
1005
12F104
  0
ARC
  5
12F105
  8
OBJECT
 10
5083.0
 20
-3519.9999999999968
 30
0.0
 40
3.0
 50
270.0
 51
350.69274391268482
1001
ACDBBLOCKREPETAG
1070
     1
1071
       73
1005
12F105
  0
LINE
  5
12F106
  8
OBJECT
 10
5081.0
 20
-3398.9999999999968
 30
0.0
 11
5080.0
 21
-3398.9999999999968
 31
0.0
1001
ACDBBLOCKREPETAG
1070
     1
1071
       74
1005
12F106
  0
LINE
  5
12F107
  8
OBJECT
 10
5150.0
 20
-3519.9999999999968
 30
0.0
 11
5101.5
 21
-3519.9999999999968
 31
0.0
1001
ACDBBLOCKREPETAG
1070
     1
1071
       75
1005
12F107
  0
LINE
  5
12F108
  8
OBJECT
 10
5101.5
 20
-3375.9999999999968
 30
0.0
 11
5090.0
 21
-3382.4999999999968
 31
0.0
1001
ACDBBLOCKREPETAG
1070
     1
1071
       76
1005
12F108
  0
LINE
  5
12F109
  8
OBJECT
 10
5143.0
 20
-3375.9999999999968
 30
0.0
 11
5101.5
 21
-3375.9999999999968
 31
0.0
1001
ACDBBLOCKREPETAG
1070
     1
1071
       77
1005
12F109
  0
LINE
  5
12F10A
  8
OBJECT
 10
5086.0
 20
-3454.500000000005
 30
0.0
 11
5081.0
 21
-3398.9999999999968
 31
0.0
1001
ACDBBLOCKREPETAG
1070
     1
1071
       78
1005
12F10A
  0
LINE
  5
12F10B
  8
OBJECT
 10
5090.0
 20
-3382.4999999999968
 30
0.0
 11
5081.0
 21
-3398.9999999999968
 31
0.0
1001
ACDBBLOCKREPETAG
1070
     1
1071
       79
1005
12F10B
  0
LINE
  5
12F10C
  8
OBJECT
 10
5101.5
 20
-3519.9999999999968
 30
0.0
 11
5094.8338607230708
 21
-3516.232182147819
 31
0.0
1001
ACDBBLOCKREPETAG
1070
     1
1071
       80
1005
12F10C
  0
LINE
  5
12F10D
  8
HIDDEN
 10
5098.0
 20
-3504.9999999999968
 30
0.0
 11
5098.0
 21
-3390.9999999999968
 31
0.0
1001
ACDBBLOCKREPETAG
1070
     1
1071
       81
1005
12F10D
  0
LINE
  5
12F10E
  8
OBJECT
 10
5150.0
 20
-3039.9999999999959
 30
0.0
 11
5143.0
 21
-3039.9999999999959
 31
0.0
1001
ACDBBLOCKREPETAG
1070
     1
1071
       67
1005
12F10E
  0
LINE
  5
12F10F
  8
OBJECT
 10
5143.0
 20
-3039.9999999999959
 30
0.0
 11
5143.0
 21
-3189.9999999999959
 31
0.0
1001
ACDBBLOCKREPETAG
1070
     1
1071
       68
1005
12F10F
  0
LINE
  5
12F110
  8
OBJECT
 10
5101.5
 20
-3042.9999999999959
 30
0.0
 11
5101.5
 21
-3186.9999999999959
 31
0.0
1001
ACDBBLOCKREPETAG
1070
     1
1071
       69
1005
12F110
  0
LINE
  5
12F111
  8
OBJECT
 10
5090.0
 20
-3049.4999999999959
 30
0.0
 11
5090.0
 21
-3180.4999999999959
 31
0.0
1001
ACDBBLOCKREPETAG
1070
     1
1071
       70
1005
12F111
  0
LINE
  5
12F112
  8
OBJECT
 10
5143.0
 20
-3189.9999999999959
 30
0.0
 11
5150.0
 21
-3189.9999999999959
 31
0.0
1001
ACDBBLOCKREPETAG
1070
     1
1071
       71
1005
12F112
  0
LINE
  5
12F113
  8
OBJECT
 10
5150.0
 20
-3189.9999999999959
 30
0.0
 11
5150.0
 21
-3039.9999999999959
 31
0.0
1001
ACDBBLOCKREPETAG
1070
     1
1071
       72
1005
12F113
  0
LINE
  5
12F114
  8
HIDDEN
 10
5098.0
 20
-3171.9999999999959
 30
0.0
 11
5098.0
 21
-3057.9999999999959
 31
0.0
1001
ACDBBLOCKREPETAG
1070
     1
1071
       73
1005
12F114
  0
LINE
  5
12F115
  8
CENTER
 10
5165.0
 20
-3114.9999999999959
 30
0.0
 11
5080.0
 21
-3114.9999999999959
 31
0.0
1001
ACDBBLOCKREPETAG
1070
     1
1071
       74
1005
12F115
  0
LINE
  5
12F116
  8
OBJECT
 10
5086.0
 20
-3176.9999999999959
 30
0.0
 11
5080.0
 21
-3176.9999999999959
 31
0.0
1001
ACDBBLOCKREPETAG
1070
     1
1071
       75
1005
12F116
  0
LINE
  5
12F117
  8
OBJECT
 10
5143.0
 20
-3186.9999999999959
 30
0.0
 11
5101.5
 21
-3186.9999999999959
 31
0.0
1001
ACDBBLOCKREPETAG
1070
     1
1071
       76
1005
12F117
  0
LINE
  5
12F118
  8
OBJECT
 10
5101.5
 20
-3186.9999999999959
 30
0.0
 11
5090.0
 21
-3180.4999999999959
 31
0.0
1001
ACDBBLOCKREPETAG
1070
     1
1071
       77
1005
12F118
  0
LINE
  5
12F119
  8
OBJECT
 10
5090.0
 20
-3180.4999999999959
 30
0.0
 11
5086.0
 21
-3176.9999999999959
 31
0.0
1001
ACDBBLOCKREPETAG
1070
     1
1071
       78
1005
12F119
  0
LINE
  5
12F11A
  8
OBJECT
 10
5101.5
 20
-3042.9999999999959
 30
0.0
 11
5090.0
 21
-3049.4999999999959
 31
0.0
1001
ACDBBLOCKREPETAG
1070
     1
1071
       79
1005
12F11A
  0
LINE
  5
12F11B
  8
OBJECT
 10
5090.0
 20
-3049.4999999999959
 30
0.0
 11
5086.0
 21
-3052.9999999999959
 31
0.0
1001
ACDBBLOCKREPETAG
1070
     1
1071
       80
1005
12F11B
  0
ARC
  5
12F11C
  8
OBJECT
 10
5467.9000000000005
 20
-3114.9999999999959
 30
0.0
 40
386.89999999999998
 50
170.77870136260421
 51
189.22129863739571
1001
ACDBBLOCKREPETAG
1070
     1
1071
       81
1005
12F11C
  0
LINE
  5
12F11D
  8
OBJECT
 10
5086.0
 20
-3052.9999999999959
 30
0.0
 11
5080.0
 21
-3052.9999999999959
 31
0.0
1001
ACDBBLOCKREPETAG
1070
     1
1071
       82
1005
12F11D
  0
LINE
  5
12F11E
  8
OBJECT
 10
5143.0
 20
-3042.9999999999959
 30
0.0
 11
5101.5
 21
-3042.9999999999959
 31
0.0
1001
ACDBBLOCKREPETAG
1070
     1
1071
       83
1005
12F11E
  0
TEXT
  5
12F11F
  8
SLIM
 10
4884.25
 20
-3637.4999999999959
 30
0.0
 40
35.0
  1
通常枝100（4）
 41
0.75
  0
LINE
  5
12F120
  8
CENTER
 10
4477.0
 20
-3460.9999999999968
 30
0.0
 11
4323.0
 21
-3460.9999999999968
 31
0.0
1001
ACDBBLOCKREPETAG
1070
     1
1071
       17
1005
12F120
  0
CIRCLE
  5
12F121
  8
OBJECT
 10
4400.0
 20
-3460.9999999999968
 30
0.0
 40
41.5
1001
ACDBBLOCKREPETAG
1070
     1
1071
       19
1005
12F121
  0
CIRCLE
  5
12F122
  8
OBJECT
 10
4400.0
 20
-3460.9999999999968
 30
0.0
 40
54.0
1001
ACDBBLOCKREPETAG
1070
     1
1071
       20
1005
12F122
  0
ARC
  5
12F123
  8
OBJECT
 10
4400.0
 20
-3460.9999999999968
 30
0.0
 40
62.0
 50
287.89655112921122
 51
252.1034488707887
1001
ACDBBLOCKREPETAG
1070
     1
1071
       21
1005
12F123
  0
LINE
  5
12F124
  8
OBJECT
 10
4380.947441116743
 20
-3519.9999999999968
 30
0.0
 11
4419.052558883257
 21
-3519.9999999999968
 31
0.0
1001
ACDBBLOCKREPETAG
1070
     1
1071
       22
1005
12F124
  0
LINE
  5
12F125
  8
OBJECT
 10
4133.0
 20
-3398.9999999999968
 30
0.0
 11
4140.0
 21
-3398.9999999999968
 31
0.0
1001
ACDBBLOCKREPETAG
1070
     1
1071
       45
1005
12F125
  0
LINE
  5
12F126
  8
OBJECT
 10
4140.0
 20
-3398.9999999999968
 30
0.0
 11
4140.0
 21
-3519.9999999999968
 31
0.0
1001
ACDBBLOCKREPETAG
1070
     1
1071
       46
1005
12F126
  0
LINE
  5
12F127
  8
OBJECT
 10
4133.0
 20
-3519.9999999999968
 30
0.0
 11
4133.0
 21
-3398.9999999999968
 31
0.0
1001
ACDBBLOCKREPETAG
1070
     1
1071
       47
1005
12F127
  0
LINE
  5
12F128
  8
CENTER
 10
4155.0
 20
-3460.9999999999968
 30
0.0
 11
4071.0
 21
-3460.9999999999968
 31
0.0
1001
ACDBBLOCKREPETAG
1070
     1
1071
       48
1005
12F128
  0
LINE
  5
12F129
  8
OBJECT
 10
4133.0
 20
-3401.9999999999968
 30
0.0
 11
4097.0
 21
-3401.9999999999968
 31
0.0
1001
ACDBBLOCKREPETAG
1070
     1
1071
       49
1005
12F129
  0
LINE
  5
12F12A
  8
OBJECT
 10
4097.0
 20
-3401.9999999999968
 30
0.0
 11
4097.0
 21
-3519.9999999999968
 31
0.0
1001
ACDBBLOCKREPETAG
1070
     1
1071
       50
1005
12F12A
  0
LINE
  5
12F12B
  8
OBJECT
 10
4097.0
 20
-3519.9999999999968
 30
0.0
 11
4140.0
 21
-3519.9999999999968
 31
0.0
1001
ACDBBLOCKREPETAG
1070
     1
1071
       51
1005
12F12B
  0
LINE
  5
12F12C
  8
OBJECT
 10
4093.0
 20
-3406.4999999999968
 30
0.0
 11
4086.0
 21
-3406.4999999999968
 31
0.0
1001
ACDBBLOCKREPETAG
1070
     1
1071
       52
1005
12F12C
  0
LINE
  5
12F12D
  8
OBJECT
 10
4086.0
 20
-3515.4999999999968
 30
0.0
 11
4093.0
 21
-3515.4999999999968
 31
0.0
1001
ACDBBLOCKREPETAG
1070
     1
1071
       53
1005
12F12D
  0
LINE
  5
12F12E
  8
OBJECT
 10
4093.0
 20
-3515.4999999999968
 30
0.0
 11
4093.0
 21
-3406.4999999999968
 31
0.0
1001
ACDBBLOCKREPETAG
1070
     1
1071
       54
1005
12F12E
  0
LINE
  5
12F12F
  8
OBJECT
 10
4097.0
 20
-3401.9999999999968
 30
0.0
 11
4093.0
 21
-3406.4999999999968
 31
0.0
1001
ACDBBLOCKREPETAG
1070
     1
1071
       55
1005
12F12F
  0
LINE
  5
12F130
  8
OBJECT
 10
4097.0
 20
-3519.9999999999968
 30
0.0
 11
4093.0
 21
-3515.4999999999968
 31
0.0
1001
ACDBBLOCKREPETAG
1070
     1
1071
       56
1005
12F130
  0
LINE
  5
12F131
  8
OBJECT
 10
4083.0
 20
-3398.9999999999968
 30
0.0
 11
4080.0
 21
-3398.9999999999968
 31
0.0
1001
ACDBBLOCKREPETAG
1070
     1
1071
       57
1005
12F131
  0
ARC
  5
12F132
  8
OBJECT
 10
4083.0
 20
-3401.9999999999968
 30
0.0
 40
3.0
 50
0.0
 51
90.0
1001
ACDBBLOCKREPETAG
1070
     1
1071
       58
1005
12F132
  0
LINE
  5
12F133
  8
OBJECT
 10
4080.0
 20
-3522.9999999999968
 30
0.0
 11
4083.0
 21
-3522.9999999999968
 31
0.0
1001
ACDBBLOCKREPETAG
1070
     1
1071
       59
1005
12F133
  0
ARC
  5
12F134
  8
OBJECT
 10
4083.0
 20
-3519.9999999999968
 30
0.0
 40
3.0
 50
270.0
 51
0.0
1001
ACDBBLOCKREPETAG
1070
     1
1071
       60
1005
12F134
  0
LINE
  5
12F135
  8
OBJECT
 10
4086.0
 20
-3519.9999999999968
 30
0.0
 11
4086.0
 21
-3401.9999999999968
 31
0.0
1001
ACDBBLOCKREPETAG
1070
     1
1071
       61
1005
12F135
  0
LINE
  5
12F136
  8
HIDDEN
 10
4088.0
 20
-3416.4999999999968
 30
0.0
 11
4088.0
 21
-3505.4999999999968
 31
0.0
1001
ACDBBLOCKREPETAG
1070
     1
1071
       63
1005
12F136
  0
LINE
  5
12F137
  8
OBJECT
 10
4133.0
 20
-3052.9999999999959
 30
0.0
 11
4140.0
 21
-3052.9999999999959
 31
0.0
1001
ACDBBLOCKREPETAG
1070
     1
1071
       47
1005
12F137
  0
LINE
  5
12F138
  8
OBJECT
 10
4140.0
 20
-3052.9999999999959
 30
0.0
 11
4140.0
 21
-3176.9999999999959
 31
0.0
1001
ACDBBLOCKREPETAG
1070
     1
1071
       48
1005
12F138
  0
LINE
  5
12F139
  8
OBJECT
 10
4140.0
 20
-3176.9999999999959
 30
0.0
 11
4133.0
 21
-3176.9999999999959
 31
0.0
1001
ACDBBLOCKREPETAG
1070
     1
1071
       49
1005
12F139
  0
LINE
  5
12F13A
  8
OBJECT
 10
4133.0
 20
-3176.9999999999959
 30
0.0
 11
4133.0
 21
-3052.9999999999959
 31
0.0
1001
ACDBBLOCKREPETAG
1070
     1
1071
       50
1005
12F13A
  0
LINE
  5
12F13B
  8
CENTER
 10
4155.0
 20
-3114.9999999999959
 30
0.0
 11
4080.0
 21
-3114.9999999999959
 31
0.0
1001
ACDBBLOCKREPETAG
1070
     1
1071
       51
1005
12F13B
  0
LINE
  5
12F13C
  8
OBJECT
 10
4133.0
 20
-3055.9999999999959
 30
0.0
 11
4097.0
 21
-3055.9999999999959
 31
0.0
1001
ACDBBLOCKREPETAG
1070
     1
1071
       52
1005
12F13C
  0
LINE
  5
12F13D
  8
OBJECT
 10
4097.0
 20
-3055.9999999999959
 30
0.0
 11
4097.0
 21
-3173.9999999999959
 31
0.0
1001
ACDBBLOCKREPETAG
1070
     1
1071
       53
1005
12F13D
  0
LINE
  5
12F13E
  8
OBJECT
 10
4097.0
 20
-3173.9999999999959
 30
0.0
 11
4133.0
 21
-3173.9999999999959
 31
0.0
1001
ACDBBLOCKREPETAG
1070
     1
1071
       54
1005
12F13E
  0
LINE
  5
12F13F
  8
OBJECT
 10
4093.0
 20
-3060.4999999999959
 30
0.0
 11
4086.0
 21
-3060.4999999999959
 31
0.0
1001
ACDBBLOCKREPETAG
1070
     1
1071
       55
1005
12F13F
  0
LINE
  5
12F140
  8
OBJECT
 10
4086.0
 20
-3169.4999999999959
 30
0.0
 11
4093.0
 21
-3169.4999999999959
 31
0.0
1001
ACDBBLOCKREPETAG
1070
     1
1071
       56
1005
12F140
  0
LINE
  5
12F141
  8
OBJECT
 10
4093.0
 20
-3169.4999999999959
 30
0.0
 11
4093.0
 21
-3060.4999999999959
 31
0.0
1001
ACDBBLOCKREPETAG
1070
     1
1071
       57
1005
12F141
  0
LINE
  5
12F142
  8
OBJECT
 10
4097.0
 20
-3055.9999999999959
 30
0.0
 11
4093.0
 21
-3060.4999999999959
 31
0.0
1001
ACDBBLOCKREPETAG
1070
     1
1071
       58
1005
12F142
  0
LINE
  5
12F143
  8
OBJECT
 10
4097.0
 20
-3173.9999999999959
 30
0.0
 11
4093.0
 21
-3169.4999999999959
 31
0.0
1001
ACDBBLOCKREPETAG
1070
     1
1071
       59
1005
12F143
  0
LINE
  5
12F144
  8
OBJECT
 10
4083.0
 20
-3052.9999999999959
 30
0.0
 11
4080.0
 21
-3052.9999999999959
 31
0.0
1001
ACDBBLOCKREPETAG
1070
     1
1071
       60
1005
12F144
  0
ARC
  5
12F145
  8
OBJECT
 10
4083.0
 20
-3055.9999999999959
 30
0.0
 40
3.0
 50
0.0
 51
90.0
1001
ACDBBLOCKREPETAG
1070
     1
1071
       61
1005
12F145
  0
LINE
  5
12F146
  8
OBJECT
 10
4080.0
 20
-3176.9999999999959
 30
0.0
 11
4083.0
 21
-3176.9999999999959
 31
0.0
1001
ACDBBLOCKREPETAG
1070
     1
1071
       62
1005
12F146
  0
ARC
  5
12F147
  8
OBJECT
 10
4083.0
 20
-3173.9999999999959
 30
0.0
 40
3.0
 50
270.0
 51
0.0
1001
ACDBBLOCKREPETAG
1070
     1
1071
       63
1005
12F147
  0
LINE
  5
12F148
  8
OBJECT
 10
4086.0
 20
-3173.9999999999959
 30
0.0
 11
4086.0
 21
-3055.9999999999959
 31
0.0
1001
ACDBBLOCKREPETAG
1070
     1
1071
       64
1005
12F148
  0
LINE
  5
12F149
  8
HIDDEN
 10
4088.0
 20
-3070.4999999999959
 30
0.0
 11
4088.0
 21
-3159.4999999999959
 31
0.0
1001
ACDBBLOCKREPETAG
1070
     1
1071
       65
1005
12F149
  0
TEXT
  5
12F14A
  8
SLIM
 10
3894.25
 20
-3637.4999999999959
 30
0.0
 40
35.0
  1
通常枝75（3）
 41
0.75
  0
CIRCLE
  5
12F14B
  8
OBJECT
 10
3400.0
 20
-3467.9999999999968
 30
0.0
 40
35.5
1001
ACDBBLOCKREPETAG
1070
     1
1071
       10
1005
12F14B
  0
CIRCLE
  5
12F14C
  8
OBJECT
 10
3400.0
 20
-3460.9999999999968
 30
0.0
 40
62.0
1001
ACDBBLOCKREPETAG
1070
     1
1071
       11
1005
12F14C
  0
LINE
  5
12F14D
  8
CENTER
 10
3330.0
 20
-3467.9999999999968
 30
0.0
 11
3470.0
 21
-3467.9999999999968
 31
0.0
1001
ACDBBLOCKREPETAG
1070
     1
1071
       12
1005
12F14D
  0
CIRCLE
  5
12F14E
  8
OBJECT
 10
3400.0
 20
-3467.9999999999968
 30
0.0
 40
47.0
1001
ACDBBLOCKREPETAG
1070
     1
1071
       14
1005
12F14E
  0
ARC
  5
12F14F
  8
OBJECT
 10
3400.0
 20
-3467.9999999999968
 30
0.0
 40
55.0
 50
289.01126526011359
 51
250.98873473988641
1001
ACDBBLOCKREPETAG
1070
     1
1071
       15
1005
12F14F
  0
LINE
  5
12F150
  8
OBJECT
 10
3382.0835271328328
 20
-3519.9999999999968
 30
0.0
 11
3417.9164728671681
 21
-3519.9999999999968
 31
0.0
1001
ACDBBLOCKREPETAG
1070
     1
1071
       16
1005
12F150
  0
LINE
  5
12F151
  8
OBJECT
 10
3133.0
 20
-3412.9999999999968
 30
0.0
 11
3140.0
 21
-3412.9999999999968
 31
0.0
1001
ACDBBLOCKREPETAG
1070
     1
1071
       26
1005
12F151
  0
LINE
  5
12F152
  8
OBJECT
 10
3140.0
 20
-3412.9999999999968
 30
0.0
 11
3140.0
 21
-3519.9999999999968
 31
0.0
1001
ACDBBLOCKREPETAG
1070
     1
1071
       27
1005
12F152
  0
LINE
  5
12F153
  8
OBJECT
 10
3133.0
 20
-3519.9999999999968
 30
0.0
 11
3133.0
 21
-3412.9999999999968
 31
0.0
1001
ACDBBLOCKREPETAG
1070
     1
1071
       28
1005
12F153
  0
LINE
  5
12F154
  8
CENTER
 10
3155.0
 20
-3467.9999999999968
 30
0.0
 11
3071.0
 21
-3467.9999999999968
 31
0.0
1001
ACDBBLOCKREPETAG
1070
     1
1071
       29
1005
12F154
  0
LINE
  5
12F155
  8
OBJECT
 10
3133.0
 20
-3415.9999999999968
 30
0.0
 11
3097.0
 21
-3415.9999999999968
 31
0.0
1001
ACDBBLOCKREPETAG
1070
     1
1071
       30
1005
12F155
  0
LINE
  5
12F156
  8
OBJECT
 10
3097.0
 20
-3415.9999999999968
 30
0.0
 11
3097.0
 21
-3519.9999999999968
 31
0.0
1001
ACDBBLOCKREPETAG
1070
     1
1071
       31
1005
12F156
  0
LINE
  5
12F157
  8
OBJECT
 10
3097.0
 20
-3519.9999999999968
 30
0.0
 11
3140.0
 21
-3519.9999999999968
 31
0.0
1001
ACDBBLOCKREPETAG
1070
     1
1071
       32
1005
12F157
  0
LINE
  5
12F158
  8
OBJECT
 10
3093.0
 20
-3420.4999999999968
 30
0.0
 11
3086.0
 21
-3420.4999999999968
 31
0.0
1001
ACDBBLOCKREPETAG
1070
     1
1071
       33
1005
12F158
  0
LINE
  5
12F159
  8
OBJECT
 10
3086.0
 20
-3515.4999999999968
 30
0.0
 11
3093.0
 21
-3515.4999999999968
 31
0.0
1001
ACDBBLOCKREPETAG
1070
     1
1071
       34
1005
12F159
  0
LINE
  5
12F15A
  8
OBJECT
 10
3093.0
 20
-3515.4999999999968
 30
0.0
 11
3093.0
 21
-3420.4999999999968
 31
0.0
1001
ACDBBLOCKREPETAG
1070
     1
1071
       35
1005
12F15A
  0
LINE
  5
12F15B
  8
OBJECT
 10
3097.0
 20
-3415.9999999999968
 30
0.0
 11
3093.0
 21
-3420.4999999999968
 31
0.0
1001
ACDBBLOCKREPETAG
1070
     1
1071
       36
1005
12F15B
  0
LINE
  5
12F15C
  8
OBJECT
 10
3097.0
 20
-3519.9999999999968
 30
0.0
 11
3093.0
 21
-3515.4999999999968
 31
0.0
1001
ACDBBLOCKREPETAG
1070
     1
1071
       37
1005
12F15C
  0
LINE
  5
12F15D
  8
OBJECT
 10
3083.0
 20
-3398.9999999999968
 30
0.0
 11
3080.0
 21
-3398.9999999999968
 31
0.0
1001
ACDBBLOCKREPETAG
1070
     1
1071
       38
1005
12F15D
  0
ARC
  5
12F15E
  8
OBJECT
 10
3083.0
 20
-3401.9999999999968
 30
0.0
 40
3.0
 50
0.0
 51
90.0
1001
ACDBBLOCKREPETAG
1070
     1
1071
       39
1005
12F15E
  0
LINE
  5
12F15F
  8
OBJECT
 10
3080.0
 20
-3522.9999999999968
 30
0.0
 11
3083.0
 21
-3522.9999999999968
 31
0.0
1001
ACDBBLOCKREPETAG
1070
     1
1071
       40
1005
12F15F
  0
ARC
  5
12F160
  8
OBJECT
 10
3083.0
 20
-3519.9999999999968
 30
0.0
 40
3.0
 50
270.0
 51
0.0
1001
ACDBBLOCKREPETAG
1070
     1
1071
       41
1005
12F160
  0
LINE
  5
12F161
  8
OBJECT
 10
3086.0
 20
-3519.9999999999968
 30
0.0
 11
3086.0
 21
-3401.9999999999968
 31
0.0
1001
ACDBBLOCKREPETAG
1070
     1
1071
       42
1005
12F161
  0
LINE
  5
12F162
  8
HIDDEN
 10
3088.0
 20
-3429.9999999999968
 30
0.0
 11
3088.0
 21
-3505.9999999999968
 31
0.0
1001
ACDBBLOCKREPETAG
1070
     1
1071
       43
1005
12F162
  0
LINE
  5
12F163
  8
OBJECT
 10
3133.0
 20
-3059.9999999999959
 30
0.0
 11
3140.0
 21
-3059.9999999999959
 31
0.0
1001
ACDBBLOCKREPETAG
1070
     1
1071
       27
1005
12F163
  0
LINE
  5
12F164
  8
OBJECT
 10
3140.0
 20
-3059.9999999999959
 30
0.0
 11
3140.0
 21
-3169.9999999999959
 31
0.0
1001
ACDBBLOCKREPETAG
1070
     1
1071
       28
1005
12F164
  0
LINE
  5
12F165
  8
OBJECT
 10
3140.0
 20
-3169.9999999999959
 30
0.0
 11
3133.0
 21
-3169.9999999999959
 31
0.0
1001
ACDBBLOCKREPETAG
1070
     1
1071
       29
1005
12F165
  0
LINE
  5
12F166
  8
OBJECT
 10
3133.0
 20
-3169.9999999999959
 30
0.0
 11
3133.0
 21
-3059.9999999999959
 31
0.0
1001
ACDBBLOCKREPETAG
1070
     1
1071
       30
1005
12F166
  0
LINE
  5
12F167
  8
CENTER
 10
3155.0
 20
-3114.9999999999959
 30
0.0
 11
3080.0
 21
-3114.9999999999959
 31
0.0
1001
ACDBBLOCKREPETAG
1070
     1
1071
       31
1005
12F167
  0
LINE
  5
12F168
  8
OBJECT
 10
3133.0
 20
-3062.9999999999959
 30
0.0
 11
3097.0
 21
-3062.9999999999959
 31
0.0
1001
ACDBBLOCKREPETAG
1070
     1
1071
       32
1005
12F168
  0
LINE
  5
12F169
  8
OBJECT
 10
3097.0
 20
-3062.9999999999959
 30
0.0
 11
3097.0
 21
-3166.9999999999959
 31
0.0
1001
ACDBBLOCKREPETAG
1070
     1
1071
       33
1005
12F169
  0
LINE
  5
12F16A
  8
OBJECT
 10
3097.0
 20
-3166.9999999999959
 30
0.0
 11
3133.0
 21
-3166.9999999999959
 31
0.0
1001
ACDBBLOCKREPETAG
1070
     1
1071
       34
1005
12F16A
  0
LINE
  5
12F16B
  8
OBJECT
 10
3093.0
 20
-3067.4999999999959
 30
0.0
 11
3086.0
 21
-3067.4999999999959
 31
0.0
1001
ACDBBLOCKREPETAG
1070
     1
1071
       35
1005
12F16B
  0
LINE
  5
12F16C
  8
OBJECT
 10
3086.0
 20
-3162.4999999999959
 30
0.0
 11
3093.0
 21
-3162.4999999999959
 31
0.0
1001
ACDBBLOCKREPETAG
1070
     1
1071
       36
1005
12F16C
  0
LINE
  5
12F16D
  8
OBJECT
 10
3093.0
 20
-3162.4999999999959
 30
0.0
 11
3093.0
 21
-3067.4999999999959
 31
0.0
1001
ACDBBLOCKREPETAG
1070
     1
1071
       37
1005
12F16D
  0
LINE
  5
12F16E
  8
OBJECT
 10
3097.0
 20
-3062.9999999999959
 30
0.0
 11
3093.0
 21
-3067.4999999999959
 31
0.0
1001
ACDBBLOCKREPETAG
1070
     1
1071
       38
1005
12F16E
  0
LINE
  5
12F16F
  8
OBJECT
 10
3097.0
 20
-3166.9999999999959
 30
0.0
 11
3093.0
 21
-3162.4999999999959
 31
0.0
1001
ACDBBLOCKREPETAG
1070
     1
1071
       39
1005
12F16F
  0
LINE
  5
12F170
  8
OBJECT
 10
3083.0
 20
-3052.9999999999959
 30
0.0
 11
3080.0
 21
-3052.9999999999959
 31
0.0
1001
ACDBBLOCKREPETAG
1070
     1
1071
       40
1005
12F170
  0
ARC
  5
12F171
  8
OBJECT
 10
3083.0
 20
-3055.9999999999959
 30
0.0
 40
3.0
 50
0.0
 51
90.0
1001
ACDBBLOCKREPETAG
1070
     1
1071
       41
1005
12F171
  0
LINE
  5
12F172
  8
OBJECT
 10
3080.0
 20
-3176.9999999999959
 30
0.0
 11
3083.0
 21
-3176.9999999999959
 31
0.0
1001
ACDBBLOCKREPETAG
1070
     1
1071
       42
1005
12F172
  0
ARC
  5
12F173
  8
OBJECT
 10
3083.0
 20
-3173.9999999999959
 30
0.0
 40
3.0
 50
270.0
 51
0.0
1001
ACDBBLOCKREPETAG
1070
     1
1071
       43
1005
12F173
  0
LINE
  5
12F174
  8
OBJECT
 10
3086.0
 20
-3173.9999999999959
 30
0.0
 11
3086.0
 21
-3055.9999999999959
 31
0.0
1001
ACDBBLOCKREPETAG
1070
     1
1071
       44
1005
12F174
  0
LINE
  5
12F175
  8
HIDDEN
 10
3088.0
 20
-3076.9999999999959
 30
0.0
 11
3088.0
 21
-3152.9999999999959
 31
0.0
1001
ACDBBLOCKREPETAG
1070
     1
1071
       45
1005
12F175
  0
TEXT
  5
12F176
  8
SLIM
 10
2894.25
 20
-3637.4999999999959
 30
0.0
 40
35.0
  1
通常枝65（2）
 41
0.75
  0
CIRCLE
  5
12F177
  8
OBJECT
 10
2400.0
 20
-3460.9999999999968
 30
0.0
 40
62.0
1001
ACDBBLOCKREPETAG
1070
     1
1071
        3
1005
12F177
  0
LINE
  5
12F178
  8
CENTER
 10
2338.0
 20
-3475.9999999999968
 30
0.0
 11
2462.0
 21
-3475.9999999999968
 31
0.0
1001
ACDBBLOCKREPETAG
1070
     1
1071
        4
1005
12F178
  0
CIRCLE
  5
12F179
  8
OBJECT
 10
2400.0
 20
-3475.9999999999968
 30
0.0
 40
28.0
1001
ACDBBLOCKREPETAG
1070
     1
1071
        6
1005
12F179
  0
CIRCLE
  5
12F17A
  8
OBJECT
 10
2400.0
 20
-3475.9999999999968
 30
0.0
 40
39.0
1001
ACDBBLOCKREPETAG
1070
     1
1071
        7
1005
12F17A
  0
ARC
  5
12F17B
  8
OBJECT
 10
2400.0
 20
-3475.9999999999968
 30
0.0
 40
47.0
 50
290.58196921144412
 51
249.41803078855591
1001
ACDBBLOCKREPETAG
1070
     1
1071
        8
1005
12F17B
  0
LINE
  5
12F17C
  8
OBJECT
 10
2383.4772883581431
 20
-3519.9999999999968
 30
0.0
 11
2416.5227116418569
 21
-3519.9999999999968
 31
0.0
1001
ACDBBLOCKREPETAG
1070
     1
1071
        9
1005
12F17C
  0
LINE
  5
12F17D
  8
OBJECT
 10
2133.0
 20
-3428.9999999999968
 30
0.0
 11
2140.0
 21
-3428.9999999999968
 31
0.0
1001
ACDBBLOCKREPETAG
1070
     1
1071
        7
1005
12F17D
  0
LINE
  5
12F17E
  8
OBJECT
 10
2140.0
 20
-3428.9999999999968
 30
0.0
 11
2140.0
 21
-3519.9999999999968
 31
0.0
1001
ACDBBLOCKREPETAG
1070
     1
1071
        8
1005
12F17E
  0
LINE
  5
12F17F
  8
OBJECT
 10
2133.0
 20
-3519.9999999999968
 30
0.0
 11
2133.0
 21
-3428.9999999999968
 31
0.0
1001
ACDBBLOCKREPETAG
1070
     1
1071
        9
1005
12F17F
  0
LINE
  5
12F180
  8
CENTER
 10
2155.0
 20
-3475.9999999999968
 30
0.0
 11
2071.0
 21
-3475.9999999999968
 31
0.0
1001
ACDBBLOCKREPETAG
1070
     1
1071
       10
1005
12F180
  0
LINE
  5
12F181
  8
OBJECT
 10
2133.0
 20
-3431.9999999999968
 30
0.0
 11
2097.0
 21
-3431.9999999999968
 31
0.0
1001
ACDBBLOCKREPETAG
1070
     1
1071
       11
1005
12F181
  0
LINE
  5
12F182
  8
OBJECT
 10
2097.0
 20
-3431.9999999999968
 30
0.0
 11
2097.0
 21
-3519.9999999999968
 31
0.0
1001
ACDBBLOCKREPETAG
1070
     1
1071
       12
1005
12F182
  0
LINE
  5
12F183
  8
OBJECT
 10
2097.0
 20
-3519.9999999999968
 30
0.0
 11
2140.0
 21
-3519.9999999999968
 31
0.0
1001
ACDBBLOCKREPETAG
1070
     1
1071
       13
1005
12F183
  0
LINE
  5
12F184
  8
OBJECT
 10
2093.0
 20
-3436.4999999999968
 30
0.0
 11
2086.0
 21
-3436.4999999999968
 31
0.0
1001
ACDBBLOCKREPETAG
1070
     1
1071
       14
1005
12F184
  0
LINE
  5
12F185
  8
OBJECT
 10
2086.0
 20
-3515.4999999999968
 30
0.0
 11
2093.0
 21
-3515.4999999999968
 31
0.0
1001
ACDBBLOCKREPETAG
1070
     1
1071
       15
1005
12F185
  0
LINE
  5
12F186
  8
OBJECT
 10
2093.0
 20
-3515.4999999999968
 30
0.0
 11
2093.0
 21
-3436.4999999999968
 31
0.0
1001
ACDBBLOCKREPETAG
1070
     1
1071
       16
1005
12F186
  0
LINE
  5
12F187
  8
OBJECT
 10
2097.0
 20
-3431.9999999999968
 30
0.0
 11
2093.0
 21
-3436.4999999999968
 31
0.0
1001
ACDBBLOCKREPETAG
1070
     1
1071
       17
1005
12F187
  0
LINE
  5
12F188
  8
OBJECT
 10
2097.0
 20
-3519.9999999999968
 30
0.0
 11
2093.0
 21
-3515.4999999999968
 31
0.0
1001
ACDBBLOCKREPETAG
1070
     1
1071
       18
1005
12F188
  0
LINE
  5
12F189
  8
OBJECT
 10
2083.0
 20
-3398.9999999999968
 30
0.0
 11
2080.0
 21
-3398.9999999999968
 31
0.0
1001
ACDBBLOCKREPETAG
1070
     1
1071
       19
1005
12F189
  0
ARC
  5
12F18A
  8
OBJECT
 10
2083.0
 20
-3401.9999999999968
 30
0.0
 40
3.0
 50
0.0
 51
90.0
1001
ACDBBLOCKREPETAG
1070
     1
1071
       20
1005
12F18A
  0
LINE
  5
12F18B
  8
OBJECT
 10
2080.0
 20
-3522.9999999999968
 30
0.0
 11
2083.0
 21
-3522.9999999999968
 31
0.0
1001
ACDBBLOCKREPETAG
1070
     1
1071
       21
1005
12F18B
  0
ARC
  5
12F18C
  8
OBJECT
 10
2083.0
 20
-3519.9999999999968
 30
0.0
 40
3.0
 50
270.0
 51
0.0
1001
ACDBBLOCKREPETAG
1070
     1
1071
       22
1005
12F18C
  0
LINE
  5
12F18D
  8
OBJECT
 10
2086.0
 20
-3519.9999999999968
 30
0.0
 11
2086.0
 21
-3401.9999999999968
 31
0.0
1001
ACDBBLOCKREPETAG
1070
     1
1071
       23
1005
12F18D
  0
LINE
  5
12F18E
  8
HIDDEN
 10
2088.0
 20
-3445.9999999999968
 30
0.0
 11
2088.0
 21
-3505.9999999999968
 31
0.0
1001
ACDBBLOCKREPETAG
1070
     1
1071
       24
1005
12F18E
  0
LINE
  5
12F18F
  8
OBJECT
 10
2133.0
 20
-3067.9999999999959
 30
0.0
 11
2140.0
 21
-3067.9999999999959
 31
0.0
1001
ACDBBLOCKREPETAG
1070
     1
1071
        7
1005
12F18F
  0
LINE
  5
12F190
  8
OBJECT
 10
2140.0
 20
-3067.9999999999959
 30
0.0
 11
2140.0
 21
-3161.9999999999959
 31
0.0
1001
ACDBBLOCKREPETAG
1070
     1
1071
        8
1005
12F190
  0
LINE
  5
12F191
  8
OBJECT
 10
2140.0
 20
-3161.9999999999959
 30
0.0
 11
2133.0
 21
-3161.9999999999959
 31
0.0
1001
ACDBBLOCKREPETAG
1070
     1
1071
        9
1005
12F191
  0
LINE
  5
12F192
  8
OBJECT
 10
2133.0
 20
-3161.9999999999959
 30
0.0
 11
2133.0
 21
-3067.9999999999959
 31
0.0
1001
ACDBBLOCKREPETAG
1070
     1
1071
       10
1005
12F192
  0
LINE
  5
12F193
  8
CENTER
 10
2155.0
 20
-3114.9999999999959
 30
0.0
 11
2080.0
 21
-3114.9999999999959
 31
0.0
1001
ACDBBLOCKREPETAG
1070
     1
1071
       11
1005
12F193
  0
LINE
  5
12F194
  8
OBJECT
 10
2133.0
 20
-3070.9999999999959
 30
0.0
 11
2097.0
 21
-3070.9999999999959
 31
0.0
1001
ACDBBLOCKREPETAG
1070
     1
1071
       12
1005
12F194
  0
LINE
  5
12F195
  8
OBJECT
 10
2097.0
 20
-3070.9999999999959
 30
0.0
 11
2097.0
 21
-3158.9999999999959
 31
0.0
1001
ACDBBLOCKREPETAG
1070
     1
1071
       13
1005
12F195
  0
LINE
  5
12F196
  8
OBJECT
 10
2097.0
 20
-3158.9999999999959
 30
0.0
 11
2133.0
 21
-3158.9999999999959
 31
0.0
1001
ACDBBLOCKREPETAG
1070
     1
1071
       14
1005
12F196
  0
LINE
  5
12F197
  8
OBJECT
 10
2093.0
 20
-3075.4999999999959
 30
0.0
 11
2086.0
 21
-3075.4999999999959
 31
0.0
1001
ACDBBLOCKREPETAG
1070
     1
1071
       15
1005
12F197
  0
LINE
  5
12F198
  8
OBJECT
 10
2086.0
 20
-3154.4999999999959
 30
0.0
 11
2093.0
 21
-3154.4999999999959
 31
0.0
1001
ACDBBLOCKREPETAG
1070
     1
1071
       16
1005
12F198
  0
LINE
  5
12F199
  8
OBJECT
 10
2093.0
 20
-3154.4999999999959
 30
0.0
 11
2093.0
 21
-3075.4999999999959
 31
0.0
1001
ACDBBLOCKREPETAG
1070
     1
1071
       17
1005
12F199
  0
LINE
  5
12F19A
  8
OBJECT
 10
2097.0
 20
-3070.9999999999959
 30
0.0
 11
2093.0
 21
-3075.4999999999959
 31
0.0
1001
ACDBBLOCKREPETAG
1070
     1
1071
       18
1005
12F19A
  0
LINE
  5
12F19B
  8
OBJECT
 10
2097.0
 20
-3158.9999999999959
 30
0.0
 11
2093.0
 21
-3154.4999999999959
 31
0.0
1001
ACDBBLOCKREPETAG
1070
     1
1071
       19
1005
12F19B
  0
LINE
  5
12F19C
  8
OBJECT
 10
2083.0
 20
-3052.9999999999959
 30
0.0
 11
2080.0
 21
-3052.9999999999959
 31
0.0
1001
ACDBBLOCKREPETAG
1070
     1
1071
       20
1005
12F19C
  0
ARC
  5
12F19D
  8
OBJECT
 10
2083.0
 20
-3055.9999999999959
 30
0.0
 40
3.0
 50
0.0
 51
90.0
1001
ACDBBLOCKREPETAG
1070
     1
1071
       21
1005
12F19D
  0
LINE
  5
12F19E
  8
OBJECT
 10
2080.0
 20
-3176.9999999999959
 30
0.0
 11
2083.0
 21
-3176.9999999999959
 31
0.0
1001
ACDBBLOCKREPETAG
1070
     1
1071
       22
1005
12F19E
  0
ARC
  5
12F19F
  8
OBJECT
 10
2083.0
 20
-3173.9999999999959
 30
0.0
 40
3.0
 50
270.0
 51
0.0
1001
ACDBBLOCKREPETAG
1070
     1
1071
       23
1005
12F19F
  0
LINE
  5
12F1A0
  8
OBJECT
 10
2086.0
 20
-3173.9999999999959
 30
0.0
 11
2086.0
 21
-3055.9999999999959
 31
0.0
1001
ACDBBLOCKREPETAG
1070
     1
1071
       24
1005
12F1A0
  0
LINE
  5
12F1A1
  8
HIDDEN
 10
2088.0
 20
-3084.9999999999959
 30
0.0
 11
2088.0
 21
-3144.9999999999959
 31
0.0
1001
ACDBBLOCKREPETAG
1070
     1
1071
       25
1005
12F1A1
  0
TEXT
  5
12F1A2
  8
SLIM
 10
1896.75
 20
-3637.4999999999959
 30
0.0
 40
35.0
  1
通常枝50（1）
 41
0.75
  0
LINE
  5
12F1A3
  8
OBJECT
 10
6066.0
 20
-940.49999999999557
 30
0.0
 11
5934.0
 21
-940.49999999999557
 31
0.0
1001
ACDBBLOCKREPETAG
1070
     1
1071
      117
1005
12F1A3
  0
LINE
  5
12F1A4
  8
HIDDEN
 10
5943.0
 20
-949.99999999999955
 30
0.0
 11
6057.0
 21
-949.99999999999955
 31
0.0
1001
ACDBBLOCKREPETAG
1070
     1
1071
      118
1005
12F1A4
  0
LINE
  5
12F1A5
  8
CENTER
 10
6000.0
 20
-769.99999999999955
 30
0.0
 11
6000.0
 21
-1069.9999999999991
 31
0.0
1001
ACDBBLOCKREPETAG
1070
     1
1071
      119
1005
12F1A5
  0
LINE
  5
12F1A6
  8
OBJECT
 10
5925.0
 20
-769.99999999999955
 30
0.0
 11
5925.0
 21
-822.99999999999591
 31
0.0
1001
ACDBBLOCKREPETAG
1070
     1
1071
      120
1005
12F1A6
  0
LINE
  5
12F1A7
  8
OBJECT
 10
6075.0
 20
-769.99999999999955
 30
0.0
 11
6075.0
 21
-822.99999999999204
 31
0.0
1001
ACDBBLOCKREPETAG
1070
     1
1071
      121
1005
12F1A7
  0
LINE
  5
12F1A8
  8
OBJECT
 10
5925.0
 20
-822.99999999999591
 30
0.0
 11
6075.0
 21
-822.99999999999204
 31
0.0
1001
ACDBBLOCKREPETAG
1070
     1
1071
      122
1005
12F1A8
  0
LINE
  5
12F1A9
  8
OBJECT
 10
6057.0
 20
-940.49999999999216
 30
0.0
 11
5943.0
 21
-940.49999999999216
 31
0.0
1001
ACDBBLOCKREPETAG
1070
     1
1071
      123
1005
12F1A9
  0
LINE
  5
12F1AA
  8
OBJECT
 10
5925.0
 20
-822.99999999999591
 30
0.0
 11
5943.0
 21
-940.49999999999216
 31
0.0
1001
ACDBBLOCKREPETAG
1070
     1
1071
      124
1005
12F1AA
  0
LINE
  5
12F1AB
  8
OBJECT
 10
6057.0
 20
-940.49999999999216
 30
0.0
 11
6075.0
 21
-822.99999999999204
 31
0.0
1001
ACDBBLOCKREPETAG
1070
     1
1071
      125
1005
12F1AB
  0
LINE
  5
12F1AC
  8
OBJECT
 10
5934.0
 20
-940.49999999999557
 30
0.0
 11
5934.0
 21
-974.99999999999602
 31
0.0
1001
ACDBBLOCKREPETAG
1070
     1
1071
      126
1005
12F1AC
  0
LINE
  5
12F1AD
  8
OBJECT
 10
6066.0
 20
-940.49999999999557
 30
0.0
 11
6066.0
 21
-974.99999999999602
 31
0.0
1001
ACDBBLOCKREPETAG
1070
     1
1071
      127
1005
12F1AD
  0
LINE
  5
12F1AE
  8
OBJECT
 10
6085.9999999999927
 20
-1013.999999999999
 30
0.0
 11
6085.9999999999927
 21
-1023.999999999999
 31
0.0
1001
ACDBBLOCKREPETAG
1070
     1
1071
      128
1005
12F1AE
  0
LINE
  5
12F1AF
  8
OBJECT
 10
6069.9999999999927
 20
-1013.999999999999
 30
0.0
 11
6069.9999999999927
 21
-1023.999999999999
 31
0.0
1001
ACDBBLOCKREPETAG
1070
     1
1071
      129
1005
12F1AF
  0
LINE
  5
12F1B0
  8
OBJECT
 10
6085.9999999999927
 20
-1023.999999999999
 30
0.0
 11
6069.9999999999927
 21
-1023.999999999999
 31
0.0
1001
ACDBBLOCKREPETAG
1070
     1
1071
      130
1005
12F1B0
  0
LINE
  5
12F1B1
  8
OBJECT
 10
6090.0
 20
-974.99999999999602
 30
0.0
 11
5924.0
 21
-974.99999999999602
 31
0.0
1001
ACDBBLOCKREPETAG
1070
     1
1071
      131
1005
12F1B1
  0
LINE
  5
12F1B2
  8
OBJECT
 10
6090.0
 20
-989.99999999999955
 30
0.0
 11
6090.0
 21
-974.99999999999602
 31
0.0
1001
ACDBBLOCKREPETAG
1070
     1
1071
      132
1005
12F1B2
  0
LINE
  5
12F1B3
  8
OBJECT
 10
5924.0
 20
-989.99999999999955
 30
0.0
 11
6090.0
 21
-989.99999999999955
 31
0.0
1001
ACDBBLOCKREPETAG
1070
     1
1071
      133
1005
12F1B3
  0
LINE
  5
12F1B4
  8
OBJECT
 10
6067.4999999999864
 20
-989.99999999999955
 30
0.0
 11
6067.4999999999864
 21
-999.99999999999955
 31
0.0
1001
ACDBBLOCKREPETAG
1070
     1
1071
      134
1005
12F1B4
  0
LINE
  5
12F1B5
  8
OBJECT
 10
6072.9999999999927
 20
-999.99999999999955
 30
0.0
 11
6072.9999999999927
 21
-989.99999999999955
 31
0.0
1001
ACDBBLOCKREPETAG
1070
     1
1071
      135
1005
12F1B5
  0
LINE
  5
12F1B6
  8
OBJECT
 10
6082.9999999999927
 20
-999.99999999999955
 30
0.0
 11
6082.9999999999927
 21
-989.99999999999955
 31
0.0
1001
ACDBBLOCKREPETAG
1070
     1
1071
      136
1005
12F1B6
  0
LINE
  5
12F1B7
  8
OBJECT
 10
5924.0
 20
-999.99999999999955
 30
0.0
 11
5924.0
 21
-1013.999999999996
 31
0.0
1001
ACDBBLOCKREPETAG
1070
     1
1071
      137
1005
12F1B7
  0
LINE
  5
12F1B8
  8
OBJECT
 10
6090.0
 20
-999.99999999999955
 30
0.0
 11
6090.0
 21
-1013.999999999996
 31
0.0
1001
ACDBBLOCKREPETAG
1070
     1
1071
      138
1005
12F1B8
  0
LINE
  5
12F1B9
  8
OBJECT
 10
5924.0
 20
-1013.999999999996
 30
0.0
 11
6090.0
 21
-1013.999999999996
 31
0.0
1001
ACDBBLOCKREPETAG
1070
     1
1071
      139
1005
12F1B9
  0
LINE
  5
12F1BA
  8
OBJECT
 10
5924.0
 20
-999.99999999999955
 30
0.0
 11
6090.0
 21
-999.99999999999955
 31
0.0
1001
ACDBBLOCKREPETAG
1070
     1
1071
      140
1005
12F1BA
  0
LINE
  5
12F1BB
  8
OBJECT
 10
5932.4999999999864
 20
-989.99999999999955
 30
0.0
 11
5932.4999999999864
 21
-999.99999999999955
 31
0.0
1001
ACDBBLOCKREPETAG
1070
     1
1071
      141
1005
12F1BB
  0
LINE
  5
12F1BC
  8
OBJECT
 10
5924.0
 20
-989.99999999999955
 30
0.0
 11
5924.0
 21
-974.99999999999602
 31
0.0
1001
ACDBBLOCKREPETAG
1070
     1
1071
      142
1005
12F1BC
  0
LINE
  5
12F1BD
  8
OBJECT
 10
6086.9999999999918
 20
-973.20000000000005
 30
0.0
 11
6086.9999999999918
 21
-974.99999999999955
 31
0.0
1001
ACDBBLOCKREPETAG
1070
     1
1071
      143
1005
12F1BD
  0
LINE
  5
12F1BE
  8
OBJECT
 10
6068.9999999999909
 20
-973.20000000000005
 30
0.0
 11
6068.9999999999909
 21
-974.99999999999955
 31
0.0
1001
ACDBBLOCKREPETAG
1070
     1
1071
      144
1005
12F1BE
  0
LINE
  5
12F1BF
  8
OBJECT
 10
6072.2499999999927
 20
-963.49999999999955
 30
0.0
 11
6083.7499999999927
 21
-963.49999999999955
 31
0.0
1001
ACDBBLOCKREPETAG
1070
     1
1071
      145
1005
12F1BF
  0
LINE
  5
12F1C0
  8
OBJECT
 10
6072.2499999999927
 20
-963.49999999999955
 30
0.0
 11
6072.2499999999927
 21
-973.20000000000005
 31
0.0
1001
ACDBBLOCKREPETAG
1070
     1
1071
      146
1005
12F1C0
  0
LINE
  5
12F1C1
  8
OBJECT
 10
6083.7499999999927
 20
-963.49999999999955
 30
0.0
 11
6083.7499999999927
 21
-973.20000000000005
 31
0.0
1001
ACDBBLOCKREPETAG
1070
     1
1071
      147
1005
12F1C1
  0
LINE
  5
12F1C2
  8
OBJECT
 10
5931.9999999999873
 20
-1054.9999999999991
 30
0.0
 11
6067.9999999999873
 21
-1054.9999999999991
 31
0.0
1001
ACDBBLOCKREPETAG
1070
     1
1071
      148
1005
12F1C2
  0
LINE
  5
12F1C3
  8
OBJECT
 10
5931.9999999999873
 20
-1054.9999999999991
 30
0.0
 11
5931.9999999999873
 21
-1013.999999999999
 31
0.0
1001
ACDBBLOCKREPETAG
1070
     1
1071
      149
1005
12F1C3
  0
LINE
  5
12F1C4
  8
OBJECT
 10
6067.9999999999873
 20
-1054.9999999999991
 30
0.0
 11
6067.9999999999873
 21
-1013.999999999999
 31
0.0
1001
ACDBBLOCKREPETAG
1070
     1
1071
      150
1005
12F1C4
  0
LINE
  5
12F1C5
  8
OBJECT
 10
6086.9999999999918
 20
-973.20000000000005
 30
0.0
 11
6068.9999999999909
 21
-973.20000000000005
 31
0.0
1001
ACDBBLOCKREPETAG
1070
     1
1071
      151
1005
12F1C5
  0
LINE
  5
12F1C6
  8
OBJECT
 10
5954.75
 20
-964.699999999993
 30
0.0
 11
5967.2499999999991
 21
-964.699999999993
 31
0.0
1001
ACDBBLOCKREPETAG
1070
     1
1071
      152
1005
12F1C6
  0
LINE
  5
12F1C7
  8
OBJECT
 10
5946.0
 20
-974.99999999999602
 30
0.0
 11
5946.0
 21
-972.69999999999663
 31
0.0
1001
ACDBBLOCKREPETAG
1070
     1
1071
      153
1005
12F1C7
  0
LINE
  5
12F1C8
  8
OBJECT
 10
5976.0
 20
-974.99999999999602
 30
0.0
 11
5976.0
 21
-972.69999999999663
 31
0.0
1001
ACDBBLOCKREPETAG
1070
     1
1071
      154
1005
12F1C8
  0
LINE
  5
12F1C9
  8
OBJECT
 10
5954.75
 20
-964.699999999993
 30
0.0
 11
5954.75
 21
-972.69999999999663
 31
0.0
1001
ACDBBLOCKREPETAG
1070
     1
1071
      155
1005
12F1C9
  0
LINE
  5
12F1CA
  8
OBJECT
 10
5967.2499999999991
 20
-964.699999999993
 30
0.0
 11
5967.2499999999991
 21
-972.69999999999663
 31
0.0
1001
ACDBBLOCKREPETAG
1070
     1
1071
      156
1005
12F1CA
  0
LINE
  5
12F1CB
  8
OBJECT
 10
5946.0
 20
-972.69999999999663
 30
0.0
 11
5976.0
 21
-972.69999999999663
 31
0.0
1001
ACDBBLOCKREPETAG
1070
     1
1071
      157
1005
12F1CB
  0
LINE
  5
12F1CC
  8
OBJECT
 10
5953.0
 20
-1013.999999999996
 30
0.0
 11
5953.0
 21
-1023.999999999996
 31
0.0
1001
ACDBBLOCKREPETAG
1070
     1
1071
      158
1005
12F1CC
  0
LINE
  5
12F1CD
  8
OBJECT
 10
5969.0
 20
-1013.999999999996
 30
0.0
 11
5969.0
 21
-1023.999999999996
 31
0.0
1001
ACDBBLOCKREPETAG
1070
     1
1071
      159
1005
12F1CD
  0
LINE
  5
12F1CE
  8
OBJECT
 10
5953.0
 20
-1023.999999999996
 30
0.0
 11
5969.0
 21
-1023.999999999996
 31
0.0
1001
ACDBBLOCKREPETAG
1070
     1
1071
      160
1005
12F1CE
  0
LINE
  5
12F1CF
  8
OBJECT
 10
5966.0
 20
-999.99999999999602
 30
0.0
 11
5966.0
 21
-989.99999999999613
 31
0.0
1001
ACDBBLOCKREPETAG
1070
     1
1071
      161
1005
12F1CF
  0
LINE
  5
12F1D0
  8
OBJECT
 10
5956.0
 20
-999.99999999999602
 30
0.0
 11
5956.0
 21
-989.99999999999613
 31
0.0
1001
ACDBBLOCKREPETAG
1070
     1
1071
      162
1005
12F1D0
  0
LINE
  5
12F1D1
  8
OBJECT
 10
4090.0
 20
-974.99999999999602
 30
0.0
 11
3924.0
 21
-974.99999999999602
 31
0.0
1001
ACDBBLOCKREPETAG
1070
     1
1071
       12
1005
12F1D1
  0
LINE
  5
12F1D2
  8
OBJECT
 10
4066.0
 20
-940.49999999999557
 30
0.0
 11
3934.0
 21
-940.49999999999557
 31
0.0
1001
ACDBBLOCKREPETAG
1070
     1
1071
       13
1005
12F1D2
  0
LINE
  5
12F1D3
  8
OBJECT
 10
4090.0
 20
-989.99999999999955
 30
0.0
 11
4090.0
 21
-974.99999999999602
 31
0.0
1001
ACDBBLOCKREPETAG
1070
     1
1071
       14
1005
12F1D3
  0
LINE
  5
12F1D4
  8
OBJECT
 10
3924.0
 20
-989.99999999999955
 30
0.0
 11
4090.0
 21
-989.99999999999955
 31
0.0
1001
ACDBBLOCKREPETAG
1070
     1
1071
       15
1005
12F1D4
  0
LINE
  5
12F1D5
  8
OBJECT
 10
4067.4999999999841
 20
-989.99999999999955
 30
0.0
 11
4067.4999999999841
 21
-999.99999999999955
 31
0.0
1001
ACDBBLOCKREPETAG
1070
     1
1071
       16
1005
12F1D5
  0
LINE
  5
12F1D6
  8
OBJECT
 10
3924.0
 20
-999.99999999999955
 30
0.0
 11
3924.0
 21
-1013.999999999996
 31
0.0
1001
ACDBBLOCKREPETAG
1070
     1
1071
       17
1005
12F1D6
  0
LINE
  5
12F1D7
  8
OBJECT
 10
4090.0
 20
-999.99999999999955
 30
0.0
 11
4090.0
 21
-1013.999999999996
 31
0.0
1001
ACDBBLOCKREPETAG
1070
     1
1071
       18
1005
12F1D7
  0
LINE
  5
12F1D8
  8
OBJECT
 10
3924.0
 20
-1013.999999999996
 30
0.0
 11
4090.0
 21
-1013.999999999996
 31
0.0
1001
ACDBBLOCKREPETAG
1070
     1
1071
       19
1005
12F1D8
  0
LINE
  5
12F1D9
  8
OBJECT
 10
3924.0
 20
-999.99999999999955
 30
0.0
 11
4090.0
 21
-999.99999999999955
 31
0.0
1001
ACDBBLOCKREPETAG
1070
     1
1071
       20
1005
12F1D9
  0
LINE
  5
12F1DA
  8
OBJECT
 10
3932.499999999985
 20
-989.99999999999955
 30
0.0
 11
3932.499999999985
 21
-999.99999999999955
 31
0.0
1001
ACDBBLOCKREPETAG
1070
     1
1071
       21
1005
12F1DA
  0
LINE
  5
12F1DB
  8
OBJECT
 10
3924.0
 20
-989.99999999999955
 30
0.0
 11
3924.0
 21
-974.99999999999602
 31
0.0
1001
ACDBBLOCKREPETAG
1070
     1
1071
       22
1005
12F1DB
  0
LINE
  5
12F1DC
  8
HIDDEN
 10
3943.0
 20
-949.99999999999955
 30
0.0
 11
4057.0
 21
-949.99999999999955
 31
0.0
1001
ACDBBLOCKREPETAG
1070
     1
1071
       23
1005
12F1DC
  0
LINE
  5
12F1DD
  8
CENTER
 10
4000.0
 20
-769.99999999999955
 30
0.0
 11
4000.0
 21
-1028.9999999999959
 31
0.0
1001
ACDBBLOCKREPETAG
1070
     1
1071
       24
1005
12F1DD
  0
LINE
  5
12F1DE
  8
OBJECT
 10
3925.0
 20
-769.99999999999955
 30
0.0
 11
3925.0
 21
-822.99999999999591
 31
0.0
1001
ACDBBLOCKREPETAG
1070
     1
1071
       25
1005
12F1DE
  0
LINE
  5
12F1DF
  8
OBJECT
 10
4075.0
 20
-769.99999999999955
 30
0.0
 11
4075.0
 21
-822.99999999999204
 31
0.0
1001
ACDBBLOCKREPETAG
1070
     1
1071
       26
1005
12F1DF
  0
LINE
  5
12F1E0
  8
OBJECT
 10
3925.0
 20
-822.99999999999591
 30
0.0
 11
4075.0
 21
-822.99999999999204
 31
0.0
1001
ACDBBLOCKREPETAG
1070
     1
1071
       27
1005
12F1E0
  0
LINE
  5
12F1E1
  8
OBJECT
 10
4057.0
 20
-940.49999999999216
 30
0.0
 11
3943.0
 21
-940.49999999999216
 31
0.0
1001
ACDBBLOCKREPETAG
1070
     1
1071
       28
1005
12F1E1
  0
LINE
  5
12F1E2
  8
OBJECT
 10
3925.0
 20
-822.99999999999591
 30
0.0
 11
3943.0
 21
-940.49999999999216
 31
0.0
1001
ACDBBLOCKREPETAG
1070
     1
1071
       29
1005
12F1E2
  0
LINE
  5
12F1E3
  8
OBJECT
 10
4057.0
 20
-940.49999999999216
 30
0.0
 11
4075.0
 21
-822.99999999999204
 31
0.0
1001
ACDBBLOCKREPETAG
1070
     1
1071
       30
1005
12F1E3
  0
LINE
  5
12F1E4
  8
OBJECT
 10
3934.0
 20
-940.49999999999557
 30
0.0
 11
3934.0
 21
-974.99999999999602
 31
0.0
1001
ACDBBLOCKREPETAG
1070
     1
1071
       31
1005
12F1E4
  0
LINE
  5
12F1E5
  8
OBJECT
 10
4066.0
 20
-940.49999999999557
 30
0.0
 11
4066.0
 21
-974.99999999999602
 31
0.0
1001
ACDBBLOCKREPETAG
1070
     1
1071
       32
1005
12F1E5
  0
LINE
  5
12F1E6
  8
OBJECT
 10
4082.9999999999932
 20
-999.99999999999602
 30
0.0
 11
4082.9999999999932
 21
-989.99999999999613
 31
0.0
1001
ACDBBLOCKREPETAG
1070
     1
1071
       33
1005
12F1E6
  0
LINE
  5
12F1E7
  8
OBJECT
 10
4072.9999999999918
 20
-999.99999999999602
 30
0.0
 11
4072.9999999999918
 21
-989.99999999999613
 31
0.0
1001
ACDBBLOCKREPETAG
1070
     1
1071
       34
1005
12F1E7
  0
LINE
  5
12F1E8
  8
OBJECT
 10
4068.9999999999841
 20
-969.99999999999557
 30
0.0
 11
4068.9999999999841
 21
-974.99999999999602
 31
0.0
1001
ACDBBLOCKREPETAG
1070
     1
1071
       35
1005
12F1E8
  0
LINE
  5
12F1E9
  8
OBJECT
 10
4087.0
 20
-969.99999999999557
 30
0.0
 11
4087.0
 21
-974.99999999999602
 31
0.0
1001
ACDBBLOCKREPETAG
1070
     1
1071
       36
1005
12F1E9
  0
LINE
  5
12F1EA
  8
OBJECT
 10
4087.0
 20
-969.99999999999557
 30
0.0
 11
4068.9999999999841
 21
-969.99999999999557
 31
0.0
1001
ACDBBLOCKREPETAG
1070
     1
1071
       37
1005
12F1EA
  0
LINE
  5
12F1EB
  8
OBJECT
 10
4073.0
 20
-1021.999999999996
 30
0.0
 11
4073.0
 21
-1024.9999999999959
 31
0.0
1001
ACDBBLOCKREPETAG
1070
     1
1071
       38
1005
12F1EB
  0
LINE
  5
12F1EC
  8
OBJECT
 10
4073.0
 20
-1024.9999999999959
 30
0.0
 11
4083.0
 21
-1024.9999999999959
 31
0.0
1001
ACDBBLOCKREPETAG
1070
     1
1071
       39
1005
12F1EC
  0
LINE
  5
12F1ED
  8
OBJECT
 10
4068.185045423772
 20
-1021.999999999996
 30
0.0
 11
4087.8149545762199
 21
-1021.999999999996
 31
0.0
1001
ACDBBLOCKREPETAG
1070
     1
1071
       40
1005
12F1ED
  0
LINE
  5
12F1EE
  8
OBJECT
 10
4083.0
 20
-1024.9999999999959
 30
0.0
 11
4083.0
 21
-1021.999999999996
 31
0.0
1001
ACDBBLOCKREPETAG
1070
     1
1071
       41
1005
12F1EE
  0
LINE
  5
12F1EF
  8
OBJECT
 10
4068.1850359912942
 20
-1013.999986840255
 30
0.0
 11
4068.1850359912942
 21
-1021.999986840255
 31
0.0
1001
ACDBBLOCKREPETAG
1070
     1
1071
       42
1005
12F1EF
  0
LINE
  5
12F1F0
  8
OBJECT
 10
4073.0925013591982
 20
-1013.999986840255
 30
0.0
 11
4073.0925013591982
 21
-1021.999986840255
 31
0.0
1001
ACDBBLOCKREPETAG
1070
     1
1071
       43
1005
12F1F0
  0
LINE
  5
12F1F1
  8
OBJECT
 10
4082.907432095024
 20
-1013.999986840255
 30
0.0
 11
4082.907432095024
 21
-1021.999986840255
 31
0.0
1001
ACDBBLOCKREPETAG
1070
     1
1071
       44
1005
12F1F1
  0
LINE
  5
12F1F2
  8
OBJECT
 10
4087.814991552797
 20
-1013.999986840255
 30
0.0
 11
4087.814991552797
 21
-1021.999986840255
 31
0.0
1001
ACDBBLOCKREPETAG
1070
     1
1071
       45
1005
12F1F2
  0
LINE
  5
12F1F3
  8
OBJECT
 10
3968.5
 20
-969.99999999999557
 30
0.0
 11
3951.9999999999932
 21
-969.99999999999557
 31
0.0
1001
ACDBBLOCKREPETAG
1070
     1
1071
       46
1005
12F1F3
  0
LINE
  5
12F1F4
  8
OBJECT
 10
3976.0
 20
-974.99999999999602
 30
0.0
 11
3976.0
 21
-972.99999999999591
 31
0.0
1001
ACDBBLOCKREPETAG
1070
     1
1071
       47
1005
12F1F4
  0
LINE
  5
12F1F5
  8
OBJECT
 10
3966.0
 20
-999.99999999999602
 30
0.0
 11
3966.0
 21
-989.99999999999613
 31
0.0
1001
ACDBBLOCKREPETAG
1070
     1
1071
       48
1005
12F1F5
  0
LINE
  5
12F1F6
  8
OBJECT
 10
3956.0
 20
-999.99999999999602
 30
0.0
 11
3956.0
 21
-989.99999999999613
 31
0.0
1001
ACDBBLOCKREPETAG
1070
     1
1071
       49
1005
12F1F6
  0
LINE
  5
12F1F7
  8
OBJECT
 10
3951.9999999999932
 20
-969.99999999999557
 30
0.0
 11
3951.9999999999932
 21
-974.99999999999602
 31
0.0
1001
ACDBBLOCKREPETAG
1070
     1
1071
       50
1005
12F1F7
  0
LINE
  5
12F1F8
  8
OBJECT
 10
3956.0
 20
-1021.999999999996
 30
0.0
 11
3956.0
 21
-1024.9999999999959
 31
0.0
1001
ACDBBLOCKREPETAG
1070
     1
1071
       51
1005
12F1F8
  0
LINE
  5
12F1F9
  8
OBJECT
 10
3956.0
 20
-1024.9999999999959
 30
0.0
 11
3966.0
 21
-1024.9999999999959
 31
0.0
1001
ACDBBLOCKREPETAG
1070
     1
1071
       52
1005
12F1F9
  0
LINE
  5
12F1FA
  8
OBJECT
 10
3951.185045423772
 20
-1021.999999999996
 30
0.0
 11
3970.8149545762212
 21
-1021.999999999996
 31
0.0
1001
ACDBBLOCKREPETAG
1070
     1
1071
       53
1005
12F1FA
  0
LINE
  5
12F1FB
  8
OBJECT
 10
3966.0
 20
-1024.9999999999959
 30
0.0
 11
3966.0
 21
-1021.999999999996
 31
0.0
1001
ACDBBLOCKREPETAG
1070
     1
1071
       54
1005
12F1FB
  0
LINE
  5
12F1FC
  8
OBJECT
 10
3976.0
 20
-972.99999999999591
 30
0.0
 11
3968.5
 21
-969.99999999999557
 31
0.0
1001
ACDBBLOCKREPETAG
1070
     1
1071
       55
1005
12F1FC
  0
LINE
  5
12F1FD
  8
OBJECT
 10
3951.1850359912951
 20
-1013.999986840255
 30
0.0
 11
3951.1850359912951
 21
-1021.999986840255
 31
0.0
1001
ACDBBLOCKREPETAG
1070
     1
1071
       56
1005
12F1FD
  0
LINE
  5
12F1FE
  8
OBJECT
 10
3956.0925013591991
 20
-1013.999986840255
 30
0.0
 11
3956.0925013591991
 21
-1021.999986840255
 31
0.0
1001
ACDBBLOCKREPETAG
1070
     1
1071
       57
1005
12F1FE
  0
LINE
  5
12F1FF
  8
OBJECT
 10
3965.907432095024
 20
-1013.999986840255
 30
0.0
 11
3965.907432095024
 21
-1021.999986840255
 31
0.0
1001
ACDBBLOCKREPETAG
1070
     1
1071
       58
1005
12F1FF
  0
LINE
  5
12F200
  8
OBJECT
 10
3970.8149915527979
 20
-1013.999986840255
 30
0.0
 11
3970.8149915527979
 21
-1021.999986840255
 31
0.0
1001
ACDBBLOCKREPETAG
1070
     1
1071
       59
1005
12F200
  0
LINE
  5
12F201
  8
OBJECT
 10
1943.0
 20
-1019.999999999996
 30
0.0
 11
2057.0
 21
-1019.999999999996
 31
0.0
1001
ACDBBLOCKREPETAG
1070
     1
1071
        0
1005
12F201
  0
LINE
  5
12F202
  8
OBJECT
 10
1943.0
 20
-1019.999999999996
 30
0.0
 11
1943.0
 21
-939.99999999999613
 31
0.0
1001
ACDBBLOCKREPETAG
1070
     1
1071
        1
1005
12F202
  0
LINE
  5
12F203
  8
OBJECT
 10
2057.0
 20
-1019.999999999996
 30
0.0
 11
2057.0
 21
-939.99999999999613
 31
0.0
1001
ACDBBLOCKREPETAG
1070
     1
1071
        2
1005
12F203
  0
LINE
  5
12F204
  8
OBJECT
 10
1943.0
 20
-939.99999999999613
 30
0.0
 11
2057.0
 21
-939.99999999999613
 31
0.0
1001
ACDBBLOCKREPETAG
1070
     1
1071
        3
1005
12F204
  0
LINE
  5
12F205
  8
HIDDEN
 10
1950.0
 20
-939.99999999999613
 30
0.0
 11
1950.0
 21
-1019.999999999996
 31
0.0
1001
ACDBBLOCKREPETAG
1070
     1
1071
        4
1005
12F205
  0
LINE
  5
12F206
  8
HIDDEN
 10
2050.0
 20
-939.99999999999613
 30
0.0
 11
2050.0
 21
-1019.999999999996
 31
0.0
1001
ACDBBLOCKREPETAG
1070
     1
1071
        5
1005
12F206
  0
LINE
  5
12F207
  8
CENTER
 10
2000.0
 20
-769.99999999999955
 30
0.0
 11
2000.0
 21
-1034.9999999999959
 31
0.0
1001
ACDBBLOCKREPETAG
1070
     1
1071
        6
1005
12F207
  0
LINE
  5
12F208
  8
OBJECT
 10
1925.0
 20
-769.99999999999955
 30
0.0
 11
1925.0
 21
-822.99999999999591
 31
0.0
1001
ACDBBLOCKREPETAG
1070
     1
1071
        7
1005
12F208
  0
LINE
  5
12F209
  8
OBJECT
 10
2075.0
 20
-769.99999999999955
 30
0.0
 11
2075.0
 21
-822.99999999999591
 31
0.0
1001
ACDBBLOCKREPETAG
1070
     1
1071
        8
1005
12F209
  0
LINE
  5
12F20A
  8
OBJECT
 10
1925.0
 20
-822.99999999999591
 30
0.0
 11
2075.0
 21
-822.99999999999591
 31
0.0
1001
ACDBBLOCKREPETAG
1070
     1
1071
        9
1005
12F20A
  0
LINE
  5
12F20B
  8
OBJECT
 10
1925.0
 20
-822.99999999999591
 30
0.0
 11
1943.0
 21
-939.99999999999613
 31
0.0
1001
ACDBBLOCKREPETAG
1070
     1
1071
       10
1005
12F20B
  0
LINE
  5
12F20C
  8
OBJECT
 10
2057.0
 20
-939.99999999999613
 30
0.0
 11
2075.0
 21
-822.99999999999591
 31
0.0
1001
ACDBBLOCKREPETAG
1070
     1
1071
       11
1005
12F20C
  0
TEXT
  5
12F20D
  8
SLIM
 10
5797.6000000000004
 20
-1628.9999999999991
 30
0.0
 40
28.0
  1
※ 対応スラブ厚　150～180mm
 41
0.75
  0
TEXT
  5
12F20E
  8
SLIM
 10
5611.5
 20
-1722.3333333333319
 30
0.0
 40
28.0
  1
国土交通大臣認定・（財）日本消防設備安全センター性能評定取得品
 41
0.75
  0
TEXT
  5
12F20F
  8
SLIM
 10
5631.1000000000004
 20
-1768.9999999999991
 30
0.0
 40
28.0
  1
注）ご採用にあたり、認定書及び評定書の内容をご確認ください。
 41
0.75
  0
TEXT
  5
12F210
  8
SLIM
 10
3811.8000000000002
 20
-1607.9999999999959
 30
0.0
 40
28.0
  1
※ 対応スラブ厚　180mm以下
 41
0.75
  0
TEXT
  5
12F211
  8
SLIM
 10
1811.8
 20
-1363.999999999998
 30
0.0
 40
28.0
  1
※ 対応スラブ厚　180mm以下
 41
0.75
  0
LINE
  5
12F212
  8
CENTER
 10
5909.0
 20
-1304.9999999999991
 30
0.0
 11
6105.0
 21
-1304.9999999999991
 31
0.0
1001
ACDBBLOCKREPETAG
1070
     1
1071
       10
1005
12F212
  0
LINE
  5
12F213
  8
CENTER
 10
6000.0
 20
-1213.725335570783
 30
0.0
 11
6000.0
 21
-1396.274664429214
 31
0.0
1001
ACDBBLOCKREPETAG
1070
     1
1071
       11
1005
12F213
  0
CIRCLE
  5
12F214
  8
OBJECT
 10
6000.0
 20
-1304.9999999999991
 30
0.0
 40
50.0
1001
ACDBBLOCKREPETAG
1070
     1
1071
       12
1005
12F214
  0
CIRCLE
  5
12F215
  8
OBJECT
 10
6000.0
 20
-1304.9999999999991
 30
0.0
 40
60.0
1001
ACDBBLOCKREPETAG
1070
     1
1071
       13
1005
12F215
  0
CIRCLE
  5
12F216
  8
OBJECT
 10
6000.0
 20
-1304.9999999999991
 30
0.0
 40
68.0
1001
ACDBBLOCKREPETAG
1070
     1
1071
       14
1005
12F216
  0
ARC
  5
12F217
  8
OBJECT
 10
6077.5
 20
-1304.9999999999991
 30
0.0
 40
12.0
 50
272.10542627221611
 51
87.894573727783893
1001
ACDBBLOCKREPETAG
1070
     1
1071
       15
1005
12F217
  0
ARC
  5
12F218
  8
OBJECT
 10
6078.4919354838639
 20
-1278.0182271895269
 30
0.0
 40
15.0
 50
198.9705187796356
 51
267.89457372778372
1001
ACDBBLOCKREPETAG
1070
     1
1071
       16
1005
12F218
  0
ARC
  5
12F219
  8
OBJECT
 10
6078.4919354838639
 20
-1331.981772810467
 30
0.0
 40
15.0
 50
92.105426272216135
 51
161.02948122036429
1001
ACDBBLOCKREPETAG
1070
     1
1071
       17
1005
12F219
  0
CIRCLE
  5
12F21A
  8
SLIM
 10
6078.0
 20
-1304.9999999999991
 30
0.0
 40
8.0
1001
ACDBBLOCKREPETAG
1070
     1
1071
       18
1005
12F21A
  0
POLYLINE
  5
12F21B
  8
SLIM
 66
     1
 10
0.0
 20
0.0
 30
0.0
 70
     1
1001
ACDBBLOCKREPETAG
1070
     1
1071
       19
1005
12F21B
  0
VERTEX
  5
12FD30
  8
SLIM
 10
6075.6905989232328
 20
-1300.9999999999991
 30
0.0
  0
VERTEX
  5
12FD31
  8
SLIM
 10
6073.3811978464801
 20
-1304.9999999999991
 30
0.0
  0
VERTEX
  5
12FD32
  8
SLIM
 10
6075.6905989232328
 20
-1308.9999999999991
 30
0.0
  0
VERTEX
  5
12FD33
  8
SLIM
 10
6080.3094010767527
 20
-1308.9999999999991
 30
0.0
  0
VERTEX
  5
12FD34
  8
SLIM
 10
6082.6188021535136
 20
-1304.9999999999991
 30
0.0
  0
VERTEX
  5
12FD35
  8
SLIM
 10
6080.3094010767527
 20
-1300.9999999999991
 30
0.0
  0
SEQEND
  5
12FD36
  8
SLIM
  0
ARC
  5
12F21C
  8
OBJECT
 10
5961.25
 20
-1237.883031206703
 30
0.0
 40
12.0
 50
32.105426272157878
 51
207.89457372770741
1001
ACDBBLOCKREPETAG
1070
     1
1071
       20
1005
12F21C
  0
ARC
  5
12F21D
  8
OBJECT
 10
5937.387131565054
 20
-1250.514876283992
 30
0.0
 40
15.0
 50
318.97051877944762
 51
27.894573727707481
1001
ACDBBLOCKREPETAG
1070
     1
1071
       21
1005
12F21D
  0
ARC
  5
12F21E
  8
OBJECT
 10
5984.1209329510702
 20
-1223.53310347352
 30
0.0
 40
15.0
 50
212.1054262721579
 51
281.02948122044069
1001
ACDBBLOCKREPETAG
1070
     1
1071
       22
1005
12F21E
  0
CIRCLE
  5
12F21F
  8
SLIM
 10
5961.0
 20
-1237.4500185048121
 30
0.0
 40
7.9999999999999982
1001
ACDBBLOCKREPETAG
1070
     1
1071
       23
1005
12F21F
  0
POLYLINE
  5
12F220
  8
SLIM
 66
     1
 10
0.0
 20
0.0
 30
0.0
 70
     1
1001
ACDBBLOCKREPETAG
1070
     1
1071
       24
1005
12F220
  0
VERTEX
  5
12FD37
  8
SLIM
 10
5958.69059892324
 20
-1241.4500185048121
 30
0.0
  0
VERTEX
  5
12FD38
  8
SLIM
 10
5963.3094010767518
 20
-1241.4500185048121
 30
0.0
  0
VERTEX
  5
12FD39
  8
SLIM
 10
5965.6188021535136
 20
-1237.4500185048121
 30
0.0
  0
VERTEX
  5
12FD3A
  8
SLIM
 10
5963.3094010767518
 20
-1233.4500185048121
 30
0.0
  0
VERTEX
  5
12FD3B
  8
SLIM
 10
5958.69059892324
 20
-1233.4500185048121
 30
0.0
  0
VERTEX
  5
12FD3C
  8
SLIM
 10
5956.3811978464792
 20
-1237.4500185048121
 30
0.0
  0
SEQEND
  5
12FD3D
  8
SLIM
  0
ARC
  5
12F221
  8
OBJECT
 10
5961.25
 20
-1372.1169687932911
 30
0.0
 40
12.0
 50
152.1054262722925
 51
327.89457372784221
1001
ACDBBLOCKREPETAG
1070
     1
1071
       25
1005
12F221
  0
ARC
  5
12F222
  8
OBJECT
 10
5984.1209329510702
 20
-1386.466896526475
 30
0.0
 40
15.0
 50
78.970518779559228
 51
147.8945737278421
1001
ACDBBLOCKREPETAG
1070
     1
1071
       26
1005
12F222
  0
ARC
  5
12F223
  8
OBJECT
 10
5937.387131565054
 20
-1359.485123716006
 30
0.0
 40
15.0
 50
332.1054262722925
 51
41.029481220552412
1001
ACDBBLOCKREPETAG
1070
     1
1071
       27
1005
12F223
  0
CIRCLE
  5
12F224
  8
SLIM
 10
5961.0
 20
-1372.5499814951861
 30
0.0
 40
8.0
1001
ACDBBLOCKREPETAG
1070
     1
1071
       28
1005
12F224
  0
POLYLINE
  5
12F225
  8
SLIM
 66
     1
 10
0.0
 20
0.0
 30
0.0
 70
     1
1001
ACDBBLOCKREPETAG
1070
     1
1071
       29
1005
12F225
  0
VERTEX
  5
12FD3E
  8
SLIM
 10
5965.6188021535136
 20
-1372.5499814951829
 30
0.0
  0
VERTEX
  5
12FD3F
  8
SLIM
 10
5963.3094010767518
 20
-1368.5499814951861
 30
0.0
  0
VERTEX
  5
12FD40
  8
SLIM
 10
5958.69059892324
 20
-1368.549981495182
 30
0.0
  0
VERTEX
  5
12FD41
  8
SLIM
 10
5956.3811978464792
 20
-1372.5499814951861
 30
0.0
  0
VERTEX
  5
12FD42
  8
SLIM
 10
5958.6905989232328
 20
-1376.549981495182
 30
0.0
  0
VERTEX
  5
12FD43
  8
SLIM
 10
5963.3094010767518
 20
-1376.5499814951861
 30
0.0
  0
SEQEND
  5
12FD44
  8
SLIM
  0
ARC
  5
12F226
  8
OBJECT
 10
6000.0
 20
-1304.9999999999991
 30
0.0
 40
76.0
 50
34.863837954142063
 51
85.136162045732945
1001
ACDBBLOCKREPETAG
1070
     1
1071
       42
1005
12F226
  0
ARC
  5
12F227
  8
OBJECT
 10
6000.0
 20
-1304.9999999999991
 30
0.0
 40
76.0
 50
154.86383795430939
 51
205.1361620456905
1001
ACDBBLOCKREPETAG
1070
     1
1071
       43
1005
12F227
  0
ARC
  5
12F228
  8
OBJECT
 10
6000.0
 20
-1304.9999999999991
 30
0.0
 40
76.0
 50
274.86383795426718
 51
325.13616204585799
1001
ACDBBLOCKREPETAG
1070
     1
1071
       44
1005
12F228
  0
ARC
  5
12F229
  8
OBJECT
 10
6078.0
 20
-1304.9999999999991
 30
0.0
 40
12.0
 50
325.13616204585799
 51
34.863837954142063
1001
ACDBBLOCKREPETAG
1070
     1
1071
       45
1005
12F229
  0
LINE
  5
12F22A
  8
OBJECT
 10
6087.846153846167
 20
-1298.1404625201369
 30
0.0
 11
6062.3589743590501
 21
-1261.556262627538
 31
0.0
1001
ACDBBLOCKREPETAG
1070
     1
1071
       46
1005
12F22A
  0
LINE
  5
12F22B
  8
OBJECT
 10
6087.8461538461697
 20
-1311.8595374798599
 30
0.0
 11
6062.3589743590501
 21
-1348.443737372462
 31
0.0
1001
ACDBBLOCKREPETAG
1070
     1
1071
       47
1005
12F22B
  0
ARC
  5
12F22C
  8
OBJECT
 10
5961.0
 20
-1237.450018504813
 30
0.0
 40
12.0
 50
85.136162045942811
 51
154.86383795410001
1001
ACDBBLOCKREPETAG
1070
     1
1071
       48
1005
12F22C
  0
LINE
  5
12F22D
  8
OBJECT
 10
5950.1363893611451
 20
-1232.3527678843941
 30
0.0
 11
5931.1971326205849
 21
-1272.7174127373501
 31
0.0
1001
ACDBBLOCKREPETAG
1070
     1
1071
       49
1005
12F22D
  0
LINE
  5
12F22E
  8
OBJECT
 10
5962.0174567926842
 20
-1225.4932304045301
 30
0.0
 11
6006.4438930203669
 21
-1229.273675364888
 31
0.0
1001
ACDBBLOCKREPETAG
1070
     1
1071
       50
1005
12F22E
  0
ARC
  5
12F22F
  8
OBJECT
 10
5961.0
 20
-1372.5499814951841
 30
0.0
 40
12.0
 50
205.13616204589991
 51
274.8638379540572
1001
ACDBBLOCKREPETAG
1070
     1
1071
       51
1005
12F22F
  0
LINE
  5
12F230
  8
OBJECT
 10
5962.0174567926879
 20
-1384.5067695954669
 30
0.0
 11
6006.4438930203651
 21
-1380.726324635109
 31
0.0
1001
ACDBBLOCKREPETAG
1070
     1
1071
       52
1005
12F230
  0
LINE
  5
12F231
  8
OBJECT
 10
5950.1363893611451
 20
-1377.6472321156079
 30
0.0
 11
5931.1971326205821
 21
-1337.2825872626461
 31
0.0
1001
ACDBBLOCKREPETAG
1070
     1
1071
       53
1005
12F231
  0
LINE
  5
12F232
  8
CENTER
 10
3909.0
 20
-1263.9999999999959
 30
0.0
 11
4105.0
 21
-1263.9999999999959
 31
0.0
1001
ACDBBLOCKREPETAG
1070
     1
1071
        0
1005
12F232
  0
LINE
  5
12F233
  8
CENTER
 10
4000.0
 20
-1172.725335570779
 30
0.0
 11
4000.0
 21
-1355.274664429212
 31
0.0
1001
ACDBBLOCKREPETAG
1070
     1
1071
        1
1005
12F233
  0
CIRCLE
  5
12F234
  8
OBJECT
 10
4000.0
 20
-1263.9999999999959
 30
0.0
 40
50.0
1001
ACDBBLOCKREPETAG
1070
     1
1071
        2
1005
12F234
  0
CIRCLE
  5
12F235
  8
OBJECT
 10
4000.0
 20
-1263.9999999999959
 30
0.0
 40
62.0
1001
ACDBBLOCKREPETAG
1070
     1
1071
        3
1005
12F235
  0
CIRCLE
  5
12F236
  8
SLIM
 10
4078.0
 20
-1263.9999999999959
 30
0.0
 40
5.0
1001
ACDBBLOCKREPETAG
1070
     1
1071
        4
1005
12F236
  0
POLYLINE
  5
12F237
  8
SLIM
 66
     1
 10
0.0
 20
0.0
 30
0.0
 70
     1
1001
ACDBBLOCKREPETAG
1070
     1
1071
        5
1005
12F237
  0
VERTEX
  5
12FD45
  8
SLIM
 10
4073.092522711886
 20
-1255.4999999999959
 30
0.0
  0
VERTEX
  5
12FD46
  8
SLIM
 10
4068.185045423772
 20
-1263.9999999999959
 30
0.0
  0
VERTEX
  5
12FD47
  8
SLIM
 10
4073.092522711886
 20
-1272.4999999999959
 30
0.0
  0
VERTEX
  5
12FD48
  8
SLIM
 10
4082.9074772881072
 20
-1272.4999999999959
 30
0.0
  0
VERTEX
  5
12FD49
  8
SLIM
 10
4087.8149545762199
 20
-1263.9999999999959
 30
0.0
  0
VERTEX
  5
12FD4A
  8
SLIM
 10
4082.9074772881072
 20
-1255.4999999999959
 30
0.0
  0
SEQEND
  5
12FD4B
  8
SLIM
  0
CIRCLE
  5
12F238
  8
SLIM
 10
3961.0
 20
-1196.450018504808
 30
0.0
 40
4.9999999999999991
1001
ACDBBLOCKREPETAG
1070
     1
1071
        6
1005
12F238
  0
POLYLINE
  5
12F239
  8
SLIM
 66
     1
 10
0.0
 20
0.0
 30
0.0
 70
     1
1001
ACDBBLOCKREPETAG
1070
     1
1071
        7
1005
12F239
  0
VERTEX
  5
12FD4C
  8
SLIM
 10
3956.092522711886
 20
-1204.950018504808
 30
0.0
  0
VERTEX
  5
12FD4D
  8
SLIM
 10
3965.907477288114
 20
-1204.950018504808
 30
0.0
  0
VERTEX
  5
12FD4E
  8
SLIM
 10
3970.8149545762212
 20
-1196.450018504808
 30
0.0
  0
VERTEX
  5
12FD4F
  8
SLIM
 10
3965.907477288114
 20
-1187.9500185048089
 30
0.0
  0
VERTEX
  5
12FD50
  8
SLIM
 10
3956.092522711886
 20
-1187.9500185048089
 30
0.0
  0
VERTEX
  5
12FD51
  8
SLIM
 10
3951.185045423772
 20
-1196.450018504808
 30
0.0
  0
SEQEND
  5
12FD52
  8
SLIM
  0
CIRCLE
  5
12F23A
  8
SLIM
 10
3961.0
 20
-1331.549981495182
 30
0.0
 40
5.0
1001
ACDBBLOCKREPETAG
1070
     1
1071
        8
1005
12F23A
  0
POLYLINE
  5
12F23B
  8
SLIM
 66
     1
 10
0.0
 20
0.0
 30
0.0
 70
     1
1001
ACDBBLOCKREPETAG
1070
     1
1071
        9
1005
12F23B
  0
VERTEX
  5
12FD53
  8
SLIM
 10
3970.8149545762212
 20
-1331.549981495182
 30
0.0
  0
VERTEX
  5
12FD54
  8
SLIM
 10
3965.9074772881072
 20
-1323.0499814951791
 30
0.0
  0
VERTEX
  5
12FD55
  8
SLIM
 10
3956.092522711886
 20
-1323.0499814951829
 30
0.0
  0
VERTEX
  5
12FD56
  8
SLIM
 10
3951.185045423772
 20
-1331.5499814951791
 30
0.0
  0
VERTEX
  5
12FD57
  8
SLIM
 10
3956.092522711886
 20
-1340.049981495182
 30
0.0
  0
VERTEX
  5
12FD58
  8
SLIM
 10
3965.907477288114
 20
-1340.0499814951791
 30
0.0
  0
SEQEND
  5
12FD59
  8
SLIM
  0
ARC
  5
12F23C
  8
OBJECT
 10
4000.0
 20
-1263.9999999999959
 30
0.0
 40
76.0
 50
34.863837954142063
 51
85.136162045732945
1001
ACDBBLOCKREPETAG
1070
     1
1071
       30
1005
12F23C
  0
ARC
  5
12F23D
  8
OBJECT
 10
4000.0
 20
-1263.9999999999959
 30
0.0
 40
76.0
 50
154.86383795430939
 51
205.1361620456905
1001
ACDBBLOCKREPETAG
1070
     1
1071
       31
1005
12F23D
  0
ARC
  5
12F23E
  8
OBJECT
 10
4000.0
 20
-1263.9999999999959
 30
0.0
 40
76.0
 50
274.86383795426718
 51
325.13616204585799
1001
ACDBBLOCKREPETAG
1070
     1
1071
       32
1005
12F23E
  0
ARC
  5
12F23F
  8
OBJECT
 10
4078.0
 20
-1263.9999999999959
 30
0.0
 40
12.0
 50
325.13616204585799
 51
34.863837954142063
1001
ACDBBLOCKREPETAG
1070
     1
1071
       33
1005
12F23F
  0
LINE
  5
12F240
  8
OBJECT
 10
4087.846153846167
 20
-1257.140462520133
 30
0.0
 11
4062.3589743590492
 21
-1220.556262627535
 31
0.0
1001
ACDBBLOCKREPETAG
1070
     1
1071
       34
1005
12F240
  0
LINE
  5
12F241
  8
OBJECT
 10
4087.8461538461711
 20
-1270.859537479856
 30
0.0
 11
4062.3589743590492
 21
-1307.4437373724591
 31
0.0
1001
ACDBBLOCKREPETAG
1070
     1
1071
       35
1005
12F241
  0
ARC
  5
12F242
  8
OBJECT
 10
3961.0
 20
-1196.45001850481
 30
0.0
 40
12.0
 50
85.136162045942811
 51
154.86383795411109
1001
ACDBBLOCKREPETAG
1070
     1
1071
       36
1005
12F242
  0
LINE
  5
12F243
  8
OBJECT
 10
3950.136389361146
 20
-1191.35276788439
 30
0.0
 11
3931.1971326205862
 21
-1231.7174127373471
 31
0.0
1001
ACDBBLOCKREPETAG
1070
     1
1071
       37
1005
12F243
  0
LINE
  5
12F244
  8
OBJECT
 10
3962.0174567926852
 20
-1184.493230404526
 30
0.0
 11
4006.4438930203678
 21
-1188.2736753648851
 31
0.0
1001
ACDBBLOCKREPETAG
1070
     1
1071
       38
1005
12F244
  0
ARC
  5
12F245
  8
OBJECT
 10
3961.0
 20
-1331.5499814951811
 30
0.0
 40
12.0
 50
205.13616204588891
 51
274.8638379540572
1001
ACDBBLOCKREPETAG
1070
     1
1071
       39
1005
12F245
  0
LINE
  5
12F246
  8
OBJECT
 10
3962.0174567926879
 20
-1343.5067695954631
 30
0.0
 11
4006.4438930203651
 21
-1339.726324635106
 31
0.0
1001
ACDBBLOCKREPETAG
1070
     1
1071
       40
1005
12F246
  0
LINE
  5
12F247
  8
OBJECT
 10
3950.136389361146
 20
-1336.647232115605
 30
0.0
 11
3931.1971326205821
 21
-1296.2825872626429
 31
0.0
1001
ACDBBLOCKREPETAG
1070
     1
1071
       41
1005
12F247
  0
TEXT
  5
12F248
  8
SLIM
 10
3853.75
 20
-1531.4999999999959
 30
0.0
 40
35.0
  1
両受けスタイル（W）
 41
0.75
  0
TEXT
  5
12F249
  8
SLIM
 10
5858.1250000000009
 20
-1572.4999999999991
 30
0.0
 40
35.0
  1
カンペイ君（WKP）
 41
0.75
  0
TEXT
  5
12F24A
  8
SLIM
 10
1856.25
 20
-1287.499999999998
 30
0.0
 40
35.0
  1
片受けスタイル（S）
 41
0.75
  0
VIEWPORT
  5
F6BA7
 67
     1
  8
0
 10
145.33033752441401
 20
101.8328354358673
 30
0.0
 40
334.0025019414623
 41
222.19657968139651
 68
     1
 69
     1
1001
ACAD
1000
MVIEW
1002
{
1070
    16
1010
0.0
1020
0.0
1030
0.0
1010
0.0
1020
0.0
1030
1.0
1040
0.0
1040
222.19657968139651
1040
145.33033752441401
1040
101.8328354358673
1040
50.0
1040
0.0
1040
0.0
1070
     0
1070
     0
1070
     1
1070
     1
1070
     0
1070
     0
1070
     0
1070
     0
1040
0.0
1040
0.0
1040
0.0
1040
10.0
1040
10.0
1040
10.0
1040
10.0
1070
     0
1002
{
1002
}
1002
}
  0
VIEWPORT
  5
F6BA9
 67
     1
  8
OBJECT
 10
145.3303314447403
 20
101.8328338861465
 30
0.0
 40
232.5285303115844
 41
162.93253421783439
 68
     2
 69
     2
1001
ACAD
1000
MVIEW
1002
{
1070
    16
1010
0.0
1020
0.0
1030
0.0
1010
0.0
1020
0.0
1030
1.0
1040
0.0
1040
25942.55904403147
1040
2377.604457077377
1040
-7591.5176687056619
1040
50.0
1040
0.0
1040
0.0
1070
     0
1070
   600
1070
     1
1070
     1
1070
     0
1070
     0
1070
     0
1070
     0
1040
0.0
1040
0.0
1040
0.0
1040
1.0
1040
1.0
1040
0.0
1040
0.0
1070
     0
1002
{
1002
}
1002
}
  0
ENDSEC
  0
EOF
