  0
SECTION
  2
HEADER
  9
$INSBASE
 10
0
 20
0
  9
$EXTMIN
 10
0
 20
0
  9
$EXTMAX
 10
4200.000000
 20
2970.000000
  9
$LIMMIN
 10
0
 20
0
  9
$LIMMAX
 10
4200.000000
 20
2970.000000
  9
$VIEWCTR
 10
2100.000000
 20
1485.000000
  9
$DIMASZ
 40
20.000000
  9
$DIMDLI
 40
80.000000
  9
$DIMEXE
 40
10.000000
  9
$DIMEXO
 40
10.000000
  9
$DIMTXT
 40
32.000000
  9
$TEXTSIZE
 40
32.000000
  9
$ANGBASE
 50
0.0
  9
$ANGDIR
 70
     0
  9
$ATTMODE
 70
     1
  9
$AUNITS
 70
     1
  9
$AUPREC
 70
     2
  9
$AXISMODE
 70
     0
  9
$AXISUNIT
 10
0.0
 20
0.0
  9
$BLIPMODE
 70
     1
  9
$CECOLOR
 62
   256
  9
$CELTYPE
  6
BYLAYER
  9
$CHAMFERA
 40
0.0
  9
$CHAMFERB
 40
0.0
  9
$CLAYER
  8
0
  9
$COORDS
 70
     0
  9
$DIMALT
 70
     0
  9
$DIMALTD
 70
     2
  9
$DIMALTF
 40
25.4
  9
$DIMDLE
 40
0.0
  9
$DIMLFAC
 40
1.0
  9
$DIMLIM
 70
     0
  9
$DIMRND
 40
0.0
  9
$DIMSCALE
 40
1.0
  9
$DIMSE1
 70
     0
  9
$DIMSE2
 70
     0
  9
$DIMTAD
 70
     1
  9
$DIMTIH
 70
     0
  9
$DIMTM
 40
0.0
  9
$DIMTOH
 70
     0
  9
$DIMTOL
 70
     0
  9
$DIMTP
 40
0.0
  9
$DIMTSZ
 40
0.0
  9
$DIMZIN
 70
     0
  9
$DRAGMODE
 70
     2
  9
$ELEVATION
 40
0.0
  9
$FASTZOOM
 70
     1
  9
$FILLETRAD
 40
0.0
  9
$FILLMODE
 70
     1
  9
$GRIDMODE
 70
     0
  9
$GRIDUNIT
 10
0.0
 20
0.0
  9
$LTSCALE
 40
1.0
  9
$LUNITS
 70
     2
  9
$LUPREC
 70
     2
  9
$MENU
  1
ACAD
  9
$ORTHOMODE
 70
     0
  9
$OSMODE
 70
     0
  9
$PDMODE
 70
     0
  9
$PDSIZE
 40
0.0
  9
$PLINEWID
 40
0.0
  9
$QTEXTMODE
 70
     0
  9
$REGENMODE
 70
     1
  9
$SKETCHINC
 40
0.1
  9
$SKPOLY
 70
     0
  9
$SNAPBASE
 10
0.0
 20
0.0
  9
$SNAPISOPAIR
 70
     0
  9
$SNAPMODE
 70
     0
  9
$SNAPSTYLE
 70
     0
  9
$SNAPUNIT
 10
0.0
 20
0.0
  9
$TEXTSTYLE
  7
KANJI
  9
$THICKNESS
 40
0.0
  9
$TRACEWID
 40
0.05
  9
$VIEWDIR
 10
0.0
 20
0.0
 30
1.0
  9
$VIEWSIZE
 40
0.0
  0
ENDSEC
  0
SECTION
  2
TABLES
  0
TABLE
  2
LTYPE
 70
     9
  0
LTYPE
  2
CONTINUOUS
 70
    64
  3
Solid line
 72
    65
 73
     0
 40
0.0
  0
LTYPE
  2
DASHED
 70
    64
  3
__ __ __ __ __ __ __ __ __ __ __ __ __ __ __
 72
    65
 73
     2
 40
0.75
 49
0.5
 49
-0.25
  0
LTYPE
  2
HIDDEN
 70
    64
  3
_ _ _ _ _ _ _ _ _ _ _ _ _ _ _ _ _ _ _ _ _ _ _
 72
    65
 73
     2
 40
0.375
 49
0.25
 49
-0.125
  0
LTYPE
  2
CENTER
 70
    64
  3
____ _ ____ _ ____ _ ____ _ ____ _ ____ _ ____
 72
    65
 73
     4
 40
2.0
 49
1.25
 49
-0.25
 49
0.25
 49
-0.25
  0
LTYPE
  2
PHANTOM
 70
    64
  3
_____ _ _ _____ _ _ _____ _ _ _____ _ _ ____
 72
    65
 73
     6
 40
2.5
 49
1.25
 49
-0.25
 49
0.25
 49
-0.25
 49
0.25
 49
-0.25
  0
LTYPE
  2
DOT
 70
    64
  3
...............................................
 72
    65
 73
     2
 40
0.25
 49
0.0
 49
-0.25
  0
LTYPE
  2
DASHDOT
 70
    64
  3
__ . __ . __ . __ . __ . __ . __ . __ . __ . __
 72
    65
 73
     4
 40
1.0
 49
0.5
 49
-0.25
 49
0.0
 49
-0.25
  0
LTYPE
  2
BORDER
 70
    64
  3
__ __ . __ __ . __ __ . __ __ . __ __ . __ __
 72
    65
 73
     6
 40
1.75
 49
0.5
 49
-0.25
 49
0.5
 49
-0.25
 49
0.0
 49
-0.25
  0
LTYPE
  2
DIVIDE
 70
    64
  3
__ . . __ . . __ . . __ . . __ . . __ . . __
 72
    65
 73
     6
 40
1.25
 49
0.5
 49
-0.25
 49
0.0
 49
-0.25
 49
0.0
 49
-0.25
  0
ENDTAB
  0
TABLE
  2
LAYER
 70
   100
  0
LAYER
  2
0
 70
     0
 62
     3
  6
CONTINUOUS
  0
LAYER
  2
1
 70
     0
 62
     3
  6
CONTINUOUS
  0
LAYER
  2
2
 70
     0
 62
     3
  6
CONTINUOUS
  0
LAYER
  2
3
 70
     0
 62
     3
  6
CONTINUOUS
  0
LAYER
  2
4
 70
     0
 62
     3
  6
CONTINUOUS
  0
LAYER
  2
5
 70
     0
 62
     3
  6
CONTINUOUS
  0
LAYER
  2
6
 70
     0
 62
     3
  6
CONTINUOUS
  0
LAYER
  2
7
 70
     0
 62
     3
  6
CONTINUOUS
  0
LAYER
  2
8
 70
     0
 62
     3
  6
CONTINUOUS
  0
LAYER
  2
9
 70
     0
 62
     3
  6
CONTINUOUS
  0
LAYER
  2
10
 70
     0
 62
     3
  6
CONTINUOUS
  0
LAYER
  2
11
 70
     0
 62
     3
  6
CONTINUOUS
  0
LAYER
  2
12
 70
     0
 62
     3
  6
CONTINUOUS
  0
LAYER
  2
13
 70
     0
 62
     3
  6
CONTINUOUS
  0
LAYER
  2
14
 70
     0
 62
     3
  6
CONTINUOUS
  0
LAYER
  2
15
 70
     0
 62
     3
  6
CONTINUOUS
  0
LAYER
  2
16
 70
     0
 62
     3
  6
CONTINUOUS
  0
LAYER
  2
17
 70
     0
 62
     3
  6
CONTINUOUS
  0
LAYER
  2
18
 70
     0
 62
     3
  6
CONTINUOUS
  0
LAYER
  2
19
 70
     0
 62
     3
  6
CONTINUOUS
  0
LAYER
  2
20
 70
     0
 62
     3
  6
CONTINUOUS
  0
LAYER
  2
21
 70
     0
 62
     3
  6
CONTINUOUS
  0
LAYER
  2
22
 70
     0
 62
     3
  6
CONTINUOUS
  0
LAYER
  2
23
 70
     0
 62
     3
  6
CONTINUOUS
  0
LAYER
  2
24
 70
     0
 62
     3
  6
CONTINUOUS
  0
LAYER
  2
25
 70
     0
 62
     3
  6
CONTINUOUS
  0
LAYER
  2
26
 70
     0
 62
     3
  6
CONTINUOUS
  0
LAYER
  2
27
 70
     0
 62
     3
  6
CONTINUOUS
  0
LAYER
  2
28
 70
     0
 62
     3
  6
CONTINUOUS
  0
LAYER
  2
29
 70
     0
 62
     3
  6
CONTINUOUS
  0
LAYER
  2
30
 70
     0
 62
     3
  6
CONTINUOUS
  0
LAYER
  2
31
 70
     0
 62
     3
  6
CONTINUOUS
  0
LAYER
  2
32
 70
     0
 62
     3
  6
CONTINUOUS
  0
LAYER
  2
33
 70
     0
 62
     3
  6
CONTINUOUS
  0
LAYER
  2
34
 70
     0
 62
     3
  6
CONTINUOUS
  0
LAYER
  2
35
 70
     0
 62
     3
  6
CONTINUOUS
  0
LAYER
  2
36
 70
     0
 62
     3
  6
CONTINUOUS
  0
LAYER
  2
37
 70
     0
 62
     3
  6
CONTINUOUS
  0
LAYER
  2
38
 70
     0
 62
     3
  6
CONTINUOUS
  0
LAYER
  2
39
 70
     0
 62
     3
  6
CONTINUOUS
  0
LAYER
  2
40
 70
     0
 62
     3
  6
CONTINUOUS
  0
LAYER
  2
41
 70
     0
 62
     3
  6
CONTINUOUS
  0
LAYER
  2
42
 70
     0
 62
     3
  6
CONTINUOUS
  0
LAYER
  2
43
 70
     0
 62
     3
  6
CONTINUOUS
  0
LAYER
  2
44
 70
     0
 62
     3
  6
CONTINUOUS
  0
LAYER
  2
45
 70
     0
 62
     3
  6
CONTINUOUS
  0
LAYER
  2
46
 70
     0
 62
     3
  6
CONTINUOUS
  0
LAYER
  2
47
 70
     0
 62
     3
  6
CONTINUOUS
  0
LAYER
  2
48
 70
     0
 62
     3
  6
CONTINUOUS
  0
LAYER
  2
49
 70
     0
 62
     3
  6
CONTINUOUS
  0
LAYER
  2
50
 70
     0
 62
     3
  6
CONTINUOUS
  0
LAYER
  2
51
 70
     0
 62
     3
  6
CONTINUOUS
  0
LAYER
  2
52
 70
     0
 62
     3
  6
CONTINUOUS
  0
LAYER
  2
53
 70
     0
 62
     3
  6
CONTINUOUS
  0
LAYER
  2
54
 70
     0
 62
     3
  6
CONTINUOUS
  0
LAYER
  2
55
 70
     0
 62
     3
  6
CONTINUOUS
  0
LAYER
  2
56
 70
     0
 62
     3
  6
CONTINUOUS
  0
LAYER
  2
57
 70
     0
 62
     3
  6
CONTINUOUS
  0
LAYER
  2
58
 70
     0
 62
     3
  6
CONTINUOUS
  0
LAYER
  2
59
 70
     0
 62
     3
  6
CONTINUOUS
  0
LAYER
  2
60
 70
     0
 62
     3
  6
CONTINUOUS
  0
LAYER
  2
61
 70
     0
 62
     3
  6
CONTINUOUS
  0
LAYER
  2
62
 70
     0
 62
     3
  6
CONTINUOUS
  0
LAYER
  2
63
 70
     0
 62
     3
  6
CONTINUOUS
  0
LAYER
  2
64
 70
     0
 62
     3
  6
CONTINUOUS
  0
LAYER
  2
65
 70
     0
 62
     3
  6
CONTINUOUS
  0
LAYER
  2
66
 70
     0
 62
     3
  6
CONTINUOUS
  0
LAYER
  2
67
 70
     0
 62
     3
  6
CONTINUOUS
  0
LAYER
  2
68
 70
     0
 62
     3
  6
CONTINUOUS
  0
LAYER
  2
69
 70
     0
 62
     3
  6
CONTINUOUS
  0
LAYER
  2
70
 70
     0
 62
     3
  6
CONTINUOUS
  0
LAYER
  2
71
 70
     0
 62
     3
  6
CONTINUOUS
  0
LAYER
  2
72
 70
     0
 62
     3
  6
CONTINUOUS
  0
LAYER
  2
73
 70
     0
 62
     3
  6
CONTINUOUS
  0
LAYER
  2
74
 70
     0
 62
     3
  6
CONTINUOUS
  0
LAYER
  2
75
 70
     0
 62
     3
  6
CONTINUOUS
  0
LAYER
  2
76
 70
     0
 62
     3
  6
CONTINUOUS
  0
LAYER
  2
77
 70
     0
 62
     3
  6
CONTINUOUS
  0
LAYER
  2
78
 70
     0
 62
     3
  6
CONTINUOUS
  0
LAYER
  2
79
 70
     0
 62
     3
  6
CONTINUOUS
  0
LAYER
  2
80
 70
     0
 62
     3
  6
CONTINUOUS
  0
LAYER
  2
81
 70
     0
 62
     3
  6
CONTINUOUS
  0
LAYER
  2
82
 70
     0
 62
     3
  6
CONTINUOUS
  0
LAYER
  2
83
 70
     0
 62
     3
  6
CONTINUOUS
  0
LAYER
  2
84
 70
     0
 62
     3
  6
CONTINUOUS
  0
LAYER
  2
85
 70
     0
 62
     3
  6
CONTINUOUS
  0
LAYER
  2
86
 70
     0
 62
     3
  6
CONTINUOUS
  0
LAYER
  2
87
 70
     0
 62
     3
  6
CONTINUOUS
  0
LAYER
  2
88
 70
     0
 62
     3
  6
CONTINUOUS
  0
LAYER
  2
89
 70
     0
 62
     3
  6
CONTINUOUS
  0
LAYER
  2
90
 70
     0
 62
     3
  6
CONTINUOUS
  0
LAYER
  2
91
 70
     0
 62
     3
  6
CONTINUOUS
  0
LAYER
  2
92
 70
     0
 62
     3
  6
CONTINUOUS
  0
LAYER
  2
93
 70
     0
 62
     3
  6
CONTINUOUS
  0
LAYER
  2
94
 70
     0
 62
     3
  6
CONTINUOUS
  0
LAYER
  2
95
 70
     0
 62
     3
  6
CONTINUOUS
  0
LAYER
  2
96
 70
     0
 62
     3
  6
CONTINUOUS
  0
LAYER
  2
97
 70
     0
 62
     3
  6
CONTINUOUS
  0
LAYER
  2
98
 70
     0
 62
     3
  6
CONTINUOUS
  0
LAYER
  2
99
 70
     0
 62
     3
  6
CONTINUOUS
  0
ENDTAB
  0
TABLE
  2
STYLE
 70
     2
  0
STYLE
  2
STANDARD
 70
     0
 40
0.0
 41
1.0
 50
0.0
 71
     0
 42
0.2
  3
TXT
  4
BIGFONT
  0
STYLE
  2
KANJI
 70
     0
 40
4.5
 41
1.0
 50
0.0
 71
     0
 42
0.2
  3
TXT
  4
BIGFONT
  0
ENDTAB
  0
TABLE
  2
VIEW
 70
     0
  0
ENDTAB
  0
ENDSEC
  0
SECTION
  2
BLOCKS
  0
BLOCK
  8
0
  2
G0
 70
     0
 10
0
 20
0
  0
LINE
  8
0
 62
     3
  6
CONTINUOUS
 10
3022.518505
 20
2347.893959
 11
3082.518505
 21
2347.893959
  0
SOLID
  8
0
 62
     3
 10
3041.837021
 20
2353.070340
 11
3041.837021
 21
2342.717578
 12
3022.518505
 22
2347.893959
 13
3022.518505
 23
2347.893959
  0
LINE
  8
0
 62
     3
  6
CONTINUOUS
 10
3082.518505
 20
2347.893959
 11
3082.518505
 21
2432.893959
  0
ENDBLK
  0
BLOCK
  8
0
  2
G1
 70
     0
 10
0
 20
0
  0
TEXT
  8
0
 62
     3
 10
3009.622631
 20
2444.270505
 40
32.000000
 50
0.000000E+00
 41
1.02 
  1
受口深さ
 72
     5
 11
3161.622631
 21
2444.270505
  0
ENDBLK
  0
BLOCK
  8
0
  2
G2
 70
     0
 10
0
 20
0
  0
LINE
  8
0
 62
     1
  6
CONTINUOUS
 10
3106.118163
 20
2236.089268
 11
3106.118163
 21
2111.089268
  0
SOLID
  8
0
 62
     1
 10
3112.588639
 20
2211.941123
 11
3099.647687
 21
2211.941123
 12
3106.118163
 22
2236.089268
 13
3106.118163
 23
2236.089268
  0
SOLID
  8
0
 62
     1
 10
3099.647687
 20
2135.237414
 11
3112.588639
 21
2135.237414
 12
3106.118163
 22
2111.089268
 13
3106.118163
 23
2111.089268
  0
LINE
  8
0
 62
     1
  6
CONTINUOUS
 10
3042.863476
 20
2236.089268
 11
3116.118163
 21
2236.089268
  0
LINE
  8
0
 62
     1
  6
CONTINUOUS
 10
3042.863476
 20
2111.089268
 11
3116.118163
 21
2111.089268
  0
TEXT
  8
0
 62
     1
 10
3100.784830
 20
2115.589268
 40
32.000000
 50
90.000000
 41
0.60 
  1
%%c125
 72
     5
 11
3100.784830
 21
2231.589268
  0
ENDBLK
  0
BLOCK
  8
0
  2
G3
 70
     0
 10
0
 20
0
  0
LINE
  8
0
 62
     1
  6
CONTINUOUS
 10
3032.863476
 20
2376.698815
 11
2872.863476
 21
2376.698815
  0
SOLID
  8
0
 62
     1
 10
3003.885701
 20
2368.934243
 11
3003.885701
 21
2384.463386
 12
3032.863476
 22
2376.698815
 13
3032.863476
 23
2376.698815
  0
SOLID
  8
0
 62
     1
 10
2901.841251
 20
2384.463386
 11
2901.841251
 21
2368.934243
 12
2872.863476
 22
2376.698815
 13
2872.863476
 23
2376.698815
  0
LINE
  8
0
 62
     1
  6
CONTINUOUS
 10
3032.863476
 20
2328.479722
 11
3032.863476
 21
2386.698815
  0
LINE
  8
0
 62
     1
  6
CONTINUOUS
 10
2872.863476
 20
2282.030428
 11
2872.863476
 21
2386.698815
  0
TEXT
  8
0
 62
     1
 10
2924.863476
 20
2382.032148
 40
32.000000
 50
0.000000E+00
 41
0.58 
  1
160
 72
     5
 11
2980.863476
 21
2382.032148
  0
ENDBLK
  0
BLOCK
  8
0
  2
G4
 70
     0
 10
0
 20
0
  0
LINE
  8
0
 62
     1
  6
CONTINUOUS
 10
3169.940390
 20
1596.227117
 11
3169.940390
 21
1846.227117
  0
SOLID
  8
0
 62
     1
 10
3162.175818
 20
1625.204891
 11
3177.704961
 21
1625.204891
 12
3169.940390
 22
1596.227117
 13
3169.940390
 23
1596.227117
  0
SOLID
  8
0
 62
     1
 10
3177.704961
 20
1817.249342
 11
3162.175818
 21
1817.249342
 12
3169.940390
 22
1846.227117
 13
3169.940390
 23
1846.227117
  0
LINE
  8
0
 62
     1
  6
CONTINUOUS
 10
3119.940390
 20
1596.227117
 11
3179.940390
 21
1596.227117
  0
LINE
  8
0
 62
     1
  6
CONTINUOUS
 10
2882.863476
 20
1846.227117
 11
3179.940390
 21
1846.227117
  0
TEXT
  8
0
 62
     1
 10
3164.607057
 20
1693.227117
 40
32.000000
 50
90.000000
 41
0.58 
  1
250
 72
     5
 11
3164.607057
 21
1749.227117
  0
ENDBLK
  0
BLOCK
  8
0
  2
G5
 70
     0
 10
0
 20
0
  0
LINE
  8
0
 62
     1
  6
CONTINUOUS
 10
3109.940390
 20
1596.227117
 11
3109.940390
 21
1656.227117
  0
CIRCLE
  8
0
 62
     1
  6
CONTINUOUS
 10
3109.940390
 20
1596.227117
 40
2.500000
  0
CIRCLE
  8
0
 62
     1
  6
CONTINUOUS
 10
3109.940390
 20
1596.227117
 40
1.250000
  0
LINE
  8
0
 62
     1
  6
CONTINUOUS
 10
3037.863476
 20
1596.227117
 11
3119.940390
 21
1596.227117
  0
LINE
  8
0
 62
     1
  6
CONTINUOUS
 10
3048.797182
 20
1656.227117
 11
3119.940390
 21
1656.227117
  0
TEXT
  8
0
 62
     1
 10
3104.607057
 20
1608.227117
 40
32.000000
 50
90.000000
 41
0.56 
  1
60
 72
     5
 11
3104.607057
 21
1644.227117
  0
LINE
  8
0
 62
     1
  6
CONTINUOUS
 10
3109.940390
 20
1656.227117
 11
3109.940390
 21
1706.227117
  0
SOLID
  8
0
 62
     1
 10
3102.175818
 20
1685.204891
 11
3117.704961
 21
1685.204891
 12
3109.940390
 22
1656.227117
 13
3109.940390
 23
1656.227117
  0
ENDBLK
  0
BLOCK
  8
0
  2
G6
 70
     0
 10
0
 20
0
  0
LINE
  8
0
 62
     1
  6
CONTINUOUS
 10
3229.940390
 20
1296.227117
 11
3229.940390
 21
1656.227117
  0
SOLID
  8
0
 62
     1
 10
3222.175818
 20
1325.204891
 11
3237.704961
 21
1325.204891
 12
3229.940390
 22
1296.227117
 13
3229.940390
 23
1296.227117
  0
SOLID
  8
0
 62
     1
 10
3237.704961
 20
1627.249342
 11
3222.175818
 21
1627.249342
 12
3229.940390
 22
1656.227117
 13
3229.940390
 23
1656.227117
  0
LINE
  8
0
 62
     1
  6
CONTINUOUS
 10
3239.940390
 20
1296.227117
 11
3119.940390
 21
1296.227117
  0
TEXT
  8
0
 62
     1
 10
3224.607057
 20
1460.227117
 40
32.000000
 50
90.000000
 41
0.86 
  1
Ｐ
 72
     5
 11
3224.607057
 21
1492.227117
  0
ENDBLK
  0
BLOCK
  8
0
  2
G7
 70
     0
 10
0
 20
0
  0
LINE
  8
0
 62
     1
  6
CONTINUOUS
 10
3349.940390
 20
1921.227117
 11
3349.940390
 21
936.227117
  0
SOLID
  8
0
 62
     1
 10
3356.410866
 20
1897.078971
 11
3343.469913
 21
1897.078971
 12
3349.940390
 22
1921.227117
 13
3349.940390
 23
1921.227117
  0
SOLID
  8
0
 62
     1
 10
3343.469913
 20
960.375262
 11
3356.410866
 21
960.375262
 12
3349.940390
 22
936.227117
 13
3349.940390
 23
936.227117
  0
LINE
  8
0
 62
     1
  6
CONTINUOUS
 10
3299.940390
 20
1921.227117
 11
3359.940390
 21
1921.227117
  0
LINE
  8
0
 62
     1
  6
CONTINUOUS
 10
3299.940390
 20
936.227117
 11
3359.940390
 21
936.227117
  0
TEXT
  8
0
 62
     1
 10
3344.607057
 20
1392.727117
 40
32.000000
 50
90.000000
 41
0.97 
  1
Ｌｔ
 72
     5
 11
3344.607057
 21
1464.727117
  0
ENDBLK
  0
BLOCK
  8
0
  2
G8
 70
     0
 10
0
 20
0
  0
LINE
  8
0
 62
     1
  6
CONTINUOUS
 10
3289.940390
 20
1846.227117
 11
3289.940390
 21
936.227117
  0
SOLID
  8
0
 62
     1
 10
3296.410866
 20
1822.078971
 11
3283.469913
 21
1822.078971
 12
3289.940390
 22
1846.227117
 13
3289.940390
 23
1846.227117
  0
SOLID
  8
0
 62
     1
 10
3283.469913
 20
960.375262
 11
3296.410866
 21
960.375262
 12
3289.940390
 22
936.227117
 13
3289.940390
 23
936.227117
  0
LINE
  8
0
 62
     1
  6
CONTINUOUS
 10
3239.940390
 20
936.227117
 11
3299.940390
 21
936.227117
  0
TEXT
  8
0
 62
     1
 10
3284.607057
 20
1297.227117
 40
32.000000
 50
90.000000
 41
0.89 
  1
Ｌ（有効長）
 72
     5
 11
3284.607057
 21
1493.227117
  0
ENDBLK
  0
BLOCK
  8
0
  2
G9
 70
     0
 10
0
 20
0
  0
LINE
  8
0
 62
     1
  6
CONTINUOUS
 10
3229.940390
 20
1296.227117
 11
3229.940390
 21
936.227117
  0
SOLID
  8
0
 62
     1
 10
3236.410866
 20
1272.078971
 11
3223.469913
 21
1272.078971
 12
3229.940390
 22
1296.227117
 13
3229.940390
 23
1296.227117
  0
SOLID
  8
0
 62
     1
 10
3223.469913
 20
960.375262
 11
3236.410866
 21
960.375262
 12
3229.940390
 22
936.227117
 13
3229.940390
 23
936.227117
  0
LINE
  8
0
 62
     1
  6
CONTINUOUS
 10
3239.940390
 20
936.227117
 11
3119.940390
 21
936.227117
  0
TEXT
  8
0
 62
     1
 10
3224.607057
 20
1088.227117
 40
32.000000
 50
90.000000
 41
0.58 
  1
360
 72
     5
 11
3224.607057
 21
1144.227117
  0
ENDBLK
  0
BLOCK
  8
0
  2
G10
 70
     0
 10
0
 20
0
  0
LINE
  8
0
 62
     1
  6
CONTINUOUS
 10
3109.940390
 20
1356.227117
 11
3109.940390
 21
1296.227117
  0
LINE
  8
0
 62
     1
  6
CONTINUOUS
 10
3119.940390
 20
1356.227117
 11
2972.188303
 21
1356.227117
  0
LINE
  8
0
 62
     1
  6
CONTINUOUS
 10
3119.940390
 20
1296.227117
 11
2897.959512
 21
1296.227117
  0
TEXT
  8
0
 62
     1
 10
3104.607057
 20
1310.227117
 40
32.000000
 50
90.000000
 41
0.86 
  1
Ｂ
 72
     5
 11
3104.607057
 21
1342.227117
  0
LINE
  8
0
 62
     1
  6
CONTINUOUS
 10
3109.940390
 20
1406.227117
 11
3109.940390
 21
1356.227117
  0
SOLID
  8
0
 62
     1
 10
3103.469913
 20
1380.375262
 11
3116.410866
 21
1380.375262
 12
3109.940390
 22
1356.227117
 13
3109.940390
 23
1356.227117
  0
LINE
  8
0
 62
     1
  6
CONTINUOUS
 10
3109.940390
 20
1296.227117
 11
3109.940390
 21
1246.227117
  0
SOLID
  8
0
 62
     1
 10
3116.410866
 20
1272.078971
 11
3103.469913
 21
1272.078971
 12
3109.940390
 22
1296.227117
 13
3109.940390
 23
1296.227117
  0
ENDBLK
  0
BLOCK
  8
0
  2
G11
 70
     0
 10
0
 20
0
  0
LINE
  8
0
 62
     1
  6
CONTINUOUS
 10
3109.940390
 20
1206.227117
 11
3109.940390
 21
1086.227117
  0
SOLID
  8
0
 62
     1
 10
3116.410866
 20
1182.078971
 11
3103.469913
 21
1182.078971
 12
3109.940390
 22
1206.227117
 13
3109.940390
 23
1206.227117
  0
SOLID
  8
0
 62
     1
 10
3103.469913
 20
1110.375262
 11
3116.410866
 21
1110.375262
 12
3109.940390
 22
1086.227117
 13
3109.940390
 23
1086.227117
  0
LINE
  8
0
 62
     1
  6
CONTINUOUS
 10
2963.612565
 20
1206.227117
 11
3119.940390
 21
1206.227117
  0
LINE
  8
0
 62
     1
  6
CONTINUOUS
 10
2933.114387
 20
1086.227117
 11
3119.940390
 21
1086.227117
  0
TEXT
  8
0
 62
     1
 10
3104.607057
 20
1118.227117
 40
32.000000
 50
90.000000
 41
0.58 
  1
120
 72
     5
 11
3104.607057
 21
1174.227117
  0
ENDBLK
  0
BLOCK
  8
0
  2
G12
 70
     0
 10
0
 20
0
  0
LINE
  8
0
 62
     1
  6
CONTINUOUS
 10
3109.940390
 20
1086.227117
 11
3109.940390
 21
936.227117
  0
SOLID
  8
0
 62
     1
 10
3116.410866
 20
1062.078971
 11
3103.469913
 21
1062.078971
 12
3109.940390
 22
1086.227117
 13
3109.940390
 23
1086.227117
  0
SOLID
  8
0
 62
     1
 10
3103.469913
 20
960.375262
 11
3116.410866
 21
960.375262
 12
3109.940390
 22
936.227117
 13
3109.940390
 23
936.227117
  0
LINE
  8
0
 62
     1
  6
CONTINUOUS
 10
2935.863476
 20
936.227117
 11
3119.940390
 21
936.227117
  0
TEXT
  8
0
 62
     1
 10
3104.607057
 20
983.227117
 40
32.000000
 50
90.000000
 41
0.58 
  1
150
 72
     5
 11
3104.607057
 21
1039.227117
  0
ENDBLK
  0
BLOCK
  8
0
  2
G13
 70
     0
 10
0
 20
0
  0
LINE
  8
0
 62
     1
  6
CONTINUOUS
 10
2967.863476
 20
2318.479722
 11
3032.863476
 21
2318.479722
  0
LINE
  8
0
 62
     1
  6
CONTINUOUS
 10
2967.863476
 20
2243.589268
 11
2967.863476
 21
2328.479722
  0
LINE
  8
0
 62
     1
  6
CONTINUOUS
 10
3032.863476
 20
2246.089268
 11
3032.863476
 21
2328.479722
  0
TEXT
  8
0
 62
     1
 10
2982.363476
 20
2323.813055
 40
32.000000
 50
0.000000E+00
 41
0.56 
  1
65
 72
     5
 11
3018.363476
 21
2323.813055
  0
LINE
  8
0
 62
     1
  6
CONTINUOUS
 10
2917.863476
 20
2318.479722
 11
2967.863476
 21
2318.479722
  0
SOLID
  8
0
 62
     1
 10
2943.715330
 20
2312.009246
 11
2943.715330
 21
2324.950198
 12
2967.863476
 22
2318.479722
 13
2967.863476
 23
2318.479722
  0
LINE
  8
0
 62
     1
  6
CONTINUOUS
 10
3032.863476
 20
2318.479722
 11
3082.863476
 21
2318.479722
  0
SOLID
  8
0
 62
     1
 10
3057.011622
 20
2324.950198
 11
3057.011622
 21
2312.009246
 12
3032.863476
 22
2318.479722
 13
3032.863476
 23
2318.479722
  0
ENDBLK
  0
BLOCK
  8
0
  2
G14
 70
     0
 10
0
 20
0
  0
LINE
  8
0
 62
     1
  6
CONTINUOUS
 10
3918.624747
 20
1840.000000
 11
3918.624747
 21
2000.000000
  0
LINE
  8
0
 62
     1
  6
CONTINUOUS
 10
3871.624747
 20
1840.000000
 11
3928.624747
 21
1840.000000
  0
LINE
  8
0
 62
     1
  6
CONTINUOUS
 10
3833.691803
 20
2000.000000
 11
3928.624747
 21
2000.000000
  0
TEXT
  8
0
 62
     1
 10
3913.291414
 20
1892.000000
 40
32.000000
 50
90.000000
 41
0.58 
  1
160
 72
     5
 11
3913.291414
 21
1948.000000
  0
LINE
  8
0
 62
     1
  6
CONTINUOUS
 10
3918.624747
 20
2050.000000
 11
3918.624747
 21
2000.000000
  0
SOLID
  8
0
 62
     1
 10
3912.154271
 20
2024.148146
 11
3925.095223
 21
2024.148146
 12
3918.624747
 22
2000.000000
 13
3918.624747
 23
2000.000000
  0
LINE
  8
0
 62
     1
  6
CONTINUOUS
 10
3918.624747
 20
1840.000000
 11
3918.624747
 21
1790.000000
  0
SOLID
  8
0
 62
     1
 10
3925.095223
 20
1815.851854
 11
3912.154271
 21
1815.851854
 12
3918.624747
 22
1840.000000
 13
3918.624747
 23
1840.000000
  0
ENDBLK
  0
BLOCK
  8
0
  2
G15
 70
     0
 10
0
 20
0
  0
LINE
  8
0
 62
     1
  6
CONTINUOUS
 10
3599.000000
 20
2143.375253
 11
3809.000000
 21
2143.375253
  0
SOLID
  8
0
 62
     1
 10
3623.148146
 20
2149.845729
 11
3623.148146
 21
2136.904777
 12
3599.000000
 22
2143.375253
 13
3599.000000
 23
2143.375253
  0
SOLID
  8
0
 62
     1
 10
3784.851854
 20
2136.904777
 11
3784.851854
 21
2149.845729
 12
3809.000000
 22
2143.375253
 13
3809.000000
 23
2143.375253
  0
LINE
  8
0
 62
     1
  6
CONTINUOUS
 10
3599.000000
 20
2010.000000
 11
3599.000000
 21
2153.375253
  0
LINE
  8
0
 62
     1
  6
CONTINUOUS
 10
3809.000000
 20
2010.000000
 11
3809.000000
 21
2153.375253
  0
TEXT
  8
0
 62
     1
 10
3676.000000
 20
2148.708586
 40
32.000000
 50
0.000000E+00
 41
0.58 
  1
210
 72
     5
 11
3732.000000
 21
2148.708586
  0
ENDBLK
  0
BLOCK
  8
0
  2
G16
 70
     0
 10
0
 20
0
  0
LINE
  8
0
 62
     3
  6
CONTINUOUS
 10
3452.272144
 20
1761.651861
 11
3622.272144
 21
1761.651861
  0
LINE
  8
0
 62
     3
  6
CONTINUOUS
 10
3452.272144
 20
1769.651861
 11
3622.272144
 21
1769.651861
  0
TEXT
  8
0
 62
     7
 10
3452.571211
 20
1779.149449
 40
32.000000
 50
0.000000E+00
 41
0.66 
  1
％％ｃ　　　枝管
 72
     5
 11
3644.571211
 21
1779.149449
  0
ENDBLK
  0
BLOCK
  8
0
  2
G17
 70
     0
 10
0
 20
0
  0
LINE
  8
0
 62
     1
  6
CONTINUOUS
 10
3651.155960
 20
2228.206521
 11
3475.793479
 21
2052.844040
  0
SOLID
  8
0
 62
     1
 10
3638.655960
 20
2206.555886
 11
3629.505325
 21
2215.706521
 12
3651.155960
 22
2228.206521
 13
3651.155960
 23
2228.206521
  0
SOLID
  8
0
 62
     1
 10
3488.293479
 20
2074.494675
 11
3497.444114
 21
2065.344040
 12
3475.793479
 22
2052.844040
 13
3475.793479
 23
2052.844040
  0
TEXT
  8
0
 62
     1
 10
3539.904494
 20
2124.497527
 40
32.000000
 50
45.000000
 41
0.58 
  1
248
 72
     5
 11
3579.502473
 21
2164.095506
  0
ENDBLK
  0
BLOCK
  8
0
  2
G18
 70
     0
 10
0
 20
0
  0
LINE
  8
0
 62
     3
  6
CONTINUOUS
 10
3087.560047
 20
1434.224772
 11
3065.057592
 21
1447.216570
  0
LINE
  8
0
 62
     3
  6
CONTINUOUS
 10
3072.142578
 20
1407.520932
 11
3087.560047
 21
1434.224772
  0
TEXT
  8
0
 62
     3
 10
3060.349294
 20
1375.162715
 40
32.000000
 50
0.000000E+00
 41
0.86 
  1
Ｃ
 72
     5
 11
3092.349294
 21
1375.162715
  0
LINE
  8
0
 62
     3
  6
CONTINUOUS
 10
3072.142578
 20
1454.891181
 11
3072.142578
 21
1407.520932
  0
LINE
  8
0
 62
     3
  6
CONTINUOUS
 10
3072.142578
 20
1454.891181
 11
2992.580014
 21
1454.891181
  0
ENDBLK
  0
BLOCK
  8
0
  2
G19
 70
     0
 10
0
 20
0
  0
TEXT
  8
0
 62
     3
 10
3223.319564
 20
1996.453919
 40
32.000000
 50
0.000000E+00
 41
0.95 
  1
受口深さ　
 72
     5
 11
3399.319564
 21
1996.453919
  0
ENDBLK
  0
BLOCK
  8
0
  2
G20
 70
     0
 10
0
 20
0
  0
TEXT
  8
0
 62
     1
 10
3688.000000
 20
1789.808641
 40
32.000000
 50
0.000000E+00
 41
0.86 
  1
Ａ
 72
     5
 11
3720.000000
 21
1789.808641
  0
LINE
  8
0
 62
     1
  6
CONTINUOUS
 10
3766.500000
 20
1787.675308
 11
3641.500000
 21
1787.675308
  0
SOLID
  8
0
 62
     1
 10
3737.522225
 20
1779.910737
 11
3737.522225
 21
1795.439879
 12
3766.500000
 22
1787.675308
 13
3766.500000
 23
1787.675308
  0
SOLID
  8
0
 62
     1
 10
3670.477775
 20
1795.439879
 11
3670.477775
 21
1779.910737
 12
3641.500000
 22
1787.675308
 13
3641.500000
 23
1787.675308
  0
LINE
  8
0
 62
     1
  6
CONTINUOUS
 10
3766.500000
 20
1836.000000
 11
3766.500000
 21
1783.675308
  0
LINE
  8
0
 62
     1
  6
CONTINUOUS
 10
3641.500000
 20
1836.000000
 11
3641.500000
 21
1783.675308
  0
ENDBLK
  0
BLOCK
  8
0
  2
G21
 70
     0
 10
0
 20
0
  0
LINE
  8
0
 62
     1
  6
CONTINUOUS
 10
3861.624747
 20
1904.682081
 11
3861.624747
 21
1840.000000
  0
LINE
  8
0
 62
     1
  6
CONTINUOUS
 10
3776.500000
 20
1840.000000
 11
3871.624747
 21
1840.000000
  0
TEXT
  8
0
 62
     1
 10
3856.291414
 20
1852.474233
 40
32.000000
 50
90.000000
 41
0.56 
  1
65
 72
     5
 11
3856.291414
 21
1888.474233
  0
LINE
  8
0
 62
     1
  6
CONTINUOUS
 10
3861.624747
 20
1954.682081
 11
3861.624747
 21
1904.682081
  0
SOLID
  8
0
 62
     1
 10
3855.154271
 20
1928.830227
 11
3868.095223
 21
1928.830227
 12
3861.624747
 22
1904.682081
 13
3861.624747
 23
1904.682081
  0
LINE
  8
0
 62
     1
  6
CONTINUOUS
 10
3861.624747
 20
1840.000000
 11
3861.624747
 21
1790.000000
  0
SOLID
  8
0
 62
     1
 10
3868.095223
 20
1815.851854
 11
3855.154271
 21
1815.851854
 12
3861.624747
 22
1840.000000
 13
3861.624747
 23
1840.000000
  0
ENDBLK
  0
BLOCK
  8
0
  2
G22
 70
     0
 10
0
 20
0
  0
TEXT
  8
0
 62
     1
 10
3555.291414
 20
1972.000000
 40
32.000000
 50
90.000000
 41
0.58 
  1
210
 72
     5
 11
3555.291414
 21
2028.000000
  0
LINE
  8
0
 62
     1
  6
CONTINUOUS
 10
3694.000000
 20
2105.000000
 11
3550.624747
 21
2105.000000
  0
LINE
  8
0
 62
     1
  6
CONTINUOUS
 10
3694.000000
 20
1895.000000
 11
3550.624747
 21
1895.000000
  0
LINE
  8
0
 62
     1
  6
CONTINUOUS
 10
3560.624747
 20
1895.000000
 11
3560.624747
 21
2105.000000
  0
SOLID
  8
0
 62
     1
 10
3554.154271
 20
1919.148146
 11
3567.095223
 21
1919.148146
 12
3560.624747
 22
1895.000000
 13
3560.624747
 23
1895.000000
  0
SOLID
  8
0
 62
     1
 10
3567.095223
 20
2080.851854
 11
3554.154271
 21
2080.851854
 12
3560.624747
 22
2105.000000
 13
3560.624747
 23
2105.000000
  0
ENDBLK
  0
BLOCK
  8
0
  2
G23
 70
     0
 10
0
 20
0
  0
LINE
  8
0
 62
     1
  6
CONTINUOUS
 10
3289.940390
 20
1921.227117
 11
3289.940390
 21
1846.227117
  0
SOLID
  8
0
 62
     1
 10
3296.410866
 20
1897.078971
 11
3283.469913
 21
1897.078971
 12
3289.940390
 22
1921.227117
 13
3289.940390
 23
1921.227117
  0
SOLID
  8
0
 62
     1
 10
3283.469913
 20
1870.375262
 11
3296.410866
 21
1870.375262
 12
3289.940390
 22
1846.227117
 13
3289.940390
 23
1846.227117
  0
LINE
  8
0
 62
     1
  6
CONTINUOUS
 10
3299.940390
 20
1921.227117
 11
2953.053530
 21
1921.227117
  0
LINE
  8
0
 62
     1
  6
CONTINUOUS
 10
3299.940390
 20
1846.227117
 11
3169.940390
 21
1846.227117
  0
TEXT
  8
0
 62
     1
 10
3284.607057
 20
1865.727117
 40
32.000000
 50
90.000000
 41
0.56 
  1
75
 72
     5
 11
3284.607057
 21
1901.727117
  0
ENDBLK
  0
BLOCK
  8
0
  2
G24
 70
     0
 10
0
 20
0
  0
LINE
  8
0
 62
     1
  6
CONTINUOUS
 10
3109.940390
 20
1593.727117
 11
3109.940390
 21
1596.227117
  0
LINE
  8
0
 62
     1
  6
CONTINUOUS
 10
3119.940390
 20
1593.727117
 11
3037.863476
 21
1593.727117
  0
TEXT
  8
0
 62
     1
 10
3104.607057
 20
1507.999037
 40
32.000000
 50
90.000000
 41
0.58 
  1
2.5
 72
     5
 11
3104.607057
 21
1563.999037
  0
LINE
  8
0
 62
     1
  6
CONTINUOUS
 10
3109.940390
 20
1593.727117
 11
3109.940390
 21
1503.144416
  0
SOLID
  8
0
 62
     1
 10
3116.410866
 20
1569.578971
 11
3103.469913
 21
1569.578971
 12
3109.940390
 22
1593.727117
 13
3109.940390
 23
1593.727117
  0
ENDBLK
  0
BLOCK
  8
0
  2
G25
 70
     0
 10
0
 20
0
  0
LINE
  8
0
 62
     7
  6
CONTINUOUS
 10
2777.863476
 20
2245.589268
 11
2777.863476
 21
2386.698815
  0
LINE
  8
0
 62
     7
  6
CONTINUOUS
 10
2872.863476
 20
2292.030428
 11
2872.863476
 21
2386.698815
  0
LINE
  8
0
 62
     7
  6
CONTINUOUS
 10
2777.863476
 20
2376.698815
 11
2872.863476
 21
2376.698815
  0
SOLID
  8
0
 62
     7
 10
2797.181992
 20
2381.875196
 11
2797.181992
 21
2371.522434
 12
2777.863476
 22
2376.698815
 13
2777.863476
 23
2376.698815
  0
SOLID
  8
0
 62
     7
 10
2853.544959
 20
2371.522434
 11
2853.544959
 21
2381.875196
 12
2872.863476
 22
2376.698815
 13
2872.863476
 23
2376.698815
  0
TEXT
  8
0
 62
     7
 10
2807.363476
 20
2382.032145
 40
32.000000
 50
0.000000E+00
 41
0.56 
  1
95
 72
     5
 11
2843.363476
 21
2382.032145
  0
ENDBLK
  0
BLOCK
  8
0
  2
G26
 70
     0
 10
0
 20
0
  0
LINE
  8
0
 62
     7
  6
CONTINUOUS
 10
2944.863476
 20
2268.589268
 11
3176.118163
 21
2268.589268
  0
LINE
  8
0
 62
     7
  6
CONTINUOUS
 10
3111.449998
 20
2173.589268
 11
3176.118163
 21
2173.589268
  0
LINE
  8
0
 62
     7
  6
CONTINUOUS
 10
3166.118163
 20
2268.589268
 11
3166.118163
 21
2173.589268
  0
SOLID
  8
0
 62
     7
 10
3171.294544
 20
2249.270752
 11
3160.941782
 21
2249.270752
 12
3166.118163
 22
2268.589268
 13
3166.118163
 23
2268.589268
  0
SOLID
  8
0
 62
     7
 10
3160.941782
 20
2192.907785
 11
3171.294544
 21
2192.907785
 12
3166.118163
 22
2173.589268
 13
3166.118163
 23
2173.589268
  0
TEXT
  8
0
 62
     7
 10
3160.784833
 20
2203.089268
 40
32.000000
 50
90.000000
 41
0.56 
  1
95
 72
     5
 11
3160.784833
 21
2239.089268
  0
ENDBLK
  0
BLOCK
  8
0
  2
G27
 70
     0
 10
0
 20
0
  0
LINE
  8
0
 62
     7
  6
CONTINUOUS
 10
2797.863476
 20
1931.227117
 11
2797.863476
 21
1974.751724
  0
LINE
  8
0
 62
     7
  6
CONTINUOUS
 10
2947.863476
 20
1931.227117
 11
2947.863476
 21
1974.751724
  0
LINE
  8
0
 62
     7
  6
CONTINUOUS
 10
2797.863476
 20
1964.751724
 11
2947.863476
 21
1964.751724
  0
SOLID
  8
0
 62
     7
 10
2817.181992
 20
1969.928105
 11
2817.181992
 21
1959.575343
 12
2797.863476
 22
1964.751724
 13
2797.863476
 23
1964.751724
  0
SOLID
  8
0
 62
     7
 10
2928.544959
 20
1959.575343
 11
2928.544959
 21
1969.928105
 12
2947.863476
 22
1964.751724
 13
2947.863476
 23
1964.751724
  0
TEXT
  8
0
 62
     7
 10
2814.863476
 20
1970.085054
 40
32.000000
 50
0.000000E+00
 41
0.60 
  1
%%c150
 72
     5
 11
2930.863476
 21
1970.085054
  0
ENDBLK
  0
BLOCK
  8
0
  2
G28
 70
     0
 10
0
 20
0
  0
LINE
  8
0
 62
     7
  6
CONTINUOUS
 10
2786.863476
 20
1751.986486
 11
2786.863476
 21
2036.948668
  0
LINE
  8
0
 62
     7
  6
CONTINUOUS
 10
2958.863476
 20
1741.986486
 11
2958.863476
 21
2036.948668
  0
LINE
  8
0
 62
     7
  6
CONTINUOUS
 10
2786.863476
 20
2026.948668
 11
2958.863476
 21
2026.948668
  0
SOLID
  8
0
 62
     7
 10
2806.181992
 20
2032.125048
 11
2806.181992
 21
2021.772287
 12
2786.863476
 22
2026.948668
 13
2786.863476
 23
2026.948668
  0
SOLID
  8
0
 62
     7
 10
2939.544959
 20
2021.772287
 11
2939.544959
 21
2032.125048
 12
2958.863476
 22
2026.948668
 13
2958.863476
 23
2026.948668
  0
TEXT
  8
0
 62
     7
 10
2814.863476
 20
2032.281997
 40
32.000000
 50
0.000000E+00
 41
0.60 
  1
%%c172
 72
     5
 11
2930.863476
 21
2032.281997
  0
ENDBLK
  0
BLOCK
  8
0
  2
G29
 70
     0
 10
0
 20
0
  0
LINE
  8
0
 62
     7
  6
CONTINUOUS
 10
2817.863476
 20
926.227117
 11
2817.863476
 21
851.592951
  0
LINE
  8
0
 62
     7
  6
CONTINUOUS
 10
2927.863476
 20
926.227117
 11
2927.863476
 21
851.592951
  0
LINE
  8
0
 62
     7
  6
CONTINUOUS
 10
2817.863476
 20
861.592951
 11
2927.863476
 21
861.592951
  0
SOLID
  8
0
 62
     7
 10
2837.181992
 20
866.769332
 11
2837.181992
 21
856.416570
 12
2817.863476
 22
861.592951
 13
2817.863476
 23
861.592951
  0
SOLID
  8
0
 62
     7
 10
2908.544959
 20
856.416570
 11
2908.544959
 21
866.769332
 12
2927.863476
 22
861.592951
 13
2927.863476
 23
861.592951
  0
TEXT
  8
0
 62
     7
 10
2814.863476
 20
866.926280
 40
32.000000
 50
0.000000E+00
 41
0.60 
  1
%%c110
 72
     5
 11
2930.863476
 21
866.926280
  0
ENDBLK
  0
BLOCK
  8
0
  2
G30
 70
     0
 10
0
 20
0
  0
LINE
  8
0
 62
     7
  6
CONTINUOUS
 10
2786.863476
 20
1190.099028
 11
2786.863476
 21
786.948668
  0
LINE
  8
0
 62
     7
  6
CONTINUOUS
 10
2958.863476
 20
1200.099028
 11
2958.863476
 21
786.948668
  0
LINE
  8
0
 62
     7
  6
CONTINUOUS
 10
2786.863476
 20
796.948668
 11
2958.863476
 21
796.948668
  0
SOLID
  8
0
 62
     7
 10
2806.181992
 20
802.125048
 11
2806.181992
 21
791.772287
 12
2786.863476
 22
796.948668
 13
2786.863476
 23
796.948668
  0
SOLID
  8
0
 62
     7
 10
2939.544959
 20
791.772287
 11
2939.544959
 21
802.125048
 12
2958.863476
 22
796.948668
 13
2958.863476
 23
796.948668
  0
TEXT
  8
0
 62
     7
 10
2814.863476
 20
802.281997
 40
32.000000
 50
0.000000E+00
 41
0.60 
  1
%%c172
 72
     5
 11
2930.863476
 21
802.281997
  0
ENDBLK
  0
ENDSEC
  0
SECTION
  2
ENTITIES
  0
LINE
  8
0
 62
     1
  6
CONTINUOUS
 10
3048.339644
 20
2173.589268
 11
3063.344340
 21
2173.589268
  0
LINE
  8
0
 62
     1
  6
CONTINUOUS
 10
3125.426602
 20
2173.589268
 11
3176.118163
 21
2173.589268
  0
POINT
  8
3
 62
     7
 10
2958.863476
 20
1416.227117
  0
POINT
  8
3
 62
     4
 10
2958.863476
 20
1294.227117
  0
LINE
  8
3
 62
     4
  6
CONTINUOUS
 10
2805.710101
 20
1401.227117
 11
2830.213740
 21
1401.227117
  0
LINE
  8
0
 62
     2
  6
CONTINUOUS
 10
2774.863476
 20
1451.728715
 11
2774.863476
 21
1453.728715
  0
LINE
  8
0
 62
     2
  6
CONTINUOUS
 10
2767.863476
 20
1454.728715
 11
2872.863476
 21
1454.728715
  0
LINE
  8
0
 62
     2
  6
CONTINUOUS
 10
2774.863476
 20
1451.728715
 11
2970.863476
 21
1451.728715
  0
LINE
  8
0
 62
     2
  6
CONTINUOUS
 10
2767.863476
 20
1454.728715
 11
2767.863476
 21
1462.728715
  0
LINE
  8
0
 62
     3
  6
CONTINUOUS
 10
2958.863476
 20
1721.227117
 11
2958.863476
 21
1731.986486
  0
LINE
  8
3
 62
     3
  6
CONTINUOUS
 10
2947.863476
 20
1916.227117
 11
2872.863476
 21
1916.227117
  0
LINE
  8
3
 62
     3
  6
CONTINUOUS
 10
2797.863476
 20
1921.227117
 11
2947.863476
 21
1921.227117
  0
LINE
  8
3
 62
     3
  6
CONTINUOUS
 10
2797.863476
 20
1921.227117
 11
2797.863476
 21
1916.227117
  0
LINE
  8
0
 62
     3
  6
CONTINUOUS
 10
2958.863476
 20
1591.227117
 11
2958.863476
 21
1469.728715
  0
ARC
  8
3
 62
     3
  6
CONTINUOUS
 10
2934.863476
 20
1844.227117
 40
10.000000
 50
302.527138
 51
360.000000
  0
LINE
  8
3
 62
     3
  6
CONTINUOUS
 10
2800.863476
 20
1911.644541
 11
2800.863476
 21
1844.227117
  0
LINE
  8
3
 62
     3
  6
CONTINUOUS
 10
2944.863476
 20
1911.644541
 11
2944.863476
 21
1844.227117
  0
ARC
  8
3
 62
     3
  6
CONTINUOUS
 10
2810.863476
 20
1844.227117
 40
10.000000
 50
180.000000
 51
238.038250
  0
LINE
  8
3
 62
     3
  6
CENTER
 10
3038.797182
 20
1656.227117
 11
2770.937527
 21
1656.227117
  0
LINE
  8
0
 62
     2
  6
CONTINUOUS
 10
2970.863476
 20
1469.728715
 11
2977.863476
 21
1462.728715
  0
ARC
  8
3
 62
     3
  6
CONTINUOUS
 10
2795.863476
 20
1911.644541
 40
5.000000
 50
360.000000
 51
426.421822
  0
LINE
  8
3
 62
     3
  6
CONTINUOUS
 10
2947.863476
 20
1921.227117
 11
2947.863476
 21
1916.227117
  0
ARC
  8
0
 62
     3
  6
CONTINUOUS
 10
2923.863476
 20
1731.986486
 40
35.000000
 50
0.000000E+00
 51
17.716492
  0
ARC
  8
3
 62
     3
  6
CONTINUOUS
 10
2949.863476
 20
1911.644541
 40
5.000000
 50
113.578178
 51
180.000000
  0
LINE
  8
3
 62
     3
  6
CONTINUOUS
 10
2950.602498
 20
1739.103002
 11
2872.863476
 21
1739.103002
  0
ARC
  8
3
 62
     4
  6
CONTINUOUS
 10
2792.863476
 20
1082.355205
 40
25.000000
 50
0.000000E+00
 51
14.708304
  0
LINE
  8
3
 62
     4
  6
CONTINUOUS
 10
2788.010392
 20
1201.212593
 11
2817.044250
 21
1088.702658
  0
ARC
  8
3
 62
     4
  6
CONTINUOUS
 10
2821.863476
 20
1210.099028
 40
35.000000
 50
180.000000
 51
194.708304
  0
LINE
  8
3
 62
     4
  6
CONTINUOUS
 10
2817.863476
 20
1082.355205
 11
2817.863476
 21
938.227117
  0
ARC
  8
3
 62
     4
  6
CONTINUOUS
 10
2952.863476
 20
1082.355205
 40
25.000000
 50
165.291696
 51
180.000000
  0
LINE
  8
3
 62
     4
  6
CONTINUOUS
 10
2957.716560
 20
1201.212593
 11
2928.682702
 21
1088.702658
  0
ARC
  8
3
 62
     4
  6
CONTINUOUS
 10
2923.863476
 20
1210.099028
 40
35.000000
 50
345.291696
 51
360.000000
  0
LINE
  8
3
 62
     4
  6
CONTINUOUS
 10
2927.863476
 20
1082.355205
 11
2927.863476
 21
938.227117
  0
LINE
  8
3
 62
     4
  6
CONTINUOUS
 10
2925.863476
 20
936.227117
 11
2819.863476
 21
936.227117
  0
LINE
  8
3
 62
     4
  6
CONTINUOUS
 10
2822.612565
 20
1086.227117
 11
2923.114387
 21
1086.227117
  0
LINE
  8
3
 62
     4
  6
CONTINUOUS
 10
2792.114387
 20
1206.227117
 11
2953.612565
 21
1206.227117
  0
LINE
  8
3
 62
     4
  6
CONTINUOUS
 10
2786.863476
 20
1206.227117
 11
2786.863476
 21
1291.227117
  0
LINE
  8
3
 62
     4
  6
CONTINUOUS
 10
2965.863476
 20
1426.926479
 11
2779.863476
 21
1426.926479
  0
LINE
  8
3
 62
     4
  6
CONTINUOUS
 10
2958.863476
 20
1210.099028
 11
2958.863476
 21
1426.926479
  0
LINE
  8
3
 62
     4
  6
CONTINUOUS
 10
2768.863476
 20
1436.227117
 11
2976.863476
 21
1436.227117
  0
LINE
  8
3
 62
     4
  6
CONTINUOUS
 10
2977.863476
 20
1451.227117
 11
2767.863476
 21
1451.227117
  0
ARC
  8
3
 62
     4
  6
CONTINUOUS
 10
2819.863476
 20
938.227117
 40
2.000000
 50
180.000000
 51
270.000000
  0
ARC
  8
3
 62
     4
  6
CONTINUOUS
 10
2925.863476
 20
938.227117
 40
2.000000
 50
270.000000
 51
360.000000
  0
LINE
  8
3
 62
     4
  6
CONTINUOUS
 10
2977.863476
 20
1451.227117
 11
2977.863476
 21
1436.227117
  0
LINE
  8
3
 62
     4
  6
CONTINUOUS
 10
2976.863476
 20
1436.227117
 11
2977.863476
 21
1436.227117
  0
LINE
  8
3
 62
     4
  6
CENTER
 10
2769.356192
 20
1356.227117
 11
2969.481707
 21
1356.227117
  0
LINE
  8
3
 62
     3
  6
CENTER
 10
2794.374623
 20
1427.283548
 11
2794.374623
 21
1457.774319
  0
LINE
  8
3
 62
     3
  6
CENTER
 10
2951.352329
 20
1427.283548
 11
2951.352329
 21
1457.774319
  0
ARC
  8
3
 62
     4
  6
CONTINUOUS
 10
2976.863476
 20
1434.227117
 40
2.000000
 50
90.000000
 51
180.000000
  0
LINE
  8
3
 62
     4
  6
CONTINUOUS
 10
2974.863476
 20
1434.227117
 11
2974.863476
 21
1432.727117
  0
LINE
  8
3
 62
     4
  6
CONTINUOUS
 10
2915.513212
 20
1401.227117
 11
2948.669666
 21
1401.227117
  0
ARC
  8
3
 62
     4
  6
CONTINUOUS
 10
2973.363476
 20
1432.727117
 40
1.500000
 50
270.000000
 51
360.000000
  0
LINE
  8
3
 62
     4
  6
CONTINUOUS
 10
2973.363476
 20
1431.227117
 11
2772.363476
 21
1431.227117
  0
LINE
  8
3
 62
     4
  6
CONTINUOUS
 10
2969.422624
 20
1431.227117
 11
2965.863476
 21
1426.926479
  0
LINE
  8
3
 62
     4
  6
CONTINUOUS
 10
2779.863476
 20
1426.926479
 11
2779.863476
 21
1418.227117
  0
LINE
  8
3
 62
     4
  6
CONTINUOUS
 10
2776.304328
 20
1431.227117
 11
2779.863476
 21
1426.926479
  0
ARC
  8
3
 62
     4
  6
CONTINUOUS
 10
2772.363476
 20
1432.727117
 40
1.500000
 50
180.000000
 51
270.000000
  0
LINE
  8
3
 62
     4
  6
CONTINUOUS
 10
2770.863476
 20
1434.227117
 11
2770.863476
 21
1432.727117
  0
ARC
  8
3
 62
     4
  6
CONTINUOUS
 10
2768.863476
 20
1434.227117
 40
2.000000
 50
0.000000E+00
 51
90.000000
  0
LINE
  8
3
 62
     4
  6
CONTINUOUS
 10
2768.863476
 20
1436.227117
 11
2767.863476
 21
1436.227117
  0
LINE
  8
3
 62
     4
  6
CONTINUOUS
 10
2767.863476
 20
1451.227117
 11
2767.863476
 21
1436.227117
  0
LINE
  8
0
 62
     3
  6
CONTINUOUS
 10
2786.863476
 20
1731.986486
 11
2786.863476
 21
1721.227117
  0
ARC
  8
0
 62
     3
  6
CONTINUOUS
 10
2821.863476
 20
1731.986486
 40
35.000000
 50
162.283508
 51
180.000000
  0
LINE
  8
3
 62
     3
  6
CONTINUOUS
 10
2933.833460
 20
1835.743100
 11
2872.863476
 21
1835.743100
  0
LINE
  8
0
 62
     3
  6
CONTINUOUS
 10
2812.110159
 20
1818.036132
 11
2788.523388
 21
1742.637240
  0
LINE
  8
0
 62
     3
  6
CONTINUOUS
 10
2933.616793
 20
1818.036132
 11
2957.203563
 21
1742.637240
  0
ARC
  8
2
 62
     3
  6
CONTINUOUS
 10
2797.821550
 20
1822.600741
 40
15.000000
 50
342.283508
 51
419.888987
  0
LINE
  8
3
 62
     4
  6
CENTER
 10
2872.863476
 20
1163.831738
 11
2872.863476
 21
1475.909326
  0
LINE
  8
3
 62
     4
  6
CENTER
 10
2872.863476
 20
923.139597
 11
2872.863476
 21
1163.831738
  0
LINE
  8
0
 62
     2
  6
CONTINUOUS
 10
2774.863476
 20
1469.728715
 11
2767.863476
 21
1462.728715
  0
LINE
  8
0
 62
     3
  6
CONTINUOUS
 10
2786.863476
 20
1591.227117
 11
2786.863476
 21
1469.728715
  0
ARC
  8
2
 62
     3
  6
CONTINUOUS
 10
2947.905401
 20
1822.600741
 40
15.000000
 50
120.111013
 51
197.716492
  0
INSERT
  8
0
  2
G0
 10
0
 20
0
  0
CIRCLE
  8
0
 62
     3
  6
CONTINUOUS
 10
2872.863476
 20
2173.589268
 40
86.000000
  0
INSERT
  8
0
  2
G1
 10
0
 20
0
  0
INSERT
  8
0
  2
G2
 10
0
 20
0
  0
LINE
  8
0
 62
     7
  6
CONTINUOUS
 10
3020.343034
 20
1762.311644
 11
3020.343034
 21
1720.527305
  0
SOLID
  8
0
 62
     7
 10
3012.578462
 20
1749.505080
 11
3028.107605
 21
1749.505080
 12
3020.343034
 22
1720.527305
 13
3020.343034
 23
1720.527305
  0
INSERT
  8
0
  2
G3
 10
0
 20
0
  0
ARC
  8
0
 62
     3
  6
CONTINUOUS
 10
2812.863476
 20
2266.589268
 40
2.000000
 50
90.000000
 51
180.000000
  0
LINE
  8
0
 62
     3
  6
CONTINUOUS
 10
2810.863476
 20
2266.589268
 11
2810.863476
 21
2238.589268
  0
ARC
  8
0
 62
     3
  6
CONTINUOUS
 10
2932.863476
 20
2266.589268
 40
2.000000
 50
0.000000E+00
 51
90.000000
  0
LINE
  8
0
 62
     3
  6
CONTINUOUS
 10
2934.863476
 20
2266.589268
 11
2934.863476
 21
2238.589268
  0
LINE
  8
0
 62
     3
  6
CONTINUOUS
 10
2932.863476
 20
2268.589268
 11
2812.863476
 21
2268.589268
  0
ARC
  8
0
 62
     3
  6
CONTINUOUS
 10
2779.863476
 20
2233.589268
 40
2.000000
 50
90.000000
 51
180.000000
  0
INSERT
  8
0
  2
G4
 10
0
 20
0
  0
LINE
  8
3
 62
     3
  6
CONTINUOUS
 10
2956.677172
 20
1715.980203
 11
2953.115879
 21
1714.525073
  0
LINE
  8
3
 62
     3
  6
CONTINUOUS
 10
2953.115879
 20
1714.525073
 11
2949.680835
 21
1711.795239
  0
LINE
  8
3
 62
     3
  6
CONTINUOUS
 10
2949.680835
 20
1711.795239
 11
2946.447149
 21
1707.850390
  0
LINE
  8
3
 62
     3
  6
CONTINUOUS
 10
2946.447149
 20
1707.850390
 11
2943.485527
 21
1702.776782
  0
LINE
  8
3
 62
     3
  6
CONTINUOUS
 10
2943.485527
 20
1702.776782
 11
2940.860725
 21
1696.685350
  0
LINE
  8
3
 62
     3
  6
CONTINUOUS
 10
2940.860725
 20
1696.685350
 11
2938.630135
 21
1689.709286
  0
LINE
  8
3
 62
     3
  6
CONTINUOUS
 10
2938.630135
 20
1689.709286
 11
2936.842530
 21
1682.001123
  0
LINE
  8
3
 62
     3
  6
CONTINUOUS
 10
2936.842530
 20
1682.001123
 11
2935.536996
 21
1673.729404
  0
LINE
  8
3
 62
     3
  6
CONTINUOUS
 10
2935.536996
 20
1673.729404
 11
2934.742081
 21
1665.074991
  0
LINE
  8
3
 62
     3
  6
CONTINUOUS
 10
2934.742081
 20
1665.074991
 11
2934.475163
 21
1656.227117
  0
LINE
  8
3
 62
     3
  6
CONTINUOUS
 10
2934.742081
 20
1665.074991
 11
2934.475163
 21
1656.227117
  0
LINE
  8
3
 62
     3
  6
CONTINUOUS
 10
2934.475163
 20
1656.227117
 11
2934.796231
 21
1646.528564
  0
LINE
  8
3
 62
     3
  6
CONTINUOUS
 10
2934.796231
 20
1646.528564
 11
2935.750992
 21
1637.085095
  0
LINE
  8
3
 62
     3
  6
CONTINUOUS
 10
2935.750992
 20
1637.085095
 11
2937.314333
 21
1628.145085
  0
LINE
  8
3
 62
     3
  6
CONTINUOUS
 10
2937.314333
 20
1628.145085
 11
2939.445136
 21
1619.943668
  0
LINE
  8
3
 62
     3
  6
CONTINUOUS
 10
2939.445136
 20
1619.943668
 11
2942.087360
 21
1612.696551
  0
LINE
  8
3
 62
     3
  6
CONTINUOUS
 10
2942.087360
 20
1612.696551
 11
2945.171510
 21
1606.594342
  0
LINE
  8
3
 62
     3
  6
CONTINUOUS
 10
2945.171510
 20
1606.594342
 11
2948.616470
 21
1601.797538
  0
LINE
  8
3
 62
     3
  6
CONTINUOUS
 10
2948.616470
 20
1601.797538
 11
2952.331631
 21
1598.432300
  0
LINE
  8
3
 62
     3
  6
CONTINUOUS
 10
2952.331631
 20
1598.432300
 11
2956.219282
 21
1596.587137
  0
LINE
  8
3
 62
     3
  6
CONTINUOUS
 10
2952.331631
 20
1598.432300
 11
2956.219282
 21
1596.587137
  0
LINE
  8
3
 62
     4
  6
CONTINUOUS
 10
2790.063888
 20
1296.717316
 11
2793.468610
 21
1298.343896
  0
LINE
  8
3
 62
     4
  6
CONTINUOUS
 10
2793.468610
 20
1298.343896
 11
2796.746830
 21
1301.079067
  0
LINE
  8
3
 62
     4
  6
CONTINUOUS
 10
2796.746830
 20
1301.079067
 11
2799.835762
 21
1304.870446
  0
LINE
  8
3
 62
     4
  6
CONTINUOUS
 10
2799.835762
 20
1304.870446
 11
2802.676246
 21
1309.645417
  0
LINE
  8
3
 62
     4
  6
CONTINUOUS
 10
2802.676246
 20
1309.645417
 11
2805.213881
 21
1315.312531
  0
LINE
  8
3
 62
     4
  6
CONTINUOUS
 10
2805.213881
 20
1315.312531
 11
2807.400065
 21
1321.763250
  0
LINE
  8
3
 62
     4
  6
CONTINUOUS
 10
2807.400065
 20
1321.763250
 11
2809.192928
 21
1328.874027
  0
LINE
  8
3
 62
     4
  6
CONTINUOUS
 10
2809.192928
 20
1328.874027
 11
2810.558132
 21
1336.508677
  0
LINE
  8
3
 62
     4
  6
CONTINUOUS
 10
2810.558132
 20
1336.508677
 11
2811.469532
 21
1344.520978
  0
LINE
  8
3
 62
     4
  6
CONTINUOUS
 10
2810.558132
 20
1336.508677
 11
2811.469532
 21
1344.520978
  0
INSERT
  8
0
  2
G5
 10
0
 20
0
  0
TEXT
  8
0
 62
     3
 10
3713.544257
 20
1659.666570
 40
32.000000
 50
0.000000E+00
 41
0.87 
  1
Ｃ矢視　（下部）
 72
     5
 11
3969.544257
 21
1659.666570
  0
LINE
  8
0
 62
     3
  6
CONTINUOUS
 10
3709.544257
 20
1654.333237
 11
3963.448391
 21
1654.333237
  0
TEXT
  8
0
 62
     7
 10
2986.717552
 20
1770.373582
 40
32.000000
 50
0.000000E+00
 41
0.78 
  1
７５枝管
 72
     5
 11
3098.717552
 21
1770.373582
  0
LINE
  8
3
 62
     4
  6
CONTINUOUS
 10
2811.469532
 20
1367.933255
 11
2811.085445
 21
1371.857217
  0
LINE
  8
3
 62
     4
  6
CONTINUOUS
 10
2811.085445
 20
1371.857217
 11
2810.592081
 21
1375.710664
  0
LINE
  8
3
 62
     4
  6
CONTINUOUS
 10
2810.592081
 20
1375.710664
 11
2809.991667
 21
1379.476211
  0
LINE
  8
3
 62
     4
  6
CONTINUOUS
 10
2809.991667
 20
1379.476211
 11
2809.286910
 21
1383.136872
  0
LINE
  8
3
 62
     4
  6
CONTINUOUS
 10
2809.286910
 20
1383.136872
 11
2808.480992
 21
1386.676130
  0
LINE
  8
3
 62
     4
  6
CONTINUOUS
 10
2808.480992
 20
1386.676130
 11
2807.577547
 21
1390.078019
  0
LINE
  8
3
 62
     4
  6
CONTINUOUS
 10
2807.577547
 20
1390.078019
 11
2806.580651
 21
1393.327191
  0
LINE
  8
3
 62
     4
  6
CONTINUOUS
 10
2806.580651
 20
1393.327191
 11
2805.494802
 21
1396.408988
  0
LINE
  8
3
 62
     4
  6
CONTINUOUS
 10
2805.494802
 20
1396.408988
 11
2804.324899
 21
1399.309505
  0
LINE
  8
3
 62
     4
  6
CONTINUOUS
 10
2805.494802
 20
1396.408988
 11
2804.324899
 21
1399.309505
  0
ARC
  8
3
 62
     4
  6
CONTINUOUS
 10
2812.735293
 20
1428.175616
 40
28.500781
 50
225.057601
 51
244.512889
  0
POINT
  8
3
 62
     7
 10
2786.863476
 20
1416.227117
  0
ARC
  8
1
 62
     4
  6
CONTINUOUS
 10
2779.863476
 20
1296.227117
 40
2.000000
 50
180.000000
 51
270.000000
  0
ARC
  8
1
 62
     4
  6
CONTINUOUS
 10
2779.863476
 20
1416.227117
 40
2.000000
 50
90.000000
 51
180.000000
  0
ARC
  8
1
 62
     4
  6
CONTINUOUS
 10
2783.863476
 20
1291.227117
 40
3.000000
 50
0.000000E+00
 51
90.000000
  0
LINE
  8
1
 62
     4
  6
CONTINUOUS
 10
2783.863476
 20
1294.227117
 11
2779.863476
 21
1294.227117
  0
ARC
  8
1
 62
     4
  6
CONTINUOUS
 10
2767.062159
 20
1390.987309
 40
30.639745
 50
33.671563
 51
62.448001
  0
LINE
  8
1
 62
     4
  6
CONTINUOUS
 10
2777.863476
 20
1416.227117
 11
2777.863476
 21
1296.227117
  0
POINT
  8
0
 62
     3
 10
2872.863476
 20
1443.227117
  0
POINT
  8
0
 62
     3
 10
2872.863476
 20
1428.727117
  0
POINT
  8
0
 62
     3
 10
2872.863476
 20
1406.227117
  0
ARC
  8
0
 62
     2
  6
CONTINUOUS
 10
2773.863476
 20
1453.728715
 40
1.000000
 50
360.000000
 51
450.000000
  0
LINE
  8
0
 62
     2
  6
CONTINUOUS
 10
2774.863476
 20
1469.728715
 11
2970.863476
 21
1469.728715
  0
LINE
  8
3
 62
     3
  6
CONTINUOUS
 10
3027.863476
 20
1593.727117
 11
3027.863476
 21
1716.227117
  0
LINE
  8
3
 62
     3
  6
CONTINUOUS
 10
3027.863476
 20
1593.727117
 11
3032.863476
 21
1593.727117
  0
LINE
  8
3
 62
     3
  6
CONTINUOUS
 10
3027.863476
 20
1716.227117
 11
2967.863476
 21
1716.227117
  0
ARC
  8
1
 62
     3
  6
CONTINUOUS
 10
2965.863476
 20
1596.227117
 40
2.000000
 50
270.000000
 51
360.000000
  0
LINE
  8
3
 62
     3
  6
CONTINUOUS
 10
3027.863476
 20
1596.227117
 11
2967.863476
 21
1596.227117
  0
LINE
  8
3
 62
     3
  6
CONTINUOUS
 10
3027.863476
 20
1718.727117
 11
3032.863476
 21
1718.727117
  0
LINE
  8
3
 62
     3
  6
CONTINUOUS
 10
3027.863476
 20
1718.727117
 11
3027.863476
 21
1716.227117
  0
LINE
  8
3
 62
     3
  6
CONTINUOUS
 10
3032.863476
 20
1718.727117
 11
3032.863476
 21
1593.727117
  0
LINE
  8
1
 62
     3
  6
CONTINUOUS
 10
2965.863476
 20
1718.227117
 11
2961.863476
 21
1718.227117
  0
LINE
  8
1
 62
     3
  6
CONTINUOUS
 10
2965.863476
 20
1594.227117
 11
2961.863476
 21
1594.227117
  0
ARC
  8
1
 62
     3
  6
CONTINUOUS
 10
2965.863476
 20
1716.227117
 40
2.000000
 50
0.000000E+00
 51
90.000000
  0
ARC
  8
1
 62
     3
  6
CONTINUOUS
 10
2961.863476
 20
1721.227117
 40
3.000000
 50
180.000000
 51
270.000000
  0
ARC
  8
1
 62
     3
  6
CONTINUOUS
 10
2961.863476
 20
1591.227117
 40
3.000000
 50
90.000000
 51
180.000000
  0
ARC
  8
0
 62
     3
  6
CONTINUOUS
 10
2923.863476
 20
1731.986486
 40
35.000000
 50
0.000000E+00
 51
17.716492
  0
LINE
  8
0
 62
     3
  6
CONTINUOUS
 10
2958.863476
 20
1731.986486
 11
2958.863476
 21
1721.227117
  0
LINE
  8
0
 62
     2
  6
CONTINUOUS
 10
2767.863476
 20
1462.728715
 11
2872.863476
 21
1462.728715
  0
LINE
  8
3
 62
     3
  6
CENTER
 10
2872.863476
 20
1928.701565
 11
2872.863476
 21
1475.909326
  0
LINE
  8
3
 62
     3
  6
CONTINUOUS
 10
2795.124453
 20
1739.103002
 11
2872.863476
 21
1739.103002
  0
LINE
  8
3
 62
     3
  6
CONTINUOUS
 10
2811.893492
 20
1835.743100
 11
2872.863476
 21
1835.743100
  0
LINE
  8
3
 62
     3
  6
CONTINUOUS
 10
2797.863476
 20
1916.227117
 11
2872.863476
 21
1916.227117
  0
POINT
  8
0
 62
     3
 10
2872.863476
 20
1846.227117
  0
INSERT
  8
0
  2
G6
 10
0
 20
0
  0
TEXT
  8
0
 62
     6
 10
2536.833607
 20
2563.812443
 40
35.000000
 50
0.000000E+00
 41
0.81 
  1
４ＳＦ－　　　－　　　　０　　００－Ｐ
 72
     5
 11
3152.333607
 21
2563.812443
  0
INSERT
  8
0
  2
G7
 10
0
 20
0
  0
INSERT
  8
0
  2
G8
 10
0
 20
0
  0
INSERT
  8
0
  2
G9
 10
0
 20
0
  0
LINE
  8
0
 62
     2
  6
CONTINUOUS
 10
2977.863476
 20
1454.728715
 11
2977.863476
 21
1462.728715
  0
LINE
  8
0
 62
     2
  6
CONTINUOUS
 10
2970.863476
 20
1451.728715
 11
2970.863476
 21
1453.728715
  0
ARC
  8
0
 62
     2
  6
CONTINUOUS
 10
2971.863476
 20
1453.728715
 40
1.000000
 50
90.000000
 51
180.000000
  0
LINE
  8
0
 62
     2
  6
CONTINUOUS
 10
2977.863476
 20
1462.728715
 11
2872.863476
 21
1462.728715
  0
LINE
  8
0
 62
     2
  6
CONTINUOUS
 10
2977.863476
 20
1454.728715
 11
2872.863476
 21
1454.728715
  0
INSERT
  8
0
  2
G10
 10
0
 20
0
  0
INSERT
  8
0
  2
G11
 10
0
 20
0
  0
INSERT
  8
0
  2
G12
 10
0
 20
0
  0
LINE
  8
0
 62
     3
  6
CONTINUOUS
 10
2779.863476
 20
2235.589268
 11
2807.863476
 21
2235.589268
  0
ARC
  8
0
 62
     3
  6
CONTINUOUS
 10
2779.863476
 20
2113.589268
 40
2.000000
 50
180.000000
 51
270.000000
  0
LINE
  8
0
 62
     3
  6
CONTINUOUS
 10
2779.863476
 20
2111.589268
 11
2812.545568
 21
2111.589268
  0
LINE
  8
0
 62
     3
  6
CONTINUOUS
 10
2777.863476
 20
2113.589268
 11
2777.863476
 21
2233.589268
  0
ARC
  8
0
 62
     3
  6
CONTINUOUS
 10
2937.863476
 20
2238.589268
 40
3.000000
 50
180.000000
 51
270.000000
  0
ARC
  8
0
 62
     3
  6
CONTINUOUS
 10
2807.863476
 20
2238.589268
 40
3.000000
 50
270.000000
 51
360.000000
  0
CIRCLE
  8
0
 62
     3
  6
CONTINUOUS
 10
2872.863476
 20
2173.589268
 40
67.000000
  0
CIRCLE
  8
0
 62
     3
  6
CONTINUOUS
 10
2872.863476
 20
2173.589268
 40
52.000000
  0
ARC
  8
0
 62
     3
  6
CONTINUOUS
 10
2965.863476
 20
2113.589268
 40
2.000000
 50
270.000000
 51
360.000000
  0
LINE
  8
0
 62
     3
  6
CONTINUOUS
 10
2965.863476
 20
2111.589268
 11
2933.181384
 21
2111.589268
  0
ARC
  8
0
 62
     3
  6
CONTINUOUS
 10
2965.863476
 20
2233.589268
 40
2.000000
 50
0.000000E+00
 51
90.000000
  0
LINE
  8
0
 62
     3
  6
CONTINUOUS
 10
2965.863476
 20
2235.589268
 11
2937.863476
 21
2235.589268
  0
LINE
  8
0
 62
     3
  6
CONTINUOUS
 10
2967.863476
 20
2233.589268
 11
2967.863476
 21
2113.589268
  0
LINE
  8
3
 62
     3
  6
CONTINUOUS
 10
3027.863476
 20
2113.589268
 11
2967.863476
 21
2113.589268
  0
LINE
  8
3
 62
     3
  6
CONTINUOUS
 10
3032.863476
 20
2236.089268
 11
3032.863476
 21
2111.089268
  0
LINE
  8
3
 62
     3
  6
CONTINUOUS
 10
3027.863476
 20
2236.089268
 11
3027.863476
 21
2233.589268
  0
LINE
  8
3
 62
     3
  6
CONTINUOUS
 10
3027.863476
 20
2236.089268
 11
3032.863476
 21
2236.089268
  0
LINE
  8
3
 62
     3
  6
CONTINUOUS
 10
3027.863476
 20
2111.089268
 11
3032.863476
 21
2111.089268
  0
LINE
  8
3
 62
     3
  6
CONTINUOUS
 10
3027.863476
 20
2111.089268
 11
3027.863476
 21
2233.589268
  0
LINE
  8
3
 62
     3
  6
CONTINUOUS
 10
3027.863476
 20
2233.589268
 11
2967.863476
 21
2233.589268
  0
CIRCLE
  8
0
 62
     3
  6
CONTINUOUS
 10
2872.863476
 20
2173.589268
 40
75.000000
  0
LINE
  8
3
 62
     3
  6
CENTER
 10
3038.339644
 20
2173.589268
 11
2766.670152
 21
2173.589268
  0
LINE
  8
3
 62
     3
  6
CENTER
 10
2872.863476
 20
2272.030428
 11
2872.863476
 21
2071.490816
  0
INSERT
  8
0
  2
G13
 10
0
 20
0
  0
INSERT
  8
0
  2
G14
 10
0
 20
0
  0
LINE
  8
0
 62
     1
  6
CONTINUOUS
 10
3869.094468
 20
1904.682081
 11
3776.500000
 21
1904.682081
  0
LINE
  8
0
 62
     1
  6
CONTINUOUS
 10
3784.610173
 20
2094.752309
 11
3740.977253
 21
2138.385229
  0
LINE
  8
0
 62
     1
  6
CONTINUOUS
 10
3694.138357
 20
2185.224125
 11
3644.084892
 21
2235.277589
  0
ARC
  8
0
 62
     4
  6
CONTINUOUS
 10
3704.000000
 20
2000.000000
 40
100.000000
 50
306.038338
 51
323.961662
  0
LINE
  8
3
 62
     4
  6
CONTINUOUS
 10
3766.500000
 20
1840.000000
 11
3641.500000
 21
1840.000000
  0
LINE
  8
3
 62
     4
  6
CONTINUOUS
 10
3766.500000
 20
1845.000000
 11
3766.500000
 21
1840.000000
  0
LINE
  8
3
 62
     4
  6
CONTINUOUS
 10
3641.500000
 20
1845.000000
 11
3641.500000
 21
1840.000000
  0
LINE
  8
3
 62
     4
  6
CONTINUOUS
 10
3641.500000
 20
1845.000000
 11
3766.500000
 21
1845.000000
  0
LINE
  8
3
 62
     4
  6
CONTINUOUS
 10
3764.000000
 20
1845.000000
 11
3764.000000
 21
1904.682081
  0
LINE
  8
3
 62
     4
  6
CONTINUOUS
 10
3644.000000
 20
1845.000000
 11
3644.000000
 21
1904.682081
  0
ARC
  8
3
 62
     3
  6
CONTINUOUS
 10
3704.000000
 20
2000.000000
 40
105.000000
 50
259.021382
 51
279.903199
  0
ARC
  8
0
 62
     4
  6
CONTINUOUS
 10
3704.000000
 20
2000.000000
 40
100.000000
 50
36.038338
 51
53.961662
  0
ARC
  8
0
 62
     4
  6
CONTINUOUS
 10
3704.000000
 20
2000.000000
 40
100.000000
 50
126.038338
 51
143.961662
  0
CIRCLE
  8
3
 62
     4
  6
CONTINUOUS
 10
3704.000000
 20
2000.000000
 40
88.000000
  0
INSERT
  8
0
  2
G15
 10
0
 20
0
  0
LINE
  8
0
 62
     1
  6
CONTINUOUS
 10
3520.290084
 20
2008.347435
 11
3468.722411
 21
2059.915108
  0
LINE
  8
0
 62
     1
  6
CONTINUOUS
 10
3609.247691
 20
1919.389827
 11
3565.781098
 21
1962.856421
  0
ARC
  8
3
 62
     4
  6
CONTINUOUS
 10
3704.000000
 20
2000.000000
 40
100.000000
 50
233.109614
 51
306.890386
  0
LINE
  8
3
 62
     4
  6
CONTINUOUS
 10
3784.964607
 20
1908.749069
 11
3722.061853
 21
1896.546372
  0
ARC
  8
3
 62
     3
  6
CONTINUOUS
 10
3704.000000
 20
2000.000000
 40
105.000000
 50
80.096801
 51
100.978618
  0
ARC
  8
3
 62
     3
  6
CONTINUOUS
 10
3704.000000
 20
2000.000000
 40
105.000000
 50
170.096801
 51
189.903199
  0
LINE
  8
3
 62
     4
  6
CONTINUOUS
 10
3623.035393
 20
1908.749069
 11
3685.938147
 21
1896.546372
  0
LINE
  8
3
 62
     3
  6
CENTER
 10
3635.288243
 20
2068.711757
 11
3614.607067
 21
2089.392933
  0
LINE
  8
3
 62
     4
  6
CONTINUOUS
 10
3612.749069
 20
1919.035393
 11
3600.546372
 21
1981.938147
  0
ARC
  8
3
 62
     4
  6
CENTER
 10
3704.000000
 20
2000.000000
 40
111.000000
 50
127.724288
 51
143.734984
  0
LINE
  8
3
 62
     3
  6
CENTER
 10
3636.362469
 20
1932.362469
 11
3613.850513
 21
1909.850513
  0
ARC
  8
3
 62
     4
  6
CENTER
 10
3704.000000
 20
2000.000000
 40
111.000000
 50
215.817615
 51
233.930525
  0
ARC
  8
3
 62
     4
  6
CENTER
 10
3704.000000
 20
2000.000000
 40
111.000000
 50
305.029921
 51
325.550885
  0
LINE
  8
3
 62
     4
  6
CONTINUOUS
 10
3612.749069
 20
2080.964607
 11
3600.546372
 21
2018.061853
  0
LINE
  8
3
 62
     4
  6
CONTINUOUS
 10
3807.078324
 20
1980.003522
 11
3795.250931
 21
1919.035393
  0
LINE
  8
3
 62
     3
  6
CENTER
 10
3771.991228
 20
1932.008772
 11
3793.941928
 21
1910.058072
  0
LINE
  8
3
 62
     4
  6
CONTINUOUS
 10
3623.035393
 20
2091.250931
 11
3684.003522
 21
2103.078324
  0
ARC
  8
3
 62
     4
  6
CONTINUOUS
 10
3625.511147
 20
2078.488853
 40
13.000000
 50
100.978618
 51
169.021382
  0
ARC
  8
3
 62
     4
  6
CONTINUOUS
 10
3625.511147
 20
1921.511147
 40
13.000000
 50
190.978618
 51
259.021382
  0
ARC
  8
3
 62
     4
  6
CONTINUOUS
 10
3782.488853
 20
1921.511147
 40
13.000000
 50
280.978618
 51
349.021382
  0
LINE
  8
3
 62
     3
  6
CENTER
 10
3771.985865
 20
2067.985865
 11
3793.726559
 21
2089.726559
  0
LINE
  8
3
 62
     4
  6
CONTINUOUS
 10
3784.964607
 20
2091.250931
 11
3722.061853
 21
2103.453628
  0
LINE
  8
3
 62
     4
  6
CONTINUOUS
 10
3795.250931
 20
2080.964607
 11
3807.078324
 21
2019.996478
  0
ARC
  8
3
 62
     3
  6
CONTINUOUS
 10
3704.000000
 20
2000.000000
 40
105.000000
 50
349.021382
 51
370.978618
  0
CIRCLE
  8
3
 62
     3
  6
CONTINUOUS
 10
3704.000000
 20
2000.000000
 40
81.000000
  0
ARC
  8
3
 62
     4
  6
CONTINUOUS
 10
3782.488853
 20
2078.488853
 40
13.000000
 50
10.978618
 51
79.021382
  0
LINE
  8
3
 62
     3
  6
CENTER
 10
3704.000000
 20
1834.523832
 11
3704.000000
 21
2117.250050
  0
LINE
  8
3
 62
     3
  6
CENTER
 10
3812.997250
 20
2000.000000
 11
3587.580925
 21
2000.000000
  0
CIRCLE
  8
3
 62
     4
  6
CONTINUOUS
 10
3782.488853
 20
1921.511147
 40
7.000000
  0
CIRCLE
  8
3
 62
     4
  6
CONTINUOUS
 10
3782.488853
 20
2078.488853
 40
7.000000
  0
CIRCLE
  8
3
 62
     4
  6
CONTINUOUS
 10
3625.511147
 20
2078.488853
 40
7.000000
  0
CIRCLE
  8
3
 62
     4
  6
CONTINUOUS
 10
3625.511147
 20
1921.511147
 40
7.000000
  0
ARC
  8
3
 62
     4
  6
CENTER
 10
3704.000000
 20
2000.000000
 40
111.000000
 50
34.510429
 51
52.981003
  0
ARC
  8
3
 62
     4
  6
CONTINUOUS
 10
3704.000000
 20
2000.000000
 40
100.000000
 50
323.109614
 51
396.890386
  0
ARC
  8
3
 62
     4
  6
CONTINUOUS
 10
3704.000000
 20
2000.000000
 40
100.000000
 50
53.109614
 51
126.890386
  0
ARC
  8
3
 62
     4
  6
CONTINUOUS
 10
3704.000000
 20
2000.000000
 40
100.000000
 50
143.109614
 51
216.890386
  0
ARC
  8
0
 62
     4
  6
CONTINUOUS
 10
3704.000000
 20
2000.000000
 40
100.000000
 50
216.038338
 51
233.961662
  0
INSERT
  8
0
  2
G16
 10
0
 20
0
  0
TEXT
  8
0
 62
     6
 10
2719.816479
 20
2563.910129
 40
35.000000
 50
0.000000E+00
 41
0.86 
  1
Ａ
 72
     5
 11
2754.816479
 21
2563.910129
  0
TEXT
  8
0
 62
     6
 10
2840.490420
 20
2564.910129
 40
35.000000
 50
0.000000E+00
 41
0.86 
  1
Ａ
 72
     5
 11
2875.490420
 21
2564.910129
  0
TEXT
  8
0
 62
     6
 10
2809.990420
 20
2629.959535
 40
32.000000
 50
0.000000E+00
 41
0.97 
  1
下部
 72
     5
 11
2881.990420
 21
2629.959535
  0
TEXT
  8
0
 62
     6
 10
2689.990420
 20
2629.959535
 40
32.000000
 50
0.000000E+00
 41
0.97 
  1
上部
 72
     5
 11
2761.990420
 21
2629.959535
  0
INSERT
  8
0
  2
G17
 10
0
 20
0
  0
INSERT
  8
0
  2
G18
 10
0
 20
0
  0
INSERT
  8
0
  2
G19
 10
0
 20
0
  0
LINE
  8
0
 62
     3
  6
CONTINUOUS
 10
3272.022257
 20
1923.559991
 11
3272.022257
 21
1986.397829
  0
SOLID
  8
0
 62
     3
 10
3264.257685
 20
1952.537766
 11
3279.786828
 21
1952.537766
 12
3272.022257
 22
1923.559991
 13
3272.022257
 23
1923.559991
  0
TEXT
  8
0
 62
     6
 10
3177.087629
 20
2583.485825
 40
35.000000
 50
0.000000E+00
 41
0.60 
  1
240,260,280
 72
     5
 11
3409.587629
 21
2583.485825
  0
TEXT
  8
0
 62
     6
 10
3178.948131
 20
2541.370812
 40
35.000000
 50
0.000000E+00
 41
0.60 
  1
300,340,360
 72
     5
 11
3411.448131
 21
2541.370812
  0
TEXT
  8
0
 62
     6
 10
2947.066195
 20
2663.926093
 40
32.000000
 50
0.000000E+00
 41
0.86 
  1
ａ
 72
     5
 11
2979.066195
 21
2663.926093
  0
CIRCLE
  8
0
 62
     6
  6
HIDDEN
 10
2963.252571
 20
2532.940231
 40
20.000000
  0
TEXT
  8
0
 62
     6
 10
2955.252571
 20
2516.940231
 40
32.000000
 50
0.000000E+00
 41
0.50 
  1
3
 72
     5
 11
2971.252571
 21
2516.940231
  0
CIRCLE
  8
0
 62
     6
  6
HIDDEN
 10
2963.252571
 20
2580.298843
 40
20.000000
  0
TEXT
  8
0
 62
     6
 10
2955.252571
 20
2564.298843
 40
32.000000
 50
0.000000E+00
 41
0.50 
  1
2
 72
     5
 11
2971.252571
 21
2564.298843
  0
CIRCLE
  8
0
 62
     6
  6
HIDDEN
 10
2963.252571
 20
2628.332262
 40
20.000000
  0
TEXT
  8
0
 62
     6
 10
2955.252571
 20
2612.332262
 40
32.000000
 50
0.000000E+00
 41
0.50 
  1
1
 72
     5
 11
2971.252571
 21
2612.332262
  0
TEXT
  8
0
 62
     6
 10
3698.206339
 20
2461.134541
 40
32.000000
 50
0.000000E+00
 41
0.50 
  1
3
 72
     5
 11
3714.206339
 21
2461.134541
  0
TEXT
  8
0
 62
     6
 10
3698.206339
 20
2521.134541
 40
32.000000
 50
0.000000E+00
 41
0.50 
  1
2
 72
     5
 11
3714.206339
 21
2521.134541
  0
TEXT
  8
0
 62
     6
 10
3698.206339
 20
2581.134541
 40
32.000000
 50
0.000000E+00
 41
0.50 
  1
1
 72
     5
 11
3714.206339
 21
2581.134541
  0
TEXT
  8
0
 62
     6
 10
3729.294308
 20
2464.530401
 40
32.000000
 50
0.000000E+00
 41
0.74 
  1
：％％ｃ７５枝管
 72
     5
 11
3941.294308
 21
2464.530401
  0
TEXT
  8
0
 62
     6
 10
3729.294308
 20
2524.530401
 40
32.000000
 50
0.000000E+00
 41
0.74 
  1
：％％ｃ６５枝管
 72
     5
 11
3941.294308
 21
2524.530401
  0
TEXT
  8
0
 62
     6
 10
3729.294308
 20
2584.530401
 40
32.000000
 50
0.000000E+00
 41
0.74 
  1
：％％ｃ５０枝管
 72
     5
 11
3941.294308
 21
2584.530401
  0
TEXT
  8
0
 62
     6
 10
3631.418499
 20
2637.505821
 40
32.000000
 50
0.000000E+00
 41
0.97 
  1
枝管のタイプ（呼び径）
 72
     5
 11
4027.418499
 21
2637.505821
  0
LINE
  8
0
 62
     4
  6
CONTINUOUS
 10
2890.363476
 20
1296.227117
 11
2855.363476
 21
1296.227117
  0
POINT
  8
0
 62
     4
 10
2872.863476
 20
1406.227117
  0
CIRCLE
  8
0
 62
     4
  6
CONTINUOUS
 10
2872.863476
 20
1356.227117
 40
40.000000
  0
CIRCLE
  8
0
 62
     4
  6
CONTINUOUS
 10
2872.863476
 20
1356.227117
 40
54.000000
  0
CIRCLE
  8
0
 62
     4
  6
CONTINUOUS
 10
2872.863476
 20
1356.227117
 40
62.500000
  0
POINT
  8
0
 62
     4
 10
2872.863476
 20
1356.227117
  0
INSERT
  8
0
  2
G20
 10
0
 20
0
  0
LINE
  8
0
 62
     3
  6
CONTINUOUS
 10
3838.313580
 20
1836.948813
 11
3838.313580
 21
1760.192056
  0
SOLID
  8
0
 62
     3
 10
3846.078151
 20
1807.971038
 11
3830.549009
 21
1807.971038
 12
3838.313580
 22
1836.948813
 13
3838.313580
 23
1836.948813
  0
TEXT
  8
0
 62
     3
 10
3821.300066
 20
1726.286651
 40
32.000000
 50
0.000000E+00
 41
1.02 
  1
受口深さ
 72
     5
 11
3973.300066
 21
1726.286651
  0
TEXT
  8
0
 62
     3
 10
3657.772764
 20
1853.517243
 40
32.000000
 50
0.000000E+00
 41
0.86 
  1
ａ
 72
     5
 11
3689.772764
 21
1853.517243
  0
INSERT
  8
0
  2
G21
 10
0
 20
0
  0
ARC
  8
1
 62
     3
  6
CONTINUOUS
 10
2783.363476
 20
1591.227117
 40
3.000000
 50
0.000000E+00
 51
90.000000
  0
ARC
  8
1
 62
     3
  6
CONTINUOUS
 10
2783.363476
 20
1721.227117
 40
3.000000
 50
270.000000
 51
360.000000
  0
ARC
  8
1
 62
     3
  6
CONTINUOUS
 10
2779.863476
 20
1716.227117
 40
2.000000
 50
90.000000
 51
180.000000
  0
LINE
  8
1
 62
     3
  6
CONTINUOUS
 10
2779.863476
 20
1594.227117
 11
2783.363476
 21
1594.227117
  0
LINE
  8
1
 62
     3
  6
CONTINUOUS
 10
2779.863476
 20
1718.227117
 11
2783.363476
 21
1718.227117
  0
ARC
  8
1
 62
     3
  6
CONTINUOUS
 10
2779.863476
 20
1596.227117
 40
2.000000
 50
180.000000
 51
270.000000
  0
LINE
  8
3
 62
     3
  6
CONTINUOUS
 10
2789.507670
 20
1596.587137
 11
2793.012657
 21
1598.178260
  0
LINE
  8
3
 62
     3
  6
CONTINUOUS
 10
2793.012657
 20
1598.178260
 11
2796.386026
 21
1601.006573
  0
LINE
  8
3
 62
     3
  6
CONTINUOUS
 10
2796.386026
 20
1601.006573
 11
2799.555879
 21
1605.011796
  0
LINE
  8
3
 62
     3
  6
CONTINUOUS
 10
2799.555879
 20
1605.011796
 11
2802.454659
 21
1610.108567
  0
LINE
  8
3
 62
     3
  6
CONTINUOUS
 10
2802.454659
 20
1610.108567
 11
2805.020583
 21
1616.188258
  0
LINE
  8
3
 62
     3
  6
CONTINUOUS
 10
2805.020583
 20
1616.188258
 11
2807.198965
 21
1623.121294
  0
LINE
  8
3
 62
     3
  6
CONTINUOUS
 10
2807.198965
 20
1623.121294
 11
2808.943376
 21
1630.759912
  0
LINE
  8
3
 62
     3
  6
CONTINUOUS
 10
2808.943376
 20
1630.759912
 11
2810.216638
 21
1638.941310
  0
LINE
  8
3
 62
     3
  6
CONTINUOUS
 10
2810.216638
 20
1638.941310
 11
2810.991615
 21
1647.491118
  0
LINE
  8
3
 62
     3
  6
CONTINUOUS
 10
2810.991615
 20
1647.491118
 11
2811.251789
 21
1656.227117
  0
LINE
  8
3
 62
     3
  6
CONTINUOUS
 10
2810.991615
 20
1647.491118
 11
2811.251789
 21
1656.227117
  0
LINE
  8
3
 62
     3
  6
CONTINUOUS
 10
2811.251789
 20
1656.227117
 11
2810.984871
 21
1665.074991
  0
LINE
  8
3
 62
     3
  6
CONTINUOUS
 10
2810.984871
 20
1665.074991
 11
2810.189955
 21
1673.729404
  0
LINE
  8
3
 62
     3
  6
CONTINUOUS
 10
2810.189955
 20
1673.729404
 11
2808.884422
 21
1682.001123
  0
LINE
  8
3
 62
     3
  6
CONTINUOUS
 10
2808.884422
 20
1682.001123
 11
2807.096817
 21
1689.709286
  0
LINE
  8
3
 62
     3
  6
CONTINUOUS
 10
2807.096817
 20
1689.709286
 11
2804.866227
 21
1696.685350
  0
LINE
  8
3
 62
     3
  6
CONTINUOUS
 10
2804.866227
 20
1696.685350
 11
2802.241425
 21
1702.776782
  0
LINE
  8
3
 62
     3
  6
CONTINUOUS
 10
2802.241425
 20
1702.776782
 11
2799.279802
 21
1707.850390
  0
LINE
  8
3
 62
     3
  6
CONTINUOUS
 10
2799.279802
 20
1707.850390
 11
2796.046117
 21
1711.795239
  0
LINE
  8
3
 62
     3
  6
CONTINUOUS
 10
2796.046117
 20
1711.795239
 11
2792.611073
 21
1714.525073
  0
LINE
  8
3
 62
     3
  6
CONTINUOUS
 10
2792.611073
 20
1714.525073
 11
2789.049779
 21
1715.980203
  0
LINE
  8
3
 62
     3
  6
CONTINUOUS
 10
2792.611073
 20
1714.525073
 11
2789.049779
 21
1715.980203
  0
LINE
  8
0
 62
     3
  6
CONTINUOUS
 10
2777.863476
 20
1716.227117
 11
2777.863476
 21
1596.227117
  0
INSERT
  8
0
  2
G22
 10
0
 20
0
  0
INSERT
  8
0
  2
G23
 10
0
 20
0
  0
LINE
  8
0
 62
     1
  6
CONTINUOUS
 10
3239.940390
 20
1656.227117
 11
3184.343698
 21
1656.227117
  0
LINE
  8
0
 62
     1
  6
CONTINUOUS
 10
3229.940390
 20
1656.227117
 11
3109.940390
 21
1656.227117
  0
LINE
  8
0
 62
     3
  6
CONTINUOUS
 10
3570.548780
 20
1812.795914
 11
3570.548780
 21
1865.363308
  0
LINE
  8
0
 62
     3
  6
CONTINUOUS
 10
3570.548780
 20
1865.363308
 11
3623.790116
 21
1865.363308
  0
SOLID
  8
0
 62
     3
 10
3594.812341
 20
1857.598737
 11
3594.812341
 21
1873.127880
 12
3623.790116
 22
1865.363308
 13
3623.790116
 23
1865.363308
  0
INSERT
  8
0
  2
G24
 10
0
 20
0
  0
LINE
  8
0
 62
     2
  6
CONTINUOUS
 10
3244.712419
 20
640.281646
 11
4024.114339
 21
640.281646
  0
TEXT
  8
0
 62
     2
 10
3733.220431
 20
667.585896
 40
30.000000
 50
0.000000E+00
 41
0.61 
  1
925
 72
     5
 11
3788.220431
 21
667.585896
  0
TEXT
  8
0
 62
     2
 10
3630.421191
 20
667.585896
 40
30.000000
 50
0.000000E+00
 41
0.61 
  1
905
 72
     5
 11
3685.421191
 21
667.585896
  0
TEXT
  8
0
 62
     2
 10
3530.968711
 20
669.313032
 40
30.000000
 50
0.000000E+00
 41
0.61 
  1
885
 72
     5
 11
3585.968711
 21
669.313032
  0
TEXT
  8
0
 62
     2
 10
3836.729671
 20
669.313032
 40
30.000000
 50
0.000000E+00
 41
0.61 
  1
965
 72
     5
 11
3891.729671
 21
669.313032
  0
TEXT
  8
0
 62
     2
 10
3429.049031
 20
760.753032
 40
30.000000
 50
0.000000E+00
 41
0.61 
  1
790
 72
     5
 11
3484.049031
 21
760.753032
  0
TEXT
  8
0
 62
     2
 10
3941.182151
 20
667.585896
 40
30.000000
 50
0.000000E+00
 41
0.61 
  1
985
 72
     5
 11
3996.182151
 21
667.585896
  0
TEXT
  8
0
 62
     2
 10
3429.049031
 20
669.313032
 40
30.000000
 50
0.000000E+00
 41
0.61 
  1
865
 72
     5
 11
3484.049031
 21
669.313032
  0
TEXT
  8
0
 62
     2
 10
3836.490686
 20
837.196846
 40
30.000000
 50
0.000000E+00
 41
0.61 
  1
340
 72
     5
 11
3891.490686
 21
837.196846
  0
TEXT
  8
0
 62
     2
 10
3734.570046
 20
837.196846
 40
30.000000
 50
0.000000E+00
 41
0.61 
  1
300
 72
     5
 11
3789.570046
 21
837.196846
  0
TEXT
  8
0
 62
     2
 10
3632.649406
 20
837.196846
 40
30.000000
 50
0.000000E+00
 41
0.61 
  1
280
 72
     5
 11
3687.649406
 21
837.196846
  0
TEXT
  8
0
 62
     2
 10
3428.810046
 20
837.196846
 40
30.000000
 50
0.000000E+00
 41
0.61 
  1
240
 72
     5
 11
3483.810046
 21
837.196846
  0
LINE
  8
0
 62
     2
  6
CONTINUOUS
 10
3810.274019
 20
884.601646
 11
3810.274019
 21
640.281646
  0
TEXT
  8
0
 62
     2
 10
3255.240523
 20
673.627725
 40
30.000000
 50
0.000000E+00
 41
0.72 
  1
Ｌｔ（全長）
 72
     5
 11
3405.240523
 21
673.627725
  0
LINE
  8
0
 62
     2
  6
CONTINUOUS
 10
3244.712419
 20
731.721646
 11
4024.114339
 21
731.721646
  0
TEXT
  8
0
 62
     2
 10
3941.182151
 20
759.025896
 40
30.000000
 50
0.000000E+00
 41
0.61 
  1
910
 72
     5
 11
3996.182151
 21
759.025896
  0
LINE
  8
0
 62
     2
  6
CONTINUOUS
 10
3244.712419
 20
884.601646
 11
4024.114339
 21
884.601646
  0
TEXT
  8
0
 62
     2
 10
3836.729671
 20
760.753032
 40
30.000000
 50
0.000000E+00
 41
0.61 
  1
890
 72
     5
 11
3891.729671
 21
760.753032
  0
LINE
  8
0
 62
     2
  6
CONTINUOUS
 10
3402.593379
 20
884.601646
 11
3402.593379
 21
640.281646
  0
LINE
  8
0
 62
     2
  6
CONTINUOUS
 10
3504.513059
 20
884.601646
 11
3504.513059
 21
640.281646
  0
LINE
  8
0
 62
     2
  6
CONTINUOUS
 10
3606.432739
 20
884.601646
 11
3606.432739
 21
640.281646
  0
LINE
  8
0
 62
     2
  6
CONTINUOUS
 10
3708.353379
 20
884.601646
 11
3708.353379
 21
640.281646
  0
LINE
  8
0
 62
     2
  6
CONTINUOUS
 10
4024.114339
 20
884.601646
 11
4024.114339
 21
640.281646
  0
LINE
  8
0
 62
     2
  6
CONTINUOUS
 10
3912.193699
 20
884.601646
 11
3912.193699
 21
640.281646
  0
TEXT
  8
0
 62
     2
 10
3943.410366
 20
837.196846
 40
30.000000
 50
0.000000E+00
 41
0.61 
  1
360
 72
     5
 11
3998.410366
 21
837.196846
  0
LINE
  8
0
 62
     2
  6
CONTINUOUS
 10
3244.712419
 20
823.161646
 11
4024.114339
 21
823.161646
  0
TEXT
  8
0
 62
     2
 10
3255.240523
 20
765.067725
 40
30.000000
 50
0.000000E+00
 41
0.72 
  1
Ｌ（有効長）
 72
     5
 11
3405.240523
 21
765.067725
  0
LINE
  8
0
 62
     2
  6
CONTINUOUS
 10
3244.712419
 20
884.601646
 11
3244.712419
 21
640.281646
  0
LINE
  8
0
 62
     2
  6
CONTINUOUS
 10
4022.541101
 20
871.364597
 11
4022.541101
 21
871.364405
  0
TEXT
  8
0
 62
     2
 10
3530.968711
 20
760.753032
 40
30.000000
 50
0.000000E+00
 41
0.61 
  1
810
 72
     5
 11
3585.968711
 21
760.753032
  0
TEXT
  8
0
 62
     2
 10
3630.421191
 20
759.025896
 40
30.000000
 50
0.000000E+00
 41
0.61 
  1
830
 72
     5
 11
3685.421191
 21
759.025896
  0
TEXT
  8
0
 62
     2
 10
3530.729726
 20
837.196846
 40
30.000000
 50
0.000000E+00
 41
0.61 
  1
260
 72
     5
 11
3585.729726
 21
837.196846
  0
TEXT
  8
0
 62
     2
 10
3314.281517
 20
837.217257
 40
30.000000
 50
0.000000E+00
 41
0.86 
  1
Ｐ
 72
     5
 11
3344.281517
 21
837.217257
  0
TEXT
  8
0
 62
     2
 10
3733.220431
 20
759.025896
 40
30.000000
 50
0.000000E+00
 41
0.61 
  1
850
 72
     5
 11
3788.220431
 21
759.025896
  0
TEXT
  8
0
 62
     2
 10
3948.410366
 20
938.636846
 40
30.000000
 50
0.000000E+00
 41
0.58 
  1
44
 72
     5
 11
3983.410366
 21
938.636846
  0
TEXT
  8
0
 62
     2
 10
3836.489726
 20
938.636846
 40
30.000000
 50
0.000000E+00
 41
0.58 
  1
52
 72
     5
 11
3871.489726
 21
938.636846
  0
TEXT
  8
0
 62
     2
 10
3724.570046
 20
938.636846
 40
30.000000
 50
0.000000E+00
 41
0.58 
  1
60
 72
     5
 11
3759.570046
 21
938.636846
  0
TEXT
  8
0
 62
     2
 10
3625.578794
 20
1121.253863
 40
25.600000
 50
0.000000E+00
 41
0.55 
  1
100
 72
     5
 11
3667.635939
 21
1121.253863
  0
TEXT
  8
0
 62
     2
 10
3609.048500
 20
1159.938571
 40
18.400000
 50
0.000000E+00
 41
0.89 
  1
立管受口
 72
     5
 11
3685.048499
 21
1159.938571
  0
TEXT
  8
0
 62
     2
 10
3948.410366
 20
1061.516846
 40
30.000000
 50
0.000000E+00
 41
0.58 
  1
65
 72
     5
 11
3983.410366
 21
1061.516846
  0
TEXT
  8
0
 62
     2
 10
3836.489726
 20
1061.516846
 40
30.000000
 50
0.000000E+00
 41
0.58 
  1
65
 72
     5
 11
3871.489726
 21
1061.516846
  0
TEXT
  8
0
 62
     2
 10
3632.650366
 20
1061.516846
 40
30.000000
 50
0.000000E+00
 41
0.58 
  1
75
 72
     5
 11
3667.650366
 21
1061.516846
  0
LINE
  8
0
 62
     2
  6
CONTINUOUS
 10
3688.353379
 20
986.041646
 11
3606.433699
 21
924.601646
  0
LINE
  8
0
 62
     2
  6
CONTINUOUS
 10
4024.114339
 20
1190.846702
 11
4024.114339
 21
924.601646
  0
TEXT
  8
0
 62
     2
 10
3495.330843
 20
942.947725
 40
30.000000
 50
0.000000E+00
 41
0.86 
  1
Ｂ寸法
 72
     5
 11
3585.330843
 21
942.947725
  0
LINE
  8
0
 62
     2
  6
CONTINUOUS
 10
3483.552739
 20
986.041646
 11
4024.114339
 21
986.041646
  0
LINE
  8
0
 62
     2
  6
CONTINUOUS
 10
3688.353379
 20
1149.881678
 11
4024.114339
 21
1149.881678
  0
LINE
  8
0
 62
     2
  6
CONTINUOUS
 10
3483.552739
 20
1108.921646
 11
4024.114339
 21
1108.921646
  0
TEXT
  8
0
 62
     2
 10
3733.916713
 20
1154.795013
 40
30.000000
 50
0.000000E+00
 41
0.86 
  1
下部横枝管サイズ
 72
     5
 11
3973.916713
 21
1154.795013
  0
LINE
  8
0
 62
     2
  6
CONTINUOUS
 10
3606.433699
 20
1189.607822
 11
3606.433699
 21
924.601646
  0
LINE
  8
0
 62
     2
  6
CONTINUOUS
 10
3688.353379
 20
1189.607822
 11
3688.353379
 21
924.601646
  0
LINE
  8
0
 62
     2
  6
CONTINUOUS
 10
3800.273059
 20
1149.881678
 11
3800.273059
 21
924.601646
  0
LINE
  8
0
 62
     2
  6
CONTINUOUS
 10
3688.353379
 20
1047.481646
 11
3606.433699
 21
986.041646
  0
LINE
  8
0
 62
     2
  6
CONTINUOUS
 10
3912.193699
 20
1149.881486
 11
3912.193699
 21
924.601646
  0
LINE
  8
0
 62
     2
  6
CONTINUOUS
 10
3483.552739
 20
924.601646
 11
4024.114339
 21
924.601646
  0
TEXT
  8
0
 62
     2
 10
3704.615965
 20
1114.716379
 40
30.000000
 50
0.000000E+00
 41
0.63 
  1
75(3)
 72
     5
 11
3799.615965
 21
1114.716379
  0
TEXT
  8
0
 62
     2
 10
3816.535645
 20
1114.716379
 40
30.000000
 50
0.000000E+00
 41
0.63 
  1
65(2)
 72
     5
 11
3911.535645
 21
1114.716379
  0
TEXT
  8
0
 62
     2
 10
3928.456285
 20
1114.716379
 40
30.000000
 50
0.000000E+00
 41
0.63 
  1
50(1)
 72
     5
 11
4023.456285
 21
1114.716379
  0
LINE
  8
0
 62
     2
  6
CONTINUOUS
 10
3483.552739
 20
1149.881678
 11
3483.552739
 21
924.601646
  0
LINE
  8
0
 62
     2
  6
CONTINUOUS
 10
3483.552739
 20
1047.481646
 11
4024.114339
 21
1047.481646
  0
TEXT
  8
0
 62
     2
 10
3495.330843
 20
1004.387725
 40
30.000000
 50
0.000000E+00
 41
0.86 
  1
Ａ寸法
 72
     5
 11
3585.330843
 21
1004.387725
  0
LINE
  8
0
 62
     2
  6
CONTINUOUS
 10
3483.552739
 20
1149.881678
 11
3483.552739
 21
1190.846702
  0
LINE
  8
0
 62
     2
  6
CONTINUOUS
 10
3483.552739
 20
1190.846702
 11
4024.114339
 21
1190.846702
  0
LINE
  8
0
 62
     2
  6
CONTINUOUS
 10
3994.113379
 20
1149.881678
 11
3994.113379
 21
1149.881486
  0
TEXT
  8
0
 62
     2
 10
3714.809031
 20
1001.803982
 40
30.000000
 50
0.000000E+00
 41
0.61 
  1
125
 72
     5
 11
3769.809031
 21
1001.803982
  0
TEXT
  8
0
 62
     2
 10
3824.261511
 20
1000.076846
 40
30.000000
 50
0.000000E+00
 41
0.61 
  1
110
 72
     5
 11
3879.261511
 21
1000.076846
  0
TEXT
  8
0
 62
     2
 10
3724.570046
 20
1061.516846
 40
30.000000
 50
0.000000E+00
 41
0.58 
  1
65
 72
     5
 11
3759.570046
 21
1061.516846
  0
TEXT
  8
0
 62
     2
 10
3488.121837
 20
1061.537257
 40
30.000000
 50
0.000000E+00
 41
0.86 
  1
受口深さ
 72
     5
 11
3608.121837
 21
1061.537257
  0
LINE
  8
0
 62
     2
  6
CONTINUOUS
 10
3483.552739
 20
1190.846702
 11
3606.433699
 21
1108.921646
  0
TEXT
  8
0
 62
     2
 10
3948.410366
 20
1000.076846
 40
30.000000
 50
0.000000E+00
 41
0.58 
  1
94
 72
     5
 11
3983.410366
 21
1000.076846
  0
TEXT
  8
0
 62
     3
 10
3311.553615
 20
579.564184
 40
32.000000
 50
0.000000E+00
 41
0.94 
  1
対応可能Ｐ寸法　２４０～３６０
 72
     5
 11
3837.267923
 21
579.564184
  0
INSERT
  8
0
  2
G25
 10
0
 20
0
  0
INSERT
  8
0
  2
G26
 10
0
 20
0
  0
INSERT
  8
0
  2
G27
 10
0
 20
0
  0
INSERT
  8
0
  2
G28
 10
0
 20
0
  0
INSERT
  8
0
  2
G29
 10
0
 20
0
  0
INSERT
  8
0
  2
G30
 10
0
 20
0
  0
ENDSEC
  0
EOF
