  0
SECTION
  2
HEADER
  9
$INSBASE
 10
0
 20
0
  9
$EXTMIN
 10
0
 20
0
  9
$EXTMAX
 10
4200.000000
 20
2970.000000
  9
$LIMMIN
 10
0
 20
0
  9
$LIMMAX
 10
4200.000000
 20
2970.000000
  9
$VIEWCTR
 10
2100.000000
 20
1485.000000
  9
$DIMASZ
 40
30.000000
  9
$DIMDLI
 40
80.000000
  9
$DIMEXE
 40
10.000000
  9
$DIMEXO
 40
10.000000
  9
$DIMTXT
 40
32.000000
  9
$TEXTSIZE
 40
32.000000
  9
$ANGBASE
 50
0.0
  9
$ANGDIR
 70
     0
  9
$ATTMODE
 70
     1
  9
$AUNITS
 70
     1
  9
$AUPREC
 70
     2
  9
$AXISMODE
 70
     0
  9
$AXISUNIT
 10
0.0
 20
0.0
  9
$BLIPMODE
 70
     1
  9
$CECOLOR
 62
   256
  9
$CELTYPE
  6
BYLAYER
  9
$CHAMFERA
 40
0.0
  9
$CHAMFERB
 40
0.0
  9
$CLAYER
  8
0
  9
$COORDS
 70
     0
  9
$DIMALT
 70
     0
  9
$DIMALTD
 70
     2
  9
$DIMALTF
 40
25.4
  9
$DIMDLE
 40
0.0
  9
$DIMLFAC
 40
1.0
  9
$DIMLIM
 70
     0
  9
$DIMRND
 40
0.0
  9
$DIMSCALE
 40
1.0
  9
$DIMSE1
 70
     0
  9
$DIMSE2
 70
     0
  9
$DIMTAD
 70
     1
  9
$DIMTIH
 70
     0
  9
$DIMTM
 40
0.0
  9
$DIMTOH
 70
     0
  9
$DIMTOL
 70
     0
  9
$DIMTP
 40
0.0
  9
$DIMTSZ
 40
0.0
  9
$DIMZIN
 70
     0
  9
$DRAGMODE
 70
     2
  9
$ELEVATION
 40
0.0
  9
$FASTZOOM
 70
     1
  9
$FILLETRAD
 40
0.0
  9
$FILLMODE
 70
     1
  9
$GRIDMODE
 70
     0
  9
$GRIDUNIT
 10
0.0
 20
0.0
  9
$LTSCALE
 40
1.0
  9
$LUNITS
 70
     2
  9
$LUPREC
 70
     2
  9
$MENU
  1
ACAD
  9
$ORTHOMODE
 70
     0
  9
$OSMODE
 70
     0
  9
$PDMODE
 70
     0
  9
$PDSIZE
 40
0.0
  9
$PLINEWID
 40
0.0
  9
$QTEXTMODE
 70
     0
  9
$REGENMODE
 70
     1
  9
$SKETCHINC
 40
0.1
  9
$SKPOLY
 70
     0
  9
$SNAPBASE
 10
0.0
 20
0.0
  9
$SNAPISOPAIR
 70
     0
  9
$SNAPMODE
 70
     0
  9
$SNAPSTYLE
 70
     0
  9
$SNAPUNIT
 10
0.0
 20
0.0
  9
$TEXTSTYLE
  7
KANJI
  9
$THICKNESS
 40
0.0
  9
$TRACEWID
 40
0.05
  9
$VIEWDIR
 10
0.0
 20
0.0
 30
1.0
  9
$VIEWSIZE
 40
0.0
  0
ENDSEC
  0
SECTION
  2
TABLES
  0
TABLE
  2
LTYPE
 70
     9
  0
LTYPE
  2
CONTINUOUS
 70
    64
  3
Solid line
 72
    65
 73
     0
 40
0.0
  0
LTYPE
  2
DASHED
 70
    64
  3
__ __ __ __ __ __ __ __ __ __ __ __ __ __ __
 72
    65
 73
     2
 40
0.75
 49
0.5
 49
-0.25
  0
LTYPE
  2
HIDDEN
 70
    64
  3
_ _ _ _ _ _ _ _ _ _ _ _ _ _ _ _ _ _ _ _ _ _ _
 72
    65
 73
     2
 40
0.375
 49
0.25
 49
-0.125
  0
LTYPE
  2
CENTER
 70
    64
  3
____ _ ____ _ ____ _ ____ _ ____ _ ____ _ ____
 72
    65
 73
     4
 40
2.0
 49
1.25
 49
-0.25
 49
0.25
 49
-0.25
  0
LTYPE
  2
PHANTOM
 70
    64
  3
_____ _ _ _____ _ _ _____ _ _ _____ _ _ ____
 72
    65
 73
     6
 40
2.5
 49
1.25
 49
-0.25
 49
0.25
 49
-0.25
 49
0.25
 49
-0.25
  0
LTYPE
  2
DOT
 70
    64
  3
...............................................
 72
    65
 73
     2
 40
0.25
 49
0.0
 49
-0.25
  0
LTYPE
  2
DASHDOT
 70
    64
  3
__ . __ . __ . __ . __ . __ . __ . __ . __ . __
 72
    65
 73
     4
 40
1.0
 49
0.5
 49
-0.25
 49
0.0
 49
-0.25
  0
LTYPE
  2
BORDER
 70
    64
  3
__ __ . __ __ . __ __ . __ __ . __ __ . __ __
 72
    65
 73
     6
 40
1.75
 49
0.5
 49
-0.25
 49
0.5
 49
-0.25
 49
0.0
 49
-0.25
  0
LTYPE
  2
DIVIDE
 70
    64
  3
__ . . __ . . __ . . __ . . __ . . __ . . __
 72
    65
 73
     6
 40
1.25
 49
0.5
 49
-0.25
 49
0.0
 49
-0.25
 49
0.0
 49
-0.25
  0
ENDTAB
  0
TABLE
  2
LAYER
 70
   100
  0
LAYER
  2
0
 70
     0
 62
     3
  6
CONTINUOUS
  0
LAYER
  2
1
 70
     0
 62
     3
  6
CONTINUOUS
  0
LAYER
  2
2
 70
     0
 62
     3
  6
CONTINUOUS
  0
LAYER
  2
3
 70
     0
 62
     3
  6
CONTINUOUS
  0
LAYER
  2
4
 70
     0
 62
     3
  6
CONTINUOUS
  0
LAYER
  2
5
 70
     0
 62
     3
  6
CONTINUOUS
  0
LAYER
  2
6
 70
     0
 62
     3
  6
CONTINUOUS
  0
LAYER
  2
7
 70
     0
 62
     3
  6
CONTINUOUS
  0
LAYER
  2
8
 70
     0
 62
     3
  6
CONTINUOUS
  0
LAYER
  2
9
 70
     0
 62
     3
  6
CONTINUOUS
  0
LAYER
  2
10
 70
     0
 62
     3
  6
CONTINUOUS
  0
LAYER
  2
11
 70
     0
 62
     3
  6
CONTINUOUS
  0
LAYER
  2
12
 70
     0
 62
     3
  6
CONTINUOUS
  0
LAYER
  2
13
 70
     0
 62
     3
  6
CONTINUOUS
  0
LAYER
  2
14
 70
     0
 62
     3
  6
CONTINUOUS
  0
LAYER
  2
15
 70
     0
 62
     3
  6
CONTINUOUS
  0
LAYER
  2
16
 70
     0
 62
     3
  6
CONTINUOUS
  0
LAYER
  2
17
 70
     0
 62
     3
  6
CONTINUOUS
  0
LAYER
  2
18
 70
     0
 62
     3
  6
CONTINUOUS
  0
LAYER
  2
19
 70
     0
 62
     3
  6
CONTINUOUS
  0
LAYER
  2
20
 70
     0
 62
     3
  6
CONTINUOUS
  0
LAYER
  2
21
 70
     0
 62
     3
  6
CONTINUOUS
  0
LAYER
  2
22
 70
     0
 62
     3
  6
CONTINUOUS
  0
LAYER
  2
23
 70
     0
 62
     3
  6
CONTINUOUS
  0
LAYER
  2
24
 70
     0
 62
     3
  6
CONTINUOUS
  0
LAYER
  2
25
 70
     0
 62
     3
  6
CONTINUOUS
  0
LAYER
  2
26
 70
     0
 62
     3
  6
CONTINUOUS
  0
LAYER
  2
27
 70
     0
 62
     3
  6
CONTINUOUS
  0
LAYER
  2
28
 70
     0
 62
     3
  6
CONTINUOUS
  0
LAYER
  2
29
 70
     0
 62
     3
  6
CONTINUOUS
  0
LAYER
  2
30
 70
     0
 62
     3
  6
CONTINUOUS
  0
LAYER
  2
31
 70
     0
 62
     3
  6
CONTINUOUS
  0
LAYER
  2
32
 70
     0
 62
     3
  6
CONTINUOUS
  0
LAYER
  2
33
 70
     0
 62
     3
  6
CONTINUOUS
  0
LAYER
  2
34
 70
     0
 62
     3
  6
CONTINUOUS
  0
LAYER
  2
35
 70
     0
 62
     3
  6
CONTINUOUS
  0
LAYER
  2
36
 70
     0
 62
     3
  6
CONTINUOUS
  0
LAYER
  2
37
 70
     0
 62
     3
  6
CONTINUOUS
  0
LAYER
  2
38
 70
     0
 62
     3
  6
CONTINUOUS
  0
LAYER
  2
39
 70
     0
 62
     3
  6
CONTINUOUS
  0
LAYER
  2
40
 70
     0
 62
     3
  6
CONTINUOUS
  0
LAYER
  2
41
 70
     0
 62
     3
  6
CONTINUOUS
  0
LAYER
  2
42
 70
     0
 62
     3
  6
CONTINUOUS
  0
LAYER
  2
43
 70
     0
 62
     3
  6
CONTINUOUS
  0
LAYER
  2
44
 70
     0
 62
     3
  6
CONTINUOUS
  0
LAYER
  2
45
 70
     0
 62
     3
  6
CONTINUOUS
  0
LAYER
  2
46
 70
     0
 62
     3
  6
CONTINUOUS
  0
LAYER
  2
47
 70
     0
 62
     3
  6
CONTINUOUS
  0
LAYER
  2
48
 70
     0
 62
     3
  6
CONTINUOUS
  0
LAYER
  2
49
 70
     0
 62
     3
  6
CONTINUOUS
  0
LAYER
  2
50
 70
     0
 62
     3
  6
CONTINUOUS
  0
LAYER
  2
51
 70
     0
 62
     3
  6
CONTINUOUS
  0
LAYER
  2
52
 70
     0
 62
     3
  6
CONTINUOUS
  0
LAYER
  2
53
 70
     0
 62
     3
  6
CONTINUOUS
  0
LAYER
  2
54
 70
     0
 62
     3
  6
CONTINUOUS
  0
LAYER
  2
55
 70
     0
 62
     3
  6
CONTINUOUS
  0
LAYER
  2
56
 70
     0
 62
     3
  6
CONTINUOUS
  0
LAYER
  2
57
 70
     0
 62
     3
  6
CONTINUOUS
  0
LAYER
  2
58
 70
     0
 62
     3
  6
CONTINUOUS
  0
LAYER
  2
59
 70
     0
 62
     3
  6
CONTINUOUS
  0
LAYER
  2
60
 70
     0
 62
     3
  6
CONTINUOUS
  0
LAYER
  2
61
 70
     0
 62
     3
  6
CONTINUOUS
  0
LAYER
  2
62
 70
     0
 62
     3
  6
CONTINUOUS
  0
LAYER
  2
63
 70
     0
 62
     3
  6
CONTINUOUS
  0
LAYER
  2
64
 70
     0
 62
     3
  6
CONTINUOUS
  0
LAYER
  2
65
 70
     0
 62
     3
  6
CONTINUOUS
  0
LAYER
  2
66
 70
     0
 62
     3
  6
CONTINUOUS
  0
LAYER
  2
67
 70
     0
 62
     3
  6
CONTINUOUS
  0
LAYER
  2
68
 70
     0
 62
     3
  6
CONTINUOUS
  0
LAYER
  2
69
 70
     0
 62
     3
  6
CONTINUOUS
  0
LAYER
  2
70
 70
     0
 62
     3
  6
CONTINUOUS
  0
LAYER
  2
71
 70
     0
 62
     3
  6
CONTINUOUS
  0
LAYER
  2
72
 70
     0
 62
     3
  6
CONTINUOUS
  0
LAYER
  2
73
 70
     0
 62
     3
  6
CONTINUOUS
  0
LAYER
  2
74
 70
     0
 62
     3
  6
CONTINUOUS
  0
LAYER
  2
75
 70
     0
 62
     3
  6
CONTINUOUS
  0
LAYER
  2
76
 70
     0
 62
     3
  6
CONTINUOUS
  0
LAYER
  2
77
 70
     0
 62
     3
  6
CONTINUOUS
  0
LAYER
  2
78
 70
     0
 62
     3
  6
CONTINUOUS
  0
LAYER
  2
79
 70
     0
 62
     3
  6
CONTINUOUS
  0
LAYER
  2
80
 70
     0
 62
     3
  6
CONTINUOUS
  0
LAYER
  2
81
 70
     0
 62
     3
  6
CONTINUOUS
  0
LAYER
  2
82
 70
     0
 62
     3
  6
CONTINUOUS
  0
LAYER
  2
83
 70
     0
 62
     3
  6
CONTINUOUS
  0
LAYER
  2
84
 70
     0
 62
     3
  6
CONTINUOUS
  0
LAYER
  2
85
 70
     0
 62
     3
  6
CONTINUOUS
  0
LAYER
  2
86
 70
     0
 62
     3
  6
CONTINUOUS
  0
LAYER
  2
87
 70
     0
 62
     3
  6
CONTINUOUS
  0
LAYER
  2
88
 70
     0
 62
     3
  6
CONTINUOUS
  0
LAYER
  2
89
 70
     0
 62
     3
  6
CONTINUOUS
  0
LAYER
  2
90
 70
     0
 62
     3
  6
CONTINUOUS
  0
LAYER
  2
91
 70
     0
 62
     3
  6
CONTINUOUS
  0
LAYER
  2
92
 70
     0
 62
     3
  6
CONTINUOUS
  0
LAYER
  2
93
 70
     0
 62
     3
  6
CONTINUOUS
  0
LAYER
  2
94
 70
     0
 62
     3
  6
CONTINUOUS
  0
LAYER
  2
95
 70
     0
 62
     3
  6
CONTINUOUS
  0
LAYER
  2
96
 70
     0
 62
     3
  6
CONTINUOUS
  0
LAYER
  2
97
 70
     0
 62
     3
  6
CONTINUOUS
  0
LAYER
  2
98
 70
     0
 62
     3
  6
CONTINUOUS
  0
LAYER
  2
99
 70
     0
 62
     3
  6
CONTINUOUS
  0
ENDTAB
  0
TABLE
  2
STYLE
 70
     2
  0
STYLE
  2
STANDARD
 70
     0
 40
0.0
 41
1.0
 50
0.0
 71
     0
 42
0.2
  3
TXT
  4
BIGFONT
  0
STYLE
  2
KANJI
 70
     0
 40
4.5
 41
1.0
 50
0.0
 71
     0
 42
0.2
  3
TXT
  4
BIGFONT
  0
ENDTAB
  0
TABLE
  2
VIEW
 70
     0
  0
ENDTAB
  0
ENDSEC
  0
SECTION
  2
BLOCKS
  0
BLOCK
  8
0
  2
G0
 70
     0
 10
0
 20
0
  0
POINT
  8
0
 62
     4
 10
270.000000
 20
1315.000000
  0
POINT
  8
0
 62
     4
 10
-1830.000000
 20
1315.000000
  0
ENDBLK
  0
BLOCK
  8
0
  2
G1
 70
     0
 10
0
 20
0
  0
TEXT
  8
0
 62
     3
 10
-1220.980707
 20
966.070505
 40
32.000000
 50
0.000000E+00
 41
1.02 
  1
受口深さ
 72
     5
 11
-1068.980707
 21
966.070505
  0
ENDBLK
  0
BLOCK
  8
0
  2
G2
 70
     0
 10
0
 20
0
  0
TEXT
  8
0
 62
     1
 10
-995.996281
 20
-404.972883
 40
32.000000
 50
90.000000
 41
0.58 
  1
360
 72
     5
 11
-995.996281
 21
-348.972883
  0
LINE
  8
0
 62
     1
  6
CONTINUOUS
 10
-980.662948
 20
-556.972883
 11
-1100.662948
 21
-556.972883
  0
LINE
  8
0
 62
     1
  6
CONTINUOUS
 10
-990.662948
 20
-196.972883
 11
-990.662948
 21
-556.972883
  0
SOLID
  8
0
 62
     1
 10
-984.192472
 20
-221.121029
 11
-997.133424
 21
-221.121029
 12
-990.662948
 22
-196.972883
 13
-990.662948
 23
-196.972883
  0
SOLID
  8
0
 62
     1
 10
-997.133424
 20
-532.824738
 11
-984.192472
 21
-532.824738
 12
-990.662948
 22
-556.972883
 13
-990.662948
 23
-556.972883
  0
ENDBLK
  0
BLOCK
  8
0
  2
G3
 70
     0
 10
0
 20
0
  0
TEXT
  8
0
 62
     1
 10
-1115.996281
 20
-509.972883
 40
32.000000
 50
90.000000
 41
0.58 
  1
150
 72
     5
 11
-1115.996281
 21
-453.972883
  0
LINE
  8
0
 62
     1
  6
CONTINUOUS
 10
-1284.739862
 20
-556.972883
 11
-1100.662948
 21
-556.972883
  0
LINE
  8
0
 62
     1
  6
CONTINUOUS
 10
-1110.662948
 20
-406.972883
 11
-1110.662948
 21
-556.972883
  0
SOLID
  8
0
 62
     1
 10
-1104.192472
 20
-431.121029
 11
-1117.133424
 21
-431.121029
 12
-1110.662948
 22
-406.972883
 13
-1110.662948
 23
-406.972883
  0
SOLID
  8
0
 62
     1
 10
-1117.133424
 20
-532.824738
 11
-1104.192472
 21
-532.824738
 12
-1110.662948
 22
-556.972883
 13
-1110.662948
 23
-556.972883
  0
ENDBLK
  0
BLOCK
  8
0
  2
G4
 70
     0
 10
0
 20
0
  0
TEXT
  8
0
 62
     1
 10
-1115.996281
 20
-374.972883
 40
32.000000
 50
90.000000
 41
0.58 
  1
120
 72
     5
 11
-1115.996281
 21
-318.972883
  0
LINE
  8
0
 62
     1
  6
CONTINUOUS
 10
-1287.488951
 20
-406.972883
 11
-1100.662948
 21
-406.972883
  0
LINE
  8
0
 62
     1
  6
CONTINUOUS
 10
-1256.990773
 20
-286.972883
 11
-1100.662948
 21
-286.972883
  0
LINE
  8
0
 62
     1
  6
CONTINUOUS
 10
-1110.662948
 20
-286.972883
 11
-1110.662948
 21
-406.972883
  0
SOLID
  8
0
 62
     1
 10
-1104.192472
 20
-311.121029
 11
-1117.133424
 21
-311.121029
 12
-1110.662948
 22
-286.972883
 13
-1110.662948
 23
-286.972883
  0
SOLID
  8
0
 62
     1
 10
-1117.133424
 20
-382.824738
 11
-1104.192472
 21
-382.824738
 12
-1110.662948
 22
-406.972883
 13
-1110.662948
 23
-406.972883
  0
ENDBLK
  0
BLOCK
  8
0
  2
G5
 70
     0
 10
0
 20
0
  0
TEXT
  8
0
 62
     1
 10
-1055.996281
 20
200.027117
 40
32.000000
 50
90.000000
 41
0.58 
  1
250
 72
     5
 11
-1055.996281
 21
256.027117
  0
LINE
  8
0
 62
     1
  6
CONTINUOUS
 10
-1337.739862
 20
353.027117
 11
-1040.662948
 21
353.027117
  0
LINE
  8
0
 62
     1
  6
CONTINUOUS
 10
-1100.662948
 20
103.027117
 11
-1040.662948
 21
103.027117
  0
LINE
  8
0
 62
     1
  6
CONTINUOUS
 10
-1050.662948
 20
103.027117
 11
-1050.662948
 21
353.027117
  0
SOLID
  8
0
 62
     1
 10
-1058.427519
 20
132.004891
 11
-1042.898377
 21
132.004891
 12
-1050.662948
 22
103.027117
 13
-1050.662948
 23
103.027117
  0
SOLID
  8
0
 62
     1
 10
-1042.898377
 20
324.049342
 11
-1058.427519
 21
324.049342
 12
-1050.662948
 22
353.027117
 13
-1050.662948
 23
353.027117
  0
ENDBLK
  0
BLOCK
  8
0
  2
G6
 70
     0
 10
0
 20
0
  0
TEXT
  8
0
 62
     1
 10
-995.996281
 20
-32.972883
 40
32.000000
 50
90.000000
 41
0.86 
  1
Ｐ
 72
     5
 11
-995.996281
 21
-0.972883
  0
LINE
  8
0
 62
     1
  6
CONTINUOUS
 10
-980.662948
 20
-196.972883
 11
-1250.848329
 21
-196.972883
  0
LINE
  8
0
 62
     1
  6
CONTINUOUS
 10
-990.662948
 20
-196.972883
 11
-990.662948
 21
163.027117
  0
SOLID
  8
0
 62
     1
 10
-998.427519
 20
-167.995109
 11
-982.898377
 21
-167.995109
 12
-990.662948
 22
-196.972883
 13
-990.662948
 23
-196.972883
  0
SOLID
  8
0
 62
     1
 10
-982.898377
 20
134.049342
 11
-998.427519
 21
134.049342
 12
-990.662948
 22
163.027117
 13
-990.662948
 23
163.027117
  0
ENDBLK
  0
BLOCK
  8
0
  2
G7
 70
     0
 10
0
 20
0
  0
TEXT
  8
0
 62
     1
 10
-1119.818508
 20
632.389268
 40
32.000000
 50
90.000000
 41
0.60 
  1
%%c125
 72
     5
 11
-1119.818508
 21
748.389268
  0
LINE
  8
0
 62
     1
  6
CONTINUOUS
 10
-1177.739862
 20
627.889268
 11
-1104.485175
 21
627.889268
  0
LINE
  8
0
 62
     1
  6
CONTINUOUS
 10
-1177.739862
 20
752.889268
 11
-1104.485175
 21
752.889268
  0
LINE
  8
0
 62
     1
  6
CONTINUOUS
 10
-1114.485175
 20
752.889268
 11
-1114.485175
 21
627.889268
  0
SOLID
  8
0
 62
     1
 10
-1108.014699
 20
728.741123
 11
-1120.955651
 21
728.741123
 12
-1114.485175
 22
752.889268
 13
-1114.485175
 23
752.889268
  0
SOLID
  8
0
 62
     1
 10
-1120.955651
 20
652.037414
 11
-1108.014699
 21
652.037414
 12
-1114.485175
 22
627.889268
 13
-1114.485175
 23
627.889268
  0
ENDBLK
  0
BLOCK
  8
0
  2
G8
 70
     0
 10
0
 20
0
  0
TEXT
  8
0
 62
     1
 10
-1295.739862
 20
898.832148
 40
32.000000
 50
0.000000E+00
 41
0.58 
  1
160
 72
     5
 11
-1239.739862
 21
898.832148
  0
LINE
  8
0
 62
     1
  6
CONTINUOUS
 10
-1347.739862
 20
798.830428
 11
-1347.739862
 21
903.498815
  0
LINE
  8
0
 62
     1
  6
CONTINUOUS
 10
-1187.739862
 20
845.279722
 11
-1187.739862
 21
903.498815
  0
LINE
  8
0
 62
     1
  6
CONTINUOUS
 10
-1187.739862
 20
893.498815
 11
-1347.739862
 21
893.498815
  0
SOLID
  8
0
 62
     1
 10
-1216.717636
 20
885.734243
 11
-1216.717636
 21
901.263386
 12
-1187.739862
 22
893.498815
 13
-1187.739862
 23
893.498815
  0
SOLID
  8
0
 62
     1
 10
-1318.762087
 20
901.263386
 11
-1318.762087
 21
885.734243
 12
-1347.739862
 22
893.498815
 13
-1347.739862
 23
893.498815
  0
ENDBLK
  0
BLOCK
  8
0
  2
G9
 70
     0
 10
0
 20
0
  0
TEXT
  8
0
 62
     1
 10
-935.996281
 20
372.527117
 40
32.000000
 50
90.000000
 41
0.56 
  1
75
 72
     5
 11
-935.996281
 21
408.527117
  0
LINE
  8
0
 62
     1
  6
CONTINUOUS
 10
-920.662948
 20
353.027117
 11
-1050.662948
 21
353.027117
  0
LINE
  8
0
 62
     1
  6
CONTINUOUS
 10
-920.662948
 20
428.027117
 11
-1267.549807
 21
428.027117
  0
LINE
  8
0
 62
     1
  6
CONTINUOUS
 10
-930.662948
 20
428.027117
 11
-930.662948
 21
353.027117
  0
SOLID
  8
0
 62
     1
 10
-924.192472
 20
403.878971
 11
-937.133424
 21
403.878971
 12
-930.662948
 22
428.027117
 13
-930.662948
 23
428.027117
  0
SOLID
  8
0
 62
     1
 10
-937.133424
 20
377.175262
 11
-924.192472
 21
377.175262
 12
-930.662948
 22
353.027117
 13
-930.662948
 23
353.027117
  0
ENDBLK
  0
BLOCK
  8
0
  2
G10
 70
     0
 10
0
 20
0
  0
LINE
  8
0
 62
     1
  6
CONTINUOUS
 10
-1110.662948
 20
100.527117
 11
-1110.662948
 21
9.944416
  0
SOLID
  8
0
 62
     1
 10
-1104.192472
 20
76.378971
 11
-1117.133424
 21
76.378971
 12
-1110.662948
 22
100.527117
 13
-1110.662948
 23
100.527117
  0
TEXT
  8
0
 62
     1
 10
-1115.996281
 20
14.799037
 40
32.000000
 50
90.000000
 41
0.58 
  1
2.5
 72
     5
 11
-1115.996281
 21
70.799037
  0
LINE
  8
0
 62
     1
  6
CONTINUOUS
 10
-1100.662948
 20
100.527117
 11
-1182.739862
 21
100.527117
  0
LINE
  8
0
 62
     1
  6
CONTINUOUS
 10
-1110.662948
 20
100.527117
 11
-1110.662948
 21
103.027117
  0
ENDBLK
  0
BLOCK
  8
0
  2
G11
 70
     0
 10
0
 20
0
  0
LINE
  8
0
 62
     1
  6
CONTINUOUS
 10
-1110.662948
 20
163.027117
 11
-1110.662948
 21
213.027117
  0
SOLID
  8
0
 62
     1
 10
-1118.427519
 20
192.004891
 11
-1102.898377
 21
192.004891
 12
-1110.662948
 22
163.027117
 13
-1110.662948
 23
163.027117
  0
TEXT
  8
0
 62
     1
 10
-1115.996281
 20
115.027117
 40
32.000000
 50
90.000000
 41
0.56 
  1
60
 72
     5
 11
-1115.996281
 21
151.027117
  0
LINE
  8
0
 62
     1
  6
CONTINUOUS
 10
-1171.806156
 20
163.027117
 11
-1100.662948
 21
163.027117
  0
LINE
  8
0
 62
     1
  6
CONTINUOUS
 10
-1182.739862
 20
103.027117
 11
-1100.662948
 21
103.027117
  0
LINE
  8
0
 62
     1
  6
CONTINUOUS
 10
-1110.662948
 20
103.027117
 11
-1110.662948
 21
163.027117
  0
CIRCLE
  8
0
 62
     1
  6
CONTINUOUS
 10
-1110.662948
 20
103.027117
 40
2.500000
  0
CIRCLE
  8
0
 62
     1
  6
CONTINUOUS
 10
-1110.662948
 20
103.027117
 40
1.250000
  0
ENDBLK
  0
BLOCK
  8
0
  2
G12
 70
     0
 10
0
 20
0
  0
LINE
  8
0
 62
     1
  6
CONTINUOUS
 10
-626.000000
 20
310.375253
 11
-676.000000
 21
310.375253
  0
SOLID
  8
0
 62
     1
 10
-650.148146
 20
303.904777
 11
-650.148146
 21
316.845729
 12
-626.000000
 22
310.375253
 13
-626.000000
 23
310.375253
  0
LINE
  8
0
 62
     1
  6
CONTINUOUS
 10
-416.000000
 20
310.375253
 11
-466.000000
 21
310.375253
  0
SOLID
  8
0
 62
     1
 10
-441.851854
 20
316.845729
 11
-441.851854
 21
303.904777
 12
-466.000000
 22
310.375253
 13
-466.000000
 23
310.375253
  0
TEXT
  8
0
 62
     1
 10
-574.000000
 20
315.708586
 40
32.000000
 50
360.000000
 41
0.58 
  1
160
 72
     5
 11
-518.000000
 21
315.708586
  0
LINE
  8
0
 62
     1
  6
CONTINUOUS
 10
-466.000000
 20
300.375253
 11
-466.000000
 21
408.580925
  0
LINE
  8
0
 62
     1
  6
CONTINUOUS
 10
-626.000000
 20
357.375253
 11
-626.000000
 21
300.375253
  0
LINE
  8
0
 62
     1
  6
CONTINUOUS
 10
-626.000000
 20
310.375253
 11
-466.000000
 21
310.375253
  0
ENDBLK
  0
BLOCK
  8
0
  2
G13
 70
     0
 10
0
 20
0
  0
LINE
  8
0
 62
     3
  6
CONTINUOUS
 10
-1148.460760
 20
-38.308819
 11
-1228.023323
 21
-38.308819
  0
LINE
  8
0
 62
     3
  6
CONTINUOUS
 10
-1148.460760
 20
-38.308819
 11
-1148.460760
 21
-85.679068
  0
TEXT
  8
0
 62
     3
 10
-1160.254043
 20
-118.037285
 40
32.000000
 50
0.000000E+00
 41
0.86 
  1
Ｃ
 72
     5
 11
-1128.254043
 21
-118.037285
  0
LINE
  8
0
 62
     3
  6
CONTINUOUS
 10
-1148.460760
 20
-85.679068
 11
-1133.043291
 21
-58.975228
  0
LINE
  8
0
 62
     3
  6
CONTINUOUS
 10
-1133.043291
 20
-58.975228
 11
-1155.545746
 21
-45.983430
  0
ENDBLK
  0
BLOCK
  8
0
  2
G14
 70
     0
 10
0
 20
0
  0
TEXT
  8
0
 62
     1
 10
-494.000000
 20
673.708586
 40
32.000000
 50
0.000000E+00
 41
0.58 
  1
210
 72
     5
 11
-438.000000
 21
673.708586
  0
LINE
  8
0
 62
     1
  6
CONTINUOUS
 10
-361.000000
 20
535.000000
 11
-361.000000
 21
678.375253
  0
LINE
  8
0
 62
     1
  6
CONTINUOUS
 10
-571.000000
 20
535.000000
 11
-571.000000
 21
678.375253
  0
LINE
  8
0
 62
     1
  6
CONTINUOUS
 10
-571.000000
 20
668.375253
 11
-361.000000
 21
668.375253
  0
SOLID
  8
0
 62
     1
 10
-546.851854
 20
674.845729
 11
-546.851854
 21
661.904777
 12
-571.000000
 22
668.375253
 13
-571.000000
 23
668.375253
  0
SOLID
  8
0
 62
     1
 10
-385.148146
 20
661.904777
 11
-385.148146
 21
674.845729
 12
-361.000000
 22
668.375253
 13
-361.000000
 23
668.375253
  0
ENDBLK
  0
BLOCK
  8
0
  2
G15
 70
     0
 10
0
 20
0
  0
TEXT
  8
0
 62
     1
 10
-743.658025
 20
497.000000
 40
32.000000
 50
90.000000
 41
0.58 
  1
210
 72
     5
 11
-743.658025
 21
553.000000
  0
LINE
  8
0
 62
     1
  6
CONTINUOUS
 10
-476.000000
 20
420.000000
 11
-748.324692
 21
420.000000
  0
LINE
  8
0
 62
     1
  6
CONTINUOUS
 10
-476.000000
 20
630.000000
 11
-748.324692
 21
630.000000
  0
LINE
  8
0
 62
     1
  6
CONTINUOUS
 10
-738.324692
 20
630.000000
 11
-738.324692
 21
420.000000
  0
SOLID
  8
0
 62
     1
 10
-731.854216
 20
605.851854
 11
-744.795168
 21
605.851854
 12
-738.324692
 22
630.000000
 13
-738.324692
 23
630.000000
  0
SOLID
  8
0
 62
     1
 10
-744.795168
 20
444.148146
 11
-731.854216
 21
444.148146
 12
-738.324692
 22
420.000000
 13
-738.324692
 23
420.000000
  0
ENDBLK
  0
BLOCK
  8
0
  2
G16
 70
     0
 10
0
 20
0
  0
TEXT
  8
0
 62
     1
 10
-341.502473
 20
689.095506
 40
32.000000
 50
315.000000
 41
0.58 
  1
248
 72
     5
 11
-301.904494
 21
649.497527
  0
LINE
  8
0
 62
     1
  6
CONTINUOUS
 10
-237.793479
 20
577.844040
 11
-413.155960
 21
753.206521
  0
SOLID
  8
0
 62
     1
 10
-259.444114
 20
590.344040
 11
-250.293479
 21
599.494675
 12
-237.793479
 22
577.844040
 13
-237.793479
 23
577.844040
  0
SOLID
  8
0
 62
     1
 10
-391.505325
 20
740.706521
 11
-400.655960
 21
731.555886
 12
-413.155960
 22
753.206521
 13
-413.155960
 23
753.206521
  0
ENDBLK
  0
BLOCK
  8
0
  2
G17
 70
     0
 10
0
 20
0
  0
LINE
  8
0
 62
     1
  6
CONTINUOUS
 10
-630.000000
 20
462.500000
 11
-682.324692
 21
462.500000
  0
LINE
  8
0
 62
     1
  6
CONTINUOUS
 10
-630.000000
 20
587.500000
 11
-682.324692
 21
587.500000
  0
LINE
  8
0
 62
     1
  6
CONTINUOUS
 10
-678.324692
 20
587.500000
 11
-678.324692
 21
462.500000
  0
SOLID
  8
0
 62
     1
 10
-670.560121
 20
558.522225
 11
-686.089263
 21
558.522225
 12
-678.324692
 22
587.500000
 13
-678.324692
 23
587.500000
  0
SOLID
  8
0
 62
     1
 10
-686.089263
 20
491.477775
 11
-670.560121
 21
491.477775
 12
-678.324692
 22
462.500000
 13
-678.324692
 23
462.500000
  0
TEXT
  8
0
 62
     1
 10
-686.858025
 20
509.000000
 40
32.000000
 50
90.000000
 41
0.86 
  1
Ａ
 72
     5
 11
-686.858025
 21
541.000000
  0
ENDBLK
  0
BLOCK
  8
0
  2
G18
 70
     0
 10
0
 20
0
  0
LINE
  8
0
 62
     1
  6
CONTINUOUS
 10
-626.000000
 20
367.375253
 11
-676.000000
 21
367.375253
  0
SOLID
  8
0
 62
     1
 10
-650.148146
 20
360.904777
 11
-650.148146
 21
373.845729
 12
-626.000000
 22
367.375253
 13
-626.000000
 23
367.375253
  0
LINE
  8
0
 62
     1
  6
CONTINUOUS
 10
-511.317919
 20
367.375253
 11
-561.317919
 21
367.375253
  0
SOLID
  8
0
 62
     1
 10
-537.169773
 20
373.845729
 11
-537.169773
 21
360.904777
 12
-561.317919
 22
367.375253
 13
-561.317919
 23
367.375253
  0
TEXT
  8
0
 62
     1
 10
-613.525767
 20
372.708586
 40
32.000000
 50
360.000000
 41
0.56 
  1
65
 72
     5
 11
-577.525767
 21
372.708586
  0
LINE
  8
0
 62
     1
  6
CONTINUOUS
 10
-626.000000
 20
452.500000
 11
-626.000000
 21
357.375253
  0
LINE
  8
0
 62
     1
  6
CONTINUOUS
 10
-561.317919
 20
367.375253
 11
-626.000000
 21
367.375253
  0
ENDBLK
  0
BLOCK
  8
0
  2
G19
 70
     0
 10
0
 20
0
  0
LINE
  8
0
 62
     1
  6
CONTINUOUS
 10
-1187.739862
 20
835.279722
 11
-1137.739862
 21
835.279722
  0
SOLID
  8
0
 62
     1
 10
-1163.591716
 20
841.750198
 11
-1163.591716
 21
828.809246
 12
-1187.739862
 22
835.279722
 13
-1187.739862
 23
835.279722
  0
LINE
  8
0
 62
     1
  6
CONTINUOUS
 10
-1302.739862
 20
835.279722
 11
-1252.739862
 21
835.279722
  0
SOLID
  8
0
 62
     1
 10
-1276.888007
 20
828.809246
 11
-1276.888007
 21
841.750198
 12
-1252.739862
 22
835.279722
 13
-1252.739862
 23
835.279722
  0
TEXT
  8
0
 62
     1
 10
-1238.239862
 20
840.613055
 40
32.000000
 50
0.000000E+00
 41
0.56 
  1
65
 72
     5
 11
-1202.239862
 21
840.613055
  0
LINE
  8
0
 62
     1
  6
CONTINUOUS
 10
-1187.739862
 20
762.889268
 11
-1187.739862
 21
845.279722
  0
LINE
  8
0
 62
     1
  6
CONTINUOUS
 10
-1252.739862
 20
760.389268
 11
-1252.739862
 21
845.279722
  0
LINE
  8
0
 62
     1
  6
CONTINUOUS
 10
-1252.739862
 20
835.279722
 11
-1187.739862
 21
835.279722
  0
ENDBLK
  0
BLOCK
  8
0
  2
G20
 70
     0
 10
0
 20
0
  0
LINE
  8
0
 62
     1
  6
CONTINUOUS
 10
-1584.816775
 20
-196.972883
 11
-1584.816775
 21
-246.972883
  0
SOLID
  8
0
 62
     1
 10
-1578.346299
 20
-221.121029
 11
-1591.287251
 21
-221.121029
 12
-1584.816775
 22
-196.972883
 13
-1584.816775
 23
-196.972883
  0
LINE
  8
0
 62
     1
  6
CONTINUOUS
 10
-1584.816775
 20
-86.972883
 11
-1584.816775
 21
-136.972883
  0
SOLID
  8
0
 62
     1
 10
-1591.287251
 20
-112.824738
 11
-1578.346299
 21
-112.824738
 12
-1584.816775
 22
-136.972883
 13
-1584.816775
 23
-136.972883
  0
TEXT
  8
0
 62
     1
 10
-1590.150108
 20
-182.972883
 40
32.000000
 50
90.000000
 41
0.86 
  1
Ｂ
 72
     5
 11
-1590.150108
 21
-150.972883
  0
LINE
  8
0
 62
     1
  6
CONTINUOUS
 10
-1522.677749
 20
-136.972883
 11
-1594.816775
 21
-136.972883
  0
LINE
  8
0
 62
     1
  6
CONTINUOUS
 10
-1584.816775
 20
-136.972883
 11
-1584.816775
 21
-196.972883
  0
ENDBLK
  0
BLOCK
  8
0
  2
G21
 70
     0
 10
0
 20
0
  0
TEXT
  8
0
 62
     7
 10
-691.496956
 20
742.200445
 40
32.000000
 50
0.000000E+00
 41
0.66 
  1
％％ｃ　　　枝管
 72
     5
 11
-499.496956
 21
742.200445
  0
LINE
  8
0
 62
     3
  6
CONTINUOUS
 10
-691.796023
 20
732.702857
 11
-521.796023
 21
732.702857
  0
LINE
  8
0
 62
     3
  6
CONTINUOUS
 10
-691.796023
 20
724.702857
 11
-521.796023
 21
724.702857
  0
ENDBLK
  0
BLOCK
  8
0
  2
G22
 70
     0
 10
0
 20
0
  0
LINE
  8
0
 62
     3
  6
CONTINUOUS
 10
-1138.084833
 20
864.693959
 11
-1138.084833
 21
954.693959
  0
LINE
  8
0
 62
     3
  6
CONTINUOUS
 10
-1198.084833
 20
864.693959
 11
-1138.084833
 21
864.693959
  0
SOLID
  8
0
 62
     3
 10
-1169.395690
 20
873.465110
 11
-1169.395690
 21
855.922808
 12
-1198.084833
 22
864.693959
 13
-1198.084833
 23
864.693959
  0
ENDBLK
  0
BLOCK
  8
0
  2
G23
 70
     0
 10
0
 20
0
  0
TEXT
  8
0
 62
     1
 10
-935.996281
 20
-195.972883
 40
32.000000
 50
90.000000
 41
0.89 
  1
Ｌ（有効長）
 72
     5
 11
-935.996281
 21
0.027117
  0
LINE
  8
0
 62
     1
  6
CONTINUOUS
 10
-980.662948
 20
-556.972883
 11
-920.662948
 21
-556.972883
  0
LINE
  8
0
 62
     1
  6
CONTINUOUS
 10
-930.662948
 20
353.027117
 11
-930.662948
 21
-556.972883
  0
SOLID
  8
0
 62
     1
 10
-924.192472
 20
328.878971
 11
-937.133424
 21
328.878971
 12
-930.662948
 22
353.027117
 13
-930.662948
 23
353.027117
  0
SOLID
  8
0
 62
     1
 10
-937.133424
 20
-532.824738
 11
-924.192472
 21
-532.824738
 12
-930.662948
 22
-556.972883
 13
-930.662948
 23
-556.972883
  0
ENDBLK
  0
BLOCK
  8
0
  2
G24
 70
     0
 10
0
 20
0
  0
TEXT
  8
0
 62
     1
 10
-875.996281
 20
-100.472883
 40
32.000000
 50
90.000000
 41
0.97 
  1
Ｌｔ
 72
     5
 11
-875.996281
 21
-28.472883
  0
LINE
  8
0
 62
     1
  6
CONTINUOUS
 10
-920.662948
 20
-556.972883
 11
-860.662948
 21
-556.972883
  0
LINE
  8
0
 62
     1
  6
CONTINUOUS
 10
-920.662948
 20
428.027117
 11
-860.662948
 21
428.027117
  0
LINE
  8
0
 62
     1
  6
CONTINUOUS
 10
-870.662948
 20
428.027117
 11
-870.662948
 21
-556.972883
  0
SOLID
  8
0
 62
     1
 10
-864.192472
 20
403.878971
 11
-877.133424
 21
403.878971
 12
-870.662948
 22
428.027117
 13
-870.662948
 23
428.027117
  0
SOLID
  8
0
 62
     1
 10
-877.133424
 20
-532.824738
 11
-864.192472
 21
-532.824738
 12
-870.662948
 22
-556.972883
 13
-870.662948
 23
-556.972883
  0
ENDBLK
  0
BLOCK
  8
0
  2
G25
 70
     0
 10
0
 20
0
  0
TEXT
  8
0
 62
     3
 10
-987.283774
 20
503.253919
 40
32.000000
 50
0.000000E+00
 41
0.95 
  1
受口深さ　
 72
     5
 11
-811.283774
 21
503.253919
  0
ENDBLK
  0
BLOCK
  8
0
  2
G26
 70
     0
 10
0
 20
0
  0
TEXT
  8
0
 62
     3
 10
-797.707959
 20
234.936714
 40
32.000000
 50
360.000000
 41
0.95 
  1
受口深さ　
 72
     5
 11
-621.707959
 21
234.936714
  0
ENDBLK
  0
BLOCK
  8
0
  2
G27
 70
     0
 10
0
 20
0
  0
LINE
  8
0
 62
     7
  6
CONTINUOUS
 10
-1422.739862
 20
438.027117
 11
-1422.739862
 21
481.551724
  0
LINE
  8
0
 62
     7
  6
CONTINUOUS
 10
-1272.739862
 20
438.027117
 11
-1272.739862
 21
481.551724
  0
LINE
  8
0
 62
     7
  6
CONTINUOUS
 10
-1422.739862
 20
471.551724
 11
-1272.739862
 21
471.551724
  0
SOLID
  8
0
 62
     7
 10
-1394.050719
 20
480.322875
 11
-1394.050719
 21
462.780573
 12
-1422.739862
 22
471.551724
 13
-1422.739862
 23
471.551724
  0
SOLID
  8
0
 62
     7
 10
-1301.429004
 20
462.780573
 11
-1301.429004
 21
480.322875
 12
-1272.739862
 22
471.551724
 13
-1272.739862
 23
471.551724
  0
TEXT
  8
0
 62
     7
 10
-1405.739862
 20
476.885054
 40
32.000000
 50
0.000000E+00
 41
0.60 
  1
%%c150
 72
     5
 11
-1289.739862
 21
476.885054
  0
ENDBLK
  0
BLOCK
  8
0
  2
G28
 70
     0
 10
0
 20
0
  0
LINE
  8
0
 62
     7
  6
CONTINUOUS
 10
-1433.739862
 20
258.786486
 11
-1433.739862
 21
543.748668
  0
LINE
  8
0
 62
     7
  6
CONTINUOUS
 10
-1261.739862
 20
248.786486
 11
-1261.739862
 21
543.748668
  0
LINE
  8
0
 62
     7
  6
CONTINUOUS
 10
-1433.739862
 20
533.748668
 11
-1261.739862
 21
533.748668
  0
SOLID
  8
0
 62
     7
 10
-1405.050719
 20
542.519819
 11
-1405.050719
 21
524.977516
 12
-1433.739862
 22
533.748668
 13
-1433.739862
 23
533.748668
  0
SOLID
  8
0
 62
     7
 10
-1290.429004
 20
524.977516
 11
-1290.429004
 21
542.519819
 12
-1261.739862
 22
533.748668
 13
-1261.739862
 23
533.748668
  0
TEXT
  8
0
 62
     7
 10
-1405.739862
 20
539.081997
 40
32.000000
 50
0.000000E+00
 41
0.60 
  1
%%c172
 72
     5
 11
-1289.739862
 21
539.081997
  0
ENDBLK
  0
BLOCK
  8
0
  2
G29
 70
     0
 10
0
 20
0
  0
LINE
  8
0
 62
     7
  6
CONTINUOUS
 10
-1402.739862
 20
-566.972883
 11
-1402.739862
 21
-641.607049
  0
LINE
  8
0
 62
     7
  6
CONTINUOUS
 10
-1292.739862
 20
-566.972883
 11
-1292.739862
 21
-641.607049
  0
LINE
  8
0
 62
     7
  6
CONTINUOUS
 10
-1402.739862
 20
-631.607049
 11
-1292.739862
 21
-631.607049
  0
SOLID
  8
0
 62
     7
 10
-1374.050719
 20
-622.835898
 11
-1374.050719
 21
-640.378201
 12
-1402.739862
 22
-631.607049
 13
-1402.739862
 23
-631.607049
  0
SOLID
  8
0
 62
     7
 10
-1321.429004
 20
-640.378201
 11
-1321.429004
 21
-622.835898
 12
-1292.739862
 22
-631.607049
 13
-1292.739862
 23
-631.607049
  0
TEXT
  8
0
 62
     7
 10
-1405.739862
 20
-626.273720
 40
32.000000
 50
0.000000E+00
 41
0.60 
  1
%%c110
 72
     5
 11
-1289.739862
 21
-626.273720
  0
ENDBLK
  0
BLOCK
  8
0
  2
G30
 70
     0
 10
0
 20
0
  0
LINE
  8
0
 62
     7
  6
CONTINUOUS
 10
-1433.739862
 20
-303.100972
 11
-1433.739862
 21
-706.251332
  0
LINE
  8
0
 62
     7
  6
CONTINUOUS
 10
-1261.739862
 20
-293.100972
 11
-1261.739862
 21
-706.251332
  0
LINE
  8
0
 62
     7
  6
CONTINUOUS
 10
-1433.739862
 20
-696.251332
 11
-1261.739862
 21
-696.251332
  0
SOLID
  8
0
 62
     7
 10
-1405.050719
 20
-687.480181
 11
-1405.050719
 21
-705.022484
 12
-1433.739862
 22
-696.251332
 13
-1433.739862
 23
-696.251332
  0
SOLID
  8
0
 62
     7
 10
-1290.429004
 20
-705.022484
 11
-1290.429004
 21
-687.480181
 12
-1261.739862
 22
-696.251332
 13
-1261.739862
 23
-696.251332
  0
TEXT
  8
0
 62
     7
 10
-1405.739862
 20
-690.918003
 40
32.000000
 50
0.000000E+00
 41
0.60 
  1
%%c172
 72
     5
 11
-1289.739862
 21
-690.918003
  0
ENDBLK
  0
BLOCK
  8
0
  2
G31
 70
     0
 10
0
 20
0
  0
LINE
  8
0
 62
     7
  6
CONTINUOUS
 10
-1442.739862
 20
762.389268
 11
-1442.739862
 21
903.498815
  0
LINE
  8
0
 62
     7
  6
CONTINUOUS
 10
-1347.739862
 20
808.830428
 11
-1347.739862
 21
903.498815
  0
LINE
  8
0
 62
     7
  6
CONTINUOUS
 10
-1442.739862
 20
893.498815
 11
-1347.739862
 21
893.498815
  0
SOLID
  8
0
 62
     7
 10
-1414.050719
 20
902.269966
 11
-1414.050719
 21
884.727664
 12
-1442.739862
 22
893.498815
 13
-1442.739862
 23
893.498815
  0
SOLID
  8
0
 62
     7
 10
-1376.429004
 20
884.727664
 11
-1376.429004
 21
902.269966
 12
-1347.739862
 22
893.498815
 13
-1347.739862
 23
893.498815
  0
TEXT
  8
0
 62
     7
 10
-1413.239862
 20
898.832145
 40
32.000000
 50
0.000000E+00
 41
0.56 
  1
95
 72
     5
 11
-1377.239862
 21
898.832145
  0
ENDBLK
  0
BLOCK
  8
0
  2
G32
 70
     0
 10
0
 20
0
  0
LINE
  8
0
 62
     7
  6
CONTINUOUS
 10
-1275.739862
 20
785.389268
 11
-1044.485175
 21
785.389268
  0
LINE
  8
0
 62
     7
  6
CONTINUOUS
 10
-1109.153340
 20
690.389268
 11
-1044.485175
 21
690.389268
  0
LINE
  8
0
 62
     7
  6
CONTINUOUS
 10
-1054.485175
 20
785.389268
 11
-1054.485175
 21
690.389268
  0
SOLID
  8
0
 62
     7
 10
-1045.714024
 20
756.700126
 11
-1063.256326
 21
756.700126
 12
-1054.485175
 22
785.389268
 13
-1054.485175
 23
785.389268
  0
SOLID
  8
0
 62
     7
 10
-1063.256326
 20
719.078411
 11
-1045.714024
 21
719.078411
 12
-1054.485175
 22
690.389268
 13
-1054.485175
 23
690.389268
  0
TEXT
  8
0
 62
     7
 10
-1059.818505
 20
719.889268
 40
32.000000
 50
90.000000
 41
0.56 
  1
95
 72
     5
 11
-1059.818505
 21
755.889268
  0
ENDBLK
  0
ENDSEC
  0
SECTION
  2
ENTITIES
  0
LINE
  8
3
 62
     4
  6
CONTINUOUS
 10
-1430.539450
 20
-196.482684
 11
-1426.994801
 21
-194.763737
  0
LINE
  8
3
 62
     4
  6
CONTINUOUS
 10
-1426.994801
 20
-194.763737
 11
-1423.590333
 21
-191.843725
  0
LINE
  8
3
 62
     4
  6
CONTINUOUS
 10
-1423.590333
 20
-191.843725
 11
-1420.396804
 21
-187.783333
  0
LINE
  8
3
 62
     4
  6
CONTINUOUS
 10
-1420.396804
 20
-187.783333
 11
-1417.480582
 21
-182.666949
  0
LINE
  8
3
 62
     4
  6
CONTINUOUS
 10
-1417.480582
 20
-182.666949
 11
-1414.902277
 21
-176.600907
  0
LINE
  8
3
 62
     4
  6
CONTINUOUS
 10
-1414.902277
 20
-176.600907
 11
-1412.715473
 21
-169.711277
  0
LINE
  8
3
 62
     4
  6
CONTINUOUS
 10
-1412.715473
 20
-169.711277
 11
-1410.965617
 21
-162.141246
  0
LINE
  8
3
 62
     4
  6
CONTINUOUS
 10
-1410.965617
 20
-162.141246
 11
-1409.689079
 21
-154.048142
  0
LINE
  8
3
 62
     4
  6
CONTINUOUS
 10
-1409.689079
 20
-154.048142
 11
-1408.912387
 21
-145.600163
  0
LINE
  8
3
 62
     4
  6
CONTINUOUS
 10
-1408.912387
 20
-145.600163
 11
-1408.651683
 21
-136.972883
  0
LINE
  8
3
 62
     4
  6
CONTINUOUS
 10
-1408.912387
 20
-145.600163
 11
-1408.651683
 21
-136.972883
  0
ARC
  8
1
 62
     4
  6
CONTINUOUS
 10
-1241.938544
 20
-102.212691
 40
30.639745
 50
117.551999
 51
146.346996
  0
POINT
  8
3
 62
     7
 10
-1261.739862
 20
-76.972883
  0
POINT
  8
3
 62
     4
 10
-1261.739862
 20
-198.972883
  0
ARC
  8
3
 62
     4
  6
CONTINUOUS
 10
-1258.739862
 20
-201.972883
 40
3.000000
 50
90.000000
 51
180.000000
  0
LINE
  8
3
 62
     4
  6
CONTINUOUS
 10
-1254.739862
 20
-198.972883
 11
-1258.739862
 21
-198.972883
  0
ARC
  8
3
 62
     4
  6
CONTINUOUS
 10
-1254.739862
 20
-196.972883
 40
2.000000
 50
-90.000000
 51
0.000000E+00
  0
LINE
  8
3
 62
     4
  6
CONTINUOUS
 10
-1252.739862
 20
-196.972883
 11
-1252.739862
 21
-76.972883
  0
ARC
  8
3
 62
     4
  6
CONTINUOUS
 10
-1254.739862
 20
-76.972883
 40
2.000000
 50
0.000000E+00
 51
90.000000
  0
LINE
  8
3
 62
     4
  6
CONTINUOUS
 10
-1414.893237
 20
-91.972883
 11
-1347.739862
 21
-91.972883
  0
LINE
  8
0
 62
     2
  6
CONTINUOUS
 10
-1445.739862
 20
-41.471285
 11
-1445.739862
 21
-39.471285
  0
LINE
  8
0
 62
     2
  6
CONTINUOUS
 10
-1452.739862
 20
-38.471285
 11
-1347.739862
 21
-38.471285
  0
LINE
  8
0
 62
     2
  6
CONTINUOUS
 10
-1445.739862
 20
-41.471285
 11
-1249.739862
 21
-41.471285
  0
LINE
  8
0
 62
     2
  6
CONTINUOUS
 10
-1452.739862
 20
-38.471285
 11
-1452.739862
 21
-30.471285
  0
LINE
  8
0
 62
     3
  6
CONTINUOUS
 10
-1261.739862
 20
228.027117
 11
-1261.739862
 21
238.786486
  0
LINE
  8
3
 62
     3
  6
CONTINUOUS
 10
-1272.739862
 20
423.027117
 11
-1347.739862
 21
423.027117
  0
LINE
  8
3
 62
     3
  6
CONTINUOUS
 10
-1422.739862
 20
428.027117
 11
-1272.739862
 21
428.027117
  0
LINE
  8
3
 62
     3
  6
CONTINUOUS
 10
-1422.739862
 20
428.027117
 11
-1422.739862
 21
423.027117
  0
LINE
  8
0
 62
     3
  6
CONTINUOUS
 10
-1261.739862
 20
98.027117
 11
-1261.739862
 21
-23.471285
  0
ARC
  8
3
 62
     3
  6
CONTINUOUS
 10
-1285.739862
 20
351.027117
 40
10.000000
 50
-57.472862
 51
0.000000E+00
  0
LINE
  8
3
 62
     3
  6
CONTINUOUS
 10
-1419.739862
 20
418.444541
 11
-1419.739862
 21
351.027117
  0
LINE
  8
3
 62
     3
  6
CONTINUOUS
 10
-1275.739862
 20
418.444541
 11
-1275.739862
 21
351.027117
  0
ARC
  8
3
 62
     3
  6
CONTINUOUS
 10
-1409.739862
 20
351.027117
 40
10.000000
 50
180.000000
 51
238.038250
  0
LINE
  8
3
 62
     3
  6
CENTER
 10
-1181.806156
 20
163.027117
 11
-1449.665810
 21
163.027117
  0
LINE
  8
0
 62
     2
  6
CONTINUOUS
 10
-1249.739862
 20
-23.471285
 11
-1242.739862
 21
-30.471285
  0
ARC
  8
3
 62
     3
  6
CONTINUOUS
 10
-1424.739862
 20
418.444541
 40
5.000000
 50
0.000000E+00
 51
66.421822
  0
LINE
  8
3
 62
     3
  6
CONTINUOUS
 10
-1272.739862
 20
428.027117
 11
-1272.739862
 21
423.027117
  0
ARC
  8
0
 62
     3
  6
CONTINUOUS
 10
-1296.739862
 20
238.786486
 40
35.000000
 50
0.000000E+00
 51
17.716492
  0
ARC
  8
3
 62
     3
  6
CONTINUOUS
 10
-1270.739862
 20
418.444541
 40
5.000000
 50
113.578178
 51
180.000000
  0
LINE
  8
3
 62
     3
  6
CONTINUOUS
 10
-1270.000839
 20
245.903002
 11
-1347.739862
 21
245.903002
  0
ARC
  8
1
 62
     4
  6
CONTINUOUS
 10
-1254.739862
 20
-196.972883
 40
2.000000
 50
-90.000000
 51
0.000000E+00
  0
ARC
  8
1
 62
     4
  6
CONTINUOUS
 10
-1254.739862
 20
-76.972883
 40
2.000000
 50
0.000000E+00
 51
90.000000
  0
LINE
  8
1
 62
     4
  6
CONTINUOUS
 10
-1252.739862
 20
-76.972883
 11
-1252.739862
 21
-196.972883
  0
ARC
  8
3
 62
     4
  6
CONTINUOUS
 10
-1427.739862
 20
-410.844795
 40
25.000000
 50
0.000000E+00
 51
14.708304
  0
LINE
  8
3
 62
     4
  6
CONTINUOUS
 10
-1432.592945
 20
-291.987407
 11
-1403.559088
 21
-404.497342
  0
ARC
  8
3
 62
     4
  6
CONTINUOUS
 10
-1398.739862
 20
-283.100972
 40
35.000000
 50
180.000000
 51
194.708304
  0
LINE
  8
3
 62
     4
  6
CONTINUOUS
 10
-1402.739862
 20
-410.844795
 11
-1402.739862
 21
-554.972883
  0
ARC
  8
3
 62
     4
  6
CONTINUOUS
 10
-1267.739862
 20
-410.844795
 40
25.000000
 50
165.291696
 51
180.000000
  0
LINE
  8
3
 62
     4
  6
CONTINUOUS
 10
-1262.886778
 20
-291.987407
 11
-1291.920636
 21
-404.497342
  0
ARC
  8
3
 62
     4
  6
CONTINUOUS
 10
-1296.739862
 20
-283.100972
 40
35.000000
 50
-14.708304
 51
0.000000E+00
  0
LINE
  8
3
 62
     4
  6
CONTINUOUS
 10
-1292.739862
 20
-410.844795
 11
-1292.739862
 21
-554.972883
  0
LINE
  8
3
 62
     4
  6
CONTINUOUS
 10
-1294.739862
 20
-556.972883
 11
-1400.739862
 21
-556.972883
  0
LINE
  8
3
 62
     4
  6
CONTINUOUS
 10
-1397.990773
 20
-406.972883
 11
-1297.488951
 21
-406.972883
  0
LINE
  8
3
 62
     4
  6
CONTINUOUS
 10
-1428.488951
 20
-286.972883
 11
-1266.990773
 21
-286.972883
  0
LINE
  8
3
 62
     4
  6
CONTINUOUS
 10
-1433.739862
 20
-286.972883
 11
-1433.739862
 21
-201.972883
  0
LINE
  8
3
 62
     4
  6
CONTINUOUS
 10
-1254.739862
 20
-66.273521
 11
-1440.739862
 21
-66.273521
  0
LINE
  8
3
 62
     4
  6
CONTINUOUS
 10
-1261.739862
 20
-283.100972
 11
-1261.739862
 21
-201.972883
  0
LINE
  8
3
 62
     4
  6
CONTINUOUS
 10
-1451.739862
 20
-56.972883
 11
-1243.739862
 21
-56.972883
  0
LINE
  8
3
 62
     4
  6
CONTINUOUS
 10
-1242.739862
 20
-41.972883
 11
-1452.739862
 21
-41.972883
  0
ARC
  8
3
 62
     4
  6
CONTINUOUS
 10
-1400.739862
 20
-554.972883
 40
2.000000
 50
180.000000
 51
270.000000
  0
ARC
  8
3
 62
     4
  6
CONTINUOUS
 10
-1294.739862
 20
-554.972883
 40
2.000000
 50
-90.000000
 51
0.000000E+00
  0
LINE
  8
3
 62
     4
  6
CONTINUOUS
 10
-1242.739862
 20
-41.972883
 11
-1242.739862
 21
-56.972883
  0
LINE
  8
3
 62
     4
  6
CONTINUOUS
 10
-1243.739862
 20
-56.972883
 11
-1242.739862
 21
-56.972883
  0
LINE
  8
3
 62
     4
  6
CENTER
 10
-1515.706662
 20
-136.972883
 11
-1243.528461
 21
-136.972883
  0
LINE
  8
3
 62
     3
  6
CENTER
 10
-1426.228714
 20
-65.916452
 11
-1426.228714
 21
-35.425681
  0
LINE
  8
3
 62
     3
  6
CENTER
 10
-1269.251009
 20
-65.916452
 11
-1269.251009
 21
-35.425681
  0
ARC
  8
3
 62
     4
  6
CONTINUOUS
 10
-1243.739862
 20
-58.972883
 40
2.000000
 50
90.000000
 51
180.000000
  0
LINE
  8
3
 62
     4
  6
CONTINUOUS
 10
-1245.739862
 20
-58.972883
 11
-1245.739862
 21
-60.472883
  0
LINE
  8
3
 62
     4
  6
CONTINUOUS
 10
-1280.586486
 20
-91.972883
 11
-1347.739862
 21
-91.972883
  0
ARC
  8
3
 62
     4
  6
CONTINUOUS
 10
-1247.239862
 20
-60.472883
 40
1.500000
 50
-90.000000
 51
0.000000E+00
  0
LINE
  8
3
 62
     4
  6
CONTINUOUS
 10
-1247.239862
 20
-61.972883
 11
-1448.239862
 21
-61.972883
  0
LINE
  8
3
 62
     4
  6
CONTINUOUS
 10
-1251.180713
 20
-61.972883
 11
-1254.739862
 21
-66.273521
  0
LINE
  8
3
 62
     4
  6
CONTINUOUS
 10
-1254.739862
 20
-66.273521
 11
-1254.739862
 21
-74.972883
  0
LINE
  8
3
 62
     4
  6
CONTINUOUS
 10
-1440.739862
 20
-66.273521
 11
-1440.739862
 21
-74.972883
  0
LINE
  8
3
 62
     4
  6
CONTINUOUS
 10
-1444.299010
 20
-61.972883
 11
-1440.739862
 21
-66.273521
  0
ARC
  8
3
 62
     4
  6
CONTINUOUS
 10
-1448.239862
 20
-60.472883
 40
1.500000
 50
180.000000
 51
270.000000
  0
LINE
  8
3
 62
     4
  6
CONTINUOUS
 10
-1449.739862
 20
-58.972883
 11
-1449.739862
 21
-60.472883
  0
ARC
  8
3
 62
     4
  6
CONTINUOUS
 10
-1451.739862
 20
-58.972883
 40
2.000000
 50
0.000000E+00
 51
90.000000
  0
LINE
  8
3
 62
     4
  6
CONTINUOUS
 10
-1451.739862
 20
-56.972883
 11
-1452.739862
 21
-56.972883
  0
LINE
  8
3
 62
     4
  6
CONTINUOUS
 10
-1452.739862
 20
-41.972883
 11
-1452.739862
 21
-56.972883
  0
LINE
  8
0
 62
     3
  6
CONTINUOUS
 10
-1433.739862
 20
238.786486
 11
-1433.739862
 21
228.027117
  0
ARC
  8
0
 62
     3
  6
CONTINUOUS
 10
-1398.739862
 20
238.786486
 40
35.000000
 50
162.283508
 51
180.000000
  0
LINE
  8
3
 62
     3
  6
CONTINUOUS
 10
-1286.769878
 20
342.543100
 11
-1347.739862
 21
342.543100
  0
LINE
  8
0
 62
     3
  6
CONTINUOUS
 10
-1408.493178
 20
324.836132
 11
-1432.079949
 21
249.437240
  0
LINE
  8
0
 62
     3
  6
CONTINUOUS
 10
-1286.986545
 20
324.836132
 11
-1263.399774
 21
249.437240
  0
ARC
  8
2
 62
     3
  6
CONTINUOUS
 10
-1422.781787
 20
329.400741
 40
15.000000
 50
-17.716492
 51
59.888987
  0
LINE
  8
3
 62
     4
  6
CENTER
 10
-1347.739862
 20
-329.368262
 11
-1347.739862
 21
-17.290674
  0
LINE
  8
3
 62
     4
  6
CENTER
 10
-1347.739862
 20
-570.060403
 11
-1347.739862
 21
-329.368262
  0
LINE
  8
0
 62
     2
  6
CONTINUOUS
 10
-1445.739862
 20
-23.471285
 11
-1452.739862
 21
-30.471285
  0
LINE
  8
0
 62
     3
  6
CONTINUOUS
 10
-1433.739862
 20
98.027117
 11
-1433.739862
 21
-23.471285
  0
ARC
  8
2
 62
     3
  6
CONTINUOUS
 10
-1272.697936
 20
329.400741
 40
15.000000
 50
120.111013
 51
197.716492
  0
LINE
  8
3
 62
     3
  6
CONTINUOUS
 10
-1264.384056
 20
103.387137
 11
-1268.271706
 21
105.232300
  0
LINE
  8
3
 62
     3
  6
CONTINUOUS
 10
-1268.271706
 20
105.232300
 11
-1271.986868
 21
108.597538
  0
LINE
  8
3
 62
     3
  6
CONTINUOUS
 10
-1271.986868
 20
108.597538
 11
-1275.431827
 21
113.394342
  0
LINE
  8
3
 62
     3
  6
CONTINUOUS
 10
-1275.431827
 20
113.394342
 11
-1278.515977
 21
119.496551
  0
LINE
  8
3
 62
     3
  6
CONTINUOUS
 10
-1278.515977
 20
119.496551
 11
-1281.158201
 21
126.743668
  0
LINE
  8
3
 62
     3
  6
CONTINUOUS
 10
-1281.158201
 20
126.743668
 11
-1283.289005
 21
134.945085
  0
LINE
  8
3
 62
     3
  6
CONTINUOUS
 10
-1283.289005
 20
134.945085
 11
-1284.852346
 21
143.885095
  0
LINE
  8
3
 62
     3
  6
CONTINUOUS
 10
-1284.852346
 20
143.885095
 11
-1285.807106
 21
153.328564
  0
LINE
  8
3
 62
     3
  6
CONTINUOUS
 10
-1285.807106
 20
153.328564
 11
-1286.128174
 21
163.027117
  0
LINE
  8
3
 62
     3
  6
CONTINUOUS
 10
-1285.807106
 20
153.328564
 11
-1286.128174
 21
163.027117
  0
INSERT
  8
0
  2
G0
 10
0
 20
0
  0
LINE
  8
3
 62
     3
  6
CONTINUOUS
 10
-1263.926165
 20
222.780203
 11
-1267.487459
 21
221.325073
  0
LINE
  8
3
 62
     3
  6
CONTINUOUS
 10
-1267.487459
 20
221.325073
 11
-1270.922502
 21
218.595239
  0
LINE
  8
3
 62
     3
  6
CONTINUOUS
 10
-1270.922502
 20
218.595239
 11
-1274.156188
 21
214.650390
  0
LINE
  8
3
 62
     3
  6
CONTINUOUS
 10
-1274.156188
 20
214.650390
 11
-1277.117811
 21
209.576782
  0
LINE
  8
3
 62
     3
  6
CONTINUOUS
 10
-1277.117811
 20
209.576782
 11
-1279.742613
 21
203.485350
  0
LINE
  8
3
 62
     3
  6
CONTINUOUS
 10
-1279.742613
 20
203.485350
 11
-1281.973203
 21
196.509286
  0
LINE
  8
3
 62
     3
  6
CONTINUOUS
 10
-1281.973203
 20
196.509286
 11
-1283.760808
 21
188.801123
  0
LINE
  8
3
 62
     3
  6
CONTINUOUS
 10
-1283.760808
 20
188.801123
 11
-1285.066341
 21
180.529404
  0
LINE
  8
3
 62
     3
  6
CONTINUOUS
 10
-1285.066341
 20
180.529404
 11
-1285.861257
 21
171.874991
  0
LINE
  8
3
 62
     3
  6
CONTINUOUS
 10
-1285.861257
 20
171.874991
 11
-1286.128174
 21
163.027117
  0
LINE
  8
3
 62
     3
  6
CONTINUOUS
 10
-1285.861257
 20
171.874991
 11
-1286.128174
 21
163.027117
  0
LINE
  8
0
 62
     7
  6
CONTINUOUS
 10
-1200.260304
 20
269.111644
 11
-1200.260304
 21
227.327305
  0
SOLID
  8
0
 62
     7
 10
-1208.024875
 20
256.305080
 11
-1192.495733
 21
256.305080
 12
-1200.260304
 22
227.327305
 13
-1200.260304
 23
227.327305
  0
CIRCLE
  8
0
 62
     3
  6
CONTINUOUS
 10
-1347.739862
 20
690.389268
 40
86.000000
  0
INSERT
  8
0
  2
G1
 10
0
 20
0
  0
INSERT
  8
0
  2
G2
 10
0
 20
0
  0
TEXT
  8
0
 62
     7
 10
-1233.885785
 20
266.390527
 40
32.000000
 50
0.000000E+00
 41
0.78 
  1
７５枝管
 72
     5
 11
-1121.885785
 21
266.390527
  0
LINE
  8
3
 62
     4
  6
CONTINUOUS
 10
-1416.278439
 20
-93.890495
 11
-1414.746424
 21
-97.772664
  0
LINE
  8
3
 62
     4
  6
CONTINUOUS
 10
-1414.746424
 20
-97.772664
 11
-1413.364750
 21
-101.965120
  0
LINE
  8
3
 62
     4
  6
CONTINUOUS
 10
-1413.364750
 20
-101.965120
 11
-1412.144354
 21
-106.434677
  0
LINE
  8
3
 62
     4
  6
CONTINUOUS
 10
-1412.144354
 20
-106.434677
 11
-1411.094895
 21
-111.145956
  0
LINE
  8
3
 62
     4
  6
CONTINUOUS
 10
-1411.094895
 20
-111.145956
 11
-1410.224681
 21
-116.061667
  0
LINE
  8
3
 62
     4
  6
CONTINUOUS
 10
-1410.224681
 20
-116.061667
 11
-1409.540599
 21
-121.142898
  0
LINE
  8
3
 62
     4
  6
CONTINUOUS
 10
-1409.540599
 20
-121.142898
 11
-1409.048064
 21
-126.349430
  0
LINE
  8
3
 62
     4
  6
CONTINUOUS
 10
-1409.048064
 20
-126.349430
 11
-1408.750975
 21
-131.640051
  0
LINE
  8
3
 62
     4
  6
CONTINUOUS
 10
-1408.750975
 20
-131.640051
 11
-1408.651683
 21
-136.972883
  0
LINE
  8
3
 62
     4
  6
CONTINUOUS
 10
-1408.750975
 20
-131.640051
 11
-1408.651683
 21
-136.972883
  0
ARC
  8
3
 62
     4
  6
CONTINUOUS
 10
-1407.868044
 20
-65.024384
 40
28.500781
 50
225.057601
 51
244.512889
  0
POINT
  8
3
 62
     7
 10
-1433.739862
 20
-76.972883
  0
ARC
  8
3
 62
     4
  6
CONTINUOUS
 10
-1287.611679
 20
-65.024384
 40
28.500781
 50
295.487111
 51
314.942399
  0
ARC
  8
1
 62
     4
  6
CONTINUOUS
 10
-1440.739862
 20
-196.972883
 40
2.000000
 50
180.000000
 51
270.000000
  0
ARC
  8
1
 62
     4
  6
CONTINUOUS
 10
-1440.739862
 20
-76.972883
 40
2.000000
 50
90.000000
 51
180.000000
  0
ARC
  8
1
 62
     4
  6
CONTINUOUS
 10
-1436.739862
 20
-201.972883
 40
3.000000
 50
0.000000E+00
 51
90.000000
  0
LINE
  8
1
 62
     4
  6
CONTINUOUS
 10
-1436.739862
 20
-198.972883
 11
-1440.739862
 21
-198.972883
  0
ARC
  8
1
 62
     4
  6
CONTINUOUS
 10
-1453.541179
 20
-102.212691
 40
30.639745
 50
33.671563
 51
62.448001
  0
LINE
  8
1
 62
     4
  6
CONTINUOUS
 10
-1442.739862
 20
-76.972883
 11
-1442.739862
 21
-196.972883
  0
LINE
  8
3
 62
     4
  6
CONTINUOUS
 10
-1279.201285
 20
-93.890495
 11
-1280.586672
 21
-97.369957
  0
LINE
  8
3
 62
     4
  6
CONTINUOUS
 10
-1280.586672
 20
-97.369957
 11
-1281.851208
 21
-101.103366
  0
LINE
  8
3
 62
     4
  6
CONTINUOUS
 10
-1281.851208
 20
-101.103366
 11
-1282.986785
 21
-105.066780
  0
LINE
  8
3
 62
     4
  6
CONTINUOUS
 10
-1282.986785
 20
-105.066780
 11
-1283.986120
 21
-109.234785
  0
LINE
  8
3
 62
     4
  6
CONTINUOUS
 10
-1283.986120
 20
-109.234785
 11
-1284.842805
 21
-113.580655
  0
LINE
  8
3
 62
     4
  6
CONTINUOUS
 10
-1284.842805
 20
-113.580655
 11
-1285.551348
 21
-118.076523
  0
LINE
  8
3
 62
     4
  6
CONTINUOUS
 10
-1285.551348
 20
-118.076523
 11
-1286.107205
 21
-122.693560
  0
LINE
  8
3
 62
     4
  6
CONTINUOUS
 10
-1286.107205
 20
-122.693560
 11
-1286.506811
 21
-127.402159
  0
LINE
  8
3
 62
     4
  6
CONTINUOUS
 10
-1286.506811
 20
-127.402159
 11
-1286.747604
 21
-132.172130
  0
LINE
  8
3
 62
     4
  6
CONTINUOUS
 10
-1286.747604
 20
-132.172130
 11
-1286.828040
 21
-136.972883
  0
LINE
  8
3
 62
     4
  6
CONTINUOUS
 10
-1286.747604
 20
-132.172130
 11
-1286.828040
 21
-136.972883
  0
LINE
  8
3
 62
     4
  6
CONTINUOUS
 10
-1264.940273
 20
-196.482684
 11
-1268.484923
 21
-194.763737
  0
LINE
  8
3
 62
     4
  6
CONTINUOUS
 10
-1268.484923
 20
-194.763737
 11
-1271.889390
 21
-191.843725
  0
LINE
  8
3
 62
     4
  6
CONTINUOUS
 10
-1271.889390
 20
-191.843725
 11
-1275.082920
 21
-187.783333
  0
LINE
  8
3
 62
     4
  6
CONTINUOUS
 10
-1275.082920
 20
-187.783333
 11
-1277.999141
 21
-182.666949
  0
LINE
  8
3
 62
     4
  6
CONTINUOUS
 10
-1277.999141
 20
-182.666949
 11
-1280.577446
 21
-176.600907
  0
LINE
  8
3
 62
     4
  6
CONTINUOUS
 10
-1280.577446
 20
-176.600907
 11
-1282.764251
 21
-169.711277
  0
LINE
  8
3
 62
     4
  6
CONTINUOUS
 10
-1282.764251
 20
-169.711277
 11
-1284.514106
 21
-162.141246
  0
LINE
  8
3
 62
     4
  6
CONTINUOUS
 10
-1284.514106
 20
-162.141246
 11
-1285.790645
 21
-154.048142
  0
LINE
  8
3
 62
     4
  6
CONTINUOUS
 10
-1285.790645
 20
-154.048142
 11
-1286.567337
 21
-145.600163
  0
LINE
  8
3
 62
     4
  6
CONTINUOUS
 10
-1286.567337
 20
-145.600163
 11
-1286.828040
 21
-136.972883
  0
LINE
  8
3
 62
     4
  6
CONTINUOUS
 10
-1286.567337
 20
-145.600163
 11
-1286.828040
 21
-136.972883
  0
POINT
  8
0
 62
     3
 10
-1347.739862
 20
-49.972883
  0
POINT
  8
0
 62
     3
 10
-1347.739862
 20
-64.472883
  0
POINT
  8
0
 62
     3
 10
-1347.739862
 20
-86.972883
  0
ARC
  8
0
 62
     2
  6
CONTINUOUS
 10
-1446.739862
 20
-39.471285
 40
1.000000
 50
360.000000
 51
450.000000
  0
LINE
  8
0
 62
     2
  6
CONTINUOUS
 10
-1445.739862
 20
-23.471285
 11
-1249.739862
 21
-23.471285
  0
LINE
  8
3
 62
     3
  6
CONTINUOUS
 10
-1192.739862
 20
100.527117
 11
-1192.739862
 21
223.027117
  0
LINE
  8
3
 62
     3
  6
CONTINUOUS
 10
-1192.739862
 20
100.527117
 11
-1187.739862
 21
100.527117
  0
LINE
  8
3
 62
     3
  6
CONTINUOUS
 10
-1192.739862
 20
223.027117
 11
-1252.739862
 21
223.027117
  0
ARC
  8
1
 62
     3
  6
CONTINUOUS
 10
-1254.739862
 20
103.027117
 40
2.000000
 50
-90.000000
 51
0.000000E+00
  0
LINE
  8
3
 62
     3
  6
CONTINUOUS
 10
-1192.739862
 20
103.027117
 11
-1252.739862
 21
103.027117
  0
LINE
  8
3
 62
     3
  6
CONTINUOUS
 10
-1192.739862
 20
225.527117
 11
-1187.739862
 21
225.527117
  0
LINE
  8
3
 62
     3
  6
CONTINUOUS
 10
-1192.739862
 20
225.527117
 11
-1192.739862
 21
223.027117
  0
LINE
  8
3
 62
     3
  6
CONTINUOUS
 10
-1187.739862
 20
225.527117
 11
-1187.739862
 21
100.527117
  0
LINE
  8
1
 62
     3
  6
CONTINUOUS
 10
-1254.739862
 20
225.027117
 11
-1258.739862
 21
225.027117
  0
LINE
  8
1
 62
     3
  6
CONTINUOUS
 10
-1254.739862
 20
101.027117
 11
-1258.739862
 21
101.027117
  0
ARC
  8
1
 62
     3
  6
CONTINUOUS
 10
-1254.739862
 20
223.027117
 40
2.000000
 50
0.000000E+00
 51
90.000000
  0
ARC
  8
1
 62
     3
  6
CONTINUOUS
 10
-1258.739862
 20
228.027117
 40
3.000000
 50
180.000000
 51
270.000000
  0
ARC
  8
1
 62
     3
  6
CONTINUOUS
 10
-1258.739862
 20
98.027117
 40
3.000000
 50
90.000000
 51
180.000000
  0
ARC
  8
0
 62
     3
  6
CONTINUOUS
 10
-1296.739862
 20
238.786486
 40
35.000000
 50
0.000000E+00
 51
17.716492
  0
LINE
  8
0
 62
     3
  6
CONTINUOUS
 10
-1261.739862
 20
238.786486
 11
-1261.739862
 21
228.027117
  0
LINE
  8
0
 62
     2
  6
CONTINUOUS
 10
-1452.739862
 20
-30.471285
 11
-1347.739862
 21
-30.471285
  0
LINE
  8
3
 62
     3
  6
CENTER
 10
-1347.739862
 20
435.501565
 11
-1347.739862
 21
-17.290674
  0
LINE
  8
3
 62
     3
  6
CONTINUOUS
 10
-1425.478884
 20
245.903002
 11
-1347.739862
 21
245.903002
  0
LINE
  8
3
 62
     3
  6
CONTINUOUS
 10
-1408.709846
 20
342.543100
 11
-1347.739862
 21
342.543100
  0
LINE
  8
3
 62
     3
  6
CONTINUOUS
 10
-1422.739862
 20
423.027117
 11
-1347.739862
 21
423.027117
  0
POINT
  8
0
 62
     3
 10
-1347.739862
 20
353.027117
  0
TEXT
  8
0
 62
     6
 10
-1663.166393
 20
1078.812443
 40
35.000000
 50
0.000000E+00
 41
0.81 
  1
４ＳＦ－　　　－　　　　００　　０－Ｐ
 72
     5
 11
-1047.666393
 21
1078.812443
  0
INSERT
  8
0
  2
G3
 10
0
 20
0
  0
INSERT
  8
0
  2
G4
 10
0
 20
0
  0
INSERT
  8
0
  2
G5
 10
0
 20
0
  0
LINE
  8
0
 62
     1
  6
CONTINUOUS
 10
-980.662948
 20
163.027117
 11
-1171.806156
 21
163.027117
  0
LINE
  8
0
 62
     1
  6
CONTINUOUS
 10
-1110.662948
 20
163.027117
 11
-1093.786954
 21
163.027117
  0
INSERT
  8
0
  2
G6
 10
0
 20
0
  0
LINE
  8
0
 62
     2
  6
CONTINUOUS
 10
-1242.739862
 20
-38.471285
 11
-1242.739862
 21
-30.471285
  0
LINE
  8
0
 62
     2
  6
CONTINUOUS
 10
-1249.739862
 20
-41.471285
 11
-1249.739862
 21
-39.471285
  0
ARC
  8
0
 62
     2
  6
CONTINUOUS
 10
-1248.739862
 20
-39.471285
 40
1.000000
 50
90.000000
 51
180.000000
  0
LINE
  8
0
 62
     2
  6
CONTINUOUS
 10
-1242.739862
 20
-30.471285
 11
-1347.739862
 21
-30.471285
  0
LINE
  8
0
 62
     2
  6
CONTINUOUS
 10
-1242.739862
 20
-38.471285
 11
-1347.739862
 21
-38.471285
  0
INSERT
  8
0
  2
G7
 10
0
 20
0
  0
INSERT
  8
0
  2
G8
 10
0
 20
0
  0
ARC
  8
0
 62
     3
  6
CONTINUOUS
 10
-1407.739862
 20
783.389268
 40
2.000000
 50
90.000000
 51
180.000000
  0
LINE
  8
0
 62
     3
  6
CONTINUOUS
 10
-1409.739862
 20
783.389268
 11
-1409.739862
 21
755.389268
  0
ARC
  8
0
 62
     3
  6
CONTINUOUS
 10
-1287.739862
 20
783.389268
 40
2.000000
 50
0.000000E+00
 51
90.000000
  0
LINE
  8
0
 62
     3
  6
CONTINUOUS
 10
-1285.739862
 20
783.389268
 11
-1285.739862
 21
755.389268
  0
LINE
  8
0
 62
     3
  6
CONTINUOUS
 10
-1287.739862
 20
785.389268
 11
-1407.739862
 21
785.389268
  0
ARC
  8
0
 62
     3
  6
CONTINUOUS
 10
-1440.739862
 20
750.389268
 40
2.000000
 50
90.000000
 51
180.000000
  0
LINE
  8
0
 62
     3
  6
CONTINUOUS
 10
-1440.739862
 20
752.389268
 11
-1412.739862
 21
752.389268
  0
ARC
  8
0
 62
     3
  6
CONTINUOUS
 10
-1440.739862
 20
630.389268
 40
2.000000
 50
180.000000
 51
270.000000
  0
LINE
  8
0
 62
     3
  6
CONTINUOUS
 10
-1440.739862
 20
628.389268
 11
-1408.057769
 21
628.389268
  0
LINE
  8
0
 62
     3
  6
CONTINUOUS
 10
-1442.739862
 20
630.389268
 11
-1442.739862
 21
750.389268
  0
ARC
  8
0
 62
     3
  6
CONTINUOUS
 10
-1282.739862
 20
755.389268
 40
3.000000
 50
180.000000
 51
270.000000
  0
ARC
  8
0
 62
     3
  6
CONTINUOUS
 10
-1412.739862
 20
755.389268
 40
3.000000
 50
-90.000000
 51
0.000000E+00
  0
CIRCLE
  8
0
 62
     3
  6
CONTINUOUS
 10
-1347.739862
 20
690.389268
 40
67.000000
  0
CIRCLE
  8
0
 62
     3
  6
CONTINUOUS
 10
-1347.739862
 20
690.389268
 40
52.000000
  0
ARC
  8
0
 62
     3
  6
CONTINUOUS
 10
-1254.739862
 20
630.389268
 40
2.000000
 50
-90.000000
 51
0.000000E+00
  0
LINE
  8
0
 62
     3
  6
CONTINUOUS
 10
-1254.739862
 20
628.389268
 11
-1287.421954
 21
628.389268
  0
ARC
  8
0
 62
     3
  6
CONTINUOUS
 10
-1254.739862
 20
750.389268
 40
2.000000
 50
0.000000E+00
 51
90.000000
  0
LINE
  8
0
 62
     3
  6
CONTINUOUS
 10
-1254.739862
 20
752.389268
 11
-1282.739862
 21
752.389268
  0
LINE
  8
0
 62
     3
  6
CONTINUOUS
 10
-1252.739862
 20
750.389268
 11
-1252.739862
 21
630.389268
  0
LINE
  8
3
 62
     3
  6
CONTINUOUS
 10
-1192.739862
 20
630.389268
 11
-1252.739862
 21
630.389268
  0
INSERT
  8
0
  2
G9
 10
0
 20
0
  0
INSERT
  8
0
  2
G10
 10
0
 20
0
  0
INSERT
  8
0
  2
G11
 10
0
 20
0
  0
LINE
  8
3
 62
     3
  6
CONTINUOUS
 10
-1187.739862
 20
752.889268
 11
-1187.739862
 21
627.889268
  0
LINE
  8
3
 62
     3
  6
CONTINUOUS
 10
-1192.739862
 20
752.889268
 11
-1192.739862
 21
750.389268
  0
LINE
  8
3
 62
     3
  6
CONTINUOUS
 10
-1192.739862
 20
752.889268
 11
-1187.739862
 21
752.889268
  0
LINE
  8
3
 62
     3
  6
CONTINUOUS
 10
-1192.739862
 20
627.889268
 11
-1187.739862
 21
627.889268
  0
LINE
  8
3
 62
     3
  6
CONTINUOUS
 10
-1192.739862
 20
627.889268
 11
-1192.739862
 21
750.389268
  0
LINE
  8
3
 62
     3
  6
CONTINUOUS
 10
-1192.739862
 20
750.389268
 11
-1252.739862
 21
750.389268
  0
CIRCLE
  8
0
 62
     3
  6
CONTINUOUS
 10
-1347.739862
 20
690.389268
 40
75.000000
  0
LINE
  8
3
 62
     3
  6
CENTER
 10
-1182.263693
 20
690.389268
 11
-1453.933185
 21
690.389268
  0
LINE
  8
3
 62
     3
  6
CENTER
 10
-1347.739862
 20
788.830428
 11
-1347.739862
 21
588.290816
  0
ARC
  8
0
 62
     4
  6
CONTINUOUS
 10
-466.000000
 20
525.000000
 40
100.000000
 50
126.038338
 51
143.961662
  0
LINE
  8
3
 62
     4
  6
CONTINUOUS
 10
-626.000000
 20
587.500000
 11
-626.000000
 21
462.500000
  0
LINE
  8
3
 62
     4
  6
CONTINUOUS
 10
-621.000000
 20
587.500000
 11
-626.000000
 21
587.500000
  0
LINE
  8
3
 62
     4
  6
CONTINUOUS
 10
-621.000000
 20
462.500000
 11
-626.000000
 21
462.500000
  0
LINE
  8
3
 62
     4
  6
CONTINUOUS
 10
-621.000000
 20
462.500000
 11
-621.000000
 21
587.500000
  0
LINE
  8
3
 62
     4
  6
CONTINUOUS
 10
-621.000000
 20
585.000000
 11
-561.317919
 21
585.000000
  0
LINE
  8
3
 62
     4
  6
CONTINUOUS
 10
-621.000000
 20
465.000000
 11
-561.317919
 21
465.000000
  0
ARC
  8
3
 62
     3
  6
CONTINUOUS
 10
-466.000000
 20
525.000000
 40
105.000000
 50
170.096801
 51
190.978618
  0
ARC
  8
0
 62
     4
  6
CONTINUOUS
 10
-466.000000
 20
525.000000
 40
100.000000
 50
36.038338
 51
53.961662
  0
ARC
  8
0
 62
     4
  6
CONTINUOUS
 10
-466.000000
 20
525.000000
 40
100.000000
 50
306.038338
 51
323.961662
  0
CIRCLE
  8
3
 62
     4
  6
CONTINUOUS
 10
-466.000000
 20
525.000000
 40
88.000000
  0
ARC
  8
3
 62
     4
  6
CONTINUOUS
 10
-466.000000
 20
525.000000
 40
100.000000
 50
143.109614
 51
216.890386
  0
LINE
  8
3
 62
     4
  6
CONTINUOUS
 10
-557.250931
 20
605.964607
 11
-569.453628
 21
543.061853
  0
ARC
  8
3
 62
     3
  6
CONTINUOUS
 10
-466.000000
 20
525.000000
 40
105.000000
 50
-10.978618
 51
9.903199
  0
ARC
  8
3
 62
     3
  6
CONTINUOUS
 10
-466.000000
 20
525.000000
 40
105.000000
 50
260.096801
 51
279.903199
  0
LINE
  8
3
 62
     4
  6
CONTINUOUS
 10
-557.250931
 20
444.035393
 11
-569.453628
 21
506.938147
  0
LINE
  8
3
 62
     3
  6
CENTER
 10
-397.288243
 20
456.288243
 11
-376.607067
 21
435.607067
  0
LINE
  8
3
 62
     4
  6
CONTINUOUS
 10
-546.964607
 20
433.749069
 11
-484.061853
 21
421.546372
  0
ARC
  8
3
 62
     4
  6
CENTER
 10
-466.000000
 20
525.000000
 40
111.000000
 50
306.265016
 51
322.275712
  0
LINE
  8
3
 62
     3
  6
CENTER
 10
-533.637531
 20
457.362469
 11
-556.149487
 21
434.850513
  0
ARC
  8
3
 62
     4
  6
CENTER
 10
-466.000000
 20
525.000000
 40
111.000000
 50
216.069475
 51
234.182385
  0
ARC
  8
3
 62
     4
  6
CENTER
 10
-466.000000
 20
525.000000
 40
111.000000
 50
124.449115
 51
144.970079
  0
LINE
  8
3
 62
     4
  6
CONTINUOUS
 10
-385.035393
 20
433.749069
 11
-447.938147
 21
421.546372
  0
LINE
  8
3
 62
     4
  6
CONTINUOUS
 10
-485.996478
 20
628.078324
 11
-546.964607
 21
616.250931
  0
LINE
  8
3
 62
     3
  6
CENTER
 10
-533.991228
 20
592.991228
 11
-555.941928
 21
614.941928
  0
LINE
  8
3
 62
     4
  6
CONTINUOUS
 10
-374.749069
 20
444.035393
 11
-362.921676
 21
505.003522
  0
ARC
  8
3
 62
     4
  6
CONTINUOUS
 10
-387.511147
 20
446.511147
 40
13.000000
 50
280.978618
 51
349.021382
  0
ARC
  8
3
 62
     4
  6
CONTINUOUS
 10
-544.488853
 20
446.511147
 40
13.000000
 50
190.978618
 51
259.021382
  0
ARC
  8
3
 62
     4
  6
CONTINUOUS
 10
-544.488853
 20
603.488853
 40
13.000000
 50
100.978618
 51
169.021382
  0
LINE
  8
3
 62
     3
  6
CENTER
 10
-398.014135
 20
592.985865
 11
-376.273441
 21
614.726559
  0
LINE
  8
3
 62
     4
  6
CONTINUOUS
 10
-374.749069
 20
605.964607
 11
-362.546372
 21
543.061853
  0
LINE
  8
3
 62
     4
  6
CONTINUOUS
 10
-385.035393
 20
616.250931
 11
-446.003522
 21
628.078324
  0
ARC
  8
3
 62
     3
  6
CONTINUOUS
 10
-466.000000
 20
525.000000
 40
105.000000
 50
79.021382
 51
100.978618
  0
CIRCLE
  8
3
 62
     3
  6
CONTINUOUS
 10
-466.000000
 20
525.000000
 40
81.000000
  0
ARC
  8
3
 62
     4
  6
CONTINUOUS
 10
-387.511147
 20
603.488853
 40
13.000000
 50
10.978618
 51
79.021382
  0
LINE
  8
3
 62
     3
  6
CENTER
 10
-631.476168
 20
525.000000
 11
-348.749950
 21
525.000000
  0
LINE
  8
3
 62
     3
  6
CENTER
 10
-466.000000
 20
633.997250
 11
-466.000000
 21
408.580925
  0
CIRCLE
  8
3
 62
     4
  6
CONTINUOUS
 10
-544.488853
 20
603.488853
 40
7.000000
  0
CIRCLE
  8
3
 62
     4
  6
CONTINUOUS
 10
-387.511147
 20
603.488853
 40
7.000000
  0
CIRCLE
  8
3
 62
     4
  6
CONTINUOUS
 10
-387.511147
 20
446.511147
 40
7.000000
  0
CIRCLE
  8
3
 62
     4
  6
CONTINUOUS
 10
-544.488853
 20
446.511147
 40
7.000000
  0
ARC
  8
3
 62
     4
  6
CENTER
 10
-466.000000
 20
525.000000
 40
111.000000
 50
37.018997
 51
55.489571
  0
ARC
  8
3
 62
     4
  6
CONTINUOUS
 10
-466.000000
 20
525.000000
 40
100.000000
 50
53.109614
 51
126.890386
  0
ARC
  8
3
 62
     4
  6
CONTINUOUS
 10
-466.000000
 20
525.000000
 40
100.000000
 50
323.109614
 51
396.890386
  0
ARC
  8
3
 62
     4
  6
CONTINUOUS
 10
-466.000000
 20
525.000000
 40
100.000000
 50
233.109614
 51
306.890386
  0
ARC
  8
0
 62
     4
  6
CONTINUOUS
 10
-466.000000
 20
525.000000
 40
100.000000
 50
216.038338
 51
233.961662
  0
TEXT
  8
0
 62
     6
 10
-1480.183521
 20
1078.910129
 40
35.000000
 50
0.000000E+00
 41
0.86 
  1
Ａ
 72
     5
 11
-1445.183521
 21
1078.910129
  0
TEXT
  8
0
 62
     6
 10
-1359.509580
 20
1079.910129
 40
35.000000
 50
0.000000E+00
 41
0.86 
  1
Ａ
 72
     5
 11
-1324.509580
 21
1079.910129
  0
TEXT
  8
0
 62
     6
 10
-1379.359195
 20
1144.959535
 40
32.000000
 50
0.000000E+00
 41
0.97 
  1
下部
 72
     5
 11
-1307.359195
 21
1144.959535
  0
TEXT
  8
0
 62
     6
 10
-1499.359195
 20
1144.959535
 40
32.000000
 50
0.000000E+00
 41
0.97 
  1
上部
 72
     5
 11
-1427.359195
 21
1144.959535
  0
INSERT
  8
0
  2
G12
 10
0
 20
0
  0
INSERT
  8
0
  2
G13
 10
0
 20
0
  0
TEXT
  8
0
 62
     6
 10
-1022.912371
 20
1098.485825
 40
35.000000
 50
0.000000E+00
 41
0.60 
  1
240,260,280
 72
     5
 11
-790.412371
 21
1098.485825
  0
TEXT
  8
0
 62
     6
 10
-1021.051869
 20
1056.370812
 40
35.000000
 50
0.000000E+00
 41
0.60 
  1
300,340,360
 72
     5
 11
-788.551869
 21
1056.370812
  0
TEXT
  8
0
 62
     6
 10
-1208.933805
 20
1169.451072
 40
32.000000
 50
0.000000E+00
 41
0.86 
  1
ａ
 72
     5
 11
-1176.933805
 21
1169.451072
  0
CIRCLE
  8
0
 62
     6
  6
HIDDEN
 10
-1193.802953
 20
1046.418667
 40
20.000000
  0
TEXT
  8
0
 62
     6
 10
-1201.802953
 20
1030.418667
 40
32.000000
 50
0.000000E+00
 41
0.50 
  1
3
 72
     5
 11
-1185.802953
 21
1030.418667
  0
CIRCLE
  8
0
 62
     6
  6
HIDDEN
 10
-1193.802953
 20
1093.777279
 40
20.000000
  0
TEXT
  8
0
 62
     6
 10
-1201.802953
 20
1077.777279
 40
32.000000
 50
0.000000E+00
 41
0.50 
  1
2
 72
     5
 11
-1185.802953
 21
1077.777279
  0
CIRCLE
  8
0
 62
     6
  6
HIDDEN
 10
-1193.802953
 20
1141.810698
 40
20.000000
  0
TEXT
  8
0
 62
     6
 10
-1201.802953
 20
1125.810698
 40
32.000000
 50
0.000000E+00
 41
0.50 
  1
1
 72
     5
 11
-1185.802953
 21
1125.810698
  0
TEXT
  8
0
 62
     6
 10
-501.793661
 20
956.134541
 40
32.000000
 50
0.000000E+00
 41
0.50 
  1
3
 72
     5
 11
-485.793661
 21
956.134541
  0
TEXT
  8
0
 62
     6
 10
-501.793661
 20
1016.134541
 40
32.000000
 50
0.000000E+00
 41
0.50 
  1
2
 72
     5
 11
-485.793661
 21
1016.134541
  0
TEXT
  8
0
 62
     6
 10
-501.793661
 20
1076.134541
 40
32.000000
 50
0.000000E+00
 41
0.50 
  1
1
 72
     5
 11
-485.793661
 21
1076.134541
  0
TEXT
  8
0
 62
     6
 10
-470.705692
 20
959.530401
 40
32.000000
 50
0.000000E+00
 41
0.74 
  1
：％％ｃ７５枝管
 72
     5
 11
-258.705692
 21
959.530401
  0
TEXT
  8
0
 62
     6
 10
-470.705692
 20
1019.530401
 40
32.000000
 50
0.000000E+00
 41
0.74 
  1
：％％ｃ６５枝管
 72
     5
 11
-258.705692
 21
1019.530401
  0
TEXT
  8
0
 62
     6
 10
-470.705692
 20
1079.530401
 40
32.000000
 50
0.000000E+00
 41
0.74 
  1
：％％ｃ５０枝管
 72
     5
 11
-258.705692
 21
1079.530401
  0
TEXT
  8
0
 62
     6
 10
-568.581501
 20
1132.505821
 40
32.000000
 50
0.000000E+00
 41
0.97 
  1
枝管のタイプ（呼び径）
 72
     5
 11
-172.581501
 21
1132.505821
  0
LINE
  8
0
 62
     1
  6
CONTINUOUS
 10
-458.059724
 20
708.302758
 11
-406.084892
 21
760.277589
  0
LINE
  8
0
 62
     1
  6
CONTINUOUS
 10
-230.722411
 20
584.915108
 11
-371.247691
 21
444.389827
  0
INSERT
  8
0
  2
G14
 10
0
 20
0
  0
INSERT
  8
0
  2
G15
 10
0
 20
0
  0
LINE
  8
0
 62
     1
  6
CONTINUOUS
 10
-546.610173
 20
619.752309
 11
-502.202856
 21
664.159626
  0
INSERT
  8
0
  2
G16
 10
0
 20
0
  0
INSERT
  8
0
  2
G17
 10
0
 20
0
  0
LINE
  8
0
 62
     1
  6
CONTINUOUS
 10
-561.000000
 20
459.361184
 11
-561.000000
 21
363.375253
  0
INSERT
  8
0
  2
G18
 10
0
 20
0
  0
LINE
  8
0
 62
     3
  6
CONTINUOUS
 10
-715.888960
 20
385.101797
 11
-715.888960
 21
275.249422
  0
LINE
  8
0
 62
     3
  6
CONTINUOUS
 10
-197.973601
 20
237.299014
 11
-457.332586
 21
237.299014
  0
INSERT
  8
0
  2
G19
 10
0
 20
0
  0
INSERT
  8
0
  2
G20
 10
0
 20
0
  0
TEXT
  8
0
 62
     3
 10
-457.973601
 20
242.632347
 40
32.000000
 50
360.000000
 41
0.87 
  1
Ｃ矢視　（下部）
 72
     5
 11
-201.973601
 21
242.632347
  0
TEXT
  8
0
 62
     3
 10
-611.795368
 20
477.721130
 40
32.000000
 50
0.000000E+00
 41
0.86 
  1
ａ
 72
     5
 11
-579.795368
 21
477.721130
  0
LINE
  8
3
 62
     4
  6
CONTINUOUS
 10
-1502.739862
 20
-74.472883
 11
-1502.739862
 21
-196.972883
  0
LINE
  8
3
 62
     4
  6
CONTINUOUS
 10
-1502.739862
 20
-74.472883
 11
-1507.739862
 21
-74.472883
  0
LINE
  8
3
 62
     4
  6
CONTINUOUS
 10
-1507.739862
 20
-74.472883
 11
-1507.739862
 21
-196.972883
  0
LINE
  8
3
 62
     4
  6
CONTINUOUS
 10
-1507.739862
 20
-196.972883
 11
-1442.739862
 21
-196.972883
  0
LINE
  8
3
 62
     4
  6
CONTINUOUS
 10
-1502.739862
 20
-76.972883
 11
-1442.739862
 21
-76.972883
  0
LINE
  8
0
 62
     7
  6
CONTINUOUS
 10
-1589.816775
 20
-196.972883
 11
-1517.677749
 21
-196.972883
  0
ARC
  8
1
 62
     3
  6
CONTINUOUS
 10
-1437.239862
 20
98.027117
 40
3.000000
 50
0.000000E+00
 51
90.000000
  0
ARC
  8
1
 62
     3
  6
CONTINUOUS
 10
-1437.239862
 20
228.027117
 40
3.000000
 50
270.000000
 51
360.000000
  0
ARC
  8
1
 62
     3
  6
CONTINUOUS
 10
-1440.739862
 20
223.027117
 40
2.000000
 50
90.000000
 51
180.000000
  0
LINE
  8
1
 62
     3
  6
CONTINUOUS
 10
-1440.739862
 20
101.027117
 11
-1437.239862
 21
101.027117
  0
LINE
  8
1
 62
     3
  6
CONTINUOUS
 10
-1440.739862
 20
225.027117
 11
-1437.239862
 21
225.027117
  0
ARC
  8
1
 62
     3
  6
CONTINUOUS
 10
-1440.739862
 20
103.027117
 40
2.000000
 50
180.000000
 51
270.000000
  0
LINE
  8
3
 62
     3
  6
CONTINUOUS
 10
-1431.095668
 20
103.387137
 11
-1427.590680
 21
104.978260
  0
LINE
  8
3
 62
     3
  6
CONTINUOUS
 10
-1427.590680
 20
104.978260
 11
-1424.217312
 21
107.806573
  0
LINE
  8
3
 62
     3
  6
CONTINUOUS
 10
-1424.217312
 20
107.806573
 11
-1421.047458
 21
111.811796
  0
LINE
  8
3
 62
     3
  6
CONTINUOUS
 10
-1421.047458
 20
111.811796
 11
-1418.148679
 21
116.908567
  0
LINE
  8
3
 62
     3
  6
CONTINUOUS
 10
-1418.148679
 20
116.908567
 11
-1415.582755
 21
122.988258
  0
LINE
  8
3
 62
     3
  6
CONTINUOUS
 10
-1415.582755
 20
122.988258
 11
-1413.404373
 21
129.921294
  0
LINE
  8
3
 62
     3
  6
CONTINUOUS
 10
-1413.404373
 20
129.921294
 11
-1411.659962
 21
137.559912
  0
LINE
  8
3
 62
     3
  6
CONTINUOUS
 10
-1411.659962
 20
137.559912
 11
-1410.386699
 21
145.741310
  0
LINE
  8
3
 62
     3
  6
CONTINUOUS
 10
-1410.386699
 20
145.741310
 11
-1409.611723
 21
154.291118
  0
LINE
  8
3
 62
     3
  6
CONTINUOUS
 10
-1409.611723
 20
154.291118
 11
-1409.351549
 21
163.027117
  0
LINE
  8
3
 62
     3
  6
CONTINUOUS
 10
-1409.611723
 20
154.291118
 11
-1409.351549
 21
163.027117
  0
LINE
  8
3
 62
     3
  6
CONTINUOUS
 10
-1431.553558
 20
222.780203
 11
-1427.992265
 21
221.325073
  0
LINE
  8
3
 62
     3
  6
CONTINUOUS
 10
-1427.992265
 20
221.325073
 11
-1424.557221
 21
218.595239
  0
LINE
  8
3
 62
     3
  6
CONTINUOUS
 10
-1424.557221
 20
218.595239
 11
-1421.323535
 21
214.650390
  0
LINE
  8
3
 62
     3
  6
CONTINUOUS
 10
-1421.323535
 20
214.650390
 11
-1418.361913
 21
209.576782
  0
LINE
  8
3
 62
     3
  6
CONTINUOUS
 10
-1418.361913
 20
209.576782
 11
-1415.737110
 21
203.485350
  0
LINE
  8
3
 62
     3
  6
CONTINUOUS
 10
-1415.737110
 20
203.485350
 11
-1413.506520
 21
196.509286
  0
LINE
  8
3
 62
     3
  6
CONTINUOUS
 10
-1413.506520
 20
196.509286
 11
-1411.718916
 21
188.801123
  0
LINE
  8
3
 62
     3
  6
CONTINUOUS
 10
-1411.718916
 20
188.801123
 11
-1410.413382
 21
180.529404
  0
LINE
  8
3
 62
     3
  6
CONTINUOUS
 10
-1410.413382
 20
180.529404
 11
-1409.618466
 21
171.874991
  0
LINE
  8
3
 62
     3
  6
CONTINUOUS
 10
-1409.618466
 20
171.874991
 11
-1409.351549
 21
163.027117
  0
LINE
  8
3
 62
     3
  6
CONTINUOUS
 10
-1409.618466
 20
171.874991
 11
-1409.351549
 21
163.027117
  0
LINE
  8
0
 62
     3
  6
CONTINUOUS
 10
-1442.739862
 20
223.027117
 11
-1442.739862
 21
103.027117
  0
INSERT
  8
0
  2
G21
 10
0
 20
0
  0
LINE
  8
0
 62
     3
  6
CONTINUOUS
 10
-620.362644
 20
385.101797
 11
-715.888960
 21
385.101797
  0
SOLID
  8
0
 62
     3
 10
-649.340419
 20
377.337226
 11
-649.340419
 21
392.866369
 12
-620.362644
 22
385.101797
 13
-620.362644
 23
385.101797
  0
INSERT
  8
0
  2
G22
 10
0
 20
0
  0
LINE
  8
0
 62
     1
  6
CONTINUOUS
 10
-1172.263693
 20
690.389268
 11
-1157.258997
 21
690.389268
  0
INSERT
  8
0
  2
G23
 10
0
 20
0
  0
INSERT
  8
0
  2
G24
 10
0
 20
0
  0
LINE
  8
0
 62
     3
  6
CONTINUOUS
 10
-938.581081
 20
430.359991
 11
-938.581081
 21
493.197829
  0
SOLID
  8
0
 62
     3
 10
-946.345652
 20
459.337766
 11
-930.816510
 21
459.337766
 12
-938.581081
 22
430.359991
 13
-938.581081
 23
430.359991
  0
INSERT
  8
0
  2
G25
 10
0
 20
0
  0
LINE
  8
0
 62
     3
  6
CONTINUOUS
 10
-607.557766
 20
580.426829
 11
-607.557766
 21
715.888960
  0
SOLID
  8
0
 62
     3
 10
-615.322338
 20
609.404604
 11
-599.793195
 21
609.404604
 12
-607.557766
 22
580.426829
 13
-607.557766
 23
580.426829
  0
INSERT
  8
0
  2
G26
 10
0
 20
0
  0
TEXT
  8
0
 62
     3
 10
-888.446385
 20
-905.435816
 40
32.000000
 50
0.000000E+00
 41
0.94 
  1
対応可能Ｐ寸法　２４０～３６０
 72
     5
 11
-362.732077
 21
-905.435816
  0
LINE
  8
0
 62
     2
  6
CONTINUOUS
 10
-955.287581
 20
-844.718354
 11
-175.885661
 21
-844.718354
  0
TEXT
  8
0
 62
     2
 10
-466.779569
 20
-817.414104
 40
30.000000
 50
0.000000E+00
 41
0.61 
  1
925
 72
     5
 11
-411.779569
 21
-817.414104
  0
TEXT
  8
0
 62
     2
 10
-569.578809
 20
-817.414104
 40
30.000000
 50
0.000000E+00
 41
0.61 
  1
905
 72
     5
 11
-514.578809
 21
-817.414104
  0
TEXT
  8
0
 62
     2
 10
-669.031289
 20
-815.686968
 40
30.000000
 50
0.000000E+00
 41
0.61 
  1
885
 72
     5
 11
-614.031289
 21
-815.686968
  0
TEXT
  8
0
 62
     2
 10
-363.270329
 20
-815.686968
 40
30.000000
 50
0.000000E+00
 41
0.61 
  1
965
 72
     5
 11
-308.270329
 21
-815.686968
  0
TEXT
  8
0
 62
     2
 10
-770.950969
 20
-724.246968
 40
30.000000
 50
0.000000E+00
 41
0.61 
  1
790
 72
     5
 11
-715.950969
 21
-724.246968
  0
TEXT
  8
0
 62
     2
 10
-258.817849
 20
-817.414104
 40
30.000000
 50
0.000000E+00
 41
0.61 
  1
985
 72
     5
 11
-203.817849
 21
-817.414104
  0
TEXT
  8
0
 62
     2
 10
-770.950969
 20
-815.686968
 40
30.000000
 50
0.000000E+00
 41
0.61 
  1
865
 72
     5
 11
-715.950969
 21
-815.686968
  0
TEXT
  8
0
 62
     2
 10
-363.509314
 20
-647.803154
 40
30.000000
 50
0.000000E+00
 41
0.61 
  1
340
 72
     5
 11
-308.509314
 21
-647.803154
  0
TEXT
  8
0
 62
     2
 10
-465.429954
 20
-647.803154
 40
30.000000
 50
0.000000E+00
 41
0.61 
  1
300
 72
     5
 11
-410.429954
 21
-647.803154
  0
TEXT
  8
0
 62
     2
 10
-567.350594
 20
-647.803154
 40
30.000000
 50
0.000000E+00
 41
0.61 
  1
280
 72
     5
 11
-512.350594
 21
-647.803154
  0
TEXT
  8
0
 62
     2
 10
-771.189954
 20
-647.803154
 40
30.000000
 50
0.000000E+00
 41
0.61 
  1
240
 72
     5
 11
-716.189954
 21
-647.803154
  0
LINE
  8
0
 62
     2
  6
CONTINUOUS
 10
-389.725981
 20
-600.398354
 11
-389.725981
 21
-844.718354
  0
TEXT
  8
0
 62
     2
 10
-944.759477
 20
-811.372275
 40
30.000000
 50
0.000000E+00
 41
0.72 
  1
Ｌｔ（全長）
 72
     5
 11
-794.759477
 21
-811.372275
  0
LINE
  8
0
 62
     2
  6
CONTINUOUS
 10
-955.287581
 20
-753.278354
 11
-175.885661
 21
-753.278354
  0
TEXT
  8
0
 62
     2
 10
-258.817849
 20
-725.974104
 40
30.000000
 50
0.000000E+00
 41
0.61 
  1
910
 72
     5
 11
-203.817849
 21
-725.974104
  0
LINE
  8
0
 62
     2
  6
CONTINUOUS
 10
-955.287581
 20
-600.398354
 11
-175.885661
 21
-600.398354
  0
TEXT
  8
0
 62
     2
 10
-363.270329
 20
-724.246968
 40
30.000000
 50
0.000000E+00
 41
0.61 
  1
890
 72
     5
 11
-308.270329
 21
-724.246968
  0
LINE
  8
0
 62
     2
  6
CONTINUOUS
 10
-797.406621
 20
-600.398354
 11
-797.406621
 21
-844.718354
  0
LINE
  8
0
 62
     2
  6
CONTINUOUS
 10
-695.486941
 20
-600.398354
 11
-695.486941
 21
-844.718354
  0
LINE
  8
0
 62
     2
  6
CONTINUOUS
 10
-593.567261
 20
-600.398354
 11
-593.567261
 21
-844.718354
  0
LINE
  8
0
 62
     2
  6
CONTINUOUS
 10
-491.646621
 20
-600.398354
 11
-491.646621
 21
-844.718354
  0
LINE
  8
0
 62
     2
  6
CONTINUOUS
 10
-175.885661
 20
-600.398354
 11
-175.885661
 21
-844.718354
  0
LINE
  8
0
 62
     2
  6
CONTINUOUS
 10
-287.806301
 20
-600.398354
 11
-287.806301
 21
-844.718354
  0
TEXT
  8
0
 62
     2
 10
-256.589634
 20
-647.803154
 40
30.000000
 50
0.000000E+00
 41
0.61 
  1
360
 72
     5
 11
-201.589634
 21
-647.803154
  0
LINE
  8
0
 62
     2
  6
CONTINUOUS
 10
-955.287581
 20
-661.838354
 11
-175.885661
 21
-661.838354
  0
TEXT
  8
0
 62
     2
 10
-944.759477
 20
-719.932275
 40
30.000000
 50
0.000000E+00
 41
0.72 
  1
Ｌ（有効長）
 72
     5
 11
-794.759477
 21
-719.932275
  0
LINE
  8
0
 62
     2
  6
CONTINUOUS
 10
-955.287581
 20
-600.398354
 11
-955.287581
 21
-844.718354
  0
LINE
  8
0
 62
     2
  6
CONTINUOUS
 10
-177.458899
 20
-613.635403
 11
-177.458899
 21
-613.635595
  0
TEXT
  8
0
 62
     2
 10
-669.031289
 20
-724.246968
 40
30.000000
 50
0.000000E+00
 41
0.61 
  1
810
 72
     5
 11
-614.031289
 21
-724.246968
  0
TEXT
  8
0
 62
     2
 10
-569.578809
 20
-725.974104
 40
30.000000
 50
0.000000E+00
 41
0.61 
  1
830
 72
     5
 11
-514.578809
 21
-725.974104
  0
TEXT
  8
0
 62
     2
 10
-669.270274
 20
-647.803154
 40
30.000000
 50
0.000000E+00
 41
0.61 
  1
260
 72
     5
 11
-614.270274
 21
-647.803154
  0
TEXT
  8
0
 62
     2
 10
-885.718483
 20
-647.782743
 40
30.000000
 50
0.000000E+00
 41
0.86 
  1
Ｐ
 72
     5
 11
-855.718483
 21
-647.782743
  0
TEXT
  8
0
 62
     2
 10
-466.779569
 20
-725.974104
 40
30.000000
 50
0.000000E+00
 41
0.61 
  1
850
 72
     5
 11
-411.779569
 21
-725.974104
  0
TEXT
  8
0
 62
     2
 10
-251.589634
 20
-546.363154
 40
30.000000
 50
0.000000E+00
 41
0.58 
  1
44
 72
     5
 11
-216.589634
 21
-546.363154
  0
TEXT
  8
0
 62
     2
 10
-363.510274
 20
-546.363154
 40
30.000000
 50
0.000000E+00
 41
0.58 
  1
52
 72
     5
 11
-328.510274
 21
-546.363154
  0
TEXT
  8
0
 62
     2
 10
-475.429954
 20
-546.363154
 40
30.000000
 50
0.000000E+00
 41
0.58 
  1
60
 72
     5
 11
-440.429954
 21
-546.363154
  0
TEXT
  8
0
 62
     2
 10
-574.421206
 20
-363.746137
 40
25.600000
 50
0.000000E+00
 41
0.55 
  1
100
 72
     5
 11
-532.364061
 21
-363.746137
  0
TEXT
  8
0
 62
     2
 10
-590.951500
 20
-325.061429
 40
18.400000
 50
0.000000E+00
 41
0.89 
  1
立管受口
 72
     5
 11
-514.951501
 21
-325.061429
  0
TEXT
  8
0
 62
     2
 10
-251.589634
 20
-423.483154
 40
30.000000
 50
0.000000E+00
 41
0.58 
  1
65
 72
     5
 11
-216.589634
 21
-423.483154
  0
TEXT
  8
0
 62
     2
 10
-363.510274
 20
-423.483154
 40
30.000000
 50
0.000000E+00
 41
0.58 
  1
65
 72
     5
 11
-328.510274
 21
-423.483154
  0
TEXT
  8
0
 62
     2
 10
-567.349634
 20
-423.483154
 40
30.000000
 50
0.000000E+00
 41
0.58 
  1
75
 72
     5
 11
-532.349634
 21
-423.483154
  0
LINE
  8
0
 62
     2
  6
CONTINUOUS
 10
-511.646621
 20
-498.958354
 11
-593.566301
 21
-560.398354
  0
LINE
  8
0
 62
     2
  6
CONTINUOUS
 10
-175.885661
 20
-294.153298
 11
-175.885661
 21
-560.398354
  0
TEXT
  8
0
 62
     2
 10
-704.669157
 20
-542.052275
 40
30.000000
 50
0.000000E+00
 41
0.86 
  1
Ｂ寸法
 72
     5
 11
-614.669157
 21
-542.052275
  0
LINE
  8
0
 62
     2
  6
CONTINUOUS
 10
-716.447261
 20
-498.958354
 11
-175.885661
 21
-498.958354
  0
LINE
  8
0
 62
     2
  6
CONTINUOUS
 10
-511.646621
 20
-335.118322
 11
-175.885661
 21
-335.118322
  0
LINE
  8
0
 62
     2
  6
CONTINUOUS
 10
-716.447261
 20
-376.078354
 11
-175.885661
 21
-376.078354
  0
TEXT
  8
0
 62
     2
 10
-466.083287
 20
-330.204987
 40
30.000000
 50
0.000000E+00
 41
0.86 
  1
下部横枝管サイズ
 72
     5
 11
-226.083287
 21
-330.204987
  0
LINE
  8
0
 62
     2
  6
CONTINUOUS
 10
-593.566301
 20
-295.392178
 11
-593.566301
 21
-560.398354
  0
LINE
  8
0
 62
     2
  6
CONTINUOUS
 10
-511.646621
 20
-295.392178
 11
-511.646621
 21
-560.398354
  0
LINE
  8
0
 62
     2
  6
CONTINUOUS
 10
-399.726941
 20
-335.118322
 11
-399.726941
 21
-560.398354
  0
LINE
  8
0
 62
     2
  6
CONTINUOUS
 10
-511.646621
 20
-437.518354
 11
-593.566301
 21
-498.958354
  0
LINE
  8
0
 62
     2
  6
CONTINUOUS
 10
-287.806301
 20
-335.118514
 11
-287.806301
 21
-560.398354
  0
LINE
  8
0
 62
     2
  6
CONTINUOUS
 10
-716.447261
 20
-560.398354
 11
-175.885661
 21
-560.398354
  0
TEXT
  8
0
 62
     2
 10
-495.384035
 20
-370.283621
 40
30.000000
 50
0.000000E+00
 41
0.63 
  1
75(3)
 72
     5
 11
-400.384035
 21
-370.283621
  0
TEXT
  8
0
 62
     2
 10
-383.464355
 20
-370.283621
 40
30.000000
 50
0.000000E+00
 41
0.63 
  1
65(2)
 72
     5
 11
-288.464355
 21
-370.283621
  0
TEXT
  8
0
 62
     2
 10
-271.543715
 20
-370.283621
 40
30.000000
 50
0.000000E+00
 41
0.63 
  1
50(1)
 72
     5
 11
-176.543715
 21
-370.283621
  0
LINE
  8
0
 62
     2
  6
CONTINUOUS
 10
-716.447261
 20
-335.118322
 11
-716.447261
 21
-560.398354
  0
LINE
  8
0
 62
     2
  6
CONTINUOUS
 10
-716.447261
 20
-437.518354
 11
-175.885661
 21
-437.518354
  0
TEXT
  8
0
 62
     2
 10
-704.669157
 20
-480.612275
 40
30.000000
 50
0.000000E+00
 41
0.86 
  1
Ａ寸法
 72
     5
 11
-614.669157
 21
-480.612275
  0
LINE
  8
0
 62
     2
  6
CONTINUOUS
 10
-716.447261
 20
-335.118322
 11
-716.447261
 21
-294.153298
  0
LINE
  8
0
 62
     2
  6
CONTINUOUS
 10
-716.447261
 20
-294.153298
 11
-175.885661
 21
-294.153298
  0
LINE
  8
0
 62
     2
  6
CONTINUOUS
 10
-205.886621
 20
-335.118322
 11
-205.886621
 21
-335.118514
  0
TEXT
  8
0
 62
     2
 10
-485.190969
 20
-483.196018
 40
30.000000
 50
0.000000E+00
 41
0.61 
  1
125
 72
     5
 11
-430.190969
 21
-483.196018
  0
TEXT
  8
0
 62
     2
 10
-375.738489
 20
-484.923154
 40
30.000000
 50
0.000000E+00
 41
0.61 
  1
110
 72
     5
 11
-320.738489
 21
-484.923154
  0
TEXT
  8
0
 62
     2
 10
-475.429954
 20
-423.483154
 40
30.000000
 50
0.000000E+00
 41
0.58 
  1
65
 72
     5
 11
-440.429954
 21
-423.483154
  0
TEXT
  8
0
 62
     2
 10
-711.878163
 20
-423.462743
 40
30.000000
 50
0.000000E+00
 41
0.86 
  1
受口深さ
 72
     5
 11
-591.878163
 21
-423.462743
  0
LINE
  8
0
 62
     2
  6
CONTINUOUS
 10
-716.447261
 20
-294.153298
 11
-593.566301
 21
-376.078354
  0
TEXT
  8
0
 62
     2
 10
-251.589634
 20
-484.923154
 40
30.000000
 50
0.000000E+00
 41
0.58 
  1
94
 72
     5
 11
-216.589634
 21
-484.923154
  0
INSERT
  8
0
  2
G27
 10
0
 20
0
  0
INSERT
  8
0
  2
G28
 10
0
 20
0
  0
INSERT
  8
0
  2
G29
 10
0
 20
0
  0
INSERT
  8
0
  2
G30
 10
0
 20
0
  0
INSERT
  8
0
  2
G31
 10
0
 20
0
  0
INSERT
  8
0
  2
G32
 10
0
 20
0
  0
ENDSEC
  0
EOF
