  0
SECTION
  2
HEADER
  9
$INSBASE
 10
0
 20
0
  9
$EXTMIN
 10
0
 20
0
  9
$EXTMAX
 10
4200.000000
 20
2970.000000
  9
$LIMMIN
 10
0
 20
0
  9
$LIMMAX
 10
4200.000000
 20
2970.000000
  9
$VIEWCTR
 10
2100.000000
 20
1485.000000
  9
$DIMASZ
 40
30.000000
  9
$DIMDLI
 40
80.000000
  9
$DIMEXE
 40
10.000000
  9
$DIMEXO
 40
10.000000
  9
$DIMTXT
 40
32.000000
  9
$TEXTSIZE
 40
32.000000
  9
$ANGBASE
 50
0.0
  9
$ANGDIR
 70
     0
  9
$ATTMODE
 70
     1
  9
$AUNITS
 70
     1
  9
$AUPREC
 70
     2
  9
$AXISMODE
 70
     0
  9
$AXISUNIT
 10
0.0
 20
0.0
  9
$BLIPMODE
 70
     1
  9
$CECOLOR
 62
   256
  9
$CELTYPE
  6
BYLAYER
  9
$CHAMFERA
 40
0.0
  9
$CHAMFERB
 40
0.0
  9
$CLAYER
  8
0
  9
$COORDS
 70
     0
  9
$DIMALT
 70
     0
  9
$DIMALTD
 70
     2
  9
$DIMALTF
 40
25.4
  9
$DIMDLE
 40
0.0
  9
$DIMLFAC
 40
1.0
  9
$DIMLIM
 70
     0
  9
$DIMRND
 40
0.0
  9
$DIMSCALE
 40
1.0
  9
$DIMSE1
 70
     0
  9
$DIMSE2
 70
     0
  9
$DIMTAD
 70
     1
  9
$DIMTIH
 70
     0
  9
$DIMTM
 40
0.0
  9
$DIMTOH
 70
     0
  9
$DIMTOL
 70
     0
  9
$DIMTP
 40
0.0
  9
$DIMTSZ
 40
0.0
  9
$DIMZIN
 70
     0
  9
$DRAGMODE
 70
     2
  9
$ELEVATION
 40
0.0
  9
$FASTZOOM
 70
     1
  9
$FILLETRAD
 40
0.0
  9
$FILLMODE
 70
     1
  9
$GRIDMODE
 70
     0
  9
$GRIDUNIT
 10
0.0
 20
0.0
  9
$LTSCALE
 40
1.0
  9
$LUNITS
 70
     2
  9
$LUPREC
 70
     2
  9
$MENU
  1
ACAD
  9
$ORTHOMODE
 70
     0
  9
$OSMODE
 70
     0
  9
$PDMODE
 70
     0
  9
$PDSIZE
 40
0.0
  9
$PLINEWID
 40
0.0
  9
$QTEXTMODE
 70
     0
  9
$REGENMODE
 70
     1
  9
$SKETCHINC
 40
0.1
  9
$SKPOLY
 70
     0
  9
$SNAPBASE
 10
0.0
 20
0.0
  9
$SNAPISOPAIR
 70
     0
  9
$SNAPMODE
 70
     0
  9
$SNAPSTYLE
 70
     0
  9
$SNAPUNIT
 10
0.0
 20
0.0
  9
$TEXTSTYLE
  7
KANJI
  9
$THICKNESS
 40
0.0
  9
$TRACEWID
 40
0.05
  9
$VIEWDIR
 10
0.0
 20
0.0
 30
1.0
  9
$VIEWSIZE
 40
0.0
  0
ENDSEC
  0
SECTION
  2
TABLES
  0
TABLE
  2
LTYPE
 70
     9
  0
LTYPE
  2
CONTINUOUS
 70
    64
  3
Solid line
 72
    65
 73
     0
 40
0.0
  0
LTYPE
  2
DASHED
 70
    64
  3
__ __ __ __ __ __ __ __ __ __ __ __ __ __ __
 72
    65
 73
     2
 40
0.75
 49
0.5
 49
-0.25
  0
LTYPE
  2
HIDDEN
 70
    64
  3
_ _ _ _ _ _ _ _ _ _ _ _ _ _ _ _ _ _ _ _ _ _ _
 72
    65
 73
     2
 40
0.375
 49
0.25
 49
-0.125
  0
LTYPE
  2
CENTER
 70
    64
  3
____ _ ____ _ ____ _ ____ _ ____ _ ____ _ ____
 72
    65
 73
     4
 40
2.0
 49
1.25
 49
-0.25
 49
0.25
 49
-0.25
  0
LTYPE
  2
PHANTOM
 70
    64
  3
_____ _ _ _____ _ _ _____ _ _ _____ _ _ ____
 72
    65
 73
     6
 40
2.5
 49
1.25
 49
-0.25
 49
0.25
 49
-0.25
 49
0.25
 49
-0.25
  0
LTYPE
  2
DOT
 70
    64
  3
...............................................
 72
    65
 73
     2
 40
0.25
 49
0.0
 49
-0.25
  0
LTYPE
  2
DASHDOT
 70
    64
  3
__ . __ . __ . __ . __ . __ . __ . __ . __ . __
 72
    65
 73
     4
 40
1.0
 49
0.5
 49
-0.25
 49
0.0
 49
-0.25
  0
LTYPE
  2
BORDER
 70
    64
  3
__ __ . __ __ . __ __ . __ __ . __ __ . __ __
 72
    65
 73
     6
 40
1.75
 49
0.5
 49
-0.25
 49
0.5
 49
-0.25
 49
0.0
 49
-0.25
  0
LTYPE
  2
DIVIDE
 70
    64
  3
__ . . __ . . __ . . __ . . __ . . __ . . __
 72
    65
 73
     6
 40
1.25
 49
0.5
 49
-0.25
 49
0.0
 49
-0.25
 49
0.0
 49
-0.25
  0
ENDTAB
  0
TABLE
  2
LAYER
 70
   100
  0
LAYER
  2
0
 70
     0
 62
     3
  6
CONTINUOUS
  0
LAYER
  2
1
 70
     0
 62
     3
  6
CONTINUOUS
  0
LAYER
  2
2
 70
     0
 62
     3
  6
CONTINUOUS
  0
LAYER
  2
3
 70
     0
 62
     3
  6
CONTINUOUS
  0
LAYER
  2
4
 70
     0
 62
     3
  6
CONTINUOUS
  0
LAYER
  2
5
 70
     0
 62
     3
  6
CONTINUOUS
  0
LAYER
  2
6
 70
     0
 62
     3
  6
CONTINUOUS
  0
LAYER
  2
7
 70
     0
 62
     3
  6
CONTINUOUS
  0
LAYER
  2
8
 70
     0
 62
     3
  6
CONTINUOUS
  0
LAYER
  2
9
 70
     0
 62
     3
  6
CONTINUOUS
  0
LAYER
  2
10
 70
     0
 62
     3
  6
CONTINUOUS
  0
LAYER
  2
11
 70
     0
 62
     3
  6
CONTINUOUS
  0
LAYER
  2
12
 70
     0
 62
     3
  6
CONTINUOUS
  0
LAYER
  2
13
 70
     0
 62
     3
  6
CONTINUOUS
  0
LAYER
  2
14
 70
     0
 62
     3
  6
CONTINUOUS
  0
LAYER
  2
15
 70
     0
 62
     3
  6
CONTINUOUS
  0
LAYER
  2
16
 70
     0
 62
     3
  6
CONTINUOUS
  0
LAYER
  2
17
 70
     0
 62
     3
  6
CONTINUOUS
  0
LAYER
  2
18
 70
     0
 62
     3
  6
CONTINUOUS
  0
LAYER
  2
19
 70
     0
 62
     3
  6
CONTINUOUS
  0
LAYER
  2
20
 70
     0
 62
     3
  6
CONTINUOUS
  0
LAYER
  2
21
 70
     0
 62
     3
  6
CONTINUOUS
  0
LAYER
  2
22
 70
     0
 62
     3
  6
CONTINUOUS
  0
LAYER
  2
23
 70
     0
 62
     3
  6
CONTINUOUS
  0
LAYER
  2
24
 70
     0
 62
     3
  6
CONTINUOUS
  0
LAYER
  2
25
 70
     0
 62
     3
  6
CONTINUOUS
  0
LAYER
  2
26
 70
     0
 62
     3
  6
CONTINUOUS
  0
LAYER
  2
27
 70
     0
 62
     3
  6
CONTINUOUS
  0
LAYER
  2
28
 70
     0
 62
     3
  6
CONTINUOUS
  0
LAYER
  2
29
 70
     0
 62
     3
  6
CONTINUOUS
  0
LAYER
  2
30
 70
     0
 62
     3
  6
CONTINUOUS
  0
LAYER
  2
31
 70
     0
 62
     3
  6
CONTINUOUS
  0
LAYER
  2
32
 70
     0
 62
     3
  6
CONTINUOUS
  0
LAYER
  2
33
 70
     0
 62
     3
  6
CONTINUOUS
  0
LAYER
  2
34
 70
     0
 62
     3
  6
CONTINUOUS
  0
LAYER
  2
35
 70
     0
 62
     3
  6
CONTINUOUS
  0
LAYER
  2
36
 70
     0
 62
     3
  6
CONTINUOUS
  0
LAYER
  2
37
 70
     0
 62
     3
  6
CONTINUOUS
  0
LAYER
  2
38
 70
     0
 62
     3
  6
CONTINUOUS
  0
LAYER
  2
39
 70
     0
 62
     3
  6
CONTINUOUS
  0
LAYER
  2
40
 70
     0
 62
     3
  6
CONTINUOUS
  0
LAYER
  2
41
 70
     0
 62
     3
  6
CONTINUOUS
  0
LAYER
  2
42
 70
     0
 62
     3
  6
CONTINUOUS
  0
LAYER
  2
43
 70
     0
 62
     3
  6
CONTINUOUS
  0
LAYER
  2
44
 70
     0
 62
     3
  6
CONTINUOUS
  0
LAYER
  2
45
 70
     0
 62
     3
  6
CONTINUOUS
  0
LAYER
  2
46
 70
     0
 62
     3
  6
CONTINUOUS
  0
LAYER
  2
47
 70
     0
 62
     3
  6
CONTINUOUS
  0
LAYER
  2
48
 70
     0
 62
     3
  6
CONTINUOUS
  0
LAYER
  2
49
 70
     0
 62
     3
  6
CONTINUOUS
  0
LAYER
  2
50
 70
     0
 62
     3
  6
CONTINUOUS
  0
LAYER
  2
51
 70
     0
 62
     3
  6
CONTINUOUS
  0
LAYER
  2
52
 70
     0
 62
     3
  6
CONTINUOUS
  0
LAYER
  2
53
 70
     0
 62
     3
  6
CONTINUOUS
  0
LAYER
  2
54
 70
     0
 62
     3
  6
CONTINUOUS
  0
LAYER
  2
55
 70
     0
 62
     3
  6
CONTINUOUS
  0
LAYER
  2
56
 70
     0
 62
     3
  6
CONTINUOUS
  0
LAYER
  2
57
 70
     0
 62
     3
  6
CONTINUOUS
  0
LAYER
  2
58
 70
     0
 62
     3
  6
CONTINUOUS
  0
LAYER
  2
59
 70
     0
 62
     3
  6
CONTINUOUS
  0
LAYER
  2
60
 70
     0
 62
     3
  6
CONTINUOUS
  0
LAYER
  2
61
 70
     0
 62
     3
  6
CONTINUOUS
  0
LAYER
  2
62
 70
     0
 62
     3
  6
CONTINUOUS
  0
LAYER
  2
63
 70
     0
 62
     3
  6
CONTINUOUS
  0
LAYER
  2
64
 70
     0
 62
     3
  6
CONTINUOUS
  0
LAYER
  2
65
 70
     0
 62
     3
  6
CONTINUOUS
  0
LAYER
  2
66
 70
     0
 62
     3
  6
CONTINUOUS
  0
LAYER
  2
67
 70
     0
 62
     3
  6
CONTINUOUS
  0
LAYER
  2
68
 70
     0
 62
     3
  6
CONTINUOUS
  0
LAYER
  2
69
 70
     0
 62
     3
  6
CONTINUOUS
  0
LAYER
  2
70
 70
     0
 62
     3
  6
CONTINUOUS
  0
LAYER
  2
71
 70
     0
 62
     3
  6
CONTINUOUS
  0
LAYER
  2
72
 70
     0
 62
     3
  6
CONTINUOUS
  0
LAYER
  2
73
 70
     0
 62
     3
  6
CONTINUOUS
  0
LAYER
  2
74
 70
     0
 62
     3
  6
CONTINUOUS
  0
LAYER
  2
75
 70
     0
 62
     3
  6
CONTINUOUS
  0
LAYER
  2
76
 70
     0
 62
     3
  6
CONTINUOUS
  0
LAYER
  2
77
 70
     0
 62
     3
  6
CONTINUOUS
  0
LAYER
  2
78
 70
     0
 62
     3
  6
CONTINUOUS
  0
LAYER
  2
79
 70
     0
 62
     3
  6
CONTINUOUS
  0
LAYER
  2
80
 70
     0
 62
     3
  6
CONTINUOUS
  0
LAYER
  2
81
 70
     0
 62
     3
  6
CONTINUOUS
  0
LAYER
  2
82
 70
     0
 62
     3
  6
CONTINUOUS
  0
LAYER
  2
83
 70
     0
 62
     3
  6
CONTINUOUS
  0
LAYER
  2
84
 70
     0
 62
     3
  6
CONTINUOUS
  0
LAYER
  2
85
 70
     0
 62
     3
  6
CONTINUOUS
  0
LAYER
  2
86
 70
     0
 62
     3
  6
CONTINUOUS
  0
LAYER
  2
87
 70
     0
 62
     3
  6
CONTINUOUS
  0
LAYER
  2
88
 70
     0
 62
     3
  6
CONTINUOUS
  0
LAYER
  2
89
 70
     0
 62
     3
  6
CONTINUOUS
  0
LAYER
  2
90
 70
     0
 62
     3
  6
CONTINUOUS
  0
LAYER
  2
91
 70
     0
 62
     3
  6
CONTINUOUS
  0
LAYER
  2
92
 70
     0
 62
     3
  6
CONTINUOUS
  0
LAYER
  2
93
 70
     0
 62
     3
  6
CONTINUOUS
  0
LAYER
  2
94
 70
     0
 62
     3
  6
CONTINUOUS
  0
LAYER
  2
95
 70
     0
 62
     3
  6
CONTINUOUS
  0
LAYER
  2
96
 70
     0
 62
     3
  6
CONTINUOUS
  0
LAYER
  2
97
 70
     0
 62
     3
  6
CONTINUOUS
  0
LAYER
  2
98
 70
     0
 62
     3
  6
CONTINUOUS
  0
LAYER
  2
99
 70
     0
 62
     3
  6
CONTINUOUS
  0
ENDTAB
  0
TABLE
  2
STYLE
 70
     2
  0
STYLE
  2
STANDARD
 70
     0
 40
0.0
 41
1.0
 50
0.0
 71
     0
 42
0.2
  3
TXT
  4
BIGFONT
  0
STYLE
  2
KANJI
 70
     0
 40
4.5
 41
1.0
 50
0.0
 71
     0
 42
0.2
  3
TXT
  4
BIGFONT
  0
ENDTAB
  0
TABLE
  2
VIEW
 70
     0
  0
ENDTAB
  0
ENDSEC
  0
SECTION
  2
BLOCKS
  0
BLOCK
  8
0
  2
G0
 70
     0
 10
0
 20
0
  0
POINT
  8
0
 62
     4
 10
270.000000
 20
1315.000000
  0
POINT
  8
0
 62
     4
 10
-1830.000000
 20
1315.000000
  0
ENDBLK
  0
BLOCK
  8
0
  2
G1
 70
     0
 10
0
 20
0
  0
LINE
  8
0
 62
     3
  6
CONTINUOUS
 10
-1163.043291
 20
-48.975228
 11
-1185.545746
 21
-35.983430
  0
LINE
  8
0
 62
     3
  6
CONTINUOUS
 10
-1178.460760
 20
-75.679068
 11
-1163.043291
 21
-48.975228
  0
TEXT
  8
0
 62
     3
 10
-1190.254043
 20
-108.037285
 40
32.000000
 50
0.000000E+00
 41
0.86 
  1
Ｃ
 72
     5
 11
-1158.254043
 21
-108.037285
  0
LINE
  8
0
 62
     3
  6
CONTINUOUS
 10
-1178.460760
 20
-28.308819
 11
-1178.460760
 21
-75.679068
  0
LINE
  8
0
 62
     3
  6
CONTINUOUS
 10
-1178.460760
 20
-28.308819
 11
-1258.023323
 21
-28.308819
  0
ENDBLK
  0
BLOCK
  8
0
  2
G2
 70
     0
 10
0
 20
0
  0
LINE
  8
0
 62
     1
  6
CONTINUOUS
 10
-480.682081
 20
717.624747
 11
-416.000000
 21
717.624747
  0
LINE
  8
0
 62
     1
  6
CONTINUOUS
 10
-416.000000
 20
647.500000
 11
-416.000000
 21
732.624747
  0
TEXT
  8
0
 62
     1
 10
-464.474233
 20
722.958080
 40
32.000000
 50
0.000000E+00
 41
0.56 
  1
65
 72
     5
 11
-428.474233
 21
722.958080
  0
LINE
  8
0
 62
     1
  6
CONTINUOUS
 10
-480.682081
 20
717.624747
 11
-519.766806
 21
717.624747
  0
SOLID
  8
0
 62
     1
 10
-504.830227
 20
711.154271
 11
-504.830227
 21
724.095223
 12
-480.682081
 22
717.624747
 13
-480.682081
 23
717.624747
  0
LINE
  8
0
 62
     1
  6
CONTINUOUS
 10
-416.000000
 20
717.624747
 11
-373.820860
 21
717.624747
  0
SOLID
  8
0
 62
     1
 10
-391.851854
 20
724.095223
 11
-391.851854
 21
711.154271
 12
-416.000000
 22
717.624747
 13
-416.000000
 23
717.624747
  0
ENDBLK
  0
BLOCK
  8
0
  2
G3
 70
     0
 10
0
 20
0
  0
LINE
  8
0
 62
     3
  6
CONTINUOUS
 10
-354.493734
 20
744.151548
 11
-419.678552
 21
744.151548
  0
SOLID
  8
0
 62
     3
 10
-390.700777
 20
751.916119
 11
-390.700777
 21
736.386977
 12
-419.678552
 22
744.151548
 13
-419.678552
 23
744.151548
  0
ENDBLK
  0
BLOCK
  8
0
  2
G4
 70
     0
 10
0
 20
0
  0
LINE
  8
0
 62
     1
  6
CONTINUOUS
 10
-681.000000
 20
301.624747
 11
-471.000000
 21
301.624747
  0
SOLID
  8
0
 62
     1
 10
-656.851854
 20
308.095223
 11
-656.851854
 21
295.154271
 12
-681.000000
 22
301.624747
 13
-681.000000
 23
301.624747
  0
SOLID
  8
0
 62
     1
 10
-495.148146
 20
295.154271
 11
-495.148146
 21
308.095223
 12
-471.000000
 22
301.624747
 13
-471.000000
 23
301.624747
  0
LINE
  8
0
 62
     1
  6
CONTINUOUS
 10
-681.000000
 20
565.000000
 11
-681.000000
 21
291.624747
  0
LINE
  8
0
 62
     1
  6
CONTINUOUS
 10
-471.000000
 20
565.000000
 11
-471.000000
 21
291.624747
  0
TEXT
  8
0
 62
     1
 10
-604.000000
 20
306.958080
 40
32.000000
 50
0.000000E+00
 41
0.58 
  1
210
 72
     5
 11
-548.000000
 21
306.958080
  0
ENDBLK
  0
BLOCK
  8
0
  2
G5
 70
     0
 10
0
 20
0
  0
LINE
  8
0
 62
     1
  6
CONTINUOUS
 10
-733.624747
 20
479.682081
 11
-733.624747
 21
415.000000
  0
LINE
  8
0
 62
     1
  6
CONTINUOUS
 10
-646.000000
 20
479.682081
 11
-743.624747
 21
479.682081
  0
LINE
  8
0
 62
     1
  6
CONTINUOUS
 10
-648.500000
 20
415.000000
 11
-743.624747
 21
415.000000
  0
TEXT
  8
0
 62
     1
 10
-738.958080
 20
429.341041
 40
32.000000
 50
90.000000
 41
0.56 
  1
65
 72
     5
 11
-738.958080
 21
465.341041
  0
LINE
  8
0
 62
     1
  6
CONTINUOUS
 10
-733.624747
 20
529.682081
 11
-733.624747
 21
479.682081
  0
SOLID
  8
0
 62
     1
 10
-740.095223
 20
503.830227
 11
-727.154271
 21
503.830227
 12
-733.624747
 22
479.682081
 13
-733.624747
 23
479.682081
  0
LINE
  8
0
 62
     1
  6
CONTINUOUS
 10
-733.624747
 20
415.000000
 11
-733.624747
 21
365.000000
  0
SOLID
  8
0
 62
     1
 10
-727.154271
 20
390.851854
 11
-740.095223
 21
390.851854
 12
-733.624747
 22
415.000000
 13
-733.624747
 23
415.000000
  0
ENDBLK
  0
BLOCK
  8
0
  2
G6
 70
     0
 10
0
 20
0
  0
LINE
  8
0
 62
     1
  6
CONTINUOUS
 10
-416.000000
 20
779.624747
 11
-576.000000
 21
779.624747
  0
LINE
  8
0
 62
     1
  6
CONTINUOUS
 10
-416.000000
 20
732.624747
 11
-416.000000
 21
789.624747
  0
TEXT
  8
0
 62
     1
 10
-524.000000
 20
784.958080
 40
32.000000
 50
0.000000E+00
 41
0.58 
  1
160
 72
     5
 11
-468.000000
 21
784.958080
  0
LINE
  8
0
 62
     1
  6
CONTINUOUS
 10
-416.000000
 20
779.624747
 11
-366.000000
 21
779.624747
  0
SOLID
  8
0
 62
     1
 10
-391.851854
 20
786.095223
 11
-391.851854
 21
773.154271
 12
-416.000000
 22
779.624747
 13
-416.000000
 23
779.624747
  0
LINE
  8
0
 62
     1
  6
CONTINUOUS
 10
-626.000000
 20
779.624747
 11
-576.000000
 21
779.624747
  0
SOLID
  8
0
 62
     1
 10
-600.148146
 20
773.154271
 11
-600.148146
 21
786.095223
 12
-576.000000
 22
779.624747
 13
-576.000000
 23
779.624747
  0
ENDBLK
  0
BLOCK
  8
0
  2
G7
 70
     0
 10
0
 20
0
  0
TEXT
  8
0
 62
     3
 10
-346.704880
 20
730.321326
 40
32.000000
 50
0.000000E+00
 41
1.02 
  1
受口深さ
 72
     5
 11
-194.704880
 21
730.321326
  0
ENDBLK
  0
BLOCK
  8
0
  2
G8
 70
     0
 10
0
 20
0
  0
LINE
  8
0
 62
     1
  6
CONTINUOUS
 10
-1140.662948
 20
110.527117
 11
-1140.662948
 21
19.944416
  0
SOLID
  8
0
 62
     1
 10
-1134.192472
 20
86.378971
 11
-1147.133424
 21
86.378971
 12
-1140.662948
 22
110.527117
 13
-1140.662948
 23
110.527117
  0
TEXT
  8
0
 62
     1
 10
-1145.996281
 20
24.799037
 40
32.000000
 50
90.000000
 41
0.58 
  1
2.5
 72
     5
 11
-1145.996281
 21
80.799037
  0
LINE
  8
0
 62
     1
  6
CONTINUOUS
 10
-1130.662948
 20
110.527117
 11
-1212.739862
 21
110.527117
  0
LINE
  8
0
 62
     1
  6
CONTINUOUS
 10
-1140.662948
 20
110.527117
 11
-1140.662948
 21
113.027117
  0
ENDBLK
  0
BLOCK
  8
0
  2
G9
 70
     0
 10
0
 20
0
  0
LINE
  8
0
 62
     1
  6
CONTINUOUS
 10
-1140.662948
 20
173.027117
 11
-1140.662948
 21
223.027117
  0
SOLID
  8
0
 62
     1
 10
-1148.427519
 20
202.004891
 11
-1132.898377
 21
202.004891
 12
-1140.662948
 22
173.027117
 13
-1140.662948
 23
173.027117
  0
TEXT
  8
0
 62
     1
 10
-1145.996281
 20
125.027117
 40
32.000000
 50
90.000000
 41
0.56 
  1
60
 72
     5
 11
-1145.996281
 21
161.027117
  0
LINE
  8
0
 62
     1
  6
CONTINUOUS
 10
-1201.806156
 20
173.027117
 11
-1130.662948
 21
173.027117
  0
LINE
  8
0
 62
     1
  6
CONTINUOUS
 10
-1212.739862
 20
113.027117
 11
-1130.662948
 21
113.027117
  0
LINE
  8
0
 62
     1
  6
CONTINUOUS
 10
-1140.662948
 20
113.027117
 11
-1140.662948
 21
173.027117
  0
CIRCLE
  8
0
 62
     1
  6
CONTINUOUS
 10
-1140.662948
 20
113.027117
 40
2.500000
  0
CIRCLE
  8
0
 62
     1
  6
CONTINUOUS
 10
-1140.662948
 20
113.027117
 40
1.250000
  0
ENDBLK
  0
BLOCK
  8
0
  2
G10
 70
     0
 10
0
 20
0
  0
TEXT
  8
0
 62
     3
 10
-818.580308
 20
259.633894
 40
32.000000
 50
0.000000E+00
 41
0.95 
  1
受口深さ　
 72
     5
 11
-642.580308
 21
259.633894
  0
ENDBLK
  0
BLOCK
  8
0
  2
G11
 70
     0
 10
0
 20
0
  0
LINE
  8
0
 62
     1
  6
CONTINUOUS
 10
-790.624747
 20
575.000000
 11
-790.624747
 21
415.000000
  0
LINE
  8
0
 62
     1
  6
CONTINUOUS
 10
-709.008451
 20
575.000000
 11
-800.624747
 21
575.000000
  0
LINE
  8
0
 62
     1
  6
CONTINUOUS
 10
-648.500000
 20
415.000000
 11
-800.624747
 21
415.000000
  0
TEXT
  8
0
 62
     1
 10
-795.958080
 20
467.000000
 40
32.000000
 50
90.000000
 41
0.58 
  1
160
 72
     5
 11
-795.958080
 21
523.000000
  0
LINE
  8
0
 62
     1
  6
CONTINUOUS
 10
-790.624747
 20
625.000000
 11
-790.624747
 21
575.000000
  0
SOLID
  8
0
 62
     1
 10
-797.095223
 20
599.148146
 11
-784.154271
 21
599.148146
 12
-790.624747
 22
575.000000
 13
-790.624747
 23
575.000000
  0
LINE
  8
0
 62
     1
  6
CONTINUOUS
 10
-790.624747
 20
415.000000
 11
-790.624747
 21
365.000000
  0
SOLID
  8
0
 62
     1
 10
-784.154271
 20
390.851854
 11
-797.095223
 21
390.851854
 12
-790.624747
 22
415.000000
 13
-790.624747
 23
415.000000
  0
ENDBLK
  0
BLOCK
  8
0
  2
G12
 70
     0
 10
0
 20
0
  0
TEXT
  8
0
 62
     1
 10
-763.048404
 20
722.450424
 40
32.000000
 50
45.000000
 41
0.58 
  1
248
 72
     5
 11
-723.450424
 21
762.048404
  0
LINE
  8
0
 62
     1
  6
CONTINUOUS
 10
-495.389827
 20
669.752309
 11
-658.868005
 21
833.230486
  0
LINE
  8
0
 62
     1
  6
CONTINUOUS
 10
-670.752309
 20
494.389827
 11
-834.230486
 21
657.868005
  0
LINE
  8
0
 62
     1
  6
CONTINUOUS
 10
-827.159419
 20
650.796937
 11
-651.796937
 21
826.159419
  0
SOLID
  8
0
 62
     1
 10
-814.659419
 20
672.447572
 11
-805.508783
 21
663.296937
 12
-827.159419
 22
650.796937
 13
-827.159419
 23
650.796937
  0
SOLID
  8
0
 62
     1
 10
-664.296937
 20
804.508783
 11
-673.447572
 21
813.659419
 12
-651.796937
 22
826.159419
 13
-651.796937
 23
826.159419
  0
ENDBLK
  0
BLOCK
  8
0
  2
G13
 70
     0
 10
0
 20
0
  0
LINE
  8
0
 62
     1
  6
CONTINUOUS
 10
-303.675308
 20
470.000000
 11
-303.675308
 21
680.000000
  0
SOLID
  8
0
 62
     1
 10
-310.145784
 20
494.148146
 11
-297.204832
 21
494.148146
 12
-303.675308
 22
470.000000
 13
-303.675308
 23
470.000000
  0
SOLID
  8
0
 62
     1
 10
-297.204832
 20
655.851854
 11
-310.145784
 21
655.851854
 12
-303.675308
 22
680.000000
 13
-303.675308
 23
680.000000
  0
LINE
  8
0
 62
     1
  6
CONTINUOUS
 10
-566.000000
 20
470.000000
 11
-293.675308
 21
470.000000
  0
LINE
  8
0
 62
     1
  6
CONTINUOUS
 10
-566.000000
 20
680.000000
 11
-293.675308
 21
680.000000
  0
TEXT
  8
0
 62
     1
 10
-309.008641
 20
547.000000
 40
32.000000
 50
90.000000
 41
0.58 
  1
210
 72
     5
 11
-309.008641
 21
603.000000
  0
ENDBLK
  0
BLOCK
  8
0
  2
G14
 70
     0
 10
0
 20
0
  0
LINE
  8
0
 62
     1
  6
CONTINUOUS
 10
-1217.739862
 20
835.279722
 11
-1167.739862
 21
835.279722
  0
SOLID
  8
0
 62
     1
 10
-1193.591716
 20
841.750198
 11
-1193.591716
 21
828.809246
 12
-1217.739862
 22
835.279722
 13
-1217.739862
 23
835.279722
  0
LINE
  8
0
 62
     1
  6
CONTINUOUS
 10
-1332.739862
 20
835.279722
 11
-1282.739862
 21
835.279722
  0
SOLID
  8
0
 62
     1
 10
-1306.888007
 20
828.809246
 11
-1306.888007
 21
841.750198
 12
-1282.739862
 22
835.279722
 13
-1282.739862
 23
835.279722
  0
TEXT
  8
0
 62
     1
 10
-1268.239862
 20
840.613055
 40
32.000000
 50
0.000000E+00
 41
0.56 
  1
65
 72
     5
 11
-1232.239862
 21
840.613055
  0
LINE
  8
0
 62
     1
  6
CONTINUOUS
 10
-1217.739862
 20
762.889268
 11
-1217.739862
 21
845.279722
  0
LINE
  8
0
 62
     1
  6
CONTINUOUS
 10
-1282.739862
 20
760.389268
 11
-1282.739862
 21
845.279722
  0
LINE
  8
0
 62
     1
  6
CONTINUOUS
 10
-1282.739862
 20
835.279722
 11
-1217.739862
 21
835.279722
  0
ENDBLK
  0
BLOCK
  8
0
  2
G15
 70
     0
 10
0
 20
0
  0
TEXT
  8
0
 62
     1
 10
-1325.739862
 20
898.832148
 40
32.000000
 50
0.000000E+00
 41
0.58 
  1
160
 72
     5
 11
-1269.739862
 21
898.832148
  0
LINE
  8
0
 62
     1
  6
CONTINUOUS
 10
-1377.739862
 20
798.830428
 11
-1377.739862
 21
903.498815
  0
LINE
  8
0
 62
     1
  6
CONTINUOUS
 10
-1217.739862
 20
845.279722
 11
-1217.739862
 21
903.498815
  0
LINE
  8
0
 62
     1
  6
CONTINUOUS
 10
-1217.739862
 20
893.498815
 11
-1377.739862
 21
893.498815
  0
SOLID
  8
0
 62
     1
 10
-1246.717636
 20
885.734243
 11
-1246.717636
 21
901.263386
 12
-1217.739862
 22
893.498815
 13
-1217.739862
 23
893.498815
  0
SOLID
  8
0
 62
     1
 10
-1348.762087
 20
901.263386
 11
-1348.762087
 21
885.734243
 12
-1377.739862
 22
893.498815
 13
-1377.739862
 23
893.498815
  0
ENDBLK
  0
BLOCK
  8
0
  2
G16
 70
     0
 10
0
 20
0
  0
TEXT
  8
0
 62
     1
 10
-1149.818508
 20
632.389268
 40
32.000000
 50
90.000000
 41
0.60 
  1
%%c125
 72
     5
 11
-1149.818508
 21
748.389268
  0
LINE
  8
0
 62
     1
  6
CONTINUOUS
 10
-1207.739862
 20
627.889268
 11
-1134.485175
 21
627.889268
  0
LINE
  8
0
 62
     1
  6
CONTINUOUS
 10
-1207.739862
 20
752.889268
 11
-1134.485175
 21
752.889268
  0
LINE
  8
0
 62
     1
  6
CONTINUOUS
 10
-1144.485175
 20
752.889268
 11
-1144.485175
 21
627.889268
  0
SOLID
  8
0
 62
     1
 10
-1138.014699
 20
728.741123
 11
-1150.955651
 21
728.741123
 12
-1144.485175
 22
752.889268
 13
-1144.485175
 23
752.889268
  0
SOLID
  8
0
 62
     1
 10
-1150.955651
 20
652.037414
 11
-1138.014699
 21
652.037414
 12
-1144.485175
 22
627.889268
 13
-1144.485175
 23
627.889268
  0
ENDBLK
  0
BLOCK
  8
0
  2
G17
 70
     0
 10
0
 20
0
  0
TEXT
  8
0
 62
     3
 10
-1240.980707
 20
966.070505
 40
32.000000
 50
0.000000E+00
 41
1.02 
  1
受口深さ
 72
     5
 11
-1088.980707
 21
966.070505
  0
ENDBLK
  0
BLOCK
  8
0
  2
G18
 70
     0
 10
0
 20
0
  0
LINE
  8
0
 62
     3
  6
CONTINUOUS
 10
-1168.084833
 20
864.693959
 11
-1168.084833
 21
954.693959
  0
LINE
  8
0
 62
     3
  6
CONTINUOUS
 10
-1228.084833
 20
864.693959
 11
-1168.084833
 21
864.693959
  0
SOLID
  8
0
 62
     3
 10
-1199.395690
 20
873.465110
 11
-1199.395690
 21
855.922808
 12
-1228.084833
 22
864.693959
 13
-1228.084833
 23
864.693959
  0
ENDBLK
  0
BLOCK
  8
0
  2
G19
 70
     0
 10
0
 20
0
  0
TEXT
  8
0
 62
     1
 10
-905.996281
 20
-90.472883
 40
32.000000
 50
90.000000
 41
0.97 
  1
Ｌｔ
 72
     5
 11
-905.996281
 21
-18.472883
  0
LINE
  8
0
 62
     1
  6
CONTINUOUS
 10
-950.662948
 20
-546.972883
 11
-890.662948
 21
-546.972883
  0
LINE
  8
0
 62
     1
  6
CONTINUOUS
 10
-950.662948
 20
438.027117
 11
-890.662948
 21
438.027117
  0
LINE
  8
0
 62
     1
  6
CONTINUOUS
 10
-900.662948
 20
438.027117
 11
-900.662948
 21
-546.972883
  0
SOLID
  8
0
 62
     1
 10
-894.192472
 20
413.878971
 11
-907.133424
 21
413.878971
 12
-900.662948
 22
438.027117
 13
-900.662948
 23
438.027117
  0
SOLID
  8
0
 62
     1
 10
-907.133424
 20
-522.824738
 11
-894.192472
 21
-522.824738
 12
-900.662948
 22
-546.972883
 13
-900.662948
 23
-546.972883
  0
ENDBLK
  0
BLOCK
  8
0
  2
G20
 70
     0
 10
0
 20
0
  0
TEXT
  8
0
 62
     1
 10
-965.996281
 20
-185.972883
 40
32.000000
 50
90.000000
 41
0.89 
  1
Ｌ（有効長）
 72
     5
 11
-965.996281
 21
10.027117
  0
LINE
  8
0
 62
     1
  6
CONTINUOUS
 10
-1010.662948
 20
-546.972883
 11
-950.662948
 21
-546.972883
  0
LINE
  8
0
 62
     1
  6
CONTINUOUS
 10
-960.662948
 20
363.027117
 11
-960.662948
 21
-546.972883
  0
SOLID
  8
0
 62
     1
 10
-954.192472
 20
338.878971
 11
-967.133424
 21
338.878971
 12
-960.662948
 22
363.027117
 13
-960.662948
 23
363.027117
  0
SOLID
  8
0
 62
     1
 10
-967.133424
 20
-522.824738
 11
-954.192472
 21
-522.824738
 12
-960.662948
 22
-546.972883
 13
-960.662948
 23
-546.972883
  0
ENDBLK
  0
BLOCK
  8
0
  2
G21
 70
     0
 10
0
 20
0
  0
TEXT
  8
0
 62
     1
 10
-1025.996281
 20
-394.972883
 40
32.000000
 50
90.000000
 41
0.58 
  1
360
 72
     5
 11
-1025.996281
 21
-338.972883
  0
LINE
  8
0
 62
     1
  6
CONTINUOUS
 10
-1010.662948
 20
-546.972883
 11
-1130.662948
 21
-546.972883
  0
LINE
  8
0
 62
     1
  6
CONTINUOUS
 10
-1020.662948
 20
-186.972883
 11
-1020.662948
 21
-546.972883
  0
SOLID
  8
0
 62
     1
 10
-1014.192472
 20
-211.121029
 11
-1027.133424
 21
-211.121029
 12
-1020.662948
 22
-186.972883
 13
-1020.662948
 23
-186.972883
  0
SOLID
  8
0
 62
     1
 10
-1027.133424
 20
-522.824738
 11
-1014.192472
 21
-522.824738
 12
-1020.662948
 22
-546.972883
 13
-1020.662948
 23
-546.972883
  0
ENDBLK
  0
BLOCK
  8
0
  2
G22
 70
     0
 10
0
 20
0
  0
TEXT
  8
0
 62
     1
 10
-1145.996281
 20
-499.972883
 40
32.000000
 50
90.000000
 41
0.58 
  1
150
 72
     5
 11
-1145.996281
 21
-443.972883
  0
LINE
  8
0
 62
     1
  6
CONTINUOUS
 10
-1315.239862
 20
-546.972883
 11
-1130.662948
 21
-546.972883
  0
LINE
  8
0
 62
     1
  6
CONTINUOUS
 10
-1140.662948
 20
-396.972883
 11
-1140.662948
 21
-546.972883
  0
SOLID
  8
0
 62
     1
 10
-1134.192472
 20
-421.121029
 11
-1147.133424
 21
-421.121029
 12
-1140.662948
 22
-396.972883
 13
-1140.662948
 23
-396.972883
  0
SOLID
  8
0
 62
     1
 10
-1147.133424
 20
-522.824738
 11
-1134.192472
 21
-522.824738
 12
-1140.662948
 22
-546.972883
 13
-1140.662948
 23
-546.972883
  0
ENDBLK
  0
BLOCK
  8
0
  2
G23
 70
     0
 10
0
 20
0
  0
TEXT
  8
0
 62
     1
 10
-1145.996281
 20
-364.972883
 40
32.000000
 50
90.000000
 41
0.58 
  1
120
 72
     5
 11
-1145.996281
 21
-308.972883
  0
LINE
  8
0
 62
     1
  6
CONTINUOUS
 10
-1317.488951
 20
-396.972883
 11
-1130.662948
 21
-396.972883
  0
LINE
  8
0
 62
     1
  6
CONTINUOUS
 10
-1286.990773
 20
-276.972883
 11
-1130.662948
 21
-276.972883
  0
LINE
  8
0
 62
     1
  6
CONTINUOUS
 10
-1140.662948
 20
-276.972883
 11
-1140.662948
 21
-396.972883
  0
SOLID
  8
0
 62
     1
 10
-1134.192472
 20
-301.121029
 11
-1147.133424
 21
-301.121029
 12
-1140.662948
 22
-276.972883
 13
-1140.662948
 23
-276.972883
  0
SOLID
  8
0
 62
     1
 10
-1147.133424
 20
-372.824738
 11
-1134.192472
 21
-372.824738
 12
-1140.662948
 22
-396.972883
 13
-1140.662948
 23
-396.972883
  0
ENDBLK
  0
BLOCK
  8
0
  2
G24
 70
     0
 10
0
 20
0
  0
TEXT
  8
0
 62
     1
 10
-1085.996281
 20
210.027117
 40
32.000000
 50
90.000000
 41
0.58 
  1
250
 72
     5
 11
-1085.996281
 21
266.027117
  0
LINE
  8
0
 62
     1
  6
CONTINUOUS
 10
-1367.739862
 20
363.027117
 11
-1070.662948
 21
363.027117
  0
LINE
  8
0
 62
     1
  6
CONTINUOUS
 10
-1130.662948
 20
113.027117
 11
-1070.662948
 21
113.027117
  0
LINE
  8
0
 62
     1
  6
CONTINUOUS
 10
-1080.662948
 20
113.027117
 11
-1080.662948
 21
363.027117
  0
SOLID
  8
0
 62
     1
 10
-1088.427519
 20
142.004891
 11
-1072.898377
 21
142.004891
 12
-1080.662948
 22
113.027117
 13
-1080.662948
 23
113.027117
  0
SOLID
  8
0
 62
     1
 10
-1072.898377
 20
334.049342
 11
-1088.427519
 21
334.049342
 12
-1080.662948
 22
363.027117
 13
-1080.662948
 23
363.027117
  0
ENDBLK
  0
BLOCK
  8
0
  2
G25
 70
     0
 10
0
 20
0
  0
TEXT
  8
0
 62
     1
 10
-1025.996281
 20
-22.972883
 40
32.000000
 50
90.000000
 41
0.86 
  1
Ｐ
 72
     5
 11
-1025.996281
 21
9.027117
  0
LINE
  8
0
 62
     1
  6
CONTINUOUS
 10
-1010.662948
 20
-186.972883
 11
-1130.662948
 21
-186.972883
  0
LINE
  8
0
 62
     1
  6
CONTINUOUS
 10
-1020.662948
 20
-186.972883
 11
-1020.662948
 21
173.027117
  0
SOLID
  8
0
 62
     1
 10
-1028.427519
 20
-157.995109
 11
-1012.898377
 21
-157.995109
 12
-1020.662948
 22
-186.972883
 13
-1020.662948
 23
-186.972883
  0
SOLID
  8
0
 62
     1
 10
-1012.898377
 20
144.049342
 11
-1028.427519
 21
144.049342
 12
-1020.662948
 22
173.027117
 13
-1020.662948
 23
173.027117
  0
ENDBLK
  0
BLOCK
  8
0
  2
G26
 70
     0
 10
0
 20
0
  0
TEXT
  8
0
 62
     1
 10
-965.996281
 20
382.527117
 40
32.000000
 50
90.000000
 41
0.56 
  1
75
 72
     5
 11
-965.996281
 21
418.527117
  0
LINE
  8
0
 62
     1
  6
CONTINUOUS
 10
-950.662948
 20
363.027117
 11
-1080.662948
 21
363.027117
  0
LINE
  8
0
 62
     1
  6
CONTINUOUS
 10
-950.662948
 20
438.027117
 11
-1297.549807
 21
438.027117
  0
LINE
  8
0
 62
     1
  6
CONTINUOUS
 10
-960.662948
 20
438.027117
 11
-960.662948
 21
363.027117
  0
SOLID
  8
0
 62
     1
 10
-954.192472
 20
413.878971
 11
-967.133424
 21
413.878971
 12
-960.662948
 22
438.027117
 13
-960.662948
 23
438.027117
  0
SOLID
  8
0
 62
     1
 10
-967.133424
 20
387.175262
 11
-954.192472
 21
387.175262
 12
-960.662948
 22
363.027117
 13
-960.662948
 23
363.027117
  0
ENDBLK
  0
BLOCK
  8
0
  2
G27
 70
     0
 10
0
 20
0
  0
TEXT
  8
0
 62
     3
 10
-1027.283774
 20
513.253919
 40
32.000000
 50
0.000000E+00
 41
0.95 
  1
受口深さ　
 72
     5
 11
-851.283774
 21
513.253919
  0
ENDBLK
  0
BLOCK
  8
0
  2
G28
 70
     0
 10
0
 20
0
  0
LINE
  8
0
 62
     3
  6
CONTINUOUS
 10
-426.173591
 20
293.588522
 11
-256.173591
 21
293.588522
  0
LINE
  8
0
 62
     3
  6
CONTINUOUS
 10
-426.173591
 20
301.588522
 11
-256.173591
 21
301.588522
  0
TEXT
  8
0
 62
     7
 10
-425.874524
 20
311.086109
 40
32.000000
 50
0.000000E+00
 41
0.66 
  1
％％ｃ　　　枝管
 72
     5
 11
-233.874524
 21
311.086109
  0
ENDBLK
  0
BLOCK
  8
0
  2
G29
 70
     0
 10
0
 20
0
  0
TEXT
  8
0
 62
     7
 10
-425.874524
 20
401.086109
 40
32.000000
 50
0.000000E+00
 41
0.66 
  1
％％ｃ　　　枝管
 72
     5
 11
-233.874524
 21
401.086109
  0
LINE
  8
0
 62
     3
  6
CONTINUOUS
 10
-426.173591
 20
391.588522
 11
-256.173591
 21
391.588522
  0
LINE
  8
0
 62
     3
  6
CONTINUOUS
 10
-426.173591
 20
383.588522
 11
-256.173591
 21
383.588522
  0
ENDBLK
  0
BLOCK
  8
0
  2
G30
 70
     0
 10
0
 20
0
  0
LINE
  8
0
 62
     7
  6
CONTINUOUS
 10
-1472.739862
 20
762.389268
 11
-1472.739862
 21
903.498815
  0
LINE
  8
0
 62
     7
  6
CONTINUOUS
 10
-1377.739862
 20
808.830428
 11
-1377.739862
 21
903.498815
  0
LINE
  8
0
 62
     7
  6
CONTINUOUS
 10
-1472.739862
 20
893.498815
 11
-1377.739862
 21
893.498815
  0
SOLID
  8
0
 62
     7
 10
-1444.050719
 20
902.269966
 11
-1444.050719
 21
884.727664
 12
-1472.739862
 22
893.498815
 13
-1472.739862
 23
893.498815
  0
SOLID
  8
0
 62
     7
 10
-1406.429004
 20
884.727664
 11
-1406.429004
 21
902.269966
 12
-1377.739862
 22
893.498815
 13
-1377.739862
 23
893.498815
  0
TEXT
  8
0
 62
     7
 10
-1443.239862
 20
898.832145
 40
32.000000
 50
0.000000E+00
 41
0.56 
  1
95
 72
     5
 11
-1407.239862
 21
898.832145
  0
ENDBLK
  0
BLOCK
  8
0
  2
G31
 70
     0
 10
0
 20
0
  0
LINE
  8
0
 62
     7
  6
CONTINUOUS
 10
-1305.739862
 20
785.389268
 11
-1074.485175
 21
785.389268
  0
LINE
  8
0
 62
     7
  6
CONTINUOUS
 10
-1139.153340
 20
690.389268
 11
-1074.485175
 21
690.389268
  0
LINE
  8
0
 62
     7
  6
CONTINUOUS
 10
-1084.485175
 20
785.389268
 11
-1084.485175
 21
690.389268
  0
SOLID
  8
0
 62
     7
 10
-1075.714024
 20
756.700126
 11
-1093.256326
 21
756.700126
 12
-1084.485175
 22
785.389268
 13
-1084.485175
 23
785.389268
  0
SOLID
  8
0
 62
     7
 10
-1093.256326
 20
719.078411
 11
-1075.714024
 21
719.078411
 12
-1084.485175
 22
690.389268
 13
-1084.485175
 23
690.389268
  0
TEXT
  8
0
 62
     7
 10
-1089.818505
 20
719.889268
 40
32.000000
 50
90.000000
 41
0.56 
  1
95
 72
     5
 11
-1089.818505
 21
755.889268
  0
ENDBLK
  0
BLOCK
  8
0
  2
G32
 70
     0
 10
0
 20
0
  0
LINE
  8
0
 62
     7
  6
CONTINUOUS
 10
-1452.739862
 20
448.027117
 11
-1452.739862
 21
491.551724
  0
LINE
  8
0
 62
     7
  6
CONTINUOUS
 10
-1302.739862
 20
448.027117
 11
-1302.739862
 21
491.551724
  0
LINE
  8
0
 62
     7
  6
CONTINUOUS
 10
-1452.739862
 20
481.551724
 11
-1302.739862
 21
481.551724
  0
SOLID
  8
0
 62
     7
 10
-1424.050719
 20
490.322875
 11
-1424.050719
 21
472.780573
 12
-1452.739862
 22
481.551724
 13
-1452.739862
 23
481.551724
  0
SOLID
  8
0
 62
     7
 10
-1331.429004
 20
472.780573
 11
-1331.429004
 21
490.322875
 12
-1302.739862
 22
481.551724
 13
-1302.739862
 23
481.551724
  0
TEXT
  8
0
 62
     7
 10
-1435.739862
 20
486.885054
 40
32.000000
 50
0.000000E+00
 41
0.60 
  1
%%c150
 72
     5
 11
-1319.739862
 21
486.885054
  0
ENDBLK
  0
BLOCK
  8
0
  2
G33
 70
     0
 10
0
 20
0
  0
LINE
  8
0
 62
     7
  6
CONTINUOUS
 10
-1463.739862
 20
268.786486
 11
-1463.739862
 21
553.748668
  0
LINE
  8
0
 62
     7
  6
CONTINUOUS
 10
-1291.739862
 20
258.786486
 11
-1291.739862
 21
553.748668
  0
LINE
  8
0
 62
     7
  6
CONTINUOUS
 10
-1463.739862
 20
543.748668
 11
-1291.739862
 21
543.748668
  0
SOLID
  8
0
 62
     7
 10
-1435.050719
 20
552.519819
 11
-1435.050719
 21
534.977516
 12
-1463.739862
 22
543.748668
 13
-1463.739862
 23
543.748668
  0
SOLID
  8
0
 62
     7
 10
-1320.429004
 20
534.977516
 11
-1320.429004
 21
552.519819
 12
-1291.739862
 22
543.748668
 13
-1291.739862
 23
543.748668
  0
TEXT
  8
0
 62
     7
 10
-1435.739862
 20
549.081997
 40
32.000000
 50
0.000000E+00
 41
0.60 
  1
%%c172
 72
     5
 11
-1319.739862
 21
549.081997
  0
ENDBLK
  0
BLOCK
  8
0
  2
G34
 70
     0
 10
0
 20
0
  0
LINE
  8
0
 62
     7
  6
CONTINUOUS
 10
-1432.739862
 20
-556.972883
 11
-1432.739862
 21
-631.607049
  0
LINE
  8
0
 62
     7
  6
CONTINUOUS
 10
-1322.739862
 20
-556.972883
 11
-1322.739862
 21
-631.607049
  0
LINE
  8
0
 62
     7
  6
CONTINUOUS
 10
-1432.739862
 20
-621.607049
 11
-1322.739862
 21
-621.607049
  0
SOLID
  8
0
 62
     7
 10
-1404.050719
 20
-612.835898
 11
-1404.050719
 21
-630.378201
 12
-1432.739862
 22
-621.607049
 13
-1432.739862
 23
-621.607049
  0
SOLID
  8
0
 62
     7
 10
-1351.429004
 20
-630.378201
 11
-1351.429004
 21
-612.835898
 12
-1322.739862
 22
-621.607049
 13
-1322.739862
 23
-621.607049
  0
TEXT
  8
0
 62
     7
 10
-1435.739862
 20
-616.273720
 40
32.000000
 50
0.000000E+00
 41
0.60 
  1
%%c110
 72
     5
 11
-1319.739862
 21
-616.273720
  0
ENDBLK
  0
BLOCK
  8
0
  2
G35
 70
     0
 10
0
 20
0
  0
LINE
  8
0
 62
     7
  6
CONTINUOUS
 10
-1463.739862
 20
-293.100972
 11
-1463.739862
 21
-696.251332
  0
LINE
  8
0
 62
     7
  6
CONTINUOUS
 10
-1291.739862
 20
-283.100972
 11
-1291.739862
 21
-696.251332
  0
LINE
  8
0
 62
     7
  6
CONTINUOUS
 10
-1463.739862
 20
-686.251332
 11
-1291.739862
 21
-686.251332
  0
SOLID
  8
0
 62
     7
 10
-1435.050719
 20
-677.480181
 11
-1435.050719
 21
-695.022484
 12
-1463.739862
 22
-686.251332
 13
-1463.739862
 23
-686.251332
  0
SOLID
  8
0
 62
     7
 10
-1320.429004
 20
-695.022484
 11
-1320.429004
 21
-677.480181
 12
-1291.739862
 22
-686.251332
 13
-1291.739862
 23
-686.251332
  0
TEXT
  8
0
 62
     7
 10
-1435.739862
 20
-680.918003
 40
32.000000
 50
0.000000E+00
 41
0.60 
  1
%%c172
 72
     5
 11
-1319.739862
 21
-680.918003
  0
ENDBLK
  0
BLOCK
  8
0
  2
G36
 70
     0
 10
0
 20
0
  0
LINE
  8
0
 62
     7
  6
CONTINUOUS
 10
-1208.769688
 20
-135.481581
 11
-1130.662948
 21
-135.481581
  0
LINE
  8
0
 62
     7
  6
CONTINUOUS
 10
-1207.739862
 20
-186.972883
 11
-1130.662948
 21
-186.972883
  0
LINE
  8
0
 62
     7
  6
CONTINUOUS
 10
-1140.662948
 20
-135.481581
 11
-1140.662948
 21
-186.972883
  0
LINE
  8
0
 62
     7
  6
CONTINUOUS
 10
-1140.662948
 20
-135.481581
 11
-1140.662948
 21
-85.481581
  0
SOLID
  8
0
 62
     7
 10
-1149.434099
 20
-106.792438
 11
-1131.891797
 21
-106.792438
 12
-1140.662948
 22
-135.481581
 13
-1140.662948
 23
-135.481581
  0
LINE
  8
0
 62
     7
  6
CONTINUOUS
 10
-1140.662948
 20
-186.972883
 11
-1140.662948
 21
-236.972883
  0
SOLID
  8
0
 62
     7
 10
-1131.891797
 20
-215.662026
 11
-1149.434099
 21
-215.662026
 12
-1140.662948
 22
-186.972883
 13
-1140.662948
 23
-186.972883
  0
TEXT
  8
0
 62
     7
 10
-1145.996278
 20
-177.227232
 40
32.000000
 50
90.000000
 41
0.86 
  1
Ｂ
 72
     5
 11
-1145.996278
 21
-145.227232
  0
ENDBLK
  0
BLOCK
  8
0
  2
G37
 70
     0
 10
0
 20
0
  0
POINT
  8
0
 62
     2
 10
-1218.769688
 20
-135.481581
  0
LINE
  8
0
 62
     2
  6
CONTINUOUS
 10
-1224.868468
 20
-80.592558
 11
-1222.738862
 21
-187.072863
  0
LINE
  8
0
 62
     2
  6
CONTINUOUS
 10
-1219.869468
 20
-80.492578
 11
-1217.739862
 21
-186.972883
  0
LINE
  8
0
 62
     2
  6
CONTINUOUS
 10
-1224.868468
 20
-80.592558
 11
-1219.869468
 21
-80.492578
  0
LINE
  8
0
 62
     2
  6
CONTINUOUS
 10
-1282.723512
 20
-188.272556
 11
-1217.739862
 21
-186.972883
  0
LINE
  8
0
 62
     2
  6
CONTINUOUS
 10
-1224.808480
 20
-83.591958
 11
-1282.739862
 21
-84.750586
  0
LINE
  8
0
 62
     2
  6
CENTER
 10
-1207.489859
 20
-135.255985
 11
-1290.769688
 21
-136.921581
  0
POINT
  8
0
 62
     2
 10
-1290.769688
 20
-128.921581
  0
ENDBLK
  0
BLOCK
  8
0
  2
G38
 70
     0
 10
0
 20
0
  0
CIRCLE
  8
0
 62
     2
  6
CONTINUOUS
 10
-1377.739862
 20
-134.472883
 40
35.000000
  0
LINE
  8
0
 62
     2
  6
CENTER
 10
-1449.453040
 20
-134.472883
 11
-1311.741640
 21
-134.472883
  0
ARC
  8
0
 62
     2
  6
CONTINUOUS
 10
-1377.739862
 20
-134.472883
 40
55.000000
 50
289.010880
 51
610.989120
  0
CIRCLE
  8
0
 62
     2
  6
CONTINUOUS
 10
-1377.739862
 20
-134.472883
 40
47.000000
  0
LINE
  8
0
 62
     2
  6
CONTINUOUS
 10
-1359.823739
 20
-186.473004
 11
-1395.655985
 21
-186.473004
  0
CIRCLE
  8
0
 62
     1
  6
CONTINUOUS
 10
-1377.739862
 20
-126.972883
 40
62.000000
  0
ENDBLK
  0
BLOCK
  8
0
  2
G39
 70
     0
 10
0
 20
0
  0
LINE
  8
0
 62
     7
  6
CONTINUOUS
 10
-1459.453040
 20
-134.472883
 11
-1531.546367
 21
-134.472883
  0
LINE
  8
0
 62
     7
  6
CONTINUOUS
 10
-1405.655985
 20
-186.473004
 11
-1531.546367
 21
-186.473004
  0
LINE
  8
0
 62
     7
  6
CONTINUOUS
 10
-1521.546367
 20
-134.472883
 11
-1521.546367
 21
-186.473004
  0
LINE
  8
0
 62
     7
  6
CONTINUOUS
 10
-1521.546367
 20
-134.472883
 11
-1521.546367
 21
-84.472883
  0
SOLID
  8
0
 62
     7
 10
-1530.317518
 20
-105.783741
 11
-1512.775216
 21
-105.783741
 12
-1521.546367
 22
-134.472883
 13
-1521.546367
 23
-134.472883
  0
LINE
  8
0
 62
     7
  6
CONTINUOUS
 10
-1521.546367
 20
-186.473004
 11
-1521.546367
 21
-236.473004
  0
SOLID
  8
0
 62
     7
 10
-1512.775216
 20
-215.162147
 11
-1530.317518
 21
-215.162147
 12
-1521.546367
 22
-186.473004
 13
-1521.546367
 23
-186.473004
  0
TEXT
  8
0
 62
     7
 10
-1526.879697
 20
-176.472944
 40
32.000000
 50
90.000000
 41
0.86 
  1
Ｂ
 72
     5
 11
-1526.879697
 21
-144.472944
  0
ENDBLK
  0
BLOCK
  8
0
  2
G40
 70
     0
 10
0
 20
0
  0
LINE
  8
0
 62
     2
  6
CONTINUOUS
 10
-416.000000
 20
520.000000
 11
-416.000000
 21
630.000000
  0
LINE
  8
0
 62
     2
  6
CONTINUOUS
 10
-421.000000
 20
520.000000
 11
-421.000000
 21
630.000000
  0
LINE
  8
0
 62
     2
  6
CONTINUOUS
 10
-421.000000
 20
520.000000
 11
-416.000000
 21
520.000000
  0
LINE
  8
0
 62
     2
  6
CONTINUOUS
 10
-421.000000
 20
630.000000
 11
-416.000000
 21
630.000000
  0
LINE
  8
0
 62
     2
  6
CONTINUOUS
 10
-421.000000
 20
523.000000
 11
-481.000000
 21
523.000000
  0
LINE
  8
0
 62
     2
  6
CONTINUOUS
 10
-481.000000
 20
627.000000
 11
-421.000000
 21
627.000000
  0
ENDBLK
  0
BLOCK
  8
0
  2
G41
 70
     0
 10
0
 20
0
  0
LINE
  8
0
 62
     2
  6
CONTINUOUS
 10
-521.000000
 20
415.000000
 11
-631.000000
 21
415.000000
  0
LINE
  8
0
 62
     2
  6
CONTINUOUS
 10
-631.000000
 20
420.000000
 11
-521.000000
 21
420.000000
  0
LINE
  8
0
 62
     2
  6
CONTINUOUS
 10
-627.965398
 20
420.000000
 11
-627.569710
 21
476.979167
  0
LINE
  8
0
 62
     2
  6
CONTINUOUS
 10
-524.034602
 20
420.000000
 11
-524.430290
 21
476.979167
  0
LINE
  8
0
 62
     2
  6
CONTINUOUS
 10
-631.000000
 20
420.000000
 11
-631.000000
 21
415.000000
  0
LINE
  8
0
 62
     2
  6
CONTINUOUS
 10
-521.000000
 20
420.000000
 11
-521.000000
 21
415.000000
  0
ENDBLK
  0
BLOCK
  8
0
  2
G42
 70
     0
 10
0
 20
0
  0
LINE
  8
0
 62
     7
  6
CONTINUOUS
 10
-631.000000
 20
405.000000
 11
-631.000000
 21
353.019379
  0
LINE
  8
0
 62
     7
  6
CONTINUOUS
 10
-521.000000
 20
405.000000
 11
-521.000000
 21
353.019379
  0
LINE
  8
0
 62
     7
  6
CONTINUOUS
 10
-631.000000
 20
363.019379
 11
-521.000000
 21
363.019379
  0
SOLID
  8
0
 62
     7
 10
-602.310857
 20
371.790530
 11
-602.310857
 21
354.248228
 12
-631.000000
 22
363.019379
 13
-631.000000
 23
363.019379
  0
SOLID
  8
0
 62
     7
 10
-549.689143
 20
354.248228
 11
-549.689143
 21
371.790530
 12
-521.000000
 22
363.019379
 13
-521.000000
 23
363.019379
  0
TEXT
  8
0
 62
     7
 10
-592.000000
 20
368.352709
 40
32.000000
 50
0.000000E+00
 41
0.86 
  1
Ａ
 72
     5
 11
-560.000000
 21
368.352709
  0
ENDBLK
  0
BLOCK
  8
0
  2
G43
 70
     0
 10
0
 20
0
  0
LINE
  8
0
 62
     7
  6
CONTINUOUS
 10
-406.000000
 20
630.000000
 11
-353.675308
 21
630.000000
  0
LINE
  8
0
 62
     7
  6
CONTINUOUS
 10
-406.000000
 20
520.000000
 11
-353.675308
 21
520.000000
  0
LINE
  8
0
 62
     7
  6
CONTINUOUS
 10
-363.675308
 20
630.000000
 11
-363.675308
 21
520.000000
  0
SOLID
  8
0
 62
     7
 10
-354.904157
 20
601.310857
 11
-372.446459
 21
601.310857
 12
-363.675308
 22
630.000000
 13
-363.675308
 23
630.000000
  0
SOLID
  8
0
 62
     7
 10
-372.446459
 20
548.689143
 11
-354.904157
 21
548.689143
 12
-363.675308
 22
520.000000
 13
-363.675308
 23
520.000000
  0
TEXT
  8
0
 62
     7
 10
-369.008638
 20
559.000000
 40
32.000000
 50
90.000000
 41
0.86 
  1
Ａ
 72
     5
 11
-369.008638
 21
591.000000
  0
ENDBLK
  0
ENDSEC
  0
SECTION
  2
ENTITIES
  0
LINE
  8
3
 62
     4
  6
CONTINUOUS
 10
-1460.539450
 20
-186.482684
 11
-1457.470568
 21
-185.069332
  0
LINE
  8
3
 62
     4
  6
CONTINUOUS
 10
-1457.470568
 20
-185.069332
 11
-1454.498973
 21
-182.754439
  0
LINE
  8
3
 62
     4
  6
CONTINUOUS
 10
-1454.498973
 20
-182.754439
 11
-1451.670777
 21
-179.573927
  0
LINE
  8
3
 62
     4
  6
CONTINUOUS
 10
-1451.670777
 20
-179.573927
 11
-1449.029870
 21
-175.577153
  0
LINE
  8
3
 62
     4
  6
CONTINUOUS
 10
-1449.029870
 20
-175.577153
 11
-1446.617233
 21
-170.826137
  0
LINE
  8
3
 62
     4
  6
CONTINUOUS
 10
-1446.617233
 20
-170.826137
 11
-1444.470304
 21
-165.394607
  0
LINE
  8
3
 62
     4
  6
CONTINUOUS
 10
-1444.470304
 20
-165.394607
 11
-1442.622401
 21
-159.366849
  0
LINE
  8
3
 62
     4
  6
CONTINUOUS
 10
-1442.622401
 20
-159.366849
 11
-1441.102198
 21
-152.836401
  0
LINE
  8
3
 62
     4
  6
CONTINUOUS
 10
-1441.102198
 20
-152.836401
 11
-1439.933286
 21
-145.904603
  0
LINE
  8
3
 62
     4
  6
CONTINUOUS
 10
-1439.933286
 20
-145.904603
 11
-1439.133805
 21
-138.679022
  0
LINE
  8
3
 62
     4
  6
CONTINUOUS
 10
-1439.933286
 20
-145.904603
 11
-1439.133805
 21
-138.679022
  0
ARC
  8
1
 62
     4
  6
CONTINUOUS
 10
-1271.938544
 20
-92.212691
 40
30.639745
 50
117.551999
 51
146.346996
  0
POINT
  8
3
 62
     7
 10
-1291.739862
 20
-66.972883
  0
POINT
  8
3
 62
     4
 10
-1291.739862
 20
-188.972883
  0
ARC
  8
3
 62
     4
  6
CONTINUOUS
 10
-1288.739862
 20
-191.972883
 40
3.000000
 50
90.000000
 51
180.000000
  0
LINE
  8
3
 62
     4
  6
CONTINUOUS
 10
-1284.739862
 20
-188.972883
 11
-1288.739862
 21
-188.972883
  0
ARC
  8
3
 62
     4
  6
CONTINUOUS
 10
-1284.739862
 20
-186.972883
 40
2.000000
 50
-90.000000
 51
0.000000E+00
  0
LINE
  8
3
 62
     4
  6
CONTINUOUS
 10
-1282.739862
 20
-186.972883
 11
-1282.739862
 21
-66.972883
  0
ARC
  8
3
 62
     4
  6
CONTINUOUS
 10
-1284.739862
 20
-66.972883
 40
2.000000
 50
0.000000E+00
 51
90.000000
  0
LINE
  8
3
 62
     4
  6
CONTINUOUS
 10
-1444.893237
 20
-81.972883
 11
-1420.389598
 21
-81.972883
  0
LINE
  8
0
 62
     2
  6
CONTINUOUS
 10
-1475.739862
 20
-31.471285
 11
-1475.739862
 21
-29.471285
  0
LINE
  8
0
 62
     2
  6
CONTINUOUS
 10
-1482.739862
 20
-28.471285
 11
-1377.739862
 21
-28.471285
  0
LINE
  8
0
 62
     2
  6
CONTINUOUS
 10
-1475.739862
 20
-31.471285
 11
-1279.739862
 21
-31.471285
  0
LINE
  8
0
 62
     2
  6
CONTINUOUS
 10
-1482.739862
 20
-28.471285
 11
-1482.739862
 21
-20.471285
  0
LINE
  8
0
 62
     3
  6
CONTINUOUS
 10
-1291.739862
 20
238.027117
 11
-1291.739862
 21
248.786486
  0
LINE
  8
3
 62
     3
  6
CONTINUOUS
 10
-1302.739862
 20
433.027117
 11
-1377.739862
 21
433.027117
  0
LINE
  8
3
 62
     3
  6
CONTINUOUS
 10
-1452.739862
 20
438.027117
 11
-1302.739862
 21
438.027117
  0
LINE
  8
3
 62
     3
  6
CONTINUOUS
 10
-1452.739862
 20
438.027117
 11
-1452.739862
 21
433.027117
  0
LINE
  8
0
 62
     3
  6
CONTINUOUS
 10
-1291.739862
 20
108.027117
 11
-1291.739862
 21
-13.471285
  0
ARC
  8
3
 62
     3
  6
CONTINUOUS
 10
-1315.739862
 20
361.027117
 40
10.000000
 50
-57.472862
 51
0.000000E+00
  0
LINE
  8
3
 62
     3
  6
CONTINUOUS
 10
-1449.739862
 20
428.444541
 11
-1449.739862
 21
361.027117
  0
LINE
  8
3
 62
     3
  6
CONTINUOUS
 10
-1305.739862
 20
428.444541
 11
-1305.739862
 21
361.027117
  0
ARC
  8
3
 62
     3
  6
CONTINUOUS
 10
-1439.739862
 20
361.027117
 40
10.000000
 50
180.000000
 51
238.038250
  0
LINE
  8
3
 62
     3
  6
CENTER
 10
-1211.806156
 20
173.027117
 11
-1479.665810
 21
173.027117
  0
LINE
  8
0
 62
     2
  6
CONTINUOUS
 10
-1279.739862
 20
-13.471285
 11
-1272.739862
 21
-20.471285
  0
ARC
  8
3
 62
     3
  6
CONTINUOUS
 10
-1454.739862
 20
428.444541
 40
5.000000
 50
0.000000E+00
 51
66.421822
  0
LINE
  8
3
 62
     3
  6
CONTINUOUS
 10
-1302.739862
 20
438.027117
 11
-1302.739862
 21
433.027117
  0
ARC
  8
0
 62
     3
  6
CONTINUOUS
 10
-1326.739862
 20
248.786486
 40
35.000000
 50
0.000000E+00
 51
17.716492
  0
ARC
  8
3
 62
     3
  6
CONTINUOUS
 10
-1300.739862
 20
428.444541
 40
5.000000
 50
113.578178
 51
180.000000
  0
LINE
  8
3
 62
     3
  6
CONTINUOUS
 10
-1300.000839
 20
255.903002
 11
-1377.739862
 21
255.903002
  0
ARC
  8
1
 62
     4
  6
CONTINUOUS
 10
-1284.739862
 20
-186.972883
 40
2.000000
 50
-90.000000
 51
0.000000E+00
  0
ARC
  8
1
 62
     4
  6
CONTINUOUS
 10
-1284.739862
 20
-66.972883
 40
2.000000
 50
0.000000E+00
 51
90.000000
  0
LINE
  8
1
 62
     4
  6
CONTINUOUS
 10
-1282.739862
 20
-66.972883
 11
-1282.739862
 21
-186.972883
  0
ARC
  8
3
 62
     4
  6
CONTINUOUS
 10
-1457.739862
 20
-400.844795
 40
25.000000
 50
0.000000E+00
 51
14.708304
  0
LINE
  8
3
 62
     4
  6
CONTINUOUS
 10
-1462.592945
 20
-281.987407
 11
-1433.559088
 21
-394.497342
  0
ARC
  8
3
 62
     4
  6
CONTINUOUS
 10
-1428.739862
 20
-273.100972
 40
35.000000
 50
180.000000
 51
194.708304
  0
LINE
  8
3
 62
     4
  6
CONTINUOUS
 10
-1432.739862
 20
-400.844795
 11
-1432.739862
 21
-544.972883
  0
ARC
  8
3
 62
     4
  6
CONTINUOUS
 10
-1297.739862
 20
-400.844795
 40
25.000000
 50
165.291696
 51
180.000000
  0
LINE
  8
3
 62
     4
  6
CONTINUOUS
 10
-1292.886778
 20
-281.987407
 11
-1321.920636
 21
-394.497342
  0
ARC
  8
3
 62
     4
  6
CONTINUOUS
 10
-1326.739862
 20
-273.100972
 40
35.000000
 50
-14.708304
 51
0.000000E+00
  0
LINE
  8
3
 62
     4
  6
CONTINUOUS
 10
-1322.739862
 20
-400.844795
 11
-1322.739862
 21
-544.972883
  0
LINE
  8
3
 62
     4
  6
CONTINUOUS
 10
-1324.739862
 20
-546.972883
 11
-1430.739862
 21
-546.972883
  0
LINE
  8
3
 62
     4
  6
CONTINUOUS
 10
-1427.990773
 20
-396.972883
 11
-1327.488951
 21
-396.972883
  0
LINE
  8
3
 62
     4
  6
CONTINUOUS
 10
-1458.488951
 20
-276.972883
 11
-1296.990773
 21
-276.972883
  0
LINE
  8
3
 62
     4
  6
CONTINUOUS
 10
-1463.739862
 20
-276.972883
 11
-1463.739862
 21
-191.972883
  0
LINE
  8
3
 62
     4
  6
CONTINUOUS
 10
-1284.739862
 20
-56.273521
 11
-1470.739862
 21
-56.273521
  0
LINE
  8
3
 62
     4
  6
CONTINUOUS
 10
-1291.739862
 20
-273.100972
 11
-1291.739862
 21
-191.972883
  0
LINE
  8
3
 62
     4
  6
CONTINUOUS
 10
-1481.739862
 20
-46.972883
 11
-1273.739862
 21
-46.972883
  0
LINE
  8
3
 62
     4
  6
CONTINUOUS
 10
-1272.739862
 20
-31.972883
 11
-1482.739862
 21
-31.972883
  0
ARC
  8
3
 62
     4
  6
CONTINUOUS
 10
-1430.739862
 20
-544.972883
 40
2.000000
 50
180.000000
 51
270.000000
  0
ARC
  8
3
 62
     4
  6
CONTINUOUS
 10
-1324.739862
 20
-544.972883
 40
2.000000
 50
-90.000000
 51
0.000000E+00
  0
LINE
  8
3
 62
     4
  6
CONTINUOUS
 10
-1272.739862
 20
-31.972883
 11
-1272.739862
 21
-46.972883
  0
LINE
  8
3
 62
     4
  6
CONTINUOUS
 10
-1273.739862
 20
-46.972883
 11
-1272.739862
 21
-46.972883
  0
LINE
  8
3
 62
     3
  6
CENTER
 10
-1456.228714
 20
-55.916452
 11
-1456.228714
 21
-25.425681
  0
LINE
  8
3
 62
     3
  6
CENTER
 10
-1299.251009
 20
-55.916452
 11
-1299.251009
 21
-25.425681
  0
ARC
  8
3
 62
     4
  6
CONTINUOUS
 10
-1273.739862
 20
-48.972883
 40
2.000000
 50
90.000000
 51
180.000000
  0
LINE
  8
3
 62
     4
  6
CONTINUOUS
 10
-1275.739862
 20
-48.972883
 11
-1275.739862
 21
-50.472883
  0
LINE
  8
3
 62
     4
  6
CONTINUOUS
 10
-1310.586486
 20
-81.972883
 11
-1335.090125
 21
-81.972883
  0
ARC
  8
3
 62
     4
  6
CONTINUOUS
 10
-1277.239862
 20
-50.472883
 40
1.500000
 50
-90.000000
 51
0.000000E+00
  0
LINE
  8
3
 62
     4
  6
CONTINUOUS
 10
-1277.239862
 20
-51.972883
 11
-1478.239862
 21
-51.972883
  0
LINE
  8
3
 62
     4
  6
CONTINUOUS
 10
-1281.180713
 20
-51.972883
 11
-1284.739862
 21
-56.273521
  0
LINE
  8
3
 62
     4
  6
CONTINUOUS
 10
-1284.739862
 20
-56.273521
 11
-1284.739862
 21
-64.972883
  0
LINE
  8
3
 62
     4
  6
CONTINUOUS
 10
-1470.739862
 20
-56.273521
 11
-1470.739862
 21
-64.972883
  0
LINE
  8
3
 62
     4
  6
CONTINUOUS
 10
-1474.299010
 20
-51.972883
 11
-1470.739862
 21
-56.273521
  0
ARC
  8
3
 62
     4
  6
CONTINUOUS
 10
-1478.239862
 20
-50.472883
 40
1.500000
 50
180.000000
 51
270.000000
  0
LINE
  8
3
 62
     4
  6
CONTINUOUS
 10
-1479.739862
 20
-48.972883
 11
-1479.739862
 21
-50.472883
  0
ARC
  8
3
 62
     4
  6
CONTINUOUS
 10
-1481.739862
 20
-48.972883
 40
2.000000
 50
0.000000E+00
 51
90.000000
  0
LINE
  8
3
 62
     4
  6
CONTINUOUS
 10
-1481.739862
 20
-46.972883
 11
-1482.739862
 21
-46.972883
  0
LINE
  8
3
 62
     4
  6
CONTINUOUS
 10
-1482.739862
 20
-31.972883
 11
-1482.739862
 21
-46.972883
  0
LINE
  8
0
 62
     3
  6
CONTINUOUS
 10
-1463.739862
 20
248.786486
 11
-1463.739862
 21
238.027117
  0
ARC
  8
0
 62
     3
  6
CONTINUOUS
 10
-1428.739862
 20
248.786486
 40
35.000000
 50
162.283508
 51
180.000000
  0
LINE
  8
3
 62
     3
  6
CONTINUOUS
 10
-1316.769878
 20
352.543100
 11
-1377.739862
 21
352.543100
  0
LINE
  8
0
 62
     3
  6
CONTINUOUS
 10
-1438.493178
 20
334.836132
 11
-1462.079949
 21
259.437240
  0
LINE
  8
0
 62
     3
  6
CONTINUOUS
 10
-1316.986545
 20
334.836132
 11
-1293.399774
 21
259.437240
  0
ARC
  8
2
 62
     3
  6
CONTINUOUS
 10
-1452.781787
 20
339.400741
 40
15.000000
 50
-17.716492
 51
59.888987
  0
LINE
  8
3
 62
     4
  6
CENTER
 10
-1377.739862
 20
-319.368262
 11
-1377.739862
 21
-7.290674
  0
LINE
  8
3
 62
     4
  6
CENTER
 10
-1377.739862
 20
-560.060403
 11
-1377.739862
 21
-319.368262
  0
LINE
  8
0
 62
     2
  6
CONTINUOUS
 10
-1475.739862
 20
-13.471285
 11
-1482.739862
 21
-20.471285
  0
LINE
  8
0
 62
     3
  6
CONTINUOUS
 10
-1463.739862
 20
108.027117
 11
-1463.739862
 21
-13.471285
  0
ARC
  8
2
 62
     3
  6
CONTINUOUS
 10
-1302.697936
 20
339.400741
 40
15.000000
 50
120.111013
 51
197.716492
  0
LINE
  8
3
 62
     3
  6
CONTINUOUS
 10
-1294.384056
 20
113.387137
 11
-1298.271706
 21
115.232300
  0
LINE
  8
3
 62
     3
  6
CONTINUOUS
 10
-1298.271706
 20
115.232300
 11
-1301.986868
 21
118.597538
  0
LINE
  8
3
 62
     3
  6
CONTINUOUS
 10
-1301.986868
 20
118.597538
 11
-1305.431827
 21
123.394342
  0
LINE
  8
3
 62
     3
  6
CONTINUOUS
 10
-1305.431827
 20
123.394342
 11
-1308.515977
 21
129.496551
  0
LINE
  8
3
 62
     3
  6
CONTINUOUS
 10
-1308.515977
 20
129.496551
 11
-1311.158201
 21
136.743668
  0
LINE
  8
3
 62
     3
  6
CONTINUOUS
 10
-1311.158201
 20
136.743668
 11
-1313.289005
 21
144.945085
  0
LINE
  8
3
 62
     3
  6
CONTINUOUS
 10
-1313.289005
 20
144.945085
 11
-1314.852346
 21
153.885095
  0
LINE
  8
3
 62
     3
  6
CONTINUOUS
 10
-1314.852346
 20
153.885095
 11
-1315.807106
 21
163.328564
  0
LINE
  8
3
 62
     3
  6
CONTINUOUS
 10
-1315.807106
 20
163.328564
 11
-1316.128174
 21
173.027117
  0
LINE
  8
3
 62
     3
  6
CONTINUOUS
 10
-1315.807106
 20
163.328564
 11
-1316.128174
 21
173.027117
  0
INSERT
  8
0
  2
G0
 10
0
 20
0
  0
LINE
  8
3
 62
     3
  6
CONTINUOUS
 10
-1293.926165
 20
232.780203
 11
-1297.487459
 21
231.325073
  0
LINE
  8
3
 62
     3
  6
CONTINUOUS
 10
-1297.487459
 20
231.325073
 11
-1300.922502
 21
228.595239
  0
LINE
  8
3
 62
     3
  6
CONTINUOUS
 10
-1300.922502
 20
228.595239
 11
-1304.156188
 21
224.650390
  0
LINE
  8
3
 62
     3
  6
CONTINUOUS
 10
-1304.156188
 20
224.650390
 11
-1307.117811
 21
219.576782
  0
LINE
  8
3
 62
     3
  6
CONTINUOUS
 10
-1307.117811
 20
219.576782
 11
-1309.742613
 21
213.485350
  0
LINE
  8
3
 62
     3
  6
CONTINUOUS
 10
-1309.742613
 20
213.485350
 11
-1311.973203
 21
206.509286
  0
LINE
  8
3
 62
     3
  6
CONTINUOUS
 10
-1311.973203
 20
206.509286
 11
-1313.760808
 21
198.801123
  0
LINE
  8
3
 62
     3
  6
CONTINUOUS
 10
-1313.760808
 20
198.801123
 11
-1315.066341
 21
190.529404
  0
LINE
  8
3
 62
     3
  6
CONTINUOUS
 10
-1315.066341
 20
190.529404
 11
-1315.861257
 21
181.874991
  0
LINE
  8
3
 62
     3
  6
CONTINUOUS
 10
-1315.861257
 20
181.874991
 11
-1316.128174
 21
173.027117
  0
LINE
  8
3
 62
     3
  6
CONTINUOUS
 10
-1315.861257
 20
181.874991
 11
-1316.128174
 21
173.027117
  0
INSERT
  8
0
  2
G1
 10
0
 20
0
  0
LINE
  8
0
 62
     3
  6
CONTINUOUS
 10
-1472.739862
 20
233.027117
 11
-1472.739862
 21
113.027117
  0
TEXT
  8
0
 62
     6
 10
-1298.933805
 20
1169.451072
 40
32.000000
 50
0.000000E+00
 41
0.86 
  1
ａ
 72
     5
 11
-1266.933805
 21
1169.451072
  0
LINE
  8
3
 62
     4
  6
CONTINUOUS
 10
-1446.278439
 20
-83.890495
 11
-1445.108535
 21
-86.791012
  0
LINE
  8
3
 62
     4
  6
CONTINUOUS
 10
-1445.108535
 20
-86.791012
 11
-1444.022686
 21
-89.872809
  0
LINE
  8
3
 62
     4
  6
CONTINUOUS
 10
-1444.022686
 20
-89.872809
 11
-1443.025791
 21
-93.121981
  0
LINE
  8
3
 62
     4
  6
CONTINUOUS
 10
-1443.025791
 20
-93.121981
 11
-1442.122346
 21
-96.523870
  0
LINE
  8
3
 62
     4
  6
CONTINUOUS
 10
-1442.122346
 20
-96.523870
 11
-1441.316427
 21
-100.063128
  0
LINE
  8
3
 62
     4
  6
CONTINUOUS
 10
-1441.316427
 20
-100.063128
 11
-1440.611671
 21
-103.723789
  0
LINE
  8
3
 62
     4
  6
CONTINUOUS
 10
-1440.611671
 20
-103.723789
 11
-1440.011257
 21
-107.489336
  0
LINE
  8
3
 62
     4
  6
CONTINUOUS
 10
-1440.011257
 20
-107.489336
 11
-1439.517893
 21
-111.342783
  0
LINE
  8
3
 62
     4
  6
CONTINUOUS
 10
-1439.517893
 20
-111.342783
 11
-1439.133805
 21
-115.266745
  0
LINE
  8
3
 62
     4
  6
CONTINUOUS
 10
-1439.517893
 20
-111.342783
 11
-1439.133805
 21
-115.266745
  0
ARC
  8
3
 62
     4
  6
CONTINUOUS
 10
-1437.868044
 20
-55.024384
 40
28.500781
 50
225.057601
 51
244.512889
  0
POINT
  8
3
 62
     7
 10
-1463.739862
 20
-66.972883
  0
ARC
  8
3
 62
     4
  6
CONTINUOUS
 10
-1317.611679
 20
-55.024384
 40
28.500781
 50
295.487111
 51
314.942399
  0
ARC
  8
1
 62
     4
  6
CONTINUOUS
 10
-1470.739862
 20
-186.972883
 40
2.000000
 50
180.000000
 51
270.000000
  0
ARC
  8
1
 62
     4
  6
CONTINUOUS
 10
-1470.739862
 20
-66.972883
 40
2.000000
 50
90.000000
 51
180.000000
  0
ARC
  8
1
 62
     4
  6
CONTINUOUS
 10
-1466.739862
 20
-191.972883
 40
3.000000
 50
0.000000E+00
 51
90.000000
  0
LINE
  8
1
 62
     4
  6
CONTINUOUS
 10
-1466.739862
 20
-188.972883
 11
-1470.739862
 21
-188.972883
  0
ARC
  8
1
 62
     4
  6
CONTINUOUS
 10
-1483.541179
 20
-92.212691
 40
30.639745
 50
33.671563
 51
62.448001
  0
LINE
  8
1
 62
     4
  6
CONTINUOUS
 10
-1472.739862
 20
-66.972883
 11
-1472.739862
 21
-186.972883
  0
LINE
  8
3
 62
     4
  6
CONTINUOUS
 10
-1309.201285
 20
-83.890495
 11
-1310.257896
 21
-86.492581
  0
LINE
  8
3
 62
     4
  6
CONTINUOUS
 10
-1310.257896
 20
-86.492581
 11
-1311.246832
 21
-89.242603
  0
LINE
  8
3
 62
     4
  6
CONTINUOUS
 10
-1311.246832
 20
-89.242603
 11
-1312.164480
 21
-92.130513
  0
LINE
  8
3
 62
     4
  6
CONTINUOUS
 10
-1312.164480
 20
-92.130513
 11
-1313.007484
 21
-95.145756
  0
LINE
  8
3
 62
     4
  6
CONTINUOUS
 10
-1313.007484
 20
-95.145756
 11
-1313.772766
 21
-98.277312
  0
LINE
  8
3
 62
     4
  6
CONTINUOUS
 10
-1313.772766
 20
-98.277312
 11
-1314.457527
 21
-101.513737
  0
LINE
  8
3
 62
     4
  6
CONTINUOUS
 10
-1314.457527
 20
-101.513737
 11
-1315.059265
 21
-104.843204
  0
LINE
  8
3
 62
     4
  6
CONTINUOUS
 10
-1315.059265
 20
-104.843204
 11
-1315.575782
 21
-108.253545
  0
LINE
  8
3
 62
     4
  6
CONTINUOUS
 10
-1315.575782
 20
-108.253545
 11
-1316.005189
 21
-111.732296
  0
LINE
  8
3
 62
     4
  6
CONTINUOUS
 10
-1316.005189
 20
-111.732296
 11
-1316.345918
 21
-115.266745
  0
LINE
  8
3
 62
     4
  6
CONTINUOUS
 10
-1316.005189
 20
-111.732296
 11
-1316.345918
 21
-115.266745
  0
LINE
  8
3
 62
     4
  6
CONTINUOUS
 10
-1294.940273
 20
-186.482684
 11
-1298.009156
 21
-185.069332
  0
LINE
  8
3
 62
     4
  6
CONTINUOUS
 10
-1298.009156
 20
-185.069332
 11
-1300.980751
 21
-182.754439
  0
LINE
  8
3
 62
     4
  6
CONTINUOUS
 10
-1300.980751
 20
-182.754439
 11
-1303.808946
 21
-179.573927
  0
LINE
  8
3
 62
     4
  6
CONTINUOUS
 10
-1303.808946
 20
-179.573927
 11
-1306.449853
 21
-175.577153
  0
LINE
  8
3
 62
     4
  6
CONTINUOUS
 10
-1306.449853
 20
-175.577153
 11
-1308.862491
 21
-170.826137
  0
LINE
  8
3
 62
     4
  6
CONTINUOUS
 10
-1308.862491
 20
-170.826137
 11
-1311.009419
 21
-165.394607
  0
LINE
  8
3
 62
     4
  6
CONTINUOUS
 10
-1311.009419
 20
-165.394607
 11
-1312.857323
 21
-159.366849
  0
LINE
  8
3
 62
     4
  6
CONTINUOUS
 10
-1312.857323
 20
-159.366849
 11
-1314.377525
 21
-152.836401
  0
LINE
  8
3
 62
     4
  6
CONTINUOUS
 10
-1314.377525
 20
-152.836401
 11
-1315.546437
 21
-145.904603
  0
LINE
  8
3
 62
     4
  6
CONTINUOUS
 10
-1315.546437
 20
-145.904603
 11
-1316.345918
 21
-138.679022
  0
LINE
  8
3
 62
     4
  6
CONTINUOUS
 10
-1315.546437
 20
-145.904603
 11
-1316.345918
 21
-138.679022
  0
POINT
  8
0
 62
     3
 10
-1377.739862
 20
-39.972883
  0
POINT
  8
0
 62
     3
 10
-1377.739862
 20
-54.472883
  0
POINT
  8
0
 62
     3
 10
-1377.739862
 20
-76.972883
  0
ARC
  8
0
 62
     2
  6
CONTINUOUS
 10
-1476.739862
 20
-29.471285
 40
1.000000
 50
360.000000
 51
450.000000
  0
LINE
  8
0
 62
     2
  6
CONTINUOUS
 10
-1475.739862
 20
-13.471285
 11
-1279.739862
 21
-13.471285
  0
LINE
  8
3
 62
     3
  6
CONTINUOUS
 10
-1222.739862
 20
110.527117
 11
-1222.739862
 21
233.027117
  0
LINE
  8
3
 62
     3
  6
CONTINUOUS
 10
-1222.739862
 20
110.527117
 11
-1217.739862
 21
110.527117
  0
LINE
  8
3
 62
     3
  6
CONTINUOUS
 10
-1222.739862
 20
233.027117
 11
-1282.739862
 21
233.027117
  0
ARC
  8
1
 62
     3
  6
CONTINUOUS
 10
-1284.739862
 20
113.027117
 40
2.000000
 50
-90.000000
 51
0.000000E+00
  0
LINE
  8
3
 62
     3
  6
CONTINUOUS
 10
-1222.739862
 20
113.027117
 11
-1282.739862
 21
113.027117
  0
LINE
  8
3
 62
     3
  6
CONTINUOUS
 10
-1222.739862
 20
235.527117
 11
-1217.739862
 21
235.527117
  0
LINE
  8
3
 62
     3
  6
CONTINUOUS
 10
-1222.739862
 20
235.527117
 11
-1222.739862
 21
233.027117
  0
LINE
  8
3
 62
     3
  6
CONTINUOUS
 10
-1217.739862
 20
235.527117
 11
-1217.739862
 21
110.527117
  0
LINE
  8
1
 62
     3
  6
CONTINUOUS
 10
-1284.739862
 20
235.027117
 11
-1288.739862
 21
235.027117
  0
LINE
  8
1
 62
     3
  6
CONTINUOUS
 10
-1284.739862
 20
111.027117
 11
-1288.739862
 21
111.027117
  0
ARC
  8
1
 62
     3
  6
CONTINUOUS
 10
-1284.739862
 20
233.027117
 40
2.000000
 50
0.000000E+00
 51
90.000000
  0
ARC
  8
1
 62
     3
  6
CONTINUOUS
 10
-1288.739862
 20
238.027117
 40
3.000000
 50
180.000000
 51
270.000000
  0
ARC
  8
1
 62
     3
  6
CONTINUOUS
 10
-1288.739862
 20
108.027117
 40
3.000000
 50
90.000000
 51
180.000000
  0
ARC
  8
0
 62
     3
  6
CONTINUOUS
 10
-1326.739862
 20
248.786486
 40
35.000000
 50
0.000000E+00
 51
17.716492
  0
LINE
  8
0
 62
     3
  6
CONTINUOUS
 10
-1291.739862
 20
248.786486
 11
-1291.739862
 21
238.027117
  0
LINE
  8
0
 62
     2
  6
CONTINUOUS
 10
-1482.739862
 20
-20.471285
 11
-1377.739862
 21
-20.471285
  0
LINE
  8
3
 62
     3
  6
CENTER
 10
-1377.739862
 20
445.501565
 11
-1377.739862
 21
-7.290674
  0
LINE
  8
3
 62
     3
  6
CONTINUOUS
 10
-1455.478884
 20
255.903002
 11
-1377.739862
 21
255.903002
  0
LINE
  8
3
 62
     3
  6
CONTINUOUS
 10
-1438.709846
 20
352.543100
 11
-1377.739862
 21
352.543100
  0
LINE
  8
3
 62
     3
  6
CONTINUOUS
 10
-1452.739862
 20
433.027117
 11
-1377.739862
 21
433.027117
  0
POINT
  8
0
 62
     3
 10
-1377.739862
 20
363.027117
  0
TEXT
  8
0
 62
     6
 10
-1663.166393
 20
1078.812443
 40
35.000000
 50
0.000000E+00
 41
0.76 
  1
４ＳＦ－　　　－　　　　　　　　　００－Ｐ
 72
     5
 11
-1026.166393
 21
1078.812443
  0
TEXT
  8
0
 62
     6
 10
-999.551869
 20
1056.370812
 40
35.000000
 50
0.000000E+00
 41
0.60 
  1
300,340,360
 72
     5
 11
-767.051869
 21
1056.370812
  0
INSERT
  8
0
  2
G2
 10
0
 20
0
  0
LINE
  8
0
 62
     1
  6
CONTINUOUS
 10
-481.000000
 20
640.638816
 11
-481.000000
 21
721.624747
  0
LINE
  8
0
 62
     2
  6
CONTINUOUS
 10
-1272.739862
 20
-28.471285
 11
-1272.739862
 21
-20.471285
  0
LINE
  8
0
 62
     2
  6
CONTINUOUS
 10
-1279.739862
 20
-31.471285
 11
-1279.739862
 21
-29.471285
  0
ARC
  8
0
 62
     2
  6
CONTINUOUS
 10
-1278.739862
 20
-29.471285
 40
1.000000
 50
90.000000
 51
180.000000
  0
LINE
  8
0
 62
     2
  6
CONTINUOUS
 10
-1272.739862
 20
-20.471285
 11
-1377.739862
 21
-20.471285
  0
LINE
  8
0
 62
     2
  6
CONTINUOUS
 10
-1272.739862
 20
-28.471285
 11
-1377.739862
 21
-28.471285
  0
INSERT
  8
0
  2
G3
 10
0
 20
0
  0
INSERT
  8
0
  2
G4
 10
0
 20
0
  0
INSERT
  8
0
  2
G5
 10
0
 20
0
  0
INSERT
  8
0
  2
G6
 10
0
 20
0
  0
ARC
  8
0
 62
     4
  6
CONTINUOUS
 10
-576.000000
 20
575.000000
 40
100.000000
 50
126.038338
 51
143.961662
  0
ARC
  8
3
 62
     3
  6
CONTINUOUS
 10
-576.000000
 20
575.000000
 40
105.000000
 50
170.096801
 51
190.978618
  0
ARC
  8
0
 62
     4
  6
CONTINUOUS
 10
-576.000000
 20
575.000000
 40
100.000000
 50
36.038338
 51
53.961662
  0
ARC
  8
0
 62
     4
  6
CONTINUOUS
 10
-576.000000
 20
575.000000
 40
100.000000
 50
306.038338
 51
323.961662
  0
CIRCLE
  8
3
 62
     4
  6
CONTINUOUS
 10
-576.000000
 20
575.000000
 40
88.000000
  0
LINE
  8
3
 62
     3
  6
CONTINUOUS
 10
-1461.553558
 20
232.780203
 11
-1457.992265
 21
231.325073
  0
LINE
  8
3
 62
     3
  6
CONTINUOUS
 10
-1457.992265
 20
231.325073
 11
-1454.557221
 21
228.595239
  0
LINE
  8
3
 62
     3
  6
CONTINUOUS
 10
-1454.557221
 20
228.595239
 11
-1451.323535
 21
224.650390
  0
LINE
  8
3
 62
     3
  6
CONTINUOUS
 10
-1451.323535
 20
224.650390
 11
-1448.361913
 21
219.576782
  0
LINE
  8
3
 62
     3
  6
CONTINUOUS
 10
-1448.361913
 20
219.576782
 11
-1445.737110
 21
213.485350
  0
LINE
  8
3
 62
     3
  6
CONTINUOUS
 10
-1445.737110
 20
213.485350
 11
-1443.506520
 21
206.509286
  0
LINE
  8
3
 62
     3
  6
CONTINUOUS
 10
-1443.506520
 20
206.509286
 11
-1441.718916
 21
198.801123
  0
LINE
  8
3
 62
     3
  6
CONTINUOUS
 10
-1441.718916
 20
198.801123
 11
-1440.413382
 21
190.529404
  0
LINE
  8
3
 62
     3
  6
CONTINUOUS
 10
-1440.413382
 20
190.529404
 11
-1439.618466
 21
181.874991
  0
LINE
  8
3
 62
     3
  6
CONTINUOUS
 10
-1439.618466
 20
181.874991
 11
-1439.351549
 21
173.027117
  0
LINE
  8
3
 62
     3
  6
CONTINUOUS
 10
-1439.618466
 20
181.874991
 11
-1439.351549
 21
173.027117
  0
ARC
  8
3
 62
     4
  6
CONTINUOUS
 10
-576.000000
 20
575.000000
 40
100.000000
 50
143.109614
 51
216.890386
  0
LINE
  8
3
 62
     4
  6
CONTINUOUS
 10
-667.250931
 20
655.964607
 11
-679.453628
 21
593.061853
  0
ARC
  8
3
 62
     3
  6
CONTINUOUS
 10
-576.000000
 20
575.000000
 40
105.000000
 50
-10.978618
 51
9.903199
  0
ARC
  8
3
 62
     3
  6
CONTINUOUS
 10
-576.000000
 20
575.000000
 40
105.000000
 50
260.096801
 51
279.903199
  0
LINE
  8
3
 62
     4
  6
CONTINUOUS
 10
-667.250931
 20
494.035393
 11
-679.453628
 21
556.938147
  0
LINE
  8
3
 62
     3
  6
CENTER
 10
-507.288243
 20
506.288243
 11
-486.607067
 21
485.607067
  0
LINE
  8
3
 62
     4
  6
CONTINUOUS
 10
-656.964607
 20
483.749069
 11
-594.061853
 21
471.546372
  0
ARC
  8
3
 62
     4
  6
CENTER
 10
-576.000000
 20
575.000000
 40
111.000000
 50
306.265016
 51
322.275712
  0
LINE
  8
3
 62
     3
  6
CENTER
 10
-643.637531
 20
507.362469
 11
-666.149487
 21
484.850513
  0
ARC
  8
3
 62
     4
  6
CENTER
 10
-576.000000
 20
575.000000
 40
111.000000
 50
216.069475
 51
234.182385
  0
ARC
  8
3
 62
     4
  6
CENTER
 10
-576.000000
 20
575.000000
 40
111.000000
 50
124.449115
 51
144.970079
  0
LINE
  8
3
 62
     4
  6
CONTINUOUS
 10
-495.035393
 20
483.749069
 11
-557.938147
 21
471.546372
  0
LINE
  8
3
 62
     4
  6
CONTINUOUS
 10
-595.996478
 20
678.078324
 11
-656.964607
 21
666.250931
  0
LINE
  8
3
 62
     3
  6
CENTER
 10
-643.991228
 20
642.991228
 11
-665.941928
 21
664.941928
  0
LINE
  8
3
 62
     4
  6
CONTINUOUS
 10
-484.749069
 20
494.035393
 11
-472.921676
 21
555.003522
  0
ARC
  8
3
 62
     4
  6
CONTINUOUS
 10
-497.511147
 20
496.511147
 40
13.000000
 50
280.978618
 51
349.021382
  0
ARC
  8
3
 62
     4
  6
CONTINUOUS
 10
-654.488853
 20
496.511147
 40
13.000000
 50
190.978618
 51
259.021382
  0
ARC
  8
3
 62
     4
  6
CONTINUOUS
 10
-654.488853
 20
653.488853
 40
13.000000
 50
100.978618
 51
169.021382
  0
LINE
  8
3
 62
     3
  6
CENTER
 10
-508.014135
 20
642.985865
 11
-486.273441
 21
664.726559
  0
LINE
  8
3
 62
     4
  6
CONTINUOUS
 10
-484.749069
 20
655.964607
 11
-472.546372
 21
593.061853
  0
LINE
  8
3
 62
     4
  6
CONTINUOUS
 10
-495.035393
 20
666.250931
 11
-556.003522
 21
678.078324
  0
ARC
  8
3
 62
     3
  6
CONTINUOUS
 10
-576.000000
 20
575.000000
 40
105.000000
 50
79.021382
 51
100.978618
  0
CIRCLE
  8
3
 62
     3
  6
CONTINUOUS
 10
-576.000000
 20
575.000000
 40
81.000000
  0
ARC
  8
3
 62
     4
  6
CONTINUOUS
 10
-497.511147
 20
653.488853
 40
13.000000
 50
10.978618
 51
79.021382
  0
LINE
  8
3
 62
     3
  6
CENTER
 10
-407.959938
 20
575.000000
 11
-695.895985
 21
575.000000
  0
LINE
  8
3
 62
     3
  6
CENTER
 10
-576.000000
 20
400.714592
 11
-576.000000
 21
688.766137
  0
CIRCLE
  8
3
 62
     4
  6
CONTINUOUS
 10
-654.488853
 20
653.488853
 40
7.000000
  0
CIRCLE
  8
3
 62
     4
  6
CONTINUOUS
 10
-497.511147
 20
653.488853
 40
7.000000
  0
CIRCLE
  8
3
 62
     4
  6
CONTINUOUS
 10
-497.511147
 20
496.511147
 40
7.000000
  0
CIRCLE
  8
3
 62
     4
  6
CONTINUOUS
 10
-654.488853
 20
496.511147
 40
7.000000
  0
ARC
  8
3
 62
     4
  6
CENTER
 10
-576.000000
 20
575.000000
 40
111.000000
 50
37.018997
 51
55.489571
  0
ARC
  8
3
 62
     4
  6
CONTINUOUS
 10
-576.000000
 20
575.000000
 40
100.000000
 50
53.109614
 51
126.890386
  0
ARC
  8
3
 62
     4
  6
CONTINUOUS
 10
-576.000000
 20
575.000000
 40
100.000000
 50
323.109614
 51
396.890386
  0
ARC
  8
3
 62
     4
  6
CONTINUOUS
 10
-576.000000
 20
575.000000
 40
100.000000
 50
233.109614
 51
306.890386
  0
ARC
  8
0
 62
     4
  6
CONTINUOUS
 10
-576.000000
 20
575.000000
 40
100.000000
 50
216.038338
 51
233.961662
  0
TEXT
  8
0
 62
     6
 10
-1480.183521
 20
1078.910129
 40
35.000000
 50
0.000000E+00
 41
0.86 
  1
Ａ
 72
     5
 11
-1445.183521
 21
1078.910129
  0
TEXT
  8
0
 62
     6
 10
-1359.509580
 20
1079.910129
 40
35.000000
 50
0.000000E+00
 41
0.86 
  1
Ｃ
 72
     5
 11
-1324.509580
 21
1079.910129
  0
TEXT
  8
0
 62
     6
 10
-1388.009580
 20
1144.959535
 40
32.000000
 50
0.000000E+00
 41
0.97 
  1
下部
 72
     5
 11
-1316.009580
 21
1144.959535
  0
TEXT
  8
0
 62
     6
 10
-1508.009580
 20
1144.959535
 40
32.000000
 50
0.000000E+00
 41
0.97 
  1
上部
 72
     5
 11
-1436.009580
 21
1144.959535
  0
INSERT
  8
0
  2
G7
 10
0
 20
0
  0
TEXT
  8
0
 62
     6
 10
-1238.933805
 20
1169.451072
 40
32.000000
 50
0.000000E+00
 41
0.86 
  1
ｂ
 72
     5
 11
-1206.933805
 21
1169.451072
  0
CIRCLE
  8
0
 62
     6
  6
HIDDEN
 10
-1223.802953
 20
1093.777279
 40
20.000000
  0
TEXT
  8
0
 62
     6
 10
-1231.802953
 20
1077.777279
 40
32.000000
 50
0.000000E+00
 41
0.50 
  1
2
 72
     5
 11
-1215.802953
 21
1077.777279
  0
CIRCLE
  8
0
 62
     6
  6
HIDDEN
 10
-1223.802953
 20
1141.810698
 40
20.000000
  0
TEXT
  8
0
 62
     6
 10
-1231.802953
 20
1125.810698
 40
32.000000
 50
0.000000E+00
 41
0.50 
  1
1
 72
     5
 11
-1215.802953
 21
1125.810698
  0
TEXT
  8
0
 62
     6
 10
-501.793661
 20
956.134541
 40
32.000000
 50
0.000000E+00
 41
0.50 
  1
3
 72
     5
 11
-485.793661
 21
956.134541
  0
TEXT
  8
0
 62
     6
 10
-501.793661
 20
1016.134541
 40
32.000000
 50
0.000000E+00
 41
0.50 
  1
2
 72
     5
 11
-485.793661
 21
1016.134541
  0
TEXT
  8
0
 62
     6
 10
-501.793661
 20
1076.134541
 40
32.000000
 50
0.000000E+00
 41
0.50 
  1
1
 72
     5
 11
-485.793661
 21
1076.134541
  0
TEXT
  8
0
 62
     6
 10
-470.705692
 20
959.530401
 40
32.000000
 50
0.000000E+00
 41
0.74 
  1
：％％ｃ７５枝管
 72
     5
 11
-258.705692
 21
959.530401
  0
TEXT
  8
0
 62
     6
 10
-470.705692
 20
1019.530401
 40
32.000000
 50
0.000000E+00
 41
0.74 
  1
：％％ｃ６５枝管
 72
     5
 11
-258.705692
 21
1019.530401
  0
TEXT
  8
0
 62
     6
 10
-470.705692
 20
1079.530401
 40
32.000000
 50
0.000000E+00
 41
0.74 
  1
：％％ｃ５０枝管
 72
     5
 11
-258.705692
 21
1079.530401
  0
TEXT
  8
0
 62
     6
 10
-568.581501
 20
1132.505821
 40
32.000000
 50
0.000000E+00
 41
0.97 
  1
枝管のタイプ（呼び径）
 72
     5
 11
-172.581501
 21
1132.505821
  0
LINE
  8
0
 62
     3
  6
CONTINUOUS
 10
-208.618848
 20
190.642930
 11
-487.596277
 21
190.642930
  0
INSERT
  8
0
  2
G8
 10
0
 20
0
  0
LINE
  8
3
 62
     3
  6
CONTINUOUS
 10
-1461.095668
 20
113.387137
 11
-1457.590680
 21
114.978260
  0
LINE
  8
3
 62
     3
  6
CONTINUOUS
 10
-1457.590680
 20
114.978260
 11
-1454.217312
 21
117.806573
  0
LINE
  8
3
 62
     3
  6
CONTINUOUS
 10
-1454.217312
 20
117.806573
 11
-1451.047458
 21
121.811796
  0
LINE
  8
3
 62
     3
  6
CONTINUOUS
 10
-1451.047458
 20
121.811796
 11
-1448.148679
 21
126.908567
  0
LINE
  8
3
 62
     3
  6
CONTINUOUS
 10
-1448.148679
 20
126.908567
 11
-1445.582755
 21
132.988258
  0
LINE
  8
3
 62
     3
  6
CONTINUOUS
 10
-1445.582755
 20
132.988258
 11
-1443.404373
 21
139.921294
  0
LINE
  8
3
 62
     3
  6
CONTINUOUS
 10
-1443.404373
 20
139.921294
 11
-1441.659962
 21
147.559912
  0
LINE
  8
3
 62
     3
  6
CONTINUOUS
 10
-1441.659962
 20
147.559912
 11
-1440.386699
 21
155.741310
  0
LINE
  8
3
 62
     3
  6
CONTINUOUS
 10
-1440.386699
 20
155.741310
 11
-1439.611723
 21
164.291118
  0
LINE
  8
3
 62
     3
  6
CONTINUOUS
 10
-1439.611723
 20
164.291118
 11
-1439.351549
 21
173.027117
  0
LINE
  8
3
 62
     3
  6
CONTINUOUS
 10
-1439.611723
 20
164.291118
 11
-1439.351549
 21
173.027117
  0
ARC
  8
1
 62
     3
  6
CONTINUOUS
 10
-1470.739862
 20
113.027117
 40
2.000000
 50
180.000000
 51
270.000000
  0
LINE
  8
1
 62
     3
  6
CONTINUOUS
 10
-1470.739862
 20
235.027117
 11
-1467.239862
 21
235.027117
  0
LINE
  8
1
 62
     3
  6
CONTINUOUS
 10
-1470.739862
 20
111.027117
 11
-1467.239862
 21
111.027117
  0
ARC
  8
1
 62
     3
  6
CONTINUOUS
 10
-1470.739862
 20
233.027117
 40
2.000000
 50
90.000000
 51
180.000000
  0
INSERT
  8
0
  2
G9
 10
0
 20
0
  0
ARC
  8
1
 62
     3
  6
CONTINUOUS
 10
-1467.239862
 20
238.027117
 40
3.000000
 50
270.000000
 51
360.000000
  0
TEXT
  8
0
 62
     3
 10
-468.618848
 20
195.976263
 40
32.000000
 50
360.000000
 41
0.87 
  1
Ｃ矢視　（下部）
 72
     5
 11
-212.618848
 21
195.976263
  0
ARC
  8
1
 62
     3
  6
CONTINUOUS
 10
-1467.239862
 20
108.027117
 40
3.000000
 50
0.000000E+00
 51
90.000000
  0
LINE
  8
0
 62
     3
  6
CONTINUOUS
 10
-759.194480
 20
418.587035
 11
-759.194480
 21
301.777022
  0
SOLID
  8
0
 62
     3
 10
-751.429909
 20
389.609260
 11
-766.959051
 21
389.609260
 12
-759.194480
 22
418.587035
 13
-759.194480
 23
418.587035
  0
INSERT
  8
0
  2
G10
 10
0
 20
0
  0
TEXT
  8
0
 62
     3
 10
-620.875371
 20
427.159553
 40
32.000000
 50
0.000000E+00
 41
0.86 
  1
ｂ
 72
     5
 11
-588.875371
 21
427.159553
  0
CIRCLE
  8
0
 62
     6
  6
HIDDEN
 10
-1283.802953
 20
1093.777279
 40
20.000000
  0
TEXT
  8
0
 62
     6
 10
-1291.802953
 20
1077.777279
 40
32.000000
 50
0.000000E+00
 41
0.50 
  1
2
 72
     5
 11
-1275.802953
 21
1077.777279
  0
CIRCLE
  8
0
 62
     6
  6
HIDDEN
 10
-1283.802953
 20
1141.810698
 40
20.000000
  0
TEXT
  8
0
 62
     6
 10
-1291.802953
 20
1125.810698
 40
32.000000
 50
0.000000E+00
 41
0.50 
  1
1
 72
     5
 11
-1275.802953
 21
1125.810698
  0
LINE
  8
0
 62
     1
  6
CONTINUOUS
 10
-576.000000
 20
789.624747
 11
-576.000000
 21
688.766137
  0
INSERT
  8
0
  2
G11
 10
0
 20
0
  0
INSERT
  8
0
  2
G12
 10
0
 20
0
  0
INSERT
  8
0
  2
G13
 10
0
 20
0
  0
INSERT
  8
0
  2
G14
 10
0
 20
0
  0
LINE
  8
3
 62
     3
  6
CENTER
 10
-1377.739862
 20
788.830428
 11
-1377.739862
 21
588.290816
  0
LINE
  8
3
 62
     3
  6
CENTER
 10
-1212.263693
 20
690.389268
 11
-1483.933185
 21
690.389268
  0
CIRCLE
  8
0
 62
     3
  6
CONTINUOUS
 10
-1377.739862
 20
690.389268
 40
75.000000
  0
LINE
  8
3
 62
     3
  6
CONTINUOUS
 10
-1222.739862
 20
750.389268
 11
-1282.739862
 21
750.389268
  0
LINE
  8
3
 62
     3
  6
CONTINUOUS
 10
-1222.739862
 20
627.889268
 11
-1222.739862
 21
750.389268
  0
LINE
  8
3
 62
     3
  6
CONTINUOUS
 10
-1222.739862
 20
627.889268
 11
-1217.739862
 21
627.889268
  0
LINE
  8
3
 62
     3
  6
CONTINUOUS
 10
-1222.739862
 20
752.889268
 11
-1217.739862
 21
752.889268
  0
LINE
  8
3
 62
     3
  6
CONTINUOUS
 10
-1222.739862
 20
752.889268
 11
-1222.739862
 21
750.389268
  0
LINE
  8
3
 62
     3
  6
CONTINUOUS
 10
-1217.739862
 20
752.889268
 11
-1217.739862
 21
627.889268
  0
LINE
  8
3
 62
     3
  6
CONTINUOUS
 10
-1222.739862
 20
630.389268
 11
-1282.739862
 21
630.389268
  0
LINE
  8
0
 62
     3
  6
CONTINUOUS
 10
-1282.739862
 20
750.389268
 11
-1282.739862
 21
630.389268
  0
LINE
  8
0
 62
     3
  6
CONTINUOUS
 10
-1284.739862
 20
752.389268
 11
-1312.739862
 21
752.389268
  0
ARC
  8
0
 62
     3
  6
CONTINUOUS
 10
-1284.739862
 20
750.389268
 40
2.000000
 50
0.000000E+00
 51
90.000000
  0
LINE
  8
0
 62
     3
  6
CONTINUOUS
 10
-1284.739862
 20
628.389268
 11
-1317.421954
 21
628.389268
  0
ARC
  8
0
 62
     3
  6
CONTINUOUS
 10
-1284.739862
 20
630.389268
 40
2.000000
 50
-90.000000
 51
0.000000E+00
  0
CIRCLE
  8
0
 62
     3
  6
CONTINUOUS
 10
-1377.739862
 20
690.389268
 40
52.000000
  0
CIRCLE
  8
0
 62
     3
  6
CONTINUOUS
 10
-1377.739862
 20
690.389268
 40
67.000000
  0
ARC
  8
0
 62
     3
  6
CONTINUOUS
 10
-1442.739862
 20
755.389268
 40
3.000000
 50
-90.000000
 51
0.000000E+00
  0
ARC
  8
0
 62
     3
  6
CONTINUOUS
 10
-1312.739862
 20
755.389268
 40
3.000000
 50
180.000000
 51
270.000000
  0
LINE
  8
0
 62
     3
  6
CONTINUOUS
 10
-1472.739862
 20
630.389268
 11
-1472.739862
 21
750.389268
  0
LINE
  8
0
 62
     3
  6
CONTINUOUS
 10
-1470.739862
 20
628.389268
 11
-1438.057769
 21
628.389268
  0
ARC
  8
0
 62
     3
  6
CONTINUOUS
 10
-1470.739862
 20
630.389268
 40
2.000000
 50
180.000000
 51
270.000000
  0
LINE
  8
0
 62
     3
  6
CONTINUOUS
 10
-1470.739862
 20
752.389268
 11
-1442.739862
 21
752.389268
  0
ARC
  8
0
 62
     3
  6
CONTINUOUS
 10
-1470.739862
 20
750.389268
 40
2.000000
 50
90.000000
 51
180.000000
  0
LINE
  8
0
 62
     3
  6
CONTINUOUS
 10
-1317.739862
 20
785.389268
 11
-1437.739862
 21
785.389268
  0
LINE
  8
0
 62
     3
  6
CONTINUOUS
 10
-1315.739862
 20
783.389268
 11
-1315.739862
 21
755.389268
  0
ARC
  8
0
 62
     3
  6
CONTINUOUS
 10
-1317.739862
 20
783.389268
 40
2.000000
 50
0.000000E+00
 51
90.000000
  0
LINE
  8
0
 62
     3
  6
CONTINUOUS
 10
-1439.739862
 20
783.389268
 11
-1439.739862
 21
755.389268
  0
ARC
  8
0
 62
     3
  6
CONTINUOUS
 10
-1437.739862
 20
783.389268
 40
2.000000
 50
90.000000
 51
180.000000
  0
INSERT
  8
0
  2
G15
 10
0
 20
0
  0
INSERT
  8
0
  2
G16
 10
0
 20
0
  0
INSERT
  8
0
  2
G17
 10
0
 20
0
  0
CIRCLE
  8
0
 62
     3
  6
CONTINUOUS
 10
-1377.739862
 20
690.389268
 40
86.000000
  0
INSERT
  8
0
  2
G18
 10
0
 20
0
  0
LINE
  8
0
 62
     1
  6
CONTINUOUS
 10
-1125.176735
 20
690.389268
 11
-1074.485175
 21
690.389268
  0
LINE
  8
0
 62
     1
  6
CONTINUOUS
 10
-1202.263693
 20
690.389268
 11
-1187.258997
 21
690.389268
  0
INSERT
  8
0
  2
G19
 10
0
 20
0
  0
INSERT
  8
0
  2
G20
 10
0
 20
0
  0
INSERT
  8
0
  2
G21
 10
0
 20
0
  0
INSERT
  8
0
  2
G22
 10
0
 20
0
  0
INSERT
  8
0
  2
G23
 10
0
 20
0
  0
INSERT
  8
0
  2
G24
 10
0
 20
0
  0
LINE
  8
0
 62
     1
  6
CONTINUOUS
 10
-1010.662948
 20
173.027117
 11
-1140.662948
 21
173.027117
  0
LINE
  8
0
 62
     1
  6
CONTINUOUS
 10
-1140.662948
 20
173.027117
 11
-1123.786954
 21
173.027117
  0
INSERT
  8
0
  2
G25
 10
0
 20
0
  0
INSERT
  8
0
  2
G26
 10
0
 20
0
  0
LINE
  8
0
 62
     7
  6
CONTINUOUS
 10
-1230.260304
 20
279.111644
 11
-1230.260304
 21
237.327305
  0
SOLID
  8
0
 62
     7
 10
-1238.024875
 20
266.305080
 11
-1222.495733
 21
266.305080
 12
-1230.260304
 22
237.327305
 13
-1230.260304
 23
237.327305
  0
TEXT
  8
0
 62
     7
 10
-1263.885785
 20
287.847523
 40
32.000000
 50
0.000000E+00
 41
0.78 
  1
７５枝管
 72
     5
 11
-1151.885785
 21
287.847523
  0
LINE
  8
0
 62
     3
  6
CONTINUOUS
 10
-978.581081
 20
440.359991
 11
-978.581081
 21
503.197829
  0
SOLID
  8
0
 62
     3
 10
-986.345652
 20
469.337766
 11
-970.816510
 21
469.337766
 12
-978.581081
 22
440.359991
 13
-978.581081
 23
440.359991
  0
INSERT
  8
0
  2
G27
 10
0
 20
0
  0
TEXT
  8
0
 62
     6
 10
-1001.412371
 20
1098.485825
 40
35.000000
 50
0.000000E+00
 41
0.60 
  1
240,260,280
 72
     5
 11
-768.912371
 21
1098.485825
  0
INSERT
  8
0
  2
G28
 10
0
 20
0
  0
INSERT
  8
0
  2
G29
 10
0
 20
0
  0
LINE
  8
0
 62
     3
  6
CONTINUOUS
 10
-505.118742
 20
413.096919
 11
-426.267651
 21
324.136714
  0
SOLID
  8
0
 62
     3
 10
-480.086973
 20
396.561789
 11
-491.708159
 21
386.261192
 12
-505.118742
 22
413.096919
 13
-505.118742
 23
413.096919
  0
LINE
  8
0
 62
     3
  6
CONTINUOUS
 10
-451.986521
 20
506.100770
 11
-397.449941
 21
444.572320
  0
SOLID
  8
0
 62
     3
 10
-426.954752
 20
489.565640
 11
-438.575939
 21
479.265043
 12
-451.986521
 22
506.100770
 13
-451.986521
 23
506.100770
  0
TEXT
  8
0
 62
     3
 10
-888.446385
 20
-905.435816
 40
32.000000
 50
0.000000E+00
 41
0.94 
  1
対応可能Ｐ寸法　２４０～３６０
 72
     5
 11
-362.732077
 21
-905.435816
  0
LINE
  8
0
 62
     2
  6
CONTINUOUS
 10
-955.287581
 20
-844.718354
 11
-175.885661
 21
-844.718354
  0
TEXT
  8
0
 62
     2
 10
-466.779569
 20
-817.414104
 40
30.000000
 50
0.000000E+00
 41
0.61 
  1
925
 72
     5
 11
-411.779569
 21
-817.414104
  0
TEXT
  8
0
 62
     2
 10
-569.578809
 20
-817.414104
 40
30.000000
 50
0.000000E+00
 41
0.61 
  1
905
 72
     5
 11
-514.578809
 21
-817.414104
  0
TEXT
  8
0
 62
     2
 10
-669.031289
 20
-815.686968
 40
30.000000
 50
0.000000E+00
 41
0.61 
  1
885
 72
     5
 11
-614.031289
 21
-815.686968
  0
TEXT
  8
0
 62
     2
 10
-363.270329
 20
-815.686968
 40
30.000000
 50
0.000000E+00
 41
0.61 
  1
965
 72
     5
 11
-308.270329
 21
-815.686968
  0
TEXT
  8
0
 62
     2
 10
-770.950969
 20
-724.246968
 40
30.000000
 50
0.000000E+00
 41
0.61 
  1
790
 72
     5
 11
-715.950969
 21
-724.246968
  0
TEXT
  8
0
 62
     2
 10
-258.817849
 20
-817.414104
 40
30.000000
 50
0.000000E+00
 41
0.61 
  1
985
 72
     5
 11
-203.817849
 21
-817.414104
  0
TEXT
  8
0
 62
     2
 10
-770.950969
 20
-815.686968
 40
30.000000
 50
0.000000E+00
 41
0.61 
  1
865
 72
     5
 11
-715.950969
 21
-815.686968
  0
TEXT
  8
0
 62
     2
 10
-363.509314
 20
-647.803154
 40
30.000000
 50
0.000000E+00
 41
0.61 
  1
340
 72
     5
 11
-308.509314
 21
-647.803154
  0
TEXT
  8
0
 62
     2
 10
-465.429954
 20
-647.803154
 40
30.000000
 50
0.000000E+00
 41
0.61 
  1
300
 72
     5
 11
-410.429954
 21
-647.803154
  0
TEXT
  8
0
 62
     2
 10
-567.350594
 20
-647.803154
 40
30.000000
 50
0.000000E+00
 41
0.61 
  1
280
 72
     5
 11
-512.350594
 21
-647.803154
  0
TEXT
  8
0
 62
     2
 10
-771.189954
 20
-647.803154
 40
30.000000
 50
0.000000E+00
 41
0.61 
  1
240
 72
     5
 11
-716.189954
 21
-647.803154
  0
LINE
  8
0
 62
     2
  6
CONTINUOUS
 10
-389.725981
 20
-600.398354
 11
-389.725981
 21
-844.718354
  0
TEXT
  8
0
 62
     2
 10
-944.759477
 20
-811.372275
 40
30.000000
 50
0.000000E+00
 41
0.72 
  1
Ｌｔ（全長）
 72
     5
 11
-794.759477
 21
-811.372275
  0
LINE
  8
0
 62
     2
  6
CONTINUOUS
 10
-955.287581
 20
-753.278354
 11
-175.885661
 21
-753.278354
  0
TEXT
  8
0
 62
     2
 10
-258.817849
 20
-725.974104
 40
30.000000
 50
0.000000E+00
 41
0.61 
  1
910
 72
     5
 11
-203.817849
 21
-725.974104
  0
LINE
  8
0
 62
     2
  6
CONTINUOUS
 10
-955.287581
 20
-600.398354
 11
-175.885661
 21
-600.398354
  0
TEXT
  8
0
 62
     2
 10
-363.270329
 20
-724.246968
 40
30.000000
 50
0.000000E+00
 41
0.61 
  1
890
 72
     5
 11
-308.270329
 21
-724.246968
  0
LINE
  8
0
 62
     2
  6
CONTINUOUS
 10
-797.406621
 20
-600.398354
 11
-797.406621
 21
-844.718354
  0
LINE
  8
0
 62
     2
  6
CONTINUOUS
 10
-695.486941
 20
-600.398354
 11
-695.486941
 21
-844.718354
  0
LINE
  8
0
 62
     2
  6
CONTINUOUS
 10
-593.567261
 20
-600.398354
 11
-593.567261
 21
-844.718354
  0
LINE
  8
0
 62
     2
  6
CONTINUOUS
 10
-491.646621
 20
-600.398354
 11
-491.646621
 21
-844.718354
  0
LINE
  8
0
 62
     2
  6
CONTINUOUS
 10
-175.885661
 20
-600.398354
 11
-175.885661
 21
-844.718354
  0
LINE
  8
0
 62
     2
  6
CONTINUOUS
 10
-287.806301
 20
-600.398354
 11
-287.806301
 21
-844.718354
  0
TEXT
  8
0
 62
     2
 10
-256.589634
 20
-647.803154
 40
30.000000
 50
0.000000E+00
 41
0.61 
  1
360
 72
     5
 11
-201.589634
 21
-647.803154
  0
LINE
  8
0
 62
     2
  6
CONTINUOUS
 10
-955.287581
 20
-661.838354
 11
-175.885661
 21
-661.838354
  0
TEXT
  8
0
 62
     2
 10
-944.759477
 20
-719.932275
 40
30.000000
 50
0.000000E+00
 41
0.72 
  1
Ｌ（有効長）
 72
     5
 11
-794.759477
 21
-719.932275
  0
LINE
  8
0
 62
     2
  6
CONTINUOUS
 10
-955.287581
 20
-600.398354
 11
-955.287581
 21
-844.718354
  0
LINE
  8
0
 62
     2
  6
CONTINUOUS
 10
-177.458899
 20
-613.635403
 11
-177.458899
 21
-613.635595
  0
TEXT
  8
0
 62
     2
 10
-669.031289
 20
-724.246968
 40
30.000000
 50
0.000000E+00
 41
0.61 
  1
810
 72
     5
 11
-614.031289
 21
-724.246968
  0
TEXT
  8
0
 62
     2
 10
-569.578809
 20
-725.974104
 40
30.000000
 50
0.000000E+00
 41
0.61 
  1
830
 72
     5
 11
-514.578809
 21
-725.974104
  0
TEXT
  8
0
 62
     2
 10
-669.270274
 20
-647.803154
 40
30.000000
 50
0.000000E+00
 41
0.61 
  1
260
 72
     5
 11
-614.270274
 21
-647.803154
  0
TEXT
  8
0
 62
     2
 10
-885.718483
 20
-647.782743
 40
30.000000
 50
0.000000E+00
 41
0.86 
  1
Ｐ
 72
     5
 11
-855.718483
 21
-647.782743
  0
TEXT
  8
0
 62
     2
 10
-466.779569
 20
-725.974104
 40
30.000000
 50
0.000000E+00
 41
0.61 
  1
850
 72
     5
 11
-411.779569
 21
-725.974104
  0
TEXT
  8
0
 62
     2
 10
-251.589634
 20
-546.363154
 40
30.000000
 50
0.000000E+00
 41
0.58 
  1
44
 72
     5
 11
-216.589634
 21
-546.363154
  0
TEXT
  8
0
 62
     2
 10
-363.510274
 20
-546.363154
 40
30.000000
 50
0.000000E+00
 41
0.58 
  1
52
 72
     5
 11
-328.510274
 21
-546.363154
  0
TEXT
  8
0
 62
     2
 10
-462.501526
 20
-363.746137
 40
25.600000
 50
0.000000E+00
 41
0.55 
  1
100
 72
     5
 11
-420.444381
 21
-363.746137
  0
TEXT
  8
0
 62
     2
 10
-479.031820
 20
-325.061429
 40
18.400000
 50
0.000000E+00
 41
0.89 
  1
立管受口
 72
     5
 11
-403.031821
 21
-325.061429
  0
TEXT
  8
0
 62
     2
 10
-251.589634
 20
-423.483154
 40
30.000000
 50
0.000000E+00
 41
0.58 
  1
65
 72
     5
 11
-216.589634
 21
-423.483154
  0
TEXT
  8
0
 62
     2
 10
-363.510274
 20
-423.483154
 40
30.000000
 50
0.000000E+00
 41
0.58 
  1
65
 72
     5
 11
-328.510274
 21
-423.483154
  0
TEXT
  8
0
 62
     2
 10
-455.429954
 20
-423.483154
 40
30.000000
 50
0.000000E+00
 41
0.58 
  1
75
 72
     5
 11
-420.429954
 21
-423.483154
  0
LINE
  8
0
 62
     2
  6
CONTINUOUS
 10
-399.726941
 20
-498.958354
 11
-481.646621
 21
-560.398354
  0
LINE
  8
0
 62
     2
  6
CONTINUOUS
 10
-175.885661
 20
-294.153298
 11
-175.885661
 21
-560.398354
  0
TEXT
  8
0
 62
     2
 10
-592.749477
 20
-542.052275
 40
30.000000
 50
0.000000E+00
 41
0.86 
  1
Ｂ寸法
 72
     5
 11
-502.749477
 21
-542.052275
  0
LINE
  8
0
 62
     2
  6
CONTINUOUS
 10
-604.527581
 20
-498.958354
 11
-175.885661
 21
-498.958354
  0
LINE
  8
0
 62
     2
  6
CONTINUOUS
 10
-399.726941
 20
-335.118322
 11
-175.885661
 21
-335.118322
  0
LINE
  8
0
 62
     2
  6
CONTINUOUS
 10
-604.527581
 20
-376.078354
 11
-175.885661
 21
-376.078354
  0
TEXT
  8
0
 62
     2
 10
-388.512732
 20
-330.204987
 40
30.000000
 50
0.000000E+00
 41
0.72 
  1
下部横枝管サイズ
 72
     5
 11
-188.512732
 21
-330.204987
  0
LINE
  8
0
 62
     2
  6
CONTINUOUS
 10
-481.646621
 20
-295.392178
 11
-481.646621
 21
-560.398354
  0
LINE
  8
0
 62
     2
  6
CONTINUOUS
 10
-399.726941
 20
-295.392178
 11
-399.726941
 21
-560.398354
  0
LINE
  8
0
 62
     2
  6
CONTINUOUS
 10
-399.726941
 20
-437.518354
 11
-481.646621
 21
-498.958354
  0
LINE
  8
0
 62
     2
  6
CONTINUOUS
 10
-287.806301
 20
-335.118514
 11
-287.806301
 21
-560.398354
  0
LINE
  8
0
 62
     2
  6
CONTINUOUS
 10
-604.527581
 20
-560.398354
 11
-175.885661
 21
-560.398354
  0
TEXT
  8
0
 62
     2
 10
-383.464355
 20
-370.283621
 40
30.000000
 50
0.000000E+00
 41
0.63 
  1
65(2)
 72
     5
 11
-288.464355
 21
-370.283621
  0
TEXT
  8
0
 62
     2
 10
-271.543715
 20
-370.283621
 40
30.000000
 50
0.000000E+00
 41
0.63 
  1
50(1)
 72
     5
 11
-176.543715
 21
-370.283621
  0
LINE
  8
0
 62
     2
  6
CONTINUOUS
 10
-604.527581
 20
-335.118322
 11
-604.527581
 21
-560.398354
  0
LINE
  8
0
 62
     2
  6
CONTINUOUS
 10
-604.527581
 20
-437.518354
 11
-175.885661
 21
-437.518354
  0
TEXT
  8
0
 62
     2
 10
-592.749477
 20
-480.612275
 40
30.000000
 50
0.000000E+00
 41
0.86 
  1
Ａ寸法
 72
     5
 11
-502.749477
 21
-480.612275
  0
LINE
  8
0
 62
     2
  6
CONTINUOUS
 10
-604.527581
 20
-335.118322
 11
-604.527581
 21
-294.153298
  0
LINE
  8
0
 62
     2
  6
CONTINUOUS
 10
-604.527581
 20
-294.153298
 11
-175.885661
 21
-294.153298
  0
LINE
  8
0
 62
     2
  6
CONTINUOUS
 10
-205.886621
 20
-335.118322
 11
-205.886621
 21
-335.118514
  0
TEXT
  8
0
 62
     2
 10
-375.738489
 20
-484.923154
 40
30.000000
 50
0.000000E+00
 41
0.61 
  1
110
 72
     5
 11
-320.738489
 21
-484.923154
  0
TEXT
  8
0
 62
     2
 10
-599.958483
 20
-423.462743
 40
30.000000
 50
0.000000E+00
 41
0.86 
  1
受口深さ
 72
     5
 11
-479.958483
 21
-423.462743
  0
LINE
  8
0
 62
     2
  6
CONTINUOUS
 10
-604.527581
 20
-294.153298
 11
-481.646621
 21
-376.078354
  0
TEXT
  8
0
 62
     2
 10
-251.589634
 20
-484.923154
 40
30.000000
 50
0.000000E+00
 41
0.58 
  1
94
 72
     5
 11
-216.589634
 21
-484.923154
  0
INSERT
  8
0
  2
G30
 10
0
 20
0
  0
INSERT
  8
0
  2
G31
 10
0
 20
0
  0
INSERT
  8
0
  2
G32
 10
0
 20
0
  0
INSERT
  8
0
  2
G33
 10
0
 20
0
  0
INSERT
  8
0
  2
G34
 10
0
 20
0
  0
INSERT
  8
0
  2
G35
 10
0
 20
0
  0
INSERT
  8
0
  2
G36
 10
0
 20
0
  0
INSERT
  8
0
  2
G37
 10
0
 20
0
  0
INSERT
  8
0
  2
G38
 10
0
 20
0
  0
INSERT
  8
0
  2
G39
 10
0
 20
0
  0
INSERT
  8
0
  2
G40
 10
0
 20
0
  0
TEXT
  8
0
 62
     3
 10
-464.883203
 20
592.682889
 40
32.000000
 50
360.000000
 41
0.86 
  1
ａ
 72
     5
 11
-432.883203
 21
592.682889
  0
INSERT
  8
0
  2
G41
 10
0
 20
0
  0
INSERT
  8
0
  2
G42
 10
0
 20
0
  0
INSERT
  8
0
  2
G43
 10
0
 20
0
  0
ENDSEC
  0
EOF
