  0
SECTION
  2
HEADER
  9
$INSBASE
 10
0
 20
0
  9
$EXTMIN
 10
0
 20
0
  9
$EXTMAX
 10
4200.000000
 20
2970.000000
  9
$LIMMIN
 10
0
 20
0
  9
$LIMMAX
 10
4200.000000
 20
2970.000000
  9
$VIEWCTR
 10
2100.000000
 20
1485.000000
  9
$DIMASZ
 40
30.000000
  9
$DIMDLI
 40
80.000000
  9
$DIMEXE
 40
10.000000
  9
$DIMEXO
 40
10.000000
  9
$DIMTXT
 40
32.000000
  9
$TEXTSIZE
 40
32.000000
  9
$ANGBASE
 50
0.0
  9
$ANGDIR
 70
     0
  9
$ATTMODE
 70
     1
  9
$AUNITS
 70
     1
  9
$AUPREC
 70
     2
  9
$AXISMODE
 70
     0
  9
$AXISUNIT
 10
0.0
 20
0.0
  9
$BLIPMODE
 70
     1
  9
$CECOLOR
 62
   256
  9
$CELTYPE
  6
BYLAYER
  9
$CHAMFERA
 40
0.0
  9
$CHAMFERB
 40
0.0
  9
$CLAYER
  8
0
  9
$COORDS
 70
     0
  9
$DIMALT
 70
     0
  9
$DIMALTD
 70
     2
  9
$DIMALTF
 40
25.4
  9
$DIMDLE
 40
0.0
  9
$DIMLFAC
 40
1.0
  9
$DIMLIM
 70
     0
  9
$DIMRND
 40
0.0
  9
$DIMSCALE
 40
1.0
  9
$DIMSE1
 70
     0
  9
$DIMSE2
 70
     0
  9
$DIMTAD
 70
     1
  9
$DIMTIH
 70
     0
  9
$DIMTM
 40
0.0
  9
$DIMTOH
 70
     0
  9
$DIMTOL
 70
     0
  9
$DIMTP
 40
0.0
  9
$DIMTSZ
 40
0.0
  9
$DIMZIN
 70
     0
  9
$DRAGMODE
 70
     2
  9
$ELEVATION
 40
0.0
  9
$FASTZOOM
 70
     1
  9
$FILLETRAD
 40
0.0
  9
$FILLMODE
 70
     1
  9
$GRIDMODE
 70
     0
  9
$GRIDUNIT
 10
0.0
 20
0.0
  9
$LTSCALE
 40
1.0
  9
$LUNITS
 70
     2
  9
$LUPREC
 70
     2
  9
$MENU
  1
ACAD
  9
$ORTHOMODE
 70
     0
  9
$OSMODE
 70
     0
  9
$PDMODE
 70
     0
  9
$PDSIZE
 40
0.0
  9
$PLINEWID
 40
0.0
  9
$QTEXTMODE
 70
     0
  9
$REGENMODE
 70
     1
  9
$SKETCHINC
 40
0.1
  9
$SKPOLY
 70
     0
  9
$SNAPBASE
 10
0.0
 20
0.0
  9
$SNAPISOPAIR
 70
     0
  9
$SNAPMODE
 70
     0
  9
$SNAPSTYLE
 70
     0
  9
$SNAPUNIT
 10
0.0
 20
0.0
  9
$TEXTSTYLE
  7
KANJI
  9
$THICKNESS
 40
0.0
  9
$TRACEWID
 40
0.05
  9
$VIEWDIR
 10
0.0
 20
0.0
 30
1.0
  9
$VIEWSIZE
 40
0.0
  0
ENDSEC
  0
SECTION
  2
TABLES
  0
TABLE
  2
LTYPE
 70
     9
  0
LTYPE
  2
CONTINUOUS
 70
    64
  3
Solid line
 72
    65
 73
     0
 40
0.0
  0
LTYPE
  2
DASHED
 70
    64
  3
__ __ __ __ __ __ __ __ __ __ __ __ __ __ __
 72
    65
 73
     2
 40
0.75
 49
0.5
 49
-0.25
  0
LTYPE
  2
HIDDEN
 70
    64
  3
_ _ _ _ _ _ _ _ _ _ _ _ _ _ _ _ _ _ _ _ _ _ _
 72
    65
 73
     2
 40
0.375
 49
0.25
 49
-0.125
  0
LTYPE
  2
CENTER
 70
    64
  3
____ _ ____ _ ____ _ ____ _ ____ _ ____ _ ____
 72
    65
 73
     4
 40
2.0
 49
1.25
 49
-0.25
 49
0.25
 49
-0.25
  0
LTYPE
  2
PHANTOM
 70
    64
  3
_____ _ _ _____ _ _ _____ _ _ _____ _ _ ____
 72
    65
 73
     6
 40
2.5
 49
1.25
 49
-0.25
 49
0.25
 49
-0.25
 49
0.25
 49
-0.25
  0
LTYPE
  2
DOT
 70
    64
  3
...............................................
 72
    65
 73
     2
 40
0.25
 49
0.0
 49
-0.25
  0
LTYPE
  2
DASHDOT
 70
    64
  3
__ . __ . __ . __ . __ . __ . __ . __ . __ . __
 72
    65
 73
     4
 40
1.0
 49
0.5
 49
-0.25
 49
0.0
 49
-0.25
  0
LTYPE
  2
BORDER
 70
    64
  3
__ __ . __ __ . __ __ . __ __ . __ __ . __ __
 72
    65
 73
     6
 40
1.75
 49
0.5
 49
-0.25
 49
0.5
 49
-0.25
 49
0.0
 49
-0.25
  0
LTYPE
  2
DIVIDE
 70
    64
  3
__ . . __ . . __ . . __ . . __ . . __ . . __
 72
    65
 73
     6
 40
1.25
 49
0.5
 49
-0.25
 49
0.0
 49
-0.25
 49
0.0
 49
-0.25
  0
ENDTAB
  0
TABLE
  2
LAYER
 70
   100
  0
LAYER
  2
0
 70
     0
 62
     3
  6
CONTINUOUS
  0
LAYER
  2
1
 70
     0
 62
     3
  6
CONTINUOUS
  0
LAYER
  2
2
 70
     0
 62
     3
  6
CONTINUOUS
  0
LAYER
  2
3
 70
     0
 62
     3
  6
CONTINUOUS
  0
LAYER
  2
4
 70
     0
 62
     3
  6
CONTINUOUS
  0
LAYER
  2
5
 70
     0
 62
     3
  6
CONTINUOUS
  0
LAYER
  2
6
 70
     0
 62
     3
  6
CONTINUOUS
  0
LAYER
  2
7
 70
     0
 62
     3
  6
CONTINUOUS
  0
LAYER
  2
8
 70
     0
 62
     3
  6
CONTINUOUS
  0
LAYER
  2
9
 70
     0
 62
     3
  6
CONTINUOUS
  0
LAYER
  2
10
 70
     0
 62
     3
  6
CONTINUOUS
  0
LAYER
  2
11
 70
     0
 62
     3
  6
CONTINUOUS
  0
LAYER
  2
12
 70
     0
 62
     3
  6
CONTINUOUS
  0
LAYER
  2
13
 70
     0
 62
     3
  6
CONTINUOUS
  0
LAYER
  2
14
 70
     0
 62
     3
  6
CONTINUOUS
  0
LAYER
  2
15
 70
     0
 62
     3
  6
CONTINUOUS
  0
LAYER
  2
16
 70
     0
 62
     3
  6
CONTINUOUS
  0
LAYER
  2
17
 70
     0
 62
     3
  6
CONTINUOUS
  0
LAYER
  2
18
 70
     0
 62
     3
  6
CONTINUOUS
  0
LAYER
  2
19
 70
     0
 62
     3
  6
CONTINUOUS
  0
LAYER
  2
20
 70
     0
 62
     3
  6
CONTINUOUS
  0
LAYER
  2
21
 70
     0
 62
     3
  6
CONTINUOUS
  0
LAYER
  2
22
 70
     0
 62
     3
  6
CONTINUOUS
  0
LAYER
  2
23
 70
     0
 62
     3
  6
CONTINUOUS
  0
LAYER
  2
24
 70
     0
 62
     3
  6
CONTINUOUS
  0
LAYER
  2
25
 70
     0
 62
     3
  6
CONTINUOUS
  0
LAYER
  2
26
 70
     0
 62
     3
  6
CONTINUOUS
  0
LAYER
  2
27
 70
     0
 62
     3
  6
CONTINUOUS
  0
LAYER
  2
28
 70
     0
 62
     3
  6
CONTINUOUS
  0
LAYER
  2
29
 70
     0
 62
     3
  6
CONTINUOUS
  0
LAYER
  2
30
 70
     0
 62
     3
  6
CONTINUOUS
  0
LAYER
  2
31
 70
     0
 62
     3
  6
CONTINUOUS
  0
LAYER
  2
32
 70
     0
 62
     3
  6
CONTINUOUS
  0
LAYER
  2
33
 70
     0
 62
     3
  6
CONTINUOUS
  0
LAYER
  2
34
 70
     0
 62
     3
  6
CONTINUOUS
  0
LAYER
  2
35
 70
     0
 62
     3
  6
CONTINUOUS
  0
LAYER
  2
36
 70
     0
 62
     3
  6
CONTINUOUS
  0
LAYER
  2
37
 70
     0
 62
     3
  6
CONTINUOUS
  0
LAYER
  2
38
 70
     0
 62
     3
  6
CONTINUOUS
  0
LAYER
  2
39
 70
     0
 62
     3
  6
CONTINUOUS
  0
LAYER
  2
40
 70
     0
 62
     3
  6
CONTINUOUS
  0
LAYER
  2
41
 70
     0
 62
     3
  6
CONTINUOUS
  0
LAYER
  2
42
 70
     0
 62
     3
  6
CONTINUOUS
  0
LAYER
  2
43
 70
     0
 62
     3
  6
CONTINUOUS
  0
LAYER
  2
44
 70
     0
 62
     3
  6
CONTINUOUS
  0
LAYER
  2
45
 70
     0
 62
     3
  6
CONTINUOUS
  0
LAYER
  2
46
 70
     0
 62
     3
  6
CONTINUOUS
  0
LAYER
  2
47
 70
     0
 62
     3
  6
CONTINUOUS
  0
LAYER
  2
48
 70
     0
 62
     3
  6
CONTINUOUS
  0
LAYER
  2
49
 70
     0
 62
     3
  6
CONTINUOUS
  0
LAYER
  2
50
 70
     0
 62
     3
  6
CONTINUOUS
  0
LAYER
  2
51
 70
     0
 62
     3
  6
CONTINUOUS
  0
LAYER
  2
52
 70
     0
 62
     3
  6
CONTINUOUS
  0
LAYER
  2
53
 70
     0
 62
     3
  6
CONTINUOUS
  0
LAYER
  2
54
 70
     0
 62
     3
  6
CONTINUOUS
  0
LAYER
  2
55
 70
     0
 62
     3
  6
CONTINUOUS
  0
LAYER
  2
56
 70
     0
 62
     3
  6
CONTINUOUS
  0
LAYER
  2
57
 70
     0
 62
     3
  6
CONTINUOUS
  0
LAYER
  2
58
 70
     0
 62
     3
  6
CONTINUOUS
  0
LAYER
  2
59
 70
     0
 62
     3
  6
CONTINUOUS
  0
LAYER
  2
60
 70
     0
 62
     3
  6
CONTINUOUS
  0
LAYER
  2
61
 70
     0
 62
     3
  6
CONTINUOUS
  0
LAYER
  2
62
 70
     0
 62
     3
  6
CONTINUOUS
  0
LAYER
  2
63
 70
     0
 62
     3
  6
CONTINUOUS
  0
LAYER
  2
64
 70
     0
 62
     3
  6
CONTINUOUS
  0
LAYER
  2
65
 70
     0
 62
     3
  6
CONTINUOUS
  0
LAYER
  2
66
 70
     0
 62
     3
  6
CONTINUOUS
  0
LAYER
  2
67
 70
     0
 62
     3
  6
CONTINUOUS
  0
LAYER
  2
68
 70
     0
 62
     3
  6
CONTINUOUS
  0
LAYER
  2
69
 70
     0
 62
     3
  6
CONTINUOUS
  0
LAYER
  2
70
 70
     0
 62
     3
  6
CONTINUOUS
  0
LAYER
  2
71
 70
     0
 62
     3
  6
CONTINUOUS
  0
LAYER
  2
72
 70
     0
 62
     3
  6
CONTINUOUS
  0
LAYER
  2
73
 70
     0
 62
     3
  6
CONTINUOUS
  0
LAYER
  2
74
 70
     0
 62
     3
  6
CONTINUOUS
  0
LAYER
  2
75
 70
     0
 62
     3
  6
CONTINUOUS
  0
LAYER
  2
76
 70
     0
 62
     3
  6
CONTINUOUS
  0
LAYER
  2
77
 70
     0
 62
     3
  6
CONTINUOUS
  0
LAYER
  2
78
 70
     0
 62
     3
  6
CONTINUOUS
  0
LAYER
  2
79
 70
     0
 62
     3
  6
CONTINUOUS
  0
LAYER
  2
80
 70
     0
 62
     3
  6
CONTINUOUS
  0
LAYER
  2
81
 70
     0
 62
     3
  6
CONTINUOUS
  0
LAYER
  2
82
 70
     0
 62
     3
  6
CONTINUOUS
  0
LAYER
  2
83
 70
     0
 62
     3
  6
CONTINUOUS
  0
LAYER
  2
84
 70
     0
 62
     3
  6
CONTINUOUS
  0
LAYER
  2
85
 70
     0
 62
     3
  6
CONTINUOUS
  0
LAYER
  2
86
 70
     0
 62
     3
  6
CONTINUOUS
  0
LAYER
  2
87
 70
     0
 62
     3
  6
CONTINUOUS
  0
LAYER
  2
88
 70
     0
 62
     3
  6
CONTINUOUS
  0
LAYER
  2
89
 70
     0
 62
     3
  6
CONTINUOUS
  0
LAYER
  2
90
 70
     0
 62
     3
  6
CONTINUOUS
  0
LAYER
  2
91
 70
     0
 62
     3
  6
CONTINUOUS
  0
LAYER
  2
92
 70
     0
 62
     3
  6
CONTINUOUS
  0
LAYER
  2
93
 70
     0
 62
     3
  6
CONTINUOUS
  0
LAYER
  2
94
 70
     0
 62
     3
  6
CONTINUOUS
  0
LAYER
  2
95
 70
     0
 62
     3
  6
CONTINUOUS
  0
LAYER
  2
96
 70
     0
 62
     3
  6
CONTINUOUS
  0
LAYER
  2
97
 70
     0
 62
     3
  6
CONTINUOUS
  0
LAYER
  2
98
 70
     0
 62
     3
  6
CONTINUOUS
  0
LAYER
  2
99
 70
     0
 62
     3
  6
CONTINUOUS
  0
ENDTAB
  0
TABLE
  2
STYLE
 70
     2
  0
STYLE
  2
STANDARD
 70
     0
 40
0.0
 41
1.0
 50
0.0
 71
     0
 42
0.2
  3
TXT
  4
BIGFONT
  0
STYLE
  2
KANJI
 70
     0
 40
4.5
 41
1.0
 50
0.0
 71
     0
 42
0.2
  3
TXT
  4
BIGFONT
  0
ENDTAB
  0
TABLE
  2
VIEW
 70
     0
  0
ENDTAB
  0
ENDSEC
  0
SECTION
  2
BLOCKS
  0
BLOCK
  8
0
  2
G0
 70
     0
 10
0
 20
0
  0
POINT
  8
0
 62
     4
 10
270.000000
 20
1315.000000
  0
POINT
  8
0
 62
     4
 10
-1830.000000
 20
1315.000000
  0
ENDBLK
  0
BLOCK
  8
0
  2
G1
 70
     0
 10
0
 20
0
  0
LINE
  8
0
 62
     3
  6
CONTINUOUS
 10
-1203.043291
 20
-48.975228
 11
-1225.545746
 21
-35.983430
  0
LINE
  8
0
 62
     3
  6
CONTINUOUS
 10
-1218.460760
 20
-75.679068
 11
-1203.043291
 21
-48.975228
  0
TEXT
  8
0
 62
     3
 10
-1230.254043
 20
-108.037285
 40
32.000000
 50
0.000000E+00
 41
0.86 
  1
Ｃ
 72
     5
 11
-1198.254043
 21
-108.037285
  0
LINE
  8
0
 62
     3
  6
CONTINUOUS
 10
-1218.460760
 20
-28.308819
 11
-1218.460760
 21
-75.679068
  0
LINE
  8
0
 62
     3
  6
CONTINUOUS
 10
-1218.460760
 20
-28.308819
 11
-1298.023323
 21
-28.308819
  0
ENDBLK
  0
BLOCK
  8
0
  2
G2
 70
     0
 10
0
 20
0
  0
LINE
  8
0
 62
     1
  6
CONTINUOUS
 10
-571.317919
 20
382.375253
 11
-636.000000
 21
382.375253
  0
LINE
  8
0
 62
     1
  6
CONTINUOUS
 10
-636.000000
 20
462.500000
 11
-636.000000
 21
367.375253
  0
TEXT
  8
0
 62
     1
 10
-623.525767
 20
387.708586
 40
32.000000
 50
0.000000E+00
 41
0.56 
  1
65
 72
     5
 11
-587.525767
 21
387.708586
  0
LINE
  8
0
 62
     1
  6
CONTINUOUS
 10
-571.317919
 20
382.375253
 11
-532.233194
 21
382.375253
  0
SOLID
  8
0
 62
     1
 10
-547.169773
 20
388.845729
 11
-547.169773
 21
375.904777
 12
-571.317919
 22
382.375253
 13
-571.317919
 23
382.375253
  0
LINE
  8
0
 62
     1
  6
CONTINUOUS
 10
-636.000000
 20
382.375253
 11
-678.179140
 21
382.375253
  0
SOLID
  8
0
 62
     1
 10
-660.148146
 20
375.904777
 11
-660.148146
 21
388.845729
 12
-636.000000
 22
382.375253
 13
-636.000000
 23
382.375253
  0
ENDBLK
  0
BLOCK
  8
0
  2
G3
 70
     0
 10
0
 20
0
  0
LINE
  8
0
 62
     1
  6
CONTINUOUS
 10
-748.324692
 20
640.000000
 11
-748.324692
 21
430.000000
  0
SOLID
  8
0
 62
     1
 10
-741.854216
 20
615.851854
 11
-754.795168
 21
615.851854
 12
-748.324692
 22
640.000000
 13
-748.324692
 23
640.000000
  0
SOLID
  8
0
 62
     1
 10
-754.795168
 20
454.148146
 11
-741.854216
 21
454.148146
 12
-748.324692
 22
430.000000
 13
-748.324692
 23
430.000000
  0
LINE
  8
0
 62
     1
  6
CONTINUOUS
 10
-486.000000
 20
640.000000
 11
-758.324692
 21
640.000000
  0
LINE
  8
0
 62
     1
  6
CONTINUOUS
 10
-486.000000
 20
430.000000
 11
-758.324692
 21
430.000000
  0
TEXT
  8
0
 62
     1
 10
-753.658025
 20
507.000000
 40
32.000000
 50
90.000000
 41
0.58 
  1
210
 72
     5
 11
-753.658025
 21
563.000000
  0
ENDBLK
  0
BLOCK
  8
0
  2
G4
 70
     0
 10
0
 20
0
  0
LINE
  8
0
 62
     1
  6
CONTINUOUS
 10
-581.000000
 20
808.375253
 11
-371.000000
 21
808.375253
  0
SOLID
  8
0
 62
     1
 10
-556.851854
 20
814.845729
 11
-556.851854
 21
801.904777
 12
-581.000000
 22
808.375253
 13
-581.000000
 23
808.375253
  0
SOLID
  8
0
 62
     1
 10
-395.148146
 20
801.904777
 11
-395.148146
 21
814.845729
 12
-371.000000
 22
808.375253
 13
-371.000000
 23
808.375253
  0
LINE
  8
0
 62
     1
  6
CONTINUOUS
 10
-581.000000
 20
545.000000
 11
-581.000000
 21
818.375253
  0
LINE
  8
0
 62
     1
  6
CONTINUOUS
 10
-371.000000
 20
545.000000
 11
-371.000000
 21
818.375253
  0
TEXT
  8
0
 62
     1
 10
-504.000000
 20
813.708586
 40
32.000000
 50
0.000000E+00
 41
0.58 
  1
210
 72
     5
 11
-448.000000
 21
813.708586
  0
ENDBLK
  0
BLOCK
  8
0
  2
G5
 70
     0
 10
0
 20
0
  0
LINE
  8
0
 62
     1
  6
CONTINUOUS
 10
-318.375253
 20
630.317919
 11
-318.375253
 21
695.000000
  0
LINE
  8
0
 62
     1
  6
CONTINUOUS
 10
-406.000000
 20
630.317919
 11
-308.375253
 21
630.317919
  0
LINE
  8
0
 62
     1
  6
CONTINUOUS
 10
-403.500000
 20
695.000000
 11
-308.375253
 21
695.000000
  0
TEXT
  8
0
 62
     1
 10
-323.708586
 20
644.658959
 40
32.000000
 50
90.000000
 41
0.56 
  1
65
 72
     5
 11
-323.708586
 21
680.658959
  0
LINE
  8
0
 62
     1
  6
CONTINUOUS
 10
-318.375253
 20
580.317919
 11
-318.375253
 21
630.317919
  0
SOLID
  8
0
 62
     1
 10
-311.904777
 20
606.169773
 11
-324.845729
 21
606.169773
 12
-318.375253
 22
630.317919
 13
-318.375253
 23
630.317919
  0
LINE
  8
0
 62
     1
  6
CONTINUOUS
 10
-318.375253
 20
695.000000
 11
-318.375253
 21
745.000000
  0
SOLID
  8
0
 62
     1
 10
-324.845729
 20
719.148146
 11
-311.904777
 21
719.148146
 12
-318.375253
 22
695.000000
 13
-318.375253
 23
695.000000
  0
ENDBLK
  0
BLOCK
  8
0
  2
G6
 70
     0
 10
0
 20
0
  0
LINE
  8
0
 62
     1
  6
CONTINUOUS
 10
-636.000000
 20
320.375253
 11
-476.000000
 21
320.375253
  0
LINE
  8
0
 62
     1
  6
CONTINUOUS
 10
-636.000000
 20
367.375253
 11
-636.000000
 21
310.375253
  0
TEXT
  8
0
 62
     1
 10
-584.000000
 20
325.708586
 40
32.000000
 50
0.000000E+00
 41
0.58 
  1
160
 72
     5
 11
-528.000000
 21
325.708586
  0
LINE
  8
0
 62
     1
  6
CONTINUOUS
 10
-636.000000
 20
320.375253
 11
-686.000000
 21
320.375253
  0
SOLID
  8
0
 62
     1
 10
-660.148146
 20
313.904777
 11
-660.148146
 21
326.845729
 12
-636.000000
 22
320.375253
 13
-636.000000
 23
320.375253
  0
LINE
  8
0
 62
     1
  6
CONTINUOUS
 10
-426.000000
 20
320.375253
 11
-476.000000
 21
320.375253
  0
SOLID
  8
0
 62
     1
 10
-451.851854
 20
326.845729
 11
-451.851854
 21
313.904777
 12
-476.000000
 22
320.375253
 13
-476.000000
 23
320.375253
  0
ENDBLK
  0
BLOCK
  8
0
  2
G7
 70
     0
 10
0
 20
0
  0
TEXT
  8
0
 62
     3
 10
-769.928190
 20
271.983059
 40
32.000000
 50
0.000000E+00
 41
0.95 
  1
受口深さ　
 72
     5
 11
-593.928190
 21
271.983059
  0
ENDBLK
  0
BLOCK
  8
0
  2
G8
 70
     0
 10
0
 20
0
  0
TEXT
  8
0
 62
     3
 10
-1037.283774
 20
513.253919
 40
32.000000
 50
0.000000E+00
 41
0.95 
  1
受口深さ　
 72
     5
 11
-861.283774
 21
513.253919
  0
ENDBLK
  0
BLOCK
  8
0
  2
G9
 70
     0
 10
0
 20
0
  0
LINE
  8
0
 62
     1
  6
CONTINUOUS
 10
-261.375253
 20
535.000000
 11
-261.375253
 21
695.000000
  0
LINE
  8
0
 62
     1
  6
CONTINUOUS
 10
-342.991549
 20
535.000000
 11
-251.375253
 21
535.000000
  0
LINE
  8
0
 62
     1
  6
CONTINUOUS
 10
-403.500000
 20
695.000000
 11
-251.375253
 21
695.000000
  0
TEXT
  8
0
 62
     1
 10
-266.708586
 20
587.000000
 40
32.000000
 50
90.000000
 41
0.58 
  1
160
 72
     5
 11
-266.708586
 21
643.000000
  0
LINE
  8
0
 62
     1
  6
CONTINUOUS
 10
-261.375253
 20
485.000000
 11
-261.375253
 21
535.000000
  0
SOLID
  8
0
 62
     1
 10
-254.904777
 20
510.851854
 11
-267.845729
 21
510.851854
 12
-261.375253
 22
535.000000
 13
-261.375253
 23
535.000000
  0
LINE
  8
0
 62
     1
  6
CONTINUOUS
 10
-261.375253
 20
695.000000
 11
-261.375253
 21
745.000000
  0
SOLID
  8
0
 62
     1
 10
-267.845729
 20
719.148146
 11
-254.904777
 21
719.148146
 12
-261.375253
 22
695.000000
 13
-261.375253
 23
695.000000
  0
ENDBLK
  0
BLOCK
  8
0
  2
G10
 70
     0
 10
0
 20
0
  0
TEXT
  8
0
 62
     1
 10
-663.048404
 20
682.450424
 40
32.000000
 50
45.000000
 41
0.58 
  1
248
 72
     5
 11
-623.450424
 21
722.048404
  0
LINE
  8
0
 62
     1
  6
CONTINUOUS
 10
-395.389827
 20
629.752309
 11
-558.868005
 21
793.230486
  0
LINE
  8
0
 62
     1
  6
CONTINUOUS
 10
-570.752309
 20
454.389827
 11
-734.230486
 21
617.868005
  0
LINE
  8
0
 62
     1
  6
CONTINUOUS
 10
-727.159419
 20
610.796937
 11
-551.796937
 21
786.159419
  0
SOLID
  8
0
 62
     1
 10
-714.659419
 20
632.447572
 11
-705.508783
 21
623.296937
 12
-727.159419
 22
610.796937
 13
-727.159419
 23
610.796937
  0
SOLID
  8
0
 62
     1
 10
-564.296937
 20
764.508783
 11
-573.447572
 21
773.659419
 12
-551.796937
 22
786.159419
 13
-551.796937
 23
786.159419
  0
ENDBLK
  0
BLOCK
  8
0
  2
G11
 70
     0
 10
0
 20
0
  0
LINE
  8
0
 62
     1
  6
CONTINUOUS
 10
-1257.739862
 20
835.279722
 11
-1207.739862
 21
835.279722
  0
SOLID
  8
0
 62
     1
 10
-1233.591716
 20
841.750198
 11
-1233.591716
 21
828.809246
 12
-1257.739862
 22
835.279722
 13
-1257.739862
 23
835.279722
  0
LINE
  8
0
 62
     1
  6
CONTINUOUS
 10
-1372.739862
 20
835.279722
 11
-1322.739862
 21
835.279722
  0
SOLID
  8
0
 62
     1
 10
-1346.888007
 20
828.809246
 11
-1346.888007
 21
841.750198
 12
-1322.739862
 22
835.279722
 13
-1322.739862
 23
835.279722
  0
TEXT
  8
0
 62
     1
 10
-1308.239862
 20
840.613055
 40
32.000000
 50
0.000000E+00
 41
0.56 
  1
65
 72
     5
 11
-1272.239862
 21
840.613055
  0
LINE
  8
0
 62
     1
  6
CONTINUOUS
 10
-1257.739862
 20
762.889268
 11
-1257.739862
 21
845.279722
  0
LINE
  8
0
 62
     1
  6
CONTINUOUS
 10
-1322.739862
 20
760.389268
 11
-1322.739862
 21
845.279722
  0
LINE
  8
0
 62
     1
  6
CONTINUOUS
 10
-1322.739862
 20
835.279722
 11
-1257.739862
 21
835.279722
  0
ENDBLK
  0
BLOCK
  8
0
  2
G12
 70
     0
 10
0
 20
0
  0
TEXT
  8
0
 62
     1
 10
-1365.739862
 20
898.832148
 40
32.000000
 50
0.000000E+00
 41
0.58 
  1
160
 72
     5
 11
-1309.739862
 21
898.832148
  0
LINE
  8
0
 62
     1
  6
CONTINUOUS
 10
-1417.739862
 20
798.830428
 11
-1417.739862
 21
903.498815
  0
LINE
  8
0
 62
     1
  6
CONTINUOUS
 10
-1257.739862
 20
845.279722
 11
-1257.739862
 21
903.498815
  0
LINE
  8
0
 62
     1
  6
CONTINUOUS
 10
-1257.739862
 20
893.498815
 11
-1417.739862
 21
893.498815
  0
SOLID
  8
0
 62
     1
 10
-1286.717636
 20
885.734243
 11
-1286.717636
 21
901.263386
 12
-1257.739862
 22
893.498815
 13
-1257.739862
 23
893.498815
  0
SOLID
  8
0
 62
     1
 10
-1388.762087
 20
901.263386
 11
-1388.762087
 21
885.734243
 12
-1417.739862
 22
893.498815
 13
-1417.739862
 23
893.498815
  0
ENDBLK
  0
BLOCK
  8
0
  2
G13
 70
     0
 10
0
 20
0
  0
TEXT
  8
0
 62
     1
 10
-1189.818508
 20
632.389268
 40
32.000000
 50
90.000000
 41
0.60 
  1
%%c125
 72
     5
 11
-1189.818508
 21
748.389268
  0
LINE
  8
0
 62
     1
  6
CONTINUOUS
 10
-1247.739862
 20
627.889268
 11
-1174.485175
 21
627.889268
  0
LINE
  8
0
 62
     1
  6
CONTINUOUS
 10
-1247.739862
 20
752.889268
 11
-1174.485175
 21
752.889268
  0
LINE
  8
0
 62
     1
  6
CONTINUOUS
 10
-1184.485175
 20
752.889268
 11
-1184.485175
 21
627.889268
  0
SOLID
  8
0
 62
     1
 10
-1178.014699
 20
728.741123
 11
-1190.955651
 21
728.741123
 12
-1184.485175
 22
752.889268
 13
-1184.485175
 23
752.889268
  0
SOLID
  8
0
 62
     1
 10
-1190.955651
 20
652.037414
 11
-1178.014699
 21
652.037414
 12
-1184.485175
 22
627.889268
 13
-1184.485175
 23
627.889268
  0
ENDBLK
  0
BLOCK
  8
0
  2
G14
 70
     0
 10
0
 20
0
  0
TEXT
  8
0
 62
     3
 10
-1280.980707
 20
966.070505
 40
32.000000
 50
0.000000E+00
 41
1.02 
  1
受口深さ
 72
     5
 11
-1128.980707
 21
966.070505
  0
ENDBLK
  0
BLOCK
  8
0
  2
G15
 70
     0
 10
0
 20
0
  0
LINE
  8
0
 62
     3
  6
CONTINUOUS
 10
-1208.084833
 20
864.693959
 11
-1208.084833
 21
954.693959
  0
LINE
  8
0
 62
     3
  6
CONTINUOUS
 10
-1268.084833
 20
864.693959
 11
-1208.084833
 21
864.693959
  0
SOLID
  8
0
 62
     3
 10
-1239.395690
 20
873.465110
 11
-1239.395690
 21
855.922808
 12
-1268.084833
 22
864.693959
 13
-1268.084833
 23
864.693959
  0
ENDBLK
  0
BLOCK
  8
0
  2
G16
 70
     0
 10
0
 20
0
  0
TEXT
  8
0
 62
     1
 10
-1005.996281
 20
382.527117
 40
32.000000
 50
90.000000
 41
0.56 
  1
75
 72
     5
 11
-1005.996281
 21
418.527117
  0
LINE
  8
0
 62
     1
  6
CONTINUOUS
 10
-990.662948
 20
363.027117
 11
-1120.662948
 21
363.027117
  0
LINE
  8
0
 62
     1
  6
CONTINUOUS
 10
-990.662948
 20
438.027117
 11
-1337.549807
 21
438.027117
  0
LINE
  8
0
 62
     1
  6
CONTINUOUS
 10
-1000.662948
 20
438.027117
 11
-1000.662948
 21
363.027117
  0
SOLID
  8
0
 62
     1
 10
-994.192472
 20
413.878971
 11
-1007.133424
 21
413.878971
 12
-1000.662948
 22
438.027117
 13
-1000.662948
 23
438.027117
  0
SOLID
  8
0
 62
     1
 10
-1007.133424
 20
387.175262
 11
-994.192472
 21
387.175262
 12
-1000.662948
 22
363.027117
 13
-1000.662948
 23
363.027117
  0
ENDBLK
  0
BLOCK
  8
0
  2
G17
 70
     0
 10
0
 20
0
  0
TEXT
  8
0
 62
     1
 10
-1065.996281
 20
-22.972883
 40
32.000000
 50
90.000000
 41
0.86 
  1
Ｐ
 72
     5
 11
-1065.996281
 21
9.027117
  0
LINE
  8
0
 62
     1
  6
CONTINUOUS
 10
-1050.662948
 20
-186.972883
 11
-1170.662948
 21
-186.972883
  0
LINE
  8
0
 62
     1
  6
CONTINUOUS
 10
-1060.662948
 20
-186.972883
 11
-1060.662948
 21
173.027117
  0
SOLID
  8
0
 62
     1
 10
-1068.427519
 20
-157.995109
 11
-1052.898377
 21
-157.995109
 12
-1060.662948
 22
-186.972883
 13
-1060.662948
 23
-186.972883
  0
SOLID
  8
0
 62
     1
 10
-1052.898377
 20
144.049342
 11
-1068.427519
 21
144.049342
 12
-1060.662948
 22
173.027117
 13
-1060.662948
 23
173.027117
  0
ENDBLK
  0
BLOCK
  8
0
  2
G18
 70
     0
 10
0
 20
0
  0
TEXT
  8
0
 62
     1
 10
-1125.996281
 20
210.027117
 40
32.000000
 50
90.000000
 41
0.58 
  1
250
 72
     5
 11
-1125.996281
 21
266.027117
  0
LINE
  8
0
 62
     1
  6
CONTINUOUS
 10
-1407.739862
 20
363.027117
 11
-1110.662948
 21
363.027117
  0
LINE
  8
0
 62
     1
  6
CONTINUOUS
 10
-1170.662948
 20
113.027117
 11
-1110.662948
 21
113.027117
  0
LINE
  8
0
 62
     1
  6
CONTINUOUS
 10
-1120.662948
 20
113.027117
 11
-1120.662948
 21
363.027117
  0
SOLID
  8
0
 62
     1
 10
-1128.427519
 20
142.004891
 11
-1112.898377
 21
142.004891
 12
-1120.662948
 22
113.027117
 13
-1120.662948
 23
113.027117
  0
SOLID
  8
0
 62
     1
 10
-1112.898377
 20
334.049342
 11
-1128.427519
 21
334.049342
 12
-1120.662948
 22
363.027117
 13
-1120.662948
 23
363.027117
  0
ENDBLK
  0
BLOCK
  8
0
  2
G19
 70
     0
 10
0
 20
0
  0
TEXT
  8
0
 62
     1
 10
-1185.996281
 20
-364.972883
 40
32.000000
 50
90.000000
 41
0.58 
  1
120
 72
     5
 11
-1185.996281
 21
-308.972883
  0
LINE
  8
0
 62
     1
  6
CONTINUOUS
 10
-1357.488951
 20
-396.972883
 11
-1170.662948
 21
-396.972883
  0
LINE
  8
0
 62
     1
  6
CONTINUOUS
 10
-1326.990773
 20
-276.972883
 11
-1170.662948
 21
-276.972883
  0
LINE
  8
0
 62
     1
  6
CONTINUOUS
 10
-1180.662948
 20
-276.972883
 11
-1180.662948
 21
-396.972883
  0
SOLID
  8
0
 62
     1
 10
-1174.192472
 20
-301.121029
 11
-1187.133424
 21
-301.121029
 12
-1180.662948
 22
-276.972883
 13
-1180.662948
 23
-276.972883
  0
SOLID
  8
0
 62
     1
 10
-1187.133424
 20
-372.824738
 11
-1174.192472
 21
-372.824738
 12
-1180.662948
 22
-396.972883
 13
-1180.662948
 23
-396.972883
  0
ENDBLK
  0
BLOCK
  8
0
  2
G20
 70
     0
 10
0
 20
0
  0
TEXT
  8
0
 62
     1
 10
-1185.996281
 20
-499.972883
 40
32.000000
 50
90.000000
 41
0.58 
  1
150
 72
     5
 11
-1185.996281
 21
-443.972883
  0
LINE
  8
0
 62
     1
  6
CONTINUOUS
 10
-1354.739862
 20
-546.972883
 11
-1170.662948
 21
-546.972883
  0
LINE
  8
0
 62
     1
  6
CONTINUOUS
 10
-1180.662948
 20
-396.972883
 11
-1180.662948
 21
-546.972883
  0
SOLID
  8
0
 62
     1
 10
-1174.192472
 20
-421.121029
 11
-1187.133424
 21
-421.121029
 12
-1180.662948
 22
-396.972883
 13
-1180.662948
 23
-396.972883
  0
SOLID
  8
0
 62
     1
 10
-1187.133424
 20
-522.824738
 11
-1174.192472
 21
-522.824738
 12
-1180.662948
 22
-546.972883
 13
-1180.662948
 23
-546.972883
  0
ENDBLK
  0
BLOCK
  8
0
  2
G21
 70
     0
 10
0
 20
0
  0
TEXT
  8
0
 62
     1
 10
-1065.996281
 20
-394.972883
 40
32.000000
 50
90.000000
 41
0.58 
  1
360
 72
     5
 11
-1065.996281
 21
-338.972883
  0
LINE
  8
0
 62
     1
  6
CONTINUOUS
 10
-1050.662948
 20
-546.972883
 11
-1170.662948
 21
-546.972883
  0
LINE
  8
0
 62
     1
  6
CONTINUOUS
 10
-1060.662948
 20
-186.972883
 11
-1060.662948
 21
-546.972883
  0
SOLID
  8
0
 62
     1
 10
-1054.192472
 20
-211.121029
 11
-1067.133424
 21
-211.121029
 12
-1060.662948
 22
-186.972883
 13
-1060.662948
 23
-186.972883
  0
SOLID
  8
0
 62
     1
 10
-1067.133424
 20
-522.824738
 11
-1054.192472
 21
-522.824738
 12
-1060.662948
 22
-546.972883
 13
-1060.662948
 23
-546.972883
  0
ENDBLK
  0
BLOCK
  8
0
  2
G22
 70
     0
 10
0
 20
0
  0
TEXT
  8
0
 62
     1
 10
-1005.996281
 20
-185.972883
 40
32.000000
 50
90.000000
 41
0.89 
  1
Ｌ（有効長）
 72
     5
 11
-1005.996281
 21
10.027117
  0
LINE
  8
0
 62
     1
  6
CONTINUOUS
 10
-1050.662948
 20
-546.972883
 11
-990.662948
 21
-546.972883
  0
LINE
  8
0
 62
     1
  6
CONTINUOUS
 10
-1000.662948
 20
363.027117
 11
-1000.662948
 21
-546.972883
  0
SOLID
  8
0
 62
     1
 10
-994.192472
 20
338.878971
 11
-1007.133424
 21
338.878971
 12
-1000.662948
 22
363.027117
 13
-1000.662948
 23
363.027117
  0
SOLID
  8
0
 62
     1
 10
-1007.133424
 20
-522.824738
 11
-994.192472
 21
-522.824738
 12
-1000.662948
 22
-546.972883
 13
-1000.662948
 23
-546.972883
  0
ENDBLK
  0
BLOCK
  8
0
  2
G23
 70
     0
 10
0
 20
0
  0
TEXT
  8
0
 62
     1
 10
-945.996281
 20
-90.472883
 40
32.000000
 50
90.000000
 41
0.97 
  1
Ｌｔ
 72
     5
 11
-945.996281
 21
-18.472883
  0
LINE
  8
0
 62
     1
  6
CONTINUOUS
 10
-990.662948
 20
-546.972883
 11
-930.662948
 21
-546.972883
  0
LINE
  8
0
 62
     1
  6
CONTINUOUS
 10
-990.662948
 20
438.027117
 11
-930.662948
 21
438.027117
  0
LINE
  8
0
 62
     1
  6
CONTINUOUS
 10
-940.662948
 20
438.027117
 11
-940.662948
 21
-546.972883
  0
SOLID
  8
0
 62
     1
 10
-934.192472
 20
413.878971
 11
-947.133424
 21
413.878971
 12
-940.662948
 22
438.027117
 13
-940.662948
 23
438.027117
  0
SOLID
  8
0
 62
     1
 10
-947.133424
 20
-522.824738
 11
-934.192472
 21
-522.824738
 12
-940.662948
 22
-546.972883
 13
-940.662948
 23
-546.972883
  0
ENDBLK
  0
BLOCK
  8
0
  2
G24
 70
     0
 10
0
 20
0
  0
LINE
  8
0
 62
     1
  6
CONTINUOUS
 10
-1180.662948
 20
110.527117
 11
-1180.662948
 21
19.944416
  0
SOLID
  8
0
 62
     1
 10
-1174.192472
 20
86.378971
 11
-1187.133424
 21
86.378971
 12
-1180.662948
 22
110.527117
 13
-1180.662948
 23
110.527117
  0
TEXT
  8
0
 62
     1
 10
-1185.996281
 20
24.799037
 40
32.000000
 50
90.000000
 41
0.58 
  1
2.5
 72
     5
 11
-1185.996281
 21
80.799037
  0
LINE
  8
0
 62
     1
  6
CONTINUOUS
 10
-1170.662948
 20
110.527117
 11
-1252.739862
 21
110.527117
  0
LINE
  8
0
 62
     1
  6
CONTINUOUS
 10
-1180.662948
 20
110.527117
 11
-1180.662948
 21
113.027117
  0
ENDBLK
  0
BLOCK
  8
0
  2
G25
 70
     0
 10
0
 20
0
  0
TEXT
  8
0
 62
     7
 10
-897.909128
 20
352.867332
 40
32.000000
 50
0.000000E+00
 41
0.66 
  1
％％ｃ　　　枝管
 72
     5
 11
-705.909128
 21
352.867332
  0
LINE
  8
0
 62
     3
  6
CONTINUOUS
 10
-898.208195
 20
343.369745
 11
-728.208195
 21
343.369745
  0
LINE
  8
0
 62
     3
  6
CONTINUOUS
 10
-898.208195
 20
335.369745
 11
-728.208195
 21
335.369745
  0
ENDBLK
  0
BLOCK
  8
0
  2
G26
 70
     0
 10
0
 20
0
  0
LINE
  8
0
 62
     3
  6
CONTINUOUS
 10
-758.459564
 20
853.759949
 11
-588.459564
 21
853.759949
  0
LINE
  8
0
 62
     3
  6
CONTINUOUS
 10
-758.459564
 20
861.759949
 11
-588.459564
 21
861.759949
  0
TEXT
  8
0
 62
     7
 10
-758.160496
 20
871.257536
 40
32.000000
 50
0.000000E+00
 41
0.66 
  1
％％ｃ　　　枝管
 72
     5
 11
-566.160496
 21
871.257536
  0
ENDBLK
  0
BLOCK
  8
0
  2
G27
 70
     0
 10
0
 20
0
  0
LINE
  8
0
 62
     1
  6
CONTINUOUS
 10
-1180.662948
 20
173.027117
 11
-1180.662948
 21
223.027117
  0
SOLID
  8
0
 62
     1
 10
-1188.427519
 20
202.004891
 11
-1172.898377
 21
202.004891
 12
-1180.662948
 22
173.027117
 13
-1180.662948
 23
173.027117
  0
TEXT
  8
0
 62
     1
 10
-1185.996281
 20
125.027117
 40
32.000000
 50
90.000000
 41
0.56 
  1
60
 72
     5
 11
-1185.996281
 21
161.027117
  0
LINE
  8
0
 62
     1
  6
CONTINUOUS
 10
-1241.806156
 20
173.027117
 11
-1170.662948
 21
173.027117
  0
LINE
  8
0
 62
     1
  6
CONTINUOUS
 10
-1252.739862
 20
113.027117
 11
-1170.662948
 21
113.027117
  0
LINE
  8
0
 62
     1
  6
CONTINUOUS
 10
-1180.662948
 20
113.027117
 11
-1180.662948
 21
173.027117
  0
CIRCLE
  8
0
 62
     1
  6
CONTINUOUS
 10
-1180.662948
 20
113.027117
 40
2.500000
  0
CIRCLE
  8
0
 62
     1
  6
CONTINUOUS
 10
-1180.662948
 20
113.027117
 40
1.250000
  0
ENDBLK
  0
BLOCK
  8
0
  2
G28
 70
     0
 10
0
 20
0
  0
LINE
  8
0
 62
     7
  6
CONTINUOUS
 10
-1512.739862
 20
762.389268
 11
-1512.739862
 21
903.498815
  0
LINE
  8
0
 62
     7
  6
CONTINUOUS
 10
-1417.739862
 20
808.830428
 11
-1417.739862
 21
903.498815
  0
LINE
  8
0
 62
     7
  6
CONTINUOUS
 10
-1512.739862
 20
893.498815
 11
-1417.739862
 21
893.498815
  0
SOLID
  8
0
 62
     7
 10
-1484.050719
 20
902.269966
 11
-1484.050719
 21
884.727664
 12
-1512.739862
 22
893.498815
 13
-1512.739862
 23
893.498815
  0
SOLID
  8
0
 62
     7
 10
-1446.429004
 20
884.727664
 11
-1446.429004
 21
902.269966
 12
-1417.739862
 22
893.498815
 13
-1417.739862
 23
893.498815
  0
TEXT
  8
0
 62
     7
 10
-1483.239862
 20
898.832145
 40
32.000000
 50
0.000000E+00
 41
0.56 
  1
95
 72
     5
 11
-1447.239862
 21
898.832145
  0
ENDBLK
  0
BLOCK
  8
0
  2
G29
 70
     0
 10
0
 20
0
  0
LINE
  8
0
 62
     7
  6
CONTINUOUS
 10
-1345.739862
 20
785.389268
 11
-1114.485175
 21
785.389268
  0
LINE
  8
0
 62
     7
  6
CONTINUOUS
 10
-1179.153340
 20
690.389268
 11
-1114.485175
 21
690.389268
  0
LINE
  8
0
 62
     7
  6
CONTINUOUS
 10
-1124.485175
 20
785.389268
 11
-1124.485175
 21
690.389268
  0
SOLID
  8
0
 62
     7
 10
-1115.714024
 20
756.700126
 11
-1133.256326
 21
756.700126
 12
-1124.485175
 22
785.389268
 13
-1124.485175
 23
785.389268
  0
SOLID
  8
0
 62
     7
 10
-1133.256326
 20
719.078411
 11
-1115.714024
 21
719.078411
 12
-1124.485175
 22
690.389268
 13
-1124.485175
 23
690.389268
  0
TEXT
  8
0
 62
     7
 10
-1129.818505
 20
719.889268
 40
32.000000
 50
90.000000
 41
0.56 
  1
95
 72
     5
 11
-1129.818505
 21
755.889268
  0
ENDBLK
  0
BLOCK
  8
0
  2
G30
 70
     0
 10
0
 20
0
  0
LINE
  8
0
 62
     7
  6
CONTINUOUS
 10
-1336.026683
 20
-134.472883
 11
-1170.662948
 21
-134.472883
  0
LINE
  8
0
 62
     7
  6
CONTINUOUS
 10
-1389.823739
 20
-186.473004
 11
-1170.662948
 21
-186.473004
  0
LINE
  8
0
 62
     7
  6
CONTINUOUS
 10
-1180.662948
 20
-134.472883
 11
-1180.662948
 21
-186.473004
  0
LINE
  8
0
 62
     7
  6
CONTINUOUS
 10
-1180.662948
 20
-134.472883
 11
-1180.662948
 21
-84.472883
  0
SOLID
  8
0
 62
     7
 10
-1189.434099
 20
-105.783741
 11
-1171.891797
 21
-105.783741
 12
-1180.662948
 22
-134.472883
 13
-1180.662948
 23
-134.472883
  0
LINE
  8
0
 62
     7
  6
CONTINUOUS
 10
-1180.662948
 20
-186.473004
 11
-1180.662948
 21
-236.473004
  0
SOLID
  8
0
 62
     7
 10
-1171.891797
 20
-215.162147
 11
-1189.434099
 21
-215.162147
 12
-1180.662948
 22
-186.473004
 13
-1180.662948
 23
-186.473004
  0
TEXT
  8
0
 62
     7
 10
-1185.996278
 20
-176.472944
 40
32.000000
 50
90.000000
 41
0.86 
  1
Ｂ
 72
     5
 11
-1185.996278
 21
-144.472944
  0
ENDBLK
  0
BLOCK
  8
0
  2
G31
 70
     0
 10
0
 20
0
  0
LINE
  8
0
 62
     7
  6
CONTINUOUS
 10
-1586.710036
 20
-135.481581
 11
-1641.529960
 21
-135.481581
  0
LINE
  8
0
 62
     7
  6
CONTINUOUS
 10
-1587.739862
 20
-186.972883
 11
-1641.529960
 21
-186.972883
  0
LINE
  8
0
 62
     7
  6
CONTINUOUS
 10
-1631.529960
 20
-135.481581
 11
-1631.529960
 21
-186.972883
  0
LINE
  8
0
 62
     7
  6
CONTINUOUS
 10
-1631.529960
 20
-135.481581
 11
-1631.529960
 21
-85.481581
  0
SOLID
  8
0
 62
     7
 10
-1640.301112
 20
-106.792438
 11
-1622.758809
 21
-106.792438
 12
-1631.529960
 22
-135.481581
 13
-1631.529960
 23
-135.481581
  0
LINE
  8
0
 62
     7
  6
CONTINUOUS
 10
-1631.529960
 20
-186.972883
 11
-1631.529960
 21
-236.972883
  0
SOLID
  8
0
 62
     7
 10
-1622.758809
 20
-215.662026
 11
-1640.301112
 21
-215.662026
 12
-1631.529960
 22
-186.972883
 13
-1631.529960
 23
-186.972883
  0
TEXT
  8
0
 62
     7
 10
-1636.863290
 20
-177.227232
 40
32.000000
 50
90.000000
 41
0.86 
  1
Ｂ
 72
     5
 11
-1636.863290
 21
-145.227232
  0
ENDBLK
  0
BLOCK
  8
0
  2
G32
 70
     0
 10
0
 20
0
  0
POINT
  8
0
 62
     2
 10
-1576.710036
 20
-135.481581
  0
LINE
  8
0
 62
     2
  6
CONTINUOUS
 10
-1570.611255
 20
-80.592558
 11
-1572.740861
 21
-187.072863
  0
LINE
  8
0
 62
     2
  6
CONTINUOUS
 10
-1575.610256
 20
-80.492578
 11
-1577.739862
 21
-186.972883
  0
LINE
  8
0
 62
     2
  6
CONTINUOUS
 10
-1570.611255
 20
-80.592558
 11
-1575.610256
 21
-80.492578
  0
LINE
  8
0
 62
     2
  6
CONTINUOUS
 10
-1512.756212
 20
-188.272556
 11
-1577.739862
 21
-186.972883
  0
LINE
  8
0
 62
     2
  6
CONTINUOUS
 10
-1570.671243
 20
-83.591958
 11
-1512.739862
 21
-84.750586
  0
LINE
  8
0
 62
     2
  6
CENTER
 10
-1587.989865
 20
-135.255985
 11
-1504.710036
 21
-136.921581
  0
POINT
  8
0
 62
     2
 10
-1504.710036
 20
-128.921581
  0
ENDBLK
  0
BLOCK
  8
0
  2
G33
 70
     0
 10
0
 20
0
  0
LINE
  8
0
 62
     2
  6
CONTINUOUS
 10
-421.000000
 20
695.000000
 11
-531.000000
 21
695.000000
  0
LINE
  8
0
 62
     2
  6
CONTINUOUS
 10
-531.000000
 20
690.000000
 11
-421.000000
 21
690.000000
  0
LINE
  8
0
 62
     2
  6
CONTINUOUS
 10
-527.965398
 20
690.000000
 11
-527.569710
 21
633.020833
  0
LINE
  8
0
 62
     2
  6
CONTINUOUS
 10
-424.034602
 20
690.000000
 11
-424.430290
 21
633.020833
  0
LINE
  8
0
 62
     2
  6
CONTINUOUS
 10
-531.000000
 20
690.000000
 11
-531.000000
 21
695.000000
  0
LINE
  8
0
 62
     2
  6
CONTINUOUS
 10
-421.000000
 20
690.000000
 11
-421.000000
 21
695.000000
  0
ENDBLK
  0
BLOCK
  8
0
  2
G34
 70
     0
 10
0
 20
0
  0
LINE
  8
0
 62
     7
  6
CONTINUOUS
 10
-531.000000
 20
705.000000
 11
-531.000000
 21
756.980621
  0
LINE
  8
0
 62
     7
  6
CONTINUOUS
 10
-421.000000
 20
705.000000
 11
-421.000000
 21
756.980621
  0
LINE
  8
0
 62
     7
  6
CONTINUOUS
 10
-531.000000
 20
746.980621
 11
-421.000000
 21
746.980621
  0
SOLID
  8
0
 62
     7
 10
-502.310857
 20
755.751772
 11
-502.310857
 21
738.209470
 12
-531.000000
 22
746.980621
 13
-531.000000
 23
746.980621
  0
SOLID
  8
0
 62
     7
 10
-449.689143
 20
738.209470
 11
-449.689143
 21
755.751772
 12
-421.000000
 22
746.980621
 13
-421.000000
 23
746.980621
  0
TEXT
  8
0
 62
     7
 10
-492.000000
 20
752.313951
 40
32.000000
 50
0.000000E+00
 41
0.86 
  1
Ａ
 72
     5
 11
-460.000000
 21
752.313951
  0
ENDBLK
  0
BLOCK
  8
0
  2
G35
 70
     0
 10
0
 20
0
  0
LINE
  8
0
 62
     7
  6
CONTINUOUS
 10
-646.000000
 20
590.000000
 11
-698.324692
 21
590.000000
  0
LINE
  8
0
 62
     7
  6
CONTINUOUS
 10
-646.000000
 20
480.000000
 11
-698.324692
 21
480.000000
  0
LINE
  8
0
 62
     7
  6
CONTINUOUS
 10
-688.324692
 20
590.000000
 11
-688.324692
 21
480.000000
  0
SOLID
  8
0
 62
     7
 10
-679.553541
 20
561.310857
 11
-697.095843
 21
561.310857
 12
-688.324692
 22
590.000000
 13
-688.324692
 23
590.000000
  0
SOLID
  8
0
 62
     7
 10
-697.095843
 20
508.689143
 11
-679.553541
 21
508.689143
 12
-688.324692
 22
480.000000
 13
-688.324692
 23
480.000000
  0
TEXT
  8
0
 62
     7
 10
-693.658022
 20
519.000000
 40
32.000000
 50
90.000000
 41
0.86 
  1
Ａ
 72
     5
 11
-693.658022
 21
551.000000
  0
ENDBLK
  0
BLOCK
  8
0
  2
G36
 70
     0
 10
0
 20
0
  0
LINE
  8
0
 62
     2
  6
CONTINUOUS
 10
-636.000000
 20
480.000000
 11
-636.000000
 21
590.000000
  0
LINE
  8
0
 62
     2
  6
CONTINUOUS
 10
-631.000000
 20
480.000000
 11
-631.000000
 21
590.000000
  0
LINE
  8
0
 62
     2
  6
CONTINUOUS
 10
-631.000000
 20
480.000000
 11
-636.000000
 21
480.000000
  0
LINE
  8
0
 62
     2
  6
CONTINUOUS
 10
-631.000000
 20
590.000000
 11
-636.000000
 21
590.000000
  0
LINE
  8
0
 62
     2
  6
CONTINUOUS
 10
-631.000000
 20
483.000000
 11
-571.000000
 21
483.000000
  0
LINE
  8
0
 62
     2
  6
CONTINUOUS
 10
-571.000000
 20
587.000000
 11
-631.000000
 21
587.000000
  0
ENDBLK
  0
BLOCK
  8
0
  2
G37
 70
     0
 10
0
 20
0
  0
LINE
  8
0
 62
     7
  6
CONTINUOUS
 10
-1492.739862
 20
448.027117
 11
-1492.739862
 21
491.551724
  0
LINE
  8
0
 62
     7
  6
CONTINUOUS
 10
-1342.739862
 20
448.027117
 11
-1342.739862
 21
491.551724
  0
LINE
  8
0
 62
     7
  6
CONTINUOUS
 10
-1492.739862
 20
481.551724
 11
-1342.739862
 21
481.551724
  0
SOLID
  8
0
 62
     7
 10
-1464.050719
 20
490.322875
 11
-1464.050719
 21
472.780573
 12
-1492.739862
 22
481.551724
 13
-1492.739862
 23
481.551724
  0
SOLID
  8
0
 62
     7
 10
-1371.429004
 20
472.780573
 11
-1371.429004
 21
490.322875
 12
-1342.739862
 22
481.551724
 13
-1342.739862
 23
481.551724
  0
TEXT
  8
0
 62
     7
 10
-1475.739862
 20
486.885054
 40
32.000000
 50
0.000000E+00
 41
0.60 
  1
%%c150
 72
     5
 11
-1359.739862
 21
486.885054
  0
ENDBLK
  0
BLOCK
  8
0
  2
G38
 70
     0
 10
0
 20
0
  0
LINE
  8
0
 62
     7
  6
CONTINUOUS
 10
-1503.739862
 20
268.786486
 11
-1503.739862
 21
553.748668
  0
LINE
  8
0
 62
     7
  6
CONTINUOUS
 10
-1331.739862
 20
258.786486
 11
-1331.739862
 21
553.748668
  0
LINE
  8
0
 62
     7
  6
CONTINUOUS
 10
-1503.739862
 20
543.748668
 11
-1331.739862
 21
543.748668
  0
SOLID
  8
0
 62
     7
 10
-1475.050719
 20
552.519819
 11
-1475.050719
 21
534.977516
 12
-1503.739862
 22
543.748668
 13
-1503.739862
 23
543.748668
  0
SOLID
  8
0
 62
     7
 10
-1360.429004
 20
534.977516
 11
-1360.429004
 21
552.519819
 12
-1331.739862
 22
543.748668
 13
-1331.739862
 23
543.748668
  0
TEXT
  8
0
 62
     7
 10
-1475.739862
 20
549.081997
 40
32.000000
 50
0.000000E+00
 41
0.60 
  1
%%c172
 72
     5
 11
-1359.739862
 21
549.081997
  0
ENDBLK
  0
BLOCK
  8
0
  2
G39
 70
     0
 10
0
 20
0
  0
LINE
  8
0
 62
     7
  6
CONTINUOUS
 10
-1472.739862
 20
-556.972883
 11
-1472.739862
 21
-631.607049
  0
LINE
  8
0
 62
     7
  6
CONTINUOUS
 10
-1362.739862
 20
-556.972883
 11
-1362.739862
 21
-631.607049
  0
LINE
  8
0
 62
     7
  6
CONTINUOUS
 10
-1472.739862
 20
-621.607049
 11
-1362.739862
 21
-621.607049
  0
SOLID
  8
0
 62
     7
 10
-1444.050719
 20
-612.835898
 11
-1444.050719
 21
-630.378201
 12
-1472.739862
 22
-621.607049
 13
-1472.739862
 23
-621.607049
  0
SOLID
  8
0
 62
     7
 10
-1391.429004
 20
-630.378201
 11
-1391.429004
 21
-612.835898
 12
-1362.739862
 22
-621.607049
 13
-1362.739862
 23
-621.607049
  0
TEXT
  8
0
 62
     7
 10
-1475.739862
 20
-616.273720
 40
32.000000
 50
0.000000E+00
 41
0.60 
  1
%%c110
 72
     5
 11
-1359.739862
 21
-616.273720
  0
ENDBLK
  0
BLOCK
  8
0
  2
G40
 70
     0
 10
0
 20
0
  0
LINE
  8
0
 62
     7
  6
CONTINUOUS
 10
-1503.739862
 20
-293.100972
 11
-1503.739862
 21
-696.251332
  0
LINE
  8
0
 62
     7
  6
CONTINUOUS
 10
-1331.739862
 20
-283.100972
 11
-1331.739862
 21
-696.251332
  0
LINE
  8
0
 62
     7
  6
CONTINUOUS
 10
-1503.739862
 20
-686.251332
 11
-1331.739862
 21
-686.251332
  0
SOLID
  8
0
 62
     7
 10
-1475.050719
 20
-677.480181
 11
-1475.050719
 21
-695.022484
 12
-1503.739862
 22
-686.251332
 13
-1503.739862
 23
-686.251332
  0
SOLID
  8
0
 62
     7
 10
-1360.429004
 20
-695.022484
 11
-1360.429004
 21
-677.480181
 12
-1331.739862
 22
-686.251332
 13
-1331.739862
 23
-686.251332
  0
TEXT
  8
0
 62
     7
 10
-1475.739862
 20
-680.918003
 40
32.000000
 50
0.000000E+00
 41
0.60 
  1
%%c172
 72
     5
 11
-1359.739862
 21
-680.918003
  0
ENDBLK
  0
ENDSEC
  0
SECTION
  2
ENTITIES
  0
LINE
  8
3
 62
     4
  6
CONTINUOUS
 10
-1500.539450
 20
-186.482684
 11
-1496.994801
 21
-184.763737
  0
LINE
  8
3
 62
     4
  6
CONTINUOUS
 10
-1496.994801
 20
-184.763737
 11
-1493.590333
 21
-181.843725
  0
LINE
  8
3
 62
     4
  6
CONTINUOUS
 10
-1493.590333
 20
-181.843725
 11
-1490.396804
 21
-177.783333
  0
LINE
  8
3
 62
     4
  6
CONTINUOUS
 10
-1490.396804
 20
-177.783333
 11
-1487.480582
 21
-172.666949
  0
LINE
  8
3
 62
     4
  6
CONTINUOUS
 10
-1487.480582
 20
-172.666949
 11
-1484.902277
 21
-166.600907
  0
LINE
  8
3
 62
     4
  6
CONTINUOUS
 10
-1484.902277
 20
-166.600907
 11
-1482.715473
 21
-159.711277
  0
LINE
  8
3
 62
     4
  6
CONTINUOUS
 10
-1482.715473
 20
-159.711277
 11
-1480.965617
 21
-152.141246
  0
LINE
  8
3
 62
     4
  6
CONTINUOUS
 10
-1480.965617
 20
-152.141246
 11
-1479.689079
 21
-144.048142
  0
LINE
  8
3
 62
     4
  6
CONTINUOUS
 10
-1479.689079
 20
-144.048142
 11
-1478.912387
 21
-135.600163
  0
LINE
  8
3
 62
     4
  6
CONTINUOUS
 10
-1478.912387
 20
-135.600163
 11
-1478.651683
 21
-126.972883
  0
LINE
  8
3
 62
     4
  6
CONTINUOUS
 10
-1478.912387
 20
-135.600163
 11
-1478.651683
 21
-126.972883
  0
ARC
  8
1
 62
     4
  6
CONTINUOUS
 10
-1311.938544
 20
-92.212691
 40
30.639745
 50
117.551999
 51
146.346996
  0
POINT
  8
3
 62
     7
 10
-1331.739862
 20
-66.972883
  0
POINT
  8
3
 62
     4
 10
-1331.739862
 20
-188.972883
  0
ARC
  8
3
 62
     4
  6
CONTINUOUS
 10
-1328.739862
 20
-191.972883
 40
3.000000
 50
90.000000
 51
180.000000
  0
LINE
  8
3
 62
     4
  6
CONTINUOUS
 10
-1324.739862
 20
-188.972883
 11
-1328.739862
 21
-188.972883
  0
ARC
  8
3
 62
     4
  6
CONTINUOUS
 10
-1324.739862
 20
-186.972883
 40
2.000000
 50
-90.000000
 51
0.000000E+00
  0
LINE
  8
3
 62
     4
  6
CONTINUOUS
 10
-1322.739862
 20
-186.972883
 11
-1322.739862
 21
-66.972883
  0
ARC
  8
3
 62
     4
  6
CONTINUOUS
 10
-1324.739862
 20
-66.972883
 40
2.000000
 50
0.000000E+00
 51
90.000000
  0
LINE
  8
3
 62
     4
  6
CONTINUOUS
 10
-1484.893237
 20
-81.972883
 11
-1417.739862
 21
-81.972883
  0
LINE
  8
0
 62
     2
  6
CONTINUOUS
 10
-1515.739862
 20
-31.471285
 11
-1515.739862
 21
-29.471285
  0
LINE
  8
0
 62
     2
  6
CONTINUOUS
 10
-1522.739862
 20
-28.471285
 11
-1417.739862
 21
-28.471285
  0
LINE
  8
0
 62
     2
  6
CONTINUOUS
 10
-1515.739862
 20
-31.471285
 11
-1319.739862
 21
-31.471285
  0
LINE
  8
0
 62
     2
  6
CONTINUOUS
 10
-1522.739862
 20
-28.471285
 11
-1522.739862
 21
-20.471285
  0
LINE
  8
0
 62
     3
  6
CONTINUOUS
 10
-1331.739862
 20
238.027117
 11
-1331.739862
 21
248.786486
  0
LINE
  8
3
 62
     3
  6
CONTINUOUS
 10
-1342.739862
 20
433.027117
 11
-1417.739862
 21
433.027117
  0
LINE
  8
3
 62
     3
  6
CONTINUOUS
 10
-1492.739862
 20
438.027117
 11
-1342.739862
 21
438.027117
  0
LINE
  8
3
 62
     3
  6
CONTINUOUS
 10
-1492.739862
 20
438.027117
 11
-1492.739862
 21
433.027117
  0
LINE
  8
0
 62
     3
  6
CONTINUOUS
 10
-1331.739862
 20
108.027117
 11
-1331.739862
 21
-13.471285
  0
ARC
  8
3
 62
     3
  6
CONTINUOUS
 10
-1355.739862
 20
361.027117
 40
10.000000
 50
-57.472862
 51
0.000000E+00
  0
LINE
  8
3
 62
     3
  6
CONTINUOUS
 10
-1489.739862
 20
428.444541
 11
-1489.739862
 21
361.027117
  0
LINE
  8
3
 62
     3
  6
CONTINUOUS
 10
-1345.739862
 20
428.444541
 11
-1345.739862
 21
361.027117
  0
ARC
  8
3
 62
     3
  6
CONTINUOUS
 10
-1479.739862
 20
361.027117
 40
10.000000
 50
180.000000
 51
238.038250
  0
LINE
  8
3
 62
     3
  6
CENTER
 10
-1251.806156
 20
173.027117
 11
-1519.665810
 21
173.027117
  0
LINE
  8
0
 62
     2
  6
CONTINUOUS
 10
-1319.739862
 20
-13.471285
 11
-1312.739862
 21
-20.471285
  0
ARC
  8
3
 62
     3
  6
CONTINUOUS
 10
-1494.739862
 20
428.444541
 40
5.000000
 50
0.000000E+00
 51
66.421822
  0
LINE
  8
3
 62
     3
  6
CONTINUOUS
 10
-1342.739862
 20
438.027117
 11
-1342.739862
 21
433.027117
  0
ARC
  8
0
 62
     3
  6
CONTINUOUS
 10
-1366.739862
 20
248.786486
 40
35.000000
 50
0.000000E+00
 51
17.716492
  0
ARC
  8
3
 62
     3
  6
CONTINUOUS
 10
-1340.739862
 20
428.444541
 40
5.000000
 50
113.578178
 51
180.000000
  0
LINE
  8
3
 62
     3
  6
CONTINUOUS
 10
-1340.000839
 20
255.903002
 11
-1417.739862
 21
255.903002
  0
ARC
  8
1
 62
     4
  6
CONTINUOUS
 10
-1324.739862
 20
-186.972883
 40
2.000000
 50
-90.000000
 51
0.000000E+00
  0
ARC
  8
1
 62
     4
  6
CONTINUOUS
 10
-1324.739862
 20
-66.972883
 40
2.000000
 50
0.000000E+00
 51
90.000000
  0
LINE
  8
1
 62
     4
  6
CONTINUOUS
 10
-1322.739862
 20
-66.972883
 11
-1322.739862
 21
-186.972883
  0
ARC
  8
3
 62
     4
  6
CONTINUOUS
 10
-1497.739862
 20
-400.844795
 40
25.000000
 50
0.000000E+00
 51
14.708304
  0
LINE
  8
3
 62
     4
  6
CONTINUOUS
 10
-1502.592945
 20
-281.987407
 11
-1473.559088
 21
-394.497342
  0
ARC
  8
3
 62
     4
  6
CONTINUOUS
 10
-1468.739862
 20
-273.100972
 40
35.000000
 50
180.000000
 51
194.708304
  0
LINE
  8
3
 62
     4
  6
CONTINUOUS
 10
-1472.739862
 20
-400.844795
 11
-1472.739862
 21
-544.972883
  0
ARC
  8
3
 62
     4
  6
CONTINUOUS
 10
-1337.739862
 20
-400.844795
 40
25.000000
 50
165.291696
 51
180.000000
  0
LINE
  8
3
 62
     4
  6
CONTINUOUS
 10
-1332.886778
 20
-281.987407
 11
-1361.920636
 21
-394.497342
  0
ARC
  8
3
 62
     4
  6
CONTINUOUS
 10
-1366.739862
 20
-273.100972
 40
35.000000
 50
-14.708304
 51
0.000000E+00
  0
LINE
  8
3
 62
     4
  6
CONTINUOUS
 10
-1362.739862
 20
-400.844795
 11
-1362.739862
 21
-544.972883
  0
LINE
  8
3
 62
     4
  6
CONTINUOUS
 10
-1364.739862
 20
-546.972883
 11
-1470.739862
 21
-546.972883
  0
LINE
  8
3
 62
     4
  6
CONTINUOUS
 10
-1467.990773
 20
-396.972883
 11
-1367.488951
 21
-396.972883
  0
LINE
  8
3
 62
     4
  6
CONTINUOUS
 10
-1498.488951
 20
-276.972883
 11
-1336.990773
 21
-276.972883
  0
LINE
  8
3
 62
     4
  6
CONTINUOUS
 10
-1503.739862
 20
-276.972883
 11
-1503.739862
 21
-191.972883
  0
LINE
  8
3
 62
     4
  6
CONTINUOUS
 10
-1324.739862
 20
-56.273521
 11
-1510.739862
 21
-56.273521
  0
LINE
  8
3
 62
     4
  6
CONTINUOUS
 10
-1331.739862
 20
-273.100972
 11
-1331.739862
 21
-191.972883
  0
LINE
  8
3
 62
     4
  6
CONTINUOUS
 10
-1521.739862
 20
-46.972883
 11
-1313.739862
 21
-46.972883
  0
LINE
  8
3
 62
     4
  6
CONTINUOUS
 10
-1312.739862
 20
-31.972883
 11
-1522.739862
 21
-31.972883
  0
ARC
  8
3
 62
     4
  6
CONTINUOUS
 10
-1470.739862
 20
-544.972883
 40
2.000000
 50
180.000000
 51
270.000000
  0
ARC
  8
3
 62
     4
  6
CONTINUOUS
 10
-1364.739862
 20
-544.972883
 40
2.000000
 50
-90.000000
 51
0.000000E+00
  0
LINE
  8
3
 62
     4
  6
CONTINUOUS
 10
-1312.739862
 20
-31.972883
 11
-1312.739862
 21
-46.972883
  0
LINE
  8
3
 62
     4
  6
CONTINUOUS
 10
-1313.739862
 20
-46.972883
 11
-1312.739862
 21
-46.972883
  0
LINE
  8
3
 62
     3
  6
CENTER
 10
-1496.228714
 20
-55.916452
 11
-1496.228714
 21
-25.425681
  0
LINE
  8
3
 62
     3
  6
CENTER
 10
-1339.251009
 20
-55.916452
 11
-1339.251009
 21
-25.425681
  0
ARC
  8
3
 62
     4
  6
CONTINUOUS
 10
-1313.739862
 20
-48.972883
 40
2.000000
 50
90.000000
 51
180.000000
  0
LINE
  8
3
 62
     4
  6
CONTINUOUS
 10
-1315.739862
 20
-48.972883
 11
-1315.739862
 21
-50.472883
  0
LINE
  8
3
 62
     4
  6
CONTINUOUS
 10
-1350.586486
 20
-81.972883
 11
-1417.739862
 21
-81.972883
  0
ARC
  8
3
 62
     4
  6
CONTINUOUS
 10
-1317.239862
 20
-50.472883
 40
1.500000
 50
-90.000000
 51
0.000000E+00
  0
LINE
  8
3
 62
     4
  6
CONTINUOUS
 10
-1317.239862
 20
-51.972883
 11
-1518.239862
 21
-51.972883
  0
LINE
  8
3
 62
     4
  6
CONTINUOUS
 10
-1321.180713
 20
-51.972883
 11
-1324.739862
 21
-56.273521
  0
LINE
  8
3
 62
     4
  6
CONTINUOUS
 10
-1324.739862
 20
-56.273521
 11
-1324.739862
 21
-64.972883
  0
LINE
  8
3
 62
     4
  6
CONTINUOUS
 10
-1510.739862
 20
-56.273521
 11
-1510.739862
 21
-64.972883
  0
LINE
  8
3
 62
     4
  6
CONTINUOUS
 10
-1514.299010
 20
-51.972883
 11
-1510.739862
 21
-56.273521
  0
ARC
  8
3
 62
     4
  6
CONTINUOUS
 10
-1518.239862
 20
-50.472883
 40
1.500000
 50
180.000000
 51
270.000000
  0
LINE
  8
3
 62
     4
  6
CONTINUOUS
 10
-1519.739862
 20
-48.972883
 11
-1519.739862
 21
-50.472883
  0
ARC
  8
3
 62
     4
  6
CONTINUOUS
 10
-1521.739862
 20
-48.972883
 40
2.000000
 50
0.000000E+00
 51
90.000000
  0
LINE
  8
3
 62
     4
  6
CONTINUOUS
 10
-1521.739862
 20
-46.972883
 11
-1522.739862
 21
-46.972883
  0
LINE
  8
3
 62
     4
  6
CONTINUOUS
 10
-1522.739862
 20
-31.972883
 11
-1522.739862
 21
-46.972883
  0
LINE
  8
0
 62
     3
  6
CONTINUOUS
 10
-1503.739862
 20
248.786486
 11
-1503.739862
 21
238.027117
  0
ARC
  8
0
 62
     3
  6
CONTINUOUS
 10
-1468.739862
 20
248.786486
 40
35.000000
 50
162.283508
 51
180.000000
  0
LINE
  8
3
 62
     3
  6
CONTINUOUS
 10
-1356.769878
 20
352.543100
 11
-1417.739862
 21
352.543100
  0
LINE
  8
0
 62
     3
  6
CONTINUOUS
 10
-1478.493178
 20
334.836132
 11
-1502.079949
 21
259.437240
  0
LINE
  8
0
 62
     3
  6
CONTINUOUS
 10
-1356.986545
 20
334.836132
 11
-1333.399774
 21
259.437240
  0
ARC
  8
2
 62
     3
  6
CONTINUOUS
 10
-1492.781787
 20
339.400741
 40
15.000000
 50
-17.716492
 51
59.888987
  0
LINE
  8
3
 62
     4
  6
CENTER
 10
-1417.739862
 20
-319.368262
 11
-1417.739862
 21
-7.290674
  0
LINE
  8
3
 62
     4
  6
CENTER
 10
-1417.739862
 20
-560.060403
 11
-1417.739862
 21
-319.368262
  0
LINE
  8
0
 62
     2
  6
CONTINUOUS
 10
-1515.739862
 20
-13.471285
 11
-1522.739862
 21
-20.471285
  0
LINE
  8
0
 62
     3
  6
CONTINUOUS
 10
-1503.739862
 20
108.027117
 11
-1503.739862
 21
-13.471285
  0
ARC
  8
2
 62
     3
  6
CONTINUOUS
 10
-1342.697936
 20
339.400741
 40
15.000000
 50
120.111013
 51
197.716492
  0
LINE
  8
3
 62
     3
  6
CONTINUOUS
 10
-1334.384056
 20
113.387137
 11
-1338.271706
 21
115.232300
  0
LINE
  8
3
 62
     3
  6
CONTINUOUS
 10
-1338.271706
 20
115.232300
 11
-1341.986868
 21
118.597538
  0
LINE
  8
3
 62
     3
  6
CONTINUOUS
 10
-1341.986868
 20
118.597538
 11
-1345.431827
 21
123.394342
  0
LINE
  8
3
 62
     3
  6
CONTINUOUS
 10
-1345.431827
 20
123.394342
 11
-1348.515977
 21
129.496551
  0
LINE
  8
3
 62
     3
  6
CONTINUOUS
 10
-1348.515977
 20
129.496551
 11
-1351.158201
 21
136.743668
  0
LINE
  8
3
 62
     3
  6
CONTINUOUS
 10
-1351.158201
 20
136.743668
 11
-1353.289005
 21
144.945085
  0
LINE
  8
3
 62
     3
  6
CONTINUOUS
 10
-1353.289005
 20
144.945085
 11
-1354.852346
 21
153.885095
  0
LINE
  8
3
 62
     3
  6
CONTINUOUS
 10
-1354.852346
 20
153.885095
 11
-1355.807106
 21
163.328564
  0
LINE
  8
3
 62
     3
  6
CONTINUOUS
 10
-1355.807106
 20
163.328564
 11
-1356.128174
 21
173.027117
  0
LINE
  8
3
 62
     3
  6
CONTINUOUS
 10
-1355.807106
 20
163.328564
 11
-1356.128174
 21
173.027117
  0
INSERT
  8
0
  2
G0
 10
0
 20
0
  0
LINE
  8
3
 62
     3
  6
CONTINUOUS
 10
-1333.926165
 20
232.780203
 11
-1337.487459
 21
231.325073
  0
LINE
  8
3
 62
     3
  6
CONTINUOUS
 10
-1337.487459
 20
231.325073
 11
-1340.922502
 21
228.595239
  0
LINE
  8
3
 62
     3
  6
CONTINUOUS
 10
-1340.922502
 20
228.595239
 11
-1344.156188
 21
224.650390
  0
LINE
  8
3
 62
     3
  6
CONTINUOUS
 10
-1344.156188
 20
224.650390
 11
-1347.117811
 21
219.576782
  0
LINE
  8
3
 62
     3
  6
CONTINUOUS
 10
-1347.117811
 20
219.576782
 11
-1349.742613
 21
213.485350
  0
LINE
  8
3
 62
     3
  6
CONTINUOUS
 10
-1349.742613
 20
213.485350
 11
-1351.973203
 21
206.509286
  0
LINE
  8
3
 62
     3
  6
CONTINUOUS
 10
-1351.973203
 20
206.509286
 11
-1353.760808
 21
198.801123
  0
LINE
  8
3
 62
     3
  6
CONTINUOUS
 10
-1353.760808
 20
198.801123
 11
-1355.066341
 21
190.529404
  0
LINE
  8
3
 62
     3
  6
CONTINUOUS
 10
-1355.066341
 20
190.529404
 11
-1355.861257
 21
181.874991
  0
LINE
  8
3
 62
     3
  6
CONTINUOUS
 10
-1355.861257
 20
181.874991
 11
-1356.128174
 21
173.027117
  0
LINE
  8
3
 62
     3
  6
CONTINUOUS
 10
-1355.861257
 20
181.874991
 11
-1356.128174
 21
173.027117
  0
INSERT
  8
0
  2
G1
 10
0
 20
0
  0
LINE
  8
0
 62
     3
  6
CONTINUOUS
 10
-1512.739862
 20
233.027117
 11
-1512.739862
 21
113.027117
  0
TEXT
  8
0
 62
     6
 10
-1203.933805
 20
1169.451072
 40
32.000000
 50
0.000000E+00
 41
0.86 
  1
ａ
 72
     5
 11
-1171.933805
 21
1169.451072
  0
LINE
  8
3
 62
     4
  6
CONTINUOUS
 10
-1486.278439
 20
-83.890495
 11
-1484.746424
 21
-87.772664
  0
LINE
  8
3
 62
     4
  6
CONTINUOUS
 10
-1484.746424
 20
-87.772664
 11
-1483.364750
 21
-91.965120
  0
LINE
  8
3
 62
     4
  6
CONTINUOUS
 10
-1483.364750
 20
-91.965120
 11
-1482.144354
 21
-96.434677
  0
LINE
  8
3
 62
     4
  6
CONTINUOUS
 10
-1482.144354
 20
-96.434677
 11
-1481.094895
 21
-101.145956
  0
LINE
  8
3
 62
     4
  6
CONTINUOUS
 10
-1481.094895
 20
-101.145956
 11
-1480.224681
 21
-106.061667
  0
LINE
  8
3
 62
     4
  6
CONTINUOUS
 10
-1480.224681
 20
-106.061667
 11
-1479.540599
 21
-111.142898
  0
LINE
  8
3
 62
     4
  6
CONTINUOUS
 10
-1479.540599
 20
-111.142898
 11
-1479.048064
 21
-116.349430
  0
LINE
  8
3
 62
     4
  6
CONTINUOUS
 10
-1479.048064
 20
-116.349430
 11
-1478.750975
 21
-121.640051
  0
LINE
  8
3
 62
     4
  6
CONTINUOUS
 10
-1478.750975
 20
-121.640051
 11
-1478.651683
 21
-126.972883
  0
LINE
  8
3
 62
     4
  6
CONTINUOUS
 10
-1478.750975
 20
-121.640051
 11
-1478.651683
 21
-126.972883
  0
ARC
  8
3
 62
     4
  6
CONTINUOUS
 10
-1477.868044
 20
-55.024384
 40
28.500781
 50
225.057601
 51
244.512889
  0
POINT
  8
3
 62
     7
 10
-1503.739862
 20
-66.972883
  0
ARC
  8
3
 62
     4
  6
CONTINUOUS
 10
-1357.611679
 20
-55.024384
 40
28.500781
 50
295.487111
 51
314.942399
  0
ARC
  8
1
 62
     4
  6
CONTINUOUS
 10
-1510.739862
 20
-186.972883
 40
2.000000
 50
180.000000
 51
270.000000
  0
ARC
  8
1
 62
     4
  6
CONTINUOUS
 10
-1510.739862
 20
-66.972883
 40
2.000000
 50
90.000000
 51
180.000000
  0
ARC
  8
1
 62
     4
  6
CONTINUOUS
 10
-1506.739862
 20
-191.972883
 40
3.000000
 50
0.000000E+00
 51
90.000000
  0
LINE
  8
1
 62
     4
  6
CONTINUOUS
 10
-1506.739862
 20
-188.972883
 11
-1510.739862
 21
-188.972883
  0
ARC
  8
1
 62
     4
  6
CONTINUOUS
 10
-1523.541179
 20
-92.212691
 40
30.639745
 50
33.671563
 51
62.448001
  0
LINE
  8
1
 62
     4
  6
CONTINUOUS
 10
-1512.739862
 20
-66.972883
 11
-1512.739862
 21
-186.972883
  0
LINE
  8
3
 62
     4
  6
CONTINUOUS
 10
-1349.201285
 20
-83.890495
 11
-1350.586672
 21
-87.369957
  0
LINE
  8
3
 62
     4
  6
CONTINUOUS
 10
-1350.586672
 20
-87.369957
 11
-1351.851208
 21
-91.103366
  0
LINE
  8
3
 62
     4
  6
CONTINUOUS
 10
-1351.851208
 20
-91.103366
 11
-1352.986785
 21
-95.066780
  0
LINE
  8
3
 62
     4
  6
CONTINUOUS
 10
-1352.986785
 20
-95.066780
 11
-1353.986120
 21
-99.234785
  0
LINE
  8
3
 62
     4
  6
CONTINUOUS
 10
-1353.986120
 20
-99.234785
 11
-1354.842805
 21
-103.580655
  0
LINE
  8
3
 62
     4
  6
CONTINUOUS
 10
-1354.842805
 20
-103.580655
 11
-1355.551348
 21
-108.076523
  0
LINE
  8
3
 62
     4
  6
CONTINUOUS
 10
-1355.551348
 20
-108.076523
 11
-1356.107205
 21
-112.693560
  0
LINE
  8
3
 62
     4
  6
CONTINUOUS
 10
-1356.107205
 20
-112.693560
 11
-1356.506811
 21
-117.402159
  0
LINE
  8
3
 62
     4
  6
CONTINUOUS
 10
-1356.506811
 20
-117.402159
 11
-1356.747604
 21
-122.172130
  0
LINE
  8
3
 62
     4
  6
CONTINUOUS
 10
-1356.747604
 20
-122.172130
 11
-1356.828040
 21
-126.972883
  0
LINE
  8
3
 62
     4
  6
CONTINUOUS
 10
-1356.747604
 20
-122.172130
 11
-1356.828040
 21
-126.972883
  0
LINE
  8
3
 62
     4
  6
CONTINUOUS
 10
-1334.940273
 20
-186.482684
 11
-1338.484923
 21
-184.763737
  0
LINE
  8
3
 62
     4
  6
CONTINUOUS
 10
-1338.484923
 20
-184.763737
 11
-1341.889390
 21
-181.843725
  0
LINE
  8
3
 62
     4
  6
CONTINUOUS
 10
-1341.889390
 20
-181.843725
 11
-1345.082920
 21
-177.783333
  0
LINE
  8
3
 62
     4
  6
CONTINUOUS
 10
-1345.082920
 20
-177.783333
 11
-1347.999141
 21
-172.666949
  0
LINE
  8
3
 62
     4
  6
CONTINUOUS
 10
-1347.999141
 20
-172.666949
 11
-1350.577446
 21
-166.600907
  0
LINE
  8
3
 62
     4
  6
CONTINUOUS
 10
-1350.577446
 20
-166.600907
 11
-1352.764251
 21
-159.711277
  0
LINE
  8
3
 62
     4
  6
CONTINUOUS
 10
-1352.764251
 20
-159.711277
 11
-1354.514106
 21
-152.141246
  0
LINE
  8
3
 62
     4
  6
CONTINUOUS
 10
-1354.514106
 20
-152.141246
 11
-1355.790645
 21
-144.048142
  0
LINE
  8
3
 62
     4
  6
CONTINUOUS
 10
-1355.790645
 20
-144.048142
 11
-1356.567337
 21
-135.600163
  0
LINE
  8
3
 62
     4
  6
CONTINUOUS
 10
-1356.567337
 20
-135.600163
 11
-1356.828040
 21
-126.972883
  0
LINE
  8
3
 62
     4
  6
CONTINUOUS
 10
-1356.567337
 20
-135.600163
 11
-1356.828040
 21
-126.972883
  0
POINT
  8
0
 62
     3
 10
-1417.739862
 20
-39.972883
  0
POINT
  8
0
 62
     3
 10
-1417.739862
 20
-54.472883
  0
POINT
  8
0
 62
     3
 10
-1417.739862
 20
-76.972883
  0
ARC
  8
0
 62
     2
  6
CONTINUOUS
 10
-1516.739862
 20
-29.471285
 40
1.000000
 50
360.000000
 51
450.000000
  0
LINE
  8
0
 62
     2
  6
CONTINUOUS
 10
-1515.739862
 20
-13.471285
 11
-1319.739862
 21
-13.471285
  0
LINE
  8
3
 62
     3
  6
CONTINUOUS
 10
-1262.739862
 20
110.527117
 11
-1262.739862
 21
233.027117
  0
LINE
  8
3
 62
     3
  6
CONTINUOUS
 10
-1262.739862
 20
110.527117
 11
-1257.739862
 21
110.527117
  0
LINE
  8
3
 62
     3
  6
CONTINUOUS
 10
-1262.739862
 20
233.027117
 11
-1322.739862
 21
233.027117
  0
ARC
  8
1
 62
     3
  6
CONTINUOUS
 10
-1324.739862
 20
113.027117
 40
2.000000
 50
-90.000000
 51
0.000000E+00
  0
LINE
  8
3
 62
     3
  6
CONTINUOUS
 10
-1262.739862
 20
113.027117
 11
-1322.739862
 21
113.027117
  0
LINE
  8
3
 62
     3
  6
CONTINUOUS
 10
-1262.739862
 20
235.527117
 11
-1257.739862
 21
235.527117
  0
LINE
  8
3
 62
     3
  6
CONTINUOUS
 10
-1262.739862
 20
235.527117
 11
-1262.739862
 21
233.027117
  0
LINE
  8
3
 62
     3
  6
CONTINUOUS
 10
-1257.739862
 20
235.527117
 11
-1257.739862
 21
110.527117
  0
LINE
  8
1
 62
     3
  6
CONTINUOUS
 10
-1324.739862
 20
235.027117
 11
-1328.739862
 21
235.027117
  0
LINE
  8
1
 62
     3
  6
CONTINUOUS
 10
-1324.739862
 20
111.027117
 11
-1328.739862
 21
111.027117
  0
ARC
  8
1
 62
     3
  6
CONTINUOUS
 10
-1324.739862
 20
233.027117
 40
2.000000
 50
0.000000E+00
 51
90.000000
  0
ARC
  8
1
 62
     3
  6
CONTINUOUS
 10
-1328.739862
 20
238.027117
 40
3.000000
 50
180.000000
 51
270.000000
  0
ARC
  8
1
 62
     3
  6
CONTINUOUS
 10
-1328.739862
 20
108.027117
 40
3.000000
 50
90.000000
 51
180.000000
  0
ARC
  8
0
 62
     3
  6
CONTINUOUS
 10
-1366.739862
 20
248.786486
 40
35.000000
 50
0.000000E+00
 51
17.716492
  0
LINE
  8
0
 62
     3
  6
CONTINUOUS
 10
-1331.739862
 20
248.786486
 11
-1331.739862
 21
238.027117
  0
LINE
  8
0
 62
     2
  6
CONTINUOUS
 10
-1522.739862
 20
-20.471285
 11
-1417.739862
 21
-20.471285
  0
LINE
  8
3
 62
     3
  6
CENTER
 10
-1417.739862
 20
445.501565
 11
-1417.739862
 21
-7.290674
  0
LINE
  8
3
 62
     3
  6
CONTINUOUS
 10
-1495.478884
 20
255.903002
 11
-1417.739862
 21
255.903002
  0
LINE
  8
3
 62
     3
  6
CONTINUOUS
 10
-1478.709846
 20
352.543100
 11
-1417.739862
 21
352.543100
  0
LINE
  8
3
 62
     3
  6
CONTINUOUS
 10
-1492.739862
 20
433.027117
 11
-1417.739862
 21
433.027117
  0
POINT
  8
0
 62
     3
 10
-1417.739862
 20
363.027117
  0
TEXT
  8
0
 62
     6
 10
-1663.166393
 20
1078.812443
 40
35.000000
 50
0.000000E+00
 41
0.76 
  1
４ＳＦ－　　　－　　　　００　　　　　－Ｐ
 72
     5
 11
-1026.166393
 21
1078.812443
  0
INSERT
  8
0
  2
G2
 10
0
 20
0
  0
LINE
  8
0
 62
     1
  6
CONTINUOUS
 10
-571.000000
 20
469.361184
 11
-571.000000
 21
378.375253
  0
LINE
  8
0
 62
     2
  6
CONTINUOUS
 10
-1312.739862
 20
-28.471285
 11
-1312.739862
 21
-20.471285
  0
LINE
  8
0
 62
     2
  6
CONTINUOUS
 10
-1319.739862
 20
-31.471285
 11
-1319.739862
 21
-29.471285
  0
ARC
  8
0
 62
     2
  6
CONTINUOUS
 10
-1318.739862
 20
-29.471285
 40
1.000000
 50
90.000000
 51
180.000000
  0
LINE
  8
0
 62
     2
  6
CONTINUOUS
 10
-1312.739862
 20
-20.471285
 11
-1417.739862
 21
-20.471285
  0
LINE
  8
0
 62
     2
  6
CONTINUOUS
 10
-1312.739862
 20
-28.471285
 11
-1417.739862
 21
-28.471285
  0
INSERT
  8
0
  2
G3
 10
0
 20
0
  0
INSERT
  8
0
  2
G4
 10
0
 20
0
  0
INSERT
  8
0
  2
G5
 10
0
 20
0
  0
INSERT
  8
0
  2
G6
 10
0
 20
0
  0
ARC
  8
0
 62
     4
  6
CONTINUOUS
 10
-476.000000
 20
535.000000
 40
100.000000
 50
126.038338
 51
143.961662
  0
ARC
  8
3
 62
     3
  6
CONTINUOUS
 10
-476.000000
 20
535.000000
 40
105.000000
 50
170.096801
 51
190.978618
  0
ARC
  8
0
 62
     4
  6
CONTINUOUS
 10
-476.000000
 20
535.000000
 40
100.000000
 50
36.038338
 51
53.961662
  0
ARC
  8
0
 62
     4
  6
CONTINUOUS
 10
-476.000000
 20
535.000000
 40
100.000000
 50
306.038338
 51
323.961662
  0
CIRCLE
  8
3
 62
     4
  6
CONTINUOUS
 10
-476.000000
 20
535.000000
 40
88.000000
  0
LINE
  8
3
 62
     3
  6
CONTINUOUS
 10
-1501.553558
 20
232.780203
 11
-1497.992265
 21
231.325073
  0
LINE
  8
3
 62
     3
  6
CONTINUOUS
 10
-1497.992265
 20
231.325073
 11
-1494.557221
 21
228.595239
  0
LINE
  8
3
 62
     3
  6
CONTINUOUS
 10
-1494.557221
 20
228.595239
 11
-1491.323535
 21
224.650390
  0
LINE
  8
3
 62
     3
  6
CONTINUOUS
 10
-1491.323535
 20
224.650390
 11
-1488.361913
 21
219.576782
  0
LINE
  8
3
 62
     3
  6
CONTINUOUS
 10
-1488.361913
 20
219.576782
 11
-1485.737110
 21
213.485350
  0
LINE
  8
3
 62
     3
  6
CONTINUOUS
 10
-1485.737110
 20
213.485350
 11
-1483.506520
 21
206.509286
  0
LINE
  8
3
 62
     3
  6
CONTINUOUS
 10
-1483.506520
 20
206.509286
 11
-1481.718916
 21
198.801123
  0
LINE
  8
3
 62
     3
  6
CONTINUOUS
 10
-1481.718916
 20
198.801123
 11
-1480.413382
 21
190.529404
  0
LINE
  8
3
 62
     3
  6
CONTINUOUS
 10
-1480.413382
 20
190.529404
 11
-1479.618466
 21
181.874991
  0
LINE
  8
3
 62
     3
  6
CONTINUOUS
 10
-1479.618466
 20
181.874991
 11
-1479.351549
 21
173.027117
  0
LINE
  8
3
 62
     3
  6
CONTINUOUS
 10
-1479.618466
 20
181.874991
 11
-1479.351549
 21
173.027117
  0
ARC
  8
3
 62
     4
  6
CONTINUOUS
 10
-476.000000
 20
535.000000
 40
100.000000
 50
143.109614
 51
216.890386
  0
LINE
  8
3
 62
     4
  6
CONTINUOUS
 10
-567.250931
 20
615.964607
 11
-579.453628
 21
553.061853
  0
ARC
  8
3
 62
     3
  6
CONTINUOUS
 10
-476.000000
 20
535.000000
 40
105.000000
 50
-10.978618
 51
9.903199
  0
ARC
  8
3
 62
     3
  6
CONTINUOUS
 10
-476.000000
 20
535.000000
 40
105.000000
 50
260.096801
 51
279.903199
  0
LINE
  8
3
 62
     4
  6
CONTINUOUS
 10
-567.250931
 20
454.035393
 11
-579.453628
 21
516.938147
  0
LINE
  8
3
 62
     3
  6
CENTER
 10
-407.288243
 20
466.288243
 11
-386.607067
 21
445.607067
  0
LINE
  8
3
 62
     4
  6
CONTINUOUS
 10
-556.964607
 20
443.749069
 11
-494.061853
 21
431.546372
  0
ARC
  8
3
 62
     4
  6
CENTER
 10
-476.000000
 20
535.000000
 40
111.000000
 50
306.265016
 51
322.275712
  0
LINE
  8
3
 62
     3
  6
CENTER
 10
-543.637531
 20
467.362469
 11
-566.149487
 21
444.850513
  0
ARC
  8
3
 62
     4
  6
CENTER
 10
-476.000000
 20
535.000000
 40
111.000000
 50
216.069475
 51
234.182385
  0
ARC
  8
3
 62
     4
  6
CENTER
 10
-476.000000
 20
535.000000
 40
111.000000
 50
124.449115
 51
144.970079
  0
LINE
  8
3
 62
     4
  6
CONTINUOUS
 10
-395.035393
 20
443.749069
 11
-457.938147
 21
431.546372
  0
LINE
  8
3
 62
     4
  6
CONTINUOUS
 10
-495.996478
 20
638.078324
 11
-556.964607
 21
626.250931
  0
LINE
  8
3
 62
     3
  6
CENTER
 10
-543.991228
 20
602.991228
 11
-565.941928
 21
624.941928
  0
LINE
  8
3
 62
     4
  6
CONTINUOUS
 10
-384.749069
 20
454.035393
 11
-372.921676
 21
515.003522
  0
ARC
  8
3
 62
     4
  6
CONTINUOUS
 10
-397.511147
 20
456.511147
 40
13.000000
 50
280.978618
 51
349.021382
  0
ARC
  8
3
 62
     4
  6
CONTINUOUS
 10
-554.488853
 20
456.511147
 40
13.000000
 50
190.978618
 51
259.021382
  0
ARC
  8
3
 62
     4
  6
CONTINUOUS
 10
-554.488853
 20
613.488853
 40
13.000000
 50
100.978618
 51
169.021382
  0
LINE
  8
3
 62
     3
  6
CENTER
 10
-408.014135
 20
602.985865
 11
-386.273441
 21
624.726559
  0
LINE
  8
3
 62
     4
  6
CONTINUOUS
 10
-384.749069
 20
615.964607
 11
-372.546372
 21
553.061853
  0
LINE
  8
3
 62
     4
  6
CONTINUOUS
 10
-395.035393
 20
626.250931
 11
-456.003522
 21
638.078324
  0
ARC
  8
3
 62
     3
  6
CONTINUOUS
 10
-476.000000
 20
535.000000
 40
105.000000
 50
79.021382
 51
100.978618
  0
CIRCLE
  8
3
 62
     3
  6
CONTINUOUS
 10
-476.000000
 20
535.000000
 40
81.000000
  0
ARC
  8
3
 62
     4
  6
CONTINUOUS
 10
-397.511147
 20
613.488853
 40
13.000000
 50
10.978618
 51
79.021382
  0
LINE
  8
3
 62
     3
  6
CENTER
 10
-644.040062
 20
535.000000
 11
-356.104015
 21
535.000000
  0
LINE
  8
3
 62
     3
  6
CENTER
 10
-476.000000
 20
369.906678
 11
-476.000000
 21
709.285408
  0
CIRCLE
  8
3
 62
     4
  6
CONTINUOUS
 10
-554.488853
 20
613.488853
 40
7.000000
  0
CIRCLE
  8
3
 62
     4
  6
CONTINUOUS
 10
-397.511147
 20
613.488853
 40
7.000000
  0
CIRCLE
  8
3
 62
     4
  6
CONTINUOUS
 10
-397.511147
 20
456.511147
 40
7.000000
  0
CIRCLE
  8
3
 62
     4
  6
CONTINUOUS
 10
-554.488853
 20
456.511147
 40
7.000000
  0
ARC
  8
3
 62
     4
  6
CENTER
 10
-476.000000
 20
535.000000
 40
111.000000
 50
37.018997
 51
55.489571
  0
ARC
  8
3
 62
     4
  6
CONTINUOUS
 10
-476.000000
 20
535.000000
 40
100.000000
 50
53.109614
 51
126.890386
  0
ARC
  8
3
 62
     4
  6
CONTINUOUS
 10
-476.000000
 20
535.000000
 40
100.000000
 50
323.109614
 51
396.890386
  0
ARC
  8
3
 62
     4
  6
CONTINUOUS
 10
-476.000000
 20
535.000000
 40
100.000000
 50
233.109614
 51
306.890386
  0
ARC
  8
0
 62
     4
  6
CONTINUOUS
 10
-476.000000
 20
535.000000
 40
100.000000
 50
216.038338
 51
233.961662
  0
TEXT
  8
0
 62
     6
 10
-1480.183521
 20
1078.910129
 40
35.000000
 50
0.000000E+00
 41
0.86 
  1
Ａ
 72
     5
 11
-1445.183521
 21
1078.910129
  0
TEXT
  8
0
 62
     6
 10
-1359.509580
 20
1079.910129
 40
35.000000
 50
0.000000E+00
 41
0.86 
  1
Ｃ
 72
     5
 11
-1324.509580
 21
1079.910129
  0
TEXT
  8
0
 62
     6
 10
-1378.009580
 20
1144.959535
 40
32.000000
 50
0.000000E+00
 41
0.97 
  1
下部
 72
     5
 11
-1306.009580
 21
1144.959535
  0
TEXT
  8
0
 62
     6
 10
-1498.009580
 20
1144.959535
 40
32.000000
 50
0.000000E+00
 41
0.97 
  1
上部
 72
     5
 11
-1426.009580
 21
1144.959535
  0
TEXT
  8
0
 62
     6
 10
-1143.933805
 20
1169.451072
 40
32.000000
 50
0.000000E+00
 41
0.86 
  1
ｂ
 72
     5
 11
-1111.933805
 21
1169.451072
  0
CIRCLE
  8
0
 62
     6
  6
HIDDEN
 10
-1128.802953
 20
1093.777279
 40
20.000000
  0
TEXT
  8
0
 62
     6
 10
-1136.802953
 20
1077.777279
 40
32.000000
 50
0.000000E+00
 41
0.50 
  1
2
 72
     5
 11
-1120.802953
 21
1077.777279
  0
CIRCLE
  8
0
 62
     6
  6
HIDDEN
 10
-1128.802953
 20
1141.810698
 40
20.000000
  0
TEXT
  8
0
 62
     6
 10
-1136.802953
 20
1125.810698
 40
32.000000
 50
0.000000E+00
 41
0.50 
  1
1
 72
     5
 11
-1120.802953
 21
1125.810698
  0
TEXT
  8
0
 62
     6
 10
-501.793661
 20
976.134541
 40
32.000000
 50
0.000000E+00
 41
0.50 
  1
3
 72
     5
 11
-485.793661
 21
976.134541
  0
TEXT
  8
0
 62
     6
 10
-501.793661
 20
1036.134541
 40
32.000000
 50
0.000000E+00
 41
0.50 
  1
2
 72
     5
 11
-485.793661
 21
1036.134541
  0
TEXT
  8
0
 62
     6
 10
-501.793661
 20
1096.134541
 40
32.000000
 50
0.000000E+00
 41
0.50 
  1
1
 72
     5
 11
-485.793661
 21
1096.134541
  0
TEXT
  8
0
 62
     6
 10
-470.705692
 20
979.530401
 40
32.000000
 50
0.000000E+00
 41
0.74 
  1
：％％ｃ７５枝管
 72
     5
 11
-258.705692
 21
979.530401
  0
TEXT
  8
0
 62
     6
 10
-470.705692
 20
1039.530401
 40
32.000000
 50
0.000000E+00
 41
0.74 
  1
：％％ｃ６５枝管
 72
     5
 11
-258.705692
 21
1039.530401
  0
TEXT
  8
0
 62
     6
 10
-470.705692
 20
1099.530401
 40
32.000000
 50
0.000000E+00
 41
0.74 
  1
：％％ｃ５０枝管
 72
     5
 11
-258.705692
 21
1099.530401
  0
TEXT
  8
0
 62
     6
 10
-568.581501
 20
1152.505821
 40
32.000000
 50
0.000000E+00
 41
0.97 
  1
枝管のタイプ（呼び径）
 72
     5
 11
-172.581501
 21
1152.505821
  0
LINE
  8
0
 62
     3
  6
CONTINUOUS
 10
-212.405755
 20
243.646781
 11
-471.764740
 21
243.646781
  0
LINE
  8
3
 62
     3
  6
CONTINUOUS
 10
-1501.095668
 20
113.387137
 11
-1497.590680
 21
114.978260
  0
LINE
  8
3
 62
     3
  6
CONTINUOUS
 10
-1497.590680
 20
114.978260
 11
-1494.217312
 21
117.806573
  0
LINE
  8
3
 62
     3
  6
CONTINUOUS
 10
-1494.217312
 20
117.806573
 11
-1491.047458
 21
121.811796
  0
LINE
  8
3
 62
     3
  6
CONTINUOUS
 10
-1491.047458
 20
121.811796
 11
-1488.148679
 21
126.908567
  0
LINE
  8
3
 62
     3
  6
CONTINUOUS
 10
-1488.148679
 20
126.908567
 11
-1485.582755
 21
132.988258
  0
LINE
  8
3
 62
     3
  6
CONTINUOUS
 10
-1485.582755
 20
132.988258
 11
-1483.404373
 21
139.921294
  0
LINE
  8
3
 62
     3
  6
CONTINUOUS
 10
-1483.404373
 20
139.921294
 11
-1481.659962
 21
147.559912
  0
LINE
  8
3
 62
     3
  6
CONTINUOUS
 10
-1481.659962
 20
147.559912
 11
-1480.386699
 21
155.741310
  0
LINE
  8
3
 62
     3
  6
CONTINUOUS
 10
-1480.386699
 20
155.741310
 11
-1479.611723
 21
164.291118
  0
LINE
  8
3
 62
     3
  6
CONTINUOUS
 10
-1479.611723
 20
164.291118
 11
-1479.351549
 21
173.027117
  0
LINE
  8
3
 62
     3
  6
CONTINUOUS
 10
-1479.611723
 20
164.291118
 11
-1479.351549
 21
173.027117
  0
ARC
  8
1
 62
     3
  6
CONTINUOUS
 10
-1510.739862
 20
113.027117
 40
2.000000
 50
180.000000
 51
270.000000
  0
LINE
  8
1
 62
     3
  6
CONTINUOUS
 10
-1510.739862
 20
235.027117
 11
-1507.239862
 21
235.027117
  0
LINE
  8
1
 62
     3
  6
CONTINUOUS
 10
-1510.739862
 20
111.027117
 11
-1507.239862
 21
111.027117
  0
ARC
  8
1
 62
     3
  6
CONTINUOUS
 10
-1510.739862
 20
233.027117
 40
2.000000
 50
90.000000
 51
180.000000
  0
ARC
  8
1
 62
     3
  6
CONTINUOUS
 10
-1507.239862
 20
238.027117
 40
3.000000
 50
270.000000
 51
360.000000
  0
TEXT
  8
0
 62
     3
 10
-472.405755
 20
248.980114
 40
32.000000
 50
360.000000
 41
0.87 
  1
Ｃ矢視　（下部）
 72
     5
 11
-216.405755
 21
248.980114
  0
ARC
  8
1
 62
     3
  6
CONTINUOUS
 10
-1507.239862
 20
108.027117
 40
3.000000
 50
0.000000E+00
 51
90.000000
  0
TEXT
  8
0
 62
     3
 10
-520.875371
 20
650.840447
 40
32.000000
 50
0.000000E+00
 41
0.86 
  1
ｂ
 72
     5
 11
-488.875371
 21
650.840447
  0
TEXT
  8
0
 62
     6
 10
-1001.412371
 20
1098.485825
 40
35.000000
 50
0.000000E+00
 41
0.60 
  1
240,260,280
 72
     5
 11
-768.912371
 21
1098.485825
  0
TEXT
  8
0
 62
     6
 10
-999.551869
 20
1056.370812
 40
35.000000
 50
0.000000E+00
 41
0.60 
  1
300,340,360
 72
     5
 11
-767.051869
 21
1056.370812
  0
INSERT
  8
0
  2
G7
 10
0
 20
0
  0
LINE
  8
0
 62
     3
  6
CONTINUOUS
 10
-333.494341
 20
689.142362
 11
-333.494341
 21
784.841977
  0
SOLID
  8
0
 62
     3
 10
-341.258913
 20
718.120137
 11
-325.729770
 21
718.120137
 12
-333.494341
 22
689.142362
 13
-333.494341
 23
689.142362
  0
TEXT
  8
0
 62
     3
 10
-354.520664
 20
791.557202
 40
32.000000
 50
0.000000E+00
 41
1.02 
  1
受口深さ
 72
     5
 11
-202.520664
 21
791.557202
  0
CIRCLE
  8
0
 62
     6
  6
HIDDEN
 10
-1188.802953
 20
1093.777279
 40
20.000000
  0
TEXT
  8
0
 62
     6
 10
-1196.802953
 20
1077.777279
 40
32.000000
 50
0.000000E+00
 41
0.50 
  1
2
 72
     5
 11
-1180.802953
 21
1077.777279
  0
CIRCLE
  8
0
 62
     6
  6
HIDDEN
 10
-1188.802953
 20
1141.810698
 40
20.000000
  0
TEXT
  8
0
 62
     6
 10
-1196.802953
 20
1125.810698
 40
32.000000
 50
0.000000E+00
 41
0.50 
  1
1
 72
     5
 11
-1180.802953
 21
1125.810698
  0
TEXT
  8
0
 62
     3
 10
-619.116797
 20
556.647865
 40
32.000000
 50
0.000000E+00
 41
0.86 
  1
ａ
 72
     5
 11
-587.116797
 21
556.647865
  0
INSERT
  8
0
  2
G8
 10
0
 20
0
  0
LINE
  8
0
 62
     1
  6
CONTINUOUS
 10
-476.000000
 20
310.375253
 11
-476.000000
 21
421.233863
  0
INSERT
  8
0
  2
G9
 10
0
 20
0
  0
INSERT
  8
0
  2
G10
 10
0
 20
0
  0
LINE
  8
0
 62
     3
  6
CONTINUOUS
 10
-1018.581081
 20
440.359991
 11
-1018.581081
 21
503.197829
  0
SOLID
  8
0
 62
     3
 10
-1026.345652
 20
469.337766
 11
-1010.816510
 21
469.337766
 12
-1018.581081
 22
440.359991
 13
-1018.581081
 23
440.359991
  0
INSERT
  8
0
  2
G11
 10
0
 20
0
  0
LINE
  8
3
 62
     3
  6
CENTER
 10
-1417.739862
 20
788.830428
 11
-1417.739862
 21
588.290816
  0
LINE
  8
3
 62
     3
  6
CENTER
 10
-1252.263693
 20
690.389268
 11
-1523.933185
 21
690.389268
  0
CIRCLE
  8
0
 62
     3
  6
CONTINUOUS
 10
-1417.739862
 20
690.389268
 40
75.000000
  0
LINE
  8
3
 62
     3
  6
CONTINUOUS
 10
-1262.739862
 20
750.389268
 11
-1322.739862
 21
750.389268
  0
LINE
  8
3
 62
     3
  6
CONTINUOUS
 10
-1262.739862
 20
627.889268
 11
-1262.739862
 21
750.389268
  0
LINE
  8
3
 62
     3
  6
CONTINUOUS
 10
-1262.739862
 20
627.889268
 11
-1257.739862
 21
627.889268
  0
LINE
  8
3
 62
     3
  6
CONTINUOUS
 10
-1262.739862
 20
752.889268
 11
-1257.739862
 21
752.889268
  0
LINE
  8
3
 62
     3
  6
CONTINUOUS
 10
-1262.739862
 20
752.889268
 11
-1262.739862
 21
750.389268
  0
LINE
  8
3
 62
     3
  6
CONTINUOUS
 10
-1257.739862
 20
752.889268
 11
-1257.739862
 21
627.889268
  0
LINE
  8
3
 62
     3
  6
CONTINUOUS
 10
-1262.739862
 20
630.389268
 11
-1322.739862
 21
630.389268
  0
LINE
  8
0
 62
     3
  6
CONTINUOUS
 10
-1322.739862
 20
750.389268
 11
-1322.739862
 21
630.389268
  0
LINE
  8
0
 62
     3
  6
CONTINUOUS
 10
-1324.739862
 20
752.389268
 11
-1352.739862
 21
752.389268
  0
ARC
  8
0
 62
     3
  6
CONTINUOUS
 10
-1324.739862
 20
750.389268
 40
2.000000
 50
0.000000E+00
 51
90.000000
  0
LINE
  8
0
 62
     3
  6
CONTINUOUS
 10
-1324.739862
 20
628.389268
 11
-1357.421954
 21
628.389268
  0
ARC
  8
0
 62
     3
  6
CONTINUOUS
 10
-1324.739862
 20
630.389268
 40
2.000000
 50
-90.000000
 51
0.000000E+00
  0
CIRCLE
  8
0
 62
     3
  6
CONTINUOUS
 10
-1417.739862
 20
690.389268
 40
52.000000
  0
CIRCLE
  8
0
 62
     3
  6
CONTINUOUS
 10
-1417.739862
 20
690.389268
 40
67.000000
  0
ARC
  8
0
 62
     3
  6
CONTINUOUS
 10
-1482.739862
 20
755.389268
 40
3.000000
 50
-90.000000
 51
0.000000E+00
  0
ARC
  8
0
 62
     3
  6
CONTINUOUS
 10
-1352.739862
 20
755.389268
 40
3.000000
 50
180.000000
 51
270.000000
  0
LINE
  8
0
 62
     3
  6
CONTINUOUS
 10
-1512.739862
 20
630.389268
 11
-1512.739862
 21
750.389268
  0
LINE
  8
0
 62
     3
  6
CONTINUOUS
 10
-1510.739862
 20
628.389268
 11
-1478.057769
 21
628.389268
  0
ARC
  8
0
 62
     3
  6
CONTINUOUS
 10
-1510.739862
 20
630.389268
 40
2.000000
 50
180.000000
 51
270.000000
  0
LINE
  8
0
 62
     3
  6
CONTINUOUS
 10
-1510.739862
 20
752.389268
 11
-1482.739862
 21
752.389268
  0
ARC
  8
0
 62
     3
  6
CONTINUOUS
 10
-1510.739862
 20
750.389268
 40
2.000000
 50
90.000000
 51
180.000000
  0
LINE
  8
0
 62
     3
  6
CONTINUOUS
 10
-1357.739862
 20
785.389268
 11
-1477.739862
 21
785.389268
  0
LINE
  8
0
 62
     3
  6
CONTINUOUS
 10
-1355.739862
 20
783.389268
 11
-1355.739862
 21
755.389268
  0
ARC
  8
0
 62
     3
  6
CONTINUOUS
 10
-1357.739862
 20
783.389268
 40
2.000000
 50
0.000000E+00
 51
90.000000
  0
LINE
  8
0
 62
     3
  6
CONTINUOUS
 10
-1479.739862
 20
783.389268
 11
-1479.739862
 21
755.389268
  0
ARC
  8
0
 62
     3
  6
CONTINUOUS
 10
-1477.739862
 20
783.389268
 40
2.000000
 50
90.000000
 51
180.000000
  0
INSERT
  8
0
  2
G12
 10
0
 20
0
  0
INSERT
  8
0
  2
G13
 10
0
 20
0
  0
INSERT
  8
0
  2
G14
 10
0
 20
0
  0
CIRCLE
  8
0
 62
     3
  6
CONTINUOUS
 10
-1417.739862
 20
690.389268
 40
86.000000
  0
INSERT
  8
0
  2
G15
 10
0
 20
0
  0
LINE
  8
0
 62
     1
  6
CONTINUOUS
 10
-1165.176735
 20
690.389268
 11
-1114.485175
 21
690.389268
  0
LINE
  8
0
 62
     1
  6
CONTINUOUS
 10
-1242.263693
 20
690.389268
 11
-1227.258997
 21
690.389268
  0
INSERT
  8
0
  2
G16
 10
0
 20
0
  0
INSERT
  8
0
  2
G17
 10
0
 20
0
  0
LINE
  8
0
 62
     1
  6
CONTINUOUS
 10
-1180.662948
 20
173.027117
 11
-1163.786954
 21
173.027117
  0
LINE
  8
0
 62
     1
  6
CONTINUOUS
 10
-1050.662948
 20
173.027117
 11
-1180.662948
 21
173.027117
  0
INSERT
  8
0
  2
G18
 10
0
 20
0
  0
INSERT
  8
0
  2
G19
 10
0
 20
0
  0
INSERT
  8
0
  2
G20
 10
0
 20
0
  0
INSERT
  8
0
  2
G21
 10
0
 20
0
  0
INSERT
  8
0
  2
G22
 10
0
 20
0
  0
INSERT
  8
0
  2
G23
 10
0
 20
0
  0
INSERT
  8
0
  2
G24
 10
0
 20
0
  0
LINE
  8
0
 62
     7
  6
CONTINUOUS
 10
-1270.260304
 20
279.111644
 11
-1270.260304
 21
237.327305
  0
SOLID
  8
0
 62
     7
 10
-1278.024875
 20
266.305080
 11
-1262.495733
 21
266.305080
 12
-1270.260304
 22
237.327305
 13
-1270.260304
 23
237.327305
  0
TEXT
  8
0
 62
     7
 10
-1303.885785
 20
287.847523
 40
32.000000
 50
0.000000E+00
 41
0.78 
  1
７５枝管
 72
     5
 11
-1191.885785
 21
287.847523
  0
LINE
  8
0
 62
     3
  6
CONTINUOUS
 10
-630.580873
 20
404.623855
 11
-711.107189
 21
404.623855
  0
SOLID
  8
0
 62
     3
 10
-659.558648
 20
396.859283
 11
-659.558648
 21
412.388426
 12
-630.580873
 22
404.623855
 13
-630.580873
 23
404.623855
  0
LINE
  8
0
 62
     3
  6
CONTINUOUS
 10
-711.107189
 20
404.623855
 11
-711.107189
 21
310.946063
  0
INSERT
  8
0
  2
G25
 10
0
 20
0
  0
LINE
  8
0
 62
     3
  6
CONTINUOUS
 10
-741.325417
 20
385.707959
 11
-636.000000
 21
472.500000
  0
SOLID
  8
0
 62
     3
 10
-653.425443
 20
448.079641
 11
-663.301056
 21
460.064070
 12
-636.000000
 22
472.500000
 13
-636.000000
 23
472.500000
  0
INSERT
  8
0
  2
G26
 10
0
 20
0
  0
LINE
  8
0
 62
     3
  6
CONTINUOUS
 10
-640.868100
 20
847.862965
 11
-509.126507
 21
695.536551
  0
SOLID
  8
0
 62
     3
 10
-533.955200
 20
712.375079
 11
-522.209521
 21
722.533490
 12
-509.126507
 22
695.536551
 13
-509.126507
 23
695.536551
  0
INSERT
  8
0
  2
G27
 10
0
 20
0
  0
INSERT
  8
0
  2
G28
 10
0
 20
0
  0
INSERT
  8
0
  2
G29
 10
0
 20
0
  0
TEXT
  8
0
 62
     3
 10
-888.446385
 20
-905.435816
 40
32.000000
 50
0.000000E+00
 41
0.94 
  1
対応可能Ｐ寸法　２４０～３６０
 72
     5
 11
-362.732077
 21
-905.435816
  0
LINE
  8
0
 62
     2
  6
CONTINUOUS
 10
-955.287581
 20
-844.718354
 11
-175.885661
 21
-844.718354
  0
TEXT
  8
0
 62
     2
 10
-466.779569
 20
-817.414104
 40
30.000000
 50
0.000000E+00
 41
0.61 
  1
925
 72
     5
 11
-411.779569
 21
-817.414104
  0
TEXT
  8
0
 62
     2
 10
-569.578809
 20
-817.414104
 40
30.000000
 50
0.000000E+00
 41
0.61 
  1
905
 72
     5
 11
-514.578809
 21
-817.414104
  0
TEXT
  8
0
 62
     2
 10
-669.031289
 20
-815.686968
 40
30.000000
 50
0.000000E+00
 41
0.61 
  1
885
 72
     5
 11
-614.031289
 21
-815.686968
  0
TEXT
  8
0
 62
     2
 10
-363.270329
 20
-815.686968
 40
30.000000
 50
0.000000E+00
 41
0.61 
  1
965
 72
     5
 11
-308.270329
 21
-815.686968
  0
TEXT
  8
0
 62
     2
 10
-770.950969
 20
-724.246968
 40
30.000000
 50
0.000000E+00
 41
0.61 
  1
790
 72
     5
 11
-715.950969
 21
-724.246968
  0
TEXT
  8
0
 62
     2
 10
-258.817849
 20
-817.414104
 40
30.000000
 50
0.000000E+00
 41
0.61 
  1
985
 72
     5
 11
-203.817849
 21
-817.414104
  0
TEXT
  8
0
 62
     2
 10
-770.950969
 20
-815.686968
 40
30.000000
 50
0.000000E+00
 41
0.61 
  1
865
 72
     5
 11
-715.950969
 21
-815.686968
  0
TEXT
  8
0
 62
     2
 10
-363.509314
 20
-647.803154
 40
30.000000
 50
0.000000E+00
 41
0.61 
  1
340
 72
     5
 11
-308.509314
 21
-647.803154
  0
TEXT
  8
0
 62
     2
 10
-465.429954
 20
-647.803154
 40
30.000000
 50
0.000000E+00
 41
0.61 
  1
300
 72
     5
 11
-410.429954
 21
-647.803154
  0
TEXT
  8
0
 62
     2
 10
-567.350594
 20
-647.803154
 40
30.000000
 50
0.000000E+00
 41
0.61 
  1
280
 72
     5
 11
-512.350594
 21
-647.803154
  0
TEXT
  8
0
 62
     2
 10
-771.189954
 20
-647.803154
 40
30.000000
 50
0.000000E+00
 41
0.61 
  1
240
 72
     5
 11
-716.189954
 21
-647.803154
  0
LINE
  8
0
 62
     2
  6
CONTINUOUS
 10
-389.725981
 20
-600.398354
 11
-389.725981
 21
-844.718354
  0
TEXT
  8
0
 62
     2
 10
-944.759477
 20
-811.372275
 40
30.000000
 50
0.000000E+00
 41
0.72 
  1
Ｌｔ（全長）
 72
     5
 11
-794.759477
 21
-811.372275
  0
LINE
  8
0
 62
     2
  6
CONTINUOUS
 10
-955.287581
 20
-753.278354
 11
-175.885661
 21
-753.278354
  0
TEXT
  8
0
 62
     2
 10
-258.817849
 20
-725.974104
 40
30.000000
 50
0.000000E+00
 41
0.61 
  1
910
 72
     5
 11
-203.817849
 21
-725.974104
  0
LINE
  8
0
 62
     2
  6
CONTINUOUS
 10
-955.287581
 20
-600.398354
 11
-175.885661
 21
-600.398354
  0
TEXT
  8
0
 62
     2
 10
-363.270329
 20
-724.246968
 40
30.000000
 50
0.000000E+00
 41
0.61 
  1
890
 72
     5
 11
-308.270329
 21
-724.246968
  0
LINE
  8
0
 62
     2
  6
CONTINUOUS
 10
-797.406621
 20
-600.398354
 11
-797.406621
 21
-844.718354
  0
LINE
  8
0
 62
     2
  6
CONTINUOUS
 10
-695.486941
 20
-600.398354
 11
-695.486941
 21
-844.718354
  0
LINE
  8
0
 62
     2
  6
CONTINUOUS
 10
-593.567261
 20
-600.398354
 11
-593.567261
 21
-844.718354
  0
LINE
  8
0
 62
     2
  6
CONTINUOUS
 10
-491.646621
 20
-600.398354
 11
-491.646621
 21
-844.718354
  0
LINE
  8
0
 62
     2
  6
CONTINUOUS
 10
-175.885661
 20
-600.398354
 11
-175.885661
 21
-844.718354
  0
LINE
  8
0
 62
     2
  6
CONTINUOUS
 10
-287.806301
 20
-600.398354
 11
-287.806301
 21
-844.718354
  0
TEXT
  8
0
 62
     2
 10
-256.589634
 20
-647.803154
 40
30.000000
 50
0.000000E+00
 41
0.61 
  1
360
 72
     5
 11
-201.589634
 21
-647.803154
  0
LINE
  8
0
 62
     2
  6
CONTINUOUS
 10
-955.287581
 20
-661.838354
 11
-175.885661
 21
-661.838354
  0
TEXT
  8
0
 62
     2
 10
-944.759477
 20
-719.932275
 40
30.000000
 50
0.000000E+00
 41
0.72 
  1
Ｌ（有効長）
 72
     5
 11
-794.759477
 21
-719.932275
  0
LINE
  8
0
 62
     2
  6
CONTINUOUS
 10
-955.287581
 20
-600.398354
 11
-955.287581
 21
-844.718354
  0
LINE
  8
0
 62
     2
  6
CONTINUOUS
 10
-177.458899
 20
-613.635403
 11
-177.458899
 21
-613.635595
  0
TEXT
  8
0
 62
     2
 10
-669.031289
 20
-724.246968
 40
30.000000
 50
0.000000E+00
 41
0.61 
  1
810
 72
     5
 11
-614.031289
 21
-724.246968
  0
TEXT
  8
0
 62
     2
 10
-569.578809
 20
-725.974104
 40
30.000000
 50
0.000000E+00
 41
0.61 
  1
830
 72
     5
 11
-514.578809
 21
-725.974104
  0
TEXT
  8
0
 62
     2
 10
-669.270274
 20
-647.803154
 40
30.000000
 50
0.000000E+00
 41
0.61 
  1
260
 72
     5
 11
-614.270274
 21
-647.803154
  0
TEXT
  8
0
 62
     2
 10
-885.718483
 20
-647.782743
 40
30.000000
 50
0.000000E+00
 41
0.86 
  1
Ｐ
 72
     5
 11
-855.718483
 21
-647.782743
  0
TEXT
  8
0
 62
     2
 10
-466.779569
 20
-725.974104
 40
30.000000
 50
0.000000E+00
 41
0.61 
  1
850
 72
     5
 11
-411.779569
 21
-725.974104
  0
TEXT
  8
0
 62
     2
 10
-251.589634
 20
-546.363154
 40
30.000000
 50
0.000000E+00
 41
0.58 
  1
44
 72
     5
 11
-216.589634
 21
-546.363154
  0
TEXT
  8
0
 62
     2
 10
-363.510274
 20
-546.363154
 40
30.000000
 50
0.000000E+00
 41
0.58 
  1
52
 72
     5
 11
-328.510274
 21
-546.363154
  0
TEXT
  8
0
 62
     2
 10
-462.501526
 20
-363.746137
 40
25.600000
 50
0.000000E+00
 41
0.55 
  1
100
 72
     5
 11
-420.444381
 21
-363.746137
  0
TEXT
  8
0
 62
     2
 10
-479.031820
 20
-325.061429
 40
18.400000
 50
0.000000E+00
 41
0.89 
  1
立管受口
 72
     5
 11
-403.031821
 21
-325.061429
  0
TEXT
  8
0
 62
     2
 10
-251.589634
 20
-423.483154
 40
30.000000
 50
0.000000E+00
 41
0.58 
  1
65
 72
     5
 11
-216.589634
 21
-423.483154
  0
TEXT
  8
0
 62
     2
 10
-363.510274
 20
-423.483154
 40
30.000000
 50
0.000000E+00
 41
0.58 
  1
65
 72
     5
 11
-328.510274
 21
-423.483154
  0
TEXT
  8
0
 62
     2
 10
-455.429954
 20
-423.483154
 40
30.000000
 50
0.000000E+00
 41
0.58 
  1
75
 72
     5
 11
-420.429954
 21
-423.483154
  0
LINE
  8
0
 62
     2
  6
CONTINUOUS
 10
-399.726941
 20
-498.958354
 11
-481.646621
 21
-560.398354
  0
LINE
  8
0
 62
     2
  6
CONTINUOUS
 10
-175.885661
 20
-294.153298
 11
-175.885661
 21
-560.398354
  0
TEXT
  8
0
 62
     2
 10
-592.749477
 20
-542.052275
 40
30.000000
 50
0.000000E+00
 41
0.86 
  1
Ｂ寸法
 72
     5
 11
-502.749477
 21
-542.052275
  0
LINE
  8
0
 62
     2
  6
CONTINUOUS
 10
-604.527581
 20
-498.958354
 11
-175.885661
 21
-498.958354
  0
LINE
  8
0
 62
     2
  6
CONTINUOUS
 10
-399.726941
 20
-335.118322
 11
-175.885661
 21
-335.118322
  0
LINE
  8
0
 62
     2
  6
CONTINUOUS
 10
-604.527581
 20
-376.078354
 11
-175.885661
 21
-376.078354
  0
TEXT
  8
0
 62
     2
 10
-388.512732
 20
-330.204987
 40
30.000000
 50
0.000000E+00
 41
0.72 
  1
下部横枝管サイズ
 72
     5
 11
-188.512732
 21
-330.204987
  0
LINE
  8
0
 62
     2
  6
CONTINUOUS
 10
-481.646621
 20
-295.392178
 11
-481.646621
 21
-560.398354
  0
LINE
  8
0
 62
     2
  6
CONTINUOUS
 10
-399.726941
 20
-295.392178
 11
-399.726941
 21
-560.398354
  0
LINE
  8
0
 62
     2
  6
CONTINUOUS
 10
-399.726941
 20
-437.518354
 11
-481.646621
 21
-498.958354
  0
LINE
  8
0
 62
     2
  6
CONTINUOUS
 10
-287.806301
 20
-335.118514
 11
-287.806301
 21
-560.398354
  0
LINE
  8
0
 62
     2
  6
CONTINUOUS
 10
-604.527581
 20
-560.398354
 11
-175.885661
 21
-560.398354
  0
TEXT
  8
0
 62
     2
 10
-383.464355
 20
-370.283621
 40
30.000000
 50
0.000000E+00
 41
0.63 
  1
65(2)
 72
     5
 11
-288.464355
 21
-370.283621
  0
TEXT
  8
0
 62
     2
 10
-271.543715
 20
-370.283621
 40
30.000000
 50
0.000000E+00
 41
0.63 
  1
50(1)
 72
     5
 11
-176.543715
 21
-370.283621
  0
LINE
  8
0
 62
     2
  6
CONTINUOUS
 10
-604.527581
 20
-335.118322
 11
-604.527581
 21
-560.398354
  0
LINE
  8
0
 62
     2
  6
CONTINUOUS
 10
-604.527581
 20
-437.518354
 11
-175.885661
 21
-437.518354
  0
TEXT
  8
0
 62
     2
 10
-592.749477
 20
-480.612275
 40
30.000000
 50
0.000000E+00
 41
0.86 
  1
Ａ寸法
 72
     5
 11
-502.749477
 21
-480.612275
  0
LINE
  8
0
 62
     2
  6
CONTINUOUS
 10
-604.527581
 20
-335.118322
 11
-604.527581
 21
-294.153298
  0
LINE
  8
0
 62
     2
  6
CONTINUOUS
 10
-604.527581
 20
-294.153298
 11
-175.885661
 21
-294.153298
  0
LINE
  8
0
 62
     2
  6
CONTINUOUS
 10
-205.886621
 20
-335.118322
 11
-205.886621
 21
-335.118514
  0
TEXT
  8
0
 62
     2
 10
-375.738489
 20
-484.923154
 40
30.000000
 50
0.000000E+00
 41
0.61 
  1
110
 72
     5
 11
-320.738489
 21
-484.923154
  0
TEXT
  8
0
 62
     2
 10
-599.958483
 20
-423.462743
 40
30.000000
 50
0.000000E+00
 41
0.86 
  1
受口深さ
 72
     5
 11
-479.958483
 21
-423.462743
  0
LINE
  8
0
 62
     2
  6
CONTINUOUS
 10
-604.527581
 20
-294.153298
 11
-481.646621
 21
-376.078354
  0
TEXT
  8
0
 62
     2
 10
-251.589634
 20
-484.923154
 40
30.000000
 50
0.000000E+00
 41
0.58 
  1
94
 72
     5
 11
-216.589634
 21
-484.923154
  0
INSERT
  8
0
  2
G30
 10
0
 20
0
  0
INSERT
  8
0
  2
G31
 10
0
 20
0
  0
INSERT
  8
0
  2
G32
 10
0
 20
0
  0
CIRCLE
  8
0
 62
     2
  6
HIDDEN
 10
-1417.739862
 20
-126.972883
 40
62.000000
  0
LINE
  8
0
 62
     2
  6
HIDDEN
 10
-1399.823739
 20
-186.473004
 11
-1435.655985
 21
-186.473004
  0
CIRCLE
  8
0
 62
     2
  6
HIDDEN
 10
-1417.739862
 20
-134.472883
 40
47.000000
  0
ARC
  8
0
 62
     2
  6
HIDDEN
 10
-1417.739862
 20
-134.472883
 40
55.000000
 50
289.010880
 51
610.989120
  0
LINE
  8
0
 62
     2
  6
CENTER
 10
-1489.453040
 20
-134.472883
 11
-1351.741640
 21
-134.472883
  0
CIRCLE
  8
0
 62
     2
  6
HIDDEN
 10
-1417.739862
 20
-134.472883
 40
35.000000
  0
INSERT
  8
0
  2
G33
 10
0
 20
0
  0
INSERT
  8
0
  2
G34
 10
0
 20
0
  0
INSERT
  8
0
  2
G35
 10
0
 20
0
  0
INSERT
  8
0
  2
G36
 10
0
 20
0
  0
INSERT
  8
0
  2
G37
 10
0
 20
0
  0
INSERT
  8
0
  2
G38
 10
0
 20
0
  0
INSERT
  8
0
  2
G39
 10
0
 20
0
  0
INSERT
  8
0
  2
G40
 10
0
 20
0
  0
ENDSEC
  0
EOF
