  0
SECTION
  2
HEADER
  9
$INSBASE
 10
0
 20
0
  9
$EXTMIN
 10
0
 20
0
  9
$EXTMAX
 10
4200.000000
 20
2970.000000
  9
$LIMMIN
 10
0
 20
0
  9
$LIMMAX
 10
4200.000000
 20
2970.000000
  9
$VIEWCTR
 10
2100.000000
 20
1485.000000
  9
$DIMASZ
 40
20.000000
  9
$DIMDLI
 40
80.000000
  9
$DIMEXE
 40
10.000000
  9
$DIMEXO
 40
10.000000
  9
$DIMTXT
 40
32.000000
  9
$TEXTSIZE
 40
32.000000
  9
$ANGBASE
 50
0.0
  9
$ANGDIR
 70
     0
  9
$ATTMODE
 70
     1
  9
$AUNITS
 70
     1
  9
$AUPREC
 70
     2
  9
$AXISMODE
 70
     0
  9
$AXISUNIT
 10
0.0
 20
0.0
  9
$BLIPMODE
 70
     1
  9
$CECOLOR
 62
   256
  9
$CELTYPE
  6
BYLAYER
  9
$CHAMFERA
 40
0.0
  9
$CHAMFERB
 40
0.0
  9
$CLAYER
  8
0
  9
$COORDS
 70
     0
  9
$DIMALT
 70
     0
  9
$DIMALTD
 70
     2
  9
$DIMALTF
 40
25.4
  9
$DIMDLE
 40
0.0
  9
$DIMLFAC
 40
1.0
  9
$DIMLIM
 70
     0
  9
$DIMRND
 40
0.0
  9
$DIMSCALE
 40
1.0
  9
$DIMSE1
 70
     0
  9
$DIMSE2
 70
     0
  9
$DIMTAD
 70
     1
  9
$DIMTIH
 70
     0
  9
$DIMTM
 40
0.0
  9
$DIMTOH
 70
     0
  9
$DIMTOL
 70
     0
  9
$DIMTP
 40
0.0
  9
$DIMTSZ
 40
0.0
  9
$DIMZIN
 70
     0
  9
$DRAGMODE
 70
     2
  9
$ELEVATION
 40
0.0
  9
$FASTZOOM
 70
     1
  9
$FILLETRAD
 40
0.0
  9
$FILLMODE
 70
     1
  9
$GRIDMODE
 70
     0
  9
$GRIDUNIT
 10
0.0
 20
0.0
  9
$LTSCALE
 40
1.0
  9
$LUNITS
 70
     2
  9
$LUPREC
 70
     2
  9
$MENU
  1
ACAD
  9
$ORTHOMODE
 70
     0
  9
$OSMODE
 70
     0
  9
$PDMODE
 70
     0
  9
$PDSIZE
 40
0.0
  9
$PLINEWID
 40
0.0
  9
$QTEXTMODE
 70
     0
  9
$REGENMODE
 70
     1
  9
$SKETCHINC
 40
0.1
  9
$SKPOLY
 70
     0
  9
$SNAPBASE
 10
0.0
 20
0.0
  9
$SNAPISOPAIR
 70
     0
  9
$SNAPMODE
 70
     0
  9
$SNAPSTYLE
 70
     0
  9
$SNAPUNIT
 10
0.0
 20
0.0
  9
$TEXTSTYLE
  7
KANJI
  9
$THICKNESS
 40
0.0
  9
$TRACEWID
 40
0.05
  9
$VIEWDIR
 10
0.0
 20
0.0
 30
1.0
  9
$VIEWSIZE
 40
0.0
  0
ENDSEC
  0
SECTION
  2
TABLES
  0
TABLE
  2
LTYPE
 70
     9
  0
LTYPE
  2
CONTINUOUS
 70
    64
  3
Solid line
 72
    65
 73
     0
 40
0.0
  0
LTYPE
  2
DASHED
 70
    64
  3
__ __ __ __ __ __ __ __ __ __ __ __ __ __ __
 72
    65
 73
     2
 40
0.75
 49
0.5
 49
-0.25
  0
LTYPE
  2
HIDDEN
 70
    64
  3
_ _ _ _ _ _ _ _ _ _ _ _ _ _ _ _ _ _ _ _ _ _ _
 72
    65
 73
     2
 40
0.375
 49
0.25
 49
-0.125
  0
LTYPE
  2
CENTER
 70
    64
  3
____ _ ____ _ ____ _ ____ _ ____ _ ____ _ ____
 72
    65
 73
     4
 40
2.0
 49
1.25
 49
-0.25
 49
0.25
 49
-0.25
  0
LTYPE
  2
PHANTOM
 70
    64
  3
_____ _ _ _____ _ _ _____ _ _ _____ _ _ ____
 72
    65
 73
     6
 40
2.5
 49
1.25
 49
-0.25
 49
0.25
 49
-0.25
 49
0.25
 49
-0.25
  0
LTYPE
  2
DOT
 70
    64
  3
...............................................
 72
    65
 73
     2
 40
0.25
 49
0.0
 49
-0.25
  0
LTYPE
  2
DASHDOT
 70
    64
  3
__ . __ . __ . __ . __ . __ . __ . __ . __ . __
 72
    65
 73
     4
 40
1.0
 49
0.5
 49
-0.25
 49
0.0
 49
-0.25
  0
LTYPE
  2
BORDER
 70
    64
  3
__ __ . __ __ . __ __ . __ __ . __ __ . __ __
 72
    65
 73
     6
 40
1.75
 49
0.5
 49
-0.25
 49
0.5
 49
-0.25
 49
0.0
 49
-0.25
  0
LTYPE
  2
DIVIDE
 70
    64
  3
__ . . __ . . __ . . __ . . __ . . __ . . __
 72
    65
 73
     6
 40
1.25
 49
0.5
 49
-0.25
 49
0.0
 49
-0.25
 49
0.0
 49
-0.25
  0
ENDTAB
  0
TABLE
  2
LAYER
 70
   100
  0
LAYER
  2
0
 70
     0
 62
     3
  6
CONTINUOUS
  0
LAYER
  2
1
 70
     0
 62
     3
  6
CONTINUOUS
  0
LAYER
  2
2
 70
     0
 62
     3
  6
CONTINUOUS
  0
LAYER
  2
3
 70
     0
 62
     3
  6
CONTINUOUS
  0
LAYER
  2
4
 70
     0
 62
     3
  6
CONTINUOUS
  0
LAYER
  2
5
 70
     0
 62
     3
  6
CONTINUOUS
  0
LAYER
  2
6
 70
     0
 62
     3
  6
CONTINUOUS
  0
LAYER
  2
7
 70
     0
 62
     3
  6
CONTINUOUS
  0
LAYER
  2
8
 70
     0
 62
     3
  6
CONTINUOUS
  0
LAYER
  2
9
 70
     0
 62
     3
  6
CONTINUOUS
  0
LAYER
  2
10
 70
     0
 62
     3
  6
CONTINUOUS
  0
LAYER
  2
11
 70
     0
 62
     3
  6
CONTINUOUS
  0
LAYER
  2
12
 70
     0
 62
     3
  6
CONTINUOUS
  0
LAYER
  2
13
 70
     0
 62
     3
  6
CONTINUOUS
  0
LAYER
  2
14
 70
     0
 62
     3
  6
CONTINUOUS
  0
LAYER
  2
15
 70
     0
 62
     3
  6
CONTINUOUS
  0
LAYER
  2
16
 70
     0
 62
     3
  6
CONTINUOUS
  0
LAYER
  2
17
 70
     0
 62
     3
  6
CONTINUOUS
  0
LAYER
  2
18
 70
     0
 62
     3
  6
CONTINUOUS
  0
LAYER
  2
19
 70
     0
 62
     3
  6
CONTINUOUS
  0
LAYER
  2
20
 70
     0
 62
     3
  6
CONTINUOUS
  0
LAYER
  2
21
 70
     0
 62
     3
  6
CONTINUOUS
  0
LAYER
  2
22
 70
     0
 62
     3
  6
CONTINUOUS
  0
LAYER
  2
23
 70
     0
 62
     3
  6
CONTINUOUS
  0
LAYER
  2
24
 70
     0
 62
     3
  6
CONTINUOUS
  0
LAYER
  2
25
 70
     0
 62
     3
  6
CONTINUOUS
  0
LAYER
  2
26
 70
     0
 62
     3
  6
CONTINUOUS
  0
LAYER
  2
27
 70
     0
 62
     3
  6
CONTINUOUS
  0
LAYER
  2
28
 70
     0
 62
     3
  6
CONTINUOUS
  0
LAYER
  2
29
 70
     0
 62
     3
  6
CONTINUOUS
  0
LAYER
  2
30
 70
     0
 62
     3
  6
CONTINUOUS
  0
LAYER
  2
31
 70
     0
 62
     3
  6
CONTINUOUS
  0
LAYER
  2
32
 70
     0
 62
     3
  6
CONTINUOUS
  0
LAYER
  2
33
 70
     0
 62
     3
  6
CONTINUOUS
  0
LAYER
  2
34
 70
     0
 62
     3
  6
CONTINUOUS
  0
LAYER
  2
35
 70
     0
 62
     3
  6
CONTINUOUS
  0
LAYER
  2
36
 70
     0
 62
     3
  6
CONTINUOUS
  0
LAYER
  2
37
 70
     0
 62
     3
  6
CONTINUOUS
  0
LAYER
  2
38
 70
     0
 62
     3
  6
CONTINUOUS
  0
LAYER
  2
39
 70
     0
 62
     3
  6
CONTINUOUS
  0
LAYER
  2
40
 70
     0
 62
     3
  6
CONTINUOUS
  0
LAYER
  2
41
 70
     0
 62
     3
  6
CONTINUOUS
  0
LAYER
  2
42
 70
     0
 62
     3
  6
CONTINUOUS
  0
LAYER
  2
43
 70
     0
 62
     3
  6
CONTINUOUS
  0
LAYER
  2
44
 70
     0
 62
     3
  6
CONTINUOUS
  0
LAYER
  2
45
 70
     0
 62
     3
  6
CONTINUOUS
  0
LAYER
  2
46
 70
     0
 62
     3
  6
CONTINUOUS
  0
LAYER
  2
47
 70
     0
 62
     3
  6
CONTINUOUS
  0
LAYER
  2
48
 70
     0
 62
     3
  6
CONTINUOUS
  0
LAYER
  2
49
 70
     0
 62
     3
  6
CONTINUOUS
  0
LAYER
  2
50
 70
     0
 62
     3
  6
CONTINUOUS
  0
LAYER
  2
51
 70
     0
 62
     3
  6
CONTINUOUS
  0
LAYER
  2
52
 70
     0
 62
     3
  6
CONTINUOUS
  0
LAYER
  2
53
 70
     0
 62
     3
  6
CONTINUOUS
  0
LAYER
  2
54
 70
     0
 62
     3
  6
CONTINUOUS
  0
LAYER
  2
55
 70
     0
 62
     3
  6
CONTINUOUS
  0
LAYER
  2
56
 70
     0
 62
     3
  6
CONTINUOUS
  0
LAYER
  2
57
 70
     0
 62
     3
  6
CONTINUOUS
  0
LAYER
  2
58
 70
     0
 62
     3
  6
CONTINUOUS
  0
LAYER
  2
59
 70
     0
 62
     3
  6
CONTINUOUS
  0
LAYER
  2
60
 70
     0
 62
     3
  6
CONTINUOUS
  0
LAYER
  2
61
 70
     0
 62
     3
  6
CONTINUOUS
  0
LAYER
  2
62
 70
     0
 62
     3
  6
CONTINUOUS
  0
LAYER
  2
63
 70
     0
 62
     3
  6
CONTINUOUS
  0
LAYER
  2
64
 70
     0
 62
     3
  6
CONTINUOUS
  0
LAYER
  2
65
 70
     0
 62
     3
  6
CONTINUOUS
  0
LAYER
  2
66
 70
     0
 62
     3
  6
CONTINUOUS
  0
LAYER
  2
67
 70
     0
 62
     3
  6
CONTINUOUS
  0
LAYER
  2
68
 70
     0
 62
     3
  6
CONTINUOUS
  0
LAYER
  2
69
 70
     0
 62
     3
  6
CONTINUOUS
  0
LAYER
  2
70
 70
     0
 62
     3
  6
CONTINUOUS
  0
LAYER
  2
71
 70
     0
 62
     3
  6
CONTINUOUS
  0
LAYER
  2
72
 70
     0
 62
     3
  6
CONTINUOUS
  0
LAYER
  2
73
 70
     0
 62
     3
  6
CONTINUOUS
  0
LAYER
  2
74
 70
     0
 62
     3
  6
CONTINUOUS
  0
LAYER
  2
75
 70
     0
 62
     3
  6
CONTINUOUS
  0
LAYER
  2
76
 70
     0
 62
     3
  6
CONTINUOUS
  0
LAYER
  2
77
 70
     0
 62
     3
  6
CONTINUOUS
  0
LAYER
  2
78
 70
     0
 62
     3
  6
CONTINUOUS
  0
LAYER
  2
79
 70
     0
 62
     3
  6
CONTINUOUS
  0
LAYER
  2
80
 70
     0
 62
     3
  6
CONTINUOUS
  0
LAYER
  2
81
 70
     0
 62
     3
  6
CONTINUOUS
  0
LAYER
  2
82
 70
     0
 62
     3
  6
CONTINUOUS
  0
LAYER
  2
83
 70
     0
 62
     3
  6
CONTINUOUS
  0
LAYER
  2
84
 70
     0
 62
     3
  6
CONTINUOUS
  0
LAYER
  2
85
 70
     0
 62
     3
  6
CONTINUOUS
  0
LAYER
  2
86
 70
     0
 62
     3
  6
CONTINUOUS
  0
LAYER
  2
87
 70
     0
 62
     3
  6
CONTINUOUS
  0
LAYER
  2
88
 70
     0
 62
     3
  6
CONTINUOUS
  0
LAYER
  2
89
 70
     0
 62
     3
  6
CONTINUOUS
  0
LAYER
  2
90
 70
     0
 62
     3
  6
CONTINUOUS
  0
LAYER
  2
91
 70
     0
 62
     3
  6
CONTINUOUS
  0
LAYER
  2
92
 70
     0
 62
     3
  6
CONTINUOUS
  0
LAYER
  2
93
 70
     0
 62
     3
  6
CONTINUOUS
  0
LAYER
  2
94
 70
     0
 62
     3
  6
CONTINUOUS
  0
LAYER
  2
95
 70
     0
 62
     3
  6
CONTINUOUS
  0
LAYER
  2
96
 70
     0
 62
     3
  6
CONTINUOUS
  0
LAYER
  2
97
 70
     0
 62
     3
  6
CONTINUOUS
  0
LAYER
  2
98
 70
     0
 62
     3
  6
CONTINUOUS
  0
LAYER
  2
99
 70
     0
 62
     3
  6
CONTINUOUS
  0
ENDTAB
  0
TABLE
  2
STYLE
 70
     2
  0
STYLE
  2
STANDARD
 70
     0
 40
0.0
 41
1.0
 50
0.0
 71
     0
 42
0.2
  3
TXT
  4
BIGFONT
  0
STYLE
  2
KANJI
 70
     0
 40
4.5
 41
1.0
 50
0.0
 71
     0
 42
0.2
  3
TXT
  4
BIGFONT
  0
ENDTAB
  0
TABLE
  2
VIEW
 70
     0
  0
ENDTAB
  0
ENDSEC
  0
SECTION
  2
BLOCKS
  0
BLOCK
  8
0
  2
G0
 70
     0
 10
0
 20
0
  0
LINE
  8
0
 62
     1
  6
CONTINUOUS
 10
3634.000000
 20
1750.675308
 11
3584.000000
 21
1750.675308
  0
SOLID
  8
0
 62
     1
 10
3609.851854
 20
1744.204832
 11
3609.851854
 21
1757.145784
 12
3634.000000
 22
1750.675308
 13
3634.000000
 23
1750.675308
  0
LINE
  8
0
 62
     1
  6
CONTINUOUS
 10
3794.000000
 20
1750.675308
 11
3634.000000
 21
1750.675308
  0
LINE
  8
0
 62
     1
  6
CONTINUOUS
 10
3794.000000
 20
1807.675308
 11
3794.000000
 21
1810.675308
  0
TEXT
  8
0
 62
     1
 10
3686.000000
 20
1756.008641
 40
32.000000
 50
0.000000E+00
 41
0.58 
  1
160
 72
     5
 11
3742.000000
 21
1756.008641
  0
LINE
  8
0
 62
     1
  6
CONTINUOUS
 10
3794.000000
 20
1750.675308
 11
3844.000000
 21
1750.675308
  0
SOLID
  8
0
 62
     1
 10
3818.148146
 20
1757.145784
 11
3818.148146
 21
1744.204832
 12
3794.000000
 22
1750.675308
 13
3794.000000
 23
1750.675308
  0
ENDBLK
  0
BLOCK
  8
0
  2
G1
 70
     0
 10
0
 20
0
  0
LINE
  8
0
 62
     1
  6
CONTINUOUS
 10
3729.317919
 20
1817.675308
 11
3794.000000
 21
1817.675308
  0
LINE
  8
0
 62
     1
  6
CONTINUOUS
 10
3794.000000
 20
1957.500000
 11
3794.000000
 21
1744.620191
  0
TEXT
  8
0
 62
     1
 10
3745.525767
 20
1823.008641
 40
32.000000
 50
0.000000E+00
 41
0.56 
  1
65
 72
     5
 11
3781.525767
 21
1823.008641
  0
LINE
  8
0
 62
     1
  6
CONTINUOUS
 10
3729.317919
 20
1817.675308
 11
3700.103245
 21
1817.675308
  0
SOLID
  8
0
 62
     1
 10
3705.169773
 20
1811.204832
 11
3705.169773
 21
1824.145784
 12
3729.317919
 22
1817.675308
 13
3729.317919
 23
1817.675308
  0
LINE
  8
0
 62
     1
  6
CONTINUOUS
 10
3794.000000
 20
1817.675308
 11
3843.175676
 21
1817.675308
  0
SOLID
  8
0
 62
     1
 10
3818.148146
 20
1824.145784
 11
3818.148146
 21
1811.204832
 12
3794.000000
 22
1817.675308
 13
3794.000000
 23
1817.675308
  0
ENDBLK
  0
BLOCK
  8
0
  2
G2
 70
     0
 10
0
 20
0
  0
TEXT
  8
0
 62
     1
 10
3953.658025
 20
2002.000000
 40
32.000000
 50
90.000000
 41
0.58 
  1
210
 72
     5
 11
3953.658025
 21
2058.000000
  0
LINE
  8
0
 62
     1
  6
CONTINUOUS
 10
3644.000000
 20
1925.000000
 11
3926.324692
 21
1925.000000
  0
LINE
  8
0
 62
     1
  6
CONTINUOUS
 10
3644.000000
 20
2135.000000
 11
3926.324692
 21
2135.000000
  0
LINE
  8
0
 62
     1
  6
CONTINUOUS
 10
3916.324692
 20
2135.000000
 11
3916.324692
 21
1925.000000
  0
SOLID
  8
0
 62
     1
 10
3922.795168
 20
2110.851854
 11
3909.854216
 21
2110.851854
 12
3916.324692
 22
2135.000000
 13
3916.324692
 23
2135.000000
  0
SOLID
  8
0
 62
     1
 10
3909.854216
 20
1949.148146
 11
3922.795168
 21
1949.148146
 12
3916.324692
 22
1925.000000
 13
3916.324692
 23
1925.000000
  0
ENDBLK
  0
BLOCK
  8
0
  2
G3
 70
     0
 10
0
 20
0
  0
TEXT
  8
0
 62
     1
 10
3606.000000
 20
2308.708586
 40
32.000000
 50
0.000000E+00
 41
0.58 
  1
210
 72
     5
 11
3662.000000
 21
2308.708586
  0
LINE
  8
0
 62
     1
  6
CONTINUOUS
 10
3739.000000
 20
2040.000000
 11
3739.000000
 21
2313.375253
  0
LINE
  8
0
 62
     1
  6
CONTINUOUS
 10
3529.000000
 20
2040.000000
 11
3529.000000
 21
2313.375253
  0
LINE
  8
0
 62
     1
  6
CONTINUOUS
 10
3529.000000
 20
2303.375253
 11
3739.000000
 21
2303.375253
  0
SOLID
  8
0
 62
     1
 10
3553.148146
 20
2309.845729
 11
3553.148146
 21
2296.904777
 12
3529.000000
 22
2303.375253
 13
3529.000000
 23
2303.375253
  0
SOLID
  8
0
 62
     1
 10
3714.851854
 20
2296.904777
 11
3714.851854
 21
2309.845729
 12
3739.000000
 22
2303.375253
 13
3739.000000
 23
2303.375253
  0
ENDBLK
  0
BLOCK
  8
0
  2
G4
 70
     0
 10
0
 20
0
  0
LINE
  8
0
 62
     1
  6
CONTINUOUS
 10
3269.940390
 20
1921.227117
 11
3269.940390
 21
936.227117
  0
SOLID
  8
0
 62
     1
 10
3276.410866
 20
1897.078971
 11
3263.469913
 21
1897.078971
 12
3269.940390
 22
1921.227117
 13
3269.940390
 23
1921.227117
  0
SOLID
  8
0
 62
     1
 10
3263.469913
 20
960.375262
 11
3276.410866
 21
960.375262
 12
3269.940390
 22
936.227117
 13
3269.940390
 23
936.227117
  0
LINE
  8
0
 62
     1
  6
CONTINUOUS
 10
3219.940390
 20
1921.227117
 11
3279.940390
 21
1921.227117
  0
LINE
  8
0
 62
     1
  6
CONTINUOUS
 10
3219.940390
 20
936.227117
 11
3279.940390
 21
936.227117
  0
TEXT
  8
0
 62
     1
 10
3264.607057
 20
1392.727117
 40
32.000000
 50
90.000000
 41
0.97 
  1
Ｌｔ
 72
     5
 11
3264.607057
 21
1464.727117
  0
ENDBLK
  0
BLOCK
  8
0
  2
G5
 70
     0
 10
0
 20
0
  0
LINE
  8
0
 62
     1
  6
CONTINUOUS
 10
3209.940390
 20
1846.227117
 11
3209.940390
 21
936.227117
  0
SOLID
  8
0
 62
     1
 10
3216.410866
 20
1822.078971
 11
3203.469913
 21
1822.078971
 12
3209.940390
 22
1846.227117
 13
3209.940390
 23
1846.227117
  0
SOLID
  8
0
 62
     1
 10
3203.469913
 20
960.375262
 11
3216.410866
 21
960.375262
 12
3209.940390
 22
936.227117
 13
3209.940390
 23
936.227117
  0
LINE
  8
0
 62
     1
  6
CONTINUOUS
 10
3159.940390
 20
936.227117
 11
3219.940390
 21
936.227117
  0
TEXT
  8
0
 62
     1
 10
3204.607057
 20
1297.227117
 40
32.000000
 50
90.000000
 41
0.89 
  1
Ｌ（有効長）
 72
     5
 11
3204.607057
 21
1493.227117
  0
ENDBLK
  0
BLOCK
  8
0
  2
G6
 70
     0
 10
0
 20
0
  0
LINE
  8
0
 62
     1
  6
CONTINUOUS
 10
3149.940390
 20
1296.227117
 11
3149.940390
 21
936.227117
  0
SOLID
  8
0
 62
     1
 10
3156.410866
 20
1272.078971
 11
3143.469913
 21
1272.078971
 12
3149.940390
 22
1296.227117
 13
3149.940390
 23
1296.227117
  0
SOLID
  8
0
 62
     1
 10
3143.469913
 20
960.375262
 11
3156.410866
 21
960.375262
 12
3149.940390
 22
936.227117
 13
3149.940390
 23
936.227117
  0
LINE
  8
0
 62
     1
  6
CONTINUOUS
 10
3159.940390
 20
936.227117
 11
3039.940390
 21
936.227117
  0
TEXT
  8
0
 62
     1
 10
3144.607057
 20
1088.227117
 40
32.000000
 50
90.000000
 41
0.58 
  1
360
 72
     5
 11
3144.607057
 21
1144.227117
  0
ENDBLK
  0
BLOCK
  8
0
  2
G7
 70
     0
 10
0
 20
0
  0
LINE
  8
0
 62
     1
  6
CONTINUOUS
 10
3029.940390
 20
1086.227117
 11
3029.940390
 21
936.227117
  0
SOLID
  8
0
 62
     1
 10
3036.410866
 20
1062.078971
 11
3023.469913
 21
1062.078971
 12
3029.940390
 22
1086.227117
 13
3029.940390
 23
1086.227117
  0
SOLID
  8
0
 62
     1
 10
3023.469913
 20
960.375262
 11
3036.410866
 21
960.375262
 12
3029.940390
 22
936.227117
 13
3029.940390
 23
936.227117
  0
LINE
  8
0
 62
     1
  6
CONTINUOUS
 10
2855.363476
 20
936.227117
 11
3039.940390
 21
936.227117
  0
TEXT
  8
0
 62
     1
 10
3024.607057
 20
983.227117
 40
32.000000
 50
90.000000
 41
0.58 
  1
150
 72
     5
 11
3024.607057
 21
1039.227117
  0
ENDBLK
  0
BLOCK
  8
0
  2
G8
 70
     0
 10
0
 20
0
  0
LINE
  8
0
 62
     1
  6
CONTINUOUS
 10
3029.940390
 20
1206.227117
 11
3029.940390
 21
1086.227117
  0
SOLID
  8
0
 62
     1
 10
3036.410866
 20
1182.078971
 11
3023.469913
 21
1182.078971
 12
3029.940390
 22
1206.227117
 13
3029.940390
 23
1206.227117
  0
SOLID
  8
0
 62
     1
 10
3023.469913
 20
1110.375262
 11
3036.410866
 21
1110.375262
 12
3029.940390
 22
1086.227117
 13
3029.940390
 23
1086.227117
  0
LINE
  8
0
 62
     1
  6
CONTINUOUS
 10
2883.612565
 20
1206.227117
 11
3039.940390
 21
1206.227117
  0
LINE
  8
0
 62
     1
  6
CONTINUOUS
 10
2853.114387
 20
1086.227117
 11
3039.940390
 21
1086.227117
  0
TEXT
  8
0
 62
     1
 10
3024.607057
 20
1118.227117
 40
32.000000
 50
90.000000
 41
0.58 
  1
120
 72
     5
 11
3024.607057
 21
1174.227117
  0
ENDBLK
  0
BLOCK
  8
0
  2
G9
 70
     0
 10
0
 20
0
  0
LINE
  8
0
 62
     1
  6
CONTINUOUS
 10
3089.940390
 20
1596.227117
 11
3089.940390
 21
1846.227117
  0
SOLID
  8
0
 62
     1
 10
3082.175818
 20
1625.204891
 11
3097.704961
 21
1625.204891
 12
3089.940390
 22
1596.227117
 13
3089.940390
 23
1596.227117
  0
SOLID
  8
0
 62
     1
 10
3097.704961
 20
1817.249342
 11
3082.175818
 21
1817.249342
 12
3089.940390
 22
1846.227117
 13
3089.940390
 23
1846.227117
  0
LINE
  8
0
 62
     1
  6
CONTINUOUS
 10
3039.940390
 20
1596.227117
 11
3099.940390
 21
1596.227117
  0
LINE
  8
0
 62
     1
  6
CONTINUOUS
 10
2802.863476
 20
1846.227117
 11
3099.940390
 21
1846.227117
  0
TEXT
  8
0
 62
     1
 10
3084.607057
 20
1693.227117
 40
32.000000
 50
90.000000
 41
0.58 
  1
250
 72
     5
 11
3084.607057
 21
1749.227117
  0
ENDBLK
  0
BLOCK
  8
0
  2
G10
 70
     0
 10
0
 20
0
  0
LINE
  8
0
 62
     1
  6
CONTINUOUS
 10
3149.940390
 20
1296.227117
 11
3149.940390
 21
1656.227117
  0
SOLID
  8
0
 62
     1
 10
3142.175818
 20
1325.204891
 11
3157.704961
 21
1325.204891
 12
3149.940390
 22
1296.227117
 13
3149.940390
 23
1296.227117
  0
SOLID
  8
0
 62
     1
 10
3157.704961
 20
1627.249342
 11
3142.175818
 21
1627.249342
 12
3149.940390
 22
1656.227117
 13
3149.940390
 23
1656.227117
  0
LINE
  8
0
 62
     1
  6
CONTINUOUS
 10
3159.940390
 20
1296.227117
 11
3039.940390
 21
1296.227117
  0
TEXT
  8
0
 62
     1
 10
3144.607057
 20
1460.227117
 40
32.000000
 50
90.000000
 41
0.86 
  1
Ｐ
 72
     5
 11
3144.607057
 21
1492.227117
  0
ENDBLK
  0
BLOCK
  8
0
  2
G11
 70
     0
 10
0
 20
0
  0
LINE
  8
0
 62
     1
  6
CONTINUOUS
 10
3209.940390
 20
1921.227117
 11
3209.940390
 21
1846.227117
  0
SOLID
  8
0
 62
     1
 10
3216.410866
 20
1897.078971
 11
3203.469913
 21
1897.078971
 12
3209.940390
 22
1921.227117
 13
3209.940390
 23
1921.227117
  0
SOLID
  8
0
 62
     1
 10
3203.469913
 20
1870.375262
 11
3216.410866
 21
1870.375262
 12
3209.940390
 22
1846.227117
 13
3209.940390
 23
1846.227117
  0
LINE
  8
0
 62
     1
  6
CONTINUOUS
 10
3219.940390
 20
1921.227117
 11
2873.053530
 21
1921.227117
  0
LINE
  8
0
 62
     1
  6
CONTINUOUS
 10
3219.940390
 20
1846.227117
 11
3089.940390
 21
1846.227117
  0
TEXT
  8
0
 62
     1
 10
3204.607057
 20
1865.727117
 40
32.000000
 50
90.000000
 41
0.56 
  1
75
 72
     5
 11
3204.607057
 21
1901.727117
  0
ENDBLK
  0
BLOCK
  8
0
  2
G12
 70
     0
 10
0
 20
0
  0
LINE
  8
0
 62
     3
  6
CONTINUOUS
 10
2942.518505
 20
2347.893959
 11
3002.518505
 21
2347.893959
  0
SOLID
  8
0
 62
     3
 10
2961.837021
 20
2353.070340
 11
2961.837021
 21
2342.717578
 12
2942.518505
 22
2347.893959
 13
2942.518505
 23
2347.893959
  0
LINE
  8
0
 62
     3
  6
CONTINUOUS
 10
3002.518505
 20
2347.893959
 11
3002.518505
 21
2437.893959
  0
ENDBLK
  0
BLOCK
  8
0
  2
G13
 70
     0
 10
0
 20
0
  0
TEXT
  8
0
 62
     3
 10
2929.622631
 20
2449.270505
 40
32.000000
 50
0.000000E+00
 41
1.02 
  1
受口深さ
 72
     5
 11
3081.622631
 21
2449.270505
  0
ENDBLK
  0
BLOCK
  8
0
  2
G14
 70
     0
 10
0
 20
0
  0
TEXT
  8
0
 62
     1
 10
3781.450424
 20
2217.048404
 40
32.000000
 50
315.000000
 41
0.58 
  1
248
 72
     5
 11
3821.048404
 21
2177.450424
  0
LINE
  8
0
 62
     1
  6
CONTINUOUS
 10
3553.389827
 20
2124.752309
 11
3716.868005
 21
2288.230486
  0
LINE
  8
0
 62
     1
  6
CONTINUOUS
 10
3885.159419
 20
2105.796937
 11
3709.796937
 21
2281.159419
  0
SOLID
  8
0
 62
     1
 10
3863.508783
 20
2118.296937
 11
3872.659419
 21
2127.447572
 12
3885.159419
 22
2105.796937
 13
3885.159419
 23
2105.796937
  0
SOLID
  8
0
 62
     1
 10
3731.447572
 20
2268.659419
 11
3722.296937
 21
2259.508783
 12
3709.796937
 22
2281.159419
 13
3709.796937
 23
2281.159419
  0
ENDBLK
  0
BLOCK
  8
0
  2
G15
 70
     0
 10
0
 20
0
  0
LINE
  8
0
 62
     3
  6
CONTINUOUS
 10
3393.426985
 20
1704.379510
 11
3550.443772
 21
1704.379510
  0
LINE
  8
0
 62
     3
  6
CONTINUOUS
 10
3393.426985
 20
1712.379510
 11
3550.443772
 21
1712.379510
  0
TEXT
  8
0
 62
     7
 10
3393.726052
 20
1721.877097
 40
32.000000
 50
0.000000E+00
 41
0.66 
  1
％％ｃ　　　枝管
 72
     5
 11
3585.726052
 21
1721.877097
  0
ENDBLK
  0
BLOCK
  8
0
  2
G16
 70
     0
 10
0
 20
0
  0
LINE
  8
0
 62
     1
  6
CONTINUOUS
 10
3026.118163
 20
2236.089268
 11
3026.118163
 21
2111.089268
  0
SOLID
  8
0
 62
     1
 10
3032.588639
 20
2211.941123
 11
3019.647687
 21
2211.941123
 12
3026.118163
 22
2236.089268
 13
3026.118163
 23
2236.089268
  0
SOLID
  8
0
 62
     1
 10
3019.647687
 20
2135.237414
 11
3032.588639
 21
2135.237414
 12
3026.118163
 22
2111.089268
 13
3026.118163
 23
2111.089268
  0
LINE
  8
0
 62
     1
  6
CONTINUOUS
 10
2962.863476
 20
2236.089268
 11
3036.118163
 21
2236.089268
  0
LINE
  8
0
 62
     1
  6
CONTINUOUS
 10
2962.863476
 20
2111.089268
 11
3036.118163
 21
2111.089268
  0
TEXT
  8
0
 62
     1
 10
3020.784830
 20
2115.589268
 40
32.000000
 50
90.000000
 41
0.60 
  1
%%c125
 72
     5
 11
3020.784830
 21
2231.589268
  0
ENDBLK
  0
BLOCK
  8
0
  2
G17
 70
     0
 10
0
 20
0
  0
LINE
  8
0
 62
     1
  6
CONTINUOUS
 10
2952.863476
 20
2376.698815
 11
2792.863476
 21
2376.698815
  0
SOLID
  8
0
 62
     1
 10
2923.885701
 20
2368.934243
 11
2923.885701
 21
2384.463386
 12
2952.863476
 22
2376.698815
 13
2952.863476
 23
2376.698815
  0
SOLID
  8
0
 62
     1
 10
2821.841251
 20
2384.463386
 11
2821.841251
 21
2368.934243
 12
2792.863476
 22
2376.698815
 13
2792.863476
 23
2376.698815
  0
LINE
  8
0
 62
     1
  6
CONTINUOUS
 10
2952.863476
 20
2328.479722
 11
2952.863476
 21
2386.698815
  0
LINE
  8
0
 62
     1
  6
CONTINUOUS
 10
2792.863476
 20
2282.030428
 11
2792.863476
 21
2386.698815
  0
TEXT
  8
0
 62
     1
 10
2844.863476
 20
2382.032148
 40
32.000000
 50
0.000000E+00
 41
0.58 
  1
160
 72
     5
 11
2900.863476
 21
2382.032148
  0
ENDBLK
  0
BLOCK
  8
0
  2
G18
 70
     0
 10
0
 20
0
  0
TEXT
  8
0
 62
     3
 10
3386.833078
 20
1762.399865
 40
32.000000
 50
0.000000E+00
 41
0.95 
  1
受口深さ　
 72
     5
 11
3562.833078
 21
1762.399865
  0
ENDBLK
  0
BLOCK
  8
0
  2
G19
 70
     0
 10
0
 20
0
  0
LINE
  8
0
 62
     3
  6
CONTINUOUS
 10
2992.142578
 20
1454.891181
 11
2912.580014
 21
1454.891181
  0
LINE
  8
0
 62
     3
  6
CONTINUOUS
 10
2992.142578
 20
1454.891181
 11
2992.142578
 21
1407.520932
  0
TEXT
  8
0
 62
     3
 10
2980.349294
 20
1375.162715
 40
32.000000
 50
0.000000E+00
 41
0.86 
  1
Ｃ
 72
     5
 11
3012.349294
 21
1375.162715
  0
LINE
  8
0
 62
     3
  6
CONTINUOUS
 10
2992.142578
 20
1407.520932
 11
3007.560047
 21
1434.224772
  0
LINE
  8
0
 62
     3
  6
CONTINUOUS
 10
3007.560047
 20
1434.224772
 11
2985.057592
 21
1447.216570
  0
ENDBLK
  0
BLOCK
  8
0
  2
G20
 70
     0
 10
0
 20
0
  0
LINE
  8
0
 62
     1
  6
CONTINUOUS
 10
3476.375253
 20
1934.682081
 11
3476.375253
 21
1984.682081
  0
SOLID
  8
0
 62
     1
 10
3469.904777
 20
1958.830227
 11
3482.845729
 21
1958.830227
 12
3476.375253
 22
1934.682081
 13
3476.375253
 23
1934.682081
  0
LINE
  8
0
 62
     1
  6
CONTINUOUS
 10
3476.375253
 20
1820.000000
 11
3476.375253
 21
1870.000000
  0
SOLID
  8
0
 62
     1
 10
3482.845729
 20
1845.851854
 11
3469.904777
 21
1845.851854
 12
3476.375253
 22
1870.000000
 13
3476.375253
 23
1870.000000
  0
TEXT
  8
0
 62
     1
 10
3471.041920
 20
1884.341041
 40
32.000000
 50
90.000000
 41
0.56 
  1
65
 72
     5
 11
3471.041920
 21
1920.341041
  0
LINE
  8
0
 62
     1
  6
CONTINUOUS
 10
3564.000000
 20
1934.682081
 11
3466.375253
 21
1934.682081
  0
LINE
  8
0
 62
     1
  6
CONTINUOUS
 10
3561.500000
 20
1870.000000
 11
3466.375253
 21
1870.000000
  0
LINE
  8
0
 62
     1
  6
CONTINUOUS
 10
3476.375253
 20
1870.000000
 11
3476.375253
 21
1934.682081
  0
ENDBLK
  0
BLOCK
  8
0
  2
G21
 70
     0
 10
0
 20
0
  0
LINE
  8
0
 62
     1
  6
CONTINUOUS
 10
3419.375253
 20
1820.000000
 11
3419.375253
 21
1870.000000
  0
SOLID
  8
0
 62
     1
 10
3425.845729
 20
1845.851854
 11
3412.904777
 21
1845.851854
 12
3419.375253
 22
1870.000000
 13
3419.375253
 23
1870.000000
  0
TEXT
  8
0
 62
     1
 10
3414.041920
 20
1922.000000
 40
32.000000
 50
90.000000
 41
0.58 
  1
160
 72
     5
 11
3414.041920
 21
1978.000000
  0
LINE
  8
0
 62
     1
  6
CONTINUOUS
 10
3507.580925
 20
2030.000000
 11
3409.375253
 21
2030.000000
  0
LINE
  8
0
 62
     1
  6
CONTINUOUS
 10
3466.375253
 20
1870.000000
 11
3409.375253
 21
1870.000000
  0
LINE
  8
0
 62
     1
  6
CONTINUOUS
 10
3419.375253
 20
1870.000000
 11
3419.375253
 21
2030.000000
  0
CIRCLE
  8
0
 62
     1
  6
CONTINUOUS
 10
3419.375253
 20
2030.000000
 40
5.000000
  0
CIRCLE
  8
0
 62
     1
  6
CONTINUOUS
 10
3419.375253
 20
2030.000000
 40
2.500000
  0
ENDBLK
  0
BLOCK
  8
0
  2
G22
 70
     0
 10
0
 20
0
  0
TEXT
  8
0
 62
     3
 10
3819.798773
 20
1826.093457
 40
32.000000
 50
0.000000E+00
 41
0.89 
  1
　受口深さ　
 72
     5
 11
4015.798773
 21
1826.093457
  0
ENDBLK
  0
BLOCK
  8
0
  2
G23
 70
     0
 10
0
 20
0
  0
LINE
  8
0
 62
     1
  6
CONTINUOUS
 10
2887.863476
 20
2318.479722
 11
2952.863476
 21
2318.479722
  0
LINE
  8
0
 62
     1
  6
CONTINUOUS
 10
2887.863476
 20
2243.589268
 11
2887.863476
 21
2328.479722
  0
LINE
  8
0
 62
     1
  6
CONTINUOUS
 10
2952.863476
 20
2246.089268
 11
2952.863476
 21
2328.479722
  0
TEXT
  8
0
 62
     1
 10
2902.363476
 20
2323.813055
 40
32.000000
 50
0.000000E+00
 41
0.56 
  1
65
 72
     5
 11
2938.363476
 21
2323.813055
  0
LINE
  8
0
 62
     1
  6
CONTINUOUS
 10
2837.863476
 20
2318.479722
 11
2887.863476
 21
2318.479722
  0
SOLID
  8
0
 62
     1
 10
2863.715330
 20
2312.009246
 11
2863.715330
 21
2324.950198
 12
2887.863476
 22
2318.479722
 13
2887.863476
 23
2318.479722
  0
LINE
  8
0
 62
     1
  6
CONTINUOUS
 10
2952.863476
 20
2318.479722
 11
3002.863476
 21
2318.479722
  0
SOLID
  8
0
 62
     1
 10
2977.011622
 20
2324.950198
 11
2977.011622
 21
2312.009246
 12
2952.863476
 22
2318.479722
 13
2952.863476
 23
2318.479722
  0
ENDBLK
  0
BLOCK
  8
0
  2
G24
 70
     0
 10
0
 20
0
  0
LINE
  8
0
 62
     1
  6
CONTINUOUS
 10
3476.375253
 20
2190.000000
 11
3476.375253
 21
2125.317919
  0
LINE
  8
0
 62
     1
  6
CONTINUOUS
 10
3561.500000
 20
2190.000000
 11
3466.375253
 21
2190.000000
  0
TEXT
  8
0
 62
     1
 10
3471.041920
 20
2139.658959
 40
32.000000
 50
90.000000
 41
0.56 
  1
65
 72
     5
 11
3471.041920
 21
2175.658959
  0
LINE
  8
0
 62
     1
  6
CONTINUOUS
 10
3476.375253
 20
2240.000000
 11
3476.375253
 21
2190.000000
  0
SOLID
  8
0
 62
     1
 10
3469.904777
 20
2214.148146
 11
3482.845729
 21
2214.148146
 12
3476.375253
 22
2190.000000
 13
3476.375253
 23
2190.000000
  0
LINE
  8
0
 62
     1
  6
CONTINUOUS
 10
3476.375253
 20
2125.317919
 11
3476.375253
 21
2075.317919
  0
SOLID
  8
0
 62
     1
 10
3482.845729
 20
2101.169773
 11
3469.904777
 21
2101.169773
 12
3476.375253
 22
2125.317919
 13
3476.375253
 23
2125.317919
  0
ENDBLK
  0
BLOCK
  8
0
  2
G25
 70
     0
 10
0
 20
0
  0
LINE
  8
0
 62
     1
  6
CONTINUOUS
 10
3419.375253
 20
2190.000000
 11
3419.375253
 21
2030.000000
  0
LINE
  8
0
 62
     1
  6
CONTINUOUS
 10
3466.375253
 20
2190.000000
 11
3409.375253
 21
2190.000000
  0
LINE
  8
0
 62
     1
  6
CONTINUOUS
 10
3507.580925
 20
2030.000000
 11
3409.375253
 21
2030.000000
  0
TEXT
  8
0
 62
     1
 10
3414.041920
 20
2082.000000
 40
32.000000
 50
90.000000
 41
0.58 
  1
160
 72
     5
 11
3414.041920
 21
2138.000000
  0
LINE
  8
0
 62
     1
  6
CONTINUOUS
 10
3419.375253
 20
2240.000000
 11
3419.375253
 21
2190.000000
  0
SOLID
  8
0
 62
     1
 10
3412.904777
 20
2214.148146
 11
3425.845729
 21
2214.148146
 12
3419.375253
 22
2190.000000
 13
3419.375253
 23
2190.000000
  0
ENDBLK
  0
BLOCK
  8
0
  2
G26
 70
     0
 10
0
 20
0
  0
TEXT
  8
0
 62
     3
 10
3143.319564
 20
1996.453919
 40
32.000000
 50
0.000000E+00
 41
0.95 
  1
受口深さ　
 72
     5
 11
3319.319564
 21
1996.453919
  0
ENDBLK
  0
BLOCK
  8
0
  2
G27
 70
     0
 10
0
 20
0
  0
TEXT
  8
0
 62
     7
 10
3866.068799
 20
1884.405980
 40
32.000000
 50
0.000000E+00
 41
0.66 
  1
％％ｃ　　　枝管
 72
     5
 11
4058.068799
 21
1884.405980
  0
LINE
  8
0
 62
     3
  6
CONTINUOUS
 10
3865.769732
 20
1874.908393
 11
4022.786520
 21
1874.908393
  0
LINE
  8
0
 62
     3
  6
CONTINUOUS
 10
3865.769732
 20
1866.908393
 11
4022.786520
 21
1866.908393
  0
ENDBLK
  0
BLOCK
  8
0
  2
G28
 70
     0
 10
0
 20
0
  0
TEXT
  8
0
 62
     7
 10
3322.288311
 20
2348.860409
 40
32.000000
 50
0.000000E+00
 41
0.66 
  1
％％ｃ　　　枝管
 72
     5
 11
3514.288311
 21
2348.860409
  0
LINE
  8
0
 62
     3
  6
CONTINUOUS
 10
3321.989244
 20
2339.362822
 11
3479.006032
 21
2339.362822
  0
LINE
  8
0
 62
     3
  6
CONTINUOUS
 10
3321.989244
 20
2331.362822
 11
3479.006032
 21
2331.362822
  0
ENDBLK
  0
BLOCK
  8
0
  2
G29
 70
     0
 10
0
 20
0
  0
LINE
  8
0
 62
     1
  6
CONTINUOUS
 10
3029.940390
 20
1593.727117
 11
3029.940390
 21
1596.227117
  0
LINE
  8
0
 62
     1
  6
CONTINUOUS
 10
3039.940390
 20
1593.727117
 11
2957.863476
 21
1593.727117
  0
TEXT
  8
0
 62
     1
 10
3024.607057
 20
1507.999037
 40
32.000000
 50
90.000000
 41
0.58 
  1
2.5
 72
     5
 11
3024.607057
 21
1563.999037
  0
LINE
  8
0
 62
     1
  6
CONTINUOUS
 10
3029.940390
 20
1593.727117
 11
3029.940390
 21
1503.144416
  0
SOLID
  8
0
 62
     1
 10
3036.410866
 20
1569.578971
 11
3023.469913
 21
1569.578971
 12
3029.940390
 22
1593.727117
 13
3029.940390
 23
1593.727117
  0
ENDBLK
  0
BLOCK
  8
0
  2
G30
 70
     0
 10
0
 20
0
  0
LINE
  8
0
 62
     1
  6
CONTINUOUS
 10
3029.940390
 20
1596.227117
 11
3029.940390
 21
1656.227117
  0
CIRCLE
  8
0
 62
     1
  6
CONTINUOUS
 10
3029.940390
 20
1596.227117
 40
2.500000
  0
CIRCLE
  8
0
 62
     1
  6
CONTINUOUS
 10
3029.940390
 20
1596.227117
 40
1.250000
  0
LINE
  8
0
 62
     1
  6
CONTINUOUS
 10
2957.863476
 20
1596.227117
 11
3039.940390
 21
1596.227117
  0
LINE
  8
0
 62
     1
  6
CONTINUOUS
 10
2968.797182
 20
1656.227117
 11
3039.940390
 21
1656.227117
  0
TEXT
  8
0
 62
     1
 10
3024.607057
 20
1608.227117
 40
32.000000
 50
90.000000
 41
0.56 
  1
60
 72
     5
 11
3024.607057
 21
1644.227117
  0
LINE
  8
0
 62
     1
  6
CONTINUOUS
 10
3029.940390
 20
1656.227117
 11
3029.940390
 21
1706.227117
  0
SOLID
  8
0
 62
     1
 10
3022.175818
 20
1685.204891
 11
3037.704961
 21
1685.204891
 12
3029.940390
 22
1656.227117
 13
3029.940390
 23
1656.227117
  0
ENDBLK
  0
BLOCK
  8
0
  2
G31
 70
     0
 10
0
 20
0
  0
LINE
  8
0
 62
     7
  6
CONTINUOUS
 10
2717.863476
 20
1931.227117
 11
2717.863476
 21
1974.751724
  0
LINE
  8
0
 62
     7
  6
CONTINUOUS
 10
2867.863476
 20
1931.227117
 11
2867.863476
 21
1974.751724
  0
LINE
  8
0
 62
     7
  6
CONTINUOUS
 10
2717.863476
 20
1964.751724
 11
2867.863476
 21
1964.751724
  0
SOLID
  8
0
 62
     7
 10
2737.181992
 20
1969.928105
 11
2737.181992
 21
1959.575343
 12
2717.863476
 22
1964.751724
 13
2717.863476
 23
1964.751724
  0
SOLID
  8
0
 62
     7
 10
2848.544959
 20
1959.575343
 11
2848.544959
 21
1969.928105
 12
2867.863476
 22
1964.751724
 13
2867.863476
 23
1964.751724
  0
TEXT
  8
0
 62
     7
 10
2734.863476
 20
1970.085054
 40
32.000000
 50
0.000000E+00
 41
0.60 
  1
%%c150
 72
     5
 11
2850.863476
 21
1970.085054
  0
ENDBLK
  0
BLOCK
  8
0
  2
G32
 70
     0
 10
0
 20
0
  0
LINE
  8
0
 62
     7
  6
CONTINUOUS
 10
2706.863476
 20
1751.986486
 11
2706.863476
 21
2036.948668
  0
LINE
  8
0
 62
     7
  6
CONTINUOUS
 10
2878.863476
 20
1741.986486
 11
2878.863476
 21
2036.948668
  0
LINE
  8
0
 62
     7
  6
CONTINUOUS
 10
2706.863476
 20
2026.948668
 11
2878.863476
 21
2026.948668
  0
SOLID
  8
0
 62
     7
 10
2726.181992
 20
2032.125048
 11
2726.181992
 21
2021.772287
 12
2706.863476
 22
2026.948668
 13
2706.863476
 23
2026.948668
  0
SOLID
  8
0
 62
     7
 10
2859.544959
 20
2021.772287
 11
2859.544959
 21
2032.125048
 12
2878.863476
 22
2026.948668
 13
2878.863476
 23
2026.948668
  0
TEXT
  8
0
 62
     7
 10
2734.863476
 20
2032.281997
 40
32.000000
 50
0.000000E+00
 41
0.60 
  1
%%c172
 72
     5
 11
2850.863476
 21
2032.281997
  0
ENDBLK
  0
BLOCK
  8
0
  2
G33
 70
     0
 10
0
 20
0
  0
LINE
  8
0
 62
     7
  6
CONTINUOUS
 10
2737.863476
 20
926.227117
 11
2737.863476
 21
851.592951
  0
LINE
  8
0
 62
     7
  6
CONTINUOUS
 10
2847.863476
 20
926.227117
 11
2847.863476
 21
851.592951
  0
LINE
  8
0
 62
     7
  6
CONTINUOUS
 10
2737.863476
 20
861.592951
 11
2847.863476
 21
861.592951
  0
SOLID
  8
0
 62
     7
 10
2757.181992
 20
866.769332
 11
2757.181992
 21
856.416570
 12
2737.863476
 22
861.592951
 13
2737.863476
 23
861.592951
  0
SOLID
  8
0
 62
     7
 10
2828.544959
 20
856.416570
 11
2828.544959
 21
866.769332
 12
2847.863476
 22
861.592951
 13
2847.863476
 23
861.592951
  0
TEXT
  8
0
 62
     7
 10
2734.863476
 20
866.926280
 40
32.000000
 50
0.000000E+00
 41
0.60 
  1
%%c110
 72
     5
 11
2850.863476
 21
866.926280
  0
ENDBLK
  0
BLOCK
  8
0
  2
G34
 70
     0
 10
0
 20
0
  0
LINE
  8
0
 62
     7
  6
CONTINUOUS
 10
2706.863476
 20
1190.099028
 11
2706.863476
 21
786.948668
  0
LINE
  8
0
 62
     7
  6
CONTINUOUS
 10
2878.863476
 20
1200.099028
 11
2878.863476
 21
786.948668
  0
LINE
  8
0
 62
     7
  6
CONTINUOUS
 10
2706.863476
 20
796.948668
 11
2878.863476
 21
796.948668
  0
SOLID
  8
0
 62
     7
 10
2726.181992
 20
802.125048
 11
2726.181992
 21
791.772287
 12
2706.863476
 22
796.948668
 13
2706.863476
 23
796.948668
  0
SOLID
  8
0
 62
     7
 10
2859.544959
 20
791.772287
 11
2859.544959
 21
802.125048
 12
2878.863476
 22
796.948668
 13
2878.863476
 23
796.948668
  0
TEXT
  8
0
 62
     7
 10
2734.863476
 20
802.281997
 40
32.000000
 50
0.000000E+00
 41
0.60 
  1
%%c172
 72
     5
 11
2850.863476
 21
802.281997
  0
ENDBLK
  0
BLOCK
  8
0
  2
G35
 70
     0
 10
0
 20
0
  0
LINE
  8
0
 62
     7
  6
CONTINUOUS
 10
2697.863476
 20
2245.589268
 11
2697.863476
 21
2386.698815
  0
LINE
  8
0
 62
     7
  6
CONTINUOUS
 10
2792.863476
 20
2292.030428
 11
2792.863476
 21
2386.698815
  0
LINE
  8
0
 62
     7
  6
CONTINUOUS
 10
2697.863476
 20
2376.698815
 11
2792.863476
 21
2376.698815
  0
SOLID
  8
0
 62
     7
 10
2717.181992
 20
2381.875196
 11
2717.181992
 21
2371.522434
 12
2697.863476
 22
2376.698815
 13
2697.863476
 23
2376.698815
  0
SOLID
  8
0
 62
     7
 10
2773.544959
 20
2371.522434
 11
2773.544959
 21
2381.875196
 12
2792.863476
 22
2376.698815
 13
2792.863476
 23
2376.698815
  0
TEXT
  8
0
 62
     7
 10
2727.363476
 20
2382.032145
 40
32.000000
 50
0.000000E+00
 41
0.56 
  1
95
 72
     5
 11
2763.363476
 21
2382.032145
  0
ENDBLK
  0
BLOCK
  8
0
  2
G36
 70
     0
 10
0
 20
0
  0
LINE
  8
0
 62
     7
  6
CONTINUOUS
 10
2864.863476
 20
2268.589268
 11
3096.118163
 21
2268.589268
  0
LINE
  8
0
 62
     7
  6
CONTINUOUS
 10
3031.449998
 20
2173.589268
 11
3096.118163
 21
2173.589268
  0
LINE
  8
0
 62
     7
  6
CONTINUOUS
 10
3086.118163
 20
2268.589268
 11
3086.118163
 21
2173.589268
  0
SOLID
  8
0
 62
     7
 10
3091.294544
 20
2249.270752
 11
3080.941782
 21
2249.270752
 12
3086.118163
 22
2268.589268
 13
3086.118163
 23
2268.589268
  0
SOLID
  8
0
 62
     7
 10
3080.941782
 20
2192.907785
 11
3091.294544
 21
2192.907785
 12
3086.118163
 22
2173.589268
 13
3086.118163
 23
2173.589268
  0
TEXT
  8
0
 62
     7
 10
3080.784833
 20
2203.089268
 40
32.000000
 50
90.000000
 41
0.56 
  1
95
 72
     5
 11
3080.784833
 21
2239.089268
  0
ENDBLK
  0
BLOCK
  8
0
  2
G37
 70
     0
 10
0
 20
0
  0
LINE
  8
0
 62
     7
  6
CONTINUOUS
 10
2711.150298
 20
1348.727117
 11
2639.056970
 21
1348.727117
  0
LINE
  8
0
 62
     7
  6
CONTINUOUS
 10
2764.947353
 20
1296.726996
 11
2639.056970
 21
1296.726996
  0
LINE
  8
0
 62
     7
  6
CONTINUOUS
 10
2649.056970
 20
1348.727117
 11
2649.056970
 21
1296.726996
  0
LINE
  8
0
 62
     7
  6
CONTINUOUS
 10
2649.056970
 20
1348.727117
 11
2649.056970
 21
1398.727117
  0
SOLID
  8
0
 62
     7
 10
2643.880590
 20
1368.045633
 11
2654.233351
 21
1368.045633
 12
2649.056970
 22
1348.727117
 13
2649.056970
 23
1348.727117
  0
LINE
  8
0
 62
     7
  6
CONTINUOUS
 10
2649.056970
 20
1296.726996
 11
2649.056970
 21
1246.726996
  0
SOLID
  8
0
 62
     7
 10
2654.233351
 20
1277.408479
 11
2643.880590
 21
1277.408479
 12
2649.056970
 22
1296.726996
 13
2649.056970
 23
1296.726996
  0
TEXT
  8
0
 62
     7
 10
2643.723641
 20
1306.727056
 40
32.000000
 50
90.000000
 41
0.86 
  1
Ｂ
 72
     5
 11
2643.723641
 21
1338.727056
  0
ENDBLK
  0
BLOCK
  8
0
  2
G38
 70
     0
 10
0
 20
0
  0
LINE
  8
0
 62
     7
  6
CONTINUOUS
 10
2961.833650
 20
1347.718419
 11
3039.940390
 21
1347.718419
  0
LINE
  8
0
 62
     7
  6
CONTINUOUS
 10
2962.863476
 20
1296.227117
 11
3039.940390
 21
1296.227117
  0
LINE
  8
0
 62
     7
  6
CONTINUOUS
 10
3029.940390
 20
1347.718419
 11
3029.940390
 21
1296.227117
  0
LINE
  8
0
 62
     7
  6
CONTINUOUS
 10
3029.940390
 20
1347.718419
 11
3029.940390
 21
1397.718419
  0
SOLID
  8
0
 62
     7
 10
3024.764009
 20
1367.036935
 11
3035.116770
 21
1367.036935
 12
3029.940390
 22
1347.718419
 13
3029.940390
 23
1347.718419
  0
LINE
  8
0
 62
     7
  6
CONTINUOUS
 10
3029.940390
 20
1296.227117
 11
3029.940390
 21
1246.227117
  0
SOLID
  8
0
 62
     7
 10
3035.116770
 20
1276.908600
 11
3024.764009
 21
1276.908600
 12
3029.940390
 22
1296.227117
 13
3029.940390
 23
1296.227117
  0
TEXT
  8
0
 62
     7
 10
3024.607060
 20
1305.972768
 40
32.000000
 50
90.000000
 41
0.86 
  1
Ｂ
 72
     5
 11
3024.607060
 21
1337.972768
  0
ENDBLK
  0
BLOCK
  8
0
  2
G39
 70
     0
 10
0
 20
0
  0
POINT
  8
0
 62
     2
 10
2951.833650
 20
1347.718419
  0
LINE
  8
0
 62
     2
  6
CONTINUOUS
 10
2945.734870
 20
1402.607442
 11
2947.864476
 21
1296.127137
  0
LINE
  8
0
 62
     2
  6
CONTINUOUS
 10
2950.733870
 20
1402.707422
 11
2952.863476
 21
1296.227117
  0
LINE
  8
0
 62
     2
  6
CONTINUOUS
 10
2945.734870
 20
1402.607442
 11
2950.733870
 21
1402.707422
  0
LINE
  8
0
 62
     2
  6
CONTINUOUS
 10
2887.879826
 20
1294.927444
 11
2952.863476
 21
1296.227117
  0
LINE
  8
0
 62
     2
  6
CONTINUOUS
 10
2945.794858
 20
1399.608042
 11
2887.863476
 21
1398.449414
  0
LINE
  8
0
 62
     2
  6
CENTER
 10
2963.113479
 20
1347.944015
 11
2879.833650
 21
1346.278419
  0
POINT
  8
0
 62
     2
 10
2879.833650
 20
1354.278419
  0
ENDBLK
  0
BLOCK
  8
0
  2
G40
 70
     0
 10
0
 20
0
  0
CIRCLE
  8
0
 62
     2
  6
CONTINUOUS
 10
2792.863476
 20
1348.727117
 40
35.000000
  0
LINE
  8
0
 62
     2
  6
CENTER
 10
2721.150298
 20
1348.727117
 11
2858.861697
 21
1348.727117
  0
ARC
  8
0
 62
     2
  6
CONTINUOUS
 10
2792.863476
 20
1348.727117
 40
55.000000
 50
289.010880
 51
610.989120
  0
CIRCLE
  8
0
 62
     2
  6
CONTINUOUS
 10
2792.863476
 20
1348.727117
 40
47.000000
  0
LINE
  8
0
 62
     2
  6
CONTINUOUS
 10
2810.779599
 20
1296.726996
 11
2774.947353
 21
1296.726996
  0
CIRCLE
  8
0
 62
     1
  6
CONTINUOUS
 10
2792.863476
 20
1356.227117
 40
62.000000
  0
ENDBLK
  0
BLOCK
  8
0
  2
G41
 70
     0
 10
0
 20
0
  0
LINE
  8
0
 62
     2
  6
CONTINUOUS
 10
3689.000000
 20
1870.000000
 11
3579.000000
 21
1870.000000
  0
LINE
  8
0
 62
     2
  6
CONTINUOUS
 10
3579.000000
 20
1875.000000
 11
3689.000000
 21
1875.000000
  0
LINE
  8
0
 62
     2
  6
CONTINUOUS
 10
3582.034602
 20
1875.000000
 11
3582.430290
 21
1931.979167
  0
LINE
  8
0
 62
     2
  6
CONTINUOUS
 10
3685.965398
 20
1875.000000
 11
3685.569710
 21
1931.979167
  0
LINE
  8
0
 62
     2
  6
CONTINUOUS
 10
3579.000000
 20
1875.000000
 11
3579.000000
 21
1870.000000
  0
LINE
  8
0
 62
     2
  6
CONTINUOUS
 10
3689.000000
 20
1875.000000
 11
3689.000000
 21
1870.000000
  0
ENDBLK
  0
BLOCK
  8
0
  2
G42
 70
     0
 10
0
 20
0
  0
LINE
  8
0
 62
     7
  6
CONTINUOUS
 10
3804.000000
 20
2085.000000
 11
3856.324692
 21
2085.000000
  0
LINE
  8
0
 62
     7
  6
CONTINUOUS
 10
3804.000000
 20
1975.000000
 11
3856.324692
 21
1975.000000
  0
LINE
  8
0
 62
     7
  6
CONTINUOUS
 10
3846.324692
 20
2085.000000
 11
3846.324692
 21
1975.000000
  0
SOLID
  8
0
 62
     7
 10
3851.501073
 20
2065.681483
 11
3841.148311
 21
2065.681483
 12
3846.324692
 22
2085.000000
 13
3846.324692
 23
2085.000000
  0
SOLID
  8
0
 62
     7
 10
3841.148311
 20
1994.318517
 11
3851.501073
 21
1994.318517
 12
3846.324692
 22
1975.000000
 13
3846.324692
 23
1975.000000
  0
TEXT
  8
0
 62
     7
 10
3840.991362
 20
2014.000000
 40
32.000000
 50
90.000000
 41
0.86 
  1
Ａ
 72
     5
 11
3840.991362
 21
2046.000000
  0
ENDBLK
  0
BLOCK
  8
0
  2
G43
 70
     0
 10
0
 20
0
  0
LINE
  8
0
 62
     2
  6
CONTINUOUS
 10
3794.000000
 20
1975.000000
 11
3794.000000
 21
2085.000000
  0
LINE
  8
0
 62
     2
  6
CONTINUOUS
 10
3789.000000
 20
1975.000000
 11
3789.000000
 21
2085.000000
  0
LINE
  8
0
 62
     2
  6
CONTINUOUS
 10
3789.000000
 20
1975.000000
 11
3794.000000
 21
1975.000000
  0
LINE
  8
0
 62
     2
  6
CONTINUOUS
 10
3789.000000
 20
2085.000000
 11
3794.000000
 21
2085.000000
  0
LINE
  8
0
 62
     2
  6
CONTINUOUS
 10
3789.000000
 20
1978.000000
 11
3729.000000
 21
1978.000000
  0
LINE
  8
0
 62
     2
  6
CONTINUOUS
 10
3729.000000
 20
2082.000000
 11
3789.000000
 21
2082.000000
  0
ENDBLK
  0
BLOCK
  8
0
  2
G44
 70
     0
 10
0
 20
0
  0
LINE
  8
0
 62
     7
  6
CONTINUOUS
 10
3579.000000
 20
1860.000000
 11
3579.000000
 21
1808.019379
  0
LINE
  8
0
 62
     7
  6
CONTINUOUS
 10
3689.000000
 20
1860.000000
 11
3689.000000
 21
1808.019379
  0
LINE
  8
0
 62
     7
  6
CONTINUOUS
 10
3579.000000
 20
1818.019379
 11
3689.000000
 21
1818.019379
  0
SOLID
  8
0
 62
     7
 10
3598.318517
 20
1823.195760
 11
3598.318517
 21
1812.842998
 12
3579.000000
 22
1818.019379
 13
3579.000000
 23
1818.019379
  0
SOLID
  8
0
 62
     7
 10
3669.681483
 20
1812.842998
 11
3669.681483
 21
1823.195760
 12
3689.000000
 22
1818.019379
 13
3689.000000
 23
1818.019379
  0
TEXT
  8
0
 62
     7
 10
3618.000000
 20
1823.352709
 40
32.000000
 50
0.000000E+00
 41
0.86 
  1
Ａ
 72
     5
 11
3650.000000
 21
1823.352709
  0
ENDBLK
  0
BLOCK
  8
0
  2
G45
 70
     0
 10
0
 20
0
  0
LINE
  8
0
 62
     2
  6
CONTINUOUS
 10
3689.000000
 20
2185.000000
 11
3689.000000
 21
2190.000000
  0
LINE
  8
0
 62
     2
  6
CONTINUOUS
 10
3579.000000
 20
2185.000000
 11
3579.000000
 21
2190.000000
  0
LINE
  8
0
 62
     2
  6
CONTINUOUS
 10
3685.965398
 20
2185.000000
 11
3685.569710
 21
2128.020833
  0
LINE
  8
0
 62
     2
  6
CONTINUOUS
 10
3582.034602
 20
2185.000000
 11
3582.430290
 21
2128.020833
  0
LINE
  8
0
 62
     2
  6
CONTINUOUS
 10
3579.000000
 20
2185.000000
 11
3689.000000
 21
2185.000000
  0
LINE
  8
0
 62
     2
  6
CONTINUOUS
 10
3689.000000
 20
2190.000000
 11
3579.000000
 21
2190.000000
  0
ENDBLK
  0
BLOCK
  8
0
  2
G46
 70
     0
 10
0
 20
0
  0
LINE
  8
0
 62
     7
  6
CONTINUOUS
 10
3579.000000
 20
2200.000000
 11
3579.000000
 21
2251.980621
  0
LINE
  8
0
 62
     7
  6
CONTINUOUS
 10
3689.000000
 20
2200.000000
 11
3689.000000
 21
2251.980621
  0
LINE
  8
0
 62
     7
  6
CONTINUOUS
 10
3579.000000
 20
2241.980621
 11
3689.000000
 21
2241.980621
  0
SOLID
  8
0
 62
     7
 10
3598.318517
 20
2247.157002
 11
3598.318517
 21
2236.804240
 12
3579.000000
 22
2241.980621
 13
3579.000000
 23
2241.980621
  0
SOLID
  8
0
 62
     7
 10
3669.681483
 20
2236.804240
 11
3669.681483
 21
2247.157002
 12
3689.000000
 22
2241.980621
 13
3689.000000
 23
2241.980621
  0
TEXT
  8
0
 62
     7
 10
3618.000000
 20
2247.313951
 40
32.000000
 50
0.000000E+00
 41
0.86 
  1
Ａ
 72
     5
 11
3650.000000
 21
2247.313951
  0
ENDBLK
  0
ENDSEC
  0
SECTION
  2
ENTITIES
  0
INSERT
  8
0
  2
G0
 10
0
 20
0
  0
INSERT
  8
0
  2
G1
 10
0
 20
0
  0
LINE
  8
0
 62
     1
  6
CONTINUOUS
 10
3729.000000
 20
1964.361184
 11
3729.000000
 21
1813.675308
  0
INSERT
  8
0
  2
G2
 10
0
 20
0
  0
LINE
  8
3
 62
     4
  6
CONTINUOUS
 10
2854.257420
 20
1344.520978
 11
2855.168819
 21
1336.508677
  0
LINE
  8
3
 62
     4
  6
CONTINUOUS
 10
2855.168819
 20
1336.508677
 11
2856.534024
 21
1328.874027
  0
LINE
  8
3
 62
     4
  6
CONTINUOUS
 10
2856.534024
 20
1328.874027
 11
2858.326887
 21
1321.763250
  0
LINE
  8
3
 62
     4
  6
CONTINUOUS
 10
2858.326887
 20
1321.763250
 11
2860.513071
 21
1315.312531
  0
LINE
  8
3
 62
     4
  6
CONTINUOUS
 10
2860.513071
 20
1315.312531
 11
2863.050706
 21
1309.645417
  0
LINE
  8
3
 62
     4
  6
CONTINUOUS
 10
2863.050706
 20
1309.645417
 11
2865.891190
 21
1304.870446
  0
LINE
  8
3
 62
     4
  6
CONTINUOUS
 10
2865.891190
 20
1304.870446
 11
2868.980122
 21
1301.079067
  0
LINE
  8
3
 62
     4
  6
CONTINUOUS
 10
2868.980122
 20
1301.079067
 11
2872.258341
 21
1298.343896
  0
LINE
  8
3
 62
     4
  6
CONTINUOUS
 10
2872.258341
 20
1298.343896
 11
2875.663064
 21
1296.717316
  0
LINE
  8
3
 62
     4
  6
CONTINUOUS
 10
2872.258341
 20
1298.343896
 11
2875.663064
 21
1296.717316
  0
INSERT
  8
0
  2
G3
 10
0
 20
0
  0
LINE
  8
3
 62
     4
  6
CONTINUOUS
 10
2696.304328
 20
1431.227117
 11
2699.863476
 21
1426.926479
  0
ARC
  8
3
 62
     4
  6
CONTINUOUS
 10
2692.363476
 20
1432.727117
 40
1.500000
 50
180.000000
 51
270.000000
  0
LINE
  8
3
 62
     4
  6
CONTINUOUS
 10
2690.863476
 20
1434.227117
 11
2690.863476
 21
1432.727117
  0
INSERT
  8
0
  2
G4
 10
0
 20
0
  0
INSERT
  8
0
  2
G5
 10
0
 20
0
  0
INSERT
  8
0
  2
G6
 10
0
 20
0
  0
INSERT
  8
0
  2
G7
 10
0
 20
0
  0
INSERT
  8
0
  2
G8
 10
0
 20
0
  0
INSERT
  8
0
  2
G9
 10
0
 20
0
  0
LINE
  8
0
 62
     1
  6
CONTINUOUS
 10
3159.940390
 20
1656.227117
 11
3029.940390
 21
1656.227117
  0
LINE
  8
0
 62
     1
  6
CONTINUOUS
 10
3029.940390
 20
1656.227117
 11
3046.816384
 21
1656.227117
  0
INSERT
  8
0
  2
G10
 10
0
 20
0
  0
INSERT
  8
0
  2
G11
 10
0
 20
0
  0
LINE
  8
0
 62
     2
  6
CONTINUOUS
 10
2694.863476
 20
1451.728715
 11
2694.863476
 21
1453.728715
  0
LINE
  8
0
 62
     2
  6
CONTINUOUS
 10
2687.863476
 20
1454.728715
 11
2792.863476
 21
1454.728715
  0
LINE
  8
0
 62
     2
  6
CONTINUOUS
 10
2694.863476
 20
1451.728715
 11
2890.863476
 21
1451.728715
  0
LINE
  8
0
 62
     2
  6
CONTINUOUS
 10
2687.863476
 20
1454.728715
 11
2687.863476
 21
1462.728715
  0
LINE
  8
0
 62
     3
  6
CONTINUOUS
 10
2878.863476
 20
1721.227117
 11
2878.863476
 21
1731.986486
  0
LINE
  8
3
 62
     3
  6
CONTINUOUS
 10
2867.863476
 20
1916.227117
 11
2792.863476
 21
1916.227117
  0
LINE
  8
3
 62
     3
  6
CONTINUOUS
 10
2717.863476
 20
1921.227117
 11
2867.863476
 21
1921.227117
  0
LINE
  8
3
 62
     3
  6
CONTINUOUS
 10
2717.863476
 20
1921.227117
 11
2717.863476
 21
1916.227117
  0
LINE
  8
0
 62
     3
  6
CONTINUOUS
 10
2878.863476
 20
1591.227117
 11
2878.863476
 21
1469.728715
  0
ARC
  8
3
 62
     3
  6
CONTINUOUS
 10
2854.863476
 20
1844.227117
 40
10.000000
 50
302.527138
 51
360.000000
  0
LINE
  8
3
 62
     3
  6
CONTINUOUS
 10
2720.863476
 20
1911.644541
 11
2720.863476
 21
1844.227117
  0
LINE
  8
3
 62
     3
  6
CONTINUOUS
 10
2864.863476
 20
1911.644541
 11
2864.863476
 21
1844.227117
  0
ARC
  8
3
 62
     3
  6
CONTINUOUS
 10
2730.863476
 20
1844.227117
 40
10.000000
 50
180.000000
 51
238.038250
  0
LINE
  8
3
 62
     3
  6
CENTER
 10
2958.797182
 20
1656.227117
 11
2690.937527
 21
1656.227117
  0
LINE
  8
0
 62
     2
  6
CONTINUOUS
 10
2890.863476
 20
1469.728715
 11
2897.863476
 21
1462.728715
  0
ARC
  8
3
 62
     3
  6
CONTINUOUS
 10
2715.863476
 20
1911.644541
 40
5.000000
 50
360.000000
 51
426.421822
  0
LINE
  8
3
 62
     3
  6
CONTINUOUS
 10
2867.863476
 20
1921.227117
 11
2867.863476
 21
1916.227117
  0
ARC
  8
0
 62
     3
  6
CONTINUOUS
 10
2843.863476
 20
1731.986486
 40
35.000000
 50
0.000000E+00
 51
17.716492
  0
ARC
  8
3
 62
     3
  6
CONTINUOUS
 10
2869.863476
 20
1911.644541
 40
5.000000
 50
113.578178
 51
180.000000
  0
LINE
  8
3
 62
     3
  6
CONTINUOUS
 10
2870.602498
 20
1739.103002
 11
2792.863476
 21
1739.103002
  0
ARC
  8
3
 62
     4
  6
CONTINUOUS
 10
2712.863476
 20
1082.355205
 40
25.000000
 50
0.000000E+00
 51
14.708304
  0
LINE
  8
3
 62
     4
  6
CONTINUOUS
 10
2708.010392
 20
1201.212593
 11
2737.044250
 21
1088.702658
  0
ARC
  8
3
 62
     4
  6
CONTINUOUS
 10
2741.863476
 20
1210.099028
 40
35.000000
 50
180.000000
 51
194.708304
  0
LINE
  8
3
 62
     4
  6
CONTINUOUS
 10
2737.863476
 20
1082.355205
 11
2737.863476
 21
938.227117
  0
ARC
  8
3
 62
     4
  6
CONTINUOUS
 10
2872.863476
 20
1082.355205
 40
25.000000
 50
165.291696
 51
180.000000
  0
LINE
  8
3
 62
     4
  6
CONTINUOUS
 10
2877.716560
 20
1201.212593
 11
2848.682702
 21
1088.702658
  0
ARC
  8
3
 62
     4
  6
CONTINUOUS
 10
2843.863476
 20
1210.099028
 40
35.000000
 50
345.291696
 51
360.000000
  0
LINE
  8
3
 62
     4
  6
CONTINUOUS
 10
2847.863476
 20
1082.355205
 11
2847.863476
 21
938.227117
  0
LINE
  8
3
 62
     4
  6
CONTINUOUS
 10
2845.863476
 20
936.227117
 11
2739.863476
 21
936.227117
  0
LINE
  8
3
 62
     4
  6
CONTINUOUS
 10
2742.612565
 20
1086.227117
 11
2843.114387
 21
1086.227117
  0
LINE
  8
3
 62
     4
  6
CONTINUOUS
 10
2712.114387
 20
1206.227117
 11
2873.612565
 21
1206.227117
  0
LINE
  8
3
 62
     4
  6
CONTINUOUS
 10
2699.863476
 20
1426.926479
 11
2885.863476
 21
1426.926479
  0
LINE
  8
3
 62
     4
  6
CONTINUOUS
 10
2878.863476
 20
1210.099028
 11
2878.863476
 21
1291.227117
  0
LINE
  8
3
 62
     4
  6
CONTINUOUS
 10
2688.863476
 20
1436.227117
 11
2896.863476
 21
1436.227117
  0
LINE
  8
3
 62
     4
  6
CONTINUOUS
 10
2897.863476
 20
1451.227117
 11
2687.863476
 21
1451.227117
  0
ARC
  8
3
 62
     4
  6
CONTINUOUS
 10
2739.863476
 20
938.227117
 40
2.000000
 50
180.000000
 51
270.000000
  0
ARC
  8
3
 62
     4
  6
CONTINUOUS
 10
2845.863476
 20
938.227117
 40
2.000000
 50
270.000000
 51
360.000000
  0
LINE
  8
3
 62
     4
  6
CONTINUOUS
 10
2897.863476
 20
1451.227117
 11
2897.863476
 21
1436.227117
  0
LINE
  8
3
 62
     4
  6
CONTINUOUS
 10
2896.863476
 20
1436.227117
 11
2897.863476
 21
1436.227117
  0
LINE
  8
3
 62
     3
  6
CENTER
 10
2714.374623
 20
1427.283548
 11
2714.374623
 21
1457.774319
  0
LINE
  8
3
 62
     3
  6
CENTER
 10
2871.352329
 20
1427.283548
 11
2871.352329
 21
1457.774319
  0
ARC
  8
3
 62
     4
  6
CONTINUOUS
 10
2896.863476
 20
1434.227117
 40
2.000000
 50
90.000000
 51
180.000000
  0
LINE
  8
3
 62
     4
  6
CONTINUOUS
 10
2894.863476
 20
1434.227117
 11
2894.863476
 21
1432.727117
  0
ARC
  8
3
 62
     4
  6
CONTINUOUS
 10
2893.363476
 20
1432.727117
 40
1.500000
 50
270.000000
 51
360.000000
  0
LINE
  8
3
 62
     4
  6
CONTINUOUS
 10
2893.363476
 20
1431.227117
 11
2692.363476
 21
1431.227117
  0
TEXT
  8
0
 62
     6
 10
2972.197047
 20
2620.285718
 40
32.000000
 50
0.000000E+00
 41
0.50 
  1
1
 72
     5
 11
2988.197047
 21
2620.285718
  0
ARC
  8
3
 62
     4
  6
CONTINUOUS
 10
2692.363476
 20
1432.727117
 40
1.500000
 50
180.000000
 51
270.000000
  0
LINE
  8
3
 62
     4
  6
CONTINUOUS
 10
2690.863476
 20
1434.227117
 11
2690.863476
 21
1432.727117
  0
ARC
  8
3
 62
     4
  6
CONTINUOUS
 10
2688.863476
 20
1434.227117
 40
2.000000
 50
0.000000E+00
 51
90.000000
  0
LINE
  8
3
 62
     4
  6
CONTINUOUS
 10
2688.863476
 20
1436.227117
 11
2687.863476
 21
1436.227117
  0
LINE
  8
3
 62
     4
  6
CONTINUOUS
 10
2687.863476
 20
1451.227117
 11
2687.863476
 21
1436.227117
  0
LINE
  8
0
 62
     3
  6
CONTINUOUS
 10
2706.863476
 20
1731.986486
 11
2706.863476
 21
1721.227117
  0
ARC
  8
0
 62
     3
  6
CONTINUOUS
 10
2741.863476
 20
1731.986486
 40
35.000000
 50
162.283508
 51
180.000000
  0
LINE
  8
3
 62
     3
  6
CONTINUOUS
 10
2853.833460
 20
1835.743100
 11
2792.863476
 21
1835.743100
  0
LINE
  8
0
 62
     3
  6
CONTINUOUS
 10
2732.110159
 20
1818.036132
 11
2708.523388
 21
1742.637240
  0
LINE
  8
0
 62
     3
  6
CONTINUOUS
 10
2853.616793
 20
1818.036132
 11
2877.203563
 21
1742.637240
  0
ARC
  8
2
 62
     3
  6
CONTINUOUS
 10
2717.821550
 20
1822.600741
 40
15.000000
 50
342.283508
 51
419.888987
  0
LINE
  8
3
 62
     4
  6
CENTER
 10
2792.863476
 20
1163.831738
 11
2792.863476
 21
1475.909326
  0
LINE
  8
3
 62
     4
  6
CENTER
 10
2792.863476
 20
923.139597
 11
2792.863476
 21
1163.831738
  0
LINE
  8
0
 62
     2
  6
CONTINUOUS
 10
2694.863476
 20
1469.728715
 11
2687.863476
 21
1462.728715
  0
LINE
  8
0
 62
     3
  6
CONTINUOUS
 10
2706.863476
 20
1591.227117
 11
2706.863476
 21
1469.728715
  0
ARC
  8
2
 62
     3
  6
CONTINUOUS
 10
2867.905401
 20
1822.600741
 40
15.000000
 50
120.111013
 51
197.716492
  0
TEXT
  8
0
 62
     7
 10
2906.717552
 20
1771.047523
 40
32.000000
 50
0.000000E+00
 41
0.78 
  1
７５枝管
 72
     5
 11
3018.717552
 21
1771.047523
  0
LINE
  8
3
 62
     3
  6
CONTINUOUS
 10
2876.677172
 20
1715.980203
 11
2873.115879
 21
1714.525073
  0
LINE
  8
3
 62
     3
  6
CONTINUOUS
 10
2873.115879
 20
1714.525073
 11
2869.680835
 21
1711.795239
  0
LINE
  8
3
 62
     3
  6
CONTINUOUS
 10
2869.680835
 20
1711.795239
 11
2866.447149
 21
1707.850390
  0
LINE
  8
3
 62
     3
  6
CONTINUOUS
 10
2866.447149
 20
1707.850390
 11
2863.485527
 21
1702.776782
  0
LINE
  8
3
 62
     3
  6
CONTINUOUS
 10
2863.485527
 20
1702.776782
 11
2860.860725
 21
1696.685350
  0
LINE
  8
3
 62
     3
  6
CONTINUOUS
 10
2860.860725
 20
1696.685350
 11
2858.630135
 21
1689.709286
  0
LINE
  8
3
 62
     3
  6
CONTINUOUS
 10
2858.630135
 20
1689.709286
 11
2856.842530
 21
1682.001123
  0
LINE
  8
3
 62
     3
  6
CONTINUOUS
 10
2856.842530
 20
1682.001123
 11
2855.536996
 21
1673.729404
  0
LINE
  8
3
 62
     3
  6
CONTINUOUS
 10
2855.536996
 20
1673.729404
 11
2854.742081
 21
1665.074991
  0
LINE
  8
3
 62
     3
  6
CONTINUOUS
 10
2854.742081
 20
1665.074991
 11
2854.475163
 21
1656.227117
  0
LINE
  8
3
 62
     3
  6
CONTINUOUS
 10
2854.742081
 20
1665.074991
 11
2854.475163
 21
1656.227117
  0
LINE
  8
3
 62
     3
  6
CONTINUOUS
 10
2854.475163
 20
1656.227117
 11
2854.796231
 21
1646.528564
  0
LINE
  8
3
 62
     3
  6
CONTINUOUS
 10
2854.796231
 20
1646.528564
 11
2855.750992
 21
1637.085095
  0
LINE
  8
3
 62
     3
  6
CONTINUOUS
 10
2855.750992
 20
1637.085095
 11
2857.314333
 21
1628.145085
  0
LINE
  8
3
 62
     3
  6
CONTINUOUS
 10
2857.314333
 20
1628.145085
 11
2859.445136
 21
1619.943668
  0
LINE
  8
3
 62
     3
  6
CONTINUOUS
 10
2859.445136
 20
1619.943668
 11
2862.087360
 21
1612.696551
  0
LINE
  8
3
 62
     3
  6
CONTINUOUS
 10
2862.087360
 20
1612.696551
 11
2865.171510
 21
1606.594342
  0
LINE
  8
3
 62
     3
  6
CONTINUOUS
 10
2865.171510
 20
1606.594342
 11
2868.616470
 21
1601.797538
  0
LINE
  8
3
 62
     3
  6
CONTINUOUS
 10
2868.616470
 20
1601.797538
 11
2872.331631
 21
1598.432300
  0
LINE
  8
3
 62
     3
  6
CONTINUOUS
 10
2872.331631
 20
1598.432300
 11
2876.219282
 21
1596.587137
  0
LINE
  8
3
 62
     3
  6
CONTINUOUS
 10
2872.331631
 20
1598.432300
 11
2876.219282
 21
1596.587137
  0
TEXT
  8
0
 62
     3
 10
3745.371675
 20
1679.070347
 40
32.000000
 50
0.000000E+00
 41
0.87 
  1
Ｃ矢視　（下部）
 72
     5
 11
4001.371675
 21
1679.070347
  0
LINE
  8
0
 62
     3
  6
CONTINUOUS
 10
3741.371675
 20
1673.737014
 11
3995.275810
 21
1673.737014
  0
LINE
  8
0
 62
     7
  6
CONTINUOUS
 10
2940.343034
 20
1762.311644
 11
2940.343034
 21
1720.527305
  0
SOLID
  8
0
 62
     7
 10
2932.578462
 20
1749.505080
 11
2948.107605
 21
1749.505080
 12
2940.343034
 22
1720.527305
 13
2940.343034
 23
1720.527305
  0
TEXT
  8
0
 62
     3
 10
3747.143081
 20
2040.702571
 40
32.000000
 50
360.000000
 41
0.86 
  1
ａ
 72
     5
 11
3779.143081
 21
2040.702571
  0
TEXT
  8
0
 62
     3
 10
3593.656222
 20
2145.055789
 40
32.000000
 50
0.000000E+00
 41
0.86 
  1
ｃ
 72
     5
 11
3625.656222
 21
2145.055789
  0
POINT
  8
0
 62
     3
 10
2792.863476
 20
1443.227117
  0
POINT
  8
0
 62
     3
 10
2792.863476
 20
1428.727117
  0
POINT
  8
0
 62
     3
 10
2792.863476
 20
1406.227117
  0
ARC
  8
0
 62
     2
  6
CONTINUOUS
 10
2693.863476
 20
1453.728715
 40
1.000000
 50
360.000000
 51
450.000000
  0
LINE
  8
0
 62
     2
  6
CONTINUOUS
 10
2694.863476
 20
1469.728715
 11
2890.863476
 21
1469.728715
  0
LINE
  8
3
 62
     3
  6
CONTINUOUS
 10
2947.863476
 20
1593.727117
 11
2947.863476
 21
1716.227117
  0
LINE
  8
3
 62
     3
  6
CONTINUOUS
 10
2947.863476
 20
1593.727117
 11
2952.863476
 21
1593.727117
  0
LINE
  8
3
 62
     3
  6
CONTINUOUS
 10
2947.863476
 20
1716.227117
 11
2887.863476
 21
1716.227117
  0
ARC
  8
1
 62
     3
  6
CONTINUOUS
 10
2885.863476
 20
1596.227117
 40
2.000000
 50
270.000000
 51
360.000000
  0
LINE
  8
3
 62
     3
  6
CONTINUOUS
 10
2947.863476
 20
1596.227117
 11
2887.863476
 21
1596.227117
  0
LINE
  8
3
 62
     3
  6
CONTINUOUS
 10
2947.863476
 20
1718.727117
 11
2952.863476
 21
1718.727117
  0
LINE
  8
3
 62
     3
  6
CONTINUOUS
 10
2947.863476
 20
1718.727117
 11
2947.863476
 21
1716.227117
  0
LINE
  8
3
 62
     3
  6
CONTINUOUS
 10
2952.863476
 20
1718.727117
 11
2952.863476
 21
1593.727117
  0
LINE
  8
1
 62
     3
  6
CONTINUOUS
 10
2885.863476
 20
1718.227117
 11
2881.863476
 21
1718.227117
  0
LINE
  8
1
 62
     3
  6
CONTINUOUS
 10
2885.863476
 20
1594.227117
 11
2881.863476
 21
1594.227117
  0
ARC
  8
1
 62
     3
  6
CONTINUOUS
 10
2885.863476
 20
1716.227117
 40
2.000000
 50
0.000000E+00
 51
90.000000
  0
ARC
  8
1
 62
     3
  6
CONTINUOUS
 10
2881.863476
 20
1721.227117
 40
3.000000
 50
180.000000
 51
270.000000
  0
ARC
  8
1
 62
     3
  6
CONTINUOUS
 10
2881.863476
 20
1591.227117
 40
3.000000
 50
90.000000
 51
180.000000
  0
ARC
  8
0
 62
     3
  6
CONTINUOUS
 10
2843.863476
 20
1731.986486
 40
35.000000
 50
0.000000E+00
 51
17.716492
  0
LINE
  8
0
 62
     3
  6
CONTINUOUS
 10
2878.863476
 20
1731.986486
 11
2878.863476
 21
1721.227117
  0
LINE
  8
0
 62
     2
  6
CONTINUOUS
 10
2687.863476
 20
1462.728715
 11
2792.863476
 21
1462.728715
  0
LINE
  8
3
 62
     3
  6
CENTER
 10
2792.863476
 20
1928.701565
 11
2792.863476
 21
1475.909326
  0
LINE
  8
3
 62
     3
  6
CONTINUOUS
 10
2715.124453
 20
1739.103002
 11
2792.863476
 21
1739.103002
  0
LINE
  8
3
 62
     3
  6
CONTINUOUS
 10
2731.893492
 20
1835.743100
 11
2792.863476
 21
1835.743100
  0
LINE
  8
3
 62
     3
  6
CONTINUOUS
 10
2717.863476
 20
1916.227117
 11
2792.863476
 21
1916.227117
  0
POINT
  8
0
 62
     3
 10
2792.863476
 20
1846.227117
  0
TEXT
  8
0
 62
     6
 10
2536.833607
 20
2563.812443
 40
35.000000
 50
0.000000E+00
 41
0.73 
  1
４ＳＦ－　　　－　　　　　　　　　０　　－Ｐ
 72
     5
 11
3173.833607
 21
2563.812443
  0
LINE
  8
0
 62
     2
  6
CONTINUOUS
 10
2897.863476
 20
1454.728715
 11
2897.863476
 21
1462.728715
  0
LINE
  8
0
 62
     2
  6
CONTINUOUS
 10
2890.863476
 20
1451.728715
 11
2890.863476
 21
1453.728715
  0
ARC
  8
0
 62
     2
  6
CONTINUOUS
 10
2891.863476
 20
1453.728715
 40
1.000000
 50
90.000000
 51
180.000000
  0
LINE
  8
0
 62
     2
  6
CONTINUOUS
 10
2897.863476
 20
1462.728715
 11
2792.863476
 21
1462.728715
  0
LINE
  8
0
 62
     2
  6
CONTINUOUS
 10
2897.863476
 20
1454.728715
 11
2792.863476
 21
1454.728715
  0
ARC
  8
0
 62
     4
  6
CONTINUOUS
 10
3634.000000
 20
2030.000000
 40
100.000000
 50
36.038338
 51
53.961662
  0
ARC
  8
3
 62
     3
  6
CONTINUOUS
 10
3634.000000
 20
2030.000000
 40
105.000000
 50
80.096801
 51
100.978618
  0
ARC
  8
0
 62
     4
  6
CONTINUOUS
 10
3634.000000
 20
2030.000000
 40
100.000000
 50
306.038338
 51
323.961662
  0
ARC
  8
0
 62
     4
  6
CONTINUOUS
 10
3634.000000
 20
2030.000000
 40
100.000000
 50
216.038338
 51
233.961662
  0
CIRCLE
  8
3
 62
     4
  6
CONTINUOUS
 10
3634.000000
 20
2030.000000
 40
88.000000
  0
ARC
  8
3
 62
     4
  6
CONTINUOUS
 10
3634.000000
 20
2030.000000
 40
100.000000
 50
53.109614
 51
126.890386
  0
LINE
  8
3
 62
     4
  6
CONTINUOUS
 10
3714.964607
 20
2121.250931
 11
3652.061853
 21
2133.453628
  0
ARC
  8
3
 62
     3
  6
CONTINUOUS
 10
3634.000000
 20
2030.000000
 40
105.000000
 50
259.021382
 51
279.903199
  0
ARC
  8
3
 62
     3
  6
CONTINUOUS
 10
3634.000000
 20
2030.000000
 40
105.000000
 50
170.096801
 51
189.903199
  0
LINE
  8
3
 62
     4
  6
CONTINUOUS
 10
3553.035393
 20
2121.250931
 11
3615.938147
 21
2133.453628
  0
LINE
  8
3
 62
     3
  6
CENTER
 10
3565.288243
 20
1961.288243
 11
3544.607067
 21
1940.607067
  0
LINE
  8
3
 62
     4
  6
CONTINUOUS
 10
3542.749069
 20
2110.964607
 11
3530.546372
 21
2048.061853
  0
ARC
  8
3
 62
     4
  6
CENTER
 10
3634.000000
 20
2030.000000
 40
111.000000
 50
216.265016
 51
232.275712
  0
LINE
  8
3
 62
     3
  6
CENTER
 10
3566.362469
 20
2097.637531
 11
3543.850513
 21
2120.149487
  0
ARC
  8
3
 62
     4
  6
CENTER
 10
3634.000000
 20
2030.000000
 40
111.000000
 50
126.069475
 51
144.182385
  0
ARC
  8
3
 62
     4
  6
CENTER
 10
3634.000000
 20
2030.000000
 40
111.000000
 50
34.449115
 51
54.970079
  0
LINE
  8
3
 62
     4
  6
CONTINUOUS
 10
3542.749069
 20
1949.035393
 11
3530.546372
 21
2011.938147
  0
LINE
  8
3
 62
     4
  6
CONTINUOUS
 10
3737.078324
 20
2049.996478
 11
3725.250931
 21
2110.964607
  0
LINE
  8
3
 62
     3
  6
CENTER
 10
3701.991228
 20
2097.991228
 11
3723.941928
 21
2119.941928
  0
LINE
  8
3
 62
     4
  6
CONTINUOUS
 10
3553.035393
 20
1938.749069
 11
3614.003522
 21
1926.921676
  0
ARC
  8
3
 62
     4
  6
CONTINUOUS
 10
3555.511147
 20
1951.511147
 40
13.000000
 50
190.978618
 51
259.021382
  0
ARC
  8
3
 62
     4
  6
CONTINUOUS
 10
3555.511147
 20
2108.488853
 40
13.000000
 50
100.978618
 51
169.021382
  0
ARC
  8
3
 62
     4
  6
CONTINUOUS
 10
3712.488853
 20
2108.488853
 40
13.000000
 50
10.978618
 51
79.021382
  0
LINE
  8
3
 62
     3
  6
CENTER
 10
3701.985865
 20
1962.014135
 11
3723.726559
 21
1940.273441
  0
LINE
  8
3
 62
     4
  6
CONTINUOUS
 10
3714.964607
 20
1938.749069
 11
3652.061853
 21
1926.546372
  0
LINE
  8
3
 62
     4
  6
CONTINUOUS
 10
3725.250931
 20
1949.035393
 11
3737.078324
 21
2010.003522
  0
ARC
  8
3
 62
     3
  6
CONTINUOUS
 10
3634.000000
 20
2030.000000
 40
105.000000
 50
349.021382
 51
370.978618
  0
CIRCLE
  8
3
 62
     3
  6
CONTINUOUS
 10
3634.000000
 20
2030.000000
 40
81.000000
  0
ARC
  8
3
 62
     4
  6
CONTINUOUS
 10
3712.488853
 20
1951.511147
 40
13.000000
 50
280.978618
 51
349.021382
  0
LINE
  8
3
 62
     3
  6
CENTER
 10
3634.000000
 20
2201.590491
 11
3634.000000
 21
1859.195580
  0
LINE
  8
3
 62
     3
  6
CENTER
 10
3517.580925
 20
2030.000000
 11
3799.479714
 21
2030.000000
  0
CIRCLE
  8
3
 62
     4
  6
CONTINUOUS
 10
3712.488853
 20
2108.488853
 40
7.000000
  0
CIRCLE
  8
3
 62
     4
  6
CONTINUOUS
 10
3712.488853
 20
1951.511147
 40
7.000000
  0
CIRCLE
  8
3
 62
     4
  6
CONTINUOUS
 10
3555.511147
 20
1951.511147
 40
7.000000
  0
CIRCLE
  8
3
 62
     4
  6
CONTINUOUS
 10
3555.511147
 20
2108.488853
 40
7.000000
  0
ARC
  8
3
 62
     4
  6
CENTER
 10
3634.000000
 20
2030.000000
 40
111.000000
 50
307.018997
 51
325.489571
  0
ARC
  8
3
 62
     4
  6
CONTINUOUS
 10
3634.000000
 20
2030.000000
 40
100.000000
 50
323.109614
 51
396.890386
  0
ARC
  8
3
 62
     4
  6
CONTINUOUS
 10
3634.000000
 20
2030.000000
 40
100.000000
 50
233.109614
 51
306.890386
  0
ARC
  8
3
 62
     4
  6
CONTINUOUS
 10
3634.000000
 20
2030.000000
 40
100.000000
 50
143.109614
 51
216.890386
  0
ARC
  8
0
 62
     4
  6
CONTINUOUS
 10
3634.000000
 20
2030.000000
 40
100.000000
 50
126.038338
 51
143.961662
  0
TEXT
  8
0
 62
     6
 10
2719.816479
 20
2563.910129
 40
35.000000
 50
0.000000E+00
 41
0.86 
  1
Ａ
 72
     5
 11
2754.816479
 21
2563.910129
  0
TEXT
  8
0
 62
     6
 10
2840.490420
 20
2564.910129
 40
35.000000
 50
0.000000E+00
 41
0.86 
  1
Ｄ
 72
     5
 11
2875.490420
 21
2564.910129
  0
TEXT
  8
0
 62
     6
 10
2801.990420
 20
2629.959535
 40
32.000000
 50
0.000000E+00
 41
0.97 
  1
下部
 72
     5
 11
2873.990420
 21
2629.959535
  0
TEXT
  8
0
 62
     6
 10
2681.990420
 20
2629.959535
 40
32.000000
 50
0.000000E+00
 41
0.97 
  1
上部
 72
     5
 11
2753.990420
 21
2629.959535
  0
LINE
  8
0
 62
     1
  6
CONTINUOUS
 10
2968.339644
 20
2173.589268
 11
2983.344340
 21
2173.589268
  0
LINE
  8
0
 62
     1
  6
CONTINUOUS
 10
3045.426602
 20
2173.589268
 11
3096.118163
 21
2173.589268
  0
INSERT
  8
0
  2
G12
 10
0
 20
0
  0
CIRCLE
  8
0
 62
     3
  6
CONTINUOUS
 10
2792.863476
 20
2173.589268
 40
86.000000
  0
INSERT
  8
0
  2
G13
 10
0
 20
0
  0
INSERT
  8
0
  2
G14
 10
0
 20
0
  0
INSERT
  8
0
  2
G15
 10
0
 20
0
  0
TEXT
  8
0
 62
     6
 10
3055.066195
 20
2663.926093
 40
32.000000
 50
0.000000E+00
 41
0.86 
  1
ｃ
 72
     5
 11
3087.066195
 21
2663.926093
  0
CIRCLE
  8
0
 62
     6
  6
HIDDEN
 10
2980.197047
 20
2636.285718
 40
20.000000
  0
TEXT
  8
0
 62
     6
 10
2972.197047
 20
2572.252299
 40
32.000000
 50
0.000000E+00
 41
0.50 
  1
2
 72
     5
 11
2988.197047
 21
2572.252299
  0
CIRCLE
  8
0
 62
     6
  6
HIDDEN
 10
2980.197047
 20
2588.252299
 40
20.000000
  0
INSERT
  8
0
  2
G16
 10
0
 20
0
  0
TEXT
  8
0
 62
     6
 10
3698.206339
 20
2441.134541
 40
32.000000
 50
0.000000E+00
 41
0.50 
  1
3
 72
     5
 11
3714.206339
 21
2441.134541
  0
TEXT
  8
0
 62
     6
 10
3698.206339
 20
2501.134541
 40
32.000000
 50
0.000000E+00
 41
0.50 
  1
2
 72
     5
 11
3714.206339
 21
2501.134541
  0
TEXT
  8
0
 62
     6
 10
3698.206339
 20
2561.134541
 40
32.000000
 50
0.000000E+00
 41
0.50 
  1
1
 72
     5
 11
3714.206339
 21
2561.134541
  0
TEXT
  8
0
 62
     6
 10
3729.294308
 20
2444.530401
 40
32.000000
 50
0.000000E+00
 41
0.74 
  1
：％％ｃ７５枝管
 72
     5
 11
3941.294308
 21
2444.530401
  0
TEXT
  8
0
 62
     6
 10
3729.294308
 20
2504.530401
 40
32.000000
 50
0.000000E+00
 41
0.74 
  1
：％％ｃ６５枝管
 72
     5
 11
3941.294308
 21
2504.530401
  0
TEXT
  8
0
 62
     6
 10
3729.294308
 20
2564.530401
 40
32.000000
 50
0.000000E+00
 41
0.74 
  1
：％％ｃ５０枝管
 72
     5
 11
3941.294308
 21
2564.530401
  0
TEXT
  8
0
 62
     6
 10
3631.418499
 20
2617.505821
 40
32.000000
 50
0.000000E+00
 41
0.97 
  1
枝管のタイプ（呼び径）
 72
     5
 11
4027.418499
 21
2617.505821
  0
POINT
  8
0
 62
     4
 10
2792.863476
 20
1406.227117
  0
POINT
  8
0
 62
     4
 10
2792.863476
 20
1356.227117
  0
LINE
  8
3
 62
     4
  6
CONTINUOUS
 10
2696.304328
 20
1431.227117
 11
2699.863476
 21
1426.926479
  0
INSERT
  8
0
  2
G17
 10
0
 20
0
  0
ARC
  8
0
 62
     3
  6
CONTINUOUS
 10
2732.863476
 20
2266.589268
 40
2.000000
 50
90.000000
 51
180.000000
  0
LINE
  8
0
 62
     3
  6
CONTINUOUS
 10
2730.863476
 20
2266.589268
 11
2730.863476
 21
2238.589268
  0
ARC
  8
0
 62
     3
  6
CONTINUOUS
 10
2852.863476
 20
2266.589268
 40
2.000000
 50
0.000000E+00
 51
90.000000
  0
LINE
  8
0
 62
     3
  6
CONTINUOUS
 10
2854.863476
 20
2266.589268
 11
2854.863476
 21
2238.589268
  0
LINE
  8
0
 62
     3
  6
CONTINUOUS
 10
2852.863476
 20
2268.589268
 11
2732.863476
 21
2268.589268
  0
ARC
  8
0
 62
     3
  6
CONTINUOUS
 10
2699.863476
 20
2233.589268
 40
2.000000
 50
90.000000
 51
180.000000
  0
LINE
  8
0
 62
     3
  6
CONTINUOUS
 10
2699.863476
 20
2235.589268
 11
2727.863476
 21
2235.589268
  0
LINE
  8
3
 62
     4
  6
CONTINUOUS
 10
2750.213740
 20
1401.227117
 11
2714.733633
 21
1401.227117
  0
LINE
  8
3
 62
     4
  6
CONTINUOUS
 10
2889.422624
 20
1431.227117
 11
2885.863476
 21
1426.926479
  0
LINE
  8
3
 62
     4
  6
CONTINUOUS
 10
2889.422624
 20
1431.227117
 11
2885.863476
 21
1426.926479
  0
ARC
  8
0
 62
     3
  6
CONTINUOUS
 10
2699.863476
 20
2113.589268
 40
2.000000
 50
180.000000
 51
270.000000
  0
LINE
  8
0
 62
     1
  6
CONTINUOUS
 10
3634.000000
 20
1810.671831
 11
3634.000000
 21
1744.620191
  0
INSERT
  8
0
  2
G18
 10
0
 20
0
  0
LINE
  8
0
 62
     3
  6
CONTINUOUS
 10
2699.863476
 20
2111.589268
 11
2732.545568
 21
2111.589268
  0
LINE
  8
0
 62
     3
  6
CONTINUOUS
 10
2697.863476
 20
2113.589268
 11
2697.863476
 21
2233.589268
  0
ARC
  8
0
 62
     3
  6
CONTINUOUS
 10
2857.863476
 20
2238.589268
 40
3.000000
 50
180.000000
 51
270.000000
  0
ARC
  8
0
 62
     3
  6
CONTINUOUS
 10
2727.863476
 20
2238.589268
 40
3.000000
 50
270.000000
 51
360.000000
  0
CIRCLE
  8
0
 62
     3
  6
CONTINUOUS
 10
2792.863476
 20
2173.589268
 40
67.000000
  0
CIRCLE
  8
0
 62
     3
  6
CONTINUOUS
 10
2792.863476
 20
2173.589268
 40
52.000000
  0
ARC
  8
0
 62
     3
  6
CONTINUOUS
 10
2885.863476
 20
2113.589268
 40
2.000000
 50
270.000000
 51
360.000000
  0
LINE
  8
0
 62
     3
  6
CONTINUOUS
 10
2885.863476
 20
2111.589268
 11
2853.181384
 21
2111.589268
  0
ARC
  8
0
 62
     3
  6
CONTINUOUS
 10
2885.863476
 20
2233.589268
 40
2.000000
 50
0.000000E+00
 51
90.000000
  0
LINE
  8
0
 62
     3
  6
CONTINUOUS
 10
2885.863476
 20
2235.589268
 11
2857.863476
 21
2235.589268
  0
LINE
  8
0
 62
     3
  6
CONTINUOUS
 10
2887.863476
 20
2233.589268
 11
2887.863476
 21
2113.589268
  0
LINE
  8
3
 62
     3
  6
CONTINUOUS
 10
2947.863476
 20
2113.589268
 11
2887.863476
 21
2113.589268
  0
LINE
  8
3
 62
     3
  6
CONTINUOUS
 10
2952.863476
 20
2236.089268
 11
2952.863476
 21
2111.089268
  0
LINE
  8
3
 62
     3
  6
CONTINUOUS
 10
2947.863476
 20
2236.089268
 11
2947.863476
 21
2233.589268
  0
LINE
  8
3
 62
     3
  6
CONTINUOUS
 10
2947.863476
 20
2236.089268
 11
2952.863476
 21
2236.089268
  0
LINE
  8
3
 62
     3
  6
CONTINUOUS
 10
2947.863476
 20
2111.089268
 11
2952.863476
 21
2111.089268
  0
LINE
  8
3
 62
     3
  6
CONTINUOUS
 10
2947.863476
 20
2111.089268
 11
2947.863476
 21
2233.589268
  0
LINE
  8
3
 62
     3
  6
CONTINUOUS
 10
2947.863476
 20
2233.589268
 11
2887.863476
 21
2233.589268
  0
CIRCLE
  8
0
 62
     3
  6
CONTINUOUS
 10
2792.863476
 20
2173.589268
 40
75.000000
  0
LINE
  8
3
 62
     3
  6
CENTER
 10
2958.339644
 20
2173.589268
 11
2686.670152
 21
2173.589268
  0
TEXT
  8
0
 62
     6
 10
2965.066195
 20
2663.926093
 40
32.000000
 50
0.000000E+00
 41
0.86 
  1
ｂ
 72
     5
 11
2997.066195
 21
2663.926093
  0
TEXT
  8
0
 62
     6
 10
2903.066195
 20
2663.926093
 40
32.000000
 50
0.000000E+00
 41
0.86 
  1
ａ
 72
     5
 11
2935.066195
 21
2663.926093
  0
LINE
  8
3
 62
     3
  6
CENTER
 10
2792.863476
 20
2272.030428
 11
2792.863476
 21
2071.490816
  0
INSERT
  8
0
  2
G19
 10
0
 20
0
  0
ARC
  8
1
 62
     3
  6
CONTINUOUS
 10
2703.363476
 20
1591.227117
 40
3.000000
 50
0.000000E+00
 51
90.000000
  0
ARC
  8
1
 62
     3
  6
CONTINUOUS
 10
2703.363476
 20
1721.227117
 40
3.000000
 50
270.000000
 51
360.000000
  0
ARC
  8
1
 62
     3
  6
CONTINUOUS
 10
2699.863476
 20
1716.227117
 40
2.000000
 50
90.000000
 51
180.000000
  0
LINE
  8
1
 62
     3
  6
CONTINUOUS
 10
2699.863476
 20
1594.227117
 11
2703.363476
 21
1594.227117
  0
LINE
  8
1
 62
     3
  6
CONTINUOUS
 10
2699.863476
 20
1718.227117
 11
2703.363476
 21
1718.227117
  0
ARC
  8
1
 62
     3
  6
CONTINUOUS
 10
2699.863476
 20
1596.227117
 40
2.000000
 50
180.000000
 51
270.000000
  0
LINE
  8
3
 62
     3
  6
CONTINUOUS
 10
2709.507670
 20
1596.587137
 11
2713.012657
 21
1598.178260
  0
LINE
  8
3
 62
     3
  6
CONTINUOUS
 10
2713.012657
 20
1598.178260
 11
2716.386026
 21
1601.006573
  0
LINE
  8
3
 62
     3
  6
CONTINUOUS
 10
2716.386026
 20
1601.006573
 11
2719.555879
 21
1605.011796
  0
LINE
  8
3
 62
     3
  6
CONTINUOUS
 10
2719.555879
 20
1605.011796
 11
2722.454659
 21
1610.108567
  0
LINE
  8
3
 62
     3
  6
CONTINUOUS
 10
2722.454659
 20
1610.108567
 11
2725.020583
 21
1616.188258
  0
LINE
  8
3
 62
     3
  6
CONTINUOUS
 10
2725.020583
 20
1616.188258
 11
2727.198965
 21
1623.121294
  0
LINE
  8
3
 62
     3
  6
CONTINUOUS
 10
2727.198965
 20
1623.121294
 11
2728.943376
 21
1630.759912
  0
LINE
  8
3
 62
     3
  6
CONTINUOUS
 10
2728.943376
 20
1630.759912
 11
2730.216638
 21
1638.941310
  0
LINE
  8
3
 62
     3
  6
CONTINUOUS
 10
2730.216638
 20
1638.941310
 11
2730.991615
 21
1647.491118
  0
LINE
  8
3
 62
     3
  6
CONTINUOUS
 10
2730.991615
 20
1647.491118
 11
2731.251789
 21
1656.227117
  0
LINE
  8
3
 62
     3
  6
CONTINUOUS
 10
2730.991615
 20
1647.491118
 11
2731.251789
 21
1656.227117
  0
LINE
  8
3
 62
     3
  6
CONTINUOUS
 10
2731.251789
 20
1656.227117
 11
2730.984871
 21
1665.074991
  0
LINE
  8
3
 62
     3
  6
CONTINUOUS
 10
2730.984871
 20
1665.074991
 11
2730.189955
 21
1673.729404
  0
LINE
  8
3
 62
     3
  6
CONTINUOUS
 10
2730.189955
 20
1673.729404
 11
2728.884422
 21
1682.001123
  0
LINE
  8
3
 62
     3
  6
CONTINUOUS
 10
2728.884422
 20
1682.001123
 11
2727.096817
 21
1689.709286
  0
LINE
  8
3
 62
     3
  6
CONTINUOUS
 10
2727.096817
 20
1689.709286
 11
2724.866227
 21
1696.685350
  0
LINE
  8
3
 62
     3
  6
CONTINUOUS
 10
2724.866227
 20
1696.685350
 11
2722.241425
 21
1702.776782
  0
LINE
  8
3
 62
     3
  6
CONTINUOUS
 10
2722.241425
 20
1702.776782
 11
2719.279802
 21
1707.850390
  0
LINE
  8
3
 62
     3
  6
CONTINUOUS
 10
2719.279802
 20
1707.850390
 11
2716.046117
 21
1711.795239
  0
LINE
  8
3
 62
     3
  6
CONTINUOUS
 10
2716.046117
 20
1711.795239
 11
2712.611073
 21
1714.525073
  0
LINE
  8
3
 62
     3
  6
CONTINUOUS
 10
2712.611073
 20
1714.525073
 11
2709.049779
 21
1715.980203
  0
LINE
  8
3
 62
     3
  6
CONTINUOUS
 10
2712.611073
 20
1714.525073
 11
2709.049779
 21
1715.980203
  0
LINE
  8
0
 62
     3
  6
CONTINUOUS
 10
2697.863476
 20
1716.227117
 11
2697.863476
 21
1596.227117
  0
LINE
  8
3
 62
     4
  6
CONTINUOUS
 10
2861.402053
 20
1399.309505
 11
2860.232149
 21
1396.408988
  0
LINE
  8
3
 62
     4
  6
CONTINUOUS
 10
2860.232149
 20
1396.408988
 11
2859.146301
 21
1393.327191
  0
LINE
  8
3
 62
     4
  6
CONTINUOUS
 10
2859.146301
 20
1393.327191
 11
2858.149405
 21
1390.078019
  0
LINE
  8
3
 62
     4
  6
CONTINUOUS
 10
2858.149405
 20
1390.078019
 11
2857.245960
 21
1386.676130
  0
LINE
  8
3
 62
     4
  6
CONTINUOUS
 10
2857.245960
 20
1386.676130
 11
2856.440041
 21
1383.136872
  0
LINE
  8
3
 62
     4
  6
CONTINUOUS
 10
2856.440041
 20
1383.136872
 11
2855.735285
 21
1379.476211
  0
LINE
  8
3
 62
     4
  6
CONTINUOUS
 10
2855.735285
 20
1379.476211
 11
2855.134871
 21
1375.710664
  0
LINE
  8
3
 62
     4
  6
CONTINUOUS
 10
2855.134871
 20
1375.710664
 11
2854.641507
 21
1371.857217
  0
LINE
  8
3
 62
     4
  6
CONTINUOUS
 10
2854.641507
 20
1371.857217
 11
2854.257420
 21
1367.933255
  0
LINE
  8
3
 62
     4
  6
CONTINUOUS
 10
2854.641507
 20
1371.857217
 11
2854.257420
 21
1367.933255
  0
LINE
  8
3
 62
     4
  6
CONTINUOUS
 10
2706.863476
 20
1206.227117
 11
2706.863476
 21
1426.926479
  0
LINE
  8
0
 62
     1
  6
CONTINUOUS
 10
3892.230486
 20
2112.868005
 11
3731.943237
 21
1952.580756
  0
INSERT
  8
0
  2
G20
 10
0
 20
0
  0
INSERT
  8
0
  2
G21
 10
0
 20
0
  0
LINE
  8
1
 62
     4
  6
CONTINUOUS
 10
2887.863476
 20
1416.227117
 11
2887.863476
 21
1296.227117
  0
ARC
  8
1
 62
     4
  6
CONTINUOUS
 10
2898.664793
 20
1390.987309
 40
30.639745
 50
117.551999
 51
146.328437
  0
LINE
  8
1
 62
     4
  6
CONTINUOUS
 10
2881.863476
 20
1294.227117
 11
2885.863476
 21
1294.227117
  0
ARC
  8
1
 62
     4
  6
CONTINUOUS
 10
2881.863476
 20
1291.227117
 40
3.000000
 50
90.000000
 51
180.000000
  0
POINT
  8
3
 62
     4
 10
2878.863476
 20
1294.227117
  0
POINT
  8
3
 62
     7
 10
2878.863476
 20
1416.227117
  0
LINE
  8
3
 62
     4
  6
CONTINUOUS
 10
2885.863476
 20
1426.926479
 11
2885.863476
 21
1418.227117
  0
ARC
  8
3
 62
     4
  6
CONTINUOUS
 10
2852.991659
 20
1428.175616
 40
28.500781
 50
295.487111
 51
314.942399
  0
POINT
  8
3
 62
     7
 10
2878.863476
 20
1416.227117
  0
ARC
  8
1
 62
     4
  6
CONTINUOUS
 10
2885.863476
 20
1296.227117
 40
2.000000
 50
270.000000
 51
360.000000
  0
LINE
  8
3
 62
     4
  6
CONTINUOUS
 10
2835.513212
 20
1401.227117
 11
2859.367838
 21
1401.227117
  0
ARC
  8
1
 62
     4
  6
CONTINUOUS
 10
2885.863476
 20
1416.227117
 40
2.000000
 50
0.000000E+00
 51
90.000000
  0
LINE
  8
1
 62
     4
  6
CONTINUOUS
 10
2887.863476
 20
1416.227117
 11
2887.863476
 21
1296.227117
  0
ARC
  8
1
 62
     4
  6
CONTINUOUS
 10
2885.863476
 20
1416.227117
 40
2.000000
 50
0.000000E+00
 51
90.000000
  0
ARC
  8
1
 62
     4
  6
CONTINUOUS
 10
2885.863476
 20
1296.227117
 40
2.000000
 50
270.000000
 51
360.000000
  0
ARC
  8
3
 62
     4
  6
CONTINUOUS
 10
2885.863476
 20
1416.227117
 40
2.000000
 50
0.000000E+00
 51
90.000000
  0
LINE
  8
3
 62
     4
  6
CONTINUOUS
 10
2887.863476
 20
1296.227117
 11
2887.863476
 21
1416.227117
  0
ARC
  8
3
 62
     4
  6
CONTINUOUS
 10
2885.863476
 20
1296.227117
 40
2.000000
 50
270.000000
 51
360.000000
  0
TEXT
  8
0
 62
     3
 10
3363.275499
 20
2278.332512
 40
32.000000
 50
360.000000
 41
1.02 
  1
受口深さ
 72
     5
 11
3515.275499
 21
2278.332512
  0
LINE
  8
0
 62
     3
  6
CONTINUOUS
 10
3498.261985
 20
2189.670349
 11
3498.261985
 21
2264.856678
  0
SOLID
  8
0
 62
     3
 10
3490.497414
 20
2218.648124
 11
3506.026557
 21
2218.648124
 12
3498.261985
 22
2189.670349
 13
3498.261985
 23
2189.670349
  0
INSERT
  8
0
  2
G22
 10
0
 20
0
  0
INSERT
  8
0
  2
G23
 10
0
 20
0
  0
LINE
  8
0
 62
     3
  6
CONTINUOUS
 10
3453.518284
 20
1805.899468
 11
3453.518284
 21
1879.459459
  0
SOLID
  8
0
 62
     3
 10
3461.282855
 20
1850.481685
 11
3445.753713
 21
1850.481685
 12
3453.518284
 22
1879.459459
 13
3453.518284
 23
1879.459459
  0
TEXT
  8
0
 62
     6
 10
3198.587629
 20
2583.485825
 40
35.000000
 50
0.000000E+00
 41
0.60 
  1
240,260,280
 72
     5
 11
3431.087629
 21
2583.485825
  0
TEXT
  8
0
 62
     6
 10
3200.448131
 20
2541.370812
 40
35.000000
 50
0.000000E+00
 41
0.60 
  1
300,340,360
 72
     5
 11
3432.948131
 21
2541.370812
  0
CIRCLE
  8
0
 62
     6
  6
HIDDEN
 10
2918.197047
 20
2588.252299
 40
20.000000
  0
TEXT
  8
0
 62
     6
 10
2910.197047
 20
2572.252299
 40
32.000000
 50
0.000000E+00
 41
0.50 
  1
2
 72
     5
 11
2926.197047
 21
2572.252299
  0
CIRCLE
  8
0
 62
     6
  6
HIDDEN
 10
2918.197047
 20
2636.285718
 40
20.000000
  0
TEXT
  8
0
 62
     6
 10
2910.197047
 20
2620.285718
 40
32.000000
 50
0.000000E+00
 41
0.50 
  1
1
 72
     5
 11
2926.197047
 21
2620.285718
  0
CIRCLE
  8
0
 62
     6
  6
HIDDEN
 10
3070.197047
 20
2588.252299
 40
20.000000
  0
TEXT
  8
0
 62
     6
 10
3062.197047
 20
2572.252299
 40
32.000000
 50
0.000000E+00
 41
0.50 
  1
2
 72
     5
 11
3078.197047
 21
2572.252299
  0
CIRCLE
  8
0
 62
     6
  6
HIDDEN
 10
3070.197047
 20
2636.285718
 40
20.000000
  0
TEXT
  8
0
 62
     6
 10
3062.197047
 20
2620.285718
 40
32.000000
 50
0.000000E+00
 41
0.50 
  1
1
 72
     5
 11
3078.197047
 21
2620.285718
  0
CIRCLE
  8
0
 62
     6
  6
HIDDEN
 10
2980.197047
 20
2588.252299
 40
20.000000
  0
TEXT
  8
0
 62
     6
 10
2972.197047
 20
2572.252299
 40
32.000000
 50
0.000000E+00
 41
0.50 
  1
2
 72
     5
 11
2988.197047
 21
2572.252299
  0
CIRCLE
  8
0
 62
     6
  6
HIDDEN
 10
2980.197047
 20
2636.285718
 40
20.000000
  0
TEXT
  8
0
 62
     6
 10
2972.197047
 20
2620.285718
 40
32.000000
 50
0.000000E+00
 41
0.50 
  1
1
 72
     5
 11
2988.197047
 21
2620.285718
  0
TEXT
  8
0
 62
     3
 10
3593.656222
 20
1882.944211
 40
32.000000
 50
0.000000E+00
 41
0.86 
  1
ｂ
 72
     5
 11
3625.656222
 21
1882.944211
  0
INSERT
  8
0
  2
G24
 10
0
 20
0
  0
LINE
  8
0
 62
     1
  6
CONTINUOUS
 10
3568.361184
 20
2125.000000
 11
3472.375253
 21
2125.000000
  0
INSERT
  8
0
  2
G25
 10
0
 20
0
  0
LINE
  8
0
 62
     3
  6
CONTINUOUS
 10
3789.984478
 20
1838.142383
 11
3833.040541
 21
1838.142383
  0
SOLID
  8
0
 62
     3
 10
3818.962252
 20
1845.906954
 11
3818.962252
 21
1830.377812
 12
3789.984478
 22
1838.142383
 13
3789.984478
 23
1838.142383
  0
LINE
  8
0
 62
     3
  6
CONTINUOUS
 10
3192.022257
 20
1923.559991
 11
3192.022257
 21
1986.397829
  0
SOLID
  8
0
 62
     3
 10
3184.257685
 20
1952.537766
 11
3199.786828
 21
1952.537766
 12
3192.022257
 22
1923.559991
 13
3192.022257
 23
1923.559991
  0
INSERT
  8
0
  2
G26
 10
0
 20
0
  0
LINE
  8
0
 62
     3
  6
CONTINUOUS
 10
3588.170732
 20
1867.061440
 11
3549.528241
 21
1755.870811
  0
SOLID
  8
0
 62
     3
 10
3585.992353
 20
1837.140634
 11
3571.323797
 21
1842.238451
 12
3588.170732
 22
1867.061440
 13
3588.170732
 23
1867.061440
  0
INSERT
  8
0
  2
G27
 10
0
 20
0
  0
LINE
  8
0
 62
     3
  6
CONTINUOUS
 10
3764.515404
 20
1966.973186
 11
3858.193196
 21
1894.187564
  0
SOLID
  8
0
 62
     3
 10
3792.161868
 20
1955.325309
 11
3782.634005
 21
1943.062597
 12
3764.515404
 22
1966.973186
 13
3764.515404
 23
1966.973186
  0
INSERT
  8
0
  2
G28
 10
0
 20
0
  0
LINE
  8
0
 62
     3
  6
CONTINUOUS
 10
3592.660462
 20
2191.732493
 11
3503.700257
 21
2354.826203
  0
SOLID
  8
0
 62
     3
 10
3571.967910
 20
2213.453872
 11
3585.600876
 21
2220.890035
 12
3592.660462
 22
2191.732493
 13
3592.660462
 23
2191.732493
  0
LINE
  8
0
 62
     3
  6
CONTINUOUS
 10
3503.700257
 20
2354.826203
 11
3481.965661
 21
2354.826203
  0
INSERT
  8
0
  2
G29
 10
0
 20
0
  0
INSERT
  8
0
  2
G30
 10
0
 20
0
  0
INSERT
  8
0
  2
G31
 10
0
 20
0
  0
INSERT
  8
0
  2
G32
 10
0
 20
0
  0
INSERT
  8
0
  2
G33
 10
0
 20
0
  0
INSERT
  8
0
  2
G34
 10
0
 20
0
  0
INSERT
  8
0
  2
G35
 10
0
 20
0
  0
INSERT
  8
0
  2
G36
 10
0
 20
0
  0
INSERT
  8
0
  2
G37
 10
0
 20
0
  0
INSERT
  8
0
  2
G38
 10
0
 20
0
  0
INSERT
  8
0
  2
G39
 10
0
 20
0
  0
INSERT
  8
0
  2
G40
 10
0
 20
0
  0
INSERT
  8
0
  2
G41
 10
0
 20
0
  0
INSERT
  8
0
  2
G42
 10
0
 20
0
  0
INSERT
  8
0
  2
G43
 10
0
 20
0
  0
INSERT
  8
0
  2
G44
 10
0
 20
0
  0
INSERT
  8
0
  2
G45
 10
0
 20
0
  0
INSERT
  8
0
  2
G46
 10
0
 20
0
  0
TEXT
  8
0
 62
     3
 10
3311.553615
 20
579.564184
 40
32.000000
 50
0.000000E+00
 41
0.94 
  1
対応可能Ｐ寸法　２４０～３６０
 72
     5
 11
3837.267923
 21
579.564184
  0
LINE
  8
0
 62
     2
  6
CONTINUOUS
 10
3244.712419
 20
640.281646
 11
4024.114339
 21
640.281646
  0
TEXT
  8
0
 62
     2
 10
3733.220431
 20
667.585896
 40
30.000000
 50
0.000000E+00
 41
0.61 
  1
925
 72
     5
 11
3788.220431
 21
667.585896
  0
TEXT
  8
0
 62
     2
 10
3630.421191
 20
667.585896
 40
30.000000
 50
0.000000E+00
 41
0.61 
  1
905
 72
     5
 11
3685.421191
 21
667.585896
  0
TEXT
  8
0
 62
     2
 10
3530.968711
 20
669.313032
 40
30.000000
 50
0.000000E+00
 41
0.61 
  1
885
 72
     5
 11
3585.968711
 21
669.313032
  0
TEXT
  8
0
 62
     2
 10
3836.729671
 20
669.313032
 40
30.000000
 50
0.000000E+00
 41
0.61 
  1
965
 72
     5
 11
3891.729671
 21
669.313032
  0
TEXT
  8
0
 62
     2
 10
3429.049031
 20
760.753032
 40
30.000000
 50
0.000000E+00
 41
0.61 
  1
790
 72
     5
 11
3484.049031
 21
760.753032
  0
TEXT
  8
0
 62
     2
 10
3941.182151
 20
667.585896
 40
30.000000
 50
0.000000E+00
 41
0.61 
  1
985
 72
     5
 11
3996.182151
 21
667.585896
  0
TEXT
  8
0
 62
     2
 10
3429.049031
 20
669.313032
 40
30.000000
 50
0.000000E+00
 41
0.61 
  1
865
 72
     5
 11
3484.049031
 21
669.313032
  0
TEXT
  8
0
 62
     2
 10
3836.490686
 20
837.196846
 40
30.000000
 50
0.000000E+00
 41
0.61 
  1
340
 72
     5
 11
3891.490686
 21
837.196846
  0
TEXT
  8
0
 62
     2
 10
3734.570046
 20
837.196846
 40
30.000000
 50
0.000000E+00
 41
0.61 
  1
300
 72
     5
 11
3789.570046
 21
837.196846
  0
TEXT
  8
0
 62
     2
 10
3632.649406
 20
837.196846
 40
30.000000
 50
0.000000E+00
 41
0.61 
  1
280
 72
     5
 11
3687.649406
 21
837.196846
  0
TEXT
  8
0
 62
     2
 10
3428.810046
 20
837.196846
 40
30.000000
 50
0.000000E+00
 41
0.61 
  1
240
 72
     5
 11
3483.810046
 21
837.196846
  0
LINE
  8
0
 62
     2
  6
CONTINUOUS
 10
3810.274019
 20
884.601646
 11
3810.274019
 21
640.281646
  0
TEXT
  8
0
 62
     2
 10
3255.240523
 20
673.627725
 40
30.000000
 50
0.000000E+00
 41
0.72 
  1
Ｌｔ（全長）
 72
     5
 11
3405.240523
 21
673.627725
  0
LINE
  8
0
 62
     2
  6
CONTINUOUS
 10
3244.712419
 20
731.721646
 11
4024.114339
 21
731.721646
  0
TEXT
  8
0
 62
     2
 10
3941.182151
 20
759.025896
 40
30.000000
 50
0.000000E+00
 41
0.61 
  1
910
 72
     5
 11
3996.182151
 21
759.025896
  0
LINE
  8
0
 62
     2
  6
CONTINUOUS
 10
3244.712419
 20
884.601646
 11
4024.114339
 21
884.601646
  0
TEXT
  8
0
 62
     2
 10
3836.729671
 20
760.753032
 40
30.000000
 50
0.000000E+00
 41
0.61 
  1
890
 72
     5
 11
3891.729671
 21
760.753032
  0
LINE
  8
0
 62
     2
  6
CONTINUOUS
 10
3402.593379
 20
884.601646
 11
3402.593379
 21
640.281646
  0
LINE
  8
0
 62
     2
  6
CONTINUOUS
 10
3504.513059
 20
884.601646
 11
3504.513059
 21
640.281646
  0
LINE
  8
0
 62
     2
  6
CONTINUOUS
 10
3606.432739
 20
884.601646
 11
3606.432739
 21
640.281646
  0
LINE
  8
0
 62
     2
  6
CONTINUOUS
 10
3708.353379
 20
884.601646
 11
3708.353379
 21
640.281646
  0
LINE
  8
0
 62
     2
  6
CONTINUOUS
 10
4024.114339
 20
884.601646
 11
4024.114339
 21
640.281646
  0
LINE
  8
0
 62
     2
  6
CONTINUOUS
 10
3912.193699
 20
884.601646
 11
3912.193699
 21
640.281646
  0
TEXT
  8
0
 62
     2
 10
3943.410366
 20
837.196846
 40
30.000000
 50
0.000000E+00
 41
0.61 
  1
360
 72
     5
 11
3998.410366
 21
837.196846
  0
LINE
  8
0
 62
     2
  6
CONTINUOUS
 10
3244.712419
 20
823.161646
 11
4024.114339
 21
823.161646
  0
TEXT
  8
0
 62
     2
 10
3255.240523
 20
765.067725
 40
30.000000
 50
0.000000E+00
 41
0.72 
  1
Ｌ（有効長）
 72
     5
 11
3405.240523
 21
765.067725
  0
LINE
  8
0
 62
     2
  6
CONTINUOUS
 10
3244.712419
 20
884.601646
 11
3244.712419
 21
640.281646
  0
LINE
  8
0
 62
     2
  6
CONTINUOUS
 10
4022.541101
 20
871.364597
 11
4022.541101
 21
871.364405
  0
TEXT
  8
0
 62
     2
 10
3530.968711
 20
760.753032
 40
30.000000
 50
0.000000E+00
 41
0.61 
  1
810
 72
     5
 11
3585.968711
 21
760.753032
  0
TEXT
  8
0
 62
     2
 10
3630.421191
 20
759.025896
 40
30.000000
 50
0.000000E+00
 41
0.61 
  1
830
 72
     5
 11
3685.421191
 21
759.025896
  0
TEXT
  8
0
 62
     2
 10
3530.729726
 20
837.196846
 40
30.000000
 50
0.000000E+00
 41
0.61 
  1
260
 72
     5
 11
3585.729726
 21
837.196846
  0
TEXT
  8
0
 62
     2
 10
3314.281517
 20
837.217257
 40
30.000000
 50
0.000000E+00
 41
0.86 
  1
Ｐ
 72
     5
 11
3344.281517
 21
837.217257
  0
TEXT
  8
0
 62
     2
 10
3733.220431
 20
759.025896
 40
30.000000
 50
0.000000E+00
 41
0.61 
  1
850
 72
     5
 11
3788.220431
 21
759.025896
  0
TEXT
  8
0
 62
     2
 10
3948.410366
 20
938.636846
 40
30.000000
 50
0.000000E+00
 41
0.58 
  1
44
 72
     5
 11
3983.410366
 21
938.636846
  0
TEXT
  8
0
 62
     2
 10
3836.489726
 20
938.636846
 40
30.000000
 50
0.000000E+00
 41
0.58 
  1
52
 72
     5
 11
3871.489726
 21
938.636846
  0
TEXT
  8
0
 62
     2
 10
3737.498474
 20
1121.253863
 40
25.600000
 50
0.000000E+00
 41
0.55 
  1
100
 72
     5
 11
3779.555619
 21
1121.253863
  0
TEXT
  8
0
 62
     2
 10
3720.968180
 20
1159.938571
 40
18.400000
 50
0.000000E+00
 41
0.89 
  1
立管受口
 72
     5
 11
3796.968179
 21
1159.938571
  0
TEXT
  8
0
 62
     2
 10
3948.410366
 20
1061.516846
 40
30.000000
 50
0.000000E+00
 41
0.58 
  1
65
 72
     5
 11
3983.410366
 21
1061.516846
  0
TEXT
  8
0
 62
     2
 10
3836.489726
 20
1061.516846
 40
30.000000
 50
0.000000E+00
 41
0.58 
  1
65
 72
     5
 11
3871.489726
 21
1061.516846
  0
TEXT
  8
0
 62
     2
 10
3744.570046
 20
1061.516846
 40
30.000000
 50
0.000000E+00
 41
0.58 
  1
75
 72
     5
 11
3779.570046
 21
1061.516846
  0
LINE
  8
0
 62
     2
  6
CONTINUOUS
 10
3800.273059
 20
986.041646
 11
3718.353379
 21
924.601646
  0
LINE
  8
0
 62
     2
  6
CONTINUOUS
 10
4024.114339
 20
1190.846702
 11
4024.114339
 21
924.601646
  0
TEXT
  8
0
 62
     2
 10
3607.250523
 20
942.947725
 40
30.000000
 50
0.000000E+00
 41
0.86 
  1
Ｂ寸法
 72
     5
 11
3697.250523
 21
942.947725
  0
LINE
  8
0
 62
     2
  6
CONTINUOUS
 10
3595.472419
 20
986.041646
 11
4024.114339
 21
986.041646
  0
LINE
  8
0
 62
     2
  6
CONTINUOUS
 10
3800.273059
 20
1149.881678
 11
4024.114339
 21
1149.881678
  0
LINE
  8
0
 62
     2
  6
CONTINUOUS
 10
3595.472419
 20
1108.921646
 11
4024.114339
 21
1108.921646
  0
TEXT
  8
0
 62
     2
 10
3811.487268
 20
1154.795013
 40
30.000000
 50
0.000000E+00
 41
0.72 
  1
下部横枝管サイズ
 72
     5
 11
4011.487268
 21
1154.795013
  0
LINE
  8
0
 62
     2
  6
CONTINUOUS
 10
3718.353379
 20
1189.607822
 11
3718.353379
 21
924.601646
  0
LINE
  8
0
 62
     2
  6
CONTINUOUS
 10
3800.273059
 20
1189.607822
 11
3800.273059
 21
924.601646
  0
LINE
  8
0
 62
     2
  6
CONTINUOUS
 10
3800.273059
 20
1047.481646
 11
3718.353379
 21
986.041646
  0
LINE
  8
0
 62
     2
  6
CONTINUOUS
 10
3912.193699
 20
1149.881486
 11
3912.193699
 21
924.601646
  0
LINE
  8
0
 62
     2
  6
CONTINUOUS
 10
3595.472419
 20
924.601646
 11
4024.114339
 21
924.601646
  0
TEXT
  8
0
 62
     2
 10
3816.535645
 20
1114.716379
 40
30.000000
 50
0.000000E+00
 41
0.63 
  1
65(2)
 72
     5
 11
3911.535645
 21
1114.716379
  0
TEXT
  8
0
 62
     2
 10
3928.456285
 20
1114.716379
 40
30.000000
 50
0.000000E+00
 41
0.63 
  1
50(1)
 72
     5
 11
4023.456285
 21
1114.716379
  0
LINE
  8
0
 62
     2
  6
CONTINUOUS
 10
3595.472419
 20
1149.881678
 11
3595.472419
 21
924.601646
  0
LINE
  8
0
 62
     2
  6
CONTINUOUS
 10
3595.472419
 20
1047.481646
 11
4024.114339
 21
1047.481646
  0
TEXT
  8
0
 62
     2
 10
3607.250523
 20
1004.387725
 40
30.000000
 50
0.000000E+00
 41
0.86 
  1
Ａ寸法
 72
     5
 11
3697.250523
 21
1004.387725
  0
LINE
  8
0
 62
     2
  6
CONTINUOUS
 10
3595.472419
 20
1149.881678
 11
3595.472419
 21
1190.846702
  0
LINE
  8
0
 62
     2
  6
CONTINUOUS
 10
3595.472419
 20
1190.846702
 11
4024.114339
 21
1190.846702
  0
LINE
  8
0
 62
     2
  6
CONTINUOUS
 10
3994.113379
 20
1149.881678
 11
3994.113379
 21
1149.881486
  0
TEXT
  8
0
 62
     2
 10
3824.261511
 20
1000.076846
 40
30.000000
 50
0.000000E+00
 41
0.61 
  1
110
 72
     5
 11
3879.261511
 21
1000.076846
  0
TEXT
  8
0
 62
     2
 10
3600.041517
 20
1061.537257
 40
30.000000
 50
0.000000E+00
 41
0.86 
  1
受口深さ
 72
     5
 11
3720.041517
 21
1061.537257
  0
LINE
  8
0
 62
     2
  6
CONTINUOUS
 10
3595.472419
 20
1190.846702
 11
3718.353379
 21
1108.921646
  0
TEXT
  8
0
 62
     2
 10
3948.410366
 20
1000.076846
 40
30.000000
 50
0.000000E+00
 41
0.58 
  1
94
 72
     5
 11
3983.410366
 21
1000.076846
  0
ENDSEC
  0
EOF
