  0
SECTION
  2
HEADER
  9
$INSBASE
 10
0
 20
0
  9
$EXTMIN
 10
0
 20
0
  9
$EXTMAX
 10
4200.000000
 20
2970.000000
  9
$LIMMIN
 10
0
 20
0
  9
$LIMMAX
 10
4200.000000
 20
2970.000000
  9
$VIEWCTR
 10
2100.000000
 20
1485.000000
  9
$DIMASZ
 40
20.000000
  9
$DIMDLI
 40
80.000000
  9
$DIMEXE
 40
10.000000
  9
$DIMEXO
 40
10.000000
  9
$DIMTXT
 40
32.000000
  9
$TEXTSIZE
 40
32.000000
  9
$ANGBASE
 50
0.0
  9
$ANGDIR
 70
     0
  9
$ATTMODE
 70
     1
  9
$AUNITS
 70
     1
  9
$AUPREC
 70
     2
  9
$AXISMODE
 70
     0
  9
$AXISUNIT
 10
0.0
 20
0.0
  9
$BLIPMODE
 70
     1
  9
$CECOLOR
 62
   256
  9
$CELTYPE
  6
BYLAYER
  9
$CHAMFERA
 40
0.0
  9
$CHAMFERB
 40
0.0
  9
$CLAYER
  8
0
  9
$COORDS
 70
     0
  9
$DIMALT
 70
     0
  9
$DIMALTD
 70
     2
  9
$DIMALTF
 40
25.4
  9
$DIMDLE
 40
0.0
  9
$DIMLFAC
 40
1.0
  9
$DIMLIM
 70
     0
  9
$DIMRND
 40
0.0
  9
$DIMSCALE
 40
1.0
  9
$DIMSE1
 70
     0
  9
$DIMSE2
 70
     0
  9
$DIMTAD
 70
     1
  9
$DIMTIH
 70
     0
  9
$DIMTM
 40
0.0
  9
$DIMTOH
 70
     0
  9
$DIMTOL
 70
     0
  9
$DIMTP
 40
0.0
  9
$DIMTSZ
 40
0.0
  9
$DIMZIN
 70
     0
  9
$DRAGMODE
 70
     2
  9
$ELEVATION
 40
0.0
  9
$FASTZOOM
 70
     1
  9
$FILLETRAD
 40
0.0
  9
$FILLMODE
 70
     1
  9
$GRIDMODE
 70
     0
  9
$GRIDUNIT
 10
0.0
 20
0.0
  9
$LTSCALE
 40
1.0
  9
$LUNITS
 70
     2
  9
$LUPREC
 70
     2
  9
$MENU
  1
ACAD
  9
$ORTHOMODE
 70
     0
  9
$OSMODE
 70
     0
  9
$PDMODE
 70
     0
  9
$PDSIZE
 40
0.0
  9
$PLINEWID
 40
0.0
  9
$QTEXTMODE
 70
     0
  9
$REGENMODE
 70
     1
  9
$SKETCHINC
 40
0.1
  9
$SKPOLY
 70
     0
  9
$SNAPBASE
 10
0.0
 20
0.0
  9
$SNAPISOPAIR
 70
     0
  9
$SNAPMODE
 70
     0
  9
$SNAPSTYLE
 70
     0
  9
$SNAPUNIT
 10
0.0
 20
0.0
  9
$TEXTSTYLE
  7
KANJI
  9
$THICKNESS
 40
0.0
  9
$TRACEWID
 40
0.05
  9
$VIEWDIR
 10
0.0
 20
0.0
 30
1.0
  9
$VIEWSIZE
 40
0.0
  0
ENDSEC
  0
SECTION
  2
TABLES
  0
TABLE
  2
LTYPE
 70
     9
  0
LTYPE
  2
CONTINUOUS
 70
    64
  3
Solid line
 72
    65
 73
     0
 40
0.0
  0
LTYPE
  2
DASHED
 70
    64
  3
__ __ __ __ __ __ __ __ __ __ __ __ __ __ __
 72
    65
 73
     2
 40
0.75
 49
0.5
 49
-0.25
  0
LTYPE
  2
HIDDEN
 70
    64
  3
_ _ _ _ _ _ _ _ _ _ _ _ _ _ _ _ _ _ _ _ _ _ _
 72
    65
 73
     2
 40
0.375
 49
0.25
 49
-0.125
  0
LTYPE
  2
CENTER
 70
    64
  3
____ _ ____ _ ____ _ ____ _ ____ _ ____ _ ____
 72
    65
 73
     4
 40
2.0
 49
1.25
 49
-0.25
 49
0.25
 49
-0.25
  0
LTYPE
  2
PHANTOM
 70
    64
  3
_____ _ _ _____ _ _ _____ _ _ _____ _ _ ____
 72
    65
 73
     6
 40
2.5
 49
1.25
 49
-0.25
 49
0.25
 49
-0.25
 49
0.25
 49
-0.25
  0
LTYPE
  2
DOT
 70
    64
  3
...............................................
 72
    65
 73
     2
 40
0.25
 49
0.0
 49
-0.25
  0
LTYPE
  2
DASHDOT
 70
    64
  3
__ . __ . __ . __ . __ . __ . __ . __ . __ . __
 72
    65
 73
     4
 40
1.0
 49
0.5
 49
-0.25
 49
0.0
 49
-0.25
  0
LTYPE
  2
BORDER
 70
    64
  3
__ __ . __ __ . __ __ . __ __ . __ __ . __ __
 72
    65
 73
     6
 40
1.75
 49
0.5
 49
-0.25
 49
0.5
 49
-0.25
 49
0.0
 49
-0.25
  0
LTYPE
  2
DIVIDE
 70
    64
  3
__ . . __ . . __ . . __ . . __ . . __ . . __
 72
    65
 73
     6
 40
1.25
 49
0.5
 49
-0.25
 49
0.0
 49
-0.25
 49
0.0
 49
-0.25
  0
ENDTAB
  0
TABLE
  2
LAYER
 70
   100
  0
LAYER
  2
0
 70
     0
 62
     3
  6
CONTINUOUS
  0
LAYER
  2
1
 70
     0
 62
     3
  6
CONTINUOUS
  0
LAYER
  2
2
 70
     0
 62
     3
  6
CONTINUOUS
  0
LAYER
  2
3
 70
     0
 62
     3
  6
CONTINUOUS
  0
LAYER
  2
4
 70
     0
 62
     3
  6
CONTINUOUS
  0
LAYER
  2
5
 70
     0
 62
     3
  6
CONTINUOUS
  0
LAYER
  2
6
 70
     0
 62
     3
  6
CONTINUOUS
  0
LAYER
  2
7
 70
     0
 62
     3
  6
CONTINUOUS
  0
LAYER
  2
8
 70
     0
 62
     3
  6
CONTINUOUS
  0
LAYER
  2
9
 70
     0
 62
     3
  6
CONTINUOUS
  0
LAYER
  2
10
 70
     0
 62
     3
  6
CONTINUOUS
  0
LAYER
  2
11
 70
     0
 62
     3
  6
CONTINUOUS
  0
LAYER
  2
12
 70
     0
 62
     3
  6
CONTINUOUS
  0
LAYER
  2
13
 70
     0
 62
     3
  6
CONTINUOUS
  0
LAYER
  2
14
 70
     0
 62
     3
  6
CONTINUOUS
  0
LAYER
  2
15
 70
     0
 62
     3
  6
CONTINUOUS
  0
LAYER
  2
16
 70
     0
 62
     3
  6
CONTINUOUS
  0
LAYER
  2
17
 70
     0
 62
     3
  6
CONTINUOUS
  0
LAYER
  2
18
 70
     0
 62
     3
  6
CONTINUOUS
  0
LAYER
  2
19
 70
     0
 62
     3
  6
CONTINUOUS
  0
LAYER
  2
20
 70
     0
 62
     3
  6
CONTINUOUS
  0
LAYER
  2
21
 70
     0
 62
     3
  6
CONTINUOUS
  0
LAYER
  2
22
 70
     0
 62
     3
  6
CONTINUOUS
  0
LAYER
  2
23
 70
     0
 62
     3
  6
CONTINUOUS
  0
LAYER
  2
24
 70
     0
 62
     3
  6
CONTINUOUS
  0
LAYER
  2
25
 70
     0
 62
     3
  6
CONTINUOUS
  0
LAYER
  2
26
 70
     0
 62
     3
  6
CONTINUOUS
  0
LAYER
  2
27
 70
     0
 62
     3
  6
CONTINUOUS
  0
LAYER
  2
28
 70
     0
 62
     3
  6
CONTINUOUS
  0
LAYER
  2
29
 70
     0
 62
     3
  6
CONTINUOUS
  0
LAYER
  2
30
 70
     0
 62
     3
  6
CONTINUOUS
  0
LAYER
  2
31
 70
     0
 62
     3
  6
CONTINUOUS
  0
LAYER
  2
32
 70
     0
 62
     3
  6
CONTINUOUS
  0
LAYER
  2
33
 70
     0
 62
     3
  6
CONTINUOUS
  0
LAYER
  2
34
 70
     0
 62
     3
  6
CONTINUOUS
  0
LAYER
  2
35
 70
     0
 62
     3
  6
CONTINUOUS
  0
LAYER
  2
36
 70
     0
 62
     3
  6
CONTINUOUS
  0
LAYER
  2
37
 70
     0
 62
     3
  6
CONTINUOUS
  0
LAYER
  2
38
 70
     0
 62
     3
  6
CONTINUOUS
  0
LAYER
  2
39
 70
     0
 62
     3
  6
CONTINUOUS
  0
LAYER
  2
40
 70
     0
 62
     3
  6
CONTINUOUS
  0
LAYER
  2
41
 70
     0
 62
     3
  6
CONTINUOUS
  0
LAYER
  2
42
 70
     0
 62
     3
  6
CONTINUOUS
  0
LAYER
  2
43
 70
     0
 62
     3
  6
CONTINUOUS
  0
LAYER
  2
44
 70
     0
 62
     3
  6
CONTINUOUS
  0
LAYER
  2
45
 70
     0
 62
     3
  6
CONTINUOUS
  0
LAYER
  2
46
 70
     0
 62
     3
  6
CONTINUOUS
  0
LAYER
  2
47
 70
     0
 62
     3
  6
CONTINUOUS
  0
LAYER
  2
48
 70
     0
 62
     3
  6
CONTINUOUS
  0
LAYER
  2
49
 70
     0
 62
     3
  6
CONTINUOUS
  0
LAYER
  2
50
 70
     0
 62
     3
  6
CONTINUOUS
  0
LAYER
  2
51
 70
     0
 62
     3
  6
CONTINUOUS
  0
LAYER
  2
52
 70
     0
 62
     3
  6
CONTINUOUS
  0
LAYER
  2
53
 70
     0
 62
     3
  6
CONTINUOUS
  0
LAYER
  2
54
 70
     0
 62
     3
  6
CONTINUOUS
  0
LAYER
  2
55
 70
     0
 62
     3
  6
CONTINUOUS
  0
LAYER
  2
56
 70
     0
 62
     3
  6
CONTINUOUS
  0
LAYER
  2
57
 70
     0
 62
     3
  6
CONTINUOUS
  0
LAYER
  2
58
 70
     0
 62
     3
  6
CONTINUOUS
  0
LAYER
  2
59
 70
     0
 62
     3
  6
CONTINUOUS
  0
LAYER
  2
60
 70
     0
 62
     3
  6
CONTINUOUS
  0
LAYER
  2
61
 70
     0
 62
     3
  6
CONTINUOUS
  0
LAYER
  2
62
 70
     0
 62
     3
  6
CONTINUOUS
  0
LAYER
  2
63
 70
     0
 62
     3
  6
CONTINUOUS
  0
LAYER
  2
64
 70
     0
 62
     3
  6
CONTINUOUS
  0
LAYER
  2
65
 70
     0
 62
     3
  6
CONTINUOUS
  0
LAYER
  2
66
 70
     0
 62
     3
  6
CONTINUOUS
  0
LAYER
  2
67
 70
     0
 62
     3
  6
CONTINUOUS
  0
LAYER
  2
68
 70
     0
 62
     3
  6
CONTINUOUS
  0
LAYER
  2
69
 70
     0
 62
     3
  6
CONTINUOUS
  0
LAYER
  2
70
 70
     0
 62
     3
  6
CONTINUOUS
  0
LAYER
  2
71
 70
     0
 62
     3
  6
CONTINUOUS
  0
LAYER
  2
72
 70
     0
 62
     3
  6
CONTINUOUS
  0
LAYER
  2
73
 70
     0
 62
     3
  6
CONTINUOUS
  0
LAYER
  2
74
 70
     0
 62
     3
  6
CONTINUOUS
  0
LAYER
  2
75
 70
     0
 62
     3
  6
CONTINUOUS
  0
LAYER
  2
76
 70
     0
 62
     3
  6
CONTINUOUS
  0
LAYER
  2
77
 70
     0
 62
     3
  6
CONTINUOUS
  0
LAYER
  2
78
 70
     0
 62
     3
  6
CONTINUOUS
  0
LAYER
  2
79
 70
     0
 62
     3
  6
CONTINUOUS
  0
LAYER
  2
80
 70
     0
 62
     3
  6
CONTINUOUS
  0
LAYER
  2
81
 70
     0
 62
     3
  6
CONTINUOUS
  0
LAYER
  2
82
 70
     0
 62
     3
  6
CONTINUOUS
  0
LAYER
  2
83
 70
     0
 62
     3
  6
CONTINUOUS
  0
LAYER
  2
84
 70
     0
 62
     3
  6
CONTINUOUS
  0
LAYER
  2
85
 70
     0
 62
     3
  6
CONTINUOUS
  0
LAYER
  2
86
 70
     0
 62
     3
  6
CONTINUOUS
  0
LAYER
  2
87
 70
     0
 62
     3
  6
CONTINUOUS
  0
LAYER
  2
88
 70
     0
 62
     3
  6
CONTINUOUS
  0
LAYER
  2
89
 70
     0
 62
     3
  6
CONTINUOUS
  0
LAYER
  2
90
 70
     0
 62
     3
  6
CONTINUOUS
  0
LAYER
  2
91
 70
     0
 62
     3
  6
CONTINUOUS
  0
LAYER
  2
92
 70
     0
 62
     3
  6
CONTINUOUS
  0
LAYER
  2
93
 70
     0
 62
     3
  6
CONTINUOUS
  0
LAYER
  2
94
 70
     0
 62
     3
  6
CONTINUOUS
  0
LAYER
  2
95
 70
     0
 62
     3
  6
CONTINUOUS
  0
LAYER
  2
96
 70
     0
 62
     3
  6
CONTINUOUS
  0
LAYER
  2
97
 70
     0
 62
     3
  6
CONTINUOUS
  0
LAYER
  2
98
 70
     0
 62
     3
  6
CONTINUOUS
  0
LAYER
  2
99
 70
     0
 62
     3
  6
CONTINUOUS
  0
ENDTAB
  0
TABLE
  2
STYLE
 70
     2
  0
STYLE
  2
STANDARD
 70
     0
 40
0.0
 41
1.0
 50
0.0
 71
     0
 42
0.2
  3
TXT
  4
BIGFONT
  0
STYLE
  2
KANJI
 70
     0
 40
4.5
 41
1.0
 50
0.0
 71
     0
 42
0.2
  3
TXT
  4
BIGFONT
  0
ENDTAB
  0
TABLE
  2
VIEW
 70
     0
  0
ENDTAB
  0
ENDSEC
  0
SECTION
  2
BLOCKS
  0
BLOCK
  8
0
  2
G0
 70
     0
 10
0
 20
0
  0
TEXT
  8
0
 62
     1
 10
2654.275456
 20
2149.452345
 40
32.000000
 50
90.000000
 41
0.60 
  1
%%c125
 72
     5
 11
2654.275456
 21
2265.452345
  0
LINE
  8
0
 62
     1
  6
CONTINUOUS
 10
2722.863476
 20
2269.952345
 11
2649.608789
 21
2269.952345
  0
LINE
  8
0
 62
     1
  6
CONTINUOUS
 10
2722.863476
 20
2144.952345
 11
2649.608789
 21
2144.952345
  0
LINE
  8
0
 62
     1
  6
CONTINUOUS
 10
2659.608789
 20
2144.952345
 11
2659.608789
 21
2269.952345
  0
SOLID
  8
0
 62
     1
 10
2653.138313
 20
2169.100491
 11
2666.079265
 21
2169.100491
 12
2659.608789
 22
2144.952345
 13
2659.608789
 23
2144.952345
  0
SOLID
  8
0
 62
     1
 10
2666.079265
 20
2245.804199
 11
2653.138313
 21
2245.804199
 12
2659.608789
 22
2269.952345
 13
2659.608789
 23
2269.952345
  0
ENDBLK
  0
BLOCK
  8
0
  2
G1
 70
     0
 10
0
 20
0
  0
LINE
  8
0
 62
     1
  6
CONTINUOUS
 10
3369.940390
 20
1921.227117
 11
3369.940390
 21
936.227117
  0
SOLID
  8
0
 62
     1
 10
3376.410866
 20
1897.078971
 11
3363.469913
 21
1897.078971
 12
3369.940390
 22
1921.227117
 13
3369.940390
 23
1921.227117
  0
SOLID
  8
0
 62
     1
 10
3363.469913
 20
960.375262
 11
3376.410866
 21
960.375262
 12
3369.940390
 22
936.227117
 13
3369.940390
 23
936.227117
  0
LINE
  8
0
 62
     1
  6
CONTINUOUS
 10
3319.940390
 20
1921.227117
 11
3379.940390
 21
1921.227117
  0
LINE
  8
0
 62
     1
  6
CONTINUOUS
 10
3319.940390
 20
936.227117
 11
3379.940390
 21
936.227117
  0
TEXT
  8
0
 62
     1
 10
3364.607057
 20
1392.727117
 40
32.000000
 50
90.000000
 41
0.97 
  1
Ｌｔ
 72
     5
 11
3364.607057
 21
1464.727117
  0
ENDBLK
  0
BLOCK
  8
0
  2
G2
 70
     0
 10
0
 20
0
  0
LINE
  8
0
 62
     1
  6
CONTINUOUS
 10
3309.940390
 20
1846.227117
 11
3309.940390
 21
936.227117
  0
SOLID
  8
0
 62
     1
 10
3316.410866
 20
1822.078971
 11
3303.469913
 21
1822.078971
 12
3309.940390
 22
1846.227117
 13
3309.940390
 23
1846.227117
  0
SOLID
  8
0
 62
     1
 10
3303.469913
 20
960.375262
 11
3316.410866
 21
960.375262
 12
3309.940390
 22
936.227117
 13
3309.940390
 23
936.227117
  0
LINE
  8
0
 62
     1
  6
CONTINUOUS
 10
3259.940390
 20
936.227117
 11
3319.940390
 21
936.227117
  0
TEXT
  8
0
 62
     1
 10
3304.607057
 20
1297.227117
 40
32.000000
 50
90.000000
 41
0.89 
  1
Ｌ（有効長）
 72
     5
 11
3304.607057
 21
1493.227117
  0
ENDBLK
  0
BLOCK
  8
0
  2
G3
 70
     0
 10
0
 20
0
  0
LINE
  8
0
 62
     1
  6
CONTINUOUS
 10
3249.940390
 20
1296.227117
 11
3249.940390
 21
936.227117
  0
SOLID
  8
0
 62
     1
 10
3256.410866
 20
1272.078971
 11
3243.469913
 21
1272.078971
 12
3249.940390
 22
1296.227117
 13
3249.940390
 23
1296.227117
  0
SOLID
  8
0
 62
     1
 10
3243.469913
 20
960.375262
 11
3256.410866
 21
960.375262
 12
3249.940390
 22
936.227117
 13
3249.940390
 23
936.227117
  0
LINE
  8
0
 62
     1
  6
CONTINUOUS
 10
3259.940390
 20
936.227117
 11
3139.940390
 21
936.227117
  0
TEXT
  8
0
 62
     1
 10
3244.607057
 20
1088.227117
 40
32.000000
 50
90.000000
 41
0.58 
  1
360
 72
     5
 11
3244.607057
 21
1144.227117
  0
ENDBLK
  0
BLOCK
  8
0
  2
G4
 70
     0
 10
0
 20
0
  0
LINE
  8
0
 62
     1
  6
CONTINUOUS
 10
3129.940390
 20
1086.227117
 11
3129.940390
 21
936.227117
  0
SOLID
  8
0
 62
     1
 10
3136.410866
 20
1062.078971
 11
3123.469913
 21
1062.078971
 12
3129.940390
 22
1086.227117
 13
3129.940390
 23
1086.227117
  0
SOLID
  8
0
 62
     1
 10
3123.469913
 20
960.375262
 11
3136.410866
 21
960.375262
 12
3129.940390
 22
936.227117
 13
3129.940390
 23
936.227117
  0
LINE
  8
0
 62
     1
  6
CONTINUOUS
 10
2955.863476
 20
936.227117
 11
3139.940390
 21
936.227117
  0
TEXT
  8
0
 62
     1
 10
3124.607057
 20
983.227117
 40
32.000000
 50
90.000000
 41
0.58 
  1
150
 72
     5
 11
3124.607057
 21
1039.227117
  0
ENDBLK
  0
BLOCK
  8
0
  2
G5
 70
     0
 10
0
 20
0
  0
LINE
  8
0
 62
     1
  6
CONTINUOUS
 10
3129.940390
 20
1206.227117
 11
3129.940390
 21
1086.227117
  0
SOLID
  8
0
 62
     1
 10
3136.410866
 20
1182.078971
 11
3123.469913
 21
1182.078971
 12
3129.940390
 22
1206.227117
 13
3129.940390
 23
1206.227117
  0
SOLID
  8
0
 62
     1
 10
3123.469913
 20
1110.375262
 11
3136.410866
 21
1110.375262
 12
3129.940390
 22
1086.227117
 13
3129.940390
 23
1086.227117
  0
LINE
  8
0
 62
     1
  6
CONTINUOUS
 10
2983.612565
 20
1206.227117
 11
3139.940390
 21
1206.227117
  0
LINE
  8
0
 62
     1
  6
CONTINUOUS
 10
2953.114387
 20
1086.227117
 11
3139.940390
 21
1086.227117
  0
TEXT
  8
0
 62
     1
 10
3124.607057
 20
1118.227117
 40
32.000000
 50
90.000000
 41
0.58 
  1
120
 72
     5
 11
3124.607057
 21
1174.227117
  0
ENDBLK
  0
BLOCK
  8
0
  2
G6
 70
     0
 10
0
 20
0
  0
LINE
  8
0
 62
     1
  6
CONTINUOUS
 10
3189.940390
 20
1596.227117
 11
3189.940390
 21
1846.227117
  0
SOLID
  8
0
 62
     1
 10
3182.175818
 20
1625.204891
 11
3197.704961
 21
1625.204891
 12
3189.940390
 22
1596.227117
 13
3189.940390
 23
1596.227117
  0
SOLID
  8
0
 62
     1
 10
3197.704961
 20
1817.249342
 11
3182.175818
 21
1817.249342
 12
3189.940390
 22
1846.227117
 13
3189.940390
 23
1846.227117
  0
LINE
  8
0
 62
     1
  6
CONTINUOUS
 10
3139.940390
 20
1596.227117
 11
3199.940390
 21
1596.227117
  0
LINE
  8
0
 62
     1
  6
CONTINUOUS
 10
2902.863476
 20
1846.227117
 11
3199.940390
 21
1846.227117
  0
TEXT
  8
0
 62
     1
 10
3184.607057
 20
1693.227117
 40
32.000000
 50
90.000000
 41
0.58 
  1
250
 72
     5
 11
3184.607057
 21
1749.227117
  0
ENDBLK
  0
BLOCK
  8
0
  2
G7
 70
     0
 10
0
 20
0
  0
LINE
  8
0
 62
     1
  6
CONTINUOUS
 10
3249.940390
 20
1296.227117
 11
3249.940390
 21
1656.227117
  0
SOLID
  8
0
 62
     1
 10
3242.175818
 20
1325.204891
 11
3257.704961
 21
1325.204891
 12
3249.940390
 22
1296.227117
 13
3249.940390
 23
1296.227117
  0
SOLID
  8
0
 62
     1
 10
3257.704961
 20
1627.249342
 11
3242.175818
 21
1627.249342
 12
3249.940390
 22
1656.227117
 13
3249.940390
 23
1656.227117
  0
LINE
  8
0
 62
     1
  6
CONTINUOUS
 10
3259.940390
 20
1296.227117
 11
3139.940390
 21
1296.227117
  0
TEXT
  8
0
 62
     1
 10
3244.607057
 20
1460.227117
 40
32.000000
 50
90.000000
 41
0.86 
  1
Ｐ
 72
     5
 11
3244.607057
 21
1492.227117
  0
ENDBLK
  0
BLOCK
  8
0
  2
G8
 70
     0
 10
0
 20
0
  0
LINE
  8
0
 62
     1
  6
CONTINUOUS
 10
3129.940390
 20
1356.227117
 11
3129.940390
 21
1296.227117
  0
LINE
  8
0
 62
     1
  6
CONTINUOUS
 10
3139.940390
 20
1356.227117
 11
3003.417843
 21
1356.227117
  0
LINE
  8
0
 62
     1
  6
CONTINUOUS
 10
3139.940390
 20
1296.227117
 11
2930.632221
 21
1296.227117
  0
TEXT
  8
0
 62
     1
 10
3124.607057
 20
1310.227117
 40
32.000000
 50
90.000000
 41
0.86 
  1
Ｂ
 72
     5
 11
3124.607057
 21
1342.227117
  0
LINE
  8
0
 62
     1
  6
CONTINUOUS
 10
3129.940390
 20
1406.227117
 11
3129.940390
 21
1356.227117
  0
SOLID
  8
0
 62
     1
 10
3123.469913
 20
1380.375262
 11
3136.410866
 21
1380.375262
 12
3129.940390
 22
1356.227117
 13
3129.940390
 23
1356.227117
  0
LINE
  8
0
 62
     1
  6
CONTINUOUS
 10
3129.940390
 20
1296.227117
 11
3129.940390
 21
1246.227117
  0
SOLID
  8
0
 62
     1
 10
3136.410866
 20
1272.078971
 11
3123.469913
 21
1272.078971
 12
3129.940390
 22
1296.227117
 13
3129.940390
 23
1296.227117
  0
ENDBLK
  0
BLOCK
  8
0
  2
G9
 70
     0
 10
0
 20
0
  0
LINE
  8
0
 62
     1
  6
CONTINUOUS
 10
3309.940390
 20
1921.227117
 11
3309.940390
 21
1846.227117
  0
SOLID
  8
0
 62
     1
 10
3316.410866
 20
1897.078971
 11
3303.469913
 21
1897.078971
 12
3309.940390
 22
1921.227117
 13
3309.940390
 23
1921.227117
  0
SOLID
  8
0
 62
     1
 10
3303.469913
 20
1870.375262
 11
3316.410866
 21
1870.375262
 12
3309.940390
 22
1846.227117
 13
3309.940390
 23
1846.227117
  0
LINE
  8
0
 62
     1
  6
CONTINUOUS
 10
3319.940390
 20
1921.227117
 11
2973.053530
 21
1921.227117
  0
LINE
  8
0
 62
     1
  6
CONTINUOUS
 10
3319.940390
 20
1846.227117
 11
3189.940390
 21
1846.227117
  0
TEXT
  8
0
 62
     1
 10
3304.607057
 20
1865.727117
 40
32.000000
 50
90.000000
 41
0.56 
  1
75
 72
     5
 11
3304.607057
 21
1901.727117
  0
ENDBLK
  0
BLOCK
  8
0
  2
G10
 70
     0
 10
0
 20
0
  0
LINE
  8
0
 62
     1
  6
CONTINUOUS
 10
3126.118163
 20
2144.952345
 11
3126.118163
 21
2269.952345
  0
SOLID
  8
0
 62
     1
 10
3119.647687
 20
2169.100491
 11
3132.588639
 21
2169.100491
 12
3126.118163
 22
2144.952345
 13
3126.118163
 23
2144.952345
  0
SOLID
  8
0
 62
     1
 10
3132.588639
 20
2245.804199
 11
3119.647687
 21
2245.804199
 12
3126.118163
 22
2269.952345
 13
3126.118163
 23
2269.952345
  0
LINE
  8
0
 62
     1
  6
CONTINUOUS
 10
3062.863476
 20
2144.952345
 11
3136.118163
 21
2144.952345
  0
LINE
  8
0
 62
     1
  6
CONTINUOUS
 10
3062.863476
 20
2269.952345
 11
3136.118163
 21
2269.952345
  0
TEXT
  8
0
 62
     1
 10
3120.784830
 20
2149.452345
 40
32.000000
 50
90.000000
 41
0.60 
  1
%%c125
 72
     5
 11
3120.784830
 21
2265.452345
  0
ENDBLK
  0
BLOCK
  8
0
  2
G11
 70
     0
 10
0
 20
0
  0
LINE
  8
0
 62
     1
  6
CONTINUOUS
 10
2987.863476
 20
2352.342798
 11
3052.863476
 21
2352.342798
  0
LINE
  8
0
 62
     1
  6
CONTINUOUS
 10
2987.863476
 20
2277.452345
 11
2987.863476
 21
2362.342798
  0
LINE
  8
0
 62
     1
  6
CONTINUOUS
 10
3052.863476
 20
2279.952345
 11
3052.863476
 21
2412.342798
  0
TEXT
  8
0
 62
     1
 10
3002.363476
 20
2357.676132
 40
32.000000
 50
0.000000E+00
 41
0.56 
  1
65
 72
     5
 11
3038.363476
 21
2357.676132
  0
LINE
  8
0
 62
     1
  6
CONTINUOUS
 10
2937.863476
 20
2352.342798
 11
2987.863476
 21
2352.342798
  0
SOLID
  8
0
 62
     1
 10
2963.715330
 20
2345.872322
 11
2963.715330
 21
2358.813275
 12
2987.863476
 22
2352.342798
 13
2987.863476
 23
2352.342798
  0
LINE
  8
0
 62
     1
  6
CONTINUOUS
 10
3052.863476
 20
2352.342798
 11
3102.863476
 21
2352.342798
  0
SOLID
  8
0
 62
     1
 10
3077.011622
 20
2358.813275
 11
3077.011622
 21
2345.872322
 12
3052.863476
 22
2352.342798
 13
3052.863476
 23
2352.342798
  0
ENDBLK
  0
BLOCK
  8
0
  2
G12
 70
     0
 10
0
 20
0
  0
LINE
  8
0
 62
     1
  6
CONTINUOUS
 10
3906.994840
 20
1900.000000
 11
3906.994840
 21
2060.000000
  0
LINE
  8
0
 62
     1
  6
CONTINUOUS
 10
3859.994840
 20
1900.000000
 11
3916.994840
 21
1900.000000
  0
LINE
  8
0
 62
     1
  6
CONTINUOUS
 10
3822.061896
 20
2060.000000
 11
3916.994840
 21
2060.000000
  0
TEXT
  8
0
 62
     1
 10
3901.661507
 20
1952.000000
 40
32.000000
 50
90.000000
 41
0.58 
  1
160
 72
     5
 11
3901.661507
 21
2008.000000
  0
LINE
  8
0
 62
     1
  6
CONTINUOUS
 10
3906.994840
 20
2110.000000
 11
3906.994840
 21
2060.000000
  0
SOLID
  8
0
 62
     1
 10
3900.524364
 20
2084.148146
 11
3913.465316
 21
2084.148146
 12
3906.994840
 22
2060.000000
 13
3906.994840
 23
2060.000000
  0
LINE
  8
0
 62
     1
  6
CONTINUOUS
 10
3906.994840
 20
1900.000000
 11
3906.994840
 21
1850.000000
  0
SOLID
  8
0
 62
     1
 10
3913.465316
 20
1875.851854
 11
3900.524364
 21
1875.851854
 12
3906.994840
 22
1900.000000
 13
3906.994840
 23
1900.000000
  0
ENDBLK
  0
BLOCK
  8
0
  2
G13
 70
     0
 10
0
 20
0
  0
LINE
  8
0
 62
     1
  6
CONTINUOUS
 10
3587.370094
 20
2203.375253
 11
3797.370094
 21
2203.375253
  0
SOLID
  8
0
 62
     1
 10
3611.518239
 20
2209.845729
 11
3611.518239
 21
2196.904777
 12
3587.370094
 22
2203.375253
 13
3587.370094
 23
2203.375253
  0
SOLID
  8
0
 62
     1
 10
3773.221948
 20
2196.904777
 11
3773.221948
 21
2209.845729
 12
3797.370094
 22
2203.375253
 13
3797.370094
 23
2203.375253
  0
LINE
  8
0
 62
     1
  6
CONTINUOUS
 10
3587.370094
 20
2070.000000
 11
3587.370094
 21
2213.375253
  0
LINE
  8
0
 62
     1
  6
CONTINUOUS
 10
3797.370094
 20
2070.000000
 11
3797.370094
 21
2213.375253
  0
TEXT
  8
0
 62
     1
 10
3664.370094
 20
2208.708586
 40
32.000000
 50
0.000000E+00
 41
0.58 
  1
210
 72
     5
 11
3720.370094
 21
2208.708586
  0
ENDBLK
  0
BLOCK
  8
0
  2
G14
 70
     0
 10
0
 20
0
  0
LINE
  8
0
 62
     1
  6
CONTINUOUS
 10
3797.370094
 20
1787.675308
 11
3587.370094
 21
1787.675308
  0
SOLID
  8
0
 62
     1
 10
3773.221948
 20
1781.204832
 11
3773.221948
 21
1794.145784
 12
3797.370094
 22
1787.675308
 13
3797.370094
 23
1787.675308
  0
SOLID
  8
0
 62
     1
 10
3611.518239
 20
1794.145784
 11
3611.518239
 21
1781.204832
 12
3587.370094
 22
1787.675308
 13
3587.370094
 23
1787.675308
  0
LINE
  8
0
 62
     1
  6
CONTINUOUS
 10
3797.370094
 20
2050.000000
 11
3797.370094
 21
1777.675308
  0
LINE
  8
0
 62
     1
  6
CONTINUOUS
 10
3587.370094
 20
2050.000000
 11
3587.370094
 21
1777.675308
  0
TEXT
  8
0
 62
     1
 10
3664.370094
 20
1793.008641
 40
32.000000
 50
0.000000E+00
 41
0.58 
  1
210
 72
     5
 11
3720.370094
 21
1793.008641
  0
ENDBLK
  0
BLOCK
  8
0
  2
G15
 70
     0
 10
0
 20
0
  0
LINE
  8
0
 62
     1
  6
CONTINUOUS
 10
3639.526054
 20
2288.206521
 11
3464.163572
 21
2112.844040
  0
SOLID
  8
0
 62
     1
 10
3627.026054
 20
2266.555886
 11
3617.875419
 21
2275.706521
 12
3639.526054
 22
2288.206521
 13
3639.526054
 23
2288.206521
  0
SOLID
  8
0
 62
     1
 10
3476.663572
 20
2134.494675
 11
3485.814207
 21
2125.344040
 12
3464.163572
 22
2112.844040
 13
3464.163572
 23
2112.844040
  0
LINE
  8
0
 62
     1
  6
CONTINUOUS
 10
3597.617785
 20
1979.389827
 11
3457.092504
 21
2119.915108
  0
TEXT
  8
0
 62
     1
 10
3528.274587
 20
2184.497527
 40
32.000000
 50
45.000000
 41
0.58 
  1
248
 72
     5
 11
3567.872567
 21
2224.095506
  0
ENDBLK
  0
BLOCK
  8
0
  2
G16
 70
     0
 10
0
 20
0
  0
LINE
  8
0
 62
     3
  6
CONTINUOUS
 10
3107.560047
 20
1434.224772
 11
3085.057592
 21
1447.216570
  0
LINE
  8
0
 62
     3
  6
CONTINUOUS
 10
3092.142578
 20
1407.520932
 11
3107.560047
 21
1434.224772
  0
TEXT
  8
0
 62
     3
 10
3080.349294
 20
1375.162715
 40
32.000000
 50
0.000000E+00
 41
0.86 
  1
Ｃ
 72
     5
 11
3112.349294
 21
1375.162715
  0
LINE
  8
0
 62
     3
  6
CONTINUOUS
 10
3092.142578
 20
1454.891181
 11
3092.142578
 21
1407.520932
  0
LINE
  8
0
 62
     3
  6
CONTINUOUS
 10
3092.142578
 20
1454.891181
 11
3012.580014
 21
1454.891181
  0
ENDBLK
  0
BLOCK
  8
0
  2
G17
 70
     0
 10
0
 20
0
  0
TEXT
  8
0
 62
     1
 10
3676.370094
 20
1849.808641
 40
32.000000
 50
0.000000E+00
 41
0.86 
  1
Ａ
 72
     5
 11
3708.370094
 21
1849.808641
  0
LINE
  8
0
 62
     1
  6
CONTINUOUS
 10
3754.870094
 20
1847.675308
 11
3629.870094
 21
1847.675308
  0
SOLID
  8
0
 62
     1
 10
3725.892319
 20
1839.910737
 11
3725.892319
 21
1855.439879
 12
3754.870094
 22
1847.675308
 13
3754.870094
 23
1847.675308
  0
SOLID
  8
0
 62
     1
 10
3658.847868
 20
1855.439879
 11
3658.847868
 21
1839.910737
 12
3629.870094
 22
1847.675308
 13
3629.870094
 23
1847.675308
  0
LINE
  8
0
 62
     1
  6
CONTINUOUS
 10
3754.870094
 20
1896.000000
 11
3754.870094
 21
1843.675308
  0
LINE
  8
0
 62
     1
  6
CONTINUOUS
 10
3629.870094
 20
1896.000000
 11
3629.870094
 21
1843.675308
  0
ENDBLK
  0
BLOCK
  8
0
  2
G18
 70
     0
 10
0
 20
0
  0
LINE
  8
0
 62
     1
  6
CONTINUOUS
 10
3849.994840
 20
1964.682081
 11
3849.994840
 21
1900.000000
  0
LINE
  8
0
 62
     1
  6
CONTINUOUS
 10
3764.870094
 20
1900.000000
 11
3859.994840
 21
1900.000000
  0
TEXT
  8
0
 62
     1
 10
3844.661507
 20
1912.474233
 40
32.000000
 50
90.000000
 41
0.56 
  1
65
 72
     5
 11
3844.661507
 21
1948.474233
  0
LINE
  8
0
 62
     1
  6
CONTINUOUS
 10
3849.994840
 20
2014.682081
 11
3849.994840
 21
1964.682081
  0
SOLID
  8
0
 62
     1
 10
3843.524364
 20
1988.830227
 11
3856.465316
 21
1988.830227
 12
3849.994840
 22
1964.682081
 13
3849.994840
 23
1964.682081
  0
LINE
  8
0
 62
     1
  6
CONTINUOUS
 10
3849.994840
 20
1900.000000
 11
3849.994840
 21
1850.000000
  0
SOLID
  8
0
 62
     1
 10
3856.465316
 20
1875.851854
 11
3843.524364
 21
1875.851854
 12
3849.994840
 22
1900.000000
 13
3849.994840
 23
1900.000000
  0
ENDBLK
  0
BLOCK
  8
0
  2
G19
 70
     0
 10
0
 20
0
  0
LINE
  8
0
 62
     1
  6
CONTINUOUS
 10
2732.863476
 20
2352.342798
 11
2682.863476
 21
2352.342798
  0
SOLID
  8
0
 62
     1
 10
2708.715330
 20
2345.872322
 11
2708.715330
 21
2358.813275
 12
2732.863476
 22
2352.342798
 13
2732.863476
 23
2352.342798
  0
LINE
  8
0
 62
     1
  6
CONTINUOUS
 10
2847.863476
 20
2352.342798
 11
2797.863476
 21
2352.342798
  0
SOLID
  8
0
 62
     1
 10
2822.011622
 20
2358.813275
 11
2822.011622
 21
2345.872322
 12
2797.863476
 22
2352.342798
 13
2797.863476
 23
2352.342798
  0
TEXT
  8
0
 62
     1
 10
2747.363476
 20
2357.676132
 40
32.000000
 50
360.000000
 41
0.56 
  1
65
 72
     5
 11
2783.363476
 21
2357.676132
  0
LINE
  8
0
 62
     1
  6
CONTINUOUS
 10
2732.863476
 20
2279.952345
 11
2732.863476
 21
2412.342798
  0
LINE
  8
0
 62
     1
  6
CONTINUOUS
 10
2797.863476
 20
2277.452345
 11
2797.863476
 21
2362.342798
  0
LINE
  8
0
 62
     1
  6
CONTINUOUS
 10
2797.863476
 20
2352.342798
 11
2732.863476
 21
2352.342798
  0
ENDBLK
  0
BLOCK
  8
0
  2
G20
 70
     0
 10
0
 20
0
  0
TEXT
  8
0
 62
     3
 10
3125.478323
 20
2423.340954
 40
32.000000
 50
0.000000E+00
 41
0.95 
  1
受口深さ　
 72
     5
 11
3301.478323
 21
2423.340954
  0
ENDBLK
  0
BLOCK
  8
0
  2
G21
 70
     0
 10
0
 20
0
  0
TEXT
  8
0
 62
     3
 10
3243.319564
 20
1976.453919
 40
32.000000
 50
0.000000E+00
 41
0.95 
  1
受口深さ　
 72
     5
 11
3419.319564
 21
1976.453919
  0
ENDBLK
  0
BLOCK
  8
0
  2
G22
 70
     0
 10
0
 20
0
  0
LINE
  8
0
 62
     3
  6
CONTINUOUS
 10
3417.604628
 20
1796.829764
 11
3579.468870
 21
1796.829764
  0
LINE
  8
0
 62
     3
  6
CONTINUOUS
 10
3417.604628
 20
1804.829764
 11
3579.468870
 21
1804.829764
  0
TEXT
  8
0
 62
     7
 10
3417.903695
 20
1814.327352
 40
32.000000
 50
0.000000E+00
 41
0.66 
  1
％％ｃ　　　枝管
 72
     5
 11
3609.903695
 21
1814.327352
  0
ENDBLK
  0
BLOCK
  8
0
  2
G23
 70
     0
 10
0
 20
0
  0
LINE
  8
0
 62
     1
  6
CONTINUOUS
 10
3129.940390
 20
1593.727117
 11
3129.940390
 21
1596.227117
  0
LINE
  8
0
 62
     1
  6
CONTINUOUS
 10
3139.940390
 20
1593.727117
 11
3057.863476
 21
1593.727117
  0
TEXT
  8
0
 62
     1
 10
3124.607057
 20
1507.999037
 40
32.000000
 50
90.000000
 41
0.58 
  1
2.5
 72
     5
 11
3124.607057
 21
1563.999037
  0
LINE
  8
0
 62
     1
  6
CONTINUOUS
 10
3129.940390
 20
1593.727117
 11
3129.940390
 21
1503.144416
  0
SOLID
  8
0
 62
     1
 10
3136.410866
 20
1569.578971
 11
3123.469913
 21
1569.578971
 12
3129.940390
 22
1593.727117
 13
3129.940390
 23
1593.727117
  0
ENDBLK
  0
BLOCK
  8
0
  2
G24
 70
     0
 10
0
 20
0
  0
LINE
  8
0
 62
     1
  6
CONTINUOUS
 10
3129.940390
 20
1596.227117
 11
3129.940390
 21
1656.227117
  0
CIRCLE
  8
0
 62
     1
  6
CONTINUOUS
 10
3129.940390
 20
1596.227117
 40
2.500000
  0
CIRCLE
  8
0
 62
     1
  6
CONTINUOUS
 10
3129.940390
 20
1596.227117
 40
1.250000
  0
LINE
  8
0
 62
     1
  6
CONTINUOUS
 10
3057.863476
 20
1596.227117
 11
3139.940390
 21
1596.227117
  0
LINE
  8
0
 62
     1
  6
CONTINUOUS
 10
3068.797182
 20
1656.227117
 11
3139.940390
 21
1656.227117
  0
TEXT
  8
0
 62
     1
 10
3124.607057
 20
1608.227117
 40
32.000000
 50
90.000000
 41
0.56 
  1
60
 72
     5
 11
3124.607057
 21
1644.227117
  0
LINE
  8
0
 62
     1
  6
CONTINUOUS
 10
3129.940390
 20
1656.227117
 11
3129.940390
 21
1706.227117
  0
SOLID
  8
0
 62
     1
 10
3122.175818
 20
1685.204891
 11
3137.704961
 21
1685.204891
 12
3129.940390
 22
1656.227117
 13
3129.940390
 23
1656.227117
  0
ENDBLK
  0
BLOCK
  8
0
  2
G25
 70
     0
 10
0
 20
0
  0
LINE
  8
0
 62
     1
  6
CONTINUOUS
 10
2655.786562
 20
1656.227117
 11
2655.786562
 21
1706.227117
  0
SOLID
  8
0
 62
     1
 10
2648.021991
 20
1685.204891
 11
2663.551134
 21
1685.204891
 12
2655.786562
 22
1656.227117
 13
2655.786562
 23
1656.227117
  0
TEXT
  8
0
 62
     1
 10
2650.453229
 20
1608.227117
 40
32.000000
 50
90.000000
 41
0.56 
  1
60
 72
     5
 11
2650.453229
 21
1644.227117
  0
LINE
  8
0
 62
     1
  6
CONTINUOUS
 10
2716.929770
 20
1656.227117
 11
2645.786562
 21
1656.227117
  0
LINE
  8
0
 62
     1
  6
CONTINUOUS
 10
2727.863476
 20
1596.227117
 11
2645.786562
 21
1596.227117
  0
LINE
  8
0
 62
     1
  6
CONTINUOUS
 10
2655.786562
 20
1596.227117
 11
2655.786562
 21
1656.227117
  0
CIRCLE
  8
0
 62
     1
  6
CONTINUOUS
 10
2655.786562
 20
1596.227117
 40
2.500000
  0
CIRCLE
  8
0
 62
     1
  6
CONTINUOUS
 10
2655.786562
 20
1596.227117
 40
1.250000
  0
ENDBLK
  0
BLOCK
  8
0
  2
G26
 70
     0
 10
0
 20
0
  0
LINE
  8
0
 62
     1
  6
CONTINUOUS
 10
2655.786562
 20
1593.727117
 11
2655.786562
 21
1503.144416
  0
SOLID
  8
0
 62
     1
 10
2662.257038
 20
1569.578971
 11
2649.316086
 21
1569.578971
 12
2655.786562
 22
1593.727117
 13
2655.786562
 23
1593.727117
  0
TEXT
  8
0
 62
     1
 10
2650.453229
 20
1507.999037
 40
32.000000
 50
90.000000
 41
0.58 
  1
2.5
 72
     5
 11
2650.453229
 21
1563.999037
  0
LINE
  8
0
 62
     1
  6
CONTINUOUS
 10
2645.786562
 20
1593.727117
 11
2727.863476
 21
1593.727117
  0
LINE
  8
0
 62
     1
  6
CONTINUOUS
 10
2655.786562
 20
1593.727117
 11
2655.786562
 21
1596.227117
  0
ENDBLK
  0
BLOCK
  8
0
  2
G27
 70
     0
 10
0
 20
0
  0
LINE
  8
0
 62
     7
  6
CONTINUOUS
 10
2817.863476
 20
1931.227117
 11
2817.863476
 21
1974.751724
  0
LINE
  8
0
 62
     7
  6
CONTINUOUS
 10
2967.863476
 20
1931.227117
 11
2967.863476
 21
1974.751724
  0
LINE
  8
0
 62
     7
  6
CONTINUOUS
 10
2817.863476
 20
1964.751724
 11
2967.863476
 21
1964.751724
  0
SOLID
  8
0
 62
     7
 10
2837.181992
 20
1969.928105
 11
2837.181992
 21
1959.575343
 12
2817.863476
 22
1964.751724
 13
2817.863476
 23
1964.751724
  0
SOLID
  8
0
 62
     7
 10
2948.544959
 20
1959.575343
 11
2948.544959
 21
1969.928105
 12
2967.863476
 22
1964.751724
 13
2967.863476
 23
1964.751724
  0
TEXT
  8
0
 62
     7
 10
2834.863476
 20
1970.085054
 40
32.000000
 50
0.000000E+00
 41
0.60 
  1
%%c150
 72
     5
 11
2950.863476
 21
1970.085054
  0
ENDBLK
  0
BLOCK
  8
0
  2
G28
 70
     0
 10
0
 20
0
  0
LINE
  8
0
 62
     7
  6
CONTINUOUS
 10
2806.863476
 20
1751.986486
 11
2806.863476
 21
2036.948668
  0
LINE
  8
0
 62
     7
  6
CONTINUOUS
 10
2978.863476
 20
1741.986486
 11
2978.863476
 21
2036.948668
  0
LINE
  8
0
 62
     7
  6
CONTINUOUS
 10
2806.863476
 20
2026.948668
 11
2978.863476
 21
2026.948668
  0
SOLID
  8
0
 62
     7
 10
2826.181992
 20
2032.125048
 11
2826.181992
 21
2021.772287
 12
2806.863476
 22
2026.948668
 13
2806.863476
 23
2026.948668
  0
SOLID
  8
0
 62
     7
 10
2959.544959
 20
2021.772287
 11
2959.544959
 21
2032.125048
 12
2978.863476
 22
2026.948668
 13
2978.863476
 23
2026.948668
  0
TEXT
  8
0
 62
     7
 10
2834.863476
 20
2032.281997
 40
32.000000
 50
0.000000E+00
 41
0.60 
  1
%%c172
 72
     5
 11
2950.863476
 21
2032.281997
  0
ENDBLK
  0
BLOCK
  8
0
  2
G29
 70
     0
 10
0
 20
0
  0
LINE
  8
0
 62
     7
  6
CONTINUOUS
 10
2837.863476
 20
926.227117
 11
2837.863476
 21
851.592951
  0
LINE
  8
0
 62
     7
  6
CONTINUOUS
 10
2947.863476
 20
926.227117
 11
2947.863476
 21
851.592951
  0
LINE
  8
0
 62
     7
  6
CONTINUOUS
 10
2837.863476
 20
861.592951
 11
2947.863476
 21
861.592951
  0
SOLID
  8
0
 62
     7
 10
2857.181992
 20
866.769332
 11
2857.181992
 21
856.416570
 12
2837.863476
 22
861.592951
 13
2837.863476
 23
861.592951
  0
SOLID
  8
0
 62
     7
 10
2928.544959
 20
856.416570
 11
2928.544959
 21
866.769332
 12
2947.863476
 22
861.592951
 13
2947.863476
 23
861.592951
  0
TEXT
  8
0
 62
     7
 10
2834.863476
 20
866.926280
 40
32.000000
 50
0.000000E+00
 41
0.60 
  1
%%c110
 72
     5
 11
2950.863476
 21
866.926280
  0
ENDBLK
  0
BLOCK
  8
0
  2
G30
 70
     0
 10
0
 20
0
  0
LINE
  8
0
 62
     7
  6
CONTINUOUS
 10
2806.863476
 20
1190.099028
 11
2806.863476
 21
786.948668
  0
LINE
  8
0
 62
     7
  6
CONTINUOUS
 10
2978.863476
 20
1200.099028
 11
2978.863476
 21
786.948668
  0
LINE
  8
0
 62
     7
  6
CONTINUOUS
 10
2806.863476
 20
796.948668
 11
2978.863476
 21
796.948668
  0
SOLID
  8
0
 62
     7
 10
2826.181992
 20
802.125048
 11
2826.181992
 21
791.772287
 12
2806.863476
 22
796.948668
 13
2806.863476
 23
796.948668
  0
SOLID
  8
0
 62
     7
 10
2959.544959
 20
791.772287
 11
2959.544959
 21
802.125048
 12
2978.863476
 22
796.948668
 13
2978.863476
 23
796.948668
  0
TEXT
  8
0
 62
     7
 10
2834.863476
 20
802.281997
 40
32.000000
 50
0.000000E+00
 41
0.60 
  1
%%c172
 72
     5
 11
2950.863476
 21
802.281997
  0
ENDBLK
  0
BLOCK
  8
0
  2
G31
 70
     0
 10
0
 20
0
  0
LINE
  8
0
 62
     7
  6
CONTINUOUS
 10
2732.863476
 20
2279.952345
 11
2732.863476
 21
2420.561891
  0
LINE
  8
0
 62
     7
  6
CONTINUOUS
 10
2892.863476
 20
2312.567860
 11
2892.863476
 21
2420.561891
  0
LINE
  8
0
 62
     7
  6
CONTINUOUS
 10
2732.863476
 20
2410.561891
 11
2892.863476
 21
2410.561891
  0
SOLID
  8
0
 62
     7
 10
2752.181992
 20
2415.738272
 11
2752.181992
 21
2405.385511
 12
2732.863476
 22
2410.561891
 13
2732.863476
 23
2410.561891
  0
SOLID
  8
0
 62
     7
 10
2873.544959
 20
2405.385511
 11
2873.544959
 21
2415.738272
 12
2892.863476
 22
2410.561891
 13
2892.863476
 23
2410.561891
  0
TEXT
  8
0
 62
     7
 10
2784.863476
 20
2415.895221
 40
32.000000
 50
0.000000E+00
 41
0.58 
  1
160
 72
     5
 11
2840.863476
 21
2415.895221
  0
LINE
  8
0
 62
     7
  6
CONTINUOUS
 10
3052.863476
 20
2279.952345
 11
3052.863476
 21
2420.561891
  0
LINE
  8
0
 62
     7
  6
CONTINUOUS
 10
2892.863476
 20
2410.561891
 11
3052.863476
 21
2410.561891
  0
SOLID
  8
0
 62
     7
 10
2912.181992
 20
2415.738272
 11
2912.181992
 21
2405.385511
 12
2892.863476
 22
2410.561891
 13
2892.863476
 23
2410.561891
  0
SOLID
  8
0
 62
     7
 10
3033.544959
 20
2405.385511
 11
3033.544959
 21
2415.738272
 12
3052.863476
 22
2410.561891
 13
3052.863476
 23
2410.561891
  0
TEXT
  8
0
 62
     7
 10
2944.863476
 20
2415.895221
 40
32.000000
 50
0.000000E+00
 41
0.58 
  1
160
 72
     5
 11
3000.863476
 21
2415.895221
  0
ENDBLK
  0
BLOCK
  8
0
  2
G32
 70
     0
 10
0
 20
0
  0
LINE
  8
0
 62
     7
  6
CONTINUOUS
 10
2964.863476
 20
2112.452345
 11
3199.940390
 21
2112.452345
  0
LINE
  8
0
 62
     7
  6
CONTINUOUS
 10
3129.383365
 20
2207.452345
 11
3199.940390
 21
2207.452345
  0
LINE
  8
0
 62
     7
  6
CONTINUOUS
 10
3189.940390
 20
2112.452345
 11
3189.940390
 21
2207.452345
  0
SOLID
  8
0
 62
     7
 10
3184.764009
 20
2131.770861
 11
3195.116770
 21
2131.770861
 12
3189.940390
 22
2112.452345
 13
3189.940390
 23
2112.452345
  0
SOLID
  8
0
 62
     7
 10
3195.116770
 20
2188.133828
 11
3184.764009
 21
2188.133828
 12
3189.940390
 22
2207.452345
 13
3189.940390
 23
2207.452345
  0
TEXT
  8
0
 62
     7
 10
3184.607060
 20
2141.952345
 40
32.000000
 50
90.000000
 41
0.56 
  1
95
 72
     5
 11
3184.607060
 21
2177.952345
  0
ENDBLK
  0
BLOCK
  8
0
  2
G33
 70
     0
 10
0
 20
0
  0
TEXT
  8
0
 62
     3
 10
2522.183492
 20
2366.729914
 40
32.000000
 50
0.000000E+00
 41
0.95 
  1
受口深さ　
 72
     5
 11
2698.183492
 21
2366.729914
  0
ENDBLK
  0
ENDSEC
  0
SECTION
  2
ENTITIES
  0
LINE
  8
3
 62
     3
  6
CONTINUOUS
 10
2732.863476
 20
2144.952345
 11
2732.863476
 21
2269.952345
  0
INSERT
  8
0
  2
G0
 10
0
 20
0
  0
INSERT
  8
0
  2
G1
 10
0
 20
0
  0
INSERT
  8
0
  2
G2
 10
0
 20
0
  0
INSERT
  8
0
  2
G3
 10
0
 20
0
  0
INSERT
  8
0
  2
G4
 10
0
 20
0
  0
INSERT
  8
0
  2
G5
 10
0
 20
0
  0
INSERT
  8
0
  2
G6
 10
0
 20
0
  0
LINE
  8
0
 62
     1
  6
CONTINUOUS
 10
3259.940390
 20
1656.227117
 11
3129.940390
 21
1656.227117
  0
LINE
  8
0
 62
     1
  6
CONTINUOUS
 10
3129.940390
 20
1656.227117
 11
3146.816384
 21
1656.227117
  0
INSERT
  8
0
  2
G7
 10
0
 20
0
  0
INSERT
  8
0
  2
G8
 10
0
 20
0
  0
INSERT
  8
0
  2
G9
 10
0
 20
0
  0
POINT
  8
3
 62
     7
 10
2978.863476
 20
1416.227117
  0
POINT
  8
3
 62
     4
 10
2978.863476
 20
1294.227117
  0
LINE
  8
3
 62
     4
  6
CONTINUOUS
 10
2825.710101
 20
1401.227117
 11
2850.213740
 21
1401.227117
  0
LINE
  8
0
 62
     2
  6
CONTINUOUS
 10
2794.863476
 20
1451.728715
 11
2794.863476
 21
1453.728715
  0
LINE
  8
0
 62
     2
  6
CONTINUOUS
 10
2787.863476
 20
1454.728715
 11
2892.863476
 21
1454.728715
  0
LINE
  8
0
 62
     2
  6
CONTINUOUS
 10
2794.863476
 20
1451.728715
 11
2990.863476
 21
1451.728715
  0
LINE
  8
0
 62
     2
  6
CONTINUOUS
 10
2787.863476
 20
1454.728715
 11
2787.863476
 21
1462.728715
  0
LINE
  8
0
 62
     3
  6
CONTINUOUS
 10
2978.863476
 20
1721.227117
 11
2978.863476
 21
1731.986486
  0
LINE
  8
3
 62
     3
  6
CONTINUOUS
 10
2967.863476
 20
1916.227117
 11
2892.863476
 21
1916.227117
  0
LINE
  8
3
 62
     3
  6
CONTINUOUS
 10
2817.863476
 20
1921.227117
 11
2967.863476
 21
1921.227117
  0
LINE
  8
3
 62
     3
  6
CONTINUOUS
 10
2817.863476
 20
1921.227117
 11
2817.863476
 21
1916.227117
  0
LINE
  8
0
 62
     3
  6
CONTINUOUS
 10
2978.863476
 20
1591.227117
 11
2978.863476
 21
1469.728715
  0
ARC
  8
3
 62
     3
  6
CONTINUOUS
 10
2954.863476
 20
1844.227117
 40
10.000000
 50
302.527138
 51
360.000000
  0
LINE
  8
3
 62
     3
  6
CONTINUOUS
 10
2820.863476
 20
1911.644541
 11
2820.863476
 21
1844.227117
  0
LINE
  8
3
 62
     3
  6
CONTINUOUS
 10
2964.863476
 20
1911.644541
 11
2964.863476
 21
1844.227117
  0
ARC
  8
3
 62
     3
  6
CONTINUOUS
 10
2830.863476
 20
1844.227117
 40
10.000000
 50
180.000000
 51
238.038250
  0
LINE
  8
3
 62
     3
  6
CENTER
 10
3058.797182
 20
1656.227117
 11
2724.733633
 21
1656.227117
  0
LINE
  8
0
 62
     2
  6
CONTINUOUS
 10
2990.863476
 20
1469.728715
 11
2997.863476
 21
1462.728715
  0
ARC
  8
3
 62
     3
  6
CONTINUOUS
 10
2815.863476
 20
1911.644541
 40
5.000000
 50
360.000000
 51
426.421822
  0
LINE
  8
3
 62
     3
  6
CONTINUOUS
 10
2967.863476
 20
1921.227117
 11
2967.863476
 21
1916.227117
  0
ARC
  8
0
 62
     3
  6
CONTINUOUS
 10
2943.863476
 20
1731.986486
 40
35.000000
 50
0.000000E+00
 51
17.716492
  0
ARC
  8
3
 62
     3
  6
CONTINUOUS
 10
2969.863476
 20
1911.644541
 40
5.000000
 50
113.578178
 51
180.000000
  0
LINE
  8
3
 62
     3
  6
CONTINUOUS
 10
2970.602498
 20
1739.103002
 11
2892.863476
 21
1739.103002
  0
ARC
  8
3
 62
     4
  6
CONTINUOUS
 10
2812.863476
 20
1082.355205
 40
25.000000
 50
0.000000E+00
 51
14.708304
  0
LINE
  8
3
 62
     4
  6
CONTINUOUS
 10
2808.010392
 20
1201.212593
 11
2837.044250
 21
1088.702658
  0
ARC
  8
3
 62
     4
  6
CONTINUOUS
 10
2841.863476
 20
1210.099028
 40
35.000000
 50
180.000000
 51
194.708304
  0
LINE
  8
3
 62
     4
  6
CONTINUOUS
 10
2837.863476
 20
1082.355205
 11
2837.863476
 21
938.227117
  0
ARC
  8
3
 62
     4
  6
CONTINUOUS
 10
2972.863476
 20
1082.355205
 40
25.000000
 50
165.291696
 51
180.000000
  0
LINE
  8
3
 62
     4
  6
CONTINUOUS
 10
2977.716560
 20
1201.212593
 11
2948.682702
 21
1088.702658
  0
ARC
  8
3
 62
     4
  6
CONTINUOUS
 10
2943.863476
 20
1210.099028
 40
35.000000
 50
345.291696
 51
360.000000
  0
LINE
  8
3
 62
     4
  6
CONTINUOUS
 10
2947.863476
 20
1082.355205
 11
2947.863476
 21
938.227117
  0
LINE
  8
3
 62
     4
  6
CONTINUOUS
 10
2945.863476
 20
936.227117
 11
2839.863476
 21
936.227117
  0
LINE
  8
3
 62
     4
  6
CONTINUOUS
 10
2842.612565
 20
1086.227117
 11
2943.114387
 21
1086.227117
  0
LINE
  8
3
 62
     4
  6
CONTINUOUS
 10
2812.114387
 20
1206.227117
 11
2973.612565
 21
1206.227117
  0
LINE
  8
3
 62
     4
  6
CONTINUOUS
 10
2806.863476
 20
1206.227117
 11
2806.863476
 21
1291.227117
  0
LINE
  8
3
 62
     4
  6
CONTINUOUS
 10
2985.863476
 20
1426.926479
 11
2799.863476
 21
1426.926479
  0
LINE
  8
3
 62
     4
  6
CONTINUOUS
 10
2978.863476
 20
1210.099028
 11
2978.863476
 21
1426.926479
  0
LINE
  8
3
 62
     4
  6
CONTINUOUS
 10
2788.863476
 20
1436.227117
 11
2996.863476
 21
1436.227117
  0
LINE
  8
3
 62
     4
  6
CONTINUOUS
 10
2997.863476
 20
1451.227117
 11
2787.863476
 21
1451.227117
  0
ARC
  8
3
 62
     4
  6
CONTINUOUS
 10
2839.863476
 20
938.227117
 40
2.000000
 50
180.000000
 51
270.000000
  0
ARC
  8
3
 62
     4
  6
CONTINUOUS
 10
2945.863476
 20
938.227117
 40
2.000000
 50
270.000000
 51
360.000000
  0
LINE
  8
3
 62
     4
  6
CONTINUOUS
 10
2997.863476
 20
1451.227117
 11
2997.863476
 21
1436.227117
  0
LINE
  8
3
 62
     4
  6
CONTINUOUS
 10
2996.863476
 20
1436.227117
 11
2997.863476
 21
1436.227117
  0
LINE
  8
3
 62
     4
  6
CENTER
 10
2789.356192
 20
1356.227117
 11
2989.481707
 21
1356.227117
  0
LINE
  8
3
 62
     3
  6
CENTER
 10
2814.374623
 20
1427.283548
 11
2814.374623
 21
1457.774319
  0
LINE
  8
3
 62
     3
  6
CENTER
 10
2971.352329
 20
1427.283548
 11
2971.352329
 21
1457.774319
  0
ARC
  8
3
 62
     4
  6
CONTINUOUS
 10
2996.863476
 20
1434.227117
 40
2.000000
 50
90.000000
 51
180.000000
  0
LINE
  8
3
 62
     4
  6
CONTINUOUS
 10
2994.863476
 20
1434.227117
 11
2994.863476
 21
1432.727117
  0
LINE
  8
3
 62
     4
  6
CONTINUOUS
 10
2935.513212
 20
1401.227117
 11
2968.669666
 21
1401.227117
  0
ARC
  8
3
 62
     4
  6
CONTINUOUS
 10
2993.363476
 20
1432.727117
 40
1.500000
 50
270.000000
 51
360.000000
  0
LINE
  8
3
 62
     4
  6
CONTINUOUS
 10
2993.363476
 20
1431.227117
 11
2792.363476
 21
1431.227117
  0
LINE
  8
3
 62
     4
  6
CONTINUOUS
 10
2989.422624
 20
1431.227117
 11
2985.863476
 21
1426.926479
  0
LINE
  8
3
 62
     4
  6
CONTINUOUS
 10
2799.863476
 20
1426.926479
 11
2799.863476
 21
1418.227117
  0
LINE
  8
3
 62
     4
  6
CONTINUOUS
 10
2796.304328
 20
1431.227117
 11
2799.863476
 21
1426.926479
  0
ARC
  8
3
 62
     4
  6
CONTINUOUS
 10
2792.363476
 20
1432.727117
 40
1.500000
 50
180.000000
 51
270.000000
  0
LINE
  8
3
 62
     4
  6
CONTINUOUS
 10
2790.863476
 20
1434.227117
 11
2790.863476
 21
1432.727117
  0
ARC
  8
3
 62
     4
  6
CONTINUOUS
 10
2788.863476
 20
1434.227117
 40
2.000000
 50
0.000000E+00
 51
90.000000
  0
LINE
  8
3
 62
     4
  6
CONTINUOUS
 10
2788.863476
 20
1436.227117
 11
2787.863476
 21
1436.227117
  0
LINE
  8
3
 62
     4
  6
CONTINUOUS
 10
2787.863476
 20
1451.227117
 11
2787.863476
 21
1436.227117
  0
LINE
  8
0
 62
     3
  6
CONTINUOUS
 10
2806.863476
 20
1731.986486
 11
2806.863476
 21
1721.227117
  0
ARC
  8
0
 62
     3
  6
CONTINUOUS
 10
2841.863476
 20
1731.986486
 40
35.000000
 50
162.283508
 51
180.000000
  0
LINE
  8
3
 62
     3
  6
CONTINUOUS
 10
2953.833460
 20
1835.743100
 11
2892.863476
 21
1835.743100
  0
LINE
  8
0
 62
     3
  6
CONTINUOUS
 10
2832.110159
 20
1818.036132
 11
2808.523388
 21
1742.637240
  0
LINE
  8
0
 62
     3
  6
CONTINUOUS
 10
2953.616793
 20
1818.036132
 11
2977.203563
 21
1742.637240
  0
ARC
  8
2
 62
     3
  6
CONTINUOUS
 10
2817.821550
 20
1822.600741
 40
15.000000
 50
342.283508
 51
419.888987
  0
LINE
  8
3
 62
     4
  6
CENTER
 10
2892.863476
 20
1163.831738
 11
2892.863476
 21
1475.909326
  0
LINE
  8
3
 62
     4
  6
CENTER
 10
2892.863476
 20
923.139597
 11
2892.863476
 21
1163.831738
  0
LINE
  8
0
 62
     2
  6
CONTINUOUS
 10
2794.863476
 20
1469.728715
 11
2787.863476
 21
1462.728715
  0
LINE
  8
0
 62
     3
  6
CONTINUOUS
 10
2806.863476
 20
1591.227117
 11
2806.863476
 21
1469.728715
  0
ARC
  8
2
 62
     3
  6
CONTINUOUS
 10
2967.905401
 20
1822.600741
 40
15.000000
 50
120.111013
 51
197.716492
  0
INSERT
  8
0
  2
G10
 10
0
 20
0
  0
TEXT
  8
0
 62
     7
 10
2667.009399
 20
1771.047523
 40
32.000000
 50
360.000000
 41
0.78 
  1
７５枝管
 72
     5
 11
2779.009399
 21
1771.047523
  0
LINE
  8
0
 62
     7
  6
CONTINUOUS
 10
3040.343034
 20
1762.311644
 11
3040.343034
 21
1720.527305
  0
SOLID
  8
0
 62
     7
 10
3032.578462
 20
1749.505080
 11
3048.107605
 21
1749.505080
 12
3040.343034
 22
1720.527305
 13
3040.343034
 23
1720.527305
  0
INSERT
  8
0
  2
G11
 10
0
 20
0
  0
LINE
  8
3
 62
     3
  6
CONTINUOUS
 10
2976.677172
 20
1715.980203
 11
2972.981745
 21
1714.443850
  0
LINE
  8
3
 62
     3
  6
CONTINUOUS
 10
2972.981745
 20
1714.443850
 11
2969.425546
 21
1711.535574
  0
LINE
  8
3
 62
     3
  6
CONTINUOUS
 10
2969.425546
 20
1711.535574
 11
2966.092381
 21
1707.323910
  0
LINE
  8
3
 62
     3
  6
CONTINUOUS
 10
2966.092381
 20
1707.323910
 11
2963.060798
 21
1701.908111
  0
LINE
  8
3
 62
     3
  6
CONTINUOUS
 10
2963.060798
 20
1701.908111
 11
2960.402239
 21
1695.415803
  0
LINE
  8
3
 62
     3
  6
CONTINUOUS
 10
2960.402239
 20
1695.415803
 11
2958.179355
 21
1687.999983
  0
LINE
  8
3
 62
     3
  6
CONTINUOUS
 10
2958.179355
 20
1687.999983
 11
2956.444529
 21
1679.835411
  0
LINE
  8
3
 62
     3
  6
CONTINUOUS
 10
2956.444529
 20
1679.835411
 11
2955.238645
 21
1671.114490
  0
LINE
  8
3
 62
     3
  6
CONTINUOUS
 10
2955.238645
 20
1671.114490
 11
2954.590120
 21
1662.042737
  0
LINE
  8
3
 62
     3
  6
CONTINUOUS
 10
2955.238645
 20
1671.114490
 11
2954.590120
 21
1662.042737
  0
LINE
  8
3
 62
     3
  6
CONTINUOUS
 10
2954.590120
 20
1650.411496
 11
2955.226009
 21
1641.461509
  0
LINE
  8
3
 62
     3
  6
CONTINUOUS
 10
2955.226009
 20
1641.461509
 11
2956.404487
 21
1632.850083
  0
LINE
  8
3
 62
     3
  6
CONTINUOUS
 10
2956.404487
 20
1632.850083
 11
2958.098531
 21
1624.774668
  0
LINE
  8
3
 62
     3
  6
CONTINUOUS
 10
2958.098531
 20
1624.774668
 11
2960.269298
 21
1617.420426
  0
LINE
  8
3
 62
     3
  6
CONTINUOUS
 10
2960.269298
 20
1617.420426
 11
2962.867016
 21
1610.955983
  0
LINE
  8
3
 62
     3
  6
CONTINUOUS
 10
2962.867016
 20
1610.955983
 11
2965.832121
 21
1605.529561
  0
LINE
  8
3
 62
     3
  6
CONTINUOUS
 10
2965.832121
 20
1605.529561
 11
2969.096626
 21
1601.265583
  0
LINE
  8
3
 62
     3
  6
CONTINUOUS
 10
2969.096626
 20
1601.265583
 11
2972.585680
 21
1598.261817
  0
LINE
  8
3
 62
     3
  6
CONTINUOUS
 10
2972.585680
 20
1598.261817
 11
2976.219282
 21
1596.587137
  0
LINE
  8
3
 62
     3
  6
CONTINUOUS
 10
2972.585680
 20
1598.261817
 11
2976.219282
 21
1596.587137
  0
LINE
  8
3
 62
     4
  6
CONTINUOUS
 10
2810.063888
 20
1296.717316
 11
2813.468610
 21
1298.343896
  0
LINE
  8
3
 62
     4
  6
CONTINUOUS
 10
2813.468610
 20
1298.343896
 11
2816.746830
 21
1301.079067
  0
LINE
  8
3
 62
     4
  6
CONTINUOUS
 10
2816.746830
 20
1301.079067
 11
2819.835762
 21
1304.870446
  0
LINE
  8
3
 62
     4
  6
CONTINUOUS
 10
2819.835762
 20
1304.870446
 11
2822.676246
 21
1309.645417
  0
LINE
  8
3
 62
     4
  6
CONTINUOUS
 10
2822.676246
 20
1309.645417
 11
2825.213881
 21
1315.312531
  0
LINE
  8
3
 62
     4
  6
CONTINUOUS
 10
2825.213881
 20
1315.312531
 11
2827.400065
 21
1321.763250
  0
LINE
  8
3
 62
     4
  6
CONTINUOUS
 10
2827.400065
 20
1321.763250
 11
2829.192928
 21
1328.874027
  0
LINE
  8
3
 62
     4
  6
CONTINUOUS
 10
2829.192928
 20
1328.874027
 11
2830.558132
 21
1336.508677
  0
LINE
  8
3
 62
     4
  6
CONTINUOUS
 10
2830.558132
 20
1336.508677
 11
2831.469532
 21
1344.520978
  0
LINE
  8
3
 62
     4
  6
CONTINUOUS
 10
2830.558132
 20
1336.508677
 11
2831.469532
 21
1344.520978
  0
TEXT
  8
0
 62
     3
 10
3763.889198
 20
1694.628570
 40
32.000000
 50
0.000000E+00
 41
0.87 
  1
Ｃ矢視　（下部）
 72
     5
 11
4019.889198
 21
1694.628570
  0
LINE
  8
0
 62
     3
  6
CONTINUOUS
 10
3759.889198
 20
1689.295237
 11
4013.793332
 21
1689.295237
  0
LINE
  8
3
 62
     4
  6
CONTINUOUS
 10
2831.469532
 20
1367.933255
 11
2831.085445
 21
1371.857217
  0
LINE
  8
3
 62
     4
  6
CONTINUOUS
 10
2831.085445
 20
1371.857217
 11
2830.592081
 21
1375.710664
  0
LINE
  8
3
 62
     4
  6
CONTINUOUS
 10
2830.592081
 20
1375.710664
 11
2829.991667
 21
1379.476211
  0
LINE
  8
3
 62
     4
  6
CONTINUOUS
 10
2829.991667
 20
1379.476211
 11
2829.286910
 21
1383.136872
  0
LINE
  8
3
 62
     4
  6
CONTINUOUS
 10
2829.286910
 20
1383.136872
 11
2828.480992
 21
1386.676130
  0
LINE
  8
3
 62
     4
  6
CONTINUOUS
 10
2828.480992
 20
1386.676130
 11
2827.577547
 21
1390.078019
  0
LINE
  8
3
 62
     4
  6
CONTINUOUS
 10
2827.577547
 20
1390.078019
 11
2826.580651
 21
1393.327191
  0
LINE
  8
3
 62
     4
  6
CONTINUOUS
 10
2826.580651
 20
1393.327191
 11
2825.494802
 21
1396.408988
  0
LINE
  8
3
 62
     4
  6
CONTINUOUS
 10
2825.494802
 20
1396.408988
 11
2824.324899
 21
1399.309505
  0
LINE
  8
3
 62
     4
  6
CONTINUOUS
 10
2825.494802
 20
1396.408988
 11
2824.324899
 21
1399.309505
  0
ARC
  8
3
 62
     4
  6
CONTINUOUS
 10
2832.735293
 20
1428.175616
 40
28.500781
 50
225.057601
 51
244.512889
  0
POINT
  8
3
 62
     7
 10
2806.863476
 20
1416.227117
  0
ARC
  8
1
 62
     4
  6
CONTINUOUS
 10
2799.863476
 20
1296.227117
 40
2.000000
 50
180.000000
 51
270.000000
  0
ARC
  8
1
 62
     4
  6
CONTINUOUS
 10
2799.863476
 20
1416.227117
 40
2.000000
 50
90.000000
 51
180.000000
  0
ARC
  8
1
 62
     4
  6
CONTINUOUS
 10
2803.863476
 20
1291.227117
 40
3.000000
 50
0.000000E+00
 51
90.000000
  0
LINE
  8
1
 62
     4
  6
CONTINUOUS
 10
2803.863476
 20
1294.227117
 11
2799.863476
 21
1294.227117
  0
ARC
  8
1
 62
     4
  6
CONTINUOUS
 10
2787.062159
 20
1390.987309
 40
30.639745
 50
33.671563
 51
62.448001
  0
LINE
  8
1
 62
     4
  6
CONTINUOUS
 10
2797.863476
 20
1416.227117
 11
2797.863476
 21
1296.227117
  0
POINT
  8
0
 62
     3
 10
2892.863476
 20
1443.227117
  0
POINT
  8
0
 62
     3
 10
2892.863476
 20
1428.727117
  0
POINT
  8
0
 62
     3
 10
2892.863476
 20
1406.227117
  0
ARC
  8
0
 62
     2
  6
CONTINUOUS
 10
2793.863476
 20
1453.728715
 40
1.000000
 50
360.000000
 51
450.000000
  0
LINE
  8
0
 62
     2
  6
CONTINUOUS
 10
2794.863476
 20
1469.728715
 11
2990.863476
 21
1469.728715
  0
LINE
  8
3
 62
     3
  6
CONTINUOUS
 10
3047.863476
 20
1593.727117
 11
3047.863476
 21
1716.227117
  0
LINE
  8
3
 62
     3
  6
CONTINUOUS
 10
3047.863476
 20
1593.727117
 11
3052.863476
 21
1593.727117
  0
LINE
  8
3
 62
     3
  6
CONTINUOUS
 10
3047.863476
 20
1716.227117
 11
2987.863476
 21
1716.227117
  0
ARC
  8
1
 62
     3
  6
CONTINUOUS
 10
2985.863476
 20
1596.227117
 40
2.000000
 50
270.000000
 51
360.000000
  0
LINE
  8
3
 62
     3
  6
CONTINUOUS
 10
3047.863476
 20
1596.227117
 11
2987.863476
 21
1596.227117
  0
LINE
  8
3
 62
     3
  6
CONTINUOUS
 10
3047.863476
 20
1718.727117
 11
3052.863476
 21
1718.727117
  0
LINE
  8
3
 62
     3
  6
CONTINUOUS
 10
3047.863476
 20
1718.727117
 11
3047.863476
 21
1716.227117
  0
LINE
  8
3
 62
     3
  6
CONTINUOUS
 10
3052.863476
 20
1718.727117
 11
3052.863476
 21
1593.727117
  0
LINE
  8
1
 62
     3
  6
CONTINUOUS
 10
2985.863476
 20
1718.227117
 11
2981.863476
 21
1718.227117
  0
LINE
  8
1
 62
     3
  6
CONTINUOUS
 10
2985.863476
 20
1594.227117
 11
2981.863476
 21
1594.227117
  0
ARC
  8
1
 62
     3
  6
CONTINUOUS
 10
2985.863476
 20
1716.227117
 40
2.000000
 50
0.000000E+00
 51
90.000000
  0
ARC
  8
1
 62
     3
  6
CONTINUOUS
 10
2981.863476
 20
1721.227117
 40
3.000000
 50
180.000000
 51
270.000000
  0
ARC
  8
1
 62
     3
  6
CONTINUOUS
 10
2981.863476
 20
1591.227117
 40
3.000000
 50
90.000000
 51
180.000000
  0
ARC
  8
0
 62
     3
  6
CONTINUOUS
 10
2943.863476
 20
1731.986486
 40
35.000000
 50
0.000000E+00
 51
17.716492
  0
LINE
  8
0
 62
     3
  6
CONTINUOUS
 10
2978.863476
 20
1731.986486
 11
2978.863476
 21
1721.227117
  0
LINE
  8
0
 62
     2
  6
CONTINUOUS
 10
2787.863476
 20
1462.728715
 11
2892.863476
 21
1462.728715
  0
LINE
  8
3
 62
     3
  6
CENTER
 10
2892.863476
 20
1928.701565
 11
2892.863476
 21
1475.909326
  0
LINE
  8
3
 62
     3
  6
CONTINUOUS
 10
2815.124453
 20
1739.103002
 11
2892.863476
 21
1739.103002
  0
LINE
  8
3
 62
     3
  6
CONTINUOUS
 10
2831.893492
 20
1835.743100
 11
2892.863476
 21
1835.743100
  0
LINE
  8
3
 62
     3
  6
CONTINUOUS
 10
2817.863476
 20
1916.227117
 11
2892.863476
 21
1916.227117
  0
POINT
  8
0
 62
     3
 10
2892.863476
 20
1846.227117
  0
TEXT
  8
0
 62
     6
 10
2536.833607
 20
2563.812443
 40
35.000000
 50
0.000000E+00
 41
0.81 
  1
４ＳＦ－　　　－　　　　０　　００－Ｐ
 72
     5
 11
3152.333607
 21
2563.812443
  0
LINE
  8
0
 62
     2
  6
CONTINUOUS
 10
2997.863476
 20
1454.728715
 11
2997.863476
 21
1462.728715
  0
LINE
  8
0
 62
     2
  6
CONTINUOUS
 10
2990.863476
 20
1451.728715
 11
2990.863476
 21
1453.728715
  0
ARC
  8
0
 62
     2
  6
CONTINUOUS
 10
2991.863476
 20
1453.728715
 40
1.000000
 50
90.000000
 51
180.000000
  0
LINE
  8
0
 62
     2
  6
CONTINUOUS
 10
2997.863476
 20
1462.728715
 11
2892.863476
 21
1462.728715
  0
LINE
  8
0
 62
     2
  6
CONTINUOUS
 10
2997.863476
 20
1454.728715
 11
2892.863476
 21
1454.728715
  0
ARC
  8
0
 62
     3
  6
CONTINUOUS
 10
2832.863476
 20
2114.452345
 40
2.000000
 50
180.000000
 51
270.000000
  0
LINE
  8
0
 62
     3
  6
CONTINUOUS
 10
2830.863476
 20
2114.452345
 11
2830.863476
 21
2142.452345
  0
ARC
  8
0
 62
     3
  6
CONTINUOUS
 10
2952.863476
 20
2114.452345
 40
2.000000
 50
270.000000
 51
360.000000
  0
LINE
  8
0
 62
     3
  6
CONTINUOUS
 10
2954.863476
 20
2114.452345
 11
2954.863476
 21
2142.452345
  0
LINE
  8
0
 62
     3
  6
CONTINUOUS
 10
2952.863476
 20
2112.452345
 11
2832.863476
 21
2112.452345
  0
ARC
  8
0
 62
     3
  6
CONTINUOUS
 10
2799.863476
 20
2147.452345
 40
2.000000
 50
180.000000
 51
270.000000
  0
LINE
  8
0
 62
     3
  6
CONTINUOUS
 10
2799.863476
 20
2145.452345
 11
2827.863476
 21
2145.452345
  0
ARC
  8
0
 62
     3
  6
CONTINUOUS
 10
2799.863476
 20
2267.452345
 40
2.000000
 50
90.000000
 51
180.000000
  0
LINE
  8
0
 62
     3
  6
CONTINUOUS
 10
2799.863476
 20
2269.452345
 11
2832.545568
 21
2269.452345
  0
LINE
  8
0
 62
     3
  6
CONTINUOUS
 10
2797.863476
 20
2267.452345
 11
2797.863476
 21
2147.452345
  0
ARC
  8
0
 62
     3
  6
CONTINUOUS
 10
2957.863476
 20
2142.452345
 40
3.000000
 50
90.000000
 51
180.000000
  0
ARC
  8
0
 62
     3
  6
CONTINUOUS
 10
2827.863476
 20
2142.452345
 40
3.000000
 50
0.000000E+00
 51
90.000000
  0
CIRCLE
  8
0
 62
     3
  6
CONTINUOUS
 10
2892.863476
 20
2207.452345
 40
67.000000
  0
CIRCLE
  8
0
 62
     3
  6
CONTINUOUS
 10
2892.863476
 20
2207.452345
 40
52.000000
  0
ARC
  8
0
 62
     3
  6
CONTINUOUS
 10
2985.863476
 20
2267.452345
 40
2.000000
 50
0.000000E+00
 51
90.000000
  0
LINE
  8
0
 62
     3
  6
CONTINUOUS
 10
2985.863476
 20
2269.452345
 11
2953.181384
 21
2269.452345
  0
ARC
  8
0
 62
     3
  6
CONTINUOUS
 10
2985.863476
 20
2147.452345
 40
2.000000
 50
270.000000
 51
360.000000
  0
LINE
  8
0
 62
     3
  6
CONTINUOUS
 10
2985.863476
 20
2145.452345
 11
2957.863476
 21
2145.452345
  0
LINE
  8
0
 62
     3
  6
CONTINUOUS
 10
2987.863476
 20
2147.452345
 11
2987.863476
 21
2267.452345
  0
LINE
  8
3
 62
     3
  6
CONTINUOUS
 10
3047.863476
 20
2267.452345
 11
2987.863476
 21
2267.452345
  0
LINE
  8
3
 62
     3
  6
CONTINUOUS
 10
3052.863476
 20
2144.952345
 11
3052.863476
 21
2269.952345
  0
LINE
  8
3
 62
     3
  6
CONTINUOUS
 10
3047.863476
 20
2144.952345
 11
3047.863476
 21
2147.452345
  0
LINE
  8
3
 62
     3
  6
CONTINUOUS
 10
3047.863476
 20
2144.952345
 11
3052.863476
 21
2144.952345
  0
LINE
  8
3
 62
     3
  6
CONTINUOUS
 10
3047.863476
 20
2269.952345
 11
3052.863476
 21
2269.952345
  0
LINE
  8
3
 62
     3
  6
CONTINUOUS
 10
3047.863476
 20
2269.952345
 11
3047.863476
 21
2147.452345
  0
LINE
  8
3
 62
     3
  6
CONTINUOUS
 10
3047.863476
 20
2147.452345
 11
2987.863476
 21
2147.452345
  0
CIRCLE
  8
0
 62
     3
  6
CONTINUOUS
 10
2892.863476
 20
2207.452345
 40
86.500000
  0
CIRCLE
  8
0
 62
     3
  6
CONTINUOUS
 10
2892.863476
 20
2207.452345
 40
75.000000
  0
LINE
  8
3
 62
     3
  6
CENTER
 10
3058.339644
 20
2207.452345
 11
2726.755456
 21
2207.452345
  0
LINE
  8
3
 62
     3
  6
CENTER
 10
2892.863476
 20
2109.011185
 11
2892.863476
 21
2302.567860
  0
INSERT
  8
0
  2
G12
 10
0
 20
0
  0
LINE
  8
0
 62
     1
  6
CONTINUOUS
 10
3857.464562
 20
1964.682081
 11
3764.870094
 21
1964.682081
  0
LINE
  8
0
 62
     1
  6
CONTINUOUS
 10
3772.980267
 20
2154.752309
 11
3729.347347
 21
2198.385229
  0
LINE
  8
0
 62
     1
  6
CONTINUOUS
 10
3682.508451
 20
2245.224125
 11
3632.454986
 21
2295.277589
  0
ARC
  8
0
 62
     4
  6
CONTINUOUS
 10
3692.370094
 20
2060.000000
 40
100.000000
 50
306.038338
 51
323.961662
  0
LINE
  8
3
 62
     4
  6
CONTINUOUS
 10
3754.870094
 20
1900.000000
 11
3629.870094
 21
1900.000000
  0
LINE
  8
3
 62
     4
  6
CONTINUOUS
 10
3754.870094
 20
1905.000000
 11
3754.870094
 21
1900.000000
  0
LINE
  8
3
 62
     4
  6
CONTINUOUS
 10
3629.870094
 20
1905.000000
 11
3629.870094
 21
1900.000000
  0
LINE
  8
3
 62
     4
  6
CONTINUOUS
 10
3629.870094
 20
1905.000000
 11
3754.870094
 21
1905.000000
  0
LINE
  8
3
 62
     4
  6
CONTINUOUS
 10
3752.370094
 20
1905.000000
 11
3752.370094
 21
1964.682081
  0
LINE
  8
3
 62
     4
  6
CONTINUOUS
 10
3632.370094
 20
1905.000000
 11
3632.370094
 21
1964.682081
  0
ARC
  8
3
 62
     3
  6
CONTINUOUS
 10
3692.370094
 20
2060.000000
 40
105.000000
 50
259.021382
 51
279.903199
  0
ARC
  8
0
 62
     4
  6
CONTINUOUS
 10
3692.370094
 20
2060.000000
 40
100.000000
 50
36.038338
 51
53.961662
  0
ARC
  8
0
 62
     4
  6
CONTINUOUS
 10
3692.370094
 20
2060.000000
 40
100.000000
 50
126.038338
 51
143.961662
  0
CIRCLE
  8
3
 62
     4
  6
CONTINUOUS
 10
3692.370094
 20
2060.000000
 40
88.000000
  0
INSERT
  8
0
  2
G13
 10
0
 20
0
  0
INSERT
  8
0
  2
G14
 10
0
 20
0
  0
ARC
  8
3
 62
     4
  6
CONTINUOUS
 10
3692.370094
 20
2060.000000
 40
100.000000
 50
233.109614
 51
306.890386
  0
LINE
  8
3
 62
     4
  6
CONTINUOUS
 10
3773.334701
 20
1968.749069
 11
3710.431946
 21
1956.546372
  0
ARC
  8
3
 62
     3
  6
CONTINUOUS
 10
3692.370094
 20
2060.000000
 40
105.000000
 50
80.096801
 51
100.978618
  0
ARC
  8
3
 62
     3
  6
CONTINUOUS
 10
3692.370094
 20
2060.000000
 40
105.000000
 50
170.096801
 51
189.903199
  0
LINE
  8
3
 62
     4
  6
CONTINUOUS
 10
3611.405486
 20
1968.749069
 11
3674.308241
 21
1956.546372
  0
LINE
  8
3
 62
     3
  6
CENTER
 10
3623.658337
 20
2128.711757
 11
3602.977160
 21
2149.392933
  0
LINE
  8
3
 62
     4
  6
CONTINUOUS
 10
3601.119163
 20
1979.035393
 11
3588.916466
 21
2041.938147
  0
ARC
  8
3
 62
     4
  6
CENTER
 10
3692.370094
 20
2060.000000
 40
111.000000
 50
127.724288
 51
143.734984
  0
LINE
  8
3
 62
     3
  6
CENTER
 10
3624.732563
 20
1992.362469
 11
3602.220606
 21
1969.850513
  0
ARC
  8
3
 62
     4
  6
CENTER
 10
3692.370094
 20
2060.000000
 40
111.000000
 50
215.817615
 51
233.930525
  0
ARC
  8
3
 62
     4
  6
CENTER
 10
3692.370094
 20
2060.000000
 40
111.000000
 50
305.029921
 51
325.550885
  0
LINE
  8
3
 62
     4
  6
CONTINUOUS
 10
3601.119163
 20
2140.964607
 11
3588.916466
 21
2078.061853
  0
LINE
  8
3
 62
     4
  6
CONTINUOUS
 10
3795.448417
 20
2040.003522
 11
3783.621024
 21
1979.035393
  0
LINE
  8
3
 62
     3
  6
CENTER
 10
3760.361321
 20
1992.008772
 11
3782.312022
 21
1970.058072
  0
LINE
  8
3
 62
     4
  6
CONTINUOUS
 10
3611.405486
 20
2151.250931
 11
3672.373616
 21
2163.078324
  0
ARC
  8
3
 62
     4
  6
CONTINUOUS
 10
3613.881241
 20
2138.488853
 40
13.000000
 50
100.978618
 51
169.021382
  0
ARC
  8
3
 62
     4
  6
CONTINUOUS
 10
3613.881241
 20
1981.511147
 40
13.000000
 50
190.978618
 51
259.021382
  0
ARC
  8
3
 62
     4
  6
CONTINUOUS
 10
3770.858946
 20
1981.511147
 40
13.000000
 50
280.978618
 51
349.021382
  0
LINE
  8
3
 62
     3
  6
CENTER
 10
3760.355958
 20
2127.985865
 11
3782.096652
 21
2149.726559
  0
LINE
  8
3
 62
     4
  6
CONTINUOUS
 10
3773.334701
 20
2151.250931
 11
3710.431946
 21
2163.453628
  0
LINE
  8
3
 62
     4
  6
CONTINUOUS
 10
3783.621024
 20
2140.964607
 11
3795.448417
 21
2079.996478
  0
ARC
  8
3
 62
     3
  6
CONTINUOUS
 10
3692.370094
 20
2060.000000
 40
105.000000
 50
349.021382
 51
370.978618
  0
CIRCLE
  8
3
 62
     3
  6
CONTINUOUS
 10
3692.370094
 20
2060.000000
 40
81.000000
  0
ARC
  8
3
 62
     4
  6
CONTINUOUS
 10
3770.858946
 20
2138.488853
 40
13.000000
 50
10.978618
 51
79.021382
  0
LINE
  8
3
 62
     3
  6
CENTER
 10
3692.370094
 20
1894.523832
 11
3692.370094
 21
2177.250050
  0
LINE
  8
3
 62
     3
  6
CENTER
 10
3801.367343
 20
2060.000000
 11
3575.951018
 21
2060.000000
  0
CIRCLE
  8
3
 62
     4
  6
CONTINUOUS
 10
3770.858946
 20
1981.511147
 40
7.000000
  0
CIRCLE
  8
3
 62
     4
  6
CONTINUOUS
 10
3770.858946
 20
2138.488853
 40
7.000000
  0
CIRCLE
  8
3
 62
     4
  6
CONTINUOUS
 10
3613.881241
 20
2138.488853
 40
7.000000
  0
CIRCLE
  8
3
 62
     4
  6
CONTINUOUS
 10
3613.881241
 20
1981.511147
 40
7.000000
  0
ARC
  8
3
 62
     4
  6
CENTER
 10
3692.370094
 20
2060.000000
 40
111.000000
 50
34.510429
 51
52.981003
  0
ARC
  8
3
 62
     4
  6
CONTINUOUS
 10
3692.370094
 20
2060.000000
 40
100.000000
 50
323.109614
 51
396.890386
  0
ARC
  8
3
 62
     4
  6
CONTINUOUS
 10
3692.370094
 20
2060.000000
 40
100.000000
 50
53.109614
 51
126.890386
  0
ARC
  8
3
 62
     4
  6
CONTINUOUS
 10
3692.370094
 20
2060.000000
 40
100.000000
 50
143.109614
 51
216.890386
  0
ARC
  8
0
 62
     4
  6
CONTINUOUS
 10
3692.370094
 20
2060.000000
 40
100.000000
 50
216.038338
 51
233.961662
  0
TEXT
  8
0
 62
     6
 10
2719.816479
 20
2563.910129
 40
35.000000
 50
0.000000E+00
 41
0.86 
  1
Ｂ
 72
     5
 11
2754.816479
 21
2563.910129
  0
TEXT
  8
0
 62
     6
 10
2840.490420
 20
2564.910129
 40
35.000000
 50
0.000000E+00
 41
0.86 
  1
Ａ
 72
     5
 11
2875.490420
 21
2564.910129
  0
TEXT
  8
0
 62
     6
 10
2809.990420
 20
2629.959535
 40
32.000000
 50
0.000000E+00
 41
0.97 
  1
下部
 72
     5
 11
2881.990420
 21
2629.959535
  0
TEXT
  8
0
 62
     6
 10
2689.990420
 20
2629.959535
 40
32.000000
 50
0.000000E+00
 41
0.97 
  1
上部
 72
     5
 11
2761.990420
 21
2629.959535
  0
INSERT
  8
0
  2
G15
 10
0
 20
0
  0
INSERT
  8
0
  2
G16
 10
0
 20
0
  0
TEXT
  8
0
 62
     6
 10
3177.087629
 20
2583.485825
 40
35.000000
 50
0.000000E+00
 41
0.60 
  1
240,260,280
 72
     5
 11
3409.587629
 21
2583.485825
  0
TEXT
  8
0
 62
     6
 10
3178.948131
 20
2541.370812
 40
35.000000
 50
0.000000E+00
 41
0.60 
  1
300,340,360
 72
     5
 11
3411.448131
 21
2541.370812
  0
TEXT
  8
0
 62
     6
 10
2947.066195
 20
2663.926093
 40
32.000000
 50
0.000000E+00
 41
0.86 
  1
ａ
 72
     5
 11
2979.066195
 21
2663.926093
  0
CIRCLE
  8
0
 62
     6
  6
HIDDEN
 10
2963.252571
 20
2532.940231
 40
20.000000
  0
TEXT
  8
0
 62
     6
 10
2955.252571
 20
2516.940231
 40
32.000000
 50
0.000000E+00
 41
0.50 
  1
3
 72
     5
 11
2971.252571
 21
2516.940231
  0
CIRCLE
  8
0
 62
     6
  6
HIDDEN
 10
2963.252571
 20
2580.298843
 40
20.000000
  0
TEXT
  8
0
 62
     6
 10
2955.252571
 20
2564.298843
 40
32.000000
 50
0.000000E+00
 41
0.50 
  1
2
 72
     5
 11
2971.252571
 21
2564.298843
  0
CIRCLE
  8
0
 62
     6
  6
HIDDEN
 10
2963.252571
 20
2628.332262
 40
20.000000
  0
TEXT
  8
0
 62
     6
 10
2955.252571
 20
2612.332262
 40
32.000000
 50
0.000000E+00
 41
0.50 
  1
1
 72
     5
 11
2971.252571
 21
2612.332262
  0
TEXT
  8
0
 62
     6
 10
3698.206339
 20
2441.134541
 40
32.000000
 50
0.000000E+00
 41
0.50 
  1
3
 72
     5
 11
3714.206339
 21
2441.134541
  0
TEXT
  8
0
 62
     6
 10
3698.206339
 20
2501.134541
 40
32.000000
 50
0.000000E+00
 41
0.50 
  1
2
 72
     5
 11
3714.206339
 21
2501.134541
  0
TEXT
  8
0
 62
     6
 10
3698.206339
 20
2561.134541
 40
32.000000
 50
0.000000E+00
 41
0.50 
  1
1
 72
     5
 11
3714.206339
 21
2561.134541
  0
TEXT
  8
0
 62
     6
 10
3729.294308
 20
2444.530401
 40
32.000000
 50
0.000000E+00
 41
0.74 
  1
：％％ｃ７５枝管
 72
     5
 11
3941.294308
 21
2444.530401
  0
TEXT
  8
0
 62
     6
 10
3729.294308
 20
2504.530401
 40
32.000000
 50
0.000000E+00
 41
0.74 
  1
：％％ｃ６５枝管
 72
     5
 11
3941.294308
 21
2504.530401
  0
TEXT
  8
0
 62
     6
 10
3729.294308
 20
2564.530401
 40
32.000000
 50
0.000000E+00
 41
0.74 
  1
：％％ｃ５０枝管
 72
     5
 11
3941.294308
 21
2564.530401
  0
TEXT
  8
0
 62
     6
 10
3631.418499
 20
2617.505821
 40
32.000000
 50
0.000000E+00
 41
0.97 
  1
枝管のタイプ（呼び径）
 72
     5
 11
4027.418499
 21
2617.505821
  0
LINE
  8
0
 62
     4
  6
CONTINUOUS
 10
2910.363476
 20
1296.227117
 11
2875.363476
 21
1296.227117
  0
POINT
  8
0
 62
     4
 10
2892.863476
 20
1406.227117
  0
CIRCLE
  8
0
 62
     4
  6
CONTINUOUS
 10
2892.863476
 20
1356.227117
 40
40.000000
  0
CIRCLE
  8
0
 62
     4
  6
CONTINUOUS
 10
2892.863476
 20
1356.227117
 40
54.000000
  0
CIRCLE
  8
0
 62
     4
  6
CONTINUOUS
 10
2892.863476
 20
1356.227117
 40
62.500000
  0
POINT
  8
0
 62
     4
 10
2892.863476
 20
1356.227117
  0
INSERT
  8
0
  2
G17
 10
0
 20
0
  0
LINE
  8
0
 62
     3
  6
CONTINUOUS
 10
3826.683673
 20
1896.948813
 11
3826.683673
 21
1830.192056
  0
SOLID
  8
0
 62
     3
 10
3834.448245
 20
1867.971038
 11
3818.919102
 21
1867.971038
 12
3826.683673
 22
1896.948813
 13
3826.683673
 23
1896.948813
  0
TEXT
  8
0
 62
     3
 10
3809.670160
 20
1796.286651
 40
32.000000
 50
0.000000E+00
 41
1.02 
  1
受口深さ
 72
     5
 11
3961.670160
 21
1796.286651
  0
TEXT
  8
0
 62
     3
 10
3646.142857
 20
1913.517243
 40
32.000000
 50
0.000000E+00
 41
0.86 
  1
ａ
 72
     5
 11
3678.142857
 21
1913.517243
  0
INSERT
  8
0
  2
G18
 10
0
 20
0
  0
CIRCLE
  8
0
 62
     3
  6
CONTINUOUS
 10
2892.863476
 20
1656.227117
 40
62.000000
  0
ARC
  8
1
 62
     3
  6
CONTINUOUS
 10
2803.363476
 20
1591.227117
 40
3.000000
 50
0.000000E+00
 51
90.000000
  0
ARC
  8
1
 62
     3
  6
CONTINUOUS
 10
2803.363476
 20
1721.227117
 40
3.000000
 50
270.000000
 51
360.000000
  0
ARC
  8
1
 62
     3
  6
CONTINUOUS
 10
2799.863476
 20
1716.227117
 40
2.000000
 50
90.000000
 51
180.000000
  0
LINE
  8
1
 62
     3
  6
CONTINUOUS
 10
2799.863476
 20
1594.227117
 11
2803.363476
 21
1594.227117
  0
LINE
  8
1
 62
     3
  6
CONTINUOUS
 10
2799.863476
 20
1718.227117
 11
2803.363476
 21
1718.227117
  0
ARC
  8
1
 62
     3
  6
CONTINUOUS
 10
2799.863476
 20
1596.227117
 40
2.000000
 50
180.000000
 51
270.000000
  0
LINE
  8
3
 62
     3
  6
CONTINUOUS
 10
2809.507670
 20
1596.587137
 11
2812.783061
 21
1598.033664
  0
LINE
  8
3
 62
     3
  6
CONTINUOUS
 10
2812.783061
 20
1598.033664
 11
2815.947981
 21
1600.561380
  0
LINE
  8
3
 62
     3
  6
CONTINUOUS
 10
2815.947981
 20
1600.561380
 11
2818.943628
 21
1604.123324
  0
LINE
  8
3
 62
     3
  6
CONTINUOUS
 10
2818.943628
 20
1604.123324
 11
2821.714346
 21
1608.653317
  0
LINE
  8
3
 62
     3
  6
CONTINUOUS
 10
2821.714346
 20
1608.653317
 11
2824.208655
 21
1614.067195
  0
LINE
  8
3
 62
     3
  6
CONTINUOUS
 10
2824.208655
 20
1614.067195
 11
2826.380215
 21
1620.264373
  0
LINE
  8
3
 62
     3
  6
CONTINUOUS
 10
2826.380215
 20
1620.264373
 11
2828.188678
 21
1627.129711
  0
LINE
  8
3
 62
     3
  6
CONTINUOUS
 10
2828.188678
 20
1627.129711
 11
2829.600445
 21
1634.535657
  0
LINE
  8
3
 62
     3
  6
CONTINUOUS
 10
2829.600445
 20
1634.535657
 11
2830.589287
 21
1642.344613
  0
LINE
  8
3
 62
     3
  6
CONTINUOUS
 10
2830.589287
 20
1642.344613
 11
2831.136832
 21
1650.411496
  0
LINE
  8
3
 62
     3
  6
CONTINUOUS
 10
2830.589287
 20
1642.344613
 11
2831.136832
 21
1650.411496
  0
LINE
  8
3
 62
     3
  6
CONTINUOUS
 10
2831.136832
 20
1662.042737
 11
2830.578597
 21
1670.219623
  0
LINE
  8
3
 62
     3
  6
CONTINUOUS
 10
2830.578597
 20
1670.219623
 11
2829.567009
 21
1678.129317
  0
LINE
  8
3
 62
     3
  6
CONTINUOUS
 10
2829.567009
 20
1678.129317
 11
2828.121383
 21
1685.620778
  0
LINE
  8
3
 62
     3
  6
CONTINUOUS
 10
2828.121383
 20
1685.620778
 11
2826.269325
 21
1692.550956
  0
LINE
  8
3
 62
     3
  6
CONTINUOUS
 10
2826.269325
 20
1692.550956
 11
2824.046201
 21
1698.787514
  0
LINE
  8
3
 62
     3
  6
CONTINUOUS
 10
2824.046201
 20
1698.787514
 11
2821.494462
 21
1704.211363
  0
LINE
  8
3
 62
     3
  6
CONTINUOUS
 10
2821.494462
 20
1704.211363
 11
2818.662835
 21
1708.718932
  0
LINE
  8
3
 62
     3
  6
CONTINUOUS
 10
2818.662835
 20
1708.718932
 11
2815.605390
 21
1712.224148
  0
LINE
  8
3
 62
     3
  6
CONTINUOUS
 10
2815.605390
 20
1712.224148
 11
2812.380512
 21
1714.660076
  0
LINE
  8
3
 62
     3
  6
CONTINUOUS
 10
2812.380512
 20
1714.660076
 11
2809.049779
 21
1715.980203
  0
LINE
  8
3
 62
     3
  6
CONTINUOUS
 10
2812.380512
 20
1714.660076
 11
2809.049779
 21
1715.980203
  0
LINE
  8
3
 62
     3
  6
CONTINUOUS
 10
2737.863476
 20
2144.952345
 11
2737.863476
 21
2147.452345
  0
LINE
  8
3
 62
     3
  6
CONTINUOUS
 10
2737.863476
 20
2144.952345
 11
2732.863476
 21
2144.952345
  0
LINE
  8
3
 62
     3
  6
CONTINUOUS
 10
2737.863476
 20
2269.952345
 11
2732.863476
 21
2269.952345
  0
LINE
  8
3
 62
     3
  6
CONTINUOUS
 10
2737.863476
 20
2269.952345
 11
2737.863476
 21
2147.452345
  0
LINE
  8
0
 62
     1
  6
CONTINUOUS
 10
2892.863476
 20
2414.561891
 11
2892.863476
 21
2313.517158
  0
INSERT
  8
0
  2
G19
 10
0
 20
0
  0
LINE
  8
3
 62
     3
  6
CONTINUOUS
 10
2737.863476
 20
2147.452345
 11
2797.863476
 21
2147.452345
  0
LINE
  8
3
 62
     3
  6
CONTINUOUS
 10
2737.863476
 20
2267.452345
 11
2797.863476
 21
2267.452345
  0
LINE
  8
0
 62
     3
  6
CONTINUOUS
 10
2739.560334
 20
2376.485879
 11
2666.774711
 21
2376.485879
  0
SOLID
  8
0
 62
     3
 10
2710.582559
 20
2368.721308
 11
2710.582559
 21
2384.250451
 12
2739.560334
 22
2376.485879
 13
2739.560334
 23
2376.485879
  0
LINE
  8
0
 62
     7
  6
CONTINUOUS
 10
2745.383918
 20
1762.311644
 11
2745.383918
 21
1720.527305
  0
SOLID
  8
0
 62
     7
 10
2737.619347
 20
1749.505080
 11
2753.148489
 21
1749.505080
 12
2745.383918
 22
1720.527305
 13
2745.383918
 23
1720.527305
  0
LINE
  8
3
 62
     3
  6
CONTINUOUS
 10
2737.863476
 20
1593.727117
 11
2737.863476
 21
1716.227117
  0
LINE
  8
3
 62
     3
  6
CONTINUOUS
 10
2737.863476
 20
1593.727117
 11
2732.863476
 21
1593.727117
  0
LINE
  8
3
 62
     3
  6
CONTINUOUS
 10
2737.863476
 20
1718.727117
 11
2732.863476
 21
1718.727117
  0
LINE
  8
3
 62
     3
  6
CONTINUOUS
 10
2737.863476
 20
1718.727117
 11
2737.863476
 21
1716.227117
  0
LINE
  8
3
 62
     3
  6
CONTINUOUS
 10
2732.863476
 20
1718.727117
 11
2732.863476
 21
1593.727117
  0
LINE
  8
3
 62
     3
  6
CONTINUOUS
 10
2737.863476
 20
1596.227117
 11
2797.863476
 21
1596.227117
  0
LINE
  8
3
 62
     3
  6
CONTINUOUS
 10
2737.863476
 20
1716.227117
 11
2797.863476
 21
1716.227117
  0
LINE
  8
0
 62
     3
  6
CONTINUOUS
 10
3136.174583
 20
2374.632542
 11
3136.174583
 21
2411.699294
  0
LINE
  8
0
 62
     3
  6
CONTINUOUS
 10
3042.496791
 20
2374.632542
 11
3136.174583
 21
2374.632542
  0
SOLID
  8
0
 62
     3
 10
3071.474566
 20
2382.397113
 11
3071.474566
 21
2366.867970
 12
3042.496791
 22
2374.632542
 13
3042.496791
 23
2374.632542
  0
INSERT
  8
0
  2
G20
 10
0
 20
0
  0
LINE
  8
0
 62
     1
  6
CONTINUOUS
 10
3135.163671
 20
2207.452345
 11
3199.940390
 21
2207.452345
  0
LINE
  8
0
 62
     1
  6
CONTINUOUS
 10
3068.339644
 20
2207.452345
 11
3088.661746
 21
2207.452345
  0
TEXT
  8
0
 62
     7
 10
3006.717552
 20
1771.047523
 40
32.000000
 50
0.000000E+00
 41
0.78 
  1
７５枝管
 72
     5
 11
3118.717552
 21
1771.047523
  0
LINE
  8
0
 62
     3
  6
CONTINUOUS
 10
3292.022257
 20
1966.397829
 11
3292.022257
 21
1913.604878
  0
SOLID
  8
0
 62
     3
 10
3284.257685
 20
1942.582653
 11
3299.786828
 21
1942.582653
 12
3292.022257
 22
1913.604878
 13
3292.022257
 23
1913.604878
  0
INSERT
  8
0
  2
G21
 10
0
 20
0
  0
INSERT
  8
0
  2
G22
 10
0
 20
0
  0
LINE
  8
0
 62
     3
  6
CONTINUOUS
 10
3639.618100
 20
1931.926444
 11
3533.591142
 21
1931.926444
  0
SOLID
  8
0
 62
     3
 10
3610.640325
 20
1924.161873
 11
3610.640325
 21
1939.691016
 12
3639.618100
 22
1931.926444
 13
3639.618100
 23
1931.926444
  0
LINE
  8
0
 62
     3
  6
CONTINUOUS
 10
3533.591142
 20
1931.926444
 11
3533.591142
 21
1856.008601
  0
INSERT
  8
0
  2
G23
 10
0
 20
0
  0
INSERT
  8
0
  2
G24
 10
0
 20
0
  0
INSERT
  8
0
  2
G25
 10
0
 20
0
  0
INSERT
  8
0
  2
G26
 10
0
 20
0
  0
TEXT
  8
0
 62
     3
 10
3311.553615
 20
579.564184
 40
32.000000
 50
0.000000E+00
 41
0.94 
  1
対応可能Ｐ寸法　２４０～３６０
 72
     5
 11
3837.267923
 21
579.564184
  0
INSERT
  8
0
  2
G27
 10
0
 20
0
  0
INSERT
  8
0
  2
G28
 10
0
 20
0
  0
INSERT
  8
0
  2
G29
 10
0
 20
0
  0
INSERT
  8
0
  2
G30
 10
0
 20
0
  0
INSERT
  8
0
  2
G31
 10
0
 20
0
  0
INSERT
  8
0
  2
G32
 10
0
 20
0
  0
INSERT
  8
0
  2
G33
 10
0
 20
0
  0
LINE
  8
0
 62
     2
  6
CONTINUOUS
 10
3244.712419
 20
640.281646
 11
4024.114339
 21
640.281646
  0
TEXT
  8
0
 62
     2
 10
3733.220431
 20
667.585896
 40
30.000000
 50
0.000000E+00
 41
0.61 
  1
925
 72
     5
 11
3788.220431
 21
667.585896
  0
TEXT
  8
0
 62
     2
 10
3630.421191
 20
667.585896
 40
30.000000
 50
0.000000E+00
 41
0.61 
  1
905
 72
     5
 11
3685.421191
 21
667.585896
  0
TEXT
  8
0
 62
     2
 10
3530.968711
 20
669.313032
 40
30.000000
 50
0.000000E+00
 41
0.61 
  1
885
 72
     5
 11
3585.968711
 21
669.313032
  0
TEXT
  8
0
 62
     2
 10
3836.729671
 20
669.313032
 40
30.000000
 50
0.000000E+00
 41
0.61 
  1
965
 72
     5
 11
3891.729671
 21
669.313032
  0
TEXT
  8
0
 62
     2
 10
3429.049031
 20
760.753032
 40
30.000000
 50
0.000000E+00
 41
0.61 
  1
790
 72
     5
 11
3484.049031
 21
760.753032
  0
TEXT
  8
0
 62
     2
 10
3941.182151
 20
667.585896
 40
30.000000
 50
0.000000E+00
 41
0.61 
  1
985
 72
     5
 11
3996.182151
 21
667.585896
  0
TEXT
  8
0
 62
     2
 10
3429.049031
 20
669.313032
 40
30.000000
 50
0.000000E+00
 41
0.61 
  1
865
 72
     5
 11
3484.049031
 21
669.313032
  0
TEXT
  8
0
 62
     2
 10
3836.490686
 20
837.196846
 40
30.000000
 50
0.000000E+00
 41
0.61 
  1
340
 72
     5
 11
3891.490686
 21
837.196846
  0
TEXT
  8
0
 62
     2
 10
3734.570046
 20
837.196846
 40
30.000000
 50
0.000000E+00
 41
0.61 
  1
300
 72
     5
 11
3789.570046
 21
837.196846
  0
TEXT
  8
0
 62
     2
 10
3632.649406
 20
837.196846
 40
30.000000
 50
0.000000E+00
 41
0.61 
  1
280
 72
     5
 11
3687.649406
 21
837.196846
  0
TEXT
  8
0
 62
     2
 10
3428.810046
 20
837.196846
 40
30.000000
 50
0.000000E+00
 41
0.61 
  1
240
 72
     5
 11
3483.810046
 21
837.196846
  0
LINE
  8
0
 62
     2
  6
CONTINUOUS
 10
3810.274019
 20
884.601646
 11
3810.274019
 21
640.281646
  0
TEXT
  8
0
 62
     2
 10
3255.240523
 20
673.627725
 40
30.000000
 50
0.000000E+00
 41
0.72 
  1
Ｌｔ（全長）
 72
     5
 11
3405.240523
 21
673.627725
  0
LINE
  8
0
 62
     2
  6
CONTINUOUS
 10
3244.712419
 20
731.721646
 11
4024.114339
 21
731.721646
  0
TEXT
  8
0
 62
     2
 10
3941.182151
 20
759.025896
 40
30.000000
 50
0.000000E+00
 41
0.61 
  1
910
 72
     5
 11
3996.182151
 21
759.025896
  0
LINE
  8
0
 62
     2
  6
CONTINUOUS
 10
3244.712419
 20
884.601646
 11
4024.114339
 21
884.601646
  0
TEXT
  8
0
 62
     2
 10
3836.729671
 20
760.753032
 40
30.000000
 50
0.000000E+00
 41
0.61 
  1
890
 72
     5
 11
3891.729671
 21
760.753032
  0
LINE
  8
0
 62
     2
  6
CONTINUOUS
 10
3402.593379
 20
884.601646
 11
3402.593379
 21
640.281646
  0
LINE
  8
0
 62
     2
  6
CONTINUOUS
 10
3504.513059
 20
884.601646
 11
3504.513059
 21
640.281646
  0
LINE
  8
0
 62
     2
  6
CONTINUOUS
 10
3606.432739
 20
884.601646
 11
3606.432739
 21
640.281646
  0
LINE
  8
0
 62
     2
  6
CONTINUOUS
 10
3708.353379
 20
884.601646
 11
3708.353379
 21
640.281646
  0
LINE
  8
0
 62
     2
  6
CONTINUOUS
 10
4024.114339
 20
884.601646
 11
4024.114339
 21
640.281646
  0
LINE
  8
0
 62
     2
  6
CONTINUOUS
 10
3912.193699
 20
884.601646
 11
3912.193699
 21
640.281646
  0
TEXT
  8
0
 62
     2
 10
3943.410366
 20
837.196846
 40
30.000000
 50
0.000000E+00
 41
0.61 
  1
360
 72
     5
 11
3998.410366
 21
837.196846
  0
LINE
  8
0
 62
     2
  6
CONTINUOUS
 10
3244.712419
 20
823.161646
 11
4024.114339
 21
823.161646
  0
TEXT
  8
0
 62
     2
 10
3255.240523
 20
765.067725
 40
30.000000
 50
0.000000E+00
 41
0.72 
  1
Ｌ（有効長）
 72
     5
 11
3405.240523
 21
765.067725
  0
LINE
  8
0
 62
     2
  6
CONTINUOUS
 10
3244.712419
 20
884.601646
 11
3244.712419
 21
640.281646
  0
LINE
  8
0
 62
     2
  6
CONTINUOUS
 10
4022.541101
 20
871.364597
 11
4022.541101
 21
871.364405
  0
TEXT
  8
0
 62
     2
 10
3530.968711
 20
760.753032
 40
30.000000
 50
0.000000E+00
 41
0.61 
  1
810
 72
     5
 11
3585.968711
 21
760.753032
  0
TEXT
  8
0
 62
     2
 10
3630.421191
 20
759.025896
 40
30.000000
 50
0.000000E+00
 41
0.61 
  1
830
 72
     5
 11
3685.421191
 21
759.025896
  0
TEXT
  8
0
 62
     2
 10
3530.729726
 20
837.196846
 40
30.000000
 50
0.000000E+00
 41
0.61 
  1
260
 72
     5
 11
3585.729726
 21
837.196846
  0
TEXT
  8
0
 62
     2
 10
3314.281517
 20
837.217257
 40
30.000000
 50
0.000000E+00
 41
0.86 
  1
Ｐ
 72
     5
 11
3344.281517
 21
837.217257
  0
TEXT
  8
0
 62
     2
 10
3733.220431
 20
759.025896
 40
30.000000
 50
0.000000E+00
 41
0.61 
  1
850
 72
     5
 11
3788.220431
 21
759.025896
  0
TEXT
  8
0
 62
     2
 10
3948.410366
 20
938.636846
 40
30.000000
 50
0.000000E+00
 41
0.58 
  1
44
 72
     5
 11
3983.410366
 21
938.636846
  0
TEXT
  8
0
 62
     2
 10
3836.489726
 20
938.636846
 40
30.000000
 50
0.000000E+00
 41
0.58 
  1
52
 72
     5
 11
3871.489726
 21
938.636846
  0
TEXT
  8
0
 62
     2
 10
3724.570046
 20
938.636846
 40
30.000000
 50
0.000000E+00
 41
0.58 
  1
60
 72
     5
 11
3759.570046
 21
938.636846
  0
TEXT
  8
0
 62
     2
 10
3625.578794
 20
1121.253863
 40
25.600000
 50
0.000000E+00
 41
0.55 
  1
100
 72
     5
 11
3667.635939
 21
1121.253863
  0
TEXT
  8
0
 62
     2
 10
3609.048500
 20
1159.938571
 40
18.400000
 50
0.000000E+00
 41
0.89 
  1
立管受口
 72
     5
 11
3685.048499
 21
1159.938571
  0
TEXT
  8
0
 62
     2
 10
3948.410366
 20
1061.516846
 40
30.000000
 50
0.000000E+00
 41
0.58 
  1
65
 72
     5
 11
3983.410366
 21
1061.516846
  0
TEXT
  8
0
 62
     2
 10
3836.489726
 20
1061.516846
 40
30.000000
 50
0.000000E+00
 41
0.58 
  1
65
 72
     5
 11
3871.489726
 21
1061.516846
  0
TEXT
  8
0
 62
     2
 10
3632.650366
 20
1061.516846
 40
30.000000
 50
0.000000E+00
 41
0.58 
  1
75
 72
     5
 11
3667.650366
 21
1061.516846
  0
LINE
  8
0
 62
     2
  6
CONTINUOUS
 10
3688.353379
 20
986.041646
 11
3606.433699
 21
924.601646
  0
LINE
  8
0
 62
     2
  6
CONTINUOUS
 10
4024.114339
 20
1190.846702
 11
4024.114339
 21
924.601646
  0
TEXT
  8
0
 62
     2
 10
3495.330843
 20
942.947725
 40
30.000000
 50
0.000000E+00
 41
0.86 
  1
Ｂ寸法
 72
     5
 11
3585.330843
 21
942.947725
  0
LINE
  8
0
 62
     2
  6
CONTINUOUS
 10
3483.552739
 20
986.041646
 11
4024.114339
 21
986.041646
  0
LINE
  8
0
 62
     2
  6
CONTINUOUS
 10
3688.353379
 20
1149.881678
 11
4024.114339
 21
1149.881678
  0
LINE
  8
0
 62
     2
  6
CONTINUOUS
 10
3483.552739
 20
1108.921646
 11
4024.114339
 21
1108.921646
  0
TEXT
  8
0
 62
     2
 10
3733.916713
 20
1154.795013
 40
30.000000
 50
0.000000E+00
 41
0.86 
  1
下部横枝管サイズ
 72
     5
 11
3973.916713
 21
1154.795013
  0
LINE
  8
0
 62
     2
  6
CONTINUOUS
 10
3606.433699
 20
1189.607822
 11
3606.433699
 21
924.601646
  0
LINE
  8
0
 62
     2
  6
CONTINUOUS
 10
3688.353379
 20
1189.607822
 11
3688.353379
 21
924.601646
  0
LINE
  8
0
 62
     2
  6
CONTINUOUS
 10
3800.273059
 20
1149.881678
 11
3800.273059
 21
924.601646
  0
LINE
  8
0
 62
     2
  6
CONTINUOUS
 10
3688.353379
 20
1047.481646
 11
3606.433699
 21
986.041646
  0
LINE
  8
0
 62
     2
  6
CONTINUOUS
 10
3912.193699
 20
1149.881486
 11
3912.193699
 21
924.601646
  0
LINE
  8
0
 62
     2
  6
CONTINUOUS
 10
3483.552739
 20
924.601646
 11
4024.114339
 21
924.601646
  0
TEXT
  8
0
 62
     2
 10
3704.615965
 20
1114.716379
 40
30.000000
 50
0.000000E+00
 41
0.63 
  1
75(3)
 72
     5
 11
3799.615965
 21
1114.716379
  0
TEXT
  8
0
 62
     2
 10
3816.535645
 20
1114.716379
 40
30.000000
 50
0.000000E+00
 41
0.63 
  1
65(2)
 72
     5
 11
3911.535645
 21
1114.716379
  0
TEXT
  8
0
 62
     2
 10
3928.456285
 20
1114.716379
 40
30.000000
 50
0.000000E+00
 41
0.63 
  1
50(1)
 72
     5
 11
4023.456285
 21
1114.716379
  0
LINE
  8
0
 62
     2
  6
CONTINUOUS
 10
3483.552739
 20
1149.881678
 11
3483.552739
 21
924.601646
  0
LINE
  8
0
 62
     2
  6
CONTINUOUS
 10
3483.552739
 20
1047.481646
 11
4024.114339
 21
1047.481646
  0
TEXT
  8
0
 62
     2
 10
3495.330843
 20
1004.387725
 40
30.000000
 50
0.000000E+00
 41
0.86 
  1
Ａ寸法
 72
     5
 11
3585.330843
 21
1004.387725
  0
LINE
  8
0
 62
     2
  6
CONTINUOUS
 10
3483.552739
 20
1149.881678
 11
3483.552739
 21
1190.846702
  0
LINE
  8
0
 62
     2
  6
CONTINUOUS
 10
3483.552739
 20
1190.846702
 11
4024.114339
 21
1190.846702
  0
LINE
  8
0
 62
     2
  6
CONTINUOUS
 10
3994.113379
 20
1149.881678
 11
3994.113379
 21
1149.881486
  0
TEXT
  8
0
 62
     2
 10
3714.809031
 20
1001.803982
 40
30.000000
 50
0.000000E+00
 41
0.61 
  1
125
 72
     5
 11
3769.809031
 21
1001.803982
  0
TEXT
  8
0
 62
     2
 10
3824.261511
 20
1000.076846
 40
30.000000
 50
0.000000E+00
 41
0.61 
  1
110
 72
     5
 11
3879.261511
 21
1000.076846
  0
TEXT
  8
0
 62
     2
 10
3724.570046
 20
1061.516846
 40
30.000000
 50
0.000000E+00
 41
0.58 
  1
65
 72
     5
 11
3759.570046
 21
1061.516846
  0
TEXT
  8
0
 62
     2
 10
3488.121837
 20
1061.537257
 40
30.000000
 50
0.000000E+00
 41
0.86 
  1
受口深さ
 72
     5
 11
3608.121837
 21
1061.537257
  0
LINE
  8
0
 62
     2
  6
CONTINUOUS
 10
3483.552739
 20
1190.846702
 11
3606.433699
 21
1108.921646
  0
TEXT
  8
0
 62
     2
 10
3948.410366
 20
1000.076846
 40
30.000000
 50
0.000000E+00
 41
0.58 
  1
94
 72
     5
 11
3983.410366
 21
1000.076846
  0
ENDSEC
  0
EOF
