  0
SECTION
  2
HEADER
  9
$INSBASE
 10
0
 20
0
  9
$EXTMIN
 10
0
 20
0
  9
$EXTMAX
 10
4200.000000
 20
2970.000000
  9
$LIMMIN
 10
0
 20
0
  9
$LIMMAX
 10
4200.000000
 20
2970.000000
  9
$VIEWCTR
 10
2100.000000
 20
1485.000000
  9
$DIMASZ
 40
20.000000
  9
$DIMDLI
 40
80.000000
  9
$DIMEXE
 40
10.000000
  9
$DIMEXO
 40
10.000000
  9
$DIMTXT
 40
32.000000
  9
$TEXTSIZE
 40
32.000000
  9
$ANGBASE
 50
0.0
  9
$ANGDIR
 70
     0
  9
$ATTMODE
 70
     1
  9
$AUNITS
 70
     1
  9
$AUPREC
 70
     2
  9
$AXISMODE
 70
     0
  9
$AXISUNIT
 10
0.0
 20
0.0
  9
$BLIPMODE
 70
     1
  9
$CECOLOR
 62
   256
  9
$CELTYPE
  6
BYLAYER
  9
$CHAMFERA
 40
0.0
  9
$CHAMFERB
 40
0.0
  9
$CLAYER
  8
0
  9
$COORDS
 70
     0
  9
$DIMALT
 70
     0
  9
$DIMALTD
 70
     2
  9
$DIMALTF
 40
25.4
  9
$DIMDLE
 40
0.0
  9
$DIMLFAC
 40
1.0
  9
$DIMLIM
 70
     0
  9
$DIMRND
 40
0.0
  9
$DIMSCALE
 40
1.0
  9
$DIMSE1
 70
     0
  9
$DIMSE2
 70
     0
  9
$DIMTAD
 70
     1
  9
$DIMTIH
 70
     0
  9
$DIMTM
 40
0.0
  9
$DIMTOH
 70
     0
  9
$DIMTOL
 70
     0
  9
$DIMTP
 40
0.0
  9
$DIMTSZ
 40
0.0
  9
$DIMZIN
 70
     0
  9
$DRAGMODE
 70
     2
  9
$ELEVATION
 40
0.0
  9
$FASTZOOM
 70
     1
  9
$FILLETRAD
 40
0.0
  9
$FILLMODE
 70
     1
  9
$GRIDMODE
 70
     0
  9
$GRIDUNIT
 10
0.0
 20
0.0
  9
$LTSCALE
 40
1.0
  9
$LUNITS
 70
     2
  9
$LUPREC
 70
     2
  9
$MENU
  1
ACAD
  9
$ORTHOMODE
 70
     0
  9
$OSMODE
 70
     0
  9
$PDMODE
 70
     0
  9
$PDSIZE
 40
0.0
  9
$PLINEWID
 40
0.0
  9
$QTEXTMODE
 70
     0
  9
$REGENMODE
 70
     1
  9
$SKETCHINC
 40
0.1
  9
$SKPOLY
 70
     0
  9
$SNAPBASE
 10
0.0
 20
0.0
  9
$SNAPISOPAIR
 70
     0
  9
$SNAPMODE
 70
     0
  9
$SNAPSTYLE
 70
     0
  9
$SNAPUNIT
 10
0.0
 20
0.0
  9
$TEXTSTYLE
  7
KANJI
  9
$THICKNESS
 40
0.0
  9
$TRACEWID
 40
0.05
  9
$VIEWDIR
 10
0.0
 20
0.0
 30
1.0
  9
$VIEWSIZE
 40
0.0
  0
ENDSEC
  0
SECTION
  2
TABLES
  0
TABLE
  2
LTYPE
 70
     9
  0
LTYPE
  2
CONTINUOUS
 70
    64
  3
Solid line
 72
    65
 73
     0
 40
0.0
  0
LTYPE
  2
DASHED
 70
    64
  3
__ __ __ __ __ __ __ __ __ __ __ __ __ __ __
 72
    65
 73
     2
 40
0.75
 49
0.5
 49
-0.25
  0
LTYPE
  2
HIDDEN
 70
    64
  3
_ _ _ _ _ _ _ _ _ _ _ _ _ _ _ _ _ _ _ _ _ _ _
 72
    65
 73
     2
 40
0.375
 49
0.25
 49
-0.125
  0
LTYPE
  2
CENTER
 70
    64
  3
____ _ ____ _ ____ _ ____ _ ____ _ ____ _ ____
 72
    65
 73
     4
 40
2.0
 49
1.25
 49
-0.25
 49
0.25
 49
-0.25
  0
LTYPE
  2
PHANTOM
 70
    64
  3
_____ _ _ _____ _ _ _____ _ _ _____ _ _ ____
 72
    65
 73
     6
 40
2.5
 49
1.25
 49
-0.25
 49
0.25
 49
-0.25
 49
0.25
 49
-0.25
  0
LTYPE
  2
DOT
 70
    64
  3
...............................................
 72
    65
 73
     2
 40
0.25
 49
0.0
 49
-0.25
  0
LTYPE
  2
DASHDOT
 70
    64
  3
__ . __ . __ . __ . __ . __ . __ . __ . __ . __
 72
    65
 73
     4
 40
1.0
 49
0.5
 49
-0.25
 49
0.0
 49
-0.25
  0
LTYPE
  2
BORDER
 70
    64
  3
__ __ . __ __ . __ __ . __ __ . __ __ . __ __
 72
    65
 73
     6
 40
1.75
 49
0.5
 49
-0.25
 49
0.5
 49
-0.25
 49
0.0
 49
-0.25
  0
LTYPE
  2
DIVIDE
 70
    64
  3
__ . . __ . . __ . . __ . . __ . . __ . . __
 72
    65
 73
     6
 40
1.25
 49
0.5
 49
-0.25
 49
0.0
 49
-0.25
 49
0.0
 49
-0.25
  0
ENDTAB
  0
TABLE
  2
LAYER
 70
   100
  0
LAYER
  2
0
 70
     0
 62
     3
  6
CONTINUOUS
  0
LAYER
  2
1
 70
     0
 62
     3
  6
CONTINUOUS
  0
LAYER
  2
2
 70
     0
 62
     3
  6
CONTINUOUS
  0
LAYER
  2
3
 70
     0
 62
     3
  6
CONTINUOUS
  0
LAYER
  2
4
 70
     0
 62
     3
  6
CONTINUOUS
  0
LAYER
  2
5
 70
     0
 62
     3
  6
CONTINUOUS
  0
LAYER
  2
6
 70
     0
 62
     3
  6
CONTINUOUS
  0
LAYER
  2
7
 70
     0
 62
     3
  6
CONTINUOUS
  0
LAYER
  2
8
 70
     0
 62
     3
  6
CONTINUOUS
  0
LAYER
  2
9
 70
     0
 62
     3
  6
CONTINUOUS
  0
LAYER
  2
10
 70
     0
 62
     3
  6
CONTINUOUS
  0
LAYER
  2
11
 70
     0
 62
     3
  6
CONTINUOUS
  0
LAYER
  2
12
 70
     0
 62
     3
  6
CONTINUOUS
  0
LAYER
  2
13
 70
     0
 62
     3
  6
CONTINUOUS
  0
LAYER
  2
14
 70
     0
 62
     3
  6
CONTINUOUS
  0
LAYER
  2
15
 70
     0
 62
     3
  6
CONTINUOUS
  0
LAYER
  2
16
 70
     0
 62
     3
  6
CONTINUOUS
  0
LAYER
  2
17
 70
     0
 62
     3
  6
CONTINUOUS
  0
LAYER
  2
18
 70
     0
 62
     3
  6
CONTINUOUS
  0
LAYER
  2
19
 70
     0
 62
     3
  6
CONTINUOUS
  0
LAYER
  2
20
 70
     0
 62
     3
  6
CONTINUOUS
  0
LAYER
  2
21
 70
     0
 62
     3
  6
CONTINUOUS
  0
LAYER
  2
22
 70
     0
 62
     3
  6
CONTINUOUS
  0
LAYER
  2
23
 70
     0
 62
     3
  6
CONTINUOUS
  0
LAYER
  2
24
 70
     0
 62
     3
  6
CONTINUOUS
  0
LAYER
  2
25
 70
     0
 62
     3
  6
CONTINUOUS
  0
LAYER
  2
26
 70
     0
 62
     3
  6
CONTINUOUS
  0
LAYER
  2
27
 70
     0
 62
     3
  6
CONTINUOUS
  0
LAYER
  2
28
 70
     0
 62
     3
  6
CONTINUOUS
  0
LAYER
  2
29
 70
     0
 62
     3
  6
CONTINUOUS
  0
LAYER
  2
30
 70
     0
 62
     3
  6
CONTINUOUS
  0
LAYER
  2
31
 70
     0
 62
     3
  6
CONTINUOUS
  0
LAYER
  2
32
 70
     0
 62
     3
  6
CONTINUOUS
  0
LAYER
  2
33
 70
     0
 62
     3
  6
CONTINUOUS
  0
LAYER
  2
34
 70
     0
 62
     3
  6
CONTINUOUS
  0
LAYER
  2
35
 70
     0
 62
     3
  6
CONTINUOUS
  0
LAYER
  2
36
 70
     0
 62
     3
  6
CONTINUOUS
  0
LAYER
  2
37
 70
     0
 62
     3
  6
CONTINUOUS
  0
LAYER
  2
38
 70
     0
 62
     3
  6
CONTINUOUS
  0
LAYER
  2
39
 70
     0
 62
     3
  6
CONTINUOUS
  0
LAYER
  2
40
 70
     0
 62
     3
  6
CONTINUOUS
  0
LAYER
  2
41
 70
     0
 62
     3
  6
CONTINUOUS
  0
LAYER
  2
42
 70
     0
 62
     3
  6
CONTINUOUS
  0
LAYER
  2
43
 70
     0
 62
     3
  6
CONTINUOUS
  0
LAYER
  2
44
 70
     0
 62
     3
  6
CONTINUOUS
  0
LAYER
  2
45
 70
     0
 62
     3
  6
CONTINUOUS
  0
LAYER
  2
46
 70
     0
 62
     3
  6
CONTINUOUS
  0
LAYER
  2
47
 70
     0
 62
     3
  6
CONTINUOUS
  0
LAYER
  2
48
 70
     0
 62
     3
  6
CONTINUOUS
  0
LAYER
  2
49
 70
     0
 62
     3
  6
CONTINUOUS
  0
LAYER
  2
50
 70
     0
 62
     3
  6
CONTINUOUS
  0
LAYER
  2
51
 70
     0
 62
     3
  6
CONTINUOUS
  0
LAYER
  2
52
 70
     0
 62
     3
  6
CONTINUOUS
  0
LAYER
  2
53
 70
     0
 62
     3
  6
CONTINUOUS
  0
LAYER
  2
54
 70
     0
 62
     3
  6
CONTINUOUS
  0
LAYER
  2
55
 70
     0
 62
     3
  6
CONTINUOUS
  0
LAYER
  2
56
 70
     0
 62
     3
  6
CONTINUOUS
  0
LAYER
  2
57
 70
     0
 62
     3
  6
CONTINUOUS
  0
LAYER
  2
58
 70
     0
 62
     3
  6
CONTINUOUS
  0
LAYER
  2
59
 70
     0
 62
     3
  6
CONTINUOUS
  0
LAYER
  2
60
 70
     0
 62
     3
  6
CONTINUOUS
  0
LAYER
  2
61
 70
     0
 62
     3
  6
CONTINUOUS
  0
LAYER
  2
62
 70
     0
 62
     3
  6
CONTINUOUS
  0
LAYER
  2
63
 70
     0
 62
     3
  6
CONTINUOUS
  0
LAYER
  2
64
 70
     0
 62
     3
  6
CONTINUOUS
  0
LAYER
  2
65
 70
     0
 62
     3
  6
CONTINUOUS
  0
LAYER
  2
66
 70
     0
 62
     3
  6
CONTINUOUS
  0
LAYER
  2
67
 70
     0
 62
     3
  6
CONTINUOUS
  0
LAYER
  2
68
 70
     0
 62
     3
  6
CONTINUOUS
  0
LAYER
  2
69
 70
     0
 62
     3
  6
CONTINUOUS
  0
LAYER
  2
70
 70
     0
 62
     3
  6
CONTINUOUS
  0
LAYER
  2
71
 70
     0
 62
     3
  6
CONTINUOUS
  0
LAYER
  2
72
 70
     0
 62
     3
  6
CONTINUOUS
  0
LAYER
  2
73
 70
     0
 62
     3
  6
CONTINUOUS
  0
LAYER
  2
74
 70
     0
 62
     3
  6
CONTINUOUS
  0
LAYER
  2
75
 70
     0
 62
     3
  6
CONTINUOUS
  0
LAYER
  2
76
 70
     0
 62
     3
  6
CONTINUOUS
  0
LAYER
  2
77
 70
     0
 62
     3
  6
CONTINUOUS
  0
LAYER
  2
78
 70
     0
 62
     3
  6
CONTINUOUS
  0
LAYER
  2
79
 70
     0
 62
     3
  6
CONTINUOUS
  0
LAYER
  2
80
 70
     0
 62
     3
  6
CONTINUOUS
  0
LAYER
  2
81
 70
     0
 62
     3
  6
CONTINUOUS
  0
LAYER
  2
82
 70
     0
 62
     3
  6
CONTINUOUS
  0
LAYER
  2
83
 70
     0
 62
     3
  6
CONTINUOUS
  0
LAYER
  2
84
 70
     0
 62
     3
  6
CONTINUOUS
  0
LAYER
  2
85
 70
     0
 62
     3
  6
CONTINUOUS
  0
LAYER
  2
86
 70
     0
 62
     3
  6
CONTINUOUS
  0
LAYER
  2
87
 70
     0
 62
     3
  6
CONTINUOUS
  0
LAYER
  2
88
 70
     0
 62
     3
  6
CONTINUOUS
  0
LAYER
  2
89
 70
     0
 62
     3
  6
CONTINUOUS
  0
LAYER
  2
90
 70
     0
 62
     3
  6
CONTINUOUS
  0
LAYER
  2
91
 70
     0
 62
     3
  6
CONTINUOUS
  0
LAYER
  2
92
 70
     0
 62
     3
  6
CONTINUOUS
  0
LAYER
  2
93
 70
     0
 62
     3
  6
CONTINUOUS
  0
LAYER
  2
94
 70
     0
 62
     3
  6
CONTINUOUS
  0
LAYER
  2
95
 70
     0
 62
     3
  6
CONTINUOUS
  0
LAYER
  2
96
 70
     0
 62
     3
  6
CONTINUOUS
  0
LAYER
  2
97
 70
     0
 62
     3
  6
CONTINUOUS
  0
LAYER
  2
98
 70
     0
 62
     3
  6
CONTINUOUS
  0
LAYER
  2
99
 70
     0
 62
     3
  6
CONTINUOUS
  0
ENDTAB
  0
TABLE
  2
STYLE
 70
     2
  0
STYLE
  2
STANDARD
 70
     0
 40
0.0
 41
1.0
 50
0.0
 71
     0
 42
0.2
  3
TXT
  4
BIGFONT
  0
STYLE
  2
KANJI
 70
     0
 40
4.5
 41
1.0
 50
0.0
 71
     0
 42
0.2
  3
TXT
  4
BIGFONT
  0
ENDTAB
  0
TABLE
  2
VIEW
 70
     0
  0
ENDTAB
  0
ENDSEC
  0
SECTION
  2
BLOCKS
  0
BLOCK
  8
0
  2
G0
 70
     0
 10
0
 20
0
  0
LINE
  8
0
 62
     1
  6
CONTINUOUS
 10
3229.337052
 20
1923.027117
 11
3229.337052
 21
1848.027117
  0
SOLID
  8
0
 62
     1
 10
3235.807528
 20
1898.878971
 11
3222.866576
 21
1898.878971
 12
3229.337052
 22
1923.027117
 13
3229.337052
 23
1923.027117
  0
SOLID
  8
0
 62
     1
 10
3222.866576
 20
1872.175262
 11
3235.807528
 21
1872.175262
 12
3229.337052
 22
1848.027117
 13
3229.337052
 23
1848.027117
  0
LINE
  8
0
 62
     1
  6
CONTINUOUS
 10
3239.337052
 20
1923.027117
 11
2892.450193
 21
1923.027117
  0
LINE
  8
0
 62
     1
  6
CONTINUOUS
 10
3239.337052
 20
1848.027117
 11
3109.337052
 21
1848.027117
  0
TEXT
  8
0
 62
     1
 10
3224.003719
 20
1867.527117
 40
32.000000
 50
90.000000
 41
0.56 
  1
75
 72
     5
 11
3224.003719
 21
1903.527117
  0
ENDBLK
  0
BLOCK
  8
0
  2
G1
 70
     0
 10
0
 20
0
  0
LINE
  8
0
 62
     1
  6
CONTINUOUS
 10
3169.337052
 20
1298.027117
 11
3169.337052
 21
1658.027117
  0
SOLID
  8
0
 62
     1
 10
3161.572481
 20
1327.004891
 11
3177.101623
 21
1327.004891
 12
3169.337052
 22
1298.027117
 13
3169.337052
 23
1298.027117
  0
SOLID
  8
0
 62
     1
 10
3177.101623
 20
1629.049342
 11
3161.572481
 21
1629.049342
 12
3169.337052
 22
1658.027117
 13
3169.337052
 23
1658.027117
  0
LINE
  8
0
 62
     1
  6
CONTINUOUS
 10
3179.337052
 20
1298.027117
 11
2972.819335
 21
1298.027117
  0
TEXT
  8
0
 62
     1
 10
3164.003719
 20
1462.027117
 40
32.000000
 50
90.000000
 41
0.86 
  1
Ｐ
 72
     5
 11
3164.003719
 21
1494.027117
  0
ENDBLK
  0
BLOCK
  8
0
  2
G2
 70
     0
 10
0
 20
0
  0
LINE
  8
0
 62
     1
  6
CONTINUOUS
 10
3109.337052
 20
1598.027117
 11
3109.337052
 21
1848.027117
  0
SOLID
  8
0
 62
     1
 10
3101.572481
 20
1627.004891
 11
3117.101623
 21
1627.004891
 12
3109.337052
 22
1598.027117
 13
3109.337052
 23
1598.027117
  0
SOLID
  8
0
 62
     1
 10
3117.101623
 20
1819.049342
 11
3101.572481
 21
1819.049342
 12
3109.337052
 22
1848.027117
 13
3109.337052
 23
1848.027117
  0
LINE
  8
0
 62
     1
  6
CONTINUOUS
 10
3059.337052
 20
1598.027117
 11
3119.337052
 21
1598.027117
  0
LINE
  8
0
 62
     1
  6
CONTINUOUS
 10
2822.260138
 20
1848.027117
 11
3119.337052
 21
1848.027117
  0
TEXT
  8
0
 62
     1
 10
3104.003719
 20
1695.027117
 40
32.000000
 50
90.000000
 41
0.58 
  1
250
 72
     5
 11
3104.003719
 21
1751.027117
  0
ENDBLK
  0
BLOCK
  8
0
  2
G3
 70
     0
 10
0
 20
0
  0
TEXT
  8
0
 62
     3
 10
3162.716226
 20
1978.253919
 40
32.000000
 50
0.000000E+00
 41
0.95 
  1
受口深さ　
 72
     5
 11
3338.716226
 21
1978.253919
  0
ENDBLK
  0
BLOCK
  8
0
  2
G4
 70
     0
 10
0
 20
0
  0
LINE
  8
0
 62
     1
  6
CONTINUOUS
 10
3169.337052
 20
1298.027117
 11
3169.337052
 21
938.027117
  0
SOLID
  8
0
 62
     1
 10
3175.807528
 20
1273.878971
 11
3162.866576
 21
1273.878971
 12
3169.337052
 22
1298.027117
 13
3169.337052
 23
1298.027117
  0
SOLID
  8
0
 62
     1
 10
3162.866576
 20
962.175262
 11
3175.807528
 21
962.175262
 12
3169.337052
 22
938.027117
 13
3169.337052
 23
938.027117
  0
LINE
  8
0
 62
     1
  6
CONTINUOUS
 10
3179.337052
 20
938.027117
 11
3059.337052
 21
938.027117
  0
TEXT
  8
0
 62
     1
 10
3164.003719
 20
1090.027117
 40
32.000000
 50
90.000000
 41
0.58 
  1
360
 72
     5
 11
3164.003719
 21
1146.027117
  0
ENDBLK
  0
BLOCK
  8
0
  2
G5
 70
     0
 10
0
 20
0
  0
LINE
  8
0
 62
     1
  6
CONTINUOUS
 10
3229.337052
 20
1848.027117
 11
3229.337052
 21
938.027117
  0
SOLID
  8
0
 62
     1
 10
3235.807528
 20
1823.878971
 11
3222.866576
 21
1823.878971
 12
3229.337052
 22
1848.027117
 13
3229.337052
 23
1848.027117
  0
SOLID
  8
0
 62
     1
 10
3222.866576
 20
962.175262
 11
3235.807528
 21
962.175262
 12
3229.337052
 22
938.027117
 13
3229.337052
 23
938.027117
  0
LINE
  8
0
 62
     1
  6
CONTINUOUS
 10
3179.337052
 20
938.027117
 11
3239.337052
 21
938.027117
  0
TEXT
  8
0
 62
     1
 10
3224.003719
 20
1299.027117
 40
32.000000
 50
90.000000
 41
0.89 
  1
Ｌ（有効長）
 72
     5
 11
3224.003719
 21
1495.027117
  0
ENDBLK
  0
BLOCK
  8
0
  2
G6
 70
     0
 10
0
 20
0
  0
LINE
  8
0
 62
     1
  6
CONTINUOUS
 10
3289.337052
 20
1923.027117
 11
3289.337052
 21
938.027117
  0
SOLID
  8
0
 62
     1
 10
3295.807528
 20
1898.878971
 11
3282.866576
 21
1898.878971
 12
3289.337052
 22
1923.027117
 13
3289.337052
 23
1923.027117
  0
SOLID
  8
0
 62
     1
 10
3282.866576
 20
962.175262
 11
3295.807528
 21
962.175262
 12
3289.337052
 22
938.027117
 13
3289.337052
 23
938.027117
  0
LINE
  8
0
 62
     1
  6
CONTINUOUS
 10
3239.337052
 20
1923.027117
 11
3299.337052
 21
1923.027117
  0
LINE
  8
0
 62
     1
  6
CONTINUOUS
 10
3239.337052
 20
938.027117
 11
3299.337052
 21
938.027117
  0
TEXT
  8
0
 62
     1
 10
3284.003719
 20
1394.527117
 40
32.000000
 50
90.000000
 41
0.97 
  1
Ｌｔ
 72
     5
 11
3284.003719
 21
1466.527117
  0
ENDBLK
  0
BLOCK
  8
0
  2
G7
 70
     0
 10
0
 20
0
  0
LINE
  8
0
 62
     1
  6
CONTINUOUS
 10
2575.183225
 20
1595.527117
 11
2575.183225
 21
1504.944416
  0
SOLID
  8
0
 62
     1
 10
2581.653701
 20
1571.378971
 11
2568.712749
 21
1571.378971
 12
2575.183225
 22
1595.527117
 13
2575.183225
 23
1595.527117
  0
TEXT
  8
0
 62
     1
 10
2569.849892
 20
1509.799037
 40
32.000000
 50
90.000000
 41
0.58 
  1
2.5
 72
     5
 11
2569.849892
 21
1565.799037
  0
LINE
  8
0
 62
     1
  6
CONTINUOUS
 10
2565.183225
 20
1595.527117
 11
2647.260138
 21
1595.527117
  0
LINE
  8
0
 62
     1
  6
CONTINUOUS
 10
2575.183225
 20
1595.527117
 11
2575.183225
 21
1598.027117
  0
ENDBLK
  0
BLOCK
  8
0
  2
G8
 70
     0
 10
0
 20
0
  0
TEXT
  8
0
 62
     3
 10
3076.997356
 20
2415.140954
 40
32.000000
 50
0.000000E+00
 41
0.95 
  1
受口深さ　
 72
     5
 11
3252.997356
 21
2415.140954
  0
ENDBLK
  0
BLOCK
  8
0
  2
G9
 70
     0
 10
0
 20
0
  0
TEXT
  8
0
 62
     3
 10
2451.580155
 20
2358.529914
 40
32.000000
 50
0.000000E+00
 41
0.95 
  1
受口深さ　
 72
     5
 11
2627.580155
 21
2358.529914
  0
ENDBLK
  0
BLOCK
  8
0
  2
G10
 70
     0
 10
0
 20
0
  0
LINE
  8
0
 62
     1
  6
CONTINUOUS
 10
2652.260138
 20
2344.142798
 11
2602.260138
 21
2344.142798
  0
SOLID
  8
0
 62
     1
 10
2628.111993
 20
2337.672322
 11
2628.111993
 21
2350.613275
 12
2652.260138
 22
2344.142798
 13
2652.260138
 23
2344.142798
  0
LINE
  8
0
 62
     1
  6
CONTINUOUS
 10
2767.260138
 20
2344.142798
 11
2717.260138
 21
2344.142798
  0
SOLID
  8
0
 62
     1
 10
2741.408284
 20
2350.613275
 11
2741.408284
 21
2337.672322
 12
2717.260138
 22
2344.142798
 13
2717.260138
 23
2344.142798
  0
TEXT
  8
0
 62
     1
 10
2666.760138
 20
2349.476132
 40
32.000000
 50
360.000000
 41
0.56 
  1
65
 72
     5
 11
2702.760138
 21
2349.476132
  0
LINE
  8
0
 62
     1
  6
CONTINUOUS
 10
2652.260138
 20
2271.752345
 11
2652.260138
 21
2404.142798
  0
LINE
  8
0
 62
     1
  6
CONTINUOUS
 10
2717.260138
 20
2269.252345
 11
2717.260138
 21
2354.142798
  0
LINE
  8
0
 62
     1
  6
CONTINUOUS
 10
2717.260138
 20
2344.142798
 11
2652.260138
 21
2344.142798
  0
ENDBLK
  0
BLOCK
  8
0
  2
G11
 70
     0
 10
0
 20
0
  0
LINE
  8
0
 62
     1
  6
CONTINUOUS
 10
2907.260138
 20
2344.142798
 11
2972.260138
 21
2344.142798
  0
LINE
  8
0
 62
     1
  6
CONTINUOUS
 10
2907.260138
 20
2269.252345
 11
2907.260138
 21
2354.142798
  0
LINE
  8
0
 62
     1
  6
CONTINUOUS
 10
2972.260138
 20
2271.752345
 11
2972.260138
 21
2404.142798
  0
TEXT
  8
0
 62
     1
 10
2921.760138
 20
2349.476132
 40
32.000000
 50
0.000000E+00
 41
0.56 
  1
65
 72
     5
 11
2957.760138
 21
2349.476132
  0
LINE
  8
0
 62
     1
  6
CONTINUOUS
 10
2857.260138
 20
2344.142798
 11
2907.260138
 21
2344.142798
  0
SOLID
  8
0
 62
     1
 10
2883.111993
 20
2337.672322
 11
2883.111993
 21
2350.613275
 12
2907.260138
 22
2344.142798
 13
2907.260138
 23
2344.142798
  0
LINE
  8
0
 62
     1
  6
CONTINUOUS
 10
2972.260138
 20
2344.142798
 11
3022.260138
 21
2344.142798
  0
SOLID
  8
0
 62
     1
 10
2996.408284
 20
2350.613275
 11
2996.408284
 21
2337.672322
 12
2972.260138
 22
2344.142798
 13
2972.260138
 23
2344.142798
  0
ENDBLK
  0
BLOCK
  8
0
  2
G12
 70
     0
 10
0
 20
0
  0
LINE
  8
0
 62
     1
  6
CONTINUOUS
 10
3045.514825
 20
2136.752345
 11
3045.514825
 21
2261.752345
  0
SOLID
  8
0
 62
     1
 10
3039.044349
 20
2160.900491
 11
3051.985301
 21
2160.900491
 12
3045.514825
 22
2136.752345
 13
3045.514825
 23
2136.752345
  0
SOLID
  8
0
 62
     1
 10
3051.985301
 20
2237.604199
 11
3039.044349
 21
2237.604199
 12
3045.514825
 22
2261.752345
 13
3045.514825
 23
2261.752345
  0
LINE
  8
0
 62
     1
  6
CONTINUOUS
 10
2982.260138
 20
2136.752345
 11
3055.514825
 21
2136.752345
  0
LINE
  8
0
 62
     1
  6
CONTINUOUS
 10
2982.260138
 20
2261.752345
 11
3055.514825
 21
2261.752345
  0
TEXT
  8
0
 62
     1
 10
3040.181492
 20
2141.252345
 40
32.000000
 50
90.000000
 41
0.60 
  1
%%c125
 72
     5
 11
3040.181492
 21
2257.252345
  0
ENDBLK
  0
BLOCK
  8
0
  2
G13
 70
     0
 10
0
 20
0
  0
TEXT
  8
0
 62
     1
 10
2573.672118
 20
2141.252345
 40
32.000000
 50
90.000000
 41
0.60 
  1
%%c125
 72
     5
 11
2573.672118
 21
2257.252345
  0
LINE
  8
0
 62
     1
  6
CONTINUOUS
 10
2642.260138
 20
2261.752345
 11
2569.005451
 21
2261.752345
  0
LINE
  8
0
 62
     1
  6
CONTINUOUS
 10
2642.260138
 20
2136.752345
 11
2569.005451
 21
2136.752345
  0
LINE
  8
0
 62
     1
  6
CONTINUOUS
 10
2579.005451
 20
2136.752345
 11
2579.005451
 21
2261.752345
  0
SOLID
  8
0
 62
     1
 10
2572.534975
 20
2160.900491
 11
2585.475928
 21
2160.900491
 12
2579.005451
 22
2136.752345
 13
2579.005451
 23
2136.752345
  0
SOLID
  8
0
 62
     1
 10
2585.475928
 20
2237.604199
 11
2572.534975
 21
2237.604199
 12
2579.005451
 22
2261.752345
 13
2579.005451
 23
2261.752345
  0
ENDBLK
  0
BLOCK
  8
0
  2
G14
 70
     0
 10
0
 20
0
  0
LINE
  8
0
 62
     1
  6
CONTINUOUS
 10
2575.183225
 20
1658.027117
 11
2575.183225
 21
1708.027117
  0
SOLID
  8
0
 62
     1
 10
2567.418653
 20
1687.004891
 11
2582.947796
 21
1687.004891
 12
2575.183225
 22
1658.027117
 13
2575.183225
 23
1658.027117
  0
TEXT
  8
0
 62
     1
 10
2569.849892
 20
1610.027117
 40
32.000000
 50
90.000000
 41
0.56 
  1
60
 72
     5
 11
2569.849892
 21
1646.027117
  0
LINE
  8
0
 62
     1
  6
CONTINUOUS
 10
2636.326432
 20
1658.027117
 11
2565.183225
 21
1658.027117
  0
LINE
  8
0
 62
     1
  6
CONTINUOUS
 10
2647.260138
 20
1598.027117
 11
2565.183225
 21
1598.027117
  0
LINE
  8
0
 62
     1
  6
CONTINUOUS
 10
2575.183225
 20
1598.027117
 11
2575.183225
 21
1658.027117
  0
CIRCLE
  8
0
 62
     1
  6
CONTINUOUS
 10
2575.183225
 20
1598.027117
 40
2.500000
  0
CIRCLE
  8
0
 62
     1
  6
CONTINUOUS
 10
2575.183225
 20
1598.027117
 40
1.250000
  0
ENDBLK
  0
BLOCK
  8
0
  2
G15
 70
     0
 10
0
 20
0
  0
LINE
  8
0
 62
     1
  6
CONTINUOUS
 10
3049.337052
 20
1595.527117
 11
3049.337052
 21
1598.027117
  0
LINE
  8
0
 62
     1
  6
CONTINUOUS
 10
3059.337052
 20
1595.527117
 11
2977.260138
 21
1595.527117
  0
TEXT
  8
0
 62
     1
 10
3044.003719
 20
1509.799037
 40
32.000000
 50
90.000000
 41
0.58 
  1
2.5
 72
     5
 11
3044.003719
 21
1565.799037
  0
LINE
  8
0
 62
     1
  6
CONTINUOUS
 10
3049.337052
 20
1595.527117
 11
3049.337052
 21
1504.944416
  0
SOLID
  8
0
 62
     1
 10
3055.807528
 20
1571.378971
 11
3042.866576
 21
1571.378971
 12
3049.337052
 22
1595.527117
 13
3049.337052
 23
1595.527117
  0
ENDBLK
  0
BLOCK
  8
0
  2
G16
 70
     0
 10
0
 20
0
  0
LINE
  8
0
 62
     1
  6
CONTINUOUS
 10
3049.337052
 20
1598.027117
 11
3049.337052
 21
1658.027117
  0
CIRCLE
  8
0
 62
     1
  6
CONTINUOUS
 10
3049.337052
 20
1598.027117
 40
2.500000
  0
CIRCLE
  8
0
 62
     1
  6
CONTINUOUS
 10
3049.337052
 20
1598.027117
 40
1.250000
  0
LINE
  8
0
 62
     1
  6
CONTINUOUS
 10
2977.260138
 20
1598.027117
 11
3059.337052
 21
1598.027117
  0
LINE
  8
0
 62
     1
  6
CONTINUOUS
 10
2988.193844
 20
1658.027117
 11
3059.337052
 21
1658.027117
  0
TEXT
  8
0
 62
     1
 10
3044.003719
 20
1610.027117
 40
32.000000
 50
90.000000
 41
0.56 
  1
60
 72
     5
 11
3044.003719
 21
1646.027117
  0
LINE
  8
0
 62
     1
  6
CONTINUOUS
 10
3049.337052
 20
1658.027117
 11
3049.337052
 21
1708.027117
  0
SOLID
  8
0
 62
     1
 10
3041.572481
 20
1687.004891
 11
3057.101623
 21
1687.004891
 12
3049.337052
 22
1658.027117
 13
3049.337052
 23
1658.027117
  0
ENDBLK
  0
BLOCK
  8
0
  2
G17
 70
     0
 10
0
 20
0
  0
LINE
  8
0
 62
     7
  6
CONTINUOUS
 10
2652.260138
 20
2271.752345
 11
2652.260138
 21
2412.361891
  0
LINE
  8
0
 62
     7
  6
CONTINUOUS
 10
2812.260138
 20
2304.367860
 11
2812.260138
 21
2412.361891
  0
LINE
  8
0
 62
     7
  6
CONTINUOUS
 10
2652.260138
 20
2402.361891
 11
2812.260138
 21
2402.361891
  0
SOLID
  8
0
 62
     7
 10
2671.578655
 20
2407.538272
 11
2671.578655
 21
2397.185511
 12
2652.260138
 22
2402.361891
 13
2652.260138
 23
2402.361891
  0
SOLID
  8
0
 62
     7
 10
2792.941622
 20
2397.185511
 11
2792.941622
 21
2407.538272
 12
2812.260138
 22
2402.361891
 13
2812.260138
 23
2402.361891
  0
TEXT
  8
0
 62
     7
 10
2704.260138
 20
2407.695221
 40
32.000000
 50
0.000000E+00
 41
0.58 
  1
160
 72
     5
 11
2760.260138
 21
2407.695221
  0
LINE
  8
0
 62
     7
  6
CONTINUOUS
 10
2972.260138
 20
2271.752345
 11
2972.260138
 21
2412.361891
  0
LINE
  8
0
 62
     7
  6
CONTINUOUS
 10
2812.260138
 20
2402.361891
 11
2972.260138
 21
2402.361891
  0
SOLID
  8
0
 62
     7
 10
2831.578655
 20
2407.538272
 11
2831.578655
 21
2397.185511
 12
2812.260138
 22
2402.361891
 13
2812.260138
 23
2402.361891
  0
SOLID
  8
0
 62
     7
 10
2952.941622
 20
2397.185511
 11
2952.941622
 21
2407.538272
 12
2972.260138
 22
2402.361891
 13
2972.260138
 23
2402.361891
  0
TEXT
  8
0
 62
     7
 10
2864.260138
 20
2407.695221
 40
32.000000
 50
0.000000E+00
 41
0.58 
  1
160
 72
     5
 11
2920.260138
 21
2407.695221
  0
ENDBLK
  0
BLOCK
  8
0
  2
G18
 70
     0
 10
0
 20
0
  0
LINE
  8
0
 62
     7
  6
CONTINUOUS
 10
2884.260138
 20
2104.252345
 11
3119.337052
 21
2104.252345
  0
LINE
  8
0
 62
     7
  6
CONTINUOUS
 10
3048.780028
 20
2199.252345
 11
3119.337052
 21
2199.252345
  0
LINE
  8
0
 62
     7
  6
CONTINUOUS
 10
3109.337052
 20
2104.252345
 11
3109.337052
 21
2199.252345
  0
SOLID
  8
0
 62
     7
 10
3104.160671
 20
2123.570861
 11
3114.513433
 21
2123.570861
 12
3109.337052
 22
2104.252345
 13
3109.337052
 23
2104.252345
  0
SOLID
  8
0
 62
     7
 10
3114.513433
 20
2179.933828
 11
3104.160671
 21
2179.933828
 12
3109.337052
 22
2199.252345
 13
3109.337052
 23
2199.252345
  0
TEXT
  8
0
 62
     7
 10
3104.003722
 20
2133.752345
 40
32.000000
 50
90.000000
 41
0.56 
  1
95
 72
     5
 11
3104.003722
 21
2169.752345
  0
ENDBLK
  0
BLOCK
  8
0
  2
G19
 70
     0
 10
0
 20
0
  0
LINE
  8
0
 62
     7
  6
CONTINUOUS
 10
2737.260138
 20
1933.027117
 11
2737.260138
 21
1976.551724
  0
LINE
  8
0
 62
     7
  6
CONTINUOUS
 10
2887.260138
 20
1933.027117
 11
2887.260138
 21
1976.551724
  0
LINE
  8
0
 62
     7
  6
CONTINUOUS
 10
2737.260138
 20
1966.551724
 11
2887.260138
 21
1966.551724
  0
SOLID
  8
0
 62
     7
 10
2756.578655
 20
1971.728105
 11
2756.578655
 21
1961.375343
 12
2737.260138
 22
1966.551724
 13
2737.260138
 23
1966.551724
  0
SOLID
  8
0
 62
     7
 10
2867.941622
 20
1961.375343
 11
2867.941622
 21
1971.728105
 12
2887.260138
 22
1966.551724
 13
2887.260138
 23
1966.551724
  0
TEXT
  8
0
 62
     7
 10
2754.260138
 20
1971.885054
 40
32.000000
 50
0.000000E+00
 41
0.60 
  1
%%c150
 72
     5
 11
2870.260138
 21
1971.885054
  0
ENDBLK
  0
BLOCK
  8
0
  2
G20
 70
     0
 10
0
 20
0
  0
LINE
  8
0
 62
     7
  6
CONTINUOUS
 10
2726.260138
 20
1753.786486
 11
2726.260138
 21
2038.748668
  0
LINE
  8
0
 62
     7
  6
CONTINUOUS
 10
2898.260138
 20
1743.786486
 11
2898.260138
 21
2038.748668
  0
LINE
  8
0
 62
     7
  6
CONTINUOUS
 10
2726.260138
 20
2028.748668
 11
2898.260138
 21
2028.748668
  0
SOLID
  8
0
 62
     7
 10
2745.578655
 20
2033.925048
 11
2745.578655
 21
2023.572287
 12
2726.260138
 22
2028.748668
 13
2726.260138
 23
2028.748668
  0
SOLID
  8
0
 62
     7
 10
2878.941622
 20
2023.572287
 11
2878.941622
 21
2033.925048
 12
2898.260138
 22
2028.748668
 13
2898.260138
 23
2028.748668
  0
TEXT
  8
0
 62
     7
 10
2754.260138
 20
2034.081997
 40
32.000000
 50
0.000000E+00
 41
0.60 
  1
%%c172
 72
     5
 11
2870.260138
 21
2034.081997
  0
ENDBLK
  0
BLOCK
  8
0
  2
G21
 70
     0
 10
0
 20
0
  0
LINE
  8
0
 62
     1
  6
CONTINUOUS
 10
3761.021409
 20
2129.448928
 11
3761.021409
 21
2179.448928
  0
SOLID
  8
0
 62
     1
 10
3754.550933
 20
2153.597073
 11
3767.491885
 21
2153.597073
 12
3761.021409
 22
2129.448928
 13
3761.021409
 23
2129.448928
  0
LINE
  8
0
 62
     1
  6
CONTINUOUS
 10
3761.021409
 20
2014.766846
 11
3761.021409
 21
2064.766846
  0
SOLID
  8
0
 62
     1
 10
3767.491885
 20
2040.618701
 11
3754.550933
 21
2040.618701
 12
3761.021409
 22
2064.766846
 13
3761.021409
 23
2064.766846
  0
TEXT
  8
0
 62
     1
 10
3755.688076
 20
2080.974694
 40
32.000000
 50
90.000000
 41
0.56 
  1
65
 72
     5
 11
3755.688076
 21
2116.974694
  0
LINE
  8
0
 62
     1
  6
CONTINUOUS
 10
3675.896662
 20
2129.448928
 11
3771.021409
 21
2129.448928
  0
LINE
  8
0
 62
     1
  6
CONTINUOUS
 10
3761.021409
 20
2064.766846
 11
3761.021409
 21
2129.448928
  0
ENDBLK
  0
BLOCK
  8
0
  2
G22
 70
     0
 10
0
 20
0
  0
TEXT
  8
0
 62
     1
 10
3575.396662
 20
2238.157514
 40
32.000000
 50
0.000000E+00
 41
0.58 
  1
210
 72
     5
 11
3631.396662
 21
2238.157514
  0
LINE
  8
0
 62
     1
  6
CONTINUOUS
 10
3708.396662
 20
1979.448928
 11
3708.396662
 21
2242.824181
  0
LINE
  8
0
 62
     1
  6
CONTINUOUS
 10
3498.396662
 20
1979.448928
 11
3498.396662
 21
2242.824181
  0
LINE
  8
0
 62
     1
  6
CONTINUOUS
 10
3498.396662
 20
2232.824181
 11
3708.396662
 21
2232.824181
  0
SOLID
  8
0
 62
     1
 10
3522.544808
 20
2239.294657
 11
3522.544808
 21
2226.353705
 12
3498.396662
 22
2232.824181
 13
3498.396662
 23
2232.824181
  0
SOLID
  8
0
 62
     1
 10
3684.248517
 20
2226.353705
 11
3684.248517
 21
2239.294657
 12
3708.396662
 22
2232.824181
 13
3708.396662
 23
2232.824181
  0
ENDBLK
  0
BLOCK
  8
0
  2
G23
 70
     0
 10
0
 20
0
  0
TEXT
  8
0
 62
     1
 10
3445.738637
 20
1941.448928
 40
32.000000
 50
90.000000
 41
0.58 
  1
210
 72
     5
 11
3445.738637
 21
1997.448928
  0
LINE
  8
0
 62
     1
  6
CONTINUOUS
 10
3593.396662
 20
1864.448928
 11
3441.071970
 21
1864.448928
  0
LINE
  8
0
 62
     1
  6
CONTINUOUS
 10
3593.396662
 20
2074.448928
 11
3441.071970
 21
2074.448928
  0
LINE
  8
0
 62
     1
  6
CONTINUOUS
 10
3451.071970
 20
2074.448928
 11
3451.071970
 21
1864.448928
  0
SOLID
  8
0
 62
     1
 10
3457.542446
 20
2050.300782
 11
3444.601494
 21
2050.300782
 12
3451.071970
 22
2074.448928
 13
3451.071970
 23
2074.448928
  0
SOLID
  8
0
 62
     1
 10
3444.601494
 20
1888.597073
 11
3457.542446
 21
1888.597073
 12
3451.071970
 22
1864.448928
 13
3451.071970
 23
1864.448928
  0
ENDBLK
  0
BLOCK
  8
0
  2
G24
 70
     0
 10
0
 20
0
  0
TEXT
  8
0
 62
     1
 10
3424.995793
 20
2108.251818
 40
32.000000
 50
45.000000
 41
0.58 
  1
248
 72
     5
 11
3464.593772
 21
2147.849797
  0
LINE
  8
0
 62
     1
  6
CONTINUOUS
 10
3536.247259
 20
2211.960812
 11
3360.884778
 21
2036.598331
  0
SOLID
  8
0
 62
     1
 10
3523.747259
 20
2190.310177
 11
3514.596624
 21
2199.460812
 12
3536.247259
 22
2211.960812
 13
3536.247259
 23
2211.960812
  0
SOLID
  8
0
 62
     1
 10
3373.384778
 20
2058.248966
 11
3382.535413
 21
2049.098331
 12
3360.884778
 22
2036.598331
 13
3360.884778
 23
2036.598331
  0
ENDBLK
  0
BLOCK
  8
0
  2
G25
 70
     0
 10
0
 20
0
  0
LINE
  8
0
 62
     1
  6
CONTINUOUS
 10
3818.021409
 20
2129.448928
 11
3818.021409
 21
2179.448928
  0
SOLID
  8
0
 62
     1
 10
3811.550933
 20
2153.597073
 11
3824.491885
 21
2153.597073
 12
3818.021409
 22
2129.448928
 13
3818.021409
 23
2129.448928
  0
TEXT
  8
0
 62
     1
 10
3812.688076
 20
2021.448928
 40
32.000000
 50
90.000000
 41
0.58 
  1
160
 72
     5
 11
3812.688076
 21
2077.448928
  0
LINE
  8
0
 62
     1
  6
CONTINUOUS
 10
3733.088465
 20
1969.448928
 11
3828.021409
 21
1969.448928
  0
LINE
  8
0
 62
     1
  6
CONTINUOUS
 10
3771.021409
 20
2129.448928
 11
3828.021409
 21
2129.448928
  0
LINE
  8
0
 62
     1
  6
CONTINUOUS
 10
3818.021409
 20
2129.448928
 11
3818.021409
 21
1969.448928
  0
ENDBLK
  0
BLOCK
  8
0
  2
G26
 70
     0
 10
0
 20
0
  0
LINE
  8
0
 62
     3
  6
CONTINUOUS
 10
3729.558724
 20
2308.884824
 11
3899.558724
 21
2308.884824
  0
LINE
  8
0
 62
     3
  6
CONTINUOUS
 10
3729.558724
 20
2316.884824
 11
3899.558724
 21
2316.884824
  0
TEXT
  8
0
 62
     7
 10
3729.857792
 20
2326.382412
 40
32.000000
 50
0.000000E+00
 41
0.66 
  1
％％ｃ　　　枝管
 72
     5
 11
3921.857792
 21
2326.382412
  0
ENDBLK
  0
BLOCK
  8
0
  2
G27
 70
     0
 10
0
 20
0
  0
LINE
  8
0
 62
     1
  6
CONTINUOUS
 10
3761.021409
 20
1874.131009
 11
3761.021409
 21
1809.448928
  0
LINE
  8
0
 62
     1
  6
CONTINUOUS
 10
3675.896662
 20
1809.448928
 11
3771.021409
 21
1809.448928
  0
TEXT
  8
0
 62
     1
 10
3755.688076
 20
1821.923161
 40
32.000000
 50
90.000000
 41
0.56 
  1
65
 72
     5
 11
3755.688076
 21
1857.923161
  0
LINE
  8
0
 62
     1
  6
CONTINUOUS
 10
3761.021409
 20
1924.131009
 11
3761.021409
 21
1874.131009
  0
SOLID
  8
0
 62
     1
 10
3754.550933
 20
1898.279154
 11
3767.491885
 21
1898.279154
 12
3761.021409
 22
1874.131009
 13
3761.021409
 23
1874.131009
  0
LINE
  8
0
 62
     1
  6
CONTINUOUS
 10
3761.021409
 20
1809.448928
 11
3761.021409
 21
1759.448928
  0
SOLID
  8
0
 62
     1
 10
3767.491885
 20
1785.300782
 11
3754.550933
 21
1785.300782
 12
3761.021409
 22
1809.448928
 13
3761.021409
 23
1809.448928
  0
ENDBLK
  0
BLOCK
  8
0
  2
G28
 70
     0
 10
0
 20
0
  0
LINE
  8
0
 62
     1
  6
CONTINUOUS
 10
3818.021409
 20
1809.448928
 11
3818.021409
 21
1969.448928
  0
CIRCLE
  8
0
 62
     1
  6
CONTINUOUS
 10
3818.021409
 20
1969.448928
 40
5.000000
  0
CIRCLE
  8
0
 62
     1
  6
CONTINUOUS
 10
3818.021409
 20
1969.448928
 40
2.500000
  0
LINE
  8
0
 62
     1
  6
CONTINUOUS
 10
3771.021409
 20
1809.448928
 11
3828.021409
 21
1809.448928
  0
LINE
  8
0
 62
     1
  6
CONTINUOUS
 10
3733.088465
 20
1969.448928
 11
3828.021409
 21
1969.448928
  0
TEXT
  8
0
 62
     1
 10
3812.688076
 20
1861.448928
 40
32.000000
 50
90.000000
 41
0.58 
  1
160
 72
     5
 11
3812.688076
 21
1917.448928
  0
LINE
  8
0
 62
     1
  6
CONTINUOUS
 10
3818.021409
 20
1809.448928
 11
3818.021409
 21
1759.448928
  0
SOLID
  8
0
 62
     1
 10
3824.491885
 20
1785.300782
 11
3811.550933
 21
1785.300782
 12
3818.021409
 22
1809.448928
 13
3818.021409
 23
1809.448928
  0
ENDBLK
  0
BLOCK
  8
0
  2
G29
 70
     0
 10
0
 20
0
  0
TEXT
  8
0
 62
     7
 10
3346.229900
 20
1734.576499
 40
32.000000
 50
0.000000E+00
 41
0.66 
  1
％％ｃ　　　枝管
 72
     5
 11
3538.229900
 21
1734.576499
  0
LINE
  8
0
 62
     3
  6
CONTINUOUS
 10
3345.930832
 20
1725.078911
 11
3515.930832
 21
1725.078911
  0
LINE
  8
0
 62
     3
  6
CONTINUOUS
 10
3345.930832
 20
1717.078911
 11
3515.930832
 21
1717.078911
  0
ENDBLK
  0
BLOCK
  8
0
  2
G30
 70
     0
 10
0
 20
0
  0
LINE
  8
0
 62
     7
  6
CONTINUOUS
 10
3548.396662
 20
1799.448928
 11
3548.396662
 21
1747.468306
  0
LINE
  8
0
 62
     7
  6
CONTINUOUS
 10
3658.396662
 20
1799.448928
 11
3658.396662
 21
1747.468306
  0
LINE
  8
0
 62
     7
  6
CONTINUOUS
 10
3548.396662
 20
1757.468306
 11
3658.396662
 21
1757.468306
  0
SOLID
  8
0
 62
     7
 10
3567.715179
 20
1762.644687
 11
3567.715179
 21
1752.291925
 12
3548.396662
 22
1757.468306
 13
3548.396662
 23
1757.468306
  0
SOLID
  8
0
 62
     7
 10
3639.078146
 20
1752.291925
 11
3639.078146
 21
1762.644687
 12
3658.396662
 22
1757.468306
 13
3658.396662
 23
1757.468306
  0
TEXT
  8
0
 62
     7
 10
3587.396662
 20
1762.801636
 40
32.000000
 50
0.000000E+00
 41
0.86 
  1
Ａ
 72
     5
 11
3619.396662
 21
1762.801636
  0
ENDBLK
  0
BLOCK
  8
0
  2
G31
 70
     0
 10
0
 20
0
  0
LINE
  8
0
 62
     7
  6
CONTINUOUS
 10
3548.396662
 20
2139.448928
 11
3548.396662
 21
2177.741506
  0
LINE
  8
0
 62
     7
  6
CONTINUOUS
 10
3658.396662
 20
2139.448928
 11
3658.396662
 21
2177.741506
  0
LINE
  8
0
 62
     7
  6
CONTINUOUS
 10
3548.396662
 20
2167.741506
 11
3658.396662
 21
2167.741506
  0
SOLID
  8
0
 62
     7
 10
3567.715179
 20
2172.917887
 11
3567.715179
 21
2162.565125
 12
3548.396662
 22
2167.741506
 13
3548.396662
 23
2167.741506
  0
SOLID
  8
0
 62
     7
 10
3639.078146
 20
2162.565125
 11
3639.078146
 21
2172.917887
 12
3658.396662
 22
2167.741506
 13
3658.396662
 23
2167.741506
  0
TEXT
  8
0
 62
     7
 10
3587.396662
 20
2173.074836
 40
32.000000
 50
0.000000E+00
 41
0.86 
  1
Ａ
 72
     5
 11
3619.396662
 21
2173.074836
  0
ENDBLK
  0
BLOCK
  8
0
  2
G32
 70
     0
 10
0
 20
0
  0
LINE
  8
0
 62
     2
  6
CONTINUOUS
 10
3658.396662
 20
1814.448928
 11
3658.396662
 21
1809.448928
  0
LINE
  8
0
 62
     2
  6
CONTINUOUS
 10
3548.396662
 20
1814.448928
 11
3548.396662
 21
1809.448928
  0
LINE
  8
0
 62
     2
  6
CONTINUOUS
 10
3655.362061
 20
1814.448928
 11
3654.966372
 21
1871.428095
  0
LINE
  8
0
 62
     2
  6
CONTINUOUS
 10
3551.431264
 20
1814.448928
 11
3551.826953
 21
1871.428095
  0
LINE
  8
0
 62
     2
  6
CONTINUOUS
 10
3548.396662
 20
1814.448928
 11
3658.396662
 21
1814.448928
  0
LINE
  8
0
 62
     2
  6
CONTINUOUS
 10
3658.396662
 20
1809.448928
 11
3548.396662
 21
1809.448928
  0
ENDBLK
  0
BLOCK
  8
0
  2
G33
 70
     0
 10
0
 20
0
  0
LINE
  8
0
 62
     2
  6
CONTINUOUS
 10
3658.396662
 20
2124.448928
 11
3658.396662
 21
2129.448928
  0
LINE
  8
0
 62
     2
  6
CONTINUOUS
 10
3548.396662
 20
2124.448928
 11
3548.396662
 21
2129.448928
  0
LINE
  8
0
 62
     2
  6
CONTINUOUS
 10
3655.362061
 20
2124.448928
 11
3654.966372
 21
2067.469760
  0
LINE
  8
0
 62
     2
  6
CONTINUOUS
 10
3551.431264
 20
2124.448928
 11
3551.826953
 21
2067.469760
  0
LINE
  8
0
 62
     2
  6
CONTINUOUS
 10
3548.396662
 20
2124.448928
 11
3658.396662
 21
2124.448928
  0
LINE
  8
0
 62
     2
  6
CONTINUOUS
 10
3658.396662
 20
2129.448928
 11
3548.396662
 21
2129.448928
  0
ENDBLK
  0
BLOCK
  8
0
  2
G34
 70
     0
 10
0
 20
0
  0
TEXT
  8
0
 62
     1
 10
3044.003719
 20
985.027117
 40
32.000000
 50
90.000000
 41
0.58 
  1
150
 72
     5
 11
3044.003719
 21
1041.027117
  0
LINE
  8
0
 62
     1
  6
CONTINUOUS
 10
2875.260138
 20
938.027117
 11
3059.337052
 21
938.027117
  0
LINE
  8
0
 62
     1
  6
CONTINUOUS
 10
3049.337052
 20
1088.027117
 11
3049.337052
 21
938.027117
  0
SOLID
  8
0
 62
     1
 10
3055.807528
 20
1063.878971
 11
3042.866576
 21
1063.878971
 12
3049.337052
 22
1088.027117
 13
3049.337052
 23
1088.027117
  0
SOLID
  8
0
 62
     1
 10
3042.866576
 20
962.175262
 11
3055.807528
 21
962.175262
 12
3049.337052
 22
938.027117
 13
3049.337052
 23
938.027117
  0
ENDBLK
  0
BLOCK
  8
0
  2
G35
 70
     0
 10
0
 20
0
  0
TEXT
  8
0
 62
     1
 10
3044.003719
 20
1120.027117
 40
32.000000
 50
90.000000
 41
0.58 
  1
120
 72
     5
 11
3044.003719
 21
1176.027117
  0
LINE
  8
0
 62
     1
  6
CONTINUOUS
 10
2872.511049
 20
1088.027117
 11
3059.337052
 21
1088.027117
  0
LINE
  8
0
 62
     1
  6
CONTINUOUS
 10
2903.009227
 20
1208.027117
 11
3059.337052
 21
1208.027117
  0
LINE
  8
0
 62
     1
  6
CONTINUOUS
 10
3049.337052
 20
1208.027117
 11
3049.337052
 21
1088.027117
  0
SOLID
  8
0
 62
     1
 10
3055.807528
 20
1183.878971
 11
3042.866576
 21
1183.878971
 12
3049.337052
 22
1208.027117
 13
3049.337052
 23
1208.027117
  0
SOLID
  8
0
 62
     1
 10
3042.866576
 20
1112.175262
 11
3055.807528
 21
1112.175262
 12
3049.337052
 22
1088.027117
 13
3049.337052
 23
1088.027117
  0
ENDBLK
  0
BLOCK
  8
0
  2
G36
 70
     0
 10
0
 20
0
  0
LINE
  8
0
 62
     3
  6
CONTINUOUS
 10
3011.539240
 20
1456.691181
 11
2931.976677
 21
1456.691181
  0
LINE
  8
0
 62
     3
  6
CONTINUOUS
 10
3011.539240
 20
1456.691181
 11
3011.539240
 21
1409.320932
  0
TEXT
  8
0
 62
     3
 10
2999.745957
 20
1376.962715
 40
32.000000
 50
0.000000E+00
 41
0.86 
  1
Ｃ
 72
     5
 11
3031.745957
 21
1376.962715
  0
LINE
  8
0
 62
     3
  6
CONTINUOUS
 10
3011.539240
 20
1409.320932
 11
3026.956709
 21
1436.024772
  0
LINE
  8
0
 62
     3
  6
CONTINUOUS
 10
3026.956709
 20
1436.024772
 11
3004.454254
 21
1449.016570
  0
ENDBLK
  0
BLOCK
  8
0
  2
G37
 70
     0
 10
0
 20
0
  0
LINE
  8
0
 62
     7
  6
CONTINUOUS
 10
2757.260138
 20
928.027117
 11
2757.260138
 21
853.392951
  0
LINE
  8
0
 62
     7
  6
CONTINUOUS
 10
2867.260138
 20
928.027117
 11
2867.260138
 21
853.392951
  0
LINE
  8
0
 62
     7
  6
CONTINUOUS
 10
2757.260138
 20
863.392951
 11
2867.260138
 21
863.392951
  0
SOLID
  8
0
 62
     7
 10
2776.578655
 20
868.569332
 11
2776.578655
 21
858.216570
 12
2757.260138
 22
863.392951
 13
2757.260138
 23
863.392951
  0
SOLID
  8
0
 62
     7
 10
2847.941622
 20
858.216570
 11
2847.941622
 21
868.569332
 12
2867.260138
 22
863.392951
 13
2867.260138
 23
863.392951
  0
TEXT
  8
0
 62
     7
 10
2754.260138
 20
868.726280
 40
32.000000
 50
0.000000E+00
 41
0.60 
  1
%%c110
 72
     5
 11
2870.260138
 21
868.726280
  0
ENDBLK
  0
BLOCK
  8
0
  2
G38
 70
     0
 10
0
 20
0
  0
LINE
  8
0
 62
     7
  6
CONTINUOUS
 10
2726.260138
 20
1191.899028
 11
2726.260138
 21
788.748668
  0
LINE
  8
0
 62
     7
  6
CONTINUOUS
 10
2898.260138
 20
1201.899028
 11
2898.260138
 21
788.748668
  0
LINE
  8
0
 62
     7
  6
CONTINUOUS
 10
2726.260138
 20
798.748668
 11
2898.260138
 21
798.748668
  0
SOLID
  8
0
 62
     7
 10
2745.578655
 20
803.925048
 11
2745.578655
 21
793.572287
 12
2726.260138
 22
798.748668
 13
2726.260138
 23
798.748668
  0
SOLID
  8
0
 62
     7
 10
2878.941622
 20
793.572287
 11
2878.941622
 21
803.925048
 12
2898.260138
 22
798.748668
 13
2898.260138
 23
798.748668
  0
TEXT
  8
0
 62
     7
 10
2754.260138
 20
804.081997
 40
32.000000
 50
0.000000E+00
 41
0.60 
  1
%%c172
 72
     5
 11
2870.260138
 21
804.081997
  0
ENDBLK
  0
BLOCK
  8
0
  2
G39
 70
     0
 10
0
 20
0
  0
LINE
  8
0
 62
     7
  6
CONTINUOUS
 10
2888.258360
 20
1350.527117
 11
2982.819335
 21
1350.527117
  0
LINE
  8
0
 62
     7
  6
CONTINUOUS
 10
2840.176261
 20
1298.526996
 11
2982.819335
 21
1298.526996
  0
LINE
  8
0
 62
     7
  6
CONTINUOUS
 10
2972.819335
 20
1350.527117
 11
2972.819335
 21
1298.526996
  0
LINE
  8
0
 62
     7
  6
CONTINUOUS
 10
2972.819335
 20
1350.527117
 11
2972.819335
 21
1400.527117
  0
SOLID
  8
0
 62
     7
 10
2967.642954
 20
1369.845633
 11
2977.995716
 21
1369.845633
 12
2972.819335
 22
1350.527117
 13
2972.819335
 23
1350.527117
  0
LINE
  8
0
 62
     7
  6
CONTINUOUS
 10
2972.819335
 20
1298.526996
 11
2972.819335
 21
1248.526996
  0
SOLID
  8
0
 62
     7
 10
2977.995716
 20
1279.208479
 11
2967.642954
 21
1279.208479
 12
2972.819335
 22
1298.526996
 13
2972.819335
 23
1298.526996
  0
TEXT
  8
0
 62
     7
 10
2967.486005
 20
1308.527056
 40
32.000000
 50
90.000000
 41
0.86 
  1
Ｂ
 72
     5
 11
2967.486005
 21
1340.527056
  0
ENDBLK
  0
BLOCK
  8
0
  2
G40
 70
     0
 10
0
 20
0
  0
CIRCLE
  8
0
 62
     1
  6
CONTINUOUS
 10
2812.260138
 20
1358.027117
 40
62.000000
  0
LINE
  8
0
 62
     2
  6
CONTINUOUS
 10
2830.176261
 20
1298.526996
 11
2794.344015
 21
1298.526996
  0
CIRCLE
  8
0
 62
     2
  6
CONTINUOUS
 10
2812.260138
 20
1350.527117
 40
47.000000
  0
ARC
  8
0
 62
     2
  6
CONTINUOUS
 10
2812.260138
 20
1350.527117
 40
55.000000
 50
289.010880
 51
610.989120
  0
LINE
  8
0
 62
     2
  6
CENTER
 10
2740.546960
 20
1350.527117
 11
2878.258360
 21
1350.527117
  0
CIRCLE
  8
0
 62
     2
  6
CONTINUOUS
 10
2812.260138
 20
1350.527117
 40
35.000000
  0
ENDBLK
  0
ENDSEC
  0
SECTION
  2
ENTITIES
  0
LINE
  8
0
 62
     3
  6
CONTINUOUS
 10
2898.260138
 20
1723.027117
 11
2898.260138
 21
1733.786486
  0
LINE
  8
3
 62
     3
  6
CONTINUOUS
 10
2887.260138
 20
1918.027117
 11
2812.260138
 21
1918.027117
  0
LINE
  8
3
 62
     3
  6
CONTINUOUS
 10
2737.260138
 20
1923.027117
 11
2887.260138
 21
1923.027117
  0
LINE
  8
3
 62
     3
  6
CONTINUOUS
 10
2737.260138
 20
1923.027117
 11
2737.260138
 21
1918.027117
  0
LINE
  8
0
 62
     3
  6
CONTINUOUS
 10
2898.260138
 20
1593.027117
 11
2898.260138
 21
1471.528715
  0
ARC
  8
3
 62
     3
  6
CONTINUOUS
 10
2874.260138
 20
1846.027117
 40
10.000000
 50
302.527138
 51
360.000000
  0
LINE
  8
3
 62
     3
  6
CONTINUOUS
 10
2740.260138
 20
1913.444541
 11
2740.260138
 21
1846.027117
  0
LINE
  8
3
 62
     3
  6
CONTINUOUS
 10
2884.260138
 20
1913.444541
 11
2884.260138
 21
1846.027117
  0
ARC
  8
3
 62
     3
  6
CONTINUOUS
 10
2750.260138
 20
1846.027117
 40
10.000000
 50
180.000000
 51
238.038250
  0
LINE
  8
3
 62
     3
  6
CENTER
 10
2978.193844
 20
1658.027117
 11
2640.491014
 21
1658.027117
  0
ARC
  8
3
 62
     3
  6
CONTINUOUS
 10
2735.260138
 20
1913.444541
 40
5.000000
 50
360.000000
 51
426.421822
  0
LINE
  8
3
 62
     3
  6
CONTINUOUS
 10
2887.260138
 20
1923.027117
 11
2887.260138
 21
1918.027117
  0
ARC
  8
0
 62
     3
  6
CONTINUOUS
 10
2863.260138
 20
1733.786486
 40
35.000000
 50
0.000000E+00
 51
17.716492
  0
ARC
  8
3
 62
     3
  6
CONTINUOUS
 10
2889.260138
 20
1913.444541
 40
5.000000
 50
113.578178
 51
180.000000
  0
LINE
  8
3
 62
     3
  6
CONTINUOUS
 10
2889.999161
 20
1740.903002
 11
2812.260138
 21
1740.903002
  0
LINE
  8
0
 62
     3
  6
CONTINUOUS
 10
2726.260138
 20
1733.786486
 11
2726.260138
 21
1723.027117
  0
ARC
  8
0
 62
     3
  6
CONTINUOUS
 10
2761.260138
 20
1733.786486
 40
35.000000
 50
162.283508
 51
180.000000
  0
LINE
  8
3
 62
     3
  6
CONTINUOUS
 10
2873.230122
 20
1837.543100
 11
2812.260138
 21
1837.543100
  0
LINE
  8
0
 62
     3
  6
CONTINUOUS
 10
2751.506822
 20
1819.836132
 11
2727.920051
 21
1744.437240
  0
LINE
  8
0
 62
     3
  6
CONTINUOUS
 10
2873.013455
 20
1819.836132
 11
2896.600226
 21
1744.437240
  0
ARC
  8
2
 62
     3
  6
CONTINUOUS
 10
2737.218213
 20
1824.400741
 40
15.000000
 50
342.283508
 51
419.888987
  0
LINE
  8
0
 62
     3
  6
CONTINUOUS
 10
2726.260138
 20
1593.027117
 11
2726.260138
 21
1471.528715
  0
ARC
  8
2
 62
     3
  6
CONTINUOUS
 10
2887.302064
 20
1824.400741
 40
15.000000
 50
120.111013
 51
197.716492
  0
LINE
  8
3
 62
     3
  6
CONTINUOUS
 10
2873.986782
 20
1652.211496
 11
2874.622672
 21
1643.261509
  0
LINE
  8
3
 62
     3
  6
CONTINUOUS
 10
2874.622672
 20
1643.261509
 11
2875.801149
 21
1634.650083
  0
LINE
  8
3
 62
     3
  6
CONTINUOUS
 10
2875.801149
 20
1634.650083
 11
2877.495193
 21
1626.574668
  0
LINE
  8
3
 62
     3
  6
CONTINUOUS
 10
2877.495193
 20
1626.574668
 11
2879.665961
 21
1619.220426
  0
LINE
  8
3
 62
     3
  6
CONTINUOUS
 10
2879.665961
 20
1619.220426
 11
2882.263679
 21
1612.755983
  0
LINE
  8
3
 62
     3
  6
CONTINUOUS
 10
2882.263679
 20
1612.755983
 11
2885.228784
 21
1607.329561
  0
LINE
  8
3
 62
     3
  6
CONTINUOUS
 10
2885.228784
 20
1607.329561
 11
2888.493289
 21
1603.065583
  0
LINE
  8
3
 62
     3
  6
CONTINUOUS
 10
2888.493289
 20
1603.065583
 11
2891.982343
 21
1600.061817
  0
LINE
  8
3
 62
     3
  6
CONTINUOUS
 10
2891.982343
 20
1600.061817
 11
2895.615944
 21
1598.387137
  0
LINE
  8
3
 62
     3
  6
CONTINUOUS
 10
2891.982343
 20
1600.061817
 11
2895.615944
 21
1598.387137
  0
LINE
  8
3
 62
     3
  6
CONTINUOUS
 10
2896.073835
 20
1717.780203
 11
2892.378407
 21
1716.243850
  0
LINE
  8
3
 62
     3
  6
CONTINUOUS
 10
2892.378407
 20
1716.243850
 11
2888.822209
 21
1713.335574
  0
LINE
  8
3
 62
     3
  6
CONTINUOUS
 10
2888.822209
 20
1713.335574
 11
2885.489044
 21
1709.123910
  0
LINE
  8
3
 62
     3
  6
CONTINUOUS
 10
2885.489044
 20
1709.123910
 11
2882.457461
 21
1703.708111
  0
LINE
  8
3
 62
     3
  6
CONTINUOUS
 10
2882.457461
 20
1703.708111
 11
2879.798902
 21
1697.215803
  0
LINE
  8
3
 62
     3
  6
CONTINUOUS
 10
2879.798902
 20
1697.215803
 11
2877.576017
 21
1689.799983
  0
LINE
  8
3
 62
     3
  6
CONTINUOUS
 10
2877.576017
 20
1689.799983
 11
2875.841192
 21
1681.635411
  0
LINE
  8
3
 62
     3
  6
CONTINUOUS
 10
2875.841192
 20
1681.635411
 11
2874.635307
 21
1672.914490
  0
LINE
  8
3
 62
     3
  6
CONTINUOUS
 10
2874.635307
 20
1672.914490
 11
2873.986782
 21
1663.842737
  0
LINE
  8
3
 62
     3
  6
CONTINUOUS
 10
2874.635307
 20
1672.914490
 11
2873.986782
 21
1663.842737
  0
LINE
  8
0
 62
     7
  6
CONTINUOUS
 10
2959.739696
 20
1764.111644
 11
2959.739696
 21
1722.327305
  0
SOLID
  8
0
 62
     7
 10
2951.975125
 20
1751.305080
 11
2967.504267
 21
1751.305080
 12
2959.739696
 22
1722.327305
 13
2959.739696
 23
1722.327305
  0
TEXT
  8
0
 62
     7
 10
2921.396628
 20
1771.390527
 40
32.000000
 50
0.000000E+00
 41
0.78 
  1
７５枝管
 72
     5
 11
3033.396628
 21
1771.390527
  0
LINE
  8
3
 62
     3
  6
CONTINUOUS
 10
2967.260138
 20
1595.527117
 11
2967.260138
 21
1718.027117
  0
LINE
  8
3
 62
     3
  6
CONTINUOUS
 10
2967.260138
 20
1595.527117
 11
2972.260138
 21
1595.527117
  0
LINE
  8
3
 62
     3
  6
CONTINUOUS
 10
2967.260138
 20
1718.027117
 11
2907.260138
 21
1718.027117
  0
ARC
  8
1
 62
     3
  6
CONTINUOUS
 10
2905.260138
 20
1598.027117
 40
2.000000
 50
270.000000
 51
360.000000
  0
LINE
  8
3
 62
     3
  6
CONTINUOUS
 10
2967.260138
 20
1598.027117
 11
2907.260138
 21
1598.027117
  0
LINE
  8
3
 62
     3
  6
CONTINUOUS
 10
2967.260138
 20
1720.527117
 11
2972.260138
 21
1720.527117
  0
LINE
  8
3
 62
     3
  6
CONTINUOUS
 10
2967.260138
 20
1720.527117
 11
2967.260138
 21
1718.027117
  0
LINE
  8
3
 62
     3
  6
CONTINUOUS
 10
2972.260138
 20
1720.527117
 11
2972.260138
 21
1595.527117
  0
LINE
  8
1
 62
     3
  6
CONTINUOUS
 10
2905.260138
 20
1720.027117
 11
2901.260138
 21
1720.027117
  0
LINE
  8
1
 62
     3
  6
CONTINUOUS
 10
2905.260138
 20
1596.027117
 11
2901.260138
 21
1596.027117
  0
ARC
  8
1
 62
     3
  6
CONTINUOUS
 10
2905.260138
 20
1718.027117
 40
2.000000
 50
0.000000E+00
 51
90.000000
  0
ARC
  8
1
 62
     3
  6
CONTINUOUS
 10
2901.260138
 20
1723.027117
 40
3.000000
 50
180.000000
 51
270.000000
  0
ARC
  8
1
 62
     3
  6
CONTINUOUS
 10
2901.260138
 20
1593.027117
 40
3.000000
 50
90.000000
 51
180.000000
  0
ARC
  8
0
 62
     3
  6
CONTINUOUS
 10
2863.260138
 20
1733.786486
 40
35.000000
 50
0.000000E+00
 51
17.716492
  0
LINE
  8
0
 62
     3
  6
CONTINUOUS
 10
2898.260138
 20
1733.786486
 11
2898.260138
 21
1723.027117
  0
LINE
  8
3
 62
     3
  6
CENTER
 10
2812.260138
 20
1930.501565
 11
2812.260138
 21
1477.709326
  0
LINE
  8
3
 62
     3
  6
CONTINUOUS
 10
2734.521116
 20
1740.903002
 11
2812.260138
 21
1740.903002
  0
LINE
  8
3
 62
     3
  6
CONTINUOUS
 10
2751.290154
 20
1837.543100
 11
2812.260138
 21
1837.543100
  0
LINE
  8
3
 62
     3
  6
CONTINUOUS
 10
2737.260138
 20
1918.027117
 11
2812.260138
 21
1918.027117
  0
POINT
  8
0
 62
     3
 10
2812.260138
 20
1848.027117
  0
TEXT
  8
0
 62
     6
 10
2719.816479
 20
2543.910129
 40
35.000000
 50
0.000000E+00
 41
0.86 
  1
Ｂ
 72
     5
 11
2754.816479
 21
2543.910129
  0
TEXT
  8
0
 62
     6
 10
2840.490420
 20
2544.910129
 40
35.000000
 50
0.000000E+00
 41
0.86 
  1
Ｂ
 72
     5
 11
2875.490420
 21
2544.910129
  0
TEXT
  8
0
 62
     6
 10
2811.990420
 20
2609.959535
 40
32.000000
 50
0.000000E+00
 41
0.97 
  1
下部
 72
     5
 11
2883.990420
 21
2609.959535
  0
TEXT
  8
0
 62
     6
 10
2691.990420
 20
2609.959535
 40
32.000000
 50
0.000000E+00
 41
0.97 
  1
上部
 72
     5
 11
2763.990420
 21
2609.959535
  0
TEXT
  8
0
 62
     6
 10
3698.206339
 20
2411.134541
 40
32.000000
 50
0.000000E+00
 41
0.50 
  1
3
 72
     5
 11
3714.206339
 21
2411.134541
  0
TEXT
  8
0
 62
     6
 10
3698.206339
 20
2471.134541
 40
32.000000
 50
0.000000E+00
 41
0.50 
  1
2
 72
     5
 11
3714.206339
 21
2471.134541
  0
TEXT
  8
0
 62
     6
 10
3698.206339
 20
2531.134541
 40
32.000000
 50
0.000000E+00
 41
0.50 
  1
1
 72
     5
 11
3714.206339
 21
2531.134541
  0
TEXT
  8
0
 62
     6
 10
3729.294308
 20
2414.530401
 40
32.000000
 50
0.000000E+00
 41
0.74 
  1
：％％ｃ７５枝管
 72
     5
 11
3941.294308
 21
2414.530401
  0
TEXT
  8
0
 62
     6
 10
3729.294308
 20
2474.530401
 40
32.000000
 50
0.000000E+00
 41
0.74 
  1
：％％ｃ６５枝管
 72
     5
 11
3941.294308
 21
2474.530401
  0
TEXT
  8
0
 62
     6
 10
3729.294308
 20
2534.530401
 40
32.000000
 50
0.000000E+00
 41
0.74 
  1
：％％ｃ５０枝管
 72
     5
 11
3941.294308
 21
2534.530401
  0
TEXT
  8
0
 62
     6
 10
3631.418499
 20
2587.505821
 40
32.000000
 50
0.000000E+00
 41
0.97 
  1
枝管のタイプ（呼び径）
 72
     5
 11
4027.418499
 21
2587.505821
  0
CIRCLE
  8
0
 62
     3
  6
CONTINUOUS
 10
2812.260138
 20
1658.027117
 40
62.000000
  0
INSERT
  8
0
  2
G0
 10
0
 20
0
  0
INSERT
  8
0
  2
G1
 10
0
 20
0
  0
LINE
  8
0
 62
     1
  6
CONTINUOUS
 10
3049.337052
 20
1658.027117
 11
3066.213046
 21
1658.027117
  0
LINE
  8
0
 62
     1
  6
CONTINUOUS
 10
3179.337052
 20
1658.027117
 11
3049.337052
 21
1658.027117
  0
INSERT
  8
0
  2
G2
 10
0
 20
0
  0
INSERT
  8
0
  2
G3
 10
0
 20
0
  0
LINE
  8
0
 62
     3
  6
CONTINUOUS
 10
3211.418919
 20
1968.197829
 11
3211.418919
 21
1915.404878
  0
SOLID
  8
0
 62
     3
 10
3203.654348
 20
1944.382653
 11
3219.183490
 21
1944.382653
 12
3211.418919
 22
1915.404878
 13
3211.418919
 23
1915.404878
  0
TEXT
  8
0
 62
     6
 10
3178.948131
 20
2521.370812
 40
35.000000
 50
0.000000E+00
 41
0.60 
  1
300,340,360
 72
     5
 11
3411.448131
 21
2521.370812
  0
TEXT
  8
0
 62
     6
 10
3177.087629
 20
2563.485825
 40
35.000000
 50
0.000000E+00
 41
0.60 
  1
240,260,280
 72
     5
 11
3409.587629
 21
2563.485825
  0
INSERT
  8
0
  2
G4
 10
0
 20
0
  0
INSERT
  8
0
  2
G5
 10
0
 20
0
  0
INSERT
  8
0
  2
G6
 10
0
 20
0
  0
INSERT
  8
0
  2
G7
 10
0
 20
0
  0
LINE
  8
0
 62
     1
  6
CONTINUOUS
 10
2987.736307
 20
2199.252345
 11
3008.058408
 21
2199.252345
  0
INSERT
  8
0
  2
G8
 10
0
 20
0
  0
LINE
  8
0
 62
     3
  6
CONTINUOUS
 10
2961.893453
 20
2366.432542
 11
3055.571245
 21
2366.432542
  0
SOLID
  8
0
 62
     3
 10
2990.871228
 20
2374.197113
 11
2990.871228
 21
2358.667970
 12
2961.893453
 22
2366.432542
 13
2961.893453
 23
2366.432542
  0
LINE
  8
0
 62
     3
  6
CONTINUOUS
 10
3055.571245
 20
2366.432542
 11
3055.571245
 21
2403.499294
  0
ARC
  8
1
 62
     3
  6
CONTINUOUS
 10
2722.760138
 20
1593.027117
 40
3.000000
 50
0.000000E+00
 51
90.000000
  0
ARC
  8
1
 62
     3
  6
CONTINUOUS
 10
2722.760138
 20
1723.027117
 40
3.000000
 50
270.000000
 51
360.000000
  0
ARC
  8
1
 62
     3
  6
CONTINUOUS
 10
2719.260138
 20
1718.027117
 40
2.000000
 50
90.000000
 51
180.000000
  0
LINE
  8
1
 62
     3
  6
CONTINUOUS
 10
2719.260138
 20
1596.027117
 11
2722.760138
 21
1596.027117
  0
LINE
  8
1
 62
     3
  6
CONTINUOUS
 10
2719.260138
 20
1720.027117
 11
2722.760138
 21
1720.027117
  0
ARC
  8
1
 62
     3
  6
CONTINUOUS
 10
2719.260138
 20
1598.027117
 40
2.000000
 50
180.000000
 51
270.000000
  0
LINE
  8
3
 62
     3
  6
CONTINUOUS
 10
2728.904332
 20
1598.387137
 11
2732.179724
 21
1599.833664
  0
LINE
  8
3
 62
     3
  6
CONTINUOUS
 10
2732.179724
 20
1599.833664
 11
2735.344644
 21
1602.361380
  0
LINE
  8
3
 62
     3
  6
CONTINUOUS
 10
2735.344644
 20
1602.361380
 11
2738.340291
 21
1605.923324
  0
LINE
  8
3
 62
     3
  6
CONTINUOUS
 10
2738.340291
 20
1605.923324
 11
2741.111008
 21
1610.453317
  0
LINE
  8
3
 62
     3
  6
CONTINUOUS
 10
2741.111008
 20
1610.453317
 11
2743.605317
 21
1615.867195
  0
LINE
  8
3
 62
     3
  6
CONTINUOUS
 10
2743.605317
 20
1615.867195
 11
2745.776877
 21
1622.064373
  0
LINE
  8
3
 62
     3
  6
CONTINUOUS
 10
2745.776877
 20
1622.064373
 11
2747.585340
 21
1628.929711
  0
LINE
  8
3
 62
     3
  6
CONTINUOUS
 10
2747.585340
 20
1628.929711
 11
2748.997108
 21
1636.335657
  0
LINE
  8
3
 62
     3
  6
CONTINUOUS
 10
2748.997108
 20
1636.335657
 11
2749.985950
 21
1644.144613
  0
LINE
  8
3
 62
     3
  6
CONTINUOUS
 10
2749.985950
 20
1644.144613
 11
2750.533494
 21
1652.211496
  0
LINE
  8
3
 62
     3
  6
CONTINUOUS
 10
2749.985950
 20
1644.144613
 11
2750.533494
 21
1652.211496
  0
LINE
  8
3
 62
     3
  6
CONTINUOUS
 10
2750.533494
 20
1663.842737
 11
2749.975260
 21
1672.019623
  0
LINE
  8
3
 62
     3
  6
CONTINUOUS
 10
2749.975260
 20
1672.019623
 11
2748.963671
 21
1679.929317
  0
LINE
  8
3
 62
     3
  6
CONTINUOUS
 10
2748.963671
 20
1679.929317
 11
2747.518045
 21
1687.420778
  0
LINE
  8
3
 62
     3
  6
CONTINUOUS
 10
2747.518045
 20
1687.420778
 11
2745.665988
 21
1694.350956
  0
LINE
  8
3
 62
     3
  6
CONTINUOUS
 10
2745.665988
 20
1694.350956
 11
2743.442863
 21
1700.587514
  0
LINE
  8
3
 62
     3
  6
CONTINUOUS
 10
2743.442863
 20
1700.587514
 11
2740.891124
 21
1706.011363
  0
LINE
  8
3
 62
     3
  6
CONTINUOUS
 10
2740.891124
 20
1706.011363
 11
2738.059497
 21
1710.518932
  0
LINE
  8
3
 62
     3
  6
CONTINUOUS
 10
2738.059497
 20
1710.518932
 11
2735.002053
 21
1714.024148
  0
LINE
  8
3
 62
     3
  6
CONTINUOUS
 10
2735.002053
 20
1714.024148
 11
2731.777174
 21
1716.460076
  0
LINE
  8
3
 62
     3
  6
CONTINUOUS
 10
2731.777174
 20
1716.460076
 11
2728.446442
 21
1717.780203
  0
LINE
  8
3
 62
     3
  6
CONTINUOUS
 10
2731.777174
 20
1716.460076
 11
2728.446442
 21
1717.780203
  0
INSERT
  8
0
  2
G9
 10
0
 20
0
  0
LINE
  8
0
 62
     3
  6
CONTINUOUS
 10
2658.956996
 20
2368.285879
 11
2596.171374
 21
2368.285879
  0
SOLID
  8
0
 62
     3
 10
2629.979221
 20
2360.521308
 11
2629.979221
 21
2376.050451
 12
2658.956996
 22
2368.285879
 13
2658.956996
 23
2368.285879
  0
LINE
  8
3
 62
     3
  6
CONTINUOUS
 10
2657.260138
 20
2259.252345
 11
2717.260138
 21
2259.252345
  0
LINE
  8
3
 62
     3
  6
CONTINUOUS
 10
2657.260138
 20
2139.252345
 11
2717.260138
 21
2139.252345
  0
INSERT
  8
0
  2
G10
 10
0
 20
0
  0
LINE
  8
3
 62
     3
  6
CONTINUOUS
 10
2657.260138
 20
2261.752345
 11
2657.260138
 21
2139.252345
  0
LINE
  8
3
 62
     3
  6
CONTINUOUS
 10
2657.260138
 20
2261.752345
 11
2652.260138
 21
2261.752345
  0
LINE
  8
3
 62
     3
  6
CONTINUOUS
 10
2657.260138
 20
2136.752345
 11
2652.260138
 21
2136.752345
  0
LINE
  8
3
 62
     3
  6
CONTINUOUS
 10
2657.260138
 20
2136.752345
 11
2657.260138
 21
2139.252345
  0
LINE
  8
3
 62
     3
  6
CENTER
 10
2812.260138
 20
2100.811185
 11
2812.260138
 21
2294.367860
  0
LINE
  8
3
 62
     3
  6
CENTER
 10
2977.736307
 20
2199.252345
 11
2646.152118
 21
2199.252345
  0
CIRCLE
  8
0
 62
     3
  6
CONTINUOUS
 10
2812.260138
 20
2199.252345
 40
75.000000
  0
CIRCLE
  8
0
 62
     3
  6
CONTINUOUS
 10
2812.260138
 20
2199.252345
 40
86.500000
  0
LINE
  8
3
 62
     3
  6
CONTINUOUS
 10
2967.260138
 20
2139.252345
 11
2907.260138
 21
2139.252345
  0
LINE
  8
3
 62
     3
  6
CONTINUOUS
 10
2967.260138
 20
2261.752345
 11
2967.260138
 21
2139.252345
  0
LINE
  8
3
 62
     3
  6
CONTINUOUS
 10
2967.260138
 20
2261.752345
 11
2972.260138
 21
2261.752345
  0
LINE
  8
3
 62
     3
  6
CONTINUOUS
 10
2967.260138
 20
2136.752345
 11
2972.260138
 21
2136.752345
  0
LINE
  8
3
 62
     3
  6
CONTINUOUS
 10
2967.260138
 20
2136.752345
 11
2967.260138
 21
2139.252345
  0
LINE
  8
3
 62
     3
  6
CONTINUOUS
 10
2972.260138
 20
2136.752345
 11
2972.260138
 21
2261.752345
  0
LINE
  8
3
 62
     3
  6
CONTINUOUS
 10
2967.260138
 20
2259.252345
 11
2907.260138
 21
2259.252345
  0
LINE
  8
0
 62
     3
  6
CONTINUOUS
 10
2907.260138
 20
2139.252345
 11
2907.260138
 21
2259.252345
  0
LINE
  8
0
 62
     3
  6
CONTINUOUS
 10
2905.260138
 20
2137.252345
 11
2877.260138
 21
2137.252345
  0
ARC
  8
0
 62
     3
  6
CONTINUOUS
 10
2905.260138
 20
2139.252345
 40
2.000000
 50
270.000000
 51
360.000000
  0
LINE
  8
0
 62
     3
  6
CONTINUOUS
 10
2905.260138
 20
2261.252345
 11
2872.578046
 21
2261.252345
  0
ARC
  8
0
 62
     3
  6
CONTINUOUS
 10
2905.260138
 20
2259.252345
 40
2.000000
 50
0.000000E+00
 51
90.000000
  0
CIRCLE
  8
0
 62
     3
  6
CONTINUOUS
 10
2812.260138
 20
2199.252345
 40
52.000000
  0
CIRCLE
  8
0
 62
     3
  6
CONTINUOUS
 10
2812.260138
 20
2199.252345
 40
67.000000
  0
ARC
  8
0
 62
     3
  6
CONTINUOUS
 10
2747.260138
 20
2134.252345
 40
3.000000
 50
0.000000E+00
 51
90.000000
  0
ARC
  8
0
 62
     3
  6
CONTINUOUS
 10
2877.260138
 20
2134.252345
 40
3.000000
 50
90.000000
 51
180.000000
  0
LINE
  8
0
 62
     3
  6
CONTINUOUS
 10
2717.260138
 20
2259.252345
 11
2717.260138
 21
2139.252345
  0
LINE
  8
0
 62
     3
  6
CONTINUOUS
 10
2719.260138
 20
2261.252345
 11
2751.942231
 21
2261.252345
  0
ARC
  8
0
 62
     3
  6
CONTINUOUS
 10
2719.260138
 20
2259.252345
 40
2.000000
 50
90.000000
 51
180.000000
  0
LINE
  8
0
 62
     3
  6
CONTINUOUS
 10
2719.260138
 20
2137.252345
 11
2747.260138
 21
2137.252345
  0
ARC
  8
0
 62
     3
  6
CONTINUOUS
 10
2719.260138
 20
2139.252345
 40
2.000000
 50
180.000000
 51
270.000000
  0
LINE
  8
0
 62
     3
  6
CONTINUOUS
 10
2872.260138
 20
2104.252345
 11
2752.260138
 21
2104.252345
  0
LINE
  8
0
 62
     3
  6
CONTINUOUS
 10
2874.260138
 20
2106.252345
 11
2874.260138
 21
2134.252345
  0
ARC
  8
0
 62
     3
  6
CONTINUOUS
 10
2872.260138
 20
2106.252345
 40
2.000000
 50
270.000000
 51
360.000000
  0
LINE
  8
0
 62
     3
  6
CONTINUOUS
 10
2750.260138
 20
2106.252345
 11
2750.260138
 21
2134.252345
  0
ARC
  8
0
 62
     3
  6
CONTINUOUS
 10
2752.260138
 20
2106.252345
 40
2.000000
 50
180.000000
 51
270.000000
  0
INSERT
  8
0
  2
G11
 10
0
 20
0
  0
INSERT
  8
0
  2
G12
 10
0
 20
0
  0
INSERT
  8
0
  2
G13
 10
0
 20
0
  0
LINE
  8
3
 62
     3
  6
CONTINUOUS
 10
2652.260138
 20
2136.752345
 11
2652.260138
 21
2261.752345
  0
LINE
  8
0
 62
     7
  6
CONTINUOUS
 10
2664.780580
 20
1764.111644
 11
2664.780580
 21
1722.327305
  0
SOLID
  8
0
 62
     7
 10
2657.016009
 20
1751.305080
 11
2672.545152
 21
1751.305080
 12
2664.780580
 22
1722.327305
 13
2664.780580
 23
1722.327305
  0
TEXT
  8
0
 62
     7
 10
2586.406062
 20
1771.390527
 40
32.000000
 50
360.000000
 41
0.78 
  1
７５枝管
 72
     5
 11
2698.406062
 21
1771.390527
  0
LINE
  8
3
 62
     3
  6
CONTINUOUS
 10
2657.260138
 20
1595.527117
 11
2657.260138
 21
1718.027117
  0
LINE
  8
3
 62
     3
  6
CONTINUOUS
 10
2657.260138
 20
1595.527117
 11
2652.260138
 21
1595.527117
  0
LINE
  8
3
 62
     3
  6
CONTINUOUS
 10
2657.260138
 20
1720.527117
 11
2652.260138
 21
1720.527117
  0
LINE
  8
3
 62
     3
  6
CONTINUOUS
 10
2657.260138
 20
1720.527117
 11
2657.260138
 21
1718.027117
  0
LINE
  8
3
 62
     3
  6
CONTINUOUS
 10
2652.260138
 20
1720.527117
 11
2652.260138
 21
1595.527117
  0
LINE
  8
3
 62
     3
  6
CONTINUOUS
 10
2657.260138
 20
1598.027117
 11
2717.260138
 21
1598.027117
  0
LINE
  8
3
 62
     3
  6
CONTINUOUS
 10
2657.260138
 20
1718.027117
 11
2717.260138
 21
1718.027117
  0
INSERT
  8
0
  2
G14
 10
0
 20
0
  0
INSERT
  8
0
  2
G15
 10
0
 20
0
  0
INSERT
  8
0
  2
G16
 10
0
 20
0
  0
TEXT
  8
0
 62
     3
 10
3311.553615
 20
579.564184
 40
32.000000
 50
0.000000E+00
 41
0.94 
  1
対応可能Ｐ寸法　２４０～３６０
 72
     5
 11
3837.267923
 21
579.564184
  0
LINE
  8
0
 62
     2
  6
CONTINUOUS
 10
3244.712419
 20
640.281646
 11
4024.114339
 21
640.281646
  0
TEXT
  8
0
 62
     2
 10
3733.220431
 20
667.585896
 40
30.000000
 50
0.000000E+00
 41
0.61 
  1
925
 72
     5
 11
3788.220431
 21
667.585896
  0
TEXT
  8
0
 62
     2
 10
3630.421191
 20
667.585896
 40
30.000000
 50
0.000000E+00
 41
0.61 
  1
905
 72
     5
 11
3685.421191
 21
667.585896
  0
TEXT
  8
0
 62
     2
 10
3530.968711
 20
669.313032
 40
30.000000
 50
0.000000E+00
 41
0.61 
  1
885
 72
     5
 11
3585.968711
 21
669.313032
  0
TEXT
  8
0
 62
     2
 10
3836.729671
 20
669.313032
 40
30.000000
 50
0.000000E+00
 41
0.61 
  1
965
 72
     5
 11
3891.729671
 21
669.313032
  0
TEXT
  8
0
 62
     2
 10
3429.049031
 20
760.753032
 40
30.000000
 50
0.000000E+00
 41
0.61 
  1
790
 72
     5
 11
3484.049031
 21
760.753032
  0
TEXT
  8
0
 62
     2
 10
3941.182151
 20
667.585896
 40
30.000000
 50
0.000000E+00
 41
0.61 
  1
985
 72
     5
 11
3996.182151
 21
667.585896
  0
TEXT
  8
0
 62
     2
 10
3429.049031
 20
669.313032
 40
30.000000
 50
0.000000E+00
 41
0.61 
  1
865
 72
     5
 11
3484.049031
 21
669.313032
  0
TEXT
  8
0
 62
     2
 10
3836.490686
 20
837.196846
 40
30.000000
 50
0.000000E+00
 41
0.61 
  1
340
 72
     5
 11
3891.490686
 21
837.196846
  0
TEXT
  8
0
 62
     2
 10
3734.570046
 20
837.196846
 40
30.000000
 50
0.000000E+00
 41
0.61 
  1
300
 72
     5
 11
3789.570046
 21
837.196846
  0
TEXT
  8
0
 62
     2
 10
3632.649406
 20
837.196846
 40
30.000000
 50
0.000000E+00
 41
0.61 
  1
280
 72
     5
 11
3687.649406
 21
837.196846
  0
TEXT
  8
0
 62
     2
 10
3428.810046
 20
837.196846
 40
30.000000
 50
0.000000E+00
 41
0.61 
  1
240
 72
     5
 11
3483.810046
 21
837.196846
  0
LINE
  8
0
 62
     2
  6
CONTINUOUS
 10
3810.274019
 20
884.601646
 11
3810.274019
 21
640.281646
  0
TEXT
  8
0
 62
     2
 10
3255.240523
 20
673.627725
 40
30.000000
 50
0.000000E+00
 41
0.72 
  1
Ｌｔ（全長）
 72
     5
 11
3405.240523
 21
673.627725
  0
LINE
  8
0
 62
     2
  6
CONTINUOUS
 10
3244.712419
 20
731.721646
 11
4024.114339
 21
731.721646
  0
TEXT
  8
0
 62
     2
 10
3941.182151
 20
759.025896
 40
30.000000
 50
0.000000E+00
 41
0.61 
  1
910
 72
     5
 11
3996.182151
 21
759.025896
  0
LINE
  8
0
 62
     2
  6
CONTINUOUS
 10
3244.712419
 20
884.601646
 11
4024.114339
 21
884.601646
  0
TEXT
  8
0
 62
     2
 10
3836.729671
 20
760.753032
 40
30.000000
 50
0.000000E+00
 41
0.61 
  1
890
 72
     5
 11
3891.729671
 21
760.753032
  0
LINE
  8
0
 62
     2
  6
CONTINUOUS
 10
3402.593379
 20
884.601646
 11
3402.593379
 21
640.281646
  0
LINE
  8
0
 62
     2
  6
CONTINUOUS
 10
3504.513059
 20
884.601646
 11
3504.513059
 21
640.281646
  0
LINE
  8
0
 62
     2
  6
CONTINUOUS
 10
3606.432739
 20
884.601646
 11
3606.432739
 21
640.281646
  0
LINE
  8
0
 62
     2
  6
CONTINUOUS
 10
3708.353379
 20
884.601646
 11
3708.353379
 21
640.281646
  0
LINE
  8
0
 62
     2
  6
CONTINUOUS
 10
4024.114339
 20
884.601646
 11
4024.114339
 21
640.281646
  0
LINE
  8
0
 62
     2
  6
CONTINUOUS
 10
3912.193699
 20
884.601646
 11
3912.193699
 21
640.281646
  0
TEXT
  8
0
 62
     2
 10
3943.410366
 20
837.196846
 40
30.000000
 50
0.000000E+00
 41
0.61 
  1
360
 72
     5
 11
3998.410366
 21
837.196846
  0
LINE
  8
0
 62
     2
  6
CONTINUOUS
 10
3244.712419
 20
823.161646
 11
4024.114339
 21
823.161646
  0
TEXT
  8
0
 62
     2
 10
3255.240523
 20
765.067725
 40
30.000000
 50
0.000000E+00
 41
0.72 
  1
Ｌ（有効長）
 72
     5
 11
3405.240523
 21
765.067725
  0
LINE
  8
0
 62
     2
  6
CONTINUOUS
 10
3244.712419
 20
884.601646
 11
3244.712419
 21
640.281646
  0
LINE
  8
0
 62
     2
  6
CONTINUOUS
 10
4022.541101
 20
871.364597
 11
4022.541101
 21
871.364405
  0
TEXT
  8
0
 62
     2
 10
3530.968711
 20
760.753032
 40
30.000000
 50
0.000000E+00
 41
0.61 
  1
810
 72
     5
 11
3585.968711
 21
760.753032
  0
TEXT
  8
0
 62
     2
 10
3630.421191
 20
759.025896
 40
30.000000
 50
0.000000E+00
 41
0.61 
  1
830
 72
     5
 11
3685.421191
 21
759.025896
  0
TEXT
  8
0
 62
     2
 10
3530.729726
 20
837.196846
 40
30.000000
 50
0.000000E+00
 41
0.61 
  1
260
 72
     5
 11
3585.729726
 21
837.196846
  0
TEXT
  8
0
 62
     2
 10
3314.281517
 20
837.217257
 40
30.000000
 50
0.000000E+00
 41
0.86 
  1
Ｐ
 72
     5
 11
3344.281517
 21
837.217257
  0
TEXT
  8
0
 62
     2
 10
3733.220431
 20
759.025896
 40
30.000000
 50
0.000000E+00
 41
0.61 
  1
850
 72
     5
 11
3788.220431
 21
759.025896
  0
TEXT
  8
0
 62
     2
 10
3948.410366
 20
938.636846
 40
30.000000
 50
0.000000E+00
 41
0.58 
  1
44
 72
     5
 11
3983.410366
 21
938.636846
  0
TEXT
  8
0
 62
     2
 10
3836.489726
 20
938.636846
 40
30.000000
 50
0.000000E+00
 41
0.58 
  1
52
 72
     5
 11
3871.489726
 21
938.636846
  0
TEXT
  8
0
 62
     2
 10
3737.498474
 20
1121.253863
 40
25.600000
 50
0.000000E+00
 41
0.55 
  1
100
 72
     5
 11
3779.555619
 21
1121.253863
  0
TEXT
  8
0
 62
     2
 10
3720.968180
 20
1159.938571
 40
18.400000
 50
0.000000E+00
 41
0.89 
  1
立管受口
 72
     5
 11
3796.968179
 21
1159.938571
  0
TEXT
  8
0
 62
     2
 10
3948.410366
 20
1061.516846
 40
30.000000
 50
0.000000E+00
 41
0.58 
  1
65
 72
     5
 11
3983.410366
 21
1061.516846
  0
TEXT
  8
0
 62
     2
 10
3836.489726
 20
1061.516846
 40
30.000000
 50
0.000000E+00
 41
0.58 
  1
65
 72
     5
 11
3871.489726
 21
1061.516846
  0
TEXT
  8
0
 62
     2
 10
3744.570046
 20
1061.516846
 40
30.000000
 50
0.000000E+00
 41
0.58 
  1
75
 72
     5
 11
3779.570046
 21
1061.516846
  0
LINE
  8
0
 62
     2
  6
CONTINUOUS
 10
3800.273059
 20
986.041646
 11
3718.353379
 21
924.601646
  0
LINE
  8
0
 62
     2
  6
CONTINUOUS
 10
4024.114339
 20
1190.846702
 11
4024.114339
 21
924.601646
  0
TEXT
  8
0
 62
     2
 10
3607.250523
 20
942.947725
 40
30.000000
 50
0.000000E+00
 41
0.86 
  1
Ｂ寸法
 72
     5
 11
3697.250523
 21
942.947725
  0
LINE
  8
0
 62
     2
  6
CONTINUOUS
 10
3595.472419
 20
986.041646
 11
4024.114339
 21
986.041646
  0
LINE
  8
0
 62
     2
  6
CONTINUOUS
 10
3800.273059
 20
1149.881678
 11
4024.114339
 21
1149.881678
  0
LINE
  8
0
 62
     2
  6
CONTINUOUS
 10
3595.472419
 20
1108.921646
 11
4024.114339
 21
1108.921646
  0
TEXT
  8
0
 62
     2
 10
3811.487268
 20
1154.795013
 40
30.000000
 50
0.000000E+00
 41
0.72 
  1
下部横枝管サイズ
 72
     5
 11
4011.487268
 21
1154.795013
  0
LINE
  8
0
 62
     2
  6
CONTINUOUS
 10
3718.353379
 20
1189.607822
 11
3718.353379
 21
924.601646
  0
LINE
  8
0
 62
     2
  6
CONTINUOUS
 10
3800.273059
 20
1189.607822
 11
3800.273059
 21
924.601646
  0
LINE
  8
0
 62
     2
  6
CONTINUOUS
 10
3800.273059
 20
1047.481646
 11
3718.353379
 21
986.041646
  0
LINE
  8
0
 62
     2
  6
CONTINUOUS
 10
3912.193699
 20
1149.881486
 11
3912.193699
 21
924.601646
  0
LINE
  8
0
 62
     2
  6
CONTINUOUS
 10
3595.472419
 20
924.601646
 11
4024.114339
 21
924.601646
  0
TEXT
  8
0
 62
     2
 10
3816.535645
 20
1114.716379
 40
30.000000
 50
0.000000E+00
 41
0.63 
  1
65(2)
 72
     5
 11
3911.535645
 21
1114.716379
  0
TEXT
  8
0
 62
     2
 10
3928.456285
 20
1114.716379
 40
30.000000
 50
0.000000E+00
 41
0.63 
  1
50(1)
 72
     5
 11
4023.456285
 21
1114.716379
  0
LINE
  8
0
 62
     2
  6
CONTINUOUS
 10
3595.472419
 20
1149.881678
 11
3595.472419
 21
924.601646
  0
LINE
  8
0
 62
     2
  6
CONTINUOUS
 10
3595.472419
 20
1047.481646
 11
4024.114339
 21
1047.481646
  0
TEXT
  8
0
 62
     2
 10
3607.250523
 20
1004.387725
 40
30.000000
 50
0.000000E+00
 41
0.86 
  1
Ａ寸法
 72
     5
 11
3697.250523
 21
1004.387725
  0
LINE
  8
0
 62
     2
  6
CONTINUOUS
 10
3595.472419
 20
1149.881678
 11
3595.472419
 21
1190.846702
  0
LINE
  8
0
 62
     2
  6
CONTINUOUS
 10
3595.472419
 20
1190.846702
 11
4024.114339
 21
1190.846702
  0
LINE
  8
0
 62
     2
  6
CONTINUOUS
 10
3994.113379
 20
1149.881678
 11
3994.113379
 21
1149.881486
  0
TEXT
  8
0
 62
     2
 10
3824.261511
 20
1000.076846
 40
30.000000
 50
0.000000E+00
 41
0.61 
  1
110
 72
     5
 11
3879.261511
 21
1000.076846
  0
TEXT
  8
0
 62
     2
 10
3600.041517
 20
1061.537257
 40
30.000000
 50
0.000000E+00
 41
0.86 
  1
受口深さ
 72
     5
 11
3720.041517
 21
1061.537257
  0
LINE
  8
0
 62
     2
  6
CONTINUOUS
 10
3595.472419
 20
1190.846702
 11
3718.353379
 21
1108.921646
  0
TEXT
  8
0
 62
     2
 10
3948.410366
 20
1000.076846
 40
30.000000
 50
0.000000E+00
 41
0.58 
  1
94
 72
     5
 11
3983.410366
 21
1000.076846
  0
INSERT
  8
0
  2
G17
 10
0
 20
0
  0
INSERT
  8
0
  2
G18
 10
0
 20
0
  0
INSERT
  8
0
  2
G19
 10
0
 20
0
  0
INSERT
  8
0
  2
G20
 10
0
 20
0
  0
LINE
  8
0
 62
     1
  6
CONTINUOUS
 10
3768.491131
 20
2064.766846
 11
3675.896662
 21
2064.766846
  0
INSERT
  8
0
  2
G21
 10
0
 20
0
  0
INSERT
  8
0
  2
G22
 10
0
 20
0
  0
INSERT
  8
0
  2
G23
 10
0
 20
0
  0
INSERT
  8
0
  2
G24
 10
0
 20
0
  0
LINE
  8
0
 62
     1
  6
CONTINUOUS
 10
3409.901157
 20
1987.581952
 11
3353.813710
 21
2043.669398
  0
LINE
  8
0
 62
     1
  6
CONTINUOUS
 10
3698.396662
 20
1903.810112
 11
3698.396662
 21
1807.824181
  0
LINE
  8
0
 62
     1
  6
CONTINUOUS
 10
3508.644354
 20
1888.838754
 11
3457.077023
 21
1940.406085
  0
LINE
  8
0
 62
     1
  6
CONTINUOUS
 10
3580.447131
 20
2167.760941
 11
3686.391861
 21
2061.816211
  0
TEXT
  8
0
 62
     3
 10
3744.427065
 20
1633.705471
 40
32.000000
 50
0.000000E+00
 41
0.87 
  1
Ｃ矢視　（下部）
 72
     5
 11
4000.427065
 21
1633.705471
  0
LINE
  8
0
 62
     3
  6
CONTINUOUS
 10
3740.427065
 20
1628.372138
 11
3994.331199
 21
1628.372138
  0
TEXT
  8
0
 62
     3
 10
3563.052885
 20
1832.393138
 40
32.000000
 50
0.000000E+00
 41
0.86 
  1
ａ
 72
     5
 11
3595.052885
 21
1832.393138
  0
TEXT
  8
0
 62
     3
 10
3563.052885
 20
2084.504717
 40
32.000000
 50
0.000000E+00
 41
0.86 
  1
ｂ
 72
     5
 11
3595.052885
 21
2084.504717
  0
LINE
  8
0
 62
     1
  6
CONTINUOUS
 10
3529.176191
 20
2219.031880
 11
3580.447131
 21
2167.760941
  0
ARC
  8
0
 62
     4
  6
CONTINUOUS
 10
3603.396662
 20
1969.448928
 40
100.000000
 50
36.038338
 51
53.961662
  0
ARC
  8
3
 62
     3
  6
CONTINUOUS
 10
3603.396662
 20
1969.448928
 40
105.000000
 50
80.096801
 51
100.978618
  0
ARC
  8
0
 62
     4
  6
CONTINUOUS
 10
3603.396662
 20
1969.448928
 40
100.000000
 50
306.038338
 51
323.961662
  0
ARC
  8
0
 62
     4
  6
CONTINUOUS
 10
3603.396662
 20
1969.448928
 40
100.000000
 50
216.038338
 51
233.961662
  0
CIRCLE
  8
3
 62
     4
  6
CONTINUOUS
 10
3603.396662
 20
1969.448928
 40
88.000000
  0
ARC
  8
3
 62
     4
  6
CONTINUOUS
 10
3603.396662
 20
1969.448928
 40
100.000000
 50
53.109614
 51
126.890386
  0
LINE
  8
3
 62
     4
  6
CONTINUOUS
 10
3684.361270
 20
2060.699858
 11
3621.458515
 21
2072.902555
  0
ARC
  8
3
 62
     3
  6
CONTINUOUS
 10
3603.396662
 20
1969.448928
 40
105.000000
 50
259.021382
 51
279.903199
  0
ARC
  8
3
 62
     3
  6
CONTINUOUS
 10
3603.396662
 20
1969.448928
 40
105.000000
 50
170.096801
 51
189.903199
  0
LINE
  8
3
 62
     4
  6
CONTINUOUS
 10
3522.432055
 20
2060.699858
 11
3585.334810
 21
2072.902555
  0
LINE
  8
3
 62
     3
  6
CENTER
 10
3534.684906
 20
1900.737171
 11
3514.003729
 21
1880.055994
  0
LINE
  8
3
 62
     4
  6
CONTINUOUS
 10
3512.145731
 20
2050.413535
 11
3499.943035
 21
1987.510780
  0
ARC
  8
3
 62
     4
  6
CENTER
 10
3603.396662
 20
1969.448928
 40
111.000000
 50
216.265016
 51
232.275712
  0
LINE
  8
3
 62
     3
  6
CENTER
 10
3535.759132
 20
2037.086458
 11
3513.247175
 21
2059.598415
  0
ARC
  8
3
 62
     4
  6
CENTER
 10
3603.396662
 20
1969.448928
 40
111.000000
 50
126.069475
 51
144.182385
  0
ARC
  8
3
 62
     4
  6
CENTER
 10
3603.396662
 20
1969.448928
 40
111.000000
 50
34.449115
 51
54.970079
  0
LINE
  8
3
 62
     4
  6
CONTINUOUS
 10
3512.145731
 20
1888.484320
 11
3499.943035
 21
1951.387075
  0
LINE
  8
3
 62
     4
  6
CONTINUOUS
 10
3706.474986
 20
1989.445405
 11
3694.647593
 21
2050.413535
  0
LINE
  8
3
 62
     3
  6
CENTER
 10
3671.387890
 20
2037.440155
 11
3693.338591
 21
2059.390856
  0
LINE
  8
3
 62
     4
  6
CONTINUOUS
 10
3522.432055
 20
1878.197997
 11
3583.400184
 21
1866.370604
  0
ARC
  8
3
 62
     4
  6
CONTINUOUS
 10
3524.907810
 20
1890.960075
 40
13.000000
 50
190.978618
 51
259.021382
  0
ARC
  8
3
 62
     4
  6
CONTINUOUS
 10
3524.907810
 20
2047.937780
 40
13.000000
 50
100.978618
 51
169.021382
  0
ARC
  8
3
 62
     4
  6
CONTINUOUS
 10
3681.885515
 20
2047.937780
 40
13.000000
 50
10.978618
 51
79.021382
  0
LINE
  8
3
 62
     3
  6
CENTER
 10
3671.382527
 20
1901.463063
 11
3693.123221
 21
1879.722369
  0
LINE
  8
3
 62
     4
  6
CONTINUOUS
 10
3684.361270
 20
1878.197997
 11
3621.458515
 21
1865.995300
  0
LINE
  8
3
 62
     4
  6
CONTINUOUS
 10
3694.647593
 20
1888.484320
 11
3706.474986
 21
1949.452450
  0
ARC
  8
3
 62
     3
  6
CONTINUOUS
 10
3603.396662
 20
1969.448928
 40
105.000000
 50
349.021382
 51
370.978618
  0
CIRCLE
  8
3
 62
     3
  6
CONTINUOUS
 10
3603.396662
 20
1969.448928
 40
81.000000
  0
ARC
  8
3
 62
     4
  6
CONTINUOUS
 10
3681.885515
 20
1890.960075
 40
13.000000
 50
280.978618
 51
349.021382
  0
LINE
  8
3
 62
     3
  6
CENTER
 10
3603.396662
 20
2134.925096
 11
3603.396662
 21
1804.868364
  0
LINE
  8
3
 62
     3
  6
CENTER
 10
3712.393912
 20
1969.448928
 11
3486.977587
 21
1969.448928
  0
CIRCLE
  8
3
 62
     4
  6
CONTINUOUS
 10
3681.885515
 20
2047.937780
 40
7.000000
  0
CIRCLE
  8
3
 62
     4
  6
CONTINUOUS
 10
3681.885515
 20
1890.960075
 40
7.000000
  0
CIRCLE
  8
3
 62
     4
  6
CONTINUOUS
 10
3524.907810
 20
1890.960075
 40
7.000000
  0
CIRCLE
  8
3
 62
     4
  6
CONTINUOUS
 10
3524.907810
 20
2047.937780
 40
7.000000
  0
ARC
  8
3
 62
     4
  6
CENTER
 10
3603.396662
 20
1969.448928
 40
111.000000
 50
307.018997
 51
325.489571
  0
ARC
  8
3
 62
     4
  6
CONTINUOUS
 10
3603.396662
 20
1969.448928
 40
100.000000
 50
323.109614
 51
396.890386
  0
ARC
  8
3
 62
     4
  6
CONTINUOUS
 10
3603.396662
 20
1969.448928
 40
100.000000
 50
233.109614
 51
306.890386
  0
ARC
  8
3
 62
     4
  6
CONTINUOUS
 10
3603.396662
 20
1969.448928
 40
100.000000
 50
143.109614
 51
216.890386
  0
ARC
  8
0
 62
     4
  6
CONTINUOUS
 10
3603.396662
 20
1969.448928
 40
100.000000
 50
126.038338
 51
143.961662
  0
INSERT
  8
0
  2
G25
 10
0
 20
0
  0
INSERT
  8
0
  2
G26
 10
0
 20
0
  0
LINE
  8
0
 62
     3
  6
CONTINUOUS
 10
3453.135416
 20
1838.670843
 11
3453.135416
 21
1775.576370
  0
LINE
  8
0
 62
     3
  6
CONTINUOUS
 10
3543.396662
 20
1838.670843
 11
3453.135416
 21
1838.670843
  0
SOLID
  8
0
 62
     3
 10
3514.418888
 20
1830.906271
 11
3514.418888
 21
1846.435414
 12
3543.396662
 22
1838.670843
 13
3543.396662
 23
1838.670843
  0
TEXT
  8
0
 62
     3
 10
3732.121163
 20
2217.781439
 40
32.000000
 50
0.000000E+00
 41
1.02 
  1
受口深さ
 72
     5
 11
3884.121163
 21
2217.781439
  0
LINE
  8
0
 62
     3
  6
CONTINUOUS
 10
3739.134677
 20
2129.119277
 11
3739.134677
 21
2204.305605
  0
SOLID
  8
0
 62
     3
 10
3731.370106
 20
2158.097052
 11
3746.899248
 21
2158.097052
 12
3739.134677
 22
2129.119277
 13
3739.134677
 23
2129.119277
  0
LINE
  8
0
 62
     3
  6
CONTINUOUS
 10
3739.134677
 20
1809.778578
 11
3739.134677
 21
1742.998413
  0
SOLID
  8
0
 62
     3
 10
3746.899248
 20
1780.800803
 11
3731.370106
 21
1780.800803
 12
3739.134677
 22
1809.778578
 13
3739.134677
 23
1809.778578
  0
TEXT
  8
0
 62
     3
 10
3680.283117
 20
1708.319501
 40
32.000000
 50
0.000000E+00
 41
1.02 
  1
受口深さ
 72
     5
 11
3832.283117
 21
1708.319501
  0
INSERT
  8
0
  2
G27
 10
0
 20
0
  0
INSERT
  8
0
  2
G28
 10
0
 20
0
  0
LINE
  8
0
 62
     1
  6
CONTINUOUS
 10
3768.491131
 20
1874.131009
 11
3675.896662
 21
1874.131009
  0
INSERT
  8
0
  2
G29
 10
0
 20
0
  0
LINE
  8
0
 62
     3
  6
CONTINUOUS
 10
3672.953860
 20
2141.321871
 11
3726.263629
 21
2298.551948
  0
SOLID
  8
0
 62
     3
 10
3674.905257
 20
2171.258338
 11
3689.612053
 21
2166.271914
 12
3672.953860
 22
2141.321871
 13
3672.953860
 23
2141.321871
  0
INSERT
  8
0
  2
G30
 10
0
 20
0
  0
INSERT
  8
0
  2
G31
 10
0
 20
0
  0
INSERT
  8
0
  2
G32
 10
0
 20
0
  0
INSERT
  8
0
  2
G33
 10
0
 20
0
  0
ARC
  8
1
 62
     4
  6
CONTINUOUS
 10
2905.260138
 20
1418.027117
 40
2.000000
 50
0.000000E+00
 51
90.000000
  0
ARC
  8
1
 62
     4
  6
CONTINUOUS
 10
2905.260138
 20
1298.027117
 40
2.000000
 50
270.000000
 51
360.000000
  0
POINT
  8
3
 62
     7
 10
2898.260138
 20
1418.027117
  0
ARC
  8
3
 62
     4
  6
CONTINUOUS
 10
2872.388321
 20
1429.975616
 40
28.500781
 50
295.487111
 51
314.942399
  0
LINE
  8
3
 62
     4
  6
CONTINUOUS
 10
2905.260138
 20
1428.726479
 11
2905.260138
 21
1420.027117
  0
POINT
  8
3
 62
     7
 10
2898.260138
 20
1418.027117
  0
POINT
  8
3
 62
     4
 10
2898.260138
 20
1296.027117
  0
LINE
  8
3
 62
     4
  6
CONTINUOUS
 10
2769.610402
 20
1403.027117
 11
2732.035663
 21
1403.027117
  0
LINE
  8
0
 62
     2
  6
CONTINUOUS
 10
2714.260138
 20
1453.528715
 11
2714.260138
 21
1455.528715
  0
LINE
  8
0
 62
     2
  6
CONTINUOUS
 10
2707.260138
 20
1456.528715
 11
2812.260138
 21
1456.528715
  0
LINE
  8
0
 62
     2
  6
CONTINUOUS
 10
2714.260138
 20
1453.528715
 11
2910.260138
 21
1453.528715
  0
LINE
  8
0
 62
     2
  6
CONTINUOUS
 10
2707.260138
 20
1456.528715
 11
2707.260138
 21
1464.528715
  0
LINE
  8
0
 62
     2
  6
CONTINUOUS
 10
2910.260138
 20
1471.528715
 11
2917.260138
 21
1464.528715
  0
ARC
  8
3
 62
     4
  6
CONTINUOUS
 10
2732.260138
 20
1084.155205
 40
25.000000
 50
0.000000E+00
 51
14.708304
  0
LINE
  8
3
 62
     4
  6
CONTINUOUS
 10
2727.407055
 20
1203.012593
 11
2756.440912
 21
1090.502658
  0
ARC
  8
3
 62
     4
  6
CONTINUOUS
 10
2761.260138
 20
1211.899028
 40
35.000000
 50
180.000000
 51
194.708304
  0
LINE
  8
3
 62
     4
  6
CONTINUOUS
 10
2757.260138
 20
1084.155205
 11
2757.260138
 21
940.027117
  0
ARC
  8
3
 62
     4
  6
CONTINUOUS
 10
2892.260138
 20
1084.155205
 40
25.000000
 50
165.291696
 51
180.000000
  0
LINE
  8
3
 62
     4
  6
CONTINUOUS
 10
2897.113222
 20
1203.012593
 11
2868.079364
 21
1090.502658
  0
ARC
  8
3
 62
     4
  6
CONTINUOUS
 10
2863.260138
 20
1211.899028
 40
35.000000
 50
345.291696
 51
360.000000
  0
LINE
  8
3
 62
     4
  6
CONTINUOUS
 10
2867.260138
 20
1084.155205
 11
2867.260138
 21
940.027117
  0
LINE
  8
3
 62
     4
  6
CONTINUOUS
 10
2865.260138
 20
938.027117
 11
2759.260138
 21
938.027117
  0
LINE
  8
3
 62
     4
  6
CONTINUOUS
 10
2762.009227
 20
1088.027117
 11
2862.511049
 21
1088.027117
  0
LINE
  8
3
 62
     4
  6
CONTINUOUS
 10
2731.511049
 20
1208.027117
 11
2893.009227
 21
1208.027117
  0
LINE
  8
3
 62
     4
  6
CONTINUOUS
 10
2726.260138
 20
1208.027117
 11
2726.260138
 21
1428.726479
  0
LINE
  8
3
 62
     4
  6
CONTINUOUS
 10
2905.260138
 20
1428.726479
 11
2719.260138
 21
1428.726479
  0
LINE
  8
3
 62
     4
  6
CONTINUOUS
 10
2898.260138
 20
1211.899028
 11
2898.260138
 21
1293.027117
  0
LINE
  8
3
 62
     4
  6
CONTINUOUS
 10
2708.260138
 20
1438.027117
 11
2916.260138
 21
1438.027117
  0
LINE
  8
3
 62
     4
  6
CONTINUOUS
 10
2917.260138
 20
1453.027117
 11
2707.260138
 21
1453.027117
  0
ARC
  8
3
 62
     4
  6
CONTINUOUS
 10
2759.260138
 20
940.027117
 40
2.000000
 50
180.000000
 51
270.000000
  0
ARC
  8
3
 62
     4
  6
CONTINUOUS
 10
2865.260138
 20
940.027117
 40
2.000000
 50
270.000000
 51
360.000000
  0
LINE
  8
3
 62
     4
  6
CONTINUOUS
 10
2917.260138
 20
1453.027117
 11
2917.260138
 21
1438.027117
  0
LINE
  8
3
 62
     4
  6
CONTINUOUS
 10
2916.260138
 20
1438.027117
 11
2917.260138
 21
1438.027117
  0
LINE
  8
3
 62
     3
  6
CENTER
 10
2733.771286
 20
1429.083548
 11
2733.771286
 21
1459.574319
  0
LINE
  8
3
 62
     3
  6
CENTER
 10
2890.748991
 20
1429.083548
 11
2890.748991
 21
1459.574319
  0
ARC
  8
3
 62
     4
  6
CONTINUOUS
 10
2916.260138
 20
1436.027117
 40
2.000000
 50
90.000000
 51
180.000000
  0
LINE
  8
3
 62
     4
  6
CONTINUOUS
 10
2914.260138
 20
1436.027117
 11
2914.260138
 21
1434.527117
  0
ARC
  8
3
 62
     4
  6
CONTINUOUS
 10
2912.760138
 20
1434.527117
 40
1.500000
 50
270.000000
 51
360.000000
  0
LINE
  8
3
 62
     4
  6
CONTINUOUS
 10
2912.760138
 20
1433.027117
 11
2711.760138
 21
1433.027117
  0
LINE
  8
3
 62
     4
  6
CONTINUOUS
 10
2908.819287
 20
1433.027117
 11
2905.260138
 21
1428.726479
  0
ARC
  8
3
 62
     4
  6
CONTINUOUS
 10
2711.760138
 20
1434.527117
 40
1.500000
 50
180.000000
 51
270.000000
  0
LINE
  8
3
 62
     4
  6
CONTINUOUS
 10
2710.260138
 20
1436.027117
 11
2710.260138
 21
1434.527117
  0
ARC
  8
3
 62
     4
  6
CONTINUOUS
 10
2708.260138
 20
1436.027117
 40
2.000000
 50
0.000000E+00
 51
90.000000
  0
LINE
  8
3
 62
     4
  6
CONTINUOUS
 10
2708.260138
 20
1438.027117
 11
2707.260138
 21
1438.027117
  0
LINE
  8
3
 62
     4
  6
CONTINUOUS
 10
2707.260138
 20
1453.027117
 11
2707.260138
 21
1438.027117
  0
LINE
  8
3
 62
     4
  6
CENTER
 10
2812.260138
 20
1165.631738
 11
2812.260138
 21
1477.709326
  0
LINE
  8
3
 62
     4
  6
CENTER
 10
2812.260138
 20
924.939597
 11
2812.260138
 21
1165.631738
  0
LINE
  8
0
 62
     2
  6
CONTINUOUS
 10
2714.260138
 20
1471.528715
 11
2707.260138
 21
1464.528715
  0
LINE
  8
3
 62
     4
  6
CONTINUOUS
 10
2879.413514
 20
1403.027117
 11
2854.909875
 21
1403.027117
  0
POINT
  8
0
 62
     3
 10
2812.260138
 20
1445.027117
  0
POINT
  8
0
 62
     3
 10
2812.260138
 20
1430.527117
  0
POINT
  8
0
 62
     3
 10
2812.260138
 20
1408.027117
  0
ARC
  8
0
 62
     2
  6
CONTINUOUS
 10
2713.260138
 20
1455.528715
 40
1.000000
 50
360.000000
 51
450.000000
  0
LINE
  8
0
 62
     2
  6
CONTINUOUS
 10
2714.260138
 20
1471.528715
 11
2910.260138
 21
1471.528715
  0
LINE
  8
0
 62
     2
  6
CONTINUOUS
 10
2707.260138
 20
1464.528715
 11
2812.260138
 21
1464.528715
  0
LINE
  8
0
 62
     2
  6
CONTINUOUS
 10
2917.260138
 20
1456.528715
 11
2917.260138
 21
1464.528715
  0
LINE
  8
0
 62
     2
  6
CONTINUOUS
 10
2910.260138
 20
1453.528715
 11
2910.260138
 21
1455.528715
  0
ARC
  8
0
 62
     2
  6
CONTINUOUS
 10
2911.260138
 20
1455.528715
 40
1.000000
 50
90.000000
 51
180.000000
  0
LINE
  8
0
 62
     2
  6
CONTINUOUS
 10
2917.260138
 20
1464.528715
 11
2812.260138
 21
1464.528715
  0
LINE
  8
0
 62
     2
  6
CONTINUOUS
 10
2917.260138
 20
1456.528715
 11
2812.260138
 21
1456.528715
  0
INSERT
  8
0
  2
G34
 10
0
 20
0
  0
INSERT
  8
0
  2
G35
 10
0
 20
0
  0
INSERT
  8
0
  2
G36
 10
0
 20
0
  0
POINT
  8
0
 62
     4
 10
2812.260138
 20
1408.027117
  0
POINT
  8
0
 62
     4
 10
2812.260138
 20
1358.027117
  0
LINE
  8
3
 62
     4
  6
CONTINUOUS
 10
2715.700990
 20
1433.027117
 11
2719.260138
 21
1428.726479
  0
ARC
  8
1
 62
     4
  6
CONTINUOUS
 10
2901.260138
 20
1293.027117
 40
3.000000
 50
90.000000
 51
180.000000
  0
LINE
  8
1
 62
     4
  6
CONTINUOUS
 10
2901.260138
 20
1296.027117
 11
2905.260138
 21
1296.027117
  0
ARC
  8
1
 62
     4
  6
CONTINUOUS
 10
2918.061456
 20
1392.787309
 40
30.639745
 50
117.551999
 51
146.328437
  0
LINE
  8
1
 62
     4
  6
CONTINUOUS
 10
2907.260138
 20
1418.027117
 11
2907.260138
 21
1298.027117
  0
LINE
  8
3
 62
     4
  6
CONTINUOUS
 10
2873.654082
 20
1346.320978
 11
2874.565482
 21
1338.308677
  0
LINE
  8
3
 62
     4
  6
CONTINUOUS
 10
2874.565482
 20
1338.308677
 11
2875.930687
 21
1330.674027
  0
LINE
  8
3
 62
     4
  6
CONTINUOUS
 10
2875.930687
 20
1330.674027
 11
2877.723549
 21
1323.563250
  0
LINE
  8
3
 62
     4
  6
CONTINUOUS
 10
2877.723549
 20
1323.563250
 11
2879.909733
 21
1317.112531
  0
LINE
  8
3
 62
     4
  6
CONTINUOUS
 10
2879.909733
 20
1317.112531
 11
2882.447368
 21
1311.445417
  0
LINE
  8
3
 62
     4
  6
CONTINUOUS
 10
2882.447368
 20
1311.445417
 11
2885.287852
 21
1306.670446
  0
LINE
  8
3
 62
     4
  6
CONTINUOUS
 10
2885.287852
 20
1306.670446
 11
2888.376784
 21
1302.879067
  0
LINE
  8
3
 62
     4
  6
CONTINUOUS
 10
2888.376784
 20
1302.879067
 11
2891.655004
 21
1300.143896
  0
LINE
  8
3
 62
     4
  6
CONTINUOUS
 10
2891.655004
 20
1300.143896
 11
2895.059727
 21
1298.517316
  0
LINE
  8
3
 62
     4
  6
CONTINUOUS
 10
2891.655004
 20
1300.143896
 11
2895.059727
 21
1298.517316
  0
LINE
  8
3
 62
     4
  6
CONTINUOUS
 10
2880.798715
 20
1401.109505
 11
2879.628812
 21
1398.208988
  0
LINE
  8
3
 62
     4
  6
CONTINUOUS
 10
2879.628812
 20
1398.208988
 11
2878.542963
 21
1395.127191
  0
LINE
  8
3
 62
     4
  6
CONTINUOUS
 10
2878.542963
 20
1395.127191
 11
2877.546067
 21
1391.878019
  0
LINE
  8
3
 62
     4
  6
CONTINUOUS
 10
2877.546067
 20
1391.878019
 11
2876.642622
 21
1388.476130
  0
LINE
  8
3
 62
     4
  6
CONTINUOUS
 10
2876.642622
 20
1388.476130
 11
2875.836704
 21
1384.936872
  0
LINE
  8
3
 62
     4
  6
CONTINUOUS
 10
2875.836704
 20
1384.936872
 11
2875.131948
 21
1381.276211
  0
LINE
  8
3
 62
     4
  6
CONTINUOUS
 10
2875.131948
 20
1381.276211
 11
2874.531533
 21
1377.510664
  0
LINE
  8
3
 62
     4
  6
CONTINUOUS
 10
2874.531533
 20
1377.510664
 11
2874.038169
 21
1373.657217
  0
LINE
  8
3
 62
     4
  6
CONTINUOUS
 10
2874.038169
 20
1373.657217
 11
2873.654082
 21
1369.733255
  0
LINE
  8
3
 62
     4
  6
CONTINUOUS
 10
2874.038169
 20
1373.657217
 11
2873.654082
 21
1369.733255
  0
INSERT
  8
0
  2
G37
 10
0
 20
0
  0
INSERT
  8
0
  2
G38
 10
0
 20
0
  0
INSERT
  8
0
  2
G39
 10
0
 20
0
  0
INSERT
  8
0
  2
G40
 10
0
 20
0
  0
TEXT
  8
0
 62
     6
 10
2536.833607
 20
2543.812443
 40
35.000000
 50
0.000000E+00
 41
0.77 
  1
４ＳＦ－　　　－　　　　０　　０　　－Ｐ
 72
     5
 11
3152.333607
 21
2543.812443
  0
TEXT
  8
0
 62
     6
 10
2946.066195
 20
2643.926093
 40
32.000000
 50
0.000000E+00
 41
0.86 
  1
ａ
 72
     5
 11
2978.066195
 21
2643.926093
  0
TEXT
  8
0
 62
     6
 10
3032.066195
 20
2643.926093
 40
32.000000
 50
0.000000E+00
 41
0.86 
  1
ｂ
 72
     5
 11
3064.066195
 21
2643.926093
  0
CIRCLE
  8
0
 62
     6
  6
HIDDEN
 10
3048.252571
 20
2560.298843
 40
20.000000
  0
TEXT
  8
0
 62
     6
 10
3040.252571
 20
2544.298843
 40
32.000000
 50
0.000000E+00
 41
0.50 
  1
2
 72
     5
 11
3056.252571
 21
2544.298843
  0
CIRCLE
  8
0
 62
     6
  6
HIDDEN
 10
3048.252571
 20
2608.332262
 40
20.000000
  0
TEXT
  8
0
 62
     6
 10
3040.252571
 20
2592.332262
 40
32.000000
 50
0.000000E+00
 41
0.50 
  1
1
 72
     5
 11
3056.252571
 21
2592.332262
  0
CIRCLE
  8
0
 62
     6
  6
HIDDEN
 10
2962.252571
 20
2560.298843
 40
20.000000
  0
TEXT
  8
0
 62
     6
 10
2954.252571
 20
2544.298843
 40
32.000000
 50
0.000000E+00
 41
0.50 
  1
2
 72
     5
 11
2970.252571
 21
2544.298843
  0
CIRCLE
  8
0
 62
     6
  6
HIDDEN
 10
2962.252571
 20
2608.332262
 40
20.000000
  0
TEXT
  8
0
 62
     6
 10
2954.252571
 20
2592.332262
 40
32.000000
 50
0.000000E+00
 41
0.50 
  1
1
 72
     5
 11
2970.252571
 21
2592.332262
  0
ENDSEC
  0
EOF
