  0
SECTION
  2
HEADER
  9
$INSBASE
 10
0
 20
0
  9
$EXTMIN
 10
0
 20
0
  9
$EXTMAX
 10
4200.000000
 20
2970.000000
  9
$LIMMIN
 10
0
 20
0
  9
$LIMMAX
 10
4200.000000
 20
2970.000000
  9
$VIEWCTR
 10
2100.000000
 20
1485.000000
  9
$DIMASZ
 40
30.000000
  9
$DIMDLI
 40
80.000000
  9
$DIMEXE
 40
10.000000
  9
$DIMEXO
 40
10.000000
  9
$DIMTXT
 40
32.000000
  9
$TEXTSIZE
 40
32.000000
  9
$ANGBASE
 50
0.0
  9
$ANGDIR
 70
     0
  9
$ATTMODE
 70
     1
  9
$AUNITS
 70
     1
  9
$AUPREC
 70
     2
  9
$AXISMODE
 70
     0
  9
$AXISUNIT
 10
0.0
 20
0.0
  9
$BLIPMODE
 70
     1
  9
$CECOLOR
 62
   256
  9
$CELTYPE
  6
BYLAYER
  9
$CHAMFERA
 40
0.0
  9
$CHAMFERB
 40
0.0
  9
$CLAYER
  8
0
  9
$COORDS
 70
     0
  9
$DIMALT
 70
     0
  9
$DIMALTD
 70
     2
  9
$DIMALTF
 40
25.4
  9
$DIMDLE
 40
0.0
  9
$DIMLFAC
 40
1.0
  9
$DIMLIM
 70
     0
  9
$DIMRND
 40
0.0
  9
$DIMSCALE
 40
1.0
  9
$DIMSE1
 70
     0
  9
$DIMSE2
 70
     0
  9
$DIMTAD
 70
     1
  9
$DIMTIH
 70
     0
  9
$DIMTM
 40
0.0
  9
$DIMTOH
 70
     0
  9
$DIMTOL
 70
     0
  9
$DIMTP
 40
0.0
  9
$DIMTSZ
 40
0.0
  9
$DIMZIN
 70
     0
  9
$DRAGMODE
 70
     2
  9
$ELEVATION
 40
0.0
  9
$FASTZOOM
 70
     1
  9
$FILLETRAD
 40
0.0
  9
$FILLMODE
 70
     1
  9
$GRIDMODE
 70
     0
  9
$GRIDUNIT
 10
0.0
 20
0.0
  9
$LTSCALE
 40
1.0
  9
$LUNITS
 70
     2
  9
$LUPREC
 70
     2
  9
$MENU
  1
ACAD
  9
$ORTHOMODE
 70
     0
  9
$OSMODE
 70
     0
  9
$PDMODE
 70
     0
  9
$PDSIZE
 40
0.0
  9
$PLINEWID
 40
0.0
  9
$QTEXTMODE
 70
     0
  9
$REGENMODE
 70
     1
  9
$SKETCHINC
 40
0.1
  9
$SKPOLY
 70
     0
  9
$SNAPBASE
 10
0.0
 20
0.0
  9
$SNAPISOPAIR
 70
     0
  9
$SNAPMODE
 70
     0
  9
$SNAPSTYLE
 70
     0
  9
$SNAPUNIT
 10
0.0
 20
0.0
  9
$TEXTSTYLE
  7
KANJI
  9
$THICKNESS
 40
0.0
  9
$TRACEWID
 40
0.05
  9
$VIEWDIR
 10
0.0
 20
0.0
 30
1.0
  9
$VIEWSIZE
 40
0.0
  0
ENDSEC
  0
SECTION
  2
TABLES
  0
TABLE
  2
LTYPE
 70
     9
  0
LTYPE
  2
CONTINUOUS
 70
    64
  3
Solid line
 72
    65
 73
     0
 40
0.0
  0
LTYPE
  2
DASHED
 70
    64
  3
__ __ __ __ __ __ __ __ __ __ __ __ __ __ __
 72
    65
 73
     2
 40
0.75
 49
0.5
 49
-0.25
  0
LTYPE
  2
HIDDEN
 70
    64
  3
_ _ _ _ _ _ _ _ _ _ _ _ _ _ _ _ _ _ _ _ _ _ _
 72
    65
 73
     2
 40
0.375
 49
0.25
 49
-0.125
  0
LTYPE
  2
CENTER
 70
    64
  3
____ _ ____ _ ____ _ ____ _ ____ _ ____ _ ____
 72
    65
 73
     4
 40
2.0
 49
1.25
 49
-0.25
 49
0.25
 49
-0.25
  0
LTYPE
  2
PHANTOM
 70
    64
  3
_____ _ _ _____ _ _ _____ _ _ _____ _ _ ____
 72
    65
 73
     6
 40
2.5
 49
1.25
 49
-0.25
 49
0.25
 49
-0.25
 49
0.25
 49
-0.25
  0
LTYPE
  2
DOT
 70
    64
  3
...............................................
 72
    65
 73
     2
 40
0.25
 49
0.0
 49
-0.25
  0
LTYPE
  2
DASHDOT
 70
    64
  3
__ . __ . __ . __ . __ . __ . __ . __ . __ . __
 72
    65
 73
     4
 40
1.0
 49
0.5
 49
-0.25
 49
0.0
 49
-0.25
  0
LTYPE
  2
BORDER
 70
    64
  3
__ __ . __ __ . __ __ . __ __ . __ __ . __ __
 72
    65
 73
     6
 40
1.75
 49
0.5
 49
-0.25
 49
0.5
 49
-0.25
 49
0.0
 49
-0.25
  0
LTYPE
  2
DIVIDE
 70
    64
  3
__ . . __ . . __ . . __ . . __ . . __ . . __
 72
    65
 73
     6
 40
1.25
 49
0.5
 49
-0.25
 49
0.0
 49
-0.25
 49
0.0
 49
-0.25
  0
ENDTAB
  0
TABLE
  2
LAYER
 70
   100
  0
LAYER
  2
0
 70
     0
 62
     3
  6
CONTINUOUS
  0
LAYER
  2
1
 70
     0
 62
     3
  6
CONTINUOUS
  0
LAYER
  2
2
 70
     0
 62
     3
  6
CONTINUOUS
  0
LAYER
  2
3
 70
     0
 62
     3
  6
CONTINUOUS
  0
LAYER
  2
4
 70
     0
 62
     3
  6
CONTINUOUS
  0
LAYER
  2
5
 70
     0
 62
     3
  6
CONTINUOUS
  0
LAYER
  2
6
 70
     0
 62
     3
  6
CONTINUOUS
  0
LAYER
  2
7
 70
     0
 62
     3
  6
CONTINUOUS
  0
LAYER
  2
8
 70
     0
 62
     3
  6
CONTINUOUS
  0
LAYER
  2
9
 70
     0
 62
     3
  6
CONTINUOUS
  0
LAYER
  2
10
 70
     0
 62
     3
  6
CONTINUOUS
  0
LAYER
  2
11
 70
     0
 62
     3
  6
CONTINUOUS
  0
LAYER
  2
12
 70
     0
 62
     3
  6
CONTINUOUS
  0
LAYER
  2
13
 70
     0
 62
     3
  6
CONTINUOUS
  0
LAYER
  2
14
 70
     0
 62
     3
  6
CONTINUOUS
  0
LAYER
  2
15
 70
     0
 62
     3
  6
CONTINUOUS
  0
LAYER
  2
16
 70
     0
 62
     3
  6
CONTINUOUS
  0
LAYER
  2
17
 70
     0
 62
     3
  6
CONTINUOUS
  0
LAYER
  2
18
 70
     0
 62
     3
  6
CONTINUOUS
  0
LAYER
  2
19
 70
     0
 62
     3
  6
CONTINUOUS
  0
LAYER
  2
20
 70
     0
 62
     3
  6
CONTINUOUS
  0
LAYER
  2
21
 70
     0
 62
     3
  6
CONTINUOUS
  0
LAYER
  2
22
 70
     0
 62
     3
  6
CONTINUOUS
  0
LAYER
  2
23
 70
     0
 62
     3
  6
CONTINUOUS
  0
LAYER
  2
24
 70
     0
 62
     3
  6
CONTINUOUS
  0
LAYER
  2
25
 70
     0
 62
     3
  6
CONTINUOUS
  0
LAYER
  2
26
 70
     0
 62
     3
  6
CONTINUOUS
  0
LAYER
  2
27
 70
     0
 62
     3
  6
CONTINUOUS
  0
LAYER
  2
28
 70
     0
 62
     3
  6
CONTINUOUS
  0
LAYER
  2
29
 70
     0
 62
     3
  6
CONTINUOUS
  0
LAYER
  2
30
 70
     0
 62
     3
  6
CONTINUOUS
  0
LAYER
  2
31
 70
     0
 62
     3
  6
CONTINUOUS
  0
LAYER
  2
32
 70
     0
 62
     3
  6
CONTINUOUS
  0
LAYER
  2
33
 70
     0
 62
     3
  6
CONTINUOUS
  0
LAYER
  2
34
 70
     0
 62
     3
  6
CONTINUOUS
  0
LAYER
  2
35
 70
     0
 62
     3
  6
CONTINUOUS
  0
LAYER
  2
36
 70
     0
 62
     3
  6
CONTINUOUS
  0
LAYER
  2
37
 70
     0
 62
     3
  6
CONTINUOUS
  0
LAYER
  2
38
 70
     0
 62
     3
  6
CONTINUOUS
  0
LAYER
  2
39
 70
     0
 62
     3
  6
CONTINUOUS
  0
LAYER
  2
40
 70
     0
 62
     3
  6
CONTINUOUS
  0
LAYER
  2
41
 70
     0
 62
     3
  6
CONTINUOUS
  0
LAYER
  2
42
 70
     0
 62
     3
  6
CONTINUOUS
  0
LAYER
  2
43
 70
     0
 62
     3
  6
CONTINUOUS
  0
LAYER
  2
44
 70
     0
 62
     3
  6
CONTINUOUS
  0
LAYER
  2
45
 70
     0
 62
     3
  6
CONTINUOUS
  0
LAYER
  2
46
 70
     0
 62
     3
  6
CONTINUOUS
  0
LAYER
  2
47
 70
     0
 62
     3
  6
CONTINUOUS
  0
LAYER
  2
48
 70
     0
 62
     3
  6
CONTINUOUS
  0
LAYER
  2
49
 70
     0
 62
     3
  6
CONTINUOUS
  0
LAYER
  2
50
 70
     0
 62
     3
  6
CONTINUOUS
  0
LAYER
  2
51
 70
     0
 62
     3
  6
CONTINUOUS
  0
LAYER
  2
52
 70
     0
 62
     3
  6
CONTINUOUS
  0
LAYER
  2
53
 70
     0
 62
     3
  6
CONTINUOUS
  0
LAYER
  2
54
 70
     0
 62
     3
  6
CONTINUOUS
  0
LAYER
  2
55
 70
     0
 62
     3
  6
CONTINUOUS
  0
LAYER
  2
56
 70
     0
 62
     3
  6
CONTINUOUS
  0
LAYER
  2
57
 70
     0
 62
     3
  6
CONTINUOUS
  0
LAYER
  2
58
 70
     0
 62
     3
  6
CONTINUOUS
  0
LAYER
  2
59
 70
     0
 62
     3
  6
CONTINUOUS
  0
LAYER
  2
60
 70
     0
 62
     3
  6
CONTINUOUS
  0
LAYER
  2
61
 70
     0
 62
     3
  6
CONTINUOUS
  0
LAYER
  2
62
 70
     0
 62
     3
  6
CONTINUOUS
  0
LAYER
  2
63
 70
     0
 62
     3
  6
CONTINUOUS
  0
LAYER
  2
64
 70
     0
 62
     3
  6
CONTINUOUS
  0
LAYER
  2
65
 70
     0
 62
     3
  6
CONTINUOUS
  0
LAYER
  2
66
 70
     0
 62
     3
  6
CONTINUOUS
  0
LAYER
  2
67
 70
     0
 62
     3
  6
CONTINUOUS
  0
LAYER
  2
68
 70
     0
 62
     3
  6
CONTINUOUS
  0
LAYER
  2
69
 70
     0
 62
     3
  6
CONTINUOUS
  0
LAYER
  2
70
 70
     0
 62
     3
  6
CONTINUOUS
  0
LAYER
  2
71
 70
     0
 62
     3
  6
CONTINUOUS
  0
LAYER
  2
72
 70
     0
 62
     3
  6
CONTINUOUS
  0
LAYER
  2
73
 70
     0
 62
     3
  6
CONTINUOUS
  0
LAYER
  2
74
 70
     0
 62
     3
  6
CONTINUOUS
  0
LAYER
  2
75
 70
     0
 62
     3
  6
CONTINUOUS
  0
LAYER
  2
76
 70
     0
 62
     3
  6
CONTINUOUS
  0
LAYER
  2
77
 70
     0
 62
     3
  6
CONTINUOUS
  0
LAYER
  2
78
 70
     0
 62
     3
  6
CONTINUOUS
  0
LAYER
  2
79
 70
     0
 62
     3
  6
CONTINUOUS
  0
LAYER
  2
80
 70
     0
 62
     3
  6
CONTINUOUS
  0
LAYER
  2
81
 70
     0
 62
     3
  6
CONTINUOUS
  0
LAYER
  2
82
 70
     0
 62
     3
  6
CONTINUOUS
  0
LAYER
  2
83
 70
     0
 62
     3
  6
CONTINUOUS
  0
LAYER
  2
84
 70
     0
 62
     3
  6
CONTINUOUS
  0
LAYER
  2
85
 70
     0
 62
     3
  6
CONTINUOUS
  0
LAYER
  2
86
 70
     0
 62
     3
  6
CONTINUOUS
  0
LAYER
  2
87
 70
     0
 62
     3
  6
CONTINUOUS
  0
LAYER
  2
88
 70
     0
 62
     3
  6
CONTINUOUS
  0
LAYER
  2
89
 70
     0
 62
     3
  6
CONTINUOUS
  0
LAYER
  2
90
 70
     0
 62
     3
  6
CONTINUOUS
  0
LAYER
  2
91
 70
     0
 62
     3
  6
CONTINUOUS
  0
LAYER
  2
92
 70
     0
 62
     3
  6
CONTINUOUS
  0
LAYER
  2
93
 70
     0
 62
     3
  6
CONTINUOUS
  0
LAYER
  2
94
 70
     0
 62
     3
  6
CONTINUOUS
  0
LAYER
  2
95
 70
     0
 62
     3
  6
CONTINUOUS
  0
LAYER
  2
96
 70
     0
 62
     3
  6
CONTINUOUS
  0
LAYER
  2
97
 70
     0
 62
     3
  6
CONTINUOUS
  0
LAYER
  2
98
 70
     0
 62
     3
  6
CONTINUOUS
  0
LAYER
  2
99
 70
     0
 62
     3
  6
CONTINUOUS
  0
ENDTAB
  0
TABLE
  2
STYLE
 70
     2
  0
STYLE
  2
STANDARD
 70
     0
 40
0.0
 41
1.0
 50
0.0
 71
     0
 42
0.2
  3
TXT
  4
BIGFONT
  0
STYLE
  2
KANJI
 70
     0
 40
4.5
 41
1.0
 50
0.0
 71
     0
 42
0.2
  3
TXT
  4
BIGFONT
  0
ENDTAB
  0
TABLE
  2
VIEW
 70
     0
  0
ENDTAB
  0
ENDSEC
  0
SECTION
  2
BLOCKS
  0
BLOCK
  8
0
  2
G0
 70
     0
 10
0
 20
0
  0
POINT
  8
0
 62
     4
 10
270.000000
 20
1315.000000
  0
POINT
  8
0
 62
     4
 10
-1830.000000
 20
1315.000000
  0
ENDBLK
  0
BLOCK
  8
0
  2
G1
 70
     0
 10
0
 20
0
  0
LINE
  8
0
 62
     3
  6
CONTINUOUS
 10
-1143.043291
 20
-48.975228
 11
-1165.545746
 21
-35.983430
  0
LINE
  8
0
 62
     3
  6
CONTINUOUS
 10
-1158.460760
 20
-75.679068
 11
-1143.043291
 21
-48.975228
  0
TEXT
  8
0
 62
     3
 10
-1170.254043
 20
-108.037285
 40
32.000000
 50
0.000000E+00
 41
0.86 
  1
Ｃ
 72
     5
 11
-1138.254043
 21
-108.037285
  0
LINE
  8
0
 62
     3
  6
CONTINUOUS
 10
-1158.460760
 20
-28.308819
 11
-1158.460760
 21
-75.679068
  0
LINE
  8
0
 62
     3
  6
CONTINUOUS
 10
-1158.460760
 20
-28.308819
 11
-1238.023323
 21
-28.308819
  0
ENDBLK
  0
BLOCK
  8
0
  2
G2
 70
     0
 10
0
 20
0
  0
TEXT
  8
0
 62
     3
 10
-1123.002644
 20
942.836718
 40
32.000000
 50
0.000000E+00
 41
0.95 
  1
受口深さ　
 72
     5
 11
-947.002644
 21
942.836718
  0
ENDBLK
  0
BLOCK
  8
0
  2
G3
 70
     0
 10
0
 20
0
  0
LINE
  8
0
 62
     1
  6
CONTINUOUS
 10
-664.013683
 20
727.624747
 11
-728.695764
 21
727.624747
  0
LINE
  8
0
 62
     1
  6
CONTINUOUS
 10
-728.695764
 20
647.500000
 11
-728.695764
 21
742.624747
  0
TEXT
  8
0
 62
     1
 10
-716.221530
 20
732.958080
 40
32.000000
 50
360.000000
 41
0.56 
  1
65
 72
     5
 11
-680.221530
 21
732.958080
  0
LINE
  8
0
 62
     1
  6
CONTINUOUS
 10
-664.013683
 20
727.624747
 11
-624.928958
 21
727.624747
  0
SOLID
  8
0
 62
     1
 10
-639.865537
 20
734.095223
 11
-639.865537
 21
721.154271
 12
-664.013683
 22
727.624747
 13
-664.013683
 23
727.624747
  0
LINE
  8
0
 62
     1
  6
CONTINUOUS
 10
-728.695764
 20
727.624747
 11
-770.874904
 21
727.624747
  0
SOLID
  8
0
 62
     1
 10
-752.843909
 20
721.154271
 11
-752.843909
 21
734.095223
 12
-728.695764
 22
727.624747
 13
-728.695764
 23
727.624747
  0
ENDBLK
  0
BLOCK
  8
0
  2
G4
 70
     0
 10
0
 20
0
  0
LINE
  8
0
 62
     1
  6
CONTINUOUS
 10
-841.020456
 20
680.000000
 11
-841.020456
 21
470.000000
  0
SOLID
  8
0
 62
     1
 10
-834.549980
 20
655.851854
 11
-847.490932
 21
655.851854
 12
-841.020456
 22
680.000000
 13
-841.020456
 23
680.000000
  0
SOLID
  8
0
 62
     1
 10
-847.490932
 20
494.148146
 11
-834.549980
 21
494.148146
 12
-841.020456
 22
470.000000
 13
-841.020456
 23
470.000000
  0
LINE
  8
0
 62
     1
  6
CONTINUOUS
 10
-578.695764
 20
680.000000
 11
-851.020456
 21
680.000000
  0
TEXT
  8
0
 62
     1
 10
-846.353789
 20
547.000000
 40
32.000000
 50
90.000000
 41
0.58 
  1
210
 72
     5
 11
-846.353789
 21
603.000000
  0
ENDBLK
  0
BLOCK
  8
0
  2
G5
 70
     0
 10
0
 20
0
  0
LINE
  8
0
 62
     1
  6
CONTINUOUS
 10
-673.695764
 20
301.624747
 11
-463.695764
 21
301.624747
  0
SOLID
  8
0
 62
     1
 10
-649.547618
 20
308.095223
 11
-649.547618
 21
295.154271
 12
-673.695764
 22
301.624747
 13
-673.695764
 23
301.624747
  0
SOLID
  8
0
 62
     1
 10
-487.843909
 20
295.154271
 11
-487.843909
 21
308.095223
 12
-463.695764
 22
301.624747
 13
-463.695764
 23
301.624747
  0
TEXT
  8
0
 62
     1
 10
-596.695764
 20
306.958080
 40
32.000000
 50
0.000000E+00
 41
0.58 
  1
210
 72
     5
 11
-540.695764
 21
306.958080
  0
ENDBLK
  0
BLOCK
  8
0
  2
G6
 70
     0
 10
0
 20
0
  0
LINE
  8
0
 62
     1
  6
CONTINUOUS
 10
-356.371072
 20
479.682081
 11
-356.371072
 21
415.000000
  0
LINE
  8
0
 62
     1
  6
CONTINUOUS
 10
-498.695764
 20
479.682081
 11
-346.371072
 21
479.682081
  0
LINE
  8
0
 62
     1
  6
CONTINUOUS
 10
-496.195764
 20
415.000000
 11
-346.371072
 21
415.000000
  0
TEXT
  8
0
 62
     1
 10
-361.704405
 20
429.341041
 40
32.000000
 50
90.000000
 41
0.56 
  1
65
 72
     5
 11
-361.704405
 21
465.341041
  0
LINE
  8
0
 62
     1
  6
CONTINUOUS
 10
-356.371072
 20
479.682081
 11
-356.371072
 21
506.728986
  0
SOLID
  8
0
 62
     1
 10
-362.841548
 20
503.830227
 11
-349.900596
 21
503.830227
 12
-356.371072
 22
479.682081
 13
-356.371072
 23
479.682081
  0
LINE
  8
0
 62
     1
  6
CONTINUOUS
 10
-356.371072
 20
415.000000
 11
-356.371072
 21
365.000000
  0
SOLID
  8
0
 62
     1
 10
-349.900596
 20
390.851854
 11
-362.841548
 21
390.851854
 12
-356.371072
 22
415.000000
 13
-356.371072
 23
415.000000
  0
ENDBLK
  0
BLOCK
  8
0
  2
G7
 70
     0
 10
0
 20
0
  0
LINE
  8
0
 62
     1
  6
CONTINUOUS
 10
-728.695764
 20
789.624747
 11
-568.695764
 21
789.624747
  0
LINE
  8
0
 62
     1
  6
CONTINUOUS
 10
-728.695764
 20
742.624747
 11
-728.695764
 21
799.624747
  0
TEXT
  8
0
 62
     1
 10
-676.695764
 20
794.958080
 40
32.000000
 50
360.000000
 41
0.58 
  1
160
 72
     5
 11
-620.695764
 21
794.958080
  0
LINE
  8
0
 62
     1
  6
CONTINUOUS
 10
-728.695764
 20
789.624747
 11
-778.695764
 21
789.624747
  0
SOLID
  8
0
 62
     1
 10
-752.843909
 20
783.154271
 11
-752.843909
 21
796.095223
 12
-728.695764
 22
789.624747
 13
-728.695764
 23
789.624747
  0
ENDBLK
  0
BLOCK
  8
0
  2
G8
 70
     0
 10
0
 20
0
  0
LINE
  8
0
 62
     3
  6
CONTINUOUS
 10
-810.589685
 20
689.655484
 11
-972.453928
 21
689.655484
  0
LINE
  8
0
 62
     3
  6
CONTINUOUS
 10
-810.589685
 20
697.655484
 11
-972.453928
 21
697.655484
  0
TEXT
  8
0
 62
     7
 10
-1002.888753
 20
707.153071
 40
32.000000
 50
360.000000
 41
0.66 
  1
％％ｃ　　　枝管
 72
     5
 11
-810.888753
 21
707.153071
  0
ENDBLK
  0
BLOCK
  8
0
  2
G9
 70
     0
 10
0
 20
0
  0
LINE
  8
0
 62
     1
  6
CONTINUOUS
 10
-1120.662948
 20
113.027117
 11
-1120.662948
 21
173.027117
  0
CIRCLE
  8
0
 62
     1
  6
CONTINUOUS
 10
-1120.662948
 20
113.027117
 40
2.500000
  0
CIRCLE
  8
0
 62
     1
  6
CONTINUOUS
 10
-1120.662948
 20
113.027117
 40
1.250000
  0
LINE
  8
0
 62
     1
  6
CONTINUOUS
 10
-1192.739862
 20
113.027117
 11
-1110.662948
 21
113.027117
  0
LINE
  8
0
 62
     1
  6
CONTINUOUS
 10
-1181.806156
 20
173.027117
 11
-1110.662948
 21
173.027117
  0
TEXT
  8
0
 62
     1
 10
-1125.996281
 20
125.027117
 40
32.000000
 50
90.000000
 41
0.56 
  1
60
 72
     5
 11
-1125.996281
 21
161.027117
  0
LINE
  8
0
 62
     1
  6
CONTINUOUS
 10
-1120.662948
 20
173.027117
 11
-1120.662948
 21
223.027117
  0
SOLID
  8
0
 62
     1
 10
-1128.427519
 20
202.004891
 11
-1112.898377
 21
202.004891
 12
-1120.662948
 22
173.027117
 13
-1120.662948
 23
173.027117
  0
ENDBLK
  0
BLOCK
  8
0
  2
G10
 70
     0
 10
0
 20
0
  0
LINE
  8
0
 62
     1
  6
CONTINUOUS
 10
-940.662948
 20
438.027117
 11
-940.662948
 21
363.027117
  0
SOLID
  8
0
 62
     1
 10
-934.192472
 20
413.878971
 11
-947.133424
 21
413.878971
 12
-940.662948
 22
438.027117
 13
-940.662948
 23
438.027117
  0
SOLID
  8
0
 62
     1
 10
-947.133424
 20
387.175262
 11
-934.192472
 21
387.175262
 12
-940.662948
 22
363.027117
 13
-940.662948
 23
363.027117
  0
LINE
  8
0
 62
     1
  6
CONTINUOUS
 10
-930.662948
 20
438.027117
 11
-1277.549807
 21
438.027117
  0
LINE
  8
0
 62
     1
  6
CONTINUOUS
 10
-930.662948
 20
363.027117
 11
-1060.662948
 21
363.027117
  0
TEXT
  8
0
 62
     1
 10
-945.996281
 20
382.527117
 40
32.000000
 50
90.000000
 41
0.56 
  1
75
 72
     5
 11
-945.996281
 21
418.527117
  0
ENDBLK
  0
BLOCK
  8
0
  2
G11
 70
     0
 10
0
 20
0
  0
TEXT
  8
0
 62
     6
 10
-568.581501
 20
1132.505821
 40
32.000000
 50
0.000000E+00
 41
0.97 
  1
枝管のタイプ（呼び径）
 72
     5
 11
-172.581501
 21
1132.505821
  0
TEXT
  8
0
 62
     6
 10
-470.705692
 20
1079.530401
 40
32.000000
 50
0.000000E+00
 41
0.74 
  1
：％％ｃ５０枝管
 72
     5
 11
-258.705692
 21
1079.530401
  0
TEXT
  8
0
 62
     6
 10
-470.705692
 20
1019.530401
 40
32.000000
 50
0.000000E+00
 41
0.74 
  1
：％％ｃ６５枝管
 72
     5
 11
-258.705692
 21
1019.530401
  0
TEXT
  8
0
 62
     6
 10
-470.705692
 20
959.530401
 40
32.000000
 50
0.000000E+00
 41
0.74 
  1
：％％ｃ７５枝管
 72
     5
 11
-258.705692
 21
959.530401
  0
TEXT
  8
0
 62
     6
 10
-501.793661
 20
1076.134541
 40
32.000000
 50
0.000000E+00
 41
0.50 
  1
1
 72
     5
 11
-485.793661
 21
1076.134541
  0
TEXT
  8
0
 62
     6
 10
-501.793661
 20
1016.134541
 40
32.000000
 50
0.000000E+00
 41
0.50 
  1
2
 72
     5
 11
-485.793661
 21
1016.134541
  0
TEXT
  8
0
 62
     6
 10
-501.793661
 20
956.134541
 40
32.000000
 50
0.000000E+00
 41
0.50 
  1
3
 72
     5
 11
-485.793661
 21
956.134541
  0
ENDBLK
  0
BLOCK
  8
0
  2
G12
 70
     0
 10
0
 20
0
  0
LINE
  8
0
 62
     1
  6
CONTINUOUS
 10
-1000.662948
 20
-186.972883
 11
-1000.662948
 21
173.027117
  0
SOLID
  8
0
 62
     1
 10
-1008.427519
 20
-157.995109
 11
-992.898377
 21
-157.995109
 12
-1000.662948
 22
-186.972883
 13
-1000.662948
 23
-186.972883
  0
SOLID
  8
0
 62
     1
 10
-992.898377
 20
144.049342
 11
-1008.427519
 21
144.049342
 12
-1000.662948
 22
173.027117
 13
-1000.662948
 23
173.027117
  0
LINE
  8
0
 62
     1
  6
CONTINUOUS
 10
-990.662948
 20
-186.972883
 11
-1110.662948
 21
-186.972883
  0
TEXT
  8
0
 62
     1
 10
-1005.996281
 20
-22.972883
 40
32.000000
 50
90.000000
 41
0.86 
  1
Ｐ
 72
     5
 11
-1005.996281
 21
9.027117
  0
ENDBLK
  0
BLOCK
  8
0
  2
G13
 70
     0
 10
0
 20
0
  0
LINE
  8
0
 62
     1
  6
CONTINUOUS
 10
-1060.662948
 20
113.027117
 11
-1060.662948
 21
363.027117
  0
SOLID
  8
0
 62
     1
 10
-1068.427519
 20
142.004891
 11
-1052.898377
 21
142.004891
 12
-1060.662948
 22
113.027117
 13
-1060.662948
 23
113.027117
  0
SOLID
  8
0
 62
     1
 10
-1052.898377
 20
334.049342
 11
-1068.427519
 21
334.049342
 12
-1060.662948
 22
363.027117
 13
-1060.662948
 23
363.027117
  0
LINE
  8
0
 62
     1
  6
CONTINUOUS
 10
-1110.662948
 20
113.027117
 11
-1050.662948
 21
113.027117
  0
LINE
  8
0
 62
     1
  6
CONTINUOUS
 10
-1347.739862
 20
363.027117
 11
-1050.662948
 21
363.027117
  0
TEXT
  8
0
 62
     1
 10
-1065.996281
 20
210.027117
 40
32.000000
 50
90.000000
 41
0.58 
  1
250
 72
     5
 11
-1065.996281
 21
266.027117
  0
ENDBLK
  0
BLOCK
  8
0
  2
G14
 70
     0
 10
0
 20
0
  0
LINE
  8
0
 62
     1
  6
CONTINUOUS
 10
-1120.662948
 20
-276.972883
 11
-1120.662948
 21
-396.972883
  0
SOLID
  8
0
 62
     1
 10
-1114.192472
 20
-301.121029
 11
-1127.133424
 21
-301.121029
 12
-1120.662948
 22
-276.972883
 13
-1120.662948
 23
-276.972883
  0
SOLID
  8
0
 62
     1
 10
-1127.133424
 20
-372.824738
 11
-1114.192472
 21
-372.824738
 12
-1120.662948
 22
-396.972883
 13
-1120.662948
 23
-396.972883
  0
LINE
  8
0
 62
     1
  6
CONTINUOUS
 10
-1266.990773
 20
-276.972883
 11
-1110.662948
 21
-276.972883
  0
LINE
  8
0
 62
     1
  6
CONTINUOUS
 10
-1297.488951
 20
-396.972883
 11
-1110.662948
 21
-396.972883
  0
TEXT
  8
0
 62
     1
 10
-1125.996281
 20
-364.972883
 40
32.000000
 50
90.000000
 41
0.58 
  1
120
 72
     5
 11
-1125.996281
 21
-308.972883
  0
ENDBLK
  0
BLOCK
  8
0
  2
G15
 70
     0
 10
0
 20
0
  0
LINE
  8
0
 62
     1
  6
CONTINUOUS
 10
-1120.662948
 20
-396.972883
 11
-1120.662948
 21
-546.972883
  0
SOLID
  8
0
 62
     1
 10
-1114.192472
 20
-421.121029
 11
-1127.133424
 21
-421.121029
 12
-1120.662948
 22
-396.972883
 13
-1120.662948
 23
-396.972883
  0
SOLID
  8
0
 62
     1
 10
-1127.133424
 20
-522.824738
 11
-1114.192472
 21
-522.824738
 12
-1120.662948
 22
-546.972883
 13
-1120.662948
 23
-546.972883
  0
LINE
  8
0
 62
     1
  6
CONTINUOUS
 10
-1294.739862
 20
-546.972883
 11
-1110.662948
 21
-546.972883
  0
TEXT
  8
0
 62
     1
 10
-1125.996281
 20
-499.972883
 40
32.000000
 50
90.000000
 41
0.58 
  1
150
 72
     5
 11
-1125.996281
 21
-443.972883
  0
ENDBLK
  0
BLOCK
  8
0
  2
G16
 70
     0
 10
0
 20
0
  0
LINE
  8
0
 62
     1
  6
CONTINUOUS
 10
-1000.662948
 20
-186.972883
 11
-1000.662948
 21
-546.972883
  0
SOLID
  8
0
 62
     1
 10
-994.192472
 20
-211.121029
 11
-1007.133424
 21
-211.121029
 12
-1000.662948
 22
-186.972883
 13
-1000.662948
 23
-186.972883
  0
SOLID
  8
0
 62
     1
 10
-1007.133424
 20
-522.824738
 11
-994.192472
 21
-522.824738
 12
-1000.662948
 22
-546.972883
 13
-1000.662948
 23
-546.972883
  0
LINE
  8
0
 62
     1
  6
CONTINUOUS
 10
-990.662948
 20
-546.972883
 11
-1110.662948
 21
-546.972883
  0
TEXT
  8
0
 62
     1
 10
-1005.996281
 20
-394.972883
 40
32.000000
 50
90.000000
 41
0.58 
  1
360
 72
     5
 11
-1005.996281
 21
-338.972883
  0
ENDBLK
  0
BLOCK
  8
0
  2
G17
 70
     0
 10
0
 20
0
  0
LINE
  8
0
 62
     1
  6
CONTINUOUS
 10
-299.371072
 20
575.000000
 11
-299.371072
 21
415.000000
  0
LINE
  8
0
 62
     1
  6
CONTINUOUS
 10
-496.195764
 20
415.000000
 11
-289.371072
 21
415.000000
  0
TEXT
  8
0
 62
     1
 10
-304.704405
 20
467.000000
 40
32.000000
 50
90.000000
 41
0.58 
  1
160
 72
     5
 11
-304.704405
 21
523.000000
  0
LINE
  8
0
 62
     1
  6
CONTINUOUS
 10
-299.371072
 20
625.000000
 11
-299.371072
 21
575.000000
  0
SOLID
  8
0
 62
     1
 10
-305.841548
 20
599.148146
 11
-292.900596
 21
599.148146
 12
-299.371072
 22
575.000000
 13
-299.371072
 23
575.000000
  0
LINE
  8
0
 62
     1
  6
CONTINUOUS
 10
-299.371072
 20
415.000000
 11
-299.371072
 21
365.000000
  0
SOLID
  8
0
 62
     1
 10
-292.900596
 20
390.851854
 11
-305.841548
 21
390.851854
 12
-299.371072
 22
415.000000
 13
-299.371072
 23
415.000000
  0
ENDBLK
  0
BLOCK
  8
0
  2
G18
 70
     0
 10
0
 20
0
  0
LINE
  8
0
 62
     1
  6
CONTINUOUS
 10
-940.662948
 20
363.027117
 11
-940.662948
 21
-546.972883
  0
SOLID
  8
0
 62
     1
 10
-934.192472
 20
338.878971
 11
-947.133424
 21
338.878971
 12
-940.662948
 22
363.027117
 13
-940.662948
 23
363.027117
  0
SOLID
  8
0
 62
     1
 10
-947.133424
 20
-522.824738
 11
-934.192472
 21
-522.824738
 12
-940.662948
 22
-546.972883
 13
-940.662948
 23
-546.972883
  0
LINE
  8
0
 62
     1
  6
CONTINUOUS
 10
-990.662948
 20
-546.972883
 11
-930.662948
 21
-546.972883
  0
TEXT
  8
0
 62
     1
 10
-945.996281
 20
-185.972883
 40
32.000000
 50
90.000000
 41
0.89 
  1
Ｌ（有効長）
 72
     5
 11
-945.996281
 21
10.027117
  0
ENDBLK
  0
BLOCK
  8
0
  2
G19
 70
     0
 10
0
 20
0
  0
LINE
  8
0
 62
     1
  6
CONTINUOUS
 10
-880.662948
 20
438.027117
 11
-880.662948
 21
-546.972883
  0
SOLID
  8
0
 62
     1
 10
-874.192472
 20
413.878971
 11
-887.133424
 21
413.878971
 12
-880.662948
 22
438.027117
 13
-880.662948
 23
438.027117
  0
SOLID
  8
0
 62
     1
 10
-887.133424
 20
-522.824738
 11
-874.192472
 21
-522.824738
 12
-880.662948
 22
-546.972883
 13
-880.662948
 23
-546.972883
  0
LINE
  8
0
 62
     1
  6
CONTINUOUS
 10
-930.662948
 20
438.027117
 11
-870.662948
 21
438.027117
  0
LINE
  8
0
 62
     1
  6
CONTINUOUS
 10
-930.662948
 20
-546.972883
 11
-870.662948
 21
-546.972883
  0
TEXT
  8
0
 62
     1
 10
-885.996281
 20
-90.472883
 40
32.000000
 50
90.000000
 41
0.97 
  1
Ｌｔ
 72
     5
 11
-885.996281
 21
-18.472883
  0
ENDBLK
  0
BLOCK
  8
0
  2
G20
 70
     0
 10
0
 20
0
  0
TEXT
  8
0
 62
     3
 10
-1728.419845
 20
886.225678
 40
32.000000
 50
0.000000E+00
 41
0.95 
  1
受口深さ　
 72
     5
 11
-1552.419845
 21
886.225678
  0
ENDBLK
  0
BLOCK
  8
0
  2
G21
 70
     0
 10
0
 20
0
  0
LINE
  8
0
 62
     1
  6
CONTINUOUS
 10
-1517.739862
 20
871.838562
 11
-1567.739862
 21
871.838562
  0
SOLID
  8
0
 62
     1
 10
-1541.888007
 20
865.368086
 11
-1541.888007
 21
878.309038
 12
-1517.739862
 22
871.838562
 13
-1517.739862
 23
871.838562
  0
LINE
  8
0
 62
     1
  6
CONTINUOUS
 10
-1402.739862
 20
871.838562
 11
-1452.739862
 21
871.838562
  0
SOLID
  8
0
 62
     1
 10
-1428.591716
 20
878.309038
 11
-1428.591716
 21
865.368086
 12
-1452.739862
 22
871.838562
 13
-1452.739862
 23
871.838562
  0
TEXT
  8
0
 62
     1
 10
-1503.239862
 20
877.171895
 40
32.000000
 50
360.000000
 41
0.56 
  1
65
 72
     5
 11
-1467.239862
 21
877.171895
  0
LINE
  8
0
 62
     1
  6
CONTINUOUS
 10
-1517.739862
 20
799.448109
 11
-1517.739862
 21
931.838562
  0
LINE
  8
0
 62
     1
  6
CONTINUOUS
 10
-1452.739862
 20
796.948109
 11
-1452.739862
 21
881.838562
  0
LINE
  8
0
 62
     1
  6
CONTINUOUS
 10
-1452.739862
 20
871.838562
 11
-1517.739862
 21
871.838562
  0
ENDBLK
  0
BLOCK
  8
0
  2
G22
 70
     0
 10
0
 20
0
  0
LINE
  8
0
 62
     1
  6
CONTINUOUS
 10
-408.695764
 20
727.624747
 11
-366.516624
 21
727.624747
  0
SOLID
  8
0
 62
     1
 10
-384.547618
 20
734.095223
 11
-384.547618
 21
721.154271
 12
-408.695764
 22
727.624747
 13
-408.695764
 23
727.624747
  0
LINE
  8
0
 62
     1
  6
CONTINUOUS
 10
-473.377845
 20
727.624747
 11
-512.462570
 21
727.624747
  0
SOLID
  8
0
 62
     1
 10
-497.525991
 20
721.154271
 11
-497.525991
 21
734.095223
 12
-473.377845
 22
727.624747
 13
-473.377845
 23
727.624747
  0
TEXT
  8
0
 62
     1
 10
-457.169997
 20
732.958080
 40
32.000000
 50
0.000000E+00
 41
0.56 
  1
65
 72
     5
 11
-421.169997
 21
732.958080
  0
LINE
  8
0
 62
     1
  6
CONTINUOUS
 10
-408.695764
 20
647.500000
 11
-408.695764
 21
742.624747
  0
LINE
  8
0
 62
     1
  6
CONTINUOUS
 10
-473.377845
 20
727.624747
 11
-408.695764
 21
727.624747
  0
ENDBLK
  0
BLOCK
  8
0
  2
G23
 70
     0
 10
0
 20
0
  0
LINE
  8
0
 62
     1
  6
CONTINUOUS
 10
-408.695764
 20
789.624747
 11
-358.695764
 21
789.624747
  0
SOLID
  8
0
 62
     1
 10
-384.547618
 20
796.095223
 11
-384.547618
 21
783.154271
 12
-408.695764
 22
789.624747
 13
-408.695764
 23
789.624747
  0
TEXT
  8
0
 62
     1
 10
-516.695764
 20
794.958080
 40
32.000000
 50
0.000000E+00
 41
0.58 
  1
160
 72
     5
 11
-460.695764
 21
794.958080
  0
LINE
  8
0
 62
     1
  6
CONTINUOUS
 10
-408.695764
 20
742.624747
 11
-408.695764
 21
799.624747
  0
LINE
  8
0
 62
     1
  6
CONTINUOUS
 10
-408.695764
 20
789.624747
 11
-568.695764
 21
789.624747
  0
CIRCLE
  8
0
 62
     1
  6
CONTINUOUS
 10
-568.695764
 20
789.624747
 40
5.000000
  0
CIRCLE
  8
0
 62
     1
  6
CONTINUOUS
 10
-568.695764
 20
789.624747
 40
2.500000
  0
ENDBLK
  0
BLOCK
  8
0
  2
G24
 70
     0
 10
0
 20
0
  0
LINE
  8
0
 62
     1
  6
CONTINUOUS
 10
-1262.739862
 20
871.838562
 11
-1197.739862
 21
871.838562
  0
LINE
  8
0
 62
     1
  6
CONTINUOUS
 10
-1262.739862
 20
796.948109
 11
-1262.739862
 21
881.838562
  0
LINE
  8
0
 62
     1
  6
CONTINUOUS
 10
-1197.739862
 20
799.448109
 11
-1197.739862
 21
931.838562
  0
TEXT
  8
0
 62
     1
 10
-1248.239862
 20
877.171895
 40
32.000000
 50
0.000000E+00
 41
0.56 
  1
65
 72
     5
 11
-1212.239862
 21
877.171895
  0
LINE
  8
0
 62
     1
  6
CONTINUOUS
 10
-1312.739862
 20
871.838562
 11
-1262.739862
 21
871.838562
  0
SOLID
  8
0
 62
     1
 10
-1286.888007
 20
865.368086
 11
-1286.888007
 21
878.309038
 12
-1262.739862
 22
871.838562
 13
-1262.739862
 23
871.838562
  0
LINE
  8
0
 62
     1
  6
CONTINUOUS
 10
-1197.739862
 20
871.838562
 11
-1147.739862
 21
871.838562
  0
SOLID
  8
0
 62
     1
 10
-1173.591716
 20
878.309038
 11
-1173.591716
 21
865.368086
 12
-1197.739862
 22
871.838562
 13
-1197.739862
 23
871.838562
  0
ENDBLK
  0
BLOCK
  8
0
  2
G25
 70
     0
 10
0
 20
0
  0
LINE
  8
0
 62
     1
  6
CONTINUOUS
 10
-1124.485175
 20
664.448109
 11
-1124.485175
 21
789.448109
  0
SOLID
  8
0
 62
     1
 10
-1130.955651
 20
688.596254
 11
-1118.014699
 21
688.596254
 12
-1124.485175
 22
664.448109
 13
-1124.485175
 23
664.448109
  0
SOLID
  8
0
 62
     1
 10
-1118.014699
 20
765.299963
 11
-1130.955651
 21
765.299963
 12
-1124.485175
 22
789.448109
 13
-1124.485175
 23
789.448109
  0
LINE
  8
0
 62
     1
  6
CONTINUOUS
 10
-1187.739862
 20
664.448109
 11
-1114.485175
 21
664.448109
  0
LINE
  8
0
 62
     1
  6
CONTINUOUS
 10
-1187.739862
 20
789.448109
 11
-1114.485175
 21
789.448109
  0
TEXT
  8
0
 62
     1
 10
-1129.818508
 20
668.948109
 40
32.000000
 50
90.000000
 41
0.60 
  1
%%c125
 72
     5
 11
-1129.818508
 21
784.948109
  0
ENDBLK
  0
BLOCK
  8
0
  2
G26
 70
     0
 10
0
 20
0
  0
TEXT
  8
0
 62
     1
 10
-1596.327882
 20
668.948109
 40
32.000000
 50
90.000000
 41
0.60 
  1
%%c125
 72
     5
 11
-1596.327882
 21
784.948109
  0
LINE
  8
0
 62
     1
  6
CONTINUOUS
 10
-1527.739862
 20
789.448109
 11
-1600.994549
 21
789.448109
  0
LINE
  8
0
 62
     1
  6
CONTINUOUS
 10
-1527.739862
 20
664.448109
 11
-1600.994549
 21
664.448109
  0
LINE
  8
0
 62
     1
  6
CONTINUOUS
 10
-1590.994549
 20
664.448109
 11
-1590.994549
 21
789.448109
  0
SOLID
  8
0
 62
     1
 10
-1597.465025
 20
688.596254
 11
-1584.524072
 21
688.596254
 12
-1590.994549
 22
664.448109
 13
-1590.994549
 23
664.448109
  0
SOLID
  8
0
 62
     1
 10
-1584.524072
 20
765.299963
 11
-1597.465025
 21
765.299963
 12
-1590.994549
 22
789.448109
 13
-1590.994549
 23
789.448109
  0
ENDBLK
  0
BLOCK
  8
0
  2
G27
 70
     0
 10
0
 20
0
  0
TEXT
  8
0
 62
     3
 10
-1027.283774
 20
491.906037
 40
32.000000
 50
0.000000E+00
 41
0.95 
  1
受口深さ　
 72
     5
 11
-851.283774
 21
491.906037
  0
ENDBLK
  0
BLOCK
  8
0
  2
G28
 70
     0
 10
0
 20
0
  0
LINE
  8
0
 62
     1
  6
CONTINUOUS
 10
-826.926250
 20
492.131995
 11
-651.563768
 21
316.769514
  0
SOLID
  8
0
 62
     1
 10
-805.275615
 20
479.631995
 11
-814.426250
 21
470.481360
 12
-826.926250
 22
492.131995
 13
-826.926250
 23
492.131995
  0
SOLID
  8
0
 62
     1
 10
-673.214404
 20
329.269514
 11
-664.063768
 21
338.420149
 12
-651.563768
 22
316.769514
 13
-651.563768
 23
316.769514
  0
LINE
  8
0
 62
     1
  6
CONTINUOUS
 10
-663.448072
 20
655.610173
 11
-833.997318
 21
485.060928
  0
TEXT
  8
0
 62
     1
 10
-755.272763
 20
428.020980
 40
32.000000
 50
315.000000
 41
0.58 
  1
248
 72
     5
 11
-715.674784
 21
388.423001
  0
ENDBLK
  0
BLOCK
  8
0
  2
G29
 70
     0
 10
0
 20
0
  0
TEXT
  8
0
 62
     7
 10
-326.502775
 20
707.153071
 40
32.000000
 50
0.000000E+00
 41
0.66 
  1
％％ｃ　　　枝管
 72
     5
 11
-134.502775
 21
707.153071
  0
LINE
  8
0
 62
     3
  6
CONTINUOUS
 10
-326.801842
 20
697.655484
 11
-164.937600
 21
697.655484
  0
LINE
  8
0
 62
     3
  6
CONTINUOUS
 10
-326.801842
 20
689.655484
 11
-164.937600
 21
689.655484
  0
ENDBLK
  0
BLOCK
  8
0
  2
G30
 70
     0
 10
0
 20
0
  0
LINE
  8
0
 62
     3
  6
CONTINUOUS
 10
-506.195764
 20
415.000000
 11
-385.157253
 21
285.600239
  0
SOLID
  8
0
 62
     3
 10
-480.192045
 20
400.039833
 11
-493.003323
 21
388.056365
 12
-506.195764
 22
415.000000
 13
-506.195764
 23
415.000000
  0
TEXT
  8
0
 62
     3
 10
-385.157253
 20
290.933572
 40
32.000000
 50
0.000000E+00
 41
0.50 
  1
 
 72
     5
 11
-369.157253
 21
290.933572
  0
LINE
  8
0
 62
     3
  6
CONTINUOUS
 10
-385.157253
 20
285.600239
 11
-353.157253
 21
285.600239
  0
ENDBLK
  0
BLOCK
  8
0
  2
G31
 70
     0
 10
0
 20
0
  0
LINE
  8
0
 62
     3
  6
CONTINUOUS
 10
-339.894095
 20
258.691182
 11
-178.029853
 21
258.691182
  0
LINE
  8
0
 62
     3
  6
CONTINUOUS
 10
-339.894095
 20
266.691182
 11
-178.029853
 21
266.691182
  0
TEXT
  8
0
 62
     7
 10
-339.595028
 20
276.188770
 40
32.000000
 50
0.000000E+00
 41
0.66 
  1
％％ｃ　　　枝管
 72
     5
 11
-147.595028
 21
276.188770
  0
ENDBLK
  0
BLOCK
  8
0
  2
G32
 70
     0
 10
0
 20
0
  0
LINE
  8
0
 62
     1
  6
CONTINUOUS
 10
-1120.662948
 20
110.527117
 11
-1120.662948
 21
113.027117
  0
LINE
  8
0
 62
     1
  6
CONTINUOUS
 10
-1110.662948
 20
110.527117
 11
-1192.739862
 21
110.527117
  0
TEXT
  8
0
 62
     1
 10
-1125.996281
 20
24.799037
 40
32.000000
 50
90.000000
 41
0.58 
  1
2.5
 72
     5
 11
-1125.996281
 21
80.799037
  0
LINE
  8
0
 62
     1
  6
CONTINUOUS
 10
-1120.662948
 20
110.527117
 11
-1120.662948
 21
19.944416
  0
SOLID
  8
0
 62
     1
 10
-1114.192472
 20
86.378971
 11
-1127.133424
 21
86.378971
 12
-1120.662948
 22
110.527117
 13
-1120.662948
 23
110.527117
  0
ENDBLK
  0
BLOCK
  8
0
  2
G33
 70
     0
 10
0
 20
0
  0
LINE
  8
0
 62
     1
  6
CONTINUOUS
 10
-1594.816775
 20
110.527117
 11
-1594.816775
 21
19.944416
  0
SOLID
  8
0
 62
     1
 10
-1588.346299
 20
86.378971
 11
-1601.287251
 21
86.378971
 12
-1594.816775
 22
110.527117
 13
-1594.816775
 23
110.527117
  0
TEXT
  8
0
 62
     1
 10
-1600.150108
 20
24.799037
 40
32.000000
 50
90.000000
 41
0.58 
  1
2.5
 72
     5
 11
-1600.150108
 21
80.799037
  0
LINE
  8
0
 62
     1
  6
CONTINUOUS
 10
-1604.816775
 20
110.527117
 11
-1522.739862
 21
110.527117
  0
LINE
  8
0
 62
     1
  6
CONTINUOUS
 10
-1594.816775
 20
110.527117
 11
-1594.816775
 21
113.027117
  0
ENDBLK
  0
BLOCK
  8
0
  2
G34
 70
     0
 10
0
 20
0
  0
LINE
  8
0
 62
     1
  6
CONTINUOUS
 10
-1594.816775
 20
173.027117
 11
-1594.816775
 21
223.027117
  0
SOLID
  8
0
 62
     1
 10
-1602.581347
 20
202.004891
 11
-1587.052204
 21
202.004891
 12
-1594.816775
 22
173.027117
 13
-1594.816775
 23
173.027117
  0
TEXT
  8
0
 62
     1
 10
-1600.150108
 20
125.027117
 40
32.000000
 50
90.000000
 41
0.56 
  1
60
 72
     5
 11
-1600.150108
 21
161.027117
  0
LINE
  8
0
 62
     1
  6
CONTINUOUS
 10
-1533.673568
 20
173.027117
 11
-1604.816775
 21
173.027117
  0
LINE
  8
0
 62
     1
  6
CONTINUOUS
 10
-1522.739862
 20
113.027117
 11
-1604.816775
 21
113.027117
  0
LINE
  8
0
 62
     1
  6
CONTINUOUS
 10
-1594.816775
 20
113.027117
 11
-1594.816775
 21
173.027117
  0
CIRCLE
  8
0
 62
     1
  6
CONTINUOUS
 10
-1594.816775
 20
113.027117
 40
2.500000
  0
CIRCLE
  8
0
 62
     1
  6
CONTINUOUS
 10
-1594.816775
 20
113.027117
 40
1.250000
  0
ENDBLK
  0
BLOCK
  8
0
  2
G35
 70
     0
 10
0
 20
0
  0
LINE
  8
0
 62
     7
  6
CONTINUOUS
 10
-1517.739862
 20
799.448109
 11
-1517.739862
 21
940.057655
  0
LINE
  8
0
 62
     7
  6
CONTINUOUS
 10
-1357.739862
 20
832.063624
 11
-1357.739862
 21
940.057655
  0
LINE
  8
0
 62
     7
  6
CONTINUOUS
 10
-1517.739862
 20
930.057655
 11
-1357.739862
 21
930.057655
  0
SOLID
  8
0
 62
     7
 10
-1489.050719
 20
938.828806
 11
-1489.050719
 21
921.286504
 12
-1517.739862
 22
930.057655
 13
-1517.739862
 23
930.057655
  0
SOLID
  8
0
 62
     7
 10
-1386.429004
 20
921.286504
 11
-1386.429004
 21
938.828806
 12
-1357.739862
 22
930.057655
 13
-1357.739862
 23
930.057655
  0
TEXT
  8
0
 62
     7
 10
-1465.739862
 20
935.390985
 40
32.000000
 50
0.000000E+00
 41
0.58 
  1
160
 72
     5
 11
-1409.739862
 21
935.390985
  0
LINE
  8
0
 62
     7
  6
CONTINUOUS
 10
-1197.739862
 20
799.448109
 11
-1197.739862
 21
940.057655
  0
LINE
  8
0
 62
     7
  6
CONTINUOUS
 10
-1357.739862
 20
930.057655
 11
-1197.739862
 21
930.057655
  0
SOLID
  8
0
 62
     7
 10
-1329.050719
 20
938.828806
 11
-1329.050719
 21
921.286504
 12
-1357.739862
 22
930.057655
 13
-1357.739862
 23
930.057655
  0
SOLID
  8
0
 62
     7
 10
-1226.429004
 20
921.286504
 11
-1226.429004
 21
938.828806
 12
-1197.739862
 22
930.057655
 13
-1197.739862
 23
930.057655
  0
TEXT
  8
0
 62
     7
 10
-1305.739862
 20
935.390985
 40
32.000000
 50
0.000000E+00
 41
0.58 
  1
160
 72
     5
 11
-1249.739862
 21
935.390985
  0
ENDBLK
  0
BLOCK
  8
0
  2
G36
 70
     0
 10
0
 20
0
  0
LINE
  8
0
 62
     7
  6
CONTINUOUS
 10
-1285.739862
 20
631.948109
 11
-1050.662948
 21
631.948109
  0
LINE
  8
0
 62
     7
  6
CONTINUOUS
 10
-1121.219972
 20
726.948109
 11
-1050.662948
 21
726.948109
  0
LINE
  8
0
 62
     7
  6
CONTINUOUS
 10
-1060.662948
 20
631.948109
 11
-1060.662948
 21
726.948109
  0
SOLID
  8
0
 62
     7
 10
-1069.434099
 20
660.637251
 11
-1051.891797
 21
660.637251
 12
-1060.662948
 22
631.948109
 13
-1060.662948
 23
631.948109
  0
SOLID
  8
0
 62
     7
 10
-1051.891797
 20
698.258966
 11
-1069.434099
 21
698.258966
 12
-1060.662948
 22
726.948109
 13
-1060.662948
 23
726.948109
  0
TEXT
  8
0
 62
     7
 10
-1065.996278
 20
661.448109
 40
32.000000
 50
90.000000
 41
0.56 
  1
95
 72
     5
 11
-1065.996278
 21
697.448109
  0
ENDBLK
  0
BLOCK
  8
0
  2
G37
 70
     0
 10
0
 20
0
  0
LINE
  8
0
 62
     7
  6
CONTINUOUS
 10
-1432.739862
 20
448.027117
 11
-1432.739862
 21
491.551724
  0
LINE
  8
0
 62
     7
  6
CONTINUOUS
 10
-1282.739862
 20
448.027117
 11
-1282.739862
 21
491.551724
  0
LINE
  8
0
 62
     7
  6
CONTINUOUS
 10
-1432.739862
 20
481.551724
 11
-1282.739862
 21
481.551724
  0
SOLID
  8
0
 62
     7
 10
-1404.050719
 20
490.322875
 11
-1404.050719
 21
472.780573
 12
-1432.739862
 22
481.551724
 13
-1432.739862
 23
481.551724
  0
SOLID
  8
0
 62
     7
 10
-1311.429004
 20
472.780573
 11
-1311.429004
 21
490.322875
 12
-1282.739862
 22
481.551724
 13
-1282.739862
 23
481.551724
  0
TEXT
  8
0
 62
     7
 10
-1415.739862
 20
486.885054
 40
32.000000
 50
0.000000E+00
 41
0.60 
  1
%%c150
 72
     5
 11
-1299.739862
 21
486.885054
  0
ENDBLK
  0
BLOCK
  8
0
  2
G38
 70
     0
 10
0
 20
0
  0
LINE
  8
0
 62
     7
  6
CONTINUOUS
 10
-1443.739862
 20
268.786486
 11
-1443.739862
 21
553.748668
  0
LINE
  8
0
 62
     7
  6
CONTINUOUS
 10
-1271.739862
 20
258.786486
 11
-1271.739862
 21
553.748668
  0
LINE
  8
0
 62
     7
  6
CONTINUOUS
 10
-1443.739862
 20
543.748668
 11
-1271.739862
 21
543.748668
  0
SOLID
  8
0
 62
     7
 10
-1415.050719
 20
552.519819
 11
-1415.050719
 21
534.977516
 12
-1443.739862
 22
543.748668
 13
-1443.739862
 23
543.748668
  0
SOLID
  8
0
 62
     7
 10
-1300.429004
 20
534.977516
 11
-1300.429004
 21
552.519819
 12
-1271.739862
 22
543.748668
 13
-1271.739862
 23
543.748668
  0
TEXT
  8
0
 62
     7
 10
-1415.739862
 20
549.081997
 40
32.000000
 50
0.000000E+00
 41
0.60 
  1
%%c172
 72
     5
 11
-1299.739862
 21
549.081997
  0
ENDBLK
  0
BLOCK
  8
0
  2
G39
 70
     0
 10
0
 20
0
  0
LINE
  8
0
 62
     7
  6
CONTINUOUS
 10
-1412.739862
 20
-556.972883
 11
-1412.739862
 21
-631.607049
  0
LINE
  8
0
 62
     7
  6
CONTINUOUS
 10
-1302.739862
 20
-556.972883
 11
-1302.739862
 21
-631.607049
  0
LINE
  8
0
 62
     7
  6
CONTINUOUS
 10
-1412.739862
 20
-621.607049
 11
-1302.739862
 21
-621.607049
  0
SOLID
  8
0
 62
     7
 10
-1384.050719
 20
-612.835898
 11
-1384.050719
 21
-630.378201
 12
-1412.739862
 22
-621.607049
 13
-1412.739862
 23
-621.607049
  0
SOLID
  8
0
 62
     7
 10
-1331.429004
 20
-630.378201
 11
-1331.429004
 21
-612.835898
 12
-1302.739862
 22
-621.607049
 13
-1302.739862
 23
-621.607049
  0
TEXT
  8
0
 62
     7
 10
-1415.739862
 20
-616.273720
 40
32.000000
 50
0.000000E+00
 41
0.60 
  1
%%c110
 72
     5
 11
-1299.739862
 21
-616.273720
  0
ENDBLK
  0
BLOCK
  8
0
  2
G40
 70
     0
 10
0
 20
0
  0
LINE
  8
0
 62
     7
  6
CONTINUOUS
 10
-1443.739862
 20
-293.100972
 11
-1443.739862
 21
-696.251332
  0
LINE
  8
0
 62
     7
  6
CONTINUOUS
 10
-1271.739862
 20
-283.100972
 11
-1271.739862
 21
-696.251332
  0
LINE
  8
0
 62
     7
  6
CONTINUOUS
 10
-1443.739862
 20
-686.251332
 11
-1271.739862
 21
-686.251332
  0
SOLID
  8
0
 62
     7
 10
-1415.050719
 20
-677.480181
 11
-1415.050719
 21
-695.022484
 12
-1443.739862
 22
-686.251332
 13
-1443.739862
 23
-686.251332
  0
SOLID
  8
0
 62
     7
 10
-1300.429004
 20
-695.022484
 11
-1300.429004
 21
-677.480181
 12
-1271.739862
 22
-686.251332
 13
-1271.739862
 23
-686.251332
  0
TEXT
  8
0
 62
     7
 10
-1415.739862
 20
-680.918003
 40
32.000000
 50
0.000000E+00
 41
0.60 
  1
%%c172
 72
     5
 11
-1299.739862
 21
-680.918003
  0
ENDBLK
  0
BLOCK
  8
0
  2
G41
 70
     0
 10
0
 20
0
  0
LINE
  8
0
 62
     7
  6
CONTINUOUS
 10
-1188.769688
 20
-135.481581
 11
-1110.662948
 21
-135.481581
  0
LINE
  8
0
 62
     7
  6
CONTINUOUS
 10
-1187.739862
 20
-186.972883
 11
-1110.662948
 21
-186.972883
  0
LINE
  8
0
 62
     7
  6
CONTINUOUS
 10
-1120.662948
 20
-135.481581
 11
-1120.662948
 21
-186.972883
  0
LINE
  8
0
 62
     7
  6
CONTINUOUS
 10
-1120.662948
 20
-135.481581
 11
-1120.662948
 21
-85.481581
  0
SOLID
  8
0
 62
     7
 10
-1129.434099
 20
-106.792438
 11
-1111.891797
 21
-106.792438
 12
-1120.662948
 22
-135.481581
 13
-1120.662948
 23
-135.481581
  0
LINE
  8
0
 62
     7
  6
CONTINUOUS
 10
-1120.662948
 20
-186.972883
 11
-1120.662948
 21
-236.972883
  0
SOLID
  8
0
 62
     7
 10
-1111.891797
 20
-215.662026
 11
-1129.434099
 21
-215.662026
 12
-1120.662948
 22
-186.972883
 13
-1120.662948
 23
-186.972883
  0
TEXT
  8
0
 62
     7
 10
-1125.996278
 20
-177.227232
 40
32.000000
 50
90.000000
 41
0.86 
  1
Ｂ
 72
     5
 11
-1125.996278
 21
-145.227232
  0
ENDBLK
  0
BLOCK
  8
0
  2
G42
 70
     0
 10
0
 20
0
  0
POINT
  8
0
 62
     2
 10
-1198.769688
 20
-135.481581
  0
LINE
  8
0
 62
     2
  6
CONTINUOUS
 10
-1204.868468
 20
-80.592558
 11
-1202.738862
 21
-187.072863
  0
LINE
  8
0
 62
     2
  6
CONTINUOUS
 10
-1199.869468
 20
-80.492578
 11
-1197.739862
 21
-186.972883
  0
LINE
  8
0
 62
     2
  6
CONTINUOUS
 10
-1204.868468
 20
-80.592558
 11
-1199.869468
 21
-80.492578
  0
LINE
  8
0
 62
     2
  6
CONTINUOUS
 10
-1262.723512
 20
-188.272556
 11
-1197.739862
 21
-186.972883
  0
LINE
  8
0
 62
     2
  6
CONTINUOUS
 10
-1204.808480
 20
-83.591958
 11
-1262.739862
 21
-84.750586
  0
LINE
  8
0
 62
     2
  6
CENTER
 10
-1187.489859
 20
-135.255985
 11
-1270.769688
 21
-136.921581
  0
POINT
  8
0
 62
     2
 10
-1270.769688
 20
-128.921581
  0
ENDBLK
  0
BLOCK
  8
0
  2
G43
 70
     0
 10
0
 20
0
  0
CIRCLE
  8
0
 62
     2
  6
CONTINUOUS
 10
-1357.739862
 20
-134.472883
 40
35.000000
  0
LINE
  8
0
 62
     2
  6
CENTER
 10
-1429.453040
 20
-134.472883
 11
-1291.741640
 21
-134.472883
  0
ARC
  8
0
 62
     2
  6
CONTINUOUS
 10
-1357.739862
 20
-134.472883
 40
55.000000
 50
289.010880
 51
610.989120
  0
CIRCLE
  8
0
 62
     2
  6
CONTINUOUS
 10
-1357.739862
 20
-134.472883
 40
47.000000
  0
LINE
  8
0
 62
     2
  6
CONTINUOUS
 10
-1339.823739
 20
-186.473004
 11
-1375.655985
 21
-186.473004
  0
CIRCLE
  8
0
 62
     1
  6
CONTINUOUS
 10
-1357.739862
 20
-126.972883
 40
62.000000
  0
ENDBLK
  0
BLOCK
  8
0
  2
G44
 70
     0
 10
0
 20
0
  0
LINE
  8
0
 62
     7
  6
CONTINUOUS
 10
-1526.710036
 20
-135.481581
 11
-1579.091778
 21
-135.481581
  0
LINE
  8
0
 62
     7
  6
CONTINUOUS
 10
-1527.739862
 20
-186.972883
 11
-1579.091778
 21
-186.972883
  0
LINE
  8
0
 62
     7
  6
CONTINUOUS
 10
-1569.091778
 20
-135.481581
 11
-1569.091778
 21
-186.972883
  0
LINE
  8
0
 62
     7
  6
CONTINUOUS
 10
-1569.091778
 20
-135.481581
 11
-1569.091778
 21
-85.481581
  0
SOLID
  8
0
 62
     7
 10
-1577.862929
 20
-106.792438
 11
-1560.320627
 21
-106.792438
 12
-1569.091778
 22
-135.481581
 13
-1569.091778
 23
-135.481581
  0
LINE
  8
0
 62
     7
  6
CONTINUOUS
 10
-1569.091778
 20
-186.972883
 11
-1569.091778
 21
-236.972883
  0
SOLID
  8
0
 62
     7
 10
-1560.320627
 20
-215.662026
 11
-1577.862929
 21
-215.662026
 12
-1569.091778
 22
-186.972883
 13
-1569.091778
 23
-186.972883
  0
TEXT
  8
0
 62
     7
 10
-1574.425108
 20
-177.227232
 40
32.000000
 50
90.000000
 41
0.86 
  1
Ｂ
 72
     5
 11
-1574.425108
 21
-145.227232
  0
ENDBLK
  0
BLOCK
  8
0
  2
G45
 70
     0
 10
0
 20
0
  0
POINT
  8
0
 62
     2
 10
-1444.710036
 20
-128.921581
  0
LINE
  8
0
 62
     2
  6
CENTER
 10
-1527.989865
 20
-135.255985
 11
-1444.710036
 21
-136.921581
  0
LINE
  8
0
 62
     2
  6
CONTINUOUS
 10
-1510.671243
 20
-83.591958
 11
-1452.739862
 21
-84.750586
  0
LINE
  8
0
 62
     2
  6
CONTINUOUS
 10
-1452.756212
 20
-188.272556
 11
-1517.739862
 21
-186.972883
  0
LINE
  8
0
 62
     2
  6
CONTINUOUS
 10
-1510.611255
 20
-80.592558
 11
-1515.610256
 21
-80.492578
  0
LINE
  8
0
 62
     2
  6
CONTINUOUS
 10
-1515.610256
 20
-80.492578
 11
-1517.739862
 21
-186.972883
  0
LINE
  8
0
 62
     2
  6
CONTINUOUS
 10
-1510.611255
 20
-80.592558
 11
-1512.740861
 21
-187.072863
  0
POINT
  8
0
 62
     2
 10
-1516.710036
 20
-135.481581
  0
ENDBLK
  0
BLOCK
  8
0
  2
G46
 70
     0
 10
0
 20
0
  0
LINE
  8
0
 62
     2
  6
CONTINUOUS
 10
-513.695764
 20
415.000000
 11
-623.695764
 21
415.000000
  0
LINE
  8
0
 62
     2
  6
CONTINUOUS
 10
-623.695764
 20
420.000000
 11
-513.695764
 21
420.000000
  0
LINE
  8
0
 62
     2
  6
CONTINUOUS
 10
-620.661162
 20
420.000000
 11
-620.265473
 21
476.979167
  0
LINE
  8
0
 62
     2
  6
CONTINUOUS
 10
-516.730365
 20
420.000000
 11
-517.126054
 21
476.979167
  0
LINE
  8
0
 62
     2
  6
CONTINUOUS
 10
-623.695764
 20
420.000000
 11
-623.695764
 21
415.000000
  0
LINE
  8
0
 62
     2
  6
CONTINUOUS
 10
-513.695764
 20
420.000000
 11
-513.695764
 21
415.000000
  0
ENDBLK
  0
BLOCK
  8
0
  2
G47
 70
     0
 10
0
 20
0
  0
LINE
  8
0
 62
     7
  6
CONTINUOUS
 10
-398.695764
 20
630.000000
 11
-346.371072
 21
630.000000
  0
LINE
  8
0
 62
     7
  6
CONTINUOUS
 10
-398.695764
 20
520.000000
 11
-346.371072
 21
520.000000
  0
LINE
  8
0
 62
     7
  6
CONTINUOUS
 10
-356.371072
 20
630.000000
 11
-356.371072
 21
520.000000
  0
SOLID
  8
0
 62
     7
 10
-347.599921
 20
601.310857
 11
-365.142223
 21
601.310857
 12
-356.371072
 22
630.000000
 13
-356.371072
 23
630.000000
  0
SOLID
  8
0
 62
     7
 10
-365.142223
 20
548.689143
 11
-347.599921
 21
548.689143
 12
-356.371072
 22
520.000000
 13
-356.371072
 23
520.000000
  0
TEXT
  8
0
 62
     7
 10
-361.704401
 20
559.000000
 40
32.000000
 50
90.000000
 41
0.86 
  1
Ａ
 72
     5
 11
-361.704401
 21
591.000000
  0
ENDBLK
  0
BLOCK
  8
0
  2
G48
 70
     0
 10
0
 20
0
  0
LINE
  8
0
 62
     2
  6
CONTINUOUS
 10
-408.695764
 20
520.000000
 11
-408.695764
 21
630.000000
  0
LINE
  8
0
 62
     2
  6
CONTINUOUS
 10
-413.695764
 20
520.000000
 11
-413.695764
 21
630.000000
  0
LINE
  8
0
 62
     2
  6
CONTINUOUS
 10
-413.695764
 20
520.000000
 11
-408.695764
 21
520.000000
  0
LINE
  8
0
 62
     2
  6
CONTINUOUS
 10
-413.695764
 20
630.000000
 11
-408.695764
 21
630.000000
  0
LINE
  8
0
 62
     2
  6
CONTINUOUS
 10
-413.695764
 20
523.000000
 11
-473.695764
 21
523.000000
  0
LINE
  8
0
 62
     2
  6
CONTINUOUS
 10
-473.695764
 20
627.000000
 11
-413.695764
 21
627.000000
  0
ENDBLK
  0
BLOCK
  8
0
  2
G49
 70
     0
 10
0
 20
0
  0
LINE
  8
0
 62
     7
  6
CONTINUOUS
 10
-623.695764
 20
405.000000
 11
-623.695764
 21
353.019379
  0
LINE
  8
0
 62
     7
  6
CONTINUOUS
 10
-513.695764
 20
405.000000
 11
-513.695764
 21
353.019379
  0
LINE
  8
0
 62
     7
  6
CONTINUOUS
 10
-623.695764
 20
363.019379
 11
-513.695764
 21
363.019379
  0
SOLID
  8
0
 62
     7
 10
-595.006621
 20
371.790530
 11
-595.006621
 21
354.248228
 12
-623.695764
 22
363.019379
 13
-623.695764
 23
363.019379
  0
SOLID
  8
0
 62
     7
 10
-542.384906
 20
354.248228
 11
-542.384906
 21
371.790530
 12
-513.695764
 22
363.019379
 13
-513.695764
 23
363.019379
  0
TEXT
  8
0
 62
     7
 10
-584.695764
 20
368.352709
 40
32.000000
 50
0.000000E+00
 41
0.86 
  1
Ａ
 72
     5
 11
-552.695764
 21
368.352709
  0
ENDBLK
  0
BLOCK
  8
0
  2
G50
 70
     0
 10
0
 20
0
  0
LINE
  8
0
 62
     7
  6
CONTINUOUS
 10
-738.695764
 20
630.000000
 11
-791.020456
 21
630.000000
  0
LINE
  8
0
 62
     7
  6
CONTINUOUS
 10
-738.695764
 20
520.000000
 11
-791.020456
 21
520.000000
  0
LINE
  8
0
 62
     7
  6
CONTINUOUS
 10
-781.020456
 20
630.000000
 11
-781.020456
 21
520.000000
  0
SOLID
  8
0
 62
     7
 10
-772.249305
 20
601.310857
 11
-789.791607
 21
601.310857
 12
-781.020456
 22
630.000000
 13
-781.020456
 23
630.000000
  0
SOLID
  8
0
 62
     7
 10
-789.791607
 20
548.689143
 11
-772.249305
 21
548.689143
 12
-781.020456
 22
520.000000
 13
-781.020456
 23
520.000000
  0
TEXT
  8
0
 62
     7
 10
-786.353786
 20
559.000000
 40
32.000000
 50
90.000000
 41
0.86 
  1
Ａ
 72
     5
 11
-786.353786
 21
591.000000
  0
ENDBLK
  0
BLOCK
  8
0
  2
G51
 70
     0
 10
0
 20
0
  0
LINE
  8
0
 62
     2
  6
CONTINUOUS
 10
-663.695764
 20
627.000000
 11
-723.695764
 21
627.000000
  0
LINE
  8
0
 62
     2
  6
CONTINUOUS
 10
-723.695764
 20
523.000000
 11
-663.695764
 21
523.000000
  0
LINE
  8
0
 62
     2
  6
CONTINUOUS
 10
-723.695764
 20
630.000000
 11
-728.695764
 21
630.000000
  0
LINE
  8
0
 62
     2
  6
CONTINUOUS
 10
-723.695764
 20
520.000000
 11
-728.695764
 21
520.000000
  0
LINE
  8
0
 62
     2
  6
CONTINUOUS
 10
-723.695764
 20
520.000000
 11
-723.695764
 21
630.000000
  0
LINE
  8
0
 62
     2
  6
CONTINUOUS
 10
-728.695764
 20
520.000000
 11
-728.695764
 21
630.000000
  0
ENDBLK
  0
ENDSEC
  0
SECTION
  2
ENTITIES
  0
LINE
  8
3
 62
     4
  6
CONTINUOUS
 10
-1440.539450
 20
-186.482684
 11
-1437.470568
 21
-185.069332
  0
LINE
  8
3
 62
     4
  6
CONTINUOUS
 10
-1437.470568
 20
-185.069332
 11
-1434.498973
 21
-182.754439
  0
LINE
  8
3
 62
     4
  6
CONTINUOUS
 10
-1434.498973
 20
-182.754439
 11
-1431.670777
 21
-179.573927
  0
LINE
  8
3
 62
     4
  6
CONTINUOUS
 10
-1431.670777
 20
-179.573927
 11
-1429.029870
 21
-175.577153
  0
LINE
  8
3
 62
     4
  6
CONTINUOUS
 10
-1429.029870
 20
-175.577153
 11
-1426.617233
 21
-170.826137
  0
LINE
  8
3
 62
     4
  6
CONTINUOUS
 10
-1426.617233
 20
-170.826137
 11
-1424.470304
 21
-165.394607
  0
LINE
  8
3
 62
     4
  6
CONTINUOUS
 10
-1424.470304
 20
-165.394607
 11
-1422.622401
 21
-159.366849
  0
LINE
  8
3
 62
     4
  6
CONTINUOUS
 10
-1422.622401
 20
-159.366849
 11
-1421.102198
 21
-152.836401
  0
LINE
  8
3
 62
     4
  6
CONTINUOUS
 10
-1421.102198
 20
-152.836401
 11
-1419.933286
 21
-145.904603
  0
LINE
  8
3
 62
     4
  6
CONTINUOUS
 10
-1419.933286
 20
-145.904603
 11
-1419.133805
 21
-138.679022
  0
LINE
  8
3
 62
     4
  6
CONTINUOUS
 10
-1419.933286
 20
-145.904603
 11
-1419.133805
 21
-138.679022
  0
ARC
  8
1
 62
     4
  6
CONTINUOUS
 10
-1251.938544
 20
-92.212691
 40
30.639745
 50
117.551999
 51
146.346996
  0
POINT
  8
3
 62
     7
 10
-1271.739862
 20
-66.972883
  0
POINT
  8
3
 62
     4
 10
-1271.739862
 20
-188.972883
  0
ARC
  8
3
 62
     4
  6
CONTINUOUS
 10
-1268.739862
 20
-191.972883
 40
3.000000
 50
90.000000
 51
180.000000
  0
LINE
  8
3
 62
     4
  6
CONTINUOUS
 10
-1264.739862
 20
-188.972883
 11
-1268.739862
 21
-188.972883
  0
ARC
  8
3
 62
     4
  6
CONTINUOUS
 10
-1264.739862
 20
-186.972883
 40
2.000000
 50
-90.000000
 51
0.000000E+00
  0
LINE
  8
3
 62
     4
  6
CONTINUOUS
 10
-1262.739862
 20
-186.972883
 11
-1262.739862
 21
-66.972883
  0
ARC
  8
3
 62
     4
  6
CONTINUOUS
 10
-1264.739862
 20
-66.972883
 40
2.000000
 50
0.000000E+00
 51
90.000000
  0
LINE
  8
3
 62
     4
  6
CONTINUOUS
 10
-1424.893237
 20
-81.972883
 11
-1401.113241
 21
-81.972883
  0
LINE
  8
0
 62
     2
  6
CONTINUOUS
 10
-1455.739862
 20
-31.471285
 11
-1455.739862
 21
-29.471285
  0
LINE
  8
0
 62
     2
  6
CONTINUOUS
 10
-1462.739862
 20
-28.471285
 11
-1357.739862
 21
-28.471285
  0
LINE
  8
0
 62
     2
  6
CONTINUOUS
 10
-1455.739862
 20
-31.471285
 11
-1259.739862
 21
-31.471285
  0
LINE
  8
0
 62
     2
  6
CONTINUOUS
 10
-1462.739862
 20
-28.471285
 11
-1462.739862
 21
-20.471285
  0
LINE
  8
0
 62
     3
  6
CONTINUOUS
 10
-1271.739862
 20
238.027117
 11
-1271.739862
 21
248.786486
  0
LINE
  8
3
 62
     3
  6
CONTINUOUS
 10
-1282.739862
 20
433.027117
 11
-1357.739862
 21
433.027117
  0
LINE
  8
3
 62
     3
  6
CONTINUOUS
 10
-1432.739862
 20
438.027117
 11
-1282.739862
 21
438.027117
  0
LINE
  8
3
 62
     3
  6
CONTINUOUS
 10
-1432.739862
 20
438.027117
 11
-1432.739862
 21
433.027117
  0
LINE
  8
0
 62
     3
  6
CONTINUOUS
 10
-1271.739862
 20
108.027117
 11
-1271.739862
 21
-13.471285
  0
LINE
  8
0
 62
     3
  6
CONTINUOUS
 10
-728.695764
 20
637.500000
 11
-807.920428
 21
708.263800
  0
SOLID
  8
0
 62
     3
 10
-755.480096
 20
651.012940
 11
-745.135206
 21
662.594715
 12
-728.695764
 22
637.500000
 13
-728.695764
 23
637.500000
  0
ARC
  8
3
 62
     3
  6
CONTINUOUS
 10
-1295.739862
 20
361.027117
 40
10.000000
 50
-57.472862
 51
0.000000E+00
  0
LINE
  8
3
 62
     3
  6
CONTINUOUS
 10
-1429.739862
 20
428.444541
 11
-1429.739862
 21
361.027117
  0
LINE
  8
3
 62
     3
  6
CONTINUOUS
 10
-1285.739862
 20
428.444541
 11
-1285.739862
 21
361.027117
  0
ARC
  8
3
 62
     3
  6
CONTINUOUS
 10
-1419.739862
 20
361.027117
 40
10.000000
 50
180.000000
 51
238.038250
  0
LINE
  8
3
 62
     3
  6
CENTER
 10
-1191.806156
 20
173.027117
 11
-1525.465340
 21
173.027117
  0
LINE
  8
0
 62
     2
  6
CONTINUOUS
 10
-1259.739862
 20
-13.471285
 11
-1252.739862
 21
-20.471285
  0
ARC
  8
3
 62
     3
  6
CONTINUOUS
 10
-1434.739862
 20
428.444541
 40
5.000000
 50
0.000000E+00
 51
66.421822
  0
LINE
  8
3
 62
     3
  6
CONTINUOUS
 10
-1282.739862
 20
438.027117
 11
-1282.739862
 21
433.027117
  0
ARC
  8
0
 62
     3
  6
CONTINUOUS
 10
-1306.739862
 20
248.786486
 40
35.000000
 50
0.000000E+00
 51
17.716492
  0
ARC
  8
3
 62
     3
  6
CONTINUOUS
 10
-1280.739862
 20
428.444541
 40
5.000000
 50
113.578178
 51
180.000000
  0
LINE
  8
3
 62
     3
  6
CONTINUOUS
 10
-1280.000839
 20
255.903002
 11
-1357.739862
 21
255.903002
  0
ARC
  8
1
 62
     4
  6
CONTINUOUS
 10
-1264.739862
 20
-186.972883
 40
2.000000
 50
-90.000000
 51
0.000000E+00
  0
ARC
  8
1
 62
     4
  6
CONTINUOUS
 10
-1264.739862
 20
-66.972883
 40
2.000000
 50
0.000000E+00
 51
90.000000
  0
LINE
  8
1
 62
     4
  6
CONTINUOUS
 10
-1262.739862
 20
-66.972883
 11
-1262.739862
 21
-186.972883
  0
ARC
  8
3
 62
     4
  6
CONTINUOUS
 10
-1437.739862
 20
-400.844795
 40
25.000000
 50
0.000000E+00
 51
14.708304
  0
LINE
  8
3
 62
     4
  6
CONTINUOUS
 10
-1442.592945
 20
-281.987407
 11
-1413.559088
 21
-394.497342
  0
ARC
  8
3
 62
     4
  6
CONTINUOUS
 10
-1408.739862
 20
-273.100972
 40
35.000000
 50
180.000000
 51
194.708304
  0
LINE
  8
3
 62
     4
  6
CONTINUOUS
 10
-1412.739862
 20
-400.844795
 11
-1412.739862
 21
-544.972883
  0
ARC
  8
3
 62
     4
  6
CONTINUOUS
 10
-1277.739862
 20
-400.844795
 40
25.000000
 50
165.291696
 51
180.000000
  0
LINE
  8
3
 62
     4
  6
CONTINUOUS
 10
-1272.886778
 20
-281.987407
 11
-1301.920636
 21
-394.497342
  0
ARC
  8
3
 62
     4
  6
CONTINUOUS
 10
-1306.739862
 20
-273.100972
 40
35.000000
 50
-14.708304
 51
0.000000E+00
  0
LINE
  8
3
 62
     4
  6
CONTINUOUS
 10
-1302.739862
 20
-400.844795
 11
-1302.739862
 21
-544.972883
  0
LINE
  8
3
 62
     4
  6
CONTINUOUS
 10
-1304.739862
 20
-546.972883
 11
-1410.739862
 21
-546.972883
  0
LINE
  8
3
 62
     4
  6
CONTINUOUS
 10
-1407.990773
 20
-396.972883
 11
-1307.488951
 21
-396.972883
  0
LINE
  8
3
 62
     4
  6
CONTINUOUS
 10
-1438.488951
 20
-276.972883
 11
-1276.990773
 21
-276.972883
  0
LINE
  8
3
 62
     4
  6
CONTINUOUS
 10
-1443.739862
 20
-276.972883
 11
-1443.739862
 21
-191.972883
  0
LINE
  8
3
 62
     4
  6
CONTINUOUS
 10
-1264.739862
 20
-56.273521
 11
-1450.739862
 21
-56.273521
  0
LINE
  8
3
 62
     4
  6
CONTINUOUS
 10
-1271.739862
 20
-273.100972
 11
-1271.739862
 21
-191.972883
  0
LINE
  8
3
 62
     4
  6
CONTINUOUS
 10
-1461.739862
 20
-46.972883
 11
-1253.739862
 21
-46.972883
  0
LINE
  8
3
 62
     4
  6
CONTINUOUS
 10
-1252.739862
 20
-31.972883
 11
-1462.739862
 21
-31.972883
  0
ARC
  8
3
 62
     4
  6
CONTINUOUS
 10
-1410.739862
 20
-544.972883
 40
2.000000
 50
180.000000
 51
270.000000
  0
ARC
  8
3
 62
     4
  6
CONTINUOUS
 10
-1304.739862
 20
-544.972883
 40
2.000000
 50
-90.000000
 51
0.000000E+00
  0
LINE
  8
3
 62
     4
  6
CONTINUOUS
 10
-1252.739862
 20
-31.972883
 11
-1252.739862
 21
-46.972883
  0
LINE
  8
3
 62
     4
  6
CONTINUOUS
 10
-1253.739862
 20
-46.972883
 11
-1252.739862
 21
-46.972883
  0
LINE
  8
3
 62
     3
  6
CENTER
 10
-1436.228714
 20
-55.916452
 11
-1436.228714
 21
-25.425681
  0
LINE
  8
3
 62
     3
  6
CENTER
 10
-1279.251009
 20
-55.916452
 11
-1279.251009
 21
-25.425681
  0
ARC
  8
3
 62
     4
  6
CONTINUOUS
 10
-1253.739862
 20
-48.972883
 40
2.000000
 50
90.000000
 51
180.000000
  0
LINE
  8
3
 62
     4
  6
CONTINUOUS
 10
-1255.739862
 20
-48.972883
 11
-1255.739862
 21
-50.472883
  0
LINE
  8
3
 62
     4
  6
CONTINUOUS
 10
-1290.586486
 20
-81.972883
 11
-1314.366483
 21
-81.972883
  0
ARC
  8
3
 62
     4
  6
CONTINUOUS
 10
-1257.239862
 20
-50.472883
 40
1.500000
 50
-90.000000
 51
0.000000E+00
  0
LINE
  8
3
 62
     4
  6
CONTINUOUS
 10
-1257.239862
 20
-51.972883
 11
-1458.239862
 21
-51.972883
  0
LINE
  8
3
 62
     4
  6
CONTINUOUS
 10
-1261.180713
 20
-51.972883
 11
-1264.739862
 21
-56.273521
  0
LINE
  8
3
 62
     4
  6
CONTINUOUS
 10
-1264.739862
 20
-56.273521
 11
-1264.739862
 21
-64.972883
  0
LINE
  8
3
 62
     4
  6
CONTINUOUS
 10
-1450.739862
 20
-56.273521
 11
-1450.739862
 21
-64.972883
  0
LINE
  8
3
 62
     4
  6
CONTINUOUS
 10
-1454.299010
 20
-51.972883
 11
-1450.739862
 21
-56.273521
  0
ARC
  8
3
 62
     4
  6
CONTINUOUS
 10
-1458.239862
 20
-50.472883
 40
1.500000
 50
180.000000
 51
270.000000
  0
LINE
  8
3
 62
     4
  6
CONTINUOUS
 10
-1459.739862
 20
-48.972883
 11
-1459.739862
 21
-50.472883
  0
ARC
  8
3
 62
     4
  6
CONTINUOUS
 10
-1461.739862
 20
-48.972883
 40
2.000000
 50
0.000000E+00
 51
90.000000
  0
LINE
  8
3
 62
     4
  6
CONTINUOUS
 10
-1461.739862
 20
-46.972883
 11
-1462.739862
 21
-46.972883
  0
LINE
  8
3
 62
     4
  6
CONTINUOUS
 10
-1462.739862
 20
-31.972883
 11
-1462.739862
 21
-46.972883
  0
LINE
  8
0
 62
     3
  6
CONTINUOUS
 10
-1443.739862
 20
248.786486
 11
-1443.739862
 21
238.027117
  0
ARC
  8
0
 62
     3
  6
CONTINUOUS
 10
-1408.739862
 20
248.786486
 40
35.000000
 50
162.283508
 51
180.000000
  0
LINE
  8
3
 62
     3
  6
CONTINUOUS
 10
-1296.769878
 20
352.543100
 11
-1357.739862
 21
352.543100
  0
LINE
  8
0
 62
     3
  6
CONTINUOUS
 10
-1418.493178
 20
334.836132
 11
-1442.079949
 21
259.437240
  0
LINE
  8
0
 62
     3
  6
CONTINUOUS
 10
-1296.986545
 20
334.836132
 11
-1273.399774
 21
259.437240
  0
ARC
  8
2
 62
     3
  6
CONTINUOUS
 10
-1432.781787
 20
339.400741
 40
15.000000
 50
-17.716492
 51
59.888987
  0
LINE
  8
3
 62
     4
  6
CENTER
 10
-1357.739862
 20
-319.368262
 11
-1357.739862
 21
-7.290674
  0
LINE
  8
3
 62
     4
  6
CENTER
 10
-1357.739862
 20
-560.060403
 11
-1357.739862
 21
-319.368262
  0
LINE
  8
0
 62
     2
  6
CONTINUOUS
 10
-1455.739862
 20
-13.471285
 11
-1462.739862
 21
-20.471285
  0
LINE
  8
0
 62
     3
  6
CONTINUOUS
 10
-1443.739862
 20
108.027117
 11
-1443.739862
 21
-13.471285
  0
ARC
  8
2
 62
     3
  6
CONTINUOUS
 10
-1282.697936
 20
339.400741
 40
15.000000
 50
120.111013
 51
197.716492
  0
LINE
  8
3
 62
     3
  6
CONTINUOUS
 10
-1274.384056
 20
113.387137
 11
-1278.017657
 21
115.061817
  0
LINE
  8
3
 62
     3
  6
CONTINUOUS
 10
-1278.017657
 20
115.061817
 11
-1281.506711
 21
118.065583
  0
LINE
  8
3
 62
     3
  6
CONTINUOUS
 10
-1281.506711
 20
118.065583
 11
-1284.771216
 21
122.329561
  0
LINE
  8
3
 62
     3
  6
CONTINUOUS
 10
-1284.771216
 20
122.329561
 11
-1287.736321
 21
127.755983
  0
LINE
  8
3
 62
     3
  6
CONTINUOUS
 10
-1287.736321
 20
127.755983
 11
-1290.334039
 21
134.220426
  0
LINE
  8
3
 62
     3
  6
CONTINUOUS
 10
-1290.334039
 20
134.220426
 11
-1292.504807
 21
141.574668
  0
LINE
  8
3
 62
     3
  6
CONTINUOUS
 10
-1292.504807
 20
141.574668
 11
-1294.198851
 21
149.650083
  0
LINE
  8
3
 62
     3
  6
CONTINUOUS
 10
-1294.198851
 20
149.650083
 11
-1295.377328
 21
158.261509
  0
LINE
  8
3
 62
     3
  6
CONTINUOUS
 10
-1295.377328
 20
158.261509
 11
-1296.013218
 21
167.211496
  0
LINE
  8
3
 62
     3
  6
CONTINUOUS
 10
-1295.377328
 20
158.261509
 11
-1296.013218
 21
167.211496
  0
INSERT
  8
0
  2
G0
 10
0
 20
0
  0
LINE
  8
3
 62
     3
  6
CONTINUOUS
 10
-1273.926165
 20
232.780203
 11
-1277.621593
 21
231.243850
  0
LINE
  8
3
 62
     3
  6
CONTINUOUS
 10
-1277.621593
 20
231.243850
 11
-1281.177791
 21
228.335574
  0
LINE
  8
3
 62
     3
  6
CONTINUOUS
 10
-1281.177791
 20
228.335574
 11
-1284.510956
 21
224.123910
  0
LINE
  8
3
 62
     3
  6
CONTINUOUS
 10
-1284.510956
 20
224.123910
 11
-1287.542539
 21
218.708111
  0
LINE
  8
3
 62
     3
  6
CONTINUOUS
 10
-1287.542539
 20
218.708111
 11
-1290.201098
 21
212.215803
  0
LINE
  8
3
 62
     3
  6
CONTINUOUS
 10
-1290.201098
 20
212.215803
 11
-1292.423983
 21
204.799983
  0
LINE
  8
3
 62
     3
  6
CONTINUOUS
 10
-1292.423983
 20
204.799983
 11
-1294.158808
 21
196.635411
  0
LINE
  8
3
 62
     3
  6
CONTINUOUS
 10
-1294.158808
 20
196.635411
 11
-1295.364693
 21
187.914490
  0
LINE
  8
3
 62
     3
  6
CONTINUOUS
 10
-1295.364693
 20
187.914490
 11
-1296.013218
 21
178.842737
  0
LINE
  8
3
 62
     3
  6
CONTINUOUS
 10
-1295.364693
 20
187.914490
 11
-1296.013218
 21
178.842737
  0
LINE
  8
0
 62
     7
  6
CONTINUOUS
 10
-1210.260304
 20
279.111644
 11
-1210.260304
 21
237.327305
  0
SOLID
  8
0
 62
     7
 10
-1218.024875
 20
266.305080
 11
-1202.495733
 21
266.305080
 12
-1210.260304
 22
237.327305
 13
-1210.260304
 23
237.327305
  0
INSERT
  8
0
  2
G1
 10
0
 20
0
  0
LINE
  8
0
 62
     3
  6
CONTINUOUS
 10
-1452.739862
 20
233.027117
 11
-1452.739862
 21
113.027117
  0
TEXT
  8
0
 62
     6
 10
-1293.607746
 20
1169.451072
 40
32.000000
 50
0.000000E+00
 41
0.86 
  1
ａ
 72
     5
 11
-1261.607746
 21
1169.451072
  0
INSERT
  8
0
  2
G2
 10
0
 20
0
  0
TEXT
  8
0
 62
     7
 10
-1243.885785
 20
291.390527
 40
32.000000
 50
0.000000E+00
 41
0.78 
  1
７５枝管
 72
     5
 11
-1131.885785
 21
291.390527
  0
LINE
  8
3
 62
     4
  6
CONTINUOUS
 10
-1426.278439
 20
-83.890495
 11
-1425.108535
 21
-86.791012
  0
LINE
  8
3
 62
     4
  6
CONTINUOUS
 10
-1425.108535
 20
-86.791012
 11
-1424.022686
 21
-89.872809
  0
LINE
  8
3
 62
     4
  6
CONTINUOUS
 10
-1424.022686
 20
-89.872809
 11
-1423.025791
 21
-93.121981
  0
LINE
  8
3
 62
     4
  6
CONTINUOUS
 10
-1423.025791
 20
-93.121981
 11
-1422.122346
 21
-96.523870
  0
LINE
  8
3
 62
     4
  6
CONTINUOUS
 10
-1422.122346
 20
-96.523870
 11
-1421.316427
 21
-100.063128
  0
LINE
  8
3
 62
     4
  6
CONTINUOUS
 10
-1421.316427
 20
-100.063128
 11
-1420.611671
 21
-103.723789
  0
LINE
  8
3
 62
     4
  6
CONTINUOUS
 10
-1420.611671
 20
-103.723789
 11
-1420.011257
 21
-107.489336
  0
LINE
  8
3
 62
     4
  6
CONTINUOUS
 10
-1420.011257
 20
-107.489336
 11
-1419.517893
 21
-111.342783
  0
LINE
  8
3
 62
     4
  6
CONTINUOUS
 10
-1419.517893
 20
-111.342783
 11
-1419.133805
 21
-115.266745
  0
LINE
  8
3
 62
     4
  6
CONTINUOUS
 10
-1419.517893
 20
-111.342783
 11
-1419.133805
 21
-115.266745
  0
ARC
  8
3
 62
     4
  6
CONTINUOUS
 10
-1417.868044
 20
-55.024384
 40
28.500781
 50
225.057601
 51
244.512889
  0
POINT
  8
3
 62
     7
 10
-1443.739862
 20
-66.972883
  0
ARC
  8
3
 62
     4
  6
CONTINUOUS
 10
-1297.611679
 20
-55.024384
 40
28.500781
 50
295.487111
 51
314.942399
  0
ARC
  8
1
 62
     4
  6
CONTINUOUS
 10
-1450.739862
 20
-186.972883
 40
2.000000
 50
180.000000
 51
270.000000
  0
ARC
  8
1
 62
     4
  6
CONTINUOUS
 10
-1450.739862
 20
-66.972883
 40
2.000000
 50
90.000000
 51
180.000000
  0
ARC
  8
1
 62
     4
  6
CONTINUOUS
 10
-1446.739862
 20
-191.972883
 40
3.000000
 50
0.000000E+00
 51
90.000000
  0
LINE
  8
1
 62
     4
  6
CONTINUOUS
 10
-1446.739862
 20
-188.972883
 11
-1450.739862
 21
-188.972883
  0
ARC
  8
1
 62
     4
  6
CONTINUOUS
 10
-1463.541179
 20
-92.212691
 40
30.639745
 50
33.671563
 51
62.448001
  0
LINE
  8
1
 62
     4
  6
CONTINUOUS
 10
-1452.739862
 20
-66.972883
 11
-1452.739862
 21
-186.972883
  0
LINE
  8
3
 62
     4
  6
CONTINUOUS
 10
-1289.201285
 20
-83.890495
 11
-1290.257896
 21
-86.492581
  0
LINE
  8
3
 62
     4
  6
CONTINUOUS
 10
-1290.257896
 20
-86.492581
 11
-1291.246832
 21
-89.242603
  0
LINE
  8
3
 62
     4
  6
CONTINUOUS
 10
-1291.246832
 20
-89.242603
 11
-1292.164480
 21
-92.130513
  0
LINE
  8
3
 62
     4
  6
CONTINUOUS
 10
-1292.164480
 20
-92.130513
 11
-1293.007484
 21
-95.145756
  0
LINE
  8
3
 62
     4
  6
CONTINUOUS
 10
-1293.007484
 20
-95.145756
 11
-1293.772766
 21
-98.277312
  0
LINE
  8
3
 62
     4
  6
CONTINUOUS
 10
-1293.772766
 20
-98.277312
 11
-1294.457527
 21
-101.513737
  0
LINE
  8
3
 62
     4
  6
CONTINUOUS
 10
-1294.457527
 20
-101.513737
 11
-1295.059265
 21
-104.843204
  0
LINE
  8
3
 62
     4
  6
CONTINUOUS
 10
-1295.059265
 20
-104.843204
 11
-1295.575782
 21
-108.253545
  0
LINE
  8
3
 62
     4
  6
CONTINUOUS
 10
-1295.575782
 20
-108.253545
 11
-1296.005189
 21
-111.732296
  0
LINE
  8
3
 62
     4
  6
CONTINUOUS
 10
-1296.005189
 20
-111.732296
 11
-1296.345918
 21
-115.266745
  0
LINE
  8
3
 62
     4
  6
CONTINUOUS
 10
-1296.005189
 20
-111.732296
 11
-1296.345918
 21
-115.266745
  0
LINE
  8
3
 62
     4
  6
CONTINUOUS
 10
-1274.940273
 20
-186.482684
 11
-1278.009156
 21
-185.069332
  0
LINE
  8
3
 62
     4
  6
CONTINUOUS
 10
-1278.009156
 20
-185.069332
 11
-1280.980751
 21
-182.754439
  0
LINE
  8
3
 62
     4
  6
CONTINUOUS
 10
-1280.980751
 20
-182.754439
 11
-1283.808946
 21
-179.573927
  0
LINE
  8
3
 62
     4
  6
CONTINUOUS
 10
-1283.808946
 20
-179.573927
 11
-1286.449853
 21
-175.577153
  0
LINE
  8
3
 62
     4
  6
CONTINUOUS
 10
-1286.449853
 20
-175.577153
 11
-1288.862491
 21
-170.826137
  0
LINE
  8
3
 62
     4
  6
CONTINUOUS
 10
-1288.862491
 20
-170.826137
 11
-1291.009419
 21
-165.394607
  0
LINE
  8
3
 62
     4
  6
CONTINUOUS
 10
-1291.009419
 20
-165.394607
 11
-1292.857323
 21
-159.366849
  0
LINE
  8
3
 62
     4
  6
CONTINUOUS
 10
-1292.857323
 20
-159.366849
 11
-1294.377525
 21
-152.836401
  0
LINE
  8
3
 62
     4
  6
CONTINUOUS
 10
-1294.377525
 20
-152.836401
 11
-1295.546437
 21
-145.904603
  0
LINE
  8
3
 62
     4
  6
CONTINUOUS
 10
-1295.546437
 20
-145.904603
 11
-1296.345918
 21
-138.679022
  0
LINE
  8
3
 62
     4
  6
CONTINUOUS
 10
-1295.546437
 20
-145.904603
 11
-1296.345918
 21
-138.679022
  0
POINT
  8
0
 62
     3
 10
-1357.739862
 20
-39.972883
  0
POINT
  8
0
 62
     3
 10
-1357.739862
 20
-54.472883
  0
POINT
  8
0
 62
     3
 10
-1357.739862
 20
-76.972883
  0
ARC
  8
0
 62
     2
  6
CONTINUOUS
 10
-1456.739862
 20
-29.471285
 40
1.000000
 50
360.000000
 51
450.000000
  0
LINE
  8
0
 62
     2
  6
CONTINUOUS
 10
-1455.739862
 20
-13.471285
 11
-1259.739862
 21
-13.471285
  0
LINE
  8
3
 62
     3
  6
CONTINUOUS
 10
-1202.739862
 20
110.527117
 11
-1202.739862
 21
233.027117
  0
LINE
  8
3
 62
     3
  6
CONTINUOUS
 10
-1202.739862
 20
110.527117
 11
-1197.739862
 21
110.527117
  0
LINE
  8
3
 62
     3
  6
CONTINUOUS
 10
-1202.739862
 20
233.027117
 11
-1262.739862
 21
233.027117
  0
ARC
  8
1
 62
     3
  6
CONTINUOUS
 10
-1264.739862
 20
113.027117
 40
2.000000
 50
-90.000000
 51
0.000000E+00
  0
LINE
  8
3
 62
     3
  6
CONTINUOUS
 10
-1202.739862
 20
113.027117
 11
-1262.739862
 21
113.027117
  0
LINE
  8
3
 62
     3
  6
CONTINUOUS
 10
-1202.739862
 20
235.527117
 11
-1197.739862
 21
235.527117
  0
LINE
  8
3
 62
     3
  6
CONTINUOUS
 10
-1202.739862
 20
235.527117
 11
-1202.739862
 21
233.027117
  0
LINE
  8
3
 62
     3
  6
CONTINUOUS
 10
-1197.739862
 20
235.527117
 11
-1197.739862
 21
110.527117
  0
LINE
  8
1
 62
     3
  6
CONTINUOUS
 10
-1264.739862
 20
235.027117
 11
-1268.739862
 21
235.027117
  0
LINE
  8
1
 62
     3
  6
CONTINUOUS
 10
-1264.739862
 20
111.027117
 11
-1268.739862
 21
111.027117
  0
ARC
  8
1
 62
     3
  6
CONTINUOUS
 10
-1264.739862
 20
233.027117
 40
2.000000
 50
0.000000E+00
 51
90.000000
  0
ARC
  8
1
 62
     3
  6
CONTINUOUS
 10
-1268.739862
 20
238.027117
 40
3.000000
 50
180.000000
 51
270.000000
  0
ARC
  8
1
 62
     3
  6
CONTINUOUS
 10
-1268.739862
 20
108.027117
 40
3.000000
 50
90.000000
 51
180.000000
  0
ARC
  8
0
 62
     3
  6
CONTINUOUS
 10
-1306.739862
 20
248.786486
 40
35.000000
 50
0.000000E+00
 51
17.716492
  0
LINE
  8
0
 62
     3
  6
CONTINUOUS
 10
-1271.739862
 20
248.786486
 11
-1271.739862
 21
238.027117
  0
LINE
  8
0
 62
     2
  6
CONTINUOUS
 10
-1462.739862
 20
-20.471285
 11
-1357.739862
 21
-20.471285
  0
LINE
  8
3
 62
     3
  6
CENTER
 10
-1357.739862
 20
445.501565
 11
-1357.739862
 21
-7.290674
  0
LINE
  8
3
 62
     3
  6
CONTINUOUS
 10
-1435.478884
 20
255.903002
 11
-1357.739862
 21
255.903002
  0
LINE
  8
3
 62
     3
  6
CONTINUOUS
 10
-1418.709846
 20
352.543100
 11
-1357.739862
 21
352.543100
  0
LINE
  8
3
 62
     3
  6
CONTINUOUS
 10
-1432.739862
 20
433.027117
 11
-1357.739862
 21
433.027117
  0
POINT
  8
0
 62
     3
 10
-1357.739862
 20
363.027117
  0
TEXT
  8
0
 62
     6
 10
-1663.166393
 20
1078.812443
 40
35.000000
 50
0.000000E+00
 41
0.73 
  1
４ＳＦ－　　　－　　　　　　　　　　　０－Ｐ
 72
     5
 11
-1026.166393
 21
1078.812443
  0
INSERT
  8
0
  2
G3
 10
0
 20
0
  0
LINE
  8
0
 62
     1
  6
CONTINUOUS
 10
-663.695764
 20
640.638816
 11
-663.695764
 21
731.624747
  0
LINE
  8
0
 62
     2
  6
CONTINUOUS
 10
-1252.739862
 20
-28.471285
 11
-1252.739862
 21
-20.471285
  0
LINE
  8
0
 62
     2
  6
CONTINUOUS
 10
-1259.739862
 20
-31.471285
 11
-1259.739862
 21
-29.471285
  0
ARC
  8
0
 62
     2
  6
CONTINUOUS
 10
-1258.739862
 20
-29.471285
 40
1.000000
 50
90.000000
 51
180.000000
  0
LINE
  8
0
 62
     2
  6
CONTINUOUS
 10
-1252.739862
 20
-20.471285
 11
-1357.739862
 21
-20.471285
  0
LINE
  8
0
 62
     2
  6
CONTINUOUS
 10
-1252.739862
 20
-28.471285
 11
-1357.739862
 21
-28.471285
  0
INSERT
  8
0
  2
G4
 10
0
 20
0
  0
TEXT
  8
0
 62
     6
 10
-1194.933805
 20
1169.451072
 40
32.000000
 50
0.000000E+00
 41
0.86 
  1
ｃ
 72
     5
 11
-1162.933805
 21
1169.451072
  0
INSERT
  8
0
  2
G5
 10
0
 20
0
  0
LINE
  8
0
 62
     1
  6
CONTINUOUS
 10
-673.695764
 20
362.257250
 11
-673.695764
 21
291.624747
  0
INSERT
  8
0
  2
G6
 10
0
 20
0
  0
INSERT
  8
0
  2
G7
 10
0
 20
0
  0
ARC
  8
0
 62
     4
  6
CONTINUOUS
 10
-568.695764
 20
575.000000
 40
100.000000
 50
126.038338
 51
143.961662
  0
ARC
  8
3
 62
     3
  6
CONTINUOUS
 10
-568.695764
 20
575.000000
 40
105.000000
 50
170.096801
 51
190.978618
  0
ARC
  8
0
 62
     4
  6
CONTINUOUS
 10
-568.695764
 20
575.000000
 40
100.000000
 50
36.038338
 51
53.961662
  0
ARC
  8
0
 62
     4
  6
CONTINUOUS
 10
-568.695764
 20
575.000000
 40
100.000000
 50
306.038338
 51
323.961662
  0
CIRCLE
  8
3
 62
     4
  6
CONTINUOUS
 10
-568.695764
 20
575.000000
 40
88.000000
  0
LINE
  8
3
 62
     3
  6
CONTINUOUS
 10
-1441.553558
 20
232.780203
 11
-1438.222826
 21
231.460076
  0
LINE
  8
3
 62
     3
  6
CONTINUOUS
 10
-1438.222826
 20
231.460076
 11
-1434.997947
 21
229.024148
  0
LINE
  8
3
 62
     3
  6
CONTINUOUS
 10
-1434.997947
 20
229.024148
 11
-1431.940503
 21
225.518932
  0
LINE
  8
3
 62
     3
  6
CONTINUOUS
 10
-1431.940503
 20
225.518932
 11
-1429.108876
 21
221.011363
  0
LINE
  8
3
 62
     3
  6
CONTINUOUS
 10
-1429.108876
 20
221.011363
 11
-1426.557137
 21
215.587514
  0
LINE
  8
3
 62
     3
  6
CONTINUOUS
 10
-1426.557137
 20
215.587514
 11
-1424.334012
 21
209.350956
  0
LINE
  8
3
 62
     3
  6
CONTINUOUS
 10
-1424.334012
 20
209.350956
 11
-1422.481955
 21
202.420778
  0
LINE
  8
3
 62
     3
  6
CONTINUOUS
 10
-1422.481955
 20
202.420778
 11
-1421.036329
 21
194.929317
  0
LINE
  8
3
 62
     3
  6
CONTINUOUS
 10
-1421.036329
 20
194.929317
 11
-1420.024740
 21
187.019623
  0
LINE
  8
3
 62
     3
  6
CONTINUOUS
 10
-1420.024740
 20
187.019623
 11
-1419.466506
 21
178.842737
  0
LINE
  8
3
 62
     3
  6
CONTINUOUS
 10
-1420.024740
 20
187.019623
 11
-1419.466506
 21
178.842737
  0
ARC
  8
3
 62
     4
  6
CONTINUOUS
 10
-568.695764
 20
575.000000
 40
100.000000
 50
143.109614
 51
216.890386
  0
LINE
  8
3
 62
     4
  6
CONTINUOUS
 10
-659.946695
 20
655.964607
 11
-672.149392
 21
593.061853
  0
ARC
  8
3
 62
     3
  6
CONTINUOUS
 10
-568.695764
 20
575.000000
 40
105.000000
 50
-10.978618
 51
9.903199
  0
ARC
  8
3
 62
     3
  6
CONTINUOUS
 10
-568.695764
 20
575.000000
 40
105.000000
 50
260.096801
 51
279.903199
  0
LINE
  8
3
 62
     4
  6
CONTINUOUS
 10
-659.946695
 20
494.035393
 11
-672.149392
 21
556.938147
  0
LINE
  8
3
 62
     3
  6
CENTER
 10
-499.984007
 20
506.288243
 11
-479.302830
 21
485.607067
  0
LINE
  8
3
 62
     4
  6
CONTINUOUS
 10
-649.660371
 20
483.749069
 11
-586.757616
 21
471.546372
  0
ARC
  8
3
 62
     4
  6
CENTER
 10
-568.695764
 20
575.000000
 40
111.000000
 50
306.265016
 51
322.275712
  0
LINE
  8
3
 62
     3
  6
CENTER
 10
-636.333295
 20
507.362469
 11
-658.845251
 21
484.850513
  0
ARC
  8
3
 62
     4
  6
CENTER
 10
-568.695764
 20
575.000000
 40
111.000000
 50
216.069475
 51
234.182385
  0
ARC
  8
3
 62
     4
  6
CENTER
 10
-568.695764
 20
575.000000
 40
111.000000
 50
124.449115
 51
144.970079
  0
LINE
  8
3
 62
     4
  6
CONTINUOUS
 10
-487.731157
 20
483.749069
 11
-550.633911
 21
471.546372
  0
LINE
  8
3
 62
     4
  6
CONTINUOUS
 10
-588.692242
 20
678.078324
 11
-649.660371
 21
666.250931
  0
LINE
  8
3
 62
     3
  6
CENTER
 10
-636.686992
 20
642.991228
 11
-658.637692
 21
664.941928
  0
LINE
  8
3
 62
     4
  6
CONTINUOUS
 10
-477.444833
 20
494.035393
 11
-465.617440
 21
555.003522
  0
ARC
  8
3
 62
     4
  6
CONTINUOUS
 10
-490.206911
 20
496.511147
 40
13.000000
 50
280.978618
 51
349.021382
  0
ARC
  8
3
 62
     4
  6
CONTINUOUS
 10
-647.184617
 20
496.511147
 40
13.000000
 50
190.978618
 51
259.021382
  0
ARC
  8
3
 62
     4
  6
CONTINUOUS
 10
-647.184617
 20
653.488853
 40
13.000000
 50
100.978618
 51
169.021382
  0
LINE
  8
3
 62
     3
  6
CENTER
 10
-500.709899
 20
642.985865
 11
-478.969205
 21
664.726559
  0
LINE
  8
3
 62
     4
  6
CONTINUOUS
 10
-477.444833
 20
655.964607
 11
-465.242136
 21
593.061853
  0
LINE
  8
3
 62
     4
  6
CONTINUOUS
 10
-487.731157
 20
666.250931
 11
-548.699286
 21
678.078324
  0
ARC
  8
3
 62
     3
  6
CONTINUOUS
 10
-568.695764
 20
575.000000
 40
105.000000
 50
79.021382
 51
100.978618
  0
CIRCLE
  8
3
 62
     3
  6
CONTINUOUS
 10
-568.695764
 20
575.000000
 40
81.000000
  0
ARC
  8
3
 62
     4
  6
CONTINUOUS
 10
-490.206911
 20
653.488853
 40
13.000000
 50
10.978618
 51
79.021382
  0
LINE
  8
3
 62
     3
  6
CENTER
 10
-736.735826
 20
575.000000
 11
-392.764626
 21
575.000000
  0
LINE
  8
3
 62
     3
  6
CENTER
 10
-568.695764
 20
400.714592
 11
-568.695764
 21
690.276543
  0
CIRCLE
  8
3
 62
     4
  6
CONTINUOUS
 10
-647.184617
 20
653.488853
 40
7.000000
  0
CIRCLE
  8
3
 62
     4
  6
CONTINUOUS
 10
-490.206911
 20
653.488853
 40
7.000000
  0
CIRCLE
  8
3
 62
     4
  6
CONTINUOUS
 10
-490.206911
 20
496.511147
 40
7.000000
  0
CIRCLE
  8
3
 62
     4
  6
CONTINUOUS
 10
-647.184617
 20
496.511147
 40
7.000000
  0
ARC
  8
3
 62
     4
  6
CENTER
 10
-568.695764
 20
575.000000
 40
111.000000
 50
37.018997
 51
55.489571
  0
ARC
  8
3
 62
     4
  6
CONTINUOUS
 10
-568.695764
 20
575.000000
 40
100.000000
 50
53.109614
 51
126.890386
  0
ARC
  8
3
 62
     4
  6
CONTINUOUS
 10
-568.695764
 20
575.000000
 40
100.000000
 50
323.109614
 51
396.890386
  0
ARC
  8
3
 62
     4
  6
CONTINUOUS
 10
-568.695764
 20
575.000000
 40
100.000000
 50
233.109614
 51
306.890386
  0
ARC
  8
0
 62
     4
  6
CONTINUOUS
 10
-568.695764
 20
575.000000
 40
100.000000
 50
216.038338
 51
233.961662
  0
INSERT
  8
0
  2
G8
 10
0
 20
0
  0
TEXT
  8
0
 62
     6
 10
-1480.183521
 20
1078.910129
 40
35.000000
 50
0.000000E+00
 41
0.86 
  1
Ｂ
 72
     5
 11
-1445.183521
 21
1078.910129
  0
TEXT
  8
0
 62
     6
 10
-1359.509580
 20
1079.910129
 40
35.000000
 50
0.000000E+00
 41
0.86 
  1
Ｄ
 72
     5
 11
-1324.509580
 21
1079.910129
  0
TEXT
  8
0
 62
     6
 10
-1398.009580
 20
1144.959535
 40
32.000000
 50
0.000000E+00
 41
0.97 
  1
下部
 72
     5
 11
-1326.009580
 21
1144.959535
  0
TEXT
  8
0
 62
     6
 10
-1518.009580
 20
1144.959535
 40
32.000000
 50
0.000000E+00
 41
0.97 
  1
上部
 72
     5
 11
-1446.009580
 21
1144.959535
  0
TEXT
  8
0
 62
     6
 10
-1242.607746
 20
1169.451072
 40
32.000000
 50
0.000000E+00
 41
0.86 
  1
ｂ
 72
     5
 11
-1210.607746
 21
1169.451072
  0
CIRCLE
  8
0
 62
     6
  6
HIDDEN
 10
-1227.476893
 20
1093.777279
 40
20.000000
  0
TEXT
  8
0
 62
     6
 10
-1235.476893
 20
1077.777279
 40
32.000000
 50
0.000000E+00
 41
0.50 
  1
2
 72
     5
 11
-1219.476893
 21
1077.777279
  0
CIRCLE
  8
0
 62
     6
  6
HIDDEN
 10
-1227.476893
 20
1141.810698
 40
20.000000
  0
TEXT
  8
0
 62
     6
 10
-1235.476893
 20
1125.810698
 40
32.000000
 50
0.000000E+00
 41
0.50 
  1
1
 72
     5
 11
-1219.476893
 21
1125.810698
  0
LINE
  8
0
 62
     3
  6
CONTINUOUS
 10
-510.235137
 20
180.412278
 11
-252.458787
 21
180.412278
  0
LINE
  8
3
 62
     3
  6
CONTINUOUS
 10
-1441.095668
 20
113.387137
 11
-1437.820276
 21
114.833664
  0
LINE
  8
3
 62
     3
  6
CONTINUOUS
 10
-1437.820276
 20
114.833664
 11
-1434.655356
 21
117.361380
  0
LINE
  8
3
 62
     3
  6
CONTINUOUS
 10
-1434.655356
 20
117.361380
 11
-1431.659709
 21
120.923324
  0
LINE
  8
3
 62
     3
  6
CONTINUOUS
 10
-1431.659709
 20
120.923324
 11
-1428.888992
 21
125.453317
  0
LINE
  8
3
 62
     3
  6
CONTINUOUS
 10
-1428.888992
 20
125.453317
 11
-1426.394683
 21
130.867195
  0
LINE
  8
3
 62
     3
  6
CONTINUOUS
 10
-1426.394683
 20
130.867195
 11
-1424.223123
 21
137.064373
  0
LINE
  8
3
 62
     3
  6
CONTINUOUS
 10
-1424.223123
 20
137.064373
 11
-1422.414660
 21
143.929711
  0
LINE
  8
3
 62
     3
  6
CONTINUOUS
 10
-1422.414660
 20
143.929711
 11
-1421.002892
 21
151.335657
  0
LINE
  8
3
 62
     3
  6
CONTINUOUS
 10
-1421.002892
 20
151.335657
 11
-1420.014050
 21
159.144613
  0
LINE
  8
3
 62
     3
  6
CONTINUOUS
 10
-1420.014050
 20
159.144613
 11
-1419.466506
 21
167.211496
  0
LINE
  8
3
 62
     3
  6
CONTINUOUS
 10
-1420.014050
 20
159.144613
 11
-1419.466506
 21
167.211496
  0
ARC
  8
1
 62
     3
  6
CONTINUOUS
 10
-1450.739862
 20
113.027117
 40
2.000000
 50
180.000000
 51
270.000000
  0
LINE
  8
1
 62
     3
  6
CONTINUOUS
 10
-1450.739862
 20
235.027117
 11
-1447.239862
 21
235.027117
  0
LINE
  8
1
 62
     3
  6
CONTINUOUS
 10
-1450.739862
 20
111.027117
 11
-1447.239862
 21
111.027117
  0
ARC
  8
1
 62
     3
  6
CONTINUOUS
 10
-1450.739862
 20
233.027117
 40
2.000000
 50
90.000000
 51
180.000000
  0
INSERT
  8
0
  2
G9
 10
0
 20
0
  0
ARC
  8
1
 62
     3
  6
CONTINUOUS
 10
-1447.239862
 20
238.027117
 40
3.000000
 50
270.000000
 51
360.000000
  0
INSERT
  8
0
  2
G10
 10
0
 20
0
  0
TEXT
  8
0
 62
     3
 10
-500.575055
 20
185.745611
 40
32.000000
 50
360.000000
 41
0.87 
  1
Ｃ矢視　（下部）
 72
     5
 11
-244.575055
 21
185.745611
  0
ARC
  8
1
 62
     3
  6
CONTINUOUS
 10
-1447.239862
 20
108.027117
 40
3.000000
 50
0.000000E+00
 51
90.000000
  0
TEXT
  8
0
 62
     3
 10
-613.571135
 20
427.159553
 40
32.000000
 50
0.000000E+00
 41
0.86 
  1
ｂ
 72
     5
 11
-581.571135
 21
427.159553
  0
INSERT
  8
0
  2
G11
 10
0
 20
0
  0
INSERT
  8
0
  2
G12
 10
0
 20
0
  0
LINE
  8
0
 62
     1
  6
CONTINUOUS
 10
-645.192143
 20
323.141139
 11
-658.634836
 21
309.698446
  0
LINE
  8
0
 62
     1
  6
CONTINUOUS
 10
-1120.662948
 20
173.027117
 11
-1103.786954
 21
173.027117
  0
LINE
  8
0
 62
     1
  6
CONTINUOUS
 10
-990.662948
 20
173.027117
 11
-1110.662948
 21
173.027117
  0
INSERT
  8
0
  2
G13
 10
0
 20
0
  0
INSERT
  8
0
  2
G14
 10
0
 20
0
  0
INSERT
  8
0
  2
G15
 10
0
 20
0
  0
CIRCLE
  8
0
 62
     6
  6
HIDDEN
 10
-1278.476893
 20
1093.777279
 40
20.000000
  0
TEXT
  8
0
 62
     6
 10
-1286.476893
 20
1077.777279
 40
32.000000
 50
0.000000E+00
 41
0.50 
  1
2
 72
     5
 11
-1270.476893
 21
1077.777279
  0
CIRCLE
  8
0
 62
     6
  6
HIDDEN
 10
-1278.476893
 20
1141.810698
 40
20.000000
  0
TEXT
  8
0
 62
     6
 10
-1286.476893
 20
1125.810698
 40
32.000000
 50
0.000000E+00
 41
0.50 
  1
1
 72
     5
 11
-1270.476893
 21
1125.810698
  0
LINE
  8
0
 62
     1
  6
CONTINUOUS
 10
-673.695764
 20
565.000000
 11
-673.695764
 21
393.258534
  0
INSERT
  8
0
  2
G16
 10
0
 20
0
  0
LINE
  8
0
 62
     1
  6
CONTINUOUS
 10
-568.695764
 20
799.624747
 11
-568.695764
 21
699.723844
  0
INSERT
  8
0
  2
G17
 10
0
 20
0
  0
LINE
  8
3
 62
     3
  6
CONTINUOUS
 10
-1512.739862
 20
233.027117
 11
-1452.739862
 21
233.027117
  0
LINE
  8
3
 62
     3
  6
CONTINUOUS
 10
-1512.739862
 20
113.027117
 11
-1452.739862
 21
113.027117
  0
LINE
  8
3
 62
     3
  6
CONTINUOUS
 10
-1517.739862
 20
235.527117
 11
-1517.739862
 21
110.527117
  0
LINE
  8
3
 62
     3
  6
CONTINUOUS
 10
-1512.739862
 20
235.527117
 11
-1512.739862
 21
233.027117
  0
LINE
  8
3
 62
     3
  6
CONTINUOUS
 10
-1512.739862
 20
235.527117
 11
-1517.739862
 21
235.527117
  0
LINE
  8
3
 62
     3
  6
CONTINUOUS
 10
-1512.739862
 20
110.527117
 11
-1517.739862
 21
110.527117
  0
LINE
  8
3
 62
     3
  6
CONTINUOUS
 10
-1512.739862
 20
110.527117
 11
-1512.739862
 21
233.027117
  0
TEXT
  8
0
 62
     7
 10
-1583.593938
 20
291.390527
 40
32.000000
 50
360.000000
 41
0.78 
  1
７５枝管
 72
     5
 11
-1471.593938
 21
291.390527
  0
LINE
  8
0
 62
     7
  6
CONTINUOUS
 10
-1505.219420
 20
279.111644
 11
-1505.219420
 21
237.327305
  0
SOLID
  8
0
 62
     7
 10
-1512.983991
 20
266.305080
 11
-1497.454848
 21
266.305080
 12
-1505.219420
 22
237.327305
 13
-1505.219420
 23
237.327305
  0
CIRCLE
  8
0
 62
     3
  6
CONTINUOUS
 10
-1357.739862
 20
173.027117
 40
62.000000
  0
LINE
  8
0
 62
     1
  6
CONTINUOUS
 10
-463.695764
 20
291.624747
 11
-463.695764
 21
386.182154
  0
LINE
  8
0
 62
     1
  6
CONTINUOUS
 10
-463.695764
 20
565.000000
 11
-463.695764
 21
386.182154
  0
INSERT
  8
0
  2
G18
 10
0
 20
0
  0
INSERT
  8
0
  2
G19
 10
0
 20
0
  0
LINE
  8
0
 62
     1
  6
CONTINUOUS
 10
-814.120668
 20
470.000000
 11
-851.020456
 21
470.000000
  0
LINE
  8
0
 62
     1
  6
CONTINUOUS
 10
-578.695764
 20
470.000000
 11
-751.444159
 21
470.000000
  0
LINE
  8
0
 62
     1
  6
CONTINUOUS
 10
-1182.263693
 20
726.948109
 11
-1161.941592
 21
726.948109
  0
LINE
  8
0
 62
     3
  6
CONTINUOUS
 10
-1208.106547
 20
894.128306
 11
-1114.428755
 21
894.128306
  0
SOLID
  8
0
 62
     3
 10
-1179.128772
 20
901.892877
 11
-1179.128772
 21
886.363734
 12
-1208.106547
 22
894.128306
 13
-1208.106547
 23
894.128306
  0
LINE
  8
0
 62
     3
  6
CONTINUOUS
 10
-1114.428755
 20
894.128306
 11
-1114.428755
 21
931.195058
  0
INSERT
  8
0
  2
G20
 10
0
 20
0
  0
LINE
  8
0
 62
     3
  6
CONTINUOUS
 10
-1511.043004
 20
895.981643
 11
-1583.828626
 21
895.981643
  0
SOLID
  8
0
 62
     3
 10
-1540.020779
 20
888.217072
 11
-1540.020779
 21
903.746214
 12
-1511.043004
 22
895.981643
 13
-1511.043004
 23
895.981643
  0
LINE
  8
3
 62
     3
  6
CONTINUOUS
 10
-1512.739862
 20
786.948109
 11
-1452.739862
 21
786.948109
  0
LINE
  8
3
 62
     3
  6
CONTINUOUS
 10
-1512.739862
 20
666.948109
 11
-1452.739862
 21
666.948109
  0
INSERT
  8
0
  2
G21
 10
0
 20
0
  0
LINE
  8
3
 62
     3
  6
CONTINUOUS
 10
-1512.739862
 20
789.448109
 11
-1512.739862
 21
666.948109
  0
LINE
  8
3
 62
     3
  6
CONTINUOUS
 10
-1512.739862
 20
789.448109
 11
-1517.739862
 21
789.448109
  0
LINE
  8
3
 62
     3
  6
CONTINUOUS
 10
-1512.739862
 20
664.448109
 11
-1517.739862
 21
664.448109
  0
LINE
  8
3
 62
     3
  6
CONTINUOUS
 10
-1512.739862
 20
664.448109
 11
-1512.739862
 21
666.948109
  0
LINE
  8
3
 62
     3
  6
CENTER
 10
-1357.739862
 20
628.506949
 11
-1357.739862
 21
822.063624
  0
LINE
  8
3
 62
     3
  6
CENTER
 10
-1192.263693
 20
726.948109
 11
-1523.847882
 21
726.948109
  0
LINE
  8
0
 62
     1
  6
CONTINUOUS
 10
-289.371072
 20
575.000000
 11
-360.373881
 21
575.000000
  0
INSERT
  8
0
  2
G22
 10
0
 20
0
  0
TEXT
  8
0
 62
     3
 10
-457.578967
 20
596.647865
 40
32.000000
 50
0.000000E+00
 41
0.86 
  1
ａ
 72
     5
 11
-425.578967
 21
596.647865
  0
LINE
  8
0
 62
     1
  6
CONTINUOUS
 10
-473.695764
 20
640.638816
 11
-473.695764
 21
731.624747
  0
INSERT
  8
0
  2
G23
 10
0
 20
0
  0
CIRCLE
  8
0
 62
     3
  6
CONTINUOUS
 10
-1357.739862
 20
726.948109
 40
75.000000
  0
CIRCLE
  8
0
 62
     3
  6
CONTINUOUS
 10
-1357.739862
 20
726.948109
 40
86.500000
  0
LINE
  8
3
 62
     3
  6
CONTINUOUS
 10
-1202.739862
 20
666.948109
 11
-1262.739862
 21
666.948109
  0
CIRCLE
  8
0
 62
     6
  6
HIDDEN
 10
-1179.802953
 20
1093.777279
 40
20.000000
  0
TEXT
  8
0
 62
     6
 10
-1187.802953
 20
1077.777279
 40
32.000000
 50
0.000000E+00
 41
0.50 
  1
2
 72
     5
 11
-1171.802953
 21
1077.777279
  0
CIRCLE
  8
0
 62
     6
  6
HIDDEN
 10
-1179.802953
 20
1141.810698
 40
20.000000
  0
TEXT
  8
0
 62
     6
 10
-1187.802953
 20
1125.810698
 40
32.000000
 50
0.000000E+00
 41
0.50 
  1
1
 72
     5
 11
-1171.802953
 21
1125.810698
  0
CIRCLE
  8
0
 62
     6
  6
HIDDEN
 10
-1227.476893
 20
1093.777279
 40
20.000000
  0
TEXT
  8
0
 62
     6
 10
-1235.476893
 20
1077.777279
 40
32.000000
 50
0.000000E+00
 41
0.50 
  1
2
 72
     5
 11
-1219.476893
 21
1077.777279
  0
CIRCLE
  8
0
 62
     6
  6
HIDDEN
 10
-1227.476893
 20
1141.810698
 40
20.000000
  0
TEXT
  8
0
 62
     6
 10
-1235.476893
 20
1125.810698
 40
32.000000
 50
0.000000E+00
 41
0.50 
  1
1
 72
     5
 11
-1219.476893
 21
1125.810698
  0
LINE
  8
3
 62
     3
  6
CONTINUOUS
 10
-1202.739862
 20
789.448109
 11
-1202.739862
 21
666.948109
  0
LINE
  8
3
 62
     3
  6
CONTINUOUS
 10
-1202.739862
 20
789.448109
 11
-1197.739862
 21
789.448109
  0
LINE
  8
3
 62
     3
  6
CONTINUOUS
 10
-1202.739862
 20
664.448109
 11
-1197.739862
 21
664.448109
  0
LINE
  8
3
 62
     3
  6
CONTINUOUS
 10
-1202.739862
 20
664.448109
 11
-1202.739862
 21
666.948109
  0
LINE
  8
3
 62
     3
  6
CONTINUOUS
 10
-1197.739862
 20
664.448109
 11
-1197.739862
 21
789.448109
  0
LINE
  8
3
 62
     3
  6
CONTINUOUS
 10
-1202.739862
 20
786.948109
 11
-1262.739862
 21
786.948109
  0
LINE
  8
0
 62
     3
  6
CONTINUOUS
 10
-1262.739862
 20
666.948109
 11
-1262.739862
 21
786.948109
  0
LINE
  8
0
 62
     3
  6
CONTINUOUS
 10
-1264.739862
 20
664.948109
 11
-1292.739862
 21
664.948109
  0
ARC
  8
0
 62
     3
  6
CONTINUOUS
 10
-1264.739862
 20
666.948109
 40
2.000000
 50
-90.000000
 51
0.000000E+00
  0
LINE
  8
0
 62
     3
  6
CONTINUOUS
 10
-1264.739862
 20
788.948109
 11
-1297.421954
 21
788.948109
  0
ARC
  8
0
 62
     3
  6
CONTINUOUS
 10
-1264.739862
 20
786.948109
 40
2.000000
 50
0.000000E+00
 51
90.000000
  0
CIRCLE
  8
0
 62
     3
  6
CONTINUOUS
 10
-1357.739862
 20
726.948109
 40
52.000000
  0
CIRCLE
  8
0
 62
     3
  6
CONTINUOUS
 10
-1357.739862
 20
726.948109
 40
67.000000
  0
ARC
  8
0
 62
     3
  6
CONTINUOUS
 10
-1422.739862
 20
661.948109
 40
3.000000
 50
0.000000E+00
 51
90.000000
  0
ARC
  8
0
 62
     3
  6
CONTINUOUS
 10
-1292.739862
 20
661.948109
 40
3.000000
 50
90.000000
 51
180.000000
  0
LINE
  8
0
 62
     3
  6
CONTINUOUS
 10
-1452.739862
 20
786.948109
 11
-1452.739862
 21
666.948109
  0
LINE
  8
0
 62
     3
  6
CONTINUOUS
 10
-1450.739862
 20
788.948109
 11
-1418.057769
 21
788.948109
  0
ARC
  8
0
 62
     3
  6
CONTINUOUS
 10
-1450.739862
 20
786.948109
 40
2.000000
 50
90.000000
 51
180.000000
  0
LINE
  8
0
 62
     3
  6
CONTINUOUS
 10
-1450.739862
 20
664.948109
 11
-1422.739862
 21
664.948109
  0
ARC
  8
0
 62
     3
  6
CONTINUOUS
 10
-1450.739862
 20
666.948109
 40
2.000000
 50
180.000000
 51
270.000000
  0
LINE
  8
0
 62
     3
  6
CONTINUOUS
 10
-1297.739862
 20
631.948109
 11
-1417.739862
 21
631.948109
  0
LINE
  8
0
 62
     3
  6
CONTINUOUS
 10
-1295.739862
 20
633.948109
 11
-1295.739862
 21
661.948109
  0
ARC
  8
0
 62
     3
  6
CONTINUOUS
 10
-1297.739862
 20
633.948109
 40
2.000000
 50
270.000000
 51
360.000000
  0
LINE
  8
0
 62
     3
  6
CONTINUOUS
 10
-1419.739862
 20
633.948109
 11
-1419.739862
 21
661.948109
  0
ARC
  8
0
 62
     3
  6
CONTINUOUS
 10
-1417.739862
 20
633.948109
 40
2.000000
 50
180.000000
 51
270.000000
  0
INSERT
  8
0
  2
G24
 10
0
 20
0
  0
INSERT
  8
0
  2
G25
 10
0
 20
0
  0
INSERT
  8
0
  2
G26
 10
0
 20
0
  0
LINE
  8
3
 62
     3
  6
CONTINUOUS
 10
-1517.739862
 20
664.448109
 11
-1517.739862
 21
789.448109
  0
TEXT
  8
0
 62
     6
 10
-999.551869
 20
1056.370812
 40
35.000000
 50
0.000000E+00
 41
0.60 
  1
300,340,360
 72
     5
 11
-767.051869
 21
1056.370812
  0
TEXT
  8
0
 62
     3
 10
-949.162549
 20
754.542851
 40
32.000000
 50
360.000000
 41
1.02 
  1
受口深さ
 72
     5
 11
-797.162549
 21
754.542851
  0
LINE
  8
0
 62
     3
  6
CONTINUOUS
 10
-728.500386
 20
751.556364
 11
-789.865616
 21
767.840061
  0
SOLID
  8
0
 62
     3
 10
-758.500299
 20
751.483763
 11
-754.517373
 21
766.493446
 12
-728.500386
 22
751.556364
 13
-728.500386
 23
751.556364
  0
TEXT
  8
0
 62
     3
 10
-345.399687
 20
327.535579
 40
32.000000
 50
0.000000E+00
 41
1.02 
  1
受口深さ
 72
     5
 11
-193.399687
 21
327.535579
  0
LINE
  8
0
 62
     3
  6
CONTINUOUS
 10
-378.257804
 20
417.196458
 11
-378.257804
 21
342.010130
  0
SOLID
  8
0
 62
     3
 10
-370.493232
 20
388.218683
 11
-386.022375
 21
388.218683
 12
-378.257804
 22
417.196458
 13
-378.257804
 23
417.196458
  0
LINE
  8
0
 62
     3
  6
CONTINUOUS
 10
-958.581081
 20
483.197829
 11
-958.581081
 21
431.711276
  0
SOLID
  8
0
 62
     3
 10
-966.345652
 20
460.689050
 11
-950.816510
 21
460.689050
 12
-958.581081
 22
431.711276
 13
-958.581081
 23
431.711276
  0
INSERT
  8
0
  2
G27
 10
0
 20
0
  0
TEXT
  8
0
 62
     6
 10
-1001.412371
 20
1098.485825
 40
35.000000
 50
0.000000E+00
 41
0.60 
  1
240,260,280
 72
     5
 11
-768.912371
 21
1098.485825
  0
LINE
  8
0
 62
     1
  6
CONTINUOUS
 10
-488.085591
 20
480.247691
 11
-630.365442
 21
337.967840
  0
INSERT
  8
0
  2
G28
 10
0
 20
0
  0
LINE
  8
0
 62
     3
  6
CONTINUOUS
 10
-408.891141
 20
751.556364
 11
-347.525912
 21
767.840061
  0
SOLID
  8
0
 62
     3
 10
-382.874154
 20
766.493446
 11
-378.891229
 21
751.483763
 12
-408.891141
 22
751.556364
 13
-408.891141
 23
751.556364
  0
LINE
  8
0
 62
     3
  6
CONTINUOUS
 10
-408.695764
 20
637.500000
 11
-329.471099
 21
708.263800
  0
SOLID
  8
0
 62
     3
 10
-392.256322
 20
662.594715
 11
-381.911432
 21
651.012940
 12
-408.695764
 22
637.500000
 13
-408.695764
 23
637.500000
  0
INSERT
  8
0
  2
G29
 10
0
 20
0
  0
TEXT
  8
0
 62
     3
 10
-340.228979
 20
754.542851
 40
32.000000
 50
0.000000E+00
 41
1.02 
  1
受口深さ
 72
     5
 11
-188.228979
 21
754.542851
  0
LINE
  8
0
 62
     3
  6
CONTINUOUS
 10
-378.257804
 20
342.010130
 11
-353.818999
 21
342.010130
  0
INSERT
  8
0
  2
G30
 10
0
 20
0
  0
INSERT
  8
0
  2
G31
 10
0
 20
0
  0
INSERT
  8
0
  2
G32
 10
0
 20
0
  0
INSERT
  8
0
  2
G33
 10
0
 20
0
  0
INSERT
  8
0
  2
G34
 10
0
 20
0
  0
TEXT
  8
0
 62
     3
 10
-888.446385
 20
-905.435816
 40
32.000000
 50
0.000000E+00
 41
0.94 
  1
対応可能Ｐ寸法　２４０～３６０
 72
     5
 11
-362.732077
 21
-905.435816
  0
LINE
  8
0
 62
     2
  6
CONTINUOUS
 10
-955.287581
 20
-844.718354
 11
-175.885661
 21
-844.718354
  0
TEXT
  8
0
 62
     2
 10
-466.779569
 20
-817.414104
 40
30.000000
 50
0.000000E+00
 41
0.61 
  1
925
 72
     5
 11
-411.779569
 21
-817.414104
  0
TEXT
  8
0
 62
     2
 10
-569.578809
 20
-817.414104
 40
30.000000
 50
0.000000E+00
 41
0.61 
  1
905
 72
     5
 11
-514.578809
 21
-817.414104
  0
TEXT
  8
0
 62
     2
 10
-669.031289
 20
-815.686968
 40
30.000000
 50
0.000000E+00
 41
0.61 
  1
885
 72
     5
 11
-614.031289
 21
-815.686968
  0
TEXT
  8
0
 62
     2
 10
-363.270329
 20
-815.686968
 40
30.000000
 50
0.000000E+00
 41
0.61 
  1
965
 72
     5
 11
-308.270329
 21
-815.686968
  0
TEXT
  8
0
 62
     2
 10
-770.950969
 20
-724.246968
 40
30.000000
 50
0.000000E+00
 41
0.61 
  1
790
 72
     5
 11
-715.950969
 21
-724.246968
  0
TEXT
  8
0
 62
     2
 10
-258.817849
 20
-817.414104
 40
30.000000
 50
0.000000E+00
 41
0.61 
  1
985
 72
     5
 11
-203.817849
 21
-817.414104
  0
TEXT
  8
0
 62
     2
 10
-770.950969
 20
-815.686968
 40
30.000000
 50
0.000000E+00
 41
0.61 
  1
865
 72
     5
 11
-715.950969
 21
-815.686968
  0
TEXT
  8
0
 62
     2
 10
-363.509314
 20
-647.803154
 40
30.000000
 50
0.000000E+00
 41
0.61 
  1
340
 72
     5
 11
-308.509314
 21
-647.803154
  0
TEXT
  8
0
 62
     2
 10
-465.429954
 20
-647.803154
 40
30.000000
 50
0.000000E+00
 41
0.61 
  1
300
 72
     5
 11
-410.429954
 21
-647.803154
  0
TEXT
  8
0
 62
     2
 10
-567.350594
 20
-647.803154
 40
30.000000
 50
0.000000E+00
 41
0.61 
  1
280
 72
     5
 11
-512.350594
 21
-647.803154
  0
TEXT
  8
0
 62
     2
 10
-771.189954
 20
-647.803154
 40
30.000000
 50
0.000000E+00
 41
0.61 
  1
240
 72
     5
 11
-716.189954
 21
-647.803154
  0
LINE
  8
0
 62
     2
  6
CONTINUOUS
 10
-389.725981
 20
-600.398354
 11
-389.725981
 21
-844.718354
  0
TEXT
  8
0
 62
     2
 10
-944.759477
 20
-811.372275
 40
30.000000
 50
0.000000E+00
 41
0.72 
  1
Ｌｔ（全長）
 72
     5
 11
-794.759477
 21
-811.372275
  0
LINE
  8
0
 62
     2
  6
CONTINUOUS
 10
-955.287581
 20
-753.278354
 11
-175.885661
 21
-753.278354
  0
TEXT
  8
0
 62
     2
 10
-258.817849
 20
-725.974104
 40
30.000000
 50
0.000000E+00
 41
0.61 
  1
910
 72
     5
 11
-203.817849
 21
-725.974104
  0
LINE
  8
0
 62
     2
  6
CONTINUOUS
 10
-955.287581
 20
-600.398354
 11
-175.885661
 21
-600.398354
  0
TEXT
  8
0
 62
     2
 10
-363.270329
 20
-724.246968
 40
30.000000
 50
0.000000E+00
 41
0.61 
  1
890
 72
     5
 11
-308.270329
 21
-724.246968
  0
LINE
  8
0
 62
     2
  6
CONTINUOUS
 10
-797.406621
 20
-600.398354
 11
-797.406621
 21
-844.718354
  0
LINE
  8
0
 62
     2
  6
CONTINUOUS
 10
-695.486941
 20
-600.398354
 11
-695.486941
 21
-844.718354
  0
LINE
  8
0
 62
     2
  6
CONTINUOUS
 10
-593.567261
 20
-600.398354
 11
-593.567261
 21
-844.718354
  0
LINE
  8
0
 62
     2
  6
CONTINUOUS
 10
-491.646621
 20
-600.398354
 11
-491.646621
 21
-844.718354
  0
LINE
  8
0
 62
     2
  6
CONTINUOUS
 10
-175.885661
 20
-600.398354
 11
-175.885661
 21
-844.718354
  0
LINE
  8
0
 62
     2
  6
CONTINUOUS
 10
-287.806301
 20
-600.398354
 11
-287.806301
 21
-844.718354
  0
TEXT
  8
0
 62
     2
 10
-256.589634
 20
-647.803154
 40
30.000000
 50
0.000000E+00
 41
0.61 
  1
360
 72
     5
 11
-201.589634
 21
-647.803154
  0
LINE
  8
0
 62
     2
  6
CONTINUOUS
 10
-955.287581
 20
-661.838354
 11
-175.885661
 21
-661.838354
  0
TEXT
  8
0
 62
     2
 10
-944.759477
 20
-719.932275
 40
30.000000
 50
0.000000E+00
 41
0.72 
  1
Ｌ（有効長）
 72
     5
 11
-794.759477
 21
-719.932275
  0
LINE
  8
0
 62
     2
  6
CONTINUOUS
 10
-955.287581
 20
-600.398354
 11
-955.287581
 21
-844.718354
  0
LINE
  8
0
 62
     2
  6
CONTINUOUS
 10
-177.458899
 20
-613.635403
 11
-177.458899
 21
-613.635595
  0
TEXT
  8
0
 62
     2
 10
-669.031289
 20
-724.246968
 40
30.000000
 50
0.000000E+00
 41
0.61 
  1
810
 72
     5
 11
-614.031289
 21
-724.246968
  0
TEXT
  8
0
 62
     2
 10
-569.578809
 20
-725.974104
 40
30.000000
 50
0.000000E+00
 41
0.61 
  1
830
 72
     5
 11
-514.578809
 21
-725.974104
  0
TEXT
  8
0
 62
     2
 10
-669.270274
 20
-647.803154
 40
30.000000
 50
0.000000E+00
 41
0.61 
  1
260
 72
     5
 11
-614.270274
 21
-647.803154
  0
TEXT
  8
0
 62
     2
 10
-885.718483
 20
-647.782743
 40
30.000000
 50
0.000000E+00
 41
0.86 
  1
Ｐ
 72
     5
 11
-855.718483
 21
-647.782743
  0
TEXT
  8
0
 62
     2
 10
-466.779569
 20
-725.974104
 40
30.000000
 50
0.000000E+00
 41
0.61 
  1
850
 72
     5
 11
-411.779569
 21
-725.974104
  0
TEXT
  8
0
 62
     2
 10
-251.589634
 20
-546.363154
 40
30.000000
 50
0.000000E+00
 41
0.58 
  1
44
 72
     5
 11
-216.589634
 21
-546.363154
  0
TEXT
  8
0
 62
     2
 10
-363.510274
 20
-546.363154
 40
30.000000
 50
0.000000E+00
 41
0.58 
  1
52
 72
     5
 11
-328.510274
 21
-546.363154
  0
TEXT
  8
0
 62
     2
 10
-462.501526
 20
-363.746137
 40
25.600000
 50
0.000000E+00
 41
0.55 
  1
100
 72
     5
 11
-420.444381
 21
-363.746137
  0
TEXT
  8
0
 62
     2
 10
-479.031820
 20
-325.061429
 40
18.400000
 50
0.000000E+00
 41
0.89 
  1
立管受口
 72
     5
 11
-403.031821
 21
-325.061429
  0
TEXT
  8
0
 62
     2
 10
-251.589634
 20
-423.483154
 40
30.000000
 50
0.000000E+00
 41
0.58 
  1
65
 72
     5
 11
-216.589634
 21
-423.483154
  0
TEXT
  8
0
 62
     2
 10
-363.510274
 20
-423.483154
 40
30.000000
 50
0.000000E+00
 41
0.58 
  1
65
 72
     5
 11
-328.510274
 21
-423.483154
  0
TEXT
  8
0
 62
     2
 10
-455.429954
 20
-423.483154
 40
30.000000
 50
0.000000E+00
 41
0.58 
  1
75
 72
     5
 11
-420.429954
 21
-423.483154
  0
LINE
  8
0
 62
     2
  6
CONTINUOUS
 10
-399.726941
 20
-498.958354
 11
-481.646621
 21
-560.398354
  0
LINE
  8
0
 62
     2
  6
CONTINUOUS
 10
-175.885661
 20
-294.153298
 11
-175.885661
 21
-560.398354
  0
TEXT
  8
0
 62
     2
 10
-592.749477
 20
-542.052275
 40
30.000000
 50
0.000000E+00
 41
0.86 
  1
Ｂ寸法
 72
     5
 11
-502.749477
 21
-542.052275
  0
LINE
  8
0
 62
     2
  6
CONTINUOUS
 10
-604.527581
 20
-498.958354
 11
-175.885661
 21
-498.958354
  0
LINE
  8
0
 62
     2
  6
CONTINUOUS
 10
-399.726941
 20
-335.118322
 11
-175.885661
 21
-335.118322
  0
LINE
  8
0
 62
     2
  6
CONTINUOUS
 10
-604.527581
 20
-376.078354
 11
-175.885661
 21
-376.078354
  0
TEXT
  8
0
 62
     2
 10
-388.512732
 20
-330.204987
 40
30.000000
 50
0.000000E+00
 41
0.72 
  1
下部横枝管サイズ
 72
     5
 11
-188.512732
 21
-330.204987
  0
LINE
  8
0
 62
     2
  6
CONTINUOUS
 10
-481.646621
 20
-295.392178
 11
-481.646621
 21
-560.398354
  0
LINE
  8
0
 62
     2
  6
CONTINUOUS
 10
-399.726941
 20
-295.392178
 11
-399.726941
 21
-560.398354
  0
LINE
  8
0
 62
     2
  6
CONTINUOUS
 10
-399.726941
 20
-437.518354
 11
-481.646621
 21
-498.958354
  0
LINE
  8
0
 62
     2
  6
CONTINUOUS
 10
-287.806301
 20
-335.118514
 11
-287.806301
 21
-560.398354
  0
LINE
  8
0
 62
     2
  6
CONTINUOUS
 10
-604.527581
 20
-560.398354
 11
-175.885661
 21
-560.398354
  0
TEXT
  8
0
 62
     2
 10
-383.464355
 20
-370.283621
 40
30.000000
 50
0.000000E+00
 41
0.63 
  1
65(2)
 72
     5
 11
-288.464355
 21
-370.283621
  0
TEXT
  8
0
 62
     2
 10
-271.543715
 20
-370.283621
 40
30.000000
 50
0.000000E+00
 41
0.63 
  1
50(1)
 72
     5
 11
-176.543715
 21
-370.283621
  0
LINE
  8
0
 62
     2
  6
CONTINUOUS
 10
-604.527581
 20
-335.118322
 11
-604.527581
 21
-560.398354
  0
LINE
  8
0
 62
     2
  6
CONTINUOUS
 10
-604.527581
 20
-437.518354
 11
-175.885661
 21
-437.518354
  0
TEXT
  8
0
 62
     2
 10
-592.749477
 20
-480.612275
 40
30.000000
 50
0.000000E+00
 41
0.86 
  1
Ａ寸法
 72
     5
 11
-502.749477
 21
-480.612275
  0
LINE
  8
0
 62
     2
  6
CONTINUOUS
 10
-604.527581
 20
-335.118322
 11
-604.527581
 21
-294.153298
  0
LINE
  8
0
 62
     2
  6
CONTINUOUS
 10
-604.527581
 20
-294.153298
 11
-175.885661
 21
-294.153298
  0
LINE
  8
0
 62
     2
  6
CONTINUOUS
 10
-205.886621
 20
-335.118322
 11
-205.886621
 21
-335.118514
  0
TEXT
  8
0
 62
     2
 10
-375.738489
 20
-484.923154
 40
30.000000
 50
0.000000E+00
 41
0.61 
  1
110
 72
     5
 11
-320.738489
 21
-484.923154
  0
TEXT
  8
0
 62
     2
 10
-599.958483
 20
-423.462743
 40
30.000000
 50
0.000000E+00
 41
0.86 
  1
受口深さ
 72
     5
 11
-479.958483
 21
-423.462743
  0
LINE
  8
0
 62
     2
  6
CONTINUOUS
 10
-604.527581
 20
-294.153298
 11
-481.646621
 21
-376.078354
  0
TEXT
  8
0
 62
     2
 10
-251.589634
 20
-484.923154
 40
30.000000
 50
0.000000E+00
 41
0.58 
  1
94
 72
     5
 11
-216.589634
 21
-484.923154
  0
INSERT
  8
0
  2
G35
 10
0
 20
0
  0
INSERT
  8
0
  2
G36
 10
0
 20
0
  0
INSERT
  8
0
  2
G37
 10
0
 20
0
  0
INSERT
  8
0
  2
G38
 10
0
 20
0
  0
INSERT
  8
0
  2
G39
 10
0
 20
0
  0
INSERT
  8
0
  2
G40
 10
0
 20
0
  0
INSERT
  8
0
  2
G41
 10
0
 20
0
  0
INSERT
  8
0
  2
G42
 10
0
 20
0
  0
INSERT
  8
0
  2
G43
 10
0
 20
0
  0
INSERT
  8
0
  2
G44
 10
0
 20
0
  0
INSERT
  8
0
  2
G45
 10
0
 20
0
  0
INSERT
  8
0
  2
G46
 10
0
 20
0
  0
INSERT
  8
0
  2
G47
 10
0
 20
0
  0
INSERT
  8
0
  2
G48
 10
0
 20
0
  0
INSERT
  8
0
  2
G49
 10
0
 20
0
  0
INSERT
  8
0
  2
G50
 10
0
 20
0
  0
INSERT
  8
0
  2
G51
 10
0
 20
0
  0
ENDSEC
  0
EOF
