  0
SECTION
  2
HEADER
  9
$INSBASE
 10
0
 20
0
  9
$EXTMIN
 10
0
 20
0
  9
$EXTMAX
 10
4200.000000
 20
2970.000000
  9
$LIMMIN
 10
0
 20
0
  9
$LIMMAX
 10
4200.000000
 20
2970.000000
  9
$VIEWCTR
 10
2100.000000
 20
1485.000000
  9
$DIMASZ
 40
20.000000
  9
$DIMDLI
 40
80.000000
  9
$DIMEXE
 40
10.000000
  9
$DIMEXO
 40
10.000000
  9
$DIMTXT
 40
32.000000
  9
$TEXTSIZE
 40
32.000000
  9
$ANGBASE
 50
0.0
  9
$ANGDIR
 70
     0
  9
$ATTMODE
 70
     1
  9
$AUNITS
 70
     1
  9
$AUPREC
 70
     2
  9
$AXISMODE
 70
     0
  9
$AXISUNIT
 10
0.0
 20
0.0
  9
$BLIPMODE
 70
     1
  9
$CECOLOR
 62
   256
  9
$CELTYPE
  6
BYLAYER
  9
$CHAMFERA
 40
0.0
  9
$CHAMFERB
 40
0.0
  9
$CLAYER
  8
0
  9
$COORDS
 70
     0
  9
$DIMALT
 70
     0
  9
$DIMALTD
 70
     2
  9
$DIMALTF
 40
25.4
  9
$DIMDLE
 40
0.0
  9
$DIMLFAC
 40
1.0
  9
$DIMLIM
 70
     0
  9
$DIMRND
 40
0.0
  9
$DIMSCALE
 40
1.0
  9
$DIMSE1
 70
     0
  9
$DIMSE2
 70
     0
  9
$DIMTAD
 70
     1
  9
$DIMTIH
 70
     0
  9
$DIMTM
 40
0.0
  9
$DIMTOH
 70
     0
  9
$DIMTOL
 70
     0
  9
$DIMTP
 40
0.0
  9
$DIMTSZ
 40
0.0
  9
$DIMZIN
 70
     0
  9
$DRAGMODE
 70
     2
  9
$ELEVATION
 40
0.0
  9
$FASTZOOM
 70
     1
  9
$FILLETRAD
 40
0.0
  9
$FILLMODE
 70
     1
  9
$GRIDMODE
 70
     0
  9
$GRIDUNIT
 10
0.0
 20
0.0
  9
$LTSCALE
 40
1.0
  9
$LUNITS
 70
     2
  9
$LUPREC
 70
     2
  9
$MENU
  1
ACAD
  9
$ORTHOMODE
 70
     0
  9
$OSMODE
 70
     0
  9
$PDMODE
 70
     0
  9
$PDSIZE
 40
0.0
  9
$PLINEWID
 40
0.0
  9
$QTEXTMODE
 70
     0
  9
$REGENMODE
 70
     1
  9
$SKETCHINC
 40
0.1
  9
$SKPOLY
 70
     0
  9
$SNAPBASE
 10
0.0
 20
0.0
  9
$SNAPISOPAIR
 70
     0
  9
$SNAPMODE
 70
     0
  9
$SNAPSTYLE
 70
     0
  9
$SNAPUNIT
 10
0.0
 20
0.0
  9
$TEXTSTYLE
  7
KANJI
  9
$THICKNESS
 40
0.0
  9
$TRACEWID
 40
0.05
  9
$VIEWDIR
 10
0.0
 20
0.0
 30
1.0
  9
$VIEWSIZE
 40
0.0
  0
ENDSEC
  0
SECTION
  2
TABLES
  0
TABLE
  2
LTYPE
 70
     9
  0
LTYPE
  2
CONTINUOUS
 70
    64
  3
Solid line
 72
    65
 73
     0
 40
0.0
  0
LTYPE
  2
DASHED
 70
    64
  3
__ __ __ __ __ __ __ __ __ __ __ __ __ __ __
 72
    65
 73
     2
 40
0.75
 49
0.5
 49
-0.25
  0
LTYPE
  2
HIDDEN
 70
    64
  3
_ _ _ _ _ _ _ _ _ _ _ _ _ _ _ _ _ _ _ _ _ _ _
 72
    65
 73
     2
 40
0.375
 49
0.25
 49
-0.125
  0
LTYPE
  2
CENTER
 70
    64
  3
____ _ ____ _ ____ _ ____ _ ____ _ ____ _ ____
 72
    65
 73
     4
 40
2.0
 49
1.25
 49
-0.25
 49
0.25
 49
-0.25
  0
LTYPE
  2
PHANTOM
 70
    64
  3
_____ _ _ _____ _ _ _____ _ _ _____ _ _ ____
 72
    65
 73
     6
 40
2.5
 49
1.25
 49
-0.25
 49
0.25
 49
-0.25
 49
0.25
 49
-0.25
  0
LTYPE
  2
DOT
 70
    64
  3
...............................................
 72
    65
 73
     2
 40
0.25
 49
0.0
 49
-0.25
  0
LTYPE
  2
DASHDOT
 70
    64
  3
__ . __ . __ . __ . __ . __ . __ . __ . __ . __
 72
    65
 73
     4
 40
1.0
 49
0.5
 49
-0.25
 49
0.0
 49
-0.25
  0
LTYPE
  2
BORDER
 70
    64
  3
__ __ . __ __ . __ __ . __ __ . __ __ . __ __
 72
    65
 73
     6
 40
1.75
 49
0.5
 49
-0.25
 49
0.5
 49
-0.25
 49
0.0
 49
-0.25
  0
LTYPE
  2
DIVIDE
 70
    64
  3
__ . . __ . . __ . . __ . . __ . . __ . . __
 72
    65
 73
     6
 40
1.25
 49
0.5
 49
-0.25
 49
0.0
 49
-0.25
 49
0.0
 49
-0.25
  0
ENDTAB
  0
TABLE
  2
LAYER
 70
   100
  0
LAYER
  2
0
 70
     0
 62
     3
  6
CONTINUOUS
  0
LAYER
  2
1
 70
     0
 62
     3
  6
CONTINUOUS
  0
LAYER
  2
2
 70
     0
 62
     3
  6
CONTINUOUS
  0
LAYER
  2
3
 70
     0
 62
     3
  6
CONTINUOUS
  0
LAYER
  2
4
 70
     0
 62
     3
  6
CONTINUOUS
  0
LAYER
  2
5
 70
     0
 62
     3
  6
CONTINUOUS
  0
LAYER
  2
6
 70
     0
 62
     3
  6
CONTINUOUS
  0
LAYER
  2
7
 70
     0
 62
     3
  6
CONTINUOUS
  0
LAYER
  2
8
 70
     0
 62
     3
  6
CONTINUOUS
  0
LAYER
  2
9
 70
     0
 62
     3
  6
CONTINUOUS
  0
LAYER
  2
10
 70
     0
 62
     3
  6
CONTINUOUS
  0
LAYER
  2
11
 70
     0
 62
     3
  6
CONTINUOUS
  0
LAYER
  2
12
 70
     0
 62
     3
  6
CONTINUOUS
  0
LAYER
  2
13
 70
     0
 62
     3
  6
CONTINUOUS
  0
LAYER
  2
14
 70
     0
 62
     3
  6
CONTINUOUS
  0
LAYER
  2
15
 70
     0
 62
     3
  6
CONTINUOUS
  0
LAYER
  2
16
 70
     0
 62
     3
  6
CONTINUOUS
  0
LAYER
  2
17
 70
     0
 62
     3
  6
CONTINUOUS
  0
LAYER
  2
18
 70
     0
 62
     3
  6
CONTINUOUS
  0
LAYER
  2
19
 70
     0
 62
     3
  6
CONTINUOUS
  0
LAYER
  2
20
 70
     0
 62
     3
  6
CONTINUOUS
  0
LAYER
  2
21
 70
     0
 62
     3
  6
CONTINUOUS
  0
LAYER
  2
22
 70
     0
 62
     3
  6
CONTINUOUS
  0
LAYER
  2
23
 70
     0
 62
     3
  6
CONTINUOUS
  0
LAYER
  2
24
 70
     0
 62
     3
  6
CONTINUOUS
  0
LAYER
  2
25
 70
     0
 62
     3
  6
CONTINUOUS
  0
LAYER
  2
26
 70
     0
 62
     3
  6
CONTINUOUS
  0
LAYER
  2
27
 70
     0
 62
     3
  6
CONTINUOUS
  0
LAYER
  2
28
 70
     0
 62
     3
  6
CONTINUOUS
  0
LAYER
  2
29
 70
     0
 62
     3
  6
CONTINUOUS
  0
LAYER
  2
30
 70
     0
 62
     3
  6
CONTINUOUS
  0
LAYER
  2
31
 70
     0
 62
     3
  6
CONTINUOUS
  0
LAYER
  2
32
 70
     0
 62
     3
  6
CONTINUOUS
  0
LAYER
  2
33
 70
     0
 62
     3
  6
CONTINUOUS
  0
LAYER
  2
34
 70
     0
 62
     3
  6
CONTINUOUS
  0
LAYER
  2
35
 70
     0
 62
     3
  6
CONTINUOUS
  0
LAYER
  2
36
 70
     0
 62
     3
  6
CONTINUOUS
  0
LAYER
  2
37
 70
     0
 62
     3
  6
CONTINUOUS
  0
LAYER
  2
38
 70
     0
 62
     3
  6
CONTINUOUS
  0
LAYER
  2
39
 70
     0
 62
     3
  6
CONTINUOUS
  0
LAYER
  2
40
 70
     0
 62
     3
  6
CONTINUOUS
  0
LAYER
  2
41
 70
     0
 62
     3
  6
CONTINUOUS
  0
LAYER
  2
42
 70
     0
 62
     3
  6
CONTINUOUS
  0
LAYER
  2
43
 70
     0
 62
     3
  6
CONTINUOUS
  0
LAYER
  2
44
 70
     0
 62
     3
  6
CONTINUOUS
  0
LAYER
  2
45
 70
     0
 62
     3
  6
CONTINUOUS
  0
LAYER
  2
46
 70
     0
 62
     3
  6
CONTINUOUS
  0
LAYER
  2
47
 70
     0
 62
     3
  6
CONTINUOUS
  0
LAYER
  2
48
 70
     0
 62
     3
  6
CONTINUOUS
  0
LAYER
  2
49
 70
     0
 62
     3
  6
CONTINUOUS
  0
LAYER
  2
50
 70
     0
 62
     3
  6
CONTINUOUS
  0
LAYER
  2
51
 70
     0
 62
     3
  6
CONTINUOUS
  0
LAYER
  2
52
 70
     0
 62
     3
  6
CONTINUOUS
  0
LAYER
  2
53
 70
     0
 62
     3
  6
CONTINUOUS
  0
LAYER
  2
54
 70
     0
 62
     3
  6
CONTINUOUS
  0
LAYER
  2
55
 70
     0
 62
     3
  6
CONTINUOUS
  0
LAYER
  2
56
 70
     0
 62
     3
  6
CONTINUOUS
  0
LAYER
  2
57
 70
     0
 62
     3
  6
CONTINUOUS
  0
LAYER
  2
58
 70
     0
 62
     3
  6
CONTINUOUS
  0
LAYER
  2
59
 70
     0
 62
     3
  6
CONTINUOUS
  0
LAYER
  2
60
 70
     0
 62
     3
  6
CONTINUOUS
  0
LAYER
  2
61
 70
     0
 62
     3
  6
CONTINUOUS
  0
LAYER
  2
62
 70
     0
 62
     3
  6
CONTINUOUS
  0
LAYER
  2
63
 70
     0
 62
     3
  6
CONTINUOUS
  0
LAYER
  2
64
 70
     0
 62
     3
  6
CONTINUOUS
  0
LAYER
  2
65
 70
     0
 62
     3
  6
CONTINUOUS
  0
LAYER
  2
66
 70
     0
 62
     3
  6
CONTINUOUS
  0
LAYER
  2
67
 70
     0
 62
     3
  6
CONTINUOUS
  0
LAYER
  2
68
 70
     0
 62
     3
  6
CONTINUOUS
  0
LAYER
  2
69
 70
     0
 62
     3
  6
CONTINUOUS
  0
LAYER
  2
70
 70
     0
 62
     3
  6
CONTINUOUS
  0
LAYER
  2
71
 70
     0
 62
     3
  6
CONTINUOUS
  0
LAYER
  2
72
 70
     0
 62
     3
  6
CONTINUOUS
  0
LAYER
  2
73
 70
     0
 62
     3
  6
CONTINUOUS
  0
LAYER
  2
74
 70
     0
 62
     3
  6
CONTINUOUS
  0
LAYER
  2
75
 70
     0
 62
     3
  6
CONTINUOUS
  0
LAYER
  2
76
 70
     0
 62
     3
  6
CONTINUOUS
  0
LAYER
  2
77
 70
     0
 62
     3
  6
CONTINUOUS
  0
LAYER
  2
78
 70
     0
 62
     3
  6
CONTINUOUS
  0
LAYER
  2
79
 70
     0
 62
     3
  6
CONTINUOUS
  0
LAYER
  2
80
 70
     0
 62
     3
  6
CONTINUOUS
  0
LAYER
  2
81
 70
     0
 62
     3
  6
CONTINUOUS
  0
LAYER
  2
82
 70
     0
 62
     3
  6
CONTINUOUS
  0
LAYER
  2
83
 70
     0
 62
     3
  6
CONTINUOUS
  0
LAYER
  2
84
 70
     0
 62
     3
  6
CONTINUOUS
  0
LAYER
  2
85
 70
     0
 62
     3
  6
CONTINUOUS
  0
LAYER
  2
86
 70
     0
 62
     3
  6
CONTINUOUS
  0
LAYER
  2
87
 70
     0
 62
     3
  6
CONTINUOUS
  0
LAYER
  2
88
 70
     0
 62
     3
  6
CONTINUOUS
  0
LAYER
  2
89
 70
     0
 62
     3
  6
CONTINUOUS
  0
LAYER
  2
90
 70
     0
 62
     3
  6
CONTINUOUS
  0
LAYER
  2
91
 70
     0
 62
     3
  6
CONTINUOUS
  0
LAYER
  2
92
 70
     0
 62
     3
  6
CONTINUOUS
  0
LAYER
  2
93
 70
     0
 62
     3
  6
CONTINUOUS
  0
LAYER
  2
94
 70
     0
 62
     3
  6
CONTINUOUS
  0
LAYER
  2
95
 70
     0
 62
     3
  6
CONTINUOUS
  0
LAYER
  2
96
 70
     0
 62
     3
  6
CONTINUOUS
  0
LAYER
  2
97
 70
     0
 62
     3
  6
CONTINUOUS
  0
LAYER
  2
98
 70
     0
 62
     3
  6
CONTINUOUS
  0
LAYER
  2
99
 70
     0
 62
     3
  6
CONTINUOUS
  0
ENDTAB
  0
TABLE
  2
STYLE
 70
     2
  0
STYLE
  2
STANDARD
 70
     0
 40
0.0
 41
1.0
 50
0.0
 71
     0
 42
0.2
  3
TXT
  4
BIGFONT
  0
STYLE
  2
KANJI
 70
     0
 40
4.5
 41
1.0
 50
0.0
 71
     0
 42
0.2
  3
TXT
  4
BIGFONT
  0
ENDTAB
  0
TABLE
  2
VIEW
 70
     0
  0
ENDTAB
  0
ENDSEC
  0
SECTION
  2
BLOCKS
  0
BLOCK
  8
0
  2
G0
 70
     0
 10
0
 20
0
  0
TEXT
  8
0
 62
     1
 10
3394.607057
 20
1392.727117
 40
32.000000
 50
90.000000
 41
0.97 
  1
Ｌｔ
 72
     5
 11
3394.607057
 21
1464.727117
  0
LINE
  8
0
 62
     1
  6
CONTINUOUS
 10
3349.940390
 20
936.227117
 11
3409.940390
 21
936.227117
  0
LINE
  8
0
 62
     1
  6
CONTINUOUS
 10
3349.940390
 20
1921.227117
 11
3409.940390
 21
1921.227117
  0
LINE
  8
0
 62
     1
  6
CONTINUOUS
 10
3399.940390
 20
1921.227117
 11
3399.940390
 21
936.227117
  0
SOLID
  8
0
 62
     1
 10
3406.410866
 20
1897.078971
 11
3393.469913
 21
1897.078971
 12
3399.940390
 22
1921.227117
 13
3399.940390
 23
1921.227117
  0
SOLID
  8
0
 62
     1
 10
3393.469913
 20
960.375262
 11
3406.410866
 21
960.375262
 12
3399.940390
 22
936.227117
 13
3399.940390
 23
936.227117
  0
ENDBLK
  0
BLOCK
  8
0
  2
G1
 70
     0
 10
0
 20
0
  0
TEXT
  8
0
 62
     1
 10
3334.607057
 20
1297.227117
 40
32.000000
 50
90.000000
 41
0.89 
  1
Ｌ（有効長）
 72
     5
 11
3334.607057
 21
1493.227117
  0
LINE
  8
0
 62
     1
  6
CONTINUOUS
 10
3289.940390
 20
936.227117
 11
3349.940390
 21
936.227117
  0
LINE
  8
0
 62
     1
  6
CONTINUOUS
 10
3339.940390
 20
1846.227117
 11
3339.940390
 21
936.227117
  0
SOLID
  8
0
 62
     1
 10
3346.410866
 20
1822.078971
 11
3333.469913
 21
1822.078971
 12
3339.940390
 22
1846.227117
 13
3339.940390
 23
1846.227117
  0
SOLID
  8
0
 62
     1
 10
3333.469913
 20
960.375262
 11
3346.410866
 21
960.375262
 12
3339.940390
 22
936.227117
 13
3339.940390
 23
936.227117
  0
ENDBLK
  0
BLOCK
  8
0
  2
G2
 70
     0
 10
0
 20
0
  0
TEXT
  8
0
 62
     1
 10
3274.607057
 20
1088.227117
 40
32.000000
 50
90.000000
 41
0.58 
  1
360
 72
     5
 11
3274.607057
 21
1144.227117
  0
LINE
  8
0
 62
     1
  6
CONTINUOUS
 10
3289.940390
 20
936.227117
 11
3169.940390
 21
936.227117
  0
LINE
  8
0
 62
     1
  6
CONTINUOUS
 10
3279.940390
 20
1296.227117
 11
3279.940390
 21
936.227117
  0
SOLID
  8
0
 62
     1
 10
3286.410866
 20
1272.078971
 11
3273.469913
 21
1272.078971
 12
3279.940390
 22
1296.227117
 13
3279.940390
 23
1296.227117
  0
SOLID
  8
0
 62
     1
 10
3273.469913
 20
960.375262
 11
3286.410866
 21
960.375262
 12
3279.940390
 22
936.227117
 13
3279.940390
 23
936.227117
  0
ENDBLK
  0
BLOCK
  8
0
  2
G3
 70
     0
 10
0
 20
0
  0
TEXT
  8
0
 62
     1
 10
3154.607057
 20
983.227117
 40
32.000000
 50
90.000000
 41
0.58 
  1
150
 72
     5
 11
3154.607057
 21
1039.227117
  0
LINE
  8
0
 62
     1
  6
CONTINUOUS
 10
2985.863476
 20
936.227117
 11
3169.940390
 21
936.227117
  0
LINE
  8
0
 62
     1
  6
CONTINUOUS
 10
3159.940390
 20
1086.227117
 11
3159.940390
 21
936.227117
  0
SOLID
  8
0
 62
     1
 10
3166.410866
 20
1062.078971
 11
3153.469913
 21
1062.078971
 12
3159.940390
 22
1086.227117
 13
3159.940390
 23
1086.227117
  0
SOLID
  8
0
 62
     1
 10
3153.469913
 20
960.375262
 11
3166.410866
 21
960.375262
 12
3159.940390
 22
936.227117
 13
3159.940390
 23
936.227117
  0
ENDBLK
  0
BLOCK
  8
0
  2
G4
 70
     0
 10
0
 20
0
  0
TEXT
  8
0
 62
     1
 10
3154.607057
 20
1118.227117
 40
32.000000
 50
90.000000
 41
0.58 
  1
120
 72
     5
 11
3154.607057
 21
1174.227117
  0
LINE
  8
0
 62
     1
  6
CONTINUOUS
 10
2983.114387
 20
1086.227117
 11
3169.940390
 21
1086.227117
  0
LINE
  8
0
 62
     1
  6
CONTINUOUS
 10
3013.612565
 20
1206.227117
 11
3169.940390
 21
1206.227117
  0
LINE
  8
0
 62
     1
  6
CONTINUOUS
 10
3159.940390
 20
1206.227117
 11
3159.940390
 21
1086.227117
  0
SOLID
  8
0
 62
     1
 10
3166.410866
 20
1182.078971
 11
3153.469913
 21
1182.078971
 12
3159.940390
 22
1206.227117
 13
3159.940390
 23
1206.227117
  0
SOLID
  8
0
 62
     1
 10
3153.469913
 20
1110.375262
 11
3166.410866
 21
1110.375262
 12
3159.940390
 22
1086.227117
 13
3159.940390
 23
1086.227117
  0
ENDBLK
  0
BLOCK
  8
0
  2
G5
 70
     0
 10
0
 20
0
  0
TEXT
  8
0
 62
     1
 10
3214.607057
 20
1643.227117
 40
32.000000
 50
90.000000
 41
0.61 
  1
250(280)
 72
     5
 11
3214.607057
 21
1799.227117
  0
LINE
  8
0
 62
     1
  6
CONTINUOUS
 10
2932.863476
 20
1846.227117
 11
3229.940390
 21
1846.227117
  0
LINE
  8
0
 62
     1
  6
CONTINUOUS
 10
3169.940390
 20
1596.227117
 11
3229.940390
 21
1596.227117
  0
LINE
  8
0
 62
     1
  6
CONTINUOUS
 10
3219.940390
 20
1596.227117
 11
3219.940390
 21
1846.227117
  0
SOLID
  8
0
 62
     1
 10
3212.175818
 20
1625.204891
 11
3227.704961
 21
1625.204891
 12
3219.940390
 22
1596.227117
 13
3219.940390
 23
1596.227117
  0
SOLID
  8
0
 62
     1
 10
3227.704961
 20
1817.249342
 11
3212.175818
 21
1817.249342
 12
3219.940390
 22
1846.227117
 13
3219.940390
 23
1846.227117
  0
ENDBLK
  0
BLOCK
  8
0
  2
G6
 70
     0
 10
0
 20
0
  0
TEXT
  8
0
 62
     1
 10
3274.607057
 20
1460.227117
 40
32.000000
 50
90.000000
 41
0.86 
  1
Ｐ
 72
     5
 11
3274.607057
 21
1492.227117
  0
LINE
  8
0
 62
     1
  6
CONTINUOUS
 10
3289.940390
 20
1296.227117
 11
3026.785714
 21
1296.227117
  0
LINE
  8
0
 62
     1
  6
CONTINUOUS
 10
3279.940390
 20
1296.227117
 11
3279.940390
 21
1656.227117
  0
SOLID
  8
0
 62
     1
 10
3272.175818
 20
1325.204891
 11
3287.704961
 21
1325.204891
 12
3279.940390
 22
1296.227117
 13
3279.940390
 23
1296.227117
  0
SOLID
  8
0
 62
     1
 10
3287.704961
 20
1627.249342
 11
3272.175818
 21
1627.249342
 12
3279.940390
 22
1656.227117
 13
3279.940390
 23
1656.227117
  0
ENDBLK
  0
BLOCK
  8
0
  2
G7
 70
     0
 10
0
 20
0
  0
TEXT
  8
0
 62
     1
 10
3334.607057
 20
1865.727117
 40
32.000000
 50
90.000000
 41
0.56 
  1
75
 72
     5
 11
3334.607057
 21
1901.727117
  0
LINE
  8
0
 62
     1
  6
CONTINUOUS
 10
3349.940390
 20
1846.227117
 11
3219.940390
 21
1846.227117
  0
LINE
  8
0
 62
     1
  6
CONTINUOUS
 10
3349.940390
 20
1921.227117
 11
3003.053530
 21
1921.227117
  0
LINE
  8
0
 62
     1
  6
CONTINUOUS
 10
3339.940390
 20
1921.227117
 11
3339.940390
 21
1846.227117
  0
SOLID
  8
0
 62
     1
 10
3346.410866
 20
1897.078971
 11
3333.469913
 21
1897.078971
 12
3339.940390
 22
1921.227117
 13
3339.940390
 23
1921.227117
  0
SOLID
  8
0
 62
     1
 10
3333.469913
 20
1870.375262
 11
3346.410866
 21
1870.375262
 12
3339.940390
 22
1846.227117
 13
3339.940390
 23
1846.227117
  0
ENDBLK
  0
BLOCK
  8
0
  2
G8
 70
     0
 10
0
 20
0
  0
LINE
  8
0
 62
     1
  6
CONTINUOUS
 10
2689.608789
 20
2137.648109
 11
2689.608789
 21
2262.648109
  0
SOLID
  8
0
 62
     1
 10
2683.138313
 20
2161.796254
 11
2696.079265
 21
2161.796254
 12
2689.608789
 22
2137.648109
 13
2689.608789
 23
2137.648109
  0
SOLID
  8
0
 62
     1
 10
2696.079265
 20
2238.499963
 11
2683.138313
 21
2238.499963
 12
2689.608789
 22
2262.648109
 13
2689.608789
 23
2262.648109
  0
LINE
  8
0
 62
     1
  6
CONTINUOUS
 10
2752.863476
 20
2137.648109
 11
2679.608789
 21
2137.648109
  0
LINE
  8
0
 62
     1
  6
CONTINUOUS
 10
2752.863476
 20
2262.648109
 11
2679.608789
 21
2262.648109
  0
TEXT
  8
0
 62
     1
 10
2684.275456
 20
2142.148109
 40
32.000000
 50
90.000000
 41
0.60 
  1
%%c125
 72
     5
 11
2684.275456
 21
2258.148109
  0
ENDBLK
  0
BLOCK
  8
0
  2
G9
 70
     0
 10
0
 20
0
  0
TEXT
  8
0
 62
     1
 10
3150.784830
 20
2142.148109
 40
32.000000
 50
90.000000
 41
0.60 
  1
%%c125
 72
     5
 11
3150.784830
 21
2258.148109
  0
LINE
  8
0
 62
     1
  6
CONTINUOUS
 10
3092.863476
 20
2262.648109
 11
3166.118163
 21
2262.648109
  0
LINE
  8
0
 62
     1
  6
CONTINUOUS
 10
3092.863476
 20
2137.648109
 11
3166.118163
 21
2137.648109
  0
LINE
  8
0
 62
     1
  6
CONTINUOUS
 10
3156.118163
 20
2137.648109
 11
3156.118163
 21
2262.648109
  0
SOLID
  8
0
 62
     1
 10
3149.647687
 20
2161.796254
 11
3162.588639
 21
2161.796254
 12
3156.118163
 22
2137.648109
 13
3156.118163
 23
2137.648109
  0
SOLID
  8
0
 62
     1
 10
3162.588639
 20
2238.499963
 11
3149.647687
 21
2238.499963
 12
3156.118163
 22
2262.648109
 13
3156.118163
 23
2262.648109
  0
ENDBLK
  0
BLOCK
  8
0
  2
G10
 70
     0
 10
0
 20
0
  0
LINE
  8
0
 62
     1
  6
CONTINUOUS
 10
3082.863476
 20
2403.257655
 11
3132.863476
 21
2403.257655
  0
SOLID
  8
0
 62
     1
 10
3107.011622
 20
2409.728131
 11
3107.011622
 21
2396.787179
 12
3082.863476
 22
2403.257655
 13
3082.863476
 23
2403.257655
  0
TEXT
  8
0
 62
     1
 10
2924.863476
 20
2408.590988
 40
32.000000
 50
0.000000E+00
 41
0.61 
  1
160(170)
 72
     5
 11
3080.863476
 21
2408.590988
  0
LINE
  8
0
 62
     1
  6
CONTINUOUS
 10
3082.863476
 20
2272.648109
 11
3082.863476
 21
2413.257655
  0
LINE
  8
0
 62
     1
  6
CONTINUOUS
 10
2922.863476
 20
2403.257655
 11
3082.863476
 21
2403.257655
  0
CIRCLE
  8
0
 62
     1
  6
CONTINUOUS
 10
2922.863476
 20
2403.257655
 40
5.000000
  0
CIRCLE
  8
0
 62
     1
  6
CONTINUOUS
 10
2922.863476
 20
2403.257655
 40
2.500000
  0
ENDBLK
  0
BLOCK
  8
0
  2
G11
 70
     0
 10
0
 20
0
  0
LINE
  8
0
 62
     1
  6
CONTINUOUS
 10
3082.863476
 20
2345.038562
 11
3132.863476
 21
2345.038562
  0
SOLID
  8
0
 62
     1
 10
3107.011622
 20
2351.509038
 11
3107.011622
 21
2338.568086
 12
3082.863476
 22
2345.038562
 13
3082.863476
 23
2345.038562
  0
LINE
  8
0
 62
     1
  6
CONTINUOUS
 10
2967.863476
 20
2345.038562
 11
3017.863476
 21
2345.038562
  0
SOLID
  8
0
 62
     1
 10
2993.715330
 20
2338.568086
 11
2993.715330
 21
2351.509038
 12
3017.863476
 22
2345.038562
 13
3017.863476
 23
2345.038562
  0
TEXT
  8
0
 62
     1
 10
3032.363476
 20
2350.371895
 40
32.000000
 50
0.000000E+00
 41
0.56 
  1
65
 72
     5
 11
3068.363476
 21
2350.371895
  0
LINE
  8
0
 62
     1
  6
CONTINUOUS
 10
3082.863476
 20
2272.648109
 11
3082.863476
 21
2405.038562
  0
LINE
  8
0
 62
     1
  6
CONTINUOUS
 10
3017.863476
 20
2270.148109
 11
3017.863476
 21
2355.038562
  0
LINE
  8
0
 62
     1
  6
CONTINUOUS
 10
3017.863476
 20
2345.038562
 11
3082.863476
 21
2345.038562
  0
ENDBLK
  0
BLOCK
  8
0
  2
G12
 70
     0
 10
0
 20
0
  0
LINE
  8
0
 62
     1
  6
CONTINUOUS
 10
2922.863476
 20
2403.257655
 11
2762.863476
 21
2403.257655
  0
LINE
  8
0
 62
     1
  6
CONTINUOUS
 10
2762.863476
 20
2272.648109
 11
2762.863476
 21
2413.257655
  0
TEXT
  8
0
 62
     1
 10
2764.863476
 20
2408.590988
 40
32.000000
 50
360.000000
 41
0.61 
  1
160(170)
 72
     5
 11
2920.863476
 21
2408.590988
  0
LINE
  8
0
 62
     1
  6
CONTINUOUS
 10
2762.863476
 20
2403.257655
 11
2712.863476
 21
2403.257655
  0
SOLID
  8
0
 62
     1
 10
2738.715330
 20
2396.787179
 11
2738.715330
 21
2409.728131
 12
2762.863476
 22
2403.257655
 13
2762.863476
 23
2403.257655
  0
ENDBLK
  0
BLOCK
  8
0
  2
G13
 70
     0
 10
0
 20
0
  0
LINE
  8
0
 62
     1
  6
CONTINUOUS
 10
2827.863476
 20
2345.038562
 11
2762.863476
 21
2345.038562
  0
LINE
  8
0
 62
     1
  6
CONTINUOUS
 10
2827.863476
 20
2270.148109
 11
2827.863476
 21
2355.038562
  0
LINE
  8
0
 62
     1
  6
CONTINUOUS
 10
2762.863476
 20
2272.648109
 11
2762.863476
 21
2405.038562
  0
TEXT
  8
0
 62
     1
 10
2777.363476
 20
2350.371895
 40
32.000000
 50
360.000000
 41
0.56 
  1
65
 72
     5
 11
2813.363476
 21
2350.371895
  0
LINE
  8
0
 62
     1
  6
CONTINUOUS
 10
2877.863476
 20
2345.038562
 11
2827.863476
 21
2345.038562
  0
SOLID
  8
0
 62
     1
 10
2852.011622
 20
2351.509038
 11
2852.011622
 21
2338.568086
 12
2827.863476
 22
2345.038562
 13
2827.863476
 23
2345.038562
  0
LINE
  8
0
 62
     1
  6
CONTINUOUS
 10
2762.863476
 20
2345.038562
 11
2712.863476
 21
2345.038562
  0
SOLID
  8
0
 62
     1
 10
2738.715330
 20
2338.568086
 11
2738.715330
 21
2351.509038
 12
2762.863476
 22
2345.038562
 13
2762.863476
 23
2345.038562
  0
ENDBLK
  0
BLOCK
  8
0
  2
G14
 70
     0
 10
0
 20
0
  0
TEXT
  8
0
 62
     3
 10
2552.183492
 20
2359.425678
 40
32.000000
 50
0.000000E+00
 41
0.95 
  1
受口深さ　
 72
     5
 11
2728.183492
 21
2359.425678
  0
ENDBLK
  0
BLOCK
  8
0
  2
G15
 70
     0
 10
0
 20
0
  0
LINE
  8
0
 62
     1
  6
CONTINUOUS
 10
3219.940390
 20
2105.148109
 11
3219.940390
 21
2200.148109
  0
LINE
  8
0
 62
     1
  6
CONTINUOUS
 10
2932.863476
 20
2105.148109
 11
3229.940390
 21
2105.148109
  0
TEXT
  8
0
 62
     1
 10
3214.607057
 20
2233.500321
 40
32.000000
 50
90.000000
 41
0.61 
  1
95(106)
 72
     5
 11
3214.607057
 21
2369.500321
  0
LINE
  8
0
 62
     1
  6
CONTINUOUS
 10
3219.940390
 20
2105.148109
 11
3219.940390
 21
2057.533697
  0
SOLID
  8
0
 62
     1
 10
3226.410866
 20
2080.999963
 11
3213.469913
 21
2080.999963
 12
3219.940390
 22
2105.148109
 13
3219.940390
 23
2105.148109
  0
LINE
  8
0
 62
     1
  6
CONTINUOUS
 10
3219.940390
 20
2200.148109
 11
3219.940390
 21
2376.981707
  0
SOLID
  8
0
 62
     1
 10
3213.469913
 20
2224.296254
 11
3226.410866
 21
2224.296254
 12
3219.940390
 22
2200.148109
 13
3219.940390
 23
2200.148109
  0
ENDBLK
  0
BLOCK
  8
0
  2
G16
 70
     0
 10
0
 20
0
  0
TEXT
  8
0
 62
     3
 10
3156.252812
 20
2416.036718
 40
32.000000
 50
0.000000E+00
 41
0.95 
  1
受口深さ　
 72
     5
 11
3332.252812
 21
2416.036718
  0
ENDBLK
  0
BLOCK
  8
0
  2
G17
 70
     0
 10
0
 20
0
  0
LINE
  8
0
 62
     1
  6
CONTINUOUS
 10
3159.940390
 20
1596.227117
 11
3159.940390
 21
1656.227117
  0
CIRCLE
  8
0
 62
     1
  6
CONTINUOUS
 10
3159.940390
 20
1596.227117
 40
2.500000
  0
CIRCLE
  8
0
 62
     1
  6
CONTINUOUS
 10
3159.940390
 20
1596.227117
 40
1.250000
  0
LINE
  8
0
 62
     1
  6
CONTINUOUS
 10
3087.863476
 20
1596.227117
 11
3169.940390
 21
1596.227117
  0
LINE
  8
0
 62
     1
  6
CONTINUOUS
 10
3098.797182
 20
1656.227117
 11
3169.940390
 21
1656.227117
  0
TEXT
  8
0
 62
     1
 10
3154.607057
 20
1608.227117
 40
32.000000
 50
90.000000
 41
0.56 
  1
60
 72
     5
 11
3154.607057
 21
1644.227117
  0
LINE
  8
0
 62
     1
  6
CONTINUOUS
 10
3159.940390
 20
1656.227117
 11
3159.940390
 21
1706.227117
  0
SOLID
  8
0
 62
     1
 10
3152.175818
 20
1685.204891
 11
3167.704961
 21
1685.204891
 12
3159.940390
 22
1656.227117
 13
3159.940390
 23
1656.227117
  0
ENDBLK
  0
BLOCK
  8
0
  2
G18
 70
     0
 10
0
 20
0
  0
LINE
  8
0
 62
     1
  6
CONTINUOUS
 10
3159.940390
 20
1593.727117
 11
3159.940390
 21
1596.227117
  0
LINE
  8
0
 62
     1
  6
CONTINUOUS
 10
3169.940390
 20
1593.727117
 11
3087.863476
 21
1593.727117
  0
TEXT
  8
0
 62
     1
 10
3154.607057
 20
1507.999037
 40
32.000000
 50
90.000000
 41
0.58 
  1
2.5
 72
     5
 11
3154.607057
 21
1563.999037
  0
LINE
  8
0
 62
     1
  6
CONTINUOUS
 10
3159.940390
 20
1593.727117
 11
3159.940390
 21
1503.144416
  0
SOLID
  8
0
 62
     1
 10
3166.410866
 20
1569.578971
 11
3153.469913
 21
1569.578971
 12
3159.940390
 22
1593.727117
 13
3159.940390
 23
1593.727117
  0
ENDBLK
  0
BLOCK
  8
0
  2
G19
 70
     0
 10
0
 20
0
  0
LINE
  8
0
 62
     1
  6
CONTINUOUS
 10
2685.786562
 20
1593.727117
 11
2685.786562
 21
1503.144416
  0
SOLID
  8
0
 62
     1
 10
2692.257038
 20
1569.578971
 11
2679.316086
 21
1569.578971
 12
2685.786562
 22
1593.727117
 13
2685.786562
 23
1593.727117
  0
TEXT
  8
0
 62
     1
 10
2680.453229
 20
1507.999037
 40
32.000000
 50
90.000000
 41
0.58 
  1
2.5
 72
     5
 11
2680.453229
 21
1563.999037
  0
LINE
  8
0
 62
     1
  6
CONTINUOUS
 10
2675.786562
 20
1593.727117
 11
2757.863476
 21
1593.727117
  0
LINE
  8
0
 62
     1
  6
CONTINUOUS
 10
2685.786562
 20
1593.727117
 11
2685.786562
 21
1596.227117
  0
ENDBLK
  0
BLOCK
  8
0
  2
G20
 70
     0
 10
0
 20
0
  0
LINE
  8
0
 62
     1
  6
CONTINUOUS
 10
3601.759298
 20
2226.406521
 11
3426.396816
 21
2051.044040
  0
SOLID
  8
0
 62
     1
 10
3589.259298
 20
2204.755886
 11
3580.108663
 21
2213.906521
 12
3601.759298
 22
2226.406521
 13
3601.759298
 23
2226.406521
  0
SOLID
  8
0
 62
     1
 10
3438.896816
 20
2072.694675
 11
3448.047451
 21
2063.544040
 12
3426.396816
 22
2051.044040
 13
3426.396816
 23
2051.044040
  0
LINE
  8
0
 62
     1
  6
CONTINUOUS
 10
3559.851029
 20
1917.589827
 11
3419.325748
 21
2058.115108
  0
TEXT
  8
0
 62
     1
 10
3455.152492
 20
2087.342188
 40
32.000000
 50
45.000000
 41
0.61 
  1
248(274)
 72
     5
 11
3565.461150
 21
2197.650845
  0
ENDBLK
  0
BLOCK
  8
0
  2
G21
 70
     0
 10
0
 20
0
  0
LINE
  8
0
 62
     1
  6
CONTINUOUS
 10
3549.603338
 20
2141.575253
 11
3759.603338
 21
2141.575253
  0
SOLID
  8
0
 62
     1
 10
3573.751483
 20
2148.045729
 11
3573.751483
 21
2135.104777
 12
3549.603338
 22
2141.575253
 13
3549.603338
 23
2141.575253
  0
SOLID
  8
0
 62
     1
 10
3735.455192
 20
2135.104777
 11
3735.455192
 21
2148.045729
 12
3759.603338
 22
2141.575253
 13
3759.603338
 23
2141.575253
  0
LINE
  8
0
 62
     1
  6
CONTINUOUS
 10
3549.603338
 20
2008.200000
 11
3549.603338
 21
2151.575253
  0
LINE
  8
0
 62
     1
  6
CONTINUOUS
 10
3759.603338
 20
2008.200000
 11
3759.603338
 21
2151.575253
  0
TEXT
  8
0
 62
     1
 10
3576.603338
 20
2146.908586
 40
32.000000
 50
0.000000E+00
 41
0.61 
  1
210(240)
 72
     5
 11
3732.603338
 21
2146.908586
  0
ENDBLK
  0
BLOCK
  8
0
  2
G22
 70
     0
 10
0
 20
0
  0
LINE
  8
0
 62
     1
  6
CONTINUOUS
 10
2685.786562
 20
1656.227117
 11
2685.786562
 21
1706.227117
  0
SOLID
  8
0
 62
     1
 10
2678.021991
 20
1685.204891
 11
2693.551134
 21
1685.204891
 12
2685.786562
 22
1656.227117
 13
2685.786562
 23
1656.227117
  0
TEXT
  8
0
 62
     1
 10
2680.453229
 20
1608.227117
 40
32.000000
 50
90.000000
 41
0.56 
  1
60
 72
     5
 11
2680.453229
 21
1644.227117
  0
LINE
  8
0
 62
     1
  6
CONTINUOUS
 10
2746.929770
 20
1656.227117
 11
2675.786562
 21
1656.227117
  0
LINE
  8
0
 62
     1
  6
CONTINUOUS
 10
2757.863476
 20
1596.227117
 11
2675.786562
 21
1596.227117
  0
LINE
  8
0
 62
     1
  6
CONTINUOUS
 10
2685.786562
 20
1596.227117
 11
2685.786562
 21
1656.227117
  0
CIRCLE
  8
0
 62
     1
  6
CONTINUOUS
 10
2685.786562
 20
1596.227117
 40
2.500000
  0
CIRCLE
  8
0
 62
     1
  6
CONTINUOUS
 10
2685.786562
 20
1596.227117
 40
1.250000
  0
ENDBLK
  0
BLOCK
  8
0
  2
G23
 70
     0
 10
0
 20
0
  0
LINE
  8
0
 62
     1
  6
CONTINUOUS
 10
3008.863476
 20
796.948668
 11
2836.863476
 21
796.948668
  0
TEXT
  8
0
 62
     1
 10
2784.863476
 20
802.282001
 40
32.000000
 50
0.000000E+00
 41
0.62 
  1
%%c172(%%c197)
 72
     5
 11
3060.863476
 21
802.282001
  0
LINE
  8
0
 62
     1
  6
CONTINUOUS
 10
2786.863476
 20
796.948668
 11
2836.863476
 21
796.948668
  0
SOLID
  8
0
 62
     1
 10
2812.715330
 20
790.478191
 11
2812.715330
 21
803.419144
 12
2836.863476
 22
796.948668
 13
2836.863476
 23
796.948668
  0
LINE
  8
0
 62
     1
  6
CONTINUOUS
 10
3008.863476
 20
796.948668
 11
3058.863476
 21
796.948668
  0
SOLID
  8
0
 62
     1
 10
3033.011622
 20
803.419144
 11
3033.011622
 21
790.478191
 12
3008.863476
 22
796.948668
 13
3008.863476
 23
796.948668
  0
ENDBLK
  0
BLOCK
  8
0
  2
G24
 70
     0
 10
0
 20
0
  0
LINE
  8
0
 62
     1
  6
CONTINUOUS
 10
2867.863476
 20
861.592951
 11
2977.863476
 21
861.592951
  0
TEXT
  8
0
 62
     1
 10
2784.863476
 20
866.975213
 40
32.000000
 50
0.000000E+00
 41
0.62 
  1
%%c110(%%c135)
 72
     5
 11
3060.863476
 21
866.975213
  0
LINE
  8
0
 62
     1
  6
CONTINUOUS
 10
2818.363476
 20
861.592951
 11
2867.863476
 21
861.592951
  0
SOLID
  8
0
 62
     1
 10
2843.715330
 20
855.122475
 11
2843.715330
 21
868.063427
 12
2867.863476
 22
861.592951
 13
2867.863476
 23
861.592951
  0
LINE
  8
0
 62
     1
  6
CONTINUOUS
 10
2977.863476
 20
861.592951
 11
3027.363476
 21
861.592951
  0
SOLID
  8
0
 62
     1
 10
3002.011622
 20
868.063427
 11
3002.011622
 21
855.122475
 12
2977.863476
 22
861.592951
 13
2977.863476
 23
861.592951
  0
ENDBLK
  0
BLOCK
  8
0
  2
G25
 70
     0
 10
0
 20
0
  0
LINE
  8
0
 62
     3
  6
CONTINUOUS
 10
3137.560047
 20
1434.224772
 11
3115.057592
 21
1447.216570
  0
LINE
  8
0
 62
     3
  6
CONTINUOUS
 10
3122.142578
 20
1407.520932
 11
3137.560047
 21
1434.224772
  0
TEXT
  8
0
 62
     3
 10
3110.349294
 20
1375.162715
 40
32.000000
 50
0.000000E+00
 41
0.86 
  1
Ｃ
 72
     5
 11
3142.349294
 21
1375.162715
  0
LINE
  8
0
 62
     3
  6
CONTINUOUS
 10
3122.142578
 20
1454.891181
 11
3122.142578
 21
1407.520932
  0
LINE
  8
0
 62
     3
  6
CONTINUOUS
 10
3122.142578
 20
1454.891181
 11
3042.580014
 21
1454.891181
  0
ENDBLK
  0
BLOCK
  8
0
  2
G26
 70
     0
 10
0
 20
0
  0
LINE
  8
0
 62
     1
  6
CONTINUOUS
 10
2847.863476
 20
1964.751724
 11
2997.863476
 21
1964.751724
  0
LINE
  8
0
 62
     1
  6
CONTINUOUS
 10
2847.863476
 20
1931.227117
 11
2847.863476
 21
1974.751724
  0
LINE
  8
0
 62
     1
  6
CONTINUOUS
 10
2997.863476
 20
1931.227117
 11
2997.863476
 21
1974.751724
  0
TEXT
  8
0
 62
     1
 10
2784.863476
 20
1970.085057
 40
32.000000
 50
0.000000E+00
 41
0.62 
  1
%%c150(%%c176)
 72
     5
 11
3060.863476
 21
1970.085057
  0
LINE
  8
0
 62
     1
  6
CONTINUOUS
 10
2797.863476
 20
1964.751724
 11
2847.863476
 21
1964.751724
  0
SOLID
  8
0
 62
     1
 10
2823.715330
 20
1958.281248
 11
2823.715330
 21
1971.222200
 12
2847.863476
 22
1964.751724
 13
2847.863476
 23
1964.751724
  0
LINE
  8
0
 62
     1
  6
CONTINUOUS
 10
2997.863476
 20
1964.751724
 11
3047.863476
 21
1964.751724
  0
SOLID
  8
0
 62
     1
 10
3022.011622
 20
1971.222200
 11
3022.011622
 21
1958.281248
 12
2997.863476
 22
1964.751724
 13
2997.863476
 23
1964.751724
  0
ENDBLK
  0
BLOCK
  8
0
  2
G27
 70
     0
 10
0
 20
0
  0
TEXT
  8
0
 62
     3
 10
3261.644339
 20
1980.889093
 40
32.000000
 50
0.000000E+00
 41
0.95 
  1
受口深さ　
 72
     5
 11
3437.644339
 21
1980.889093
  0
ENDBLK
  0
BLOCK
  8
0
  2
G28
 70
     0
 10
0
 20
0
  0
TEXT
  8
0
 62
     1
 10
2784.863476
 20
2032.282001
 40
32.000000
 50
0.000000E+00
 41
0.62 
  1
%%c172(%%c197)
 72
     5
 11
3060.863476
 21
2032.282001
  0
LINE
  8
0
 62
     1
  6
CONTINUOUS
 10
2786.863476
 20
2026.948668
 11
2836.863476
 21
2026.948668
  0
SOLID
  8
0
 62
     1
 10
2812.715330
 20
2020.478191
 11
2812.715330
 21
2033.419144
 12
2836.863476
 22
2026.948668
 13
2836.863476
 23
2026.948668
  0
LINE
  8
0
 62
     1
  6
CONTINUOUS
 10
2836.863476
 20
2026.948668
 11
3008.863476
 21
2026.948668
  0
LINE
  8
0
 62
     1
  6
CONTINUOUS
 10
3008.863476
 20
2026.948668
 11
3058.863476
 21
2026.948668
  0
SOLID
  8
0
 62
     1
 10
3033.011622
 20
2033.419144
 11
3033.011622
 21
2020.478191
 12
3008.863476
 22
2026.948668
 13
3008.863476
 23
2026.948668
  0
LINE
  8
0
 62
     1
  6
CONTINUOUS
 10
3008.863476
 20
2001.430793
 11
3008.863476
 21
2036.948668
  0
LINE
  8
0
 62
     1
  6
CONTINUOUS
 10
2836.863476
 20
2001.430793
 11
2836.863476
 21
2036.948668
  0
LINE
  8
0
 62
     1
  6
CONTINUOUS
 10
2836.863476
 20
1741.986486
 11
2836.863476
 21
1959.646454
  0
LINE
  8
0
 62
     1
  6
CONTINUOUS
 10
3008.863476
 20
1741.986486
 11
3008.863476
 21
1959.646454
  0
ENDBLK
  0
ENDSEC
  0
SECTION
  2
ENTITIES
  0
INSERT
  8
0
  2
G0
 10
0
 20
0
  0
INSERT
  8
0
  2
G1
 10
0
 20
0
  0
INSERT
  8
0
  2
G2
 10
0
 20
0
  0
INSERT
  8
0
  2
G3
 10
0
 20
0
  0
INSERT
  8
0
  2
G4
 10
0
 20
0
  0
INSERT
  8
0
  2
G5
 10
0
 20
0
  0
LINE
  8
0
 62
     1
  6
CONTINUOUS
 10
3289.940390
 20
1656.227117
 11
3234.343698
 21
1656.227117
  0
LINE
  8
0
 62
     1
  6
CONTINUOUS
 10
3159.940390
 20
1656.227117
 11
3176.816384
 21
1656.227117
  0
INSERT
  8
0
  2
G6
 10
0
 20
0
  0
INSERT
  8
0
  2
G7
 10
0
 20
0
  0
LINE
  8
3
 62
     3
  6
CONTINUOUS
 10
2762.863476
 20
2137.648109
 11
2762.863476
 21
2262.648109
  0
INSERT
  8
0
  2
G8
 10
0
 20
0
  0
INSERT
  8
0
  2
G9
 10
0
 20
0
  0
INSERT
  8
0
  2
G10
 10
0
 20
0
  0
INSERT
  8
0
  2
G11
 10
0
 20
0
  0
ARC
  8
0
 62
     3
  6
CONTINUOUS
 10
2862.863476
 20
2107.148109
 40
2.000000
 50
180.000000
 51
270.000000
  0
LINE
  8
0
 62
     3
  6
CONTINUOUS
 10
2860.863476
 20
2107.148109
 11
2860.863476
 21
2135.148109
  0
ARC
  8
0
 62
     3
  6
CONTINUOUS
 10
2982.863476
 20
2107.148109
 40
2.000000
 50
270.000000
 51
360.000000
  0
LINE
  8
0
 62
     3
  6
CONTINUOUS
 10
2984.863476
 20
2107.148109
 11
2984.863476
 21
2135.148109
  0
LINE
  8
0
 62
     3
  6
CONTINUOUS
 10
2982.863476
 20
2105.148109
 11
2862.863476
 21
2105.148109
  0
ARC
  8
0
 62
     3
  6
CONTINUOUS
 10
2829.863476
 20
2140.148109
 40
2.000000
 50
180.000000
 51
270.000000
  0
LINE
  8
0
 62
     3
  6
CONTINUOUS
 10
2829.863476
 20
2138.148109
 11
2857.863476
 21
2138.148109
  0
ARC
  8
0
 62
     3
  6
CONTINUOUS
 10
2829.863476
 20
2260.148109
 40
2.000000
 50
90.000000
 51
180.000000
  0
LINE
  8
0
 62
     3
  6
CONTINUOUS
 10
2829.863476
 20
2262.148109
 11
2862.545568
 21
2262.148109
  0
LINE
  8
0
 62
     3
  6
CONTINUOUS
 10
2827.863476
 20
2260.148109
 11
2827.863476
 21
2140.148109
  0
ARC
  8
0
 62
     3
  6
CONTINUOUS
 10
2987.863476
 20
2135.148109
 40
3.000000
 50
90.000000
 51
180.000000
  0
ARC
  8
0
 62
     3
  6
CONTINUOUS
 10
2857.863476
 20
2135.148109
 40
3.000000
 50
0.000000E+00
 51
90.000000
  0
CIRCLE
  8
0
 62
     3
  6
CONTINUOUS
 10
2922.863476
 20
2200.148109
 40
67.000000
  0
CIRCLE
  8
0
 62
     3
  6
CONTINUOUS
 10
2922.863476
 20
2200.148109
 40
52.000000
  0
ARC
  8
0
 62
     3
  6
CONTINUOUS
 10
3015.863476
 20
2260.148109
 40
2.000000
 50
0.000000E+00
 51
90.000000
  0
LINE
  8
0
 62
     3
  6
CONTINUOUS
 10
3015.863476
 20
2262.148109
 11
2983.181384
 21
2262.148109
  0
ARC
  8
0
 62
     3
  6
CONTINUOUS
 10
3015.863476
 20
2140.148109
 40
2.000000
 50
270.000000
 51
360.000000
  0
LINE
  8
0
 62
     3
  6
CONTINUOUS
 10
3015.863476
 20
2138.148109
 11
2987.863476
 21
2138.148109
  0
LINE
  8
0
 62
     3
  6
CONTINUOUS
 10
3017.863476
 20
2140.148109
 11
3017.863476
 21
2260.148109
  0
LINE
  8
3
 62
     3
  6
CONTINUOUS
 10
3077.863476
 20
2260.148109
 11
3017.863476
 21
2260.148109
  0
LINE
  8
3
 62
     3
  6
CONTINUOUS
 10
3082.863476
 20
2137.648109
 11
3082.863476
 21
2262.648109
  0
LINE
  8
3
 62
     3
  6
CONTINUOUS
 10
3077.863476
 20
2137.648109
 11
3077.863476
 21
2140.148109
  0
LINE
  8
3
 62
     3
  6
CONTINUOUS
 10
3077.863476
 20
2137.648109
 11
3082.863476
 21
2137.648109
  0
LINE
  8
3
 62
     3
  6
CONTINUOUS
 10
3077.863476
 20
2262.648109
 11
3082.863476
 21
2262.648109
  0
LINE
  8
3
 62
     3
  6
CONTINUOUS
 10
3077.863476
 20
2262.648109
 11
3077.863476
 21
2140.148109
  0
LINE
  8
3
 62
     3
  6
CONTINUOUS
 10
3077.863476
 20
2140.148109
 11
3017.863476
 21
2140.148109
  0
CIRCLE
  8
0
 62
     3
  6
CONTINUOUS
 10
2922.863476
 20
2200.148109
 40
86.500000
  0
CIRCLE
  8
0
 62
     3
  6
CONTINUOUS
 10
2922.863476
 20
2200.148109
 40
75.000000
  0
LINE
  8
3
 62
     3
  6
CENTER
 10
3088.339644
 20
2200.148109
 11
2756.755456
 21
2200.148109
  0
LINE
  8
3
 62
     3
  6
CENTER
 10
2922.863476
 20
2101.706949
 11
2922.863476
 21
2295.263624
  0
LINE
  8
3
 62
     3
  6
CONTINUOUS
 10
2767.863476
 20
2137.648109
 11
2767.863476
 21
2140.148109
  0
LINE
  8
3
 62
     3
  6
CONTINUOUS
 10
2767.863476
 20
2137.648109
 11
2762.863476
 21
2137.648109
  0
LINE
  8
3
 62
     3
  6
CONTINUOUS
 10
2767.863476
 20
2262.648109
 11
2762.863476
 21
2262.648109
  0
LINE
  8
3
 62
     3
  6
CONTINUOUS
 10
2767.863476
 20
2262.648109
 11
2767.863476
 21
2140.148109
  0
LINE
  8
0
 62
     1
  6
CONTINUOUS
 10
2922.863476
 20
2407.257655
 11
2922.863476
 21
2306.212922
  0
INSERT
  8
0
  2
G12
 10
0
 20
0
  0
INSERT
  8
0
  2
G13
 10
0
 20
0
  0
LINE
  8
3
 62
     3
  6
CONTINUOUS
 10
2767.863476
 20
2140.148109
 11
2827.863476
 21
2140.148109
  0
LINE
  8
3
 62
     3
  6
CONTINUOUS
 10
2767.863476
 20
2260.148109
 11
2827.863476
 21
2260.148109
  0
LINE
  8
0
 62
     3
  6
CONTINUOUS
 10
2769.560334
 20
2369.181643
 11
2696.774711
 21
2369.181643
  0
SOLID
  8
0
 62
     3
 10
2740.582559
 20
2361.417072
 11
2740.582559
 21
2376.946214
 12
2769.560334
 22
2369.181643
 13
2769.560334
 23
2369.181643
  0
INSERT
  8
0
  2
G14
 10
0
 20
0
  0
LINE
  8
0
 62
     3
  6
CONTINUOUS
 10
3166.174583
 20
2367.328306
 11
3166.174583
 21
2404.395058
  0
LINE
  8
0
 62
     3
  6
CONTINUOUS
 10
3072.496791
 20
2367.328306
 11
3166.174583
 21
2367.328306
  0
SOLID
  8
0
 62
     3
 10
3101.474566
 20
2375.092877
 11
3101.474566
 21
2359.563734
 12
3072.496791
 22
2367.328306
 13
3072.496791
 23
2367.328306
  0
LINE
  8
0
 62
     1
  6
CONTINUOUS
 10
3165.163671
 20
2200.148109
 11
3229.940390
 21
2200.148109
  0
INSERT
  8
0
  2
G15
 10
0
 20
0
  0
LINE
  8
0
 62
     1
  6
CONTINUOUS
 10
3098.339644
 20
2200.148109
 11
3118.661746
 21
2200.148109
  0
INSERT
  8
0
  2
G16
 10
0
 20
0
  0
INSERT
  8
0
  2
G17
 10
0
 20
0
  0
INSERT
  8
0
  2
G18
 10
0
 20
0
  0
LINE
  8
3
 62
     3
  6
CONTINUOUS
 10
2861.136832
 20
1662.042737
 11
2860.578597
 21
1670.219623
  0
LINE
  8
3
 62
     3
  6
CONTINUOUS
 10
2860.578597
 20
1670.219623
 11
2859.567009
 21
1678.129317
  0
LINE
  8
3
 62
     3
  6
CONTINUOUS
 10
2859.567009
 20
1678.129317
 11
2858.121383
 21
1685.620778
  0
LINE
  8
3
 62
     3
  6
CONTINUOUS
 10
2858.121383
 20
1685.620778
 11
2856.269325
 21
1692.550956
  0
LINE
  8
3
 62
     3
  6
CONTINUOUS
 10
2856.269325
 20
1692.550956
 11
2854.046201
 21
1698.787514
  0
LINE
  8
3
 62
     3
  6
CONTINUOUS
 10
2854.046201
 20
1698.787514
 11
2851.494462
 21
1704.211363
  0
LINE
  8
3
 62
     3
  6
CONTINUOUS
 10
2851.494462
 20
1704.211363
 11
2848.662835
 21
1708.718932
  0
LINE
  8
3
 62
     3
  6
CONTINUOUS
 10
2848.662835
 20
1708.718932
 11
2845.605390
 21
1712.224148
  0
LINE
  8
3
 62
     3
  6
CONTINUOUS
 10
2845.605390
 20
1712.224148
 11
2842.380512
 21
1714.660076
  0
LINE
  8
3
 62
     3
  6
CONTINUOUS
 10
2842.380512
 20
1714.660076
 11
2839.049779
 21
1715.980203
  0
LINE
  8
3
 62
     3
  6
CONTINUOUS
 10
2842.380512
 20
1714.660076
 11
2839.049779
 21
1715.980203
  0
LINE
  8
3
 62
     3
  6
CONTINUOUS
 10
2839.507670
 20
1596.587137
 11
2842.783061
 21
1598.033664
  0
LINE
  8
3
 62
     3
  6
CONTINUOUS
 10
2842.783061
 20
1598.033664
 11
2845.947981
 21
1600.561380
  0
LINE
  8
3
 62
     3
  6
CONTINUOUS
 10
2845.947981
 20
1600.561380
 11
2848.943628
 21
1604.123324
  0
LINE
  8
3
 62
     3
  6
CONTINUOUS
 10
2848.943628
 20
1604.123324
 11
2851.714346
 21
1608.653317
  0
LINE
  8
3
 62
     3
  6
CONTINUOUS
 10
2851.714346
 20
1608.653317
 11
2854.208655
 21
1614.067195
  0
LINE
  8
3
 62
     3
  6
CONTINUOUS
 10
2854.208655
 20
1614.067195
 11
2856.380215
 21
1620.264373
  0
LINE
  8
3
 62
     3
  6
CONTINUOUS
 10
2856.380215
 20
1620.264373
 11
2858.188678
 21
1627.129711
  0
LINE
  8
3
 62
     3
  6
CONTINUOUS
 10
2858.188678
 20
1627.129711
 11
2859.600445
 21
1634.535657
  0
LINE
  8
3
 62
     3
  6
CONTINUOUS
 10
2859.600445
 20
1634.535657
 11
2860.589287
 21
1642.344613
  0
LINE
  8
3
 62
     3
  6
CONTINUOUS
 10
2860.589287
 20
1642.344613
 11
2861.136832
 21
1650.411496
  0
LINE
  8
3
 62
     3
  6
CONTINUOUS
 10
2860.589287
 20
1642.344613
 11
2861.136832
 21
1650.411496
  0
ARC
  8
1
 62
     3
  6
CONTINUOUS
 10
2829.863476
 20
1596.227117
 40
2.000000
 50
180.000000
 51
270.000000
  0
LINE
  8
1
 62
     3
  6
CONTINUOUS
 10
2829.863476
 20
1718.227117
 11
2833.363476
 21
1718.227117
  0
LINE
  8
1
 62
     3
  6
CONTINUOUS
 10
2829.863476
 20
1594.227117
 11
2833.363476
 21
1594.227117
  0
ARC
  8
1
 62
     3
  6
CONTINUOUS
 10
2829.863476
 20
1716.227117
 40
2.000000
 50
90.000000
 51
180.000000
  0
ARC
  8
1
 62
     3
  6
CONTINUOUS
 10
2833.363476
 20
1721.227117
 40
3.000000
 50
270.000000
 51
360.000000
  0
ARC
  8
1
 62
     3
  6
CONTINUOUS
 10
2833.363476
 20
1591.227117
 40
3.000000
 50
0.000000E+00
 51
90.000000
  0
LINE
  8
3
 62
     4
  6
CONTINUOUS
 10
2840.063888
 20
1296.717316
 11
2843.468610
 21
1298.343896
  0
LINE
  8
3
 62
     4
  6
CONTINUOUS
 10
2843.468610
 20
1298.343896
 11
2846.746830
 21
1301.079067
  0
LINE
  8
3
 62
     4
  6
CONTINUOUS
 10
2846.746830
 20
1301.079067
 11
2849.835762
 21
1304.870446
  0
LINE
  8
3
 62
     4
  6
CONTINUOUS
 10
2849.835762
 20
1304.870446
 11
2852.676246
 21
1309.645417
  0
LINE
  8
3
 62
     4
  6
CONTINUOUS
 10
2852.676246
 20
1309.645417
 11
2855.213881
 21
1315.312531
  0
LINE
  8
3
 62
     4
  6
CONTINUOUS
 10
2855.213881
 20
1315.312531
 11
2857.400065
 21
1321.763250
  0
LINE
  8
3
 62
     4
  6
CONTINUOUS
 10
2857.400065
 20
1321.763250
 11
2859.192928
 21
1328.874027
  0
LINE
  8
3
 62
     4
  6
CONTINUOUS
 10
2859.192928
 20
1328.874027
 11
2860.558132
 21
1336.508677
  0
LINE
  8
3
 62
     4
  6
CONTINUOUS
 10
2860.558132
 20
1336.508677
 11
2861.469532
 21
1344.520978
  0
LINE
  8
3
 62
     4
  6
CONTINUOUS
 10
2860.558132
 20
1336.508677
 11
2861.469532
 21
1344.520978
  0
LINE
  8
3
 62
     3
  6
CONTINUOUS
 10
2984.590120
 20
1650.411496
 11
2985.226009
 21
1641.461509
  0
LINE
  8
3
 62
     3
  6
CONTINUOUS
 10
2985.226009
 20
1641.461509
 11
2986.404487
 21
1632.850083
  0
LINE
  8
3
 62
     3
  6
CONTINUOUS
 10
2986.404487
 20
1632.850083
 11
2988.098531
 21
1624.774668
  0
LINE
  8
3
 62
     3
  6
CONTINUOUS
 10
2988.098531
 20
1624.774668
 11
2990.269298
 21
1617.420426
  0
LINE
  8
3
 62
     3
  6
CONTINUOUS
 10
2990.269298
 20
1617.420426
 11
2992.867016
 21
1610.955983
  0
LINE
  8
3
 62
     3
  6
CONTINUOUS
 10
2992.867016
 20
1610.955983
 11
2995.832121
 21
1605.529561
  0
LINE
  8
3
 62
     3
  6
CONTINUOUS
 10
2995.832121
 20
1605.529561
 11
2999.096626
 21
1601.265583
  0
LINE
  8
3
 62
     3
  6
CONTINUOUS
 10
2999.096626
 20
1601.265583
 11
3002.585680
 21
1598.261817
  0
LINE
  8
3
 62
     3
  6
CONTINUOUS
 10
3002.585680
 20
1598.261817
 11
3006.219282
 21
1596.587137
  0
LINE
  8
3
 62
     3
  6
CONTINUOUS
 10
3002.585680
 20
1598.261817
 11
3006.219282
 21
1596.587137
  0
LINE
  8
3
 62
     3
  6
CONTINUOUS
 10
3006.677172
 20
1715.980203
 11
3002.981745
 21
1714.443850
  0
LINE
  8
3
 62
     3
  6
CONTINUOUS
 10
3002.981745
 20
1714.443850
 11
2999.425546
 21
1711.535574
  0
LINE
  8
3
 62
     3
  6
CONTINUOUS
 10
2999.425546
 20
1711.535574
 11
2996.092381
 21
1707.323910
  0
LINE
  8
3
 62
     3
  6
CONTINUOUS
 10
2996.092381
 20
1707.323910
 11
2993.060798
 21
1701.908111
  0
LINE
  8
3
 62
     3
  6
CONTINUOUS
 10
2993.060798
 20
1701.908111
 11
2990.402239
 21
1695.415803
  0
LINE
  8
3
 62
     3
  6
CONTINUOUS
 10
2990.402239
 20
1695.415803
 11
2988.179355
 21
1687.999983
  0
LINE
  8
3
 62
     3
  6
CONTINUOUS
 10
2988.179355
 20
1687.999983
 11
2986.444529
 21
1679.835411
  0
LINE
  8
3
 62
     3
  6
CONTINUOUS
 10
2986.444529
 20
1679.835411
 11
2985.238645
 21
1671.114490
  0
LINE
  8
3
 62
     3
  6
CONTINUOUS
 10
2985.238645
 20
1671.114490
 11
2984.590120
 21
1662.042737
  0
LINE
  8
3
 62
     3
  6
CONTINUOUS
 10
2985.238645
 20
1671.114490
 11
2984.590120
 21
1662.042737
  0
LINE
  8
3
 62
     4
  6
CONTINUOUS
 10
2861.469532
 20
1367.933255
 11
2861.085445
 21
1371.857217
  0
LINE
  8
3
 62
     4
  6
CONTINUOUS
 10
2861.085445
 20
1371.857217
 11
2860.592081
 21
1375.710664
  0
LINE
  8
3
 62
     4
  6
CONTINUOUS
 10
2860.592081
 20
1375.710664
 11
2859.991667
 21
1379.476211
  0
LINE
  8
3
 62
     4
  6
CONTINUOUS
 10
2859.991667
 20
1379.476211
 11
2859.286910
 21
1383.136872
  0
LINE
  8
3
 62
     4
  6
CONTINUOUS
 10
2859.286910
 20
1383.136872
 11
2858.480992
 21
1386.676130
  0
LINE
  8
3
 62
     4
  6
CONTINUOUS
 10
2858.480992
 20
1386.676130
 11
2857.577547
 21
1390.078019
  0
LINE
  8
3
 62
     4
  6
CONTINUOUS
 10
2857.577547
 20
1390.078019
 11
2856.580651
 21
1393.327191
  0
LINE
  8
3
 62
     4
  6
CONTINUOUS
 10
2856.580651
 20
1393.327191
 11
2855.494802
 21
1396.408988
  0
LINE
  8
3
 62
     4
  6
CONTINUOUS
 10
2855.494802
 20
1396.408988
 11
2854.324899
 21
1399.309505
  0
LINE
  8
3
 62
     4
  6
CONTINUOUS
 10
2855.494802
 20
1396.408988
 11
2854.324899
 21
1399.309505
  0
CIRCLE
  8
0
 62
     3
  6
CONTINUOUS
 10
2922.863476
 20
1656.227117
 40
62.000000
  0
LINE
  8
3
 62
     4
  6
CONTINUOUS
 10
2990.016851
 20
1401.227117
 11
2965.513212
 21
1401.227117
  0
LINE
  8
3
 62
     4
  6
CONTINUOUS
 10
3015.863476
 20
1426.926479
 11
3015.863476
 21
1418.227117
  0
ARC
  8
3
 62
     4
  6
CONTINUOUS
 10
2982.991659
 20
1428.175616
 40
28.500781
 50
295.487111
 51
314.942399
  0
POINT
  8
3
 62
     7
 10
3008.863476
 20
1416.227117
  0
ARC
  8
1
 62
     4
  6
CONTINUOUS
 10
3015.863476
 20
1296.227117
 40
2.000000
 50
270.000000
 51
360.000000
  0
ARC
  8
1
 62
     4
  6
CONTINUOUS
 10
3015.863476
 20
1416.227117
 40
2.000000
 50
0.000000E+00
 51
90.000000
  0
ARC
  8
1
 62
     4
  6
CONTINUOUS
 10
3011.863476
 20
1291.227117
 40
3.000000
 50
90.000000
 51
180.000000
  0
LINE
  8
1
 62
     4
  6
CONTINUOUS
 10
3011.863476
 20
1294.227117
 11
3015.863476
 21
1294.227117
  0
ARC
  8
1
 62
     4
  6
CONTINUOUS
 10
3028.664793
 20
1390.987309
 40
30.639745
 50
117.551999
 51
146.328437
  0
LINE
  8
1
 62
     4
  6
CONTINUOUS
 10
3017.863476
 20
1416.227117
 11
3017.863476
 21
1296.227117
  0
POINT
  8
0
 62
     4
 10
2922.863476
 20
1356.227117
  0
CIRCLE
  8
0
 62
     4
  6
CONTINUOUS
 10
2922.863476
 20
1356.227117
 40
62.500000
  0
POINT
  8
0
 62
     4
 10
2922.863476
 20
1406.227117
  0
LINE
  8
0
 62
     3
  6
CONTINUOUS
 10
3302.022257
 20
1973.441003
 11
3302.022257
 21
1914.570293
  0
SOLID
  8
0
 62
     3
 10
3294.257685
 20
1943.548068
 11
3309.786828
 21
1943.548068
 12
3302.022257
 22
1914.570293
 13
3302.022257
 23
1914.570293
  0
INSERT
  8
0
  2
G19
 10
0
 20
0
  0
TEXT
  8
0
 62
     6
 10
2689.990420
 20
2609.959535
 40
32.000000
 50
0.000000E+00
 41
0.97 
  1
上部
 72
     5
 11
2761.990420
 21
2609.959535
  0
TEXT
  8
0
 62
     6
 10
2809.990420
 20
2609.959535
 40
32.000000
 50
0.000000E+00
 41
0.97 
  1
下部
 72
     5
 11
2881.990420
 21
2609.959535
  0
TEXT
  8
0
 62
     6
 10
2840.490420
 20
2544.910129
 40
35.000000
 50
0.000000E+00
 41
0.86 
  1
Ｏ
 72
     5
 11
2875.490420
 21
2544.910129
  0
TEXT
  8
0
 62
     6
 10
2719.816479
 20
2543.910129
 40
35.000000
 50
0.000000E+00
 41
0.86 
  1
Ｂ
 72
     5
 11
2754.816479
 21
2543.910129
  0
LINE
  8
3
 62
     4
  6
CONTINUOUS
 10
2991.402053
 20
1399.309505
 11
2990.232149
 21
1396.408988
  0
LINE
  8
3
 62
     4
  6
CONTINUOUS
 10
2990.232149
 20
1396.408988
 11
2989.146301
 21
1393.327191
  0
LINE
  8
3
 62
     4
  6
CONTINUOUS
 10
2989.146301
 20
1393.327191
 11
2988.149405
 21
1390.078019
  0
LINE
  8
3
 62
     4
  6
CONTINUOUS
 10
2988.149405
 20
1390.078019
 11
2987.245960
 21
1386.676130
  0
LINE
  8
3
 62
     4
  6
CONTINUOUS
 10
2987.245960
 20
1386.676130
 11
2986.440041
 21
1383.136872
  0
LINE
  8
3
 62
     4
  6
CONTINUOUS
 10
2986.440041
 20
1383.136872
 11
2985.735285
 21
1379.476211
  0
LINE
  8
3
 62
     4
  6
CONTINUOUS
 10
2985.735285
 20
1379.476211
 11
2985.134871
 21
1375.710664
  0
LINE
  8
3
 62
     4
  6
CONTINUOUS
 10
2985.134871
 20
1375.710664
 11
2984.641507
 21
1371.857217
  0
LINE
  8
3
 62
     4
  6
CONTINUOUS
 10
2984.641507
 20
1371.857217
 11
2984.257420
 21
1367.933255
  0
LINE
  8
3
 62
     4
  6
CONTINUOUS
 10
2984.641507
 20
1371.857217
 11
2984.257420
 21
1367.933255
  0
LINE
  8
3
 62
     4
  6
CONTINUOUS
 10
2984.257420
 20
1344.520978
 11
2985.168819
 21
1336.508677
  0
LINE
  8
3
 62
     4
  6
CONTINUOUS
 10
2985.168819
 20
1336.508677
 11
2986.534024
 21
1328.874027
  0
LINE
  8
3
 62
     4
  6
CONTINUOUS
 10
2986.534024
 20
1328.874027
 11
2988.326887
 21
1321.763250
  0
LINE
  8
3
 62
     4
  6
CONTINUOUS
 10
2988.326887
 20
1321.763250
 11
2990.513071
 21
1315.312531
  0
LINE
  8
3
 62
     4
  6
CONTINUOUS
 10
2990.513071
 20
1315.312531
 11
2993.050706
 21
1309.645417
  0
LINE
  8
3
 62
     4
  6
CONTINUOUS
 10
2993.050706
 20
1309.645417
 11
2995.891190
 21
1304.870446
  0
LINE
  8
3
 62
     4
  6
CONTINUOUS
 10
2995.891190
 20
1304.870446
 11
2998.980122
 21
1301.079067
  0
LINE
  8
3
 62
     4
  6
CONTINUOUS
 10
2998.980122
 20
1301.079067
 11
3002.258341
 21
1298.343896
  0
LINE
  8
3
 62
     4
  6
CONTINUOUS
 10
3002.258341
 20
1298.343896
 11
3005.663064
 21
1296.717316
  0
LINE
  8
3
 62
     4
  6
CONTINUOUS
 10
3002.258341
 20
1298.343896
 11
3005.663064
 21
1296.717316
  0
INSERT
  8
0
  2
G20
 10
0
 20
0
  0
ARC
  8
0
 62
     4
  6
CONTINUOUS
 10
3654.603338
 20
1998.200000
 40
100.000000
 50
36.038338
 51
53.961662
  0
ARC
  8
3
 62
     3
  6
CONTINUOUS
 10
3654.603338
 20
1998.200000
 40
105.000000
 50
349.021382
 51
369.903199
  0
ARC
  8
0
 62
     4
  6
CONTINUOUS
 10
3654.603338
 20
1998.200000
 40
100.000000
 50
126.038338
 51
143.961662
  0
ARC
  8
0
 62
     4
  6
CONTINUOUS
 10
3654.603338
 20
1998.200000
 40
100.000000
 50
216.038338
 51
233.961662
  0
CIRCLE
  8
3
 62
     4
  6
CONTINUOUS
 10
3654.603338
 20
1998.200000
 40
88.000000
  0
INSERT
  8
0
  2
G21
 10
0
 20
0
  0
LINE
  8
0
 62
     1
  6
CONTINUOUS
 10
3644.741695
 20
2183.424125
 11
3594.688230
 21
2233.477589
  0
LINE
  8
0
 62
     1
  6
CONTINUOUS
 10
3735.213511
 20
2092.952309
 11
3691.580591
 21
2136.585229
  0
ARC
  8
3
 62
     4
  6
CONTINUOUS
 10
3654.603338
 20
1998.200000
 40
100.000000
 50
323.109614
 51
396.890386
  0
LINE
  8
3
 62
     4
  6
CONTINUOUS
 10
3745.854269
 20
2079.164607
 11
3758.056965
 21
2016.261853
  0
ARC
  8
3
 62
     3
  6
CONTINUOUS
 10
3654.603338
 20
1998.200000
 40
105.000000
 50
170.096801
 51
190.978618
  0
ARC
  8
3
 62
     3
  6
CONTINUOUS
 10
3654.603338
 20
1998.200000
 40
105.000000
 50
260.096801
 51
279.903199
  0
LINE
  8
3
 62
     4
  6
CONTINUOUS
 10
3745.854269
 20
1917.235393
 11
3758.056965
 21
1980.138147
  0
LINE
  8
3
 62
     3
  6
CENTER
 10
3585.891581
 20
1929.488243
 11
3565.210404
 21
1908.807067
  0
LINE
  8
3
 62
     4
  6
CONTINUOUS
 10
3735.567945
 20
1906.949069
 11
3672.665190
 21
1894.746372
  0
ARC
  8
3
 62
     4
  6
CENTER
 10
3654.603338
 20
1998.200000
 40
111.000000
 50
217.724288
 51
233.734984
  0
LINE
  8
3
 62
     3
  6
CENTER
 10
3722.240868
 20
1930.562469
 11
3744.752825
 21
1908.050513
  0
ARC
  8
3
 62
     4
  6
CENTER
 10
3654.603338
 20
1998.200000
 40
111.000000
 50
305.817615
 51
323.930525
  0
ARC
  8
3
 62
     4
  6
CENTER
 10
3654.603338
 20
1998.200000
 40
111.000000
 50
35.029921
 51
55.550885
  0
LINE
  8
3
 62
     4
  6
CONTINUOUS
 10
3573.638730
 20
1906.949069
 11
3636.541485
 21
1894.746372
  0
LINE
  8
3
 62
     4
  6
CONTINUOUS
 10
3674.599816
 20
2101.278324
 11
3735.567945
 21
2089.450931
  0
LINE
  8
3
 62
     3
  6
CENTER
 10
3722.594565
 20
2066.191228
 11
3744.545266
 21
2088.141928
  0
LINE
  8
3
 62
     4
  6
CONTINUOUS
 10
3563.352407
 20
1917.235393
 11
3551.525014
 21
1978.203522
  0
ARC
  8
3
 62
     4
  6
CONTINUOUS
 10
3576.114485
 20
1919.711147
 40
13.000000
 50
190.978618
 51
259.021382
  0
ARC
  8
3
 62
     4
  6
CONTINUOUS
 10
3733.092190
 20
1919.711147
 40
13.000000
 50
280.978618
 51
349.021382
  0
ARC
  8
3
 62
     4
  6
CONTINUOUS
 10
3733.092190
 20
2076.688853
 40
13.000000
 50
10.978618
 51
79.021382
  0
LINE
  8
3
 62
     3
  6
CENTER
 10
3586.617473
 20
2066.185865
 11
3564.876779
 21
2087.926559
  0
LINE
  8
3
 62
     4
  6
CONTINUOUS
 10
3563.352407
 20
2079.164607
 11
3551.149710
 21
2016.261853
  0
LINE
  8
3
 62
     4
  6
CONTINUOUS
 10
3573.638730
 20
2089.450931
 11
3634.606860
 21
2101.278324
  0
ARC
  8
3
 62
     3
  6
CONTINUOUS
 10
3654.603338
 20
1998.200000
 40
105.000000
 50
79.021382
 51
100.978618
  0
CIRCLE
  8
3
 62
     3
  6
CONTINUOUS
 10
3654.603338
 20
1998.200000
 40
81.000000
  0
ARC
  8
3
 62
     4
  6
CONTINUOUS
 10
3576.114485
 20
2076.688853
 40
13.000000
 50
100.978618
 51
169.021382
  0
LINE
  8
3
 62
     3
  6
CENTER
 10
3537.353287
 20
1998.200000
 11
3779.518614
 21
1998.200000
  0
LINE
  8
3
 62
     3
  6
CENTER
 10
3654.603338
 20
2107.197250
 11
3654.603338
 21
1881.780925
  0
CIRCLE
  8
3
 62
     4
  6
CONTINUOUS
 10
3733.092190
 20
2076.688853
 40
7.000000
  0
CIRCLE
  8
3
 62
     4
  6
CONTINUOUS
 10
3576.114485
 20
2076.688853
 40
7.000000
  0
INSERT
  8
0
  2
G22
 10
0
 20
0
  0
LINE
  8
0
 62
     1
  6
CONTINUOUS
 10
3008.863476
 20
801.142875
 11
3008.863476
 21
786.948668
  0
LINE
  8
0
 62
     1
  6
CONTINUOUS
 10
2836.863476
 20
786.948668
 11
2836.863476
 21
801.142875
  0
LINE
  8
0
 62
     1
  6
CONTINUOUS
 10
3008.863476
 20
865.841207
 11
3008.863476
 21
832.818100
  0
LINE
  8
0
 62
     1
  6
CONTINUOUS
 10
2836.863476
 20
865.841207
 11
2836.863476
 21
832.312644
  0
LINE
  8
0
 62
     1
  6
CONTINUOUS
 10
2977.863476
 20
865.841207
 11
2977.863476
 21
851.592951
  0
TEXT
  8
0
 62
     6
 10
3177.087629
 20
2563.485825
 40
35.000000
 50
0.000000E+00
 41
0.60 
  1
240,260,280
 72
     5
 11
3409.587629
 21
2563.485825
  0
TEXT
  8
0
 62
     6
 10
3178.948131
 20
2521.370812
 40
35.000000
 50
0.000000E+00
 41
0.60 
  1
300,340,360
 72
     5
 11
3411.448131
 21
2521.370812
  0
LINE
  8
0
 62
     1
  6
CONTINUOUS
 10
2867.863476
 20
865.841207
 11
2867.863476
 21
851.592951
  0
INSERT
  8
0
  2
G23
 10
0
 20
0
  0
INSERT
  8
0
  2
G24
 10
0
 20
0
  0
LINE
  8
0
 62
     2
  6
CONTINUOUS
 10
3027.863476
 20
1454.728715
 11
2922.863476
 21
1454.728715
  0
LINE
  8
0
 62
     2
  6
CONTINUOUS
 10
3027.863476
 20
1462.728715
 11
2922.863476
 21
1462.728715
  0
ARC
  8
0
 62
     2
  6
CONTINUOUS
 10
3021.863476
 20
1453.728715
 40
1.000000
 50
90.000000
 51
180.000000
  0
LINE
  8
0
 62
     2
  6
CONTINUOUS
 10
3020.863476
 20
1451.728715
 11
3020.863476
 21
1453.728715
  0
LINE
  8
0
 62
     2
  6
CONTINUOUS
 10
3027.863476
 20
1454.728715
 11
3027.863476
 21
1462.728715
  0
LINE
  8
0
 62
     1
  6
CONTINUOUS
 10
2867.863476
 20
928.227117
 11
2867.863476
 21
900.549166
  0
LINE
  8
0
 62
     1
  6
CONTINUOUS
 10
2977.863476
 20
928.227117
 11
2977.863476
 21
900.549166
  0
LINE
  8
0
 62
     1
  6
CONTINUOUS
 10
3008.863476
 20
1200.099028
 11
3008.863476
 21
900.549166
  0
LINE
  8
0
 62
     1
  6
CONTINUOUS
 10
2836.863476
 20
1200.099028
 11
2836.863476
 21
900.549166
  0
TEXT
  8
0
 62
     6
 10
2536.833607
 20
2543.812443
 40
35.000000
 50
0.000000E+00
 41
0.85 
  1
４ＳＦ－　　　－　　　　００００－Ｐ
 72
     5
 11
3152.333607
 21
2543.812443
  0
POINT
  8
0
 62
     3
 10
2922.863476
 20
1846.227117
  0
LINE
  8
3
 62
     3
  6
CONTINUOUS
 10
2847.863476
 20
1916.227117
 11
2922.863476
 21
1916.227117
  0
LINE
  8
3
 62
     3
  6
CONTINUOUS
 10
2861.893492
 20
1835.743100
 11
2922.863476
 21
1835.743100
  0
LINE
  8
3
 62
     3
  6
CONTINUOUS
 10
2845.124453
 20
1739.103002
 11
2922.863476
 21
1739.103002
  0
LINE
  8
3
 62
     3
  6
CENTER
 10
2922.863476
 20
1928.701565
 11
2922.863476
 21
1475.909326
  0
LINE
  8
0
 62
     2
  6
CONTINUOUS
 10
2817.863476
 20
1462.728715
 11
2922.863476
 21
1462.728715
  0
LINE
  8
0
 62
     3
  6
CONTINUOUS
 10
3008.863476
 20
1731.986486
 11
3008.863476
 21
1721.227117
  0
ARC
  8
0
 62
     3
  6
CONTINUOUS
 10
2973.863476
 20
1731.986486
 40
35.000000
 50
0.000000E+00
 51
17.716492
  0
ARC
  8
1
 62
     3
  6
CONTINUOUS
 10
3011.863476
 20
1591.227117
 40
3.000000
 50
90.000000
 51
180.000000
  0
ARC
  8
1
 62
     3
  6
CONTINUOUS
 10
3011.863476
 20
1721.227117
 40
3.000000
 50
180.000000
 51
270.000000
  0
ARC
  8
1
 62
     3
  6
CONTINUOUS
 10
3015.863476
 20
1716.227117
 40
2.000000
 50
0.000000E+00
 51
90.000000
  0
LINE
  8
1
 62
     3
  6
CONTINUOUS
 10
3015.863476
 20
1594.227117
 11
3011.863476
 21
1594.227117
  0
LINE
  8
1
 62
     3
  6
CONTINUOUS
 10
3015.863476
 20
1718.227117
 11
3011.863476
 21
1718.227117
  0
LINE
  8
3
 62
     3
  6
CONTINUOUS
 10
3082.863476
 20
1718.727117
 11
3082.863476
 21
1593.727117
  0
LINE
  8
3
 62
     3
  6
CONTINUOUS
 10
3077.863476
 20
1718.727117
 11
3077.863476
 21
1716.227117
  0
LINE
  8
3
 62
     3
  6
CONTINUOUS
 10
3077.863476
 20
1718.727117
 11
3082.863476
 21
1718.727117
  0
LINE
  8
3
 62
     3
  6
CONTINUOUS
 10
3077.863476
 20
1596.227117
 11
3017.863476
 21
1596.227117
  0
ARC
  8
1
 62
     3
  6
CONTINUOUS
 10
3015.863476
 20
1596.227117
 40
2.000000
 50
270.000000
 51
360.000000
  0
LINE
  8
3
 62
     3
  6
CONTINUOUS
 10
3077.863476
 20
1716.227117
 11
3017.863476
 21
1716.227117
  0
LINE
  8
3
 62
     3
  6
CONTINUOUS
 10
3077.863476
 20
1593.727117
 11
3082.863476
 21
1593.727117
  0
LINE
  8
3
 62
     3
  6
CONTINUOUS
 10
3077.863476
 20
1593.727117
 11
3077.863476
 21
1716.227117
  0
LINE
  8
0
 62
     2
  6
CONTINUOUS
 10
2824.863476
 20
1469.728715
 11
3020.863476
 21
1469.728715
  0
ARC
  8
0
 62
     2
  6
CONTINUOUS
 10
2823.863476
 20
1453.728715
 40
1.000000
 50
360.000000
 51
450.000000
  0
POINT
  8
0
 62
     3
 10
2922.863476
 20
1406.227117
  0
POINT
  8
0
 62
     3
 10
2922.863476
 20
1428.727117
  0
POINT
  8
0
 62
     3
 10
2922.863476
 20
1443.227117
  0
LINE
  8
1
 62
     4
  6
CONTINUOUS
 10
2827.863476
 20
1416.227117
 11
2827.863476
 21
1296.227117
  0
ARC
  8
1
 62
     4
  6
CONTINUOUS
 10
2817.062159
 20
1390.987309
 40
30.639745
 50
33.671563
 51
62.448001
  0
LINE
  8
1
 62
     4
  6
CONTINUOUS
 10
2833.863476
 20
1294.227117
 11
2829.863476
 21
1294.227117
  0
ARC
  8
1
 62
     4
  6
CONTINUOUS
 10
2833.863476
 20
1291.227117
 40
3.000000
 50
0.000000E+00
 51
90.000000
  0
ARC
  8
1
 62
     4
  6
CONTINUOUS
 10
2829.863476
 20
1416.227117
 40
2.000000
 50
90.000000
 51
180.000000
  0
ARC
  8
1
 62
     4
  6
CONTINUOUS
 10
2829.863476
 20
1296.227117
 40
2.000000
 50
180.000000
 51
270.000000
  0
POINT
  8
3
 62
     7
 10
2836.863476
 20
1416.227117
  0
ARC
  8
3
 62
     4
  6
CONTINUOUS
 10
2862.735293
 20
1428.175616
 40
28.500781
 50
225.057601
 51
244.512889
  0
INSERT
  8
0
  2
G25
 10
0
 20
0
  0
TEXT
  8
0
 62
     7
 10
3036.717552
 20
1769.590527
 40
32.000000
 50
0.000000E+00
 41
0.78 
  1
７５枝管
 72
     5
 11
3148.717552
 21
1769.590527
  0
CIRCLE
  8
3
 62
     4
  6
CONTINUOUS
 10
3576.114485
 20
1919.711147
 40
7.000000
  0
CIRCLE
  8
3
 62
     4
  6
CONTINUOUS
 10
3733.092190
 20
1919.711147
 40
7.000000
  0
LINE
  8
0
 62
     7
  6
CONTINUOUS
 10
3070.343034
 20
1762.311644
 11
3070.343034
 21
1720.527305
  0
SOLID
  8
0
 62
     7
 10
3062.578462
 20
1749.505080
 11
3078.107605
 21
1749.505080
 12
3070.343034
 22
1720.527305
 13
3070.343034
 23
1720.527305
  0
LINE
  8
0
 62
     7
  6
CONTINUOUS
 10
2775.383918
 20
1762.311644
 11
2775.383918
 21
1720.527305
  0
SOLID
  8
0
 62
     7
 10
2767.619347
 20
1749.505080
 11
2783.148489
 21
1749.505080
 12
2775.383918
 22
1720.527305
 13
2775.383918
 23
1720.527305
  0
ARC
  8
2
 62
     3
  6
CONTINUOUS
 10
2997.905401
 20
1822.600741
 40
15.000000
 50
120.111013
 51
197.716492
  0
LINE
  8
0
 62
     3
  6
CONTINUOUS
 10
2836.863476
 20
1591.227117
 11
2836.863476
 21
1469.728715
  0
LINE
  8
0
 62
     2
  6
CONTINUOUS
 10
2824.863476
 20
1469.728715
 11
2817.863476
 21
1462.728715
  0
LINE
  8
3
 62
     4
  6
CENTER
 10
2922.863476
 20
923.139597
 11
2922.863476
 21
1163.831738
  0
LINE
  8
3
 62
     4
  6
CENTER
 10
2922.863476
 20
1163.831738
 11
2922.863476
 21
1475.909326
  0
ARC
  8
2
 62
     3
  6
CONTINUOUS
 10
2847.821550
 20
1822.600741
 40
15.000000
 50
342.283508
 51
419.888987
  0
LINE
  8
0
 62
     3
  6
CONTINUOUS
 10
2983.616793
 20
1818.036132
 11
3007.203563
 21
1742.637240
  0
LINE
  8
0
 62
     3
  6
CONTINUOUS
 10
2862.110159
 20
1818.036132
 11
2838.523388
 21
1742.637240
  0
LINE
  8
3
 62
     3
  6
CONTINUOUS
 10
2983.833460
 20
1835.743100
 11
2922.863476
 21
1835.743100
  0
ARC
  8
0
 62
     3
  6
CONTINUOUS
 10
2871.863476
 20
1731.986486
 40
35.000000
 50
162.283508
 51
180.000000
  0
LINE
  8
0
 62
     3
  6
CONTINUOUS
 10
2836.863476
 20
1731.986486
 11
2836.863476
 21
1721.227117
  0
LINE
  8
3
 62
     4
  6
CONTINUOUS
 10
2817.863476
 20
1451.227117
 11
2817.863476
 21
1436.227117
  0
LINE
  8
3
 62
     4
  6
CONTINUOUS
 10
2818.863476
 20
1436.227117
 11
2817.863476
 21
1436.227117
  0
ARC
  8
3
 62
     4
  6
CONTINUOUS
 10
2818.863476
 20
1434.227117
 40
2.000000
 50
0.000000E+00
 51
90.000000
  0
LINE
  8
3
 62
     4
  6
CONTINUOUS
 10
2820.863476
 20
1434.227117
 11
2820.863476
 21
1432.727117
  0
ARC
  8
3
 62
     4
  6
CONTINUOUS
 10
2822.363476
 20
1432.727117
 40
1.500000
 50
180.000000
 51
270.000000
  0
LINE
  8
3
 62
     4
  6
CONTINUOUS
 10
2826.304328
 20
1431.227117
 11
2829.863476
 21
1426.926479
  0
LINE
  8
3
 62
     4
  6
CONTINUOUS
 10
2829.863476
 20
1426.926479
 11
2829.863476
 21
1418.227117
  0
LINE
  8
3
 62
     4
  6
CONTINUOUS
 10
3019.422624
 20
1431.227117
 11
3015.863476
 21
1426.926479
  0
LINE
  8
3
 62
     4
  6
CONTINUOUS
 10
3023.363476
 20
1431.227117
 11
2822.363476
 21
1431.227117
  0
ARC
  8
3
 62
     4
  6
CONTINUOUS
 10
3023.363476
 20
1432.727117
 40
1.500000
 50
270.000000
 51
360.000000
  0
LINE
  8
3
 62
     4
  6
CONTINUOUS
 10
3024.863476
 20
1434.227117
 11
3024.863476
 21
1432.727117
  0
ARC
  8
3
 62
     4
  6
CONTINUOUS
 10
3026.863476
 20
1434.227117
 40
2.000000
 50
90.000000
 51
180.000000
  0
LINE
  8
3
 62
     3
  6
CENTER
 10
3001.352329
 20
1427.283548
 11
3001.352329
 21
1457.774319
  0
LINE
  8
3
 62
     3
  6
CENTER
 10
2844.374623
 20
1427.283548
 11
2844.374623
 21
1457.774319
  0
LINE
  8
3
 62
     4
  6
CENTER
 10
2819.356192
 20
1356.227117
 11
3019.481707
 21
1356.227117
  0
LINE
  8
3
 62
     4
  6
CONTINUOUS
 10
3026.863476
 20
1436.227117
 11
3027.863476
 21
1436.227117
  0
LINE
  8
3
 62
     4
  6
CONTINUOUS
 10
3027.863476
 20
1451.227117
 11
3027.863476
 21
1436.227117
  0
ARC
  8
3
 62
     4
  6
CONTINUOUS
 10
2975.863476
 20
938.227117
 40
2.000000
 50
270.000000
 51
360.000000
  0
ARC
  8
3
 62
     4
  6
CONTINUOUS
 10
2869.863476
 20
938.227117
 40
2.000000
 50
180.000000
 51
270.000000
  0
LINE
  8
3
 62
     4
  6
CONTINUOUS
 10
3027.863476
 20
1451.227117
 11
2817.863476
 21
1451.227117
  0
LINE
  8
3
 62
     4
  6
CONTINUOUS
 10
2818.863476
 20
1436.227117
 11
3026.863476
 21
1436.227117
  0
LINE
  8
3
 62
     4
  6
CONTINUOUS
 10
3008.863476
 20
1210.099028
 11
3008.863476
 21
1291.227117
  0
LINE
  8
3
 62
     4
  6
CONTINUOUS
 10
3015.863476
 20
1426.926479
 11
2829.863476
 21
1426.926479
  0
LINE
  8
3
 62
     4
  6
CONTINUOUS
 10
2836.863476
 20
1206.227117
 11
2836.863476
 21
1291.227117
  0
LINE
  8
3
 62
     4
  6
CONTINUOUS
 10
2842.114387
 20
1206.227117
 11
3003.612565
 21
1206.227117
  0
LINE
  8
3
 62
     4
  6
CONTINUOUS
 10
2872.612565
 20
1086.227117
 11
2973.114387
 21
1086.227117
  0
LINE
  8
3
 62
     4
  6
CONTINUOUS
 10
2975.863476
 20
936.227117
 11
2869.863476
 21
936.227117
  0
LINE
  8
3
 62
     4
  6
CONTINUOUS
 10
2977.863476
 20
1082.355205
 11
2977.863476
 21
938.227117
  0
ARC
  8
3
 62
     4
  6
CONTINUOUS
 10
2973.863476
 20
1210.099028
 40
35.000000
 50
345.291696
 51
360.000000
  0
LINE
  8
3
 62
     4
  6
CONTINUOUS
 10
3007.716560
 20
1201.212593
 11
2978.682702
 21
1088.702658
  0
ARC
  8
3
 62
     4
  6
CONTINUOUS
 10
3002.863476
 20
1082.355205
 40
25.000000
 50
165.291696
 51
180.000000
  0
LINE
  8
3
 62
     4
  6
CONTINUOUS
 10
2867.863476
 20
1082.355205
 11
2867.863476
 21
938.227117
  0
ARC
  8
3
 62
     4
  6
CONTINUOUS
 10
2871.863476
 20
1210.099028
 40
35.000000
 50
180.000000
 51
194.708304
  0
LINE
  8
3
 62
     4
  6
CONTINUOUS
 10
2838.010392
 20
1201.212593
 11
2867.044250
 21
1088.702658
  0
ARC
  8
3
 62
     4
  6
CONTINUOUS
 10
2842.863476
 20
1082.355205
 40
25.000000
 50
0.000000E+00
 51
14.708304
  0
LINE
  8
3
 62
     3
  6
CONTINUOUS
 10
3000.602498
 20
1739.103002
 11
2922.863476
 21
1739.103002
  0
ARC
  8
3
 62
     3
  6
CONTINUOUS
 10
2999.863476
 20
1911.644541
 40
5.000000
 50
113.578178
 51
180.000000
  0
ARC
  8
0
 62
     3
  6
CONTINUOUS
 10
2973.863476
 20
1731.986486
 40
35.000000
 50
0.000000E+00
 51
17.716492
  0
LINE
  8
3
 62
     3
  6
CONTINUOUS
 10
2997.863476
 20
1921.227117
 11
2997.863476
 21
1916.227117
  0
ARC
  8
3
 62
     3
  6
CONTINUOUS
 10
2845.863476
 20
1911.644541
 40
5.000000
 50
360.000000
 51
426.421822
  0
LINE
  8
0
 62
     2
  6
CONTINUOUS
 10
3020.863476
 20
1469.728715
 11
3027.863476
 21
1462.728715
  0
LINE
  8
3
 62
     3
  6
CENTER
 10
3088.797182
 20
1656.227117
 11
2754.733633
 21
1656.227117
  0
ARC
  8
3
 62
     3
  6
CONTINUOUS
 10
2860.863476
 20
1844.227117
 40
10.000000
 50
180.000000
 51
238.038250
  0
LINE
  8
3
 62
     3
  6
CONTINUOUS
 10
2994.863476
 20
1911.644541
 11
2994.863476
 21
1844.227117
  0
LINE
  8
3
 62
     3
  6
CONTINUOUS
 10
2850.863476
 20
1911.644541
 11
2850.863476
 21
1844.227117
  0
ARC
  8
3
 62
     3
  6
CONTINUOUS
 10
2984.863476
 20
1844.227117
 40
10.000000
 50
302.527138
 51
360.000000
  0
LINE
  8
0
 62
     3
  6
CONTINUOUS
 10
3008.863476
 20
1591.227117
 11
3008.863476
 21
1469.728715
  0
LINE
  8
3
 62
     3
  6
CONTINUOUS
 10
2847.863476
 20
1921.227117
 11
2847.863476
 21
1916.227117
  0
LINE
  8
3
 62
     3
  6
CONTINUOUS
 10
2847.863476
 20
1921.227117
 11
2997.863476
 21
1921.227117
  0
LINE
  8
3
 62
     3
  6
CONTINUOUS
 10
2997.863476
 20
1916.227117
 11
2922.863476
 21
1916.227117
  0
LINE
  8
0
 62
     3
  6
CONTINUOUS
 10
3008.863476
 20
1721.227117
 11
3008.863476
 21
1731.986486
  0
LINE
  8
0
 62
     2
  6
CONTINUOUS
 10
2817.863476
 20
1454.728715
 11
2817.863476
 21
1462.728715
  0
LINE
  8
0
 62
     2
  6
CONTINUOUS
 10
2824.863476
 20
1451.728715
 11
3020.863476
 21
1451.728715
  0
LINE
  8
0
 62
     2
  6
CONTINUOUS
 10
2817.863476
 20
1454.728715
 11
2922.863476
 21
1454.728715
  0
LINE
  8
0
 62
     2
  6
CONTINUOUS
 10
2824.863476
 20
1451.728715
 11
2824.863476
 21
1453.728715
  0
LINE
  8
3
 62
     4
  6
CONTINUOUS
 10
2855.710101
 20
1401.227117
 11
2880.213740
 21
1401.227117
  0
POINT
  8
3
 62
     4
 10
3008.863476
 20
1294.227117
  0
POINT
  8
3
 62
     7
 10
3008.863476
 20
1416.227117
  0
ARC
  8
3
 62
     4
  6
CENTER
 10
3654.603338
 20
1998.200000
 40
111.000000
 50
124.510429
 51
142.981003
  0
ARC
  8
3
 62
     4
  6
CONTINUOUS
 10
3654.603338
 20
1998.200000
 40
100.000000
 50
53.109614
 51
126.890386
  0
ARC
  8
3
 62
     4
  6
CONTINUOUS
 10
3654.603338
 20
1998.200000
 40
100.000000
 50
143.109614
 51
216.890386
  0
ARC
  8
3
 62
     4
  6
CONTINUOUS
 10
3654.603338
 20
1998.200000
 40
100.000000
 50
233.109614
 51
306.890386
  0
ARC
  8
0
 62
     4
  6
CONTINUOUS
 10
3654.603338
 20
1998.200000
 40
100.000000
 50
306.038338
 51
323.961662
  0
LINE
  8
0
 62
     3
  6
CONTINUOUS
 10
3784.236200
 20
1852.883954
 11
4038.140334
 21
1852.883954
  0
TEXT
  8
0
 62
     3
 10
3788.236200
 20
1858.217287
 40
32.000000
 50
0.000000E+00
 41
0.87 
  1
Ｃ矢視　（下部）
 72
     5
 11
4044.236200
 21
1858.217287
  0
TEXT
  8
0
 62
     7
 10
2697.009399
 20
1759.590527
 40
32.000000
 50
360.000000
 41
0.78 
  1
７５枝管
 72
     5
 11
2809.009399
 21
1759.590527
  0
LINE
  8
3
 62
     3
  6
CONTINUOUS
 10
2767.863476
 20
1593.727117
 11
2767.863476
 21
1716.227117
  0
LINE
  8
3
 62
     3
  6
CONTINUOUS
 10
2767.863476
 20
1593.727117
 11
2762.863476
 21
1593.727117
  0
LINE
  8
3
 62
     3
  6
CONTINUOUS
 10
2767.863476
 20
1718.727117
 11
2762.863476
 21
1718.727117
  0
LINE
  8
3
 62
     3
  6
CONTINUOUS
 10
2767.863476
 20
1718.727117
 11
2767.863476
 21
1716.227117
  0
LINE
  8
3
 62
     3
  6
CONTINUOUS
 10
2762.863476
 20
1718.727117
 11
2762.863476
 21
1593.727117
  0
INSERT
  8
0
  2
G26
 10
0
 20
0
  0
LINE
  8
3
 62
     3
  6
CONTINUOUS
 10
2767.863476
 20
1596.227117
 11
2827.863476
 21
1596.227117
  0
LINE
  8
3
 62
     3
  6
CONTINUOUS
 10
2767.863476
 20
1716.227117
 11
2827.863476
 21
1716.227117
  0
INSERT
  8
0
  2
G27
 10
0
 20
0
  0
INSERT
  8
0
  2
G28
 10
0
 20
0
  0
TEXT
  8
0
 62
     3
 10
3311.553615
 20
579.564184
 40
32.000000
 50
0.000000E+00
 41
0.94 
  1
対応可能Ｐ寸法　２４０～３６０
 72
     5
 11
3837.267923
 21
579.564184
  0
TEXT
  8
0
 62
     2
 10
3948.410366
 20
1000.076846
 40
30.000000
 50
0.000000E+00
 41
0.58 
  1
94
 72
     5
 11
3983.410366
 21
1000.076846
  0
LINE
  8
0
 62
     2
  6
CONTINUOUS
 10
3483.552739
 20
1190.846702
 11
3606.433699
 21
1108.921646
  0
TEXT
  8
0
 62
     2
 10
3488.121837
 20
1061.537257
 40
30.000000
 50
0.000000E+00
 41
0.86 
  1
受口深さ
 72
     5
 11
3608.121837
 21
1061.537257
  0
TEXT
  8
0
 62
     2
 10
3724.570046
 20
1061.516846
 40
30.000000
 50
0.000000E+00
 41
0.58 
  1
65
 72
     5
 11
3759.570046
 21
1061.516846
  0
TEXT
  8
0
 62
     2
 10
3824.261511
 20
1000.076846
 40
30.000000
 50
0.000000E+00
 41
0.61 
  1
110
 72
     5
 11
3879.261511
 21
1000.076846
  0
TEXT
  8
0
 62
     2
 10
3714.809031
 20
1001.803982
 40
30.000000
 50
0.000000E+00
 41
0.61 
  1
125
 72
     5
 11
3769.809031
 21
1001.803982
  0
LINE
  8
0
 62
     2
  6
CONTINUOUS
 10
3994.113379
 20
1149.881678
 11
3994.113379
 21
1149.881486
  0
LINE
  8
0
 62
     2
  6
CONTINUOUS
 10
3483.552739
 20
1190.846702
 11
4024.114339
 21
1190.846702
  0
LINE
  8
0
 62
     2
  6
CONTINUOUS
 10
3483.552739
 20
1149.881678
 11
3483.552739
 21
1190.846702
  0
TEXT
  8
0
 62
     2
 10
3495.330843
 20
1004.387725
 40
30.000000
 50
0.000000E+00
 41
0.86 
  1
Ａ寸法
 72
     5
 11
3585.330843
 21
1004.387725
  0
LINE
  8
0
 62
     2
  6
CONTINUOUS
 10
3483.552739
 20
1047.481646
 11
4024.114339
 21
1047.481646
  0
LINE
  8
0
 62
     2
  6
CONTINUOUS
 10
3483.552739
 20
1149.881678
 11
3483.552739
 21
924.601646
  0
TEXT
  8
0
 62
     2
 10
3928.456285
 20
1114.716379
 40
30.000000
 50
0.000000E+00
 41
0.63 
  1
50(1)
 72
     5
 11
4023.456285
 21
1114.716379
  0
TEXT
  8
0
 62
     2
 10
3816.535645
 20
1114.716379
 40
30.000000
 50
0.000000E+00
 41
0.63 
  1
65(2)
 72
     5
 11
3911.535645
 21
1114.716379
  0
TEXT
  8
0
 62
     2
 10
3704.615965
 20
1114.716379
 40
30.000000
 50
0.000000E+00
 41
0.63 
  1
75(3)
 72
     5
 11
3799.615965
 21
1114.716379
  0
LINE
  8
0
 62
     2
  6
CONTINUOUS
 10
3483.552739
 20
924.601646
 11
4024.114339
 21
924.601646
  0
LINE
  8
0
 62
     2
  6
CONTINUOUS
 10
3912.193699
 20
1149.881486
 11
3912.193699
 21
924.601646
  0
LINE
  8
0
 62
     2
  6
CONTINUOUS
 10
3688.353379
 20
1047.481646
 11
3606.433699
 21
986.041646
  0
LINE
  8
0
 62
     2
  6
CONTINUOUS
 10
3800.273059
 20
1149.881678
 11
3800.273059
 21
924.601646
  0
LINE
  8
0
 62
     2
  6
CONTINUOUS
 10
3688.353379
 20
1189.607822
 11
3688.353379
 21
924.601646
  0
LINE
  8
0
 62
     2
  6
CONTINUOUS
 10
3606.433699
 20
1189.607822
 11
3606.433699
 21
924.601646
  0
TEXT
  8
0
 62
     2
 10
3733.916713
 20
1154.795013
 40
30.000000
 50
0.000000E+00
 41
0.86 
  1
下部横枝管サイズ
 72
     5
 11
3973.916713
 21
1154.795013
  0
LINE
  8
0
 62
     2
  6
CONTINUOUS
 10
3483.552739
 20
1108.921646
 11
4024.114339
 21
1108.921646
  0
LINE
  8
0
 62
     2
  6
CONTINUOUS
 10
3688.353379
 20
1149.881678
 11
4024.114339
 21
1149.881678
  0
LINE
  8
0
 62
     2
  6
CONTINUOUS
 10
3483.552739
 20
986.041646
 11
4024.114339
 21
986.041646
  0
TEXT
  8
0
 62
     2
 10
3495.330843
 20
942.947725
 40
30.000000
 50
0.000000E+00
 41
0.86 
  1
Ｂ寸法
 72
     5
 11
3585.330843
 21
942.947725
  0
LINE
  8
0
 62
     2
  6
CONTINUOUS
 10
4024.114339
 20
1190.846702
 11
4024.114339
 21
924.601646
  0
LINE
  8
0
 62
     2
  6
CONTINUOUS
 10
3688.353379
 20
986.041646
 11
3606.433699
 21
924.601646
  0
TEXT
  8
0
 62
     2
 10
3632.650366
 20
1061.516846
 40
30.000000
 50
0.000000E+00
 41
0.58 
  1
75
 72
     5
 11
3667.650366
 21
1061.516846
  0
TEXT
  8
0
 62
     2
 10
3836.489726
 20
1061.516846
 40
30.000000
 50
0.000000E+00
 41
0.58 
  1
65
 72
     5
 11
3871.489726
 21
1061.516846
  0
TEXT
  8
0
 62
     2
 10
3948.410366
 20
1061.516846
 40
30.000000
 50
0.000000E+00
 41
0.58 
  1
65
 72
     5
 11
3983.410366
 21
1061.516846
  0
TEXT
  8
0
 62
     2
 10
3609.048500
 20
1159.938571
 40
18.400000
 50
0.000000E+00
 41
0.89 
  1
立管受口
 72
     5
 11
3685.048499
 21
1159.938571
  0
TEXT
  8
0
 62
     2
 10
3625.578794
 20
1121.253863
 40
25.600000
 50
0.000000E+00
 41
0.55 
  1
100
 72
     5
 11
3667.635939
 21
1121.253863
  0
TEXT
  8
0
 62
     2
 10
3724.570046
 20
938.636846
 40
30.000000
 50
0.000000E+00
 41
0.58 
  1
60
 72
     5
 11
3759.570046
 21
938.636846
  0
TEXT
  8
0
 62
     2
 10
3836.489726
 20
938.636846
 40
30.000000
 50
0.000000E+00
 41
0.58 
  1
52
 72
     5
 11
3871.489726
 21
938.636846
  0
TEXT
  8
0
 62
     2
 10
3948.410366
 20
938.636846
 40
30.000000
 50
0.000000E+00
 41
0.58 
  1
44
 72
     5
 11
3983.410366
 21
938.636846
  0
TEXT
  8
0
 62
     2
 10
3733.220431
 20
759.025896
 40
30.000000
 50
0.000000E+00
 41
0.61 
  1
850
 72
     5
 11
3788.220431
 21
759.025896
  0
TEXT
  8
0
 62
     2
 10
3314.281517
 20
837.217257
 40
30.000000
 50
0.000000E+00
 41
0.86 
  1
Ｐ
 72
     5
 11
3344.281517
 21
837.217257
  0
TEXT
  8
0
 62
     2
 10
3530.729726
 20
837.196846
 40
30.000000
 50
0.000000E+00
 41
0.61 
  1
260
 72
     5
 11
3585.729726
 21
837.196846
  0
TEXT
  8
0
 62
     2
 10
3630.421191
 20
759.025896
 40
30.000000
 50
0.000000E+00
 41
0.61 
  1
830
 72
     5
 11
3685.421191
 21
759.025896
  0
TEXT
  8
0
 62
     2
 10
3530.968711
 20
760.753032
 40
30.000000
 50
0.000000E+00
 41
0.61 
  1
810
 72
     5
 11
3585.968711
 21
760.753032
  0
LINE
  8
0
 62
     2
  6
CONTINUOUS
 10
4022.541101
 20
871.364597
 11
4022.541101
 21
871.364405
  0
LINE
  8
0
 62
     2
  6
CONTINUOUS
 10
3244.712419
 20
884.601646
 11
3244.712419
 21
640.281646
  0
TEXT
  8
0
 62
     2
 10
3255.240523
 20
765.067725
 40
30.000000
 50
0.000000E+00
 41
0.72 
  1
Ｌ（有効長）
 72
     5
 11
3405.240523
 21
765.067725
  0
LINE
  8
0
 62
     2
  6
CONTINUOUS
 10
3244.712419
 20
823.161646
 11
4024.114339
 21
823.161646
  0
TEXT
  8
0
 62
     2
 10
3943.410366
 20
837.196846
 40
30.000000
 50
0.000000E+00
 41
0.61 
  1
360
 72
     5
 11
3998.410366
 21
837.196846
  0
LINE
  8
0
 62
     2
  6
CONTINUOUS
 10
3912.193699
 20
884.601646
 11
3912.193699
 21
640.281646
  0
LINE
  8
0
 62
     2
  6
CONTINUOUS
 10
4024.114339
 20
884.601646
 11
4024.114339
 21
640.281646
  0
LINE
  8
0
 62
     2
  6
CONTINUOUS
 10
3708.353379
 20
884.601646
 11
3708.353379
 21
640.281646
  0
LINE
  8
0
 62
     2
  6
CONTINUOUS
 10
3606.432739
 20
884.601646
 11
3606.432739
 21
640.281646
  0
LINE
  8
0
 62
     2
  6
CONTINUOUS
 10
3504.513059
 20
884.601646
 11
3504.513059
 21
640.281646
  0
LINE
  8
0
 62
     2
  6
CONTINUOUS
 10
3402.593379
 20
884.601646
 11
3402.593379
 21
640.281646
  0
TEXT
  8
0
 62
     2
 10
3836.729671
 20
760.753032
 40
30.000000
 50
0.000000E+00
 41
0.61 
  1
890
 72
     5
 11
3891.729671
 21
760.753032
  0
LINE
  8
0
 62
     2
  6
CONTINUOUS
 10
3244.712419
 20
884.601646
 11
4024.114339
 21
884.601646
  0
TEXT
  8
0
 62
     2
 10
3941.182151
 20
759.025896
 40
30.000000
 50
0.000000E+00
 41
0.61 
  1
910
 72
     5
 11
3996.182151
 21
759.025896
  0
LINE
  8
0
 62
     2
  6
CONTINUOUS
 10
3244.712419
 20
731.721646
 11
4024.114339
 21
731.721646
  0
TEXT
  8
0
 62
     2
 10
3255.240523
 20
673.627725
 40
30.000000
 50
0.000000E+00
 41
0.72 
  1
Ｌｔ（全長）
 72
     5
 11
3405.240523
 21
673.627725
  0
LINE
  8
0
 62
     2
  6
CONTINUOUS
 10
3810.274019
 20
884.601646
 11
3810.274019
 21
640.281646
  0
TEXT
  8
0
 62
     2
 10
3428.810046
 20
837.196846
 40
30.000000
 50
0.000000E+00
 41
0.61 
  1
240
 72
     5
 11
3483.810046
 21
837.196846
  0
TEXT
  8
0
 62
     2
 10
3632.649406
 20
837.196846
 40
30.000000
 50
0.000000E+00
 41
0.61 
  1
280
 72
     5
 11
3687.649406
 21
837.196846
  0
TEXT
  8
0
 62
     2
 10
3734.570046
 20
837.196846
 40
30.000000
 50
0.000000E+00
 41
0.61 
  1
300
 72
     5
 11
3789.570046
 21
837.196846
  0
TEXT
  8
0
 62
     2
 10
3836.490686
 20
837.196846
 40
30.000000
 50
0.000000E+00
 41
0.61 
  1
340
 72
     5
 11
3891.490686
 21
837.196846
  0
TEXT
  8
0
 62
     2
 10
3429.049031
 20
669.313032
 40
30.000000
 50
0.000000E+00
 41
0.61 
  1
865
 72
     5
 11
3484.049031
 21
669.313032
  0
TEXT
  8
0
 62
     2
 10
3941.182151
 20
667.585896
 40
30.000000
 50
0.000000E+00
 41
0.61 
  1
985
 72
     5
 11
3996.182151
 21
667.585896
  0
TEXT
  8
0
 62
     2
 10
3429.049031
 20
760.753032
 40
30.000000
 50
0.000000E+00
 41
0.61 
  1
790
 72
     5
 11
3484.049031
 21
760.753032
  0
TEXT
  8
0
 62
     2
 10
3836.729671
 20
669.313032
 40
30.000000
 50
0.000000E+00
 41
0.61 
  1
965
 72
     5
 11
3891.729671
 21
669.313032
  0
TEXT
  8
0
 62
     2
 10
3530.968711
 20
669.313032
 40
30.000000
 50
0.000000E+00
 41
0.61 
  1
885
 72
     5
 11
3585.968711
 21
669.313032
  0
TEXT
  8
0
 62
     2
 10
3630.421191
 20
667.585896
 40
30.000000
 50
0.000000E+00
 41
0.61 
  1
905
 72
     5
 11
3685.421191
 21
667.585896
  0
TEXT
  8
0
 62
     2
 10
3733.220431
 20
667.585896
 40
30.000000
 50
0.000000E+00
 41
0.61 
  1
925
 72
     5
 11
3788.220431
 21
667.585896
  0
LINE
  8
0
 62
     2
  6
CONTINUOUS
 10
3244.712419
 20
640.281646
 11
4024.114339
 21
640.281646
  0
ENDSEC
  0
EOF
