  0
SECTION
  2
HEADER
  9
$INSBASE
 10
0
 20
0
  9
$EXTMIN
 10
0
 20
0
  9
$EXTMAX
 10
4200.000000
 20
2970.000000
  9
$LIMMIN
 10
0
 20
0
  9
$LIMMAX
 10
4200.000000
 20
2970.000000
  9
$VIEWCTR
 10
2100.000000
 20
1485.000000
  9
$DIMASZ
 40
30.000000
  9
$DIMDLI
 40
80.000000
  9
$DIMEXE
 40
10.000000
  9
$DIMEXO
 40
10.000000
  9
$DIMTXT
 40
32.000000
  9
$TEXTSIZE
 40
32.000000
  9
$ANGBASE
 50
0.0
  9
$ANGDIR
 70
     0
  9
$ATTMODE
 70
     1
  9
$AUNITS
 70
     1
  9
$AUPREC
 70
     2
  9
$AXISMODE
 70
     0
  9
$AXISUNIT
 10
0.0
 20
0.0
  9
$BLIPMODE
 70
     1
  9
$CECOLOR
 62
   256
  9
$CELTYPE
  6
BYLAYER
  9
$CHAMFERA
 40
0.0
  9
$CHAMFERB
 40
0.0
  9
$CLAYER
  8
0
  9
$COORDS
 70
     0
  9
$DIMALT
 70
     0
  9
$DIMALTD
 70
     2
  9
$DIMALTF
 40
25.4
  9
$DIMDLE
 40
0.0
  9
$DIMLFAC
 40
1.0
  9
$DIMLIM
 70
     0
  9
$DIMRND
 40
0.0
  9
$DIMSCALE
 40
1.0
  9
$DIMSE1
 70
     0
  9
$DIMSE2
 70
     0
  9
$DIMTAD
 70
     1
  9
$DIMTIH
 70
     0
  9
$DIMTM
 40
0.0
  9
$DIMTOH
 70
     0
  9
$DIMTOL
 70
     0
  9
$DIMTP
 40
0.0
  9
$DIMTSZ
 40
0.0
  9
$DIMZIN
 70
     0
  9
$DRAGMODE
 70
     2
  9
$ELEVATION
 40
0.0
  9
$FASTZOOM
 70
     1
  9
$FILLETRAD
 40
0.0
  9
$FILLMODE
 70
     1
  9
$GRIDMODE
 70
     0
  9
$GRIDUNIT
 10
0.0
 20
0.0
  9
$LTSCALE
 40
1.0
  9
$LUNITS
 70
     2
  9
$LUPREC
 70
     2
  9
$MENU
  1
ACAD
  9
$ORTHOMODE
 70
     0
  9
$OSMODE
 70
     0
  9
$PDMODE
 70
     0
  9
$PDSIZE
 40
0.0
  9
$PLINEWID
 40
0.0
  9
$QTEXTMODE
 70
     0
  9
$REGENMODE
 70
     1
  9
$SKETCHINC
 40
0.1
  9
$SKPOLY
 70
     0
  9
$SNAPBASE
 10
0.0
 20
0.0
  9
$SNAPISOPAIR
 70
     0
  9
$SNAPMODE
 70
     0
  9
$SNAPSTYLE
 70
     0
  9
$SNAPUNIT
 10
0.0
 20
0.0
  9
$TEXTSTYLE
  7
KANJI
  9
$THICKNESS
 40
0.0
  9
$TRACEWID
 40
0.05
  9
$VIEWDIR
 10
0.0
 20
0.0
 30
1.0
  9
$VIEWSIZE
 40
0.0
  0
ENDSEC
  0
SECTION
  2
TABLES
  0
TABLE
  2
LTYPE
 70
     9
  0
LTYPE
  2
CONTINUOUS
 70
    64
  3
Solid line
 72
    65
 73
     0
 40
0.0
  0
LTYPE
  2
DASHED
 70
    64
  3
__ __ __ __ __ __ __ __ __ __ __ __ __ __ __
 72
    65
 73
     2
 40
0.75
 49
0.5
 49
-0.25
  0
LTYPE
  2
HIDDEN
 70
    64
  3
_ _ _ _ _ _ _ _ _ _ _ _ _ _ _ _ _ _ _ _ _ _ _
 72
    65
 73
     2
 40
0.375
 49
0.25
 49
-0.125
  0
LTYPE
  2
CENTER
 70
    64
  3
____ _ ____ _ ____ _ ____ _ ____ _ ____ _ ____
 72
    65
 73
     4
 40
2.0
 49
1.25
 49
-0.25
 49
0.25
 49
-0.25
  0
LTYPE
  2
PHANTOM
 70
    64
  3
_____ _ _ _____ _ _ _____ _ _ _____ _ _ ____
 72
    65
 73
     6
 40
2.5
 49
1.25
 49
-0.25
 49
0.25
 49
-0.25
 49
0.25
 49
-0.25
  0
LTYPE
  2
DOT
 70
    64
  3
...............................................
 72
    65
 73
     2
 40
0.25
 49
0.0
 49
-0.25
  0
LTYPE
  2
DASHDOT
 70
    64
  3
__ . __ . __ . __ . __ . __ . __ . __ . __ . __
 72
    65
 73
     4
 40
1.0
 49
0.5
 49
-0.25
 49
0.0
 49
-0.25
  0
LTYPE
  2
BORDER
 70
    64
  3
__ __ . __ __ . __ __ . __ __ . __ __ . __ __
 72
    65
 73
     6
 40
1.75
 49
0.5
 49
-0.25
 49
0.5
 49
-0.25
 49
0.0
 49
-0.25
  0
LTYPE
  2
DIVIDE
 70
    64
  3
__ . . __ . . __ . . __ . . __ . . __ . . __
 72
    65
 73
     6
 40
1.25
 49
0.5
 49
-0.25
 49
0.0
 49
-0.25
 49
0.0
 49
-0.25
  0
ENDTAB
  0
TABLE
  2
LAYER
 70
   100
  0
LAYER
  2
0
 70
     0
 62
     3
  6
CONTINUOUS
  0
LAYER
  2
1
 70
     0
 62
     3
  6
CONTINUOUS
  0
LAYER
  2
2
 70
     0
 62
     3
  6
CONTINUOUS
  0
LAYER
  2
3
 70
     0
 62
     3
  6
CONTINUOUS
  0
LAYER
  2
4
 70
     0
 62
     3
  6
CONTINUOUS
  0
LAYER
  2
5
 70
     0
 62
     3
  6
CONTINUOUS
  0
LAYER
  2
6
 70
     0
 62
     3
  6
CONTINUOUS
  0
LAYER
  2
7
 70
     0
 62
     3
  6
CONTINUOUS
  0
LAYER
  2
8
 70
     0
 62
     3
  6
CONTINUOUS
  0
LAYER
  2
9
 70
     0
 62
     3
  6
CONTINUOUS
  0
LAYER
  2
10
 70
     0
 62
     3
  6
CONTINUOUS
  0
LAYER
  2
11
 70
     0
 62
     3
  6
CONTINUOUS
  0
LAYER
  2
12
 70
     0
 62
     3
  6
CONTINUOUS
  0
LAYER
  2
13
 70
     0
 62
     3
  6
CONTINUOUS
  0
LAYER
  2
14
 70
     0
 62
     3
  6
CONTINUOUS
  0
LAYER
  2
15
 70
     0
 62
     3
  6
CONTINUOUS
  0
LAYER
  2
16
 70
     0
 62
     3
  6
CONTINUOUS
  0
LAYER
  2
17
 70
     0
 62
     3
  6
CONTINUOUS
  0
LAYER
  2
18
 70
     0
 62
     3
  6
CONTINUOUS
  0
LAYER
  2
19
 70
     0
 62
     3
  6
CONTINUOUS
  0
LAYER
  2
20
 70
     0
 62
     3
  6
CONTINUOUS
  0
LAYER
  2
21
 70
     0
 62
     3
  6
CONTINUOUS
  0
LAYER
  2
22
 70
     0
 62
     3
  6
CONTINUOUS
  0
LAYER
  2
23
 70
     0
 62
     3
  6
CONTINUOUS
  0
LAYER
  2
24
 70
     0
 62
     3
  6
CONTINUOUS
  0
LAYER
  2
25
 70
     0
 62
     3
  6
CONTINUOUS
  0
LAYER
  2
26
 70
     0
 62
     3
  6
CONTINUOUS
  0
LAYER
  2
27
 70
     0
 62
     3
  6
CONTINUOUS
  0
LAYER
  2
28
 70
     0
 62
     3
  6
CONTINUOUS
  0
LAYER
  2
29
 70
     0
 62
     3
  6
CONTINUOUS
  0
LAYER
  2
30
 70
     0
 62
     3
  6
CONTINUOUS
  0
LAYER
  2
31
 70
     0
 62
     3
  6
CONTINUOUS
  0
LAYER
  2
32
 70
     0
 62
     3
  6
CONTINUOUS
  0
LAYER
  2
33
 70
     0
 62
     3
  6
CONTINUOUS
  0
LAYER
  2
34
 70
     0
 62
     3
  6
CONTINUOUS
  0
LAYER
  2
35
 70
     0
 62
     3
  6
CONTINUOUS
  0
LAYER
  2
36
 70
     0
 62
     3
  6
CONTINUOUS
  0
LAYER
  2
37
 70
     0
 62
     3
  6
CONTINUOUS
  0
LAYER
  2
38
 70
     0
 62
     3
  6
CONTINUOUS
  0
LAYER
  2
39
 70
     0
 62
     3
  6
CONTINUOUS
  0
LAYER
  2
40
 70
     0
 62
     3
  6
CONTINUOUS
  0
LAYER
  2
41
 70
     0
 62
     3
  6
CONTINUOUS
  0
LAYER
  2
42
 70
     0
 62
     3
  6
CONTINUOUS
  0
LAYER
  2
43
 70
     0
 62
     3
  6
CONTINUOUS
  0
LAYER
  2
44
 70
     0
 62
     3
  6
CONTINUOUS
  0
LAYER
  2
45
 70
     0
 62
     3
  6
CONTINUOUS
  0
LAYER
  2
46
 70
     0
 62
     3
  6
CONTINUOUS
  0
LAYER
  2
47
 70
     0
 62
     3
  6
CONTINUOUS
  0
LAYER
  2
48
 70
     0
 62
     3
  6
CONTINUOUS
  0
LAYER
  2
49
 70
     0
 62
     3
  6
CONTINUOUS
  0
LAYER
  2
50
 70
     0
 62
     3
  6
CONTINUOUS
  0
LAYER
  2
51
 70
     0
 62
     3
  6
CONTINUOUS
  0
LAYER
  2
52
 70
     0
 62
     3
  6
CONTINUOUS
  0
LAYER
  2
53
 70
     0
 62
     3
  6
CONTINUOUS
  0
LAYER
  2
54
 70
     0
 62
     3
  6
CONTINUOUS
  0
LAYER
  2
55
 70
     0
 62
     3
  6
CONTINUOUS
  0
LAYER
  2
56
 70
     0
 62
     3
  6
CONTINUOUS
  0
LAYER
  2
57
 70
     0
 62
     3
  6
CONTINUOUS
  0
LAYER
  2
58
 70
     0
 62
     3
  6
CONTINUOUS
  0
LAYER
  2
59
 70
     0
 62
     3
  6
CONTINUOUS
  0
LAYER
  2
60
 70
     0
 62
     3
  6
CONTINUOUS
  0
LAYER
  2
61
 70
     0
 62
     3
  6
CONTINUOUS
  0
LAYER
  2
62
 70
     0
 62
     3
  6
CONTINUOUS
  0
LAYER
  2
63
 70
     0
 62
     3
  6
CONTINUOUS
  0
LAYER
  2
64
 70
     0
 62
     3
  6
CONTINUOUS
  0
LAYER
  2
65
 70
     0
 62
     3
  6
CONTINUOUS
  0
LAYER
  2
66
 70
     0
 62
     3
  6
CONTINUOUS
  0
LAYER
  2
67
 70
     0
 62
     3
  6
CONTINUOUS
  0
LAYER
  2
68
 70
     0
 62
     3
  6
CONTINUOUS
  0
LAYER
  2
69
 70
     0
 62
     3
  6
CONTINUOUS
  0
LAYER
  2
70
 70
     0
 62
     3
  6
CONTINUOUS
  0
LAYER
  2
71
 70
     0
 62
     3
  6
CONTINUOUS
  0
LAYER
  2
72
 70
     0
 62
     3
  6
CONTINUOUS
  0
LAYER
  2
73
 70
     0
 62
     3
  6
CONTINUOUS
  0
LAYER
  2
74
 70
     0
 62
     3
  6
CONTINUOUS
  0
LAYER
  2
75
 70
     0
 62
     3
  6
CONTINUOUS
  0
LAYER
  2
76
 70
     0
 62
     3
  6
CONTINUOUS
  0
LAYER
  2
77
 70
     0
 62
     3
  6
CONTINUOUS
  0
LAYER
  2
78
 70
     0
 62
     3
  6
CONTINUOUS
  0
LAYER
  2
79
 70
     0
 62
     3
  6
CONTINUOUS
  0
LAYER
  2
80
 70
     0
 62
     3
  6
CONTINUOUS
  0
LAYER
  2
81
 70
     0
 62
     3
  6
CONTINUOUS
  0
LAYER
  2
82
 70
     0
 62
     3
  6
CONTINUOUS
  0
LAYER
  2
83
 70
     0
 62
     3
  6
CONTINUOUS
  0
LAYER
  2
84
 70
     0
 62
     3
  6
CONTINUOUS
  0
LAYER
  2
85
 70
     0
 62
     3
  6
CONTINUOUS
  0
LAYER
  2
86
 70
     0
 62
     3
  6
CONTINUOUS
  0
LAYER
  2
87
 70
     0
 62
     3
  6
CONTINUOUS
  0
LAYER
  2
88
 70
     0
 62
     3
  6
CONTINUOUS
  0
LAYER
  2
89
 70
     0
 62
     3
  6
CONTINUOUS
  0
LAYER
  2
90
 70
     0
 62
     3
  6
CONTINUOUS
  0
LAYER
  2
91
 70
     0
 62
     3
  6
CONTINUOUS
  0
LAYER
  2
92
 70
     0
 62
     3
  6
CONTINUOUS
  0
LAYER
  2
93
 70
     0
 62
     3
  6
CONTINUOUS
  0
LAYER
  2
94
 70
     0
 62
     3
  6
CONTINUOUS
  0
LAYER
  2
95
 70
     0
 62
     3
  6
CONTINUOUS
  0
LAYER
  2
96
 70
     0
 62
     3
  6
CONTINUOUS
  0
LAYER
  2
97
 70
     0
 62
     3
  6
CONTINUOUS
  0
LAYER
  2
98
 70
     0
 62
     3
  6
CONTINUOUS
  0
LAYER
  2
99
 70
     0
 62
     3
  6
CONTINUOUS
  0
ENDTAB
  0
TABLE
  2
STYLE
 70
     2
  0
STYLE
  2
STANDARD
 70
     0
 40
0.0
 41
1.0
 50
0.0
 71
     0
 42
0.2
  3
TXT
  4
BIGFONT
  0
STYLE
  2
KANJI
 70
     0
 40
4.5
 41
1.0
 50
0.0
 71
     0
 42
0.2
  3
TXT
  4
BIGFONT
  0
ENDTAB
  0
TABLE
  2
VIEW
 70
     0
  0
ENDTAB
  0
ENDSEC
  0
SECTION
  2
BLOCKS
  0
BLOCK
  8
0
  2
G0
 70
     0
 10
0
 20
0
  0
POINT
  8
0
 62
     4
 10
270.000000
 20
1315.000000
  0
POINT
  8
0
 62
     4
 10
-1830.000000
 20
1315.000000
  0
ENDBLK
  0
BLOCK
  8
0
  2
G1
 70
     0
 10
0
 20
0
  0
LINE
  8
0
 62
     1
  6
CONTINUOUS
 10
-369.983194
 20
360.375253
 11
-319.983194
 21
360.375253
  0
SOLID
  8
0
 62
     1
 10
-345.835048
 20
366.845729
 11
-345.835048
 21
353.904777
 12
-369.983194
 22
360.375253
 13
-369.983194
 23
360.375253
  0
TEXT
  8
0
 62
     1
 10
-477.983194
 20
365.708586
 40
32.000000
 50
0.000000E+00
 41
0.58 
  1
160
 72
     5
 11
-421.983194
 21
365.708586
  0
LINE
  8
0
 62
     1
  6
CONTINUOUS
 10
-529.983194
 20
350.375253
 11
-529.983194
 21
453.292397
  0
LINE
  8
0
 62
     1
  6
CONTINUOUS
 10
-369.983194
 20
407.375253
 11
-369.983194
 21
350.375253
  0
LINE
  8
0
 62
     1
  6
CONTINUOUS
 10
-369.983194
 20
360.375253
 11
-529.983194
 21
360.375253
  0
CIRCLE
  8
0
 62
     1
  6
CONTINUOUS
 10
-529.983194
 20
360.375253
 40
5.000000
  0
CIRCLE
  8
0
 62
     1
  6
CONTINUOUS
 10
-529.983194
 20
360.375253
 40
2.500000
  0
ENDBLK
  0
BLOCK
  8
0
  2
G2
 70
     0
 10
0
 20
0
  0
TEXT
  8
0
 62
     1
 10
-557.983194
 20
723.708586
 40
32.000000
 50
0.000000E+00
 41
0.58 
  1
210
 72
     5
 11
-501.983194
 21
723.708586
  0
LINE
  8
0
 62
     1
  6
CONTINUOUS
 10
-424.983194
 20
585.000000
 11
-424.983194
 21
728.375253
  0
LINE
  8
0
 62
     1
  6
CONTINUOUS
 10
-634.983194
 20
585.000000
 11
-634.983194
 21
728.375253
  0
LINE
  8
0
 62
     1
  6
CONTINUOUS
 10
-634.983194
 20
718.375253
 11
-424.983194
 21
718.375253
  0
SOLID
  8
0
 62
     1
 10
-610.835048
 20
724.845729
 11
-610.835048
 21
711.904777
 12
-634.983194
 22
718.375253
 13
-634.983194
 23
718.375253
  0
SOLID
  8
0
 62
     1
 10
-449.131340
 20
711.904777
 11
-449.131340
 21
724.845729
 12
-424.983194
 22
718.375253
 13
-424.983194
 23
718.375253
  0
ENDBLK
  0
BLOCK
  8
0
  2
G3
 70
     0
 10
0
 20
0
  0
TEXT
  8
0
 62
     1
 10
-262.991835
 20
547.000000
 40
32.000000
 50
90.000000
 41
0.58 
  1
210
 72
     5
 11
-262.991835
 21
603.000000
  0
LINE
  8
0
 62
     1
  6
CONTINUOUS
 10
-519.983194
 20
470.000000
 11
-247.658502
 21
470.000000
  0
LINE
  8
0
 62
     1
  6
CONTINUOUS
 10
-519.983194
 20
680.000000
 11
-247.658502
 21
680.000000
  0
LINE
  8
0
 62
     1
  6
CONTINUOUS
 10
-257.658502
 20
680.000000
 11
-257.658502
 21
470.000000
  0
SOLID
  8
0
 62
     1
 10
-251.188026
 20
655.851854
 11
-264.128978
 21
655.851854
 12
-257.658502
 22
680.000000
 13
-257.658502
 23
680.000000
  0
SOLID
  8
0
 62
     1
 10
-264.128978
 20
494.148146
 11
-251.188026
 21
494.148146
 12
-257.658502
 22
470.000000
 13
-257.658502
 23
470.000000
  0
ENDBLK
  0
BLOCK
  8
0
  2
G4
 70
     0
 10
0
 20
0
  0
TEXT
  8
0
 62
     1
 10
-694.078700
 20
699.497527
 40
32.000000
 50
45.000000
 41
0.58 
  1
248
 72
     5
 11
-654.480721
 21
739.095506
  0
LINE
  8
0
 62
     1
  6
CONTINUOUS
 10
-624.735503
 20
494.389827
 11
-765.260783
 21
634.915108
  0
LINE
  8
0
 62
     1
  6
CONTINUOUS
 10
-582.827234
 20
803.206521
 11
-758.189715
 21
627.844040
  0
SOLID
  8
0
 62
     1
 10
-595.327234
 20
781.555886
 11
-604.477869
 21
790.706521
 12
-582.827234
 22
803.206521
 13
-582.827234
 23
803.206521
  0
SOLID
  8
0
 62
     1
 10
-745.689715
 20
649.494675
 11
-736.539080
 21
640.344040
 12
-758.189715
 22
627.844040
 13
-758.189715
 23
627.844040
  0
ENDBLK
  0
BLOCK
  8
0
  2
G5
 70
     0
 10
0
 20
0
  0
LINE
  8
0
 62
     1
  6
CONTINUOUS
 10
-369.983194
 20
417.375253
 11
-319.983194
 21
417.375253
  0
SOLID
  8
0
 62
     1
 10
-345.835048
 20
423.845729
 11
-345.835048
 21
410.904777
 12
-369.983194
 22
417.375253
 13
-369.983194
 23
417.375253
  0
LINE
  8
0
 62
     1
  6
CONTINUOUS
 10
-484.665275
 20
417.375253
 11
-434.665275
 21
417.375253
  0
SOLID
  8
0
 62
     1
 10
-458.813421
 20
410.904777
 11
-458.813421
 21
423.845729
 12
-434.665275
 22
417.375253
 13
-434.665275
 23
417.375253
  0
TEXT
  8
0
 62
     1
 10
-418.457427
 20
422.708586
 40
32.000000
 50
0.000000E+00
 41
0.56 
  1
65
 72
     5
 11
-382.457427
 21
422.708586
  0
LINE
  8
0
 62
     1
  6
CONTINUOUS
 10
-369.983194
 20
502.500000
 11
-369.983194
 21
407.375253
  0
LINE
  8
0
 62
     1
  6
CONTINUOUS
 10
-434.665275
 20
417.375253
 11
-369.983194
 21
417.375253
  0
ENDBLK
  0
BLOCK
  8
0
  2
G6
 70
     0
 10
0
 20
0
  0
LINE
  8
0
 62
     1
  6
CONTINUOUS
 10
-625.301113
 20
417.375253
 11
-689.983194
 21
417.375253
  0
LINE
  8
0
 62
     1
  6
CONTINUOUS
 10
-689.983194
 20
502.500000
 11
-689.983194
 21
407.375253
  0
TEXT
  8
0
 62
     1
 10
-677.508961
 20
422.708586
 40
32.000000
 50
360.000000
 41
0.56 
  1
65
 72
     5
 11
-641.508961
 21
422.708586
  0
LINE
  8
0
 62
     1
  6
CONTINUOUS
 10
-575.301113
 20
417.375253
 11
-625.301113
 21
417.375253
  0
SOLID
  8
0
 62
     1
 10
-601.152967
 20
423.845729
 11
-601.152967
 21
410.904777
 12
-625.301113
 22
417.375253
 13
-625.301113
 23
417.375253
  0
LINE
  8
0
 62
     1
  6
CONTINUOUS
 10
-689.983194
 20
417.375253
 11
-739.983194
 21
417.375253
  0
SOLID
  8
0
 62
     1
 10
-714.131340
 20
410.904777
 11
-714.131340
 21
423.845729
 12
-689.983194
 22
417.375253
 13
-689.983194
 23
417.375253
  0
ENDBLK
  0
BLOCK
  8
0
  2
G7
 70
     0
 10
0
 20
0
  0
LINE
  8
0
 62
     1
  6
CONTINUOUS
 10
-1597.816775
 20
93.027117
 11
-1597.816775
 21
153.027117
  0
CIRCLE
  8
0
 62
     1
  6
CONTINUOUS
 10
-1597.816775
 20
93.027117
 40
2.500000
  0
CIRCLE
  8
0
 62
     1
  6
CONTINUOUS
 10
-1597.816775
 20
93.027117
 40
1.250000
  0
LINE
  8
0
 62
     1
  6
CONTINUOUS
 10
-1607.816775
 20
93.027117
 11
-1430.739862
 21
93.027117
  0
LINE
  8
0
 62
     1
  6
CONTINUOUS
 10
-1607.816775
 20
153.027117
 11
-1532.665810
 21
153.027117
  0
TEXT
  8
0
 62
     1
 10
-1603.150108
 20
105.027117
 40
32.000000
 50
90.000000
 41
0.56 
  1
60
 72
     5
 11
-1603.150108
 21
141.027117
  0
LINE
  8
0
 62
     1
  6
CONTINUOUS
 10
-1597.816775
 20
153.027117
 11
-1597.816775
 21
203.027117
  0
SOLID
  8
0
 62
     1
 10
-1605.581347
 20
182.004891
 11
-1590.052204
 21
182.004891
 12
-1597.816775
 22
153.027117
 13
-1597.816775
 23
153.027117
  0
ENDBLK
  0
BLOCK
  8
0
  2
G8
 70
     0
 10
0
 20
0
  0
LINE
  8
0
 62
     1
  6
CONTINUOUS
 10
-1597.816775
 20
90.527117
 11
-1597.816775
 21
93.027117
  0
LINE
  8
0
 62
     1
  6
CONTINUOUS
 10
-1607.816775
 20
90.527117
 11
-1430.739862
 21
90.527117
  0
TEXT
  8
0
 62
     1
 10
-1603.150108
 20
4.799037
 40
32.000000
 50
90.000000
 41
0.58 
  1
2.5
 72
     5
 11
-1603.150108
 21
60.799037
  0
LINE
  8
0
 62
     1
  6
CONTINUOUS
 10
-1597.816775
 20
90.527117
 11
-1597.816775
 21
-0.055584
  0
SOLID
  8
0
 62
     1
 10
-1591.346299
 20
66.378971
 11
-1604.287251
 21
66.378971
 12
-1597.816775
 22
90.527117
 13
-1597.816775
 23
90.527117
  0
ENDBLK
  0
BLOCK
  8
0
  2
G9
 70
     0
 10
0
 20
0
  0
LINE
  8
0
 62
     1
  6
CONTINUOUS
 10
-1193.662948
 20
90.527117
 11
-1193.662948
 21
-0.055584
  0
SOLID
  8
0
 62
     1
 10
-1187.192472
 20
66.378971
 11
-1200.133424
 21
66.378971
 12
-1193.662948
 22
90.527117
 13
-1193.662948
 23
90.527117
  0
TEXT
  8
0
 62
     1
 10
-1198.996281
 20
4.799037
 40
32.000000
 50
90.000000
 41
0.58 
  1
2.5
 72
     5
 11
-1198.996281
 21
60.799037
  0
LINE
  8
0
 62
     1
  6
CONTINUOUS
 10
-1183.662948
 20
90.527117
 11
-1265.739862
 21
90.527117
  0
LINE
  8
0
 62
     1
  6
CONTINUOUS
 10
-1193.662948
 20
90.527117
 11
-1193.662948
 21
93.027117
  0
ENDBLK
  0
BLOCK
  8
0
  2
G10
 70
     0
 10
0
 20
0
  0
LINE
  8
0
 62
     1
  6
CONTINUOUS
 10
-689.983194
 20
360.375253
 11
-529.983194
 21
360.375253
  0
LINE
  8
0
 62
     1
  6
CONTINUOUS
 10
-689.983194
 20
407.375253
 11
-689.983194
 21
350.375253
  0
LINE
  8
0
 62
     1
  6
CONTINUOUS
 10
-529.983194
 20
350.375253
 11
-529.983194
 21
453.292397
  0
TEXT
  8
0
 62
     1
 10
-637.983194
 20
365.708586
 40
32.000000
 50
360.000000
 41
0.58 
  1
160
 72
     5
 11
-581.983194
 21
365.708586
  0
LINE
  8
0
 62
     1
  6
CONTINUOUS
 10
-689.983194
 20
360.375253
 11
-739.983194
 21
360.375253
  0
SOLID
  8
0
 62
     1
 10
-714.131340
 20
353.904777
 11
-714.131340
 21
366.845729
 12
-689.983194
 22
360.375253
 13
-689.983194
 23
360.375253
  0
ENDBLK
  0
BLOCK
  8
0
  2
G11
 70
     0
 10
0
 20
0
  0
TEXT
  8
0
 62
     7
 10
-957.996233
 20
472.396744
 40
32.000000
 50
360.000000
 41
0.66 
  1
％％ｃ　　　枝管
 72
     5
 11
-765.996233
 21
472.396744
  0
LINE
  8
0
 62
     3
  6
CONTINUOUS
 10
-765.697166
 20
462.899157
 11
-927.561408
 21
462.899157
  0
LINE
  8
0
 62
     3
  6
CONTINUOUS
 10
-765.697166
 20
454.899157
 11
-927.561408
 21
454.899157
  0
ENDBLK
  0
BLOCK
  8
0
  2
G12
 70
     0
 10
0
 20
0
  0
LINE
  8
0
 62
     1
  6
CONTINUOUS
 10
-1193.662948
 20
153.027117
 11
-1193.662948
 21
203.027117
  0
SOLID
  8
0
 62
     1
 10
-1201.427519
 20
182.004891
 11
-1185.898377
 21
182.004891
 12
-1193.662948
 22
153.027117
 13
-1193.662948
 23
153.027117
  0
TEXT
  8
0
 62
     1
 10
-1198.996281
 20
105.027117
 40
32.000000
 50
90.000000
 41
0.56 
  1
60
 72
     5
 11
-1198.996281
 21
141.027117
  0
LINE
  8
0
 62
     1
  6
CONTINUOUS
 10
-1254.806156
 20
153.027117
 11
-1183.662948
 21
153.027117
  0
LINE
  8
0
 62
     1
  6
CONTINUOUS
 10
-1265.739862
 20
93.027117
 11
-1183.662948
 21
93.027117
  0
LINE
  8
0
 62
     1
  6
CONTINUOUS
 10
-1193.662948
 20
93.027117
 11
-1193.662948
 21
153.027117
  0
CIRCLE
  8
0
 62
     1
  6
CONTINUOUS
 10
-1193.662948
 20
93.027117
 40
2.500000
  0
CIRCLE
  8
0
 62
     1
  6
CONTINUOUS
 10
-1193.662948
 20
93.027117
 40
1.250000
  0
ENDBLK
  0
BLOCK
  8
0
  2
G13
 70
     0
 10
0
 20
0
  0
TEXT
  8
0
 62
     1
 10
-958.996281
 20
-110.472883
 40
32.000000
 50
90.000000
 41
0.97 
  1
Ｌｔ
 72
     5
 11
-958.996281
 21
-38.472883
  0
LINE
  8
0
 62
     1
  6
CONTINUOUS
 10
-1003.662948
 20
-566.972883
 11
-943.662948
 21
-566.972883
  0
LINE
  8
0
 62
     1
  6
CONTINUOUS
 10
-1003.662948
 20
418.027117
 11
-943.662948
 21
418.027117
  0
LINE
  8
0
 62
     1
  6
CONTINUOUS
 10
-953.662948
 20
418.027117
 11
-953.662948
 21
-566.972883
  0
SOLID
  8
0
 62
     1
 10
-947.192472
 20
393.878971
 11
-960.133424
 21
393.878971
 12
-953.662948
 22
418.027117
 13
-953.662948
 23
418.027117
  0
SOLID
  8
0
 62
     1
 10
-960.133424
 20
-542.824738
 11
-947.192472
 21
-542.824738
 12
-953.662948
 22
-566.972883
 13
-953.662948
 23
-566.972883
  0
ENDBLK
  0
BLOCK
  8
0
  2
G14
 70
     0
 10
0
 20
0
  0
TEXT
  8
0
 62
     1
 10
-1018.996281
 20
-205.972883
 40
32.000000
 50
90.000000
 41
0.89 
  1
Ｌ（有効長）
 72
     5
 11
-1018.996281
 21
-9.972883
  0
LINE
  8
0
 62
     1
  6
CONTINUOUS
 10
-1063.662948
 20
-566.972883
 11
-1003.662948
 21
-566.972883
  0
LINE
  8
0
 62
     1
  6
CONTINUOUS
 10
-1013.662948
 20
343.027117
 11
-1013.662948
 21
-566.972883
  0
SOLID
  8
0
 62
     1
 10
-1007.192472
 20
318.878971
 11
-1020.133424
 21
318.878971
 12
-1013.662948
 22
343.027117
 13
-1013.662948
 23
343.027117
  0
SOLID
  8
0
 62
     1
 10
-1020.133424
 20
-542.824738
 11
-1007.192472
 21
-542.824738
 12
-1013.662948
 22
-566.972883
 13
-1013.662948
 23
-566.972883
  0
ENDBLK
  0
BLOCK
  8
0
  2
G15
 70
     0
 10
0
 20
0
  0
TEXT
  8
0
 62
     1
 10
-1078.996281
 20
-414.972883
 40
32.000000
 50
90.000000
 41
0.58 
  1
360
 72
     5
 11
-1078.996281
 21
-358.972883
  0
LINE
  8
0
 62
     1
  6
CONTINUOUS
 10
-1063.662948
 20
-566.972883
 11
-1183.662948
 21
-566.972883
  0
LINE
  8
0
 62
     1
  6
CONTINUOUS
 10
-1073.662948
 20
-206.972883
 11
-1073.662948
 21
-566.972883
  0
SOLID
  8
0
 62
     1
 10
-1067.192472
 20
-231.121029
 11
-1080.133424
 21
-231.121029
 12
-1073.662948
 22
-206.972883
 13
-1073.662948
 23
-206.972883
  0
SOLID
  8
0
 62
     1
 10
-1080.133424
 20
-542.824738
 11
-1067.192472
 21
-542.824738
 12
-1073.662948
 22
-566.972883
 13
-1073.662948
 23
-566.972883
  0
ENDBLK
  0
BLOCK
  8
0
  2
G16
 70
     0
 10
0
 20
0
  0
TEXT
  8
0
 62
     1
 10
-1198.996281
 20
-519.972883
 40
32.000000
 50
90.000000
 41
0.58 
  1
150
 72
     5
 11
-1198.996281
 21
-463.972883
  0
LINE
  8
0
 62
     1
  6
CONTINUOUS
 10
-1367.739862
 20
-566.972883
 11
-1183.662948
 21
-566.972883
  0
LINE
  8
0
 62
     1
  6
CONTINUOUS
 10
-1193.662948
 20
-416.972883
 11
-1193.662948
 21
-566.972883
  0
SOLID
  8
0
 62
     1
 10
-1187.192472
 20
-441.121029
 11
-1200.133424
 21
-441.121029
 12
-1193.662948
 22
-416.972883
 13
-1193.662948
 23
-416.972883
  0
SOLID
  8
0
 62
     1
 10
-1200.133424
 20
-542.824738
 11
-1187.192472
 21
-542.824738
 12
-1193.662948
 22
-566.972883
 13
-1193.662948
 23
-566.972883
  0
ENDBLK
  0
BLOCK
  8
0
  2
G17
 70
     0
 10
0
 20
0
  0
TEXT
  8
0
 62
     1
 10
-1198.996281
 20
-384.972883
 40
32.000000
 50
90.000000
 41
0.58 
  1
120
 72
     5
 11
-1198.996281
 21
-328.972883
  0
LINE
  8
0
 62
     1
  6
CONTINUOUS
 10
-1370.488951
 20
-416.972883
 11
-1183.662948
 21
-416.972883
  0
LINE
  8
0
 62
     1
  6
CONTINUOUS
 10
-1339.990773
 20
-296.972883
 11
-1183.662948
 21
-296.972883
  0
LINE
  8
0
 62
     1
  6
CONTINUOUS
 10
-1193.662948
 20
-296.972883
 11
-1193.662948
 21
-416.972883
  0
SOLID
  8
0
 62
     1
 10
-1187.192472
 20
-321.121029
 11
-1200.133424
 21
-321.121029
 12
-1193.662948
 22
-296.972883
 13
-1193.662948
 23
-296.972883
  0
SOLID
  8
0
 62
     1
 10
-1200.133424
 20
-392.824738
 11
-1187.192472
 21
-392.824738
 12
-1193.662948
 22
-416.972883
 13
-1193.662948
 23
-416.972883
  0
ENDBLK
  0
BLOCK
  8
0
  2
G18
 70
     0
 10
0
 20
0
  0
TEXT
  8
0
 62
     1
 10
-1138.996281
 20
190.027117
 40
32.000000
 50
90.000000
 41
0.58 
  1
250
 72
     5
 11
-1138.996281
 21
246.027117
  0
LINE
  8
0
 62
     1
  6
CONTINUOUS
 10
-1420.739862
 20
343.027117
 11
-1123.662948
 21
343.027117
  0
LINE
  8
0
 62
     1
  6
CONTINUOUS
 10
-1183.662948
 20
93.027117
 11
-1123.662948
 21
93.027117
  0
LINE
  8
0
 62
     1
  6
CONTINUOUS
 10
-1133.662948
 20
93.027117
 11
-1133.662948
 21
343.027117
  0
SOLID
  8
0
 62
     1
 10
-1141.427519
 20
122.004891
 11
-1125.898377
 21
122.004891
 12
-1133.662948
 22
93.027117
 13
-1133.662948
 23
93.027117
  0
SOLID
  8
0
 62
     1
 10
-1125.898377
 20
314.049342
 11
-1141.427519
 21
314.049342
 12
-1133.662948
 22
343.027117
 13
-1133.662948
 23
343.027117
  0
ENDBLK
  0
BLOCK
  8
0
  2
G19
 70
     0
 10
0
 20
0
  0
LINE
  8
0
 62
     3
  6
CONTINUOUS
 10
-1231.460760
 20
-48.308819
 11
-1311.023323
 21
-48.308819
  0
LINE
  8
0
 62
     3
  6
CONTINUOUS
 10
-1231.460760
 20
-48.308819
 11
-1231.460760
 21
-95.679068
  0
TEXT
  8
0
 62
     3
 10
-1243.254043
 20
-128.037285
 40
32.000000
 50
0.000000E+00
 41
0.86 
  1
Ｃ
 72
     5
 11
-1211.254043
 21
-128.037285
  0
LINE
  8
0
 62
     3
  6
CONTINUOUS
 10
-1231.460760
 20
-95.679068
 11
-1216.043291
 21
-68.975228
  0
LINE
  8
0
 62
     3
  6
CONTINUOUS
 10
-1216.043291
 20
-68.975228
 11
-1238.545746
 21
-55.983430
  0
ENDBLK
  0
BLOCK
  8
0
  2
G20
 70
     0
 10
0
 20
0
  0
TEXT
  8
0
 62
     1
 10
-1078.996281
 20
-42.972883
 40
32.000000
 50
90.000000
 41
0.86 
  1
Ｐ
 72
     5
 11
-1078.996281
 21
-10.972883
  0
LINE
  8
0
 62
     1
  6
CONTINUOUS
 10
-1063.662948
 20
-206.972883
 11
-1183.662948
 21
-206.972883
  0
LINE
  8
0
 62
     1
  6
CONTINUOUS
 10
-1073.662948
 20
-206.972883
 11
-1073.662948
 21
153.027117
  0
SOLID
  8
0
 62
     1
 10
-1081.427519
 20
-177.995109
 11
-1065.898377
 21
-177.995109
 12
-1073.662948
 22
-206.972883
 13
-1073.662948
 23
-206.972883
  0
SOLID
  8
0
 62
     1
 10
-1065.898377
 20
124.049342
 11
-1081.427519
 21
124.049342
 12
-1073.662948
 22
153.027117
 13
-1073.662948
 23
153.027117
  0
ENDBLK
  0
BLOCK
  8
0
  2
G21
 70
     0
 10
0
 20
0
  0
TEXT
  8
0
 62
     1
 10
-1018.996281
 20
362.527117
 40
32.000000
 50
90.000000
 41
0.56 
  1
75
 72
     5
 11
-1018.996281
 21
398.527117
  0
LINE
  8
0
 62
     1
  6
CONTINUOUS
 10
-1003.662948
 20
343.027117
 11
-1133.662948
 21
343.027117
  0
LINE
  8
0
 62
     1
  6
CONTINUOUS
 10
-1003.662948
 20
418.027117
 11
-1350.549807
 21
418.027117
  0
LINE
  8
0
 62
     1
  6
CONTINUOUS
 10
-1013.662948
 20
418.027117
 11
-1013.662948
 21
343.027117
  0
SOLID
  8
0
 62
     1
 10
-1007.192472
 20
393.878971
 11
-1020.133424
 21
393.878971
 12
-1013.662948
 22
418.027117
 13
-1013.662948
 23
418.027117
  0
SOLID
  8
0
 62
     1
 10
-1020.133424
 20
367.175262
 11
-1007.192472
 21
367.175262
 12
-1013.662948
 22
343.027117
 13
-1013.662948
 23
343.027117
  0
ENDBLK
  0
BLOCK
  8
0
  2
G22
 70
     0
 10
0
 20
0
  0
TEXT
  8
0
 62
     1
 10
-1488.739862
 20
595.967914
 40
32.000000
 50
0.000000E+00
 41
0.60 
  1
%%c125
 72
     5
 11
-1372.739862
 21
595.967914
  0
LINE
  8
0
 62
     1
  6
CONTINUOUS
 10
-1368.239862
 20
633.889268
 11
-1368.239862
 21
580.634581
  0
LINE
  8
0
 62
     1
  6
CONTINUOUS
 10
-1493.239862
 20
633.889268
 11
-1493.239862
 21
580.634581
  0
LINE
  8
0
 62
     1
  6
CONTINUOUS
 10
-1493.239862
 20
590.634581
 11
-1368.239862
 21
590.634581
  0
SOLID
  8
0
 62
     1
 10
-1469.091716
 20
597.105058
 11
-1469.091716
 21
584.164105
 12
-1493.239862
 22
590.634581
 13
-1493.239862
 23
590.634581
  0
SOLID
  8
0
 62
     1
 10
-1392.388007
 20
584.164105
 11
-1392.388007
 21
597.105058
 12
-1368.239862
 22
590.634581
 13
-1368.239862
 23
590.634581
  0
ENDBLK
  0
BLOCK
  8
0
  2
G23
 70
     0
 10
0
 20
0
  0
TEXT
  8
0
 62
     3
 10
-1206.066857
 20
940.364900
 40
32.000000
 50
0.000000E+00
 41
1.02 
  1
受口深さ
 72
     5
 11
-1054.066857
 21
940.364900
  0
ENDBLK
  0
BLOCK
  8
0
  2
G24
 70
     0
 10
0
 20
0
  0
LINE
  8
0
 62
     3
  6
CONTINUOUS
 10
-1281.722721
 20
954.195122
 11
-1210.906789
 21
954.195122
  0
SOLID
  8
0
 62
     3
 10
-1252.744947
 20
961.959693
 11
-1252.744947
 21
946.430551
 12
-1281.722721
 22
954.195122
 13
-1281.722721
 23
954.195122
  0
ENDBLK
  0
BLOCK
  8
0
  2
G25
 70
     0
 10
0
 20
0
  0
TEXT
  8
0
 62
     3
 10
-1223.069396
 20
517.689093
 40
32.000000
 50
0.000000E+00
 41
0.95 
  1
受口深さ　
 72
     5
 11
-1047.069396
 21
517.689093
  0
ENDBLK
  0
BLOCK
  8
0
  2
G26
 70
     0
 10
0
 20
0
  0
TEXT
  8
0
 62
     1
 10
-1202.818508
 20
745.889268
 40
32.000000
 50
90.000000
 41
0.60 
  1
%%c125
 72
     5
 11
-1202.818508
 21
861.889268
  0
LINE
  8
0
 62
     1
  6
CONTINUOUS
 10
-1260.739862
 20
866.389268
 11
-1187.485175
 21
866.389268
  0
LINE
  8
0
 62
     1
  6
CONTINUOUS
 10
-1260.739862
 20
741.389268
 11
-1187.485175
 21
741.389268
  0
LINE
  8
0
 62
     1
  6
CONTINUOUS
 10
-1197.485175
 20
741.389268
 11
-1197.485175
 21
866.389268
  0
SOLID
  8
0
 62
     1
 10
-1203.955651
 20
765.537414
 11
-1191.014699
 21
765.537414
 12
-1197.485175
 22
741.389268
 13
-1197.485175
 23
741.389268
  0
SOLID
  8
0
 62
     1
 10
-1191.014699
 20
842.241123
 11
-1203.955651
 21
842.241123
 12
-1197.485175
 22
866.389268
 13
-1197.485175
 23
866.389268
  0
ENDBLK
  0
BLOCK
  8
0
  2
G27
 70
     0
 10
0
 20
0
  0
LINE
  8
0
 62
     1
  6
CONTINUOUS
 10
-1197.485175
 20
643.889268
 11
-1197.485175
 21
593.889268
  0
SOLID
  8
0
 62
     1
 10
-1191.014699
 20
619.741123
 11
-1203.955651
 21
619.741123
 12
-1197.485175
 22
643.889268
 13
-1197.485175
 23
643.889268
  0
LINE
  8
0
 62
     1
  6
CONTINUOUS
 10
-1197.485175
 20
758.889268
 11
-1197.485175
 21
708.889268
  0
SOLID
  8
0
 62
     1
 10
-1203.955651
 20
733.037414
 11
-1191.014699
 21
733.037414
 12
-1197.485175
 22
708.889268
 13
-1197.485175
 23
708.889268
  0
TEXT
  8
0
 62
     1
 10
-1202.818508
 20
658.389268
 40
32.000000
 50
90.000000
 41
0.56 
  1
65
 72
     5
 11
-1202.818508
 21
694.389268
  0
LINE
  8
0
 62
     1
  6
CONTINUOUS
 10
-1358.239862
 20
643.889268
 11
-1137.485175
 21
643.889268
  0
LINE
  8
0
 62
     1
  6
CONTINUOUS
 10
-1360.739862
 20
708.889268
 11
-1187.485175
 21
708.889268
  0
LINE
  8
0
 62
     1
  6
CONTINUOUS
 10
-1197.485175
 20
708.889268
 11
-1197.485175
 21
643.889268
  0
ENDBLK
  0
BLOCK
  8
0
  2
G28
 70
     0
 10
0
 20
0
  0
LINE
  8
0
 62
     1
  6
CONTINUOUS
 10
-1335.739862
 20
927.143955
 11
-1270.739862
 21
927.143955
  0
LINE
  8
0
 62
     1
  6
CONTINUOUS
 10
-1335.739862
 20
873.889268
 11
-1335.739862
 21
937.143955
  0
LINE
  8
0
 62
     1
  6
CONTINUOUS
 10
-1270.739862
 20
876.389268
 11
-1270.739862
 21
987.143955
  0
TEXT
  8
0
 62
     1
 10
-1321.239862
 20
932.477288
 40
32.000000
 50
0.000000E+00
 41
0.56 
  1
65
 72
     5
 11
-1285.239862
 21
932.477288
  0
LINE
  8
0
 62
     1
  6
CONTINUOUS
 10
-1385.739862
 20
927.143955
 11
-1335.739862
 21
927.143955
  0
SOLID
  8
0
 62
     1
 10
-1359.888007
 20
920.673479
 11
-1359.888007
 21
933.614431
 12
-1335.739862
 22
927.143955
 13
-1335.739862
 23
927.143955
  0
LINE
  8
0
 62
     1
  6
CONTINUOUS
 10
-1270.739862
 20
927.143955
 11
-1220.739862
 21
927.143955
  0
SOLID
  8
0
 62
     1
 10
-1246.591716
 20
933.614431
 11
-1246.591716
 21
920.673479
 12
-1270.739862
 22
927.143955
 13
-1270.739862
 23
927.143955
  0
ENDBLK
  0
BLOCK
  8
0
  2
G29
 70
     0
 10
0
 20
0
  0
LINE
  8
0
 62
     3
  6
CONTINUOUS
 10
-194.878809
 20
725.486448
 11
-356.743051
 21
725.486448
  0
LINE
  8
0
 62
     3
  6
CONTINUOUS
 10
-194.878809
 20
733.486448
 11
-356.743051
 21
733.486448
  0
TEXT
  8
0
 62
     7
 10
-387.177876
 20
742.984036
 40
32.000000
 50
360.000000
 41
0.66 
  1
％％ｃ　　　枝管
 72
     5
 11
-195.177876
 21
742.984036
  0
ENDBLK
  0
BLOCK
  8
0
  2
G30
 70
     0
 10
0
 20
0
  0
LINE
  8
0
 62
     3
  6
CONTINUOUS
 10
-405.206996
 20
634.200449
 11
-363.422657
 21
749.444352
  0
SOLID
  8
0
 62
     3
 10
-403.673896
 20
664.161250
 11
-387.182131
 21
658.181780
 12
-405.206996
 22
634.200449
 13
-405.206996
 23
634.200449
  0
TEXT
  8
0
 62
     3
 10
-363.422657
 20
754.777685
 40
32.000000
 50
0.000000E+00
 41
0.50 
  1
 
 72
     5
 11
-347.422657
 21
754.777685
  0
LINE
  8
0
 62
     3
  6
CONTINUOUS
 10
-363.422657
 20
749.444352
 11
-346.405648
 21
749.444352
  0
ENDBLK
  0
BLOCK
  8
0
  2
G31
 70
     0
 10
0
 20
0
  0
LINE
  8
0
 62
     7
  6
CONTINUOUS
 10
-1525.739862
 20
875.889268
 11
-1525.739862
 21
996.099426
  0
LINE
  8
0
 62
     7
  6
CONTINUOUS
 10
-1430.739862
 20
922.330428
 11
-1430.739862
 21
996.099426
  0
LINE
  8
0
 62
     7
  6
CONTINUOUS
 10
-1525.739862
 20
986.099426
 11
-1430.739862
 21
986.099426
  0
SOLID
  8
0
 62
     7
 10
-1497.050719
 20
994.870578
 11
-1497.050719
 21
977.328275
 12
-1525.739862
 22
986.099426
 13
-1525.739862
 23
986.099426
  0
SOLID
  8
0
 62
     7
 10
-1459.429004
 20
977.328275
 11
-1459.429004
 21
994.870578
 12
-1430.739862
 22
986.099426
 13
-1430.739862
 23
986.099426
  0
TEXT
  8
0
 62
     7
 10
-1496.239862
 20
991.432756
 40
32.000000
 50
0.000000E+00
 41
0.56 
  1
95
 72
     5
 11
-1460.239862
 21
991.432756
  0
ENDBLK
  0
BLOCK
  8
0
  2
G32
 70
     0
 10
0
 20
0
  0
LINE
  8
0
 62
     7
  6
CONTINUOUS
 10
-1430.739862
 20
905.987720
 11
-1430.739862
 21
996.099426
  0
LINE
  8
0
 62
     7
  6
CONTINUOUS
 10
-1270.739862
 20
886.389268
 11
-1270.739862
 21
996.099426
  0
LINE
  8
0
 62
     7
  6
CONTINUOUS
 10
-1430.739862
 20
986.099426
 11
-1270.739862
 21
986.099426
  0
SOLID
  8
0
 62
     7
 10
-1402.050719
 20
994.870578
 11
-1402.050719
 21
977.328275
 12
-1430.739862
 22
986.099426
 13
-1430.739862
 23
986.099426
  0
SOLID
  8
0
 62
     7
 10
-1299.429004
 20
977.328275
 11
-1299.429004
 21
994.870578
 12
-1270.739862
 22
986.099426
 13
-1270.739862
 23
986.099426
  0
TEXT
  8
0
 62
     7
 10
-1378.739862
 20
991.432756
 40
32.000000
 50
0.000000E+00
 41
0.58 
  1
160
 72
     5
 11
-1322.739862
 21
991.432756
  0
ENDBLK
  0
BLOCK
  8
0
  2
G33
 70
     0
 10
0
 20
0
  0
LINE
  8
0
 62
     7
  6
CONTINUOUS
 10
-1192.187380
 20
803.889268
 11
-1129.266082
 21
803.889268
  0
LINE
  8
0
 62
     7
  6
CONTINUOUS
 10
-1348.239862
 20
643.889268
 11
-1129.266082
 21
643.889268
  0
LINE
  8
0
 62
     7
  6
CONTINUOUS
 10
-1139.266082
 20
803.889268
 11
-1139.266082
 21
643.889268
  0
SOLID
  8
0
 62
     7
 10
-1130.494931
 20
775.200126
 11
-1148.037233
 21
775.200126
 12
-1139.266082
 22
803.889268
 13
-1139.266082
 23
803.889268
  0
SOLID
  8
0
 62
     7
 10
-1148.037233
 20
672.578411
 11
-1130.494931
 21
672.578411
 12
-1139.266082
 22
643.889268
 13
-1139.266082
 23
643.889268
  0
TEXT
  8
0
 62
     7
 10
-1144.599412
 20
695.889268
 40
32.000000
 50
90.000000
 41
0.58 
  1
160
 72
     5
 11
-1144.599412
 21
751.889268
  0
ENDBLK
  0
BLOCK
  8
0
  2
G34
 70
     0
 10
0
 20
0
  0
LINE
  8
0
 62
     7
  6
CONTINUOUS
 10
-1505.739862
 20
428.027117
 11
-1505.739862
 21
471.551724
  0
LINE
  8
0
 62
     7
  6
CONTINUOUS
 10
-1355.739862
 20
428.027117
 11
-1355.739862
 21
471.551724
  0
LINE
  8
0
 62
     7
  6
CONTINUOUS
 10
-1505.739862
 20
461.551724
 11
-1355.739862
 21
461.551724
  0
SOLID
  8
0
 62
     7
 10
-1477.050719
 20
470.322875
 11
-1477.050719
 21
452.780573
 12
-1505.739862
 22
461.551724
 13
-1505.739862
 23
461.551724
  0
SOLID
  8
0
 62
     7
 10
-1384.429004
 20
452.780573
 11
-1384.429004
 21
470.322875
 12
-1355.739862
 22
461.551724
 13
-1355.739862
 23
461.551724
  0
TEXT
  8
0
 62
     7
 10
-1488.739862
 20
466.885054
 40
32.000000
 50
0.000000E+00
 41
0.60 
  1
%%c150
 72
     5
 11
-1372.739862
 21
466.885054
  0
ENDBLK
  0
BLOCK
  8
0
  2
G35
 70
     0
 10
0
 20
0
  0
LINE
  8
0
 62
     7
  6
CONTINUOUS
 10
-1516.739862
 20
248.786486
 11
-1516.739862
 21
533.748668
  0
LINE
  8
0
 62
     7
  6
CONTINUOUS
 10
-1344.739862
 20
238.786486
 11
-1344.739862
 21
533.748668
  0
LINE
  8
0
 62
     7
  6
CONTINUOUS
 10
-1516.739862
 20
523.748668
 11
-1344.739862
 21
523.748668
  0
SOLID
  8
0
 62
     7
 10
-1488.050719
 20
532.519819
 11
-1488.050719
 21
514.977516
 12
-1516.739862
 22
523.748668
 13
-1516.739862
 23
523.748668
  0
SOLID
  8
0
 62
     7
 10
-1373.429004
 20
514.977516
 11
-1373.429004
 21
532.519819
 12
-1344.739862
 22
523.748668
 13
-1344.739862
 23
523.748668
  0
TEXT
  8
0
 62
     7
 10
-1488.739862
 20
529.081997
 40
32.000000
 50
0.000000E+00
 41
0.60 
  1
%%c172
 72
     5
 11
-1372.739862
 21
529.081997
  0
ENDBLK
  0
BLOCK
  8
0
  2
G36
 70
     0
 10
0
 20
0
  0
LINE
  8
0
 62
     7
  6
CONTINUOUS
 10
-1485.739862
 20
-576.972883
 11
-1485.739862
 21
-651.607049
  0
LINE
  8
0
 62
     7
  6
CONTINUOUS
 10
-1375.739862
 20
-576.972883
 11
-1375.739862
 21
-651.607049
  0
LINE
  8
0
 62
     7
  6
CONTINUOUS
 10
-1485.739862
 20
-641.607049
 11
-1375.739862
 21
-641.607049
  0
SOLID
  8
0
 62
     7
 10
-1457.050719
 20
-632.835898
 11
-1457.050719
 21
-650.378201
 12
-1485.739862
 22
-641.607049
 13
-1485.739862
 23
-641.607049
  0
SOLID
  8
0
 62
     7
 10
-1404.429004
 20
-650.378201
 11
-1404.429004
 21
-632.835898
 12
-1375.739862
 22
-641.607049
 13
-1375.739862
 23
-641.607049
  0
TEXT
  8
0
 62
     7
 10
-1488.739862
 20
-636.273720
 40
32.000000
 50
0.000000E+00
 41
0.60 
  1
%%c110
 72
     5
 11
-1372.739862
 21
-636.273720
  0
ENDBLK
  0
BLOCK
  8
0
  2
G37
 70
     0
 10
0
 20
0
  0
LINE
  8
0
 62
     7
  6
CONTINUOUS
 10
-1516.739862
 20
-313.100972
 11
-1516.739862
 21
-716.251332
  0
LINE
  8
0
 62
     7
  6
CONTINUOUS
 10
-1344.739862
 20
-303.100972
 11
-1344.739862
 21
-716.251332
  0
LINE
  8
0
 62
     7
  6
CONTINUOUS
 10
-1516.739862
 20
-706.251332
 11
-1344.739862
 21
-706.251332
  0
SOLID
  8
0
 62
     7
 10
-1488.050719
 20
-697.480181
 11
-1488.050719
 21
-715.022484
 12
-1516.739862
 22
-706.251332
 13
-1516.739862
 23
-706.251332
  0
SOLID
  8
0
 62
     7
 10
-1373.429004
 20
-715.022484
 11
-1373.429004
 21
-697.480181
 12
-1344.739862
 22
-706.251332
 13
-1344.739862
 23
-706.251332
  0
TEXT
  8
0
 62
     7
 10
-1488.739862
 20
-700.918003
 40
32.000000
 50
0.000000E+00
 41
0.60 
  1
%%c172
 72
     5
 11
-1372.739862
 21
-700.918003
  0
ENDBLK
  0
BLOCK
  8
0
  2
G38
 70
     0
 10
0
 20
0
  0
POINT
  8
0
 62
     2
 10
-1517.710036
 20
-148.921581
  0
LINE
  8
0
 62
     2
  6
CENTER
 10
-1600.989865
 20
-155.255985
 11
-1517.710036
 21
-156.921581
  0
LINE
  8
0
 62
     2
  6
CONTINUOUS
 10
-1583.671243
 20
-103.591958
 11
-1525.739862
 21
-104.750586
  0
LINE
  8
0
 62
     2
  6
CONTINUOUS
 10
-1525.756212
 20
-208.272556
 11
-1590.739862
 21
-206.972883
  0
LINE
  8
0
 62
     2
  6
CONTINUOUS
 10
-1583.611255
 20
-100.592558
 11
-1588.610256
 21
-100.492578
  0
LINE
  8
0
 62
     2
  6
CONTINUOUS
 10
-1588.610256
 20
-100.492578
 11
-1590.739862
 21
-206.972883
  0
LINE
  8
0
 62
     2
  6
CONTINUOUS
 10
-1583.611255
 20
-100.592558
 11
-1585.740861
 21
-207.072863
  0
POINT
  8
0
 62
     2
 10
-1589.710036
 20
-155.481581
  0
ENDBLK
  0
BLOCK
  8
0
  2
G39
 70
     0
 10
0
 20
0
  0
LINE
  8
0
 62
     7
  6
CONTINUOUS
 10
-1599.710036
 20
-155.481581
 11
-1649.237065
 21
-155.481581
  0
LINE
  8
0
 62
     7
  6
CONTINUOUS
 10
-1600.739862
 20
-206.972883
 11
-1649.237065
 21
-206.972883
  0
LINE
  8
0
 62
     7
  6
CONTINUOUS
 10
-1639.237065
 20
-155.481581
 11
-1639.237065
 21
-206.972883
  0
LINE
  8
0
 62
     7
  6
CONTINUOUS
 10
-1639.237065
 20
-155.481581
 11
-1639.237065
 21
-105.481581
  0
SOLID
  8
0
 62
     7
 10
-1648.008216
 20
-126.792438
 11
-1630.465914
 21
-126.792438
 12
-1639.237065
 22
-155.481581
 13
-1639.237065
 23
-155.481581
  0
LINE
  8
0
 62
     7
  6
CONTINUOUS
 10
-1639.237065
 20
-206.972883
 11
-1639.237065
 21
-256.972883
  0
SOLID
  8
0
 62
     7
 10
-1630.465914
 20
-235.662026
 11
-1648.008216
 21
-235.662026
 12
-1639.237065
 22
-206.972883
 13
-1639.237065
 23
-206.972883
  0
TEXT
  8
0
 62
     7
 10
-1644.570395
 20
-197.227232
 40
32.000000
 50
90.000000
 41
0.86 
  1
Ｂ
 72
     5
 11
-1644.570395
 21
-165.227232
  0
ENDBLK
  0
BLOCK
  8
0
  2
G40
 70
     0
 10
0
 20
0
  0
LINE
  8
0
 62
     7
  6
CONTINUOUS
 10
-1261.769688
 20
-155.481581
 11
-1183.662948
 21
-155.481581
  0
LINE
  8
0
 62
     7
  6
CONTINUOUS
 10
-1260.739862
 20
-206.972883
 11
-1183.662948
 21
-206.972883
  0
LINE
  8
0
 62
     7
  6
CONTINUOUS
 10
-1193.662948
 20
-155.481581
 11
-1193.662948
 21
-206.972883
  0
LINE
  8
0
 62
     7
  6
CONTINUOUS
 10
-1193.662948
 20
-155.481581
 11
-1193.662948
 21
-105.481581
  0
SOLID
  8
0
 62
     7
 10
-1202.434099
 20
-126.792438
 11
-1184.891797
 21
-126.792438
 12
-1193.662948
 22
-155.481581
 13
-1193.662948
 23
-155.481581
  0
LINE
  8
0
 62
     7
  6
CONTINUOUS
 10
-1193.662948
 20
-206.972883
 11
-1193.662948
 21
-256.972883
  0
SOLID
  8
0
 62
     7
 10
-1184.891797
 20
-235.662026
 11
-1202.434099
 21
-235.662026
 12
-1193.662948
 22
-206.972883
 13
-1193.662948
 23
-206.972883
  0
TEXT
  8
0
 62
     7
 10
-1198.996278
 20
-197.227232
 40
32.000000
 50
90.000000
 41
0.86 
  1
Ｂ
 72
     5
 11
-1198.996278
 21
-165.227232
  0
ENDBLK
  0
BLOCK
  8
0
  2
G41
 70
     0
 10
0
 20
0
  0
POINT
  8
0
 62
     2
 10
-1271.769688
 20
-155.481581
  0
LINE
  8
0
 62
     2
  6
CONTINUOUS
 10
-1277.868468
 20
-100.592558
 11
-1275.738862
 21
-207.072863
  0
LINE
  8
0
 62
     2
  6
CONTINUOUS
 10
-1272.869468
 20
-100.492578
 11
-1270.739862
 21
-206.972883
  0
LINE
  8
0
 62
     2
  6
CONTINUOUS
 10
-1277.868468
 20
-100.592558
 11
-1272.869468
 21
-100.492578
  0
LINE
  8
0
 62
     2
  6
CONTINUOUS
 10
-1335.723512
 20
-208.272556
 11
-1270.739862
 21
-206.972883
  0
LINE
  8
0
 62
     2
  6
CONTINUOUS
 10
-1277.808480
 20
-103.591958
 11
-1335.739862
 21
-104.750586
  0
LINE
  8
0
 62
     2
  6
CENTER
 10
-1260.489859
 20
-155.255985
 11
-1343.769688
 21
-156.921581
  0
POINT
  8
0
 62
     2
 10
-1343.769688
 20
-148.921581
  0
ENDBLK
  0
BLOCK
  8
0
  2
G42
 70
     0
 10
0
 20
0
  0
LINE
  8
0
 62
     2
  6
CONTINUOUS
 10
-624.983194
 20
627.000000
 11
-684.983194
 21
627.000000
  0
LINE
  8
0
 62
     2
  6
CONTINUOUS
 10
-684.983194
 20
523.000000
 11
-624.983194
 21
523.000000
  0
LINE
  8
0
 62
     2
  6
CONTINUOUS
 10
-684.983194
 20
630.000000
 11
-689.983194
 21
630.000000
  0
LINE
  8
0
 62
     2
  6
CONTINUOUS
 10
-684.983194
 20
520.000000
 11
-689.983194
 21
520.000000
  0
LINE
  8
0
 62
     2
  6
CONTINUOUS
 10
-684.983194
 20
520.000000
 11
-684.983194
 21
630.000000
  0
LINE
  8
0
 62
     2
  6
CONTINUOUS
 10
-689.983194
 20
520.000000
 11
-689.983194
 21
630.000000
  0
ENDBLK
  0
BLOCK
  8
0
  2
G43
 70
     0
 10
0
 20
0
  0
LINE
  8
0
 62
     2
  6
CONTINUOUS
 10
-369.983194
 20
520.000000
 11
-369.983194
 21
630.000000
  0
LINE
  8
0
 62
     2
  6
CONTINUOUS
 10
-374.983194
 20
520.000000
 11
-374.983194
 21
630.000000
  0
LINE
  8
0
 62
     2
  6
CONTINUOUS
 10
-374.983194
 20
520.000000
 11
-369.983194
 21
520.000000
  0
LINE
  8
0
 62
     2
  6
CONTINUOUS
 10
-374.983194
 20
630.000000
 11
-369.983194
 21
630.000000
  0
LINE
  8
0
 62
     2
  6
CONTINUOUS
 10
-374.983194
 20
523.000000
 11
-434.983194
 21
523.000000
  0
LINE
  8
0
 62
     2
  6
CONTINUOUS
 10
-434.983194
 20
627.000000
 11
-374.983194
 21
627.000000
  0
ENDBLK
  0
BLOCK
  8
0
  2
G44
 70
     0
 10
0
 20
0
  0
LINE
  8
0
 62
     7
  6
CONTINUOUS
 10
-359.983194
 20
630.000000
 11
-307.658502
 21
630.000000
  0
LINE
  8
0
 62
     7
  6
CONTINUOUS
 10
-359.983194
 20
520.000000
 11
-307.658502
 21
520.000000
  0
LINE
  8
0
 62
     7
  6
CONTINUOUS
 10
-317.658502
 20
630.000000
 11
-317.658502
 21
520.000000
  0
SOLID
  8
0
 62
     7
 10
-308.887351
 20
601.310857
 11
-326.429653
 21
601.310857
 12
-317.658502
 22
630.000000
 13
-317.658502
 23
630.000000
  0
SOLID
  8
0
 62
     7
 10
-326.429653
 20
548.689143
 11
-308.887351
 21
548.689143
 12
-317.658502
 22
520.000000
 13
-317.658502
 23
520.000000
  0
TEXT
  8
0
 62
     7
 10
-322.991832
 20
559.000000
 40
32.000000
 50
90.000000
 41
0.86 
  1
Ａ
 72
     5
 11
-322.991832
 21
591.000000
  0
ENDBLK
  0
BLOCK
  8
0
  2
G45
 70
     0
 10
0
 20
0
  0
LINE
  8
0
 62
     7
  6
CONTINUOUS
 10
-699.983194
 20
630.000000
 11
-752.307886
 21
630.000000
  0
LINE
  8
0
 62
     7
  6
CONTINUOUS
 10
-699.983194
 20
520.000000
 11
-752.307886
 21
520.000000
  0
LINE
  8
0
 62
     7
  6
CONTINUOUS
 10
-742.307886
 20
630.000000
 11
-742.307886
 21
520.000000
  0
SOLID
  8
0
 62
     7
 10
-733.536735
 20
601.310857
 11
-751.079037
 21
601.310857
 12
-742.307886
 22
630.000000
 13
-742.307886
 23
630.000000
  0
SOLID
  8
0
 62
     7
 10
-751.079037
 20
548.689143
 11
-733.536735
 21
548.689143
 12
-742.307886
 22
520.000000
 13
-742.307886
 23
520.000000
  0
TEXT
  8
0
 62
     7
 10
-747.641216
 20
559.000000
 40
32.000000
 50
90.000000
 41
0.86 
  1
Ａ
 72
     5
 11
-747.641216
 21
591.000000
  0
ENDBLK
  0
ENDSEC
  0
SECTION
  2
ENTITIES
  0
LINE
  8
3
 62
     4
  6
CONTINUOUS
 10
-1513.539450
 20
-206.482684
 11
-1510.387088
 21
-205.017441
  0
LINE
  8
3
 62
     4
  6
CONTINUOUS
 10
-1510.387088
 20
-205.017441
 11
-1507.338814
 21
-202.601159
  0
LINE
  8
3
 62
     4
  6
CONTINUOUS
 10
-1507.338814
 20
-202.601159
 11
-1504.444572
 21
-199.273430
  0
LINE
  8
3
 62
     4
  6
CONTINUOUS
 10
-1504.444572
 20
-199.273430
 11
-1501.751784
 21
-195.088775
  0
LINE
  8
3
 62
     4
  6
CONTINUOUS
 10
-1501.751784
 20
-195.088775
 11
-1499.304570
 21
-190.115760
  0
LINE
  8
3
 62
     4
  6
CONTINUOUS
 10
-1499.304570
 20
-190.115760
 11
-1497.143026
 21
-184.435866
  0
LINE
  8
3
 62
     4
  6
CONTINUOUS
 10
-1497.143026
 20
-184.435866
 11
-1495.302569
 21
-178.142155
  0
LINE
  8
3
 62
     4
  6
CONTINUOUS
 10
-1495.302569
 20
-178.142155
 11
-1493.813354
 21
-171.337747
  0
LINE
  8
3
 62
     4
  6
CONTINUOUS
 10
-1493.813354
 20
-171.337747
 11
-1492.699782
 21
-164.134130
  0
LINE
  8
3
 62
     4
  6
CONTINUOUS
 10
-1492.699782
 20
-164.134130
 11
-1491.980096
 21
-156.649332
  0
LINE
  8
3
 62
     4
  6
CONTINUOUS
 10
-1492.699782
 20
-164.134130
 11
-1491.980096
 21
-156.649332
  0
ARC
  8
1
 62
     4
  6
CONTINUOUS
 10
-1324.938544
 20
-112.212691
 40
30.639745
 50
117.551999
 51
146.346996
  0
POINT
  8
3
 62
     7
 10
-1344.739862
 20
-86.972883
  0
POINT
  8
3
 62
     4
 10
-1344.739862
 20
-208.972883
  0
ARC
  8
3
 62
     4
  6
CONTINUOUS
 10
-1341.739862
 20
-211.972883
 40
3.000000
 50
90.000000
 51
180.000000
  0
LINE
  8
3
 62
     4
  6
CONTINUOUS
 10
-1337.739862
 20
-208.972883
 11
-1341.739862
 21
-208.972883
  0
ARC
  8
3
 62
     4
  6
CONTINUOUS
 10
-1337.739862
 20
-206.972883
 40
2.000000
 50
-90.000000
 51
0.000000E+00
  0
LINE
  8
3
 62
     4
  6
CONTINUOUS
 10
-1335.739862
 20
-206.972883
 11
-1335.739862
 21
-86.972883
  0
ARC
  8
3
 62
     4
  6
CONTINUOUS
 10
-1337.739862
 20
-86.972883
 40
2.000000
 50
0.000000E+00
 51
90.000000
  0
LINE
  8
3
 62
     4
  6
CONTINUOUS
 10
-1497.893237
 20
-101.972883
 11
-1473.389598
 21
-101.972883
  0
LINE
  8
0
 62
     2
  6
CONTINUOUS
 10
-1528.739862
 20
-51.471285
 11
-1528.739862
 21
-49.471285
  0
LINE
  8
0
 62
     2
  6
CONTINUOUS
 10
-1535.739862
 20
-48.471285
 11
-1430.739862
 21
-48.471285
  0
LINE
  8
0
 62
     2
  6
CONTINUOUS
 10
-1528.739862
 20
-51.471285
 11
-1332.739862
 21
-51.471285
  0
LINE
  8
0
 62
     2
  6
CONTINUOUS
 10
-1535.739862
 20
-48.471285
 11
-1535.739862
 21
-40.471285
  0
LINE
  8
0
 62
     3
  6
CONTINUOUS
 10
-1344.739862
 20
218.027117
 11
-1344.739862
 21
228.786486
  0
LINE
  8
3
 62
     3
  6
CONTINUOUS
 10
-1355.739862
 20
413.027117
 11
-1430.739862
 21
413.027117
  0
LINE
  8
3
 62
     3
  6
CONTINUOUS
 10
-1505.739862
 20
418.027117
 11
-1355.739862
 21
418.027117
  0
LINE
  8
3
 62
     3
  6
CONTINUOUS
 10
-1505.739862
 20
418.027117
 11
-1505.739862
 21
413.027117
  0
LINE
  8
0
 62
     3
  6
CONTINUOUS
 10
-1344.739862
 20
88.027117
 11
-1344.739862
 21
-33.471285
  0
ARC
  8
3
 62
     3
  6
CONTINUOUS
 10
-1368.739862
 20
341.027117
 40
10.000000
 50
-57.472862
 51
0.000000E+00
  0
LINE
  8
3
 62
     3
  6
CONTINUOUS
 10
-1502.739862
 20
408.444541
 11
-1502.739862
 21
341.027117
  0
LINE
  8
3
 62
     3
  6
CONTINUOUS
 10
-1358.739862
 20
408.444541
 11
-1358.739862
 21
341.027117
  0
ARC
  8
3
 62
     3
  6
CONTINUOUS
 10
-1492.739862
 20
341.027117
 40
10.000000
 50
180.000000
 51
238.038250
  0
LINE
  8
3
 62
     3
  6
CENTER
 10
-1264.806156
 20
153.027117
 11
-1537.473684
 21
153.027117
  0
LINE
  8
0
 62
     2
  6
CONTINUOUS
 10
-1332.739862
 20
-33.471285
 11
-1325.739862
 21
-40.471285
  0
ARC
  8
3
 62
     3
  6
CONTINUOUS
 10
-1507.739862
 20
408.444541
 40
5.000000
 50
0.000000E+00
 51
66.421822
  0
LINE
  8
3
 62
     3
  6
CONTINUOUS
 10
-1355.739862
 20
418.027117
 11
-1355.739862
 21
413.027117
  0
ARC
  8
0
 62
     3
  6
CONTINUOUS
 10
-1379.739862
 20
228.786486
 40
35.000000
 50
0.000000E+00
 51
17.716492
  0
ARC
  8
3
 62
     3
  6
CONTINUOUS
 10
-1353.739862
 20
408.444541
 40
5.000000
 50
113.578178
 51
180.000000
  0
LINE
  8
3
 62
     3
  6
CONTINUOUS
 10
-1353.000839
 20
235.903002
 11
-1430.739862
 21
235.903002
  0
ARC
  8
1
 62
     4
  6
CONTINUOUS
 10
-1337.739862
 20
-206.972883
 40
2.000000
 50
-90.000000
 51
0.000000E+00
  0
ARC
  8
1
 62
     4
  6
CONTINUOUS
 10
-1337.739862
 20
-86.972883
 40
2.000000
 50
0.000000E+00
 51
90.000000
  0
LINE
  8
1
 62
     4
  6
CONTINUOUS
 10
-1335.739862
 20
-86.972883
 11
-1335.739862
 21
-206.972883
  0
ARC
  8
3
 62
     4
  6
CONTINUOUS
 10
-1510.739862
 20
-420.844795
 40
25.000000
 50
0.000000E+00
 51
14.708304
  0
LINE
  8
3
 62
     4
  6
CONTINUOUS
 10
-1515.592945
 20
-301.987407
 11
-1486.559088
 21
-414.497342
  0
ARC
  8
3
 62
     4
  6
CONTINUOUS
 10
-1481.739862
 20
-293.100972
 40
35.000000
 50
180.000000
 51
194.708304
  0
LINE
  8
3
 62
     4
  6
CONTINUOUS
 10
-1485.739862
 20
-420.844795
 11
-1485.739862
 21
-564.972883
  0
ARC
  8
3
 62
     4
  6
CONTINUOUS
 10
-1350.739862
 20
-420.844795
 40
25.000000
 50
165.291696
 51
180.000000
  0
LINE
  8
3
 62
     4
  6
CONTINUOUS
 10
-1345.886778
 20
-301.987407
 11
-1374.920636
 21
-414.497342
  0
ARC
  8
3
 62
     4
  6
CONTINUOUS
 10
-1379.739862
 20
-293.100972
 40
35.000000
 50
-14.708304
 51
0.000000E+00
  0
LINE
  8
3
 62
     4
  6
CONTINUOUS
 10
-1375.739862
 20
-420.844795
 11
-1375.739862
 21
-564.972883
  0
LINE
  8
3
 62
     4
  6
CONTINUOUS
 10
-1377.739862
 20
-566.972883
 11
-1483.739862
 21
-566.972883
  0
LINE
  8
3
 62
     4
  6
CONTINUOUS
 10
-1480.990773
 20
-416.972883
 11
-1380.488951
 21
-416.972883
  0
LINE
  8
3
 62
     4
  6
CONTINUOUS
 10
-1511.488951
 20
-296.972883
 11
-1349.990773
 21
-296.972883
  0
LINE
  8
3
 62
     4
  6
CONTINUOUS
 10
-1516.739862
 20
-296.972883
 11
-1516.739862
 21
-211.972883
  0
LINE
  8
3
 62
     4
  6
CONTINUOUS
 10
-1337.739862
 20
-76.273521
 11
-1523.739862
 21
-76.273521
  0
LINE
  8
3
 62
     4
  6
CONTINUOUS
 10
-1344.739862
 20
-293.100972
 11
-1344.739862
 21
-211.972883
  0
LINE
  8
3
 62
     4
  6
CONTINUOUS
 10
-1534.739862
 20
-66.972883
 11
-1326.739862
 21
-66.972883
  0
LINE
  8
3
 62
     4
  6
CONTINUOUS
 10
-1325.739862
 20
-51.972883
 11
-1535.739862
 21
-51.972883
  0
ARC
  8
3
 62
     4
  6
CONTINUOUS
 10
-1483.739862
 20
-564.972883
 40
2.000000
 50
180.000000
 51
270.000000
  0
ARC
  8
3
 62
     4
  6
CONTINUOUS
 10
-1377.739862
 20
-564.972883
 40
2.000000
 50
-90.000000
 51
0.000000E+00
  0
LINE
  8
3
 62
     4
  6
CONTINUOUS
 10
-1325.739862
 20
-51.972883
 11
-1325.739862
 21
-66.972883
  0
LINE
  8
3
 62
     4
  6
CONTINUOUS
 10
-1326.739862
 20
-66.972883
 11
-1325.739862
 21
-66.972883
  0
LINE
  8
3
 62
     3
  6
CENTER
 10
-1509.228714
 20
-75.916452
 11
-1509.228714
 21
-45.425681
  0
LINE
  8
3
 62
     3
  6
CENTER
 10
-1352.251009
 20
-75.916452
 11
-1352.251009
 21
-45.425681
  0
ARC
  8
3
 62
     4
  6
CONTINUOUS
 10
-1326.739862
 20
-68.972883
 40
2.000000
 50
90.000000
 51
180.000000
  0
LINE
  8
3
 62
     4
  6
CONTINUOUS
 10
-1328.739862
 20
-68.972883
 11
-1328.739862
 21
-70.472883
  0
LINE
  8
3
 62
     4
  6
CONTINUOUS
 10
-1363.586486
 20
-101.972883
 11
-1388.090125
 21
-101.972883
  0
ARC
  8
3
 62
     4
  6
CONTINUOUS
 10
-1330.239862
 20
-70.472883
 40
1.500000
 50
-90.000000
 51
0.000000E+00
  0
LINE
  8
3
 62
     4
  6
CONTINUOUS
 10
-1330.239862
 20
-71.972883
 11
-1531.239862
 21
-71.972883
  0
LINE
  8
3
 62
     4
  6
CONTINUOUS
 10
-1334.180713
 20
-71.972883
 11
-1337.739862
 21
-76.273521
  0
LINE
  8
3
 62
     4
  6
CONTINUOUS
 10
-1337.739862
 20
-76.273521
 11
-1337.739862
 21
-84.972883
  0
LINE
  8
3
 62
     4
  6
CONTINUOUS
 10
-1523.739862
 20
-76.273521
 11
-1523.739862
 21
-84.972883
  0
LINE
  8
3
 62
     4
  6
CONTINUOUS
 10
-1527.299010
 20
-71.972883
 11
-1523.739862
 21
-76.273521
  0
ARC
  8
3
 62
     4
  6
CONTINUOUS
 10
-1531.239862
 20
-70.472883
 40
1.500000
 50
180.000000
 51
270.000000
  0
LINE
  8
3
 62
     4
  6
CONTINUOUS
 10
-1532.739862
 20
-68.972883
 11
-1532.739862
 21
-70.472883
  0
ARC
  8
3
 62
     4
  6
CONTINUOUS
 10
-1534.739862
 20
-68.972883
 40
2.000000
 50
0.000000E+00
 51
90.000000
  0
LINE
  8
3
 62
     4
  6
CONTINUOUS
 10
-1534.739862
 20
-66.972883
 11
-1535.739862
 21
-66.972883
  0
LINE
  8
3
 62
     4
  6
CONTINUOUS
 10
-1535.739862
 20
-51.972883
 11
-1535.739862
 21
-66.972883
  0
LINE
  8
0
 62
     3
  6
CONTINUOUS
 10
-1516.739862
 20
228.786486
 11
-1516.739862
 21
218.027117
  0
ARC
  8
0
 62
     3
  6
CONTINUOUS
 10
-1481.739862
 20
228.786486
 40
35.000000
 50
162.283508
 51
180.000000
  0
LINE
  8
3
 62
     3
  6
CONTINUOUS
 10
-1369.769878
 20
332.543100
 11
-1430.739862
 21
332.543100
  0
LINE
  8
0
 62
     3
  6
CONTINUOUS
 10
-1491.493178
 20
314.836132
 11
-1515.079949
 21
239.437240
  0
LINE
  8
0
 62
     3
  6
CONTINUOUS
 10
-1369.986545
 20
314.836132
 11
-1346.399774
 21
239.437240
  0
ARC
  8
2
 62
     3
  6
CONTINUOUS
 10
-1505.781787
 20
319.400741
 40
15.000000
 50
-17.716492
 51
59.888987
  0
LINE
  8
3
 62
     4
  6
CENTER
 10
-1430.739862
 20
-339.368262
 11
-1430.739862
 21
-27.290674
  0
LINE
  8
3
 62
     4
  6
CENTER
 10
-1430.739862
 20
-580.060403
 11
-1430.739862
 21
-339.368262
  0
LINE
  8
0
 62
     2
  6
CONTINUOUS
 10
-1528.739862
 20
-33.471285
 11
-1535.739862
 21
-40.471285
  0
LINE
  8
0
 62
     3
  6
CONTINUOUS
 10
-1516.739862
 20
88.027117
 11
-1516.739862
 21
-33.471285
  0
ARC
  8
2
 62
     3
  6
CONTINUOUS
 10
-1355.697936
 20
319.400741
 40
15.000000
 50
120.111013
 51
197.716492
  0
LINE
  8
3
 62
     3
  6
CONTINUOUS
 10
-1347.384056
 20
93.387137
 11
-1351.017657
 21
95.061817
  0
LINE
  8
3
 62
     3
  6
CONTINUOUS
 10
-1351.017657
 20
95.061817
 11
-1354.506711
 21
98.065583
  0
LINE
  8
3
 62
     3
  6
CONTINUOUS
 10
-1354.506711
 20
98.065583
 11
-1357.771216
 21
102.329561
  0
LINE
  8
3
 62
     3
  6
CONTINUOUS
 10
-1357.771216
 20
102.329561
 11
-1360.736321
 21
107.755983
  0
LINE
  8
3
 62
     3
  6
CONTINUOUS
 10
-1360.736321
 20
107.755983
 11
-1363.334039
 21
114.220426
  0
LINE
  8
3
 62
     3
  6
CONTINUOUS
 10
-1363.334039
 20
114.220426
 11
-1365.504807
 21
121.574668
  0
LINE
  8
3
 62
     3
  6
CONTINUOUS
 10
-1365.504807
 20
121.574668
 11
-1367.198851
 21
129.650083
  0
LINE
  8
3
 62
     3
  6
CONTINUOUS
 10
-1367.198851
 20
129.650083
 11
-1368.377328
 21
138.261509
  0
LINE
  8
3
 62
     3
  6
CONTINUOUS
 10
-1368.377328
 20
138.261509
 11
-1369.013218
 21
147.211496
  0
LINE
  8
3
 62
     3
  6
CONTINUOUS
 10
-1368.377328
 20
138.261509
 11
-1369.013218
 21
147.211496
  0
INSERT
  8
0
  2
G0
 10
0
 20
0
  0
LINE
  8
3
 62
     3
  6
CONTINUOUS
 10
-1346.926165
 20
212.780203
 11
-1350.621593
 21
211.243850
  0
LINE
  8
3
 62
     3
  6
CONTINUOUS
 10
-1350.621593
 20
211.243850
 11
-1354.177791
 21
208.335574
  0
LINE
  8
3
 62
     3
  6
CONTINUOUS
 10
-1354.177791
 20
208.335574
 11
-1357.510956
 21
204.123910
  0
LINE
  8
3
 62
     3
  6
CONTINUOUS
 10
-1357.510956
 20
204.123910
 11
-1360.542539
 21
198.708111
  0
LINE
  8
3
 62
     3
  6
CONTINUOUS
 10
-1360.542539
 20
198.708111
 11
-1363.201098
 21
192.215803
  0
LINE
  8
3
 62
     3
  6
CONTINUOUS
 10
-1363.201098
 20
192.215803
 11
-1365.423983
 21
184.799983
  0
LINE
  8
3
 62
     3
  6
CONTINUOUS
 10
-1365.423983
 20
184.799983
 11
-1367.158808
 21
176.635411
  0
LINE
  8
3
 62
     3
  6
CONTINUOUS
 10
-1367.158808
 20
176.635411
 11
-1368.364693
 21
167.914490
  0
LINE
  8
3
 62
     3
  6
CONTINUOUS
 10
-1368.364693
 20
167.914490
 11
-1369.013218
 21
158.842737
  0
LINE
  8
3
 62
     3
  6
CONTINUOUS
 10
-1368.364693
 20
167.914490
 11
-1369.013218
 21
158.842737
  0
LINE
  8
0
 62
     7
  6
CONTINUOUS
 10
-1283.260304
 20
259.111644
 11
-1283.260304
 21
217.327305
  0
SOLID
  8
0
 62
     7
 10
-1291.024875
 20
246.305080
 11
-1275.495733
 21
246.305080
 12
-1283.260304
 22
217.327305
 13
-1283.260304
 23
217.327305
  0
CIRCLE
  8
0
 62
     1
  6
CONTINUOUS
 10
-1430.739862
 20
-146.972883
 40
62.000000
  0
TEXT
  8
0
 62
     6
 10
-1298.933805
 20
1189.451072
 40
32.000000
 50
0.000000E+00
 41
0.86 
  1
ａ
 72
     5
 11
-1266.933805
 21
1189.451072
  0
LINE
  8
0
 62
     3
  6
CONTINUOUS
 10
-769.849166
 20
439.006739
 11
-769.849166
 21
343.504108
  0
TEXT
  8
0
 62
     7
 10
-1321.603372
 20
256.390527
 40
32.000000
 50
0.000000E+00
 41
0.78 
  1
７５枝管
 72
     5
 11
-1209.603372
 21
256.390527
  0
LINE
  8
3
 62
     4
  6
CONTINUOUS
 10
-1499.278439
 20
-103.890495
 11
-1498.163744
 21
-106.645079
  0
LINE
  8
3
 62
     4
  6
CONTINUOUS
 10
-1498.163744
 20
-106.645079
 11
-1497.124874
 21
-109.564275
  0
LINE
  8
3
 62
     4
  6
CONTINUOUS
 10
-1497.124874
 20
-109.564275
 11
-1496.166069
 21
-112.636166
  0
LINE
  8
3
 62
     4
  6
CONTINUOUS
 10
-1496.166069
 20
-112.636166
 11
-1495.291242
 21
-115.848214
  0
LINE
  8
3
 62
     4
  6
CONTINUOUS
 10
-1495.291242
 20
-115.848214
 11
-1494.503965
 21
-119.187307
  0
LINE
  8
3
 62
     4
  6
CONTINUOUS
 10
-1494.503965
 20
-119.187307
 11
-1493.807451
 21
-122.639816
  0
LINE
  8
3
 62
     4
  6
CONTINUOUS
 10
-1493.807451
 20
-122.639816
 11
-1493.204543
 21
-126.191648
  0
LINE
  8
3
 62
     4
  6
CONTINUOUS
 10
-1493.204543
 20
-126.191648
 11
-1492.697702
 21
-129.828306
  0
LINE
  8
3
 62
     4
  6
CONTINUOUS
 10
-1492.697702
 20
-129.828306
 11
-1492.288997
 21
-133.534945
  0
LINE
  8
3
 62
     4
  6
CONTINUOUS
 10
-1492.288997
 20
-133.534945
 11
-1491.980096
 21
-137.296435
  0
LINE
  8
3
 62
     4
  6
CONTINUOUS
 10
-1492.288997
 20
-133.534945
 11
-1491.980096
 21
-137.296435
  0
ARC
  8
3
 62
     4
  6
CONTINUOUS
 10
-1490.868044
 20
-75.024384
 40
28.500781
 50
225.057601
 51
244.512889
  0
POINT
  8
3
 62
     7
 10
-1516.739862
 20
-86.972883
  0
ARC
  8
3
 62
     4
  6
CONTINUOUS
 10
-1370.611679
 20
-75.024384
 40
28.500781
 50
295.487111
 51
314.942399
  0
ARC
  8
1
 62
     4
  6
CONTINUOUS
 10
-1523.739862
 20
-206.972883
 40
2.000000
 50
180.000000
 51
270.000000
  0
ARC
  8
1
 62
     4
  6
CONTINUOUS
 10
-1523.739862
 20
-86.972883
 40
2.000000
 50
90.000000
 51
180.000000
  0
ARC
  8
1
 62
     4
  6
CONTINUOUS
 10
-1519.739862
 20
-211.972883
 40
3.000000
 50
0.000000E+00
 51
90.000000
  0
LINE
  8
1
 62
     4
  6
CONTINUOUS
 10
-1519.739862
 20
-208.972883
 11
-1523.739862
 21
-208.972883
  0
ARC
  8
1
 62
     4
  6
CONTINUOUS
 10
-1536.541179
 20
-112.212691
 40
30.639745
 50
33.671563
 51
62.448001
  0
LINE
  8
1
 62
     4
  6
CONTINUOUS
 10
-1525.739862
 20
-86.972883
 11
-1525.739862
 21
-206.972883
  0
LINE
  8
3
 62
     4
  6
CONTINUOUS
 10
-1362.201285
 20
-103.890495
 11
-1363.315979
 21
-106.645079
  0
LINE
  8
3
 62
     4
  6
CONTINUOUS
 10
-1363.315979
 20
-106.645079
 11
-1364.354850
 21
-109.564275
  0
LINE
  8
3
 62
     4
  6
CONTINUOUS
 10
-1364.354850
 20
-109.564275
 11
-1365.313655
 21
-112.636166
  0
LINE
  8
3
 62
     4
  6
CONTINUOUS
 10
-1365.313655
 20
-112.636166
 11
-1366.188481
 21
-115.848214
  0
LINE
  8
3
 62
     4
  6
CONTINUOUS
 10
-1366.188481
 20
-115.848214
 11
-1366.975758
 21
-119.187307
  0
LINE
  8
3
 62
     4
  6
CONTINUOUS
 10
-1366.975758
 20
-119.187307
 11
-1367.672272
 21
-122.639816
  0
LINE
  8
3
 62
     4
  6
CONTINUOUS
 10
-1367.672272
 20
-122.639816
 11
-1368.275180
 21
-126.191648
  0
LINE
  8
3
 62
     4
  6
CONTINUOUS
 10
-1368.275180
 20
-126.191648
 11
-1368.782021
 21
-129.828306
  0
LINE
  8
3
 62
     4
  6
CONTINUOUS
 10
-1368.782021
 20
-129.828306
 11
-1369.190726
 21
-133.534945
  0
LINE
  8
3
 62
     4
  6
CONTINUOUS
 10
-1369.190726
 20
-133.534945
 11
-1369.499627
 21
-137.296435
  0
LINE
  8
3
 62
     4
  6
CONTINUOUS
 10
-1369.190726
 20
-133.534945
 11
-1369.499627
 21
-137.296435
  0
LINE
  8
3
 62
     4
  6
CONTINUOUS
 10
-1347.940273
 20
-206.482684
 11
-1351.092635
 21
-205.017441
  0
LINE
  8
3
 62
     4
  6
CONTINUOUS
 10
-1351.092635
 20
-205.017441
 11
-1354.140910
 21
-202.601159
  0
LINE
  8
3
 62
     4
  6
CONTINUOUS
 10
-1354.140910
 20
-202.601159
 11
-1357.035152
 21
-199.273430
  0
LINE
  8
3
 62
     4
  6
CONTINUOUS
 10
-1357.035152
 20
-199.273430
 11
-1359.727940
 21
-195.088775
  0
LINE
  8
3
 62
     4
  6
CONTINUOUS
 10
-1359.727940
 20
-195.088775
 11
-1362.175154
 21
-190.115760
  0
LINE
  8
3
 62
     4
  6
CONTINUOUS
 10
-1362.175154
 20
-190.115760
 11
-1364.336697
 21
-184.435866
  0
LINE
  8
3
 62
     4
  6
CONTINUOUS
 10
-1364.336697
 20
-184.435866
 11
-1366.177154
 21
-178.142155
  0
LINE
  8
3
 62
     4
  6
CONTINUOUS
 10
-1366.177154
 20
-178.142155
 11
-1367.666369
 21
-171.337747
  0
LINE
  8
3
 62
     4
  6
CONTINUOUS
 10
-1367.666369
 20
-171.337747
 11
-1368.779942
 21
-164.134130
  0
LINE
  8
3
 62
     4
  6
CONTINUOUS
 10
-1368.779942
 20
-164.134130
 11
-1369.499627
 21
-156.649332
  0
LINE
  8
3
 62
     4
  6
CONTINUOUS
 10
-1368.779942
 20
-164.134130
 11
-1369.499627
 21
-156.649332
  0
POINT
  8
0
 62
     3
 10
-1430.739862
 20
-59.972883
  0
POINT
  8
0
 62
     3
 10
-1430.739862
 20
-74.472883
  0
POINT
  8
0
 62
     3
 10
-1430.739862
 20
-96.972883
  0
ARC
  8
0
 62
     2
  6
CONTINUOUS
 10
-1529.739862
 20
-49.471285
 40
1.000000
 50
360.000000
 51
450.000000
  0
LINE
  8
0
 62
     2
  6
CONTINUOUS
 10
-1528.739862
 20
-33.471285
 11
-1332.739862
 21
-33.471285
  0
LINE
  8
3
 62
     3
  6
CONTINUOUS
 10
-1275.739862
 20
90.527117
 11
-1275.739862
 21
213.027117
  0
LINE
  8
3
 62
     3
  6
CONTINUOUS
 10
-1275.739862
 20
90.527117
 11
-1270.739862
 21
90.527117
  0
LINE
  8
3
 62
     3
  6
CONTINUOUS
 10
-1275.739862
 20
213.027117
 11
-1335.739862
 21
213.027117
  0
ARC
  8
1
 62
     3
  6
CONTINUOUS
 10
-1337.739862
 20
93.027117
 40
2.000000
 50
-90.000000
 51
0.000000E+00
  0
LINE
  8
3
 62
     3
  6
CONTINUOUS
 10
-1275.739862
 20
93.027117
 11
-1335.739862
 21
93.027117
  0
LINE
  8
3
 62
     3
  6
CONTINUOUS
 10
-1275.739862
 20
215.527117
 11
-1270.739862
 21
215.527117
  0
LINE
  8
3
 62
     3
  6
CONTINUOUS
 10
-1275.739862
 20
215.527117
 11
-1275.739862
 21
213.027117
  0
LINE
  8
3
 62
     3
  6
CONTINUOUS
 10
-1270.739862
 20
215.527117
 11
-1270.739862
 21
90.527117
  0
LINE
  8
1
 62
     3
  6
CONTINUOUS
 10
-1337.739862
 20
215.027117
 11
-1341.739862
 21
215.027117
  0
LINE
  8
1
 62
     3
  6
CONTINUOUS
 10
-1337.739862
 20
91.027117
 11
-1341.739862
 21
91.027117
  0
ARC
  8
1
 62
     3
  6
CONTINUOUS
 10
-1337.739862
 20
213.027117
 40
2.000000
 50
0.000000E+00
 51
90.000000
  0
ARC
  8
1
 62
     3
  6
CONTINUOUS
 10
-1341.739862
 20
218.027117
 40
3.000000
 50
180.000000
 51
270.000000
  0
ARC
  8
1
 62
     3
  6
CONTINUOUS
 10
-1341.739862
 20
88.027117
 40
3.000000
 50
90.000000
 51
180.000000
  0
ARC
  8
0
 62
     3
  6
CONTINUOUS
 10
-1379.739862
 20
228.786486
 40
35.000000
 50
0.000000E+00
 51
17.716492
  0
LINE
  8
0
 62
     3
  6
CONTINUOUS
 10
-1344.739862
 20
228.786486
 11
-1344.739862
 21
218.027117
  0
LINE
  8
0
 62
     2
  6
CONTINUOUS
 10
-1535.739862
 20
-40.471285
 11
-1430.739862
 21
-40.471285
  0
LINE
  8
3
 62
     3
  6
CENTER
 10
-1430.739862
 20
425.501565
 11
-1430.739862
 21
-27.290674
  0
LINE
  8
3
 62
     3
  6
CONTINUOUS
 10
-1508.478884
 20
235.903002
 11
-1430.739862
 21
235.903002
  0
LINE
  8
3
 62
     3
  6
CONTINUOUS
 10
-1491.709846
 20
332.543100
 11
-1430.739862
 21
332.543100
  0
LINE
  8
3
 62
     3
  6
CONTINUOUS
 10
-1505.739862
 20
413.027117
 11
-1430.739862
 21
413.027117
  0
POINT
  8
0
 62
     3
 10
-1430.739862
 20
343.027117
  0
TEXT
  8
0
 62
     6
 10
-1663.166393
 20
1098.812443
 40
35.000000
 50
0.000000E+00
 41
0.77 
  1
４ＳＦ－　　　－　　　　　　０　　０－Ｐ
 72
     5
 11
-1047.666393
 21
1098.812443
  0
LINE
  8
0
 62
     7
  6
CONTINUOUS
 10
-1127.807159
 20
93.027117
 11
-1266.421734
 21
93.027117
  0
LINE
  8
0
 62
     2
  6
CONTINUOUS
 10
-1325.739862
 20
-48.471285
 11
-1325.739862
 21
-40.471285
  0
LINE
  8
0
 62
     2
  6
CONTINUOUS
 10
-1332.739862
 20
-51.471285
 11
-1332.739862
 21
-49.471285
  0
ARC
  8
0
 62
     2
  6
CONTINUOUS
 10
-1331.739862
 20
-49.471285
 40
1.000000
 50
90.000000
 51
180.000000
  0
LINE
  8
0
 62
     2
  6
CONTINUOUS
 10
-1325.739862
 20
-40.471285
 11
-1430.739862
 21
-40.471285
  0
LINE
  8
0
 62
     2
  6
CONTINUOUS
 10
-1325.739862
 20
-48.471285
 11
-1430.739862
 21
-48.471285
  0
CIRCLE
  8
0
 62
     3
  6
CONTINUOUS
 10
-1430.739862
 20
153.027117
 40
40.000000
  0
CIRCLE
  8
0
 62
     3
  6
CONTINUOUS
 10
-1430.739862
 20
153.027117
 40
54.000000
  0
INSERT
  8
0
  2
G1
 10
0
 20
0
  0
LINE
  8
0
 62
     1
  6
CONTINUOUS
 10
-449.373021
 20
669.752309
 11
-493.005941
 21
713.385229
  0
LINE
  8
0
 62
     1
  6
CONTINUOUS
 10
-539.844837
 20
760.224125
 11
-589.898302
 21
810.277589
  0
INSERT
  8
0
  2
G2
 10
0
 20
0
  0
INSERT
  8
0
  2
G3
 10
0
 20
0
  0
INSERT
  8
0
  2
G4
 10
0
 20
0
  0
LINE
  8
0
 62
     1
  6
CONTINUOUS
 10
-434.983194
 20
509.361184
 11
-434.983194
 21
413.375253
  0
ARC
  8
0
 62
     4
  6
CONTINUOUS
 10
-529.983194
 20
575.000000
 40
100.000000
 50
126.038338
 51
143.961662
  0
ARC
  8
3
 62
     3
  6
CONTINUOUS
 10
-529.983194
 20
575.000000
 40
105.000000
 50
170.096801
 51
190.978618
  0
ARC
  8
0
 62
     4
  6
CONTINUOUS
 10
-529.983194
 20
575.000000
 40
100.000000
 50
36.038338
 51
53.961662
  0
ARC
  8
0
 62
     4
  6
CONTINUOUS
 10
-529.983194
 20
575.000000
 40
100.000000
 50
306.038338
 51
323.961662
  0
CIRCLE
  8
3
 62
     4
  6
CONTINUOUS
 10
-529.983194
 20
575.000000
 40
88.000000
  0
INSERT
  8
0
  2
G5
 10
0
 20
0
  0
ARC
  8
3
 62
     4
  6
CONTINUOUS
 10
-529.983194
 20
575.000000
 40
100.000000
 50
143.109614
 51
216.890386
  0
LINE
  8
3
 62
     4
  6
CONTINUOUS
 10
-621.234125
 20
655.964607
 11
-633.436822
 21
593.061853
  0
ARC
  8
3
 62
     3
  6
CONTINUOUS
 10
-529.983194
 20
575.000000
 40
105.000000
 50
-10.978618
 51
9.903199
  0
ARC
  8
3
 62
     3
  6
CONTINUOUS
 10
-529.983194
 20
575.000000
 40
105.000000
 50
260.096801
 51
279.903199
  0
LINE
  8
3
 62
     4
  6
CONTINUOUS
 10
-621.234125
 20
494.035393
 11
-633.436822
 21
556.938147
  0
LINE
  8
3
 62
     3
  6
CENTER
 10
-461.271437
 20
506.288243
 11
-440.590261
 21
485.607067
  0
LINE
  8
3
 62
     4
  6
CONTINUOUS
 10
-610.947801
 20
483.749069
 11
-548.045047
 21
471.546372
  0
ARC
  8
3
 62
     4
  6
CENTER
 10
-529.983194
 20
575.000000
 40
111.000000
 50
306.265016
 51
322.275712
  0
LINE
  8
3
 62
     3
  6
CENTER
 10
-597.620725
 20
507.362469
 11
-620.132681
 21
484.850513
  0
ARC
  8
3
 62
     4
  6
CENTER
 10
-529.983194
 20
575.000000
 40
111.000000
 50
216.069475
 51
234.182385
  0
ARC
  8
3
 62
     4
  6
CENTER
 10
-529.983194
 20
575.000000
 40
111.000000
 50
124.449115
 51
144.970079
  0
LINE
  8
3
 62
     4
  6
CONTINUOUS
 10
-449.018587
 20
483.749069
 11
-511.921341
 21
471.546372
  0
LINE
  8
3
 62
     4
  6
CONTINUOUS
 10
-549.979672
 20
678.078324
 11
-610.947801
 21
666.250931
  0
LINE
  8
3
 62
     3
  6
CENTER
 10
-597.974422
 20
642.991228
 11
-619.925122
 21
664.941928
  0
LINE
  8
3
 62
     4
  6
CONTINUOUS
 10
-438.732263
 20
494.035393
 11
-426.904870
 21
555.003522
  0
ARC
  8
3
 62
     4
  6
CONTINUOUS
 10
-451.494341
 20
496.511147
 40
13.000000
 50
280.978618
 51
349.021382
  0
ARC
  8
3
 62
     4
  6
CONTINUOUS
 10
-608.472047
 20
496.511147
 40
13.000000
 50
190.978618
 51
259.021382
  0
ARC
  8
3
 62
     4
  6
CONTINUOUS
 10
-608.472047
 20
653.488853
 40
13.000000
 50
100.978618
 51
169.021382
  0
LINE
  8
3
 62
     3
  6
CENTER
 10
-461.997329
 20
642.985865
 11
-440.256635
 21
664.726559
  0
LINE
  8
3
 62
     4
  6
CONTINUOUS
 10
-438.732263
 20
655.964607
 11
-426.529566
 21
593.061853
  0
LINE
  8
3
 62
     4
  6
CONTINUOUS
 10
-449.018587
 20
666.250931
 11
-509.986716
 21
678.078324
  0
ARC
  8
3
 62
     3
  6
CONTINUOUS
 10
-529.983194
 20
575.000000
 40
105.000000
 50
79.021382
 51
100.978618
  0
CIRCLE
  8
3
 62
     3
  6
CONTINUOUS
 10
-529.983194
 20
575.000000
 40
81.000000
  0
ARC
  8
3
 62
     4
  6
CONTINUOUS
 10
-451.494341
 20
653.488853
 40
13.000000
 50
10.978618
 51
79.021382
  0
LINE
  8
3
 62
     3
  6
CENTER
 10
-695.459362
 20
575.000000
 11
-363.499357
 21
575.000000
  0
LINE
  8
3
 62
     3
  6
CENTER
 10
-529.983194
 20
683.997250
 11
-529.983194
 21
458.580925
  0
CIRCLE
  8
3
 62
     4
  6
CONTINUOUS
 10
-608.472047
 20
653.488853
 40
7.000000
  0
CIRCLE
  8
3
 62
     4
  6
CONTINUOUS
 10
-451.494341
 20
653.488853
 40
7.000000
  0
CIRCLE
  8
3
 62
     4
  6
CONTINUOUS
 10
-451.494341
 20
496.511147
 40
7.000000
  0
CIRCLE
  8
3
 62
     4
  6
CONTINUOUS
 10
-608.472047
 20
496.511147
 40
7.000000
  0
ARC
  8
3
 62
     4
  6
CENTER
 10
-529.983194
 20
575.000000
 40
111.000000
 50
37.018997
 51
55.489571
  0
ARC
  8
3
 62
     4
  6
CONTINUOUS
 10
-529.983194
 20
575.000000
 40
100.000000
 50
53.109614
 51
126.890386
  0
ARC
  8
3
 62
     4
  6
CONTINUOUS
 10
-529.983194
 20
575.000000
 40
100.000000
 50
323.109614
 51
396.890386
  0
ARC
  8
3
 62
     4
  6
CONTINUOUS
 10
-529.983194
 20
575.000000
 40
100.000000
 50
233.109614
 51
306.890386
  0
ARC
  8
0
 62
     4
  6
CONTINUOUS
 10
-529.983194
 20
575.000000
 40
100.000000
 50
216.038338
 51
233.961662
  0
TEXT
  8
0
 62
     6
 10
-1480.183521
 20
1098.910129
 40
35.000000
 50
0.000000E+00
 41
0.86 
  1
Ｃ
 72
     5
 11
-1445.183521
 21
1098.910129
  0
TEXT
  8
0
 62
     6
 10
-1359.509580
 20
1099.910129
 40
35.000000
 50
0.000000E+00
 41
0.86 
  1
Ｂ
 72
     5
 11
-1324.509580
 21
1099.910129
  0
TEXT
  8
0
 62
     6
 10
-1388.009580
 20
1164.959535
 40
32.000000
 50
0.000000E+00
 41
0.97 
  1
下部
 72
     5
 11
-1316.009580
 21
1164.959535
  0
TEXT
  8
0
 62
     6
 10
-1508.009580
 20
1164.959535
 40
32.000000
 50
0.000000E+00
 41
0.97 
  1
上部
 72
     5
 11
-1436.009580
 21
1164.959535
  0
TEXT
  8
0
 62
     3
 10
-352.645101
 20
300.288223
 40
32.000000
 50
0.000000E+00
 41
1.02 
  1
受口深さ
 72
     5
 11
-200.645101
 21
300.288223
  0
TEXT
  8
0
 62
     6
 10
-1208.933805
 20
1189.451072
 40
32.000000
 50
0.000000E+00
 41
0.86 
  1
ｂ
 72
     5
 11
-1176.933805
 21
1189.451072
  0
CIRCLE
  8
0
 62
     6
  6
HIDDEN
 10
-1193.802953
 20
1113.777279
 40
20.000000
  0
TEXT
  8
0
 62
     6
 10
-1201.802953
 20
1097.777279
 40
32.000000
 50
0.000000E+00
 41
0.50 
  1
2
 72
     5
 11
-1185.802953
 21
1097.777279
  0
CIRCLE
  8
0
 62
     6
  6
HIDDEN
 10
-1193.802953
 20
1161.810698
 40
20.000000
  0
TEXT
  8
0
 62
     6
 10
-1201.802953
 20
1145.810698
 40
32.000000
 50
0.000000E+00
 41
0.50 
  1
1
 72
     5
 11
-1185.802953
 21
1145.810698
  0
TEXT
  8
0
 62
     6
 10
-501.793661
 20
916.134541
 40
32.000000
 50
0.000000E+00
 41
0.50 
  1
3
 72
     5
 11
-485.793661
 21
916.134541
  0
TEXT
  8
0
 62
     6
 10
-501.793661
 20
976.134541
 40
32.000000
 50
0.000000E+00
 41
0.50 
  1
2
 72
     5
 11
-485.793661
 21
976.134541
  0
TEXT
  8
0
 62
     6
 10
-501.793661
 20
1036.134541
 40
32.000000
 50
0.000000E+00
 41
0.50 
  1
1
 72
     5
 11
-485.793661
 21
1036.134541
  0
TEXT
  8
0
 62
     6
 10
-470.705692
 20
919.530401
 40
32.000000
 50
0.000000E+00
 41
0.74 
  1
：％％ｃ７５枝管
 72
     5
 11
-258.705692
 21
919.530401
  0
TEXT
  8
0
 62
     6
 10
-470.705692
 20
979.530401
 40
32.000000
 50
0.000000E+00
 41
0.74 
  1
：％％ｃ６５枝管
 72
     5
 11
-258.705692
 21
979.530401
  0
TEXT
  8
0
 62
     6
 10
-470.705692
 20
1039.530401
 40
32.000000
 50
0.000000E+00
 41
0.74 
  1
：％％ｃ５０枝管
 72
     5
 11
-258.705692
 21
1039.530401
  0
TEXT
  8
0
 62
     6
 10
-568.581501
 20
1092.505821
 40
32.000000
 50
0.000000E+00
 41
0.97 
  1
枝管のタイプ（呼び径）
 72
     5
 11
-172.581501
 21
1092.505821
  0
LINE
  8
0
 62
     1
  6
CONTINUOUS
 10
-624.983194
 20
509.361184
 11
-624.983194
 21
413.375253
  0
LINE
  8
0
 62
     3
  6
CONTINUOUS
 10
-224.521725
 20
215.152449
 11
-496.861843
 21
215.152449
  0
CIRCLE
  8
0
 62
     3
  6
CONTINUOUS
 10
-1430.739862
 20
153.027117
 40
62.000000
  0
INSERT
  8
0
  2
G6
 10
0
 20
0
  0
INSERT
  8
0
  2
G7
 10
0
 20
0
  0
INSERT
  8
0
  2
G8
 10
0
 20
0
  0
INSERT
  8
0
  2
G9
 10
0
 20
0
  0
INSERT
  8
0
  2
G10
 10
0
 20
0
  0
INSERT
  8
0
  2
G11
 10
0
 20
0
  0
TEXT
  8
0
 62
     6
 10
-1022.912371
 20
1118.485825
 40
35.000000
 50
0.000000E+00
 41
0.60 
  1
240,260,280
 72
     5
 11
-790.412371
 21
1118.485825
  0
TEXT
  8
0
 62
     6
 10
-1021.051869
 20
1076.370812
 40
35.000000
 50
0.000000E+00
 41
0.60 
  1
300,340,360
 72
     5
 11
-788.551869
 21
1076.370812
  0
INSERT
  8
0
  2
G12
 10
0
 20
0
  0
TEXT
  8
0
 62
     3
 10
-484.521725
 20
220.485782
 40
32.000000
 50
360.000000
 41
0.87 
  1
Ｃ矢視　（下部）
 72
     5
 11
-228.521725
 21
220.485782
  0
INSERT
  8
0
  2
G13
 10
0
 20
0
  0
INSERT
  8
0
  2
G14
 10
0
 20
0
  0
INSERT
  8
0
  2
G15
 10
0
 20
0
  0
INSERT
  8
0
  2
G16
 10
0
 20
0
  0
TEXT
  8
0
 62
     3
 10
-673.099991
 20
588.667592
 40
32.000000
 50
0.000000E+00
 41
0.86 
  1
ｂ
 72
     5
 11
-641.099991
 21
588.667592
  0
INSERT
  8
0
  2
G17
 10
0
 20
0
  0
INSERT
  8
0
  2
G18
 10
0
 20
0
  0
INSERT
  8
0
  2
G19
 10
0
 20
0
  0
LINE
  8
0
 62
     3
  6
CONTINUOUS
 10
-290.117222
 20
439.006739
 11
-290.117222
 21
343.504108
  0
LINE
  8
0
 62
     1
  6
CONTINUOUS
 10
-1063.662948
 20
153.027117
 11
-1183.662948
 21
153.027117
  0
LINE
  8
0
 62
     1
  6
CONTINUOUS
 10
-1193.662948
 20
153.027117
 11
-1176.786954
 21
153.027117
  0
INSERT
  8
0
  2
G20
 10
0
 20
0
  0
INSERT
  8
0
  2
G21
 10
0
 20
0
  0
TEXT
  8
0
 62
     3
 10
-859.321287
 20
300.288223
 40
32.000000
 50
0.000000E+00
 41
1.02 
  1
受口深さ
 72
     5
 11
-707.321287
 21
300.288223
  0
CIRCLE
  8
0
 62
     6
  6
HIDDEN
 10
-1283.802953
 20
1113.777279
 40
20.000000
  0
TEXT
  8
0
 62
     6
 10
-1291.802953
 20
1097.777279
 40
32.000000
 50
0.000000E+00
 41
0.50 
  1
2
 72
     5
 11
-1275.802953
 21
1097.777279
  0
CIRCLE
  8
0
 62
     6
  6
HIDDEN
 10
-1283.802953
 20
1161.810698
 40
20.000000
  0
TEXT
  8
0
 62
     6
 10
-1291.802953
 20
1145.810698
 40
32.000000
 50
0.000000E+00
 41
0.50 
  1
1
 72
     5
 11
-1275.802953
 21
1145.810698
  0
TEXT
  8
0
 62
     3
 10
-418.866397
 20
588.667592
 40
32.000000
 50
360.000000
 41
0.86 
  1
ａ
 72
     5
 11
-386.866397
 21
588.667592
  0
INSERT
  8
0
  2
G22
 10
0
 20
0
  0
LINE
  8
3
 62
     3
  6
CONTINUOUS
 10
-1490.739862
 20
648.889268
 11
-1490.739862
 21
708.889268
  0
LINE
  8
3
 62
     3
  6
CONTINUOUS
 10
-1370.739862
 20
648.889268
 11
-1370.739862
 21
708.889268
  0
LINE
  8
0
 62
     3
  6
CONTINUOUS
 10
-1224.943196
 20
653.753184
 11
-1224.943196
 21
560.460077
  0
SOLID
  8
0
 62
     3
 10
-1217.178625
 20
624.775409
 11
-1232.707768
 21
624.775409
 12
-1224.943196
 22
653.753184
 13
-1224.943196
 23
653.753184
  0
ARC
  8
1
 62
     3
  6
CONTINUOUS
 10
-1520.239862
 20
88.027117
 40
3.000000
 50
0.000000E+00
 51
90.000000
  0
ARC
  8
1
 62
     3
  6
CONTINUOUS
 10
-1520.239862
 20
218.027117
 40
3.000000
 50
270.000000
 51
360.000000
  0
ARC
  8
1
 62
     3
  6
CONTINUOUS
 10
-1523.739862
 20
213.027117
 40
2.000000
 50
90.000000
 51
180.000000
  0
LINE
  8
1
 62
     3
  6
CONTINUOUS
 10
-1523.739862
 20
91.027117
 11
-1520.239862
 21
91.027117
  0
LINE
  8
1
 62
     3
  6
CONTINUOUS
 10
-1523.739862
 20
215.027117
 11
-1520.239862
 21
215.027117
  0
ARC
  8
1
 62
     3
  6
CONTINUOUS
 10
-1523.739862
 20
93.027117
 40
2.000000
 50
180.000000
 51
270.000000
  0
LINE
  8
3
 62
     3
  6
CONTINUOUS
 10
-1514.095668
 20
93.387137
 11
-1510.820276
 21
94.833664
  0
LINE
  8
3
 62
     3
  6
CONTINUOUS
 10
-1510.820276
 20
94.833664
 11
-1507.655356
 21
97.361380
  0
LINE
  8
3
 62
     3
  6
CONTINUOUS
 10
-1507.655356
 20
97.361380
 11
-1504.659709
 21
100.923324
  0
LINE
  8
3
 62
     3
  6
CONTINUOUS
 10
-1504.659709
 20
100.923324
 11
-1501.888992
 21
105.453317
  0
LINE
  8
3
 62
     3
  6
CONTINUOUS
 10
-1501.888992
 20
105.453317
 11
-1499.394683
 21
110.867195
  0
LINE
  8
3
 62
     3
  6
CONTINUOUS
 10
-1499.394683
 20
110.867195
 11
-1497.223123
 21
117.064373
  0
LINE
  8
3
 62
     3
  6
CONTINUOUS
 10
-1497.223123
 20
117.064373
 11
-1495.414660
 21
123.929711
  0
LINE
  8
3
 62
     3
  6
CONTINUOUS
 10
-1495.414660
 20
123.929711
 11
-1494.002892
 21
131.335657
  0
LINE
  8
3
 62
     3
  6
CONTINUOUS
 10
-1494.002892
 20
131.335657
 11
-1493.014050
 21
139.144613
  0
LINE
  8
3
 62
     3
  6
CONTINUOUS
 10
-1493.014050
 20
139.144613
 11
-1492.466506
 21
147.211496
  0
LINE
  8
3
 62
     3
  6
CONTINUOUS
 10
-1493.014050
 20
139.144613
 11
-1492.466506
 21
147.211496
  0
LINE
  8
3
 62
     3
  6
CONTINUOUS
 10
-1514.553558
 20
212.780203
 11
-1511.222826
 21
211.460076
  0
LINE
  8
3
 62
     3
  6
CONTINUOUS
 10
-1511.222826
 20
211.460076
 11
-1507.997947
 21
209.024148
  0
LINE
  8
3
 62
     3
  6
CONTINUOUS
 10
-1507.997947
 20
209.024148
 11
-1504.940503
 21
205.518932
  0
LINE
  8
3
 62
     3
  6
CONTINUOUS
 10
-1504.940503
 20
205.518932
 11
-1502.108876
 21
201.011363
  0
LINE
  8
3
 62
     3
  6
CONTINUOUS
 10
-1502.108876
 20
201.011363
 11
-1499.557137
 21
195.587514
  0
LINE
  8
3
 62
     3
  6
CONTINUOUS
 10
-1499.557137
 20
195.587514
 11
-1497.334012
 21
189.350956
  0
LINE
  8
3
 62
     3
  6
CONTINUOUS
 10
-1497.334012
 20
189.350956
 11
-1495.481955
 21
182.420778
  0
LINE
  8
3
 62
     3
  6
CONTINUOUS
 10
-1495.481955
 20
182.420778
 11
-1494.036329
 21
174.929317
  0
LINE
  8
3
 62
     3
  6
CONTINUOUS
 10
-1494.036329
 20
174.929317
 11
-1493.024740
 21
167.019623
  0
LINE
  8
3
 62
     3
  6
CONTINUOUS
 10
-1493.024740
 20
167.019623
 11
-1492.466506
 21
158.842737
  0
LINE
  8
3
 62
     3
  6
CONTINUOUS
 10
-1493.024740
 20
167.019623
 11
-1492.466506
 21
158.842737
  0
LINE
  8
0
 62
     3
  6
CONTINUOUS
 10
-1525.739862
 20
213.027117
 11
-1525.739862
 21
93.027117
  0
LINE
  8
3
 62
     3
  6
CONTINUOUS
 10
-1493.239862
 20
643.889268
 11
-1368.239862
 21
643.889268
  0
LINE
  8
3
 62
     3
  6
CONTINUOUS
 10
-1493.239862
 20
648.889268
 11
-1490.739862
 21
648.889268
  0
LINE
  8
3
 62
     3
  6
CONTINUOUS
 10
-1493.239862
 20
648.889268
 11
-1493.239862
 21
643.889268
  0
LINE
  8
3
 62
     3
  6
CONTINUOUS
 10
-1368.239862
 20
648.889268
 11
-1368.239862
 21
643.889268
  0
LINE
  8
3
 62
     3
  6
CONTINUOUS
 10
-1368.239862
 20
648.889268
 11
-1490.739862
 21
648.889268
  0
INSERT
  8
0
  2
G23
 10
0
 20
0
  0
INSERT
  8
0
  2
G24
 10
0
 20
0
  0
INSERT
  8
0
  2
G25
 10
0
 20
0
  0
INSERT
  8
0
  2
G26
 10
0
 20
0
  0
LINE
  8
0
 62
     1
  6
CONTINUOUS
 10
-1260.513525
 20
803.889268
 11
-1234.715340
 21
803.889268
  0
ARC
  8
0
 62
     3
  6
CONTINUOUS
 10
-1490.739862
 20
710.889268
 40
2.000000
 50
180.000000
 51
270.000000
  0
LINE
  8
0
 62
     3
  6
CONTINUOUS
 10
-1492.739862
 20
710.889268
 11
-1492.739862
 21
738.889268
  0
ARC
  8
0
 62
     3
  6
CONTINUOUS
 10
-1370.739862
 20
710.889268
 40
2.000000
 50
270.000000
 51
360.000000
  0
LINE
  8
0
 62
     3
  6
CONTINUOUS
 10
-1368.739862
 20
710.889268
 11
-1368.739862
 21
738.889268
  0
LINE
  8
0
 62
     3
  6
CONTINUOUS
 10
-1370.739862
 20
708.889268
 11
-1490.739862
 21
708.889268
  0
ARC
  8
0
 62
     3
  6
CONTINUOUS
 10
-1523.739862
 20
743.889268
 40
2.000000
 50
180.000000
 51
270.000000
  0
LINE
  8
0
 62
     3
  6
CONTINUOUS
 10
-1523.739862
 20
741.889268
 11
-1495.739862
 21
741.889268
  0
ARC
  8
0
 62
     3
  6
CONTINUOUS
 10
-1523.739862
 20
863.889268
 40
2.000000
 50
90.000000
 51
180.000000
  0
LINE
  8
0
 62
     3
  6
CONTINUOUS
 10
-1523.739862
 20
865.889268
 11
-1491.057769
 21
865.889268
  0
LINE
  8
0
 62
     3
  6
CONTINUOUS
 10
-1525.739862
 20
863.889268
 11
-1525.739862
 21
743.889268
  0
ARC
  8
0
 62
     3
  6
CONTINUOUS
 10
-1365.739862
 20
738.889268
 40
3.000000
 50
90.000000
 51
180.000000
  0
ARC
  8
0
 62
     3
  6
CONTINUOUS
 10
-1495.739862
 20
738.889268
 40
3.000000
 50
0.000000E+00
 51
90.000000
  0
CIRCLE
  8
0
 62
     3
  6
CONTINUOUS
 10
-1430.739862
 20
803.889268
 40
67.000000
  0
CIRCLE
  8
0
 62
     3
  6
CONTINUOUS
 10
-1430.739862
 20
803.889268
 40
52.000000
  0
ARC
  8
0
 62
     3
  6
CONTINUOUS
 10
-1337.739862
 20
863.889268
 40
2.000000
 50
0.000000E+00
 51
90.000000
  0
LINE
  8
0
 62
     3
  6
CONTINUOUS
 10
-1337.739862
 20
865.889268
 11
-1370.421954
 21
865.889268
  0
ARC
  8
0
 62
     3
  6
CONTINUOUS
 10
-1337.739862
 20
743.889268
 40
2.000000
 50
-90.000000
 51
0.000000E+00
  0
LINE
  8
0
 62
     3
  6
CONTINUOUS
 10
-1337.739862
 20
741.889268
 11
-1365.739862
 21
741.889268
  0
LINE
  8
0
 62
     3
  6
CONTINUOUS
 10
-1335.739862
 20
743.889268
 11
-1335.739862
 21
863.889268
  0
LINE
  8
3
 62
     3
  6
CONTINUOUS
 10
-1275.739862
 20
863.889268
 11
-1335.739862
 21
863.889268
  0
LINE
  8
3
 62
     3
  6
CONTINUOUS
 10
-1270.739862
 20
741.389268
 11
-1270.739862
 21
866.389268
  0
LINE
  8
3
 62
     3
  6
CONTINUOUS
 10
-1275.739862
 20
741.389268
 11
-1275.739862
 21
743.889268
  0
LINE
  8
3
 62
     3
  6
CONTINUOUS
 10
-1275.739862
 20
741.389268
 11
-1270.739862
 21
741.389268
  0
LINE
  8
3
 62
     3
  6
CONTINUOUS
 10
-1275.739862
 20
866.389268
 11
-1270.739862
 21
866.389268
  0
LINE
  8
3
 62
     3
  6
CONTINUOUS
 10
-1275.739862
 20
866.389268
 11
-1275.739862
 21
743.889268
  0
LINE
  8
3
 62
     3
  6
CONTINUOUS
 10
-1275.739862
 20
743.889268
 11
-1335.739862
 21
743.889268
  0
CIRCLE
  8
0
 62
     3
  6
CONTINUOUS
 10
-1430.739862
 20
803.889268
 40
86.500000
  0
CIRCLE
  8
0
 62
     3
  6
CONTINUOUS
 10
-1430.739862
 20
803.889268
 40
75.000000
  0
LINE
  8
3
 62
     3
  6
CENTER
 10
-1265.263693
 20
803.889268
 11
-1536.933185
 21
803.889268
  0
LINE
  8
3
 62
     3
  6
CENTER
 10
-1430.739862
 20
905.987720
 11
-1430.739862
 21
630.839191
  0
INSERT
  8
0
  2
G27
 10
0
 20
0
  0
INSERT
  8
0
  2
G28
 10
0
 20
0
  0
LINE
  8
0
 62
     3
  6
CONTINUOUS
 10
-1045.799622
 20
406.176630
 11
-1045.799622
 21
528.110911
  0
SOLID
  8
0
 62
     3
 10
-1053.564193
 20
435.154405
 11
-1038.035050
 21
435.154405
 12
-1045.799622
 22
406.176630
 13
-1045.799622
 23
406.176630
  0
LINE
  8
0
 62
     3
  6
CONTINUOUS
 10
-681.850128
 20
439.006739
 11
-769.849166
 21
439.006739
  0
SOLID
  8
0
 62
     3
 10
-710.827903
 20
431.242168
 11
-710.827903
 21
446.771311
 12
-681.850128
 22
439.006739
 13
-681.850128
 23
439.006739
  0
LINE
  8
0
 62
     3
  6
CONTINUOUS
 10
-378.116260
 20
439.006739
 11
-290.117222
 21
439.006739
  0
SOLID
  8
0
 62
     3
 10
-349.138485
 20
446.771311
 11
-349.138485
 21
431.242168
 12
-378.116260
 22
439.006739
 13
-378.116260
 23
439.006739
  0
LINE
  8
0
 62
     3
  6
CONTINUOUS
 10
-689.983194
 20
512.500000
 11
-757.678113
 21
480.204942
  0
SOLID
  8
0
 62
     3
 10
-712.793910
 20
493.014846
 11
-719.480431
 21
507.030720
 12
-689.983194
 22
512.500000
 13
-689.983194
 23
512.500000
  0
INSERT
  8
0
  2
G29
 10
0
 20
0
  0
INSERT
  8
0
  2
G30
 10
0
 20
0
  0
LINE
  8
0
 62
     3
  6
CONTINUOUS
 10
-1045.799622
 20
528.110911
 11
-1077.631579
 21
528.110911
  0
INSERT
  8
0
  2
G31
 10
0
 20
0
  0
INSERT
  8
0
  2
G32
 10
0
 20
0
  0
INSERT
  8
0
  2
G33
 10
0
 20
0
  0
INSERT
  8
0
  2
G34
 10
0
 20
0
  0
INSERT
  8
0
  2
G35
 10
0
 20
0
  0
INSERT
  8
0
  2
G36
 10
0
 20
0
  0
INSERT
  8
0
  2
G37
 10
0
 20
0
  0
TEXT
  8
0
 62
     3
 10
-888.446385
 20
-905.435816
 40
32.000000
 50
0.000000E+00
 41
0.94 
  1
対応可能Ｐ寸法　２４０～３６０
 72
     5
 11
-362.732077
 21
-905.435816
  0
LINE
  8
0
 62
     2
  6
CONTINUOUS
 10
-955.287581
 20
-844.718354
 11
-175.885661
 21
-844.718354
  0
TEXT
  8
0
 62
     2
 10
-466.779569
 20
-817.414104
 40
30.000000
 50
0.000000E+00
 41
0.61 
  1
925
 72
     5
 11
-411.779569
 21
-817.414104
  0
TEXT
  8
0
 62
     2
 10
-569.578809
 20
-817.414104
 40
30.000000
 50
0.000000E+00
 41
0.61 
  1
905
 72
     5
 11
-514.578809
 21
-817.414104
  0
TEXT
  8
0
 62
     2
 10
-669.031289
 20
-815.686968
 40
30.000000
 50
0.000000E+00
 41
0.61 
  1
885
 72
     5
 11
-614.031289
 21
-815.686968
  0
TEXT
  8
0
 62
     2
 10
-363.270329
 20
-815.686968
 40
30.000000
 50
0.000000E+00
 41
0.61 
  1
965
 72
     5
 11
-308.270329
 21
-815.686968
  0
TEXT
  8
0
 62
     2
 10
-770.950969
 20
-724.246968
 40
30.000000
 50
0.000000E+00
 41
0.61 
  1
790
 72
     5
 11
-715.950969
 21
-724.246968
  0
TEXT
  8
0
 62
     2
 10
-258.817849
 20
-817.414104
 40
30.000000
 50
0.000000E+00
 41
0.61 
  1
985
 72
     5
 11
-203.817849
 21
-817.414104
  0
TEXT
  8
0
 62
     2
 10
-770.950969
 20
-815.686968
 40
30.000000
 50
0.000000E+00
 41
0.61 
  1
865
 72
     5
 11
-715.950969
 21
-815.686968
  0
TEXT
  8
0
 62
     2
 10
-363.509314
 20
-647.803154
 40
30.000000
 50
0.000000E+00
 41
0.61 
  1
340
 72
     5
 11
-308.509314
 21
-647.803154
  0
TEXT
  8
0
 62
     2
 10
-465.429954
 20
-647.803154
 40
30.000000
 50
0.000000E+00
 41
0.61 
  1
300
 72
     5
 11
-410.429954
 21
-647.803154
  0
TEXT
  8
0
 62
     2
 10
-567.350594
 20
-647.803154
 40
30.000000
 50
0.000000E+00
 41
0.61 
  1
280
 72
     5
 11
-512.350594
 21
-647.803154
  0
TEXT
  8
0
 62
     2
 10
-771.189954
 20
-647.803154
 40
30.000000
 50
0.000000E+00
 41
0.61 
  1
240
 72
     5
 11
-716.189954
 21
-647.803154
  0
LINE
  8
0
 62
     2
  6
CONTINUOUS
 10
-389.725981
 20
-600.398354
 11
-389.725981
 21
-844.718354
  0
TEXT
  8
0
 62
     2
 10
-944.759477
 20
-811.372275
 40
30.000000
 50
0.000000E+00
 41
0.72 
  1
Ｌｔ（全長）
 72
     5
 11
-794.759477
 21
-811.372275
  0
LINE
  8
0
 62
     2
  6
CONTINUOUS
 10
-955.287581
 20
-753.278354
 11
-175.885661
 21
-753.278354
  0
TEXT
  8
0
 62
     2
 10
-258.817849
 20
-725.974104
 40
30.000000
 50
0.000000E+00
 41
0.61 
  1
910
 72
     5
 11
-203.817849
 21
-725.974104
  0
LINE
  8
0
 62
     2
  6
CONTINUOUS
 10
-955.287581
 20
-600.398354
 11
-175.885661
 21
-600.398354
  0
TEXT
  8
0
 62
     2
 10
-363.270329
 20
-724.246968
 40
30.000000
 50
0.000000E+00
 41
0.61 
  1
890
 72
     5
 11
-308.270329
 21
-724.246968
  0
LINE
  8
0
 62
     2
  6
CONTINUOUS
 10
-797.406621
 20
-600.398354
 11
-797.406621
 21
-844.718354
  0
LINE
  8
0
 62
     2
  6
CONTINUOUS
 10
-695.486941
 20
-600.398354
 11
-695.486941
 21
-844.718354
  0
LINE
  8
0
 62
     2
  6
CONTINUOUS
 10
-593.567261
 20
-600.398354
 11
-593.567261
 21
-844.718354
  0
LINE
  8
0
 62
     2
  6
CONTINUOUS
 10
-491.646621
 20
-600.398354
 11
-491.646621
 21
-844.718354
  0
LINE
  8
0
 62
     2
  6
CONTINUOUS
 10
-175.885661
 20
-600.398354
 11
-175.885661
 21
-844.718354
  0
LINE
  8
0
 62
     2
  6
CONTINUOUS
 10
-287.806301
 20
-600.398354
 11
-287.806301
 21
-844.718354
  0
TEXT
  8
0
 62
     2
 10
-256.589634
 20
-647.803154
 40
30.000000
 50
0.000000E+00
 41
0.61 
  1
360
 72
     5
 11
-201.589634
 21
-647.803154
  0
LINE
  8
0
 62
     2
  6
CONTINUOUS
 10
-955.287581
 20
-661.838354
 11
-175.885661
 21
-661.838354
  0
TEXT
  8
0
 62
     2
 10
-944.759477
 20
-719.932275
 40
30.000000
 50
0.000000E+00
 41
0.72 
  1
Ｌ（有効長）
 72
     5
 11
-794.759477
 21
-719.932275
  0
LINE
  8
0
 62
     2
  6
CONTINUOUS
 10
-955.287581
 20
-600.398354
 11
-955.287581
 21
-844.718354
  0
LINE
  8
0
 62
     2
  6
CONTINUOUS
 10
-177.458899
 20
-613.635403
 11
-177.458899
 21
-613.635595
  0
TEXT
  8
0
 62
     2
 10
-669.031289
 20
-724.246968
 40
30.000000
 50
0.000000E+00
 41
0.61 
  1
810
 72
     5
 11
-614.031289
 21
-724.246968
  0
TEXT
  8
0
 62
     2
 10
-569.578809
 20
-725.974104
 40
30.000000
 50
0.000000E+00
 41
0.61 
  1
830
 72
     5
 11
-514.578809
 21
-725.974104
  0
TEXT
  8
0
 62
     2
 10
-669.270274
 20
-647.803154
 40
30.000000
 50
0.000000E+00
 41
0.61 
  1
260
 72
     5
 11
-614.270274
 21
-647.803154
  0
TEXT
  8
0
 62
     2
 10
-885.718483
 20
-647.782743
 40
30.000000
 50
0.000000E+00
 41
0.86 
  1
Ｐ
 72
     5
 11
-855.718483
 21
-647.782743
  0
TEXT
  8
0
 62
     2
 10
-466.779569
 20
-725.974104
 40
30.000000
 50
0.000000E+00
 41
0.61 
  1
850
 72
     5
 11
-411.779569
 21
-725.974104
  0
TEXT
  8
0
 62
     2
 10
-251.589634
 20
-546.363154
 40
30.000000
 50
0.000000E+00
 41
0.58 
  1
44
 72
     5
 11
-216.589634
 21
-546.363154
  0
TEXT
  8
0
 62
     2
 10
-363.510274
 20
-546.363154
 40
30.000000
 50
0.000000E+00
 41
0.58 
  1
52
 72
     5
 11
-328.510274
 21
-546.363154
  0
TEXT
  8
0
 62
     2
 10
-462.501526
 20
-363.746137
 40
25.600000
 50
0.000000E+00
 41
0.55 
  1
100
 72
     5
 11
-420.444381
 21
-363.746137
  0
TEXT
  8
0
 62
     2
 10
-479.031820
 20
-325.061429
 40
18.400000
 50
0.000000E+00
 41
0.89 
  1
立管受口
 72
     5
 11
-403.031821
 21
-325.061429
  0
TEXT
  8
0
 62
     2
 10
-251.589634
 20
-423.483154
 40
30.000000
 50
0.000000E+00
 41
0.58 
  1
65
 72
     5
 11
-216.589634
 21
-423.483154
  0
TEXT
  8
0
 62
     2
 10
-363.510274
 20
-423.483154
 40
30.000000
 50
0.000000E+00
 41
0.58 
  1
65
 72
     5
 11
-328.510274
 21
-423.483154
  0
TEXT
  8
0
 62
     2
 10
-455.429954
 20
-423.483154
 40
30.000000
 50
0.000000E+00
 41
0.58 
  1
75
 72
     5
 11
-420.429954
 21
-423.483154
  0
LINE
  8
0
 62
     2
  6
CONTINUOUS
 10
-399.726941
 20
-498.958354
 11
-481.646621
 21
-560.398354
  0
LINE
  8
0
 62
     2
  6
CONTINUOUS
 10
-175.885661
 20
-294.153298
 11
-175.885661
 21
-560.398354
  0
TEXT
  8
0
 62
     2
 10
-592.749477
 20
-542.052275
 40
30.000000
 50
0.000000E+00
 41
0.86 
  1
Ｂ寸法
 72
     5
 11
-502.749477
 21
-542.052275
  0
LINE
  8
0
 62
     2
  6
CONTINUOUS
 10
-604.527581
 20
-498.958354
 11
-175.885661
 21
-498.958354
  0
LINE
  8
0
 62
     2
  6
CONTINUOUS
 10
-399.726941
 20
-335.118322
 11
-175.885661
 21
-335.118322
  0
LINE
  8
0
 62
     2
  6
CONTINUOUS
 10
-604.527581
 20
-376.078354
 11
-175.885661
 21
-376.078354
  0
TEXT
  8
0
 62
     2
 10
-388.512732
 20
-330.204987
 40
30.000000
 50
0.000000E+00
 41
0.72 
  1
下部横枝管サイズ
 72
     5
 11
-188.512732
 21
-330.204987
  0
LINE
  8
0
 62
     2
  6
CONTINUOUS
 10
-481.646621
 20
-295.392178
 11
-481.646621
 21
-560.398354
  0
LINE
  8
0
 62
     2
  6
CONTINUOUS
 10
-399.726941
 20
-295.392178
 11
-399.726941
 21
-560.398354
  0
LINE
  8
0
 62
     2
  6
CONTINUOUS
 10
-399.726941
 20
-437.518354
 11
-481.646621
 21
-498.958354
  0
LINE
  8
0
 62
     2
  6
CONTINUOUS
 10
-287.806301
 20
-335.118514
 11
-287.806301
 21
-560.398354
  0
LINE
  8
0
 62
     2
  6
CONTINUOUS
 10
-604.527581
 20
-560.398354
 11
-175.885661
 21
-560.398354
  0
TEXT
  8
0
 62
     2
 10
-383.464355
 20
-370.283621
 40
30.000000
 50
0.000000E+00
 41
0.63 
  1
65(2)
 72
     5
 11
-288.464355
 21
-370.283621
  0
TEXT
  8
0
 62
     2
 10
-271.543715
 20
-370.283621
 40
30.000000
 50
0.000000E+00
 41
0.63 
  1
50(1)
 72
     5
 11
-176.543715
 21
-370.283621
  0
LINE
  8
0
 62
     2
  6
CONTINUOUS
 10
-604.527581
 20
-335.118322
 11
-604.527581
 21
-560.398354
  0
LINE
  8
0
 62
     2
  6
CONTINUOUS
 10
-604.527581
 20
-437.518354
 11
-175.885661
 21
-437.518354
  0
TEXT
  8
0
 62
     2
 10
-592.749477
 20
-480.612275
 40
30.000000
 50
0.000000E+00
 41
0.86 
  1
Ａ寸法
 72
     5
 11
-502.749477
 21
-480.612275
  0
LINE
  8
0
 62
     2
  6
CONTINUOUS
 10
-604.527581
 20
-335.118322
 11
-604.527581
 21
-294.153298
  0
LINE
  8
0
 62
     2
  6
CONTINUOUS
 10
-604.527581
 20
-294.153298
 11
-175.885661
 21
-294.153298
  0
LINE
  8
0
 62
     2
  6
CONTINUOUS
 10
-205.886621
 20
-335.118322
 11
-205.886621
 21
-335.118514
  0
TEXT
  8
0
 62
     2
 10
-375.738489
 20
-484.923154
 40
30.000000
 50
0.000000E+00
 41
0.61 
  1
110
 72
     5
 11
-320.738489
 21
-484.923154
  0
TEXT
  8
0
 62
     2
 10
-599.958483
 20
-423.462743
 40
30.000000
 50
0.000000E+00
 41
0.86 
  1
受口深さ
 72
     5
 11
-479.958483
 21
-423.462743
  0
LINE
  8
0
 62
     2
  6
CONTINUOUS
 10
-604.527581
 20
-294.153298
 11
-481.646621
 21
-376.078354
  0
TEXT
  8
0
 62
     2
 10
-251.589634
 20
-484.923154
 40
30.000000
 50
0.000000E+00
 41
0.58 
  1
94
 72
     5
 11
-216.589634
 21
-484.923154
  0
LINE
  8
3
 62
     4
  6
CENTER
 10
-1503.410364
 20
-146.972883
 11
-1356.240828
 21
-146.972883
  0
INSERT
  8
0
  2
G38
 10
0
 20
0
  0
INSERT
  8
0
  2
G39
 10
0
 20
0
  0
INSERT
  8
0
  2
G40
 10
0
 20
0
  0
INSERT
  8
0
  2
G41
 10
0
 20
0
  0
INSERT
  8
0
  2
G42
 10
0
 20
0
  0
INSERT
  8
0
  2
G43
 10
0
 20
0
  0
INSERT
  8
0
  2
G44
 10
0
 20
0
  0
INSERT
  8
0
  2
G45
 10
0
 20
0
  0
ENDSEC
  0
EOF
