  0
SECTION
  2
HEADER
  9
$INSBASE
 10
0
 20
0
  9
$EXTMIN
 10
0
 20
0
  9
$EXTMAX
 10
4200.000000
 20
2970.000000
  9
$LIMMIN
 10
0
 20
0
  9
$LIMMAX
 10
4200.000000
 20
2970.000000
  9
$VIEWCTR
 10
2100.000000
 20
1485.000000
  9
$DIMASZ
 40
30.000000
  9
$DIMDLI
 40
80.000000
  9
$DIMEXE
 40
10.000000
  9
$DIMEXO
 40
10.000000
  9
$DIMTXT
 40
32.000000
  9
$TEXTSIZE
 40
32.000000
  9
$ANGBASE
 50
0.0
  9
$ANGDIR
 70
     0
  9
$ATTMODE
 70
     1
  9
$AUNITS
 70
     1
  9
$AUPREC
 70
     2
  9
$AXISMODE
 70
     0
  9
$AXISUNIT
 10
0.0
 20
0.0
  9
$BLIPMODE
 70
     1
  9
$CECOLOR
 62
   256
  9
$CELTYPE
  6
BYLAYER
  9
$CHAMFERA
 40
0.0
  9
$CHAMFERB
 40
0.0
  9
$CLAYER
  8
0
  9
$COORDS
 70
     0
  9
$DIMALT
 70
     0
  9
$DIMALTD
 70
     2
  9
$DIMALTF
 40
25.4
  9
$DIMDLE
 40
0.0
  9
$DIMLFAC
 40
1.0
  9
$DIMLIM
 70
     0
  9
$DIMRND
 40
0.0
  9
$DIMSCALE
 40
1.0
  9
$DIMSE1
 70
     0
  9
$DIMSE2
 70
     0
  9
$DIMTAD
 70
     1
  9
$DIMTIH
 70
     0
  9
$DIMTM
 40
0.0
  9
$DIMTOH
 70
     0
  9
$DIMTOL
 70
     0
  9
$DIMTP
 40
0.0
  9
$DIMTSZ
 40
0.0
  9
$DIMZIN
 70
     0
  9
$DRAGMODE
 70
     2
  9
$ELEVATION
 40
0.0
  9
$FASTZOOM
 70
     1
  9
$FILLETRAD
 40
0.0
  9
$FILLMODE
 70
     1
  9
$GRIDMODE
 70
     0
  9
$GRIDUNIT
 10
0.0
 20
0.0
  9
$LTSCALE
 40
1.0
  9
$LUNITS
 70
     2
  9
$LUPREC
 70
     2
  9
$MENU
  1
ACAD
  9
$ORTHOMODE
 70
     0
  9
$OSMODE
 70
     0
  9
$PDMODE
 70
     0
  9
$PDSIZE
 40
0.0
  9
$PLINEWID
 40
0.0
  9
$QTEXTMODE
 70
     0
  9
$REGENMODE
 70
     1
  9
$SKETCHINC
 40
0.1
  9
$SKPOLY
 70
     0
  9
$SNAPBASE
 10
0.0
 20
0.0
  9
$SNAPISOPAIR
 70
     0
  9
$SNAPMODE
 70
     0
  9
$SNAPSTYLE
 70
     0
  9
$SNAPUNIT
 10
0.0
 20
0.0
  9
$TEXTSTYLE
  7
KANJI
  9
$THICKNESS
 40
0.0
  9
$TRACEWID
 40
0.05
  9
$VIEWDIR
 10
0.0
 20
0.0
 30
1.0
  9
$VIEWSIZE
 40
0.0
  0
ENDSEC
  0
SECTION
  2
TABLES
  0
TABLE
  2
LTYPE
 70
     9
  0
LTYPE
  2
CONTINUOUS
 70
    64
  3
Solid line
 72
    65
 73
     0
 40
0.0
  0
LTYPE
  2
DASHED
 70
    64
  3
__ __ __ __ __ __ __ __ __ __ __ __ __ __ __
 72
    65
 73
     2
 40
0.75
 49
0.5
 49
-0.25
  0
LTYPE
  2
HIDDEN
 70
    64
  3
_ _ _ _ _ _ _ _ _ _ _ _ _ _ _ _ _ _ _ _ _ _ _
 72
    65
 73
     2
 40
0.375
 49
0.25
 49
-0.125
  0
LTYPE
  2
CENTER
 70
    64
  3
____ _ ____ _ ____ _ ____ _ ____ _ ____ _ ____
 72
    65
 73
     4
 40
2.0
 49
1.25
 49
-0.25
 49
0.25
 49
-0.25
  0
LTYPE
  2
PHANTOM
 70
    64
  3
_____ _ _ _____ _ _ _____ _ _ _____ _ _ ____
 72
    65
 73
     6
 40
2.5
 49
1.25
 49
-0.25
 49
0.25
 49
-0.25
 49
0.25
 49
-0.25
  0
LTYPE
  2
DOT
 70
    64
  3
...............................................
 72
    65
 73
     2
 40
0.25
 49
0.0
 49
-0.25
  0
LTYPE
  2
DASHDOT
 70
    64
  3
__ . __ . __ . __ . __ . __ . __ . __ . __ . __
 72
    65
 73
     4
 40
1.0
 49
0.5
 49
-0.25
 49
0.0
 49
-0.25
  0
LTYPE
  2
BORDER
 70
    64
  3
__ __ . __ __ . __ __ . __ __ . __ __ . __ __
 72
    65
 73
     6
 40
1.75
 49
0.5
 49
-0.25
 49
0.5
 49
-0.25
 49
0.0
 49
-0.25
  0
LTYPE
  2
DIVIDE
 70
    64
  3
__ . . __ . . __ . . __ . . __ . . __ . . __
 72
    65
 73
     6
 40
1.25
 49
0.5
 49
-0.25
 49
0.0
 49
-0.25
 49
0.0
 49
-0.25
  0
ENDTAB
  0
TABLE
  2
LAYER
 70
   100
  0
LAYER
  2
0
 70
     0
 62
     3
  6
CONTINUOUS
  0
LAYER
  2
1
 70
     0
 62
     3
  6
CONTINUOUS
  0
LAYER
  2
2
 70
     0
 62
     3
  6
CONTINUOUS
  0
LAYER
  2
3
 70
     0
 62
     3
  6
CONTINUOUS
  0
LAYER
  2
4
 70
     0
 62
     3
  6
CONTINUOUS
  0
LAYER
  2
5
 70
     0
 62
     3
  6
CONTINUOUS
  0
LAYER
  2
6
 70
     0
 62
     3
  6
CONTINUOUS
  0
LAYER
  2
7
 70
     0
 62
     3
  6
CONTINUOUS
  0
LAYER
  2
8
 70
     0
 62
     3
  6
CONTINUOUS
  0
LAYER
  2
9
 70
     0
 62
     3
  6
CONTINUOUS
  0
LAYER
  2
10
 70
     0
 62
     3
  6
CONTINUOUS
  0
LAYER
  2
11
 70
     0
 62
     3
  6
CONTINUOUS
  0
LAYER
  2
12
 70
     0
 62
     3
  6
CONTINUOUS
  0
LAYER
  2
13
 70
     0
 62
     3
  6
CONTINUOUS
  0
LAYER
  2
14
 70
     0
 62
     3
  6
CONTINUOUS
  0
LAYER
  2
15
 70
     0
 62
     3
  6
CONTINUOUS
  0
LAYER
  2
16
 70
     0
 62
     3
  6
CONTINUOUS
  0
LAYER
  2
17
 70
     0
 62
     3
  6
CONTINUOUS
  0
LAYER
  2
18
 70
     0
 62
     3
  6
CONTINUOUS
  0
LAYER
  2
19
 70
     0
 62
     3
  6
CONTINUOUS
  0
LAYER
  2
20
 70
     0
 62
     3
  6
CONTINUOUS
  0
LAYER
  2
21
 70
     0
 62
     3
  6
CONTINUOUS
  0
LAYER
  2
22
 70
     0
 62
     3
  6
CONTINUOUS
  0
LAYER
  2
23
 70
     0
 62
     3
  6
CONTINUOUS
  0
LAYER
  2
24
 70
     0
 62
     3
  6
CONTINUOUS
  0
LAYER
  2
25
 70
     0
 62
     3
  6
CONTINUOUS
  0
LAYER
  2
26
 70
     0
 62
     3
  6
CONTINUOUS
  0
LAYER
  2
27
 70
     0
 62
     3
  6
CONTINUOUS
  0
LAYER
  2
28
 70
     0
 62
     3
  6
CONTINUOUS
  0
LAYER
  2
29
 70
     0
 62
     3
  6
CONTINUOUS
  0
LAYER
  2
30
 70
     0
 62
     3
  6
CONTINUOUS
  0
LAYER
  2
31
 70
     0
 62
     3
  6
CONTINUOUS
  0
LAYER
  2
32
 70
     0
 62
     3
  6
CONTINUOUS
  0
LAYER
  2
33
 70
     0
 62
     3
  6
CONTINUOUS
  0
LAYER
  2
34
 70
     0
 62
     3
  6
CONTINUOUS
  0
LAYER
  2
35
 70
     0
 62
     3
  6
CONTINUOUS
  0
LAYER
  2
36
 70
     0
 62
     3
  6
CONTINUOUS
  0
LAYER
  2
37
 70
     0
 62
     3
  6
CONTINUOUS
  0
LAYER
  2
38
 70
     0
 62
     3
  6
CONTINUOUS
  0
LAYER
  2
39
 70
     0
 62
     3
  6
CONTINUOUS
  0
LAYER
  2
40
 70
     0
 62
     3
  6
CONTINUOUS
  0
LAYER
  2
41
 70
     0
 62
     3
  6
CONTINUOUS
  0
LAYER
  2
42
 70
     0
 62
     3
  6
CONTINUOUS
  0
LAYER
  2
43
 70
     0
 62
     3
  6
CONTINUOUS
  0
LAYER
  2
44
 70
     0
 62
     3
  6
CONTINUOUS
  0
LAYER
  2
45
 70
     0
 62
     3
  6
CONTINUOUS
  0
LAYER
  2
46
 70
     0
 62
     3
  6
CONTINUOUS
  0
LAYER
  2
47
 70
     0
 62
     3
  6
CONTINUOUS
  0
LAYER
  2
48
 70
     0
 62
     3
  6
CONTINUOUS
  0
LAYER
  2
49
 70
     0
 62
     3
  6
CONTINUOUS
  0
LAYER
  2
50
 70
     0
 62
     3
  6
CONTINUOUS
  0
LAYER
  2
51
 70
     0
 62
     3
  6
CONTINUOUS
  0
LAYER
  2
52
 70
     0
 62
     3
  6
CONTINUOUS
  0
LAYER
  2
53
 70
     0
 62
     3
  6
CONTINUOUS
  0
LAYER
  2
54
 70
     0
 62
     3
  6
CONTINUOUS
  0
LAYER
  2
55
 70
     0
 62
     3
  6
CONTINUOUS
  0
LAYER
  2
56
 70
     0
 62
     3
  6
CONTINUOUS
  0
LAYER
  2
57
 70
     0
 62
     3
  6
CONTINUOUS
  0
LAYER
  2
58
 70
     0
 62
     3
  6
CONTINUOUS
  0
LAYER
  2
59
 70
     0
 62
     3
  6
CONTINUOUS
  0
LAYER
  2
60
 70
     0
 62
     3
  6
CONTINUOUS
  0
LAYER
  2
61
 70
     0
 62
     3
  6
CONTINUOUS
  0
LAYER
  2
62
 70
     0
 62
     3
  6
CONTINUOUS
  0
LAYER
  2
63
 70
     0
 62
     3
  6
CONTINUOUS
  0
LAYER
  2
64
 70
     0
 62
     3
  6
CONTINUOUS
  0
LAYER
  2
65
 70
     0
 62
     3
  6
CONTINUOUS
  0
LAYER
  2
66
 70
     0
 62
     3
  6
CONTINUOUS
  0
LAYER
  2
67
 70
     0
 62
     3
  6
CONTINUOUS
  0
LAYER
  2
68
 70
     0
 62
     3
  6
CONTINUOUS
  0
LAYER
  2
69
 70
     0
 62
     3
  6
CONTINUOUS
  0
LAYER
  2
70
 70
     0
 62
     3
  6
CONTINUOUS
  0
LAYER
  2
71
 70
     0
 62
     3
  6
CONTINUOUS
  0
LAYER
  2
72
 70
     0
 62
     3
  6
CONTINUOUS
  0
LAYER
  2
73
 70
     0
 62
     3
  6
CONTINUOUS
  0
LAYER
  2
74
 70
     0
 62
     3
  6
CONTINUOUS
  0
LAYER
  2
75
 70
     0
 62
     3
  6
CONTINUOUS
  0
LAYER
  2
76
 70
     0
 62
     3
  6
CONTINUOUS
  0
LAYER
  2
77
 70
     0
 62
     3
  6
CONTINUOUS
  0
LAYER
  2
78
 70
     0
 62
     3
  6
CONTINUOUS
  0
LAYER
  2
79
 70
     0
 62
     3
  6
CONTINUOUS
  0
LAYER
  2
80
 70
     0
 62
     3
  6
CONTINUOUS
  0
LAYER
  2
81
 70
     0
 62
     3
  6
CONTINUOUS
  0
LAYER
  2
82
 70
     0
 62
     3
  6
CONTINUOUS
  0
LAYER
  2
83
 70
     0
 62
     3
  6
CONTINUOUS
  0
LAYER
  2
84
 70
     0
 62
     3
  6
CONTINUOUS
  0
LAYER
  2
85
 70
     0
 62
     3
  6
CONTINUOUS
  0
LAYER
  2
86
 70
     0
 62
     3
  6
CONTINUOUS
  0
LAYER
  2
87
 70
     0
 62
     3
  6
CONTINUOUS
  0
LAYER
  2
88
 70
     0
 62
     3
  6
CONTINUOUS
  0
LAYER
  2
89
 70
     0
 62
     3
  6
CONTINUOUS
  0
LAYER
  2
90
 70
     0
 62
     3
  6
CONTINUOUS
  0
LAYER
  2
91
 70
     0
 62
     3
  6
CONTINUOUS
  0
LAYER
  2
92
 70
     0
 62
     3
  6
CONTINUOUS
  0
LAYER
  2
93
 70
     0
 62
     3
  6
CONTINUOUS
  0
LAYER
  2
94
 70
     0
 62
     3
  6
CONTINUOUS
  0
LAYER
  2
95
 70
     0
 62
     3
  6
CONTINUOUS
  0
LAYER
  2
96
 70
     0
 62
     3
  6
CONTINUOUS
  0
LAYER
  2
97
 70
     0
 62
     3
  6
CONTINUOUS
  0
LAYER
  2
98
 70
     0
 62
     3
  6
CONTINUOUS
  0
LAYER
  2
99
 70
     0
 62
     3
  6
CONTINUOUS
  0
ENDTAB
  0
TABLE
  2
STYLE
 70
     2
  0
STYLE
  2
STANDARD
 70
     0
 40
0.0
 41
1.0
 50
0.0
 71
     0
 42
0.2
  3
TXT
  4
BIGFONT
  0
STYLE
  2
KANJI
 70
     0
 40
4.5
 41
1.0
 50
0.0
 71
     0
 42
0.2
  3
TXT
  4
BIGFONT
  0
ENDTAB
  0
TABLE
  2
VIEW
 70
     0
  0
ENDTAB
  0
ENDSEC
  0
SECTION
  2
BLOCKS
  0
BLOCK
  8
0
  2
G0
 70
     0
 10
0
 20
0
  0
POINT
  8
0
 62
     4
 10
270.000000
 20
1315.000000
  0
POINT
  8
0
 62
     4
 10
-1830.000000
 20
1315.000000
  0
ENDBLK
  0
BLOCK
  8
0
  2
G1
 70
     0
 10
0
 20
0
  0
LINE
  8
0
 62
     3
  6
CONTINUOUS
 10
-1183.043291
 20
-68.975228
 11
-1205.545746
 21
-55.983430
  0
LINE
  8
0
 62
     3
  6
CONTINUOUS
 10
-1198.460760
 20
-95.679068
 11
-1183.043291
 21
-68.975228
  0
TEXT
  8
0
 62
     3
 10
-1210.254043
 20
-128.037285
 40
32.000000
 50
0.000000E+00
 41
0.86 
  1
Ｃ
 72
     5
 11
-1178.254043
 21
-128.037285
  0
LINE
  8
0
 62
     3
  6
CONTINUOUS
 10
-1198.460760
 20
-48.308819
 11
-1198.460760
 21
-95.679068
  0
LINE
  8
0
 62
     3
  6
CONTINUOUS
 10
-1198.460760
 20
-48.308819
 11
-1278.023323
 21
-48.308819
  0
ENDBLK
  0
BLOCK
  8
0
  2
G2
 70
     0
 10
0
 20
0
  0
LINE
  8
0
 62
     1
  6
CONTINUOUS
 10
-460.682081
 20
717.624747
 11
-396.000000
 21
717.624747
  0
LINE
  8
0
 62
     1
  6
CONTINUOUS
 10
-396.000000
 20
647.500000
 11
-396.000000
 21
732.624747
  0
TEXT
  8
0
 62
     1
 10
-444.474233
 20
722.958080
 40
32.000000
 50
0.000000E+00
 41
0.56 
  1
65
 72
     5
 11
-408.474233
 21
722.958080
  0
LINE
  8
0
 62
     1
  6
CONTINUOUS
 10
-460.682081
 20
717.624747
 11
-499.766806
 21
717.624747
  0
SOLID
  8
0
 62
     1
 10
-484.830227
 20
711.154271
 11
-484.830227
 21
724.095223
 12
-460.682081
 22
717.624747
 13
-460.682081
 23
717.624747
  0
LINE
  8
0
 62
     1
  6
CONTINUOUS
 10
-396.000000
 20
717.624747
 11
-353.820860
 21
717.624747
  0
SOLID
  8
0
 62
     1
 10
-371.851854
 20
724.095223
 11
-371.851854
 21
711.154271
 12
-396.000000
 22
717.624747
 13
-396.000000
 23
717.624747
  0
ENDBLK
  0
BLOCK
  8
0
  2
G3
 70
     0
 10
0
 20
0
  0
LINE
  8
0
 62
     3
  6
CONTINUOUS
 10
-274.493734
 20
744.151548
 11
-399.678552
 21
744.151548
  0
SOLID
  8
0
 62
     3
 10
-370.700777
 20
751.916119
 11
-370.700777
 21
736.386977
 12
-399.678552
 22
744.151548
 13
-399.678552
 23
744.151548
  0
ENDBLK
  0
BLOCK
  8
0
  2
G4
 70
     0
 10
0
 20
0
  0
LINE
  8
0
 62
     1
  6
CONTINUOUS
 10
-661.000000
 20
301.624747
 11
-451.000000
 21
301.624747
  0
SOLID
  8
0
 62
     1
 10
-636.851854
 20
308.095223
 11
-636.851854
 21
295.154271
 12
-661.000000
 22
301.624747
 13
-661.000000
 23
301.624747
  0
SOLID
  8
0
 62
     1
 10
-475.148146
 20
295.154271
 11
-475.148146
 21
308.095223
 12
-451.000000
 22
301.624747
 13
-451.000000
 23
301.624747
  0
LINE
  8
0
 62
     1
  6
CONTINUOUS
 10
-661.000000
 20
565.000000
 11
-661.000000
 21
291.624747
  0
LINE
  8
0
 62
     1
  6
CONTINUOUS
 10
-451.000000
 20
565.000000
 11
-451.000000
 21
291.624747
  0
TEXT
  8
0
 62
     1
 10
-584.000000
 20
306.958080
 40
32.000000
 50
0.000000E+00
 41
0.58 
  1
210
 72
     5
 11
-528.000000
 21
306.958080
  0
ENDBLK
  0
BLOCK
  8
0
  2
G5
 70
     0
 10
0
 20
0
  0
LINE
  8
0
 62
     1
  6
CONTINUOUS
 10
-713.624747
 20
479.682081
 11
-713.624747
 21
415.000000
  0
LINE
  8
0
 62
     1
  6
CONTINUOUS
 10
-626.000000
 20
479.682081
 11
-723.624747
 21
479.682081
  0
LINE
  8
0
 62
     1
  6
CONTINUOUS
 10
-628.500000
 20
415.000000
 11
-723.624747
 21
415.000000
  0
TEXT
  8
0
 62
     1
 10
-718.958080
 20
429.341041
 40
32.000000
 50
90.000000
 41
0.56 
  1
65
 72
     5
 11
-718.958080
 21
465.341041
  0
LINE
  8
0
 62
     1
  6
CONTINUOUS
 10
-713.624747
 20
529.682081
 11
-713.624747
 21
479.682081
  0
SOLID
  8
0
 62
     1
 10
-720.095223
 20
503.830227
 11
-707.154271
 21
503.830227
 12
-713.624747
 22
479.682081
 13
-713.624747
 23
479.682081
  0
LINE
  8
0
 62
     1
  6
CONTINUOUS
 10
-713.624747
 20
415.000000
 11
-713.624747
 21
365.000000
  0
SOLID
  8
0
 62
     1
 10
-707.154271
 20
390.851854
 11
-720.095223
 21
390.851854
 12
-713.624747
 22
415.000000
 13
-713.624747
 23
415.000000
  0
ENDBLK
  0
BLOCK
  8
0
  2
G6
 70
     0
 10
0
 20
0
  0
LINE
  8
0
 62
     1
  6
CONTINUOUS
 10
-396.000000
 20
779.624747
 11
-556.000000
 21
779.624747
  0
LINE
  8
0
 62
     1
  6
CONTINUOUS
 10
-396.000000
 20
732.624747
 11
-396.000000
 21
789.624747
  0
TEXT
  8
0
 62
     1
 10
-504.000000
 20
784.958080
 40
32.000000
 50
0.000000E+00
 41
0.58 
  1
160
 72
     5
 11
-448.000000
 21
784.958080
  0
LINE
  8
0
 62
     1
  6
CONTINUOUS
 10
-396.000000
 20
779.624747
 11
-346.000000
 21
779.624747
  0
SOLID
  8
0
 62
     1
 10
-371.851854
 20
786.095223
 11
-371.851854
 21
773.154271
 12
-396.000000
 22
779.624747
 13
-396.000000
 23
779.624747
  0
LINE
  8
0
 62
     1
  6
CONTINUOUS
 10
-606.000000
 20
779.624747
 11
-556.000000
 21
779.624747
  0
SOLID
  8
0
 62
     1
 10
-580.148146
 20
773.154271
 11
-580.148146
 21
786.095223
 12
-556.000000
 22
779.624747
 13
-556.000000
 23
779.624747
  0
ENDBLK
  0
BLOCK
  8
0
  2
G7
 70
     0
 10
0
 20
0
  0
LINE
  8
0
 62
     1
  6
CONTINUOUS
 10
-1164.485175
 20
698.889268
 11
-1164.485175
 21
633.889268
  0
LINE
  8
0
 62
     1
  6
CONTINUOUS
 10
-1327.739862
 20
698.889268
 11
-1154.485175
 21
698.889268
  0
LINE
  8
0
 62
     1
  6
CONTINUOUS
 10
-1325.239862
 20
633.889268
 11
-1104.485175
 21
633.889268
  0
TEXT
  8
0
 62
     1
 10
-1169.818508
 20
648.389268
 40
32.000000
 50
90.000000
 41
0.56 
  1
65
 72
     5
 11
-1169.818508
 21
684.389268
  0
LINE
  8
0
 62
     1
  6
CONTINUOUS
 10
-1164.485175
 20
748.889268
 11
-1164.485175
 21
698.889268
  0
SOLID
  8
0
 62
     1
 10
-1170.955651
 20
723.037414
 11
-1158.014699
 21
723.037414
 12
-1164.485175
 22
698.889268
 13
-1164.485175
 23
698.889268
  0
LINE
  8
0
 62
     1
  6
CONTINUOUS
 10
-1164.485175
 20
633.889268
 11
-1164.485175
 21
583.889268
  0
SOLID
  8
0
 62
     1
 10
-1158.014699
 20
609.741123
 11
-1170.955651
 21
609.741123
 12
-1164.485175
 22
633.889268
 13
-1164.485175
 23
633.889268
  0
ENDBLK
  0
BLOCK
  8
0
  2
G8
 70
     0
 10
0
 20
0
  0
TEXT
  8
0
 62
     3
 10
-356.704880
 20
820.321326
 40
32.000000
 50
0.000000E+00
 41
1.02 
  1
受口深さ
 72
     5
 11
-204.704880
 21
820.321326
  0
ENDBLK
  0
BLOCK
  8
0
  2
G9
 70
     0
 10
0
 20
0
  0
LINE
  8
0
 62
     1
  6
CONTINUOUS
 10
-1160.662948
 20
90.527117
 11
-1160.662948
 21
-0.055584
  0
SOLID
  8
0
 62
     1
 10
-1154.192472
 20
66.378971
 11
-1167.133424
 21
66.378971
 12
-1160.662948
 22
90.527117
 13
-1160.662948
 23
90.527117
  0
TEXT
  8
0
 62
     1
 10
-1165.996281
 20
4.799037
 40
32.000000
 50
90.000000
 41
0.58 
  1
2.5
 72
     5
 11
-1165.996281
 21
60.799037
  0
LINE
  8
0
 62
     1
  6
CONTINUOUS
 10
-1150.662948
 20
90.527117
 11
-1232.739862
 21
90.527117
  0
LINE
  8
0
 62
     1
  6
CONTINUOUS
 10
-1160.662948
 20
90.527117
 11
-1160.662948
 21
93.027117
  0
ENDBLK
  0
BLOCK
  8
0
  2
G10
 70
     0
 10
0
 20
0
  0
LINE
  8
0
 62
     1
  6
CONTINUOUS
 10
-1164.485175
 20
731.389268
 11
-1164.485175
 21
856.389268
  0
SOLID
  8
0
 62
     1
 10
-1170.955651
 20
755.537414
 11
-1158.014699
 21
755.537414
 12
-1164.485175
 22
731.389268
 13
-1164.485175
 23
731.389268
  0
SOLID
  8
0
 62
     1
 10
-1158.014699
 20
832.241123
 11
-1170.955651
 21
832.241123
 12
-1164.485175
 22
856.389268
 13
-1164.485175
 23
856.389268
  0
LINE
  8
0
 62
     1
  6
CONTINUOUS
 10
-1227.739862
 20
731.389268
 11
-1154.485175
 21
731.389268
  0
LINE
  8
0
 62
     1
  6
CONTINUOUS
 10
-1227.739862
 20
856.389268
 11
-1154.485175
 21
856.389268
  0
TEXT
  8
0
 62
     1
 10
-1169.818508
 20
735.889268
 40
32.000000
 50
90.000000
 41
0.60 
  1
%%c125
 72
     5
 11
-1169.818508
 21
851.889268
  0
ENDBLK
  0
BLOCK
  8
0
  2
G11
 70
     0
 10
0
 20
0
  0
TEXT
  8
0
 62
     3
 10
-1200.069396
 20
527.689093
 40
32.000000
 50
0.000000E+00
 41
0.95 
  1
受口深さ　
 72
     5
 11
-1024.069396
 21
527.689093
  0
ENDBLK
  0
BLOCK
  8
0
  2
G12
 70
     0
 10
0
 20
0
  0
LINE
  8
0
 62
     3
  6
CONTINUOUS
 10
-1248.722721
 20
944.195122
 11
-1177.906789
 21
944.195122
  0
SOLID
  8
0
 62
     3
 10
-1219.744947
 20
951.959693
 11
-1219.744947
 21
936.430551
 12
-1248.722721
 22
944.195122
 13
-1248.722721
 23
944.195122
  0
ENDBLK
  0
BLOCK
  8
0
  2
G13
 70
     0
 10
0
 20
0
  0
TEXT
  8
0
 62
     3
 10
-1173.066857
 20
930.364900
 40
32.000000
 50
0.000000E+00
 41
1.02 
  1
受口深さ
 72
     5
 11
-1021.066857
 21
930.364900
  0
ENDBLK
  0
BLOCK
  8
0
  2
G14
 70
     0
 10
0
 20
0
  0
LINE
  8
0
 62
     1
  6
CONTINUOUS
 10
-1160.662948
 20
153.027117
 11
-1160.662948
 21
203.027117
  0
SOLID
  8
0
 62
     1
 10
-1168.427519
 20
182.004891
 11
-1152.898377
 21
182.004891
 12
-1160.662948
 22
153.027117
 13
-1160.662948
 23
153.027117
  0
TEXT
  8
0
 62
     1
 10
-1165.996281
 20
105.027117
 40
32.000000
 50
90.000000
 41
0.56 
  1
60
 72
     5
 11
-1165.996281
 21
141.027117
  0
LINE
  8
0
 62
     1
  6
CONTINUOUS
 10
-1221.806156
 20
153.027117
 11
-1150.662948
 21
153.027117
  0
LINE
  8
0
 62
     1
  6
CONTINUOUS
 10
-1232.739862
 20
93.027117
 11
-1150.662948
 21
93.027117
  0
LINE
  8
0
 62
     1
  6
CONTINUOUS
 10
-1160.662948
 20
93.027117
 11
-1160.662948
 21
153.027117
  0
CIRCLE
  8
0
 62
     1
  6
CONTINUOUS
 10
-1160.662948
 20
93.027117
 40
2.500000
  0
CIRCLE
  8
0
 62
     1
  6
CONTINUOUS
 10
-1160.662948
 20
93.027117
 40
1.250000
  0
ENDBLK
  0
BLOCK
  8
0
  2
G15
 70
     0
 10
0
 20
0
  0
LINE
  8
0
 62
     1
  6
CONTINUOUS
 10
-1564.816775
 20
90.527117
 11
-1564.816775
 21
93.027117
  0
LINE
  8
0
 62
     1
  6
CONTINUOUS
 10
-1574.816775
 20
90.527117
 11
-1397.739862
 21
90.527117
  0
TEXT
  8
0
 62
     1
 10
-1570.150108
 20
4.799037
 40
32.000000
 50
90.000000
 41
0.58 
  1
2.5
 72
     5
 11
-1570.150108
 21
60.799037
  0
LINE
  8
0
 62
     1
  6
CONTINUOUS
 10
-1564.816775
 20
90.527117
 11
-1564.816775
 21
-0.055584
  0
SOLID
  8
0
 62
     1
 10
-1558.346299
 20
66.378971
 11
-1571.287251
 21
66.378971
 12
-1564.816775
 22
90.527117
 13
-1564.816775
 23
90.527117
  0
ENDBLK
  0
BLOCK
  8
0
  2
G16
 70
     0
 10
0
 20
0
  0
LINE
  8
0
 62
     1
  6
CONTINUOUS
 10
-1460.239862
 20
580.634581
 11
-1335.239862
 21
580.634581
  0
SOLID
  8
0
 62
     1
 10
-1436.091716
 20
587.105058
 11
-1436.091716
 21
574.164105
 12
-1460.239862
 22
580.634581
 13
-1460.239862
 23
580.634581
  0
SOLID
  8
0
 62
     1
 10
-1359.388007
 20
574.164105
 11
-1359.388007
 21
587.105058
 12
-1335.239862
 22
580.634581
 13
-1335.239862
 23
580.634581
  0
LINE
  8
0
 62
     1
  6
CONTINUOUS
 10
-1460.239862
 20
623.889268
 11
-1460.239862
 21
570.634581
  0
LINE
  8
0
 62
     1
  6
CONTINUOUS
 10
-1335.239862
 20
623.889268
 11
-1335.239862
 21
570.634581
  0
TEXT
  8
0
 62
     1
 10
-1455.739862
 20
585.967914
 40
32.000000
 50
0.000000E+00
 41
0.60 
  1
%%c125
 72
     5
 11
-1339.739862
 21
585.967914
  0
ENDBLK
  0
BLOCK
  8
0
  2
G17
 70
     0
 10
0
 20
0
  0
LINE
  8
0
 62
     1
  6
CONTINUOUS
 10
-1564.816775
 20
93.027117
 11
-1564.816775
 21
153.027117
  0
CIRCLE
  8
0
 62
     1
  6
CONTINUOUS
 10
-1564.816775
 20
93.027117
 40
2.500000
  0
CIRCLE
  8
0
 62
     1
  6
CONTINUOUS
 10
-1564.816775
 20
93.027117
 40
1.250000
  0
LINE
  8
0
 62
     1
  6
CONTINUOUS
 10
-1574.816775
 20
93.027117
 11
-1397.739862
 21
93.027117
  0
LINE
  8
0
 62
     1
  6
CONTINUOUS
 10
-1574.816775
 20
153.027117
 11
-1499.665810
 21
153.027117
  0
TEXT
  8
0
 62
     1
 10
-1570.150108
 20
105.027117
 40
32.000000
 50
90.000000
 41
0.56 
  1
60
 72
     5
 11
-1570.150108
 21
141.027117
  0
LINE
  8
0
 62
     1
  6
CONTINUOUS
 10
-1564.816775
 20
153.027117
 11
-1564.816775
 21
203.027117
  0
SOLID
  8
0
 62
     1
 10
-1572.581347
 20
182.004891
 11
-1557.052204
 21
182.004891
 12
-1564.816775
 22
153.027117
 13
-1564.816775
 23
153.027117
  0
ENDBLK
  0
BLOCK
  8
0
  2
G18
 70
     0
 10
0
 20
0
  0
LINE
  8
0
 62
     1
  6
CONTINUOUS
 10
-980.662948
 20
418.027117
 11
-980.662948
 21
343.027117
  0
SOLID
  8
0
 62
     1
 10
-974.192472
 20
393.878971
 11
-987.133424
 21
393.878971
 12
-980.662948
 22
418.027117
 13
-980.662948
 23
418.027117
  0
SOLID
  8
0
 62
     1
 10
-987.133424
 20
367.175262
 11
-974.192472
 21
367.175262
 12
-980.662948
 22
343.027117
 13
-980.662948
 23
343.027117
  0
LINE
  8
0
 62
     1
  6
CONTINUOUS
 10
-970.662948
 20
418.027117
 11
-1317.549807
 21
418.027117
  0
LINE
  8
0
 62
     1
  6
CONTINUOUS
 10
-970.662948
 20
343.027117
 11
-1100.662948
 21
343.027117
  0
TEXT
  8
0
 62
     1
 10
-985.996281
 20
362.527117
 40
32.000000
 50
90.000000
 41
0.56 
  1
75
 72
     5
 11
-985.996281
 21
398.527117
  0
ENDBLK
  0
BLOCK
  8
0
  2
G19
 70
     0
 10
0
 20
0
  0
LINE
  8
0
 62
     1
  6
CONTINUOUS
 10
-1040.662948
 20
-206.972883
 11
-1040.662948
 21
153.027117
  0
SOLID
  8
0
 62
     1
 10
-1048.427519
 20
-177.995109
 11
-1032.898377
 21
-177.995109
 12
-1040.662948
 22
-206.972883
 13
-1040.662948
 23
-206.972883
  0
SOLID
  8
0
 62
     1
 10
-1032.898377
 20
124.049342
 11
-1048.427519
 21
124.049342
 12
-1040.662948
 22
153.027117
 13
-1040.662948
 23
153.027117
  0
LINE
  8
0
 62
     1
  6
CONTINUOUS
 10
-1030.662948
 20
-206.972883
 11
-1150.662948
 21
-206.972883
  0
TEXT
  8
0
 62
     1
 10
-1045.996281
 20
-42.972883
 40
32.000000
 50
90.000000
 41
0.86 
  1
Ｐ
 72
     5
 11
-1045.996281
 21
-10.972883
  0
ENDBLK
  0
BLOCK
  8
0
  2
G20
 70
     0
 10
0
 20
0
  0
LINE
  8
0
 62
     1
  6
CONTINUOUS
 10
-1100.662948
 20
93.027117
 11
-1100.662948
 21
343.027117
  0
SOLID
  8
0
 62
     1
 10
-1108.427519
 20
122.004891
 11
-1092.898377
 21
122.004891
 12
-1100.662948
 22
93.027117
 13
-1100.662948
 23
93.027117
  0
SOLID
  8
0
 62
     1
 10
-1092.898377
 20
314.049342
 11
-1108.427519
 21
314.049342
 12
-1100.662948
 22
343.027117
 13
-1100.662948
 23
343.027117
  0
LINE
  8
0
 62
     1
  6
CONTINUOUS
 10
-1150.662948
 20
93.027117
 11
-1090.662948
 21
93.027117
  0
LINE
  8
0
 62
     1
  6
CONTINUOUS
 10
-1387.739862
 20
343.027117
 11
-1090.662948
 21
343.027117
  0
TEXT
  8
0
 62
     1
 10
-1105.996281
 20
190.027117
 40
32.000000
 50
90.000000
 41
0.58 
  1
250
 72
     5
 11
-1105.996281
 21
246.027117
  0
ENDBLK
  0
BLOCK
  8
0
  2
G21
 70
     0
 10
0
 20
0
  0
LINE
  8
0
 62
     1
  6
CONTINUOUS
 10
-1160.662948
 20
-296.972883
 11
-1160.662948
 21
-416.972883
  0
SOLID
  8
0
 62
     1
 10
-1154.192472
 20
-321.121029
 11
-1167.133424
 21
-321.121029
 12
-1160.662948
 22
-296.972883
 13
-1160.662948
 23
-296.972883
  0
SOLID
  8
0
 62
     1
 10
-1167.133424
 20
-392.824738
 11
-1154.192472
 21
-392.824738
 12
-1160.662948
 22
-416.972883
 13
-1160.662948
 23
-416.972883
  0
LINE
  8
0
 62
     1
  6
CONTINUOUS
 10
-1306.990773
 20
-296.972883
 11
-1150.662948
 21
-296.972883
  0
LINE
  8
0
 62
     1
  6
CONTINUOUS
 10
-1337.488951
 20
-416.972883
 11
-1150.662948
 21
-416.972883
  0
TEXT
  8
0
 62
     1
 10
-1165.996281
 20
-384.972883
 40
32.000000
 50
90.000000
 41
0.58 
  1
120
 72
     5
 11
-1165.996281
 21
-328.972883
  0
ENDBLK
  0
BLOCK
  8
0
  2
G22
 70
     0
 10
0
 20
0
  0
LINE
  8
0
 62
     1
  6
CONTINUOUS
 10
-1160.662948
 20
-416.972883
 11
-1160.662948
 21
-566.972883
  0
SOLID
  8
0
 62
     1
 10
-1154.192472
 20
-441.121029
 11
-1167.133424
 21
-441.121029
 12
-1160.662948
 22
-416.972883
 13
-1160.662948
 23
-416.972883
  0
SOLID
  8
0
 62
     1
 10
-1167.133424
 20
-542.824738
 11
-1154.192472
 21
-542.824738
 12
-1160.662948
 22
-566.972883
 13
-1160.662948
 23
-566.972883
  0
LINE
  8
0
 62
     1
  6
CONTINUOUS
 10
-1334.739862
 20
-566.972883
 11
-1150.662948
 21
-566.972883
  0
TEXT
  8
0
 62
     1
 10
-1165.996281
 20
-519.972883
 40
32.000000
 50
90.000000
 41
0.58 
  1
150
 72
     5
 11
-1165.996281
 21
-463.972883
  0
ENDBLK
  0
BLOCK
  8
0
  2
G23
 70
     0
 10
0
 20
0
  0
LINE
  8
0
 62
     1
  6
CONTINUOUS
 10
-1040.662948
 20
-206.972883
 11
-1040.662948
 21
-566.972883
  0
SOLID
  8
0
 62
     1
 10
-1034.192472
 20
-231.121029
 11
-1047.133424
 21
-231.121029
 12
-1040.662948
 22
-206.972883
 13
-1040.662948
 23
-206.972883
  0
SOLID
  8
0
 62
     1
 10
-1047.133424
 20
-542.824738
 11
-1034.192472
 21
-542.824738
 12
-1040.662948
 22
-566.972883
 13
-1040.662948
 23
-566.972883
  0
LINE
  8
0
 62
     1
  6
CONTINUOUS
 10
-1030.662948
 20
-566.972883
 11
-1150.662948
 21
-566.972883
  0
TEXT
  8
0
 62
     1
 10
-1045.996281
 20
-414.972883
 40
32.000000
 50
90.000000
 41
0.58 
  1
360
 72
     5
 11
-1045.996281
 21
-358.972883
  0
ENDBLK
  0
BLOCK
  8
0
  2
G24
 70
     0
 10
0
 20
0
  0
LINE
  8
0
 62
     1
  6
CONTINUOUS
 10
-980.662948
 20
343.027117
 11
-980.662948
 21
-566.972883
  0
SOLID
  8
0
 62
     1
 10
-974.192472
 20
318.878971
 11
-987.133424
 21
318.878971
 12
-980.662948
 22
343.027117
 13
-980.662948
 23
343.027117
  0
SOLID
  8
0
 62
     1
 10
-987.133424
 20
-542.824738
 11
-974.192472
 21
-542.824738
 12
-980.662948
 22
-566.972883
 13
-980.662948
 23
-566.972883
  0
LINE
  8
0
 62
     1
  6
CONTINUOUS
 10
-1030.662948
 20
-566.972883
 11
-970.662948
 21
-566.972883
  0
TEXT
  8
0
 62
     1
 10
-985.996281
 20
-205.972883
 40
32.000000
 50
90.000000
 41
0.89 
  1
Ｌ（有効長）
 72
     5
 11
-985.996281
 21
-9.972883
  0
ENDBLK
  0
BLOCK
  8
0
  2
G25
 70
     0
 10
0
 20
0
  0
LINE
  8
0
 62
     1
  6
CONTINUOUS
 10
-920.662948
 20
418.027117
 11
-920.662948
 21
-566.972883
  0
SOLID
  8
0
 62
     1
 10
-914.192472
 20
393.878971
 11
-927.133424
 21
393.878971
 12
-920.662948
 22
418.027117
 13
-920.662948
 23
418.027117
  0
SOLID
  8
0
 62
     1
 10
-927.133424
 20
-542.824738
 11
-914.192472
 21
-542.824738
 12
-920.662948
 22
-566.972883
 13
-920.662948
 23
-566.972883
  0
LINE
  8
0
 62
     1
  6
CONTINUOUS
 10
-970.662948
 20
418.027117
 11
-910.662948
 21
418.027117
  0
LINE
  8
0
 62
     1
  6
CONTINUOUS
 10
-970.662948
 20
-566.972883
 11
-910.662948
 21
-566.972883
  0
TEXT
  8
0
 62
     1
 10
-925.996281
 20
-110.472883
 40
32.000000
 50
90.000000
 41
0.97 
  1
Ｌｔ
 72
     5
 11
-925.996281
 21
-38.472883
  0
ENDBLK
  0
BLOCK
  8
0
  2
G26
 70
     0
 10
0
 20
0
  0
TEXT
  8
0
 62
     3
 10
-820.550652
 20
295.100151
 40
32.000000
 50
0.000000E+00
 41
0.95 
  1
受口深さ　
 72
     5
 11
-644.550652
 21
295.100151
  0
ENDBLK
  0
BLOCK
  8
0
  2
G27
 70
     0
 10
0
 20
0
  0
LINE
  8
0
 62
     1
  6
CONTINUOUS
 10
-1302.739862
 20
917.143955
 11
-1237.739862
 21
917.143955
  0
LINE
  8
0
 62
     1
  6
CONTINUOUS
 10
-1302.739862
 20
863.889268
 11
-1302.739862
 21
927.143955
  0
LINE
  8
0
 62
     1
  6
CONTINUOUS
 10
-1237.739862
 20
866.389268
 11
-1237.739862
 21
977.143955
  0
TEXT
  8
0
 62
     1
 10
-1288.239862
 20
922.477288
 40
32.000000
 50
0.000000E+00
 41
0.56 
  1
65
 72
     5
 11
-1252.239862
 21
922.477288
  0
LINE
  8
0
 62
     1
  6
CONTINUOUS
 10
-1352.739862
 20
917.143955
 11
-1302.739862
 21
917.143955
  0
SOLID
  8
0
 62
     1
 10
-1326.888007
 20
910.673479
 11
-1326.888007
 21
923.614431
 12
-1302.739862
 22
917.143955
 13
-1302.739862
 23
917.143955
  0
LINE
  8
0
 62
     1
  6
CONTINUOUS
 10
-1237.739862
 20
917.143955
 11
-1187.739862
 21
917.143955
  0
SOLID
  8
0
 62
     1
 10
-1213.591716
 20
923.614431
 11
-1213.591716
 21
910.673479
 12
-1237.739862
 22
917.143955
 13
-1237.739862
 23
917.143955
  0
ENDBLK
  0
BLOCK
  8
0
  2
G28
 70
     0
 10
0
 20
0
  0
LINE
  8
0
 62
     1
  6
CONTINUOUS
 10
-770.624747
 20
575.000000
 11
-770.624747
 21
415.000000
  0
LINE
  8
0
 62
     1
  6
CONTINUOUS
 10
-689.008451
 20
575.000000
 11
-780.624747
 21
575.000000
  0
LINE
  8
0
 62
     1
  6
CONTINUOUS
 10
-628.500000
 20
415.000000
 11
-780.624747
 21
415.000000
  0
TEXT
  8
0
 62
     1
 10
-775.958080
 20
467.000000
 40
32.000000
 50
90.000000
 41
0.58 
  1
160
 72
     5
 11
-775.958080
 21
523.000000
  0
LINE
  8
0
 62
     1
  6
CONTINUOUS
 10
-770.624747
 20
625.000000
 11
-770.624747
 21
575.000000
  0
SOLID
  8
0
 62
     1
 10
-777.095223
 20
599.148146
 11
-764.154271
 21
599.148146
 12
-770.624747
 22
575.000000
 13
-770.624747
 23
575.000000
  0
LINE
  8
0
 62
     1
  6
CONTINUOUS
 10
-770.624747
 20
415.000000
 11
-770.624747
 21
365.000000
  0
SOLID
  8
0
 62
     1
 10
-764.154271
 20
390.851854
 11
-777.095223
 21
390.851854
 12
-770.624747
 22
415.000000
 13
-770.624747
 23
415.000000
  0
ENDBLK
  0
BLOCK
  8
0
  2
G29
 70
     0
 10
0
 20
0
  0
TEXT
  8
0
 62
     1
 10
-743.048404
 20
722.450424
 40
32.000000
 50
45.000000
 41
0.58 
  1
248
 72
     5
 11
-703.450424
 21
762.048404
  0
LINE
  8
0
 62
     1
  6
CONTINUOUS
 10
-475.389827
 20
669.752309
 11
-638.868005
 21
833.230486
  0
LINE
  8
0
 62
     1
  6
CONTINUOUS
 10
-650.752309
 20
494.389827
 11
-814.230486
 21
657.868005
  0
LINE
  8
0
 62
     1
  6
CONTINUOUS
 10
-807.159419
 20
650.796937
 11
-631.796937
 21
826.159419
  0
SOLID
  8
0
 62
     1
 10
-794.659419
 20
672.447572
 11
-785.508783
 21
663.296937
 12
-807.159419
 22
650.796937
 13
-807.159419
 23
650.796937
  0
SOLID
  8
0
 62
     1
 10
-644.296937
 20
804.508783
 11
-653.447572
 21
813.659419
 12
-631.796937
 22
826.159419
 13
-631.796937
 23
826.159419
  0
ENDBLK
  0
BLOCK
  8
0
  2
G30
 70
     0
 10
0
 20
0
  0
LINE
  8
0
 62
     1
  6
CONTINUOUS
 10
-283.675308
 20
470.000000
 11
-283.675308
 21
680.000000
  0
SOLID
  8
0
 62
     1
 10
-290.145784
 20
494.148146
 11
-277.204832
 21
494.148146
 12
-283.675308
 22
470.000000
 13
-283.675308
 23
470.000000
  0
SOLID
  8
0
 62
     1
 10
-277.204832
 20
655.851854
 11
-290.145784
 21
655.851854
 12
-283.675308
 22
680.000000
 13
-283.675308
 23
680.000000
  0
LINE
  8
0
 62
     1
  6
CONTINUOUS
 10
-546.000000
 20
470.000000
 11
-273.675308
 21
470.000000
  0
LINE
  8
0
 62
     1
  6
CONTINUOUS
 10
-546.000000
 20
680.000000
 11
-273.675308
 21
680.000000
  0
TEXT
  8
0
 62
     1
 10
-289.008641
 20
547.000000
 40
32.000000
 50
90.000000
 41
0.58 
  1
210
 72
     5
 11
-289.008641
 21
603.000000
  0
ENDBLK
  0
BLOCK
  8
0
  2
G31
 70
     0
 10
0
 20
0
  0
LINE
  8
0
 62
     3
  6
CONTINUOUS
 10
-228.905306
 20
305.222675
 11
-390.769548
 21
305.222675
  0
LINE
  8
0
 62
     3
  6
CONTINUOUS
 10
-228.905306
 20
313.222675
 11
-390.769548
 21
313.222675
  0
TEXT
  8
0
 62
     7
 10
-421.204373
 20
322.720262
 40
32.000000
 50
360.000000
 41
0.66 
  1
％％ｃ　　　枝管
 72
     5
 11
-229.204373
 21
322.720262
  0
ENDBLK
  0
BLOCK
  8
0
  2
G32
 70
     0
 10
0
 20
0
  0
TEXT
  8
0
 62
     7
 10
-421.204373
 20
402.720262
 40
32.000000
 50
360.000000
 41
0.66 
  1
％％ｃ　　　枝管
 72
     5
 11
-229.204373
 21
402.720262
  0
LINE
  8
0
 62
     3
  6
CONTINUOUS
 10
-228.905306
 20
393.222675
 11
-390.769548
 21
393.222675
  0
LINE
  8
0
 62
     3
  6
CONTINUOUS
 10
-228.905306
 20
385.222675
 11
-390.769548
 21
385.222675
  0
ENDBLK
  0
BLOCK
  8
0
  2
G33
 70
     0
 10
0
 20
0
  0
LINE
  8
0
 62
     3
  6
CONTINUOUS
 10
-430.024069
 20
515.618549
 11
-414.305199
 21
414.200064
  0
SOLID
  8
0
 62
     3
 10
-416.962336
 20
488.611308
 11
-434.297659
 21
485.924502
 12
-430.024069
 22
515.618549
 13
-430.024069
 23
515.618549
  0
TEXT
  8
0
 62
     3
 10
-394.305199
 20
419.533397
 40
32.000000
 50
0.000000E+00
 41
0.50 
  1
 
 72
     5
 11
-378.305199
 21
419.533397
  0
LINE
  8
0
 62
     3
  6
CONTINUOUS
 10
-414.305199
 20
414.200064
 11
-382.305199
 21
414.200064
  0
ENDBLK
  0
BLOCK
  8
0
  2
G34
 70
     0
 10
0
 20
0
  0
LINE
  8
0
 62
     3
  6
CONTINUOUS
 10
-494.722401
 20
447.550513
 11
-414.305199
 21
335.348973
  0
SOLID
  8
0
 62
     3
 10
-470.880436
 20
429.341705
 11
-485.138753
 21
419.122469
 12
-494.722401
 22
447.550513
 13
-494.722401
 23
447.550513
  0
TEXT
  8
0
 62
     3
 10
-414.305199
 20
340.682306
 40
32.000000
 50
0.000000E+00
 41
0.50 
  1
 
 72
     5
 11
-398.305199
 21
340.682306
  0
LINE
  8
0
 62
     3
  6
CONTINUOUS
 10
-414.305199
 20
335.348973
 11
-382.305199
 21
335.348973
  0
ENDBLK
  0
BLOCK
  8
0
  2
G35
 70
     0
 10
0
 20
0
  0
LINE
  8
0
 62
     7
  6
CONTINUOUS
 10
-1492.739862
 20
865.889268
 11
-1492.739862
 21
986.099426
  0
LINE
  8
0
 62
     7
  6
CONTINUOUS
 10
-1397.739862
 20
912.330428
 11
-1397.739862
 21
986.099426
  0
LINE
  8
0
 62
     7
  6
CONTINUOUS
 10
-1492.739862
 20
976.099426
 11
-1397.739862
 21
976.099426
  0
SOLID
  8
0
 62
     7
 10
-1464.050719
 20
984.870578
 11
-1464.050719
 21
967.328275
 12
-1492.739862
 22
976.099426
 13
-1492.739862
 23
976.099426
  0
SOLID
  8
0
 62
     7
 10
-1426.429004
 20
967.328275
 11
-1426.429004
 21
984.870578
 12
-1397.739862
 22
976.099426
 13
-1397.739862
 23
976.099426
  0
TEXT
  8
0
 62
     7
 10
-1463.239862
 20
981.432756
 40
32.000000
 50
0.000000E+00
 41
0.56 
  1
95
 72
     5
 11
-1427.239862
 21
981.432756
  0
ENDBLK
  0
BLOCK
  8
0
  2
G36
 70
     0
 10
0
 20
0
  0
LINE
  8
0
 62
     7
  6
CONTINUOUS
 10
-1397.739862
 20
895.987720
 11
-1397.739862
 21
986.099426
  0
LINE
  8
0
 62
     7
  6
CONTINUOUS
 10
-1237.739862
 20
876.389268
 11
-1237.739862
 21
986.099426
  0
LINE
  8
0
 62
     7
  6
CONTINUOUS
 10
-1397.739862
 20
976.099426
 11
-1237.739862
 21
976.099426
  0
SOLID
  8
0
 62
     7
 10
-1369.050719
 20
984.870578
 11
-1369.050719
 21
967.328275
 12
-1397.739862
 22
976.099426
 13
-1397.739862
 23
976.099426
  0
SOLID
  8
0
 62
     7
 10
-1266.429004
 20
967.328275
 11
-1266.429004
 21
984.870578
 12
-1237.739862
 22
976.099426
 13
-1237.739862
 23
976.099426
  0
TEXT
  8
0
 62
     7
 10
-1345.739862
 20
981.432756
 40
32.000000
 50
0.000000E+00
 41
0.58 
  1
160
 72
     5
 11
-1289.739862
 21
981.432756
  0
ENDBLK
  0
BLOCK
  8
0
  2
G37
 70
     0
 10
0
 20
0
  0
LINE
  8
0
 62
     7
  6
CONTINUOUS
 10
-1159.187380
 20
793.889268
 11
-1096.266082
 21
793.889268
  0
LINE
  8
0
 62
     7
  6
CONTINUOUS
 10
-1315.239862
 20
633.889268
 11
-1096.266082
 21
633.889268
  0
LINE
  8
0
 62
     7
  6
CONTINUOUS
 10
-1106.266082
 20
793.889268
 11
-1106.266082
 21
633.889268
  0
SOLID
  8
0
 62
     7
 10
-1097.494931
 20
765.200126
 11
-1115.037233
 21
765.200126
 12
-1106.266082
 22
793.889268
 13
-1106.266082
 23
793.889268
  0
SOLID
  8
0
 62
     7
 10
-1115.037233
 20
662.578411
 11
-1097.494931
 21
662.578411
 12
-1106.266082
 22
633.889268
 13
-1106.266082
 23
633.889268
  0
TEXT
  8
0
 62
     7
 10
-1111.599412
 20
685.889268
 40
32.000000
 50
90.000000
 41
0.58 
  1
160
 72
     5
 11
-1111.599412
 21
741.889268
  0
ENDBLK
  0
BLOCK
  8
0
  2
G38
 70
     0
 10
0
 20
0
  0
LINE
  8
0
 62
     7
  6
CONTINUOUS
 10
-1472.739862
 20
428.027117
 11
-1472.739862
 21
471.551724
  0
LINE
  8
0
 62
     7
  6
CONTINUOUS
 10
-1322.739862
 20
428.027117
 11
-1322.739862
 21
471.551724
  0
LINE
  8
0
 62
     7
  6
CONTINUOUS
 10
-1472.739862
 20
461.551724
 11
-1322.739862
 21
461.551724
  0
SOLID
  8
0
 62
     7
 10
-1444.050719
 20
470.322875
 11
-1444.050719
 21
452.780573
 12
-1472.739862
 22
461.551724
 13
-1472.739862
 23
461.551724
  0
SOLID
  8
0
 62
     7
 10
-1351.429004
 20
452.780573
 11
-1351.429004
 21
470.322875
 12
-1322.739862
 22
461.551724
 13
-1322.739862
 23
461.551724
  0
TEXT
  8
0
 62
     7
 10
-1455.739862
 20
466.885054
 40
32.000000
 50
0.000000E+00
 41
0.60 
  1
%%c150
 72
     5
 11
-1339.739862
 21
466.885054
  0
ENDBLK
  0
BLOCK
  8
0
  2
G39
 70
     0
 10
0
 20
0
  0
LINE
  8
0
 62
     7
  6
CONTINUOUS
 10
-1483.739862
 20
248.786486
 11
-1483.739862
 21
533.748668
  0
LINE
  8
0
 62
     7
  6
CONTINUOUS
 10
-1311.739862
 20
238.786486
 11
-1311.739862
 21
533.748668
  0
LINE
  8
0
 62
     7
  6
CONTINUOUS
 10
-1483.739862
 20
523.748668
 11
-1311.739862
 21
523.748668
  0
SOLID
  8
0
 62
     7
 10
-1455.050719
 20
532.519819
 11
-1455.050719
 21
514.977516
 12
-1483.739862
 22
523.748668
 13
-1483.739862
 23
523.748668
  0
SOLID
  8
0
 62
     7
 10
-1340.429004
 20
514.977516
 11
-1340.429004
 21
532.519819
 12
-1311.739862
 22
523.748668
 13
-1311.739862
 23
523.748668
  0
TEXT
  8
0
 62
     7
 10
-1455.739862
 20
529.081997
 40
32.000000
 50
0.000000E+00
 41
0.60 
  1
%%c172
 72
     5
 11
-1339.739862
 21
529.081997
  0
ENDBLK
  0
BLOCK
  8
0
  2
G40
 70
     0
 10
0
 20
0
  0
LINE
  8
0
 62
     7
  6
CONTINUOUS
 10
-1452.739862
 20
-576.972883
 11
-1452.739862
 21
-651.607049
  0
LINE
  8
0
 62
     7
  6
CONTINUOUS
 10
-1342.739862
 20
-576.972883
 11
-1342.739862
 21
-651.607049
  0
LINE
  8
0
 62
     7
  6
CONTINUOUS
 10
-1452.739862
 20
-641.607049
 11
-1342.739862
 21
-641.607049
  0
SOLID
  8
0
 62
     7
 10
-1424.050719
 20
-632.835898
 11
-1424.050719
 21
-650.378201
 12
-1452.739862
 22
-641.607049
 13
-1452.739862
 23
-641.607049
  0
SOLID
  8
0
 62
     7
 10
-1371.429004
 20
-650.378201
 11
-1371.429004
 21
-632.835898
 12
-1342.739862
 22
-641.607049
 13
-1342.739862
 23
-641.607049
  0
TEXT
  8
0
 62
     7
 10
-1455.739862
 20
-636.273720
 40
32.000000
 50
0.000000E+00
 41
0.60 
  1
%%c110
 72
     5
 11
-1339.739862
 21
-636.273720
  0
ENDBLK
  0
BLOCK
  8
0
  2
G41
 70
     0
 10
0
 20
0
  0
LINE
  8
0
 62
     7
  6
CONTINUOUS
 10
-1483.739862
 20
-313.100972
 11
-1483.739862
 21
-716.251332
  0
LINE
  8
0
 62
     7
  6
CONTINUOUS
 10
-1311.739862
 20
-303.100972
 11
-1311.739862
 21
-716.251332
  0
LINE
  8
0
 62
     7
  6
CONTINUOUS
 10
-1483.739862
 20
-706.251332
 11
-1311.739862
 21
-706.251332
  0
SOLID
  8
0
 62
     7
 10
-1455.050719
 20
-697.480181
 11
-1455.050719
 21
-715.022484
 12
-1483.739862
 22
-706.251332
 13
-1483.739862
 23
-706.251332
  0
SOLID
  8
0
 62
     7
 10
-1340.429004
 20
-715.022484
 11
-1340.429004
 21
-697.480181
 12
-1311.739862
 22
-706.251332
 13
-1311.739862
 23
-706.251332
  0
TEXT
  8
0
 62
     7
 10
-1455.739862
 20
-700.918003
 40
32.000000
 50
0.000000E+00
 41
0.60 
  1
%%c172
 72
     5
 11
-1339.739862
 21
-700.918003
  0
ENDBLK
  0
BLOCK
  8
0
  2
G42
 70
     0
 10
0
 20
0
  0
LINE
  8
0
 62
     2
  6
CONTINUOUS
 10
-461.000000
 20
627.000000
 11
-401.000000
 21
627.000000
  0
LINE
  8
0
 62
     2
  6
CONTINUOUS
 10
-401.000000
 20
523.000000
 11
-461.000000
 21
523.000000
  0
LINE
  8
0
 62
     2
  6
CONTINUOUS
 10
-401.000000
 20
630.000000
 11
-396.000000
 21
630.000000
  0
LINE
  8
0
 62
     2
  6
CONTINUOUS
 10
-401.000000
 20
520.000000
 11
-396.000000
 21
520.000000
  0
LINE
  8
0
 62
     2
  6
CONTINUOUS
 10
-401.000000
 20
520.000000
 11
-401.000000
 21
630.000000
  0
LINE
  8
0
 62
     2
  6
CONTINUOUS
 10
-396.000000
 20
520.000000
 11
-396.000000
 21
630.000000
  0
ENDBLK
  0
BLOCK
  8
0
  2
G43
 70
     0
 10
0
 20
0
  0
LINE
  8
0
 62
     2
  6
CONTINUOUS
 10
-501.000000
 20
420.000000
 11
-501.000000
 21
415.000000
  0
LINE
  8
0
 62
     2
  6
CONTINUOUS
 10
-611.000000
 20
420.000000
 11
-611.000000
 21
415.000000
  0
LINE
  8
0
 62
     2
  6
CONTINUOUS
 10
-504.034602
 20
420.000000
 11
-504.430290
 21
476.979167
  0
LINE
  8
0
 62
     2
  6
CONTINUOUS
 10
-607.965398
 20
420.000000
 11
-607.569710
 21
476.979167
  0
LINE
  8
0
 62
     2
  6
CONTINUOUS
 10
-611.000000
 20
420.000000
 11
-501.000000
 21
420.000000
  0
LINE
  8
0
 62
     2
  6
CONTINUOUS
 10
-501.000000
 20
415.000000
 11
-611.000000
 21
415.000000
  0
ENDBLK
  0
BLOCK
  8
0
  2
G44
 70
     0
 10
0
 20
0
  0
LINE
  8
0
 62
     7
  6
CONTINUOUS
 10
-611.000000
 20
405.000000
 11
-611.000000
 21
353.019379
  0
LINE
  8
0
 62
     7
  6
CONTINUOUS
 10
-501.000000
 20
405.000000
 11
-501.000000
 21
353.019379
  0
LINE
  8
0
 62
     7
  6
CONTINUOUS
 10
-611.000000
 20
363.019379
 11
-501.000000
 21
363.019379
  0
SOLID
  8
0
 62
     7
 10
-582.310857
 20
371.790530
 11
-582.310857
 21
354.248228
 12
-611.000000
 22
363.019379
 13
-611.000000
 23
363.019379
  0
SOLID
  8
0
 62
     7
 10
-529.689143
 20
354.248228
 11
-529.689143
 21
371.790530
 12
-501.000000
 22
363.019379
 13
-501.000000
 23
363.019379
  0
TEXT
  8
0
 62
     7
 10
-572.000000
 20
368.352709
 40
32.000000
 50
0.000000E+00
 41
0.86 
  1
Ａ
 72
     5
 11
-540.000000
 21
368.352709
  0
ENDBLK
  0
BLOCK
  8
0
  2
G45
 70
     0
 10
0
 20
0
  0
LINE
  8
0
 62
     7
  6
CONTINUOUS
 10
-386.000000
 20
630.000000
 11
-333.675308
 21
630.000000
  0
LINE
  8
0
 62
     7
  6
CONTINUOUS
 10
-386.000000
 20
520.000000
 11
-333.675308
 21
520.000000
  0
LINE
  8
0
 62
     7
  6
CONTINUOUS
 10
-343.675308
 20
630.000000
 11
-343.675308
 21
520.000000
  0
SOLID
  8
0
 62
     7
 10
-334.904157
 20
601.310857
 11
-352.446459
 21
601.310857
 12
-343.675308
 22
630.000000
 13
-343.675308
 23
630.000000
  0
SOLID
  8
0
 62
     7
 10
-352.446459
 20
548.689143
 11
-334.904157
 21
548.689143
 12
-343.675308
 22
520.000000
 13
-343.675308
 23
520.000000
  0
TEXT
  8
0
 62
     7
 10
-349.008638
 20
559.000000
 40
32.000000
 50
90.000000
 41
0.86 
  1
Ａ
 72
     5
 11
-349.008638
 21
591.000000
  0
ENDBLK
  0
BLOCK
  8
0
  2
G46
 70
     0
 10
0
 20
0
  0
LINE
  8
0
 62
     7
  6
CONTINUOUS
 10
-1228.769688
 20
-155.481581
 11
-1150.662948
 21
-155.481581
  0
LINE
  8
0
 62
     7
  6
CONTINUOUS
 10
-1227.739862
 20
-206.972883
 11
-1150.662948
 21
-206.972883
  0
LINE
  8
0
 62
     7
  6
CONTINUOUS
 10
-1160.662948
 20
-155.481581
 11
-1160.662948
 21
-206.972883
  0
LINE
  8
0
 62
     7
  6
CONTINUOUS
 10
-1160.662948
 20
-155.481581
 11
-1160.662948
 21
-105.481581
  0
SOLID
  8
0
 62
     7
 10
-1169.434099
 20
-126.792438
 11
-1151.891797
 21
-126.792438
 12
-1160.662948
 22
-155.481581
 13
-1160.662948
 23
-155.481581
  0
LINE
  8
0
 62
     7
  6
CONTINUOUS
 10
-1160.662948
 20
-206.972883
 11
-1160.662948
 21
-256.972883
  0
SOLID
  8
0
 62
     7
 10
-1151.891797
 20
-235.662026
 11
-1169.434099
 21
-235.662026
 12
-1160.662948
 22
-206.972883
 13
-1160.662948
 23
-206.972883
  0
TEXT
  8
0
 62
     7
 10
-1165.996278
 20
-197.227232
 40
32.000000
 50
90.000000
 41
0.86 
  1
Ｂ
 72
     5
 11
-1165.996278
 21
-165.227232
  0
ENDBLK
  0
BLOCK
  8
0
  2
G47
 70
     0
 10
0
 20
0
  0
POINT
  8
0
 62
     2
 10
-1310.769688
 20
-148.921581
  0
LINE
  8
0
 62
     2
  6
CENTER
 10
-1227.489859
 20
-155.255985
 11
-1310.769688
 21
-156.921581
  0
LINE
  8
0
 62
     2
  6
CONTINUOUS
 10
-1244.808480
 20
-103.591958
 11
-1302.739862
 21
-104.750586
  0
LINE
  8
0
 62
     2
  6
CONTINUOUS
 10
-1302.723512
 20
-208.272556
 11
-1237.739862
 21
-206.972883
  0
LINE
  8
0
 62
     2
  6
CONTINUOUS
 10
-1244.868468
 20
-100.592558
 11
-1239.869468
 21
-100.492578
  0
LINE
  8
0
 62
     2
  6
CONTINUOUS
 10
-1239.869468
 20
-100.492578
 11
-1237.739862
 21
-206.972883
  0
LINE
  8
0
 62
     2
  6
CONTINUOUS
 10
-1244.868468
 20
-100.592558
 11
-1242.738862
 21
-207.072863
  0
POINT
  8
0
 62
     2
 10
-1238.769688
 20
-155.481581
  0
ENDBLK
  0
BLOCK
  8
0
  2
G48
 70
     0
 10
0
 20
0
  0
CIRCLE
  8
0
 62
     1
  6
CONTINUOUS
 10
-1397.739862
 20
-146.972883
 40
62.000000
  0
LINE
  8
0
 62
     2
  6
CONTINUOUS
 10
-1379.823739
 20
-206.473004
 11
-1415.655985
 21
-206.473004
  0
CIRCLE
  8
0
 62
     2
  6
CONTINUOUS
 10
-1397.739862
 20
-154.472883
 40
47.000000
  0
ARC
  8
0
 62
     2
  6
CONTINUOUS
 10
-1397.739862
 20
-154.472883
 40
55.000000
 50
289.010880
 51
610.989120
  0
LINE
  8
0
 62
     2
  6
CENTER
 10
-1469.453040
 20
-154.472883
 11
-1331.741640
 21
-154.472883
  0
CIRCLE
  8
0
 62
     2
  6
CONTINUOUS
 10
-1397.739862
 20
-154.472883
 40
35.000000
  0
ENDBLK
  0
BLOCK
  8
0
  2
G49
 70
     0
 10
0
 20
0
  0
LINE
  8
0
 62
     7
  6
CONTINUOUS
 10
-1479.453040
 20
-154.472883
 11
-1551.546367
 21
-154.472883
  0
LINE
  8
0
 62
     7
  6
CONTINUOUS
 10
-1425.655985
 20
-206.473004
 11
-1551.546367
 21
-206.473004
  0
LINE
  8
0
 62
     7
  6
CONTINUOUS
 10
-1541.546367
 20
-154.472883
 11
-1541.546367
 21
-206.473004
  0
LINE
  8
0
 62
     7
  6
CONTINUOUS
 10
-1541.546367
 20
-154.472883
 11
-1541.546367
 21
-104.472883
  0
SOLID
  8
0
 62
     7
 10
-1550.317518
 20
-125.783741
 11
-1532.775216
 21
-125.783741
 12
-1541.546367
 22
-154.472883
 13
-1541.546367
 23
-154.472883
  0
LINE
  8
0
 62
     7
  6
CONTINUOUS
 10
-1541.546367
 20
-206.473004
 11
-1541.546367
 21
-256.473004
  0
SOLID
  8
0
 62
     7
 10
-1532.775216
 20
-235.162147
 11
-1550.317518
 21
-235.162147
 12
-1541.546367
 22
-206.473004
 13
-1541.546367
 23
-206.473004
  0
TEXT
  8
0
 62
     7
 10
-1546.879697
 20
-196.472944
 40
32.000000
 50
90.000000
 41
0.86 
  1
Ｂ
 72
     5
 11
-1546.879697
 21
-164.472944
  0
ENDBLK
  0
ENDSEC
  0
SECTION
  2
ENTITIES
  0
LINE
  8
3
 62
     4
  6
CONTINUOUS
 10
-1480.539450
 20
-206.482684
 11
-1477.470568
 21
-205.069332
  0
LINE
  8
3
 62
     4
  6
CONTINUOUS
 10
-1477.470568
 20
-205.069332
 11
-1474.498973
 21
-202.754439
  0
LINE
  8
3
 62
     4
  6
CONTINUOUS
 10
-1474.498973
 20
-202.754439
 11
-1471.670777
 21
-199.573927
  0
LINE
  8
3
 62
     4
  6
CONTINUOUS
 10
-1471.670777
 20
-199.573927
 11
-1469.029870
 21
-195.577153
  0
LINE
  8
3
 62
     4
  6
CONTINUOUS
 10
-1469.029870
 20
-195.577153
 11
-1466.617233
 21
-190.826137
  0
LINE
  8
3
 62
     4
  6
CONTINUOUS
 10
-1466.617233
 20
-190.826137
 11
-1464.470304
 21
-185.394607
  0
LINE
  8
3
 62
     4
  6
CONTINUOUS
 10
-1464.470304
 20
-185.394607
 11
-1462.622401
 21
-179.366849
  0
LINE
  8
3
 62
     4
  6
CONTINUOUS
 10
-1462.622401
 20
-179.366849
 11
-1461.102198
 21
-172.836401
  0
LINE
  8
3
 62
     4
  6
CONTINUOUS
 10
-1461.102198
 20
-172.836401
 11
-1459.933286
 21
-165.904603
  0
LINE
  8
3
 62
     4
  6
CONTINUOUS
 10
-1459.933286
 20
-165.904603
 11
-1459.133805
 21
-158.679022
  0
LINE
  8
3
 62
     4
  6
CONTINUOUS
 10
-1459.933286
 20
-165.904603
 11
-1459.133805
 21
-158.679022
  0
ARC
  8
1
 62
     4
  6
CONTINUOUS
 10
-1291.938544
 20
-112.212691
 40
30.639745
 50
117.551999
 51
146.346996
  0
POINT
  8
3
 62
     7
 10
-1311.739862
 20
-86.972883
  0
POINT
  8
3
 62
     4
 10
-1311.739862
 20
-208.972883
  0
ARC
  8
3
 62
     4
  6
CONTINUOUS
 10
-1308.739862
 20
-211.972883
 40
3.000000
 50
90.000000
 51
180.000000
  0
LINE
  8
3
 62
     4
  6
CONTINUOUS
 10
-1304.739862
 20
-208.972883
 11
-1308.739862
 21
-208.972883
  0
ARC
  8
3
 62
     4
  6
CONTINUOUS
 10
-1304.739862
 20
-206.972883
 40
2.000000
 50
-90.000000
 51
0.000000E+00
  0
LINE
  8
3
 62
     4
  6
CONTINUOUS
 10
-1302.739862
 20
-206.972883
 11
-1302.739862
 21
-86.972883
  0
ARC
  8
3
 62
     4
  6
CONTINUOUS
 10
-1304.739862
 20
-86.972883
 40
2.000000
 50
0.000000E+00
 51
90.000000
  0
LINE
  8
3
 62
     4
  6
CONTINUOUS
 10
-1464.893237
 20
-101.972883
 11
-1440.389598
 21
-101.972883
  0
LINE
  8
0
 62
     2
  6
CONTINUOUS
 10
-1495.739862
 20
-51.471285
 11
-1495.739862
 21
-49.471285
  0
LINE
  8
0
 62
     2
  6
CONTINUOUS
 10
-1502.739862
 20
-48.471285
 11
-1397.739862
 21
-48.471285
  0
LINE
  8
0
 62
     2
  6
CONTINUOUS
 10
-1495.739862
 20
-51.471285
 11
-1299.739862
 21
-51.471285
  0
LINE
  8
0
 62
     2
  6
CONTINUOUS
 10
-1502.739862
 20
-48.471285
 11
-1502.739862
 21
-40.471285
  0
LINE
  8
0
 62
     3
  6
CONTINUOUS
 10
-1311.739862
 20
218.027117
 11
-1311.739862
 21
228.786486
  0
LINE
  8
3
 62
     3
  6
CONTINUOUS
 10
-1322.739862
 20
413.027117
 11
-1397.739862
 21
413.027117
  0
LINE
  8
3
 62
     3
  6
CONTINUOUS
 10
-1472.739862
 20
418.027117
 11
-1322.739862
 21
418.027117
  0
LINE
  8
3
 62
     3
  6
CONTINUOUS
 10
-1472.739862
 20
418.027117
 11
-1472.739862
 21
413.027117
  0
LINE
  8
0
 62
     3
  6
CONTINUOUS
 10
-1311.739862
 20
88.027117
 11
-1311.739862
 21
-33.471285
  0
ARC
  8
3
 62
     3
  6
CONTINUOUS
 10
-1335.739862
 20
341.027117
 40
10.000000
 50
-57.472862
 51
0.000000E+00
  0
LINE
  8
3
 62
     3
  6
CONTINUOUS
 10
-1469.739862
 20
408.444541
 11
-1469.739862
 21
341.027117
  0
LINE
  8
3
 62
     3
  6
CONTINUOUS
 10
-1325.739862
 20
408.444541
 11
-1325.739862
 21
341.027117
  0
ARC
  8
3
 62
     3
  6
CONTINUOUS
 10
-1459.739862
 20
341.027117
 40
10.000000
 50
180.000000
 51
238.038250
  0
LINE
  8
3
 62
     3
  6
CENTER
 10
-1231.806156
 20
153.027117
 11
-1499.665810
 21
153.027117
  0
LINE
  8
0
 62
     2
  6
CONTINUOUS
 10
-1299.739862
 20
-33.471285
 11
-1292.739862
 21
-40.471285
  0
ARC
  8
3
 62
     3
  6
CONTINUOUS
 10
-1474.739862
 20
408.444541
 40
5.000000
 50
0.000000E+00
 51
66.421822
  0
LINE
  8
3
 62
     3
  6
CONTINUOUS
 10
-1322.739862
 20
418.027117
 11
-1322.739862
 21
413.027117
  0
ARC
  8
0
 62
     3
  6
CONTINUOUS
 10
-1346.739862
 20
228.786486
 40
35.000000
 50
0.000000E+00
 51
17.716492
  0
ARC
  8
3
 62
     3
  6
CONTINUOUS
 10
-1320.739862
 20
408.444541
 40
5.000000
 50
113.578178
 51
180.000000
  0
LINE
  8
3
 62
     3
  6
CONTINUOUS
 10
-1320.000839
 20
235.903002
 11
-1397.739862
 21
235.903002
  0
ARC
  8
1
 62
     4
  6
CONTINUOUS
 10
-1304.739862
 20
-206.972883
 40
2.000000
 50
-90.000000
 51
0.000000E+00
  0
ARC
  8
1
 62
     4
  6
CONTINUOUS
 10
-1304.739862
 20
-86.972883
 40
2.000000
 50
0.000000E+00
 51
90.000000
  0
LINE
  8
1
 62
     4
  6
CONTINUOUS
 10
-1302.739862
 20
-86.972883
 11
-1302.739862
 21
-206.972883
  0
ARC
  8
3
 62
     4
  6
CONTINUOUS
 10
-1477.739862
 20
-420.844795
 40
25.000000
 50
0.000000E+00
 51
14.708304
  0
LINE
  8
3
 62
     4
  6
CONTINUOUS
 10
-1482.592945
 20
-301.987407
 11
-1453.559088
 21
-414.497342
  0
ARC
  8
3
 62
     4
  6
CONTINUOUS
 10
-1448.739862
 20
-293.100972
 40
35.000000
 50
180.000000
 51
194.708304
  0
LINE
  8
3
 62
     4
  6
CONTINUOUS
 10
-1452.739862
 20
-420.844795
 11
-1452.739862
 21
-564.972883
  0
ARC
  8
3
 62
     4
  6
CONTINUOUS
 10
-1317.739862
 20
-420.844795
 40
25.000000
 50
165.291696
 51
180.000000
  0
LINE
  8
3
 62
     4
  6
CONTINUOUS
 10
-1312.886778
 20
-301.987407
 11
-1341.920636
 21
-414.497342
  0
ARC
  8
3
 62
     4
  6
CONTINUOUS
 10
-1346.739862
 20
-293.100972
 40
35.000000
 50
-14.708304
 51
0.000000E+00
  0
LINE
  8
3
 62
     4
  6
CONTINUOUS
 10
-1342.739862
 20
-420.844795
 11
-1342.739862
 21
-564.972883
  0
LINE
  8
3
 62
     4
  6
CONTINUOUS
 10
-1344.739862
 20
-566.972883
 11
-1450.739862
 21
-566.972883
  0
LINE
  8
3
 62
     4
  6
CONTINUOUS
 10
-1447.990773
 20
-416.972883
 11
-1347.488951
 21
-416.972883
  0
LINE
  8
3
 62
     4
  6
CONTINUOUS
 10
-1478.488951
 20
-296.972883
 11
-1316.990773
 21
-296.972883
  0
LINE
  8
3
 62
     4
  6
CONTINUOUS
 10
-1483.739862
 20
-296.972883
 11
-1483.739862
 21
-211.972883
  0
LINE
  8
3
 62
     4
  6
CONTINUOUS
 10
-1304.739862
 20
-76.273521
 11
-1490.739862
 21
-76.273521
  0
LINE
  8
3
 62
     4
  6
CONTINUOUS
 10
-1311.739862
 20
-293.100972
 11
-1311.739862
 21
-211.972883
  0
LINE
  8
3
 62
     4
  6
CONTINUOUS
 10
-1501.739862
 20
-66.972883
 11
-1293.739862
 21
-66.972883
  0
LINE
  8
3
 62
     4
  6
CONTINUOUS
 10
-1292.739862
 20
-51.972883
 11
-1502.739862
 21
-51.972883
  0
ARC
  8
3
 62
     4
  6
CONTINUOUS
 10
-1450.739862
 20
-564.972883
 40
2.000000
 50
180.000000
 51
270.000000
  0
ARC
  8
3
 62
     4
  6
CONTINUOUS
 10
-1344.739862
 20
-564.972883
 40
2.000000
 50
-90.000000
 51
0.000000E+00
  0
LINE
  8
3
 62
     4
  6
CONTINUOUS
 10
-1292.739862
 20
-51.972883
 11
-1292.739862
 21
-66.972883
  0
LINE
  8
3
 62
     4
  6
CONTINUOUS
 10
-1293.739862
 20
-66.972883
 11
-1292.739862
 21
-66.972883
  0
LINE
  8
3
 62
     3
  6
CENTER
 10
-1476.228714
 20
-75.916452
 11
-1476.228714
 21
-45.425681
  0
LINE
  8
3
 62
     3
  6
CENTER
 10
-1319.251009
 20
-75.916452
 11
-1319.251009
 21
-45.425681
  0
ARC
  8
3
 62
     4
  6
CONTINUOUS
 10
-1293.739862
 20
-68.972883
 40
2.000000
 50
90.000000
 51
180.000000
  0
LINE
  8
3
 62
     4
  6
CONTINUOUS
 10
-1295.739862
 20
-68.972883
 11
-1295.739862
 21
-70.472883
  0
LINE
  8
3
 62
     4
  6
CONTINUOUS
 10
-1330.586486
 20
-101.972883
 11
-1355.090125
 21
-101.972883
  0
ARC
  8
3
 62
     4
  6
CONTINUOUS
 10
-1297.239862
 20
-70.472883
 40
1.500000
 50
-90.000000
 51
0.000000E+00
  0
LINE
  8
3
 62
     4
  6
CONTINUOUS
 10
-1297.239862
 20
-71.972883
 11
-1498.239862
 21
-71.972883
  0
LINE
  8
3
 62
     4
  6
CONTINUOUS
 10
-1301.180713
 20
-71.972883
 11
-1304.739862
 21
-76.273521
  0
LINE
  8
3
 62
     4
  6
CONTINUOUS
 10
-1304.739862
 20
-76.273521
 11
-1304.739862
 21
-84.972883
  0
LINE
  8
3
 62
     4
  6
CONTINUOUS
 10
-1490.739862
 20
-76.273521
 11
-1490.739862
 21
-84.972883
  0
LINE
  8
3
 62
     4
  6
CONTINUOUS
 10
-1494.299010
 20
-71.972883
 11
-1490.739862
 21
-76.273521
  0
ARC
  8
3
 62
     4
  6
CONTINUOUS
 10
-1498.239862
 20
-70.472883
 40
1.500000
 50
180.000000
 51
270.000000
  0
LINE
  8
3
 62
     4
  6
CONTINUOUS
 10
-1499.739862
 20
-68.972883
 11
-1499.739862
 21
-70.472883
  0
ARC
  8
3
 62
     4
  6
CONTINUOUS
 10
-1501.739862
 20
-68.972883
 40
2.000000
 50
0.000000E+00
 51
90.000000
  0
LINE
  8
3
 62
     4
  6
CONTINUOUS
 10
-1501.739862
 20
-66.972883
 11
-1502.739862
 21
-66.972883
  0
LINE
  8
3
 62
     4
  6
CONTINUOUS
 10
-1502.739862
 20
-51.972883
 11
-1502.739862
 21
-66.972883
  0
LINE
  8
0
 62
     3
  6
CONTINUOUS
 10
-1483.739862
 20
228.786486
 11
-1483.739862
 21
218.027117
  0
ARC
  8
0
 62
     3
  6
CONTINUOUS
 10
-1448.739862
 20
228.786486
 40
35.000000
 50
162.283508
 51
180.000000
  0
LINE
  8
3
 62
     3
  6
CONTINUOUS
 10
-1336.769878
 20
332.543100
 11
-1397.739862
 21
332.543100
  0
LINE
  8
0
 62
     3
  6
CONTINUOUS
 10
-1458.493178
 20
314.836132
 11
-1482.079949
 21
239.437240
  0
LINE
  8
0
 62
     3
  6
CONTINUOUS
 10
-1336.986545
 20
314.836132
 11
-1313.399774
 21
239.437240
  0
ARC
  8
2
 62
     3
  6
CONTINUOUS
 10
-1472.781787
 20
319.400741
 40
15.000000
 50
-17.716492
 51
59.888987
  0
LINE
  8
3
 62
     4
  6
CENTER
 10
-1397.739862
 20
-339.368262
 11
-1397.739862
 21
-27.290674
  0
LINE
  8
3
 62
     4
  6
CENTER
 10
-1397.739862
 20
-580.060403
 11
-1397.739862
 21
-339.368262
  0
LINE
  8
0
 62
     2
  6
CONTINUOUS
 10
-1495.739862
 20
-33.471285
 11
-1502.739862
 21
-40.471285
  0
LINE
  8
0
 62
     3
  6
CONTINUOUS
 10
-1483.739862
 20
88.027117
 11
-1483.739862
 21
-33.471285
  0
ARC
  8
2
 62
     3
  6
CONTINUOUS
 10
-1322.697936
 20
319.400741
 40
15.000000
 50
120.111013
 51
197.716492
  0
LINE
  8
3
 62
     3
  6
CONTINUOUS
 10
-1314.384056
 20
93.387137
 11
-1318.017657
 21
95.061817
  0
LINE
  8
3
 62
     3
  6
CONTINUOUS
 10
-1318.017657
 20
95.061817
 11
-1321.506711
 21
98.065583
  0
LINE
  8
3
 62
     3
  6
CONTINUOUS
 10
-1321.506711
 20
98.065583
 11
-1324.771216
 21
102.329561
  0
LINE
  8
3
 62
     3
  6
CONTINUOUS
 10
-1324.771216
 20
102.329561
 11
-1327.736321
 21
107.755983
  0
LINE
  8
3
 62
     3
  6
CONTINUOUS
 10
-1327.736321
 20
107.755983
 11
-1330.334039
 21
114.220426
  0
LINE
  8
3
 62
     3
  6
CONTINUOUS
 10
-1330.334039
 20
114.220426
 11
-1332.504807
 21
121.574668
  0
LINE
  8
3
 62
     3
  6
CONTINUOUS
 10
-1332.504807
 20
121.574668
 11
-1334.198851
 21
129.650083
  0
LINE
  8
3
 62
     3
  6
CONTINUOUS
 10
-1334.198851
 20
129.650083
 11
-1335.377328
 21
138.261509
  0
LINE
  8
3
 62
     3
  6
CONTINUOUS
 10
-1335.377328
 20
138.261509
 11
-1336.013218
 21
147.211496
  0
LINE
  8
3
 62
     3
  6
CONTINUOUS
 10
-1335.377328
 20
138.261509
 11
-1336.013218
 21
147.211496
  0
INSERT
  8
0
  2
G0
 10
0
 20
0
  0
LINE
  8
3
 62
     3
  6
CONTINUOUS
 10
-1313.926165
 20
212.780203
 11
-1317.621593
 21
211.243850
  0
LINE
  8
3
 62
     3
  6
CONTINUOUS
 10
-1317.621593
 20
211.243850
 11
-1321.177791
 21
208.335574
  0
LINE
  8
3
 62
     3
  6
CONTINUOUS
 10
-1321.177791
 20
208.335574
 11
-1324.510956
 21
204.123910
  0
LINE
  8
3
 62
     3
  6
CONTINUOUS
 10
-1324.510956
 20
204.123910
 11
-1327.542539
 21
198.708111
  0
LINE
  8
3
 62
     3
  6
CONTINUOUS
 10
-1327.542539
 20
198.708111
 11
-1330.201098
 21
192.215803
  0
LINE
  8
3
 62
     3
  6
CONTINUOUS
 10
-1330.201098
 20
192.215803
 11
-1332.423983
 21
184.799983
  0
LINE
  8
3
 62
     3
  6
CONTINUOUS
 10
-1332.423983
 20
184.799983
 11
-1334.158808
 21
176.635411
  0
LINE
  8
3
 62
     3
  6
CONTINUOUS
 10
-1334.158808
 20
176.635411
 11
-1335.364693
 21
167.914490
  0
LINE
  8
3
 62
     3
  6
CONTINUOUS
 10
-1335.364693
 20
167.914490
 11
-1336.013218
 21
158.842737
  0
LINE
  8
3
 62
     3
  6
CONTINUOUS
 10
-1335.364693
 20
167.914490
 11
-1336.013218
 21
158.842737
  0
LINE
  8
0
 62
     7
  6
CONTINUOUS
 10
-1250.260304
 20
259.111644
 11
-1250.260304
 21
217.327305
  0
SOLID
  8
0
 62
     7
 10
-1258.024875
 20
246.305080
 11
-1242.495733
 21
246.305080
 12
-1250.260304
 22
217.327305
 13
-1250.260304
 23
217.327305
  0
INSERT
  8
0
  2
G1
 10
0
 20
0
  0
LINE
  8
0
 62
     3
  6
CONTINUOUS
 10
-1492.739862
 20
213.027117
 11
-1492.739862
 21
93.027117
  0
TEXT
  8
0
 62
     6
 10
-1298.933805
 20
1189.451072
 40
32.000000
 50
0.000000E+00
 41
0.86 
  1
ａ
 72
     5
 11
-1266.933805
 21
1189.451072
  0
TEXT
  8
0
 62
     7
 10
-1283.885785
 20
266.390527
 40
32.000000
 50
0.000000E+00
 41
0.78 
  1
７５枝管
 72
     5
 11
-1171.885785
 21
266.390527
  0
LINE
  8
3
 62
     4
  6
CONTINUOUS
 10
-1466.278439
 20
-103.890495
 11
-1465.108535
 21
-106.791012
  0
LINE
  8
3
 62
     4
  6
CONTINUOUS
 10
-1465.108535
 20
-106.791012
 11
-1464.022686
 21
-109.872809
  0
LINE
  8
3
 62
     4
  6
CONTINUOUS
 10
-1464.022686
 20
-109.872809
 11
-1463.025791
 21
-113.121981
  0
LINE
  8
3
 62
     4
  6
CONTINUOUS
 10
-1463.025791
 20
-113.121981
 11
-1462.122346
 21
-116.523870
  0
LINE
  8
3
 62
     4
  6
CONTINUOUS
 10
-1462.122346
 20
-116.523870
 11
-1461.316427
 21
-120.063128
  0
LINE
  8
3
 62
     4
  6
CONTINUOUS
 10
-1461.316427
 20
-120.063128
 11
-1460.611671
 21
-123.723789
  0
LINE
  8
3
 62
     4
  6
CONTINUOUS
 10
-1460.611671
 20
-123.723789
 11
-1460.011257
 21
-127.489336
  0
LINE
  8
3
 62
     4
  6
CONTINUOUS
 10
-1460.011257
 20
-127.489336
 11
-1459.517893
 21
-131.342783
  0
LINE
  8
3
 62
     4
  6
CONTINUOUS
 10
-1459.517893
 20
-131.342783
 11
-1459.133805
 21
-135.266745
  0
LINE
  8
3
 62
     4
  6
CONTINUOUS
 10
-1459.517893
 20
-131.342783
 11
-1459.133805
 21
-135.266745
  0
ARC
  8
3
 62
     4
  6
CONTINUOUS
 10
-1457.868044
 20
-75.024384
 40
28.500781
 50
225.057601
 51
244.512889
  0
POINT
  8
3
 62
     7
 10
-1483.739862
 20
-86.972883
  0
ARC
  8
3
 62
     4
  6
CONTINUOUS
 10
-1337.611679
 20
-75.024384
 40
28.500781
 50
295.487111
 51
314.942399
  0
ARC
  8
1
 62
     4
  6
CONTINUOUS
 10
-1490.739862
 20
-206.972883
 40
2.000000
 50
180.000000
 51
270.000000
  0
ARC
  8
1
 62
     4
  6
CONTINUOUS
 10
-1490.739862
 20
-86.972883
 40
2.000000
 50
90.000000
 51
180.000000
  0
ARC
  8
1
 62
     4
  6
CONTINUOUS
 10
-1486.739862
 20
-211.972883
 40
3.000000
 50
0.000000E+00
 51
90.000000
  0
LINE
  8
1
 62
     4
  6
CONTINUOUS
 10
-1486.739862
 20
-208.972883
 11
-1490.739862
 21
-208.972883
  0
ARC
  8
1
 62
     4
  6
CONTINUOUS
 10
-1503.541179
 20
-112.212691
 40
30.639745
 50
33.671563
 51
62.448001
  0
LINE
  8
1
 62
     4
  6
CONTINUOUS
 10
-1492.739862
 20
-86.972883
 11
-1492.739862
 21
-206.972883
  0
LINE
  8
3
 62
     4
  6
CONTINUOUS
 10
-1329.201285
 20
-103.890495
 11
-1330.257896
 21
-106.492581
  0
LINE
  8
3
 62
     4
  6
CONTINUOUS
 10
-1330.257896
 20
-106.492581
 11
-1331.246832
 21
-109.242603
  0
LINE
  8
3
 62
     4
  6
CONTINUOUS
 10
-1331.246832
 20
-109.242603
 11
-1332.164480
 21
-112.130513
  0
LINE
  8
3
 62
     4
  6
CONTINUOUS
 10
-1332.164480
 20
-112.130513
 11
-1333.007484
 21
-115.145756
  0
LINE
  8
3
 62
     4
  6
CONTINUOUS
 10
-1333.007484
 20
-115.145756
 11
-1333.772766
 21
-118.277312
  0
LINE
  8
3
 62
     4
  6
CONTINUOUS
 10
-1333.772766
 20
-118.277312
 11
-1334.457527
 21
-121.513737
  0
LINE
  8
3
 62
     4
  6
CONTINUOUS
 10
-1334.457527
 20
-121.513737
 11
-1335.059265
 21
-124.843204
  0
LINE
  8
3
 62
     4
  6
CONTINUOUS
 10
-1335.059265
 20
-124.843204
 11
-1335.575782
 21
-128.253545
  0
LINE
  8
3
 62
     4
  6
CONTINUOUS
 10
-1335.575782
 20
-128.253545
 11
-1336.005189
 21
-131.732296
  0
LINE
  8
3
 62
     4
  6
CONTINUOUS
 10
-1336.005189
 20
-131.732296
 11
-1336.345918
 21
-135.266745
  0
LINE
  8
3
 62
     4
  6
CONTINUOUS
 10
-1336.005189
 20
-131.732296
 11
-1336.345918
 21
-135.266745
  0
LINE
  8
0
 62
     3
  6
CONTINUOUS
 10
-737.678113
 20
421.603787
 11
-737.678113
 21
331.864865
  0
SOLID
  8
0
 62
     3
 10
-729.913542
 20
392.626012
 11
-745.442684
 21
392.626012
 12
-737.678113
 22
421.603787
 13
-737.678113
 23
421.603787
  0
LINE
  8
3
 62
     4
  6
CONTINUOUS
 10
-1314.940273
 20
-206.482684
 11
-1318.009156
 21
-205.069332
  0
LINE
  8
3
 62
     4
  6
CONTINUOUS
 10
-1318.009156
 20
-205.069332
 11
-1320.980751
 21
-202.754439
  0
LINE
  8
3
 62
     4
  6
CONTINUOUS
 10
-1320.980751
 20
-202.754439
 11
-1323.808946
 21
-199.573927
  0
LINE
  8
3
 62
     4
  6
CONTINUOUS
 10
-1323.808946
 20
-199.573927
 11
-1326.449853
 21
-195.577153
  0
LINE
  8
3
 62
     4
  6
CONTINUOUS
 10
-1326.449853
 20
-195.577153
 11
-1328.862491
 21
-190.826137
  0
LINE
  8
3
 62
     4
  6
CONTINUOUS
 10
-1328.862491
 20
-190.826137
 11
-1331.009419
 21
-185.394607
  0
LINE
  8
3
 62
     4
  6
CONTINUOUS
 10
-1331.009419
 20
-185.394607
 11
-1332.857323
 21
-179.366849
  0
LINE
  8
3
 62
     4
  6
CONTINUOUS
 10
-1332.857323
 20
-179.366849
 11
-1334.377525
 21
-172.836401
  0
LINE
  8
3
 62
     4
  6
CONTINUOUS
 10
-1334.377525
 20
-172.836401
 11
-1335.546437
 21
-165.904603
  0
LINE
  8
3
 62
     4
  6
CONTINUOUS
 10
-1335.546437
 20
-165.904603
 11
-1336.345918
 21
-158.679022
  0
LINE
  8
3
 62
     4
  6
CONTINUOUS
 10
-1335.546437
 20
-165.904603
 11
-1336.345918
 21
-158.679022
  0
LINE
  8
0
 62
     3
  6
CONTINUOUS
 10
-1011.922336
 20
412.218357
 11
-1011.922336
 21
544.164955
  0
SOLID
  8
0
 62
     3
 10
-1019.686908
 20
441.196132
 11
-1004.157765
 21
441.196132
 12
-1011.922336
 22
412.218357
 13
-1011.922336
 23
412.218357
  0
POINT
  8
0
 62
     3
 10
-1397.739862
 20
-59.972883
  0
POINT
  8
0
 62
     3
 10
-1397.739862
 20
-74.472883
  0
POINT
  8
0
 62
     3
 10
-1397.739862
 20
-96.972883
  0
ARC
  8
0
 62
     2
  6
CONTINUOUS
 10
-1496.739862
 20
-49.471285
 40
1.000000
 50
360.000000
 51
450.000000
  0
LINE
  8
0
 62
     2
  6
CONTINUOUS
 10
-1495.739862
 20
-33.471285
 11
-1299.739862
 21
-33.471285
  0
LINE
  8
3
 62
     3
  6
CONTINUOUS
 10
-1242.739862
 20
90.527117
 11
-1242.739862
 21
213.027117
  0
LINE
  8
3
 62
     3
  6
CONTINUOUS
 10
-1242.739862
 20
90.527117
 11
-1237.739862
 21
90.527117
  0
LINE
  8
3
 62
     3
  6
CONTINUOUS
 10
-1242.739862
 20
213.027117
 11
-1302.739862
 21
213.027117
  0
ARC
  8
1
 62
     3
  6
CONTINUOUS
 10
-1304.739862
 20
93.027117
 40
2.000000
 50
-90.000000
 51
0.000000E+00
  0
LINE
  8
3
 62
     3
  6
CONTINUOUS
 10
-1242.739862
 20
93.027117
 11
-1302.739862
 21
93.027117
  0
LINE
  8
3
 62
     3
  6
CONTINUOUS
 10
-1242.739862
 20
215.527117
 11
-1237.739862
 21
215.527117
  0
LINE
  8
3
 62
     3
  6
CONTINUOUS
 10
-1242.739862
 20
215.527117
 11
-1242.739862
 21
213.027117
  0
LINE
  8
3
 62
     3
  6
CONTINUOUS
 10
-1237.739862
 20
215.527117
 11
-1237.739862
 21
90.527117
  0
LINE
  8
1
 62
     3
  6
CONTINUOUS
 10
-1304.739862
 20
215.027117
 11
-1308.739862
 21
215.027117
  0
LINE
  8
1
 62
     3
  6
CONTINUOUS
 10
-1304.739862
 20
91.027117
 11
-1308.739862
 21
91.027117
  0
ARC
  8
1
 62
     3
  6
CONTINUOUS
 10
-1304.739862
 20
213.027117
 40
2.000000
 50
0.000000E+00
 51
90.000000
  0
ARC
  8
1
 62
     3
  6
CONTINUOUS
 10
-1308.739862
 20
218.027117
 40
3.000000
 50
180.000000
 51
270.000000
  0
ARC
  8
1
 62
     3
  6
CONTINUOUS
 10
-1308.739862
 20
88.027117
 40
3.000000
 50
90.000000
 51
180.000000
  0
ARC
  8
0
 62
     3
  6
CONTINUOUS
 10
-1346.739862
 20
228.786486
 40
35.000000
 50
0.000000E+00
 51
17.716492
  0
LINE
  8
0
 62
     3
  6
CONTINUOUS
 10
-1311.739862
 20
228.786486
 11
-1311.739862
 21
218.027117
  0
LINE
  8
0
 62
     2
  6
CONTINUOUS
 10
-1502.739862
 20
-40.471285
 11
-1397.739862
 21
-40.471285
  0
LINE
  8
3
 62
     3
  6
CENTER
 10
-1397.739862
 20
425.501565
 11
-1397.739862
 21
-27.290674
  0
LINE
  8
3
 62
     3
  6
CONTINUOUS
 10
-1475.478884
 20
235.903002
 11
-1397.739862
 21
235.903002
  0
LINE
  8
3
 62
     3
  6
CONTINUOUS
 10
-1458.709846
 20
332.543100
 11
-1397.739862
 21
332.543100
  0
LINE
  8
3
 62
     3
  6
CONTINUOUS
 10
-1472.739862
 20
413.027117
 11
-1397.739862
 21
413.027117
  0
POINT
  8
0
 62
     3
 10
-1397.739862
 20
343.027117
  0
TEXT
  8
0
 62
     6
 10
-1663.166393
 20
1098.812443
 40
35.000000
 50
0.000000E+00
 41
0.76 
  1
４ＳＦ－　　　－　　　　　　　　　００－Ｐ
 72
     5
 11
-1026.166393
 21
1098.812443
  0
INSERT
  8
0
  2
G2
 10
0
 20
0
  0
LINE
  8
0
 62
     1
  6
CONTINUOUS
 10
-461.000000
 20
640.638816
 11
-461.000000
 21
721.624747
  0
LINE
  8
0
 62
     2
  6
CONTINUOUS
 10
-1292.739862
 20
-48.471285
 11
-1292.739862
 21
-40.471285
  0
LINE
  8
0
 62
     2
  6
CONTINUOUS
 10
-1299.739862
 20
-51.471285
 11
-1299.739862
 21
-49.471285
  0
ARC
  8
0
 62
     2
  6
CONTINUOUS
 10
-1298.739862
 20
-49.471285
 40
1.000000
 50
90.000000
 51
180.000000
  0
LINE
  8
0
 62
     2
  6
CONTINUOUS
 10
-1292.739862
 20
-40.471285
 11
-1397.739862
 21
-40.471285
  0
LINE
  8
0
 62
     2
  6
CONTINUOUS
 10
-1292.739862
 20
-48.471285
 11
-1397.739862
 21
-48.471285
  0
INSERT
  8
0
  2
G3
 10
0
 20
0
  0
INSERT
  8
0
  2
G4
 10
0
 20
0
  0
INSERT
  8
0
  2
G5
 10
0
 20
0
  0
INSERT
  8
0
  2
G6
 10
0
 20
0
  0
ARC
  8
0
 62
     4
  6
CONTINUOUS
 10
-556.000000
 20
575.000000
 40
100.000000
 50
126.038338
 51
143.961662
  0
ARC
  8
3
 62
     3
  6
CONTINUOUS
 10
-556.000000
 20
575.000000
 40
105.000000
 50
170.096801
 51
190.978618
  0
ARC
  8
0
 62
     4
  6
CONTINUOUS
 10
-556.000000
 20
575.000000
 40
100.000000
 50
36.038338
 51
53.961662
  0
ARC
  8
0
 62
     4
  6
CONTINUOUS
 10
-556.000000
 20
575.000000
 40
100.000000
 50
306.038338
 51
323.961662
  0
CIRCLE
  8
3
 62
     4
  6
CONTINUOUS
 10
-556.000000
 20
575.000000
 40
88.000000
  0
LINE
  8
3
 62
     3
  6
CONTINUOUS
 10
-1481.553558
 20
212.780203
 11
-1478.222826
 21
211.460076
  0
LINE
  8
3
 62
     3
  6
CONTINUOUS
 10
-1478.222826
 20
211.460076
 11
-1474.997947
 21
209.024148
  0
LINE
  8
3
 62
     3
  6
CONTINUOUS
 10
-1474.997947
 20
209.024148
 11
-1471.940503
 21
205.518932
  0
LINE
  8
3
 62
     3
  6
CONTINUOUS
 10
-1471.940503
 20
205.518932
 11
-1469.108876
 21
201.011363
  0
LINE
  8
3
 62
     3
  6
CONTINUOUS
 10
-1469.108876
 20
201.011363
 11
-1466.557137
 21
195.587514
  0
LINE
  8
3
 62
     3
  6
CONTINUOUS
 10
-1466.557137
 20
195.587514
 11
-1464.334012
 21
189.350956
  0
LINE
  8
3
 62
     3
  6
CONTINUOUS
 10
-1464.334012
 20
189.350956
 11
-1462.481955
 21
182.420778
  0
LINE
  8
3
 62
     3
  6
CONTINUOUS
 10
-1462.481955
 20
182.420778
 11
-1461.036329
 21
174.929317
  0
LINE
  8
3
 62
     3
  6
CONTINUOUS
 10
-1461.036329
 20
174.929317
 11
-1460.024740
 21
167.019623
  0
LINE
  8
3
 62
     3
  6
CONTINUOUS
 10
-1460.024740
 20
167.019623
 11
-1459.466506
 21
158.842737
  0
LINE
  8
3
 62
     3
  6
CONTINUOUS
 10
-1460.024740
 20
167.019623
 11
-1459.466506
 21
158.842737
  0
ARC
  8
3
 62
     4
  6
CONTINUOUS
 10
-556.000000
 20
575.000000
 40
100.000000
 50
143.109614
 51
216.890386
  0
LINE
  8
3
 62
     4
  6
CONTINUOUS
 10
-647.250931
 20
655.964607
 11
-659.453628
 21
593.061853
  0
ARC
  8
3
 62
     3
  6
CONTINUOUS
 10
-556.000000
 20
575.000000
 40
105.000000
 50
-10.978618
 51
9.903199
  0
ARC
  8
3
 62
     3
  6
CONTINUOUS
 10
-556.000000
 20
575.000000
 40
105.000000
 50
260.096801
 51
279.903199
  0
LINE
  8
3
 62
     4
  6
CONTINUOUS
 10
-647.250931
 20
494.035393
 11
-659.453628
 21
556.938147
  0
LINE
  8
3
 62
     3
  6
CENTER
 10
-487.288243
 20
506.288243
 11
-466.607067
 21
485.607067
  0
LINE
  8
3
 62
     4
  6
CONTINUOUS
 10
-636.964607
 20
483.749069
 11
-574.061853
 21
471.546372
  0
ARC
  8
3
 62
     4
  6
CENTER
 10
-556.000000
 20
575.000000
 40
111.000000
 50
306.265016
 51
322.275712
  0
LINE
  8
3
 62
     3
  6
CENTER
 10
-623.637531
 20
507.362469
 11
-646.149487
 21
484.850513
  0
ARC
  8
3
 62
     4
  6
CENTER
 10
-556.000000
 20
575.000000
 40
111.000000
 50
216.069475
 51
234.182385
  0
ARC
  8
3
 62
     4
  6
CENTER
 10
-556.000000
 20
575.000000
 40
111.000000
 50
124.449115
 51
144.970079
  0
LINE
  8
3
 62
     4
  6
CONTINUOUS
 10
-475.035393
 20
483.749069
 11
-537.938147
 21
471.546372
  0
LINE
  8
3
 62
     4
  6
CONTINUOUS
 10
-575.996478
 20
678.078324
 11
-636.964607
 21
666.250931
  0
LINE
  8
3
 62
     3
  6
CENTER
 10
-623.991228
 20
642.991228
 11
-645.941928
 21
664.941928
  0
LINE
  8
3
 62
     4
  6
CONTINUOUS
 10
-464.749069
 20
494.035393
 11
-452.921676
 21
555.003522
  0
ARC
  8
3
 62
     4
  6
CONTINUOUS
 10
-477.511147
 20
496.511147
 40
13.000000
 50
280.978618
 51
349.021382
  0
ARC
  8
3
 62
     4
  6
CONTINUOUS
 10
-634.488853
 20
496.511147
 40
13.000000
 50
190.978618
 51
259.021382
  0
ARC
  8
3
 62
     4
  6
CONTINUOUS
 10
-634.488853
 20
653.488853
 40
13.000000
 50
100.978618
 51
169.021382
  0
LINE
  8
3
 62
     3
  6
CENTER
 10
-488.014135
 20
642.985865
 11
-466.273441
 21
664.726559
  0
LINE
  8
3
 62
     4
  6
CONTINUOUS
 10
-464.749069
 20
655.964607
 11
-452.546372
 21
593.061853
  0
LINE
  8
3
 62
     4
  6
CONTINUOUS
 10
-475.035393
 20
666.250931
 11
-536.003522
 21
678.078324
  0
ARC
  8
3
 62
     3
  6
CONTINUOUS
 10
-556.000000
 20
575.000000
 40
105.000000
 50
79.021382
 51
100.978618
  0
CIRCLE
  8
3
 62
     3
  6
CONTINUOUS
 10
-556.000000
 20
575.000000
 40
81.000000
  0
ARC
  8
3
 62
     4
  6
CONTINUOUS
 10
-477.511147
 20
653.488853
 40
13.000000
 50
10.978618
 51
79.021382
  0
LINE
  8
3
 62
     3
  6
CENTER
 10
-387.959938
 20
575.000000
 11
-675.895985
 21
575.000000
  0
LINE
  8
3
 62
     3
  6
CENTER
 10
-556.000000
 20
400.714592
 11
-556.000000
 21
688.766137
  0
CIRCLE
  8
3
 62
     4
  6
CONTINUOUS
 10
-634.488853
 20
653.488853
 40
7.000000
  0
CIRCLE
  8
3
 62
     4
  6
CONTINUOUS
 10
-477.511147
 20
653.488853
 40
7.000000
  0
CIRCLE
  8
3
 62
     4
  6
CONTINUOUS
 10
-477.511147
 20
496.511147
 40
7.000000
  0
CIRCLE
  8
3
 62
     4
  6
CONTINUOUS
 10
-634.488853
 20
496.511147
 40
7.000000
  0
ARC
  8
3
 62
     4
  6
CENTER
 10
-556.000000
 20
575.000000
 40
111.000000
 50
37.018997
 51
55.489571
  0
ARC
  8
3
 62
     4
  6
CONTINUOUS
 10
-556.000000
 20
575.000000
 40
100.000000
 50
53.109614
 51
126.890386
  0
ARC
  8
3
 62
     4
  6
CONTINUOUS
 10
-556.000000
 20
575.000000
 40
100.000000
 50
323.109614
 51
396.890386
  0
ARC
  8
3
 62
     4
  6
CONTINUOUS
 10
-556.000000
 20
575.000000
 40
100.000000
 50
233.109614
 51
306.890386
  0
ARC
  8
0
 62
     4
  6
CONTINUOUS
 10
-556.000000
 20
575.000000
 40
100.000000
 50
216.038338
 51
233.961662
  0
INSERT
  8
0
  2
G7
 10
0
 20
0
  0
TEXT
  8
0
 62
     6
 10
-1480.183521
 20
1098.910129
 40
35.000000
 50
0.000000E+00
 41
0.86 
  1
Ｃ
 72
     5
 11
-1445.183521
 21
1098.910129
  0
TEXT
  8
0
 62
     6
 10
-1359.509580
 20
1099.910129
 40
35.000000
 50
0.000000E+00
 41
0.86 
  1
Ｃ
 72
     5
 11
-1324.509580
 21
1099.910129
  0
TEXT
  8
0
 62
     6
 10
-1388.009580
 20
1164.959535
 40
32.000000
 50
0.000000E+00
 41
0.97 
  1
下部
 72
     5
 11
-1316.009580
 21
1164.959535
  0
TEXT
  8
0
 62
     6
 10
-1508.009580
 20
1164.959535
 40
32.000000
 50
0.000000E+00
 41
0.97 
  1
上部
 72
     5
 11
-1436.009580
 21
1164.959535
  0
LINE
  8
3
 62
     3
  6
CENTER
 10
-1397.739862
 20
895.987720
 11
-1397.739862
 21
620.839191
  0
LINE
  8
3
 62
     3
  6
CENTER
 10
-1232.263693
 20
793.889268
 11
-1503.933185
 21
793.889268
  0
CIRCLE
  8
0
 62
     3
  6
CONTINUOUS
 10
-1397.739862
 20
793.889268
 40
75.000000
  0
CIRCLE
  8
0
 62
     3
  6
CONTINUOUS
 10
-1397.739862
 20
793.889268
 40
86.500000
  0
LINE
  8
3
 62
     3
  6
CONTINUOUS
 10
-1242.739862
 20
733.889268
 11
-1302.739862
 21
733.889268
  0
INSERT
  8
0
  2
G8
 10
0
 20
0
  0
LINE
  8
3
 62
     3
  6
CONTINUOUS
 10
-1242.739862
 20
856.389268
 11
-1242.739862
 21
733.889268
  0
LINE
  8
3
 62
     3
  6
CONTINUOUS
 10
-1242.739862
 20
856.389268
 11
-1237.739862
 21
856.389268
  0
LINE
  8
3
 62
     3
  6
CONTINUOUS
 10
-1242.739862
 20
731.389268
 11
-1237.739862
 21
731.389268
  0
TEXT
  8
0
 62
     6
 10
-1238.933805
 20
1189.451072
 40
32.000000
 50
0.000000E+00
 41
0.86 
  1
ｂ
 72
     5
 11
-1206.933805
 21
1189.451072
  0
CIRCLE
  8
0
 62
     6
  6
HIDDEN
 10
-1223.802953
 20
1113.777279
 40
20.000000
  0
TEXT
  8
0
 62
     6
 10
-1231.802953
 20
1097.777279
 40
32.000000
 50
0.000000E+00
 41
0.50 
  1
2
 72
     5
 11
-1215.802953
 21
1097.777279
  0
CIRCLE
  8
0
 62
     6
  6
HIDDEN
 10
-1223.802953
 20
1161.810698
 40
20.000000
  0
TEXT
  8
0
 62
     6
 10
-1231.802953
 20
1145.810698
 40
32.000000
 50
0.000000E+00
 41
0.50 
  1
1
 72
     5
 11
-1215.802953
 21
1145.810698
  0
TEXT
  8
0
 62
     6
 10
-501.793661
 20
916.134541
 40
32.000000
 50
0.000000E+00
 41
0.50 
  1
3
 72
     5
 11
-485.793661
 21
916.134541
  0
TEXT
  8
0
 62
     6
 10
-501.793661
 20
976.134541
 40
32.000000
 50
0.000000E+00
 41
0.50 
  1
2
 72
     5
 11
-485.793661
 21
976.134541
  0
TEXT
  8
0
 62
     6
 10
-501.793661
 20
1036.134541
 40
32.000000
 50
0.000000E+00
 41
0.50 
  1
1
 72
     5
 11
-485.793661
 21
1036.134541
  0
TEXT
  8
0
 62
     6
 10
-470.705692
 20
919.530401
 40
32.000000
 50
0.000000E+00
 41
0.74 
  1
：％％ｃ７５枝管
 72
     5
 11
-258.705692
 21
919.530401
  0
TEXT
  8
0
 62
     6
 10
-470.705692
 20
979.530401
 40
32.000000
 50
0.000000E+00
 41
0.74 
  1
：％％ｃ６５枝管
 72
     5
 11
-258.705692
 21
979.530401
  0
TEXT
  8
0
 62
     6
 10
-470.705692
 20
1039.530401
 40
32.000000
 50
0.000000E+00
 41
0.74 
  1
：％％ｃ５０枝管
 72
     5
 11
-258.705692
 21
1039.530401
  0
TEXT
  8
0
 62
     6
 10
-568.581501
 20
1092.505821
 40
32.000000
 50
0.000000E+00
 41
0.97 
  1
枝管のタイプ（呼び径）
 72
     5
 11
-172.581501
 21
1092.505821
  0
LINE
  8
3
 62
     3
  6
CONTINUOUS
 10
-1242.739862
 20
731.389268
 11
-1242.739862
 21
733.889268
  0
LINE
  8
3
 62
     3
  6
CONTINUOUS
 10
-1237.739862
 20
731.389268
 11
-1237.739862
 21
856.389268
  0
LINE
  8
3
 62
     3
  6
CONTINUOUS
 10
-1242.739862
 20
853.889268
 11
-1302.739862
 21
853.889268
  0
LINE
  8
0
 62
     3
  6
CONTINUOUS
 10
-1302.739862
 20
733.889268
 11
-1302.739862
 21
853.889268
  0
LINE
  8
0
 62
     3
  6
CONTINUOUS
 10
-1304.739862
 20
731.889268
 11
-1332.739862
 21
731.889268
  0
ARC
  8
0
 62
     3
  6
CONTINUOUS
 10
-1304.739862
 20
733.889268
 40
2.000000
 50
-90.000000
 51
0.000000E+00
  0
LINE
  8
0
 62
     3
  6
CONTINUOUS
 10
-1304.739862
 20
855.889268
 11
-1337.421954
 21
855.889268
  0
ARC
  8
0
 62
     3
  6
CONTINUOUS
 10
-1304.739862
 20
853.889268
 40
2.000000
 50
0.000000E+00
 51
90.000000
  0
CIRCLE
  8
0
 62
     3
  6
CONTINUOUS
 10
-1397.739862
 20
793.889268
 40
52.000000
  0
CIRCLE
  8
0
 62
     3
  6
CONTINUOUS
 10
-1397.739862
 20
793.889268
 40
67.000000
  0
ARC
  8
0
 62
     3
  6
CONTINUOUS
 10
-1462.739862
 20
728.889268
 40
3.000000
 50
0.000000E+00
 51
90.000000
  0
ARC
  8
0
 62
     3
  6
CONTINUOUS
 10
-1332.739862
 20
728.889268
 40
3.000000
 50
90.000000
 51
180.000000
  0
LINE
  8
0
 62
     3
  6
CONTINUOUS
 10
-1492.739862
 20
853.889268
 11
-1492.739862
 21
733.889268
  0
LINE
  8
0
 62
     3
  6
CONTINUOUS
 10
-1490.739862
 20
855.889268
 11
-1458.057769
 21
855.889268
  0
ARC
  8
0
 62
     3
  6
CONTINUOUS
 10
-1490.739862
 20
853.889268
 40
2.000000
 50
90.000000
 51
180.000000
  0
LINE
  8
0
 62
     3
  6
CONTINUOUS
 10
-1490.739862
 20
731.889268
 11
-1462.739862
 21
731.889268
  0
ARC
  8
0
 62
     3
  6
CONTINUOUS
 10
-1490.739862
 20
733.889268
 40
2.000000
 50
180.000000
 51
270.000000
  0
LINE
  8
0
 62
     3
  6
CONTINUOUS
 10
-1337.739862
 20
698.889268
 11
-1457.739862
 21
698.889268
  0
LINE
  8
0
 62
     3
  6
CONTINUOUS
 10
-1335.739862
 20
700.889268
 11
-1335.739862
 21
728.889268
  0
ARC
  8
0
 62
     3
  6
CONTINUOUS
 10
-1337.739862
 20
700.889268
 40
2.000000
 50
270.000000
 51
360.000000
  0
LINE
  8
0
 62
     3
  6
CONTINUOUS
 10
-1459.739862
 20
700.889268
 11
-1459.739862
 21
728.889268
  0
ARC
  8
0
 62
     3
  6
CONTINUOUS
 10
-1457.739862
 20
700.889268
 40
2.000000
 50
180.000000
 51
270.000000
  0
LINE
  8
0
 62
     1
  6
CONTINUOUS
 10
-1227.513525
 20
793.889268
 11
-1201.715340
 21
793.889268
  0
LINE
  8
0
 62
     3
  6
CONTINUOUS
 10
-230.403187
 20
179.859874
 11
-509.380616
 21
179.859874
  0
INSERT
  8
0
  2
G9
 10
0
 20
0
  0
INSERT
  8
0
  2
G10
 10
0
 20
0
  0
INSERT
  8
0
  2
G11
 10
0
 20
0
  0
INSERT
  8
0
  2
G12
 10
0
 20
0
  0
INSERT
  8
0
  2
G13
 10
0
 20
0
  0
INSERT
  8
0
  2
G14
 10
0
 20
0
  0
INSERT
  8
0
  2
G15
 10
0
 20
0
  0
LINE
  8
3
 62
     3
  6
CONTINUOUS
 10
-1335.239862
 20
638.889268
 11
-1457.739862
 21
638.889268
  0
LINE
  8
3
 62
     3
  6
CONTINUOUS
 10
-1335.239862
 20
638.889268
 11
-1335.239862
 21
633.889268
  0
LINE
  8
3
 62
     3
  6
CONTINUOUS
 10
-1460.239862
 20
638.889268
 11
-1460.239862
 21
633.889268
  0
LINE
  8
3
 62
     3
  6
CONTINUOUS
 10
-1460.239862
 20
638.889268
 11
-1457.739862
 21
638.889268
  0
LINE
  8
3
 62
     3
  6
CONTINUOUS
 10
-1460.239862
 20
633.889268
 11
-1335.239862
 21
633.889268
  0
LINE
  8
0
 62
     3
  6
CONTINUOUS
 10
-1191.943196
 20
643.753184
 11
-1191.943196
 21
566.156757
  0
SOLID
  8
0
 62
     3
 10
-1184.178625
 20
614.775409
 11
-1199.707768
 21
614.775409
 12
-1191.943196
 22
643.753184
 13
-1191.943196
 23
643.753184
  0
LINE
  8
3
 62
     3
  6
CONTINUOUS
 10
-1337.739862
 20
638.889268
 11
-1337.739862
 21
698.889268
  0
LINE
  8
3
 62
     3
  6
CONTINUOUS
 10
-1457.739862
 20
638.889268
 11
-1457.739862
 21
698.889268
  0
INSERT
  8
0
  2
G16
 10
0
 20
0
  0
LINE
  8
3
 62
     3
  6
CONTINUOUS
 10
-1481.095668
 20
93.387137
 11
-1477.820276
 21
94.833664
  0
LINE
  8
3
 62
     3
  6
CONTINUOUS
 10
-1477.820276
 20
94.833664
 11
-1474.655356
 21
97.361380
  0
LINE
  8
3
 62
     3
  6
CONTINUOUS
 10
-1474.655356
 20
97.361380
 11
-1471.659709
 21
100.923324
  0
LINE
  8
3
 62
     3
  6
CONTINUOUS
 10
-1471.659709
 20
100.923324
 11
-1468.888992
 21
105.453317
  0
LINE
  8
3
 62
     3
  6
CONTINUOUS
 10
-1468.888992
 20
105.453317
 11
-1466.394683
 21
110.867195
  0
LINE
  8
3
 62
     3
  6
CONTINUOUS
 10
-1466.394683
 20
110.867195
 11
-1464.223123
 21
117.064373
  0
LINE
  8
3
 62
     3
  6
CONTINUOUS
 10
-1464.223123
 20
117.064373
 11
-1462.414660
 21
123.929711
  0
LINE
  8
3
 62
     3
  6
CONTINUOUS
 10
-1462.414660
 20
123.929711
 11
-1461.002892
 21
131.335657
  0
LINE
  8
3
 62
     3
  6
CONTINUOUS
 10
-1461.002892
 20
131.335657
 11
-1460.014050
 21
139.144613
  0
LINE
  8
3
 62
     3
  6
CONTINUOUS
 10
-1460.014050
 20
139.144613
 11
-1459.466506
 21
147.211496
  0
LINE
  8
3
 62
     3
  6
CONTINUOUS
 10
-1460.014050
 20
139.144613
 11
-1459.466506
 21
147.211496
  0
ARC
  8
1
 62
     3
  6
CONTINUOUS
 10
-1490.739862
 20
93.027117
 40
2.000000
 50
180.000000
 51
270.000000
  0
LINE
  8
1
 62
     3
  6
CONTINUOUS
 10
-1490.739862
 20
215.027117
 11
-1487.239862
 21
215.027117
  0
LINE
  8
1
 62
     3
  6
CONTINUOUS
 10
-1490.739862
 20
91.027117
 11
-1487.239862
 21
91.027117
  0
ARC
  8
1
 62
     3
  6
CONTINUOUS
 10
-1490.739862
 20
213.027117
 40
2.000000
 50
90.000000
 51
180.000000
  0
INSERT
  8
0
  2
G17
 10
0
 20
0
  0
ARC
  8
1
 62
     3
  6
CONTINUOUS
 10
-1487.239862
 20
218.027117
 40
3.000000
 50
270.000000
 51
360.000000
  0
INSERT
  8
0
  2
G18
 10
0
 20
0
  0
INSERT
  8
0
  2
G19
 10
0
 20
0
  0
LINE
  8
0
 62
     1
  6
CONTINUOUS
 10
-1160.662948
 20
153.027117
 11
-1143.786954
 21
153.027117
  0
LINE
  8
0
 62
     1
  6
CONTINUOUS
 10
-1030.662948
 20
153.027117
 11
-1160.662948
 21
153.027117
  0
TEXT
  8
0
 62
     3
 10
-490.403187
 20
185.193207
 40
32.000000
 50
360.000000
 41
0.87 
  1
Ｃ矢視　（下部）
 72
     5
 11
-234.403187
 21
185.193207
  0
INSERT
  8
0
  2
G20
 10
0
 20
0
  0
INSERT
  8
0
  2
G21
 10
0
 20
0
  0
INSERT
  8
0
  2
G22
 10
0
 20
0
  0
INSERT
  8
0
  2
G23
 10
0
 20
0
  0
INSERT
  8
0
  2
G24
 10
0
 20
0
  0
INSERT
  8
0
  2
G25
 10
0
 20
0
  0
ARC
  8
1
 62
     3
  6
CONTINUOUS
 10
-1487.239862
 20
88.027117
 40
3.000000
 50
0.000000E+00
 51
90.000000
  0
TEXT
  8
0
 62
     3
 10
-600.875371
 20
427.159553
 40
32.000000
 50
0.000000E+00
 41
0.86 
  1
ｂ
 72
     5
 11
-568.875371
 21
427.159553
  0
INSERT
  8
0
  2
G26
 10
0
 20
0
  0
TEXT
  8
0
 62
     6
 10
-999.551869
 20
1076.370812
 40
35.000000
 50
0.000000E+00
 41
0.60 
  1
300,340,360
 72
     5
 11
-767.051869
 21
1076.370812
  0
INSERT
  8
0
  2
G27
 10
0
 20
0
  0
CIRCLE
  8
0
 62
     6
  6
HIDDEN
 10
-1283.802953
 20
1113.777279
 40
20.000000
  0
TEXT
  8
0
 62
     6
 10
-1291.802953
 20
1097.777279
 40
32.000000
 50
0.000000E+00
 41
0.50 
  1
2
 72
     5
 11
-1275.802953
 21
1097.777279
  0
CIRCLE
  8
0
 62
     6
  6
HIDDEN
 10
-1283.802953
 20
1161.810698
 40
20.000000
  0
TEXT
  8
0
 62
     6
 10
-1291.802953
 20
1145.810698
 40
32.000000
 50
0.000000E+00
 41
0.50 
  1
1
 72
     5
 11
-1275.802953
 21
1145.810698
  0
TEXT
  8
0
 62
     3
 10
-444.883203
 20
596.647865
 40
32.000000
 50
0.000000E+00
 41
0.86 
  1
ａ
 72
     5
 11
-412.883203
 21
596.647865
  0
TEXT
  8
0
 62
     6
 10
-1001.412371
 20
1118.485825
 40
35.000000
 50
0.000000E+00
 41
0.60 
  1
240,260,280
 72
     5
 11
-768.912371
 21
1118.485825
  0
LINE
  8
0
 62
     1
  6
CONTINUOUS
 10
-556.000000
 20
789.624747
 11
-556.000000
 21
688.766137
  0
INSERT
  8
0
  2
G28
 10
0
 20
0
  0
INSERT
  8
0
  2
G29
 10
0
 20
0
  0
INSERT
  8
0
  2
G30
 10
0
 20
0
  0
CIRCLE
  8
0
 62
     3
  6
CONTINUOUS
 10
-1397.739862
 20
153.027117
 40
54.000000
  0
CIRCLE
  8
0
 62
     3
  6
CONTINUOUS
 10
-1397.739862
 20
153.027117
 40
40.000000
  0
CIRCLE
  8
0
 62
     3
  6
CONTINUOUS
 10
-1397.739862
 20
153.027117
 40
62.000000
  0
INSERT
  8
0
  2
G31
 10
0
 20
0
  0
INSERT
  8
0
  2
G32
 10
0
 20
0
  0
INSERT
  8
0
  2
G33
 10
0
 20
0
  0
INSERT
  8
0
  2
G34
 10
0
 20
0
  0
LINE
  8
0
 62
     3
  6
CONTINUOUS
 10
-274.493734
 20
744.151548
 11
-274.493734
 21
805.175676
  0
LINE
  8
0
 62
     3
  6
CONTINUOUS
 10
-1011.922336
 20
544.164955
 11
-1052.695764
 21
544.164955
  0
INSERT
  8
0
  2
G35
 10
0
 20
0
  0
INSERT
  8
0
  2
G36
 10
0
 20
0
  0
INSERT
  8
0
  2
G37
 10
0
 20
0
  0
INSERT
  8
0
  2
G38
 10
0
 20
0
  0
INSERT
  8
0
  2
G39
 10
0
 20
0
  0
INSERT
  8
0
  2
G40
 10
0
 20
0
  0
INSERT
  8
0
  2
G41
 10
0
 20
0
  0
INSERT
  8
0
  2
G42
 10
0
 20
0
  0
INSERT
  8
0
  2
G43
 10
0
 20
0
  0
INSERT
  8
0
  2
G44
 10
0
 20
0
  0
INSERT
  8
0
  2
G45
 10
0
 20
0
  0
INSERT
  8
0
  2
G46
 10
0
 20
0
  0
INSERT
  8
0
  2
G47
 10
0
 20
0
  0
INSERT
  8
0
  2
G48
 10
0
 20
0
  0
INSERT
  8
0
  2
G49
 10
0
 20
0
  0
TEXT
  8
0
 62
     3
 10
-888.446385
 20
-905.435816
 40
32.000000
 50
0.000000E+00
 41
0.94 
  1
対応可能Ｐ寸法　２４０～３６０
 72
     5
 11
-362.732077
 21
-905.435816
  0
LINE
  8
0
 62
     2
  6
CONTINUOUS
 10
-955.287581
 20
-844.718354
 11
-175.885661
 21
-844.718354
  0
TEXT
  8
0
 62
     2
 10
-466.779569
 20
-817.414104
 40
30.000000
 50
0.000000E+00
 41
0.61 
  1
925
 72
     5
 11
-411.779569
 21
-817.414104
  0
TEXT
  8
0
 62
     2
 10
-569.578809
 20
-817.414104
 40
30.000000
 50
0.000000E+00
 41
0.61 
  1
905
 72
     5
 11
-514.578809
 21
-817.414104
  0
TEXT
  8
0
 62
     2
 10
-669.031289
 20
-815.686968
 40
30.000000
 50
0.000000E+00
 41
0.61 
  1
885
 72
     5
 11
-614.031289
 21
-815.686968
  0
TEXT
  8
0
 62
     2
 10
-363.270329
 20
-815.686968
 40
30.000000
 50
0.000000E+00
 41
0.61 
  1
965
 72
     5
 11
-308.270329
 21
-815.686968
  0
TEXT
  8
0
 62
     2
 10
-770.950969
 20
-724.246968
 40
30.000000
 50
0.000000E+00
 41
0.61 
  1
790
 72
     5
 11
-715.950969
 21
-724.246968
  0
TEXT
  8
0
 62
     2
 10
-258.817849
 20
-817.414104
 40
30.000000
 50
0.000000E+00
 41
0.61 
  1
985
 72
     5
 11
-203.817849
 21
-817.414104
  0
TEXT
  8
0
 62
     2
 10
-770.950969
 20
-815.686968
 40
30.000000
 50
0.000000E+00
 41
0.61 
  1
865
 72
     5
 11
-715.950969
 21
-815.686968
  0
TEXT
  8
0
 62
     2
 10
-363.509314
 20
-647.803154
 40
30.000000
 50
0.000000E+00
 41
0.61 
  1
340
 72
     5
 11
-308.509314
 21
-647.803154
  0
TEXT
  8
0
 62
     2
 10
-465.429954
 20
-647.803154
 40
30.000000
 50
0.000000E+00
 41
0.61 
  1
300
 72
     5
 11
-410.429954
 21
-647.803154
  0
TEXT
  8
0
 62
     2
 10
-567.350594
 20
-647.803154
 40
30.000000
 50
0.000000E+00
 41
0.61 
  1
280
 72
     5
 11
-512.350594
 21
-647.803154
  0
TEXT
  8
0
 62
     2
 10
-771.189954
 20
-647.803154
 40
30.000000
 50
0.000000E+00
 41
0.61 
  1
240
 72
     5
 11
-716.189954
 21
-647.803154
  0
LINE
  8
0
 62
     2
  6
CONTINUOUS
 10
-389.725981
 20
-600.398354
 11
-389.725981
 21
-844.718354
  0
TEXT
  8
0
 62
     2
 10
-944.759477
 20
-811.372275
 40
30.000000
 50
0.000000E+00
 41
0.72 
  1
Ｌｔ（全長）
 72
     5
 11
-794.759477
 21
-811.372275
  0
LINE
  8
0
 62
     2
  6
CONTINUOUS
 10
-955.287581
 20
-753.278354
 11
-175.885661
 21
-753.278354
  0
TEXT
  8
0
 62
     2
 10
-258.817849
 20
-725.974104
 40
30.000000
 50
0.000000E+00
 41
0.61 
  1
910
 72
     5
 11
-203.817849
 21
-725.974104
  0
LINE
  8
0
 62
     2
  6
CONTINUOUS
 10
-955.287581
 20
-600.398354
 11
-175.885661
 21
-600.398354
  0
TEXT
  8
0
 62
     2
 10
-363.270329
 20
-724.246968
 40
30.000000
 50
0.000000E+00
 41
0.61 
  1
890
 72
     5
 11
-308.270329
 21
-724.246968
  0
LINE
  8
0
 62
     2
  6
CONTINUOUS
 10
-797.406621
 20
-600.398354
 11
-797.406621
 21
-844.718354
  0
LINE
  8
0
 62
     2
  6
CONTINUOUS
 10
-695.486941
 20
-600.398354
 11
-695.486941
 21
-844.718354
  0
LINE
  8
0
 62
     2
  6
CONTINUOUS
 10
-593.567261
 20
-600.398354
 11
-593.567261
 21
-844.718354
  0
LINE
  8
0
 62
     2
  6
CONTINUOUS
 10
-491.646621
 20
-600.398354
 11
-491.646621
 21
-844.718354
  0
LINE
  8
0
 62
     2
  6
CONTINUOUS
 10
-175.885661
 20
-600.398354
 11
-175.885661
 21
-844.718354
  0
LINE
  8
0
 62
     2
  6
CONTINUOUS
 10
-287.806301
 20
-600.398354
 11
-287.806301
 21
-844.718354
  0
TEXT
  8
0
 62
     2
 10
-256.589634
 20
-647.803154
 40
30.000000
 50
0.000000E+00
 41
0.61 
  1
360
 72
     5
 11
-201.589634
 21
-647.803154
  0
LINE
  8
0
 62
     2
  6
CONTINUOUS
 10
-955.287581
 20
-661.838354
 11
-175.885661
 21
-661.838354
  0
TEXT
  8
0
 62
     2
 10
-944.759477
 20
-719.932275
 40
30.000000
 50
0.000000E+00
 41
0.72 
  1
Ｌ（有効長）
 72
     5
 11
-794.759477
 21
-719.932275
  0
LINE
  8
0
 62
     2
  6
CONTINUOUS
 10
-955.287581
 20
-600.398354
 11
-955.287581
 21
-844.718354
  0
LINE
  8
0
 62
     2
  6
CONTINUOUS
 10
-177.458899
 20
-613.635403
 11
-177.458899
 21
-613.635595
  0
TEXT
  8
0
 62
     2
 10
-669.031289
 20
-724.246968
 40
30.000000
 50
0.000000E+00
 41
0.61 
  1
810
 72
     5
 11
-614.031289
 21
-724.246968
  0
TEXT
  8
0
 62
     2
 10
-569.578809
 20
-725.974104
 40
30.000000
 50
0.000000E+00
 41
0.61 
  1
830
 72
     5
 11
-514.578809
 21
-725.974104
  0
TEXT
  8
0
 62
     2
 10
-669.270274
 20
-647.803154
 40
30.000000
 50
0.000000E+00
 41
0.61 
  1
260
 72
     5
 11
-614.270274
 21
-647.803154
  0
TEXT
  8
0
 62
     2
 10
-885.718483
 20
-647.782743
 40
30.000000
 50
0.000000E+00
 41
0.86 
  1
Ｐ
 72
     5
 11
-855.718483
 21
-647.782743
  0
TEXT
  8
0
 62
     2
 10
-466.779569
 20
-725.974104
 40
30.000000
 50
0.000000E+00
 41
0.61 
  1
850
 72
     5
 11
-411.779569
 21
-725.974104
  0
TEXT
  8
0
 62
     2
 10
-251.589634
 20
-546.363154
 40
30.000000
 50
0.000000E+00
 41
0.58 
  1
44
 72
     5
 11
-216.589634
 21
-546.363154
  0
TEXT
  8
0
 62
     2
 10
-363.510274
 20
-546.363154
 40
30.000000
 50
0.000000E+00
 41
0.58 
  1
52
 72
     5
 11
-328.510274
 21
-546.363154
  0
TEXT
  8
0
 62
     2
 10
-462.501526
 20
-363.746137
 40
25.600000
 50
0.000000E+00
 41
0.55 
  1
100
 72
     5
 11
-420.444381
 21
-363.746137
  0
TEXT
  8
0
 62
     2
 10
-479.031820
 20
-325.061429
 40
18.400000
 50
0.000000E+00
 41
0.89 
  1
立管受口
 72
     5
 11
-403.031821
 21
-325.061429
  0
TEXT
  8
0
 62
     2
 10
-251.589634
 20
-423.483154
 40
30.000000
 50
0.000000E+00
 41
0.58 
  1
65
 72
     5
 11
-216.589634
 21
-423.483154
  0
TEXT
  8
0
 62
     2
 10
-363.510274
 20
-423.483154
 40
30.000000
 50
0.000000E+00
 41
0.58 
  1
65
 72
     5
 11
-328.510274
 21
-423.483154
  0
TEXT
  8
0
 62
     2
 10
-455.429954
 20
-423.483154
 40
30.000000
 50
0.000000E+00
 41
0.58 
  1
75
 72
     5
 11
-420.429954
 21
-423.483154
  0
LINE
  8
0
 62
     2
  6
CONTINUOUS
 10
-399.726941
 20
-498.958354
 11
-481.646621
 21
-560.398354
  0
LINE
  8
0
 62
     2
  6
CONTINUOUS
 10
-175.885661
 20
-294.153298
 11
-175.885661
 21
-560.398354
  0
TEXT
  8
0
 62
     2
 10
-592.749477
 20
-542.052275
 40
30.000000
 50
0.000000E+00
 41
0.86 
  1
Ｂ寸法
 72
     5
 11
-502.749477
 21
-542.052275
  0
LINE
  8
0
 62
     2
  6
CONTINUOUS
 10
-604.527581
 20
-498.958354
 11
-175.885661
 21
-498.958354
  0
LINE
  8
0
 62
     2
  6
CONTINUOUS
 10
-399.726941
 20
-335.118322
 11
-175.885661
 21
-335.118322
  0
LINE
  8
0
 62
     2
  6
CONTINUOUS
 10
-604.527581
 20
-376.078354
 11
-175.885661
 21
-376.078354
  0
TEXT
  8
0
 62
     2
 10
-388.512732
 20
-330.204987
 40
30.000000
 50
0.000000E+00
 41
0.72 
  1
下部横枝管サイズ
 72
     5
 11
-188.512732
 21
-330.204987
  0
LINE
  8
0
 62
     2
  6
CONTINUOUS
 10
-481.646621
 20
-295.392178
 11
-481.646621
 21
-560.398354
  0
LINE
  8
0
 62
     2
  6
CONTINUOUS
 10
-399.726941
 20
-295.392178
 11
-399.726941
 21
-560.398354
  0
LINE
  8
0
 62
     2
  6
CONTINUOUS
 10
-399.726941
 20
-437.518354
 11
-481.646621
 21
-498.958354
  0
LINE
  8
0
 62
     2
  6
CONTINUOUS
 10
-287.806301
 20
-335.118514
 11
-287.806301
 21
-560.398354
  0
LINE
  8
0
 62
     2
  6
CONTINUOUS
 10
-604.527581
 20
-560.398354
 11
-175.885661
 21
-560.398354
  0
TEXT
  8
0
 62
     2
 10
-383.464355
 20
-370.283621
 40
30.000000
 50
0.000000E+00
 41
0.63 
  1
65(2)
 72
     5
 11
-288.464355
 21
-370.283621
  0
TEXT
  8
0
 62
     2
 10
-271.543715
 20
-370.283621
 40
30.000000
 50
0.000000E+00
 41
0.63 
  1
50(1)
 72
     5
 11
-176.543715
 21
-370.283621
  0
LINE
  8
0
 62
     2
  6
CONTINUOUS
 10
-604.527581
 20
-335.118322
 11
-604.527581
 21
-560.398354
  0
LINE
  8
0
 62
     2
  6
CONTINUOUS
 10
-604.527581
 20
-437.518354
 11
-175.885661
 21
-437.518354
  0
TEXT
  8
0
 62
     2
 10
-592.749477
 20
-480.612275
 40
30.000000
 50
0.000000E+00
 41
0.86 
  1
Ａ寸法
 72
     5
 11
-502.749477
 21
-480.612275
  0
LINE
  8
0
 62
     2
  6
CONTINUOUS
 10
-604.527581
 20
-335.118322
 11
-604.527581
 21
-294.153298
  0
LINE
  8
0
 62
     2
  6
CONTINUOUS
 10
-604.527581
 20
-294.153298
 11
-175.885661
 21
-294.153298
  0
LINE
  8
0
 62
     2
  6
CONTINUOUS
 10
-205.886621
 20
-335.118322
 11
-205.886621
 21
-335.118514
  0
TEXT
  8
0
 62
     2
 10
-375.738489
 20
-484.923154
 40
30.000000
 50
0.000000E+00
 41
0.61 
  1
110
 72
     5
 11
-320.738489
 21
-484.923154
  0
TEXT
  8
0
 62
     2
 10
-599.958483
 20
-423.462743
 40
30.000000
 50
0.000000E+00
 41
0.86 
  1
受口深さ
 72
     5
 11
-479.958483
 21
-423.462743
  0
LINE
  8
0
 62
     2
  6
CONTINUOUS
 10
-604.527581
 20
-294.153298
 11
-481.646621
 21
-376.078354
  0
TEXT
  8
0
 62
     2
 10
-251.589634
 20
-484.923154
 40
30.000000
 50
0.000000E+00
 41
0.58 
  1
94
 72
     5
 11
-216.589634
 21
-484.923154
  0
ENDSEC
  0
EOF
