  0
SECTION
  2
HEADER
  9
$INSBASE
 10
0
 20
0
  9
$EXTMIN
 10
0
 20
0
  9
$EXTMAX
 10
4200.000000
 20
2970.000000
  9
$LIMMIN
 10
0
 20
0
  9
$LIMMAX
 10
4200.000000
 20
2970.000000
  9
$VIEWCTR
 10
2100.000000
 20
1485.000000
  9
$DIMASZ
 40
20.000000
  9
$DIMDLI
 40
80.000000
  9
$DIMEXE
 40
10.000000
  9
$DIMEXO
 40
10.000000
  9
$DIMTXT
 40
32.000000
  9
$TEXTSIZE
 40
32.000000
  9
$ANGBASE
 50
0.0
  9
$ANGDIR
 70
     0
  9
$ATTMODE
 70
     1
  9
$AUNITS
 70
     1
  9
$AUPREC
 70
     2
  9
$AXISMODE
 70
     0
  9
$AXISUNIT
 10
0.0
 20
0.0
  9
$BLIPMODE
 70
     1
  9
$CECOLOR
 62
   256
  9
$CELTYPE
  6
BYLAYER
  9
$CHAMFERA
 40
0.0
  9
$CHAMFERB
 40
0.0
  9
$CLAYER
  8
0
  9
$COORDS
 70
     0
  9
$DIMALT
 70
     0
  9
$DIMALTD
 70
     2
  9
$DIMALTF
 40
25.4
  9
$DIMDLE
 40
0.0
  9
$DIMLFAC
 40
1.0
  9
$DIMLIM
 70
     0
  9
$DIMRND
 40
0.0
  9
$DIMSCALE
 40
1.0
  9
$DIMSE1
 70
     0
  9
$DIMSE2
 70
     0
  9
$DIMTAD
 70
     1
  9
$DIMTIH
 70
     0
  9
$DIMTM
 40
0.0
  9
$DIMTOH
 70
     0
  9
$DIMTOL
 70
     0
  9
$DIMTP
 40
0.0
  9
$DIMTSZ
 40
0.0
  9
$DIMZIN
 70
     0
  9
$DRAGMODE
 70
     2
  9
$ELEVATION
 40
0.0
  9
$FASTZOOM
 70
     1
  9
$FILLETRAD
 40
0.0
  9
$FILLMODE
 70
     1
  9
$GRIDMODE
 70
     0
  9
$GRIDUNIT
 10
0.0
 20
0.0
  9
$LTSCALE
 40
1.0
  9
$LUNITS
 70
     2
  9
$LUPREC
 70
     2
  9
$MENU
  1
ACAD
  9
$ORTHOMODE
 70
     0
  9
$OSMODE
 70
     0
  9
$PDMODE
 70
     0
  9
$PDSIZE
 40
0.0
  9
$PLINEWID
 40
0.0
  9
$QTEXTMODE
 70
     0
  9
$REGENMODE
 70
     1
  9
$SKETCHINC
 40
0.1
  9
$SKPOLY
 70
     0
  9
$SNAPBASE
 10
0.0
 20
0.0
  9
$SNAPISOPAIR
 70
     0
  9
$SNAPMODE
 70
     0
  9
$SNAPSTYLE
 70
     0
  9
$SNAPUNIT
 10
0.0
 20
0.0
  9
$TEXTSTYLE
  7
KANJI
  9
$THICKNESS
 40
0.0
  9
$TRACEWID
 40
0.05
  9
$VIEWDIR
 10
0.0
 20
0.0
 30
1.0
  9
$VIEWSIZE
 40
0.0
  0
ENDSEC
  0
SECTION
  2
TABLES
  0
TABLE
  2
LTYPE
 70
     9
  0
LTYPE
  2
CONTINUOUS
 70
    64
  3
Solid line
 72
    65
 73
     0
 40
0.0
  0
LTYPE
  2
DASHED
 70
    64
  3
__ __ __ __ __ __ __ __ __ __ __ __ __ __ __
 72
    65
 73
     2
 40
0.75
 49
0.5
 49
-0.25
  0
LTYPE
  2
HIDDEN
 70
    64
  3
_ _ _ _ _ _ _ _ _ _ _ _ _ _ _ _ _ _ _ _ _ _ _
 72
    65
 73
     2
 40
0.375
 49
0.25
 49
-0.125
  0
LTYPE
  2
CENTER
 70
    64
  3
____ _ ____ _ ____ _ ____ _ ____ _ ____ _ ____
 72
    65
 73
     4
 40
2.0
 49
1.25
 49
-0.25
 49
0.25
 49
-0.25
  0
LTYPE
  2
PHANTOM
 70
    64
  3
_____ _ _ _____ _ _ _____ _ _ _____ _ _ ____
 72
    65
 73
     6
 40
2.5
 49
1.25
 49
-0.25
 49
0.25
 49
-0.25
 49
0.25
 49
-0.25
  0
LTYPE
  2
DOT
 70
    64
  3
...............................................
 72
    65
 73
     2
 40
0.25
 49
0.0
 49
-0.25
  0
LTYPE
  2
DASHDOT
 70
    64
  3
__ . __ . __ . __ . __ . __ . __ . __ . __ . __
 72
    65
 73
     4
 40
1.0
 49
0.5
 49
-0.25
 49
0.0
 49
-0.25
  0
LTYPE
  2
BORDER
 70
    64
  3
__ __ . __ __ . __ __ . __ __ . __ __ . __ __
 72
    65
 73
     6
 40
1.75
 49
0.5
 49
-0.25
 49
0.5
 49
-0.25
 49
0.0
 49
-0.25
  0
LTYPE
  2
DIVIDE
 70
    64
  3
__ . . __ . . __ . . __ . . __ . . __ . . __
 72
    65
 73
     6
 40
1.25
 49
0.5
 49
-0.25
 49
0.0
 49
-0.25
 49
0.0
 49
-0.25
  0
ENDTAB
  0
TABLE
  2
LAYER
 70
   100
  0
LAYER
  2
0
 70
     0
 62
     3
  6
CONTINUOUS
  0
LAYER
  2
1
 70
     0
 62
     3
  6
CONTINUOUS
  0
LAYER
  2
2
 70
     0
 62
     3
  6
CONTINUOUS
  0
LAYER
  2
3
 70
     0
 62
     3
  6
CONTINUOUS
  0
LAYER
  2
4
 70
     0
 62
     3
  6
CONTINUOUS
  0
LAYER
  2
5
 70
     0
 62
     3
  6
CONTINUOUS
  0
LAYER
  2
6
 70
     0
 62
     3
  6
CONTINUOUS
  0
LAYER
  2
7
 70
     0
 62
     3
  6
CONTINUOUS
  0
LAYER
  2
8
 70
     0
 62
     3
  6
CONTINUOUS
  0
LAYER
  2
9
 70
     0
 62
     3
  6
CONTINUOUS
  0
LAYER
  2
10
 70
     0
 62
     3
  6
CONTINUOUS
  0
LAYER
  2
11
 70
     0
 62
     3
  6
CONTINUOUS
  0
LAYER
  2
12
 70
     0
 62
     3
  6
CONTINUOUS
  0
LAYER
  2
13
 70
     0
 62
     3
  6
CONTINUOUS
  0
LAYER
  2
14
 70
     0
 62
     3
  6
CONTINUOUS
  0
LAYER
  2
15
 70
     0
 62
     3
  6
CONTINUOUS
  0
LAYER
  2
16
 70
     0
 62
     3
  6
CONTINUOUS
  0
LAYER
  2
17
 70
     0
 62
     3
  6
CONTINUOUS
  0
LAYER
  2
18
 70
     0
 62
     3
  6
CONTINUOUS
  0
LAYER
  2
19
 70
     0
 62
     3
  6
CONTINUOUS
  0
LAYER
  2
20
 70
     0
 62
     3
  6
CONTINUOUS
  0
LAYER
  2
21
 70
     0
 62
     3
  6
CONTINUOUS
  0
LAYER
  2
22
 70
     0
 62
     3
  6
CONTINUOUS
  0
LAYER
  2
23
 70
     0
 62
     3
  6
CONTINUOUS
  0
LAYER
  2
24
 70
     0
 62
     3
  6
CONTINUOUS
  0
LAYER
  2
25
 70
     0
 62
     3
  6
CONTINUOUS
  0
LAYER
  2
26
 70
     0
 62
     3
  6
CONTINUOUS
  0
LAYER
  2
27
 70
     0
 62
     3
  6
CONTINUOUS
  0
LAYER
  2
28
 70
     0
 62
     3
  6
CONTINUOUS
  0
LAYER
  2
29
 70
     0
 62
     3
  6
CONTINUOUS
  0
LAYER
  2
30
 70
     0
 62
     3
  6
CONTINUOUS
  0
LAYER
  2
31
 70
     0
 62
     3
  6
CONTINUOUS
  0
LAYER
  2
32
 70
     0
 62
     3
  6
CONTINUOUS
  0
LAYER
  2
33
 70
     0
 62
     3
  6
CONTINUOUS
  0
LAYER
  2
34
 70
     0
 62
     3
  6
CONTINUOUS
  0
LAYER
  2
35
 70
     0
 62
     3
  6
CONTINUOUS
  0
LAYER
  2
36
 70
     0
 62
     3
  6
CONTINUOUS
  0
LAYER
  2
37
 70
     0
 62
     3
  6
CONTINUOUS
  0
LAYER
  2
38
 70
     0
 62
     3
  6
CONTINUOUS
  0
LAYER
  2
39
 70
     0
 62
     3
  6
CONTINUOUS
  0
LAYER
  2
40
 70
     0
 62
     3
  6
CONTINUOUS
  0
LAYER
  2
41
 70
     0
 62
     3
  6
CONTINUOUS
  0
LAYER
  2
42
 70
     0
 62
     3
  6
CONTINUOUS
  0
LAYER
  2
43
 70
     0
 62
     3
  6
CONTINUOUS
  0
LAYER
  2
44
 70
     0
 62
     3
  6
CONTINUOUS
  0
LAYER
  2
45
 70
     0
 62
     3
  6
CONTINUOUS
  0
LAYER
  2
46
 70
     0
 62
     3
  6
CONTINUOUS
  0
LAYER
  2
47
 70
     0
 62
     3
  6
CONTINUOUS
  0
LAYER
  2
48
 70
     0
 62
     3
  6
CONTINUOUS
  0
LAYER
  2
49
 70
     0
 62
     3
  6
CONTINUOUS
  0
LAYER
  2
50
 70
     0
 62
     3
  6
CONTINUOUS
  0
LAYER
  2
51
 70
     0
 62
     3
  6
CONTINUOUS
  0
LAYER
  2
52
 70
     0
 62
     3
  6
CONTINUOUS
  0
LAYER
  2
53
 70
     0
 62
     3
  6
CONTINUOUS
  0
LAYER
  2
54
 70
     0
 62
     3
  6
CONTINUOUS
  0
LAYER
  2
55
 70
     0
 62
     3
  6
CONTINUOUS
  0
LAYER
  2
56
 70
     0
 62
     3
  6
CONTINUOUS
  0
LAYER
  2
57
 70
     0
 62
     3
  6
CONTINUOUS
  0
LAYER
  2
58
 70
     0
 62
     3
  6
CONTINUOUS
  0
LAYER
  2
59
 70
     0
 62
     3
  6
CONTINUOUS
  0
LAYER
  2
60
 70
     0
 62
     3
  6
CONTINUOUS
  0
LAYER
  2
61
 70
     0
 62
     3
  6
CONTINUOUS
  0
LAYER
  2
62
 70
     0
 62
     3
  6
CONTINUOUS
  0
LAYER
  2
63
 70
     0
 62
     3
  6
CONTINUOUS
  0
LAYER
  2
64
 70
     0
 62
     3
  6
CONTINUOUS
  0
LAYER
  2
65
 70
     0
 62
     3
  6
CONTINUOUS
  0
LAYER
  2
66
 70
     0
 62
     3
  6
CONTINUOUS
  0
LAYER
  2
67
 70
     0
 62
     3
  6
CONTINUOUS
  0
LAYER
  2
68
 70
     0
 62
     3
  6
CONTINUOUS
  0
LAYER
  2
69
 70
     0
 62
     3
  6
CONTINUOUS
  0
LAYER
  2
70
 70
     0
 62
     3
  6
CONTINUOUS
  0
LAYER
  2
71
 70
     0
 62
     3
  6
CONTINUOUS
  0
LAYER
  2
72
 70
     0
 62
     3
  6
CONTINUOUS
  0
LAYER
  2
73
 70
     0
 62
     3
  6
CONTINUOUS
  0
LAYER
  2
74
 70
     0
 62
     3
  6
CONTINUOUS
  0
LAYER
  2
75
 70
     0
 62
     3
  6
CONTINUOUS
  0
LAYER
  2
76
 70
     0
 62
     3
  6
CONTINUOUS
  0
LAYER
  2
77
 70
     0
 62
     3
  6
CONTINUOUS
  0
LAYER
  2
78
 70
     0
 62
     3
  6
CONTINUOUS
  0
LAYER
  2
79
 70
     0
 62
     3
  6
CONTINUOUS
  0
LAYER
  2
80
 70
     0
 62
     3
  6
CONTINUOUS
  0
LAYER
  2
81
 70
     0
 62
     3
  6
CONTINUOUS
  0
LAYER
  2
82
 70
     0
 62
     3
  6
CONTINUOUS
  0
LAYER
  2
83
 70
     0
 62
     3
  6
CONTINUOUS
  0
LAYER
  2
84
 70
     0
 62
     3
  6
CONTINUOUS
  0
LAYER
  2
85
 70
     0
 62
     3
  6
CONTINUOUS
  0
LAYER
  2
86
 70
     0
 62
     3
  6
CONTINUOUS
  0
LAYER
  2
87
 70
     0
 62
     3
  6
CONTINUOUS
  0
LAYER
  2
88
 70
     0
 62
     3
  6
CONTINUOUS
  0
LAYER
  2
89
 70
     0
 62
     3
  6
CONTINUOUS
  0
LAYER
  2
90
 70
     0
 62
     3
  6
CONTINUOUS
  0
LAYER
  2
91
 70
     0
 62
     3
  6
CONTINUOUS
  0
LAYER
  2
92
 70
     0
 62
     3
  6
CONTINUOUS
  0
LAYER
  2
93
 70
     0
 62
     3
  6
CONTINUOUS
  0
LAYER
  2
94
 70
     0
 62
     3
  6
CONTINUOUS
  0
LAYER
  2
95
 70
     0
 62
     3
  6
CONTINUOUS
  0
LAYER
  2
96
 70
     0
 62
     3
  6
CONTINUOUS
  0
LAYER
  2
97
 70
     0
 62
     3
  6
CONTINUOUS
  0
LAYER
  2
98
 70
     0
 62
     3
  6
CONTINUOUS
  0
LAYER
  2
99
 70
     0
 62
     3
  6
CONTINUOUS
  0
ENDTAB
  0
TABLE
  2
STYLE
 70
     2
  0
STYLE
  2
STANDARD
 70
     0
 40
0.0
 41
1.0
 50
0.0
 71
     0
 42
0.2
  3
TXT
  4
BIGFONT
  0
STYLE
  2
KANJI
 70
     0
 40
4.5
 41
1.0
 50
0.0
 71
     0
 42
0.2
  3
TXT
  4
BIGFONT
  0
ENDTAB
  0
TABLE
  2
VIEW
 70
     0
  0
ENDTAB
  0
ENDSEC
  0
SECTION
  2
BLOCKS
  0
BLOCK
  8
0
  2
G0
 70
     0
 10
0
 20
0
  0
LINE
  8
0
 62
     1
  6
CONTINUOUS
 10
3714.000000
 20
2253.109546
 11
3764.000000
 21
2253.109546
  0
SOLID
  8
0
 62
     1
 10
3738.148146
 20
2259.580023
 11
3738.148146
 21
2246.639070
 12
3714.000000
 22
2253.109546
 13
3714.000000
 23
2253.109546
  0
LINE
  8
0
 62
     1
  6
CONTINUOUS
 10
3554.000000
 20
2253.109546
 11
3714.000000
 21
2253.109546
  0
LINE
  8
0
 62
     1
  6
CONTINUOUS
 10
3554.000000
 20
2204.890454
 11
3554.000000
 21
2263.109546
  0
LINE
  8
0
 62
     1
  6
CONTINUOUS
 10
3714.000000
 20
2184.230847
 11
3714.000000
 21
2263.109546
  0
TEXT
  8
0
 62
     1
 10
3606.000000
 20
2258.442879
 40
32.000000
 50
0.000000E+00
 41
0.58 
  1
160
 72
     5
 11
3662.000000
 21
2258.442879
  0
LINE
  8
0
 62
     1
  6
CONTINUOUS
 10
3554.000000
 20
2253.109546
 11
3504.000000
 21
2253.109546
  0
SOLID
  8
0
 62
     1
 10
3529.851854
 20
2246.639070
 11
3529.851854
 21
2259.580023
 12
3554.000000
 22
2253.109546
 13
3554.000000
 23
2253.109546
  0
ENDBLK
  0
BLOCK
  8
0
  2
G1
 70
     0
 10
0
 20
0
  0
TEXT
  8
0
 62
     3
 10
3040.533941
 20
2010.889093
 40
32.000000
 50
0.000000E+00
 41
0.95 
  1
受口深さ　
 72
     5
 11
3216.533941
 21
2010.889093
  0
ENDBLK
  0
BLOCK
  8
0
  2
G2
 70
     0
 10
0
 20
0
  0
LINE
  8
0
 62
     3
  6
CONTINUOUS
 10
2981.880616
 20
2427.395122
 11
3052.696549
 21
2427.395122
  0
SOLID
  8
0
 62
     3
 10
3010.858391
 20
2435.159693
 11
3010.858391
 21
2419.630551
 12
2981.880616
 22
2427.395122
 13
2981.880616
 23
2427.395122
  0
ENDBLK
  0
BLOCK
  8
0
  2
G3
 70
     0
 10
0
 20
0
  0
TEXT
  8
0
 62
     3
 10
3057.536481
 20
2413.564900
 40
32.000000
 50
0.000000E+00
 41
1.02 
  1
受口深さ
 72
     5
 11
3209.536481
 21
2413.564900
  0
ENDBLK
  0
BLOCK
  8
0
  2
G4
 70
     0
 10
0
 20
0
  0
LINE
  8
0
 62
     1
  6
CONTINUOUS
 10
2665.786562
 20
1636.227117
 11
2665.786562
 21
1686.227117
  0
SOLID
  8
0
 62
     1
 10
2658.021991
 20
1665.204891
 11
2673.551134
 21
1665.204891
 12
2665.786562
 22
1636.227117
 13
2665.786562
 23
1636.227117
  0
TEXT
  8
0
 62
     1
 10
2660.453229
 20
1588.227117
 40
32.000000
 50
90.000000
 41
0.56 
  1
60
 72
     5
 11
2660.453229
 21
1624.227117
  0
LINE
  8
0
 62
     1
  6
CONTINUOUS
 10
2655.786562
 20
1636.227117
 11
2730.937527
 21
1636.227117
  0
LINE
  8
0
 62
     1
  6
CONTINUOUS
 10
2655.786562
 20
1576.227117
 11
2832.863476
 21
1576.227117
  0
LINE
  8
0
 62
     1
  6
CONTINUOUS
 10
2665.786562
 20
1576.227117
 11
2665.786562
 21
1636.227117
  0
CIRCLE
  8
0
 62
     1
  6
CONTINUOUS
 10
2665.786562
 20
1576.227117
 40
2.500000
  0
CIRCLE
  8
0
 62
     1
  6
CONTINUOUS
 10
2665.786562
 20
1576.227117
 40
1.250000
  0
ENDBLK
  0
BLOCK
  8
0
  2
G5
 70
     0
 10
0
 20
0
  0
TEXT
  8
0
 62
     1
 10
2774.863476
 20
2069.167914
 40
32.000000
 50
0.000000E+00
 41
0.60 
  1
%%c125
 72
     5
 11
2890.863476
 21
2069.167914
  0
LINE
  8
0
 62
     1
  6
CONTINUOUS
 10
2895.363476
 20
2107.089268
 11
2895.363476
 21
2053.834581
  0
LINE
  8
0
 62
     1
  6
CONTINUOUS
 10
2770.363476
 20
2107.089268
 11
2770.363476
 21
2053.834581
  0
LINE
  8
0
 62
     1
  6
CONTINUOUS
 10
2770.363476
 20
2063.834581
 11
2895.363476
 21
2063.834581
  0
SOLID
  8
0
 62
     1
 10
2794.511622
 20
2070.305058
 11
2794.511622
 21
2057.364105
 12
2770.363476
 22
2063.834581
 13
2770.363476
 23
2063.834581
  0
SOLID
  8
0
 62
     1
 10
2871.215330
 20
2057.364105
 11
2871.215330
 21
2070.305058
 12
2895.363476
 22
2063.834581
 13
2895.363476
 23
2063.834581
  0
ENDBLK
  0
BLOCK
  8
0
  2
G6
 70
     0
 10
0
 20
0
  0
LINE
  8
0
 62
     1
  6
CONTINUOUS
 10
3618.682081
 20
2194.890454
 11
3554.000000
 21
2194.890454
  0
LINE
  8
0
 62
     1
  6
CONTINUOUS
 10
3554.000000
 20
2132.500000
 11
3554.000000
 21
2204.890454
  0
TEXT
  8
0
 62
     1
 10
3566.474233
 20
2200.223787
 40
32.000000
 50
0.000000E+00
 41
0.56 
  1
65
 72
     5
 11
3602.474233
 21
2200.223787
  0
LINE
  8
0
 62
     1
  6
CONTINUOUS
 10
3618.682081
 20
2194.890454
 11
3647.896755
 21
2194.890454
  0
SOLID
  8
0
 62
     1
 10
3642.830227
 20
2201.360930
 11
3642.830227
 21
2188.419977
 12
3618.682081
 22
2194.890454
 13
3618.682081
 23
2194.890454
  0
LINE
  8
0
 62
     1
  6
CONTINUOUS
 10
3554.000000
 20
2194.890454
 11
3524.228591
 21
2194.890454
  0
SOLID
  8
0
 62
     1
 10
3529.851854
 20
2188.419977
 11
3529.851854
 21
2201.360930
 12
3554.000000
 22
2194.890454
 13
3554.000000
 23
2194.890454
  0
ENDBLK
  0
BLOCK
  8
0
  2
G7
 70
     0
 10
0
 20
0
  0
TEXT
  8
0
 62
     1
 10
3426.341975
 20
2032.000000
 40
32.000000
 50
90.000000
 41
0.58 
  1
210
 72
     5
 11
3426.341975
 21
2088.000000
  0
LINE
  8
0
 62
     1
  6
CONTINUOUS
 10
3704.000000
 20
1955.000000
 11
3421.675308
 21
1955.000000
  0
LINE
  8
0
 62
     1
  6
CONTINUOUS
 10
3704.000000
 20
2165.000000
 11
3421.675308
 21
2165.000000
  0
LINE
  8
0
 62
     1
  6
CONTINUOUS
 10
3431.675308
 20
2165.000000
 11
3431.675308
 21
1955.000000
  0
SOLID
  8
0
 62
     1
 10
3438.145784
 20
2140.851854
 11
3425.204832
 21
2140.851854
 12
3431.675308
 22
2165.000000
 13
3431.675308
 23
2165.000000
  0
SOLID
  8
0
 62
     1
 10
3425.204832
 20
1979.148146
 11
3438.145784
 21
1979.148146
 12
3431.675308
 22
1955.000000
 13
3431.675308
 23
1955.000000
  0
ENDBLK
  0
BLOCK
  8
0
  2
G8
 70
     0
 10
0
 20
0
  0
TEXT
  8
0
 62
     1
 10
3686.000000
 20
1791.958080
 40
32.000000
 50
0.000000E+00
 41
0.58 
  1
210
 72
     5
 11
3742.000000
 21
1791.958080
  0
LINE
  8
0
 62
     1
  6
CONTINUOUS
 10
3819.000000
 20
2050.000000
 11
3819.000000
 21
1776.624747
  0
LINE
  8
0
 62
     1
  6
CONTINUOUS
 10
3609.000000
 20
2050.000000
 11
3609.000000
 21
1776.624747
  0
LINE
  8
0
 62
     1
  6
CONTINUOUS
 10
3609.000000
 20
1786.624747
 11
3819.000000
 21
1786.624747
  0
SOLID
  8
0
 62
     1
 10
3633.148146
 20
1793.095223
 11
3633.148146
 21
1780.154271
 12
3609.000000
 22
1786.624747
 13
3609.000000
 23
1786.624747
  0
SOLID
  8
0
 62
     1
 10
3794.851854
 20
1780.154271
 11
3794.851854
 21
1793.095223
 12
3819.000000
 22
1786.624747
 13
3819.000000
 23
1786.624747
  0
ENDBLK
  0
BLOCK
  8
0
  2
G9
 70
     0
 10
0
 20
0
  0
TEXT
  8
0
 62
     1
 10
3244.607057
 20
1845.727117
 40
32.000000
 50
90.000000
 41
0.56 
  1
75
 72
     5
 11
3244.607057
 21
1881.727117
  0
LINE
  8
0
 62
     1
  6
CONTINUOUS
 10
3259.940390
 20
1826.227117
 11
3129.940390
 21
1826.227117
  0
LINE
  8
0
 62
     1
  6
CONTINUOUS
 10
3259.940390
 20
1901.227117
 11
2913.053530
 21
1901.227117
  0
LINE
  8
0
 62
     1
  6
CONTINUOUS
 10
3249.940390
 20
1901.227117
 11
3249.940390
 21
1826.227117
  0
SOLID
  8
0
 62
     1
 10
3256.410866
 20
1877.078971
 11
3243.469913
 21
1877.078971
 12
3249.940390
 22
1901.227117
 13
3249.940390
 23
1901.227117
  0
SOLID
  8
0
 62
     1
 10
3243.469913
 20
1850.375262
 11
3256.410866
 21
1850.375262
 12
3249.940390
 22
1826.227117
 13
3249.940390
 23
1826.227117
  0
ENDBLK
  0
BLOCK
  8
0
  2
G10
 70
     0
 10
0
 20
0
  0
TEXT
  8
0
 62
     1
 10
3861.450424
 20
2247.048404
 40
32.000000
 50
315.000000
 41
0.58 
  1
248
 72
     5
 11
3901.048404
 21
2207.450424
  0
LINE
  8
0
 62
     1
  6
CONTINUOUS
 10
3633.389827
 20
2154.752309
 11
3796.868005
 21
2318.230486
  0
LINE
  8
0
 62
     1
  6
CONTINUOUS
 10
3965.159419
 20
2135.796937
 11
3789.796937
 21
2311.159419
  0
SOLID
  8
0
 62
     1
 10
3943.508783
 20
2148.296937
 11
3952.659419
 21
2157.447572
 12
3965.159419
 22
2135.796937
 13
3965.159419
 23
2135.796937
  0
SOLID
  8
0
 62
     1
 10
3811.447572
 20
2298.659419
 11
3802.296937
 21
2289.508783
 12
3789.796937
 22
2311.159419
 13
3789.796937
 23
2311.159419
  0
ENDBLK
  0
BLOCK
  8
0
  2
G11
 70
     0
 10
0
 20
0
  0
TEXT
  8
0
 62
     1
 10
3184.607057
 20
1440.227117
 40
32.000000
 50
90.000000
 41
0.86 
  1
Ｐ
 72
     5
 11
3184.607057
 21
1472.227117
  0
LINE
  8
0
 62
     1
  6
CONTINUOUS
 10
3199.940390
 20
1276.227117
 11
3079.940390
 21
1276.227117
  0
LINE
  8
0
 62
     1
  6
CONTINUOUS
 10
3189.940390
 20
1276.227117
 11
3189.940390
 21
1636.227117
  0
SOLID
  8
0
 62
     1
 10
3182.175818
 20
1305.204891
 11
3197.704961
 21
1305.204891
 12
3189.940390
 22
1276.227117
 13
3189.940390
 23
1276.227117
  0
SOLID
  8
0
 62
     1
 10
3197.704961
 20
1607.249342
 11
3182.175818
 21
1607.249342
 12
3189.940390
 22
1636.227117
 13
3189.940390
 23
1636.227117
  0
ENDBLK
  0
BLOCK
  8
0
  2
G12
 70
     0
 10
0
 20
0
  0
TEXT
  8
0
 62
     1
 10
3124.607057
 20
1673.227117
 40
32.000000
 50
90.000000
 41
0.58 
  1
250
 72
     5
 11
3124.607057
 21
1729.227117
  0
LINE
  8
0
 62
     1
  6
CONTINUOUS
 10
2842.863476
 20
1826.227117
 11
3139.940390
 21
1826.227117
  0
LINE
  8
0
 62
     1
  6
CONTINUOUS
 10
3079.940390
 20
1576.227117
 11
3139.940390
 21
1576.227117
  0
LINE
  8
0
 62
     1
  6
CONTINUOUS
 10
3129.940390
 20
1576.227117
 11
3129.940390
 21
1826.227117
  0
SOLID
  8
0
 62
     1
 10
3122.175818
 20
1605.204891
 11
3137.704961
 21
1605.204891
 12
3129.940390
 22
1576.227117
 13
3129.940390
 23
1576.227117
  0
SOLID
  8
0
 62
     1
 10
3137.704961
 20
1797.249342
 11
3122.175818
 21
1797.249342
 12
3129.940390
 22
1826.227117
 13
3129.940390
 23
1826.227117
  0
ENDBLK
  0
BLOCK
  8
0
  2
G13
 70
     0
 10
0
 20
0
  0
TEXT
  8
0
 62
     1
 10
3064.607057
 20
1098.227117
 40
32.000000
 50
90.000000
 41
0.58 
  1
120
 72
     5
 11
3064.607057
 21
1154.227117
  0
LINE
  8
0
 62
     1
  6
CONTINUOUS
 10
2893.114387
 20
1066.227117
 11
3079.940390
 21
1066.227117
  0
LINE
  8
0
 62
     1
  6
CONTINUOUS
 10
2923.612565
 20
1186.227117
 11
3079.940390
 21
1186.227117
  0
LINE
  8
0
 62
     1
  6
CONTINUOUS
 10
3069.940390
 20
1186.227117
 11
3069.940390
 21
1066.227117
  0
SOLID
  8
0
 62
     1
 10
3076.410866
 20
1162.078971
 11
3063.469913
 21
1162.078971
 12
3069.940390
 22
1186.227117
 13
3069.940390
 23
1186.227117
  0
SOLID
  8
0
 62
     1
 10
3063.469913
 20
1090.375262
 11
3076.410866
 21
1090.375262
 12
3069.940390
 22
1066.227117
 13
3069.940390
 23
1066.227117
  0
ENDBLK
  0
BLOCK
  8
0
  2
G14
 70
     0
 10
0
 20
0
  0
TEXT
  8
0
 62
     1
 10
3064.607057
 20
963.227117
 40
32.000000
 50
90.000000
 41
0.58 
  1
150
 72
     5
 11
3064.607057
 21
1019.227117
  0
LINE
  8
0
 62
     1
  6
CONTINUOUS
 10
2895.863476
 20
916.227117
 11
3079.940390
 21
916.227117
  0
LINE
  8
0
 62
     1
  6
CONTINUOUS
 10
3069.940390
 20
1066.227117
 11
3069.940390
 21
916.227117
  0
SOLID
  8
0
 62
     1
 10
3076.410866
 20
1042.078971
 11
3063.469913
 21
1042.078971
 12
3069.940390
 22
1066.227117
 13
3069.940390
 23
1066.227117
  0
SOLID
  8
0
 62
     1
 10
3063.469913
 20
940.375262
 11
3076.410866
 21
940.375262
 12
3069.940390
 22
916.227117
 13
3069.940390
 23
916.227117
  0
ENDBLK
  0
BLOCK
  8
0
  2
G15
 70
     0
 10
0
 20
0
  0
TEXT
  8
0
 62
     1
 10
3184.607057
 20
1068.227117
 40
32.000000
 50
90.000000
 41
0.58 
  1
360
 72
     5
 11
3184.607057
 21
1124.227117
  0
LINE
  8
0
 62
     1
  6
CONTINUOUS
 10
3199.940390
 20
916.227117
 11
3079.940390
 21
916.227117
  0
LINE
  8
0
 62
     1
  6
CONTINUOUS
 10
3189.940390
 20
1276.227117
 11
3189.940390
 21
916.227117
  0
SOLID
  8
0
 62
     1
 10
3196.410866
 20
1252.078971
 11
3183.469913
 21
1252.078971
 12
3189.940390
 22
1276.227117
 13
3189.940390
 23
1276.227117
  0
SOLID
  8
0
 62
     1
 10
3183.469913
 20
940.375262
 11
3196.410866
 21
940.375262
 12
3189.940390
 22
916.227117
 13
3189.940390
 23
916.227117
  0
ENDBLK
  0
BLOCK
  8
0
  2
G16
 70
     0
 10
0
 20
0
  0
TEXT
  8
0
 62
     1
 10
3244.607057
 20
1277.227117
 40
32.000000
 50
90.000000
 41
0.89 
  1
Ｌ（有効長）
 72
     5
 11
3244.607057
 21
1473.227117
  0
LINE
  8
0
 62
     1
  6
CONTINUOUS
 10
3199.940390
 20
916.227117
 11
3259.940390
 21
916.227117
  0
LINE
  8
0
 62
     1
  6
CONTINUOUS
 10
3249.940390
 20
1826.227117
 11
3249.940390
 21
916.227117
  0
SOLID
  8
0
 62
     1
 10
3256.410866
 20
1802.078971
 11
3243.469913
 21
1802.078971
 12
3249.940390
 22
1826.227117
 13
3249.940390
 23
1826.227117
  0
SOLID
  8
0
 62
     1
 10
3243.469913
 20
940.375262
 11
3256.410866
 21
940.375262
 12
3249.940390
 22
916.227117
 13
3249.940390
 23
916.227117
  0
ENDBLK
  0
BLOCK
  8
0
  2
G17
 70
     0
 10
0
 20
0
  0
TEXT
  8
0
 62
     1
 10
3304.607057
 20
1372.727117
 40
32.000000
 50
90.000000
 41
0.97 
  1
Ｌｔ
 72
     5
 11
3304.607057
 21
1444.727117
  0
LINE
  8
0
 62
     1
  6
CONTINUOUS
 10
3259.940390
 20
916.227117
 11
3319.940390
 21
916.227117
  0
LINE
  8
0
 62
     1
  6
CONTINUOUS
 10
3259.940390
 20
1901.227117
 11
3319.940390
 21
1901.227117
  0
LINE
  8
0
 62
     1
  6
CONTINUOUS
 10
3309.940390
 20
1901.227117
 11
3309.940390
 21
916.227117
  0
SOLID
  8
0
 62
     1
 10
3316.410866
 20
1877.078971
 11
3303.469913
 21
1877.078971
 12
3309.940390
 22
1901.227117
 13
3309.940390
 23
1901.227117
  0
SOLID
  8
0
 62
     1
 10
3303.469913
 20
940.375262
 11
3316.410866
 21
940.375262
 12
3309.940390
 22
916.227117
 13
3309.940390
 23
916.227117
  0
ENDBLK
  0
BLOCK
  8
0
  2
G18
 70
     0
 10
0
 20
0
  0
LINE
  8
0
 62
     3
  6
CONTINUOUS
 10
3032.142578
 20
1434.891181
 11
2952.580014
 21
1434.891181
  0
LINE
  8
0
 62
     3
  6
CONTINUOUS
 10
3032.142578
 20
1434.891181
 11
3032.142578
 21
1387.520932
  0
TEXT
  8
0
 62
     3
 10
3020.349294
 20
1355.162715
 40
32.000000
 50
0.000000E+00
 41
0.86 
  1
Ｃ
 72
     5
 11
3052.349294
 21
1355.162715
  0
LINE
  8
0
 62
     3
  6
CONTINUOUS
 10
3032.142578
 20
1387.520932
 11
3047.560047
 21
1414.224772
  0
LINE
  8
0
 62
     3
  6
CONTINUOUS
 10
3047.560047
 20
1414.224772
 11
3025.057592
 21
1427.216570
  0
ENDBLK
  0
BLOCK
  8
0
  2
G19
 70
     0
 10
0
 20
0
  0
LINE
  8
0
 62
     1
  6
CONTINUOUS
 10
3871.624747
 20
1964.682081
 11
3871.624747
 21
2014.682081
  0
SOLID
  8
0
 62
     1
 10
3865.154271
 20
1988.830227
 11
3878.095223
 21
1988.830227
 12
3871.624747
 22
1964.682081
 13
3871.624747
 23
1964.682081
  0
LINE
  8
0
 62
     1
  6
CONTINUOUS
 10
3871.624747
 20
1850.000000
 11
3871.624747
 21
1900.000000
  0
SOLID
  8
0
 62
     1
 10
3878.095223
 20
1875.851854
 11
3865.154271
 21
1875.851854
 12
3871.624747
 22
1900.000000
 13
3871.624747
 23
1900.000000
  0
TEXT
  8
0
 62
     1
 10
3866.291414
 20
1914.341041
 40
32.000000
 50
90.000000
 41
0.56 
  1
65
 72
     5
 11
3866.291414
 21
1950.341041
  0
LINE
  8
0
 62
     1
  6
CONTINUOUS
 10
3784.000000
 20
1964.682081
 11
3881.624747
 21
1964.682081
  0
LINE
  8
0
 62
     1
  6
CONTINUOUS
 10
3786.500000
 20
1900.000000
 11
3881.624747
 21
1900.000000
  0
LINE
  8
0
 62
     1
  6
CONTINUOUS
 10
3871.624747
 20
1900.000000
 11
3871.624747
 21
1964.682081
  0
ENDBLK
  0
BLOCK
  8
0
  2
G20
 70
     0
 10
0
 20
0
  0
LINE
  8
0
 62
     1
  6
CONTINUOUS
 10
3928.624747
 20
2060.000000
 11
3928.624747
 21
2110.000000
  0
SOLID
  8
0
 62
     1
 10
3922.154271
 20
2084.148146
 11
3935.095223
 21
2084.148146
 12
3928.624747
 22
2060.000000
 13
3928.624747
 23
2060.000000
  0
LINE
  8
0
 62
     1
  6
CONTINUOUS
 10
3928.624747
 20
1850.000000
 11
3928.624747
 21
1900.000000
  0
SOLID
  8
0
 62
     1
 10
3935.095223
 20
1875.851854
 11
3922.154271
 21
1875.851854
 12
3928.624747
 22
1900.000000
 13
3928.624747
 23
1900.000000
  0
TEXT
  8
0
 62
     1
 10
3923.291414
 20
1952.000000
 40
32.000000
 50
90.000000
 41
0.58 
  1
160
 72
     5
 11
3923.291414
 21
2008.000000
  0
LINE
  8
0
 62
     1
  6
CONTINUOUS
 10
3840.419075
 20
2060.000000
 11
3938.624747
 21
2060.000000
  0
LINE
  8
0
 62
     1
  6
CONTINUOUS
 10
3881.624747
 20
1900.000000
 11
3938.624747
 21
1900.000000
  0
LINE
  8
0
 62
     1
  6
CONTINUOUS
 10
3928.624747
 20
1900.000000
 11
3928.624747
 21
2060.000000
  0
ENDBLK
  0
BLOCK
  8
0
  2
G21
 70
     0
 10
0
 20
0
  0
LINE
  8
0
 62
     3
  6
CONTINUOUS
 10
3504.833296
 20
2213.997319
 11
3559.694733
 21
2213.997319
  0
SOLID
  8
0
 62
     3
 10
3530.716958
 20
2206.232748
 11
3530.716958
 21
2221.761890
 12
3559.694733
 22
2213.997319
 13
3559.694733
 23
2213.997319
  0
ENDBLK
  0
BLOCK
  8
0
  2
G22
 70
     0
 10
0
 20
0
  0
TEXT
  8
0
 62
     3
 10
3351.617360
 20
2200.553542
 40
32.000000
 50
0.000000E+00
 41
1.02 
  1
受口深さ
 72
     5
 11
3503.617360
 21
2200.553542
  0
ENDBLK
  0
BLOCK
  8
0
  2
G23
 70
     0
 10
0
 20
0
  0
TEXT
  8
0
 62
     1
 10
3060.784830
 20
2219.089268
 40
32.000000
 50
90.000000
 41
0.60 
  1
%%c125
 72
     5
 11
3060.784830
 21
2335.089268
  0
LINE
  8
0
 62
     1
  6
CONTINUOUS
 10
3002.863476
 20
2339.589268
 11
3076.118163
 21
2339.589268
  0
LINE
  8
0
 62
     1
  6
CONTINUOUS
 10
3002.863476
 20
2214.589268
 11
3076.118163
 21
2214.589268
  0
LINE
  8
0
 62
     1
  6
CONTINUOUS
 10
3066.118163
 20
2214.589268
 11
3066.118163
 21
2339.589268
  0
SOLID
  8
0
 62
     1
 10
3059.647687
 20
2238.737414
 11
3072.588639
 21
2238.737414
 12
3066.118163
 22
2214.589268
 13
3066.118163
 23
2214.589268
  0
SOLID
  8
0
 62
     1
 10
3072.588639
 20
2315.441123
 11
3059.647687
 21
2315.441123
 12
3066.118163
 22
2339.589268
 13
3066.118163
 23
2339.589268
  0
ENDBLK
  0
BLOCK
  8
0
  2
G24
 70
     0
 10
0
 20
0
  0
LINE
  8
0
 62
     1
  6
CONTINUOUS
 10
3066.118163
 20
2117.089268
 11
3066.118163
 21
2067.089268
  0
SOLID
  8
0
 62
     1
 10
3072.588639
 20
2092.941123
 11
3059.647687
 21
2092.941123
 12
3066.118163
 22
2117.089268
 13
3066.118163
 23
2117.089268
  0
LINE
  8
0
 62
     1
  6
CONTINUOUS
 10
3066.118163
 20
2232.089268
 11
3066.118163
 21
2182.089268
  0
SOLID
  8
0
 62
     1
 10
3059.647687
 20
2206.237414
 11
3072.588639
 21
2206.237414
 12
3066.118163
 22
2182.089268
 13
3066.118163
 23
2182.089268
  0
TEXT
  8
0
 62
     1
 10
3060.784830
 20
2131.589268
 40
32.000000
 50
90.000000
 41
0.56 
  1
65
 72
     5
 11
3060.784830
 21
2167.589268
  0
LINE
  8
0
 62
     1
  6
CONTINUOUS
 10
2905.363476
 20
2117.089268
 11
3126.118163
 21
2117.089268
  0
LINE
  8
0
 62
     1
  6
CONTINUOUS
 10
2902.863476
 20
2182.089268
 11
3076.118163
 21
2182.089268
  0
LINE
  8
0
 62
     1
  6
CONTINUOUS
 10
3066.118163
 20
2182.089268
 11
3066.118163
 21
2117.089268
  0
ENDBLK
  0
BLOCK
  8
0
  2
G25
 70
     0
 10
0
 20
0
  0
LINE
  8
0
 62
     3
  6
CONTINUOUS
 10
3549.622893
 20
1783.977731
 11
3387.758651
 21
1783.977731
  0
LINE
  8
0
 62
     3
  6
CONTINUOUS
 10
3549.622893
 20
1791.977731
 11
3387.758651
 21
1791.977731
  0
TEXT
  8
0
 62
     7
 10
3357.323826
 20
1801.475318
 40
32.000000
 50
360.000000
 41
0.66 
  1
％％ｃ　　　枝管
 72
     5
 11
3549.323826
 21
1801.475318
  0
ENDBLK
  0
BLOCK
  8
0
  2
G26
 70
     0
 10
0
 20
0
  0
TEXT
  8
0
 62
     7
 10
3357.323826
 20
1881.475318
 40
32.000000
 50
360.000000
 41
0.66 
  1
％％ｃ　　　枝管
 72
     5
 11
3549.323826
 21
1881.475318
  0
LINE
  8
0
 62
     3
  6
CONTINUOUS
 10
3549.622893
 20
1871.977731
 11
3387.758651
 21
1871.977731
  0
LINE
  8
0
 62
     3
  6
CONTINUOUS
 10
3549.622893
 20
1863.977731
 11
3387.758651
 21
1863.977731
  0
ENDBLK
  0
BLOCK
  8
0
  2
G27
 70
     0
 10
0
 20
0
  0
LINE
  8
0
 62
     3
  6
CONTINUOUS
 10
3581.996149
 20
1896.027622
 11
3562.788832
 21
1896.027622
  0
TEXT
  8
0
 62
     3
 10
3565.996149
 20
1901.360955
 40
32.000000
 50
0.000000E+00
 41
0.50 
  1
 
 72
     5
 11
3581.996149
 21
1901.360955
  0
LINE
  8
0
 62
     3
  6
CONTINUOUS
 10
3602.888318
 20
2000.488469
 11
3581.996149
 21
1896.027622
  0
SOLID
  8
0
 62
     3
 10
3604.175505
 20
1980.529933
 11
3594.023786
 21
1982.560277
 12
3602.888318
 22
2000.488469
 13
3602.888318
 23
2000.488469
  0
ENDBLK
  0
BLOCK
  8
0
  2
G28
 70
     0
 10
0
 20
0
  0
LINE
  8
0
 62
     3
  6
CONTINUOUS
 10
3588.061617
 20
1807.741357
 11
3556.061617
 21
1807.741357
  0
TEXT
  8
0
 62
     3
 10
3572.061617
 20
1813.074690
 40
32.000000
 50
0.000000E+00
 41
0.50 
  1
 
 72
     5
 11
3588.061617
 21
1813.074690
  0
LINE
  8
0
 62
     3
  6
CONTINUOUS
 10
3656.129653
 20
1927.028905
 11
3588.061617
 21
1807.741357
  0
SOLID
  8
0
 62
     3
 10
3651.051115
 20
1907.684437
 11
3642.059276
 21
1912.815373
 12
3656.129653
 22
1927.028905
 13
3656.129653
 23
1927.028905
  0
ENDBLK
  0
BLOCK
  8
0
  2
G29
 70
     0
 10
0
 20
0
  0
LINE
  8
0
 62
     1
  6
CONTINUOUS
 10
2665.786562
 20
1573.727117
 11
2665.786562
 21
1483.144416
  0
SOLID
  8
0
 62
     1
 10
2672.257038
 20
1549.578971
 11
2659.316086
 21
1549.578971
 12
2665.786562
 22
1573.727117
 13
2665.786562
 23
1573.727117
  0
TEXT
  8
0
 62
     1
 10
2660.453229
 20
1487.999037
 40
32.000000
 50
90.000000
 41
0.58 
  1
2.5
 72
     5
 11
2660.453229
 21
1543.999037
  0
LINE
  8
0
 62
     1
  6
CONTINUOUS
 10
2655.786562
 20
1573.727117
 11
2832.863476
 21
1573.727117
  0
LINE
  8
0
 62
     1
  6
CONTINUOUS
 10
2665.786562
 20
1573.727117
 11
2665.786562
 21
1576.227117
  0
ENDBLK
  0
BLOCK
  8
0
  2
G30
 70
     0
 10
0
 20
0
  0
LINE
  8
0
 62
     1
  6
CONTINUOUS
 10
3069.940390
 20
1576.227117
 11
3069.940390
 21
1636.227117
  0
CIRCLE
  8
0
 62
     1
  6
CONTINUOUS
 10
3069.940390
 20
1576.227117
 40
2.500000
  0
CIRCLE
  8
0
 62
     1
  6
CONTINUOUS
 10
3069.940390
 20
1576.227117
 40
1.250000
  0
LINE
  8
0
 62
     1
  6
CONTINUOUS
 10
2997.863476
 20
1576.227117
 11
3079.940390
 21
1576.227117
  0
LINE
  8
0
 62
     1
  6
CONTINUOUS
 10
3008.797182
 20
1636.227117
 11
3079.940390
 21
1636.227117
  0
TEXT
  8
0
 62
     1
 10
3064.607057
 20
1588.227117
 40
32.000000
 50
90.000000
 41
0.56 
  1
60
 72
     5
 11
3064.607057
 21
1624.227117
  0
LINE
  8
0
 62
     1
  6
CONTINUOUS
 10
3069.940390
 20
1636.227117
 11
3069.940390
 21
1686.227117
  0
SOLID
  8
0
 62
     1
 10
3062.175818
 20
1665.204891
 11
3077.704961
 21
1665.204891
 12
3069.940390
 22
1636.227117
 13
3069.940390
 23
1636.227117
  0
ENDBLK
  0
BLOCK
  8
0
  2
G31
 70
     0
 10
0
 20
0
  0
LINE
  8
0
 62
     1
  6
CONTINUOUS
 10
3069.940390
 20
1573.727117
 11
3069.940390
 21
1576.227117
  0
LINE
  8
0
 62
     1
  6
CONTINUOUS
 10
3079.940390
 20
1573.727117
 11
2997.863476
 21
1573.727117
  0
TEXT
  8
0
 62
     1
 10
3064.607057
 20
1487.999037
 40
32.000000
 50
90.000000
 41
0.58 
  1
2.5
 72
     5
 11
3064.607057
 21
1543.999037
  0
LINE
  8
0
 62
     1
  6
CONTINUOUS
 10
3069.940390
 20
1573.727117
 11
3069.940390
 21
1483.144416
  0
SOLID
  8
0
 62
     1
 10
3076.410866
 20
1549.578971
 11
3063.469913
 21
1549.578971
 12
3069.940390
 22
1573.727117
 13
3069.940390
 23
1573.727117
  0
ENDBLK
  0
BLOCK
  8
0
  2
G32
 70
     0
 10
0
 20
0
  0
LINE
  8
0
 62
     1
  6
CONTINUOUS
 10
2927.863476
 20
2400.343955
 11
2992.863476
 21
2400.343955
  0
LINE
  8
0
 62
     1
  6
CONTINUOUS
 10
2927.863476
 20
2347.089268
 11
2927.863476
 21
2410.343955
  0
LINE
  8
0
 62
     1
  6
CONTINUOUS
 10
2992.863476
 20
2349.589268
 11
2992.863476
 21
2460.343955
  0
TEXT
  8
0
 62
     1
 10
2942.363476
 20
2405.677288
 40
32.000000
 50
0.000000E+00
 41
0.56 
  1
65
 72
     5
 11
2978.363476
 21
2405.677288
  0
LINE
  8
0
 62
     1
  6
CONTINUOUS
 10
2877.863476
 20
2400.343955
 11
2927.863476
 21
2400.343955
  0
SOLID
  8
0
 62
     1
 10
2903.715330
 20
2393.873479
 11
2903.715330
 21
2406.814431
 12
2927.863476
 22
2400.343955
 13
2927.863476
 23
2400.343955
  0
LINE
  8
0
 62
     1
  6
CONTINUOUS
 10
2992.863476
 20
2400.343955
 11
3042.863476
 21
2400.343955
  0
SOLID
  8
0
 62
     1
 10
3017.011622
 20
2406.814431
 11
3017.011622
 21
2393.873479
 12
2992.863476
 22
2400.343955
 13
2992.863476
 23
2400.343955
  0
ENDBLK
  0
BLOCK
  8
0
  2
G33
 70
     0
 10
0
 20
0
  0
LINE
  8
0
 62
     7
  6
CONTINUOUS
 10
2737.863476
 20
2349.089268
 11
2737.863476
 21
2469.299426
  0
LINE
  8
0
 62
     7
  6
CONTINUOUS
 10
2832.863476
 20
2395.530428
 11
2832.863476
 21
2469.299426
  0
LINE
  8
0
 62
     7
  6
CONTINUOUS
 10
2737.863476
 20
2459.299426
 11
2832.863476
 21
2459.299426
  0
SOLID
  8
0
 62
     7
 10
2757.181992
 20
2464.475807
 11
2757.181992
 21
2454.123045
 12
2737.863476
 22
2459.299426
 13
2737.863476
 23
2459.299426
  0
SOLID
  8
0
 62
     7
 10
2813.544959
 20
2454.123045
 11
2813.544959
 21
2464.475807
 12
2832.863476
 22
2459.299426
 13
2832.863476
 23
2459.299426
  0
TEXT
  8
0
 62
     7
 10
2767.363476
 20
2464.632756
 40
32.000000
 50
0.000000E+00
 41
0.56 
  1
95
 72
     5
 11
2803.363476
 21
2464.632756
  0
ENDBLK
  0
BLOCK
  8
0
  2
G34
 70
     0
 10
0
 20
0
  0
LINE
  8
0
 62
     7
  6
CONTINUOUS
 10
2832.863476
 20
2379.187720
 11
2832.863476
 21
2469.299426
  0
LINE
  8
0
 62
     7
  6
CONTINUOUS
 10
2992.863476
 20
2359.589268
 11
2992.863476
 21
2469.299426
  0
LINE
  8
0
 62
     7
  6
CONTINUOUS
 10
2832.863476
 20
2459.299426
 11
2992.863476
 21
2459.299426
  0
SOLID
  8
0
 62
     7
 10
2852.181992
 20
2464.475807
 11
2852.181992
 21
2454.123045
 12
2832.863476
 22
2459.299426
 13
2832.863476
 23
2459.299426
  0
SOLID
  8
0
 62
     7
 10
2973.544959
 20
2454.123045
 11
2973.544959
 21
2464.475807
 12
2992.863476
 22
2459.299426
 13
2992.863476
 23
2459.299426
  0
TEXT
  8
0
 62
     7
 10
2884.863476
 20
2464.632756
 40
32.000000
 50
0.000000E+00
 41
0.58 
  1
160
 72
     5
 11
2940.863476
 21
2464.632756
  0
ENDBLK
  0
BLOCK
  8
0
  2
G35
 70
     0
 10
0
 20
0
  0
LINE
  8
0
 62
     7
  6
CONTINUOUS
 10
3071.415957
 20
2277.089268
 11
3134.337256
 21
2277.089268
  0
LINE
  8
0
 62
     7
  6
CONTINUOUS
 10
2915.363476
 20
2117.089268
 11
3134.337256
 21
2117.089268
  0
LINE
  8
0
 62
     7
  6
CONTINUOUS
 10
3124.337256
 20
2277.089268
 11
3124.337256
 21
2117.089268
  0
SOLID
  8
0
 62
     7
 10
3129.513637
 20
2257.770752
 11
3119.160875
 21
2257.770752
 12
3124.337256
 22
2277.089268
 13
3124.337256
 23
2277.089268
  0
SOLID
  8
0
 62
     7
 10
3119.160875
 20
2136.407785
 11
3129.513637
 21
2136.407785
 12
3124.337256
 22
2117.089268
 13
3124.337256
 23
2117.089268
  0
TEXT
  8
0
 62
     7
 10
3119.003926
 20
2169.089268
 40
32.000000
 50
90.000000
 41
0.58 
  1
160
 72
     5
 11
3119.003926
 21
2225.089268
  0
ENDBLK
  0
BLOCK
  8
0
  2
G36
 70
     0
 10
0
 20
0
  0
LINE
  8
0
 62
     7
  6
CONTINUOUS
 10
2757.863476
 20
1911.227117
 11
2757.863476
 21
1954.751724
  0
LINE
  8
0
 62
     7
  6
CONTINUOUS
 10
2907.863476
 20
1911.227117
 11
2907.863476
 21
1954.751724
  0
LINE
  8
0
 62
     7
  6
CONTINUOUS
 10
2757.863476
 20
1944.751724
 11
2907.863476
 21
1944.751724
  0
SOLID
  8
0
 62
     7
 10
2777.181992
 20
1949.928105
 11
2777.181992
 21
1939.575343
 12
2757.863476
 22
1944.751724
 13
2757.863476
 23
1944.751724
  0
SOLID
  8
0
 62
     7
 10
2888.544959
 20
1939.575343
 11
2888.544959
 21
1949.928105
 12
2907.863476
 22
1944.751724
 13
2907.863476
 23
1944.751724
  0
TEXT
  8
0
 62
     7
 10
2774.863476
 20
1950.085054
 40
32.000000
 50
0.000000E+00
 41
0.60 
  1
%%c150
 72
     5
 11
2890.863476
 21
1950.085054
  0
ENDBLK
  0
BLOCK
  8
0
  2
G37
 70
     0
 10
0
 20
0
  0
LINE
  8
0
 62
     7
  6
CONTINUOUS
 10
2746.863476
 20
1731.986486
 11
2746.863476
 21
2016.948668
  0
LINE
  8
0
 62
     7
  6
CONTINUOUS
 10
2918.863476
 20
1721.986486
 11
2918.863476
 21
2016.948668
  0
LINE
  8
0
 62
     7
  6
CONTINUOUS
 10
2746.863476
 20
2006.948668
 11
2918.863476
 21
2006.948668
  0
SOLID
  8
0
 62
     7
 10
2766.181992
 20
2012.125048
 11
2766.181992
 21
2001.772287
 12
2746.863476
 22
2006.948668
 13
2746.863476
 23
2006.948668
  0
SOLID
  8
0
 62
     7
 10
2899.544959
 20
2001.772287
 11
2899.544959
 21
2012.125048
 12
2918.863476
 22
2006.948668
 13
2918.863476
 23
2006.948668
  0
TEXT
  8
0
 62
     7
 10
2774.863476
 20
2012.281997
 40
32.000000
 50
0.000000E+00
 41
0.60 
  1
%%c172
 72
     5
 11
2890.863476
 21
2012.281997
  0
ENDBLK
  0
BLOCK
  8
0
  2
G38
 70
     0
 10
0
 20
0
  0
LINE
  8
0
 62
     7
  6
CONTINUOUS
 10
2777.863476
 20
906.227117
 11
2777.863476
 21
831.592951
  0
LINE
  8
0
 62
     7
  6
CONTINUOUS
 10
2887.863476
 20
906.227117
 11
2887.863476
 21
831.592951
  0
LINE
  8
0
 62
     7
  6
CONTINUOUS
 10
2777.863476
 20
841.592951
 11
2887.863476
 21
841.592951
  0
SOLID
  8
0
 62
     7
 10
2797.181992
 20
846.769332
 11
2797.181992
 21
836.416570
 12
2777.863476
 22
841.592951
 13
2777.863476
 23
841.592951
  0
SOLID
  8
0
 62
     7
 10
2868.544959
 20
836.416570
 11
2868.544959
 21
846.769332
 12
2887.863476
 22
841.592951
 13
2887.863476
 23
841.592951
  0
TEXT
  8
0
 62
     7
 10
2774.863476
 20
846.926280
 40
32.000000
 50
0.000000E+00
 41
0.60 
  1
%%c110
 72
     5
 11
2890.863476
 21
846.926280
  0
ENDBLK
  0
BLOCK
  8
0
  2
G39
 70
     0
 10
0
 20
0
  0
LINE
  8
0
 62
     7
  6
CONTINUOUS
 10
2746.863476
 20
1170.099028
 11
2746.863476
 21
766.948668
  0
LINE
  8
0
 62
     7
  6
CONTINUOUS
 10
2918.863476
 20
1180.099028
 11
2918.863476
 21
766.948668
  0
LINE
  8
0
 62
     7
  6
CONTINUOUS
 10
2746.863476
 20
776.948668
 11
2918.863476
 21
776.948668
  0
SOLID
  8
0
 62
     7
 10
2766.181992
 20
782.125048
 11
2766.181992
 21
771.772287
 12
2746.863476
 22
776.948668
 13
2746.863476
 23
776.948668
  0
SOLID
  8
0
 62
     7
 10
2899.544959
 20
771.772287
 11
2899.544959
 21
782.125048
 12
2918.863476
 22
776.948668
 13
2918.863476
 23
776.948668
  0
TEXT
  8
0
 62
     7
 10
2774.863476
 20
782.281997
 40
32.000000
 50
0.000000E+00
 41
0.60 
  1
%%c172
 72
     5
 11
2890.863476
 21
782.281997
  0
ENDBLK
  0
BLOCK
  8
0
  2
G40
 70
     0
 10
0
 20
0
  0
LINE
  8
0
 62
     7
  6
CONTINUOUS
 10
2914.576654
 20
1328.727117
 11
3089.940390
 21
1328.727117
  0
LINE
  8
0
 62
     7
  6
CONTINUOUS
 10
2860.779599
 20
1276.726996
 11
3089.940390
 21
1276.726996
  0
LINE
  8
0
 62
     7
  6
CONTINUOUS
 10
3079.940390
 20
1328.727117
 11
3079.940390
 21
1276.726996
  0
LINE
  8
0
 62
     7
  6
CONTINUOUS
 10
3079.940390
 20
1328.727117
 11
3079.940390
 21
1378.727117
  0
SOLID
  8
0
 62
     7
 10
3074.764009
 20
1348.045633
 11
3085.116770
 21
1348.045633
 12
3079.940390
 22
1328.727117
 13
3079.940390
 23
1328.727117
  0
LINE
  8
0
 62
     7
  6
CONTINUOUS
 10
3079.940390
 20
1276.726996
 11
3079.940390
 21
1226.726996
  0
SOLID
  8
0
 62
     7
 10
3085.116770
 20
1257.408479
 11
3074.764009
 21
1257.408479
 12
3079.940390
 22
1276.726996
 13
3079.940390
 23
1276.726996
  0
TEXT
  8
0
 62
     7
 10
3074.607060
 20
1286.727056
 40
32.000000
 50
90.000000
 41
0.86 
  1
Ｂ
 72
     5
 11
3074.607060
 21
1318.727056
  0
ENDBLK
  0
BLOCK
  8
0
  2
G41
 70
     0
 10
0
 20
0
  0
LINE
  8
0
 62
     7
  6
CONTINUOUS
 10
2663.893302
 20
1327.718419
 11
2609.073377
 21
1327.718419
  0
LINE
  8
0
 62
     7
  6
CONTINUOUS
 10
2662.863476
 20
1276.227117
 11
2609.073377
 21
1276.227117
  0
LINE
  8
0
 62
     7
  6
CONTINUOUS
 10
2619.073377
 20
1327.718419
 11
2619.073377
 21
1276.227117
  0
LINE
  8
0
 62
     7
  6
CONTINUOUS
 10
2619.073377
 20
1327.718419
 11
2619.073377
 21
1377.718419
  0
SOLID
  8
0
 62
     7
 10
2613.896996
 20
1347.036935
 11
2624.249758
 21
1347.036935
 12
2619.073377
 22
1327.718419
 13
2619.073377
 23
1327.718419
  0
LINE
  8
0
 62
     7
  6
CONTINUOUS
 10
2619.073377
 20
1276.227117
 11
2619.073377
 21
1226.227117
  0
SOLID
  8
0
 62
     7
 10
2624.249758
 20
1256.908600
 11
2613.896996
 21
1256.908600
 12
2619.073377
 22
1276.227117
 13
2619.073377
 23
1276.227117
  0
TEXT
  8
0
 62
     7
 10
2613.740047
 20
1285.972768
 40
32.000000
 50
90.000000
 41
0.86 
  1
Ｂ
 72
     5
 11
2613.740047
 21
1317.972768
  0
ENDBLK
  0
BLOCK
  8
0
  2
G42
 70
     0
 10
0
 20
0
  0
POINT
  8
0
 62
     2
 10
2745.893302
 20
1334.278419
  0
LINE
  8
0
 62
     2
  6
CENTER
 10
2662.613473
 20
1327.944015
 11
2745.893302
 21
1326.278419
  0
LINE
  8
0
 62
     2
  6
CONTINUOUS
 10
2679.932094
 20
1379.608042
 11
2737.863476
 21
1378.449414
  0
LINE
  8
0
 62
     2
  6
CONTINUOUS
 10
2737.847126
 20
1274.927444
 11
2672.863476
 21
1276.227117
  0
LINE
  8
0
 62
     2
  6
CONTINUOUS
 10
2679.992082
 20
1382.607442
 11
2674.993082
 21
1382.707422
  0
LINE
  8
0
 62
     2
  6
CONTINUOUS
 10
2674.993082
 20
1382.707422
 11
2672.863476
 21
1276.227117
  0
LINE
  8
0
 62
     2
  6
CONTINUOUS
 10
2679.992082
 20
1382.607442
 11
2677.862476
 21
1276.127137
  0
POINT
  8
0
 62
     2
 10
2673.893302
 20
1327.718419
  0
ENDBLK
  0
BLOCK
  8
0
  2
G43
 70
     0
 10
0
 20
0
  0
CIRCLE
  8
0
 62
     1
  6
CONTINUOUS
 10
2832.863476
 20
1336.227117
 40
62.000000
  0
LINE
  8
0
 62
     2
  6
CONTINUOUS
 10
2850.779599
 20
1276.726996
 11
2814.947353
 21
1276.726996
  0
CIRCLE
  8
0
 62
     2
  6
CONTINUOUS
 10
2832.863476
 20
1328.727117
 40
47.000000
  0
ARC
  8
0
 62
     2
  6
CONTINUOUS
 10
2832.863476
 20
1328.727117
 40
55.000000
 50
289.010880
 51
610.989120
  0
LINE
  8
0
 62
     2
  6
CENTER
 10
2761.150298
 20
1328.727117
 11
2898.861697
 21
1328.727117
  0
CIRCLE
  8
0
 62
     2
  6
CONTINUOUS
 10
2832.863476
 20
1328.727117
 40
35.000000
  0
ENDBLK
  0
BLOCK
  8
0
  2
G44
 70
     0
 10
0
 20
0
  0
LINE
  8
0
 62
     2
  6
CONTINUOUS
 10
3769.000000
 20
1905.000000
 11
3769.000000
 21
1900.000000
  0
LINE
  8
0
 62
     2
  6
CONTINUOUS
 10
3659.000000
 20
1905.000000
 11
3659.000000
 21
1900.000000
  0
LINE
  8
0
 62
     2
  6
CONTINUOUS
 10
3765.965398
 20
1905.000000
 11
3765.569710
 21
1961.979167
  0
LINE
  8
0
 62
     2
  6
CONTINUOUS
 10
3662.034602
 20
1905.000000
 11
3662.430290
 21
1961.979167
  0
LINE
  8
0
 62
     2
  6
CONTINUOUS
 10
3659.000000
 20
1905.000000
 11
3769.000000
 21
1905.000000
  0
LINE
  8
0
 62
     2
  6
CONTINUOUS
 10
3769.000000
 20
1900.000000
 11
3659.000000
 21
1900.000000
  0
ENDBLK
  0
BLOCK
  8
0
  2
G45
 70
     0
 10
0
 20
0
  0
LINE
  8
0
 62
     7
  6
CONTINUOUS
 10
3544.000000
 20
2115.000000
 11
3491.675308
 21
2115.000000
  0
LINE
  8
0
 62
     7
  6
CONTINUOUS
 10
3544.000000
 20
2005.000000
 11
3491.675308
 21
2005.000000
  0
LINE
  8
0
 62
     7
  6
CONTINUOUS
 10
3501.675308
 20
2115.000000
 11
3501.675308
 21
2005.000000
  0
SOLID
  8
0
 62
     7
 10
3506.851689
 20
2095.681483
 11
3496.498927
 21
2095.681483
 12
3501.675308
 22
2115.000000
 13
3501.675308
 23
2115.000000
  0
SOLID
  8
0
 62
     7
 10
3496.498927
 20
2024.318517
 11
3506.851689
 21
2024.318517
 12
3501.675308
 22
2005.000000
 13
3501.675308
 23
2005.000000
  0
TEXT
  8
0
 62
     7
 10
3496.341978
 20
2044.000000
 40
32.000000
 50
90.000000
 41
0.86 
  1
Ａ
 72
     5
 11
3496.341978
 21
2076.000000
  0
ENDBLK
  0
BLOCK
  8
0
  2
G46
 70
     0
 10
0
 20
0
  0
LINE
  8
0
 62
     2
  6
CONTINUOUS
 10
3619.000000
 20
2112.000000
 11
3559.000000
 21
2112.000000
  0
LINE
  8
0
 62
     2
  6
CONTINUOUS
 10
3559.000000
 20
2008.000000
 11
3619.000000
 21
2008.000000
  0
LINE
  8
0
 62
     2
  6
CONTINUOUS
 10
3559.000000
 20
2115.000000
 11
3554.000000
 21
2115.000000
  0
LINE
  8
0
 62
     2
  6
CONTINUOUS
 10
3559.000000
 20
2005.000000
 11
3554.000000
 21
2005.000000
  0
LINE
  8
0
 62
     2
  6
CONTINUOUS
 10
3559.000000
 20
2005.000000
 11
3559.000000
 21
2115.000000
  0
LINE
  8
0
 62
     2
  6
CONTINUOUS
 10
3554.000000
 20
2005.000000
 11
3554.000000
 21
2115.000000
  0
ENDBLK
  0
BLOCK
  8
0
  2
G47
 70
     0
 10
0
 20
0
  0
LINE
  8
0
 62
     7
  6
CONTINUOUS
 10
3659.000000
 20
1890.000000
 11
3659.000000
 21
1838.019379
  0
LINE
  8
0
 62
     7
  6
CONTINUOUS
 10
3769.000000
 20
1890.000000
 11
3769.000000
 21
1838.019379
  0
LINE
  8
0
 62
     7
  6
CONTINUOUS
 10
3659.000000
 20
1848.019379
 11
3769.000000
 21
1848.019379
  0
SOLID
  8
0
 62
     7
 10
3678.318517
 20
1853.195760
 11
3678.318517
 21
1842.842998
 12
3659.000000
 22
1848.019379
 13
3659.000000
 23
1848.019379
  0
SOLID
  8
0
 62
     7
 10
3749.681483
 20
1842.842998
 11
3749.681483
 21
1853.195760
 12
3769.000000
 22
1848.019379
 13
3769.000000
 23
1848.019379
  0
TEXT
  8
0
 62
     7
 10
3698.000000
 20
1853.352709
 40
32.000000
 50
0.000000E+00
 41
0.86 
  1
Ａ
 72
     5
 11
3730.000000
 21
1853.352709
  0
ENDBLK
  0
ENDSEC
  0
SECTION
  2
ENTITIES
  0
LINE
  8
3
 62
     4
  6
CONTINUOUS
 10
2771.469532
 20
1347.933255
 11
2771.085445
 21
1351.857217
  0
LINE
  8
3
 62
     4
  6
CONTINUOUS
 10
2771.085445
 20
1351.857217
 11
2770.592081
 21
1355.710664
  0
LINE
  8
3
 62
     4
  6
CONTINUOUS
 10
2770.592081
 20
1355.710664
 11
2769.991667
 21
1359.476211
  0
LINE
  8
3
 62
     4
  6
CONTINUOUS
 10
2769.991667
 20
1359.476211
 11
2769.286910
 21
1363.136872
  0
LINE
  8
3
 62
     4
  6
CONTINUOUS
 10
2769.286910
 20
1363.136872
 11
2768.480992
 21
1366.676130
  0
LINE
  8
3
 62
     4
  6
CONTINUOUS
 10
2768.480992
 20
1366.676130
 11
2767.577547
 21
1370.078019
  0
LINE
  8
3
 62
     4
  6
CONTINUOUS
 10
2767.577547
 20
1370.078019
 11
2766.580651
 21
1373.327191
  0
LINE
  8
3
 62
     4
  6
CONTINUOUS
 10
2766.580651
 20
1373.327191
 11
2765.494802
 21
1376.408988
  0
LINE
  8
3
 62
     4
  6
CONTINUOUS
 10
2765.494802
 20
1376.408988
 11
2764.324899
 21
1379.309505
  0
LINE
  8
3
 62
     4
  6
CONTINUOUS
 10
2765.494802
 20
1376.408988
 11
2764.324899
 21
1379.309505
  0
LINE
  8
3
 62
     4
  6
CONTINUOUS
 10
2750.063888
 20
1276.717316
 11
2753.468610
 21
1278.343896
  0
LINE
  8
3
 62
     4
  6
CONTINUOUS
 10
2753.468610
 20
1278.343896
 11
2756.746830
 21
1281.079067
  0
LINE
  8
3
 62
     4
  6
CONTINUOUS
 10
2756.746830
 20
1281.079067
 11
2759.835762
 21
1284.870446
  0
LINE
  8
3
 62
     4
  6
CONTINUOUS
 10
2759.835762
 20
1284.870446
 11
2762.676246
 21
1289.645417
  0
LINE
  8
3
 62
     4
  6
CONTINUOUS
 10
2762.676246
 20
1289.645417
 11
2765.213881
 21
1295.312531
  0
LINE
  8
3
 62
     4
  6
CONTINUOUS
 10
2765.213881
 20
1295.312531
 11
2767.400065
 21
1301.763250
  0
LINE
  8
3
 62
     4
  6
CONTINUOUS
 10
2767.400065
 20
1301.763250
 11
2769.192928
 21
1308.874027
  0
LINE
  8
3
 62
     4
  6
CONTINUOUS
 10
2769.192928
 20
1308.874027
 11
2770.558132
 21
1316.508677
  0
LINE
  8
3
 62
     4
  6
CONTINUOUS
 10
2770.558132
 20
1316.508677
 11
2771.469532
 21
1324.520978
  0
LINE
  8
3
 62
     4
  6
CONTINUOUS
 10
2770.558132
 20
1316.508677
 11
2771.469532
 21
1324.520978
  0
LINE
  8
1
 62
     4
  6
CONTINUOUS
 10
2737.863476
 20
1396.227117
 11
2737.863476
 21
1276.227117
  0
ARC
  8
1
 62
     4
  6
CONTINUOUS
 10
2727.062159
 20
1370.987309
 40
30.639745
 50
33.671563
 51
62.448001
  0
LINE
  8
1
 62
     4
  6
CONTINUOUS
 10
2743.863476
 20
1274.227117
 11
2739.863476
 21
1274.227117
  0
INSERT
  8
0
  2
G0
 10
0
 20
0
  0
INSERT
  8
0
  2
G1
 10
0
 20
0
  0
INSERT
  8
0
  2
G2
 10
0
 20
0
  0
INSERT
  8
0
  2
G3
 10
0
 20
0
  0
INSERT
  8
0
  2
G4
 10
0
 20
0
  0
LINE
  8
3
 62
     3
  6
CONTINUOUS
 10
2895.363476
 20
2122.089268
 11
2772.863476
 21
2122.089268
  0
LINE
  8
3
 62
     3
  6
CONTINUOUS
 10
2895.363476
 20
2122.089268
 11
2895.363476
 21
2117.089268
  0
LINE
  8
3
 62
     3
  6
CONTINUOUS
 10
2770.363476
 20
2122.089268
 11
2770.363476
 21
2117.089268
  0
LINE
  8
3
 62
     3
  6
CONTINUOUS
 10
2770.363476
 20
2122.089268
 11
2772.863476
 21
2122.089268
  0
LINE
  8
3
 62
     3
  6
CONTINUOUS
 10
2770.363476
 20
2117.089268
 11
2895.363476
 21
2117.089268
  0
LINE
  8
0
 62
     3
  6
CONTINUOUS
 10
3038.660141
 20
2126.953184
 11
3038.660141
 21
2048.424900
  0
SOLID
  8
0
 62
     3
 10
3046.424713
 20
2097.975409
 11
3030.895570
 21
2097.975409
 12
3038.660141
 22
2126.953184
 13
3038.660141
 23
2126.953184
  0
LINE
  8
3
 62
     3
  6
CONTINUOUS
 10
2892.863476
 20
2122.089268
 11
2892.863476
 21
2182.089268
  0
LINE
  8
3
 62
     3
  6
CONTINUOUS
 10
2772.863476
 20
2122.089268
 11
2772.863476
 21
2182.089268
  0
INSERT
  8
0
  2
G5
 10
0
 20
0
  0
INSERT
  8
0
  2
G6
 10
0
 20
0
  0
LINE
  8
0
 62
     1
  6
CONTINUOUS
 10
3619.000000
 20
2125.638816
 11
3619.000000
 21
2198.890454
  0
INSERT
  8
0
  2
G7
 10
0
 20
0
  0
LINE
  8
0
 62
     1
  6
CONTINUOUS
 10
3779.638816
 20
1965.000000
 11
3875.624747
 21
1965.000000
  0
ARC
  8
1
 62
     4
  6
CONTINUOUS
 10
2743.863476
 20
1271.227117
 40
3.000000
 50
0.000000E+00
 51
90.000000
  0
INSERT
  8
0
  2
G8
 10
0
 20
0
  0
LINE
  8
3
 62
     4
  6
CONTINUOUS
 10
2736.304328
 20
1411.227117
 11
2739.863476
 21
1406.926479
  0
ARC
  8
3
 62
     4
  6
CONTINUOUS
 10
2732.363476
 20
1412.727117
 40
1.500000
 50
180.000000
 51
270.000000
  0
LINE
  8
3
 62
     4
  6
CONTINUOUS
 10
2730.863476
 20
1414.227117
 11
2730.863476
 21
1412.727117
  0
POINT
  8
3
 62
     4
 10
2746.863476
 20
1274.227117
  0
POINT
  8
3
 62
     7
 10
2746.863476
 20
1396.227117
  0
LINE
  8
0
 62
     3
  6
CONTINUOUS
 10
3849.860123
 20
1803.572894
 11
3849.860123
 21
1907.691733
  0
SOLID
  8
0
 62
     3
 10
3857.624694
 20
1878.713958
 11
3842.095551
 21
1878.713958
 12
3849.860123
 22
1907.691733
 13
3849.860123
 23
1907.691733
  0
TEXT
  8
0
 62
     3
 10
3832.846609
 20
1769.667488
 40
32.000000
 50
0.000000E+00
 41
1.02 
  1
受口深さ
 72
     5
 11
3984.846609
 21
1769.667488
  0
LINE
  8
3
 62
     4
  6
CONTINUOUS
 10
2739.863476
 20
1406.926479
 11
2739.863476
 21
1398.227117
  0
ARC
  8
3
 62
     4
  6
CONTINUOUS
 10
2772.735293
 20
1408.175616
 40
28.500781
 50
225.057601
 51
244.512889
  0
POINT
  8
3
 62
     7
 10
2746.863476
 20
1396.227117
  0
ARC
  8
1
 62
     4
  6
CONTINUOUS
 10
2739.863476
 20
1276.227117
 40
2.000000
 50
180.000000
 51
270.000000
  0
LINE
  8
0
 62
     2
  6
CONTINUOUS
 10
2734.863476
 20
1431.728715
 11
2734.863476
 21
1433.728715
  0
LINE
  8
0
 62
     2
  6
CONTINUOUS
 10
2727.863476
 20
1434.728715
 11
2832.863476
 21
1434.728715
  0
LINE
  8
0
 62
     2
  6
CONTINUOUS
 10
2734.863476
 20
1431.728715
 11
2930.863476
 21
1431.728715
  0
LINE
  8
0
 62
     2
  6
CONTINUOUS
 10
2727.863476
 20
1434.728715
 11
2727.863476
 21
1442.728715
  0
LINE
  8
0
 62
     3
  6
CONTINUOUS
 10
2918.863476
 20
1701.227117
 11
2918.863476
 21
1711.986486
  0
LINE
  8
3
 62
     3
  6
CONTINUOUS
 10
2907.863476
 20
1896.227117
 11
2832.863476
 21
1896.227117
  0
LINE
  8
3
 62
     3
  6
CONTINUOUS
 10
2757.863476
 20
1901.227117
 11
2907.863476
 21
1901.227117
  0
LINE
  8
3
 62
     3
  6
CONTINUOUS
 10
2757.863476
 20
1901.227117
 11
2757.863476
 21
1896.227117
  0
LINE
  8
0
 62
     3
  6
CONTINUOUS
 10
2918.863476
 20
1571.227117
 11
2918.863476
 21
1449.728715
  0
ARC
  8
3
 62
     3
  6
CONTINUOUS
 10
2894.863476
 20
1824.227117
 40
10.000000
 50
302.527138
 51
360.000000
  0
LINE
  8
3
 62
     3
  6
CONTINUOUS
 10
2760.863476
 20
1891.644541
 11
2760.863476
 21
1824.227117
  0
LINE
  8
3
 62
     3
  6
CONTINUOUS
 10
2904.863476
 20
1891.644541
 11
2904.863476
 21
1824.227117
  0
ARC
  8
3
 62
     3
  6
CONTINUOUS
 10
2770.863476
 20
1824.227117
 40
10.000000
 50
180.000000
 51
238.038250
  0
LINE
  8
3
 62
     3
  6
CENTER
 10
2998.797182
 20
1636.227117
 11
2730.937527
 21
1636.227117
  0
LINE
  8
0
 62
     2
  6
CONTINUOUS
 10
2930.863476
 20
1449.728715
 11
2937.863476
 21
1442.728715
  0
ARC
  8
3
 62
     3
  6
CONTINUOUS
 10
2755.863476
 20
1891.644541
 40
5.000000
 50
360.000000
 51
426.421822
  0
LINE
  8
3
 62
     3
  6
CONTINUOUS
 10
2907.863476
 20
1901.227117
 11
2907.863476
 21
1896.227117
  0
ARC
  8
0
 62
     3
  6
CONTINUOUS
 10
2883.863476
 20
1711.986486
 40
35.000000
 50
0.000000E+00
 51
17.716492
  0
ARC
  8
3
 62
     3
  6
CONTINUOUS
 10
2909.863476
 20
1891.644541
 40
5.000000
 50
113.578178
 51
180.000000
  0
LINE
  8
3
 62
     3
  6
CONTINUOUS
 10
2910.602498
 20
1719.103002
 11
2832.863476
 21
1719.103002
  0
ARC
  8
3
 62
     4
  6
CONTINUOUS
 10
2752.863476
 20
1062.355205
 40
25.000000
 50
0.000000E+00
 51
14.708304
  0
LINE
  8
3
 62
     4
  6
CONTINUOUS
 10
2748.010392
 20
1181.212593
 11
2777.044250
 21
1068.702658
  0
ARC
  8
3
 62
     4
  6
CONTINUOUS
 10
2781.863476
 20
1190.099028
 40
35.000000
 50
180.000000
 51
194.708304
  0
LINE
  8
3
 62
     4
  6
CONTINUOUS
 10
2777.863476
 20
1062.355205
 11
2777.863476
 21
918.227117
  0
ARC
  8
3
 62
     4
  6
CONTINUOUS
 10
2912.863476
 20
1062.355205
 40
25.000000
 50
165.291696
 51
180.000000
  0
LINE
  8
3
 62
     4
  6
CONTINUOUS
 10
2917.716560
 20
1181.212593
 11
2888.682702
 21
1068.702658
  0
ARC
  8
3
 62
     4
  6
CONTINUOUS
 10
2883.863476
 20
1190.099028
 40
35.000000
 50
345.291696
 51
360.000000
  0
LINE
  8
3
 62
     4
  6
CONTINUOUS
 10
2887.863476
 20
1062.355205
 11
2887.863476
 21
918.227117
  0
LINE
  8
3
 62
     4
  6
CONTINUOUS
 10
2885.863476
 20
916.227117
 11
2779.863476
 21
916.227117
  0
LINE
  8
3
 62
     4
  6
CONTINUOUS
 10
2782.612565
 20
1066.227117
 11
2883.114387
 21
1066.227117
  0
LINE
  8
3
 62
     4
  6
CONTINUOUS
 10
2752.114387
 20
1186.227117
 11
2913.612565
 21
1186.227117
  0
LINE
  8
3
 62
     4
  6
CONTINUOUS
 10
2739.863476
 20
1406.926479
 11
2925.863476
 21
1406.926479
  0
LINE
  8
3
 62
     4
  6
CONTINUOUS
 10
2918.863476
 20
1190.099028
 11
2918.863476
 21
1406.926479
  0
LINE
  8
3
 62
     4
  6
CONTINUOUS
 10
2728.863476
 20
1416.227117
 11
2936.863476
 21
1416.227117
  0
LINE
  8
3
 62
     4
  6
CONTINUOUS
 10
2937.863476
 20
1431.227117
 11
2727.863476
 21
1431.227117
  0
ARC
  8
3
 62
     4
  6
CONTINUOUS
 10
2779.863476
 20
918.227117
 40
2.000000
 50
180.000000
 51
270.000000
  0
ARC
  8
3
 62
     4
  6
CONTINUOUS
 10
2885.863476
 20
918.227117
 40
2.000000
 50
270.000000
 51
360.000000
  0
LINE
  8
3
 62
     4
  6
CONTINUOUS
 10
2937.863476
 20
1431.227117
 11
2937.863476
 21
1416.227117
  0
LINE
  8
3
 62
     4
  6
CONTINUOUS
 10
2936.863476
 20
1416.227117
 11
2937.863476
 21
1416.227117
  0
LINE
  8
3
 62
     3
  6
CENTER
 10
2754.374623
 20
1407.283548
 11
2754.374623
 21
1437.774319
  0
LINE
  8
3
 62
     3
  6
CENTER
 10
2911.352329
 20
1407.283548
 11
2911.352329
 21
1437.774319
  0
ARC
  8
3
 62
     4
  6
CONTINUOUS
 10
2936.863476
 20
1414.227117
 40
2.000000
 50
90.000000
 51
180.000000
  0
LINE
  8
3
 62
     4
  6
CONTINUOUS
 10
2934.863476
 20
1414.227117
 11
2934.863476
 21
1412.727117
  0
ARC
  8
3
 62
     4
  6
CONTINUOUS
 10
2933.363476
 20
1412.727117
 40
1.500000
 50
270.000000
 51
360.000000
  0
LINE
  8
3
 62
     4
  6
CONTINUOUS
 10
2933.363476
 20
1411.227117
 11
2732.363476
 21
1411.227117
  0
ARC
  8
3
 62
     4
  6
CONTINUOUS
 10
2732.363476
 20
1412.727117
 40
1.500000
 50
180.000000
 51
270.000000
  0
LINE
  8
3
 62
     4
  6
CONTINUOUS
 10
2730.863476
 20
1414.227117
 11
2730.863476
 21
1412.727117
  0
ARC
  8
3
 62
     4
  6
CONTINUOUS
 10
2728.863476
 20
1414.227117
 40
2.000000
 50
0.000000E+00
 51
90.000000
  0
LINE
  8
3
 62
     4
  6
CONTINUOUS
 10
2728.863476
 20
1416.227117
 11
2727.863476
 21
1416.227117
  0
LINE
  8
3
 62
     4
  6
CONTINUOUS
 10
2727.863476
 20
1431.227117
 11
2727.863476
 21
1416.227117
  0
LINE
  8
0
 62
     3
  6
CONTINUOUS
 10
2746.863476
 20
1711.986486
 11
2746.863476
 21
1701.227117
  0
ARC
  8
0
 62
     3
  6
CONTINUOUS
 10
2781.863476
 20
1711.986486
 40
35.000000
 50
162.283508
 51
180.000000
  0
LINE
  8
3
 62
     3
  6
CONTINUOUS
 10
2893.833460
 20
1815.743100
 11
2832.863476
 21
1815.743100
  0
LINE
  8
0
 62
     3
  6
CONTINUOUS
 10
2772.110159
 20
1798.036132
 11
2748.523388
 21
1722.637240
  0
LINE
  8
0
 62
     3
  6
CONTINUOUS
 10
2893.616793
 20
1798.036132
 11
2917.203563
 21
1722.637240
  0
ARC
  8
2
 62
     3
  6
CONTINUOUS
 10
2757.821550
 20
1802.600741
 40
15.000000
 50
342.283508
 51
419.888987
  0
LINE
  8
3
 62
     4
  6
CENTER
 10
2832.863476
 20
1143.831738
 11
2832.863476
 21
1455.909326
  0
LINE
  8
3
 62
     4
  6
CENTER
 10
2832.863476
 20
903.139597
 11
2832.863476
 21
1143.831738
  0
LINE
  8
0
 62
     2
  6
CONTINUOUS
 10
2734.863476
 20
1449.728715
 11
2727.863476
 21
1442.728715
  0
LINE
  8
0
 62
     3
  6
CONTINUOUS
 10
2746.863476
 20
1571.227117
 11
2746.863476
 21
1449.728715
  0
ARC
  8
2
 62
     3
  6
CONTINUOUS
 10
2907.905401
 20
1802.600741
 40
15.000000
 50
120.111013
 51
197.716492
  0
LINE
  8
0
 62
     7
  6
CONTINUOUS
 10
2980.343034
 20
1742.311644
 11
2980.343034
 21
1700.527305
  0
SOLID
  8
0
 62
     7
 10
2972.578462
 20
1729.505080
 11
2988.107605
 21
1729.505080
 12
2980.343034
 22
1700.527305
 13
2980.343034
 23
1700.527305
  0
LINE
  8
3
 62
     3
  6
CONTINUOUS
 10
2916.677172
 20
1695.980203
 11
2913.346440
 21
1694.660076
  0
LINE
  8
3
 62
     3
  6
CONTINUOUS
 10
2913.346440
 20
1694.660076
 11
2910.121562
 21
1692.224148
  0
LINE
  8
3
 62
     3
  6
CONTINUOUS
 10
2910.121562
 20
1692.224148
 11
2907.064117
 21
1688.718932
  0
LINE
  8
3
 62
     3
  6
CONTINUOUS
 10
2907.064117
 20
1688.718932
 11
2904.232490
 21
1684.211363
  0
LINE
  8
3
 62
     3
  6
CONTINUOUS
 10
2904.232490
 20
1684.211363
 11
2901.680751
 21
1678.787514
  0
LINE
  8
3
 62
     3
  6
CONTINUOUS
 10
2901.680751
 20
1678.787514
 11
2899.457627
 21
1672.550956
  0
LINE
  8
3
 62
     3
  6
CONTINUOUS
 10
2899.457627
 20
1672.550956
 11
2897.605569
 21
1665.620778
  0
LINE
  8
3
 62
     3
  6
CONTINUOUS
 10
2897.605569
 20
1665.620778
 11
2896.159943
 21
1658.129317
  0
LINE
  8
3
 62
     3
  6
CONTINUOUS
 10
2896.159943
 20
1658.129317
 11
2895.148355
 21
1650.219623
  0
LINE
  8
3
 62
     3
  6
CONTINUOUS
 10
2895.148355
 20
1650.219623
 11
2894.590120
 21
1642.042737
  0
LINE
  8
3
 62
     3
  6
CONTINUOUS
 10
2895.148355
 20
1650.219623
 11
2894.590120
 21
1642.042737
  0
LINE
  8
3
 62
     3
  6
CONTINUOUS
 10
2894.590120
 20
1630.411496
 11
2895.137664
 21
1622.344613
  0
LINE
  8
3
 62
     3
  6
CONTINUOUS
 10
2895.137664
 20
1622.344613
 11
2896.126506
 21
1614.535657
  0
LINE
  8
3
 62
     3
  6
CONTINUOUS
 10
2896.126506
 20
1614.535657
 11
2897.538274
 21
1607.129711
  0
LINE
  8
3
 62
     3
  6
CONTINUOUS
 10
2897.538274
 20
1607.129711
 11
2899.346737
 21
1600.264373
  0
LINE
  8
3
 62
     3
  6
CONTINUOUS
 10
2899.346737
 20
1600.264373
 11
2901.518297
 21
1594.067195
  0
LINE
  8
3
 62
     3
  6
CONTINUOUS
 10
2901.518297
 20
1594.067195
 11
2904.012606
 21
1588.653317
  0
LINE
  8
3
 62
     3
  6
CONTINUOUS
 10
2904.012606
 20
1588.653317
 11
2906.783323
 21
1584.123324
  0
LINE
  8
3
 62
     3
  6
CONTINUOUS
 10
2906.783323
 20
1584.123324
 11
2909.778971
 21
1580.561380
  0
LINE
  8
3
 62
     3
  6
CONTINUOUS
 10
2909.778971
 20
1580.561380
 11
2912.943891
 21
1578.033664
  0
LINE
  8
3
 62
     3
  6
CONTINUOUS
 10
2912.943891
 20
1578.033664
 11
2916.219282
 21
1576.587137
  0
LINE
  8
3
 62
     3
  6
CONTINUOUS
 10
2912.943891
 20
1578.033664
 11
2916.219282
 21
1576.587137
  0
TEXT
  8
0
 62
     3
 10
3729.484786
 20
1703.983847
 40
32.000000
 50
0.000000E+00
 41
0.87 
  1
Ｃ矢視　（下部）
 72
     5
 11
3985.484786
 21
1703.983847
  0
LINE
  8
0
 62
     3
  6
CONTINUOUS
 10
3725.484786
 20
1698.650514
 11
3979.388920
 21
1698.650514
  0
TEXT
  8
0
 62
     7
 10
2946.717552
 20
1749.590527
 40
32.000000
 50
0.000000E+00
 41
0.78 
  1
７５枝管
 72
     5
 11
3058.717552
 21
1749.590527
  0
TEXT
  8
0
 62
     3
 10
3568.856919
 20
2070.702571
 40
32.000000
 50
360.000000
 41
0.86 
  1
ｂ
 72
     5
 11
3600.856919
 21
2070.702571
  0
TEXT
  8
0
 62
     6
 10
2951.066195
 20
2683.926093
 40
32.000000
 50
0.000000E+00
 41
0.86 
  1
ａ
 72
     5
 11
2983.066195
 21
2683.926093
  0
TEXT
  8
0
 62
     3
 10
3673.656222
 20
1912.944211
 40
32.000000
 50
0.000000E+00
 41
0.86 
  1
ａ
 72
     5
 11
3705.656222
 21
1912.944211
  0
POINT
  8
0
 62
     3
 10
2832.863476
 20
1423.227117
  0
POINT
  8
0
 62
     3
 10
2832.863476
 20
1408.727117
  0
POINT
  8
0
 62
     3
 10
2832.863476
 20
1386.227117
  0
ARC
  8
0
 62
     2
  6
CONTINUOUS
 10
2733.863476
 20
1433.728715
 40
1.000000
 50
360.000000
 51
450.000000
  0
LINE
  8
0
 62
     2
  6
CONTINUOUS
 10
2734.863476
 20
1449.728715
 11
2930.863476
 21
1449.728715
  0
LINE
  8
3
 62
     3
  6
CONTINUOUS
 10
2987.863476
 20
1573.727117
 11
2987.863476
 21
1696.227117
  0
LINE
  8
3
 62
     3
  6
CONTINUOUS
 10
2987.863476
 20
1573.727117
 11
2992.863476
 21
1573.727117
  0
LINE
  8
3
 62
     3
  6
CONTINUOUS
 10
2987.863476
 20
1696.227117
 11
2927.863476
 21
1696.227117
  0
ARC
  8
1
 62
     3
  6
CONTINUOUS
 10
2925.863476
 20
1576.227117
 40
2.000000
 50
270.000000
 51
360.000000
  0
LINE
  8
3
 62
     3
  6
CONTINUOUS
 10
2987.863476
 20
1576.227117
 11
2927.863476
 21
1576.227117
  0
LINE
  8
3
 62
     3
  6
CONTINUOUS
 10
2987.863476
 20
1698.727117
 11
2992.863476
 21
1698.727117
  0
LINE
  8
3
 62
     3
  6
CONTINUOUS
 10
2987.863476
 20
1698.727117
 11
2987.863476
 21
1696.227117
  0
LINE
  8
3
 62
     3
  6
CONTINUOUS
 10
2992.863476
 20
1698.727117
 11
2992.863476
 21
1573.727117
  0
LINE
  8
1
 62
     3
  6
CONTINUOUS
 10
2925.863476
 20
1698.227117
 11
2921.863476
 21
1698.227117
  0
LINE
  8
1
 62
     3
  6
CONTINUOUS
 10
2925.863476
 20
1574.227117
 11
2921.863476
 21
1574.227117
  0
ARC
  8
1
 62
     3
  6
CONTINUOUS
 10
2925.863476
 20
1696.227117
 40
2.000000
 50
0.000000E+00
 51
90.000000
  0
ARC
  8
1
 62
     3
  6
CONTINUOUS
 10
2921.863476
 20
1701.227117
 40
3.000000
 50
180.000000
 51
270.000000
  0
ARC
  8
1
 62
     3
  6
CONTINUOUS
 10
2921.863476
 20
1571.227117
 40
3.000000
 50
90.000000
 51
180.000000
  0
ARC
  8
0
 62
     3
  6
CONTINUOUS
 10
2883.863476
 20
1711.986486
 40
35.000000
 50
0.000000E+00
 51
17.716492
  0
LINE
  8
0
 62
     3
  6
CONTINUOUS
 10
2918.863476
 20
1711.986486
 11
2918.863476
 21
1701.227117
  0
LINE
  8
0
 62
     2
  6
CONTINUOUS
 10
2727.863476
 20
1442.728715
 11
2832.863476
 21
1442.728715
  0
LINE
  8
3
 62
     3
  6
CENTER
 10
2832.863476
 20
1908.701565
 11
2832.863476
 21
1455.909326
  0
LINE
  8
3
 62
     3
  6
CONTINUOUS
 10
2755.124453
 20
1719.103002
 11
2832.863476
 21
1719.103002
  0
LINE
  8
3
 62
     3
  6
CONTINUOUS
 10
2771.893492
 20
1815.743100
 11
2832.863476
 21
1815.743100
  0
LINE
  8
3
 62
     3
  6
CONTINUOUS
 10
2757.863476
 20
1896.227117
 11
2832.863476
 21
1896.227117
  0
POINT
  8
0
 62
     3
 10
2832.863476
 20
1826.227117
  0
TEXT
  8
0
 62
     6
 10
2536.833607
 20
2583.812443
 40
35.000000
 50
0.000000E+00
 41
0.76 
  1
４ＳＦ－　　　－　　　　０　　　　　０－Ｐ
 72
     5
 11
3173.833607
 21
2583.812443
  0
LINE
  8
0
 62
     2
  6
CONTINUOUS
 10
2937.863476
 20
1434.728715
 11
2937.863476
 21
1442.728715
  0
LINE
  8
0
 62
     2
  6
CONTINUOUS
 10
2930.863476
 20
1431.728715
 11
2930.863476
 21
1433.728715
  0
ARC
  8
0
 62
     2
  6
CONTINUOUS
 10
2931.863476
 20
1433.728715
 40
1.000000
 50
90.000000
 51
180.000000
  0
LINE
  8
0
 62
     2
  6
CONTINUOUS
 10
2937.863476
 20
1442.728715
 11
2832.863476
 21
1442.728715
  0
LINE
  8
0
 62
     2
  6
CONTINUOUS
 10
2937.863476
 20
1434.728715
 11
2832.863476
 21
1434.728715
  0
ARC
  8
0
 62
     4
  6
CONTINUOUS
 10
3714.000000
 20
2060.000000
 40
100.000000
 50
36.038338
 51
53.961662
  0
LINE
  8
3
 62
     4
  6
CONTINUOUS
 10
3651.500000
 20
1905.000000
 11
3651.500000
 21
1900.000000
  0
ARC
  8
3
 62
     3
  6
CONTINUOUS
 10
3714.000000
 20
2060.000000
 40
105.000000
 50
80.096801
 51
100.978618
  0
ARC
  8
0
 62
     4
  6
CONTINUOUS
 10
3714.000000
 20
2060.000000
 40
100.000000
 50
306.038338
 51
323.961662
  0
ARC
  8
0
 62
     4
  6
CONTINUOUS
 10
3714.000000
 20
2060.000000
 40
100.000000
 50
216.038338
 51
233.961662
  0
CIRCLE
  8
3
 62
     4
  6
CONTINUOUS
 10
3714.000000
 20
2060.000000
 40
88.000000
  0
ARC
  8
3
 62
     4
  6
CONTINUOUS
 10
3714.000000
 20
2060.000000
 40
100.000000
 50
53.109614
 51
126.890386
  0
LINE
  8
3
 62
     4
  6
CONTINUOUS
 10
3794.964607
 20
2151.250931
 11
3732.061853
 21
2163.453628
  0
ARC
  8
3
 62
     3
  6
CONTINUOUS
 10
3714.000000
 20
2060.000000
 40
105.000000
 50
259.021382
 51
279.903199
  0
ARC
  8
3
 62
     3
  6
CONTINUOUS
 10
3714.000000
 20
2060.000000
 40
105.000000
 50
170.096801
 51
189.903199
  0
LINE
  8
3
 62
     4
  6
CONTINUOUS
 10
3633.035393
 20
2151.250931
 11
3695.938147
 21
2163.453628
  0
LINE
  8
3
 62
     3
  6
CENTER
 10
3645.288243
 20
1991.288243
 11
3624.607067
 21
1970.607067
  0
LINE
  8
3
 62
     4
  6
CONTINUOUS
 10
3622.749069
 20
2140.964607
 11
3610.546372
 21
2078.061853
  0
ARC
  8
3
 62
     4
  6
CENTER
 10
3714.000000
 20
2060.000000
 40
111.000000
 50
216.265016
 51
232.275712
  0
LINE
  8
3
 62
     3
  6
CENTER
 10
3646.362469
 20
2127.637531
 11
3623.850513
 21
2150.149487
  0
ARC
  8
3
 62
     4
  6
CENTER
 10
3714.000000
 20
2060.000000
 40
111.000000
 50
126.069475
 51
144.182385
  0
ARC
  8
3
 62
     4
  6
CENTER
 10
3714.000000
 20
2060.000000
 40
111.000000
 50
34.449115
 51
54.970079
  0
LINE
  8
3
 62
     4
  6
CONTINUOUS
 10
3622.749069
 20
1979.035393
 11
3610.546372
 21
2041.938147
  0
LINE
  8
3
 62
     4
  6
CONTINUOUS
 10
3817.078324
 20
2079.996478
 11
3805.250931
 21
2140.964607
  0
LINE
  8
3
 62
     3
  6
CENTER
 10
3781.991228
 20
2127.991228
 11
3803.941928
 21
2149.941928
  0
LINE
  8
3
 62
     4
  6
CONTINUOUS
 10
3633.035393
 20
1968.749069
 11
3694.003522
 21
1956.921676
  0
ARC
  8
3
 62
     4
  6
CONTINUOUS
 10
3635.511147
 20
1981.511147
 40
13.000000
 50
190.978618
 51
259.021382
  0
ARC
  8
3
 62
     4
  6
CONTINUOUS
 10
3635.511147
 20
2138.488853
 40
13.000000
 50
100.978618
 51
169.021382
  0
ARC
  8
3
 62
     4
  6
CONTINUOUS
 10
3792.488853
 20
2138.488853
 40
13.000000
 50
10.978618
 51
79.021382
  0
LINE
  8
3
 62
     3
  6
CENTER
 10
3781.985865
 20
1992.014135
 11
3803.726559
 21
1970.273441
  0
LINE
  8
3
 62
     4
  6
CONTINUOUS
 10
3794.964607
 20
1968.749069
 11
3732.061853
 21
1956.546372
  0
LINE
  8
3
 62
     4
  6
CONTINUOUS
 10
3805.250931
 20
1979.035393
 11
3817.078324
 21
2040.003522
  0
ARC
  8
3
 62
     3
  6
CONTINUOUS
 10
3714.000000
 20
2060.000000
 40
105.000000
 50
349.021382
 51
370.978618
  0
CIRCLE
  8
3
 62
     3
  6
CONTINUOUS
 10
3714.000000
 20
2060.000000
 40
81.000000
  0
ARC
  8
3
 62
     4
  6
CONTINUOUS
 10
3792.488853
 20
1981.511147
 40
13.000000
 50
280.978618
 51
349.021382
  0
LINE
  8
3
 62
     3
  6
CENTER
 10
3714.000000
 20
2179.299271
 11
3714.000000
 21
1888.409509
  0
LINE
  8
3
 62
     3
  6
CENTER
 10
3830.419075
 20
2060.000000
 11
3548.520286
 21
2060.000000
  0
CIRCLE
  8
3
 62
     4
  6
CONTINUOUS
 10
3792.488853
 20
2138.488853
 40
7.000000
  0
CIRCLE
  8
3
 62
     4
  6
CONTINUOUS
 10
3792.488853
 20
1981.511147
 40
7.000000
  0
CIRCLE
  8
3
 62
     4
  6
CONTINUOUS
 10
3635.511147
 20
1981.511147
 40
7.000000
  0
CIRCLE
  8
3
 62
     4
  6
CONTINUOUS
 10
3635.511147
 20
2138.488853
 40
7.000000
  0
ARC
  8
3
 62
     4
  6
CENTER
 10
3714.000000
 20
2060.000000
 40
111.000000
 50
307.018997
 51
325.489571
  0
ARC
  8
3
 62
     4
  6
CONTINUOUS
 10
3714.000000
 20
2060.000000
 40
100.000000
 50
323.109614
 51
396.890386
  0
ARC
  8
3
 62
     4
  6
CONTINUOUS
 10
3714.000000
 20
2060.000000
 40
100.000000
 50
233.109614
 51
306.890386
  0
ARC
  8
3
 62
     4
  6
CONTINUOUS
 10
3714.000000
 20
2060.000000
 40
100.000000
 50
143.109614
 51
216.890386
  0
ARC
  8
0
 62
     4
  6
CONTINUOUS
 10
3714.000000
 20
2060.000000
 40
100.000000
 50
126.038338
 51
143.961662
  0
TEXT
  8
0
 62
     6
 10
2719.816479
 20
2583.910129
 40
35.000000
 50
0.000000E+00
 41
0.86 
  1
Ｃ
 72
     5
 11
2754.816479
 21
2583.910129
  0
TEXT
  8
0
 62
     6
 10
2840.490420
 20
2584.910129
 40
35.000000
 50
0.000000E+00
 41
0.86 
  1
Ｃ
 72
     5
 11
2875.490420
 21
2584.910129
  0
TEXT
  8
0
 62
     6
 10
2801.990420
 20
2649.959535
 40
32.000000
 50
0.000000E+00
 41
0.97 
  1
下部
 72
     5
 11
2873.990420
 21
2649.959535
  0
TEXT
  8
0
 62
     6
 10
2681.990420
 20
2649.959535
 40
32.000000
 50
0.000000E+00
 41
0.97 
  1
上部
 72
     5
 11
2753.990420
 21
2649.959535
  0
INSERT
  8
0
  2
G9
 10
0
 20
0
  0
INSERT
  8
0
  2
G10
 10
0
 20
0
  0
LINE
  8
0
 62
     3
  6
CONTINUOUS
 10
3222.022257
 20
1895.472272
 11
3222.022257
 21
2024.718123
  0
SOLID
  8
0
 62
     3
 10
3214.257685
 20
1924.450047
 11
3229.786828
 21
1924.450047
 12
3222.022257
 22
1895.472272
 13
3222.022257
 23
1895.472272
  0
INSERT
  8
0
  2
G11
 10
0
 20
0
  0
TEXT
  8
0
 62
     6
 10
3012.066195
 20
2683.926093
 40
32.000000
 50
0.000000E+00
 41
0.86 
  1
ｂ
 72
     5
 11
3044.066195
 21
2683.926093
  0
CIRCLE
  8
0
 62
     6
  6
HIDDEN
 10
3028.252571
 20
2600.298843
 40
20.000000
  0
TEXT
  8
0
 62
     6
 10
3020.252571
 20
2584.298843
 40
32.000000
 50
0.000000E+00
 41
0.50 
  1
2
 72
     5
 11
3036.252571
 21
2584.298843
  0
CIRCLE
  8
0
 62
     6
  6
HIDDEN
 10
3028.252571
 20
2648.332262
 40
20.000000
  0
TEXT
  8
0
 62
     6
 10
3020.252571
 20
2632.332262
 40
32.000000
 50
0.000000E+00
 41
0.50 
  1
1
 72
     5
 11
3036.252571
 21
2632.332262
  0
LINE
  8
0
 62
     1
  6
CONTINUOUS
 10
3069.940390
 20
1636.227117
 11
3086.816384
 21
1636.227117
  0
TEXT
  8
0
 62
     6
 10
3698.206339
 20
2491.134541
 40
32.000000
 50
0.000000E+00
 41
0.50 
  1
3
 72
     5
 11
3714.206339
 21
2491.134541
  0
LINE
  8
0
 62
     1
  6
CONTINUOUS
 10
3199.940390
 20
1636.227117
 11
3079.940390
 21
1636.227117
  0
TEXT
  8
0
 62
     6
 10
3698.206339
 20
2551.134541
 40
32.000000
 50
0.000000E+00
 41
0.50 
  1
2
 72
     5
 11
3714.206339
 21
2551.134541
  0
TEXT
  8
0
 62
     6
 10
3698.206339
 20
2611.134541
 40
32.000000
 50
0.000000E+00
 41
0.50 
  1
1
 72
     5
 11
3714.206339
 21
2611.134541
  0
TEXT
  8
0
 62
     6
 10
3729.294308
 20
2494.530401
 40
32.000000
 50
0.000000E+00
 41
0.74 
  1
：％％ｃ７５枝管
 72
     5
 11
3941.294308
 21
2494.530401
  0
TEXT
  8
0
 62
     6
 10
3729.294308
 20
2554.530401
 40
32.000000
 50
0.000000E+00
 41
0.74 
  1
：％％ｃ６５枝管
 72
     5
 11
3941.294308
 21
2554.530401
  0
TEXT
  8
0
 62
     6
 10
3729.294308
 20
2614.530401
 40
32.000000
 50
0.000000E+00
 41
0.74 
  1
：％％ｃ５０枝管
 72
     5
 11
3941.294308
 21
2614.530401
  0
TEXT
  8
0
 62
     6
 10
3631.418499
 20
2667.505821
 40
32.000000
 50
0.000000E+00
 41
0.97 
  1
枝管のタイプ（呼び径）
 72
     5
 11
4027.418499
 21
2667.505821
  0
POINT
  8
0
 62
     4
 10
2832.863476
 20
1386.227117
  0
POINT
  8
0
 62
     4
 10
2832.863476
 20
1336.227117
  0
LINE
  8
3
 62
     4
  6
CONTINUOUS
 10
2736.304328
 20
1411.227117
 11
2739.863476
 21
1406.926479
  0
INSERT
  8
0
  2
G12
 10
0
 20
0
  0
INSERT
  8
0
  2
G13
 10
0
 20
0
  0
INSERT
  8
0
  2
G14
 10
0
 20
0
  0
LINE
  8
3
 62
     4
  6
CONTINUOUS
 10
2790.213740
 20
1381.227117
 11
2766.359114
 21
1381.227117
  0
LINE
  8
3
 62
     4
  6
CONTINUOUS
 10
2929.422624
 20
1411.227117
 11
2925.863476
 21
1406.926479
  0
LINE
  8
3
 62
     4
  6
CONTINUOUS
 10
2929.422624
 20
1411.227117
 11
2925.863476
 21
1406.926479
  0
INSERT
  8
0
  2
G15
 10
0
 20
0
  0
INSERT
  8
0
  2
G16
 10
0
 20
0
  0
ARC
  8
1
 62
     4
  6
CONTINUOUS
 10
2739.863476
 20
1396.227117
 40
2.000000
 50
90.000000
 51
180.000000
  0
INSERT
  8
0
  2
G17
 10
0
 20
0
  0
TEXT
  8
0
 62
     6
 10
3200.448131
 20
2561.370812
 40
35.000000
 50
0.000000E+00
 41
0.60 
  1
300,340,360
 72
     5
 11
3432.948131
 21
2561.370812
  0
TEXT
  8
0
 62
     6
 10
3198.587629
 20
2603.485825
 40
35.000000
 50
0.000000E+00
 41
0.60 
  1
240,260,280
 72
     5
 11
3431.087629
 21
2603.485825
  0
CIRCLE
  8
0
 62
     6
  6
HIDDEN
 10
2967.252571
 20
2600.298843
 40
20.000000
  0
TEXT
  8
0
 62
     6
 10
2959.252571
 20
2584.298843
 40
32.000000
 50
0.000000E+00
 41
0.50 
  1
2
 72
     5
 11
2975.252571
 21
2584.298843
  0
CIRCLE
  8
0
 62
     6
  6
HIDDEN
 10
2967.252571
 20
2648.332262
 40
20.000000
  0
TEXT
  8
0
 62
     6
 10
2959.252571
 20
2632.332262
 40
32.000000
 50
0.000000E+00
 41
0.50 
  1
1
 72
     5
 11
2975.252571
 21
2632.332262
  0
INSERT
  8
0
  2
G18
 10
0
 20
0
  0
ARC
  8
1
 62
     3
  6
CONTINUOUS
 10
2743.363476
 20
1571.227117
 40
3.000000
 50
0.000000E+00
 51
90.000000
  0
ARC
  8
1
 62
     3
  6
CONTINUOUS
 10
2743.363476
 20
1701.227117
 40
3.000000
 50
270.000000
 51
360.000000
  0
ARC
  8
1
 62
     3
  6
CONTINUOUS
 10
2739.863476
 20
1696.227117
 40
2.000000
 50
90.000000
 51
180.000000
  0
LINE
  8
1
 62
     3
  6
CONTINUOUS
 10
2739.863476
 20
1574.227117
 11
2743.363476
 21
1574.227117
  0
LINE
  8
1
 62
     3
  6
CONTINUOUS
 10
2739.863476
 20
1698.227117
 11
2743.363476
 21
1698.227117
  0
ARC
  8
1
 62
     3
  6
CONTINUOUS
 10
2739.863476
 20
1576.227117
 40
2.000000
 50
180.000000
 51
270.000000
  0
LINE
  8
3
 62
     3
  6
CONTINUOUS
 10
2749.507670
 20
1576.587137
 11
2752.783061
 21
1578.033664
  0
LINE
  8
3
 62
     3
  6
CONTINUOUS
 10
2752.783061
 20
1578.033664
 11
2755.947981
 21
1580.561380
  0
LINE
  8
3
 62
     3
  6
CONTINUOUS
 10
2755.947981
 20
1580.561380
 11
2758.943628
 21
1584.123324
  0
LINE
  8
3
 62
     3
  6
CONTINUOUS
 10
2758.943628
 20
1584.123324
 11
2761.714346
 21
1588.653317
  0
LINE
  8
3
 62
     3
  6
CONTINUOUS
 10
2761.714346
 20
1588.653317
 11
2764.208655
 21
1594.067195
  0
LINE
  8
3
 62
     3
  6
CONTINUOUS
 10
2764.208655
 20
1594.067195
 11
2766.380215
 21
1600.264373
  0
LINE
  8
3
 62
     3
  6
CONTINUOUS
 10
2766.380215
 20
1600.264373
 11
2768.188678
 21
1607.129711
  0
LINE
  8
3
 62
     3
  6
CONTINUOUS
 10
2768.188678
 20
1607.129711
 11
2769.600445
 21
1614.535657
  0
LINE
  8
3
 62
     3
  6
CONTINUOUS
 10
2769.600445
 20
1614.535657
 11
2770.589287
 21
1622.344613
  0
LINE
  8
3
 62
     3
  6
CONTINUOUS
 10
2770.589287
 20
1622.344613
 11
2771.136832
 21
1630.411496
  0
LINE
  8
3
 62
     3
  6
CONTINUOUS
 10
2770.589287
 20
1622.344613
 11
2771.136832
 21
1630.411496
  0
LINE
  8
3
 62
     3
  6
CONTINUOUS
 10
2771.136832
 20
1642.042737
 11
2770.578597
 21
1650.219623
  0
LINE
  8
3
 62
     3
  6
CONTINUOUS
 10
2770.578597
 20
1650.219623
 11
2769.567009
 21
1658.129317
  0
LINE
  8
3
 62
     3
  6
CONTINUOUS
 10
2769.567009
 20
1658.129317
 11
2768.121383
 21
1665.620778
  0
LINE
  8
3
 62
     3
  6
CONTINUOUS
 10
2768.121383
 20
1665.620778
 11
2766.269325
 21
1672.550956
  0
LINE
  8
3
 62
     3
  6
CONTINUOUS
 10
2766.269325
 20
1672.550956
 11
2764.046201
 21
1678.787514
  0
LINE
  8
3
 62
     3
  6
CONTINUOUS
 10
2764.046201
 20
1678.787514
 11
2761.494462
 21
1684.211363
  0
LINE
  8
3
 62
     3
  6
CONTINUOUS
 10
2761.494462
 20
1684.211363
 11
2758.662835
 21
1688.718932
  0
LINE
  8
3
 62
     3
  6
CONTINUOUS
 10
2758.662835
 20
1688.718932
 11
2755.605390
 21
1692.224148
  0
LINE
  8
3
 62
     3
  6
CONTINUOUS
 10
2755.605390
 20
1692.224148
 11
2752.380512
 21
1694.660076
  0
LINE
  8
3
 62
     3
  6
CONTINUOUS
 10
2752.380512
 20
1694.660076
 11
2749.049779
 21
1695.980203
  0
LINE
  8
3
 62
     3
  6
CONTINUOUS
 10
2752.380512
 20
1694.660076
 11
2749.049779
 21
1695.980203
  0
LINE
  8
0
 62
     3
  6
CONTINUOUS
 10
2737.863476
 20
1696.227117
 11
2737.863476
 21
1576.227117
  0
LINE
  8
3
 62
     4
  6
CONTINUOUS
 10
2746.863476
 20
1186.227117
 11
2746.863476
 21
1271.227117
  0
LINE
  8
1
 62
     4
  6
CONTINUOUS
 10
2737.863476
 20
1396.227117
 11
2737.863476
 21
1276.227117
  0
ARC
  8
1
 62
     4
  6
CONTINUOUS
 10
2739.863476
 20
1396.227117
 40
2.000000
 50
90.000000
 51
180.000000
  0
ARC
  8
1
 62
     4
  6
CONTINUOUS
 10
2739.863476
 20
1276.227117
 40
2.000000
 50
180.000000
 51
270.000000
  0
ARC
  8
3
 62
     4
  6
CONTINUOUS
 10
2739.863476
 20
1396.227117
 40
2.000000
 50
90.000000
 51
180.000000
  0
LINE
  8
3
 62
     4
  6
CONTINUOUS
 10
2737.863476
 20
1276.227117
 11
2737.863476
 21
1396.227117
  0
ARC
  8
3
 62
     4
  6
CONTINUOUS
 10
2739.863476
 20
1276.227117
 40
2.000000
 50
180.000000
 51
270.000000
  0
LINE
  8
0
 62
     1
  6
CONTINUOUS
 10
3972.230486
 20
2142.868005
 11
3811.943237
 21
1982.580756
  0
INSERT
  8
0
  2
G19
 10
0
 20
0
  0
INSERT
  8
0
  2
G20
 10
0
 20
0
  0
LINE
  8
3
 62
     4
  6
CONTINUOUS
 10
2875.513212
 20
1381.227117
 11
2910.919448
 21
1381.227117
  0
INSERT
  8
0
  2
G21
 10
0
 20
0
  0
INSERT
  8
0
  2
G22
 10
0
 20
0
  0
INSERT
  8
0
  2
G23
 10
0
 20
0
  0
LINE
  8
0
 62
     1
  6
CONTINUOUS
 10
3003.089812
 20
2277.089268
 11
3028.887997
 21
2277.089268
  0
ARC
  8
0
 62
     3
  6
CONTINUOUS
 10
2772.863476
 20
2184.089268
 40
2.000000
 50
180.000000
 51
270.000000
  0
LINE
  8
0
 62
     3
  6
CONTINUOUS
 10
2770.863476
 20
2184.089268
 11
2770.863476
 21
2212.089268
  0
ARC
  8
0
 62
     3
  6
CONTINUOUS
 10
2892.863476
 20
2184.089268
 40
2.000000
 50
270.000000
 51
360.000000
  0
LINE
  8
0
 62
     3
  6
CONTINUOUS
 10
2894.863476
 20
2184.089268
 11
2894.863476
 21
2212.089268
  0
LINE
  8
0
 62
     3
  6
CONTINUOUS
 10
2892.863476
 20
2182.089268
 11
2772.863476
 21
2182.089268
  0
ARC
  8
0
 62
     3
  6
CONTINUOUS
 10
2739.863476
 20
2217.089268
 40
2.000000
 50
180.000000
 51
270.000000
  0
LINE
  8
0
 62
     3
  6
CONTINUOUS
 10
2739.863476
 20
2215.089268
 11
2767.863476
 21
2215.089268
  0
ARC
  8
0
 62
     3
  6
CONTINUOUS
 10
2739.863476
 20
2337.089268
 40
2.000000
 50
90.000000
 51
180.000000
  0
LINE
  8
0
 62
     3
  6
CONTINUOUS
 10
2739.863476
 20
2339.089268
 11
2772.545568
 21
2339.089268
  0
LINE
  8
0
 62
     3
  6
CONTINUOUS
 10
2737.863476
 20
2337.089268
 11
2737.863476
 21
2217.089268
  0
ARC
  8
0
 62
     3
  6
CONTINUOUS
 10
2897.863476
 20
2212.089268
 40
3.000000
 50
90.000000
 51
180.000000
  0
ARC
  8
0
 62
     3
  6
CONTINUOUS
 10
2767.863476
 20
2212.089268
 40
3.000000
 50
0.000000E+00
 51
90.000000
  0
CIRCLE
  8
0
 62
     3
  6
CONTINUOUS
 10
2832.863476
 20
2277.089268
 40
67.000000
  0
CIRCLE
  8
0
 62
     3
  6
CONTINUOUS
 10
2832.863476
 20
2277.089268
 40
52.000000
  0
ARC
  8
0
 62
     3
  6
CONTINUOUS
 10
2925.863476
 20
2337.089268
 40
2.000000
 50
0.000000E+00
 51
90.000000
  0
LINE
  8
0
 62
     3
  6
CONTINUOUS
 10
2925.863476
 20
2339.089268
 11
2893.181384
 21
2339.089268
  0
ARC
  8
0
 62
     3
  6
CONTINUOUS
 10
2925.863476
 20
2217.089268
 40
2.000000
 50
270.000000
 51
360.000000
  0
LINE
  8
0
 62
     3
  6
CONTINUOUS
 10
2925.863476
 20
2215.089268
 11
2897.863476
 21
2215.089268
  0
LINE
  8
0
 62
     3
  6
CONTINUOUS
 10
2927.863476
 20
2217.089268
 11
2927.863476
 21
2337.089268
  0
LINE
  8
3
 62
     3
  6
CONTINUOUS
 10
2987.863476
 20
2337.089268
 11
2927.863476
 21
2337.089268
  0
LINE
  8
3
 62
     3
  6
CONTINUOUS
 10
2992.863476
 20
2214.589268
 11
2992.863476
 21
2339.589268
  0
LINE
  8
3
 62
     3
  6
CONTINUOUS
 10
2987.863476
 20
2214.589268
 11
2987.863476
 21
2217.089268
  0
LINE
  8
3
 62
     3
  6
CONTINUOUS
 10
2987.863476
 20
2214.589268
 11
2992.863476
 21
2214.589268
  0
LINE
  8
3
 62
     3
  6
CONTINUOUS
 10
2987.863476
 20
2339.589268
 11
2992.863476
 21
2339.589268
  0
LINE
  8
3
 62
     3
  6
CONTINUOUS
 10
2987.863476
 20
2339.589268
 11
2987.863476
 21
2217.089268
  0
LINE
  8
3
 62
     3
  6
CONTINUOUS
 10
2987.863476
 20
2217.089268
 11
2927.863476
 21
2217.089268
  0
CIRCLE
  8
0
 62
     3
  6
CONTINUOUS
 10
2832.863476
 20
2277.089268
 40
86.500000
  0
CIRCLE
  8
0
 62
     3
  6
CONTINUOUS
 10
2832.863476
 20
2277.089268
 40
75.000000
  0
LINE
  8
3
 62
     3
  6
CENTER
 10
2998.339644
 20
2277.089268
 11
2726.670152
 21
2277.089268
  0
LINE
  8
3
 62
     3
  6
CENTER
 10
2832.863476
 20
2379.187720
 11
2832.863476
 21
2104.039191
  0
INSERT
  8
0
  2
G24
 10
0
 20
0
  0
CIRCLE
  8
0
 62
     3
  6
CONTINUOUS
 10
2832.863476
 20
1636.227117
 40
54.000000
  0
CIRCLE
  8
0
 62
     3
  6
CONTINUOUS
 10
2832.863476
 20
1636.227117
 40
40.000000
  0
CIRCLE
  8
0
 62
     3
  6
CONTINUOUS
 10
2832.863476
 20
1636.227117
 40
62.000000
  0
INSERT
  8
0
  2
G25
 10
0
 20
0
  0
INSERT
  8
0
  2
G26
 10
0
 20
0
  0
INSERT
  8
0
  2
G27
 10
0
 20
0
  0
INSERT
  8
0
  2
G28
 10
0
 20
0
  0
INSERT
  8
0
  2
G29
 10
0
 20
0
  0
INSERT
  8
0
  2
G30
 10
0
 20
0
  0
INSERT
  8
0
  2
G31
 10
0
 20
0
  0
INSERT
  8
0
  2
G32
 10
0
 20
0
  0
LINE
  8
0
 62
     3
  6
CONTINUOUS
 10
3222.022257
 20
2024.718123
 11
3187.451799
 21
2024.718123
  0
INSERT
  8
0
  2
G33
 10
0
 20
0
  0
INSERT
  8
0
  2
G34
 10
0
 20
0
  0
INSERT
  8
0
  2
G35
 10
0
 20
0
  0
INSERT
  8
0
  2
G36
 10
0
 20
0
  0
INSERT
  8
0
  2
G37
 10
0
 20
0
  0
INSERT
  8
0
  2
G38
 10
0
 20
0
  0
INSERT
  8
0
  2
G39
 10
0
 20
0
  0
INSERT
  8
0
  2
G40
 10
0
 20
0
  0
INSERT
  8
0
  2
G41
 10
0
 20
0
  0
INSERT
  8
0
  2
G42
 10
0
 20
0
  0
INSERT
  8
0
  2
G43
 10
0
 20
0
  0
INSERT
  8
0
  2
G44
 10
0
 20
0
  0
INSERT
  8
0
  2
G45
 10
0
 20
0
  0
INSERT
  8
0
  2
G46
 10
0
 20
0
  0
INSERT
  8
0
  2
G47
 10
0
 20
0
  0
TEXT
  8
0
 62
     3
 10
3311.553615
 20
579.564184
 40
32.000000
 50
0.000000E+00
 41
0.94 
  1
対応可能Ｐ寸法　２４０～３６０
 72
     5
 11
3837.267923
 21
579.564184
  0
LINE
  8
0
 62
     2
  6
CONTINUOUS
 10
3244.712419
 20
640.281646
 11
4024.114339
 21
640.281646
  0
TEXT
  8
0
 62
     2
 10
3733.220431
 20
667.585896
 40
30.000000
 50
0.000000E+00
 41
0.61 
  1
925
 72
     5
 11
3788.220431
 21
667.585896
  0
TEXT
  8
0
 62
     2
 10
3630.421191
 20
667.585896
 40
30.000000
 50
0.000000E+00
 41
0.61 
  1
905
 72
     5
 11
3685.421191
 21
667.585896
  0
TEXT
  8
0
 62
     2
 10
3530.968711
 20
669.313032
 40
30.000000
 50
0.000000E+00
 41
0.61 
  1
885
 72
     5
 11
3585.968711
 21
669.313032
  0
TEXT
  8
0
 62
     2
 10
3836.729671
 20
669.313032
 40
30.000000
 50
0.000000E+00
 41
0.61 
  1
965
 72
     5
 11
3891.729671
 21
669.313032
  0
TEXT
  8
0
 62
     2
 10
3429.049031
 20
760.753032
 40
30.000000
 50
0.000000E+00
 41
0.61 
  1
790
 72
     5
 11
3484.049031
 21
760.753032
  0
TEXT
  8
0
 62
     2
 10
3941.182151
 20
667.585896
 40
30.000000
 50
0.000000E+00
 41
0.61 
  1
985
 72
     5
 11
3996.182151
 21
667.585896
  0
TEXT
  8
0
 62
     2
 10
3429.049031
 20
669.313032
 40
30.000000
 50
0.000000E+00
 41
0.61 
  1
865
 72
     5
 11
3484.049031
 21
669.313032
  0
TEXT
  8
0
 62
     2
 10
3836.490686
 20
837.196846
 40
30.000000
 50
0.000000E+00
 41
0.61 
  1
340
 72
     5
 11
3891.490686
 21
837.196846
  0
TEXT
  8
0
 62
     2
 10
3734.570046
 20
837.196846
 40
30.000000
 50
0.000000E+00
 41
0.61 
  1
300
 72
     5
 11
3789.570046
 21
837.196846
  0
TEXT
  8
0
 62
     2
 10
3632.649406
 20
837.196846
 40
30.000000
 50
0.000000E+00
 41
0.61 
  1
280
 72
     5
 11
3687.649406
 21
837.196846
  0
TEXT
  8
0
 62
     2
 10
3428.810046
 20
837.196846
 40
30.000000
 50
0.000000E+00
 41
0.61 
  1
240
 72
     5
 11
3483.810046
 21
837.196846
  0
LINE
  8
0
 62
     2
  6
CONTINUOUS
 10
3810.274019
 20
884.601646
 11
3810.274019
 21
640.281646
  0
TEXT
  8
0
 62
     2
 10
3255.240523
 20
673.627725
 40
30.000000
 50
0.000000E+00
 41
0.72 
  1
Ｌｔ（全長）
 72
     5
 11
3405.240523
 21
673.627725
  0
LINE
  8
0
 62
     2
  6
CONTINUOUS
 10
3244.712419
 20
731.721646
 11
4024.114339
 21
731.721646
  0
TEXT
  8
0
 62
     2
 10
3941.182151
 20
759.025896
 40
30.000000
 50
0.000000E+00
 41
0.61 
  1
910
 72
     5
 11
3996.182151
 21
759.025896
  0
LINE
  8
0
 62
     2
  6
CONTINUOUS
 10
3244.712419
 20
884.601646
 11
4024.114339
 21
884.601646
  0
TEXT
  8
0
 62
     2
 10
3836.729671
 20
760.753032
 40
30.000000
 50
0.000000E+00
 41
0.61 
  1
890
 72
     5
 11
3891.729671
 21
760.753032
  0
LINE
  8
0
 62
     2
  6
CONTINUOUS
 10
3402.593379
 20
884.601646
 11
3402.593379
 21
640.281646
  0
LINE
  8
0
 62
     2
  6
CONTINUOUS
 10
3504.513059
 20
884.601646
 11
3504.513059
 21
640.281646
  0
LINE
  8
0
 62
     2
  6
CONTINUOUS
 10
3606.432739
 20
884.601646
 11
3606.432739
 21
640.281646
  0
LINE
  8
0
 62
     2
  6
CONTINUOUS
 10
3708.353379
 20
884.601646
 11
3708.353379
 21
640.281646
  0
LINE
  8
0
 62
     2
  6
CONTINUOUS
 10
4024.114339
 20
884.601646
 11
4024.114339
 21
640.281646
  0
LINE
  8
0
 62
     2
  6
CONTINUOUS
 10
3912.193699
 20
884.601646
 11
3912.193699
 21
640.281646
  0
TEXT
  8
0
 62
     2
 10
3943.410366
 20
837.196846
 40
30.000000
 50
0.000000E+00
 41
0.61 
  1
360
 72
     5
 11
3998.410366
 21
837.196846
  0
LINE
  8
0
 62
     2
  6
CONTINUOUS
 10
3244.712419
 20
823.161646
 11
4024.114339
 21
823.161646
  0
TEXT
  8
0
 62
     2
 10
3255.240523
 20
765.067725
 40
30.000000
 50
0.000000E+00
 41
0.72 
  1
Ｌ（有効長）
 72
     5
 11
3405.240523
 21
765.067725
  0
LINE
  8
0
 62
     2
  6
CONTINUOUS
 10
3244.712419
 20
884.601646
 11
3244.712419
 21
640.281646
  0
LINE
  8
0
 62
     2
  6
CONTINUOUS
 10
4022.541101
 20
871.364597
 11
4022.541101
 21
871.364405
  0
TEXT
  8
0
 62
     2
 10
3530.968711
 20
760.753032
 40
30.000000
 50
0.000000E+00
 41
0.61 
  1
810
 72
     5
 11
3585.968711
 21
760.753032
  0
TEXT
  8
0
 62
     2
 10
3630.421191
 20
759.025896
 40
30.000000
 50
0.000000E+00
 41
0.61 
  1
830
 72
     5
 11
3685.421191
 21
759.025896
  0
TEXT
  8
0
 62
     2
 10
3530.729726
 20
837.196846
 40
30.000000
 50
0.000000E+00
 41
0.61 
  1
260
 72
     5
 11
3585.729726
 21
837.196846
  0
TEXT
  8
0
 62
     2
 10
3314.281517
 20
837.217257
 40
30.000000
 50
0.000000E+00
 41
0.86 
  1
Ｐ
 72
     5
 11
3344.281517
 21
837.217257
  0
TEXT
  8
0
 62
     2
 10
3733.220431
 20
759.025896
 40
30.000000
 50
0.000000E+00
 41
0.61 
  1
850
 72
     5
 11
3788.220431
 21
759.025896
  0
TEXT
  8
0
 62
     2
 10
3948.410366
 20
938.636846
 40
30.000000
 50
0.000000E+00
 41
0.58 
  1
44
 72
     5
 11
3983.410366
 21
938.636846
  0
TEXT
  8
0
 62
     2
 10
3836.489726
 20
938.636846
 40
30.000000
 50
0.000000E+00
 41
0.58 
  1
52
 72
     5
 11
3871.489726
 21
938.636846
  0
TEXT
  8
0
 62
     2
 10
3737.498474
 20
1121.253863
 40
25.600000
 50
0.000000E+00
 41
0.55 
  1
100
 72
     5
 11
3779.555619
 21
1121.253863
  0
TEXT
  8
0
 62
     2
 10
3720.968180
 20
1159.938571
 40
18.400000
 50
0.000000E+00
 41
0.89 
  1
立管受口
 72
     5
 11
3796.968179
 21
1159.938571
  0
TEXT
  8
0
 62
     2
 10
3948.410366
 20
1061.516846
 40
30.000000
 50
0.000000E+00
 41
0.58 
  1
65
 72
     5
 11
3983.410366
 21
1061.516846
  0
TEXT
  8
0
 62
     2
 10
3836.489726
 20
1061.516846
 40
30.000000
 50
0.000000E+00
 41
0.58 
  1
65
 72
     5
 11
3871.489726
 21
1061.516846
  0
TEXT
  8
0
 62
     2
 10
3744.570046
 20
1061.516846
 40
30.000000
 50
0.000000E+00
 41
0.58 
  1
75
 72
     5
 11
3779.570046
 21
1061.516846
  0
LINE
  8
0
 62
     2
  6
CONTINUOUS
 10
3800.273059
 20
986.041646
 11
3718.353379
 21
924.601646
  0
LINE
  8
0
 62
     2
  6
CONTINUOUS
 10
4024.114339
 20
1190.846702
 11
4024.114339
 21
924.601646
  0
TEXT
  8
0
 62
     2
 10
3607.250523
 20
942.947725
 40
30.000000
 50
0.000000E+00
 41
0.86 
  1
Ｂ寸法
 72
     5
 11
3697.250523
 21
942.947725
  0
LINE
  8
0
 62
     2
  6
CONTINUOUS
 10
3595.472419
 20
986.041646
 11
4024.114339
 21
986.041646
  0
LINE
  8
0
 62
     2
  6
CONTINUOUS
 10
3800.273059
 20
1149.881678
 11
4024.114339
 21
1149.881678
  0
LINE
  8
0
 62
     2
  6
CONTINUOUS
 10
3595.472419
 20
1108.921646
 11
4024.114339
 21
1108.921646
  0
TEXT
  8
0
 62
     2
 10
3811.487268
 20
1154.795013
 40
30.000000
 50
0.000000E+00
 41
0.72 
  1
下部横枝管サイズ
 72
     5
 11
4011.487268
 21
1154.795013
  0
LINE
  8
0
 62
     2
  6
CONTINUOUS
 10
3718.353379
 20
1189.607822
 11
3718.353379
 21
924.601646
  0
LINE
  8
0
 62
     2
  6
CONTINUOUS
 10
3800.273059
 20
1189.607822
 11
3800.273059
 21
924.601646
  0
LINE
  8
0
 62
     2
  6
CONTINUOUS
 10
3800.273059
 20
1047.481646
 11
3718.353379
 21
986.041646
  0
LINE
  8
0
 62
     2
  6
CONTINUOUS
 10
3912.193699
 20
1149.881486
 11
3912.193699
 21
924.601646
  0
LINE
  8
0
 62
     2
  6
CONTINUOUS
 10
3595.472419
 20
924.601646
 11
4024.114339
 21
924.601646
  0
TEXT
  8
0
 62
     2
 10
3816.535645
 20
1114.716379
 40
30.000000
 50
0.000000E+00
 41
0.63 
  1
65(2)
 72
     5
 11
3911.535645
 21
1114.716379
  0
TEXT
  8
0
 62
     2
 10
3928.456285
 20
1114.716379
 40
30.000000
 50
0.000000E+00
 41
0.63 
  1
50(1)
 72
     5
 11
4023.456285
 21
1114.716379
  0
LINE
  8
0
 62
     2
  6
CONTINUOUS
 10
3595.472419
 20
1149.881678
 11
3595.472419
 21
924.601646
  0
LINE
  8
0
 62
     2
  6
CONTINUOUS
 10
3595.472419
 20
1047.481646
 11
4024.114339
 21
1047.481646
  0
TEXT
  8
0
 62
     2
 10
3607.250523
 20
1004.387725
 40
30.000000
 50
0.000000E+00
 41
0.86 
  1
Ａ寸法
 72
     5
 11
3697.250523
 21
1004.387725
  0
LINE
  8
0
 62
     2
  6
CONTINUOUS
 10
3595.472419
 20
1149.881678
 11
3595.472419
 21
1190.846702
  0
LINE
  8
0
 62
     2
  6
CONTINUOUS
 10
3595.472419
 20
1190.846702
 11
4024.114339
 21
1190.846702
  0
LINE
  8
0
 62
     2
  6
CONTINUOUS
 10
3994.113379
 20
1149.881678
 11
3994.113379
 21
1149.881486
  0
TEXT
  8
0
 62
     2
 10
3824.261511
 20
1000.076846
 40
30.000000
 50
0.000000E+00
 41
0.61 
  1
110
 72
     5
 11
3879.261511
 21
1000.076846
  0
TEXT
  8
0
 62
     2
 10
3600.041517
 20
1061.537257
 40
30.000000
 50
0.000000E+00
 41
0.86 
  1
受口深さ
 72
     5
 11
3720.041517
 21
1061.537257
  0
LINE
  8
0
 62
     2
  6
CONTINUOUS
 10
3595.472419
 20
1190.846702
 11
3718.353379
 21
1108.921646
  0
TEXT
  8
0
 62
     2
 10
3948.410366
 20
1000.076846
 40
30.000000
 50
0.000000E+00
 41
0.58 
  1
94
 72
     5
 11
3983.410366
 21
1000.076846
  0
ENDSEC
  0
EOF
