  0
SECTION
  2
HEADER
  9
$INSBASE
 10
0
 20
0
  9
$EXTMIN
 10
0
 20
0
  9
$EXTMAX
 10
4200.000000
 20
2970.000000
  9
$LIMMIN
 10
0
 20
0
  9
$LIMMAX
 10
4200.000000
 20
2970.000000
  9
$VIEWCTR
 10
2100.000000
 20
1485.000000
  9
$DIMASZ
 40
20.000000
  9
$DIMDLI
 40
80.000000
  9
$DIMEXE
 40
10.000000
  9
$DIMEXO
 40
10.000000
  9
$DIMTXT
 40
32.000000
  9
$TEXTSIZE
 40
32.000000
  9
$ANGBASE
 50
0.0
  9
$ANGDIR
 70
     0
  9
$ATTMODE
 70
     1
  9
$AUNITS
 70
     1
  9
$AUPREC
 70
     2
  9
$AXISMODE
 70
     0
  9
$AXISUNIT
 10
0.0
 20
0.0
  9
$BLIPMODE
 70
     1
  9
$CECOLOR
 62
   256
  9
$CELTYPE
  6
BYLAYER
  9
$CHAMFERA
 40
0.0
  9
$CHAMFERB
 40
0.0
  9
$CLAYER
  8
0
  9
$COORDS
 70
     0
  9
$DIMALT
 70
     0
  9
$DIMALTD
 70
     2
  9
$DIMALTF
 40
25.4
  9
$DIMDLE
 40
0.0
  9
$DIMLFAC
 40
1.0
  9
$DIMLIM
 70
     0
  9
$DIMRND
 40
0.0
  9
$DIMSCALE
 40
1.0
  9
$DIMSE1
 70
     0
  9
$DIMSE2
 70
     0
  9
$DIMTAD
 70
     1
  9
$DIMTIH
 70
     0
  9
$DIMTM
 40
0.0
  9
$DIMTOH
 70
     0
  9
$DIMTOL
 70
     0
  9
$DIMTP
 40
0.0
  9
$DIMTSZ
 40
0.0
  9
$DIMZIN
 70
     0
  9
$DRAGMODE
 70
     2
  9
$ELEVATION
 40
0.0
  9
$FASTZOOM
 70
     1
  9
$FILLETRAD
 40
0.0
  9
$FILLMODE
 70
     1
  9
$GRIDMODE
 70
     0
  9
$GRIDUNIT
 10
0.0
 20
0.0
  9
$LTSCALE
 40
1.0
  9
$LUNITS
 70
     2
  9
$LUPREC
 70
     2
  9
$MENU
  1
ACAD
  9
$ORTHOMODE
 70
     0
  9
$OSMODE
 70
     0
  9
$PDMODE
 70
     0
  9
$PDSIZE
 40
0.0
  9
$PLINEWID
 40
0.0
  9
$QTEXTMODE
 70
     0
  9
$REGENMODE
 70
     1
  9
$SKETCHINC
 40
0.1
  9
$SKPOLY
 70
     0
  9
$SNAPBASE
 10
0.0
 20
0.0
  9
$SNAPISOPAIR
 70
     0
  9
$SNAPMODE
 70
     0
  9
$SNAPSTYLE
 70
     0
  9
$SNAPUNIT
 10
0.0
 20
0.0
  9
$TEXTSTYLE
  7
KANJI
  9
$THICKNESS
 40
0.0
  9
$TRACEWID
 40
0.05
  9
$VIEWDIR
 10
0.0
 20
0.0
 30
1.0
  9
$VIEWSIZE
 40
0.0
  0
ENDSEC
  0
SECTION
  2
TABLES
  0
TABLE
  2
LTYPE
 70
     9
  0
LTYPE
  2
CONTINUOUS
 70
    64
  3
Solid line
 72
    65
 73
     0
 40
0.0
  0
LTYPE
  2
DASHED
 70
    64
  3
__ __ __ __ __ __ __ __ __ __ __ __ __ __ __
 72
    65
 73
     2
 40
0.75
 49
0.5
 49
-0.25
  0
LTYPE
  2
HIDDEN
 70
    64
  3
_ _ _ _ _ _ _ _ _ _ _ _ _ _ _ _ _ _ _ _ _ _ _
 72
    65
 73
     2
 40
0.375
 49
0.25
 49
-0.125
  0
LTYPE
  2
CENTER
 70
    64
  3
____ _ ____ _ ____ _ ____ _ ____ _ ____ _ ____
 72
    65
 73
     4
 40
2.0
 49
1.25
 49
-0.25
 49
0.25
 49
-0.25
  0
LTYPE
  2
PHANTOM
 70
    64
  3
_____ _ _ _____ _ _ _____ _ _ _____ _ _ ____
 72
    65
 73
     6
 40
2.5
 49
1.25
 49
-0.25
 49
0.25
 49
-0.25
 49
0.25
 49
-0.25
  0
LTYPE
  2
DOT
 70
    64
  3
...............................................
 72
    65
 73
     2
 40
0.25
 49
0.0
 49
-0.25
  0
LTYPE
  2
DASHDOT
 70
    64
  3
__ . __ . __ . __ . __ . __ . __ . __ . __ . __
 72
    65
 73
     4
 40
1.0
 49
0.5
 49
-0.25
 49
0.0
 49
-0.25
  0
LTYPE
  2
BORDER
 70
    64
  3
__ __ . __ __ . __ __ . __ __ . __ __ . __ __
 72
    65
 73
     6
 40
1.75
 49
0.5
 49
-0.25
 49
0.5
 49
-0.25
 49
0.0
 49
-0.25
  0
LTYPE
  2
DIVIDE
 70
    64
  3
__ . . __ . . __ . . __ . . __ . . __ . . __
 72
    65
 73
     6
 40
1.25
 49
0.5
 49
-0.25
 49
0.0
 49
-0.25
 49
0.0
 49
-0.25
  0
ENDTAB
  0
TABLE
  2
LAYER
 70
   100
  0
LAYER
  2
0
 70
     0
 62
     3
  6
CONTINUOUS
  0
LAYER
  2
1
 70
     0
 62
     3
  6
CONTINUOUS
  0
LAYER
  2
2
 70
     0
 62
     3
  6
CONTINUOUS
  0
LAYER
  2
3
 70
     0
 62
     3
  6
CONTINUOUS
  0
LAYER
  2
4
 70
     0
 62
     3
  6
CONTINUOUS
  0
LAYER
  2
5
 70
     0
 62
     3
  6
CONTINUOUS
  0
LAYER
  2
6
 70
     0
 62
     3
  6
CONTINUOUS
  0
LAYER
  2
7
 70
     0
 62
     3
  6
CONTINUOUS
  0
LAYER
  2
8
 70
     0
 62
     3
  6
CONTINUOUS
  0
LAYER
  2
9
 70
     0
 62
     3
  6
CONTINUOUS
  0
LAYER
  2
10
 70
     0
 62
     3
  6
CONTINUOUS
  0
LAYER
  2
11
 70
     0
 62
     3
  6
CONTINUOUS
  0
LAYER
  2
12
 70
     0
 62
     3
  6
CONTINUOUS
  0
LAYER
  2
13
 70
     0
 62
     3
  6
CONTINUOUS
  0
LAYER
  2
14
 70
     0
 62
     3
  6
CONTINUOUS
  0
LAYER
  2
15
 70
     0
 62
     3
  6
CONTINUOUS
  0
LAYER
  2
16
 70
     0
 62
     3
  6
CONTINUOUS
  0
LAYER
  2
17
 70
     0
 62
     3
  6
CONTINUOUS
  0
LAYER
  2
18
 70
     0
 62
     3
  6
CONTINUOUS
  0
LAYER
  2
19
 70
     0
 62
     3
  6
CONTINUOUS
  0
LAYER
  2
20
 70
     0
 62
     3
  6
CONTINUOUS
  0
LAYER
  2
21
 70
     0
 62
     3
  6
CONTINUOUS
  0
LAYER
  2
22
 70
     0
 62
     3
  6
CONTINUOUS
  0
LAYER
  2
23
 70
     0
 62
     3
  6
CONTINUOUS
  0
LAYER
  2
24
 70
     0
 62
     3
  6
CONTINUOUS
  0
LAYER
  2
25
 70
     0
 62
     3
  6
CONTINUOUS
  0
LAYER
  2
26
 70
     0
 62
     3
  6
CONTINUOUS
  0
LAYER
  2
27
 70
     0
 62
     3
  6
CONTINUOUS
  0
LAYER
  2
28
 70
     0
 62
     3
  6
CONTINUOUS
  0
LAYER
  2
29
 70
     0
 62
     3
  6
CONTINUOUS
  0
LAYER
  2
30
 70
     0
 62
     3
  6
CONTINUOUS
  0
LAYER
  2
31
 70
     0
 62
     3
  6
CONTINUOUS
  0
LAYER
  2
32
 70
     0
 62
     3
  6
CONTINUOUS
  0
LAYER
  2
33
 70
     0
 62
     3
  6
CONTINUOUS
  0
LAYER
  2
34
 70
     0
 62
     3
  6
CONTINUOUS
  0
LAYER
  2
35
 70
     0
 62
     3
  6
CONTINUOUS
  0
LAYER
  2
36
 70
     0
 62
     3
  6
CONTINUOUS
  0
LAYER
  2
37
 70
     0
 62
     3
  6
CONTINUOUS
  0
LAYER
  2
38
 70
     0
 62
     3
  6
CONTINUOUS
  0
LAYER
  2
39
 70
     0
 62
     3
  6
CONTINUOUS
  0
LAYER
  2
40
 70
     0
 62
     3
  6
CONTINUOUS
  0
LAYER
  2
41
 70
     0
 62
     3
  6
CONTINUOUS
  0
LAYER
  2
42
 70
     0
 62
     3
  6
CONTINUOUS
  0
LAYER
  2
43
 70
     0
 62
     3
  6
CONTINUOUS
  0
LAYER
  2
44
 70
     0
 62
     3
  6
CONTINUOUS
  0
LAYER
  2
45
 70
     0
 62
     3
  6
CONTINUOUS
  0
LAYER
  2
46
 70
     0
 62
     3
  6
CONTINUOUS
  0
LAYER
  2
47
 70
     0
 62
     3
  6
CONTINUOUS
  0
LAYER
  2
48
 70
     0
 62
     3
  6
CONTINUOUS
  0
LAYER
  2
49
 70
     0
 62
     3
  6
CONTINUOUS
  0
LAYER
  2
50
 70
     0
 62
     3
  6
CONTINUOUS
  0
LAYER
  2
51
 70
     0
 62
     3
  6
CONTINUOUS
  0
LAYER
  2
52
 70
     0
 62
     3
  6
CONTINUOUS
  0
LAYER
  2
53
 70
     0
 62
     3
  6
CONTINUOUS
  0
LAYER
  2
54
 70
     0
 62
     3
  6
CONTINUOUS
  0
LAYER
  2
55
 70
     0
 62
     3
  6
CONTINUOUS
  0
LAYER
  2
56
 70
     0
 62
     3
  6
CONTINUOUS
  0
LAYER
  2
57
 70
     0
 62
     3
  6
CONTINUOUS
  0
LAYER
  2
58
 70
     0
 62
     3
  6
CONTINUOUS
  0
LAYER
  2
59
 70
     0
 62
     3
  6
CONTINUOUS
  0
LAYER
  2
60
 70
     0
 62
     3
  6
CONTINUOUS
  0
LAYER
  2
61
 70
     0
 62
     3
  6
CONTINUOUS
  0
LAYER
  2
62
 70
     0
 62
     3
  6
CONTINUOUS
  0
LAYER
  2
63
 70
     0
 62
     3
  6
CONTINUOUS
  0
LAYER
  2
64
 70
     0
 62
     3
  6
CONTINUOUS
  0
LAYER
  2
65
 70
     0
 62
     3
  6
CONTINUOUS
  0
LAYER
  2
66
 70
     0
 62
     3
  6
CONTINUOUS
  0
LAYER
  2
67
 70
     0
 62
     3
  6
CONTINUOUS
  0
LAYER
  2
68
 70
     0
 62
     3
  6
CONTINUOUS
  0
LAYER
  2
69
 70
     0
 62
     3
  6
CONTINUOUS
  0
LAYER
  2
70
 70
     0
 62
     3
  6
CONTINUOUS
  0
LAYER
  2
71
 70
     0
 62
     3
  6
CONTINUOUS
  0
LAYER
  2
72
 70
     0
 62
     3
  6
CONTINUOUS
  0
LAYER
  2
73
 70
     0
 62
     3
  6
CONTINUOUS
  0
LAYER
  2
74
 70
     0
 62
     3
  6
CONTINUOUS
  0
LAYER
  2
75
 70
     0
 62
     3
  6
CONTINUOUS
  0
LAYER
  2
76
 70
     0
 62
     3
  6
CONTINUOUS
  0
LAYER
  2
77
 70
     0
 62
     3
  6
CONTINUOUS
  0
LAYER
  2
78
 70
     0
 62
     3
  6
CONTINUOUS
  0
LAYER
  2
79
 70
     0
 62
     3
  6
CONTINUOUS
  0
LAYER
  2
80
 70
     0
 62
     3
  6
CONTINUOUS
  0
LAYER
  2
81
 70
     0
 62
     3
  6
CONTINUOUS
  0
LAYER
  2
82
 70
     0
 62
     3
  6
CONTINUOUS
  0
LAYER
  2
83
 70
     0
 62
     3
  6
CONTINUOUS
  0
LAYER
  2
84
 70
     0
 62
     3
  6
CONTINUOUS
  0
LAYER
  2
85
 70
     0
 62
     3
  6
CONTINUOUS
  0
LAYER
  2
86
 70
     0
 62
     3
  6
CONTINUOUS
  0
LAYER
  2
87
 70
     0
 62
     3
  6
CONTINUOUS
  0
LAYER
  2
88
 70
     0
 62
     3
  6
CONTINUOUS
  0
LAYER
  2
89
 70
     0
 62
     3
  6
CONTINUOUS
  0
LAYER
  2
90
 70
     0
 62
     3
  6
CONTINUOUS
  0
LAYER
  2
91
 70
     0
 62
     3
  6
CONTINUOUS
  0
LAYER
  2
92
 70
     0
 62
     3
  6
CONTINUOUS
  0
LAYER
  2
93
 70
     0
 62
     3
  6
CONTINUOUS
  0
LAYER
  2
94
 70
     0
 62
     3
  6
CONTINUOUS
  0
LAYER
  2
95
 70
     0
 62
     3
  6
CONTINUOUS
  0
LAYER
  2
96
 70
     0
 62
     3
  6
CONTINUOUS
  0
LAYER
  2
97
 70
     0
 62
     3
  6
CONTINUOUS
  0
LAYER
  2
98
 70
     0
 62
     3
  6
CONTINUOUS
  0
LAYER
  2
99
 70
     0
 62
     3
  6
CONTINUOUS
  0
ENDTAB
  0
TABLE
  2
STYLE
 70
     2
  0
STYLE
  2
STANDARD
 70
     0
 40
0.0
 41
1.0
 50
0.0
 71
     0
 42
0.2
  3
TXT
  4
BIGFONT
  0
STYLE
  2
KANJI
 70
     0
 40
4.5
 41
1.0
 50
0.0
 71
     0
 42
0.2
  3
TXT
  4
BIGFONT
  0
ENDTAB
  0
TABLE
  2
VIEW
 70
     0
  0
ENDTAB
  0
ENDSEC
  0
SECTION
  2
BLOCKS
  0
BLOCK
  8
0
  2
G0
 70
     0
 10
0
 20
0
  0
TEXT
  8
0
 62
     7
 10
3170.977805
 20
2209.784899
 40
32.000000
 50
360.000000
 41
0.66 
  1
％％ｃ　　　枝管
 72
     5
 11
3362.977805
 21
2209.784899
  0
LINE
  8
0
 62
     3
  6
CONTINUOUS
 10
3363.276872
 20
2200.287312
 11
3201.412629
 21
2200.287312
  0
LINE
  8
0
 62
     3
  6
CONTINUOUS
 10
3363.276872
 20
2192.287312
 11
3201.412629
 21
2192.287312
  0
ENDBLK
  0
BLOCK
  8
0
  2
G1
 70
     0
 10
0
 20
0
  0
LINE
  8
0
 62
     1
  6
CONTINUOUS
 10
3893.324692
 20
2060.000000
 11
3893.324692
 21
1900.000000
  0
LINE
  8
0
 62
     1
  6
CONTINUOUS
 10
3696.500000
 20
1900.000000
 11
3903.324692
 21
1900.000000
  0
TEXT
  8
0
 62
     1
 10
3887.991359
 20
1952.000000
 40
32.000000
 50
90.000000
 41
0.58 
  1
160
 72
     5
 11
3887.991359
 21
2008.000000
  0
LINE
  8
0
 62
     1
  6
CONTINUOUS
 10
3893.324692
 20
2110.000000
 11
3893.324692
 21
2060.000000
  0
SOLID
  8
0
 62
     1
 10
3886.854216
 20
2084.148146
 11
3899.795168
 21
2084.148146
 12
3893.324692
 22
2060.000000
 13
3893.324692
 23
2060.000000
  0
LINE
  8
0
 62
     1
  6
CONTINUOUS
 10
3893.324692
 20
1900.000000
 11
3893.324692
 21
1850.000000
  0
SOLID
  8
0
 62
     1
 10
3899.795168
 20
1875.851854
 11
3886.854216
 21
1875.851854
 12
3893.324692
 22
1900.000000
 13
3893.324692
 23
1900.000000
  0
ENDBLK
  0
BLOCK
  8
0
  2
G2
 70
     0
 10
0
 20
0
  0
LINE
  8
0
 62
     1
  6
CONTINUOUS
 10
3464.000000
 20
2274.624747
 11
3624.000000
 21
2274.624747
  0
LINE
  8
0
 62
     1
  6
CONTINUOUS
 10
3464.000000
 20
2227.624747
 11
3464.000000
 21
2284.624747
  0
TEXT
  8
0
 62
     1
 10
3516.000000
 20
2279.958080
 40
32.000000
 50
360.000000
 41
0.58 
  1
160
 72
     5
 11
3572.000000
 21
2279.958080
  0
LINE
  8
0
 62
     1
  6
CONTINUOUS
 10
3464.000000
 20
2274.624747
 11
3414.000000
 21
2274.624747
  0
SOLID
  8
0
 62
     1
 10
3439.851854
 20
2268.154271
 11
3439.851854
 21
2281.095223
 12
3464.000000
 22
2274.624747
 13
3464.000000
 23
2274.624747
  0
ENDBLK
  0
BLOCK
  8
0
  2
G3
 70
     0
 10
0
 20
0
  0
LINE
  8
0
 62
     1
  6
CONTINUOUS
 10
3519.000000
 20
1786.624747
 11
3729.000000
 21
1786.624747
  0
SOLID
  8
0
 62
     1
 10
3543.148146
 20
1793.095223
 11
3543.148146
 21
1780.154271
 12
3519.000000
 22
1786.624747
 13
3519.000000
 23
1786.624747
  0
SOLID
  8
0
 62
     1
 10
3704.851854
 20
1780.154271
 11
3704.851854
 21
1793.095223
 12
3729.000000
 22
1786.624747
 13
3729.000000
 23
1786.624747
  0
TEXT
  8
0
 62
     1
 10
3596.000000
 20
1791.958080
 40
32.000000
 50
0.000000E+00
 41
0.58 
  1
210
 72
     5
 11
3652.000000
 21
1791.958080
  0
ENDBLK
  0
BLOCK
  8
0
  2
G4
 70
     0
 10
0
 20
0
  0
LINE
  8
0
 62
     1
  6
CONTINUOUS
 10
3351.675308
 20
2165.000000
 11
3351.675308
 21
1955.000000
  0
SOLID
  8
0
 62
     1
 10
3358.145784
 20
2140.851854
 11
3345.204832
 21
2140.851854
 12
3351.675308
 22
2165.000000
 13
3351.675308
 23
2165.000000
  0
SOLID
  8
0
 62
     1
 10
3345.204832
 20
1979.148146
 11
3358.145784
 21
1979.148146
 12
3351.675308
 22
1955.000000
 13
3351.675308
 23
1955.000000
  0
LINE
  8
0
 62
     1
  6
CONTINUOUS
 10
3614.000000
 20
2165.000000
 11
3341.675308
 21
2165.000000
  0
TEXT
  8
0
 62
     1
 10
3346.341975
 20
2032.000000
 40
32.000000
 50
90.000000
 41
0.58 
  1
210
 72
     5
 11
3346.341975
 21
2088.000000
  0
ENDBLK
  0
BLOCK
  8
0
  2
G5
 70
     0
 10
0
 20
0
  0
LINE
  8
0
 62
     1
  6
CONTINUOUS
 10
3528.682081
 20
2212.624747
 11
3464.000000
 21
2212.624747
  0
LINE
  8
0
 62
     1
  6
CONTINUOUS
 10
3464.000000
 20
2132.500000
 11
3464.000000
 21
2227.624747
  0
TEXT
  8
0
 62
     1
 10
3476.474233
 20
2217.958080
 40
32.000000
 50
360.000000
 41
0.56 
  1
65
 72
     5
 11
3512.474233
 21
2217.958080
  0
LINE
  8
0
 62
     1
  6
CONTINUOUS
 10
3528.682081
 20
2212.624747
 11
3567.766806
 21
2212.624747
  0
SOLID
  8
0
 62
     1
 10
3552.830227
 20
2219.095223
 11
3552.830227
 21
2206.154271
 12
3528.682081
 22
2212.624747
 13
3528.682081
 23
2212.624747
  0
LINE
  8
0
 62
     1
  6
CONTINUOUS
 10
3464.000000
 20
2212.624747
 11
3421.820860
 21
2212.624747
  0
SOLID
  8
0
 62
     1
 10
3439.851854
 20
2206.154271
 11
3439.851854
 21
2219.095223
 12
3464.000000
 22
2212.624747
 13
3464.000000
 23
2212.624747
  0
ENDBLK
  0
BLOCK
  8
0
  2
G6
 70
     0
 10
0
 20
0
  0
LINE
  8
0
 62
     1
  6
CONTINUOUS
 10
3836.324692
 20
1964.682081
 11
3836.324692
 21
1900.000000
  0
LINE
  8
0
 62
     1
  6
CONTINUOUS
 10
3694.000000
 20
1964.682081
 11
3846.324692
 21
1964.682081
  0
LINE
  8
0
 62
     1
  6
CONTINUOUS
 10
3696.500000
 20
1900.000000
 11
3846.324692
 21
1900.000000
  0
TEXT
  8
0
 62
     1
 10
3830.991359
 20
1914.341041
 40
32.000000
 50
90.000000
 41
0.56 
  1
65
 72
     5
 11
3830.991359
 21
1950.341041
  0
LINE
  8
0
 62
     1
  6
CONTINUOUS
 10
3836.324692
 20
1964.682081
 11
3836.324692
 21
1991.728986
  0
SOLID
  8
0
 62
     1
 10
3829.854216
 20
1988.830227
 11
3842.795168
 21
1988.830227
 12
3836.324692
 22
1964.682081
 13
3836.324692
 23
1964.682081
  0
LINE
  8
0
 62
     1
  6
CONTINUOUS
 10
3836.324692
 20
1900.000000
 11
3836.324692
 21
1850.000000
  0
SOLID
  8
0
 62
     1
 10
3842.795168
 20
1875.851854
 11
3829.854216
 21
1875.851854
 12
3836.324692
 22
1900.000000
 13
3836.324692
 23
1900.000000
  0
ENDBLK
  0
BLOCK
  8
0
  2
G7
 70
     0
 10
0
 20
0
  0
LINE
  8
0
 62
     3
  6
CONTINUOUS
 10
3036.956709
 20
1436.024772
 11
3014.454254
 21
1449.016570
  0
LINE
  8
0
 62
     3
  6
CONTINUOUS
 10
3021.539240
 20
1409.320932
 11
3036.956709
 21
1436.024772
  0
TEXT
  8
0
 62
     3
 10
3009.745957
 20
1376.962715
 40
32.000000
 50
0.000000E+00
 41
0.86 
  1
Ｃ
 72
     5
 11
3041.745957
 21
1376.962715
  0
LINE
  8
0
 62
     3
  6
CONTINUOUS
 10
3021.539240
 20
1456.691181
 11
3021.539240
 21
1409.320932
  0
LINE
  8
0
 62
     3
  6
CONTINUOUS
 10
3021.539240
 20
1456.691181
 11
2941.976677
 21
1456.691181
  0
ENDBLK
  0
BLOCK
  8
0
  2
G8
 70
     0
 10
0
 20
0
  0
TEXT
  8
0
 62
     1
 10
3234.003719
 20
1394.527117
 40
32.000000
 50
90.000000
 41
0.97 
  1
Ｌｔ
 72
     5
 11
3234.003719
 21
1466.527117
  0
LINE
  8
0
 62
     1
  6
CONTINUOUS
 10
3189.337052
 20
938.027117
 11
3249.337052
 21
938.027117
  0
LINE
  8
0
 62
     1
  6
CONTINUOUS
 10
3189.337052
 20
1923.027117
 11
3249.337052
 21
1923.027117
  0
LINE
  8
0
 62
     1
  6
CONTINUOUS
 10
3239.337052
 20
1923.027117
 11
3239.337052
 21
938.027117
  0
SOLID
  8
0
 62
     1
 10
3245.807528
 20
1898.878971
 11
3232.866576
 21
1898.878971
 12
3239.337052
 22
1923.027117
 13
3239.337052
 23
1923.027117
  0
SOLID
  8
0
 62
     1
 10
3232.866576
 20
962.175262
 11
3245.807528
 21
962.175262
 12
3239.337052
 22
938.027117
 13
3239.337052
 23
938.027117
  0
ENDBLK
  0
BLOCK
  8
0
  2
G9
 70
     0
 10
0
 20
0
  0
TEXT
  8
0
 62
     1
 10
3174.003719
 20
1299.027117
 40
32.000000
 50
90.000000
 41
0.89 
  1
Ｌ（有効長）
 72
     5
 11
3174.003719
 21
1495.027117
  0
LINE
  8
0
 62
     1
  6
CONTINUOUS
 10
3129.337052
 20
938.027117
 11
3189.337052
 21
938.027117
  0
LINE
  8
0
 62
     1
  6
CONTINUOUS
 10
3179.337052
 20
1848.027117
 11
3179.337052
 21
938.027117
  0
SOLID
  8
0
 62
     1
 10
3185.807528
 20
1823.878971
 11
3172.866576
 21
1823.878971
 12
3179.337052
 22
1848.027117
 13
3179.337052
 23
1848.027117
  0
SOLID
  8
0
 62
     1
 10
3172.866576
 20
962.175262
 11
3185.807528
 21
962.175262
 12
3179.337052
 22
938.027117
 13
3179.337052
 23
938.027117
  0
ENDBLK
  0
BLOCK
  8
0
  2
G10
 70
     0
 10
0
 20
0
  0
TEXT
  8
0
 62
     1
 10
3114.003719
 20
1090.027117
 40
32.000000
 50
90.000000
 41
0.58 
  1
360
 72
     5
 11
3114.003719
 21
1146.027117
  0
LINE
  8
0
 62
     1
  6
CONTINUOUS
 10
3129.337052
 20
938.027117
 11
3069.337052
 21
938.027117
  0
LINE
  8
0
 62
     1
  6
CONTINUOUS
 10
3119.337052
 20
1298.027117
 11
3119.337052
 21
938.027117
  0
SOLID
  8
0
 62
     1
 10
3125.807528
 20
1273.878971
 11
3112.866576
 21
1273.878971
 12
3119.337052
 22
1298.027117
 13
3119.337052
 23
1298.027117
  0
SOLID
  8
0
 62
     1
 10
3112.866576
 20
962.175262
 11
3125.807528
 21
962.175262
 12
3119.337052
 22
938.027117
 13
3119.337052
 23
938.027117
  0
ENDBLK
  0
BLOCK
  8
0
  2
G11
 70
     0
 10
0
 20
0
  0
TEXT
  8
0
 62
     1
 10
3054.003719
 20
985.027117
 40
32.000000
 50
90.000000
 41
0.58 
  1
150
 72
     5
 11
3054.003719
 21
1041.027117
  0
LINE
  8
0
 62
     1
  6
CONTINUOUS
 10
2885.260138
 20
938.027117
 11
3069.337052
 21
938.027117
  0
LINE
  8
0
 62
     1
  6
CONTINUOUS
 10
3059.337052
 20
1088.027117
 11
3059.337052
 21
938.027117
  0
SOLID
  8
0
 62
     1
 10
3065.807528
 20
1063.878971
 11
3052.866576
 21
1063.878971
 12
3059.337052
 22
1088.027117
 13
3059.337052
 23
1088.027117
  0
SOLID
  8
0
 62
     1
 10
3052.866576
 20
962.175262
 11
3065.807528
 21
962.175262
 12
3059.337052
 22
938.027117
 13
3059.337052
 23
938.027117
  0
ENDBLK
  0
BLOCK
  8
0
  2
G12
 70
     0
 10
0
 20
0
  0
TEXT
  8
0
 62
     1
 10
3054.003719
 20
1120.027117
 40
32.000000
 50
90.000000
 41
0.58 
  1
120
 72
     5
 11
3054.003719
 21
1176.027117
  0
LINE
  8
0
 62
     1
  6
CONTINUOUS
 10
2882.511049
 20
1088.027117
 11
3069.337052
 21
1088.027117
  0
LINE
  8
0
 62
     1
  6
CONTINUOUS
 10
2913.009227
 20
1208.027117
 11
3069.337052
 21
1208.027117
  0
LINE
  8
0
 62
     1
  6
CONTINUOUS
 10
3059.337052
 20
1208.027117
 11
3059.337052
 21
1088.027117
  0
SOLID
  8
0
 62
     1
 10
3065.807528
 20
1183.878971
 11
3052.866576
 21
1183.878971
 12
3059.337052
 22
1208.027117
 13
3059.337052
 23
1208.027117
  0
SOLID
  8
0
 62
     1
 10
3052.866576
 20
1112.175262
 11
3065.807528
 21
1112.175262
 12
3059.337052
 22
1088.027117
 13
3059.337052
 23
1088.027117
  0
ENDBLK
  0
BLOCK
  8
0
  2
G13
 70
     0
 10
0
 20
0
  0
TEXT
  8
0
 62
     1
 10
3054.003719
 20
1695.027117
 40
32.000000
 50
90.000000
 41
0.58 
  1
250
 72
     5
 11
3054.003719
 21
1751.027117
  0
LINE
  8
0
 62
     1
  6
CONTINUOUS
 10
2832.260138
 20
1848.027117
 11
3069.337052
 21
1848.027117
  0
LINE
  8
0
 62
     1
  6
CONTINUOUS
 10
3069.337052
 20
1598.027117
 11
2921.068678
 21
1598.027117
  0
LINE
  8
0
 62
     1
  6
CONTINUOUS
 10
3059.337052
 20
1598.027117
 11
3059.337052
 21
1848.027117
  0
SOLID
  8
0
 62
     1
 10
3051.572481
 20
1627.004891
 11
3067.101623
 21
1627.004891
 12
3059.337052
 22
1598.027117
 13
3059.337052
 23
1598.027117
  0
SOLID
  8
0
 62
     1
 10
3067.101623
 20
1819.049342
 11
3051.572481
 21
1819.049342
 12
3059.337052
 22
1848.027117
 13
3059.337052
 23
1848.027117
  0
ENDBLK
  0
BLOCK
  8
0
  2
G14
 70
     0
 10
0
 20
0
  0
TEXT
  8
0
 62
     1
 10
3114.003719
 20
1462.027117
 40
32.000000
 50
90.000000
 41
0.86 
  1
Ｐ
 72
     5
 11
3114.003719
 21
1494.027117
  0
LINE
  8
0
 62
     1
  6
CONTINUOUS
 10
3129.337052
 20
1298.027117
 11
3069.337052
 21
1298.027117
  0
LINE
  8
0
 62
     1
  6
CONTINUOUS
 10
3119.337052
 20
1298.027117
 11
3119.337052
 21
1658.027117
  0
SOLID
  8
0
 62
     1
 10
3111.572481
 20
1327.004891
 11
3127.101623
 21
1327.004891
 12
3119.337052
 22
1298.027117
 13
3119.337052
 23
1298.027117
  0
SOLID
  8
0
 62
     1
 10
3127.101623
 20
1629.049342
 11
3111.572481
 21
1629.049342
 12
3119.337052
 22
1658.027117
 13
3119.337052
 23
1658.027117
  0
ENDBLK
  0
BLOCK
  8
0
  2
G15
 70
     0
 10
0
 20
0
  0
LINE
  8
0
 62
     1
  6
CONTINUOUS
 10
3784.000000
 20
2212.624747
 11
3826.179140
 21
2212.624747
  0
SOLID
  8
0
 62
     1
 10
3808.148146
 20
2219.095223
 11
3808.148146
 21
2206.154271
 12
3784.000000
 22
2212.624747
 13
3784.000000
 23
2212.624747
  0
LINE
  8
0
 62
     1
  6
CONTINUOUS
 10
3719.317919
 20
2212.624747
 11
3680.233194
 21
2212.624747
  0
SOLID
  8
0
 62
     1
 10
3695.169773
 20
2206.154271
 11
3695.169773
 21
2219.095223
 12
3719.317919
 22
2212.624747
 13
3719.317919
 23
2212.624747
  0
TEXT
  8
0
 62
     1
 10
3735.525767
 20
2217.958080
 40
32.000000
 50
0.000000E+00
 41
0.56 
  1
65
 72
     5
 11
3771.525767
 21
2217.958080
  0
LINE
  8
0
 62
     1
  6
CONTINUOUS
 10
3784.000000
 20
2132.500000
 11
3784.000000
 21
2227.624747
  0
LINE
  8
0
 62
     1
  6
CONTINUOUS
 10
3719.317919
 20
2212.624747
 11
3784.000000
 21
2212.624747
  0
ENDBLK
  0
BLOCK
  8
0
  2
G16
 70
     0
 10
0
 20
0
  0
TEXT
  8
0
 62
     1
 10
3174.003719
 20
1867.527117
 40
32.000000
 50
90.000000
 41
0.56 
  1
75
 72
     5
 11
3174.003719
 21
1903.527117
  0
LINE
  8
0
 62
     1
  6
CONTINUOUS
 10
3189.337052
 20
1848.027117
 11
3059.337052
 21
1848.027117
  0
LINE
  8
0
 62
     1
  6
CONTINUOUS
 10
3189.337052
 20
1923.027117
 11
2902.450193
 21
1923.027117
  0
LINE
  8
0
 62
     1
  6
CONTINUOUS
 10
3179.337052
 20
1923.027117
 11
3179.337052
 21
1848.027117
  0
SOLID
  8
0
 62
     1
 10
3185.807528
 20
1898.878971
 11
3172.866576
 21
1898.878971
 12
3179.337052
 22
1923.027117
 13
3179.337052
 23
1923.027117
  0
SOLID
  8
0
 62
     1
 10
3172.866576
 20
1872.175262
 11
3185.807528
 21
1872.175262
 12
3179.337052
 22
1848.027117
 13
3179.337052
 23
1848.027117
  0
ENDBLK
  0
BLOCK
  8
0
  2
G17
 70
     0
 10
0
 20
0
  0
LINE
  8
0
 62
     1
  6
CONTINUOUS
 10
3784.000000
 20
2274.624747
 11
3834.000000
 21
2274.624747
  0
SOLID
  8
0
 62
     1
 10
3808.148146
 20
2281.095223
 11
3808.148146
 21
2268.154271
 12
3784.000000
 22
2274.624747
 13
3784.000000
 23
2274.624747
  0
TEXT
  8
0
 62
     1
 10
3676.000000
 20
2279.958080
 40
32.000000
 50
0.000000E+00
 41
0.58 
  1
160
 72
     5
 11
3732.000000
 21
2279.958080
  0
LINE
  8
0
 62
     1
  6
CONTINUOUS
 10
3784.000000
 20
2227.624747
 11
3784.000000
 21
2284.624747
  0
LINE
  8
0
 62
     1
  6
CONTINUOUS
 10
3784.000000
 20
2274.624747
 11
3624.000000
 21
2274.624747
  0
CIRCLE
  8
0
 62
     1
  6
CONTINUOUS
 10
3624.000000
 20
2274.624747
 40
5.000000
  0
CIRCLE
  8
0
 62
     1
  6
CONTINUOUS
 10
3624.000000
 20
2274.624747
 40
2.500000
  0
ENDBLK
  0
BLOCK
  8
0
  2
G18
 70
     0
 10
0
 20
0
  0
LINE
  8
0
 62
     3
  6
CONTINUOUS
 10
3407.554557
 20
2265.682573
 11
3386.999358
 21
2265.682573
  0
TEXT
  8
0
 62
     3
 10
3391.554557
 20
2271.015906
 40
32.000000
 50
0.000000E+00
 41
0.50 
  1
 
 72
     5
 11
3407.554557
 21
2271.015906
  0
LINE
  8
0
 62
     3
  6
CONTINUOUS
 10
3470.231065
 20
2228.288478
 11
3407.554557
 21
2265.682573
  0
SOLID
  8
0
 62
     3
 10
3450.988719
 20
2233.741193
 11
3456.293063
 21
2242.631841
 12
3470.231065
 22
2228.288478
 13
3470.231065
 23
2228.288478
  0
ENDBLK
  0
BLOCK
  8
0
  2
G19
 70
     0
 10
0
 20
0
  0
TEXT
  8
0
 62
     3
 10
3112.716226
 20
1978.253919
 40
32.000000
 50
0.000000E+00
 41
0.95 
  1
受口深さ　
 72
     5
 11
3288.716226
 21
1978.253919
  0
ENDBLK
  0
BLOCK
  8
0
  2
G20
 70
     0
 10
0
 20
0
  0
LINE
  8
0
 62
     1
  6
CONTINUOUS
 10
3365.769514
 20
1977.131995
 11
3541.131995
 21
1801.769514
  0
SOLID
  8
0
 62
     1
 10
3387.420149
 20
1964.631995
 11
3378.269514
 21
1955.481360
 12
3365.769514
 22
1977.131995
 13
3365.769514
 23
1977.131995
  0
SOLID
  8
0
 62
     1
 10
3519.481360
 20
1814.269514
 11
3528.631995
 21
1823.420149
 12
3541.131995
 22
1801.769514
 13
3541.131995
 23
1801.769514
  0
LINE
  8
0
 62
     1
  6
CONTINUOUS
 10
3529.247691
 20
2140.610173
 11
3358.698446
 21
1970.060928
  0
LINE
  8
0
 62
     1
  6
CONTINUOUS
 10
3704.610173
 20
1965.247691
 11
3534.060928
 21
1794.698446
  0
TEXT
  8
0
 62
     1
 10
3437.423001
 20
1913.020980
 40
32.000000
 50
315.000000
 41
0.58 
  1
248
 72
     5
 11
3477.020980
 21
1873.423001
  0
ENDBLK
  0
BLOCK
  8
0
  2
G21
 70
     0
 10
0
 20
0
  0
LINE
  8
0
 62
     3
  6
CONTINUOUS
 10
3402.946085
 20
2222.332123
 11
3380.946085
 21
2222.332123
  0
TEXT
  8
0
 62
     3
 10
3386.946085
 20
2207.665456
 40
32.000000
 50
0.000000E+00
 41
0.50 
  1
 
 72
     5
 11
3402.946085
 21
2207.665456
  0
LINE
  8
0
 62
     3
  6
CONTINUOUS
 10
3464.000000
 20
2122.500000
 11
3402.946085
 21
2222.332123
  0
SOLID
  8
0
 62
     3
 10
3449.504885
 20
2136.280118
 11
3458.336922
 21
2141.681490
 12
3464.000000
 22
2122.500000
 13
3464.000000
 23
2122.500000
  0
ENDBLK
  0
BLOCK
  8
0
  2
G22
 70
     0
 10
0
 20
0
  0
LINE
  8
0
 62
     3
  6
CONTINUOUS
 10
3854.732756
 20
2150.949058
 11
4016.596998
 21
2150.949058
  0
LINE
  8
0
 62
     3
  6
CONTINUOUS
 10
3854.732756
 20
2158.949058
 11
4016.596998
 21
2158.949058
  0
TEXT
  8
0
 62
     7
 10
3855.031823
 20
2168.446645
 40
32.000000
 50
0.000000E+00
 41
0.66 
  1
％％ｃ　　　枝管
 72
     5
 11
4047.031823
 21
2168.446645
  0
ENDBLK
  0
BLOCK
  8
0
  2
G23
 70
     0
 10
0
 20
0
  0
LINE
  8
0
 62
     3
  6
CONTINUOUS
 10
3829.610077
 20
2179.031417
 11
3853.703466
 21
2179.031417
  0
TEXT
  8
0
 62
     3
 10
3829.610077
 20
2194.364750
 40
32.000000
 50
0.000000E+00
 41
0.50 
  1
 
 72
     5
 11
3845.610077
 21
2194.364750
  0
LINE
  8
0
 62
     3
  6
CONTINUOUS
 10
3784.000000
 20
2122.500000
 11
3829.610077
 21
2179.031417
  0
SOLID
  8
0
 62
     3
 10
3792.101847
 20
2140.785515
 11
3800.159163
 21
2134.284797
 12
3784.000000
 22
2122.500000
 13
3784.000000
 23
2122.500000
  0
ENDBLK
  0
BLOCK
  8
0
  2
G24
 70
     0
 10
0
 20
0
  0
TEXT
  8
0
 62
     7
 10
3802.464429
 20
1738.472319
 40
32.000000
 50
0.000000E+00
 41
0.66 
  1
％％ｃ　　　枝管
 72
     5
 11
3994.464429
 21
1738.472319
  0
LINE
  8
0
 62
     3
  6
CONTINUOUS
 10
3802.165362
 20
1728.974732
 11
3964.029604
 21
1728.974732
  0
LINE
  8
0
 62
     3
  6
CONTINUOUS
 10
3802.165362
 20
1720.974732
 11
3964.029604
 21
1720.974732
  0
ENDBLK
  0
BLOCK
  8
0
  2
G25
 70
     0
 10
0
 20
0
  0
LINE
  8
0
 62
     3
  6
CONTINUOUS
 10
3779.232991
 20
1755.181931
 11
3800.125160
 21
1755.181931
  0
TEXT
  8
0
 62
     3
 10
3779.232991
 20
1760.515264
 40
32.000000
 50
0.000000E+00
 41
0.50 
  1
 
 72
     5
 11
3795.232991
 21
1760.515264
  0
LINE
  8
0
 62
     3
  6
CONTINUOUS
 10
3686.500000
 20
1900.000000
 11
3779.232991
 21
1755.181931
  0
SOLID
  8
0
 62
     3
 10
3701.276899
 20
1886.522490
 11
3692.558415
 21
1880.939685
 12
3686.500000
 22
1900.000000
 13
3686.500000
 23
1900.000000
  0
ENDBLK
  0
BLOCK
  8
0
  2
G26
 70
     0
 10
0
 20
0
  0
LINE
  8
0
 62
     7
  6
CONTINUOUS
 10
2727.260138
 20
2273.790816
 11
2727.260138
 21
2377.121492
  0
LINE
  8
0
 62
     7
  6
CONTINUOUS
 10
2822.260138
 20
2320.231976
 11
2822.260138
 21
2377.121492
  0
LINE
  8
0
 62
     7
  6
CONTINUOUS
 10
2727.260138
 20
2367.121492
 11
2822.260138
 21
2367.121492
  0
SOLID
  8
0
 62
     7
 10
2751.408284
 20
2373.591969
 11
2751.408284
 21
2360.651016
 12
2727.260138
 22
2367.121492
 13
2727.260138
 23
2367.121492
  0
SOLID
  8
0
 62
     7
 10
2798.111993
 20
2360.651016
 11
2798.111993
 21
2373.591969
 12
2822.260138
 22
2367.121492
 13
2822.260138
 23
2367.121492
  0
TEXT
  8
0
 62
     7
 10
2756.760138
 20
2372.454822
 40
32.000000
 50
0.000000E+00
 41
0.56 
  1
95
 72
     5
 11
2792.760138
 21
2372.454822
  0
ENDBLK
  0
BLOCK
  8
0
  2
G27
 70
     0
 10
0
 20
0
  0
LINE
  8
0
 62
     7
  6
CONTINUOUS
 10
2946.232349
 20
2201.790816
 11
3012.629063
 21
2201.790816
  0
LINE
  8
0
 62
     7
  6
CONTINUOUS
 10
2894.260138
 20
2106.790816
 11
3012.629063
 21
2106.790816
  0
LINE
  8
0
 62
     7
  6
CONTINUOUS
 10
3002.629063
 20
2201.790816
 11
3002.629063
 21
2106.790816
  0
SOLID
  8
0
 62
     7
 10
3009.099539
 20
2177.642671
 11
2996.158587
 21
2177.642671
 12
3002.629063
 22
2201.790816
 13
3002.629063
 23
2201.790816
  0
SOLID
  8
0
 62
     7
 10
2996.158587
 20
2130.938962
 11
3009.099539
 21
2130.938962
 12
3002.629063
 22
2106.790816
 13
3002.629063
 23
2106.790816
  0
TEXT
  8
0
 62
     7
 10
2997.295733
 20
2136.290816
 40
32.000000
 50
90.000000
 41
0.56 
  1
95
 72
     5
 11
2997.295733
 21
2172.290816
  0
ENDBLK
  0
BLOCK
  8
0
  2
G28
 70
     0
 10
0
 20
0
  0
LINE
  8
0
 62
     7
  6
CONTINUOUS
 10
2747.260138
 20
1933.027117
 11
2747.260138
 21
1976.551724
  0
LINE
  8
0
 62
     7
  6
CONTINUOUS
 10
2897.260138
 20
1933.027117
 11
2897.260138
 21
1976.551724
  0
LINE
  8
0
 62
     7
  6
CONTINUOUS
 10
2747.260138
 20
1966.551724
 11
2897.260138
 21
1966.551724
  0
SOLID
  8
0
 62
     7
 10
2771.408284
 20
1973.022200
 11
2771.408284
 21
1960.081248
 12
2747.260138
 22
1966.551724
 13
2747.260138
 23
1966.551724
  0
SOLID
  8
0
 62
     7
 10
2873.111993
 20
1960.081248
 11
2873.111993
 21
1973.022200
 12
2897.260138
 22
1966.551724
 13
2897.260138
 23
1966.551724
  0
TEXT
  8
0
 62
     7
 10
2764.260138
 20
1971.885054
 40
32.000000
 50
0.000000E+00
 41
0.60 
  1
%%c150
 72
     5
 11
2880.260138
 21
1971.885054
  0
ENDBLK
  0
BLOCK
  8
0
  2
G29
 70
     0
 10
0
 20
0
  0
LINE
  8
0
 62
     7
  6
CONTINUOUS
 10
2736.260138
 20
1753.786486
 11
2736.260138
 21
2038.748668
  0
LINE
  8
0
 62
     7
  6
CONTINUOUS
 10
2908.260138
 20
1743.786486
 11
2908.260138
 21
2038.748668
  0
LINE
  8
0
 62
     7
  6
CONTINUOUS
 10
2736.260138
 20
2028.748668
 11
2908.260138
 21
2028.748668
  0
SOLID
  8
0
 62
     7
 10
2760.408284
 20
2035.219144
 11
2760.408284
 21
2022.278191
 12
2736.260138
 22
2028.748668
 13
2736.260138
 23
2028.748668
  0
SOLID
  8
0
 62
     7
 10
2884.111993
 20
2022.278191
 11
2884.111993
 21
2035.219144
 12
2908.260138
 22
2028.748668
 13
2908.260138
 23
2028.748668
  0
TEXT
  8
0
 62
     7
 10
2764.260138
 20
2034.081997
 40
32.000000
 50
0.000000E+00
 41
0.60 
  1
%%c172
 72
     5
 11
2880.260138
 21
2034.081997
  0
ENDBLK
  0
BLOCK
  8
0
  2
G30
 70
     0
 10
0
 20
0
  0
LINE
  8
0
 62
     7
  6
CONTINUOUS
 10
2767.260138
 20
928.027117
 11
2767.260138
 21
853.392951
  0
LINE
  8
0
 62
     7
  6
CONTINUOUS
 10
2877.260138
 20
928.027117
 11
2877.260138
 21
853.392951
  0
LINE
  8
0
 62
     7
  6
CONTINUOUS
 10
2767.260138
 20
863.392951
 11
2877.260138
 21
863.392951
  0
SOLID
  8
0
 62
     7
 10
2791.408284
 20
869.863427
 11
2791.408284
 21
856.922475
 12
2767.260138
 22
863.392951
 13
2767.260138
 23
863.392951
  0
SOLID
  8
0
 62
     7
 10
2853.111993
 20
856.922475
 11
2853.111993
 21
869.863427
 12
2877.260138
 22
863.392951
 13
2877.260138
 23
863.392951
  0
TEXT
  8
0
 62
     7
 10
2764.260138
 20
868.726280
 40
32.000000
 50
0.000000E+00
 41
0.60 
  1
%%c110
 72
     5
 11
2880.260138
 21
868.726280
  0
ENDBLK
  0
BLOCK
  8
0
  2
G31
 70
     0
 10
0
 20
0
  0
LINE
  8
0
 62
     7
  6
CONTINUOUS
 10
2736.260138
 20
1191.899028
 11
2736.260138
 21
788.748668
  0
LINE
  8
0
 62
     7
  6
CONTINUOUS
 10
2908.260138
 20
1201.899028
 11
2908.260138
 21
788.748668
  0
LINE
  8
0
 62
     7
  6
CONTINUOUS
 10
2736.260138
 20
798.748668
 11
2908.260138
 21
798.748668
  0
SOLID
  8
0
 62
     7
 10
2760.408284
 20
805.219144
 11
2760.408284
 21
792.278191
 12
2736.260138
 22
798.748668
 13
2736.260138
 23
798.748668
  0
SOLID
  8
0
 62
     7
 10
2884.111993
 20
792.278191
 11
2884.111993
 21
805.219144
 12
2908.260138
 22
798.748668
 13
2908.260138
 23
798.748668
  0
TEXT
  8
0
 62
     7
 10
2764.260138
 20
804.081997
 40
32.000000
 50
0.000000E+00
 41
0.60 
  1
%%c172
 72
     5
 11
2880.260138
 21
804.081997
  0
ENDBLK
  0
BLOCK
  8
0
  2
G32
 70
     0
 10
0
 20
0
  0
LINE
  8
0
 62
     7
  6
CONTINUOUS
 10
2991.230312
 20
1349.518419
 11
3069.337052
 21
1349.518419
  0
LINE
  8
0
 62
     7
  6
CONTINUOUS
 10
2992.260138
 20
1298.027117
 11
3069.337052
 21
1298.027117
  0
LINE
  8
0
 62
     7
  6
CONTINUOUS
 10
3059.337052
 20
1349.518419
 11
3059.337052
 21
1298.027117
  0
LINE
  8
0
 62
     7
  6
CONTINUOUS
 10
3059.337052
 20
1349.518419
 11
3059.337052
 21
1399.518419
  0
SOLID
  8
0
 62
     7
 10
3052.866576
 20
1373.666564
 11
3065.807528
 21
1373.666564
 12
3059.337052
 22
1349.518419
 13
3059.337052
 23
1349.518419
  0
LINE
  8
0
 62
     7
  6
CONTINUOUS
 10
3059.337052
 20
1298.027117
 11
3059.337052
 21
1248.027117
  0
SOLID
  8
0
 62
     7
 10
3065.807528
 20
1273.878971
 11
3052.866576
 21
1273.878971
 12
3059.337052
 22
1298.027117
 13
3059.337052
 23
1298.027117
  0
TEXT
  8
0
 62
     7
 10
3054.003722
 20
1307.772768
 40
32.000000
 50
90.000000
 41
0.86 
  1
Ｂ
 72
     5
 11
3054.003722
 21
1339.772768
  0
ENDBLK
  0
BLOCK
  8
0
  2
G33
 70
     0
 10
0
 20
0
  0
POINT
  8
0
 62
     2
 10
2909.230312
 20
1356.078419
  0
LINE
  8
0
 62
     2
  6
CENTER
 10
2992.510141
 20
1349.744015
 11
2909.230312
 21
1348.078419
  0
LINE
  8
0
 62
     2
  6
CONTINUOUS
 10
2975.191520
 20
1401.408042
 11
2917.260138
 21
1400.249414
  0
LINE
  8
0
 62
     2
  6
CONTINUOUS
 10
2917.276488
 20
1296.727444
 11
2982.260138
 21
1298.027117
  0
LINE
  8
0
 62
     2
  6
CONTINUOUS
 10
2975.131532
 20
1404.407442
 11
2980.130532
 21
1404.507422
  0
LINE
  8
0
 62
     2
  6
CONTINUOUS
 10
2980.130532
 20
1404.507422
 11
2982.260138
 21
1298.027117
  0
LINE
  8
0
 62
     2
  6
CONTINUOUS
 10
2975.131532
 20
1404.407442
 11
2977.261138
 21
1297.927137
  0
POINT
  8
0
 62
     2
 10
2981.230312
 20
1349.518419
  0
ENDBLK
  0
BLOCK
  8
0
  2
G34
 70
     0
 10
0
 20
0
  0
POINT
  8
0
 62
     2
 10
2663.289964
 20
1349.518419
  0
LINE
  8
0
 62
     2
  6
CONTINUOUS
 10
2669.388745
 20
1404.407442
 11
2667.259139
 21
1297.927137
  0
LINE
  8
0
 62
     2
  6
CONTINUOUS
 10
2664.389744
 20
1404.507422
 11
2662.260138
 21
1298.027117
  0
LINE
  8
0
 62
     2
  6
CONTINUOUS
 10
2669.388745
 20
1404.407442
 11
2664.389744
 21
1404.507422
  0
LINE
  8
0
 62
     2
  6
CONTINUOUS
 10
2727.243788
 20
1296.727444
 11
2662.260138
 21
1298.027117
  0
LINE
  8
0
 62
     2
  6
CONTINUOUS
 10
2669.328757
 20
1401.408042
 11
2727.260138
 21
1400.249414
  0
LINE
  8
0
 62
     2
  6
CENTER
 10
2652.010135
 20
1349.744015
 11
2735.289964
 21
1348.078419
  0
POINT
  8
0
 62
     2
 10
2735.289964
 20
1356.078419
  0
ENDBLK
  0
BLOCK
  8
0
  2
G35
 70
     0
 10
0
 20
0
  0
LINE
  8
0
 62
     7
  6
CONTINUOUS
 10
3794.000000
 20
2115.000000
 11
3846.324692
 21
2115.000000
  0
LINE
  8
0
 62
     7
  6
CONTINUOUS
 10
3794.000000
 20
2005.000000
 11
3846.324692
 21
2005.000000
  0
LINE
  8
0
 62
     7
  6
CONTINUOUS
 10
3836.324692
 20
2115.000000
 11
3836.324692
 21
2005.000000
  0
SOLID
  8
0
 62
     7
 10
3842.795168
 20
2090.851854
 11
3829.854216
 21
2090.851854
 12
3836.324692
 22
2115.000000
 13
3836.324692
 23
2115.000000
  0
SOLID
  8
0
 62
     7
 10
3829.854216
 20
2029.148146
 11
3842.795168
 21
2029.148146
 12
3836.324692
 22
2005.000000
 13
3836.324692
 23
2005.000000
  0
TEXT
  8
0
 62
     7
 10
3830.991362
 20
2044.000000
 40
32.000000
 50
90.000000
 41
0.86 
  1
Ａ
 72
     5
 11
3830.991362
 21
2076.000000
  0
ENDBLK
  0
BLOCK
  8
0
  2
G36
 70
     0
 10
0
 20
0
  0
LINE
  8
0
 62
     2
  6
CONTINUOUS
 10
3719.000000
 20
2112.000000
 11
3779.000000
 21
2112.000000
  0
LINE
  8
0
 62
     2
  6
CONTINUOUS
 10
3779.000000
 20
2008.000000
 11
3719.000000
 21
2008.000000
  0
LINE
  8
0
 62
     2
  6
CONTINUOUS
 10
3779.000000
 20
2115.000000
 11
3784.000000
 21
2115.000000
  0
LINE
  8
0
 62
     2
  6
CONTINUOUS
 10
3779.000000
 20
2005.000000
 11
3784.000000
 21
2005.000000
  0
LINE
  8
0
 62
     2
  6
CONTINUOUS
 10
3779.000000
 20
2005.000000
 11
3779.000000
 21
2115.000000
  0
LINE
  8
0
 62
     2
  6
CONTINUOUS
 10
3784.000000
 20
2005.000000
 11
3784.000000
 21
2115.000000
  0
ENDBLK
  0
BLOCK
  8
0
  2
G37
 70
     0
 10
0
 20
0
  0
LINE
  8
0
 62
     7
  6
CONTINUOUS
 10
3454.000000
 20
2115.000000
 11
3401.675308
 21
2115.000000
  0
LINE
  8
0
 62
     7
  6
CONTINUOUS
 10
3454.000000
 20
2005.000000
 11
3401.675308
 21
2005.000000
  0
LINE
  8
0
 62
     7
  6
CONTINUOUS
 10
3411.675308
 20
2115.000000
 11
3411.675308
 21
2005.000000
  0
SOLID
  8
0
 62
     7
 10
3418.145784
 20
2090.851854
 11
3405.204832
 21
2090.851854
 12
3411.675308
 22
2115.000000
 13
3411.675308
 23
2115.000000
  0
SOLID
  8
0
 62
     7
 10
3405.204832
 20
2029.148146
 11
3418.145784
 21
2029.148146
 12
3411.675308
 22
2005.000000
 13
3411.675308
 23
2005.000000
  0
TEXT
  8
0
 62
     7
 10
3406.341978
 20
2044.000000
 40
32.000000
 50
90.000000
 41
0.86 
  1
Ａ
 72
     5
 11
3406.341978
 21
2076.000000
  0
ENDBLK
  0
BLOCK
  8
0
  2
G38
 70
     0
 10
0
 20
0
  0
LINE
  8
0
 62
     2
  6
CONTINUOUS
 10
3464.000000
 20
2005.000000
 11
3464.000000
 21
2115.000000
  0
LINE
  8
0
 62
     2
  6
CONTINUOUS
 10
3469.000000
 20
2005.000000
 11
3469.000000
 21
2115.000000
  0
LINE
  8
0
 62
     2
  6
CONTINUOUS
 10
3469.000000
 20
2005.000000
 11
3464.000000
 21
2005.000000
  0
LINE
  8
0
 62
     2
  6
CONTINUOUS
 10
3469.000000
 20
2115.000000
 11
3464.000000
 21
2115.000000
  0
LINE
  8
0
 62
     2
  6
CONTINUOUS
 10
3469.000000
 20
2008.000000
 11
3529.000000
 21
2008.000000
  0
LINE
  8
0
 62
     2
  6
CONTINUOUS
 10
3529.000000
 20
2112.000000
 11
3469.000000
 21
2112.000000
  0
ENDBLK
  0
BLOCK
  8
0
  2
G39
 70
     0
 10
0
 20
0
  0
LINE
  8
0
 62
     7
  6
CONTINUOUS
 10
3561.500000
 20
1890.000000
 11
3561.500000
 21
1838.019379
  0
LINE
  8
0
 62
     7
  6
CONTINUOUS
 10
3686.500000
 20
1890.000000
 11
3686.500000
 21
1838.019379
  0
LINE
  8
0
 62
     7
  6
CONTINUOUS
 10
3561.500000
 20
1848.019379
 11
3686.500000
 21
1848.019379
  0
SOLID
  8
0
 62
     7
 10
3585.648146
 20
1854.489855
 11
3585.648146
 21
1841.548903
 12
3561.500000
 22
1848.019379
 13
3561.500000
 23
1848.019379
  0
SOLID
  8
0
 62
     7
 10
3662.351854
 20
1841.548903
 11
3662.351854
 21
1854.489855
 12
3686.500000
 22
1848.019379
 13
3686.500000
 23
1848.019379
  0
TEXT
  8
0
 62
     7
 10
3608.000000
 20
1853.352709
 40
32.000000
 50
0.000000E+00
 41
0.86 
  1
Ａ
 72
     5
 11
3640.000000
 21
1853.352709
  0
ENDBLK
  0
BLOCK
  8
3
  2
G40
 70
     0
 10
0
 20
0
  0
LINE
  8
3
 62
     4
  6
CONTINUOUS
 10
3686.500000
 20
1900.000000
 11
3561.500000
 21
1900.000000
  0
LINE
  8
3
 62
     4
  6
CONTINUOUS
 10
3686.500000
 20
1905.000000
 11
3686.500000
 21
1900.000000
  0
LINE
  8
3
 62
     4
  6
CONTINUOUS
 10
3561.500000
 20
1905.000000
 11
3561.500000
 21
1900.000000
  0
LINE
  8
3
 62
     4
  6
CONTINUOUS
 10
3561.500000
 20
1905.000000
 11
3686.500000
 21
1905.000000
  0
LINE
  8
3
 62
     4
  6
CONTINUOUS
 10
3684.000000
 20
1905.000000
 11
3684.000000
 21
1964.682081
  0
LINE
  8
3
 62
     4
  6
CONTINUOUS
 10
3564.000000
 20
1905.000000
 11
3564.000000
 21
1964.682081
  0
ENDBLK
  0
BLOCK
  8
0
  2
G41
 70
     0
 10
0
 20
0
  0
LINE
  8
0
 62
     7
  6
CONTINUOUS
 10
2708.752854
 20
1358.027117
 11
2600.908222
 21
1358.027117
  0
LINE
  8
0
 62
     7
  6
CONTINUOUS
 10
2794.760138
 20
1298.027117
 11
2600.908222
 21
1298.027117
  0
LINE
  8
0
 62
     7
  6
CONTINUOUS
 10
2610.908222
 20
1358.027117
 11
2610.908222
 21
1298.027117
  0
SOLID
  8
0
 62
     7
 10
2617.378698
 20
1333.878971
 11
2604.437746
 21
1333.878971
 12
2610.908222
 22
1358.027117
 13
2610.908222
 23
1358.027117
  0
SOLID
  8
0
 62
     7
 10
2604.437746
 20
1322.175262
 11
2617.378698
 21
1322.175262
 12
2610.908222
 22
1298.027117
 13
2610.908222
 23
1298.027117
  0
TEXT
  8
0
 62
     7
 10
2605.574892
 20
1312.027117
 40
32.000000
 50
90.000000
 41
0.86 
  1
Ｂ
 72
     5
 11
2605.574892
 21
1344.027117
  0
ENDBLK
  0
ENDSEC
  0
SECTION
  2
ENTITIES
  0
LINE
  8
0
 62
     1
  6
CONTINUOUS
 10
3624.000000
 20
2284.624747
 11
3624.000000
 21
2184.723844
  0
LINE
  8
0
 62
     1
  6
CONTINUOUS
 10
3410.664837
 20
1955.000000
 11
3341.675308
 21
1955.000000
  0
LINE
  8
0
 62
     1
  6
CONTINUOUS
 10
3519.000000
 20
2050.000000
 11
3519.000000
 21
1878.258534
  0
TEXT
  8
0
 62
     6
 10
2913.523107
 20
2580.810698
 40
32.000000
 50
0.000000E+00
 41
0.50 
  1
1
 72
     5
 11
2929.523107
 21
2580.810698
  0
CIRCLE
  8
0
 62
     6
  6
HIDDEN
 10
2921.523107
 20
2596.810698
 40
20.000000
  0
TEXT
  8
0
 62
     6
 10
2913.523107
 20
2532.777279
 40
32.000000
 50
0.000000E+00
 41
0.50 
  1
2
 72
     5
 11
2929.523107
 21
2532.777279
  0
CIRCLE
  8
0
 62
     6
  6
HIDDEN
 10
2921.523107
 20
2548.777279
 40
20.000000
  0
LINE
  8
3
 62
     4
  6
CONTINUOUS
 10
2739.460550
 20
1298.517316
 11
2742.529432
 21
1299.930668
  0
LINE
  8
3
 62
     4
  6
CONTINUOUS
 10
2742.529432
 20
1299.930668
 11
2745.501027
 21
1302.245561
  0
LINE
  8
3
 62
     4
  6
CONTINUOUS
 10
2745.501027
 20
1302.245561
 11
2748.329223
 21
1305.426073
  0
LINE
  8
3
 62
     4
  6
CONTINUOUS
 10
2748.329223
 20
1305.426073
 11
2750.970130
 21
1309.422847
  0
LINE
  8
3
 62
     4
  6
CONTINUOUS
 10
2750.970130
 20
1309.422847
 11
2753.382767
 21
1314.173863
  0
LINE
  8
3
 62
     4
  6
CONTINUOUS
 10
2753.382767
 20
1314.173863
 11
2755.529696
 21
1319.605393
  0
LINE
  8
3
 62
     4
  6
CONTINUOUS
 10
2755.529696
 20
1319.605393
 11
2757.377599
 21
1325.633151
  0
LINE
  8
3
 62
     4
  6
CONTINUOUS
 10
2757.377599
 20
1325.633151
 11
2758.897802
 21
1332.163599
  0
LINE
  8
3
 62
     4
  6
CONTINUOUS
 10
2758.897802
 20
1332.163599
 11
2760.066714
 21
1339.095397
  0
LINE
  8
3
 62
     4
  6
CONTINUOUS
 10
2760.066714
 20
1339.095397
 11
2760.866195
 21
1346.320978
  0
LINE
  8
3
 62
     4
  6
CONTINUOUS
 10
2760.066714
 20
1339.095397
 11
2760.866195
 21
1346.320978
  0
LINE
  8
3
 62
     4
  6
CONTINUOUS
 10
2760.866195
 20
1369.733255
 11
2760.482107
 21
1373.657217
  0
LINE
  8
3
 62
     4
  6
CONTINUOUS
 10
2760.482107
 20
1373.657217
 11
2759.988743
 21
1377.510664
  0
LINE
  8
3
 62
     4
  6
CONTINUOUS
 10
2759.988743
 20
1377.510664
 11
2759.388329
 21
1381.276211
  0
LINE
  8
3
 62
     4
  6
CONTINUOUS
 10
2759.388329
 20
1381.276211
 11
2758.683573
 21
1384.936872
  0
LINE
  8
3
 62
     4
  6
CONTINUOUS
 10
2758.683573
 20
1384.936872
 11
2757.877654
 21
1388.476130
  0
LINE
  8
3
 62
     4
  6
CONTINUOUS
 10
2757.877654
 20
1388.476130
 11
2756.974209
 21
1391.878019
  0
LINE
  8
3
 62
     4
  6
CONTINUOUS
 10
2756.974209
 20
1391.878019
 11
2755.977314
 21
1395.127191
  0
LINE
  8
3
 62
     4
  6
CONTINUOUS
 10
2755.977314
 20
1395.127191
 11
2754.891465
 21
1398.208988
  0
LINE
  8
3
 62
     4
  6
CONTINUOUS
 10
2754.891465
 20
1398.208988
 11
2753.721561
 21
1401.109505
  0
LINE
  8
3
 62
     4
  6
CONTINUOUS
 10
2754.891465
 20
1398.208988
 11
2753.721561
 21
1401.109505
  0
LINE
  8
3
 62
     4
  6
CONTINUOUS
 10
2890.798715
 20
1401.109505
 11
2889.742104
 21
1398.507419
  0
LINE
  8
3
 62
     4
  6
CONTINUOUS
 10
2889.742104
 20
1398.507419
 11
2888.753168
 21
1395.757397
  0
LINE
  8
3
 62
     4
  6
CONTINUOUS
 10
2888.753168
 20
1395.757397
 11
2887.835520
 21
1392.869487
  0
LINE
  8
3
 62
     4
  6
CONTINUOUS
 10
2887.835520
 20
1392.869487
 11
2886.992516
 21
1389.854244
  0
LINE
  8
3
 62
     4
  6
CONTINUOUS
 10
2886.992516
 20
1389.854244
 11
2886.227234
 21
1386.722688
  0
LINE
  8
3
 62
     4
  6
CONTINUOUS
 10
2886.227234
 20
1386.722688
 11
2885.542473
 21
1383.486263
  0
LINE
  8
3
 62
     4
  6
CONTINUOUS
 10
2885.542473
 20
1383.486263
 11
2884.940735
 21
1380.156796
  0
LINE
  8
3
 62
     4
  6
CONTINUOUS
 10
2884.940735
 20
1380.156796
 11
2884.424218
 21
1376.746455
  0
LINE
  8
3
 62
     4
  6
CONTINUOUS
 10
2884.424218
 20
1376.746455
 11
2883.994811
 21
1373.267704
  0
LINE
  8
3
 62
     4
  6
CONTINUOUS
 10
2883.994811
 20
1373.267704
 11
2883.654082
 21
1369.733255
  0
LINE
  8
3
 62
     4
  6
CONTINUOUS
 10
2883.994811
 20
1373.267704
 11
2883.654082
 21
1369.733255
  0
INSERT
  8
0
  2
G0
 10
0
 20
0
  0
TEXT
  8
0
 62
     3
 10
3579.124629
 20
1912.159553
 40
32.000000
 50
0.000000E+00
 41
0.86 
  1
ｂ
 72
     5
 11
3611.124629
 21
1912.159553
  0
ARC
  8
1
 62
     3
  6
CONTINUOUS
 10
2732.760138
 20
1593.027117
 40
3.000000
 50
0.000000E+00
 51
90.000000
  0
TEXT
  8
0
 62
     3
 10
3724.537793
 20
1641.620784
 40
32.000000
 50
360.000000
 41
0.87 
  1
Ｃ矢視　（下部）
 72
     5
 11
3980.537793
 21
1641.620784
  0
ARC
  8
1
 62
     3
  6
CONTINUOUS
 10
2732.760138
 20
1723.027117
 40
3.000000
 50
270.000000
 51
360.000000
  0
ARC
  8
1
 62
     3
  6
CONTINUOUS
 10
2729.260138
 20
1718.027117
 40
2.000000
 50
90.000000
 51
180.000000
  0
LINE
  8
1
 62
     3
  6
CONTINUOUS
 10
2729.260138
 20
1596.027117
 11
2732.760138
 21
1596.027117
  0
LINE
  8
1
 62
     3
  6
CONTINUOUS
 10
2729.260138
 20
1720.027117
 11
2732.760138
 21
1720.027117
  0
ARC
  8
1
 62
     3
  6
CONTINUOUS
 10
2729.260138
 20
1598.027117
 40
2.000000
 50
180.000000
 51
270.000000
  0
LINE
  8
0
 62
     3
  6
CONTINUOUS
 10
3714.877711
 20
1636.287451
 11
3972.654060
 21
1636.287451
  0
INSERT
  8
0
  2
G1
 10
0
 20
0
  0
TEXT
  8
0
 62
     6
 10
3631.418499
 20
2587.505821
 40
32.000000
 50
0.000000E+00
 41
0.97 
  1
枝管のタイプ（呼び径）
 72
     5
 11
4027.418499
 21
2587.505821
  0
TEXT
  8
0
 62
     6
 10
3729.294308
 20
2534.530401
 40
32.000000
 50
0.000000E+00
 41
0.74 
  1
：％％ｃ５０枝管
 72
     5
 11
3941.294308
 21
2534.530401
  0
TEXT
  8
0
 62
     6
 10
3729.294308
 20
2474.530401
 40
32.000000
 50
0.000000E+00
 41
0.74 
  1
：％％ｃ６５枝管
 72
     5
 11
3941.294308
 21
2474.530401
  0
TEXT
  8
0
 62
     6
 10
3729.294308
 20
2414.530401
 40
32.000000
 50
0.000000E+00
 41
0.74 
  1
：％％ｃ７５枝管
 72
     5
 11
3941.294308
 21
2414.530401
  0
TEXT
  8
0
 62
     6
 10
3698.206339
 20
2531.134541
 40
32.000000
 50
0.000000E+00
 41
0.50 
  1
1
 72
     5
 11
3714.206339
 21
2531.134541
  0
TEXT
  8
0
 62
     6
 10
3698.206339
 20
2471.134541
 40
32.000000
 50
0.000000E+00
 41
0.50 
  1
2
 72
     5
 11
3714.206339
 21
2471.134541
  0
TEXT
  8
0
 62
     6
 10
3698.206339
 20
2411.134541
 40
32.000000
 50
0.000000E+00
 41
0.50 
  1
3
 72
     5
 11
3714.206339
 21
2411.134541
  0
TEXT
  8
0
 62
     6
 10
2964.523107
 20
2580.810698
 40
32.000000
 50
0.000000E+00
 41
0.50 
  1
1
 72
     5
 11
2980.523107
 21
2580.810698
  0
CIRCLE
  8
0
 62
     6
  6
HIDDEN
 10
2972.523107
 20
2596.810698
 40
20.000000
  0
TEXT
  8
0
 62
     6
 10
2964.523107
 20
2532.777279
 40
32.000000
 50
0.000000E+00
 41
0.50 
  1
2
 72
     5
 11
2980.523107
 21
2532.777279
  0
CIRCLE
  8
0
 62
     6
  6
HIDDEN
 10
2972.523107
 20
2548.777279
 40
20.000000
  0
TEXT
  8
0
 62
     6
 10
2681.990420
 20
2599.959535
 40
32.000000
 50
0.000000E+00
 41
0.97 
  1
上部
 72
     5
 11
2753.990420
 21
2599.959535
  0
TEXT
  8
0
 62
     6
 10
2801.990420
 20
2599.959535
 40
32.000000
 50
0.000000E+00
 41
0.97 
  1
下部
 72
     5
 11
2873.990420
 21
2599.959535
  0
TEXT
  8
0
 62
     6
 10
2840.490420
 20
2534.910129
 40
35.000000
 50
0.000000E+00
 41
0.86 
  1
Ｄ
 72
     5
 11
2875.490420
 21
2534.910129
  0
TEXT
  8
0
 62
     6
 10
2719.816479
 20
2533.910129
 40
35.000000
 50
0.000000E+00
 41
0.86 
  1
Ｏ
 72
     5
 11
2754.816479
 21
2533.910129
  0
ARC
  8
0
 62
     4
  6
CONTINUOUS
 10
3624.000000
 20
2060.000000
 40
100.000000
 50
216.038338
 51
233.961662
  0
ARC
  8
3
 62
     4
  6
CONTINUOUS
 10
3624.000000
 20
2060.000000
 40
100.000000
 50
233.109614
 51
306.890386
  0
ARC
  8
3
 62
     4
  6
CONTINUOUS
 10
3624.000000
 20
2060.000000
 40
100.000000
 50
323.109614
 51
396.890386
  0
ARC
  8
3
 62
     4
  6
CONTINUOUS
 10
3624.000000
 20
2060.000000
 40
100.000000
 50
53.109614
 51
126.890386
  0
ARC
  8
3
 62
     4
  6
CENTER
 10
3624.000000
 20
2060.000000
 40
111.000000
 50
37.018997
 51
55.489571
  0
CIRCLE
  8
3
 62
     4
  6
CONTINUOUS
 10
3545.511147
 20
1981.511147
 40
7.000000
  0
CIRCLE
  8
3
 62
     4
  6
CONTINUOUS
 10
3702.488853
 20
1981.511147
 40
7.000000
  0
CIRCLE
  8
3
 62
     4
  6
CONTINUOUS
 10
3702.488853
 20
2138.488853
 40
7.000000
  0
ARC
  8
0
 62
     3
  6
CONTINUOUS
 10
2762.260138
 20
2108.790816
 40
2.000000
 50
180.000000
 51
270.000000
  0
LINE
  8
0
 62
     3
  6
CONTINUOUS
 10
2760.260138
 20
2108.790816
 11
2760.260138
 21
2136.790816
  0
ARC
  8
0
 62
     3
  6
CONTINUOUS
 10
2882.260138
 20
2108.790816
 40
2.000000
 50
270.000000
 51
360.000000
  0
LINE
  8
0
 62
     3
  6
CONTINUOUS
 10
2884.260138
 20
2108.790816
 11
2884.260138
 21
2136.790816
  0
LINE
  8
0
 62
     3
  6
CONTINUOUS
 10
2882.260138
 20
2106.790816
 11
2762.260138
 21
2106.790816
  0
CIRCLE
  8
3
 62
     4
  6
CONTINUOUS
 10
3545.511147
 20
2138.488853
 40
7.000000
  0
ARC
  8
0
 62
     3
  6
CONTINUOUS
 10
2729.260138
 20
2141.790816
 40
2.000000
 50
180.000000
 51
270.000000
  0
LINE
  8
0
 62
     3
  6
CONTINUOUS
 10
2729.260138
 20
2139.790816
 11
2757.260138
 21
2139.790816
  0
ARC
  8
0
 62
     3
  6
CONTINUOUS
 10
2729.260138
 20
2261.790816
 40
2.000000
 50
90.000000
 51
180.000000
  0
LINE
  8
0
 62
     3
  6
CONTINUOUS
 10
2729.260138
 20
2263.790816
 11
2761.942231
 21
2263.790816
  0
LINE
  8
0
 62
     3
  6
CONTINUOUS
 10
2727.260138
 20
2261.790816
 11
2727.260138
 21
2141.790816
  0
ARC
  8
0
 62
     3
  6
CONTINUOUS
 10
2887.260138
 20
2136.790816
 40
3.000000
 50
90.000000
 51
180.000000
  0
ARC
  8
0
 62
     3
  6
CONTINUOUS
 10
2757.260138
 20
2136.790816
 40
3.000000
 50
0.000000E+00
 51
90.000000
  0
CIRCLE
  8
0
 62
     3
  6
CONTINUOUS
 10
2822.260138
 20
2201.790816
 40
67.000000
  0
CIRCLE
  8
0
 62
     3
  6
CONTINUOUS
 10
2822.260138
 20
2201.790816
 40
52.000000
  0
ARC
  8
0
 62
     3
  6
CONTINUOUS
 10
2915.260138
 20
2261.790816
 40
2.000000
 50
0.000000E+00
 51
90.000000
  0
LINE
  8
0
 62
     3
  6
CONTINUOUS
 10
2915.260138
 20
2263.790816
 11
2882.578046
 21
2263.790816
  0
ARC
  8
0
 62
     3
  6
CONTINUOUS
 10
2915.260138
 20
2141.790816
 40
2.000000
 50
270.000000
 51
360.000000
  0
LINE
  8
3
 62
     3
  6
CENTER
 10
3624.000000
 20
1885.714592
 11
3624.000000
 21
2175.276543
  0
LINE
  8
3
 62
     3
  6
CENTER
 10
3455.959938
 20
2060.000000
 11
3799.931137
 21
2060.000000
  0
ARC
  8
3
 62
     4
  6
CONTINUOUS
 10
3702.488853
 20
2138.488853
 40
13.000000
 50
10.978618
 51
79.021382
  0
CIRCLE
  8
3
 62
     3
  6
CONTINUOUS
 10
3624.000000
 20
2060.000000
 40
81.000000
  0
ARC
  8
3
 62
     3
  6
CONTINUOUS
 10
3624.000000
 20
2060.000000
 40
105.000000
 50
79.021382
 51
100.978618
  0
LINE
  8
3
 62
     4
  6
CONTINUOUS
 10
3704.964607
 20
2151.250931
 11
3643.996478
 21
2163.078324
  0
LINE
  8
3
 62
     4
  6
CONTINUOUS
 10
3715.250931
 20
2140.964607
 11
3727.453628
 21
2078.061853
  0
LINE
  8
3
 62
     3
  6
CENTER
 10
3691.985865
 20
2127.985865
 11
3713.726559
 21
2149.726559
  0
ARC
  8
3
 62
     4
  6
CONTINUOUS
 10
3545.511147
 20
2138.488853
 40
13.000000
 50
100.978618
 51
169.021382
  0
ARC
  8
3
 62
     4
  6
CONTINUOUS
 10
3545.511147
 20
1981.511147
 40
13.000000
 50
190.978618
 51
259.021382
  0
ARC
  8
3
 62
     4
  6
CONTINUOUS
 10
3702.488853
 20
1981.511147
 40
13.000000
 50
280.978618
 51
349.021382
  0
LINE
  8
3
 62
     4
  6
CONTINUOUS
 10
3715.250931
 20
1979.035393
 11
3727.078324
 21
2040.003522
  0
LINE
  8
3
 62
     3
  6
CENTER
 10
3556.008772
 20
2127.991228
 11
3534.058072
 21
2149.941928
  0
LINE
  8
3
 62
     4
  6
CONTINUOUS
 10
3604.003522
 20
2163.078324
 11
3543.035393
 21
2151.250931
  0
LINE
  8
3
 62
     4
  6
CONTINUOUS
 10
3704.964607
 20
1968.749069
 11
3642.061853
 21
1956.546372
  0
ARC
  8
3
 62
     4
  6
CENTER
 10
3624.000000
 20
2060.000000
 40
111.000000
 50
124.449115
 51
144.970079
  0
ARC
  8
3
 62
     4
  6
CENTER
 10
3624.000000
 20
2060.000000
 40
111.000000
 50
216.069475
 51
234.182385
  0
LINE
  8
3
 62
     3
  6
CENTER
 10
3556.362469
 20
1992.362469
 11
3533.850513
 21
1969.850513
  0
ARC
  8
3
 62
     4
  6
CENTER
 10
3624.000000
 20
2060.000000
 40
111.000000
 50
306.265016
 51
322.275712
  0
LINE
  8
3
 62
     4
  6
CONTINUOUS
 10
3543.035393
 20
1968.749069
 11
3605.938147
 21
1956.546372
  0
LINE
  8
3
 62
     3
  6
CENTER
 10
3692.711757
 20
1991.288243
 11
3713.392933
 21
1970.607067
  0
LINE
  8
3
 62
     4
  6
CONTINUOUS
 10
3532.749069
 20
1979.035393
 11
3520.546372
 21
2041.938147
  0
ARC
  8
3
 62
     3
  6
CONTINUOUS
 10
3624.000000
 20
2060.000000
 40
105.000000
 50
260.096801
 51
279.903199
  0
ARC
  8
3
 62
     3
  6
CONTINUOUS
 10
3624.000000
 20
2060.000000
 40
105.000000
 50
349.021382
 51
369.903199
  0
LINE
  8
3
 62
     4
  6
CONTINUOUS
 10
3532.749069
 20
2140.964607
 11
3520.546372
 21
2078.061853
  0
ARC
  8
3
 62
     4
  6
CONTINUOUS
 10
3624.000000
 20
2060.000000
 40
100.000000
 50
143.109614
 51
216.890386
  0
LINE
  8
3
 62
     3
  6
CONTINUOUS
 10
2738.904332
 20
1598.387137
 11
2742.409320
 21
1599.978260
  0
LINE
  8
3
 62
     3
  6
CONTINUOUS
 10
2742.409320
 20
1599.978260
 11
2745.782688
 21
1602.806573
  0
LINE
  8
3
 62
     3
  6
CONTINUOUS
 10
2745.782688
 20
1602.806573
 11
2748.952542
 21
1606.811796
  0
LINE
  8
3
 62
     3
  6
CONTINUOUS
 10
2748.952542
 20
1606.811796
 11
2751.851321
 21
1611.908567
  0
LINE
  8
3
 62
     3
  6
CONTINUOUS
 10
2751.851321
 20
1611.908567
 11
2754.417245
 21
1617.988258
  0
LINE
  8
3
 62
     3
  6
CONTINUOUS
 10
2754.417245
 20
1617.988258
 11
2756.595627
 21
1624.921294
  0
LINE
  8
3
 62
     3
  6
CONTINUOUS
 10
2756.595627
 20
1624.921294
 11
2758.340038
 21
1632.559912
  0
LINE
  8
3
 62
     3
  6
CONTINUOUS
 10
2758.340038
 20
1632.559912
 11
2759.613301
 21
1640.741310
  0
LINE
  8
3
 62
     3
  6
CONTINUOUS
 10
2759.613301
 20
1640.741310
 11
2760.388277
 21
1649.291118
  0
LINE
  8
3
 62
     3
  6
CONTINUOUS
 10
2760.388277
 20
1649.291118
 11
2760.648451
 21
1658.027117
  0
LINE
  8
3
 62
     3
  6
CONTINUOUS
 10
2760.388277
 20
1649.291118
 11
2760.648451
 21
1658.027117
  0
CIRCLE
  8
3
 62
     4
  6
CONTINUOUS
 10
3624.000000
 20
2060.000000
 40
88.000000
  0
ARC
  8
0
 62
     4
  6
CONTINUOUS
 10
3624.000000
 20
2060.000000
 40
100.000000
 50
306.038338
 51
323.961662
  0
ARC
  8
0
 62
     4
  6
CONTINUOUS
 10
3624.000000
 20
2060.000000
 40
100.000000
 50
36.038338
 51
53.961662
  0
ARC
  8
3
 62
     3
  6
CONTINUOUS
 10
3624.000000
 20
2060.000000
 40
105.000000
 50
170.096801
 51
190.978618
  0
ARC
  8
0
 62
     4
  6
CONTINUOUS
 10
3624.000000
 20
2060.000000
 40
100.000000
 50
126.038338
 51
143.961662
  0
LINE
  8
3
 62
     4
  6
CONTINUOUS
 10
2883.654082
 20
1346.320978
 11
2884.453563
 21
1339.095397
  0
LINE
  8
3
 62
     4
  6
CONTINUOUS
 10
2884.453563
 20
1339.095397
 11
2885.622475
 21
1332.163599
  0
LINE
  8
3
 62
     4
  6
CONTINUOUS
 10
2885.622475
 20
1332.163599
 11
2887.142677
 21
1325.633151
  0
LINE
  8
3
 62
     4
  6
CONTINUOUS
 10
2887.142677
 20
1325.633151
 11
2888.990581
 21
1319.605393
  0
LINE
  8
3
 62
     4
  6
CONTINUOUS
 10
2888.990581
 20
1319.605393
 11
2891.137509
 21
1314.173863
  0
LINE
  8
3
 62
     4
  6
CONTINUOUS
 10
2891.137509
 20
1314.173863
 11
2893.550147
 21
1309.422847
  0
LINE
  8
3
 62
     4
  6
CONTINUOUS
 10
2893.550147
 20
1309.422847
 11
2896.191054
 21
1305.426073
  0
LINE
  8
3
 62
     4
  6
CONTINUOUS
 10
2896.191054
 20
1305.426073
 11
2899.019249
 21
1302.245561
  0
LINE
  8
3
 62
     4
  6
CONTINUOUS
 10
2899.019249
 20
1302.245561
 11
2901.990844
 21
1299.930668
  0
LINE
  8
3
 62
     4
  6
CONTINUOUS
 10
2901.990844
 20
1299.930668
 11
2905.059727
 21
1298.517316
  0
LINE
  8
3
 62
     4
  6
CONTINUOUS
 10
2901.990844
 20
1299.930668
 11
2905.059727
 21
1298.517316
  0
LINE
  8
0
 62
     3
  6
CONTINUOUS
 10
2915.260138
 20
2139.790816
 11
2887.260138
 21
2139.790816
  0
LINE
  8
0
 62
     3
  6
CONTINUOUS
 10
2917.260138
 20
2141.790816
 11
2917.260138
 21
2261.790816
  0
CIRCLE
  8
0
 62
     3
  6
CONTINUOUS
 10
2822.260138
 20
2201.790816
 40
86.500000
  0
CIRCLE
  8
0
 62
     3
  6
CONTINUOUS
 10
2822.260138
 20
2201.790816
 40
75.000000
  0
LINE
  8
3
 62
     3
  6
CENTER
 10
2716.066815
 20
2201.790816
 11
2936.232349
 21
2201.790816
  0
LINE
  8
3
 62
     3
  6
CENTER
 10
2822.260138
 20
2103.349657
 11
2822.260138
 21
2303.889268
  0
INSERT
  8
0
  2
G2
 10
0
 20
0
  0
LINE
  8
0
 62
     1
  6
CONTINUOUS
 10
3519.000000
 20
1847.257250
 11
3519.000000
 21
1776.624747
  0
TEXT
  8
0
 62
     6
 10
2957.392254
 20
2624.451072
 40
32.000000
 50
0.000000E+00
 41
0.86 
  1
ｂ
 72
     5
 11
2989.392254
 21
2624.451072
  0
TEXT
  8
0
 62
     6
 10
3005.066195
 20
2624.451072
 40
32.000000
 50
0.000000E+00
 41
0.86 
  1
ｃ
 72
     5
 11
3037.066195
 21
2624.451072
  0
INSERT
  8
0
  2
G3
 10
0
 20
0
  0
INSERT
  8
0
  2
G4
 10
0
 20
0
  0
LINE
  8
0
 62
     2
  6
CONTINUOUS
 10
2927.260138
 20
1456.528715
 11
2822.260138
 21
1456.528715
  0
LINE
  8
0
 62
     2
  6
CONTINUOUS
 10
2927.260138
 20
1464.528715
 11
2822.260138
 21
1464.528715
  0
ARC
  8
0
 62
     2
  6
CONTINUOUS
 10
2921.260138
 20
1455.528715
 40
1.000000
 50
90.000000
 51
180.000000
  0
LINE
  8
0
 62
     2
  6
CONTINUOUS
 10
2920.260138
 20
1453.528715
 11
2920.260138
 21
1455.528715
  0
LINE
  8
0
 62
     2
  6
CONTINUOUS
 10
2927.260138
 20
1456.528715
 11
2927.260138
 21
1464.528715
  0
LINE
  8
0
 62
     1
  6
CONTINUOUS
 10
3529.000000
 20
2125.638816
 11
3529.000000
 21
2216.624747
  0
INSERT
  8
0
  2
G5
 10
0
 20
0
  0
INSERT
  8
0
  2
G6
 10
0
 20
0
  0
TEXT
  8
0
 62
     6
 10
2536.833607
 20
2533.812443
 40
35.000000
 50
0.000000E+00
 41
0.73 
  1
４ＳＦ－　　　－　　　　　　　　　　　０－Ｐ
 72
     5
 11
3173.833607
 21
2533.812443
  0
POINT
  8
0
 62
     3
 10
2822.260138
 20
1848.027117
  0
LINE
  8
3
 62
     3
  6
CONTINUOUS
 10
2747.260138
 20
1918.027117
 11
2822.260138
 21
1918.027117
  0
LINE
  8
3
 62
     3
  6
CONTINUOUS
 10
2761.290154
 20
1837.543100
 11
2822.260138
 21
1837.543100
  0
LINE
  8
3
 62
     3
  6
CONTINUOUS
 10
2744.521116
 20
1740.903002
 11
2822.260138
 21
1740.903002
  0
LINE
  8
3
 62
     3
  6
CENTER
 10
2822.260138
 20
1930.501565
 11
2822.260138
 21
1477.709326
  0
LINE
  8
0
 62
     2
  6
CONTINUOUS
 10
2717.260138
 20
1464.528715
 11
2822.260138
 21
1464.528715
  0
LINE
  8
0
 62
     3
  6
CONTINUOUS
 10
2908.260138
 20
1733.786486
 11
2908.260138
 21
1723.027117
  0
ARC
  8
0
 62
     3
  6
CONTINUOUS
 10
2873.260138
 20
1733.786486
 40
35.000000
 50
0.000000E+00
 51
17.716492
  0
ARC
  8
1
 62
     3
  6
CONTINUOUS
 10
2911.260138
 20
1593.027117
 40
3.000000
 50
90.000000
 51
180.000000
  0
ARC
  8
1
 62
     3
  6
CONTINUOUS
 10
2911.260138
 20
1723.027117
 40
3.000000
 50
180.000000
 51
270.000000
  0
ARC
  8
1
 62
     3
  6
CONTINUOUS
 10
2915.260138
 20
1718.027117
 40
2.000000
 50
0.000000E+00
 51
90.000000
  0
LINE
  8
1
 62
     3
  6
CONTINUOUS
 10
2915.260138
 20
1596.027117
 11
2911.260138
 21
1596.027117
  0
LINE
  8
1
 62
     3
  6
CONTINUOUS
 10
2915.260138
 20
1720.027117
 11
2911.260138
 21
1720.027117
  0
ARC
  8
1
 62
     3
  6
CONTINUOUS
 10
2915.260138
 20
1598.027117
 40
2.000000
 50
270.000000
 51
360.000000
  0
LINE
  8
0
 62
     2
  6
CONTINUOUS
 10
2724.260138
 20
1471.528715
 11
2920.260138
 21
1471.528715
  0
ARC
  8
0
 62
     2
  6
CONTINUOUS
 10
2723.260138
 20
1455.528715
 40
1.000000
 50
360.000000
 51
450.000000
  0
POINT
  8
0
 62
     3
 10
2822.260138
 20
1408.027117
  0
POINT
  8
0
 62
     3
 10
2822.260138
 20
1430.527117
  0
POINT
  8
0
 62
     3
 10
2822.260138
 20
1445.027117
  0
LINE
  8
1
 62
     4
  6
CONTINUOUS
 10
2727.260138
 20
1418.027117
 11
2727.260138
 21
1298.027117
  0
ARC
  8
1
 62
     4
  6
CONTINUOUS
 10
2716.458821
 20
1392.787309
 40
30.639745
 50
33.671563
 51
62.448001
  0
LINE
  8
1
 62
     4
  6
CONTINUOUS
 10
2733.260138
 20
1296.027117
 11
2729.260138
 21
1296.027117
  0
ARC
  8
1
 62
     4
  6
CONTINUOUS
 10
2733.260138
 20
1293.027117
 40
3.000000
 50
0.000000E+00
 51
90.000000
  0
ARC
  8
1
 62
     4
  6
CONTINUOUS
 10
2729.260138
 20
1418.027117
 40
2.000000
 50
90.000000
 51
180.000000
  0
ARC
  8
1
 62
     4
  6
CONTINUOUS
 10
2729.260138
 20
1298.027117
 40
2.000000
 50
180.000000
 51
270.000000
  0
ARC
  8
3
 62
     4
  6
CONTINUOUS
 10
2882.388321
 20
1429.975616
 40
28.500781
 50
295.487111
 51
314.942399
  0
POINT
  8
3
 62
     7
 10
2736.260138
 20
1418.027117
  0
ARC
  8
3
 62
     4
  6
CONTINUOUS
 10
2762.131956
 20
1429.975616
 40
28.500781
 50
225.057601
 51
244.512889
  0
LINE
  8
3
 62
     3
  6
CONTINUOUS
 10
2883.871826
 20
1658.027117
 11
2884.192894
 21
1648.328564
  0
LINE
  8
3
 62
     3
  6
CONTINUOUS
 10
2884.192894
 20
1648.328564
 11
2885.147654
 21
1638.885095
  0
LINE
  8
3
 62
     3
  6
CONTINUOUS
 10
2885.147654
 20
1638.885095
 11
2886.710995
 21
1629.945085
  0
LINE
  8
3
 62
     3
  6
CONTINUOUS
 10
2886.710995
 20
1629.945085
 11
2888.841799
 21
1621.743668
  0
LINE
  8
3
 62
     3
  6
CONTINUOUS
 10
2888.841799
 20
1621.743668
 11
2891.484023
 21
1614.496551
  0
LINE
  8
3
 62
     3
  6
CONTINUOUS
 10
2891.484023
 20
1614.496551
 11
2894.568173
 21
1608.394342
  0
LINE
  8
3
 62
     3
  6
CONTINUOUS
 10
2894.568173
 20
1608.394342
 11
2898.013132
 21
1603.597538
  0
LINE
  8
3
 62
     3
  6
CONTINUOUS
 10
2898.013132
 20
1603.597538
 11
2901.728294
 21
1600.232300
  0
LINE
  8
3
 62
     3
  6
CONTINUOUS
 10
2901.728294
 20
1600.232300
 11
2905.615944
 21
1598.387137
  0
LINE
  8
3
 62
     3
  6
CONTINUOUS
 10
2901.728294
 20
1600.232300
 11
2905.615944
 21
1598.387137
  0
LINE
  8
3
 62
     3
  6
CONTINUOUS
 10
2906.073835
 20
1717.780203
 11
2902.512541
 21
1716.325073
  0
LINE
  8
3
 62
     3
  6
CONTINUOUS
 10
2902.512541
 20
1716.325073
 11
2899.077498
 21
1713.595239
  0
LINE
  8
3
 62
     3
  6
CONTINUOUS
 10
2899.077498
 20
1713.595239
 11
2895.843812
 21
1709.650390
  0
LINE
  8
3
 62
     3
  6
CONTINUOUS
 10
2895.843812
 20
1709.650390
 11
2892.882189
 21
1704.576782
  0
LINE
  8
3
 62
     3
  6
CONTINUOUS
 10
2892.882189
 20
1704.576782
 11
2890.257387
 21
1698.485350
  0
LINE
  8
3
 62
     3
  6
CONTINUOUS
 10
2890.257387
 20
1698.485350
 11
2888.026797
 21
1691.509286
  0
LINE
  8
3
 62
     3
  6
CONTINUOUS
 10
2888.026797
 20
1691.509286
 11
2886.239192
 21
1683.801123
  0
LINE
  8
3
 62
     3
  6
CONTINUOUS
 10
2886.239192
 20
1683.801123
 11
2884.933659
 21
1675.529404
  0
LINE
  8
3
 62
     3
  6
CONTINUOUS
 10
2884.933659
 20
1675.529404
 11
2884.138743
 21
1666.874991
  0
LINE
  8
3
 62
     3
  6
CONTINUOUS
 10
2884.138743
 20
1666.874991
 11
2883.871826
 21
1658.027117
  0
LINE
  8
3
 62
     3
  6
CONTINUOUS
 10
2884.138743
 20
1666.874991
 11
2883.871826
 21
1658.027117
  0
TEXT
  8
0
 62
     6
 10
2906.392254
 20
2624.451072
 40
32.000000
 50
0.000000E+00
 41
0.86 
  1
ａ
 72
     5
 11
2938.392254
 21
2624.451072
  0
LINE
  8
3
 62
     3
  6
CONTINUOUS
 10
2760.648451
 20
1658.027117
 11
2760.381534
 21
1666.874991
  0
LINE
  8
3
 62
     3
  6
CONTINUOUS
 10
2760.381534
 20
1666.874991
 11
2759.586618
 21
1675.529404
  0
LINE
  8
3
 62
     3
  6
CONTINUOUS
 10
2759.586618
 20
1675.529404
 11
2758.281084
 21
1683.801123
  0
LINE
  8
3
 62
     3
  6
CONTINUOUS
 10
2758.281084
 20
1683.801123
 11
2756.493480
 21
1691.509286
  0
LINE
  8
3
 62
     3
  6
CONTINUOUS
 10
2756.493480
 20
1691.509286
 11
2754.262890
 21
1698.485350
  0
LINE
  8
3
 62
     3
  6
CONTINUOUS
 10
2754.262890
 20
1698.485350
 11
2751.638087
 21
1704.576782
  0
LINE
  8
3
 62
     3
  6
CONTINUOUS
 10
2751.638087
 20
1704.576782
 11
2748.676465
 21
1709.650390
  0
LINE
  8
3
 62
     3
  6
CONTINUOUS
 10
2748.676465
 20
1709.650390
 11
2745.442779
 21
1713.595239
  0
LINE
  8
3
 62
     3
  6
CONTINUOUS
 10
2745.442779
 20
1713.595239
 11
2742.007735
 21
1716.325073
  0
LINE
  8
3
 62
     3
  6
CONTINUOUS
 10
2742.007735
 20
1716.325073
 11
2738.446442
 21
1717.780203
  0
LINE
  8
3
 62
     3
  6
CONTINUOUS
 10
2742.007735
 20
1716.325073
 11
2738.446442
 21
1717.780203
  0
LINE
  8
0
 62
     3
  6
CONTINUOUS
 10
2727.260138
 20
1718.027117
 11
2727.260138
 21
1598.027117
  0
INSERT
  8
0
  2
G7
 10
0
 20
0
  0
ARC
  8
2
 62
     3
  6
CONTINUOUS
 10
2897.302064
 20
1824.400741
 40
15.000000
 50
120.111013
 51
197.716492
  0
LINE
  8
0
 62
     3
  6
CONTINUOUS
 10
2736.260138
 20
1593.027117
 11
2736.260138
 21
1471.528715
  0
LINE
  8
0
 62
     2
  6
CONTINUOUS
 10
2724.260138
 20
1471.528715
 11
2717.260138
 21
1464.528715
  0
LINE
  8
3
 62
     4
  6
CENTER
 10
2822.260138
 20
924.939597
 11
2822.260138
 21
1165.631738
  0
LINE
  8
3
 62
     4
  6
CENTER
 10
2822.260138
 20
1165.631738
 11
2822.260138
 21
1477.709326
  0
ARC
  8
2
 62
     3
  6
CONTINUOUS
 10
2747.218213
 20
1824.400741
 40
15.000000
 50
342.283508
 51
419.888987
  0
LINE
  8
0
 62
     3
  6
CONTINUOUS
 10
2883.013455
 20
1819.836132
 11
2906.600226
 21
1744.437240
  0
LINE
  8
0
 62
     3
  6
CONTINUOUS
 10
2761.506822
 20
1819.836132
 11
2737.920051
 21
1744.437240
  0
LINE
  8
0
 62
     3
  6
CONTINUOUS
 10
2917.260138
 20
1718.027117
 11
2917.260138
 21
1598.027117
  0
LINE
  8
3
 62
     3
  6
CONTINUOUS
 10
2883.230122
 20
1837.543100
 11
2822.260138
 21
1837.543100
  0
ARC
  8
0
 62
     3
  6
CONTINUOUS
 10
2771.260138
 20
1733.786486
 40
35.000000
 50
162.283508
 51
180.000000
  0
LINE
  8
0
 62
     3
  6
CONTINUOUS
 10
2736.260138
 20
1733.786486
 11
2736.260138
 21
1723.027117
  0
LINE
  8
3
 62
     4
  6
CONTINUOUS
 10
2717.260138
 20
1453.027117
 11
2717.260138
 21
1438.027117
  0
LINE
  8
3
 62
     4
  6
CONTINUOUS
 10
2718.260138
 20
1438.027117
 11
2717.260138
 21
1438.027117
  0
ARC
  8
3
 62
     4
  6
CONTINUOUS
 10
2718.260138
 20
1436.027117
 40
2.000000
 50
0.000000E+00
 51
90.000000
  0
LINE
  8
3
 62
     4
  6
CONTINUOUS
 10
2720.260138
 20
1436.027117
 11
2720.260138
 21
1434.527117
  0
ARC
  8
3
 62
     4
  6
CONTINUOUS
 10
2721.760138
 20
1434.527117
 40
1.500000
 50
180.000000
 51
270.000000
  0
LINE
  8
3
 62
     4
  6
CONTINUOUS
 10
2725.700990
 20
1433.027117
 11
2729.260138
 21
1428.726479
  0
LINE
  8
3
 62
     4
  6
CONTINUOUS
 10
2729.260138
 20
1428.726479
 11
2729.260138
 21
1420.027117
  0
LINE
  8
3
 62
     4
  6
CONTINUOUS
 10
2915.260138
 20
1428.726479
 11
2915.260138
 21
1420.027117
  0
LINE
  8
3
 62
     4
  6
CONTINUOUS
 10
2918.819287
 20
1433.027117
 11
2915.260138
 21
1428.726479
  0
LINE
  8
3
 62
     4
  6
CONTINUOUS
 10
2922.760138
 20
1433.027117
 11
2721.760138
 21
1433.027117
  0
ARC
  8
3
 62
     4
  6
CONTINUOUS
 10
2922.760138
 20
1434.527117
 40
1.500000
 50
270.000000
 51
360.000000
  0
LINE
  8
3
 62
     4
  6
CONTINUOUS
 10
2889.413514
 20
1403.027117
 11
2865.633517
 21
1403.027117
  0
LINE
  8
3
 62
     4
  6
CONTINUOUS
 10
2924.260138
 20
1436.027117
 11
2924.260138
 21
1434.527117
  0
ARC
  8
3
 62
     4
  6
CONTINUOUS
 10
2926.260138
 20
1436.027117
 40
2.000000
 50
90.000000
 51
180.000000
  0
LINE
  8
3
 62
     3
  6
CENTER
 10
2900.748991
 20
1429.083548
 11
2900.748991
 21
1459.574319
  0
LINE
  8
3
 62
     3
  6
CENTER
 10
2743.771286
 20
1429.083548
 11
2743.771286
 21
1459.574319
  0
LINE
  8
3
 62
     4
  6
CONTINUOUS
 10
2926.260138
 20
1438.027117
 11
2927.260138
 21
1438.027117
  0
LINE
  8
3
 62
     4
  6
CONTINUOUS
 10
2927.260138
 20
1453.027117
 11
2927.260138
 21
1438.027117
  0
ARC
  8
3
 62
     4
  6
CONTINUOUS
 10
2875.260138
 20
940.027117
 40
2.000000
 50
270.000000
 51
360.000000
  0
ARC
  8
3
 62
     4
  6
CONTINUOUS
 10
2769.260138
 20
940.027117
 40
2.000000
 50
180.000000
 51
270.000000
  0
LINE
  8
3
 62
     4
  6
CONTINUOUS
 10
2927.260138
 20
1453.027117
 11
2717.260138
 21
1453.027117
  0
LINE
  8
3
 62
     4
  6
CONTINUOUS
 10
2718.260138
 20
1438.027117
 11
2926.260138
 21
1438.027117
  0
LINE
  8
3
 62
     4
  6
CONTINUOUS
 10
2908.260138
 20
1211.899028
 11
2908.260138
 21
1293.027117
  0
LINE
  8
3
 62
     4
  6
CONTINUOUS
 10
2915.260138
 20
1428.726479
 11
2729.260138
 21
1428.726479
  0
LINE
  8
3
 62
     4
  6
CONTINUOUS
 10
2736.260138
 20
1208.027117
 11
2736.260138
 21
1293.027117
  0
LINE
  8
3
 62
     4
  6
CONTINUOUS
 10
2741.511049
 20
1208.027117
 11
2903.009227
 21
1208.027117
  0
LINE
  8
3
 62
     4
  6
CONTINUOUS
 10
2772.009227
 20
1088.027117
 11
2872.511049
 21
1088.027117
  0
LINE
  8
3
 62
     4
  6
CONTINUOUS
 10
2875.260138
 20
938.027117
 11
2769.260138
 21
938.027117
  0
LINE
  8
3
 62
     4
  6
CONTINUOUS
 10
2877.260138
 20
1084.155205
 11
2877.260138
 21
940.027117
  0
ARC
  8
3
 62
     4
  6
CONTINUOUS
 10
2873.260138
 20
1211.899028
 40
35.000000
 50
345.291696
 51
360.000000
  0
LINE
  8
3
 62
     4
  6
CONTINUOUS
 10
2907.113222
 20
1203.012593
 11
2878.079364
 21
1090.502658
  0
ARC
  8
3
 62
     4
  6
CONTINUOUS
 10
2902.260138
 20
1084.155205
 40
25.000000
 50
165.291696
 51
180.000000
  0
LINE
  8
3
 62
     4
  6
CONTINUOUS
 10
2767.260138
 20
1084.155205
 11
2767.260138
 21
940.027117
  0
ARC
  8
3
 62
     4
  6
CONTINUOUS
 10
2771.260138
 20
1211.899028
 40
35.000000
 50
180.000000
 51
194.708304
  0
LINE
  8
3
 62
     4
  6
CONTINUOUS
 10
2737.407055
 20
1203.012593
 11
2766.440912
 21
1090.502658
  0
ARC
  8
3
 62
     4
  6
CONTINUOUS
 10
2742.260138
 20
1084.155205
 40
25.000000
 50
0.000000E+00
 51
14.708304
  0
LINE
  8
1
 62
     4
  6
CONTINUOUS
 10
2917.260138
 20
1418.027117
 11
2917.260138
 21
1298.027117
  0
ARC
  8
1
 62
     4
  6
CONTINUOUS
 10
2915.260138
 20
1418.027117
 40
2.000000
 50
0.000000E+00
 51
90.000000
  0
ARC
  8
1
 62
     4
  6
CONTINUOUS
 10
2915.260138
 20
1298.027117
 40
2.000000
 50
270.000000
 51
360.000000
  0
LINE
  8
3
 62
     3
  6
CONTINUOUS
 10
2899.999161
 20
1740.903002
 11
2822.260138
 21
1740.903002
  0
ARC
  8
3
 62
     3
  6
CONTINUOUS
 10
2899.260138
 20
1913.444541
 40
5.000000
 50
113.578178
 51
180.000000
  0
ARC
  8
0
 62
     3
  6
CONTINUOUS
 10
2873.260138
 20
1733.786486
 40
35.000000
 50
0.000000E+00
 51
17.716492
  0
LINE
  8
3
 62
     3
  6
CONTINUOUS
 10
2897.260138
 20
1923.027117
 11
2897.260138
 21
1918.027117
  0
ARC
  8
3
 62
     3
  6
CONTINUOUS
 10
2745.260138
 20
1913.444541
 40
5.000000
 50
360.000000
 51
426.421822
  0
LINE
  8
0
 62
     2
  6
CONTINUOUS
 10
2920.260138
 20
1471.528715
 11
2927.260138
 21
1464.528715
  0
LINE
  8
3
 62
     3
  6
CENTER
 10
2720.334190
 20
1658.027117
 11
2928.828626
 21
1658.027117
  0
ARC
  8
3
 62
     3
  6
CONTINUOUS
 10
2760.260138
 20
1846.027117
 40
10.000000
 50
180.000000
 51
238.038250
  0
LINE
  8
3
 62
     3
  6
CONTINUOUS
 10
2894.260138
 20
1913.444541
 11
2894.260138
 21
1846.027117
  0
LINE
  8
3
 62
     3
  6
CONTINUOUS
 10
2750.260138
 20
1913.444541
 11
2750.260138
 21
1846.027117
  0
ARC
  8
3
 62
     3
  6
CONTINUOUS
 10
2884.260138
 20
1846.027117
 40
10.000000
 50
302.527138
 51
360.000000
  0
INSERT
  8
0
  2
G8
 10
0
 20
0
  0
INSERT
  8
0
  2
G9
 10
0
 20
0
  0
INSERT
  8
0
  2
G10
 10
0
 20
0
  0
INSERT
  8
0
  2
G11
 10
0
 20
0
  0
INSERT
  8
0
  2
G12
 10
0
 20
0
  0
INSERT
  8
0
  2
G13
 10
0
 20
0
  0
LINE
  8
0
 62
     1
  6
CONTINUOUS
 10
3129.337052
 20
1658.027117
 11
3073.740360
 21
1658.027117
  0
LINE
  8
0
 62
     1
  6
CONTINUOUS
 10
2931.851733
 20
1658.027117
 11
3119.337052
 21
1658.027117
  0
INSERT
  8
0
  2
G14
 10
0
 20
0
  0
LINE
  8
0
 62
     3
  6
CONTINUOUS
 10
2908.260138
 20
1593.027117
 11
2908.260138
 21
1471.528715
  0
LINE
  8
3
 62
     3
  6
CONTINUOUS
 10
2747.260138
 20
1923.027117
 11
2747.260138
 21
1918.027117
  0
LINE
  8
3
 62
     3
  6
CONTINUOUS
 10
2747.260138
 20
1923.027117
 11
2897.260138
 21
1923.027117
  0
LINE
  8
3
 62
     3
  6
CONTINUOUS
 10
2897.260138
 20
1918.027117
 11
2822.260138
 21
1918.027117
  0
LINE
  8
0
 62
     3
  6
CONTINUOUS
 10
2908.260138
 20
1723.027117
 11
2908.260138
 21
1733.786486
  0
LINE
  8
0
 62
     2
  6
CONTINUOUS
 10
2717.260138
 20
1456.528715
 11
2717.260138
 21
1464.528715
  0
LINE
  8
0
 62
     2
  6
CONTINUOUS
 10
2724.260138
 20
1453.528715
 11
2920.260138
 21
1453.528715
  0
LINE
  8
0
 62
     2
  6
CONTINUOUS
 10
2717.260138
 20
1456.528715
 11
2822.260138
 21
1456.528715
  0
LINE
  8
0
 62
     2
  6
CONTINUOUS
 10
2724.260138
 20
1453.528715
 11
2724.260138
 21
1455.528715
  0
LINE
  8
3
 62
     4
  6
CONTINUOUS
 10
2755.106763
 20
1403.027117
 11
2778.886759
 21
1403.027117
  0
ARC
  8
3
 62
     4
  6
CONTINUOUS
 10
2915.260138
 20
1418.027117
 40
2.000000
 50
0.000000E+00
 51
90.000000
  0
LINE
  8
3
 62
     4
  6
CONTINUOUS
 10
2917.260138
 20
1298.027117
 11
2917.260138
 21
1418.027117
  0
ARC
  8
3
 62
     4
  6
CONTINUOUS
 10
2915.260138
 20
1298.027117
 40
2.000000
 50
270.000000
 51
360.000000
  0
LINE
  8
3
 62
     4
  6
CONTINUOUS
 10
2915.260138
 20
1296.027117
 11
2911.260138
 21
1296.027117
  0
ARC
  8
3
 62
     4
  6
CONTINUOUS
 10
2911.260138
 20
1293.027117
 40
3.000000
 50
90.000000
 51
180.000000
  0
POINT
  8
3
 62
     4
 10
2908.260138
 20
1296.027117
  0
POINT
  8
3
 62
     7
 10
2908.260138
 20
1418.027117
  0
ARC
  8
1
 62
     4
  6
CONTINUOUS
 10
2928.061456
 20
1392.787309
 40
30.639745
 50
117.551999
 51
146.346996
  0
TEXT
  8
0
 62
     6
 10
3187.448131
 20
2511.370812
 40
35.000000
 50
0.000000E+00
 41
0.60 
  1
300,340,360
 72
     5
 11
3419.948131
 21
2511.370812
  0
TEXT
  8
0
 62
     6
 10
3185.587629
 20
2553.485825
 40
35.000000
 50
0.000000E+00
 41
0.60 
  1
240,260,280
 72
     5
 11
3418.087629
 21
2553.485825
  0
INSERT
  8
0
  2
G15
 10
0
 20
0
  0
LINE
  8
0
 62
     1
  6
CONTINUOUS
 10
3614.000000
 20
1955.000000
 11
3431.557007
 21
1955.000000
  0
LINE
  8
0
 62
     1
  6
CONTINUOUS
 10
3729.000000
 20
1776.624747
 11
3729.000000
 21
1871.182154
  0
LINE
  8
0
 62
     1
  6
CONTINUOUS
 10
3729.000000
 20
2050.000000
 11
3729.000000
 21
1871.182154
  0
INSERT
  8
0
  2
G16
 10
0
 20
0
  0
LINE
  8
0
 62
     1
  6
CONTINUOUS
 10
3903.324692
 20
2060.000000
 11
3832.321883
 21
2060.000000
  0
TEXT
  8
0
 62
     3
 10
3735.116797
 20
2081.647865
 40
32.000000
 50
0.000000E+00
 41
0.86 
  1
ａ
 72
     5
 11
3767.116797
 21
2081.647865
  0
LINE
  8
0
 62
     1
  6
CONTINUOUS
 10
3719.000000
 20
2125.638816
 11
3719.000000
 21
2216.624747
  0
INSERT
  8
0
  2
G17
 10
0
 20
0
  0
TEXT
  8
0
 62
     3
 10
3236.897447
 20
2258.102851
 40
32.000000
 50
0.000000E+00
 41
1.02 
  1
受口深さ
 72
     5
 11
3388.897447
 21
2258.102851
  0
CIRCLE
  8
0
 62
     6
  6
HIDDEN
 10
3020.197047
 20
2548.777279
 40
20.000000
  0
TEXT
  8
0
 62
     6
 10
3012.197047
 20
2532.777279
 40
32.000000
 50
0.000000E+00
 41
0.50 
  1
2
 72
     5
 11
3028.197047
 21
2532.777279
  0
CIRCLE
  8
0
 62
     6
  6
HIDDEN
 10
3020.197047
 20
2596.810698
 40
20.000000
  0
TEXT
  8
0
 62
     6
 10
3012.197047
 20
2580.810698
 40
32.000000
 50
0.000000E+00
 41
0.50 
  1
1
 72
     5
 11
3028.197047
 21
2580.810698
  0
CIRCLE
  8
0
 62
     6
  6
HIDDEN
 10
2972.523107
 20
2548.777279
 40
20.000000
  0
TEXT
  8
0
 62
     6
 10
2964.523107
 20
2532.777279
 40
32.000000
 50
0.000000E+00
 41
0.50 
  1
2
 72
     5
 11
2980.523107
 21
2532.777279
  0
CIRCLE
  8
0
 62
     6
  6
HIDDEN
 10
2972.523107
 20
2596.810698
 40
20.000000
  0
TEXT
  8
0
 62
     6
 10
2964.523107
 20
2580.810698
 40
32.000000
 50
0.000000E+00
 41
0.50 
  1
1
 72
     5
 11
2980.523107
 21
2580.810698
  0
INSERT
  8
0
  2
G18
 10
0
 20
0
  0
TEXT
  8
0
 62
     3
 10
3852.466785
 20
2219.542851
 40
32.000000
 50
0.000000E+00
 41
1.02 
  1
受口深さ
 72
     5
 11
4004.466785
 21
2219.542851
  0
LINE
  8
0
 62
     3
  6
CONTINUOUS
 10
3783.804623
 20
2236.556364
 11
3850.561379
 21
2236.556364
  0
SOLID
  8
0
 62
     3
 10
3812.782397
 20
2244.320936
 11
3812.782397
 21
2228.791793
 12
3783.804623
 22
2236.556364
 13
3783.804623
 23
2236.556364
  0
TEXT
  8
0
 62
     3
 10
3797.424447
 20
1791.534296
 40
32.000000
 50
0.000000E+00
 41
1.02 
  1
受口深さ
 72
     5
 11
3949.424447
 21
1791.534296
  0
LINE
  8
0
 62
     3
  6
CONTINUOUS
 10
3814.437960
 20
1902.196458
 11
3814.437960
 21
1837.010130
  0
SOLID
  8
0
 62
     3
 10
3822.202531
 20
1873.218683
 11
3806.673389
 21
1873.218683
 12
3814.437960
 22
1902.196458
 13
3814.437960
 23
1902.196458
  0
LINE
  8
0
 62
     3
  6
CONTINUOUS
 10
3161.418919
 20
1968.197829
 11
3161.418919
 21
1916.711276
  0
SOLID
  8
0
 62
     3
 10
3153.654348
 20
1945.689050
 11
3169.183490
 21
1945.689050
 12
3161.418919
 22
1916.711276
 13
3161.418919
 23
1916.711276
  0
INSERT
  8
0
  2
G19
 10
0
 20
0
  0
INSERT
  8
0
  2
G20
 10
0
 20
0
  0
CIRCLE
  8
0
 62
     1
  6
CONTINUOUS
 10
2822.260138
 20
1658.027117
 40
62.000000
  0
INSERT
  8
0
  2
G21
 10
0
 20
0
  0
INSERT
  8
0
  2
G22
 10
0
 20
0
  0
INSERT
  8
0
  2
G23
 10
0
 20
0
  0
INSERT
  8
0
  2
G24
 10
0
 20
0
  0
INSERT
  8
0
  2
G25
 10
0
 20
0
  0
TEXT
  8
0
 62
     3
 10
3311.553615
 20
579.564184
 40
32.000000
 50
0.000000E+00
 41
0.94 
  1
対応可能Ｐ寸法　２４０～３６０
 72
     5
 11
3837.267923
 21
579.564184
  0
LINE
  8
0
 62
     2
  6
CONTINUOUS
 10
3244.712419
 20
640.281646
 11
4024.114339
 21
640.281646
  0
TEXT
  8
0
 62
     2
 10
3733.220431
 20
667.585896
 40
30.000000
 50
0.000000E+00
 41
0.61 
  1
925
 72
     5
 11
3788.220431
 21
667.585896
  0
TEXT
  8
0
 62
     2
 10
3630.421191
 20
667.585896
 40
30.000000
 50
0.000000E+00
 41
0.61 
  1
905
 72
     5
 11
3685.421191
 21
667.585896
  0
TEXT
  8
0
 62
     2
 10
3530.968711
 20
669.313032
 40
30.000000
 50
0.000000E+00
 41
0.61 
  1
885
 72
     5
 11
3585.968711
 21
669.313032
  0
TEXT
  8
0
 62
     2
 10
3836.729671
 20
669.313032
 40
30.000000
 50
0.000000E+00
 41
0.61 
  1
965
 72
     5
 11
3891.729671
 21
669.313032
  0
TEXT
  8
0
 62
     2
 10
3429.049031
 20
760.753032
 40
30.000000
 50
0.000000E+00
 41
0.61 
  1
790
 72
     5
 11
3484.049031
 21
760.753032
  0
TEXT
  8
0
 62
     2
 10
3941.182151
 20
667.585896
 40
30.000000
 50
0.000000E+00
 41
0.61 
  1
985
 72
     5
 11
3996.182151
 21
667.585896
  0
TEXT
  8
0
 62
     2
 10
3429.049031
 20
669.313032
 40
30.000000
 50
0.000000E+00
 41
0.61 
  1
865
 72
     5
 11
3484.049031
 21
669.313032
  0
TEXT
  8
0
 62
     2
 10
3836.490686
 20
837.196846
 40
30.000000
 50
0.000000E+00
 41
0.61 
  1
340
 72
     5
 11
3891.490686
 21
837.196846
  0
TEXT
  8
0
 62
     2
 10
3734.570046
 20
837.196846
 40
30.000000
 50
0.000000E+00
 41
0.61 
  1
300
 72
     5
 11
3789.570046
 21
837.196846
  0
TEXT
  8
0
 62
     2
 10
3632.649406
 20
837.196846
 40
30.000000
 50
0.000000E+00
 41
0.61 
  1
280
 72
     5
 11
3687.649406
 21
837.196846
  0
TEXT
  8
0
 62
     2
 10
3428.810046
 20
837.196846
 40
30.000000
 50
0.000000E+00
 41
0.61 
  1
240
 72
     5
 11
3483.810046
 21
837.196846
  0
LINE
  8
0
 62
     2
  6
CONTINUOUS
 10
3810.274019
 20
884.601646
 11
3810.274019
 21
640.281646
  0
TEXT
  8
0
 62
     2
 10
3255.240523
 20
673.627725
 40
30.000000
 50
0.000000E+00
 41
0.72 
  1
Ｌｔ（全長）
 72
     5
 11
3405.240523
 21
673.627725
  0
LINE
  8
0
 62
     2
  6
CONTINUOUS
 10
3244.712419
 20
731.721646
 11
4024.114339
 21
731.721646
  0
TEXT
  8
0
 62
     2
 10
3941.182151
 20
759.025896
 40
30.000000
 50
0.000000E+00
 41
0.61 
  1
910
 72
     5
 11
3996.182151
 21
759.025896
  0
LINE
  8
0
 62
     2
  6
CONTINUOUS
 10
3244.712419
 20
884.601646
 11
4024.114339
 21
884.601646
  0
TEXT
  8
0
 62
     2
 10
3836.729671
 20
760.753032
 40
30.000000
 50
0.000000E+00
 41
0.61 
  1
890
 72
     5
 11
3891.729671
 21
760.753032
  0
LINE
  8
0
 62
     2
  6
CONTINUOUS
 10
3402.593379
 20
884.601646
 11
3402.593379
 21
640.281646
  0
LINE
  8
0
 62
     2
  6
CONTINUOUS
 10
3504.513059
 20
884.601646
 11
3504.513059
 21
640.281646
  0
LINE
  8
0
 62
     2
  6
CONTINUOUS
 10
3606.432739
 20
884.601646
 11
3606.432739
 21
640.281646
  0
LINE
  8
0
 62
     2
  6
CONTINUOUS
 10
3708.353379
 20
884.601646
 11
3708.353379
 21
640.281646
  0
LINE
  8
0
 62
     2
  6
CONTINUOUS
 10
4024.114339
 20
884.601646
 11
4024.114339
 21
640.281646
  0
LINE
  8
0
 62
     2
  6
CONTINUOUS
 10
3912.193699
 20
884.601646
 11
3912.193699
 21
640.281646
  0
TEXT
  8
0
 62
     2
 10
3943.410366
 20
837.196846
 40
30.000000
 50
0.000000E+00
 41
0.61 
  1
360
 72
     5
 11
3998.410366
 21
837.196846
  0
LINE
  8
0
 62
     2
  6
CONTINUOUS
 10
3244.712419
 20
823.161646
 11
4024.114339
 21
823.161646
  0
TEXT
  8
0
 62
     2
 10
3255.240523
 20
765.067725
 40
30.000000
 50
0.000000E+00
 41
0.72 
  1
Ｌ（有効長）
 72
     5
 11
3405.240523
 21
765.067725
  0
LINE
  8
0
 62
     2
  6
CONTINUOUS
 10
3244.712419
 20
884.601646
 11
3244.712419
 21
640.281646
  0
LINE
  8
0
 62
     2
  6
CONTINUOUS
 10
4022.541101
 20
871.364597
 11
4022.541101
 21
871.364405
  0
TEXT
  8
0
 62
     2
 10
3530.968711
 20
760.753032
 40
30.000000
 50
0.000000E+00
 41
0.61 
  1
810
 72
     5
 11
3585.968711
 21
760.753032
  0
TEXT
  8
0
 62
     2
 10
3630.421191
 20
759.025896
 40
30.000000
 50
0.000000E+00
 41
0.61 
  1
830
 72
     5
 11
3685.421191
 21
759.025896
  0
TEXT
  8
0
 62
     2
 10
3530.729726
 20
837.196846
 40
30.000000
 50
0.000000E+00
 41
0.61 
  1
260
 72
     5
 11
3585.729726
 21
837.196846
  0
TEXT
  8
0
 62
     2
 10
3314.281517
 20
837.217257
 40
30.000000
 50
0.000000E+00
 41
0.86 
  1
Ｐ
 72
     5
 11
3344.281517
 21
837.217257
  0
TEXT
  8
0
 62
     2
 10
3733.220431
 20
759.025896
 40
30.000000
 50
0.000000E+00
 41
0.61 
  1
850
 72
     5
 11
3788.220431
 21
759.025896
  0
INSERT
  8
0
  2
G26
 10
0
 20
0
  0
INSERT
  8
0
  2
G27
 10
0
 20
0
  0
INSERT
  8
0
  2
G28
 10
0
 20
0
  0
INSERT
  8
0
  2
G29
 10
0
 20
0
  0
INSERT
  8
0
  2
G30
 10
0
 20
0
  0
INSERT
  8
0
  2
G31
 10
0
 20
0
  0
INSERT
  8
0
  2
G32
 10
0
 20
0
  0
INSERT
  8
0
  2
G33
 10
0
 20
0
  0
INSERT
  8
0
  2
G34
 10
0
 20
0
  0
TEXT
  8
0
 62
     3
 10
3480.883203
 20
2076.930278
 40
32.000000
 50
0.000000E+00
 41
0.86 
  1
ｃ
 72
     5
 11
3512.883203
 21
2076.930278
  0
INSERT
  8
0
  2
G35
 10
0
 20
0
  0
INSERT
  8
0
  2
G36
 10
0
 20
0
  0
INSERT
  8
0
  2
G37
 10
0
 20
0
  0
INSERT
  8
0
  2
G38
 10
0
 20
0
  0
CIRCLE
  8
0
 62
     6
  6
HIDDEN
 10
2972.523107
 20
2501.418667
 40
20.000000
  0
TEXT
  8
0
 62
     6
 10
2964.523107
 20
2485.418667
 40
32.000000
 50
0.000000E+00
 41
0.50 
  1
3
 72
     5
 11
2980.523107
 21
2485.418667
  0
TEXT
  8
0
 62
     2
 10
3948.410366
 20
938.636846
 40
30.000000
 50
0.000000E+00
 41
0.58 
  1
44
 72
     5
 11
3983.410366
 21
938.636846
  0
TEXT
  8
0
 62
     2
 10
3836.489726
 20
938.636846
 40
30.000000
 50
0.000000E+00
 41
0.58 
  1
52
 72
     5
 11
3871.489726
 21
938.636846
  0
TEXT
  8
0
 62
     2
 10
3724.570046
 20
938.636846
 40
30.000000
 50
0.000000E+00
 41
0.58 
  1
60
 72
     5
 11
3759.570046
 21
938.636846
  0
TEXT
  8
0
 62
     2
 10
3625.578794
 20
1121.253863
 40
25.600000
 50
0.000000E+00
 41
0.55 
  1
100
 72
     5
 11
3667.635939
 21
1121.253863
  0
TEXT
  8
0
 62
     2
 10
3609.048500
 20
1159.938571
 40
18.400000
 50
0.000000E+00
 41
0.89 
  1
立管受口
 72
     5
 11
3685.048499
 21
1159.938571
  0
TEXT
  8
0
 62
     2
 10
3948.410366
 20
1061.516846
 40
30.000000
 50
0.000000E+00
 41
0.58 
  1
65
 72
     5
 11
3983.410366
 21
1061.516846
  0
TEXT
  8
0
 62
     2
 10
3836.489726
 20
1061.516846
 40
30.000000
 50
0.000000E+00
 41
0.58 
  1
65
 72
     5
 11
3871.489726
 21
1061.516846
  0
TEXT
  8
0
 62
     2
 10
3632.650366
 20
1061.516846
 40
30.000000
 50
0.000000E+00
 41
0.58 
  1
75
 72
     5
 11
3667.650366
 21
1061.516846
  0
LINE
  8
0
 62
     2
  6
CONTINUOUS
 10
3688.353379
 20
986.041646
 11
3606.433699
 21
924.601646
  0
LINE
  8
0
 62
     2
  6
CONTINUOUS
 10
4024.114339
 20
1190.846702
 11
4024.114339
 21
924.601646
  0
TEXT
  8
0
 62
     2
 10
3495.330843
 20
942.947725
 40
30.000000
 50
0.000000E+00
 41
0.86 
  1
Ｂ寸法
 72
     5
 11
3585.330843
 21
942.947725
  0
LINE
  8
0
 62
     2
  6
CONTINUOUS
 10
3483.552739
 20
986.041646
 11
4024.114339
 21
986.041646
  0
LINE
  8
0
 62
     2
  6
CONTINUOUS
 10
3688.353379
 20
1149.881678
 11
4024.114339
 21
1149.881678
  0
LINE
  8
0
 62
     2
  6
CONTINUOUS
 10
3483.552739
 20
1108.921646
 11
4024.114339
 21
1108.921646
  0
TEXT
  8
0
 62
     2
 10
3733.916713
 20
1154.795013
 40
30.000000
 50
0.000000E+00
 41
0.86 
  1
下部横枝管サイズ
 72
     5
 11
3973.916713
 21
1154.795013
  0
LINE
  8
0
 62
     2
  6
CONTINUOUS
 10
3606.433699
 20
1189.607822
 11
3606.433699
 21
924.601646
  0
LINE
  8
0
 62
     2
  6
CONTINUOUS
 10
3688.353379
 20
1189.607822
 11
3688.353379
 21
924.601646
  0
LINE
  8
0
 62
     2
  6
CONTINUOUS
 10
3800.273059
 20
1149.881678
 11
3800.273059
 21
924.601646
  0
LINE
  8
0
 62
     2
  6
CONTINUOUS
 10
3688.353379
 20
1047.481646
 11
3606.433699
 21
986.041646
  0
LINE
  8
0
 62
     2
  6
CONTINUOUS
 10
3912.193699
 20
1149.881486
 11
3912.193699
 21
924.601646
  0
LINE
  8
0
 62
     2
  6
CONTINUOUS
 10
3483.552739
 20
924.601646
 11
4024.114339
 21
924.601646
  0
TEXT
  8
0
 62
     2
 10
3704.615965
 20
1114.716379
 40
30.000000
 50
0.000000E+00
 41
0.63 
  1
75(3)
 72
     5
 11
3799.615965
 21
1114.716379
  0
TEXT
  8
0
 62
     2
 10
3816.535645
 20
1114.716379
 40
30.000000
 50
0.000000E+00
 41
0.63 
  1
65(2)
 72
     5
 11
3911.535645
 21
1114.716379
  0
TEXT
  8
0
 62
     2
 10
3928.456285
 20
1114.716379
 40
30.000000
 50
0.000000E+00
 41
0.63 
  1
50(1)
 72
     5
 11
4023.456285
 21
1114.716379
  0
LINE
  8
0
 62
     2
  6
CONTINUOUS
 10
3483.552739
 20
1149.881678
 11
3483.552739
 21
924.601646
  0
LINE
  8
0
 62
     2
  6
CONTINUOUS
 10
3483.552739
 20
1047.481646
 11
4024.114339
 21
1047.481646
  0
TEXT
  8
0
 62
     2
 10
3495.330843
 20
1004.387725
 40
30.000000
 50
0.000000E+00
 41
0.86 
  1
Ａ寸法
 72
     5
 11
3585.330843
 21
1004.387725
  0
LINE
  8
0
 62
     2
  6
CONTINUOUS
 10
3483.552739
 20
1149.881678
 11
3483.552739
 21
1190.846702
  0
LINE
  8
0
 62
     2
  6
CONTINUOUS
 10
3483.552739
 20
1190.846702
 11
4024.114339
 21
1190.846702
  0
LINE
  8
0
 62
     2
  6
CONTINUOUS
 10
3994.113379
 20
1149.881678
 11
3994.113379
 21
1149.881486
  0
TEXT
  8
0
 62
     2
 10
3714.809031
 20
1001.803982
 40
30.000000
 50
0.000000E+00
 41
0.61 
  1
125
 72
     5
 11
3769.809031
 21
1001.803982
  0
TEXT
  8
0
 62
     2
 10
3824.261511
 20
1000.076846
 40
30.000000
 50
0.000000E+00
 41
0.61 
  1
110
 72
     5
 11
3879.261511
 21
1000.076846
  0
TEXT
  8
0
 62
     2
 10
3724.570046
 20
1061.516846
 40
30.000000
 50
0.000000E+00
 41
0.58 
  1
65
 72
     5
 11
3759.570046
 21
1061.516846
  0
TEXT
  8
0
 62
     2
 10
3488.121837
 20
1061.537257
 40
30.000000
 50
0.000000E+00
 41
0.86 
  1
受口深さ
 72
     5
 11
3608.121837
 21
1061.537257
  0
LINE
  8
0
 62
     2
  6
CONTINUOUS
 10
3483.552739
 20
1190.846702
 11
3606.433699
 21
1108.921646
  0
TEXT
  8
0
 62
     2
 10
3948.410366
 20
1000.076846
 40
30.000000
 50
0.000000E+00
 41
0.58 
  1
94
 72
     5
 11
3983.410366
 21
1000.076846
  0
INSERT
  8
0
  2
G39
 10
0
 20
0
  0
INSERT
  8
3
  2
G40
 10
0
 20
0
  0
LINE
  8
3
 62
     4
  6
CENTER
 10
2718.752854
 20
1358.027117
 11
2918.878370
 21
1358.027117
  0
LINE
  8
0
 62
     4
  6
CONTINUOUS
 10
2839.760138
 20
1298.027117
 11
2804.760138
 21
1298.027117
  0
CIRCLE
  8
0
 62
     4
  6
CONTINUOUS
 10
2822.260138
 20
1358.027117
 40
40.000000
  0
CIRCLE
  8
0
 62
     4
  6
CONTINUOUS
 10
2822.260138
 20
1358.027117
 40
54.000000
  0
CIRCLE
  8
0
 62
     4
  6
CONTINUOUS
 10
2822.260138
 20
1358.027117
 40
62.500000
  0
INSERT
  8
0
  2
G41
 10
0
 20
0
  0
ENDSEC
  0
EOF
