  0
SECTION
  2
HEADER
  9
$ACADVER
  1
AC1009
  9
$INSBASE
 10
0.0
 20
0.0
 30
0.0
  9
$EXTMIN
 10
0.0
 20
-1727.333333333331
 30
0.0
  9
$EXTMAX
 10
4387.0999999999922
 20
470.00000000000011
 30
0.0
  9
$LIMMIN
 10
0.0
 20
0.0
  9
$LIMMAX
 10
210.0
 20
297.0
  9
$ORTHOMODE
 70
     0
  9
$REGENMODE
 70
     1
  9
$FILLMODE
 70
     1
  9
$QTEXTMODE
 70
     0
  9
$MIRRTEXT
 70
     0
  9
$DRAGMODE
 70
     2
  9
$LTSCALE
 40
1.0
  9
$OSMODE
 70
   125
  9
$ATTMODE
 70
     1
  9
$TEXTSIZE
 40
4.0
  9
$TRACEWID
 40
0.05
  9
$TEXTSTYLE
  7
STANDARD
  9
$CLAYER
  8
OBJECT
  9
$CELTYPE
  6
BYLAYER
  9
$CECOLOR
 62
   256
  9
$DIMSCALE
 40
10.0
  9
$DIMASZ
 40
2.0
  9
$DIMEXO
 40
1.0
  9
$DIMDLI
 40
10.0
  9
$DIMRND
 40
0.0
  9
$DIMDLE
 40
0.0
  9
$DIMEXE
 40
1.0
  9
$DIMTP
 40
0.0
  9
$DIMTM
 40
0.0
  9
$DIMTXT
 40
3.2000000000000002
  9
$DIMCEN
 40
0.0
  9
$DIMTSZ
 40
0.0
  9
$DIMTOL
 70
     0
  9
$DIMLIM
 70
     0
  9
$DIMTIH
 70
     0
  9
$DIMTOH
 70
     0
  9
$DIMSE1
 70
     0
  9
$DIMSE2
 70
     0
  9
$DIMTAD
 70
     1
  9
$DIMZIN
 70
     8
  9
$DIMBLK
  1
OPEN30
  9
$DIMASO
 70
     1
  9
$DIMSHO
 70
     1
  9
$DIMPOST
  1

  9
$DIMAPOST
  1

  9
$DIMALT
 70
     0
  9
$DIMALTD
 70
     2
  9
$DIMALTF
 40
25.399999999999999
  9
$DIMLFAC
 40
1.0
  9
$DIMTOFL
 70
     1
  9
$DIMTVP
 40
0.0
  9
$DIMTIX
 70
     0
  9
$DIMSOXD
 70
     0
  9
$DIMSAH
 70
     0
  9
$DIMBLK1
  1

  9
$DIMBLK2
  1

  9
$DIMSTYLE
  2
S10
  9
$DIMCLRD
 70
   256
  9
$DIMCLRE
 70
   256
  9
$DIMCLRT
 70
   256
  9
$DIMTFAC
 40
1.0
  9
$DIMGAP
 40
0.9
  9
$LUNITS
 70
     2
  9
$LUPREC
 70
     2
  9
$SKETCHINC
 40
0.1
  9
$FILLETRAD
 40
0.0
  9
$AUNITS
 70
     0
  9
$AUPREC
 70
     2
  9
$MENU
  1
ACAD
  9
$ELEVATION
 40
0.0
  9
$PELEVATION
 40
0.0
  9
$THICKNESS
 40
0.0
  9
$LIMCHECK
 70
     0
  9
$BLIPMODE
 70
     0
  9
$CHAMFERA
 40
2.0
  9
$CHAMFERB
 40
2.0
  9
$SKPOLY
 70
     0
  9
$TDCREATE
 40
2453095.4929404748
  9
$TDUPDATE
 40
2456832.7275534952
  9
$TDINDWG
 40
18.595248101900001
  9
$TDUSRTIMER
 40
18.595247465300002
  9
$USRTIMER
 70
     1
  9
$ANGBASE
 50
0.0
  9
$ANGDIR
 70
     0
  9
$PDMODE
 70
    35
  9
$PDSIZE
 40
2.0
  9
$PLINEWID
 40
0.0
  9
$COORDS
 70
     1
  9
$SPLFRAME
 70
     0
  9
$SPLINETYPE
 70
     6
  9
$SPLINESEGS
 70
     8
  9
$ATTDIA
 70
     1
  9
$ATTREQ
 70
     1
  9
$HANDLING
 70
     1
  9
$HANDSEED
  5
13AEF8
  9
$SURFTAB1
 70
     6
  9
$SURFTAB2
 70
     6
  9
$SURFTYPE
 70
     6
  9
$SURFU
 70
     6
  9
$SURFV
 70
     6
  9
$UCSNAME
  2

  9
$UCSORG
 10
0.0
 20
0.0
 30
0.0
  9
$UCSXDIR
 10
1.0
 20
0.0
 30
0.0
  9
$UCSYDIR
 10
0.0
 20
1.0
 30
0.0
  9
$PUCSNAME
  2

  9
$PUCSORG
 10
0.0
 20
0.0
 30
0.0
  9
$PUCSXDIR
 10
1.0
 20
0.0
 30
0.0
  9
$PUCSYDIR
 10
0.0
 20
1.0
 30
0.0
  9
$USERI1
 70
     0
  9
$USERI2
 70
     0
  9
$USERI3
 70
     0
  9
$USERI4
 70
     0
  9
$USERI5
 70
     0
  9
$USERR1
 40
0.0
  9
$USERR2
 40
0.0
  9
$USERR3
 40
0.0
  9
$USERR4
 40
0.0
  9
$USERR5
 40
0.0
  9
$WORLDVIEW
 70
     1
  9
$SHADEDGE
 70
     3
  9
$SHADEDIF
 70
    70
  9
$TILEMODE
 70
     1
  9
$MAXACTVP
 70
    64
  9
$PLIMCHECK
 70
     0
  9
$PEXTMIN
 10
29.066066288948051
 20
20.366566777229309
 30
0.0
  9
$PEXTMAX
 10
261.5945966005325
 20
183.29910099506381
 30
0.0
  9
$PLIMMIN
 10
-3.17498779296875
 20
-3.1749999523162842
  9
$PLIMMAX
 10
293.83566284179687
 20
206.8406708240509
  9
$UNITMODE
 70
     0
  9
$VISRETAIN
 70
     1
  9
$PLINEGEN
 70
     0
  9
$PSLTSCALE
 70
     1
  0
ENDSEC
  0
SECTION
  2
TABLES
  0
TABLE
  2
VPORT
 70
     1
  0
VPORT
  2
*ACTIVE
 70
     0
 10
0.0
 20
0.0
 11
1.0
 21
1.0
 12
4236.0418656544907
 22
-283.07086246360132
 13
0.0
 23
0.0
 14
1.0
 24
1.0
 15
0.0
 25
0.0
 16
0.0
 26
0.0
 36
1.0
 17
0.0
 27
0.0
 37
0.0
 40
5779.5248570464764
 41
1.8343023255813951
 42
50.0
 43
0.0
 44
0.0
 50
0.0
 51
0.0
 71
     0
 72
   600
 73
     1
 74
     1
 75
     0
 76
     0
 77
     0
 78
     0
  0
ENDTAB
  0
TABLE
  2
LTYPE
 70
     3
  0
LTYPE
  2
CONTINUOUS
 70
     0
  3
Solid line
 72
    65
 73
     0
 40
0.0
  0
LTYPE
  2
ACAD_ISO08W100
 70
     0
  3
ISO long-dash short-dash ____ __ ____ __ ____ _
 72
    65
 73
     4
 40
36.0
 49
24.0
 49
-3.0
 49
6.0
 49
-3.0
  0
LTYPE
  2
ACAD_ISO02W100
 70
     0
  3
ISO dash __ __ __ __ __ __ __ __ __ __ __ __ __
 72
    65
 73
     2
 40
15.0
 49
12.0
 49
-3.0
  0
ENDTAB
  0
TABLE
  2
LAYER
 70
     7
  0
LAYER
  2
0
 70
     0
 62
     7
  6
CONTINUOUS
  0
LAYER
  2
OBJECT
 70
     0
 62
     4
  6
CONTINUOUS
  0
LAYER
  2
DEFPOINTS
 70
     0
 62
     7
  6
CONTINUOUS
  0
LAYER
  2
HIDDEN
 70
     0
 62
     2
  6
ACAD_ISO02W100
  0
LAYER
  2
CENTER
 70
     0
 62
     2
  6
ACAD_ISO08W100
  0
LAYER
  2
DOTS
 70
     0
 62
     1
  6
CONTINUOUS
  0
LAYER
  2
SLIM
 70
     0
 62
     2
  6
CONTINUOUS
  0
ENDTAB
  0
TABLE
  2
STYLE
 70
     2
  0
STYLE
  2
STANDARD
 70
     0
 40
0.0
 41
0.75
 50
0.0
 71
     0
 42
4.0
  3
simplex.shx
  4
bigfont.shx
  0
ENDTAB
  0
TABLE
  2
VIEW
 70
     0
  0
ENDTAB
  0
TABLE
  2
UCS
 70
     0
  0
ENDTAB
  0
TABLE
  2
APPID
 70
    19
  0
APPID
  2
ACAD
 70
     0
  0
APPID
  2
ACADANNOTATIVE
 70
     0
  0
APPID
  2
ACAD_PSEXT
 70
     0
  0
APPID
  2
ACAD_EXEMPT_FROM_CAD_STANDARDS
 70
     0
  0
APPID
  2
ACAECLAYERSTANDARD
 70
     0
  0
APPID
  2
ACAUTHENVIRON
 70
     0
  0
APPID
  2
ACDBDYNAMICBLOCKTRUENAME
 70
     0
  0
APPID
  2
ACDBDYNAMICBLOCKGUID
 70
     0
  0
APPID
  2
ACDBBLOCKREPETAG
 70
     0
  0
APPID
  2
ACDBBLOCKREPBTAG
 70
     0
  0
APPID
  2
ACAD_NAV_VCDISPLAY
 70
     0
  0
APPID
  2
ACAD_DSTYLE_DIMRADIAL_EXTENSION
 70
     0
  0
APPID
  2
ACAD_DSTYLE_DIMJAG
 70
     0
  0
APPID
  2
ACAD_DSTYLE_DIMTALN
 70
     0
  0
APPID
  2
ACADANNOPO
 70
     0
  0
APPID
  2
GRADIENTCOLOR1ACI
 70
     0
  0
APPID
  2
GRADIENTCOLOR2ACI
 70
     0
  0
APPID
  2
CONTENTBLOCKICON
 70
     0
  0
APPID
  2
ACAD_MLEADERVER
 70
     0
  0
ENDTAB
  0
TABLE
  2
DIMSTYLE
 70
     3
  0
DIMSTYLE
  2
STANDARD
 70
     0
  3

  4

  5

  6

  7

 40
1.0
 41
0.18
 42
0.0625
 43
0.38
 44
0.18
 45
0.0
 46
0.0
 47
0.0
 48
0.0
140
0.18
141
0.09
142
0.0
143
25.399999999999999
144
1.0
145
0.0
146
1.0
147
0.09
 71
     0
 72
     0
 73
     1
 74
     1
 75
     0
 76
     0
 77
     0
 78
     0
170
     0
171
     2
172
     0
173
     0
174
     0
175
     0
176
     0
177
     0
178
     0
  0
DIMSTYLE
  2
S10
 70
     0
  3

  4

  5

  6

  7

 40
10.0
 41
2.0
 42
1.0
 43
10.0
 44
1.0
 45
0.0
 46
0.0
 47
0.0
 48
0.0
140
3.2000000000000002
141
0.0
142
0.0
143
25.399999999999999
144
1.0
145
0.0
146
1.0
147
0.9
 71
     0
 72
     0
 73
     0
 74
     0
 75
     0
 76
     0
 77
     1
 78
     8
170
     0
171
     2
172
     1
173
     0
174
     0
175
     0
176
   256
177
   256
178
   256
  0
ENDTAB
  0
ENDSEC
  0
SECTION
  2
BLOCKS
  0
BLOCK
  8
0
  2
$MODEL_SPACE
 70
     0
 10
0.0
 20
0.0
 30
0.0
  3
$MODEL_SPACE
  1

  0
ENDBLK
  5
13ADBA
  8
0
  0
BLOCK
 67
     1
  8
0
  2
$PAPER_SPACE
 70
     0
 10
0.0
 20
0.0
 30
0.0
  3
$PAPER_SPACE
  1

  0
ENDBLK
  5
13ADB6
 67
     1
  8
0
  0
BLOCK
  8
0
  2
_OPEN30
 70
     0
 10
0.0
 20
0.0
 30
0.0
  3
_OPEN30
  1

  0
LINE
  5
202
  8
0
  6
BYBLOCK
 62
     0
 10
-1.0
 20
0.26794919
 30
0.0
 11
0.0
 21
0.0
 31
0.0
  0
LINE
  5
203
  8
0
  6
BYBLOCK
 62
     0
 10
0.0
 20
0.0
 30
0.0
 11
-1.0
 21
-0.26794919
 31
0.0
  0
LINE
  5
204
  8
0
  6
BYBLOCK
 62
     0
 10
0.0
 20
0.0
 30
0.0
 11
-1.0
 21
0.0
 31
0.0
  0
ENDBLK
  5
206
  8
0
  0
ENDSEC
  0
SECTION
  2
ENTITIES
  0
LINE
  5
13A942
  8
OBJECT
 10
3943.0
 20
-559.99999999999955
 30
0.0
 11
3943.0
 21
-627.99999999999955
 31
0.0
1001
ACDBBLOCKREPETAG
1070
     1
1071
      206
1005
13A942
  0
LINE
  5
13A943
  8
OBJECT
 10
3937.0
 20
-633.99999999999955
 30
0.0
 11
3937.0
 21
-630.99999999999955
 31
0.0
1001
ACDBBLOCKREPETAG
1070
     1
1071
      207
1005
13A943
  0
LINE
  5
13A944
  8
OBJECT
 10
3943.0
 20
-559.99999999999955
 30
0.0
 11
4057.0
 21
-559.99999999999955
 31
0.0
1001
ACDBBLOCKREPETAG
1070
     1
1071
      208
1005
13A944
  0
LINE
  5
13A945
  8
OBJECT
 10
4060.0
 20
-627.99999999999955
 30
0.0
 11
3940.0
 21
-627.99999999999955
 31
0.0
1001
ACDBBLOCKREPETAG
1070
     1
1071
      209
1005
13A945
  0
ARC
  5
13A946
  8
OBJECT
 10
3940.0
 20
-630.99999999999955
 30
0.0
 40
3.0
 50
90.0
 51
180.0
1001
ACDBBLOCKREPETAG
1070
     1
1071
      210
1005
13A946
  0
LINE
  5
13A947
  8
OBJECT
 10
4057.0
 20
-559.99999999999955
 30
0.0
 11
4057.0
 21
-627.99999999999955
 31
0.0
1001
ACDBBLOCKREPETAG
1070
     1
1071
      211
1005
13A947
  0
LINE
  5
13A948
  8
OBJECT
 10
4063.0
 20
-633.99999999999955
 30
0.0
 11
4063.0
 21
-630.99999999999955
 31
0.0
1001
ACDBBLOCKREPETAG
1070
     1
1071
      212
1005
13A948
  0
ARC
  5
13A949
  8
OBJECT
 10
4060.0
 20
-630.99999999999955
 30
0.0
 40
3.0
 50
0.0
 51
90.0
1001
ACDBBLOCKREPETAG
1070
     1
1071
      213
1005
13A949
  0
LINE
  5
13A94A
  8
CENTER
 10
4000.0
 20
-544.99999999999955
 30
0.0
 11
4000.0
 21
-899.99999999999955
 31
0.0
1001
ACDBBLOCKREPETAG
1070
     1
1071
        4
1005
13A94A
  0
LINE
  5
13A94B
  8
OBJECT
 10
3925.0
 20
-633.99999999999955
 30
0.0
 11
3925.0
 21
-887.99999999999955
 31
0.0
1001
ACDBBLOCKREPETAG
1070
     1
1071
        5
1005
13A94B
  0
LINE
  5
13A94C
  8
OBJECT
 10
3920.0
 20
-887.99999999999955
 30
0.0
 11
4080.0
 21
-887.99999999999955
 31
0.0
1001
ACDBBLOCKREPETAG
1070
     1
1071
        8
1005
13A94C
  0
LINE
  5
13A94D
  8
OBJECT
 10
4080.0
 20
-633.99999999999955
 30
0.0
 11
3925.0
 21
-633.99999999999955
 31
0.0
1001
ACDBBLOCKREPETAG
1070
     1
1071
        9
1005
13A94D
  0
LINE
  5
13A94E
  8
OBJECT
 10
3920.0
 20
-887.99999999999955
 30
0.0
 11
3920.0
 21
-899.99999999999955
 31
0.0
1001
ACDBBLOCKREPETAG
1070
     1
1071
       10
1005
13A94E
  0
LINE
  5
13A94F
  8
OBJECT
 10
3920.0
 20
-899.99999999999955
 30
0.0
 11
4080.0
 21
-899.99999999999955
 31
0.0
1001
ACDBBLOCKREPETAG
1070
     1
1071
       11
1005
13A94F
  0
LINE
  5
13A950
  8
OBJECT
 10
4080.0
 20
-899.99999999999955
 30
0.0
 11
4080.0
 21
-887.99999999999955
 31
0.0
1001
ACDBBLOCKREPETAG
1070
     1
1071
       12
1005
13A950
  0
LINE
  5
13A951
  8
OBJECT
 10
4074.9999999998631
 20
-757.99999999985016
 30
0.0
 11
4075.0
 21
-887.99999999999955
 31
0.0
1001
ACDBBLOCKREPETAG
1070
     1
1071
       14
1005
13A951
  0
LINE
  5
13A952
  8
OBJECT
 10
4074.9999908029849
 20
-757.99998602702112
 30
0.0
 11
4080.0
 21
-757.99998602702112
 31
0.0
1001
ACDBBLOCKREPETAG
1070
     1
1071
       15
1005
13A952
  0
ARC
  5
13A953
  8
OBJECT
 10
4200.6872746716726
 20
-749.40809941010718
 30
0.0
 40
170.6350503965856
 50
137.44134459184301
 51
149.91949581337221
1001
ACDBBLOCKREPETAG
1070
     1
1071
       25
1005
13A953
  0
ARC
  5
13A954
  8
OBJECT
 10
4118.8455987040506
 20
-705.88272669536445
 30
0.0
 40
78.072222021763665
 50
147.45515310381529
 51
164.66365997719231
1001
ACDBBLOCKREPETAG
1070
     1
1071
       26
1005
13A954
  0
ARC
  5
13A955
  8
OBJECT
 10
4085.7554349608722
 20
-695.99999999999955
 30
0.0
 40
43.55353926885617
 50
165.6884523007466
 51
194.3115476992534
1001
ACDBBLOCKREPETAG
1070
     1
1071
       27
1005
13A955
  0
ARC
  5
13A956
  8
OBJECT
 10
4200.6872746716726
 20
-642.59190058989179
 30
0.0
 40
170.6350503965856
 50
210.08050418662771
 51
222.55865540815699
1001
ACDBBLOCKREPETAG
1070
     1
1071
       28
1005
13A956
  0
ARC
  5
13A957
  8
OBJECT
 10
4118.8455987040506
 20
-686.11727330463452
 30
0.0
 40
78.072222021763665
 50
195.33634002280749
 51
212.54484689618471
1001
ACDBBLOCKREPETAG
1070
     1
1071
       29
1005
13A957
  0
LINE
  5
13A958
  8
HIDDEN
 10
4052.5
 20
-559.99999999999955
 30
0.0
 11
4052.5
 21
-633.99999999999955
 31
0.0
1001
ACDBBLOCKREPETAG
1070
     1
1071
      250
1005
13A958
  0
LINE
  5
13A959
  8
HIDDEN
 10
3947.5
 20
-559.99999999999955
 30
0.0
 11
3947.5
 21
-633.99999999999955
 31
0.0
1001
ACDBBLOCKREPETAG
1070
     1
1071
      251
1005
13A959
  0
POINT
  5
13A95A
  8
DOTS
 10
4000.0
 20
-754.99999999999955
 30
0.0
1001
ACDBBLOCKREPETAG
1070
     1
1071
      260
1005
13A95A
  0
LINE
  5
13A95B
  8
OBJECT
 10
4083.0
 20
-634.0
 30
0.0
 11
4080.0
 21
-634.0
 31
0.0
1001
ACDBBLOCKREPETAG
1070
     1
1071
        1
1005
13A95B
  0
ARC
  5
13A95C
  8
OBJECT
 10
4083.0
 20
-637.0
 30
0.0
 40
3.0
 50
0.0
 51
90.0
1001
ACDBBLOCKREPETAG
1070
     1
1071
        2
1005
13A95C
  0
LINE
  5
13A95D
  8
OBJECT
 10
4080.0
 20
-758.0
 30
0.0
 11
4083.0
 21
-758.0
 31
0.0
1001
ACDBBLOCKREPETAG
1070
     1
1071
        3
1005
13A95D
  0
ARC
  5
13A95E
  8
OBJECT
 10
4083.0
 20
-755.0
 30
0.0
 40
3.0
 50
270.0
 51
0.0
1001
ACDBBLOCKREPETAG
1070
     1
1071
        4
1005
13A95E
  0
LINE
  5
13A95F
  8
OBJECT
 10
4086.0
 20
-755.0
 30
0.0
 11
4086.0
 21
-637.0
 31
0.0
1001
ACDBBLOCKREPETAG
1070
     1
1071
        5
1005
13A95F
  0
ARC
  5
13A960
  8
OBJECT
 10
4000.0
 20
-199.99999999999909
 30
0.0
 40
80.0
 50
50.804965661401717
 51
309.19496742597403
1001
ACDBBLOCKREPETAG
1070
     1
1071
      348
1005
13A960
  0
CIRCLE
  5
13A961
  8
OBJECT
 10
4000.0
 20
-199.99999999999909
 30
0.0
 40
75.0
1001
ACDBBLOCKREPETAG
1070
     1
1071
      349
1005
13A961
  0
LINE
  5
13A962
  8
OBJECT
 10
3963.6238040660278
 20
-162.14471807827491
 30
0.0
 11
4037.0841102714221
 21
-174.5180316957439
 31
0.0
1001
ACDBBLOCKREPETAG
1070
     1
1071
      350
1005
13A962
  0
LINE
  5
13A963
  8
OBJECT
 10
4043.2694760507111
 20
-170.26782143372259
 30
0.0
 11
4037.0841102714221
 21
-174.5180316957439
 31
0.0
1001
ACDBBLOCKREPETAG
1070
     1
1071
      351
1005
13A963
  0
CIRCLE
  5
13A964
  8
OBJECT
 10
4000.0
 20
-199.99999999999909
 30
0.0
 40
52.5
1001
ACDBBLOCKREPETAG
1070
     1
1071
      352
1005
13A964
  0
ARC
  5
13A965
  8
OBJECT
 10
4000.0
 20
-199.99999999999909
 30
0.0
 40
50.0
 50
131.70180964355251
 51
168.52376955958741
1001
ACDBBLOCKREPETAG
1070
     1
1071
      353
1005
13A965
  0
ARC
  5
13A966
  8
OBJECT
 10
4000.0
 20
-199.99999999999909
 30
0.0
 40
50.0
 50
238.8199429999047
 51
34.49450625011707
1001
ACDBBLOCKREPETAG
1070
     1
1071
      354
1005
13A966
  0
LINE
  5
13A967
  8
OBJECT
 10
4042.2018956920169
 20
-137.99999999999909
 30
0.0
 11
4080.0
 21
-137.99999999999909
 31
0.0
1001
ACDBBLOCKREPETAG
1070
     1
1071
      355
1005
13A967
  0
LINE
  5
13A968
  8
OBJECT
 10
4042.2018956920169
 20
-261.99999999999909
 30
0.0
 11
4080.0
 21
-261.99999999999909
 31
0.0
1001
ACDBBLOCKREPETAG
1070
     1
1071
      356
1005
13A968
  0
LINE
  5
13A969
  8
CENTER
 10
4080.0
 20
-199.99999999999909
 30
0.0
 11
3905.0
 21
-199.99999999999909
 31
0.0
1001
ACDBBLOCKREPETAG
1070
     1
1071
      364
1005
13A969
  0
LINE
  5
13A96A
  8
CENTER
 10
4000.0
 20
-294.99999999999898
 30
0.0
 11
4000.0
 21
-104.9999999999991
 31
0.0
1001
ACDBBLOCKREPETAG
1070
     1
1071
      365
1005
13A96A
  0
LINE
  5
13A96B
  8
OBJECT
 10
3947.702309276614
 20
-195.39548645337189
 30
0.0
 11
3970.4540343856352
 21
-193.79865146436981
 31
0.0
1001
ACDBBLOCKREPETAG
1070
     1
1071
      368
1005
13A96B
  0
LINE
  5
13A96C
  8
OBJECT
 10
3948.416473471706
 20
-190.2332302727674
 30
0.0
 11
3966.9884352629019
 21
-188.92975272660161
 31
0.0
1001
ACDBBLOCKREPETAG
1070
     1
1071
      369
1005
13A96C
  0
LINE
  5
13A96D
  8
OBJECT
 10
3974.113537475278
 20
-242.77722592637201
 30
0.0
 11
3982.1366988374079
 21
-234.1690987954708
 31
0.0
1001
ACDBBLOCKREPETAG
1070
     1
1071
      370
1005
13A96D
  0
ARC
  5
13A96E
  8
OBJECT
 10
3982.1160071245399
 20
-183.28188966318251
 30
0.0
 40
60.031113246032611
 50
256.417442267745
 51
262.33936106086588
1001
ACDBBLOCKREPETAG
1070
     1
1071
      371
1005
13A96E
  0
LINE
  5
13A96F
  8
OBJECT
 10
3977.6125997325148
 20
-197.67495277149911
 30
0.0
 11
3982.1366988374079
 21
-234.1690987954708
 31
0.0
1001
ACDBBLOCKREPETAG
1070
     1
1071
      372
1005
13A96F
  0
ARC
  5
13A970
  8
OBJECT
 10
3967.6885653456411
 20
-198.90521351131881
 30
0.0
 40
10.0
 50
7.0667782929957941
 51
94.014734370532395
1001
ACDBBLOCKREPETAG
1070
     1
1071
      373
1005
13A970
  0
ARC
  5
13A971
  8
OBJECT
 10
3970.9441253709729
 20
-200.78147401875589
 30
0.0
 40
7.0
 50
7.0667782929957941
 51
94.014733775014648
1001
ACDBBLOCKREPETAG
1070
     1
1071
      374
1005
13A971
  0
CIRCLE
  5
13A972
  8
OBJECT
 10
4000.0
 20
-199.99999999999909
 30
0.0
 40
57.0
1001
ACDBBLOCKREPETAG
1070
     1
1071
      375
1005
13A972
  0
POINT
  5
13A973
  8
DOTS
 10
4000.0
 20
-199.99999999999909
 30
0.0
1001
ACDBBLOCKREPETAG
1070
     1
1071
      434
1005
13A973
  0
ARC
  5
13A974
  8
OBJECT
 10
4000.0
 20
-199.99999999999909
 30
0.0
 40
72.0
 50
61.877817547648696
 51
118.1221824523513
1001
ACDBBLOCKREPETAG
1070
     1
1071
      441
1005
13A974
  0
LINE
  5
13A975
  8
OBJECT
 10
3960.0907278943841
 20
-136.49999999999909
 30
0.0
 11
3966.0625575506938
 21
-136.49999999999909
 31
0.0
1001
ACDBBLOCKREPETAG
1070
     1
1071
      442
1005
13A975
  0
LINE
  5
13A976
  8
OBJECT
 10
4033.9374424493049
 20
-136.49999999999909
 30
0.0
 11
4039.9092721056159
 21
-136.49999999999909
 31
0.0
1001
ACDBBLOCKREPETAG
1070
     1
1071
      443
1005
13A976
  0
LINE
  5
13A977
  8
CENTER
 10
4101.0
 20
-199.99999999999909
 30
0.0
 11
4080.0
 21
-199.99999999999909
 31
0.0
1001
ACDBBLOCKREPETAG
1070
     1
1071
        0
1005
13A977
  0
LINE
  5
13A978
  8
OBJECT
 10
4083.0
 20
-137.99999999999909
 30
0.0
 11
4080.0
 21
-137.99999999999909
 31
0.0
1001
ACDBBLOCKREPETAG
1070
     1
1071
        1
1005
13A978
  0
ARC
  5
13A979
  8
OBJECT
 10
4083.0
 20
-140.99999999999909
 30
0.0
 40
3.0
 50
0.0
 51
90.0
1001
ACDBBLOCKREPETAG
1070
     1
1071
        2
1005
13A979
  0
LINE
  5
13A97A
  8
OBJECT
 10
4080.0
 20
-261.99999999999909
 30
0.0
 11
4083.0
 21
-261.99999999999909
 31
0.0
1001
ACDBBLOCKREPETAG
1070
     1
1071
        3
1005
13A97A
  0
ARC
  5
13A97B
  8
OBJECT
 10
4083.0
 20
-258.99999999999909
 30
0.0
 40
3.0
 50
270.0
 51
0.0
1001
ACDBBLOCKREPETAG
1070
     1
1071
        4
1005
13A97B
  0
LINE
  5
13A97C
  8
OBJECT
 10
4086.0
 20
-258.99999999999909
 30
0.0
 11
4086.0
 21
-140.99999999999909
 31
0.0
1001
ACDBBLOCKREPETAG
1070
     1
1071
        5
1005
13A97C
  0
LINE
  5
13A97D
  8
SLIM
 10
3914.9999999999941
 20
-769.47385309434685
 30
0.0
 11
3929.4738530943409
 21
-754.99999999999955
 31
0.0
1001
GRADIENTCOLOR1ACI
1070
     5
1001
GRADIENTCOLOR2ACI
1070
     2
1001
ACAD
1010
0.0
1020
0.0
1030
0.0
  0
LINE
  5
13A97E
  8
SLIM
 10
3914.9999999999941
 20
-787.43436533648469
 30
0.0
 11
3947.434365336479
 21
-754.99999999999955
 31
0.0
1001
GRADIENTCOLOR1ACI
1070
     5
1001
GRADIENTCOLOR2ACI
1070
     2
1001
ACAD
1010
0.0
1020
0.0
1030
0.0
  0
LINE
  5
13A97F
  8
SLIM
 10
3914.9999999999941
 20
-805.39487757862241
 30
0.0
 11
3965.3948775786171
 21
-754.99999999999955
 31
0.0
1001
GRADIENTCOLOR1ACI
1070
     5
1001
GRADIENTCOLOR2ACI
1070
     2
1001
ACAD
1010
0.0
1020
0.0
1030
0.0
  0
LINE
  5
13A980
  8
SLIM
 10
3914.999999999995
 20
-823.35538982076014
 30
0.0
 11
3983.355389820756
 21
-754.99999999999955
 31
0.0
1001
GRADIENTCOLOR1ACI
1070
     5
1001
GRADIENTCOLOR2ACI
1070
     2
1001
ACAD
1010
0.0
1020
0.0
1030
0.0
  0
LINE
  5
13A981
  8
SLIM
 10
3914.999999999995
 20
-841.31590206289775
 30
0.0
 11
4001.3159020628941
 21
-754.99999999999955
 31
0.0
1001
GRADIENTCOLOR1ACI
1070
     5
1001
GRADIENTCOLOR2ACI
1070
     2
1001
ACAD
1010
0.0
1020
0.0
1030
0.0
  0
LINE
  5
13A982
  8
SLIM
 10
3914.9999999999968
 20
-859.27641430503536
 30
0.0
 11
4019.2764143050308
 21
-754.99999999999955
 31
0.0
1001
GRADIENTCOLOR1ACI
1070
     5
1001
GRADIENTCOLOR2ACI
1070
     2
1001
ACAD
1010
0.0
1020
0.0
1030
0.0
  0
LINE
  5
13A983
  8
SLIM
 10
3914.9999999999968
 20
-877.2369265471732
 30
0.0
 11
4037.2369265471689
 21
-754.99999999999955
 31
0.0
1001
GRADIENTCOLOR1ACI
1070
     5
1001
GRADIENTCOLOR2ACI
1070
     2
1001
ACAD
1010
0.0
1020
0.0
1030
0.0
  0
LINE
  5
13A984
  8
SLIM
 10
3914.9999999999968
 20
-895.19743878931092
 30
0.0
 11
4055.1974387893079
 21
-754.99999999999955
 31
0.0
1001
GRADIENTCOLOR1ACI
1070
     5
1001
GRADIENTCOLOR2ACI
1070
     2
1001
ACAD
1010
0.0
1020
0.0
1030
0.0
  0
LINE
  5
13A985
  8
SLIM
 10
3914.9999999999991
 20
-913.15795103144865
 30
0.0
 11
4073.157951031445
 21
-754.99999999999955
 31
0.0
1001
GRADIENTCOLOR1ACI
1070
     5
1001
GRADIENTCOLOR2ACI
1070
     2
1001
ACAD
1010
0.0
1020
0.0
1030
0.0
  0
LINE
  5
13A986
  8
SLIM
 10
3914.9999999999991
 20
-931.11846327358569
 30
0.0
 11
4085.0000000000068
 21
-761.11846327357694
 31
0.0
1001
GRADIENTCOLOR1ACI
1070
     5
1001
GRADIENTCOLOR2ACI
1070
     2
1001
ACAD
1010
0.0
1020
0.0
1030
0.0
  0
LINE
  5
13A987
  8
SLIM
 10
3914.9999999999991
 20
-949.07897551572387
 30
0.0
 11
4085.0000000000068
 21
-779.07897551571614
 31
0.0
1001
GRADIENTCOLOR1ACI
1070
     5
1001
GRADIENTCOLOR2ACI
1070
     2
1001
ACAD
1010
0.0
1020
0.0
1030
0.0
  0
LINE
  5
13A988
  8
SLIM
 10
3915.0
 20
-967.03948775786148
 30
0.0
 11
4085.0000000000068
 21
-797.039487757855
 31
0.0
1001
GRADIENTCOLOR1ACI
1070
     5
1001
GRADIENTCOLOR2ACI
1070
     2
1001
ACAD
1010
0.0
1020
0.0
1030
0.0
  0
LINE
  5
13A989
  8
SLIM
 10
3915.283600749558
 20
-984.71639925044155
 30
0.0
 11
4085.0000000000059
 21
-814.99999999999375
 31
0.0
1001
GRADIENTCOLOR1ACI
1070
     5
1001
GRADIENTCOLOR2ACI
1070
     2
1001
ACAD
1010
0.0
1020
0.0
1030
0.0
  0
LINE
  5
13A98A
  8
SLIM
 10
3917.4979104780409
 20
-1000.462601764097
 30
0.0
 11
4085.000000000005
 21
-832.96051224213272
 31
0.0
1001
GRADIENTCOLOR1ACI
1070
     5
1001
GRADIENTCOLOR2ACI
1070
     2
1001
ACAD
1010
0.0
1020
0.0
1030
0.0
  0
LINE
  5
13A98B
  8
SLIM
 10
3919.7122202065239
 20
-1016.2088042777521
 30
0.0
 11
4085.0000000000041
 21
-850.92102448427181
 31
0.0
1001
GRADIENTCOLOR1ACI
1070
     5
1001
GRADIENTCOLOR2ACI
1070
     2
1001
ACAD
1010
0.0
1020
0.0
1030
0.0
  0
LINE
  5
13A98C
  8
SLIM
 10
3921.9265299350068
 20
-1031.955006791407
 30
0.0
 11
4085.0000000000032
 21
-868.88153672641045
 31
0.0
1001
GRADIENTCOLOR1ACI
1070
     5
1001
GRADIENTCOLOR2ACI
1070
     2
1001
ACAD
1010
0.0
1020
0.0
1030
0.0
  0
LINE
  5
13A98D
  8
SLIM
 10
3924.1408396634902
 20
-1047.701209305063
 30
0.0
 11
4085.0000000000032
 21
-886.84204896854965
 31
0.0
1001
GRADIENTCOLOR1ACI
1070
     5
1001
GRADIENTCOLOR2ACI
1070
     2
1001
ACAD
1010
0.0
1020
0.0
1030
0.0
  0
LINE
  5
13A98E
  8
SLIM
 10
3926.3551493919731
 20
-1063.4474118187179
 30
0.0
 11
4085.0000000000032
 21
-904.80256121068828
 31
0.0
1001
GRADIENTCOLOR1ACI
1070
     5
1001
GRADIENTCOLOR2ACI
1070
     2
1001
ACAD
1010
0.0
1020
0.0
1030
0.0
  0
LINE
  5
13A98F
  8
SLIM
 10
3928.569459120456
 20
-1079.193614332373
 30
0.0
 11
4085.0000000000009
 21
-922.76307345282714
 31
0.0
1001
GRADIENTCOLOR1ACI
1070
     5
1001
GRADIENTCOLOR2ACI
1070
     2
1001
ACAD
1010
0.0
1020
0.0
1030
0.0
  0
LINE
  5
13A990
  8
SLIM
 10
3930.783768848939
 20
-1094.939816846028
 30
0.0
 11
4085.0000000000009
 21
-940.72358569496646
 31
0.0
1001
GRADIENTCOLOR1ACI
1070
     5
1001
GRADIENTCOLOR2ACI
1070
     2
1001
ACAD
1010
0.0
1020
0.0
1030
0.0
  0
LINE
  5
13A991
  8
SLIM
 10
3938.6840979371082
 20
-1104.999999999997
 30
0.0
 11
4085.0
 21
-958.68409793710521
 31
0.0
1001
GRADIENTCOLOR1ACI
1070
     5
1001
GRADIENTCOLOR2ACI
1070
     2
1001
ACAD
1010
0.0
1020
0.0
1030
0.0
  0
LINE
  5
13A992
  8
SLIM
 10
3943.0
 20
-1118.644610179244
 30
0.0
 11
3956.6446101792458
 21
-1104.999999999997
 31
0.0
1001
GRADIENTCOLOR1ACI
1070
     5
1001
GRADIENTCOLOR2ACI
1070
     2
1001
ACAD
1010
0.0
1020
0.0
1030
0.0
  0
LINE
  5
13A993
  8
SLIM
 10
3956.6446101792458
 20
-1104.999999999997
 30
0.0
 11
4085.0
 21
-976.64461017924395
 31
0.0
1001
GRADIENTCOLOR1ACI
1070
     5
1001
GRADIENTCOLOR2ACI
1070
     2
1001
ACAD
1010
0.0
1020
0.0
1030
0.0
  0
LINE
  5
13A994
  8
SLIM
 10
3944.6051224213852
 20
-1134.999999999998
 30
0.0
 11
3974.6051224213852
 21
-1104.999999999997
 31
0.0
1001
GRADIENTCOLOR1ACI
1070
     5
1001
GRADIENTCOLOR2ACI
1070
     2
1001
ACAD
1010
0.0
1020
0.0
1030
0.0
  0
LINE
  5
13A995
  8
SLIM
 10
3974.6051224213852
 20
-1104.999999999997
 30
0.0
 11
4083.0518371543649
 21
-996.55328526701703
 31
0.0
1001
GRADIENTCOLOR1ACI
1070
     5
1001
GRADIENTCOLOR2ACI
1070
     2
1001
ACAD
1010
0.0
1020
0.0
1030
0.0
  0
LINE
  5
13A996
  8
SLIM
 10
3962.5656346635228
 20
-1134.999999999998
 30
0.0
 11
3992.5656346635242
 21
-1104.999999999997
 31
0.0
1001
GRADIENTCOLOR1ACI
1070
     5
1001
GRADIENTCOLOR2ACI
1070
     2
1001
ACAD
1010
0.0
1020
0.0
1030
0.0
  0
LINE
  5
13A997
  8
SLIM
 10
3992.5656346635242
 20
-1104.999999999997
 30
0.0
 11
4080.1128442420149
 21
-1017.452790421505
 31
0.0
1001
GRADIENTCOLOR1ACI
1070
     5
1001
GRADIENTCOLOR2ACI
1070
     2
1001
ACAD
1010
0.0
1020
0.0
1030
0.0
  0
LINE
  5
13A998
  8
SLIM
 10
3980.5261469056618
 20
-1134.999999999998
 30
0.0
 11
4010.52614690566
 21
-1104.999999999997
 31
0.0
1001
GRADIENTCOLOR1ACI
1070
     5
1001
GRADIENTCOLOR2ACI
1070
     2
1001
ACAD
1010
0.0
1020
0.0
1030
0.0
  0
LINE
  5
13A999
  8
SLIM
 10
4010.52614690566
 20
-1104.999999999997
 30
0.0
 11
4077.173851329665
 21
-1038.352295575992
 31
0.0
1001
GRADIENTCOLOR1ACI
1070
     5
1001
GRADIENTCOLOR2ACI
1070
     2
1001
ACAD
1010
0.0
1020
0.0
1030
0.0
  0
LINE
  5
13A99A
  8
SLIM
 10
3998.4866591477999
 20
-1134.999999999998
 30
0.0
 11
4028.4866591478012
 21
-1104.999999999997
 31
0.0
1001
GRADIENTCOLOR1ACI
1070
     5
1001
GRADIENTCOLOR2ACI
1070
     2
1001
ACAD
1010
0.0
1020
0.0
1030
0.0
  0
LINE
  5
13A99B
  8
SLIM
 10
4028.4866591478012
 20
-1104.999999999997
 30
0.0
 11
4074.234858417316
 21
-1059.2518007304809
 31
0.0
1001
GRADIENTCOLOR1ACI
1070
     5
1001
GRADIENTCOLOR2ACI
1070
     2
1001
ACAD
1010
0.0
1020
0.0
1030
0.0
  0
LINE
  5
13A99C
  8
SLIM
 10
4016.4471713899379
 20
-1134.999999999998
 30
0.0
 11
4046.4471713899379
 21
-1104.999999999997
 31
0.0
1001
GRADIENTCOLOR1ACI
1070
     5
1001
GRADIENTCOLOR2ACI
1070
     2
1001
ACAD
1010
0.0
1020
0.0
1030
0.0
  0
LINE
  5
13A99D
  8
SLIM
 10
4046.4471713899379
 20
-1104.999999999997
 30
0.0
 11
4071.295865504967
 21
-1080.151305884968
 31
0.0
1001
GRADIENTCOLOR1ACI
1070
     5
1001
GRADIENTCOLOR2ACI
1070
     2
1001
ACAD
1010
0.0
1020
0.0
1030
0.0
  0
LINE
  5
13A99E
  8
SLIM
 10
4034.4076836320769
 20
-1134.999999999998
 30
0.0
 11
4057.0
 21
-1112.4076836320739
 31
0.0
1001
GRADIENTCOLOR1ACI
1070
     5
1001
GRADIENTCOLOR2ACI
1070
     2
1001
ACAD
1010
0.0
1020
0.0
1030
0.0
  0
LINE
  5
13A99F
  8
SLIM
 10
4064.407683632076
 20
-1104.999999999997
 30
0.0
 11
4068.356872592617
 21
-1101.050811039456
 31
0.0
1001
GRADIENTCOLOR1ACI
1070
     5
1001
GRADIENTCOLOR2ACI
1070
     2
1001
ACAD
1010
0.0
1020
0.0
1030
0.0
  0
LINE
  5
13A9A0
  8
SLIM
 10
4052.368195874215
 20
-1134.999999999998
 30
0.0
 11
4057.0
 21
-1130.368195874212
 31
0.0
1001
GRADIENTCOLOR1ACI
1070
     5
1001
GRADIENTCOLOR2ACI
1070
     2
1001
ACAD
1010
0.0
1020
0.0
1030
0.0
  0
LINE
  5
13A9A1
  8
OBJECT
 10
3943.0
 20
-1134.999999999998
 30
0.0
 11
4057.0
 21
-1134.999999999998
 31
0.0
1001
ACDBBLOCKREPETAG
1070
     1
1071
        1
1005
13A9A1
  0
LINE
  5
13A9A2
  8
OBJECT
 10
3932.1984821049668
 20
-1104.999999999997
 30
0.0
 11
4067.8015178950391
 21
-1104.999999999997
 31
0.0
1001
ACDBBLOCKREPETAG
1070
     1
1071
        2
1005
13A9A2
  0
LINE
  5
13A9A3
  8
OBJECT
 10
3943.0
 20
-1134.999999999998
 30
0.0
 11
3943.0
 21
-1109.999999999998
 31
0.0
1001
ACDBBLOCKREPETAG
1070
     1
1071
        3
1005
13A9A3
  0
LINE
  5
13A9A4
  8
OBJECT
 10
3914.9999999999918
 20
-754.99999999999955
 30
0.0
 11
3915.0
 21
-982.69968280914077
 31
0.0
1001
ACDBBLOCKREPETAG
1070
     1
1071
        4
1005
13A9A4
  0
LINE
  5
13A9A5
  8
OBJECT
 10
4085.0000000000068
 20
-754.99999999999955
 30
0.0
 11
4085.0
 21
-982.69968280917203
 31
0.0
1001
ACDBBLOCKREPETAG
1070
     1
1071
        5
1005
13A9A5
  0
LINE
  5
13A9A6
  8
OBJECT
 10
3915.0
 20
-982.69968280914077
 30
0.0
 11
3932.1984821049668
 21
-1104.999999999997
 31
0.0
1001
ACDBBLOCKREPETAG
1070
     1
1071
        6
1005
13A9A6
  0
LINE
  5
13A9A7
  8
OBJECT
 10
4067.8015178950391
 20
-1104.999999999997
 30
0.0
 11
4085.0
 21
-982.69968280917203
 31
0.0
1001
ACDBBLOCKREPETAG
1070
     1
1071
        7
1005
13A9A7
  0
LINE
  5
13A9A8
  8
OBJECT
 10
4085.0000000000068
 20
-754.99999999999955
 30
0.0
 11
3914.9999999999918
 21
-754.99999999999955
 31
0.0
1001
ACDBBLOCKREPETAG
1070
     1
1071
        8
1005
13A9A8
  0
LINE
  5
13A9A9
  8
OBJECT
 10
3943.0
 20
-1109.999999999998
 30
0.0
 11
3942.296875
 21
-1104.999999999997
 31
0.0
1001
ACDBBLOCKREPETAG
1070
     1
1071
       10
1005
13A9A9
  0
LINE
  5
13A9AA
  8
OBJECT
 10
4057.0
 20
-1134.999999999998
 30
0.0
 11
4057.0
 21
-1109.999999999998
 31
0.0
1001
ACDBBLOCKREPETAG
1070
     1
1071
       11
1005
13A9AA
  0
LINE
  5
13A9AB
  8
OBJECT
 10
4057.0
 20
-1109.999999999998
 30
0.0
 11
4057.7031249999982
 21
-1104.999999999997
 31
0.0
1001
ACDBBLOCKREPETAG
1070
     1
1071
       12
1005
13A9AB
  0
LINE
  5
13A9AC
  8
OBJECT
 10
1943.0
 20
-559.99999999999955
 30
0.0
 11
1943.0
 21
-627.99999999999955
 31
0.0
1001
ACDBBLOCKREPETAG
1070
     1
1071
      206
1005
13A9AC
  0
LINE
  5
13A9AD
  8
OBJECT
 10
1937.0
 20
-633.99999999999955
 30
0.0
 11
1937.0
 21
-630.99999999999955
 31
0.0
1001
ACDBBLOCKREPETAG
1070
     1
1071
      207
1005
13A9AD
  0
LINE
  5
13A9AE
  8
OBJECT
 10
1943.0
 20
-559.99999999999955
 30
0.0
 11
2057.0
 21
-559.99999999999955
 31
0.0
1001
ACDBBLOCKREPETAG
1070
     1
1071
      208
1005
13A9AE
  0
LINE
  5
13A9AF
  8
OBJECT
 10
2060.0
 20
-627.99999999999955
 30
0.0
 11
1940.0
 21
-627.99999999999955
 31
0.0
1001
ACDBBLOCKREPETAG
1070
     1
1071
      209
1005
13A9AF
  0
ARC
  5
13A9B0
  8
OBJECT
 10
1940.0
 20
-630.99999999999955
 30
0.0
 40
3.0
 50
90.0
 51
180.0
1001
ACDBBLOCKREPETAG
1070
     1
1071
      210
1005
13A9B0
  0
LINE
  5
13A9B1
  8
OBJECT
 10
2057.0
 20
-559.99999999999955
 30
0.0
 11
2057.0
 21
-627.99999999999955
 31
0.0
1001
ACDBBLOCKREPETAG
1070
     1
1071
      211
1005
13A9B1
  0
LINE
  5
13A9B2
  8
OBJECT
 10
2063.0
 20
-633.99999999999955
 30
0.0
 11
2063.0
 21
-630.99999999999955
 31
0.0
1001
ACDBBLOCKREPETAG
1070
     1
1071
      212
1005
13A9B2
  0
ARC
  5
13A9B3
  8
OBJECT
 10
2060.0
 20
-630.99999999999955
 30
0.0
 40
3.0
 50
0.0
 51
90.0
1001
ACDBBLOCKREPETAG
1070
     1
1071
      213
1005
13A9B3
  0
LINE
  5
13A9B4
  8
CENTER
 10
2000.0
 20
-544.99999999999955
 30
0.0
 11
2000.0
 21
-899.99999999999955
 31
0.0
1001
ACDBBLOCKREPETAG
1070
     1
1071
        4
1005
13A9B4
  0
LINE
  5
13A9B5
  8
OBJECT
 10
1925.0
 20
-633.99999999999955
 30
0.0
 11
1925.0
 21
-887.99999999999955
 31
0.0
1001
ACDBBLOCKREPETAG
1070
     1
1071
        5
1005
13A9B5
  0
LINE
  5
13A9B6
  8
OBJECT
 10
1920.0
 20
-887.99999999999955
 30
0.0
 11
2080.0
 21
-887.99999999999955
 31
0.0
1001
ACDBBLOCKREPETAG
1070
     1
1071
        8
1005
13A9B6
  0
LINE
  5
13A9B7
  8
OBJECT
 10
2080.0
 20
-633.99999999999955
 30
0.0
 11
1925.0
 21
-633.99999999999955
 31
0.0
1001
ACDBBLOCKREPETAG
1070
     1
1071
        9
1005
13A9B7
  0
LINE
  5
13A9B8
  8
OBJECT
 10
1920.0
 20
-887.99999999999955
 30
0.0
 11
1920.0
 21
-899.99999999999955
 31
0.0
1001
ACDBBLOCKREPETAG
1070
     1
1071
       10
1005
13A9B8
  0
LINE
  5
13A9B9
  8
OBJECT
 10
1920.0
 20
-899.99999999999955
 30
0.0
 11
2080.0
 21
-899.99999999999955
 31
0.0
1001
ACDBBLOCKREPETAG
1070
     1
1071
       11
1005
13A9B9
  0
LINE
  5
13A9BA
  8
OBJECT
 10
2080.0
 20
-899.99999999999955
 30
0.0
 11
2080.0
 21
-887.99999999999955
 31
0.0
1001
ACDBBLOCKREPETAG
1070
     1
1071
       12
1005
13A9BA
  0
LINE
  5
13A9BB
  8
OBJECT
 10
2074.9999999998622
 20
-757.99999999985016
 30
0.0
 11
2075.0
 21
-887.99999999999955
 31
0.0
1001
ACDBBLOCKREPETAG
1070
     1
1071
       14
1005
13A9BB
  0
LINE
  5
13A9BC
  8
OBJECT
 10
2074.9999908029849
 20
-757.99998602702112
 30
0.0
 11
2080.0
 21
-757.99998602702112
 31
0.0
1001
ACDBBLOCKREPETAG
1070
     1
1071
       15
1005
13A9BC
  0
ARC
  5
13A9BD
  8
OBJECT
 10
2200.6872746716731
 20
-749.40809941010718
 30
0.0
 40
170.6350503965856
 50
137.44134459184301
 51
149.91949581336559
1001
ACDBBLOCKREPETAG
1070
     1
1071
       25
1005
13A9BD
  0
ARC
  5
13A9BE
  8
OBJECT
 10
2118.8455987040511
 20
-705.88272669536445
 30
0.0
 40
78.072222021763665
 50
147.45515310381529
 51
164.66365997719581
1001
ACDBBLOCKREPETAG
1070
     1
1071
       26
1005
13A9BE
  0
ARC
  5
13A9BF
  8
OBJECT
 10
2085.7554349608731
 20
-695.99999999999955
 30
0.0
 40
43.55353926885617
 50
165.6884523007466
 51
194.3115476992534
1001
ACDBBLOCKREPETAG
1070
     1
1071
       27
1005
13A9BF
  0
ARC
  5
13A9C0
  8
OBJECT
 10
2200.6872746716731
 20
-642.59190058989179
 30
0.0
 40
170.6350503965856
 50
210.0805041866343
 51
222.55865540815699
1001
ACDBBLOCKREPETAG
1070
     1
1071
       28
1005
13A9C0
  0
ARC
  5
13A9C1
  8
OBJECT
 10
2118.8455987040511
 20
-686.11727330463452
 30
0.0
 40
78.072222021763665
 50
195.33634002280411
 51
212.54484689618471
1001
ACDBBLOCKREPETAG
1070
     1
1071
       29
1005
13A9C1
  0
LINE
  5
13A9C2
  8
HIDDEN
 10
2052.5
 20
-559.99999999999955
 30
0.0
 11
2052.5
 21
-633.99999999999955
 31
0.0
1001
ACDBBLOCKREPETAG
1070
     1
1071
      250
1005
13A9C2
  0
LINE
  5
13A9C3
  8
HIDDEN
 10
1947.5
 20
-559.99999999999955
 30
0.0
 11
1947.5
 21
-633.99999999999955
 31
0.0
1001
ACDBBLOCKREPETAG
1070
     1
1071
      251
1005
13A9C3
  0
POINT
  5
13A9C4
  8
DOTS
 10
2000.0
 20
-754.99999999999955
 30
0.0
1001
ACDBBLOCKREPETAG
1070
     1
1071
      260
1005
13A9C4
  0
ARC
  5
13A9C5
  8
OBJECT
 10
2000.0
 20
-199.99999999999909
 30
0.0
 40
80.0
 50
50.804965661401717
 51
309.19496742598432
1001
ACDBBLOCKREPETAG
1070
     1
1071
      348
1005
13A9C5
  0
CIRCLE
  5
13A9C6
  8
OBJECT
 10
2000.0
 20
-199.99999999999909
 30
0.0
 40
75.0
1001
ACDBBLOCKREPETAG
1070
     1
1071
      349
1005
13A9C6
  0
LINE
  5
13A9C7
  8
OBJECT
 10
1963.6238040660271
 20
-162.14471807827491
 30
0.0
 11
2037.0841102714221
 21
-174.5180316957439
 31
0.0
1001
ACDBBLOCKREPETAG
1070
     1
1071
      350
1005
13A9C7
  0
LINE
  5
13A9C8
  8
OBJECT
 10
2043.269476050712
 20
-170.26782143372259
 30
0.0
 11
2037.0841102714221
 21
-174.5180316957439
 31
0.0
1001
ACDBBLOCKREPETAG
1070
     1
1071
      351
1005
13A9C8
  0
CIRCLE
  5
13A9C9
  8
OBJECT
 10
2000.0
 20
-199.99999999999909
 30
0.0
 40
52.5
1001
ACDBBLOCKREPETAG
1070
     1
1071
      352
1005
13A9C9
  0
ARC
  5
13A9CA
  8
OBJECT
 10
2000.0
 20
-199.99999999999909
 30
0.0
 40
50.0
 50
131.70180964355251
 51
168.52376955958479
1001
ACDBBLOCKREPETAG
1070
     1
1071
      353
1005
13A9CA
  0
ARC
  5
13A9CB
  8
OBJECT
 10
2000.0
 20
-199.99999999999909
 30
0.0
 40
50.0
 50
238.8199429999047
 51
34.49450625011707
1001
ACDBBLOCKREPETAG
1070
     1
1071
      354
1005
13A9CB
  0
LINE
  5
13A9CC
  8
OBJECT
 10
2042.2018956920181
 20
-137.99999999999909
 30
0.0
 11
2080.0
 21
-137.99999999999909
 31
0.0
1001
ACDBBLOCKREPETAG
1070
     1
1071
      355
1005
13A9CC
  0
LINE
  5
13A9CD
  8
OBJECT
 10
2042.2018956920181
 20
-261.99999999999909
 30
0.0
 11
2080.0
 21
-261.99999999999909
 31
0.0
1001
ACDBBLOCKREPETAG
1070
     1
1071
      356
1005
13A9CD
  0
LINE
  5
13A9CE
  8
CENTER
 10
2080.0
 20
-199.99999999999909
 30
0.0
 11
1905.0
 21
-199.99999999999909
 31
0.0
1001
ACDBBLOCKREPETAG
1070
     1
1071
      364
1005
13A9CE
  0
LINE
  5
13A9CF
  8
CENTER
 10
2000.0
 20
-294.99999999999898
 30
0.0
 11
2000.0
 21
-104.9999999999991
 31
0.0
1001
ACDBBLOCKREPETAG
1070
     1
1071
      365
1005
13A9CF
  0
LINE
  5
13A9D0
  8
OBJECT
 10
1947.702309276614
 20
-195.39548645337189
 30
0.0
 11
1970.4540343856349
 21
-193.79865146436981
 31
0.0
1001
ACDBBLOCKREPETAG
1070
     1
1071
      368
1005
13A9D0
  0
LINE
  5
13A9D1
  8
OBJECT
 10
1948.416473471706
 20
-190.2332302727674
 30
0.0
 11
1966.988435262901
 21
-188.92975272660161
 31
0.0
1001
ACDBBLOCKREPETAG
1070
     1
1071
      369
1005
13A9D1
  0
LINE
  5
13A9D2
  8
OBJECT
 10
1974.1135374752771
 20
-242.77722592637201
 30
0.0
 11
1982.136698837405
 21
-234.1690987954708
 31
0.0
1001
ACDBBLOCKREPETAG
1070
     1
1071
      370
1005
13A9D2
  0
ARC
  5
13A9D3
  8
OBJECT
 10
1982.1160071245381
 20
-183.28188966318251
 30
0.0
 40
60.031113246032611
 50
256.417442267745
 51
262.33936106086588
1001
ACDBBLOCKREPETAG
1070
     1
1071
      371
1005
13A9D3
  0
LINE
  5
13A9D4
  8
OBJECT
 10
1977.612599732513
 20
-197.67495277149911
 30
0.0
 11
1982.136698837405
 21
-234.1690987954708
 31
0.0
1001
ACDBBLOCKREPETAG
1070
     1
1071
      372
1005
13A9D4
  0
ARC
  5
13A9D5
  8
OBJECT
 10
1967.6885653456411
 20
-198.90521351131881
 30
0.0
 40
10.0
 50
7.0667782929957941
 51
94.014734370532395
1001
ACDBBLOCKREPETAG
1070
     1
1071
      373
1005
13A9D5
  0
ARC
  5
13A9D6
  8
OBJECT
 10
1970.944125370974
 20
-200.78147401875589
 30
0.0
 40
7.0
 50
7.0667782929957941
 51
94.014733775014648
1001
ACDBBLOCKREPETAG
1070
     1
1071
      374
1005
13A9D6
  0
CIRCLE
  5
13A9D7
  8
OBJECT
 10
2000.0
 20
-199.99999999999909
 30
0.0
 40
57.0
1001
ACDBBLOCKREPETAG
1070
     1
1071
      375
1005
13A9D7
  0
POINT
  5
13A9D8
  8
DOTS
 10
2000.0
 20
-199.99999999999909
 30
0.0
1001
ACDBBLOCKREPETAG
1070
     1
1071
      434
1005
13A9D8
  0
ARC
  5
13A9D9
  8
OBJECT
 10
2000.0
 20
-199.99999999999909
 30
0.0
 40
72.0
 50
61.877817547648696
 51
118.1221824523513
1001
ACDBBLOCKREPETAG
1070
     1
1071
      441
1005
13A9D9
  0
LINE
  5
13A9DA
  8
OBJECT
 10
1960.0907278943851
 20
-136.49999999999909
 30
0.0
 11
1966.062557550692
 21
-136.49999999999909
 31
0.0
1001
ACDBBLOCKREPETAG
1070
     1
1071
      442
1005
13A9DA
  0
LINE
  5
13A9DB
  8
OBJECT
 10
2033.9374424493069
 20
-136.49999999999909
 30
0.0
 11
2039.9092721056149
 21
-136.49999999999909
 31
0.0
1001
ACDBBLOCKREPETAG
1070
     1
1071
      443
1005
13A9DB
  0
LINE
  5
13A9DC
  8
OBJECT
 10
3943.0
 20
-1209.9999999999959
 30
0.0
 11
4057.0
 21
-1209.9999999999959
 31
0.0
1001
ACDBBLOCKREPETAG
1070
     1
1071
        0
1005
13A9DC
  0
LINE
  5
13A9DD
  8
OBJECT
 10
3943.0
 20
-1209.9999999999959
 30
0.0
 11
3943.0
 21
-1109.9999999999959
 31
0.0
1001
ACDBBLOCKREPETAG
1070
     1
1071
        1
1005
13A9DD
  0
LINE
  5
13A9DE
  8
OBJECT
 10
4057.0
 20
-1209.9999999999959
 30
0.0
 11
4057.0
 21
-1109.9999999999959
 31
0.0
1001
ACDBBLOCKREPETAG
1070
     1
1071
        2
1005
13A9DE
  0
LINE
  5
13A9DF
  8
OBJECT
 10
3943.0
 20
-1109.9999999999959
 30
0.0
 11
4057.0
 21
-1109.9999999999959
 31
0.0
1001
ACDBBLOCKREPETAG
1070
     1
1071
        3
1005
13A9DF
  0
LINE
  5
13A9E0
  8
HIDDEN
 10
3950.0
 20
-1109.9999999999959
 30
0.0
 11
3950.0
 21
-1209.9999999999959
 31
0.0
1001
ACDBBLOCKREPETAG
1070
     1
1071
        4
1005
13A9E0
  0
LINE
  5
13A9E1
  8
HIDDEN
 10
4050.0
 20
-1109.9999999999959
 30
0.0
 11
4050.0
 21
-1209.9999999999959
 31
0.0
1001
ACDBBLOCKREPETAG
1070
     1
1071
        5
1005
13A9E1
  0
LINE
  5
13A9E2
  8
CENTER
 10
4000.0
 20
-899.99999999999955
 30
0.0
 11
4000.0
 21
-1224.9999999999959
 31
0.0
1001
ACDBBLOCKREPETAG
1070
     1
1071
        6
1005
13A9E2
  0
LINE
  5
13A9E3
  8
OBJECT
 10
3925.0
 20
-899.99999999999955
 30
0.0
 11
3925.0
 21
-981.99999999999613
 31
0.0
1001
ACDBBLOCKREPETAG
1070
     1
1071
        7
1005
13A9E3
  0
LINE
  5
13A9E4
  8
OBJECT
 10
4075.0
 20
-899.99999999999955
 30
0.0
 11
4075.0
 21
-981.99999999999613
 31
0.0
1001
ACDBBLOCKREPETAG
1070
     1
1071
        8
1005
13A9E4
  0
LINE
  5
13A9E5
  8
OBJECT
 10
3925.0
 20
-981.99999999999613
 30
0.0
 11
4075.0
 21
-981.99999999999613
 31
0.0
1001
ACDBBLOCKREPETAG
1070
     1
1071
        9
1005
13A9E5
  0
LINE
  5
13A9E6
  8
OBJECT
 10
3925.0
 20
-981.99999999999613
 30
0.0
 11
3943.0
 21
-1109.9999999999959
 31
0.0
1001
ACDBBLOCKREPETAG
1070
     1
1071
       10
1005
13A9E6
  0
LINE
  5
13A9E7
  8
OBJECT
 10
4057.0
 20
-1109.9999999999959
 30
0.0
 11
4075.0
 21
-981.99999999999613
 31
0.0
1001
ACDBBLOCKREPETAG
1070
     1
1071
       11
1005
13A9E7
  0
LINE
  5
13A9E8
  8
OBJECT
 10
1943.0
 20
-1209.9999999999959
 30
0.0
 11
2057.0
 21
-1209.9999999999959
 31
0.0
1001
ACDBBLOCKREPETAG
1070
     1
1071
        0
1005
13A9E8
  0
LINE
  5
13A9E9
  8
OBJECT
 10
1943.0
 20
-1209.9999999999959
 30
0.0
 11
1943.0
 21
-1109.9999999999959
 31
0.0
1001
ACDBBLOCKREPETAG
1070
     1
1071
        1
1005
13A9E9
  0
LINE
  5
13A9EA
  8
OBJECT
 10
2057.0
 20
-1209.9999999999959
 30
0.0
 11
2057.0
 21
-1109.9999999999959
 31
0.0
1001
ACDBBLOCKREPETAG
1070
     1
1071
        2
1005
13A9EA
  0
LINE
  5
13A9EB
  8
OBJECT
 10
1943.0
 20
-1109.9999999999959
 30
0.0
 11
2057.0
 21
-1109.9999999999959
 31
0.0
1001
ACDBBLOCKREPETAG
1070
     1
1071
        3
1005
13A9EB
  0
LINE
  5
13A9EC
  8
HIDDEN
 10
1950.0
 20
-1109.9999999999959
 30
0.0
 11
1950.0
 21
-1209.9999999999959
 31
0.0
1001
ACDBBLOCKREPETAG
1070
     1
1071
        4
1005
13A9EC
  0
LINE
  5
13A9ED
  8
HIDDEN
 10
2050.0
 20
-1109.9999999999959
 30
0.0
 11
2050.0
 21
-1209.9999999999959
 31
0.0
1001
ACDBBLOCKREPETAG
1070
     1
1071
        5
1005
13A9ED
  0
LINE
  5
13A9EE
  8
CENTER
 10
2000.0
 20
-899.99999999999955
 30
0.0
 11
2000.0
 21
-1224.9999999999959
 31
0.0
1001
ACDBBLOCKREPETAG
1070
     1
1071
        6
1005
13A9EE
  0
LINE
  5
13A9EF
  8
OBJECT
 10
1925.0
 20
-899.99999999999955
 30
0.0
 11
1925.0
 21
-981.99999999999613
 31
0.0
1001
ACDBBLOCKREPETAG
1070
     1
1071
        7
1005
13A9EF
  0
LINE
  5
13A9F0
  8
OBJECT
 10
2075.0
 20
-899.99999999999955
 30
0.0
 11
2075.0
 21
-981.99999999999613
 31
0.0
1001
ACDBBLOCKREPETAG
1070
     1
1071
        8
1005
13A9F0
  0
LINE
  5
13A9F1
  8
OBJECT
 10
1925.0
 20
-981.99999999999613
 30
0.0
 11
2075.0
 21
-981.99999999999613
 31
0.0
1001
ACDBBLOCKREPETAG
1070
     1
1071
        9
1005
13A9F1
  0
LINE
  5
13A9F2
  8
OBJECT
 10
1925.0
 20
-981.99999999999613
 30
0.0
 11
1943.0
 21
-1109.9999999999959
 31
0.0
1001
ACDBBLOCKREPETAG
1070
     1
1071
       10
1005
13A9F2
  0
LINE
  5
13A9F3
  8
OBJECT
 10
2057.0
 20
-1109.9999999999959
 30
0.0
 11
2075.0
 21
-981.99999999999613
 31
0.0
1001
ACDBBLOCKREPETAG
1070
     1
1071
       11
1005
13A9F3
  0
LINE
  5
13A9F4
  8
OBJECT
 10
2083.0
 20
-634.0
 30
0.0
 11
2080.0
 21
-634.0
 31
0.0
1001
ACDBBLOCKREPETAG
1070
     1
1071
        1
1005
13A9F4
  0
ARC
  5
13A9F5
  8
OBJECT
 10
2083.0
 20
-637.0
 30
0.0
 40
3.0
 50
0.0
 51
90.0
1001
ACDBBLOCKREPETAG
1070
     1
1071
        2
1005
13A9F5
  0
LINE
  5
13A9F6
  8
OBJECT
 10
2080.0
 20
-758.0
 30
0.0
 11
2083.0
 21
-758.0
 31
0.0
1001
ACDBBLOCKREPETAG
1070
     1
1071
        3
1005
13A9F6
  0
ARC
  5
13A9F7
  8
OBJECT
 10
2083.0
 20
-755.0
 30
0.0
 40
3.0
 50
270.0
 51
0.0
1001
ACDBBLOCKREPETAG
1070
     1
1071
        4
1005
13A9F7
  0
LINE
  5
13A9F8
  8
OBJECT
 10
2086.0
 20
-755.0
 30
0.0
 11
2086.0
 21
-637.0
 31
0.0
1001
ACDBBLOCKREPETAG
1070
     1
1071
        5
1005
13A9F8
  0
LINE
  5
13A9F9
  8
CENTER
 10
2101.0
 20
-199.99999999999909
 30
0.0
 11
2080.0
 21
-199.99999999999909
 31
0.0
1001
ACDBBLOCKREPETAG
1070
     1
1071
        0
1005
13A9F9
  0
LINE
  5
13A9FA
  8
OBJECT
 10
2083.0
 20
-137.99999999999909
 30
0.0
 11
2080.0
 21
-137.99999999999909
 31
0.0
1001
ACDBBLOCKREPETAG
1070
     1
1071
        1
1005
13A9FA
  0
ARC
  5
13A9FB
  8
OBJECT
 10
2083.0
 20
-140.99999999999909
 30
0.0
 40
3.0
 50
0.0
 51
90.0
1001
ACDBBLOCKREPETAG
1070
     1
1071
        2
1005
13A9FB
  0
LINE
  5
13A9FC
  8
OBJECT
 10
2080.0
 20
-261.99999999999909
 30
0.0
 11
2083.0
 21
-261.99999999999909
 31
0.0
1001
ACDBBLOCKREPETAG
1070
     1
1071
        3
1005
13A9FC
  0
ARC
  5
13A9FD
  8
OBJECT
 10
2083.0
 20
-258.99999999999909
 30
0.0
 40
3.0
 50
270.0
 51
0.0
1001
ACDBBLOCKREPETAG
1070
     1
1071
        4
1005
13A9FD
  0
LINE
  5
13A9FE
  8
OBJECT
 10
2086.0
 20
-258.99999999999909
 30
0.0
 11
2086.0
 21
-140.99999999999909
 31
0.0
1001
ACDBBLOCKREPETAG
1070
     1
1071
        5
1005
13A9FE
  0
TEXT
  5
13A9FF
  8
SLIM
 10
3771.4000000000001
 20
-1540.666666666664
 30
0.0
 40
28.0
  1
※ 対応スラブ厚　180｛150｝～340
 41
0.75
  0
TEXT
  5
13AA00
  8
SLIM
 10
3733.3000000000011
 20
-1587.333333333331
 30
0.0
 40
28.0
  1
｛｝内はカンペイ立て管との組み合わせの場合
 41
0.75
  0
TEXT
  5
13AA01
  8
SLIM
 10
3611.4999999999991
 20
-1680.666666666664
 30
0.0
 40
28.0
  1
国土交通大臣認定・（財）日本消防設備安全センター性能評定取得品
 41
0.75
  0
TEXT
  5
13AA02
  8
SLIM
 10
3631.1000000000022
 20
-1727.333333333331
 30
0.0
 40
28.0
  1
注）ご採用にあたり、認定書及び評定書の内容をご確認ください。
 41
0.75
  0
TEXT
  5
13AA03
  8
SLIM
 10
3741.625
 20
-1477.499999999998
 30
0.0
 40
35.0
  1
片受けスタイル（S）＋シンドカット
 41
0.75
  0
TEXT
  5
13AA04
  8
SLIM
 10
1856.25
 20
-1477.499999999998
 30
0.0
 40
35.0
  1
片受けスタイル（S）
 41
0.75
  0
TEXT
  5
13AA05
  8
SLIM
 10
0.0
 20
370.0
 30
0.0
 40
100.0
  1
4SHF-0-S
 41
0.75
  0
VIEWPORT
  5
F6BA7
 67
     1
  8
0
 10
145.33033752441401
 20
101.8328354358673
 30
0.0
 40
334.0025019414623
 41
222.19657968139651
 68
     1
 69
     1
1001
ACAD
1000
MVIEW
1002
{
1070
    16
1010
0.0
1020
0.0
1030
0.0
1010
0.0
1020
0.0
1030
1.0
1040
0.0
1040
222.19657968139651
1040
145.33033752441401
1040
101.8328354358673
1040
50.0
1040
0.0
1040
0.0
1070
     0
1070
     0
1070
     1
1070
     1
1070
     0
1070
     0
1070
     0
1070
     0
1040
0.0
1040
0.0
1040
0.0
1040
10.0
1040
10.0
1040
10.0
1040
10.0
1070
     0
1002
{
1002
}
1002
}
  0
VIEWPORT
  5
F6BA9
 67
     1
  8
OBJECT
 10
145.3303314447403
 20
101.8328338861465
 30
0.0
 40
232.5285303115844
 41
162.93253421783439
 68
     2
 69
     2
1001
ACAD
1000
MVIEW
1002
{
1070
    16
1010
0.0
1020
0.0
1030
0.0
1010
0.0
1020
0.0
1030
1.0
1040
0.0
1040
25942.55904403147
1040
2377.604457077377
1040
-7591.5176687056619
1040
50.0
1040
0.0
1040
0.0
1070
     0
1070
   600
1070
     1
1070
     1
1070
     0
1070
     0
1070
     0
1070
     0
1040
0.0
1040
0.0
1040
0.0
1040
1.0
1040
1.0
1040
0.0
1040
0.0
1070
     0
1002
{
1002
}
1002
}
  0
ENDSEC
  0
EOF
