  0
SECTION
  2
HEADER
  9
$ACADVER
  1
AC1009
  9
$INSBASE
 10
0.0
 20
0.0
 30
0.0
  9
$EXTMIN
 10
0.0
 20
-1758.9999999999991
 30
0.0
  9
$EXTMAX
 10
12387.100000000009
 20
770.0
 30
0.0
  9
$LIMMIN
 10
0.0
 20
0.0
  9
$LIMMAX
 10
210.0
 20
297.0
  9
$ORTHOMODE
 70
     0
  9
$REGENMODE
 70
     1
  9
$FILLMODE
 70
     1
  9
$QTEXTMODE
 70
     0
  9
$MIRRTEXT
 70
     0
  9
$DRAGMODE
 70
     2
  9
$LTSCALE
 40
1.0
  9
$OSMODE
 70
   109
  9
$ATTMODE
 70
     1
  9
$TEXTSIZE
 40
4.0
  9
$TRACEWID
 40
0.05
  9
$TEXTSTYLE
  7
STANDARD
  9
$CLAYER
  8
OBJECT
  9
$CELTYPE
  6
BYLAYER
  9
$CECOLOR
 62
   256
  9
$DIMSCALE
 40
10.0
  9
$DIMASZ
 40
2.0
  9
$DIMEXO
 40
1.0
  9
$DIMDLI
 40
10.0
  9
$DIMRND
 40
0.0
  9
$DIMDLE
 40
0.0
  9
$DIMEXE
 40
1.0
  9
$DIMTP
 40
0.0
  9
$DIMTM
 40
0.0
  9
$DIMTXT
 40
3.2000000000000002
  9
$DIMCEN
 40
0.0
  9
$DIMTSZ
 40
0.0
  9
$DIMTOL
 70
     0
  9
$DIMLIM
 70
     0
  9
$DIMTIH
 70
     0
  9
$DIMTOH
 70
     0
  9
$DIMSE1
 70
     0
  9
$DIMSE2
 70
     0
  9
$DIMTAD
 70
     1
  9
$DIMZIN
 70
     8
  9
$DIMBLK
  1
OPEN30
  9
$DIMASO
 70
     1
  9
$DIMSHO
 70
     1
  9
$DIMPOST
  1

  9
$DIMAPOST
  1

  9
$DIMALT
 70
     0
  9
$DIMALTD
 70
     2
  9
$DIMALTF
 40
25.399999999999999
  9
$DIMLFAC
 40
1.0
  9
$DIMTOFL
 70
     1
  9
$DIMTVP
 40
0.0
  9
$DIMTIX
 70
     0
  9
$DIMSOXD
 70
     0
  9
$DIMSAH
 70
     0
  9
$DIMBLK1
  1

  9
$DIMBLK2
  1

  9
$DIMSTYLE
  2
S10
  9
$DIMCLRD
 70
   256
  9
$DIMCLRE
 70
   256
  9
$DIMCLRT
 70
   256
  9
$DIMTFAC
 40
1.0
  9
$DIMGAP
 40
0.9
  9
$LUNITS
 70
     2
  9
$LUPREC
 70
     2
  9
$SKETCHINC
 40
0.1
  9
$FILLETRAD
 40
0.0
  9
$AUNITS
 70
     0
  9
$AUPREC
 70
     2
  9
$MENU
  1
ACAD
  9
$ELEVATION
 40
0.0
  9
$PELEVATION
 40
0.0
  9
$THICKNESS
 40
0.0
  9
$LIMCHECK
 70
     0
  9
$BLIPMODE
 70
     0
  9
$CHAMFERA
 40
2.0
  9
$CHAMFERB
 40
2.0
  9
$SKPOLY
 70
     0
  9
$TDCREATE
 40
2453095.4929404748
  9
$TDUPDATE
 40
2456584.6914423611
  9
$TDINDWG
 40
18.366093923600001
  9
$TDUSRTIMER
 40
18.366093287000002
  9
$USRTIMER
 70
     1
  9
$ANGBASE
 50
0.0
  9
$ANGDIR
 70
     0
  9
$PDMODE
 70
    35
  9
$PDSIZE
 40
2.0
  9
$PLINEWID
 40
0.0
  9
$COORDS
 70
     1
  9
$SPLFRAME
 70
     0
  9
$SPLINETYPE
 70
     6
  9
$SPLINESEGS
 70
     8
  9
$ATTDIA
 70
     0
  9
$ATTREQ
 70
     1
  9
$HANDLING
 70
     1
  9
$HANDSEED
  5
121D5E
  9
$SURFTAB1
 70
     6
  9
$SURFTAB2
 70
     6
  9
$SURFTYPE
 70
     6
  9
$SURFU
 70
     6
  9
$SURFV
 70
     6
  9
$UCSNAME
  2

  9
$UCSORG
 10
0.0
 20
0.0
 30
0.0
  9
$UCSXDIR
 10
1.0
 20
0.0
 30
0.0
  9
$UCSYDIR
 10
0.0
 20
1.0
 30
0.0
  9
$PUCSNAME
  2

  9
$PUCSORG
 10
0.0
 20
0.0
 30
0.0
  9
$PUCSXDIR
 10
1.0
 20
0.0
 30
0.0
  9
$PUCSYDIR
 10
0.0
 20
1.0
 30
0.0
  9
$USERI1
 70
     0
  9
$USERI2
 70
     0
  9
$USERI3
 70
     0
  9
$USERI4
 70
     0
  9
$USERI5
 70
     0
  9
$USERR1
 40
0.0
  9
$USERR2
 40
0.0
  9
$USERR3
 40
0.0
  9
$USERR4
 40
0.0
  9
$USERR5
 40
0.0
  9
$WORLDVIEW
 70
     1
  9
$SHADEDGE
 70
     3
  9
$SHADEDIF
 70
    70
  9
$TILEMODE
 70
     1
  9
$MAXACTVP
 70
    64
  9
$PLIMCHECK
 70
     0
  9
$PEXTMIN
 10
29.066066288948051
 20
20.366566777229309
 30
0.0
  9
$PEXTMAX
 10
261.5945966005325
 20
183.29910099506381
 30
0.0
  9
$PLIMMIN
 10
-3.17498779296875
 20
-3.1749999523162842
  9
$PLIMMAX
 10
293.83566284179687
 20
206.8406708240509
  9
$UNITMODE
 70
     0
  9
$VISRETAIN
 70
     1
  9
$PLINEGEN
 70
     0
  9
$PSLTSCALE
 70
     1
  0
ENDSEC
  0
SECTION
  2
TABLES
  0
TABLE
  2
VPORT
 70
     1
  0
VPORT
  2
*ACTIVE
 70
     0
 10
0.0
 20
0.0
 11
1.0
 21
1.0
 12
14048.36906738873
 22
-580.50347801910345
 13
0.0
 23
0.0
 14
1.0
 24
1.0
 15
0.0
 25
0.0
 16
0.0
 26
0.0
 36
1.0
 17
0.0
 27
0.0
 37
0.0
 40
20811.385438015132
 41
1.864784546805349
 42
50.0
 43
0.0
 44
0.0
 50
0.0
 51
0.0
 71
     0
 72
   600
 73
     1
 74
     1
 75
     0
 76
     0
 77
     0
 78
     0
  0
ENDTAB
  0
TABLE
  2
LTYPE
 70
     4
  0
LTYPE
  2
CONTINUOUS
 70
     0
  3
Solid line
 72
    65
 73
     0
 40
0.0
  0
LTYPE
  2
PHANTOM2
 70
     0
  3
___ _ _ ___ _ _ ___ _ _ ___ _ _
 72
    65
 73
     6
 40
1.25
 49
0.625
 49
-0.125
 49
0.125
 49
-0.125
 49
0.125
 49
-0.125
  0
LTYPE
  2
ACAD_ISO08W100
 70
     0
  3
ISO long-dash short-dash ____ __ ____ __ ____ _
 72
    65
 73
     4
 40
36.0
 49
24.0
 49
-3.0
 49
6.0
 49
-3.0
  0
LTYPE
  2
ACAD_ISO02W100
 70
     0
  3
ISO dash __ __ __ __ __ __ __ __ __ __ __ __ __
 72
    65
 73
     2
 40
15.0
 49
12.0
 49
-3.0
  0
ENDTAB
  0
TABLE
  2
LAYER
 70
     7
  0
LAYER
  2
0
 70
     0
 62
     7
  6
CONTINUOUS
  0
LAYER
  2
OBJECT
 70
     0
 62
     4
  6
CONTINUOUS
  0
LAYER
  2
DEFPOINTS
 70
     0
 62
     7
  6
CONTINUOUS
  0
LAYER
  2
HIDDEN
 70
     0
 62
     2
  6
ACAD_ISO02W100
  0
LAYER
  2
CENTER
 70
     0
 62
     2
  6
ACAD_ISO08W100
  0
LAYER
  2
DOTS
 70
     0
 62
     1
  6
CONTINUOUS
  0
LAYER
  2
SLIM
 70
     0
 62
     2
  6
CONTINUOUS
  0
ENDTAB
  0
TABLE
  2
STYLE
 70
     2
  0
STYLE
  2
STANDARD
 70
     0
 40
0.0
 41
0.75
 50
0.0
 71
     0
 42
4.0
  3
simplex.shx
  4
bigfont.shx
  0
ENDTAB
  0
TABLE
  2
VIEW
 70
     0
  0
ENDTAB
  0
TABLE
  2
UCS
 70
     0
  0
ENDTAB
  0
TABLE
  2
APPID
 70
    18
  0
APPID
  2
ACAD
 70
     0
  0
APPID
  2
ACADANNOTATIVE
 70
     0
  0
APPID
  2
ACAD_PSEXT
 70
     0
  0
APPID
  2
ACAD_EXEMPT_FROM_CAD_STANDARDS
 70
     0
  0
APPID
  2
ACAECLAYERSTANDARD
 70
     0
  0
APPID
  2
ACAUTHENVIRON
 70
     0
  0
APPID
  2
ACDBDYNAMICBLOCKTRUENAME
 70
     0
  0
APPID
  2
ACDBDYNAMICBLOCKGUID
 70
     0
  0
APPID
  2
ACDBBLOCKREPETAG
 70
     0
  0
APPID
  2
ACDBBLOCKREPBTAG
 70
     0
  0
APPID
  2
ACAD_NAV_VCDISPLAY
 70
     0
  0
APPID
  2
ACAD_DSTYLE_DIMRADIAL_EXTENSION
 70
     0
  0
APPID
  2
ACAD_DSTYLE_DIMJAG
 70
     0
  0
APPID
  2
ACAD_DSTYLE_DIMTALN
 70
     0
  0
APPID
  2
ACADANNOPO
 70
     0
  0
APPID
  2
GRADIENTCOLOR1ACI
 70
     0
  0
APPID
  2
GRADIENTCOLOR2ACI
 70
     0
  0
APPID
  2
ACAD_MLEADERVER
 70
     0
  0
ENDTAB
  0
TABLE
  2
DIMSTYLE
 70
     3
  0
DIMSTYLE
  2
STANDARD
 70
     0
  3

  4

  5

  6

  7

 40
1.0
 41
0.18
 42
0.0625
 43
0.38
 44
0.18
 45
0.0
 46
0.0
 47
0.0
 48
0.0
140
0.18
141
0.09
142
0.0
143
25.399999999999999
144
1.0
145
0.0
146
1.0
147
0.09
 71
     0
 72
     0
 73
     1
 74
     1
 75
     0
 76
     0
 77
     0
 78
     0
170
     0
171
     2
172
     0
173
     0
174
     0
175
     0
176
     0
177
     0
178
     0
  0
DIMSTYLE
  2
S10
 70
     0
  3

  4

  5

  6

  7

 40
10.0
 41
2.0
 42
1.0
 43
10.0
 44
1.0
 45
0.0
 46
0.0
 47
0.0
 48
0.0
140
3.2000000000000002
141
0.0
142
0.0
143
25.399999999999999
144
1.0
145
0.0
146
1.0
147
0.9
 71
     0
 72
     0
 73
     0
 74
     0
 75
     0
 76
     0
 77
     1
 78
     8
170
     0
171
     2
172
     1
173
     0
174
     0
175
     0
176
   256
177
   256
178
   256
  0
ENDTAB
  0
ENDSEC
  0
SECTION
  2
BLOCKS
  0
BLOCK
  8
0
  2
$MODEL_SPACE
 70
     0
 10
0.0
 20
0.0
 30
0.0
  3
$MODEL_SPACE
  1

  0
ENDBLK
  5
121C7B
  8
0
  0
BLOCK
 67
     1
  8
0
  2
$PAPER_SPACE
 70
     0
 10
0.0
 20
0.0
 30
0.0
  3
$PAPER_SPACE
  1

  0
ENDBLK
  5
121C77
 67
     1
  8
0
  0
BLOCK
  8
0
  2
_OPEN30
 70
     0
 10
0.0
 20
0.0
 30
0.0
  3
_OPEN30
  1

  0
LINE
  5
202
  8
0
  6
BYBLOCK
 62
     0
 10
-1.0
 20
0.26794919
 30
0.0
 11
0.0
 21
0.0
 31
0.0
  0
LINE
  5
203
  8
0
  6
BYBLOCK
 62
     0
 10
0.0
 20
0.0
 30
0.0
 11
-1.0
 21
-0.26794919
 31
0.0
  0
LINE
  5
204
  8
0
  6
BYBLOCK
 62
     0
 10
0.0
 20
0.0
 30
0.0
 11
-1.0
 21
0.0
 31
0.0
  0
ENDBLK
  5
206
  8
0
  0
ENDSEC
  0
SECTION
  2
ENTITIES
  0
LINE
  5
121773
  8
OBJECT
 10
11923.0
 20
-470.99999999999937
 30
0.0
 11
11923.0
 21
-449.99999999999937
 31
0.0
1001
ACDBBLOCKREPETAG
1070
     1
1071
        0
1005
121773
  0
LINE
  5
121774
  8
OBJECT
 10
11923.0
 20
-449.99999999999937
 30
0.0
 11
12077.0
 21
-449.99999999999937
 31
0.0
1001
ACDBBLOCKREPETAG
1070
     1
1071
        1
1005
121774
  0
LINE
  5
121775
  8
HIDDEN
 10
11943.0
 20
-519.99999999999955
 30
0.0
 11
12057.0
 21
-519.99999999999955
 31
0.0
1001
ACDBBLOCKREPETAG
1070
     1
1071
        2
1005
121775
  0
LINE
  5
121776
  8
OBJECT
 10
12077.0
 20
-449.99999999999937
 30
0.0
 11
12077.0
 21
-470.99999999999937
 31
0.0
1001
ACDBBLOCKREPETAG
1070
     1
1071
        3
1005
121776
  0
LINE
  5
121777
  8
OBJECT
 10
12077.0
 20
-470.99999999999937
 30
0.0
 11
11923.0
 21
-470.99999999999937
 31
0.0
1001
ACDBBLOCKREPETAG
1070
     1
1071
        4
1005
121777
  0
LINE
  5
121778
  8
CENTER
 10
12000.0
 20
-434.99999999999949
 30
0.0
 11
12000.0
 21
-669.99999999999955
 31
0.0
1001
ACDBBLOCKREPETAG
1070
     1
1071
        5
1005
121778
  0
LINE
  5
121779
  8
OBJECT
 10
11925.0
 20
-533.99999999999955
 30
0.0
 11
11925.0
 21
-657.99999999999955
 31
0.0
1001
ACDBBLOCKREPETAG
1070
     1
1071
        6
1005
121779
  0
LINE
  5
12177A
  8
OBJECT
 10
11928.0
 20
-470.99999999999937
 30
0.0
 11
11928.0
 21
-533.99999999999955
 31
0.0
1001
ACDBBLOCKREPETAG
1070
     1
1071
        7
1005
12177A
  0
LINE
  5
12177B
  8
OBJECT
 10
12072.0
 20
-533.99999999999955
 30
0.0
 11
12072.0
 21
-470.99999999999937
 31
0.0
1001
ACDBBLOCKREPETAG
1070
     1
1071
        8
1005
12177B
  0
LINE
  5
12177C
  8
OBJECT
 10
11920.0
 20
-657.99999999999955
 30
0.0
 11
12080.0
 21
-657.99999999999955
 31
0.0
1001
ACDBBLOCKREPETAG
1070
     1
1071
        9
1005
12177C
  0
LINE
  5
12177D
  8
OBJECT
 10
12080.0
 20
-533.99999999999955
 30
0.0
 11
11925.0
 21
-533.99999999999955
 31
0.0
1001
ACDBBLOCKREPETAG
1070
     1
1071
       10
1005
12177D
  0
LINE
  5
12177E
  8
OBJECT
 10
11920.0
 20
-657.99999999999955
 30
0.0
 11
11920.0
 21
-669.99999999999955
 31
0.0
1001
ACDBBLOCKREPETAG
1070
     1
1071
       11
1005
12177E
  0
LINE
  5
12177F
  8
OBJECT
 10
11920.0
 20
-669.99999999999955
 30
0.0
 11
12080.0
 21
-669.99999999999955
 31
0.0
1001
ACDBBLOCKREPETAG
1070
     1
1071
       12
1005
12177F
  0
LINE
  5
121780
  8
OBJECT
 10
12080.0
 20
-669.99999999999955
 30
0.0
 11
12080.0
 21
-657.99999999999955
 31
0.0
1001
ACDBBLOCKREPETAG
1070
     1
1071
       13
1005
121780
  0
ARC
  5
121781
  8
OBJECT
 10
12200.687274671671
 20
-649.40809941010718
 30
0.0
 40
170.6350503965856
 50
137.44134459184301
 51
149.91949581337221
1001
ACDBBLOCKREPETAG
1070
     1
1071
       15
1005
121781
  0
ARC
  5
121782
  8
OBJECT
 10
12118.845598704051
 20
-605.88272669536445
 30
0.0
 40
78.072222021763665
 50
147.45515310379639
 51
164.6636599771729
1001
ACDBBLOCKREPETAG
1070
     1
1071
       16
1005
121782
  0
ARC
  5
121783
  8
OBJECT
 10
12085.755434960871
 20
-595.99999999999955
 30
0.0
 40
43.55353926885617
 50
165.6884523008477
 51
194.3115476991523
1001
ACDBBLOCKREPETAG
1070
     1
1071
       17
1005
121783
  0
ARC
  5
121784
  8
OBJECT
 10
12200.687274671671
 20
-542.59190058989179
 30
0.0
 40
170.6350503965856
 50
210.08050418662771
 51
222.55865540815699
1001
ACDBBLOCKREPETAG
1070
     1
1071
       18
1005
121784
  0
ARC
  5
121785
  8
OBJECT
 10
12118.845598704051
 20
-586.11727330463452
 30
0.0
 40
78.072222021763665
 50
195.3363400228271
 51
212.54484689620361
1001
ACDBBLOCKREPETAG
1070
     1
1071
       19
1005
121785
  0
POINT
  5
121786
  8
DOTS
 10
12000.0
 20
-654.99999999999966
 30
0.0
1001
ACDBBLOCKREPETAG
1070
     1
1071
      186
1005
121786
  0
LINE
  5
121787
  8
OBJECT
 10
9923.0
 20
-470.99999999999937
 30
0.0
 11
9923.0
 21
-449.99999999999937
 31
0.0
1001
ACDBBLOCKREPETAG
1070
     1
1071
        0
1005
121787
  0
LINE
  5
121788
  8
OBJECT
 10
9923.0
 20
-449.99999999999937
 30
0.0
 11
10077.0
 21
-449.99999999999937
 31
0.0
1001
ACDBBLOCKREPETAG
1070
     1
1071
        1
1005
121788
  0
LINE
  5
121789
  8
HIDDEN
 10
9943.0
 20
-519.99999999999955
 30
0.0
 11
10057.0
 21
-519.99999999999955
 31
0.0
1001
ACDBBLOCKREPETAG
1070
     1
1071
        2
1005
121789
  0
LINE
  5
12178A
  8
OBJECT
 10
10077.0
 20
-449.99999999999937
 30
0.0
 11
10077.0
 21
-470.99999999999937
 31
0.0
1001
ACDBBLOCKREPETAG
1070
     1
1071
        3
1005
12178A
  0
LINE
  5
12178B
  8
OBJECT
 10
10077.0
 20
-470.99999999999937
 30
0.0
 11
9923.0
 21
-470.99999999999937
 31
0.0
1001
ACDBBLOCKREPETAG
1070
     1
1071
        4
1005
12178B
  0
LINE
  5
12178C
  8
CENTER
 10
10000.0
 20
-434.99999999999949
 30
0.0
 11
10000.0
 21
-669.99999999999955
 31
0.0
1001
ACDBBLOCKREPETAG
1070
     1
1071
        5
1005
12178C
  0
LINE
  5
12178D
  8
OBJECT
 10
9925.0
 20
-533.99999999999955
 30
0.0
 11
9925.0
 21
-657.99999999999955
 31
0.0
1001
ACDBBLOCKREPETAG
1070
     1
1071
        6
1005
12178D
  0
LINE
  5
12178E
  8
OBJECT
 10
9928.0
 20
-470.99999999999937
 30
0.0
 11
9928.0
 21
-533.99999999999955
 31
0.0
1001
ACDBBLOCKREPETAG
1070
     1
1071
        7
1005
12178E
  0
LINE
  5
12178F
  8
OBJECT
 10
10072.0
 20
-533.99999999999955
 30
0.0
 11
10072.0
 21
-470.99999999999937
 31
0.0
1001
ACDBBLOCKREPETAG
1070
     1
1071
        8
1005
12178F
  0
LINE
  5
121790
  8
OBJECT
 10
9920.0
 20
-657.99999999999955
 30
0.0
 11
10080.0
 21
-657.99999999999955
 31
0.0
1001
ACDBBLOCKREPETAG
1070
     1
1071
        9
1005
121790
  0
LINE
  5
121791
  8
OBJECT
 10
10080.0
 20
-533.99999999999955
 30
0.0
 11
9925.0
 21
-533.99999999999955
 31
0.0
1001
ACDBBLOCKREPETAG
1070
     1
1071
       10
1005
121791
  0
LINE
  5
121792
  8
OBJECT
 10
9920.0
 20
-657.99999999999955
 30
0.0
 11
9920.0
 21
-669.99999999999955
 31
0.0
1001
ACDBBLOCKREPETAG
1070
     1
1071
       11
1005
121792
  0
LINE
  5
121793
  8
OBJECT
 10
9920.0
 20
-669.99999999999955
 30
0.0
 11
10080.0
 21
-669.99999999999955
 31
0.0
1001
ACDBBLOCKREPETAG
1070
     1
1071
       12
1005
121793
  0
LINE
  5
121794
  8
OBJECT
 10
10080.0
 20
-669.99999999999955
 30
0.0
 11
10080.0
 21
-657.99999999999955
 31
0.0
1001
ACDBBLOCKREPETAG
1070
     1
1071
       13
1005
121794
  0
ARC
  5
121795
  8
OBJECT
 10
10200.687274671671
 20
-649.40809941010718
 30
0.0
 40
170.6350503965856
 50
137.44134459184301
 51
149.91949581337221
1001
ACDBBLOCKREPETAG
1070
     1
1071
       15
1005
121795
  0
ARC
  5
121796
  8
OBJECT
 10
10118.845598704051
 20
-605.88272669536445
 30
0.0
 40
78.072222021763665
 50
147.45515310379639
 51
164.6636599771729
1001
ACDBBLOCKREPETAG
1070
     1
1071
       16
1005
121796
  0
ARC
  5
121797
  8
OBJECT
 10
10085.755434960871
 20
-595.99999999999955
 30
0.0
 40
43.55353926885617
 50
165.6884523008477
 51
194.3115476991523
1001
ACDBBLOCKREPETAG
1070
     1
1071
       17
1005
121797
  0
ARC
  5
121798
  8
OBJECT
 10
10200.687274671671
 20
-542.59190058989179
 30
0.0
 40
170.6350503965856
 50
210.08050418662771
 51
222.55865540815699
1001
ACDBBLOCKREPETAG
1070
     1
1071
       18
1005
121798
  0
ARC
  5
121799
  8
OBJECT
 10
10118.845598704051
 20
-586.11727330463452
 30
0.0
 40
78.072222021763665
 50
195.3363400228271
 51
212.54484689620361
1001
ACDBBLOCKREPETAG
1070
     1
1071
       19
1005
121799
  0
POINT
  5
12179A
  8
DOTS
 10
10000.0
 20
-654.99999999999966
 30
0.0
1001
ACDBBLOCKREPETAG
1070
     1
1071
      186
1005
12179A
  0
LINE
  5
12179B
  8
OBJECT
 10
7923.0
 20
-470.99999999999937
 30
0.0
 11
7923.0
 21
-449.99999999999937
 31
0.0
1001
ACDBBLOCKREPETAG
1070
     1
1071
        0
1005
12179B
  0
LINE
  5
12179C
  8
OBJECT
 10
7923.0
 20
-449.99999999999937
 30
0.0
 11
8077.0
 21
-449.99999999999937
 31
0.0
1001
ACDBBLOCKREPETAG
1070
     1
1071
        1
1005
12179C
  0
LINE
  5
12179D
  8
HIDDEN
 10
7943.0
 20
-519.99999999999955
 30
0.0
 11
8057.0
 21
-519.99999999999955
 31
0.0
1001
ACDBBLOCKREPETAG
1070
     1
1071
        2
1005
12179D
  0
LINE
  5
12179E
  8
OBJECT
 10
8077.0
 20
-449.99999999999937
 30
0.0
 11
8077.0
 21
-470.99999999999937
 31
0.0
1001
ACDBBLOCKREPETAG
1070
     1
1071
        3
1005
12179E
  0
LINE
  5
12179F
  8
OBJECT
 10
8077.0
 20
-470.99999999999937
 30
0.0
 11
7923.0
 21
-470.99999999999937
 31
0.0
1001
ACDBBLOCKREPETAG
1070
     1
1071
        4
1005
12179F
  0
LINE
  5
1217A0
  8
CENTER
 10
8000.0
 20
-434.99999999999949
 30
0.0
 11
8000.0
 21
-669.99999999999955
 31
0.0
1001
ACDBBLOCKREPETAG
1070
     1
1071
        5
1005
1217A0
  0
LINE
  5
1217A1
  8
OBJECT
 10
7925.0
 20
-533.99999999999955
 30
0.0
 11
7925.0
 21
-657.99999999999955
 31
0.0
1001
ACDBBLOCKREPETAG
1070
     1
1071
        6
1005
1217A1
  0
LINE
  5
1217A2
  8
OBJECT
 10
7928.0
 20
-470.99999999999937
 30
0.0
 11
7928.0
 21
-533.99999999999955
 31
0.0
1001
ACDBBLOCKREPETAG
1070
     1
1071
        7
1005
1217A2
  0
LINE
  5
1217A3
  8
OBJECT
 10
8072.0
 20
-533.99999999999955
 30
0.0
 11
8072.0
 21
-470.99999999999937
 31
0.0
1001
ACDBBLOCKREPETAG
1070
     1
1071
        8
1005
1217A3
  0
LINE
  5
1217A4
  8
OBJECT
 10
7920.0
 20
-657.99999999999955
 30
0.0
 11
8080.0
 21
-657.99999999999955
 31
0.0
1001
ACDBBLOCKREPETAG
1070
     1
1071
        9
1005
1217A4
  0
LINE
  5
1217A5
  8
OBJECT
 10
8080.0
 20
-533.99999999999955
 30
0.0
 11
7925.0
 21
-533.99999999999955
 31
0.0
1001
ACDBBLOCKREPETAG
1070
     1
1071
       10
1005
1217A5
  0
LINE
  5
1217A6
  8
OBJECT
 10
7920.0
 20
-657.99999999999955
 30
0.0
 11
7920.0
 21
-669.99999999999955
 31
0.0
1001
ACDBBLOCKREPETAG
1070
     1
1071
       11
1005
1217A6
  0
LINE
  5
1217A7
  8
OBJECT
 10
7920.0
 20
-669.99999999999955
 30
0.0
 11
8080.0
 21
-669.99999999999955
 31
0.0
1001
ACDBBLOCKREPETAG
1070
     1
1071
       12
1005
1217A7
  0
LINE
  5
1217A8
  8
OBJECT
 10
8080.0
 20
-669.99999999999955
 30
0.0
 11
8080.0
 21
-657.99999999999955
 31
0.0
1001
ACDBBLOCKREPETAG
1070
     1
1071
       13
1005
1217A8
  0
ARC
  5
1217A9
  8
OBJECT
 10
8200.6872746716726
 20
-649.40809941010718
 30
0.0
 40
170.6350503965856
 50
137.44134459184301
 51
149.91949581337221
1001
ACDBBLOCKREPETAG
1070
     1
1071
       15
1005
1217A9
  0
ARC
  5
1217AA
  8
OBJECT
 10
8118.8455987040506
 20
-605.88272669536445
 30
0.0
 40
78.072222021763665
 50
147.4551531037684
 51
164.66365997718671
1001
ACDBBLOCKREPETAG
1070
     1
1071
       16
1005
1217AA
  0
ARC
  5
1217AB
  8
OBJECT
 10
8085.7554349608708
 20
-595.99999999999955
 30
0.0
 40
43.55353926885617
 50
165.6884523008477
 51
194.3115476991523
1001
ACDBBLOCKREPETAG
1070
     1
1071
       17
1005
1217AB
  0
ARC
  5
1217AC
  8
OBJECT
 10
8200.6872746716726
 20
-542.59190058989179
 30
0.0
 40
170.6350503965856
 50
210.08050418662771
 51
222.55865540815699
1001
ACDBBLOCKREPETAG
1070
     1
1071
       18
1005
1217AC
  0
ARC
  5
1217AD
  8
OBJECT
 10
8118.8455987040506
 20
-586.11727330463452
 30
0.0
 40
78.072222021763665
 50
195.3363400228132
 51
212.5448468962316
1001
ACDBBLOCKREPETAG
1070
     1
1071
       19
1005
1217AD
  0
POINT
  5
1217AE
  8
DOTS
 10
8000.0
 20
-654.99999999999966
 30
0.0
1001
ACDBBLOCKREPETAG
1070
     1
1071
      186
1005
1217AE
  0
LINE
  5
1217AF
  8
OBJECT
 10
5923.0
 20
-470.99999999999937
 30
0.0
 11
5923.0
 21
-449.99999999999937
 31
0.0
1001
ACDBBLOCKREPETAG
1070
     1
1071
        0
1005
1217AF
  0
LINE
  5
1217B0
  8
OBJECT
 10
5923.0
 20
-449.99999999999937
 30
0.0
 11
6077.0
 21
-449.99999999999937
 31
0.0
1001
ACDBBLOCKREPETAG
1070
     1
1071
        1
1005
1217B0
  0
LINE
  5
1217B1
  8
HIDDEN
 10
5943.0
 20
-519.99999999999955
 30
0.0
 11
6057.0
 21
-519.99999999999955
 31
0.0
1001
ACDBBLOCKREPETAG
1070
     1
1071
        2
1005
1217B1
  0
LINE
  5
1217B2
  8
OBJECT
 10
6077.0
 20
-449.99999999999937
 30
0.0
 11
6077.0
 21
-470.99999999999937
 31
0.0
1001
ACDBBLOCKREPETAG
1070
     1
1071
        3
1005
1217B2
  0
LINE
  5
1217B3
  8
OBJECT
 10
6077.0
 20
-470.99999999999937
 30
0.0
 11
5923.0
 21
-470.99999999999937
 31
0.0
1001
ACDBBLOCKREPETAG
1070
     1
1071
        4
1005
1217B3
  0
LINE
  5
1217B4
  8
CENTER
 10
6000.0
 20
-434.99999999999949
 30
0.0
 11
6000.0
 21
-669.99999999999955
 31
0.0
1001
ACDBBLOCKREPETAG
1070
     1
1071
        5
1005
1217B4
  0
LINE
  5
1217B5
  8
OBJECT
 10
5925.0
 20
-533.99999999999955
 30
0.0
 11
5925.0
 21
-657.99999999999955
 31
0.0
1001
ACDBBLOCKREPETAG
1070
     1
1071
        6
1005
1217B5
  0
LINE
  5
1217B6
  8
OBJECT
 10
5928.0
 20
-470.99999999999937
 30
0.0
 11
5928.0
 21
-533.99999999999955
 31
0.0
1001
ACDBBLOCKREPETAG
1070
     1
1071
        7
1005
1217B6
  0
LINE
  5
1217B7
  8
OBJECT
 10
6072.0
 20
-533.99999999999955
 30
0.0
 11
6072.0
 21
-470.99999999999937
 31
0.0
1001
ACDBBLOCKREPETAG
1070
     1
1071
        8
1005
1217B7
  0
LINE
  5
1217B8
  8
OBJECT
 10
5920.0
 20
-657.99999999999955
 30
0.0
 11
6080.0
 21
-657.99999999999955
 31
0.0
1001
ACDBBLOCKREPETAG
1070
     1
1071
        9
1005
1217B8
  0
LINE
  5
1217B9
  8
OBJECT
 10
6080.0
 20
-533.99999999999955
 30
0.0
 11
5925.0
 21
-533.99999999999955
 31
0.0
1001
ACDBBLOCKREPETAG
1070
     1
1071
       10
1005
1217B9
  0
LINE
  5
1217BA
  8
OBJECT
 10
5920.0
 20
-657.99999999999955
 30
0.0
 11
5920.0
 21
-669.99999999999955
 31
0.0
1001
ACDBBLOCKREPETAG
1070
     1
1071
       11
1005
1217BA
  0
LINE
  5
1217BB
  8
OBJECT
 10
5920.0
 20
-669.99999999999955
 30
0.0
 11
6080.0
 21
-669.99999999999955
 31
0.0
1001
ACDBBLOCKREPETAG
1070
     1
1071
       12
1005
1217BB
  0
LINE
  5
1217BC
  8
OBJECT
 10
6080.0
 20
-669.99999999999955
 30
0.0
 11
6080.0
 21
-657.99999999999955
 31
0.0
1001
ACDBBLOCKREPETAG
1070
     1
1071
       13
1005
1217BC
  0
ARC
  5
1217BD
  8
OBJECT
 10
6200.6872746716735
 20
-649.40809941010718
 30
0.0
 40
170.6350503965856
 50
137.44134459184301
 51
149.91949581337221
1001
ACDBBLOCKREPETAG
1070
     1
1071
       15
1005
1217BD
  0
ARC
  5
1217BE
  8
OBJECT
 10
6118.8455987040506
 20
-605.88272669536445
 30
0.0
 40
78.072222021763665
 50
147.4551531037684
 51
164.66365997718671
1001
ACDBBLOCKREPETAG
1070
     1
1071
       16
1005
1217BE
  0
ARC
  5
1217BF
  8
OBJECT
 10
6085.7554349608727
 20
-595.99999999999955
 30
0.0
 40
43.55353926885617
 50
165.6884523008477
 51
194.3115476991523
1001
ACDBBLOCKREPETAG
1070
     1
1071
       17
1005
1217BF
  0
ARC
  5
1217C0
  8
OBJECT
 10
6200.6872746716735
 20
-542.59190058989179
 30
0.0
 40
170.6350503965856
 50
210.08050418662771
 51
222.55865540815699
1001
ACDBBLOCKREPETAG
1070
     1
1071
       18
1005
1217C0
  0
ARC
  5
1217C1
  8
OBJECT
 10
6118.8455987040506
 20
-586.11727330463452
 30
0.0
 40
78.072222021763665
 50
195.3363400228132
 51
212.5448468962316
1001
ACDBBLOCKREPETAG
1070
     1
1071
       19
1005
1217C1
  0
POINT
  5
1217C2
  8
DOTS
 10
6000.0
 20
-654.99999999999966
 30
0.0
1001
ACDBBLOCKREPETAG
1070
     1
1071
      186
1005
1217C2
  0
LINE
  5
1217C3
  8
OBJECT
 10
1923.0
 20
-470.99999999999937
 30
0.0
 11
1923.0
 21
-449.99999999999937
 31
0.0
1001
ACDBBLOCKREPETAG
1070
     1
1071
        0
1005
1217C3
  0
LINE
  5
1217C4
  8
OBJECT
 10
1923.0
 20
-449.99999999999937
 30
0.0
 11
2077.0
 21
-449.99999999999937
 31
0.0
1001
ACDBBLOCKREPETAG
1070
     1
1071
        1
1005
1217C4
  0
LINE
  5
1217C5
  8
HIDDEN
 10
1943.0
 20
-519.99999999999955
 30
0.0
 11
2057.0
 21
-519.99999999999955
 31
0.0
1001
ACDBBLOCKREPETAG
1070
     1
1071
        2
1005
1217C5
  0
LINE
  5
1217C6
  8
OBJECT
 10
2077.0
 20
-449.99999999999937
 30
0.0
 11
2077.0
 21
-470.99999999999937
 31
0.0
1001
ACDBBLOCKREPETAG
1070
     1
1071
        3
1005
1217C6
  0
LINE
  5
1217C7
  8
OBJECT
 10
2077.0
 20
-470.99999999999937
 30
0.0
 11
1923.0
 21
-470.99999999999937
 31
0.0
1001
ACDBBLOCKREPETAG
1070
     1
1071
        4
1005
1217C7
  0
LINE
  5
1217C8
  8
CENTER
 10
2000.0
 20
-434.99999999999949
 30
0.0
 11
2000.0
 21
-669.99999999999955
 31
0.0
1001
ACDBBLOCKREPETAG
1070
     1
1071
        5
1005
1217C8
  0
LINE
  5
1217C9
  8
OBJECT
 10
1925.0
 20
-533.99999999999955
 30
0.0
 11
1925.0
 21
-657.99999999999955
 31
0.0
1001
ACDBBLOCKREPETAG
1070
     1
1071
        6
1005
1217C9
  0
LINE
  5
1217CA
  8
OBJECT
 10
1928.0
 20
-470.99999999999937
 30
0.0
 11
1928.0
 21
-533.99999999999955
 31
0.0
1001
ACDBBLOCKREPETAG
1070
     1
1071
        7
1005
1217CA
  0
LINE
  5
1217CB
  8
OBJECT
 10
2072.0
 20
-533.99999999999955
 30
0.0
 11
2072.0
 21
-470.99999999999937
 31
0.0
1001
ACDBBLOCKREPETAG
1070
     1
1071
        8
1005
1217CB
  0
LINE
  5
1217CC
  8
OBJECT
 10
1920.0
 20
-657.99999999999955
 30
0.0
 11
2080.0
 21
-657.99999999999955
 31
0.0
1001
ACDBBLOCKREPETAG
1070
     1
1071
        9
1005
1217CC
  0
LINE
  5
1217CD
  8
OBJECT
 10
2080.0
 20
-533.99999999999955
 30
0.0
 11
1925.0
 21
-533.99999999999955
 31
0.0
1001
ACDBBLOCKREPETAG
1070
     1
1071
       10
1005
1217CD
  0
LINE
  5
1217CE
  8
OBJECT
 10
1920.0
 20
-657.99999999999955
 30
0.0
 11
1920.0
 21
-669.99999999999955
 31
0.0
1001
ACDBBLOCKREPETAG
1070
     1
1071
       11
1005
1217CE
  0
LINE
  5
1217CF
  8
OBJECT
 10
1920.0
 20
-669.99999999999955
 30
0.0
 11
2080.0
 21
-669.99999999999955
 31
0.0
1001
ACDBBLOCKREPETAG
1070
     1
1071
       12
1005
1217CF
  0
LINE
  5
1217D0
  8
OBJECT
 10
2080.0
 20
-669.99999999999955
 30
0.0
 11
2080.0
 21
-657.99999999999955
 31
0.0
1001
ACDBBLOCKREPETAG
1070
     1
1071
       13
1005
1217D0
  0
ARC
  5
1217D1
  8
OBJECT
 10
2200.6872746716731
 20
-649.40809941010718
 30
0.0
 40
170.6350503965856
 50
137.44134459184301
 51
149.91949581336559
1001
ACDBBLOCKREPETAG
1070
     1
1071
       15
1005
1217D1
  0
ARC
  5
1217D2
  8
OBJECT
 10
2118.8455987040511
 20
-605.88272669536445
 30
0.0
 40
78.072222021763665
 50
147.45515310377539
 51
164.6636599771798
1001
ACDBBLOCKREPETAG
1070
     1
1071
       16
1005
1217D2
  0
ARC
  5
1217D3
  8
OBJECT
 10
2085.7554349608731
 20
-595.99999999999955
 30
0.0
 40
43.55353926885617
 50
165.6884523008477
 51
194.3115476991523
1001
ACDBBLOCKREPETAG
1070
     1
1071
       17
1005
1217D3
  0
ARC
  5
1217D4
  8
OBJECT
 10
2200.6872746716731
 20
-542.59190058989179
 30
0.0
 40
170.6350503965856
 50
210.0805041866343
 51
222.55865540815699
1001
ACDBBLOCKREPETAG
1070
     1
1071
       18
1005
1217D4
  0
ARC
  5
1217D5
  8
OBJECT
 10
2118.8455987040511
 20
-586.11727330463452
 30
0.0
 40
78.072222021763665
 50
195.3363400228202
 51
212.54484689622461
1001
ACDBBLOCKREPETAG
1070
     1
1071
       19
1005
1217D5
  0
POINT
  5
1217D6
  8
DOTS
 10
2000.0
 20
-654.99999999999966
 30
0.0
1001
ACDBBLOCKREPETAG
1070
     1
1071
      186
1005
1217D6
  0
LINE
  5
1217D7
  8
OBJECT
 10
3923.0
 20
-470.99999999999937
 30
0.0
 11
3923.0
 21
-449.99999999999937
 31
0.0
1001
ACDBBLOCKREPETAG
1070
     1
1071
        0
1005
1217D7
  0
LINE
  5
1217D8
  8
OBJECT
 10
3923.0
 20
-449.99999999999937
 30
0.0
 11
4077.0
 21
-449.99999999999937
 31
0.0
1001
ACDBBLOCKREPETAG
1070
     1
1071
        1
1005
1217D8
  0
LINE
  5
1217D9
  8
HIDDEN
 10
3943.0
 20
-519.99999999999955
 30
0.0
 11
4057.0
 21
-519.99999999999955
 31
0.0
1001
ACDBBLOCKREPETAG
1070
     1
1071
        2
1005
1217D9
  0
LINE
  5
1217DA
  8
OBJECT
 10
4077.0
 20
-449.99999999999937
 30
0.0
 11
4077.0
 21
-470.99999999999937
 31
0.0
1001
ACDBBLOCKREPETAG
1070
     1
1071
        3
1005
1217DA
  0
LINE
  5
1217DB
  8
OBJECT
 10
4077.0
 20
-470.99999999999937
 30
0.0
 11
3923.0
 21
-470.99999999999937
 31
0.0
1001
ACDBBLOCKREPETAG
1070
     1
1071
        4
1005
1217DB
  0
LINE
  5
1217DC
  8
CENTER
 10
4000.0
 20
-434.99999999999949
 30
0.0
 11
4000.0
 21
-669.99999999999955
 31
0.0
1001
ACDBBLOCKREPETAG
1070
     1
1071
        5
1005
1217DC
  0
LINE
  5
1217DD
  8
OBJECT
 10
3925.0
 20
-533.99999999999955
 30
0.0
 11
3925.0
 21
-657.99999999999955
 31
0.0
1001
ACDBBLOCKREPETAG
1070
     1
1071
        6
1005
1217DD
  0
LINE
  5
1217DE
  8
OBJECT
 10
3928.0
 20
-470.99999999999937
 30
0.0
 11
3928.0
 21
-533.99999999999955
 31
0.0
1001
ACDBBLOCKREPETAG
1070
     1
1071
        7
1005
1217DE
  0
LINE
  5
1217DF
  8
OBJECT
 10
4072.0
 20
-533.99999999999955
 30
0.0
 11
4072.0
 21
-470.99999999999937
 31
0.0
1001
ACDBBLOCKREPETAG
1070
     1
1071
        8
1005
1217DF
  0
LINE
  5
1217E0
  8
OBJECT
 10
3920.0
 20
-657.99999999999955
 30
0.0
 11
4080.0
 21
-657.99999999999955
 31
0.0
1001
ACDBBLOCKREPETAG
1070
     1
1071
        9
1005
1217E0
  0
LINE
  5
1217E1
  8
OBJECT
 10
4080.0
 20
-533.99999999999955
 30
0.0
 11
3925.0
 21
-533.99999999999955
 31
0.0
1001
ACDBBLOCKREPETAG
1070
     1
1071
       10
1005
1217E1
  0
LINE
  5
1217E2
  8
OBJECT
 10
3920.0
 20
-657.99999999999955
 30
0.0
 11
3920.0
 21
-669.99999999999955
 31
0.0
1001
ACDBBLOCKREPETAG
1070
     1
1071
       11
1005
1217E2
  0
LINE
  5
1217E3
  8
OBJECT
 10
3920.0
 20
-669.99999999999955
 30
0.0
 11
4080.0
 21
-669.99999999999955
 31
0.0
1001
ACDBBLOCKREPETAG
1070
     1
1071
       12
1005
1217E3
  0
LINE
  5
1217E4
  8
OBJECT
 10
4080.0
 20
-669.99999999999955
 30
0.0
 11
4080.0
 21
-657.99999999999955
 31
0.0
1001
ACDBBLOCKREPETAG
1070
     1
1071
       13
1005
1217E4
  0
ARC
  5
1217E5
  8
OBJECT
 10
4200.6872746716726
 20
-649.40809941010718
 30
0.0
 40
170.6350503965856
 50
137.44134459184301
 51
149.91949581337221
1001
ACDBBLOCKREPETAG
1070
     1
1071
       15
1005
1217E5
  0
ARC
  5
1217E6
  8
OBJECT
 10
4118.8455987040506
 20
-605.88272669536445
 30
0.0
 40
78.072222021763665
 50
147.4551531037684
 51
164.6636599771798
1001
ACDBBLOCKREPETAG
1070
     1
1071
       16
1005
1217E6
  0
ARC
  5
1217E7
  8
OBJECT
 10
4085.7554349608722
 20
-595.99999999999955
 30
0.0
 40
43.55353926885617
 50
165.6884523008477
 51
194.3115476991523
1001
ACDBBLOCKREPETAG
1070
     1
1071
       17
1005
1217E7
  0
ARC
  5
1217E8
  8
OBJECT
 10
4200.6872746716726
 20
-542.59190058989179
 30
0.0
 40
170.6350503965856
 50
210.08050418662771
 51
222.55865540815699
1001
ACDBBLOCKREPETAG
1070
     1
1071
       18
1005
1217E8
  0
ARC
  5
1217E9
  8
OBJECT
 10
4118.8455987040506
 20
-586.11727330463452
 30
0.0
 40
78.072222021763665
 50
195.3363400228202
 51
212.5448468962316
1001
ACDBBLOCKREPETAG
1070
     1
1071
       19
1005
1217E9
  0
POINT
  5
1217EA
  8
DOTS
 10
4000.0
 20
-654.99999999999966
 30
0.0
1001
ACDBBLOCKREPETAG
1070
     1
1071
      186
1005
1217EA
  0
LINE
  5
1217EB
  8
SLIM
 10
11914.999999999991
 20
-665.19743878931502
 30
0.0
 11
11925.197438789301
 21
-655.0
 31
0.0
1001
ACAD
1010
0.0
1020
0.0
1030
0.0
1001
ACDBBLOCKREPETAG
1070
     1
1071
       10
1005
1217EB
  0
LINE
  5
1217EC
  8
SLIM
 10
11914.999999999991
 20
-683.15795103145194
 30
0.0
 11
11943.15795103144
 21
-655.0
 31
0.0
1001
ACAD
1010
0.0
1020
0.0
1030
0.0
1001
ACDBBLOCKREPETAG
1070
     1
1071
       11
1005
1217EC
  0
LINE
  5
1217ED
  8
SLIM
 10
11915.0
 20
-701.11846327358865
 30
0.0
 11
11961.11846327358
 21
-655.0
 31
0.0
1001
ACAD
1010
0.0
1020
0.0
1030
0.0
1001
ACDBBLOCKREPETAG
1070
     1
1071
       12
1005
1217ED
  0
LINE
  5
1217EE
  8
SLIM
 10
11915.0
 20
-719.07897551572592
 30
0.0
 11
11979.07897551572
 21
-655.0
 31
0.0
1001
ACAD
1010
0.0
1020
0.0
1030
0.0
1001
ACDBBLOCKREPETAG
1070
     1
1071
       13
1005
1217EE
  0
LINE
  5
1217EF
  8
SLIM
 10
11915.0
 20
-737.03948775786273
 30
0.0
 11
11997.03948775786
 21
-655.0
 31
0.0
1001
ACAD
1010
0.0
1020
0.0
1030
0.0
1001
ACDBBLOCKREPETAG
1070
     1
1071
       14
1005
1217EF
  0
LINE
  5
1217F0
  8
SLIM
 10
11915.28360074955
 20
-754.7163992504419
 30
0.0
 11
12015.0
 21
-655.0
 31
0.0
1001
ACAD
1010
0.0
1020
0.0
1030
0.0
1001
ACDBBLOCKREPETAG
1070
     1
1071
       15
1005
1217F0
  0
LINE
  5
1217F1
  8
SLIM
 10
11917.49791047804
 20
-770.46260176409714
 30
0.0
 11
12032.96051224214
 21
-655.0
 31
0.0
1001
ACAD
1010
0.0
1020
0.0
1030
0.0
1001
ACDBBLOCKREPETAG
1070
     1
1071
       16
1005
1217F1
  0
LINE
  5
1217F2
  8
SLIM
 10
11919.71222020652
 20
-786.20880427775273
 30
0.0
 11
12050.921024484271
 21
-655.0
 31
0.0
1001
ACAD
1010
0.0
1020
0.0
1030
0.0
1001
ACDBBLOCKREPETAG
1070
     1
1071
       17
1005
1217F2
  0
LINE
  5
1217F3
  8
SLIM
 10
11921.926529935001
 20
-801.95500679140798
 30
0.0
 11
12068.881536726411
 21
-655.0
 31
0.0
1001
ACAD
1010
0.0
1020
0.0
1030
0.0
1001
ACDBBLOCKREPETAG
1070
     1
1071
       18
1005
1217F3
  0
LINE
  5
1217F4
  8
SLIM
 10
11924.140839663491
 20
-817.70120930506334
 30
0.0
 11
12085.000000000009
 21
-656.84204896854612
 31
0.0
1001
ACAD
1010
0.0
1020
0.0
1030
0.0
1001
ACDBBLOCKREPETAG
1070
     1
1071
       19
1005
1217F4
  0
LINE
  5
1217F5
  8
SLIM
 10
11926.35514939196
 20
-833.44741181871882
 30
0.0
 11
12085.0
 21
-674.80256121068555
 31
0.0
1001
ACAD
1010
0.0
1020
0.0
1030
0.0
1001
ACDBBLOCKREPETAG
1070
     1
1071
       20
1005
1217F5
  0
LINE
  5
1217F6
  8
SLIM
 10
11928.56945912045
 20
-849.1936143323743
 30
0.0
 11
12085.0
 21
-692.76307345282544
 31
0.0
1001
ACAD
1010
0.0
1020
0.0
1030
0.0
1001
ACDBBLOCKREPETAG
1070
     1
1071
       21
1005
1217F6
  0
LINE
  5
1217F7
  8
SLIM
 10
11930.78376884894
 20
-864.93981684602954
 30
0.0
 11
12085.0
 21
-710.72358569496498
 31
0.0
1001
ACAD
1010
0.0
1020
0.0
1030
0.0
1001
ACDBBLOCKREPETAG
1070
     1
1071
       22
1005
1217F7
  0
LINE
  5
1217F8
  8
SLIM
 10
11932.998078577421
 20
-880.68601935968502
 30
0.0
 11
12085.0
 21
-728.68409793710464
 31
0.0
1001
ACAD
1010
0.0
1020
0.0
1030
0.0
1001
ACDBBLOCKREPETAG
1070
     1
1071
       23
1005
1217F8
  0
LINE
  5
1217F9
  8
SLIM
 10
11932.999999999991
 20
-898.64461017925203
 30
0.0
 11
12085.0
 21
-746.64461017924418
 31
0.0
1001
ACAD
1010
0.0
1020
0.0
1030
0.0
1001
ACDBBLOCKREPETAG
1070
     1
1071
       24
1005
1217F9
  0
LINE
  5
1217FA
  8
SLIM
 10
11932.999999999991
 20
-916.60512242139032
 30
0.0
 11
12083.05183715436
 21
-766.5532852670168
 31
0.0
1001
ACAD
1010
0.0
1020
0.0
1030
0.0
1001
ACDBBLOCKREPETAG
1070
     1
1071
       25
1005
1217FA
  0
LINE
  5
1217FB
  8
SLIM
 10
11942.565634663521
 20
-924.99999999999682
 30
0.0
 11
12080.112844242019
 21
-787.45279042150401
 31
0.0
1001
ACAD
1010
0.0
1020
0.0
1030
0.0
1001
ACDBBLOCKREPETAG
1070
     1
1071
       26
1005
1217FB
  0
LINE
  5
1217FC
  8
SLIM
 10
11960.52614690566
 20
-924.99999999999693
 30
0.0
 11
12077.17385132967
 21
-808.35229557599155
 31
0.0
1001
ACAD
1010
0.0
1020
0.0
1030
0.0
1001
ACDBBLOCKREPETAG
1070
     1
1071
       27
1005
1217FC
  0
LINE
  5
1217FD
  8
SLIM
 10
11978.4866591478
 20
-924.99999999999761
 30
0.0
 11
12074.23485841732
 21
-829.25180073047886
 31
0.0
1001
ACAD
1010
0.0
1020
0.0
1030
0.0
1001
ACDBBLOCKREPETAG
1070
     1
1071
       28
1005
1217FD
  0
LINE
  5
1217FE
  8
SLIM
 10
11996.44717138994
 20
-924.99999999999818
 30
0.0
 11
12071.29586550497
 21
-850.15130588496584
 31
0.0
1001
ACAD
1010
0.0
1020
0.0
1030
0.0
1001
ACDBBLOCKREPETAG
1070
     1
1071
       29
1005
1217FE
  0
LINE
  5
1217FF
  8
SLIM
 10
12014.40768363208
 20
-924.99999999999841
 30
0.0
 11
12068.35687259262
 21
-871.05081103945361
 31
0.0
1001
ACAD
1010
0.0
1020
0.0
1030
0.0
1001
ACDBBLOCKREPETAG
1070
     1
1071
       30
1005
1217FF
  0
LINE
  5
121800
  8
SLIM
 10
12032.368195874211
 20
-924.9999999999992
 30
0.0
 11
12067.0
 21
-890.36819587420166
 31
0.0
1001
ACAD
1010
0.0
1020
0.0
1030
0.0
1001
ACDBBLOCKREPETAG
1070
     1
1071
       31
1005
121800
  0
LINE
  5
121801
  8
SLIM
 10
12050.328708116351
 20
-924.99999999999955
 30
0.0
 11
12067.0
 21
-908.32870811634029
 31
0.0
1001
ACAD
1010
0.0
1020
0.0
1030
0.0
1001
ACDBBLOCKREPETAG
1070
     1
1071
       32
1005
121801
  0
LINE
  5
121802
  8
OBJECT
 10
11932.999999999991
 20
-924.99999999999636
 30
0.0
 11
12067.0
 21
-925.0
 31
0.0
1001
ACDBBLOCKREPETAG
1070
     1
1071
        1
1005
121802
  0
LINE
  5
121803
  8
OBJECT
 10
11914.999999999991
 20
-655.0
 30
0.0
 11
11915.0
 21
-752.69968280914145
 31
0.0
1001
ACDBBLOCKREPETAG
1070
     1
1071
        2
1005
121803
  0
LINE
  5
121804
  8
OBJECT
 10
12085.000000000009
 20
-655.0
 30
0.0
 11
12085.0
 21
-752.69968280917203
 31
0.0
1001
ACDBBLOCKREPETAG
1070
     1
1071
        3
1005
121804
  0
LINE
  5
121805
  8
OBJECT
 10
11915.0
 20
-752.69968280914145
 30
0.0
 11
11932.999999999991
 21
-880.69968280908154
 31
0.0
1001
ACDBBLOCKREPETAG
1070
     1
1071
        4
1005
121805
  0
LINE
  5
121806
  8
OBJECT
 10
12067.0
 20
-880.6996828091286
 30
0.0
 11
12085.0
 21
-752.69968280917203
 31
0.0
1001
ACDBBLOCKREPETAG
1070
     1
1071
        5
1005
121806
  0
LINE
  5
121807
  8
OBJECT
 10
12085.000000000009
 20
-655.0
 30
0.0
 11
11914.999999999991
 21
-655.0
 31
0.0
1001
ACDBBLOCKREPETAG
1070
     1
1071
        6
1005
121807
  0
LINE
  5
121808
  8
OBJECT
 10
11932.999999999991
 20
-880.69968280908154
 30
0.0
 11
11932.999999999991
 21
-924.99999999999636
 31
0.0
1001
ACDBBLOCKREPETAG
1070
     1
1071
        8
1005
121808
  0
LINE
  5
121809
  8
OBJECT
 10
12067.0
 20
-880.6996828091286
 30
0.0
 11
12067.0
 21
-925.0
 31
0.0
1001
ACDBBLOCKREPETAG
1070
     1
1071
        9
1005
121809
  0
LINE
  5
12180A
  8
SLIM
 10
9914.9999999999927
 20
-665.19743878931445
 30
0.0
 11
9925.1974387893097
 21
-654.99999999999966
 31
0.0
1001
ACAD
1010
0.0
1020
0.0
1030
0.0
1001
ACDBBLOCKREPETAG
1070
     1
1071
       10
1005
12180A
  0
LINE
  5
12180B
  8
SLIM
 10
9914.9999999999945
 20
-683.15795103145126
 30
0.0
 11
9943.1579510314441
 21
-654.99999999999966
 31
0.0
1001
ACAD
1010
0.0
1020
0.0
1030
0.0
1001
ACDBBLOCKREPETAG
1070
     1
1071
       11
1005
12180B
  0
LINE
  5
12180C
  8
SLIM
 10
9914.9999999999964
 20
-701.11846327358842
 30
0.0
 11
9961.1184632735858
 21
-654.99999999999966
 31
0.0
1001
ACAD
1010
0.0
1020
0.0
1030
0.0
1001
ACDBBLOCKREPETAG
1070
     1
1071
       12
1005
12180C
  0
LINE
  5
12180D
  8
SLIM
 10
9914.9999999999982
 20
-719.07897551572535
 30
0.0
 11
9979.0789755157257
 21
-654.99999999999966
 31
0.0
1001
ACAD
1010
0.0
1020
0.0
1030
0.0
1001
ACDBBLOCKREPETAG
1070
     1
1071
       13
1005
12180D
  0
LINE
  5
12180E
  8
SLIM
 10
9914.9999999999982
 20
-737.03948775786239
 30
0.0
 11
9997.0394877578656
 21
-654.99999999999966
 31
0.0
1001
ACAD
1010
0.0
1020
0.0
1030
0.0
1001
ACDBBLOCKREPETAG
1070
     1
1071
       14
1005
12180E
  0
LINE
  5
12180F
  8
SLIM
 10
9915.2836007495607
 20
-754.71639925044144
 30
0.0
 11
10015.0
 21
-654.99999999999966
 31
0.0
1001
ACAD
1010
0.0
1020
0.0
1030
0.0
1001
ACDBBLOCKREPETAG
1070
     1
1071
       15
1005
12180F
  0
LINE
  5
121810
  8
SLIM
 10
9917.4979104780396
 20
-770.46260176409703
 30
0.0
 11
10032.96051224214
 21
-654.99999999999966
 31
0.0
1001
ACAD
1010
0.0
1020
0.0
1030
0.0
1001
ACDBBLOCKREPETAG
1070
     1
1071
       16
1005
121810
  0
LINE
  5
121811
  8
SLIM
 10
9919.7122202065257
 20
-786.20880427775228
 30
0.0
 11
10050.921024484271
 21
-654.99999999999966
 31
0.0
1001
ACAD
1010
0.0
1020
0.0
1030
0.0
1001
ACDBBLOCKREPETAG
1070
     1
1071
       17
1005
121811
  0
LINE
  5
121812
  8
SLIM
 10
9921.9265299350063
 20
-801.95500679140764
 30
0.0
 11
10068.881536726411
 21
-654.99999999999966
 31
0.0
1001
ACAD
1010
0.0
1020
0.0
1030
0.0
1001
ACDBBLOCKREPETAG
1070
     1
1071
       18
1005
121812
  0
LINE
  5
121813
  8
SLIM
 10
9924.1408396634924
 20
-817.70120930506289
 30
0.0
 11
10085.000000000009
 21
-656.84204896854555
 31
0.0
1001
ACAD
1010
0.0
1020
0.0
1030
0.0
1001
ACDBBLOCKREPETAG
1070
     1
1071
       19
1005
121813
  0
LINE
  5
121814
  8
SLIM
 10
9926.3551493919731
 20
-833.44741181871825
 30
0.0
 11
10085.0
 21
-674.80256121068533
 31
0.0
1001
ACAD
1010
0.0
1020
0.0
1030
0.0
1001
ACDBBLOCKREPETAG
1070
     1
1071
       20
1005
121814
  0
LINE
  5
121815
  8
SLIM
 10
9928.5694591204574
 20
-849.19361433237373
 30
0.0
 11
10085.0
 21
-692.76307345282498
 31
0.0
1001
ACAD
1010
0.0
1020
0.0
1030
0.0
1001
ACDBBLOCKREPETAG
1070
     1
1071
       21
1005
121815
  0
LINE
  5
121816
  8
SLIM
 10
9930.7837688489417
 20
-864.9398168460292
 30
0.0
 11
10085.0
 21
-710.7235856949643
 31
0.0
1001
ACAD
1010
0.0
1020
0.0
1030
0.0
1001
ACDBBLOCKREPETAG
1070
     1
1071
       22
1005
121816
  0
LINE
  5
121817
  8
SLIM
 10
9932.9980785774187
 20
-880.68601935968445
 30
0.0
 11
10085.0
 21
-728.68409793710396
 31
0.0
1001
ACAD
1010
0.0
1020
0.0
1030
0.0
1001
ACDBBLOCKREPETAG
1070
     1
1071
       23
1005
121817
  0
LINE
  5
121818
  8
SLIM
 10
9932.9999999999927
 20
-898.64461017925157
 30
0.0
 11
10085.0
 21
-746.64461017924395
 31
0.0
1001
ACAD
1010
0.0
1020
0.0
1030
0.0
1001
ACDBBLOCKREPETAG
1070
     1
1071
       24
1005
121818
  0
LINE
  5
121819
  8
SLIM
 10
9932.9999999999927
 20
-916.60512242138964
 30
0.0
 11
10083.05183715436
 21
-766.55328526701635
 31
0.0
1001
ACAD
1010
0.0
1020
0.0
1030
0.0
1001
ACDBBLOCKREPETAG
1070
     1
1071
       25
1005
121819
  0
LINE
  5
12181A
  8
SLIM
 10
9942.5656346635242
 20
-924.99999999999602
 30
0.0
 11
10080.11284424201
 21
-787.45279042150355
 31
0.0
1001
ACAD
1010
0.0
1020
0.0
1030
0.0
1001
ACDBBLOCKREPETAG
1070
     1
1071
       26
1005
12181A
  0
LINE
  5
12181B
  8
SLIM
 10
9960.5261469056641
 20
-924.99999999999682
 30
0.0
 11
10077.17385132967
 21
-808.35229557599098
 31
0.0
1001
ACAD
1010
0.0
1020
0.0
1030
0.0
1001
ACDBBLOCKREPETAG
1070
     1
1071
       27
1005
12181B
  0
LINE
  5
12181C
  8
SLIM
 10
9978.4866591478003
 20
-924.99999999999693
 30
0.0
 11
10074.23485841732
 21
-829.25180073047829
 31
0.0
1001
ACAD
1010
0.0
1020
0.0
1030
0.0
1001
ACDBBLOCKREPETAG
1070
     1
1071
       28
1005
12181C
  0
LINE
  5
12181D
  8
SLIM
 10
9996.4471713899384
 20
-924.99999999999761
 30
0.0
 11
10071.29586550497
 21
-850.15130588496561
 31
0.0
1001
ACAD
1010
0.0
1020
0.0
1030
0.0
1001
ACDBBLOCKREPETAG
1070
     1
1071
       29
1005
12181D
  0
LINE
  5
12181E
  8
SLIM
 10
10014.40768363206
 20
-924.99999999999818
 30
0.0
 11
10068.35687259262
 21
-871.05081103945292
 31
0.0
1001
ACAD
1010
0.0
1020
0.0
1030
0.0
1001
ACDBBLOCKREPETAG
1070
     1
1071
       30
1005
12181E
  0
LINE
  5
12181F
  8
SLIM
 10
10032.368195874211
 20
-924.99999999999841
 30
0.0
 11
10067.000000000009
 21
-890.36819587420155
 31
0.0
1001
ACAD
1010
0.0
1020
0.0
1030
0.0
1001
ACDBBLOCKREPETAG
1070
     1
1071
       31
1005
12181F
  0
LINE
  5
121820
  8
SLIM
 10
10050.328708116351
 20
-924.9999999999992
 30
0.0
 11
10067.000000000009
 21
-908.32870811633984
 31
0.0
1001
ACAD
1010
0.0
1020
0.0
1030
0.0
1001
ACDBBLOCKREPETAG
1070
     1
1071
       32
1005
121820
  0
LINE
  5
121821
  8
OBJECT
 10
9932.9999999999927
 20
-924.99999999999602
 30
0.0
 11
10067.000000000009
 21
-924.99999999999955
 31
0.0
1001
ACDBBLOCKREPETAG
1070
     1
1071
        1
1005
121821
  0
LINE
  5
121822
  8
OBJECT
 10
9914.9999999999927
 20
-654.99999999999966
 30
0.0
 11
9915.0
 21
-752.69968280914088
 31
0.0
1001
ACDBBLOCKREPETAG
1070
     1
1071
        2
1005
121822
  0
LINE
  5
121823
  8
OBJECT
 10
10085.000000000009
 20
-654.99999999999966
 30
0.0
 11
10085.0
 21
-752.69968280917192
 31
0.0
1001
ACDBBLOCKREPETAG
1070
     1
1071
        3
1005
121823
  0
LINE
  5
121824
  8
OBJECT
 10
9915.0
 20
-752.69968280914088
 30
0.0
 11
9932.9999999999927
 21
-880.69968280908085
 31
0.0
1001
ACDBBLOCKREPETAG
1070
     1
1071
        4
1005
121824
  0
LINE
  5
121825
  8
OBJECT
 10
10067.000000000009
 20
-880.69968280912815
 30
0.0
 11
10085.0
 21
-752.69968280917192
 31
0.0
1001
ACDBBLOCKREPETAG
1070
     1
1071
        5
1005
121825
  0
LINE
  5
121826
  8
OBJECT
 10
10085.000000000009
 20
-654.99999999999966
 30
0.0
 11
9914.9999999999927
 21
-654.99999999999966
 31
0.0
1001
ACDBBLOCKREPETAG
1070
     1
1071
        6
1005
121826
  0
LINE
  5
121827
  8
OBJECT
 10
9932.9999999999927
 20
-880.69968280908085
 30
0.0
 11
9932.9999999999927
 21
-924.99999999999602
 31
0.0
1001
ACDBBLOCKREPETAG
1070
     1
1071
        8
1005
121827
  0
LINE
  5
121828
  8
OBJECT
 10
10067.000000000009
 20
-880.69968280912815
 30
0.0
 11
10067.000000000009
 21
-924.99999999999955
 31
0.0
1001
ACDBBLOCKREPETAG
1070
     1
1071
        9
1005
121828
  0
LINE
  5
121829
  8
SLIM
 10
7914.9999999999918
 20
-665.19743878931502
 30
0.0
 11
7925.1974387893079
 21
-655.0
 31
0.0
1001
ACAD
1010
0.0
1020
0.0
1030
0.0
1001
ACDBBLOCKREPETAG
1070
     1
1071
       12
1005
121829
  0
LINE
  5
12182A
  8
SLIM
 10
7914.9999999999964
 20
-683.15795103145194
 30
0.0
 11
7943.1579510314459
 21
-655.0
 31
0.0
1001
ACAD
1010
0.0
1020
0.0
1030
0.0
1001
ACDBBLOCKREPETAG
1070
     1
1071
       13
1005
12182A
  0
LINE
  5
12182B
  8
SLIM
 10
7914.9999999999982
 20
-701.11846327358865
 30
0.0
 11
7961.1184632735867
 21
-655.0
 31
0.0
1001
ACAD
1010
0.0
1020
0.0
1030
0.0
1001
ACDBBLOCKREPETAG
1070
     1
1071
       14
1005
12182B
  0
LINE
  5
12182C
  8
SLIM
 10
7914.9999999999982
 20
-719.07897551572592
 30
0.0
 11
7979.078975515723
 21
-655.0
 31
0.0
1001
ACAD
1010
0.0
1020
0.0
1030
0.0
1001
ACDBBLOCKREPETAG
1070
     1
1071
       15
1005
12182C
  0
LINE
  5
12182D
  8
SLIM
 10
7914.9999999999982
 20
-737.03948775786273
 30
0.0
 11
7997.0394877578628
 21
-655.0
 31
0.0
1001
ACAD
1010
0.0
1020
0.0
1030
0.0
1001
ACDBBLOCKREPETAG
1070
     1
1071
       16
1005
12182D
  0
LINE
  5
12182E
  8
SLIM
 10
7915.283600749558
 20
-754.7163992504419
 30
0.0
 11
8015.0
 21
-655.0
 31
0.0
1001
ACAD
1010
0.0
1020
0.0
1030
0.0
1001
ACDBBLOCKREPETAG
1070
     1
1071
       17
1005
12182E
  0
LINE
  5
12182F
  8
SLIM
 10
7917.4979104780423
 20
-770.46260176409714
 30
0.0
 11
8032.960512242139
 21
-655.0
 31
0.0
1001
ACAD
1010
0.0
1020
0.0
1030
0.0
1001
ACDBBLOCKREPETAG
1070
     1
1071
       18
1005
12182F
  0
LINE
  5
121830
  8
SLIM
 10
7919.7122202065239
 20
-786.20880427775273
 30
0.0
 11
8050.9210244842798
 21
-655.0
 31
0.0
1001
ACAD
1010
0.0
1020
0.0
1030
0.0
1001
ACDBBLOCKREPETAG
1070
     1
1071
       19
1005
121830
  0
LINE
  5
121831
  8
SLIM
 10
7921.9265299350072
 20
-801.95500679140764
 30
0.0
 11
8068.8815367264133
 21
-655.0
 31
0.0
1001
ACAD
1010
0.0
1020
0.0
1030
0.0
1001
ACDBBLOCKREPETAG
1070
     1
1071
       20
1005
121831
  0
LINE
  5
121832
  8
SLIM
 10
7924.1408396634897
 20
-817.70120930506289
 30
0.0
 11
8085.0000000000064
 21
-656.84204896854612
 31
0.0
1001
ACAD
1010
0.0
1020
0.0
1030
0.0
1001
ACDBBLOCKREPETAG
1070
     1
1071
       21
1005
121832
  0
LINE
  5
121833
  8
SLIM
 10
7926.3551493919731
 20
-833.44741181871825
 30
0.0
 11
8085.0000000000064
 21
-674.80256121068555
 31
0.0
1001
ACAD
1010
0.0
1020
0.0
1030
0.0
1001
ACDBBLOCKREPETAG
1070
     1
1071
       22
1005
121833
  0
LINE
  5
121834
  8
SLIM
 10
7928.5694591204538
 20
-849.19361433237373
 30
0.0
 11
8085.0000000000064
 21
-692.76307345282532
 31
0.0
1001
ACAD
1010
0.0
1020
0.0
1030
0.0
1001
ACDBBLOCKREPETAG
1070
     1
1071
       23
1005
121834
  0
LINE
  5
121835
  8
SLIM
 10
7930.783768848939
 20
-864.93981684602898
 30
0.0
 11
8085.0000000000018
 21
-710.72358569496498
 31
0.0
1001
ACAD
1010
0.0
1020
0.0
1030
0.0
1001
ACDBBLOCKREPETAG
1070
     1
1071
       24
1005
121835
  0
LINE
  5
121836
  8
SLIM
 10
7932.9980785774214
 20
-880.68601935968422
 30
0.0
 11
8085.0000000000018
 21
-728.68409793710464
 31
0.0
1001
ACAD
1010
0.0
1020
0.0
1030
0.0
1001
ACDBBLOCKREPETAG
1070
     1
1071
       25
1005
121836
  0
LINE
  5
121837
  8
SLIM
 10
7943.0
 20
-888.64461017924452
 30
0.0
 11
7946.6446101792453
 21
-884.99999999999807
 31
0.0
1001
ACAD
1010
0.0
1020
0.0
1030
0.0
1001
ACDBBLOCKREPETAG
1070
     1
1071
       26
1005
121837
  0
LINE
  5
121838
  8
SLIM
 10
7946.6446101792453
 20
-884.99999999999807
 30
0.0
 11
8085.0
 21
-746.64461017924418
 31
0.0
1001
ACAD
1010
0.0
1020
0.0
1030
0.0
1001
ACDBBLOCKREPETAG
1070
     1
1071
       27
1005
121838
  0
LINE
  5
121839
  8
SLIM
 10
7944.6051224213861
 20
-904.99999999999807
 30
0.0
 11
7964.6051224213852
 21
-884.99999999999807
 31
0.0
1001
ACAD
1010
0.0
1020
0.0
1030
0.0
1001
ACDBBLOCKREPETAG
1070
     1
1071
       28
1005
121839
  0
LINE
  5
12183A
  8
SLIM
 10
7964.6051224213852
 20
-884.99999999999807
 30
0.0
 11
8083.051837154364
 21
-766.5532852670176
 31
0.0
1001
ACAD
1010
0.0
1020
0.0
1030
0.0
1001
ACDBBLOCKREPETAG
1070
     1
1071
       29
1005
12183A
  0
LINE
  5
12183B
  8
SLIM
 10
7962.5656346635242
 20
-904.99999999999807
 30
0.0
 11
7982.5656346635215
 21
-884.99999999999807
 31
0.0
1001
ACAD
1010
0.0
1020
0.0
1030
0.0
1001
ACDBBLOCKREPETAG
1070
     1
1071
       30
1005
12183B
  0
LINE
  5
12183C
  8
SLIM
 10
7982.5656346635215
 20
-884.99999999999807
 30
0.0
 11
8080.1128442420159
 21
-787.4527904215056
 31
0.0
1001
ACAD
1010
0.0
1020
0.0
1030
0.0
1001
ACDBBLOCKREPETAG
1070
     1
1071
       31
1005
12183C
  0
LINE
  5
12183D
  8
SLIM
 10
7980.5261469056622
 20
-904.99999999999807
 30
0.0
 11
8000.5261469056613
 21
-884.99999999999807
 31
0.0
1001
ACAD
1010
0.0
1020
0.0
1030
0.0
1001
ACDBBLOCKREPETAG
1070
     1
1071
       32
1005
12183D
  0
LINE
  5
12183E
  8
SLIM
 10
8000.5261469056613
 20
-884.99999999999807
 30
0.0
 11
8077.1738513296659
 21
-808.35229557599371
 31
0.0
1001
ACAD
1010
0.0
1020
0.0
1030
0.0
1001
ACDBBLOCKREPETAG
1070
     1
1071
       33
1005
12183E
  0
LINE
  5
12183F
  8
SLIM
 10
7998.4866591478003
 20
-904.99999999999807
 30
0.0
 11
8018.4866591478003
 21
-884.99999999999807
 31
0.0
1001
ACAD
1010
0.0
1020
0.0
1030
0.0
1001
ACDBBLOCKREPETAG
1070
     1
1071
       34
1005
12183F
  0
LINE
  5
121840
  8
SLIM
 10
8018.4866591478003
 20
-884.99999999999807
 30
0.0
 11
8074.234858417316
 21
-829.25180073048148
 31
0.0
1001
ACAD
1010
0.0
1020
0.0
1030
0.0
1001
ACDBBLOCKREPETAG
1070
     1
1071
       35
1005
121840
  0
LINE
  5
121841
  8
SLIM
 10
8016.4471713899393
 20
-904.99999999999807
 30
0.0
 11
8036.4471713899393
 21
-884.99999999999807
 31
0.0
1001
ACAD
1010
0.0
1020
0.0
1030
0.0
1001
ACDBBLOCKREPETAG
1070
     1
1071
       36
1005
121841
  0
LINE
  5
121842
  8
SLIM
 10
8036.4471713899393
 20
-884.99999999999807
 30
0.0
 11
8071.2958655049679
 21
-850.1513058849697
 31
0.0
1001
ACAD
1010
0.0
1020
0.0
1030
0.0
1001
ACDBBLOCKREPETAG
1070
     1
1071
       37
1005
121842
  0
LINE
  5
121843
  8
SLIM
 10
8034.4076836320774
 20
-904.99999999999807
 30
0.0
 11
8054.4076836320764
 21
-884.99999999999807
 31
0.0
1001
ACAD
1010
0.0
1020
0.0
1030
0.0
1001
ACDBBLOCKREPETAG
1070
     1
1071
       38
1005
121843
  0
LINE
  5
121844
  8
SLIM
 10
8054.4076836320764
 20
-884.99999999999807
 30
0.0
 11
8068.3568725926198
 21
-871.0508110394577
 31
0.0
1001
ACAD
1010
0.0
1020
0.0
1030
0.0
1001
ACDBBLOCKREPETAG
1070
     1
1071
       39
1005
121844
  0
LINE
  5
121845
  8
SLIM
 10
8052.3681958742136
 20
-904.99999999999807
 30
0.0
 11
8057.0
 21
-900.36819587421292
 31
0.0
1001
ACAD
1010
0.0
1020
0.0
1030
0.0
1001
ACDBBLOCKREPETAG
1070
     1
1071
       40
1005
121845
  0
LINE
  5
121846
  8
OBJECT
 10
7943.0
 20
-904.99999999999807
 30
0.0
 11
8057.0
 21
-904.99999999999807
 31
0.0
1001
ACDBBLOCKREPETAG
1070
     1
1071
        1
1005
121846
  0
LINE
  5
121847
  8
OBJECT
 10
7933.6047321049664
 20
-884.99999999999807
 30
0.0
 11
8066.3952678950427
 21
-884.99999999999807
 31
0.0
1001
ACDBBLOCKREPETAG
1070
     1
1071
        2
1005
121847
  0
LINE
  5
121848
  8
OBJECT
 10
7943.0
 20
-904.99999999999807
 30
0.0
 11
7943.0
 21
-884.99999999999807
 31
0.0
1001
ACDBBLOCKREPETAG
1070
     1
1071
        3
1005
121848
  0
LINE
  5
121849
  8
OBJECT
 10
8057.0
 20
-904.99999999999807
 30
0.0
 11
8057.0
 21
-884.99999999999807
 31
0.0
1001
ACDBBLOCKREPETAG
1070
     1
1071
        4
1005
121849
  0
LINE
  5
12184A
  8
OBJECT
 10
7914.9999999999918
 20
-655.0
 30
0.0
 11
7915.0
 21
-752.69968280914145
 31
0.0
1001
ACDBBLOCKREPETAG
1070
     1
1071
        5
1005
12184A
  0
LINE
  5
12184B
  8
OBJECT
 10
8085.0000000000064
 20
-655.0
 30
0.0
 11
8085.0
 21
-752.69968280917203
 31
0.0
1001
ACDBBLOCKREPETAG
1070
     1
1071
        6
1005
12184B
  0
LINE
  5
12184C
  8
OBJECT
 10
7915.0
 20
-752.69968280914145
 30
0.0
 11
7933.6047321049664
 21
-884.99999999999807
 31
0.0
1001
ACDBBLOCKREPETAG
1070
     1
1071
        7
1005
12184C
  0
LINE
  5
12184D
  8
OBJECT
 10
8066.3952678950427
 20
-884.99999999999807
 30
0.0
 11
8085.0
 21
-752.69968280917203
 31
0.0
1001
ACDBBLOCKREPETAG
1070
     1
1071
        8
1005
12184D
  0
LINE
  5
12184E
  8
OBJECT
 10
8085.0000000000064
 20
-655.0
 30
0.0
 11
7914.9999999999918
 21
-655.0
 31
0.0
1001
ACDBBLOCKREPETAG
1070
     1
1071
        9
1005
12184E
  0
ARC
  5
12184F
  8
OBJECT
 10
12000.0
 20
-199.99999999999909
 30
0.0
 40
50.0
 50
298.81994300000417
 51
228.52376955964741
1001
ACDBBLOCKREPETAG
1070
     1
1071
      185
1005
12184F
  0
LINE
  5
121850
  8
SLIM
 10
11927.30183005652
 20
-155.95484036957691
 30
0.0
 11
11955.954840369581
 21
-127.30183005652231
 31
0.0
1001
GRADIENTCOLOR1ACI
1070
     5
1001
GRADIENTCOLOR2ACI
1070
     2
1001
ACAD
1010
0.0
1020
0.0
1030
0.0
1001
ACDBBLOCKREPETAG
1070
     1
1071
      442
1005
121850
  0
LINE
  5
121851
  8
SLIM
 10
11919.48615207084
 20
-172.75077447633191
 30
0.0
 11
11938.29030895727
 21
-153.94661758989659
 31
0.0
1001
GRADIENTCOLOR1ACI
1070
     5
1001
GRADIENTCOLOR2ACI
1070
     2
1001
ACAD
1010
0.0
1020
0.0
1030
0.0
1001
ACDBBLOCKREPETAG
1070
     1
1071
      443
1005
121851
  0
LINE
  5
121852
  8
SLIM
 10
11953.9466175899
 20
-138.29030895727169
 30
0.0
 11
11972.75077447633
 21
-119.4861520708364
 31
0.0
1001
GRADIENTCOLOR1ACI
1070
     5
1001
GRADIENTCOLOR2ACI
1070
     2
1001
ACAD
1010
0.0
1020
0.0
1030
0.0
1001
ACDBBLOCKREPETAG
1070
     1
1071
      444
1005
121852
  0
LINE
  5
121853
  8
SLIM
 10
11916.35966799338
 20
-184.8575146748604
 30
0.0
 11
11927.69595835578
 21
-173.5212243124561
 31
0.0
1001
GRADIENTCOLOR1ACI
1070
     5
1001
GRADIENTCOLOR2ACI
1070
     2
1001
ACAD
1010
0.0
1020
0.0
1030
0.0
1001
ACDBBLOCKREPETAG
1070
     1
1071
      445
1005
121853
  0
LINE
  5
121854
  8
SLIM
 10
11973.521224312461
 20
-127.6959583557812
 30
0.0
 11
11984.857514674861
 21
-116.359667993377
 31
0.0
1001
GRADIENTCOLOR1ACI
1070
     5
1001
GRADIENTCOLOR2ACI
1070
     2
1001
ACAD
1010
0.0
1020
0.0
1030
0.0
1001
ACDBBLOCKREPETAG
1070
     1
1071
      446
1005
121854
  0
LINE
  5
121855
  8
SLIM
 10
11915.14405758905
 20
-195.0533812002549
 30
0.0
 11
11924.30302164318
 21
-185.89441714612491
 31
0.0
1001
GRADIENTCOLOR1ACI
1070
     5
1001
GRADIENTCOLOR2ACI
1070
     2
1001
ACAD
1010
0.0
1020
0.0
1030
0.0
1001
ACDBBLOCKREPETAG
1070
     1
1071
      447
1005
121855
  0
LINE
  5
121856
  8
SLIM
 10
11985.894417146121
 20
-124.30302164318159
 30
0.0
 11
11995.05338120025
 21
-115.1440575890517
 31
0.0
1001
GRADIENTCOLOR1ACI
1070
     5
1001
GRADIENTCOLOR2ACI
1070
     2
1001
ACAD
1010
0.0
1020
0.0
1030
0.0
1001
ACDBBLOCKREPETAG
1070
     1
1071
      448
1005
121856
  0
LINE
  5
121857
  8
SLIM
 10
11915.097963557469
 20
-204.07973135290339
 30
0.0
 11
11919.17769491037
 21
-199.99999999999909
 31
0.0
1001
GRADIENTCOLOR1ACI
1070
     5
1001
GRADIENTCOLOR2ACI
1070
     2
1001
ACAD
1010
0.0
1020
0.0
1030
0.0
1001
ACDBBLOCKREPETAG
1070
     1
1071
      449
1005
121857
  0
LINE
  5
121858
  8
SLIM
 10
12000.0
 20
-119.1776949103767
 30
0.0
 11
12004.0797313529
 21
-115.0979635574724
 31
0.0
1001
GRADIENTCOLOR1ACI
1070
     5
1001
GRADIENTCOLOR2ACI
1070
     2
1001
ACAD
1010
0.0
1020
0.0
1030
0.0
1001
ACDBBLOCKREPETAG
1070
     1
1071
      450
1005
121858
  0
LINE
  5
121859
  8
SLIM
 10
11919.17769491037
 20
-199.99999999999909
 30
0.0
 11
11923.09996216117
 21
-196.07773274920581
 31
0.0
1001
GRADIENTCOLOR1ACI
1070
     5
1001
GRADIENTCOLOR2ACI
1070
     2
1001
ACAD
1010
0.0
1020
0.0
1030
0.0
1001
ACDBBLOCKREPETAG
1070
     1
1071
      451
1005
121859
  0
LINE
  5
12185A
  8
SLIM
 10
11996.077732749211
 20
-123.0999621611699
 30
0.0
 11
12000.0
 21
-119.1776949103767
 31
0.0
1001
GRADIENTCOLOR1ACI
1070
     5
1001
GRADIENTCOLOR2ACI
1070
     2
1001
ACAD
1010
0.0
1020
0.0
1030
0.0
1001
ACDBBLOCKREPETAG
1070
     1
1071
      452
1005
12185A
  0
LINE
  5
12185B
  8
SLIM
 10
11915.889972620869
 20
-212.26797841057399
 30
0.0
 11
11923.16223077717
 21
-204.9957202542767
 31
0.0
1001
GRADIENTCOLOR1ACI
1070
     5
1001
GRADIENTCOLOR2ACI
1070
     2
1001
ACAD
1010
0.0
1020
0.0
1030
0.0
1001
ACDBBLOCKREPETAG
1070
     1
1071
      453
1005
12185B
  0
LINE
  5
12185C
  8
SLIM
 10
12004.995720254279
 20
-123.1622307771683
 30
0.0
 11
12012.267978410569
 21
-115.88997262087101
 31
0.0
1001
GRADIENTCOLOR1ACI
1070
     5
1001
GRADIENTCOLOR2ACI
1070
     2
1001
ACAD
1010
0.0
1020
0.0
1030
0.0
1001
ACDBBLOCKREPETAG
1070
     1
1071
      454
1005
12185C
  0
LINE
  5
12185D
  8
SLIM
 10
11917.338265695151
 20
-219.79994145736151
 30
0.0
 11
11924.11014778555
 21
-213.02805936696359
 31
0.0
1001
GRADIENTCOLOR1ACI
1070
     5
1001
GRADIENTCOLOR2ACI
1070
     2
1001
ACAD
1010
0.0
1020
0.0
1030
0.0
1001
ACDBBLOCKREPETAG
1070
     1
1071
      455
1005
12185D
  0
LINE
  5
12185E
  8
SLIM
 10
12013.028059366959
 20
-124.1101477855505
 30
0.0
 11
12019.799941457361
 21
-117.3382656951526
 31
0.0
1001
GRADIENTCOLOR1ACI
1070
     5
1001
GRADIENTCOLOR2ACI
1070
     2
1001
ACAD
1010
0.0
1020
0.0
1030
0.0
1001
ACDBBLOCKREPETAG
1070
     1
1071
      456
1005
12185E
  0
LINE
  5
12185F
  8
SLIM
 10
11919.331259406301
 20
-226.78720386727881
 30
0.0
 11
11925.744381959341
 21
-220.3740813142449
 31
0.0
1001
GRADIENTCOLOR1ACI
1070
     5
1001
GRADIENTCOLOR2ACI
1070
     2
1001
ACAD
1010
0.0
1020
0.0
1030
0.0
1001
ACDBBLOCKREPETAG
1070
     1
1071
      457
1005
12185F
  0
LINE
  5
121860
  8
SLIM
 10
12020.374081314239
 20
-125.7443819593384
 30
0.0
 11
12026.787203867279
 21
-119.3312594063044
 31
0.0
1001
GRADIENTCOLOR1ACI
1070
     5
1001
GRADIENTCOLOR2ACI
1070
     2
1001
ACAD
1010
0.0
1020
0.0
1030
0.0
1001
ACDBBLOCKREPETAG
1070
     1
1071
      458
1005
121860
  0
LINE
  5
121861
  8
SLIM
 10
11921.79571631862
 20
-233.30300307603289
 30
0.0
 11
11927.946247395779
 21
-227.1524719988744
 31
0.0
1001
GRADIENTCOLOR1ACI
1070
     5
1001
GRADIENTCOLOR2ACI
1070
     2
1001
ACAD
1010
0.0
1020
0.0
1030
0.0
1001
ACDBBLOCKREPETAG
1070
     1
1071
      459
1005
121861
  0
LINE
  5
121862
  8
SLIM
 10
12027.15247199887
 20
-127.946247395778
 30
0.0
 11
12033.303003076029
 21
-121.7957163186195
 31
0.0
1001
GRADIENTCOLOR1ACI
1070
     5
1001
GRADIENTCOLOR2ACI
1070
     2
1001
ACAD
1010
0.0
1020
0.0
1030
0.0
1001
ACDBBLOCKREPETAG
1070
     1
1071
      460
1005
121862
  0
LINE
  5
121863
  8
SLIM
 10
11924.681663531341
 20
-239.39731198437769
 30
0.0
 11
11930.63987686439
 21
-233.4390986513296
 31
0.0
1001
GRADIENTCOLOR1ACI
1070
     5
1001
GRADIENTCOLOR2ACI
1070
     2
1001
ACAD
1010
0.0
1020
0.0
1030
0.0
1001
ACDBBLOCKREPETAG
1070
     1
1071
      461
1005
121863
  0
LINE
  5
121864
  8
SLIM
 10
12033.43909865133
 20
-130.63987686439199
 30
0.0
 11
12039.397311984379
 21
-124.6816635313439
 31
0.0
1001
GRADIENTCOLOR1ACI
1070
     5
1001
GRADIENTCOLOR2ACI
1070
     2
1001
ACAD
1010
0.0
1020
0.0
1030
0.0
1001
ACDBBLOCKREPETAG
1070
     1
1071
      462
1005
121864
  0
LINE
  5
121865
  8
SLIM
 10
11927.954461102419
 20
-245.10477053436691
 30
0.0
 11
11933.77500701499
 21
-239.28422462179751
 31
0.0
1001
GRADIENTCOLOR1ACI
1070
     5
1001
GRADIENTCOLOR2ACI
1070
     2
1001
ACAD
1010
0.0
1020
0.0
1030
0.0
1001
ACDBBLOCKREPETAG
1070
     1
1071
      463
1005
121865
  0
LINE
  5
121866
  8
SLIM
 10
12039.284224621801
 20
-133.77500701499321
 30
0.0
 11
12045.10477053437
 21
-127.95446110242381
 31
0.0
1001
GRADIENTCOLOR1ACI
1070
     5
1001
GRADIENTCOLOR2ACI
1070
     2
1001
ACAD
1010
0.0
1020
0.0
1030
0.0
1001
ACDBBLOCKREPETAG
1070
     1
1071
      464
1005
121866
  0
LINE
  5
121867
  8
SLIM
 10
11931.59033196866
 20
-250.4491557891954
 30
0.0
 11
11937.31820758806
 21
-244.72128016980341
 31
0.0
1001
GRADIENTCOLOR1ACI
1070
     5
1001
GRADIENTCOLOR2ACI
1070
     2
1001
ACAD
1010
0.0
1020
0.0
1030
0.0
1001
ACDBBLOCKREPETAG
1070
     1
1071
      465
1005
121867
  0
LINE
  5
121868
  8
SLIM
 10
12044.721280169801
 20
-137.31820758805651
 30
0.0
 11
12050.449155789191
 21
-131.59033196866449
 31
0.0
1001
GRADIENTCOLOR1ACI
1070
     5
1001
GRADIENTCOLOR2ACI
1070
     2
1001
ACAD
1010
0.0
1020
0.0
1030
0.0
1001
ACDBBLOCKREPETAG
1070
     1
1071
      466
1005
121868
  0
LINE
  5
121869
  8
SLIM
 10
11935.573749692519
 20
-255.4459941864034
 30
0.0
 11
11941.24811054159
 21
-249.77163333734029
 31
0.0
1001
GRADIENTCOLOR1ACI
1070
     5
1001
GRADIENTCOLOR2ACI
1070
     2
1001
ACAD
1010
0.0
1020
0.0
1030
0.0
1001
ACDBBLOCKREPETAG
1070
     1
1071
      467
1005
121869
  0
LINE
  5
12186A
  8
SLIM
 10
12053.01974387892
 20
-137.99999999999909
 30
0.0
 11
12055.445994186401
 21
-135.57374969252561
 31
0.0
1001
GRADIENTCOLOR1ACI
1070
     5
1001
GRADIENTCOLOR2ACI
1070
     2
1001
ACAD
1010
0.0
1020
0.0
1030
0.0
1001
ACDBBLOCKREPETAG
1070
     1
1071
      468
1005
12186A
  0
LINE
  5
12186B
  8
SLIM
 10
11939.895923599141
 20
-260.10407640085572
 30
0.0
 11
11945.55277784863
 21
-254.44722215136329
 31
0.0
1001
GRADIENTCOLOR1ACI
1070
     5
1001
GRADIENTCOLOR2ACI
1070
     2
1001
ACAD
1010
0.0
1020
0.0
1030
0.0
1001
ACDBBLOCKREPETAG
1070
     1
1071
      469
1005
12186B
  0
LINE
  5
12186C
  8
SLIM
 10
11944.55400581359
 20
-264.4262503074724
 30
0.0
 11
11950.228366662661
 21
-258.75188945840949
 31
0.0
1001
GRADIENTCOLOR1ACI
1070
     5
1001
GRADIENTCOLOR2ACI
1070
     2
1001
ACAD
1010
0.0
1020
0.0
1030
0.0
1001
ACDBBLOCKREPETAG
1070
     1
1071
      470
1005
12186C
  0
LINE
  5
12186D
  8
SLIM
 10
11949.5508442108
 20
-268.40966803133369
 30
0.0
 11
11955.27871983019
 21
-262.68179241194167
 31
0.0
1001
GRADIENTCOLOR1ACI
1070
     5
1001
GRADIENTCOLOR2ACI
1070
     2
1001
ACAD
1010
0.0
1020
0.0
1030
0.0
1001
ACDBBLOCKREPETAG
1070
     1
1071
      471
1005
12186D
  0
LINE
  5
12186E
  8
SLIM
 10
11954.89522946563
 20
-272.04553889757437
 30
0.0
 11
11960.715775378199
 21
-266.22499298500497
 31
0.0
1001
GRADIENTCOLOR1ACI
1070
     5
1001
GRADIENTCOLOR2ACI
1070
     2
1001
ACAD
1010
0.0
1020
0.0
1030
0.0
1001
ACDBBLOCKREPETAG
1070
     1
1071
      472
1005
12186E
  0
LINE
  5
12186F
  8
SLIM
 10
11960.602688015621
 20
-275.31833646865431
 30
0.0
 11
11966.56090134867
 21
-269.36012313560622
 31
0.0
1001
GRADIENTCOLOR1ACI
1070
     5
1001
GRADIENTCOLOR2ACI
1070
     2
1001
ACAD
1010
0.0
1020
0.0
1030
0.0
1001
ACDBBLOCKREPETAG
1070
     1
1071
      473
1005
12186F
  0
LINE
  5
121870
  8
SLIM
 10
11966.69699692396
 20
-278.20428368137868
 30
0.0
 11
11972.847528001121
 21
-272.05375260422022
 31
0.0
1001
GRADIENTCOLOR1ACI
1070
     5
1001
GRADIENTCOLOR2ACI
1070
     2
1001
ACAD
1010
0.0
1020
0.0
1030
0.0
1001
ACDBBLOCKREPETAG
1070
     1
1071
      474
1005
121870
  0
LINE
  5
121871
  8
SLIM
 10
11973.212796132721
 20
-280.66874059369371
 30
0.0
 11
11979.62591868575
 21
-274.25561804065973
 31
0.0
1001
GRADIENTCOLOR1ACI
1070
     5
1001
GRADIENTCOLOR2ACI
1070
     2
1001
ACAD
1010
0.0
1020
0.0
1030
0.0
1001
ACDBBLOCKREPETAG
1070
     1
1071
      475
1005
121871
  0
LINE
  5
121872
  8
SLIM
 10
11980.200058542639
 20
-282.6617343048456
 30
0.0
 11
11986.97194063303
 21
-275.88985221444773
 31
0.0
1001
GRADIENTCOLOR1ACI
1070
     5
1001
GRADIENTCOLOR2ACI
1070
     2
1001
ACAD
1010
0.0
1020
0.0
1030
0.0
1001
ACDBBLOCKREPETAG
1070
     1
1071
      476
1005
121872
  0
LINE
  5
121873
  8
SLIM
 10
11987.73202158942
 20
-284.11002737912702
 30
0.0
 11
11995.004279745721
 21
-276.83776922282988
 31
0.0
1001
GRADIENTCOLOR1ACI
1070
     5
1001
GRADIENTCOLOR2ACI
1070
     2
1001
ACAD
1010
0.0
1020
0.0
1030
0.0
1001
ACDBBLOCKREPETAG
1070
     1
1071
      477
1005
121873
  0
LINE
  5
121874
  8
SLIM
 10
11995.9202686471
 20
-284.9020364425258
 30
0.0
 11
12000.0
 21
-280.82230508962152
 31
0.0
1001
GRADIENTCOLOR1ACI
1070
     5
1001
GRADIENTCOLOR2ACI
1070
     2
1001
ACAD
1010
0.0
1020
0.0
1030
0.0
1001
ACDBBLOCKREPETAG
1070
     1
1071
      478
1005
121874
  0
LINE
  5
121875
  8
SLIM
 10
12000.0
 20
-280.82230508962152
 30
0.0
 11
12003.922267250789
 21
-276.90003783882821
 31
0.0
1001
GRADIENTCOLOR1ACI
1070
     5
1001
GRADIENTCOLOR2ACI
1070
     2
1001
ACAD
1010
0.0
1020
0.0
1030
0.0
1001
ACDBBLOCKREPETAG
1070
     1
1071
      479
1005
121875
  0
LINE
  5
121876
  8
SLIM
 10
12004.94661879974
 20
-284.85594241094651
 30
0.0
 11
12014.10558285387
 21
-275.6969783568166
 31
0.0
1001
GRADIENTCOLOR1ACI
1070
     5
1001
GRADIENTCOLOR2ACI
1070
     2
1001
ACAD
1010
0.0
1020
0.0
1030
0.0
1001
ACDBBLOCKREPETAG
1070
     1
1071
      480
1005
121876
  0
LINE
  5
121877
  8
SLIM
 10
12015.142485325139
 20
-283.64033200662118
 30
0.0
 11
12026.478775687539
 21
-272.30404164421702
 31
0.0
1001
GRADIENTCOLOR1ACI
1070
     5
1001
GRADIENTCOLOR2ACI
1070
     2
1001
ACAD
1010
0.0
1020
0.0
1030
0.0
1001
ACDBBLOCKREPETAG
1070
     1
1071
      481
1005
121877
  0
LINE
  5
121878
  8
SLIM
 10
12027.249225523659
 20
-280.51384792916173
 30
0.0
 11
12045.76307345283
 21
-261.99999999999909
 31
0.0
1001
GRADIENTCOLOR1ACI
1070
     5
1001
GRADIENTCOLOR2ACI
1070
     2
1001
ACAD
1010
0.0
1020
0.0
1030
0.0
1001
ACDBBLOCKREPETAG
1070
     1
1071
      482
1005
121878
  0
LINE
  5
121879
  8
SLIM
 10
12044.045159630419
 20
-272.69816994347582
 30
0.0
 11
12054.743329573899
 21
-261.99999999999909
 31
0.0
1001
GRADIENTCOLOR1ACI
1070
     5
1001
GRADIENTCOLOR2ACI
1070
     2
1001
ACAD
1010
0.0
1020
0.0
1030
0.0
1001
ACDBBLOCKREPETAG
1070
     1
1071
      483
1005
121879
  0
LINE
  5
12187A
  8
CENTER
 10
12080.0
 20
-199.99999999999909
 30
0.0
 11
11900.0
 21
-199.99999999999909
 31
0.0
1001
ACDBBLOCKREPETAG
1070
     1
1071
      187
1005
12187A
  0
LINE
  5
12187B
  8
CENTER
 10
12000.0
 20
-299.99999999999898
 30
0.0
 11
12000.0
 21
-99.999999999999091
 31
0.0
1001
ACDBBLOCKREPETAG
1070
     1
1071
      188
1005
12187B
  0
CIRCLE
  5
12187C
  8
OBJECT
 10
12000.0
 20
-199.99999999999909
 30
0.0
 40
70.0
1001
ACDBBLOCKREPETAG
1070
     1
1071
      189
1005
12187C
  0
CIRCLE
  5
12187D
  8
OBJECT
 10
12000.0
 20
-199.99999999999909
 30
0.0
 40
77.0
1001
ACDBBLOCKREPETAG
1070
     1
1071
      190
1005
12187D
  0
LINE
  5
12187E
  8
OBJECT
 10
12045.661800227321
 20
-137.99999999999909
 30
0.0
 11
12080.0
 21
-137.99999999999909
 31
0.0
1001
ACDBBLOCKREPETAG
1070
     1
1071
      192
1005
12187E
  0
LINE
  5
12187F
  8
OBJECT
 10
12045.661800227321
 20
-261.99999999999909
 30
0.0
 11
12080.0
 21
-261.99999999999909
 31
0.0
1001
ACDBBLOCKREPETAG
1070
     1
1071
      193
1005
12187F
  0
ARC
  5
121880
  8
OBJECT
 10
12000.0
 20
-199.99999999999909
 30
0.0
 40
85.0
 50
46.837102859853147
 51
313.16289714014681
1001
ACDBBLOCKREPETAG
1070
     1
1071
      202
1005
121880
  0
LINE
  5
121881
  8
OBJECT
 10
12024.1029330933
 20
-243.80694712371681
 30
0.0
 11
12020.659656999989
 21
-232.55462199999889
 31
0.0
1001
ACDBBLOCKREPETAG
1070
     1
1071
      321
1005
121881
  0
LINE
  5
121882
  8
OBJECT
 10
11986.79274990136
 20
-218.22553374208019
 30
0.0
 11
12020.659656999989
 21
-232.5546219999969
 31
0.0
1001
ACDBBLOCKREPETAG
1070
     1
1071
      323
1005
121882
  0
ARC
  5
121883
  8
OBJECT
 10
11982.8961697619
 20
-227.4351299990567
 30
0.0
 40
10.0
 50
67.066778292911366
 51
154.01473437031629
1001
ACDBBLOCKREPETAG
1070
     1
1071
      324
1005
121883
  0
ARC
  5
121884
  8
OBJECT
 10
11986.148839038129
 20
-225.55386256729159
 30
0.0
 40
7.0
 50
67.066778292911366
 51
154.0147337749826
1001
ACDBBLOCKREPETAG
1070
     1
1071
      325
1005
121884
  0
LINE
  5
121885
  8
OBJECT
 10
11969.4199755553
 20
-243.89888500818171
 30
0.0
 11
11979.85649182323
 21
-222.48688253356801
 31
0.0
1001
ACDBBLOCKREPETAG
1070
     1
1071
      353
1005
121885
  0
LINE
  5
121886
  8
OBJECT
 10
11965.29721690061
 20
-240.71813901882729
 30
0.0
 11
11973.90710226651
 21
-223.05373004430751
 31
0.0
1001
ACDBBLOCKREPETAG
1070
     1
1071
      354
1005
121886
  0
ARC
  5
121887
  8
OBJECT
 10
11976.57969530731
 20
-207.1289369828437
 30
0.0
 40
60.031113246032611
 50
314.07020130422319
 51
322.33936106089681
1001
ACDBBLOCKREPETAG
1070
     1
1071
      355
1005
121887
  0
CIRCLE
  5
121888
  8
OBJECT
 10
12000.0
 20
-199.99999999999909
 30
0.0
 40
53.5
1001
ACDBBLOCKREPETAG
1070
     1
1071
      356
1005
121888
  0
POINT
  5
121889
  8
DOTS
 10
12000.0
 20
-199.99999999999909
 30
0.0
 50
270.0
1001
ACDBBLOCKREPETAG
1070
     1
1071
      365
1005
121889
  0
LINE
  5
12188A
  8
OBJECT
 10
6024.1029330933034
 20
-243.80694712371681
 30
0.0
 11
6020.6596569999956
 21
-232.55462199999889
 31
0.0
1001
ACDBBLOCKREPETAG
1070
     1
1071
      300
1005
12188A
  0
LINE
  5
12188B
  8
OBJECT
 10
5986.7927499013749
 20
-218.22553374208019
 30
0.0
 11
6020.6596569999956
 21
-232.5546219999969
 31
0.0
1001
ACDBBLOCKREPETAG
1070
     1
1071
      302
1005
12188B
  0
ARC
  5
12188C
  8
OBJECT
 10
5982.8961697618997
 20
-227.4351299990567
 30
0.0
 40
10.0
 50
67.066778292911366
 51
154.0147343702935
1001
ACDBBLOCKREPETAG
1070
     1
1071
      303
1005
12188C
  0
ARC
  5
12188D
  8
OBJECT
 10
5986.1488390381273
 20
-225.55386256729159
 30
0.0
 40
7.0
 50
67.066778292911366
 51
154.0147337749826
1001
ACDBBLOCKREPETAG
1070
     1
1071
      304
1005
12188D
  0
LINE
  5
12188E
  8
OBJECT
 10
5969.4199755553018
 20
-243.89888500818171
 30
0.0
 11
5979.8564918232369
 21
-222.48688253356801
 31
0.0
1001
ACDBBLOCKREPETAG
1070
     1
1071
      341
1005
12188E
  0
LINE
  5
12188F
  8
OBJECT
 10
5965.2972169006089
 20
-240.71813901882729
 30
0.0
 11
5973.9071022665084
 21
-223.05373004430751
 31
0.0
1001
ACDBBLOCKREPETAG
1070
     1
1071
      342
1005
12188F
  0
ARC
  5
121890
  8
OBJECT
 10
5976.5796953073141
 20
-207.1289369828437
 30
0.0
 40
60.031113246032611
 50
314.07020130418567
 51
322.33936106089681
1001
ACDBBLOCKREPETAG
1070
     1
1071
      343
1005
121890
  0
CIRCLE
  5
121891
  8
OBJECT
 10
6000.0
 20
-199.99999999999909
 30
0.0
 40
53.5
1001
ACDBBLOCKREPETAG
1070
     1
1071
      344
1005
121891
  0
POINT
  5
121892
  8
DOTS
 10
6000.0
 20
-199.99999999999909
 30
0.0
 50
270.0
1001
ACDBBLOCKREPETAG
1070
     1
1071
      362
1005
121892
  0
ARC
  5
121893
  8
OBJECT
 10
6000.0
 20
-199.99999999999909
 30
0.0
 40
50.0
 50
298.81994300000417
 51
228.52376955965491
1001
ACDBBLOCKREPETAG
1070
     1
1071
        7
1005
121893
  0
LINE
  5
121894
  8
CENTER
 10
6080.0
 20
-199.99999999999909
 30
0.0
 11
5905.0
 21
-199.99999999999909
 31
0.0
1001
ACDBBLOCKREPETAG
1070
     1
1071
       14
1005
121894
  0
LINE
  5
121895
  8
CENTER
 10
6000.0
 20
-294.99999999999898
 30
0.0
 11
6000.0
 21
-104.9999999999991
 31
0.0
1001
ACDBBLOCKREPETAG
1070
     1
1071
       15
1005
121895
  0
CIRCLE
  5
121896
  8
OBJECT
 10
6000.0
 20
-199.99999999999909
 30
0.0
 40
70.0
1001
ACDBBLOCKREPETAG
1070
     1
1071
       16
1005
121896
  0
CIRCLE
  5
121897
  8
OBJECT
 10
6000.0
 20
-199.99999999999909
 30
0.0
 40
77.0
1001
ACDBBLOCKREPETAG
1070
     1
1071
       17
1005
121897
  0
ARC
  5
121898
  8
OBJECT
 10
6000.0
 20
-199.99999999999909
 30
0.0
 40
80.0
 50
50.80503257388439
 51
309.19496742611562
1001
ACDBBLOCKREPETAG
1070
     1
1071
       18
1005
121898
  0
LINE
  5
121899
  8
OBJECT
 10
6045.6618002273253
 20
-137.99999999999909
 30
0.0
 11
6080.0
 21
-137.99999999999909
 31
0.0
1001
ACDBBLOCKREPETAG
1070
     1
1071
       19
1005
121899
  0
LINE
  5
12189A
  8
OBJECT
 10
6045.6618002273253
 20
-261.99999999999909
 30
0.0
 11
6080.0
 21
-261.99999999999909
 31
0.0
1001
ACDBBLOCKREPETAG
1070
     1
1071
       20
1005
12189A
  0
LINE
  5
12189B
  8
CENTER
 10
12101.0
 20
-199.99999999999909
 30
0.0
 11
12080.0
 21
-199.99999999999909
 31
0.0
1001
ACDBBLOCKREPETAG
1070
     1
1071
        0
1005
12189B
  0
LINE
  5
12189C
  8
OBJECT
 10
12083.0
 20
-137.99999999999909
 30
0.0
 11
12080.0
 21
-137.99999999999909
 31
0.0
1001
ACDBBLOCKREPETAG
1070
     1
1071
        1
1005
12189C
  0
ARC
  5
12189D
  8
OBJECT
 10
12083.0
 20
-140.99999999999909
 30
0.0
 40
3.0
 50
0.0
 51
90.0
1001
ACDBBLOCKREPETAG
1070
     1
1071
        2
1005
12189D
  0
LINE
  5
12189E
  8
OBJECT
 10
12080.0
 20
-261.99999999999909
 30
0.0
 11
12083.0
 21
-261.99999999999909
 31
0.0
1001
ACDBBLOCKREPETAG
1070
     1
1071
        3
1005
12189E
  0
ARC
  5
12189F
  8
OBJECT
 10
12083.0
 20
-258.99999999999909
 30
0.0
 40
3.0
 50
270.0
 51
0.0
1001
ACDBBLOCKREPETAG
1070
     1
1071
        4
1005
12189F
  0
LINE
  5
1218A0
  8
OBJECT
 10
12086.0
 20
-258.99999999999909
 30
0.0
 11
12086.0
 21
-140.99999999999909
 31
0.0
1001
ACDBBLOCKREPETAG
1070
     1
1071
        5
1005
1218A0
  0
LINE
  5
1218A1
  8
CENTER
 10
6101.0
 20
-199.99999999999909
 30
0.0
 11
6080.0
 21
-199.99999999999909
 31
0.0
1001
ACDBBLOCKREPETAG
1070
     1
1071
        0
1005
1218A1
  0
LINE
  5
1218A2
  8
OBJECT
 10
6083.0
 20
-137.99999999999909
 30
0.0
 11
6080.0
 21
-137.99999999999909
 31
0.0
1001
ACDBBLOCKREPETAG
1070
     1
1071
        1
1005
1218A2
  0
ARC
  5
1218A3
  8
OBJECT
 10
6083.0
 20
-140.99999999999909
 30
0.0
 40
3.0
 50
0.0
 51
90.0
1001
ACDBBLOCKREPETAG
1070
     1
1071
        2
1005
1218A3
  0
LINE
  5
1218A4
  8
OBJECT
 10
6080.0
 20
-261.99999999999909
 30
0.0
 11
6083.0
 21
-261.99999999999909
 31
0.0
1001
ACDBBLOCKREPETAG
1070
     1
1071
        3
1005
1218A4
  0
ARC
  5
1218A5
  8
OBJECT
 10
6083.0
 20
-258.99999999999909
 30
0.0
 40
3.0
 50
270.0
 51
0.0
1001
ACDBBLOCKREPETAG
1070
     1
1071
        4
1005
1218A5
  0
LINE
  5
1218A6
  8
OBJECT
 10
6086.0
 20
-258.99999999999909
 30
0.0
 11
6086.0
 21
-140.99999999999909
 31
0.0
1001
ACDBBLOCKREPETAG
1070
     1
1071
        5
1005
1218A6
  0
ARC
  5
1218A7
  8
OBJECT
 10
10000.0
 20
-199.99999999999909
 30
0.0
 40
50.0
 50
298.81994300000417
 51
228.52376955964741
1001
ACDBBLOCKREPETAG
1070
     1
1071
      185
1005
1218A7
  0
LINE
  5
1218A8
  8
SLIM
 10
9927.3018300565236
 20
-155.95484036957691
 30
0.0
 11
9955.9548403695771
 21
-127.30183005652231
 31
0.0
1001
GRADIENTCOLOR1ACI
1070
     5
1001
GRADIENTCOLOR2ACI
1070
     2
1001
ACAD
1010
0.0
1020
0.0
1030
0.0
1001
ACDBBLOCKREPETAG
1070
     1
1071
      442
1005
1218A8
  0
LINE
  5
1218A9
  8
SLIM
 10
9919.4861520708382
 20
-172.75077447633191
 30
0.0
 11
9938.2903089572737
 21
-153.94661758989659
 31
0.0
1001
GRADIENTCOLOR1ACI
1070
     5
1001
GRADIENTCOLOR2ACI
1070
     2
1001
ACAD
1010
0.0
1020
0.0
1030
0.0
1001
ACDBBLOCKREPETAG
1070
     1
1071
      443
1005
1218A9
  0
LINE
  5
1218AA
  8
SLIM
 10
9953.9466175898997
 20
-138.29030895727169
 30
0.0
 11
9972.7507744763316
 21
-119.4861520708364
 31
0.0
1001
GRADIENTCOLOR1ACI
1070
     5
1001
GRADIENTCOLOR2ACI
1070
     2
1001
ACAD
1010
0.0
1020
0.0
1030
0.0
1001
ACDBBLOCKREPETAG
1070
     1
1071
      444
1005
1218AA
  0
LINE
  5
1218AB
  8
SLIM
 10
9916.3596679933817
 20
-184.8575146748604
 30
0.0
 11
9927.6959583557837
 21
-173.5212243124561
 31
0.0
1001
GRADIENTCOLOR1ACI
1070
     5
1001
GRADIENTCOLOR2ACI
1070
     2
1001
ACAD
1010
0.0
1020
0.0
1030
0.0
1001
ACDBBLOCKREPETAG
1070
     1
1071
      445
1005
1218AB
  0
LINE
  5
1218AC
  8
SLIM
 10
9973.5212243124606
 20
-127.6959583557812
 30
0.0
 11
9984.8575146748644
 21
-116.359667993377
 31
0.0
1001
GRADIENTCOLOR1ACI
1070
     5
1001
GRADIENTCOLOR2ACI
1070
     2
1001
ACAD
1010
0.0
1020
0.0
1030
0.0
1001
ACDBBLOCKREPETAG
1070
     1
1071
      446
1005
1218AC
  0
LINE
  5
1218AD
  8
SLIM
 10
9915.1440575890538
 20
-195.0533812002549
 30
0.0
 11
9924.3030216431835
 21
-185.89441714612491
 31
0.0
1001
GRADIENTCOLOR1ACI
1070
     5
1001
GRADIENTCOLOR2ACI
1070
     2
1001
ACAD
1010
0.0
1020
0.0
1030
0.0
1001
ACDBBLOCKREPETAG
1070
     1
1071
      447
1005
1218AD
  0
LINE
  5
1218AE
  8
SLIM
 10
9985.8944171461262
 20
-124.30302164318159
 30
0.0
 11
9995.0533812002577
 21
-115.1440575890517
 31
0.0
1001
GRADIENTCOLOR1ACI
1070
     5
1001
GRADIENTCOLOR2ACI
1070
     2
1001
ACAD
1010
0.0
1020
0.0
1030
0.0
1001
ACDBBLOCKREPETAG
1070
     1
1071
      448
1005
1218AE
  0
LINE
  5
1218AF
  8
SLIM
 10
9915.0979635574713
 20
-204.07973135290339
 30
0.0
 11
9919.1776949103787
 21
-199.99999999999909
 31
0.0
1001
GRADIENTCOLOR1ACI
1070
     5
1001
GRADIENTCOLOR2ACI
1070
     2
1001
ACAD
1010
0.0
1020
0.0
1030
0.0
1001
ACDBBLOCKREPETAG
1070
     1
1071
      449
1005
1218AF
  0
LINE
  5
1218B0
  8
SLIM
 10
10000.0
 20
-119.1776949103767
 30
0.0
 11
10004.0797313529
 21
-115.0979635574724
 31
0.0
1001
GRADIENTCOLOR1ACI
1070
     5
1001
GRADIENTCOLOR2ACI
1070
     2
1001
ACAD
1010
0.0
1020
0.0
1030
0.0
1001
ACDBBLOCKREPETAG
1070
     1
1071
      450
1005
1218B0
  0
LINE
  5
1218B1
  8
SLIM
 10
9919.1776949103787
 20
-199.99999999999909
 30
0.0
 11
9923.09996216117
 21
-196.07773274920581
 31
0.0
1001
GRADIENTCOLOR1ACI
1070
     5
1001
GRADIENTCOLOR2ACI
1070
     2
1001
ACAD
1010
0.0
1020
0.0
1030
0.0
1001
ACDBBLOCKREPETAG
1070
     1
1071
      451
1005
1218B1
  0
LINE
  5
1218B2
  8
SLIM
 10
9996.0777327492033
 20
-123.0999621611699
 30
0.0
 11
10000.0
 21
-119.1776949103767
 31
0.0
1001
GRADIENTCOLOR1ACI
1070
     5
1001
GRADIENTCOLOR2ACI
1070
     2
1001
ACAD
1010
0.0
1020
0.0
1030
0.0
1001
ACDBBLOCKREPETAG
1070
     1
1071
      452
1005
1218B2
  0
LINE
  5
1218B3
  8
SLIM
 10
9915.8899726208747
 20
-212.26797841057399
 30
0.0
 11
9923.1622307771686
 21
-204.9957202542767
 31
0.0
1001
GRADIENTCOLOR1ACI
1070
     5
1001
GRADIENTCOLOR2ACI
1070
     2
1001
ACAD
1010
0.0
1020
0.0
1030
0.0
1001
ACDBBLOCKREPETAG
1070
     1
1071
      453
1005
1218B3
  0
LINE
  5
1218B4
  8
SLIM
 10
10004.99572025427
 20
-123.1622307771683
 30
0.0
 11
10012.26797841056
 21
-115.88997262087101
 31
0.0
1001
GRADIENTCOLOR1ACI
1070
     5
1001
GRADIENTCOLOR2ACI
1070
     2
1001
ACAD
1010
0.0
1020
0.0
1030
0.0
1001
ACDBBLOCKREPETAG
1070
     1
1071
      454
1005
1218B4
  0
LINE
  5
1218B5
  8
SLIM
 10
9917.3382656951544
 20
-219.79994145736151
 30
0.0
 11
9924.1101477855536
 21
-213.02805936696359
 31
0.0
1001
GRADIENTCOLOR1ACI
1070
     5
1001
GRADIENTCOLOR2ACI
1070
     2
1001
ACAD
1010
0.0
1020
0.0
1030
0.0
1001
ACDBBLOCKREPETAG
1070
     1
1071
      455
1005
1218B5
  0
LINE
  5
1218B6
  8
SLIM
 10
10013.028059366959
 20
-124.1101477855505
 30
0.0
 11
10019.799941457361
 21
-117.3382656951526
 31
0.0
1001
GRADIENTCOLOR1ACI
1070
     5
1001
GRADIENTCOLOR2ACI
1070
     2
1001
ACAD
1010
0.0
1020
0.0
1030
0.0
1001
ACDBBLOCKREPETAG
1070
     1
1071
      456
1005
1218B6
  0
LINE
  5
1218B7
  8
SLIM
 10
9919.3312594063045
 20
-226.78720386727881
 30
0.0
 11
9925.7443819593445
 21
-220.3740813142449
 31
0.0
1001
GRADIENTCOLOR1ACI
1070
     5
1001
GRADIENTCOLOR2ACI
1070
     2
1001
ACAD
1010
0.0
1020
0.0
1030
0.0
1001
ACDBBLOCKREPETAG
1070
     1
1071
      457
1005
1218B7
  0
LINE
  5
1218B8
  8
SLIM
 10
10020.374081314239
 20
-125.7443819593384
 30
0.0
 11
10026.787203867279
 21
-119.3312594063044
 31
0.0
1001
GRADIENTCOLOR1ACI
1070
     5
1001
GRADIENTCOLOR2ACI
1070
     2
1001
ACAD
1010
0.0
1020
0.0
1030
0.0
1001
ACDBBLOCKREPETAG
1070
     1
1071
      458
1005
1218B8
  0
LINE
  5
1218B9
  8
SLIM
 10
9921.7957163186184
 20
-233.30300307603289
 30
0.0
 11
9927.9462473957792
 21
-227.1524719988744
 31
0.0
1001
GRADIENTCOLOR1ACI
1070
     5
1001
GRADIENTCOLOR2ACI
1070
     2
1001
ACAD
1010
0.0
1020
0.0
1030
0.0
1001
ACDBBLOCKREPETAG
1070
     1
1071
      459
1005
1218B9
  0
LINE
  5
1218BA
  8
SLIM
 10
10027.15247199887
 20
-127.946247395778
 30
0.0
 11
10033.303003076029
 21
-121.7957163186195
 31
0.0
1001
GRADIENTCOLOR1ACI
1070
     5
1001
GRADIENTCOLOR2ACI
1070
     2
1001
ACAD
1010
0.0
1020
0.0
1030
0.0
1001
ACDBBLOCKREPETAG
1070
     1
1071
      460
1005
1218BA
  0
LINE
  5
1218BB
  8
SLIM
 10
9924.6816635313444
 20
-239.39731198437769
 30
0.0
 11
9930.6398768643921
 21
-233.4390986513296
 31
0.0
1001
GRADIENTCOLOR1ACI
1070
     5
1001
GRADIENTCOLOR2ACI
1070
     2
1001
ACAD
1010
0.0
1020
0.0
1030
0.0
1001
ACDBBLOCKREPETAG
1070
     1
1071
      461
1005
1218BB
  0
LINE
  5
1218BC
  8
SLIM
 10
10033.43909865133
 20
-130.63987686439199
 30
0.0
 11
10039.39731198437
 21
-124.6816635313439
 31
0.0
1001
GRADIENTCOLOR1ACI
1070
     5
1001
GRADIENTCOLOR2ACI
1070
     2
1001
ACAD
1010
0.0
1020
0.0
1030
0.0
1001
ACDBBLOCKREPETAG
1070
     1
1071
      462
1005
1218BC
  0
LINE
  5
1218BD
  8
SLIM
 10
9927.9544611024248
 20
-245.10477053436691
 30
0.0
 11
9933.7750070149923
 21
-239.28422462179751
 31
0.0
1001
GRADIENTCOLOR1ACI
1070
     5
1001
GRADIENTCOLOR2ACI
1070
     2
1001
ACAD
1010
0.0
1020
0.0
1030
0.0
1001
ACDBBLOCKREPETAG
1070
     1
1071
      463
1005
1218BD
  0
LINE
  5
1218BE
  8
SLIM
 10
10039.284224621801
 20
-133.77500701499321
 30
0.0
 11
10045.104770534361
 21
-127.95446110242381
 31
0.0
1001
GRADIENTCOLOR1ACI
1070
     5
1001
GRADIENTCOLOR2ACI
1070
     2
1001
ACAD
1010
0.0
1020
0.0
1030
0.0
1001
ACDBBLOCKREPETAG
1070
     1
1071
      464
1005
1218BE
  0
LINE
  5
1218BF
  8
SLIM
 10
9931.5903319686659
 20
-250.4491557891954
 30
0.0
 11
9937.3182075880559
 21
-244.72128016980341
 31
0.0
1001
GRADIENTCOLOR1ACI
1070
     5
1001
GRADIENTCOLOR2ACI
1070
     2
1001
ACAD
1010
0.0
1020
0.0
1030
0.0
1001
ACDBBLOCKREPETAG
1070
     1
1071
      465
1005
1218BF
  0
LINE
  5
1218C0
  8
SLIM
 10
10044.721280169801
 20
-137.31820758805651
 30
0.0
 11
10050.449155789191
 21
-131.59033196866449
 31
0.0
1001
GRADIENTCOLOR1ACI
1070
     5
1001
GRADIENTCOLOR2ACI
1070
     2
1001
ACAD
1010
0.0
1020
0.0
1030
0.0
1001
ACDBBLOCKREPETAG
1070
     1
1071
      466
1005
1218C0
  0
LINE
  5
1218C1
  8
SLIM
 10
9935.5737496925303
 20
-255.4459941864034
 30
0.0
 11
9941.2481105415936
 21
-249.77163333734029
 31
0.0
1001
GRADIENTCOLOR1ACI
1070
     5
1001
GRADIENTCOLOR2ACI
1070
     2
1001
ACAD
1010
0.0
1020
0.0
1030
0.0
1001
ACDBBLOCKREPETAG
1070
     1
1071
      467
1005
1218C1
  0
LINE
  5
1218C2
  8
SLIM
 10
10053.019743878929
 20
-137.99999999999909
 30
0.0
 11
10055.445994186401
 21
-135.57374969252561
 31
0.0
1001
GRADIENTCOLOR1ACI
1070
     5
1001
GRADIENTCOLOR2ACI
1070
     2
1001
ACAD
1010
0.0
1020
0.0
1030
0.0
1001
ACDBBLOCKREPETAG
1070
     1
1071
      468
1005
1218C2
  0
LINE
  5
1218C3
  8
SLIM
 10
9939.8959235991442
 20
-260.10407640085572
 30
0.0
 11
9945.5527778486357
 21
-254.44722215136329
 31
0.0
1001
GRADIENTCOLOR1ACI
1070
     5
1001
GRADIENTCOLOR2ACI
1070
     2
1001
ACAD
1010
0.0
1020
0.0
1030
0.0
1001
ACDBBLOCKREPETAG
1070
     1
1071
      469
1005
1218C3
  0
LINE
  5
1218C4
  8
SLIM
 10
9944.5540058135957
 20
-264.4262503074724
 30
0.0
 11
9950.2283666626608
 21
-258.75188945840949
 31
0.0
1001
GRADIENTCOLOR1ACI
1070
     5
1001
GRADIENTCOLOR2ACI
1070
     2
1001
ACAD
1010
0.0
1020
0.0
1030
0.0
1001
ACDBBLOCKREPETAG
1070
     1
1071
      470
1005
1218C4
  0
LINE
  5
1218C5
  8
SLIM
 10
9949.5508442108039
 20
-268.40966803133369
 30
0.0
 11
9955.2787198301976
 21
-262.68179241194167
 31
0.0
1001
GRADIENTCOLOR1ACI
1070
     5
1001
GRADIENTCOLOR2ACI
1070
     2
1001
ACAD
1010
0.0
1020
0.0
1030
0.0
1001
ACDBBLOCKREPETAG
1070
     1
1071
      471
1005
1218C5
  0
LINE
  5
1218C6
  8
SLIM
 10
9954.8952294656337
 20
-272.04553889757437
 30
0.0
 11
9960.7157753781994
 21
-266.22499298500497
 31
0.0
1001
GRADIENTCOLOR1ACI
1070
     5
1001
GRADIENTCOLOR2ACI
1070
     2
1001
ACAD
1010
0.0
1020
0.0
1030
0.0
1001
ACDBBLOCKREPETAG
1070
     1
1071
      472
1005
1218C6
  0
LINE
  5
1218C7
  8
SLIM
 10
9960.6026880156223
 20
-275.31833646865431
 30
0.0
 11
9966.5609013486755
 21
-269.36012313560622
 31
0.0
1001
GRADIENTCOLOR1ACI
1070
     5
1001
GRADIENTCOLOR2ACI
1070
     2
1001
ACAD
1010
0.0
1020
0.0
1030
0.0
1001
ACDBBLOCKREPETAG
1070
     1
1071
      473
1005
1218C7
  0
LINE
  5
1218C8
  8
SLIM
 10
9966.6969969239635
 20
-278.20428368137868
 30
0.0
 11
9972.8475280011244
 21
-272.05375260422022
 31
0.0
1001
GRADIENTCOLOR1ACI
1070
     5
1001
GRADIENTCOLOR2ACI
1070
     2
1001
ACAD
1010
0.0
1020
0.0
1030
0.0
1001
ACDBBLOCKREPETAG
1070
     1
1071
      474
1005
1218C8
  0
LINE
  5
1218C9
  8
SLIM
 10
9973.2127961327205
 20
-280.66874059369371
 30
0.0
 11
9979.6259186857551
 21
-274.25561804065973
 31
0.0
1001
GRADIENTCOLOR1ACI
1070
     5
1001
GRADIENTCOLOR2ACI
1070
     2
1001
ACAD
1010
0.0
1020
0.0
1030
0.0
1001
ACDBBLOCKREPETAG
1070
     1
1071
      475
1005
1218C9
  0
LINE
  5
1218CA
  8
SLIM
 10
9980.2000585426413
 20
-282.6617343048456
 30
0.0
 11
9986.971940633035
 21
-275.88985221444773
 31
0.0
1001
GRADIENTCOLOR1ACI
1070
     5
1001
GRADIENTCOLOR2ACI
1070
     2
1001
ACAD
1010
0.0
1020
0.0
1030
0.0
1001
ACDBBLOCKREPETAG
1070
     1
1071
      476
1005
1218CA
  0
LINE
  5
1218CB
  8
SLIM
 10
9987.7320215894215
 20
-284.11002737912702
 30
0.0
 11
9995.0042797457209
 21
-276.83776922282988
 31
0.0
1001
GRADIENTCOLOR1ACI
1070
     5
1001
GRADIENTCOLOR2ACI
1070
     2
1001
ACAD
1010
0.0
1020
0.0
1030
0.0
1001
ACDBBLOCKREPETAG
1070
     1
1071
      477
1005
1218CB
  0
LINE
  5
1218CC
  8
SLIM
 10
9995.9202686470962
 20
-284.9020364425258
 30
0.0
 11
10000.0
 21
-280.82230508962152
 31
0.0
1001
GRADIENTCOLOR1ACI
1070
     5
1001
GRADIENTCOLOR2ACI
1070
     2
1001
ACAD
1010
0.0
1020
0.0
1030
0.0
1001
ACDBBLOCKREPETAG
1070
     1
1071
      478
1005
1218CC
  0
LINE
  5
1218CD
  8
SLIM
 10
10000.0
 20
-280.82230508962152
 30
0.0
 11
10003.922267250789
 21
-276.90003783882821
 31
0.0
1001
GRADIENTCOLOR1ACI
1070
     5
1001
GRADIENTCOLOR2ACI
1070
     2
1001
ACAD
1010
0.0
1020
0.0
1030
0.0
1001
ACDBBLOCKREPETAG
1070
     1
1071
      479
1005
1218CD
  0
LINE
  5
1218CE
  8
SLIM
 10
10004.94661879974
 20
-284.85594241094651
 30
0.0
 11
10014.10558285387
 21
-275.6969783568166
 31
0.0
1001
GRADIENTCOLOR1ACI
1070
     5
1001
GRADIENTCOLOR2ACI
1070
     2
1001
ACAD
1010
0.0
1020
0.0
1030
0.0
1001
ACDBBLOCKREPETAG
1070
     1
1071
      480
1005
1218CE
  0
LINE
  5
1218CF
  8
SLIM
 10
10015.142485325139
 20
-283.64033200662118
 30
0.0
 11
10026.478775687539
 21
-272.30404164421702
 31
0.0
1001
GRADIENTCOLOR1ACI
1070
     5
1001
GRADIENTCOLOR2ACI
1070
     2
1001
ACAD
1010
0.0
1020
0.0
1030
0.0
1001
ACDBBLOCKREPETAG
1070
     1
1071
      481
1005
1218CF
  0
LINE
  5
1218D0
  8
SLIM
 10
10027.249225523659
 20
-280.51384792916173
 30
0.0
 11
10045.76307345283
 21
-261.99999999999909
 31
0.0
1001
GRADIENTCOLOR1ACI
1070
     5
1001
GRADIENTCOLOR2ACI
1070
     2
1001
ACAD
1010
0.0
1020
0.0
1030
0.0
1001
ACDBBLOCKREPETAG
1070
     1
1071
      482
1005
1218D0
  0
LINE
  5
1218D1
  8
SLIM
 10
10044.045159630419
 20
-272.69816994347582
 30
0.0
 11
10054.743329573899
 21
-261.99999999999909
 31
0.0
1001
GRADIENTCOLOR1ACI
1070
     5
1001
GRADIENTCOLOR2ACI
1070
     2
1001
ACAD
1010
0.0
1020
0.0
1030
0.0
1001
ACDBBLOCKREPETAG
1070
     1
1071
      483
1005
1218D1
  0
LINE
  5
1218D2
  8
CENTER
 10
10080.0
 20
-199.99999999999909
 30
0.0
 11
9900.0
 21
-199.99999999999909
 31
0.0
1001
ACDBBLOCKREPETAG
1070
     1
1071
      187
1005
1218D2
  0
LINE
  5
1218D3
  8
CENTER
 10
10000.0
 20
-299.99999999999898
 30
0.0
 11
10000.0
 21
-99.999999999999091
 31
0.0
1001
ACDBBLOCKREPETAG
1070
     1
1071
      188
1005
1218D3
  0
CIRCLE
  5
1218D4
  8
OBJECT
 10
10000.0
 20
-199.99999999999909
 30
0.0
 40
70.0
1001
ACDBBLOCKREPETAG
1070
     1
1071
      189
1005
1218D4
  0
CIRCLE
  5
1218D5
  8
OBJECT
 10
10000.0
 20
-199.99999999999909
 30
0.0
 40
77.0
1001
ACDBBLOCKREPETAG
1070
     1
1071
      190
1005
1218D5
  0
LINE
  5
1218D6
  8
OBJECT
 10
10045.661800227321
 20
-137.99999999999909
 30
0.0
 11
10080.0
 21
-137.99999999999909
 31
0.0
1001
ACDBBLOCKREPETAG
1070
     1
1071
      192
1005
1218D6
  0
LINE
  5
1218D7
  8
OBJECT
 10
10045.661800227321
 20
-261.99999999999909
 30
0.0
 11
10080.0
 21
-261.99999999999909
 31
0.0
1001
ACDBBLOCKREPETAG
1070
     1
1071
      193
1005
1218D7
  0
ARC
  5
1218D8
  8
OBJECT
 10
10000.0
 20
-199.99999999999909
 30
0.0
 40
85.0
 50
46.837102859853147
 51
313.16289714014681
1001
ACDBBLOCKREPETAG
1070
     1
1071
      202
1005
1218D8
  0
LINE
  5
1218D9
  8
OBJECT
 10
10024.1029330933
 20
-243.80694712371681
 30
0.0
 11
10020.659656999989
 21
-232.55462199999889
 31
0.0
1001
ACDBBLOCKREPETAG
1070
     1
1071
      321
1005
1218D9
  0
LINE
  5
1218DA
  8
OBJECT
 10
9986.7927499013749
 20
-218.22553374208019
 30
0.0
 11
10020.659656999989
 21
-232.5546219999969
 31
0.0
1001
ACDBBLOCKREPETAG
1070
     1
1071
      323
1005
1218DA
  0
ARC
  5
1218DB
  8
OBJECT
 10
9982.8961697618997
 20
-227.4351299990567
 30
0.0
 40
10.0
 50
67.066778292911366
 51
154.01473437031629
1001
ACDBBLOCKREPETAG
1070
     1
1071
      324
1005
1218DB
  0
ARC
  5
1218DC
  8
OBJECT
 10
9986.1488390381292
 20
-225.55386256729159
 30
0.0
 40
7.0
 50
67.066778292911366
 51
154.0147337749826
1001
ACDBBLOCKREPETAG
1070
     1
1071
      325
1005
1218DC
  0
LINE
  5
1218DD
  8
OBJECT
 10
9969.4199755553
 20
-243.89888500818171
 30
0.0
 11
9979.8564918232369
 21
-222.48688253356801
 31
0.0
1001
ACDBBLOCKREPETAG
1070
     1
1071
      353
1005
1218DD
  0
LINE
  5
1218DE
  8
OBJECT
 10
9965.2972169006098
 20
-240.71813901882729
 30
0.0
 11
9973.9071022665084
 21
-223.05373004430751
 31
0.0
1001
ACDBBLOCKREPETAG
1070
     1
1071
      354
1005
1218DE
  0
ARC
  5
1218DF
  8
OBJECT
 10
9976.5796953073132
 20
-207.1289369828437
 30
0.0
 40
60.031113246032611
 50
314.07020130422319
 51
322.33936106089681
1001
ACDBBLOCKREPETAG
1070
     1
1071
      355
1005
1218DF
  0
CIRCLE
  5
1218E0
  8
OBJECT
 10
10000.0
 20
-199.99999999999909
 30
0.0
 40
53.5
1001
ACDBBLOCKREPETAG
1070
     1
1071
      356
1005
1218E0
  0
POINT
  5
1218E1
  8
DOTS
 10
10000.0
 20
-199.99999999999909
 30
0.0
 50
270.0
1001
ACDBBLOCKREPETAG
1070
     1
1071
      365
1005
1218E1
  0
LINE
  5
1218E2
  8
OBJECT
 10
4024.102933093302
 20
-243.80694712371681
 30
0.0
 11
4020.6596569999951
 21
-232.55462199999889
 31
0.0
1001
ACDBBLOCKREPETAG
1070
     1
1071
      300
1005
1218E2
  0
LINE
  5
1218E3
  8
OBJECT
 10
3986.7927499013749
 20
-218.22553374208019
 30
0.0
 11
4020.6596569999951
 21
-232.5546219999969
 31
0.0
1001
ACDBBLOCKREPETAG
1070
     1
1071
      302
1005
1218E3
  0
ARC
  5
1218E4
  8
OBJECT
 10
3982.896169761902
 20
-227.4351299990567
 30
0.0
 40
10.0
 50
67.066778292911366
 51
154.0147343702935
1001
ACDBBLOCKREPETAG
1070
     1
1071
      303
1005
1218E4
  0
ARC
  5
1218E5
  8
OBJECT
 10
3986.1488390381278
 20
-225.55386256729159
 30
0.0
 40
7.0
 50
67.066778292911366
 51
154.01473377497121
1001
ACDBBLOCKREPETAG
1070
     1
1071
      304
1005
1218E5
  0
LINE
  5
1218E6
  8
OBJECT
 10
3969.4199755553018
 20
-243.89888500818171
 30
0.0
 11
3979.8564918232369
 21
-222.48688253356801
 31
0.0
1001
ACDBBLOCKREPETAG
1070
     1
1071
      341
1005
1218E6
  0
LINE
  5
1218E7
  8
OBJECT
 10
3965.2972169006089
 20
-240.71813901882729
 30
0.0
 11
3973.9071022665089
 21
-223.05373004430751
 31
0.0
1001
ACDBBLOCKREPETAG
1070
     1
1071
      342
1005
1218E7
  0
ARC
  5
1218E8
  8
OBJECT
 10
3976.579695307315
 20
-207.1289369828437
 30
0.0
 40
60.031113246032611
 50
314.07020130418567
 51
322.33936106091278
1001
ACDBBLOCKREPETAG
1070
     1
1071
      343
1005
1218E8
  0
CIRCLE
  5
1218E9
  8
OBJECT
 10
4000.0
 20
-199.99999999999909
 30
0.0
 40
53.5
1001
ACDBBLOCKREPETAG
1070
     1
1071
      344
1005
1218E9
  0
POINT
  5
1218EA
  8
DOTS
 10
4000.0
 20
-199.99999999999909
 30
0.0
 50
270.0
1001
ACDBBLOCKREPETAG
1070
     1
1071
      362
1005
1218EA
  0
ARC
  5
1218EB
  8
OBJECT
 10
4000.0
 20
-199.99999999999909
 30
0.0
 40
50.0
 50
298.81994300000417
 51
228.52376955967449
1001
ACDBBLOCKREPETAG
1070
     1
1071
        7
1005
1218EB
  0
LINE
  5
1218EC
  8
CENTER
 10
4080.0
 20
-199.99999999999909
 30
0.0
 11
3905.0
 21
-199.99999999999909
 31
0.0
1001
ACDBBLOCKREPETAG
1070
     1
1071
       14
1005
1218EC
  0
LINE
  5
1218ED
  8
CENTER
 10
4000.0
 20
-294.99999999999898
 30
0.0
 11
4000.0
 21
-104.9999999999991
 31
0.0
1001
ACDBBLOCKREPETAG
1070
     1
1071
       15
1005
1218ED
  0
CIRCLE
  5
1218EE
  8
OBJECT
 10
4000.0
 20
-199.99999999999909
 30
0.0
 40
70.0
1001
ACDBBLOCKREPETAG
1070
     1
1071
       16
1005
1218EE
  0
CIRCLE
  5
1218EF
  8
OBJECT
 10
4000.0
 20
-199.99999999999909
 30
0.0
 40
77.0
1001
ACDBBLOCKREPETAG
1070
     1
1071
       17
1005
1218EF
  0
ARC
  5
1218F0
  8
OBJECT
 10
4000.0
 20
-199.99999999999909
 30
0.0
 40
80.0
 50
50.805032573864182
 51
309.1949674261358
1001
ACDBBLOCKREPETAG
1070
     1
1071
       18
1005
1218F0
  0
LINE
  5
1218F1
  8
OBJECT
 10
4045.661800227324
 20
-137.99999999999909
 30
0.0
 11
4080.0
 21
-137.99999999999909
 31
0.0
1001
ACDBBLOCKREPETAG
1070
     1
1071
       19
1005
1218F1
  0
LINE
  5
1218F2
  8
OBJECT
 10
4045.661800227324
 20
-261.99999999999909
 30
0.0
 11
4080.0
 21
-261.99999999999909
 31
0.0
1001
ACDBBLOCKREPETAG
1070
     1
1071
       20
1005
1218F2
  0
LINE
  5
1218F3
  8
CENTER
 10
10101.0
 20
-199.99999999999909
 30
0.0
 11
10080.0
 21
-199.99999999999909
 31
0.0
1001
ACDBBLOCKREPETAG
1070
     1
1071
        0
1005
1218F3
  0
LINE
  5
1218F4
  8
OBJECT
 10
10083.0
 20
-137.99999999999909
 30
0.0
 11
10080.0
 21
-137.99999999999909
 31
0.0
1001
ACDBBLOCKREPETAG
1070
     1
1071
        1
1005
1218F4
  0
ARC
  5
1218F5
  8
OBJECT
 10
10083.0
 20
-140.99999999999909
 30
0.0
 40
3.0
 50
0.0
 51
90.0
1001
ACDBBLOCKREPETAG
1070
     1
1071
        2
1005
1218F5
  0
LINE
  5
1218F6
  8
OBJECT
 10
10080.0
 20
-261.99999999999909
 30
0.0
 11
10083.0
 21
-261.99999999999909
 31
0.0
1001
ACDBBLOCKREPETAG
1070
     1
1071
        3
1005
1218F6
  0
ARC
  5
1218F7
  8
OBJECT
 10
10083.0
 20
-258.99999999999909
 30
0.0
 40
3.0
 50
270.0
 51
0.0
1001
ACDBBLOCKREPETAG
1070
     1
1071
        4
1005
1218F7
  0
LINE
  5
1218F8
  8
OBJECT
 10
10086.0
 20
-258.99999999999909
 30
0.0
 11
10086.0
 21
-140.99999999999909
 31
0.0
1001
ACDBBLOCKREPETAG
1070
     1
1071
        5
1005
1218F8
  0
LINE
  5
1218F9
  8
CENTER
 10
4101.0
 20
-199.99999999999909
 30
0.0
 11
4080.0
 21
-199.99999999999909
 31
0.0
1001
ACDBBLOCKREPETAG
1070
     1
1071
        0
1005
1218F9
  0
LINE
  5
1218FA
  8
OBJECT
 10
4083.0
 20
-137.99999999999909
 30
0.0
 11
4080.0
 21
-137.99999999999909
 31
0.0
1001
ACDBBLOCKREPETAG
1070
     1
1071
        1
1005
1218FA
  0
ARC
  5
1218FB
  8
OBJECT
 10
4083.0
 20
-140.99999999999909
 30
0.0
 40
3.0
 50
0.0
 51
90.0
1001
ACDBBLOCKREPETAG
1070
     1
1071
        2
1005
1218FB
  0
LINE
  5
1218FC
  8
OBJECT
 10
4080.0
 20
-261.99999999999909
 30
0.0
 11
4083.0
 21
-261.99999999999909
 31
0.0
1001
ACDBBLOCKREPETAG
1070
     1
1071
        3
1005
1218FC
  0
ARC
  5
1218FD
  8
OBJECT
 10
4083.0
 20
-258.99999999999909
 30
0.0
 40
3.0
 50
270.0
 51
0.0
1001
ACDBBLOCKREPETAG
1070
     1
1071
        4
1005
1218FD
  0
LINE
  5
1218FE
  8
OBJECT
 10
4086.0
 20
-258.99999999999909
 30
0.0
 11
4086.0
 21
-140.99999999999909
 31
0.0
1001
ACDBBLOCKREPETAG
1070
     1
1071
        5
1005
1218FE
  0
ARC
  5
1218FF
  8
OBJECT
 10
8000.0
 20
-199.99999999999909
 30
0.0
 40
50.0
 50
298.81994300000417
 51
228.52376955964741
1001
ACDBBLOCKREPETAG
1070
     1
1071
      185
1005
1218FF
  0
LINE
  5
121900
  8
SLIM
 10
7927.3018300565236
 20
-155.95484036957691
 30
0.0
 11
7955.9548403695781
 21
-127.30183005652231
 31
0.0
1001
GRADIENTCOLOR1ACI
1070
     5
1001
GRADIENTCOLOR2ACI
1070
     2
1001
ACAD
1010
0.0
1020
0.0
1030
0.0
1001
ACDBBLOCKREPETAG
1070
     1
1071
      442
1005
121900
  0
LINE
  5
121901
  8
SLIM
 10
7919.4861520708373
 20
-172.75077447633191
 30
0.0
 11
7938.2903089572737
 21
-153.94661758989659
 31
0.0
1001
GRADIENTCOLOR1ACI
1070
     5
1001
GRADIENTCOLOR2ACI
1070
     2
1001
ACAD
1010
0.0
1020
0.0
1030
0.0
1001
ACDBBLOCKREPETAG
1070
     1
1071
      443
1005
121901
  0
LINE
  5
121902
  8
SLIM
 10
7953.9466175898988
 20
-138.29030895727169
 30
0.0
 11
7972.7507744763334
 21
-119.4861520708364
 31
0.0
1001
GRADIENTCOLOR1ACI
1070
     5
1001
GRADIENTCOLOR2ACI
1070
     2
1001
ACAD
1010
0.0
1020
0.0
1030
0.0
1001
ACDBBLOCKREPETAG
1070
     1
1071
      444
1005
121902
  0
LINE
  5
121903
  8
SLIM
 10
7916.3596679933771
 20
-184.8575146748604
 30
0.0
 11
7927.6959583557828
 21
-173.5212243124561
 31
0.0
1001
GRADIENTCOLOR1ACI
1070
     5
1001
GRADIENTCOLOR2ACI
1070
     2
1001
ACAD
1010
0.0
1020
0.0
1030
0.0
1001
ACDBBLOCKREPETAG
1070
     1
1071
      445
1005
121903
  0
LINE
  5
121904
  8
SLIM
 10
7973.5212243124561
 20
-127.6959583557812
 30
0.0
 11
7984.8575146748608
 21
-116.359667993377
 31
0.0
1001
GRADIENTCOLOR1ACI
1070
     5
1001
GRADIENTCOLOR2ACI
1070
     2
1001
ACAD
1010
0.0
1020
0.0
1030
0.0
1001
ACDBBLOCKREPETAG
1070
     1
1071
      446
1005
121904
  0
LINE
  5
121905
  8
SLIM
 10
7915.1440575890529
 20
-195.0533812002549
 30
0.0
 11
7924.3030216431825
 21
-185.89441714612491
 31
0.0
1001
GRADIENTCOLOR1ACI
1070
     5
1001
GRADIENTCOLOR2ACI
1070
     2
1001
ACAD
1010
0.0
1020
0.0
1030
0.0
1001
ACDBBLOCKREPETAG
1070
     1
1071
      447
1005
121905
  0
LINE
  5
121906
  8
SLIM
 10
7985.8944171461262
 20
-124.30302164318159
 30
0.0
 11
7995.0533812002559
 21
-115.1440575890517
 31
0.0
1001
GRADIENTCOLOR1ACI
1070
     5
1001
GRADIENTCOLOR2ACI
1070
     2
1001
ACAD
1010
0.0
1020
0.0
1030
0.0
1001
ACDBBLOCKREPETAG
1070
     1
1071
      448
1005
121906
  0
LINE
  5
121907
  8
SLIM
 10
7915.097963557474
 20
-204.07973135290339
 30
0.0
 11
7919.1776949103778
 21
-199.99999999999909
 31
0.0
1001
GRADIENTCOLOR1ACI
1070
     5
1001
GRADIENTCOLOR2ACI
1070
     2
1001
ACAD
1010
0.0
1020
0.0
1030
0.0
1001
ACDBBLOCKREPETAG
1070
     1
1071
      449
1005
121907
  0
LINE
  5
121908
  8
SLIM
 10
8000.0
 20
-119.1776949103767
 30
0.0
 11
8004.0797313529074
 21
-115.0979635574724
 31
0.0
1001
GRADIENTCOLOR1ACI
1070
     5
1001
GRADIENTCOLOR2ACI
1070
     2
1001
ACAD
1010
0.0
1020
0.0
1030
0.0
1001
ACDBBLOCKREPETAG
1070
     1
1071
      450
1005
121908
  0
LINE
  5
121909
  8
SLIM
 10
7919.1776949103778
 20
-199.99999999999909
 30
0.0
 11
7923.0999621611709
 21
-196.07773274920581
 31
0.0
1001
GRADIENTCOLOR1ACI
1070
     5
1001
GRADIENTCOLOR2ACI
1070
     2
1001
ACAD
1010
0.0
1020
0.0
1030
0.0
1001
ACDBBLOCKREPETAG
1070
     1
1071
      451
1005
121909
  0
LINE
  5
12190A
  8
SLIM
 10
7996.077732749206
 20
-123.0999621611699
 30
0.0
 11
8000.0
 21
-119.1776949103767
 31
0.0
1001
GRADIENTCOLOR1ACI
1070
     5
1001
GRADIENTCOLOR2ACI
1070
     2
1001
ACAD
1010
0.0
1020
0.0
1030
0.0
1001
ACDBBLOCKREPETAG
1070
     1
1071
      452
1005
12190A
  0
LINE
  5
12190B
  8
SLIM
 10
7915.889972620871
 20
-212.26797841057399
 30
0.0
 11
7923.1622307771704
 21
-204.9957202542767
 31
0.0
1001
GRADIENTCOLOR1ACI
1070
     5
1001
GRADIENTCOLOR2ACI
1070
     2
1001
ACAD
1010
0.0
1020
0.0
1030
0.0
1001
ACDBBLOCKREPETAG
1070
     1
1071
      453
1005
12190B
  0
LINE
  5
12190C
  8
SLIM
 10
8004.9957202542737
 20
-123.1622307771683
 30
0.0
 11
8012.2679784105749
 21
-115.88997262087101
 31
0.0
1001
GRADIENTCOLOR1ACI
1070
     5
1001
GRADIENTCOLOR2ACI
1070
     2
1001
ACAD
1010
0.0
1020
0.0
1030
0.0
1001
ACDBBLOCKREPETAG
1070
     1
1071
      454
1005
12190C
  0
LINE
  5
12190D
  8
SLIM
 10
7917.3382656951526
 20
-219.79994145736151
 30
0.0
 11
7924.1101477855518
 21
-213.02805936696359
 31
0.0
1001
GRADIENTCOLOR1ACI
1070
     5
1001
GRADIENTCOLOR2ACI
1070
     2
1001
ACAD
1010
0.0
1020
0.0
1030
0.0
1001
ACDBBLOCKREPETAG
1070
     1
1071
      455
1005
12190D
  0
LINE
  5
12190E
  8
SLIM
 10
8013.028059366964
 20
-124.1101477855505
 30
0.0
 11
8019.7999414573624
 21
-117.3382656951526
 31
0.0
1001
GRADIENTCOLOR1ACI
1070
     5
1001
GRADIENTCOLOR2ACI
1070
     2
1001
ACAD
1010
0.0
1020
0.0
1030
0.0
1001
ACDBBLOCKREPETAG
1070
     1
1071
      456
1005
12190E
  0
LINE
  5
12190F
  8
SLIM
 10
7919.3312594063054
 20
-226.78720386727881
 30
0.0
 11
7925.74438195934
 21
-220.3740813142449
 31
0.0
1001
GRADIENTCOLOR1ACI
1070
     5
1001
GRADIENTCOLOR2ACI
1070
     2
1001
ACAD
1010
0.0
1020
0.0
1030
0.0
1001
ACDBBLOCKREPETAG
1070
     1
1071
      457
1005
12190F
  0
LINE
  5
121910
  8
SLIM
 10
8020.3740813142458
 20
-125.7443819593384
 30
0.0
 11
8026.7872038672767
 21
-119.3312594063044
 31
0.0
1001
GRADIENTCOLOR1ACI
1070
     5
1001
GRADIENTCOLOR2ACI
1070
     2
1001
ACAD
1010
0.0
1020
0.0
1030
0.0
1001
ACDBBLOCKREPETAG
1070
     1
1071
      458
1005
121910
  0
LINE
  5
121911
  8
SLIM
 10
7921.7957163186193
 20
-233.30300307603289
 30
0.0
 11
7927.9462473957792
 21
-227.1524719988744
 31
0.0
1001
GRADIENTCOLOR1ACI
1070
     5
1001
GRADIENTCOLOR2ACI
1070
     2
1001
ACAD
1010
0.0
1020
0.0
1030
0.0
1001
ACDBBLOCKREPETAG
1070
     1
1071
      459
1005
121911
  0
LINE
  5
121912
  8
SLIM
 10
8027.1524719988738
 20
-127.946247395778
 30
0.0
 11
8033.3030030760328
 21
-121.7957163186195
 31
0.0
1001
GRADIENTCOLOR1ACI
1070
     5
1001
GRADIENTCOLOR2ACI
1070
     2
1001
ACAD
1010
0.0
1020
0.0
1030
0.0
1001
ACDBBLOCKREPETAG
1070
     1
1071
      460
1005
121912
  0
LINE
  5
121913
  8
SLIM
 10
7924.6816635313462
 20
-239.39731198437769
 30
0.0
 11
7930.639876864393
 21
-233.4390986513296
 31
0.0
1001
GRADIENTCOLOR1ACI
1070
     5
1001
GRADIENTCOLOR2ACI
1070
     2
1001
ACAD
1010
0.0
1020
0.0
1030
0.0
1001
ACDBBLOCKREPETAG
1070
     1
1071
      461
1005
121913
  0
LINE
  5
121914
  8
SLIM
 10
8033.4390986513308
 20
-130.63987686439199
 30
0.0
 11
8039.3973119843777
 21
-124.6816635313439
 31
0.0
1001
GRADIENTCOLOR1ACI
1070
     5
1001
GRADIENTCOLOR2ACI
1070
     2
1001
ACAD
1010
0.0
1020
0.0
1030
0.0
1001
ACDBBLOCKREPETAG
1070
     1
1071
      462
1005
121914
  0
LINE
  5
121915
  8
SLIM
 10
7927.9544611024266
 20
-245.10477053436691
 30
0.0
 11
7933.7750070149932
 21
-239.28422462179751
 31
0.0
1001
GRADIENTCOLOR1ACI
1070
     5
1001
GRADIENTCOLOR2ACI
1070
     2
1001
ACAD
1010
0.0
1020
0.0
1030
0.0
1001
ACDBBLOCKREPETAG
1070
     1
1071
      463
1005
121915
  0
LINE
  5
121916
  8
SLIM
 10
8039.2842246217979
 20
-133.77500701499321
 30
0.0
 11
8045.1047705343699
 21
-127.95446110242381
 31
0.0
1001
GRADIENTCOLOR1ACI
1070
     5
1001
GRADIENTCOLOR2ACI
1070
     2
1001
ACAD
1010
0.0
1020
0.0
1030
0.0
1001
ACDBBLOCKREPETAG
1070
     1
1071
      464
1005
121916
  0
LINE
  5
121917
  8
SLIM
 10
7931.5903319686649
 20
-250.4491557891954
 30
0.0
 11
7937.3182075880577
 21
-244.72128016980341
 31
0.0
1001
GRADIENTCOLOR1ACI
1070
     5
1001
GRADIENTCOLOR2ACI
1070
     2
1001
ACAD
1010
0.0
1020
0.0
1030
0.0
1001
ACDBBLOCKREPETAG
1070
     1
1071
      465
1005
121917
  0
LINE
  5
121918
  8
SLIM
 10
8044.7212801698061
 20
-137.31820758805651
 30
0.0
 11
8050.449155789197
 21
-131.59033196866449
 31
0.0
1001
GRADIENTCOLOR1ACI
1070
     5
1001
GRADIENTCOLOR2ACI
1070
     2
1001
ACAD
1010
0.0
1020
0.0
1030
0.0
1001
ACDBBLOCKREPETAG
1070
     1
1071
      466
1005
121918
  0
LINE
  5
121919
  8
SLIM
 10
7935.5737496925258
 20
-255.4459941864034
 30
0.0
 11
7941.24811054159
 21
-249.77163333734029
 31
0.0
1001
GRADIENTCOLOR1ACI
1070
     5
1001
GRADIENTCOLOR2ACI
1070
     2
1001
ACAD
1010
0.0
1020
0.0
1030
0.0
1001
ACDBBLOCKREPETAG
1070
     1
1071
      467
1005
121919
  0
LINE
  5
12191A
  8
SLIM
 10
8053.0197438789319
 20
-137.99999999999909
 30
0.0
 11
8055.4459941864034
 21
-135.57374969252561
 31
0.0
1001
GRADIENTCOLOR1ACI
1070
     5
1001
GRADIENTCOLOR2ACI
1070
     2
1001
ACAD
1010
0.0
1020
0.0
1030
0.0
1001
ACDBBLOCKREPETAG
1070
     1
1071
      468
1005
12191A
  0
LINE
  5
12191B
  8
SLIM
 10
7939.8959235991442
 20
-260.10407640085572
 30
0.0
 11
7945.5527778486357
 21
-254.44722215136329
 31
0.0
1001
GRADIENTCOLOR1ACI
1070
     5
1001
GRADIENTCOLOR2ACI
1070
     2
1001
ACAD
1010
0.0
1020
0.0
1030
0.0
1001
ACDBBLOCKREPETAG
1070
     1
1071
      469
1005
12191B
  0
LINE
  5
12191C
  8
SLIM
 10
7944.5540058135948
 20
-264.4262503074724
 30
0.0
 11
7950.2283666626608
 21
-258.75188945840949
 31
0.0
1001
GRADIENTCOLOR1ACI
1070
     5
1001
GRADIENTCOLOR2ACI
1070
     2
1001
ACAD
1010
0.0
1020
0.0
1030
0.0
1001
ACDBBLOCKREPETAG
1070
     1
1071
      470
1005
12191C
  0
LINE
  5
12191D
  8
SLIM
 10
7949.5508442108039
 20
-268.40966803133369
 30
0.0
 11
7955.2787198301958
 21
-262.68179241194167
 31
0.0
1001
GRADIENTCOLOR1ACI
1070
     5
1001
GRADIENTCOLOR2ACI
1070
     2
1001
ACAD
1010
0.0
1020
0.0
1030
0.0
1001
ACDBBLOCKREPETAG
1070
     1
1071
      471
1005
12191D
  0
LINE
  5
12191E
  8
SLIM
 10
7954.895229465631
 20
-272.04553889757437
 30
0.0
 11
7960.7157753782021
 21
-266.22499298500497
 31
0.0
1001
GRADIENTCOLOR1ACI
1070
     5
1001
GRADIENTCOLOR2ACI
1070
     2
1001
ACAD
1010
0.0
1020
0.0
1030
0.0
1001
ACDBBLOCKREPETAG
1070
     1
1071
      472
1005
12191E
  0
LINE
  5
12191F
  8
SLIM
 10
7960.6026880156223
 20
-275.31833646865431
 30
0.0
 11
7966.5609013486683
 21
-269.36012313560622
 31
0.0
1001
GRADIENTCOLOR1ACI
1070
     5
1001
GRADIENTCOLOR2ACI
1070
     2
1001
ACAD
1010
0.0
1020
0.0
1030
0.0
1001
ACDBBLOCKREPETAG
1070
     1
1071
      473
1005
12191F
  0
LINE
  5
121920
  8
SLIM
 10
7966.6969969239663
 20
-278.20428368137868
 30
0.0
 11
7972.8475280011244
 21
-272.05375260422022
 31
0.0
1001
GRADIENTCOLOR1ACI
1070
     5
1001
GRADIENTCOLOR2ACI
1070
     2
1001
ACAD
1010
0.0
1020
0.0
1030
0.0
1001
ACDBBLOCKREPETAG
1070
     1
1071
      474
1005
121920
  0
LINE
  5
121921
  8
SLIM
 10
7973.2127961327187
 20
-280.66874059369371
 30
0.0
 11
7979.6259186857542
 21
-274.25561804065973
 31
0.0
1001
GRADIENTCOLOR1ACI
1070
     5
1001
GRADIENTCOLOR2ACI
1070
     2
1001
ACAD
1010
0.0
1020
0.0
1030
0.0
1001
ACDBBLOCKREPETAG
1070
     1
1071
      475
1005
121921
  0
LINE
  5
121922
  8
SLIM
 10
7980.2000585426395
 20
-282.6617343048456
 30
0.0
 11
7986.971940633035
 21
-275.88985221444773
 31
0.0
1001
GRADIENTCOLOR1ACI
1070
     5
1001
GRADIENTCOLOR2ACI
1070
     2
1001
ACAD
1010
0.0
1020
0.0
1030
0.0
1001
ACDBBLOCKREPETAG
1070
     1
1071
      476
1005
121922
  0
LINE
  5
121923
  8
SLIM
 10
7987.732021589426
 20
-284.11002737912702
 30
0.0
 11
7995.0042797457209
 21
-276.83776922282988
 31
0.0
1001
GRADIENTCOLOR1ACI
1070
     5
1001
GRADIENTCOLOR2ACI
1070
     2
1001
ACAD
1010
0.0
1020
0.0
1030
0.0
1001
ACDBBLOCKREPETAG
1070
     1
1071
      477
1005
121923
  0
LINE
  5
121924
  8
SLIM
 10
7995.9202686470962
 20
-284.9020364425258
 30
0.0
 11
8000.0
 21
-280.82230508962152
 31
0.0
1001
GRADIENTCOLOR1ACI
1070
     5
1001
GRADIENTCOLOR2ACI
1070
     2
1001
ACAD
1010
0.0
1020
0.0
1030
0.0
1001
ACDBBLOCKREPETAG
1070
     1
1071
      478
1005
121924
  0
LINE
  5
121925
  8
SLIM
 10
8000.0
 20
-280.82230508962152
 30
0.0
 11
8003.9222672507931
 21
-276.90003783882821
 31
0.0
1001
GRADIENTCOLOR1ACI
1070
     5
1001
GRADIENTCOLOR2ACI
1070
     2
1001
ACAD
1010
0.0
1020
0.0
1030
0.0
1001
ACDBBLOCKREPETAG
1070
     1
1071
      479
1005
121925
  0
LINE
  5
121926
  8
SLIM
 10
8004.9466187997441
 20
-284.85594241094651
 30
0.0
 11
8014.1055828538756
 21
-275.6969783568166
 31
0.0
1001
GRADIENTCOLOR1ACI
1070
     5
1001
GRADIENTCOLOR2ACI
1070
     2
1001
ACAD
1010
0.0
1020
0.0
1030
0.0
1001
ACDBBLOCKREPETAG
1070
     1
1071
      480
1005
121926
  0
LINE
  5
121927
  8
SLIM
 10
8015.1424853251401
 20
-283.64033200662118
 30
0.0
 11
8026.478775687543
 21
-272.30404164421702
 31
0.0
1001
GRADIENTCOLOR1ACI
1070
     5
1001
GRADIENTCOLOR2ACI
1070
     2
1001
ACAD
1010
0.0
1020
0.0
1030
0.0
1001
ACDBBLOCKREPETAG
1070
     1
1071
      481
1005
121927
  0
LINE
  5
121928
  8
SLIM
 10
8027.2492255236657
 20
-280.51384792916173
 30
0.0
 11
8045.7630734528302
 21
-261.99999999999909
 31
0.0
1001
GRADIENTCOLOR1ACI
1070
     5
1001
GRADIENTCOLOR2ACI
1070
     2
1001
ACAD
1010
0.0
1020
0.0
1030
0.0
1001
ACDBBLOCKREPETAG
1070
     1
1071
      482
1005
121928
  0
LINE
  5
121929
  8
SLIM
 10
8044.045159630421
 20
-272.69816994347582
 30
0.0
 11
8054.7433295739002
 21
-261.99999999999909
 31
0.0
1001
GRADIENTCOLOR1ACI
1070
     5
1001
GRADIENTCOLOR2ACI
1070
     2
1001
ACAD
1010
0.0
1020
0.0
1030
0.0
1001
ACDBBLOCKREPETAG
1070
     1
1071
      483
1005
121929
  0
LINE
  5
12192A
  8
CENTER
 10
8080.0
 20
-199.99999999999909
 30
0.0
 11
7900.0
 21
-199.99999999999909
 31
0.0
1001
ACDBBLOCKREPETAG
1070
     1
1071
      187
1005
12192A
  0
LINE
  5
12192B
  8
CENTER
 10
8000.0
 20
-299.99999999999898
 30
0.0
 11
8000.0
 21
-99.999999999999091
 31
0.0
1001
ACDBBLOCKREPETAG
1070
     1
1071
      188
1005
12192B
  0
CIRCLE
  5
12192C
  8
OBJECT
 10
8000.0
 20
-199.99999999999909
 30
0.0
 40
70.0
1001
ACDBBLOCKREPETAG
1070
     1
1071
      189
1005
12192C
  0
CIRCLE
  5
12192D
  8
OBJECT
 10
8000.0
 20
-199.99999999999909
 30
0.0
 40
77.0
1001
ACDBBLOCKREPETAG
1070
     1
1071
      190
1005
12192D
  0
LINE
  5
12192E
  8
OBJECT
 10
8045.6618002273271
 20
-137.99999999999909
 30
0.0
 11
8080.0
 21
-137.99999999999909
 31
0.0
1001
ACDBBLOCKREPETAG
1070
     1
1071
      192
1005
12192E
  0
LINE
  5
12192F
  8
OBJECT
 10
8045.6618002273271
 20
-261.99999999999909
 30
0.0
 11
8080.0
 21
-261.99999999999909
 31
0.0
1001
ACDBBLOCKREPETAG
1070
     1
1071
      193
1005
12192F
  0
ARC
  5
121930
  8
OBJECT
 10
8000.0
 20
-199.99999999999909
 30
0.0
 40
85.0
 50
46.83710285981514
 51
313.16289714018478
1001
ACDBBLOCKREPETAG
1070
     1
1071
      202
1005
121930
  0
LINE
  5
121931
  8
OBJECT
 10
8024.1029330933006
 20
-243.80694712371681
 30
0.0
 11
8020.6596569999974
 21
-232.55462199999889
 31
0.0
1001
ACDBBLOCKREPETAG
1070
     1
1071
      321
1005
121931
  0
LINE
  5
121932
  8
OBJECT
 10
7986.7927499013749
 20
-218.22553374208019
 30
0.0
 11
8020.6596569999974
 21
-232.5546219999969
 31
0.0
1001
ACDBBLOCKREPETAG
1070
     1
1071
      323
1005
121932
  0
ARC
  5
121933
  8
OBJECT
 10
7982.8961697618997
 20
-227.4351299990567
 30
0.0
 40
10.0
 50
67.066778292911366
 51
154.0147343702935
1001
ACDBBLOCKREPETAG
1070
     1
1071
      324
1005
121933
  0
ARC
  5
121934
  8
OBJECT
 10
7986.1488390381273
 20
-225.55386256729159
 30
0.0
 40
7.0
 50
67.066778292911366
 51
154.0147337749826
1001
ACDBBLOCKREPETAG
1070
     1
1071
      325
1005
121934
  0
LINE
  5
121935
  8
OBJECT
 10
7969.4199755553009
 20
-243.89888500818171
 30
0.0
 11
7979.8564918232369
 21
-222.48688253356801
 31
0.0
1001
ACDBBLOCKREPETAG
1070
     1
1071
      353
1005
121935
  0
LINE
  5
121936
  8
OBJECT
 10
7965.2972169006098
 20
-240.71813901882729
 30
0.0
 11
7973.9071022665084
 21
-223.05373004430751
 31
0.0
1001
ACDBBLOCKREPETAG
1070
     1
1071
      354
1005
121936
  0
ARC
  5
121937
  8
OBJECT
 10
7976.5796953073141
 20
-207.1289369828437
 30
0.0
 40
60.031113246032611
 50
314.07020130418567
 51
322.33936106089681
1001
ACDBBLOCKREPETAG
1070
     1
1071
      355
1005
121937
  0
CIRCLE
  5
121938
  8
OBJECT
 10
8000.0
 20
-199.99999999999909
 30
0.0
 40
53.5
1001
ACDBBLOCKREPETAG
1070
     1
1071
      356
1005
121938
  0
POINT
  5
121939
  8
DOTS
 10
8000.0
 20
-199.99999999999909
 30
0.0
 50
270.0
1001
ACDBBLOCKREPETAG
1070
     1
1071
      365
1005
121939
  0
LINE
  5
12193A
  8
OBJECT
 10
2024.102933093302
 20
-243.80694712371681
 30
0.0
 11
2020.659656999997
 21
-232.55462199999889
 31
0.0
1001
ACDBBLOCKREPETAG
1070
     1
1071
      300
1005
12193A
  0
LINE
  5
12193B
  8
OBJECT
 10
1986.7927499013749
 20
-218.22553374208019
 30
0.0
 11
2020.659656999997
 21
-232.5546219999969
 31
0.0
1001
ACDBBLOCKREPETAG
1070
     1
1071
      302
1005
12193B
  0
ARC
  5
12193C
  8
OBJECT
 10
1982.8961697619
 20
-227.4351299990567
 30
0.0
 40
10.0
 50
67.066778292923374
 51
154.0147343702935
1001
ACDBBLOCKREPETAG
1070
     1
1071
      303
1005
12193C
  0
ARC
  5
12193D
  8
OBJECT
 10
1986.1488390381271
 20
-225.55386256729159
 30
0.0
 40
7.0
 50
67.066778292923374
 51
154.01473377497121
1001
ACDBBLOCKREPETAG
1070
     1
1071
      304
1005
12193D
  0
LINE
  5
12193E
  8
OBJECT
 10
1969.4199755553
 20
-243.89888500818171
 30
0.0
 11
1979.856491823236
 21
-222.48688253356801
 31
0.0
1001
ACDBBLOCKREPETAG
1070
     1
1071
      341
1005
12193E
  0
LINE
  5
12193F
  8
OBJECT
 10
1965.2972169006091
 20
-240.71813901882729
 30
0.0
 11
1973.907102266508
 21
-223.05373004430751
 31
0.0
1001
ACDBBLOCKREPETAG
1070
     1
1071
      342
1005
12193F
  0
ARC
  5
121940
  8
OBJECT
 10
1976.579695307315
 20
-207.1289369828437
 30
0.0
 40
60.031113246032611
 50
314.07020130418567
 51
322.33936106091278
1001
ACDBBLOCKREPETAG
1070
     1
1071
      343
1005
121940
  0
CIRCLE
  5
121941
  8
OBJECT
 10
2000.0
 20
-199.99999999999909
 30
0.0
 40
53.5
1001
ACDBBLOCKREPETAG
1070
     1
1071
      344
1005
121941
  0
POINT
  5
121942
  8
DOTS
 10
2000.0
 20
-199.99999999999909
 30
0.0
 50
270.0
1001
ACDBBLOCKREPETAG
1070
     1
1071
      362
1005
121942
  0
ARC
  5
121943
  8
OBJECT
 10
2000.0
 20
-199.99999999999909
 30
0.0
 40
50.0
 50
298.81994300000417
 51
228.52376955967449
1001
ACDBBLOCKREPETAG
1070
     1
1071
        7
1005
121943
  0
LINE
  5
121944
  8
CENTER
 10
2080.0
 20
-199.99999999999909
 30
0.0
 11
1905.0
 21
-199.99999999999909
 31
0.0
1001
ACDBBLOCKREPETAG
1070
     1
1071
       14
1005
121944
  0
LINE
  5
121945
  8
CENTER
 10
2000.0
 20
-294.99999999999898
 30
0.0
 11
2000.0
 21
-104.9999999999991
 31
0.0
1001
ACDBBLOCKREPETAG
1070
     1
1071
       15
1005
121945
  0
CIRCLE
  5
121946
  8
OBJECT
 10
2000.0
 20
-199.99999999999909
 30
0.0
 40
70.0
1001
ACDBBLOCKREPETAG
1070
     1
1071
       16
1005
121946
  0
CIRCLE
  5
121947
  8
OBJECT
 10
2000.0
 20
-199.99999999999909
 30
0.0
 40
77.0
1001
ACDBBLOCKREPETAG
1070
     1
1071
       17
1005
121947
  0
ARC
  5
121948
  8
OBJECT
 10
2000.0
 20
-199.99999999999909
 30
0.0
 40
80.0
 50
50.805032573864182
 51
309.1949674261358
1001
ACDBBLOCKREPETAG
1070
     1
1071
       18
1005
121948
  0
LINE
  5
121949
  8
OBJECT
 10
2045.6618002273251
 20
-137.99999999999909
 30
0.0
 11
2080.0
 21
-137.99999999999909
 31
0.0
1001
ACDBBLOCKREPETAG
1070
     1
1071
       19
1005
121949
  0
LINE
  5
12194A
  8
OBJECT
 10
2045.6618002273251
 20
-261.99999999999909
 30
0.0
 11
2080.0
 21
-261.99999999999909
 31
0.0
1001
ACDBBLOCKREPETAG
1070
     1
1071
       20
1005
12194A
  0
LINE
  5
12194B
  8
OBJECT
 10
12085.999999999991
 20
-1003.999999999999
 30
0.0
 11
12085.999999999991
 21
-1013.999999999999
 31
0.0
1001
ACDBBLOCKREPETAG
1070
     1
1071
      121
1005
12194B
  0
LINE
  5
12194C
  8
OBJECT
 10
12069.999999999991
 20
-1003.999999999999
 30
0.0
 11
12069.999999999991
 21
-1013.999999999999
 31
0.0
1001
ACDBBLOCKREPETAG
1070
     1
1071
      122
1005
12194C
  0
LINE
  5
12194D
  8
OBJECT
 10
12085.999999999991
 20
-1013.999999999999
 30
0.0
 11
12069.999999999991
 21
-1013.999999999999
 31
0.0
1001
ACDBBLOCKREPETAG
1070
     1
1071
      123
1005
12194D
  0
LINE
  5
12194E
  8
OBJECT
 10
12090.0
 20
-964.99999999999613
 30
0.0
 11
11924.0
 21
-964.99999999999613
 31
0.0
1001
ACDBBLOCKREPETAG
1070
     1
1071
      124
1005
12194E
  0
LINE
  5
12194F
  8
OBJECT
 10
12090.0
 20
-979.99999999999966
 30
0.0
 11
12090.0
 21
-964.99999999999613
 31
0.0
1001
ACDBBLOCKREPETAG
1070
     1
1071
      125
1005
12194F
  0
LINE
  5
121950
  8
OBJECT
 10
11924.0
 20
-979.99999999999966
 30
0.0
 11
12090.0
 21
-979.99999999999966
 31
0.0
1001
ACDBBLOCKREPETAG
1070
     1
1071
      126
1005
121950
  0
LINE
  5
121951
  8
OBJECT
 10
12067.49999999998
 20
-979.99999999999966
 30
0.0
 11
12067.49999999998
 21
-989.99999999999955
 31
0.0
1001
ACDBBLOCKREPETAG
1070
     1
1071
      127
1005
121951
  0
LINE
  5
121952
  8
OBJECT
 10
12072.999999999991
 20
-989.99999999999955
 30
0.0
 11
12072.999999999991
 21
-979.99999999999966
 31
0.0
1001
ACDBBLOCKREPETAG
1070
     1
1071
      128
1005
121952
  0
LINE
  5
121953
  8
OBJECT
 10
12082.999999999991
 20
-989.99999999999955
 30
0.0
 11
12082.999999999991
 21
-979.99999999999966
 31
0.0
1001
ACDBBLOCKREPETAG
1070
     1
1071
      129
1005
121953
  0
LINE
  5
121954
  8
OBJECT
 10
11924.0
 20
-989.99999999999955
 30
0.0
 11
11924.0
 21
-1003.999999999996
 31
0.0
1001
ACDBBLOCKREPETAG
1070
     1
1071
      130
1005
121954
  0
LINE
  5
121955
  8
OBJECT
 10
12090.0
 20
-989.99999999999955
 30
0.0
 11
12090.0
 21
-1003.999999999996
 31
0.0
1001
ACDBBLOCKREPETAG
1070
     1
1071
      131
1005
121955
  0
LINE
  5
121956
  8
OBJECT
 10
11924.0
 20
-1003.999999999996
 30
0.0
 11
12090.0
 21
-1003.999999999996
 31
0.0
1001
ACDBBLOCKREPETAG
1070
     1
1071
      132
1005
121956
  0
LINE
  5
121957
  8
OBJECT
 10
11924.0
 20
-989.99999999999955
 30
0.0
 11
12090.0
 21
-989.99999999999955
 31
0.0
1001
ACDBBLOCKREPETAG
1070
     1
1071
      133
1005
121957
  0
LINE
  5
121958
  8
OBJECT
 10
11932.49999999998
 20
-979.99999999999966
 30
0.0
 11
11932.49999999998
 21
-989.99999999999955
 31
0.0
1001
ACDBBLOCKREPETAG
1070
     1
1071
      134
1005
121958
  0
LINE
  5
121959
  8
OBJECT
 10
11934.0
 20
-928.99999999999602
 30
0.0
 11
12065.999999999991
 21
-928.99999999999602
 31
0.0
1001
ACDBBLOCKREPETAG
1070
     1
1071
      135
1005
121959
  0
LINE
  5
12195A
  8
OBJECT
 10
11924.0
 20
-979.99999999999966
 30
0.0
 11
11924.0
 21
-964.99999999999613
 31
0.0
1001
ACDBBLOCKREPETAG
1070
     1
1071
      136
1005
12195A
  0
LINE
  5
12195B
  8
HIDDEN
 10
11943.0
 20
-939.99999999999955
 30
0.0
 11
12057.0
 21
-939.99999999999955
 31
0.0
1001
ACDBBLOCKREPETAG
1070
     1
1071
      137
1005
12195B
  0
LINE
  5
12195C
  8
OBJECT
 10
12086.999999999991
 20
-963.20000000000005
 30
0.0
 11
12086.999999999991
 21
-964.99999999999955
 31
0.0
1001
ACDBBLOCKREPETAG
1070
     1
1071
      138
1005
12195C
  0
LINE
  5
12195D
  8
OBJECT
 10
12068.999999999991
 20
-963.20000000000005
 30
0.0
 11
12068.999999999991
 21
-964.99999999999955
 31
0.0
1001
ACDBBLOCKREPETAG
1070
     1
1071
      139
1005
12195D
  0
LINE
  5
12195E
  8
OBJECT
 10
12072.249999999991
 20
-953.49999999999943
 30
0.0
 11
12083.749999999991
 21
-953.49999999999943
 31
0.0
1001
ACDBBLOCKREPETAG
1070
     1
1071
      140
1005
12195E
  0
LINE
  5
12195F
  8
OBJECT
 10
12072.249999999991
 20
-953.49999999999943
 30
0.0
 11
12072.249999999991
 21
-963.20000000000005
 31
0.0
1001
ACDBBLOCKREPETAG
1070
     1
1071
      141
1005
12195F
  0
LINE
  5
121960
  8
OBJECT
 10
12083.749999999991
 20
-953.49999999999943
 30
0.0
 11
12083.749999999991
 21
-963.20000000000005
 31
0.0
1001
ACDBBLOCKREPETAG
1070
     1
1071
      142
1005
121960
  0
LINE
  5
121961
  8
OBJECT
 10
11931.99999999998
 20
-1044.9999999999991
 30
0.0
 11
12067.99999999998
 21
-1044.9999999999991
 31
0.0
1001
ACDBBLOCKREPETAG
1070
     1
1071
      143
1005
121961
  0
LINE
  5
121962
  8
OBJECT
 10
11931.99999999998
 20
-1044.9999999999991
 30
0.0
 11
11931.99999999998
 21
-1003.999999999999
 31
0.0
1001
ACDBBLOCKREPETAG
1070
     1
1071
      144
1005
121962
  0
LINE
  5
121963
  8
OBJECT
 10
12067.99999999998
 20
-1044.9999999999991
 30
0.0
 11
12067.99999999998
 21
-1003.999999999999
 31
0.0
1001
ACDBBLOCKREPETAG
1070
     1
1071
      145
1005
121963
  0
LINE
  5
121964
  8
OBJECT
 10
12086.999999999991
 20
-963.20000000000005
 30
0.0
 11
12068.999999999991
 21
-963.20000000000005
 31
0.0
1001
ACDBBLOCKREPETAG
1070
     1
1071
      146
1005
121964
  0
LINE
  5
121965
  8
CENTER
 10
12000.0
 20
-669.99999999999955
 30
0.0
 11
12000.0
 21
-1059.9999999999991
 31
0.0
1001
ACDBBLOCKREPETAG
1070
     1
1071
      147
1005
121965
  0
LINE
  5
121966
  8
OBJECT
 10
11925.0
 20
-669.99999999999955
 30
0.0
 11
11925.0
 21
-751.99999999999591
 31
0.0
1001
ACDBBLOCKREPETAG
1070
     1
1071
      148
1005
121966
  0
LINE
  5
121967
  8
OBJECT
 10
12075.0
 20
-669.99999999999955
 30
0.0
 11
12075.0
 21
-751.99999999999204
 31
0.0
1001
ACDBBLOCKREPETAG
1070
     1
1071
      149
1005
121967
  0
LINE
  5
121968
  8
OBJECT
 10
11925.0
 20
-751.99999999999591
 30
0.0
 11
12075.0
 21
-751.99999999999204
 31
0.0
1001
ACDBBLOCKREPETAG
1070
     1
1071
      150
1005
121968
  0
LINE
  5
121969
  8
OBJECT
 10
11943.0
 20
-928.99999999999602
 30
0.0
 11
11943.0
 21
-879.99999999999204
 31
0.0
1001
ACDBBLOCKREPETAG
1070
     1
1071
      151
1005
121969
  0
LINE
  5
12196A
  8
OBJECT
 10
12057.0
 20
-879.99999999999204
 30
0.0
 11
11943.0
 21
-879.99999999999204
 31
0.0
1001
ACDBBLOCKREPETAG
1070
     1
1071
      152
1005
12196A
  0
LINE
  5
12196B
  8
OBJECT
 10
12057.0
 20
-879.99999999999204
 30
0.0
 11
12057.0
 21
-928.99999999999602
 31
0.0
1001
ACDBBLOCKREPETAG
1070
     1
1071
      153
1005
12196B
  0
LINE
  5
12196C
  8
OBJECT
 10
11925.0
 20
-751.99999999999591
 30
0.0
 11
11943.0
 21
-879.99999999999204
 31
0.0
1001
ACDBBLOCKREPETAG
1070
     1
1071
      154
1005
12196C
  0
LINE
  5
12196D
  8
OBJECT
 10
12057.0
 20
-879.99999999999204
 30
0.0
 11
12075.0
 21
-751.99999999999204
 31
0.0
1001
ACDBBLOCKREPETAG
1070
     1
1071
      155
1005
12196D
  0
LINE
  5
12196E
  8
OBJECT
 10
11934.0
 20
-964.99999999999613
 30
0.0
 11
11934.0
 21
-928.99999999999602
 31
0.0
1001
ACDBBLOCKREPETAG
1070
     1
1071
      156
1005
12196E
  0
LINE
  5
12196F
  8
OBJECT
 10
12066.0
 20
-964.99999999999613
 30
0.0
 11
12065.999999999991
 21
-928.99999999999602
 31
0.0
1001
ACDBBLOCKREPETAG
1070
     1
1071
      157
1005
12196F
  0
LINE
  5
121970
  8
OBJECT
 10
11954.75
 20
-954.69999999999288
 30
0.0
 11
11967.25
 21
-954.69999999999288
 31
0.0
1001
ACDBBLOCKREPETAG
1070
     1
1071
      158
1005
121970
  0
LINE
  5
121971
  8
OBJECT
 10
11946.0
 20
-964.99999999999613
 30
0.0
 11
11946.0
 21
-962.69999999999663
 31
0.0
1001
ACDBBLOCKREPETAG
1070
     1
1071
      159
1005
121971
  0
LINE
  5
121972
  8
OBJECT
 10
11976.0
 20
-964.99999999999613
 30
0.0
 11
11976.0
 21
-962.69999999999663
 31
0.0
1001
ACDBBLOCKREPETAG
1070
     1
1071
      160
1005
121972
  0
LINE
  5
121973
  8
OBJECT
 10
11954.75
 20
-954.69999999999288
 30
0.0
 11
11954.75
 21
-962.69999999999663
 31
0.0
1001
ACDBBLOCKREPETAG
1070
     1
1071
      161
1005
121973
  0
LINE
  5
121974
  8
OBJECT
 10
11967.25
 20
-954.69999999999288
 30
0.0
 11
11967.25
 21
-962.69999999999663
 31
0.0
1001
ACDBBLOCKREPETAG
1070
     1
1071
      162
1005
121974
  0
LINE
  5
121975
  8
OBJECT
 10
11946.0
 20
-962.69999999999663
 30
0.0
 11
11976.0
 21
-962.69999999999663
 31
0.0
1001
ACDBBLOCKREPETAG
1070
     1
1071
      163
1005
121975
  0
LINE
  5
121976
  8
OBJECT
 10
11953.0
 20
-1003.999999999996
 30
0.0
 11
11953.0
 21
-1013.999999999996
 31
0.0
1001
ACDBBLOCKREPETAG
1070
     1
1071
      164
1005
121976
  0
LINE
  5
121977
  8
OBJECT
 10
11969.0
 20
-1003.999999999996
 30
0.0
 11
11969.0
 21
-1013.999999999996
 31
0.0
1001
ACDBBLOCKREPETAG
1070
     1
1071
      165
1005
121977
  0
LINE
  5
121978
  8
OBJECT
 10
11953.0
 20
-1013.999999999996
 30
0.0
 11
11969.0
 21
-1013.999999999996
 31
0.0
1001
ACDBBLOCKREPETAG
1070
     1
1071
      166
1005
121978
  0
LINE
  5
121979
  8
OBJECT
 10
11966.0
 20
-989.99999999999613
 30
0.0
 11
11966.0
 21
-979.99999999999591
 31
0.0
1001
ACDBBLOCKREPETAG
1070
     1
1071
      167
1005
121979
  0
LINE
  5
12197A
  8
OBJECT
 10
11956.0
 20
-989.99999999999613
 30
0.0
 11
11956.0
 21
-979.99999999999591
 31
0.0
1001
ACDBBLOCKREPETAG
1070
     1
1071
      168
1005
12197A
  0
LINE
  5
12197B
  8
OBJECT
 10
10090.0
 20
-964.99999999999613
 30
0.0
 11
9924.0
 21
-964.99999999999613
 31
0.0
1001
ACDBBLOCKREPETAG
1070
     1
1071
       12
1005
12197B
  0
LINE
  5
12197C
  8
OBJECT
 10
10066.0
 20
-928.99999999999602
 30
0.0
 11
9934.0
 21
-928.99999999999602
 31
0.0
1001
ACDBBLOCKREPETAG
1070
     1
1071
       13
1005
12197C
  0
LINE
  5
12197D
  8
OBJECT
 10
10090.0
 20
-979.99999999999966
 30
0.0
 11
10090.0
 21
-964.99999999999613
 31
0.0
1001
ACDBBLOCKREPETAG
1070
     1
1071
       14
1005
12197D
  0
LINE
  5
12197E
  8
OBJECT
 10
9924.0
 20
-979.99999999999966
 30
0.0
 11
10090.0
 21
-979.99999999999966
 31
0.0
1001
ACDBBLOCKREPETAG
1070
     1
1071
       15
1005
12197E
  0
LINE
  5
12197F
  8
OBJECT
 10
10067.49999999998
 20
-979.99999999999966
 30
0.0
 11
10067.49999999998
 21
-989.99999999999955
 31
0.0
1001
ACDBBLOCKREPETAG
1070
     1
1071
       16
1005
12197F
  0
LINE
  5
121980
  8
OBJECT
 10
9924.0
 20
-989.99999999999955
 30
0.0
 11
9924.0
 21
-1003.999999999996
 31
0.0
1001
ACDBBLOCKREPETAG
1070
     1
1071
       17
1005
121980
  0
LINE
  5
121981
  8
OBJECT
 10
10090.0
 20
-989.99999999999955
 30
0.0
 11
10090.0
 21
-1003.999999999996
 31
0.0
1001
ACDBBLOCKREPETAG
1070
     1
1071
       18
1005
121981
  0
LINE
  5
121982
  8
OBJECT
 10
9924.0
 20
-1003.999999999996
 30
0.0
 11
10090.0
 21
-1003.999999999996
 31
0.0
1001
ACDBBLOCKREPETAG
1070
     1
1071
       19
1005
121982
  0
LINE
  5
121983
  8
OBJECT
 10
9924.0
 20
-989.99999999999955
 30
0.0
 11
10090.0
 21
-989.99999999999955
 31
0.0
1001
ACDBBLOCKREPETAG
1070
     1
1071
       20
1005
121983
  0
LINE
  5
121984
  8
OBJECT
 10
9932.4999999999836
 20
-979.99999999999966
 30
0.0
 11
9932.4999999999836
 21
-989.99999999999955
 31
0.0
1001
ACDBBLOCKREPETAG
1070
     1
1071
       21
1005
121984
  0
LINE
  5
121985
  8
OBJECT
 10
9924.0
 20
-979.99999999999966
 30
0.0
 11
9924.0
 21
-964.99999999999613
 31
0.0
1001
ACDBBLOCKREPETAG
1070
     1
1071
       22
1005
121985
  0
LINE
  5
121986
  8
HIDDEN
 10
9943.0
 20
-939.99999999999955
 30
0.0
 11
10057.0
 21
-939.99999999999955
 31
0.0
1001
ACDBBLOCKREPETAG
1070
     1
1071
       23
1005
121986
  0
LINE
  5
121987
  8
CENTER
 10
10000.0
 20
-669.99999999999955
 30
0.0
 11
10000.0
 21
-1018.999999999996
 31
0.0
1001
ACDBBLOCKREPETAG
1070
     1
1071
       24
1005
121987
  0
LINE
  5
121988
  8
OBJECT
 10
9925.0
 20
-669.99999999999955
 30
0.0
 11
9925.0
 21
-751.99999999999591
 31
0.0
1001
ACDBBLOCKREPETAG
1070
     1
1071
       25
1005
121988
  0
LINE
  5
121989
  8
OBJECT
 10
10075.0
 20
-669.99999999999955
 30
0.0
 11
10075.0
 21
-751.99999999999204
 31
0.0
1001
ACDBBLOCKREPETAG
1070
     1
1071
       26
1005
121989
  0
LINE
  5
12198A
  8
OBJECT
 10
9925.0
 20
-751.99999999999591
 30
0.0
 11
10075.0
 21
-751.99999999999204
 31
0.0
1001
ACDBBLOCKREPETAG
1070
     1
1071
       27
1005
12198A
  0
LINE
  5
12198B
  8
OBJECT
 10
10057.0
 20
-928.99999999999602
 30
0.0
 11
10057.0
 21
-879.99999999999204
 31
0.0
1001
ACDBBLOCKREPETAG
1070
     1
1071
       28
1005
12198B
  0
LINE
  5
12198C
  8
OBJECT
 10
9943.0
 20
-928.99999999999602
 30
0.0
 11
9943.0
 21
-879.99999999999204
 31
0.0
1001
ACDBBLOCKREPETAG
1070
     1
1071
       29
1005
12198C
  0
LINE
  5
12198D
  8
OBJECT
 10
10057.0
 20
-879.99999999999204
 30
0.0
 11
9943.0
 21
-879.99999999999204
 31
0.0
1001
ACDBBLOCKREPETAG
1070
     1
1071
       30
1005
12198D
  0
LINE
  5
12198E
  8
OBJECT
 10
9925.0
 20
-751.99999999999591
 30
0.0
 11
9943.0
 21
-879.99999999999204
 31
0.0
1001
ACDBBLOCKREPETAG
1070
     1
1071
       31
1005
12198E
  0
LINE
  5
12198F
  8
OBJECT
 10
10057.0
 20
-879.99999999999204
 30
0.0
 11
10075.0
 21
-751.99999999999204
 31
0.0
1001
ACDBBLOCKREPETAG
1070
     1
1071
       32
1005
12198F
  0
LINE
  5
121990
  8
OBJECT
 10
9934.0
 20
-928.99999999999602
 30
0.0
 11
9934.0
 21
-964.99999999999613
 31
0.0
1001
ACDBBLOCKREPETAG
1070
     1
1071
       33
1005
121990
  0
LINE
  5
121991
  8
OBJECT
 10
10066.0
 20
-928.99999999999602
 30
0.0
 11
10066.0
 21
-964.99999999999613
 31
0.0
1001
ACDBBLOCKREPETAG
1070
     1
1071
       34
1005
121991
  0
LINE
  5
121992
  8
OBJECT
 10
10082.999999999991
 20
-989.99999999999613
 30
0.0
 11
10082.999999999991
 21
-979.99999999999591
 31
0.0
1001
ACDBBLOCKREPETAG
1070
     1
1071
       35
1005
121992
  0
LINE
  5
121993
  8
OBJECT
 10
10072.999999999991
 20
-989.99999999999613
 30
0.0
 11
10072.999999999991
 21
-979.99999999999591
 31
0.0
1001
ACDBBLOCKREPETAG
1070
     1
1071
       36
1005
121993
  0
LINE
  5
121994
  8
OBJECT
 10
10068.99999999998
 20
-959.99999999999545
 30
0.0
 11
10068.99999999998
 21
-964.99999999999613
 31
0.0
1001
ACDBBLOCKREPETAG
1070
     1
1071
       37
1005
121994
  0
LINE
  5
121995
  8
OBJECT
 10
10087.0
 20
-959.99999999999545
 30
0.0
 11
10087.0
 21
-964.99999999999613
 31
0.0
1001
ACDBBLOCKREPETAG
1070
     1
1071
       38
1005
121995
  0
LINE
  5
121996
  8
OBJECT
 10
10087.0
 20
-959.99999999999545
 30
0.0
 11
10068.99999999998
 21
-959.99999999999545
 31
0.0
1001
ACDBBLOCKREPETAG
1070
     1
1071
       39
1005
121996
  0
LINE
  5
121997
  8
OBJECT
 10
10073.0
 20
-1011.999999999996
 30
0.0
 11
10073.0
 21
-1014.999999999996
 31
0.0
1001
ACDBBLOCKREPETAG
1070
     1
1071
       40
1005
121997
  0
LINE
  5
121998
  8
OBJECT
 10
10073.0
 20
-1014.999999999996
 30
0.0
 11
10083.0
 21
-1014.999999999996
 31
0.0
1001
ACDBBLOCKREPETAG
1070
     1
1071
       41
1005
121998
  0
LINE
  5
121999
  8
OBJECT
 10
10068.18504542377
 20
-1011.999999999996
 30
0.0
 11
10087.814954576221
 21
-1011.999999999996
 31
0.0
1001
ACDBBLOCKREPETAG
1070
     1
1071
       42
1005
121999
  0
LINE
  5
12199A
  8
OBJECT
 10
10083.0
 20
-1014.999999999996
 30
0.0
 11
10083.0
 21
-1011.999999999996
 31
0.0
1001
ACDBBLOCKREPETAG
1070
     1
1071
       43
1005
12199A
  0
LINE
  5
12199B
  8
OBJECT
 10
10068.18503599129
 20
-1003.999986840255
 30
0.0
 11
10068.18503599129
 21
-1011.999986840255
 31
0.0
1001
ACDBBLOCKREPETAG
1070
     1
1071
       44
1005
12199B
  0
LINE
  5
12199C
  8
OBJECT
 10
10073.0925013592
 20
-1003.999986840255
 30
0.0
 11
10073.0925013592
 21
-1011.999986840255
 31
0.0
1001
ACDBBLOCKREPETAG
1070
     1
1071
       45
1005
12199C
  0
LINE
  5
12199D
  8
OBJECT
 10
10082.90743209502
 20
-1003.999986840255
 30
0.0
 11
10082.90743209502
 21
-1011.999986840255
 31
0.0
1001
ACDBBLOCKREPETAG
1070
     1
1071
       46
1005
12199D
  0
LINE
  5
12199E
  8
OBJECT
 10
10087.81499155279
 20
-1003.999986840255
 30
0.0
 11
10087.81499155279
 21
-1011.999986840255
 31
0.0
1001
ACDBBLOCKREPETAG
1070
     1
1071
       47
1005
12199E
  0
LINE
  5
12199F
  8
OBJECT
 10
9968.5
 20
-959.99999999999545
 30
0.0
 11
9951.9999999999909
 21
-959.99999999999545
 31
0.0
1001
ACDBBLOCKREPETAG
1070
     1
1071
       48
1005
12199F
  0
LINE
  5
1219A0
  8
OBJECT
 10
9976.0
 20
-964.99999999999613
 30
0.0
 11
9976.0
 21
-962.99999999999591
 31
0.0
1001
ACDBBLOCKREPETAG
1070
     1
1071
       49
1005
1219A0
  0
LINE
  5
1219A1
  8
OBJECT
 10
9966.0
 20
-989.99999999999613
 30
0.0
 11
9966.0
 21
-979.99999999999591
 31
0.0
1001
ACDBBLOCKREPETAG
1070
     1
1071
       50
1005
1219A1
  0
LINE
  5
1219A2
  8
OBJECT
 10
9956.0
 20
-989.99999999999613
 30
0.0
 11
9956.0
 21
-979.99999999999591
 31
0.0
1001
ACDBBLOCKREPETAG
1070
     1
1071
       51
1005
1219A2
  0
LINE
  5
1219A3
  8
OBJECT
 10
9951.9999999999909
 20
-959.99999999999545
 30
0.0
 11
9951.9999999999909
 21
-964.99999999999613
 31
0.0
1001
ACDBBLOCKREPETAG
1070
     1
1071
       52
1005
1219A3
  0
LINE
  5
1219A4
  8
OBJECT
 10
9956.0
 20
-1011.999999999996
 30
0.0
 11
9956.0
 21
-1014.999999999996
 31
0.0
1001
ACDBBLOCKREPETAG
1070
     1
1071
       53
1005
1219A4
  0
LINE
  5
1219A5
  8
OBJECT
 10
9956.0
 20
-1014.999999999996
 30
0.0
 11
9966.0
 21
-1014.999999999996
 31
0.0
1001
ACDBBLOCKREPETAG
1070
     1
1071
       54
1005
1219A5
  0
LINE
  5
1219A6
  8
OBJECT
 10
9951.185045423772
 20
-1011.999999999996
 30
0.0
 11
9970.814954576219
 21
-1011.999999999996
 31
0.0
1001
ACDBBLOCKREPETAG
1070
     1
1071
       55
1005
1219A6
  0
LINE
  5
1219A7
  8
OBJECT
 10
9966.0
 20
-1014.999999999996
 30
0.0
 11
9966.0
 21
-1011.999999999996
 31
0.0
1001
ACDBBLOCKREPETAG
1070
     1
1071
       56
1005
1219A7
  0
LINE
  5
1219A8
  8
OBJECT
 10
9976.0
 20
-962.99999999999591
 30
0.0
 11
9968.5
 21
-959.99999999999545
 31
0.0
1001
ACDBBLOCKREPETAG
1070
     1
1071
       57
1005
1219A8
  0
LINE
  5
1219A9
  8
OBJECT
 10
9951.1850359912914
 20
-1003.999986840255
 30
0.0
 11
9951.1850359912914
 21
-1011.999986840255
 31
0.0
1001
ACDBBLOCKREPETAG
1070
     1
1071
       58
1005
1219A9
  0
LINE
  5
1219AA
  8
OBJECT
 10
9956.0925013591986
 20
-1003.999986840255
 30
0.0
 11
9956.0925013591986
 21
-1011.999986840255
 31
0.0
1001
ACDBBLOCKREPETAG
1070
     1
1071
       59
1005
1219AA
  0
LINE
  5
1219AB
  8
OBJECT
 10
9965.907432095024
 20
-1003.999986840255
 30
0.0
 11
9965.907432095024
 21
-1011.999986840255
 31
0.0
1001
ACDBBLOCKREPETAG
1070
     1
1071
       60
1005
1219AB
  0
LINE
  5
1219AC
  8
OBJECT
 10
9970.8149915528011
 20
-1003.999986840255
 30
0.0
 11
9970.8149915528011
 21
-1011.999986840255
 31
0.0
1001
ACDBBLOCKREPETAG
1070
     1
1071
       61
1005
1219AC
  0
LINE
  5
1219AD
  8
OBJECT
 10
7943.0
 20
-979.99999999999591
 30
0.0
 11
8057.0
 21
-979.99999999999591
 31
0.0
1001
ACDBBLOCKREPETAG
1070
     1
1071
        0
1005
1219AD
  0
LINE
  5
1219AE
  8
OBJECT
 10
7943.0
 20
-979.99999999999591
 30
0.0
 11
7943.0
 21
-879.99999999999591
 31
0.0
1001
ACDBBLOCKREPETAG
1070
     1
1071
        1
1005
1219AE
  0
LINE
  5
1219AF
  8
OBJECT
 10
8057.0
 20
-979.99999999999591
 30
0.0
 11
8057.0
 21
-879.99999999999591
 31
0.0
1001
ACDBBLOCKREPETAG
1070
     1
1071
        2
1005
1219AF
  0
LINE
  5
1219B0
  8
OBJECT
 10
7943.0
 20
-879.99999999999591
 30
0.0
 11
8057.0
 21
-879.99999999999591
 31
0.0
1001
ACDBBLOCKREPETAG
1070
     1
1071
        3
1005
1219B0
  0
LINE
  5
1219B1
  8
HIDDEN
 10
7950.0
 20
-879.99999999999591
 30
0.0
 11
7950.0
 21
-979.99999999999591
 31
0.0
1001
ACDBBLOCKREPETAG
1070
     1
1071
        4
1005
1219B1
  0
LINE
  5
1219B2
  8
HIDDEN
 10
8050.0
 20
-879.99999999999591
 30
0.0
 11
8050.0
 21
-979.99999999999591
 31
0.0
1001
ACDBBLOCKREPETAG
1070
     1
1071
        5
1005
1219B2
  0
LINE
  5
1219B3
  8
CENTER
 10
8000.0
 20
-669.99999999999955
 30
0.0
 11
8000.0
 21
-994.99999999999557
 31
0.0
1001
ACDBBLOCKREPETAG
1070
     1
1071
        6
1005
1219B3
  0
LINE
  5
1219B4
  8
OBJECT
 10
7925.0
 20
-669.99999999999955
 30
0.0
 11
7925.0
 21
-751.99999999999591
 31
0.0
1001
ACDBBLOCKREPETAG
1070
     1
1071
        7
1005
1219B4
  0
LINE
  5
1219B5
  8
OBJECT
 10
8075.0
 20
-669.99999999999955
 30
0.0
 11
8075.0
 21
-751.99999999999591
 31
0.0
1001
ACDBBLOCKREPETAG
1070
     1
1071
        8
1005
1219B5
  0
LINE
  5
1219B6
  8
OBJECT
 10
7925.0
 20
-751.99999999999591
 30
0.0
 11
8075.0
 21
-751.99999999999591
 31
0.0
1001
ACDBBLOCKREPETAG
1070
     1
1071
        9
1005
1219B6
  0
LINE
  5
1219B7
  8
OBJECT
 10
7925.0
 20
-751.99999999999591
 30
0.0
 11
7943.0
 21
-879.99999999999591
 31
0.0
1001
ACDBBLOCKREPETAG
1070
     1
1071
       10
1005
1219B7
  0
LINE
  5
1219B8
  8
OBJECT
 10
8057.0
 20
-879.99999999999591
 30
0.0
 11
8075.0
 21
-751.99999999999591
 31
0.0
1001
ACDBBLOCKREPETAG
1070
     1
1071
       11
1005
1219B8
  0
LINE
  5
1219B9
  8
OBJECT
 10
6085.9999999999927
 20
-1003.999999999999
 30
0.0
 11
6085.9999999999927
 21
-1013.999999999999
 31
0.0
1001
ACDBBLOCKREPETAG
1070
     1
1071
      121
1005
1219B9
  0
LINE
  5
1219BA
  8
OBJECT
 10
6069.9999999999927
 20
-1003.999999999999
 30
0.0
 11
6069.9999999999927
 21
-1013.999999999999
 31
0.0
1001
ACDBBLOCKREPETAG
1070
     1
1071
      122
1005
1219BA
  0
LINE
  5
1219BB
  8
OBJECT
 10
6085.9999999999927
 20
-1013.999999999999
 30
0.0
 11
6069.9999999999927
 21
-1013.999999999999
 31
0.0
1001
ACDBBLOCKREPETAG
1070
     1
1071
      123
1005
1219BB
  0
LINE
  5
1219BC
  8
OBJECT
 10
6090.0
 20
-964.99999999999613
 30
0.0
 11
5924.0
 21
-964.99999999999613
 31
0.0
1001
ACDBBLOCKREPETAG
1070
     1
1071
      124
1005
1219BC
  0
LINE
  5
1219BD
  8
OBJECT
 10
6090.0
 20
-979.99999999999966
 30
0.0
 11
6090.0
 21
-964.99999999999613
 31
0.0
1001
ACDBBLOCKREPETAG
1070
     1
1071
      125
1005
1219BD
  0
LINE
  5
1219BE
  8
OBJECT
 10
5924.0
 20
-979.99999999999966
 30
0.0
 11
6090.0
 21
-979.99999999999966
 31
0.0
1001
ACDBBLOCKREPETAG
1070
     1
1071
      126
1005
1219BE
  0
LINE
  5
1219BF
  8
OBJECT
 10
6067.4999999999864
 20
-979.99999999999966
 30
0.0
 11
6067.4999999999864
 21
-989.99999999999955
 31
0.0
1001
ACDBBLOCKREPETAG
1070
     1
1071
      127
1005
1219BF
  0
LINE
  5
1219C0
  8
OBJECT
 10
6072.9999999999927
 20
-989.99999999999955
 30
0.0
 11
6072.9999999999927
 21
-979.99999999999966
 31
0.0
1001
ACDBBLOCKREPETAG
1070
     1
1071
      128
1005
1219C0
  0
LINE
  5
1219C1
  8
OBJECT
 10
6082.9999999999927
 20
-989.99999999999955
 30
0.0
 11
6082.9999999999927
 21
-979.99999999999966
 31
0.0
1001
ACDBBLOCKREPETAG
1070
     1
1071
      129
1005
1219C1
  0
LINE
  5
1219C2
  8
OBJECT
 10
5924.0
 20
-989.99999999999955
 30
0.0
 11
5924.0
 21
-1003.999999999996
 31
0.0
1001
ACDBBLOCKREPETAG
1070
     1
1071
      130
1005
1219C2
  0
LINE
  5
1219C3
  8
OBJECT
 10
6090.0
 20
-989.99999999999955
 30
0.0
 11
6090.0
 21
-1003.999999999996
 31
0.0
1001
ACDBBLOCKREPETAG
1070
     1
1071
      131
1005
1219C3
  0
LINE
  5
1219C4
  8
OBJECT
 10
5924.0
 20
-1003.999999999996
 30
0.0
 11
6090.0
 21
-1003.999999999996
 31
0.0
1001
ACDBBLOCKREPETAG
1070
     1
1071
      132
1005
1219C4
  0
LINE
  5
1219C5
  8
OBJECT
 10
5924.0
 20
-989.99999999999955
 30
0.0
 11
6090.0
 21
-989.99999999999955
 31
0.0
1001
ACDBBLOCKREPETAG
1070
     1
1071
      133
1005
1219C5
  0
LINE
  5
1219C6
  8
OBJECT
 10
5932.4999999999864
 20
-979.99999999999966
 30
0.0
 11
5932.4999999999864
 21
-989.99999999999955
 31
0.0
1001
ACDBBLOCKREPETAG
1070
     1
1071
      134
1005
1219C6
  0
LINE
  5
1219C7
  8
OBJECT
 10
5934.0
 20
-928.99999999999602
 30
0.0
 11
6065.9999999999909
 21
-928.99999999999602
 31
0.0
1001
ACDBBLOCKREPETAG
1070
     1
1071
      135
1005
1219C7
  0
LINE
  5
1219C8
  8
OBJECT
 10
5924.0
 20
-979.99999999999966
 30
0.0
 11
5924.0
 21
-964.99999999999613
 31
0.0
1001
ACDBBLOCKREPETAG
1070
     1
1071
      136
1005
1219C8
  0
LINE
  5
1219C9
  8
HIDDEN
 10
5943.0
 20
-939.99999999999955
 30
0.0
 11
6057.0
 21
-939.99999999999955
 31
0.0
1001
ACDBBLOCKREPETAG
1070
     1
1071
      137
1005
1219C9
  0
LINE
  5
1219CA
  8
OBJECT
 10
6086.9999999999918
 20
-963.20000000000005
 30
0.0
 11
6086.9999999999918
 21
-964.99999999999955
 31
0.0
1001
ACDBBLOCKREPETAG
1070
     1
1071
      138
1005
1219CA
  0
LINE
  5
1219CB
  8
OBJECT
 10
6068.9999999999909
 20
-963.20000000000005
 30
0.0
 11
6068.9999999999909
 21
-964.99999999999955
 31
0.0
1001
ACDBBLOCKREPETAG
1070
     1
1071
      139
1005
1219CB
  0
LINE
  5
1219CC
  8
OBJECT
 10
6072.2499999999927
 20
-953.49999999999943
 30
0.0
 11
6083.7499999999927
 21
-953.49999999999943
 31
0.0
1001
ACDBBLOCKREPETAG
1070
     1
1071
      140
1005
1219CC
  0
LINE
  5
1219CD
  8
OBJECT
 10
6072.2499999999927
 20
-953.49999999999943
 30
0.0
 11
6072.2499999999927
 21
-963.20000000000005
 31
0.0
1001
ACDBBLOCKREPETAG
1070
     1
1071
      141
1005
1219CD
  0
LINE
  5
1219CE
  8
OBJECT
 10
6083.7499999999927
 20
-953.49999999999943
 30
0.0
 11
6083.7499999999927
 21
-963.20000000000005
 31
0.0
1001
ACDBBLOCKREPETAG
1070
     1
1071
      142
1005
1219CE
  0
LINE
  5
1219CF
  8
OBJECT
 10
5931.9999999999873
 20
-1044.9999999999991
 30
0.0
 11
6067.9999999999873
 21
-1044.9999999999991
 31
0.0
1001
ACDBBLOCKREPETAG
1070
     1
1071
      143
1005
1219CF
  0
LINE
  5
1219D0
  8
OBJECT
 10
5931.9999999999873
 20
-1044.9999999999991
 30
0.0
 11
5931.9999999999873
 21
-1003.999999999999
 31
0.0
1001
ACDBBLOCKREPETAG
1070
     1
1071
      144
1005
1219D0
  0
LINE
  5
1219D1
  8
OBJECT
 10
6067.9999999999873
 20
-1044.9999999999991
 30
0.0
 11
6067.9999999999873
 21
-1003.999999999999
 31
0.0
1001
ACDBBLOCKREPETAG
1070
     1
1071
      145
1005
1219D1
  0
LINE
  5
1219D2
  8
OBJECT
 10
6086.9999999999918
 20
-963.20000000000005
 30
0.0
 11
6068.9999999999909
 21
-963.20000000000005
 31
0.0
1001
ACDBBLOCKREPETAG
1070
     1
1071
      146
1005
1219D2
  0
LINE
  5
1219D3
  8
CENTER
 10
6000.0
 20
-669.99999999999955
 30
0.0
 11
6000.0
 21
-1059.9999999999991
 31
0.0
1001
ACDBBLOCKREPETAG
1070
     1
1071
      147
1005
1219D3
  0
LINE
  5
1219D4
  8
OBJECT
 10
5925.0
 20
-669.99999999999955
 30
0.0
 11
5925.0
 21
-751.99999999999591
 31
0.0
1001
ACDBBLOCKREPETAG
1070
     1
1071
      148
1005
1219D4
  0
LINE
  5
1219D5
  8
OBJECT
 10
6075.0
 20
-669.99999999999955
 30
0.0
 11
6075.0
 21
-751.99999999999204
 31
0.0
1001
ACDBBLOCKREPETAG
1070
     1
1071
      149
1005
1219D5
  0
LINE
  5
1219D6
  8
OBJECT
 10
5925.0
 20
-751.99999999999591
 30
0.0
 11
6075.0
 21
-751.99999999999204
 31
0.0
1001
ACDBBLOCKREPETAG
1070
     1
1071
      150
1005
1219D6
  0
LINE
  5
1219D7
  8
OBJECT
 10
5943.0
 20
-928.99999999999602
 30
0.0
 11
5943.0
 21
-879.99999999999204
 31
0.0
1001
ACDBBLOCKREPETAG
1070
     1
1071
      151
1005
1219D7
  0
LINE
  5
1219D8
  8
OBJECT
 10
6057.0
 20
-879.99999999999204
 30
0.0
 11
5943.0
 21
-879.99999999999204
 31
0.0
1001
ACDBBLOCKREPETAG
1070
     1
1071
      152
1005
1219D8
  0
LINE
  5
1219D9
  8
OBJECT
 10
6057.0
 20
-879.99999999999204
 30
0.0
 11
6057.0
 21
-928.99999999999602
 31
0.0
1001
ACDBBLOCKREPETAG
1070
     1
1071
      153
1005
1219D9
  0
LINE
  5
1219DA
  8
OBJECT
 10
5925.0
 20
-751.99999999999591
 30
0.0
 11
5943.0
 21
-879.99999999999204
 31
0.0
1001
ACDBBLOCKREPETAG
1070
     1
1071
      154
1005
1219DA
  0
LINE
  5
1219DB
  8
OBJECT
 10
6057.0
 20
-879.99999999999204
 30
0.0
 11
6075.0
 21
-751.99999999999204
 31
0.0
1001
ACDBBLOCKREPETAG
1070
     1
1071
      155
1005
1219DB
  0
LINE
  5
1219DC
  8
OBJECT
 10
5934.0
 20
-964.99999999999613
 30
0.0
 11
5934.0
 21
-928.99999999999602
 31
0.0
1001
ACDBBLOCKREPETAG
1070
     1
1071
      156
1005
1219DC
  0
LINE
  5
1219DD
  8
OBJECT
 10
6066.0
 20
-964.99999999999613
 30
0.0
 11
6065.9999999999909
 21
-928.99999999999602
 31
0.0
1001
ACDBBLOCKREPETAG
1070
     1
1071
      157
1005
1219DD
  0
LINE
  5
1219DE
  8
OBJECT
 10
5954.75
 20
-954.69999999999288
 30
0.0
 11
5967.2499999999991
 21
-954.69999999999288
 31
0.0
1001
ACDBBLOCKREPETAG
1070
     1
1071
      158
1005
1219DE
  0
LINE
  5
1219DF
  8
OBJECT
 10
5946.0
 20
-964.99999999999613
 30
0.0
 11
5946.0
 21
-962.69999999999663
 31
0.0
1001
ACDBBLOCKREPETAG
1070
     1
1071
      159
1005
1219DF
  0
LINE
  5
1219E0
  8
OBJECT
 10
5976.0
 20
-964.99999999999613
 30
0.0
 11
5976.0
 21
-962.69999999999663
 31
0.0
1001
ACDBBLOCKREPETAG
1070
     1
1071
      160
1005
1219E0
  0
LINE
  5
1219E1
  8
OBJECT
 10
5954.75
 20
-954.69999999999288
 30
0.0
 11
5954.75
 21
-962.69999999999663
 31
0.0
1001
ACDBBLOCKREPETAG
1070
     1
1071
      161
1005
1219E1
  0
LINE
  5
1219E2
  8
OBJECT
 10
5967.2499999999991
 20
-954.69999999999288
 30
0.0
 11
5967.2499999999991
 21
-962.69999999999663
 31
0.0
1001
ACDBBLOCKREPETAG
1070
     1
1071
      162
1005
1219E2
  0
LINE
  5
1219E3
  8
OBJECT
 10
5946.0
 20
-962.69999999999663
 30
0.0
 11
5976.0
 21
-962.69999999999663
 31
0.0
1001
ACDBBLOCKREPETAG
1070
     1
1071
      163
1005
1219E3
  0
LINE
  5
1219E4
  8
OBJECT
 10
5953.0
 20
-1003.999999999996
 30
0.0
 11
5953.0
 21
-1013.999999999996
 31
0.0
1001
ACDBBLOCKREPETAG
1070
     1
1071
      164
1005
1219E4
  0
LINE
  5
1219E5
  8
OBJECT
 10
5969.0
 20
-1003.999999999996
 30
0.0
 11
5969.0
 21
-1013.999999999996
 31
0.0
1001
ACDBBLOCKREPETAG
1070
     1
1071
      165
1005
1219E5
  0
LINE
  5
1219E6
  8
OBJECT
 10
5953.0
 20
-1013.999999999996
 30
0.0
 11
5969.0
 21
-1013.999999999996
 31
0.0
1001
ACDBBLOCKREPETAG
1070
     1
1071
      166
1005
1219E6
  0
LINE
  5
1219E7
  8
OBJECT
 10
5966.0
 20
-989.99999999999613
 30
0.0
 11
5966.0
 21
-979.99999999999591
 31
0.0
1001
ACDBBLOCKREPETAG
1070
     1
1071
      167
1005
1219E7
  0
LINE
  5
1219E8
  8
OBJECT
 10
5956.0
 20
-989.99999999999613
 30
0.0
 11
5956.0
 21
-979.99999999999591
 31
0.0
1001
ACDBBLOCKREPETAG
1070
     1
1071
      168
1005
1219E8
  0
LINE
  5
1219E9
  8
OBJECT
 10
4090.0
 20
-964.99999999999613
 30
0.0
 11
3924.0
 21
-964.99999999999613
 31
0.0
1001
ACDBBLOCKREPETAG
1070
     1
1071
       12
1005
1219E9
  0
LINE
  5
1219EA
  8
OBJECT
 10
4066.0
 20
-928.99999999999602
 30
0.0
 11
3934.0
 21
-928.99999999999602
 31
0.0
1001
ACDBBLOCKREPETAG
1070
     1
1071
       13
1005
1219EA
  0
LINE
  5
1219EB
  8
OBJECT
 10
4090.0
 20
-979.99999999999966
 30
0.0
 11
4090.0
 21
-964.99999999999613
 31
0.0
1001
ACDBBLOCKREPETAG
1070
     1
1071
       14
1005
1219EB
  0
LINE
  5
1219EC
  8
OBJECT
 10
3924.0
 20
-979.99999999999966
 30
0.0
 11
4090.0
 21
-979.99999999999966
 31
0.0
1001
ACDBBLOCKREPETAG
1070
     1
1071
       15
1005
1219EC
  0
LINE
  5
1219ED
  8
OBJECT
 10
4067.4999999999841
 20
-979.99999999999966
 30
0.0
 11
4067.4999999999841
 21
-989.99999999999955
 31
0.0
1001
ACDBBLOCKREPETAG
1070
     1
1071
       16
1005
1219ED
  0
LINE
  5
1219EE
  8
OBJECT
 10
3924.0
 20
-989.99999999999955
 30
0.0
 11
3924.0
 21
-1003.999999999996
 31
0.0
1001
ACDBBLOCKREPETAG
1070
     1
1071
       17
1005
1219EE
  0
LINE
  5
1219EF
  8
OBJECT
 10
4090.0
 20
-989.99999999999955
 30
0.0
 11
4090.0
 21
-1003.999999999996
 31
0.0
1001
ACDBBLOCKREPETAG
1070
     1
1071
       18
1005
1219EF
  0
LINE
  5
1219F0
  8
OBJECT
 10
3924.0
 20
-1003.999999999996
 30
0.0
 11
4090.0
 21
-1003.999999999996
 31
0.0
1001
ACDBBLOCKREPETAG
1070
     1
1071
       19
1005
1219F0
  0
LINE
  5
1219F1
  8
OBJECT
 10
3924.0
 20
-989.99999999999955
 30
0.0
 11
4090.0
 21
-989.99999999999955
 31
0.0
1001
ACDBBLOCKREPETAG
1070
     1
1071
       20
1005
1219F1
  0
LINE
  5
1219F2
  8
OBJECT
 10
3932.499999999985
 20
-979.99999999999966
 30
0.0
 11
3932.499999999985
 21
-989.99999999999955
 31
0.0
1001
ACDBBLOCKREPETAG
1070
     1
1071
       21
1005
1219F2
  0
LINE
  5
1219F3
  8
OBJECT
 10
3924.0
 20
-979.99999999999966
 30
0.0
 11
3924.0
 21
-964.99999999999613
 31
0.0
1001
ACDBBLOCKREPETAG
1070
     1
1071
       22
1005
1219F3
  0
LINE
  5
1219F4
  8
HIDDEN
 10
3943.0
 20
-939.99999999999955
 30
0.0
 11
4057.0
 21
-939.99999999999955
 31
0.0
1001
ACDBBLOCKREPETAG
1070
     1
1071
       23
1005
1219F4
  0
LINE
  5
1219F5
  8
CENTER
 10
4000.0
 20
-669.99999999999955
 30
0.0
 11
4000.0
 21
-1018.999999999996
 31
0.0
1001
ACDBBLOCKREPETAG
1070
     1
1071
       24
1005
1219F5
  0
LINE
  5
1219F6
  8
OBJECT
 10
3925.0
 20
-669.99999999999955
 30
0.0
 11
3925.0
 21
-751.99999999999591
 31
0.0
1001
ACDBBLOCKREPETAG
1070
     1
1071
       25
1005
1219F6
  0
LINE
  5
1219F7
  8
OBJECT
 10
4075.0
 20
-669.99999999999955
 30
0.0
 11
4075.0
 21
-751.99999999999204
 31
0.0
1001
ACDBBLOCKREPETAG
1070
     1
1071
       26
1005
1219F7
  0
LINE
  5
1219F8
  8
OBJECT
 10
3925.0
 20
-751.99999999999591
 30
0.0
 11
4075.0
 21
-751.99999999999204
 31
0.0
1001
ACDBBLOCKREPETAG
1070
     1
1071
       27
1005
1219F8
  0
LINE
  5
1219F9
  8
OBJECT
 10
4057.0
 20
-928.99999999999602
 30
0.0
 11
4057.0
 21
-879.99999999999204
 31
0.0
1001
ACDBBLOCKREPETAG
1070
     1
1071
       28
1005
1219F9
  0
LINE
  5
1219FA
  8
OBJECT
 10
3943.0
 20
-928.99999999999602
 30
0.0
 11
3943.0
 21
-879.99999999999204
 31
0.0
1001
ACDBBLOCKREPETAG
1070
     1
1071
       29
1005
1219FA
  0
LINE
  5
1219FB
  8
OBJECT
 10
4057.0
 20
-879.99999999999204
 30
0.0
 11
3943.0
 21
-879.99999999999204
 31
0.0
1001
ACDBBLOCKREPETAG
1070
     1
1071
       30
1005
1219FB
  0
LINE
  5
1219FC
  8
OBJECT
 10
3925.0
 20
-751.99999999999591
 30
0.0
 11
3943.0
 21
-879.99999999999204
 31
0.0
1001
ACDBBLOCKREPETAG
1070
     1
1071
       31
1005
1219FC
  0
LINE
  5
1219FD
  8
OBJECT
 10
4057.0
 20
-879.99999999999204
 30
0.0
 11
4075.0
 21
-751.99999999999204
 31
0.0
1001
ACDBBLOCKREPETAG
1070
     1
1071
       32
1005
1219FD
  0
LINE
  5
1219FE
  8
OBJECT
 10
3934.0
 20
-928.99999999999602
 30
0.0
 11
3934.0
 21
-964.99999999999613
 31
0.0
1001
ACDBBLOCKREPETAG
1070
     1
1071
       33
1005
1219FE
  0
LINE
  5
1219FF
  8
OBJECT
 10
4066.0
 20
-928.99999999999602
 30
0.0
 11
4066.0
 21
-964.99999999999613
 31
0.0
1001
ACDBBLOCKREPETAG
1070
     1
1071
       34
1005
1219FF
  0
LINE
  5
121A00
  8
OBJECT
 10
4082.9999999999932
 20
-989.99999999999613
 30
0.0
 11
4082.9999999999932
 21
-979.99999999999591
 31
0.0
1001
ACDBBLOCKREPETAG
1070
     1
1071
       35
1005
121A00
  0
LINE
  5
121A01
  8
OBJECT
 10
4072.9999999999918
 20
-989.99999999999613
 30
0.0
 11
4072.9999999999918
 21
-979.99999999999591
 31
0.0
1001
ACDBBLOCKREPETAG
1070
     1
1071
       36
1005
121A01
  0
LINE
  5
121A02
  8
OBJECT
 10
4068.9999999999841
 20
-959.99999999999545
 30
0.0
 11
4068.9999999999841
 21
-964.99999999999613
 31
0.0
1001
ACDBBLOCKREPETAG
1070
     1
1071
       37
1005
121A02
  0
LINE
  5
121A03
  8
OBJECT
 10
4087.0
 20
-959.99999999999545
 30
0.0
 11
4087.0
 21
-964.99999999999613
 31
0.0
1001
ACDBBLOCKREPETAG
1070
     1
1071
       38
1005
121A03
  0
LINE
  5
121A04
  8
OBJECT
 10
4087.0
 20
-959.99999999999545
 30
0.0
 11
4068.9999999999841
 21
-959.99999999999545
 31
0.0
1001
ACDBBLOCKREPETAG
1070
     1
1071
       39
1005
121A04
  0
LINE
  5
121A05
  8
OBJECT
 10
4073.0
 20
-1011.999999999996
 30
0.0
 11
4073.0
 21
-1014.999999999996
 31
0.0
1001
ACDBBLOCKREPETAG
1070
     1
1071
       40
1005
121A05
  0
LINE
  5
121A06
  8
OBJECT
 10
4073.0
 20
-1014.999999999996
 30
0.0
 11
4083.0
 21
-1014.999999999996
 31
0.0
1001
ACDBBLOCKREPETAG
1070
     1
1071
       41
1005
121A06
  0
LINE
  5
121A07
  8
OBJECT
 10
4068.185045423772
 20
-1011.999999999996
 30
0.0
 11
4087.8149545762199
 21
-1011.999999999996
 31
0.0
1001
ACDBBLOCKREPETAG
1070
     1
1071
       42
1005
121A07
  0
LINE
  5
121A08
  8
OBJECT
 10
4083.0
 20
-1014.999999999996
 30
0.0
 11
4083.0
 21
-1011.999999999996
 31
0.0
1001
ACDBBLOCKREPETAG
1070
     1
1071
       43
1005
121A08
  0
LINE
  5
121A09
  8
OBJECT
 10
4068.1850359912942
 20
-1003.999986840255
 30
0.0
 11
4068.1850359912942
 21
-1011.999986840255
 31
0.0
1001
ACDBBLOCKREPETAG
1070
     1
1071
       44
1005
121A09
  0
LINE
  5
121A0A
  8
OBJECT
 10
4073.0925013591982
 20
-1003.999986840255
 30
0.0
 11
4073.0925013591982
 21
-1011.999986840255
 31
0.0
1001
ACDBBLOCKREPETAG
1070
     1
1071
       45
1005
121A0A
  0
LINE
  5
121A0B
  8
OBJECT
 10
4082.907432095024
 20
-1003.999986840255
 30
0.0
 11
4082.907432095024
 21
-1011.999986840255
 31
0.0
1001
ACDBBLOCKREPETAG
1070
     1
1071
       46
1005
121A0B
  0
LINE
  5
121A0C
  8
OBJECT
 10
4087.814991552797
 20
-1003.999986840255
 30
0.0
 11
4087.814991552797
 21
-1011.999986840255
 31
0.0
1001
ACDBBLOCKREPETAG
1070
     1
1071
       47
1005
121A0C
  0
LINE
  5
121A0D
  8
OBJECT
 10
3968.5
 20
-959.99999999999545
 30
0.0
 11
3951.9999999999932
 21
-959.99999999999545
 31
0.0
1001
ACDBBLOCKREPETAG
1070
     1
1071
       48
1005
121A0D
  0
LINE
  5
121A0E
  8
OBJECT
 10
3976.0
 20
-964.99999999999613
 30
0.0
 11
3976.0
 21
-962.99999999999591
 31
0.0
1001
ACDBBLOCKREPETAG
1070
     1
1071
       49
1005
121A0E
  0
LINE
  5
121A0F
  8
OBJECT
 10
3966.0
 20
-989.99999999999613
 30
0.0
 11
3966.0
 21
-979.99999999999591
 31
0.0
1001
ACDBBLOCKREPETAG
1070
     1
1071
       50
1005
121A0F
  0
LINE
  5
121A10
  8
OBJECT
 10
3956.0
 20
-989.99999999999613
 30
0.0
 11
3956.0
 21
-979.99999999999591
 31
0.0
1001
ACDBBLOCKREPETAG
1070
     1
1071
       51
1005
121A10
  0
LINE
  5
121A11
  8
OBJECT
 10
3951.9999999999932
 20
-959.99999999999545
 30
0.0
 11
3951.9999999999932
 21
-964.99999999999613
 31
0.0
1001
ACDBBLOCKREPETAG
1070
     1
1071
       52
1005
121A11
  0
LINE
  5
121A12
  8
OBJECT
 10
3956.0
 20
-1011.999999999996
 30
0.0
 11
3956.0
 21
-1014.999999999996
 31
0.0
1001
ACDBBLOCKREPETAG
1070
     1
1071
       53
1005
121A12
  0
LINE
  5
121A13
  8
OBJECT
 10
3956.0
 20
-1014.999999999996
 30
0.0
 11
3966.0
 21
-1014.999999999996
 31
0.0
1001
ACDBBLOCKREPETAG
1070
     1
1071
       54
1005
121A13
  0
LINE
  5
121A14
  8
OBJECT
 10
3951.185045423772
 20
-1011.999999999996
 30
0.0
 11
3970.8149545762212
 21
-1011.999999999996
 31
0.0
1001
ACDBBLOCKREPETAG
1070
     1
1071
       55
1005
121A14
  0
LINE
  5
121A15
  8
OBJECT
 10
3966.0
 20
-1014.999999999996
 30
0.0
 11
3966.0
 21
-1011.999999999996
 31
0.0
1001
ACDBBLOCKREPETAG
1070
     1
1071
       56
1005
121A15
  0
LINE
  5
121A16
  8
OBJECT
 10
3976.0
 20
-962.99999999999591
 30
0.0
 11
3968.5
 21
-959.99999999999545
 31
0.0
1001
ACDBBLOCKREPETAG
1070
     1
1071
       57
1005
121A16
  0
LINE
  5
121A17
  8
OBJECT
 10
3951.1850359912951
 20
-1003.999986840255
 30
0.0
 11
3951.1850359912951
 21
-1011.999986840255
 31
0.0
1001
ACDBBLOCKREPETAG
1070
     1
1071
       58
1005
121A17
  0
LINE
  5
121A18
  8
OBJECT
 10
3956.0925013591991
 20
-1003.999986840255
 30
0.0
 11
3956.0925013591991
 21
-1011.999986840255
 31
0.0
1001
ACDBBLOCKREPETAG
1070
     1
1071
       59
1005
121A18
  0
LINE
  5
121A19
  8
OBJECT
 10
3965.907432095024
 20
-1003.999986840255
 30
0.0
 11
3965.907432095024
 21
-1011.999986840255
 31
0.0
1001
ACDBBLOCKREPETAG
1070
     1
1071
       60
1005
121A19
  0
LINE
  5
121A1A
  8
OBJECT
 10
3970.8149915527979
 20
-1003.999986840255
 30
0.0
 11
3970.8149915527979
 21
-1011.999986840255
 31
0.0
1001
ACDBBLOCKREPETAG
1070
     1
1071
       61
1005
121A1A
  0
LINE
  5
121A1B
  8
OBJECT
 10
1943.0
 20
-979.99999999999591
 30
0.0
 11
2057.0
 21
-979.99999999999591
 31
0.0
1001
ACDBBLOCKREPETAG
1070
     1
1071
        0
1005
121A1B
  0
LINE
  5
121A1C
  8
OBJECT
 10
1943.0
 20
-979.99999999999591
 30
0.0
 11
1943.0
 21
-879.99999999999591
 31
0.0
1001
ACDBBLOCKREPETAG
1070
     1
1071
        1
1005
121A1C
  0
LINE
  5
121A1D
  8
OBJECT
 10
2057.0
 20
-979.99999999999591
 30
0.0
 11
2057.0
 21
-879.99999999999591
 31
0.0
1001
ACDBBLOCKREPETAG
1070
     1
1071
        2
1005
121A1D
  0
LINE
  5
121A1E
  8
OBJECT
 10
1943.0
 20
-879.99999999999591
 30
0.0
 11
2057.0
 21
-879.99999999999591
 31
0.0
1001
ACDBBLOCKREPETAG
1070
     1
1071
        3
1005
121A1E
  0
LINE
  5
121A1F
  8
HIDDEN
 10
1950.0
 20
-879.99999999999591
 30
0.0
 11
1950.0
 21
-979.99999999999591
 31
0.0
1001
ACDBBLOCKREPETAG
1070
     1
1071
        4
1005
121A1F
  0
LINE
  5
121A20
  8
HIDDEN
 10
2050.0
 20
-879.99999999999591
 30
0.0
 11
2050.0
 21
-979.99999999999591
 31
0.0
1001
ACDBBLOCKREPETAG
1070
     1
1071
        5
1005
121A20
  0
LINE
  5
121A21
  8
CENTER
 10
2000.0
 20
-669.99999999999955
 30
0.0
 11
2000.0
 21
-994.99999999999557
 31
0.0
1001
ACDBBLOCKREPETAG
1070
     1
1071
        6
1005
121A21
  0
LINE
  5
121A22
  8
OBJECT
 10
1925.0
 20
-669.99999999999955
 30
0.0
 11
1925.0
 21
-751.99999999999591
 31
0.0
1001
ACDBBLOCKREPETAG
1070
     1
1071
        7
1005
121A22
  0
LINE
  5
121A23
  8
OBJECT
 10
2075.0
 20
-669.99999999999955
 30
0.0
 11
2075.0
 21
-751.99999999999591
 31
0.0
1001
ACDBBLOCKREPETAG
1070
     1
1071
        8
1005
121A23
  0
LINE
  5
121A24
  8
OBJECT
 10
1925.0
 20
-751.99999999999591
 30
0.0
 11
2075.0
 21
-751.99999999999591
 31
0.0
1001
ACDBBLOCKREPETAG
1070
     1
1071
        9
1005
121A24
  0
LINE
  5
121A25
  8
OBJECT
 10
1925.0
 20
-751.99999999999591
 30
0.0
 11
1943.0
 21
-879.99999999999591
 31
0.0
1001
ACDBBLOCKREPETAG
1070
     1
1071
       10
1005
121A25
  0
LINE
  5
121A26
  8
OBJECT
 10
2057.0
 20
-879.99999999999591
 30
0.0
 11
2075.0
 21
-751.99999999999591
 31
0.0
1001
ACDBBLOCKREPETAG
1070
     1
1071
       11
1005
121A26
  0
LINE
  5
121A27
  8
CENTER
 10
8101.0
 20
-199.99999999999909
 30
0.0
 11
8080.0
 21
-199.99999999999909
 31
0.0
1001
ACDBBLOCKREPETAG
1070
     1
1071
        0
1005
121A27
  0
LINE
  5
121A28
  8
OBJECT
 10
8083.0
 20
-137.99999999999909
 30
0.0
 11
8080.0
 21
-137.99999999999909
 31
0.0
1001
ACDBBLOCKREPETAG
1070
     1
1071
        1
1005
121A28
  0
ARC
  5
121A29
  8
OBJECT
 10
8083.0
 20
-140.99999999999909
 30
0.0
 40
3.0
 50
0.0
 51
90.0
1001
ACDBBLOCKREPETAG
1070
     1
1071
        2
1005
121A29
  0
LINE
  5
121A2A
  8
OBJECT
 10
8080.0
 20
-261.99999999999909
 30
0.0
 11
8083.0
 21
-261.99999999999909
 31
0.0
1001
ACDBBLOCKREPETAG
1070
     1
1071
        3
1005
121A2A
  0
ARC
  5
121A2B
  8
OBJECT
 10
8083.0
 20
-258.99999999999909
 30
0.0
 40
3.0
 50
270.0
 51
0.0
1001
ACDBBLOCKREPETAG
1070
     1
1071
        4
1005
121A2B
  0
LINE
  5
121A2C
  8
OBJECT
 10
8086.0
 20
-258.99999999999909
 30
0.0
 11
8086.0
 21
-140.99999999999909
 31
0.0
1001
ACDBBLOCKREPETAG
1070
     1
1071
        5
1005
121A2C
  0
LINE
  5
121A2D
  8
OBJECT
 10
12083.0
 20
-534.0
 30
0.0
 11
12080.0
 21
-534.0
 31
0.0
1001
ACDBBLOCKREPETAG
1070
     1
1071
        1
1005
121A2D
  0
ARC
  5
121A2E
  8
OBJECT
 10
12083.0
 20
-537.0
 30
0.0
 40
3.0
 50
0.0
 51
90.0
1001
ACDBBLOCKREPETAG
1070
     1
1071
        2
1005
121A2E
  0
LINE
  5
121A2F
  8
OBJECT
 10
12080.0
 20
-658.0
 30
0.0
 11
12083.0
 21
-658.0
 31
0.0
1001
ACDBBLOCKREPETAG
1070
     1
1071
        3
1005
121A2F
  0
ARC
  5
121A30
  8
OBJECT
 10
12083.0
 20
-655.0
 30
0.0
 40
3.0
 50
270.0
 51
0.0
1001
ACDBBLOCKREPETAG
1070
     1
1071
        4
1005
121A30
  0
LINE
  5
121A31
  8
OBJECT
 10
12086.0
 20
-655.0
 30
0.0
 11
12086.0
 21
-537.0
 31
0.0
1001
ACDBBLOCKREPETAG
1070
     1
1071
        5
1005
121A31
  0
LINE
  5
121A32
  8
OBJECT
 10
10083.0
 20
-534.0
 30
0.0
 11
10080.0
 21
-534.0
 31
0.0
1001
ACDBBLOCKREPETAG
1070
     1
1071
        1
1005
121A32
  0
ARC
  5
121A33
  8
OBJECT
 10
10083.0
 20
-537.0
 30
0.0
 40
3.0
 50
0.0
 51
90.0
1001
ACDBBLOCKREPETAG
1070
     1
1071
        2
1005
121A33
  0
LINE
  5
121A34
  8
OBJECT
 10
10080.0
 20
-658.0
 30
0.0
 11
10083.0
 21
-658.0
 31
0.0
1001
ACDBBLOCKREPETAG
1070
     1
1071
        3
1005
121A34
  0
ARC
  5
121A35
  8
OBJECT
 10
10083.0
 20
-655.0
 30
0.0
 40
3.0
 50
270.0
 51
0.0
1001
ACDBBLOCKREPETAG
1070
     1
1071
        4
1005
121A35
  0
LINE
  5
121A36
  8
OBJECT
 10
10086.0
 20
-655.0
 30
0.0
 11
10086.0
 21
-537.0
 31
0.0
1001
ACDBBLOCKREPETAG
1070
     1
1071
        5
1005
121A36
  0
LINE
  5
121A37
  8
OBJECT
 10
8083.0
 20
-534.0
 30
0.0
 11
8080.0
 21
-534.0
 31
0.0
1001
ACDBBLOCKREPETAG
1070
     1
1071
        1
1005
121A37
  0
ARC
  5
121A38
  8
OBJECT
 10
8083.0
 20
-537.0
 30
0.0
 40
3.0
 50
0.0
 51
90.0
1001
ACDBBLOCKREPETAG
1070
     1
1071
        2
1005
121A38
  0
LINE
  5
121A39
  8
OBJECT
 10
8080.0
 20
-658.0
 30
0.0
 11
8083.0
 21
-658.0
 31
0.0
1001
ACDBBLOCKREPETAG
1070
     1
1071
        3
1005
121A39
  0
ARC
  5
121A3A
  8
OBJECT
 10
8083.0
 20
-655.0
 30
0.0
 40
3.0
 50
270.0
 51
0.0
1001
ACDBBLOCKREPETAG
1070
     1
1071
        4
1005
121A3A
  0
LINE
  5
121A3B
  8
OBJECT
 10
8086.0
 20
-655.0
 30
0.0
 11
8086.0
 21
-537.0
 31
0.0
1001
ACDBBLOCKREPETAG
1070
     1
1071
        5
1005
121A3B
  0
LINE
  5
121A3C
  8
OBJECT
 10
6083.0
 20
-534.0
 30
0.0
 11
6080.0
 21
-534.0
 31
0.0
1001
ACDBBLOCKREPETAG
1070
     1
1071
        1
1005
121A3C
  0
ARC
  5
121A3D
  8
OBJECT
 10
6083.0
 20
-537.0
 30
0.0
 40
3.0
 50
0.0
 51
90.0
1001
ACDBBLOCKREPETAG
1070
     1
1071
        2
1005
121A3D
  0
LINE
  5
121A3E
  8
OBJECT
 10
6080.0
 20
-658.0
 30
0.0
 11
6083.0
 21
-658.0
 31
0.0
1001
ACDBBLOCKREPETAG
1070
     1
1071
        3
1005
121A3E
  0
ARC
  5
121A3F
  8
OBJECT
 10
6083.0
 20
-655.0
 30
0.0
 40
3.0
 50
270.0
 51
0.0
1001
ACDBBLOCKREPETAG
1070
     1
1071
        4
1005
121A3F
  0
LINE
  5
121A40
  8
OBJECT
 10
6086.0
 20
-655.0
 30
0.0
 11
6086.0
 21
-537.0
 31
0.0
1001
ACDBBLOCKREPETAG
1070
     1
1071
        5
1005
121A40
  0
LINE
  5
121A41
  8
OBJECT
 10
4083.0
 20
-534.0
 30
0.0
 11
4080.0
 21
-534.0
 31
0.0
1001
ACDBBLOCKREPETAG
1070
     1
1071
        1
1005
121A41
  0
ARC
  5
121A42
  8
OBJECT
 10
4083.0
 20
-537.0
 30
0.0
 40
3.0
 50
0.0
 51
90.0
1001
ACDBBLOCKREPETAG
1070
     1
1071
        2
1005
121A42
  0
LINE
  5
121A43
  8
OBJECT
 10
4080.0
 20
-658.0
 30
0.0
 11
4083.0
 21
-658.0
 31
0.0
1001
ACDBBLOCKREPETAG
1070
     1
1071
        3
1005
121A43
  0
ARC
  5
121A44
  8
OBJECT
 10
4083.0
 20
-655.0
 30
0.0
 40
3.0
 50
270.0
 51
0.0
1001
ACDBBLOCKREPETAG
1070
     1
1071
        4
1005
121A44
  0
LINE
  5
121A45
  8
OBJECT
 10
4086.0
 20
-655.0
 30
0.0
 11
4086.0
 21
-537.0
 31
0.0
1001
ACDBBLOCKREPETAG
1070
     1
1071
        5
1005
121A45
  0
LINE
  5
121A46
  8
OBJECT
 10
2083.0
 20
-534.0
 30
0.0
 11
2080.0
 21
-534.0
 31
0.0
1001
ACDBBLOCKREPETAG
1070
     1
1071
        1
1005
121A46
  0
ARC
  5
121A47
  8
OBJECT
 10
2083.0
 20
-537.0
 30
0.0
 40
3.0
 50
0.0
 51
90.0
1001
ACDBBLOCKREPETAG
1070
     1
1071
        2
1005
121A47
  0
LINE
  5
121A48
  8
OBJECT
 10
2080.0
 20
-658.0
 30
0.0
 11
2083.0
 21
-658.0
 31
0.0
1001
ACDBBLOCKREPETAG
1070
     1
1071
        3
1005
121A48
  0
ARC
  5
121A49
  8
OBJECT
 10
2083.0
 20
-655.0
 30
0.0
 40
3.0
 50
270.0
 51
0.0
1001
ACDBBLOCKREPETAG
1070
     1
1071
        4
1005
121A49
  0
LINE
  5
121A4A
  8
OBJECT
 10
2086.0
 20
-655.0
 30
0.0
 11
2086.0
 21
-537.0
 31
0.0
1001
ACDBBLOCKREPETAG
1070
     1
1071
        5
1005
121A4A
  0
LINE
  5
121A4B
  8
CENTER
 10
2101.0
 20
-199.99999999999909
 30
0.0
 11
2080.0
 21
-199.99999999999909
 31
0.0
1001
ACDBBLOCKREPETAG
1070
     1
1071
        0
1005
121A4B
  0
LINE
  5
121A4C
  8
OBJECT
 10
2083.0
 20
-137.99999999999909
 30
0.0
 11
2080.0
 21
-137.99999999999909
 31
0.0
1001
ACDBBLOCKREPETAG
1070
     1
1071
        1
1005
121A4C
  0
ARC
  5
121A4D
  8
OBJECT
 10
2083.0
 20
-140.99999999999909
 30
0.0
 40
3.0
 50
0.0
 51
90.0
1001
ACDBBLOCKREPETAG
1070
     1
1071
        2
1005
121A4D
  0
LINE
  5
121A4E
  8
OBJECT
 10
2080.0
 20
-261.99999999999909
 30
0.0
 11
2083.0
 21
-261.99999999999909
 31
0.0
1001
ACDBBLOCKREPETAG
1070
     1
1071
        3
1005
121A4E
  0
ARC
  5
121A4F
  8
OBJECT
 10
2083.0
 20
-258.99999999999909
 30
0.0
 40
3.0
 50
270.0
 51
0.0
1001
ACDBBLOCKREPETAG
1070
     1
1071
        4
1005
121A4F
  0
LINE
  5
121A50
  8
OBJECT
 10
2086.0
 20
-258.99999999999909
 30
0.0
 11
2086.0
 21
-140.99999999999909
 31
0.0
1001
ACDBBLOCKREPETAG
1070
     1
1071
        5
1005
121A50
  0
TEXT
  5
121A51
  8
SLIM
 10
0.0
 20
670.0
 30
0.0
 40
100.0
  1
4SL-0-S
 41
0.75
  0
TEXT
  5
121A52
  8
SLIM
 10
0.0
 20
520.0
 30
0.0
 40
100.0
  1
4SL-0-W
 41
0.75
  0
LINE
  5
121A53
  8
CENTER
 10
11909.0
 20
-1253.9999999999959
 30
0.0
 11
12105.0
 21
-1253.9999999999959
 31
0.0
1001
ACDBBLOCKREPETAG
1070
     1
1071
       10
1005
121A53
  0
LINE
  5
121A54
  8
CENTER
 10
12000.0
 20
-1162.725335570779
 30
0.0
 11
12000.0
 21
-1345.274664429212
 31
0.0
1001
ACDBBLOCKREPETAG
1070
     1
1071
       11
1005
121A54
  0
CIRCLE
  5
121A55
  8
OBJECT
 10
12000.0
 20
-1253.9999999999959
 30
0.0
 40
50.0
1001
ACDBBLOCKREPETAG
1070
     1
1071
       12
1005
121A55
  0
CIRCLE
  5
121A56
  8
OBJECT
 10
12000.0
 20
-1253.9999999999959
 30
0.0
 40
60.0
1001
ACDBBLOCKREPETAG
1070
     1
1071
       13
1005
121A56
  0
CIRCLE
  5
121A57
  8
OBJECT
 10
12000.0
 20
-1253.9999999999959
 30
0.0
 40
68.0
1001
ACDBBLOCKREPETAG
1070
     1
1071
       14
1005
121A57
  0
ARC
  5
121A58
  8
OBJECT
 10
12077.5
 20
-1253.9999999999959
 30
0.0
 40
12.0
 50
272.10542627221611
 51
87.894573727783893
1001
ACDBBLOCKREPETAG
1070
     1
1071
       15
1005
121A58
  0
ARC
  5
121A59
  8
OBJECT
 10
12078.49193548386
 20
-1227.0182271895239
 30
0.0
 40
15.0
 50
198.97051877965251
 51
267.89457372778372
1001
ACDBBLOCKREPETAG
1070
     1
1071
       16
1005
121A59
  0
ARC
  5
121A5A
  8
OBJECT
 10
12078.49193548386
 20
-1280.981772810464
 30
0.0
 40
15.0
 50
92.105426272216135
 51
161.02948122034729
1001
ACDBBLOCKREPETAG
1070
     1
1071
       17
1005
121A5A
  0
CIRCLE
  5
121A5B
  8
SLIM
 10
12078.0
 20
-1253.9999999999959
 30
0.0
 40
8.0
1001
ACDBBLOCKREPETAG
1070
     1
1071
       18
1005
121A5B
  0
POLYLINE
  5
121A5C
  8
SLIM
 66
     1
 10
0.0
 20
0.0
 30
0.0
 70
     1
1001
ACDBBLOCKREPETAG
1070
     1
1071
       19
1005
121A5C
  0
VERTEX
  5
121CCE
  8
SLIM
 10
12075.69059892322
 20
-1249.9999999999959
 30
0.0
  0
VERTEX
  5
121CCF
  8
SLIM
 10
12073.38119784648
 20
-1253.9999999999959
 30
0.0
  0
VERTEX
  5
121CD0
  8
SLIM
 10
12075.69059892322
 20
-1257.9999999999959
 30
0.0
  0
VERTEX
  5
121CD1
  8
SLIM
 10
12080.309401076751
 20
-1257.9999999999959
 30
0.0
  0
VERTEX
  5
121CD2
  8
SLIM
 10
12082.618802153511
 20
-1253.9999999999959
 30
0.0
  0
VERTEX
  5
121CD3
  8
SLIM
 10
12080.309401076751
 20
-1249.9999999999959
 30
0.0
  0
SEQEND
  5
121CD4
  8
SLIM
  0
ARC
  5
121A5D
  8
OBJECT
 10
11961.25
 20
-1186.8830312067
 30
0.0
 40
12.0
 50
32.105426272130188
 51
207.89457372768319
1001
ACDBBLOCKREPETAG
1070
     1
1071
       20
1005
121A5D
  0
ARC
  5
121A5E
  8
OBJECT
 10
11937.38713156505
 20
-1199.5148762839881
 30
0.0
 40
15.0
 50
318.97051877944762
 51
27.89457372768311
1001
ACDBBLOCKREPETAG
1070
     1
1071
       21
1005
121A5E
  0
ARC
  5
121A5F
  8
OBJECT
 10
11984.120932951069
 20
-1172.533103473517
 30
0.0
 40
15.0
 50
212.10542627213019
 51
281.02948122044069
1001
ACDBBLOCKREPETAG
1070
     1
1071
       22
1005
121A5F
  0
CIRCLE
  5
121A60
  8
SLIM
 10
11961.0
 20
-1186.4500185048089
 30
0.0
 40
7.9999999999999982
1001
ACDBBLOCKREPETAG
1070
     1
1071
       23
1005
121A60
  0
POLYLINE
  5
121A61
  8
SLIM
 66
     1
 10
0.0
 20
0.0
 30
0.0
 70
     1
1001
ACDBBLOCKREPETAG
1070
     1
1071
       24
1005
121A61
  0
VERTEX
  5
121CD5
  8
SLIM
 10
11958.69059892324
 20
-1190.4500185048089
 30
0.0
  0
VERTEX
  5
121CD6
  8
SLIM
 10
11963.309401076751
 20
-1190.4500185048089
 30
0.0
  0
VERTEX
  5
121CD7
  8
SLIM
 10
11965.618802153511
 20
-1186.4500185048089
 30
0.0
  0
VERTEX
  5
121CD8
  8
SLIM
 10
11963.309401076751
 20
-1182.4500185048089
 30
0.0
  0
VERTEX
  5
121CD9
  8
SLIM
 10
11958.69059892324
 20
-1182.4500185048089
 30
0.0
  0
VERTEX
  5
121CDA
  8
SLIM
 10
11956.38119784648
 20
-1186.4500185048089
 30
0.0
  0
SEQEND
  5
121CDB
  8
SLIM
  0
ARC
  5
121A62
  8
OBJECT
 10
11961.25
 20
-1321.1169687932879
 30
0.0
 40
12.0
 50
152.10542627231681
 51
327.89457372786978
1001
ACDBBLOCKREPETAG
1070
     1
1071
       25
1005
121A62
  0
ARC
  5
121A63
  8
OBJECT
 10
11984.120932951069
 20
-1335.4668965264709
 30
0.0
 40
15.0
 50
78.970518779559228
 51
147.89457372786981
1001
ACDBBLOCKREPETAG
1070
     1
1071
       26
1005
121A63
  0
ARC
  5
121A64
  8
OBJECT
 10
11937.38713156505
 20
-1308.485123716003
 30
0.0
 40
15.0
 50
332.10542627231678
 51
41.029481220552412
1001
ACDBBLOCKREPETAG
1070
     1
1071
       27
1005
121A64
  0
CIRCLE
  5
121A65
  8
SLIM
 10
11961.0
 20
-1321.549981495182
 30
0.0
 40
8.0
1001
ACDBBLOCKREPETAG
1070
     1
1071
       28
1005
121A65
  0
POLYLINE
  5
121A66
  8
SLIM
 66
     1
 10
0.0
 20
0.0
 30
0.0
 70
     1
1001
ACDBBLOCKREPETAG
1070
     1
1071
       29
1005
121A66
  0
VERTEX
  5
121CDC
  8
SLIM
 10
11965.618802153511
 20
-1321.5499814951791
 30
0.0
  0
VERTEX
  5
121CDD
  8
SLIM
 10
11963.309401076751
 20
-1317.549981495182
 30
0.0
  0
VERTEX
  5
121CDE
  8
SLIM
 10
11958.69059892324
 20
-1317.5499814951791
 30
0.0
  0
VERTEX
  5
121CDF
  8
SLIM
 10
11956.38119784648
 20
-1321.549981495182
 30
0.0
  0
VERTEX
  5
121CE0
  8
SLIM
 10
11958.69059892322
 20
-1325.5499814951791
 30
0.0
  0
VERTEX
  5
121CE1
  8
SLIM
 10
11963.309401076751
 20
-1325.549981495182
 30
0.0
  0
SEQEND
  5
121CE2
  8
SLIM
  0
ARC
  5
121A67
  8
OBJECT
 10
12000.0
 20
-1253.9999999999959
 30
0.0
 40
76.0
 50
34.863837954171863
 51
85.136162045732945
1001
ACDBBLOCKREPETAG
1070
     1
1071
       42
1005
121A67
  0
ARC
  5
121A68
  8
OBJECT
 10
12000.0
 20
-1253.9999999999959
 30
0.0
 40
76.0
 50
154.86383795430939
 51
205.1361620456905
1001
ACDBBLOCKREPETAG
1070
     1
1071
       43
1005
121A68
  0
ARC
  5
121A69
  8
OBJECT
 10
12000.0
 20
-1253.9999999999959
 30
0.0
 40
76.0
 50
274.86383795426718
 51
325.13616204582797
1001
ACDBBLOCKREPETAG
1070
     1
1071
       44
1005
121A69
  0
ARC
  5
121A6A
  8
OBJECT
 10
12078.0
 20
-1253.9999999999959
 30
0.0
 40
12.0
 50
325.13616204582797
 51
34.863837954171863
1001
ACDBBLOCKREPETAG
1070
     1
1071
       45
1005
121A6A
  0
LINE
  5
121A6B
  8
OBJECT
 10
12087.84615384616
 20
-1247.140462520133
 30
0.0
 11
12062.358974359049
 21
-1210.5562626275339
 31
0.0
1001
ACDBBLOCKREPETAG
1070
     1
1071
       46
1005
121A6B
  0
LINE
  5
121A6C
  8
OBJECT
 10
12087.846153846171
 20
-1260.859537479856
 30
0.0
 11
12062.358974359049
 21
-1297.4437373724591
 31
0.0
1001
ACDBBLOCKREPETAG
1070
     1
1071
       47
1005
121A6C
  0
ARC
  5
121A6D
  8
OBJECT
 10
11961.0
 20
-1186.45001850481
 30
0.0
 40
12.0
 50
85.136162045942811
 51
154.86383795410001
1001
ACDBBLOCKREPETAG
1070
     1
1071
       48
1005
121A6D
  0
LINE
  5
121A6E
  8
OBJECT
 10
11950.13638936114
 20
-1181.3527678843909
 30
0.0
 11
11931.19713262058
 21
-1221.7174127373471
 31
0.0
1001
ACDBBLOCKREPETAG
1070
     1
1071
       49
1005
121A6E
  0
LINE
  5
121A6F
  8
OBJECT
 10
11962.017456792681
 20
-1174.493230404526
 30
0.0
 11
12006.443893020371
 21
-1178.2736753648851
 31
0.0
1001
ACDBBLOCKREPETAG
1070
     1
1071
       50
1005
121A6F
  0
ARC
  5
121A70
  8
OBJECT
 10
11961.0
 20
-1321.5499814951811
 30
0.0
 40
12.0
 50
205.13616204589991
 51
274.8638379540572
1001
ACDBBLOCKREPETAG
1070
     1
1071
       51
1005
121A70
  0
LINE
  5
121A71
  8
OBJECT
 10
11962.01745679269
 20
-1333.5067695954631
 30
0.0
 11
12006.44389302036
 21
-1329.726324635106
 31
0.0
1001
ACDBBLOCKREPETAG
1070
     1
1071
       52
1005
121A71
  0
LINE
  5
121A72
  8
OBJECT
 10
11950.13638936114
 20
-1326.647232115605
 30
0.0
 11
11931.19713262058
 21
-1286.2825872626429
 31
0.0
1001
ACDBBLOCKREPETAG
1070
     1
1071
       53
1005
121A72
  0
LINE
  5
121A73
  8
CENTER
 10
9909.0
 20
-1253.9999999999959
 30
0.0
 11
10105.0
 21
-1253.9999999999959
 31
0.0
1001
ACDBBLOCKREPETAG
1070
     1
1071
        0
1005
121A73
  0
LINE
  5
121A74
  8
CENTER
 10
10000.0
 20
-1162.725335570779
 30
0.0
 11
10000.0
 21
-1345.274664429212
 31
0.0
1001
ACDBBLOCKREPETAG
1070
     1
1071
        1
1005
121A74
  0
CIRCLE
  5
121A75
  8
OBJECT
 10
10000.0
 20
-1253.9999999999959
 30
0.0
 40
50.0
1001
ACDBBLOCKREPETAG
1070
     1
1071
        2
1005
121A75
  0
CIRCLE
  5
121A76
  8
OBJECT
 10
10000.0
 20
-1253.9999999999959
 30
0.0
 40
62.0
1001
ACDBBLOCKREPETAG
1070
     1
1071
        3
1005
121A76
  0
CIRCLE
  5
121A77
  8
SLIM
 10
10078.0
 20
-1253.9999999999959
 30
0.0
 40
5.0
1001
ACDBBLOCKREPETAG
1070
     1
1071
        4
1005
121A77
  0
POLYLINE
  5
121A78
  8
SLIM
 66
     1
 10
0.0
 20
0.0
 30
0.0
 70
     1
1001
ACDBBLOCKREPETAG
1070
     1
1071
        5
1005
121A78
  0
VERTEX
  5
121CE3
  8
SLIM
 10
10073.092522711881
 20
-1245.4999999999959
 30
0.0
  0
VERTEX
  5
121CE4
  8
SLIM
 10
10068.18504542377
 20
-1253.9999999999959
 30
0.0
  0
VERTEX
  5
121CE5
  8
SLIM
 10
10073.092522711881
 20
-1262.4999999999959
 30
0.0
  0
VERTEX
  5
121CE6
  8
SLIM
 10
10082.907477288099
 20
-1262.4999999999959
 30
0.0
  0
VERTEX
  5
121CE7
  8
SLIM
 10
10087.814954576221
 20
-1253.9999999999959
 30
0.0
  0
VERTEX
  5
121CE8
  8
SLIM
 10
10082.907477288099
 20
-1245.4999999999959
 30
0.0
  0
SEQEND
  5
121CE9
  8
SLIM
  0
CIRCLE
  5
121A79
  8
SLIM
 10
9961.0
 20
-1186.4500185048089
 30
0.0
 40
4.9999999999999991
1001
ACDBBLOCKREPETAG
1070
     1
1071
        6
1005
121A79
  0
POLYLINE
  5
121A7A
  8
SLIM
 66
     1
 10
0.0
 20
0.0
 30
0.0
 70
     1
1001
ACDBBLOCKREPETAG
1070
     1
1071
        7
1005
121A7A
  0
VERTEX
  5
121CEA
  8
SLIM
 10
9956.092522711886
 20
-1194.950018504808
 30
0.0
  0
VERTEX
  5
121CEB
  8
SLIM
 10
9965.907477288114
 20
-1194.950018504808
 30
0.0
  0
VERTEX
  5
121CEC
  8
SLIM
 10
9970.814954576219
 20
-1186.4500185048089
 30
0.0
  0
VERTEX
  5
121CED
  8
SLIM
 10
9965.907477288114
 20
-1177.9500185048089
 30
0.0
  0
VERTEX
  5
121CEE
  8
SLIM
 10
9956.092522711886
 20
-1177.9500185048089
 30
0.0
  0
VERTEX
  5
121CEF
  8
SLIM
 10
9951.185045423772
 20
-1186.4500185048089
 30
0.0
  0
SEQEND
  5
121CF0
  8
SLIM
  0
CIRCLE
  5
121A7B
  8
SLIM
 10
9961.0
 20
-1321.549981495182
 30
0.0
 40
5.0
1001
ACDBBLOCKREPETAG
1070
     1
1071
        8
1005
121A7B
  0
POLYLINE
  5
121A7C
  8
SLIM
 66
     1
 10
0.0
 20
0.0
 30
0.0
 70
     1
1001
ACDBBLOCKREPETAG
1070
     1
1071
        9
1005
121A7C
  0
VERTEX
  5
121CF1
  8
SLIM
 10
9970.814954576219
 20
-1321.549981495182
 30
0.0
  0
VERTEX
  5
121CF2
  8
SLIM
 10
9965.9074772881049
 20
-1313.0499814951791
 30
0.0
  0
VERTEX
  5
121CF3
  8
SLIM
 10
9956.092522711886
 20
-1313.0499814951829
 30
0.0
  0
VERTEX
  5
121CF4
  8
SLIM
 10
9951.185045423772
 20
-1321.5499814951791
 30
0.0
  0
VERTEX
  5
121CF5
  8
SLIM
 10
9956.092522711886
 20
-1330.049981495182
 30
0.0
  0
VERTEX
  5
121CF6
  8
SLIM
 10
9965.907477288114
 20
-1330.0499814951791
 30
0.0
  0
SEQEND
  5
121CF7
  8
SLIM
  0
ARC
  5
121A7D
  8
OBJECT
 10
10000.0
 20
-1253.9999999999959
 30
0.0
 40
76.0
 50
34.863837954171863
 51
85.136162045732945
1001
ACDBBLOCKREPETAG
1070
     1
1071
       30
1005
121A7D
  0
ARC
  5
121A7E
  8
OBJECT
 10
10000.0
 20
-1253.9999999999959
 30
0.0
 40
76.0
 50
154.86383795430939
 51
205.1361620456905
1001
ACDBBLOCKREPETAG
1070
     1
1071
       31
1005
121A7E
  0
ARC
  5
121A7F
  8
OBJECT
 10
10000.0
 20
-1253.9999999999959
 30
0.0
 40
76.0
 50
274.86383795426718
 51
325.13616204582797
1001
ACDBBLOCKREPETAG
1070
     1
1071
       32
1005
121A7F
  0
ARC
  5
121A80
  8
OBJECT
 10
10078.0
 20
-1253.9999999999959
 30
0.0
 40
12.0
 50
325.13616204582797
 51
34.863837954171863
1001
ACDBBLOCKREPETAG
1070
     1
1071
       33
1005
121A80
  0
LINE
  5
121A81
  8
OBJECT
 10
10087.84615384616
 20
-1247.140462520133
 30
0.0
 11
10062.35897435904
 21
-1210.5562626275339
 31
0.0
1001
ACDBBLOCKREPETAG
1070
     1
1071
       34
1005
121A81
  0
LINE
  5
121A82
  8
OBJECT
 10
10087.846153846171
 20
-1260.859537479856
 30
0.0
 11
10062.35897435904
 21
-1297.4437373724591
 31
0.0
1001
ACDBBLOCKREPETAG
1070
     1
1071
       35
1005
121A82
  0
ARC
  5
121A83
  8
OBJECT
 10
9961.0
 20
-1186.45001850481
 30
0.0
 40
12.0
 50
85.136162045942811
 51
154.86383795410001
1001
ACDBBLOCKREPETAG
1070
     1
1071
       36
1005
121A83
  0
LINE
  5
121A84
  8
OBJECT
 10
9950.1363893611433
 20
-1181.3527678843909
 30
0.0
 11
9931.1971326205894
 21
-1221.7174127373471
 31
0.0
1001
ACDBBLOCKREPETAG
1070
     1
1071
       37
1005
121A84
  0
LINE
  5
121A85
  8
OBJECT
 10
9962.0174567926842
 20
-1174.493230404526
 30
0.0
 11
10006.443893020371
 21
-1178.2736753648851
 31
0.0
1001
ACDBBLOCKREPETAG
1070
     1
1071
       38
1005
121A85
  0
ARC
  5
121A86
  8
OBJECT
 10
9961.0
 20
-1321.5499814951811
 30
0.0
 40
12.0
 50
205.13616204589991
 51
274.8638379540572
1001
ACDBBLOCKREPETAG
1070
     1
1071
       39
1005
121A86
  0
LINE
  5
121A87
  8
OBJECT
 10
9962.0174567926897
 20
-1333.5067695954631
 30
0.0
 11
10006.44389302036
 21
-1329.726324635106
 31
0.0
1001
ACDBBLOCKREPETAG
1070
     1
1071
       40
1005
121A87
  0
LINE
  5
121A88
  8
OBJECT
 10
9950.1363893611433
 20
-1326.647232115605
 30
0.0
 11
9931.1971326205821
 21
-1286.2825872626429
 31
0.0
1001
ACDBBLOCKREPETAG
1070
     1
1071
       41
1005
121A88
  0
LINE
  5
121A89
  8
CENTER
 10
5909.0
 20
-1294.9999999999991
 30
0.0
 11
6105.0
 21
-1294.9999999999991
 31
0.0
1001
ACDBBLOCKREPETAG
1070
     1
1071
       10
1005
121A89
  0
LINE
  5
121A8A
  8
CENTER
 10
6000.0
 20
-1203.7253355707819
 30
0.0
 11
6000.0
 21
-1386.274664429216
 31
0.0
1001
ACDBBLOCKREPETAG
1070
     1
1071
       11
1005
121A8A
  0
CIRCLE
  5
121A8B
  8
OBJECT
 10
6000.0
 20
-1294.9999999999991
 30
0.0
 40
50.0
1001
ACDBBLOCKREPETAG
1070
     1
1071
       12
1005
121A8B
  0
CIRCLE
  5
121A8C
  8
OBJECT
 10
6000.0
 20
-1294.9999999999991
 30
0.0
 40
60.0
1001
ACDBBLOCKREPETAG
1070
     1
1071
       13
1005
121A8C
  0
CIRCLE
  5
121A8D
  8
OBJECT
 10
6000.0
 20
-1294.9999999999991
 30
0.0
 40
68.0
1001
ACDBBLOCKREPETAG
1070
     1
1071
       14
1005
121A8D
  0
ARC
  5
121A8E
  8
OBJECT
 10
6077.5
 20
-1294.9999999999991
 30
0.0
 40
12.0
 50
272.10542627221611
 51
87.894573727783893
1001
ACDBBLOCKREPETAG
1070
     1
1071
       15
1005
121A8E
  0
ARC
  5
121A8F
  8
OBJECT
 10
6078.4919354838639
 20
-1268.0182271895269
 30
0.0
 40
15.0
 50
198.9705187796356
 51
267.89457372778372
1001
ACDBBLOCKREPETAG
1070
     1
1071
       16
1005
121A8F
  0
ARC
  5
121A90
  8
OBJECT
 10
6078.4919354838639
 20
-1321.981772810467
 30
0.0
 40
15.0
 50
92.105426272216135
 51
161.02948122036429
1001
ACDBBLOCKREPETAG
1070
     1
1071
       17
1005
121A90
  0
CIRCLE
  5
121A91
  8
SLIM
 10
6078.0
 20
-1294.9999999999991
 30
0.0
 40
8.0
1001
ACDBBLOCKREPETAG
1070
     1
1071
       18
1005
121A91
  0
POLYLINE
  5
121A92
  8
SLIM
 66
     1
 10
0.0
 20
0.0
 30
0.0
 70
     1
1001
ACDBBLOCKREPETAG
1070
     1
1071
       19
1005
121A92
  0
VERTEX
  5
121CF8
  8
SLIM
 10
6075.6905989232328
 20
-1290.9999999999991
 30
0.0
  0
VERTEX
  5
121CF9
  8
SLIM
 10
6073.3811978464801
 20
-1294.9999999999991
 30
0.0
  0
VERTEX
  5
121CFA
  8
SLIM
 10
6075.6905989232328
 20
-1298.9999999999991
 30
0.0
  0
VERTEX
  5
121CFB
  8
SLIM
 10
6080.3094010767527
 20
-1298.9999999999991
 30
0.0
  0
VERTEX
  5
121CFC
  8
SLIM
 10
6082.6188021535136
 20
-1294.9999999999991
 30
0.0
  0
VERTEX
  5
121CFD
  8
SLIM
 10
6080.3094010767527
 20
-1290.9999999999991
 30
0.0
  0
SEQEND
  5
121CFE
  8
SLIM
  0
ARC
  5
121A93
  8
OBJECT
 10
5961.25
 20
-1227.883031206703
 30
0.0
 40
12.0
 50
32.105426272157878
 51
207.89457372770741
1001
ACDBBLOCKREPETAG
1070
     1
1071
       20
1005
121A93
  0
ARC
  5
121A94
  8
OBJECT
 10
5937.387131565054
 20
-1240.514876283992
 30
0.0
 40
15.0
 50
318.97051877944762
 51
27.894573727707481
1001
ACDBBLOCKREPETAG
1070
     1
1071
       21
1005
121A94
  0
ARC
  5
121A95
  8
OBJECT
 10
5984.1209329510702
 20
-1213.53310347352
 30
0.0
 40
15.0
 50
212.1054262721579
 51
281.02948122044069
1001
ACDBBLOCKREPETAG
1070
     1
1071
       22
1005
121A95
  0
CIRCLE
  5
121A96
  8
SLIM
 10
5961.0
 20
-1227.4500185048121
 30
0.0
 40
7.9999999999999982
1001
ACDBBLOCKREPETAG
1070
     1
1071
       23
1005
121A96
  0
POLYLINE
  5
121A97
  8
SLIM
 66
     1
 10
0.0
 20
0.0
 30
0.0
 70
     1
1001
ACDBBLOCKREPETAG
1070
     1
1071
       24
1005
121A97
  0
VERTEX
  5
121CFF
  8
SLIM
 10
5958.69059892324
 20
-1231.4500185048121
 30
0.0
  0
VERTEX
  5
121D00
  8
SLIM
 10
5963.3094010767518
 20
-1231.4500185048121
 30
0.0
  0
VERTEX
  5
121D01
  8
SLIM
 10
5965.6188021535136
 20
-1227.4500185048121
 30
0.0
  0
VERTEX
  5
121D02
  8
SLIM
 10
5963.3094010767518
 20
-1223.4500185048121
 30
0.0
  0
VERTEX
  5
121D03
  8
SLIM
 10
5958.69059892324
 20
-1223.4500185048121
 30
0.0
  0
VERTEX
  5
121D04
  8
SLIM
 10
5956.3811978464792
 20
-1227.4500185048121
 30
0.0
  0
SEQEND
  5
121D05
  8
SLIM
  0
ARC
  5
121A98
  8
OBJECT
 10
5961.25
 20
-1362.1169687932911
 30
0.0
 40
12.0
 50
152.1054262722925
 51
327.89457372784221
1001
ACDBBLOCKREPETAG
1070
     1
1071
       25
1005
121A98
  0
ARC
  5
121A99
  8
OBJECT
 10
5984.1209329510702
 20
-1376.466896526475
 30
0.0
 40
15.0
 50
78.970518779559228
 51
147.8945737278421
1001
ACDBBLOCKREPETAG
1070
     1
1071
       26
1005
121A99
  0
ARC
  5
121A9A
  8
OBJECT
 10
5937.387131565054
 20
-1349.485123716006
 30
0.0
 40
15.0
 50
332.1054262722925
 51
41.029481220552412
1001
ACDBBLOCKREPETAG
1070
     1
1071
       27
1005
121A9A
  0
CIRCLE
  5
121A9B
  8
SLIM
 10
5961.0
 20
-1362.5499814951861
 30
0.0
 40
8.0
1001
ACDBBLOCKREPETAG
1070
     1
1071
       28
1005
121A9B
  0
POLYLINE
  5
121A9C
  8
SLIM
 66
     1
 10
0.0
 20
0.0
 30
0.0
 70
     1
1001
ACDBBLOCKREPETAG
1070
     1
1071
       29
1005
121A9C
  0
VERTEX
  5
121D06
  8
SLIM
 10
5965.6188021535136
 20
-1362.549981495182
 30
0.0
  0
VERTEX
  5
121D07
  8
SLIM
 10
5963.3094010767518
 20
-1358.5499814951861
 30
0.0
  0
VERTEX
  5
121D08
  8
SLIM
 10
5958.69059892324
 20
-1358.5499814951829
 30
0.0
  0
VERTEX
  5
121D09
  8
SLIM
 10
5956.3811978464792
 20
-1362.5499814951861
 30
0.0
  0
VERTEX
  5
121D0A
  8
SLIM
 10
5958.6905989232328
 20
-1366.5499814951829
 30
0.0
  0
VERTEX
  5
121D0B
  8
SLIM
 10
5963.3094010767518
 20
-1366.5499814951861
 30
0.0
  0
SEQEND
  5
121D0C
  8
SLIM
  0
ARC
  5
121A9D
  8
OBJECT
 10
6000.0
 20
-1294.9999999999991
 30
0.0
 40
76.0
 50
34.863837954142063
 51
85.136162045732945
1001
ACDBBLOCKREPETAG
1070
     1
1071
       42
1005
121A9D
  0
ARC
  5
121A9E
  8
OBJECT
 10
6000.0
 20
-1294.9999999999991
 30
0.0
 40
76.0
 50
154.86383795430939
 51
205.1361620456905
1001
ACDBBLOCKREPETAG
1070
     1
1071
       43
1005
121A9E
  0
ARC
  5
121A9F
  8
OBJECT
 10
6000.0
 20
-1294.9999999999991
 30
0.0
 40
76.0
 50
274.86383795426718
 51
325.13616204585799
1001
ACDBBLOCKREPETAG
1070
     1
1071
       44
1005
121A9F
  0
ARC
  5
121AA0
  8
OBJECT
 10
6078.0
 20
-1294.9999999999991
 30
0.0
 40
12.0
 50
325.13616204585799
 51
34.863837954142063
1001
ACDBBLOCKREPETAG
1070
     1
1071
       45
1005
121AA0
  0
LINE
  5
121AA1
  8
OBJECT
 10
6087.846153846167
 20
-1288.1404625201369
 30
0.0
 11
6062.3589743590501
 21
-1251.556262627538
 31
0.0
1001
ACDBBLOCKREPETAG
1070
     1
1071
       46
1005
121AA1
  0
LINE
  5
121AA2
  8
OBJECT
 10
6087.8461538461697
 20
-1301.8595374798599
 30
0.0
 11
6062.3589743590501
 21
-1338.443737372462
 31
0.0
1001
ACDBBLOCKREPETAG
1070
     1
1071
       47
1005
121AA2
  0
ARC
  5
121AA3
  8
OBJECT
 10
5961.0
 20
-1227.4500185048139
 30
0.0
 40
12.0
 50
85.136162045942811
 51
154.86383795410001
1001
ACDBBLOCKREPETAG
1070
     1
1071
       48
1005
121AA3
  0
LINE
  5
121AA4
  8
OBJECT
 10
5950.1363893611451
 20
-1222.3527678843941
 30
0.0
 11
5931.1971326205849
 21
-1262.7174127373501
 31
0.0
1001
ACDBBLOCKREPETAG
1070
     1
1071
       49
1005
121AA4
  0
LINE
  5
121AA5
  8
OBJECT
 10
5962.0174567926842
 20
-1215.493230404529
 30
0.0
 11
6006.4438930203669
 21
-1219.273675364888
 31
0.0
1001
ACDBBLOCKREPETAG
1070
     1
1071
       50
1005
121AA5
  0
ARC
  5
121AA6
  8
OBJECT
 10
5961.0
 20
-1362.5499814951841
 30
0.0
 40
12.0
 50
205.13616204589991
 51
274.8638379540572
1001
ACDBBLOCKREPETAG
1070
     1
1071
       51
1005
121AA6
  0
LINE
  5
121AA7
  8
OBJECT
 10
5962.0174567926879
 20
-1374.506769595466
 30
0.0
 11
6006.4438930203651
 21
-1370.726324635109
 31
0.0
1001
ACDBBLOCKREPETAG
1070
     1
1071
       52
1005
121AA7
  0
LINE
  5
121AA8
  8
OBJECT
 10
5950.1363893611451
 20
-1367.6472321156079
 30
0.0
 11
5931.1971326205821
 21
-1327.2825872626461
 31
0.0
1001
ACDBBLOCKREPETAG
1070
     1
1071
       53
1005
121AA8
  0
LINE
  5
121AA9
  8
CENTER
 10
3909.0
 20
-1253.9999999999959
 30
0.0
 11
4105.0
 21
-1253.9999999999959
 31
0.0
1001
ACDBBLOCKREPETAG
1070
     1
1071
        0
1005
121AA9
  0
LINE
  5
121AAA
  8
CENTER
 10
4000.0
 20
-1162.725335570779
 30
0.0
 11
4000.0
 21
-1345.274664429212
 31
0.0
1001
ACDBBLOCKREPETAG
1070
     1
1071
        1
1005
121AAA
  0
CIRCLE
  5
121AAB
  8
OBJECT
 10
4000.0
 20
-1253.9999999999959
 30
0.0
 40
50.0
1001
ACDBBLOCKREPETAG
1070
     1
1071
        2
1005
121AAB
  0
CIRCLE
  5
121AAC
  8
OBJECT
 10
4000.0
 20
-1253.9999999999959
 30
0.0
 40
62.0
1001
ACDBBLOCKREPETAG
1070
     1
1071
        3
1005
121AAC
  0
CIRCLE
  5
121AAD
  8
SLIM
 10
4078.0
 20
-1253.9999999999959
 30
0.0
 40
5.0
1001
ACDBBLOCKREPETAG
1070
     1
1071
        4
1005
121AAD
  0
POLYLINE
  5
121AAE
  8
SLIM
 66
     1
 10
0.0
 20
0.0
 30
0.0
 70
     1
1001
ACDBBLOCKREPETAG
1070
     1
1071
        5
1005
121AAE
  0
VERTEX
  5
121D0D
  8
SLIM
 10
4073.092522711886
 20
-1245.4999999999959
 30
0.0
  0
VERTEX
  5
121D0E
  8
SLIM
 10
4068.185045423772
 20
-1253.9999999999959
 30
0.0
  0
VERTEX
  5
121D0F
  8
SLIM
 10
4073.092522711886
 20
-1262.4999999999959
 30
0.0
  0
VERTEX
  5
121D10
  8
SLIM
 10
4082.9074772881072
 20
-1262.4999999999959
 30
0.0
  0
VERTEX
  5
121D11
  8
SLIM
 10
4087.8149545762199
 20
-1253.9999999999959
 30
0.0
  0
VERTEX
  5
121D12
  8
SLIM
 10
4082.9074772881072
 20
-1245.4999999999959
 30
0.0
  0
SEQEND
  5
121D13
  8
SLIM
  0
CIRCLE
  5
121AAF
  8
SLIM
 10
3961.0
 20
-1186.4500185048089
 30
0.0
 40
4.9999999999999991
1001
ACDBBLOCKREPETAG
1070
     1
1071
        6
1005
121AAF
  0
POLYLINE
  5
121AB0
  8
SLIM
 66
     1
 10
0.0
 20
0.0
 30
0.0
 70
     1
1001
ACDBBLOCKREPETAG
1070
     1
1071
        7
1005
121AB0
  0
VERTEX
  5
121D14
  8
SLIM
 10
3956.092522711886
 20
-1194.950018504808
 30
0.0
  0
VERTEX
  5
121D15
  8
SLIM
 10
3965.907477288114
 20
-1194.950018504808
 30
0.0
  0
VERTEX
  5
121D16
  8
SLIM
 10
3970.8149545762212
 20
-1186.4500185048089
 30
0.0
  0
VERTEX
  5
121D17
  8
SLIM
 10
3965.907477288114
 20
-1177.9500185048089
 30
0.0
  0
VERTEX
  5
121D18
  8
SLIM
 10
3956.092522711886
 20
-1177.9500185048089
 30
0.0
  0
VERTEX
  5
121D19
  8
SLIM
 10
3951.185045423772
 20
-1186.4500185048089
 30
0.0
  0
SEQEND
  5
121D1A
  8
SLIM
  0
CIRCLE
  5
121AB1
  8
SLIM
 10
3961.0
 20
-1321.549981495182
 30
0.0
 40
5.0
1001
ACDBBLOCKREPETAG
1070
     1
1071
        8
1005
121AB1
  0
POLYLINE
  5
121AB2
  8
SLIM
 66
     1
 10
0.0
 20
0.0
 30
0.0
 70
     1
1001
ACDBBLOCKREPETAG
1070
     1
1071
        9
1005
121AB2
  0
VERTEX
  5
121D1B
  8
SLIM
 10
3970.8149545762212
 20
-1321.549981495182
 30
0.0
  0
VERTEX
  5
121D1C
  8
SLIM
 10
3965.9074772881072
 20
-1313.0499814951791
 30
0.0
  0
VERTEX
  5
121D1D
  8
SLIM
 10
3956.092522711886
 20
-1313.0499814951829
 30
0.0
  0
VERTEX
  5
121D1E
  8
SLIM
 10
3951.185045423772
 20
-1321.5499814951791
 30
0.0
  0
VERTEX
  5
121D1F
  8
SLIM
 10
3956.092522711886
 20
-1330.049981495182
 30
0.0
  0
VERTEX
  5
121D20
  8
SLIM
 10
3965.907477288114
 20
-1330.0499814951791
 30
0.0
  0
SEQEND
  5
121D21
  8
SLIM
  0
ARC
  5
121AB3
  8
OBJECT
 10
4000.0
 20
-1253.9999999999959
 30
0.0
 40
76.0
 50
34.863837954142063
 51
85.136162045732945
1001
ACDBBLOCKREPETAG
1070
     1
1071
       30
1005
121AB3
  0
ARC
  5
121AB4
  8
OBJECT
 10
4000.0
 20
-1253.9999999999959
 30
0.0
 40
76.0
 50
154.86383795430939
 51
205.1361620456905
1001
ACDBBLOCKREPETAG
1070
     1
1071
       31
1005
121AB4
  0
ARC
  5
121AB5
  8
OBJECT
 10
4000.0
 20
-1253.9999999999959
 30
0.0
 40
76.0
 50
274.86383795426718
 51
325.13616204585799
1001
ACDBBLOCKREPETAG
1070
     1
1071
       32
1005
121AB5
  0
ARC
  5
121AB6
  8
OBJECT
 10
4078.0
 20
-1253.9999999999959
 30
0.0
 40
12.0
 50
325.13616204585799
 51
34.863837954142063
1001
ACDBBLOCKREPETAG
1070
     1
1071
       33
1005
121AB6
  0
LINE
  5
121AB7
  8
OBJECT
 10
4087.846153846167
 20
-1247.140462520133
 30
0.0
 11
4062.3589743590492
 21
-1210.5562626275339
 31
0.0
1001
ACDBBLOCKREPETAG
1070
     1
1071
       34
1005
121AB7
  0
LINE
  5
121AB8
  8
OBJECT
 10
4087.8461538461711
 20
-1260.859537479856
 30
0.0
 11
4062.3589743590492
 21
-1297.4437373724591
 31
0.0
1001
ACDBBLOCKREPETAG
1070
     1
1071
       35
1005
121AB8
  0
ARC
  5
121AB9
  8
OBJECT
 10
3961.0
 20
-1186.45001850481
 30
0.0
 40
12.0
 50
85.136162045942811
 51
154.86383795411109
1001
ACDBBLOCKREPETAG
1070
     1
1071
       36
1005
121AB9
  0
LINE
  5
121ABA
  8
OBJECT
 10
3950.136389361146
 20
-1181.3527678843909
 30
0.0
 11
3931.1971326205862
 21
-1221.7174127373471
 31
0.0
1001
ACDBBLOCKREPETAG
1070
     1
1071
       37
1005
121ABA
  0
LINE
  5
121ABB
  8
OBJECT
 10
3962.0174567926852
 20
-1174.493230404526
 30
0.0
 11
4006.4438930203678
 21
-1178.2736753648851
 31
0.0
1001
ACDBBLOCKREPETAG
1070
     1
1071
       38
1005
121ABB
  0
ARC
  5
121ABC
  8
OBJECT
 10
3961.0
 20
-1321.5499814951811
 30
0.0
 40
12.0
 50
205.13616204588891
 51
274.8638379540572
1001
ACDBBLOCKREPETAG
1070
     1
1071
       39
1005
121ABC
  0
LINE
  5
121ABD
  8
OBJECT
 10
3962.0174567926879
 20
-1333.5067695954631
 30
0.0
 11
4006.4438930203651
 21
-1329.726324635106
 31
0.0
1001
ACDBBLOCKREPETAG
1070
     1
1071
       40
1005
121ABD
  0
LINE
  5
121ABE
  8
OBJECT
 10
3950.136389361146
 20
-1326.647232115605
 30
0.0
 11
3931.1971326205821
 21
-1286.2825872626429
 31
0.0
1001
ACDBBLOCKREPETAG
1070
     1
1071
       41
1005
121ABE
  0
TEXT
  5
121ABF
  8
SLIM
 10
3853.75
 20
-1521.4999999999959
 30
0.0
 40
35.0
  1
両受けスタイル（W）
 41
0.75
  0
TEXT
  5
121AC0
  8
SLIM
 10
5811.8000000000002
 20
-1618.9999999999991
 30
0.0
 40
28.0
  1
※ 対応スラブ厚　150mm以上
 41
0.75
  0
TEXT
  5
121AC1
  8
SLIM
 10
5611.5
 20
-1712.333333333333
 30
0.0
 40
28.0
  1
国土交通大臣認定・（財）日本消防設備安全センター性能評定取得品
 41
0.75
  0
TEXT
  5
121AC2
  8
SLIM
 10
5631.1000000000004
 20
-1758.9999999999991
 30
0.0
 40
28.0
  1
注）ご採用にあたり、認定書及び評定書の内容をご確認ください。
 41
0.75
  0
TEXT
  5
121AC3
  8
SLIM
 10
11824.6
 20
-1577.9999999999959
 30
0.0
 40
28.0
  1
※ 対応スラブ厚　150～260
 41
0.75
  0
TEXT
  5
121AC4
  8
SLIM
 10
11611.5
 20
-1671.3333333333289
 30
0.0
 40
28.0
  1
国土交通大臣認定・（財）日本消防設備安全センター性能評定取得品
 41
0.75
  0
TEXT
  5
121AC5
  8
SLIM
 10
11631.1
 20
-1717.9999999999959
 30
0.0
 40
28.0
  1
注）ご採用にあたり、認定書及び評定書の内容をご確認ください。
 41
0.75
  0
TEXT
  5
121AC6
  8
SLIM
 10
9824.6000000000004
 20
-1577.9999999999959
 30
0.0
 40
28.0
  1
※ 対応スラブ厚　180～260
 41
0.75
  0
TEXT
  5
121AC7
  8
SLIM
 10
9611.5000000000018
 20
-1671.3333333333289
 30
0.0
 40
28.0
  1
国土交通大臣認定・（財）日本消防設備安全センター性能評定取得品
 41
0.75
  0
TEXT
  5
121AC8
  8
SLIM
 10
9631.1000000000004
 20
-1717.9999999999959
 30
0.0
 40
28.0
  1
注）ご採用にあたり、認定書及び評定書の内容をご確認ください。
 41
0.75
  0
TEXT
  5
121AC9
  8
SLIM
 10
7771.3999999999987
 20
-1310.666666666664
 30
0.0
 40
28.0
  1
※ 対応スラブ厚　180｛150｝～220
 41
0.75
  0
TEXT
  5
121ACA
  8
SLIM
 10
7733.2999999999975
 20
-1357.333333333331
 30
0.0
 40
28.0
  1
｛｝内はカンペイ立て管との組み合わせの場合
 41
0.75
  0
TEXT
  5
121ACB
  8
SLIM
 10
7611.4999999999982
 20
-1450.666666666664
 30
0.0
 40
28.0
  1
国土交通大臣認定・（財）日本消防設備安全センター性能評定取得品
 41
0.75
  0
TEXT
  5
121ACC
  8
SLIM
 10
7631.1000000000004
 20
-1497.333333333331
 30
0.0
 40
28.0
  1
注）ご採用にあたり、認定書及び評定書の内容をご確認ください。
 41
0.75
  0
TEXT
  5
121ACD
  8
SLIM
 10
9739.1250000000018
 20
-1521.4999999999959
 30
0.0
 40
35.0
  1
両受けスタイル（W）＋シンドカット
 41
0.75
  0
TEXT
  5
121ACE
  8
SLIM
 10
11743.5
 20
-1521.4999999999959
 30
0.0
 40
35.0
  1
カンペイ君（WKP）＋シンドカット
 41
0.75
  0
TEXT
  5
121ACF
  8
SLIM
 10
7741.625
 20
-1247.499999999998
 30
0.0
 40
35.0
  1
片受けスタイル（S）＋シンドカット
 41
0.75
  0
TEXT
  5
121AD0
  8
SLIM
 10
5858.1250000000009
 20
-1562.4999999999991
 30
0.0
 40
35.0
  1
カンペイ君（WKP）
 41
0.75
  0
TEXT
  5
121AD1
  8
SLIM
 10
1856.25
 20
-1247.499999999998
 30
0.0
 40
35.0
  1
片受けスタイル（S）
 41
0.75
  0
TEXT
  5
121AD2
  8
SLIM
 10
0.0
 20
370.0
 30
0.0
 40
100.0
  1
4SL-0-WKP
 41
0.75
  0
VIEWPORT
  5
F6BA7
 67
     1
  8
0
 10
145.33033752441401
 20
101.8328354358673
 30
0.0
 40
334.0025019414623
 41
222.19657968139651
 68
     1
 69
     1
1001
ACAD
1000
MVIEW
1002
{
1070
    16
1010
0.0
1020
0.0
1030
0.0
1010
0.0
1020
0.0
1030
1.0
1040
0.0
1040
222.19657968139651
1040
145.33033752441401
1040
101.8328354358673
1040
50.0
1040
0.0
1040
0.0
1070
     0
1070
     0
1070
     1
1070
     1
1070
     0
1070
     0
1070
     0
1070
     0
1040
0.0
1040
0.0
1040
0.0
1040
10.0
1040
10.0
1040
10.0
1040
10.0
1070
     0
1002
{
1002
}
1002
}
  0
VIEWPORT
  5
F6BA9
 67
     1
  8
OBJECT
 10
145.3303314447403
 20
101.8328338861465
 30
0.0
 40
232.5285303115844
 41
162.93253421783439
 68
     2
 69
     2
1001
ACAD
1000
MVIEW
1002
{
1070
    16
1010
0.0
1020
0.0
1030
0.0
1010
0.0
1020
0.0
1030
1.0
1040
0.0
1040
25942.55904403147
1040
2377.604457077377
1040
-7591.5176687056619
1040
50.0
1040
0.0
1040
0.0
1070
     0
1070
   600
1070
     1
1070
     1
1070
     0
1070
     0
1070
     0
1070
     0
1040
0.0
1040
0.0
1040
0.0
1040
1.0
1040
1.0
1040
0.0
1040
0.0
1070
     0
1002
{
1002
}
1002
}
  0
ENDSEC
  0
EOF
