  0
SECTION
  2
HEADER
  9
$ACADVER
  1
AC1009
  9
$INSBASE
 10
0.0
 20
0.0
 30
0.0
  9
$EXTMIN
 10
0.0
 20
-3697.4999999999991
 30
0.0
  9
$EXTMAX
 10
12387.100000000009
 20
770.0
 30
0.0
  9
$LIMMIN
 10
0.0
 20
0.0
  9
$LIMMAX
 10
210.0
 20
297.0
  9
$ORTHOMODE
 70
     0
  9
$REGENMODE
 70
     1
  9
$FILLMODE
 70
     1
  9
$QTEXTMODE
 70
     0
  9
$MIRRTEXT
 70
     0
  9
$DRAGMODE
 70
     2
  9
$LTSCALE
 40
1.0
  9
$OSMODE
 70
   125
  9
$ATTMODE
 70
     1
  9
$TEXTSIZE
 40
81.786370573614533
  9
$TRACEWID
 40
0.05
  9
$TEXTSTYLE
  7
STANDARD
  9
$CLAYER
  8
OBJECT
  9
$CELTYPE
  6
BYLAYER
  9
$CECOLOR
 62
   256
  9
$DIMSCALE
 40
10.0
  9
$DIMASZ
 40
2.0
  9
$DIMEXO
 40
1.0
  9
$DIMDLI
 40
10.0
  9
$DIMRND
 40
0.0
  9
$DIMDLE
 40
0.0
  9
$DIMEXE
 40
1.0
  9
$DIMTP
 40
0.0
  9
$DIMTM
 40
0.0
  9
$DIMTXT
 40
3.2000000000000002
  9
$DIMCEN
 40
0.0
  9
$DIMTSZ
 40
0.0
  9
$DIMTOL
 70
     0
  9
$DIMLIM
 70
     0
  9
$DIMTIH
 70
     0
  9
$DIMTOH
 70
     0
  9
$DIMSE1
 70
     0
  9
$DIMSE2
 70
     0
  9
$DIMTAD
 70
     1
  9
$DIMZIN
 70
     8
  9
$DIMBLK
  1
OPEN30
  9
$DIMASO
 70
     1
  9
$DIMSHO
 70
     1
  9
$DIMPOST
  1

  9
$DIMAPOST
  1

  9
$DIMALT
 70
     0
  9
$DIMALTD
 70
     2
  9
$DIMALTF
 40
25.399999999999999
  9
$DIMLFAC
 40
1.0
  9
$DIMTOFL
 70
     1
  9
$DIMTVP
 40
0.0
  9
$DIMTIX
 70
     0
  9
$DIMSOXD
 70
     0
  9
$DIMSAH
 70
     0
  9
$DIMBLK1
  1

  9
$DIMBLK2
  1

  9
$DIMSTYLE
  2
S10
  9
$DIMCLRD
 70
   256
  9
$DIMCLRE
 70
   256
  9
$DIMCLRT
 70
   256
  9
$DIMTFAC
 40
1.0
  9
$DIMGAP
 40
0.9
  9
$LUNITS
 70
     2
  9
$LUPREC
 70
     2
  9
$SKETCHINC
 40
0.1
  9
$FILLETRAD
 40
0.0
  9
$AUNITS
 70
     0
  9
$AUPREC
 70
     2
  9
$MENU
  1
ACAD
  9
$ELEVATION
 40
0.0
  9
$PELEVATION
 40
0.0
  9
$THICKNESS
 40
0.0
  9
$LIMCHECK
 70
     0
  9
$BLIPMODE
 70
     0
  9
$CHAMFERA
 40
2.0
  9
$CHAMFERB
 40
2.0
  9
$SKPOLY
 70
     0
  9
$TDCREATE
 40
2453095.4929404748
  9
$TDUPDATE
 40
2456702.4069144912
  9
$TDINDWG
 40
18.631717210600002
  9
$TDUSRTIMER
 40
18.631715763900001
  9
$USRTIMER
 70
     1
  9
$ANGBASE
 50
0.0
  9
$ANGDIR
 70
     0
  9
$PDMODE
 70
    35
  9
$PDSIZE
 40
2.0
  9
$PLINEWID
 40
0.0
  9
$COORDS
 70
     1
  9
$SPLFRAME
 70
     0
  9
$SPLINETYPE
 70
     6
  9
$SPLINESEGS
 70
     8
  9
$ATTDIA
 70
     1
  9
$ATTREQ
 70
     1
  9
$HANDLING
 70
     1
  9
$HANDSEED
  5
1479D7
  9
$SURFTAB1
 70
     6
  9
$SURFTAB2
 70
     6
  9
$SURFTYPE
 70
     6
  9
$SURFU
 70
     6
  9
$SURFV
 70
     6
  9
$UCSNAME
  2

  9
$UCSORG
 10
0.0
 20
0.0
 30
0.0
  9
$UCSXDIR
 10
1.0
 20
0.0
 30
0.0
  9
$UCSYDIR
 10
0.0
 20
1.0
 30
0.0
  9
$PUCSNAME
  2

  9
$PUCSORG
 10
0.0
 20
0.0
 30
0.0
  9
$PUCSXDIR
 10
1.0
 20
0.0
 30
0.0
  9
$PUCSYDIR
 10
0.0
 20
1.0
 30
0.0
  9
$USERI1
 70
     0
  9
$USERI2
 70
     0
  9
$USERI3
 70
     0
  9
$USERI4
 70
     0
  9
$USERI5
 70
     0
  9
$USERR1
 40
0.0
  9
$USERR2
 40
0.0
  9
$USERR3
 40
0.0
  9
$USERR4
 40
0.0
  9
$USERR5
 40
0.0
  9
$WORLDVIEW
 70
     1
  9
$SHADEDGE
 70
     3
  9
$SHADEDIF
 70
    70
  9
$TILEMODE
 70
     1
  9
$MAXACTVP
 70
    64
  9
$PLIMCHECK
 70
     0
  9
$PEXTMIN
 10
29.066066288948051
 20
20.366566777229309
 30
0.0
  9
$PEXTMAX
 10
261.5945966005325
 20
183.29910099506381
 30
0.0
  9
$PLIMMIN
 10
-3.17498779296875
 20
-3.1749999523162842
  9
$PLIMMAX
 10
293.83566284179687
 20
206.8406708240509
  9
$UNITMODE
 70
     0
  9
$VISRETAIN
 70
     1
  9
$PLINEGEN
 70
     0
  9
$PSLTSCALE
 70
     1
  0
ENDSEC
  0
SECTION
  2
TABLES
  0
TABLE
  2
VPORT
 70
     1
  0
VPORT
  2
*ACTIVE
 70
     0
 10
0.0
 20
0.0
 11
1.0
 21
1.0
 12
8156.4123547147692
 22
-2701.0186980392941
 13
0.0
 23
0.0
 14
1.0
 24
1.0
 15
0.0
 25
0.0
 16
0.0
 26
0.0
 36
1.0
 17
0.0
 27
0.0
 37
0.0
 40
12896.0391885969
 41
1.964560862865947
 42
50.0
 43
0.0
 44
0.0
 50
0.0
 51
0.0
 71
     0
 72
   600
 73
     1
 74
     1
 75
     0
 76
     0
 77
     0
 78
     0
  0
ENDTAB
  0
TABLE
  2
LTYPE
 70
     3
  0
LTYPE
  2
CONTINUOUS
 70
     0
  3
Solid line
 72
    65
 73
     0
 40
0.0
  0
LTYPE
  2
ACAD_ISO08W100
 70
     0
  3
ISO long-dash short-dash ____ __ ____ __ ____ _
 72
    65
 73
     4
 40
36.0
 49
24.0
 49
-3.0
 49
6.0
 49
-3.0
  0
LTYPE
  2
ACAD_ISO02W100
 70
     0
  3
ISO dash __ __ __ __ __ __ __ __ __ __ __ __ __
 72
    65
 73
     2
 40
15.0
 49
12.0
 49
-3.0
  0
ENDTAB
  0
TABLE
  2
LAYER
 70
     8
  0
LAYER
  2
0
 70
     0
 62
     7
  6
CONTINUOUS
  0
LAYER
  2
OBJECT
 70
     0
 62
     4
  6
CONTINUOUS
  0
LAYER
  2
DEFPOINTS
 70
     0
 62
     7
  6
CONTINUOUS
  0
LAYER
  2
DIM
 70
     0
 62
     7
  6
CONTINUOUS
  0
LAYER
  2
HIDDEN
 70
     0
 62
     2
  6
ACAD_ISO02W100
  0
LAYER
  2
CENTER
 70
     0
 62
     2
  6
ACAD_ISO08W100
  0
LAYER
  2
DOTS
 70
     0
 62
     1
  6
CONTINUOUS
  0
LAYER
  2
SLIM
 70
     0
 62
     2
  6
CONTINUOUS
  0
ENDTAB
  0
TABLE
  2
STYLE
 70
     2
  0
STYLE
  2
STANDARD
 70
     0
 40
0.0
 41
0.75
 50
0.0
 71
     0
 42
81.786370573614533
  3
simplex.shx
  4
bigfont.shx
  0
ENDTAB
  0
TABLE
  2
VIEW
 70
     0
  0
ENDTAB
  0
TABLE
  2
UCS
 70
     0
  0
ENDTAB
  0
TABLE
  2
APPID
 70
    19
  0
APPID
  2
ACAD
 70
     0
  0
APPID
  2
ACADANNOTATIVE
 70
     0
  0
APPID
  2
ACAD_PSEXT
 70
     0
  0
APPID
  2
ACAD_EXEMPT_FROM_CAD_STANDARDS
 70
     0
  0
APPID
  2
ACAECLAYERSTANDARD
 70
     0
  0
APPID
  2
ACAUTHENVIRON
 70
     0
  0
APPID
  2
ACDBDYNAMICBLOCKTRUENAME
 70
     0
  0
APPID
  2
ACDBDYNAMICBLOCKGUID
 70
     0
  0
APPID
  2
ACDBBLOCKREPETAG
 70
     0
  0
APPID
  2
ACDBBLOCKREPBTAG
 70
     0
  0
APPID
  2
ACAD_NAV_VCDISPLAY
 70
     0
  0
APPID
  2
ACAD_DSTYLE_DIMRADIAL_EXTENSION
 70
     0
  0
APPID
  2
ACAD_DSTYLE_DIMJAG
 70
     0
  0
APPID
  2
ACAD_DSTYLE_DIMTALN
 70
     0
  0
APPID
  2
ACADANNOPO
 70
     0
  0
APPID
  2
GRADIENTCOLOR1ACI
 70
     0
  0
APPID
  2
GRADIENTCOLOR2ACI
 70
     0
  0
APPID
  2
ACADANNOMONITORALERTICONDI
 70
     0
  0
APPID
  2
ACAD_MLEADERVER
 70
     0
  0
ENDTAB
  0
TABLE
  2
DIMSTYLE
 70
     3
  0
DIMSTYLE
  2
STANDARD
 70
     0
  3

  4

  5

  6

  7

 40
1.0
 41
0.18
 42
0.0625
 43
0.38
 44
0.18
 45
0.0
 46
0.0
 47
0.0
 48
0.0
140
0.18
141
0.09
142
0.0
143
25.399999999999999
144
1.0
145
0.0
146
1.0
147
0.09
 71
     0
 72
     0
 73
     1
 74
     1
 75
     0
 76
     0
 77
     0
 78
     0
170
     0
171
     2
172
     0
173
     0
174
     0
175
     0
176
     0
177
     0
178
     0
  0
DIMSTYLE
  2
S10
 70
     0
  3

  4

  5

  6

  7

 40
10.0
 41
2.0
 42
1.0
 43
10.0
 44
1.0
 45
0.0
 46
0.0
 47
0.0
 48
0.0
140
3.2000000000000002
141
0.0
142
0.0
143
25.399999999999999
144
1.0
145
0.0
146
1.0
147
0.9
 71
     0
 72
     0
 73
     0
 74
     0
 75
     0
 76
     0
 77
     1
 78
     8
170
     0
171
     2
172
     1
173
     0
174
     0
175
     0
176
   256
177
   256
178
   256
  0
ENDTAB
  0
ENDSEC
  0
SECTION
  2
BLOCKS
  0
BLOCK
  8
0
  2
$MODEL_SPACE
 70
     0
 10
0.0
 20
0.0
 30
0.0
  3
$MODEL_SPACE
  1

  0
ENDBLK
  5
147129
  8
0
  0
BLOCK
 67
     1
  8
0
  2
$PAPER_SPACE
 70
     0
 10
0.0
 20
0.0
 30
0.0
  3
$PAPER_SPACE
  1

  0
ENDBLK
  5
147125
 67
     1
  8
0
  0
BLOCK
  8
0
  2
_OPEN30
 70
     0
 10
0.0
 20
0.0
 30
0.0
  3
_OPEN30
  1

  0
LINE
  5
202
  8
0
  6
BYBLOCK
 62
     0
 10
-1.0
 20
0.26794919
 30
0.0
 11
0.0
 21
0.0
 31
0.0
  0
LINE
  5
203
  8
0
  6
BYBLOCK
 62
     0
 10
0.0
 20
0.0
 30
0.0
 11
-1.0
 21
-0.26794919
 31
0.0
  0
LINE
  5
204
  8
0
  6
BYBLOCK
 62
     0
 10
0.0
 20
0.0
 30
0.0
 11
-1.0
 21
0.0
 31
0.0
  0
ENDBLK
  5
206
  8
0
  0
BLOCK
  8
0
  2
*U987
 70
     1
 10
0.0
 20
0.0
 30
0.0
  3
*U987
  1

  0
TEXT
  5
147037
  8
SLIM
 10
123.0000000006111
 20
-599.42857142856485
 30
0.0
 40
26.0
  1
75R
 50
90.0
  0
ENDBLK
  5
147039
  8
0
  0
BLOCK
  8
0
  2
*U988
 70
     1
 10
0.0
 20
0.0
 30
0.0
  3
*U988
  1

  0
TEXT
  5
14703B
  8
SLIM
 10
493.00000000069122
 20
-145.4285714285584
 30
0.0
 40
26.0
  1
65R
 50
90.0
  0
ENDBLK
  5
14703D
  8
0
  0
BLOCK
  8
0
  2
*U989
 70
     1
 10
0.0
 20
0.0
 30
0.0
  3
*U989
  1

  0
TEXT
  5
14703F
  8
SLIM
 10
133.00000000061121
 20
-145.4285714285584
 30
0.0
 40
26.0
  1
50R
 50
90.0
  0
ENDBLK
  5
147041
  8
0
  0
BLOCK
  8
0
  2
*U990
 70
     1
 10
0.0
 20
0.0
 30
0.0
  3
*U990
  1

  0
TEXT
  5
147052
  8
DIM
 10
2086.071428571428
 20
-2892.3165746124059
 30
0.0
 40
32.0
  1
E
 41
0.75
  0
ENDBLK
  5
147054
  8
0
  0
BLOCK
  8
0
  2
*U991
 70
     1
 10
0.0
 20
0.0
 30
0.0
  3
*U991
  1

  0
TEXT
  5
147056
  8
DIM
 10
2062.571428571428
 20
-2958.1223535003292
 30
0.0
 40
32.0
  1
F
 41
0.75
  0
ENDBLK
  5
147058
  8
0
  0
BLOCK
  8
0
  2
*U992
 70
     1
 10
0.0
 20
0.0
 30
0.0
  3
*U992
  1

  0
TEXT
  5
14705A
  8
DIM
 10
2253.6903592692688
 20
-3132.9999999999932
 30
0.0
 40
32.0
  1
D
 50
90.0
 41
0.75
  0
ENDBLK
  5
14705C
  8
0
  0
BLOCK
  8
0
  2
*U993
 70
     1
 10
0.0
 20
0.0
 30
0.0
  3
*U993
  1

  0
TEXT
  5
14705E
  8
DIM
 10
2243.6360868796769
 20
-3565.999999999995
 30
0.0
 40
32.0
  1
B
 50
90.0
 41
0.75
  0
ENDBLK
  5
147060
  8
0
  0
BLOCK
  8
0
  2
*U994
 70
     1
 10
0.0
 20
0.0
 30
0.0
  3
*U994
  1

  0
TEXT
  5
147062
  8
DIM
 10
2144.8571428571431
 20
-3028.4747578501879
 30
0.0
 40
32.0
  1
A
 41
0.75
  0
ENDBLK
  5
147064
  8
0
  0
ENDSEC
  0
SECTION
  2
ENTITIES
  0
LINE
  5
13A2FF
  8
SLIM
 10
2600.0
 20
-2734.9999999999959
 30
0.0
 11
2600.0
 21
-3204.9999999999959
 31
0.0
  0
LINE
  5
13A300
  8
SLIM
 10
2724.0
 20
-2734.9999999999959
 30
0.0
 11
2724.0
 21
-3204.9999999999959
 31
0.0
  0
LINE
  5
13A301
  8
SLIM
 10
2854.0
 20
-2794.9999999999959
 30
0.0
 11
2854.0
 21
-3204.9999999999959
 31
0.0
  0
LINE
  5
13A302
  8
SLIM
 10
2984.0
 20
-2794.9999999999959
 30
0.0
 11
2984.0
 21
-3204.9999999999959
 31
0.0
  0
LINE
  5
13A303
  8
SLIM
 10
3114.0
 20
-3204.9999999999959
 30
0.0
 11
3114.0
 21
-2794.9999999999959
 31
0.0
  0
LINE
  5
13A304
  8
SLIM
 10
3244.0
 20
-3204.9999999999959
 30
0.0
 11
3244.0
 21
-2734.9999999999959
 31
0.0
  0
LINE
  5
13A305
  8
SLIM
 10
3244.0
 20
-2734.9999999999959
 30
0.0
 11
2600.0
 21
-2734.9999999999959
 31
0.0
  0
LINE
  5
13A306
  8
SLIM
 10
3244.0
 20
-2794.9999999999959
 30
0.0
 11
2724.0
 21
-2794.9999999999959
 31
0.0
  0
LINE
  5
13A307
  8
SLIM
 10
3244.0
 20
-2854.999999999995
 30
0.0
 11
2600.0
 21
-2854.999999999995
 31
0.0
  0
LINE
  5
13A308
  8
SLIM
 10
3244.0
 20
-2924.999999999995
 30
0.0
 11
2600.0
 21
-2924.999999999995
 31
0.0
  0
LINE
  5
13A30A
  8
SLIM
 10
3244.0
 20
-2994.9999999999959
 30
0.0
 11
2600.0
 21
-2994.9999999999959
 31
0.0
  0
LINE
  5
13A31F
  8
SLIM
 10
2724.0
 20
-2854.999999999995
 30
0.0
 11
2599.9999722746579
 21
-2734.9999839527259
 31
0.0
  0
LINE
  5
13A320
  8
SLIM
 10
3244.0
 20
-3064.9999999999959
 30
0.0
 11
2600.0
 21
-3064.9999999999959
 31
0.0
  0
LINE
  5
13A325
  8
SLIM
 10
3244.0
 20
-3134.9999999999959
 30
0.0
 11
2600.0
 21
-3134.9999999999959
 31
0.0
  0
LINE
  5
13A32A
  8
SLIM
 10
3244.0
 20
-3204.9999999999959
 30
0.0
 11
2600.0
 21
-3204.9999999999959
 31
0.0
  0
LINE
  5
13A32F
  8
SLIM
 10
3244.0
 20
-3064.9999999999959
 30
0.0
 11
3114.0
 21
-2994.9999999999959
 31
0.0
  0
LINE
  5
13A330
  8
SLIM
 10
3244.0
 20
-3134.9999999999959
 30
0.0
 11
3114.0
 21
-3064.9999999999959
 31
0.0
  0
LINE
  5
13A331
  8
SLIM
 10
3244.0
 20
-3204.9999999999959
 30
0.0
 11
3114.0
 21
-3134.9999999999959
 31
0.0
  0
LINE
  5
13A34E
  8
OBJECT
 10
2877.0
 20
-3395.9999999999968
 30
0.0
 11
2877.0
 21
-3374.9999999999959
 31
0.0
1001
ACDBBLOCKREPETAG
1070
     1
1071
        0
1005
13A34E
  0
LINE
  5
13A34F
  8
OBJECT
 10
2877.0
 20
-3374.9999999999959
 30
0.0
 11
2723.0
 21
-3374.9999999999959
 31
0.0
1001
ACDBBLOCKREPETAG
1070
     1
1071
        1
1005
13A34F
  0
LINE
  5
13A350
  8
HIDDEN
 10
2857.0
 20
-3444.9999999999968
 30
0.0
 11
2743.0
 21
-3444.9999999999968
 31
0.0
1001
ACDBBLOCKREPETAG
1070
     1
1071
        2
1005
13A350
  0
LINE
  5
13A351
  8
OBJECT
 10
2723.0
 20
-3374.9999999999959
 30
0.0
 11
2723.0
 21
-3395.9999999999968
 31
0.0
1001
ACDBBLOCKREPETAG
1070
     1
1071
        3
1005
13A351
  0
LINE
  5
13A352
  8
OBJECT
 10
2723.0
 20
-3395.9999999999968
 30
0.0
 11
2877.0
 21
-3395.9999999999968
 31
0.0
1001
ACDBBLOCKREPETAG
1070
     1
1071
        4
1005
13A352
  0
LINE
  5
13A353
  8
CENTER
 10
2800.0
 20
-3359.9999999999968
 30
0.0
 11
2800.0
 21
-3594.9999999999968
 31
0.0
1001
ACDBBLOCKREPETAG
1070
     1
1071
        5
1005
13A353
  0
LINE
  5
13A354
  8
OBJECT
 10
2875.0
 20
-3458.9999999999968
 30
0.0
 11
2875.0
 21
-3582.9999999999968
 31
0.0
1001
ACDBBLOCKREPETAG
1070
     1
1071
        6
1005
13A354
  0
LINE
  5
13A355
  8
OBJECT
 10
2872.0
 20
-3395.9999999999968
 30
0.0
 11
2872.0
 21
-3458.9999999999968
 31
0.0
1001
ACDBBLOCKREPETAG
1070
     1
1071
        7
1005
13A355
  0
LINE
  5
13A356
  8
OBJECT
 10
2728.0
 20
-3458.9999999999968
 30
0.0
 11
2728.0
 21
-3395.9999999999968
 31
0.0
1001
ACDBBLOCKREPETAG
1070
     1
1071
        8
1005
13A356
  0
LINE
  5
13A357
  8
OBJECT
 10
2725.0000000002001
 20
-3582.9999999997749
 30
0.0
 11
2720.0
 21
-3582.9999999999968
 31
0.0
1001
ACDBBLOCKREPETAG
1070
     1
1071
        9
1005
13A357
  0
LINE
  5
13A358
  8
OBJECT
 10
2720.0
 20
-3458.9999999999968
 30
0.0
 11
2875.0
 21
-3458.9999999999968
 31
0.0
1001
ACDBBLOCKREPETAG
1070
     1
1071
       10
1005
13A358
  0
ARC
  5
13A359
  8
OBJECT
 10
2599.3127253283269
 20
-3574.4080994101041
 30
0.0
 40
170.6350503965856
 50
30.080504186640059
 51
42.558655408156817
1001
ACDBBLOCKREPETAG
1070
     1
1071
       15
1005
13A359
  0
ARC
  5
13A35A
  8
OBJECT
 10
2681.1544012959489
 20
-3530.8827266953631
 30
0.0
 40
78.072222021763665
 50
15.336340022811919
 51
32.544846896196411
1001
ACDBBLOCKREPETAG
1070
     1
1071
       16
1005
13A35A
  0
ARC
  5
13A35B
  8
OBJECT
 10
2714.2445650391269
 20
-3520.9999999999968
 30
0.0
 40
43.55353926885617
 50
345.6884523008485
 51
14.31154769915158
1001
ACDBBLOCKREPETAG
1070
     1
1071
       17
1005
13A35B
  0
ARC
  5
13A35C
  8
OBJECT
 10
2599.3127253283269
 20
-3467.5919005898882
 30
0.0
 40
170.6350503965856
 50
317.44134459184318
 51
329.9194958133599
1001
ACDBBLOCKREPETAG
1070
     1
1071
       18
1005
13A35C
  0
ARC
  5
13A35D
  8
OBJECT
 10
2681.1544012959489
 20
-3511.1172733046319
 30
0.0
 40
78.072222021763665
 50
327.45515310380358
 51
344.66365997718799
1001
ACDBBLOCKREPETAG
1070
     1
1071
       19
1005
13A35D
  0
POINT
  5
13A35E
  8
DOTS
 10
2800.0
 20
-3579.9999999999959
 30
0.0
 50
180.0
1001
ACDBBLOCKREPETAG
1070
     1
1071
      186
1005
13A35E
  0
LINE
  5
13A360
  8
OBJECT
 10
1825.0
 20
-3579.9999999999959
 30
0.0
 11
5975.0
 21
-3579.9999999999959
 31
0.0
  0
LINE
  5
13A37D
  8
OBJECT
 10
4377.0
 20
-3395.9999999999968
 30
0.0
 11
4377.0
 21
-3374.9999999999959
 31
0.0
1001
ACDBBLOCKREPETAG
1070
     1
1071
        0
1005
13A34E
  0
LINE
  5
13A37E
  8
OBJECT
 10
4377.0
 20
-3374.9999999999959
 30
0.0
 11
4223.0
 21
-3374.9999999999959
 31
0.0
1001
ACDBBLOCKREPETAG
1070
     1
1071
        1
1005
13A34F
  0
LINE
  5
13A37F
  8
HIDDEN
 10
4357.0
 20
-3444.9999999999968
 30
0.0
 11
4243.0
 21
-3444.9999999999968
 31
0.0
1001
ACDBBLOCKREPETAG
1070
     1
1071
        2
1005
13A350
  0
LINE
  5
13A380
  8
OBJECT
 10
4223.0
 20
-3374.9999999999959
 30
0.0
 11
4223.0
 21
-3395.9999999999968
 31
0.0
1001
ACDBBLOCKREPETAG
1070
     1
1071
        3
1005
13A351
  0
LINE
  5
13A381
  8
OBJECT
 10
4223.0
 20
-3395.9999999999968
 30
0.0
 11
4377.0
 21
-3395.9999999999968
 31
0.0
1001
ACDBBLOCKREPETAG
1070
     1
1071
        4
1005
13A352
  0
LINE
  5
13A382
  8
CENTER
 10
4300.0
 20
-3359.9999999999968
 30
0.0
 11
4300.0
 21
-3594.9999999999968
 31
0.0
1001
ACDBBLOCKREPETAG
1070
     1
1071
        5
1005
13A353
  0
LINE
  5
13A383
  8
OBJECT
 10
4375.0
 20
-3458.9999999999968
 30
0.0
 11
4375.0
 21
-3582.9999999999968
 31
0.0
1001
ACDBBLOCKREPETAG
1070
     1
1071
        6
1005
13A354
  0
LINE
  5
13A384
  8
OBJECT
 10
4372.0
 20
-3395.9999999999968
 30
0.0
 11
4372.0
 21
-3458.9999999999968
 31
0.0
1001
ACDBBLOCKREPETAG
1070
     1
1071
        7
1005
13A355
  0
LINE
  5
13A385
  8
OBJECT
 10
4228.0
 20
-3458.9999999999968
 30
0.0
 11
4228.0
 21
-3395.9999999999968
 31
0.0
1001
ACDBBLOCKREPETAG
1070
     1
1071
        8
1005
13A356
  0
LINE
  5
13A386
  8
OBJECT
 10
4225.0000000002001
 20
-3582.9999999997749
 30
0.0
 11
4220.0
 21
-3582.9999999999968
 31
0.0
1001
ACDBBLOCKREPETAG
1070
     1
1071
        9
1005
13A357
  0
LINE
  5
13A387
  8
OBJECT
 10
4220.0
 20
-3458.9999999999968
 30
0.0
 11
4375.0
 21
-3458.9999999999968
 31
0.0
1001
ACDBBLOCKREPETAG
1070
     1
1071
       10
1005
13A358
  0
ARC
  5
13A388
  8
OBJECT
 10
4099.3127253283283
 20
-3574.4080994101041
 30
0.0
 40
170.6350503965856
 50
30.080504186640059
 51
42.558655408156817
1001
ACDBBLOCKREPETAG
1070
     1
1071
       15
1005
13A359
  0
ARC
  5
13A389
  8
OBJECT
 10
4181.1544012959494
 20
-3530.8827266953631
 30
0.0
 40
78.072222021763665
 50
15.336340022811919
 51
32.544846896196411
1001
ACDBBLOCKREPETAG
1070
     1
1071
       16
1005
13A35A
  0
ARC
  5
13A38A
  8
OBJECT
 10
4214.2445650391273
 20
-3520.9999999999968
 30
0.0
 40
43.55353926885617
 50
345.6884523008485
 51
14.31154769915158
1001
ACDBBLOCKREPETAG
1070
     1
1071
       17
1005
13A35B
  0
ARC
  5
13A38B
  8
OBJECT
 10
4099.3127253283283
 20
-3467.5919005898882
 30
0.0
 40
170.6350503965856
 50
317.44134459184318
 51
329.9194958133599
1001
ACDBBLOCKREPETAG
1070
     1
1071
       18
1005
13A35C
  0
ARC
  5
13A38C
  8
OBJECT
 10
4181.1544012959494
 20
-3511.1172733046319
 30
0.0
 40
78.072222021763665
 50
327.45515310380358
 51
344.66365997718799
1001
ACDBBLOCKREPETAG
1070
     1
1071
       19
1005
13A35D
  0
POINT
  5
13A38D
  8
DOTS
 10
4300.0
 20
-3579.9999999999959
 30
0.0
 50
180.0
1001
ACDBBLOCKREPETAG
1070
     1
1071
      186
1005
13A35E
  0
LINE
  5
13A3B2
  8
OBJECT
 10
5877.0
 20
-3395.9999999999968
 30
0.0
 11
5877.0
 21
-3374.9999999999959
 31
0.0
1001
ACDBBLOCKREPETAG
1070
     1
1071
        0
1005
13A34E
  0
LINE
  5
13A3B3
  8
OBJECT
 10
5877.0
 20
-3374.9999999999959
 30
0.0
 11
5723.0
 21
-3374.9999999999959
 31
0.0
1001
ACDBBLOCKREPETAG
1070
     1
1071
        1
1005
13A34F
  0
LINE
  5
13A3B4
  8
HIDDEN
 10
5857.0
 20
-3444.9999999999968
 30
0.0
 11
5743.0
 21
-3444.9999999999968
 31
0.0
1001
ACDBBLOCKREPETAG
1070
     1
1071
        2
1005
13A350
  0
LINE
  5
13A3B5
  8
OBJECT
 10
5723.0
 20
-3374.9999999999959
 30
0.0
 11
5723.0
 21
-3395.9999999999968
 31
0.0
1001
ACDBBLOCKREPETAG
1070
     1
1071
        3
1005
13A351
  0
LINE
  5
13A3B6
  8
OBJECT
 10
5723.0
 20
-3395.9999999999968
 30
0.0
 11
5877.0
 21
-3395.9999999999968
 31
0.0
1001
ACDBBLOCKREPETAG
1070
     1
1071
        4
1005
13A352
  0
LINE
  5
13A3B7
  8
CENTER
 10
5800.0
 20
-3359.9999999999968
 30
0.0
 11
5800.0
 21
-3594.9999999999968
 31
0.0
1001
ACDBBLOCKREPETAG
1070
     1
1071
        5
1005
13A353
  0
LINE
  5
13A3B8
  8
OBJECT
 10
5875.0
 20
-3458.9999999999968
 30
0.0
 11
5875.0
 21
-3582.9999999999968
 31
0.0
1001
ACDBBLOCKREPETAG
1070
     1
1071
        6
1005
13A354
  0
LINE
  5
13A3B9
  8
OBJECT
 10
5872.0
 20
-3395.9999999999968
 30
0.0
 11
5872.0
 21
-3458.9999999999968
 31
0.0
1001
ACDBBLOCKREPETAG
1070
     1
1071
        7
1005
13A355
  0
LINE
  5
13A3BA
  8
OBJECT
 10
5728.0
 20
-3458.9999999999968
 30
0.0
 11
5728.0
 21
-3395.9999999999968
 31
0.0
1001
ACDBBLOCKREPETAG
1070
     1
1071
        8
1005
13A356
  0
LINE
  5
13A3BB
  8
OBJECT
 10
5725.0000000002001
 20
-3582.9999999997749
 30
0.0
 11
5720.0
 21
-3582.9999999999968
 31
0.0
1001
ACDBBLOCKREPETAG
1070
     1
1071
        9
1005
13A357
  0
LINE
  5
13A3BC
  8
OBJECT
 10
5720.0
 20
-3458.9999999999968
 30
0.0
 11
5875.0
 21
-3458.9999999999968
 31
0.0
1001
ACDBBLOCKREPETAG
1070
     1
1071
       10
1005
13A358
  0
ARC
  5
13A3BD
  8
OBJECT
 10
5599.3127253283283
 20
-3574.4080994101041
 30
0.0
 40
170.6350503965856
 50
30.080504186640059
 51
42.558655408156817
1001
ACDBBLOCKREPETAG
1070
     1
1071
       15
1005
13A359
  0
ARC
  5
13A3BE
  8
OBJECT
 10
5681.1544012959484
 20
-3530.8827266953631
 30
0.0
 40
78.072222021763665
 50
15.336340022811919
 51
32.544846896196411
1001
ACDBBLOCKREPETAG
1070
     1
1071
       16
1005
13A35A
  0
ARC
  5
13A3BF
  8
OBJECT
 10
5714.2445650391273
 20
-3520.9999999999968
 30
0.0
 40
43.55353926885617
 50
345.6884523008485
 51
14.31154769915158
1001
ACDBBLOCKREPETAG
1070
     1
1071
       17
1005
13A35B
  0
ARC
  5
13A3C0
  8
OBJECT
 10
5599.3127253283283
 20
-3467.5919005898882
 30
0.0
 40
170.6350503965856
 50
317.44134459184318
 51
329.9194958133599
1001
ACDBBLOCKREPETAG
1070
     1
1071
       18
1005
13A35C
  0
ARC
  5
13A3C1
  8
OBJECT
 10
5681.1544012959484
 20
-3511.1172733046319
 30
0.0
 40
78.072222021763665
 50
327.45515310380358
 51
344.66365997718799
1001
ACDBBLOCKREPETAG
1070
     1
1071
       19
1005
13A35D
  0
POINT
  5
13A3C2
  8
DOTS
 10
5800.0
 20
-3579.9999999999959
 30
0.0
 50
180.0
1001
ACDBBLOCKREPETAG
1070
     1
1071
      186
1005
13A35E
  0
ARC
  5
13A3D2
  8
OBJECT
 10
2400.0
 20
-3520.9999999999968
 30
0.0
 40
62.0
 50
26.25661040972242
 51
308.53221085462093
1001
ACDBBLOCKREPETAG
1070
     1
1071
      170
1005
13A3D2
  0
LINE
  5
13A3D3
  8
CENTER
 10
2515.0
 20
-3535.9999999999959
 30
0.0
 11
2351.4999963633609
 21
-3535.9999999999959
 31
0.0
1001
ACDBBLOCKREPETAG
1070
     1
1071
      171
1005
13A3D3
  0
LINE
  5
13A3D4
  8
OBJECT
 10
2493.0
 20
-3488.9999999999968
 30
0.0
 11
2500.0
 21
-3488.9999999999968
 31
0.0
1001
ACDBBLOCKREPETAG
1070
     1
1071
      172
1005
13A3D4
  0
LINE
  5
13A3D5
  8
OBJECT
 10
2500.0
 20
-3488.9999999999968
 30
0.0
 11
2500.0
 21
-3579.9999999999959
 31
0.0
1001
ACDBBLOCKREPETAG
1070
     1
1071
      173
1005
13A3D5
  0
LINE
  5
13A3D6
  8
OBJECT
 10
2493.0
 20
-3579.9999999999959
 30
0.0
 11
2493.0
 21
-3488.9999999999968
 31
0.0
1001
ACDBBLOCKREPETAG
1070
     1
1071
      175
1005
13A3D6
  0
LINE
  5
13A3D7
  8
OBJECT
 10
2493.0
 20
-3491.9999999999968
 30
0.0
 11
2457.0
 21
-3491.9999999999968
 31
0.0
1001
ACDBBLOCKREPETAG
1070
     1
1071
      176
1005
13A3D7
  0
LINE
  5
13A3D8
  8
OBJECT
 10
2457.0
 20
-3491.9999999999968
 30
0.0
 11
2457.0
 21
-3579.9999999999959
 31
0.0
1001
ACDBBLOCKREPETAG
1070
     1
1071
      177
1005
13A3D8
  0
LINE
  5
13A3D9
  8
OBJECT
 10
2453.0
 20
-3496.4999999999968
 30
0.0
 11
2440.0
 21
-3496.4999999999968
 31
0.0
1001
ACDBBLOCKREPETAG
1070
     1
1071
      178
1005
13A3D9
  0
LINE
  5
13A3DA
  8
OBJECT
 10
2457.0
 20
-3579.9999999999959
 30
0.0
 11
2500.0
 21
-3579.9999999999959
 31
0.0
1001
ACDBBLOCKREPETAG
1070
     1
1071
      179
1005
13A3DA
  0
LINE
  5
13A3DB
  8
OBJECT
 10
2440.0
 20
-3575.4999999999968
 30
0.0
 11
2453.0
 21
-3575.4999999999968
 31
0.0
1001
ACDBBLOCKREPETAG
1070
     1
1071
      180
1005
13A3DB
  0
LINE
  5
13A3DC
  8
OBJECT
 10
2453.0
 20
-3575.4999999999968
 30
0.0
 11
2453.0
 21
-3496.4999999999968
 31
0.0
1001
ACDBBLOCKREPETAG
1070
     1
1071
      181
1005
13A3DC
  0
LINE
  5
13A3DD
  8
OBJECT
 10
2457.0
 20
-3491.9999999999968
 30
0.0
 11
2453.0
 21
-3496.4999999999968
 31
0.0
1001
ACDBBLOCKREPETAG
1070
     1
1071
      182
1005
13A3DD
  0
LINE
  5
13A3DE
  8
HIDDEN
 10
2448.0
 20
-3505.9999999999968
 30
0.0
 11
2448.0
 21
-3565.9999999999959
 31
0.0
1001
ACDBBLOCKREPETAG
1070
     1
1071
      183
1005
13A3DE
  0
LINE
  5
13A3DF
  8
OBJECT
 10
2457.0
 20
-3579.9999999999959
 30
0.0
 11
2453.0
 21
-3575.4999999999968
 31
0.0
1001
ACDBBLOCKREPETAG
1070
     1
1071
      184
1005
13A3DF
  0
LINE
  5
13A3E0
  8
OBJECT
 10
2439.9999643839842
 20
-3502.4999999999959
 30
0.0
 11
2399.99999636336
 21
-3502.4999999999959
 31
0.0
1001
ACDBBLOCKREPETAG
1070
     1
1071
      185
1005
13A3E0
  0
LINE
  5
13A3E1
  8
OBJECT
 10
2439.9999643839842
 20
-3575.500000470583
 30
0.0
 11
2439.9999643839842
 21
-3496.5000004705848
 31
0.0
1001
ACDBBLOCKREPETAG
1070
     1
1071
      186
1005
13A3E1
  0
LINE
  5
13A3E2
  8
OBJECT
 10
2439.9999643839842
 20
-3569.4999999999968
 30
0.0
 11
2399.99999636336
 21
-3569.4999999999968
 31
0.0
1001
ACDBBLOCKREPETAG
1070
     1
1071
      187
1005
13A3E2
  0
ARC
  5
13A3E3
  8
OBJECT
 10
2399.99999636336
 20
-3535.9999999999959
 30
0.0
 40
33.5
 50
90.0
 51
270.0
1001
ACDBBLOCKREPETAG
1070
     1
1071
      188
1005
13A3E3
  0
LINE
  5
13A3E4
  8
OBJECT
 10
2323.0
 20
-3395.9999999999968
 30
0.0
 11
2323.0
 21
-3374.9999999999959
 31
0.0
1001
ACDBBLOCKREPETAG
1070
     1
1071
       20
1005
13A3E4
  0
LINE
  5
13A3E5
  8
OBJECT
 10
2323.0
 20
-3374.9999999999959
 30
0.0
 11
2477.0
 21
-3374.9999999999959
 31
0.0
1001
ACDBBLOCKREPETAG
1070
     1
1071
       21
1005
13A3E5
  0
LINE
  5
13A3E6
  8
HIDDEN
 10
2343.0
 20
-3444.9999999999968
 30
0.0
 11
2457.0
 21
-3444.9999999999968
 31
0.0
1001
ACDBBLOCKREPETAG
1070
     1
1071
       22
1005
13A3E6
  0
LINE
  5
13A3E7
  8
OBJECT
 10
2477.0
 20
-3374.9999999999959
 30
0.0
 11
2477.0
 21
-3395.9999999999968
 31
0.0
1001
ACDBBLOCKREPETAG
1070
     1
1071
       23
1005
13A3E7
  0
LINE
  5
13A3E8
  8
OBJECT
 10
2477.0
 20
-3395.9999999999968
 30
0.0
 11
2323.0
 21
-3395.9999999999968
 31
0.0
1001
ACDBBLOCKREPETAG
1070
     1
1071
       24
1005
13A3E8
  0
LINE
  5
13A3E9
  8
CENTER
 10
2400.0
 20
-3359.9999999999968
 30
0.0
 11
2400.0
 21
-3594.9999999999968
 31
0.0
1001
ACDBBLOCKREPETAG
1070
     1
1071
       25
1005
13A3E9
  0
LINE
  5
13A3EA
  8
OBJECT
 10
2325.0
 20
-3458.9999999999968
 30
0.0
 11
2325.0
 21
-3582.9999999999968
 31
0.0
1001
ACDBBLOCKREPETAG
1070
     1
1071
       26
1005
13A3EA
  0
LINE
  5
13A3EB
  8
OBJECT
 10
2328.0
 20
-3395.9999999999968
 30
0.0
 11
2328.0
 21
-3458.9999999999968
 31
0.0
1001
ACDBBLOCKREPETAG
1070
     1
1071
       27
1005
13A3EB
  0
LINE
  5
13A3EC
  8
OBJECT
 10
2472.0
 20
-3458.9999999999968
 30
0.0
 11
2472.0
 21
-3395.9999999999968
 31
0.0
1001
ACDBBLOCKREPETAG
1070
     1
1071
       28
1005
13A3EC
  0
LINE
  5
13A3ED
  8
OBJECT
 10
2475.0
 20
-3458.9999999999968
 30
0.0
 11
2325.0
 21
-3458.9999999999968
 31
0.0
1001
ACDBBLOCKREPETAG
1070
     1
1071
       30
1005
13A3ED
  0
LINE
  5
13A3EE
  8
OBJECT
 10
2475.0
 20
-3458.9999999999968
 30
0.0
 11
2475.0
 21
-3491.9999999999968
 31
0.0
1001
ACDBBLOCKREPETAG
1070
     1
1071
       34
1005
13A3EE
  0
LINE
  5
13A3EF
  8
OBJECT
 10
2475.0
 20
-3579.9999999999959
 30
0.0
 11
2475.0
 21
-3582.9999999999968
 31
0.0
1001
ACDBBLOCKREPETAG
1070
     1
1071
       34
1005
13A3EE
  0
POINT
  5
13A3F0
  8
DOTS
 10
2400.0
 20
-3579.9999999999959
 30
0.0
1001
ACDBBLOCKREPETAG
1070
     1
1071
      187
1005
13A3F0
  0
ARC
  5
13A3F1
  8
OBJECT
 10
3900.0
 20
-3520.9999999999968
 30
0.0
 40
62.0
 50
40.785257713808782
 51
309.26802600181918
1001
ACDBBLOCKREPETAG
1070
     1
1071
      189
1005
13A3F1
  0
LINE
  5
13A3F2
  8
CENTER
 10
4015.0
 20
-3527.9999999999968
 30
0.0
 11
3844.0
 21
-3527.9999999999968
 31
0.0
1001
ACDBBLOCKREPETAG
1070
     1
1071
      190
1005
13A3F2
  0
LINE
  5
13A3F3
  8
OBJECT
 10
3993.0
 20
-3472.9999999999959
 30
0.0
 11
4000.0
 21
-3472.9999999999959
 31
0.0
1001
ACDBBLOCKREPETAG
1070
     1
1071
      192
1005
13A3F3
  0
LINE
  5
13A3F4
  8
OBJECT
 10
4000.0
 20
-3472.9999999999959
 30
0.0
 11
4000.0
 21
-3579.9999999999959
 31
0.0
1001
ACDBBLOCKREPETAG
1070
     1
1071
      193
1005
13A3F4
  0
LINE
  5
13A3F5
  8
OBJECT
 10
3993.0
 20
-3579.9999999999959
 30
0.0
 11
3993.0
 21
-3472.9999999999959
 31
0.0
1001
ACDBBLOCKREPETAG
1070
     1
1071
      194
1005
13A3F5
  0
LINE
  5
13A3F6
  8
OBJECT
 10
3993.0
 20
-3475.9999999999959
 30
0.0
 11
3957.0
 21
-3475.9999999999959
 31
0.0
1001
ACDBBLOCKREPETAG
1070
     1
1071
      195
1005
13A3F6
  0
LINE
  5
13A3F7
  8
OBJECT
 10
3957.0
 20
-3475.9999999999959
 30
0.0
 11
3957.0
 21
-3579.9999999999959
 31
0.0
1001
ACDBBLOCKREPETAG
1070
     1
1071
      196
1005
13A3F7
  0
LINE
  5
13A3F8
  8
OBJECT
 10
3957.0
 20
-3579.9999999999959
 30
0.0
 11
4000.0
 21
-3579.9999999999959
 31
0.0
1001
ACDBBLOCKREPETAG
1070
     1
1071
      197
1005
13A3F8
  0
LINE
  5
13A3F9
  8
OBJECT
 10
3953.0
 20
-3480.4999999999968
 30
0.0
 11
3940.0
 21
-3480.4999999999968
 31
0.0
1001
ACDBBLOCKREPETAG
1070
     1
1071
      198
1005
13A3F9
  0
LINE
  5
13A3FA
  8
OBJECT
 10
3940.0
 20
-3575.4999999999968
 30
0.0
 11
3953.0
 21
-3575.4999999999968
 31
0.0
1001
ACDBBLOCKREPETAG
1070
     1
1071
      199
1005
13A3FA
  0
LINE
  5
13A3FB
  8
OBJECT
 10
3953.0
 20
-3575.4999999999968
 30
0.0
 11
3953.0
 21
-3480.4999999999968
 31
0.0
1001
ACDBBLOCKREPETAG
1070
     1
1071
      200
1005
13A3FB
  0
LINE
  5
13A3FC
  8
OBJECT
 10
3957.0
 20
-3475.9999999999959
 30
0.0
 11
3953.0
 21
-3480.4999999999968
 31
0.0
1001
ACDBBLOCKREPETAG
1070
     1
1071
      201
1005
13A3FC
  0
LINE
  5
13A3FD
  8
OBJECT
 10
3957.0
 20
-3579.9999999999959
 30
0.0
 11
3953.0
 21
-3575.4999999999968
 31
0.0
1001
ACDBBLOCKREPETAG
1070
     1
1071
      202
1005
13A3FD
  0
LINE
  5
13A3FE
  8
HIDDEN
 10
3948.0
 20
-3489.9999999999968
 30
0.0
 11
3948.0
 21
-3565.9999999999959
 31
0.0
1001
ACDBBLOCKREPETAG
1070
     1
1071
      203
1005
13A3FE
  0
LINE
  5
13A3FF
  8
OBJECT
 10
3940.0000531940932
 20
-3568.9999999999959
 30
0.0
 11
3900.0
 21
-3568.9999999999959
 31
0.0
1001
ACDBBLOCKREPETAG
1070
     1
1071
      204
1005
13A3FF
  0
LINE
  5
13A400
  8
OBJECT
 10
3940.0000531940968
 20
-3486.9999999999959
 30
0.0
 11
3900.0
 21
-3486.9999999999959
 31
0.0
1001
ACDBBLOCKREPETAG
1070
     1
1071
      205
1005
13A400
  0
LINE
  5
13A401
  8
OBJECT
 10
3940.0000531940968
 20
-3575.4999991052468
 30
0.0
 11
3940.0000531940968
 21
-3480.4999991052459
 31
0.0
1001
ACDBBLOCKREPETAG
1070
     1
1071
      206
1005
13A401
  0
ARC
  5
13A402
  8
OBJECT
 10
3900.0
 20
-3527.9999999999968
 30
0.0
 40
41.000000000000909
 50
90.0
 51
270.0
1001
ACDBBLOCKREPETAG
1070
     1
1071
      207
1005
13A402
  0
LINE
  5
13A403
  8
OBJECT
 10
3823.0
 20
-3395.9999999999968
 30
0.0
 11
3823.0
 21
-3374.9999999999959
 31
0.0
1001
ACDBBLOCKREPETAG
1070
     1
1071
       20
1005
13A403
  0
LINE
  5
13A404
  8
OBJECT
 10
3823.0
 20
-3374.9999999999959
 30
0.0
 11
3977.0
 21
-3374.9999999999959
 31
0.0
1001
ACDBBLOCKREPETAG
1070
     1
1071
       21
1005
13A404
  0
LINE
  5
13A405
  8
HIDDEN
 10
3843.0
 20
-3444.9999999999968
 30
0.0
 11
3957.0
 21
-3444.9999999999968
 31
0.0
1001
ACDBBLOCKREPETAG
1070
     1
1071
       22
1005
13A405
  0
LINE
  5
13A406
  8
OBJECT
 10
3977.0
 20
-3374.9999999999959
 30
0.0
 11
3977.0
 21
-3395.9999999999968
 31
0.0
1001
ACDBBLOCKREPETAG
1070
     1
1071
       23
1005
13A406
  0
LINE
  5
13A407
  8
OBJECT
 10
3977.0
 20
-3395.9999999999968
 30
0.0
 11
3823.0
 21
-3395.9999999999968
 31
0.0
1001
ACDBBLOCKREPETAG
1070
     1
1071
       24
1005
13A407
  0
LINE
  5
13A408
  8
CENTER
 10
3900.0
 20
-3359.9999999999968
 30
0.0
 11
3900.0
 21
-3594.9999999999968
 31
0.0
1001
ACDBBLOCKREPETAG
1070
     1
1071
       25
1005
13A408
  0
LINE
  5
13A409
  8
OBJECT
 10
3825.0
 20
-3458.9999999999968
 30
0.0
 11
3825.0
 21
-3582.9999999999968
 31
0.0
1001
ACDBBLOCKREPETAG
1070
     1
1071
       26
1005
13A409
  0
LINE
  5
13A40A
  8
OBJECT
 10
3828.0
 20
-3395.9999999999968
 30
0.0
 11
3828.0
 21
-3458.9999999999968
 31
0.0
1001
ACDBBLOCKREPETAG
1070
     1
1071
       27
1005
13A40A
  0
LINE
  5
13A40B
  8
OBJECT
 10
3972.0
 20
-3458.9999999999968
 30
0.0
 11
3972.0
 21
-3395.9999999999968
 31
0.0
1001
ACDBBLOCKREPETAG
1070
     1
1071
       28
1005
13A40B
  0
LINE
  5
13A40C
  8
OBJECT
 10
3975.0
 20
-3458.9999999999968
 30
0.0
 11
3825.0
 21
-3458.9999999999968
 31
0.0
1001
ACDBBLOCKREPETAG
1070
     1
1071
       30
1005
13A40C
  0
LINE
  5
13A40D
  8
OBJECT
 10
3975.0
 20
-3458.9999999999968
 30
0.0
 11
3975.0
 21
-3475.9999999999959
 31
0.0
1001
ACDBBLOCKREPETAG
1070
     1
1071
       34
1005
13A40D
  0
LINE
  5
13A40E
  8
OBJECT
 10
3975.0
 20
-3579.9999999999959
 30
0.0
 11
3975.0
 21
-3582.9999999999968
 31
0.0
1001
ACDBBLOCKREPETAG
1070
     1
1071
       34
1005
13A40D
  0
POINT
  5
13A40F
  8
DOTS
 10
3900.0
 20
-3579.9999999999959
 30
0.0
1001
ACDBBLOCKREPETAG
1070
     1
1071
      187
1005
13A40F
  0
LINE
  5
13A410
  8
OBJECT
 10
5510.0
 20
-3458.9999999999968
 30
0.0
 11
5510.0
 21
-3579.9999999999959
 31
0.0
1001
ACDBBLOCKREPETAG
1070
     1
1071
      208
1005
13A410
  0
LINE
  5
13A411
  8
OBJECT
 10
5503.0
 20
-3458.9999999999968
 30
0.0
 11
5510.0
 21
-3458.9999999999968
 31
0.0
1001
ACDBBLOCKREPETAG
1070
     1
1071
      209
1005
13A411
  0
LINE
  5
13A412
  8
OBJECT
 10
5503.0
 20
-3579.9999999999959
 30
0.0
 11
5503.0
 21
-3458.9999999999968
 31
0.0
1001
ACDBBLOCKREPETAG
1070
     1
1071
      210
1005
13A412
  0
LINE
  5
13A413
  8
OBJECT
 10
5503.0
 20
-3461.9999999999959
 30
0.0
 11
5467.0
 21
-3461.9999999999959
 31
0.0
1001
ACDBBLOCKREPETAG
1070
     1
1071
      211
1005
13A413
  0
LINE
  5
13A414
  8
OBJECT
 10
5467.0
 20
-3579.9999999999959
 30
0.0
 11
5510.0
 21
-3579.9999999999959
 31
0.0
1001
ACDBBLOCKREPETAG
1070
     1
1071
      212
1005
13A414
  0
LINE
  5
13A415
  8
OBJECT
 10
5467.0
 20
-3461.9999999999959
 30
0.0
 11
5467.0
 21
-3579.9999999999959
 31
0.0
1001
ACDBBLOCKREPETAG
1070
     1
1071
      213
1005
13A415
  0
LINE
  5
13A416
  8
OBJECT
 10
5463.0
 20
-3466.4999999999959
 30
0.0
 11
5450.0
 21
-3466.4999999999959
 31
0.0
1001
ACDBBLOCKREPETAG
1070
     1
1071
      214
1005
13A416
  0
LINE
  5
13A417
  8
OBJECT
 10
5450.0
 20
-3575.4999999999968
 30
0.0
 11
5463.0
 21
-3575.4999999999968
 31
0.0
1001
ACDBBLOCKREPETAG
1070
     1
1071
      215
1005
13A417
  0
LINE
  5
13A418
  8
OBJECT
 10
5463.0
 20
-3575.4999999999968
 30
0.0
 11
5463.0
 21
-3466.4999999999959
 31
0.0
1001
ACDBBLOCKREPETAG
1070
     1
1071
      216
1005
13A418
  0
LINE
  5
13A419
  8
OBJECT
 10
5467.0
 20
-3461.9999999999959
 30
0.0
 11
5463.0
 21
-3466.4999999999959
 31
0.0
1001
ACDBBLOCKREPETAG
1070
     1
1071
      217
1005
13A419
  0
LINE
  5
13A41A
  8
HIDDEN
 10
5458.0
 20
-3476.4999999999968
 30
0.0
 11
5458.0
 21
-3565.4999999999968
 31
0.0
1001
ACDBBLOCKREPETAG
1070
     1
1071
      218
1005
13A41A
  0
LINE
  5
13A41B
  8
OBJECT
 10
5467.0
 20
-3579.9999999999959
 30
0.0
 11
5463.0
 21
-3575.4999999999968
 31
0.0
1001
ACDBBLOCKREPETAG
1070
     1
1071
      219
1005
13A41B
  0
LINE
  5
13A41C
  8
CENTER
 10
5323.0
 20
-3520.9999999999968
 30
0.0
 11
5525.0
 21
-3520.9999999999968
 31
0.0
1001
ACDBBLOCKREPETAG
1070
     1
1071
      220
1005
13A41C
  0
LINE
  5
13A41D
  8
OBJECT
 10
5450.00006076516
 20
-3567.9999999999959
 30
0.0
 11
5400.0
 21
-3567.9999999999959
 31
0.0
1001
ACDBBLOCKREPETAG
1070
     1
1071
      221
1005
13A41D
  0
LINE
  5
13A41E
  8
OBJECT
 10
5450.00006076516
 20
-3473.9999999999968
 30
0.0
 11
5400.0
 21
-3473.9999999999968
 31
0.0
1001
ACDBBLOCKREPETAG
1070
     1
1071
      222
1005
13A41E
  0
LINE
  5
13A41F
  8
OBJECT
 10
5450.00006076516
 20
-3575.4999867281581
 30
0.0
 11
5450.00006076516
 21
-3466.499986728159
 31
0.0
1001
ACDBBLOCKREPETAG
1070
     1
1071
      223
1005
13A41F
  0
ARC
  5
13A420
  8
OBJECT
 10
5400.0
 20
-3520.9999999999968
 30
0.0
 40
62.0
 50
49.29386573222807
 51
310.70613426777197
1001
ACDBBLOCKREPETAG
1070
     1
1071
      224
1005
13A420
  0
ARC
  5
13A421
  8
OBJECT
 10
5400.0
 20
-3520.9999999999968
 30
0.0
 40
47.0
 50
90.0
 51
270.0
1001
ACDBBLOCKREPETAG
1070
     1
1071
      225
1005
13A421
  0
LINE
  5
13A422
  8
OBJECT
 10
5323.0
 20
-3395.9999999999968
 30
0.0
 11
5323.0
 21
-3374.9999999999959
 31
0.0
1001
ACDBBLOCKREPETAG
1070
     1
1071
       20
1005
13A422
  0
LINE
  5
13A423
  8
OBJECT
 10
5323.0
 20
-3374.9999999999959
 30
0.0
 11
5477.0
 21
-3374.9999999999959
 31
0.0
1001
ACDBBLOCKREPETAG
1070
     1
1071
       21
1005
13A423
  0
LINE
  5
13A424
  8
HIDDEN
 10
5343.0
 20
-3444.9999999999968
 30
0.0
 11
5457.0
 21
-3444.9999999999968
 31
0.0
1001
ACDBBLOCKREPETAG
1070
     1
1071
       22
1005
13A424
  0
LINE
  5
13A425
  8
OBJECT
 10
5477.0
 20
-3374.9999999999959
 30
0.0
 11
5477.0
 21
-3395.9999999999968
 31
0.0
1001
ACDBBLOCKREPETAG
1070
     1
1071
       23
1005
13A425
  0
LINE
  5
13A426
  8
OBJECT
 10
5477.0
 20
-3395.9999999999968
 30
0.0
 11
5323.0
 21
-3395.9999999999968
 31
0.0
1001
ACDBBLOCKREPETAG
1070
     1
1071
       24
1005
13A426
  0
LINE
  5
13A427
  8
CENTER
 10
5400.0
 20
-3359.9999999999968
 30
0.0
 11
5400.0
 21
-3594.9999999999968
 31
0.0
1001
ACDBBLOCKREPETAG
1070
     1
1071
       25
1005
13A427
  0
LINE
  5
13A428
  8
OBJECT
 10
5325.0
 20
-3458.9999999999968
 30
0.0
 11
5325.0
 21
-3582.9999999999968
 31
0.0
1001
ACDBBLOCKREPETAG
1070
     1
1071
       26
1005
13A428
  0
LINE
  5
13A429
  8
OBJECT
 10
5328.0
 20
-3395.9999999999968
 30
0.0
 11
5328.0
 21
-3458.9999999999968
 31
0.0
1001
ACDBBLOCKREPETAG
1070
     1
1071
       27
1005
13A429
  0
LINE
  5
13A42A
  8
OBJECT
 10
5472.0
 20
-3458.9999999999968
 30
0.0
 11
5472.0
 21
-3395.9999999999968
 31
0.0
1001
ACDBBLOCKREPETAG
1070
     1
1071
       28
1005
13A42A
  0
LINE
  5
13A42B
  8
OBJECT
 10
5475.0
 20
-3458.9999999999968
 30
0.0
 11
5325.0
 21
-3458.9999999999968
 31
0.0
1001
ACDBBLOCKREPETAG
1070
     1
1071
       30
1005
13A42B
  0
LINE
  5
13A42C
  8
OBJECT
 10
5475.0
 20
-3458.9999999999968
 30
0.0
 11
5475.0
 21
-3461.9999999999959
 31
0.0
1001
ACDBBLOCKREPETAG
1070
     1
1071
       34
1005
13A42C
  0
LINE
  5
13A42D
  8
OBJECT
 10
5475.0
 20
-3579.9999999999959
 30
0.0
 11
5475.0
 21
-3582.9999999999968
 31
0.0
1001
ACDBBLOCKREPETAG
1070
     1
1071
       34
1005
13A42C
  0
POINT
  5
13A42E
  8
DOTS
 10
5400.0
 20
-3579.9999999999959
 30
0.0
1001
ACDBBLOCKREPETAG
1070
     1
1071
      187
1005
13A42E
  0
TEXT
  5
13F2E7
  8
SLIM
 10
136.28571428572161
 20
-908.0
 30
0.0
 40
48.0
  1
JR3
 41
0.75
 72
     4
 11
180.0000000000073
 21
-884.0
 31
0.0
  0
TEXT
  5
13F2EB
  8
SLIM
 10
496.2857142857215
 20
-444.0
 30
0.0
 40
48.0
  1
JR2
 41
0.75
 72
     4
 11
540.00000000000728
 21
-420.0
 31
0.0
  0
TEXT
  5
13F2EC
  8
SLIM
 10
144.0000000000073
 20
-444.0
 30
0.0
 40
48.0
  1
JR1
 41
0.75
 72
     4
 11
180.0000000000073
 21
-420.0
 31
0.0
  0
LINE
  5
1453AA
  8
CENTER
 10
12227.0
 20
-696.0
 30
0.0
 11
12071.0
 21
-696.0
 31
0.0
1001
ACDBBLOCKREPETAG
1070
     1
1071
      287
1005
1453AA
  0
LINE
  5
1453AB
  8
OBJECT
 10
12150.0
 20
-743.0
 30
0.0
 11
12086.0
 21
-743.0
 31
0.0
1001
ACDBBLOCKREPETAG
1070
     1
1071
      288
1005
1453AB
  0
LINE
  5
1453AC
  8
OBJECT
 10
12083.0
 20
-634.0
 30
0.0
 11
12080.0
 21
-634.0
 31
0.0
1001
ACDBBLOCKREPETAG
1070
     1
1071
      289
1005
1453AC
  0
LINE
  5
1453AD
  8
OBJECT
 10
12150.0
 20
-649.0
 30
0.0
 11
12086.0
 21
-649.0
 31
0.0
1001
ACDBBLOCKREPETAG
1070
     1
1071
      290
1005
1453AD
  0
ARC
  5
1453AE
  8
OBJECT
 10
12083.0
 20
-637.0
 30
0.0
 40
3.0
 50
0.0
 51
90.0
1001
ACDBBLOCKREPETAG
1070
     1
1071
      291
1005
1453AE
  0
LINE
  5
1453AF
  8
OBJECT
 10
12080.0
 20
-758.0
 30
0.0
 11
12083.0
 21
-758.0
 31
0.0
1001
ACDBBLOCKREPETAG
1070
     1
1071
      292
1005
1453AF
  0
ARC
  5
1453B0
  8
OBJECT
 10
12083.0
 20
-755.0
 30
0.0
 40
3.0
 50
270.0
 51
0.0
1001
ACDBBLOCKREPETAG
1070
     1
1071
      293
1005
1453B0
  0
LINE
  5
1453B1
  8
OBJECT
 10
12086.0
 20
-755.0
 30
0.0
 11
12086.0
 21
-637.0
 31
0.0
1001
ACDBBLOCKREPETAG
1070
     1
1071
      294
1005
1453B1
  0
ARC
  5
1453B2
  8
OBJECT
 10
12150.0
 20
-696.0
 30
0.0
 40
62.0
 50
229.293865732211
 51
252.10344887079279
1001
ACDBBLOCKREPETAG
1070
     1
1071
      296
1005
1453B2
  0
ARC
  5
1453B3
  8
OBJECT
 10
12150.0
 20
-696.0
 30
0.0
 40
62.0
 50
287.89655112920718
 51
130.70613426778891
1001
ACDBBLOCKREPETAG
1070
     1
1071
      297
1005
1453B3
  0
LINE
  5
1453B4
  8
OBJECT
 10
12130.947441116739
 20
-755.0
 30
0.0
 11
12169.05255888325
 21
-755.0
 31
0.0
1001
ACDBBLOCKREPETAG
1070
     1
1071
      298
1005
1453B4
  0
LINE
  5
1453B5
  8
CENTER
 10
12150.0
 20
-770.0
 30
0.0
 11
12150.0
 21
-619.0
 31
0.0
1001
ACDBBLOCKREPETAG
1070
     1
1071
      299
1005
1453B5
  0
ARC
  5
1453B6
  8
OBJECT
 10
12150.0
 20
-696.0
 30
0.0
 40
54.5
 50
239.58547089840889
 51
120.414529101591
1001
ACDBBLOCKREPETAG
1070
     1
1071
      300
1005
1453B6
  0
ARC
  5
1453B7
  8
OBJECT
 10
12150.0
 20
-696.0
 30
0.0
 40
47.0
 50
270.0
 51
90.0
1001
ACDBBLOCKREPETAG
1070
     1
1071
      301
1005
1453B7
  0
ARC
  5
1453B8
  8
OBJECT
 10
12150.0
 20
-696.0
 30
0.0
 40
59.0
 50
232.80760582085091
 51
127.19239417914901
1001
ACDBBLOCKREPETAG
1070
     1
1071
      302
1005
1453B8
  0
LINE
  5
1453B9
  8
OBJECT
 10
12212.0
 20
-97.000000000004775
 30
0.0
 11
12212.0
 21
-90.000000000004775
 31
0.0
1001
ACDBBLOCKREPETAG
1070
     1
1071
      325
1005
1453B9
  0
LINE
  5
1453BA
  8
OBJECT
 10
12212.0
 20
-90.000000000004775
 30
0.0
 11
12088.0
 21
-90.000000000004775
 31
0.0
1001
ACDBBLOCKREPETAG
1070
     1
1071
      326
1005
1453BA
  0
LINE
  5
1453BB
  8
OBJECT
 10
12088.0
 20
-90.000000000004775
 30
0.0
 11
12088.0
 21
-97.000000000004775
 31
0.0
1001
ACDBBLOCKREPETAG
1070
     1
1071
      327
1005
1453BB
  0
LINE
  5
1453BC
  8
OBJECT
 10
12088.0
 20
-97.000000000004775
 30
0.0
 11
12212.0
 21
-97.000000000004775
 31
0.0
1001
ACDBBLOCKREPETAG
1070
     1
1071
      328
1005
1453BC
  0
LINE
  5
1453BD
  8
CENTER
 10
12197.24369412602
 20
-200.00000000000111
 30
0.0
 11
12080.0
 21
-200.0000000000048
 31
0.0
1001
ACDBBLOCKREPETAG
1070
     1
1071
      329
1005
1453BD
  0
LINE
  5
1453BE
  8
OBJECT
 10
12092.5
 20
-153.00000000000111
 30
0.0
 11
12086.0
 21
-153.00000000000111
 31
0.0
1001
ACDBBLOCKREPETAG
1070
     1
1071
      330
1005
1453BE
  0
LINE
  5
1453BF
  8
OBJECT
 10
12098.0
 20
-247.00000000000111
 30
0.0
 11
12086.0
 21
-247.0000000000048
 31
0.0
1001
ACDBBLOCKREPETAG
1070
     1
1071
      331
1005
1453BF
  0
LINE
  5
1453C0
  8
OBJECT
 10
12209.0
 20
-97.000000000004775
 30
0.0
 11
12209.0
 21
-133.0000000000048
 31
0.0
1001
ACDBBLOCKREPETAG
1070
     1
1071
      332
1005
1453C0
  0
LINE
  5
1453C1
  8
OBJECT
 10
12209.0
 20
-133.0000000000048
 30
0.0
 11
12091.0
 21
-133.0000000000048
 31
0.0
1001
ACDBBLOCKREPETAG
1070
     1
1071
      333
1005
1453C1
  0
LINE
  5
1453C2
  8
OBJECT
 10
12091.0
 20
-133.0000000000048
 30
0.0
 11
12091.0
 21
-97.000000000004775
 31
0.0
1001
ACDBBLOCKREPETAG
1070
     1
1071
      334
1005
1453C2
  0
LINE
  5
1453C3
  8
OBJECT
 10
12204.5
 20
-137.0000000000048
 30
0.0
 11
12204.5
 21
-150.00000000000469
 31
0.0
1001
ACDBBLOCKREPETAG
1070
     1
1071
      335
1005
1453C3
  0
LINE
  5
1453C4
  8
OBJECT
 10
12095.5
 20
-150.00000000000469
 30
0.0
 11
12095.5
 21
-137.0000000000048
 31
0.0
1001
ACDBBLOCKREPETAG
1070
     1
1071
      336
1005
1453C4
  0
LINE
  5
1453C5
  8
OBJECT
 10
12095.5
 20
-137.0000000000048
 30
0.0
 11
12204.5
 21
-137.0000000000048
 31
0.0
1001
ACDBBLOCKREPETAG
1070
     1
1071
      337
1005
1453C5
  0
LINE
  5
1453C6
  8
OBJECT
 10
12209.0
 20
-133.0000000000048
 30
0.0
 11
12204.5
 21
-137.0000000000048
 31
0.0
1001
ACDBBLOCKREPETAG
1070
     1
1071
      338
1005
1453C6
  0
LINE
  5
1453C7
  8
OBJECT
 10
12091.0
 20
-133.0000000000048
 30
0.0
 11
12095.5
 21
-137.0000000000048
 31
0.0
1001
ACDBBLOCKREPETAG
1070
     1
1071
      339
1005
1453C7
  0
LINE
  5
1453C8
  8
OBJECT
 10
12083.0
 20
-262.00000000000477
 30
0.0
 11
12080.0
 21
-262.00000000000477
 31
0.0
1001
ACDBBLOCKREPETAG
1070
     1
1071
      340
1005
1453C8
  0
ARC
  5
1453C9
  8
OBJECT
 10
12083.0
 20
-259.00000000000477
 30
0.0
 40
3.0
 50
270.0
 51
0.0
1001
ACDBBLOCKREPETAG
1070
     1
1071
      341
1005
1453C9
  0
LINE
  5
1453CA
  8
OBJECT
 10
12080.0
 20
-138.0000000000048
 30
0.0
 11
12095.5
 21
-138.0000000000048
 31
0.0
1001
ACDBBLOCKREPETAG
1070
     1
1071
      342
1005
1453CA
  0
ARC
  5
1453CB
  8
OBJECT
 10
12083.0
 20
-141.0000000000048
 30
0.0
 40
3.0
 50
0.0
 51
90.0
1001
ACDBBLOCKREPETAG
1070
     1
1071
      343
1005
1453CB
  0
LINE
  5
1453CC
  8
OBJECT
 10
12086.0
 20
-141.0000000000048
 30
0.0
 11
12086.0
 21
-259.00000000000477
 31
0.0
1001
ACDBBLOCKREPETAG
1070
     1
1071
      344
1005
1453CC
  0
LINE
  5
1453CD
  8
HIDDEN
 10
12194.5
 20
-142.00000000000469
 30
0.0
 11
12105.5
 21
-142.00000000000469
 31
0.0
1001
ACDBBLOCKREPETAG
1070
     1
1071
      345
1005
1453CD
  0
LINE
  5
1453CE
  8
OBJECT
 10
12095.500021237451
 20
-150.00004086387091
 30
0.0
 11
12204.50002123744
 21
-150.00004086387091
 31
0.0
1001
ACDBBLOCKREPETAG
1070
     1
1071
      347
1005
1453CE
  0
LINE
  5
1453CF
  8
CENTER
 10
12150.0
 20
-247.2436941260323
 30
0.0
 11
12150.0
 21
-75.000000000004775
 31
0.0
1001
ACDBBLOCKREPETAG
1070
     1
1071
      348
1005
1453CF
  0
ARC
  5
1453D0
  8
CENTER
 10
12098.0
 20
-148.00000000000111
 30
0.0
 40
52.0
 50
270.0
 51
0.0
1001
ACDBBLOCKREPETAG
1070
     1
1071
      349
1005
1453D0
  0
ARC
  5
1453D1
  8
OBJECT
 10
12092.5
 20
-150.00000000000111
 30
0.0
 40
3.0
 50
270.0
 51
0.0
1001
ACDBBLOCKREPETAG
1070
     1
1071
      350
1005
1453D1
  0
ARC
  5
1453D2
  8
OBJECT
 10
12098.0
 20
-148.00000000000111
 30
0.0
 40
99.0
 50
270.0
 51
358.84240710281102
1001
ACDBBLOCKREPETAG
1070
     1
1071
      351
1005
1453D2
  0
LINE
  5
1453D3
  8
OBJECT
 10
11923.0
 20
-571.0
 30
0.0
 11
11923.0
 21
-550.0
 31
0.0
1001
ACDBBLOCKREPETAG
1070
     1
1071
        0
1005
1453D3
  0
LINE
  5
1453D4
  8
OBJECT
 10
11923.0
 20
-550.0
 30
0.0
 11
12077.0
 21
-550.0
 31
0.0
1001
ACDBBLOCKREPETAG
1070
     1
1071
        1
1005
1453D4
  0
LINE
  5
1453D5
  8
HIDDEN
 10
11943.0
 20
-620.0
 30
0.0
 11
12057.0
 21
-620.0
 31
0.0
1001
ACDBBLOCKREPETAG
1070
     1
1071
        2
1005
1453D5
  0
LINE
  5
1453D6
  8
OBJECT
 10
12077.0
 20
-550.0
 30
0.0
 11
12077.0
 21
-571.0
 31
0.0
1001
ACDBBLOCKREPETAG
1070
     1
1071
        3
1005
1453D6
  0
LINE
  5
1453D7
  8
OBJECT
 10
12077.0
 20
-571.0
 30
0.0
 11
11923.0
 21
-571.0
 31
0.0
1001
ACDBBLOCKREPETAG
1070
     1
1071
        4
1005
1453D7
  0
LINE
  5
1453D8
  8
CENTER
 10
12000.0
 20
-535.0
 30
0.0
 11
12000.0
 21
-770.0
 31
0.0
1001
ACDBBLOCKREPETAG
1070
     1
1071
        5
1005
1453D8
  0
LINE
  5
1453D9
  8
OBJECT
 10
11925.0
 20
-634.0
 30
0.0
 11
11925.0
 21
-758.0
 31
0.0
1001
ACDBBLOCKREPETAG
1070
     1
1071
        6
1005
1453D9
  0
LINE
  5
1453DA
  8
OBJECT
 10
11928.0
 20
-571.0
 30
0.0
 11
11928.0
 21
-634.0
 31
0.0
1001
ACDBBLOCKREPETAG
1070
     1
1071
        7
1005
1453DA
  0
LINE
  5
1453DB
  8
OBJECT
 10
12072.0
 20
-634.0
 30
0.0
 11
12072.0
 21
-571.0
 31
0.0
1001
ACDBBLOCKREPETAG
1070
     1
1071
        8
1005
1453DB
  0
LINE
  5
1453DC
  8
OBJECT
 10
11920.0
 20
-758.0
 30
0.0
 11
12080.0
 21
-758.0
 31
0.0
1001
ACDBBLOCKREPETAG
1070
     1
1071
        9
1005
1453DC
  0
LINE
  5
1453DD
  8
OBJECT
 10
12080.0
 20
-634.0
 30
0.0
 11
11925.0
 21
-634.0
 31
0.0
1001
ACDBBLOCKREPETAG
1070
     1
1071
       10
1005
1453DD
  0
LINE
  5
1453DE
  8
OBJECT
 10
11920.0
 20
-758.0
 30
0.0
 11
11920.0
 21
-770.0
 31
0.0
1001
ACDBBLOCKREPETAG
1070
     1
1071
       11
1005
1453DE
  0
LINE
  5
1453DF
  8
OBJECT
 10
11920.0
 20
-770.0
 30
0.0
 11
12080.0
 21
-770.0
 31
0.0
1001
ACDBBLOCKREPETAG
1070
     1
1071
       12
1005
1453DF
  0
LINE
  5
1453E0
  8
OBJECT
 10
12080.0
 20
-770.0
 30
0.0
 11
12080.0
 21
-758.0
 31
0.0
1001
ACDBBLOCKREPETAG
1070
     1
1071
       13
1005
1453E0
  0
ARC
  5
1453E1
  8
OBJECT
 10
12200.687274671671
 20
-749.40809941010752
 30
0.0
 40
170.6350503965856
 50
137.44134459184301
 51
149.91949581337221
1001
ACDBBLOCKREPETAG
1070
     1
1071
       15
1005
1453E1
  0
ARC
  5
1453E2
  8
OBJECT
 10
12118.845598704051
 20
-705.88272669536479
 30
0.0
 40
78.072222021763665
 50
147.45515310379639
 51
164.6636599771729
1001
ACDBBLOCKREPETAG
1070
     1
1071
       16
1005
1453E2
  0
ARC
  5
1453E3
  8
OBJECT
 10
12085.755434960871
 20
-696.0
 30
0.0
 40
43.55353926885617
 50
165.6884523008477
 51
194.3115476991523
1001
ACDBBLOCKREPETAG
1070
     1
1071
       17
1005
1453E3
  0
ARC
  5
1453E4
  8
OBJECT
 10
12200.687274671671
 20
-642.59190058989225
 30
0.0
 40
170.6350503965856
 50
210.08050418662771
 51
222.55865540815699
1001
ACDBBLOCKREPETAG
1070
     1
1071
       18
1005
1453E4
  0
ARC
  5
1453E5
  8
OBJECT
 10
12118.845598704051
 20
-686.11727330463521
 30
0.0
 40
78.072222021763665
 50
195.3363400228271
 51
212.54484689620361
1001
ACDBBLOCKREPETAG
1070
     1
1071
       19
1005
1453E5
  0
POINT
  5
1453E6
  8
DOTS
 10
12000.0
 20
-755.0
 30
0.0
1001
ACDBBLOCKREPETAG
1070
     1
1071
      186
1005
1453E6
  0
ARC
  5
1453E7
  8
OBJECT
 10
12000.0
 20
-200.0000000000048
 30
0.0
 40
50.0
 50
298.81994300000417
 51
228.52376955964741
1001
ACDBBLOCKREPETAG
1070
     1
1071
      185
1005
1453E7
  0
LINE
  5
1453E8
  8
SLIM
 10
11927.30183005652
 20
-155.9548403695826
 30
0.0
 11
11955.954840369581
 21
-127.301830056528
 31
0.0
1001
GRADIENTCOLOR1ACI
1070
     5
1001
GRADIENTCOLOR2ACI
1070
     2
1001
ACAD
1010
0.0
1020
0.0
1030
0.0
1001
ACDBBLOCKREPETAG
1070
     1
1071
      442
1005
1453E8
  0
LINE
  5
1453E9
  8
SLIM
 10
11919.48615207084
 20
-172.7507744763376
 30
0.0
 11
11938.29030895727
 21
-153.94661758990219
 31
0.0
1001
GRADIENTCOLOR1ACI
1070
     5
1001
GRADIENTCOLOR2ACI
1070
     2
1001
ACAD
1010
0.0
1020
0.0
1030
0.0
1001
ACDBBLOCKREPETAG
1070
     1
1071
      443
1005
1453E9
  0
LINE
  5
1453EA
  8
SLIM
 10
11953.9466175899
 20
-138.2903089572774
 30
0.0
 11
11972.75077447633
 21
-119.4861520708421
 31
0.0
1001
GRADIENTCOLOR1ACI
1070
     5
1001
GRADIENTCOLOR2ACI
1070
     2
1001
ACAD
1010
0.0
1020
0.0
1030
0.0
1001
ACDBBLOCKREPETAG
1070
     1
1071
      444
1005
1453EA
  0
LINE
  5
1453EB
  8
SLIM
 10
11916.35966799338
 20
-184.85751467486611
 30
0.0
 11
11927.69595835578
 21
-173.5212243124619
 31
0.0
1001
GRADIENTCOLOR1ACI
1070
     5
1001
GRADIENTCOLOR2ACI
1070
     2
1001
ACAD
1010
0.0
1020
0.0
1030
0.0
1001
ACDBBLOCKREPETAG
1070
     1
1071
      445
1005
1453EB
  0
LINE
  5
1453EC
  8
SLIM
 10
11973.521224312461
 20
-127.6959583557869
 30
0.0
 11
11984.857514674861
 21
-116.3596679933827
 31
0.0
1001
GRADIENTCOLOR1ACI
1070
     5
1001
GRADIENTCOLOR2ACI
1070
     2
1001
ACAD
1010
0.0
1020
0.0
1030
0.0
1001
ACDBBLOCKREPETAG
1070
     1
1071
      446
1005
1453EC
  0
LINE
  5
1453ED
  8
SLIM
 10
11915.14405758905
 20
-195.0533812002607
 30
0.0
 11
11924.30302164318
 21
-185.89441714613071
 31
0.0
1001
GRADIENTCOLOR1ACI
1070
     5
1001
GRADIENTCOLOR2ACI
1070
     2
1001
ACAD
1010
0.0
1020
0.0
1030
0.0
1001
ACDBBLOCKREPETAG
1070
     1
1071
      447
1005
1453ED
  0
LINE
  5
1453EE
  8
SLIM
 10
11985.894417146121
 20
-124.30302164318719
 30
0.0
 11
11995.05338120025
 21
-115.1440575890574
 31
0.0
1001
GRADIENTCOLOR1ACI
1070
     5
1001
GRADIENTCOLOR2ACI
1070
     2
1001
ACAD
1010
0.0
1020
0.0
1030
0.0
1001
ACDBBLOCKREPETAG
1070
     1
1071
      448
1005
1453EE
  0
LINE
  5
1453EF
  8
SLIM
 10
11915.097963557469
 20
-204.07973135290911
 30
0.0
 11
11919.17769491037
 21
-200.0000000000048
 31
0.0
1001
GRADIENTCOLOR1ACI
1070
     5
1001
GRADIENTCOLOR2ACI
1070
     2
1001
ACAD
1010
0.0
1020
0.0
1030
0.0
1001
ACDBBLOCKREPETAG
1070
     1
1071
      449
1005
1453EF
  0
LINE
  5
1453F0
  8
SLIM
 10
12000.0
 20
-119.1776949103824
 30
0.0
 11
12004.0797313529
 21
-115.0979635574781
 31
0.0
1001
GRADIENTCOLOR1ACI
1070
     5
1001
GRADIENTCOLOR2ACI
1070
     2
1001
ACAD
1010
0.0
1020
0.0
1030
0.0
1001
ACDBBLOCKREPETAG
1070
     1
1071
      450
1005
1453F0
  0
LINE
  5
1453F1
  8
SLIM
 10
11919.17769491037
 20
-200.0000000000048
 30
0.0
 11
11923.09996216117
 21
-196.07773274921149
 31
0.0
1001
GRADIENTCOLOR1ACI
1070
     5
1001
GRADIENTCOLOR2ACI
1070
     2
1001
ACAD
1010
0.0
1020
0.0
1030
0.0
1001
ACDBBLOCKREPETAG
1070
     1
1071
      451
1005
1453F1
  0
LINE
  5
1453F2
  8
SLIM
 10
11996.077732749211
 20
-123.0999621611756
 30
0.0
 11
12000.0
 21
-119.1776949103824
 31
0.0
1001
GRADIENTCOLOR1ACI
1070
     5
1001
GRADIENTCOLOR2ACI
1070
     2
1001
ACAD
1010
0.0
1020
0.0
1030
0.0
1001
ACDBBLOCKREPETAG
1070
     1
1071
      452
1005
1453F2
  0
LINE
  5
1453F3
  8
SLIM
 10
11915.889972620869
 20
-212.26797841057959
 30
0.0
 11
11923.16223077717
 21
-204.9957202542823
 31
0.0
1001
GRADIENTCOLOR1ACI
1070
     5
1001
GRADIENTCOLOR2ACI
1070
     2
1001
ACAD
1010
0.0
1020
0.0
1030
0.0
1001
ACDBBLOCKREPETAG
1070
     1
1071
      453
1005
1453F3
  0
LINE
  5
1453F4
  8
SLIM
 10
12004.995720254279
 20
-123.162230777174
 30
0.0
 11
12012.267978410569
 21
-115.8899726208767
 31
0.0
1001
GRADIENTCOLOR1ACI
1070
     5
1001
GRADIENTCOLOR2ACI
1070
     2
1001
ACAD
1010
0.0
1020
0.0
1030
0.0
1001
ACDBBLOCKREPETAG
1070
     1
1071
      454
1005
1453F4
  0
LINE
  5
1453F5
  8
SLIM
 10
11917.338265695151
 20
-219.7999414573672
 30
0.0
 11
11924.11014778555
 21
-213.0280593669693
 31
0.0
1001
GRADIENTCOLOR1ACI
1070
     5
1001
GRADIENTCOLOR2ACI
1070
     2
1001
ACAD
1010
0.0
1020
0.0
1030
0.0
1001
ACDBBLOCKREPETAG
1070
     1
1071
      455
1005
1453F5
  0
LINE
  5
1453F6
  8
SLIM
 10
12013.028059366959
 20
-124.11014778555619
 30
0.0
 11
12019.799941457361
 21
-117.3382656951583
 31
0.0
1001
GRADIENTCOLOR1ACI
1070
     5
1001
GRADIENTCOLOR2ACI
1070
     2
1001
ACAD
1010
0.0
1020
0.0
1030
0.0
1001
ACDBBLOCKREPETAG
1070
     1
1071
      456
1005
1453F6
  0
LINE
  5
1453F7
  8
SLIM
 10
11919.331259406301
 20
-226.78720386728449
 30
0.0
 11
11925.744381959341
 21
-220.37408131425059
 31
0.0
1001
GRADIENTCOLOR1ACI
1070
     5
1001
GRADIENTCOLOR2ACI
1070
     2
1001
ACAD
1010
0.0
1020
0.0
1030
0.0
1001
ACDBBLOCKREPETAG
1070
     1
1071
      457
1005
1453F7
  0
LINE
  5
1453F8
  8
SLIM
 10
12020.374081314239
 20
-125.7443819593441
 30
0.0
 11
12026.787203867279
 21
-119.3312594063101
 31
0.0
1001
GRADIENTCOLOR1ACI
1070
     5
1001
GRADIENTCOLOR2ACI
1070
     2
1001
ACAD
1010
0.0
1020
0.0
1030
0.0
1001
ACDBBLOCKREPETAG
1070
     1
1071
      458
1005
1453F8
  0
LINE
  5
1453F9
  8
SLIM
 10
11921.79571631862
 20
-233.30300307603861
 30
0.0
 11
11927.946247395779
 21
-227.15247199888
 31
0.0
1001
GRADIENTCOLOR1ACI
1070
     5
1001
GRADIENTCOLOR2ACI
1070
     2
1001
ACAD
1010
0.0
1020
0.0
1030
0.0
1001
ACDBBLOCKREPETAG
1070
     1
1071
      459
1005
1453F9
  0
LINE
  5
1453FA
  8
SLIM
 10
12027.15247199887
 20
-127.9462473957837
 30
0.0
 11
12033.303003076029
 21
-121.7957163186252
 31
0.0
1001
GRADIENTCOLOR1ACI
1070
     5
1001
GRADIENTCOLOR2ACI
1070
     2
1001
ACAD
1010
0.0
1020
0.0
1030
0.0
1001
ACDBBLOCKREPETAG
1070
     1
1071
      460
1005
1453FA
  0
LINE
  5
1453FB
  8
SLIM
 10
11924.681663531341
 20
-239.39731198438321
 30
0.0
 11
11930.63987686439
 21
-233.43909865133531
 31
0.0
1001
GRADIENTCOLOR1ACI
1070
     5
1001
GRADIENTCOLOR2ACI
1070
     2
1001
ACAD
1010
0.0
1020
0.0
1030
0.0
1001
ACDBBLOCKREPETAG
1070
     1
1071
      461
1005
1453FB
  0
LINE
  5
1453FC
  8
SLIM
 10
12033.43909865133
 20
-130.63987686439771
 30
0.0
 11
12039.397311984379
 21
-124.6816635313496
 31
0.0
1001
GRADIENTCOLOR1ACI
1070
     5
1001
GRADIENTCOLOR2ACI
1070
     2
1001
ACAD
1010
0.0
1020
0.0
1030
0.0
1001
ACDBBLOCKREPETAG
1070
     1
1071
      462
1005
1453FC
  0
LINE
  5
1453FD
  8
SLIM
 10
11927.954461102419
 20
-245.10477053437259
 30
0.0
 11
11933.77500701499
 21
-239.28422462180319
 31
0.0
1001
GRADIENTCOLOR1ACI
1070
     5
1001
GRADIENTCOLOR2ACI
1070
     2
1001
ACAD
1010
0.0
1020
0.0
1030
0.0
1001
ACDBBLOCKREPETAG
1070
     1
1071
      463
1005
1453FD
  0
LINE
  5
1453FE
  8
SLIM
 10
12039.284224621801
 20
-133.77500701499881
 30
0.0
 11
12045.10477053437
 21
-127.95446110242951
 31
0.0
1001
GRADIENTCOLOR1ACI
1070
     5
1001
GRADIENTCOLOR2ACI
1070
     2
1001
ACAD
1010
0.0
1020
0.0
1030
0.0
1001
ACDBBLOCKREPETAG
1070
     1
1071
      464
1005
1453FE
  0
LINE
  5
1453FF
  8
SLIM
 10
11931.59033196866
 20
-250.44915578920109
 30
0.0
 11
11937.31820758806
 21
-244.72128016980901
 31
0.0
1001
GRADIENTCOLOR1ACI
1070
     5
1001
GRADIENTCOLOR2ACI
1070
     2
1001
ACAD
1010
0.0
1020
0.0
1030
0.0
1001
ACDBBLOCKREPETAG
1070
     1
1071
      465
1005
1453FF
  0
LINE
  5
145400
  8
SLIM
 10
12044.721280169801
 20
-137.31820758806219
 30
0.0
 11
12050.449155789191
 21
-131.5903319686702
 31
0.0
1001
GRADIENTCOLOR1ACI
1070
     5
1001
GRADIENTCOLOR2ACI
1070
     2
1001
ACAD
1010
0.0
1020
0.0
1030
0.0
1001
ACDBBLOCKREPETAG
1070
     1
1071
      466
1005
145400
  0
LINE
  5
145401
  8
SLIM
 10
11935.573749692519
 20
-255.44599418640911
 30
0.0
 11
11941.24811054159
 21
-249.771633337346
 31
0.0
1001
GRADIENTCOLOR1ACI
1070
     5
1001
GRADIENTCOLOR2ACI
1070
     2
1001
ACAD
1010
0.0
1020
0.0
1030
0.0
1001
ACDBBLOCKREPETAG
1070
     1
1071
      467
1005
145401
  0
LINE
  5
145402
  8
SLIM
 10
12053.01974387892
 20
-138.0000000000048
 30
0.0
 11
12055.445994186401
 21
-135.57374969253129
 31
0.0
1001
GRADIENTCOLOR1ACI
1070
     5
1001
GRADIENTCOLOR2ACI
1070
     2
1001
ACAD
1010
0.0
1020
0.0
1030
0.0
1001
ACDBBLOCKREPETAG
1070
     1
1071
      468
1005
145402
  0
LINE
  5
145403
  8
SLIM
 10
11939.895923599141
 20
-260.10407640086129
 30
0.0
 11
11945.55277784863
 21
-254.44722215136889
 31
0.0
1001
GRADIENTCOLOR1ACI
1070
     5
1001
GRADIENTCOLOR2ACI
1070
     2
1001
ACAD
1010
0.0
1020
0.0
1030
0.0
1001
ACDBBLOCKREPETAG
1070
     1
1071
      469
1005
145403
  0
LINE
  5
145404
  8
SLIM
 10
11944.55400581359
 20
-264.4262503074782
 30
0.0
 11
11950.228366662661
 21
-258.75188945841512
 31
0.0
1001
GRADIENTCOLOR1ACI
1070
     5
1001
GRADIENTCOLOR2ACI
1070
     2
1001
ACAD
1010
0.0
1020
0.0
1030
0.0
1001
ACDBBLOCKREPETAG
1070
     1
1071
      470
1005
145404
  0
LINE
  5
145405
  8
SLIM
 10
11949.5508442108
 20
-268.40966803133938
 30
0.0
 11
11955.27871983019
 21
-262.68179241194741
 31
0.0
1001
GRADIENTCOLOR1ACI
1070
     5
1001
GRADIENTCOLOR2ACI
1070
     2
1001
ACAD
1010
0.0
1020
0.0
1030
0.0
1001
ACDBBLOCKREPETAG
1070
     1
1071
      471
1005
145405
  0
LINE
  5
145406
  8
SLIM
 10
11954.89522946563
 20
-272.04553889758012
 30
0.0
 11
11960.715775378199
 21
-266.22499298501072
 31
0.0
1001
GRADIENTCOLOR1ACI
1070
     5
1001
GRADIENTCOLOR2ACI
1070
     2
1001
ACAD
1010
0.0
1020
0.0
1030
0.0
1001
ACDBBLOCKREPETAG
1070
     1
1071
      472
1005
145406
  0
LINE
  5
145407
  8
SLIM
 10
11960.602688015621
 20
-275.31833646865988
 30
0.0
 11
11966.56090134867
 21
-269.3601231356119
 31
0.0
1001
GRADIENTCOLOR1ACI
1070
     5
1001
GRADIENTCOLOR2ACI
1070
     2
1001
ACAD
1010
0.0
1020
0.0
1030
0.0
1001
ACDBBLOCKREPETAG
1070
     1
1071
      473
1005
145407
  0
LINE
  5
145408
  8
SLIM
 10
11966.69699692396
 20
-278.20428368138442
 30
0.0
 11
11972.847528001121
 21
-272.05375260422579
 31
0.0
1001
GRADIENTCOLOR1ACI
1070
     5
1001
GRADIENTCOLOR2ACI
1070
     2
1001
ACAD
1010
0.0
1020
0.0
1030
0.0
1001
ACDBBLOCKREPETAG
1070
     1
1071
      474
1005
145408
  0
LINE
  5
145409
  8
SLIM
 10
11973.212796132721
 20
-280.6687405936994
 30
0.0
 11
11979.62591868575
 21
-274.25561804066552
 31
0.0
1001
GRADIENTCOLOR1ACI
1070
     5
1001
GRADIENTCOLOR2ACI
1070
     2
1001
ACAD
1010
0.0
1020
0.0
1030
0.0
1001
ACDBBLOCKREPETAG
1070
     1
1071
      475
1005
145409
  0
LINE
  5
14540A
  8
SLIM
 10
11980.200058542639
 20
-282.66173430485111
 30
0.0
 11
11986.97194063303
 21
-275.88985221445341
 31
0.0
1001
GRADIENTCOLOR1ACI
1070
     5
1001
GRADIENTCOLOR2ACI
1070
     2
1001
ACAD
1010
0.0
1020
0.0
1030
0.0
1001
ACDBBLOCKREPETAG
1070
     1
1071
      476
1005
14540A
  0
LINE
  5
14540B
  8
SLIM
 10
11987.73202158942
 20
-284.11002737913282
 30
0.0
 11
11995.004279745721
 21
-276.83776922283562
 31
0.0
1001
GRADIENTCOLOR1ACI
1070
     5
1001
GRADIENTCOLOR2ACI
1070
     2
1001
ACAD
1010
0.0
1020
0.0
1030
0.0
1001
ACDBBLOCKREPETAG
1070
     1
1071
      477
1005
14540B
  0
LINE
  5
14540C
  8
SLIM
 10
11995.9202686471
 20
-284.90203644253148
 30
0.0
 11
12000.0
 21
-280.82230508962709
 31
0.0
1001
GRADIENTCOLOR1ACI
1070
     5
1001
GRADIENTCOLOR2ACI
1070
     2
1001
ACAD
1010
0.0
1020
0.0
1030
0.0
1001
ACDBBLOCKREPETAG
1070
     1
1071
      478
1005
14540C
  0
LINE
  5
14540D
  8
SLIM
 10
12000.0
 20
-280.82230508962709
 30
0.0
 11
12003.922267250789
 21
-276.9000378388339
 31
0.0
1001
GRADIENTCOLOR1ACI
1070
     5
1001
GRADIENTCOLOR2ACI
1070
     2
1001
ACAD
1010
0.0
1020
0.0
1030
0.0
1001
ACDBBLOCKREPETAG
1070
     1
1071
      479
1005
14540D
  0
LINE
  5
14540E
  8
SLIM
 10
12004.94661879974
 20
-284.8559424109522
 30
0.0
 11
12014.10558285387
 21
-275.69697835682223
 31
0.0
1001
GRADIENTCOLOR1ACI
1070
     5
1001
GRADIENTCOLOR2ACI
1070
     2
1001
ACAD
1010
0.0
1020
0.0
1030
0.0
1001
ACDBBLOCKREPETAG
1070
     1
1071
      480
1005
14540E
  0
LINE
  5
14540F
  8
SLIM
 10
12015.142485325139
 20
-283.64033200662692
 30
0.0
 11
12026.478775687539
 21
-272.30404164422271
 31
0.0
1001
GRADIENTCOLOR1ACI
1070
     5
1001
GRADIENTCOLOR2ACI
1070
     2
1001
ACAD
1010
0.0
1020
0.0
1030
0.0
1001
ACDBBLOCKREPETAG
1070
     1
1071
      481
1005
14540F
  0
LINE
  5
145410
  8
SLIM
 10
12027.249225523659
 20
-280.51384792916741
 30
0.0
 11
12045.76307345283
 21
-262.00000000000477
 31
0.0
1001
GRADIENTCOLOR1ACI
1070
     5
1001
GRADIENTCOLOR2ACI
1070
     2
1001
ACAD
1010
0.0
1020
0.0
1030
0.0
1001
ACDBBLOCKREPETAG
1070
     1
1071
      482
1005
145410
  0
LINE
  5
145411
  8
SLIM
 10
12044.045159630419
 20
-272.6981699434815
 30
0.0
 11
12054.743329573899
 21
-262.00000000000477
 31
0.0
1001
GRADIENTCOLOR1ACI
1070
     5
1001
GRADIENTCOLOR2ACI
1070
     2
1001
ACAD
1010
0.0
1020
0.0
1030
0.0
1001
ACDBBLOCKREPETAG
1070
     1
1071
      483
1005
145411
  0
LINE
  5
145412
  8
CENTER
 10
12080.0
 20
-200.0000000000048
 30
0.0
 11
11900.0
 21
-200.0000000000048
 31
0.0
1001
ACDBBLOCKREPETAG
1070
     1
1071
      187
1005
145412
  0
LINE
  5
145413
  8
CENTER
 10
12000.0
 20
-300.00000000000477
 30
0.0
 11
12000.0
 21
-100.0000000000047
 31
0.0
1001
ACDBBLOCKREPETAG
1070
     1
1071
      188
1005
145413
  0
CIRCLE
  5
145414
  8
OBJECT
 10
12000.0
 20
-200.0000000000048
 30
0.0
 40
70.0
1001
ACDBBLOCKREPETAG
1070
     1
1071
      189
1005
145414
  0
CIRCLE
  5
145415
  8
OBJECT
 10
12000.0
 20
-200.0000000000048
 30
0.0
 40
77.0
1001
ACDBBLOCKREPETAG
1070
     1
1071
      190
1005
145415
  0
LINE
  5
145416
  8
OBJECT
 10
12045.661800227321
 20
-138.0000000000048
 30
0.0
 11
12080.0
 21
-138.0000000000048
 31
0.0
1001
ACDBBLOCKREPETAG
1070
     1
1071
      192
1005
145416
  0
LINE
  5
145417
  8
OBJECT
 10
12045.661800227321
 20
-262.00000000000477
 30
0.0
 11
12080.0
 21
-262.00000000000477
 31
0.0
1001
ACDBBLOCKREPETAG
1070
     1
1071
      193
1005
145417
  0
ARC
  5
145418
  8
OBJECT
 10
12000.0
 20
-200.0000000000048
 30
0.0
 40
85.0
 50
46.837102859853147
 51
313.16289714014681
1001
ACDBBLOCKREPETAG
1070
     1
1071
      202
1005
145418
  0
LINE
  5
145419
  8
OBJECT
 10
12024.1029330933
 20
-243.80694712372249
 30
0.0
 11
12020.659656999989
 21
-232.5546220000044
 31
0.0
1001
ACDBBLOCKREPETAG
1070
     1
1071
      321
1005
145419
  0
LINE
  5
14541A
  8
OBJECT
 10
11986.79274990136
 20
-218.2255337420859
 30
0.0
 11
12020.659656999989
 21
-232.55462200000261
 31
0.0
1001
ACDBBLOCKREPETAG
1070
     1
1071
      323
1005
14541A
  0
ARC
  5
14541B
  8
OBJECT
 10
11982.8961697619
 20
-227.43512999906241
 30
0.0
 40
10.0
 50
67.066778292911366
 51
154.01473437031629
1001
ACDBBLOCKREPETAG
1070
     1
1071
      324
1005
14541B
  0
ARC
  5
14541C
  8
OBJECT
 10
11986.148839038129
 20
-225.5538625672973
 30
0.0
 40
7.0
 50
67.066778292911366
 51
154.0147337749826
1001
ACDBBLOCKREPETAG
1070
     1
1071
      325
1005
14541C
  0
LINE
  5
14541D
  8
OBJECT
 10
11969.4199755553
 20
-243.89888500818731
 30
0.0
 11
11979.85649182323
 21
-222.48688253357361
 31
0.0
1001
ACDBBLOCKREPETAG
1070
     1
1071
      353
1005
14541D
  0
LINE
  5
14541E
  8
OBJECT
 10
11965.29721690061
 20
-240.718139018833
 30
0.0
 11
11973.90710226651
 21
-223.0537300443132
 31
0.0
1001
ACDBBLOCKREPETAG
1070
     1
1071
      354
1005
14541E
  0
ARC
  5
14541F
  8
OBJECT
 10
11976.57969530731
 20
-207.12893698284941
 30
0.0
 40
60.031113246032611
 50
314.07020130422319
 51
322.33936106089681
1001
ACDBBLOCKREPETAG
1070
     1
1071
      355
1005
14541F
  0
CIRCLE
  5
145420
  8
OBJECT
 10
12000.0
 20
-200.0000000000048
 30
0.0
 40
53.5
1001
ACDBBLOCKREPETAG
1070
     1
1071
      356
1005
145420
  0
POINT
  5
145421
  8
DOTS
 10
12000.0
 20
-200.0000000000048
 30
0.0
 50
270.0
1001
ACDBBLOCKREPETAG
1070
     1
1071
      365
1005
145421
  0
LINE
  5
145422
  8
CENTER
 10
10227.0
 20
-696.0
 30
0.0
 11
10071.0
 21
-696.0
 31
0.0
1001
ACDBBLOCKREPETAG
1070
     1
1071
      287
1005
145422
  0
LINE
  5
145423
  8
OBJECT
 10
10150.0
 20
-743.0
 30
0.0
 11
10086.0
 21
-743.0
 31
0.0
1001
ACDBBLOCKREPETAG
1070
     1
1071
      288
1005
145423
  0
LINE
  5
145424
  8
OBJECT
 10
10083.0
 20
-634.0
 30
0.0
 11
10080.0
 21
-634.0
 31
0.0
1001
ACDBBLOCKREPETAG
1070
     1
1071
      289
1005
145424
  0
LINE
  5
145425
  8
OBJECT
 10
10150.0
 20
-649.0
 30
0.0
 11
10086.0
 21
-649.0
 31
0.0
1001
ACDBBLOCKREPETAG
1070
     1
1071
      290
1005
145425
  0
ARC
  5
145426
  8
OBJECT
 10
10083.0
 20
-637.0
 30
0.0
 40
3.0
 50
0.0
 51
90.0
1001
ACDBBLOCKREPETAG
1070
     1
1071
      291
1005
145426
  0
LINE
  5
145427
  8
OBJECT
 10
10080.0
 20
-758.0
 30
0.0
 11
10083.0
 21
-758.0
 31
0.0
1001
ACDBBLOCKREPETAG
1070
     1
1071
      292
1005
145427
  0
ARC
  5
145428
  8
OBJECT
 10
10083.0
 20
-755.0
 30
0.0
 40
3.0
 50
270.0
 51
0.0
1001
ACDBBLOCKREPETAG
1070
     1
1071
      293
1005
145428
  0
LINE
  5
145429
  8
OBJECT
 10
10086.0
 20
-755.0
 30
0.0
 11
10086.0
 21
-637.0
 31
0.0
1001
ACDBBLOCKREPETAG
1070
     1
1071
      294
1005
145429
  0
ARC
  5
14542A
  8
OBJECT
 10
10150.0
 20
-696.0
 30
0.0
 40
62.0
 50
229.293865732211
 51
252.10344887079279
1001
ACDBBLOCKREPETAG
1070
     1
1071
      296
1005
14542A
  0
ARC
  5
14542B
  8
OBJECT
 10
10150.0
 20
-696.0
 30
0.0
 40
62.0
 50
287.89655112920718
 51
130.70613426778891
1001
ACDBBLOCKREPETAG
1070
     1
1071
      297
1005
14542B
  0
LINE
  5
14542C
  8
OBJECT
 10
10130.947441116739
 20
-755.0
 30
0.0
 11
10169.052558883261
 21
-755.0
 31
0.0
1001
ACDBBLOCKREPETAG
1070
     1
1071
      298
1005
14542C
  0
LINE
  5
14542D
  8
CENTER
 10
10150.0
 20
-770.0
 30
0.0
 11
10150.0
 21
-619.0
 31
0.0
1001
ACDBBLOCKREPETAG
1070
     1
1071
      299
1005
14542D
  0
ARC
  5
14542E
  8
OBJECT
 10
10150.0
 20
-696.0
 30
0.0
 40
54.5
 50
239.58547089840889
 51
120.414529101591
1001
ACDBBLOCKREPETAG
1070
     1
1071
      300
1005
14542E
  0
ARC
  5
14542F
  8
OBJECT
 10
10150.0
 20
-696.0
 30
0.0
 40
47.0
 50
270.0
 51
90.0
1001
ACDBBLOCKREPETAG
1070
     1
1071
      301
1005
14542F
  0
ARC
  5
145430
  8
OBJECT
 10
10150.0
 20
-696.0
 30
0.0
 40
59.0
 50
232.80760582085091
 51
127.19239417914901
1001
ACDBBLOCKREPETAG
1070
     1
1071
      302
1005
145430
  0
LINE
  5
145431
  8
OBJECT
 10
10212.0
 20
-97.000000000004775
 30
0.0
 11
10212.0
 21
-90.000000000004775
 31
0.0
1001
ACDBBLOCKREPETAG
1070
     1
1071
      325
1005
145431
  0
LINE
  5
145432
  8
OBJECT
 10
10212.0
 20
-90.000000000004775
 30
0.0
 11
10088.0
 21
-90.000000000004775
 31
0.0
1001
ACDBBLOCKREPETAG
1070
     1
1071
      326
1005
145432
  0
LINE
  5
145433
  8
OBJECT
 10
10088.0
 20
-90.000000000004775
 30
0.0
 11
10088.0
 21
-97.000000000004775
 31
0.0
1001
ACDBBLOCKREPETAG
1070
     1
1071
      327
1005
145433
  0
LINE
  5
145434
  8
OBJECT
 10
10088.0
 20
-97.000000000004775
 30
0.0
 11
10212.0
 21
-97.000000000004775
 31
0.0
1001
ACDBBLOCKREPETAG
1070
     1
1071
      328
1005
145434
  0
LINE
  5
145435
  8
CENTER
 10
10197.243694126029
 20
-200.00000000000111
 30
0.0
 11
10080.0
 21
-200.0000000000048
 31
0.0
1001
ACDBBLOCKREPETAG
1070
     1
1071
      329
1005
145435
  0
LINE
  5
145436
  8
OBJECT
 10
10092.5
 20
-153.00000000000111
 30
0.0
 11
10086.0
 21
-153.00000000000111
 31
0.0
1001
ACDBBLOCKREPETAG
1070
     1
1071
      330
1005
145436
  0
LINE
  5
145437
  8
OBJECT
 10
10098.0
 20
-247.00000000000111
 30
0.0
 11
10086.0
 21
-247.0000000000048
 31
0.0
1001
ACDBBLOCKREPETAG
1070
     1
1071
      331
1005
145437
  0
LINE
  5
145438
  8
OBJECT
 10
10209.0
 20
-97.000000000004775
 30
0.0
 11
10209.0
 21
-133.0000000000048
 31
0.0
1001
ACDBBLOCKREPETAG
1070
     1
1071
      332
1005
145438
  0
LINE
  5
145439
  8
OBJECT
 10
10209.0
 20
-133.0000000000048
 30
0.0
 11
10091.0
 21
-133.0000000000048
 31
0.0
1001
ACDBBLOCKREPETAG
1070
     1
1071
      333
1005
145439
  0
LINE
  5
14543A
  8
OBJECT
 10
10091.0
 20
-133.0000000000048
 30
0.0
 11
10091.0
 21
-97.000000000004775
 31
0.0
1001
ACDBBLOCKREPETAG
1070
     1
1071
      334
1005
14543A
  0
LINE
  5
14543B
  8
OBJECT
 10
10204.5
 20
-137.0000000000048
 30
0.0
 11
10204.5
 21
-150.00000000000469
 31
0.0
1001
ACDBBLOCKREPETAG
1070
     1
1071
      335
1005
14543B
  0
LINE
  5
14543C
  8
OBJECT
 10
10095.5
 20
-150.00000000000469
 30
0.0
 11
10095.5
 21
-137.0000000000048
 31
0.0
1001
ACDBBLOCKREPETAG
1070
     1
1071
      336
1005
14543C
  0
LINE
  5
14543D
  8
OBJECT
 10
10095.5
 20
-137.0000000000048
 30
0.0
 11
10204.5
 21
-137.0000000000048
 31
0.0
1001
ACDBBLOCKREPETAG
1070
     1
1071
      337
1005
14543D
  0
LINE
  5
14543E
  8
OBJECT
 10
10209.0
 20
-133.0000000000048
 30
0.0
 11
10204.5
 21
-137.0000000000048
 31
0.0
1001
ACDBBLOCKREPETAG
1070
     1
1071
      338
1005
14543E
  0
LINE
  5
14543F
  8
OBJECT
 10
10091.0
 20
-133.0000000000048
 30
0.0
 11
10095.5
 21
-137.0000000000048
 31
0.0
1001
ACDBBLOCKREPETAG
1070
     1
1071
      339
1005
14543F
  0
LINE
  5
145440
  8
OBJECT
 10
10083.0
 20
-262.00000000000477
 30
0.0
 11
10080.0
 21
-262.00000000000477
 31
0.0
1001
ACDBBLOCKREPETAG
1070
     1
1071
      340
1005
145440
  0
ARC
  5
145441
  8
OBJECT
 10
10083.0
 20
-259.00000000000477
 30
0.0
 40
3.0
 50
270.0
 51
0.0
1001
ACDBBLOCKREPETAG
1070
     1
1071
      341
1005
145441
  0
LINE
  5
145442
  8
OBJECT
 10
10080.0
 20
-138.0000000000048
 30
0.0
 11
10095.5
 21
-138.0000000000048
 31
0.0
1001
ACDBBLOCKREPETAG
1070
     1
1071
      342
1005
145442
  0
ARC
  5
145443
  8
OBJECT
 10
10083.0
 20
-141.0000000000048
 30
0.0
 40
3.0
 50
0.0
 51
90.0
1001
ACDBBLOCKREPETAG
1070
     1
1071
      343
1005
145443
  0
LINE
  5
145444
  8
OBJECT
 10
10086.0
 20
-141.0000000000048
 30
0.0
 11
10086.0
 21
-259.00000000000477
 31
0.0
1001
ACDBBLOCKREPETAG
1070
     1
1071
      344
1005
145444
  0
LINE
  5
145445
  8
HIDDEN
 10
10194.5
 20
-142.00000000000469
 30
0.0
 11
10105.5
 21
-142.00000000000469
 31
0.0
1001
ACDBBLOCKREPETAG
1070
     1
1071
      345
1005
145445
  0
LINE
  5
145446
  8
OBJECT
 10
10095.50002123744
 20
-150.00004086387091
 30
0.0
 11
10204.500021237451
 21
-150.00004086387091
 31
0.0
1001
ACDBBLOCKREPETAG
1070
     1
1071
      347
1005
145446
  0
LINE
  5
145447
  8
CENTER
 10
10150.0
 20
-247.2436941260323
 30
0.0
 11
10150.0
 21
-75.000000000004775
 31
0.0
1001
ACDBBLOCKREPETAG
1070
     1
1071
      348
1005
145447
  0
ARC
  5
145448
  8
CENTER
 10
10098.0
 20
-148.00000000000111
 30
0.0
 40
52.0
 50
270.0
 51
0.0
1001
ACDBBLOCKREPETAG
1070
     1
1071
      349
1005
145448
  0
ARC
  5
145449
  8
OBJECT
 10
10092.5
 20
-150.00000000000111
 30
0.0
 40
3.0
 50
270.0
 51
0.0
1001
ACDBBLOCKREPETAG
1070
     1
1071
      350
1005
145449
  0
ARC
  5
14544A
  8
OBJECT
 10
10098.0
 20
-148.00000000000111
 30
0.0
 40
99.0
 50
270.0
 51
358.84240710281102
1001
ACDBBLOCKREPETAG
1070
     1
1071
      351
1005
14544A
  0
LINE
  5
14544B
  8
OBJECT
 10
9923.0
 20
-571.0
 30
0.0
 11
9923.0
 21
-550.0
 31
0.0
1001
ACDBBLOCKREPETAG
1070
     1
1071
        0
1005
14544B
  0
LINE
  5
14544C
  8
OBJECT
 10
9923.0
 20
-550.0
 30
0.0
 11
10077.0
 21
-550.0
 31
0.0
1001
ACDBBLOCKREPETAG
1070
     1
1071
        1
1005
14544C
  0
LINE
  5
14544D
  8
HIDDEN
 10
9943.0
 20
-620.0
 30
0.0
 11
10057.0
 21
-620.0
 31
0.0
1001
ACDBBLOCKREPETAG
1070
     1
1071
        2
1005
14544D
  0
LINE
  5
14544E
  8
OBJECT
 10
10077.0
 20
-550.0
 30
0.0
 11
10077.0
 21
-571.0
 31
0.0
1001
ACDBBLOCKREPETAG
1070
     1
1071
        3
1005
14544E
  0
LINE
  5
14544F
  8
OBJECT
 10
10077.0
 20
-571.0
 30
0.0
 11
9923.0
 21
-571.0
 31
0.0
1001
ACDBBLOCKREPETAG
1070
     1
1071
        4
1005
14544F
  0
LINE
  5
145450
  8
CENTER
 10
10000.0
 20
-535.0
 30
0.0
 11
10000.0
 21
-770.0
 31
0.0
1001
ACDBBLOCKREPETAG
1070
     1
1071
        5
1005
145450
  0
LINE
  5
145451
  8
OBJECT
 10
9925.0
 20
-634.0
 30
0.0
 11
9925.0
 21
-758.0
 31
0.0
1001
ACDBBLOCKREPETAG
1070
     1
1071
        6
1005
145451
  0
LINE
  5
145452
  8
OBJECT
 10
9928.0
 20
-571.0
 30
0.0
 11
9928.0
 21
-634.0
 31
0.0
1001
ACDBBLOCKREPETAG
1070
     1
1071
        7
1005
145452
  0
LINE
  5
145453
  8
OBJECT
 10
10072.0
 20
-634.0
 30
0.0
 11
10072.0
 21
-571.0
 31
0.0
1001
ACDBBLOCKREPETAG
1070
     1
1071
        8
1005
145453
  0
LINE
  5
145454
  8
OBJECT
 10
9920.0
 20
-758.0
 30
0.0
 11
10080.0
 21
-758.0
 31
0.0
1001
ACDBBLOCKREPETAG
1070
     1
1071
        9
1005
145454
  0
LINE
  5
145455
  8
OBJECT
 10
10080.0
 20
-634.0
 30
0.0
 11
9925.0
 21
-634.0
 31
0.0
1001
ACDBBLOCKREPETAG
1070
     1
1071
       10
1005
145455
  0
LINE
  5
145456
  8
OBJECT
 10
9920.0
 20
-758.0
 30
0.0
 11
9920.0
 21
-770.0
 31
0.0
1001
ACDBBLOCKREPETAG
1070
     1
1071
       11
1005
145456
  0
LINE
  5
145457
  8
OBJECT
 10
9920.0
 20
-770.0
 30
0.0
 11
10080.0
 21
-770.0
 31
0.0
1001
ACDBBLOCKREPETAG
1070
     1
1071
       12
1005
145457
  0
LINE
  5
145458
  8
OBJECT
 10
10080.0
 20
-770.0
 30
0.0
 11
10080.0
 21
-758.0
 31
0.0
1001
ACDBBLOCKREPETAG
1070
     1
1071
       13
1005
145458
  0
ARC
  5
145459
  8
OBJECT
 10
10200.687274671671
 20
-749.40809941010752
 30
0.0
 40
170.6350503965856
 50
137.44134459184301
 51
149.91949581337221
1001
ACDBBLOCKREPETAG
1070
     1
1071
       15
1005
145459
  0
ARC
  5
14545A
  8
OBJECT
 10
10118.845598704051
 20
-705.88272669536479
 30
0.0
 40
78.072222021763665
 50
147.45515310379639
 51
164.6636599771729
1001
ACDBBLOCKREPETAG
1070
     1
1071
       16
1005
14545A
  0
ARC
  5
14545B
  8
OBJECT
 10
10085.755434960871
 20
-696.0
 30
0.0
 40
43.55353926885617
 50
165.6884523008477
 51
194.3115476991523
1001
ACDBBLOCKREPETAG
1070
     1
1071
       17
1005
14545B
  0
ARC
  5
14545C
  8
OBJECT
 10
10200.687274671671
 20
-642.59190058989225
 30
0.0
 40
170.6350503965856
 50
210.08050418662771
 51
222.55865540815699
1001
ACDBBLOCKREPETAG
1070
     1
1071
       18
1005
14545C
  0
ARC
  5
14545D
  8
OBJECT
 10
10118.845598704051
 20
-686.11727330463521
 30
0.0
 40
78.072222021763665
 50
195.3363400228271
 51
212.54484689620361
1001
ACDBBLOCKREPETAG
1070
     1
1071
       19
1005
14545D
  0
POINT
  5
14545E
  8
DOTS
 10
10000.0
 20
-755.0
 30
0.0
1001
ACDBBLOCKREPETAG
1070
     1
1071
      186
1005
14545E
  0
ARC
  5
14545F
  8
OBJECT
 10
10000.0
 20
-200.0000000000048
 30
0.0
 40
50.0
 50
298.81994300000417
 51
228.52376955964741
1001
ACDBBLOCKREPETAG
1070
     1
1071
      185
1005
14545F
  0
LINE
  5
145460
  8
SLIM
 10
9927.3018300565236
 20
-155.9548403695826
 30
0.0
 11
9955.9548403695771
 21
-127.301830056528
 31
0.0
1001
GRADIENTCOLOR1ACI
1070
     5
1001
GRADIENTCOLOR2ACI
1070
     2
1001
ACAD
1010
0.0
1020
0.0
1030
0.0
1001
ACDBBLOCKREPETAG
1070
     1
1071
      442
1005
145460
  0
LINE
  5
145461
  8
SLIM
 10
9919.4861520708382
 20
-172.7507744763376
 30
0.0
 11
9938.2903089572737
 21
-153.94661758990219
 31
0.0
1001
GRADIENTCOLOR1ACI
1070
     5
1001
GRADIENTCOLOR2ACI
1070
     2
1001
ACAD
1010
0.0
1020
0.0
1030
0.0
1001
ACDBBLOCKREPETAG
1070
     1
1071
      443
1005
145461
  0
LINE
  5
145462
  8
SLIM
 10
9953.9466175898997
 20
-138.2903089572774
 30
0.0
 11
9972.7507744763316
 21
-119.4861520708421
 31
0.0
1001
GRADIENTCOLOR1ACI
1070
     5
1001
GRADIENTCOLOR2ACI
1070
     2
1001
ACAD
1010
0.0
1020
0.0
1030
0.0
1001
ACDBBLOCKREPETAG
1070
     1
1071
      444
1005
145462
  0
LINE
  5
145463
  8
SLIM
 10
9916.3596679933817
 20
-184.85751467486611
 30
0.0
 11
9927.6959583557837
 21
-173.5212243124619
 31
0.0
1001
GRADIENTCOLOR1ACI
1070
     5
1001
GRADIENTCOLOR2ACI
1070
     2
1001
ACAD
1010
0.0
1020
0.0
1030
0.0
1001
ACDBBLOCKREPETAG
1070
     1
1071
      445
1005
145463
  0
LINE
  5
145464
  8
SLIM
 10
9973.5212243124606
 20
-127.6959583557869
 30
0.0
 11
9984.8575146748644
 21
-116.3596679933827
 31
0.0
1001
GRADIENTCOLOR1ACI
1070
     5
1001
GRADIENTCOLOR2ACI
1070
     2
1001
ACAD
1010
0.0
1020
0.0
1030
0.0
1001
ACDBBLOCKREPETAG
1070
     1
1071
      446
1005
145464
  0
LINE
  5
145465
  8
SLIM
 10
9915.1440575890538
 20
-195.0533812002607
 30
0.0
 11
9924.3030216431835
 21
-185.89441714613071
 31
0.0
1001
GRADIENTCOLOR1ACI
1070
     5
1001
GRADIENTCOLOR2ACI
1070
     2
1001
ACAD
1010
0.0
1020
0.0
1030
0.0
1001
ACDBBLOCKREPETAG
1070
     1
1071
      447
1005
145465
  0
LINE
  5
145466
  8
SLIM
 10
9985.8944171461262
 20
-124.30302164318719
 30
0.0
 11
9995.0533812002577
 21
-115.1440575890574
 31
0.0
1001
GRADIENTCOLOR1ACI
1070
     5
1001
GRADIENTCOLOR2ACI
1070
     2
1001
ACAD
1010
0.0
1020
0.0
1030
0.0
1001
ACDBBLOCKREPETAG
1070
     1
1071
      448
1005
145466
  0
LINE
  5
145467
  8
SLIM
 10
9915.0979635574713
 20
-204.07973135290911
 30
0.0
 11
9919.1776949103787
 21
-200.0000000000048
 31
0.0
1001
GRADIENTCOLOR1ACI
1070
     5
1001
GRADIENTCOLOR2ACI
1070
     2
1001
ACAD
1010
0.0
1020
0.0
1030
0.0
1001
ACDBBLOCKREPETAG
1070
     1
1071
      449
1005
145467
  0
LINE
  5
145468
  8
SLIM
 10
10000.0
 20
-119.1776949103824
 30
0.0
 11
10004.0797313529
 21
-115.0979635574781
 31
0.0
1001
GRADIENTCOLOR1ACI
1070
     5
1001
GRADIENTCOLOR2ACI
1070
     2
1001
ACAD
1010
0.0
1020
0.0
1030
0.0
1001
ACDBBLOCKREPETAG
1070
     1
1071
      450
1005
145468
  0
LINE
  5
145469
  8
SLIM
 10
9919.1776949103787
 20
-200.0000000000048
 30
0.0
 11
9923.09996216117
 21
-196.07773274921149
 31
0.0
1001
GRADIENTCOLOR1ACI
1070
     5
1001
GRADIENTCOLOR2ACI
1070
     2
1001
ACAD
1010
0.0
1020
0.0
1030
0.0
1001
ACDBBLOCKREPETAG
1070
     1
1071
      451
1005
145469
  0
LINE
  5
14546A
  8
SLIM
 10
9996.0777327492033
 20
-123.0999621611756
 30
0.0
 11
10000.0
 21
-119.1776949103824
 31
0.0
1001
GRADIENTCOLOR1ACI
1070
     5
1001
GRADIENTCOLOR2ACI
1070
     2
1001
ACAD
1010
0.0
1020
0.0
1030
0.0
1001
ACDBBLOCKREPETAG
1070
     1
1071
      452
1005
14546A
  0
LINE
  5
14546B
  8
SLIM
 10
9915.8899726208747
 20
-212.26797841057959
 30
0.0
 11
9923.1622307771686
 21
-204.9957202542823
 31
0.0
1001
GRADIENTCOLOR1ACI
1070
     5
1001
GRADIENTCOLOR2ACI
1070
     2
1001
ACAD
1010
0.0
1020
0.0
1030
0.0
1001
ACDBBLOCKREPETAG
1070
     1
1071
      453
1005
14546B
  0
LINE
  5
14546C
  8
SLIM
 10
10004.99572025427
 20
-123.162230777174
 30
0.0
 11
10012.26797841056
 21
-115.8899726208767
 31
0.0
1001
GRADIENTCOLOR1ACI
1070
     5
1001
GRADIENTCOLOR2ACI
1070
     2
1001
ACAD
1010
0.0
1020
0.0
1030
0.0
1001
ACDBBLOCKREPETAG
1070
     1
1071
      454
1005
14546C
  0
LINE
  5
14546D
  8
SLIM
 10
9917.3382656951544
 20
-219.7999414573672
 30
0.0
 11
9924.1101477855536
 21
-213.0280593669693
 31
0.0
1001
GRADIENTCOLOR1ACI
1070
     5
1001
GRADIENTCOLOR2ACI
1070
     2
1001
ACAD
1010
0.0
1020
0.0
1030
0.0
1001
ACDBBLOCKREPETAG
1070
     1
1071
      455
1005
14546D
  0
LINE
  5
14546E
  8
SLIM
 10
10013.028059366959
 20
-124.11014778555619
 30
0.0
 11
10019.799941457361
 21
-117.3382656951583
 31
0.0
1001
GRADIENTCOLOR1ACI
1070
     5
1001
GRADIENTCOLOR2ACI
1070
     2
1001
ACAD
1010
0.0
1020
0.0
1030
0.0
1001
ACDBBLOCKREPETAG
1070
     1
1071
      456
1005
14546E
  0
LINE
  5
14546F
  8
SLIM
 10
9919.3312594063045
 20
-226.78720386728449
 30
0.0
 11
9925.7443819593445
 21
-220.37408131425059
 31
0.0
1001
GRADIENTCOLOR1ACI
1070
     5
1001
GRADIENTCOLOR2ACI
1070
     2
1001
ACAD
1010
0.0
1020
0.0
1030
0.0
1001
ACDBBLOCKREPETAG
1070
     1
1071
      457
1005
14546F
  0
LINE
  5
145470
  8
SLIM
 10
10020.374081314239
 20
-125.7443819593441
 30
0.0
 11
10026.787203867279
 21
-119.3312594063101
 31
0.0
1001
GRADIENTCOLOR1ACI
1070
     5
1001
GRADIENTCOLOR2ACI
1070
     2
1001
ACAD
1010
0.0
1020
0.0
1030
0.0
1001
ACDBBLOCKREPETAG
1070
     1
1071
      458
1005
145470
  0
LINE
  5
145471
  8
SLIM
 10
9921.7957163186184
 20
-233.30300307603861
 30
0.0
 11
9927.9462473957792
 21
-227.15247199888
 31
0.0
1001
GRADIENTCOLOR1ACI
1070
     5
1001
GRADIENTCOLOR2ACI
1070
     2
1001
ACAD
1010
0.0
1020
0.0
1030
0.0
1001
ACDBBLOCKREPETAG
1070
     1
1071
      459
1005
145471
  0
LINE
  5
145472
  8
SLIM
 10
10027.15247199887
 20
-127.9462473957837
 30
0.0
 11
10033.303003076029
 21
-121.7957163186252
 31
0.0
1001
GRADIENTCOLOR1ACI
1070
     5
1001
GRADIENTCOLOR2ACI
1070
     2
1001
ACAD
1010
0.0
1020
0.0
1030
0.0
1001
ACDBBLOCKREPETAG
1070
     1
1071
      460
1005
145472
  0
LINE
  5
145473
  8
SLIM
 10
9924.6816635313444
 20
-239.39731198438321
 30
0.0
 11
9930.6398768643921
 21
-233.43909865133531
 31
0.0
1001
GRADIENTCOLOR1ACI
1070
     5
1001
GRADIENTCOLOR2ACI
1070
     2
1001
ACAD
1010
0.0
1020
0.0
1030
0.0
1001
ACDBBLOCKREPETAG
1070
     1
1071
      461
1005
145473
  0
LINE
  5
145474
  8
SLIM
 10
10033.43909865133
 20
-130.63987686439771
 30
0.0
 11
10039.39731198437
 21
-124.6816635313496
 31
0.0
1001
GRADIENTCOLOR1ACI
1070
     5
1001
GRADIENTCOLOR2ACI
1070
     2
1001
ACAD
1010
0.0
1020
0.0
1030
0.0
1001
ACDBBLOCKREPETAG
1070
     1
1071
      462
1005
145474
  0
LINE
  5
145475
  8
SLIM
 10
9927.9544611024248
 20
-245.10477053437259
 30
0.0
 11
9933.7750070149923
 21
-239.28422462180319
 31
0.0
1001
GRADIENTCOLOR1ACI
1070
     5
1001
GRADIENTCOLOR2ACI
1070
     2
1001
ACAD
1010
0.0
1020
0.0
1030
0.0
1001
ACDBBLOCKREPETAG
1070
     1
1071
      463
1005
145475
  0
LINE
  5
145476
  8
SLIM
 10
10039.284224621801
 20
-133.77500701499881
 30
0.0
 11
10045.104770534361
 21
-127.95446110242951
 31
0.0
1001
GRADIENTCOLOR1ACI
1070
     5
1001
GRADIENTCOLOR2ACI
1070
     2
1001
ACAD
1010
0.0
1020
0.0
1030
0.0
1001
ACDBBLOCKREPETAG
1070
     1
1071
      464
1005
145476
  0
LINE
  5
145477
  8
SLIM
 10
9931.5903319686659
 20
-250.44915578920109
 30
0.0
 11
9937.3182075880559
 21
-244.72128016980901
 31
0.0
1001
GRADIENTCOLOR1ACI
1070
     5
1001
GRADIENTCOLOR2ACI
1070
     2
1001
ACAD
1010
0.0
1020
0.0
1030
0.0
1001
ACDBBLOCKREPETAG
1070
     1
1071
      465
1005
145477
  0
LINE
  5
145478
  8
SLIM
 10
10044.721280169801
 20
-137.31820758806219
 30
0.0
 11
10050.449155789191
 21
-131.5903319686702
 31
0.0
1001
GRADIENTCOLOR1ACI
1070
     5
1001
GRADIENTCOLOR2ACI
1070
     2
1001
ACAD
1010
0.0
1020
0.0
1030
0.0
1001
ACDBBLOCKREPETAG
1070
     1
1071
      466
1005
145478
  0
LINE
  5
145479
  8
SLIM
 10
9935.5737496925303
 20
-255.44599418640911
 30
0.0
 11
9941.2481105415936
 21
-249.771633337346
 31
0.0
1001
GRADIENTCOLOR1ACI
1070
     5
1001
GRADIENTCOLOR2ACI
1070
     2
1001
ACAD
1010
0.0
1020
0.0
1030
0.0
1001
ACDBBLOCKREPETAG
1070
     1
1071
      467
1005
145479
  0
LINE
  5
14547A
  8
SLIM
 10
10053.019743878929
 20
-138.0000000000048
 30
0.0
 11
10055.445994186401
 21
-135.57374969253129
 31
0.0
1001
GRADIENTCOLOR1ACI
1070
     5
1001
GRADIENTCOLOR2ACI
1070
     2
1001
ACAD
1010
0.0
1020
0.0
1030
0.0
1001
ACDBBLOCKREPETAG
1070
     1
1071
      468
1005
14547A
  0
LINE
  5
14547B
  8
SLIM
 10
9939.8959235991442
 20
-260.10407640086129
 30
0.0
 11
9945.5527778486357
 21
-254.44722215136889
 31
0.0
1001
GRADIENTCOLOR1ACI
1070
     5
1001
GRADIENTCOLOR2ACI
1070
     2
1001
ACAD
1010
0.0
1020
0.0
1030
0.0
1001
ACDBBLOCKREPETAG
1070
     1
1071
      469
1005
14547B
  0
LINE
  5
14547C
  8
SLIM
 10
9944.5540058135957
 20
-264.4262503074782
 30
0.0
 11
9950.2283666626608
 21
-258.75188945841512
 31
0.0
1001
GRADIENTCOLOR1ACI
1070
     5
1001
GRADIENTCOLOR2ACI
1070
     2
1001
ACAD
1010
0.0
1020
0.0
1030
0.0
1001
ACDBBLOCKREPETAG
1070
     1
1071
      470
1005
14547C
  0
LINE
  5
14547D
  8
SLIM
 10
9949.5508442108039
 20
-268.40966803133938
 30
0.0
 11
9955.2787198301976
 21
-262.68179241194741
 31
0.0
1001
GRADIENTCOLOR1ACI
1070
     5
1001
GRADIENTCOLOR2ACI
1070
     2
1001
ACAD
1010
0.0
1020
0.0
1030
0.0
1001
ACDBBLOCKREPETAG
1070
     1
1071
      471
1005
14547D
  0
LINE
  5
14547E
  8
SLIM
 10
9954.8952294656337
 20
-272.04553889758012
 30
0.0
 11
9960.7157753781994
 21
-266.22499298501072
 31
0.0
1001
GRADIENTCOLOR1ACI
1070
     5
1001
GRADIENTCOLOR2ACI
1070
     2
1001
ACAD
1010
0.0
1020
0.0
1030
0.0
1001
ACDBBLOCKREPETAG
1070
     1
1071
      472
1005
14547E
  0
LINE
  5
14547F
  8
SLIM
 10
9960.6026880156223
 20
-275.31833646865988
 30
0.0
 11
9966.5609013486755
 21
-269.3601231356119
 31
0.0
1001
GRADIENTCOLOR1ACI
1070
     5
1001
GRADIENTCOLOR2ACI
1070
     2
1001
ACAD
1010
0.0
1020
0.0
1030
0.0
1001
ACDBBLOCKREPETAG
1070
     1
1071
      473
1005
14547F
  0
LINE
  5
145480
  8
SLIM
 10
9966.6969969239635
 20
-278.20428368138442
 30
0.0
 11
9972.8475280011244
 21
-272.05375260422579
 31
0.0
1001
GRADIENTCOLOR1ACI
1070
     5
1001
GRADIENTCOLOR2ACI
1070
     2
1001
ACAD
1010
0.0
1020
0.0
1030
0.0
1001
ACDBBLOCKREPETAG
1070
     1
1071
      474
1005
145480
  0
LINE
  5
145481
  8
SLIM
 10
9973.2127961327205
 20
-280.6687405936994
 30
0.0
 11
9979.6259186857551
 21
-274.25561804066552
 31
0.0
1001
GRADIENTCOLOR1ACI
1070
     5
1001
GRADIENTCOLOR2ACI
1070
     2
1001
ACAD
1010
0.0
1020
0.0
1030
0.0
1001
ACDBBLOCKREPETAG
1070
     1
1071
      475
1005
145481
  0
LINE
  5
145482
  8
SLIM
 10
9980.2000585426413
 20
-282.66173430485111
 30
0.0
 11
9986.971940633035
 21
-275.88985221445341
 31
0.0
1001
GRADIENTCOLOR1ACI
1070
     5
1001
GRADIENTCOLOR2ACI
1070
     2
1001
ACAD
1010
0.0
1020
0.0
1030
0.0
1001
ACDBBLOCKREPETAG
1070
     1
1071
      476
1005
145482
  0
LINE
  5
145483
  8
SLIM
 10
9987.7320215894215
 20
-284.11002737913282
 30
0.0
 11
9995.0042797457209
 21
-276.83776922283562
 31
0.0
1001
GRADIENTCOLOR1ACI
1070
     5
1001
GRADIENTCOLOR2ACI
1070
     2
1001
ACAD
1010
0.0
1020
0.0
1030
0.0
1001
ACDBBLOCKREPETAG
1070
     1
1071
      477
1005
145483
  0
LINE
  5
145484
  8
SLIM
 10
9995.9202686470962
 20
-284.90203644253148
 30
0.0
 11
10000.0
 21
-280.82230508962709
 31
0.0
1001
GRADIENTCOLOR1ACI
1070
     5
1001
GRADIENTCOLOR2ACI
1070
     2
1001
ACAD
1010
0.0
1020
0.0
1030
0.0
1001
ACDBBLOCKREPETAG
1070
     1
1071
      478
1005
145484
  0
LINE
  5
145485
  8
SLIM
 10
10000.0
 20
-280.82230508962709
 30
0.0
 11
10003.922267250789
 21
-276.9000378388339
 31
0.0
1001
GRADIENTCOLOR1ACI
1070
     5
1001
GRADIENTCOLOR2ACI
1070
     2
1001
ACAD
1010
0.0
1020
0.0
1030
0.0
1001
ACDBBLOCKREPETAG
1070
     1
1071
      479
1005
145485
  0
LINE
  5
145486
  8
SLIM
 10
10004.94661879974
 20
-284.8559424109522
 30
0.0
 11
10014.10558285387
 21
-275.69697835682223
 31
0.0
1001
GRADIENTCOLOR1ACI
1070
     5
1001
GRADIENTCOLOR2ACI
1070
     2
1001
ACAD
1010
0.0
1020
0.0
1030
0.0
1001
ACDBBLOCKREPETAG
1070
     1
1071
      480
1005
145486
  0
LINE
  5
145487
  8
SLIM
 10
10015.142485325139
 20
-283.64033200662692
 30
0.0
 11
10026.478775687539
 21
-272.30404164422271
 31
0.0
1001
GRADIENTCOLOR1ACI
1070
     5
1001
GRADIENTCOLOR2ACI
1070
     2
1001
ACAD
1010
0.0
1020
0.0
1030
0.0
1001
ACDBBLOCKREPETAG
1070
     1
1071
      481
1005
145487
  0
LINE
  5
145488
  8
SLIM
 10
10027.249225523659
 20
-280.51384792916741
 30
0.0
 11
10045.76307345283
 21
-262.00000000000477
 31
0.0
1001
GRADIENTCOLOR1ACI
1070
     5
1001
GRADIENTCOLOR2ACI
1070
     2
1001
ACAD
1010
0.0
1020
0.0
1030
0.0
1001
ACDBBLOCKREPETAG
1070
     1
1071
      482
1005
145488
  0
LINE
  5
145489
  8
SLIM
 10
10044.045159630419
 20
-272.6981699434815
 30
0.0
 11
10054.743329573899
 21
-262.00000000000477
 31
0.0
1001
GRADIENTCOLOR1ACI
1070
     5
1001
GRADIENTCOLOR2ACI
1070
     2
1001
ACAD
1010
0.0
1020
0.0
1030
0.0
1001
ACDBBLOCKREPETAG
1070
     1
1071
      483
1005
145489
  0
LINE
  5
14548A
  8
CENTER
 10
10080.0
 20
-200.0000000000048
 30
0.0
 11
9900.0
 21
-200.0000000000048
 31
0.0
1001
ACDBBLOCKREPETAG
1070
     1
1071
      187
1005
14548A
  0
LINE
  5
14548B
  8
CENTER
 10
10000.0
 20
-300.00000000000477
 30
0.0
 11
10000.0
 21
-100.0000000000047
 31
0.0
1001
ACDBBLOCKREPETAG
1070
     1
1071
      188
1005
14548B
  0
CIRCLE
  5
14548C
  8
OBJECT
 10
10000.0
 20
-200.0000000000048
 30
0.0
 40
70.0
1001
ACDBBLOCKREPETAG
1070
     1
1071
      189
1005
14548C
  0
CIRCLE
  5
14548D
  8
OBJECT
 10
10000.0
 20
-200.0000000000048
 30
0.0
 40
77.0
1001
ACDBBLOCKREPETAG
1070
     1
1071
      190
1005
14548D
  0
LINE
  5
14548E
  8
OBJECT
 10
10045.661800227321
 20
-138.0000000000048
 30
0.0
 11
10080.0
 21
-138.0000000000048
 31
0.0
1001
ACDBBLOCKREPETAG
1070
     1
1071
      192
1005
14548E
  0
LINE
  5
14548F
  8
OBJECT
 10
10045.661800227321
 20
-262.00000000000477
 30
0.0
 11
10080.0
 21
-262.00000000000477
 31
0.0
1001
ACDBBLOCKREPETAG
1070
     1
1071
      193
1005
14548F
  0
ARC
  5
145490
  8
OBJECT
 10
10000.0
 20
-200.0000000000048
 30
0.0
 40
85.0
 50
46.837102859853147
 51
313.16289714014681
1001
ACDBBLOCKREPETAG
1070
     1
1071
      202
1005
145490
  0
LINE
  5
145491
  8
OBJECT
 10
10024.1029330933
 20
-243.80694712372249
 30
0.0
 11
10020.659656999989
 21
-232.5546220000044
 31
0.0
1001
ACDBBLOCKREPETAG
1070
     1
1071
      321
1005
145491
  0
LINE
  5
145492
  8
OBJECT
 10
9986.7927499013749
 20
-218.2255337420859
 30
0.0
 11
10020.659656999989
 21
-232.55462200000261
 31
0.0
1001
ACDBBLOCKREPETAG
1070
     1
1071
      323
1005
145492
  0
ARC
  5
145493
  8
OBJECT
 10
9982.8961697618997
 20
-227.43512999906241
 30
0.0
 40
10.0
 50
67.066778292911366
 51
154.01473437031629
1001
ACDBBLOCKREPETAG
1070
     1
1071
      324
1005
145493
  0
ARC
  5
145494
  8
OBJECT
 10
9986.1488390381292
 20
-225.5538625672973
 30
0.0
 40
7.0
 50
67.066778292911366
 51
154.0147337749826
1001
ACDBBLOCKREPETAG
1070
     1
1071
      325
1005
145494
  0
LINE
  5
145495
  8
OBJECT
 10
9969.4199755553
 20
-243.89888500818731
 30
0.0
 11
9979.8564918232369
 21
-222.48688253357361
 31
0.0
1001
ACDBBLOCKREPETAG
1070
     1
1071
      353
1005
145495
  0
LINE
  5
145496
  8
OBJECT
 10
9965.2972169006098
 20
-240.718139018833
 30
0.0
 11
9973.9071022665084
 21
-223.0537300443132
 31
0.0
1001
ACDBBLOCKREPETAG
1070
     1
1071
      354
1005
145496
  0
ARC
  5
145497
  8
OBJECT
 10
9976.5796953073132
 20
-207.12893698284941
 30
0.0
 40
60.031113246032611
 50
314.07020130422319
 51
322.33936106089681
1001
ACDBBLOCKREPETAG
1070
     1
1071
      355
1005
145497
  0
CIRCLE
  5
145498
  8
OBJECT
 10
10000.0
 20
-200.0000000000048
 30
0.0
 40
53.5
1001
ACDBBLOCKREPETAG
1070
     1
1071
      356
1005
145498
  0
POINT
  5
145499
  8
DOTS
 10
10000.0
 20
-200.0000000000048
 30
0.0
 50
270.0
1001
ACDBBLOCKREPETAG
1070
     1
1071
      365
1005
145499
  0
LINE
  5
14549A
  8
CENTER
 10
8227.0
 20
-696.0
 30
0.0
 11
8071.0
 21
-696.0
 31
0.0
1001
ACDBBLOCKREPETAG
1070
     1
1071
      287
1005
14549A
  0
LINE
  5
14549B
  8
OBJECT
 10
8150.0
 20
-743.0
 30
0.0
 11
8086.0000000000027
 21
-743.0
 31
0.0
1001
ACDBBLOCKREPETAG
1070
     1
1071
      288
1005
14549B
  0
LINE
  5
14549C
  8
OBJECT
 10
8083.0
 20
-634.0
 30
0.0
 11
8080.0
 21
-634.0
 31
0.0
1001
ACDBBLOCKREPETAG
1070
     1
1071
      289
1005
14549C
  0
LINE
  5
14549D
  8
OBJECT
 10
8150.0
 20
-649.0
 30
0.0
 11
8086.0000000000027
 21
-649.0
 31
0.0
1001
ACDBBLOCKREPETAG
1070
     1
1071
      290
1005
14549D
  0
ARC
  5
14549E
  8
OBJECT
 10
8083.0
 20
-637.0
 30
0.0
 40
3.0
 50
0.0
 51
90.0
1001
ACDBBLOCKREPETAG
1070
     1
1071
      291
1005
14549E
  0
LINE
  5
14549F
  8
OBJECT
 10
8080.0
 20
-758.0
 30
0.0
 11
8083.0
 21
-758.0
 31
0.0
1001
ACDBBLOCKREPETAG
1070
     1
1071
      292
1005
14549F
  0
ARC
  5
1454A0
  8
OBJECT
 10
8083.0
 20
-755.0
 30
0.0
 40
3.0
 50
270.0
 51
0.0
1001
ACDBBLOCKREPETAG
1070
     1
1071
      293
1005
1454A0
  0
LINE
  5
1454A1
  8
OBJECT
 10
8086.0
 20
-755.0
 30
0.0
 11
8086.0
 21
-637.0
 31
0.0
1001
ACDBBLOCKREPETAG
1070
     1
1071
      294
1005
1454A1
  0
ARC
  5
1454A2
  8
OBJECT
 10
8150.0
 20
-696.0
 30
0.0
 40
62.0
 50
229.293865732211
 51
252.10344887079279
1001
ACDBBLOCKREPETAG
1070
     1
1071
      296
1005
1454A2
  0
ARC
  5
1454A3
  8
OBJECT
 10
8150.0
 20
-696.0
 30
0.0
 40
62.0
 50
287.89655112920718
 51
130.70613426778891
1001
ACDBBLOCKREPETAG
1070
     1
1071
      297
1005
1454A3
  0
LINE
  5
1454A4
  8
OBJECT
 10
8130.947441116743
 20
-755.0
 30
0.0
 11
8169.0525588832561
 21
-755.0
 31
0.0
1001
ACDBBLOCKREPETAG
1070
     1
1071
      298
1005
1454A4
  0
LINE
  5
1454A5
  8
CENTER
 10
8150.0
 20
-770.0
 30
0.0
 11
8150.0
 21
-619.0
 31
0.0
1001
ACDBBLOCKREPETAG
1070
     1
1071
      299
1005
1454A5
  0
ARC
  5
1454A6
  8
OBJECT
 10
8150.0
 20
-696.0
 30
0.0
 40
54.5
 50
239.58547089840889
 51
120.414529101591
1001
ACDBBLOCKREPETAG
1070
     1
1071
      300
1005
1454A6
  0
ARC
  5
1454A7
  8
OBJECT
 10
8150.0
 20
-696.0
 30
0.0
 40
47.0
 50
270.0
 51
90.0
1001
ACDBBLOCKREPETAG
1070
     1
1071
      301
1005
1454A7
  0
ARC
  5
1454A8
  8
OBJECT
 10
8150.0
 20
-696.0
 30
0.0
 40
59.0
 50
232.80760582085091
 51
127.19239417914901
1001
ACDBBLOCKREPETAG
1070
     1
1071
      302
1005
1454A8
  0
LINE
  5
1454A9
  8
OBJECT
 10
8212.0
 20
-97.000000000004775
 30
0.0
 11
8212.0
 21
-90.000000000004775
 31
0.0
1001
ACDBBLOCKREPETAG
1070
     1
1071
      325
1005
1454A9
  0
LINE
  5
1454AA
  8
OBJECT
 10
8212.0
 20
-90.000000000004775
 30
0.0
 11
8088.0
 21
-90.000000000004775
 31
0.0
1001
ACDBBLOCKREPETAG
1070
     1
1071
      326
1005
1454AA
  0
LINE
  5
1454AB
  8
OBJECT
 10
8088.0
 20
-90.000000000004775
 30
0.0
 11
8088.0
 21
-97.000000000004775
 31
0.0
1001
ACDBBLOCKREPETAG
1070
     1
1071
      327
1005
1454AB
  0
LINE
  5
1454AC
  8
OBJECT
 10
8088.0
 20
-97.000000000004775
 30
0.0
 11
8212.0
 21
-97.000000000004775
 31
0.0
1001
ACDBBLOCKREPETAG
1070
     1
1071
      328
1005
1454AC
  0
LINE
  5
1454AD
  8
CENTER
 10
8197.2436941260294
 20
-200.00000000000111
 30
0.0
 11
8080.0
 21
-200.0000000000048
 31
0.0
1001
ACDBBLOCKREPETAG
1070
     1
1071
      329
1005
1454AD
  0
LINE
  5
1454AE
  8
OBJECT
 10
8092.4999999999973
 20
-153.00000000000111
 30
0.0
 11
8086.0
 21
-153.00000000000111
 31
0.0
1001
ACDBBLOCKREPETAG
1070
     1
1071
      330
1005
1454AE
  0
LINE
  5
1454AF
  8
OBJECT
 10
8098.0
 20
-247.00000000000111
 30
0.0
 11
8086.0
 21
-247.0000000000048
 31
0.0
1001
ACDBBLOCKREPETAG
1070
     1
1071
      331
1005
1454AF
  0
LINE
  5
1454B0
  8
OBJECT
 10
8209.0
 20
-97.000000000004775
 30
0.0
 11
8209.0
 21
-133.0000000000048
 31
0.0
1001
ACDBBLOCKREPETAG
1070
     1
1071
      332
1005
1454B0
  0
LINE
  5
1454B1
  8
OBJECT
 10
8209.0
 20
-133.0000000000048
 30
0.0
 11
8091.0
 21
-133.0000000000048
 31
0.0
1001
ACDBBLOCKREPETAG
1070
     1
1071
      333
1005
1454B1
  0
LINE
  5
1454B2
  8
OBJECT
 10
8091.0
 20
-133.0000000000048
 30
0.0
 11
8091.0
 21
-97.000000000004775
 31
0.0
1001
ACDBBLOCKREPETAG
1070
     1
1071
      334
1005
1454B2
  0
LINE
  5
1454B3
  8
OBJECT
 10
8204.5000000000018
 20
-137.0000000000048
 30
0.0
 11
8204.5000000000018
 21
-150.00000000000469
 31
0.0
1001
ACDBBLOCKREPETAG
1070
     1
1071
      335
1005
1454B3
  0
LINE
  5
1454B4
  8
OBJECT
 10
8095.4999999999973
 20
-150.00000000000469
 30
0.0
 11
8095.4999999999973
 21
-137.0000000000048
 31
0.0
1001
ACDBBLOCKREPETAG
1070
     1
1071
      336
1005
1454B4
  0
LINE
  5
1454B5
  8
OBJECT
 10
8095.4999999999973
 20
-137.0000000000048
 30
0.0
 11
8204.5000000000018
 21
-137.0000000000048
 31
0.0
1001
ACDBBLOCKREPETAG
1070
     1
1071
      337
1005
1454B5
  0
LINE
  5
1454B6
  8
OBJECT
 10
8209.0
 20
-133.0000000000048
 30
0.0
 11
8204.5000000000018
 21
-137.0000000000048
 31
0.0
1001
ACDBBLOCKREPETAG
1070
     1
1071
      338
1005
1454B6
  0
LINE
  5
1454B7
  8
OBJECT
 10
8091.0
 20
-133.0000000000048
 30
0.0
 11
8095.4999999999973
 21
-137.0000000000048
 31
0.0
1001
ACDBBLOCKREPETAG
1070
     1
1071
      339
1005
1454B7
  0
LINE
  5
1454B8
  8
OBJECT
 10
8083.0
 20
-262.00000000000477
 30
0.0
 11
8080.0
 21
-262.00000000000477
 31
0.0
1001
ACDBBLOCKREPETAG
1070
     1
1071
      340
1005
1454B8
  0
ARC
  5
1454B9
  8
OBJECT
 10
8083.0
 20
-259.00000000000477
 30
0.0
 40
3.0
 50
270.0
 51
0.0
1001
ACDBBLOCKREPETAG
1070
     1
1071
      341
1005
1454B9
  0
LINE
  5
1454BA
  8
OBJECT
 10
8080.0
 20
-138.0000000000048
 30
0.0
 11
8095.4999999999973
 21
-138.0000000000048
 31
0.0
1001
ACDBBLOCKREPETAG
1070
     1
1071
      342
1005
1454BA
  0
ARC
  5
1454BB
  8
OBJECT
 10
8083.0
 20
-141.0000000000048
 30
0.0
 40
3.0
 50
0.0
 51
90.0
1001
ACDBBLOCKREPETAG
1070
     1
1071
      343
1005
1454BB
  0
LINE
  5
1454BC
  8
OBJECT
 10
8086.0
 20
-141.0000000000048
 30
0.0
 11
8086.0
 21
-259.00000000000477
 31
0.0
1001
ACDBBLOCKREPETAG
1070
     1
1071
      344
1005
1454BC
  0
LINE
  5
1454BD
  8
HIDDEN
 10
8194.5000000000036
 20
-142.00000000000469
 30
0.0
 11
8105.5000000000036
 21
-142.00000000000469
 31
0.0
1001
ACDBBLOCKREPETAG
1070
     1
1071
      345
1005
1454BD
  0
LINE
  5
1454BE
  8
OBJECT
 10
8095.5000212374462
 20
-150.00004086387091
 30
0.0
 11
8204.5000212374507
 21
-150.00004086387091
 31
0.0
1001
ACDBBLOCKREPETAG
1070
     1
1071
      347
1005
1454BE
  0
LINE
  5
1454BF
  8
CENTER
 10
8150.0
 20
-247.2436941260323
 30
0.0
 11
8150.0
 21
-75.000000000004775
 31
0.0
1001
ACDBBLOCKREPETAG
1070
     1
1071
      348
1005
1454BF
  0
ARC
  5
1454C0
  8
CENTER
 10
8098.0
 20
-148.00000000000111
 30
0.0
 40
52.0
 50
270.0
 51
0.0
1001
ACDBBLOCKREPETAG
1070
     1
1071
      349
1005
1454C0
  0
ARC
  5
1454C1
  8
OBJECT
 10
8092.4999999999973
 20
-150.00000000000111
 30
0.0
 40
3.0
 50
270.0
 51
0.0
1001
ACDBBLOCKREPETAG
1070
     1
1071
      350
1005
1454C1
  0
ARC
  5
1454C2
  8
OBJECT
 10
8098.0
 20
-148.00000000000111
 30
0.0
 40
99.0
 50
270.0
 51
358.84240710281
1001
ACDBBLOCKREPETAG
1070
     1
1071
      351
1005
1454C2
  0
LINE
  5
1454C3
  8
OBJECT
 10
7923.0
 20
-571.0
 30
0.0
 11
7923.0
 21
-550.0
 31
0.0
1001
ACDBBLOCKREPETAG
1070
     1
1071
        0
1005
1454C3
  0
LINE
  5
1454C4
  8
OBJECT
 10
7923.0
 20
-550.0
 30
0.0
 11
8077.0
 21
-550.0
 31
0.0
1001
ACDBBLOCKREPETAG
1070
     1
1071
        1
1005
1454C4
  0
LINE
  5
1454C5
  8
HIDDEN
 10
7943.0
 20
-620.0
 30
0.0
 11
8057.0
 21
-620.0
 31
0.0
1001
ACDBBLOCKREPETAG
1070
     1
1071
        2
1005
1454C5
  0
LINE
  5
1454C6
  8
OBJECT
 10
8077.0
 20
-550.0
 30
0.0
 11
8077.0
 21
-571.0
 31
0.0
1001
ACDBBLOCKREPETAG
1070
     1
1071
        3
1005
1454C6
  0
LINE
  5
1454C7
  8
OBJECT
 10
8077.0
 20
-571.0
 30
0.0
 11
7923.0
 21
-571.0
 31
0.0
1001
ACDBBLOCKREPETAG
1070
     1
1071
        4
1005
1454C7
  0
LINE
  5
1454C8
  8
CENTER
 10
8000.0
 20
-535.0
 30
0.0
 11
8000.0
 21
-770.0
 31
0.0
1001
ACDBBLOCKREPETAG
1070
     1
1071
        5
1005
1454C8
  0
LINE
  5
1454C9
  8
OBJECT
 10
7925.0
 20
-634.0
 30
0.0
 11
7925.0
 21
-758.0
 31
0.0
1001
ACDBBLOCKREPETAG
1070
     1
1071
        6
1005
1454C9
  0
LINE
  5
1454CA
  8
OBJECT
 10
7928.0
 20
-571.0
 30
0.0
 11
7928.0
 21
-634.0
 31
0.0
1001
ACDBBLOCKREPETAG
1070
     1
1071
        7
1005
1454CA
  0
LINE
  5
1454CB
  8
OBJECT
 10
8072.0
 20
-634.0
 30
0.0
 11
8072.0
 21
-571.0
 31
0.0
1001
ACDBBLOCKREPETAG
1070
     1
1071
        8
1005
1454CB
  0
LINE
  5
1454CC
  8
OBJECT
 10
7920.0
 20
-758.0
 30
0.0
 11
8080.0
 21
-758.0
 31
0.0
1001
ACDBBLOCKREPETAG
1070
     1
1071
        9
1005
1454CC
  0
LINE
  5
1454CD
  8
OBJECT
 10
8080.0
 20
-634.0
 30
0.0
 11
7925.0
 21
-634.0
 31
0.0
1001
ACDBBLOCKREPETAG
1070
     1
1071
       10
1005
1454CD
  0
LINE
  5
1454CE
  8
OBJECT
 10
7920.0
 20
-758.0
 30
0.0
 11
7920.0
 21
-770.0
 31
0.0
1001
ACDBBLOCKREPETAG
1070
     1
1071
       11
1005
1454CE
  0
LINE
  5
1454CF
  8
OBJECT
 10
7920.0
 20
-770.0
 30
0.0
 11
8080.0
 21
-770.0
 31
0.0
1001
ACDBBLOCKREPETAG
1070
     1
1071
       12
1005
1454CF
  0
LINE
  5
1454D0
  8
OBJECT
 10
8080.0
 20
-770.0
 30
0.0
 11
8080.0
 21
-758.0
 31
0.0
1001
ACDBBLOCKREPETAG
1070
     1
1071
       13
1005
1454D0
  0
ARC
  5
1454D1
  8
OBJECT
 10
8200.6872746716726
 20
-749.40809941010752
 30
0.0
 40
170.6350503965856
 50
137.44134459184301
 51
149.91949581337221
1001
ACDBBLOCKREPETAG
1070
     1
1071
       15
1005
1454D1
  0
ARC
  5
1454D2
  8
OBJECT
 10
8118.8455987040506
 20
-705.88272669536479
 30
0.0
 40
78.072222021763665
 50
147.4551531037684
 51
164.66365997718671
1001
ACDBBLOCKREPETAG
1070
     1
1071
       16
1005
1454D2
  0
ARC
  5
1454D3
  8
OBJECT
 10
8085.7554349608708
 20
-696.0
 30
0.0
 40
43.55353926885617
 50
165.6884523008477
 51
194.3115476991523
1001
ACDBBLOCKREPETAG
1070
     1
1071
       17
1005
1454D3
  0
ARC
  5
1454D4
  8
OBJECT
 10
8200.6872746716726
 20
-642.59190058989225
 30
0.0
 40
170.6350503965856
 50
210.08050418662771
 51
222.55865540815699
1001
ACDBBLOCKREPETAG
1070
     1
1071
       18
1005
1454D4
  0
ARC
  5
1454D5
  8
OBJECT
 10
8118.8455987040506
 20
-686.11727330463521
 30
0.0
 40
78.072222021763665
 50
195.3363400228132
 51
212.5448468962316
1001
ACDBBLOCKREPETAG
1070
     1
1071
       19
1005
1454D5
  0
POINT
  5
1454D6
  8
DOTS
 10
8000.0
 20
-755.0
 30
0.0
1001
ACDBBLOCKREPETAG
1070
     1
1071
      186
1005
1454D6
  0
ARC
  5
1454D7
  8
OBJECT
 10
8000.0
 20
-200.0000000000048
 30
0.0
 40
50.0
 50
298.81994300000417
 51
228.52376955964741
1001
ACDBBLOCKREPETAG
1070
     1
1071
      185
1005
1454D7
  0
LINE
  5
1454D8
  8
SLIM
 10
7927.3018300565236
 20
-155.9548403695826
 30
0.0
 11
7955.9548403695781
 21
-127.301830056528
 31
0.0
1001
GRADIENTCOLOR1ACI
1070
     5
1001
GRADIENTCOLOR2ACI
1070
     2
1001
ACAD
1010
0.0
1020
0.0
1030
0.0
1001
ACDBBLOCKREPETAG
1070
     1
1071
      442
1005
1454D8
  0
LINE
  5
1454D9
  8
SLIM
 10
7919.4861520708373
 20
-172.7507744763376
 30
0.0
 11
7938.2903089572737
 21
-153.94661758990219
 31
0.0
1001
GRADIENTCOLOR1ACI
1070
     5
1001
GRADIENTCOLOR2ACI
1070
     2
1001
ACAD
1010
0.0
1020
0.0
1030
0.0
1001
ACDBBLOCKREPETAG
1070
     1
1071
      443
1005
1454D9
  0
LINE
  5
1454DA
  8
SLIM
 10
7953.9466175898988
 20
-138.2903089572774
 30
0.0
 11
7972.7507744763334
 21
-119.4861520708421
 31
0.0
1001
GRADIENTCOLOR1ACI
1070
     5
1001
GRADIENTCOLOR2ACI
1070
     2
1001
ACAD
1010
0.0
1020
0.0
1030
0.0
1001
ACDBBLOCKREPETAG
1070
     1
1071
      444
1005
1454DA
  0
LINE
  5
1454DB
  8
SLIM
 10
7916.3596679933771
 20
-184.85751467486611
 30
0.0
 11
7927.6959583557828
 21
-173.5212243124619
 31
0.0
1001
GRADIENTCOLOR1ACI
1070
     5
1001
GRADIENTCOLOR2ACI
1070
     2
1001
ACAD
1010
0.0
1020
0.0
1030
0.0
1001
ACDBBLOCKREPETAG
1070
     1
1071
      445
1005
1454DB
  0
LINE
  5
1454DC
  8
SLIM
 10
7973.5212243124561
 20
-127.6959583557869
 30
0.0
 11
7984.8575146748608
 21
-116.3596679933827
 31
0.0
1001
GRADIENTCOLOR1ACI
1070
     5
1001
GRADIENTCOLOR2ACI
1070
     2
1001
ACAD
1010
0.0
1020
0.0
1030
0.0
1001
ACDBBLOCKREPETAG
1070
     1
1071
      446
1005
1454DC
  0
LINE
  5
1454DD
  8
SLIM
 10
7915.1440575890529
 20
-195.0533812002607
 30
0.0
 11
7924.3030216431825
 21
-185.89441714613071
 31
0.0
1001
GRADIENTCOLOR1ACI
1070
     5
1001
GRADIENTCOLOR2ACI
1070
     2
1001
ACAD
1010
0.0
1020
0.0
1030
0.0
1001
ACDBBLOCKREPETAG
1070
     1
1071
      447
1005
1454DD
  0
LINE
  5
1454DE
  8
SLIM
 10
7985.8944171461262
 20
-124.30302164318719
 30
0.0
 11
7995.0533812002559
 21
-115.1440575890574
 31
0.0
1001
GRADIENTCOLOR1ACI
1070
     5
1001
GRADIENTCOLOR2ACI
1070
     2
1001
ACAD
1010
0.0
1020
0.0
1030
0.0
1001
ACDBBLOCKREPETAG
1070
     1
1071
      448
1005
1454DE
  0
LINE
  5
1454DF
  8
SLIM
 10
7915.097963557474
 20
-204.07973135290911
 30
0.0
 11
7919.1776949103778
 21
-200.0000000000048
 31
0.0
1001
GRADIENTCOLOR1ACI
1070
     5
1001
GRADIENTCOLOR2ACI
1070
     2
1001
ACAD
1010
0.0
1020
0.0
1030
0.0
1001
ACDBBLOCKREPETAG
1070
     1
1071
      449
1005
1454DF
  0
LINE
  5
1454E0
  8
SLIM
 10
8000.0
 20
-119.1776949103824
 30
0.0
 11
8004.0797313529074
 21
-115.0979635574781
 31
0.0
1001
GRADIENTCOLOR1ACI
1070
     5
1001
GRADIENTCOLOR2ACI
1070
     2
1001
ACAD
1010
0.0
1020
0.0
1030
0.0
1001
ACDBBLOCKREPETAG
1070
     1
1071
      450
1005
1454E0
  0
LINE
  5
1454E1
  8
SLIM
 10
7919.1776949103778
 20
-200.0000000000048
 30
0.0
 11
7923.0999621611709
 21
-196.07773274921149
 31
0.0
1001
GRADIENTCOLOR1ACI
1070
     5
1001
GRADIENTCOLOR2ACI
1070
     2
1001
ACAD
1010
0.0
1020
0.0
1030
0.0
1001
ACDBBLOCKREPETAG
1070
     1
1071
      451
1005
1454E1
  0
LINE
  5
1454E2
  8
SLIM
 10
7996.077732749206
 20
-123.0999621611756
 30
0.0
 11
8000.0
 21
-119.1776949103824
 31
0.0
1001
GRADIENTCOLOR1ACI
1070
     5
1001
GRADIENTCOLOR2ACI
1070
     2
1001
ACAD
1010
0.0
1020
0.0
1030
0.0
1001
ACDBBLOCKREPETAG
1070
     1
1071
      452
1005
1454E2
  0
LINE
  5
1454E3
  8
SLIM
 10
7915.889972620871
 20
-212.26797841057959
 30
0.0
 11
7923.1622307771704
 21
-204.9957202542823
 31
0.0
1001
GRADIENTCOLOR1ACI
1070
     5
1001
GRADIENTCOLOR2ACI
1070
     2
1001
ACAD
1010
0.0
1020
0.0
1030
0.0
1001
ACDBBLOCKREPETAG
1070
     1
1071
      453
1005
1454E3
  0
LINE
  5
1454E4
  8
SLIM
 10
8004.9957202542737
 20
-123.162230777174
 30
0.0
 11
8012.2679784105749
 21
-115.8899726208767
 31
0.0
1001
GRADIENTCOLOR1ACI
1070
     5
1001
GRADIENTCOLOR2ACI
1070
     2
1001
ACAD
1010
0.0
1020
0.0
1030
0.0
1001
ACDBBLOCKREPETAG
1070
     1
1071
      454
1005
1454E4
  0
LINE
  5
1454E5
  8
SLIM
 10
7917.3382656951526
 20
-219.7999414573672
 30
0.0
 11
7924.1101477855518
 21
-213.0280593669693
 31
0.0
1001
GRADIENTCOLOR1ACI
1070
     5
1001
GRADIENTCOLOR2ACI
1070
     2
1001
ACAD
1010
0.0
1020
0.0
1030
0.0
1001
ACDBBLOCKREPETAG
1070
     1
1071
      455
1005
1454E5
  0
LINE
  5
1454E6
  8
SLIM
 10
8013.028059366964
 20
-124.11014778555619
 30
0.0
 11
8019.7999414573624
 21
-117.3382656951583
 31
0.0
1001
GRADIENTCOLOR1ACI
1070
     5
1001
GRADIENTCOLOR2ACI
1070
     2
1001
ACAD
1010
0.0
1020
0.0
1030
0.0
1001
ACDBBLOCKREPETAG
1070
     1
1071
      456
1005
1454E6
  0
LINE
  5
1454E7
  8
SLIM
 10
7919.3312594063054
 20
-226.78720386728449
 30
0.0
 11
7925.74438195934
 21
-220.37408131425059
 31
0.0
1001
GRADIENTCOLOR1ACI
1070
     5
1001
GRADIENTCOLOR2ACI
1070
     2
1001
ACAD
1010
0.0
1020
0.0
1030
0.0
1001
ACDBBLOCKREPETAG
1070
     1
1071
      457
1005
1454E7
  0
LINE
  5
1454E8
  8
SLIM
 10
8020.3740813142458
 20
-125.7443819593441
 30
0.0
 11
8026.7872038672767
 21
-119.3312594063101
 31
0.0
1001
GRADIENTCOLOR1ACI
1070
     5
1001
GRADIENTCOLOR2ACI
1070
     2
1001
ACAD
1010
0.0
1020
0.0
1030
0.0
1001
ACDBBLOCKREPETAG
1070
     1
1071
      458
1005
1454E8
  0
LINE
  5
1454E9
  8
SLIM
 10
7921.7957163186193
 20
-233.30300307603861
 30
0.0
 11
7927.9462473957792
 21
-227.15247199888
 31
0.0
1001
GRADIENTCOLOR1ACI
1070
     5
1001
GRADIENTCOLOR2ACI
1070
     2
1001
ACAD
1010
0.0
1020
0.0
1030
0.0
1001
ACDBBLOCKREPETAG
1070
     1
1071
      459
1005
1454E9
  0
LINE
  5
1454EA
  8
SLIM
 10
8027.1524719988738
 20
-127.9462473957837
 30
0.0
 11
8033.3030030760328
 21
-121.7957163186252
 31
0.0
1001
GRADIENTCOLOR1ACI
1070
     5
1001
GRADIENTCOLOR2ACI
1070
     2
1001
ACAD
1010
0.0
1020
0.0
1030
0.0
1001
ACDBBLOCKREPETAG
1070
     1
1071
      460
1005
1454EA
  0
LINE
  5
1454EB
  8
SLIM
 10
7924.6816635313462
 20
-239.39731198438321
 30
0.0
 11
7930.639876864393
 21
-233.43909865133531
 31
0.0
1001
GRADIENTCOLOR1ACI
1070
     5
1001
GRADIENTCOLOR2ACI
1070
     2
1001
ACAD
1010
0.0
1020
0.0
1030
0.0
1001
ACDBBLOCKREPETAG
1070
     1
1071
      461
1005
1454EB
  0
LINE
  5
1454EC
  8
SLIM
 10
8033.4390986513308
 20
-130.63987686439771
 30
0.0
 11
8039.3973119843777
 21
-124.6816635313496
 31
0.0
1001
GRADIENTCOLOR1ACI
1070
     5
1001
GRADIENTCOLOR2ACI
1070
     2
1001
ACAD
1010
0.0
1020
0.0
1030
0.0
1001
ACDBBLOCKREPETAG
1070
     1
1071
      462
1005
1454EC
  0
LINE
  5
1454ED
  8
SLIM
 10
7927.9544611024266
 20
-245.10477053437259
 30
0.0
 11
7933.7750070149932
 21
-239.28422462180319
 31
0.0
1001
GRADIENTCOLOR1ACI
1070
     5
1001
GRADIENTCOLOR2ACI
1070
     2
1001
ACAD
1010
0.0
1020
0.0
1030
0.0
1001
ACDBBLOCKREPETAG
1070
     1
1071
      463
1005
1454ED
  0
LINE
  5
1454EE
  8
SLIM
 10
8039.2842246217979
 20
-133.77500701499881
 30
0.0
 11
8045.1047705343699
 21
-127.95446110242951
 31
0.0
1001
GRADIENTCOLOR1ACI
1070
     5
1001
GRADIENTCOLOR2ACI
1070
     2
1001
ACAD
1010
0.0
1020
0.0
1030
0.0
1001
ACDBBLOCKREPETAG
1070
     1
1071
      464
1005
1454EE
  0
LINE
  5
1454EF
  8
SLIM
 10
7931.5903319686649
 20
-250.44915578920109
 30
0.0
 11
7937.3182075880577
 21
-244.72128016980901
 31
0.0
1001
GRADIENTCOLOR1ACI
1070
     5
1001
GRADIENTCOLOR2ACI
1070
     2
1001
ACAD
1010
0.0
1020
0.0
1030
0.0
1001
ACDBBLOCKREPETAG
1070
     1
1071
      465
1005
1454EF
  0
LINE
  5
1454F0
  8
SLIM
 10
8044.7212801698061
 20
-137.31820758806219
 30
0.0
 11
8050.449155789197
 21
-131.5903319686702
 31
0.0
1001
GRADIENTCOLOR1ACI
1070
     5
1001
GRADIENTCOLOR2ACI
1070
     2
1001
ACAD
1010
0.0
1020
0.0
1030
0.0
1001
ACDBBLOCKREPETAG
1070
     1
1071
      466
1005
1454F0
  0
LINE
  5
1454F1
  8
SLIM
 10
7935.5737496925258
 20
-255.44599418640911
 30
0.0
 11
7941.24811054159
 21
-249.771633337346
 31
0.0
1001
GRADIENTCOLOR1ACI
1070
     5
1001
GRADIENTCOLOR2ACI
1070
     2
1001
ACAD
1010
0.0
1020
0.0
1030
0.0
1001
ACDBBLOCKREPETAG
1070
     1
1071
      467
1005
1454F1
  0
LINE
  5
1454F2
  8
SLIM
 10
8053.0197438789319
 20
-138.0000000000048
 30
0.0
 11
8055.4459941864034
 21
-135.57374969253129
 31
0.0
1001
GRADIENTCOLOR1ACI
1070
     5
1001
GRADIENTCOLOR2ACI
1070
     2
1001
ACAD
1010
0.0
1020
0.0
1030
0.0
1001
ACDBBLOCKREPETAG
1070
     1
1071
      468
1005
1454F2
  0
LINE
  5
1454F3
  8
SLIM
 10
7939.8959235991442
 20
-260.10407640086129
 30
0.0
 11
7945.5527778486357
 21
-254.44722215136889
 31
0.0
1001
GRADIENTCOLOR1ACI
1070
     5
1001
GRADIENTCOLOR2ACI
1070
     2
1001
ACAD
1010
0.0
1020
0.0
1030
0.0
1001
ACDBBLOCKREPETAG
1070
     1
1071
      469
1005
1454F3
  0
LINE
  5
1454F4
  8
SLIM
 10
7944.5540058135948
 20
-264.4262503074782
 30
0.0
 11
7950.2283666626608
 21
-258.75188945841512
 31
0.0
1001
GRADIENTCOLOR1ACI
1070
     5
1001
GRADIENTCOLOR2ACI
1070
     2
1001
ACAD
1010
0.0
1020
0.0
1030
0.0
1001
ACDBBLOCKREPETAG
1070
     1
1071
      470
1005
1454F4
  0
LINE
  5
1454F5
  8
SLIM
 10
7949.5508442108039
 20
-268.40966803133938
 30
0.0
 11
7955.2787198301958
 21
-262.68179241194741
 31
0.0
1001
GRADIENTCOLOR1ACI
1070
     5
1001
GRADIENTCOLOR2ACI
1070
     2
1001
ACAD
1010
0.0
1020
0.0
1030
0.0
1001
ACDBBLOCKREPETAG
1070
     1
1071
      471
1005
1454F5
  0
LINE
  5
1454F6
  8
SLIM
 10
7954.895229465631
 20
-272.04553889758012
 30
0.0
 11
7960.7157753782021
 21
-266.22499298501072
 31
0.0
1001
GRADIENTCOLOR1ACI
1070
     5
1001
GRADIENTCOLOR2ACI
1070
     2
1001
ACAD
1010
0.0
1020
0.0
1030
0.0
1001
ACDBBLOCKREPETAG
1070
     1
1071
      472
1005
1454F6
  0
LINE
  5
1454F7
  8
SLIM
 10
7960.6026880156223
 20
-275.31833646865988
 30
0.0
 11
7966.5609013486683
 21
-269.3601231356119
 31
0.0
1001
GRADIENTCOLOR1ACI
1070
     5
1001
GRADIENTCOLOR2ACI
1070
     2
1001
ACAD
1010
0.0
1020
0.0
1030
0.0
1001
ACDBBLOCKREPETAG
1070
     1
1071
      473
1005
1454F7
  0
LINE
  5
1454F8
  8
SLIM
 10
7966.6969969239663
 20
-278.20428368138442
 30
0.0
 11
7972.8475280011244
 21
-272.05375260422579
 31
0.0
1001
GRADIENTCOLOR1ACI
1070
     5
1001
GRADIENTCOLOR2ACI
1070
     2
1001
ACAD
1010
0.0
1020
0.0
1030
0.0
1001
ACDBBLOCKREPETAG
1070
     1
1071
      474
1005
1454F8
  0
LINE
  5
1454F9
  8
SLIM
 10
7973.2127961327187
 20
-280.6687405936994
 30
0.0
 11
7979.6259186857542
 21
-274.25561804066552
 31
0.0
1001
GRADIENTCOLOR1ACI
1070
     5
1001
GRADIENTCOLOR2ACI
1070
     2
1001
ACAD
1010
0.0
1020
0.0
1030
0.0
1001
ACDBBLOCKREPETAG
1070
     1
1071
      475
1005
1454F9
  0
LINE
  5
1454FA
  8
SLIM
 10
7980.2000585426395
 20
-282.66173430485111
 30
0.0
 11
7986.971940633035
 21
-275.88985221445341
 31
0.0
1001
GRADIENTCOLOR1ACI
1070
     5
1001
GRADIENTCOLOR2ACI
1070
     2
1001
ACAD
1010
0.0
1020
0.0
1030
0.0
1001
ACDBBLOCKREPETAG
1070
     1
1071
      476
1005
1454FA
  0
LINE
  5
1454FB
  8
SLIM
 10
7987.732021589426
 20
-284.11002737913282
 30
0.0
 11
7995.0042797457209
 21
-276.83776922283562
 31
0.0
1001
GRADIENTCOLOR1ACI
1070
     5
1001
GRADIENTCOLOR2ACI
1070
     2
1001
ACAD
1010
0.0
1020
0.0
1030
0.0
1001
ACDBBLOCKREPETAG
1070
     1
1071
      477
1005
1454FB
  0
LINE
  5
1454FC
  8
SLIM
 10
7995.9202686470962
 20
-284.90203644253148
 30
0.0
 11
8000.0
 21
-280.82230508962709
 31
0.0
1001
GRADIENTCOLOR1ACI
1070
     5
1001
GRADIENTCOLOR2ACI
1070
     2
1001
ACAD
1010
0.0
1020
0.0
1030
0.0
1001
ACDBBLOCKREPETAG
1070
     1
1071
      478
1005
1454FC
  0
LINE
  5
1454FD
  8
SLIM
 10
8000.0
 20
-280.82230508962709
 30
0.0
 11
8003.9222672507931
 21
-276.9000378388339
 31
0.0
1001
GRADIENTCOLOR1ACI
1070
     5
1001
GRADIENTCOLOR2ACI
1070
     2
1001
ACAD
1010
0.0
1020
0.0
1030
0.0
1001
ACDBBLOCKREPETAG
1070
     1
1071
      479
1005
1454FD
  0
LINE
  5
1454FE
  8
SLIM
 10
8004.9466187997441
 20
-284.8559424109522
 30
0.0
 11
8014.1055828538756
 21
-275.69697835682223
 31
0.0
1001
GRADIENTCOLOR1ACI
1070
     5
1001
GRADIENTCOLOR2ACI
1070
     2
1001
ACAD
1010
0.0
1020
0.0
1030
0.0
1001
ACDBBLOCKREPETAG
1070
     1
1071
      480
1005
1454FE
  0
LINE
  5
1454FF
  8
SLIM
 10
8015.1424853251401
 20
-283.64033200662692
 30
0.0
 11
8026.478775687543
 21
-272.30404164422271
 31
0.0
1001
GRADIENTCOLOR1ACI
1070
     5
1001
GRADIENTCOLOR2ACI
1070
     2
1001
ACAD
1010
0.0
1020
0.0
1030
0.0
1001
ACDBBLOCKREPETAG
1070
     1
1071
      481
1005
1454FF
  0
LINE
  5
145500
  8
SLIM
 10
8027.2492255236657
 20
-280.51384792916741
 30
0.0
 11
8045.7630734528302
 21
-262.00000000000477
 31
0.0
1001
GRADIENTCOLOR1ACI
1070
     5
1001
GRADIENTCOLOR2ACI
1070
     2
1001
ACAD
1010
0.0
1020
0.0
1030
0.0
1001
ACDBBLOCKREPETAG
1070
     1
1071
      482
1005
145500
  0
LINE
  5
145501
  8
SLIM
 10
8044.045159630421
 20
-272.6981699434815
 30
0.0
 11
8054.7433295739002
 21
-262.00000000000477
 31
0.0
1001
GRADIENTCOLOR1ACI
1070
     5
1001
GRADIENTCOLOR2ACI
1070
     2
1001
ACAD
1010
0.0
1020
0.0
1030
0.0
1001
ACDBBLOCKREPETAG
1070
     1
1071
      483
1005
145501
  0
LINE
  5
145502
  8
CENTER
 10
8080.0
 20
-200.0000000000048
 30
0.0
 11
7900.0
 21
-200.0000000000048
 31
0.0
1001
ACDBBLOCKREPETAG
1070
     1
1071
      187
1005
145502
  0
LINE
  5
145503
  8
CENTER
 10
8000.0
 20
-300.00000000000477
 30
0.0
 11
8000.0
 21
-100.0000000000047
 31
0.0
1001
ACDBBLOCKREPETAG
1070
     1
1071
      188
1005
145503
  0
CIRCLE
  5
145504
  8
OBJECT
 10
8000.0
 20
-200.0000000000048
 30
0.0
 40
70.0
1001
ACDBBLOCKREPETAG
1070
     1
1071
      189
1005
145504
  0
CIRCLE
  5
145505
  8
OBJECT
 10
8000.0
 20
-200.0000000000048
 30
0.0
 40
77.0
1001
ACDBBLOCKREPETAG
1070
     1
1071
      190
1005
145505
  0
LINE
  5
145506
  8
OBJECT
 10
8045.6618002273271
 20
-138.0000000000048
 30
0.0
 11
8080.0
 21
-138.0000000000048
 31
0.0
1001
ACDBBLOCKREPETAG
1070
     1
1071
      192
1005
145506
  0
LINE
  5
145507
  8
OBJECT
 10
8045.6618002273271
 20
-262.00000000000477
 30
0.0
 11
8080.0
 21
-262.00000000000477
 31
0.0
1001
ACDBBLOCKREPETAG
1070
     1
1071
      193
1005
145507
  0
ARC
  5
145508
  8
OBJECT
 10
8000.0
 20
-200.0000000000048
 30
0.0
 40
85.0
 50
46.83710285981514
 51
313.16289714018478
1001
ACDBBLOCKREPETAG
1070
     1
1071
      202
1005
145508
  0
LINE
  5
145509
  8
OBJECT
 10
8024.1029330933006
 20
-243.80694712372249
 30
0.0
 11
8020.6596569999974
 21
-232.5546220000044
 31
0.0
1001
ACDBBLOCKREPETAG
1070
     1
1071
      321
1005
145509
  0
LINE
  5
14550A
  8
OBJECT
 10
7986.7927499013749
 20
-218.2255337420859
 30
0.0
 11
8020.6596569999974
 21
-232.55462200000261
 31
0.0
1001
ACDBBLOCKREPETAG
1070
     1
1071
      323
1005
14550A
  0
ARC
  5
14550B
  8
OBJECT
 10
7982.8961697618997
 20
-227.43512999906241
 30
0.0
 40
10.0
 50
67.066778292911366
 51
154.0147343702935
1001
ACDBBLOCKREPETAG
1070
     1
1071
      324
1005
14550B
  0
ARC
  5
14550C
  8
OBJECT
 10
7986.1488390381273
 20
-225.5538625672973
 30
0.0
 40
7.0
 50
67.066778292911366
 51
154.0147337749826
1001
ACDBBLOCKREPETAG
1070
     1
1071
      325
1005
14550C
  0
LINE
  5
14550D
  8
OBJECT
 10
7969.4199755553009
 20
-243.89888500818731
 30
0.0
 11
7979.8564918232369
 21
-222.48688253357361
 31
0.0
1001
ACDBBLOCKREPETAG
1070
     1
1071
      353
1005
14550D
  0
LINE
  5
14550E
  8
OBJECT
 10
7965.2972169006098
 20
-240.718139018833
 30
0.0
 11
7973.9071022665084
 21
-223.0537300443132
 31
0.0
1001
ACDBBLOCKREPETAG
1070
     1
1071
      354
1005
14550E
  0
ARC
  5
14550F
  8
OBJECT
 10
7976.5796953073141
 20
-207.12893698284941
 30
0.0
 40
60.031113246032611
 50
314.07020130418567
 51
322.33936106089681
1001
ACDBBLOCKREPETAG
1070
     1
1071
      355
1005
14550F
  0
CIRCLE
  5
145510
  8
OBJECT
 10
8000.0
 20
-200.0000000000048
 30
0.0
 40
53.5
1001
ACDBBLOCKREPETAG
1070
     1
1071
      356
1005
145510
  0
POINT
  5
145511
  8
DOTS
 10
8000.0
 20
-200.0000000000048
 30
0.0
 50
270.0
1001
ACDBBLOCKREPETAG
1070
     1
1071
      365
1005
145511
  0
LINE
  5
145512
  8
CENTER
 10
6227.0
 20
-696.0
 30
0.0
 11
6071.0
 21
-696.0
 31
0.0
1001
ACDBBLOCKREPETAG
1070
     1
1071
      287
1005
145512
  0
LINE
  5
145513
  8
OBJECT
 10
6150.0
 20
-743.0
 30
0.0
 11
6086.0000000000018
 21
-743.0
 31
0.0
1001
ACDBBLOCKREPETAG
1070
     1
1071
      288
1005
145513
  0
LINE
  5
145514
  8
OBJECT
 10
6083.0
 20
-634.0
 30
0.0
 11
6080.0
 21
-634.0
 31
0.0
1001
ACDBBLOCKREPETAG
1070
     1
1071
      289
1005
145514
  0
LINE
  5
145515
  8
OBJECT
 10
6150.0
 20
-649.0
 30
0.0
 11
6086.0000000000018
 21
-649.0
 31
0.0
1001
ACDBBLOCKREPETAG
1070
     1
1071
      290
1005
145515
  0
ARC
  5
145516
  8
OBJECT
 10
6083.0
 20
-637.0
 30
0.0
 40
3.0
 50
0.0
 51
90.0
1001
ACDBBLOCKREPETAG
1070
     1
1071
      291
1005
145516
  0
LINE
  5
145517
  8
OBJECT
 10
6080.0
 20
-758.0
 30
0.0
 11
6083.0
 21
-758.0
 31
0.0
1001
ACDBBLOCKREPETAG
1070
     1
1071
      292
1005
145517
  0
ARC
  5
145518
  8
OBJECT
 10
6083.0
 20
-755.0
 30
0.0
 40
3.0
 50
270.0
 51
0.0
1001
ACDBBLOCKREPETAG
1070
     1
1071
      293
1005
145518
  0
LINE
  5
145519
  8
OBJECT
 10
6086.0
 20
-755.0
 30
0.0
 11
6086.0
 21
-637.0
 31
0.0
1001
ACDBBLOCKREPETAG
1070
     1
1071
      294
1005
145519
  0
ARC
  5
14551A
  8
OBJECT
 10
6150.0
 20
-696.0
 30
0.0
 40
62.0
 50
229.293865732211
 51
252.10344887079279
1001
ACDBBLOCKREPETAG
1070
     1
1071
      296
1005
14551A
  0
ARC
  5
14551B
  8
OBJECT
 10
6150.0
 20
-696.0
 30
0.0
 40
62.0
 50
287.89655112920718
 51
130.70613426778891
1001
ACDBBLOCKREPETAG
1070
     1
1071
      297
1005
14551B
  0
LINE
  5
14551C
  8
OBJECT
 10
6130.947441116743
 20
-755.0
 30
0.0
 11
6169.052558883257
 21
-755.0
 31
0.0
1001
ACDBBLOCKREPETAG
1070
     1
1071
      298
1005
14551C
  0
LINE
  5
14551D
  8
CENTER
 10
6150.0
 20
-770.0
 30
0.0
 11
6150.0
 21
-619.0
 31
0.0
1001
ACDBBLOCKREPETAG
1070
     1
1071
      299
1005
14551D
  0
ARC
  5
14551E
  8
OBJECT
 10
6150.0
 20
-696.0
 30
0.0
 40
54.5
 50
239.58547089840889
 51
120.414529101591
1001
ACDBBLOCKREPETAG
1070
     1
1071
      300
1005
14551E
  0
ARC
  5
14551F
  8
OBJECT
 10
6150.0
 20
-696.0
 30
0.0
 40
47.0
 50
270.0
 51
90.0
1001
ACDBBLOCKREPETAG
1070
     1
1071
      301
1005
14551F
  0
ARC
  5
145520
  8
OBJECT
 10
6150.0
 20
-696.0
 30
0.0
 40
59.0
 50
232.80760582085091
 51
127.19239417914901
1001
ACDBBLOCKREPETAG
1070
     1
1071
      302
1005
145520
  0
LINE
  5
145521
  8
OBJECT
 10
6212.0
 20
-97.000000000004775
 30
0.0
 11
6212.0
 21
-90.000000000004775
 31
0.0
1001
ACDBBLOCKREPETAG
1070
     1
1071
      325
1005
145521
  0
LINE
  5
145522
  8
OBJECT
 10
6212.0
 20
-90.000000000004775
 30
0.0
 11
6088.0
 21
-90.000000000004775
 31
0.0
1001
ACDBBLOCKREPETAG
1070
     1
1071
      326
1005
145522
  0
LINE
  5
145523
  8
OBJECT
 10
6088.0
 20
-90.000000000004775
 30
0.0
 11
6088.0
 21
-97.000000000004775
 31
0.0
1001
ACDBBLOCKREPETAG
1070
     1
1071
      327
1005
145523
  0
LINE
  5
145524
  8
OBJECT
 10
6088.0
 20
-97.000000000004775
 30
0.0
 11
6212.0
 21
-97.000000000004775
 31
0.0
1001
ACDBBLOCKREPETAG
1070
     1
1071
      328
1005
145524
  0
LINE
  5
145525
  8
CENTER
 10
6197.2436941260312
 20
-200.00000000000111
 30
0.0
 11
6080.0
 21
-200.0000000000048
 31
0.0
1001
ACDBBLOCKREPETAG
1070
     1
1071
      329
1005
145525
  0
LINE
  5
145526
  8
OBJECT
 10
6092.5000000000009
 20
-153.00000000000111
 30
0.0
 11
6086.0
 21
-153.00000000000111
 31
0.0
1001
ACDBBLOCKREPETAG
1070
     1
1071
      330
1005
145526
  0
LINE
  5
145527
  8
OBJECT
 10
6098.0
 20
-247.00000000000111
 30
0.0
 11
6086.0
 21
-247.0000000000048
 31
0.0
1001
ACDBBLOCKREPETAG
1070
     1
1071
      331
1005
145527
  0
LINE
  5
145528
  8
OBJECT
 10
6209.0
 20
-97.000000000004775
 30
0.0
 11
6209.0
 21
-133.0000000000048
 31
0.0
1001
ACDBBLOCKREPETAG
1070
     1
1071
      332
1005
145528
  0
LINE
  5
145529
  8
OBJECT
 10
6209.0
 20
-133.0000000000048
 30
0.0
 11
6091.0
 21
-133.0000000000048
 31
0.0
1001
ACDBBLOCKREPETAG
1070
     1
1071
      333
1005
145529
  0
LINE
  5
14552A
  8
OBJECT
 10
6091.0
 20
-133.0000000000048
 30
0.0
 11
6091.0
 21
-97.000000000004775
 31
0.0
1001
ACDBBLOCKREPETAG
1070
     1
1071
      334
1005
14552A
  0
LINE
  5
14552B
  8
OBJECT
 10
6204.5
 20
-137.0000000000048
 30
0.0
 11
6204.5
 21
-150.00000000000469
 31
0.0
1001
ACDBBLOCKREPETAG
1070
     1
1071
      335
1005
14552B
  0
LINE
  5
14552C
  8
OBJECT
 10
6095.5
 20
-150.00000000000469
 30
0.0
 11
6095.5
 21
-137.0000000000048
 31
0.0
1001
ACDBBLOCKREPETAG
1070
     1
1071
      336
1005
14552C
  0
LINE
  5
14552D
  8
OBJECT
 10
6095.5
 20
-137.0000000000048
 30
0.0
 11
6204.5
 21
-137.0000000000048
 31
0.0
1001
ACDBBLOCKREPETAG
1070
     1
1071
      337
1005
14552D
  0
LINE
  5
14552E
  8
OBJECT
 10
6209.0
 20
-133.0000000000048
 30
0.0
 11
6204.5
 21
-137.0000000000048
 31
0.0
1001
ACDBBLOCKREPETAG
1070
     1
1071
      338
1005
14552E
  0
LINE
  5
14552F
  8
OBJECT
 10
6091.0
 20
-133.0000000000048
 30
0.0
 11
6095.5
 21
-137.0000000000048
 31
0.0
1001
ACDBBLOCKREPETAG
1070
     1
1071
      339
1005
14552F
  0
LINE
  5
145530
  8
OBJECT
 10
6083.0
 20
-262.00000000000477
 30
0.0
 11
6080.0
 21
-262.00000000000477
 31
0.0
1001
ACDBBLOCKREPETAG
1070
     1
1071
      340
1005
145530
  0
ARC
  5
145531
  8
OBJECT
 10
6083.0
 20
-259.00000000000477
 30
0.0
 40
3.0
 50
270.0
 51
0.0
1001
ACDBBLOCKREPETAG
1070
     1
1071
      341
1005
145531
  0
LINE
  5
145532
  8
OBJECT
 10
6080.0
 20
-138.0000000000048
 30
0.0
 11
6095.5
 21
-138.0000000000048
 31
0.0
1001
ACDBBLOCKREPETAG
1070
     1
1071
      342
1005
145532
  0
ARC
  5
145533
  8
OBJECT
 10
6083.0
 20
-141.0000000000048
 30
0.0
 40
3.0
 50
0.0
 51
90.0
1001
ACDBBLOCKREPETAG
1070
     1
1071
      343
1005
145533
  0
LINE
  5
145534
  8
OBJECT
 10
6086.0
 20
-141.0000000000048
 30
0.0
 11
6086.0
 21
-259.00000000000477
 31
0.0
1001
ACDBBLOCKREPETAG
1070
     1
1071
      344
1005
145534
  0
LINE
  5
145535
  8
HIDDEN
 10
6194.5
 20
-142.00000000000469
 30
0.0
 11
6105.5
 21
-142.00000000000469
 31
0.0
1001
ACDBBLOCKREPETAG
1070
     1
1071
      345
1005
145535
  0
LINE
  5
145536
  8
OBJECT
 10
6095.5000212374471
 20
-150.00004086387091
 30
0.0
 11
6204.5000212374471
 21
-150.00004086387091
 31
0.0
1001
ACDBBLOCKREPETAG
1070
     1
1071
      347
1005
145536
  0
LINE
  5
145537
  8
CENTER
 10
6150.0
 20
-247.2436941260323
 30
0.0
 11
6150.0
 21
-75.000000000004775
 31
0.0
1001
ACDBBLOCKREPETAG
1070
     1
1071
      348
1005
145537
  0
ARC
  5
145538
  8
CENTER
 10
6098.0
 20
-148.00000000000111
 30
0.0
 40
52.0
 50
270.0
 51
0.0
1001
ACDBBLOCKREPETAG
1070
     1
1071
      349
1005
145538
  0
ARC
  5
145539
  8
OBJECT
 10
6092.5000000000009
 20
-150.00000000000111
 30
0.0
 40
3.0
 50
270.0
 51
0.0
1001
ACDBBLOCKREPETAG
1070
     1
1071
      350
1005
145539
  0
ARC
  5
14553A
  8
OBJECT
 10
6098.0
 20
-148.00000000000111
 30
0.0
 40
99.0
 50
270.0
 51
358.84240710281
1001
ACDBBLOCKREPETAG
1070
     1
1071
      351
1005
14553A
  0
LINE
  5
14553B
  8
OBJECT
 10
5923.0
 20
-571.0
 30
0.0
 11
5923.0
 21
-550.0
 31
0.0
1001
ACDBBLOCKREPETAG
1070
     1
1071
        0
1005
14553B
  0
LINE
  5
14553C
  8
OBJECT
 10
5923.0
 20
-550.0
 30
0.0
 11
6077.0
 21
-550.0
 31
0.0
1001
ACDBBLOCKREPETAG
1070
     1
1071
        1
1005
14553C
  0
LINE
  5
14553D
  8
HIDDEN
 10
5943.0
 20
-620.0
 30
0.0
 11
6057.0
 21
-620.0
 31
0.0
1001
ACDBBLOCKREPETAG
1070
     1
1071
        2
1005
14553D
  0
LINE
  5
14553E
  8
OBJECT
 10
6077.0
 20
-550.0
 30
0.0
 11
6077.0
 21
-571.0
 31
0.0
1001
ACDBBLOCKREPETAG
1070
     1
1071
        3
1005
14553E
  0
LINE
  5
14553F
  8
OBJECT
 10
6077.0
 20
-571.0
 30
0.0
 11
5923.0
 21
-571.0
 31
0.0
1001
ACDBBLOCKREPETAG
1070
     1
1071
        4
1005
14553F
  0
LINE
  5
145540
  8
CENTER
 10
6000.0
 20
-535.0
 30
0.0
 11
6000.0
 21
-770.0
 31
0.0
1001
ACDBBLOCKREPETAG
1070
     1
1071
        5
1005
145540
  0
LINE
  5
145541
  8
OBJECT
 10
5925.0
 20
-634.0
 30
0.0
 11
5925.0
 21
-758.0
 31
0.0
1001
ACDBBLOCKREPETAG
1070
     1
1071
        6
1005
145541
  0
LINE
  5
145542
  8
OBJECT
 10
5928.0
 20
-571.0
 30
0.0
 11
5928.0
 21
-634.0
 31
0.0
1001
ACDBBLOCKREPETAG
1070
     1
1071
        7
1005
145542
  0
LINE
  5
145543
  8
OBJECT
 10
6072.0
 20
-634.0
 30
0.0
 11
6072.0
 21
-571.0
 31
0.0
1001
ACDBBLOCKREPETAG
1070
     1
1071
        8
1005
145543
  0
LINE
  5
145544
  8
OBJECT
 10
5920.0
 20
-758.0
 30
0.0
 11
6080.0
 21
-758.0
 31
0.0
1001
ACDBBLOCKREPETAG
1070
     1
1071
        9
1005
145544
  0
LINE
  5
145545
  8
OBJECT
 10
6080.0
 20
-634.0
 30
0.0
 11
5925.0
 21
-634.0
 31
0.0
1001
ACDBBLOCKREPETAG
1070
     1
1071
       10
1005
145545
  0
LINE
  5
145546
  8
OBJECT
 10
5920.0
 20
-758.0
 30
0.0
 11
5920.0
 21
-770.0
 31
0.0
1001
ACDBBLOCKREPETAG
1070
     1
1071
       11
1005
145546
  0
LINE
  5
145547
  8
OBJECT
 10
5920.0
 20
-770.0
 30
0.0
 11
6080.0
 21
-770.0
 31
0.0
1001
ACDBBLOCKREPETAG
1070
     1
1071
       12
1005
145547
  0
LINE
  5
145548
  8
OBJECT
 10
6080.0
 20
-770.0
 30
0.0
 11
6080.0
 21
-758.0
 31
0.0
1001
ACDBBLOCKREPETAG
1070
     1
1071
       13
1005
145548
  0
ARC
  5
145549
  8
OBJECT
 10
6200.6872746716735
 20
-749.40809941010752
 30
0.0
 40
170.6350503965856
 50
137.44134459184301
 51
149.91949581337221
1001
ACDBBLOCKREPETAG
1070
     1
1071
       15
1005
145549
  0
ARC
  5
14554A
  8
OBJECT
 10
6118.8455987040506
 20
-705.88272669536479
 30
0.0
 40
78.072222021763665
 50
147.4551531037684
 51
164.66365997718671
1001
ACDBBLOCKREPETAG
1070
     1
1071
       16
1005
14554A
  0
ARC
  5
14554B
  8
OBJECT
 10
6085.7554349608727
 20
-696.0
 30
0.0
 40
43.55353926885617
 50
165.6884523008477
 51
194.3115476991523
1001
ACDBBLOCKREPETAG
1070
     1
1071
       17
1005
14554B
  0
ARC
  5
14554C
  8
OBJECT
 10
6200.6872746716735
 20
-642.59190058989225
 30
0.0
 40
170.6350503965856
 50
210.08050418662771
 51
222.55865540815699
1001
ACDBBLOCKREPETAG
1070
     1
1071
       18
1005
14554C
  0
ARC
  5
14554D
  8
OBJECT
 10
6118.8455987040506
 20
-686.11727330463521
 30
0.0
 40
78.072222021763665
 50
195.3363400228132
 51
212.5448468962316
1001
ACDBBLOCKREPETAG
1070
     1
1071
       19
1005
14554D
  0
POINT
  5
14554E
  8
DOTS
 10
6000.0
 20
-755.0
 30
0.0
1001
ACDBBLOCKREPETAG
1070
     1
1071
      186
1005
14554E
  0
LINE
  5
14554F
  8
OBJECT
 10
6024.1029330933034
 20
-243.80694712372249
 30
0.0
 11
6020.6596569999956
 21
-232.5546220000044
 31
0.0
1001
ACDBBLOCKREPETAG
1070
     1
1071
      300
1005
14554F
  0
LINE
  5
145550
  8
OBJECT
 10
5986.7927499013749
 20
-218.2255337420859
 30
0.0
 11
6020.6596569999956
 21
-232.55462200000261
 31
0.0
1001
ACDBBLOCKREPETAG
1070
     1
1071
      302
1005
145550
  0
ARC
  5
145551
  8
OBJECT
 10
5982.8961697618997
 20
-227.43512999906241
 30
0.0
 40
10.0
 50
67.066778292911366
 51
154.0147343702935
1001
ACDBBLOCKREPETAG
1070
     1
1071
      303
1005
145551
  0
ARC
  5
145552
  8
OBJECT
 10
5986.1488390381273
 20
-225.5538625672973
 30
0.0
 40
7.0
 50
67.066778292911366
 51
154.0147337749826
1001
ACDBBLOCKREPETAG
1070
     1
1071
      304
1005
145552
  0
LINE
  5
145553
  8
OBJECT
 10
5969.4199755553018
 20
-243.89888500818731
 30
0.0
 11
5979.8564918232369
 21
-222.48688253357361
 31
0.0
1001
ACDBBLOCKREPETAG
1070
     1
1071
      341
1005
145553
  0
LINE
  5
145554
  8
OBJECT
 10
5965.2972169006089
 20
-240.718139018833
 30
0.0
 11
5973.9071022665084
 21
-223.0537300443132
 31
0.0
1001
ACDBBLOCKREPETAG
1070
     1
1071
      342
1005
145554
  0
ARC
  5
145555
  8
OBJECT
 10
5976.5796953073141
 20
-207.12893698284941
 30
0.0
 40
60.031113246032611
 50
314.07020130418567
 51
322.33936106089681
1001
ACDBBLOCKREPETAG
1070
     1
1071
      343
1005
145555
  0
CIRCLE
  5
145556
  8
OBJECT
 10
6000.0
 20
-200.0000000000048
 30
0.0
 40
53.5
1001
ACDBBLOCKREPETAG
1070
     1
1071
      344
1005
145556
  0
POINT
  5
145557
  8
DOTS
 10
6000.0
 20
-200.0000000000048
 30
0.0
 50
270.0
1001
ACDBBLOCKREPETAG
1070
     1
1071
      362
1005
145557
  0
ARC
  5
145558
  8
OBJECT
 10
6000.0
 20
-200.0000000000048
 30
0.0
 40
50.0
 50
298.81994300000417
 51
228.52376955965491
1001
ACDBBLOCKREPETAG
1070
     1
1071
        7
1005
145558
  0
LINE
  5
145559
  8
CENTER
 10
6080.0
 20
-200.0000000000048
 30
0.0
 11
5905.0
 21
-200.0000000000048
 31
0.0
1001
ACDBBLOCKREPETAG
1070
     1
1071
       14
1005
145559
  0
LINE
  5
14555A
  8
CENTER
 10
6000.0
 20
-295.00000000000489
 30
0.0
 11
6000.0
 21
-105.0000000000048
 31
0.0
1001
ACDBBLOCKREPETAG
1070
     1
1071
       15
1005
14555A
  0
CIRCLE
  5
14555B
  8
OBJECT
 10
6000.0
 20
-200.0000000000048
 30
0.0
 40
70.0
1001
ACDBBLOCKREPETAG
1070
     1
1071
       16
1005
14555B
  0
CIRCLE
  5
14555C
  8
OBJECT
 10
6000.0
 20
-200.0000000000048
 30
0.0
 40
77.0
1001
ACDBBLOCKREPETAG
1070
     1
1071
       17
1005
14555C
  0
ARC
  5
14555D
  8
OBJECT
 10
6000.0
 20
-200.0000000000048
 30
0.0
 40
80.0
 50
50.80503257388439
 51
309.19496742611562
1001
ACDBBLOCKREPETAG
1070
     1
1071
       18
1005
14555D
  0
LINE
  5
14555E
  8
OBJECT
 10
6045.6618002273253
 20
-138.0000000000048
 30
0.0
 11
6080.0
 21
-138.0000000000048
 31
0.0
1001
ACDBBLOCKREPETAG
1070
     1
1071
       19
1005
14555E
  0
LINE
  5
14555F
  8
OBJECT
 10
6045.6618002273253
 20
-262.00000000000477
 30
0.0
 11
6080.0
 21
-262.00000000000477
 31
0.0
1001
ACDBBLOCKREPETAG
1070
     1
1071
       20
1005
14555F
  0
LINE
  5
145560
  8
CENTER
 10
4227.0
 20
-696.0
 30
0.0
 11
4071.0
 21
-696.0
 31
0.0
1001
ACDBBLOCKREPETAG
1070
     1
1071
      287
1005
145560
  0
LINE
  5
145561
  8
OBJECT
 10
4150.0
 20
-743.0
 30
0.0
 11
4086.0000000000032
 21
-743.0
 31
0.0
1001
ACDBBLOCKREPETAG
1070
     1
1071
      288
1005
145561
  0
LINE
  5
145562
  8
OBJECT
 10
4083.0
 20
-634.0
 30
0.0
 11
4080.0
 21
-634.0
 31
0.0
1001
ACDBBLOCKREPETAG
1070
     1
1071
      289
1005
145562
  0
LINE
  5
145563
  8
OBJECT
 10
4150.0
 20
-649.0
 30
0.0
 11
4086.0000000000032
 21
-649.0
 31
0.0
1001
ACDBBLOCKREPETAG
1070
     1
1071
      290
1005
145563
  0
ARC
  5
145564
  8
OBJECT
 10
4083.0
 20
-637.0
 30
0.0
 40
3.0
 50
0.0
 51
90.0
1001
ACDBBLOCKREPETAG
1070
     1
1071
      291
1005
145564
  0
LINE
  5
145565
  8
OBJECT
 10
4080.0
 20
-758.0
 30
0.0
 11
4083.0
 21
-758.0
 31
0.0
1001
ACDBBLOCKREPETAG
1070
     1
1071
      292
1005
145565
  0
ARC
  5
145566
  8
OBJECT
 10
4083.0
 20
-755.0
 30
0.0
 40
3.0
 50
270.0
 51
0.0
1001
ACDBBLOCKREPETAG
1070
     1
1071
      293
1005
145566
  0
LINE
  5
145567
  8
OBJECT
 10
4086.0
 20
-755.0
 30
0.0
 11
4086.0
 21
-637.0
 31
0.0
1001
ACDBBLOCKREPETAG
1070
     1
1071
      294
1005
145567
  0
ARC
  5
145568
  8
OBJECT
 10
4150.0
 20
-696.0
 30
0.0
 40
62.0
 50
229.293865732211
 51
252.10344887079279
1001
ACDBBLOCKREPETAG
1070
     1
1071
      296
1005
145568
  0
ARC
  5
145569
  8
OBJECT
 10
4150.0
 20
-696.0
 30
0.0
 40
62.0
 50
287.89655112920718
 51
130.70613426778891
1001
ACDBBLOCKREPETAG
1070
     1
1071
      297
1005
145569
  0
LINE
  5
14556A
  8
OBJECT
 10
4130.947441116743
 20
-755.0
 30
0.0
 11
4169.052558883257
 21
-755.0
 31
0.0
1001
ACDBBLOCKREPETAG
1070
     1
1071
      298
1005
14556A
  0
LINE
  5
14556B
  8
CENTER
 10
4150.0
 20
-770.0
 30
0.0
 11
4150.0
 21
-619.0
 31
0.0
1001
ACDBBLOCKREPETAG
1070
     1
1071
      299
1005
14556B
  0
ARC
  5
14556C
  8
OBJECT
 10
4150.0
 20
-696.0
 30
0.0
 40
54.5
 50
239.58547089840889
 51
120.414529101591
1001
ACDBBLOCKREPETAG
1070
     1
1071
      300
1005
14556C
  0
ARC
  5
14556D
  8
OBJECT
 10
4150.0
 20
-696.0
 30
0.0
 40
47.0
 50
270.0
 51
90.0
1001
ACDBBLOCKREPETAG
1070
     1
1071
      301
1005
14556D
  0
ARC
  5
14556E
  8
OBJECT
 10
4150.0
 20
-696.0
 30
0.0
 40
59.0
 50
232.80760582087169
 51
127.1923941791283
1001
ACDBBLOCKREPETAG
1070
     1
1071
      302
1005
14556E
  0
LINE
  5
14556F
  8
OBJECT
 10
4212.0
 20
-97.000000000004775
 30
0.0
 11
4212.0
 21
-90.000000000004775
 31
0.0
1001
ACDBBLOCKREPETAG
1070
     1
1071
      325
1005
14556F
  0
LINE
  5
145570
  8
OBJECT
 10
4212.0
 20
-90.000000000004775
 30
0.0
 11
4088.0
 21
-90.000000000004775
 31
0.0
1001
ACDBBLOCKREPETAG
1070
     1
1071
      326
1005
145570
  0
LINE
  5
145571
  8
OBJECT
 10
4088.0
 20
-90.000000000004775
 30
0.0
 11
4088.0
 21
-97.000000000004775
 31
0.0
1001
ACDBBLOCKREPETAG
1070
     1
1071
      327
1005
145571
  0
LINE
  5
145572
  8
OBJECT
 10
4088.0
 20
-97.000000000004775
 30
0.0
 11
4212.0
 21
-97.000000000004775
 31
0.0
1001
ACDBBLOCKREPETAG
1070
     1
1071
      328
1005
145572
  0
LINE
  5
145573
  8
CENTER
 10
4197.2436941260312
 20
-200.00000000000111
 30
0.0
 11
4080.0
 21
-200.0000000000048
 31
0.0
1001
ACDBBLOCKREPETAG
1070
     1
1071
      329
1005
145573
  0
LINE
  5
145574
  8
OBJECT
 10
4092.5
 20
-153.00000000000111
 30
0.0
 11
4086.0
 21
-153.00000000000111
 31
0.0
1001
ACDBBLOCKREPETAG
1070
     1
1071
      330
1005
145574
  0
LINE
  5
145575
  8
OBJECT
 10
4098.0
 20
-247.00000000000111
 30
0.0
 11
4086.0
 21
-247.0000000000048
 31
0.0
1001
ACDBBLOCKREPETAG
1070
     1
1071
      331
1005
145575
  0
LINE
  5
145576
  8
OBJECT
 10
4209.0
 20
-97.000000000004775
 30
0.0
 11
4209.0
 21
-133.0000000000048
 31
0.0
1001
ACDBBLOCKREPETAG
1070
     1
1071
      332
1005
145576
  0
LINE
  5
145577
  8
OBJECT
 10
4209.0
 20
-133.0000000000048
 30
0.0
 11
4091.0
 21
-133.0000000000048
 31
0.0
1001
ACDBBLOCKREPETAG
1070
     1
1071
      333
1005
145577
  0
LINE
  5
145578
  8
OBJECT
 10
4091.0
 20
-133.0000000000048
 30
0.0
 11
4091.0
 21
-97.000000000004775
 31
0.0
1001
ACDBBLOCKREPETAG
1070
     1
1071
      334
1005
145578
  0
LINE
  5
145579
  8
OBJECT
 10
4204.5
 20
-137.0000000000048
 30
0.0
 11
4204.5
 21
-150.00000000000469
 31
0.0
1001
ACDBBLOCKREPETAG
1070
     1
1071
      335
1005
145579
  0
LINE
  5
14557A
  8
OBJECT
 10
4095.5
 20
-150.00000000000469
 30
0.0
 11
4095.5
 21
-137.0000000000048
 31
0.0
1001
ACDBBLOCKREPETAG
1070
     1
1071
      336
1005
14557A
  0
LINE
  5
14557B
  8
OBJECT
 10
4095.5
 20
-137.0000000000048
 30
0.0
 11
4204.5
 21
-137.0000000000048
 31
0.0
1001
ACDBBLOCKREPETAG
1070
     1
1071
      337
1005
14557B
  0
LINE
  5
14557C
  8
OBJECT
 10
4209.0
 20
-133.0000000000048
 30
0.0
 11
4204.5
 21
-137.0000000000048
 31
0.0
1001
ACDBBLOCKREPETAG
1070
     1
1071
      338
1005
14557C
  0
LINE
  5
14557D
  8
OBJECT
 10
4091.0
 20
-133.0000000000048
 30
0.0
 11
4095.5
 21
-137.0000000000048
 31
0.0
1001
ACDBBLOCKREPETAG
1070
     1
1071
      339
1005
14557D
  0
LINE
  5
14557E
  8
OBJECT
 10
4083.0
 20
-262.00000000000477
 30
0.0
 11
4080.0
 21
-262.00000000000477
 31
0.0
1001
ACDBBLOCKREPETAG
1070
     1
1071
      340
1005
14557E
  0
ARC
  5
14557F
  8
OBJECT
 10
4083.0
 20
-259.00000000000477
 30
0.0
 40
3.0
 50
270.0
 51
0.0
1001
ACDBBLOCKREPETAG
1070
     1
1071
      341
1005
14557F
  0
LINE
  5
145580
  8
OBJECT
 10
4080.0
 20
-138.0000000000048
 30
0.0
 11
4095.5
 21
-138.0000000000048
 31
0.0
1001
ACDBBLOCKREPETAG
1070
     1
1071
      342
1005
145580
  0
ARC
  5
145581
  8
OBJECT
 10
4083.0
 20
-141.0000000000048
 30
0.0
 40
3.0
 50
0.0
 51
90.0
1001
ACDBBLOCKREPETAG
1070
     1
1071
      343
1005
145581
  0
LINE
  5
145582
  8
OBJECT
 10
4086.0
 20
-141.0000000000048
 30
0.0
 11
4086.0
 21
-259.00000000000477
 31
0.0
1001
ACDBBLOCKREPETAG
1070
     1
1071
      344
1005
145582
  0
LINE
  5
145583
  8
HIDDEN
 10
4194.5
 20
-142.00000000000469
 30
0.0
 11
4105.5
 21
-142.00000000000469
 31
0.0
1001
ACDBBLOCKREPETAG
1070
     1
1071
      345
1005
145583
  0
LINE
  5
145584
  8
OBJECT
 10
4095.5000212374471
 20
-150.00004086387091
 30
0.0
 11
4204.5000212374453
 21
-150.00004086387091
 31
0.0
1001
ACDBBLOCKREPETAG
1070
     1
1071
      347
1005
145584
  0
LINE
  5
145585
  8
CENTER
 10
4150.0
 20
-247.2436941260323
 30
0.0
 11
4150.0
 21
-75.000000000004775
 31
0.0
1001
ACDBBLOCKREPETAG
1070
     1
1071
      348
1005
145585
  0
ARC
  5
145586
  8
CENTER
 10
4098.0
 20
-148.00000000000111
 30
0.0
 40
52.0
 50
270.0
 51
0.0
1001
ACDBBLOCKREPETAG
1070
     1
1071
      349
1005
145586
  0
ARC
  5
145587
  8
OBJECT
 10
4092.5
 20
-150.00000000000111
 30
0.0
 40
3.0
 50
270.0
 51
0.0
1001
ACDBBLOCKREPETAG
1070
     1
1071
      350
1005
145587
  0
ARC
  5
145588
  8
OBJECT
 10
4098.0
 20
-148.00000000000111
 30
0.0
 40
99.0
 50
270.0
 51
358.84240710281
1001
ACDBBLOCKREPETAG
1070
     1
1071
      351
1005
145588
  0
LINE
  5
145589
  8
OBJECT
 10
3923.0
 20
-571.0
 30
0.0
 11
3923.0
 21
-550.0
 31
0.0
1001
ACDBBLOCKREPETAG
1070
     1
1071
        0
1005
145589
  0
LINE
  5
14558A
  8
OBJECT
 10
3923.0
 20
-550.0
 30
0.0
 11
4077.0
 21
-550.0
 31
0.0
1001
ACDBBLOCKREPETAG
1070
     1
1071
        1
1005
14558A
  0
LINE
  5
14558B
  8
HIDDEN
 10
3943.0
 20
-620.0
 30
0.0
 11
4057.0
 21
-620.0
 31
0.0
1001
ACDBBLOCKREPETAG
1070
     1
1071
        2
1005
14558B
  0
LINE
  5
14558C
  8
OBJECT
 10
4077.0
 20
-550.0
 30
0.0
 11
4077.0
 21
-571.0
 31
0.0
1001
ACDBBLOCKREPETAG
1070
     1
1071
        3
1005
14558C
  0
LINE
  5
14558D
  8
OBJECT
 10
4077.0
 20
-571.0
 30
0.0
 11
3923.0
 21
-571.0
 31
0.0
1001
ACDBBLOCKREPETAG
1070
     1
1071
        4
1005
14558D
  0
LINE
  5
14558E
  8
CENTER
 10
4000.0
 20
-535.0
 30
0.0
 11
4000.0
 21
-770.0
 31
0.0
1001
ACDBBLOCKREPETAG
1070
     1
1071
        5
1005
14558E
  0
LINE
  5
14558F
  8
OBJECT
 10
3925.0
 20
-634.0
 30
0.0
 11
3925.0
 21
-758.0
 31
0.0
1001
ACDBBLOCKREPETAG
1070
     1
1071
        6
1005
14558F
  0
LINE
  5
145590
  8
OBJECT
 10
3928.0
 20
-571.0
 30
0.0
 11
3928.0
 21
-634.0
 31
0.0
1001
ACDBBLOCKREPETAG
1070
     1
1071
        7
1005
145590
  0
LINE
  5
145591
  8
OBJECT
 10
4072.0
 20
-634.0
 30
0.0
 11
4072.0
 21
-571.0
 31
0.0
1001
ACDBBLOCKREPETAG
1070
     1
1071
        8
1005
145591
  0
LINE
  5
145592
  8
OBJECT
 10
3920.0
 20
-758.0
 30
0.0
 11
4080.0
 21
-758.0
 31
0.0
1001
ACDBBLOCKREPETAG
1070
     1
1071
        9
1005
145592
  0
LINE
  5
145593
  8
OBJECT
 10
4080.0
 20
-634.0
 30
0.0
 11
3925.0
 21
-634.0
 31
0.0
1001
ACDBBLOCKREPETAG
1070
     1
1071
       10
1005
145593
  0
LINE
  5
145594
  8
OBJECT
 10
3920.0
 20
-758.0
 30
0.0
 11
3920.0
 21
-770.0
 31
0.0
1001
ACDBBLOCKREPETAG
1070
     1
1071
       11
1005
145594
  0
LINE
  5
145595
  8
OBJECT
 10
3920.0
 20
-770.0
 30
0.0
 11
4080.0
 21
-770.0
 31
0.0
1001
ACDBBLOCKREPETAG
1070
     1
1071
       12
1005
145595
  0
LINE
  5
145596
  8
OBJECT
 10
4080.0
 20
-770.0
 30
0.0
 11
4080.0
 21
-758.0
 31
0.0
1001
ACDBBLOCKREPETAG
1070
     1
1071
       13
1005
145596
  0
ARC
  5
145597
  8
OBJECT
 10
4200.6872746716726
 20
-749.40809941010752
 30
0.0
 40
170.6350503965856
 50
137.44134459184301
 51
149.91949581337221
1001
ACDBBLOCKREPETAG
1070
     1
1071
       15
1005
145597
  0
ARC
  5
145598
  8
OBJECT
 10
4118.8455987040506
 20
-705.88272669536479
 30
0.0
 40
78.072222021763665
 50
147.4551531037684
 51
164.6636599771798
1001
ACDBBLOCKREPETAG
1070
     1
1071
       16
1005
145598
  0
ARC
  5
145599
  8
OBJECT
 10
4085.7554349608722
 20
-696.0
 30
0.0
 40
43.55353926885617
 50
165.6884523008477
 51
194.3115476991523
1001
ACDBBLOCKREPETAG
1070
     1
1071
       17
1005
145599
  0
ARC
  5
14559A
  8
OBJECT
 10
4200.6872746716726
 20
-642.59190058989225
 30
0.0
 40
170.6350503965856
 50
210.08050418662771
 51
222.55865540815699
1001
ACDBBLOCKREPETAG
1070
     1
1071
       18
1005
14559A
  0
ARC
  5
14559B
  8
OBJECT
 10
4118.8455987040506
 20
-686.11727330463521
 30
0.0
 40
78.072222021763665
 50
195.3363400228202
 51
212.5448468962316
1001
ACDBBLOCKREPETAG
1070
     1
1071
       19
1005
14559B
  0
POINT
  5
14559C
  8
DOTS
 10
4000.0
 20
-755.0
 30
0.0
1001
ACDBBLOCKREPETAG
1070
     1
1071
      186
1005
14559C
  0
LINE
  5
14559D
  8
OBJECT
 10
4024.102933093302
 20
-243.80694712372249
 30
0.0
 11
4020.6596569999951
 21
-232.5546220000044
 31
0.0
1001
ACDBBLOCKREPETAG
1070
     1
1071
      300
1005
14559D
  0
LINE
  5
14559E
  8
OBJECT
 10
3986.7927499013749
 20
-218.2255337420859
 30
0.0
 11
4020.6596569999951
 21
-232.55462200000261
 31
0.0
1001
ACDBBLOCKREPETAG
1070
     1
1071
      302
1005
14559E
  0
ARC
  5
14559F
  8
OBJECT
 10
3982.896169761902
 20
-227.43512999906241
 30
0.0
 40
10.0
 50
67.066778292911366
 51
154.0147343702935
1001
ACDBBLOCKREPETAG
1070
     1
1071
      303
1005
14559F
  0
ARC
  5
1455A0
  8
OBJECT
 10
3986.1488390381278
 20
-225.5538625672973
 30
0.0
 40
7.0
 50
67.066778292911366
 51
154.01473377497121
1001
ACDBBLOCKREPETAG
1070
     1
1071
      304
1005
1455A0
  0
LINE
  5
1455A1
  8
OBJECT
 10
3969.4199755553018
 20
-243.89888500818731
 30
0.0
 11
3979.8564918232369
 21
-222.48688253357361
 31
0.0
1001
ACDBBLOCKREPETAG
1070
     1
1071
      341
1005
1455A1
  0
LINE
  5
1455A2
  8
OBJECT
 10
3965.2972169006089
 20
-240.718139018833
 30
0.0
 11
3973.9071022665089
 21
-223.0537300443132
 31
0.0
1001
ACDBBLOCKREPETAG
1070
     1
1071
      342
1005
1455A2
  0
ARC
  5
1455A3
  8
OBJECT
 10
3976.579695307315
 20
-207.12893698284941
 30
0.0
 40
60.031113246032611
 50
314.07020130418567
 51
322.33936106091278
1001
ACDBBLOCKREPETAG
1070
     1
1071
      343
1005
1455A3
  0
CIRCLE
  5
1455A4
  8
OBJECT
 10
4000.0
 20
-200.0000000000048
 30
0.0
 40
53.5
1001
ACDBBLOCKREPETAG
1070
     1
1071
      344
1005
1455A4
  0
POINT
  5
1455A5
  8
DOTS
 10
4000.0
 20
-200.0000000000048
 30
0.0
 50
270.0
1001
ACDBBLOCKREPETAG
1070
     1
1071
      362
1005
1455A5
  0
ARC
  5
1455A6
  8
OBJECT
 10
4000.0
 20
-200.0000000000048
 30
0.0
 40
50.0
 50
298.81994300000417
 51
228.52376955967449
1001
ACDBBLOCKREPETAG
1070
     1
1071
        7
1005
1455A6
  0
LINE
  5
1455A7
  8
CENTER
 10
4080.0
 20
-200.0000000000048
 30
0.0
 11
3905.0
 21
-200.0000000000048
 31
0.0
1001
ACDBBLOCKREPETAG
1070
     1
1071
       14
1005
1455A7
  0
LINE
  5
1455A8
  8
CENTER
 10
4000.0
 20
-295.00000000000489
 30
0.0
 11
4000.0
 21
-105.0000000000048
 31
0.0
1001
ACDBBLOCKREPETAG
1070
     1
1071
       15
1005
1455A8
  0
CIRCLE
  5
1455A9
  8
OBJECT
 10
4000.0
 20
-200.0000000000048
 30
0.0
 40
70.0
1001
ACDBBLOCKREPETAG
1070
     1
1071
       16
1005
1455A9
  0
CIRCLE
  5
1455AA
  8
OBJECT
 10
4000.0
 20
-200.0000000000048
 30
0.0
 40
77.0
1001
ACDBBLOCKREPETAG
1070
     1
1071
       17
1005
1455AA
  0
ARC
  5
1455AB
  8
OBJECT
 10
4000.0
 20
-200.0000000000048
 30
0.0
 40
80.0
 50
50.805032573864182
 51
309.1949674261358
1001
ACDBBLOCKREPETAG
1070
     1
1071
       18
1005
1455AB
  0
LINE
  5
1455AC
  8
OBJECT
 10
4045.661800227324
 20
-138.0000000000048
 30
0.0
 11
4080.0
 21
-138.0000000000048
 31
0.0
1001
ACDBBLOCKREPETAG
1070
     1
1071
       19
1005
1455AC
  0
LINE
  5
1455AD
  8
OBJECT
 10
4045.661800227324
 20
-262.00000000000477
 30
0.0
 11
4080.0
 21
-262.00000000000477
 31
0.0
1001
ACDBBLOCKREPETAG
1070
     1
1071
       20
1005
1455AD
  0
LINE
  5
1455AE
  8
CENTER
 10
2227.0
 20
-696.0
 30
0.0
 11
2071.0
 21
-696.0
 31
0.0
1001
ACDBBLOCKREPETAG
1070
     1
1071
      287
1005
1455AE
  0
LINE
  5
1455AF
  8
OBJECT
 10
2150.0
 20
-743.0
 30
0.0
 11
2086.0000000000041
 21
-743.0
 31
0.0
1001
ACDBBLOCKREPETAG
1070
     1
1071
      288
1005
1455AF
  0
LINE
  5
1455B0
  8
OBJECT
 10
2083.0
 20
-634.0
 30
0.0
 11
2080.0
 21
-634.0
 31
0.0
1001
ACDBBLOCKREPETAG
1070
     1
1071
      289
1005
1455B0
  0
LINE
  5
1455B1
  8
OBJECT
 10
2150.0
 20
-649.0
 30
0.0
 11
2086.0000000000041
 21
-649.0
 31
0.0
1001
ACDBBLOCKREPETAG
1070
     1
1071
      290
1005
1455B1
  0
ARC
  5
1455B2
  8
OBJECT
 10
2083.0
 20
-637.0
 30
0.0
 40
3.0
 50
0.0
 51
90.0
1001
ACDBBLOCKREPETAG
1070
     1
1071
      291
1005
1455B2
  0
LINE
  5
1455B3
  8
OBJECT
 10
2080.0
 20
-758.0
 30
0.0
 11
2083.0
 21
-758.0
 31
0.0
1001
ACDBBLOCKREPETAG
1070
     1
1071
      292
1005
1455B3
  0
ARC
  5
1455B4
  8
OBJECT
 10
2083.0
 20
-755.0
 30
0.0
 40
3.0
 50
270.0
 51
0.0
1001
ACDBBLOCKREPETAG
1070
     1
1071
      293
1005
1455B4
  0
LINE
  5
1455B5
  8
OBJECT
 10
2086.0
 20
-755.0
 30
0.0
 11
2086.0
 21
-637.0
 31
0.0
1001
ACDBBLOCKREPETAG
1070
     1
1071
      294
1005
1455B5
  0
ARC
  5
1455B6
  8
OBJECT
 10
2150.0
 20
-696.0
 30
0.0
 40
62.0
 50
229.293865732211
 51
252.10344887079279
1001
ACDBBLOCKREPETAG
1070
     1
1071
      296
1005
1455B6
  0
ARC
  5
1455B7
  8
OBJECT
 10
2150.0
 20
-696.0
 30
0.0
 40
62.0
 50
287.89655112920718
 51
130.70613426778891
1001
ACDBBLOCKREPETAG
1070
     1
1071
      297
1005
1455B7
  0
LINE
  5
1455B8
  8
OBJECT
 10
2130.947441116743
 20
-755.0
 30
0.0
 11
2169.052558883257
 21
-755.0
 31
0.0
1001
ACDBBLOCKREPETAG
1070
     1
1071
      298
1005
1455B8
  0
LINE
  5
1455B9
  8
CENTER
 10
2150.0
 20
-770.0
 30
0.0
 11
2150.0
 21
-619.0
 31
0.0
1001
ACDBBLOCKREPETAG
1070
     1
1071
      299
1005
1455B9
  0
ARC
  5
1455BA
  8
OBJECT
 10
2150.0
 20
-696.0
 30
0.0
 40
54.5
 50
239.58547089840889
 51
120.414529101591
1001
ACDBBLOCKREPETAG
1070
     1
1071
      300
1005
1455BA
  0
ARC
  5
1455BB
  8
OBJECT
 10
2150.0
 20
-696.0
 30
0.0
 40
47.0
 50
270.0
 51
90.0
1001
ACDBBLOCKREPETAG
1070
     1
1071
      301
1005
1455BB
  0
ARC
  5
1455BC
  8
OBJECT
 10
2150.0
 20
-696.0
 30
0.0
 40
59.0
 50
232.80760582087169
 51
127.1923941791283
1001
ACDBBLOCKREPETAG
1070
     1
1071
      302
1005
1455BC
  0
LINE
  5
1455BD
  8
OBJECT
 10
92.000000000611195
 20
-503.99999999999341
 30
0.0
 11
85.000000000611195
 21
-503.99999999999341
 31
0.0
1001
ACDBBLOCKREPETAG
1070
     1
1071
      295
1005
1455BD
  0
LINE
  5
1455BE
  8
OBJECT
 10
85.000000000611195
 20
-503.99999999999341
 30
0.0
 11
85.000000000611195
 21
-627.99999999999352
 31
0.0
1001
ACDBBLOCKREPETAG
1070
     1
1071
      296
1005
1455BE
  0
LINE
  5
1455BF
  8
OBJECT
 10
85.000000000611195
 20
-627.99999999999352
 30
0.0
 11
92.000000000611195
 21
-627.99999999999352
 31
0.0
1001
ACDBBLOCKREPETAG
1070
     1
1071
      297
1005
1455BF
  0
LINE
  5
1455C0
  8
OBJECT
 10
92.000000000611195
 20
-627.99999999999352
 30
0.0
 11
92.000000000611195
 21
-503.99999999999341
 31
0.0
1001
ACDBBLOCKREPETAG
1070
     1
1071
      298
1005
1455C0
  0
LINE
  5
1455C1
  8
OBJECT
 10
148.00000000060751
 20
-623.49999999999352
 30
0.0
 11
148.00000000060751
 21
-629.99999999999341
 31
0.0
1001
ACDBBLOCKREPETAG
1070
     1
1071
      299
1005
1455C1
  0
LINE
  5
1455C2
  8
OBJECT
 10
242.00000000060751
 20
-617.99999999999329
 30
0.0
 11
242.00000000061121
 21
-629.9999999999925
 31
0.0
1001
ACDBBLOCKREPETAG
1070
     1
1071
      300
1005
1455C2
  0
LINE
  5
1455C3
  8
OBJECT
 10
92.000000000611195
 20
-506.99999999999341
 30
0.0
 11
128.00000000061121
 21
-506.99999999999341
 31
0.0
1001
ACDBBLOCKREPETAG
1070
     1
1071
      301
1005
1455C3
  0
LINE
  5
1455C4
  8
OBJECT
 10
128.00000000061121
 20
-506.99999999999341
 30
0.0
 11
128.00000000061121
 21
-624.99999999999352
 31
0.0
1001
ACDBBLOCKREPETAG
1070
     1
1071
      302
1005
1455C4
  0
LINE
  5
1455C5
  8
OBJECT
 10
128.00000000061121
 20
-624.99999999999352
 30
0.0
 11
92.000000000611195
 21
-624.99999999999352
 31
0.0
1001
ACDBBLOCKREPETAG
1070
     1
1071
      303
1005
1455C5
  0
LINE
  5
1455C6
  8
OBJECT
 10
132.00000000061121
 20
-511.49999999999341
 30
0.0
 11
145.0000000006111
 21
-511.49999999999341
 31
0.0
1001
ACDBBLOCKREPETAG
1070
     1
1071
      304
1005
1455C6
  0
LINE
  5
1455C7
  8
OBJECT
 10
145.0000000006111
 20
-620.49999999999352
 30
0.0
 11
132.00000000061121
 21
-620.49999999999352
 31
0.0
1001
ACDBBLOCKREPETAG
1070
     1
1071
      305
1005
1455C7
  0
LINE
  5
1455C8
  8
OBJECT
 10
132.00000000061121
 20
-620.49999999999352
 30
0.0
 11
132.00000000061121
 21
-511.49999999999341
 31
0.0
1001
ACDBBLOCKREPETAG
1070
     1
1071
      306
1005
1455C8
  0
LINE
  5
1455C9
  8
OBJECT
 10
128.00000000061121
 20
-506.99999999999341
 30
0.0
 11
132.00000000061121
 21
-511.49999999999341
 31
0.0
1001
ACDBBLOCKREPETAG
1070
     1
1071
      307
1005
1455C9
  0
LINE
  5
1455CA
  8
OBJECT
 10
128.00000000061121
 20
-624.99999999999352
 30
0.0
 11
132.00000000061121
 21
-620.49999999999352
 31
0.0
1001
ACDBBLOCKREPETAG
1070
     1
1071
      308
1005
1455CA
  0
LINE
  5
1455CB
  8
OBJECT
 10
257.00000000061118
 20
-632.9999999999925
 30
0.0
 11
257.00000000061118
 21
-635.99999999999352
 31
0.0
1001
ACDBBLOCKREPETAG
1070
     1
1071
      309
1005
1455CB
  0
ARC
  5
1455CC
  8
OBJECT
 10
254.00000000061121
 20
-632.9999999999925
 30
0.0
 40
3.0
 50
0.0
 51
90.0
1001
ACDBBLOCKREPETAG
1070
     1
1071
      310
1005
1455CC
  0
LINE
  5
1455CD
  8
OBJECT
 10
133.00000000061121
 20
-635.99999999999352
 30
0.0
 11
133.00000000061121
 21
-620.49999999999352
 31
0.0
1001
ACDBBLOCKREPETAG
1070
     1
1071
      311
1005
1455CD
  0
ARC
  5
1455CE
  8
OBJECT
 10
136.00000000061121
 20
-632.99999999999432
 30
0.0
 40
3.0
 50
90.0
 51
180.0
1001
ACDBBLOCKREPETAG
1070
     1
1071
      312
1005
1455CE
  0
LINE
  5
1455CF
  8
OBJECT
 10
136.00000000061121
 20
-629.9999999999942
 30
0.0
 11
254.00000000061121
 21
-629.9999999999925
 31
0.0
1001
ACDBBLOCKREPETAG
1070
     1
1071
      313
1005
1455CF
  0
LINE
  5
1455D0
  8
OBJECT
 10
145.00004086447731
 20
-620.49997876254633
 30
0.0
 11
145.00004086447731
 21
-511.49997876254628
 31
0.0
1001
ACDBBLOCKREPETAG
1070
     1
1071
      315
1005
1455D0
  0
ARC
  5
1455D1
  8
OBJECT
 10
145.00000000060751
 20
-623.49999999999352
 30
0.0
 40
3.0
 50
0.0
 51
90.0
1001
ACDBBLOCKREPETAG
1070
     1
1071
      316
1005
1455D1
  0
ARC
  5
1455D2
  8
OBJECT
 10
143.00000000060751
 20
-617.99999999999329
 30
0.0
 40
99.0
 50
0.0
 51
88.842407102809943
1001
ACDBBLOCKREPETAG
1070
     1
1071
      317
1005
1455D2
  0
INSERT
  5
1455D3
  8
OBJECT
  2
*U987
 10
0.0
 20
0.0
 30
0.0
  0
LINE
  5
1455D4
  8
HIDDEN
 10
137.00000000061121
 20
-610.49999999999318
 30
0.0
 11
137.00000000061121
 21
-521.49999999999341
 31
0.0
1001
ACDBBLOCKREPETAG
1070
     1
1071
      428
1005
1455D4
  0
ARC
  5
1455D5
  8
OBJECT
 10
195.00000000061121
 20
-715.99999999999341
 30
0.0
 40
50.0
 50
28.819943000140022
 51
318.52376955951968
1001
ACDBBLOCKREPETAG
1070
     1
1071
       49
1005
1455D5
  0
CIRCLE
  5
1455D6
  8
OBJECT
 10
195.00000000061121
 20
-715.99999999999341
 30
0.0
 40
70.0
1001
ACDBBLOCKREPETAG
1070
     1
1071
       50
1005
1455D6
  0
CIRCLE
  5
1455D7
  8
OBJECT
 10
195.00000000061121
 20
-715.99999999999341
 30
0.0
 40
77.0
1001
ACDBBLOCKREPETAG
1070
     1
1071
       51
1005
1455D7
  0
ARC
  5
1455D8
  8
OBJECT
 10
195.00000000061121
 20
-715.99999999999341
 30
0.0
 40
80.0
 50
140.80503257377961
 51
39.194967426220252
1001
ACDBBLOCKREPETAG
1070
     1
1071
       52
1005
1455D8
  0
LINE
  5
1455D9
  8
OBJECT
 10
133.00000000061121
 20
-670.33819977266887
 30
0.0
 11
133.00000000061121
 21
-635.99999999999352
 31
0.0
1001
ACDBBLOCKREPETAG
1070
     1
1071
       53
1005
1455D9
  0
LINE
  5
1455DA
  8
OBJECT
 10
257.00000000061118
 20
-670.33819977266887
 30
0.0
 11
257.00000000061118
 21
-635.99999999999352
 31
0.0
1001
ACDBBLOCKREPETAG
1070
     1
1071
       54
1005
1455DA
  0
LINE
  5
1455DB
  8
OBJECT
 10
238.8069471243289
 20
-691.89706690669186
 30
0.0
 11
227.55462200061081
 21
-695.34034299999666
 31
0.0
1001
ACDBBLOCKREPETAG
1070
     1
1071
      141
1005
1455DB
  0
LINE
  5
1455DC
  8
OBJECT
 10
213.22553374269231
 20
-729.20725009861849
 30
0.0
 11
227.55462200060899
 21
-695.34034299999666
 31
0.0
1001
ACDBBLOCKREPETAG
1070
     1
1071
      143
1005
1455DC
  0
ARC
  5
1455DD
  8
OBJECT
 10
222.43512999966879
 20
-733.10383023809163
 30
0.0
 40
10.0
 50
157.06677829289541
 51
244.01473437020459
1001
ACDBBLOCKREPETAG
1070
     1
1071
      144
1005
1455DD
  0
ARC
  5
1455DE
  8
OBJECT
 10
220.55386256790371
 20
-729.85116096186584
 30
0.0
 40
7.0
 50
157.06677829289541
 51
244.01473377507321
1001
ACDBBLOCKREPETAG
1070
     1
1071
      145
1005
1455DE
  0
LINE
  5
1455DF
  8
OBJECT
 10
238.89888500879391
 20
-746.58002444469184
 30
0.0
 11
217.48688253418001
 21
-736.14350817675643
 31
0.0
1001
ACDBBLOCKREPETAG
1070
     1
1071
      154
1005
1455DF
  0
LINE
  5
1455E0
  8
OBJECT
 10
235.71813901943941
 20
-750.70278309938431
 30
0.0
 11
218.0537300449196
 21
-742.09289773348485
 31
0.0
1001
ACDBBLOCKREPETAG
1070
     1
1071
      155
1005
1455E0
  0
ARC
  5
1455E1
  8
OBJECT
 10
202.1289369834557
 20
-739.42030469267843
 30
0.0
 40
60.031113246032611
 50
44.070201304185751
 51
52.339361060977858
1001
ACDBBLOCKREPETAG
1070
     1
1071
      156
1005
1455E1
  0
CIRCLE
  5
1455E2
  8
OBJECT
 10
195.00000000061121
 20
-715.99999999999341
 30
0.0
 40
53.5
1001
ACDBBLOCKREPETAG
1070
     1
1071
      157
1005
1455E2
  0
POINT
  5
1455E3
  8
DOTS
 10
195.00000000061121
 20
-715.99999999999341
 30
0.0
1001
ACDBBLOCKREPETAG
1070
     1
1071
      162
1005
1455E3
  0
LINE
  5
1455E4
  8
OBJECT
 10
462.0000000006911
 20
-56.99999999998704
 30
0.0
 11
455.00000000069122
 21
-56.99999999998704
 31
0.0
1001
ACDBBLOCKREPETAG
1070
     1
1071
      272
1005
1455E4
  0
LINE
  5
1455E5
  8
OBJECT
 10
455.00000000069122
 20
-56.99999999998704
 30
0.0
 11
455.00000000069122
 21
-166.99999999998701
 31
0.0
1001
ACDBBLOCKREPETAG
1070
     1
1071
      273
1005
1455E5
  0
LINE
  5
1455E6
  8
OBJECT
 10
455.00000000069122
 20
-166.99999999998701
 30
0.0
 11
462.0000000006911
 21
-166.99999999998701
 31
0.0
1001
ACDBBLOCKREPETAG
1070
     1
1071
      274
1005
1455E6
  0
LINE
  5
1455E7
  8
OBJECT
 10
462.0000000006911
 20
-166.99999999998701
 30
0.0
 11
462.0000000006911
 21
-56.99999999998704
 31
0.0
1001
ACDBBLOCKREPETAG
1070
     1
1071
      275
1005
1455E7
  0
LINE
  5
1455E8
  8
OBJECT
 10
514.00000000069485
 20
-159.49999999998701
 30
0.0
 11
514.00000000068746
 21
-165.99999999998781
 31
0.0
1001
ACDBBLOCKREPETAG
1070
     1
1071
      276
1005
1455E8
  0
LINE
  5
1455E9
  8
OBJECT
 10
596.00000000069122
 20
-156.99999999998701
 30
0.0
 11
596.00000000069122
 21
-165.99999999998701
 31
0.0
1001
ACDBBLOCKREPETAG
1070
     1
1071
      277
1005
1455E9
  0
LINE
  5
1455EA
  8
OBJECT
 10
462.0000000006911
 20
-59.99999999998704
 30
0.0
 11
498.00000000069122
 21
-59.99999999998704
 31
0.0
1001
ACDBBLOCKREPETAG
1070
     1
1071
      278
1005
1455EA
  0
LINE
  5
1455EB
  8
OBJECT
 10
498.00000000069122
 20
-59.99999999998704
 30
0.0
 11
498.00000000069122
 21
-163.99999999998701
 31
0.0
1001
ACDBBLOCKREPETAG
1070
     1
1071
      279
1005
1455EB
  0
LINE
  5
1455EC
  8
OBJECT
 10
498.00000000069122
 20
-163.99999999998701
 30
0.0
 11
462.0000000006911
 21
-163.99999999998701
 31
0.0
1001
ACDBBLOCKREPETAG
1070
     1
1071
      280
1005
1455EC
  0
LINE
  5
1455ED
  8
OBJECT
 10
502.00000000069122
 20
-64.49999999998704
 30
0.0
 11
515.00000000069122
 21
-64.49999999998704
 31
0.0
1001
ACDBBLOCKREPETAG
1070
     1
1071
      281
1005
1455ED
  0
LINE
  5
1455EE
  8
OBJECT
 10
515.00000000069122
 20
-159.49999999998701
 30
0.0
 11
502.00000000069122
 21
-159.49999999998701
 31
0.0
1001
ACDBBLOCKREPETAG
1070
     1
1071
      282
1005
1455EE
  0
LINE
  5
1455EF
  8
OBJECT
 10
502.00000000069122
 20
-159.49999999998701
 30
0.0
 11
502.00000000069122
 21
-64.49999999998704
 31
0.0
1001
ACDBBLOCKREPETAG
1070
     1
1071
      283
1005
1455EF
  0
LINE
  5
1455F0
  8
OBJECT
 10
498.00000000069122
 20
-59.99999999998704
 30
0.0
 11
502.00000000069122
 21
-64.49999999998704
 31
0.0
1001
ACDBBLOCKREPETAG
1070
     1
1071
      284
1005
1455F0
  0
LINE
  5
1455F1
  8
OBJECT
 10
498.00000000069122
 20
-163.99999999998701
 30
0.0
 11
502.00000000069122
 21
-159.49999999998701
 31
0.0
1001
ACDBBLOCKREPETAG
1070
     1
1071
      285
1005
1455F1
  0
LINE
  5
1455F2
  8
OBJECT
 10
617.00000000069122
 20
-168.9999999999861
 30
0.0
 11
617.00000000069122
 21
-171.99999999998701
 31
0.0
1001
ACDBBLOCKREPETAG
1070
     1
1071
      286
1005
1455F2
  0
ARC
  5
1455F3
  8
OBJECT
 10
614.00000000069122
 20
-168.9999999999861
 30
0.0
 40
3.0
 50
0.0
 51
90.0
1001
ACDBBLOCKREPETAG
1070
     1
1071
      287
1005
1455F3
  0
LINE
  5
1455F4
  8
OBJECT
 10
493.00000000069122
 20
-171.99999999998701
 30
0.0
 11
493.00000000069122
 21
-163.99999999998701
 31
0.0
1001
ACDBBLOCKREPETAG
1070
     1
1071
      288
1005
1455F4
  0
ARC
  5
1455F5
  8
OBJECT
 10
496.00000000069122
 20
-168.99999999998781
 30
0.0
 40
3.0
 50
90.0
 51
180.0
1001
ACDBBLOCKREPETAG
1070
     1
1071
      289
1005
1455F5
  0
LINE
  5
1455F6
  8
OBJECT
 10
496.00000000069122
 20
-165.99999999998781
 30
0.0
 11
614.00000000069122
 21
-165.9999999999861
 31
0.0
1001
ACDBBLOCKREPETAG
1070
     1
1071
      290
1005
1455F6
  0
LINE
  5
1455F7
  8
OBJECT
 10
515.00000439509313
 20
-159.50004540697199
 30
0.0
 11
515.00000439509313
 21
-64.500045406972049
 31
0.0
1001
ACDBBLOCKREPETAG
1070
     1
1071
      292
1005
1455F7
  0
ARC
  5
1455F8
  8
OBJECT
 10
510.00000000069122
 20
-156.99999999998701
 30
0.0
 40
86.0
 50
0.0
 51
86.666967573448673
1001
ACDBBLOCKREPETAG
1070
     1
1071
      293
1005
1455F8
  0
INSERT
  5
1455F9
  8
OBJECT
  2
*U988
 10
0.0
 20
0.0
 30
0.0
  0
LINE
  5
1455FA
  8
HIDDEN
 10
507.00000000069122
 20
-149.99999999998701
 30
0.0
 11
507.00000000069122
 21
-73.999999999987054
 31
0.0
1001
ACDBBLOCKREPETAG
1070
     1
1071
      425
1005
1455FA
  0
ARC
  5
1455FB
  8
OBJECT
 10
555.00000000069122
 20
-251.99999999998701
 30
0.0
 40
50.0
 50
28.819943000140022
 51
318.52376955951871
1001
ACDBBLOCKREPETAG
1070
     1
1071
       49
1005
1455FB
  0
CIRCLE
  5
1455FC
  8
OBJECT
 10
555.00000000069122
 20
-251.99999999998701
 30
0.0
 40
70.0
1001
ACDBBLOCKREPETAG
1070
     1
1071
       50
1005
1455FC
  0
CIRCLE
  5
1455FD
  8
OBJECT
 10
555.00000000069122
 20
-251.99999999998701
 30
0.0
 40
77.0
1001
ACDBBLOCKREPETAG
1070
     1
1071
       51
1005
1455FD
  0
ARC
  5
1455FE
  8
OBJECT
 10
555.00000000069122
 20
-251.99999999998701
 30
0.0
 40
80.0
 50
140.8050325737787
 51
39.194967426221282
1001
ACDBBLOCKREPETAG
1070
     1
1071
       52
1005
1455FE
  0
LINE
  5
1455FF
  8
OBJECT
 10
493.00000000069122
 20
-206.33819977266251
 30
0.0
 11
493.00000000069122
 21
-171.99999999998701
 31
0.0
1001
ACDBBLOCKREPETAG
1070
     1
1071
       53
1005
1455FF
  0
LINE
  5
145600
  8
OBJECT
 10
617.00000000069122
 20
-206.33819977266251
 30
0.0
 11
617.00000000069122
 21
-171.99999999998701
 31
0.0
1001
ACDBBLOCKREPETAG
1070
     1
1071
       54
1005
145600
  0
LINE
  5
145601
  8
OBJECT
 10
598.80694712440891
 20
-227.8970669066855
 30
0.0
 11
587.55462200069076
 21
-231.3403429999905
 31
0.0
1001
ACDBBLOCKREPETAG
1070
     1
1071
      141
1005
145601
  0
LINE
  5
145602
  8
OBJECT
 10
573.22553374277231
 20
-265.20725009861212
 30
0.0
 11
587.55462200068905
 21
-231.3403429999905
 31
0.0
1001
ACDBBLOCKREPETAG
1070
     1
1071
      143
1005
145602
  0
ARC
  5
145603
  8
OBJECT
 10
582.43512999974871
 20
-269.10383023808549
 30
0.0
 40
10.0
 50
157.066778292897
 51
244.01473437020459
1001
ACDBBLOCKREPETAG
1070
     1
1071
      144
1005
145603
  0
ARC
  5
145604
  8
OBJECT
 10
580.55386256798363
 20
-265.8511609618597
 30
0.0
 40
7.0
 50
157.066778292897
 51
244.01473377507759
1001
ACDBBLOCKREPETAG
1070
     1
1071
      145
1005
145604
  0
LINE
  5
145605
  8
OBJECT
 10
598.89888500887378
 20
-282.58002444468548
 30
0.0
 11
577.48688253426008
 21
-272.14350817675012
 31
0.0
1001
ACDBBLOCKREPETAG
1070
     1
1071
      154
1005
145605
  0
LINE
  5
145606
  8
OBJECT
 10
595.71813901951919
 20
-286.70278309937811
 30
0.0
 11
578.05373004499961
 21
-278.09289773347848
 31
0.0
1001
ACDBBLOCKREPETAG
1070
     1
1071
      155
1005
145606
  0
ARC
  5
145607
  8
OBJECT
 10
562.12893698353582
 20
-275.42030469267212
 30
0.0
 40
60.031113246032611
 50
44.07020130418465
 51
52.339361060977581
1001
ACDBBLOCKREPETAG
1070
     1
1071
      156
1005
145607
  0
CIRCLE
  5
145608
  8
OBJECT
 10
555.00000000069122
 20
-251.99999999998701
 30
0.0
 40
53.5
1001
ACDBBLOCKREPETAG
1070
     1
1071
      157
1005
145608
  0
POINT
  5
145609
  8
DOTS
 10
555.00000000069122
 20
-251.99999999998701
 30
0.0
1001
ACDBBLOCKREPETAG
1070
     1
1071
      162
1005
145609
  0
LINE
  5
14560A
  8
OBJECT
 10
102.00000000061119
 20
-64.99999999998704
 30
0.0
 11
95.000000000611195
 21
-64.99999999998704
 31
0.0
1001
ACDBBLOCKREPETAG
1070
     1
1071
      244
1005
14560A
  0
LINE
  5
14560B
  8
OBJECT
 10
95.000000000611195
 20
-64.99999999998704
 30
0.0
 11
95.000000000611195
 21
-158.99999999998701
 31
0.0
1001
ACDBBLOCKREPETAG
1070
     1
1071
      245
1005
14560B
  0
LINE
  5
14560C
  8
OBJECT
 10
95.000000000611195
 20
-158.99999999998701
 30
0.0
 11
102.00000000061119
 21
-158.99999999998701
 31
0.0
1001
ACDBBLOCKREPETAG
1070
     1
1071
      246
1005
14560C
  0
LINE
  5
14560D
  8
OBJECT
 10
102.00000000061119
 20
-158.99999999998701
 30
0.0
 11
102.00000000061119
 21
-64.99999999998704
 31
0.0
1001
ACDBBLOCKREPETAG
1070
     1
1071
      247
1005
14560D
  0
LINE
  5
14560E
  8
OBJECT
 10
102.00000000061119
 20
-67.999999999987025
 30
0.0
 11
138.00000000061121
 21
-67.999999999987025
 31
0.0
1001
ACDBBLOCKREPETAG
1070
     1
1071
      248
1005
14560E
  0
LINE
  5
14560F
  8
OBJECT
 10
138.00000000061121
 20
-67.999999999987025
 30
0.0
 11
138.00000000061121
 21
-155.99999999998701
 31
0.0
1001
ACDBBLOCKREPETAG
1070
     1
1071
      249
1005
14560F
  0
LINE
  5
145610
  8
OBJECT
 10
138.00000000061121
 20
-155.99999999998701
 30
0.0
 11
102.00000000061119
 21
-155.99999999998701
 31
0.0
1001
ACDBBLOCKREPETAG
1070
     1
1071
      250
1005
145610
  0
LINE
  5
145611
  8
OBJECT
 10
142.00000000061121
 20
-72.499999999987054
 30
0.0
 11
155.00000000061121
 21
-72.499999999987054
 31
0.0
1001
ACDBBLOCKREPETAG
1070
     1
1071
      251
1005
145611
  0
LINE
  5
145612
  8
OBJECT
 10
155.00000000061121
 20
-151.49999999998701
 30
0.0
 11
142.00000000061121
 21
-151.49999999998701
 31
0.0
1001
ACDBBLOCKREPETAG
1070
     1
1071
      252
1005
145612
  0
LINE
  5
145613
  8
OBJECT
 10
142.00000000061121
 20
-151.49999999998701
 30
0.0
 11
142.00000000061121
 21
-72.499999999987054
 31
0.0
1001
ACDBBLOCKREPETAG
1070
     1
1071
      253
1005
145613
  0
LINE
  5
145614
  8
OBJECT
 10
138.00000000061121
 20
-67.999999999987025
 30
0.0
 11
142.00000000061121
 21
-72.499999999987054
 31
0.0
1001
ACDBBLOCKREPETAG
1070
     1
1071
      254
1005
145614
  0
LINE
  5
145615
  8
OBJECT
 10
138.00000000061121
 20
-155.99999999998701
 30
0.0
 11
142.00000000061121
 21
-151.49999999998701
 31
0.0
1001
ACDBBLOCKREPETAG
1070
     1
1071
      255
1005
145615
  0
LINE
  5
145616
  8
OBJECT
 10
133.00000000061121
 20
-168.99999999998701
 30
0.0
 11
133.00000000061121
 21
-171.99999999998701
 31
0.0
1001
ACDBBLOCKREPETAG
1070
     1
1071
      257
1005
145616
  0
ARC
  5
145617
  8
OBJECT
 10
136.00000000061121
 20
-168.99999999998701
 30
0.0
 40
3.0
 50
90.0
 51
180.0
1001
ACDBBLOCKREPETAG
1070
     1
1071
      258
1005
145617
  0
LINE
  5
145618
  8
OBJECT
 10
257.00000000061118
 20
-171.99999999998701
 30
0.0
 11
257.00000000061118
 21
-168.99999999998701
 31
0.0
1001
ACDBBLOCKREPETAG
1070
     1
1071
      259
1005
145618
  0
ARC
  5
145619
  8
OBJECT
 10
254.00000000061121
 20
-168.99999999998701
 30
0.0
 40
3.0
 50
0.0
 51
90.0
1001
ACDBBLOCKREPETAG
1070
     1
1071
      260
1005
145619
  0
LINE
  5
14561A
  8
OBJECT
 10
254.00000000061121
 20
-165.99999999998701
 30
0.0
 11
136.00000000061121
 21
-165.99999999998701
 31
0.0
1001
ACDBBLOCKREPETAG
1070
     1
1071
      261
1005
14561A
  0
LINE
  5
14561B
  8
OBJECT
 10
154.99992447922699
 20
-151.5000036267281
 30
0.0
 11
154.99992447922699
 21
-72.50000362672813
 31
0.0
1001
ACDBBLOCKREPETAG
1070
     1
1071
      263
1005
14561B
  0
LINE
  5
14561C
  8
OBJECT
 10
136.00000000061121
 20
-155.99999999998701
 30
0.0
 11
136.00000000060751
 21
-165.99999999998701
 31
0.0
1001
ACDBBLOCKREPETAG
1070
     1
1071
      264
1005
14561C
  0
LINE
  5
14561D
  8
OBJECT
 10
161.50000000060751
 20
-150.4999999999865
 30
0.0
 11
161.5000000006111
 21
-165.99999999998701
 31
0.0
1001
ACDBBLOCKREPETAG
1070
     1
1071
      265
1005
14561D
  0
LINE
  5
14561E
  8
OBJECT
 10
228.50000000060751
 20
-147.99999999998661
 30
0.0
 11
228.50000000060751
 21
-165.99999999998701
 31
0.0
1001
ACDBBLOCKREPETAG
1070
     1
1071
      266
1005
14561E
  0
LINE
  5
14561F
  8
OBJECT
 10
154.99992447922699
 20
-145.49999999998701
 30
0.0
 11
156.50000000060751
 21
-145.49999999998661
 31
0.0
1001
ACDBBLOCKREPETAG
1070
     1
1071
      267
1005
14561F
  0
ARC
  5
145620
  8
OBJECT
 10
156.50000000060751
 20
-150.4999999999865
 30
0.0
 40
5.0
 50
0.0
 51
90.0
1001
ACDBBLOCKREPETAG
1070
     1
1071
      268
1005
145620
  0
LINE
  5
145621
  8
OBJECT
 10
154.99992447922699
 20
-78.499999999987054
 30
0.0
 11
159.00000000060751
 21
-78.499999999986585
 31
0.0
1001
ACDBBLOCKREPETAG
1070
     1
1071
      269
1005
145621
  0
ARC
  5
145622
  8
OBJECT
 10
159.00000000060751
 20
-147.99999999998661
 30
0.0
 40
69.5
 50
0.0
 51
90.0
1001
ACDBBLOCKREPETAG
1070
     1
1071
      270
1005
145622
  0
INSERT
  5
145623
  8
OBJECT
  2
*U989
 10
0.0
 20
0.0
 30
0.0
  0
LINE
  5
145624
  8
HIDDEN
 10
147.00000000061121
 20
-141.99999999998701
 30
0.0
 11
147.00000000061121
 21
-81.999999999987054
 31
0.0
1001
ACDBBLOCKREPETAG
1070
     1
1071
      422
1005
145624
  0
ARC
  5
145625
  8
OBJECT
 10
195.00000000061121
 20
-251.99999999998701
 30
0.0
 40
50.0
 50
28.819943000140022
 51
318.52376955951968
1001
ACDBBLOCKREPETAG
1070
     1
1071
       49
1005
145625
  0
CIRCLE
  5
145626
  8
OBJECT
 10
195.00000000061121
 20
-251.99999999998701
 30
0.0
 40
70.0
1001
ACDBBLOCKREPETAG
1070
     1
1071
       50
1005
145626
  0
CIRCLE
  5
145627
  8
OBJECT
 10
195.00000000061121
 20
-251.99999999998701
 30
0.0
 40
77.0
1001
ACDBBLOCKREPETAG
1070
     1
1071
       51
1005
145627
  0
ARC
  5
145628
  8
OBJECT
 10
195.00000000061121
 20
-251.99999999998701
 30
0.0
 40
80.0
 50
140.80503257377961
 51
39.194967426220252
1001
ACDBBLOCKREPETAG
1070
     1
1071
       52
1005
145628
  0
LINE
  5
145629
  8
OBJECT
 10
133.00000000061121
 20
-206.33819977266251
 30
0.0
 11
133.00000000061121
 21
-171.99999999998701
 31
0.0
1001
ACDBBLOCKREPETAG
1070
     1
1071
       53
1005
145629
  0
LINE
  5
14562A
  8
OBJECT
 10
257.00000000061118
 20
-206.33819977266251
 30
0.0
 11
257.00000000061118
 21
-171.99999999998701
 31
0.0
1001
ACDBBLOCKREPETAG
1070
     1
1071
       54
1005
14562A
  0
LINE
  5
14562B
  8
OBJECT
 10
238.8069471243289
 20
-227.8970669066855
 30
0.0
 11
227.55462200061081
 21
-231.3403429999905
 31
0.0
1001
ACDBBLOCKREPETAG
1070
     1
1071
      141
1005
14562B
  0
LINE
  5
14562C
  8
OBJECT
 10
213.22553374269231
 20
-265.20725009861212
 30
0.0
 11
227.55462200060899
 21
-231.3403429999905
 31
0.0
1001
ACDBBLOCKREPETAG
1070
     1
1071
      143
1005
14562C
  0
ARC
  5
14562D
  8
OBJECT
 10
222.43512999966879
 20
-269.10383023808549
 30
0.0
 40
10.0
 50
157.066778292897
 51
244.01473437020459
1001
ACDBBLOCKREPETAG
1070
     1
1071
      144
1005
14562D
  0
ARC
  5
14562E
  8
OBJECT
 10
220.55386256790371
 20
-265.8511609618597
 30
0.0
 40
7.0
 50
157.066778292897
 51
244.0147337750746
1001
ACDBBLOCKREPETAG
1070
     1
1071
      145
1005
14562E
  0
LINE
  5
14562F
  8
OBJECT
 10
238.89888500879391
 20
-282.58002444468548
 30
0.0
 11
217.48688253418001
 21
-272.14350817675012
 31
0.0
1001
ACDBBLOCKREPETAG
1070
     1
1071
      154
1005
14562F
  0
LINE
  5
145630
  8
OBJECT
 10
235.71813901943941
 20
-286.70278309937811
 30
0.0
 11
218.0537300449196
 21
-278.09289773347848
 31
0.0
1001
ACDBBLOCKREPETAG
1070
     1
1071
      155
1005
145630
  0
ARC
  5
145631
  8
OBJECT
 10
202.1289369834557
 20
-275.42030469267212
 30
0.0
 40
60.031113246032611
 50
44.070201304186917
 51
52.339361060978852
1001
ACDBBLOCKREPETAG
1070
     1
1071
      156
1005
145631
  0
CIRCLE
  5
145632
  8
OBJECT
 10
195.00000000061121
 20
-251.99999999998701
 30
0.0
 40
53.5
1001
ACDBBLOCKREPETAG
1070
     1
1071
      157
1005
145632
  0
POINT
  5
145633
  8
DOTS
 10
195.00000000061121
 20
-251.99999999998701
 30
0.0
1001
ACDBBLOCKREPETAG
1070
     1
1071
      162
1005
145633
  0
POLYLINE
  5
145634
  8
HIDDEN
 66
     1
 10
0.0
 20
0.0
 30
0.0
 70
     1
1001
ACDBBLOCKREPETAG
1070
     1
1071
      105
1005
0
  0
VERTEX
  5
147934
  8
HIDDEN
 10
359.99999999987818
 20
0.0
 30
0.0
  0
VERTEX
  5
147935
  8
HIDDEN
 10
719.99999999975626
 20
0.0
 30
0.0
  0
VERTEX
  5
147936
  8
HIDDEN
 10
719.99999999975626
 20
-463.99999999984158
 30
0.0
  0
VERTEX
  5
147937
  8
HIDDEN
 10
359.99999999987818
 20
-463.99999999984158
 30
0.0
  0
SEQEND
  5
147938
  8
HIDDEN
  0
POLYLINE
  5
145635
  8
HIDDEN
 66
     1
 10
0.0
 20
0.0
 30
0.0
 70
     1
1001
ACDBBLOCKREPETAG
1070
     1
1071
      110
1005
0
  0
VERTEX
  5
147939
  8
HIDDEN
 10
0.0
 20
0.0
 30
0.0
  0
VERTEX
  5
14793A
  8
HIDDEN
 10
359.99999999987818
 20
0.0
 30
0.0
  0
VERTEX
  5
14793B
  8
HIDDEN
 10
359.99999999987818
 20
-463.99999999984158
 30
0.0
  0
VERTEX
  5
14793C
  8
HIDDEN
 10
0.0
 20
-463.99999999984158
 30
0.0
  0
SEQEND
  5
14793D
  8
HIDDEN
  0
POLYLINE
  5
145636
  8
HIDDEN
 66
     1
 10
0.0
 20
0.0
 30
0.0
 70
     1
1001
ACDBBLOCKREPETAG
1070
     1
1071
      125
1005
0
  0
VERTEX
  5
14793E
  8
HIDDEN
 10
0.0
 20
-463.99999999984158
 30
0.0
  0
VERTEX
  5
14793F
  8
HIDDEN
 10
359.99999999987818
 20
-463.99999999984158
 30
0.0
  0
VERTEX
  5
147940
  8
HIDDEN
 10
359.99999999987818
 20
-927.99999999968372
 30
0.0
  0
VERTEX
  5
147941
  8
HIDDEN
 10
0.0
 20
-927.99999999968372
 30
0.0
  0
SEQEND
  5
147942
  8
HIDDEN
  0
LINE
  5
145637
  8
OBJECT
 10
2212.0
 20
-97.000000000004775
 30
0.0
 11
2212.0
 21
-90.000000000004775
 31
0.0
1001
ACDBBLOCKREPETAG
1070
     1
1071
      325
1005
145637
  0
LINE
  5
145638
  8
OBJECT
 10
2212.0
 20
-90.000000000004775
 30
0.0
 11
2088.0
 21
-90.000000000004775
 31
0.0
1001
ACDBBLOCKREPETAG
1070
     1
1071
      326
1005
145638
  0
LINE
  5
145639
  8
OBJECT
 10
2088.0
 20
-90.000000000004775
 30
0.0
 11
2088.0
 21
-97.000000000004775
 31
0.0
1001
ACDBBLOCKREPETAG
1070
     1
1071
      327
1005
145639
  0
LINE
  5
14563A
  8
OBJECT
 10
2088.0
 20
-97.000000000004775
 30
0.0
 11
2212.0
 21
-97.000000000004775
 31
0.0
1001
ACDBBLOCKREPETAG
1070
     1
1071
      328
1005
14563A
  0
LINE
  5
14563B
  8
CENTER
 10
2197.2436941260312
 20
-200.00000000000111
 30
0.0
 11
2080.0
 21
-200.0000000000048
 31
0.0
1001
ACDBBLOCKREPETAG
1070
     1
1071
      329
1005
14563B
  0
LINE
  5
14563C
  8
OBJECT
 10
2092.5
 20
-153.00000000000111
 30
0.0
 11
2086.0
 21
-153.00000000000111
 31
0.0
1001
ACDBBLOCKREPETAG
1070
     1
1071
      330
1005
14563C
  0
LINE
  5
14563D
  8
OBJECT
 10
2098.0
 20
-247.00000000000111
 30
0.0
 11
2086.0
 21
-247.0000000000048
 31
0.0
1001
ACDBBLOCKREPETAG
1070
     1
1071
      331
1005
14563D
  0
LINE
  5
14563E
  8
OBJECT
 10
2209.0
 20
-97.000000000004775
 30
0.0
 11
2209.0
 21
-133.0000000000048
 31
0.0
1001
ACDBBLOCKREPETAG
1070
     1
1071
      332
1005
14563E
  0
LINE
  5
14563F
  8
OBJECT
 10
2209.0
 20
-133.0000000000048
 30
0.0
 11
2091.0
 21
-133.0000000000048
 31
0.0
1001
ACDBBLOCKREPETAG
1070
     1
1071
      333
1005
14563F
  0
LINE
  5
145640
  8
OBJECT
 10
2091.0
 20
-133.0000000000048
 30
0.0
 11
2091.0
 21
-97.000000000004775
 31
0.0
1001
ACDBBLOCKREPETAG
1070
     1
1071
      334
1005
145640
  0
LINE
  5
145641
  8
OBJECT
 10
2204.5
 20
-137.0000000000048
 30
0.0
 11
2204.5
 21
-150.00000000000469
 31
0.0
1001
ACDBBLOCKREPETAG
1070
     1
1071
      335
1005
145641
  0
LINE
  5
145642
  8
OBJECT
 10
2095.5
 20
-150.00000000000469
 30
0.0
 11
2095.5
 21
-137.0000000000048
 31
0.0
1001
ACDBBLOCKREPETAG
1070
     1
1071
      336
1005
145642
  0
LINE
  5
145643
  8
OBJECT
 10
2095.5
 20
-137.0000000000048
 30
0.0
 11
2204.5
 21
-137.0000000000048
 31
0.0
1001
ACDBBLOCKREPETAG
1070
     1
1071
      337
1005
145643
  0
LINE
  5
145644
  8
OBJECT
 10
2209.0
 20
-133.0000000000048
 30
0.0
 11
2204.5
 21
-137.0000000000048
 31
0.0
1001
ACDBBLOCKREPETAG
1070
     1
1071
      338
1005
145644
  0
LINE
  5
145645
  8
OBJECT
 10
2091.0
 20
-133.0000000000048
 30
0.0
 11
2095.5
 21
-137.0000000000048
 31
0.0
1001
ACDBBLOCKREPETAG
1070
     1
1071
      339
1005
145645
  0
LINE
  5
145646
  8
OBJECT
 10
2083.0
 20
-262.00000000000477
 30
0.0
 11
2080.0
 21
-262.00000000000477
 31
0.0
1001
ACDBBLOCKREPETAG
1070
     1
1071
      340
1005
145646
  0
ARC
  5
145647
  8
OBJECT
 10
2083.0
 20
-259.00000000000477
 30
0.0
 40
3.0
 50
270.0
 51
0.0
1001
ACDBBLOCKREPETAG
1070
     1
1071
      341
1005
145647
  0
LINE
  5
145648
  8
OBJECT
 10
2080.0
 20
-138.0000000000048
 30
0.0
 11
2095.5
 21
-138.0000000000048
 31
0.0
1001
ACDBBLOCKREPETAG
1070
     1
1071
      342
1005
145648
  0
ARC
  5
145649
  8
OBJECT
 10
2083.0
 20
-141.0000000000048
 30
0.0
 40
3.0
 50
0.0
 51
90.0
1001
ACDBBLOCKREPETAG
1070
     1
1071
      343
1005
145649
  0
LINE
  5
14564A
  8
OBJECT
 10
2086.0
 20
-141.0000000000048
 30
0.0
 11
2086.0
 21
-259.00000000000477
 31
0.0
1001
ACDBBLOCKREPETAG
1070
     1
1071
      344
1005
14564A
  0
LINE
  5
14564B
  8
HIDDEN
 10
2194.5
 20
-142.00000000000469
 30
0.0
 11
2105.5
 21
-142.00000000000469
 31
0.0
1001
ACDBBLOCKREPETAG
1070
     1
1071
      345
1005
14564B
  0
LINE
  5
14564C
  8
OBJECT
 10
2095.5000212374471
 20
-150.00004086387091
 30
0.0
 11
2204.5000212374471
 21
-150.00004086387091
 31
0.0
1001
ACDBBLOCKREPETAG
1070
     1
1071
      347
1005
14564C
  0
LINE
  5
14564D
  8
CENTER
 10
2150.0
 20
-247.2436941260323
 30
0.0
 11
2150.0
 21
-75.000000000004775
 31
0.0
1001
ACDBBLOCKREPETAG
1070
     1
1071
      348
1005
14564D
  0
ARC
  5
14564E
  8
CENTER
 10
2098.0
 20
-148.00000000000111
 30
0.0
 40
52.0
 50
270.0
 51
0.0
1001
ACDBBLOCKREPETAG
1070
     1
1071
      349
1005
14564E
  0
ARC
  5
14564F
  8
OBJECT
 10
2092.5
 20
-150.00000000000111
 30
0.0
 40
3.0
 50
270.0
 51
0.0
1001
ACDBBLOCKREPETAG
1070
     1
1071
      350
1005
14564F
  0
ARC
  5
145650
  8
OBJECT
 10
2098.0
 20
-148.00000000000111
 30
0.0
 40
99.0
 50
270.0
 51
358.84240710281
1001
ACDBBLOCKREPETAG
1070
     1
1071
      351
1005
145650
  0
LINE
  5
145651
  8
OBJECT
 10
1923.0
 20
-571.0
 30
0.0
 11
1923.0
 21
-550.0
 31
0.0
1001
ACDBBLOCKREPETAG
1070
     1
1071
        0
1005
145651
  0
LINE
  5
145652
  8
OBJECT
 10
1923.0
 20
-550.0
 30
0.0
 11
2077.0
 21
-550.0
 31
0.0
1001
ACDBBLOCKREPETAG
1070
     1
1071
        1
1005
145652
  0
LINE
  5
145653
  8
HIDDEN
 10
1943.0
 20
-620.0
 30
0.0
 11
2057.0
 21
-620.0
 31
0.0
1001
ACDBBLOCKREPETAG
1070
     1
1071
        2
1005
145653
  0
LINE
  5
145654
  8
OBJECT
 10
2077.0
 20
-550.0
 30
0.0
 11
2077.0
 21
-571.0
 31
0.0
1001
ACDBBLOCKREPETAG
1070
     1
1071
        3
1005
145654
  0
LINE
  5
145655
  8
OBJECT
 10
2077.0
 20
-571.0
 30
0.0
 11
1923.0
 21
-571.0
 31
0.0
1001
ACDBBLOCKREPETAG
1070
     1
1071
        4
1005
145655
  0
LINE
  5
145656
  8
CENTER
 10
2000.0
 20
-535.0
 30
0.0
 11
2000.0
 21
-770.0
 31
0.0
1001
ACDBBLOCKREPETAG
1070
     1
1071
        5
1005
145656
  0
LINE
  5
145657
  8
OBJECT
 10
1925.0
 20
-634.0
 30
0.0
 11
1925.0
 21
-758.0
 31
0.0
1001
ACDBBLOCKREPETAG
1070
     1
1071
        6
1005
145657
  0
LINE
  5
145658
  8
OBJECT
 10
1928.0
 20
-571.0
 30
0.0
 11
1928.0
 21
-634.0
 31
0.0
1001
ACDBBLOCKREPETAG
1070
     1
1071
        7
1005
145658
  0
LINE
  5
145659
  8
OBJECT
 10
2072.0
 20
-634.0
 30
0.0
 11
2072.0
 21
-571.0
 31
0.0
1001
ACDBBLOCKREPETAG
1070
     1
1071
        8
1005
145659
  0
LINE
  5
14565A
  8
OBJECT
 10
1920.0
 20
-758.0
 30
0.0
 11
2080.0
 21
-758.0
 31
0.0
1001
ACDBBLOCKREPETAG
1070
     1
1071
        9
1005
14565A
  0
LINE
  5
14565B
  8
OBJECT
 10
2080.0
 20
-634.0
 30
0.0
 11
1925.0
 21
-634.0
 31
0.0
1001
ACDBBLOCKREPETAG
1070
     1
1071
       10
1005
14565B
  0
LINE
  5
14565C
  8
OBJECT
 10
1920.0
 20
-758.0
 30
0.0
 11
1920.0
 21
-770.0
 31
0.0
1001
ACDBBLOCKREPETAG
1070
     1
1071
       11
1005
14565C
  0
LINE
  5
14565D
  8
OBJECT
 10
1920.0
 20
-770.0
 30
0.0
 11
2080.0
 21
-770.0
 31
0.0
1001
ACDBBLOCKREPETAG
1070
     1
1071
       12
1005
14565D
  0
LINE
  5
14565E
  8
OBJECT
 10
2080.0
 20
-770.0
 30
0.0
 11
2080.0
 21
-758.0
 31
0.0
1001
ACDBBLOCKREPETAG
1070
     1
1071
       13
1005
14565E
  0
ARC
  5
14565F
  8
OBJECT
 10
2200.6872746716731
 20
-749.40809941010752
 30
0.0
 40
170.6350503965856
 50
137.44134459184301
 51
149.91949581336559
1001
ACDBBLOCKREPETAG
1070
     1
1071
       15
1005
14565F
  0
ARC
  5
145660
  8
OBJECT
 10
2118.8455987040511
 20
-705.88272669536479
 30
0.0
 40
78.072222021763665
 50
147.45515310377539
 51
164.6636599771798
1001
ACDBBLOCKREPETAG
1070
     1
1071
       16
1005
145660
  0
ARC
  5
145661
  8
OBJECT
 10
2085.7554349608731
 20
-696.0
 30
0.0
 40
43.55353926885617
 50
165.6884523008477
 51
194.3115476991523
1001
ACDBBLOCKREPETAG
1070
     1
1071
       17
1005
145661
  0
ARC
  5
145662
  8
OBJECT
 10
2200.6872746716731
 20
-642.59190058989225
 30
0.0
 40
170.6350503965856
 50
210.0805041866343
 51
222.55865540815699
1001
ACDBBLOCKREPETAG
1070
     1
1071
       18
1005
145662
  0
ARC
  5
145663
  8
OBJECT
 10
2118.8455987040511
 20
-686.11727330463521
 30
0.0
 40
78.072222021763665
 50
195.3363400228202
 51
212.54484689622461
1001
ACDBBLOCKREPETAG
1070
     1
1071
       19
1005
145663
  0
POINT
  5
145664
  8
DOTS
 10
2000.0
 20
-755.0
 30
0.0
1001
ACDBBLOCKREPETAG
1070
     1
1071
      186
1005
145664
  0
LINE
  5
145665
  8
OBJECT
 10
2024.102933093302
 20
-243.80694712372249
 30
0.0
 11
2020.659656999997
 21
-232.5546220000044
 31
0.0
1001
ACDBBLOCKREPETAG
1070
     1
1071
      300
1005
145665
  0
LINE
  5
145666
  8
OBJECT
 10
1986.7927499013749
 20
-218.2255337420859
 30
0.0
 11
2020.659656999997
 21
-232.55462200000261
 31
0.0
1001
ACDBBLOCKREPETAG
1070
     1
1071
      302
1005
145666
  0
ARC
  5
145667
  8
OBJECT
 10
1982.8961697619
 20
-227.43512999906241
 30
0.0
 40
10.0
 50
67.066778292923374
 51
154.0147343702935
1001
ACDBBLOCKREPETAG
1070
     1
1071
      303
1005
145667
  0
ARC
  5
145668
  8
OBJECT
 10
1986.1488390381271
 20
-225.5538625672973
 30
0.0
 40
7.0
 50
67.066778292923374
 51
154.01473377497121
1001
ACDBBLOCKREPETAG
1070
     1
1071
      304
1005
145668
  0
LINE
  5
145669
  8
OBJECT
 10
1969.4199755553
 20
-243.89888500818731
 30
0.0
 11
1979.856491823236
 21
-222.48688253357361
 31
0.0
1001
ACDBBLOCKREPETAG
1070
     1
1071
      341
1005
145669
  0
LINE
  5
14566A
  8
OBJECT
 10
1965.2972169006091
 20
-240.718139018833
 30
0.0
 11
1973.907102266508
 21
-223.0537300443132
 31
0.0
1001
ACDBBLOCKREPETAG
1070
     1
1071
      342
1005
14566A
  0
ARC
  5
14566B
  8
OBJECT
 10
1976.579695307315
 20
-207.12893698284941
 30
0.0
 40
60.031113246032611
 50
314.07020130418567
 51
322.33936106091278
1001
ACDBBLOCKREPETAG
1070
     1
1071
      343
1005
14566B
  0
CIRCLE
  5
14566C
  8
OBJECT
 10
2000.0
 20
-200.0000000000048
 30
0.0
 40
53.5
1001
ACDBBLOCKREPETAG
1070
     1
1071
      344
1005
14566C
  0
POINT
  5
14566D
  8
DOTS
 10
2000.0
 20
-200.0000000000048
 30
0.0
 50
270.0
1001
ACDBBLOCKREPETAG
1070
     1
1071
      362
1005
14566D
  0
ARC
  5
14566E
  8
OBJECT
 10
2000.0
 20
-200.0000000000048
 30
0.0
 40
50.0
 50
298.81994300000417
 51
228.52376955967449
1001
ACDBBLOCKREPETAG
1070
     1
1071
        7
1005
14566E
  0
LINE
  5
14566F
  8
CENTER
 10
2080.0
 20
-200.0000000000048
 30
0.0
 11
1905.0
 21
-200.0000000000048
 31
0.0
1001
ACDBBLOCKREPETAG
1070
     1
1071
       14
1005
14566F
  0
LINE
  5
145670
  8
CENTER
 10
2000.0
 20
-295.00000000000489
 30
0.0
 11
2000.0
 21
-105.0000000000048
 31
0.0
1001
ACDBBLOCKREPETAG
1070
     1
1071
       15
1005
145670
  0
CIRCLE
  5
145671
  8
OBJECT
 10
2000.0
 20
-200.0000000000048
 30
0.0
 40
70.0
1001
ACDBBLOCKREPETAG
1070
     1
1071
       16
1005
145671
  0
CIRCLE
  5
145672
  8
OBJECT
 10
2000.0
 20
-200.0000000000048
 30
0.0
 40
77.0
1001
ACDBBLOCKREPETAG
1070
     1
1071
       17
1005
145672
  0
ARC
  5
145673
  8
OBJECT
 10
2000.0
 20
-200.0000000000048
 30
0.0
 40
80.0
 50
50.805032573864182
 51
309.1949674261358
1001
ACDBBLOCKREPETAG
1070
     1
1071
       18
1005
145673
  0
LINE
  5
145674
  8
OBJECT
 10
2045.6618002273251
 20
-138.0000000000048
 30
0.0
 11
2080.0
 21
-138.0000000000048
 31
0.0
1001
ACDBBLOCKREPETAG
1070
     1
1071
       19
1005
145674
  0
LINE
  5
145675
  8
OBJECT
 10
2045.6618002273251
 20
-262.00000000000477
 30
0.0
 11
2080.0
 21
-262.00000000000477
 31
0.0
1001
ACDBBLOCKREPETAG
1070
     1
1071
       20
1005
145675
  0
LINE
  5
145676
  8
DIM
 10
2000.0
 20
-3069.9999999999959
 30
0.0
 11
2000.0
 21
-2891.316574612405
 31
0.0
  0
LINE
  5
145677
  8
DIM
 10
2187.0
 20
-3064.9999999999959
 30
0.0
 11
2187.0
 21
-2891.316574612405
 31
0.0
  0
LINE
  5
145678
  8
DIM
 10
2020.0
 20
-2901.3165746124059
 30
0.0
 11
2166.9999999999991
 21
-2901.3165746124059
 31
0.0
  0
INSERT
  5
145679
  8
DIM
  2
_OPEN30
 10
2000.0
 20
-2901.3165746124059
 30
0.0
 41
20.0
 42
20.0
 43
20.0
 50
180.0
  0
INSERT
  5
14567A
  8
DIM
  2
_OPEN30
 10
2187.0
 20
-2901.3165746124059
 30
0.0
 41
20.0
 42
20.0
 43
20.0
  0
INSERT
  5
14567B
  8
OBJECT
  2
*U990
 10
0.0
 20
0.0
 30
0.0
  0
LINE
  5
14567C
  8
DIM
 10
2000.0
 20
-3069.9999999999959
 30
0.0
 11
2000.0
 21
-2957.1223535003292
 31
0.0
  0
LINE
  5
14567D
  8
DIM
 10
2140.0
 20
-3049.999999999995
 30
0.0
 11
2140.0
 21
-2957.1223535003292
 31
0.0
  0
LINE
  5
14567E
  8
DIM
 10
2020.0
 20
-2967.1223535003292
 30
0.0
 11
2120.0
 21
-2967.1223535003292
 31
0.0
  0
INSERT
  5
14567F
  8
DIM
  2
_OPEN30
 10
2000.0
 20
-2967.1223535003292
 30
0.0
 41
20.0
 42
20.0
 43
20.0
 50
180.0
  0
INSERT
  5
145680
  8
DIM
  2
_OPEN30
 10
2140.0
 20
-2967.1223535003292
 30
0.0
 41
20.0
 42
20.0
 43
20.0
  0
INSERT
  5
145681
  8
OBJECT
  2
*U991
 10
0.0
 20
0.0
 30
0.0
  0
LINE
  5
145682
  8
DIM
 10
2188.44955845084
 20
-3174.9999999999918
 30
0.0
 11
2272.6903592692679
 21
-3174.9999999999918
 31
0.0
  0
LINE
  5
145683
  8
DIM
 10
2197.0
 20
-3074.9999999999959
 30
0.0
 11
2272.6903592692679
 21
-3074.9999999999959
 31
0.0
  0
LINE
  5
145684
  8
DIM
 10
2262.6903592692688
 20
-3154.9999999999918
 30
0.0
 11
2262.6903592692688
 21
-3094.9999999999959
 31
0.0
  0
INSERT
  5
145685
  8
DIM
  2
_OPEN30
 10
2262.6903592692688
 20
-3174.9999999999918
 30
0.0
 41
20.0
 42
20.0
 43
20.0
 50
270.0
  0
INSERT
  5
145686
  8
DIM
  2
_OPEN30
 10
2262.6903592692688
 20
-3074.9999999999959
 30
0.0
 41
20.0
 42
20.0
 43
20.0
 50
90.0
  0
INSERT
  5
145687
  8
OBJECT
  2
*U992
 10
0.0
 20
0.0
 30
0.0
  0
LINE
  5
145688
  8
DIM
 10
2212.0
 20
-3535.9999999999959
 30
0.0
 11
2262.636086879676
 21
-3535.9999999999959
 31
0.0
  0
LINE
  5
145689
  8
DIM
 10
2166.5227116418569
 20
-3579.9999999999959
 30
0.0
 11
2262.636086879676
 21
-3579.9999999999959
 31
0.0
  0
LINE
  5
14568A
  8
DIM
 10
2252.636086879676
 20
-3515.9999999999959
 30
0.0
 11
2252.636086879676
 21
-3495.9999999999959
 31
0.0
  0
LINE
  5
14568B
  8
DIM
 10
2252.636086879676
 20
-3599.9999999999959
 30
0.0
 11
2252.636086879676
 21
-3619.9999999999959
 31
0.0
  0
LINE
  5
14568C
  8
DIM
 10
2252.636086879676
 20
-3535.9999999999959
 30
0.0
 11
2252.636086879676
 21
-3579.9999999999959
 31
0.0
  0
INSERT
  5
14568D
  8
DIM
  2
_OPEN30
 10
2252.636086879676
 20
-3535.9999999999959
 30
0.0
 41
20.0
 42
20.0
 43
20.0
 50
270.0
  0
INSERT
  5
14568E
  8
DIM
  2
_OPEN30
 10
2252.636086879676
 20
-3579.9999999999959
 30
0.0
 41
20.0
 42
20.0
 43
20.0
 50
90.0
  0
INSERT
  5
14568F
  8
OBJECT
  2
*U993
 10
0.0
 20
0.0
 30
0.0
  0
LINE
  5
145690
  8
DIM
 10
2092.9999999999991
 20
-3064.9999999999959
 30
0.0
 11
2092.9999999999991
 21
-3027.4747578501879
 31
0.0
  0
LINE
  5
145691
  8
DIM
 10
2187.0
 20
-3064.9999999999959
 30
0.0
 11
2187.0
 21
-3027.4747578501879
 31
0.0
  0
LINE
  5
145692
  8
DIM
 10
2112.9999999999991
 20
-3037.474757850187
 30
0.0
 11
2166.9999999999991
 21
-3037.474757850187
 31
0.0
  0
INSERT
  5
145693
  8
DIM
  2
_OPEN30
 10
2092.9999999999991
 20
-3037.474757850187
 30
0.0
 41
20.0
 42
20.0
 43
20.0
 50
180.0
  0
INSERT
  5
145694
  8
DIM
  2
_OPEN30
 10
2187.0
 20
-3037.474757850187
 30
0.0
 41
20.0
 42
20.0
 43
20.0
  0
INSERT
  5
145695
  8
OBJECT
  2
*U994
 10
0.0
 20
0.0
 30
0.0
  0
LINE
  5
145696
  8
CENTER
 10
2598.0
 20
-3535.9999999999959
 30
0.0
 11
2729.0
 21
-3535.9999999999959
 31
0.0
1001
ACDBBLOCKREPETAG
1070
     1
1071
      212
1005
145696
  0
LINE
  5
145697
  8
OBJECT
 10
2717.0
 20
-3458.9999999999968
 30
0.0
 11
2720.0
 21
-3458.9999999999968
 31
0.0
1001
ACDBBLOCKREPETAG
1070
     1
1071
      213
1005
145697
  0
ARC
  5
145698
  8
OBJECT
 10
2717.0
 20
-3461.9999999999959
 30
0.0
 40
3.0
 50
90.0
 51
180.0
1001
ACDBBLOCKREPETAG
1070
     1
1071
      214
1005
145698
  0
LINE
  5
145699
  8
OBJECT
 10
2720.0
 20
-3582.9999999999968
 30
0.0
 11
2717.0
 21
-3582.9999999999968
 31
0.0
1001
ACDBBLOCKREPETAG
1070
     1
1071
      215
1005
145699
  0
ARC
  5
14569A
  8
OBJECT
 10
2717.0
 20
-3579.9999999999959
 30
0.0
 40
3.0
 50
180.0
 51
270.0
1001
ACDBBLOCKREPETAG
1070
     1
1071
      216
1005
14569A
  0
LINE
  5
14569B
  8
OBJECT
 10
2714.0
 20
-3579.9999999999959
 30
0.0
 11
2714.0
 21
-3461.9999999999959
 31
0.0
1001
ACDBBLOCKREPETAG
1070
     1
1071
      217
1005
14569B
  0
CIRCLE
  5
14569C
  8
OBJECT
 10
2660.0
 20
-3535.9999999999959
 30
0.0
 40
28.0
1001
ACDBBLOCKREPETAG
1070
     1
1071
      219
1005
14569C
  0
CIRCLE
  5
14569D
  8
OBJECT
 10
2660.0
 20
-3535.9999999999959
 30
0.0
 40
39.0
1001
ACDBBLOCKREPETAG
1070
     1
1071
      220
1005
14569D
  0
ARC
  5
14569E
  8
OBJECT
 10
2660.0
 20
-3535.9999999999959
 30
0.0
 40
47.0
 50
290.58196921144412
 51
249.41803078855591
1001
ACDBBLOCKREPETAG
1070
     1
1071
      221
1005
14569E
  0
LINE
  5
14569F
  8
OBJECT
 10
2676.5227116418569
 20
-3579.9999999999959
 30
0.0
 11
2643.4772883581431
 21
-3579.9999999999959
 31
0.0
1001
ACDBBLOCKREPETAG
1070
     1
1071
      222
1005
14569F
  0
LINE
  5
1456A0
  8
OBJECT
 10
2692.9658834499392
 20
-3502.4999999999959
 30
0.0
 11
2714.0
 21
-3502.4999999999959
 31
0.0
1001
ACDBBLOCKREPETAG
1070
     1
1071
      223
1005
1456A0
  0
LINE
  5
1456A1
  8
OBJECT
 10
2692.9658834499392
 20
-3569.4999999999968
 30
0.0
 11
2713.9999901410711
 21
-3569.4999999999968
 31
0.0
1001
ACDBBLOCKREPETAG
1070
     1
1071
      224
1005
1456A1
  0
LINE
  5
1456A2
  8
CENTER
 10
2660.0
 20
-3594.9999999999968
 30
0.0
 11
2660.0
 21
-3473.9999999999968
 31
0.0
1001
ACDBBLOCKREPETAG
1070
     1
1071
      225
1005
1456A2
  0
LINE
  5
1456A3
  8
CENTER
 10
5573.0
 20
-3520.9999999999968
 30
0.0
 11
5729.0
 21
-3520.9999999999968
 31
0.0
1001
ACDBBLOCKREPETAG
1070
     1
1071
      241
1005
1456A3
  0
LINE
  5
1456A4
  8
OBJECT
 10
5690.4351332383121
 20
-3567.9999999999959
 30
0.0
 11
5713.9999999999973
 21
-3567.9999999999959
 31
0.0
1001
ACDBBLOCKREPETAG
1070
     1
1071
      242
1005
1456A4
  0
LINE
  5
1456A5
  8
OBJECT
 10
5690.4351332383121
 20
-3473.9999999999968
 30
0.0
 11
5713.9999999999973
 21
-3473.9999999999968
 31
0.0
1001
ACDBBLOCKREPETAG
1070
     1
1071
      243
1005
1456A5
  0
LINE
  5
1456A6
  8
OBJECT
 10
5717.0
 20
-3458.9999999999968
 30
0.0
 11
5720.0
 21
-3458.9999999999968
 31
0.0
1001
ACDBBLOCKREPETAG
1070
     1
1071
      244
1005
1456A6
  0
LINE
  5
1456A7
  8
OBJECT
 10
5720.0
 20
-3582.9999999999968
 30
0.0
 11
5717.0
 21
-3582.9999999999968
 31
0.0
1001
ACDBBLOCKREPETAG
1070
     1
1071
      245
1005
1456A7
  0
ARC
  5
1456A8
  8
OBJECT
 10
5717.0
 20
-3461.9999999999959
 30
0.0
 40
3.0
 50
90.0
 51
180.0
1001
ACDBBLOCKREPETAG
1070
     1
1071
      246
1005
1456A8
  0
ARC
  5
1456A9
  8
OBJECT
 10
5717.0
 20
-3579.9999999999959
 30
0.0
 40
3.0
 50
180.0
 51
270.0
1001
ACDBBLOCKREPETAG
1070
     1
1071
      247
1005
1456A9
  0
LINE
  5
1456AA
  8
OBJECT
 10
5714.0
 20
-3579.9999999999959
 30
0.0
 11
5714.0
 21
-3461.9999999999959
 31
0.0
1001
ACDBBLOCKREPETAG
1070
     1
1071
      248
1005
1456AA
  0
CIRCLE
  5
1456AB
  8
OBJECT
 10
5650.0
 20
-3520.9999999999968
 30
0.0
 40
54.0
1001
ACDBBLOCKREPETAG
1070
     1
1071
      250
1005
1456AB
  0
CIRCLE
  5
1456AC
  8
OBJECT
 10
5650.0
 20
-3520.9999999999968
 30
0.0
 40
41.5
1001
ACDBBLOCKREPETAG
1070
     1
1071
      251
1005
1456AC
  0
ARC
  5
1456AD
  8
OBJECT
 10
5650.0
 20
-3520.9999999999968
 30
0.0
 40
62.0
 50
287.8965511292032
 51
252.1034488707968
1001
ACDBBLOCKREPETAG
1070
     1
1071
      252
1005
1456AD
  0
LINE
  5
1456AE
  8
CENTER
 10
5650.0
 20
-3594.9999999999968
 30
0.0
 11
5650.0
 21
-3443.9999999999959
 31
0.0
1001
ACDBBLOCKREPETAG
1070
     1
1071
      253
1005
1456AE
  0
LINE
  5
1456AF
  8
OBJECT
 10
5669.052558883257
 20
-3579.9999999999959
 30
0.0
 11
5630.947441116743
 21
-3579.9999999999959
 31
0.0
1001
ACDBBLOCKREPETAG
1070
     1
1071
      254
1005
1456AF
  0
TEXT
  5
1456B0
  8
SLIM
 10
4817.25
 20
-3697.4999999999968
 30
0.0
 40
35.0
  1
エルボ枝75右回り（R3）
 41
0.75
  0
LINE
  5
1456B1
  8
OBJECT
 10
4923.0
 20
-3395.9999999999968
 30
0.0
 11
4923.0
 21
-3374.9999999999959
 31
0.0
1001
ACDBBLOCKREPETAG
1070
     1
1071
        0
1005
1456B1
  0
LINE
  5
1456B2
  8
OBJECT
 10
4923.0
 20
-3374.9999999999959
 30
0.0
 11
5077.0
 21
-3374.9999999999959
 31
0.0
1001
ACDBBLOCKREPETAG
1070
     1
1071
        1
1005
1456B2
  0
LINE
  5
1456B3
  8
HIDDEN
 10
4943.0
 20
-3444.9999999999968
 30
0.0
 11
5057.0
 21
-3444.9999999999968
 31
0.0
1001
ACDBBLOCKREPETAG
1070
     1
1071
        2
1005
1456B3
  0
LINE
  5
1456B4
  8
OBJECT
 10
5077.0
 20
-3374.9999999999959
 30
0.0
 11
5077.0
 21
-3395.9999999999968
 31
0.0
1001
ACDBBLOCKREPETAG
1070
     1
1071
        3
1005
1456B4
  0
LINE
  5
1456B5
  8
OBJECT
 10
5077.0
 20
-3395.9999999999968
 30
0.0
 11
4923.0
 21
-3395.9999999999968
 31
0.0
1001
ACDBBLOCKREPETAG
1070
     1
1071
        4
1005
1456B5
  0
LINE
  5
1456B6
  8
CENTER
 10
5000.0
 20
-3359.9999999999968
 30
0.0
 11
5000.0
 21
-3594.9999999999968
 31
0.0
1001
ACDBBLOCKREPETAG
1070
     1
1071
        5
1005
1456B6
  0
LINE
  5
1456B7
  8
OBJECT
 10
4925.0
 20
-3458.9999999999968
 30
0.0
 11
4925.0
 21
-3582.9999999999968
 31
0.0
1001
ACDBBLOCKREPETAG
1070
     1
1071
        6
1005
1456B7
  0
LINE
  5
1456B8
  8
OBJECT
 10
4928.0
 20
-3395.9999999999968
 30
0.0
 11
4928.0
 21
-3458.9999999999968
 31
0.0
1001
ACDBBLOCKREPETAG
1070
     1
1071
        7
1005
1456B8
  0
LINE
  5
1456B9
  8
OBJECT
 10
5072.0
 20
-3458.9999999999968
 30
0.0
 11
5072.0
 21
-3395.9999999999968
 31
0.0
1001
ACDBBLOCKREPETAG
1070
     1
1071
        8
1005
1456B9
  0
LINE
  5
1456BA
  8
OBJECT
 10
5074.9999999997999
 20
-3582.9999999997758
 30
0.0
 11
5080.0
 21
-3582.9999999999968
 31
0.0
1001
ACDBBLOCKREPETAG
1070
     1
1071
        9
1005
1456BA
  0
LINE
  5
1456BB
  8
OBJECT
 10
5080.0
 20
-3458.9999999999968
 30
0.0
 11
4925.0
 21
-3458.9999999999968
 31
0.0
1001
ACDBBLOCKREPETAG
1070
     1
1071
       10
1005
1456BB
  0
ARC
  5
1456BC
  8
OBJECT
 10
5200.6872746716726
 20
-3574.4080994101041
 30
0.0
 40
170.6350503965856
 50
137.44134459184301
 51
149.9194958133665
1001
ACDBBLOCKREPETAG
1070
     1
1071
       15
1005
1456BC
  0
ARC
  5
1456BD
  8
OBJECT
 10
5118.8455987040506
 20
-3530.8827266953631
 30
0.0
 40
78.072222021763665
 50
147.4551531037684
 51
164.66365997719291
1001
ACDBBLOCKREPETAG
1070
     1
1071
       16
1005
1456BD
  0
ARC
  5
1456BE
  8
OBJECT
 10
5085.7554349608727
 20
-3520.9999999999968
 30
0.0
 40
43.55353926885617
 50
165.6884523008477
 51
194.3115476991523
1001
ACDBBLOCKREPETAG
1070
     1
1071
       17
1005
1456BE
  0
ARC
  5
1456BF
  8
OBJECT
 10
5200.6872746716726
 20
-3467.5919005898882
 30
0.0
 40
170.6350503965856
 50
210.0805041866335
 51
222.55865540815699
1001
ACDBBLOCKREPETAG
1070
     1
1071
       18
1005
1456BF
  0
ARC
  5
1456C0
  8
OBJECT
 10
5118.8455987040506
 20
-3511.1172733046319
 30
0.0
 40
78.072222021763665
 50
195.33634002280701
 51
212.5448468962316
1001
ACDBBLOCKREPETAG
1070
     1
1071
       19
1005
1456C0
  0
POINT
  5
1456C1
  8
DOTS
 10
5000.0
 20
-3579.9999999999959
 30
0.0
1001
ACDBBLOCKREPETAG
1070
     1
1071
      186
1005
1456C1
  0
LINE
  5
1456C2
  8
OBJECT
 10
5024.1029330933034
 20
-3218.8069471237131
 30
0.0
 11
5020.6596569999947
 21
-3207.5546219999951
 31
0.0
1001
ACDBBLOCKREPETAG
1070
     1
1071
      300
1005
1456C2
  0
LINE
  5
1456C3
  8
OBJECT
 10
4986.7927499013749
 20
-3193.225533742077
 30
0.0
 11
5020.6596569999947
 21
-3207.5546219999951
 31
0.0
1001
ACDBBLOCKREPETAG
1070
     1
1071
      302
1005
1456C3
  0
ARC
  5
1456C4
  8
OBJECT
 10
4982.8961697619006
 20
-3202.4351299990531
 30
0.0
 40
10.0
 50
67.06677829291263
 51
154.01473437029199
1001
ACDBBLOCKREPETAG
1070
     1
1071
      303
1005
1456C4
  0
ARC
  5
1456C5
  8
OBJECT
 10
4986.1488390381273
 20
-3200.553862567288
 30
0.0
 40
7.0
 50
67.06677829291263
 51
154.01473377497379
1001
ACDBBLOCKREPETAG
1070
     1
1071
      304
1005
1456C5
  0
LINE
  5
1456C6
  8
OBJECT
 10
4969.4199755553018
 20
-3218.8988850081791
 30
0.0
 11
4979.8564918232369
 21
-3197.4868825335639
 31
0.0
1001
ACDBBLOCKREPETAG
1070
     1
1071
      341
1005
1456C6
  0
LINE
  5
1456C7
  8
OBJECT
 10
4965.2972169006089
 20
-3215.7181390188239
 30
0.0
 11
4973.9071022665084
 21
-3198.0537300443038
 31
0.0
1001
ACDBBLOCKREPETAG
1070
     1
1071
      342
1005
1456C7
  0
ARC
  5
1456C8
  8
OBJECT
 10
4976.5796953073141
 20
-3182.1289369828401
 30
0.0
 40
60.031113246032611
 50
314.070201304188
 51
322.33936106089038
1001
ACDBBLOCKREPETAG
1070
     1
1071
      343
1005
1456C8
  0
CIRCLE
  5
1456C9
  8
OBJECT
 10
5000.0
 20
-3174.999999999995
 30
0.0
 40
53.5
1001
ACDBBLOCKREPETAG
1070
     1
1071
      344
1005
1456C9
  0
POINT
  5
1456CA
  8
DOTS
 10
5000.0
 20
-3174.999999999995
 30
0.0
 50
270.0
1001
ACDBBLOCKREPETAG
1070
     1
1071
      362
1005
1456CA
  0
ARC
  5
1456CB
  8
OBJECT
 10
5000.0
 20
-3174.999999999995
 30
0.0
 40
50.0
 50
298.81994299999963
 51
228.52376955965599
1001
ACDBBLOCKREPETAG
1070
     1
1071
        7
1005
1456CB
  0
LINE
  5
1456CC
  8
CENTER
 10
5080.0
 20
-3174.999999999995
 30
0.0
 11
4905.0
 21
-3174.999999999995
 31
0.0
1001
ACDBBLOCKREPETAG
1070
     1
1071
       14
1005
1456CC
  0
LINE
  5
1456CD
  8
CENTER
 10
5000.0
 20
-3269.9999999999959
 30
0.0
 11
5000.0
 21
-3079.9999999999959
 31
0.0
1001
ACDBBLOCKREPETAG
1070
     1
1071
       15
1005
1456CD
  0
CIRCLE
  5
1456CE
  8
OBJECT
 10
5000.0
 20
-3174.999999999995
 30
0.0
 40
70.0
1001
ACDBBLOCKREPETAG
1070
     1
1071
       16
1005
1456CE
  0
CIRCLE
  5
1456CF
  8
OBJECT
 10
5000.0
 20
-3174.999999999995
 30
0.0
 40
77.0
1001
ACDBBLOCKREPETAG
1070
     1
1071
       17
1005
1456CF
  0
ARC
  5
1456D0
  8
OBJECT
 10
5000.0
 20
-3174.999999999995
 30
0.0
 40
80.0
 50
50.805032573882329
 51
309.19496742611773
1001
ACDBBLOCKREPETAG
1070
     1
1071
       18
1005
1456D0
  0
LINE
  5
1456D1
  8
OBJECT
 10
5045.6618002273253
 20
-3112.9999999999959
 30
0.0
 11
5080.0
 21
-3112.9999999999959
 31
0.0
1001
ACDBBLOCKREPETAG
1070
     1
1071
       19
1005
1456D1
  0
LINE
  5
1456D2
  8
OBJECT
 10
5045.6618002273253
 20
-3236.9999999999959
 30
0.0
 11
5080.0
 21
-3236.9999999999959
 31
0.0
1001
ACDBBLOCKREPETAG
1070
     1
1071
       20
1005
1456D2
  0
LINE
  5
1456D3
  8
CENTER
 10
5227.0
 20
-3520.9999999999968
 30
0.0
 11
5071.0
 21
-3520.9999999999968
 31
0.0
1001
ACDBBLOCKREPETAG
1070
     1
1071
      287
1005
1456D3
  0
LINE
  5
1456D4
  8
OBJECT
 10
5150.0
 20
-3567.9999999999959
 30
0.0
 11
5086.0000000000018
 21
-3567.9999999999959
 31
0.0
1001
ACDBBLOCKREPETAG
1070
     1
1071
      288
1005
1456D4
  0
LINE
  5
1456D5
  8
OBJECT
 10
5083.0
 20
-3458.9999999999968
 30
0.0
 11
5080.0
 21
-3458.9999999999968
 31
0.0
1001
ACDBBLOCKREPETAG
1070
     1
1071
      289
1005
1456D5
  0
LINE
  5
1456D6
  8
OBJECT
 10
5150.0
 20
-3473.9999999999968
 30
0.0
 11
5086.0000000000018
 21
-3473.9999999999968
 31
0.0
1001
ACDBBLOCKREPETAG
1070
     1
1071
      290
1005
1456D6
  0
ARC
  5
1456D7
  8
OBJECT
 10
5083.0
 20
-3461.9999999999959
 30
0.0
 40
3.0
 50
0.0
 51
90.0
1001
ACDBBLOCKREPETAG
1070
     1
1071
      291
1005
1456D7
  0
LINE
  5
1456D8
  8
OBJECT
 10
5080.0
 20
-3582.9999999999968
 30
0.0
 11
5083.0
 21
-3582.9999999999968
 31
0.0
1001
ACDBBLOCKREPETAG
1070
     1
1071
      292
1005
1456D8
  0
ARC
  5
1456D9
  8
OBJECT
 10
5083.0
 20
-3579.9999999999959
 30
0.0
 40
3.0
 50
270.0
 51
0.0
1001
ACDBBLOCKREPETAG
1070
     1
1071
      293
1005
1456D9
  0
LINE
  5
1456DA
  8
OBJECT
 10
5086.0
 20
-3579.9999999999959
 30
0.0
 11
5086.0
 21
-3461.9999999999959
 31
0.0
1001
ACDBBLOCKREPETAG
1070
     1
1071
      294
1005
1456DA
  0
ARC
  5
1456DB
  8
OBJECT
 10
5150.0
 20
-3520.9999999999968
 30
0.0
 40
62.0
 50
229.29386573221529
 51
252.1034488707968
1001
ACDBBLOCKREPETAG
1070
     1
1071
      296
1005
1456DB
  0
ARC
  5
1456DC
  8
OBJECT
 10
5150.0
 20
-3520.9999999999968
 30
0.0
 40
62.0
 50
287.8965511292032
 51
130.70613426778471
1001
ACDBBLOCKREPETAG
1070
     1
1071
      297
1005
1456DC
  0
LINE
  5
1456DD
  8
OBJECT
 10
5130.947441116743
 20
-3579.9999999999959
 30
0.0
 11
5169.052558883257
 21
-3579.9999999999959
 31
0.0
1001
ACDBBLOCKREPETAG
1070
     1
1071
      298
1005
1456DD
  0
LINE
  5
1456DE
  8
CENTER
 10
5150.0
 20
-3594.9999999999968
 30
0.0
 11
5150.0
 21
-3443.9999999999959
 31
0.0
1001
ACDBBLOCKREPETAG
1070
     1
1071
      299
1005
1456DE
  0
ARC
  5
1456DF
  8
OBJECT
 10
5150.0
 20
-3520.9999999999968
 30
0.0
 40
54.5
 50
239.58547089841221
 51
120.4145291015878
1001
ACDBBLOCKREPETAG
1070
     1
1071
      300
1005
1456DF
  0
ARC
  5
1456E0
  8
OBJECT
 10
5150.0
 20
-3520.9999999999968
 30
0.0
 40
47.0
 50
270.0
 51
90.0
1001
ACDBBLOCKREPETAG
1070
     1
1071
      301
1005
1456E0
  0
ARC
  5
1456E1
  8
OBJECT
 10
5150.0
 20
-3520.9999999999968
 30
0.0
 40
59.0
 50
232.80760582084301
 51
127.19239417915691
1001
ACDBBLOCKREPETAG
1070
     1
1071
      302
1005
1456E1
  0
LINE
  5
1456E2
  8
OBJECT
 10
5212.0
 20
-3071.9999999999959
 30
0.0
 11
5212.0
 21
-3064.9999999999959
 31
0.0
1001
ACDBBLOCKREPETAG
1070
     1
1071
      325
1005
1456E2
  0
LINE
  5
1456E3
  8
OBJECT
 10
5212.0
 20
-3064.9999999999959
 30
0.0
 11
5088.0
 21
-3064.9999999999959
 31
0.0
1001
ACDBBLOCKREPETAG
1070
     1
1071
      326
1005
1456E3
  0
LINE
  5
1456E4
  8
OBJECT
 10
5088.0
 20
-3064.9999999999959
 30
0.0
 11
5088.0
 21
-3071.9999999999959
 31
0.0
1001
ACDBBLOCKREPETAG
1070
     1
1071
      327
1005
1456E4
  0
LINE
  5
1456E5
  8
OBJECT
 10
5088.0
 20
-3071.9999999999959
 30
0.0
 11
5212.0
 21
-3071.9999999999959
 31
0.0
1001
ACDBBLOCKREPETAG
1070
     1
1071
      328
1005
1456E5
  0
LINE
  5
1456E6
  8
CENTER
 10
5197.2436941260312
 20
-3174.9999999999918
 30
0.0
 11
5080.0
 21
-3174.999999999995
 31
0.0
1001
ACDBBLOCKREPETAG
1070
     1
1071
      329
1005
1456E6
  0
LINE
  5
1456E7
  8
OBJECT
 10
5092.5000000000009
 20
-3127.9999999999932
 30
0.0
 11
5086.0
 21
-3127.9999999999932
 31
0.0
1001
ACDBBLOCKREPETAG
1070
     1
1071
      330
1005
1456E7
  0
LINE
  5
1456E8
  8
OBJECT
 10
5098.0
 20
-3221.9999999999918
 30
0.0
 11
5086.0
 21
-3221.9999999999959
 31
0.0
1001
ACDBBLOCKREPETAG
1070
     1
1071
      331
1005
1456E8
  0
LINE
  5
1456E9
  8
OBJECT
 10
5209.0
 20
-3071.9999999999959
 30
0.0
 11
5209.0
 21
-3107.9999999999959
 31
0.0
1001
ACDBBLOCKREPETAG
1070
     1
1071
      332
1005
1456E9
  0
LINE
  5
1456EA
  8
OBJECT
 10
5209.0
 20
-3107.9999999999959
 30
0.0
 11
5091.0
 21
-3107.9999999999959
 31
0.0
1001
ACDBBLOCKREPETAG
1070
     1
1071
      333
1005
1456EA
  0
LINE
  5
1456EB
  8
OBJECT
 10
5091.0
 20
-3107.9999999999959
 30
0.0
 11
5091.0
 21
-3071.9999999999959
 31
0.0
1001
ACDBBLOCKREPETAG
1070
     1
1071
      334
1005
1456EB
  0
LINE
  5
1456EC
  8
OBJECT
 10
5204.5
 20
-3111.9999999999959
 30
0.0
 11
5204.5
 21
-3124.9999999999959
 31
0.0
1001
ACDBBLOCKREPETAG
1070
     1
1071
      335
1005
1456EC
  0
LINE
  5
1456ED
  8
OBJECT
 10
5095.5
 20
-3124.9999999999959
 30
0.0
 11
5095.5
 21
-3111.9999999999959
 31
0.0
1001
ACDBBLOCKREPETAG
1070
     1
1071
      336
1005
1456ED
  0
LINE
  5
1456EE
  8
OBJECT
 10
5095.5
 20
-3111.9999999999959
 30
0.0
 11
5204.5
 21
-3111.9999999999959
 31
0.0
1001
ACDBBLOCKREPETAG
1070
     1
1071
      337
1005
1456EE
  0
LINE
  5
1456EF
  8
OBJECT
 10
5209.0
 20
-3107.9999999999959
 30
0.0
 11
5204.5
 21
-3111.9999999999959
 31
0.0
1001
ACDBBLOCKREPETAG
1070
     1
1071
      338
1005
1456EF
  0
LINE
  5
1456F0
  8
OBJECT
 10
5091.0
 20
-3107.9999999999959
 30
0.0
 11
5095.5
 21
-3111.9999999999959
 31
0.0
1001
ACDBBLOCKREPETAG
1070
     1
1071
      339
1005
1456F0
  0
LINE
  5
1456F1
  8
OBJECT
 10
5083.0
 20
-3236.9999999999959
 30
0.0
 11
5080.0
 21
-3236.9999999999959
 31
0.0
1001
ACDBBLOCKREPETAG
1070
     1
1071
      340
1005
1456F1
  0
ARC
  5
1456F2
  8
OBJECT
 10
5083.0
 20
-3233.999999999995
 30
0.0
 40
3.0
 50
270.0
 51
0.0
1001
ACDBBLOCKREPETAG
1070
     1
1071
      341
1005
1456F2
  0
LINE
  5
1456F3
  8
OBJECT
 10
5080.0
 20
-3112.9999999999959
 30
0.0
 11
5095.5
 21
-3112.9999999999959
 31
0.0
1001
ACDBBLOCKREPETAG
1070
     1
1071
      342
1005
1456F3
  0
ARC
  5
1456F4
  8
OBJECT
 10
5083.0
 20
-3115.9999999999959
 30
0.0
 40
3.0
 50
0.0
 51
90.0
1001
ACDBBLOCKREPETAG
1070
     1
1071
      343
1005
1456F4
  0
LINE
  5
1456F5
  8
OBJECT
 10
5086.0
 20
-3115.9999999999959
 30
0.0
 11
5086.0
 21
-3233.999999999995
 31
0.0
1001
ACDBBLOCKREPETAG
1070
     1
1071
      344
1005
1456F5
  0
LINE
  5
1456F6
  8
HIDDEN
 10
5194.5
 20
-3116.999999999995
 30
0.0
 11
5105.5
 21
-3116.999999999995
 31
0.0
1001
ACDBBLOCKREPETAG
1070
     1
1071
      345
1005
1456F6
  0
LINE
  5
1456F7
  8
OBJECT
 10
5095.5000212374471
 20
-3125.000040863863
 30
0.0
 11
5204.5000212374471
 21
-3125.000040863863
 31
0.0
1001
ACDBBLOCKREPETAG
1070
     1
1071
      347
1005
1456F7
  0
LINE
  5
1456F8
  8
CENTER
 10
5150.0
 20
-3222.243694126023
 30
0.0
 11
5150.0
 21
-3049.999999999995
 31
0.0
1001
ACDBBLOCKREPETAG
1070
     1
1071
      348
1005
1456F8
  0
ARC
  5
1456F9
  8
CENTER
 10
5098.0
 20
-3122.9999999999918
 30
0.0
 40
52.0
 50
270.0
 51
0.0
1001
ACDBBLOCKREPETAG
1070
     1
1071
      349
1005
1456F9
  0
ARC
  5
1456FA
  8
OBJECT
 10
5092.5000000000009
 20
-3124.9999999999918
 30
0.0
 40
3.0
 50
270.0
 51
0.0
1001
ACDBBLOCKREPETAG
1070
     1
1071
      350
1005
1456FA
  0
ARC
  5
1456FB
  8
OBJECT
 10
5098.0
 20
-3122.9999999999918
 30
0.0
 40
99.0
 50
270.0
 51
358.84240710281
1001
ACDBBLOCKREPETAG
1070
     1
1071
      351
1005
1456FB
  0
LINE
  5
1456FC
  8
CENTER
 10
4090.0
 20
-3527.9999999999968
 30
0.0
 11
4230.0
 21
-3527.9999999999968
 31
0.0
1001
ACDBBLOCKREPETAG
1070
     1
1071
      226
1005
1456FC
  0
LINE
  5
1456FD
  8
OBJECT
 10
4196.6606055596449
 20
-3568.9999999999959
 30
0.0
 11
4214.0
 21
-3568.9999999999959
 31
0.0
1001
ACDBBLOCKREPETAG
1070
     1
1071
      227
1005
1456FD
  0
LINE
  5
1456FE
  8
OBJECT
 10
4196.6606055596449
 20
-3486.9999999999959
 30
0.0
 11
4213.9999999999973
 21
-3486.9999999999959
 31
0.0
1001
ACDBBLOCKREPETAG
1070
     1
1071
      228
1005
1456FE
  0
LINE
  5
1456FF
  8
OBJECT
 10
4217.0
 20
-3458.9999999999968
 30
0.0
 11
4220.0
 21
-3458.9999999999968
 31
0.0
1001
ACDBBLOCKREPETAG
1070
     1
1071
      229
1005
1456FF
  0
LINE
  5
145700
  8
OBJECT
 10
4220.0
 20
-3582.9999999999968
 30
0.0
 11
4217.0
 21
-3582.9999999999968
 31
0.0
1001
ACDBBLOCKREPETAG
1070
     1
1071
      230
1005
145700
  0
ARC
  5
145701
  8
OBJECT
 10
4217.0
 20
-3461.9999999999959
 30
0.0
 40
3.0
 50
90.0
 51
180.0
1001
ACDBBLOCKREPETAG
1070
     1
1071
      231
1005
145701
  0
ARC
  5
145702
  8
OBJECT
 10
4217.0
 20
-3579.9999999999959
 30
0.0
 40
3.0
 50
180.0
 51
270.0
1001
ACDBBLOCKREPETAG
1070
     1
1071
      232
1005
145702
  0
LINE
  5
145703
  8
OBJECT
 10
4214.0
 20
-3579.9999999999959
 30
0.0
 11
4214.0
 21
-3538.4403065089068
 31
0.0
1001
ACDBBLOCKREPETAG
1070
     1
1071
      233
1005
145703
  0
LINE
  5
145704
  8
OBJECT
 10
4214.0
 20
-3517.5596934910868
 30
0.0
 11
4214.0
 21
-3461.9999999999959
 31
0.0
1001
ACDBBLOCKREPETAG
1070
     1
1071
      234
1005
145704
  0
CIRCLE
  5
145705
  8
OBJECT
 10
4160.0
 20
-3527.9999999999968
 30
0.0
 40
35.5
1001
ACDBBLOCKREPETAG
1070
     1
1071
      236
1005
145705
  0
CIRCLE
  5
145706
  8
OBJECT
 10
4160.0
 20
-3527.9999999999968
 30
0.0
 40
47.0
1001
ACDBBLOCKREPETAG
1070
     1
1071
      237
1005
145706
  0
ARC
  5
145707
  8
OBJECT
 10
4160.0
 20
-3527.9999999999968
 30
0.0
 40
55.0
 50
289.01126526011359
 51
250.98873473988641
1001
ACDBBLOCKREPETAG
1070
     1
1071
      238
1005
145707
  0
LINE
  5
145708
  8
OBJECT
 10
4177.9164728671658
 20
-3579.9999999999959
 30
0.0
 11
4142.0835271328324
 21
-3579.9999999999959
 31
0.0
1001
ACDBBLOCKREPETAG
1070
     1
1071
      239
1005
145708
  0
LINE
  5
145709
  8
CENTER
 10
4160.0
 20
-3594.9999999999968
 30
0.0
 11
4160.0
 21
-3457.9999999999968
 31
0.0
1001
ACDBBLOCKREPETAG
1070
     1
1071
      240
1005
145709
  0
TEXT
  5
14570A
  8
SLIM
 10
3317.25
 20
-3697.4999999999968
 30
0.0
 40
35.0
  1
エルボ枝65右回り（R2）
 41
0.75
  0
LINE
  5
14570B
  8
OBJECT
 10
3423.0
 20
-3395.9999999999968
 30
0.0
 11
3423.0
 21
-3374.9999999999959
 31
0.0
1001
ACDBBLOCKREPETAG
1070
     1
1071
        0
1005
14570B
  0
LINE
  5
14570C
  8
OBJECT
 10
3423.0
 20
-3374.9999999999959
 30
0.0
 11
3577.0
 21
-3374.9999999999959
 31
0.0
1001
ACDBBLOCKREPETAG
1070
     1
1071
        1
1005
14570C
  0
LINE
  5
14570D
  8
HIDDEN
 10
3443.0
 20
-3444.9999999999968
 30
0.0
 11
3556.9999999999991
 21
-3444.9999999999968
 31
0.0
1001
ACDBBLOCKREPETAG
1070
     1
1071
        2
1005
14570D
  0
LINE
  5
14570E
  8
OBJECT
 10
3577.0
 20
-3374.9999999999959
 30
0.0
 11
3577.0
 21
-3395.9999999999968
 31
0.0
1001
ACDBBLOCKREPETAG
1070
     1
1071
        3
1005
14570E
  0
LINE
  5
14570F
  8
OBJECT
 10
3577.0
 20
-3395.9999999999968
 30
0.0
 11
3423.0
 21
-3395.9999999999968
 31
0.0
1001
ACDBBLOCKREPETAG
1070
     1
1071
        4
1005
14570F
  0
LINE
  5
145710
  8
CENTER
 10
3500.0
 20
-3359.9999999999968
 30
0.0
 11
3500.0
 21
-3594.9999999999968
 31
0.0
1001
ACDBBLOCKREPETAG
1070
     1
1071
        5
1005
145710
  0
LINE
  5
145711
  8
OBJECT
 10
3424.9999999999991
 20
-3458.9999999999968
 30
0.0
 11
3424.9999999999991
 21
-3582.9999999999968
 31
0.0
1001
ACDBBLOCKREPETAG
1070
     1
1071
        6
1005
145711
  0
LINE
  5
145712
  8
OBJECT
 10
3427.9999999999991
 20
-3395.9999999999968
 30
0.0
 11
3427.9999999999991
 21
-3458.9999999999968
 31
0.0
1001
ACDBBLOCKREPETAG
1070
     1
1071
        7
1005
145712
  0
LINE
  5
145713
  8
OBJECT
 10
3572.0
 20
-3458.9999999999968
 30
0.0
 11
3572.0
 21
-3395.9999999999968
 31
0.0
1001
ACDBBLOCKREPETAG
1070
     1
1071
        8
1005
145713
  0
LINE
  5
145714
  8
OBJECT
 10
3574.999999999799
 20
-3582.9999999997758
 30
0.0
 11
3580.0
 21
-3582.9999999999968
 31
0.0
1001
ACDBBLOCKREPETAG
1070
     1
1071
        9
1005
145714
  0
LINE
  5
145715
  8
OBJECT
 10
3580.0
 20
-3458.9999999999968
 30
0.0
 11
3424.9999999999991
 21
-3458.9999999999968
 31
0.0
1001
ACDBBLOCKREPETAG
1070
     1
1071
       10
1005
145715
  0
ARC
  5
145716
  8
OBJECT
 10
3700.6872746716722
 20
-3574.4080994101041
 30
0.0
 40
170.6350503965856
 50
137.44134459184301
 51
149.9194958133665
1001
ACDBBLOCKREPETAG
1070
     1
1071
       15
1005
145716
  0
ARC
  5
145717
  8
OBJECT
 10
3618.8455987040511
 20
-3530.8827266953631
 30
0.0
 40
78.072222021763665
 50
147.4551531037684
 51
164.663659977186
1001
ACDBBLOCKREPETAG
1070
     1
1071
       16
1005
145717
  0
ARC
  5
145718
  8
OBJECT
 10
3585.7554349608731
 20
-3520.9999999999968
 30
0.0
 40
43.55353926885617
 50
165.6884523008477
 51
194.3115476991523
1001
ACDBBLOCKREPETAG
1070
     1
1071
       17
1005
145718
  0
ARC
  5
145719
  8
OBJECT
 10
3700.6872746716722
 20
-3467.5919005898882
 30
0.0
 40
170.6350503965856
 50
210.0805041866335
 51
222.55865540815699
1001
ACDBBLOCKREPETAG
1070
     1
1071
       18
1005
145719
  0
ARC
  5
14571A
  8
OBJECT
 10
3618.8455987040511
 20
-3511.1172733046319
 30
0.0
 40
78.072222021763665
 50
195.33634002281391
 51
212.5448468962316
1001
ACDBBLOCKREPETAG
1070
     1
1071
       19
1005
14571A
  0
POINT
  5
14571B
  8
DOTS
 10
3500.0
 20
-3579.9999999999959
 30
0.0
1001
ACDBBLOCKREPETAG
1070
     1
1071
      186
1005
14571B
  0
LINE
  5
14571C
  8
OBJECT
 10
3524.1029330933011
 20
-3218.8069471237131
 30
0.0
 11
3520.6596569999961
 21
-3207.5546219999951
 31
0.0
1001
ACDBBLOCKREPETAG
1070
     1
1071
      300
1005
14571C
  0
LINE
  5
14571D
  8
OBJECT
 10
3486.7927499013749
 20
-3193.225533742077
 30
0.0
 11
3520.6596569999961
 21
-3207.5546219999951
 31
0.0
1001
ACDBBLOCKREPETAG
1070
     1
1071
      302
1005
14571D
  0
ARC
  5
14571E
  8
OBJECT
 10
3482.896169761902
 20
-3202.4351299990531
 30
0.0
 40
10.0
 50
67.06677829291263
 51
154.01473437029199
1001
ACDBBLOCKREPETAG
1070
     1
1071
      303
1005
14571E
  0
ARC
  5
14571F
  8
OBJECT
 10
3486.1488390381269
 20
-3200.553862567288
 30
0.0
 40
7.0
 50
67.06677829291263
 51
154.01473377496239
1001
ACDBBLOCKREPETAG
1070
     1
1071
      304
1005
14571F
  0
LINE
  5
145720
  8
OBJECT
 10
3469.4199755553009
 20
-3218.8988850081791
 30
0.0
 11
3479.8564918232369
 21
-3197.4868825335639
 31
0.0
1001
ACDBBLOCKREPETAG
1070
     1
1071
      341
1005
145720
  0
LINE
  5
145721
  8
OBJECT
 10
3465.2972169006089
 20
-3215.7181390188239
 30
0.0
 11
3473.907102266508
 21
-3198.0537300443038
 31
0.0
1001
ACDBBLOCKREPETAG
1070
     1
1071
      342
1005
145721
  0
ARC
  5
145722
  8
OBJECT
 10
3476.579695307315
 20
-3182.1289369828401
 30
0.0
 40
60.031113246032611
 50
314.070201304188
 51
322.3393610609063
1001
ACDBBLOCKREPETAG
1070
     1
1071
      343
1005
145722
  0
CIRCLE
  5
145723
  8
OBJECT
 10
3500.0
 20
-3174.999999999995
 30
0.0
 40
53.5
1001
ACDBBLOCKREPETAG
1070
     1
1071
      344
1005
145723
  0
POINT
  5
145724
  8
DOTS
 10
3500.0
 20
-3174.999999999995
 30
0.0
 50
270.0
1001
ACDBBLOCKREPETAG
1070
     1
1071
      362
1005
145724
  0
ARC
  5
145725
  8
OBJECT
 10
3500.0
 20
-3174.999999999995
 30
0.0
 40
50.0
 50
298.81994299999963
 51
228.52376955967549
1001
ACDBBLOCKREPETAG
1070
     1
1071
        7
1005
145725
  0
LINE
  5
145726
  8
CENTER
 10
3580.0
 20
-3174.999999999995
 30
0.0
 11
3405.0
 21
-3174.999999999995
 31
0.0
1001
ACDBBLOCKREPETAG
1070
     1
1071
       14
1005
145726
  0
LINE
  5
145727
  8
CENTER
 10
3500.0
 20
-3269.9999999999959
 30
0.0
 11
3500.0
 21
-3079.9999999999959
 31
0.0
1001
ACDBBLOCKREPETAG
1070
     1
1071
       15
1005
145727
  0
CIRCLE
  5
145728
  8
OBJECT
 10
3500.0
 20
-3174.999999999995
 30
0.0
 40
70.0
1001
ACDBBLOCKREPETAG
1070
     1
1071
       16
1005
145728
  0
CIRCLE
  5
145729
  8
OBJECT
 10
3500.0
 20
-3174.999999999995
 30
0.0
 40
77.0
1001
ACDBBLOCKREPETAG
1070
     1
1071
       17
1005
145729
  0
ARC
  5
14572A
  8
OBJECT
 10
3500.0
 20
-3174.999999999995
 30
0.0
 40
80.0
 50
50.805032573862128
 51
309.19496742613791
1001
ACDBBLOCKREPETAG
1070
     1
1071
       18
1005
14572A
  0
LINE
  5
14572B
  8
OBJECT
 10
3545.6618002273249
 20
-3112.9999999999959
 30
0.0
 11
3580.0
 21
-3112.9999999999959
 31
0.0
1001
ACDBBLOCKREPETAG
1070
     1
1071
       19
1005
14572B
  0
LINE
  5
14572C
  8
OBJECT
 10
3545.6618002273249
 20
-3236.9999999999959
 30
0.0
 11
3580.0
 21
-3236.9999999999959
 31
0.0
1001
ACDBBLOCKREPETAG
1070
     1
1071
       20
1005
14572C
  0
LINE
  5
14572D
  8
CENTER
 10
3709.9999999999991
 20
-3527.9999999999968
 30
0.0
 11
3570.0
 21
-3527.9999999999968
 31
0.0
1001
ACDBBLOCKREPETAG
1070
     1
1071
      271
1005
14572D
  0
LINE
  5
14572E
  8
OBJECT
 10
3640.0
 20
-3568.9999999999959
 30
0.0
 11
3586.0
 21
-3568.9999999999959
 31
0.0
1001
ACDBBLOCKREPETAG
1070
     1
1071
      272
1005
14572E
  0
LINE
  5
14572F
  8
OBJECT
 10
3640.0
 20
-3486.9999999999959
 30
0.0
 11
3586.0000000000041
 21
-3486.9999999999959
 31
0.0
1001
ACDBBLOCKREPETAG
1070
     1
1071
      273
1005
14572F
  0
LINE
  5
145730
  8
OBJECT
 10
3583.0
 20
-3458.9999999999968
 30
0.0
 11
3580.0
 21
-3458.9999999999968
 31
0.0
1001
ACDBBLOCKREPETAG
1070
     1
1071
      274
1005
145730
  0
ARC
  5
145731
  8
OBJECT
 10
3583.0
 20
-3461.9999999999959
 30
0.0
 40
3.0
 50
0.0
 51
90.0
1001
ACDBBLOCKREPETAG
1070
     1
1071
      275
1005
145731
  0
LINE
  5
145732
  8
OBJECT
 10
3580.0
 20
-3582.9999999999968
 30
0.0
 11
3583.0
 21
-3582.9999999999968
 31
0.0
1001
ACDBBLOCKREPETAG
1070
     1
1071
      276
1005
145732
  0
ARC
  5
145733
  8
OBJECT
 10
3583.0
 20
-3579.9999999999959
 30
0.0
 40
3.0
 50
270.0
 51
0.0
1001
ACDBBLOCKREPETAG
1070
     1
1071
      277
1005
145733
  0
LINE
  5
145734
  8
OBJECT
 10
3586.0
 20
-3579.9999999999959
 30
0.0
 11
3586.0
 21
-3461.9999999999959
 31
0.0
1001
ACDBBLOCKREPETAG
1070
     1
1071
      278
1005
145734
  0
ARC
  5
145735
  8
OBJECT
 10
3640.0
 20
-3527.9999999999968
 30
0.0
 40
55.0
 50
228.1981558069912
 51
250.98873473988641
1001
ACDBBLOCKREPETAG
1070
     1
1071
      280
1005
145735
  0
LINE
  5
145736
  8
OBJECT
 10
3622.0835271328319
 20
-3579.9999999999959
 30
0.0
 11
3657.9164728671672
 21
-3579.9999999999959
 31
0.0
1001
ACDBBLOCKREPETAG
1070
     1
1071
      281
1005
145736
  0
ARC
  5
145737
  8
OBJECT
 10
3640.0
 20
-3527.9999999999968
 30
0.0
 40
55.0
 50
289.01126526011359
 51
131.80184419298931
1001
ACDBBLOCKREPETAG
1070
     1
1071
      282
1005
145737
  0
LINE
  5
145738
  8
CENTER
 10
3640.0
 20
-3594.9999999999968
 30
0.0
 11
3640.0
 21
-3457.9999999999968
 31
0.0
1001
ACDBBLOCKREPETAG
1070
     1
1071
      283
1005
145738
  0
ARC
  5
145739
  8
OBJECT
 10
3640.0
 20
-3527.9999999999968
 30
0.0
 40
52.0
 50
232.04197141925991
 51
127.95802858074001
1001
ACDBBLOCKREPETAG
1070
     1
1071
      284
1005
145739
  0
ARC
  5
14573A
  8
OBJECT
 10
3640.0
 20
-3527.9999999999968
 30
0.0
 40
47.5
 50
239.67302190325361
 51
120.3269780967464
1001
ACDBBLOCKREPETAG
1070
     1
1071
      285
1005
14573A
  0
ARC
  5
14573B
  8
OBJECT
 10
3640.0
 20
-3527.9999999999968
 30
0.0
 40
40.999999999999091
 50
270.0
 51
90.0
1001
ACDBBLOCKREPETAG
1070
     1
1071
      286
1005
14573B
  0
LINE
  5
14573C
  8
OBJECT
 10
3695.0
 20
-3081.999999999995
 30
0.0
 11
3695.0
 21
-3074.9999999999959
 31
0.0
1001
ACDBBLOCKREPETAG
1070
     1
1071
      299
1005
14573C
  0
LINE
  5
14573D
  8
OBJECT
 10
3695.0
 20
-3074.9999999999959
 30
0.0
 11
3584.9999999999991
 21
-3074.9999999999959
 31
0.0
1001
ACDBBLOCKREPETAG
1070
     1
1071
      300
1005
14573D
  0
LINE
  5
14573E
  8
OBJECT
 10
3584.9999999999991
 20
-3074.9999999999959
 30
0.0
 11
3584.9999999999991
 21
-3081.999999999995
 31
0.0
1001
ACDBBLOCKREPETAG
1070
     1
1071
      301
1005
14573E
  0
LINE
  5
14573F
  8
OBJECT
 10
3584.9999999999991
 20
-3081.999999999995
 30
0.0
 11
3695.0
 21
-3081.999999999995
 31
0.0
1001
ACDBBLOCKREPETAG
1070
     1
1071
      302
1005
14573F
  0
LINE
  5
145740
  8
CENTER
 10
3683.287106642299
 20
-3174.999999999995
 30
0.0
 11
3580.0
 21
-3174.999999999995
 31
0.0
1001
ACDBBLOCKREPETAG
1070
     1
1071
      303
1005
145740
  0
LINE
  5
145741
  8
OBJECT
 10
3592.5000000000009
 20
-3133.9999999999991
 30
0.0
 11
3586.0
 21
-3133.9999999999918
 31
0.0
1001
ACDBBLOCKREPETAG
1070
     1
1071
      304
1005
145741
  0
LINE
  5
145742
  8
OBJECT
 10
3595.0
 20
-3215.9999999999959
 30
0.0
 11
3586.0
 21
-3215.9999999999959
 31
0.0
1001
ACDBBLOCKREPETAG
1070
     1
1071
      305
1005
145742
  0
LINE
  5
145743
  8
OBJECT
 10
3692.0
 20
-3081.999999999995
 30
0.0
 11
3692.0
 21
-3117.999999999995
 31
0.0
1001
ACDBBLOCKREPETAG
1070
     1
1071
      306
1005
145743
  0
LINE
  5
145744
  8
OBJECT
 10
3692.0
 20
-3117.999999999995
 30
0.0
 11
3588.0
 21
-3117.999999999995
 31
0.0
1001
ACDBBLOCKREPETAG
1070
     1
1071
      307
1005
145744
  0
LINE
  5
145745
  8
OBJECT
 10
3588.0
 20
-3117.999999999995
 30
0.0
 11
3588.0
 21
-3081.999999999995
 31
0.0
1001
ACDBBLOCKREPETAG
1070
     1
1071
      308
1005
145745
  0
LINE
  5
145746
  8
OBJECT
 10
3687.5
 20
-3121.9999999999959
 30
0.0
 11
3687.5
 21
-3134.9999999999959
 31
0.0
1001
ACDBBLOCKREPETAG
1070
     1
1071
      309
1005
145746
  0
LINE
  5
145747
  8
OBJECT
 10
3592.5000000000009
 20
-3134.9999999999959
 30
0.0
 11
3592.5000000000009
 21
-3121.9999999999959
 31
0.0
1001
ACDBBLOCKREPETAG
1070
     1
1071
      310
1005
145747
  0
LINE
  5
145748
  8
OBJECT
 10
3592.5000000000009
 20
-3121.9999999999959
 30
0.0
 11
3687.5
 21
-3121.9999999999959
 31
0.0
1001
ACDBBLOCKREPETAG
1070
     1
1071
      311
1005
145748
  0
LINE
  5
145749
  8
OBJECT
 10
3692.0
 20
-3117.999999999995
 30
0.0
 11
3687.5
 21
-3121.9999999999959
 31
0.0
1001
ACDBBLOCKREPETAG
1070
     1
1071
      312
1005
145749
  0
LINE
  5
14574A
  8
OBJECT
 10
3588.0
 20
-3117.999999999995
 30
0.0
 11
3592.5000000000009
 21
-3121.9999999999959
 31
0.0
1001
ACDBBLOCKREPETAG
1070
     1
1071
      313
1005
14574A
  0
LINE
  5
14574B
  8
OBJECT
 10
3583.0
 20
-3236.9999999999959
 30
0.0
 11
3580.0
 21
-3236.9999999999959
 31
0.0
1001
ACDBBLOCKREPETAG
1070
     1
1071
      314
1005
14574B
  0
ARC
  5
14574C
  8
OBJECT
 10
3583.0
 20
-3233.999999999995
 30
0.0
 40
3.0
 50
270.0
 51
0.0
1001
ACDBBLOCKREPETAG
1070
     1
1071
      315
1005
14574C
  0
LINE
  5
14574D
  8
OBJECT
 10
3580.0
 20
-3112.9999999999959
 30
0.0
 11
3588.0
 21
-3112.9999999999959
 31
0.0
1001
ACDBBLOCKREPETAG
1070
     1
1071
      316
1005
14574D
  0
ARC
  5
14574E
  8
OBJECT
 10
3583.0
 20
-3115.9999999999959
 30
0.0
 40
3.0
 50
0.0
 51
90.0
1001
ACDBBLOCKREPETAG
1070
     1
1071
      317
1005
14574E
  0
LINE
  5
14574F
  8
OBJECT
 10
3586.0
 20
-3115.9999999999959
 30
0.0
 11
3586.0
 21
-3233.999999999995
 31
0.0
1001
ACDBBLOCKREPETAG
1070
     1
1071
      318
1005
14574F
  0
LINE
  5
145750
  8
HIDDEN
 10
3677.9999999999991
 20
-3126.9999999999959
 30
0.0
 11
3602.0
 21
-3126.9999999999959
 31
0.0
1001
ACDBBLOCKREPETAG
1070
     1
1071
      319
1005
145750
  0
LINE
  5
145751
  8
OBJECT
 10
3592.499954593015
 20
-3135.0000043943969
 30
0.0
 11
3687.499954593015
 21
-3135.0000043943969
 31
0.0
1001
ACDBBLOCKREPETAG
1070
     1
1071
      321
1005
145751
  0
LINE
  5
145752
  8
CENTER
 10
3640.0
 20
-3059.9999999999959
 30
0.0
 11
3640.0
 21
-3218.2871066422949
 31
0.0
1001
ACDBBLOCKREPETAG
1070
     1
1071
      322
1005
145752
  0
ARC
  5
145753
  8
CENTER
 10
3595.0
 20
-3129.999999999995
 30
0.0
 40
45.0
 50
270.0
 51
0.0
1001
ACDBBLOCKREPETAG
1070
     1
1071
      323
1005
145753
  0
ARC
  5
145754
  8
OBJECT
 10
3595.0
 20
-3129.999999999995
 30
0.0
 40
86.0
 50
270.0
 51
356.6669675734484
1001
ACDBBLOCKREPETAG
1070
     1
1071
      324
1005
145754
  0
TEXT
  5
145755
  8
SLIM
 10
1819.7499999999991
 20
-3697.4999999999968
 30
0.0
 40
35.0
  1
エルボ枝50右回り（R1）
 41
0.75
  0
LINE
  5
145756
  8
OBJECT
 10
1923.0
 20
-3395.9999999999968
 30
0.0
 11
1923.0
 21
-3374.9999999999959
 31
0.0
1001
ACDBBLOCKREPETAG
1070
     1
1071
        0
1005
145756
  0
LINE
  5
145757
  8
OBJECT
 10
1923.0
 20
-3374.9999999999959
 30
0.0
 11
2076.9999999999991
 21
-3374.9999999999959
 31
0.0
1001
ACDBBLOCKREPETAG
1070
     1
1071
        1
1005
145757
  0
LINE
  5
145758
  8
HIDDEN
 10
1942.9999999999991
 20
-3444.9999999999968
 30
0.0
 11
2057.0
 21
-3444.9999999999968
 31
0.0
1001
ACDBBLOCKREPETAG
1070
     1
1071
        2
1005
145758
  0
LINE
  5
145759
  8
OBJECT
 10
2076.9999999999991
 20
-3374.9999999999959
 30
0.0
 11
2076.9999999999991
 21
-3395.9999999999968
 31
0.0
1001
ACDBBLOCKREPETAG
1070
     1
1071
        3
1005
145759
  0
LINE
  5
14575A
  8
OBJECT
 10
2076.9999999999991
 20
-3395.9999999999968
 30
0.0
 11
1923.0
 21
-3395.9999999999968
 31
0.0
1001
ACDBBLOCKREPETAG
1070
     1
1071
        4
1005
14575A
  0
LINE
  5
14575B
  8
CENTER
 10
2000.0
 20
-3359.9999999999968
 30
0.0
 11
2000.0
 21
-3594.9999999999968
 31
0.0
1001
ACDBBLOCKREPETAG
1070
     1
1071
        5
1005
14575B
  0
LINE
  5
14575C
  8
OBJECT
 10
1925.0
 20
-3458.9999999999968
 30
0.0
 11
1925.0
 21
-3582.9999999999968
 31
0.0
1001
ACDBBLOCKREPETAG
1070
     1
1071
        6
1005
14575C
  0
LINE
  5
14575D
  8
OBJECT
 10
1928.0
 20
-3395.9999999999968
 30
0.0
 11
1928.0
 21
-3458.9999999999968
 31
0.0
1001
ACDBBLOCKREPETAG
1070
     1
1071
        7
1005
14575D
  0
LINE
  5
14575E
  8
OBJECT
 10
2072.0
 20
-3458.9999999999968
 30
0.0
 11
2072.0
 21
-3395.9999999999968
 31
0.0
1001
ACDBBLOCKREPETAG
1070
     1
1071
        8
1005
14575E
  0
LINE
  5
14575F
  8
OBJECT
 10
2074.999999999799
 20
-3582.9999999997758
 30
0.0
 11
2080.0
 21
-3582.9999999999968
 31
0.0
1001
ACDBBLOCKREPETAG
1070
     1
1071
        9
1005
14575F
  0
LINE
  5
145760
  8
OBJECT
 10
2080.0
 20
-3458.9999999999968
 30
0.0
 11
1925.0
 21
-3458.9999999999968
 31
0.0
1001
ACDBBLOCKREPETAG
1070
     1
1071
       10
1005
145760
  0
ARC
  5
145761
  8
OBJECT
 10
2200.6872746716722
 20
-3574.4080994101041
 30
0.0
 40
170.6350503965856
 50
137.44134459184301
 51
149.91949581335999
1001
ACDBBLOCKREPETAG
1070
     1
1071
       15
1005
145761
  0
ARC
  5
145762
  8
OBJECT
 10
2118.8455987040511
 20
-3530.8827266953631
 30
0.0
 40
78.072222021763665
 50
147.45515310377539
 51
164.663659977186
1001
ACDBBLOCKREPETAG
1070
     1
1071
       16
1005
145762
  0
ARC
  5
145763
  8
OBJECT
 10
2085.7554349608722
 20
-3520.9999999999968
 30
0.0
 40
43.55353926885617
 50
165.6884523008477
 51
194.3115476991523
1001
ACDBBLOCKREPETAG
1070
     1
1071
       17
1005
145763
  0
ARC
  5
145764
  8
OBJECT
 10
2200.6872746716722
 20
-3467.5919005898882
 30
0.0
 40
170.6350503965856
 50
210.08050418664001
 51
222.55865540815699
1001
ACDBBLOCKREPETAG
1070
     1
1071
       18
1005
145764
  0
ARC
  5
145765
  8
OBJECT
 10
2118.8455987040511
 20
-3511.1172733046319
 30
0.0
 40
78.072222021763665
 50
195.33634002281391
 51
212.54484689622461
1001
ACDBBLOCKREPETAG
1070
     1
1071
       19
1005
145765
  0
POINT
  5
145766
  8
DOTS
 10
2000.0
 20
-3579.9999999999959
 30
0.0
1001
ACDBBLOCKREPETAG
1070
     1
1071
      186
1005
145766
  0
LINE
  5
145767
  8
OBJECT
 10
2024.1029330933011
 20
-3218.8069471237131
 30
0.0
 11
2020.6596569999961
 21
-3207.5546219999951
 31
0.0
1001
ACDBBLOCKREPETAG
1070
     1
1071
      300
1005
145767
  0
LINE
  5
145768
  8
OBJECT
 10
1986.792749901374
 20
-3193.225533742077
 30
0.0
 11
2020.6596569999961
 21
-3207.5546219999951
 31
0.0
1001
ACDBBLOCKREPETAG
1070
     1
1071
      302
1005
145768
  0
ARC
  5
145769
  8
OBJECT
 10
1982.8961697619
 20
-3202.4351299990531
 30
0.0
 40
10.0
 50
67.066778292924639
 51
154.01473437029199
1001
ACDBBLOCKREPETAG
1070
     1
1071
      303
1005
145769
  0
ARC
  5
14576A
  8
OBJECT
 10
1986.1488390381271
 20
-3200.553862567288
 30
0.0
 40
7.0
 50
67.066778292924639
 51
154.01473377496239
1001
ACDBBLOCKREPETAG
1070
     1
1071
      304
1005
14576A
  0
LINE
  5
14576B
  8
OBJECT
 10
1969.4199755553
 20
-3218.8988850081791
 30
0.0
 11
1979.856491823236
 21
-3197.4868825335639
 31
0.0
1001
ACDBBLOCKREPETAG
1070
     1
1071
      341
1005
14576B
  0
LINE
  5
14576C
  8
OBJECT
 10
1965.297216900608
 20
-3215.7181390188239
 30
0.0
 11
1973.907102266508
 21
-3198.0537300443038
 31
0.0
1001
ACDBBLOCKREPETAG
1070
     1
1071
      342
1005
14576C
  0
ARC
  5
14576D
  8
OBJECT
 10
1976.5796953073141
 20
-3182.1289369828401
 30
0.0
 40
60.031113246032611
 50
314.070201304188
 51
322.3393610609063
1001
ACDBBLOCKREPETAG
1070
     1
1071
      343
1005
14576D
  0
CIRCLE
  5
14576E
  8
OBJECT
 10
2000.0
 20
-3174.999999999995
 30
0.0
 40
53.5
1001
ACDBBLOCKREPETAG
1070
     1
1071
      344
1005
14576E
  0
POINT
  5
14576F
  8
DOTS
 10
2000.0
 20
-3174.999999999995
 30
0.0
 50
270.0
1001
ACDBBLOCKREPETAG
1070
     1
1071
      362
1005
14576F
  0
ARC
  5
145770
  8
OBJECT
 10
2000.0
 20
-3174.999999999995
 30
0.0
 40
50.0
 50
298.81994299999963
 51
228.52376955967549
1001
ACDBBLOCKREPETAG
1070
     1
1071
        7
1005
145770
  0
LINE
  5
145771
  8
CENTER
 10
2080.0
 20
-3174.999999999995
 30
0.0
 11
1905.0
 21
-3174.999999999995
 31
0.0
1001
ACDBBLOCKREPETAG
1070
     1
1071
       14
1005
145771
  0
LINE
  5
145772
  8
CENTER
 10
2000.0
 20
-3269.9999999999959
 30
0.0
 11
2000.0
 21
-3079.9999999999959
 31
0.0
1001
ACDBBLOCKREPETAG
1070
     1
1071
       15
1005
145772
  0
CIRCLE
  5
145773
  8
OBJECT
 10
2000.0
 20
-3174.999999999995
 30
0.0
 40
70.0
1001
ACDBBLOCKREPETAG
1070
     1
1071
       16
1005
145773
  0
CIRCLE
  5
145774
  8
OBJECT
 10
2000.0
 20
-3174.999999999995
 30
0.0
 40
77.0
1001
ACDBBLOCKREPETAG
1070
     1
1071
       17
1005
145774
  0
ARC
  5
145775
  8
OBJECT
 10
2000.0
 20
-3174.999999999995
 30
0.0
 40
80.0
 50
50.805032573862128
 51
309.19496742613791
1001
ACDBBLOCKREPETAG
1070
     1
1071
       18
1005
145775
  0
LINE
  5
145776
  8
OBJECT
 10
2045.661800227324
 20
-3112.9999999999959
 30
0.0
 11
2080.0
 21
-3112.9999999999959
 31
0.0
1001
ACDBBLOCKREPETAG
1070
     1
1071
       19
1005
145776
  0
LINE
  5
145777
  8
OBJECT
 10
2045.661800227324
 20
-3236.9999999999959
 30
0.0
 11
2080.0
 21
-3236.9999999999959
 31
0.0
1001
ACDBBLOCKREPETAG
1070
     1
1071
       20
1005
145777
  0
LINE
  5
145778
  8
CENTER
 10
2201.9999999999991
 20
-3535.9999999999959
 30
0.0
 11
2071.0
 21
-3535.9999999999959
 31
0.0
1001
ACDBBLOCKREPETAG
1070
     1
1071
      255
1005
145778
  0
LINE
  5
145779
  8
OBJECT
 10
2083.0
 20
-3458.9999999999968
 30
0.0
 11
2080.0
 21
-3458.9999999999968
 31
0.0
1001
ACDBBLOCKREPETAG
1070
     1
1071
      256
1005
145779
  0
LINE
  5
14577A
  8
OBJECT
 10
2080.0
 20
-3582.9999999999968
 30
0.0
 11
2083.0
 21
-3582.9999999999968
 31
0.0
1001
ACDBBLOCKREPETAG
1070
     1
1071
      257
1005
14577A
  0
ARC
  5
14577B
  8
OBJECT
 10
2083.0
 20
-3461.9999999999959
 30
0.0
 40
3.0
 50
0.0
 51
90.0
1001
ACDBBLOCKREPETAG
1070
     1
1071
      258
1005
14577B
  0
ARC
  5
14577C
  8
OBJECT
 10
2083.0
 20
-3579.9999999999959
 30
0.0
 40
3.0
 50
270.0
 51
0.0
1001
ACDBBLOCKREPETAG
1070
     1
1071
      259
1005
14577C
  0
LINE
  5
14577D
  8
OBJECT
 10
2086.0
 20
-3579.9999999999959
 30
0.0
 11
2086.0
 21
-3461.9999999999959
 31
0.0
1001
ACDBBLOCKREPETAG
1070
     1
1071
      260
1005
14577D
  0
ARC
  5
14577E
  8
OBJECT
 10
2140.0
 20
-3535.9999999999959
 30
0.0
 40
47.0
 50
225.4604091749145
 51
249.41803078833331
1001
ACDBBLOCKREPETAG
1070
     1
1071
      262
1005
14577E
  0
ARC
  5
14577F
  8
OBJECT
 10
2140.0
 20
-3535.9999999999959
 30
0.0
 40
47.0
 50
290.58196921166677
 51
134.5395908250855
1001
ACDBBLOCKREPETAG
1070
     1
1071
      263
1005
14577F
  0
LINE
  5
145780
  8
OBJECT
 10
2123.4772883581418
 20
-3579.9999999999959
 30
0.0
 11
2156.5227116418569
 21
-3579.9999999999959
 31
0.0
1001
ACDBBLOCKREPETAG
1070
     1
1071
      264
1005
145780
  0
LINE
  5
145781
  8
OBJECT
 10
2140.0
 20
-3569.4999999999968
 30
0.0
 11
2086.0000098589289
 21
-3569.4999999999968
 31
0.0
1001
ACDBBLOCKREPETAG
1070
     1
1071
      265
1005
145781
  0
LINE
  5
145782
  8
OBJECT
 10
2140.0
 20
-3502.4999999999959
 30
0.0
 11
2086.0
 21
-3502.4999999999959
 31
0.0
1001
ACDBBLOCKREPETAG
1070
     1
1071
      266
1005
145782
  0
LINE
  5
145783
  8
CENTER
 10
2140.0
 20
-3594.9999999999968
 30
0.0
 11
2140.0
 21
-3473.9999999999968
 31
0.0
1001
ACDBBLOCKREPETAG
1070
     1
1071
      267
1005
145783
  0
ARC
  5
145784
  8
OBJECT
 10
2140.0
 20
-3535.9999999999959
 30
0.0
 40
44.0
 50
229.5845609786216
 51
130.4154390213784
1001
ACDBBLOCKREPETAG
1070
     1
1071
      268
1005
145784
  0
ARC
  5
145785
  8
OBJECT
 10
2140.0
 20
-3535.9999999999959
 30
0.0
 40
39.5
 50
238.0057492569876
 51
121.9942507430124
1001
ACDBBLOCKREPETAG
1070
     1
1071
      269
1005
145785
  0
ARC
  5
145786
  8
OBJECT
 10
2140.0
 20
-3535.9999999999959
 30
0.0
 40
33.5
 50
270.0
 51
90.0
1001
ACDBBLOCKREPETAG
1070
     1
1071
      270
1005
145786
  0
LINE
  5
145787
  8
OBJECT
 10
2187.0
 20
-3081.999999999995
 30
0.0
 11
2187.0
 21
-3074.9999999999959
 31
0.0
1001
ACDBBLOCKREPETAG
1070
     1
1071
      268
1005
145787
  0
LINE
  5
145788
  8
OBJECT
 10
2187.0
 20
-3074.9999999999959
 30
0.0
 11
2092.9999999999991
 21
-3074.9999999999959
 31
0.0
1001
ACDBBLOCKREPETAG
1070
     1
1071
      269
1005
145788
  0
LINE
  5
145789
  8
OBJECT
 10
2092.9999999999991
 20
-3074.9999999999959
 30
0.0
 11
2092.9999999999991
 21
-3081.999999999995
 31
0.0
1001
ACDBBLOCKREPETAG
1070
     1
1071
      270
1005
145789
  0
LINE
  5
14578A
  8
OBJECT
 10
2092.9999999999991
 20
-3081.999999999995
 30
0.0
 11
2187.0
 21
-3081.999999999995
 31
0.0
1001
ACDBBLOCKREPETAG
1070
     1
1071
      271
1005
14578A
  0
LINE
  5
14578B
  8
CENTER
 10
2140.0
 20
-3059.9999999999959
 30
0.0
 11
2140.0
 21
-3213.4495584508318
 31
0.0
1001
ACDBBLOCKREPETAG
1070
     1
1071
      272
1005
14578B
  0
ARC
  5
14578C
  8
CENTER
 10
2104.0
 20
-3138.9999999999918
 30
0.0
 40
36.0
 50
270.0
 51
0.0
1001
ACDBBLOCKREPETAG
1070
     1
1071
      273
1005
14578C
  0
LINE
  5
14578D
  8
OBJECT
 10
2184.0
 20
-3081.999999999995
 30
0.0
 11
2184.0
 21
-3117.999999999995
 31
0.0
1001
ACDBBLOCKREPETAG
1070
     1
1071
      274
1005
14578D
  0
LINE
  5
14578E
  8
OBJECT
 10
2184.0
 20
-3117.999999999995
 30
0.0
 11
2096.0
 21
-3117.999999999995
 31
0.0
1001
ACDBBLOCKREPETAG
1070
     1
1071
      275
1005
14578E
  0
LINE
  5
14578F
  8
OBJECT
 10
2096.0
 20
-3117.999999999995
 30
0.0
 11
2096.0
 21
-3081.999999999995
 31
0.0
1001
ACDBBLOCKREPETAG
1070
     1
1071
      276
1005
14578F
  0
LINE
  5
145790
  8
OBJECT
 10
2179.4999999999991
 20
-3121.9999999999959
 30
0.0
 11
2179.4999999999991
 21
-3134.9999999999959
 31
0.0
1001
ACDBBLOCKREPETAG
1070
     1
1071
      277
1005
145790
  0
LINE
  5
145791
  8
OBJECT
 10
2100.5
 20
-3134.9999999999959
 30
0.0
 11
2100.5
 21
-3121.9999999999959
 31
0.0
1001
ACDBBLOCKREPETAG
1070
     1
1071
      278
1005
145791
  0
LINE
  5
145792
  8
OBJECT
 10
2100.5
 20
-3121.9999999999959
 30
0.0
 11
2179.4999999999991
 21
-3121.9999999999959
 31
0.0
1001
ACDBBLOCKREPETAG
1070
     1
1071
      279
1005
145792
  0
LINE
  5
145793
  8
OBJECT
 10
2184.0
 20
-3117.999999999995
 30
0.0
 11
2179.4999999999991
 21
-3121.9999999999959
 31
0.0
1001
ACDBBLOCKREPETAG
1070
     1
1071
      280
1005
145793
  0
LINE
  5
145794
  8
OBJECT
 10
2096.0
 20
-3117.999999999995
 30
0.0
 11
2100.5
 21
-3121.9999999999959
 31
0.0
1001
ACDBBLOCKREPETAG
1070
     1
1071
      281
1005
145794
  0
LINE
  5
145795
  8
HIDDEN
 10
2169.9999999999991
 20
-3126.9999999999959
 30
0.0
 11
2109.9999999999991
 21
-3126.9999999999959
 31
0.0
1001
ACDBBLOCKREPETAG
1070
     1
1071
      282
1005
145795
  0
LINE
  5
145796
  8
OBJECT
 10
2083.0
 20
-3112.9999999999959
 30
0.0
 11
2080.0
 21
-3112.9999999999959
 31
0.0
1001
ACDBBLOCKREPETAG
1070
     1
1071
      284
1005
145796
  0
ARC
  5
145797
  8
OBJECT
 10
2083.0
 20
-3115.9999999999959
 30
0.0
 40
3.0
 50
0.0
 51
90.0
1001
ACDBBLOCKREPETAG
1070
     1
1071
      285
1005
145797
  0
LINE
  5
145798
  8
OBJECT
 10
2080.0
 20
-3236.9999999999959
 30
0.0
 11
2083.0
 21
-3236.9999999999959
 31
0.0
1001
ACDBBLOCKREPETAG
1070
     1
1071
      286
1005
145798
  0
ARC
  5
145799
  8
OBJECT
 10
2083.0
 20
-3233.999999999995
 30
0.0
 40
3.0
 50
270.0
 51
0.0
1001
ACDBBLOCKREPETAG
1070
     1
1071
      287
1005
145799
  0
LINE
  5
14579A
  8
OBJECT
 10
2086.0
 20
-3233.999999999995
 30
0.0
 11
2086.0
 21
-3115.9999999999959
 31
0.0
1001
ACDBBLOCKREPETAG
1070
     1
1071
      288
1005
14579A
  0
LINE
  5
14579B
  8
OBJECT
 10
2100.499996373258
 20
-3134.9999244786109
 30
0.0
 11
2179.4999963732589
 21
-3134.9999244786109
 31
0.0
1001
ACDBBLOCKREPETAG
1070
     1
1071
      290
1005
14579B
  0
LINE
  5
14579C
  8
CENTER
 10
2178.44955845084
 20
-3174.9999999999918
 30
0.0
 11
2080.0
 21
-3174.999999999995
 31
0.0
1001
ACDBBLOCKREPETAG
1070
     1
1071
      291
1005
14579C
  0
LINE
  5
14579D
  8
OBJECT
 10
2096.0
 20
-3115.9999999999959
 30
0.0
 11
2086.0
 21
-3115.9999999999918
 31
0.0
1001
ACDBBLOCKREPETAG
1070
     1
1071
      292
1005
14579D
  0
LINE
  5
14579E
  8
OBJECT
 10
2101.5
 20
-3141.4999999999932
 30
0.0
 11
2086.0
 21
-3141.4999999999959
 31
0.0
1001
ACDBBLOCKREPETAG
1070
     1
1071
      293
1005
14579E
  0
LINE
  5
14579F
  8
OBJECT
 10
2104.0
 20
-3208.4999999999918
 30
0.0
 11
2086.0
 21
-3208.4999999999918
 31
0.0
1001
ACDBBLOCKREPETAG
1070
     1
1071
      294
1005
14579F
  0
LINE
  5
1457A0
  8
OBJECT
 10
2106.5
 20
-3134.9999244786109
 30
0.0
 11
2106.5
 21
-3136.4999999999932
 31
0.0
1001
ACDBBLOCKREPETAG
1070
     1
1071
      295
1005
1457A0
  0
ARC
  5
1457A1
  8
OBJECT
 10
2101.5
 20
-3136.4999999999932
 30
0.0
 40
5.0
 50
270.0
 51
0.0
1001
ACDBBLOCKREPETAG
1070
     1
1071
      296
1005
1457A1
  0
LINE
  5
1457A2
  8
OBJECT
 10
2173.5
 20
-3134.9999244786109
 30
0.0
 11
2173.5
 21
-3138.9999999999918
 31
0.0
1001
ACDBBLOCKREPETAG
1070
     1
1071
      297
1005
1457A2
  0
ARC
  5
1457A3
  8
OBJECT
 10
2104.0
 20
-3138.9999999999918
 30
0.0
 40
69.5
 50
270.0
 51
0.0
1001
ACDBBLOCKREPETAG
1070
     1
1071
      298
1005
1457A3
  0
TEXT
  5
1457A4
  8
SLIM
 10
2617.142857142856
 20
-3189.9999999999959
 30
0.0
 40
40.0
  1
F寸法
 41
0.75
  0
TEXT
  5
1457A5
  8
SLIM
 10
3013.2857142857151
 20
-3189.9999999999959
 30
0.0
 40
40.0
  1
150
 41
0.75
  0
TEXT
  5
1457A6
  8
SLIM
 10
2753.2857142857151
 20
-3189.9999999999959
 30
0.0
 40
40.0
  1
140
 41
0.75
  0
TEXT
  5
1457A7
  8
SLIM
 10
2883.2857142857151
 20
-3189.9999999999959
 30
0.0
 40
40.0
  1
140
 41
0.75
  0
TEXT
  5
1457A8
  8
SLIM
 10
2616.4285714285711
 20
-3119.9999999999959
 30
0.0
 40
40.0
  1
E寸法
 41
0.75
  0
TEXT
  5
1457A9
  8
SLIM
 10
3013.2857142857151
 20
-3119.9999999999959
 30
0.0
 40
40.0
  1
212
 41
0.75
  0
TEXT
  5
1457AA
  8
SLIM
 10
2753.2857142857151
 20
-3119.9999999999959
 30
0.0
 40
40.0
  1
187
 41
0.75
  0
TEXT
  5
1457AB
  8
SLIM
 10
2883.2857142857151
 20
-3119.9999999999959
 30
0.0
 40
40.0
  1
195
 41
0.75
  0
TEXT
  5
1457AC
  8
SLIM
 10
2615.0
 20
-3049.999999999995
 30
0.0
 40
40.0
  1
D寸法
 41
0.75
  0
TEXT
  5
1457AD
  8
SLIM
 10
3016.1428571428569
 20
-3049.999999999995
 30
0.0
 40
40.0
  1
110
 41
0.75
  0
TEXT
  5
1457AE
  8
SLIM
 10
2753.2857142857151
 20
-3049.999999999995
 30
0.0
 40
40.0
  1
100
 41
0.75
  0
TEXT
  5
1457AF
  8
SLIM
 10
2883.2857142857151
 20
-3049.999999999995
 30
0.0
 40
40.0
  1
100
 41
0.75
  0
TEXT
  5
1457B0
  8
SLIM
 10
2615.0
 20
-2979.999999999995
 30
0.0
 40
40.0
  1
B寸法
 41
0.75
  0
TEXT
  5
1457B1
  8
SLIM
 10
2614.2857142857142
 20
-2909.9999999999959
 30
0.0
 40
40.0
  1
A寸法
 41
0.75
  0
TEXT
  5
1457B2
  8
SLIM
 10
3154.7142857142858
 20
-2979.999999999995
 30
0.0
 40
40.0
  1
72
 41
0.75
  0
TEXT
  5
1457B3
  8
SLIM
 10
3025.4285714285711
 20
-2979.999999999995
 30
0.0
 40
40.0
  1
59
 41
0.75
  0
TEXT
  5
1457B4
  8
SLIM
 10
2764.0
 20
-2979.999999999995
 30
0.0
 40
40.0
  1
44
 41
0.75
  0
TEXT
  5
1457B5
  8
SLIM
 10
2894.7142857142858
 20
-2979.999999999995
 30
0.0
 40
40.0
  1
52
 41
0.75
  0
TEXT
  5
1457B6
  8
SLIM
 10
2875.0
 20
-2784.9999999999959
 30
0.0
 40
40.0
  1
横枝管サイズ
 41
0.75
  0
TEXT
  5
1457B7
  8
SLIM
 10
3120.2857142857151
 20
-2839.9999999999959
 30
0.0
 40
30.0
  1
100（4）
 41
0.75
  0
TEXT
  5
1457B8
  8
SLIM
 10
2998.8571428571422
 20
-2839.9999999999959
 30
0.0
 40
30.0
  1
75（3）
 41
0.75
  0
TEXT
  5
1457B9
  8
SLIM
 10
2868.8571428571422
 20
-2839.9999999999959
 30
0.0
 40
30.0
  1
65（2）
 41
0.75
  0
TEXT
  5
1457BA
  8
SLIM
 10
2741.0
 20
-2839.9999999999959
 30
0.0
 40
30.0
  1
50（1）
 41
0.75
  0
TEXT
  5
1457BB
  8
SLIM
 10
3143.2857142857151
 20
-2909.9999999999959
 30
0.0
 40
40.0
  1
150
 41
0.75
  0
TEXT
  5
1457BC
  8
SLIM
 10
3012.571428571428
 20
-2909.9999999999959
 30
0.0
 40
40.0
  1
124
 41
0.75
  0
TEXT
  5
1457BD
  8
SLIM
 10
2764.0
 20
-2909.9999999999959
 30
0.0
 40
40.0
  1
94
 41
0.75
  0
TEXT
  5
1457BE
  8
SLIM
 10
2886.1428571428569
 20
-2909.9999999999959
 30
0.0
 40
40.0
  1
110
 41
0.75
  0
TEXT
  5
1457BF
  8
SLIM
 10
1849.9999999999991
 20
-2712.5
 30
0.0
 40
75.0
  1
枝管サイズ毎の形状
 41
0.75
  0
TEXT
  5
1457C0
  8
SLIM
 10
0.0000035665234464
 20
24.000004585317601
 30
0.0
 40
79.999999999972701
  1
枝管バリエーション
 41
0.75
1001
ACDBBLOCKREPETAG
1070
     1
1071
      119
1005
11E9B0
  0
LINE
  5
1457C1
  8
SLIM
 10
11914.999999999991
 20
-765.19743878931502
 30
0.0
 11
11925.197438789301
 21
-755.0
 31
0.0
1001
ACAD
1010
0.0
1020
0.0
1030
0.0
1001
ACDBBLOCKREPETAG
1070
     1
1071
       10
1005
1457C1
  0
LINE
  5
1457C2
  8
SLIM
 10
11914.999999999991
 20
-783.15795103145183
 30
0.0
 11
11943.15795103144
 21
-755.0
 31
0.0
1001
ACAD
1010
0.0
1020
0.0
1030
0.0
1001
ACDBBLOCKREPETAG
1070
     1
1071
       11
1005
1457C2
  0
LINE
  5
1457C3
  8
SLIM
 10
11915.0
 20
-801.11846327358853
 30
0.0
 11
11961.11846327358
 21
-755.0
 31
0.0
1001
ACAD
1010
0.0
1020
0.0
1030
0.0
1001
ACDBBLOCKREPETAG
1070
     1
1071
       12
1005
1457C3
  0
LINE
  5
1457C4
  8
SLIM
 10
11915.0
 20
-819.07897551572592
 30
0.0
 11
11979.07897551572
 21
-755.0
 31
0.0
1001
ACAD
1010
0.0
1020
0.0
1030
0.0
1001
ACDBBLOCKREPETAG
1070
     1
1071
       13
1005
1457C4
  0
LINE
  5
1457C5
  8
SLIM
 10
11915.0
 20
-837.03948775786273
 30
0.0
 11
11997.03948775786
 21
-755.0
 31
0.0
1001
ACAD
1010
0.0
1020
0.0
1030
0.0
1001
ACDBBLOCKREPETAG
1070
     1
1071
       14
1005
1457C5
  0
LINE
  5
1457C6
  8
SLIM
 10
11915.28360074955
 20
-854.71639925044224
 30
0.0
 11
12015.0
 21
-755.0
 31
0.0
1001
ACAD
1010
0.0
1020
0.0
1030
0.0
1001
ACDBBLOCKREPETAG
1070
     1
1071
       15
1005
1457C6
  0
LINE
  5
1457C7
  8
SLIM
 10
11917.49791047804
 20
-870.46260176409714
 30
0.0
 11
12032.96051224214
 21
-755.0
 31
0.0
1001
ACAD
1010
0.0
1020
0.0
1030
0.0
1001
ACDBBLOCKREPETAG
1070
     1
1071
       16
1005
1457C7
  0
LINE
  5
1457C8
  8
SLIM
 10
11919.71222020652
 20
-886.20880427775273
 30
0.0
 11
12050.921024484271
 21
-755.0
 31
0.0
1001
ACAD
1010
0.0
1020
0.0
1030
0.0
1001
ACDBBLOCKREPETAG
1070
     1
1071
       17
1005
1457C8
  0
LINE
  5
1457C9
  8
SLIM
 10
11921.926529935001
 20
-901.95500679140798
 30
0.0
 11
12068.881536726411
 21
-755.0
 31
0.0
1001
ACAD
1010
0.0
1020
0.0
1030
0.0
1001
ACDBBLOCKREPETAG
1070
     1
1071
       18
1005
1457C9
  0
LINE
  5
1457CA
  8
SLIM
 10
11924.140839663491
 20
-917.70120930506334
 30
0.0
 11
12085.000000000009
 21
-756.84204896854612
 31
0.0
1001
ACAD
1010
0.0
1020
0.0
1030
0.0
1001
ACDBBLOCKREPETAG
1070
     1
1071
       19
1005
1457CA
  0
LINE
  5
1457CB
  8
SLIM
 10
11926.35514939196
 20
-933.44741181871859
 30
0.0
 11
12085.0
 21
-774.80256121068555
 31
0.0
1001
ACAD
1010
0.0
1020
0.0
1030
0.0
1001
ACDBBLOCKREPETAG
1070
     1
1071
       20
1005
1457CB
  0
LINE
  5
1457CC
  8
SLIM
 10
11928.56945912045
 20
-949.19361433237441
 30
0.0
 11
12085.0
 21
-792.76307345282544
 31
0.0
1001
ACAD
1010
0.0
1020
0.0
1030
0.0
1001
ACDBBLOCKREPETAG
1070
     1
1071
       21
1005
1457CC
  0
LINE
  5
1457CD
  8
SLIM
 10
11930.78376884894
 20
-964.93981684602954
 30
0.0
 11
12085.0
 21
-810.7235856949651
 31
0.0
1001
ACAD
1010
0.0
1020
0.0
1030
0.0
1001
ACDBBLOCKREPETAG
1070
     1
1071
       22
1005
1457CD
  0
LINE
  5
1457CE
  8
SLIM
 10
11932.998078577421
 20
-980.68601935968502
 30
0.0
 11
12085.0
 21
-828.68409793710464
 31
0.0
1001
ACAD
1010
0.0
1020
0.0
1030
0.0
1001
ACDBBLOCKREPETAG
1070
     1
1071
       23
1005
1457CE
  0
LINE
  5
1457CF
  8
SLIM
 10
11932.999999999991
 20
-998.64461017925203
 30
0.0
 11
12085.0
 21
-846.64461017924395
 31
0.0
1001
ACAD
1010
0.0
1020
0.0
1030
0.0
1001
ACDBBLOCKREPETAG
1070
     1
1071
       24
1005
1457CF
  0
LINE
  5
1457D0
  8
SLIM
 10
11932.999999999991
 20
-1016.60512242139
 30
0.0
 11
12083.05183715436
 21
-866.55328526701692
 31
0.0
1001
ACAD
1010
0.0
1020
0.0
1030
0.0
1001
ACDBBLOCKREPETAG
1070
     1
1071
       25
1005
1457D0
  0
LINE
  5
1457D1
  8
SLIM
 10
11942.565634663521
 20
-1024.9999999999959
 30
0.0
 11
12080.112844242019
 21
-887.45279042150412
 31
0.0
1001
ACAD
1010
0.0
1020
0.0
1030
0.0
1001
ACDBBLOCKREPETAG
1070
     1
1071
       26
1005
1457D1
  0
LINE
  5
1457D2
  8
SLIM
 10
11960.52614690566
 20
-1024.999999999997
 30
0.0
 11
12077.17385132967
 21
-908.35229557599155
 31
0.0
1001
ACAD
1010
0.0
1020
0.0
1030
0.0
1001
ACDBBLOCKREPETAG
1070
     1
1071
       27
1005
1457D2
  0
LINE
  5
1457D3
  8
SLIM
 10
11978.4866591478
 20
-1024.999999999997
 30
0.0
 11
12074.23485841732
 21
-929.25180073047886
 31
0.0
1001
ACAD
1010
0.0
1020
0.0
1030
0.0
1001
ACDBBLOCKREPETAG
1070
     1
1071
       28
1005
1457D3
  0
LINE
  5
1457D4
  8
SLIM
 10
11996.44717138994
 20
-1024.999999999998
 30
0.0
 11
12071.29586550497
 21
-950.15130588496618
 31
0.0
1001
ACAD
1010
0.0
1020
0.0
1030
0.0
1001
ACDBBLOCKREPETAG
1070
     1
1071
       29
1005
1457D4
  0
LINE
  5
1457D5
  8
SLIM
 10
12014.40768363208
 20
-1024.999999999998
 30
0.0
 11
12068.35687259262
 21
-971.05081103945361
 31
0.0
1001
ACAD
1010
0.0
1020
0.0
1030
0.0
1001
ACDBBLOCKREPETAG
1070
     1
1071
       30
1005
1457D5
  0
LINE
  5
1457D6
  8
SLIM
 10
12032.368195874211
 20
-1024.9999999999991
 30
0.0
 11
12067.0
 21
-990.36819587420166
 31
0.0
1001
ACAD
1010
0.0
1020
0.0
1030
0.0
1001
ACDBBLOCKREPETAG
1070
     1
1071
       31
1005
1457D6
  0
LINE
  5
1457D7
  8
SLIM
 10
12050.328708116351
 20
-1024.9999999999991
 30
0.0
 11
12067.0
 21
-1008.32870811634
 31
0.0
1001
ACAD
1010
0.0
1020
0.0
1030
0.0
1001
ACDBBLOCKREPETAG
1070
     1
1071
       32
1005
1457D7
  0
LINE
  5
1457D8
  8
OBJECT
 10
11932.999999999991
 20
-1024.9999999999959
 30
0.0
 11
12067.0
 21
-1025.0
 31
0.0
1001
ACDBBLOCKREPETAG
1070
     1
1071
        1
1005
1457D8
  0
LINE
  5
1457D9
  8
OBJECT
 10
11914.999999999991
 20
-755.0
 30
0.0
 11
11915.0
 21
-852.69968280914156
 31
0.0
1001
ACDBBLOCKREPETAG
1070
     1
1071
        2
1005
1457D9
  0
LINE
  5
1457DA
  8
OBJECT
 10
12085.000000000009
 20
-755.0
 30
0.0
 11
12085.0
 21
-852.69968280917203
 31
0.0
1001
ACDBBLOCKREPETAG
1070
     1
1071
        3
1005
1457DA
  0
LINE
  5
1457DB
  8
OBJECT
 10
11915.0
 20
-852.69968280914156
 30
0.0
 11
11932.999999999991
 21
-980.69968280908154
 31
0.0
1001
ACDBBLOCKREPETAG
1070
     1
1071
        4
1005
1457DB
  0
LINE
  5
1457DC
  8
OBJECT
 10
12067.0
 20
-980.69968280912872
 30
0.0
 11
12085.0
 21
-852.69968280917203
 31
0.0
1001
ACDBBLOCKREPETAG
1070
     1
1071
        5
1005
1457DC
  0
LINE
  5
1457DD
  8
OBJECT
 10
12085.000000000009
 20
-755.0
 30
0.0
 11
11914.999999999991
 21
-755.0
 31
0.0
1001
ACDBBLOCKREPETAG
1070
     1
1071
        6
1005
1457DD
  0
LINE
  5
1457DE
  8
OBJECT
 10
11932.999999999991
 20
-980.69968280908154
 30
0.0
 11
11932.999999999991
 21
-1024.9999999999959
 31
0.0
1001
ACDBBLOCKREPETAG
1070
     1
1071
        8
1005
1457DE
  0
LINE
  5
1457DF
  8
OBJECT
 10
12067.0
 20
-980.69968280912872
 30
0.0
 11
12067.0
 21
-1025.0
 31
0.0
1001
ACDBBLOCKREPETAG
1070
     1
1071
        9
1005
1457DF
  0
LINE
  5
1457E0
  8
SLIM
 10
9914.9999999999927
 20
-765.19743878931502
 30
0.0
 11
9925.1974387893097
 21
-755.0
 31
0.0
1001
ACAD
1010
0.0
1020
0.0
1030
0.0
1001
ACDBBLOCKREPETAG
1070
     1
1071
       10
1005
1457E0
  0
LINE
  5
1457E1
  8
SLIM
 10
9914.9999999999945
 20
-783.15795103145183
 30
0.0
 11
9943.1579510314441
 21
-755.0
 31
0.0
1001
ACAD
1010
0.0
1020
0.0
1030
0.0
1001
ACDBBLOCKREPETAG
1070
     1
1071
       11
1005
1457E1
  0
LINE
  5
1457E2
  8
SLIM
 10
9914.9999999999964
 20
-801.11846327358853
 30
0.0
 11
9961.1184632735858
 21
-755.0
 31
0.0
1001
ACAD
1010
0.0
1020
0.0
1030
0.0
1001
ACDBBLOCKREPETAG
1070
     1
1071
       12
1005
1457E2
  0
LINE
  5
1457E3
  8
SLIM
 10
9914.9999999999982
 20
-819.07897551572592
 30
0.0
 11
9979.0789755157257
 21
-755.0
 31
0.0
1001
ACAD
1010
0.0
1020
0.0
1030
0.0
1001
ACDBBLOCKREPETAG
1070
     1
1071
       13
1005
1457E3
  0
LINE
  5
1457E4
  8
SLIM
 10
9914.9999999999982
 20
-837.03948775786273
 30
0.0
 11
9997.0394877578656
 21
-755.0
 31
0.0
1001
ACAD
1010
0.0
1020
0.0
1030
0.0
1001
ACDBBLOCKREPETAG
1070
     1
1071
       14
1005
1457E4
  0
LINE
  5
1457E5
  8
SLIM
 10
9915.2836007495607
 20
-854.71639925044224
 30
0.0
 11
10015.0
 21
-755.0
 31
0.0
1001
ACAD
1010
0.0
1020
0.0
1030
0.0
1001
ACDBBLOCKREPETAG
1070
     1
1071
       15
1005
1457E5
  0
LINE
  5
1457E6
  8
SLIM
 10
9917.4979104780396
 20
-870.46260176409714
 30
0.0
 11
10032.96051224214
 21
-755.0
 31
0.0
1001
ACAD
1010
0.0
1020
0.0
1030
0.0
1001
ACDBBLOCKREPETAG
1070
     1
1071
       16
1005
1457E6
  0
LINE
  5
1457E7
  8
SLIM
 10
9919.7122202065257
 20
-886.20880427775273
 30
0.0
 11
10050.921024484271
 21
-755.0
 31
0.0
1001
ACAD
1010
0.0
1020
0.0
1030
0.0
1001
ACDBBLOCKREPETAG
1070
     1
1071
       17
1005
1457E7
  0
LINE
  5
1457E8
  8
SLIM
 10
9921.9265299350063
 20
-901.95500679140798
 30
0.0
 11
10068.881536726411
 21
-755.0
 31
0.0
1001
ACAD
1010
0.0
1020
0.0
1030
0.0
1001
ACDBBLOCKREPETAG
1070
     1
1071
       18
1005
1457E8
  0
LINE
  5
1457E9
  8
SLIM
 10
9924.1408396634924
 20
-917.70120930506334
 30
0.0
 11
10085.000000000009
 21
-756.84204896854612
 31
0.0
1001
ACAD
1010
0.0
1020
0.0
1030
0.0
1001
ACDBBLOCKREPETAG
1070
     1
1071
       19
1005
1457E9
  0
LINE
  5
1457EA
  8
SLIM
 10
9926.3551493919731
 20
-933.44741181871859
 30
0.0
 11
10085.0
 21
-774.80256121068555
 31
0.0
1001
ACAD
1010
0.0
1020
0.0
1030
0.0
1001
ACDBBLOCKREPETAG
1070
     1
1071
       20
1005
1457EA
  0
LINE
  5
1457EB
  8
SLIM
 10
9928.5694591204574
 20
-949.19361433237441
 30
0.0
 11
10085.0
 21
-792.76307345282544
 31
0.0
1001
ACAD
1010
0.0
1020
0.0
1030
0.0
1001
ACDBBLOCKREPETAG
1070
     1
1071
       21
1005
1457EB
  0
LINE
  5
1457EC
  8
SLIM
 10
9930.7837688489417
 20
-964.93981684602954
 30
0.0
 11
10085.0
 21
-810.7235856949651
 31
0.0
1001
ACAD
1010
0.0
1020
0.0
1030
0.0
1001
ACDBBLOCKREPETAG
1070
     1
1071
       22
1005
1457EC
  0
LINE
  5
1457ED
  8
SLIM
 10
9932.9980785774187
 20
-980.68601935968502
 30
0.0
 11
10085.0
 21
-828.68409793710464
 31
0.0
1001
ACAD
1010
0.0
1020
0.0
1030
0.0
1001
ACDBBLOCKREPETAG
1070
     1
1071
       23
1005
1457ED
  0
LINE
  5
1457EE
  8
SLIM
 10
9932.9999999999927
 20
-998.64461017925203
 30
0.0
 11
10085.0
 21
-846.64461017924395
 31
0.0
1001
ACAD
1010
0.0
1020
0.0
1030
0.0
1001
ACDBBLOCKREPETAG
1070
     1
1071
       24
1005
1457EE
  0
LINE
  5
1457EF
  8
SLIM
 10
9932.9999999999927
 20
-1016.60512242139
 30
0.0
 11
10083.05183715436
 21
-866.55328526701692
 31
0.0
1001
ACAD
1010
0.0
1020
0.0
1030
0.0
1001
ACDBBLOCKREPETAG
1070
     1
1071
       25
1005
1457EF
  0
LINE
  5
1457F0
  8
SLIM
 10
9942.5656346635242
 20
-1024.9999999999959
 30
0.0
 11
10080.11284424201
 21
-887.45279042150412
 31
0.0
1001
ACAD
1010
0.0
1020
0.0
1030
0.0
1001
ACDBBLOCKREPETAG
1070
     1
1071
       26
1005
1457F0
  0
LINE
  5
1457F1
  8
SLIM
 10
9960.5261469056641
 20
-1024.999999999997
 30
0.0
 11
10077.17385132967
 21
-908.35229557599155
 31
0.0
1001
ACAD
1010
0.0
1020
0.0
1030
0.0
1001
ACDBBLOCKREPETAG
1070
     1
1071
       27
1005
1457F1
  0
LINE
  5
1457F2
  8
SLIM
 10
9978.4866591478003
 20
-1024.999999999997
 30
0.0
 11
10074.23485841732
 21
-929.25180073047886
 31
0.0
1001
ACAD
1010
0.0
1020
0.0
1030
0.0
1001
ACDBBLOCKREPETAG
1070
     1
1071
       28
1005
1457F2
  0
LINE
  5
1457F3
  8
SLIM
 10
9996.4471713899384
 20
-1024.999999999998
 30
0.0
 11
10071.29586550497
 21
-950.15130588496618
 31
0.0
1001
ACAD
1010
0.0
1020
0.0
1030
0.0
1001
ACDBBLOCKREPETAG
1070
     1
1071
       29
1005
1457F3
  0
LINE
  5
1457F4
  8
SLIM
 10
10014.40768363206
 20
-1024.999999999998
 30
0.0
 11
10068.35687259262
 21
-971.05081103945361
 31
0.0
1001
ACAD
1010
0.0
1020
0.0
1030
0.0
1001
ACDBBLOCKREPETAG
1070
     1
1071
       30
1005
1457F4
  0
LINE
  5
1457F5
  8
SLIM
 10
10032.368195874211
 20
-1024.9999999999991
 30
0.0
 11
10067.000000000009
 21
-990.36819587420166
 31
0.0
1001
ACAD
1010
0.0
1020
0.0
1030
0.0
1001
ACDBBLOCKREPETAG
1070
     1
1071
       31
1005
1457F5
  0
LINE
  5
1457F6
  8
SLIM
 10
10050.328708116351
 20
-1024.9999999999991
 30
0.0
 11
10067.000000000009
 21
-1008.32870811634
 31
0.0
1001
ACAD
1010
0.0
1020
0.0
1030
0.0
1001
ACDBBLOCKREPETAG
1070
     1
1071
       32
1005
1457F6
  0
LINE
  5
1457F7
  8
OBJECT
 10
9932.9999999999927
 20
-1024.9999999999959
 30
0.0
 11
10067.000000000009
 21
-1025.0
 31
0.0
1001
ACDBBLOCKREPETAG
1070
     1
1071
        1
1005
1457F7
  0
LINE
  5
1457F8
  8
OBJECT
 10
9914.9999999999927
 20
-755.0
 30
0.0
 11
9915.0
 21
-852.69968280914156
 31
0.0
1001
ACDBBLOCKREPETAG
1070
     1
1071
        2
1005
1457F8
  0
LINE
  5
1457F9
  8
OBJECT
 10
10085.000000000009
 20
-755.0
 30
0.0
 11
10085.0
 21
-852.69968280917203
 31
0.0
1001
ACDBBLOCKREPETAG
1070
     1
1071
        3
1005
1457F9
  0
LINE
  5
1457FA
  8
OBJECT
 10
9915.0
 20
-852.69968280914156
 30
0.0
 11
9932.9999999999927
 21
-980.69968280908154
 31
0.0
1001
ACDBBLOCKREPETAG
1070
     1
1071
        4
1005
1457FA
  0
LINE
  5
1457FB
  8
OBJECT
 10
10067.000000000009
 20
-980.69968280912872
 30
0.0
 11
10085.0
 21
-852.69968280917203
 31
0.0
1001
ACDBBLOCKREPETAG
1070
     1
1071
        5
1005
1457FB
  0
LINE
  5
1457FC
  8
OBJECT
 10
10085.000000000009
 20
-755.0
 30
0.0
 11
9914.9999999999927
 21
-755.0
 31
0.0
1001
ACDBBLOCKREPETAG
1070
     1
1071
        6
1005
1457FC
  0
LINE
  5
1457FD
  8
OBJECT
 10
9932.9999999999927
 20
-980.69968280908154
 30
0.0
 11
9932.9999999999927
 21
-1024.9999999999959
 31
0.0
1001
ACDBBLOCKREPETAG
1070
     1
1071
        8
1005
1457FD
  0
LINE
  5
1457FE
  8
OBJECT
 10
10067.000000000009
 20
-980.69968280912872
 30
0.0
 11
10067.000000000009
 21
-1025.0
 31
0.0
1001
ACDBBLOCKREPETAG
1070
     1
1071
        9
1005
1457FE
  0
LINE
  5
1457FF
  8
SLIM
 10
7914.9999999999918
 20
-765.19743878931502
 30
0.0
 11
7925.1974387893079
 21
-755.0
 31
0.0
1001
ACAD
1010
0.0
1020
0.0
1030
0.0
1001
ACDBBLOCKREPETAG
1070
     1
1071
       12
1005
1457FF
  0
LINE
  5
145800
  8
SLIM
 10
7914.9999999999964
 20
-783.15795103145183
 30
0.0
 11
7943.1579510314459
 21
-755.0
 31
0.0
1001
ACAD
1010
0.0
1020
0.0
1030
0.0
1001
ACDBBLOCKREPETAG
1070
     1
1071
       13
1005
145800
  0
LINE
  5
145801
  8
SLIM
 10
7914.9999999999982
 20
-801.11846327358853
 30
0.0
 11
7961.1184632735867
 21
-755.0
 31
0.0
1001
ACAD
1010
0.0
1020
0.0
1030
0.0
1001
ACDBBLOCKREPETAG
1070
     1
1071
       14
1005
145801
  0
LINE
  5
145802
  8
SLIM
 10
7914.9999999999982
 20
-819.07897551572592
 30
0.0
 11
7979.078975515723
 21
-755.0
 31
0.0
1001
ACAD
1010
0.0
1020
0.0
1030
0.0
1001
ACDBBLOCKREPETAG
1070
     1
1071
       15
1005
145802
  0
LINE
  5
145803
  8
SLIM
 10
7914.9999999999982
 20
-837.03948775786273
 30
0.0
 11
7997.0394877578628
 21
-755.0
 31
0.0
1001
ACAD
1010
0.0
1020
0.0
1030
0.0
1001
ACDBBLOCKREPETAG
1070
     1
1071
       16
1005
145803
  0
LINE
  5
145804
  8
SLIM
 10
7915.283600749558
 20
-854.71639925044224
 30
0.0
 11
8015.0
 21
-755.0
 31
0.0
1001
ACAD
1010
0.0
1020
0.0
1030
0.0
1001
ACDBBLOCKREPETAG
1070
     1
1071
       17
1005
145804
  0
LINE
  5
145805
  8
SLIM
 10
7917.4979104780423
 20
-870.46260176409714
 30
0.0
 11
8032.960512242139
 21
-755.0
 31
0.0
1001
ACAD
1010
0.0
1020
0.0
1030
0.0
1001
ACDBBLOCKREPETAG
1070
     1
1071
       18
1005
145805
  0
LINE
  5
145806
  8
SLIM
 10
7919.7122202065239
 20
-886.20880427775273
 30
0.0
 11
8050.9210244842798
 21
-755.0
 31
0.0
1001
ACAD
1010
0.0
1020
0.0
1030
0.0
1001
ACDBBLOCKREPETAG
1070
     1
1071
       19
1005
145806
  0
LINE
  5
145807
  8
SLIM
 10
7921.9265299350072
 20
-901.95500679140764
 30
0.0
 11
8068.8815367264133
 21
-755.0
 31
0.0
1001
ACAD
1010
0.0
1020
0.0
1030
0.0
1001
ACDBBLOCKREPETAG
1070
     1
1071
       20
1005
145807
  0
LINE
  5
145808
  8
SLIM
 10
7924.1408396634897
 20
-917.70120930506334
 30
0.0
 11
8085.0000000000064
 21
-756.84204896854612
 31
0.0
1001
ACAD
1010
0.0
1020
0.0
1030
0.0
1001
ACDBBLOCKREPETAG
1070
     1
1071
       21
1005
145808
  0
LINE
  5
145809
  8
SLIM
 10
7926.3551493919731
 20
-933.44741181871836
 30
0.0
 11
8085.0000000000064
 21
-774.80256121068555
 31
0.0
1001
ACAD
1010
0.0
1020
0.0
1030
0.0
1001
ACDBBLOCKREPETAG
1070
     1
1071
       22
1005
145809
  0
LINE
  5
14580A
  8
SLIM
 10
7928.5694591204538
 20
-949.1936143323735
 30
0.0
 11
8085.0000000000064
 21
-792.76307345282532
 31
0.0
1001
ACAD
1010
0.0
1020
0.0
1030
0.0
1001
ACDBBLOCKREPETAG
1070
     1
1071
       23
1005
14580A
  0
LINE
  5
14580B
  8
SLIM
 10
7930.783768848939
 20
-964.93981684602875
 30
0.0
 11
8085.0000000000018
 21
-810.7235856949651
 31
0.0
1001
ACAD
1010
0.0
1020
0.0
1030
0.0
1001
ACDBBLOCKREPETAG
1070
     1
1071
       24
1005
14580B
  0
LINE
  5
14580C
  8
SLIM
 10
7932.9980785774214
 20
-980.68601935968422
 30
0.0
 11
8085.0000000000018
 21
-828.68409793710464
 31
0.0
1001
ACAD
1010
0.0
1020
0.0
1030
0.0
1001
ACDBBLOCKREPETAG
1070
     1
1071
       25
1005
14580C
  0
LINE
  5
14580D
  8
SLIM
 10
7943.0
 20
-988.64461017924452
 30
0.0
 11
7946.6446101792453
 21
-984.99999999999807
 31
0.0
1001
ACAD
1010
0.0
1020
0.0
1030
0.0
1001
ACDBBLOCKREPETAG
1070
     1
1071
       26
1005
14580D
  0
LINE
  5
14580E
  8
SLIM
 10
7946.6446101792453
 20
-984.99999999999807
 30
0.0
 11
8085.0
 21
-846.64461017924395
 31
0.0
1001
ACAD
1010
0.0
1020
0.0
1030
0.0
1001
ACDBBLOCKREPETAG
1070
     1
1071
       27
1005
14580E
  0
LINE
  5
14580F
  8
SLIM
 10
7944.6051224213861
 20
-1004.999999999998
 30
0.0
 11
7964.6051224213852
 21
-984.99999999999807
 31
0.0
1001
ACAD
1010
0.0
1020
0.0
1030
0.0
1001
ACDBBLOCKREPETAG
1070
     1
1071
       28
1005
14580F
  0
LINE
  5
145810
  8
SLIM
 10
7964.6051224213852
 20
-984.99999999999807
 30
0.0
 11
8083.051837154364
 21
-866.5532852670176
 31
0.0
1001
ACAD
1010
0.0
1020
0.0
1030
0.0
1001
ACDBBLOCKREPETAG
1070
     1
1071
       29
1005
145810
  0
LINE
  5
145811
  8
SLIM
 10
7962.5656346635242
 20
-1004.999999999998
 30
0.0
 11
7982.5656346635215
 21
-984.99999999999807
 31
0.0
1001
ACAD
1010
0.0
1020
0.0
1030
0.0
1001
ACDBBLOCKREPETAG
1070
     1
1071
       30
1005
145811
  0
LINE
  5
145812
  8
SLIM
 10
7982.5656346635215
 20
-984.99999999999807
 30
0.0
 11
8080.1128442420159
 21
-887.45279042150548
 31
0.0
1001
ACAD
1010
0.0
1020
0.0
1030
0.0
1001
ACDBBLOCKREPETAG
1070
     1
1071
       31
1005
145812
  0
LINE
  5
145813
  8
SLIM
 10
7980.5261469056622
 20
-1004.999999999998
 30
0.0
 11
8000.5261469056613
 21
-984.99999999999807
 31
0.0
1001
ACAD
1010
0.0
1020
0.0
1030
0.0
1001
ACDBBLOCKREPETAG
1070
     1
1071
       32
1005
145813
  0
LINE
  5
145814
  8
SLIM
 10
8000.5261469056613
 20
-984.99999999999807
 30
0.0
 11
8077.1738513296659
 21
-908.35229557599371
 31
0.0
1001
ACAD
1010
0.0
1020
0.0
1030
0.0
1001
ACDBBLOCKREPETAG
1070
     1
1071
       33
1005
145814
  0
LINE
  5
145815
  8
SLIM
 10
7998.4866591478003
 20
-1004.999999999998
 30
0.0
 11
8018.4866591478003
 21
-984.99999999999807
 31
0.0
1001
ACAD
1010
0.0
1020
0.0
1030
0.0
1001
ACDBBLOCKREPETAG
1070
     1
1071
       34
1005
145815
  0
LINE
  5
145816
  8
SLIM
 10
8018.4866591478003
 20
-984.99999999999807
 30
0.0
 11
8074.234858417316
 21
-929.25180073048148
 31
0.0
1001
ACAD
1010
0.0
1020
0.0
1030
0.0
1001
ACDBBLOCKREPETAG
1070
     1
1071
       35
1005
145816
  0
LINE
  5
145817
  8
SLIM
 10
8016.4471713899393
 20
-1004.999999999998
 30
0.0
 11
8036.4471713899393
 21
-984.99999999999807
 31
0.0
1001
ACAD
1010
0.0
1020
0.0
1030
0.0
1001
ACDBBLOCKREPETAG
1070
     1
1071
       36
1005
145817
  0
LINE
  5
145818
  8
SLIM
 10
8036.4471713899393
 20
-984.99999999999807
 30
0.0
 11
8071.2958655049679
 21
-950.15130588496947
 31
0.0
1001
ACAD
1010
0.0
1020
0.0
1030
0.0
1001
ACDBBLOCKREPETAG
1070
     1
1071
       37
1005
145818
  0
LINE
  5
145819
  8
SLIM
 10
8034.4076836320774
 20
-1004.999999999998
 30
0.0
 11
8054.4076836320764
 21
-984.99999999999807
 31
0.0
1001
ACAD
1010
0.0
1020
0.0
1030
0.0
1001
ACDBBLOCKREPETAG
1070
     1
1071
       38
1005
145819
  0
LINE
  5
14581A
  8
SLIM
 10
8054.4076836320764
 20
-984.99999999999807
 30
0.0
 11
8068.3568725926198
 21
-971.05081103945759
 31
0.0
1001
ACAD
1010
0.0
1020
0.0
1030
0.0
1001
ACDBBLOCKREPETAG
1070
     1
1071
       39
1005
14581A
  0
LINE
  5
14581B
  8
SLIM
 10
8052.3681958742136
 20
-1004.999999999998
 30
0.0
 11
8057.0
 21
-1000.368195874213
 31
0.0
1001
ACAD
1010
0.0
1020
0.0
1030
0.0
1001
ACDBBLOCKREPETAG
1070
     1
1071
       40
1005
14581B
  0
LINE
  5
14581C
  8
OBJECT
 10
7943.0
 20
-1004.999999999998
 30
0.0
 11
8057.0
 21
-1004.999999999998
 31
0.0
1001
ACDBBLOCKREPETAG
1070
     1
1071
        1
1005
14581C
  0
LINE
  5
14581D
  8
OBJECT
 10
7933.6047321049664
 20
-984.99999999999807
 30
0.0
 11
8066.3952678950427
 21
-984.99999999999807
 31
0.0
1001
ACDBBLOCKREPETAG
1070
     1
1071
        2
1005
14581D
  0
LINE
  5
14581E
  8
OBJECT
 10
7943.0
 20
-1004.999999999998
 30
0.0
 11
7943.0
 21
-984.99999999999807
 31
0.0
1001
ACDBBLOCKREPETAG
1070
     1
1071
        3
1005
14581E
  0
LINE
  5
14581F
  8
OBJECT
 10
8057.0
 20
-1004.999999999998
 30
0.0
 11
8057.0
 21
-984.99999999999807
 31
0.0
1001
ACDBBLOCKREPETAG
1070
     1
1071
        4
1005
14581F
  0
LINE
  5
145820
  8
OBJECT
 10
7914.9999999999918
 20
-755.0
 30
0.0
 11
7915.0
 21
-852.69968280914156
 31
0.0
1001
ACDBBLOCKREPETAG
1070
     1
1071
        5
1005
145820
  0
LINE
  5
145821
  8
OBJECT
 10
8085.0000000000064
 20
-755.0
 30
0.0
 11
8085.0
 21
-852.69968280917203
 31
0.0
1001
ACDBBLOCKREPETAG
1070
     1
1071
        6
1005
145821
  0
LINE
  5
145822
  8
OBJECT
 10
7915.0
 20
-852.69968280914156
 30
0.0
 11
7933.6047321049664
 21
-984.99999999999807
 31
0.0
1001
ACDBBLOCKREPETAG
1070
     1
1071
        7
1005
145822
  0
LINE
  5
145823
  8
OBJECT
 10
8066.3952678950427
 20
-984.99999999999807
 30
0.0
 11
8085.0
 21
-852.69968280917203
 31
0.0
1001
ACDBBLOCKREPETAG
1070
     1
1071
        8
1005
145823
  0
LINE
  5
145824
  8
OBJECT
 10
8085.0000000000064
 20
-755.0
 30
0.0
 11
7914.9999999999918
 21
-755.0
 31
0.0
1001
ACDBBLOCKREPETAG
1070
     1
1071
        9
1005
145824
  0
TEXT
  5
145825
  8
SLIM
 10
1837.75
 20
282.50000000000011
 30
0.0
 40
35.0
  1
（枝管サイズ毎に寸法が異なります。管底の位置は全サイズで同じです）
 41
0.75
  0
TEXT
  5
145826
  8
SLIM
 10
1850.0
 20
532.5
 30
0.0
 40
75.0
  1
側面図の代表機種
 41
0.75
  0
TEXT
  5
145827
  8
SLIM
 10
1850.0
 20
369.99999999999989
 30
0.0
 40
100.0
  1
4SL-JR3
 41
0.75
  0
TEXT
  5
145828
  8
SLIM
 10
0.0
 20
670.0
 30
0.0
 40
100.0
  1
4SL-JRX-S
 41
0.75
  0
TEXT
  5
145829
  8
SLIM
 10
0.0
 20
520.0
 30
0.0
 40
100.0
  1
4SL-JRX-W
 41
0.75
  0
LINE
  5
14582A
  8
OBJECT
 10
12085.999999999991
 20
-1103.9999999999991
 30
0.0
 11
12085.999999999991
 21
-1113.9999999999991
 31
0.0
1001
ACDBBLOCKREPETAG
1070
     1
1071
      121
1005
14582A
  0
LINE
  5
14582B
  8
OBJECT
 10
12069.999999999991
 20
-1103.9999999999991
 30
0.0
 11
12069.999999999991
 21
-1113.9999999999991
 31
0.0
1001
ACDBBLOCKREPETAG
1070
     1
1071
      122
1005
14582B
  0
LINE
  5
14582C
  8
OBJECT
 10
12085.999999999991
 20
-1113.9999999999991
 30
0.0
 11
12069.999999999991
 21
-1113.9999999999991
 31
0.0
1001
ACDBBLOCKREPETAG
1070
     1
1071
      123
1005
14582C
  0
LINE
  5
14582D
  8
OBJECT
 10
12090.0
 20
-1064.9999999999959
 30
0.0
 11
11924.0
 21
-1064.9999999999959
 31
0.0
1001
ACDBBLOCKREPETAG
1070
     1
1071
      124
1005
14582D
  0
LINE
  5
14582E
  8
OBJECT
 10
12090.0
 20
-1079.9999999999991
 30
0.0
 11
12090.0
 21
-1064.9999999999959
 31
0.0
1001
ACDBBLOCKREPETAG
1070
     1
1071
      125
1005
14582E
  0
LINE
  5
14582F
  8
OBJECT
 10
11924.0
 20
-1079.9999999999991
 30
0.0
 11
12090.0
 21
-1079.9999999999991
 31
0.0
1001
ACDBBLOCKREPETAG
1070
     1
1071
      126
1005
14582F
  0
LINE
  5
145830
  8
OBJECT
 10
12067.49999999998
 20
-1079.9999999999991
 30
0.0
 11
12067.49999999998
 21
-1089.9999999999991
 31
0.0
1001
ACDBBLOCKREPETAG
1070
     1
1071
      127
1005
145830
  0
LINE
  5
145831
  8
OBJECT
 10
12072.999999999991
 20
-1089.9999999999991
 30
0.0
 11
12072.999999999991
 21
-1079.9999999999991
 31
0.0
1001
ACDBBLOCKREPETAG
1070
     1
1071
      128
1005
145831
  0
LINE
  5
145832
  8
OBJECT
 10
12082.999999999991
 20
-1089.9999999999991
 30
0.0
 11
12082.999999999991
 21
-1079.9999999999991
 31
0.0
1001
ACDBBLOCKREPETAG
1070
     1
1071
      129
1005
145832
  0
LINE
  5
145833
  8
OBJECT
 10
11924.0
 20
-1089.9999999999991
 30
0.0
 11
11924.0
 21
-1103.9999999999959
 31
0.0
1001
ACDBBLOCKREPETAG
1070
     1
1071
      130
1005
145833
  0
LINE
  5
145834
  8
OBJECT
 10
12090.0
 20
-1089.9999999999991
 30
0.0
 11
12090.0
 21
-1103.9999999999959
 31
0.0
1001
ACDBBLOCKREPETAG
1070
     1
1071
      131
1005
145834
  0
LINE
  5
145835
  8
OBJECT
 10
11924.0
 20
-1103.9999999999959
 30
0.0
 11
12090.0
 21
-1103.9999999999959
 31
0.0
1001
ACDBBLOCKREPETAG
1070
     1
1071
      132
1005
145835
  0
LINE
  5
145836
  8
OBJECT
 10
11924.0
 20
-1089.9999999999991
 30
0.0
 11
12090.0
 21
-1089.9999999999991
 31
0.0
1001
ACDBBLOCKREPETAG
1070
     1
1071
      133
1005
145836
  0
LINE
  5
145837
  8
OBJECT
 10
11932.49999999998
 20
-1079.9999999999991
 30
0.0
 11
11932.49999999998
 21
-1089.9999999999991
 31
0.0
1001
ACDBBLOCKREPETAG
1070
     1
1071
      134
1005
145837
  0
LINE
  5
145838
  8
OBJECT
 10
11934.0
 20
-1028.9999999999959
 30
0.0
 11
12065.999999999991
 21
-1028.9999999999959
 31
0.0
1001
ACDBBLOCKREPETAG
1070
     1
1071
      135
1005
145838
  0
LINE
  5
145839
  8
OBJECT
 10
11924.0
 20
-1079.9999999999991
 30
0.0
 11
11924.0
 21
-1064.9999999999959
 31
0.0
1001
ACDBBLOCKREPETAG
1070
     1
1071
      136
1005
145839
  0
LINE
  5
14583A
  8
HIDDEN
 10
11943.0
 20
-1039.9999999999991
 30
0.0
 11
12057.0
 21
-1039.9999999999991
 31
0.0
1001
ACDBBLOCKREPETAG
1070
     1
1071
      137
1005
14583A
  0
LINE
  5
14583B
  8
OBJECT
 10
12086.999999999991
 20
-1063.2
 30
0.0
 11
12086.999999999991
 21
-1064.9999999999991
 31
0.0
1001
ACDBBLOCKREPETAG
1070
     1
1071
      138
1005
14583B
  0
LINE
  5
14583C
  8
OBJECT
 10
12068.999999999991
 20
-1063.2
 30
0.0
 11
12068.999999999991
 21
-1064.9999999999991
 31
0.0
1001
ACDBBLOCKREPETAG
1070
     1
1071
      139
1005
14583C
  0
LINE
  5
14583D
  8
OBJECT
 10
12072.249999999991
 20
-1053.4999999999991
 30
0.0
 11
12083.749999999991
 21
-1053.4999999999991
 31
0.0
1001
ACDBBLOCKREPETAG
1070
     1
1071
      140
1005
14583D
  0
LINE
  5
14583E
  8
OBJECT
 10
12072.249999999991
 20
-1053.4999999999991
 30
0.0
 11
12072.249999999991
 21
-1063.2
 31
0.0
1001
ACDBBLOCKREPETAG
1070
     1
1071
      141
1005
14583E
  0
LINE
  5
14583F
  8
OBJECT
 10
12083.749999999991
 20
-1053.4999999999991
 30
0.0
 11
12083.749999999991
 21
-1063.2
 31
0.0
1001
ACDBBLOCKREPETAG
1070
     1
1071
      142
1005
14583F
  0
LINE
  5
145840
  8
OBJECT
 10
11931.99999999998
 20
-1144.9999999999991
 30
0.0
 11
12067.99999999998
 21
-1144.9999999999991
 31
0.0
1001
ACDBBLOCKREPETAG
1070
     1
1071
      143
1005
145840
  0
LINE
  5
145841
  8
OBJECT
 10
11931.99999999998
 20
-1144.9999999999991
 30
0.0
 11
11931.99999999998
 21
-1103.9999999999991
 31
0.0
1001
ACDBBLOCKREPETAG
1070
     1
1071
      144
1005
145841
  0
LINE
  5
145842
  8
OBJECT
 10
12067.99999999998
 20
-1144.9999999999991
 30
0.0
 11
12067.99999999998
 21
-1103.9999999999991
 31
0.0
1001
ACDBBLOCKREPETAG
1070
     1
1071
      145
1005
145842
  0
LINE
  5
145843
  8
OBJECT
 10
12086.999999999991
 20
-1063.2
 30
0.0
 11
12068.999999999991
 21
-1063.2
 31
0.0
1001
ACDBBLOCKREPETAG
1070
     1
1071
      146
1005
145843
  0
LINE
  5
145844
  8
CENTER
 10
12000.0
 20
-769.99999999999955
 30
0.0
 11
12000.0
 21
-1159.9999999999991
 31
0.0
1001
ACDBBLOCKREPETAG
1070
     1
1071
      147
1005
145844
  0
LINE
  5
145845
  8
OBJECT
 10
11925.0
 20
-769.99999999999955
 30
0.0
 11
11925.0
 21
-851.99999999999579
 31
0.0
1001
ACDBBLOCKREPETAG
1070
     1
1071
      148
1005
145845
  0
LINE
  5
145846
  8
OBJECT
 10
12075.0
 20
-769.99999999999955
 30
0.0
 11
12075.0
 21
-851.99999999999216
 31
0.0
1001
ACDBBLOCKREPETAG
1070
     1
1071
      149
1005
145846
  0
LINE
  5
145847
  8
OBJECT
 10
11925.0
 20
-851.99999999999579
 30
0.0
 11
12075.0
 21
-851.99999999999216
 31
0.0
1001
ACDBBLOCKREPETAG
1070
     1
1071
      150
1005
145847
  0
LINE
  5
145848
  8
OBJECT
 10
11943.0
 20
-1028.9999999999959
 30
0.0
 11
11943.0
 21
-979.99999999999204
 31
0.0
1001
ACDBBLOCKREPETAG
1070
     1
1071
      151
1005
145848
  0
LINE
  5
145849
  8
OBJECT
 10
12057.0
 20
-979.99999999999204
 30
0.0
 11
11943.0
 21
-979.99999999999204
 31
0.0
1001
ACDBBLOCKREPETAG
1070
     1
1071
      152
1005
145849
  0
LINE
  5
14584A
  8
OBJECT
 10
12057.0
 20
-979.99999999999204
 30
0.0
 11
12057.0
 21
-1028.9999999999959
 31
0.0
1001
ACDBBLOCKREPETAG
1070
     1
1071
      153
1005
14584A
  0
LINE
  5
14584B
  8
OBJECT
 10
11925.0
 20
-851.99999999999579
 30
0.0
 11
11943.0
 21
-979.99999999999204
 31
0.0
1001
ACDBBLOCKREPETAG
1070
     1
1071
      154
1005
14584B
  0
LINE
  5
14584C
  8
OBJECT
 10
12057.0
 20
-979.99999999999204
 30
0.0
 11
12075.0
 21
-851.99999999999216
 31
0.0
1001
ACDBBLOCKREPETAG
1070
     1
1071
      155
1005
14584C
  0
LINE
  5
14584D
  8
OBJECT
 10
11934.0
 20
-1064.9999999999959
 30
0.0
 11
11934.0
 21
-1028.9999999999959
 31
0.0
1001
ACDBBLOCKREPETAG
1070
     1
1071
      156
1005
14584D
  0
LINE
  5
14584E
  8
OBJECT
 10
12066.0
 20
-1064.9999999999959
 30
0.0
 11
12065.999999999991
 21
-1028.9999999999959
 31
0.0
1001
ACDBBLOCKREPETAG
1070
     1
1071
      157
1005
14584E
  0
LINE
  5
14584F
  8
OBJECT
 10
11954.75
 20
-1054.699999999993
 30
0.0
 11
11967.25
 21
-1054.699999999993
 31
0.0
1001
ACDBBLOCKREPETAG
1070
     1
1071
      158
1005
14584F
  0
LINE
  5
145850
  8
OBJECT
 10
11946.0
 20
-1064.9999999999959
 30
0.0
 11
11946.0
 21
-1062.699999999996
 31
0.0
1001
ACDBBLOCKREPETAG
1070
     1
1071
      159
1005
145850
  0
LINE
  5
145851
  8
OBJECT
 10
11976.0
 20
-1064.9999999999959
 30
0.0
 11
11976.0
 21
-1062.699999999996
 31
0.0
1001
ACDBBLOCKREPETAG
1070
     1
1071
      160
1005
145851
  0
LINE
  5
145852
  8
OBJECT
 10
11954.75
 20
-1054.699999999993
 30
0.0
 11
11954.75
 21
-1062.699999999996
 31
0.0
1001
ACDBBLOCKREPETAG
1070
     1
1071
      161
1005
145852
  0
LINE
  5
145853
  8
OBJECT
 10
11967.25
 20
-1054.699999999993
 30
0.0
 11
11967.25
 21
-1062.699999999996
 31
0.0
1001
ACDBBLOCKREPETAG
1070
     1
1071
      162
1005
145853
  0
LINE
  5
145854
  8
OBJECT
 10
11946.0
 20
-1062.699999999996
 30
0.0
 11
11976.0
 21
-1062.699999999996
 31
0.0
1001
ACDBBLOCKREPETAG
1070
     1
1071
      163
1005
145854
  0
LINE
  5
145855
  8
OBJECT
 10
11953.0
 20
-1103.9999999999959
 30
0.0
 11
11953.0
 21
-1113.9999999999959
 31
0.0
1001
ACDBBLOCKREPETAG
1070
     1
1071
      164
1005
145855
  0
LINE
  5
145856
  8
OBJECT
 10
11969.0
 20
-1103.9999999999959
 30
0.0
 11
11969.0
 21
-1113.9999999999959
 31
0.0
1001
ACDBBLOCKREPETAG
1070
     1
1071
      165
1005
145856
  0
LINE
  5
145857
  8
OBJECT
 10
11953.0
 20
-1113.9999999999959
 30
0.0
 11
11969.0
 21
-1113.9999999999959
 31
0.0
1001
ACDBBLOCKREPETAG
1070
     1
1071
      166
1005
145857
  0
LINE
  5
145858
  8
OBJECT
 10
11966.0
 20
-1089.9999999999959
 30
0.0
 11
11966.0
 21
-1079.9999999999959
 31
0.0
1001
ACDBBLOCKREPETAG
1070
     1
1071
      167
1005
145858
  0
LINE
  5
145859
  8
OBJECT
 10
11956.0
 20
-1089.9999999999959
 30
0.0
 11
11956.0
 21
-1079.9999999999959
 31
0.0
1001
ACDBBLOCKREPETAG
1070
     1
1071
      168
1005
145859
  0
LINE
  5
14585A
  8
OBJECT
 10
10090.0
 20
-1064.9999999999959
 30
0.0
 11
9924.0
 21
-1064.9999999999959
 31
0.0
1001
ACDBBLOCKREPETAG
1070
     1
1071
       12
1005
14585A
  0
LINE
  5
14585B
  8
OBJECT
 10
10066.0
 20
-1028.9999999999959
 30
0.0
 11
9934.0
 21
-1028.9999999999959
 31
0.0
1001
ACDBBLOCKREPETAG
1070
     1
1071
       13
1005
14585B
  0
LINE
  5
14585C
  8
OBJECT
 10
10090.0
 20
-1080.0
 30
0.0
 11
10090.0
 21
-1064.9999999999959
 31
0.0
1001
ACDBBLOCKREPETAG
1070
     1
1071
       14
1005
14585C
  0
LINE
  5
14585D
  8
OBJECT
 10
9924.0
 20
-1080.0
 30
0.0
 11
10090.0
 21
-1080.0
 31
0.0
1001
ACDBBLOCKREPETAG
1070
     1
1071
       15
1005
14585D
  0
LINE
  5
14585E
  8
OBJECT
 10
10067.49999999998
 20
-1080.0
 30
0.0
 11
10067.49999999998
 21
-1090.0
 31
0.0
1001
ACDBBLOCKREPETAG
1070
     1
1071
       16
1005
14585E
  0
LINE
  5
14585F
  8
OBJECT
 10
9924.0
 20
-1090.0
 30
0.0
 11
9924.0
 21
-1103.9999999999959
 31
0.0
1001
ACDBBLOCKREPETAG
1070
     1
1071
       17
1005
14585F
  0
LINE
  5
145860
  8
OBJECT
 10
10090.0
 20
-1090.0
 30
0.0
 11
10090.0
 21
-1103.9999999999959
 31
0.0
1001
ACDBBLOCKREPETAG
1070
     1
1071
       18
1005
145860
  0
LINE
  5
145861
  8
OBJECT
 10
9924.0
 20
-1103.9999999999959
 30
0.0
 11
10090.0
 21
-1103.9999999999959
 31
0.0
1001
ACDBBLOCKREPETAG
1070
     1
1071
       19
1005
145861
  0
LINE
  5
145862
  8
OBJECT
 10
9924.0
 20
-1090.0
 30
0.0
 11
10090.0
 21
-1090.0
 31
0.0
1001
ACDBBLOCKREPETAG
1070
     1
1071
       20
1005
145862
  0
LINE
  5
145863
  8
OBJECT
 10
9932.4999999999836
 20
-1080.0
 30
0.0
 11
9932.4999999999836
 21
-1090.0
 31
0.0
1001
ACDBBLOCKREPETAG
1070
     1
1071
       21
1005
145863
  0
LINE
  5
145864
  8
OBJECT
 10
9924.0
 20
-1080.0
 30
0.0
 11
9924.0
 21
-1064.9999999999959
 31
0.0
1001
ACDBBLOCKREPETAG
1070
     1
1071
       22
1005
145864
  0
LINE
  5
145865
  8
HIDDEN
 10
9943.0
 20
-1040.0
 30
0.0
 11
10057.0
 21
-1040.0
 31
0.0
1001
ACDBBLOCKREPETAG
1070
     1
1071
       23
1005
145865
  0
LINE
  5
145866
  8
CENTER
 10
10000.0
 20
-770.0
 30
0.0
 11
10000.0
 21
-1118.9999999999959
 31
0.0
1001
ACDBBLOCKREPETAG
1070
     1
1071
       24
1005
145866
  0
LINE
  5
145867
  8
OBJECT
 10
9925.0
 20
-770.0
 30
0.0
 11
9925.0
 21
-851.99999999999636
 31
0.0
1001
ACDBBLOCKREPETAG
1070
     1
1071
       25
1005
145867
  0
LINE
  5
145868
  8
OBJECT
 10
10075.0
 20
-770.0
 30
0.0
 11
10075.0
 21
-851.99999999999261
 31
0.0
1001
ACDBBLOCKREPETAG
1070
     1
1071
       26
1005
145868
  0
LINE
  5
145869
  8
OBJECT
 10
9925.0
 20
-851.99999999999636
 30
0.0
 11
10075.0
 21
-851.99999999999261
 31
0.0
1001
ACDBBLOCKREPETAG
1070
     1
1071
       27
1005
145869
  0
LINE
  5
14586A
  8
OBJECT
 10
10057.0
 20
-1028.9999999999959
 30
0.0
 11
10057.0
 21
-979.99999999999272
 31
0.0
1001
ACDBBLOCKREPETAG
1070
     1
1071
       28
1005
14586A
  0
LINE
  5
14586B
  8
OBJECT
 10
9943.0
 20
-1028.9999999999959
 30
0.0
 11
9943.0
 21
-979.99999999999272
 31
0.0
1001
ACDBBLOCKREPETAG
1070
     1
1071
       29
1005
14586B
  0
LINE
  5
14586C
  8
OBJECT
 10
10057.0
 20
-979.99999999999272
 30
0.0
 11
9943.0
 21
-979.99999999999272
 31
0.0
1001
ACDBBLOCKREPETAG
1070
     1
1071
       30
1005
14586C
  0
LINE
  5
14586D
  8
OBJECT
 10
9925.0
 20
-851.99999999999636
 30
0.0
 11
9943.0
 21
-979.99999999999272
 31
0.0
1001
ACDBBLOCKREPETAG
1070
     1
1071
       31
1005
14586D
  0
LINE
  5
14586E
  8
OBJECT
 10
10057.0
 20
-979.99999999999272
 30
0.0
 11
10075.0
 21
-851.99999999999261
 31
0.0
1001
ACDBBLOCKREPETAG
1070
     1
1071
       32
1005
14586E
  0
LINE
  5
14586F
  8
OBJECT
 10
9934.0
 20
-1028.9999999999959
 30
0.0
 11
9934.0
 21
-1064.9999999999959
 31
0.0
1001
ACDBBLOCKREPETAG
1070
     1
1071
       33
1005
14586F
  0
LINE
  5
145870
  8
OBJECT
 10
10066.0
 20
-1028.9999999999959
 30
0.0
 11
10066.0
 21
-1064.9999999999959
 31
0.0
1001
ACDBBLOCKREPETAG
1070
     1
1071
       34
1005
145870
  0
LINE
  5
145871
  8
OBJECT
 10
10082.999999999991
 20
-1089.9999999999959
 30
0.0
 11
10082.999999999991
 21
-1079.9999999999959
 31
0.0
1001
ACDBBLOCKREPETAG
1070
     1
1071
       35
1005
145871
  0
LINE
  5
145872
  8
OBJECT
 10
10072.999999999991
 20
-1089.9999999999959
 30
0.0
 11
10072.999999999991
 21
-1079.9999999999959
 31
0.0
1001
ACDBBLOCKREPETAG
1070
     1
1071
       36
1005
145872
  0
LINE
  5
145873
  8
OBJECT
 10
10068.99999999998
 20
-1059.9999999999959
 30
0.0
 11
10068.99999999998
 21
-1064.9999999999959
 31
0.0
1001
ACDBBLOCKREPETAG
1070
     1
1071
       37
1005
145873
  0
LINE
  5
145874
  8
OBJECT
 10
10087.0
 20
-1059.9999999999959
 30
0.0
 11
10087.0
 21
-1064.9999999999959
 31
0.0
1001
ACDBBLOCKREPETAG
1070
     1
1071
       38
1005
145874
  0
LINE
  5
145875
  8
OBJECT
 10
10087.0
 20
-1059.9999999999959
 30
0.0
 11
10068.99999999998
 21
-1059.9999999999959
 31
0.0
1001
ACDBBLOCKREPETAG
1070
     1
1071
       39
1005
145875
  0
LINE
  5
145876
  8
OBJECT
 10
10073.0
 20
-1111.9999999999959
 30
0.0
 11
10073.0
 21
-1114.9999999999959
 31
0.0
1001
ACDBBLOCKREPETAG
1070
     1
1071
       40
1005
145876
  0
LINE
  5
145877
  8
OBJECT
 10
10073.0
 20
-1114.9999999999959
 30
0.0
 11
10083.0
 21
-1114.9999999999959
 31
0.0
1001
ACDBBLOCKREPETAG
1070
     1
1071
       41
1005
145877
  0
LINE
  5
145878
  8
OBJECT
 10
10068.18504542377
 20
-1111.9999999999959
 30
0.0
 11
10087.814954576221
 21
-1111.9999999999959
 31
0.0
1001
ACDBBLOCKREPETAG
1070
     1
1071
       42
1005
145878
  0
LINE
  5
145879
  8
OBJECT
 10
10083.0
 20
-1114.9999999999959
 30
0.0
 11
10083.0
 21
-1111.9999999999959
 31
0.0
1001
ACDBBLOCKREPETAG
1070
     1
1071
       43
1005
145879
  0
LINE
  5
14587A
  8
OBJECT
 10
10068.18503599129
 20
-1103.9999868402549
 30
0.0
 11
10068.18503599129
 21
-1111.9999868402549
 31
0.0
1001
ACDBBLOCKREPETAG
1070
     1
1071
       44
1005
14587A
  0
LINE
  5
14587B
  8
OBJECT
 10
10073.0925013592
 20
-1103.9999868402549
 30
0.0
 11
10073.0925013592
 21
-1111.9999868402549
 31
0.0
1001
ACDBBLOCKREPETAG
1070
     1
1071
       45
1005
14587B
  0
LINE
  5
14587C
  8
OBJECT
 10
10082.90743209502
 20
-1103.9999868402549
 30
0.0
 11
10082.90743209502
 21
-1111.9999868402549
 31
0.0
1001
ACDBBLOCKREPETAG
1070
     1
1071
       46
1005
14587C
  0
LINE
  5
14587D
  8
OBJECT
 10
10087.81499155279
 20
-1103.9999868402549
 30
0.0
 11
10087.81499155279
 21
-1111.9999868402549
 31
0.0
1001
ACDBBLOCKREPETAG
1070
     1
1071
       47
1005
14587D
  0
LINE
  5
14587E
  8
OBJECT
 10
9968.5
 20
-1059.9999999999959
 30
0.0
 11
9951.9999999999909
 21
-1059.9999999999959
 31
0.0
1001
ACDBBLOCKREPETAG
1070
     1
1071
       48
1005
14587E
  0
LINE
  5
14587F
  8
OBJECT
 10
9976.0
 20
-1064.9999999999959
 30
0.0
 11
9976.0
 21
-1062.9999999999959
 31
0.0
1001
ACDBBLOCKREPETAG
1070
     1
1071
       49
1005
14587F
  0
LINE
  5
145880
  8
OBJECT
 10
9966.0
 20
-1089.9999999999959
 30
0.0
 11
9966.0
 21
-1079.9999999999959
 31
0.0
1001
ACDBBLOCKREPETAG
1070
     1
1071
       50
1005
145880
  0
LINE
  5
145881
  8
OBJECT
 10
9956.0
 20
-1089.9999999999959
 30
0.0
 11
9956.0
 21
-1079.9999999999959
 31
0.0
1001
ACDBBLOCKREPETAG
1070
     1
1071
       51
1005
145881
  0
LINE
  5
145882
  8
OBJECT
 10
9951.9999999999909
 20
-1059.9999999999959
 30
0.0
 11
9951.9999999999909
 21
-1064.9999999999959
 31
0.0
1001
ACDBBLOCKREPETAG
1070
     1
1071
       52
1005
145882
  0
LINE
  5
145883
  8
OBJECT
 10
9956.0
 20
-1111.9999999999959
 30
0.0
 11
9956.0
 21
-1114.9999999999959
 31
0.0
1001
ACDBBLOCKREPETAG
1070
     1
1071
       53
1005
145883
  0
LINE
  5
145884
  8
OBJECT
 10
9956.0
 20
-1114.9999999999959
 30
0.0
 11
9966.0
 21
-1114.9999999999959
 31
0.0
1001
ACDBBLOCKREPETAG
1070
     1
1071
       54
1005
145884
  0
LINE
  5
145885
  8
OBJECT
 10
9951.185045423772
 20
-1111.9999999999959
 30
0.0
 11
9970.814954576219
 21
-1111.9999999999959
 31
0.0
1001
ACDBBLOCKREPETAG
1070
     1
1071
       55
1005
145885
  0
LINE
  5
145886
  8
OBJECT
 10
9966.0
 20
-1114.9999999999959
 30
0.0
 11
9966.0
 21
-1111.9999999999959
 31
0.0
1001
ACDBBLOCKREPETAG
1070
     1
1071
       56
1005
145886
  0
LINE
  5
145887
  8
OBJECT
 10
9976.0
 20
-1062.9999999999959
 30
0.0
 11
9968.5
 21
-1059.9999999999959
 31
0.0
1001
ACDBBLOCKREPETAG
1070
     1
1071
       57
1005
145887
  0
LINE
  5
145888
  8
OBJECT
 10
9951.1850359912914
 20
-1103.9999868402549
 30
0.0
 11
9951.1850359912914
 21
-1111.9999868402549
 31
0.0
1001
ACDBBLOCKREPETAG
1070
     1
1071
       58
1005
145888
  0
LINE
  5
145889
  8
OBJECT
 10
9956.0925013591986
 20
-1103.9999868402549
 30
0.0
 11
9956.0925013591986
 21
-1111.9999868402549
 31
0.0
1001
ACDBBLOCKREPETAG
1070
     1
1071
       59
1005
145889
  0
LINE
  5
14588A
  8
OBJECT
 10
9965.907432095024
 20
-1103.9999868402549
 30
0.0
 11
9965.907432095024
 21
-1111.9999868402549
 31
0.0
1001
ACDBBLOCKREPETAG
1070
     1
1071
       60
1005
14588A
  0
LINE
  5
14588B
  8
OBJECT
 10
9970.8149915528011
 20
-1103.9999868402549
 30
0.0
 11
9970.8149915528011
 21
-1111.9999868402549
 31
0.0
1001
ACDBBLOCKREPETAG
1070
     1
1071
       61
1005
14588B
  0
LINE
  5
14588C
  8
OBJECT
 10
7943.0
 20
-1079.9999999999959
 30
0.0
 11
8057.0
 21
-1079.9999999999959
 31
0.0
1001
ACDBBLOCKREPETAG
1070
     1
1071
        0
1005
14588C
  0
LINE
  5
14588D
  8
OBJECT
 10
7943.0
 20
-1079.9999999999959
 30
0.0
 11
7943.0
 21
-979.99999999999613
 31
0.0
1001
ACDBBLOCKREPETAG
1070
     1
1071
        1
1005
14588D
  0
LINE
  5
14588E
  8
OBJECT
 10
8057.0
 20
-1079.9999999999959
 30
0.0
 11
8057.0
 21
-979.99999999999613
 31
0.0
1001
ACDBBLOCKREPETAG
1070
     1
1071
        2
1005
14588E
  0
LINE
  5
14588F
  8
OBJECT
 10
7943.0
 20
-979.99999999999613
 30
0.0
 11
8057.0
 21
-979.99999999999613
 31
0.0
1001
ACDBBLOCKREPETAG
1070
     1
1071
        3
1005
14588F
  0
LINE
  5
145890
  8
HIDDEN
 10
7950.0
 20
-979.99999999999613
 30
0.0
 11
7950.0
 21
-1079.9999999999959
 31
0.0
1001
ACDBBLOCKREPETAG
1070
     1
1071
        4
1005
145890
  0
LINE
  5
145891
  8
HIDDEN
 10
8050.0
 20
-979.99999999999613
 30
0.0
 11
8050.0
 21
-1079.9999999999959
 31
0.0
1001
ACDBBLOCKREPETAG
1070
     1
1071
        5
1005
145891
  0
LINE
  5
145892
  8
CENTER
 10
8000.0
 20
-770.0
 30
0.0
 11
8000.0
 21
-1094.9999999999959
 31
0.0
1001
ACDBBLOCKREPETAG
1070
     1
1071
        6
1005
145892
  0
LINE
  5
145893
  8
OBJECT
 10
7925.0
 20
-770.0
 30
0.0
 11
7925.0
 21
-851.99999999999636
 31
0.0
1001
ACDBBLOCKREPETAG
1070
     1
1071
        7
1005
145893
  0
LINE
  5
145894
  8
OBJECT
 10
8075.0
 20
-770.0
 30
0.0
 11
8075.0
 21
-851.99999999999636
 31
0.0
1001
ACDBBLOCKREPETAG
1070
     1
1071
        8
1005
145894
  0
LINE
  5
145895
  8
OBJECT
 10
7925.0
 20
-851.99999999999636
 30
0.0
 11
8075.0
 21
-851.99999999999636
 31
0.0
1001
ACDBBLOCKREPETAG
1070
     1
1071
        9
1005
145895
  0
LINE
  5
145896
  8
OBJECT
 10
7925.0
 20
-851.99999999999636
 30
0.0
 11
7943.0
 21
-979.99999999999613
 31
0.0
1001
ACDBBLOCKREPETAG
1070
     1
1071
       10
1005
145896
  0
LINE
  5
145897
  8
OBJECT
 10
8057.0
 20
-979.99999999999613
 30
0.0
 11
8075.0
 21
-851.99999999999636
 31
0.0
1001
ACDBBLOCKREPETAG
1070
     1
1071
       11
1005
145897
  0
LINE
  5
145898
  8
OBJECT
 10
6085.9999999999927
 20
-1103.9999999999991
 30
0.0
 11
6085.9999999999927
 21
-1113.9999999999991
 31
0.0
1001
ACDBBLOCKREPETAG
1070
     1
1071
      121
1005
145898
  0
LINE
  5
145899
  8
OBJECT
 10
6069.9999999999927
 20
-1103.9999999999991
 30
0.0
 11
6069.9999999999927
 21
-1113.9999999999991
 31
0.0
1001
ACDBBLOCKREPETAG
1070
     1
1071
      122
1005
145899
  0
LINE
  5
14589A
  8
OBJECT
 10
6085.9999999999927
 20
-1113.9999999999991
 30
0.0
 11
6069.9999999999927
 21
-1113.9999999999991
 31
0.0
1001
ACDBBLOCKREPETAG
1070
     1
1071
      123
1005
14589A
  0
LINE
  5
14589B
  8
OBJECT
 10
6090.0
 20
-1064.9999999999959
 30
0.0
 11
5924.0
 21
-1064.9999999999959
 31
0.0
1001
ACDBBLOCKREPETAG
1070
     1
1071
      124
1005
14589B
  0
LINE
  5
14589C
  8
OBJECT
 10
6090.0
 20
-1079.9999999999991
 30
0.0
 11
6090.0
 21
-1064.9999999999959
 31
0.0
1001
ACDBBLOCKREPETAG
1070
     1
1071
      125
1005
14589C
  0
LINE
  5
14589D
  8
OBJECT
 10
5924.0
 20
-1079.9999999999991
 30
0.0
 11
6090.0
 21
-1079.9999999999991
 31
0.0
1001
ACDBBLOCKREPETAG
1070
     1
1071
      126
1005
14589D
  0
LINE
  5
14589E
  8
OBJECT
 10
6067.4999999999864
 20
-1079.9999999999991
 30
0.0
 11
6067.4999999999864
 21
-1089.9999999999991
 31
0.0
1001
ACDBBLOCKREPETAG
1070
     1
1071
      127
1005
14589E
  0
LINE
  5
14589F
  8
OBJECT
 10
6072.9999999999927
 20
-1089.9999999999991
 30
0.0
 11
6072.9999999999927
 21
-1079.9999999999991
 31
0.0
1001
ACDBBLOCKREPETAG
1070
     1
1071
      128
1005
14589F
  0
LINE
  5
1458A0
  8
OBJECT
 10
6082.9999999999927
 20
-1089.9999999999991
 30
0.0
 11
6082.9999999999927
 21
-1079.9999999999991
 31
0.0
1001
ACDBBLOCKREPETAG
1070
     1
1071
      129
1005
1458A0
  0
LINE
  5
1458A1
  8
OBJECT
 10
5924.0
 20
-1089.9999999999991
 30
0.0
 11
5924.0
 21
-1103.9999999999959
 31
0.0
1001
ACDBBLOCKREPETAG
1070
     1
1071
      130
1005
1458A1
  0
LINE
  5
1458A2
  8
OBJECT
 10
6090.0
 20
-1089.9999999999991
 30
0.0
 11
6090.0
 21
-1103.9999999999959
 31
0.0
1001
ACDBBLOCKREPETAG
1070
     1
1071
      131
1005
1458A2
  0
LINE
  5
1458A3
  8
OBJECT
 10
5924.0
 20
-1103.9999999999959
 30
0.0
 11
6090.0
 21
-1103.9999999999959
 31
0.0
1001
ACDBBLOCKREPETAG
1070
     1
1071
      132
1005
1458A3
  0
LINE
  5
1458A4
  8
OBJECT
 10
5924.0
 20
-1089.9999999999991
 30
0.0
 11
6090.0
 21
-1089.9999999999991
 31
0.0
1001
ACDBBLOCKREPETAG
1070
     1
1071
      133
1005
1458A4
  0
LINE
  5
1458A5
  8
OBJECT
 10
5932.4999999999864
 20
-1079.9999999999991
 30
0.0
 11
5932.4999999999864
 21
-1089.9999999999991
 31
0.0
1001
ACDBBLOCKREPETAG
1070
     1
1071
      134
1005
1458A5
  0
LINE
  5
1458A6
  8
OBJECT
 10
5934.0
 20
-1028.9999999999959
 30
0.0
 11
6065.9999999999909
 21
-1028.9999999999959
 31
0.0
1001
ACDBBLOCKREPETAG
1070
     1
1071
      135
1005
1458A6
  0
LINE
  5
1458A7
  8
OBJECT
 10
5924.0
 20
-1079.9999999999991
 30
0.0
 11
5924.0
 21
-1064.9999999999959
 31
0.0
1001
ACDBBLOCKREPETAG
1070
     1
1071
      136
1005
1458A7
  0
LINE
  5
1458A8
  8
HIDDEN
 10
5943.0
 20
-1039.9999999999991
 30
0.0
 11
6057.0
 21
-1039.9999999999991
 31
0.0
1001
ACDBBLOCKREPETAG
1070
     1
1071
      137
1005
1458A8
  0
LINE
  5
1458A9
  8
OBJECT
 10
6086.9999999999918
 20
-1063.2
 30
0.0
 11
6086.9999999999918
 21
-1064.9999999999991
 31
0.0
1001
ACDBBLOCKREPETAG
1070
     1
1071
      138
1005
1458A9
  0
LINE
  5
1458AA
  8
OBJECT
 10
6068.9999999999909
 20
-1063.2
 30
0.0
 11
6068.9999999999909
 21
-1064.9999999999991
 31
0.0
1001
ACDBBLOCKREPETAG
1070
     1
1071
      139
1005
1458AA
  0
LINE
  5
1458AB
  8
OBJECT
 10
6072.2499999999927
 20
-1053.4999999999991
 30
0.0
 11
6083.7499999999927
 21
-1053.4999999999991
 31
0.0
1001
ACDBBLOCKREPETAG
1070
     1
1071
      140
1005
1458AB
  0
LINE
  5
1458AC
  8
OBJECT
 10
6072.2499999999927
 20
-1053.4999999999991
 30
0.0
 11
6072.2499999999927
 21
-1063.2
 31
0.0
1001
ACDBBLOCKREPETAG
1070
     1
1071
      141
1005
1458AC
  0
LINE
  5
1458AD
  8
OBJECT
 10
6083.7499999999927
 20
-1053.4999999999991
 30
0.0
 11
6083.7499999999927
 21
-1063.2
 31
0.0
1001
ACDBBLOCKREPETAG
1070
     1
1071
      142
1005
1458AD
  0
LINE
  5
1458AE
  8
OBJECT
 10
5931.9999999999873
 20
-1144.9999999999991
 30
0.0
 11
6067.9999999999873
 21
-1144.9999999999991
 31
0.0
1001
ACDBBLOCKREPETAG
1070
     1
1071
      143
1005
1458AE
  0
LINE
  5
1458AF
  8
OBJECT
 10
5931.9999999999873
 20
-1144.9999999999991
 30
0.0
 11
5931.9999999999873
 21
-1103.9999999999991
 31
0.0
1001
ACDBBLOCKREPETAG
1070
     1
1071
      144
1005
1458AF
  0
LINE
  5
1458B0
  8
OBJECT
 10
6067.9999999999873
 20
-1144.9999999999991
 30
0.0
 11
6067.9999999999873
 21
-1103.9999999999991
 31
0.0
1001
ACDBBLOCKREPETAG
1070
     1
1071
      145
1005
1458B0
  0
LINE
  5
1458B1
  8
OBJECT
 10
6086.9999999999918
 20
-1063.2
 30
0.0
 11
6068.9999999999909
 21
-1063.2
 31
0.0
1001
ACDBBLOCKREPETAG
1070
     1
1071
      146
1005
1458B1
  0
LINE
  5
1458B2
  8
CENTER
 10
6000.0
 20
-769.99999999999955
 30
0.0
 11
6000.0
 21
-1159.9999999999991
 31
0.0
1001
ACDBBLOCKREPETAG
1070
     1
1071
      147
1005
1458B2
  0
LINE
  5
1458B3
  8
OBJECT
 10
5925.0
 20
-769.99999999999955
 30
0.0
 11
5925.0
 21
-851.99999999999579
 31
0.0
1001
ACDBBLOCKREPETAG
1070
     1
1071
      148
1005
1458B3
  0
LINE
  5
1458B4
  8
OBJECT
 10
6075.0
 20
-769.99999999999955
 30
0.0
 11
6075.0
 21
-851.99999999999216
 31
0.0
1001
ACDBBLOCKREPETAG
1070
     1
1071
      149
1005
1458B4
  0
LINE
  5
1458B5
  8
OBJECT
 10
5925.0
 20
-851.99999999999579
 30
0.0
 11
6075.0
 21
-851.99999999999216
 31
0.0
1001
ACDBBLOCKREPETAG
1070
     1
1071
      150
1005
1458B5
  0
LINE
  5
1458B6
  8
OBJECT
 10
5943.0
 20
-1028.9999999999959
 30
0.0
 11
5943.0
 21
-979.99999999999204
 31
0.0
1001
ACDBBLOCKREPETAG
1070
     1
1071
      151
1005
1458B6
  0
LINE
  5
1458B7
  8
OBJECT
 10
6057.0
 20
-979.99999999999204
 30
0.0
 11
5943.0
 21
-979.99999999999204
 31
0.0
1001
ACDBBLOCKREPETAG
1070
     1
1071
      152
1005
1458B7
  0
LINE
  5
1458B8
  8
OBJECT
 10
6057.0
 20
-979.99999999999204
 30
0.0
 11
6057.0
 21
-1028.9999999999959
 31
0.0
1001
ACDBBLOCKREPETAG
1070
     1
1071
      153
1005
1458B8
  0
LINE
  5
1458B9
  8
OBJECT
 10
5925.0
 20
-851.99999999999579
 30
0.0
 11
5943.0
 21
-979.99999999999204
 31
0.0
1001
ACDBBLOCKREPETAG
1070
     1
1071
      154
1005
1458B9
  0
LINE
  5
1458BA
  8
OBJECT
 10
6057.0
 20
-979.99999999999204
 30
0.0
 11
6075.0
 21
-851.99999999999216
 31
0.0
1001
ACDBBLOCKREPETAG
1070
     1
1071
      155
1005
1458BA
  0
LINE
  5
1458BB
  8
OBJECT
 10
5934.0
 20
-1064.9999999999959
 30
0.0
 11
5934.0
 21
-1028.9999999999959
 31
0.0
1001
ACDBBLOCKREPETAG
1070
     1
1071
      156
1005
1458BB
  0
LINE
  5
1458BC
  8
OBJECT
 10
6066.0
 20
-1064.9999999999959
 30
0.0
 11
6065.9999999999909
 21
-1028.9999999999959
 31
0.0
1001
ACDBBLOCKREPETAG
1070
     1
1071
      157
1005
1458BC
  0
LINE
  5
1458BD
  8
OBJECT
 10
5954.75
 20
-1054.699999999993
 30
0.0
 11
5967.2499999999991
 21
-1054.699999999993
 31
0.0
1001
ACDBBLOCKREPETAG
1070
     1
1071
      158
1005
1458BD
  0
LINE
  5
1458BE
  8
OBJECT
 10
5946.0
 20
-1064.9999999999959
 30
0.0
 11
5946.0
 21
-1062.699999999996
 31
0.0
1001
ACDBBLOCKREPETAG
1070
     1
1071
      159
1005
1458BE
  0
LINE
  5
1458BF
  8
OBJECT
 10
5976.0
 20
-1064.9999999999959
 30
0.0
 11
5976.0
 21
-1062.699999999996
 31
0.0
1001
ACDBBLOCKREPETAG
1070
     1
1071
      160
1005
1458BF
  0
LINE
  5
1458C0
  8
OBJECT
 10
5954.75
 20
-1054.699999999993
 30
0.0
 11
5954.75
 21
-1062.699999999996
 31
0.0
1001
ACDBBLOCKREPETAG
1070
     1
1071
      161
1005
1458C0
  0
LINE
  5
1458C1
  8
OBJECT
 10
5967.2499999999991
 20
-1054.699999999993
 30
0.0
 11
5967.2499999999991
 21
-1062.699999999996
 31
0.0
1001
ACDBBLOCKREPETAG
1070
     1
1071
      162
1005
1458C1
  0
LINE
  5
1458C2
  8
OBJECT
 10
5946.0
 20
-1062.699999999996
 30
0.0
 11
5976.0
 21
-1062.699999999996
 31
0.0
1001
ACDBBLOCKREPETAG
1070
     1
1071
      163
1005
1458C2
  0
LINE
  5
1458C3
  8
OBJECT
 10
5953.0
 20
-1103.9999999999959
 30
0.0
 11
5953.0
 21
-1113.9999999999959
 31
0.0
1001
ACDBBLOCKREPETAG
1070
     1
1071
      164
1005
1458C3
  0
LINE
  5
1458C4
  8
OBJECT
 10
5969.0
 20
-1103.9999999999959
 30
0.0
 11
5969.0
 21
-1113.9999999999959
 31
0.0
1001
ACDBBLOCKREPETAG
1070
     1
1071
      165
1005
1458C4
  0
LINE
  5
1458C5
  8
OBJECT
 10
5953.0
 20
-1113.9999999999959
 30
0.0
 11
5969.0
 21
-1113.9999999999959
 31
0.0
1001
ACDBBLOCKREPETAG
1070
     1
1071
      166
1005
1458C5
  0
LINE
  5
1458C6
  8
OBJECT
 10
5966.0
 20
-1089.9999999999959
 30
0.0
 11
5966.0
 21
-1079.9999999999959
 31
0.0
1001
ACDBBLOCKREPETAG
1070
     1
1071
      167
1005
1458C6
  0
LINE
  5
1458C7
  8
OBJECT
 10
5956.0
 20
-1089.9999999999959
 30
0.0
 11
5956.0
 21
-1079.9999999999959
 31
0.0
1001
ACDBBLOCKREPETAG
1070
     1
1071
      168
1005
1458C7
  0
LINE
  5
1458C8
  8
OBJECT
 10
4090.0
 20
-1064.9999999999959
 30
0.0
 11
3924.0
 21
-1064.9999999999959
 31
0.0
1001
ACDBBLOCKREPETAG
1070
     1
1071
       12
1005
1458C8
  0
LINE
  5
1458C9
  8
OBJECT
 10
4066.0
 20
-1028.9999999999959
 30
0.0
 11
3934.0
 21
-1028.9999999999959
 31
0.0
1001
ACDBBLOCKREPETAG
1070
     1
1071
       13
1005
1458C9
  0
LINE
  5
1458CA
  8
OBJECT
 10
4090.0
 20
-1080.0
 30
0.0
 11
4090.0
 21
-1064.9999999999959
 31
0.0
1001
ACDBBLOCKREPETAG
1070
     1
1071
       14
1005
1458CA
  0
LINE
  5
1458CB
  8
OBJECT
 10
3924.0
 20
-1080.0
 30
0.0
 11
4090.0
 21
-1080.0
 31
0.0
1001
ACDBBLOCKREPETAG
1070
     1
1071
       15
1005
1458CB
  0
LINE
  5
1458CC
  8
OBJECT
 10
4067.4999999999841
 20
-1080.0
 30
0.0
 11
4067.4999999999841
 21
-1090.0
 31
0.0
1001
ACDBBLOCKREPETAG
1070
     1
1071
       16
1005
1458CC
  0
LINE
  5
1458CD
  8
OBJECT
 10
3924.0
 20
-1090.0
 30
0.0
 11
3924.0
 21
-1103.9999999999959
 31
0.0
1001
ACDBBLOCKREPETAG
1070
     1
1071
       17
1005
1458CD
  0
LINE
  5
1458CE
  8
OBJECT
 10
4090.0
 20
-1090.0
 30
0.0
 11
4090.0
 21
-1103.9999999999959
 31
0.0
1001
ACDBBLOCKREPETAG
1070
     1
1071
       18
1005
1458CE
  0
LINE
  5
1458CF
  8
OBJECT
 10
3924.0
 20
-1103.9999999999959
 30
0.0
 11
4090.0
 21
-1103.9999999999959
 31
0.0
1001
ACDBBLOCKREPETAG
1070
     1
1071
       19
1005
1458CF
  0
LINE
  5
1458D0
  8
OBJECT
 10
3924.0
 20
-1090.0
 30
0.0
 11
4090.0
 21
-1090.0
 31
0.0
1001
ACDBBLOCKREPETAG
1070
     1
1071
       20
1005
1458D0
  0
LINE
  5
1458D1
  8
OBJECT
 10
3932.499999999985
 20
-1080.0
 30
0.0
 11
3932.499999999985
 21
-1090.0
 31
0.0
1001
ACDBBLOCKREPETAG
1070
     1
1071
       21
1005
1458D1
  0
LINE
  5
1458D2
  8
OBJECT
 10
3924.0
 20
-1080.0
 30
0.0
 11
3924.0
 21
-1064.9999999999959
 31
0.0
1001
ACDBBLOCKREPETAG
1070
     1
1071
       22
1005
1458D2
  0
LINE
  5
1458D3
  8
HIDDEN
 10
3943.0
 20
-1040.0
 30
0.0
 11
4057.0
 21
-1040.0
 31
0.0
1001
ACDBBLOCKREPETAG
1070
     1
1071
       23
1005
1458D3
  0
LINE
  5
1458D4
  8
CENTER
 10
4000.0
 20
-770.0
 30
0.0
 11
4000.0
 21
-1118.9999999999959
 31
0.0
1001
ACDBBLOCKREPETAG
1070
     1
1071
       24
1005
1458D4
  0
LINE
  5
1458D5
  8
OBJECT
 10
3925.0
 20
-770.0
 30
0.0
 11
3925.0
 21
-851.99999999999636
 31
0.0
1001
ACDBBLOCKREPETAG
1070
     1
1071
       25
1005
1458D5
  0
LINE
  5
1458D6
  8
OBJECT
 10
4075.0
 20
-770.0
 30
0.0
 11
4075.0
 21
-851.99999999999261
 31
0.0
1001
ACDBBLOCKREPETAG
1070
     1
1071
       26
1005
1458D6
  0
LINE
  5
1458D7
  8
OBJECT
 10
3925.0
 20
-851.99999999999636
 30
0.0
 11
4075.0
 21
-851.99999999999261
 31
0.0
1001
ACDBBLOCKREPETAG
1070
     1
1071
       27
1005
1458D7
  0
LINE
  5
1458D8
  8
OBJECT
 10
4057.0
 20
-1028.9999999999959
 30
0.0
 11
4057.0
 21
-979.99999999999272
 31
0.0
1001
ACDBBLOCKREPETAG
1070
     1
1071
       28
1005
1458D8
  0
LINE
  5
1458D9
  8
OBJECT
 10
3943.0
 20
-1028.9999999999959
 30
0.0
 11
3943.0
 21
-979.99999999999272
 31
0.0
1001
ACDBBLOCKREPETAG
1070
     1
1071
       29
1005
1458D9
  0
LINE
  5
1458DA
  8
OBJECT
 10
4057.0
 20
-979.99999999999272
 30
0.0
 11
3943.0
 21
-979.99999999999272
 31
0.0
1001
ACDBBLOCKREPETAG
1070
     1
1071
       30
1005
1458DA
  0
LINE
  5
1458DB
  8
OBJECT
 10
3925.0
 20
-851.99999999999636
 30
0.0
 11
3943.0
 21
-979.99999999999272
 31
0.0
1001
ACDBBLOCKREPETAG
1070
     1
1071
       31
1005
1458DB
  0
LINE
  5
1458DC
  8
OBJECT
 10
4057.0
 20
-979.99999999999272
 30
0.0
 11
4075.0
 21
-851.99999999999261
 31
0.0
1001
ACDBBLOCKREPETAG
1070
     1
1071
       32
1005
1458DC
  0
LINE
  5
1458DD
  8
OBJECT
 10
3934.0
 20
-1028.9999999999959
 30
0.0
 11
3934.0
 21
-1064.9999999999959
 31
0.0
1001
ACDBBLOCKREPETAG
1070
     1
1071
       33
1005
1458DD
  0
LINE
  5
1458DE
  8
OBJECT
 10
4066.0
 20
-1028.9999999999959
 30
0.0
 11
4066.0
 21
-1064.9999999999959
 31
0.0
1001
ACDBBLOCKREPETAG
1070
     1
1071
       34
1005
1458DE
  0
LINE
  5
1458DF
  8
OBJECT
 10
4082.9999999999932
 20
-1089.9999999999959
 30
0.0
 11
4082.9999999999932
 21
-1079.9999999999959
 31
0.0
1001
ACDBBLOCKREPETAG
1070
     1
1071
       35
1005
1458DF
  0
LINE
  5
1458E0
  8
OBJECT
 10
4072.9999999999918
 20
-1089.9999999999959
 30
0.0
 11
4072.9999999999918
 21
-1079.9999999999959
 31
0.0
1001
ACDBBLOCKREPETAG
1070
     1
1071
       36
1005
1458E0
  0
LINE
  5
1458E1
  8
OBJECT
 10
4068.9999999999841
 20
-1059.9999999999959
 30
0.0
 11
4068.9999999999841
 21
-1064.9999999999959
 31
0.0
1001
ACDBBLOCKREPETAG
1070
     1
1071
       37
1005
1458E1
  0
LINE
  5
1458E2
  8
OBJECT
 10
4087.0
 20
-1059.9999999999959
 30
0.0
 11
4087.0
 21
-1064.9999999999959
 31
0.0
1001
ACDBBLOCKREPETAG
1070
     1
1071
       38
1005
1458E2
  0
LINE
  5
1458E3
  8
OBJECT
 10
4087.0
 20
-1059.9999999999959
 30
0.0
 11
4068.9999999999841
 21
-1059.9999999999959
 31
0.0
1001
ACDBBLOCKREPETAG
1070
     1
1071
       39
1005
1458E3
  0
LINE
  5
1458E4
  8
OBJECT
 10
4073.0
 20
-1111.9999999999959
 30
0.0
 11
4073.0
 21
-1114.9999999999959
 31
0.0
1001
ACDBBLOCKREPETAG
1070
     1
1071
       40
1005
1458E4
  0
LINE
  5
1458E5
  8
OBJECT
 10
4073.0
 20
-1114.9999999999959
 30
0.0
 11
4083.0
 21
-1114.9999999999959
 31
0.0
1001
ACDBBLOCKREPETAG
1070
     1
1071
       41
1005
1458E5
  0
LINE
  5
1458E6
  8
OBJECT
 10
4068.185045423772
 20
-1111.9999999999959
 30
0.0
 11
4087.8149545762199
 21
-1111.9999999999959
 31
0.0
1001
ACDBBLOCKREPETAG
1070
     1
1071
       42
1005
1458E6
  0
LINE
  5
1458E7
  8
OBJECT
 10
4083.0
 20
-1114.9999999999959
 30
0.0
 11
4083.0
 21
-1111.9999999999959
 31
0.0
1001
ACDBBLOCKREPETAG
1070
     1
1071
       43
1005
1458E7
  0
LINE
  5
1458E8
  8
OBJECT
 10
4068.1850359912942
 20
-1103.9999868402549
 30
0.0
 11
4068.1850359912942
 21
-1111.9999868402549
 31
0.0
1001
ACDBBLOCKREPETAG
1070
     1
1071
       44
1005
1458E8
  0
LINE
  5
1458E9
  8
OBJECT
 10
4073.0925013591982
 20
-1103.9999868402549
 30
0.0
 11
4073.0925013591982
 21
-1111.9999868402549
 31
0.0
1001
ACDBBLOCKREPETAG
1070
     1
1071
       45
1005
1458E9
  0
LINE
  5
1458EA
  8
OBJECT
 10
4082.907432095024
 20
-1103.9999868402549
 30
0.0
 11
4082.907432095024
 21
-1111.9999868402549
 31
0.0
1001
ACDBBLOCKREPETAG
1070
     1
1071
       46
1005
1458EA
  0
LINE
  5
1458EB
  8
OBJECT
 10
4087.814991552797
 20
-1103.9999868402549
 30
0.0
 11
4087.814991552797
 21
-1111.9999868402549
 31
0.0
1001
ACDBBLOCKREPETAG
1070
     1
1071
       47
1005
1458EB
  0
LINE
  5
1458EC
  8
OBJECT
 10
3968.5
 20
-1059.9999999999959
 30
0.0
 11
3951.9999999999932
 21
-1059.9999999999959
 31
0.0
1001
ACDBBLOCKREPETAG
1070
     1
1071
       48
1005
1458EC
  0
LINE
  5
1458ED
  8
OBJECT
 10
3976.0
 20
-1064.9999999999959
 30
0.0
 11
3976.0
 21
-1062.9999999999959
 31
0.0
1001
ACDBBLOCKREPETAG
1070
     1
1071
       49
1005
1458ED
  0
LINE
  5
1458EE
  8
OBJECT
 10
3966.0
 20
-1089.9999999999959
 30
0.0
 11
3966.0
 21
-1079.9999999999959
 31
0.0
1001
ACDBBLOCKREPETAG
1070
     1
1071
       50
1005
1458EE
  0
LINE
  5
1458EF
  8
OBJECT
 10
3956.0
 20
-1089.9999999999959
 30
0.0
 11
3956.0
 21
-1079.9999999999959
 31
0.0
1001
ACDBBLOCKREPETAG
1070
     1
1071
       51
1005
1458EF
  0
LINE
  5
1458F0
  8
OBJECT
 10
3951.9999999999932
 20
-1059.9999999999959
 30
0.0
 11
3951.9999999999932
 21
-1064.9999999999959
 31
0.0
1001
ACDBBLOCKREPETAG
1070
     1
1071
       52
1005
1458F0
  0
LINE
  5
1458F1
  8
OBJECT
 10
3956.0
 20
-1111.9999999999959
 30
0.0
 11
3956.0
 21
-1114.9999999999959
 31
0.0
1001
ACDBBLOCKREPETAG
1070
     1
1071
       53
1005
1458F1
  0
LINE
  5
1458F2
  8
OBJECT
 10
3956.0
 20
-1114.9999999999959
 30
0.0
 11
3966.0
 21
-1114.9999999999959
 31
0.0
1001
ACDBBLOCKREPETAG
1070
     1
1071
       54
1005
1458F2
  0
LINE
  5
1458F3
  8
OBJECT
 10
3951.185045423772
 20
-1111.9999999999959
 30
0.0
 11
3970.8149545762212
 21
-1111.9999999999959
 31
0.0
1001
ACDBBLOCKREPETAG
1070
     1
1071
       55
1005
1458F3
  0
LINE
  5
1458F4
  8
OBJECT
 10
3966.0
 20
-1114.9999999999959
 30
0.0
 11
3966.0
 21
-1111.9999999999959
 31
0.0
1001
ACDBBLOCKREPETAG
1070
     1
1071
       56
1005
1458F4
  0
LINE
  5
1458F5
  8
OBJECT
 10
3976.0
 20
-1062.9999999999959
 30
0.0
 11
3968.5
 21
-1059.9999999999959
 31
0.0
1001
ACDBBLOCKREPETAG
1070
     1
1071
       57
1005
1458F5
  0
LINE
  5
1458F6
  8
OBJECT
 10
3951.1850359912951
 20
-1103.9999868402549
 30
0.0
 11
3951.1850359912951
 21
-1111.9999868402549
 31
0.0
1001
ACDBBLOCKREPETAG
1070
     1
1071
       58
1005
1458F6
  0
LINE
  5
1458F7
  8
OBJECT
 10
3956.0925013591991
 20
-1103.9999868402549
 30
0.0
 11
3956.0925013591991
 21
-1111.9999868402549
 31
0.0
1001
ACDBBLOCKREPETAG
1070
     1
1071
       59
1005
1458F7
  0
LINE
  5
1458F8
  8
OBJECT
 10
3965.907432095024
 20
-1103.9999868402549
 30
0.0
 11
3965.907432095024
 21
-1111.9999868402549
 31
0.0
1001
ACDBBLOCKREPETAG
1070
     1
1071
       60
1005
1458F8
  0
LINE
  5
1458F9
  8
OBJECT
 10
3970.8149915527979
 20
-1103.9999868402549
 30
0.0
 11
3970.8149915527979
 21
-1111.9999868402549
 31
0.0
1001
ACDBBLOCKREPETAG
1070
     1
1071
       61
1005
1458F9
  0
LINE
  5
1458FA
  8
CENTER
 10
11909.0
 20
-1353.9999999999959
 30
0.0
 11
12105.0
 21
-1353.9999999999959
 31
0.0
1001
ACDBBLOCKREPETAG
1070
     1
1071
       10
1005
1458FA
  0
LINE
  5
1458FB
  8
CENTER
 10
12000.0
 20
-1262.7253355707801
 30
0.0
 11
12000.0
 21
-1445.2746644292131
 31
0.0
1001
ACDBBLOCKREPETAG
1070
     1
1071
       11
1005
1458FB
  0
CIRCLE
  5
1458FC
  8
OBJECT
 10
12000.0
 20
-1353.9999999999959
 30
0.0
 40
50.0
1001
ACDBBLOCKREPETAG
1070
     1
1071
       12
1005
1458FC
  0
CIRCLE
  5
1458FD
  8
OBJECT
 10
12000.0
 20
-1353.9999999999959
 30
0.0
 40
60.0
1001
ACDBBLOCKREPETAG
1070
     1
1071
       13
1005
1458FD
  0
CIRCLE
  5
1458FE
  8
OBJECT
 10
12000.0
 20
-1353.9999999999959
 30
0.0
 40
68.0
1001
ACDBBLOCKREPETAG
1070
     1
1071
       14
1005
1458FE
  0
ARC
  5
1458FF
  8
OBJECT
 10
12077.5
 20
-1353.9999999999959
 30
0.0
 40
12.0
 50
272.10542627221611
 51
87.894573727783893
1001
ACDBBLOCKREPETAG
1070
     1
1071
       15
1005
1458FF
  0
ARC
  5
145900
  8
OBJECT
 10
12078.49193548386
 20
-1327.0182271895251
 30
0.0
 40
15.0
 50
198.97051877965251
 51
267.89457372778372
1001
ACDBBLOCKREPETAG
1070
     1
1071
       16
1005
145900
  0
ARC
  5
145901
  8
OBJECT
 10
12078.49193548386
 20
-1380.981772810464
 30
0.0
 40
15.0
 50
92.105426272216135
 51
161.02948122034729
1001
ACDBBLOCKREPETAG
1070
     1
1071
       17
1005
145901
  0
CIRCLE
  5
145902
  8
SLIM
 10
12078.0
 20
-1353.9999999999959
 30
0.0
 40
8.0
1001
ACDBBLOCKREPETAG
1070
     1
1071
       18
1005
145902
  0
POLYLINE
  5
145903
  8
SLIM
 66
     1
 10
0.0
 20
0.0
 30
0.0
 70
     1
1001
ACDBBLOCKREPETAG
1070
     1
1071
       19
1005
145903
  0
VERTEX
  5
147943
  8
SLIM
 10
12075.69059892322
 20
-1349.9999999999959
 30
0.0
  0
VERTEX
  5
147944
  8
SLIM
 10
12073.38119784648
 20
-1353.9999999999959
 30
0.0
  0
VERTEX
  5
147945
  8
SLIM
 10
12075.69059892322
 20
-1357.9999999999959
 30
0.0
  0
VERTEX
  5
147946
  8
SLIM
 10
12080.309401076751
 20
-1357.9999999999959
 30
0.0
  0
VERTEX
  5
147947
  8
SLIM
 10
12082.618802153511
 20
-1353.9999999999959
 30
0.0
  0
VERTEX
  5
147948
  8
SLIM
 10
12080.309401076751
 20
-1349.9999999999959
 30
0.0
  0
SEQEND
  5
147949
  8
SLIM
  0
ARC
  5
145904
  8
OBJECT
 10
11961.25
 20
-1286.8830312067
 30
0.0
 40
12.0
 50
32.105426272130188
 51
207.89457372768319
1001
ACDBBLOCKREPETAG
1070
     1
1071
       20
1005
145904
  0
ARC
  5
145905
  8
OBJECT
 10
11937.38713156505
 20
-1299.514876283989
 30
0.0
 40
15.0
 50
318.97051877944762
 51
27.89457372768311
1001
ACDBBLOCKREPETAG
1070
     1
1071
       21
1005
145905
  0
ARC
  5
145906
  8
OBJECT
 10
11984.120932951069
 20
-1272.533103473517
 30
0.0
 40
15.0
 50
212.10542627213019
 51
281.02948122044069
1001
ACDBBLOCKREPETAG
1070
     1
1071
       22
1005
145906
  0
CIRCLE
  5
145907
  8
SLIM
 10
11961.0
 20
-1286.4500185048089
 30
0.0
 40
7.9999999999999982
1001
ACDBBLOCKREPETAG
1070
     1
1071
       23
1005
145907
  0
POLYLINE
  5
145908
  8
SLIM
 66
     1
 10
0.0
 20
0.0
 30
0.0
 70
     1
1001
ACDBBLOCKREPETAG
1070
     1
1071
       24
1005
145908
  0
VERTEX
  5
14794A
  8
SLIM
 10
11958.69059892324
 20
-1290.4500185048089
 30
0.0
  0
VERTEX
  5
14794B
  8
SLIM
 10
11963.309401076751
 20
-1290.4500185048089
 30
0.0
  0
VERTEX
  5
14794C
  8
SLIM
 10
11965.618802153511
 20
-1286.4500185048089
 30
0.0
  0
VERTEX
  5
14794D
  8
SLIM
 10
11963.309401076751
 20
-1282.4500185048089
 30
0.0
  0
VERTEX
  5
14794E
  8
SLIM
 10
11958.69059892324
 20
-1282.4500185048089
 30
0.0
  0
VERTEX
  5
14794F
  8
SLIM
 10
11956.38119784648
 20
-1286.4500185048089
 30
0.0
  0
SEQEND
  5
147950
  8
SLIM
  0
ARC
  5
145909
  8
OBJECT
 10
11961.25
 20
-1421.1169687932891
 30
0.0
 40
12.0
 50
152.10542627231681
 51
327.89457372786978
1001
ACDBBLOCKREPETAG
1070
     1
1071
       25
1005
145909
  0
ARC
  5
14590A
  8
OBJECT
 10
11984.120932951069
 20
-1435.4668965264721
 30
0.0
 40
15.0
 50
78.970518779559228
 51
147.89457372786981
1001
ACDBBLOCKREPETAG
1070
     1
1071
       26
1005
14590A
  0
ARC
  5
14590B
  8
OBJECT
 10
11937.38713156505
 20
-1408.485123716004
 30
0.0
 40
15.0
 50
332.10542627231678
 51
41.029481220552412
1001
ACDBBLOCKREPETAG
1070
     1
1071
       27
1005
14590B
  0
CIRCLE
  5
14590C
  8
SLIM
 10
11961.0
 20
-1421.549981495182
 30
0.0
 40
8.0
1001
ACDBBLOCKREPETAG
1070
     1
1071
       28
1005
14590C
  0
POLYLINE
  5
14590D
  8
SLIM
 66
     1
 10
0.0
 20
0.0
 30
0.0
 70
     1
1001
ACDBBLOCKREPETAG
1070
     1
1071
       29
1005
14590D
  0
VERTEX
  5
147951
  8
SLIM
 10
11965.618802153511
 20
-1421.54998149518
 30
0.0
  0
VERTEX
  5
147952
  8
SLIM
 10
11963.309401076751
 20
-1417.5499814951829
 30
0.0
  0
VERTEX
  5
147953
  8
SLIM
 10
11958.69059892324
 20
-1417.54998149518
 30
0.0
  0
VERTEX
  5
147954
  8
SLIM
 10
11956.38119784648
 20
-1421.549981495182
 30
0.0
  0
VERTEX
  5
147955
  8
SLIM
 10
11958.69059892322
 20
-1425.54998149518
 30
0.0
  0
VERTEX
  5
147956
  8
SLIM
 10
11963.309401076751
 20
-1425.5499814951829
 30
0.0
  0
SEQEND
  5
147957
  8
SLIM
  0
ARC
  5
14590E
  8
OBJECT
 10
12000.0
 20
-1353.9999999999959
 30
0.0
 40
76.0
 50
34.863837954171863
 51
85.136162045732945
1001
ACDBBLOCKREPETAG
1070
     1
1071
       42
1005
14590E
  0
ARC
  5
14590F
  8
OBJECT
 10
12000.0
 20
-1353.9999999999959
 30
0.0
 40
76.0
 50
154.86383795430939
 51
205.1361620456905
1001
ACDBBLOCKREPETAG
1070
     1
1071
       43
1005
14590F
  0
ARC
  5
145910
  8
OBJECT
 10
12000.0
 20
-1353.9999999999959
 30
0.0
 40
76.0
 50
274.86383795426718
 51
325.13616204582797
1001
ACDBBLOCKREPETAG
1070
     1
1071
       44
1005
145910
  0
ARC
  5
145911
  8
OBJECT
 10
12078.0
 20
-1353.9999999999959
 30
0.0
 40
12.0
 50
325.13616204582797
 51
34.863837954171863
1001
ACDBBLOCKREPETAG
1070
     1
1071
       45
1005
145911
  0
LINE
  5
145912
  8
OBJECT
 10
12087.84615384616
 20
-1347.140462520134
 30
0.0
 11
12062.358974359049
 21
-1310.556262627535
 31
0.0
1001
ACDBBLOCKREPETAG
1070
     1
1071
       46
1005
145912
  0
LINE
  5
145913
  8
OBJECT
 10
12087.846153846171
 20
-1360.859537479857
 30
0.0
 11
12062.358974359049
 21
-1397.4437373724591
 31
0.0
1001
ACDBBLOCKREPETAG
1070
     1
1071
       47
1005
145913
  0
ARC
  5
145914
  8
OBJECT
 10
11961.0
 20
-1286.4500185048109
 30
0.0
 40
12.0
 50
85.136162045942811
 51
154.86383795410001
1001
ACDBBLOCKREPETAG
1070
     1
1071
       48
1005
145914
  0
LINE
  5
145915
  8
OBJECT
 10
11950.13638936114
 20
-1281.35276788439
 30
0.0
 11
11931.19713262058
 21
-1321.7174127373471
 31
0.0
1001
ACDBBLOCKREPETAG
1070
     1
1071
       49
1005
145915
  0
LINE
  5
145916
  8
OBJECT
 10
11962.017456792681
 20
-1274.4932304045269
 30
0.0
 11
12006.443893020371
 21
-1278.273675364886
 31
0.0
1001
ACDBBLOCKREPETAG
1070
     1
1071
       50
1005
145916
  0
ARC
  5
145917
  8
OBJECT
 10
11961.0
 20
-1421.5499814951811
 30
0.0
 40
12.0
 50
205.13616204589991
 51
274.8638379540572
1001
ACDBBLOCKREPETAG
1070
     1
1071
       51
1005
145917
  0
LINE
  5
145918
  8
OBJECT
 10
11962.01745679269
 20
-1433.506769595464
 30
0.0
 11
12006.44389302036
 21
-1429.7263246351069
 31
0.0
1001
ACDBBLOCKREPETAG
1070
     1
1071
       52
1005
145918
  0
LINE
  5
145919
  8
OBJECT
 10
11950.13638936114
 20
-1426.647232115605
 30
0.0
 11
11931.19713262058
 21
-1386.2825872626429
 31
0.0
1001
ACDBBLOCKREPETAG
1070
     1
1071
       53
1005
145919
  0
LINE
  5
14591A
  8
CENTER
 10
9909.0
 20
-1353.9999999999959
 30
0.0
 11
10105.0
 21
-1353.9999999999959
 31
0.0
1001
ACDBBLOCKREPETAG
1070
     1
1071
        0
1005
14591A
  0
LINE
  5
14591B
  8
CENTER
 10
10000.0
 20
-1262.7253355707801
 30
0.0
 11
10000.0
 21
-1445.2746644292131
 31
0.0
1001
ACDBBLOCKREPETAG
1070
     1
1071
        1
1005
14591B
  0
CIRCLE
  5
14591C
  8
OBJECT
 10
10000.0
 20
-1353.9999999999959
 30
0.0
 40
50.0
1001
ACDBBLOCKREPETAG
1070
     1
1071
        2
1005
14591C
  0
CIRCLE
  5
14591D
  8
OBJECT
 10
10000.0
 20
-1353.9999999999959
 30
0.0
 40
62.0
1001
ACDBBLOCKREPETAG
1070
     1
1071
        3
1005
14591D
  0
CIRCLE
  5
14591E
  8
SLIM
 10
10078.0
 20
-1353.9999999999959
 30
0.0
 40
5.0
1001
ACDBBLOCKREPETAG
1070
     1
1071
        4
1005
14591E
  0
POLYLINE
  5
14591F
  8
SLIM
 66
     1
 10
0.0
 20
0.0
 30
0.0
 70
     1
1001
ACDBBLOCKREPETAG
1070
     1
1071
        5
1005
14591F
  0
VERTEX
  5
147958
  8
SLIM
 10
10073.092522711881
 20
-1345.4999999999959
 30
0.0
  0
VERTEX
  5
147959
  8
SLIM
 10
10068.18504542377
 20
-1353.9999999999959
 30
0.0
  0
VERTEX
  5
14795A
  8
SLIM
 10
10073.092522711881
 20
-1362.4999999999959
 30
0.0
  0
VERTEX
  5
14795B
  8
SLIM
 10
10082.907477288099
 20
-1362.4999999999959
 30
0.0
  0
VERTEX
  5
14795C
  8
SLIM
 10
10087.814954576221
 20
-1353.9999999999959
 30
0.0
  0
VERTEX
  5
14795D
  8
SLIM
 10
10082.907477288099
 20
-1345.4999999999959
 30
0.0
  0
SEQEND
  5
14795E
  8
SLIM
  0
CIRCLE
  5
145920
  8
SLIM
 10
9961.0
 20
-1286.4500185048089
 30
0.0
 40
4.9999999999999991
1001
ACDBBLOCKREPETAG
1070
     1
1071
        6
1005
145920
  0
POLYLINE
  5
145921
  8
SLIM
 66
     1
 10
0.0
 20
0.0
 30
0.0
 70
     1
1001
ACDBBLOCKREPETAG
1070
     1
1071
        7
1005
145921
  0
VERTEX
  5
14795F
  8
SLIM
 10
9956.092522711886
 20
-1294.9500185048089
 30
0.0
  0
VERTEX
  5
147960
  8
SLIM
 10
9965.907477288114
 20
-1294.9500185048089
 30
0.0
  0
VERTEX
  5
147961
  8
SLIM
 10
9970.814954576219
 20
-1286.4500185048089
 30
0.0
  0
VERTEX
  5
147962
  8
SLIM
 10
9965.907477288114
 20
-1277.9500185048089
 30
0.0
  0
VERTEX
  5
147963
  8
SLIM
 10
9956.092522711886
 20
-1277.9500185048089
 30
0.0
  0
VERTEX
  5
147964
  8
SLIM
 10
9951.185045423772
 20
-1286.4500185048089
 30
0.0
  0
SEQEND
  5
147965
  8
SLIM
  0
CIRCLE
  5
145922
  8
SLIM
 10
9961.0
 20
-1421.549981495182
 30
0.0
 40
5.0
1001
ACDBBLOCKREPETAG
1070
     1
1071
        8
1005
145922
  0
POLYLINE
  5
145923
  8
SLIM
 66
     1
 10
0.0
 20
0.0
 30
0.0
 70
     1
1001
ACDBBLOCKREPETAG
1070
     1
1071
        9
1005
145923
  0
VERTEX
  5
147966
  8
SLIM
 10
9970.814954576219
 20
-1421.549981495182
 30
0.0
  0
VERTEX
  5
147967
  8
SLIM
 10
9965.9074772881049
 20
-1413.04998149518
 30
0.0
  0
VERTEX
  5
147968
  8
SLIM
 10
9956.092522711886
 20
-1413.0499814951829
 30
0.0
  0
VERTEX
  5
147969
  8
SLIM
 10
9951.185045423772
 20
-1421.54998149518
 30
0.0
  0
VERTEX
  5
14796A
  8
SLIM
 10
9956.092522711886
 20
-1430.0499814951829
 30
0.0
  0
VERTEX
  5
14796B
  8
SLIM
 10
9965.907477288114
 20
-1430.04998149518
 30
0.0
  0
SEQEND
  5
14796C
  8
SLIM
  0
ARC
  5
145924
  8
OBJECT
 10
10000.0
 20
-1353.9999999999959
 30
0.0
 40
76.0
 50
34.863837954171863
 51
85.136162045732945
1001
ACDBBLOCKREPETAG
1070
     1
1071
       30
1005
145924
  0
ARC
  5
145925
  8
OBJECT
 10
10000.0
 20
-1353.9999999999959
 30
0.0
 40
76.0
 50
154.86383795430939
 51
205.1361620456905
1001
ACDBBLOCKREPETAG
1070
     1
1071
       31
1005
145925
  0
ARC
  5
145926
  8
OBJECT
 10
10000.0
 20
-1353.9999999999959
 30
0.0
 40
76.0
 50
274.86383795426718
 51
325.13616204582797
1001
ACDBBLOCKREPETAG
1070
     1
1071
       32
1005
145926
  0
ARC
  5
145927
  8
OBJECT
 10
10078.0
 20
-1353.9999999999959
 30
0.0
 40
12.0
 50
325.13616204582797
 51
34.863837954171863
1001
ACDBBLOCKREPETAG
1070
     1
1071
       33
1005
145927
  0
LINE
  5
145928
  8
OBJECT
 10
10087.84615384616
 20
-1347.140462520134
 30
0.0
 11
10062.35897435904
 21
-1310.556262627535
 31
0.0
1001
ACDBBLOCKREPETAG
1070
     1
1071
       34
1005
145928
  0
LINE
  5
145929
  8
OBJECT
 10
10087.846153846171
 20
-1360.859537479857
 30
0.0
 11
10062.35897435904
 21
-1397.4437373724591
 31
0.0
1001
ACDBBLOCKREPETAG
1070
     1
1071
       35
1005
145929
  0
ARC
  5
14592A
  8
OBJECT
 10
9961.0
 20
-1286.4500185048109
 30
0.0
 40
12.0
 50
85.136162045942811
 51
154.86383795410001
1001
ACDBBLOCKREPETAG
1070
     1
1071
       36
1005
14592A
  0
LINE
  5
14592B
  8
OBJECT
 10
9950.1363893611433
 20
-1281.35276788439
 30
0.0
 11
9931.1971326205894
 21
-1321.7174127373471
 31
0.0
1001
ACDBBLOCKREPETAG
1070
     1
1071
       37
1005
14592B
  0
LINE
  5
14592C
  8
OBJECT
 10
9962.0174567926842
 20
-1274.4932304045269
 30
0.0
 11
10006.443893020371
 21
-1278.273675364886
 31
0.0
1001
ACDBBLOCKREPETAG
1070
     1
1071
       38
1005
14592C
  0
ARC
  5
14592D
  8
OBJECT
 10
9961.0
 20
-1421.5499814951811
 30
0.0
 40
12.0
 50
205.13616204589991
 51
274.8638379540572
1001
ACDBBLOCKREPETAG
1070
     1
1071
       39
1005
14592D
  0
LINE
  5
14592E
  8
OBJECT
 10
9962.0174567926897
 20
-1433.506769595464
 30
0.0
 11
10006.44389302036
 21
-1429.7263246351069
 31
0.0
1001
ACDBBLOCKREPETAG
1070
     1
1071
       40
1005
14592E
  0
LINE
  5
14592F
  8
OBJECT
 10
9950.1363893611433
 20
-1426.647232115605
 30
0.0
 11
9931.1971326205821
 21
-1386.2825872626429
 31
0.0
1001
ACDBBLOCKREPETAG
1070
     1
1071
       41
1005
14592F
  0
LINE
  5
145930
  8
CENTER
 10
5909.0
 20
-1394.9999999999991
 30
0.0
 11
6105.0
 21
-1394.9999999999991
 31
0.0
1001
ACDBBLOCKREPETAG
1070
     1
1071
       10
1005
145930
  0
LINE
  5
145931
  8
CENTER
 10
6000.0
 20
-1303.725335570783
 30
0.0
 11
6000.0
 21
-1486.274664429216
 31
0.0
1001
ACDBBLOCKREPETAG
1070
     1
1071
       11
1005
145931
  0
CIRCLE
  5
145932
  8
OBJECT
 10
6000.0
 20
-1394.9999999999991
 30
0.0
 40
50.0
1001
ACDBBLOCKREPETAG
1070
     1
1071
       12
1005
145932
  0
CIRCLE
  5
145933
  8
OBJECT
 10
6000.0
 20
-1394.9999999999991
 30
0.0
 40
60.0
1001
ACDBBLOCKREPETAG
1070
     1
1071
       13
1005
145933
  0
CIRCLE
  5
145934
  8
OBJECT
 10
6000.0
 20
-1394.9999999999991
 30
0.0
 40
68.0
1001
ACDBBLOCKREPETAG
1070
     1
1071
       14
1005
145934
  0
ARC
  5
145935
  8
OBJECT
 10
6077.5
 20
-1394.9999999999991
 30
0.0
 40
12.0
 50
272.10542627221611
 51
87.894573727783893
1001
ACDBBLOCKREPETAG
1070
     1
1071
       15
1005
145935
  0
ARC
  5
145936
  8
OBJECT
 10
6078.4919354838639
 20
-1368.018227189528
 30
0.0
 40
15.0
 50
198.9705187796356
 51
267.89457372778372
1001
ACDBBLOCKREPETAG
1070
     1
1071
       16
1005
145936
  0
ARC
  5
145937
  8
OBJECT
 10
6078.4919354838639
 20
-1421.981772810467
 30
0.0
 40
15.0
 50
92.105426272216135
 51
161.02948122036429
1001
ACDBBLOCKREPETAG
1070
     1
1071
       17
1005
145937
  0
CIRCLE
  5
145938
  8
SLIM
 10
6078.0
 20
-1394.9999999999991
 30
0.0
 40
8.0
1001
ACDBBLOCKREPETAG
1070
     1
1071
       18
1005
145938
  0
POLYLINE
  5
145939
  8
SLIM
 66
     1
 10
0.0
 20
0.0
 30
0.0
 70
     1
1001
ACDBBLOCKREPETAG
1070
     1
1071
       19
1005
145939
  0
VERTEX
  5
14796D
  8
SLIM
 10
6075.6905989232328
 20
-1391.0
 30
0.0
  0
VERTEX
  5
14796E
  8
SLIM
 10
6073.3811978464801
 20
-1394.9999999999991
 30
0.0
  0
VERTEX
  5
14796F
  8
SLIM
 10
6075.6905989232328
 20
-1398.9999999999991
 30
0.0
  0
VERTEX
  5
147970
  8
SLIM
 10
6080.3094010767527
 20
-1398.9999999999991
 30
0.0
  0
VERTEX
  5
147971
  8
SLIM
 10
6082.6188021535136
 20
-1394.9999999999991
 30
0.0
  0
VERTEX
  5
147972
  8
SLIM
 10
6080.3094010767527
 20
-1391.0
 30
0.0
  0
SEQEND
  5
147973
  8
SLIM
  0
ARC
  5
14593A
  8
OBJECT
 10
5961.25
 20
-1327.883031206703
 30
0.0
 40
12.0
 50
32.105426272157878
 51
207.89457372770741
1001
ACDBBLOCKREPETAG
1070
     1
1071
       20
1005
14593A
  0
ARC
  5
14593B
  8
OBJECT
 10
5937.387131565054
 20
-1340.514876283992
 30
0.0
 40
15.0
 50
318.97051877944762
 51
27.894573727707481
1001
ACDBBLOCKREPETAG
1070
     1
1071
       21
1005
14593B
  0
ARC
  5
14593C
  8
OBJECT
 10
5984.1209329510702
 20
-1313.53310347352
 30
0.0
 40
15.0
 50
212.1054262721579
 51
281.02948122044069
1001
ACDBBLOCKREPETAG
1070
     1
1071
       22
1005
14593C
  0
CIRCLE
  5
14593D
  8
SLIM
 10
5961.0
 20
-1327.4500185048121
 30
0.0
 40
7.9999999999999982
1001
ACDBBLOCKREPETAG
1070
     1
1071
       23
1005
14593D
  0
POLYLINE
  5
14593E
  8
SLIM
 66
     1
 10
0.0
 20
0.0
 30
0.0
 70
     1
1001
ACDBBLOCKREPETAG
1070
     1
1071
       24
1005
14593E
  0
VERTEX
  5
147974
  8
SLIM
 10
5958.69059892324
 20
-1331.4500185048121
 30
0.0
  0
VERTEX
  5
147975
  8
SLIM
 10
5963.3094010767518
 20
-1331.4500185048121
 30
0.0
  0
VERTEX
  5
147976
  8
SLIM
 10
5965.6188021535136
 20
-1327.4500185048121
 30
0.0
  0
VERTEX
  5
147977
  8
SLIM
 10
5963.3094010767518
 20
-1323.4500185048121
 30
0.0
  0
VERTEX
  5
147978
  8
SLIM
 10
5958.69059892324
 20
-1323.4500185048121
 30
0.0
  0
VERTEX
  5
147979
  8
SLIM
 10
5956.3811978464792
 20
-1327.4500185048121
 30
0.0
  0
SEQEND
  5
14797A
  8
SLIM
  0
ARC
  5
14593F
  8
OBJECT
 10
5961.25
 20
-1462.116968793292
 30
0.0
 40
12.0
 50
152.1054262722925
 51
327.89457372784221
1001
ACDBBLOCKREPETAG
1070
     1
1071
       25
1005
14593F
  0
ARC
  5
145940
  8
OBJECT
 10
5984.1209329510702
 20
-1476.466896526475
 30
0.0
 40
15.0
 50
78.970518779559228
 51
147.8945737278421
1001
ACDBBLOCKREPETAG
1070
     1
1071
       26
1005
145940
  0
ARC
  5
145941
  8
OBJECT
 10
5937.387131565054
 20
-1449.485123716006
 30
0.0
 40
15.0
 50
332.1054262722925
 51
41.029481220552412
1001
ACDBBLOCKREPETAG
1070
     1
1071
       27
1005
145941
  0
CIRCLE
  5
145942
  8
SLIM
 10
5961.0
 20
-1462.549981495187
 30
0.0
 40
8.0
1001
ACDBBLOCKREPETAG
1070
     1
1071
       28
1005
145942
  0
POLYLINE
  5
145943
  8
SLIM
 66
     1
 10
0.0
 20
0.0
 30
0.0
 70
     1
1001
ACDBBLOCKREPETAG
1070
     1
1071
       29
1005
145943
  0
VERTEX
  5
14797B
  8
SLIM
 10
5965.6188021535136
 20
-1462.5499814951829
 30
0.0
  0
VERTEX
  5
14797C
  8
SLIM
 10
5963.3094010767518
 20
-1458.549981495187
 30
0.0
  0
VERTEX
  5
14797D
  8
SLIM
 10
5958.69059892324
 20
-1458.5499814951829
 30
0.0
  0
VERTEX
  5
14797E
  8
SLIM
 10
5956.3811978464792
 20
-1462.549981495187
 30
0.0
  0
VERTEX
  5
14797F
  8
SLIM
 10
5958.6905989232328
 20
-1466.5499814951829
 30
0.0
  0
VERTEX
  5
147980
  8
SLIM
 10
5963.3094010767518
 20
-1466.549981495187
 30
0.0
  0
SEQEND
  5
147981
  8
SLIM
  0
ARC
  5
145944
  8
OBJECT
 10
6000.0
 20
-1394.9999999999991
 30
0.0
 40
76.0
 50
34.863837954142063
 51
85.136162045732945
1001
ACDBBLOCKREPETAG
1070
     1
1071
       42
1005
145944
  0
ARC
  5
145945
  8
OBJECT
 10
6000.0
 20
-1394.9999999999991
 30
0.0
 40
76.0
 50
154.86383795430939
 51
205.1361620456905
1001
ACDBBLOCKREPETAG
1070
     1
1071
       43
1005
145945
  0
ARC
  5
145946
  8
OBJECT
 10
6000.0
 20
-1394.9999999999991
 30
0.0
 40
76.0
 50
274.86383795426718
 51
325.13616204585799
1001
ACDBBLOCKREPETAG
1070
     1
1071
       44
1005
145946
  0
ARC
  5
145947
  8
OBJECT
 10
6078.0
 20
-1394.9999999999991
 30
0.0
 40
12.0
 50
325.13616204585799
 51
34.863837954142063
1001
ACDBBLOCKREPETAG
1070
     1
1071
       45
1005
145947
  0
LINE
  5
145948
  8
OBJECT
 10
6087.846153846167
 20
-1388.140462520136
 30
0.0
 11
6062.3589743590501
 21
-1351.556262627538
 31
0.0
1001
ACDBBLOCKREPETAG
1070
     1
1071
       46
1005
145948
  0
LINE
  5
145949
  8
OBJECT
 10
6087.8461538461697
 20
-1401.8595374798599
 30
0.0
 11
6062.3589743590501
 21
-1438.4437373724629
 31
0.0
1001
ACDBBLOCKREPETAG
1070
     1
1071
       47
1005
145949
  0
ARC
  5
14594A
  8
OBJECT
 10
5961.0
 20
-1327.4500185048139
 30
0.0
 40
12.0
 50
85.136162045942811
 51
154.86383795410001
1001
ACDBBLOCKREPETAG
1070
     1
1071
       48
1005
14594A
  0
LINE
  5
14594B
  8
OBJECT
 10
5950.1363893611451
 20
-1322.3527678843941
 30
0.0
 11
5931.1971326205849
 21
-1362.7174127373501
 31
0.0
1001
ACDBBLOCKREPETAG
1070
     1
1071
       49
1005
14594B
  0
LINE
  5
14594C
  8
OBJECT
 10
5962.0174567926842
 20
-1315.4932304045301
 30
0.0
 11
6006.4438930203669
 21
-1319.273675364889
 31
0.0
1001
ACDBBLOCKREPETAG
1070
     1
1071
       50
1005
14594C
  0
ARC
  5
14594D
  8
OBJECT
 10
5961.0
 20
-1462.549981495185
 30
0.0
 40
12.0
 50
205.13616204589991
 51
274.8638379540572
1001
ACDBBLOCKREPETAG
1070
     1
1071
       51
1005
14594D
  0
LINE
  5
14594E
  8
OBJECT
 10
5962.0174567926879
 20
-1474.5067695954669
 30
0.0
 11
6006.4438930203651
 21
-1470.7263246351099
 31
0.0
1001
ACDBBLOCKREPETAG
1070
     1
1071
       52
1005
14594E
  0
LINE
  5
14594F
  8
OBJECT
 10
5950.1363893611451
 20
-1467.6472321156079
 30
0.0
 11
5931.1971326205821
 21
-1427.282587262647
 31
0.0
1001
ACDBBLOCKREPETAG
1070
     1
1071
       53
1005
14594F
  0
LINE
  5
145950
  8
CENTER
 10
3909.0
 20
-1353.9999999999959
 30
0.0
 11
4105.0
 21
-1353.9999999999959
 31
0.0
1001
ACDBBLOCKREPETAG
1070
     1
1071
        0
1005
145950
  0
LINE
  5
145951
  8
CENTER
 10
4000.0
 20
-1262.7253355707801
 30
0.0
 11
4000.0
 21
-1445.2746644292131
 31
0.0
1001
ACDBBLOCKREPETAG
1070
     1
1071
        1
1005
145951
  0
CIRCLE
  5
145952
  8
OBJECT
 10
4000.0
 20
-1353.9999999999959
 30
0.0
 40
50.0
1001
ACDBBLOCKREPETAG
1070
     1
1071
        2
1005
145952
  0
CIRCLE
  5
145953
  8
OBJECT
 10
4000.0
 20
-1353.9999999999959
 30
0.0
 40
62.0
1001
ACDBBLOCKREPETAG
1070
     1
1071
        3
1005
145953
  0
CIRCLE
  5
145954
  8
SLIM
 10
4078.0
 20
-1353.9999999999959
 30
0.0
 40
5.0
1001
ACDBBLOCKREPETAG
1070
     1
1071
        4
1005
145954
  0
POLYLINE
  5
145955
  8
SLIM
 66
     1
 10
0.0
 20
0.0
 30
0.0
 70
     1
1001
ACDBBLOCKREPETAG
1070
     1
1071
        5
1005
145955
  0
VERTEX
  5
147982
  8
SLIM
 10
4073.092522711886
 20
-1345.4999999999959
 30
0.0
  0
VERTEX
  5
147983
  8
SLIM
 10
4068.185045423772
 20
-1353.9999999999959
 30
0.0
  0
VERTEX
  5
147984
  8
SLIM
 10
4073.092522711886
 20
-1362.4999999999959
 30
0.0
  0
VERTEX
  5
147985
  8
SLIM
 10
4082.9074772881072
 20
-1362.4999999999959
 30
0.0
  0
VERTEX
  5
147986
  8
SLIM
 10
4087.8149545762199
 20
-1353.9999999999959
 30
0.0
  0
VERTEX
  5
147987
  8
SLIM
 10
4082.9074772881072
 20
-1345.4999999999959
 30
0.0
  0
SEQEND
  5
147988
  8
SLIM
  0
CIRCLE
  5
145956
  8
SLIM
 10
3961.0
 20
-1286.4500185048089
 30
0.0
 40
4.9999999999999991
1001
ACDBBLOCKREPETAG
1070
     1
1071
        6
1005
145956
  0
POLYLINE
  5
145957
  8
SLIM
 66
     1
 10
0.0
 20
0.0
 30
0.0
 70
     1
1001
ACDBBLOCKREPETAG
1070
     1
1071
        7
1005
145957
  0
VERTEX
  5
147989
  8
SLIM
 10
3956.092522711886
 20
-1294.9500185048089
 30
0.0
  0
VERTEX
  5
14798A
  8
SLIM
 10
3965.907477288114
 20
-1294.9500185048089
 30
0.0
  0
VERTEX
  5
14798B
  8
SLIM
 10
3970.8149545762212
 20
-1286.4500185048089
 30
0.0
  0
VERTEX
  5
14798C
  8
SLIM
 10
3965.907477288114
 20
-1277.9500185048089
 30
0.0
  0
VERTEX
  5
14798D
  8
SLIM
 10
3956.092522711886
 20
-1277.9500185048089
 30
0.0
  0
VERTEX
  5
14798E
  8
SLIM
 10
3951.185045423772
 20
-1286.4500185048089
 30
0.0
  0
SEQEND
  5
14798F
  8
SLIM
  0
CIRCLE
  5
145958
  8
SLIM
 10
3961.0
 20
-1421.549981495182
 30
0.0
 40
5.0
1001
ACDBBLOCKREPETAG
1070
     1
1071
        8
1005
145958
  0
POLYLINE
  5
145959
  8
SLIM
 66
     1
 10
0.0
 20
0.0
 30
0.0
 70
     1
1001
ACDBBLOCKREPETAG
1070
     1
1071
        9
1005
145959
  0
VERTEX
  5
147990
  8
SLIM
 10
3970.8149545762212
 20
-1421.549981495182
 30
0.0
  0
VERTEX
  5
147991
  8
SLIM
 10
3965.9074772881072
 20
-1413.04998149518
 30
0.0
  0
VERTEX
  5
147992
  8
SLIM
 10
3956.092522711886
 20
-1413.0499814951829
 30
0.0
  0
VERTEX
  5
147993
  8
SLIM
 10
3951.185045423772
 20
-1421.54998149518
 30
0.0
  0
VERTEX
  5
147994
  8
SLIM
 10
3956.092522711886
 20
-1430.0499814951829
 30
0.0
  0
VERTEX
  5
147995
  8
SLIM
 10
3965.907477288114
 20
-1430.04998149518
 30
0.0
  0
SEQEND
  5
147996
  8
SLIM
  0
ARC
  5
14595A
  8
OBJECT
 10
4000.0
 20
-1353.9999999999959
 30
0.0
 40
76.0
 50
34.863837954142063
 51
85.136162045732945
1001
ACDBBLOCKREPETAG
1070
     1
1071
       30
1005
14595A
  0
ARC
  5
14595B
  8
OBJECT
 10
4000.0
 20
-1353.9999999999959
 30
0.0
 40
76.0
 50
154.86383795430939
 51
205.1361620456905
1001
ACDBBLOCKREPETAG
1070
     1
1071
       31
1005
14595B
  0
ARC
  5
14595C
  8
OBJECT
 10
4000.0
 20
-1353.9999999999959
 30
0.0
 40
76.0
 50
274.86383795426718
 51
325.13616204585799
1001
ACDBBLOCKREPETAG
1070
     1
1071
       32
1005
14595C
  0
ARC
  5
14595D
  8
OBJECT
 10
4078.0
 20
-1353.9999999999959
 30
0.0
 40
12.0
 50
325.13616204585799
 51
34.863837954142063
1001
ACDBBLOCKREPETAG
1070
     1
1071
       33
1005
14595D
  0
LINE
  5
14595E
  8
OBJECT
 10
4087.846153846167
 20
-1347.140462520134
 30
0.0
 11
4062.3589743590492
 21
-1310.556262627535
 31
0.0
1001
ACDBBLOCKREPETAG
1070
     1
1071
       34
1005
14595E
  0
LINE
  5
14595F
  8
OBJECT
 10
4087.8461538461711
 20
-1360.859537479857
 30
0.0
 11
4062.3589743590492
 21
-1397.4437373724591
 31
0.0
1001
ACDBBLOCKREPETAG
1070
     1
1071
       35
1005
14595F
  0
ARC
  5
145960
  8
OBJECT
 10
3961.0
 20
-1286.4500185048109
 30
0.0
 40
12.0
 50
85.136162045942811
 51
154.86383795411109
1001
ACDBBLOCKREPETAG
1070
     1
1071
       36
1005
145960
  0
LINE
  5
145961
  8
OBJECT
 10
3950.136389361146
 20
-1281.35276788439
 30
0.0
 11
3931.1971326205862
 21
-1321.7174127373471
 31
0.0
1001
ACDBBLOCKREPETAG
1070
     1
1071
       37
1005
145961
  0
LINE
  5
145962
  8
OBJECT
 10
3962.0174567926852
 20
-1274.4932304045269
 30
0.0
 11
4006.4438930203678
 21
-1278.273675364886
 31
0.0
1001
ACDBBLOCKREPETAG
1070
     1
1071
       38
1005
145962
  0
ARC
  5
145963
  8
OBJECT
 10
3961.0
 20
-1421.5499814951811
 30
0.0
 40
12.0
 50
205.13616204588891
 51
274.8638379540572
1001
ACDBBLOCKREPETAG
1070
     1
1071
       39
1005
145963
  0
LINE
  5
145964
  8
OBJECT
 10
3962.0174567926879
 20
-1433.506769595464
 30
0.0
 11
4006.4438930203651
 21
-1429.7263246351069
 31
0.0
1001
ACDBBLOCKREPETAG
1070
     1
1071
       40
1005
145964
  0
LINE
  5
145965
  8
OBJECT
 10
3950.136389361146
 20
-1426.647232115605
 30
0.0
 11
3931.1971326205821
 21
-1386.2825872626429
 31
0.0
1001
ACDBBLOCKREPETAG
1070
     1
1071
       41
1005
145965
  0
LINE
  5
145966
  8
OBJECT
 10
1943.0
 20
-1079.9999999999959
 30
0.0
 11
2057.0
 21
-1079.9999999999959
 31
0.0
1001
ACDBBLOCKREPETAG
1070
     1
1071
        0
1005
145966
  0
LINE
  5
145967
  8
OBJECT
 10
1943.0
 20
-1079.9999999999959
 30
0.0
 11
1943.0
 21
-979.99999999999613
 31
0.0
1001
ACDBBLOCKREPETAG
1070
     1
1071
        1
1005
145967
  0
LINE
  5
145968
  8
OBJECT
 10
2057.0
 20
-1079.9999999999959
 30
0.0
 11
2057.0
 21
-979.99999999999613
 31
0.0
1001
ACDBBLOCKREPETAG
1070
     1
1071
        2
1005
145968
  0
LINE
  5
145969
  8
OBJECT
 10
1943.0
 20
-979.99999999999613
 30
0.0
 11
2057.0
 21
-979.99999999999613
 31
0.0
1001
ACDBBLOCKREPETAG
1070
     1
1071
        3
1005
145969
  0
LINE
  5
14596A
  8
HIDDEN
 10
1950.0
 20
-979.99999999999613
 30
0.0
 11
1950.0
 21
-1079.9999999999959
 31
0.0
1001
ACDBBLOCKREPETAG
1070
     1
1071
        4
1005
14596A
  0
LINE
  5
14596B
  8
HIDDEN
 10
2050.0
 20
-979.99999999999613
 30
0.0
 11
2050.0
 21
-1079.9999999999959
 31
0.0
1001
ACDBBLOCKREPETAG
1070
     1
1071
        5
1005
14596B
  0
LINE
  5
14596C
  8
CENTER
 10
2000.0
 20
-770.0
 30
0.0
 11
2000.0
 21
-1094.9999999999959
 31
0.0
1001
ACDBBLOCKREPETAG
1070
     1
1071
        6
1005
14596C
  0
LINE
  5
14596D
  8
OBJECT
 10
1925.0
 20
-770.0
 30
0.0
 11
1925.0
 21
-851.99999999999636
 31
0.0
1001
ACDBBLOCKREPETAG
1070
     1
1071
        7
1005
14596D
  0
LINE
  5
14596E
  8
OBJECT
 10
2075.0
 20
-770.0
 30
0.0
 11
2075.0
 21
-851.99999999999636
 31
0.0
1001
ACDBBLOCKREPETAG
1070
     1
1071
        8
1005
14596E
  0
LINE
  5
14596F
  8
OBJECT
 10
1925.0
 20
-851.99999999999636
 30
0.0
 11
2075.0
 21
-851.99999999999636
 31
0.0
1001
ACDBBLOCKREPETAG
1070
     1
1071
        9
1005
14596F
  0
LINE
  5
145970
  8
OBJECT
 10
1925.0
 20
-851.99999999999636
 30
0.0
 11
1943.0
 21
-979.99999999999613
 31
0.0
1001
ACDBBLOCKREPETAG
1070
     1
1071
       10
1005
145970
  0
LINE
  5
145971
  8
OBJECT
 10
2057.0
 20
-979.99999999999613
 30
0.0
 11
2075.0
 21
-851.99999999999636
 31
0.0
1001
ACDBBLOCKREPETAG
1070
     1
1071
       11
1005
145971
  0
TEXT
  5
145972
  8
SLIM
 10
3853.75
 20
-1621.4999999999959
 30
0.0
 40
35.0
  1
両受けスタイル（W）
 41
0.75
  0
TEXT
  5
145973
  8
SLIM
 10
5811.8000000000002
 20
-1718.9999999999991
 30
0.0
 40
28.0
  1
※ 対応スラブ厚　150mm以上
 41
0.75
  0
TEXT
  5
145974
  8
SLIM
 10
5611.5
 20
-1812.333333333333
 30
0.0
 40
28.0
  1
国土交通大臣認定・（財）日本消防設備安全センター性能評定取得品
 41
0.75
  0
TEXT
  5
145975
  8
SLIM
 10
5631.1000000000004
 20
-1859.0
 30
0.0
 40
28.0
  1
注）ご採用にあたり、認定書及び評定書の内容をご確認ください。
 41
0.75
  0
TEXT
  5
145976
  8
SLIM
 10
11824.6
 20
-1677.9999999999959
 30
0.0
 40
28.0
  1
※ 対応スラブ厚　150～260
 41
0.75
  0
TEXT
  5
145977
  8
SLIM
 10
11611.5
 20
-1771.3333333333301
 30
0.0
 40
28.0
  1
国土交通大臣認定・（財）日本消防設備安全センター性能評定取得品
 41
0.75
  0
TEXT
  5
145978
  8
SLIM
 10
11631.1
 20
-1817.999999999997
 30
0.0
 40
28.0
  1
注）ご採用にあたり、認定書及び評定書の内容をご確認ください。
 41
0.75
  0
TEXT
  5
145979
  8
SLIM
 10
9824.6000000000004
 20
-1677.9999999999959
 30
0.0
 40
28.0
  1
※ 対応スラブ厚　180～260
 41
0.75
  0
TEXT
  5
14597A
  8
SLIM
 10
9611.5000000000018
 20
-1771.3333333333301
 30
0.0
 40
28.0
  1
国土交通大臣認定・（財）日本消防設備安全センター性能評定取得品
 41
0.75
  0
TEXT
  5
14597B
  8
SLIM
 10
9631.1000000000004
 20
-1817.999999999997
 30
0.0
 40
28.0
  1
注）ご採用にあたり、認定書及び評定書の内容をご確認ください。
 41
0.75
  0
TEXT
  5
14597C
  8
SLIM
 10
7771.3999999999987
 20
-1410.6666666666649
 30
0.0
 40
28.0
  1
※ 対応スラブ厚　180｛150｝～220
 41
0.75
  0
TEXT
  5
14597D
  8
SLIM
 10
7733.2999999999975
 20
-1457.333333333331
 30
0.0
 40
28.0
  1
｛｝内はカンペイ立て管との組み合わせの場合
 41
0.75
  0
TEXT
  5
14597E
  8
SLIM
 10
7611.4999999999982
 20
-1550.6666666666649
 30
0.0
 40
28.0
  1
国土交通大臣認定・（財）日本消防設備安全センター性能評定取得品
 41
0.75
  0
TEXT
  5
14597F
  8
SLIM
 10
7631.1000000000004
 20
-1597.3333333333319
 30
0.0
 40
28.0
  1
注）ご採用にあたり、認定書及び評定書の内容をご確認ください。
 41
0.75
  0
TEXT
  5
145980
  8
SLIM
 10
9739.1250000000018
 20
-1621.4999999999959
 30
0.0
 40
35.0
  1
両受けスタイル（W）＋シンドカット
 41
0.75
  0
TEXT
  5
145981
  8
SLIM
 10
11743.5
 20
-1621.4999999999959
 30
0.0
 40
35.0
  1
カンペイ君（WKP）＋シンドカット
 41
0.75
  0
TEXT
  5
145982
  8
SLIM
 10
7741.625
 20
-1347.499999999998
 30
0.0
 40
35.0
  1
片受けスタイル（S）＋シンドカット
 41
0.75
  0
TEXT
  5
145983
  8
SLIM
 10
5858.1250000000009
 20
-1662.4999999999991
 30
0.0
 40
35.0
  1
カンペイ君（WKP）
 41
0.75
  0
TEXT
  5
145984
  8
SLIM
 10
1856.25
 20
-1347.499999999998
 30
0.0
 40
35.0
  1
片受けスタイル（S）
 41
0.75
  0
TEXT
  5
145985
  8
SLIM
 10
0.0
 20
370.0
 30
0.0
 40
100.0
  1
4SL-JRX-WKP
 41
0.75
  0
VIEWPORT
  5
F6BA7
 67
     1
  8
0
 10
173.9657252236004
 20
101.8328354358673
 30
0.0
 40
391.2732773398352
 41
222.19657968139651
 68
     1
 69
     1
1001
ACAD
1000
MVIEW
1002
{
1070
    16
1010
0.0
1020
0.0
1030
0.0
1010
0.0
1020
0.0
1030
1.0
1040
0.0
1040
222.19657968139651
1040
173.9657252236004
1040
101.8328354358673
1040
50.0
1040
0.0
1040
0.0
1070
     0
1070
     0
1070
     1
1070
     1
1070
     0
1070
     0
1070
     0
1070
     0
1040
0.0
1040
0.0
1040
0.0
1040
10.0
1040
10.0
1040
10.0
1040
10.0
1070
     0
1002
{
1002
}
1002
}
  0
VIEWPORT
  5
F6BA9
 67
     1
  8
OBJECT
 10
145.3303314447403
 20
101.8328338861465
 30
0.0
 40
232.5285303115844
 41
162.93253421783439
 68
     2
 69
     2
1001
ACAD
1000
MVIEW
1002
{
1070
    16
1010
0.0
1020
0.0
1030
0.0
1010
0.0
1020
0.0
1030
1.0
1040
0.0
1040
25942.55904403147
1040
2377.604457077377
1040
-7591.5176687056619
1040
50.0
1040
0.0
1040
0.0
1070
     0
1070
   600
1070
     1
1070
     1
1070
     0
1070
     0
1070
     0
1070
     0
1040
0.0
1040
0.0
1040
0.0
1040
1.0
1040
1.0
1040
0.0
1040
0.0
1070
     0
1002
{
1002
}
1002
}
  0
ENDSEC
  0
EOF
