  0
SECTION
  2
HEADER
  9
$ACADVER
  1
AC1009
  9
$INSBASE
 10
0.0
 20
0.0
 30
0.0
  9
$EXTMIN
 10
-0.0000000000002274
 20
-3982.4999999999982
 30
0.0
  9
$EXTMAX
 10
12887.100000000009
 20
770.0
 30
0.0
  9
$LIMMIN
 10
0.0
 20
0.0
  9
$LIMMAX
 10
210.0
 20
297.0
  9
$ORTHOMODE
 70
     0
  9
$REGENMODE
 70
     1
  9
$FILLMODE
 70
     1
  9
$QTEXTMODE
 70
     0
  9
$MIRRTEXT
 70
     0
  9
$DRAGMODE
 70
     2
  9
$LTSCALE
 40
1.0
  9
$OSMODE
 70
  2557
  9
$ATTMODE
 70
     1
  9
$TEXTSIZE
 40
4.0
  9
$TRACEWID
 40
0.05
  9
$TEXTSTYLE
  7
STANDARD
  9
$CLAYER
  8
OBJECT
  9
$CELTYPE
  6
BYLAYER
  9
$CECOLOR
 62
   256
  9
$DIMSCALE
 40
10.0
  9
$DIMASZ
 40
2.0
  9
$DIMEXO
 40
1.0
  9
$DIMDLI
 40
10.0
  9
$DIMRND
 40
0.0
  9
$DIMDLE
 40
0.0
  9
$DIMEXE
 40
1.0
  9
$DIMTP
 40
0.0
  9
$DIMTM
 40
0.0
  9
$DIMTXT
 40
3.2000000000000002
  9
$DIMCEN
 40
0.0
  9
$DIMTSZ
 40
0.0
  9
$DIMTOL
 70
     0
  9
$DIMLIM
 70
     0
  9
$DIMTIH
 70
     0
  9
$DIMTOH
 70
     0
  9
$DIMSE1
 70
     0
  9
$DIMSE2
 70
     0
  9
$DIMTAD
 70
     1
  9
$DIMZIN
 70
     8
  9
$DIMBLK
  1
OPEN30
  9
$DIMASO
 70
     1
  9
$DIMSHO
 70
     1
  9
$DIMPOST
  1

  9
$DIMAPOST
  1

  9
$DIMALT
 70
     0
  9
$DIMALTD
 70
     2
  9
$DIMALTF
 40
25.399999999999999
  9
$DIMLFAC
 40
1.0
  9
$DIMTOFL
 70
     1
  9
$DIMTVP
 40
0.0
  9
$DIMTIX
 70
     0
  9
$DIMSOXD
 70
     0
  9
$DIMSAH
 70
     0
  9
$DIMBLK1
  1

  9
$DIMBLK2
  1

  9
$DIMSTYLE
  2
S10
  9
$DIMCLRD
 70
   256
  9
$DIMCLRE
 70
   256
  9
$DIMCLRT
 70
   256
  9
$DIMTFAC
 40
1.0
  9
$DIMGAP
 40
0.9
  9
$LUNITS
 70
     2
  9
$LUPREC
 70
     2
  9
$SKETCHINC
 40
0.1
  9
$FILLETRAD
 40
0.0
  9
$AUNITS
 70
     0
  9
$AUPREC
 70
     2
  9
$MENU
  1
ACAD
  9
$ELEVATION
 40
0.0
  9
$PELEVATION
 40
0.0
  9
$THICKNESS
 40
0.0
  9
$LIMCHECK
 70
     0
  9
$BLIPMODE
 70
     0
  9
$CHAMFERA
 40
2.0
  9
$CHAMFERB
 40
2.0
  9
$SKPOLY
 70
     0
  9
$TDCREATE
 40
2453095.4929404748
  9
$TDUPDATE
 40
2456570.6829232522
  9
$TDINDWG
 40
18.7011344097
  9
$TDUSRTIMER
 40
18.7011335069
  9
$USRTIMER
 70
     1
  9
$ANGBASE
 50
0.0
  9
$ANGDIR
 70
     0
  9
$PDMODE
 70
    35
  9
$PDSIZE
 40
2.0
  9
$PLINEWID
 40
0.0
  9
$COORDS
 70
     1
  9
$SPLFRAME
 70
     0
  9
$SPLINETYPE
 70
     6
  9
$SPLINESEGS
 70
     8
  9
$ATTDIA
 70
     1
  9
$ATTREQ
 70
     1
  9
$HANDLING
 70
     1
  9
$HANDSEED
  5
126786
  9
$SURFTAB1
 70
     6
  9
$SURFTAB2
 70
     6
  9
$SURFTYPE
 70
     6
  9
$SURFU
 70
     6
  9
$SURFV
 70
     6
  9
$UCSNAME
  2

  9
$UCSORG
 10
0.0
 20
0.0
 30
0.0
  9
$UCSXDIR
 10
1.0
 20
0.0
 30
0.0
  9
$UCSYDIR
 10
0.0
 20
1.0
 30
0.0
  9
$PUCSNAME
  2

  9
$PUCSORG
 10
0.0
 20
0.0
 30
0.0
  9
$PUCSXDIR
 10
1.0
 20
0.0
 30
0.0
  9
$PUCSYDIR
 10
0.0
 20
1.0
 30
0.0
  9
$USERI1
 70
     0
  9
$USERI2
 70
     0
  9
$USERI3
 70
     0
  9
$USERI4
 70
     0
  9
$USERI5
 70
     0
  9
$USERR1
 40
0.0
  9
$USERR2
 40
0.0
  9
$USERR3
 40
0.0
  9
$USERR4
 40
0.0
  9
$USERR5
 40
0.0
  9
$WORLDVIEW
 70
     1
  9
$SHADEDGE
 70
     3
  9
$SHADEDIF
 70
    70
  9
$TILEMODE
 70
     1
  9
$MAXACTVP
 70
    64
  9
$PLIMCHECK
 70
     0
  9
$PEXTMIN
 10
29.066066288948051
 20
20.366566777229309
 30
0.0
  9
$PEXTMAX
 10
261.5945966005325
 20
183.29910099506381
 30
0.0
  9
$PLIMMIN
 10
-3.17498779296875
 20
-3.1749999523162842
  9
$PLIMMAX
 10
293.83566284179687
 20
206.8406708240509
  9
$UNITMODE
 70
     0
  9
$VISRETAIN
 70
     1
  9
$PLINEGEN
 70
     0
  9
$PSLTSCALE
 70
     1
  0
ENDSEC
  0
SECTION
  2
TABLES
  0
TABLE
  2
VPORT
 70
     1
  0
VPORT
  2
*ACTIVE
 70
     0
 10
0.0
 20
0.0
 11
1.0
 21
1.0
 12
8365.2201250015059
 22
-3262.8545544151712
 13
0.0
 23
0.0
 14
1.0
 24
1.0
 15
0.0
 25
0.0
 16
0.0
 26
0.0
 36
1.0
 17
0.0
 27
0.0
 37
0.0
 40
13499.17826814725
 41
1.9585253456221201
 42
50.0
 43
0.0
 44
0.0
 50
0.0
 51
0.0
 71
     0
 72
   600
 73
     1
 74
     1
 75
     0
 76
     0
 77
     0
 78
     0
  0
ENDTAB
  0
TABLE
  2
LTYPE
 70
     3
  0
LTYPE
  2
CONTINUOUS
 70
     0
  3
Solid line
 72
    65
 73
     0
 40
0.0
  0
LTYPE
  2
ACAD_ISO08W100
 70
     0
  3
ISO long-dash short-dash ____ __ ____ __ ____ _
 72
    65
 73
     4
 40
36.0
 49
24.0
 49
-3.0
 49
6.0
 49
-3.0
  0
LTYPE
  2
ACAD_ISO02W100
 70
     0
  3
ISO dash __ __ __ __ __ __ __ __ __ __ __ __ __
 72
    65
 73
     2
 40
15.0
 49
12.0
 49
-3.0
  0
ENDTAB
  0
TABLE
  2
LAYER
 70
     8
  0
LAYER
  2
0
 70
     0
 62
     7
  6
CONTINUOUS
  0
LAYER
  2
OBJECT
 70
     0
 62
     4
  6
CONTINUOUS
  0
LAYER
  2
DEFPOINTS
 70
     0
 62
     7
  6
CONTINUOUS
  0
LAYER
  2
DIM
 70
     0
 62
     7
  6
CONTINUOUS
  0
LAYER
  2
HIDDEN
 70
     0
 62
     2
  6
ACAD_ISO02W100
  0
LAYER
  2
CENTER
 70
     0
 62
     2
  6
ACAD_ISO08W100
  0
LAYER
  2
DOTS
 70
     0
 62
     1
  6
CONTINUOUS
  0
LAYER
  2
SLIM
 70
     0
 62
     2
  6
CONTINUOUS
  0
ENDTAB
  0
TABLE
  2
STYLE
 70
     2
  0
STYLE
  2
STANDARD
 70
     0
 40
0.0
 41
0.75
 50
0.0
 71
     0
 42
4.0
  3
simplex.shx
  4
bigfont.shx
  0
ENDTAB
  0
TABLE
  2
VIEW
 70
     0
  0
ENDTAB
  0
TABLE
  2
UCS
 70
     0
  0
ENDTAB
  0
TABLE
  2
APPID
 70
    20
  0
APPID
  2
ACAD
 70
     0
  0
APPID
  2
ACADANNOTATIVE
 70
     0
  0
APPID
  2
ACAD_PSEXT
 70
     0
  0
APPID
  2
ACAD_EXEMPT_FROM_CAD_STANDARDS
 70
     0
  0
APPID
  2
ACAECLAYERSTANDARD
 70
     0
  0
APPID
  2
ACAUTHENVIRON
 70
     0
  0
APPID
  2
ACDBDYNAMICBLOCKTRUENAME
 70
     0
  0
APPID
  2
ACDBDYNAMICBLOCKGUID
 70
     0
  0
APPID
  2
ACDBBLOCKREPETAG
 70
     0
  0
APPID
  2
ACDBBLOCKREPBTAG
 70
     0
  0
APPID
  2
ACAD_NAV_VCDISPLAY
 70
     0
  0
APPID
  2
ACAD_DSTYLE_DIMRADIAL_EXTENSION
 70
     0
  0
APPID
  2
ACAD_DSTYLE_DIMJAG
 70
     0
  0
APPID
  2
ACAD_DSTYLE_DIMTALN
 70
     0
  0
APPID
  2
ACADANNOPO
 70
     0
  0
APPID
  2
GRADIENTCOLOR1ACI
 70
     0
  0
APPID
  2
GRADIENTCOLOR2ACI
 70
     0
  0
APPID
  2
ACADANNOMONITORALERTICONDI
 70
     0
  0
APPID
  2
CONTENTBLOCKICON
 70
     0
  0
APPID
  2
ACAD_MLEADERVER
 70
     0
  0
ENDTAB
  0
TABLE
  2
DIMSTYLE
 70
     3
  0
DIMSTYLE
  2
STANDARD
 70
     0
  3

  4

  5

  6

  7

 40
1.0
 41
0.18
 42
0.0625
 43
0.38
 44
0.18
 45
0.0
 46
0.0
 47
0.0
 48
0.0
140
0.18
141
0.09
142
0.0
143
25.399999999999999
144
1.0
145
0.0
146
1.0
147
0.09
 71
     0
 72
     0
 73
     1
 74
     1
 75
     0
 76
     0
 77
     0
 78
     0
170
     0
171
     2
172
     0
173
     0
174
     0
175
     0
176
     0
177
     0
178
     0
  0
DIMSTYLE
  2
S10
 70
     0
  3

  4

  5

  6

  7

 40
10.0
 41
2.0
 42
1.0
 43
10.0
 44
1.0
 45
0.0
 46
0.0
 47
0.0
 48
0.0
140
3.2000000000000002
141
0.0
142
0.0
143
25.399999999999999
144
1.0
145
0.0
146
1.0
147
0.9
 71
     0
 72
     0
 73
     0
 74
     0
 75
     0
 76
     0
 77
     1
 78
     8
170
     0
171
     2
172
     1
173
     0
174
     0
175
     0
176
   256
177
   256
178
   256
  0
ENDTAB
  0
ENDSEC
  0
SECTION
  2
BLOCKS
  0
BLOCK
  8
0
  2
$MODEL_SPACE
 70
     0
 10
0.0
 20
0.0
 30
0.0
  3
$MODEL_SPACE
  1

  0
ENDBLK
  5
126672
  8
0
  0
BLOCK
 67
     1
  8
0
  2
$PAPER_SPACE
 70
     0
 10
0.0
 20
0.0
 30
0.0
  3
$PAPER_SPACE
  1

  0
ENDBLK
  5
12666E
 67
     1
  8
0
  0
BLOCK
  8
0
  2
_OPEN30
 70
     0
 10
0.0
 20
0.0
 30
0.0
  3
_OPEN30
  1

  0
LINE
  5
202
  8
0
  6
BYBLOCK
 62
     0
 10
-1.0
 20
0.26794919
 30
0.0
 11
0.0
 21
0.0
 31
0.0
  0
LINE
  5
203
  8
0
  6
BYBLOCK
 62
     0
 10
0.0
 20
0.0
 30
0.0
 11
-1.0
 21
-0.26794919
 31
0.0
  0
LINE
  5
204
  8
0
  6
BYBLOCK
 62
     0
 10
0.0
 20
0.0
 30
0.0
 11
-1.0
 21
0.0
 31
0.0
  0
ENDBLK
  5
206
  8
0
  0
BLOCK
  8
0
  2
*U3
 70
     1
 10
0.0
 20
0.0
 30
0.0
  3
*U3
  1

  0
TEXT
  5
12637F
  8
SLIM
 10
158.95238095238801
 20
-1546.999999999998
 30
0.0
 40
26.0
  1
75
  0
ENDBLK
  5
126381
  8
0
  0
BLOCK
  8
0
  2
*U4
 70
     1
 10
0.0
 20
0.0
 30
0.0
  3
*U4
  1

  0
TEXT
  5
126383
  8
SLIM
 10
518.95238095238801
 20
-1082.999999999998
 30
0.0
 40
26.0
  1
65
  0
ENDBLK
  5
126385
  8
0
  0
BLOCK
  8
0
  2
*U5
 70
     1
 10
0.0
 20
0.0
 30
0.0
  3
*U5
  1

  0
TEXT
  5
126387
  8
SLIM
 10
158.95238095238801
 20
-1082.999999999998
 30
0.0
 40
26.0
  1
50
  0
ENDBLK
  5
126389
  8
0
  0
BLOCK
  8
0
  2
*U6
 70
     1
 10
0.0
 20
0.0
 30
0.0
  3
*U6
  1

  0
TEXT
  5
12638B
  8
DIM
 10
12700.424581672751
 20
-864.00000000000364
 30
0.0
 40
32.0
  1
P
 50
90.0
 41
0.75
  0
ENDBLK
  5
12638D
  8
0
  0
BLOCK
  8
0
  2
*U7
 70
     1
 10
0.0
 20
0.0
 30
0.0
  3
*U7
  1

  0
TEXT
  5
12638F
  8
DIM
 10
12293.14939336144
 20
-1325.4571428571439
 30
0.0
 40
32.0
  1
610-P（シンドカット）
 50
90.0
 41
0.75
  0
ENDBLK
  5
126391
  8
0
  0
BLOCK
  8
0
  2
*U8
 70
     1
 10
0.0
 20
0.0
 30
0.0
  3
*U8
  1

  0
TEXT
  5
126393
  8
DIM
 10
10700.424581672751
 20
-864.00000000000387
 30
0.0
 40
32.0
  1
P
 50
90.0
 41
0.75
  0
ENDBLK
  5
126395
  8
0
  0
BLOCK
  8
0
  2
*U9
 70
     1
 10
0.0
 20
0.0
 30
0.0
  3
*U9
  1

  0
TEXT
  5
126397
  8
DIM
 10
10293.14939336144
 20
-1325.4571428571451
 30
0.0
 40
32.0
  1
610-P（シンドカット）
 50
90.0
 41
0.75
  0
ENDBLK
  5
126399
  8
0
  0
BLOCK
  8
0
  2
*U10
 70
     1
 10
0.0
 20
0.0
 30
0.0
  3
*U10
  1

  0
TEXT
  5
12639B
  8
DIM
 10
8700.4245816727544
 20
-864.00000000000409
 30
0.0
 40
32.0
  1
P
 50
90.0
 41
0.75
  0
ENDBLK
  5
12639D
  8
0
  0
BLOCK
  8
0
  2
*U11
 70
     1
 10
0.0
 20
0.0
 30
0.0
  3
*U11
  1

  0
TEXT
  5
12639F
  8
DIM
 10
6700.4245816727562
 20
-863.99999999999875
 30
0.0
 40
32.0
  1
P
 50
90.0
 41
0.75
  0
ENDBLK
  5
1263A1
  8
0
  0
BLOCK
  8
0
  2
*U12
 70
     1
 10
0.0
 20
0.0
 30
0.0
  3
*U12
  1

  0
TEXT
  5
1263A3
  8
DIM
 10
4700.4245816727562
 20
-863.99999999999955
 30
0.0
 40
32.0
  1
P
 50
90.0
 41
0.75
  0
ENDBLK
  5
1263A5
  8
0
  0
BLOCK
  8
0
  2
*U13
 70
     1
 10
0.0
 20
0.0
 30
0.0
  3
*U13
  1

  0
TEXT
  5
1263BB
  8
SLIM
 10
158.9523809524228
 20
-130.00000000017181
 30
0.0
 40
26.0
  1
75
  0
ENDBLK
  5
1263BD
  8
0
  0
BLOCK
  8
0
  2
*U14
 70
     1
 10
0.0
 20
0.0
 30
0.0
  3
*U14
  1

  0
TEXT
  5
1263BF
  8
DIM
 10
8293.1493933614402
 20
-1307.7428571428611
 30
0.0
 40
32.0
  1
570-P（シンドカット）
 50
90.0
 41
0.75
  0
ENDBLK
  5
1263C1
  8
0
  0
BLOCK
  8
0
  2
*U15
 70
     1
 10
0.0
 20
0.0
 30
0.0
  3
*U15
  1

  0
TEXT
  5
1263C3
  8
DIM
 10
2700.4245816727562
 20
-863.99999999999955
 30
0.0
 40
32.0
  1
P
 50
90.0
 41
0.75
  0
ENDBLK
  5
1263C5
  8
0
  0
BLOCK
  8
0
  2
*U16
 70
     1
 10
0.0
 20
0.0
 30
0.0
  3
*U16
  1

  0
TEXT
  5
1263C7
  8
DIM
 10
2709.479620594459
 20
-3469.1428571428528
 30
0.0
 40
32.0
  1
A
 50
90.0
 41
0.75
  0
ENDBLK
  5
1263C9
  8
0
  0
BLOCK
  8
0
  2
*U17
 70
     1
 10
0.0
 20
0.0
 30
0.0
  3
*U17
  1

  0
TEXT
  5
1263CB
  8
DIM
 10
2707.840928403733
 20
-3850.9999999999968
 30
0.0
 40
32.0
  1
B
 50
90.0
 41
0.75
  0
ENDBLK
  5
1263CD
  8
0
  0
BLOCK
  8
0
  2
*U18
 70
     1
 10
0.0
 20
0.0
 30
0.0
  3
*U18
  1

  0
TEXT
  5
1263CF
  8
DIM
 10
2561.4285714285711
 20
-3323.208121984444
 30
0.0
 40
32.0
  1
C
 41
0.75
  0
ENDBLK
  5
1263D1
  8
0
  0
ENDSEC
  0
SECTION
  2
ENTITIES
  0
LINE
  5
11273E
  8
OBJECT
 10
2325.0
 20
-3864.9999999999968
 30
0.0
 11
5075.0
 21
-3864.9999999999968
 31
0.0
  0
LINE
  5
11412B
  8
SLIM
 10
3256.0
 20
-2922.5000160472709
 30
0.0
 11
3256.0
 21
-3252.5000160472709
 31
0.0
  0
LINE
  5
11412C
  8
SLIM
 10
3380.0
 20
-2922.5000160472709
 30
0.0
 11
3380.0
 21
-3252.5000160472709
 31
0.0
  0
LINE
  5
11412D
  8
SLIM
 10
3510.0
 20
-2982.50001604727
 30
0.0
 11
3510.0
 21
-3252.5000160472709
 31
0.0
  0
LINE
  5
11412E
  8
SLIM
 10
3640.0
 20
-2982.50001604727
 30
0.0
 11
3640.0
 21
-3252.5000160472709
 31
0.0
  0
LINE
  5
11412F
  8
SLIM
 10
3770.0
 20
-3252.5000160472709
 30
0.0
 11
3770.0
 21
-2922.5000160472709
 31
0.0
  0
LINE
  5
114131
  8
SLIM
 10
3770.0
 20
-2922.5000160472709
 30
0.0
 11
3256.0
 21
-2922.5000160472709
 31
0.0
  0
LINE
  5
114132
  8
SLIM
 10
3769.9999999999991
 20
-2982.50001604727
 30
0.0
 11
3380.0
 21
-2982.50001604727
 31
0.0
  0
LINE
  5
114133
  8
SLIM
 10
3770.0
 20
-3042.5000160472709
 30
0.0
 11
3256.0
 21
-3042.5000160472709
 31
0.0
  0
LINE
  5
114134
  8
SLIM
 10
3770.0
 20
-3112.5000160472709
 30
0.0
 11
3256.0
 21
-3112.5000160472709
 31
0.0
  0
LINE
  5
114135
  8
SLIM
 10
3770.0
 20
-3182.5000160472709
 30
0.0
 11
3256.0
 21
-3182.5000160472709
 31
0.0
  0
LINE
  5
114136
  8
SLIM
 10
3770.0
 20
-3252.5000160472709
 30
0.0
 11
3256.0
 21
-3252.5000160472709
 31
0.0
  0
LINE
  5
11414B
  8
SLIM
 10
3380.0
 20
-3042.5000160472709
 30
0.0
 11
3255.9999722746579
 21
-2922.5000000000018
 31
0.0
  0
LINE
  5
1238B4
  8
CENTER
 10
2579.9999999999991
 20
-3459.9999999999968
 30
0.0
 11
2409.9999999999991
 21
-3459.9999999999968
 31
0.0
1001
ACDBBLOCKREPETAG
1070
     1
1071
       14
1005
122545
  0
LINE
  5
1238B5
  8
CENTER
 10
2500.0
 20
-3549.9999999999968
 30
0.0
 11
2500.0
 21
-3369.9999999999968
 31
0.0
1001
ACDBBLOCKREPETAG
1070
     1
1071
       15
1005
122546
  0
CIRCLE
  5
1238B6
  8
OBJECT
 10
2500.0
 20
-3459.9999999999968
 30
0.0
 40
70.0
1001
ACDBBLOCKREPETAG
1070
     1
1071
       16
1005
122547
  0
CIRCLE
  5
1238B7
  8
OBJECT
 10
2500.0
 20
-3459.9999999999968
 30
0.0
 40
75.0
1001
ACDBBLOCKREPETAG
1070
     1
1071
       17
1005
122548
  0
LINE
  5
123927
  8
CENTER
 10
2500.0
 20
-3644.9999999999991
 30
0.0
 11
2500.0
 21
-3891.9999999999991
 31
0.0
1001
ACDBBLOCKREPETAG
1070
     1
1071
       25
1005
123927
  0
LINE
  5
123928
  8
OBJECT
 10
2425.0
 20
-3659.9999999999968
 30
0.0
 11
2425.0
 21
-3879.9999999999991
 31
0.0
1001
ACDBBLOCKREPETAG
1070
     1
1071
       26
1005
123928
  0
LINE
  5
12392C
  8
OBJECT
 10
2575.0
 20
-3659.9999999999968
 30
0.0
 11
2575.0
 21
-3756.5000000000618
 31
0.0
1001
ACDBBLOCKREPETAG
1070
     1
1071
       34
1005
12392C
  0
LINE
  5
123A5C
  8
OBJECT
 10
2575.0
 20
-3862.4999999999991
 30
0.0
 11
2575.0
 21
-3879.9999999999991
 31
0.0
1001
ACDBBLOCKREPETAG
1070
     1
1071
       34
1005
12392C
  0
LINE
  5
123A5E
  8
CENTER
 10
2900.0
 20
-3644.9999999999991
 30
0.0
 11
2900.0
 21
-3891.9999999999991
 31
0.0
1001
ACDBBLOCKREPETAG
1070
     1
1071
       25
1005
123927
  0
LINE
  5
123A5F
  8
OBJECT
 10
2825.0
 20
-3659.9999999999968
 30
0.0
 11
2825.0
 21
-3879.9999999999991
 31
0.0
1001
ACDBBLOCKREPETAG
1070
     1
1071
       26
1005
123928
  0
LINE
  5
123A60
  8
OBJECT
 10
2975.0
 20
-3659.9999999999968
 30
0.0
 11
2975.0
 21
-3879.9999999999991
 31
0.0
1001
ACDBBLOCKREPETAG
1070
     1
1071
       34
1005
12392C
  0
LINE
  5
123AD2
  8
CENTER
 10
3579.9999999999991
 20
-3459.9999999999968
 30
0.0
 11
3410.0
 21
-3459.9999999999968
 31
0.0
1001
ACDBBLOCKREPETAG
1070
     1
1071
       14
1005
122545
  0
LINE
  5
123AD3
  8
CENTER
 10
3500.0
 20
-3549.9999999999968
 30
0.0
 11
3500.0
 21
-3369.9999999999968
 31
0.0
1001
ACDBBLOCKREPETAG
1070
     1
1071
       15
1005
122546
  0
CIRCLE
  5
123AD4
  8
OBJECT
 10
3500.0
 20
-3459.9999999999968
 30
0.0
 40
70.0
1001
ACDBBLOCKREPETAG
1070
     1
1071
       16
1005
122547
  0
CIRCLE
  5
123AD5
  8
OBJECT
 10
3500.0
 20
-3459.9999999999968
 30
0.0
 40
75.0
1001
ACDBBLOCKREPETAG
1070
     1
1071
       17
1005
122548
  0
LINE
  5
123ADD
  8
CENTER
 10
3500.0
 20
-3644.9999999999991
 30
0.0
 11
3500.0
 21
-3891.9999999999991
 31
0.0
1001
ACDBBLOCKREPETAG
1070
     1
1071
       25
1005
123927
  0
LINE
  5
123ADE
  8
OBJECT
 10
3424.9999999999991
 20
-3659.9999999999968
 30
0.0
 11
3424.9999999999991
 21
-3879.9999999999991
 31
0.0
1001
ACDBBLOCKREPETAG
1070
     1
1071
       26
1005
123928
  0
LINE
  5
123ADF
  8
OBJECT
 10
3574.9999999999991
 20
-3659.9999999999968
 30
0.0
 11
3574.9999999999991
 21
-3756.5000000000618
 31
0.0
1001
ACDBBLOCKREPETAG
1070
     1
1071
       34
1005
12392C
  0
LINE
  5
123AE0
  8
OBJECT
 10
3574.9999999999991
 20
-3862.4999999999991
 30
0.0
 11
3574.9999999999991
 21
-3879.9999999999991
 31
0.0
1001
ACDBBLOCKREPETAG
1070
     1
1071
       34
1005
12392C
  0
LINE
  5
123AE8
  8
CENTER
 10
3900.0
 20
-3644.9999999999991
 30
0.0
 11
3900.0
 21
-3891.9999999999991
 31
0.0
1001
ACDBBLOCKREPETAG
1070
     1
1071
       25
1005
123927
  0
LINE
  5
123AE9
  8
OBJECT
 10
3824.9999999999991
 20
-3659.9999999999968
 30
0.0
 11
3824.9999999999991
 21
-3879.9999999999991
 31
0.0
1001
ACDBBLOCKREPETAG
1070
     1
1071
       26
1005
123928
  0
LINE
  5
123AEA
  8
OBJECT
 10
3975.0
 20
-3659.9999999999968
 30
0.0
 11
3975.0
 21
-3879.9999999999991
 31
0.0
1001
ACDBBLOCKREPETAG
1070
     1
1071
       34
1005
12392C
  0
LINE
  5
123B38
  8
CENTER
 10
4579.9999999999991
 20
-3459.9999999999968
 30
0.0
 11
4409.9999999999991
 21
-3459.9999999999968
 31
0.0
1001
ACDBBLOCKREPETAG
1070
     1
1071
       14
1005
122545
  0
LINE
  5
123B39
  8
CENTER
 10
4499.9999999999991
 20
-3549.9999999999968
 30
0.0
 11
4499.9999999999991
 21
-3369.9999999999968
 31
0.0
1001
ACDBBLOCKREPETAG
1070
     1
1071
       15
1005
122546
  0
CIRCLE
  5
123B3A
  8
OBJECT
 10
4499.9999999999991
 20
-3459.9999999999968
 30
0.0
 40
70.0
1001
ACDBBLOCKREPETAG
1070
     1
1071
       16
1005
122547
  0
CIRCLE
  5
123B3B
  8
OBJECT
 10
4499.9999999999991
 20
-3459.9999999999968
 30
0.0
 40
75.0
1001
ACDBBLOCKREPETAG
1070
     1
1071
       17
1005
122548
  0
LINE
  5
123B43
  8
CENTER
 10
4500.0
 20
-3644.9999999999991
 30
0.0
 11
4500.0
 21
-3891.9999999999991
 31
0.0
1001
ACDBBLOCKREPETAG
1070
     1
1071
       25
1005
123927
  0
LINE
  5
123B44
  8
OBJECT
 10
4425.0
 20
-3659.9999999999968
 30
0.0
 11
4425.0
 21
-3879.9999999999991
 31
0.0
1001
ACDBBLOCKREPETAG
1070
     1
1071
       26
1005
123928
  0
LINE
  5
123B45
  8
OBJECT
 10
4575.0
 20
-3659.9999999999968
 30
0.0
 11
4575.0
 21
-3756.5000000000618
 31
0.0
1001
ACDBBLOCKREPETAG
1070
     1
1071
       34
1005
12392C
  0
LINE
  5
123B46
  8
OBJECT
 10
4575.0
 20
-3862.4999999999991
 30
0.0
 11
4575.0
 21
-3879.9999999999991
 31
0.0
1001
ACDBBLOCKREPETAG
1070
     1
1071
       34
1005
12392C
  0
LINE
  5
123B4E
  8
CENTER
 10
4900.0
 20
-3644.9999999999991
 30
0.0
 11
4900.0
 21
-3891.9999999999991
 31
0.0
1001
ACDBBLOCKREPETAG
1070
     1
1071
       25
1005
123927
  0
LINE
  5
123B4F
  8
OBJECT
 10
4825.0
 20
-3659.9999999999968
 30
0.0
 11
4825.0
 21
-3879.9999999999991
 31
0.0
1001
ACDBBLOCKREPETAG
1070
     1
1071
       26
1005
123928
  0
LINE
  5
123B50
  8
OBJECT
 10
4975.0
 20
-3659.9999999999968
 30
0.0
 11
4974.9999999999991
 21
-3879.9999999999991
 31
0.0
1001
ACDBBLOCKREPETAG
1070
     1
1071
       34
1005
12392C
  0
LINE
  5
12443E
  8
OBJECT
 10
8524.1029330933015
 20
-243.80694712371681
 30
0.0
 11
8520.6596569999983
 21
-232.55462199999889
 31
0.0
1001
ACDBBLOCKREPETAG
1070
     1
1071
      300
1005
12253B
  0
LINE
  5
12443F
  8
OBJECT
 10
8486.7927499013731
 20
-218.22553374208019
 30
0.0
 11
8520.6596569999983
 21
-232.5546219999969
 31
0.0
1001
ACDBBLOCKREPETAG
1070
     1
1071
      302
1005
12253C
  0
ARC
  5
124440
  8
OBJECT
 10
8482.8961697618979
 20
-227.4351299990567
 30
0.0
 40
10.0
 50
67.066778292909561
 51
154.0147343702935
1001
ACDBBLOCKREPETAG
1070
     1
1071
      303
1005
12253D
  0
ARC
  5
124441
  8
OBJECT
 10
8486.1488390381255
 20
-225.55386256729159
 30
0.0
 40
7.0
 50
67.066778292909561
 51
154.0147337749687
1001
ACDBBLOCKREPETAG
1070
     1
1071
      304
1005
12253E
  0
LINE
  5
124442
  8
OBJECT
 10
8469.4199755553018
 20
-243.89888500818171
 30
0.0
 11
8479.8564918232369
 21
-222.48688253356801
 31
0.0
1001
ACDBBLOCKREPETAG
1070
     1
1071
      341
1005
12253F
  0
LINE
  5
124443
  8
OBJECT
 10
8465.2972169006116
 20
-240.71813901882729
 30
0.0
 11
8473.9071022665084
 21
-223.05373004430751
 31
0.0
1001
ACDBBLOCKREPETAG
1070
     1
1071
      342
1005
122540
  0
ARC
  5
124444
  8
OBJECT
 10
8476.5796953073132
 20
-207.1289369828437
 30
0.0
 40
60.031113246032611
 50
314.07020130418528
 51
322.33936106091278
1001
ACDBBLOCKREPETAG
1070
     1
1071
      343
1005
122541
  0
CIRCLE
  5
124445
  8
OBJECT
 10
8500.0
 20
-199.99999999999909
 30
0.0
 40
53.5
1001
ACDBBLOCKREPETAG
1070
     1
1071
      344
1005
122542
  0
POINT
  5
124446
  8
DOTS
 10
8500.0
 20
-199.99999999999909
 30
0.0
 50
270.0
1001
ACDBBLOCKREPETAG
1070
     1
1071
      362
1005
122543
  0
ARC
  5
124447
  8
OBJECT
 10
8500.0
 20
-199.99999999999909
 30
0.0
 40
50.0
 50
298.81994300000611
 51
153.78043883603971
1001
ACDBBLOCKREPETAG
1070
     1
1071
        7
1005
122544
  0
LINE
  5
124448
  8
CENTER
 10
8580.0
 20
-199.99999999999909
 30
0.0
 11
8400.0
 21
-199.99999999999909
 31
0.0
1001
ACDBBLOCKREPETAG
1070
     1
1071
       14
1005
122545
  0
LINE
  5
124449
  8
CENTER
 10
8500.0
 20
-299.99999999999892
 30
0.0
 11
8500.0
 21
-99.999999999999091
 31
0.0
1001
ACDBBLOCKREPETAG
1070
     1
1071
       15
1005
122546
  0
CIRCLE
  5
12444A
  8
OBJECT
 10
8500.0
 20
-199.99999999999909
 30
0.0
 40
70.0
1001
ACDBBLOCKREPETAG
1070
     1
1071
       16
1005
122547
  0
CIRCLE
  5
12444B
  8
OBJECT
 10
8500.0
 20
-199.99999999999909
 30
0.0
 40
77.0
1001
ACDBBLOCKREPETAG
1070
     1
1071
       17
1005
122548
  0
ARC
  5
12444C
  8
OBJECT
 10
8500.0
 20
-199.99999999999909
 30
0.0
 40
80.0
 50
50.80503257386345
 51
309.19496742598341
1001
ACDBBLOCKREPETAG
1070
     1
1071
       18
1005
122549
  0
LINE
  5
12444E
  8
OBJECT
 10
8545.6618002273262
 20
-137.99999999999909
 30
0.0
 11
8580.0
 21
-137.99999999999909
 31
0.0
1001
ACDBBLOCKREPETAG
1070
     1
1071
       19
1005
12254A
  0
LINE
  5
12444F
  8
OBJECT
 10
8545.6618002273262
 20
-261.99999999999909
 30
0.0
 11
8580.0
 21
-261.99999999999909
 31
0.0
1001
ACDBBLOCKREPETAG
1070
     1
1071
       20
1005
12254B
  0
LINE
  5
124450
  8
OBJECT
 10
8367.0
 20
-255.0
 30
0.0
 11
8360.0
 21
-255.0
 31
0.0
1001
ACDBBLOCKREPETAG
1070
     1
1071
       20
1005
12250A
  0
LINE
  5
124451
  8
OBJECT
 10
8360.0
 20
-255.0
 30
0.0
 11
8360.0
 21
-145.0
 31
0.0
1001
ACDBBLOCKREPETAG
1070
     1
1071
       21
1005
12250B
  0
LINE
  5
124452
  8
OBJECT
 10
8360.0
 20
-145.0
 30
0.0
 11
8367.0
 21
-145.0
 31
0.0
1001
ACDBBLOCKREPETAG
1070
     1
1071
       22
1005
12250C
  0
LINE
  5
124453
  8
OBJECT
 10
8367.0
 20
-145.0
 30
0.0
 11
8367.0
 21
-255.0
 31
0.0
1001
ACDBBLOCKREPETAG
1070
     1
1071
       23
1005
12250D
  0
LINE
  5
124454
  8
CENTER
 10
8345.0
 20
-200.0
 30
0.0
 11
8420.0
 21
-200.0
 31
0.0
1001
ACDBBLOCKREPETAG
1070
     1
1071
       24
1005
12250E
  0
LINE
  5
124455
  8
OBJECT
 10
8367.0
 20
-252.0
 30
0.0
 11
8403.0
 21
-252.0
 31
0.0
1001
ACDBBLOCKREPETAG
1070
     1
1071
       25
1005
12250F
  0
LINE
  5
124456
  8
OBJECT
 10
8403.0
 20
-252.0
 30
0.0
 11
8403.0
 21
-148.0
 31
0.0
1001
ACDBBLOCKREPETAG
1070
     1
1071
       26
1005
122510
  0
LINE
  5
124457
  8
OBJECT
 10
8403.0
 20
-148.0
 30
0.0
 11
8367.0
 21
-148.0
 31
0.0
1001
ACDBBLOCKREPETAG
1070
     1
1071
       27
1005
122511
  0
LINE
  5
124458
  8
OBJECT
 10
8407.0
 20
-247.5
 30
0.0
 11
8415.4999999999982
 21
-247.5
 31
0.0
1001
ACDBBLOCKREPETAG
1070
     1
1071
       28
1005
122512
  0
LINE
  5
124459
  8
OBJECT
 10
8415.4999999999982
 20
-152.5
 30
0.0
 11
8407.0
 21
-152.5
 31
0.0
1001
ACDBBLOCKREPETAG
1070
     1
1071
       29
1005
122513
  0
LINE
  5
12445A
  8
OBJECT
 10
8407.0
 20
-152.5
 30
0.0
 11
8407.0
 21
-247.5
 31
0.0
1001
ACDBBLOCKREPETAG
1070
     1
1071
       30
1005
122514
  0
LINE
  5
12445B
  8
OBJECT
 10
8403.0
 20
-252.0
 30
0.0
 11
8407.0
 21
-247.5
 31
0.0
1001
ACDBBLOCKREPETAG
1070
     1
1071
       31
1005
122515
  0
LINE
  5
12445C
  8
OBJECT
 10
8403.0
 20
-148.0
 30
0.0
 11
8407.0
 21
-152.5
 31
0.0
1001
ACDBBLOCKREPETAG
1070
     1
1071
       32
1005
122516
  0
LINE
  5
12445D
  8
OBJECT
 10
8415.5000000000018
 20
-150.5
 30
0.0
 11
8415.4999999999982
 21
-249.5
 31
0.0
1001
ACDBBLOCKREPETAG
1070
     1
1071
       33
1005
122517
  0
LINE
  5
12445E
  8
HIDDEN
 10
8412.0
 20
-238.0
 30
0.0
 11
8412.0
 21
-162.0
 31
0.0
1001
ACDBBLOCKREPETAG
1070
     1
1071
       34
1005
122518
  0
LINE
  5
12445F
  8
OBJECT
 10
8415.4999999999982
 20
-249.5
 30
0.0
 11
8437.1529634747985
 21
-249.5
 31
0.0
1001
ACDBBLOCKREPETAG
1070
     1
1071
       35
1005
122519
  0
LINE
  5
124460
  8
OBJECT
 10
8415.5000000000018
 20
-150.5
 30
0.0
 11
8437.1529634747985
 21
-150.5
 31
0.0
1001
ACDBBLOCKREPETAG
1070
     1
1071
       36
1005
12251A
  0
ARC
  5
124461
  8
OBJECT
 10
8500.0
 20
-199.99999999999909
 30
0.0
 40
85.0
 50
46.837102859708409
 51
144.38379327149369
1001
ACDBBLOCKREPETAG
1070
     1
1071
       18
1005
122549
  0
POINT
  5
124C02
  8
DOTS
 10
2500.0
 20
-3459.9999999999968
 30
0.0
  0
POINT
  5
124C03
  8
DOTS
 10
2500.0
 20
-3864.9999999999968
 30
0.0
  0
POINT
  5
124C05
  8
DOTS
 10
3500.0
 20
-3864.9999999999968
 30
0.0
  0
POINT
  5
124C07
  8
DOTS
 10
3500.0
 20
-3459.9999999999968
 30
0.0
  0
POINT
  5
124C08
  8
DOTS
 10
4499.9999999999991
 20
-3459.9999999999968
 30
0.0
  0
POINT
  5
124C09
  8
DOTS
 10
4499.9999999999991
 20
-3864.9999999999968
 30
0.0
  0
ARC
  5
125898
  8
OBJECT
 10
8500.0
 20
-199.99999999999909
 30
0.0
 40
85.0
 50
215.61620672850799
 51
313.16289714029159
1001
ACDBBLOCKREPETAG
1070
     1
1071
       18
1005
122549
  0
LINE
  5
1258AA
  8
OBJECT
 10
8454.3220385552486
 20
-176.17579607525019
 30
0.0
 11
8453.0174047416567
 21
-174.4092645125165
 31
0.0
1001
ACDBBLOCKREPETAG
1070
     1
1071
      434
1005
1258AA
  0
ARC
  5
1258AB
  8
OBJECT
 10
8450.3000008248036
 20
-179.14618535863451
 30
0.0
 40
5.0
 50
0.0
 51
36.446922476136933
1001
ACDBBLOCKREPETAG
1070
     1
1071
      435
1005
1258AB
  0
LINE
  5
1258AC
  8
OBJECT
 10
8454.3220385553777
 20
-223.82420392469501
 30
0.0
 11
8453.0174047417386
 21
-225.5907354876407
 31
0.0
1001
ACDBBLOCKREPETAG
1070
     1
1071
      436
1005
1258AC
  0
ARC
  5
1258AD
  8
OBJECT
 10
8450.3000008248036
 20
-220.85381464148281
 30
0.0
 40
5.0
 50
323.55307752631751
 51
0.0
1001
ACDBBLOCKREPETAG
1070
     1
1071
      437
1005
1258AD
  0
LINE
  5
1258AE
  8
OBJECT
 10
8455.3000008248
 20
-220.85381464148281
 30
0.0
 11
8455.3000008248
 21
-179.14618535863451
 31
0.0
1001
ACDBBLOCKREPETAG
1070
     1
1071
      438
1005
1258AE
  0
ARC
  5
1258AF
  8
OBJECT
 10
8500.0
 20
-199.99999999999909
 30
0.0
 40
50.0
 50
206.21956116401211
 51
228.5237695596756
1001
ACDBBLOCKREPETAG
1070
     1
1071
        7
1005
122544
  0
LINE
  5
1258D1
  8
OBJECT
 10
10524.1029330933
 20
-243.80694712371681
 30
0.0
 11
10520.659656999989
 21
-232.55462199999889
 31
0.0
1001
ACDBBLOCKREPETAG
1070
     1
1071
      300
1005
12253B
  0
ARC
  5
1258D9
  8
OBJECT
 10
10482.8961697619
 20
-227.4351299990567
 30
0.0
 40
10.0
 50
67.066778292909291
 51
154.0147343702935
1001
ACDBBLOCKREPETAG
1070
     1
1071
      303
1005
12253D
  0
LINE
  5
1258DA
  8
OBJECT
 10
10486.792749901369
 20
-218.22553374208019
 30
0.0
 11
10520.659656999989
 21
-232.5546219999969
 31
0.0
1001
ACDBBLOCKREPETAG
1070
     1
1071
      302
1005
12253C
  0
ARC
  5
1258DB
  8
OBJECT
 10
10486.14883903812
 20
-225.55386256729159
 30
0.0
 40
7.0
 50
67.066778292909291
 51
154.01473377496779
1001
ACDBBLOCKREPETAG
1070
     1
1071
      304
1005
12253E
  0
LINE
  5
1258DC
  8
OBJECT
 10
10465.29721690061
 20
-240.71813901882729
 30
0.0
 11
10473.90710226651
 21
-223.05373004430751
 31
0.0
1001
ACDBBLOCKREPETAG
1070
     1
1071
      342
1005
122540
  0
LINE
  5
1258DD
  8
OBJECT
 10
10469.4199755553
 20
-243.89888500818171
 30
0.0
 11
10479.856491823241
 21
-222.48688253356801
 31
0.0
1001
ACDBBLOCKREPETAG
1070
     1
1071
      341
1005
12253F
  0
ARC
  5
1258DE
  8
OBJECT
 10
10500.0
 20
-199.99999999999909
 30
0.0
 40
50.0
 50
206.21956116401259
 51
228.52376955967571
1001
ACDBBLOCKREPETAG
1070
     1
1071
        7
1005
122544
  0
ARC
  5
1258DF
  8
OBJECT
 10
10500.0
 20
-199.99999999999909
 30
0.0
 40
50.0
 50
298.81994300000628
 51
153.7804388360407
1001
ACDBBLOCKREPETAG
1070
     1
1071
        7
1005
122544
  0
LINE
  5
1258E0
  8
CENTER
 10
10580.0
 20
-199.99999999999909
 30
0.0
 11
10400.0
 21
-199.99999999999909
 31
0.0
1001
ACDBBLOCKREPETAG
1070
     1
1071
       14
1005
122545
  0
CIRCLE
  5
1258E1
  8
OBJECT
 10
10500.0
 20
-199.99999999999909
 30
0.0
 40
53.5
1001
ACDBBLOCKREPETAG
1070
     1
1071
      344
1005
122542
  0
LINE
  5
1258E2
  8
CENTER
 10
10500.0
 20
-299.99999999999892
 30
0.0
 11
10500.0
 21
-99.999999999999091
 31
0.0
1001
ACDBBLOCKREPETAG
1070
     1
1071
       15
1005
122546
  0
ARC
  5
1258E4
  8
OBJECT
 10
10476.57969530731
 20
-207.1289369828437
 30
0.0
 40
60.031113246032611
 50
314.07020130418522
 51
322.33936106091278
1001
ACDBBLOCKREPETAG
1070
     1
1071
      343
1005
122541
  0
POINT
  5
1258E5
  8
DOTS
 10
10500.0
 20
-199.99999999999909
 30
0.0
 50
270.0
1001
ACDBBLOCKREPETAG
1070
     1
1071
      362
1005
122543
  0
CIRCLE
  5
1258E6
  8
OBJECT
 10
10500.0
 20
-199.99999999999909
 30
0.0
 40
70.0
1001
ACDBBLOCKREPETAG
1070
     1
1071
       16
1005
122547
  0
ARC
  5
1258E7
  8
OBJECT
 10
10500.0
 20
-199.99999999999909
 30
0.0
 40
80.0
 50
50.805032573863357
 51
309.1949674259846
1001
ACDBBLOCKREPETAG
1070
     1
1071
       18
1005
122549
  0
CIRCLE
  5
1258E8
  8
OBJECT
 10
10500.0
 20
-199.99999999999909
 30
0.0
 40
77.0
1001
ACDBBLOCKREPETAG
1070
     1
1071
       17
1005
122548
  0
LINE
  5
1258E9
  8
OBJECT
 10
10545.661800227321
 20
-261.99999999999909
 30
0.0
 11
10580.0
 21
-261.99999999999909
 31
0.0
1001
ACDBBLOCKREPETAG
1070
     1
1071
       20
1005
12254B
  0
LINE
  5
1258EA
  8
OBJECT
 10
10545.661800227321
 20
-137.99999999999909
 30
0.0
 11
10580.0
 21
-137.99999999999909
 31
0.0
1001
ACDBBLOCKREPETAG
1070
     1
1071
       19
1005
12254A
  0
LINE
  5
1258EB
  8
OBJECT
 10
10367.0
 20
-255.0
 30
0.0
 11
10360.0
 21
-255.0
 31
0.0
1001
ACDBBLOCKREPETAG
1070
     1
1071
       20
1005
12250A
  0
LINE
  5
1258EC
  8
OBJECT
 10
10360.0
 20
-255.0
 30
0.0
 11
10360.0
 21
-145.0
 31
0.0
1001
ACDBBLOCKREPETAG
1070
     1
1071
       21
1005
12250B
  0
LINE
  5
1258ED
  8
OBJECT
 10
10360.0
 20
-145.0
 30
0.0
 11
10367.0
 21
-145.0
 31
0.0
1001
ACDBBLOCKREPETAG
1070
     1
1071
       22
1005
12250C
  0
LINE
  5
1258EE
  8
OBJECT
 10
10367.0
 20
-145.0
 30
0.0
 11
10367.0
 21
-255.0
 31
0.0
1001
ACDBBLOCKREPETAG
1070
     1
1071
       23
1005
12250D
  0
LINE
  5
1258EF
  8
CENTER
 10
10345.0
 20
-200.0
 30
0.0
 11
10420.0
 21
-200.0
 31
0.0
1001
ACDBBLOCKREPETAG
1070
     1
1071
       24
1005
12250E
  0
LINE
  5
1258F0
  8
OBJECT
 10
10367.0
 20
-252.0
 30
0.0
 11
10403.0
 21
-252.0
 31
0.0
1001
ACDBBLOCKREPETAG
1070
     1
1071
       25
1005
12250F
  0
LINE
  5
1258F1
  8
OBJECT
 10
10403.0
 20
-252.0
 30
0.0
 11
10403.0
 21
-148.0
 31
0.0
1001
ACDBBLOCKREPETAG
1070
     1
1071
       26
1005
122510
  0
LINE
  5
1258F2
  8
OBJECT
 10
10403.0
 20
-148.0
 30
0.0
 11
10367.0
 21
-148.0
 31
0.0
1001
ACDBBLOCKREPETAG
1070
     1
1071
       27
1005
122511
  0
LINE
  5
1258F3
  8
OBJECT
 10
10407.0
 20
-247.5
 30
0.0
 11
10415.5
 21
-247.5
 31
0.0
1001
ACDBBLOCKREPETAG
1070
     1
1071
       28
1005
122512
  0
LINE
  5
1258F4
  8
OBJECT
 10
10415.5
 20
-152.5
 30
0.0
 11
10407.0
 21
-152.5
 31
0.0
1001
ACDBBLOCKREPETAG
1070
     1
1071
       29
1005
122513
  0
LINE
  5
1258F5
  8
OBJECT
 10
10407.0
 20
-152.5
 30
0.0
 11
10407.0
 21
-247.5
 31
0.0
1001
ACDBBLOCKREPETAG
1070
     1
1071
       30
1005
122514
  0
LINE
  5
1258F6
  8
OBJECT
 10
10403.0
 20
-252.0
 30
0.0
 11
10407.0
 21
-247.5
 31
0.0
1001
ACDBBLOCKREPETAG
1070
     1
1071
       31
1005
122515
  0
LINE
  5
1258F7
  8
OBJECT
 10
10403.0
 20
-148.0
 30
0.0
 11
10407.0
 21
-152.5
 31
0.0
1001
ACDBBLOCKREPETAG
1070
     1
1071
       32
1005
122516
  0
ARC
  5
1258F8
  8
OBJECT
 10
10500.0
 20
-199.99999999999909
 30
0.0
 40
85.0
 50
46.837102859712338
 51
144.3837932714905
1001
ACDBBLOCKREPETAG
1070
     1
1071
       18
1005
122549
  0
LINE
  5
1258F9
  8
OBJECT
 10
10415.5
 20
-150.5
 30
0.0
 11
10415.5
 21
-249.5
 31
0.0
1001
ACDBBLOCKREPETAG
1070
     1
1071
       33
1005
122517
  0
LINE
  5
1258FA
  8
HIDDEN
 10
10412.0
 20
-238.0
 30
0.0
 11
10412.0
 21
-162.0
 31
0.0
1001
ACDBBLOCKREPETAG
1070
     1
1071
       34
1005
122518
  0
LINE
  5
1258FB
  8
OBJECT
 10
10415.5
 20
-249.5
 30
0.0
 11
10437.1529634748
 21
-249.5
 31
0.0
1001
ACDBBLOCKREPETAG
1070
     1
1071
       35
1005
122519
  0
LINE
  5
1258FC
  8
OBJECT
 10
10415.5
 20
-150.5
 30
0.0
 11
10437.1529634748
 21
-150.5
 31
0.0
1001
ACDBBLOCKREPETAG
1070
     1
1071
       36
1005
12251A
  0
ARC
  5
1258FD
  8
OBJECT
 10
10500.0
 20
-199.99999999999909
 30
0.0
 40
85.0
 50
215.6162067285106
 51
313.16289714028773
1001
ACDBBLOCKREPETAG
1070
     1
1071
       18
1005
122549
  0
LINE
  5
1258FE
  8
OBJECT
 10
10454.32203855525
 20
-176.17579607525019
 30
0.0
 11
10453.017404741649
 21
-174.4092645125165
 31
0.0
1001
ACDBBLOCKREPETAG
1070
     1
1071
      434
1005
1258AA
  0
ARC
  5
1258FF
  8
OBJECT
 10
10450.3000008248
 20
-179.14618535863451
 30
0.0
 40
5.0
 50
0.0
 51
36.446922476137047
1001
ACDBBLOCKREPETAG
1070
     1
1071
      435
1005
1258AB
  0
LINE
  5
125900
  8
OBJECT
 10
10454.32203855537
 20
-223.82420392469501
 30
0.0
 11
10453.01740474174
 21
-225.5907354876407
 31
0.0
1001
ACDBBLOCKREPETAG
1070
     1
1071
      436
1005
1258AC
  0
ARC
  5
125901
  8
OBJECT
 10
10450.3000008248
 20
-220.85381464148281
 30
0.0
 40
5.0
 50
323.55307752631802
 51
0.0
1001
ACDBBLOCKREPETAG
1070
     1
1071
      437
1005
1258AD
  0
LINE
  5
125902
  8
OBJECT
 10
10455.3000008248
 20
-220.85381464148281
 30
0.0
 11
10455.3000008248
 21
-179.14618535863451
 31
0.0
1001
ACDBBLOCKREPETAG
1070
     1
1071
      438
1005
1258AE
  0
LINE
  5
125903
  8
OBJECT
 10
12524.1029330933
 20
-243.80694712371681
 30
0.0
 11
12520.659656999989
 21
-232.55462199999889
 31
0.0
1001
ACDBBLOCKREPETAG
1070
     1
1071
      300
1005
12253B
  0
ARC
  5
12590B
  8
OBJECT
 10
12482.8961697619
 20
-227.4351299990567
 30
0.0
 40
10.0
 50
67.066778292909291
 51
154.0147343702935
1001
ACDBBLOCKREPETAG
1070
     1
1071
      303
1005
12253D
  0
LINE
  5
12590C
  8
OBJECT
 10
12486.79274990136
 20
-218.22553374208019
 30
0.0
 11
12520.659656999989
 21
-232.5546219999969
 31
0.0
1001
ACDBBLOCKREPETAG
1070
     1
1071
      302
1005
12253C
  0
ARC
  5
12590D
  8
OBJECT
 10
12486.14883903812
 20
-225.55386256729159
 30
0.0
 40
7.0
 50
67.066778292909291
 51
154.01473377496779
1001
ACDBBLOCKREPETAG
1070
     1
1071
      304
1005
12253E
  0
LINE
  5
12590E
  8
OBJECT
 10
12465.29721690061
 20
-240.71813901882729
 30
0.0
 11
12473.90710226651
 21
-223.05373004430751
 31
0.0
1001
ACDBBLOCKREPETAG
1070
     1
1071
      342
1005
122540
  0
LINE
  5
12590F
  8
OBJECT
 10
12469.4199755553
 20
-243.89888500818171
 30
0.0
 11
12479.856491823241
 21
-222.48688253356801
 31
0.0
1001
ACDBBLOCKREPETAG
1070
     1
1071
      341
1005
12253F
  0
ARC
  5
125910
  8
OBJECT
 10
12500.0
 20
-199.99999999999909
 30
0.0
 40
50.0
 50
206.21956116400679
 51
228.52376955967571
1001
ACDBBLOCKREPETAG
1070
     1
1071
        7
1005
122544
  0
ARC
  5
125911
  8
OBJECT
 10
12500.0
 20
-199.99999999999909
 30
0.0
 40
50.0
 50
298.81994300000628
 51
153.78043883603499
1001
ACDBBLOCKREPETAG
1070
     1
1071
        7
1005
122544
  0
LINE
  5
125912
  8
CENTER
 10
12580.0
 20
-199.99999999999909
 30
0.0
 11
12400.0
 21
-199.99999999999909
 31
0.0
1001
ACDBBLOCKREPETAG
1070
     1
1071
       14
1005
122545
  0
CIRCLE
  5
125913
  8
OBJECT
 10
12500.0
 20
-199.99999999999909
 30
0.0
 40
53.5
1001
ACDBBLOCKREPETAG
1070
     1
1071
      344
1005
122542
  0
LINE
  5
125914
  8
CENTER
 10
12500.0
 20
-299.99999999999892
 30
0.0
 11
12500.0
 21
-99.999999999999091
 31
0.0
1001
ACDBBLOCKREPETAG
1070
     1
1071
       15
1005
122546
  0
ARC
  5
125916
  8
OBJECT
 10
12476.57969530731
 20
-207.1289369828437
 30
0.0
 40
60.031113246032611
 50
314.07020130418522
 51
322.33936106091278
1001
ACDBBLOCKREPETAG
1070
     1
1071
      343
1005
122541
  0
POINT
  5
125917
  8
DOTS
 10
12500.0
 20
-199.99999999999909
 30
0.0
 50
270.0
1001
ACDBBLOCKREPETAG
1070
     1
1071
      362
1005
122543
  0
CIRCLE
  5
125918
  8
OBJECT
 10
12500.0
 20
-199.99999999999909
 30
0.0
 40
70.0
1001
ACDBBLOCKREPETAG
1070
     1
1071
       16
1005
122547
  0
ARC
  5
125919
  8
OBJECT
 10
12500.0
 20
-199.99999999999909
 30
0.0
 40
80.0
 50
50.805032573863357
 51
309.19496742597448
1001
ACDBBLOCKREPETAG
1070
     1
1071
       18
1005
122549
  0
CIRCLE
  5
12591A
  8
OBJECT
 10
12500.0
 20
-199.99999999999909
 30
0.0
 40
77.0
1001
ACDBBLOCKREPETAG
1070
     1
1071
       17
1005
122548
  0
LINE
  5
12591B
  8
OBJECT
 10
12545.661800227321
 20
-261.99999999999909
 30
0.0
 11
12580.0
 21
-261.99999999999909
 31
0.0
1001
ACDBBLOCKREPETAG
1070
     1
1071
       20
1005
12254B
  0
LINE
  5
12591C
  8
OBJECT
 10
12545.661800227321
 20
-137.99999999999909
 30
0.0
 11
12580.0
 21
-137.99999999999909
 31
0.0
1001
ACDBBLOCKREPETAG
1070
     1
1071
       19
1005
12254A
  0
LINE
  5
12591D
  8
OBJECT
 10
12367.0
 20
-255.0
 30
0.0
 11
12360.0
 21
-255.0
 31
0.0
1001
ACDBBLOCKREPETAG
1070
     1
1071
       20
1005
12250A
  0
LINE
  5
12591E
  8
OBJECT
 10
12360.0
 20
-255.0
 30
0.0
 11
12360.0
 21
-145.0
 31
0.0
1001
ACDBBLOCKREPETAG
1070
     1
1071
       21
1005
12250B
  0
LINE
  5
12591F
  8
OBJECT
 10
12360.0
 20
-145.0
 30
0.0
 11
12367.0
 21
-145.0
 31
0.0
1001
ACDBBLOCKREPETAG
1070
     1
1071
       22
1005
12250C
  0
LINE
  5
125920
  8
OBJECT
 10
12367.0
 20
-145.0
 30
0.0
 11
12367.0
 21
-255.0
 31
0.0
1001
ACDBBLOCKREPETAG
1070
     1
1071
       23
1005
12250D
  0
LINE
  5
125921
  8
CENTER
 10
12345.0
 20
-200.0
 30
0.0
 11
12420.0
 21
-200.0
 31
0.0
1001
ACDBBLOCKREPETAG
1070
     1
1071
       24
1005
12250E
  0
LINE
  5
125922
  8
OBJECT
 10
12367.0
 20
-252.0
 30
0.0
 11
12403.0
 21
-252.0
 31
0.0
1001
ACDBBLOCKREPETAG
1070
     1
1071
       25
1005
12250F
  0
LINE
  5
125923
  8
OBJECT
 10
12403.0
 20
-252.0
 30
0.0
 11
12403.0
 21
-148.0
 31
0.0
1001
ACDBBLOCKREPETAG
1070
     1
1071
       26
1005
122510
  0
LINE
  5
125924
  8
OBJECT
 10
12403.0
 20
-148.0
 30
0.0
 11
12367.0
 21
-148.0
 31
0.0
1001
ACDBBLOCKREPETAG
1070
     1
1071
       27
1005
122511
  0
LINE
  5
125925
  8
OBJECT
 10
12407.0
 20
-247.5
 30
0.0
 11
12415.5
 21
-247.5
 31
0.0
1001
ACDBBLOCKREPETAG
1070
     1
1071
       28
1005
122512
  0
LINE
  5
125926
  8
OBJECT
 10
12415.5
 20
-152.5
 30
0.0
 11
12407.0
 21
-152.5
 31
0.0
1001
ACDBBLOCKREPETAG
1070
     1
1071
       29
1005
122513
  0
LINE
  5
125927
  8
OBJECT
 10
12407.0
 20
-152.5
 30
0.0
 11
12407.0
 21
-247.5
 31
0.0
1001
ACDBBLOCKREPETAG
1070
     1
1071
       30
1005
122514
  0
LINE
  5
125928
  8
OBJECT
 10
12403.0
 20
-252.0
 30
0.0
 11
12407.0
 21
-247.5
 31
0.0
1001
ACDBBLOCKREPETAG
1070
     1
1071
       31
1005
122515
  0
LINE
  5
125929
  8
OBJECT
 10
12403.0
 20
-148.0
 30
0.0
 11
12407.0
 21
-152.5
 31
0.0
1001
ACDBBLOCKREPETAG
1070
     1
1071
       32
1005
122516
  0
ARC
  5
12592A
  8
OBJECT
 10
12500.0
 20
-199.99999999999909
 30
0.0
 40
85.0
 50
46.837102859702817
 51
144.38379327149809
1001
ACDBBLOCKREPETAG
1070
     1
1071
       18
1005
122549
  0
LINE
  5
12592B
  8
OBJECT
 10
12415.5
 20
-150.5
 30
0.0
 11
12415.5
 21
-249.5
 31
0.0
1001
ACDBBLOCKREPETAG
1070
     1
1071
       33
1005
122517
  0
LINE
  5
12592C
  8
HIDDEN
 10
12412.0
 20
-238.0
 30
0.0
 11
12412.0
 21
-162.0
 31
0.0
1001
ACDBBLOCKREPETAG
1070
     1
1071
       34
1005
122518
  0
LINE
  5
12592D
  8
OBJECT
 10
12415.5
 20
-249.5
 30
0.0
 11
12437.1529634748
 21
-249.5
 31
0.0
1001
ACDBBLOCKREPETAG
1070
     1
1071
       35
1005
122519
  0
LINE
  5
12592E
  8
OBJECT
 10
12415.5
 20
-150.5
 30
0.0
 11
12437.1529634748
 21
-150.5
 31
0.0
1001
ACDBBLOCKREPETAG
1070
     1
1071
       36
1005
12251A
  0
ARC
  5
12592F
  8
OBJECT
 10
12500.0
 20
-199.99999999999909
 30
0.0
 40
85.0
 50
215.61620672850299
 51
313.1628971402971
1001
ACDBBLOCKREPETAG
1070
     1
1071
       18
1005
122549
  0
LINE
  5
125930
  8
OBJECT
 10
12454.32203855525
 20
-176.17579607525019
 30
0.0
 11
12453.017404741649
 21
-174.4092645125165
 31
0.0
1001
ACDBBLOCKREPETAG
1070
     1
1071
      434
1005
1258AA
  0
ARC
  5
125931
  8
OBJECT
 10
12450.3000008248
 20
-179.14618535863451
 30
0.0
 40
5.0
 50
0.0
 51
36.446922476137047
1001
ACDBBLOCKREPETAG
1070
     1
1071
      435
1005
1258AB
  0
LINE
  5
125932
  8
OBJECT
 10
12454.32203855537
 20
-223.82420392469501
 30
0.0
 11
12453.01740474174
 21
-225.5907354876407
 31
0.0
1001
ACDBBLOCKREPETAG
1070
     1
1071
      436
1005
1258AC
  0
ARC
  5
125933
  8
OBJECT
 10
12450.3000008248
 20
-220.85381464148281
 30
0.0
 40
5.0
 50
323.55307752631802
 51
0.0
1001
ACDBBLOCKREPETAG
1070
     1
1071
      437
1005
1258AD
  0
LINE
  5
125934
  8
OBJECT
 10
12455.3000008248
 20
-220.85381464148281
 30
0.0
 11
12455.3000008248
 21
-179.14618535863451
 31
0.0
1001
ACDBBLOCKREPETAG
1070
     1
1071
      438
1005
1258AE
  0
LINE
  5
125935
  8
OBJECT
 10
2524.1029330933011
 20
-243.8069471237157
 30
0.0
 11
2520.6596569999961
 21
-232.55462199999769
 31
0.0
1001
ACDBBLOCKREPETAG
1070
     1
1071
      300
1005
12253B
  0
ARC
  5
12593D
  8
OBJECT
 10
2482.8961697619011
 20
-227.43512999905559
 30
0.0
 40
10.0
 50
67.066778292909291
 51
154.0147343702935
1001
ACDBBLOCKREPETAG
1070
     1
1071
      303
1005
12253D
  0
LINE
  5
12593E
  8
OBJECT
 10
2486.792749901374
 20
-218.22553374207911
 30
0.0
 11
2520.6596569999961
 21
-232.5546219999957
 31
0.0
1001
ACDBBLOCKREPETAG
1070
     1
1071
      302
1005
12253C
  0
ARC
  5
12593F
  8
OBJECT
 10
2486.1488390381278
 20
-225.55386256729051
 30
0.0
 40
7.0
 50
67.066778292909291
 51
154.01473377497919
1001
ACDBBLOCKREPETAG
1070
     1
1071
      304
1005
12253E
  0
LINE
  5
125940
  8
OBJECT
 10
2465.2972169006089
 20
-240.71813901882629
 30
0.0
 11
2473.907102266508
 21
-223.05373004430641
 31
0.0
1001
ACDBBLOCKREPETAG
1070
     1
1071
      342
1005
122540
  0
LINE
  5
125941
  8
OBJECT
 10
2469.4199755553009
 20
-243.89888500818071
 30
0.0
 11
2479.856491823236
 21
-222.48688253356681
 31
0.0
1001
ACDBBLOCKREPETAG
1070
     1
1071
      341
1005
12253F
  0
ARC
  5
125942
  8
OBJECT
 10
2500.0
 20
-199.99999999999801
 30
0.0
 40
50.0
 50
206.21956116400679
 51
228.5237695596561
1001
ACDBBLOCKREPETAG
1070
     1
1071
        7
1005
122544
  0
ARC
  5
125943
  8
OBJECT
 10
2500.0
 20
-199.99999999999801
 30
0.0
 40
50.0
 50
298.81994300000628
 51
153.78043883603499
1001
ACDBBLOCKREPETAG
1070
     1
1071
        7
1005
122544
  0
LINE
  5
125944
  8
CENTER
 10
2579.9999999999991
 20
-199.99999999999801
 30
0.0
 11
2399.9999999999991
 21
-199.99999999999801
 31
0.0
1001
ACDBBLOCKREPETAG
1070
     1
1071
       14
1005
122545
  0
CIRCLE
  5
125945
  8
OBJECT
 10
2500.0
 20
-199.99999999999801
 30
0.0
 40
53.5
1001
ACDBBLOCKREPETAG
1070
     1
1071
      344
1005
122542
  0
LINE
  5
125946
  8
CENTER
 10
2500.0
 20
-294.99999999999801
 30
0.0
 11
2500.0
 21
-104.999999999998
 31
0.0
1001
ACDBBLOCKREPETAG
1070
     1
1071
       15
1005
122546
  0
ARC
  5
125948
  8
OBJECT
 10
2476.5796953073141
 20
-207.12893698284259
 30
0.0
 40
60.031113246032611
 50
314.07020130418522
 51
322.33936106089692
1001
ACDBBLOCKREPETAG
1070
     1
1071
      343
1005
122541
  0
POINT
  5
125949
  8
DOTS
 10
2500.0
 20
-199.99999999999801
 30
0.0
 50
270.0
1001
ACDBBLOCKREPETAG
1070
     1
1071
      362
1005
122543
  0
CIRCLE
  5
12594A
  8
OBJECT
 10
2500.0
 20
-199.99999999999801
 30
0.0
 40
70.0
1001
ACDBBLOCKREPETAG
1070
     1
1071
       16
1005
122547
  0
ARC
  5
12594B
  8
OBJECT
 10
2500.0
 20
-199.99999999999801
 30
0.0
 40
80.0
 50
50.805032573883572
 51
309.19496742597448
1001
ACDBBLOCKREPETAG
1070
     1
1071
       18
1005
122549
  0
CIRCLE
  5
12594C
  8
OBJECT
 10
2500.0
 20
-199.99999999999801
 30
0.0
 40
77.0
1001
ACDBBLOCKREPETAG
1070
     1
1071
       17
1005
122548
  0
LINE
  5
12594D
  8
OBJECT
 10
2545.6618002273231
 20
-261.99999999999801
 30
0.0
 11
2579.9999999999991
 21
-261.99999999999801
 31
0.0
1001
ACDBBLOCKREPETAG
1070
     1
1071
       20
1005
12254B
  0
LINE
  5
12594E
  8
OBJECT
 10
2545.6618002273231
 20
-137.99999999999801
 30
0.0
 11
2579.9999999999991
 21
-137.99999999999801
 31
0.0
1001
ACDBBLOCKREPETAG
1070
     1
1071
       19
1005
12254A
  0
LINE
  5
12594F
  8
OBJECT
 10
2366.9999999999991
 20
-254.99999999999889
 30
0.0
 11
2359.9999999999991
 21
-254.99999999999889
 31
0.0
1001
ACDBBLOCKREPETAG
1070
     1
1071
       20
1005
12250A
  0
LINE
  5
125950
  8
OBJECT
 10
2359.9999999999991
 20
-254.99999999999889
 30
0.0
 11
2359.9999999999991
 21
-144.99999999999881
 31
0.0
1001
ACDBBLOCKREPETAG
1070
     1
1071
       21
1005
12250B
  0
LINE
  5
125951
  8
OBJECT
 10
2359.9999999999991
 20
-144.99999999999881
 30
0.0
 11
2366.9999999999991
 21
-144.99999999999881
 31
0.0
1001
ACDBBLOCKREPETAG
1070
     1
1071
       22
1005
12250C
  0
LINE
  5
125952
  8
OBJECT
 10
2366.9999999999991
 20
-144.99999999999881
 30
0.0
 11
2366.9999999999991
 21
-254.99999999999889
 31
0.0
1001
ACDBBLOCKREPETAG
1070
     1
1071
       23
1005
12250D
  0
LINE
  5
125953
  8
CENTER
 10
2344.9999999999991
 20
-199.99999999999889
 30
0.0
 11
2419.9999999999991
 21
-199.99999999999889
 31
0.0
1001
ACDBBLOCKREPETAG
1070
     1
1071
       24
1005
12250E
  0
LINE
  5
125954
  8
OBJECT
 10
2366.9999999999991
 20
-251.99999999999889
 30
0.0
 11
2402.9999999999991
 21
-251.99999999999889
 31
0.0
1001
ACDBBLOCKREPETAG
1070
     1
1071
       25
1005
12250F
  0
LINE
  5
125955
  8
OBJECT
 10
2402.9999999999991
 20
-251.99999999999889
 30
0.0
 11
2402.9999999999991
 21
-147.99999999999881
 31
0.0
1001
ACDBBLOCKREPETAG
1070
     1
1071
       26
1005
122510
  0
LINE
  5
125956
  8
OBJECT
 10
2402.9999999999991
 20
-147.99999999999881
 30
0.0
 11
2366.9999999999991
 21
-147.99999999999881
 31
0.0
1001
ACDBBLOCKREPETAG
1070
     1
1071
       27
1005
122511
  0
LINE
  5
125957
  8
OBJECT
 10
2407.0
 20
-247.49999999999889
 30
0.0
 11
2415.4999999999991
 21
-247.49999999999889
 31
0.0
1001
ACDBBLOCKREPETAG
1070
     1
1071
       28
1005
122512
  0
LINE
  5
125958
  8
OBJECT
 10
2415.4999999999991
 20
-152.49999999999881
 30
0.0
 11
2407.0
 21
-152.49999999999881
 31
0.0
1001
ACDBBLOCKREPETAG
1070
     1
1071
       29
1005
122513
  0
LINE
  5
125959
  8
OBJECT
 10
2407.0
 20
-152.49999999999881
 30
0.0
 11
2407.0
 21
-247.49999999999889
 31
0.0
1001
ACDBBLOCKREPETAG
1070
     1
1071
       30
1005
122514
  0
LINE
  5
12595A
  8
OBJECT
 10
2402.9999999999991
 20
-251.99999999999889
 30
0.0
 11
2407.0
 21
-247.49999999999889
 31
0.0
1001
ACDBBLOCKREPETAG
1070
     1
1071
       31
1005
122515
  0
LINE
  5
12595B
  8
OBJECT
 10
2402.9999999999991
 20
-147.99999999999881
 30
0.0
 11
2407.0
 21
-152.49999999999881
 31
0.0
1001
ACDBBLOCKREPETAG
1070
     1
1071
       32
1005
122516
  0
LINE
  5
12595D
  8
OBJECT
 10
2415.5000000000009
 20
-150.49999999999881
 30
0.0
 11
2415.4999999999991
 21
-249.49999999999889
 31
0.0
1001
ACDBBLOCKREPETAG
1070
     1
1071
       33
1005
122517
  0
LINE
  5
12595E
  8
HIDDEN
 10
2411.9999999999991
 20
-237.99999999999889
 30
0.0
 11
2411.9999999999991
 21
-161.99999999999881
 31
0.0
1001
ACDBBLOCKREPETAG
1070
     1
1071
       34
1005
122518
  0
LINE
  5
12595F
  8
OBJECT
 10
2415.4999999999991
 20
-249.49999999999889
 30
0.0
 11
2437.1529634747981
 21
-249.49999999999889
 31
0.0
1001
ACDBBLOCKREPETAG
1070
     1
1071
       35
1005
122519
  0
LINE
  5
125960
  8
OBJECT
 10
2415.5000000000009
 20
-150.49999999999881
 30
0.0
 11
2437.1529634747981
 21
-150.49999999999881
 31
0.0
1001
ACDBBLOCKREPETAG
1070
     1
1071
       36
1005
12251A
  0
LINE
  5
125962
  8
OBJECT
 10
2454.3220385552481
 20
-176.17579607524911
 30
0.0
 11
2453.0174047416531
 21
-174.40926451251539
 31
0.0
1001
ACDBBLOCKREPETAG
1070
     1
1071
      434
1005
1258AA
  0
ARC
  5
125963
  8
OBJECT
 10
2450.3000008247991
 20
-179.1461853586334
 30
0.0
 40
5.0
 50
0.0
 51
36.446922476137047
1001
ACDBBLOCKREPETAG
1070
     1
1071
      435
1005
1258AB
  0
LINE
  5
125964
  8
OBJECT
 10
2454.322038555375
 20
-223.8242039246939
 30
0.0
 11
2453.0174047417381
 21
-225.59073548763959
 31
0.0
1001
ACDBBLOCKREPETAG
1070
     1
1071
      436
1005
1258AC
  0
ARC
  5
125965
  8
OBJECT
 10
2450.3000008247991
 20
-220.8538146414817
 30
0.0
 40
5.0
 50
323.55307752631802
 51
0.0
1001
ACDBBLOCKREPETAG
1070
     1
1071
      437
1005
1258AD
  0
LINE
  5
125966
  8
OBJECT
 10
2455.3000008247991
 20
-220.8538146414817
 30
0.0
 11
2455.3000008247991
 21
-179.1461853586334
 31
0.0
1001
ACDBBLOCKREPETAG
1070
     1
1071
      438
1005
1258AE
  0
LINE
  5
125967
  8
OBJECT
 10
4524.1029330933006
 20
-243.8069471237157
 30
0.0
 11
4520.6596569999938
 21
-232.55462199999769
 31
0.0
1001
ACDBBLOCKREPETAG
1070
     1
1071
      300
1005
12253B
  0
ARC
  5
12596F
  8
OBJECT
 10
4482.8961697618979
 20
-227.43512999905559
 30
0.0
 40
10.0
 50
67.066778292909234
 51
154.0147343702935
1001
ACDBBLOCKREPETAG
1070
     1
1071
      303
1005
12253D
  0
LINE
  5
125970
  8
OBJECT
 10
4486.792749901374
 20
-218.22553374207911
 30
0.0
 11
4520.6596569999938
 21
-232.5546219999957
 31
0.0
1001
ACDBBLOCKREPETAG
1070
     1
1071
      302
1005
12253C
  0
ARC
  5
125971
  8
OBJECT
 10
4486.1488390381273
 20
-225.55386256729051
 30
0.0
 40
7.0
 50
67.066778292909234
 51
154.01473377498201
1001
ACDBBLOCKREPETAG
1070
     1
1071
      304
1005
12253E
  0
LINE
  5
125972
  8
OBJECT
 10
4465.2972169006089
 20
-240.71813901882629
 30
0.0
 11
4473.9071022665057
 21
-223.05373004430641
 31
0.0
1001
ACDBBLOCKREPETAG
1070
     1
1071
      342
1005
122540
  0
LINE
  5
125973
  8
OBJECT
 10
4469.4199755552991
 20
-243.89888500818071
 30
0.0
 11
4479.856491823236
 21
-222.48688253356681
 31
0.0
1001
ACDBBLOCKREPETAG
1070
     1
1071
      341
1005
12253F
  0
ARC
  5
125974
  8
OBJECT
 10
4499.9999999999991
 20
-199.99999999999801
 30
0.0
 40
50.0
 50
206.21956116400821
 51
228.5237695596575
1001
ACDBBLOCKREPETAG
1070
     1
1071
        7
1005
122544
  0
ARC
  5
125975
  8
OBJECT
 10
4499.9999999999991
 20
-199.99999999999801
 30
0.0
 40
50.0
 50
298.81994300000628
 51
153.78043883603681
1001
ACDBBLOCKREPETAG
1070
     1
1071
        7
1005
122544
  0
LINE
  5
125976
  8
CENTER
 10
4579.9999999999991
 20
-199.99999999999801
 30
0.0
 11
4399.9999999999991
 21
-199.99999999999801
 31
0.0
1001
ACDBBLOCKREPETAG
1070
     1
1071
       14
1005
122545
  0
CIRCLE
  5
125977
  8
OBJECT
 10
4499.9999999999991
 20
-199.99999999999801
 30
0.0
 40
53.5
1001
ACDBBLOCKREPETAG
1070
     1
1071
      344
1005
122542
  0
LINE
  5
125978
  8
CENTER
 10
4499.9999999999991
 20
-294.99999999999801
 30
0.0
 11
4499.9999999999991
 21
-104.999999999998
 31
0.0
1001
ACDBBLOCKREPETAG
1070
     1
1071
       15
1005
122546
  0
ARC
  5
125979
  8
OBJECT
 10
4476.5796953073141
 20
-207.12893698284259
 30
0.0
 40
60.031113246032611
 50
314.07020130418522
 51
322.33936106089487
1001
ACDBBLOCKREPETAG
1070
     1
1071
      343
1005
122541
  0
POINT
  5
12597A
  8
DOTS
 10
4499.9999999999991
 20
-199.99999999999801
 30
0.0
 50
270.0
1001
ACDBBLOCKREPETAG
1070
     1
1071
      362
1005
122543
  0
CIRCLE
  5
12597B
  8
OBJECT
 10
4499.9999999999991
 20
-199.99999999999801
 30
0.0
 40
70.0
1001
ACDBBLOCKREPETAG
1070
     1
1071
       16
1005
122547
  0
ARC
  5
12597C
  8
OBJECT
 10
4499.9999999999991
 20
-199.99999999999801
 30
0.0
 40
80.0
 50
50.805032573881491
 51
309.1949674259709
1001
ACDBBLOCKREPETAG
1070
     1
1071
       18
1005
122549
  0
CIRCLE
  5
12597D
  8
OBJECT
 10
4499.9999999999991
 20
-199.99999999999801
 30
0.0
 40
77.0
1001
ACDBBLOCKREPETAG
1070
     1
1071
       17
1005
122548
  0
LINE
  5
12597E
  8
OBJECT
 10
4545.6618002273244
 20
-261.99999999999801
 30
0.0
 11
4579.9999999999991
 21
-261.99999999999801
 31
0.0
1001
ACDBBLOCKREPETAG
1070
     1
1071
       20
1005
12254B
  0
LINE
  5
12597F
  8
OBJECT
 10
4545.6618002273244
 20
-137.99999999999801
 30
0.0
 11
4579.9999999999991
 21
-137.99999999999801
 31
0.0
1001
ACDBBLOCKREPETAG
1070
     1
1071
       19
1005
12254A
  0
LINE
  5
125980
  8
OBJECT
 10
4366.9999999999991
 20
-254.99999999999889
 30
0.0
 11
4359.9999999999991
 21
-254.99999999999889
 31
0.0
1001
ACDBBLOCKREPETAG
1070
     1
1071
       20
1005
12250A
  0
LINE
  5
125981
  8
OBJECT
 10
4359.9999999999991
 20
-254.99999999999889
 30
0.0
 11
4359.9999999999991
 21
-144.99999999999881
 31
0.0
1001
ACDBBLOCKREPETAG
1070
     1
1071
       21
1005
12250B
  0
LINE
  5
125982
  8
OBJECT
 10
4359.9999999999991
 20
-144.99999999999881
 30
0.0
 11
4366.9999999999991
 21
-144.99999999999881
 31
0.0
1001
ACDBBLOCKREPETAG
1070
     1
1071
       22
1005
12250C
  0
LINE
  5
125983
  8
OBJECT
 10
4366.9999999999991
 20
-144.99999999999881
 30
0.0
 11
4366.9999999999991
 21
-254.99999999999889
 31
0.0
1001
ACDBBLOCKREPETAG
1070
     1
1071
       23
1005
12250D
  0
LINE
  5
125984
  8
CENTER
 10
4344.9999999999982
 20
-199.99999999999889
 30
0.0
 11
4419.9999999999991
 21
-199.99999999999889
 31
0.0
1001
ACDBBLOCKREPETAG
1070
     1
1071
       24
1005
12250E
  0
LINE
  5
125985
  8
OBJECT
 10
4366.9999999999991
 20
-251.99999999999889
 30
0.0
 11
4402.9999999999991
 21
-251.99999999999889
 31
0.0
1001
ACDBBLOCKREPETAG
1070
     1
1071
       25
1005
12250F
  0
LINE
  5
125986
  8
OBJECT
 10
4402.9999999999991
 20
-251.99999999999889
 30
0.0
 11
4402.9999999999991
 21
-147.99999999999881
 31
0.0
1001
ACDBBLOCKREPETAG
1070
     1
1071
       26
1005
122510
  0
LINE
  5
125987
  8
OBJECT
 10
4402.9999999999991
 20
-147.99999999999881
 30
0.0
 11
4366.9999999999991
 21
-147.99999999999881
 31
0.0
1001
ACDBBLOCKREPETAG
1070
     1
1071
       27
1005
122511
  0
LINE
  5
125988
  8
OBJECT
 10
4406.9999999999991
 20
-247.49999999999889
 30
0.0
 11
4415.4999999999991
 21
-247.49999999999889
 31
0.0
1001
ACDBBLOCKREPETAG
1070
     1
1071
       28
1005
122512
  0
LINE
  5
125989
  8
OBJECT
 10
4415.4999999999991
 20
-152.49999999999881
 30
0.0
 11
4406.9999999999991
 21
-152.49999999999881
 31
0.0
1001
ACDBBLOCKREPETAG
1070
     1
1071
       29
1005
122513
  0
LINE
  5
12598A
  8
OBJECT
 10
4406.9999999999991
 20
-152.49999999999881
 30
0.0
 11
4406.9999999999991
 21
-247.49999999999889
 31
0.0
1001
ACDBBLOCKREPETAG
1070
     1
1071
       30
1005
122514
  0
LINE
  5
12598B
  8
OBJECT
 10
4402.9999999999991
 20
-251.99999999999889
 30
0.0
 11
4406.9999999999991
 21
-247.49999999999889
 31
0.0
1001
ACDBBLOCKREPETAG
1070
     1
1071
       31
1005
122515
  0
LINE
  5
12598C
  8
OBJECT
 10
4402.9999999999991
 20
-147.99999999999881
 30
0.0
 11
4406.9999999999991
 21
-152.49999999999881
 31
0.0
1001
ACDBBLOCKREPETAG
1070
     1
1071
       32
1005
122516
  0
LINE
  5
12598D
  8
OBJECT
 10
4415.5
 20
-150.49999999999881
 30
0.0
 11
4415.4999999999991
 21
-249.49999999999889
 31
0.0
1001
ACDBBLOCKREPETAG
1070
     1
1071
       33
1005
122517
  0
LINE
  5
12598E
  8
HIDDEN
 10
4411.9999999999991
 20
-237.99999999999889
 30
0.0
 11
4411.9999999999991
 21
-161.99999999999881
 31
0.0
1001
ACDBBLOCKREPETAG
1070
     1
1071
       34
1005
122518
  0
LINE
  5
12598F
  8
OBJECT
 10
4415.4999999999991
 20
-249.49999999999889
 30
0.0
 11
4437.1529634747967
 21
-249.49999999999889
 31
0.0
1001
ACDBBLOCKREPETAG
1070
     1
1071
       35
1005
122519
  0
LINE
  5
125990
  8
OBJECT
 10
4415.5
 20
-150.49999999999881
 30
0.0
 11
4437.1529634747967
 21
-150.49999999999881
 31
0.0
1001
ACDBBLOCKREPETAG
1070
     1
1071
       36
1005
12251A
  0
LINE
  5
125991
  8
OBJECT
 10
4454.3220385552477
 20
-176.17579607524911
 30
0.0
 11
4453.0174047416522
 21
-174.40926451251539
 31
0.0
1001
ACDBBLOCKREPETAG
1070
     1
1071
      434
1005
1258AA
  0
ARC
  5
125992
  8
OBJECT
 10
4450.3000008247991
 20
-179.1461853586334
 30
0.0
 40
5.0
 50
0.0
 51
36.446922476137139
1001
ACDBBLOCKREPETAG
1070
     1
1071
      435
1005
1258AB
  0
LINE
  5
125993
  8
OBJECT
 10
4454.322038555375
 20
-223.8242039246939
 30
0.0
 11
4453.0174047417368
 21
-225.59073548763959
 31
0.0
1001
ACDBBLOCKREPETAG
1070
     1
1071
      436
1005
1258AC
  0
ARC
  5
125994
  8
OBJECT
 10
4450.3000008247991
 20
-220.8538146414817
 30
0.0
 40
5.0
 50
323.55307752631819
 51
0.0
1001
ACDBBLOCKREPETAG
1070
     1
1071
      437
1005
1258AD
  0
LINE
  5
125995
  8
OBJECT
 10
4455.3000008247991
 20
-220.8538146414817
 30
0.0
 11
4455.3000008247991
 21
-179.1461853586334
 31
0.0
1001
ACDBBLOCKREPETAG
1070
     1
1071
      438
1005
1258AE
  0
LINE
  5
125996
  8
OBJECT
 10
6524.1029330932997
 20
-243.8069471237157
 30
0.0
 11
6520.6596569999947
 21
-232.55462199999769
 31
0.0
1001
ACDBBLOCKREPETAG
1070
     1
1071
      300
1005
12253B
  0
ARC
  5
12599E
  8
OBJECT
 10
6482.8961697618979
 20
-227.43512999905559
 30
0.0
 40
10.0
 50
67.066778292909234
 51
154.0147343702935
1001
ACDBBLOCKREPETAG
1070
     1
1071
      303
1005
12253D
  0
LINE
  5
12599F
  8
OBJECT
 10
6486.7927499013749
 20
-218.22553374207911
 30
0.0
 11
6520.6596569999947
 21
-232.5546219999957
 31
0.0
1001
ACDBBLOCKREPETAG
1070
     1
1071
      302
1005
12253C
  0
ARC
  5
1259A0
  8
OBJECT
 10
6486.1488390381273
 20
-225.55386256729051
 30
0.0
 40
7.0
 50
67.066778292909234
 51
154.01473377497621
1001
ACDBBLOCKREPETAG
1070
     1
1071
      304
1005
12253E
  0
LINE
  5
1259A1
  8
OBJECT
 10
6465.2972169006089
 20
-240.71813901882629
 30
0.0
 11
6473.9071022665066
 21
-223.05373004430641
 31
0.0
1001
ACDBBLOCKREPETAG
1070
     1
1071
      342
1005
122540
  0
LINE
  5
1259A2
  8
OBJECT
 10
6469.4199755553009
 20
-243.89888500818071
 30
0.0
 11
6479.856491823236
 21
-222.48688253356681
 31
0.0
1001
ACDBBLOCKREPETAG
1070
     1
1071
      341
1005
12253F
  0
ARC
  5
1259A3
  8
OBJECT
 10
6499.9999999999991
 20
-199.99999999999801
 30
0.0
 40
50.0
 50
206.2195611640025
 51
228.5237695596478
1001
ACDBBLOCKREPETAG
1070
     1
1071
        7
1005
122544
  0
ARC
  5
1259A4
  8
OBJECT
 10
6499.9999999999991
 20
-199.99999999999801
 30
0.0
 40
50.0
 50
298.81994300000628
 51
153.78043883603121
1001
ACDBBLOCKREPETAG
1070
     1
1071
        7
1005
122544
  0
LINE
  5
1259A5
  8
CENTER
 10
6580.0
 20
-199.99999999999801
 30
0.0
 11
6399.9999999999991
 21
-199.99999999999801
 31
0.0
1001
ACDBBLOCKREPETAG
1070
     1
1071
       14
1005
122545
  0
CIRCLE
  5
1259A6
  8
OBJECT
 10
6499.9999999999991
 20
-199.99999999999801
 30
0.0
 40
53.5
1001
ACDBBLOCKREPETAG
1070
     1
1071
      344
1005
122542
  0
LINE
  5
1259A7
  8
CENTER
 10
6499.9999999999991
 20
-294.99999999999801
 30
0.0
 11
6499.9999999999991
 21
-104.999999999998
 31
0.0
1001
ACDBBLOCKREPETAG
1070
     1
1071
       15
1005
122546
  0
ARC
  5
1259A8
  8
OBJECT
 10
6476.5796953073141
 20
-207.12893698284259
 30
0.0
 40
60.031113246032611
 50
314.07020130418522
 51
322.33936106090289
1001
ACDBBLOCKREPETAG
1070
     1
1071
      343
1005
122541
  0
POINT
  5
1259A9
  8
DOTS
 10
6499.9999999999991
 20
-199.99999999999801
 30
0.0
 50
270.0
1001
ACDBBLOCKREPETAG
1070
     1
1071
      362
1005
122543
  0
CIRCLE
  5
1259AA
  8
OBJECT
 10
6499.9999999999991
 20
-199.99999999999801
 30
0.0
 40
70.0
1001
ACDBBLOCKREPETAG
1070
     1
1071
       16
1005
122547
  0
ARC
  5
1259AB
  8
OBJECT
 10
6499.9999999999991
 20
-199.99999999999801
 30
0.0
 40
80.0
 50
50.805032573891587
 51
309.1949674259709
1001
ACDBBLOCKREPETAG
1070
     1
1071
       18
1005
122549
  0
CIRCLE
  5
1259AC
  8
OBJECT
 10
6499.9999999999991
 20
-199.99999999999801
 30
0.0
 40
77.0
1001
ACDBBLOCKREPETAG
1070
     1
1071
       17
1005
122548
  0
LINE
  5
1259AD
  8
OBJECT
 10
6545.6618002273199
 20
-261.99999999999801
 30
0.0
 11
6580.0
 21
-261.99999999999801
 31
0.0
1001
ACDBBLOCKREPETAG
1070
     1
1071
       20
1005
12254B
  0
LINE
  5
1259AE
  8
OBJECT
 10
6545.6618002273199
 20
-137.99999999999801
 30
0.0
 11
6580.0
 21
-137.99999999999801
 31
0.0
1001
ACDBBLOCKREPETAG
1070
     1
1071
       19
1005
12254A
  0
LINE
  5
1259AF
  8
OBJECT
 10
6366.9999999999991
 20
-254.99999999999889
 30
0.0
 11
6359.9999999999991
 21
-254.99999999999889
 31
0.0
1001
ACDBBLOCKREPETAG
1070
     1
1071
       20
1005
12250A
  0
LINE
  5
1259B0
  8
OBJECT
 10
6359.9999999999991
 20
-254.99999999999889
 30
0.0
 11
6359.9999999999991
 21
-144.99999999999881
 31
0.0
1001
ACDBBLOCKREPETAG
1070
     1
1071
       21
1005
12250B
  0
LINE
  5
1259B1
  8
OBJECT
 10
6359.9999999999991
 20
-144.99999999999881
 30
0.0
 11
6366.9999999999991
 21
-144.99999999999881
 31
0.0
1001
ACDBBLOCKREPETAG
1070
     1
1071
       22
1005
12250C
  0
LINE
  5
1259B2
  8
OBJECT
 10
6366.9999999999991
 20
-144.99999999999881
 30
0.0
 11
6366.9999999999991
 21
-254.99999999999889
 31
0.0
1001
ACDBBLOCKREPETAG
1070
     1
1071
       23
1005
12250D
  0
LINE
  5
1259B3
  8
CENTER
 10
6344.9999999999991
 20
-199.99999999999889
 30
0.0
 11
6419.9999999999991
 21
-199.99999999999889
 31
0.0
1001
ACDBBLOCKREPETAG
1070
     1
1071
       24
1005
12250E
  0
LINE
  5
1259B4
  8
OBJECT
 10
6366.9999999999991
 20
-251.99999999999889
 30
0.0
 11
6402.9999999999973
 21
-251.99999999999889
 31
0.0
1001
ACDBBLOCKREPETAG
1070
     1
1071
       25
1005
12250F
  0
LINE
  5
1259B5
  8
OBJECT
 10
6402.9999999999973
 20
-251.99999999999889
 30
0.0
 11
6402.9999999999973
 21
-147.99999999999881
 31
0.0
1001
ACDBBLOCKREPETAG
1070
     1
1071
       26
1005
122510
  0
LINE
  5
1259B6
  8
OBJECT
 10
6402.9999999999973
 20
-147.99999999999881
 30
0.0
 11
6366.9999999999991
 21
-147.99999999999881
 31
0.0
1001
ACDBBLOCKREPETAG
1070
     1
1071
       27
1005
122511
  0
LINE
  5
1259B7
  8
OBJECT
 10
6407.0
 20
-247.49999999999889
 30
0.0
 11
6415.4999999999973
 21
-247.49999999999889
 31
0.0
1001
ACDBBLOCKREPETAG
1070
     1
1071
       28
1005
122512
  0
LINE
  5
1259B8
  8
OBJECT
 10
6415.4999999999973
 20
-152.49999999999881
 30
0.0
 11
6407.0
 21
-152.49999999999881
 31
0.0
1001
ACDBBLOCKREPETAG
1070
     1
1071
       29
1005
122513
  0
LINE
  5
1259B9
  8
OBJECT
 10
6407.0
 20
-152.49999999999881
 30
0.0
 11
6407.0
 21
-247.49999999999889
 31
0.0
1001
ACDBBLOCKREPETAG
1070
     1
1071
       30
1005
122514
  0
LINE
  5
1259BA
  8
OBJECT
 10
6402.9999999999973
 20
-251.99999999999889
 30
0.0
 11
6407.0
 21
-247.49999999999889
 31
0.0
1001
ACDBBLOCKREPETAG
1070
     1
1071
       31
1005
122515
  0
LINE
  5
1259BB
  8
OBJECT
 10
6402.9999999999973
 20
-147.99999999999881
 30
0.0
 11
6407.0
 21
-152.49999999999881
 31
0.0
1001
ACDBBLOCKREPETAG
1070
     1
1071
       32
1005
122516
  0
LINE
  5
1259BC
  8
OBJECT
 10
6415.5000000000009
 20
-150.49999999999881
 30
0.0
 11
6415.4999999999973
 21
-249.49999999999889
 31
0.0
1001
ACDBBLOCKREPETAG
1070
     1
1071
       33
1005
122517
  0
LINE
  5
1259BD
  8
HIDDEN
 10
6411.9999999999991
 20
-237.99999999999889
 30
0.0
 11
6411.9999999999991
 21
-161.99999999999881
 31
0.0
1001
ACDBBLOCKREPETAG
1070
     1
1071
       34
1005
122518
  0
LINE
  5
1259BE
  8
OBJECT
 10
6415.4999999999973
 20
-249.49999999999889
 30
0.0
 11
6437.1529634747967
 21
-249.49999999999889
 31
0.0
1001
ACDBBLOCKREPETAG
1070
     1
1071
       35
1005
122519
  0
LINE
  5
1259BF
  8
OBJECT
 10
6415.5000000000009
 20
-150.49999999999881
 30
0.0
 11
6437.1529634747967
 21
-150.49999999999881
 31
0.0
1001
ACDBBLOCKREPETAG
1070
     1
1071
       36
1005
12251A
  0
LINE
  5
1259C0
  8
OBJECT
 10
6454.3220385552468
 20
-176.17579607524911
 30
0.0
 11
6453.0174047416504
 21
-174.40926451251539
 31
0.0
1001
ACDBBLOCKREPETAG
1070
     1
1071
      434
1005
1258AA
  0
ARC
  5
1259C1
  8
OBJECT
 10
6450.3000008248
 20
-179.1461853586334
 30
0.0
 40
5.0
 50
0.0
 51
36.446922476137139
1001
ACDBBLOCKREPETAG
1070
     1
1071
      435
1005
1258AB
  0
LINE
  5
1259C2
  8
OBJECT
 10
6454.322038555375
 20
-223.8242039246939
 30
0.0
 11
6453.0174047417368
 21
-225.59073548763959
 31
0.0
1001
ACDBBLOCKREPETAG
1070
     1
1071
      436
1005
1258AC
  0
ARC
  5
1259C3
  8
OBJECT
 10
6450.3000008248
 20
-220.8538146414817
 30
0.0
 40
5.0
 50
323.55307752631819
 51
0.0
1001
ACDBBLOCKREPETAG
1070
     1
1071
      437
1005
1258AD
  0
LINE
  5
1259C4
  8
OBJECT
 10
6455.3000008247982
 20
-220.8538146414817
 30
0.0
 11
6455.3000008247982
 21
-179.1461853586334
 31
0.0
1001
ACDBBLOCKREPETAG
1070
     1
1071
      438
1005
1258AE
  0
LINE
  5
125C8F
  8
OBJECT
 10
242.00000000000699
 20
-1556.999999999998
 30
0.0
 11
242.00000000000699
 21
-1563.999999999998
 31
0.0
1001
ACDBBLOCKREPETAG
1070
     1
1071
       34
1005
125C8F
  0
LINE
  5
125C90
  8
OBJECT
 10
242.00000000000699
 20
-1563.999999999998
 30
0.0
 11
118.00000000000701
 21
-1563.999999999998
 31
0.0
1001
ACDBBLOCKREPETAG
1070
     1
1071
       35
1005
125C90
  0
LINE
  5
125C91
  8
OBJECT
 10
118.00000000000701
 20
-1563.999999999998
 30
0.0
 11
118.00000000000701
 21
-1556.999999999998
 31
0.0
1001
ACDBBLOCKREPETAG
1070
     1
1071
       36
1005
125C91
  0
LINE
  5
125C92
  8
OBJECT
 10
118.00000000000701
 20
-1556.999999999998
 30
0.0
 11
242.00000000000699
 21
-1556.999999999998
 31
0.0
1001
ACDBBLOCKREPETAG
1070
     1
1071
       37
1005
125C92
  0
LINE
  5
125C93
  8
OBJECT
 10
239.00000000000711
 20
-1556.999999999998
 30
0.0
 11
239.00000000000711
 21
-1520.999999999998
 31
0.0
1001
ACDBBLOCKREPETAG
1070
     1
1071
       38
1005
125C93
  0
LINE
  5
125C94
  8
OBJECT
 10
239.00000000000711
 20
-1520.999999999998
 30
0.0
 11
121.00000000000701
 21
-1520.999999999998
 31
0.0
1001
ACDBBLOCKREPETAG
1070
     1
1071
       39
1005
125C94
  0
LINE
  5
125C95
  8
OBJECT
 10
121.00000000000701
 20
-1520.999999999998
 30
0.0
 11
121.00000000000701
 21
-1556.999999999998
 31
0.0
1001
ACDBBLOCKREPETAG
1070
     1
1071
       40
1005
125C95
  0
LINE
  5
125C96
  8
OBJECT
 10
234.50000000000699
 20
-1516.999999999998
 30
0.0
 11
234.50000000000699
 21
-1506.499999999998
 31
0.0
1001
ACDBBLOCKREPETAG
1070
     1
1071
       41
1005
125C96
  0
LINE
  5
125C97
  8
OBJECT
 10
125.50000000000701
 20
-1506.499999999998
 30
0.0
 11
125.50000000000701
 21
-1516.999999999998
 31
0.0
1001
ACDBBLOCKREPETAG
1070
     1
1071
       42
1005
125C97
  0
LINE
  5
125C98
  8
OBJECT
 10
125.50000000000701
 20
-1516.999999999998
 30
0.0
 11
234.50000000000699
 21
-1516.999999999998
 31
0.0
1001
ACDBBLOCKREPETAG
1070
     1
1071
       43
1005
125C98
  0
LINE
  5
125C99
  8
OBJECT
 10
239.00000000000711
 20
-1520.999999999998
 30
0.0
 11
234.50000000000699
 21
-1516.999999999998
 31
0.0
1001
ACDBBLOCKREPETAG
1070
     1
1071
       44
1005
125C99
  0
LINE
  5
125C9A
  8
OBJECT
 10
121.00000000000701
 20
-1520.999999999998
 30
0.0
 11
125.50000000000701
 21
-1516.999999999998
 31
0.0
1001
ACDBBLOCKREPETAG
1070
     1
1071
       45
1005
125C9A
  0
LINE
  5
125C9B
  8
OBJECT
 10
229.50000000000699
 20
-1501.499999999998
 30
0.0
 11
229.5000000000062
 21
-1480.344919912977
 31
0.0
1001
ACDBBLOCKREPETAG
1070
     1
1071
       46
1005
125C9B
  0
LINE
  5
125C9C
  8
OBJECT
 10
130.50000000000699
 20
-1501.499999999998
 30
0.0
 11
130.50000000000699
 21
-1480.3449199129759
 31
0.0
1001
ACDBBLOCKREPETAG
1070
     1
1071
       47
1005
125C9C
  0
LINE
  5
125C9D
  8
OBJECT
 10
234.50000000000699
 20
-1506.499999999998
 30
0.0
 11
125.50000000000701
 21
-1506.499999999998
 31
0.0
1001
ACDBBLOCKREPETAG
1070
     1
1071
       48
1005
125C9D
  0
LINE
  5
125C9E
  8
OBJECT
 10
229.50000000000699
 20
-1501.499999999998
 30
0.0
 11
130.50000000000699
 21
-1501.499999999998
 31
0.0
1001
ACDBBLOCKREPETAG
1070
     1
1071
       49
1005
125C9E
  0
LINE
  5
125C9F
  8
OBJECT
 10
234.50000000000699
 20
-1506.499999999998
 30
0.0
 11
229.50000000000699
 21
-1501.499999999998
 31
0.0
1001
ACDBBLOCKREPETAG
1070
     1
1071
       50
1005
125C9F
  0
LINE
  5
125CA0
  8
OBJECT
 10
130.50000000000699
 20
-1501.499999999998
 30
0.0
 11
125.5000000000107
 21
-1506.499999999998
 31
0.0
1001
ACDBBLOCKREPETAG
1070
     1
1071
       51
1005
125CA0
  0
INSERT
  5
125CA1
  8
OBJECT
  2
*U3
 10
0.0
 20
-5.0
 30
0.0
  0
LINE
  5
125CA2
  8
HIDDEN
 10
224.50000000000719
 20
-1511.999999999998
 30
0.0
 11
135.50000000000699
 21
-1511.999999999998
 31
0.0
1001
ACDBBLOCKREPETAG
1070
     1
1071
       65
1005
125CA2
  0
ARC
  5
125CA3
  8
OBJECT
 10
180.00000000000699
 20
-1423.999999999998
 30
0.0
 40
50.0
 50
28.819942999992119
 51
243.78043883604639
1001
ACDBBLOCKREPETAG
1070
     1
1071
       49
1005
0
  0
ARC
  5
125CA4
  8
OBJECT
 10
180.00000000000699
 20
-1423.999999999998
 30
0.0
 40
50.0
 50
296.21956116400747
 51
318.52376955954998
1001
ACDBBLOCKREPETAG
1070
     1
1071
       49
1005
0
  0
CIRCLE
  5
125CA5
  8
OBJECT
 10
180.00000000000699
 20
-1423.999999999998
 30
0.0
 40
70.0
1001
ACDBBLOCKREPETAG
1070
     1
1071
       50
1005
125CA5
  0
CIRCLE
  5
125CA6
  8
OBJECT
 10
180.00000000000699
 20
-1423.999999999998
 30
0.0
 40
75.0
1001
ACDBBLOCKREPETAG
1070
     1
1071
       51
1005
125CA6
  0
POINT
  5
125CA7
  8
DOTS
 10
180.00000000000699
 20
-1423.999999999998
 30
0.0
1001
ACDBBLOCKREPETAG
1070
     1
1071
       63
1005
125CA7
  0
LINE
  5
125CA8
  8
OBJECT
 10
223.80694712372471
 20
-1399.8970669066971
 30
0.0
 11
212.5546220000067
 21
-1403.3403430000019
 31
0.0
1001
ACDBBLOCKREPETAG
1070
     1
1071
      141
1005
125CA8
  0
LINE
  5
125CA9
  8
OBJECT
 10
198.2255337420863
 20
-1437.207250098623
 30
0.0
 11
212.55462200000309
 21
-1403.3403430000019
 31
0.0
1001
ACDBBLOCKREPETAG
1070
     1
1071
      143
1005
125CA9
  0
ARC
  5
125CAA
  8
OBJECT
 10
207.4351299990665
 20
-1441.1038302380971
 30
0.0
 40
10.0
 50
157.06677829292309
 51
244.01473437026289
1001
ACDBBLOCKREPETAG
1070
     1
1071
      144
1005
125CAA
  0
ARC
  5
125CAB
  8
OBJECT
 10
205.5538625672996
 20
-1437.8511609618711
 30
0.0
 40
7.0
 50
157.06677829292309
 51
244.01473377502219
1001
ACDBBLOCKREPETAG
1070
     1
1071
      145
1005
125CAB
  0
LINE
  5
125CAC
  8
OBJECT
 10
238.86769720860929
 20
-1461.8760376142509
 30
0.0
 11
202.48688253357591
 21
-1444.1435081767611
 31
0.0
1001
ACDBBLOCKREPETAG
1070
     1
1071
      154
1005
125CAC
  0
LINE
  5
125CAD
  8
OBJECT
 10
235.9167324445099
 20
-1466.110794729258
 30
0.0
 11
203.05373004431729
 21
-1450.09289773349
 31
0.0
1001
ACDBBLOCKREPETAG
1070
     1
1071
      155
1005
125CAD
  0
ARC
  5
125CAE
  8
OBJECT
 10
184.7576058985783
 20
-1450.2737555139529
 30
0.0
 40
63.739013211305632
 50
8.1694378253172513
 51
52.219052524698952
1001
ACDBBLOCKREPETAG
1070
     1
1071
      156
1005
125CAE
  0
LINE
  5
125CAF
  8
OBJECT
 10
156.17579607525809
 20
-1469.677961444753
 30
0.0
 11
148.18761767300541
 21
-1475.577458443546
 31
0.0
  0
ARC
  5
125CB0
  8
OBJECT
 10
159.1461853586421
 20
-1473.699999175202
 30
0.0
 40
5.0
 50
90.0
 51
126.4469224760731
  0
LINE
  5
125CB1
  8
OBJECT
 10
203.8242039247032
 20
-1469.6779614446259
 30
0.0
 11
211.8124539801008
 21
-1475.577511360776
 31
0.0
  0
ARC
  5
125CB2
  8
OBJECT
 10
200.85381464149009
 20
-1473.699999175202
 30
0.0
 40
5.0
 50
53.553077526274542
 51
90.0
  0
LINE
  5
125CB3
  8
OBJECT
 10
200.85381464149009
 20
-1468.699999175202
 30
0.0
 11
159.1461853586421
 21
-1468.699999175202
 31
0.0
  0
ARC
  5
125CB4
  8
OBJECT
 10
207.0598311269602
 20
-1482.012771729698
 30
0.0
 40
8.0
 50
16.476216247958561
 51
53.553077526274542
  0
ARC
  5
125CB5
  8
OBJECT
 10
152.94016887305199
 20
-1482.012771729698
 30
0.0
 40
8.0
 50
126.44692247372539
 51
163.5237837520414
  0
LINE
  5
125CB6
  8
OBJECT
 10
145.26866848598161
 20
-1479.743833252975
 30
0.0
 11
144.00000000000699
 21
-1484.0333240792149
 31
0.0
  0
LINE
  5
125CB7
  8
OBJECT
 10
214.73133151403249
 20
-1479.743833252975
 30
0.0
 11
216.00000000000711
 21
-1484.0333240792149
 31
0.0
  0
LINE
  5
125CB8
  8
OBJECT
 10
595.00000000000705
 20
-1092.999999999998
 30
0.0
 11
595.00000000000705
 21
-1099.999999999998
 31
0.0
1001
ACDBBLOCKREPETAG
1070
     1
1071
       18
1005
125CB8
  0
LINE
  5
125CB9
  8
OBJECT
 10
595.00000000000705
 20
-1099.999999999998
 30
0.0
 11
485.00000000000682
 21
-1099.999999999998
 31
0.0
1001
ACDBBLOCKREPETAG
1070
     1
1071
       19
1005
125CB9
  0
LINE
  5
125CBA
  8
OBJECT
 10
485.00000000000682
 20
-1099.999999999998
 30
0.0
 11
485.00000000000682
 21
-1092.999999999998
 31
0.0
1001
ACDBBLOCKREPETAG
1070
     1
1071
       20
1005
125CBA
  0
LINE
  5
125CBB
  8
OBJECT
 10
485.00000000000682
 20
-1092.999999999998
 30
0.0
 11
595.00000000000705
 21
-1092.999999999998
 31
0.0
1001
ACDBBLOCKREPETAG
1070
     1
1071
       21
1005
125CBB
  0
LINE
  5
125CBC
  8
OBJECT
 10
592.00000000000705
 20
-1092.999999999998
 30
0.0
 11
592.00000000000705
 21
-1056.999999999998
 31
0.0
1001
ACDBBLOCKREPETAG
1070
     1
1071
       22
1005
125CBC
  0
LINE
  5
125CBD
  8
OBJECT
 10
592.00000000000705
 20
-1056.999999999998
 30
0.0
 11
488.00000000000688
 21
-1056.999999999998
 31
0.0
1001
ACDBBLOCKREPETAG
1070
     1
1071
       23
1005
125CBD
  0
LINE
  5
125CBE
  8
OBJECT
 10
488.00000000000688
 20
-1056.999999999998
 30
0.0
 11
488.00000000000688
 21
-1092.999999999998
 31
0.0
1001
ACDBBLOCKREPETAG
1070
     1
1071
       24
1005
125CBE
  0
LINE
  5
125CBF
  8
OBJECT
 10
587.50000000000705
 20
-1052.999999999998
 30
0.0
 11
587.50000000000705
 21
-1044.499999999998
 31
0.0
1001
ACDBBLOCKREPETAG
1070
     1
1071
       25
1005
125CBF
  0
LINE
  5
125CC0
  8
OBJECT
 10
492.50000000000688
 20
-1044.499999999998
 30
0.0
 11
492.50000000000688
 21
-1052.999999999998
 31
0.0
1001
ACDBBLOCKREPETAG
1070
     1
1071
       26
1005
125CC0
  0
LINE
  5
125CC1
  8
OBJECT
 10
492.50000000000688
 20
-1052.999999999998
 30
0.0
 11
587.50000000000705
 21
-1052.999999999998
 31
0.0
1001
ACDBBLOCKREPETAG
1070
     1
1071
       27
1005
125CC1
  0
LINE
  5
125CC2
  8
OBJECT
 10
592.00000000000705
 20
-1056.999999999998
 30
0.0
 11
587.50000000000705
 21
-1052.999999999998
 31
0.0
1001
ACDBBLOCKREPETAG
1070
     1
1071
       28
1005
125CC2
  0
LINE
  5
125CC3
  8
OBJECT
 10
488.00000000000688
 20
-1056.999999999998
 30
0.0
 11
492.50000000000688
 21
-1052.999999999998
 31
0.0
1001
ACDBBLOCKREPETAG
1070
     1
1071
       29
1005
125CC3
  0
LINE
  5
125CC4
  8
OBJECT
 10
490.50000000000682
 20
-1044.4999999999959
 30
0.0
 11
589.50000000000705
 21
-1044.499999999998
 31
0.0
1001
ACDBBLOCKREPETAG
1070
     1
1071
       30
1005
125CC4
  0
LINE
  5
125CC5
  8
OBJECT
 10
589.50000000000705
 20
-1044.499999999998
 30
0.0
 11
589.50000000000614
 21
-1016.344919912978
 31
0.0
1001
ACDBBLOCKREPETAG
1070
     1
1071
       31
1005
125CC5
  0
LINE
  5
125CC6
  8
OBJECT
 10
490.50000000000682
 20
-1044.4999999999959
 30
0.0
 11
490.50000000000603
 21
-1016.344919912976
 31
0.0
1001
ACDBBLOCKREPETAG
1070
     1
1071
       32
1005
125CC6
  0
INSERT
  5
125CC7
  8
OBJECT
  2
*U4
 10
0.0
 20
-5.0
 30
0.0
  0
LINE
  5
125CC8
  8
HIDDEN
 10
578.00000000000705
 20
-1047.999999999998
 30
0.0
 11
502.00000000000682
 21
-1047.999999999998
 31
0.0
1001
ACDBBLOCKREPETAG
1070
     1
1071
       57
1005
125CC8
  0
ARC
  5
125CC9
  8
OBJECT
 10
540.00000000000705
 20
-959.99999999999807
 30
0.0
 40
50.0
 50
28.819942999997039
 51
243.78043883604781
1001
ACDBBLOCKREPETAG
1070
     1
1071
       49
1005
0
  0
ARC
  5
125CCA
  8
OBJECT
 10
540.00000000000705
 20
-959.99999999999807
 30
0.0
 40
50.0
 50
296.21956116400168
 51
318.52376955954622
1001
ACDBBLOCKREPETAG
1070
     1
1071
       49
1005
0
  0
CIRCLE
  5
125CCB
  8
OBJECT
 10
540.00000000000705
 20
-959.99999999999807
 30
0.0
 40
70.0
1001
ACDBBLOCKREPETAG
1070
     1
1071
       50
1005
125CCB
  0
CIRCLE
  5
125CCC
  8
OBJECT
 10
540.00000000000705
 20
-959.99999999999807
 30
0.0
 40
75.0
1001
ACDBBLOCKREPETAG
1070
     1
1071
       51
1005
125CCC
  0
POINT
  5
125CCD
  8
DOTS
 10
540.00000000000705
 20
-959.99999999999807
 30
0.0
1001
ACDBBLOCKREPETAG
1070
     1
1071
       63
1005
125CCD
  0
LINE
  5
125CCE
  8
OBJECT
 10
583.80694712372474
 20
-935.89706690669664
 30
0.0
 11
572.5546220000067
 21
-939.34034300000167
 31
0.0
1001
ACDBBLOCKREPETAG
1070
     1
1071
      141
1005
125CCE
  0
LINE
  5
125CCF
  8
OBJECT
 10
558.22553374208633
 20
-973.20725009862315
 30
0.0
 11
572.55462200000306
 21
-939.34034300000167
 31
0.0
1001
ACDBBLOCKREPETAG
1070
     1
1071
      143
1005
125CCF
  0
ARC
  5
125CD0
  8
OBJECT
 10
567.43512999906636
 20
-977.10383023809675
 30
0.0
 40
10.0
 50
157.06677829292209
 51
244.01473437026289
1001
ACDBBLOCKREPETAG
1070
     1
1071
      144
1005
125CD0
  0
ARC
  5
125CD1
  8
OBJECT
 10
565.55386256729957
 20
-973.85116096187085
 30
0.0
 40
7.0
 50
157.06677829292209
 51
244.0147337750206
1001
ACDBBLOCKREPETAG
1070
     1
1071
      145
1005
125CD1
  0
LINE
  5
125CD2
  8
OBJECT
 10
598.86769720860923
 20
-997.87603761425123
 30
0.0
 11
562.48688253357591
 21
-980.1435081767612
 31
0.0
1001
ACDBBLOCKREPETAG
1070
     1
1071
      154
1005
125CD2
  0
LINE
  5
125CD3
  8
OBJECT
 10
595.91673244450988
 20
-1002.110794729258
 30
0.0
 11
563.05373004431715
 21
-986.09289773348962
 31
0.0
1001
ACDBBLOCKREPETAG
1070
     1
1071
      155
1005
125CD3
  0
ARC
  5
125CD4
  8
OBJECT
 10
544.75760589857839
 20
-986.27375551395312
 30
0.0
 40
63.739013211305632
 50
8.1694378253174822
 51
52.21905252470151
1001
ACDBBLOCKREPETAG
1070
     1
1071
      156
1005
125CD4
  0
LINE
  5
125CD5
  8
OBJECT
 10
516.17579607525818
 20
-1005.677961444753
 30
0.0
 11
508.18761767300521
 21
-1011.577458443546
 31
0.0
  0
ARC
  5
125CD6
  8
OBJECT
 10
519.14618535864224
 20
-1009.699999175202
 30
0.0
 40
5.0
 50
90.0
 51
126.4469224760718
  0
LINE
  5
125CD7
  8
OBJECT
 10
563.82420392470306
 20
-1005.677961444626
 30
0.0
 11
571.81245398010083
 21
-1011.577511360776
 31
0.0
  0
ARC
  5
125CD8
  8
OBJECT
 10
560.85381464148998
 20
-1009.699999175202
 30
0.0
 40
5.0
 50
53.55307752627585
 51
90.0
  0
LINE
  5
125CD9
  8
OBJECT
 10
560.85381464148998
 20
-1004.699999175202
 30
0.0
 11
519.14618535864224
 21
-1004.699999175202
 31
0.0
  0
ARC
  5
125CDA
  8
OBJECT
 10
567.05983112696026
 20
-1018.012771729698
 30
0.0
 40
8.0
 50
16.476216247958561
 51
53.55307752627585
  0
ARC
  5
125CDB
  8
OBJECT
 10
512.94016887305202
 20
-1018.012771729698
 30
0.0
 40
8.0
 50
126.4469224737241
 51
163.5237837520414
  0
LINE
  5
125CDC
  8
OBJECT
 10
505.26866848598161
 20
-1015.743833252974
 30
0.0
 11
504.00000000000688
 21
-1020.033324079215
 31
0.0
  0
LINE
  5
125CDD
  8
OBJECT
 10
574.73133151403215
 20
-1015.743833252974
 30
0.0
 11
576.00000000000705
 21
-1020.033324079215
 31
0.0
  0
LINE
  5
125CDE
  8
OBJECT
 10
227.00000000000711
 20
-1092.999999999998
 30
0.0
 11
227.00000000000711
 21
-1099.999999999998
 31
0.0
1001
ACDBBLOCKREPETAG
1070
     1
1071
        0
1005
125CDE
  0
LINE
  5
125CDF
  8
OBJECT
 10
227.00000000000711
 20
-1099.999999999998
 30
0.0
 11
133.00000000000699
 21
-1099.999999999998
 31
0.0
1001
ACDBBLOCKREPETAG
1070
     1
1071
        1
1005
125CDF
  0
LINE
  5
125CE0
  8
OBJECT
 10
133.00000000000699
 20
-1099.999999999998
 30
0.0
 11
133.00000000000699
 21
-1092.999999999998
 31
0.0
1001
ACDBBLOCKREPETAG
1070
     1
1071
        2
1005
125CE0
  0
LINE
  5
125CE1
  8
OBJECT
 10
133.00000000000699
 20
-1092.999999999998
 30
0.0
 11
227.00000000000711
 21
-1092.999999999998
 31
0.0
1001
ACDBBLOCKREPETAG
1070
     1
1071
        3
1005
125CE1
  0
LINE
  5
125CE2
  8
OBJECT
 10
224.00000000000699
 20
-1092.999999999998
 30
0.0
 11
224.00000000000699
 21
-1056.999999999998
 31
0.0
1001
ACDBBLOCKREPETAG
1070
     1
1071
        4
1005
125CE2
  0
LINE
  5
125CE3
  8
OBJECT
 10
224.00000000000699
 20
-1056.999999999998
 30
0.0
 11
136.00000000000699
 21
-1056.999999999998
 31
0.0
1001
ACDBBLOCKREPETAG
1070
     1
1071
        5
1005
125CE3
  0
LINE
  5
125CE4
  8
OBJECT
 10
136.00000000000699
 20
-1056.999999999998
 30
0.0
 11
136.00000000000699
 21
-1092.999999999998
 31
0.0
1001
ACDBBLOCKREPETAG
1070
     1
1071
        6
1005
125CE4
  0
LINE
  5
125CE5
  8
OBJECT
 10
219.50000000000699
 20
-1052.999999999998
 30
0.0
 11
219.50000000000699
 21
-1044.499999999998
 31
0.0
1001
ACDBBLOCKREPETAG
1070
     1
1071
        7
1005
125CE5
  0
LINE
  5
125CE6
  8
OBJECT
 10
140.50000000000699
 20
-1044.499999999998
 30
0.0
 11
140.50000000000699
 21
-1052.999999999998
 31
0.0
1001
ACDBBLOCKREPETAG
1070
     1
1071
        8
1005
125CE6
  0
LINE
  5
125CE7
  8
OBJECT
 10
140.50000000000699
 20
-1052.999999999998
 30
0.0
 11
219.50000000000699
 21
-1052.999999999998
 31
0.0
1001
ACDBBLOCKREPETAG
1070
     1
1071
        9
1005
125CE7
  0
LINE
  5
125CE8
  8
OBJECT
 10
224.00000000000699
 20
-1056.999999999998
 30
0.0
 11
219.50000000000699
 21
-1052.999999999998
 31
0.0
1001
ACDBBLOCKREPETAG
1070
     1
1071
       10
1005
125CE8
  0
LINE
  5
125CE9
  8
OBJECT
 10
136.00000000000699
 20
-1056.999999999998
 30
0.0
 11
140.50000000000699
 21
-1052.999999999998
 31
0.0
1001
ACDBBLOCKREPETAG
1070
     1
1071
       11
1005
125CE9
  0
LINE
  5
125CEA
  8
OBJECT
 10
133.50000000000699
 20
-1044.499999999997
 30
0.0
 11
226.50000000000711
 21
-1044.499999999998
 31
0.0
1001
ACDBBLOCKREPETAG
1070
     1
1071
       12
1005
125CEA
  0
ARC
  5
125CEB
  8
OBJECT
 10
226.50000000000711
 20
-1041.499999999998
 30
0.0
 40
3.0
 50
270.0
 51
0.0
1001
ACDBBLOCKREPETAG
1070
     1
1071
       13
1005
125CEB
  0
LINE
  5
125CEC
  8
OBJECT
 10
229.50000000000699
 20
-1041.499999999998
 30
0.0
 11
229.5000000000079
 21
-1016.344919912977
 31
0.0
1001
ACDBBLOCKREPETAG
1070
     1
1071
       15
1005
125CEC
  0
LINE
  5
125CED
  8
OBJECT
 10
130.50000000000699
 20
-1041.499999999997
 30
0.0
 11
130.5000000000079
 21
-1016.344919912978
 31
0.0
1001
ACDBBLOCKREPETAG
1070
     1
1071
       16
1005
125CED
  0
ARC
  5
125CEE
  8
OBJECT
 10
133.50000000000699
 20
-1041.499999999997
 30
0.0
 40
3.0
 50
180.0
 51
270.0
1001
ACDBBLOCKREPETAG
1070
     1
1071
       17
1005
125CEE
  0
INSERT
  5
125CEF
  8
OBJECT
  2
*U5
 10
0.0
 20
-5.0
 30
0.0
  0
LINE
  5
125CF0
  8
HIDDEN
 10
210.00000000000719
 20
-1047.999999999998
 30
0.0
 11
150.00000000000699
 21
-1047.999999999998
 31
0.0
1001
ACDBBLOCKREPETAG
1070
     1
1071
       56
1005
125CF0
  0
ARC
  5
125CF1
  8
OBJECT
 10
180.00000000000699
 20
-959.99999999999807
 30
0.0
 40
50.0
 50
28.819942999997821
 51
243.78043883604639
1001
ACDBBLOCKREPETAG
1070
     1
1071
       49
1005
0
  0
ARC
  5
125CF2
  8
OBJECT
 10
180.00000000000699
 20
-959.99999999999807
 30
0.0
 40
50.0
 50
296.21956116400457
 51
318.52376955954509
1001
ACDBBLOCKREPETAG
1070
     1
1071
       49
1005
0
  0
CIRCLE
  5
125CF3
  8
OBJECT
 10
180.00000000000699
 20
-959.99999999999807
 30
0.0
 40
70.0
1001
ACDBBLOCKREPETAG
1070
     1
1071
       50
1005
125CF3
  0
CIRCLE
  5
125CF4
  8
OBJECT
 10
180.00000000000699
 20
-959.99999999999807
 30
0.0
 40
75.0
1001
ACDBBLOCKREPETAG
1070
     1
1071
       51
1005
125CF4
  0
POINT
  5
125CF5
  8
DOTS
 10
180.00000000000699
 20
-959.99999999999807
 30
0.0
1001
ACDBBLOCKREPETAG
1070
     1
1071
       63
1005
125CF5
  0
LINE
  5
125CF6
  8
OBJECT
 10
223.80694712372471
 20
-935.89706690669664
 30
0.0
 11
212.5546220000067
 21
-939.34034300000167
 31
0.0
1001
ACDBBLOCKREPETAG
1070
     1
1071
      141
1005
125CF6
  0
LINE
  5
125CF7
  8
OBJECT
 10
198.2255337420863
 20
-973.20725009862315
 30
0.0
 11
212.55462200000309
 21
-939.34034300000167
 31
0.0
1001
ACDBBLOCKREPETAG
1070
     1
1071
      143
1005
125CF7
  0
ARC
  5
125CF8
  8
OBJECT
 10
207.4351299990665
 20
-977.10383023809675
 30
0.0
 40
10.0
 50
157.06677829292309
 51
244.01473437026289
1001
ACDBBLOCKREPETAG
1070
     1
1071
      144
1005
125CF8
  0
ARC
  5
125CF9
  8
OBJECT
 10
205.5538625672996
 20
-973.85116096187085
 30
0.0
 40
7.0
 50
157.06677829292309
 51
244.01473377502219
1001
ACDBBLOCKREPETAG
1070
     1
1071
      145
1005
125CF9
  0
LINE
  5
125CFA
  8
OBJECT
 10
238.86769720860929
 20
-997.87603761425123
 30
0.0
 11
202.48688253357591
 21
-980.1435081767612
 31
0.0
1001
ACDBBLOCKREPETAG
1070
     1
1071
      154
1005
125CFA
  0
LINE
  5
125CFB
  8
OBJECT
 10
235.9167324445099
 20
-1002.110794729258
 30
0.0
 11
203.05373004431729
 21
-986.09289773348962
 31
0.0
1001
ACDBBLOCKREPETAG
1070
     1
1071
      155
1005
125CFB
  0
ARC
  5
125CFC
  8
OBJECT
 10
184.7576058985783
 20
-986.27375551395312
 30
0.0
 40
63.739013211305632
 50
8.1694378253172513
 51
52.219052524698952
1001
ACDBBLOCKREPETAG
1070
     1
1071
      156
1005
125CFC
  0
LINE
  5
125CFD
  8
OBJECT
 10
156.17579607525809
 20
-1005.677961444753
 30
0.0
 11
148.18761767300541
 21
-1011.577458443546
 31
0.0
  0
ARC
  5
125CFE
  8
OBJECT
 10
159.1461853586421
 20
-1009.699999175202
 30
0.0
 40
5.0
 50
90.0
 51
126.4469224760731
  0
LINE
  5
125CFF
  8
OBJECT
 10
203.8242039247032
 20
-1005.677961444626
 30
0.0
 11
211.8124539801008
 21
-1011.577511360776
 31
0.0
  0
ARC
  5
125D00
  8
OBJECT
 10
200.85381464149009
 20
-1009.699999175202
 30
0.0
 40
5.0
 50
53.553077526274542
 51
90.0
  0
LINE
  5
125D01
  8
OBJECT
 10
200.85381464149009
 20
-1004.699999175202
 30
0.0
 11
159.1461853586421
 21
-1004.699999175202
 31
0.0
  0
ARC
  5
125D02
  8
OBJECT
 10
207.0598311269602
 20
-1018.012771729698
 30
0.0
 40
8.0
 50
16.476216247958561
 51
53.553077526274542
  0
ARC
  5
125D03
  8
OBJECT
 10
152.94016887305199
 20
-1018.012771729698
 30
0.0
 40
8.0
 50
126.44692247372539
 51
163.5237837520414
  0
LINE
  5
125D04
  8
OBJECT
 10
145.26866848598161
 20
-1015.743833252974
 30
0.0
 11
144.00000000000699
 21
-1020.033324079215
 31
0.0
  0
LINE
  5
125D05
  8
OBJECT
 10
214.73133151403249
 20
-1015.743833252974
 30
0.0
 11
216.00000000000711
 21
-1020.033324079215
 31
0.0
  0
LINE
  5
125D06
  8
OBJECT
 10
6633.0
 20
-137.99999999999801
 30
0.0
 11
6639.9999999999991
 21
-137.99999999999801
 31
0.0
1001
ACDBBLOCKREPETAG
1070
     1
1071
       47
1005
125D06
  0
LINE
  5
125D07
  8
OBJECT
 10
6639.9999999999991
 20
-137.99999999999801
 30
0.0
 11
6639.9999999999991
 21
-261.99999999999801
 31
0.0
1001
ACDBBLOCKREPETAG
1070
     1
1071
       48
1005
125D07
  0
LINE
  5
125D08
  8
OBJECT
 10
6639.9999999999991
 20
-261.99999999999801
 30
0.0
 11
6633.0
 21
-261.99999999999801
 31
0.0
1001
ACDBBLOCKREPETAG
1070
     1
1071
       49
1005
125D08
  0
LINE
  5
125D09
  8
OBJECT
 10
6633.0
 20
-261.99999999999801
 30
0.0
 11
6633.0
 21
-137.99999999999801
 31
0.0
1001
ACDBBLOCKREPETAG
1070
     1
1071
       50
1005
125D09
  0
LINE
  5
125D0A
  8
CENTER
 10
6655.0
 20
-199.99999999999801
 30
0.0
 11
6580.0
 21
-199.99999999999801
 31
0.0
1001
ACDBBLOCKREPETAG
1070
     1
1071
       51
1005
125D0A
  0
LINE
  5
125D0B
  8
OBJECT
 10
6633.0
 20
-140.99999999999801
 30
0.0
 11
6597.0
 21
-140.99999999999801
 31
0.0
1001
ACDBBLOCKREPETAG
1070
     1
1071
       52
1005
125D0B
  0
LINE
  5
125D0C
  8
OBJECT
 10
6597.0
 20
-140.99999999999801
 30
0.0
 11
6597.0
 21
-258.99999999999801
 31
0.0
1001
ACDBBLOCKREPETAG
1070
     1
1071
       53
1005
125D0C
  0
LINE
  5
125D0D
  8
OBJECT
 10
6597.0
 20
-258.99999999999801
 30
0.0
 11
6633.0
 21
-258.99999999999801
 31
0.0
1001
ACDBBLOCKREPETAG
1070
     1
1071
       54
1005
125D0D
  0
LINE
  5
125D0E
  8
OBJECT
 10
6592.9999999999991
 20
-145.49999999999801
 30
0.0
 11
6585.9999999999973
 21
-145.49999999999801
 31
0.0
1001
ACDBBLOCKREPETAG
1070
     1
1071
       55
1005
125D0E
  0
LINE
  5
125D0F
  8
OBJECT
 10
6585.9999999999973
 20
-254.49999999999801
 30
0.0
 11
6592.9999999999991
 21
-254.49999999999801
 31
0.0
1001
ACDBBLOCKREPETAG
1070
     1
1071
       56
1005
125D0F
  0
LINE
  5
125D10
  8
OBJECT
 10
6592.9999999999991
 20
-254.49999999999801
 30
0.0
 11
6592.9999999999991
 21
-145.49999999999801
 31
0.0
1001
ACDBBLOCKREPETAG
1070
     1
1071
       57
1005
125D10
  0
LINE
  5
125D11
  8
OBJECT
 10
6597.0
 20
-140.99999999999801
 30
0.0
 11
6592.9999999999991
 21
-145.49999999999801
 31
0.0
1001
ACDBBLOCKREPETAG
1070
     1
1071
       58
1005
125D11
  0
LINE
  5
125D12
  8
OBJECT
 10
6597.0
 20
-258.99999999999801
 30
0.0
 11
6592.9999999999991
 21
-254.49999999999801
 31
0.0
1001
ACDBBLOCKREPETAG
1070
     1
1071
       59
1005
125D12
  0
LINE
  5
125D13
  8
OBJECT
 10
6583.0
 20
-137.99999999999801
 30
0.0
 11
6580.0
 21
-137.99999999999801
 31
0.0
1001
ACDBBLOCKREPETAG
1070
     1
1071
       60
1005
125D13
  0
ARC
  5
125D14
  8
OBJECT
 10
6583.0
 20
-140.99999999999801
 30
0.0
 40
3.0
 50
0.0
 51
90.0
1001
ACDBBLOCKREPETAG
1070
     1
1071
       61
1005
125D14
  0
LINE
  5
125D15
  8
OBJECT
 10
6580.0
 20
-261.99999999999801
 30
0.0
 11
6583.0
 21
-261.99999999999801
 31
0.0
1001
ACDBBLOCKREPETAG
1070
     1
1071
       62
1005
125D15
  0
ARC
  5
125D16
  8
OBJECT
 10
6583.0
 20
-258.99999999999801
 30
0.0
 40
3.0
 50
270.0
 51
0.0
1001
ACDBBLOCKREPETAG
1070
     1
1071
       63
1005
125D16
  0
LINE
  5
125D17
  8
OBJECT
 10
6585.9999999999973
 20
-258.99999999999801
 30
0.0
 11
6585.9999999999973
 21
-140.99999999999801
 31
0.0
1001
ACDBBLOCKREPETAG
1070
     1
1071
       64
1005
125D17
  0
LINE
  5
125D18
  8
HIDDEN
 10
6588.0
 20
-155.49999999999801
 30
0.0
 11
6588.0
 21
-244.49999999999801
 31
0.0
1001
ACDBBLOCKREPETAG
1070
     1
1071
       65
1005
125D18
  0
LINE
  5
125D19
  8
OBJECT
 10
4632.9999999999991
 20
-137.99999999999801
 30
0.0
 11
4639.9999999999991
 21
-137.99999999999801
 31
0.0
1001
ACDBBLOCKREPETAG
1070
     1
1071
       47
1005
125D19
  0
LINE
  5
125D1A
  8
OBJECT
 10
4639.9999999999991
 20
-137.99999999999801
 30
0.0
 11
4639.9999999999991
 21
-261.99999999999801
 31
0.0
1001
ACDBBLOCKREPETAG
1070
     1
1071
       48
1005
125D1A
  0
LINE
  5
125D1B
  8
OBJECT
 10
4639.9999999999991
 20
-261.99999999999801
 30
0.0
 11
4632.9999999999991
 21
-261.99999999999801
 31
0.0
1001
ACDBBLOCKREPETAG
1070
     1
1071
       49
1005
125D1B
  0
LINE
  5
125D1C
  8
OBJECT
 10
4632.9999999999991
 20
-261.99999999999801
 30
0.0
 11
4632.9999999999991
 21
-137.99999999999801
 31
0.0
1001
ACDBBLOCKREPETAG
1070
     1
1071
       50
1005
125D1C
  0
LINE
  5
125D1D
  8
CENTER
 10
4654.9999999999991
 20
-199.99999999999801
 30
0.0
 11
4579.9999999999991
 21
-199.99999999999801
 31
0.0
1001
ACDBBLOCKREPETAG
1070
     1
1071
       51
1005
125D1D
  0
LINE
  5
125D1E
  8
OBJECT
 10
4632.9999999999991
 20
-140.99999999999801
 30
0.0
 11
4596.9999999999991
 21
-140.99999999999801
 31
0.0
1001
ACDBBLOCKREPETAG
1070
     1
1071
       52
1005
125D1E
  0
LINE
  5
125D1F
  8
OBJECT
 10
4596.9999999999991
 20
-140.99999999999801
 30
0.0
 11
4596.9999999999991
 21
-258.99999999999801
 31
0.0
1001
ACDBBLOCKREPETAG
1070
     1
1071
       53
1005
125D1F
  0
LINE
  5
125D20
  8
OBJECT
 10
4596.9999999999991
 20
-258.99999999999801
 30
0.0
 11
4632.9999999999991
 21
-258.99999999999801
 31
0.0
1001
ACDBBLOCKREPETAG
1070
     1
1071
       54
1005
125D20
  0
LINE
  5
125D21
  8
OBJECT
 10
4592.9999999999991
 20
-145.49999999999801
 30
0.0
 11
4585.9999999999991
 21
-145.49999999999801
 31
0.0
1001
ACDBBLOCKREPETAG
1070
     1
1071
       55
1005
125D21
  0
LINE
  5
125D22
  8
OBJECT
 10
4585.9999999999991
 20
-254.49999999999801
 30
0.0
 11
4592.9999999999991
 21
-254.49999999999801
 31
0.0
1001
ACDBBLOCKREPETAG
1070
     1
1071
       56
1005
125D22
  0
LINE
  5
125D23
  8
OBJECT
 10
4592.9999999999991
 20
-254.49999999999801
 30
0.0
 11
4592.9999999999991
 21
-145.49999999999801
 31
0.0
1001
ACDBBLOCKREPETAG
1070
     1
1071
       57
1005
125D23
  0
LINE
  5
125D24
  8
OBJECT
 10
4596.9999999999991
 20
-140.99999999999801
 30
0.0
 11
4592.9999999999991
 21
-145.49999999999801
 31
0.0
1001
ACDBBLOCKREPETAG
1070
     1
1071
       58
1005
125D24
  0
LINE
  5
125D25
  8
OBJECT
 10
4596.9999999999991
 20
-258.99999999999801
 30
0.0
 11
4592.9999999999991
 21
-254.49999999999801
 31
0.0
1001
ACDBBLOCKREPETAG
1070
     1
1071
       59
1005
125D25
  0
LINE
  5
125D26
  8
OBJECT
 10
4582.9999999999991
 20
-137.99999999999801
 30
0.0
 11
4579.9999999999991
 21
-137.99999999999801
 31
0.0
1001
ACDBBLOCKREPETAG
1070
     1
1071
       60
1005
125D26
  0
ARC
  5
125D27
  8
OBJECT
 10
4582.9999999999991
 20
-140.99999999999801
 30
0.0
 40
3.0
 50
0.0
 51
90.0
1001
ACDBBLOCKREPETAG
1070
     1
1071
       61
1005
125D27
  0
LINE
  5
125D28
  8
OBJECT
 10
4579.9999999999991
 20
-261.99999999999801
 30
0.0
 11
4582.9999999999991
 21
-261.99999999999801
 31
0.0
1001
ACDBBLOCKREPETAG
1070
     1
1071
       62
1005
125D28
  0
ARC
  5
125D29
  8
OBJECT
 10
4582.9999999999991
 20
-258.99999999999801
 30
0.0
 40
3.0
 50
270.0
 51
0.0
1001
ACDBBLOCKREPETAG
1070
     1
1071
       63
1005
125D29
  0
LINE
  5
125D2A
  8
OBJECT
 10
4585.9999999999991
 20
-258.99999999999801
 30
0.0
 11
4585.9999999999991
 21
-140.99999999999801
 31
0.0
1001
ACDBBLOCKREPETAG
1070
     1
1071
       64
1005
125D2A
  0
LINE
  5
125D2B
  8
HIDDEN
 10
4587.9999999999991
 20
-155.49999999999801
 30
0.0
 11
4587.9999999999991
 21
-244.49999999999801
 31
0.0
1001
ACDBBLOCKREPETAG
1070
     1
1071
       65
1005
125D2B
  0
LINE
  5
125D2C
  8
OBJECT
 10
2632.9999999999991
 20
-137.99999999999801
 30
0.0
 11
2639.9999999999991
 21
-137.99999999999801
 31
0.0
1001
ACDBBLOCKREPETAG
1070
     1
1071
       47
1005
125D2C
  0
LINE
  5
125D2D
  8
OBJECT
 10
2639.9999999999991
 20
-137.99999999999801
 30
0.0
 11
2639.9999999999991
 21
-261.99999999999801
 31
0.0
1001
ACDBBLOCKREPETAG
1070
     1
1071
       48
1005
125D2D
  0
LINE
  5
125D2E
  8
OBJECT
 10
2639.9999999999991
 20
-261.99999999999801
 30
0.0
 11
2632.9999999999991
 21
-261.99999999999801
 31
0.0
1001
ACDBBLOCKREPETAG
1070
     1
1071
       49
1005
125D2E
  0
LINE
  5
125D2F
  8
OBJECT
 10
2632.9999999999991
 20
-261.99999999999801
 30
0.0
 11
2632.9999999999991
 21
-137.99999999999801
 31
0.0
1001
ACDBBLOCKREPETAG
1070
     1
1071
       50
1005
125D2F
  0
LINE
  5
125D30
  8
CENTER
 10
2654.9999999999991
 20
-199.99999999999801
 30
0.0
 11
2579.9999999999991
 21
-199.99999999999801
 31
0.0
1001
ACDBBLOCKREPETAG
1070
     1
1071
       51
1005
125D30
  0
LINE
  5
125D31
  8
OBJECT
 10
2632.9999999999991
 20
-140.99999999999801
 30
0.0
 11
2596.9999999999991
 21
-140.99999999999801
 31
0.0
1001
ACDBBLOCKREPETAG
1070
     1
1071
       52
1005
125D31
  0
LINE
  5
125D32
  8
OBJECT
 10
2596.9999999999991
 20
-140.99999999999801
 30
0.0
 11
2596.9999999999991
 21
-258.99999999999801
 31
0.0
1001
ACDBBLOCKREPETAG
1070
     1
1071
       53
1005
125D32
  0
LINE
  5
125D33
  8
OBJECT
 10
2596.9999999999991
 20
-258.99999999999801
 30
0.0
 11
2632.9999999999991
 21
-258.99999999999801
 31
0.0
1001
ACDBBLOCKREPETAG
1070
     1
1071
       54
1005
125D33
  0
LINE
  5
125D34
  8
OBJECT
 10
2592.9999999999991
 20
-145.49999999999801
 30
0.0
 11
2585.9999999999991
 21
-145.49999999999801
 31
0.0
1001
ACDBBLOCKREPETAG
1070
     1
1071
       55
1005
125D34
  0
LINE
  5
125D35
  8
OBJECT
 10
2585.9999999999991
 20
-254.49999999999801
 30
0.0
 11
2592.9999999999991
 21
-254.49999999999801
 31
0.0
1001
ACDBBLOCKREPETAG
1070
     1
1071
       56
1005
125D35
  0
LINE
  5
125D36
  8
OBJECT
 10
2592.9999999999991
 20
-254.49999999999801
 30
0.0
 11
2592.9999999999991
 21
-145.49999999999801
 31
0.0
1001
ACDBBLOCKREPETAG
1070
     1
1071
       57
1005
125D36
  0
LINE
  5
125D37
  8
OBJECT
 10
2596.9999999999991
 20
-140.99999999999801
 30
0.0
 11
2592.9999999999991
 21
-145.49999999999801
 31
0.0
1001
ACDBBLOCKREPETAG
1070
     1
1071
       58
1005
125D37
  0
LINE
  5
125D38
  8
OBJECT
 10
2596.9999999999991
 20
-258.99999999999801
 30
0.0
 11
2592.9999999999991
 21
-254.49999999999801
 31
0.0
1001
ACDBBLOCKREPETAG
1070
     1
1071
       59
1005
125D38
  0
LINE
  5
125D39
  8
OBJECT
 10
2582.9999999999991
 20
-137.99999999999801
 30
0.0
 11
2579.9999999999991
 21
-137.99999999999801
 31
0.0
1001
ACDBBLOCKREPETAG
1070
     1
1071
       60
1005
125D39
  0
ARC
  5
125D3A
  8
OBJECT
 10
2582.9999999999991
 20
-140.99999999999801
 30
0.0
 40
3.0
 50
0.0
 51
90.0
1001
ACDBBLOCKREPETAG
1070
     1
1071
       61
1005
125D3A
  0
LINE
  5
125D3B
  8
OBJECT
 10
2579.9999999999991
 20
-261.99999999999801
 30
0.0
 11
2582.9999999999991
 21
-261.99999999999801
 31
0.0
1001
ACDBBLOCKREPETAG
1070
     1
1071
       62
1005
125D3B
  0
ARC
  5
125D3C
  8
OBJECT
 10
2582.9999999999991
 20
-258.99999999999801
 30
0.0
 40
3.0
 50
270.0
 51
0.0
1001
ACDBBLOCKREPETAG
1070
     1
1071
       63
1005
125D3C
  0
LINE
  5
125D3D
  8
OBJECT
 10
2585.9999999999991
 20
-258.99999999999801
 30
0.0
 11
2585.9999999999991
 21
-140.99999999999801
 31
0.0
1001
ACDBBLOCKREPETAG
1070
     1
1071
       64
1005
125D3D
  0
LINE
  5
125D3E
  8
HIDDEN
 10
2587.9999999999991
 20
-155.49999999999801
 30
0.0
 11
2587.9999999999991
 21
-244.49999999999801
 31
0.0
1001
ACDBBLOCKREPETAG
1070
     1
1071
       65
1005
125D3E
  0
LINE
  5
125D3F
  8
SLIM
 10
12434.62485174211
 20
-150.5
 30
0.0
 11
12460.2662412277
 21
-124.858610514414
 31
0.0
1001
GRADIENTCOLOR1ACI
1070
     5
1001
GRADIENTCOLOR2ACI
1070
     2
1001
ACAD
1010
0.0
1020
0.0
1030
0.0
  0
LINE
  5
125D40
  8
SLIM
 10
12466.96656796274
 20
-127.1385399004393
 30
0.0
 11
12475.4966737955
 21
-118.6084340676734
 31
0.0
1001
GRADIENTCOLOR1ACI
1070
     5
1001
GRADIENTCOLOR2ACI
1070
     2
1001
ACAD
1010
0.0
1020
0.0
1030
0.0
  0
LINE
  5
125D41
  8
SLIM
 10
12480.729808117931
 20
-122.3555558663183
 30
0.0
 11
12487.10092058016
 21
-115.98444340408869
 31
0.0
1001
GRADIENTCOLOR1ACI
1070
     5
1001
GRADIENTCOLOR2ACI
1070
     2
1001
ACAD
1010
0.0
1020
0.0
1030
0.0
  0
LINE
  5
125D42
  8
SLIM
 10
12491.62615505049
 20
-120.4394650548292
 30
0.0
 11
12497.013124938399
 21
-115.0524951669185
 31
0.0
1001
GRADIENTCOLOR1ACI
1070
     5
1001
GRADIENTCOLOR2ACI
1070
     2
1001
ACAD
1010
0.0
1020
0.0
1030
0.0
  0
LINE
  5
125D43
  8
SLIM
 10
12501.03912728228
 20
-120.00674894410621
 30
0.0
 11
12505.84469431025
 21
-115.20118191613891
 31
0.0
1001
GRADIENTCOLOR1ACI
1070
     5
1001
GRADIENTCOLOR2ACI
1070
     2
1001
ACAD
1010
0.0
1020
0.0
1030
0.0
  0
LINE
  5
125D44
  8
SLIM
 10
12509.464325564621
 20
-120.5618067828391
 30
0.0
 11
12513.884473575559
 21
-116.14165877189311
 31
0.0
1001
GRADIENTCOLOR1ACI
1070
     5
1001
GRADIENTCOLOR2ACI
1070
     2
1001
ACAD
1010
0.0
1020
0.0
1030
0.0
  0
LINE
  5
125D45
  8
SLIM
 10
12517.147132338559
 20
-121.85925612995651
 30
0.0
 11
12521.2955183575
 21
-117.7108701110201
 31
0.0
1001
GRADIENTCOLOR1ACI
1070
     5
1001
GRADIENTCOLOR2ACI
1070
     2
1001
ACAD
1010
0.0
1020
0.0
1030
0.0
  0
LINE
  5
125D46
  8
SLIM
 10
12524.22929262222
 20
-123.7573519673733
 30
0.0
 11
12528.179600214011
 21
-119.80704437558779
 31
0.0
1001
GRADIENTCOLOR1ACI
1070
     5
1001
GRADIENTCOLOR2ACI
1070
     2
1001
ACAD
1010
0.0
1020
0.0
1030
0.0
  0
LINE
  5
125D47
  8
SLIM
 10
12530.800159840819
 20
-126.16674086984671
 30
0.0
 11
12534.604195997101
 21
-122.3627047135587
 31
0.0
1001
GRADIENTCOLOR1ACI
1070
     5
1001
GRADIENTCOLOR2ACI
1070
     2
1001
ACAD
1010
0.0
1020
0.0
1030
0.0
  0
LINE
  5
125D48
  8
SLIM
 10
12536.91893009735
 20
-129.02822673437819
 30
0.0
 11
12540.615585390289
 21
-125.3315714414439
 31
0.0
1001
GRADIENTCOLOR1ACI
1070
     5
1001
GRADIENTCOLOR2ACI
1070
     2
1001
ACAD
1010
0.0
1020
0.0
1030
0.0
  0
LINE
  5
125D49
  8
SLIM
 10
12542.625662068
 20
-132.30175088479609
 30
0.0
 11
12546.24585805909
 21
-128.68155489371199
 31
0.0
1001
GRADIENTCOLOR1ACI
1070
     5
1001
GRADIENTCOLOR2ACI
1070
     2
1001
ACAD
1010
0.0
1020
0.0
1030
0.0
  0
LINE
  5
125D4A
  8
SLIM
 10
12432.39076526292
 20
-251.51690381094841
 30
0.0
 11
12434.407669073869
 21
-249.49999999999861
 31
0.0
1001
GRADIENTCOLOR1ACI
1070
     5
1001
GRADIENTCOLOR2ACI
1070
     2
1001
ACAD
1010
0.0
1020
0.0
1030
0.0
  0
LINE
  5
125D4B
  8
SLIM
 10
12547.94722005113
 20
-135.96044902274201
 30
0.0
 11
12551.516903810951
 21
-132.39076526292041
 31
0.0
1001
GRADIENTCOLOR1ACI
1070
     5
1001
GRADIENTCOLOR2ACI
1070
     2
1001
ACAD
1010
0.0
1020
0.0
1030
0.0
  0
LINE
  5
125D4C
  8
SLIM
 10
12436.445174293111
 20
-256.44275090183191
 30
0.0
 11
12439.987301360799
 21
-252.9006238341367
 31
0.0
1001
GRADIENTCOLOR1ACI
1070
     5
1001
GRADIENTCOLOR2ACI
1070
     2
1001
ACAD
1010
0.0
1020
0.0
1030
0.0
  0
LINE
  5
125D4D
  8
SLIM
 10
12554.88792519494
 20
-137.99999999999909
 30
0.0
 11
12556.44275090183
 21
-136.44517429310599
 31
0.0
1001
GRADIENTCOLOR1ACI
1070
     5
1001
GRADIENTCOLOR2ACI
1070
     2
1001
ACAD
1010
0.0
1020
0.0
1030
0.0
  0
LINE
  5
125D4E
  8
SLIM
 10
12440.83727314956
 20
-261.03090816644271
 30
0.0
 11
12444.37326079631
 21
-257.49492051969042
 31
0.0
1001
GRADIENTCOLOR1ACI
1070
     5
1001
GRADIENTCOLOR2ACI
1070
     2
1001
ACAD
1010
0.0
1020
0.0
1030
0.0
  0
LINE
  5
125D4F
  8
SLIM
 10
12445.56540273214
 20
-265.28303470493529
 30
0.0
 11
12449.11633426801
 21
-261.73210316906119
 31
0.0
1001
GRADIENTCOLOR1ACI
1070
     5
1001
GRADIENTCOLOR2ACI
1070
     2
1001
ACAD
1010
0.0
1020
0.0
1030
0.0
  0
LINE
  5
125D50
  8
SLIM
 10
12450.63361021192
 20
-269.19508334622611
 30
0.0
 11
12454.22138736817
 21
-265.60730618997422
 31
0.0
1001
GRADIENTCOLOR1ACI
1070
     5
1001
GRADIENTCOLOR2ACI
1070
     2
1001
ACAD
1010
0.0
1020
0.0
1030
0.0
  0
LINE
  5
125D51
  8
SLIM
 10
12456.05200184493
 20
-272.75694783428941
 30
0.0
 11
12459.7006257557
 21
-269.10832392351722
 31
0.0
1001
GRADIENTCOLOR1ACI
1070
     5
1001
GRADIENTCOLOR2ACI
1070
     2
1001
ACAD
1010
0.0
1020
0.0
1030
0.0
  0
LINE
  5
125D52
  8
SLIM
 10
12461.837666588721
 20
-275.95153921156628
 30
0.0
 11
12465.57486939324
 21
-272.21433640703441
 31
0.0
1001
GRADIENTCOLOR1ACI
1070
     5
1001
GRADIENTCOLOR2ACI
1070
     2
1001
ACAD
1010
0.0
1020
0.0
1030
0.0
  0
LINE
  5
125D53
  8
SLIM
 10
12468.01637936975
 20
-278.75308255160547
 30
0.0
 11
12471.875951535259
 21
-274.89351038609948
 31
0.0
1001
GRADIENTCOLOR1ACI
1070
     5
1001
GRADIENTCOLOR2ACI
1070
     2
1001
ACAD
1010
0.0
1020
0.0
1030
0.0
  0
LINE
  5
125D54
  8
SLIM
 10
12474.62551879481
 20
-281.12419924761713
 30
0.0
 11
12478.65096000308
 21
-277.09875803934659
 31
0.0
1001
GRADIENTCOLOR1ACI
1070
     5
1001
GRADIENTCOLOR2ACI
1070
     2
1001
ACAD
1010
0.0
1020
0.0
1030
0.0
  0
LINE
  5
125D55
  8
SLIM
 10
12481.71908289199
 20
-283.01089127150487
 30
0.0
 11
12485.96986221718
 21
-278.76011194630968
 31
0.0
1001
GRADIENTCOLOR1ACI
1070
     5
1001
GRADIENTCOLOR2ACI
1070
     2
1001
ACAD
1010
0.0
1020
0.0
1030
0.0
  0
LINE
  5
125D56
  8
SLIM
 10
12489.37669385588
 20
-284.33353642868292
 30
0.0
 11
12493.940077127039
 21
-279.7701531575176
 31
0.0
1001
GRADIENTCOLOR1ACI
1070
     5
1001
GRADIENTCOLOR2ACI
1070
     2
1001
ACAD
1010
0.0
1020
0.0
1030
0.0
  0
LINE
  5
125D57
  8
SLIM
 10
12497.721042757419
 20
-284.96944364820962
 30
0.0
 11
12500.0
 21
-282.69048640563238
 31
0.0
1001
GRADIENTCOLOR1ACI
1070
     5
1001
GRADIENTCOLOR2ACI
1070
     2
1001
ACAD
1010
0.0
1020
0.0
1030
0.0
  0
LINE
  5
125D58
  8
SLIM
 10
12500.0
 20
-282.69048640563238
 30
0.0
 11
12502.737331261091
 21
-279.9531551445416
 31
0.0
1001
GRADIENTCOLOR1ACI
1070
     5
1001
GRADIENTCOLOR2ACI
1070
     2
1001
ACAD
1010
0.0
1020
0.0
1030
0.0
  0
LINE
  5
125D59
  8
SLIM
 10
12506.955829841791
 20
-284.714912684909
 30
0.0
 11
12512.68241149879
 21
-278.98833102791468
 31
0.0
1001
GRADIENTCOLOR1ACI
1070
     5
1001
GRADIENTCOLOR2ACI
1070
     2
1001
ACAD
1010
0.0
1020
0.0
1030
0.0
  0
LINE
  5
125D5A
  8
SLIM
 10
12517.464517631281
 20
-283.18648101648711
 30
0.0
 11
12524.49249489541
 21
-276.15850375236101
 31
0.0
1001
GRADIENTCOLOR1ACI
1070
     5
1001
GRADIENTCOLOR2ACI
1070
     2
1001
ACAD
1010
0.0
1020
0.0
1030
0.0
  0
LINE
  5
125D5B
  8
SLIM
 10
12530.16310227131
 20
-279.46815249752581
 30
0.0
 11
12540.842546319291
 21
-268.7887084495423
 31
0.0
1001
GRADIENTCOLOR1ACI
1070
     5
1001
GRADIENTCOLOR2ACI
1070
     2
1001
ACAD
1010
0.0
1020
0.0
1030
0.0
  0
LINE
  5
125D5C
  8
SLIM
 10
12549.542181759911
 20
-269.06932912999309
 30
0.0
 11
12556.61151088991
 21
-261.99999999999733
 31
0.0
1001
GRADIENTCOLOR1ACI
1070
     5
1001
GRADIENTCOLOR2ACI
1070
     2
1001
ACAD
1010
0.0
1020
0.0
1030
0.0
  0
LINE
  5
125D5D
  8
OBJECT
 10
12633.0
 20
-137.99999999999909
 30
0.0
 11
12640.0
 21
-137.99999999999909
 31
0.0
1001
ACDBBLOCKREPETAG
1070
     1
1071
       47
1005
125D5D
  0
LINE
  5
125D5E
  8
OBJECT
 10
12640.0
 20
-137.99999999999909
 30
0.0
 11
12640.0
 21
-261.99999999999909
 31
0.0
1001
ACDBBLOCKREPETAG
1070
     1
1071
       48
1005
125D5E
  0
LINE
  5
125D5F
  8
OBJECT
 10
12640.0
 20
-261.99999999999909
 30
0.0
 11
12633.0
 21
-261.99999999999909
 31
0.0
1001
ACDBBLOCKREPETAG
1070
     1
1071
       49
1005
125D5F
  0
LINE
  5
125D60
  8
OBJECT
 10
12633.0
 20
-261.99999999999909
 30
0.0
 11
12633.0
 21
-137.99999999999909
 31
0.0
1001
ACDBBLOCKREPETAG
1070
     1
1071
       50
1005
125D60
  0
LINE
  5
125D61
  8
CENTER
 10
12655.0
 20
-199.99999999999909
 30
0.0
 11
12580.0
 21
-199.99999999999909
 31
0.0
1001
ACDBBLOCKREPETAG
1070
     1
1071
       51
1005
125D61
  0
LINE
  5
125D62
  8
OBJECT
 10
12633.0
 20
-140.99999999999909
 30
0.0
 11
12597.0
 21
-140.99999999999909
 31
0.0
1001
ACDBBLOCKREPETAG
1070
     1
1071
       52
1005
125D62
  0
LINE
  5
125D63
  8
OBJECT
 10
12597.0
 20
-140.99999999999909
 30
0.0
 11
12597.0
 21
-258.99999999999909
 31
0.0
1001
ACDBBLOCKREPETAG
1070
     1
1071
       53
1005
125D63
  0
LINE
  5
125D64
  8
OBJECT
 10
12597.0
 20
-258.99999999999909
 30
0.0
 11
12633.0
 21
-258.99999999999909
 31
0.0
1001
ACDBBLOCKREPETAG
1070
     1
1071
       54
1005
125D64
  0
LINE
  5
125D65
  8
OBJECT
 10
12593.0
 20
-145.49999999999909
 30
0.0
 11
12586.0
 21
-145.49999999999909
 31
0.0
1001
ACDBBLOCKREPETAG
1070
     1
1071
       55
1005
125D65
  0
LINE
  5
125D66
  8
OBJECT
 10
12586.0
 20
-254.49999999999909
 30
0.0
 11
12593.0
 21
-254.49999999999909
 31
0.0
1001
ACDBBLOCKREPETAG
1070
     1
1071
       56
1005
125D66
  0
LINE
  5
125D67
  8
OBJECT
 10
12593.0
 20
-254.49999999999909
 30
0.0
 11
12593.0
 21
-145.49999999999909
 31
0.0
1001
ACDBBLOCKREPETAG
1070
     1
1071
       57
1005
125D67
  0
LINE
  5
125D68
  8
OBJECT
 10
12597.0
 20
-140.99999999999909
 30
0.0
 11
12593.0
 21
-145.49999999999909
 31
0.0
1001
ACDBBLOCKREPETAG
1070
     1
1071
       58
1005
125D68
  0
LINE
  5
125D69
  8
OBJECT
 10
12597.0
 20
-258.99999999999909
 30
0.0
 11
12593.0
 21
-254.49999999999909
 31
0.0
1001
ACDBBLOCKREPETAG
1070
     1
1071
       59
1005
125D69
  0
LINE
  5
125D6A
  8
OBJECT
 10
12583.0
 20
-137.99999999999909
 30
0.0
 11
12580.0
 21
-137.99999999999909
 31
0.0
1001
ACDBBLOCKREPETAG
1070
     1
1071
       60
1005
125D6A
  0
ARC
  5
125D6B
  8
OBJECT
 10
12583.0
 20
-140.99999999999909
 30
0.0
 40
3.0
 50
0.0
 51
90.0
1001
ACDBBLOCKREPETAG
1070
     1
1071
       61
1005
125D6B
  0
LINE
  5
125D6C
  8
OBJECT
 10
12580.0
 20
-261.99999999999909
 30
0.0
 11
12583.0
 21
-261.99999999999909
 31
0.0
1001
ACDBBLOCKREPETAG
1070
     1
1071
       62
1005
125D6C
  0
ARC
  5
125D6D
  8
OBJECT
 10
12583.0
 20
-258.99999999999909
 30
0.0
 40
3.0
 50
270.0
 51
0.0
1001
ACDBBLOCKREPETAG
1070
     1
1071
       63
1005
125D6D
  0
LINE
  5
125D6E
  8
OBJECT
 10
12586.0
 20
-258.99999999999909
 30
0.0
 11
12586.0
 21
-140.99999999999909
 31
0.0
1001
ACDBBLOCKREPETAG
1070
     1
1071
       64
1005
125D6E
  0
LINE
  5
125D6F
  8
HIDDEN
 10
12588.0
 20
-155.49999999999909
 30
0.0
 11
12588.0
 21
-244.49999999999909
 31
0.0
1001
ACDBBLOCKREPETAG
1070
     1
1071
       65
1005
125D6F
  0
LINE
  5
125D70
  8
SLIM
 10
10434.62485174211
 20
-150.5
 30
0.0
 11
10460.2662412277
 21
-124.858610514414
 31
0.0
1001
GRADIENTCOLOR1ACI
1070
     5
1001
GRADIENTCOLOR2ACI
1070
     2
1001
ACAD
1010
0.0
1020
0.0
1030
0.0
  0
LINE
  5
125D71
  8
SLIM
 10
10466.96656796274
 20
-127.1385399004393
 30
0.0
 11
10475.496673795509
 21
-118.6084340676734
 31
0.0
1001
GRADIENTCOLOR1ACI
1070
     5
1001
GRADIENTCOLOR2ACI
1070
     2
1001
ACAD
1010
0.0
1020
0.0
1030
0.0
  0
LINE
  5
125D72
  8
SLIM
 10
10480.729808117931
 20
-122.3555558663183
 30
0.0
 11
10487.10092058016
 21
-115.98444340408869
 31
0.0
1001
GRADIENTCOLOR1ACI
1070
     5
1001
GRADIENTCOLOR2ACI
1070
     2
1001
ACAD
1010
0.0
1020
0.0
1030
0.0
  0
LINE
  5
125D73
  8
SLIM
 10
10491.62615505049
 20
-120.4394650548292
 30
0.0
 11
10497.013124938399
 21
-115.0524951669185
 31
0.0
1001
GRADIENTCOLOR1ACI
1070
     5
1001
GRADIENTCOLOR2ACI
1070
     2
1001
ACAD
1010
0.0
1020
0.0
1030
0.0
  0
LINE
  5
125D74
  8
SLIM
 10
10501.03912728228
 20
-120.00674894410621
 30
0.0
 11
10505.84469431025
 21
-115.20118191613891
 31
0.0
1001
GRADIENTCOLOR1ACI
1070
     5
1001
GRADIENTCOLOR2ACI
1070
     2
1001
ACAD
1010
0.0
1020
0.0
1030
0.0
  0
LINE
  5
125D75
  8
SLIM
 10
10509.464325564621
 20
-120.5618067828391
 30
0.0
 11
10513.884473575559
 21
-116.14165877189311
 31
0.0
1001
GRADIENTCOLOR1ACI
1070
     5
1001
GRADIENTCOLOR2ACI
1070
     2
1001
ACAD
1010
0.0
1020
0.0
1030
0.0
  0
LINE
  5
125D76
  8
SLIM
 10
10517.14713233857
 20
-121.85925612995651
 30
0.0
 11
10521.2955183575
 21
-117.7108701110201
 31
0.0
1001
GRADIENTCOLOR1ACI
1070
     5
1001
GRADIENTCOLOR2ACI
1070
     2
1001
ACAD
1010
0.0
1020
0.0
1030
0.0
  0
LINE
  5
125D77
  8
SLIM
 10
10524.22929262222
 20
-123.7573519673733
 30
0.0
 11
10528.179600214
 21
-119.80704437558779
 31
0.0
1001
GRADIENTCOLOR1ACI
1070
     5
1001
GRADIENTCOLOR2ACI
1070
     2
1001
ACAD
1010
0.0
1020
0.0
1030
0.0
  0
LINE
  5
125D78
  8
SLIM
 10
10530.80015984081
 20
-126.16674086984671
 30
0.0
 11
10534.604195997101
 21
-122.3627047135587
 31
0.0
1001
GRADIENTCOLOR1ACI
1070
     5
1001
GRADIENTCOLOR2ACI
1070
     2
1001
ACAD
1010
0.0
1020
0.0
1030
0.0
  0
LINE
  5
125D79
  8
SLIM
 10
10536.91893009735
 20
-129.02822673437819
 30
0.0
 11
10540.61558539028
 21
-125.3315714414439
 31
0.0
1001
GRADIENTCOLOR1ACI
1070
     5
1001
GRADIENTCOLOR2ACI
1070
     2
1001
ACAD
1010
0.0
1020
0.0
1030
0.0
  0
LINE
  5
125D7A
  8
SLIM
 10
10542.625662068011
 20
-132.30175088479609
 30
0.0
 11
10546.24585805909
 21
-128.68155489371199
 31
0.0
1001
GRADIENTCOLOR1ACI
1070
     5
1001
GRADIENTCOLOR2ACI
1070
     2
1001
ACAD
1010
0.0
1020
0.0
1030
0.0
  0
LINE
  5
125D7B
  8
SLIM
 10
10432.39076526292
 20
-251.51690381094841
 30
0.0
 11
10434.407669073869
 21
-249.49999999999861
 31
0.0
1001
GRADIENTCOLOR1ACI
1070
     5
1001
GRADIENTCOLOR2ACI
1070
     2
1001
ACAD
1010
0.0
1020
0.0
1030
0.0
  0
LINE
  5
125D7C
  8
SLIM
 10
10547.94722005113
 20
-135.96044902274201
 30
0.0
 11
10551.516903810951
 21
-132.39076526292041
 31
0.0
1001
GRADIENTCOLOR1ACI
1070
     5
1001
GRADIENTCOLOR2ACI
1070
     2
1001
ACAD
1010
0.0
1020
0.0
1030
0.0
  0
LINE
  5
125D7D
  8
SLIM
 10
10436.445174293111
 20
-256.44275090183191
 30
0.0
 11
10439.987301360799
 21
-252.9006238341367
 31
0.0
1001
GRADIENTCOLOR1ACI
1070
     5
1001
GRADIENTCOLOR2ACI
1070
     2
1001
ACAD
1010
0.0
1020
0.0
1030
0.0
  0
LINE
  5
125D7E
  8
SLIM
 10
10554.88792519494
 20
-137.99999999999909
 30
0.0
 11
10556.44275090183
 21
-136.44517429310599
 31
0.0
1001
GRADIENTCOLOR1ACI
1070
     5
1001
GRADIENTCOLOR2ACI
1070
     2
1001
ACAD
1010
0.0
1020
0.0
1030
0.0
  0
LINE
  5
125D7F
  8
SLIM
 10
10440.83727314956
 20
-261.03090816644271
 30
0.0
 11
10444.373260796319
 21
-257.49492051969042
 31
0.0
1001
GRADIENTCOLOR1ACI
1070
     5
1001
GRADIENTCOLOR2ACI
1070
     2
1001
ACAD
1010
0.0
1020
0.0
1030
0.0
  0
LINE
  5
125D80
  8
SLIM
 10
10445.56540273214
 20
-265.28303470493529
 30
0.0
 11
10449.11633426801
 21
-261.73210316906119
 31
0.0
1001
GRADIENTCOLOR1ACI
1070
     5
1001
GRADIENTCOLOR2ACI
1070
     2
1001
ACAD
1010
0.0
1020
0.0
1030
0.0
  0
LINE
  5
125D81
  8
SLIM
 10
10450.63361021192
 20
-269.19508334622611
 30
0.0
 11
10454.22138736817
 21
-265.60730618997422
 31
0.0
1001
GRADIENTCOLOR1ACI
1070
     5
1001
GRADIENTCOLOR2ACI
1070
     2
1001
ACAD
1010
0.0
1020
0.0
1030
0.0
  0
LINE
  5
125D82
  8
SLIM
 10
10456.05200184493
 20
-272.75694783428941
 30
0.0
 11
10459.7006257557
 21
-269.10832392351722
 31
0.0
1001
GRADIENTCOLOR1ACI
1070
     5
1001
GRADIENTCOLOR2ACI
1070
     2
1001
ACAD
1010
0.0
1020
0.0
1030
0.0
  0
LINE
  5
125D83
  8
SLIM
 10
10461.837666588721
 20
-275.95153921156628
 30
0.0
 11
10465.574869393249
 21
-272.21433640703441
 31
0.0
1001
GRADIENTCOLOR1ACI
1070
     5
1001
GRADIENTCOLOR2ACI
1070
     2
1001
ACAD
1010
0.0
1020
0.0
1030
0.0
  0
LINE
  5
125D84
  8
SLIM
 10
10468.01637936975
 20
-278.75308255160547
 30
0.0
 11
10471.875951535259
 21
-274.89351038609948
 31
0.0
1001
GRADIENTCOLOR1ACI
1070
     5
1001
GRADIENTCOLOR2ACI
1070
     2
1001
ACAD
1010
0.0
1020
0.0
1030
0.0
  0
LINE
  5
125D85
  8
SLIM
 10
10474.62551879481
 20
-281.12419924761713
 30
0.0
 11
10478.65096000308
 21
-277.09875803934659
 31
0.0
1001
GRADIENTCOLOR1ACI
1070
     5
1001
GRADIENTCOLOR2ACI
1070
     2
1001
ACAD
1010
0.0
1020
0.0
1030
0.0
  0
LINE
  5
125D86
  8
SLIM
 10
10481.71908289199
 20
-283.01089127150487
 30
0.0
 11
10485.96986221718
 21
-278.76011194630968
 31
0.0
1001
GRADIENTCOLOR1ACI
1070
     5
1001
GRADIENTCOLOR2ACI
1070
     2
1001
ACAD
1010
0.0
1020
0.0
1030
0.0
  0
LINE
  5
125D87
  8
SLIM
 10
10489.37669385588
 20
-284.33353642868292
 30
0.0
 11
10493.940077127039
 21
-279.7701531575176
 31
0.0
1001
GRADIENTCOLOR1ACI
1070
     5
1001
GRADIENTCOLOR2ACI
1070
     2
1001
ACAD
1010
0.0
1020
0.0
1030
0.0
  0
LINE
  5
125D88
  8
SLIM
 10
10497.721042757419
 20
-284.96944364820962
 30
0.0
 11
10500.0
 21
-282.69048640563238
 31
0.0
1001
GRADIENTCOLOR1ACI
1070
     5
1001
GRADIENTCOLOR2ACI
1070
     2
1001
ACAD
1010
0.0
1020
0.0
1030
0.0
  0
LINE
  5
125D89
  8
SLIM
 10
10500.0
 20
-282.69048640563238
 30
0.0
 11
10502.737331261091
 21
-279.9531551445416
 31
0.0
1001
GRADIENTCOLOR1ACI
1070
     5
1001
GRADIENTCOLOR2ACI
1070
     2
1001
ACAD
1010
0.0
1020
0.0
1030
0.0
  0
LINE
  5
125D8A
  8
SLIM
 10
10506.955829841791
 20
-284.714912684909
 30
0.0
 11
10512.68241149879
 21
-278.98833102791468
 31
0.0
1001
GRADIENTCOLOR1ACI
1070
     5
1001
GRADIENTCOLOR2ACI
1070
     2
1001
ACAD
1010
0.0
1020
0.0
1030
0.0
  0
LINE
  5
125D8B
  8
SLIM
 10
10517.464517631281
 20
-283.18648101648711
 30
0.0
 11
10524.49249489541
 21
-276.15850375236101
 31
0.0
1001
GRADIENTCOLOR1ACI
1070
     5
1001
GRADIENTCOLOR2ACI
1070
     2
1001
ACAD
1010
0.0
1020
0.0
1030
0.0
  0
LINE
  5
125D8C
  8
SLIM
 10
10530.16310227131
 20
-279.46815249752581
 30
0.0
 11
10540.8425463193
 21
-268.7887084495423
 31
0.0
1001
GRADIENTCOLOR1ACI
1070
     5
1001
GRADIENTCOLOR2ACI
1070
     2
1001
ACAD
1010
0.0
1020
0.0
1030
0.0
  0
LINE
  5
125D8D
  8
SLIM
 10
10549.542181759911
 20
-269.06932912999309
 30
0.0
 11
10556.61151088991
 21
-261.99999999999733
 31
0.0
1001
GRADIENTCOLOR1ACI
1070
     5
1001
GRADIENTCOLOR2ACI
1070
     2
1001
ACAD
1010
0.0
1020
0.0
1030
0.0
  0
LINE
  5
125D8E
  8
OBJECT
 10
10633.0
 20
-137.99999999999909
 30
0.0
 11
10640.0
 21
-137.99999999999909
 31
0.0
1001
ACDBBLOCKREPETAG
1070
     1
1071
       47
1005
125D8E
  0
LINE
  5
125D8F
  8
OBJECT
 10
10640.0
 20
-137.99999999999909
 30
0.0
 11
10640.0
 21
-261.99999999999909
 31
0.0
1001
ACDBBLOCKREPETAG
1070
     1
1071
       48
1005
125D8F
  0
LINE
  5
125D90
  8
OBJECT
 10
10640.0
 20
-261.99999999999909
 30
0.0
 11
10633.0
 21
-261.99999999999909
 31
0.0
1001
ACDBBLOCKREPETAG
1070
     1
1071
       49
1005
125D90
  0
LINE
  5
125D91
  8
OBJECT
 10
10633.0
 20
-261.99999999999909
 30
0.0
 11
10633.0
 21
-137.99999999999909
 31
0.0
1001
ACDBBLOCKREPETAG
1070
     1
1071
       50
1005
125D91
  0
LINE
  5
125D92
  8
CENTER
 10
10655.0
 20
-199.99999999999909
 30
0.0
 11
10580.0
 21
-199.99999999999909
 31
0.0
1001
ACDBBLOCKREPETAG
1070
     1
1071
       51
1005
125D92
  0
LINE
  5
125D93
  8
OBJECT
 10
10633.0
 20
-140.99999999999909
 30
0.0
 11
10597.0
 21
-140.99999999999909
 31
0.0
1001
ACDBBLOCKREPETAG
1070
     1
1071
       52
1005
125D93
  0
LINE
  5
125D94
  8
OBJECT
 10
10597.0
 20
-140.99999999999909
 30
0.0
 11
10597.0
 21
-258.99999999999909
 31
0.0
1001
ACDBBLOCKREPETAG
1070
     1
1071
       53
1005
125D94
  0
LINE
  5
125D95
  8
OBJECT
 10
10597.0
 20
-258.99999999999909
 30
0.0
 11
10633.0
 21
-258.99999999999909
 31
0.0
1001
ACDBBLOCKREPETAG
1070
     1
1071
       54
1005
125D95
  0
LINE
  5
125D96
  8
OBJECT
 10
10593.0
 20
-145.49999999999909
 30
0.0
 11
10586.0
 21
-145.49999999999909
 31
0.0
1001
ACDBBLOCKREPETAG
1070
     1
1071
       55
1005
125D96
  0
LINE
  5
125D97
  8
OBJECT
 10
10586.0
 20
-254.49999999999909
 30
0.0
 11
10593.0
 21
-254.49999999999909
 31
0.0
1001
ACDBBLOCKREPETAG
1070
     1
1071
       56
1005
125D97
  0
LINE
  5
125D98
  8
OBJECT
 10
10593.0
 20
-254.49999999999909
 30
0.0
 11
10593.0
 21
-145.49999999999909
 31
0.0
1001
ACDBBLOCKREPETAG
1070
     1
1071
       57
1005
125D98
  0
LINE
  5
125D99
  8
OBJECT
 10
10597.0
 20
-140.99999999999909
 30
0.0
 11
10593.0
 21
-145.49999999999909
 31
0.0
1001
ACDBBLOCKREPETAG
1070
     1
1071
       58
1005
125D99
  0
LINE
  5
125D9A
  8
OBJECT
 10
10597.0
 20
-258.99999999999909
 30
0.0
 11
10593.0
 21
-254.49999999999909
 31
0.0
1001
ACDBBLOCKREPETAG
1070
     1
1071
       59
1005
125D9A
  0
LINE
  5
125D9B
  8
OBJECT
 10
10583.0
 20
-137.99999999999909
 30
0.0
 11
10580.0
 21
-137.99999999999909
 31
0.0
1001
ACDBBLOCKREPETAG
1070
     1
1071
       60
1005
125D9B
  0
ARC
  5
125D9C
  8
OBJECT
 10
10583.0
 20
-140.99999999999909
 30
0.0
 40
3.0
 50
0.0
 51
90.0
1001
ACDBBLOCKREPETAG
1070
     1
1071
       61
1005
125D9C
  0
LINE
  5
125D9D
  8
OBJECT
 10
10580.0
 20
-261.99999999999909
 30
0.0
 11
10583.0
 21
-261.99999999999909
 31
0.0
1001
ACDBBLOCKREPETAG
1070
     1
1071
       62
1005
125D9D
  0
ARC
  5
125D9E
  8
OBJECT
 10
10583.0
 20
-258.99999999999909
 30
0.0
 40
3.0
 50
270.0
 51
0.0
1001
ACDBBLOCKREPETAG
1070
     1
1071
       63
1005
125D9E
  0
LINE
  5
125D9F
  8
OBJECT
 10
10586.0
 20
-258.99999999999909
 30
0.0
 11
10586.0
 21
-140.99999999999909
 31
0.0
1001
ACDBBLOCKREPETAG
1070
     1
1071
       64
1005
125D9F
  0
LINE
  5
125DA0
  8
HIDDEN
 10
10588.0
 20
-155.49999999999909
 30
0.0
 11
10588.0
 21
-244.49999999999909
 31
0.0
1001
ACDBBLOCKREPETAG
1070
     1
1071
       65
1005
125DA0
  0
LINE
  5
125DA1
  8
SLIM
 10
8434.6248517421118
 20
-150.49999999999909
 30
0.0
 11
8460.2662412276986
 21
-124.858610514414
 31
0.0
1001
GRADIENTCOLOR1ACI
1070
     5
1001
GRADIENTCOLOR2ACI
1070
     2
1001
ACAD
1010
0.0
1020
0.0
1030
0.0
  0
LINE
  5
125DA2
  8
SLIM
 10
8466.9665679627415
 20
-127.1385399004393
 30
0.0
 11
8475.4966737955074
 21
-118.6084340676734
 31
0.0
1001
GRADIENTCOLOR1ACI
1070
     5
1001
GRADIENTCOLOR2ACI
1070
     2
1001
ACAD
1010
0.0
1020
0.0
1030
0.0
  0
LINE
  5
125DA3
  8
SLIM
 10
8480.7298081179324
 20
-122.3555558663183
 30
0.0
 11
8487.1009205801583
 21
-115.98444340408869
 31
0.0
1001
GRADIENTCOLOR1ACI
1070
     5
1001
GRADIENTCOLOR2ACI
1070
     2
1001
ACAD
1010
0.0
1020
0.0
1030
0.0
  0
LINE
  5
125DA4
  8
SLIM
 10
8491.6261550504896
 20
-120.4394650548292
 30
0.0
 11
8497.0131249383976
 21
-115.0524951669185
 31
0.0
1001
GRADIENTCOLOR1ACI
1070
     5
1001
GRADIENTCOLOR2ACI
1070
     2
1001
ACAD
1010
0.0
1020
0.0
1030
0.0
  0
LINE
  5
125DA5
  8
SLIM
 10
8501.0391272822817
 20
-120.00674894410621
 30
0.0
 11
8505.8446943102535
 21
-115.20118191613891
 31
0.0
1001
GRADIENTCOLOR1ACI
1070
     5
1001
GRADIENTCOLOR2ACI
1070
     2
1001
ACAD
1010
0.0
1020
0.0
1030
0.0
  0
LINE
  5
125DA6
  8
SLIM
 10
8509.4643255646224
 20
-120.5618067828391
 30
0.0
 11
8513.8844735755629
 21
-116.14165877189311
 31
0.0
1001
GRADIENTCOLOR1ACI
1070
     5
1001
GRADIENTCOLOR2ACI
1070
     2
1001
ACAD
1010
0.0
1020
0.0
1030
0.0
  0
LINE
  5
125DA7
  8
SLIM
 10
8517.1471323385686
 20
-121.85925612995651
 30
0.0
 11
8521.2955183575014
 21
-117.7108701110201
 31
0.0
1001
GRADIENTCOLOR1ACI
1070
     5
1001
GRADIENTCOLOR2ACI
1070
     2
1001
ACAD
1010
0.0
1020
0.0
1030
0.0
  0
LINE
  5
125DA8
  8
SLIM
 10
8524.2292926222217
 20
-123.7573519673733
 30
0.0
 11
8528.1796002140072
 21
-119.80704437558779
 31
0.0
1001
GRADIENTCOLOR1ACI
1070
     5
1001
GRADIENTCOLOR2ACI
1070
     2
1001
ACAD
1010
0.0
1020
0.0
1030
0.0
  0
LINE
  5
125DA9
  8
SLIM
 10
8530.8001598408136
 20
-126.16674086984671
 30
0.0
 11
8534.6041959971044
 21
-122.3627047135587
 31
0.0
1001
GRADIENTCOLOR1ACI
1070
     5
1001
GRADIENTCOLOR2ACI
1070
     2
1001
ACAD
1010
0.0
1020
0.0
1030
0.0
  0
LINE
  5
125DAA
  8
SLIM
 10
8536.9189300973576
 20
-129.02822673437819
 30
0.0
 11
8540.615585390291
 21
-125.3315714414439
 31
0.0
1001
GRADIENTCOLOR1ACI
1070
     5
1001
GRADIENTCOLOR2ACI
1070
     2
1001
ACAD
1010
0.0
1020
0.0
1030
0.0
  0
LINE
  5
125DAB
  8
SLIM
 10
8542.6256620680033
 20
-132.30175088479609
 30
0.0
 11
8546.2458580590901
 21
-128.68155489371199
 31
0.0
1001
GRADIENTCOLOR1ACI
1070
     5
1001
GRADIENTCOLOR2ACI
1070
     2
1001
ACAD
1010
0.0
1020
0.0
1030
0.0
  0
LINE
  5
125DAC
  8
SLIM
 10
8432.3907652629223
 20
-251.51690381094841
 30
0.0
 11
8434.407669073873
 21
-249.49999999999861
 31
0.0
1001
GRADIENTCOLOR1ACI
1070
     5
1001
GRADIENTCOLOR2ACI
1070
     2
1001
ACAD
1010
0.0
1020
0.0
1030
0.0
  0
LINE
  5
125DAD
  8
SLIM
 10
8547.9472200511282
 20
-135.96044902274201
 30
0.0
 11
8551.5169038109489
 21
-132.39076526292041
 31
0.0
1001
GRADIENTCOLOR1ACI
1070
     5
1001
GRADIENTCOLOR2ACI
1070
     2
1001
ACAD
1010
0.0
1020
0.0
1030
0.0
  0
LINE
  5
125DAE
  8
SLIM
 10
8436.4451742931105
 20
-256.44275090183191
 30
0.0
 11
8439.987301360803
 21
-252.9006238341367
 31
0.0
1001
GRADIENTCOLOR1ACI
1070
     5
1001
GRADIENTCOLOR2ACI
1070
     2
1001
ACAD
1010
0.0
1020
0.0
1030
0.0
  0
LINE
  5
125DAF
  8
SLIM
 10
8554.8879251949402
 20
-137.99999999999909
 30
0.0
 11
8556.4427509018351
 21
-136.44517429310599
 31
0.0
1001
GRADIENTCOLOR1ACI
1070
     5
1001
GRADIENTCOLOR2ACI
1070
     2
1001
ACAD
1010
0.0
1020
0.0
1030
0.0
  0
LINE
  5
125DB0
  8
SLIM
 10
8440.8372731495674
 20
-261.03090816644271
 30
0.0
 11
8444.3732607963138
 21
-257.49492051969042
 31
0.0
1001
GRADIENTCOLOR1ACI
1070
     5
1001
GRADIENTCOLOR2ACI
1070
     2
1001
ACAD
1010
0.0
1020
0.0
1030
0.0
  0
LINE
  5
125DB1
  8
SLIM
 10
8445.5654027321416
 20
-265.28303470493529
 30
0.0
 11
8449.116334268012
 21
-261.73210316906119
 31
0.0
1001
GRADIENTCOLOR1ACI
1070
     5
1001
GRADIENTCOLOR2ACI
1070
     2
1001
ACAD
1010
0.0
1020
0.0
1030
0.0
  0
LINE
  5
125DB2
  8
SLIM
 10
8450.6336102119203
 20
-269.19508334622611
 30
0.0
 11
8454.2213873681776
 21
-265.60730618997422
 31
0.0
1001
GRADIENTCOLOR1ACI
1070
     5
1001
GRADIENTCOLOR2ACI
1070
     2
1001
ACAD
1010
0.0
1020
0.0
1030
0.0
  0
LINE
  5
125DB3
  8
SLIM
 10
8456.0520018449297
 20
-272.75694783428941
 30
0.0
 11
8459.7006257556986
 21
-269.10832392351722
 31
0.0
1001
GRADIENTCOLOR1ACI
1070
     5
1001
GRADIENTCOLOR2ACI
1070
     2
1001
ACAD
1010
0.0
1020
0.0
1030
0.0
  0
LINE
  5
125DB4
  8
SLIM
 10
8461.837666588719
 20
-275.95153921156628
 30
0.0
 11
8465.5748693932492
 21
-272.21433640703441
 31
0.0
1001
GRADIENTCOLOR1ACI
1070
     5
1001
GRADIENTCOLOR2ACI
1070
     2
1001
ACAD
1010
0.0
1020
0.0
1030
0.0
  0
LINE
  5
125DB5
  8
SLIM
 10
8468.0163793697502
 20
-278.75308255160547
 30
0.0
 11
8471.8759515352576
 21
-274.89351038609948
 31
0.0
1001
GRADIENTCOLOR1ACI
1070
     5
1001
GRADIENTCOLOR2ACI
1070
     2
1001
ACAD
1010
0.0
1020
0.0
1030
0.0
  0
LINE
  5
125DB6
  8
SLIM
 10
8474.6255187948063
 20
-281.12419924761713
 30
0.0
 11
8478.6509600030768
 21
-277.09875803934659
 31
0.0
1001
GRADIENTCOLOR1ACI
1070
     5
1001
GRADIENTCOLOR2ACI
1070
     2
1001
ACAD
1010
0.0
1020
0.0
1030
0.0
  0
LINE
  5
125DB7
  8
SLIM
 10
8481.7190828919902
 20
-283.01089127150487
 30
0.0
 11
8485.9698622171873
 21
-278.76011194630968
 31
0.0
1001
GRADIENTCOLOR1ACI
1070
     5
1001
GRADIENTCOLOR2ACI
1070
     2
1001
ACAD
1010
0.0
1020
0.0
1030
0.0
  0
LINE
  5
125DB8
  8
SLIM
 10
8489.3766938558783
 20
-284.33353642868292
 30
0.0
 11
8493.9400771270484
 21
-279.7701531575176
 31
0.0
1001
GRADIENTCOLOR1ACI
1070
     5
1001
GRADIENTCOLOR2ACI
1070
     2
1001
ACAD
1010
0.0
1020
0.0
1030
0.0
  0
LINE
  5
125DB9
  8
SLIM
 10
8497.7210427574246
 20
-284.96944364820962
 30
0.0
 11
8500.0
 21
-282.69048640563238
 31
0.0
1001
GRADIENTCOLOR1ACI
1070
     5
1001
GRADIENTCOLOR2ACI
1070
     2
1001
ACAD
1010
0.0
1020
0.0
1030
0.0
  0
LINE
  5
125DBA
  8
SLIM
 10
8500.0
 20
-282.69048640563238
 30
0.0
 11
8502.7373312610907
 21
-279.9531551445416
 31
0.0
1001
GRADIENTCOLOR1ACI
1070
     5
1001
GRADIENTCOLOR2ACI
1070
     2
1001
ACAD
1010
0.0
1020
0.0
1030
0.0
  0
LINE
  5
125DBB
  8
SLIM
 10
8506.9558298417887
 20
-284.714912684909
 30
0.0
 11
8512.6824114987849
 21
-278.98833102791468
 31
0.0
1001
GRADIENTCOLOR1ACI
1070
     5
1001
GRADIENTCOLOR2ACI
1070
     2
1001
ACAD
1010
0.0
1020
0.0
1030
0.0
  0
LINE
  5
125DBC
  8
SLIM
 10
8517.4645176312824
 20
-283.18648101648711
 30
0.0
 11
8524.4924948954103
 21
-276.15850375236101
 31
0.0
1001
GRADIENTCOLOR1ACI
1070
     5
1001
GRADIENTCOLOR2ACI
1070
     2
1001
ACAD
1010
0.0
1020
0.0
1030
0.0
  0
LINE
  5
125DBD
  8
SLIM
 10
8530.1631022713136
 20
-279.46815249752581
 30
0.0
 11
8540.842546319298
 21
-268.7887084495423
 31
0.0
1001
GRADIENTCOLOR1ACI
1070
     5
1001
GRADIENTCOLOR2ACI
1070
     2
1001
ACAD
1010
0.0
1020
0.0
1030
0.0
  0
LINE
  5
125DBE
  8
SLIM
 10
8549.5421817599163
 20
-269.06932912999309
 30
0.0
 11
8556.6115108899103
 21
-261.99999999999909
 31
0.0
1001
GRADIENTCOLOR1ACI
1070
     5
1001
GRADIENTCOLOR2ACI
1070
     2
1001
ACAD
1010
0.0
1020
0.0
1030
0.0
  0
LINE
  5
125DBF
  8
OBJECT
 10
12425.0
 20
-770.0
 30
0.0
 11
12425.0
 21
-907.50000000006526
 31
0.0
1001
ACDBBLOCKREPETAG
1070
     1
1071
        1
1005
125DBF
  0
LINE
  5
125DC0
  8
OBJECT
 10
12575.0
 20
-769.9999999999942
 30
0.0
 11
12575.0
 21
-1043.0
 31
0.0
1001
ACDBBLOCKREPETAG
1070
     1
1071
        3
1005
125DC0
  0
LINE
  5
125DC1
  8
CENTER
 10
12500.0
 20
-770.0
 30
0.0
 11
12500.0
 21
-1055.0
 31
0.0
1001
ACDBBLOCKREPETAG
1070
     1
1071
        6
1005
125DC1
  0
LINE
  5
125DC2
  8
OBJECT
 10
12420.0
 20
-1055.0
 30
0.0
 11
12580.0
 21
-1055.0
 31
0.0
1001
ACDBBLOCKREPETAG
1070
     1
1071
        7
1005
125DC2
  0
LINE
  5
125DC3
  8
OBJECT
 10
12420.0
 20
-1043.0
 30
0.0
 11
12580.0
 21
-1043.0
 31
0.0
1001
ACDBBLOCKREPETAG
1070
     1
1071
        8
1005
125DC3
  0
LINE
  5
125DC4
  8
OBJECT
 10
12420.0
 20
-1043.0
 30
0.0
 11
12420.0
 21
-1055.0
 31
0.0
1001
ACDBBLOCKREPETAG
1070
     1
1071
        9
1005
125DC4
  0
LINE
  5
125DC5
  8
OBJECT
 10
12580.0
 20
-1043.0
 30
0.0
 11
12580.0
 21
-1055.0
 31
0.0
1001
ACDBBLOCKREPETAG
1070
     1
1071
       10
1005
125DC5
  0
LINE
  5
125DC6
  8
OBJECT
 10
12367.0
 20
-909.0
 30
0.0
 11
12360.0
 21
-909.0
 31
0.0
1001
ACDBBLOCKREPETAG
1070
     1
1071
       23
1005
125DC6
  0
LINE
  5
125DC7
  8
OBJECT
 10
12360.0
 20
-909.0
 30
0.0
 11
12360.0
 21
-1016.0
 31
0.0
1001
ACDBBLOCKREPETAG
1070
     1
1071
       24
1005
125DC7
  0
LINE
  5
125DC8
  8
OBJECT
 10
12415.5
 20
-910.50000000006548
 30
0.0
 11
12415.5
 21
-1013.5
 31
0.0
1001
ACDBBLOCKREPETAG
1070
     1
1071
       25
1005
125DC8
  0
ARC
  5
125DC9
  8
OBJECT
 10
12418.5
 20
-910.50000000006548
 30
0.0
 40
3.0
 50
90.0
 51
180.0
1001
ACDBBLOCKREPETAG
1070
     1
1071
       26
1005
125DC9
  0
LINE
  5
125DCA
  8
OBJECT
 10
12367.0
 20
-1016.0
 30
0.0
 11
12367.0
 21
-909.0
 31
0.0
1001
ACDBBLOCKREPETAG
1070
     1
1071
       27
1005
125DCA
  0
LINE
  5
125DCB
  8
CENTER
 10
12345.0
 20
-964.0
 30
0.0
 11
12458.65508008699
 21
-964.00000000006526
 31
0.0
1001
ACDBBLOCKREPETAG
1070
     1
1071
       28
1005
125DCB
  0
LINE
  5
125DCC
  8
OBJECT
 10
12367.0
 20
-912.0
 30
0.0
 11
12403.0
 21
-912.0
 31
0.0
1001
ACDBBLOCKREPETAG
1070
     1
1071
       29
1005
125DCC
  0
LINE
  5
125DCD
  8
OBJECT
 10
12403.0
 20
-912.0
 30
0.0
 11
12403.0
 21
-1016.0
 31
0.0
1001
ACDBBLOCKREPETAG
1070
     1
1071
       30
1005
125DCD
  0
LINE
  5
125DCE
  8
OBJECT
 10
12403.0
 20
-1016.0
 30
0.0
 11
12360.0
 21
-1016.0
 31
0.0
1001
ACDBBLOCKREPETAG
1070
     1
1071
       31
1005
125DCE
  0
LINE
  5
125DCF
  8
OBJECT
 10
12407.0
 20
-916.5
 30
0.0
 11
12415.5
 21
-916.5
 31
0.0
1001
ACDBBLOCKREPETAG
1070
     1
1071
       32
1005
125DCF
  0
LINE
  5
125DD0
  8
OBJECT
 10
12415.5
 20
-1011.5
 30
0.0
 11
12407.0
 21
-1011.5
 31
0.0
1001
ACDBBLOCKREPETAG
1070
     1
1071
       33
1005
125DD0
  0
LINE
  5
125DD1
  8
OBJECT
 10
12407.0
 20
-1011.5
 30
0.0
 11
12407.0
 21
-916.5
 31
0.0
1001
ACDBBLOCKREPETAG
1070
     1
1071
       34
1005
125DD1
  0
LINE
  5
125DD2
  8
OBJECT
 10
12403.0
 20
-912.0
 30
0.0
 11
12407.0
 21
-916.5
 31
0.0
1001
ACDBBLOCKREPETAG
1070
     1
1071
       35
1005
125DD2
  0
LINE
  5
125DD3
  8
OBJECT
 10
12403.0
 20
-1016.0
 30
0.0
 11
12407.0
 21
-1011.5
 31
0.0
1001
ACDBBLOCKREPETAG
1070
     1
1071
       36
1005
125DD3
  0
LINE
  5
125DD4
  8
HIDDEN
 10
12412.0
 20
-926.0
 30
0.0
 11
12412.0
 21
-1002.0
 31
0.0
1001
ACDBBLOCKREPETAG
1070
     1
1071
       37
1005
125DD4
  0
ARC
  5
125DD5
  8
OBJECT
 10
12335.121727121221
 20
-972.40950726122855
 30
0.0
 40
110.86635228309
 50
16.95964619565439
 51
35.836572580695218
1001
ACDBBLOCKREPETAG
1070
     1
1071
       38
1005
125DD5
  0
ARC
  5
125DD6
  8
OBJECT
 10
12382.86401122309
 20
-957.28774971844894
 30
0.0
 40
60.791749880358971
 50
0.2712030171730965
 51
16.452795347786878
1001
ACDBBLOCKREPETAG
1070
     1
1071
       39
1005
125DD6
  0
ARC
  5
125DD7
  8
OBJECT
 10
12382.86400434375
 20
-963.71224975990117
 30
0.0
 40
60.79175676209487
 50
343.54722053947972
 51
359.7287965218548
1001
ACDBBLOCKREPETAG
1070
     1
1071
       40
1005
125DD7
  0
ARC
  5
125DD8
  8
OBJECT
 10
12335.121727121221
 20
-948.59049273883636
 30
0.0
 40
110.8663522830916
 50
324.16342741930481
 51
343.04035380434561
1001
ACDBBLOCKREPETAG
1070
     1
1071
       41
1005
125DD8
  0
LINE
  5
125DD9
  8
OBJECT
 10
12443.65508008699
 20
-957.00000000003638
 30
0.0
 11
12443.65508008699
 21
-964.00000000003286
 31
0.0
1001
ACDBBLOCKREPETAG
1070
     1
1071
       42
1005
125DD9
  0
LINE
  5
125DDA
  8
OBJECT
 10
12425.0
 20
-907.50000000006526
 30
0.0
 11
12418.5
 21
-907.50000000006526
 31
0.0
1001
ACDBBLOCKREPETAG
1070
     1
1071
       43
1005
125DDA
  0
LINE
  5
125DDB
  8
OBJECT
 10
12425.0
 20
-1013.5
 30
0.0
 11
12415.5
 21
-1013.5
 31
0.0
1001
ACDBBLOCKREPETAG
1070
     1
1071
       44
1005
125DDB
  0
LINE
  5
125DDC
  8
OBJECT
 10
12425.0
 20
-1013.5
 30
0.0
 11
12425.0
 21
-1043.0
 31
0.0
1001
ACDBBLOCKREPETAG
1070
     1
1071
        1
1005
125DBF
  0
POINT
  5
125DDD
  8
DOTS
 10
12500.0
 20
-1016.0
 30
0.0
  0
LINE
  5
125DDE
  8
DIM
 10
12665.0
 20
-696.0
 30
0.0
 11
12719.424581672751
 21
-696.0
 31
0.0
  0
LINE
  5
125DDF
  8
DIM
 10
12413.0
 20
-1016.000000000011
 30
0.0
 11
12719.424581672751
 21
-1016.000000000011
 31
0.0
  0
LINE
  5
125DE0
  8
DIM
 10
12709.424581672751
 20
-716.0
 30
0.0
 11
12709.424581672751
 21
-996.00000000001103
 31
0.0
  0
INSERT
  5
125DE1
  8
DIM
  2
_OPEN30
 10
12709.424581672751
 20
-696.0
 30
0.0
 41
20.0
 42
20.0
 43
20.0
 50
90.0
  0
INSERT
  5
125DE2
  8
DIM
  2
_OPEN30
 10
12709.424581672751
 20
-1016.000000000011
 30
0.0
 41
20.0
 42
20.0
 43
20.0
 50
270.0
  0
INSERT
  5
125DE3
  8
OBJECT
  2
*U6
 10
0.0
 20
0.0
 30
0.0
  0
LINE
  5
125DE4
  8
DIM
 10
12405.5
 20
-1016.00000000001
 30
0.0
 11
12292.14939336144
 21
-1016.00000000001
 31
0.0
  0
LINE
  5
125DE5
  8
DIM
 10
12422.999999999991
 20
-1305.999999999997
 30
0.0
 11
12292.14939336144
 21
-1305.999999999997
 31
0.0
  0
LINE
  5
125DE6
  8
DIM
 10
12302.14939336144
 20
-1036.00000000001
 30
0.0
 11
12302.14939336144
 21
-1285.999999999997
 31
0.0
  0
INSERT
  5
125DE7
  8
DIM
  2
_OPEN30
 10
12302.14939336144
 20
-1016.00000000001
 30
0.0
 41
20.0
 42
20.0
 43
20.0
 50
90.0
  0
INSERT
  5
125DE8
  8
DIM
  2
_OPEN30
 10
12302.14939336144
 20
-1305.999999999997
 30
0.0
 41
20.0
 42
20.0
 43
20.0
 50
270.0
  0
INSERT
  5
125DE9
  8
OBJECT
  2
*U7
 10
0.0
 20
0.0
 30
0.0
  0
LINE
  5
125DEA
  8
OBJECT
 10
10425.0
 20
-770.0
 30
0.0
 11
10425.0
 21
-907.50000000006526
 31
0.0
1001
ACDBBLOCKREPETAG
1070
     1
1071
        1
1005
125DEA
  0
LINE
  5
125DEB
  8
OBJECT
 10
10575.0
 20
-769.9999999999942
 30
0.0
 11
10575.0
 21
-1043.0
 31
0.0
1001
ACDBBLOCKREPETAG
1070
     1
1071
        3
1005
125DEB
  0
LINE
  5
125DEC
  8
CENTER
 10
10500.0
 20
-770.0
 30
0.0
 11
10500.0
 21
-1055.0
 31
0.0
1001
ACDBBLOCKREPETAG
1070
     1
1071
        6
1005
125DEC
  0
LINE
  5
125DED
  8
OBJECT
 10
10420.0
 20
-1055.0
 30
0.0
 11
10580.0
 21
-1055.0
 31
0.0
1001
ACDBBLOCKREPETAG
1070
     1
1071
        7
1005
125DED
  0
LINE
  5
125DEE
  8
OBJECT
 10
10420.0
 20
-1043.0
 30
0.0
 11
10580.0
 21
-1043.0
 31
0.0
1001
ACDBBLOCKREPETAG
1070
     1
1071
        8
1005
125DEE
  0
LINE
  5
125DEF
  8
OBJECT
 10
10420.0
 20
-1043.0
 30
0.0
 11
10420.0
 21
-1055.0
 31
0.0
1001
ACDBBLOCKREPETAG
1070
     1
1071
        9
1005
125DEF
  0
LINE
  5
125DF0
  8
OBJECT
 10
10580.0
 20
-1043.0
 30
0.0
 11
10580.0
 21
-1055.0
 31
0.0
1001
ACDBBLOCKREPETAG
1070
     1
1071
       10
1005
125DF0
  0
LINE
  5
125DF1
  8
OBJECT
 10
10367.0
 20
-909.0
 30
0.0
 11
10360.0
 21
-909.0
 31
0.0
1001
ACDBBLOCKREPETAG
1070
     1
1071
       23
1005
125DF1
  0
LINE
  5
125DF2
  8
OBJECT
 10
10360.0
 20
-909.0
 30
0.0
 11
10360.0
 21
-1016.0
 31
0.0
1001
ACDBBLOCKREPETAG
1070
     1
1071
       24
1005
125DF2
  0
LINE
  5
125DF3
  8
OBJECT
 10
10415.5
 20
-910.50000000006548
 30
0.0
 11
10415.5
 21
-1013.5
 31
0.0
1001
ACDBBLOCKREPETAG
1070
     1
1071
       25
1005
125DF3
  0
ARC
  5
125DF4
  8
OBJECT
 10
10418.5
 20
-910.50000000006548
 30
0.0
 40
3.0
 50
90.0
 51
180.0
1001
ACDBBLOCKREPETAG
1070
     1
1071
       26
1005
125DF4
  0
LINE
  5
125DF5
  8
OBJECT
 10
10367.0
 20
-1016.0
 30
0.0
 11
10367.0
 21
-909.0
 31
0.0
1001
ACDBBLOCKREPETAG
1070
     1
1071
       27
1005
125DF5
  0
LINE
  5
125DF6
  8
CENTER
 10
10345.0
 20
-964.0
 30
0.0
 11
10458.65508008699
 21
-964.00000000006526
 31
0.0
1001
ACDBBLOCKREPETAG
1070
     1
1071
       28
1005
125DF6
  0
LINE
  5
125DF7
  8
OBJECT
 10
10367.0
 20
-912.0
 30
0.0
 11
10403.0
 21
-912.0
 31
0.0
1001
ACDBBLOCKREPETAG
1070
     1
1071
       29
1005
125DF7
  0
LINE
  5
125DF8
  8
OBJECT
 10
10403.0
 20
-912.0
 30
0.0
 11
10403.0
 21
-1016.0
 31
0.0
1001
ACDBBLOCKREPETAG
1070
     1
1071
       30
1005
125DF8
  0
LINE
  5
125DF9
  8
OBJECT
 10
10403.0
 20
-1016.0
 30
0.0
 11
10360.0
 21
-1016.0
 31
0.0
1001
ACDBBLOCKREPETAG
1070
     1
1071
       31
1005
125DF9
  0
LINE
  5
125DFA
  8
OBJECT
 10
10407.0
 20
-916.5
 30
0.0
 11
10415.5
 21
-916.5
 31
0.0
1001
ACDBBLOCKREPETAG
1070
     1
1071
       32
1005
125DFA
  0
LINE
  5
125DFB
  8
OBJECT
 10
10415.5
 20
-1011.5
 30
0.0
 11
10407.0
 21
-1011.5
 31
0.0
1001
ACDBBLOCKREPETAG
1070
     1
1071
       33
1005
125DFB
  0
LINE
  5
125DFC
  8
OBJECT
 10
10407.0
 20
-1011.5
 30
0.0
 11
10407.0
 21
-916.5
 31
0.0
1001
ACDBBLOCKREPETAG
1070
     1
1071
       34
1005
125DFC
  0
LINE
  5
125DFD
  8
OBJECT
 10
10403.0
 20
-912.0
 30
0.0
 11
10407.0
 21
-916.5
 31
0.0
1001
ACDBBLOCKREPETAG
1070
     1
1071
       35
1005
125DFD
  0
LINE
  5
125DFE
  8
OBJECT
 10
10403.0
 20
-1016.0
 30
0.0
 11
10407.0
 21
-1011.5
 31
0.0
1001
ACDBBLOCKREPETAG
1070
     1
1071
       36
1005
125DFE
  0
LINE
  5
125DFF
  8
HIDDEN
 10
10412.0
 20
-926.0
 30
0.0
 11
10412.0
 21
-1002.0
 31
0.0
1001
ACDBBLOCKREPETAG
1070
     1
1071
       37
1005
125DFF
  0
ARC
  5
125E00
  8
OBJECT
 10
10335.121727121221
 20
-972.40950726122855
 30
0.0
 40
110.86635228309
 50
16.95964619565439
 51
35.836572580695218
1001
ACDBBLOCKREPETAG
1070
     1
1071
       38
1005
125E00
  0
ARC
  5
125E01
  8
OBJECT
 10
10382.86401122309
 20
-957.28774971844894
 30
0.0
 40
60.791749880358971
 50
0.2712030171730965
 51
16.452795347786878
1001
ACDBBLOCKREPETAG
1070
     1
1071
       39
1005
125E01
  0
ARC
  5
125E02
  8
OBJECT
 10
10382.86400434375
 20
-963.71224975990117
 30
0.0
 40
60.79175676209487
 50
343.54722053947972
 51
359.7287965218548
1001
ACDBBLOCKREPETAG
1070
     1
1071
       40
1005
125E02
  0
ARC
  5
125E03
  8
OBJECT
 10
10335.121727121221
 20
-948.59049273883636
 30
0.0
 40
110.8663522830916
 50
324.16342741930481
 51
343.04035380434561
1001
ACDBBLOCKREPETAG
1070
     1
1071
       41
1005
125E03
  0
LINE
  5
125E04
  8
OBJECT
 10
10443.65508008699
 20
-957.00000000003638
 30
0.0
 11
10443.65508008699
 21
-964.00000000003286
 31
0.0
1001
ACDBBLOCKREPETAG
1070
     1
1071
       42
1005
125E04
  0
LINE
  5
125E05
  8
OBJECT
 10
10425.0
 20
-907.50000000006526
 30
0.0
 11
10418.5
 21
-907.50000000006526
 31
0.0
1001
ACDBBLOCKREPETAG
1070
     1
1071
       43
1005
125E05
  0
LINE
  5
125E06
  8
OBJECT
 10
10425.0
 20
-1013.5
 30
0.0
 11
10415.5
 21
-1013.5
 31
0.0
1001
ACDBBLOCKREPETAG
1070
     1
1071
       44
1005
125E06
  0
LINE
  5
125E07
  8
OBJECT
 10
10425.0
 20
-1013.5
 30
0.0
 11
10425.0
 21
-1043.0
 31
0.0
1001
ACDBBLOCKREPETAG
1070
     1
1071
        1
1005
125DEA
  0
POINT
  5
125E08
  8
DOTS
 10
10500.0
 20
-1016.0
 30
0.0
  0
LINE
  5
125E09
  8
DIM
 10
10665.0
 20
-696.0
 30
0.0
 11
10719.424581672751
 21
-696.0
 31
0.0
  0
LINE
  5
125E0A
  8
DIM
 10
10413.0
 20
-1016.000000000011
 30
0.0
 11
10719.424581672751
 21
-1016.000000000011
 31
0.0
  0
LINE
  5
125E0B
  8
DIM
 10
10709.424581672751
 20
-716.0
 30
0.0
 11
10709.424581672751
 21
-996.00000000001103
 31
0.0
  0
INSERT
  5
125E0C
  8
DIM
  2
_OPEN30
 10
10709.424581672751
 20
-696.0
 30
0.0
 41
20.0
 42
20.0
 43
20.0
 50
90.0
  0
INSERT
  5
125E0D
  8
DIM
  2
_OPEN30
 10
10709.424581672751
 20
-1016.000000000011
 30
0.0
 41
20.0
 42
20.0
 43
20.0
 50
270.0
  0
INSERT
  5
125E0E
  8
OBJECT
  2
*U8
 10
0.0
 20
0.0
 30
0.0
  0
LINE
  5
125E0F
  8
DIM
 10
10405.5
 20
-1016.00000000001
 30
0.0
 11
10292.14939336144
 21
-1016.00000000001
 31
0.0
  0
LINE
  5
125E10
  8
DIM
 10
10422.999999999991
 20
-1305.999999999997
 30
0.0
 11
10292.14939336144
 21
-1305.999999999997
 31
0.0
  0
LINE
  5
125E11
  8
DIM
 10
10302.14939336144
 20
-1036.00000000001
 30
0.0
 11
10302.14939336144
 21
-1285.999999999997
 31
0.0
  0
INSERT
  5
125E12
  8
DIM
  2
_OPEN30
 10
10302.14939336144
 20
-1016.00000000001
 30
0.0
 41
20.0
 42
20.0
 43
20.0
 50
90.0
  0
INSERT
  5
125E13
  8
DIM
  2
_OPEN30
 10
10302.14939336144
 20
-1305.999999999997
 30
0.0
 41
20.0
 42
20.0
 43
20.0
 50
270.0
  0
INSERT
  5
125E14
  8
OBJECT
  2
*U9
 10
0.0
 20
0.0
 30
0.0
  0
LINE
  5
125E15
  8
OBJECT
 10
8425.0
 20
-770.0
 30
0.0
 11
8425.0
 21
-907.50000000006526
 31
0.0
1001
ACDBBLOCKREPETAG
1070
     1
1071
        1
1005
125E15
  0
LINE
  5
125E16
  8
OBJECT
 10
8575.0
 20
-769.9999999999942
 30
0.0
 11
8575.0
 21
-1043.0
 31
0.0
1001
ACDBBLOCKREPETAG
1070
     1
1071
        3
1005
125E16
  0
LINE
  5
125E17
  8
CENTER
 10
8500.0
 20
-770.0
 30
0.0
 11
8500.0
 21
-1055.0
 31
0.0
1001
ACDBBLOCKREPETAG
1070
     1
1071
        6
1005
125E17
  0
LINE
  5
125E18
  8
OBJECT
 10
8420.0
 20
-1055.0
 30
0.0
 11
8580.0
 21
-1055.0
 31
0.0
1001
ACDBBLOCKREPETAG
1070
     1
1071
        7
1005
125E18
  0
LINE
  5
125E19
  8
OBJECT
 10
8420.0
 20
-1043.0
 30
0.0
 11
8580.0
 21
-1043.0
 31
0.0
1001
ACDBBLOCKREPETAG
1070
     1
1071
        8
1005
125E19
  0
LINE
  5
125E1A
  8
OBJECT
 10
8420.0
 20
-1043.0
 30
0.0
 11
8420.0
 21
-1055.0
 31
0.0
1001
ACDBBLOCKREPETAG
1070
     1
1071
        9
1005
125E1A
  0
LINE
  5
125E1B
  8
OBJECT
 10
8580.0
 20
-1043.0
 30
0.0
 11
8580.0
 21
-1055.0
 31
0.0
1001
ACDBBLOCKREPETAG
1070
     1
1071
       10
1005
125E1B
  0
LINE
  5
125E1C
  8
OBJECT
 10
8367.0
 20
-909.0
 30
0.0
 11
8360.0
 21
-909.0
 31
0.0
1001
ACDBBLOCKREPETAG
1070
     1
1071
       23
1005
125E1C
  0
LINE
  5
125E1D
  8
OBJECT
 10
8360.0
 20
-909.0
 30
0.0
 11
8360.0
 21
-1016.0
 31
0.0
1001
ACDBBLOCKREPETAG
1070
     1
1071
       24
1005
125E1D
  0
LINE
  5
125E1E
  8
OBJECT
 10
8415.4999999999982
 20
-910.50000000006548
 30
0.0
 11
8415.4999999999982
 21
-1013.5
 31
0.0
1001
ACDBBLOCKREPETAG
1070
     1
1071
       25
1005
125E1E
  0
ARC
  5
125E1F
  8
OBJECT
 10
8418.4999999999982
 20
-910.50000000006548
 30
0.0
 40
3.0
 50
90.0
 51
180.0
1001
ACDBBLOCKREPETAG
1070
     1
1071
       26
1005
125E1F
  0
LINE
  5
125E20
  8
OBJECT
 10
8367.0
 20
-1016.0
 30
0.0
 11
8367.0
 21
-909.0
 31
0.0
1001
ACDBBLOCKREPETAG
1070
     1
1071
       27
1005
125E20
  0
LINE
  5
125E21
  8
CENTER
 10
8345.0
 20
-964.0
 30
0.0
 11
8458.6550800869954
 21
-964.00000000006526
 31
0.0
1001
ACDBBLOCKREPETAG
1070
     1
1071
       28
1005
125E21
  0
LINE
  5
125E22
  8
OBJECT
 10
8367.0
 20
-912.0
 30
0.0
 11
8403.0
 21
-912.0
 31
0.0
1001
ACDBBLOCKREPETAG
1070
     1
1071
       29
1005
125E22
  0
LINE
  5
125E23
  8
OBJECT
 10
8403.0
 20
-912.0
 30
0.0
 11
8403.0
 21
-1016.0
 31
0.0
1001
ACDBBLOCKREPETAG
1070
     1
1071
       30
1005
125E23
  0
LINE
  5
125E24
  8
OBJECT
 10
8403.0
 20
-1016.0
 30
0.0
 11
8360.0
 21
-1016.0
 31
0.0
1001
ACDBBLOCKREPETAG
1070
     1
1071
       31
1005
125E24
  0
LINE
  5
125E25
  8
OBJECT
 10
8407.0
 20
-916.5
 30
0.0
 11
8415.4999999999982
 21
-916.5
 31
0.0
1001
ACDBBLOCKREPETAG
1070
     1
1071
       32
1005
125E25
  0
LINE
  5
125E26
  8
OBJECT
 10
8415.4999999999982
 20
-1011.5
 30
0.0
 11
8407.0
 21
-1011.5
 31
0.0
1001
ACDBBLOCKREPETAG
1070
     1
1071
       33
1005
125E26
  0
LINE
  5
125E27
  8
OBJECT
 10
8407.0
 20
-1011.5
 30
0.0
 11
8407.0
 21
-916.5
 31
0.0
1001
ACDBBLOCKREPETAG
1070
     1
1071
       34
1005
125E27
  0
LINE
  5
125E28
  8
OBJECT
 10
8403.0
 20
-912.0
 30
0.0
 11
8407.0
 21
-916.5
 31
0.0
1001
ACDBBLOCKREPETAG
1070
     1
1071
       35
1005
125E28
  0
LINE
  5
125E29
  8
OBJECT
 10
8403.0
 20
-1016.0
 30
0.0
 11
8407.0
 21
-1011.5
 31
0.0
1001
ACDBBLOCKREPETAG
1070
     1
1071
       36
1005
125E29
  0
LINE
  5
125E2A
  8
HIDDEN
 10
8412.0
 20
-926.0
 30
0.0
 11
8412.0
 21
-1002.0
 31
0.0
1001
ACDBBLOCKREPETAG
1070
     1
1071
       37
1005
125E2A
  0
ARC
  5
125E2B
  8
OBJECT
 10
8335.1217271212263
 20
-972.40950726122855
 30
0.0
 40
110.86635228309
 50
16.95964619565439
 51
35.836572580695218
1001
ACDBBLOCKREPETAG
1070
     1
1071
       38
1005
125E2B
  0
ARC
  5
125E2C
  8
OBJECT
 10
8382.8640112230933
 20
-957.28774971844894
 30
0.0
 40
60.791749880358971
 50
0.2712030171730965
 51
16.452795347786878
1001
ACDBBLOCKREPETAG
1070
     1
1071
       39
1005
125E2C
  0
ARC
  5
125E2D
  8
OBJECT
 10
8382.8640043437481
 20
-963.71224975990117
 30
0.0
 40
60.79175676209487
 50
343.54722053947972
 51
359.7287965218548
1001
ACDBBLOCKREPETAG
1070
     1
1071
       40
1005
125E2D
  0
ARC
  5
125E2E
  8
OBJECT
 10
8335.1217271212263
 20
-948.59049273883636
 30
0.0
 40
110.8663522830916
 50
324.16342741930481
 51
343.04035380434561
1001
ACDBBLOCKREPETAG
1070
     1
1071
       41
1005
125E2E
  0
LINE
  5
125E2F
  8
OBJECT
 10
8443.6550800869954
 20
-957.00000000003638
 30
0.0
 11
8443.6550800869954
 21
-964.00000000003286
 31
0.0
1001
ACDBBLOCKREPETAG
1070
     1
1071
       42
1005
125E2F
  0
LINE
  5
125E30
  8
OBJECT
 10
8425.0
 20
-907.50000000006526
 30
0.0
 11
8418.4999999999982
 21
-907.50000000006526
 31
0.0
1001
ACDBBLOCKREPETAG
1070
     1
1071
       43
1005
125E30
  0
LINE
  5
125E31
  8
OBJECT
 10
8425.0
 20
-1013.5
 30
0.0
 11
8415.4999999999982
 21
-1013.5
 31
0.0
1001
ACDBBLOCKREPETAG
1070
     1
1071
       44
1005
125E31
  0
LINE
  5
125E32
  8
OBJECT
 10
8425.0
 20
-1013.5
 30
0.0
 11
8425.0
 21
-1043.0
 31
0.0
1001
ACDBBLOCKREPETAG
1070
     1
1071
        1
1005
125E15
  0
POINT
  5
125E33
  8
DOTS
 10
8500.0
 20
-1016.0
 30
0.0
  0
LINE
  5
125E34
  8
DIM
 10
8665.0
 20
-696.0
 30
0.0
 11
8719.4245816727544
 21
-696.0
 31
0.0
  0
LINE
  5
125E35
  8
DIM
 10
8413.0
 20
-1016.000000000011
 30
0.0
 11
8719.4245816727544
 21
-1016.000000000011
 31
0.0
  0
LINE
  5
125E36
  8
DIM
 10
8709.4245816727544
 20
-716.0
 30
0.0
 11
8709.4245816727544
 21
-996.00000000001103
 31
0.0
  0
INSERT
  5
125E37
  8
DIM
  2
_OPEN30
 10
8709.4245816727544
 20
-696.0
 30
0.0
 41
20.0
 42
20.0
 43
20.0
 50
90.0
  0
INSERT
  5
125E38
  8
DIM
  2
_OPEN30
 10
8709.4245816727544
 20
-1016.000000000011
 30
0.0
 41
20.0
 42
20.0
 43
20.0
 50
270.0
  0
INSERT
  5
125E39
  8
OBJECT
  2
*U10
 10
0.0
 20
0.0
 30
0.0
  0
LINE
  5
125E3A
  8
OBJECT
 10
6425.0
 20
-770.0
 30
0.0
 11
6425.0
 21
-907.50000000006526
 31
0.0
1001
ACDBBLOCKREPETAG
1070
     1
1071
        1
1005
125E3A
  0
LINE
  5
125E3B
  8
OBJECT
 10
6575.0
 20
-769.9999999999942
 30
0.0
 11
6575.0
 21
-1043.0
 31
0.0
1001
ACDBBLOCKREPETAG
1070
     1
1071
        3
1005
125E3B
  0
LINE
  5
125E3C
  8
CENTER
 10
6500.0
 20
-770.0
 30
0.0
 11
6500.0
 21
-1055.0
 31
0.0
1001
ACDBBLOCKREPETAG
1070
     1
1071
        6
1005
125E3C
  0
LINE
  5
125E3D
  8
OBJECT
 10
6420.0
 20
-1055.0
 30
0.0
 11
6580.0
 21
-1055.0
 31
0.0
1001
ACDBBLOCKREPETAG
1070
     1
1071
        7
1005
125E3D
  0
LINE
  5
125E3E
  8
OBJECT
 10
6420.0
 20
-1043.0
 30
0.0
 11
6580.0
 21
-1043.0
 31
0.0
1001
ACDBBLOCKREPETAG
1070
     1
1071
        8
1005
125E3E
  0
LINE
  5
125E3F
  8
OBJECT
 10
6420.0
 20
-1043.0
 30
0.0
 11
6420.0
 21
-1055.0
 31
0.0
1001
ACDBBLOCKREPETAG
1070
     1
1071
        9
1005
125E3F
  0
LINE
  5
125E40
  8
OBJECT
 10
6580.0
 20
-1043.0
 30
0.0
 11
6580.0
 21
-1055.0
 31
0.0
1001
ACDBBLOCKREPETAG
1070
     1
1071
       10
1005
125E40
  0
LINE
  5
125E41
  8
OBJECT
 10
6367.0
 20
-909.0
 30
0.0
 11
6360.0
 21
-909.0
 31
0.0
1001
ACDBBLOCKREPETAG
1070
     1
1071
       23
1005
125E41
  0
LINE
  5
125E42
  8
OBJECT
 10
6360.0
 20
-909.0
 30
0.0
 11
6360.0
 21
-1016.0
 31
0.0
1001
ACDBBLOCKREPETAG
1070
     1
1071
       24
1005
125E42
  0
LINE
  5
125E43
  8
OBJECT
 10
6415.5
 20
-910.50000000006548
 30
0.0
 11
6415.5
 21
-1013.5
 31
0.0
1001
ACDBBLOCKREPETAG
1070
     1
1071
       25
1005
125E43
  0
ARC
  5
125E44
  8
OBJECT
 10
6418.5
 20
-910.50000000006548
 30
0.0
 40
3.0
 50
90.0
 51
180.0
1001
ACDBBLOCKREPETAG
1070
     1
1071
       26
1005
125E44
  0
LINE
  5
125E45
  8
OBJECT
 10
6367.0
 20
-1016.0
 30
0.0
 11
6367.0
 21
-909.0
 31
0.0
1001
ACDBBLOCKREPETAG
1070
     1
1071
       27
1005
125E45
  0
LINE
  5
125E46
  8
CENTER
 10
6345.0
 20
-964.0
 30
0.0
 11
6458.6550800869954
 21
-964.00000000006526
 31
0.0
1001
ACDBBLOCKREPETAG
1070
     1
1071
       28
1005
125E46
  0
LINE
  5
125E47
  8
OBJECT
 10
6367.0
 20
-912.0
 30
0.0
 11
6403.0
 21
-912.0
 31
0.0
1001
ACDBBLOCKREPETAG
1070
     1
1071
       29
1005
125E47
  0
LINE
  5
125E48
  8
OBJECT
 10
6403.0
 20
-912.0
 30
0.0
 11
6403.0
 21
-1016.0
 31
0.0
1001
ACDBBLOCKREPETAG
1070
     1
1071
       30
1005
125E48
  0
LINE
  5
125E49
  8
OBJECT
 10
6403.0
 20
-1016.0
 30
0.0
 11
6360.0
 21
-1016.0
 31
0.0
1001
ACDBBLOCKREPETAG
1070
     1
1071
       31
1005
125E49
  0
LINE
  5
125E4A
  8
OBJECT
 10
6407.0
 20
-916.5
 30
0.0
 11
6415.5
 21
-916.5
 31
0.0
1001
ACDBBLOCKREPETAG
1070
     1
1071
       32
1005
125E4A
  0
LINE
  5
125E4B
  8
OBJECT
 10
6415.5
 20
-1011.5
 30
0.0
 11
6407.0
 21
-1011.5
 31
0.0
1001
ACDBBLOCKREPETAG
1070
     1
1071
       33
1005
125E4B
  0
LINE
  5
125E4C
  8
OBJECT
 10
6407.0
 20
-1011.5
 30
0.0
 11
6407.0
 21
-916.5
 31
0.0
1001
ACDBBLOCKREPETAG
1070
     1
1071
       34
1005
125E4C
  0
LINE
  5
125E4D
  8
OBJECT
 10
6403.0
 20
-912.0
 30
0.0
 11
6407.0
 21
-916.5
 31
0.0
1001
ACDBBLOCKREPETAG
1070
     1
1071
       35
1005
125E4D
  0
LINE
  5
125E4E
  8
OBJECT
 10
6403.0
 20
-1016.0
 30
0.0
 11
6407.0
 21
-1011.5
 31
0.0
1001
ACDBBLOCKREPETAG
1070
     1
1071
       36
1005
125E4E
  0
LINE
  5
125E4F
  8
HIDDEN
 10
6412.0
 20
-926.0
 30
0.0
 11
6412.0
 21
-1002.0
 31
0.0
1001
ACDBBLOCKREPETAG
1070
     1
1071
       37
1005
125E4F
  0
ARC
  5
125E50
  8
OBJECT
 10
6335.1217271212263
 20
-972.40950726122855
 30
0.0
 40
110.86635228309
 50
16.95964619565439
 51
35.836572580695218
1001
ACDBBLOCKREPETAG
1070
     1
1071
       38
1005
125E50
  0
ARC
  5
125E51
  8
OBJECT
 10
6382.8640112230942
 20
-957.28774971844894
 30
0.0
 40
60.791749880358971
 50
0.2712030171733432
 51
16.452795347786878
1001
ACDBBLOCKREPETAG
1070
     1
1071
       39
1005
125E51
  0
ARC
  5
125E52
  8
OBJECT
 10
6382.8640043437508
 20
-963.71224975990117
 30
0.0
 40
60.79175676209487
 50
343.54722053947972
 51
359.7287965218548
1001
ACDBBLOCKREPETAG
1070
     1
1071
       40
1005
125E52
  0
ARC
  5
125E53
  8
OBJECT
 10
6335.1217271212263
 20
-948.59049273883636
 30
0.0
 40
110.8663522830916
 50
324.16342741930481
 51
343.04035380434561
1001
ACDBBLOCKREPETAG
1070
     1
1071
       41
1005
125E53
  0
LINE
  5
125E54
  8
OBJECT
 10
6443.6550800869954
 20
-957.00000000003638
 30
0.0
 11
6443.6550800869954
 21
-964.00000000003286
 31
0.0
1001
ACDBBLOCKREPETAG
1070
     1
1071
       42
1005
125E54
  0
LINE
  5
125E55
  8
OBJECT
 10
6425.0
 20
-907.50000000006526
 30
0.0
 11
6418.5
 21
-907.50000000006526
 31
0.0
1001
ACDBBLOCKREPETAG
1070
     1
1071
       43
1005
125E55
  0
LINE
  5
125E56
  8
OBJECT
 10
6425.0
 20
-1013.5
 30
0.0
 11
6415.5
 21
-1013.5
 31
0.0
1001
ACDBBLOCKREPETAG
1070
     1
1071
       44
1005
125E56
  0
LINE
  5
125E57
  8
OBJECT
 10
6425.0
 20
-1013.5
 30
0.0
 11
6425.0
 21
-1043.0
 31
0.0
1001
ACDBBLOCKREPETAG
1070
     1
1071
        1
1005
125E3A
  0
POINT
  5
125E58
  8
DOTS
 10
6500.0
 20
-1016.0
 30
0.0
  0
LINE
  5
125E59
  8
DIM
 10
6665.0
 20
-696.0
 30
0.0
 11
6719.4245816727562
 21
-696.0
 31
0.0
  0
LINE
  5
125E5A
  8
DIM
 10
6413.0
 20
-1016.0
 30
0.0
 11
6719.4245816727562
 21
-1016.0
 31
0.0
  0
LINE
  5
125E5B
  8
DIM
 10
6709.4245816727562
 20
-716.0
 30
0.0
 11
6709.4245816727562
 21
-996.0
 31
0.0
  0
INSERT
  5
125E5C
  8
DIM
  2
_OPEN30
 10
6709.4245816727562
 20
-696.0
 30
0.0
 41
20.0
 42
20.0
 43
20.0
 50
90.0
  0
INSERT
  5
125E5D
  8
DIM
  2
_OPEN30
 10
6709.4245816727562
 20
-1016.0
 30
0.0
 41
20.0
 42
20.0
 43
20.0
 50
270.0
  0
INSERT
  5
125E5E
  8
OBJECT
  2
*U11
 10
0.0
 20
0.0
 30
0.0
  0
LINE
  5
125E5F
  8
OBJECT
 10
4425.0
 20
-770.0
 30
0.0
 11
4425.0
 21
-907.50000000006526
 31
0.0
1001
ACDBBLOCKREPETAG
1070
     1
1071
        1
1005
125E5F
  0
LINE
  5
125E60
  8
OBJECT
 10
4575.0
 20
-769.9999999999942
 30
0.0
 11
4575.0
 21
-1043.0
 31
0.0
1001
ACDBBLOCKREPETAG
1070
     1
1071
        3
1005
125E60
  0
LINE
  5
125E61
  8
CENTER
 10
4500.0
 20
-770.0
 30
0.0
 11
4500.0
 21
-1055.0
 31
0.0
1001
ACDBBLOCKREPETAG
1070
     1
1071
        6
1005
125E61
  0
LINE
  5
125E62
  8
OBJECT
 10
4420.0
 20
-1055.0
 30
0.0
 11
4580.0
 21
-1055.0
 31
0.0
1001
ACDBBLOCKREPETAG
1070
     1
1071
        7
1005
125E62
  0
LINE
  5
125E63
  8
OBJECT
 10
4420.0
 20
-1043.0
 30
0.0
 11
4580.0
 21
-1043.0
 31
0.0
1001
ACDBBLOCKREPETAG
1070
     1
1071
        8
1005
125E63
  0
LINE
  5
125E64
  8
OBJECT
 10
4420.0
 20
-1043.0
 30
0.0
 11
4420.0
 21
-1055.0
 31
0.0
1001
ACDBBLOCKREPETAG
1070
     1
1071
        9
1005
125E64
  0
LINE
  5
125E65
  8
OBJECT
 10
4580.0
 20
-1043.0
 30
0.0
 11
4580.0
 21
-1055.0
 31
0.0
1001
ACDBBLOCKREPETAG
1070
     1
1071
       10
1005
125E65
  0
LINE
  5
125E66
  8
OBJECT
 10
4367.0
 20
-909.0
 30
0.0
 11
4360.0
 21
-909.0
 31
0.0
1001
ACDBBLOCKREPETAG
1070
     1
1071
       23
1005
125E66
  0
LINE
  5
125E67
  8
OBJECT
 10
4360.0
 20
-909.0
 30
0.0
 11
4360.0
 21
-1016.0
 31
0.0
1001
ACDBBLOCKREPETAG
1070
     1
1071
       24
1005
125E67
  0
LINE
  5
125E68
  8
OBJECT
 10
4415.5
 20
-910.50000000006548
 30
0.0
 11
4415.5
 21
-1013.5
 31
0.0
1001
ACDBBLOCKREPETAG
1070
     1
1071
       25
1005
125E68
  0
ARC
  5
125E69
  8
OBJECT
 10
4418.5
 20
-910.50000000006548
 30
0.0
 40
3.0
 50
90.0
 51
180.0
1001
ACDBBLOCKREPETAG
1070
     1
1071
       26
1005
125E69
  0
LINE
  5
125E6A
  8
OBJECT
 10
4367.0
 20
-1016.0
 30
0.0
 11
4367.0
 21
-909.0
 31
0.0
1001
ACDBBLOCKREPETAG
1070
     1
1071
       27
1005
125E6A
  0
LINE
  5
125E6B
  8
CENTER
 10
4345.0
 20
-964.0
 30
0.0
 11
4458.6550800869954
 21
-964.00000000006526
 31
0.0
1001
ACDBBLOCKREPETAG
1070
     1
1071
       28
1005
125E6B
  0
LINE
  5
125E6C
  8
OBJECT
 10
4367.0
 20
-912.0
 30
0.0
 11
4403.0
 21
-912.0
 31
0.0
1001
ACDBBLOCKREPETAG
1070
     1
1071
       29
1005
125E6C
  0
LINE
  5
125E6D
  8
OBJECT
 10
4403.0
 20
-912.0
 30
0.0
 11
4403.0
 21
-1016.0
 31
0.0
1001
ACDBBLOCKREPETAG
1070
     1
1071
       30
1005
125E6D
  0
LINE
  5
125E6E
  8
OBJECT
 10
4403.0
 20
-1016.0
 30
0.0
 11
4360.0
 21
-1016.0
 31
0.0
1001
ACDBBLOCKREPETAG
1070
     1
1071
       31
1005
125E6E
  0
LINE
  5
125E6F
  8
OBJECT
 10
4407.0
 20
-916.5
 30
0.0
 11
4415.5
 21
-916.5
 31
0.0
1001
ACDBBLOCKREPETAG
1070
     1
1071
       32
1005
125E6F
  0
LINE
  5
125E70
  8
OBJECT
 10
4415.5
 20
-1011.5
 30
0.0
 11
4407.0
 21
-1011.5
 31
0.0
1001
ACDBBLOCKREPETAG
1070
     1
1071
       33
1005
125E70
  0
LINE
  5
125E71
  8
OBJECT
 10
4407.0
 20
-1011.5
 30
0.0
 11
4407.0
 21
-916.5
 31
0.0
1001
ACDBBLOCKREPETAG
1070
     1
1071
       34
1005
125E71
  0
LINE
  5
125E72
  8
OBJECT
 10
4403.0
 20
-912.0
 30
0.0
 11
4407.0
 21
-916.5
 31
0.0
1001
ACDBBLOCKREPETAG
1070
     1
1071
       35
1005
125E72
  0
LINE
  5
125E73
  8
OBJECT
 10
4403.0
 20
-1016.0
 30
0.0
 11
4407.0
 21
-1011.5
 31
0.0
1001
ACDBBLOCKREPETAG
1070
     1
1071
       36
1005
125E73
  0
LINE
  5
125E74
  8
HIDDEN
 10
4412.0
 20
-926.0
 30
0.0
 11
4412.0
 21
-1002.0
 31
0.0
1001
ACDBBLOCKREPETAG
1070
     1
1071
       37
1005
125E74
  0
ARC
  5
125E75
  8
OBJECT
 10
4335.1217271212254
 20
-972.40950726122855
 30
0.0
 40
110.86635228309
 50
16.95964619565439
 51
35.836572580695218
1001
ACDBBLOCKREPETAG
1070
     1
1071
       38
1005
125E75
  0
ARC
  5
125E76
  8
OBJECT
 10
4382.8640112230942
 20
-957.28774971844894
 30
0.0
 40
60.791749880358971
 50
0.2712030171733432
 51
16.452795347786878
1001
ACDBBLOCKREPETAG
1070
     1
1071
       39
1005
125E76
  0
ARC
  5
125E77
  8
OBJECT
 10
4382.864004343749
 20
-963.71224975990117
 30
0.0
 40
60.79175676209487
 50
343.54722053947972
 51
359.7287965218548
1001
ACDBBLOCKREPETAG
1070
     1
1071
       40
1005
125E77
  0
ARC
  5
125E78
  8
OBJECT
 10
4335.1217271212254
 20
-948.59049273883636
 30
0.0
 40
110.8663522830916
 50
324.16342741930481
 51
343.04035380434561
1001
ACDBBLOCKREPETAG
1070
     1
1071
       41
1005
125E78
  0
LINE
  5
125E79
  8
OBJECT
 10
4443.6550800869954
 20
-957.00000000003638
 30
0.0
 11
4443.6550800869954
 21
-964.00000000003286
 31
0.0
1001
ACDBBLOCKREPETAG
1070
     1
1071
       42
1005
125E79
  0
LINE
  5
125E7A
  8
OBJECT
 10
4425.0
 20
-907.50000000006526
 30
0.0
 11
4418.5
 21
-907.50000000006526
 31
0.0
1001
ACDBBLOCKREPETAG
1070
     1
1071
       43
1005
125E7A
  0
LINE
  5
125E7B
  8
OBJECT
 10
4425.0
 20
-1013.5
 30
0.0
 11
4415.5
 21
-1013.5
 31
0.0
1001
ACDBBLOCKREPETAG
1070
     1
1071
       44
1005
125E7B
  0
LINE
  5
125E7C
  8
OBJECT
 10
4425.0
 20
-1013.5
 30
0.0
 11
4425.0
 21
-1043.0
 31
0.0
1001
ACDBBLOCKREPETAG
1070
     1
1071
        1
1005
125E5F
  0
POINT
  5
125E7D
  8
DOTS
 10
4500.0
 20
-1016.0
 30
0.0
  0
LINE
  5
125E7E
  8
DIM
 10
4665.0
 20
-696.0
 30
0.0
 11
4719.4245816727571
 21
-696.0
 31
0.0
  0
LINE
  5
125E7F
  8
DIM
 10
4413.0
 20
-1016.0
 30
0.0
 11
4719.4245816727571
 21
-1016.0
 31
0.0
  0
LINE
  5
125E80
  8
DIM
 10
4709.4245816727562
 20
-716.0
 30
0.0
 11
4709.4245816727562
 21
-996.0
 31
0.0
  0
INSERT
  5
125E81
  8
DIM
  2
_OPEN30
 10
4709.4245816727562
 20
-696.0
 30
0.0
 41
20.0
 42
20.0
 43
20.0
 50
90.0
  0
INSERT
  5
125E82
  8
DIM
  2
_OPEN30
 10
4709.4245816727562
 20
-1016.0
 30
0.0
 41
20.0
 42
20.0
 43
20.0
 50
270.0
  0
INSERT
  5
125E83
  8
OBJECT
  2
*U12
 10
0.0
 20
0.0
 30
0.0
  0
POLYLINE
  5
125E84
  8
HIDDEN
 66
     1
 10
0.0
 20
0.0
 30
0.0
 70
     1
1001
ACDBBLOCKREPETAG
1070
     1
1071
      105
1005
0
  0
VERTEX
  5
1266DE
  8
HIDDEN
 10
359.99999999987779
 20
-799.99999999999818
 30
0.0
  0
VERTEX
  5
1266DF
  8
HIDDEN
 10
719.99999999975603
 20
-799.99999999999818
 30
0.0
  0
VERTEX
  5
1266E0
  8
HIDDEN
 10
719.99999999975603
 20
-1263.9999999998399
 30
0.0
  0
VERTEX
  5
1266E1
  8
HIDDEN
 10
359.99999999987779
 20
-1263.9999999998399
 30
0.0
  0
SEQEND
  5
1266E2
  8
HIDDEN
  0
POLYLINE
  5
125E85
  8
HIDDEN
 66
     1
 10
0.0
 20
0.0
 30
0.0
 70
     1
1001
ACDBBLOCKREPETAG
1070
     1
1071
      110
1005
0
  0
VERTEX
  5
1266E3
  8
HIDDEN
 10
-0.0000000000002274
 20
-799.99999999999818
 30
0.0
  0
VERTEX
  5
1266E4
  8
HIDDEN
 10
359.99999999987779
 20
-799.99999999999818
 30
0.0
  0
VERTEX
  5
1266E5
  8
HIDDEN
 10
359.99999999987779
 20
-1263.9999999998399
 30
0.0
  0
VERTEX
  5
1266E6
  8
HIDDEN
 10
-0.0000000000002274
 20
-1263.9999999998399
 30
0.0
  0
SEQEND
  5
1266E7
  8
HIDDEN
  0
POLYLINE
  5
125E86
  8
HIDDEN
 66
     1
 10
0.0
 20
0.0
 30
0.0
 70
     1
1001
ACDBBLOCKREPETAG
1070
     1
1071
      125
1005
0
  0
VERTEX
  5
1266E8
  8
HIDDEN
 10
-0.0000000000002274
 20
-1263.9999999998399
 30
0.0
  0
VERTEX
  5
1266E9
  8
HIDDEN
 10
359.99999999987779
 20
-1263.9999999998399
 30
0.0
  0
VERTEX
  5
1266EA
  8
HIDDEN
 10
359.99999999987779
 20
-1727.999999999681
 30
0.0
  0
VERTEX
  5
1266EB
  8
HIDDEN
 10
-0.0000000000002274
 20
-1727.999999999681
 30
0.0
  0
SEQEND
  5
1266EC
  8
HIDDEN
  0
POLYLINE
  5
125E87
  8
HIDDEN
 66
     1
 10
0.0
 20
0.0
 30
0.0
 70
     1
1001
ACDBBLOCKREPETAG
1070
     1
1071
      110
1005
0
  0
VERTEX
  5
1266ED
  8
HIDDEN
 10
-0.0000000000002274
 20
0.0000000000009095
 30
0.0
  0
VERTEX
  5
1266EE
  8
HIDDEN
 10
359.99999999987779
 20
0.0000000000009095
 30
0.0
  0
VERTEX
  5
1266EF
  8
HIDDEN
 10
359.99999999987779
 20
-463.99999999984078
 30
0.0
  0
VERTEX
  5
1266F0
  8
HIDDEN
 10
-0.0000000000002274
 20
-463.99999999984078
 30
0.0
  0
SEQEND
  5
1266F1
  8
HIDDEN
  0
INSERT
  5
125E88
  8
OBJECT
  2
*U13
 10
0.0
 20
0.0
 30
0.0
  0
LINE
  5
125E89
  8
OBJECT
 10
118.00000000004179
 20
-99.000000000171866
 30
0.0
 11
118.00000000004179
 21
-92.000000000171852
 31
0.0
1001
ACDBBLOCKREPETAG
1070
     1
1071
       39
1005
125E89
  0
LINE
  5
125E8A
  8
OBJECT
 10
118.00000000004179
 20
-92.000000000171852
 30
0.0
 11
242.00000000004181
 21
-92.000000000171852
 31
0.0
1001
ACDBBLOCKREPETAG
1070
     1
1071
       40
1005
125E8A
  0
LINE
  5
125E8B
  8
OBJECT
 10
242.00000000004181
 20
-92.000000000171852
 30
0.0
 11
242.00000000004181
 21
-99.000000000171866
 31
0.0
1001
ACDBBLOCKREPETAG
1070
     1
1071
       41
1005
125E8B
  0
LINE
  5
125E8C
  8
OBJECT
 10
242.00000000004181
 20
-99.000000000171866
 30
0.0
 11
118.00000000004179
 21
-99.000000000171866
 31
0.0
1001
ACDBBLOCKREPETAG
1070
     1
1071
       42
1005
125E8C
  0
LINE
  5
125E8D
  8
OBJECT
 10
121.00000000004179
 20
-99.000000000171866
 30
0.0
 11
121.00000000004179
 21
-135.00000000017181
 31
0.0
1001
ACDBBLOCKREPETAG
1070
     1
1071
       43
1005
125E8D
  0
LINE
  5
125E8E
  8
OBJECT
 10
121.00000000004179
 20
-135.00000000017181
 30
0.0
 11
239.00000000004181
 21
-135.00000000017181
 31
0.0
1001
ACDBBLOCKREPETAG
1070
     1
1071
       44
1005
125E8E
  0
LINE
  5
125E8F
  8
OBJECT
 10
239.00000000004181
 20
-135.00000000017181
 30
0.0
 11
239.00000000004181
 21
-99.000000000171866
 31
0.0
1001
ACDBBLOCKREPETAG
1070
     1
1071
       45
1005
125E8F
  0
LINE
  5
125E90
  8
OBJECT
 10
125.50000000004179
 20
-139.00000000017181
 30
0.0
 11
125.50000000004179
 21
-146.00000000017181
 31
0.0
1001
ACDBBLOCKREPETAG
1070
     1
1071
       46
1005
125E90
  0
LINE
  5
125E91
  8
OBJECT
 10
234.50000000004181
 20
-146.00000000017181
 30
0.0
 11
234.50000000004181
 21
-139.00000000017181
 31
0.0
1001
ACDBBLOCKREPETAG
1070
     1
1071
       47
1005
125E91
  0
LINE
  5
125E92
  8
OBJECT
 10
234.50000000004181
 20
-139.00000000017181
 30
0.0
 11
125.50000000004179
 21
-139.00000000017181
 31
0.0
1001
ACDBBLOCKREPETAG
1070
     1
1071
       48
1005
125E92
  0
LINE
  5
125E93
  8
OBJECT
 10
121.00000000004179
 20
-135.00000000017181
 30
0.0
 11
125.50000000004179
 21
-139.00000000017181
 31
0.0
1001
ACDBBLOCKREPETAG
1070
     1
1071
       49
1005
125E93
  0
LINE
  5
125E94
  8
OBJECT
 10
239.00000000004181
 20
-135.00000000017181
 30
0.0
 11
234.50000000004181
 21
-139.00000000017181
 31
0.0
1001
ACDBBLOCKREPETAG
1070
     1
1071
       50
1005
125E94
  0
LINE
  5
125E95
  8
OBJECT
 10
118.00000000004179
 20
-149.00000000017101
 30
0.0
 11
118.00000000004179
 21
-152.00000000017181
 31
0.0
1001
ACDBBLOCKREPETAG
1070
     1
1071
       51
1005
125E95
  0
ARC
  5
125E96
  8
OBJECT
 10
121.00000000004179
 20
-149.00000000017101
 30
0.0
 40
3.0
 50
90.0
 51
180.0
1001
ACDBBLOCKREPETAG
1070
     1
1071
       52
1005
125E96
  0
LINE
  5
125E97
  8
OBJECT
 10
242.00000000004181
 20
-152.00000000017181
 30
0.0
 11
242.00000000004181
 21
-149.0000000001728
 31
0.0
1001
ACDBBLOCKREPETAG
1070
     1
1071
       53
1005
125E97
  0
ARC
  5
125E98
  8
OBJECT
 10
239.00000000004181
 20
-149.0000000001728
 30
0.0
 40
3.0
 50
0.0
 51
90.0
1001
ACDBBLOCKREPETAG
1070
     1
1071
       54
1005
125E98
  0
LINE
  5
125E99
  8
OBJECT
 10
239.00000000004181
 20
-146.0000000001728
 30
0.0
 11
121.00000000004179
 21
-146.00000000017101
 31
0.0
1001
ACDBBLOCKREPETAG
1070
     1
1071
       55
1005
125E99
  0
LINE
  5
125E9A
  8
HIDDEN
 10
135.50000000004181
 20
-144.00000000017189
 30
0.0
 11
224.50000000004181
 21
-144.00000000017189
 31
0.0
1001
ACDBBLOCKREPETAG
1070
     1
1071
      426
1005
125E9A
  0
ARC
  5
125E9B
  8
OBJECT
 10
180.00000000004181
 20
-232.00000000017189
 30
0.0
 40
50.0
 50
28.819943000140022
 51
243.78043883603971
1001
ACDBBLOCKREPETAG
1070
     1
1071
       49
1005
125E9B
  0
ARC
  5
125E9C
  8
OBJECT
 10
180.00000000004181
 20
-232.00000000017189
 30
0.0
 40
50.0
 50
296.21956116401122
 51
318.52376955951968
1001
ACDBBLOCKREPETAG
1070
     1
1071
      170
1005
125E9C
  0
CIRCLE
  5
125E9D
  8
OBJECT
 10
180.00000000004181
 20
-232.00000000017189
 30
0.0
 40
70.0
1001
ACDBBLOCKREPETAG
1070
     1
1071
       50
1005
125E9D
  0
CIRCLE
  5
125E9E
  8
OBJECT
 10
180.00000000004181
 20
-232.00000000017189
 30
0.0
 40
77.0
1001
ACDBBLOCKREPETAG
1070
     1
1071
       51
1005
125E9E
  0
ARC
  5
125E9F
  8
OBJECT
 10
180.00000000004181
 20
-232.00000000017189
 30
0.0
 40
80.0
 50
140.80503257377961
 51
39.194967426220252
1001
ACDBBLOCKREPETAG
1070
     1
1071
       52
1005
125E9F
  0
LINE
  5
125EA0
  8
OBJECT
 10
118.00000000004179
 20
-186.3381997728473
 30
0.0
 11
118.00000000004179
 21
-152.00000000017181
 31
0.0
1001
ACDBBLOCKREPETAG
1070
     1
1071
       53
1005
125EA0
  0
LINE
  5
125EA1
  8
OBJECT
 10
242.00000000004181
 20
-186.3381997728473
 30
0.0
 11
242.00000000004181
 21
-152.00000000017181
 31
0.0
1001
ACDBBLOCKREPETAG
1070
     1
1071
       54
1005
125EA1
  0
LINE
  5
125EA2
  8
OBJECT
 10
223.8069471237595
 20
-207.89706690687029
 30
0.0
 11
212.55462200004149
 21
-211.34034300017541
 31
0.0
1001
ACDBBLOCKREPETAG
1070
     1
1071
      141
1005
125EA2
  0
LINE
  5
125EA3
  8
OBJECT
 10
198.22553374212291
 20
-245.207250098797
 30
0.0
 11
212.5546220000397
 21
-211.34034300017541
 31
0.0
1001
ACDBBLOCKREPETAG
1070
     1
1071
      143
1005
125EA3
  0
ARC
  5
125EA4
  8
OBJECT
 10
207.43512999909939
 20
-249.10383023827021
 30
0.0
 40
10.0
 50
157.066778292897
 51
244.01473437020459
1001
ACDBBLOCKREPETAG
1070
     1
1071
      144
1005
125EA4
  0
ARC
  5
125EA5
  8
OBJECT
 10
205.55386256733439
 20
-245.85116096204459
 30
0.0
 40
7.0
 50
157.066778292897
 51
244.0147337750746
1001
ACDBBLOCKREPETAG
1070
     1
1071
      145
1005
125EA5
  0
LINE
  5
125EA6
  8
OBJECT
 10
223.89888500822451
 20
-262.58002444487028
 30
0.0
 11
202.4868825336107
 21
-252.143508176935
 31
0.0
1001
ACDBBLOCKREPETAG
1070
     1
1071
      154
1005
125EA6
  0
LINE
  5
125EA7
  8
OBJECT
 10
220.71813901887009
 20
-266.70278309956279
 30
0.0
 11
203.0537300443502
 21
-258.09289773366339
 31
0.0
1001
ACDBBLOCKREPETAG
1070
     1
1071
      155
1005
125EA7
  0
ARC
  5
125EA8
  8
OBJECT
 10
187.12893698288639
 20
-255.42030469285689
 30
0.0
 40
60.031113246032611
 50
44.070201304186917
 51
52.339361060978852
1001
ACDBBLOCKREPETAG
1070
     1
1071
      156
1005
125EA8
  0
CIRCLE
  5
125EA9
  8
OBJECT
 10
180.00000000004181
 20
-232.00000000017189
 30
0.0
 40
53.5
1001
ACDBBLOCKREPETAG
1070
     1
1071
      157
1005
125EA9
  0
POINT
  5
125EAA
  8
DOTS
 10
180.00000000004181
 20
-232.00000000017189
 30
0.0
1001
ACDBBLOCKREPETAG
1070
     1
1071
      162
1005
125EAA
  0
LINE
  5
125EAB
  8
OBJECT
 10
156.17579607529291
 20
-277.67796144492331
 30
0.0
 11
154.40926451255919
 21
-278.98259525851881
 31
0.0
1001
ACDBBLOCKREPETAG
1070
     1
1071
      165
1005
125EAB
  0
ARC
  5
125EAC
  8
OBJECT
 10
159.1461853586772
 20
-281.69999917537172
 30
0.0
 40
5.0
 50
90.0
 51
126.4469224761369
1001
ACDBBLOCKREPETAG
1070
     1
1071
      166
1005
125EAC
  0
LINE
  5
125EAD
  8
OBJECT
 10
203.8242039247377
 20
-277.67796144479598
 30
0.0
 11
205.59073548768339
 21
-278.98259525843332
 31
0.0
1001
ACDBBLOCKREPETAG
1070
     1
1071
      167
1005
125EAD
  0
ARC
  5
125EAE
  8
OBJECT
 10
200.85381464152559
 20
-281.69999917537172
 30
0.0
 40
5.0
 50
53.553077526317523
 51
90.0
1001
ACDBBLOCKREPETAG
1070
     1
1071
      168
1005
125EAE
  0
LINE
  5
125EAF
  8
OBJECT
 10
200.85381464152559
 20
-276.69999917537172
 30
0.0
 11
159.1461853586772
 21
-276.69999917537172
 31
0.0
1001
ACDBBLOCKREPETAG
1070
     1
1071
      169
1005
125EAF
  0
TEXT
  5
125EB0
  8
SLIM
 10
149.1428571427966
 20
-443.99999999984971
 30
0.0
 40
48.0
  1
A3
 41
0.75
1001
ACDBBLOCKREPETAG
1070
     1
1071
      119
1005
0
  0
TEXT
  5
125EB1
  8
SLIM
 10
0.0000035665234464
 20
24.000004585317608
 30
0.0
 40
79.999999999972701
  1
上部枝管
 41
0.75
1001
ACDBBLOCKREPETAG
1070
     1
1071
      119
1005
1255DD
  0
LINE
  5
125EB2
  8
DIM
 10
8405.5000000000018
 20
-1016.00000000001
 30
0.0
 11
8292.1493933614383
 21
-1016.00000000001
 31
0.0
  0
LINE
  5
125EB3
  8
DIM
 10
8423.0422321049627
 20
-1266.0
 30
0.0
 11
8292.1493933614383
 21
-1266.0
 31
0.0
  0
LINE
  5
125EB4
  8
DIM
 10
8302.1493933614402
 20
-1036.00000000001
 30
0.0
 11
8302.1493933614402
 21
-1245.9999999999991
 31
0.0
  0
INSERT
  5
125EB5
  8
DIM
  2
_OPEN30
 10
8302.1493933614402
 20
-1016.00000000001
 30
0.0
 41
20.0
 42
20.0
 43
20.0
 50
90.0
  0
INSERT
  5
125EB6
  8
DIM
  2
_OPEN30
 10
8302.1493933614402
 20
-1266.0
 30
0.0
 41
20.0
 42
20.0
 43
20.0
 50
270.0
  0
INSERT
  5
125EB7
  8
OBJECT
  2
*U14
 10
0.0
 20
0.0
 30
0.0
  0
LINE
  5
125EB8
  8
OBJECT
 10
2425.0
 20
-770.0
 30
0.0
 11
2425.0
 21
-907.50000000006526
 31
0.0
1001
ACDBBLOCKREPETAG
1070
     1
1071
        1
1005
125EB8
  0
LINE
  5
125EB9
  8
OBJECT
 10
2575.0
 20
-769.9999999999942
 30
0.0
 11
2575.0
 21
-1043.0
 31
0.0
1001
ACDBBLOCKREPETAG
1070
     1
1071
        3
1005
125EB9
  0
LINE
  5
125EBA
  8
CENTER
 10
2500.0
 20
-770.0
 30
0.0
 11
2500.0
 21
-1055.0
 31
0.0
1001
ACDBBLOCKREPETAG
1070
     1
1071
        6
1005
125EBA
  0
LINE
  5
125EBB
  8
OBJECT
 10
2420.0
 20
-1055.0
 30
0.0
 11
2580.0
 21
-1055.0
 31
0.0
1001
ACDBBLOCKREPETAG
1070
     1
1071
        7
1005
125EBB
  0
LINE
  5
125EBC
  8
OBJECT
 10
2420.0
 20
-1043.0
 30
0.0
 11
2580.0
 21
-1043.0
 31
0.0
1001
ACDBBLOCKREPETAG
1070
     1
1071
        8
1005
125EBC
  0
LINE
  5
125EBD
  8
OBJECT
 10
2420.0
 20
-1043.0
 30
0.0
 11
2420.0
 21
-1055.0
 31
0.0
1001
ACDBBLOCKREPETAG
1070
     1
1071
        9
1005
125EBD
  0
LINE
  5
125EBE
  8
OBJECT
 10
2580.0
 20
-1043.0
 30
0.0
 11
2580.0
 21
-1055.0
 31
0.0
1001
ACDBBLOCKREPETAG
1070
     1
1071
       10
1005
125EBE
  0
LINE
  5
125EBF
  8
OBJECT
 10
2367.0
 20
-909.0
 30
0.0
 11
2360.0
 21
-909.0
 31
0.0
1001
ACDBBLOCKREPETAG
1070
     1
1071
       23
1005
125EBF
  0
LINE
  5
125EC0
  8
OBJECT
 10
2360.0
 20
-909.0
 30
0.0
 11
2360.0
 21
-1016.0
 31
0.0
1001
ACDBBLOCKREPETAG
1070
     1
1071
       24
1005
125EC0
  0
LINE
  5
125EC1
  8
OBJECT
 10
2415.5
 20
-910.50000000006548
 30
0.0
 11
2415.5
 21
-1013.5
 31
0.0
1001
ACDBBLOCKREPETAG
1070
     1
1071
       25
1005
125EC1
  0
ARC
  5
125EC2
  8
OBJECT
 10
2418.5
 20
-910.50000000006548
 30
0.0
 40
3.0
 50
90.0
 51
180.0
1001
ACDBBLOCKREPETAG
1070
     1
1071
       26
1005
125EC2
  0
LINE
  5
125EC3
  8
OBJECT
 10
2367.0
 20
-1016.0
 30
0.0
 11
2367.0
 21
-909.0
 31
0.0
1001
ACDBBLOCKREPETAG
1070
     1
1071
       27
1005
125EC3
  0
LINE
  5
125EC4
  8
CENTER
 10
2345.0
 20
-964.0
 30
0.0
 11
2458.655080086995
 21
-964.00000000006526
 31
0.0
1001
ACDBBLOCKREPETAG
1070
     1
1071
       28
1005
125EC4
  0
LINE
  5
125EC5
  8
OBJECT
 10
2367.0
 20
-912.0
 30
0.0
 11
2403.0
 21
-912.0
 31
0.0
1001
ACDBBLOCKREPETAG
1070
     1
1071
       29
1005
125EC5
  0
LINE
  5
125EC6
  8
OBJECT
 10
2403.0
 20
-912.0
 30
0.0
 11
2403.0
 21
-1016.0
 31
0.0
1001
ACDBBLOCKREPETAG
1070
     1
1071
       30
1005
125EC6
  0
LINE
  5
125EC7
  8
OBJECT
 10
2403.0
 20
-1016.0
 30
0.0
 11
2360.0
 21
-1016.0
 31
0.0
1001
ACDBBLOCKREPETAG
1070
     1
1071
       31
1005
125EC7
  0
LINE
  5
125EC8
  8
OBJECT
 10
2407.0
 20
-916.5
 30
0.0
 11
2415.5
 21
-916.5
 31
0.0
1001
ACDBBLOCKREPETAG
1070
     1
1071
       32
1005
125EC8
  0
LINE
  5
125EC9
  8
OBJECT
 10
2415.5
 20
-1011.5
 30
0.0
 11
2407.0
 21
-1011.5
 31
0.0
1001
ACDBBLOCKREPETAG
1070
     1
1071
       33
1005
125EC9
  0
LINE
  5
125ECA
  8
OBJECT
 10
2407.0
 20
-1011.5
 30
0.0
 11
2407.0
 21
-916.5
 31
0.0
1001
ACDBBLOCKREPETAG
1070
     1
1071
       34
1005
125ECA
  0
LINE
  5
125ECB
  8
OBJECT
 10
2403.0
 20
-912.0
 30
0.0
 11
2407.0
 21
-916.5
 31
0.0
1001
ACDBBLOCKREPETAG
1070
     1
1071
       35
1005
125ECB
  0
LINE
  5
125ECC
  8
OBJECT
 10
2403.0
 20
-1016.0
 30
0.0
 11
2407.0
 21
-1011.5
 31
0.0
1001
ACDBBLOCKREPETAG
1070
     1
1071
       36
1005
125ECC
  0
LINE
  5
125ECD
  8
HIDDEN
 10
2412.0
 20
-926.0
 30
0.0
 11
2412.0
 21
-1002.0
 31
0.0
1001
ACDBBLOCKREPETAG
1070
     1
1071
       37
1005
125ECD
  0
ARC
  5
125ECE
  8
OBJECT
 10
2335.1217271212249
 20
-972.40950726122855
 30
0.0
 40
110.86635228309
 50
16.959646195661989
 51
35.836572580695218
1001
ACDBBLOCKREPETAG
1070
     1
1071
       38
1005
125ECE
  0
ARC
  5
125ECF
  8
OBJECT
 10
2382.8640112230928
 20
-957.28774971844894
 30
0.0
 40
60.791749880358971
 50
0.2712030171732199
 51
16.452795347779499
1001
ACDBBLOCKREPETAG
1070
     1
1071
       39
1005
125ECF
  0
ARC
  5
125ED0
  8
OBJECT
 10
2382.8640043437531
 20
-963.71224975990117
 30
0.0
 40
60.79175676209487
 50
343.54722053947239
 51
359.72879652185469
1001
ACDBBLOCKREPETAG
1070
     1
1071
       40
1005
125ED0
  0
ARC
  5
125ED1
  8
OBJECT
 10
2335.1217271212249
 20
-948.59049273883636
 30
0.0
 40
110.8663522830916
 50
324.16342741930481
 51
343.040353804338
1001
ACDBBLOCKREPETAG
1070
     1
1071
       41
1005
125ED1
  0
LINE
  5
125ED2
  8
OBJECT
 10
2443.6550800869959
 20
-957.00000000003638
 30
0.0
 11
2443.6550800869959
 21
-964.00000000003286
 31
0.0
1001
ACDBBLOCKREPETAG
1070
     1
1071
       42
1005
125ED2
  0
LINE
  5
125ED3
  8
OBJECT
 10
2425.0
 20
-907.50000000006526
 30
0.0
 11
2418.5
 21
-907.50000000006526
 31
0.0
1001
ACDBBLOCKREPETAG
1070
     1
1071
       43
1005
125ED3
  0
LINE
  5
125ED4
  8
OBJECT
 10
2425.0
 20
-1013.5
 30
0.0
 11
2415.5
 21
-1013.5
 31
0.0
1001
ACDBBLOCKREPETAG
1070
     1
1071
       44
1005
125ED4
  0
LINE
  5
125ED5
  8
OBJECT
 10
2425.0
 20
-1013.5
 30
0.0
 11
2425.0
 21
-1043.0
 31
0.0
1001
ACDBBLOCKREPETAG
1070
     1
1071
        1
1005
125EB8
  0
POINT
  5
125ED6
  8
DOTS
 10
2500.0
 20
-1016.0
 30
0.0
  0
LINE
  5
125ED7
  8
OBJECT
 10
8633.0
 20
-137.99999999999909
 30
0.0
 11
8640.0
 21
-137.99999999999909
 31
0.0
1001
ACDBBLOCKREPETAG
1070
     1
1071
       47
1005
125ED7
  0
LINE
  5
125ED8
  8
OBJECT
 10
8640.0
 20
-137.99999999999909
 30
0.0
 11
8640.0
 21
-261.99999999999909
 31
0.0
1001
ACDBBLOCKREPETAG
1070
     1
1071
       48
1005
125ED8
  0
LINE
  5
125ED9
  8
OBJECT
 10
8640.0
 20
-261.99999999999909
 30
0.0
 11
8633.0
 21
-261.99999999999909
 31
0.0
1001
ACDBBLOCKREPETAG
1070
     1
1071
       49
1005
125ED9
  0
LINE
  5
125EDA
  8
OBJECT
 10
8633.0
 20
-261.99999999999909
 30
0.0
 11
8633.0
 21
-137.99999999999909
 31
0.0
1001
ACDBBLOCKREPETAG
1070
     1
1071
       50
1005
125EDA
  0
LINE
  5
125EDB
  8
CENTER
 10
8655.0
 20
-199.99999999999909
 30
0.0
 11
8580.0
 21
-199.99999999999909
 31
0.0
1001
ACDBBLOCKREPETAG
1070
     1
1071
       51
1005
125EDB
  0
LINE
  5
125EDC
  8
OBJECT
 10
8633.0
 20
-140.99999999999909
 30
0.0
 11
8597.0
 21
-140.99999999999909
 31
0.0
1001
ACDBBLOCKREPETAG
1070
     1
1071
       52
1005
125EDC
  0
LINE
  5
125EDD
  8
OBJECT
 10
8597.0
 20
-140.99999999999909
 30
0.0
 11
8597.0
 21
-258.99999999999909
 31
0.0
1001
ACDBBLOCKREPETAG
1070
     1
1071
       53
1005
125EDD
  0
LINE
  5
125EDE
  8
OBJECT
 10
8597.0
 20
-258.99999999999909
 30
0.0
 11
8633.0
 21
-258.99999999999909
 31
0.0
1001
ACDBBLOCKREPETAG
1070
     1
1071
       54
1005
125EDE
  0
LINE
  5
125EDF
  8
OBJECT
 10
8593.0
 20
-145.49999999999909
 30
0.0
 11
8586.0
 21
-145.49999999999909
 31
0.0
1001
ACDBBLOCKREPETAG
1070
     1
1071
       55
1005
125EDF
  0
LINE
  5
125EE0
  8
OBJECT
 10
8586.0
 20
-254.49999999999909
 30
0.0
 11
8593.0
 21
-254.49999999999909
 31
0.0
1001
ACDBBLOCKREPETAG
1070
     1
1071
       56
1005
125EE0
  0
LINE
  5
125EE1
  8
OBJECT
 10
8593.0
 20
-254.49999999999909
 30
0.0
 11
8593.0
 21
-145.49999999999909
 31
0.0
1001
ACDBBLOCKREPETAG
1070
     1
1071
       57
1005
125EE1
  0
LINE
  5
125EE2
  8
OBJECT
 10
8597.0
 20
-140.99999999999909
 30
0.0
 11
8593.0
 21
-145.49999999999909
 31
0.0
1001
ACDBBLOCKREPETAG
1070
     1
1071
       58
1005
125EE2
  0
LINE
  5
125EE3
  8
OBJECT
 10
8597.0
 20
-258.99999999999909
 30
0.0
 11
8593.0
 21
-254.49999999999909
 31
0.0
1001
ACDBBLOCKREPETAG
1070
     1
1071
       59
1005
125EE3
  0
LINE
  5
125EE4
  8
OBJECT
 10
8583.0
 20
-137.99999999999909
 30
0.0
 11
8580.0
 21
-137.99999999999909
 31
0.0
1001
ACDBBLOCKREPETAG
1070
     1
1071
       60
1005
125EE4
  0
ARC
  5
125EE5
  8
OBJECT
 10
8583.0
 20
-140.99999999999909
 30
0.0
 40
3.0
 50
0.0
 51
90.0
1001
ACDBBLOCKREPETAG
1070
     1
1071
       61
1005
125EE5
  0
LINE
  5
125EE6
  8
OBJECT
 10
8580.0
 20
-261.99999999999909
 30
0.0
 11
8583.0
 21
-261.99999999999909
 31
0.0
1001
ACDBBLOCKREPETAG
1070
     1
1071
       62
1005
125EE6
  0
ARC
  5
125EE7
  8
OBJECT
 10
8583.0
 20
-258.99999999999909
 30
0.0
 40
3.0
 50
270.0
 51
0.0
1001
ACDBBLOCKREPETAG
1070
     1
1071
       63
1005
125EE7
  0
LINE
  5
125EE8
  8
OBJECT
 10
8586.0
 20
-258.99999999999909
 30
0.0
 11
8586.0
 21
-140.99999999999909
 31
0.0
1001
ACDBBLOCKREPETAG
1070
     1
1071
       64
1005
125EE8
  0
LINE
  5
125EE9
  8
HIDDEN
 10
8588.0
 20
-155.49999999999909
 30
0.0
 11
8588.0
 21
-244.49999999999909
 31
0.0
1001
ACDBBLOCKREPETAG
1070
     1
1071
       65
1005
125EE9
  0
LINE
  5
125EEA
  8
DIM
 10
2665.0
 20
-696.0
 30
0.0
 11
2719.4245816727562
 21
-696.0
 31
0.0
  0
LINE
  5
125EEB
  8
DIM
 10
2413.0
 20
-1016.0
 30
0.0
 11
2719.4245816727562
 21
-1016.0
 31
0.0
  0
LINE
  5
125EEC
  8
DIM
 10
2709.4245816727562
 20
-716.0
 30
0.0
 11
2709.4245816727562
 21
-996.0
 31
0.0
  0
INSERT
  5
125EED
  8
DIM
  2
_OPEN30
 10
2709.4245816727562
 20
-696.0
 30
0.0
 41
20.0
 42
20.0
 43
20.0
 50
90.0
  0
INSERT
  5
125EEE
  8
DIM
  2
_OPEN30
 10
2709.4245816727562
 20
-1016.0
 30
0.0
 41
20.0
 42
20.0
 43
20.0
 50
270.0
  0
INSERT
  5
125EEF
  8
OBJECT
  2
*U15
 10
0.0
 20
0.0
 30
0.0
  0
LINE
  5
125EF0
  8
CENTER
 10
4977.0
 20
-3805.9999999999968
 30
0.0
 11
4823.0
 21
-3805.9999999999968
 31
0.0
1001
ACDBBLOCKREPETAG
1070
     1
1071
       17
1005
125EF0
  0
CIRCLE
  5
125EF1
  8
OBJECT
 10
4900.0
 20
-3805.9999999999968
 30
0.0
 40
41.5
1001
ACDBBLOCKREPETAG
1070
     1
1071
       18
1005
125EF1
  0
CIRCLE
  5
125EF2
  8
OBJECT
 10
4900.0
 20
-3805.9999999999968
 30
0.0
 40
54.0
1001
ACDBBLOCKREPETAG
1070
     1
1071
       19
1005
125EF2
  0
ARC
  5
125EF3
  8
OBJECT
 10
4900.0
 20
-3805.9999999999968
 30
0.0
 40
62.0
 50
287.89655112921122
 51
252.1034488707887
1001
ACDBBLOCKREPETAG
1070
     1
1071
       20
1005
125EF3
  0
LINE
  5
125EF4
  8
OBJECT
 10
4880.947441116743
 20
-3864.9999999999968
 30
0.0
 11
4919.052558883257
 21
-3864.9999999999968
 31
0.0
1001
ACDBBLOCKREPETAG
1070
     1
1071
       21
1005
125EF4
  0
POINT
  5
125EF5
  8
DOTS
 10
4900.0
 20
-3864.9999999999968
 30
0.0
1001
ACDBBLOCKREPETAG
1070
     1
1071
       23
1005
125EF5
  0
LINE
  5
125EF6
  8
OBJECT
 10
4633.0
 20
-3743.9999999999959
 30
0.0
 11
4640.0
 21
-3743.9999999999959
 31
0.0
1001
ACDBBLOCKREPETAG
1070
     1
1071
       46
1005
125EF6
  0
LINE
  5
125EF7
  8
OBJECT
 10
4640.0
 20
-3743.9999999999959
 30
0.0
 11
4640.0
 21
-3864.9999999999968
 31
0.0
1001
ACDBBLOCKREPETAG
1070
     1
1071
       47
1005
125EF7
  0
LINE
  5
125EF8
  8
OBJECT
 10
4633.0
 20
-3864.9999999999968
 30
0.0
 11
4633.0
 21
-3743.9999999999959
 31
0.0
1001
ACDBBLOCKREPETAG
1070
     1
1071
       48
1005
125EF8
  0
LINE
  5
125EF9
  8
CENTER
 10
4655.0
 20
-3805.9999999999968
 30
0.0
 11
4541.3449199130037
 21
-3806.0000000000618
 31
0.0
1001
ACDBBLOCKREPETAG
1070
     1
1071
       49
1005
125EF9
  0
LINE
  5
125EFA
  8
OBJECT
 10
4633.0
 20
-3746.9999999999959
 30
0.0
 11
4597.0
 21
-3746.9999999999959
 31
0.0
1001
ACDBBLOCKREPETAG
1070
     1
1071
       50
1005
125EFA
  0
LINE
  5
125EFB
  8
OBJECT
 10
4597.0
 20
-3746.9999999999959
 30
0.0
 11
4597.0
 21
-3864.9999999999968
 31
0.0
1001
ACDBBLOCKREPETAG
1070
     1
1071
       51
1005
125EFB
  0
LINE
  5
125EFC
  8
OBJECT
 10
4597.0
 20
-3864.9999999999968
 30
0.0
 11
4640.0
 21
-3864.9999999999968
 31
0.0
1001
ACDBBLOCKREPETAG
1070
     1
1071
       52
1005
125EFC
  0
LINE
  5
125EFD
  8
OBJECT
 10
4593.0
 20
-3751.4999999999959
 30
0.0
 11
4582.5
 21
-3751.4999999999959
 31
0.0
1001
ACDBBLOCKREPETAG
1070
     1
1071
       53
1005
125EFD
  0
LINE
  5
125EFE
  8
OBJECT
 10
4582.5
 20
-3860.4999999999959
 30
0.0
 11
4593.0
 21
-3860.4999999999959
 31
0.0
1001
ACDBBLOCKREPETAG
1070
     1
1071
       54
1005
125EFE
  0
LINE
  5
125EFF
  8
OBJECT
 10
4593.0
 20
-3860.4999999999959
 30
0.0
 11
4593.0
 21
-3751.4999999999959
 31
0.0
1001
ACDBBLOCKREPETAG
1070
     1
1071
       55
1005
125EFF
  0
LINE
  5
125F00
  8
OBJECT
 10
4597.0
 20
-3746.9999999999959
 30
0.0
 11
4593.0
 21
-3751.4999999999959
 31
0.0
1001
ACDBBLOCKREPETAG
1070
     1
1071
       56
1005
125F00
  0
LINE
  5
125F01
  8
OBJECT
 10
4597.0
 20
-3864.9999999999968
 30
0.0
 11
4593.0
 21
-3860.4999999999959
 31
0.0
1001
ACDBBLOCKREPETAG
1070
     1
1071
       57
1005
125F01
  0
LINE
  5
125F02
  8
HIDDEN
 10
4588.0
 20
-3761.4999999999968
 30
0.0
 11
4588.0
 21
-3850.4999999999968
 31
0.0
1001
ACDBBLOCKREPETAG
1070
     1
1071
       58
1005
125F02
  0
ARC
  5
125F03
  8
OBJECT
 10
4664.8782728787719
 20
-3821.4095072612249
 30
0.0
 40
110.86635228309
 50
144.16342741928889
 51
163.04035380433939
1001
ACDBBLOCKREPETAG
1070
     1
1071
       59
1005
125F03
  0
ARC
  5
125F04
  8
OBJECT
 10
4617.1359887769049
 20
-3806.287749718445
 30
0.0
 40
60.791749880358971
 50
163.54720465221931
 51
179.72879698282651
1001
ACDBBLOCKREPETAG
1070
     1
1071
       60
1005
125F04
  0
ARC
  5
125F05
  8
OBJECT
 10
4617.1359956562483
 20
-3812.7122497598971
 30
0.0
 40
60.79175676209487
 50
180.2712034781452
 51
196.4527794605265
1001
ACDBBLOCKREPETAG
1070
     1
1071
       61
1005
125F05
  0
ARC
  5
125F06
  8
OBJECT
 10
4664.8782728787719
 20
-3797.5904927388328
 30
0.0
 40
110.8663522830916
 50
196.9596461956605
 51
215.83657258071111
1001
ACDBBLOCKREPETAG
1070
     1
1071
       62
1005
125F06
  0
LINE
  5
125F07
  8
OBJECT
 10
4556.3449199130037
 20
-3806.0000000000332
 30
0.0
 11
4556.3449199130037
 21
-3813.0000000000291
 31
0.0
1001
ACDBBLOCKREPETAG
1070
     1
1071
       63
1005
125F07
  0
LINE
  5
125F08
  8
OBJECT
 10
4574.9999999998336
 20
-3756.500000000291
 30
0.0
 11
4577.4999999998363
 21
-3756.500000000291
 31
0.0
1001
ACDBBLOCKREPETAG
1070
     1
1071
       65
1005
125F08
  0
LINE
  5
125F09
  8
OBJECT
 10
4574.9999999998327
 20
-3862.4999999997672
 30
0.0
 11
4579.4999999998308
 21
-3862.4999999997672
 31
0.0
1001
ACDBBLOCKREPETAG
1070
     1
1071
       66
1005
125F09
  0
LINE
  5
125F0A
  8
OBJECT
 10
4579.4999999998308
 20
-3862.4999999997672
 30
0.0
 11
4577.4999999998363
 21
-3756.500000000291
 31
0.0
1001
ACDBBLOCKREPETAG
1070
     1
1071
       67
1005
125F0A
  0
LINE
  5
125F0B
  8
OBJECT
 10
4579.4999999998308
 20
-3862.4999999997672
 30
0.0
 11
4582.5
 21
-3860.4999999999959
 31
0.0
1001
ACDBBLOCKREPETAG
1070
     1
1071
       68
1005
125F0B
  0
LINE
  5
125F0C
  8
OBJECT
 10
4582.5
 20
-3860.4999999999959
 30
0.0
 11
4582.5
 21
-3751.4999999999959
 31
0.0
1001
ACDBBLOCKREPETAG
1070
     1
1071
       69
1005
125F0C
  0
LINE
  5
125F0D
  8
OBJECT
 10
4582.5
 20
-3751.4999999999959
 30
0.0
 11
4577.4999999998363
 21
-3756.500000000291
 31
0.0
1001
ACDBBLOCKREPETAG
1070
     1
1071
       70
1005
125F0D
  0
LINE
  5
125F0E
  8
OBJECT
 10
4633.0000000000009
 20
-3397.9999999999959
 30
0.0
 11
4640.0000000000018
 21
-3397.9999999999959
 31
0.0
1001
ACDBBLOCKREPETAG
1070
     1
1071
       38
1005
125F0E
  0
LINE
  5
125F0F
  8
OBJECT
 10
4640.0000000000018
 20
-3397.9999999999959
 30
0.0
 11
4640.0
 21
-3521.9999999999968
 31
0.0
1001
ACDBBLOCKREPETAG
1070
     1
1071
       39
1005
125F0F
  0
LINE
  5
125F10
  8
OBJECT
 10
4640.0
 20
-3521.9999999999968
 30
0.0
 11
4633.0
 21
-3521.9999999999968
 31
0.0
1001
ACDBBLOCKREPETAG
1070
     1
1071
       40
1005
125F10
  0
LINE
  5
125F11
  8
OBJECT
 10
4633.0
 20
-3521.9999999999968
 30
0.0
 11
4633.0000000000009
 21
-3397.9999999999959
 31
0.0
1001
ACDBBLOCKREPETAG
1070
     1
1071
       41
1005
125F11
  0
LINE
  5
125F12
  8
CENTER
 10
4655.0
 20
-3459.9999999999968
 30
0.0
 11
4580.0
 21
-3459.9999999999968
 31
0.0
1001
ACDBBLOCKREPETAG
1070
     1
1071
       42
1005
125F12
  0
LINE
  5
125F13
  8
OBJECT
 10
4633.0000000000009
 20
-3400.9999999999959
 30
0.0
 11
4597.0000000000018
 21
-3400.9999999999959
 31
0.0
1001
ACDBBLOCKREPETAG
1070
     1
1071
       43
1005
125F13
  0
LINE
  5
125F14
  8
OBJECT
 10
4597.0000000000018
 20
-3400.9999999999959
 30
0.0
 11
4597.0
 21
-3518.9999999999968
 31
0.0
1001
ACDBBLOCKREPETAG
1070
     1
1071
       44
1005
125F14
  0
LINE
  5
125F15
  8
OBJECT
 10
4597.0
 20
-3518.9999999999968
 30
0.0
 11
4633.0
 21
-3518.9999999999968
 31
0.0
1001
ACDBBLOCKREPETAG
1070
     1
1071
       45
1005
125F15
  0
LINE
  5
125F16
  8
OBJECT
 10
4593.0000000000018
 20
-3405.4999999999959
 30
0.0
 11
4582.5000000000018
 21
-3405.4999999999959
 31
0.0
1001
ACDBBLOCKREPETAG
1070
     1
1071
       46
1005
125F16
  0
LINE
  5
125F17
  8
OBJECT
 10
4582.5
 20
-3514.4999999999968
 30
0.0
 11
4593.0
 21
-3514.4999999999968
 31
0.0
1001
ACDBBLOCKREPETAG
1070
     1
1071
       47
1005
125F17
  0
LINE
  5
125F18
  8
OBJECT
 10
4593.0
 20
-3514.4999999999968
 30
0.0
 11
4593.0000000000018
 21
-3405.4999999999959
 31
0.0
1001
ACDBBLOCKREPETAG
1070
     1
1071
       48
1005
125F18
  0
LINE
  5
125F19
  8
OBJECT
 10
4597.0000000000018
 20
-3400.9999999999959
 30
0.0
 11
4593.0000000000018
 21
-3405.4999999999959
 31
0.0
1001
ACDBBLOCKREPETAG
1070
     1
1071
       49
1005
125F19
  0
LINE
  5
125F1A
  8
OBJECT
 10
4597.0
 20
-3518.9999999999968
 30
0.0
 11
4593.0
 21
-3514.4999999999968
 31
0.0
1001
ACDBBLOCKREPETAG
1070
     1
1071
       50
1005
125F1A
  0
LINE
  5
125F1B
  8
HIDDEN
 10
4588.0
 20
-3415.4999999999968
 30
0.0
 11
4588.0
 21
-3504.4999999999968
 31
0.0
1001
ACDBBLOCKREPETAG
1070
     1
1071
       51
1005
125F1B
  0
LINE
  5
125F1C
  8
OBJECT
 10
4577.5000000000018
 20
-3410.4999999999959
 30
0.0
 11
4556.3449199129791
 21
-3410.4999999999959
 31
0.0
1001
ACDBBLOCKREPETAG
1070
     1
1071
       52
1005
125F1C
  0
LINE
  5
125F1D
  8
OBJECT
 10
4577.4999999999991
 20
-3509.4999999999959
 30
0.0
 11
4556.3449199129791
 21
-3509.4999999999959
 31
0.0
1001
ACDBBLOCKREPETAG
1070
     1
1071
       53
1005
125F1D
  0
LINE
  5
125F1E
  8
OBJECT
 10
4582.5000000000018
 20
-3405.4999999999959
 30
0.0
 11
4582.5
 21
-3514.4999999999968
 31
0.0
1001
ACDBBLOCKREPETAG
1070
     1
1071
       54
1005
125F1E
  0
LINE
  5
125F1F
  8
OBJECT
 10
4577.5000000000018
 20
-3410.4999999999959
 30
0.0
 11
4577.4999999999991
 21
-3509.4999999999959
 31
0.0
1001
ACDBBLOCKREPETAG
1070
     1
1071
       55
1005
125F1F
  0
LINE
  5
125F20
  8
OBJECT
 10
4582.5000000000018
 20
-3405.4999999999959
 30
0.0
 11
4577.5000000000018
 21
-3410.4999999999959
 31
0.0
1001
ACDBBLOCKREPETAG
1070
     1
1071
       56
1005
125F20
  0
LINE
  5
125F21
  8
OBJECT
 10
4577.4999999999991
 20
-3509.4999999999959
 30
0.0
 11
4582.5
 21
-3514.4999999999932
 31
0.0
1001
ACDBBLOCKREPETAG
1070
     1
1071
       57
1005
125F21
  0
CIRCLE
  5
125F22
  8
OBJECT
 10
3900.0
 20
-3812.9999999999968
 30
0.0
 40
35.5
1001
ACDBBLOCKREPETAG
1070
     1
1071
       11
1005
125F22
  0
LINE
  5
125F23
  8
CENTER
 10
3830.0
 20
-3812.9999999999968
 30
0.0
 11
3970.0
 21
-3812.9999999999968
 31
0.0
1001
ACDBBLOCKREPETAG
1070
     1
1071
       12
1005
125F23
  0
CIRCLE
  5
125F24
  8
OBJECT
 10
3900.0
 20
-3812.9999999999968
 30
0.0
 40
47.0
1001
ACDBBLOCKREPETAG
1070
     1
1071
       14
1005
125F24
  0
ARC
  5
125F25
  8
OBJECT
 10
3900.0
 20
-3812.9999999999968
 30
0.0
 40
55.0
 50
289.01126526008892
 51
250.98873473991111
1001
ACDBBLOCKREPETAG
1070
     1
1071
       15
1005
125F25
  0
LINE
  5
125F26
  8
OBJECT
 10
3882.0835271328319
 20
-3864.9999999999968
 30
0.0
 11
3917.9164728671672
 21
-3864.9999999999968
 31
0.0
1001
ACDBBLOCKREPETAG
1070
     1
1071
       16
1005
125F26
  0
POINT
  5
125F27
  8
DOTS
 10
3900.0
 20
-3864.9999999999968
 30
0.0
1001
ACDBBLOCKREPETAG
1070
     1
1071
       24
1005
125F27
  0
LINE
  5
125F28
  8
OBJECT
 10
3633.0
 20
-3757.9999999999959
 30
0.0
 11
3640.0
 21
-3757.9999999999959
 31
0.0
1001
ACDBBLOCKREPETAG
1070
     1
1071
       23
1005
125F28
  0
LINE
  5
125F29
  8
OBJECT
 10
3640.0
 20
-3757.9999999999959
 30
0.0
 11
3640.0
 21
-3864.9999999999968
 31
0.0
1001
ACDBBLOCKREPETAG
1070
     1
1071
       24
1005
125F29
  0
LINE
  5
125F2A
  8
OBJECT
 10
3584.5
 20
-3759.5000000000618
 30
0.0
 11
3584.5
 21
-3862.4999999999968
 31
0.0
1001
ACDBBLOCKREPETAG
1070
     1
1071
       25
1005
125F2A
  0
ARC
  5
125F2B
  8
OBJECT
 10
3581.5
 20
-3759.5000000000618
 30
0.0
 40
3.0
 50
0.0
 51
90.0
1001
ACDBBLOCKREPETAG
1070
     1
1071
       26
1005
125F2B
  0
LINE
  5
125F2C
  8
OBJECT
 10
3633.0
 20
-3864.9999999999968
 30
0.0
 11
3633.0
 21
-3757.9999999999959
 31
0.0
1001
ACDBBLOCKREPETAG
1070
     1
1071
       27
1005
125F2C
  0
LINE
  5
125F2D
  8
CENTER
 10
3655.0
 20
-3812.9999999999968
 30
0.0
 11
3541.3449199130041
 21
-3813.0000000000618
 31
0.0
1001
ACDBBLOCKREPETAG
1070
     1
1071
       28
1005
125F2D
  0
LINE
  5
125F2E
  8
OBJECT
 10
3633.0
 20
-3760.9999999999968
 30
0.0
 11
3597.0
 21
-3760.9999999999968
 31
0.0
1001
ACDBBLOCKREPETAG
1070
     1
1071
       29
1005
125F2E
  0
LINE
  5
125F2F
  8
OBJECT
 10
3597.0
 20
-3760.9999999999968
 30
0.0
 11
3597.0
 21
-3864.9999999999968
 31
0.0
1001
ACDBBLOCKREPETAG
1070
     1
1071
       30
1005
125F2F
  0
LINE
  5
125F30
  8
OBJECT
 10
3597.0
 20
-3864.9999999999968
 30
0.0
 11
3640.0
 21
-3864.9999999999968
 31
0.0
1001
ACDBBLOCKREPETAG
1070
     1
1071
       31
1005
125F30
  0
LINE
  5
125F31
  8
OBJECT
 10
3593.0
 20
-3765.4999999999968
 30
0.0
 11
3584.5
 21
-3765.4999999999968
 31
0.0
1001
ACDBBLOCKREPETAG
1070
     1
1071
       32
1005
125F31
  0
LINE
  5
125F32
  8
OBJECT
 10
3584.5
 20
-3860.4999999999959
 30
0.0
 11
3593.0
 21
-3860.4999999999959
 31
0.0
1001
ACDBBLOCKREPETAG
1070
     1
1071
       33
1005
125F32
  0
LINE
  5
125F33
  8
OBJECT
 10
3593.0
 20
-3860.4999999999959
 30
0.0
 11
3593.0
 21
-3765.4999999999968
 31
0.0
1001
ACDBBLOCKREPETAG
1070
     1
1071
       34
1005
125F33
  0
LINE
  5
125F34
  8
OBJECT
 10
3597.0
 20
-3760.9999999999968
 30
0.0
 11
3593.0
 21
-3765.4999999999968
 31
0.0
1001
ACDBBLOCKREPETAG
1070
     1
1071
       35
1005
125F34
  0
LINE
  5
125F35
  8
OBJECT
 10
3597.0
 20
-3864.9999999999968
 30
0.0
 11
3593.0
 21
-3860.4999999999959
 31
0.0
1001
ACDBBLOCKREPETAG
1070
     1
1071
       36
1005
125F35
  0
LINE
  5
125F36
  8
HIDDEN
 10
3588.0
 20
-3774.9999999999968
 30
0.0
 11
3588.0
 21
-3850.9999999999959
 31
0.0
1001
ACDBBLOCKREPETAG
1070
     1
1071
       37
1005
125F36
  0
ARC
  5
125F37
  8
OBJECT
 10
3664.8782728787742
 20
-3821.4095072612249
 30
0.0
 40
110.86635228309
 50
144.16342741928889
 51
163.04035380433169
1001
ACDBBLOCKREPETAG
1070
     1
1071
       38
1005
125F37
  0
ARC
  5
125F38
  8
OBJECT
 10
3617.1359887769072
 20
-3806.287749718445
 30
0.0
 40
60.791749880358971
 50
163.5472046522267
 51
179.72879698282679
1001
ACDBBLOCKREPETAG
1070
     1
1071
       39
1005
125F38
  0
ARC
  5
125F39
  8
OBJECT
 10
3617.1359956562478
 20
-3812.7122497598971
 30
0.0
 40
60.79175676209487
 50
180.2712034781452
 51
196.4527794605338
1001
ACDBBLOCKREPETAG
1070
     1
1071
       40
1005
125F39
  0
ARC
  5
125F3A
  8
OBJECT
 10
3664.8782728787742
 20
-3797.5904927388328
 30
0.0
 40
110.8663522830916
 50
196.95964619566811
 51
215.83657258071111
1001
ACDBBLOCKREPETAG
1070
     1
1071
       41
1005
125F3A
  0
LINE
  5
125F3B
  8
OBJECT
 10
3556.3449199130041
 20
-3806.0000000000332
 30
0.0
 11
3556.3449199130041
 21
-3813.0000000000291
 31
0.0
1001
ACDBBLOCKREPETAG
1070
     1
1071
       42
1005
125F3B
  0
LINE
  5
125F3C
  8
OBJECT
 10
3574.9999999999991
 20
-3756.5000000000618
 30
0.0
 11
3581.5
 21
-3756.5000000000618
 31
0.0
1001
ACDBBLOCKREPETAG
1070
     1
1071
       43
1005
125F3C
  0
LINE
  5
125F3D
  8
OBJECT
 10
3574.9999999999991
 20
-3862.4999999999968
 30
0.0
 11
3584.5
 21
-3862.4999999999968
 31
0.0
1001
ACDBBLOCKREPETAG
1070
     1
1071
       44
1005
125F3D
  0
LINE
  5
125F3E
  8
OBJECT
 10
3633.0
 20
-3404.9999999999959
 30
0.0
 11
3640.0
 21
-3404.9999999999959
 31
0.0
1001
ACDBBLOCKREPETAG
1070
     1
1071
       20
1005
125F3E
  0
LINE
  5
125F3F
  8
OBJECT
 10
3640.0
 20
-3404.9999999999959
 30
0.0
 11
3640.0
 21
-3514.9999999999968
 31
0.0
1001
ACDBBLOCKREPETAG
1070
     1
1071
       21
1005
125F3F
  0
LINE
  5
125F40
  8
OBJECT
 10
3640.0
 20
-3514.9999999999968
 30
0.0
 11
3633.0
 21
-3514.9999999999968
 31
0.0
1001
ACDBBLOCKREPETAG
1070
     1
1071
       22
1005
125F40
  0
LINE
  5
125F41
  8
OBJECT
 10
3633.0
 20
-3514.9999999999968
 30
0.0
 11
3633.0
 21
-3404.9999999999959
 31
0.0
1001
ACDBBLOCKREPETAG
1070
     1
1071
       23
1005
125F41
  0
LINE
  5
125F42
  8
CENTER
 10
3655.0
 20
-3459.9999999999968
 30
0.0
 11
3580.0
 21
-3459.9999999999968
 31
0.0
1001
ACDBBLOCKREPETAG
1070
     1
1071
       24
1005
125F42
  0
LINE
  5
125F43
  8
OBJECT
 10
3633.0
 20
-3407.9999999999959
 30
0.0
 11
3597.0
 21
-3407.9999999999959
 31
0.0
1001
ACDBBLOCKREPETAG
1070
     1
1071
       25
1005
125F43
  0
LINE
  5
125F44
  8
OBJECT
 10
3597.0
 20
-3407.9999999999959
 30
0.0
 11
3597.0
 21
-3511.9999999999959
 31
0.0
1001
ACDBBLOCKREPETAG
1070
     1
1071
       26
1005
125F44
  0
LINE
  5
125F45
  8
OBJECT
 10
3597.0
 20
-3511.9999999999959
 30
0.0
 11
3633.0
 21
-3511.9999999999959
 31
0.0
1001
ACDBBLOCKREPETAG
1070
     1
1071
       27
1005
125F45
  0
LINE
  5
125F46
  8
OBJECT
 10
3593.0
 20
-3412.4999999999959
 30
0.0
 11
3584.5
 21
-3412.4999999999959
 31
0.0
1001
ACDBBLOCKREPETAG
1070
     1
1071
       28
1005
125F46
  0
LINE
  5
125F47
  8
OBJECT
 10
3584.5
 20
-3507.4999999999968
 30
0.0
 11
3593.0
 21
-3507.4999999999968
 31
0.0
1001
ACDBBLOCKREPETAG
1070
     1
1071
       29
1005
125F47
  0
LINE
  5
125F48
  8
OBJECT
 10
3593.0
 20
-3507.4999999999968
 30
0.0
 11
3593.0
 21
-3412.4999999999959
 31
0.0
1001
ACDBBLOCKREPETAG
1070
     1
1071
       30
1005
125F48
  0
LINE
  5
125F49
  8
OBJECT
 10
3597.0
 20
-3407.9999999999959
 30
0.0
 11
3593.0
 21
-3412.4999999999959
 31
0.0
1001
ACDBBLOCKREPETAG
1070
     1
1071
       31
1005
125F49
  0
LINE
  5
125F4A
  8
OBJECT
 10
3597.0
 20
-3511.9999999999959
 30
0.0
 11
3593.0
 21
-3507.4999999999968
 31
0.0
1001
ACDBBLOCKREPETAG
1070
     1
1071
       32
1005
125F4A
  0
LINE
  5
125F4B
  8
OBJECT
 10
3584.4999999999982
 20
-3509.4999999999959
 30
0.0
 11
3584.5
 21
-3410.4999999999959
 31
0.0
1001
ACDBBLOCKREPETAG
1070
     1
1071
       33
1005
125F4B
  0
LINE
  5
125F4C
  8
HIDDEN
 10
3588.0
 20
-3421.9999999999968
 30
0.0
 11
3588.0
 21
-3497.9999999999959
 31
0.0
1001
ACDBBLOCKREPETAG
1070
     1
1071
       34
1005
125F4C
  0
LINE
  5
125F4D
  8
OBJECT
 10
3584.5
 20
-3410.4999999999959
 30
0.0
 11
3556.3449199129791
 21
-3410.4999999999959
 31
0.0
1001
ACDBBLOCKREPETAG
1070
     1
1071
       35
1005
125F4D
  0
LINE
  5
125F4E
  8
OBJECT
 10
3584.4999999999982
 20
-3509.4999999999959
 30
0.0
 11
3556.3449199129791
 21
-3509.4999999999959
 31
0.0
1001
ACDBBLOCKREPETAG
1070
     1
1071
       36
1005
125F4E
  0
LINE
  5
125F4F
  8
CENTER
 10
2838.0
 20
-3820.9999999999968
 30
0.0
 11
2962.0
 21
-3820.9999999999968
 31
0.0
1001
ACDBBLOCKREPETAG
1070
     1
1071
        0
1005
125F4F
  0
CIRCLE
  5
125F50
  8
OBJECT
 10
2900.0
 20
-3820.9999999999968
 30
0.0
 40
28.0
1001
ACDBBLOCKREPETAG
1070
     1
1071
        2
1005
125F50
  0
CIRCLE
  5
125F51
  8
OBJECT
 10
2900.0
 20
-3820.9999999999968
 30
0.0
 40
39.0
1001
ACDBBLOCKREPETAG
1070
     1
1071
        3
1005
125F51
  0
ARC
  5
125F52
  8
OBJECT
 10
2900.0
 20
-3820.9999999999968
 30
0.0
 40
47.0
 50
290.58196921144412
 51
249.41803078855591
1001
ACDBBLOCKREPETAG
1070
     1
1071
        4
1005
125F52
  0
LINE
  5
125F53
  8
OBJECT
 10
2883.4772883581418
 20
-3864.9999999999968
 30
0.0
 11
2916.5227116418569
 21
-3864.9999999999968
 31
0.0
1001
ACDBBLOCKREPETAG
1070
     1
1071
        5
1005
125F53
  0
ARC
  5
125F54
  8
OBJECT
 10
2900.0
 20
-3805.9999999999932
 30
0.0
 40
49.5
 50
0.0
 51
180.0
1001
ACDBBLOCKREPETAG
1070
     1
1071
        6
1005
125F54
  0
LINE
  5
125F55
  8
OBJECT
 10
2850.5000000000032
 20
-3805.9999999999932
 30
0.0
 11
2850.5000000000032
 21
-3812.9999999999968
 31
0.0
1001
ACDBBLOCKREPETAG
1070
     1
1071
        7
1005
125F55
  0
LINE
  5
125F56
  8
OBJECT
 10
2949.5000000000068
 20
-3805.9999999999932
 30
0.0
 11
2949.5000000000068
 21
-3812.9999999999968
 31
0.0
1001
ACDBBLOCKREPETAG
1070
     1
1071
        8
1005
125F56
  0
ARC
  5
125F57
  8
OBJECT
 10
2900.0
 20
-3812.9999999999968
 30
0.0
 40
49.5
 50
180.0
 51
202.66956385104879
1001
ACDBBLOCKREPETAG
1070
     1
1071
        9
1005
125F57
  0
ARC
  5
125F58
  8
OBJECT
 10
2900.0
 20
-3812.9999999999968
 30
0.0
 40
49.5
 50
337.33043614895121
 51
0.0
1001
ACDBBLOCKREPETAG
1070
     1
1071
       10
1005
125F58
  0
POINT
  5
125F59
  8
DOTS
 10
2900.0
 20
-3864.9999999999968
 30
0.0
1001
ACDBBLOCKREPETAG
1070
     1
1071
       25
1005
125F59
  0
LINE
  5
125F5A
  8
OBJECT
 10
2633.0
 20
-3773.9999999999968
 30
0.0
 11
2640.0
 21
-3773.9999999999968
 31
0.0
1001
ACDBBLOCKREPETAG
1070
     1
1071
        0
1005
125F5A
  0
LINE
  5
125F5B
  8
OBJECT
 10
2640.0
 20
-3773.9999999999968
 30
0.0
 11
2640.0
 21
-3864.9999999999968
 31
0.0
1001
ACDBBLOCKREPETAG
1070
     1
1071
        1
1005
125F5B
  0
LINE
  5
125F5C
  8
OBJECT
 10
2584.5
 20
-3759.5000000000618
 30
0.0
 11
2584.5
 21
-3862.4999999999968
 31
0.0
1001
ACDBBLOCKREPETAG
1070
     1
1071
        2
1005
125F5C
  0
ARC
  5
125F5D
  8
OBJECT
 10
2581.5
 20
-3759.5000000000618
 30
0.0
 40
3.0
 50
0.0
 51
90.0
1001
ACDBBLOCKREPETAG
1070
     1
1071
        3
1005
125F5D
  0
LINE
  5
125F5E
  8
OBJECT
 10
2633.0
 20
-3864.9999999999968
 30
0.0
 11
2633.0
 21
-3773.9999999999968
 31
0.0
1001
ACDBBLOCKREPETAG
1070
     1
1071
        4
1005
125F5E
  0
LINE
  5
125F5F
  8
CENTER
 10
2655.0
 20
-3820.9999999999968
 30
0.0
 11
2541.911823713584
 21
-3820.9999999999968
 31
0.0
1001
ACDBBLOCKREPETAG
1070
     1
1071
        5
1005
125F5F
  0
LINE
  5
125F60
  8
OBJECT
 10
2633.0
 20
-3776.9999999999968
 30
0.0
 11
2596.9999999999991
 21
-3776.9999999999968
 31
0.0
1001
ACDBBLOCKREPETAG
1070
     1
1071
        6
1005
125F60
  0
LINE
  5
125F61
  8
OBJECT
 10
2596.9999999999991
 20
-3776.9999999999968
 30
0.0
 11
2596.9999999999991
 21
-3864.9999999999968
 31
0.0
1001
ACDBBLOCKREPETAG
1070
     1
1071
        7
1005
125F61
  0
LINE
  5
125F62
  8
OBJECT
 10
2596.9999999999991
 20
-3864.9999999999968
 30
0.0
 11
2640.0
 21
-3864.9999999999968
 31
0.0
1001
ACDBBLOCKREPETAG
1070
     1
1071
        8
1005
125F62
  0
LINE
  5
125F63
  8
OBJECT
 10
2593.0
 20
-3781.4999999999959
 30
0.0
 11
2584.5
 21
-3781.4999999999959
 31
0.0
1001
ACDBBLOCKREPETAG
1070
     1
1071
        9
1005
125F63
  0
LINE
  5
125F64
  8
OBJECT
 10
2584.5
 20
-3860.4999999999959
 30
0.0
 11
2593.0
 21
-3860.4999999999959
 31
0.0
1001
ACDBBLOCKREPETAG
1070
     1
1071
       10
1005
125F64
  0
LINE
  5
125F65
  8
OBJECT
 10
2593.0
 20
-3860.4999999999959
 30
0.0
 11
2593.0
 21
-3781.4999999999959
 31
0.0
1001
ACDBBLOCKREPETAG
1070
     1
1071
       11
1005
125F65
  0
LINE
  5
125F66
  8
OBJECT
 10
2596.9999999999991
 20
-3776.9999999999968
 30
0.0
 11
2593.0
 21
-3781.4999999999959
 31
0.0
1001
ACDBBLOCKREPETAG
1070
     1
1071
       12
1005
125F66
  0
LINE
  5
125F67
  8
OBJECT
 10
2596.9999999999991
 20
-3864.9999999999968
 30
0.0
 11
2593.0
 21
-3860.4999999999959
 31
0.0
1001
ACDBBLOCKREPETAG
1070
     1
1071
       13
1005
125F67
  0
LINE
  5
125F68
  8
HIDDEN
 10
2588.0
 20
-3790.9999999999959
 30
0.0
 11
2588.0
 21
-3850.9999999999959
 31
0.0
1001
ACDBBLOCKREPETAG
1070
     1
1071
       14
1005
125F68
  0
ARC
  5
125F69
  8
OBJECT
 10
2664.8782728787751
 20
-3821.4095072612249
 30
0.0
 40
110.86635228309
 50
144.1634274191434
 51
163.04035380433169
1001
ACDBBLOCKREPETAG
1070
     1
1071
       15
1005
125F69
  0
ARC
  5
125F6A
  8
OBJECT
 10
2617.1359887769072
 20
-3806.287749718445
 30
0.0
 40
60.791749880358971
 50
163.5472046522267
 51
179.72879698282679
1001
ACDBBLOCKREPETAG
1070
     1
1071
       16
1005
125F6A
  0
ARC
  5
125F6B
  8
OBJECT
 10
2617.1359956562478
 20
-3812.7122497598971
 30
0.0
 40
60.79175676209487
 50
180.2712034781452
 51
196.4527794605338
1001
ACDBBLOCKREPETAG
1070
     1
1071
       17
1005
125F6B
  0
ARC
  5
125F6C
  8
OBJECT
 10
2664.8782728787751
 20
-3797.5904927388328
 30
0.0
 40
110.8663522830916
 50
196.95964619566811
 51
215.8365725808566
1001
ACDBBLOCKREPETAG
1070
     1
1071
       18
1005
125F6C
  0
LINE
  5
125F6D
  8
OBJECT
 10
2556.3449199130041
 20
-3806.0000000000332
 30
0.0
 11
2556.3449199130041
 21
-3813.0000000000291
 31
0.0
1001
ACDBBLOCKREPETAG
1070
     1
1071
       19
1005
125F6D
  0
LINE
  5
125F6E
  8
OBJECT
 10
2575.0
 20
-3756.5000000000618
 30
0.0
 11
2581.5
 21
-3756.5000000000618
 31
0.0
1001
ACDBBLOCKREPETAG
1070
     1
1071
       20
1005
125F6E
  0
LINE
  5
125F6F
  8
OBJECT
 10
2575.0
 20
-3862.4999999999968
 30
0.0
 11
2584.5
 21
-3862.4999999999968
 31
0.0
1001
ACDBBLOCKREPETAG
1070
     1
1071
       21
1005
125F6F
  0
LINE
  5
125F70
  8
OBJECT
 10
2633.0
 20
-3412.9999999999968
 30
0.0
 11
2640.0
 21
-3412.9999999999968
 31
0.0
1001
ACDBBLOCKREPETAG
1070
     1
1071
        0
1005
125F70
  0
LINE
  5
125F71
  8
OBJECT
 10
2640.0
 20
-3412.9999999999968
 30
0.0
 11
2640.0
 21
-3506.9999999999968
 31
0.0
1001
ACDBBLOCKREPETAG
1070
     1
1071
        1
1005
125F71
  0
LINE
  5
125F72
  8
OBJECT
 10
2640.0
 20
-3506.9999999999968
 30
0.0
 11
2633.0
 21
-3506.9999999999968
 31
0.0
1001
ACDBBLOCKREPETAG
1070
     1
1071
        2
1005
125F72
  0
LINE
  5
125F73
  8
OBJECT
 10
2633.0
 20
-3506.9999999999968
 30
0.0
 11
2633.0
 21
-3412.9999999999968
 31
0.0
1001
ACDBBLOCKREPETAG
1070
     1
1071
        3
1005
125F73
  0
LINE
  5
125F74
  8
CENTER
 10
2655.0
 20
-3459.9999999999968
 30
0.0
 11
2580.0
 21
-3459.9999999999968
 31
0.0
1001
ACDBBLOCKREPETAG
1070
     1
1071
        4
1005
125F74
  0
LINE
  5
125F75
  8
OBJECT
 10
2633.0
 20
-3415.9999999999959
 30
0.0
 11
2596.9999999999991
 21
-3415.9999999999959
 31
0.0
1001
ACDBBLOCKREPETAG
1070
     1
1071
        5
1005
125F75
  0
LINE
  5
125F76
  8
OBJECT
 10
2596.9999999999991
 20
-3415.9999999999959
 30
0.0
 11
2596.9999999999991
 21
-3503.9999999999959
 31
0.0
1001
ACDBBLOCKREPETAG
1070
     1
1071
        6
1005
125F76
  0
LINE
  5
125F77
  8
OBJECT
 10
2596.9999999999991
 20
-3503.9999999999959
 30
0.0
 11
2633.0
 21
-3503.9999999999959
 31
0.0
1001
ACDBBLOCKREPETAG
1070
     1
1071
        7
1005
125F77
  0
LINE
  5
125F78
  8
OBJECT
 10
2593.0
 20
-3420.4999999999959
 30
0.0
 11
2584.5
 21
-3420.4999999999959
 31
0.0
1001
ACDBBLOCKREPETAG
1070
     1
1071
        8
1005
125F78
  0
LINE
  5
125F79
  8
OBJECT
 10
2584.5
 20
-3499.4999999999959
 30
0.0
 11
2593.0
 21
-3499.4999999999959
 31
0.0
1001
ACDBBLOCKREPETAG
1070
     1
1071
        9
1005
125F79
  0
LINE
  5
125F7A
  8
OBJECT
 10
2593.0
 20
-3499.4999999999959
 30
0.0
 11
2593.0
 21
-3420.4999999999959
 31
0.0
1001
ACDBBLOCKREPETAG
1070
     1
1071
       10
1005
125F7A
  0
LINE
  5
125F7B
  8
OBJECT
 10
2596.9999999999991
 20
-3415.9999999999959
 30
0.0
 11
2593.0
 21
-3420.4999999999959
 31
0.0
1001
ACDBBLOCKREPETAG
1070
     1
1071
       11
1005
125F7B
  0
LINE
  5
125F7C
  8
OBJECT
 10
2596.9999999999991
 20
-3503.9999999999959
 30
0.0
 11
2593.0
 21
-3499.4999999999959
 31
0.0
1001
ACDBBLOCKREPETAG
1070
     1
1071
       12
1005
125F7C
  0
LINE
  5
125F7D
  8
OBJECT
 10
2584.4999999999991
 20
-3506.4999999999959
 30
0.0
 11
2584.5
 21
-3413.4999999999959
 31
0.0
1001
ACDBBLOCKREPETAG
1070
     1
1071
       13
1005
125F7D
  0
ARC
  5
125F7E
  8
OBJECT
 10
2581.5
 20
-3413.4999999999959
 30
0.0
 40
3.0
 50
0.0
 51
90.0
1001
ACDBBLOCKREPETAG
1070
     1
1071
       14
1005
125F7E
  0
LINE
  5
125F7F
  8
HIDDEN
 10
2588.0
 20
-3429.9999999999959
 30
0.0
 11
2588.0
 21
-3489.9999999999968
 31
0.0
1001
ACDBBLOCKREPETAG
1070
     1
1071
       15
1005
125F7F
  0
LINE
  5
125F80
  8
OBJECT
 10
2581.5
 20
-3410.4999999999959
 30
0.0
 11
2556.3449199129791
 21
-3410.4999999999959
 31
0.0
1001
ACDBBLOCKREPETAG
1070
     1
1071
       17
1005
125F80
  0
LINE
  5
125F81
  8
OBJECT
 10
2581.4999999999991
 20
-3509.4999999999959
 30
0.0
 11
2556.3449199129791
 21
-3509.4999999999959
 31
0.0
1001
ACDBBLOCKREPETAG
1070
     1
1071
       18
1005
125F81
  0
ARC
  5
125F82
  8
OBJECT
 10
2581.4999999999991
 20
-3506.4999999999959
 30
0.0
 40
3.0
 50
270.0
 51
0.0
1001
ACDBBLOCKREPETAG
1070
     1
1071
       19
1005
125F82
  0
TEXT
  5
125F83
  8
SLIM
 10
12231.700000000001
 20
-1964.6666666666631
 30
0.0
 40
28.0
  1
※ 対応P寸法　　220～320（10mm単位）
 41
0.75
  0
TEXT
  5
125F84
  8
SLIM
 10
12229.299800000001
 20
-2011.3333333333301
 30
0.0
 40
28.0
  1
※ 対応スラブ厚　150～（600-P）
 41
0.75
  0
TEXT
  5
125F85
  8
SLIM
 10
12111.5
 20
-2104.6666666666638
 30
0.0
 40
28.0
  1
国土交通大臣認定・（財）日本消防設備安全センター性能評定取得品
 41
0.75
  0
TEXT
  5
125F86
  8
SLIM
 10
12131.1
 20
-2151.3333333333289
 30
0.0
 40
28.0
  1
注）ご採用にあたり、認定書及び評定書の内容をご確認ください。
 41
0.75
  0
TEXT
  5
125F87
  8
SLIM
 10
10231.700000000001
 20
-1964.6666666666631
 30
0.0
 40
28.0
  1
※ 対応P寸法　　220～320（10mm単位）
 41
0.75
  0
TEXT
  5
125F88
  8
SLIM
 10
10229.299800000001
 20
-2011.3333333333301
 30
0.0
 40
28.0
  1
※ 対応スラブ厚　180～（600-P）
 41
0.75
  0
TEXT
  5
125F89
  8
SLIM
 10
10111.5
 20
-2104.6666666666638
 30
0.0
 40
28.0
  1
国土交通大臣認定・（財）日本消防設備安全センター性能評定取得品
 41
0.75
  0
TEXT
  5
125F8A
  8
SLIM
 10
10131.1
 20
-2151.3333333333289
 30
0.0
 40
28.0
  1
注）ご採用にあたり、認定書及び評定書の内容をご確認ください。
 41
0.75
  0
TEXT
  5
125F8B
  8
SLIM
 10
6226.1000000000004
 20
-2016.3333600000001
 30
0.0
 40
28.0
  1
 ※ 対応P寸法　　220～340（10mm単位）
 41
0.75
  0
TEXT
  5
125F8C
  8
SLIM
 10
6231.7997999999998
 20
-2063.0000266666671
 30
0.0
 40
28.0
  1
※ 対応スラブ厚　150mm以上
 41
0.75
  0
TEXT
  5
125F8D
  8
SLIM
 10
6111.5
 20
-2134.9999733333329
 30
0.0
 40
28.0
  1
国土交通大臣認定・（財）日本消防設備安全センター性能評定取得品
 41
0.75
  0
TEXT
  5
125F8E
  8
SLIM
 10
6131.1000000000004
 20
-2181.666639999999
 30
0.0
 40
28.0
  1
注）ご採用にあたり、認定書及び評定書の内容をご確認ください。
 41
0.75
  0
TEXT
  5
125F8F
  8
SLIM
 10
4231.6999999999998
 20
-1982.9999999999959
 30
0.0
 40
28.0
  1
※ 対応P寸法　　220～340（10mm単位）
 41
0.75
  0
TEXT
  5
125F90
  8
SLIM
 10
2231.6999999999998
 20
-1708.999999999998
 30
0.0
 40
28.0
  1
※ 対応P寸法　　220～340（10mm単位）
 41
0.75
  0
TEXT
  5
125F91
  8
SLIM
 10
8231.7000000000007
 20
-1703.000026666665
 30
0.0
 40
28.0
  1
※ 対応P寸法　　220～320（10mm単位）
 41
0.75
  0
TEXT
  5
125F92
  8
SLIM
 10
8228.1000000000004
 20
-1749.666693333332
 30
0.0
 40
28.0
  1
※ 対応スラブ厚　180｛150｝～（560-P）
 41
0.75
  0
TEXT
  5
125F93
  8
SLIM
 10
8265.2998000000007
 20
-1796.3333599999989
 30
0.0
 40
28.0
  1
｛｝内はカンペイ立て管との組み合わせの場合
 41
0.75
  0
TEXT
  5
125F94
  8
SLIM
 10
8111.4999999999973
 20
-1868.3333066666651
 30
0.0
 40
28.0
  1
国土交通大臣認定・（財）日本消防設備安全センター性能評定取得品
 41
0.75
  0
TEXT
  5
125F95
  8
SLIM
 10
8131.1000000000013
 20
-1914.999973333332
 30
0.0
 40
28.0
  1
注）ご採用にあたり、認定書及び評定書の内容をご確認ください。
 41
0.75
  0
LINE
  5
125F96
  8
OBJECT
 10
12423.0
 20
-570.99999999999432
 30
0.0
 11
12423.0
 21
-549.99999999999432
 31
0.0
1001
ACDBBLOCKREPETAG
1070
     1
1071
        0
1005
125F96
  0
LINE
  5
125F97
  8
OBJECT
 10
12423.0
 20
-549.99999999999432
 30
0.0
 11
12577.0
 21
-549.99999999999432
 31
0.0
1001
ACDBBLOCKREPETAG
1070
     1
1071
        1
1005
125F97
  0
LINE
  5
125F98
  8
HIDDEN
 10
12443.0
 20
-619.99999999999432
 30
0.0
 11
12557.0
 21
-619.99999999999432
 31
0.0
1001
ACDBBLOCKREPETAG
1070
     1
1071
        2
1005
125F98
  0
LINE
  5
125F99
  8
OBJECT
 10
12577.0
 20
-549.99999999999432
 30
0.0
 11
12577.0
 21
-570.99999999999432
 31
0.0
1001
ACDBBLOCKREPETAG
1070
     1
1071
        3
1005
125F99
  0
LINE
  5
125F9A
  8
OBJECT
 10
12577.0
 20
-570.99999999999432
 30
0.0
 11
12423.0
 21
-570.99999999999432
 31
0.0
1001
ACDBBLOCKREPETAG
1070
     1
1071
        4
1005
125F9A
  0
LINE
  5
125F9B
  8
CENTER
 10
12500.0
 20
-534.99999999999432
 30
0.0
 11
12500.0
 21
-769.9999999999942
 31
0.0
1001
ACDBBLOCKREPETAG
1070
     1
1071
        5
1005
125F9B
  0
LINE
  5
125F9C
  8
OBJECT
 10
12425.0
 20
-633.99999999999432
 30
0.0
 11
12425.0
 21
-757.9999999999942
 31
0.0
1001
ACDBBLOCKREPETAG
1070
     1
1071
        6
1005
125F9C
  0
LINE
  5
125F9D
  8
OBJECT
 10
12428.0
 20
-570.99999999999432
 30
0.0
 11
12428.0
 21
-633.99999999999432
 31
0.0
1001
ACDBBLOCKREPETAG
1070
     1
1071
        7
1005
125F9D
  0
LINE
  5
125F9E
  8
OBJECT
 10
12572.0
 20
-633.99999999999432
 30
0.0
 11
12572.0
 21
-570.99999999999432
 31
0.0
1001
ACDBBLOCKREPETAG
1070
     1
1071
        8
1005
125F9E
  0
LINE
  5
125F9F
  8
OBJECT
 10
12420.0
 20
-757.9999999999942
 30
0.0
 11
12580.0
 21
-757.9999999999942
 31
0.0
1001
ACDBBLOCKREPETAG
1070
     1
1071
        9
1005
125F9F
  0
LINE
  5
125FA0
  8
OBJECT
 10
12580.0
 20
-633.99999999999432
 30
0.0
 11
12425.0
 21
-633.99999999999432
 31
0.0
1001
ACDBBLOCKREPETAG
1070
     1
1071
       10
1005
125FA0
  0
LINE
  5
125FA1
  8
OBJECT
 10
12420.0
 20
-757.9999999999942
 30
0.0
 11
12420.0
 21
-769.9999999999942
 31
0.0
1001
ACDBBLOCKREPETAG
1070
     1
1071
       11
1005
125FA1
  0
LINE
  5
125FA2
  8
OBJECT
 10
12420.0
 20
-769.9999999999942
 30
0.0
 11
12580.0
 21
-769.9999999999942
 31
0.0
1001
ACDBBLOCKREPETAG
1070
     1
1071
       12
1005
125FA2
  0
LINE
  5
125FA3
  8
OBJECT
 10
12580.0
 20
-769.9999999999942
 30
0.0
 11
12580.0
 21
-757.9999999999942
 31
0.0
1001
ACDBBLOCKREPETAG
1070
     1
1071
       13
1005
125FA3
  0
ARC
  5
125FA4
  8
OBJECT
 10
12700.687274671671
 20
-749.40809941010195
 30
0.0
 40
170.6350503965856
 50
137.44134459184301
 51
149.91949581337221
1001
ACDBBLOCKREPETAG
1070
     1
1071
       15
1005
125FA4
  0
ARC
  5
125FA5
  8
OBJECT
 10
12618.845598704051
 20
-705.88272669535922
 30
0.0
 40
78.072222021763665
 50
147.45515310379639
 51
164.6636599771729
1001
ACDBBLOCKREPETAG
1070
     1
1071
       16
1005
125FA5
  0
ARC
  5
125FA6
  8
OBJECT
 10
12585.755434960871
 20
-695.99999999999432
 30
0.0
 40
43.55353926885617
 50
165.6884523008477
 51
194.3115476991523
1001
ACDBBLOCKREPETAG
1070
     1
1071
       17
1005
125FA6
  0
ARC
  5
125FA7
  8
OBJECT
 10
12700.687274671671
 20
-642.59190058988645
 30
0.0
 40
170.6350503965856
 50
210.08050418662771
 51
222.55865540815699
1001
ACDBBLOCKREPETAG
1070
     1
1071
       18
1005
125FA7
  0
ARC
  5
125FA8
  8
OBJECT
 10
12618.845598704051
 20
-686.11727330462952
 30
0.0
 40
78.072222021763665
 50
195.3363400228271
 51
212.54484689620361
1001
ACDBBLOCKREPETAG
1070
     1
1071
       19
1005
125FA8
  0
LINE
  5
125FA9
  8
OBJECT
 10
12633.0
 20
-634.0
 30
0.0
 11
12640.0
 21
-634.0
 31
0.0
1001
ACDBBLOCKREPETAG
1070
     1
1071
       45
1005
125FA9
  0
LINE
  5
125FAA
  8
OBJECT
 10
12640.0
 20
-634.0
 30
0.0
 11
12640.0
 21
-755.0
 31
0.0
1001
ACDBBLOCKREPETAG
1070
     1
1071
       46
1005
125FAA
  0
LINE
  5
125FAB
  8
OBJECT
 10
12633.0
 20
-755.0
 30
0.0
 11
12633.0
 21
-634.0
 31
0.0
1001
ACDBBLOCKREPETAG
1070
     1
1071
       47
1005
125FAB
  0
LINE
  5
125FAC
  8
CENTER
 10
12655.0
 20
-696.0
 30
0.0
 11
12571.0
 21
-696.0
 31
0.0
1001
ACDBBLOCKREPETAG
1070
     1
1071
       48
1005
125FAC
  0
LINE
  5
125FAD
  8
OBJECT
 10
12633.0
 20
-637.0
 30
0.0
 11
12597.0
 21
-637.0
 31
0.0
1001
ACDBBLOCKREPETAG
1070
     1
1071
       49
1005
125FAD
  0
LINE
  5
125FAE
  8
OBJECT
 10
12597.0
 20
-637.0
 30
0.0
 11
12597.0
 21
-755.0
 31
0.0
1001
ACDBBLOCKREPETAG
1070
     1
1071
       50
1005
125FAE
  0
LINE
  5
125FAF
  8
OBJECT
 10
12597.0
 20
-755.0
 30
0.0
 11
12640.0
 21
-755.0
 31
0.0
1001
ACDBBLOCKREPETAG
1070
     1
1071
       51
1005
125FAF
  0
LINE
  5
125FB0
  8
OBJECT
 10
12593.0
 20
-641.5
 30
0.0
 11
12586.0
 21
-641.5
 31
0.0
1001
ACDBBLOCKREPETAG
1070
     1
1071
       52
1005
125FB0
  0
LINE
  5
125FB1
  8
OBJECT
 10
12586.0
 20
-750.49999999999989
 30
0.0
 11
12593.0
 21
-750.49999999999989
 31
0.0
1001
ACDBBLOCKREPETAG
1070
     1
1071
       53
1005
125FB1
  0
LINE
  5
125FB2
  8
OBJECT
 10
12593.0
 20
-750.49999999999989
 30
0.0
 11
12593.0
 21
-641.5
 31
0.0
1001
ACDBBLOCKREPETAG
1070
     1
1071
       54
1005
125FB2
  0
LINE
  5
125FB3
  8
OBJECT
 10
12597.0
 20
-637.0
 30
0.0
 11
12593.0
 21
-641.5
 31
0.0
1001
ACDBBLOCKREPETAG
1070
     1
1071
       55
1005
125FB3
  0
LINE
  5
125FB4
  8
OBJECT
 10
12597.0
 20
-755.0
 30
0.0
 11
12593.0
 21
-750.49999999999989
 31
0.0
1001
ACDBBLOCKREPETAG
1070
     1
1071
       56
1005
125FB4
  0
LINE
  5
125FB5
  8
OBJECT
 10
12583.0
 20
-634.0
 30
0.0
 11
12580.0
 21
-634.0
 31
0.0
1001
ACDBBLOCKREPETAG
1070
     1
1071
       57
1005
125FB5
  0
ARC
  5
125FB6
  8
OBJECT
 10
12583.0
 20
-637.0
 30
0.0
 40
3.0
 50
0.0
 51
90.0
1001
ACDBBLOCKREPETAG
1070
     1
1071
       58
1005
125FB6
  0
LINE
  5
125FB7
  8
OBJECT
 10
12580.0
 20
-758.0
 30
0.0
 11
12583.0
 21
-758.0
 31
0.0
1001
ACDBBLOCKREPETAG
1070
     1
1071
       59
1005
125FB7
  0
ARC
  5
125FB8
  8
OBJECT
 10
12583.0
 20
-755.0
 30
0.0
 40
3.0
 50
270.0
 51
0.0
1001
ACDBBLOCKREPETAG
1070
     1
1071
       60
1005
125FB8
  0
LINE
  5
125FB9
  8
OBJECT
 10
12586.0
 20
-755.0
 30
0.0
 11
12586.0
 21
-637.0
 31
0.0
1001
ACDBBLOCKREPETAG
1070
     1
1071
       61
1005
125FB9
  0
LINE
  5
125FBA
  8
HIDDEN
 10
12588.0
 20
-651.5
 30
0.0
 11
12588.0
 21
-740.5
 31
0.0
1001
ACDBBLOCKREPETAG
1070
     1
1071
       63
1005
125FBA
  0
LINE
  5
125FBB
  8
OBJECT
 10
10423.0
 20
-570.99999999999432
 30
0.0
 11
10423.0
 21
-549.99999999999432
 31
0.0
1001
ACDBBLOCKREPETAG
1070
     1
1071
        0
1005
125FBB
  0
LINE
  5
125FBC
  8
OBJECT
 10
10423.0
 20
-549.99999999999432
 30
0.0
 11
10577.0
 21
-549.99999999999432
 31
0.0
1001
ACDBBLOCKREPETAG
1070
     1
1071
        1
1005
125FBC
  0
LINE
  5
125FBD
  8
HIDDEN
 10
10443.0
 20
-619.99999999999432
 30
0.0
 11
10557.0
 21
-619.99999999999432
 31
0.0
1001
ACDBBLOCKREPETAG
1070
     1
1071
        2
1005
125FBD
  0
LINE
  5
125FBE
  8
OBJECT
 10
10577.0
 20
-549.99999999999432
 30
0.0
 11
10577.0
 21
-570.99999999999432
 31
0.0
1001
ACDBBLOCKREPETAG
1070
     1
1071
        3
1005
125FBE
  0
LINE
  5
125FBF
  8
OBJECT
 10
10577.0
 20
-570.99999999999432
 30
0.0
 11
10423.0
 21
-570.99999999999432
 31
0.0
1001
ACDBBLOCKREPETAG
1070
     1
1071
        4
1005
125FBF
  0
LINE
  5
125FC0
  8
CENTER
 10
10500.0
 20
-534.99999999999432
 30
0.0
 11
10500.0
 21
-769.9999999999942
 31
0.0
1001
ACDBBLOCKREPETAG
1070
     1
1071
        5
1005
125FC0
  0
LINE
  5
125FC1
  8
OBJECT
 10
10425.0
 20
-633.99999999999432
 30
0.0
 11
10425.0
 21
-757.9999999999942
 31
0.0
1001
ACDBBLOCKREPETAG
1070
     1
1071
        6
1005
125FC1
  0
LINE
  5
125FC2
  8
OBJECT
 10
10428.0
 20
-570.99999999999432
 30
0.0
 11
10428.0
 21
-633.99999999999432
 31
0.0
1001
ACDBBLOCKREPETAG
1070
     1
1071
        7
1005
125FC2
  0
LINE
  5
125FC3
  8
OBJECT
 10
10572.0
 20
-633.99999999999432
 30
0.0
 11
10572.0
 21
-570.99999999999432
 31
0.0
1001
ACDBBLOCKREPETAG
1070
     1
1071
        8
1005
125FC3
  0
LINE
  5
125FC4
  8
OBJECT
 10
10420.0
 20
-757.9999999999942
 30
0.0
 11
10580.0
 21
-757.9999999999942
 31
0.0
1001
ACDBBLOCKREPETAG
1070
     1
1071
        9
1005
125FC4
  0
LINE
  5
125FC5
  8
OBJECT
 10
10580.0
 20
-633.99999999999432
 30
0.0
 11
10425.0
 21
-633.99999999999432
 31
0.0
1001
ACDBBLOCKREPETAG
1070
     1
1071
       10
1005
125FC5
  0
LINE
  5
125FC6
  8
OBJECT
 10
10420.0
 20
-757.9999999999942
 30
0.0
 11
10420.0
 21
-769.9999999999942
 31
0.0
1001
ACDBBLOCKREPETAG
1070
     1
1071
       11
1005
125FC6
  0
LINE
  5
125FC7
  8
OBJECT
 10
10420.0
 20
-769.9999999999942
 30
0.0
 11
10580.0
 21
-769.9999999999942
 31
0.0
1001
ACDBBLOCKREPETAG
1070
     1
1071
       12
1005
125FC7
  0
LINE
  5
125FC8
  8
OBJECT
 10
10580.0
 20
-769.9999999999942
 30
0.0
 11
10580.0
 21
-757.9999999999942
 31
0.0
1001
ACDBBLOCKREPETAG
1070
     1
1071
       13
1005
125FC8
  0
ARC
  5
125FC9
  8
OBJECT
 10
10700.687274671671
 20
-749.40809941010195
 30
0.0
 40
170.6350503965856
 50
137.44134459184301
 51
149.91949581337221
1001
ACDBBLOCKREPETAG
1070
     1
1071
       15
1005
125FC9
  0
ARC
  5
125FCA
  8
OBJECT
 10
10618.845598704051
 20
-705.88272669535922
 30
0.0
 40
78.072222021763665
 50
147.45515310379639
 51
164.6636599771729
1001
ACDBBLOCKREPETAG
1070
     1
1071
       16
1005
125FCA
  0
ARC
  5
125FCB
  8
OBJECT
 10
10585.755434960871
 20
-695.99999999999432
 30
0.0
 40
43.55353926885617
 50
165.6884523008477
 51
194.3115476991523
1001
ACDBBLOCKREPETAG
1070
     1
1071
       17
1005
125FCB
  0
ARC
  5
125FCC
  8
OBJECT
 10
10700.687274671671
 20
-642.59190058988645
 30
0.0
 40
170.6350503965856
 50
210.08050418662771
 51
222.55865540815699
1001
ACDBBLOCKREPETAG
1070
     1
1071
       18
1005
125FCC
  0
ARC
  5
125FCD
  8
OBJECT
 10
10618.845598704051
 20
-686.11727330462952
 30
0.0
 40
78.072222021763665
 50
195.3363400228271
 51
212.54484689620361
1001
ACDBBLOCKREPETAG
1070
     1
1071
       19
1005
125FCD
  0
LINE
  5
125FCE
  8
OBJECT
 10
10633.0
 20
-634.0
 30
0.0
 11
10640.0
 21
-634.0
 31
0.0
1001
ACDBBLOCKREPETAG
1070
     1
1071
       45
1005
125FCE
  0
LINE
  5
125FCF
  8
OBJECT
 10
10640.0
 20
-634.0
 30
0.0
 11
10640.0
 21
-755.0
 31
0.0
1001
ACDBBLOCKREPETAG
1070
     1
1071
       46
1005
125FCF
  0
LINE
  5
125FD0
  8
OBJECT
 10
10633.0
 20
-755.0
 30
0.0
 11
10633.0
 21
-634.0
 31
0.0
1001
ACDBBLOCKREPETAG
1070
     1
1071
       47
1005
125FD0
  0
LINE
  5
125FD1
  8
CENTER
 10
10655.0
 20
-696.0
 30
0.0
 11
10571.0
 21
-696.0
 31
0.0
1001
ACDBBLOCKREPETAG
1070
     1
1071
       48
1005
125FD1
  0
LINE
  5
125FD2
  8
OBJECT
 10
10633.0
 20
-637.0
 30
0.0
 11
10597.0
 21
-637.0
 31
0.0
1001
ACDBBLOCKREPETAG
1070
     1
1071
       49
1005
125FD2
  0
LINE
  5
125FD3
  8
OBJECT
 10
10597.0
 20
-637.0
 30
0.0
 11
10597.0
 21
-755.0
 31
0.0
1001
ACDBBLOCKREPETAG
1070
     1
1071
       50
1005
125FD3
  0
LINE
  5
125FD4
  8
OBJECT
 10
10597.0
 20
-755.0
 30
0.0
 11
10640.0
 21
-755.0
 31
0.0
1001
ACDBBLOCKREPETAG
1070
     1
1071
       51
1005
125FD4
  0
LINE
  5
125FD5
  8
OBJECT
 10
10593.0
 20
-641.5
 30
0.0
 11
10586.0
 21
-641.5
 31
0.0
1001
ACDBBLOCKREPETAG
1070
     1
1071
       52
1005
125FD5
  0
LINE
  5
125FD6
  8
OBJECT
 10
10586.0
 20
-750.49999999999989
 30
0.0
 11
10593.0
 21
-750.49999999999989
 31
0.0
1001
ACDBBLOCKREPETAG
1070
     1
1071
       53
1005
125FD6
  0
LINE
  5
125FD7
  8
OBJECT
 10
10593.0
 20
-750.49999999999989
 30
0.0
 11
10593.0
 21
-641.5
 31
0.0
1001
ACDBBLOCKREPETAG
1070
     1
1071
       54
1005
125FD7
  0
LINE
  5
125FD8
  8
OBJECT
 10
10597.0
 20
-637.0
 30
0.0
 11
10593.0
 21
-641.5
 31
0.0
1001
ACDBBLOCKREPETAG
1070
     1
1071
       55
1005
125FD8
  0
LINE
  5
125FD9
  8
OBJECT
 10
10597.0
 20
-755.0
 30
0.0
 11
10593.0
 21
-750.49999999999989
 31
0.0
1001
ACDBBLOCKREPETAG
1070
     1
1071
       56
1005
125FD9
  0
LINE
  5
125FDA
  8
OBJECT
 10
10583.0
 20
-634.0
 30
0.0
 11
10580.0
 21
-634.0
 31
0.0
1001
ACDBBLOCKREPETAG
1070
     1
1071
       57
1005
125FDA
  0
ARC
  5
125FDB
  8
OBJECT
 10
10583.0
 20
-637.0
 30
0.0
 40
3.0
 50
0.0
 51
90.0
1001
ACDBBLOCKREPETAG
1070
     1
1071
       58
1005
125FDB
  0
LINE
  5
125FDC
  8
OBJECT
 10
10580.0
 20
-758.0
 30
0.0
 11
10583.0
 21
-758.0
 31
0.0
1001
ACDBBLOCKREPETAG
1070
     1
1071
       59
1005
125FDC
  0
ARC
  5
125FDD
  8
OBJECT
 10
10583.0
 20
-755.0
 30
0.0
 40
3.0
 50
270.0
 51
0.0
1001
ACDBBLOCKREPETAG
1070
     1
1071
       60
1005
125FDD
  0
LINE
  5
125FDE
  8
OBJECT
 10
10586.0
 20
-755.0
 30
0.0
 11
10586.0
 21
-637.0
 31
0.0
1001
ACDBBLOCKREPETAG
1070
     1
1071
       61
1005
125FDE
  0
LINE
  5
125FDF
  8
HIDDEN
 10
10588.0
 20
-651.5
 30
0.0
 11
10588.0
 21
-740.5
 31
0.0
1001
ACDBBLOCKREPETAG
1070
     1
1071
       63
1005
125FDF
  0
LINE
  5
125FE0
  8
OBJECT
 10
8423.0
 20
-570.99999999999432
 30
0.0
 11
8423.0
 21
-549.99999999999432
 31
0.0
1001
ACDBBLOCKREPETAG
1070
     1
1071
        0
1005
125FE0
  0
LINE
  5
125FE1
  8
OBJECT
 10
8423.0
 20
-549.99999999999432
 30
0.0
 11
8577.0
 21
-549.99999999999432
 31
0.0
1001
ACDBBLOCKREPETAG
1070
     1
1071
        1
1005
125FE1
  0
LINE
  5
125FE2
  8
HIDDEN
 10
8443.0
 20
-619.99999999999432
 30
0.0
 11
8557.0
 21
-619.99999999999432
 31
0.0
1001
ACDBBLOCKREPETAG
1070
     1
1071
        2
1005
125FE2
  0
LINE
  5
125FE3
  8
OBJECT
 10
8577.0
 20
-549.99999999999432
 30
0.0
 11
8577.0
 21
-570.99999999999432
 31
0.0
1001
ACDBBLOCKREPETAG
1070
     1
1071
        3
1005
125FE3
  0
LINE
  5
125FE4
  8
OBJECT
 10
8577.0
 20
-570.99999999999432
 30
0.0
 11
8423.0
 21
-570.99999999999432
 31
0.0
1001
ACDBBLOCKREPETAG
1070
     1
1071
        4
1005
125FE4
  0
LINE
  5
125FE5
  8
CENTER
 10
8500.0
 20
-534.99999999999432
 30
0.0
 11
8500.0
 21
-769.9999999999942
 31
0.0
1001
ACDBBLOCKREPETAG
1070
     1
1071
        5
1005
125FE5
  0
LINE
  5
125FE6
  8
OBJECT
 10
8425.0
 20
-633.99999999999432
 30
0.0
 11
8425.0
 21
-757.9999999999942
 31
0.0
1001
ACDBBLOCKREPETAG
1070
     1
1071
        6
1005
125FE6
  0
LINE
  5
125FE7
  8
OBJECT
 10
8428.0
 20
-570.99999999999432
 30
0.0
 11
8428.0
 21
-633.99999999999432
 31
0.0
1001
ACDBBLOCKREPETAG
1070
     1
1071
        7
1005
125FE7
  0
LINE
  5
125FE8
  8
OBJECT
 10
8572.0
 20
-633.99999999999432
 30
0.0
 11
8572.0
 21
-570.99999999999432
 31
0.0
1001
ACDBBLOCKREPETAG
1070
     1
1071
        8
1005
125FE8
  0
LINE
  5
125FE9
  8
OBJECT
 10
8420.0
 20
-757.9999999999942
 30
0.0
 11
8580.0
 21
-757.9999999999942
 31
0.0
1001
ACDBBLOCKREPETAG
1070
     1
1071
        9
1005
125FE9
  0
LINE
  5
125FEA
  8
OBJECT
 10
8580.0
 20
-633.99999999999432
 30
0.0
 11
8425.0
 21
-633.99999999999432
 31
0.0
1001
ACDBBLOCKREPETAG
1070
     1
1071
       10
1005
125FEA
  0
LINE
  5
125FEB
  8
OBJECT
 10
8420.0
 20
-757.9999999999942
 30
0.0
 11
8420.0
 21
-769.9999999999942
 31
0.0
1001
ACDBBLOCKREPETAG
1070
     1
1071
       11
1005
125FEB
  0
LINE
  5
125FEC
  8
OBJECT
 10
8420.0
 20
-769.9999999999942
 30
0.0
 11
8580.0
 21
-769.9999999999942
 31
0.0
1001
ACDBBLOCKREPETAG
1070
     1
1071
       12
1005
125FEC
  0
LINE
  5
125FED
  8
OBJECT
 10
8580.0
 20
-769.9999999999942
 30
0.0
 11
8580.0
 21
-757.9999999999942
 31
0.0
1001
ACDBBLOCKREPETAG
1070
     1
1071
       13
1005
125FED
  0
ARC
  5
125FEE
  8
OBJECT
 10
8700.6872746716726
 20
-749.40809941010195
 30
0.0
 40
170.6350503965856
 50
137.44134459184301
 51
149.91949581337221
1001
ACDBBLOCKREPETAG
1070
     1
1071
       15
1005
125FEE
  0
ARC
  5
125FEF
  8
OBJECT
 10
8618.8455987040506
 20
-705.88272669535922
 30
0.0
 40
78.072222021763665
 50
147.45515310379639
 51
164.6636599771729
1001
ACDBBLOCKREPETAG
1070
     1
1071
       16
1005
125FEF
  0
ARC
  5
125FF0
  8
OBJECT
 10
8585.7554349608708
 20
-695.99999999999432
 30
0.0
 40
43.55353926885617
 50
165.6884523008477
 51
194.3115476991523
1001
ACDBBLOCKREPETAG
1070
     1
1071
       17
1005
125FF0
  0
ARC
  5
125FF1
  8
OBJECT
 10
8700.6872746716726
 20
-642.59190058988645
 30
0.0
 40
170.6350503965856
 50
210.08050418662771
 51
222.55865540815699
1001
ACDBBLOCKREPETAG
1070
     1
1071
       18
1005
125FF1
  0
ARC
  5
125FF2
  8
OBJECT
 10
8618.8455987040506
 20
-686.11727330462952
 30
0.0
 40
78.072222021763665
 50
195.3363400228271
 51
212.54484689620361
1001
ACDBBLOCKREPETAG
1070
     1
1071
       19
1005
125FF2
  0
LINE
  5
125FF3
  8
OBJECT
 10
8633.0
 20
-634.0
 30
0.0
 11
8640.0
 21
-634.0
 31
0.0
1001
ACDBBLOCKREPETAG
1070
     1
1071
       45
1005
125FF3
  0
LINE
  5
125FF4
  8
OBJECT
 10
8640.0
 20
-634.0
 30
0.0
 11
8640.0
 21
-755.0
 31
0.0
1001
ACDBBLOCKREPETAG
1070
     1
1071
       46
1005
125FF4
  0
LINE
  5
125FF5
  8
OBJECT
 10
8633.0
 20
-755.0
 30
0.0
 11
8633.0
 21
-634.0
 31
0.0
1001
ACDBBLOCKREPETAG
1070
     1
1071
       47
1005
125FF5
  0
LINE
  5
125FF6
  8
CENTER
 10
8655.0
 20
-696.0
 30
0.0
 11
8571.0
 21
-696.0
 31
0.0
1001
ACDBBLOCKREPETAG
1070
     1
1071
       48
1005
125FF6
  0
LINE
  5
125FF7
  8
OBJECT
 10
8633.0
 20
-637.0
 30
0.0
 11
8597.0
 21
-637.0
 31
0.0
1001
ACDBBLOCKREPETAG
1070
     1
1071
       49
1005
125FF7
  0
LINE
  5
125FF8
  8
OBJECT
 10
8597.0
 20
-637.0
 30
0.0
 11
8597.0
 21
-755.0
 31
0.0
1001
ACDBBLOCKREPETAG
1070
     1
1071
       50
1005
125FF8
  0
LINE
  5
125FF9
  8
OBJECT
 10
8597.0
 20
-755.0
 30
0.0
 11
8640.0
 21
-755.0
 31
0.0
1001
ACDBBLOCKREPETAG
1070
     1
1071
       51
1005
125FF9
  0
LINE
  5
125FFA
  8
OBJECT
 10
8593.0
 20
-641.5
 30
0.0
 11
8586.0
 21
-641.5
 31
0.0
1001
ACDBBLOCKREPETAG
1070
     1
1071
       52
1005
125FFA
  0
LINE
  5
125FFB
  8
OBJECT
 10
8586.0
 20
-750.49999999999989
 30
0.0
 11
8593.0
 21
-750.49999999999989
 31
0.0
1001
ACDBBLOCKREPETAG
1070
     1
1071
       53
1005
125FFB
  0
LINE
  5
125FFC
  8
OBJECT
 10
8593.0
 20
-750.49999999999989
 30
0.0
 11
8593.0
 21
-641.5
 31
0.0
1001
ACDBBLOCKREPETAG
1070
     1
1071
       54
1005
125FFC
  0
LINE
  5
125FFD
  8
OBJECT
 10
8597.0
 20
-637.0
 30
0.0
 11
8593.0
 21
-641.5
 31
0.0
1001
ACDBBLOCKREPETAG
1070
     1
1071
       55
1005
125FFD
  0
LINE
  5
125FFE
  8
OBJECT
 10
8597.0
 20
-755.0
 30
0.0
 11
8593.0
 21
-750.49999999999989
 31
0.0
1001
ACDBBLOCKREPETAG
1070
     1
1071
       56
1005
125FFE
  0
LINE
  5
125FFF
  8
OBJECT
 10
8583.0
 20
-634.0
 30
0.0
 11
8580.0
 21
-634.0
 31
0.0
1001
ACDBBLOCKREPETAG
1070
     1
1071
       57
1005
125FFF
  0
ARC
  5
126000
  8
OBJECT
 10
8583.0
 20
-637.0
 30
0.0
 40
3.0
 50
0.0
 51
90.0
1001
ACDBBLOCKREPETAG
1070
     1
1071
       58
1005
126000
  0
LINE
  5
126001
  8
OBJECT
 10
8580.0
 20
-758.0
 30
0.0
 11
8583.0
 21
-758.0
 31
0.0
1001
ACDBBLOCKREPETAG
1070
     1
1071
       59
1005
126001
  0
ARC
  5
126002
  8
OBJECT
 10
8583.0
 20
-755.0
 30
0.0
 40
3.0
 50
270.0
 51
0.0
1001
ACDBBLOCKREPETAG
1070
     1
1071
       60
1005
126002
  0
LINE
  5
126003
  8
OBJECT
 10
8586.0
 20
-755.0
 30
0.0
 11
8586.0
 21
-637.0
 31
0.0
1001
ACDBBLOCKREPETAG
1070
     1
1071
       61
1005
126003
  0
LINE
  5
126004
  8
HIDDEN
 10
8588.0
 20
-651.5
 30
0.0
 11
8588.0
 21
-740.5
 31
0.0
1001
ACDBBLOCKREPETAG
1070
     1
1071
       63
1005
126004
  0
LINE
  5
126005
  8
OBJECT
 10
6423.0
 20
-570.99999999999432
 30
0.0
 11
6423.0
 21
-549.99999999999432
 31
0.0
1001
ACDBBLOCKREPETAG
1070
     1
1071
        0
1005
126005
  0
LINE
  5
126006
  8
OBJECT
 10
6423.0
 20
-549.99999999999432
 30
0.0
 11
6577.0
 21
-549.99999999999432
 31
0.0
1001
ACDBBLOCKREPETAG
1070
     1
1071
        1
1005
126006
  0
LINE
  5
126007
  8
HIDDEN
 10
6443.0
 20
-619.99999999999432
 30
0.0
 11
6557.0
 21
-619.99999999999432
 31
0.0
1001
ACDBBLOCKREPETAG
1070
     1
1071
        2
1005
126007
  0
LINE
  5
126008
  8
OBJECT
 10
6577.0
 20
-549.99999999999432
 30
0.0
 11
6577.0
 21
-570.99999999999432
 31
0.0
1001
ACDBBLOCKREPETAG
1070
     1
1071
        3
1005
126008
  0
LINE
  5
126009
  8
OBJECT
 10
6577.0
 20
-570.99999999999432
 30
0.0
 11
6423.0
 21
-570.99999999999432
 31
0.0
1001
ACDBBLOCKREPETAG
1070
     1
1071
        4
1005
126009
  0
LINE
  5
12600A
  8
CENTER
 10
6500.0
 20
-534.99999999999432
 30
0.0
 11
6500.0
 21
-769.9999999999942
 31
0.0
1001
ACDBBLOCKREPETAG
1070
     1
1071
        5
1005
12600A
  0
LINE
  5
12600B
  8
OBJECT
 10
6425.0
 20
-633.99999999999432
 30
0.0
 11
6425.0
 21
-757.9999999999942
 31
0.0
1001
ACDBBLOCKREPETAG
1070
     1
1071
        6
1005
12600B
  0
LINE
  5
12600C
  8
OBJECT
 10
6428.0
 20
-570.99999999999432
 30
0.0
 11
6428.0
 21
-633.99999999999432
 31
0.0
1001
ACDBBLOCKREPETAG
1070
     1
1071
        7
1005
12600C
  0
LINE
  5
12600D
  8
OBJECT
 10
6572.0
 20
-633.99999999999432
 30
0.0
 11
6572.0
 21
-570.99999999999432
 31
0.0
1001
ACDBBLOCKREPETAG
1070
     1
1071
        8
1005
12600D
  0
LINE
  5
12600E
  8
OBJECT
 10
6420.0
 20
-757.9999999999942
 30
0.0
 11
6580.0
 21
-757.9999999999942
 31
0.0
1001
ACDBBLOCKREPETAG
1070
     1
1071
        9
1005
12600E
  0
LINE
  5
12600F
  8
OBJECT
 10
6580.0
 20
-633.99999999999432
 30
0.0
 11
6425.0
 21
-633.99999999999432
 31
0.0
1001
ACDBBLOCKREPETAG
1070
     1
1071
       10
1005
12600F
  0
LINE
  5
126010
  8
OBJECT
 10
6420.0
 20
-757.9999999999942
 30
0.0
 11
6420.0
 21
-769.9999999999942
 31
0.0
1001
ACDBBLOCKREPETAG
1070
     1
1071
       11
1005
126010
  0
LINE
  5
126011
  8
OBJECT
 10
6420.0
 20
-769.9999999999942
 30
0.0
 11
6580.0
 21
-769.9999999999942
 31
0.0
1001
ACDBBLOCKREPETAG
1070
     1
1071
       12
1005
126011
  0
LINE
  5
126012
  8
OBJECT
 10
6580.0
 20
-769.9999999999942
 30
0.0
 11
6580.0
 21
-757.9999999999942
 31
0.0
1001
ACDBBLOCKREPETAG
1070
     1
1071
       13
1005
126012
  0
ARC
  5
126013
  8
OBJECT
 10
6700.6872746716717
 20
-749.40809941010195
 30
0.0
 40
170.6350503965856
 50
137.44134459184301
 51
149.91949581337221
1001
ACDBBLOCKREPETAG
1070
     1
1071
       15
1005
126013
  0
ARC
  5
126014
  8
OBJECT
 10
6618.8455987040506
 20
-705.88272669535922
 30
0.0
 40
78.072222021763665
 50
147.4551531037684
 51
164.66365997718671
1001
ACDBBLOCKREPETAG
1070
     1
1071
       16
1005
126014
  0
ARC
  5
126015
  8
OBJECT
 10
6585.7554349608727
 20
-695.99999999999432
 30
0.0
 40
43.55353926885617
 50
165.6884523008477
 51
194.3115476991523
1001
ACDBBLOCKREPETAG
1070
     1
1071
       17
1005
126015
  0
ARC
  5
126016
  8
OBJECT
 10
6700.6872746716717
 20
-642.59190058988645
 30
0.0
 40
170.6350503965856
 50
210.08050418662771
 51
222.55865540815699
1001
ACDBBLOCKREPETAG
1070
     1
1071
       18
1005
126016
  0
ARC
  5
126017
  8
OBJECT
 10
6618.8455987040506
 20
-686.11727330462952
 30
0.0
 40
78.072222021763665
 50
195.33634002281309
 51
212.5448468962316
1001
ACDBBLOCKREPETAG
1070
     1
1071
       19
1005
126017
  0
LINE
  5
126018
  8
OBJECT
 10
6633.0
 20
-634.0
 30
0.0
 11
6640.0
 21
-634.0
 31
0.0
1001
ACDBBLOCKREPETAG
1070
     1
1071
       45
1005
126018
  0
LINE
  5
126019
  8
OBJECT
 10
6640.0
 20
-634.0
 30
0.0
 11
6640.0
 21
-755.0
 31
0.0
1001
ACDBBLOCKREPETAG
1070
     1
1071
       46
1005
126019
  0
LINE
  5
12601A
  8
OBJECT
 10
6633.0
 20
-755.0
 30
0.0
 11
6633.0
 21
-634.0
 31
0.0
1001
ACDBBLOCKREPETAG
1070
     1
1071
       47
1005
12601A
  0
LINE
  5
12601B
  8
CENTER
 10
6655.0
 20
-696.0
 30
0.0
 11
6571.0
 21
-696.0
 31
0.0
1001
ACDBBLOCKREPETAG
1070
     1
1071
       48
1005
12601B
  0
LINE
  5
12601C
  8
OBJECT
 10
6633.0
 20
-637.0
 30
0.0
 11
6597.0
 21
-637.0
 31
0.0
1001
ACDBBLOCKREPETAG
1070
     1
1071
       49
1005
12601C
  0
LINE
  5
12601D
  8
OBJECT
 10
6597.0
 20
-637.0
 30
0.0
 11
6597.0
 21
-755.0
 31
0.0
1001
ACDBBLOCKREPETAG
1070
     1
1071
       50
1005
12601D
  0
LINE
  5
12601E
  8
OBJECT
 10
6597.0
 20
-755.0
 30
0.0
 11
6640.0
 21
-755.0
 31
0.0
1001
ACDBBLOCKREPETAG
1070
     1
1071
       51
1005
12601E
  0
LINE
  5
12601F
  8
OBJECT
 10
6593.0
 20
-641.5
 30
0.0
 11
6586.0
 21
-641.5
 31
0.0
1001
ACDBBLOCKREPETAG
1070
     1
1071
       52
1005
12601F
  0
LINE
  5
126020
  8
OBJECT
 10
6586.0
 20
-750.49999999999989
 30
0.0
 11
6593.0
 21
-750.49999999999989
 31
0.0
1001
ACDBBLOCKREPETAG
1070
     1
1071
       53
1005
126020
  0
LINE
  5
126021
  8
OBJECT
 10
6593.0
 20
-750.49999999999989
 30
0.0
 11
6593.0
 21
-641.5
 31
0.0
1001
ACDBBLOCKREPETAG
1070
     1
1071
       54
1005
126021
  0
LINE
  5
126022
  8
OBJECT
 10
6597.0
 20
-637.0
 30
0.0
 11
6593.0
 21
-641.5
 31
0.0
1001
ACDBBLOCKREPETAG
1070
     1
1071
       55
1005
126022
  0
LINE
  5
126023
  8
OBJECT
 10
6597.0
 20
-755.0
 30
0.0
 11
6593.0
 21
-750.49999999999989
 31
0.0
1001
ACDBBLOCKREPETAG
1070
     1
1071
       56
1005
126023
  0
LINE
  5
126024
  8
OBJECT
 10
6583.0
 20
-634.0
 30
0.0
 11
6580.0
 21
-634.0
 31
0.0
1001
ACDBBLOCKREPETAG
1070
     1
1071
       57
1005
126024
  0
ARC
  5
126025
  8
OBJECT
 10
6583.0
 20
-637.0
 30
0.0
 40
3.0
 50
0.0
 51
90.0
1001
ACDBBLOCKREPETAG
1070
     1
1071
       58
1005
126025
  0
LINE
  5
126026
  8
OBJECT
 10
6580.0
 20
-758.0
 30
0.0
 11
6583.0
 21
-758.0
 31
0.0
1001
ACDBBLOCKREPETAG
1070
     1
1071
       59
1005
126026
  0
ARC
  5
126027
  8
OBJECT
 10
6583.0
 20
-755.0
 30
0.0
 40
3.0
 50
270.0
 51
0.0
1001
ACDBBLOCKREPETAG
1070
     1
1071
       60
1005
126027
  0
LINE
  5
126028
  8
OBJECT
 10
6586.0
 20
-755.0
 30
0.0
 11
6586.0
 21
-637.0
 31
0.0
1001
ACDBBLOCKREPETAG
1070
     1
1071
       61
1005
126028
  0
LINE
  5
126029
  8
HIDDEN
 10
6588.0
 20
-651.5
 30
0.0
 11
6588.0
 21
-740.5
 31
0.0
1001
ACDBBLOCKREPETAG
1070
     1
1071
       63
1005
126029
  0
LINE
  5
12602A
  8
OBJECT
 10
4423.0
 20
-570.99999999999432
 30
0.0
 11
4423.0
 21
-549.99999999999432
 31
0.0
1001
ACDBBLOCKREPETAG
1070
     1
1071
        0
1005
12602A
  0
LINE
  5
12602B
  8
OBJECT
 10
4423.0
 20
-549.99999999999432
 30
0.0
 11
4577.0
 21
-549.99999999999432
 31
0.0
1001
ACDBBLOCKREPETAG
1070
     1
1071
        1
1005
12602B
  0
LINE
  5
12602C
  8
HIDDEN
 10
4443.0
 20
-619.99999999999432
 30
0.0
 11
4557.0
 21
-619.99999999999432
 31
0.0
1001
ACDBBLOCKREPETAG
1070
     1
1071
        2
1005
12602C
  0
LINE
  5
12602D
  8
OBJECT
 10
4577.0
 20
-549.99999999999432
 30
0.0
 11
4577.0
 21
-570.99999999999432
 31
0.0
1001
ACDBBLOCKREPETAG
1070
     1
1071
        3
1005
12602D
  0
LINE
  5
12602E
  8
OBJECT
 10
4577.0
 20
-570.99999999999432
 30
0.0
 11
4423.0
 21
-570.99999999999432
 31
0.0
1001
ACDBBLOCKREPETAG
1070
     1
1071
        4
1005
12602E
  0
LINE
  5
12602F
  8
CENTER
 10
4500.0
 20
-534.99999999999432
 30
0.0
 11
4500.0
 21
-769.9999999999942
 31
0.0
1001
ACDBBLOCKREPETAG
1070
     1
1071
        5
1005
12602F
  0
LINE
  5
126030
  8
OBJECT
 10
4425.0
 20
-633.99999999999432
 30
0.0
 11
4425.0
 21
-757.9999999999942
 31
0.0
1001
ACDBBLOCKREPETAG
1070
     1
1071
        6
1005
126030
  0
LINE
  5
126031
  8
OBJECT
 10
4428.0
 20
-570.99999999999432
 30
0.0
 11
4428.0
 21
-633.99999999999432
 31
0.0
1001
ACDBBLOCKREPETAG
1070
     1
1071
        7
1005
126031
  0
LINE
  5
126032
  8
OBJECT
 10
4572.0
 20
-633.99999999999432
 30
0.0
 11
4572.0
 21
-570.99999999999432
 31
0.0
1001
ACDBBLOCKREPETAG
1070
     1
1071
        8
1005
126032
  0
LINE
  5
126033
  8
OBJECT
 10
4420.0
 20
-757.9999999999942
 30
0.0
 11
4580.0
 21
-757.9999999999942
 31
0.0
1001
ACDBBLOCKREPETAG
1070
     1
1071
        9
1005
126033
  0
LINE
  5
126034
  8
OBJECT
 10
4580.0
 20
-633.99999999999432
 30
0.0
 11
4425.0
 21
-633.99999999999432
 31
0.0
1001
ACDBBLOCKREPETAG
1070
     1
1071
       10
1005
126034
  0
LINE
  5
126035
  8
OBJECT
 10
4420.0
 20
-757.9999999999942
 30
0.0
 11
4420.0
 21
-769.9999999999942
 31
0.0
1001
ACDBBLOCKREPETAG
1070
     1
1071
       11
1005
126035
  0
LINE
  5
126036
  8
OBJECT
 10
4420.0
 20
-769.9999999999942
 30
0.0
 11
4580.0
 21
-769.9999999999942
 31
0.0
1001
ACDBBLOCKREPETAG
1070
     1
1071
       12
1005
126036
  0
LINE
  5
126037
  8
OBJECT
 10
4580.0
 20
-769.9999999999942
 30
0.0
 11
4580.0
 21
-757.9999999999942
 31
0.0
1001
ACDBBLOCKREPETAG
1070
     1
1071
       13
1005
126037
  0
ARC
  5
126038
  8
OBJECT
 10
4700.6872746716726
 20
-749.40809941010195
 30
0.0
 40
170.6350503965856
 50
137.44134459184301
 51
149.91949581337221
1001
ACDBBLOCKREPETAG
1070
     1
1071
       15
1005
126038
  0
ARC
  5
126039
  8
OBJECT
 10
4618.8455987040506
 20
-705.88272669535922
 30
0.0
 40
78.072222021763665
 50
147.4551531037684
 51
164.66365997718671
1001
ACDBBLOCKREPETAG
1070
     1
1071
       16
1005
126039
  0
ARC
  5
12603A
  8
OBJECT
 10
4585.7554349608718
 20
-695.99999999999432
 30
0.0
 40
43.55353926885617
 50
165.6884523008477
 51
194.3115476991523
1001
ACDBBLOCKREPETAG
1070
     1
1071
       17
1005
12603A
  0
ARC
  5
12603B
  8
OBJECT
 10
4700.6872746716726
 20
-642.59190058988645
 30
0.0
 40
170.6350503965856
 50
210.08050418662771
 51
222.55865540815699
1001
ACDBBLOCKREPETAG
1070
     1
1071
       18
1005
12603B
  0
ARC
  5
12603C
  8
OBJECT
 10
4618.8455987040506
 20
-686.11727330462952
 30
0.0
 40
78.072222021763665
 50
195.33634002281309
 51
212.5448468962316
1001
ACDBBLOCKREPETAG
1070
     1
1071
       19
1005
12603C
  0
LINE
  5
12603D
  8
OBJECT
 10
4633.0
 20
-634.0
 30
0.0
 11
4640.0
 21
-634.0
 31
0.0
1001
ACDBBLOCKREPETAG
1070
     1
1071
       45
1005
12603D
  0
LINE
  5
12603E
  8
OBJECT
 10
4640.0
 20
-634.0
 30
0.0
 11
4640.0
 21
-755.0
 31
0.0
1001
ACDBBLOCKREPETAG
1070
     1
1071
       46
1005
12603E
  0
LINE
  5
12603F
  8
OBJECT
 10
4633.0
 20
-755.0
 30
0.0
 11
4633.0
 21
-634.0
 31
0.0
1001
ACDBBLOCKREPETAG
1070
     1
1071
       47
1005
12603F
  0
LINE
  5
126040
  8
CENTER
 10
4655.0
 20
-696.0
 30
0.0
 11
4571.0
 21
-696.0
 31
0.0
1001
ACDBBLOCKREPETAG
1070
     1
1071
       48
1005
126040
  0
LINE
  5
126041
  8
OBJECT
 10
4633.0
 20
-637.0
 30
0.0
 11
4597.0
 21
-637.0
 31
0.0
1001
ACDBBLOCKREPETAG
1070
     1
1071
       49
1005
126041
  0
LINE
  5
126042
  8
OBJECT
 10
4597.0
 20
-637.0
 30
0.0
 11
4597.0
 21
-755.0
 31
0.0
1001
ACDBBLOCKREPETAG
1070
     1
1071
       50
1005
126042
  0
LINE
  5
126043
  8
OBJECT
 10
4597.0
 20
-755.0
 30
0.0
 11
4640.0
 21
-755.0
 31
0.0
1001
ACDBBLOCKREPETAG
1070
     1
1071
       51
1005
126043
  0
LINE
  5
126044
  8
OBJECT
 10
4593.0
 20
-641.5
 30
0.0
 11
4586.0
 21
-641.5
 31
0.0
1001
ACDBBLOCKREPETAG
1070
     1
1071
       52
1005
126044
  0
LINE
  5
126045
  8
OBJECT
 10
4586.0
 20
-750.49999999999989
 30
0.0
 11
4593.0
 21
-750.49999999999989
 31
0.0
1001
ACDBBLOCKREPETAG
1070
     1
1071
       53
1005
126045
  0
LINE
  5
126046
  8
OBJECT
 10
4593.0
 20
-750.49999999999989
 30
0.0
 11
4593.0
 21
-641.5
 31
0.0
1001
ACDBBLOCKREPETAG
1070
     1
1071
       54
1005
126046
  0
LINE
  5
126047
  8
OBJECT
 10
4597.0
 20
-637.0
 30
0.0
 11
4593.0
 21
-641.5
 31
0.0
1001
ACDBBLOCKREPETAG
1070
     1
1071
       55
1005
126047
  0
LINE
  5
126048
  8
OBJECT
 10
4597.0
 20
-755.0
 30
0.0
 11
4593.0
 21
-750.49999999999989
 31
0.0
1001
ACDBBLOCKREPETAG
1070
     1
1071
       56
1005
126048
  0
LINE
  5
126049
  8
OBJECT
 10
4583.0
 20
-634.0
 30
0.0
 11
4580.0
 21
-634.0
 31
0.0
1001
ACDBBLOCKREPETAG
1070
     1
1071
       57
1005
126049
  0
ARC
  5
12604A
  8
OBJECT
 10
4583.0
 20
-637.0
 30
0.0
 40
3.0
 50
0.0
 51
90.0
1001
ACDBBLOCKREPETAG
1070
     1
1071
       58
1005
12604A
  0
LINE
  5
12604B
  8
OBJECT
 10
4580.0
 20
-758.0
 30
0.0
 11
4583.0
 21
-758.0
 31
0.0
1001
ACDBBLOCKREPETAG
1070
     1
1071
       59
1005
12604B
  0
ARC
  5
12604C
  8
OBJECT
 10
4583.0
 20
-755.0
 30
0.0
 40
3.0
 50
270.0
 51
0.0
1001
ACDBBLOCKREPETAG
1070
     1
1071
       60
1005
12604C
  0
LINE
  5
12604D
  8
OBJECT
 10
4586.0
 20
-755.0
 30
0.0
 11
4586.0
 21
-637.0
 31
0.0
1001
ACDBBLOCKREPETAG
1070
     1
1071
       61
1005
12604D
  0
LINE
  5
12604E
  8
HIDDEN
 10
4588.0
 20
-651.5
 30
0.0
 11
4588.0
 21
-740.5
 31
0.0
1001
ACDBBLOCKREPETAG
1070
     1
1071
       63
1005
12604E
  0
LINE
  5
12604F
  8
SLIM
 10
10414.999999999991
 20
-1032.2369265471771
 30
0.0
 11
10431.23692654717
 21
-1016.0
 31
0.0
1001
ACAD
1010
0.0
1020
0.0
1030
0.0
  0
LINE
  5
126050
  8
SLIM
 10
10414.999999999991
 20
-1050.197438789314
 30
0.0
 11
10449.19743878931
 21
-1016.0
 31
0.0
1001
ACAD
1010
0.0
1020
0.0
1030
0.0
  0
LINE
  5
126051
  8
SLIM
 10
10414.999999999991
 20
-1068.15795103145
 30
0.0
 11
10467.15795103144
 21
-1016.0
 31
0.0
1001
ACAD
1010
0.0
1020
0.0
1030
0.0
  0
LINE
  5
126052
  8
SLIM
 10
10414.999999999991
 20
-1086.1184632735881
 30
0.0
 11
10485.11846327358
 21
-1016.0
 31
0.0
1001
ACAD
1010
0.0
1020
0.0
1030
0.0
  0
LINE
  5
126053
  8
SLIM
 10
10415.0
 20
-1104.0789755157259
 30
0.0
 11
10503.07897551572
 21
-1016.0
 31
0.0
1001
ACAD
1010
0.0
1020
0.0
1030
0.0
  0
LINE
  5
126054
  8
SLIM
 10
10415.0
 20
-1122.0394877578631
 30
0.0
 11
10521.03948775786
 21
-1016.0
 31
0.0
1001
ACAD
1010
0.0
1020
0.0
1030
0.0
  0
LINE
  5
126055
  8
SLIM
 10
10415.283600749561
 20
-1139.716399250442
 30
0.0
 11
10539.0
 21
-1016.0
 31
0.0
1001
ACAD
1010
0.0
1020
0.0
1030
0.0
  0
LINE
  5
126056
  8
SLIM
 10
10417.49791047804
 20
-1155.4626017640981
 30
0.0
 11
10556.96051224214
 21
-1016.0
 31
0.0
1001
ACAD
1010
0.0
1020
0.0
1030
0.0
  0
LINE
  5
126057
  8
SLIM
 10
10419.71222020652
 20
-1171.208804277753
 30
0.0
 11
10574.921024484271
 21
-1016.0
 31
0.0
1001
ACAD
1010
0.0
1020
0.0
1030
0.0
  0
LINE
  5
126058
  8
SLIM
 10
10421.926529935001
 20
-1186.9550067914081
 30
0.0
 11
10585.000000000009
 21
-1023.8815367264079
 31
0.0
1001
ACAD
1010
0.0
1020
0.0
1030
0.0
  0
LINE
  5
126059
  8
SLIM
 10
10424.140839663491
 20
-1202.7012093050639
 30
0.0
 11
10585.0
 21
-1041.8420489685479
 31
0.0
1001
ACAD
1010
0.0
1020
0.0
1030
0.0
  0
LINE
  5
12605A
  8
SLIM
 10
10426.355149391969
 20
-1218.447411818719
 30
0.0
 11
10585.0
 21
-1059.802561210686
 31
0.0
1001
ACAD
1010
0.0
1020
0.0
1030
0.0
  0
LINE
  5
12605B
  8
SLIM
 10
10428.56945912045
 20
-1234.193614332374
 30
0.0
 11
10585.0
 21
-1077.7630734528259
 31
0.0
1001
ACAD
1010
0.0
1020
0.0
1030
0.0
  0
LINE
  5
12605C
  8
SLIM
 10
10430.78376884894
 20
-1249.93981684603
 30
0.0
 11
10585.0
 21
-1095.723585694966
 31
0.0
1001
ACAD
1010
0.0
1020
0.0
1030
0.0
  0
LINE
  5
12605D
  8
SLIM
 10
10432.998078577421
 20
-1265.6860193596849
 30
0.0
 11
10585.0
 21
-1113.684097937105
 31
0.0
1001
ACAD
1010
0.0
1020
0.0
1030
0.0
  0
LINE
  5
12605E
  8
SLIM
 10
10432.999999999991
 20
-1283.6446101792519
 30
0.0
 11
10585.0
 21
-1131.6446101792451
 31
0.0
1001
ACAD
1010
0.0
1020
0.0
1030
0.0
  0
LINE
  5
12605F
  8
SLIM
 10
10432.999999999991
 20
-1301.60512242139
 30
0.0
 11
10583.05183715436
 21
-1151.553285267016
 31
0.0
1001
ACAD
1010
0.0
1020
0.0
1030
0.0
  0
LINE
  5
126060
  8
SLIM
 10
10446.565634663521
 20
-1305.999999999997
 30
0.0
 11
10580.112844242019
 21
-1172.452790421504
 31
0.0
1001
ACAD
1010
0.0
1020
0.0
1030
0.0
  0
LINE
  5
126061
  8
SLIM
 10
10464.52614690566
 20
-1305.999999999998
 30
0.0
 11
10577.17385132967
 21
-1193.352295575992
 31
0.0
1001
ACAD
1010
0.0
1020
0.0
1030
0.0
  0
LINE
  5
126062
  8
SLIM
 10
10482.4866591478
 20
-1305.999999999998
 30
0.0
 11
10574.23485841732
 21
-1214.2518007304791
 31
0.0
1001
ACAD
1010
0.0
1020
0.0
1030
0.0
  0
LINE
  5
126063
  8
SLIM
 10
10500.44717138994
 20
-1305.999999999998
 30
0.0
 11
10571.29586550497
 21
-1235.1513058849671
 31
0.0
1001
ACAD
1010
0.0
1020
0.0
1030
0.0
  0
LINE
  5
126064
  8
SLIM
 10
10518.40768363206
 20
-1305.9999999999991
 30
0.0
 11
10568.35687259262
 21
-1256.0508110394539
 31
0.0
1001
ACAD
1010
0.0
1020
0.0
1030
0.0
  0
LINE
  5
126065
  8
SLIM
 10
10536.368195874211
 20
-1305.9999999999991
 30
0.0
 11
10567.000000000009
 21
-1275.368195874202
 31
0.0
1001
ACAD
1010
0.0
1020
0.0
1030
0.0
  0
LINE
  5
126066
  8
SLIM
 10
10554.328708116351
 20
-1306.0
 30
0.0
 11
10567.000000000009
 21
-1293.328708116341
 31
0.0
1001
ACAD
1010
0.0
1020
0.0
1030
0.0
  0
LINE
  5
126067
  8
OBJECT
 10
10432.999999999991
 20
-1305.999999999997
 30
0.0
 11
10567.000000000009
 21
-1306.0
 31
0.0
1001
ACDBBLOCKREPETAG
1070
     1
1071
        1
1005
126067
  0
LINE
  5
126068
  8
OBJECT
 10
10414.999999999991
 20
-1016.0
 30
0.0
 11
10415.0
 21
-1137.6996828091419
 31
0.0
1001
ACDBBLOCKREPETAG
1070
     1
1071
        2
1005
126068
  0
LINE
  5
126069
  8
OBJECT
 10
10585.000000000009
 20
-1016.0
 30
0.0
 11
10585.0
 21
-1137.6996828091731
 31
0.0
1001
ACDBBLOCKREPETAG
1070
     1
1071
        3
1005
126069
  0
LINE
  5
12606A
  8
OBJECT
 10
10415.0
 20
-1137.6996828091419
 30
0.0
 11
10432.999999999991
 21
-1265.6996828090821
 31
0.0
1001
ACDBBLOCKREPETAG
1070
     1
1071
        4
1005
12606A
  0
LINE
  5
12606B
  8
OBJECT
 10
10567.000000000009
 20
-1265.6996828091289
 30
0.0
 11
10585.0
 21
-1137.6996828091731
 31
0.0
1001
ACDBBLOCKREPETAG
1070
     1
1071
        5
1005
12606B
  0
LINE
  5
12606C
  8
OBJECT
 10
10585.000000000009
 20
-1016.0
 30
0.0
 11
10414.999999999991
 21
-1016.0
 31
0.0
1001
ACDBBLOCKREPETAG
1070
     1
1071
        6
1005
12606C
  0
LINE
  5
12606D
  8
OBJECT
 10
10432.999999999991
 20
-1265.6996828090821
 30
0.0
 11
10432.999999999991
 21
-1305.999999999997
 31
0.0
1001
ACDBBLOCKREPETAG
1070
     1
1071
        8
1005
12606D
  0
LINE
  5
12606E
  8
OBJECT
 10
10567.000000000009
 20
-1265.6996828091289
 30
0.0
 11
10567.000000000009
 21
-1306.0
 31
0.0
1001
ACDBBLOCKREPETAG
1070
     1
1071
        9
1005
12606E
  0
LINE
  5
12606F
  8
SLIM
 10
8414.9999999999909
 20
-1032.2369265471759
 30
0.0
 11
8431.2369265471698
 21
-1015.999999999999
 31
0.0
1001
GRADIENTCOLOR1ACI
1070
     5
1001
GRADIENTCOLOR2ACI
1070
     2
1001
ACAD
1010
0.0
1020
0.0
1030
0.0
  0
LINE
  5
126070
  8
SLIM
 10
8414.9999999999945
 20
-1050.1974387893131
 30
0.0
 11
8449.1974387893097
 21
-1015.999999999999
 31
0.0
1001
GRADIENTCOLOR1ACI
1070
     5
1001
GRADIENTCOLOR2ACI
1070
     2
1001
ACAD
1010
0.0
1020
0.0
1030
0.0
  0
LINE
  5
126071
  8
SLIM
 10
8414.9999999999964
 20
-1068.15795103145
 30
0.0
 11
8467.1579510314441
 21
-1015.999999999999
 31
0.0
1001
GRADIENTCOLOR1ACI
1070
     5
1001
GRADIENTCOLOR2ACI
1070
     2
1001
ACAD
1010
0.0
1020
0.0
1030
0.0
  0
LINE
  5
126072
  8
SLIM
 10
8414.9999999999964
 20
-1086.1184632735881
 30
0.0
 11
8485.1184632735858
 21
-1015.999999999999
 31
0.0
1001
GRADIENTCOLOR1ACI
1070
     5
1001
GRADIENTCOLOR2ACI
1070
     2
1001
ACAD
1010
0.0
1020
0.0
1030
0.0
  0
LINE
  5
126073
  8
SLIM
 10
8414.9999999999964
 20
-1104.078975515725
 30
0.0
 11
8503.0789755157257
 21
-1015.999999999999
 31
0.0
1001
GRADIENTCOLOR1ACI
1070
     5
1001
GRADIENTCOLOR2ACI
1070
     2
1001
ACAD
1010
0.0
1020
0.0
1030
0.0
  0
LINE
  5
126074
  8
SLIM
 10
8414.9999999999964
 20
-1122.0394877578619
 30
0.0
 11
8521.0394877578619
 21
-1015.999999999999
 31
0.0
1001
GRADIENTCOLOR1ACI
1070
     5
1001
GRADIENTCOLOR2ACI
1070
     2
1001
ACAD
1010
0.0
1020
0.0
1030
0.0
  0
LINE
  5
126075
  8
SLIM
 10
8415.2836007495571
 20
-1139.7163992504411
 30
0.0
 11
8539.0
 21
-1015.999999999999
 31
0.0
1001
GRADIENTCOLOR1ACI
1070
     5
1001
GRADIENTCOLOR2ACI
1070
     2
1001
ACAD
1010
0.0
1020
0.0
1030
0.0
  0
LINE
  5
126076
  8
SLIM
 10
8417.4979104780377
 20
-1155.462601764096
 30
0.0
 11
8556.9605122421381
 21
-1015.999999999999
 31
0.0
1001
GRADIENTCOLOR1ACI
1070
     5
1001
GRADIENTCOLOR2ACI
1070
     2
1001
ACAD
1010
0.0
1020
0.0
1030
0.0
  0
LINE
  5
126077
  8
SLIM
 10
8419.7122202065257
 20
-1171.208804277753
 30
0.0
 11
8574.9210244842725
 21
-1015.999999999999
 31
0.0
1001
GRADIENTCOLOR1ACI
1070
     5
1001
GRADIENTCOLOR2ACI
1070
     2
1001
ACAD
1010
0.0
1020
0.0
1030
0.0
  0
LINE
  5
126078
  8
SLIM
 10
8421.9265299350063
 20
-1186.955006791409
 30
0.0
 11
8585.0000000000055
 21
-1023.8815367264079
 31
0.0
1001
GRADIENTCOLOR1ACI
1070
     5
1001
GRADIENTCOLOR2ACI
1070
     2
1001
ACAD
1010
0.0
1020
0.0
1030
0.0
  0
LINE
  5
126079
  8
SLIM
 10
8424.1408396634924
 20
-1202.7012093050639
 30
0.0
 11
8585.0000000000055
 21
-1041.842048968547
 31
0.0
1001
GRADIENTCOLOR1ACI
1070
     5
1001
GRADIENTCOLOR2ACI
1070
     2
1001
ACAD
1010
0.0
1020
0.0
1030
0.0
  0
LINE
  5
12607A
  8
SLIM
 10
8426.3551493919713
 20
-1218.44741181872
 30
0.0
 11
8585.0000000000055
 21
-1059.802561210686
 31
0.0
1001
GRADIENTCOLOR1ACI
1070
     5
1001
GRADIENTCOLOR2ACI
1070
     2
1001
ACAD
1010
0.0
1020
0.0
1030
0.0
  0
LINE
  5
12607B
  8
SLIM
 10
8428.5694591204538
 20
-1234.193614332376
 30
0.0
 11
8585.0000000000018
 21
-1077.7630734528259
 31
0.0
1001
GRADIENTCOLOR1ACI
1070
     5
1001
GRADIENTCOLOR2ACI
1070
     2
1001
ACAD
1010
0.0
1020
0.0
1030
0.0
  0
LINE
  5
12607C
  8
SLIM
 10
8430.7837688489362
 20
-1249.939816846032
 30
0.0
 11
8585.0000000000018
 21
-1095.7235856949651
 31
0.0
1001
GRADIENTCOLOR1ACI
1070
     5
1001
GRADIENTCOLOR2ACI
1070
     2
1001
ACAD
1010
0.0
1020
0.0
1030
0.0
  0
LINE
  5
12607D
  8
SLIM
 10
8432.9980785774169
 20
-1265.686019359687
 30
0.0
 11
8585.0000000000018
 21
-1113.6840979371041
 31
0.0
1001
GRADIENTCOLOR1ACI
1070
     5
1001
GRADIENTCOLOR2ACI
1070
     2
1001
ACAD
1010
0.0
1020
0.0
1030
0.0
  0
LINE
  5
12607E
  8
SLIM
 10
8443.0
 20
-1273.644610179244
 30
0.0
 11
8450.6446101792462
 21
-1266.0
 31
0.0
1001
GRADIENTCOLOR1ACI
1070
     5
1001
GRADIENTCOLOR2ACI
1070
     2
1001
ACAD
1010
0.0
1020
0.0
1030
0.0
  0
LINE
  5
12607F
  8
SLIM
 10
8450.6446101792462
 20
-1266.0
 30
0.0
 11
8585.0
 21
-1131.644610179244
 31
0.0
1001
GRADIENTCOLOR1ACI
1070
     5
1001
GRADIENTCOLOR2ACI
1070
     2
1001
ACAD
1010
0.0
1020
0.0
1030
0.0
  0
LINE
  5
126080
  8
SLIM
 10
8444.6051224213843
 20
-1289.9999999999991
 30
0.0
 11
8468.6051224213825
 21
-1266.0
 31
0.0
1001
GRADIENTCOLOR1ACI
1070
     5
1001
GRADIENTCOLOR2ACI
1070
     2
1001
ACAD
1010
0.0
1020
0.0
1030
0.0
  0
LINE
  5
126081
  8
SLIM
 10
8468.6051224213825
 20
-1266.0
 30
0.0
 11
8583.0518371543658
 21
-1151.553285267016
 31
0.0
1001
GRADIENTCOLOR1ACI
1070
     5
1001
GRADIENTCOLOR2ACI
1070
     2
1001
ACAD
1010
0.0
1020
0.0
1030
0.0
  0
LINE
  5
126082
  8
SLIM
 10
8462.5656346635205
 20
-1289.9999999999991
 30
0.0
 11
8486.5656346635205
 21
-1266.0
 31
0.0
1001
GRADIENTCOLOR1ACI
1070
     5
1001
GRADIENTCOLOR2ACI
1070
     2
1001
ACAD
1010
0.0
1020
0.0
1030
0.0
  0
LINE
  5
126083
  8
SLIM
 10
8486.5656346635205
 20
-1266.0
 30
0.0
 11
8580.1128442420159
 21
-1172.4527904215049
 31
0.0
1001
GRADIENTCOLOR1ACI
1070
     5
1001
GRADIENTCOLOR2ACI
1070
     2
1001
ACAD
1010
0.0
1020
0.0
1030
0.0
  0
LINE
  5
126084
  8
SLIM
 10
8480.5261469056604
 20
-1289.9999999999991
 30
0.0
 11
8504.5261469056604
 21
-1266.0
 31
0.0
1001
GRADIENTCOLOR1ACI
1070
     5
1001
GRADIENTCOLOR2ACI
1070
     2
1001
ACAD
1010
0.0
1020
0.0
1030
0.0
  0
LINE
  5
126085
  8
SLIM
 10
8504.5261469056604
 20
-1266.0
 30
0.0
 11
8577.1738513296659
 21
-1193.352295575992
 31
0.0
1001
GRADIENTCOLOR1ACI
1070
     5
1001
GRADIENTCOLOR2ACI
1070
     2
1001
ACAD
1010
0.0
1020
0.0
1030
0.0
  0
LINE
  5
126086
  8
SLIM
 10
8498.4866591477985
 20
-1289.9999999999991
 30
0.0
 11
8522.4866591478003
 21
-1266.0
 31
0.0
1001
GRADIENTCOLOR1ACI
1070
     5
1001
GRADIENTCOLOR2ACI
1070
     2
1001
ACAD
1010
0.0
1020
0.0
1030
0.0
  0
LINE
  5
126087
  8
SLIM
 10
8522.4866591478003
 20
-1266.0
 30
0.0
 11
8574.234858417316
 21
-1214.2518007304809
 31
0.0
1001
GRADIENTCOLOR1ACI
1070
     5
1001
GRADIENTCOLOR2ACI
1070
     2
1001
ACAD
1010
0.0
1020
0.0
1030
0.0
  0
LINE
  5
126088
  8
SLIM
 10
8516.4471713899384
 20
-1289.9999999999991
 30
0.0
 11
8540.4471713899366
 21
-1266.0
 31
0.0
1001
GRADIENTCOLOR1ACI
1070
     5
1001
GRADIENTCOLOR2ACI
1070
     2
1001
ACAD
1010
0.0
1020
0.0
1030
0.0
  0
LINE
  5
126089
  8
SLIM
 10
8540.4471713899366
 20
-1266.0
 30
0.0
 11
8571.2958655049661
 21
-1235.1513058849689
 31
0.0
1001
GRADIENTCOLOR1ACI
1070
     5
1001
GRADIENTCOLOR2ACI
1070
     2
1001
ACAD
1010
0.0
1020
0.0
1030
0.0
  0
LINE
  5
12608A
  8
SLIM
 10
8534.4076836320746
 20
-1289.9999999999991
 30
0.0
 11
8557.0
 21
-1267.4076836320739
 31
0.0
1001
GRADIENTCOLOR1ACI
1070
     5
1001
GRADIENTCOLOR2ACI
1070
     2
1001
ACAD
1010
0.0
1020
0.0
1030
0.0
  0
LINE
  5
12608B
  8
SLIM
 10
8558.4076836320746
 20
-1266.0
 30
0.0
 11
8568.3568725926179
 21
-1256.0508110394569
 31
0.0
1001
GRADIENTCOLOR1ACI
1070
     5
1001
GRADIENTCOLOR2ACI
1070
     2
1001
ACAD
1010
0.0
1020
0.0
1030
0.0
  0
LINE
  5
12608C
  8
SLIM
 10
8552.3681958742145
 20
-1289.9999999999991
 30
0.0
 11
8557.0
 21
-1285.368195874212
 31
0.0
1001
GRADIENTCOLOR1ACI
1070
     5
1001
GRADIENTCOLOR2ACI
1070
     2
1001
ACAD
1010
0.0
1020
0.0
1030
0.0
  0
LINE
  5
12608D
  8
OBJECT
 10
8443.0
 20
-1289.9999999999991
 30
0.0
 11
8557.0
 21
-1289.9999999999991
 31
0.0
1001
ACDBBLOCKREPETAG
1070
     1
1071
        1
1005
0
  0
LINE
  5
12608E
  8
OBJECT
 10
8433.0422321049627
 20
-1266.0
 30
0.0
 11
8566.9577678950409
 21
-1266.0
 31
0.0
1001
ACDBBLOCKREPETAG
1070
     1
1071
        2
1005
0
  0
LINE
  5
12608F
  8
OBJECT
 10
8443.0
 20
-1289.9999999999991
 30
0.0
 11
8443.0
 21
-1266.0
 31
0.0
1001
ACDBBLOCKREPETAG
1070
     1
1071
        3
1005
0
  0
LINE
  5
126090
  8
OBJECT
 10
8557.0
 20
-1289.9999999999991
 30
0.0
 11
8557.0
 21
-1266.0
 31
0.0
1001
ACDBBLOCKREPETAG
1070
     1
1071
        4
1005
0
  0
LINE
  5
126091
  8
OBJECT
 10
8414.9999999999909
 20
-1015.999999999999
 30
0.0
 11
8415.0
 21
-1137.699682809143
 31
0.0
1001
ACDBBLOCKREPETAG
1070
     1
1071
        5
1005
0
  0
LINE
  5
126092
  8
OBJECT
 10
8585.0000000000055
 20
-1015.999999999999
 30
0.0
 11
8585.0
 21
-1137.6996828091719
 31
0.0
1001
ACDBBLOCKREPETAG
1070
     1
1071
        6
1005
0
  0
LINE
  5
126093
  8
OBJECT
 10
8415.0
 20
-1137.699682809143
 30
0.0
 11
8433.0422321049627
 21
-1266.0
 31
0.0
1001
ACDBBLOCKREPETAG
1070
     1
1071
        7
1005
0
  0
LINE
  5
126094
  8
OBJECT
 10
8566.9577678950409
 20
-1266.0
 30
0.0
 11
8585.0
 21
-1137.6996828091719
 31
0.0
1001
ACDBBLOCKREPETAG
1070
     1
1071
        8
1005
0
  0
LINE
  5
126095
  8
OBJECT
 10
8585.0000000000055
 20
-1015.999999999999
 30
0.0
 11
8414.9999999999909
 21
-1015.999999999999
 31
0.0
1001
ACDBBLOCKREPETAG
1070
     1
1071
        9
1005
0
  0
LINE
  5
126096
  8
SLIM
 10
12414.999999999991
 20
-1032.2369265471771
 30
0.0
 11
12431.23692654717
 21
-1016.0
 31
0.0
1001
ACAD
1010
0.0
1020
0.0
1030
0.0
  0
LINE
  5
126097
  8
SLIM
 10
12414.999999999991
 20
-1050.197438789314
 30
0.0
 11
12449.19743878931
 21
-1016.0
 31
0.0
1001
ACAD
1010
0.0
1020
0.0
1030
0.0
  0
LINE
  5
126098
  8
SLIM
 10
12414.999999999991
 20
-1068.15795103145
 30
0.0
 11
12467.15795103144
 21
-1016.0
 31
0.0
1001
ACAD
1010
0.0
1020
0.0
1030
0.0
  0
LINE
  5
126099
  8
SLIM
 10
12414.999999999991
 20
-1086.1184632735881
 30
0.0
 11
12485.11846327358
 21
-1016.0
 31
0.0
1001
ACAD
1010
0.0
1020
0.0
1030
0.0
  0
LINE
  5
12609A
  8
SLIM
 10
12415.0
 20
-1104.0789755157259
 30
0.0
 11
12503.07897551572
 21
-1016.0
 31
0.0
1001
ACAD
1010
0.0
1020
0.0
1030
0.0
  0
LINE
  5
12609B
  8
SLIM
 10
12415.0
 20
-1122.0394877578631
 30
0.0
 11
12521.03948775786
 21
-1016.0
 31
0.0
1001
ACAD
1010
0.0
1020
0.0
1030
0.0
  0
LINE
  5
12609C
  8
SLIM
 10
12415.283600749561
 20
-1139.716399250442
 30
0.0
 11
12539.0
 21
-1016.0
 31
0.0
1001
ACAD
1010
0.0
1020
0.0
1030
0.0
  0
LINE
  5
12609D
  8
SLIM
 10
12417.49791047804
 20
-1155.4626017640981
 30
0.0
 11
12556.96051224214
 21
-1016.0
 31
0.0
1001
ACAD
1010
0.0
1020
0.0
1030
0.0
  0
LINE
  5
12609E
  8
SLIM
 10
12419.71222020652
 20
-1171.208804277753
 30
0.0
 11
12574.921024484271
 21
-1016.0
 31
0.0
1001
ACAD
1010
0.0
1020
0.0
1030
0.0
  0
LINE
  5
12609F
  8
SLIM
 10
12421.92652993501
 20
-1186.9550067914081
 30
0.0
 11
12585.000000000009
 21
-1023.8815367264079
 31
0.0
1001
ACAD
1010
0.0
1020
0.0
1030
0.0
  0
LINE
  5
1260A0
  8
SLIM
 10
12424.140839663491
 20
-1202.7012093050639
 30
0.0
 11
12585.0
 21
-1041.8420489685479
 31
0.0
1001
ACAD
1010
0.0
1020
0.0
1030
0.0
  0
LINE
  5
1260A1
  8
SLIM
 10
12426.35514939196
 20
-1218.447411818719
 30
0.0
 11
12585.0
 21
-1059.802561210686
 31
0.0
1001
ACAD
1010
0.0
1020
0.0
1030
0.0
  0
LINE
  5
1260A2
  8
SLIM
 10
12428.56945912045
 20
-1234.193614332374
 30
0.0
 11
12585.0
 21
-1077.7630734528259
 31
0.0
1001
ACAD
1010
0.0
1020
0.0
1030
0.0
  0
LINE
  5
1260A3
  8
SLIM
 10
12430.78376884894
 20
-1249.93981684603
 30
0.0
 11
12585.0
 21
-1095.723585694966
 31
0.0
1001
ACAD
1010
0.0
1020
0.0
1030
0.0
  0
LINE
  5
1260A4
  8
SLIM
 10
12432.998078577421
 20
-1265.6860193596849
 30
0.0
 11
12585.0
 21
-1113.684097937105
 31
0.0
1001
ACAD
1010
0.0
1020
0.0
1030
0.0
  0
LINE
  5
1260A5
  8
SLIM
 10
12432.999999999991
 20
-1283.6446101792519
 30
0.0
 11
12585.0
 21
-1131.6446101792451
 31
0.0
1001
ACAD
1010
0.0
1020
0.0
1030
0.0
  0
LINE
  5
1260A6
  8
SLIM
 10
12432.999999999991
 20
-1301.60512242139
 30
0.0
 11
12583.05183715436
 21
-1151.553285267016
 31
0.0
1001
ACAD
1010
0.0
1020
0.0
1030
0.0
  0
LINE
  5
1260A7
  8
SLIM
 10
12446.565634663521
 20
-1305.999999999997
 30
0.0
 11
12580.11284424201
 21
-1172.452790421504
 31
0.0
1001
ACAD
1010
0.0
1020
0.0
1030
0.0
  0
LINE
  5
1260A8
  8
SLIM
 10
12464.52614690566
 20
-1305.999999999998
 30
0.0
 11
12577.17385132967
 21
-1193.352295575992
 31
0.0
1001
ACAD
1010
0.0
1020
0.0
1030
0.0
  0
LINE
  5
1260A9
  8
SLIM
 10
12482.4866591478
 20
-1305.999999999998
 30
0.0
 11
12574.23485841732
 21
-1214.2518007304791
 31
0.0
1001
ACAD
1010
0.0
1020
0.0
1030
0.0
  0
LINE
  5
1260AA
  8
SLIM
 10
12500.44717138994
 20
-1305.999999999998
 30
0.0
 11
12571.29586550497
 21
-1235.1513058849671
 31
0.0
1001
ACAD
1010
0.0
1020
0.0
1030
0.0
  0
LINE
  5
1260AB
  8
SLIM
 10
12518.40768363208
 20
-1305.9999999999991
 30
0.0
 11
12568.35687259262
 21
-1256.0508110394539
 31
0.0
1001
ACAD
1010
0.0
1020
0.0
1030
0.0
  0
LINE
  5
1260AC
  8
SLIM
 10
12536.368195874211
 20
-1305.9999999999991
 30
0.0
 11
12567.000000000009
 21
-1275.368195874202
 31
0.0
1001
ACAD
1010
0.0
1020
0.0
1030
0.0
  0
LINE
  5
1260AD
  8
SLIM
 10
12554.328708116351
 20
-1306.0
 30
0.0
 11
12567.000000000009
 21
-1293.328708116341
 31
0.0
1001
ACAD
1010
0.0
1020
0.0
1030
0.0
  0
LINE
  5
1260AE
  8
OBJECT
 10
12432.999999999991
 20
-1305.999999999997
 30
0.0
 11
12567.000000000009
 21
-1306.0
 31
0.0
1001
ACDBBLOCKREPETAG
1070
     1
1071
        1
1005
1260AE
  0
LINE
  5
1260AF
  8
OBJECT
 10
12414.999999999991
 20
-1016.0
 30
0.0
 11
12415.0
 21
-1137.6996828091419
 31
0.0
1001
ACDBBLOCKREPETAG
1070
     1
1071
        2
1005
1260AF
  0
LINE
  5
1260B0
  8
OBJECT
 10
12585.000000000009
 20
-1016.0
 30
0.0
 11
12585.0
 21
-1137.6996828091731
 31
0.0
1001
ACDBBLOCKREPETAG
1070
     1
1071
        3
1005
1260B0
  0
LINE
  5
1260B1
  8
OBJECT
 10
12415.0
 20
-1137.6996828091419
 30
0.0
 11
12432.999999999991
 21
-1265.6996828090821
 31
0.0
1001
ACDBBLOCKREPETAG
1070
     1
1071
        4
1005
1260B1
  0
LINE
  5
1260B2
  8
OBJECT
 10
12567.000000000009
 20
-1265.6996828091289
 30
0.0
 11
12585.0
 21
-1137.6996828091731
 31
0.0
1001
ACDBBLOCKREPETAG
1070
     1
1071
        5
1005
1260B2
  0
LINE
  5
1260B3
  8
OBJECT
 10
12585.000000000009
 20
-1016.0
 30
0.0
 11
12414.999999999991
 21
-1016.0
 31
0.0
1001
ACDBBLOCKREPETAG
1070
     1
1071
        6
1005
1260B3
  0
LINE
  5
1260B4
  8
OBJECT
 10
12432.999999999991
 20
-1265.6996828090821
 30
0.0
 11
12432.999999999991
 21
-1305.999999999997
 31
0.0
1001
ACDBBLOCKREPETAG
1070
     1
1071
        8
1005
1260B4
  0
LINE
  5
1260B5
  8
OBJECT
 10
12567.000000000009
 20
-1265.6996828091289
 30
0.0
 11
12567.000000000009
 21
-1306.0
 31
0.0
1001
ACDBBLOCKREPETAG
1070
     1
1071
        9
1005
1260B5
  0
TEXT
  5
1260B6
  8
SLIM
 10
97.714285714225255
 20
-1707.9999999996919
 30
0.0
 40
48.0
  1
A0030
 41
0.75
1001
ACDBBLOCKREPETAG
1070
     1
1071
      119
1005
0
  0
TEXT
  5
1260B7
  8
SLIM
 10
457.71428571410331
 20
-1243.9999999998499
 30
0.0
 40
48.0
  1
A0020
 41
0.75
1001
ACDBBLOCKREPETAG
1070
     1
1071
      119
1005
0
  0
TEXT
  5
1260B8
  8
SLIM
 10
101.1428571427967
 20
-1243.9999999998499
 30
0.0
 40
48.0
  1
A0010
 41
0.75
1001
ACDBBLOCKREPETAG
1070
     1
1071
      119
1005
0
  0
LINE
  5
1260B9
  8
OBJECT
 10
2423.0
 20
-570.99999999999432
 30
0.0
 11
2423.0
 21
-549.99999999999432
 31
0.0
1001
ACDBBLOCKREPETAG
1070
     1
1071
        0
1005
1260B9
  0
LINE
  5
1260BA
  8
OBJECT
 10
2423.0
 20
-549.99999999999432
 30
0.0
 11
2577.0
 21
-549.99999999999432
 31
0.0
1001
ACDBBLOCKREPETAG
1070
     1
1071
        1
1005
1260BA
  0
LINE
  5
1260BB
  8
HIDDEN
 10
2443.0
 20
-619.99999999999432
 30
0.0
 11
2557.0
 21
-619.99999999999432
 31
0.0
1001
ACDBBLOCKREPETAG
1070
     1
1071
        2
1005
1260BB
  0
LINE
  5
1260BC
  8
OBJECT
 10
2577.0
 20
-549.99999999999432
 30
0.0
 11
2577.0
 21
-570.99999999999432
 31
0.0
1001
ACDBBLOCKREPETAG
1070
     1
1071
        3
1005
1260BC
  0
LINE
  5
1260BD
  8
OBJECT
 10
2577.0
 20
-570.99999999999432
 30
0.0
 11
2423.0
 21
-570.99999999999432
 31
0.0
1001
ACDBBLOCKREPETAG
1070
     1
1071
        4
1005
1260BD
  0
LINE
  5
1260BE
  8
CENTER
 10
2500.0
 20
-534.99999999999432
 30
0.0
 11
2500.0
 21
-769.9999999999942
 31
0.0
1001
ACDBBLOCKREPETAG
1070
     1
1071
        5
1005
1260BE
  0
LINE
  5
1260BF
  8
OBJECT
 10
2425.0
 20
-633.99999999999432
 30
0.0
 11
2425.0
 21
-757.9999999999942
 31
0.0
1001
ACDBBLOCKREPETAG
1070
     1
1071
        6
1005
1260BF
  0
LINE
  5
1260C0
  8
OBJECT
 10
2428.0
 20
-570.99999999999432
 30
0.0
 11
2428.0
 21
-633.99999999999432
 31
0.0
1001
ACDBBLOCKREPETAG
1070
     1
1071
        7
1005
1260C0
  0
LINE
  5
1260C1
  8
OBJECT
 10
2572.0
 20
-633.99999999999432
 30
0.0
 11
2572.0
 21
-570.99999999999432
 31
0.0
1001
ACDBBLOCKREPETAG
1070
     1
1071
        8
1005
1260C1
  0
LINE
  5
1260C2
  8
OBJECT
 10
2420.0
 20
-757.9999999999942
 30
0.0
 11
2580.0
 21
-757.9999999999942
 31
0.0
1001
ACDBBLOCKREPETAG
1070
     1
1071
        9
1005
1260C2
  0
LINE
  5
1260C3
  8
OBJECT
 10
2580.0
 20
-633.99999999999432
 30
0.0
 11
2425.0
 21
-633.99999999999432
 31
0.0
1001
ACDBBLOCKREPETAG
1070
     1
1071
       10
1005
1260C3
  0
LINE
  5
1260C4
  8
OBJECT
 10
2420.0
 20
-757.9999999999942
 30
0.0
 11
2420.0
 21
-769.9999999999942
 31
0.0
1001
ACDBBLOCKREPETAG
1070
     1
1071
       11
1005
1260C4
  0
LINE
  5
1260C5
  8
OBJECT
 10
2420.0
 20
-769.9999999999942
 30
0.0
 11
2580.0
 21
-769.9999999999942
 31
0.0
1001
ACDBBLOCKREPETAG
1070
     1
1071
       12
1005
1260C5
  0
LINE
  5
1260C6
  8
OBJECT
 10
2580.0
 20
-769.9999999999942
 30
0.0
 11
2580.0
 21
-757.9999999999942
 31
0.0
1001
ACDBBLOCKREPETAG
1070
     1
1071
       13
1005
1260C6
  0
ARC
  5
1260C7
  8
OBJECT
 10
2700.6872746716731
 20
-749.40809941010195
 30
0.0
 40
170.6350503965856
 50
137.44134459184301
 51
149.91949581337221
1001
ACDBBLOCKREPETAG
1070
     1
1071
       15
1005
1260C7
  0
ARC
  5
1260C8
  8
OBJECT
 10
2618.8455987040511
 20
-705.88272669535922
 30
0.0
 40
78.072222021763665
 50
147.4551531037684
 51
164.6636599771798
1001
ACDBBLOCKREPETAG
1070
     1
1071
       16
1005
1260C8
  0
ARC
  5
1260C9
  8
OBJECT
 10
2585.7554349608731
 20
-695.99999999999432
 30
0.0
 40
43.55353926885617
 50
165.6884523008477
 51
194.3115476991523
1001
ACDBBLOCKREPETAG
1070
     1
1071
       17
1005
1260C9
  0
ARC
  5
1260CA
  8
OBJECT
 10
2700.6872746716731
 20
-642.59190058988645
 30
0.0
 40
170.6350503965856
 50
210.08050418662771
 51
222.55865540815699
1001
ACDBBLOCKREPETAG
1070
     1
1071
       18
1005
1260CA
  0
ARC
  5
1260CB
  8
OBJECT
 10
2618.8455987040511
 20
-686.11727330462952
 30
0.0
 40
78.072222021763665
 50
195.3363400228202
 51
212.5448468962316
1001
ACDBBLOCKREPETAG
1070
     1
1071
       19
1005
1260CB
  0
LINE
  5
1260CC
  8
OBJECT
 10
2633.0
 20
-634.0
 30
0.0
 11
2640.0
 21
-634.0
 31
0.0
1001
ACDBBLOCKREPETAG
1070
     1
1071
       45
1005
1260CC
  0
LINE
  5
1260CD
  8
OBJECT
 10
2640.0
 20
-634.0
 30
0.0
 11
2640.0
 21
-755.0
 31
0.0
1001
ACDBBLOCKREPETAG
1070
     1
1071
       46
1005
1260CD
  0
LINE
  5
1260CE
  8
OBJECT
 10
2633.0
 20
-755.0
 30
0.0
 11
2633.0
 21
-634.0
 31
0.0
1001
ACDBBLOCKREPETAG
1070
     1
1071
       47
1005
1260CE
  0
LINE
  5
1260CF
  8
CENTER
 10
2655.0
 20
-696.0
 30
0.0
 11
2571.0
 21
-696.0
 31
0.0
1001
ACDBBLOCKREPETAG
1070
     1
1071
       48
1005
1260CF
  0
LINE
  5
1260D0
  8
OBJECT
 10
2633.0
 20
-637.0
 30
0.0
 11
2597.0
 21
-637.0
 31
0.0
1001
ACDBBLOCKREPETAG
1070
     1
1071
       49
1005
1260D0
  0
LINE
  5
1260D1
  8
OBJECT
 10
2597.0
 20
-637.0
 30
0.0
 11
2597.0
 21
-755.0
 31
0.0
1001
ACDBBLOCKREPETAG
1070
     1
1071
       50
1005
1260D1
  0
LINE
  5
1260D2
  8
OBJECT
 10
2597.0
 20
-755.0
 30
0.0
 11
2640.0
 21
-755.0
 31
0.0
1001
ACDBBLOCKREPETAG
1070
     1
1071
       51
1005
1260D2
  0
LINE
  5
1260D3
  8
OBJECT
 10
2593.0
 20
-641.5
 30
0.0
 11
2586.0
 21
-641.5
 31
0.0
1001
ACDBBLOCKREPETAG
1070
     1
1071
       52
1005
1260D3
  0
LINE
  5
1260D4
  8
OBJECT
 10
2586.0
 20
-750.49999999999989
 30
0.0
 11
2593.0
 21
-750.49999999999989
 31
0.0
1001
ACDBBLOCKREPETAG
1070
     1
1071
       53
1005
1260D4
  0
LINE
  5
1260D5
  8
OBJECT
 10
2593.0
 20
-750.49999999999989
 30
0.0
 11
2593.0
 21
-641.5
 31
0.0
1001
ACDBBLOCKREPETAG
1070
     1
1071
       54
1005
1260D5
  0
LINE
  5
1260D6
  8
OBJECT
 10
2597.0
 20
-637.0
 30
0.0
 11
2593.0
 21
-641.5
 31
0.0
1001
ACDBBLOCKREPETAG
1070
     1
1071
       55
1005
1260D6
  0
LINE
  5
1260D7
  8
OBJECT
 10
2597.0
 20
-755.0
 30
0.0
 11
2593.0
 21
-750.49999999999989
 31
0.0
1001
ACDBBLOCKREPETAG
1070
     1
1071
       56
1005
1260D7
  0
LINE
  5
1260D8
  8
OBJECT
 10
2583.0
 20
-634.0
 30
0.0
 11
2580.0
 21
-634.0
 31
0.0
1001
ACDBBLOCKREPETAG
1070
     1
1071
       57
1005
1260D8
  0
ARC
  5
1260D9
  8
OBJECT
 10
2583.0
 20
-637.0
 30
0.0
 40
3.0
 50
0.0
 51
90.0
1001
ACDBBLOCKREPETAG
1070
     1
1071
       58
1005
1260D9
  0
LINE
  5
1260DA
  8
OBJECT
 10
2580.0
 20
-758.0
 30
0.0
 11
2583.0
 21
-758.0
 31
0.0
1001
ACDBBLOCKREPETAG
1070
     1
1071
       59
1005
1260DA
  0
ARC
  5
1260DB
  8
OBJECT
 10
2583.0
 20
-755.0
 30
0.0
 40
3.0
 50
270.0
 51
0.0
1001
ACDBBLOCKREPETAG
1070
     1
1071
       60
1005
1260DB
  0
LINE
  5
1260DC
  8
OBJECT
 10
2586.0
 20
-755.0
 30
0.0
 11
2586.0
 21
-637.0
 31
0.0
1001
ACDBBLOCKREPETAG
1070
     1
1071
       61
1005
1260DC
  0
LINE
  5
1260DD
  8
HIDDEN
 10
2588.0
 20
-651.5
 30
0.0
 11
2588.0
 21
-740.5
 31
0.0
1001
ACDBBLOCKREPETAG
1070
     1
1071
       63
1005
1260DD
  0
TEXT
  5
1260DE
  8
SLIM
 10
0.0000035665234464
 20
-775.9999954146823
 30
0.0
 40
79.999999999972701
  1
下部枝管バリエーション
 41
0.75
1001
ACDBBLOCKREPETAG
1070
     1
1071
      119
1005
120BCB
  0
LINE
  5
1260DF
  8
DIM
 10
2650.0
 20
-3506.9999999999968
 30
0.0
 11
2728.479620594459
 21
-3506.9999999999968
 31
0.0
  0
LINE
  5
1260E0
  8
DIM
 10
2650.0
 20
-3412.9999999999968
 30
0.0
 11
2728.479620594459
 21
-3412.9999999999968
 31
0.0
  0
LINE
  5
1260E1
  8
DIM
 10
2718.479620594459
 20
-3486.9999999999959
 30
0.0
 11
2718.479620594459
 21
-3432.9999999999959
 31
0.0
  0
INSERT
  5
1260E2
  8
DIM
  2
_OPEN30
 10
2718.479620594459
 20
-3506.9999999999968
 30
0.0
 41
20.0
 42
20.0
 43
20.0
 50
270.0
  0
INSERT
  5
1260E3
  8
DIM
  2
_OPEN30
 10
2718.479620594459
 20
-3412.9999999999968
 30
0.0
 41
20.0
 42
20.0
 43
20.0
 50
90.0
  0
INSERT
  5
1260E4
  8
OBJECT
  2
*U16
 10
0.0
 20
0.0
 30
0.0
  0
LINE
  5
1260E5
  8
DIM
 10
2650.0
 20
-3864.9999999999968
 30
0.0
 11
2726.8409284037339
 21
-3864.9999999999968
 31
0.0
  0
LINE
  5
1260E6
  8
DIM
 10
2665.0
 20
-3820.9999999999968
 30
0.0
 11
2726.8409284037339
 21
-3820.9999999999968
 31
0.0
  0
LINE
  5
1260E7
  8
DIM
 10
2716.8409284037339
 20
-3884.9999999999991
 30
0.0
 11
2716.8409284037339
 21
-3904.9999999999968
 31
0.0
  0
LINE
  5
1260E8
  8
DIM
 10
2716.8409284037339
 20
-3800.9999999999982
 30
0.0
 11
2716.8409284037339
 21
-3780.9999999999968
 31
0.0
  0
LINE
  5
1260E9
  8
DIM
 10
2716.8409284037339
 20
-3864.9999999999968
 30
0.0
 11
2716.8409284037339
 21
-3820.9999999999968
 31
0.0
  0
INSERT
  5
1260EA
  8
DIM
  2
_OPEN30
 10
2716.8409284037339
 20
-3864.9999999999968
 30
0.0
 41
20.0
 42
20.0
 43
20.0
 50
90.0
  0
INSERT
  5
1260EB
  8
DIM
  2
_OPEN30
 10
2716.8409284037339
 20
-3820.9999999999968
 30
0.0
 41
20.0
 42
20.0
 43
20.0
 50
270.0
  0
INSERT
  5
1260EC
  8
OBJECT
  2
*U17
 10
0.0
 20
0.0
 30
0.0
  0
LINE
  5
1260ED
  8
DIM
 10
2500.0
 20
-3359.9999999999968
 30
0.0
 11
2500.0
 21
-3322.208121984444
 31
0.0
  0
LINE
  5
1260EE
  8
DIM
 10
2640.0
 20
-3402.9999999999968
 30
0.0
 11
2640.0
 21
-3322.208121984444
 31
0.0
  0
LINE
  5
1260EF
  8
DIM
 10
2520.0
 20
-3332.208121984444
 30
0.0
 11
2620.0
 21
-3332.208121984444
 31
0.0
  0
INSERT
  5
1260F0
  8
DIM
  2
_OPEN30
 10
2500.0
 20
-3332.208121984444
 30
0.0
 41
20.0
 42
20.0
 43
20.0
 50
180.0
  0
INSERT
  5
1260F1
  8
DIM
  2
_OPEN30
 10
2640.0
 20
-3332.208121984444
 30
0.0
 41
20.0
 42
20.0
 43
20.0
  0
INSERT
  5
1260F2
  8
OBJECT
  2
*U18
 10
0.0
 20
0.0
 30
0.0
  0
TEXT
  5
1260F3
  8
SLIM
 10
3270.9999999999991
 20
-3237.5000160472709
 30
0.0
 40
40.0
  1
C寸法
 41
0.75
  0
TEXT
  5
1260F4
  8
SLIM
 10
3270.9999999999991
 20
-3167.5000160472709
 30
0.0
 40
40.0
  1
B寸法
 41
0.75
  0
TEXT
  5
1260F5
  8
SLIM
 10
3270.2857142857151
 20
-3097.5000160472709
 30
0.0
 40
40.0
  1
A寸法
 41
0.75
  0
TEXT
  5
1260F6
  8
SLIM
 10
3669.2857142857142
 20
-3237.5000160472709
 30
0.0
 40
40.0
  1
140
 41
0.75
  0
TEXT
  5
1260F7
  8
SLIM
 10
3409.2857142857151
 20
-3237.5000160472709
 30
0.0
 40
40.0
  1
140
 41
0.75
  0
TEXT
  5
1260F8
  8
SLIM
 10
3539.2857142857151
 20
-3237.5000160472709
 30
0.0
 40
40.0
  1
140
 41
0.75
  0
TEXT
  5
1260F9
  8
SLIM
 10
3681.4285714285711
 20
-3167.5000160472709
 30
0.0
 40
40.0
  1
59
 41
0.75
  0
TEXT
  5
1260FA
  8
SLIM
 10
3420.0
 20
-3167.5000160472709
 30
0.0
 40
40.0
  1
44
 41
0.75
  0
TEXT
  5
1260FB
  8
SLIM
 10
3550.7142857142849
 20
-3167.5000160472709
 30
0.0
 40
40.0
  1
52
 41
0.75
  0
TEXT
  5
1260FC
  8
SLIM
 10
3471.0
 20
-2972.5000160472709
 30
0.0
 40
40.0
  1
横枝管サイズ
 41
0.75
  0
TEXT
  5
1260FD
  8
SLIM
 10
3654.8571428571422
 20
-3027.50001604727
 30
0.0
 40
30.0
  1
75（3）
 41
0.75
  0
TEXT
  5
1260FE
  8
SLIM
 10
3524.8571428571422
 20
-3027.50001604727
 30
0.0
 40
30.0
  1
65（2）
 41
0.75
  0
TEXT
  5
1260FF
  8
SLIM
 10
3397.0
 20
-3027.50001604727
 30
0.0
 40
30.0
  1
50（1）
 41
0.75
  0
TEXT
  5
126100
  8
SLIM
 10
3668.5714285714289
 20
-3097.5000160472709
 30
0.0
 40
40.0
  1
124
 41
0.75
  0
TEXT
  5
126101
  8
SLIM
 10
3420.0
 20
-3097.5000160472709
 30
0.0
 40
40.0
  1
94
 41
0.75
  0
TEXT
  5
126102
  8
SLIM
 10
3542.142857142856
 20
-3097.5000160472709
 30
0.0
 40
40.0
  1
110
 41
0.75
  0
TEXT
  5
126103
  8
SLIM
 10
2349.9999999999991
 20
-2997.5
 30
0.0
 40
75.0
  1
下部枝管サイズ毎の形状
 41
0.75
  0
TEXT
  5
126104
  8
SLIM
 10
4394.25
 20
-3982.4999999999968
 30
0.0
 40
35.0
  1
通常枝75（3）
 41
0.75
  0
TEXT
  5
126105
  8
SLIM
 10
3394.2499999999991
 20
-3982.4999999999968
 30
0.0
 40
35.0
  1
通常枝65（2）
 41
0.75
  0
TEXT
  5
126106
  8
SLIM
 10
2396.75
 20
-3982.4999999999968
 30
0.0
 40
35.0
  1
通常枝50（1）
 41
0.75
  0
TEXT
  5
126107
  8
SLIM
 10
2337.75
 20
282.50000000000011
 30
0.0
 40
35.0
  1
（枝管サイズ毎に寸法が異なります。管底の位置は全サイズで同じです）
 41
0.75
  0
TEXT
  5
126108
  8
SLIM
 10
2350.0
 20
532.5
 30
0.0
 40
75.0
  1
側面図の代表機種
 41
0.75
  0
TEXT
  5
126109
  8
SLIM
 10
2350.0
 20
369.99999999999989
 30
0.0
 40
100.0
  1
4SL2-A3-A0020-P320
 41
0.75
  0
TEXT
  5
12610A
  8
SLIM
 10
0.0
 20
670.0
 30
0.0
 40
100.0
  1
4SL2-A3-A00X0-PXXX-S
 41
0.75
  0
TEXT
  5
12610B
  8
SLIM
 10
0.0
 20
520.0
 30
0.0
 40
100.0
  1
4SL2-A3-A00X0-PXXX-W
 41
0.75
  0
LINE
  5
12610C
  8
OBJECT
 10
12585.999999999991
 20
-1388.9999999999991
 30
0.0
 11
12585.999999999991
 21
-1398.9999999999991
 31
0.0
1001
ACDBBLOCKREPETAG
1070
     1
1071
      121
1005
12610C
  0
LINE
  5
12610D
  8
OBJECT
 10
12569.999999999991
 20
-1388.9999999999991
 30
0.0
 11
12569.999999999991
 21
-1398.9999999999991
 31
0.0
1001
ACDBBLOCKREPETAG
1070
     1
1071
      122
1005
12610D
  0
LINE
  5
12610E
  8
OBJECT
 10
12585.999999999991
 20
-1398.9999999999991
 30
0.0
 11
12569.999999999991
 21
-1398.9999999999991
 31
0.0
1001
ACDBBLOCKREPETAG
1070
     1
1071
      123
1005
12610E
  0
LINE
  5
12610F
  8
OBJECT
 10
12590.0
 20
-1349.9999999999959
 30
0.0
 11
12424.0
 21
-1349.9999999999959
 31
0.0
1001
ACDBBLOCKREPETAG
1070
     1
1071
      124
1005
12610F
  0
LINE
  5
126110
  8
OBJECT
 10
12590.0
 20
-1364.9999999999991
 30
0.0
 11
12590.0
 21
-1349.9999999999959
 31
0.0
1001
ACDBBLOCKREPETAG
1070
     1
1071
      125
1005
126110
  0
LINE
  5
126111
  8
OBJECT
 10
12424.0
 20
-1364.9999999999991
 30
0.0
 11
12590.0
 21
-1364.9999999999991
 31
0.0
1001
ACDBBLOCKREPETAG
1070
     1
1071
      126
1005
126111
  0
LINE
  5
126112
  8
OBJECT
 10
12567.49999999998
 20
-1364.9999999999991
 30
0.0
 11
12567.49999999998
 21
-1375.0
 31
0.0
1001
ACDBBLOCKREPETAG
1070
     1
1071
      127
1005
126112
  0
LINE
  5
126113
  8
OBJECT
 10
12572.999999999991
 20
-1375.0
 30
0.0
 11
12572.999999999991
 21
-1364.9999999999991
 31
0.0
1001
ACDBBLOCKREPETAG
1070
     1
1071
      128
1005
126113
  0
LINE
  5
126114
  8
OBJECT
 10
12582.999999999991
 20
-1375.0
 30
0.0
 11
12582.999999999991
 21
-1364.9999999999991
 31
0.0
1001
ACDBBLOCKREPETAG
1070
     1
1071
      129
1005
126114
  0
LINE
  5
126115
  8
OBJECT
 10
12424.0
 20
-1375.0
 30
0.0
 11
12424.0
 21
-1388.9999999999959
 31
0.0
1001
ACDBBLOCKREPETAG
1070
     1
1071
      130
1005
126115
  0
LINE
  5
126116
  8
OBJECT
 10
12590.0
 20
-1375.0
 30
0.0
 11
12590.0
 21
-1388.9999999999959
 31
0.0
1001
ACDBBLOCKREPETAG
1070
     1
1071
      131
1005
126116
  0
LINE
  5
126117
  8
OBJECT
 10
12424.0
 20
-1388.9999999999959
 30
0.0
 11
12590.0
 21
-1388.9999999999959
 31
0.0
1001
ACDBBLOCKREPETAG
1070
     1
1071
      132
1005
126117
  0
LINE
  5
126118
  8
OBJECT
 10
12424.0
 20
-1375.0
 30
0.0
 11
12590.0
 21
-1375.0
 31
0.0
1001
ACDBBLOCKREPETAG
1070
     1
1071
      133
1005
126118
  0
LINE
  5
126119
  8
OBJECT
 10
12432.49999999998
 20
-1364.9999999999991
 30
0.0
 11
12432.49999999998
 21
-1375.0
 31
0.0
1001
ACDBBLOCKREPETAG
1070
     1
1071
      134
1005
126119
  0
LINE
  5
12611A
  8
OBJECT
 10
12434.0
 20
-1313.9999999999959
 30
0.0
 11
12565.999999999991
 21
-1313.9999999999959
 31
0.0
1001
ACDBBLOCKREPETAG
1070
     1
1071
      135
1005
12611A
  0
LINE
  5
12611B
  8
OBJECT
 10
12424.0
 20
-1364.9999999999991
 30
0.0
 11
12424.0
 21
-1349.9999999999959
 31
0.0
1001
ACDBBLOCKREPETAG
1070
     1
1071
      136
1005
12611B
  0
LINE
  5
12611C
  8
HIDDEN
 10
12443.0
 20
-1324.9999999999991
 30
0.0
 11
12557.0
 21
-1324.9999999999991
 31
0.0
1001
ACDBBLOCKREPETAG
1070
     1
1071
      137
1005
12611C
  0
LINE
  5
12611D
  8
OBJECT
 10
12586.999999999991
 20
-1348.2
 30
0.0
 11
12586.999999999991
 21
-1349.9999999999991
 31
0.0
1001
ACDBBLOCKREPETAG
1070
     1
1071
      138
1005
12611D
  0
LINE
  5
12611E
  8
OBJECT
 10
12568.999999999991
 20
-1348.2
 30
0.0
 11
12568.999999999991
 21
-1349.9999999999991
 31
0.0
1001
ACDBBLOCKREPETAG
1070
     1
1071
      139
1005
12611E
  0
LINE
  5
12611F
  8
OBJECT
 10
12572.249999999991
 20
-1338.5
 30
0.0
 11
12583.749999999991
 21
-1338.5
 31
0.0
1001
ACDBBLOCKREPETAG
1070
     1
1071
      140
1005
12611F
  0
LINE
  5
126120
  8
OBJECT
 10
12572.249999999991
 20
-1338.5
 30
0.0
 11
12572.249999999991
 21
-1348.2
 31
0.0
1001
ACDBBLOCKREPETAG
1070
     1
1071
      141
1005
126120
  0
LINE
  5
126121
  8
OBJECT
 10
12583.749999999991
 20
-1338.5
 30
0.0
 11
12583.749999999991
 21
-1348.2
 31
0.0
1001
ACDBBLOCKREPETAG
1070
     1
1071
      142
1005
126121
  0
LINE
  5
126122
  8
OBJECT
 10
12431.99999999998
 20
-1429.9999999999991
 30
0.0
 11
12567.99999999998
 21
-1429.9999999999991
 31
0.0
1001
ACDBBLOCKREPETAG
1070
     1
1071
      143
1005
126122
  0
LINE
  5
126123
  8
OBJECT
 10
12431.99999999998
 20
-1429.9999999999991
 30
0.0
 11
12431.99999999998
 21
-1388.9999999999991
 31
0.0
1001
ACDBBLOCKREPETAG
1070
     1
1071
      144
1005
126123
  0
LINE
  5
126124
  8
OBJECT
 10
12567.99999999998
 20
-1429.9999999999991
 30
0.0
 11
12567.99999999998
 21
-1388.9999999999991
 31
0.0
1001
ACDBBLOCKREPETAG
1070
     1
1071
      145
1005
126124
  0
LINE
  5
126125
  8
OBJECT
 10
12586.999999999991
 20
-1348.2
 30
0.0
 11
12568.999999999991
 21
-1348.2
 31
0.0
1001
ACDBBLOCKREPETAG
1070
     1
1071
      146
1005
126125
  0
LINE
  5
126126
  8
CENTER
 10
12500.0
 20
-1054.9999999999991
 30
0.0
 11
12500.0
 21
-1444.9999999999991
 31
0.0
1001
ACDBBLOCKREPETAG
1070
     1
1071
      147
1005
126126
  0
LINE
  5
126127
  8
OBJECT
 10
12425.0
 20
-1054.9999999999991
 30
0.0
 11
12425.0
 21
-1136.9999999999959
 31
0.0
1001
ACDBBLOCKREPETAG
1070
     1
1071
      148
1005
126127
  0
LINE
  5
126128
  8
OBJECT
 10
12575.0
 20
-1054.9999999999991
 30
0.0
 11
12575.0
 21
-1136.999999999992
 31
0.0
1001
ACDBBLOCKREPETAG
1070
     1
1071
      149
1005
126128
  0
LINE
  5
126129
  8
OBJECT
 10
12425.0
 20
-1136.9999999999959
 30
0.0
 11
12575.0
 21
-1136.999999999992
 31
0.0
1001
ACDBBLOCKREPETAG
1070
     1
1071
      150
1005
126129
  0
LINE
  5
12612A
  8
OBJECT
 10
12443.0
 20
-1313.9999999999959
 30
0.0
 11
12443.0
 21
-1264.999999999992
 31
0.0
1001
ACDBBLOCKREPETAG
1070
     1
1071
      151
1005
12612A
  0
LINE
  5
12612B
  8
OBJECT
 10
12557.0
 20
-1264.999999999992
 30
0.0
 11
12443.0
 21
-1264.999999999992
 31
0.0
1001
ACDBBLOCKREPETAG
1070
     1
1071
      152
1005
12612B
  0
LINE
  5
12612C
  8
OBJECT
 10
12557.0
 20
-1264.999999999992
 30
0.0
 11
12557.0
 21
-1313.9999999999959
 31
0.0
1001
ACDBBLOCKREPETAG
1070
     1
1071
      153
1005
12612C
  0
LINE
  5
12612D
  8
OBJECT
 10
12425.0
 20
-1136.9999999999959
 30
0.0
 11
12443.0
 21
-1264.999999999992
 31
0.0
1001
ACDBBLOCKREPETAG
1070
     1
1071
      154
1005
12612D
  0
LINE
  5
12612E
  8
OBJECT
 10
12557.0
 20
-1264.999999999992
 30
0.0
 11
12575.0
 21
-1136.999999999992
 31
0.0
1001
ACDBBLOCKREPETAG
1070
     1
1071
      155
1005
12612E
  0
LINE
  5
12612F
  8
OBJECT
 10
12434.0
 20
-1349.9999999999959
 30
0.0
 11
12434.0
 21
-1313.9999999999959
 31
0.0
1001
ACDBBLOCKREPETAG
1070
     1
1071
      156
1005
12612F
  0
LINE
  5
126130
  8
OBJECT
 10
12566.0
 20
-1349.9999999999959
 30
0.0
 11
12565.999999999991
 21
-1313.9999999999959
 31
0.0
1001
ACDBBLOCKREPETAG
1070
     1
1071
      157
1005
126130
  0
LINE
  5
126131
  8
OBJECT
 10
12454.75
 20
-1339.699999999993
 30
0.0
 11
12467.25
 21
-1339.699999999993
 31
0.0
1001
ACDBBLOCKREPETAG
1070
     1
1071
      158
1005
126131
  0
LINE
  5
126132
  8
OBJECT
 10
12446.0
 20
-1349.9999999999959
 30
0.0
 11
12446.0
 21
-1347.6999999999971
 31
0.0
1001
ACDBBLOCKREPETAG
1070
     1
1071
      159
1005
126132
  0
LINE
  5
126133
  8
OBJECT
 10
12476.0
 20
-1349.9999999999959
 30
0.0
 11
12476.0
 21
-1347.6999999999971
 31
0.0
1001
ACDBBLOCKREPETAG
1070
     1
1071
      160
1005
126133
  0
LINE
  5
126134
  8
OBJECT
 10
12454.75
 20
-1339.699999999993
 30
0.0
 11
12454.75
 21
-1347.6999999999971
 31
0.0
1001
ACDBBLOCKREPETAG
1070
     1
1071
      161
1005
126134
  0
LINE
  5
126135
  8
OBJECT
 10
12467.25
 20
-1339.699999999993
 30
0.0
 11
12467.25
 21
-1347.6999999999971
 31
0.0
1001
ACDBBLOCKREPETAG
1070
     1
1071
      162
1005
126135
  0
LINE
  5
126136
  8
OBJECT
 10
12446.0
 20
-1347.6999999999971
 30
0.0
 11
12476.0
 21
-1347.6999999999971
 31
0.0
1001
ACDBBLOCKREPETAG
1070
     1
1071
      163
1005
126136
  0
LINE
  5
126137
  8
OBJECT
 10
12453.0
 20
-1388.9999999999959
 30
0.0
 11
12453.0
 21
-1398.9999999999959
 31
0.0
1001
ACDBBLOCKREPETAG
1070
     1
1071
      164
1005
126137
  0
LINE
  5
126138
  8
OBJECT
 10
12469.0
 20
-1388.9999999999959
 30
0.0
 11
12469.0
 21
-1398.9999999999959
 31
0.0
1001
ACDBBLOCKREPETAG
1070
     1
1071
      165
1005
126138
  0
LINE
  5
126139
  8
OBJECT
 10
12453.0
 20
-1398.9999999999959
 30
0.0
 11
12469.0
 21
-1398.9999999999959
 31
0.0
1001
ACDBBLOCKREPETAG
1070
     1
1071
      166
1005
126139
  0
LINE
  5
12613A
  8
OBJECT
 10
12466.0
 20
-1374.9999999999959
 30
0.0
 11
12466.0
 21
-1364.9999999999959
 31
0.0
1001
ACDBBLOCKREPETAG
1070
     1
1071
      167
1005
12613A
  0
LINE
  5
12613B
  8
OBJECT
 10
12456.0
 20
-1374.9999999999959
 30
0.0
 11
12456.0
 21
-1364.9999999999959
 31
0.0
1001
ACDBBLOCKREPETAG
1070
     1
1071
      168
1005
12613B
  0
LINE
  5
12613C
  8
OBJECT
 10
10590.0
 20
-1349.9999999999959
 30
0.0
 11
10424.0
 21
-1349.9999999999959
 31
0.0
1001
ACDBBLOCKREPETAG
1070
     1
1071
       12
1005
12613C
  0
LINE
  5
12613D
  8
OBJECT
 10
10566.0
 20
-1313.9999999999959
 30
0.0
 11
10434.0
 21
-1313.9999999999959
 31
0.0
1001
ACDBBLOCKREPETAG
1070
     1
1071
       13
1005
12613D
  0
LINE
  5
12613E
  8
OBJECT
 10
10590.0
 20
-1365.0
 30
0.0
 11
10590.0
 21
-1349.9999999999959
 31
0.0
1001
ACDBBLOCKREPETAG
1070
     1
1071
       14
1005
12613E
  0
LINE
  5
12613F
  8
OBJECT
 10
10424.0
 20
-1365.0
 30
0.0
 11
10590.0
 21
-1365.0
 31
0.0
1001
ACDBBLOCKREPETAG
1070
     1
1071
       15
1005
12613F
  0
LINE
  5
126140
  8
OBJECT
 10
10567.49999999998
 20
-1365.0
 30
0.0
 11
10567.49999999998
 21
-1375.0
 31
0.0
1001
ACDBBLOCKREPETAG
1070
     1
1071
       16
1005
126140
  0
LINE
  5
126141
  8
OBJECT
 10
10424.0
 20
-1375.0
 30
0.0
 11
10424.0
 21
-1388.9999999999959
 31
0.0
1001
ACDBBLOCKREPETAG
1070
     1
1071
       17
1005
126141
  0
LINE
  5
126142
  8
OBJECT
 10
10590.0
 20
-1375.0
 30
0.0
 11
10590.0
 21
-1388.9999999999959
 31
0.0
1001
ACDBBLOCKREPETAG
1070
     1
1071
       18
1005
126142
  0
LINE
  5
126143
  8
OBJECT
 10
10424.0
 20
-1388.9999999999959
 30
0.0
 11
10590.0
 21
-1388.9999999999959
 31
0.0
1001
ACDBBLOCKREPETAG
1070
     1
1071
       19
1005
126143
  0
LINE
  5
126144
  8
OBJECT
 10
10424.0
 20
-1375.0
 30
0.0
 11
10590.0
 21
-1375.0
 31
0.0
1001
ACDBBLOCKREPETAG
1070
     1
1071
       20
1005
126144
  0
LINE
  5
126145
  8
OBJECT
 10
10432.49999999998
 20
-1365.0
 30
0.0
 11
10432.49999999998
 21
-1375.0
 31
0.0
1001
ACDBBLOCKREPETAG
1070
     1
1071
       21
1005
126145
  0
LINE
  5
126146
  8
OBJECT
 10
10424.0
 20
-1365.0
 30
0.0
 11
10424.0
 21
-1349.9999999999959
 31
0.0
1001
ACDBBLOCKREPETAG
1070
     1
1071
       22
1005
126146
  0
LINE
  5
126147
  8
HIDDEN
 10
10443.0
 20
-1325.0
 30
0.0
 11
10557.0
 21
-1325.0
 31
0.0
1001
ACDBBLOCKREPETAG
1070
     1
1071
       23
1005
126147
  0
LINE
  5
126148
  8
CENTER
 10
10500.0
 20
-1055.0
 30
0.0
 11
10500.0
 21
-1403.9999999999959
 31
0.0
1001
ACDBBLOCKREPETAG
1070
     1
1071
       24
1005
126148
  0
LINE
  5
126149
  8
OBJECT
 10
10425.0
 20
-1055.0
 30
0.0
 11
10425.0
 21
-1136.9999999999959
 31
0.0
1001
ACDBBLOCKREPETAG
1070
     1
1071
       25
1005
126149
  0
LINE
  5
12614A
  8
OBJECT
 10
10575.0
 20
-1055.0
 30
0.0
 11
10575.0
 21
-1136.999999999993
 31
0.0
1001
ACDBBLOCKREPETAG
1070
     1
1071
       26
1005
12614A
  0
LINE
  5
12614B
  8
OBJECT
 10
10425.0
 20
-1136.9999999999959
 30
0.0
 11
10575.0
 21
-1136.999999999993
 31
0.0
1001
ACDBBLOCKREPETAG
1070
     1
1071
       27
1005
12614B
  0
LINE
  5
12614C
  8
OBJECT
 10
10557.0
 20
-1313.9999999999959
 30
0.0
 11
10557.0
 21
-1264.999999999993
 31
0.0
1001
ACDBBLOCKREPETAG
1070
     1
1071
       28
1005
12614C
  0
LINE
  5
12614D
  8
OBJECT
 10
10443.0
 20
-1313.9999999999959
 30
0.0
 11
10443.0
 21
-1264.999999999993
 31
0.0
1001
ACDBBLOCKREPETAG
1070
     1
1071
       29
1005
12614D
  0
LINE
  5
12614E
  8
OBJECT
 10
10557.0
 20
-1264.999999999993
 30
0.0
 11
10443.0
 21
-1264.999999999993
 31
0.0
1001
ACDBBLOCKREPETAG
1070
     1
1071
       30
1005
12614E
  0
LINE
  5
12614F
  8
OBJECT
 10
10425.0
 20
-1136.9999999999959
 30
0.0
 11
10443.0
 21
-1264.999999999993
 31
0.0
1001
ACDBBLOCKREPETAG
1070
     1
1071
       31
1005
12614F
  0
LINE
  5
126150
  8
OBJECT
 10
10557.0
 20
-1264.999999999993
 30
0.0
 11
10575.0
 21
-1136.999999999993
 31
0.0
1001
ACDBBLOCKREPETAG
1070
     1
1071
       32
1005
126150
  0
LINE
  5
126151
  8
OBJECT
 10
10434.0
 20
-1313.9999999999959
 30
0.0
 11
10434.0
 21
-1349.9999999999959
 31
0.0
1001
ACDBBLOCKREPETAG
1070
     1
1071
       33
1005
126151
  0
LINE
  5
126152
  8
OBJECT
 10
10566.0
 20
-1313.9999999999959
 30
0.0
 11
10566.0
 21
-1349.9999999999959
 31
0.0
1001
ACDBBLOCKREPETAG
1070
     1
1071
       34
1005
126152
  0
LINE
  5
126153
  8
OBJECT
 10
10582.999999999991
 20
-1374.9999999999959
 30
0.0
 11
10582.999999999991
 21
-1364.9999999999959
 31
0.0
1001
ACDBBLOCKREPETAG
1070
     1
1071
       35
1005
126153
  0
LINE
  5
126154
  8
OBJECT
 10
10572.999999999991
 20
-1374.9999999999959
 30
0.0
 11
10572.999999999991
 21
-1364.9999999999959
 31
0.0
1001
ACDBBLOCKREPETAG
1070
     1
1071
       36
1005
126154
  0
LINE
  5
126155
  8
OBJECT
 10
10568.99999999998
 20
-1344.9999999999959
 30
0.0
 11
10568.99999999998
 21
-1349.9999999999959
 31
0.0
1001
ACDBBLOCKREPETAG
1070
     1
1071
       37
1005
126155
  0
LINE
  5
126156
  8
OBJECT
 10
10587.0
 20
-1344.9999999999959
 30
0.0
 11
10587.0
 21
-1349.9999999999959
 31
0.0
1001
ACDBBLOCKREPETAG
1070
     1
1071
       38
1005
126156
  0
LINE
  5
126157
  8
OBJECT
 10
10587.0
 20
-1344.9999999999959
 30
0.0
 11
10568.99999999998
 21
-1344.9999999999959
 31
0.0
1001
ACDBBLOCKREPETAG
1070
     1
1071
       39
1005
126157
  0
LINE
  5
126158
  8
OBJECT
 10
10573.0
 20
-1396.9999999999959
 30
0.0
 11
10573.0
 21
-1399.9999999999959
 31
0.0
1001
ACDBBLOCKREPETAG
1070
     1
1071
       40
1005
126158
  0
LINE
  5
126159
  8
OBJECT
 10
10573.0
 20
-1399.9999999999959
 30
0.0
 11
10583.0
 21
-1399.9999999999959
 31
0.0
1001
ACDBBLOCKREPETAG
1070
     1
1071
       41
1005
126159
  0
LINE
  5
12615A
  8
OBJECT
 10
10568.18504542377
 20
-1396.9999999999959
 30
0.0
 11
10587.814954576221
 21
-1396.9999999999959
 31
0.0
1001
ACDBBLOCKREPETAG
1070
     1
1071
       42
1005
12615A
  0
LINE
  5
12615B
  8
OBJECT
 10
10583.0
 20
-1399.9999999999959
 30
0.0
 11
10583.0
 21
-1396.9999999999959
 31
0.0
1001
ACDBBLOCKREPETAG
1070
     1
1071
       43
1005
12615B
  0
LINE
  5
12615C
  8
OBJECT
 10
10568.18503599129
 20
-1388.999986840256
 30
0.0
 11
10568.18503599129
 21
-1396.999986840256
 31
0.0
1001
ACDBBLOCKREPETAG
1070
     1
1071
       44
1005
12615C
  0
LINE
  5
12615D
  8
OBJECT
 10
10573.0925013592
 20
-1388.999986840256
 30
0.0
 11
10573.0925013592
 21
-1396.999986840256
 31
0.0
1001
ACDBBLOCKREPETAG
1070
     1
1071
       45
1005
12615D
  0
LINE
  5
12615E
  8
OBJECT
 10
10582.90743209502
 20
-1388.999986840256
 30
0.0
 11
10582.90743209502
 21
-1396.999986840256
 31
0.0
1001
ACDBBLOCKREPETAG
1070
     1
1071
       46
1005
12615E
  0
LINE
  5
12615F
  8
OBJECT
 10
10587.81499155279
 20
-1388.999986840256
 30
0.0
 11
10587.81499155279
 21
-1396.999986840256
 31
0.0
1001
ACDBBLOCKREPETAG
1070
     1
1071
       47
1005
12615F
  0
LINE
  5
126160
  8
OBJECT
 10
10468.5
 20
-1344.9999999999959
 30
0.0
 11
10451.999999999991
 21
-1344.9999999999959
 31
0.0
1001
ACDBBLOCKREPETAG
1070
     1
1071
       48
1005
126160
  0
LINE
  5
126161
  8
OBJECT
 10
10476.0
 20
-1349.9999999999959
 30
0.0
 11
10476.0
 21
-1347.9999999999959
 31
0.0
1001
ACDBBLOCKREPETAG
1070
     1
1071
       49
1005
126161
  0
LINE
  5
126162
  8
OBJECT
 10
10466.0
 20
-1374.9999999999959
 30
0.0
 11
10466.0
 21
-1364.9999999999959
 31
0.0
1001
ACDBBLOCKREPETAG
1070
     1
1071
       50
1005
126162
  0
LINE
  5
126163
  8
OBJECT
 10
10456.0
 20
-1374.9999999999959
 30
0.0
 11
10456.0
 21
-1364.9999999999959
 31
0.0
1001
ACDBBLOCKREPETAG
1070
     1
1071
       51
1005
126163
  0
LINE
  5
126164
  8
OBJECT
 10
10451.999999999991
 20
-1344.9999999999959
 30
0.0
 11
10451.999999999991
 21
-1349.9999999999959
 31
0.0
1001
ACDBBLOCKREPETAG
1070
     1
1071
       52
1005
126164
  0
LINE
  5
126165
  8
OBJECT
 10
10456.0
 20
-1396.9999999999959
 30
0.0
 11
10456.0
 21
-1399.9999999999959
 31
0.0
1001
ACDBBLOCKREPETAG
1070
     1
1071
       53
1005
126165
  0
LINE
  5
126166
  8
OBJECT
 10
10456.0
 20
-1399.9999999999959
 30
0.0
 11
10466.0
 21
-1399.9999999999959
 31
0.0
1001
ACDBBLOCKREPETAG
1070
     1
1071
       54
1005
126166
  0
LINE
  5
126167
  8
OBJECT
 10
10451.18504542377
 20
-1396.9999999999959
 30
0.0
 11
10470.814954576221
 21
-1396.9999999999959
 31
0.0
1001
ACDBBLOCKREPETAG
1070
     1
1071
       55
1005
126167
  0
LINE
  5
126168
  8
OBJECT
 10
10466.0
 20
-1399.9999999999959
 30
0.0
 11
10466.0
 21
-1396.9999999999959
 31
0.0
1001
ACDBBLOCKREPETAG
1070
     1
1071
       56
1005
126168
  0
LINE
  5
126169
  8
OBJECT
 10
10476.0
 20
-1347.9999999999959
 30
0.0
 11
10468.5
 21
-1344.9999999999959
 31
0.0
1001
ACDBBLOCKREPETAG
1070
     1
1071
       57
1005
126169
  0
LINE
  5
12616A
  8
OBJECT
 10
10451.18503599129
 20
-1388.999986840256
 30
0.0
 11
10451.18503599129
 21
-1396.999986840256
 31
0.0
1001
ACDBBLOCKREPETAG
1070
     1
1071
       58
1005
12616A
  0
LINE
  5
12616B
  8
OBJECT
 10
10456.0925013592
 20
-1388.999986840256
 30
0.0
 11
10456.0925013592
 21
-1396.999986840256
 31
0.0
1001
ACDBBLOCKREPETAG
1070
     1
1071
       59
1005
12616B
  0
LINE
  5
12616C
  8
OBJECT
 10
10465.90743209502
 20
-1388.999986840256
 30
0.0
 11
10465.90743209502
 21
-1396.999986840256
 31
0.0
1001
ACDBBLOCKREPETAG
1070
     1
1071
       60
1005
12616C
  0
LINE
  5
12616D
  8
OBJECT
 10
10470.81499155279
 20
-1388.999986840256
 30
0.0
 11
10470.81499155279
 21
-1396.999986840256
 31
0.0
1001
ACDBBLOCKREPETAG
1070
     1
1071
       61
1005
12616D
  0
LINE
  5
12616E
  8
OBJECT
 10
8443.0
 20
-1364.9999999999959
 30
0.0
 11
8557.0
 21
-1364.9999999999959
 31
0.0
1001
ACDBBLOCKREPETAG
1070
     1
1071
        0
1005
12616E
  0
LINE
  5
12616F
  8
OBJECT
 10
8443.0
 20
-1364.9999999999959
 30
0.0
 11
8443.0
 21
-1264.9999999999959
 31
0.0
1001
ACDBBLOCKREPETAG
1070
     1
1071
        1
1005
12616F
  0
LINE
  5
126170
  8
OBJECT
 10
8557.0
 20
-1364.9999999999959
 30
0.0
 11
8557.0
 21
-1264.9999999999959
 31
0.0
1001
ACDBBLOCKREPETAG
1070
     1
1071
        2
1005
126170
  0
LINE
  5
126171
  8
OBJECT
 10
8443.0
 20
-1264.9999999999959
 30
0.0
 11
8557.0
 21
-1264.9999999999959
 31
0.0
1001
ACDBBLOCKREPETAG
1070
     1
1071
        3
1005
126171
  0
LINE
  5
126172
  8
HIDDEN
 10
8450.0
 20
-1264.9999999999959
 30
0.0
 11
8450.0
 21
-1364.9999999999959
 31
0.0
1001
ACDBBLOCKREPETAG
1070
     1
1071
        4
1005
126172
  0
LINE
  5
126173
  8
HIDDEN
 10
8550.0
 20
-1264.9999999999959
 30
0.0
 11
8550.0
 21
-1364.9999999999959
 31
0.0
1001
ACDBBLOCKREPETAG
1070
     1
1071
        5
1005
126173
  0
LINE
  5
126174
  8
CENTER
 10
8500.0
 20
-1055.0
 30
0.0
 11
8500.0
 21
-1379.9999999999959
 31
0.0
1001
ACDBBLOCKREPETAG
1070
     1
1071
        6
1005
126174
  0
LINE
  5
126175
  8
OBJECT
 10
8425.0
 20
-1055.0
 30
0.0
 11
8425.0
 21
-1136.9999999999959
 31
0.0
1001
ACDBBLOCKREPETAG
1070
     1
1071
        7
1005
126175
  0
LINE
  5
126176
  8
OBJECT
 10
8575.0
 20
-1055.0
 30
0.0
 11
8575.0
 21
-1136.9999999999959
 31
0.0
1001
ACDBBLOCKREPETAG
1070
     1
1071
        8
1005
126176
  0
LINE
  5
126177
  8
OBJECT
 10
8425.0
 20
-1136.9999999999959
 30
0.0
 11
8575.0
 21
-1136.9999999999959
 31
0.0
1001
ACDBBLOCKREPETAG
1070
     1
1071
        9
1005
126177
  0
LINE
  5
126178
  8
OBJECT
 10
8425.0
 20
-1136.9999999999959
 30
0.0
 11
8443.0
 21
-1264.9999999999959
 31
0.0
1001
ACDBBLOCKREPETAG
1070
     1
1071
       10
1005
126178
  0
LINE
  5
126179
  8
OBJECT
 10
8557.0
 20
-1264.9999999999959
 30
0.0
 11
8575.0
 21
-1136.9999999999959
 31
0.0
1001
ACDBBLOCKREPETAG
1070
     1
1071
       11
1005
126179
  0
LINE
  5
12617A
  8
OBJECT
 10
6585.9999999999927
 20
-1388.9999999999991
 30
0.0
 11
6585.9999999999927
 21
-1398.9999999999991
 31
0.0
1001
ACDBBLOCKREPETAG
1070
     1
1071
      121
1005
12617A
  0
LINE
  5
12617B
  8
OBJECT
 10
6569.9999999999927
 20
-1388.9999999999991
 30
0.0
 11
6569.9999999999927
 21
-1398.9999999999991
 31
0.0
1001
ACDBBLOCKREPETAG
1070
     1
1071
      122
1005
12617B
  0
LINE
  5
12617C
  8
OBJECT
 10
6585.9999999999927
 20
-1398.9999999999991
 30
0.0
 11
6569.9999999999927
 21
-1398.9999999999991
 31
0.0
1001
ACDBBLOCKREPETAG
1070
     1
1071
      123
1005
12617C
  0
LINE
  5
12617D
  8
OBJECT
 10
6590.0
 20
-1349.9999999999959
 30
0.0
 11
6424.0
 21
-1349.9999999999959
 31
0.0
1001
ACDBBLOCKREPETAG
1070
     1
1071
      124
1005
12617D
  0
LINE
  5
12617E
  8
OBJECT
 10
6590.0
 20
-1364.9999999999991
 30
0.0
 11
6590.0
 21
-1349.9999999999959
 31
0.0
1001
ACDBBLOCKREPETAG
1070
     1
1071
      125
1005
12617E
  0
LINE
  5
12617F
  8
OBJECT
 10
6424.0
 20
-1364.9999999999991
 30
0.0
 11
6590.0
 21
-1364.9999999999991
 31
0.0
1001
ACDBBLOCKREPETAG
1070
     1
1071
      126
1005
12617F
  0
LINE
  5
126180
  8
OBJECT
 10
6567.4999999999873
 20
-1364.9999999999991
 30
0.0
 11
6567.4999999999873
 21
-1375.0
 31
0.0
1001
ACDBBLOCKREPETAG
1070
     1
1071
      127
1005
126180
  0
LINE
  5
126181
  8
OBJECT
 10
6572.9999999999927
 20
-1375.0
 30
0.0
 11
6572.9999999999927
 21
-1364.9999999999991
 31
0.0
1001
ACDBBLOCKREPETAG
1070
     1
1071
      128
1005
126181
  0
LINE
  5
126182
  8
OBJECT
 10
6582.9999999999927
 20
-1375.0
 30
0.0
 11
6582.9999999999927
 21
-1364.9999999999991
 31
0.0
1001
ACDBBLOCKREPETAG
1070
     1
1071
      129
1005
126182
  0
LINE
  5
126183
  8
OBJECT
 10
6424.0
 20
-1375.0
 30
0.0
 11
6424.0
 21
-1388.9999999999959
 31
0.0
1001
ACDBBLOCKREPETAG
1070
     1
1071
      130
1005
126183
  0
LINE
  5
126184
  8
OBJECT
 10
6590.0
 20
-1375.0
 30
0.0
 11
6590.0
 21
-1388.9999999999959
 31
0.0
1001
ACDBBLOCKREPETAG
1070
     1
1071
      131
1005
126184
  0
LINE
  5
126185
  8
OBJECT
 10
6424.0
 20
-1388.9999999999959
 30
0.0
 11
6590.0
 21
-1388.9999999999959
 31
0.0
1001
ACDBBLOCKREPETAG
1070
     1
1071
      132
1005
126185
  0
LINE
  5
126186
  8
OBJECT
 10
6424.0
 20
-1375.0
 30
0.0
 11
6590.0
 21
-1375.0
 31
0.0
1001
ACDBBLOCKREPETAG
1070
     1
1071
      133
1005
126186
  0
LINE
  5
126187
  8
OBJECT
 10
6432.4999999999864
 20
-1364.9999999999991
 30
0.0
 11
6432.4999999999864
 21
-1375.0
 31
0.0
1001
ACDBBLOCKREPETAG
1070
     1
1071
      134
1005
126187
  0
LINE
  5
126188
  8
OBJECT
 10
6434.0
 20
-1313.9999999999959
 30
0.0
 11
6565.9999999999918
 21
-1313.9999999999959
 31
0.0
1001
ACDBBLOCKREPETAG
1070
     1
1071
      135
1005
126188
  0
LINE
  5
126189
  8
OBJECT
 10
6424.0
 20
-1364.9999999999991
 30
0.0
 11
6424.0
 21
-1349.9999999999959
 31
0.0
1001
ACDBBLOCKREPETAG
1070
     1
1071
      136
1005
126189
  0
LINE
  5
12618A
  8
HIDDEN
 10
6443.0
 20
-1324.9999999999991
 30
0.0
 11
6557.0
 21
-1324.9999999999991
 31
0.0
1001
ACDBBLOCKREPETAG
1070
     1
1071
      137
1005
12618A
  0
LINE
  5
12618B
  8
OBJECT
 10
6586.9999999999927
 20
-1348.2
 30
0.0
 11
6586.9999999999927
 21
-1349.9999999999991
 31
0.0
1001
ACDBBLOCKREPETAG
1070
     1
1071
      138
1005
12618B
  0
LINE
  5
12618C
  8
OBJECT
 10
6568.9999999999909
 20
-1348.2
 30
0.0
 11
6568.9999999999909
 21
-1349.9999999999991
 31
0.0
1001
ACDBBLOCKREPETAG
1070
     1
1071
      139
1005
12618C
  0
LINE
  5
12618D
  8
OBJECT
 10
6572.2499999999927
 20
-1338.5
 30
0.0
 11
6583.7499999999927
 21
-1338.5
 31
0.0
1001
ACDBBLOCKREPETAG
1070
     1
1071
      140
1005
12618D
  0
LINE
  5
12618E
  8
OBJECT
 10
6572.2499999999927
 20
-1338.5
 30
0.0
 11
6572.2499999999927
 21
-1348.2
 31
0.0
1001
ACDBBLOCKREPETAG
1070
     1
1071
      141
1005
12618E
  0
LINE
  5
12618F
  8
OBJECT
 10
6583.7499999999927
 20
-1338.5
 30
0.0
 11
6583.7499999999927
 21
-1348.2
 31
0.0
1001
ACDBBLOCKREPETAG
1070
     1
1071
      142
1005
12618F
  0
LINE
  5
126190
  8
OBJECT
 10
6431.9999999999873
 20
-1429.9999999999991
 30
0.0
 11
6567.9999999999873
 21
-1429.9999999999991
 31
0.0
1001
ACDBBLOCKREPETAG
1070
     1
1071
      143
1005
126190
  0
LINE
  5
126191
  8
OBJECT
 10
6431.9999999999873
 20
-1429.9999999999991
 30
0.0
 11
6431.9999999999873
 21
-1388.9999999999991
 31
0.0
1001
ACDBBLOCKREPETAG
1070
     1
1071
      144
1005
126191
  0
LINE
  5
126192
  8
OBJECT
 10
6567.9999999999873
 20
-1429.9999999999991
 30
0.0
 11
6567.9999999999873
 21
-1388.9999999999991
 31
0.0
1001
ACDBBLOCKREPETAG
1070
     1
1071
      145
1005
126192
  0
LINE
  5
126193
  8
OBJECT
 10
6586.9999999999927
 20
-1348.2
 30
0.0
 11
6568.9999999999909
 21
-1348.2
 31
0.0
1001
ACDBBLOCKREPETAG
1070
     1
1071
      146
1005
126193
  0
LINE
  5
126194
  8
CENTER
 10
6500.0
 20
-1054.9999999999991
 30
0.0
 11
6500.0
 21
-1444.9999999999991
 31
0.0
1001
ACDBBLOCKREPETAG
1070
     1
1071
      147
1005
126194
  0
LINE
  5
126195
  8
OBJECT
 10
6425.0
 20
-1054.9999999999991
 30
0.0
 11
6425.0
 21
-1136.9999999999959
 31
0.0
1001
ACDBBLOCKREPETAG
1070
     1
1071
      148
1005
126195
  0
LINE
  5
126196
  8
OBJECT
 10
6575.0
 20
-1054.9999999999991
 30
0.0
 11
6575.0
 21
-1136.999999999992
 31
0.0
1001
ACDBBLOCKREPETAG
1070
     1
1071
      149
1005
126196
  0
LINE
  5
126197
  8
OBJECT
 10
6425.0
 20
-1136.9999999999959
 30
0.0
 11
6575.0
 21
-1136.999999999992
 31
0.0
1001
ACDBBLOCKREPETAG
1070
     1
1071
      150
1005
126197
  0
LINE
  5
126198
  8
OBJECT
 10
6443.0
 20
-1313.9999999999959
 30
0.0
 11
6443.0
 21
-1264.999999999992
 31
0.0
1001
ACDBBLOCKREPETAG
1070
     1
1071
      151
1005
126198
  0
LINE
  5
126199
  8
OBJECT
 10
6557.0
 20
-1264.999999999992
 30
0.0
 11
6443.0
 21
-1264.999999999992
 31
0.0
1001
ACDBBLOCKREPETAG
1070
     1
1071
      152
1005
126199
  0
LINE
  5
12619A
  8
OBJECT
 10
6557.0
 20
-1264.999999999992
 30
0.0
 11
6557.0
 21
-1313.9999999999959
 31
0.0
1001
ACDBBLOCKREPETAG
1070
     1
1071
      153
1005
12619A
  0
LINE
  5
12619B
  8
OBJECT
 10
6425.0
 20
-1136.9999999999959
 30
0.0
 11
6443.0
 21
-1264.999999999992
 31
0.0
1001
ACDBBLOCKREPETAG
1070
     1
1071
      154
1005
12619B
  0
LINE
  5
12619C
  8
OBJECT
 10
6557.0
 20
-1264.999999999992
 30
0.0
 11
6575.0
 21
-1136.999999999992
 31
0.0
1001
ACDBBLOCKREPETAG
1070
     1
1071
      155
1005
12619C
  0
LINE
  5
12619D
  8
OBJECT
 10
6434.0
 20
-1349.9999999999959
 30
0.0
 11
6434.0
 21
-1313.9999999999959
 31
0.0
1001
ACDBBLOCKREPETAG
1070
     1
1071
      156
1005
12619D
  0
LINE
  5
12619E
  8
OBJECT
 10
6566.0
 20
-1349.9999999999959
 30
0.0
 11
6565.9999999999918
 21
-1313.9999999999959
 31
0.0
1001
ACDBBLOCKREPETAG
1070
     1
1071
      157
1005
12619E
  0
LINE
  5
12619F
  8
OBJECT
 10
6454.75
 20
-1339.699999999993
 30
0.0
 11
6467.2499999999991
 21
-1339.699999999993
 31
0.0
1001
ACDBBLOCKREPETAG
1070
     1
1071
      158
1005
12619F
  0
LINE
  5
1261A0
  8
OBJECT
 10
6446.0
 20
-1349.9999999999959
 30
0.0
 11
6446.0
 21
-1347.6999999999971
 31
0.0
1001
ACDBBLOCKREPETAG
1070
     1
1071
      159
1005
1261A0
  0
LINE
  5
1261A1
  8
OBJECT
 10
6476.0
 20
-1349.9999999999959
 30
0.0
 11
6476.0
 21
-1347.6999999999971
 31
0.0
1001
ACDBBLOCKREPETAG
1070
     1
1071
      160
1005
1261A1
  0
LINE
  5
1261A2
  8
OBJECT
 10
6454.75
 20
-1339.699999999993
 30
0.0
 11
6454.75
 21
-1347.6999999999971
 31
0.0
1001
ACDBBLOCKREPETAG
1070
     1
1071
      161
1005
1261A2
  0
LINE
  5
1261A3
  8
OBJECT
 10
6467.2499999999991
 20
-1339.699999999993
 30
0.0
 11
6467.2499999999991
 21
-1347.6999999999971
 31
0.0
1001
ACDBBLOCKREPETAG
1070
     1
1071
      162
1005
1261A3
  0
LINE
  5
1261A4
  8
OBJECT
 10
6446.0
 20
-1347.6999999999971
 30
0.0
 11
6476.0
 21
-1347.6999999999971
 31
0.0
1001
ACDBBLOCKREPETAG
1070
     1
1071
      163
1005
1261A4
  0
LINE
  5
1261A5
  8
OBJECT
 10
6453.0
 20
-1388.9999999999959
 30
0.0
 11
6453.0
 21
-1398.9999999999959
 31
0.0
1001
ACDBBLOCKREPETAG
1070
     1
1071
      164
1005
1261A5
  0
LINE
  5
1261A6
  8
OBJECT
 10
6469.0
 20
-1388.9999999999959
 30
0.0
 11
6469.0
 21
-1398.9999999999959
 31
0.0
1001
ACDBBLOCKREPETAG
1070
     1
1071
      165
1005
1261A6
  0
LINE
  5
1261A7
  8
OBJECT
 10
6453.0
 20
-1398.9999999999959
 30
0.0
 11
6469.0
 21
-1398.9999999999959
 31
0.0
1001
ACDBBLOCKREPETAG
1070
     1
1071
      166
1005
1261A7
  0
LINE
  5
1261A8
  8
OBJECT
 10
6466.0
 20
-1374.9999999999959
 30
0.0
 11
6466.0
 21
-1364.9999999999959
 31
0.0
1001
ACDBBLOCKREPETAG
1070
     1
1071
      167
1005
1261A8
  0
LINE
  5
1261A9
  8
OBJECT
 10
6456.0
 20
-1374.9999999999959
 30
0.0
 11
6456.0
 21
-1364.9999999999959
 31
0.0
1001
ACDBBLOCKREPETAG
1070
     1
1071
      168
1005
1261A9
  0
LINE
  5
1261AA
  8
OBJECT
 10
4590.0
 20
-1349.9999999999959
 30
0.0
 11
4424.0
 21
-1349.9999999999959
 31
0.0
1001
ACDBBLOCKREPETAG
1070
     1
1071
       12
1005
1261AA
  0
LINE
  5
1261AB
  8
OBJECT
 10
4566.0
 20
-1313.9999999999959
 30
0.0
 11
4434.0
 21
-1313.9999999999959
 31
0.0
1001
ACDBBLOCKREPETAG
1070
     1
1071
       13
1005
1261AB
  0
LINE
  5
1261AC
  8
OBJECT
 10
4590.0
 20
-1365.0
 30
0.0
 11
4590.0
 21
-1349.9999999999959
 31
0.0
1001
ACDBBLOCKREPETAG
1070
     1
1071
       14
1005
1261AC
  0
LINE
  5
1261AD
  8
OBJECT
 10
4424.0
 20
-1365.0
 30
0.0
 11
4590.0
 21
-1365.0
 31
0.0
1001
ACDBBLOCKREPETAG
1070
     1
1071
       15
1005
1261AD
  0
LINE
  5
1261AE
  8
OBJECT
 10
4567.4999999999864
 20
-1365.0
 30
0.0
 11
4567.4999999999864
 21
-1375.0
 31
0.0
1001
ACDBBLOCKREPETAG
1070
     1
1071
       16
1005
1261AE
  0
LINE
  5
1261AF
  8
OBJECT
 10
4424.0
 20
-1375.0
 30
0.0
 11
4424.0
 21
-1388.9999999999959
 31
0.0
1001
ACDBBLOCKREPETAG
1070
     1
1071
       17
1005
1261AF
  0
LINE
  5
1261B0
  8
OBJECT
 10
4590.0
 20
-1375.0
 30
0.0
 11
4590.0
 21
-1388.9999999999959
 31
0.0
1001
ACDBBLOCKREPETAG
1070
     1
1071
       18
1005
1261B0
  0
LINE
  5
1261B1
  8
OBJECT
 10
4424.0
 20
-1388.9999999999959
 30
0.0
 11
4590.0
 21
-1388.9999999999959
 31
0.0
1001
ACDBBLOCKREPETAG
1070
     1
1071
       19
1005
1261B1
  0
LINE
  5
1261B2
  8
OBJECT
 10
4424.0
 20
-1375.0
 30
0.0
 11
4590.0
 21
-1375.0
 31
0.0
1001
ACDBBLOCKREPETAG
1070
     1
1071
       20
1005
1261B2
  0
LINE
  5
1261B3
  8
OBJECT
 10
4432.4999999999854
 20
-1365.0
 30
0.0
 11
4432.4999999999854
 21
-1375.0
 31
0.0
1001
ACDBBLOCKREPETAG
1070
     1
1071
       21
1005
1261B3
  0
LINE
  5
1261B4
  8
OBJECT
 10
4424.0
 20
-1365.0
 30
0.0
 11
4424.0
 21
-1349.9999999999959
 31
0.0
1001
ACDBBLOCKREPETAG
1070
     1
1071
       22
1005
1261B4
  0
LINE
  5
1261B5
  8
HIDDEN
 10
4443.0
 20
-1325.0
 30
0.0
 11
4557.0
 21
-1325.0
 31
0.0
1001
ACDBBLOCKREPETAG
1070
     1
1071
       23
1005
1261B5
  0
LINE
  5
1261B6
  8
CENTER
 10
4500.0
 20
-1055.0
 30
0.0
 11
4500.0
 21
-1403.9999999999959
 31
0.0
1001
ACDBBLOCKREPETAG
1070
     1
1071
       24
1005
1261B6
  0
LINE
  5
1261B7
  8
OBJECT
 10
4425.0
 20
-1055.0
 30
0.0
 11
4425.0
 21
-1136.9999999999959
 31
0.0
1001
ACDBBLOCKREPETAG
1070
     1
1071
       25
1005
1261B7
  0
LINE
  5
1261B8
  8
OBJECT
 10
4575.0
 20
-1055.0
 30
0.0
 11
4575.0
 21
-1136.999999999993
 31
0.0
1001
ACDBBLOCKREPETAG
1070
     1
1071
       26
1005
1261B8
  0
LINE
  5
1261B9
  8
OBJECT
 10
4425.0
 20
-1136.9999999999959
 30
0.0
 11
4575.0
 21
-1136.999999999993
 31
0.0
1001
ACDBBLOCKREPETAG
1070
     1
1071
       27
1005
1261B9
  0
LINE
  5
1261BA
  8
OBJECT
 10
4557.0
 20
-1313.9999999999959
 30
0.0
 11
4557.0
 21
-1264.999999999993
 31
0.0
1001
ACDBBLOCKREPETAG
1070
     1
1071
       28
1005
1261BA
  0
LINE
  5
1261BB
  8
OBJECT
 10
4443.0
 20
-1313.9999999999959
 30
0.0
 11
4443.0
 21
-1264.999999999993
 31
0.0
1001
ACDBBLOCKREPETAG
1070
     1
1071
       29
1005
1261BB
  0
LINE
  5
1261BC
  8
OBJECT
 10
4557.0
 20
-1264.999999999993
 30
0.0
 11
4443.0
 21
-1264.999999999993
 31
0.0
1001
ACDBBLOCKREPETAG
1070
     1
1071
       30
1005
1261BC
  0
LINE
  5
1261BD
  8
OBJECT
 10
4425.0
 20
-1136.9999999999959
 30
0.0
 11
4443.0
 21
-1264.999999999993
 31
0.0
1001
ACDBBLOCKREPETAG
1070
     1
1071
       31
1005
1261BD
  0
LINE
  5
1261BE
  8
OBJECT
 10
4557.0
 20
-1264.999999999993
 30
0.0
 11
4575.0
 21
-1136.999999999993
 31
0.0
1001
ACDBBLOCKREPETAG
1070
     1
1071
       32
1005
1261BE
  0
LINE
  5
1261BF
  8
OBJECT
 10
4434.0
 20
-1313.9999999999959
 30
0.0
 11
4434.0
 21
-1349.9999999999959
 31
0.0
1001
ACDBBLOCKREPETAG
1070
     1
1071
       33
1005
1261BF
  0
LINE
  5
1261C0
  8
OBJECT
 10
4566.0
 20
-1313.9999999999959
 30
0.0
 11
4566.0
 21
-1349.9999999999959
 31
0.0
1001
ACDBBLOCKREPETAG
1070
     1
1071
       34
1005
1261C0
  0
LINE
  5
1261C1
  8
OBJECT
 10
4582.9999999999927
 20
-1374.9999999999959
 30
0.0
 11
4582.9999999999927
 21
-1364.9999999999959
 31
0.0
1001
ACDBBLOCKREPETAG
1070
     1
1071
       35
1005
1261C1
  0
LINE
  5
1261C2
  8
OBJECT
 10
4572.9999999999918
 20
-1374.9999999999959
 30
0.0
 11
4572.9999999999918
 21
-1364.9999999999959
 31
0.0
1001
ACDBBLOCKREPETAG
1070
     1
1071
       36
1005
1261C2
  0
LINE
  5
1261C3
  8
OBJECT
 10
4568.9999999999864
 20
-1344.9999999999959
 30
0.0
 11
4568.9999999999864
 21
-1349.9999999999959
 31
0.0
1001
ACDBBLOCKREPETAG
1070
     1
1071
       37
1005
1261C3
  0
LINE
  5
1261C4
  8
OBJECT
 10
4587.0
 20
-1344.9999999999959
 30
0.0
 11
4587.0
 21
-1349.9999999999959
 31
0.0
1001
ACDBBLOCKREPETAG
1070
     1
1071
       38
1005
1261C4
  0
LINE
  5
1261C5
  8
OBJECT
 10
4587.0
 20
-1344.9999999999959
 30
0.0
 11
4568.9999999999864
 21
-1344.9999999999959
 31
0.0
1001
ACDBBLOCKREPETAG
1070
     1
1071
       39
1005
1261C5
  0
LINE
  5
1261C6
  8
OBJECT
 10
4573.0
 20
-1396.9999999999959
 30
0.0
 11
4573.0
 21
-1399.9999999999959
 31
0.0
1001
ACDBBLOCKREPETAG
1070
     1
1071
       40
1005
1261C6
  0
LINE
  5
1261C7
  8
OBJECT
 10
4573.0
 20
-1399.9999999999959
 30
0.0
 11
4583.0
 21
-1399.9999999999959
 31
0.0
1001
ACDBBLOCKREPETAG
1070
     1
1071
       41
1005
1261C7
  0
LINE
  5
1261C8
  8
OBJECT
 10
4568.185045423772
 20
-1396.9999999999959
 30
0.0
 11
4587.814954576219
 21
-1396.9999999999959
 31
0.0
1001
ACDBBLOCKREPETAG
1070
     1
1071
       42
1005
1261C8
  0
LINE
  5
1261C9
  8
OBJECT
 10
4583.0
 20
-1399.9999999999959
 30
0.0
 11
4583.0
 21
-1396.9999999999959
 31
0.0
1001
ACDBBLOCKREPETAG
1070
     1
1071
       43
1005
1261C9
  0
LINE
  5
1261CA
  8
OBJECT
 10
4568.1850359912942
 20
-1388.999986840256
 30
0.0
 11
4568.1850359912942
 21
-1396.999986840256
 31
0.0
1001
ACDBBLOCKREPETAG
1070
     1
1071
       44
1005
1261CA
  0
LINE
  5
1261CB
  8
OBJECT
 10
4573.0925013591968
 20
-1388.999986840256
 30
0.0
 11
4573.0925013591968
 21
-1396.999986840256
 31
0.0
1001
ACDBBLOCKREPETAG
1070
     1
1071
       45
1005
1261CB
  0
LINE
  5
1261CC
  8
OBJECT
 10
4582.907432095024
 20
-1388.999986840256
 30
0.0
 11
4582.907432095024
 21
-1396.999986840256
 31
0.0
1001
ACDBBLOCKREPETAG
1070
     1
1071
       46
1005
1261CC
  0
LINE
  5
1261CD
  8
OBJECT
 10
4587.8149915527974
 20
-1388.999986840256
 30
0.0
 11
4587.8149915527974
 21
-1396.999986840256
 31
0.0
1001
ACDBBLOCKREPETAG
1070
     1
1071
       47
1005
1261CD
  0
LINE
  5
1261CE
  8
OBJECT
 10
4468.5
 20
-1344.9999999999959
 30
0.0
 11
4451.9999999999909
 21
-1344.9999999999959
 31
0.0
1001
ACDBBLOCKREPETAG
1070
     1
1071
       48
1005
1261CE
  0
LINE
  5
1261CF
  8
OBJECT
 10
4476.0
 20
-1349.9999999999959
 30
0.0
 11
4476.0
 21
-1347.9999999999959
 31
0.0
1001
ACDBBLOCKREPETAG
1070
     1
1071
       49
1005
1261CF
  0
LINE
  5
1261D0
  8
OBJECT
 10
4466.0
 20
-1374.9999999999959
 30
0.0
 11
4466.0
 21
-1364.9999999999959
 31
0.0
1001
ACDBBLOCKREPETAG
1070
     1
1071
       50
1005
1261D0
  0
LINE
  5
1261D1
  8
OBJECT
 10
4456.0
 20
-1374.9999999999959
 30
0.0
 11
4456.0
 21
-1364.9999999999959
 31
0.0
1001
ACDBBLOCKREPETAG
1070
     1
1071
       51
1005
1261D1
  0
LINE
  5
1261D2
  8
OBJECT
 10
4451.9999999999909
 20
-1344.9999999999959
 30
0.0
 11
4451.9999999999909
 21
-1349.9999999999959
 31
0.0
1001
ACDBBLOCKREPETAG
1070
     1
1071
       52
1005
1261D2
  0
LINE
  5
1261D3
  8
OBJECT
 10
4456.0
 20
-1396.9999999999959
 30
0.0
 11
4456.0
 21
-1399.9999999999959
 31
0.0
1001
ACDBBLOCKREPETAG
1070
     1
1071
       53
1005
1261D3
  0
LINE
  5
1261D4
  8
OBJECT
 10
4456.0
 20
-1399.9999999999959
 30
0.0
 11
4466.0
 21
-1399.9999999999959
 31
0.0
1001
ACDBBLOCKREPETAG
1070
     1
1071
       54
1005
1261D4
  0
LINE
  5
1261D5
  8
OBJECT
 10
4451.185045423772
 20
-1396.9999999999959
 30
0.0
 11
4470.8149545762208
 21
-1396.9999999999959
 31
0.0
1001
ACDBBLOCKREPETAG
1070
     1
1071
       55
1005
1261D5
  0
LINE
  5
1261D6
  8
OBJECT
 10
4466.0
 20
-1399.9999999999959
 30
0.0
 11
4466.0
 21
-1396.9999999999959
 31
0.0
1001
ACDBBLOCKREPETAG
1070
     1
1071
       56
1005
1261D6
  0
LINE
  5
1261D7
  8
OBJECT
 10
4476.0
 20
-1347.9999999999959
 30
0.0
 11
4468.5
 21
-1344.9999999999959
 31
0.0
1001
ACDBBLOCKREPETAG
1070
     1
1071
       57
1005
1261D7
  0
LINE
  5
1261D8
  8
OBJECT
 10
4451.1850359912933
 20
-1388.999986840256
 30
0.0
 11
4451.1850359912933
 21
-1396.999986840256
 31
0.0
1001
ACDBBLOCKREPETAG
1070
     1
1071
       58
1005
1261D8
  0
LINE
  5
1261D9
  8
OBJECT
 10
4456.0925013591996
 20
-1388.999986840256
 30
0.0
 11
4456.0925013591996
 21
-1396.999986840256
 31
0.0
1001
ACDBBLOCKREPETAG
1070
     1
1071
       59
1005
1261D9
  0
LINE
  5
1261DA
  8
OBJECT
 10
4465.907432095024
 20
-1388.999986840256
 30
0.0
 11
4465.907432095024
 21
-1396.999986840256
 31
0.0
1001
ACDBBLOCKREPETAG
1070
     1
1071
       60
1005
1261DA
  0
LINE
  5
1261DB
  8
OBJECT
 10
4470.8149915527974
 20
-1388.999986840256
 30
0.0
 11
4470.8149915527974
 21
-1396.999986840256
 31
0.0
1001
ACDBBLOCKREPETAG
1070
     1
1071
       61
1005
1261DB
  0
LINE
  5
1261DC
  8
CENTER
 10
12409.0
 20
-1638.9999999999959
 30
0.0
 11
12605.0
 21
-1638.9999999999959
 31
0.0
1001
ACDBBLOCKREPETAG
1070
     1
1071
       10
1005
1261DC
  0
LINE
  5
1261DD
  8
CENTER
 10
12500.0
 20
-1547.7253355707801
 30
0.0
 11
12500.0
 21
-1730.2746644292131
 31
0.0
1001
ACDBBLOCKREPETAG
1070
     1
1071
       11
1005
1261DD
  0
CIRCLE
  5
1261DE
  8
OBJECT
 10
12500.0
 20
-1638.9999999999959
 30
0.0
 40
50.0
1001
ACDBBLOCKREPETAG
1070
     1
1071
       12
1005
1261DE
  0
CIRCLE
  5
1261DF
  8
OBJECT
 10
12500.0
 20
-1638.9999999999959
 30
0.0
 40
60.0
1001
ACDBBLOCKREPETAG
1070
     1
1071
       13
1005
1261DF
  0
CIRCLE
  5
1261E0
  8
OBJECT
 10
12500.0
 20
-1638.9999999999959
 30
0.0
 40
68.0
1001
ACDBBLOCKREPETAG
1070
     1
1071
       14
1005
1261E0
  0
ARC
  5
1261E1
  8
OBJECT
 10
12577.5
 20
-1638.9999999999959
 30
0.0
 40
12.0
 50
272.10542627221611
 51
87.894573727783893
1001
ACDBBLOCKREPETAG
1070
     1
1071
       15
1005
1261E1
  0
ARC
  5
1261E2
  8
OBJECT
 10
12578.49193548386
 20
-1612.0182271895239
 30
0.0
 40
15.0
 50
198.97051877965251
 51
267.89457372778372
1001
ACDBBLOCKREPETAG
1070
     1
1071
       16
1005
1261E2
  0
ARC
  5
1261E3
  8
OBJECT
 10
12578.49193548386
 20
-1665.981772810464
 30
0.0
 40
15.0
 50
92.105426272216135
 51
161.02948122034729
1001
ACDBBLOCKREPETAG
1070
     1
1071
       17
1005
1261E3
  0
CIRCLE
  5
1261E4
  8
SLIM
 10
12578.0
 20
-1638.9999999999959
 30
0.0
 40
8.0
1001
ACDBBLOCKREPETAG
1070
     1
1071
       18
1005
1261E4
  0
POLYLINE
  5
1261E5
  8
SLIM
 66
     1
 10
0.0
 20
0.0
 30
0.0
 70
     1
1001
ACDBBLOCKREPETAG
1070
     1
1071
       19
1005
1261E5
  0
VERTEX
  5
1266F2
  8
SLIM
 10
12575.690598923229
 20
-1634.9999999999959
 30
0.0
  0
VERTEX
  5
1266F3
  8
SLIM
 10
12573.38119784648
 20
-1638.9999999999959
 30
0.0
  0
VERTEX
  5
1266F4
  8
SLIM
 10
12575.690598923229
 20
-1642.9999999999959
 30
0.0
  0
VERTEX
  5
1266F5
  8
SLIM
 10
12580.309401076751
 20
-1642.9999999999959
 30
0.0
  0
VERTEX
  5
1266F6
  8
SLIM
 10
12582.618802153511
 20
-1638.9999999999959
 30
0.0
  0
VERTEX
  5
1266F7
  8
SLIM
 10
12580.309401076751
 20
-1634.9999999999959
 30
0.0
  0
SEQEND
  5
1266F8
  8
SLIM
  0
ARC
  5
1261E6
  8
OBJECT
 10
12461.25
 20
-1571.8830312067
 30
0.0
 40
12.0
 50
32.105426272130188
 51
207.89457372768319
1001
ACDBBLOCKREPETAG
1070
     1
1071
       20
1005
1261E6
  0
ARC
  5
1261E7
  8
OBJECT
 10
12437.38713156505
 20
-1584.514876283989
 30
0.0
 40
15.0
 50
318.97051877944762
 51
27.89457372768311
1001
ACDBBLOCKREPETAG
1070
     1
1071
       21
1005
1261E7
  0
ARC
  5
1261E8
  8
OBJECT
 10
12484.120932951069
 20
-1557.533103473517
 30
0.0
 40
15.0
 50
212.10542627213019
 51
281.02948122044069
1001
ACDBBLOCKREPETAG
1070
     1
1071
       22
1005
1261E8
  0
CIRCLE
  5
1261E9
  8
SLIM
 10
12461.0
 20
-1571.450018504808
 30
0.0
 40
7.9999999999999982
1001
ACDBBLOCKREPETAG
1070
     1
1071
       23
1005
1261E9
  0
POLYLINE
  5
1261EA
  8
SLIM
 66
     1
 10
0.0
 20
0.0
 30
0.0
 70
     1
1001
ACDBBLOCKREPETAG
1070
     1
1071
       24
1005
1261EA
  0
VERTEX
  5
1266F9
  8
SLIM
 10
12458.69059892324
 20
-1575.4500185048089
 30
0.0
  0
VERTEX
  5
1266FA
  8
SLIM
 10
12463.309401076751
 20
-1575.4500185048089
 30
0.0
  0
VERTEX
  5
1266FB
  8
SLIM
 10
12465.618802153511
 20
-1571.450018504808
 30
0.0
  0
VERTEX
  5
1266FC
  8
SLIM
 10
12463.309401076751
 20
-1567.4500185048089
 30
0.0
  0
VERTEX
  5
1266FD
  8
SLIM
 10
12458.69059892324
 20
-1567.4500185048089
 30
0.0
  0
VERTEX
  5
1266FE
  8
SLIM
 10
12456.38119784648
 20
-1571.450018504808
 30
0.0
  0
SEQEND
  5
1266FF
  8
SLIM
  0
ARC
  5
1261EB
  8
OBJECT
 10
12461.25
 20
-1706.1169687932891
 30
0.0
 40
12.0
 50
152.10542627231681
 51
327.89457372786978
1001
ACDBBLOCKREPETAG
1070
     1
1071
       25
1005
1261EB
  0
ARC
  5
1261EC
  8
OBJECT
 10
12484.120932951069
 20
-1720.4668965264721
 30
0.0
 40
15.0
 50
78.970518779559228
 51
147.89457372786981
1001
ACDBBLOCKREPETAG
1070
     1
1071
       26
1005
1261EC
  0
ARC
  5
1261ED
  8
OBJECT
 10
12437.38713156505
 20
-1693.485123716004
 30
0.0
 40
15.0
 50
332.10542627231678
 51
41.029481220552412
1001
ACDBBLOCKREPETAG
1070
     1
1071
       27
1005
1261ED
  0
CIRCLE
  5
1261EE
  8
SLIM
 10
12461.0
 20
-1706.549981495182
 30
0.0
 40
8.0
1001
ACDBBLOCKREPETAG
1070
     1
1071
       28
1005
1261EE
  0
POLYLINE
  5
1261EF
  8
SLIM
 66
     1
 10
0.0
 20
0.0
 30
0.0
 70
     1
1001
ACDBBLOCKREPETAG
1070
     1
1071
       29
1005
1261EF
  0
VERTEX
  5
126700
  8
SLIM
 10
12465.618802153511
 20
-1706.54998149518
 30
0.0
  0
VERTEX
  5
126701
  8
SLIM
 10
12463.309401076751
 20
-1702.5499814951829
 30
0.0
  0
VERTEX
  5
126702
  8
SLIM
 10
12458.69059892324
 20
-1702.54998149518
 30
0.0
  0
VERTEX
  5
126703
  8
SLIM
 10
12456.38119784648
 20
-1706.549981495182
 30
0.0
  0
VERTEX
  5
126704
  8
SLIM
 10
12458.69059892322
 20
-1710.54998149518
 30
0.0
  0
VERTEX
  5
126705
  8
SLIM
 10
12463.309401076751
 20
-1710.5499814951841
 30
0.0
  0
SEQEND
  5
126706
  8
SLIM
  0
ARC
  5
1261F0
  8
OBJECT
 10
12500.0
 20
-1638.9999999999959
 30
0.0
 40
76.0
 50
34.863837954171863
 51
85.136162045732945
1001
ACDBBLOCKREPETAG
1070
     1
1071
       42
1005
1261F0
  0
ARC
  5
1261F1
  8
OBJECT
 10
12500.0
 20
-1638.9999999999959
 30
0.0
 40
76.0
 50
154.86383795430939
 51
205.1361620456905
1001
ACDBBLOCKREPETAG
1070
     1
1071
       43
1005
1261F1
  0
ARC
  5
1261F2
  8
OBJECT
 10
12500.0
 20
-1638.9999999999959
 30
0.0
 40
76.0
 50
274.86383795426718
 51
325.13616204582797
1001
ACDBBLOCKREPETAG
1070
     1
1071
       44
1005
1261F2
  0
ARC
  5
1261F3
  8
OBJECT
 10
12578.0
 20
-1638.9999999999959
 30
0.0
 40
12.0
 50
325.13616204582797
 51
34.863837954171863
1001
ACDBBLOCKREPETAG
1070
     1
1071
       45
1005
1261F3
  0
LINE
  5
1261F4
  8
OBJECT
 10
12587.84615384616
 20
-1632.140462520134
 30
0.0
 11
12562.35897435904
 21
-1595.556262627535
 31
0.0
1001
ACDBBLOCKREPETAG
1070
     1
1071
       46
1005
1261F4
  0
LINE
  5
1261F5
  8
OBJECT
 10
12587.846153846171
 20
-1645.859537479857
 30
0.0
 11
12562.35897435904
 21
-1682.4437373724591
 31
0.0
1001
ACDBBLOCKREPETAG
1070
     1
1071
       47
1005
1261F5
  0
ARC
  5
1261F6
  8
OBJECT
 10
12461.0
 20
-1571.4500185048109
 30
0.0
 40
12.0
 50
85.136162045942811
 51
154.86383795410001
1001
ACDBBLOCKREPETAG
1070
     1
1071
       48
1005
1261F6
  0
LINE
  5
1261F7
  8
OBJECT
 10
12450.13638936114
 20
-1566.3527678843909
 30
0.0
 11
12431.19713262058
 21
-1606.7174127373471
 31
0.0
1001
ACDBBLOCKREPETAG
1070
     1
1071
       49
1005
1261F7
  0
LINE
  5
1261F8
  8
OBJECT
 10
12462.017456792681
 20
-1559.4932304045269
 30
0.0
 11
12506.443893020371
 21
-1563.273675364886
 31
0.0
1001
ACDBBLOCKREPETAG
1070
     1
1071
       50
1005
1261F8
  0
ARC
  5
1261F9
  8
OBJECT
 10
12461.0
 20
-1706.549981495182
 30
0.0
 40
12.0
 50
205.13616204589991
 51
274.8638379540572
1001
ACDBBLOCKREPETAG
1070
     1
1071
       51
1005
1261F9
  0
LINE
  5
1261FA
  8
OBJECT
 10
12462.01745679269
 20
-1718.506769595464
 30
0.0
 11
12506.44389302036
 21
-1714.726324635106
 31
0.0
1001
ACDBBLOCKREPETAG
1070
     1
1071
       52
1005
1261FA
  0
LINE
  5
1261FB
  8
OBJECT
 10
12450.13638936114
 20
-1711.647232115605
 30
0.0
 11
12431.19713262058
 21
-1671.2825872626429
 31
0.0
1001
ACDBBLOCKREPETAG
1070
     1
1071
       53
1005
1261FB
  0
LINE
  5
1261FC
  8
CENTER
 10
10409.0
 20
-1638.9999999999959
 30
0.0
 11
10605.0
 21
-1638.9999999999959
 31
0.0
1001
ACDBBLOCKREPETAG
1070
     1
1071
        0
1005
1261FC
  0
LINE
  5
1261FD
  8
CENTER
 10
10500.0
 20
-1547.7253355707801
 30
0.0
 11
10500.0
 21
-1730.2746644292131
 31
0.0
1001
ACDBBLOCKREPETAG
1070
     1
1071
        1
1005
1261FD
  0
CIRCLE
  5
1261FE
  8
OBJECT
 10
10500.0
 20
-1638.9999999999959
 30
0.0
 40
50.0
1001
ACDBBLOCKREPETAG
1070
     1
1071
        2
1005
1261FE
  0
CIRCLE
  5
1261FF
  8
OBJECT
 10
10500.0
 20
-1638.9999999999959
 30
0.0
 40
62.0
1001
ACDBBLOCKREPETAG
1070
     1
1071
        3
1005
1261FF
  0
CIRCLE
  5
126200
  8
SLIM
 10
10578.0
 20
-1638.9999999999959
 30
0.0
 40
5.0
1001
ACDBBLOCKREPETAG
1070
     1
1071
        4
1005
126200
  0
POLYLINE
  5
126201
  8
SLIM
 66
     1
 10
0.0
 20
0.0
 30
0.0
 70
     1
1001
ACDBBLOCKREPETAG
1070
     1
1071
        5
1005
126201
  0
VERTEX
  5
126707
  8
SLIM
 10
10573.092522711881
 20
-1630.4999999999959
 30
0.0
  0
VERTEX
  5
126708
  8
SLIM
 10
10568.18504542377
 20
-1638.9999999999959
 30
0.0
  0
VERTEX
  5
126709
  8
SLIM
 10
10573.092522711881
 20
-1647.4999999999959
 30
0.0
  0
VERTEX
  5
12670A
  8
SLIM
 10
10582.90747728811
 20
-1647.4999999999959
 30
0.0
  0
VERTEX
  5
12670B
  8
SLIM
 10
10587.814954576221
 20
-1638.9999999999959
 30
0.0
  0
VERTEX
  5
12670C
  8
SLIM
 10
10582.90747728811
 20
-1630.4999999999959
 30
0.0
  0
SEQEND
  5
12670D
  8
SLIM
  0
CIRCLE
  5
126202
  8
SLIM
 10
10461.0
 20
-1571.450018504808
 30
0.0
 40
4.9999999999999991
1001
ACDBBLOCKREPETAG
1070
     1
1071
        6
1005
126202
  0
POLYLINE
  5
126203
  8
SLIM
 66
     1
 10
0.0
 20
0.0
 30
0.0
 70
     1
1001
ACDBBLOCKREPETAG
1070
     1
1071
        7
1005
126203
  0
VERTEX
  5
12670E
  8
SLIM
 10
10456.092522711881
 20
-1579.950018504808
 30
0.0
  0
VERTEX
  5
12670F
  8
SLIM
 10
10465.90747728811
 20
-1579.950018504808
 30
0.0
  0
VERTEX
  5
126710
  8
SLIM
 10
10470.814954576221
 20
-1571.450018504808
 30
0.0
  0
VERTEX
  5
126711
  8
SLIM
 10
10465.90747728811
 20
-1562.9500185048089
 30
0.0
  0
VERTEX
  5
126712
  8
SLIM
 10
10456.092522711881
 20
-1562.9500185048089
 30
0.0
  0
VERTEX
  5
126713
  8
SLIM
 10
10451.18504542377
 20
-1571.450018504808
 30
0.0
  0
SEQEND
  5
126714
  8
SLIM
  0
CIRCLE
  5
126204
  8
SLIM
 10
10461.0
 20
-1706.549981495182
 30
0.0
 40
5.0
1001
ACDBBLOCKREPETAG
1070
     1
1071
        8
1005
126204
  0
POLYLINE
  5
126205
  8
SLIM
 66
     1
 10
0.0
 20
0.0
 30
0.0
 70
     1
1001
ACDBBLOCKREPETAG
1070
     1
1071
        9
1005
126205
  0
VERTEX
  5
126715
  8
SLIM
 10
10470.814954576221
 20
-1706.549981495182
 30
0.0
  0
VERTEX
  5
126716
  8
SLIM
 10
10465.907477288099
 20
-1698.04998149518
 30
0.0
  0
VERTEX
  5
126717
  8
SLIM
 10
10456.092522711881
 20
-1698.0499814951841
 30
0.0
  0
VERTEX
  5
126718
  8
SLIM
 10
10451.18504542377
 20
-1706.54998149518
 30
0.0
  0
VERTEX
  5
126719
  8
SLIM
 10
10456.092522711881
 20
-1715.0499814951829
 30
0.0
  0
VERTEX
  5
12671A
  8
SLIM
 10
10465.90747728811
 20
-1715.04998149518
 30
0.0
  0
SEQEND
  5
12671B
  8
SLIM
  0
ARC
  5
126206
  8
OBJECT
 10
10500.0
 20
-1638.9999999999959
 30
0.0
 40
76.0
 50
34.863837954171863
 51
85.136162045732945
1001
ACDBBLOCKREPETAG
1070
     1
1071
       30
1005
126206
  0
ARC
  5
126207
  8
OBJECT
 10
10500.0
 20
-1638.9999999999959
 30
0.0
 40
76.0
 50
154.86383795430939
 51
205.1361620456905
1001
ACDBBLOCKREPETAG
1070
     1
1071
       31
1005
126207
  0
ARC
  5
126208
  8
OBJECT
 10
10500.0
 20
-1638.9999999999959
 30
0.0
 40
76.0
 50
274.86383795426718
 51
325.13616204582797
1001
ACDBBLOCKREPETAG
1070
     1
1071
       32
1005
126208
  0
ARC
  5
126209
  8
OBJECT
 10
10578.0
 20
-1638.9999999999959
 30
0.0
 40
12.0
 50
325.13616204582797
 51
34.863837954171863
1001
ACDBBLOCKREPETAG
1070
     1
1071
       33
1005
126209
  0
LINE
  5
12620A
  8
OBJECT
 10
10587.84615384616
 20
-1632.140462520134
 30
0.0
 11
10562.35897435904
 21
-1595.556262627535
 31
0.0
1001
ACDBBLOCKREPETAG
1070
     1
1071
       34
1005
12620A
  0
LINE
  5
12620B
  8
OBJECT
 10
10587.846153846171
 20
-1645.859537479857
 30
0.0
 11
10562.35897435904
 21
-1682.4437373724591
 31
0.0
1001
ACDBBLOCKREPETAG
1070
     1
1071
       35
1005
12620B
  0
ARC
  5
12620C
  8
OBJECT
 10
10461.0
 20
-1571.4500185048109
 30
0.0
 40
12.0
 50
85.136162045942811
 51
154.86383795410001
1001
ACDBBLOCKREPETAG
1070
     1
1071
       36
1005
12620C
  0
LINE
  5
12620D
  8
OBJECT
 10
10450.13638936114
 20
-1566.3527678843909
 30
0.0
 11
10431.19713262058
 21
-1606.7174127373471
 31
0.0
1001
ACDBBLOCKREPETAG
1070
     1
1071
       37
1005
12620D
  0
LINE
  5
12620E
  8
OBJECT
 10
10462.017456792681
 20
-1559.4932304045269
 30
0.0
 11
10506.443893020371
 21
-1563.273675364886
 31
0.0
1001
ACDBBLOCKREPETAG
1070
     1
1071
       38
1005
12620E
  0
ARC
  5
12620F
  8
OBJECT
 10
10461.0
 20
-1706.549981495182
 30
0.0
 40
12.0
 50
205.13616204589991
 51
274.8638379540572
1001
ACDBBLOCKREPETAG
1070
     1
1071
       39
1005
12620F
  0
LINE
  5
126210
  8
OBJECT
 10
10462.01745679269
 20
-1718.506769595464
 30
0.0
 11
10506.44389302036
 21
-1714.726324635106
 31
0.0
1001
ACDBBLOCKREPETAG
1070
     1
1071
       40
1005
126210
  0
LINE
  5
126211
  8
OBJECT
 10
10450.13638936114
 20
-1711.647232115605
 30
0.0
 11
10431.19713262058
 21
-1671.2825872626429
 31
0.0
1001
ACDBBLOCKREPETAG
1070
     1
1071
       41
1005
126211
  0
LINE
  5
126212
  8
CENTER
 10
6409.0
 20
-1679.9999999999991
 30
0.0
 11
6605.0
 21
-1679.9999999999991
 31
0.0
1001
ACDBBLOCKREPETAG
1070
     1
1071
       10
1005
126212
  0
LINE
  5
126213
  8
CENTER
 10
6500.0
 20
-1588.725335570783
 30
0.0
 11
6500.0
 21
-1771.274664429216
 31
0.0
1001
ACDBBLOCKREPETAG
1070
     1
1071
       11
1005
126213
  0
CIRCLE
  5
126214
  8
OBJECT
 10
6500.0
 20
-1679.9999999999991
 30
0.0
 40
50.0
1001
ACDBBLOCKREPETAG
1070
     1
1071
       12
1005
126214
  0
CIRCLE
  5
126215
  8
OBJECT
 10
6500.0
 20
-1679.9999999999991
 30
0.0
 40
60.0
1001
ACDBBLOCKREPETAG
1070
     1
1071
       13
1005
126215
  0
CIRCLE
  5
126216
  8
OBJECT
 10
6500.0
 20
-1679.9999999999991
 30
0.0
 40
68.0
1001
ACDBBLOCKREPETAG
1070
     1
1071
       14
1005
126216
  0
ARC
  5
126217
  8
OBJECT
 10
6577.5
 20
-1679.9999999999991
 30
0.0
 40
12.0
 50
272.10542627221611
 51
87.894573727783893
1001
ACDBBLOCKREPETAG
1070
     1
1071
       15
1005
126217
  0
ARC
  5
126218
  8
OBJECT
 10
6578.4919354838639
 20
-1653.018227189528
 30
0.0
 40
15.0
 50
198.97051877963551
 51
267.89457372778372
1001
ACDBBLOCKREPETAG
1070
     1
1071
       16
1005
126218
  0
ARC
  5
126219
  8
OBJECT
 10
6578.4919354838639
 20
-1706.9817728104681
 30
0.0
 40
15.0
 50
92.105426272216135
 51
161.02948122036429
1001
ACDBBLOCKREPETAG
1070
     1
1071
       17
1005
126219
  0
CIRCLE
  5
12621A
  8
SLIM
 10
6578.0
 20
-1679.9999999999991
 30
0.0
 40
8.0
1001
ACDBBLOCKREPETAG
1070
     1
1071
       18
1005
12621A
  0
POLYLINE
  5
12621B
  8
SLIM
 66
     1
 10
0.0
 20
0.0
 30
0.0
 70
     1
1001
ACDBBLOCKREPETAG
1070
     1
1071
       19
1005
12621B
  0
VERTEX
  5
12671C
  8
SLIM
 10
6575.6905989232318
 20
-1675.9999999999991
 30
0.0
  0
VERTEX
  5
12671D
  8
SLIM
 10
6573.3811978464792
 20
-1679.9999999999991
 30
0.0
  0
VERTEX
  5
12671E
  8
SLIM
 10
6575.6905989232318
 20
-1683.9999999999991
 30
0.0
  0
VERTEX
  5
12671F
  8
SLIM
 10
6580.3094010767518
 20
-1683.9999999999991
 30
0.0
  0
VERTEX
  5
126720
  8
SLIM
 10
6582.6188021535127
 20
-1679.9999999999991
 30
0.0
  0
VERTEX
  5
126721
  8
SLIM
 10
6580.3094010767518
 20
-1675.9999999999991
 30
0.0
  0
SEQEND
  5
126722
  8
SLIM
  0
ARC
  5
12621C
  8
OBJECT
 10
6461.2499999999991
 20
-1612.883031206703
 30
0.0
 40
12.0
 50
32.105426272157878
 51
207.89457372770741
1001
ACDBBLOCKREPETAG
1070
     1
1071
       20
1005
12621C
  0
ARC
  5
12621D
  8
OBJECT
 10
6437.3871315650549
 20
-1625.514876283992
 30
0.0
 40
15.0
 50
318.97051877944762
 51
27.894573727707481
1001
ACDBBLOCKREPETAG
1070
     1
1071
       21
1005
12621D
  0
ARC
  5
12621E
  8
OBJECT
 10
6484.1209329510693
 20
-1598.53310347352
 30
0.0
 40
15.0
 50
212.1054262721579
 51
281.02948122044069
1001
ACDBBLOCKREPETAG
1070
     1
1071
       22
1005
12621E
  0
CIRCLE
  5
12621F
  8
SLIM
 10
6461.0
 20
-1612.4500185048121
 30
0.0
 40
7.9999999999999982
1001
ACDBBLOCKREPETAG
1070
     1
1071
       23
1005
12621F
  0
POLYLINE
  5
126220
  8
SLIM
 66
     1
 10
0.0
 20
0.0
 30
0.0
 70
     1
1001
ACDBBLOCKREPETAG
1070
     1
1071
       24
1005
126220
  0
VERTEX
  5
126723
  8
SLIM
 10
6458.69059892324
 20
-1616.4500185048121
 30
0.0
  0
VERTEX
  5
126724
  8
SLIM
 10
6463.3094010767518
 20
-1616.4500185048121
 30
0.0
  0
VERTEX
  5
126725
  8
SLIM
 10
6465.6188021535136
 20
-1612.4500185048121
 30
0.0
  0
VERTEX
  5
126726
  8
SLIM
 10
6463.3094010767518
 20
-1608.4500185048121
 30
0.0
  0
VERTEX
  5
126727
  8
SLIM
 10
6458.69059892324
 20
-1608.4500185048121
 30
0.0
  0
VERTEX
  5
126728
  8
SLIM
 10
6456.3811978464801
 20
-1612.4500185048121
 30
0.0
  0
SEQEND
  5
126729
  8
SLIM
  0
ARC
  5
126221
  8
OBJECT
 10
6461.2499999999991
 20
-1747.116968793292
 30
0.0
 40
12.0
 50
152.1054262722925
 51
327.89457372784221
1001
ACDBBLOCKREPETAG
1070
     1
1071
       25
1005
126221
  0
ARC
  5
126222
  8
OBJECT
 10
6484.1209329510693
 20
-1761.466896526475
 30
0.0
 40
15.0
 50
78.970518779559228
 51
147.8945737278421
1001
ACDBBLOCKREPETAG
1070
     1
1071
       26
1005
126222
  0
ARC
  5
126223
  8
OBJECT
 10
6437.3871315650549
 20
-1734.4851237160069
 30
0.0
 40
15.0
 50
332.1054262722925
 51
41.029481220552412
1001
ACDBBLOCKREPETAG
1070
     1
1071
       27
1005
126223
  0
CIRCLE
  5
126224
  8
SLIM
 10
6461.0
 20
-1747.5499814951861
 30
0.0
 40
8.0
1001
ACDBBLOCKREPETAG
1070
     1
1071
       28
1005
126224
  0
POLYLINE
  5
126225
  8
SLIM
 66
     1
 10
0.0
 20
0.0
 30
0.0
 70
     1
1001
ACDBBLOCKREPETAG
1070
     1
1071
       29
1005
126225
  0
VERTEX
  5
12672A
  8
SLIM
 10
6465.6188021535136
 20
-1747.5499814951829
 30
0.0
  0
VERTEX
  5
12672B
  8
SLIM
 10
6463.3094010767518
 20
-1743.549981495187
 30
0.0
  0
VERTEX
  5
12672C
  8
SLIM
 10
6458.69059892324
 20
-1743.5499814951829
 30
0.0
  0
VERTEX
  5
12672D
  8
SLIM
 10
6456.3811978464801
 20
-1747.5499814951861
 30
0.0
  0
VERTEX
  5
12672E
  8
SLIM
 10
6458.6905989232328
 20
-1751.549981495182
 30
0.0
  0
VERTEX
  5
12672F
  8
SLIM
 10
6463.3094010767518
 20
-1751.549981495187
 30
0.0
  0
SEQEND
  5
126730
  8
SLIM
  0
ARC
  5
126226
  8
OBJECT
 10
6500.0
 20
-1679.9999999999991
 30
0.0
 40
76.0
 50
34.863837954142063
 51
85.136162045732945
1001
ACDBBLOCKREPETAG
1070
     1
1071
       42
1005
126226
  0
ARC
  5
126227
  8
OBJECT
 10
6500.0
 20
-1679.9999999999991
 30
0.0
 40
76.0
 50
154.86383795430939
 51
205.1361620456905
1001
ACDBBLOCKREPETAG
1070
     1
1071
       43
1005
126227
  0
ARC
  5
126228
  8
OBJECT
 10
6500.0
 20
-1679.9999999999991
 30
0.0
 40
76.0
 50
274.86383795426718
 51
325.13616204585799
1001
ACDBBLOCKREPETAG
1070
     1
1071
       44
1005
126228
  0
ARC
  5
126229
  8
OBJECT
 10
6578.0
 20
-1679.9999999999991
 30
0.0
 40
12.0
 50
325.13616204585799
 51
34.863837954142063
1001
ACDBBLOCKREPETAG
1070
     1
1071
       45
1005
126229
  0
LINE
  5
12622A
  8
OBJECT
 10
6587.8461538461661
 20
-1673.1404625201369
 30
0.0
 11
6562.3589743590492
 21
-1636.556262627538
 31
0.0
1001
ACDBBLOCKREPETAG
1070
     1
1071
       46
1005
12622A
  0
LINE
  5
12622B
  8
OBJECT
 10
6587.8461538461688
 20
-1686.8595374798599
 30
0.0
 11
6562.3589743590492
 21
-1723.4437373724629
 31
0.0
1001
ACDBBLOCKREPETAG
1070
     1
1071
       47
1005
12622B
  0
ARC
  5
12622C
  8
OBJECT
 10
6461.0
 20
-1612.4500185048139
 30
0.0
 40
12.0
 50
85.136162045942811
 51
154.86383795410001
1001
ACDBBLOCKREPETAG
1070
     1
1071
       48
1005
12622C
  0
LINE
  5
12622D
  8
OBJECT
 10
6450.1363893611451
 20
-1607.3527678843941
 30
0.0
 11
6431.1971326205858
 21
-1647.7174127373501
 31
0.0
1001
ACDBBLOCKREPETAG
1070
     1
1071
       49
1005
12622D
  0
LINE
  5
12622E
  8
OBJECT
 10
6462.0174567926842
 20
-1600.4932304045301
 30
0.0
 11
6506.4438930203687
 21
-1604.273675364889
 31
0.0
1001
ACDBBLOCKREPETAG
1070
     1
1071
       50
1005
12622E
  0
ARC
  5
12622F
  8
OBJECT
 10
6461.0
 20
-1747.549981495185
 30
0.0
 40
12.0
 50
205.13616204589991
 51
274.8638379540572
1001
ACDBBLOCKREPETAG
1070
     1
1071
       51
1005
12622F
  0
LINE
  5
126230
  8
OBJECT
 10
6462.0174567926879
 20
-1759.5067695954669
 30
0.0
 11
6506.4438930203651
 21
-1755.7263246351099
 31
0.0
1001
ACDBBLOCKREPETAG
1070
     1
1071
       52
1005
126230
  0
LINE
  5
126231
  8
OBJECT
 10
6450.1363893611451
 20
-1752.6472321156079
 30
0.0
 11
6431.1971326205821
 21
-1712.282587262647
 31
0.0
1001
ACDBBLOCKREPETAG
1070
     1
1071
       53
1005
126231
  0
LINE
  5
126232
  8
CENTER
 10
4409.0
 20
-1638.9999999999959
 30
0.0
 11
4605.0
 21
-1638.9999999999959
 31
0.0
1001
ACDBBLOCKREPETAG
1070
     1
1071
        0
1005
126232
  0
LINE
  5
126233
  8
CENTER
 10
4500.0
 20
-1547.7253355707801
 30
0.0
 11
4500.0
 21
-1730.2746644292131
 31
0.0
1001
ACDBBLOCKREPETAG
1070
     1
1071
        1
1005
126233
  0
CIRCLE
  5
126234
  8
OBJECT
 10
4500.0
 20
-1638.9999999999959
 30
0.0
 40
50.0
1001
ACDBBLOCKREPETAG
1070
     1
1071
        2
1005
126234
  0
CIRCLE
  5
126235
  8
OBJECT
 10
4500.0
 20
-1638.9999999999959
 30
0.0
 40
62.0
1001
ACDBBLOCKREPETAG
1070
     1
1071
        3
1005
126235
  0
CIRCLE
  5
126236
  8
SLIM
 10
4578.0
 20
-1638.9999999999959
 30
0.0
 40
5.0
1001
ACDBBLOCKREPETAG
1070
     1
1071
        4
1005
126236
  0
POLYLINE
  5
126237
  8
SLIM
 66
     1
 10
0.0
 20
0.0
 30
0.0
 70
     1
1001
ACDBBLOCKREPETAG
1070
     1
1071
        5
1005
126237
  0
VERTEX
  5
126731
  8
SLIM
 10
4573.092522711886
 20
-1630.4999999999959
 30
0.0
  0
VERTEX
  5
126732
  8
SLIM
 10
4568.185045423772
 20
-1638.9999999999959
 30
0.0
  0
VERTEX
  5
126733
  8
SLIM
 10
4573.092522711886
 20
-1647.4999999999959
 30
0.0
  0
VERTEX
  5
126734
  8
SLIM
 10
4582.9074772881049
 20
-1647.4999999999959
 30
0.0
  0
VERTEX
  5
126735
  8
SLIM
 10
4587.814954576219
 20
-1638.9999999999959
 30
0.0
  0
VERTEX
  5
126736
  8
SLIM
 10
4582.9074772881049
 20
-1630.4999999999959
 30
0.0
  0
SEQEND
  5
126737
  8
SLIM
  0
CIRCLE
  5
126238
  8
SLIM
 10
4461.0
 20
-1571.450018504808
 30
0.0
 40
4.9999999999999991
1001
ACDBBLOCKREPETAG
1070
     1
1071
        6
1005
126238
  0
POLYLINE
  5
126239
  8
SLIM
 66
     1
 10
0.0
 20
0.0
 30
0.0
 70
     1
1001
ACDBBLOCKREPETAG
1070
     1
1071
        7
1005
126239
  0
VERTEX
  5
126738
  8
SLIM
 10
4456.092522711886
 20
-1579.950018504808
 30
0.0
  0
VERTEX
  5
126739
  8
SLIM
 10
4465.907477288114
 20
-1579.950018504808
 30
0.0
  0
VERTEX
  5
12673A
  8
SLIM
 10
4470.8149545762208
 20
-1571.450018504808
 30
0.0
  0
VERTEX
  5
12673B
  8
SLIM
 10
4465.907477288114
 20
-1562.9500185048089
 30
0.0
  0
VERTEX
  5
12673C
  8
SLIM
 10
4456.092522711886
 20
-1562.9500185048089
 30
0.0
  0
VERTEX
  5
12673D
  8
SLIM
 10
4451.185045423772
 20
-1571.450018504808
 30
0.0
  0
SEQEND
  5
12673E
  8
SLIM
  0
CIRCLE
  5
12623A
  8
SLIM
 10
4461.0
 20
-1706.549981495182
 30
0.0
 40
5.0
1001
ACDBBLOCKREPETAG
1070
     1
1071
        8
1005
12623A
  0
POLYLINE
  5
12623B
  8
SLIM
 66
     1
 10
0.0
 20
0.0
 30
0.0
 70
     1
1001
ACDBBLOCKREPETAG
1070
     1
1071
        9
1005
12623B
  0
VERTEX
  5
12673F
  8
SLIM
 10
4470.8149545762208
 20
-1706.549981495182
 30
0.0
  0
VERTEX
  5
126740
  8
SLIM
 10
4465.9074772881067
 20
-1698.04998149518
 30
0.0
  0
VERTEX
  5
126741
  8
SLIM
 10
4456.092522711886
 20
-1698.0499814951841
 30
0.0
  0
VERTEX
  5
126742
  8
SLIM
 10
4451.185045423772
 20
-1706.54998149518
 30
0.0
  0
VERTEX
  5
126743
  8
SLIM
 10
4456.092522711886
 20
-1715.0499814951829
 30
0.0
  0
VERTEX
  5
126744
  8
SLIM
 10
4465.907477288114
 20
-1715.04998149518
 30
0.0
  0
SEQEND
  5
126745
  8
SLIM
  0
ARC
  5
12623C
  8
OBJECT
 10
4500.0
 20
-1638.9999999999959
 30
0.0
 40
76.0
 50
34.863837954142063
 51
85.136162045732945
1001
ACDBBLOCKREPETAG
1070
     1
1071
       30
1005
12623C
  0
ARC
  5
12623D
  8
OBJECT
 10
4500.0
 20
-1638.9999999999959
 30
0.0
 40
76.0
 50
154.86383795430939
 51
205.1361620456905
1001
ACDBBLOCKREPETAG
1070
     1
1071
       31
1005
12623D
  0
ARC
  5
12623E
  8
OBJECT
 10
4500.0
 20
-1638.9999999999959
 30
0.0
 40
76.0
 50
274.86383795426718
 51
325.13616204585799
1001
ACDBBLOCKREPETAG
1070
     1
1071
       32
1005
12623E
  0
ARC
  5
12623F
  8
OBJECT
 10
4578.0
 20
-1638.9999999999959
 30
0.0
 40
12.0
 50
325.13616204585799
 51
34.863837954142063
1001
ACDBBLOCKREPETAG
1070
     1
1071
       33
1005
12623F
  0
LINE
  5
126240
  8
OBJECT
 10
4587.846153846167
 20
-1632.140462520134
 30
0.0
 11
4562.3589743590492
 21
-1595.556262627535
 31
0.0
1001
ACDBBLOCKREPETAG
1070
     1
1071
       34
1005
126240
  0
LINE
  5
126241
  8
OBJECT
 10
4587.8461538461697
 20
-1645.859537479857
 30
0.0
 11
4562.3589743590492
 21
-1682.4437373724591
 31
0.0
1001
ACDBBLOCKREPETAG
1070
     1
1071
       35
1005
126241
  0
ARC
  5
126242
  8
OBJECT
 10
4461.0
 20
-1571.4500185048109
 30
0.0
 40
12.0
 50
85.136162045942811
 51
154.86383795410001
1001
ACDBBLOCKREPETAG
1070
     1
1071
       36
1005
126242
  0
LINE
  5
126243
  8
OBJECT
 10
4450.1363893611451
 20
-1566.3527678843909
 30
0.0
 11
4431.1971326205839
 21
-1606.7174127373471
 31
0.0
1001
ACDBBLOCKREPETAG
1070
     1
1071
       37
1005
126243
  0
LINE
  5
126244
  8
OBJECT
 10
4462.0174567926833
 20
-1559.4932304045269
 30
0.0
 11
4506.443893020366
 21
-1563.273675364886
 31
0.0
1001
ACDBBLOCKREPETAG
1070
     1
1071
       38
1005
126244
  0
ARC
  5
126245
  8
OBJECT
 10
4461.0
 20
-1706.549981495182
 30
0.0
 40
12.0
 50
205.13616204589991
 51
274.8638379540572
1001
ACDBBLOCKREPETAG
1070
     1
1071
       39
1005
126245
  0
LINE
  5
126246
  8
OBJECT
 10
4462.0174567926879
 20
-1718.506769595464
 30
0.0
 11
4506.4438930203651
 21
-1714.726324635106
 31
0.0
1001
ACDBBLOCKREPETAG
1070
     1
1071
       40
1005
126246
  0
LINE
  5
126247
  8
OBJECT
 10
4450.1363893611451
 20
-1711.647232115605
 30
0.0
 11
4431.1971326205821
 21
-1671.2825872626429
 31
0.0
1001
ACDBBLOCKREPETAG
1070
     1
1071
       41
1005
126247
  0
LINE
  5
126248
  8
OBJECT
 10
2443.0
 20
-1364.9999999999959
 30
0.0
 11
2557.0
 21
-1364.9999999999959
 31
0.0
1001
ACDBBLOCKREPETAG
1070
     1
1071
        0
1005
126248
  0
LINE
  5
126249
  8
OBJECT
 10
2443.0
 20
-1364.9999999999959
 30
0.0
 11
2443.0
 21
-1264.9999999999959
 31
0.0
1001
ACDBBLOCKREPETAG
1070
     1
1071
        1
1005
126249
  0
LINE
  5
12624A
  8
OBJECT
 10
2557.0
 20
-1364.9999999999959
 30
0.0
 11
2557.0
 21
-1264.9999999999959
 31
0.0
1001
ACDBBLOCKREPETAG
1070
     1
1071
        2
1005
12624A
  0
LINE
  5
12624B
  8
OBJECT
 10
2443.0
 20
-1264.9999999999959
 30
0.0
 11
2557.0
 21
-1264.9999999999959
 31
0.0
1001
ACDBBLOCKREPETAG
1070
     1
1071
        3
1005
12624B
  0
LINE
  5
12624C
  8
HIDDEN
 10
2450.0
 20
-1264.9999999999959
 30
0.0
 11
2450.0
 21
-1364.9999999999959
 31
0.0
1001
ACDBBLOCKREPETAG
1070
     1
1071
        4
1005
12624C
  0
LINE
  5
12624D
  8
HIDDEN
 10
2550.0
 20
-1264.9999999999959
 30
0.0
 11
2550.0
 21
-1364.9999999999959
 31
0.0
1001
ACDBBLOCKREPETAG
1070
     1
1071
        5
1005
12624D
  0
LINE
  5
12624E
  8
CENTER
 10
2500.0
 20
-1055.0
 30
0.0
 11
2500.0
 21
-1379.9999999999959
 31
0.0
1001
ACDBBLOCKREPETAG
1070
     1
1071
        6
1005
12624E
  0
LINE
  5
12624F
  8
OBJECT
 10
2425.0
 20
-1055.0
 30
0.0
 11
2425.0
 21
-1136.9999999999959
 31
0.0
1001
ACDBBLOCKREPETAG
1070
     1
1071
        7
1005
12624F
  0
LINE
  5
126250
  8
OBJECT
 10
2575.0
 20
-1055.0
 30
0.0
 11
2575.0
 21
-1136.9999999999959
 31
0.0
1001
ACDBBLOCKREPETAG
1070
     1
1071
        8
1005
126250
  0
LINE
  5
126251
  8
OBJECT
 10
2425.0
 20
-1136.9999999999959
 30
0.0
 11
2575.0
 21
-1136.9999999999959
 31
0.0
1001
ACDBBLOCKREPETAG
1070
     1
1071
        9
1005
126251
  0
LINE
  5
126252
  8
OBJECT
 10
2425.0
 20
-1136.9999999999959
 30
0.0
 11
2443.0
 21
-1264.9999999999959
 31
0.0
1001
ACDBBLOCKREPETAG
1070
     1
1071
       10
1005
126252
  0
LINE
  5
126253
  8
OBJECT
 10
2557.0
 20
-1264.9999999999959
 30
0.0
 11
2575.0
 21
-1136.9999999999959
 31
0.0
1001
ACDBBLOCKREPETAG
1070
     1
1071
       11
1005
126253
  0
TEXT
  5
126254
  8
SLIM
 10
4353.75
 20
-1906.4999999999959
 30
0.0
 40
35.0
  1
両受けスタイル（W）
 41
0.75
  0
TEXT
  5
126255
  8
SLIM
 10
10239.125
 20
-1906.4999999999959
 30
0.0
 40
35.0
  1
両受けスタイル（W）＋シンドカット
 41
0.75
  0
TEXT
  5
126256
  8
SLIM
 10
12243.5
 20
-1906.4999999999959
 30
0.0
 40
35.0
  1
カンペイ君（WKP）＋シンドカット
 41
0.75
  0
TEXT
  5
126257
  8
SLIM
 10
8241.625
 20
-1632.499999999998
 30
0.0
 40
35.0
  1
片受けスタイル（S）＋シンドカット
 41
0.75
  0
TEXT
  5
126258
  8
SLIM
 10
6358.1250000000009
 20
-1947.4999999999991
 30
0.0
 40
35.0
  1
カンペイ君（WKP）
 41
0.75
  0
TEXT
  5
126259
  8
SLIM
 10
2356.25
 20
-1632.499999999998
 30
0.0
 40
35.0
  1
片受けスタイル（S）
 41
0.75
  0
TEXT
  5
12625A
  8
SLIM
 10
0.0
 20
370.0
 30
0.0
 40
100.0
  1
4SL2-A3-A00X0-PXXX-WKP
 41
0.75
  0
VIEWPORT
  5
F6BA7
 67
     1
  8
0
 10
195.9179030619629
 20
101.8328354358673
 30
0.0
 40
435.17763301655981
 41
222.19657968139651
 68
     1
 69
     1
1001
ACAD
1000
MVIEW
1002
{
1070
    16
1010
0.0
1020
0.0
1030
0.0
1010
0.0
1020
0.0
1030
1.0
1040
0.0
1040
222.19657968139651
1040
195.9179030619629
1040
101.8328354358673
1040
50.0
1040
0.0
1040
0.0
1070
     0
1070
     0
1070
     1
1070
     1
1070
     0
1070
     0
1070
     0
1070
     0
1040
0.0
1040
0.0
1040
0.0
1040
10.0
1040
10.0
1040
10.0
1040
10.0
1070
     0
1002
{
1002
}
1002
}
  0
VIEWPORT
  5
F6BA9
 67
     1
  8
OBJECT
 10
145.3303314447403
 20
101.8328338861465
 30
0.0
 40
232.5285303115844
 41
162.93253421783439
 68
     2
 69
     2
1001
ACAD
1000
MVIEW
1002
{
1070
    16
1010
0.0
1020
0.0
1030
0.0
1010
0.0
1020
0.0
1030
1.0
1040
0.0
1040
25942.55904403147
1040
2377.604457077377
1040
-7591.5176687056619
1040
50.0
1040
0.0
1040
0.0
1070
     0
1070
   600
1070
     1
1070
     1
1070
     0
1070
     0
1070
     0
1070
     0
1040
0.0
1040
0.0
1040
0.0
1040
1.0
1040
1.0
1040
0.0
1040
0.0
1070
     0
1002
{
1002
}
1002
}
  0
ENDSEC
  0
EOF
