  0
SECTION
  2
HEADER
  9
$ACADVER
  1
AC1009
  9
$INSBASE
 10
0.0
 20
0.0
 30
0.0
  9
$EXTMIN
 10
0.0
 20
-1878.9999999999991
 30
0.0
  9
$EXTMAX
 10
12387.100000000009
 20
770.0
 30
0.0
  9
$LIMMIN
 10
0.0
 20
0.0
  9
$LIMMAX
 10
210.0
 20
297.0
  9
$ORTHOMODE
 70
     0
  9
$REGENMODE
 70
     1
  9
$FILLMODE
 70
     1
  9
$QTEXTMODE
 70
     0
  9
$MIRRTEXT
 70
     0
  9
$DRAGMODE
 70
     2
  9
$LTSCALE
 40
1.0
  9
$OSMODE
 70
   109
  9
$ATTMODE
 70
     1
  9
$TEXTSIZE
 40
4.0
  9
$TRACEWID
 40
0.05
  9
$TEXTSTYLE
  7
STANDARD
  9
$CLAYER
  8
OBJECT
  9
$CELTYPE
  6
BYLAYER
  9
$CECOLOR
 62
   256
  9
$DIMSCALE
 40
10.0
  9
$DIMASZ
 40
2.0
  9
$DIMEXO
 40
1.0
  9
$DIMDLI
 40
10.0
  9
$DIMRND
 40
0.0
  9
$DIMDLE
 40
0.0
  9
$DIMEXE
 40
1.0
  9
$DIMTP
 40
0.0
  9
$DIMTM
 40
0.0
  9
$DIMTXT
 40
3.2000000000000002
  9
$DIMCEN
 40
0.0
  9
$DIMTSZ
 40
0.0
  9
$DIMTOL
 70
     0
  9
$DIMLIM
 70
     0
  9
$DIMTIH
 70
     0
  9
$DIMTOH
 70
     0
  9
$DIMSE1
 70
     0
  9
$DIMSE2
 70
     0
  9
$DIMTAD
 70
     1
  9
$DIMZIN
 70
     8
  9
$DIMBLK
  1
OPEN30
  9
$DIMASO
 70
     1
  9
$DIMSHO
 70
     1
  9
$DIMPOST
  1

  9
$DIMAPOST
  1

  9
$DIMALT
 70
     0
  9
$DIMALTD
 70
     2
  9
$DIMALTF
 40
25.399999999999999
  9
$DIMLFAC
 40
1.0
  9
$DIMTOFL
 70
     1
  9
$DIMTVP
 40
0.0
  9
$DIMTIX
 70
     0
  9
$DIMSOXD
 70
     0
  9
$DIMSAH
 70
     0
  9
$DIMBLK1
  1

  9
$DIMBLK2
  1

  9
$DIMSTYLE
  2
S10
  9
$DIMCLRD
 70
   256
  9
$DIMCLRE
 70
   256
  9
$DIMCLRT
 70
   256
  9
$DIMTFAC
 40
1.0
  9
$DIMGAP
 40
0.9
  9
$LUNITS
 70
     2
  9
$LUPREC
 70
     2
  9
$SKETCHINC
 40
0.1
  9
$FILLETRAD
 40
0.0
  9
$AUNITS
 70
     0
  9
$AUPREC
 70
     2
  9
$MENU
  1
ACAD
  9
$ELEVATION
 40
0.0
  9
$PELEVATION
 40
0.0
  9
$THICKNESS
 40
0.0
  9
$LIMCHECK
 70
     0
  9
$BLIPMODE
 70
     0
  9
$CHAMFERA
 40
2.0
  9
$CHAMFERB
 40
2.0
  9
$SKPOLY
 70
     0
  9
$TDCREATE
 40
2453095.4929404748
  9
$TDUPDATE
 40
2456666.5748819332
  9
$TDINDWG
 40
18.410128692099999
  9
$TDUSRTIMER
 40
18.410127418999998
  9
$USRTIMER
 70
     1
  9
$ANGBASE
 50
0.0
  9
$ANGDIR
 70
     0
  9
$PDMODE
 70
    35
  9
$PDSIZE
 40
2.0
  9
$PLINEWID
 40
0.0
  9
$COORDS
 70
     1
  9
$SPLFRAME
 70
     0
  9
$SPLINETYPE
 70
     6
  9
$SPLINESEGS
 70
     8
  9
$ATTDIA
 70
     0
  9
$ATTREQ
 70
     1
  9
$HANDLING
 70
     1
  9
$HANDSEED
  5
122506
  9
$SURFTAB1
 70
     6
  9
$SURFTAB2
 70
     6
  9
$SURFTYPE
 70
     6
  9
$SURFU
 70
     6
  9
$SURFV
 70
     6
  9
$UCSNAME
  2

  9
$UCSORG
 10
0.0
 20
0.0
 30
0.0
  9
$UCSXDIR
 10
1.0
 20
0.0
 30
0.0
  9
$UCSYDIR
 10
0.0
 20
1.0
 30
0.0
  9
$PUCSNAME
  2

  9
$PUCSORG
 10
0.0
 20
0.0
 30
0.0
  9
$PUCSXDIR
 10
1.0
 20
0.0
 30
0.0
  9
$PUCSYDIR
 10
0.0
 20
1.0
 30
0.0
  9
$USERI1
 70
     0
  9
$USERI2
 70
     0
  9
$USERI3
 70
     0
  9
$USERI4
 70
     0
  9
$USERI5
 70
     0
  9
$USERR1
 40
0.0
  9
$USERR2
 40
0.0
  9
$USERR3
 40
0.0
  9
$USERR4
 40
0.0
  9
$USERR5
 40
0.0
  9
$WORLDVIEW
 70
     1
  9
$SHADEDGE
 70
     3
  9
$SHADEDIF
 70
    70
  9
$TILEMODE
 70
     1
  9
$MAXACTVP
 70
    64
  9
$PLIMCHECK
 70
     0
  9
$PEXTMIN
 10
29.066066288948051
 20
20.366566777229309
 30
0.0
  9
$PEXTMAX
 10
261.5945966005325
 20
183.29910099506381
 30
0.0
  9
$PLIMMIN
 10
-3.17498779296875
 20
-3.1749999523162842
  9
$PLIMMAX
 10
293.83566284179687
 20
206.8406708240509
  9
$UNITMODE
 70
     0
  9
$VISRETAIN
 70
     1
  9
$PLINEGEN
 70
     0
  9
$PSLTSCALE
 70
     1
  0
ENDSEC
  0
SECTION
  2
TABLES
  0
TABLE
  2
VPORT
 70
     1
  0
VPORT
  2
*ACTIVE
 70
     0
 10
0.0
 20
0.0
 11
1.0
 21
1.0
 12
7601.6579436734464
 22
284.84500263265357
 13
0.0
 23
0.0
 14
1.0
 24
1.0
 15
0.0
 25
0.0
 16
0.0
 26
0.0
 36
1.0
 17
0.0
 27
0.0
 37
0.0
 40
10575.57540977437
 41
1.6622516556291389
 42
50.0
 43
0.0
 44
0.0
 50
0.0
 51
0.0
 71
     0
 72
   600
 73
     1
 74
     1
 75
     0
 76
     0
 77
     0
 78
     0
  0
ENDTAB
  0
TABLE
  2
LTYPE
 70
     4
  0
LTYPE
  2
CONTINUOUS
 70
     0
  3
Solid line
 72
    65
 73
     0
 40
0.0
  0
LTYPE
  2
PHANTOM2
 70
     0
  3
___ _ _ ___ _ _ ___ _ _ ___ _ _
 72
    65
 73
     6
 40
1.25
 49
0.625
 49
-0.125
 49
0.125
 49
-0.125
 49
0.125
 49
-0.125
  0
LTYPE
  2
ACAD_ISO08W100
 70
     0
  3
ISO long-dash short-dash ____ __ ____ __ ____ _
 72
    65
 73
     4
 40
36.0
 49
24.0
 49
-3.0
 49
6.0
 49
-3.0
  0
LTYPE
  2
ACAD_ISO02W100
 70
     0
  3
ISO dash __ __ __ __ __ __ __ __ __ __ __ __ __
 72
    65
 73
     2
 40
15.0
 49
12.0
 49
-3.0
  0
ENDTAB
  0
TABLE
  2
LAYER
 70
     7
  0
LAYER
  2
0
 70
     0
 62
     7
  6
CONTINUOUS
  0
LAYER
  2
OBJECT
 70
     0
 62
     4
  6
CONTINUOUS
  0
LAYER
  2
DEFPOINTS
 70
     0
 62
     7
  6
CONTINUOUS
  0
LAYER
  2
HIDDEN
 70
     0
 62
     2
  6
ACAD_ISO02W100
  0
LAYER
  2
CENTER
 70
     0
 62
     2
  6
ACAD_ISO08W100
  0
LAYER
  2
DOTS
 70
     0
 62
     1
  6
CONTINUOUS
  0
LAYER
  2
SLIM
 70
     0
 62
     2
  6
CONTINUOUS
  0
ENDTAB
  0
TABLE
  2
STYLE
 70
     2
  0
STYLE
  2
STANDARD
 70
     0
 40
0.0
 41
0.75
 50
0.0
 71
     0
 42
4.0
  3
simplex.shx
  4
bigfont.shx
  0
ENDTAB
  0
TABLE
  2
VIEW
 70
     0
  0
ENDTAB
  0
TABLE
  2
UCS
 70
     0
  0
ENDTAB
  0
TABLE
  2
APPID
 70
    18
  0
APPID
  2
ACAD
 70
     0
  0
APPID
  2
ACADANNOTATIVE
 70
     0
  0
APPID
  2
ACAD_PSEXT
 70
     0
  0
APPID
  2
ACAD_EXEMPT_FROM_CAD_STANDARDS
 70
     0
  0
APPID
  2
ACAECLAYERSTANDARD
 70
     0
  0
APPID
  2
ACAUTHENVIRON
 70
     0
  0
APPID
  2
ACDBDYNAMICBLOCKTRUENAME
 70
     0
  0
APPID
  2
ACDBDYNAMICBLOCKGUID
 70
     0
  0
APPID
  2
ACDBBLOCKREPETAG
 70
     0
  0
APPID
  2
ACDBBLOCKREPBTAG
 70
     0
  0
APPID
  2
ACAD_NAV_VCDISPLAY
 70
     0
  0
APPID
  2
ACAD_DSTYLE_DIMRADIAL_EXTENSION
 70
     0
  0
APPID
  2
ACAD_DSTYLE_DIMJAG
 70
     0
  0
APPID
  2
ACAD_DSTYLE_DIMTALN
 70
     0
  0
APPID
  2
ACADANNOPO
 70
     0
  0
APPID
  2
GRADIENTCOLOR1ACI
 70
     0
  0
APPID
  2
GRADIENTCOLOR2ACI
 70
     0
  0
APPID
  2
ACAD_MLEADERVER
 70
     0
  0
ENDTAB
  0
TABLE
  2
DIMSTYLE
 70
     3
  0
DIMSTYLE
  2
STANDARD
 70
     0
  3

  4

  5

  6

  7

 40
1.0
 41
0.18
 42
0.0625
 43
0.38
 44
0.18
 45
0.0
 46
0.0
 47
0.0
 48
0.0
140
0.18
141
0.09
142
0.0
143
25.399999999999999
144
1.0
145
0.0
146
1.0
147
0.09
 71
     0
 72
     0
 73
     1
 74
     1
 75
     0
 76
     0
 77
     0
 78
     0
170
     0
171
     2
172
     0
173
     0
174
     0
175
     0
176
     0
177
     0
178
     0
  0
DIMSTYLE
  2
S10
 70
     0
  3

  4

  5

  6

  7

 40
10.0
 41
2.0
 42
1.0
 43
10.0
 44
1.0
 45
0.0
 46
0.0
 47
0.0
 48
0.0
140
3.2000000000000002
141
0.0
142
0.0
143
25.399999999999999
144
1.0
145
0.0
146
1.0
147
0.9
 71
     0
 72
     0
 73
     0
 74
     0
 75
     0
 76
     0
 77
     1
 78
     8
170
     0
171
     2
172
     1
173
     0
174
     0
175
     0
176
   256
177
   256
178
   256
  0
ENDTAB
  0
ENDSEC
  0
SECTION
  2
BLOCKS
  0
BLOCK
  8
0
  2
$MODEL_SPACE
 70
     0
 10
0.0
 20
0.0
 30
0.0
  3
$MODEL_SPACE
  1

  0
ENDBLK
  5
12234B
  8
0
  0
BLOCK
 67
     1
  8
0
  2
$PAPER_SPACE
 70
     0
 10
0.0
 20
0.0
 30
0.0
  3
$PAPER_SPACE
  1

  0
ENDBLK
  5
122347
 67
     1
  8
0
  0
BLOCK
  8
0
  2
_OPEN30
 70
     0
 10
0.0
 20
0.0
 30
0.0
  3
_OPEN30
  1

  0
LINE
  5
202
  8
0
  6
BYBLOCK
 62
     0
 10
-1.0
 20
0.26794919
 30
0.0
 11
0.0
 21
0.0
 31
0.0
  0
LINE
  5
203
  8
0
  6
BYBLOCK
 62
     0
 10
0.0
 20
0.0
 30
0.0
 11
-1.0
 21
-0.26794919
 31
0.0
  0
LINE
  5
204
  8
0
  6
BYBLOCK
 62
     0
 10
0.0
 20
0.0
 30
0.0
 11
-1.0
 21
0.0
 31
0.0
  0
ENDBLK
  5
206
  8
0
  0
ENDSEC
  0
SECTION
  2
ENTITIES
  0
LINE
  5
121217
  8
OBJECT
 10
11923.0
 20
-470.99999999999937
 30
0.0
 11
11923.0
 21
-449.99999999999937
 31
0.0
1001
ACDBBLOCKREPETAG
1070
     1
1071
        0
1005
121217
  0
LINE
  5
121218
  8
OBJECT
 10
11923.0
 20
-449.99999999999937
 30
0.0
 11
12077.0
 21
-449.99999999999937
 31
0.0
1001
ACDBBLOCKREPETAG
1070
     1
1071
        1
1005
121218
  0
LINE
  5
121219
  8
HIDDEN
 10
11943.0
 20
-519.99999999999955
 30
0.0
 11
12057.0
 21
-519.99999999999955
 31
0.0
1001
ACDBBLOCKREPETAG
1070
     1
1071
        2
1005
121219
  0
LINE
  5
12121A
  8
OBJECT
 10
12077.0
 20
-449.99999999999937
 30
0.0
 11
12077.0
 21
-470.99999999999937
 31
0.0
1001
ACDBBLOCKREPETAG
1070
     1
1071
        3
1005
12121A
  0
LINE
  5
12121B
  8
OBJECT
 10
12077.0
 20
-470.99999999999937
 30
0.0
 11
11923.0
 21
-470.99999999999937
 31
0.0
1001
ACDBBLOCKREPETAG
1070
     1
1071
        4
1005
12121B
  0
LINE
  5
12121C
  8
CENTER
 10
12000.0
 20
-434.99999999999949
 30
0.0
 11
12000.0
 21
-789.99999999999955
 31
0.0
1001
ACDBBLOCKREPETAG
1070
     1
1071
        5
1005
12121C
  0
LINE
  5
12121D
  8
OBJECT
 10
11925.0
 20
-533.99999999999955
 30
0.0
 11
11925.0
 21
-777.99999999999955
 31
0.0
1001
ACDBBLOCKREPETAG
1070
     1
1071
        6
1005
12121D
  0
LINE
  5
12121E
  8
OBJECT
 10
11928.0
 20
-470.99999999999937
 30
0.0
 11
11928.0
 21
-533.99999999999955
 31
0.0
1001
ACDBBLOCKREPETAG
1070
     1
1071
        7
1005
12121E
  0
LINE
  5
12121F
  8
OBJECT
 10
12072.0
 20
-533.99999999999955
 30
0.0
 11
12072.0
 21
-470.99999999999937
 31
0.0
1001
ACDBBLOCKREPETAG
1070
     1
1071
        8
1005
12121F
  0
LINE
  5
121220
  8
OBJECT
 10
11920.0
 20
-777.99999999999955
 30
0.0
 11
12080.0
 21
-777.99999999999955
 31
0.0
1001
ACDBBLOCKREPETAG
1070
     1
1071
        9
1005
121220
  0
LINE
  5
121221
  8
OBJECT
 10
12080.0
 20
-533.99999999999955
 30
0.0
 11
11925.0
 21
-533.99999999999955
 31
0.0
1001
ACDBBLOCKREPETAG
1070
     1
1071
       10
1005
121221
  0
LINE
  5
121222
  8
OBJECT
 10
11920.0
 20
-777.99999999999955
 30
0.0
 11
11920.0
 21
-789.99999999999955
 31
0.0
1001
ACDBBLOCKREPETAG
1070
     1
1071
       11
1005
121222
  0
LINE
  5
121223
  8
OBJECT
 10
11920.0
 20
-789.99999999999955
 30
0.0
 11
12080.0
 21
-789.99999999999955
 31
0.0
1001
ACDBBLOCKREPETAG
1070
     1
1071
       12
1005
121223
  0
LINE
  5
121224
  8
OBJECT
 10
12080.0
 20
-789.99999999999955
 30
0.0
 11
12080.0
 21
-777.99999999999955
 31
0.0
1001
ACDBBLOCKREPETAG
1070
     1
1071
       13
1005
121224
  0
LINE
  5
121225
  8
OBJECT
 10
12074.99999999986
 20
-657.99999999985039
 30
0.0
 11
12075.0
 21
-777.99999999999955
 31
0.0
1001
ACDBBLOCKREPETAG
1070
     1
1071
       15
1005
121225
  0
LINE
  5
121226
  8
OBJECT
 10
12074.99999080298
 20
-657.99998602702135
 30
0.0
 11
12080.0
 21
-657.99998602702135
 31
0.0
1001
ACDBBLOCKREPETAG
1070
     1
1071
       16
1005
121226
  0
ARC
  5
121227
  8
OBJECT
 10
12200.687274671671
 20
-649.40809941010718
 30
0.0
 40
170.6350503965856
 50
137.44134459184301
 51
149.91949581337221
1001
ACDBBLOCKREPETAG
1070
     1
1071
       17
1005
121227
  0
ARC
  5
121228
  8
OBJECT
 10
12118.845598704051
 20
-605.88272669536445
 30
0.0
 40
78.072222021763665
 50
147.4551531038623
 51
164.6636599771729
1001
ACDBBLOCKREPETAG
1070
     1
1071
       18
1005
121228
  0
ARC
  5
121229
  8
OBJECT
 10
12085.755434960871
 20
-595.99999999999955
 30
0.0
 40
43.55353926885617
 50
165.688452300753
 51
194.3115476992468
1001
ACDBBLOCKREPETAG
1070
     1
1071
       19
1005
121229
  0
ARC
  5
12122A
  8
OBJECT
 10
12200.687274671671
 20
-542.59190058989179
 30
0.0
 40
170.6350503965856
 50
210.08050418662771
 51
222.55865540815699
1001
ACDBBLOCKREPETAG
1070
     1
1071
       20
1005
12122A
  0
ARC
  5
12122B
  8
OBJECT
 10
12118.845598704051
 20
-586.11727330463452
 30
0.0
 40
78.072222021763665
 50
195.3363400228271
 51
212.5448468961377
1001
ACDBBLOCKREPETAG
1070
     1
1071
       21
1005
12122B
  0
POINT
  5
12122C
  8
DOTS
 10
12000.0
 20
-654.99999999999966
 30
0.0
1001
ACDBBLOCKREPETAG
1070
     1
1071
      187
1005
12122C
  0
ARC
  5
12122D
  8
OBJECT
 10
12000.0
 20
-199.99999999999909
 30
0.0
 40
50.0
 50
298.81994300000417
 51
228.52376955964741
1001
ACDBBLOCKREPETAG
1070
     1
1071
      185
1005
12122D
  0
LINE
  5
12122E
  8
SLIM
 10
11927.30183005652
 20
-155.95484036957691
 30
0.0
 11
11955.954840369581
 21
-127.30183005652231
 31
0.0
1001
GRADIENTCOLOR1ACI
1070
     5
1001
GRADIENTCOLOR2ACI
1070
     2
1001
ACAD
1010
0.0
1020
0.0
1030
0.0
1001
ACDBBLOCKREPETAG
1070
     1
1071
      442
1005
12122E
  0
LINE
  5
12122F
  8
SLIM
 10
11919.48615207084
 20
-172.75077447633191
 30
0.0
 11
11938.29030895727
 21
-153.94661758989659
 31
0.0
1001
GRADIENTCOLOR1ACI
1070
     5
1001
GRADIENTCOLOR2ACI
1070
     2
1001
ACAD
1010
0.0
1020
0.0
1030
0.0
1001
ACDBBLOCKREPETAG
1070
     1
1071
      443
1005
12122F
  0
LINE
  5
121230
  8
SLIM
 10
11953.9466175899
 20
-138.29030895727169
 30
0.0
 11
11972.75077447633
 21
-119.4861520708364
 31
0.0
1001
GRADIENTCOLOR1ACI
1070
     5
1001
GRADIENTCOLOR2ACI
1070
     2
1001
ACAD
1010
0.0
1020
0.0
1030
0.0
1001
ACDBBLOCKREPETAG
1070
     1
1071
      444
1005
121230
  0
LINE
  5
121231
  8
SLIM
 10
11916.35966799338
 20
-184.8575146748604
 30
0.0
 11
11927.69595835578
 21
-173.5212243124561
 31
0.0
1001
GRADIENTCOLOR1ACI
1070
     5
1001
GRADIENTCOLOR2ACI
1070
     2
1001
ACAD
1010
0.0
1020
0.0
1030
0.0
1001
ACDBBLOCKREPETAG
1070
     1
1071
      445
1005
121231
  0
LINE
  5
121232
  8
SLIM
 10
11973.521224312461
 20
-127.6959583557812
 30
0.0
 11
11984.857514674861
 21
-116.359667993377
 31
0.0
1001
GRADIENTCOLOR1ACI
1070
     5
1001
GRADIENTCOLOR2ACI
1070
     2
1001
ACAD
1010
0.0
1020
0.0
1030
0.0
1001
ACDBBLOCKREPETAG
1070
     1
1071
      446
1005
121232
  0
LINE
  5
121233
  8
SLIM
 10
11915.14405758905
 20
-195.0533812002549
 30
0.0
 11
11924.30302164318
 21
-185.89441714612491
 31
0.0
1001
GRADIENTCOLOR1ACI
1070
     5
1001
GRADIENTCOLOR2ACI
1070
     2
1001
ACAD
1010
0.0
1020
0.0
1030
0.0
1001
ACDBBLOCKREPETAG
1070
     1
1071
      447
1005
121233
  0
LINE
  5
121234
  8
SLIM
 10
11985.894417146121
 20
-124.30302164318159
 30
0.0
 11
11995.05338120025
 21
-115.1440575890517
 31
0.0
1001
GRADIENTCOLOR1ACI
1070
     5
1001
GRADIENTCOLOR2ACI
1070
     2
1001
ACAD
1010
0.0
1020
0.0
1030
0.0
1001
ACDBBLOCKREPETAG
1070
     1
1071
      448
1005
121234
  0
LINE
  5
121235
  8
SLIM
 10
11915.097963557469
 20
-204.07973135290339
 30
0.0
 11
11919.17769491037
 21
-199.99999999999909
 31
0.0
1001
GRADIENTCOLOR1ACI
1070
     5
1001
GRADIENTCOLOR2ACI
1070
     2
1001
ACAD
1010
0.0
1020
0.0
1030
0.0
1001
ACDBBLOCKREPETAG
1070
     1
1071
      449
1005
121235
  0
LINE
  5
121236
  8
SLIM
 10
12000.0
 20
-119.1776949103767
 30
0.0
 11
12004.0797313529
 21
-115.0979635574724
 31
0.0
1001
GRADIENTCOLOR1ACI
1070
     5
1001
GRADIENTCOLOR2ACI
1070
     2
1001
ACAD
1010
0.0
1020
0.0
1030
0.0
1001
ACDBBLOCKREPETAG
1070
     1
1071
      450
1005
121236
  0
LINE
  5
121237
  8
SLIM
 10
11919.17769491037
 20
-199.99999999999909
 30
0.0
 11
11923.09996216117
 21
-196.07773274920581
 31
0.0
1001
GRADIENTCOLOR1ACI
1070
     5
1001
GRADIENTCOLOR2ACI
1070
     2
1001
ACAD
1010
0.0
1020
0.0
1030
0.0
1001
ACDBBLOCKREPETAG
1070
     1
1071
      451
1005
121237
  0
LINE
  5
121238
  8
SLIM
 10
11996.077732749211
 20
-123.0999621611699
 30
0.0
 11
12000.0
 21
-119.1776949103767
 31
0.0
1001
GRADIENTCOLOR1ACI
1070
     5
1001
GRADIENTCOLOR2ACI
1070
     2
1001
ACAD
1010
0.0
1020
0.0
1030
0.0
1001
ACDBBLOCKREPETAG
1070
     1
1071
      452
1005
121238
  0
LINE
  5
121239
  8
SLIM
 10
11915.889972620869
 20
-212.26797841057399
 30
0.0
 11
11923.16223077717
 21
-204.9957202542767
 31
0.0
1001
GRADIENTCOLOR1ACI
1070
     5
1001
GRADIENTCOLOR2ACI
1070
     2
1001
ACAD
1010
0.0
1020
0.0
1030
0.0
1001
ACDBBLOCKREPETAG
1070
     1
1071
      453
1005
121239
  0
LINE
  5
12123A
  8
SLIM
 10
12004.995720254279
 20
-123.1622307771683
 30
0.0
 11
12012.267978410569
 21
-115.88997262087101
 31
0.0
1001
GRADIENTCOLOR1ACI
1070
     5
1001
GRADIENTCOLOR2ACI
1070
     2
1001
ACAD
1010
0.0
1020
0.0
1030
0.0
1001
ACDBBLOCKREPETAG
1070
     1
1071
      454
1005
12123A
  0
LINE
  5
12123B
  8
SLIM
 10
11917.338265695151
 20
-219.79994145736151
 30
0.0
 11
11924.11014778555
 21
-213.02805936696359
 31
0.0
1001
GRADIENTCOLOR1ACI
1070
     5
1001
GRADIENTCOLOR2ACI
1070
     2
1001
ACAD
1010
0.0
1020
0.0
1030
0.0
1001
ACDBBLOCKREPETAG
1070
     1
1071
      455
1005
12123B
  0
LINE
  5
12123C
  8
SLIM
 10
12013.028059366959
 20
-124.1101477855505
 30
0.0
 11
12019.799941457361
 21
-117.3382656951526
 31
0.0
1001
GRADIENTCOLOR1ACI
1070
     5
1001
GRADIENTCOLOR2ACI
1070
     2
1001
ACAD
1010
0.0
1020
0.0
1030
0.0
1001
ACDBBLOCKREPETAG
1070
     1
1071
      456
1005
12123C
  0
LINE
  5
12123D
  8
SLIM
 10
11919.331259406301
 20
-226.78720386727881
 30
0.0
 11
11925.744381959341
 21
-220.3740813142449
 31
0.0
1001
GRADIENTCOLOR1ACI
1070
     5
1001
GRADIENTCOLOR2ACI
1070
     2
1001
ACAD
1010
0.0
1020
0.0
1030
0.0
1001
ACDBBLOCKREPETAG
1070
     1
1071
      457
1005
12123D
  0
LINE
  5
12123E
  8
SLIM
 10
12020.374081314239
 20
-125.7443819593384
 30
0.0
 11
12026.787203867279
 21
-119.3312594063044
 31
0.0
1001
GRADIENTCOLOR1ACI
1070
     5
1001
GRADIENTCOLOR2ACI
1070
     2
1001
ACAD
1010
0.0
1020
0.0
1030
0.0
1001
ACDBBLOCKREPETAG
1070
     1
1071
      458
1005
12123E
  0
LINE
  5
12123F
  8
SLIM
 10
11921.79571631862
 20
-233.30300307603289
 30
0.0
 11
11927.946247395779
 21
-227.1524719988744
 31
0.0
1001
GRADIENTCOLOR1ACI
1070
     5
1001
GRADIENTCOLOR2ACI
1070
     2
1001
ACAD
1010
0.0
1020
0.0
1030
0.0
1001
ACDBBLOCKREPETAG
1070
     1
1071
      459
1005
12123F
  0
LINE
  5
121240
  8
SLIM
 10
12027.15247199887
 20
-127.946247395778
 30
0.0
 11
12033.303003076029
 21
-121.7957163186195
 31
0.0
1001
GRADIENTCOLOR1ACI
1070
     5
1001
GRADIENTCOLOR2ACI
1070
     2
1001
ACAD
1010
0.0
1020
0.0
1030
0.0
1001
ACDBBLOCKREPETAG
1070
     1
1071
      460
1005
121240
  0
LINE
  5
121241
  8
SLIM
 10
11924.681663531341
 20
-239.39731198437769
 30
0.0
 11
11930.63987686439
 21
-233.4390986513296
 31
0.0
1001
GRADIENTCOLOR1ACI
1070
     5
1001
GRADIENTCOLOR2ACI
1070
     2
1001
ACAD
1010
0.0
1020
0.0
1030
0.0
1001
ACDBBLOCKREPETAG
1070
     1
1071
      461
1005
121241
  0
LINE
  5
121242
  8
SLIM
 10
12033.43909865133
 20
-130.63987686439199
 30
0.0
 11
12039.397311984379
 21
-124.6816635313439
 31
0.0
1001
GRADIENTCOLOR1ACI
1070
     5
1001
GRADIENTCOLOR2ACI
1070
     2
1001
ACAD
1010
0.0
1020
0.0
1030
0.0
1001
ACDBBLOCKREPETAG
1070
     1
1071
      462
1005
121242
  0
LINE
  5
121243
  8
SLIM
 10
11927.954461102419
 20
-245.10477053436691
 30
0.0
 11
11933.77500701499
 21
-239.28422462179751
 31
0.0
1001
GRADIENTCOLOR1ACI
1070
     5
1001
GRADIENTCOLOR2ACI
1070
     2
1001
ACAD
1010
0.0
1020
0.0
1030
0.0
1001
ACDBBLOCKREPETAG
1070
     1
1071
      463
1005
121243
  0
LINE
  5
121244
  8
SLIM
 10
12039.284224621801
 20
-133.77500701499321
 30
0.0
 11
12045.10477053437
 21
-127.95446110242381
 31
0.0
1001
GRADIENTCOLOR1ACI
1070
     5
1001
GRADIENTCOLOR2ACI
1070
     2
1001
ACAD
1010
0.0
1020
0.0
1030
0.0
1001
ACDBBLOCKREPETAG
1070
     1
1071
      464
1005
121244
  0
LINE
  5
121245
  8
SLIM
 10
11931.59033196866
 20
-250.4491557891954
 30
0.0
 11
11937.31820758806
 21
-244.72128016980341
 31
0.0
1001
GRADIENTCOLOR1ACI
1070
     5
1001
GRADIENTCOLOR2ACI
1070
     2
1001
ACAD
1010
0.0
1020
0.0
1030
0.0
1001
ACDBBLOCKREPETAG
1070
     1
1071
      465
1005
121245
  0
LINE
  5
121246
  8
SLIM
 10
12044.721280169801
 20
-137.31820758805651
 30
0.0
 11
12050.449155789191
 21
-131.59033196866449
 31
0.0
1001
GRADIENTCOLOR1ACI
1070
     5
1001
GRADIENTCOLOR2ACI
1070
     2
1001
ACAD
1010
0.0
1020
0.0
1030
0.0
1001
ACDBBLOCKREPETAG
1070
     1
1071
      466
1005
121246
  0
LINE
  5
121247
  8
SLIM
 10
11935.573749692519
 20
-255.4459941864034
 30
0.0
 11
11941.24811054159
 21
-249.77163333734029
 31
0.0
1001
GRADIENTCOLOR1ACI
1070
     5
1001
GRADIENTCOLOR2ACI
1070
     2
1001
ACAD
1010
0.0
1020
0.0
1030
0.0
1001
ACDBBLOCKREPETAG
1070
     1
1071
      467
1005
121247
  0
LINE
  5
121248
  8
SLIM
 10
12053.01974387892
 20
-137.99999999999909
 30
0.0
 11
12055.445994186401
 21
-135.57374969252561
 31
0.0
1001
GRADIENTCOLOR1ACI
1070
     5
1001
GRADIENTCOLOR2ACI
1070
     2
1001
ACAD
1010
0.0
1020
0.0
1030
0.0
1001
ACDBBLOCKREPETAG
1070
     1
1071
      468
1005
121248
  0
LINE
  5
121249
  8
SLIM
 10
11939.895923599141
 20
-260.10407640085572
 30
0.0
 11
11945.55277784863
 21
-254.44722215136329
 31
0.0
1001
GRADIENTCOLOR1ACI
1070
     5
1001
GRADIENTCOLOR2ACI
1070
     2
1001
ACAD
1010
0.0
1020
0.0
1030
0.0
1001
ACDBBLOCKREPETAG
1070
     1
1071
      469
1005
121249
  0
LINE
  5
12124A
  8
SLIM
 10
11944.55400581359
 20
-264.4262503074724
 30
0.0
 11
11950.228366662661
 21
-258.75188945840949
 31
0.0
1001
GRADIENTCOLOR1ACI
1070
     5
1001
GRADIENTCOLOR2ACI
1070
     2
1001
ACAD
1010
0.0
1020
0.0
1030
0.0
1001
ACDBBLOCKREPETAG
1070
     1
1071
      470
1005
12124A
  0
LINE
  5
12124B
  8
SLIM
 10
11949.5508442108
 20
-268.40966803133369
 30
0.0
 11
11955.27871983019
 21
-262.68179241194167
 31
0.0
1001
GRADIENTCOLOR1ACI
1070
     5
1001
GRADIENTCOLOR2ACI
1070
     2
1001
ACAD
1010
0.0
1020
0.0
1030
0.0
1001
ACDBBLOCKREPETAG
1070
     1
1071
      471
1005
12124B
  0
LINE
  5
12124C
  8
SLIM
 10
11954.89522946563
 20
-272.04553889757437
 30
0.0
 11
11960.715775378199
 21
-266.22499298500497
 31
0.0
1001
GRADIENTCOLOR1ACI
1070
     5
1001
GRADIENTCOLOR2ACI
1070
     2
1001
ACAD
1010
0.0
1020
0.0
1030
0.0
1001
ACDBBLOCKREPETAG
1070
     1
1071
      472
1005
12124C
  0
LINE
  5
12124D
  8
SLIM
 10
11960.602688015621
 20
-275.31833646865431
 30
0.0
 11
11966.56090134867
 21
-269.36012313560622
 31
0.0
1001
GRADIENTCOLOR1ACI
1070
     5
1001
GRADIENTCOLOR2ACI
1070
     2
1001
ACAD
1010
0.0
1020
0.0
1030
0.0
1001
ACDBBLOCKREPETAG
1070
     1
1071
      473
1005
12124D
  0
LINE
  5
12124E
  8
SLIM
 10
11966.69699692396
 20
-278.20428368137868
 30
0.0
 11
11972.847528001121
 21
-272.05375260422022
 31
0.0
1001
GRADIENTCOLOR1ACI
1070
     5
1001
GRADIENTCOLOR2ACI
1070
     2
1001
ACAD
1010
0.0
1020
0.0
1030
0.0
1001
ACDBBLOCKREPETAG
1070
     1
1071
      474
1005
12124E
  0
LINE
  5
12124F
  8
SLIM
 10
11973.212796132721
 20
-280.66874059369371
 30
0.0
 11
11979.62591868575
 21
-274.25561804065973
 31
0.0
1001
GRADIENTCOLOR1ACI
1070
     5
1001
GRADIENTCOLOR2ACI
1070
     2
1001
ACAD
1010
0.0
1020
0.0
1030
0.0
1001
ACDBBLOCKREPETAG
1070
     1
1071
      475
1005
12124F
  0
LINE
  5
121250
  8
SLIM
 10
11980.200058542639
 20
-282.6617343048456
 30
0.0
 11
11986.97194063303
 21
-275.88985221444773
 31
0.0
1001
GRADIENTCOLOR1ACI
1070
     5
1001
GRADIENTCOLOR2ACI
1070
     2
1001
ACAD
1010
0.0
1020
0.0
1030
0.0
1001
ACDBBLOCKREPETAG
1070
     1
1071
      476
1005
121250
  0
LINE
  5
121251
  8
SLIM
 10
11987.73202158942
 20
-284.11002737912702
 30
0.0
 11
11995.004279745721
 21
-276.83776922282988
 31
0.0
1001
GRADIENTCOLOR1ACI
1070
     5
1001
GRADIENTCOLOR2ACI
1070
     2
1001
ACAD
1010
0.0
1020
0.0
1030
0.0
1001
ACDBBLOCKREPETAG
1070
     1
1071
      477
1005
121251
  0
LINE
  5
121252
  8
SLIM
 10
11995.9202686471
 20
-284.9020364425258
 30
0.0
 11
12000.0
 21
-280.82230508962152
 31
0.0
1001
GRADIENTCOLOR1ACI
1070
     5
1001
GRADIENTCOLOR2ACI
1070
     2
1001
ACAD
1010
0.0
1020
0.0
1030
0.0
1001
ACDBBLOCKREPETAG
1070
     1
1071
      478
1005
121252
  0
LINE
  5
121253
  8
SLIM
 10
12000.0
 20
-280.82230508962152
 30
0.0
 11
12003.922267250789
 21
-276.90003783882821
 31
0.0
1001
GRADIENTCOLOR1ACI
1070
     5
1001
GRADIENTCOLOR2ACI
1070
     2
1001
ACAD
1010
0.0
1020
0.0
1030
0.0
1001
ACDBBLOCKREPETAG
1070
     1
1071
      479
1005
121253
  0
LINE
  5
121254
  8
SLIM
 10
12004.94661879974
 20
-284.85594241094651
 30
0.0
 11
12014.10558285387
 21
-275.6969783568166
 31
0.0
1001
GRADIENTCOLOR1ACI
1070
     5
1001
GRADIENTCOLOR2ACI
1070
     2
1001
ACAD
1010
0.0
1020
0.0
1030
0.0
1001
ACDBBLOCKREPETAG
1070
     1
1071
      480
1005
121254
  0
LINE
  5
121255
  8
SLIM
 10
12015.142485325139
 20
-283.64033200662118
 30
0.0
 11
12026.478775687539
 21
-272.30404164421702
 31
0.0
1001
GRADIENTCOLOR1ACI
1070
     5
1001
GRADIENTCOLOR2ACI
1070
     2
1001
ACAD
1010
0.0
1020
0.0
1030
0.0
1001
ACDBBLOCKREPETAG
1070
     1
1071
      481
1005
121255
  0
LINE
  5
121256
  8
SLIM
 10
12027.249225523659
 20
-280.51384792916173
 30
0.0
 11
12045.76307345283
 21
-261.99999999999909
 31
0.0
1001
GRADIENTCOLOR1ACI
1070
     5
1001
GRADIENTCOLOR2ACI
1070
     2
1001
ACAD
1010
0.0
1020
0.0
1030
0.0
1001
ACDBBLOCKREPETAG
1070
     1
1071
      482
1005
121256
  0
LINE
  5
121257
  8
SLIM
 10
12044.045159630419
 20
-272.69816994347582
 30
0.0
 11
12054.743329573899
 21
-261.99999999999909
 31
0.0
1001
GRADIENTCOLOR1ACI
1070
     5
1001
GRADIENTCOLOR2ACI
1070
     2
1001
ACAD
1010
0.0
1020
0.0
1030
0.0
1001
ACDBBLOCKREPETAG
1070
     1
1071
      483
1005
121257
  0
LINE
  5
121258
  8
CENTER
 10
12080.0
 20
-199.99999999999909
 30
0.0
 11
11900.0
 21
-199.99999999999909
 31
0.0
1001
ACDBBLOCKREPETAG
1070
     1
1071
      187
1005
121258
  0
LINE
  5
121259
  8
CENTER
 10
12000.0
 20
-299.99999999999898
 30
0.0
 11
12000.0
 21
-99.999999999999091
 31
0.0
1001
ACDBBLOCKREPETAG
1070
     1
1071
      188
1005
121259
  0
CIRCLE
  5
12125A
  8
OBJECT
 10
12000.0
 20
-199.99999999999909
 30
0.0
 40
70.0
1001
ACDBBLOCKREPETAG
1070
     1
1071
      189
1005
12125A
  0
CIRCLE
  5
12125B
  8
OBJECT
 10
12000.0
 20
-199.99999999999909
 30
0.0
 40
77.0
1001
ACDBBLOCKREPETAG
1070
     1
1071
      190
1005
12125B
  0
LINE
  5
12125C
  8
OBJECT
 10
12045.661800227321
 20
-137.99999999999909
 30
0.0
 11
12080.0
 21
-137.99999999999909
 31
0.0
1001
ACDBBLOCKREPETAG
1070
     1
1071
      192
1005
12125C
  0
LINE
  5
12125D
  8
OBJECT
 10
12045.661800227321
 20
-261.99999999999909
 30
0.0
 11
12080.0
 21
-261.99999999999909
 31
0.0
1001
ACDBBLOCKREPETAG
1070
     1
1071
      193
1005
12125D
  0
ARC
  5
12125E
  8
OBJECT
 10
12000.0
 20
-199.99999999999909
 30
0.0
 40
85.0
 50
46.837102859853147
 51
313.16289714014681
1001
ACDBBLOCKREPETAG
1070
     1
1071
      202
1005
12125E
  0
LINE
  5
12125F
  8
OBJECT
 10
12024.1029330933
 20
-243.80694712371681
 30
0.0
 11
12020.659656999989
 21
-232.55462199999889
 31
0.0
1001
ACDBBLOCKREPETAG
1070
     1
1071
      321
1005
12125F
  0
LINE
  5
121260
  8
OBJECT
 10
11986.79274990136
 20
-218.22553374208019
 30
0.0
 11
12020.659656999989
 21
-232.5546219999969
 31
0.0
1001
ACDBBLOCKREPETAG
1070
     1
1071
      323
1005
121260
  0
ARC
  5
121261
  8
OBJECT
 10
11982.8961697619
 20
-227.4351299990567
 30
0.0
 40
10.0
 50
67.066778292911366
 51
154.01473437031629
1001
ACDBBLOCKREPETAG
1070
     1
1071
      324
1005
121261
  0
ARC
  5
121262
  8
OBJECT
 10
11986.148839038129
 20
-225.55386256729159
 30
0.0
 40
7.0
 50
67.066778292911366
 51
154.0147337749826
1001
ACDBBLOCKREPETAG
1070
     1
1071
      325
1005
121262
  0
LINE
  5
121263
  8
OBJECT
 10
11969.4199755553
 20
-243.89888500818171
 30
0.0
 11
11979.85649182323
 21
-222.48688253356801
 31
0.0
1001
ACDBBLOCKREPETAG
1070
     1
1071
      353
1005
121263
  0
LINE
  5
121264
  8
OBJECT
 10
11965.29721690061
 20
-240.71813901882729
 30
0.0
 11
11973.90710226651
 21
-223.05373004430751
 31
0.0
1001
ACDBBLOCKREPETAG
1070
     1
1071
      354
1005
121264
  0
ARC
  5
121265
  8
OBJECT
 10
11976.57969530731
 20
-207.1289369828437
 30
0.0
 40
60.031113246032611
 50
314.07020130422319
 51
322.33936106089681
1001
ACDBBLOCKREPETAG
1070
     1
1071
      355
1005
121265
  0
CIRCLE
  5
121266
  8
OBJECT
 10
12000.0
 20
-199.99999999999909
 30
0.0
 40
53.5
1001
ACDBBLOCKREPETAG
1070
     1
1071
      356
1005
121266
  0
POINT
  5
121267
  8
DOTS
 10
12000.0
 20
-199.99999999999909
 30
0.0
 50
270.0
1001
ACDBBLOCKREPETAG
1070
     1
1071
      365
1005
121267
  0
LINE
  5
121268
  8
OBJECT
 10
12202.99999999998
 20
-483.0000000000008
 30
0.0
 11
12209.99999999998
 21
-483.0000000000008
 31
0.0
1001
ACDBBLOCKREPETAG
1070
     1
1071
       83
1005
121268
  0
LINE
  5
121269
  8
OBJECT
 10
12209.99999999998
 20
-483.0000000000008
 30
0.0
 11
12209.99999999998
 21
-607.0000000000008
 31
0.0
1001
ACDBBLOCKREPETAG
1070
     1
1071
       84
1005
121269
  0
LINE
  5
12126A
  8
OBJECT
 10
12085.99999999998
 20
-553.3502637757274
 30
0.0
 11
12085.99999999998
 21
-655.00000000000068
 31
0.0
1001
ACDBBLOCKREPETAG
1070
     1
1071
       85
1005
12126A
  0
LINE
  5
12126B
  8
OBJECT
 10
12209.99999999998
 20
-607.0000000000008
 30
0.0
 11
12202.99999999998
 21
-607.0000000000008
 31
0.0
1001
ACDBBLOCKREPETAG
1070
     1
1071
       86
1005
12126B
  0
LINE
  5
12126C
  8
OBJECT
 10
12202.99999999998
 20
-607.0000000000008
 30
0.0
 11
12202.99999999998
 21
-483.0000000000008
 31
0.0
1001
ACDBBLOCKREPETAG
1070
     1
1071
       87
1005
12126C
  0
LINE
  5
12126D
  8
CENTER
 10
12134.99999999998
 20
-545.0000000000008
 30
0.0
 11
12224.99999999998
 21
-545.0000000000008
 31
0.0
1001
ACDBBLOCKREPETAG
1070
     1
1071
       88
1005
12126D
  0
LINE
  5
12126E
  8
OBJECT
 10
12079.99999999998
 20
-658.0
 30
0.0
 11
12082.99999999998
 21
-658.0000000000008
 31
0.0
1001
ACDBBLOCKREPETAG
1070
     1
1071
       89
1005
12126E
  0
ARC
  5
12126F
  8
OBJECT
 10
12082.99999999998
 20
-655.00000000000068
 30
0.0
 40
3.0
 50
270.0
 51
0.0
1001
ACDBBLOCKREPETAG
1070
     1
1071
       90
1005
12126F
  0
LINE
  5
121270
  8
OBJECT
 10
12202.99999999998
 20
-486.0000000000008
 30
0.0
 11
12166.99999999998
 21
-486.0000000000008
 31
0.0
1001
ACDBBLOCKREPETAG
1070
     1
1071
       91
1005
121270
  0
LINE
  5
121271
  8
OBJECT
 10
12166.99999999998
 20
-486.0000000000008
 30
0.0
 11
12166.99999999998
 21
-604.0000000000008
 31
0.0
1001
ACDBBLOCKREPETAG
1070
     1
1071
       92
1005
121271
  0
LINE
  5
121272
  8
OBJECT
 10
12162.99999999998
 20
-490.5000000000008
 30
0.0
 11
12162.99999999998
 21
-599.5000000000008
 31
0.0
1001
ACDBBLOCKREPETAG
1070
     1
1071
       93
1005
121272
  0
LINE
  5
121273
  8
OBJECT
 10
12162.99999999998
 20
-490.5000000000008
 30
0.0
 11
12149.99999999998
 21
-490.5000000000008
 31
0.0
1001
ACDBBLOCKREPETAG
1070
     1
1071
       94
1005
121273
  0
LINE
  5
121274
  8
OBJECT
 10
12166.99999999998
 20
-604.0000000000008
 30
0.0
 11
12202.99999999998
 21
-604.0000000000008
 31
0.0
1001
ACDBBLOCKREPETAG
1070
     1
1071
       95
1005
121274
  0
LINE
  5
121275
  8
OBJECT
 10
12166.99999999998
 20
-486.0000000000008
 30
0.0
 11
12162.99999999998
 21
-490.5000000000008
 31
0.0
1001
ACDBBLOCKREPETAG
1070
     1
1071
       96
1005
121275
  0
LINE
  5
121276
  8
OBJECT
 10
12149.99999999998
 20
-490.5000000000008
 30
0.0
 11
12149.99999999998
 21
-575.74491827928784
 31
0.0
1001
ACDBBLOCKREPETAG
1070
     1
1071
       97
1005
121276
  0
ARC
  5
121277
  8
OBJECT
 10
12152.799999999979
 20
-585.00000000000068
 30
0.0
 40
85.0
 50
91.887731891831123
 51
143.1301023540934
1001
ACDBBLOCKREPETAG
1070
     1
1071
       98
1005
121277
  0
LINE
  5
121278
  8
HIDDEN
 10
12157.99999999998
 20
-500.5000000000008
 30
0.0
 11
12157.99999999998
 21
-589.5000000000008
 31
0.0
1001
ACDBBLOCKREPETAG
1070
     1
1071
      100
1005
121278
  0
LINE
  5
121279
  8
OBJECT
 10
12085.99999999998
 20
-651.07945073181781
 30
0.0
 11
12156.631319921031
 21
-599.5000000000008
 31
0.0
1001
ACDBBLOCKREPETAG
1070
     1
1071
      101
1005
121279
  0
LINE
  5
12127A
  8
OBJECT
 10
12079.99999999998
 20
-534.0
 30
0.0
 11
12084.799999999979
 21
-534.0
 31
0.0
1001
ACDBBLOCKREPETAG
1070
     1
1071
      102
1005
12127A
  0
LINE
  5
12127B
  8
OBJECT
 10
12085.99999999998
 20
-553.35026377573001
 30
0.0
 11
12084.799999999979
 21
-534.0
 31
0.0
1001
ACDBBLOCKREPETAG
1070
     1
1071
      103
1005
12127B
  0
LINE
  5
12127C
  8
OBJECT
 10
12162.99999999998
 20
-599.5000000000008
 30
0.0
 11
12156.631319921031
 21
-599.5000000000008
 31
0.0
1001
ACDBBLOCKREPETAG
1070
     1
1071
      104
1005
12127C
  0
LINE
  5
12127D
  8
OBJECT
 10
12166.99999999998
 20
-604.0000000000008
 30
0.0
 11
12162.99999999998
 21
-599.5000000000008
 31
0.0
1001
ACDBBLOCKREPETAG
1070
     1
1071
      105
1005
12127D
  0
LINE
  5
12127E
  8
OBJECT
 10
12202.99999999998
 20
-137.99999999999909
 30
0.0
 11
12209.99999999998
 21
-137.99999999999909
 31
0.0
1001
ACDBBLOCKREPETAG
1070
     1
1071
       85
1005
12127E
  0
LINE
  5
12127F
  8
OBJECT
 10
12209.99999999998
 20
-137.99999999999909
 30
0.0
 11
12209.99999999998
 21
-261.99999999999909
 31
0.0
1001
ACDBBLOCKREPETAG
1070
     1
1071
       86
1005
12127F
  0
LINE
  5
121280
  8
OBJECT
 10
12209.99999999998
 20
-261.99999999999909
 30
0.0
 11
12202.99999999998
 21
-261.99999999999909
 31
0.0
1001
ACDBBLOCKREPETAG
1070
     1
1071
       87
1005
121280
  0
LINE
  5
121281
  8
OBJECT
 10
12202.99999999998
 20
-261.99999999999909
 30
0.0
 11
12202.99999999998
 21
-137.99999999999909
 31
0.0
1001
ACDBBLOCKREPETAG
1070
     1
1071
       88
1005
121281
  0
LINE
  5
121282
  8
CENTER
 10
12224.99999999998
 20
-199.99999999999909
 30
0.0
 11
12080.0
 21
-199.99999999999909
 31
0.0
1001
ACDBBLOCKREPETAG
1070
     1
1071
       89
1005
121282
  0
LINE
  5
121283
  8
OBJECT
 10
12149.999974964179
 20
-245.0000000000027
 30
0.0
 11
12086.0
 21
-244.99999999999909
 31
0.0
1001
ACDBBLOCKREPETAG
1070
     1
1071
       90
1005
121283
  0
LINE
  5
121284
  8
OBJECT
 10
12149.999974964179
 20
-154.99999999999909
 30
0.0
 11
12086.0
 21
-154.99999999999909
 31
0.0
1001
ACDBBLOCKREPETAG
1070
     1
1071
       91
1005
121284
  0
LINE
  5
121285
  8
OBJECT
 10
12202.99999999998
 20
-140.99999999999909
 30
0.0
 11
12166.99999999998
 21
-140.99999999999909
 31
0.0
1001
ACDBBLOCKREPETAG
1070
     1
1071
       92
1005
121285
  0
LINE
  5
121286
  8
OBJECT
 10
12166.99999999998
 20
-140.99999999999909
 30
0.0
 11
12166.99999999998
 21
-258.99999999999909
 31
0.0
1001
ACDBBLOCKREPETAG
1070
     1
1071
       93
1005
121286
  0
LINE
  5
121287
  8
OBJECT
 10
12166.99999999998
 20
-258.99999999999909
 30
0.0
 11
12202.99999999998
 21
-258.99999999999909
 31
0.0
1001
ACDBBLOCKREPETAG
1070
     1
1071
       94
1005
121287
  0
LINE
  5
121288
  8
OBJECT
 10
12162.99999999998
 20
-145.49999999999909
 30
0.0
 11
12149.99999999998
 21
-145.49999999999909
 31
0.0
1001
ACDBBLOCKREPETAG
1070
     1
1071
       95
1005
121288
  0
LINE
  5
121289
  8
OBJECT
 10
12149.99999999998
 20
-254.49999999999909
 30
0.0
 11
12162.99999999998
 21
-254.49999999999909
 31
0.0
1001
ACDBBLOCKREPETAG
1070
     1
1071
       96
1005
121289
  0
LINE
  5
12128A
  8
OBJECT
 10
12162.99999999998
 20
-254.49999999999909
 30
0.0
 11
12162.99999999998
 21
-145.49999999999909
 31
0.0
1001
ACDBBLOCKREPETAG
1070
     1
1071
       97
1005
12128A
  0
LINE
  5
12128B
  8
OBJECT
 10
12166.99999999998
 20
-140.99999999999909
 30
0.0
 11
12162.99999999998
 21
-145.49999999999909
 31
0.0
1001
ACDBBLOCKREPETAG
1070
     1
1071
       98
1005
12128B
  0
LINE
  5
12128C
  8
OBJECT
 10
12166.99999999998
 20
-258.99999999999909
 30
0.0
 11
12162.99999999998
 21
-254.49999999999909
 31
0.0
1001
ACDBBLOCKREPETAG
1070
     1
1071
       99
1005
12128C
  0
LINE
  5
12128D
  8
OBJECT
 10
12083.0
 20
-137.99999999999909
 30
0.0
 11
12080.0
 21
-137.99999999999909
 31
0.0
1001
ACDBBLOCKREPETAG
1070
     1
1071
      100
1005
12128D
  0
ARC
  5
12128E
  8
OBJECT
 10
12083.0
 20
-140.99999999999909
 30
0.0
 40
3.0
 50
0.0
 51
90.0
1001
ACDBBLOCKREPETAG
1070
     1
1071
      101
1005
12128E
  0
LINE
  5
12128F
  8
OBJECT
 10
12080.0
 20
-261.99999999999909
 30
0.0
 11
12083.0
 21
-261.99999999999909
 31
0.0
1001
ACDBBLOCKREPETAG
1070
     1
1071
      102
1005
12128F
  0
ARC
  5
121290
  8
OBJECT
 10
12083.0
 20
-258.99999999999909
 30
0.0
 40
3.0
 50
270.0
 51
0.0
1001
ACDBBLOCKREPETAG
1070
     1
1071
      103
1005
121290
  0
LINE
  5
121291
  8
OBJECT
 10
12086.0
 20
-258.99999999999909
 30
0.0
 11
12086.0
 21
-210.3227903203578
 31
0.0
1001
ACDBBLOCKREPETAG
1070
     1
1071
      104
1005
121291
  0
LINE
  5
121292
  8
OBJECT
 10
12086.0
 20
-189.6772096796403
 30
0.0
 11
12086.0
 21
-140.99999999999909
 31
0.0
1001
ACDBBLOCKREPETAG
1070
     1
1071
      105
1005
121292
  0
LINE
  5
121293
  8
HIDDEN
 10
12157.99999999998
 20
-155.49999999999909
 30
0.0
 11
12157.99999999998
 21
-244.49999999999909
 31
0.0
1001
ACDBBLOCKREPETAG
1070
     1
1071
      106
1005
121293
  0
LINE
  5
121294
  8
OBJECT
 10
12149.999974964179
 20
-254.4999509238105
 30
0.0
 11
12149.999974964179
 21
-145.4999509238105
 31
0.0
1001
ACDBBLOCKREPETAG
1070
     1
1071
      108
1005
121294
  0
ARC
  5
121295
  8
OBJECT
 10
12129.800000000019
 20
-199.99999999999909
 30
0.0
 40
45.000000000000547
 50
90.0
 51
270.0
1001
ACDBBLOCKREPETAG
1070
     1
1071
      109
1005
121295
  0
LINE
  5
121296
  8
OBJECT
 10
9923.0
 20
-470.99999999999937
 30
0.0
 11
9923.0
 21
-449.99999999999937
 31
0.0
1001
ACDBBLOCKREPETAG
1070
     1
1071
        0
1005
121296
  0
LINE
  5
121297
  8
OBJECT
 10
9923.0
 20
-449.99999999999937
 30
0.0
 11
10077.0
 21
-449.99999999999937
 31
0.0
1001
ACDBBLOCKREPETAG
1070
     1
1071
        1
1005
121297
  0
LINE
  5
121298
  8
HIDDEN
 10
9943.0
 20
-519.99999999999955
 30
0.0
 11
10057.0
 21
-519.99999999999955
 31
0.0
1001
ACDBBLOCKREPETAG
1070
     1
1071
        2
1005
121298
  0
LINE
  5
121299
  8
OBJECT
 10
10077.0
 20
-449.99999999999937
 30
0.0
 11
10077.0
 21
-470.99999999999937
 31
0.0
1001
ACDBBLOCKREPETAG
1070
     1
1071
        3
1005
121299
  0
LINE
  5
12129A
  8
OBJECT
 10
10077.0
 20
-470.99999999999937
 30
0.0
 11
9923.0
 21
-470.99999999999937
 31
0.0
1001
ACDBBLOCKREPETAG
1070
     1
1071
        4
1005
12129A
  0
LINE
  5
12129B
  8
CENTER
 10
10000.0
 20
-434.99999999999949
 30
0.0
 11
10000.0
 21
-789.99999999999955
 31
0.0
1001
ACDBBLOCKREPETAG
1070
     1
1071
        5
1005
12129B
  0
LINE
  5
12129C
  8
OBJECT
 10
9925.0
 20
-533.99999999999955
 30
0.0
 11
9925.0
 21
-777.99999999999955
 31
0.0
1001
ACDBBLOCKREPETAG
1070
     1
1071
        6
1005
12129C
  0
LINE
  5
12129D
  8
OBJECT
 10
9928.0
 20
-470.99999999999937
 30
0.0
 11
9928.0
 21
-533.99999999999955
 31
0.0
1001
ACDBBLOCKREPETAG
1070
     1
1071
        7
1005
12129D
  0
LINE
  5
12129E
  8
OBJECT
 10
10072.0
 20
-533.99999999999955
 30
0.0
 11
10072.0
 21
-470.99999999999937
 31
0.0
1001
ACDBBLOCKREPETAG
1070
     1
1071
        8
1005
12129E
  0
LINE
  5
12129F
  8
OBJECT
 10
9920.0
 20
-777.99999999999955
 30
0.0
 11
10080.0
 21
-777.99999999999955
 31
0.0
1001
ACDBBLOCKREPETAG
1070
     1
1071
        9
1005
12129F
  0
LINE
  5
1212A0
  8
OBJECT
 10
10080.0
 20
-533.99999999999955
 30
0.0
 11
9925.0
 21
-533.99999999999955
 31
0.0
1001
ACDBBLOCKREPETAG
1070
     1
1071
       10
1005
1212A0
  0
LINE
  5
1212A1
  8
OBJECT
 10
9920.0
 20
-777.99999999999955
 30
0.0
 11
9920.0
 21
-789.99999999999955
 31
0.0
1001
ACDBBLOCKREPETAG
1070
     1
1071
       11
1005
1212A1
  0
LINE
  5
1212A2
  8
OBJECT
 10
9920.0
 20
-789.99999999999955
 30
0.0
 11
10080.0
 21
-789.99999999999955
 31
0.0
1001
ACDBBLOCKREPETAG
1070
     1
1071
       12
1005
1212A2
  0
LINE
  5
1212A3
  8
OBJECT
 10
10080.0
 20
-789.99999999999955
 30
0.0
 11
10080.0
 21
-777.99999999999955
 31
0.0
1001
ACDBBLOCKREPETAG
1070
     1
1071
       13
1005
1212A3
  0
LINE
  5
1212A4
  8
OBJECT
 10
10074.99999999986
 20
-657.99999999985039
 30
0.0
 11
10075.0
 21
-777.99999999999955
 31
0.0
1001
ACDBBLOCKREPETAG
1070
     1
1071
       15
1005
1212A4
  0
LINE
  5
1212A5
  8
OBJECT
 10
10074.99999080298
 20
-657.99998602702135
 30
0.0
 11
10080.0
 21
-657.99998602702135
 31
0.0
1001
ACDBBLOCKREPETAG
1070
     1
1071
       16
1005
1212A5
  0
ARC
  5
1212A6
  8
OBJECT
 10
10200.687274671671
 20
-649.40809941010718
 30
0.0
 40
170.6350503965856
 50
137.44134459184301
 51
149.91949581337221
1001
ACDBBLOCKREPETAG
1070
     1
1071
       17
1005
1212A6
  0
ARC
  5
1212A7
  8
OBJECT
 10
10118.845598704051
 20
-605.88272669536445
 30
0.0
 40
78.072222021763665
 50
147.4551531038623
 51
164.6636599771729
1001
ACDBBLOCKREPETAG
1070
     1
1071
       18
1005
1212A7
  0
ARC
  5
1212A8
  8
OBJECT
 10
10085.755434960871
 20
-595.99999999999955
 30
0.0
 40
43.55353926885617
 50
165.688452300753
 51
194.3115476992468
1001
ACDBBLOCKREPETAG
1070
     1
1071
       19
1005
1212A8
  0
ARC
  5
1212A9
  8
OBJECT
 10
10200.687274671671
 20
-542.59190058989179
 30
0.0
 40
170.6350503965856
 50
210.08050418662771
 51
222.55865540815699
1001
ACDBBLOCKREPETAG
1070
     1
1071
       20
1005
1212A9
  0
ARC
  5
1212AA
  8
OBJECT
 10
10118.845598704051
 20
-586.11727330463452
 30
0.0
 40
78.072222021763665
 50
195.3363400228271
 51
212.5448468961377
1001
ACDBBLOCKREPETAG
1070
     1
1071
       21
1005
1212AA
  0
POINT
  5
1212AB
  8
DOTS
 10
10000.0
 20
-654.99999999999966
 30
0.0
1001
ACDBBLOCKREPETAG
1070
     1
1071
      187
1005
1212AB
  0
ARC
  5
1212AC
  8
OBJECT
 10
10000.0
 20
-199.99999999999909
 30
0.0
 40
50.0
 50
298.81994300000417
 51
228.52376955964741
1001
ACDBBLOCKREPETAG
1070
     1
1071
      185
1005
1212AC
  0
LINE
  5
1212AD
  8
SLIM
 10
9927.3018300565236
 20
-155.95484036957691
 30
0.0
 11
9955.9548403695771
 21
-127.30183005652231
 31
0.0
1001
GRADIENTCOLOR1ACI
1070
     5
1001
GRADIENTCOLOR2ACI
1070
     2
1001
ACAD
1010
0.0
1020
0.0
1030
0.0
1001
ACDBBLOCKREPETAG
1070
     1
1071
      442
1005
1212AD
  0
LINE
  5
1212AE
  8
SLIM
 10
9919.4861520708382
 20
-172.75077447633191
 30
0.0
 11
9938.2903089572737
 21
-153.94661758989659
 31
0.0
1001
GRADIENTCOLOR1ACI
1070
     5
1001
GRADIENTCOLOR2ACI
1070
     2
1001
ACAD
1010
0.0
1020
0.0
1030
0.0
1001
ACDBBLOCKREPETAG
1070
     1
1071
      443
1005
1212AE
  0
LINE
  5
1212AF
  8
SLIM
 10
9953.9466175898997
 20
-138.29030895727169
 30
0.0
 11
9972.7507744763316
 21
-119.4861520708364
 31
0.0
1001
GRADIENTCOLOR1ACI
1070
     5
1001
GRADIENTCOLOR2ACI
1070
     2
1001
ACAD
1010
0.0
1020
0.0
1030
0.0
1001
ACDBBLOCKREPETAG
1070
     1
1071
      444
1005
1212AF
  0
LINE
  5
1212B0
  8
SLIM
 10
9916.3596679933817
 20
-184.8575146748604
 30
0.0
 11
9927.6959583557837
 21
-173.5212243124561
 31
0.0
1001
GRADIENTCOLOR1ACI
1070
     5
1001
GRADIENTCOLOR2ACI
1070
     2
1001
ACAD
1010
0.0
1020
0.0
1030
0.0
1001
ACDBBLOCKREPETAG
1070
     1
1071
      445
1005
1212B0
  0
LINE
  5
1212B1
  8
SLIM
 10
9973.5212243124606
 20
-127.6959583557812
 30
0.0
 11
9984.8575146748644
 21
-116.359667993377
 31
0.0
1001
GRADIENTCOLOR1ACI
1070
     5
1001
GRADIENTCOLOR2ACI
1070
     2
1001
ACAD
1010
0.0
1020
0.0
1030
0.0
1001
ACDBBLOCKREPETAG
1070
     1
1071
      446
1005
1212B1
  0
LINE
  5
1212B2
  8
SLIM
 10
9915.1440575890538
 20
-195.0533812002549
 30
0.0
 11
9924.3030216431835
 21
-185.89441714612491
 31
0.0
1001
GRADIENTCOLOR1ACI
1070
     5
1001
GRADIENTCOLOR2ACI
1070
     2
1001
ACAD
1010
0.0
1020
0.0
1030
0.0
1001
ACDBBLOCKREPETAG
1070
     1
1071
      447
1005
1212B2
  0
LINE
  5
1212B3
  8
SLIM
 10
9985.8944171461262
 20
-124.30302164318159
 30
0.0
 11
9995.0533812002577
 21
-115.1440575890517
 31
0.0
1001
GRADIENTCOLOR1ACI
1070
     5
1001
GRADIENTCOLOR2ACI
1070
     2
1001
ACAD
1010
0.0
1020
0.0
1030
0.0
1001
ACDBBLOCKREPETAG
1070
     1
1071
      448
1005
1212B3
  0
LINE
  5
1212B4
  8
SLIM
 10
9915.0979635574713
 20
-204.07973135290339
 30
0.0
 11
9919.1776949103787
 21
-199.99999999999909
 31
0.0
1001
GRADIENTCOLOR1ACI
1070
     5
1001
GRADIENTCOLOR2ACI
1070
     2
1001
ACAD
1010
0.0
1020
0.0
1030
0.0
1001
ACDBBLOCKREPETAG
1070
     1
1071
      449
1005
1212B4
  0
LINE
  5
1212B5
  8
SLIM
 10
10000.0
 20
-119.1776949103767
 30
0.0
 11
10004.0797313529
 21
-115.0979635574724
 31
0.0
1001
GRADIENTCOLOR1ACI
1070
     5
1001
GRADIENTCOLOR2ACI
1070
     2
1001
ACAD
1010
0.0
1020
0.0
1030
0.0
1001
ACDBBLOCKREPETAG
1070
     1
1071
      450
1005
1212B5
  0
LINE
  5
1212B6
  8
SLIM
 10
9919.1776949103787
 20
-199.99999999999909
 30
0.0
 11
9923.09996216117
 21
-196.07773274920581
 31
0.0
1001
GRADIENTCOLOR1ACI
1070
     5
1001
GRADIENTCOLOR2ACI
1070
     2
1001
ACAD
1010
0.0
1020
0.0
1030
0.0
1001
ACDBBLOCKREPETAG
1070
     1
1071
      451
1005
1212B6
  0
LINE
  5
1212B7
  8
SLIM
 10
9996.0777327492033
 20
-123.0999621611699
 30
0.0
 11
10000.0
 21
-119.1776949103767
 31
0.0
1001
GRADIENTCOLOR1ACI
1070
     5
1001
GRADIENTCOLOR2ACI
1070
     2
1001
ACAD
1010
0.0
1020
0.0
1030
0.0
1001
ACDBBLOCKREPETAG
1070
     1
1071
      452
1005
1212B7
  0
LINE
  5
1212B8
  8
SLIM
 10
9915.8899726208747
 20
-212.26797841057399
 30
0.0
 11
9923.1622307771686
 21
-204.9957202542767
 31
0.0
1001
GRADIENTCOLOR1ACI
1070
     5
1001
GRADIENTCOLOR2ACI
1070
     2
1001
ACAD
1010
0.0
1020
0.0
1030
0.0
1001
ACDBBLOCKREPETAG
1070
     1
1071
      453
1005
1212B8
  0
LINE
  5
1212B9
  8
SLIM
 10
10004.99572025427
 20
-123.1622307771683
 30
0.0
 11
10012.26797841056
 21
-115.88997262087101
 31
0.0
1001
GRADIENTCOLOR1ACI
1070
     5
1001
GRADIENTCOLOR2ACI
1070
     2
1001
ACAD
1010
0.0
1020
0.0
1030
0.0
1001
ACDBBLOCKREPETAG
1070
     1
1071
      454
1005
1212B9
  0
LINE
  5
1212BA
  8
SLIM
 10
9917.3382656951544
 20
-219.79994145736151
 30
0.0
 11
9924.1101477855536
 21
-213.02805936696359
 31
0.0
1001
GRADIENTCOLOR1ACI
1070
     5
1001
GRADIENTCOLOR2ACI
1070
     2
1001
ACAD
1010
0.0
1020
0.0
1030
0.0
1001
ACDBBLOCKREPETAG
1070
     1
1071
      455
1005
1212BA
  0
LINE
  5
1212BB
  8
SLIM
 10
10013.028059366959
 20
-124.1101477855505
 30
0.0
 11
10019.799941457361
 21
-117.3382656951526
 31
0.0
1001
GRADIENTCOLOR1ACI
1070
     5
1001
GRADIENTCOLOR2ACI
1070
     2
1001
ACAD
1010
0.0
1020
0.0
1030
0.0
1001
ACDBBLOCKREPETAG
1070
     1
1071
      456
1005
1212BB
  0
LINE
  5
1212BC
  8
SLIM
 10
9919.3312594063045
 20
-226.78720386727881
 30
0.0
 11
9925.7443819593445
 21
-220.3740813142449
 31
0.0
1001
GRADIENTCOLOR1ACI
1070
     5
1001
GRADIENTCOLOR2ACI
1070
     2
1001
ACAD
1010
0.0
1020
0.0
1030
0.0
1001
ACDBBLOCKREPETAG
1070
     1
1071
      457
1005
1212BC
  0
LINE
  5
1212BD
  8
SLIM
 10
10020.374081314239
 20
-125.7443819593384
 30
0.0
 11
10026.787203867279
 21
-119.3312594063044
 31
0.0
1001
GRADIENTCOLOR1ACI
1070
     5
1001
GRADIENTCOLOR2ACI
1070
     2
1001
ACAD
1010
0.0
1020
0.0
1030
0.0
1001
ACDBBLOCKREPETAG
1070
     1
1071
      458
1005
1212BD
  0
LINE
  5
1212BE
  8
SLIM
 10
9921.7957163186184
 20
-233.30300307603289
 30
0.0
 11
9927.9462473957792
 21
-227.1524719988744
 31
0.0
1001
GRADIENTCOLOR1ACI
1070
     5
1001
GRADIENTCOLOR2ACI
1070
     2
1001
ACAD
1010
0.0
1020
0.0
1030
0.0
1001
ACDBBLOCKREPETAG
1070
     1
1071
      459
1005
1212BE
  0
LINE
  5
1212BF
  8
SLIM
 10
10027.15247199887
 20
-127.946247395778
 30
0.0
 11
10033.303003076029
 21
-121.7957163186195
 31
0.0
1001
GRADIENTCOLOR1ACI
1070
     5
1001
GRADIENTCOLOR2ACI
1070
     2
1001
ACAD
1010
0.0
1020
0.0
1030
0.0
1001
ACDBBLOCKREPETAG
1070
     1
1071
      460
1005
1212BF
  0
LINE
  5
1212C0
  8
SLIM
 10
9924.6816635313444
 20
-239.39731198437769
 30
0.0
 11
9930.6398768643921
 21
-233.4390986513296
 31
0.0
1001
GRADIENTCOLOR1ACI
1070
     5
1001
GRADIENTCOLOR2ACI
1070
     2
1001
ACAD
1010
0.0
1020
0.0
1030
0.0
1001
ACDBBLOCKREPETAG
1070
     1
1071
      461
1005
1212C0
  0
LINE
  5
1212C1
  8
SLIM
 10
10033.43909865133
 20
-130.63987686439199
 30
0.0
 11
10039.39731198437
 21
-124.6816635313439
 31
0.0
1001
GRADIENTCOLOR1ACI
1070
     5
1001
GRADIENTCOLOR2ACI
1070
     2
1001
ACAD
1010
0.0
1020
0.0
1030
0.0
1001
ACDBBLOCKREPETAG
1070
     1
1071
      462
1005
1212C1
  0
LINE
  5
1212C2
  8
SLIM
 10
9927.9544611024248
 20
-245.10477053436691
 30
0.0
 11
9933.7750070149923
 21
-239.28422462179751
 31
0.0
1001
GRADIENTCOLOR1ACI
1070
     5
1001
GRADIENTCOLOR2ACI
1070
     2
1001
ACAD
1010
0.0
1020
0.0
1030
0.0
1001
ACDBBLOCKREPETAG
1070
     1
1071
      463
1005
1212C2
  0
LINE
  5
1212C3
  8
SLIM
 10
10039.284224621801
 20
-133.77500701499321
 30
0.0
 11
10045.104770534361
 21
-127.95446110242381
 31
0.0
1001
GRADIENTCOLOR1ACI
1070
     5
1001
GRADIENTCOLOR2ACI
1070
     2
1001
ACAD
1010
0.0
1020
0.0
1030
0.0
1001
ACDBBLOCKREPETAG
1070
     1
1071
      464
1005
1212C3
  0
LINE
  5
1212C4
  8
SLIM
 10
9931.5903319686659
 20
-250.4491557891954
 30
0.0
 11
9937.3182075880559
 21
-244.72128016980341
 31
0.0
1001
GRADIENTCOLOR1ACI
1070
     5
1001
GRADIENTCOLOR2ACI
1070
     2
1001
ACAD
1010
0.0
1020
0.0
1030
0.0
1001
ACDBBLOCKREPETAG
1070
     1
1071
      465
1005
1212C4
  0
LINE
  5
1212C5
  8
SLIM
 10
10044.721280169801
 20
-137.31820758805651
 30
0.0
 11
10050.449155789191
 21
-131.59033196866449
 31
0.0
1001
GRADIENTCOLOR1ACI
1070
     5
1001
GRADIENTCOLOR2ACI
1070
     2
1001
ACAD
1010
0.0
1020
0.0
1030
0.0
1001
ACDBBLOCKREPETAG
1070
     1
1071
      466
1005
1212C5
  0
LINE
  5
1212C6
  8
SLIM
 10
9935.5737496925303
 20
-255.4459941864034
 30
0.0
 11
9941.2481105415936
 21
-249.77163333734029
 31
0.0
1001
GRADIENTCOLOR1ACI
1070
     5
1001
GRADIENTCOLOR2ACI
1070
     2
1001
ACAD
1010
0.0
1020
0.0
1030
0.0
1001
ACDBBLOCKREPETAG
1070
     1
1071
      467
1005
1212C6
  0
LINE
  5
1212C7
  8
SLIM
 10
10053.019743878929
 20
-137.99999999999909
 30
0.0
 11
10055.445994186401
 21
-135.57374969252561
 31
0.0
1001
GRADIENTCOLOR1ACI
1070
     5
1001
GRADIENTCOLOR2ACI
1070
     2
1001
ACAD
1010
0.0
1020
0.0
1030
0.0
1001
ACDBBLOCKREPETAG
1070
     1
1071
      468
1005
1212C7
  0
LINE
  5
1212C8
  8
SLIM
 10
9939.8959235991442
 20
-260.10407640085572
 30
0.0
 11
9945.5527778486357
 21
-254.44722215136329
 31
0.0
1001
GRADIENTCOLOR1ACI
1070
     5
1001
GRADIENTCOLOR2ACI
1070
     2
1001
ACAD
1010
0.0
1020
0.0
1030
0.0
1001
ACDBBLOCKREPETAG
1070
     1
1071
      469
1005
1212C8
  0
LINE
  5
1212C9
  8
SLIM
 10
9944.5540058135957
 20
-264.4262503074724
 30
0.0
 11
9950.2283666626608
 21
-258.75188945840949
 31
0.0
1001
GRADIENTCOLOR1ACI
1070
     5
1001
GRADIENTCOLOR2ACI
1070
     2
1001
ACAD
1010
0.0
1020
0.0
1030
0.0
1001
ACDBBLOCKREPETAG
1070
     1
1071
      470
1005
1212C9
  0
LINE
  5
1212CA
  8
SLIM
 10
9949.5508442108039
 20
-268.40966803133369
 30
0.0
 11
9955.2787198301976
 21
-262.68179241194167
 31
0.0
1001
GRADIENTCOLOR1ACI
1070
     5
1001
GRADIENTCOLOR2ACI
1070
     2
1001
ACAD
1010
0.0
1020
0.0
1030
0.0
1001
ACDBBLOCKREPETAG
1070
     1
1071
      471
1005
1212CA
  0
LINE
  5
1212CB
  8
SLIM
 10
9954.8952294656337
 20
-272.04553889757437
 30
0.0
 11
9960.7157753781994
 21
-266.22499298500497
 31
0.0
1001
GRADIENTCOLOR1ACI
1070
     5
1001
GRADIENTCOLOR2ACI
1070
     2
1001
ACAD
1010
0.0
1020
0.0
1030
0.0
1001
ACDBBLOCKREPETAG
1070
     1
1071
      472
1005
1212CB
  0
LINE
  5
1212CC
  8
SLIM
 10
9960.6026880156223
 20
-275.31833646865431
 30
0.0
 11
9966.5609013486755
 21
-269.36012313560622
 31
0.0
1001
GRADIENTCOLOR1ACI
1070
     5
1001
GRADIENTCOLOR2ACI
1070
     2
1001
ACAD
1010
0.0
1020
0.0
1030
0.0
1001
ACDBBLOCKREPETAG
1070
     1
1071
      473
1005
1212CC
  0
LINE
  5
1212CD
  8
SLIM
 10
9966.6969969239635
 20
-278.20428368137868
 30
0.0
 11
9972.8475280011244
 21
-272.05375260422022
 31
0.0
1001
GRADIENTCOLOR1ACI
1070
     5
1001
GRADIENTCOLOR2ACI
1070
     2
1001
ACAD
1010
0.0
1020
0.0
1030
0.0
1001
ACDBBLOCKREPETAG
1070
     1
1071
      474
1005
1212CD
  0
LINE
  5
1212CE
  8
SLIM
 10
9973.2127961327205
 20
-280.66874059369371
 30
0.0
 11
9979.6259186857551
 21
-274.25561804065973
 31
0.0
1001
GRADIENTCOLOR1ACI
1070
     5
1001
GRADIENTCOLOR2ACI
1070
     2
1001
ACAD
1010
0.0
1020
0.0
1030
0.0
1001
ACDBBLOCKREPETAG
1070
     1
1071
      475
1005
1212CE
  0
LINE
  5
1212CF
  8
SLIM
 10
9980.2000585426413
 20
-282.6617343048456
 30
0.0
 11
9986.971940633035
 21
-275.88985221444773
 31
0.0
1001
GRADIENTCOLOR1ACI
1070
     5
1001
GRADIENTCOLOR2ACI
1070
     2
1001
ACAD
1010
0.0
1020
0.0
1030
0.0
1001
ACDBBLOCKREPETAG
1070
     1
1071
      476
1005
1212CF
  0
LINE
  5
1212D0
  8
SLIM
 10
9987.7320215894215
 20
-284.11002737912702
 30
0.0
 11
9995.0042797457209
 21
-276.83776922282988
 31
0.0
1001
GRADIENTCOLOR1ACI
1070
     5
1001
GRADIENTCOLOR2ACI
1070
     2
1001
ACAD
1010
0.0
1020
0.0
1030
0.0
1001
ACDBBLOCKREPETAG
1070
     1
1071
      477
1005
1212D0
  0
LINE
  5
1212D1
  8
SLIM
 10
9995.9202686470962
 20
-284.9020364425258
 30
0.0
 11
10000.0
 21
-280.82230508962152
 31
0.0
1001
GRADIENTCOLOR1ACI
1070
     5
1001
GRADIENTCOLOR2ACI
1070
     2
1001
ACAD
1010
0.0
1020
0.0
1030
0.0
1001
ACDBBLOCKREPETAG
1070
     1
1071
      478
1005
1212D1
  0
LINE
  5
1212D2
  8
SLIM
 10
10000.0
 20
-280.82230508962152
 30
0.0
 11
10003.922267250789
 21
-276.90003783882821
 31
0.0
1001
GRADIENTCOLOR1ACI
1070
     5
1001
GRADIENTCOLOR2ACI
1070
     2
1001
ACAD
1010
0.0
1020
0.0
1030
0.0
1001
ACDBBLOCKREPETAG
1070
     1
1071
      479
1005
1212D2
  0
LINE
  5
1212D3
  8
SLIM
 10
10004.94661879974
 20
-284.85594241094651
 30
0.0
 11
10014.10558285387
 21
-275.6969783568166
 31
0.0
1001
GRADIENTCOLOR1ACI
1070
     5
1001
GRADIENTCOLOR2ACI
1070
     2
1001
ACAD
1010
0.0
1020
0.0
1030
0.0
1001
ACDBBLOCKREPETAG
1070
     1
1071
      480
1005
1212D3
  0
LINE
  5
1212D4
  8
SLIM
 10
10015.142485325139
 20
-283.64033200662118
 30
0.0
 11
10026.478775687539
 21
-272.30404164421702
 31
0.0
1001
GRADIENTCOLOR1ACI
1070
     5
1001
GRADIENTCOLOR2ACI
1070
     2
1001
ACAD
1010
0.0
1020
0.0
1030
0.0
1001
ACDBBLOCKREPETAG
1070
     1
1071
      481
1005
1212D4
  0
LINE
  5
1212D5
  8
SLIM
 10
10027.249225523659
 20
-280.51384792916173
 30
0.0
 11
10045.76307345283
 21
-261.99999999999909
 31
0.0
1001
GRADIENTCOLOR1ACI
1070
     5
1001
GRADIENTCOLOR2ACI
1070
     2
1001
ACAD
1010
0.0
1020
0.0
1030
0.0
1001
ACDBBLOCKREPETAG
1070
     1
1071
      482
1005
1212D5
  0
LINE
  5
1212D6
  8
SLIM
 10
10044.045159630419
 20
-272.69816994347582
 30
0.0
 11
10054.743329573899
 21
-261.99999999999909
 31
0.0
1001
GRADIENTCOLOR1ACI
1070
     5
1001
GRADIENTCOLOR2ACI
1070
     2
1001
ACAD
1010
0.0
1020
0.0
1030
0.0
1001
ACDBBLOCKREPETAG
1070
     1
1071
      483
1005
1212D6
  0
LINE
  5
1212D7
  8
CENTER
 10
10080.0
 20
-199.99999999999909
 30
0.0
 11
9900.0
 21
-199.99999999999909
 31
0.0
1001
ACDBBLOCKREPETAG
1070
     1
1071
      187
1005
1212D7
  0
LINE
  5
1212D8
  8
CENTER
 10
10000.0
 20
-299.99999999999898
 30
0.0
 11
10000.0
 21
-99.999999999999091
 31
0.0
1001
ACDBBLOCKREPETAG
1070
     1
1071
      188
1005
1212D8
  0
CIRCLE
  5
1212D9
  8
OBJECT
 10
10000.0
 20
-199.99999999999909
 30
0.0
 40
70.0
1001
ACDBBLOCKREPETAG
1070
     1
1071
      189
1005
1212D9
  0
CIRCLE
  5
1212DA
  8
OBJECT
 10
10000.0
 20
-199.99999999999909
 30
0.0
 40
77.0
1001
ACDBBLOCKREPETAG
1070
     1
1071
      190
1005
1212DA
  0
LINE
  5
1212DB
  8
OBJECT
 10
10045.661800227321
 20
-137.99999999999909
 30
0.0
 11
10080.0
 21
-137.99999999999909
 31
0.0
1001
ACDBBLOCKREPETAG
1070
     1
1071
      192
1005
1212DB
  0
LINE
  5
1212DC
  8
OBJECT
 10
10045.661800227321
 20
-261.99999999999909
 30
0.0
 11
10080.0
 21
-261.99999999999909
 31
0.0
1001
ACDBBLOCKREPETAG
1070
     1
1071
      193
1005
1212DC
  0
ARC
  5
1212DD
  8
OBJECT
 10
10000.0
 20
-199.99999999999909
 30
0.0
 40
85.0
 50
46.837102859853147
 51
313.16289714014681
1001
ACDBBLOCKREPETAG
1070
     1
1071
      202
1005
1212DD
  0
LINE
  5
1212DE
  8
OBJECT
 10
10024.1029330933
 20
-243.80694712371681
 30
0.0
 11
10020.659656999989
 21
-232.55462199999889
 31
0.0
1001
ACDBBLOCKREPETAG
1070
     1
1071
      321
1005
1212DE
  0
LINE
  5
1212DF
  8
OBJECT
 10
9986.7927499013749
 20
-218.22553374208019
 30
0.0
 11
10020.659656999989
 21
-232.5546219999969
 31
0.0
1001
ACDBBLOCKREPETAG
1070
     1
1071
      323
1005
1212DF
  0
ARC
  5
1212E0
  8
OBJECT
 10
9982.8961697618997
 20
-227.4351299990567
 30
0.0
 40
10.0
 50
67.066778292911366
 51
154.01473437031629
1001
ACDBBLOCKREPETAG
1070
     1
1071
      324
1005
1212E0
  0
ARC
  5
1212E1
  8
OBJECT
 10
9986.1488390381292
 20
-225.55386256729159
 30
0.0
 40
7.0
 50
67.066778292911366
 51
154.0147337749826
1001
ACDBBLOCKREPETAG
1070
     1
1071
      325
1005
1212E1
  0
LINE
  5
1212E2
  8
OBJECT
 10
9969.4199755553
 20
-243.89888500818171
 30
0.0
 11
9979.8564918232369
 21
-222.48688253356801
 31
0.0
1001
ACDBBLOCKREPETAG
1070
     1
1071
      353
1005
1212E2
  0
LINE
  5
1212E3
  8
OBJECT
 10
9965.2972169006098
 20
-240.71813901882729
 30
0.0
 11
9973.9071022665084
 21
-223.05373004430751
 31
0.0
1001
ACDBBLOCKREPETAG
1070
     1
1071
      354
1005
1212E3
  0
ARC
  5
1212E4
  8
OBJECT
 10
9976.5796953073132
 20
-207.1289369828437
 30
0.0
 40
60.031113246032611
 50
314.07020130422319
 51
322.33936106089681
1001
ACDBBLOCKREPETAG
1070
     1
1071
      355
1005
1212E4
  0
CIRCLE
  5
1212E5
  8
OBJECT
 10
10000.0
 20
-199.99999999999909
 30
0.0
 40
53.5
1001
ACDBBLOCKREPETAG
1070
     1
1071
      356
1005
1212E5
  0
POINT
  5
1212E6
  8
DOTS
 10
10000.0
 20
-199.99999999999909
 30
0.0
 50
270.0
1001
ACDBBLOCKREPETAG
1070
     1
1071
      365
1005
1212E6
  0
LINE
  5
1212E7
  8
OBJECT
 10
10202.99999999998
 20
-483.0000000000008
 30
0.0
 11
10209.99999999998
 21
-483.0000000000008
 31
0.0
1001
ACDBBLOCKREPETAG
1070
     1
1071
       83
1005
1212E7
  0
LINE
  5
1212E8
  8
OBJECT
 10
10209.99999999998
 20
-483.0000000000008
 30
0.0
 11
10209.99999999998
 21
-607.0000000000008
 31
0.0
1001
ACDBBLOCKREPETAG
1070
     1
1071
       84
1005
1212E8
  0
LINE
  5
1212E9
  8
OBJECT
 10
10085.99999999998
 20
-553.3502637757274
 30
0.0
 11
10085.99999999998
 21
-655.00000000000068
 31
0.0
1001
ACDBBLOCKREPETAG
1070
     1
1071
       85
1005
1212E9
  0
LINE
  5
1212EA
  8
OBJECT
 10
10209.99999999998
 20
-607.0000000000008
 30
0.0
 11
10202.99999999998
 21
-607.0000000000008
 31
0.0
1001
ACDBBLOCKREPETAG
1070
     1
1071
       86
1005
1212EA
  0
LINE
  5
1212EB
  8
OBJECT
 10
10202.99999999998
 20
-607.0000000000008
 30
0.0
 11
10202.99999999998
 21
-483.0000000000008
 31
0.0
1001
ACDBBLOCKREPETAG
1070
     1
1071
       87
1005
1212EB
  0
LINE
  5
1212EC
  8
CENTER
 10
10134.99999999998
 20
-545.0000000000008
 30
0.0
 11
10224.99999999998
 21
-545.0000000000008
 31
0.0
1001
ACDBBLOCKREPETAG
1070
     1
1071
       88
1005
1212EC
  0
LINE
  5
1212ED
  8
OBJECT
 10
10079.99999999998
 20
-658.0
 30
0.0
 11
10082.99999999998
 21
-658.0000000000008
 31
0.0
1001
ACDBBLOCKREPETAG
1070
     1
1071
       89
1005
1212ED
  0
ARC
  5
1212EE
  8
OBJECT
 10
10082.99999999998
 20
-655.00000000000068
 30
0.0
 40
3.0
 50
270.0
 51
0.0
1001
ACDBBLOCKREPETAG
1070
     1
1071
       90
1005
1212EE
  0
LINE
  5
1212EF
  8
OBJECT
 10
10202.99999999998
 20
-486.0000000000008
 30
0.0
 11
10166.99999999998
 21
-486.0000000000008
 31
0.0
1001
ACDBBLOCKREPETAG
1070
     1
1071
       91
1005
1212EF
  0
LINE
  5
1212F0
  8
OBJECT
 10
10166.99999999998
 20
-486.0000000000008
 30
0.0
 11
10166.99999999998
 21
-604.0000000000008
 31
0.0
1001
ACDBBLOCKREPETAG
1070
     1
1071
       92
1005
1212F0
  0
LINE
  5
1212F1
  8
OBJECT
 10
10162.99999999998
 20
-490.5000000000008
 30
0.0
 11
10162.99999999998
 21
-599.5000000000008
 31
0.0
1001
ACDBBLOCKREPETAG
1070
     1
1071
       93
1005
1212F1
  0
LINE
  5
1212F2
  8
OBJECT
 10
10162.99999999998
 20
-490.5000000000008
 30
0.0
 11
10149.99999999998
 21
-490.5000000000008
 31
0.0
1001
ACDBBLOCKREPETAG
1070
     1
1071
       94
1005
1212F2
  0
LINE
  5
1212F3
  8
OBJECT
 10
10166.99999999998
 20
-604.0000000000008
 30
0.0
 11
10202.99999999998
 21
-604.0000000000008
 31
0.0
1001
ACDBBLOCKREPETAG
1070
     1
1071
       95
1005
1212F3
  0
LINE
  5
1212F4
  8
OBJECT
 10
10166.99999999998
 20
-486.0000000000008
 30
0.0
 11
10162.99999999998
 21
-490.5000000000008
 31
0.0
1001
ACDBBLOCKREPETAG
1070
     1
1071
       96
1005
1212F4
  0
LINE
  5
1212F5
  8
OBJECT
 10
10149.99999999998
 20
-490.5000000000008
 30
0.0
 11
10149.99999999998
 21
-575.74491827928784
 31
0.0
1001
ACDBBLOCKREPETAG
1070
     1
1071
       97
1005
1212F5
  0
ARC
  5
1212F6
  8
OBJECT
 10
10152.799999999979
 20
-585.00000000000068
 30
0.0
 40
85.0
 50
91.887731891831123
 51
143.1301023540934
1001
ACDBBLOCKREPETAG
1070
     1
1071
       98
1005
1212F6
  0
LINE
  5
1212F7
  8
HIDDEN
 10
10157.99999999998
 20
-500.5000000000008
 30
0.0
 11
10157.99999999998
 21
-589.5000000000008
 31
0.0
1001
ACDBBLOCKREPETAG
1070
     1
1071
      100
1005
1212F7
  0
LINE
  5
1212F8
  8
OBJECT
 10
10085.99999999998
 20
-651.07945073181781
 30
0.0
 11
10156.631319921031
 21
-599.5000000000008
 31
0.0
1001
ACDBBLOCKREPETAG
1070
     1
1071
      101
1005
1212F8
  0
LINE
  5
1212F9
  8
OBJECT
 10
10079.99999999998
 20
-534.0
 30
0.0
 11
10084.799999999979
 21
-534.0
 31
0.0
1001
ACDBBLOCKREPETAG
1070
     1
1071
      102
1005
1212F9
  0
LINE
  5
1212FA
  8
OBJECT
 10
10085.99999999998
 20
-553.35026377573001
 30
0.0
 11
10084.799999999979
 21
-534.0
 31
0.0
1001
ACDBBLOCKREPETAG
1070
     1
1071
      103
1005
1212FA
  0
LINE
  5
1212FB
  8
OBJECT
 10
10162.99999999998
 20
-599.5000000000008
 30
0.0
 11
10156.631319921031
 21
-599.5000000000008
 31
0.0
1001
ACDBBLOCKREPETAG
1070
     1
1071
      104
1005
1212FB
  0
LINE
  5
1212FC
  8
OBJECT
 10
10166.99999999998
 20
-604.0000000000008
 30
0.0
 11
10162.99999999998
 21
-599.5000000000008
 31
0.0
1001
ACDBBLOCKREPETAG
1070
     1
1071
      105
1005
1212FC
  0
LINE
  5
1212FD
  8
OBJECT
 10
10202.99999999998
 20
-137.99999999999909
 30
0.0
 11
10209.99999999998
 21
-137.99999999999909
 31
0.0
1001
ACDBBLOCKREPETAG
1070
     1
1071
       85
1005
1212FD
  0
LINE
  5
1212FE
  8
OBJECT
 10
10209.99999999998
 20
-137.99999999999909
 30
0.0
 11
10209.99999999998
 21
-261.99999999999909
 31
0.0
1001
ACDBBLOCKREPETAG
1070
     1
1071
       86
1005
1212FE
  0
LINE
  5
1212FF
  8
OBJECT
 10
10209.99999999998
 20
-261.99999999999909
 30
0.0
 11
10202.99999999998
 21
-261.99999999999909
 31
0.0
1001
ACDBBLOCKREPETAG
1070
     1
1071
       87
1005
1212FF
  0
LINE
  5
121300
  8
OBJECT
 10
10202.99999999998
 20
-261.99999999999909
 30
0.0
 11
10202.99999999998
 21
-137.99999999999909
 31
0.0
1001
ACDBBLOCKREPETAG
1070
     1
1071
       88
1005
121300
  0
LINE
  5
121301
  8
CENTER
 10
10224.99999999998
 20
-199.99999999999909
 30
0.0
 11
10080.0
 21
-199.99999999999909
 31
0.0
1001
ACDBBLOCKREPETAG
1070
     1
1071
       89
1005
121301
  0
LINE
  5
121302
  8
OBJECT
 10
10149.99997496419
 20
-245.0000000000027
 30
0.0
 11
10086.0
 21
-244.99999999999909
 31
0.0
1001
ACDBBLOCKREPETAG
1070
     1
1071
       90
1005
121302
  0
LINE
  5
121303
  8
OBJECT
 10
10149.99997496419
 20
-154.99999999999909
 30
0.0
 11
10086.0
 21
-154.99999999999909
 31
0.0
1001
ACDBBLOCKREPETAG
1070
     1
1071
       91
1005
121303
  0
LINE
  5
121304
  8
OBJECT
 10
10202.99999999998
 20
-140.99999999999909
 30
0.0
 11
10166.99999999998
 21
-140.99999999999909
 31
0.0
1001
ACDBBLOCKREPETAG
1070
     1
1071
       92
1005
121304
  0
LINE
  5
121305
  8
OBJECT
 10
10166.99999999998
 20
-140.99999999999909
 30
0.0
 11
10166.99999999998
 21
-258.99999999999909
 31
0.0
1001
ACDBBLOCKREPETAG
1070
     1
1071
       93
1005
121305
  0
LINE
  5
121306
  8
OBJECT
 10
10166.99999999998
 20
-258.99999999999909
 30
0.0
 11
10202.99999999998
 21
-258.99999999999909
 31
0.0
1001
ACDBBLOCKREPETAG
1070
     1
1071
       94
1005
121306
  0
LINE
  5
121307
  8
OBJECT
 10
10162.99999999998
 20
-145.49999999999909
 30
0.0
 11
10149.99999999998
 21
-145.49999999999909
 31
0.0
1001
ACDBBLOCKREPETAG
1070
     1
1071
       95
1005
121307
  0
LINE
  5
121308
  8
OBJECT
 10
10149.99999999998
 20
-254.49999999999909
 30
0.0
 11
10162.99999999998
 21
-254.49999999999909
 31
0.0
1001
ACDBBLOCKREPETAG
1070
     1
1071
       96
1005
121308
  0
LINE
  5
121309
  8
OBJECT
 10
10162.99999999998
 20
-254.49999999999909
 30
0.0
 11
10162.99999999998
 21
-145.49999999999909
 31
0.0
1001
ACDBBLOCKREPETAG
1070
     1
1071
       97
1005
121309
  0
LINE
  5
12130A
  8
OBJECT
 10
10166.99999999998
 20
-140.99999999999909
 30
0.0
 11
10162.99999999998
 21
-145.49999999999909
 31
0.0
1001
ACDBBLOCKREPETAG
1070
     1
1071
       98
1005
12130A
  0
LINE
  5
12130B
  8
OBJECT
 10
10166.99999999998
 20
-258.99999999999909
 30
0.0
 11
10162.99999999998
 21
-254.49999999999909
 31
0.0
1001
ACDBBLOCKREPETAG
1070
     1
1071
       99
1005
12130B
  0
LINE
  5
12130C
  8
OBJECT
 10
10083.0
 20
-137.99999999999909
 30
0.0
 11
10080.0
 21
-137.99999999999909
 31
0.0
1001
ACDBBLOCKREPETAG
1070
     1
1071
      100
1005
12130C
  0
ARC
  5
12130D
  8
OBJECT
 10
10083.0
 20
-140.99999999999909
 30
0.0
 40
3.0
 50
0.0
 51
90.0
1001
ACDBBLOCKREPETAG
1070
     1
1071
      101
1005
12130D
  0
LINE
  5
12130E
  8
OBJECT
 10
10080.0
 20
-261.99999999999909
 30
0.0
 11
10083.0
 21
-261.99999999999909
 31
0.0
1001
ACDBBLOCKREPETAG
1070
     1
1071
      102
1005
12130E
  0
ARC
  5
12130F
  8
OBJECT
 10
10083.0
 20
-258.99999999999909
 30
0.0
 40
3.0
 50
270.0
 51
0.0
1001
ACDBBLOCKREPETAG
1070
     1
1071
      103
1005
12130F
  0
LINE
  5
121310
  8
OBJECT
 10
10086.0
 20
-258.99999999999909
 30
0.0
 11
10086.0
 21
-210.3227903203578
 31
0.0
1001
ACDBBLOCKREPETAG
1070
     1
1071
      104
1005
121310
  0
LINE
  5
121311
  8
OBJECT
 10
10086.0
 20
-189.6772096796403
 30
0.0
 11
10086.0
 21
-140.99999999999909
 31
0.0
1001
ACDBBLOCKREPETAG
1070
     1
1071
      105
1005
121311
  0
LINE
  5
121312
  8
HIDDEN
 10
10157.99999999998
 20
-155.49999999999909
 30
0.0
 11
10157.99999999998
 21
-244.49999999999909
 31
0.0
1001
ACDBBLOCKREPETAG
1070
     1
1071
      106
1005
121312
  0
LINE
  5
121313
  8
OBJECT
 10
10149.99997496419
 20
-254.4999509238105
 30
0.0
 11
10149.99997496419
 21
-145.4999509238105
 31
0.0
1001
ACDBBLOCKREPETAG
1070
     1
1071
      108
1005
121313
  0
ARC
  5
121314
  8
OBJECT
 10
10129.800000000019
 20
-199.99999999999909
 30
0.0
 40
45.000000000000547
 50
90.0
 51
270.0
1001
ACDBBLOCKREPETAG
1070
     1
1071
      109
1005
121314
  0
LINE
  5
121315
  8
OBJECT
 10
7923.0
 20
-470.99999999999937
 30
0.0
 11
7923.0
 21
-449.99999999999937
 31
0.0
1001
ACDBBLOCKREPETAG
1070
     1
1071
        0
1005
121315
  0
LINE
  5
121316
  8
OBJECT
 10
7923.0
 20
-449.99999999999937
 30
0.0
 11
8077.0
 21
-449.99999999999937
 31
0.0
1001
ACDBBLOCKREPETAG
1070
     1
1071
        1
1005
121316
  0
LINE
  5
121317
  8
HIDDEN
 10
7943.0
 20
-519.99999999999955
 30
0.0
 11
8057.0
 21
-519.99999999999955
 31
0.0
1001
ACDBBLOCKREPETAG
1070
     1
1071
        2
1005
121317
  0
LINE
  5
121318
  8
OBJECT
 10
8077.0
 20
-449.99999999999937
 30
0.0
 11
8077.0
 21
-470.99999999999937
 31
0.0
1001
ACDBBLOCKREPETAG
1070
     1
1071
        3
1005
121318
  0
LINE
  5
121319
  8
OBJECT
 10
8077.0
 20
-470.99999999999937
 30
0.0
 11
7923.0
 21
-470.99999999999937
 31
0.0
1001
ACDBBLOCKREPETAG
1070
     1
1071
        4
1005
121319
  0
LINE
  5
12131A
  8
CENTER
 10
8000.0
 20
-434.99999999999949
 30
0.0
 11
8000.0
 21
-789.99999999999955
 31
0.0
1001
ACDBBLOCKREPETAG
1070
     1
1071
        5
1005
12131A
  0
LINE
  5
12131B
  8
OBJECT
 10
7925.0
 20
-533.99999999999955
 30
0.0
 11
7925.0
 21
-777.99999999999955
 31
0.0
1001
ACDBBLOCKREPETAG
1070
     1
1071
        6
1005
12131B
  0
LINE
  5
12131C
  8
OBJECT
 10
7928.0
 20
-470.99999999999937
 30
0.0
 11
7928.0
 21
-533.99999999999955
 31
0.0
1001
ACDBBLOCKREPETAG
1070
     1
1071
        7
1005
12131C
  0
LINE
  5
12131D
  8
OBJECT
 10
8072.0
 20
-533.99999999999955
 30
0.0
 11
8072.0
 21
-470.99999999999937
 31
0.0
1001
ACDBBLOCKREPETAG
1070
     1
1071
        8
1005
12131D
  0
LINE
  5
12131E
  8
OBJECT
 10
7920.0
 20
-777.99999999999955
 30
0.0
 11
8080.0
 21
-777.99999999999955
 31
0.0
1001
ACDBBLOCKREPETAG
1070
     1
1071
        9
1005
12131E
  0
LINE
  5
12131F
  8
OBJECT
 10
8080.0
 20
-533.99999999999955
 30
0.0
 11
7925.0
 21
-533.99999999999955
 31
0.0
1001
ACDBBLOCKREPETAG
1070
     1
1071
       10
1005
12131F
  0
LINE
  5
121320
  8
OBJECT
 10
7920.0
 20
-777.99999999999955
 30
0.0
 11
7920.0
 21
-789.99999999999955
 31
0.0
1001
ACDBBLOCKREPETAG
1070
     1
1071
       11
1005
121320
  0
LINE
  5
121321
  8
OBJECT
 10
7920.0
 20
-789.99999999999955
 30
0.0
 11
8080.0
 21
-789.99999999999955
 31
0.0
1001
ACDBBLOCKREPETAG
1070
     1
1071
       12
1005
121321
  0
LINE
  5
121322
  8
OBJECT
 10
8080.0
 20
-789.99999999999955
 30
0.0
 11
8080.0
 21
-777.99999999999955
 31
0.0
1001
ACDBBLOCKREPETAG
1070
     1
1071
       13
1005
121322
  0
LINE
  5
121323
  8
OBJECT
 10
8074.9999999998618
 20
-657.99999999985039
 30
0.0
 11
8075.0
 21
-777.99999999999955
 31
0.0
1001
ACDBBLOCKREPETAG
1070
     1
1071
       15
1005
121323
  0
LINE
  5
121324
  8
OBJECT
 10
8074.9999908029858
 20
-657.99998602702135
 30
0.0
 11
8080.0
 21
-657.99998602702135
 31
0.0
1001
ACDBBLOCKREPETAG
1070
     1
1071
       16
1005
121324
  0
ARC
  5
121325
  8
OBJECT
 10
8200.6872746716726
 20
-649.40809941010718
 30
0.0
 40
170.6350503965856
 50
137.44134459184301
 51
149.91949581337221
1001
ACDBBLOCKREPETAG
1070
     1
1071
       17
1005
121325
  0
ARC
  5
121326
  8
OBJECT
 10
8118.8455987040506
 20
-605.88272669536445
 30
0.0
 40
78.072222021763665
 50
147.4551531038623
 51
164.66365997718671
1001
ACDBBLOCKREPETAG
1070
     1
1071
       18
1005
121326
  0
ARC
  5
121327
  8
OBJECT
 10
8085.7554349608708
 20
-595.99999999999955
 30
0.0
 40
43.55353926885617
 50
165.688452300753
 51
194.3115476992468
1001
ACDBBLOCKREPETAG
1070
     1
1071
       19
1005
121327
  0
ARC
  5
121328
  8
OBJECT
 10
8200.6872746716726
 20
-542.59190058989179
 30
0.0
 40
170.6350503965856
 50
210.08050418662771
 51
222.55865540815699
1001
ACDBBLOCKREPETAG
1070
     1
1071
       20
1005
121328
  0
ARC
  5
121329
  8
OBJECT
 10
8118.8455987040506
 20
-586.11727330463452
 30
0.0
 40
78.072222021763665
 50
195.3363400228132
 51
212.5448468961377
1001
ACDBBLOCKREPETAG
1070
     1
1071
       21
1005
121329
  0
POINT
  5
12132A
  8
DOTS
 10
8000.0
 20
-654.99999999999966
 30
0.0
1001
ACDBBLOCKREPETAG
1070
     1
1071
      187
1005
12132A
  0
ARC
  5
12132B
  8
OBJECT
 10
8000.0
 20
-199.99999999999909
 30
0.0
 40
50.0
 50
298.81994300000417
 51
228.52376955964741
1001
ACDBBLOCKREPETAG
1070
     1
1071
      185
1005
12132B
  0
LINE
  5
12132C
  8
SLIM
 10
7927.3018300565236
 20
-155.95484036957691
 30
0.0
 11
7955.9548403695781
 21
-127.30183005652231
 31
0.0
1001
GRADIENTCOLOR1ACI
1070
     5
1001
GRADIENTCOLOR2ACI
1070
     2
1001
ACAD
1010
0.0
1020
0.0
1030
0.0
1001
ACDBBLOCKREPETAG
1070
     1
1071
      442
1005
12132C
  0
LINE
  5
12132D
  8
SLIM
 10
7919.4861520708373
 20
-172.75077447633191
 30
0.0
 11
7938.2903089572737
 21
-153.94661758989659
 31
0.0
1001
GRADIENTCOLOR1ACI
1070
     5
1001
GRADIENTCOLOR2ACI
1070
     2
1001
ACAD
1010
0.0
1020
0.0
1030
0.0
1001
ACDBBLOCKREPETAG
1070
     1
1071
      443
1005
12132D
  0
LINE
  5
12132E
  8
SLIM
 10
7953.9466175898988
 20
-138.29030895727169
 30
0.0
 11
7972.7507744763334
 21
-119.4861520708364
 31
0.0
1001
GRADIENTCOLOR1ACI
1070
     5
1001
GRADIENTCOLOR2ACI
1070
     2
1001
ACAD
1010
0.0
1020
0.0
1030
0.0
1001
ACDBBLOCKREPETAG
1070
     1
1071
      444
1005
12132E
  0
LINE
  5
12132F
  8
SLIM
 10
7916.3596679933771
 20
-184.8575146748604
 30
0.0
 11
7927.6959583557828
 21
-173.5212243124561
 31
0.0
1001
GRADIENTCOLOR1ACI
1070
     5
1001
GRADIENTCOLOR2ACI
1070
     2
1001
ACAD
1010
0.0
1020
0.0
1030
0.0
1001
ACDBBLOCKREPETAG
1070
     1
1071
      445
1005
12132F
  0
LINE
  5
121330
  8
SLIM
 10
7973.5212243124561
 20
-127.6959583557812
 30
0.0
 11
7984.8575146748608
 21
-116.359667993377
 31
0.0
1001
GRADIENTCOLOR1ACI
1070
     5
1001
GRADIENTCOLOR2ACI
1070
     2
1001
ACAD
1010
0.0
1020
0.0
1030
0.0
1001
ACDBBLOCKREPETAG
1070
     1
1071
      446
1005
121330
  0
LINE
  5
121331
  8
SLIM
 10
7915.1440575890529
 20
-195.0533812002549
 30
0.0
 11
7924.3030216431825
 21
-185.89441714612491
 31
0.0
1001
GRADIENTCOLOR1ACI
1070
     5
1001
GRADIENTCOLOR2ACI
1070
     2
1001
ACAD
1010
0.0
1020
0.0
1030
0.0
1001
ACDBBLOCKREPETAG
1070
     1
1071
      447
1005
121331
  0
LINE
  5
121332
  8
SLIM
 10
7985.8944171461262
 20
-124.30302164318159
 30
0.0
 11
7995.0533812002559
 21
-115.1440575890517
 31
0.0
1001
GRADIENTCOLOR1ACI
1070
     5
1001
GRADIENTCOLOR2ACI
1070
     2
1001
ACAD
1010
0.0
1020
0.0
1030
0.0
1001
ACDBBLOCKREPETAG
1070
     1
1071
      448
1005
121332
  0
LINE
  5
121333
  8
SLIM
 10
7915.097963557474
 20
-204.07973135290339
 30
0.0
 11
7919.1776949103778
 21
-199.99999999999909
 31
0.0
1001
GRADIENTCOLOR1ACI
1070
     5
1001
GRADIENTCOLOR2ACI
1070
     2
1001
ACAD
1010
0.0
1020
0.0
1030
0.0
1001
ACDBBLOCKREPETAG
1070
     1
1071
      449
1005
121333
  0
LINE
  5
121334
  8
SLIM
 10
8000.0
 20
-119.1776949103767
 30
0.0
 11
8004.0797313529074
 21
-115.0979635574724
 31
0.0
1001
GRADIENTCOLOR1ACI
1070
     5
1001
GRADIENTCOLOR2ACI
1070
     2
1001
ACAD
1010
0.0
1020
0.0
1030
0.0
1001
ACDBBLOCKREPETAG
1070
     1
1071
      450
1005
121334
  0
LINE
  5
121335
  8
SLIM
 10
7919.1776949103778
 20
-199.99999999999909
 30
0.0
 11
7923.0999621611709
 21
-196.07773274920581
 31
0.0
1001
GRADIENTCOLOR1ACI
1070
     5
1001
GRADIENTCOLOR2ACI
1070
     2
1001
ACAD
1010
0.0
1020
0.0
1030
0.0
1001
ACDBBLOCKREPETAG
1070
     1
1071
      451
1005
121335
  0
LINE
  5
121336
  8
SLIM
 10
7996.077732749206
 20
-123.0999621611699
 30
0.0
 11
8000.0
 21
-119.1776949103767
 31
0.0
1001
GRADIENTCOLOR1ACI
1070
     5
1001
GRADIENTCOLOR2ACI
1070
     2
1001
ACAD
1010
0.0
1020
0.0
1030
0.0
1001
ACDBBLOCKREPETAG
1070
     1
1071
      452
1005
121336
  0
LINE
  5
121337
  8
SLIM
 10
7915.889972620871
 20
-212.26797841057399
 30
0.0
 11
7923.1622307771704
 21
-204.9957202542767
 31
0.0
1001
GRADIENTCOLOR1ACI
1070
     5
1001
GRADIENTCOLOR2ACI
1070
     2
1001
ACAD
1010
0.0
1020
0.0
1030
0.0
1001
ACDBBLOCKREPETAG
1070
     1
1071
      453
1005
121337
  0
LINE
  5
121338
  8
SLIM
 10
8004.9957202542737
 20
-123.1622307771683
 30
0.0
 11
8012.2679784105749
 21
-115.88997262087101
 31
0.0
1001
GRADIENTCOLOR1ACI
1070
     5
1001
GRADIENTCOLOR2ACI
1070
     2
1001
ACAD
1010
0.0
1020
0.0
1030
0.0
1001
ACDBBLOCKREPETAG
1070
     1
1071
      454
1005
121338
  0
LINE
  5
121339
  8
SLIM
 10
7917.3382656951526
 20
-219.79994145736151
 30
0.0
 11
7924.1101477855518
 21
-213.02805936696359
 31
0.0
1001
GRADIENTCOLOR1ACI
1070
     5
1001
GRADIENTCOLOR2ACI
1070
     2
1001
ACAD
1010
0.0
1020
0.0
1030
0.0
1001
ACDBBLOCKREPETAG
1070
     1
1071
      455
1005
121339
  0
LINE
  5
12133A
  8
SLIM
 10
8013.028059366964
 20
-124.1101477855505
 30
0.0
 11
8019.7999414573624
 21
-117.3382656951526
 31
0.0
1001
GRADIENTCOLOR1ACI
1070
     5
1001
GRADIENTCOLOR2ACI
1070
     2
1001
ACAD
1010
0.0
1020
0.0
1030
0.0
1001
ACDBBLOCKREPETAG
1070
     1
1071
      456
1005
12133A
  0
LINE
  5
12133B
  8
SLIM
 10
7919.3312594063054
 20
-226.78720386727881
 30
0.0
 11
7925.74438195934
 21
-220.3740813142449
 31
0.0
1001
GRADIENTCOLOR1ACI
1070
     5
1001
GRADIENTCOLOR2ACI
1070
     2
1001
ACAD
1010
0.0
1020
0.0
1030
0.0
1001
ACDBBLOCKREPETAG
1070
     1
1071
      457
1005
12133B
  0
LINE
  5
12133C
  8
SLIM
 10
8020.3740813142458
 20
-125.7443819593384
 30
0.0
 11
8026.7872038672767
 21
-119.3312594063044
 31
0.0
1001
GRADIENTCOLOR1ACI
1070
     5
1001
GRADIENTCOLOR2ACI
1070
     2
1001
ACAD
1010
0.0
1020
0.0
1030
0.0
1001
ACDBBLOCKREPETAG
1070
     1
1071
      458
1005
12133C
  0
LINE
  5
12133D
  8
SLIM
 10
7921.7957163186193
 20
-233.30300307603289
 30
0.0
 11
7927.9462473957792
 21
-227.1524719988744
 31
0.0
1001
GRADIENTCOLOR1ACI
1070
     5
1001
GRADIENTCOLOR2ACI
1070
     2
1001
ACAD
1010
0.0
1020
0.0
1030
0.0
1001
ACDBBLOCKREPETAG
1070
     1
1071
      459
1005
12133D
  0
LINE
  5
12133E
  8
SLIM
 10
8027.1524719988738
 20
-127.946247395778
 30
0.0
 11
8033.3030030760328
 21
-121.7957163186195
 31
0.0
1001
GRADIENTCOLOR1ACI
1070
     5
1001
GRADIENTCOLOR2ACI
1070
     2
1001
ACAD
1010
0.0
1020
0.0
1030
0.0
1001
ACDBBLOCKREPETAG
1070
     1
1071
      460
1005
12133E
  0
LINE
  5
12133F
  8
SLIM
 10
7924.6816635313462
 20
-239.39731198437769
 30
0.0
 11
7930.639876864393
 21
-233.4390986513296
 31
0.0
1001
GRADIENTCOLOR1ACI
1070
     5
1001
GRADIENTCOLOR2ACI
1070
     2
1001
ACAD
1010
0.0
1020
0.0
1030
0.0
1001
ACDBBLOCKREPETAG
1070
     1
1071
      461
1005
12133F
  0
LINE
  5
121340
  8
SLIM
 10
8033.4390986513308
 20
-130.63987686439199
 30
0.0
 11
8039.3973119843777
 21
-124.6816635313439
 31
0.0
1001
GRADIENTCOLOR1ACI
1070
     5
1001
GRADIENTCOLOR2ACI
1070
     2
1001
ACAD
1010
0.0
1020
0.0
1030
0.0
1001
ACDBBLOCKREPETAG
1070
     1
1071
      462
1005
121340
  0
LINE
  5
121341
  8
SLIM
 10
7927.9544611024266
 20
-245.10477053436691
 30
0.0
 11
7933.7750070149932
 21
-239.28422462179751
 31
0.0
1001
GRADIENTCOLOR1ACI
1070
     5
1001
GRADIENTCOLOR2ACI
1070
     2
1001
ACAD
1010
0.0
1020
0.0
1030
0.0
1001
ACDBBLOCKREPETAG
1070
     1
1071
      463
1005
121341
  0
LINE
  5
121342
  8
SLIM
 10
8039.2842246217979
 20
-133.77500701499321
 30
0.0
 11
8045.1047705343699
 21
-127.95446110242381
 31
0.0
1001
GRADIENTCOLOR1ACI
1070
     5
1001
GRADIENTCOLOR2ACI
1070
     2
1001
ACAD
1010
0.0
1020
0.0
1030
0.0
1001
ACDBBLOCKREPETAG
1070
     1
1071
      464
1005
121342
  0
LINE
  5
121343
  8
SLIM
 10
7931.5903319686649
 20
-250.4491557891954
 30
0.0
 11
7937.3182075880577
 21
-244.72128016980341
 31
0.0
1001
GRADIENTCOLOR1ACI
1070
     5
1001
GRADIENTCOLOR2ACI
1070
     2
1001
ACAD
1010
0.0
1020
0.0
1030
0.0
1001
ACDBBLOCKREPETAG
1070
     1
1071
      465
1005
121343
  0
LINE
  5
121344
  8
SLIM
 10
8044.7212801698061
 20
-137.31820758805651
 30
0.0
 11
8050.449155789197
 21
-131.59033196866449
 31
0.0
1001
GRADIENTCOLOR1ACI
1070
     5
1001
GRADIENTCOLOR2ACI
1070
     2
1001
ACAD
1010
0.0
1020
0.0
1030
0.0
1001
ACDBBLOCKREPETAG
1070
     1
1071
      466
1005
121344
  0
LINE
  5
121345
  8
SLIM
 10
7935.5737496925258
 20
-255.4459941864034
 30
0.0
 11
7941.24811054159
 21
-249.77163333734029
 31
0.0
1001
GRADIENTCOLOR1ACI
1070
     5
1001
GRADIENTCOLOR2ACI
1070
     2
1001
ACAD
1010
0.0
1020
0.0
1030
0.0
1001
ACDBBLOCKREPETAG
1070
     1
1071
      467
1005
121345
  0
LINE
  5
121346
  8
SLIM
 10
8053.0197438789319
 20
-137.99999999999909
 30
0.0
 11
8055.4459941864034
 21
-135.57374969252561
 31
0.0
1001
GRADIENTCOLOR1ACI
1070
     5
1001
GRADIENTCOLOR2ACI
1070
     2
1001
ACAD
1010
0.0
1020
0.0
1030
0.0
1001
ACDBBLOCKREPETAG
1070
     1
1071
      468
1005
121346
  0
LINE
  5
121347
  8
SLIM
 10
7939.8959235991442
 20
-260.10407640085572
 30
0.0
 11
7945.5527778486357
 21
-254.44722215136329
 31
0.0
1001
GRADIENTCOLOR1ACI
1070
     5
1001
GRADIENTCOLOR2ACI
1070
     2
1001
ACAD
1010
0.0
1020
0.0
1030
0.0
1001
ACDBBLOCKREPETAG
1070
     1
1071
      469
1005
121347
  0
LINE
  5
121348
  8
SLIM
 10
7944.5540058135948
 20
-264.4262503074724
 30
0.0
 11
7950.2283666626608
 21
-258.75188945840949
 31
0.0
1001
GRADIENTCOLOR1ACI
1070
     5
1001
GRADIENTCOLOR2ACI
1070
     2
1001
ACAD
1010
0.0
1020
0.0
1030
0.0
1001
ACDBBLOCKREPETAG
1070
     1
1071
      470
1005
121348
  0
LINE
  5
121349
  8
SLIM
 10
7949.5508442108039
 20
-268.40966803133369
 30
0.0
 11
7955.2787198301958
 21
-262.68179241194167
 31
0.0
1001
GRADIENTCOLOR1ACI
1070
     5
1001
GRADIENTCOLOR2ACI
1070
     2
1001
ACAD
1010
0.0
1020
0.0
1030
0.0
1001
ACDBBLOCKREPETAG
1070
     1
1071
      471
1005
121349
  0
LINE
  5
12134A
  8
SLIM
 10
7954.895229465631
 20
-272.04553889757437
 30
0.0
 11
7960.7157753782021
 21
-266.22499298500497
 31
0.0
1001
GRADIENTCOLOR1ACI
1070
     5
1001
GRADIENTCOLOR2ACI
1070
     2
1001
ACAD
1010
0.0
1020
0.0
1030
0.0
1001
ACDBBLOCKREPETAG
1070
     1
1071
      472
1005
12134A
  0
LINE
  5
12134B
  8
SLIM
 10
7960.6026880156223
 20
-275.31833646865431
 30
0.0
 11
7966.5609013486683
 21
-269.36012313560622
 31
0.0
1001
GRADIENTCOLOR1ACI
1070
     5
1001
GRADIENTCOLOR2ACI
1070
     2
1001
ACAD
1010
0.0
1020
0.0
1030
0.0
1001
ACDBBLOCKREPETAG
1070
     1
1071
      473
1005
12134B
  0
LINE
  5
12134C
  8
SLIM
 10
7966.6969969239663
 20
-278.20428368137868
 30
0.0
 11
7972.8475280011244
 21
-272.05375260422022
 31
0.0
1001
GRADIENTCOLOR1ACI
1070
     5
1001
GRADIENTCOLOR2ACI
1070
     2
1001
ACAD
1010
0.0
1020
0.0
1030
0.0
1001
ACDBBLOCKREPETAG
1070
     1
1071
      474
1005
12134C
  0
LINE
  5
12134D
  8
SLIM
 10
7973.2127961327187
 20
-280.66874059369371
 30
0.0
 11
7979.6259186857542
 21
-274.25561804065973
 31
0.0
1001
GRADIENTCOLOR1ACI
1070
     5
1001
GRADIENTCOLOR2ACI
1070
     2
1001
ACAD
1010
0.0
1020
0.0
1030
0.0
1001
ACDBBLOCKREPETAG
1070
     1
1071
      475
1005
12134D
  0
LINE
  5
12134E
  8
SLIM
 10
7980.2000585426395
 20
-282.6617343048456
 30
0.0
 11
7986.971940633035
 21
-275.88985221444773
 31
0.0
1001
GRADIENTCOLOR1ACI
1070
     5
1001
GRADIENTCOLOR2ACI
1070
     2
1001
ACAD
1010
0.0
1020
0.0
1030
0.0
1001
ACDBBLOCKREPETAG
1070
     1
1071
      476
1005
12134E
  0
LINE
  5
12134F
  8
SLIM
 10
7987.732021589426
 20
-284.11002737912702
 30
0.0
 11
7995.0042797457209
 21
-276.83776922282988
 31
0.0
1001
GRADIENTCOLOR1ACI
1070
     5
1001
GRADIENTCOLOR2ACI
1070
     2
1001
ACAD
1010
0.0
1020
0.0
1030
0.0
1001
ACDBBLOCKREPETAG
1070
     1
1071
      477
1005
12134F
  0
LINE
  5
121350
  8
SLIM
 10
7995.9202686470962
 20
-284.9020364425258
 30
0.0
 11
8000.0
 21
-280.82230508962152
 31
0.0
1001
GRADIENTCOLOR1ACI
1070
     5
1001
GRADIENTCOLOR2ACI
1070
     2
1001
ACAD
1010
0.0
1020
0.0
1030
0.0
1001
ACDBBLOCKREPETAG
1070
     1
1071
      478
1005
121350
  0
LINE
  5
121351
  8
SLIM
 10
8000.0
 20
-280.82230508962152
 30
0.0
 11
8003.9222672507931
 21
-276.90003783882821
 31
0.0
1001
GRADIENTCOLOR1ACI
1070
     5
1001
GRADIENTCOLOR2ACI
1070
     2
1001
ACAD
1010
0.0
1020
0.0
1030
0.0
1001
ACDBBLOCKREPETAG
1070
     1
1071
      479
1005
121351
  0
LINE
  5
121352
  8
SLIM
 10
8004.9466187997441
 20
-284.85594241094651
 30
0.0
 11
8014.1055828538756
 21
-275.6969783568166
 31
0.0
1001
GRADIENTCOLOR1ACI
1070
     5
1001
GRADIENTCOLOR2ACI
1070
     2
1001
ACAD
1010
0.0
1020
0.0
1030
0.0
1001
ACDBBLOCKREPETAG
1070
     1
1071
      480
1005
121352
  0
LINE
  5
121353
  8
SLIM
 10
8015.1424853251401
 20
-283.64033200662118
 30
0.0
 11
8026.478775687543
 21
-272.30404164421702
 31
0.0
1001
GRADIENTCOLOR1ACI
1070
     5
1001
GRADIENTCOLOR2ACI
1070
     2
1001
ACAD
1010
0.0
1020
0.0
1030
0.0
1001
ACDBBLOCKREPETAG
1070
     1
1071
      481
1005
121353
  0
LINE
  5
121354
  8
SLIM
 10
8027.2492255236657
 20
-280.51384792916173
 30
0.0
 11
8045.7630734528302
 21
-261.99999999999909
 31
0.0
1001
GRADIENTCOLOR1ACI
1070
     5
1001
GRADIENTCOLOR2ACI
1070
     2
1001
ACAD
1010
0.0
1020
0.0
1030
0.0
1001
ACDBBLOCKREPETAG
1070
     1
1071
      482
1005
121354
  0
LINE
  5
121355
  8
SLIM
 10
8044.045159630421
 20
-272.69816994347582
 30
0.0
 11
8054.7433295739002
 21
-261.99999999999909
 31
0.0
1001
GRADIENTCOLOR1ACI
1070
     5
1001
GRADIENTCOLOR2ACI
1070
     2
1001
ACAD
1010
0.0
1020
0.0
1030
0.0
1001
ACDBBLOCKREPETAG
1070
     1
1071
      483
1005
121355
  0
LINE
  5
121356
  8
CENTER
 10
8080.0
 20
-199.99999999999909
 30
0.0
 11
7900.0
 21
-199.99999999999909
 31
0.0
1001
ACDBBLOCKREPETAG
1070
     1
1071
      187
1005
121356
  0
LINE
  5
121357
  8
CENTER
 10
8000.0
 20
-299.99999999999898
 30
0.0
 11
8000.0
 21
-99.999999999999091
 31
0.0
1001
ACDBBLOCKREPETAG
1070
     1
1071
      188
1005
121357
  0
CIRCLE
  5
121358
  8
OBJECT
 10
8000.0
 20
-199.99999999999909
 30
0.0
 40
70.0
1001
ACDBBLOCKREPETAG
1070
     1
1071
      189
1005
121358
  0
CIRCLE
  5
121359
  8
OBJECT
 10
8000.0
 20
-199.99999999999909
 30
0.0
 40
77.0
1001
ACDBBLOCKREPETAG
1070
     1
1071
      190
1005
121359
  0
LINE
  5
12135A
  8
OBJECT
 10
8045.6618002273271
 20
-137.99999999999909
 30
0.0
 11
8080.0
 21
-137.99999999999909
 31
0.0
1001
ACDBBLOCKREPETAG
1070
     1
1071
      192
1005
12135A
  0
LINE
  5
12135B
  8
OBJECT
 10
8045.6618002273271
 20
-261.99999999999909
 30
0.0
 11
8080.0
 21
-261.99999999999909
 31
0.0
1001
ACDBBLOCKREPETAG
1070
     1
1071
      193
1005
12135B
  0
ARC
  5
12135C
  8
OBJECT
 10
8000.0
 20
-199.99999999999909
 30
0.0
 40
85.0
 50
46.83710285981514
 51
313.16289714018478
1001
ACDBBLOCKREPETAG
1070
     1
1071
      202
1005
12135C
  0
LINE
  5
12135D
  8
OBJECT
 10
8024.1029330933006
 20
-243.80694712371681
 30
0.0
 11
8020.6596569999974
 21
-232.55462199999889
 31
0.0
1001
ACDBBLOCKREPETAG
1070
     1
1071
      321
1005
12135D
  0
LINE
  5
12135E
  8
OBJECT
 10
7986.7927499013749
 20
-218.22553374208019
 30
0.0
 11
8020.6596569999974
 21
-232.5546219999969
 31
0.0
1001
ACDBBLOCKREPETAG
1070
     1
1071
      323
1005
12135E
  0
ARC
  5
12135F
  8
OBJECT
 10
7982.8961697618997
 20
-227.4351299990567
 30
0.0
 40
10.0
 50
67.066778292911366
 51
154.0147343702935
1001
ACDBBLOCKREPETAG
1070
     1
1071
      324
1005
12135F
  0
ARC
  5
121360
  8
OBJECT
 10
7986.1488390381273
 20
-225.55386256729159
 30
0.0
 40
7.0
 50
67.066778292911366
 51
154.0147337749826
1001
ACDBBLOCKREPETAG
1070
     1
1071
      325
1005
121360
  0
LINE
  5
121361
  8
OBJECT
 10
7969.4199755553009
 20
-243.89888500818171
 30
0.0
 11
7979.8564918232369
 21
-222.48688253356801
 31
0.0
1001
ACDBBLOCKREPETAG
1070
     1
1071
      353
1005
121361
  0
LINE
  5
121362
  8
OBJECT
 10
7965.2972169006098
 20
-240.71813901882729
 30
0.0
 11
7973.9071022665084
 21
-223.05373004430751
 31
0.0
1001
ACDBBLOCKREPETAG
1070
     1
1071
      354
1005
121362
  0
ARC
  5
121363
  8
OBJECT
 10
7976.5796953073141
 20
-207.1289369828437
 30
0.0
 40
60.031113246032611
 50
314.07020130418567
 51
322.33936106089681
1001
ACDBBLOCKREPETAG
1070
     1
1071
      355
1005
121363
  0
CIRCLE
  5
121364
  8
OBJECT
 10
8000.0
 20
-199.99999999999909
 30
0.0
 40
53.5
1001
ACDBBLOCKREPETAG
1070
     1
1071
      356
1005
121364
  0
POINT
  5
121365
  8
DOTS
 10
8000.0
 20
-199.99999999999909
 30
0.0
 50
270.0
1001
ACDBBLOCKREPETAG
1070
     1
1071
      365
1005
121365
  0
LINE
  5
121366
  8
OBJECT
 10
8202.9999999999854
 20
-483.0000000000008
 30
0.0
 11
8209.9999999999836
 21
-483.0000000000008
 31
0.0
1001
ACDBBLOCKREPETAG
1070
     1
1071
       83
1005
121366
  0
LINE
  5
121367
  8
OBJECT
 10
8209.9999999999836
 20
-483.0000000000008
 30
0.0
 11
8209.9999999999836
 21
-607.0000000000008
 31
0.0
1001
ACDBBLOCKREPETAG
1070
     1
1071
       84
1005
121367
  0
LINE
  5
121368
  8
OBJECT
 10
8085.9999999999873
 20
-553.3502637757274
 30
0.0
 11
8085.9999999999873
 21
-655.00000000000068
 31
0.0
1001
ACDBBLOCKREPETAG
1070
     1
1071
       85
1005
121368
  0
LINE
  5
121369
  8
OBJECT
 10
8209.9999999999836
 20
-607.0000000000008
 30
0.0
 11
8202.9999999999854
 21
-607.0000000000008
 31
0.0
1001
ACDBBLOCKREPETAG
1070
     1
1071
       86
1005
121369
  0
LINE
  5
12136A
  8
OBJECT
 10
8202.9999999999854
 20
-607.0000000000008
 30
0.0
 11
8202.9999999999854
 21
-483.0000000000008
 31
0.0
1001
ACDBBLOCKREPETAG
1070
     1
1071
       87
1005
12136A
  0
LINE
  5
12136B
  8
CENTER
 10
8134.9999999999873
 20
-545.0000000000008
 30
0.0
 11
8224.9999999999873
 21
-545.0000000000008
 31
0.0
1001
ACDBBLOCKREPETAG
1070
     1
1071
       88
1005
12136B
  0
LINE
  5
12136C
  8
OBJECT
 10
8079.9999999999818
 20
-658.0
 30
0.0
 11
8082.9999999999873
 21
-658.0000000000008
 31
0.0
1001
ACDBBLOCKREPETAG
1070
     1
1071
       89
1005
12136C
  0
ARC
  5
12136D
  8
OBJECT
 10
8082.9999999999873
 20
-655.00000000000068
 30
0.0
 40
3.0
 50
270.0
 51
0.0
1001
ACDBBLOCKREPETAG
1070
     1
1071
       90
1005
12136D
  0
LINE
  5
12136E
  8
OBJECT
 10
8202.9999999999854
 20
-486.0000000000008
 30
0.0
 11
8166.9999999999854
 21
-486.0000000000008
 31
0.0
1001
ACDBBLOCKREPETAG
1070
     1
1071
       91
1005
12136E
  0
LINE
  5
12136F
  8
OBJECT
 10
8166.9999999999854
 20
-486.0000000000008
 30
0.0
 11
8166.9999999999854
 21
-604.0000000000008
 31
0.0
1001
ACDBBLOCKREPETAG
1070
     1
1071
       92
1005
12136F
  0
LINE
  5
121370
  8
OBJECT
 10
8162.9999999999873
 20
-490.5000000000008
 30
0.0
 11
8162.9999999999873
 21
-599.5000000000008
 31
0.0
1001
ACDBBLOCKREPETAG
1070
     1
1071
       93
1005
121370
  0
LINE
  5
121371
  8
OBJECT
 10
8162.9999999999873
 20
-490.5000000000008
 30
0.0
 11
8149.9999999999873
 21
-490.5000000000008
 31
0.0
1001
ACDBBLOCKREPETAG
1070
     1
1071
       94
1005
121371
  0
LINE
  5
121372
  8
OBJECT
 10
8166.9999999999854
 20
-604.0000000000008
 30
0.0
 11
8202.9999999999854
 21
-604.0000000000008
 31
0.0
1001
ACDBBLOCKREPETAG
1070
     1
1071
       95
1005
121372
  0
LINE
  5
121373
  8
OBJECT
 10
8166.9999999999854
 20
-486.0000000000008
 30
0.0
 11
8162.9999999999873
 21
-490.5000000000008
 31
0.0
1001
ACDBBLOCKREPETAG
1070
     1
1071
       96
1005
121373
  0
LINE
  5
121374
  8
OBJECT
 10
8149.9999999999873
 20
-490.5000000000008
 30
0.0
 11
8149.9999999999873
 21
-575.74491827928784
 31
0.0
1001
ACDBBLOCKREPETAG
1070
     1
1071
       97
1005
121374
  0
ARC
  5
121375
  8
OBJECT
 10
8152.7999999999829
 20
-585.00000000000068
 30
0.0
 40
85.0
 50
91.887731891831123
 51
143.1301023540934
1001
ACDBBLOCKREPETAG
1070
     1
1071
       98
1005
121375
  0
LINE
  5
121376
  8
HIDDEN
 10
8157.9999999999873
 20
-500.5000000000008
 30
0.0
 11
8157.9999999999873
 21
-589.5000000000008
 31
0.0
1001
ACDBBLOCKREPETAG
1070
     1
1071
      100
1005
121376
  0
LINE
  5
121377
  8
OBJECT
 10
8085.9999999999873
 20
-651.07945073181781
 30
0.0
 11
8156.6313199210299
 21
-599.5000000000008
 31
0.0
1001
ACDBBLOCKREPETAG
1070
     1
1071
      101
1005
121377
  0
LINE
  5
121378
  8
OBJECT
 10
8079.9999999999818
 20
-534.0
 30
0.0
 11
8084.7999999999847
 21
-534.0
 31
0.0
1001
ACDBBLOCKREPETAG
1070
     1
1071
      102
1005
121378
  0
LINE
  5
121379
  8
OBJECT
 10
8085.9999999999873
 20
-553.35026377573001
 30
0.0
 11
8084.7999999999847
 21
-534.0
 31
0.0
1001
ACDBBLOCKREPETAG
1070
     1
1071
      103
1005
121379
  0
LINE
  5
12137A
  8
OBJECT
 10
8162.9999999999873
 20
-599.5000000000008
 30
0.0
 11
8156.6313199210299
 21
-599.5000000000008
 31
0.0
1001
ACDBBLOCKREPETAG
1070
     1
1071
      104
1005
12137A
  0
LINE
  5
12137B
  8
OBJECT
 10
8166.9999999999854
 20
-604.0000000000008
 30
0.0
 11
8162.9999999999873
 21
-599.5000000000008
 31
0.0
1001
ACDBBLOCKREPETAG
1070
     1
1071
      105
1005
12137B
  0
LINE
  5
12137C
  8
OBJECT
 10
8202.9999999999854
 20
-137.99999999999909
 30
0.0
 11
8209.9999999999836
 21
-137.99999999999909
 31
0.0
1001
ACDBBLOCKREPETAG
1070
     1
1071
       85
1005
12137C
  0
LINE
  5
12137D
  8
OBJECT
 10
8209.9999999999836
 20
-137.99999999999909
 30
0.0
 11
8209.9999999999836
 21
-261.99999999999909
 31
0.0
1001
ACDBBLOCKREPETAG
1070
     1
1071
       86
1005
12137D
  0
LINE
  5
12137E
  8
OBJECT
 10
8209.9999999999836
 20
-261.99999999999909
 30
0.0
 11
8202.9999999999854
 21
-261.99999999999909
 31
0.0
1001
ACDBBLOCKREPETAG
1070
     1
1071
       87
1005
12137E
  0
LINE
  5
12137F
  8
OBJECT
 10
8202.9999999999854
 20
-261.99999999999909
 30
0.0
 11
8202.9999999999854
 21
-137.99999999999909
 31
0.0
1001
ACDBBLOCKREPETAG
1070
     1
1071
       88
1005
12137F
  0
LINE
  5
121380
  8
CENTER
 10
8224.9999999999873
 20
-199.99999999999909
 30
0.0
 11
8080.0
 21
-199.99999999999909
 31
0.0
1001
ACDBBLOCKREPETAG
1070
     1
1071
       89
1005
121380
  0
LINE
  5
121381
  8
OBJECT
 10
8149.9999749641856
 20
-245.0000000000027
 30
0.0
 11
8086.0
 21
-244.99999999999909
 31
0.0
1001
ACDBBLOCKREPETAG
1070
     1
1071
       90
1005
121381
  0
LINE
  5
121382
  8
OBJECT
 10
8149.9999749641856
 20
-154.99999999999909
 30
0.0
 11
8086.0
 21
-154.99999999999909
 31
0.0
1001
ACDBBLOCKREPETAG
1070
     1
1071
       91
1005
121382
  0
LINE
  5
121383
  8
OBJECT
 10
8202.9999999999854
 20
-140.99999999999909
 30
0.0
 11
8166.9999999999854
 21
-140.99999999999909
 31
0.0
1001
ACDBBLOCKREPETAG
1070
     1
1071
       92
1005
121383
  0
LINE
  5
121384
  8
OBJECT
 10
8166.9999999999854
 20
-140.99999999999909
 30
0.0
 11
8166.9999999999854
 21
-258.99999999999909
 31
0.0
1001
ACDBBLOCKREPETAG
1070
     1
1071
       93
1005
121384
  0
LINE
  5
121385
  8
OBJECT
 10
8166.9999999999854
 20
-258.99999999999909
 30
0.0
 11
8202.9999999999854
 21
-258.99999999999909
 31
0.0
1001
ACDBBLOCKREPETAG
1070
     1
1071
       94
1005
121385
  0
LINE
  5
121386
  8
OBJECT
 10
8162.9999999999873
 20
-145.49999999999909
 30
0.0
 11
8149.9999999999873
 21
-145.49999999999909
 31
0.0
1001
ACDBBLOCKREPETAG
1070
     1
1071
       95
1005
121386
  0
LINE
  5
121387
  8
OBJECT
 10
8149.9999999999873
 20
-254.49999999999909
 30
0.0
 11
8162.9999999999873
 21
-254.49999999999909
 31
0.0
1001
ACDBBLOCKREPETAG
1070
     1
1071
       96
1005
121387
  0
LINE
  5
121388
  8
OBJECT
 10
8162.9999999999873
 20
-254.49999999999909
 30
0.0
 11
8162.9999999999873
 21
-145.49999999999909
 31
0.0
1001
ACDBBLOCKREPETAG
1070
     1
1071
       97
1005
121388
  0
LINE
  5
121389
  8
OBJECT
 10
8166.9999999999854
 20
-140.99999999999909
 30
0.0
 11
8162.9999999999873
 21
-145.49999999999909
 31
0.0
1001
ACDBBLOCKREPETAG
1070
     1
1071
       98
1005
121389
  0
LINE
  5
12138A
  8
OBJECT
 10
8166.9999999999854
 20
-258.99999999999909
 30
0.0
 11
8162.9999999999873
 21
-254.49999999999909
 31
0.0
1001
ACDBBLOCKREPETAG
1070
     1
1071
       99
1005
12138A
  0
LINE
  5
12138B
  8
OBJECT
 10
8083.0
 20
-137.99999999999909
 30
0.0
 11
8080.0
 21
-137.99999999999909
 31
0.0
1001
ACDBBLOCKREPETAG
1070
     1
1071
      100
1005
12138B
  0
ARC
  5
12138C
  8
OBJECT
 10
8083.0
 20
-140.99999999999909
 30
0.0
 40
3.0
 50
0.0
 51
90.0
1001
ACDBBLOCKREPETAG
1070
     1
1071
      101
1005
12138C
  0
LINE
  5
12138D
  8
OBJECT
 10
8080.0
 20
-261.99999999999909
 30
0.0
 11
8083.0
 21
-261.99999999999909
 31
0.0
1001
ACDBBLOCKREPETAG
1070
     1
1071
      102
1005
12138D
  0
ARC
  5
12138E
  8
OBJECT
 10
8083.0
 20
-258.99999999999909
 30
0.0
 40
3.0
 50
270.0
 51
0.0
1001
ACDBBLOCKREPETAG
1070
     1
1071
      103
1005
12138E
  0
LINE
  5
12138F
  8
OBJECT
 10
8086.0
 20
-258.99999999999909
 30
0.0
 11
8086.0
 21
-210.3227903203578
 31
0.0
1001
ACDBBLOCKREPETAG
1070
     1
1071
      104
1005
12138F
  0
LINE
  5
121390
  8
OBJECT
 10
8086.0
 20
-189.6772096796403
 30
0.0
 11
8086.0
 21
-140.99999999999909
 31
0.0
1001
ACDBBLOCKREPETAG
1070
     1
1071
      105
1005
121390
  0
LINE
  5
121391
  8
HIDDEN
 10
8157.9999999999873
 20
-155.49999999999909
 30
0.0
 11
8157.9999999999873
 21
-244.49999999999909
 31
0.0
1001
ACDBBLOCKREPETAG
1070
     1
1071
      106
1005
121391
  0
LINE
  5
121392
  8
OBJECT
 10
8149.9999749641856
 20
-254.4999509238105
 30
0.0
 11
8149.9999749641856
 21
-145.4999509238105
 31
0.0
1001
ACDBBLOCKREPETAG
1070
     1
1071
      108
1005
121392
  0
ARC
  5
121393
  8
OBJECT
 10
8129.800000000022
 20
-199.99999999999909
 30
0.0
 40
45.000000000000547
 50
90.0
 51
270.0
1001
ACDBBLOCKREPETAG
1070
     1
1071
      109
1005
121393
  0
LINE
  5
121394
  8
OBJECT
 10
5923.0
 20
-470.99999999999937
 30
0.0
 11
5923.0
 21
-449.99999999999937
 31
0.0
1001
ACDBBLOCKREPETAG
1070
     1
1071
        0
1005
121394
  0
LINE
  5
121395
  8
OBJECT
 10
5923.0
 20
-449.99999999999937
 30
0.0
 11
6077.0
 21
-449.99999999999937
 31
0.0
1001
ACDBBLOCKREPETAG
1070
     1
1071
        1
1005
121395
  0
LINE
  5
121396
  8
HIDDEN
 10
5943.0
 20
-519.99999999999955
 30
0.0
 11
6057.0
 21
-519.99999999999955
 31
0.0
1001
ACDBBLOCKREPETAG
1070
     1
1071
        2
1005
121396
  0
LINE
  5
121397
  8
OBJECT
 10
6077.0
 20
-449.99999999999937
 30
0.0
 11
6077.0
 21
-470.99999999999937
 31
0.0
1001
ACDBBLOCKREPETAG
1070
     1
1071
        3
1005
121397
  0
LINE
  5
121398
  8
OBJECT
 10
6077.0
 20
-470.99999999999937
 30
0.0
 11
5923.0
 21
-470.99999999999937
 31
0.0
1001
ACDBBLOCKREPETAG
1070
     1
1071
        4
1005
121398
  0
LINE
  5
121399
  8
CENTER
 10
6000.0
 20
-434.99999999999949
 30
0.0
 11
6000.0
 21
-789.99999999999955
 31
0.0
1001
ACDBBLOCKREPETAG
1070
     1
1071
        5
1005
121399
  0
LINE
  5
12139A
  8
OBJECT
 10
5925.0
 20
-533.99999999999955
 30
0.0
 11
5925.0
 21
-777.99999999999955
 31
0.0
1001
ACDBBLOCKREPETAG
1070
     1
1071
        6
1005
12139A
  0
LINE
  5
12139B
  8
OBJECT
 10
5928.0
 20
-470.99999999999937
 30
0.0
 11
5928.0
 21
-533.99999999999955
 31
0.0
1001
ACDBBLOCKREPETAG
1070
     1
1071
        7
1005
12139B
  0
LINE
  5
12139C
  8
OBJECT
 10
6072.0
 20
-533.99999999999955
 30
0.0
 11
6072.0
 21
-470.99999999999937
 31
0.0
1001
ACDBBLOCKREPETAG
1070
     1
1071
        8
1005
12139C
  0
LINE
  5
12139D
  8
OBJECT
 10
5920.0
 20
-777.99999999999955
 30
0.0
 11
6080.0
 21
-777.99999999999955
 31
0.0
1001
ACDBBLOCKREPETAG
1070
     1
1071
        9
1005
12139D
  0
LINE
  5
12139E
  8
OBJECT
 10
6080.0
 20
-533.99999999999955
 30
0.0
 11
5925.0
 21
-533.99999999999955
 31
0.0
1001
ACDBBLOCKREPETAG
1070
     1
1071
       10
1005
12139E
  0
LINE
  5
12139F
  8
OBJECT
 10
5920.0
 20
-777.99999999999955
 30
0.0
 11
5920.0
 21
-789.99999999999955
 31
0.0
1001
ACDBBLOCKREPETAG
1070
     1
1071
       11
1005
12139F
  0
LINE
  5
1213A0
  8
OBJECT
 10
5920.0
 20
-789.99999999999955
 30
0.0
 11
6080.0
 21
-789.99999999999955
 31
0.0
1001
ACDBBLOCKREPETAG
1070
     1
1071
       12
1005
1213A0
  0
LINE
  5
1213A1
  8
OBJECT
 10
6080.0
 20
-789.99999999999955
 30
0.0
 11
6080.0
 21
-777.99999999999955
 31
0.0
1001
ACDBBLOCKREPETAG
1070
     1
1071
       13
1005
1213A1
  0
LINE
  5
1213A2
  8
OBJECT
 10
6074.9999999998618
 20
-657.99999999985039
 30
0.0
 11
6075.0
 21
-777.99999999999955
 31
0.0
1001
ACDBBLOCKREPETAG
1070
     1
1071
       15
1005
1213A2
  0
LINE
  5
1213A3
  8
OBJECT
 10
6074.9999908029858
 20
-657.99998602702135
 30
0.0
 11
6080.0
 21
-657.99998602702135
 31
0.0
1001
ACDBBLOCKREPETAG
1070
     1
1071
       16
1005
1213A3
  0
ARC
  5
1213A4
  8
OBJECT
 10
6200.6872746716735
 20
-649.40809941010718
 30
0.0
 40
170.6350503965856
 50
137.44134459184301
 51
149.91949581337221
1001
ACDBBLOCKREPETAG
1070
     1
1071
       17
1005
1213A4
  0
ARC
  5
1213A5
  8
OBJECT
 10
6118.8455987040506
 20
-605.88272669536445
 30
0.0
 40
78.072222021763665
 50
147.4551531038623
 51
164.66365997718671
1001
ACDBBLOCKREPETAG
1070
     1
1071
       18
1005
1213A5
  0
ARC
  5
1213A6
  8
OBJECT
 10
6085.7554349608727
 20
-595.99999999999955
 30
0.0
 40
43.55353926885617
 50
165.688452300753
 51
194.3115476992468
1001
ACDBBLOCKREPETAG
1070
     1
1071
       19
1005
1213A6
  0
ARC
  5
1213A7
  8
OBJECT
 10
6200.6872746716735
 20
-542.59190058989179
 30
0.0
 40
170.6350503965856
 50
210.08050418662771
 51
222.55865540815699
1001
ACDBBLOCKREPETAG
1070
     1
1071
       20
1005
1213A7
  0
ARC
  5
1213A8
  8
OBJECT
 10
6118.8455987040506
 20
-586.11727330463452
 30
0.0
 40
78.072222021763665
 50
195.3363400228132
 51
212.5448468961377
1001
ACDBBLOCKREPETAG
1070
     1
1071
       21
1005
1213A8
  0
POINT
  5
1213A9
  8
DOTS
 10
6000.0
 20
-654.99999999999966
 30
0.0
1001
ACDBBLOCKREPETAG
1070
     1
1071
      187
1005
1213A9
  0
LINE
  5
1213AA
  8
OBJECT
 10
6024.1029330933034
 20
-243.80694712371681
 30
0.0
 11
6020.6596569999956
 21
-232.55462199999889
 31
0.0
1001
ACDBBLOCKREPETAG
1070
     1
1071
      300
1005
1213AA
  0
LINE
  5
1213AB
  8
OBJECT
 10
5986.7927499013749
 20
-218.22553374208019
 30
0.0
 11
6020.6596569999956
 21
-232.5546219999969
 31
0.0
1001
ACDBBLOCKREPETAG
1070
     1
1071
      302
1005
1213AB
  0
ARC
  5
1213AC
  8
OBJECT
 10
5982.8961697618997
 20
-227.4351299990567
 30
0.0
 40
10.0
 50
67.066778292911366
 51
154.0147343702935
1001
ACDBBLOCKREPETAG
1070
     1
1071
      303
1005
1213AC
  0
ARC
  5
1213AD
  8
OBJECT
 10
5986.1488390381273
 20
-225.55386256729159
 30
0.0
 40
7.0
 50
67.066778292911366
 51
154.0147337749826
1001
ACDBBLOCKREPETAG
1070
     1
1071
      304
1005
1213AD
  0
LINE
  5
1213AE
  8
OBJECT
 10
5969.4199755553018
 20
-243.89888500818171
 30
0.0
 11
5979.8564918232369
 21
-222.48688253356801
 31
0.0
1001
ACDBBLOCKREPETAG
1070
     1
1071
      341
1005
1213AE
  0
LINE
  5
1213AF
  8
OBJECT
 10
5965.2972169006089
 20
-240.71813901882729
 30
0.0
 11
5973.9071022665084
 21
-223.05373004430751
 31
0.0
1001
ACDBBLOCKREPETAG
1070
     1
1071
      342
1005
1213AF
  0
ARC
  5
1213B0
  8
OBJECT
 10
5976.5796953073141
 20
-207.1289369828437
 30
0.0
 40
60.031113246032611
 50
314.07020130418567
 51
322.33936106089681
1001
ACDBBLOCKREPETAG
1070
     1
1071
      343
1005
1213B0
  0
CIRCLE
  5
1213B1
  8
OBJECT
 10
6000.0
 20
-199.99999999999909
 30
0.0
 40
53.5
1001
ACDBBLOCKREPETAG
1070
     1
1071
      344
1005
1213B1
  0
POINT
  5
1213B2
  8
DOTS
 10
6000.0
 20
-199.99999999999909
 30
0.0
 50
270.0
1001
ACDBBLOCKREPETAG
1070
     1
1071
      362
1005
1213B2
  0
ARC
  5
1213B3
  8
OBJECT
 10
6000.0
 20
-199.99999999999909
 30
0.0
 40
50.0
 50
298.81994300000417
 51
228.52376955965491
1001
ACDBBLOCKREPETAG
1070
     1
1071
        7
1005
1213B3
  0
LINE
  5
1213B4
  8
CENTER
 10
6080.0
 20
-199.99999999999909
 30
0.0
 11
5905.0
 21
-199.99999999999909
 31
0.0
1001
ACDBBLOCKREPETAG
1070
     1
1071
       14
1005
1213B4
  0
LINE
  5
1213B5
  8
CENTER
 10
6000.0
 20
-294.99999999999898
 30
0.0
 11
6000.0
 21
-104.9999999999991
 31
0.0
1001
ACDBBLOCKREPETAG
1070
     1
1071
       15
1005
1213B5
  0
CIRCLE
  5
1213B6
  8
OBJECT
 10
6000.0
 20
-199.99999999999909
 30
0.0
 40
70.0
1001
ACDBBLOCKREPETAG
1070
     1
1071
       16
1005
1213B6
  0
CIRCLE
  5
1213B7
  8
OBJECT
 10
6000.0
 20
-199.99999999999909
 30
0.0
 40
77.0
1001
ACDBBLOCKREPETAG
1070
     1
1071
       17
1005
1213B7
  0
ARC
  5
1213B8
  8
OBJECT
 10
6000.0
 20
-199.99999999999909
 30
0.0
 40
80.0
 50
50.80503257388439
 51
309.19496742611562
1001
ACDBBLOCKREPETAG
1070
     1
1071
       18
1005
1213B8
  0
LINE
  5
1213B9
  8
OBJECT
 10
6045.6618002273253
 20
-137.99999999999909
 30
0.0
 11
6080.0
 21
-137.99999999999909
 31
0.0
1001
ACDBBLOCKREPETAG
1070
     1
1071
       19
1005
1213B9
  0
LINE
  5
1213BA
  8
OBJECT
 10
6045.6618002273253
 20
-261.99999999999909
 30
0.0
 11
6080.0
 21
-261.99999999999909
 31
0.0
1001
ACDBBLOCKREPETAG
1070
     1
1071
       20
1005
1213BA
  0
LINE
  5
1213BB
  8
OBJECT
 10
6202.9999999999864
 20
-483.0000000000008
 30
0.0
 11
6209.9999999999864
 21
-483.0000000000008
 31
0.0
1001
ACDBBLOCKREPETAG
1070
     1
1071
       83
1005
1213BB
  0
LINE
  5
1213BC
  8
OBJECT
 10
6209.9999999999864
 20
-483.0000000000008
 30
0.0
 11
6209.9999999999864
 21
-607.0000000000008
 31
0.0
1001
ACDBBLOCKREPETAG
1070
     1
1071
       84
1005
1213BC
  0
LINE
  5
1213BD
  8
OBJECT
 10
6085.9999999999864
 20
-553.3502637757274
 30
0.0
 11
6085.9999999999864
 21
-655.00000000000068
 31
0.0
1001
ACDBBLOCKREPETAG
1070
     1
1071
       85
1005
1213BD
  0
LINE
  5
1213BE
  8
OBJECT
 10
6209.9999999999864
 20
-607.0000000000008
 30
0.0
 11
6202.9999999999864
 21
-607.0000000000008
 31
0.0
1001
ACDBBLOCKREPETAG
1070
     1
1071
       86
1005
1213BE
  0
LINE
  5
1213BF
  8
OBJECT
 10
6202.9999999999864
 20
-607.0000000000008
 30
0.0
 11
6202.9999999999864
 21
-483.0000000000008
 31
0.0
1001
ACDBBLOCKREPETAG
1070
     1
1071
       87
1005
1213BF
  0
LINE
  5
1213C0
  8
CENTER
 10
6134.9999999999873
 20
-545.0000000000008
 30
0.0
 11
6224.9999999999873
 21
-545.0000000000008
 31
0.0
1001
ACDBBLOCKREPETAG
1070
     1
1071
       88
1005
1213C0
  0
LINE
  5
1213C1
  8
OBJECT
 10
6079.9999999999818
 20
-658.0
 30
0.0
 11
6082.9999999999864
 21
-658.0000000000008
 31
0.0
1001
ACDBBLOCKREPETAG
1070
     1
1071
       89
1005
1213C1
  0
ARC
  5
1213C2
  8
OBJECT
 10
6082.9999999999864
 20
-655.00000000000068
 30
0.0
 40
3.0
 50
270.0
 51
0.0
1001
ACDBBLOCKREPETAG
1070
     1
1071
       90
1005
1213C2
  0
LINE
  5
1213C3
  8
OBJECT
 10
6202.9999999999864
 20
-486.0000000000008
 30
0.0
 11
6166.9999999999873
 21
-486.0000000000008
 31
0.0
1001
ACDBBLOCKREPETAG
1070
     1
1071
       91
1005
1213C3
  0
LINE
  5
1213C4
  8
OBJECT
 10
6166.9999999999873
 20
-486.0000000000008
 30
0.0
 11
6166.9999999999873
 21
-604.0000000000008
 31
0.0
1001
ACDBBLOCKREPETAG
1070
     1
1071
       92
1005
1213C4
  0
LINE
  5
1213C5
  8
OBJECT
 10
6162.9999999999864
 20
-490.5000000000008
 30
0.0
 11
6162.9999999999864
 21
-599.5000000000008
 31
0.0
1001
ACDBBLOCKREPETAG
1070
     1
1071
       93
1005
1213C5
  0
LINE
  5
1213C6
  8
OBJECT
 10
6162.9999999999864
 20
-490.5000000000008
 30
0.0
 11
6149.9999999999873
 21
-490.5000000000008
 31
0.0
1001
ACDBBLOCKREPETAG
1070
     1
1071
       94
1005
1213C6
  0
LINE
  5
1213C7
  8
OBJECT
 10
6166.9999999999873
 20
-604.0000000000008
 30
0.0
 11
6202.9999999999864
 21
-604.0000000000008
 31
0.0
1001
ACDBBLOCKREPETAG
1070
     1
1071
       95
1005
1213C7
  0
LINE
  5
1213C8
  8
OBJECT
 10
6166.9999999999873
 20
-486.0000000000008
 30
0.0
 11
6162.9999999999864
 21
-490.5000000000008
 31
0.0
1001
ACDBBLOCKREPETAG
1070
     1
1071
       96
1005
1213C8
  0
LINE
  5
1213C9
  8
OBJECT
 10
6149.9999999999873
 20
-490.5000000000008
 30
0.0
 11
6149.9999999999873
 21
-575.74491827928784
 31
0.0
1001
ACDBBLOCKREPETAG
1070
     1
1071
       97
1005
1213C9
  0
ARC
  5
1213CA
  8
OBJECT
 10
6152.7999999999838
 20
-585.00000000000068
 30
0.0
 40
85.0
 50
91.887731891831123
 51
143.1301023540934
1001
ACDBBLOCKREPETAG
1070
     1
1071
       98
1005
1213CA
  0
LINE
  5
1213CB
  8
HIDDEN
 10
6157.9999999999873
 20
-500.5000000000008
 30
0.0
 11
6157.9999999999873
 21
-589.5000000000008
 31
0.0
1001
ACDBBLOCKREPETAG
1070
     1
1071
      100
1005
1213CB
  0
LINE
  5
1213CC
  8
OBJECT
 10
6085.9999999999864
 20
-651.07945073181781
 30
0.0
 11
6156.6313199210299
 21
-599.5000000000008
 31
0.0
1001
ACDBBLOCKREPETAG
1070
     1
1071
      101
1005
1213CC
  0
LINE
  5
1213CD
  8
OBJECT
 10
6079.9999999999818
 20
-534.0
 30
0.0
 11
6084.7999999999856
 21
-534.0
 31
0.0
1001
ACDBBLOCKREPETAG
1070
     1
1071
      102
1005
1213CD
  0
LINE
  5
1213CE
  8
OBJECT
 10
6085.9999999999864
 20
-553.35026377573001
 30
0.0
 11
6084.7999999999856
 21
-534.0
 31
0.0
1001
ACDBBLOCKREPETAG
1070
     1
1071
      103
1005
1213CE
  0
LINE
  5
1213CF
  8
OBJECT
 10
6162.9999999999864
 20
-599.5000000000008
 30
0.0
 11
6156.6313199210299
 21
-599.5000000000008
 31
0.0
1001
ACDBBLOCKREPETAG
1070
     1
1071
      104
1005
1213CF
  0
LINE
  5
1213D0
  8
OBJECT
 10
6166.9999999999873
 20
-604.0000000000008
 30
0.0
 11
6162.9999999999864
 21
-599.5000000000008
 31
0.0
1001
ACDBBLOCKREPETAG
1070
     1
1071
      105
1005
1213D0
  0
LINE
  5
1213D1
  8
OBJECT
 10
6202.9999999999864
 20
-137.99999999999909
 30
0.0
 11
6209.9999999999864
 21
-137.99999999999909
 31
0.0
1001
ACDBBLOCKREPETAG
1070
     1
1071
       85
1005
1213D1
  0
LINE
  5
1213D2
  8
OBJECT
 10
6209.9999999999864
 20
-137.99999999999909
 30
0.0
 11
6209.9999999999864
 21
-261.99999999999909
 31
0.0
1001
ACDBBLOCKREPETAG
1070
     1
1071
       86
1005
1213D2
  0
LINE
  5
1213D3
  8
OBJECT
 10
6209.9999999999864
 20
-261.99999999999909
 30
0.0
 11
6202.9999999999864
 21
-261.99999999999909
 31
0.0
1001
ACDBBLOCKREPETAG
1070
     1
1071
       87
1005
1213D3
  0
LINE
  5
1213D4
  8
OBJECT
 10
6202.9999999999864
 20
-261.99999999999909
 30
0.0
 11
6202.9999999999864
 21
-137.99999999999909
 31
0.0
1001
ACDBBLOCKREPETAG
1070
     1
1071
       88
1005
1213D4
  0
LINE
  5
1213D5
  8
CENTER
 10
6224.9999999999873
 20
-199.99999999999909
 30
0.0
 11
6080.0
 21
-199.99999999999909
 31
0.0
1001
ACDBBLOCKREPETAG
1070
     1
1071
       89
1005
1213D5
  0
LINE
  5
1213D6
  8
OBJECT
 10
6149.9999749641856
 20
-245.0000000000027
 30
0.0
 11
6086.0
 21
-244.99999999999909
 31
0.0
1001
ACDBBLOCKREPETAG
1070
     1
1071
       90
1005
1213D6
  0
LINE
  5
1213D7
  8
OBJECT
 10
6149.9999749641856
 20
-154.99999999999909
 30
0.0
 11
6086.0
 21
-154.99999999999909
 31
0.0
1001
ACDBBLOCKREPETAG
1070
     1
1071
       91
1005
1213D7
  0
LINE
  5
1213D8
  8
OBJECT
 10
6202.9999999999864
 20
-140.99999999999909
 30
0.0
 11
6166.9999999999873
 21
-140.99999999999909
 31
0.0
1001
ACDBBLOCKREPETAG
1070
     1
1071
       92
1005
1213D8
  0
LINE
  5
1213D9
  8
OBJECT
 10
6166.9999999999873
 20
-140.99999999999909
 30
0.0
 11
6166.9999999999873
 21
-258.99999999999909
 31
0.0
1001
ACDBBLOCKREPETAG
1070
     1
1071
       93
1005
1213D9
  0
LINE
  5
1213DA
  8
OBJECT
 10
6166.9999999999873
 20
-258.99999999999909
 30
0.0
 11
6202.9999999999864
 21
-258.99999999999909
 31
0.0
1001
ACDBBLOCKREPETAG
1070
     1
1071
       94
1005
1213DA
  0
LINE
  5
1213DB
  8
OBJECT
 10
6162.9999999999864
 20
-145.49999999999909
 30
0.0
 11
6149.9999999999873
 21
-145.49999999999909
 31
0.0
1001
ACDBBLOCKREPETAG
1070
     1
1071
       95
1005
1213DB
  0
LINE
  5
1213DC
  8
OBJECT
 10
6149.9999999999873
 20
-254.49999999999909
 30
0.0
 11
6162.9999999999864
 21
-254.49999999999909
 31
0.0
1001
ACDBBLOCKREPETAG
1070
     1
1071
       96
1005
1213DC
  0
LINE
  5
1213DD
  8
OBJECT
 10
6162.9999999999864
 20
-254.49999999999909
 30
0.0
 11
6162.9999999999864
 21
-145.49999999999909
 31
0.0
1001
ACDBBLOCKREPETAG
1070
     1
1071
       97
1005
1213DD
  0
LINE
  5
1213DE
  8
OBJECT
 10
6166.9999999999873
 20
-140.99999999999909
 30
0.0
 11
6162.9999999999864
 21
-145.49999999999909
 31
0.0
1001
ACDBBLOCKREPETAG
1070
     1
1071
       98
1005
1213DE
  0
LINE
  5
1213DF
  8
OBJECT
 10
6166.9999999999873
 20
-258.99999999999909
 30
0.0
 11
6162.9999999999864
 21
-254.49999999999909
 31
0.0
1001
ACDBBLOCKREPETAG
1070
     1
1071
       99
1005
1213DF
  0
LINE
  5
1213E0
  8
OBJECT
 10
6083.0
 20
-137.99999999999909
 30
0.0
 11
6080.0
 21
-137.99999999999909
 31
0.0
1001
ACDBBLOCKREPETAG
1070
     1
1071
      100
1005
1213E0
  0
ARC
  5
1213E1
  8
OBJECT
 10
6083.0
 20
-140.99999999999909
 30
0.0
 40
3.0
 50
0.0
 51
90.0
1001
ACDBBLOCKREPETAG
1070
     1
1071
      101
1005
1213E1
  0
LINE
  5
1213E2
  8
OBJECT
 10
6080.0
 20
-261.99999999999909
 30
0.0
 11
6083.0
 21
-261.99999999999909
 31
0.0
1001
ACDBBLOCKREPETAG
1070
     1
1071
      102
1005
1213E2
  0
ARC
  5
1213E3
  8
OBJECT
 10
6083.0
 20
-258.99999999999909
 30
0.0
 40
3.0
 50
270.0
 51
0.0
1001
ACDBBLOCKREPETAG
1070
     1
1071
      103
1005
1213E3
  0
LINE
  5
1213E4
  8
OBJECT
 10
6086.0
 20
-258.99999999999909
 30
0.0
 11
6086.0
 21
-210.3227903203578
 31
0.0
1001
ACDBBLOCKREPETAG
1070
     1
1071
      104
1005
1213E4
  0
LINE
  5
1213E5
  8
OBJECT
 10
6086.0
 20
-189.6772096796403
 30
0.0
 11
6086.0
 21
-140.99999999999909
 31
0.0
1001
ACDBBLOCKREPETAG
1070
     1
1071
      105
1005
1213E5
  0
LINE
  5
1213E6
  8
HIDDEN
 10
6157.9999999999873
 20
-155.49999999999909
 30
0.0
 11
6157.9999999999873
 21
-244.49999999999909
 31
0.0
1001
ACDBBLOCKREPETAG
1070
     1
1071
      106
1005
1213E6
  0
LINE
  5
1213E7
  8
OBJECT
 10
6149.9999749641856
 20
-254.4999509238105
 30
0.0
 11
6149.9999749641856
 21
-145.4999509238105
 31
0.0
1001
ACDBBLOCKREPETAG
1070
     1
1071
      108
1005
1213E7
  0
ARC
  5
1213E8
  8
OBJECT
 10
6129.8000000000247
 20
-199.99999999999909
 30
0.0
 40
45.000000000000547
 50
90.0
 51
270.0
1001
ACDBBLOCKREPETAG
1070
     1
1071
      109
1005
1213E8
  0
LINE
  5
1213E9
  8
OBJECT
 10
3923.0
 20
-470.99999999999937
 30
0.0
 11
3923.0
 21
-449.99999999999937
 31
0.0
1001
ACDBBLOCKREPETAG
1070
     1
1071
        0
1005
1213E9
  0
LINE
  5
1213EA
  8
OBJECT
 10
3923.0
 20
-449.99999999999937
 30
0.0
 11
4077.0
 21
-449.99999999999937
 31
0.0
1001
ACDBBLOCKREPETAG
1070
     1
1071
        1
1005
1213EA
  0
LINE
  5
1213EB
  8
HIDDEN
 10
3943.0
 20
-519.99999999999955
 30
0.0
 11
4057.0
 21
-519.99999999999955
 31
0.0
1001
ACDBBLOCKREPETAG
1070
     1
1071
        2
1005
1213EB
  0
LINE
  5
1213EC
  8
OBJECT
 10
4077.0
 20
-449.99999999999937
 30
0.0
 11
4077.0
 21
-470.99999999999937
 31
0.0
1001
ACDBBLOCKREPETAG
1070
     1
1071
        3
1005
1213EC
  0
LINE
  5
1213ED
  8
OBJECT
 10
4077.0
 20
-470.99999999999937
 30
0.0
 11
3923.0
 21
-470.99999999999937
 31
0.0
1001
ACDBBLOCKREPETAG
1070
     1
1071
        4
1005
1213ED
  0
LINE
  5
1213EE
  8
CENTER
 10
4000.0
 20
-434.99999999999949
 30
0.0
 11
4000.0
 21
-789.99999999999955
 31
0.0
1001
ACDBBLOCKREPETAG
1070
     1
1071
        5
1005
1213EE
  0
LINE
  5
1213EF
  8
OBJECT
 10
3925.0
 20
-533.99999999999955
 30
0.0
 11
3925.0
 21
-777.99999999999955
 31
0.0
1001
ACDBBLOCKREPETAG
1070
     1
1071
        6
1005
1213EF
  0
LINE
  5
1213F0
  8
OBJECT
 10
3928.0
 20
-470.99999999999937
 30
0.0
 11
3928.0
 21
-533.99999999999955
 31
0.0
1001
ACDBBLOCKREPETAG
1070
     1
1071
        7
1005
1213F0
  0
LINE
  5
1213F1
  8
OBJECT
 10
4072.0
 20
-533.99999999999955
 30
0.0
 11
4072.0
 21
-470.99999999999937
 31
0.0
1001
ACDBBLOCKREPETAG
1070
     1
1071
        8
1005
1213F1
  0
LINE
  5
1213F2
  8
OBJECT
 10
3920.0
 20
-777.99999999999955
 30
0.0
 11
4080.0
 21
-777.99999999999955
 31
0.0
1001
ACDBBLOCKREPETAG
1070
     1
1071
        9
1005
1213F2
  0
LINE
  5
1213F3
  8
OBJECT
 10
4080.0
 20
-533.99999999999955
 30
0.0
 11
3925.0
 21
-533.99999999999955
 31
0.0
1001
ACDBBLOCKREPETAG
1070
     1
1071
       10
1005
1213F3
  0
LINE
  5
1213F4
  8
OBJECT
 10
3920.0
 20
-777.99999999999955
 30
0.0
 11
3920.0
 21
-789.99999999999955
 31
0.0
1001
ACDBBLOCKREPETAG
1070
     1
1071
       11
1005
1213F4
  0
LINE
  5
1213F5
  8
OBJECT
 10
3920.0
 20
-789.99999999999955
 30
0.0
 11
4080.0
 21
-789.99999999999955
 31
0.0
1001
ACDBBLOCKREPETAG
1070
     1
1071
       12
1005
1213F5
  0
LINE
  5
1213F6
  8
OBJECT
 10
4080.0
 20
-789.99999999999955
 30
0.0
 11
4080.0
 21
-777.99999999999955
 31
0.0
1001
ACDBBLOCKREPETAG
1070
     1
1071
       13
1005
1213F6
  0
LINE
  5
1213F7
  8
OBJECT
 10
4074.9999999998631
 20
-657.99999999985039
 30
0.0
 11
4075.0
 21
-777.99999999999955
 31
0.0
1001
ACDBBLOCKREPETAG
1070
     1
1071
       15
1005
1213F7
  0
LINE
  5
1213F8
  8
OBJECT
 10
4074.9999908029849
 20
-657.99998602702135
 30
0.0
 11
4080.0
 21
-657.99998602702135
 31
0.0
1001
ACDBBLOCKREPETAG
1070
     1
1071
       16
1005
1213F8
  0
ARC
  5
1213F9
  8
OBJECT
 10
4200.6872746716726
 20
-649.40809941010718
 30
0.0
 40
170.6350503965856
 50
137.44134459184301
 51
149.91949581337221
1001
ACDBBLOCKREPETAG
1070
     1
1071
       17
1005
1213F9
  0
ARC
  5
1213FA
  8
OBJECT
 10
4118.8455987040506
 20
-605.88272669536445
 30
0.0
 40
78.072222021763665
 50
147.4551531038623
 51
164.6636599771798
1001
ACDBBLOCKREPETAG
1070
     1
1071
       18
1005
1213FA
  0
ARC
  5
1213FB
  8
OBJECT
 10
4085.7554349608722
 20
-595.99999999999955
 30
0.0
 40
43.55353926885617
 50
165.6884523007466
 51
194.3115476992534
1001
ACDBBLOCKREPETAG
1070
     1
1071
       19
1005
1213FB
  0
ARC
  5
1213FC
  8
OBJECT
 10
4200.6872746716726
 20
-542.59190058989179
 30
0.0
 40
170.6350503965856
 50
210.08050418662771
 51
222.55865540815699
1001
ACDBBLOCKREPETAG
1070
     1
1071
       20
1005
1213FC
  0
ARC
  5
1213FD
  8
OBJECT
 10
4118.8455987040506
 20
-586.11727330463452
 30
0.0
 40
78.072222021763665
 50
195.3363400228202
 51
212.5448468961377
1001
ACDBBLOCKREPETAG
1070
     1
1071
       21
1005
1213FD
  0
POINT
  5
1213FE
  8
DOTS
 10
4000.0
 20
-654.99999999999966
 30
0.0
1001
ACDBBLOCKREPETAG
1070
     1
1071
      187
1005
1213FE
  0
LINE
  5
1213FF
  8
OBJECT
 10
4024.102933093302
 20
-243.80694712371681
 30
0.0
 11
4020.6596569999951
 21
-232.55462199999889
 31
0.0
1001
ACDBBLOCKREPETAG
1070
     1
1071
      300
1005
1213FF
  0
LINE
  5
121400
  8
OBJECT
 10
3986.7927499013749
 20
-218.22553374208019
 30
0.0
 11
4020.6596569999951
 21
-232.5546219999969
 31
0.0
1001
ACDBBLOCKREPETAG
1070
     1
1071
      302
1005
121400
  0
ARC
  5
121401
  8
OBJECT
 10
3982.896169761902
 20
-227.4351299990567
 30
0.0
 40
10.0
 50
67.066778292911366
 51
154.0147343702935
1001
ACDBBLOCKREPETAG
1070
     1
1071
      303
1005
121401
  0
ARC
  5
121402
  8
OBJECT
 10
3986.1488390381278
 20
-225.55386256729159
 30
0.0
 40
7.0
 50
67.066778292911366
 51
154.01473377497121
1001
ACDBBLOCKREPETAG
1070
     1
1071
      304
1005
121402
  0
LINE
  5
121403
  8
OBJECT
 10
3969.4199755553018
 20
-243.89888500818171
 30
0.0
 11
3979.8564918232369
 21
-222.48688253356801
 31
0.0
1001
ACDBBLOCKREPETAG
1070
     1
1071
      341
1005
121403
  0
LINE
  5
121404
  8
OBJECT
 10
3965.2972169006089
 20
-240.71813901882729
 30
0.0
 11
3973.9071022665089
 21
-223.05373004430751
 31
0.0
1001
ACDBBLOCKREPETAG
1070
     1
1071
      342
1005
121404
  0
ARC
  5
121405
  8
OBJECT
 10
3976.579695307315
 20
-207.1289369828437
 30
0.0
 40
60.031113246032611
 50
314.07020130418567
 51
322.33936106091278
1001
ACDBBLOCKREPETAG
1070
     1
1071
      343
1005
121405
  0
CIRCLE
  5
121406
  8
OBJECT
 10
4000.0
 20
-199.99999999999909
 30
0.0
 40
53.5
1001
ACDBBLOCKREPETAG
1070
     1
1071
      344
1005
121406
  0
POINT
  5
121407
  8
DOTS
 10
4000.0
 20
-199.99999999999909
 30
0.0
 50
270.0
1001
ACDBBLOCKREPETAG
1070
     1
1071
      362
1005
121407
  0
ARC
  5
121408
  8
OBJECT
 10
4000.0
 20
-199.99999999999909
 30
0.0
 40
50.0
 50
298.81994300000417
 51
228.52376955967449
1001
ACDBBLOCKREPETAG
1070
     1
1071
        7
1005
121408
  0
LINE
  5
121409
  8
CENTER
 10
4080.0
 20
-199.99999999999909
 30
0.0
 11
3905.0
 21
-199.99999999999909
 31
0.0
1001
ACDBBLOCKREPETAG
1070
     1
1071
       14
1005
121409
  0
LINE
  5
12140A
  8
CENTER
 10
4000.0
 20
-294.99999999999898
 30
0.0
 11
4000.0
 21
-104.9999999999991
 31
0.0
1001
ACDBBLOCKREPETAG
1070
     1
1071
       15
1005
12140A
  0
CIRCLE
  5
12140B
  8
OBJECT
 10
4000.0
 20
-199.99999999999909
 30
0.0
 40
70.0
1001
ACDBBLOCKREPETAG
1070
     1
1071
       16
1005
12140B
  0
CIRCLE
  5
12140C
  8
OBJECT
 10
4000.0
 20
-199.99999999999909
 30
0.0
 40
77.0
1001
ACDBBLOCKREPETAG
1070
     1
1071
       17
1005
12140C
  0
ARC
  5
12140D
  8
OBJECT
 10
4000.0
 20
-199.99999999999909
 30
0.0
 40
80.0
 50
50.805032573864182
 51
309.1949674261358
1001
ACDBBLOCKREPETAG
1070
     1
1071
       18
1005
12140D
  0
LINE
  5
12140E
  8
OBJECT
 10
4045.661800227324
 20
-137.99999999999909
 30
0.0
 11
4080.0
 21
-137.99999999999909
 31
0.0
1001
ACDBBLOCKREPETAG
1070
     1
1071
       19
1005
12140E
  0
LINE
  5
12140F
  8
OBJECT
 10
4045.661800227324
 20
-261.99999999999909
 30
0.0
 11
4080.0
 21
-261.99999999999909
 31
0.0
1001
ACDBBLOCKREPETAG
1070
     1
1071
       20
1005
12140F
  0
LINE
  5
121410
  8
OBJECT
 10
4202.9999999999854
 20
-483.0000000000008
 30
0.0
 11
4209.9999999999854
 21
-483.0000000000008
 31
0.0
1001
ACDBBLOCKREPETAG
1070
     1
1071
       83
1005
121410
  0
LINE
  5
121411
  8
OBJECT
 10
4209.9999999999854
 20
-483.0000000000008
 30
0.0
 11
4209.9999999999854
 21
-607.0000000000008
 31
0.0
1001
ACDBBLOCKREPETAG
1070
     1
1071
       84
1005
121411
  0
LINE
  5
121412
  8
OBJECT
 10
4085.9999999999859
 20
-553.3502637757274
 30
0.0
 11
4085.9999999999859
 21
-655.00000000000068
 31
0.0
1001
ACDBBLOCKREPETAG
1070
     1
1071
       85
1005
121412
  0
LINE
  5
121413
  8
OBJECT
 10
4209.9999999999854
 20
-607.0000000000008
 30
0.0
 11
4202.9999999999854
 21
-607.0000000000008
 31
0.0
1001
ACDBBLOCKREPETAG
1070
     1
1071
       86
1005
121413
  0
LINE
  5
121414
  8
OBJECT
 10
4202.9999999999854
 20
-607.0000000000008
 30
0.0
 11
4202.9999999999854
 21
-483.0000000000008
 31
0.0
1001
ACDBBLOCKREPETAG
1070
     1
1071
       87
1005
121414
  0
LINE
  5
121415
  8
CENTER
 10
4134.9999999999854
 20
-545.0000000000008
 30
0.0
 11
4224.9999999999864
 21
-545.0000000000008
 31
0.0
1001
ACDBBLOCKREPETAG
1070
     1
1071
       88
1005
121415
  0
LINE
  5
121416
  8
OBJECT
 10
4079.9999999999818
 20
-658.0
 30
0.0
 11
4082.999999999985
 21
-658.0000000000008
 31
0.0
1001
ACDBBLOCKREPETAG
1070
     1
1071
       89
1005
121416
  0
ARC
  5
121417
  8
OBJECT
 10
4082.999999999985
 20
-655.00000000000068
 30
0.0
 40
3.0
 50
270.0
 51
0.0
1001
ACDBBLOCKREPETAG
1070
     1
1071
       90
1005
121417
  0
LINE
  5
121418
  8
OBJECT
 10
4202.9999999999854
 20
-486.0000000000008
 30
0.0
 11
4166.9999999999854
 21
-486.0000000000008
 31
0.0
1001
ACDBBLOCKREPETAG
1070
     1
1071
       91
1005
121418
  0
LINE
  5
121419
  8
OBJECT
 10
4166.9999999999854
 20
-486.0000000000008
 30
0.0
 11
4166.9999999999854
 21
-604.0000000000008
 31
0.0
1001
ACDBBLOCKREPETAG
1070
     1
1071
       92
1005
121419
  0
LINE
  5
12141A
  8
OBJECT
 10
4162.9999999999854
 20
-490.5000000000008
 30
0.0
 11
4162.9999999999854
 21
-599.5000000000008
 31
0.0
1001
ACDBBLOCKREPETAG
1070
     1
1071
       93
1005
12141A
  0
LINE
  5
12141B
  8
OBJECT
 10
4162.9999999999854
 20
-490.5000000000008
 30
0.0
 11
4149.9999999999864
 21
-490.5000000000008
 31
0.0
1001
ACDBBLOCKREPETAG
1070
     1
1071
       94
1005
12141B
  0
LINE
  5
12141C
  8
OBJECT
 10
4166.9999999999854
 20
-604.0000000000008
 30
0.0
 11
4202.9999999999854
 21
-604.0000000000008
 31
0.0
1001
ACDBBLOCKREPETAG
1070
     1
1071
       95
1005
12141C
  0
LINE
  5
12141D
  8
OBJECT
 10
4166.9999999999854
 20
-486.0000000000008
 30
0.0
 11
4162.9999999999854
 21
-490.5000000000008
 31
0.0
1001
ACDBBLOCKREPETAG
1070
     1
1071
       96
1005
12141D
  0
LINE
  5
12141E
  8
OBJECT
 10
4149.9999999999864
 20
-490.5000000000008
 30
0.0
 11
4149.9999999999864
 21
-575.74491827928784
 31
0.0
1001
ACDBBLOCKREPETAG
1070
     1
1071
       97
1005
12141E
  0
ARC
  5
12141F
  8
OBJECT
 10
4152.7999999999838
 20
-585.00000000000068
 30
0.0
 40
85.0
 50
91.887731891831123
 51
143.1301023540934
1001
ACDBBLOCKREPETAG
1070
     1
1071
       98
1005
12141F
  0
LINE
  5
121420
  8
HIDDEN
 10
4157.9999999999864
 20
-500.5000000000008
 30
0.0
 11
4157.9999999999864
 21
-589.5000000000008
 31
0.0
1001
ACDBBLOCKREPETAG
1070
     1
1071
      100
1005
121420
  0
LINE
  5
121421
  8
OBJECT
 10
4085.9999999999859
 20
-651.07945073181781
 30
0.0
 11
4156.6313199210299
 21
-599.5000000000008
 31
0.0
1001
ACDBBLOCKREPETAG
1070
     1
1071
      101
1005
121421
  0
LINE
  5
121422
  8
OBJECT
 10
4079.9999999999818
 20
-534.0
 30
0.0
 11
4084.7999999999852
 21
-534.0
 31
0.0
1001
ACDBBLOCKREPETAG
1070
     1
1071
      102
1005
121422
  0
LINE
  5
121423
  8
OBJECT
 10
4085.9999999999859
 20
-553.35026377573001
 30
0.0
 11
4084.7999999999852
 21
-534.0
 31
0.0
1001
ACDBBLOCKREPETAG
1070
     1
1071
      103
1005
121423
  0
LINE
  5
121424
  8
OBJECT
 10
4162.9999999999854
 20
-599.5000000000008
 30
0.0
 11
4156.6313199210299
 21
-599.5000000000008
 31
0.0
1001
ACDBBLOCKREPETAG
1070
     1
1071
      104
1005
121424
  0
LINE
  5
121425
  8
OBJECT
 10
4166.9999999999854
 20
-604.0000000000008
 30
0.0
 11
4162.9999999999854
 21
-599.5000000000008
 31
0.0
1001
ACDBBLOCKREPETAG
1070
     1
1071
      105
1005
121425
  0
LINE
  5
121426
  8
OBJECT
 10
4202.9999999999854
 20
-137.99999999999909
 30
0.0
 11
4209.9999999999854
 21
-137.99999999999909
 31
0.0
1001
ACDBBLOCKREPETAG
1070
     1
1071
       85
1005
121426
  0
LINE
  5
121427
  8
OBJECT
 10
4209.9999999999854
 20
-137.99999999999909
 30
0.0
 11
4209.9999999999854
 21
-261.99999999999909
 31
0.0
1001
ACDBBLOCKREPETAG
1070
     1
1071
       86
1005
121427
  0
LINE
  5
121428
  8
OBJECT
 10
4209.9999999999854
 20
-261.99999999999909
 30
0.0
 11
4202.9999999999854
 21
-261.99999999999909
 31
0.0
1001
ACDBBLOCKREPETAG
1070
     1
1071
       87
1005
121428
  0
LINE
  5
121429
  8
OBJECT
 10
4202.9999999999854
 20
-261.99999999999909
 30
0.0
 11
4202.9999999999854
 21
-137.99999999999909
 31
0.0
1001
ACDBBLOCKREPETAG
1070
     1
1071
       88
1005
121429
  0
LINE
  5
12142A
  8
CENTER
 10
4224.9999999999864
 20
-199.99999999999909
 30
0.0
 11
4080.0
 21
-199.99999999999909
 31
0.0
1001
ACDBBLOCKREPETAG
1070
     1
1071
       89
1005
12142A
  0
LINE
  5
12142B
  8
OBJECT
 10
4149.9999749641856
 20
-245.0000000000027
 30
0.0
 11
4086.0
 21
-244.99999999999909
 31
0.0
1001
ACDBBLOCKREPETAG
1070
     1
1071
       90
1005
12142B
  0
LINE
  5
12142C
  8
OBJECT
 10
4149.9999749641856
 20
-154.99999999999909
 30
0.0
 11
4086.0
 21
-154.99999999999909
 31
0.0
1001
ACDBBLOCKREPETAG
1070
     1
1071
       91
1005
12142C
  0
LINE
  5
12142D
  8
OBJECT
 10
4202.9999999999854
 20
-140.99999999999909
 30
0.0
 11
4166.9999999999854
 21
-140.99999999999909
 31
0.0
1001
ACDBBLOCKREPETAG
1070
     1
1071
       92
1005
12142D
  0
LINE
  5
12142E
  8
OBJECT
 10
4166.9999999999854
 20
-140.99999999999909
 30
0.0
 11
4166.9999999999854
 21
-258.99999999999909
 31
0.0
1001
ACDBBLOCKREPETAG
1070
     1
1071
       93
1005
12142E
  0
LINE
  5
12142F
  8
OBJECT
 10
4166.9999999999854
 20
-258.99999999999909
 30
0.0
 11
4202.9999999999854
 21
-258.99999999999909
 31
0.0
1001
ACDBBLOCKREPETAG
1070
     1
1071
       94
1005
12142F
  0
LINE
  5
121430
  8
OBJECT
 10
4162.9999999999854
 20
-145.49999999999909
 30
0.0
 11
4149.9999999999864
 21
-145.49999999999909
 31
0.0
1001
ACDBBLOCKREPETAG
1070
     1
1071
       95
1005
121430
  0
LINE
  5
121431
  8
OBJECT
 10
4149.9999999999864
 20
-254.49999999999909
 30
0.0
 11
4162.9999999999854
 21
-254.49999999999909
 31
0.0
1001
ACDBBLOCKREPETAG
1070
     1
1071
       96
1005
121431
  0
LINE
  5
121432
  8
OBJECT
 10
4162.9999999999854
 20
-254.49999999999909
 30
0.0
 11
4162.9999999999854
 21
-145.49999999999909
 31
0.0
1001
ACDBBLOCKREPETAG
1070
     1
1071
       97
1005
121432
  0
LINE
  5
121433
  8
OBJECT
 10
4166.9999999999854
 20
-140.99999999999909
 30
0.0
 11
4162.9999999999854
 21
-145.49999999999909
 31
0.0
1001
ACDBBLOCKREPETAG
1070
     1
1071
       98
1005
121433
  0
LINE
  5
121434
  8
OBJECT
 10
4166.9999999999854
 20
-258.99999999999909
 30
0.0
 11
4162.9999999999854
 21
-254.49999999999909
 31
0.0
1001
ACDBBLOCKREPETAG
1070
     1
1071
       99
1005
121434
  0
LINE
  5
121435
  8
OBJECT
 10
4083.0
 20
-137.99999999999909
 30
0.0
 11
4080.0
 21
-137.99999999999909
 31
0.0
1001
ACDBBLOCKREPETAG
1070
     1
1071
      100
1005
121435
  0
ARC
  5
121436
  8
OBJECT
 10
4083.0
 20
-140.99999999999909
 30
0.0
 40
3.0
 50
0.0
 51
90.0
1001
ACDBBLOCKREPETAG
1070
     1
1071
      101
1005
121436
  0
LINE
  5
121437
  8
OBJECT
 10
4080.0
 20
-261.99999999999909
 30
0.0
 11
4083.0
 21
-261.99999999999909
 31
0.0
1001
ACDBBLOCKREPETAG
1070
     1
1071
      102
1005
121437
  0
ARC
  5
121438
  8
OBJECT
 10
4083.0
 20
-258.99999999999909
 30
0.0
 40
3.0
 50
270.0
 51
0.0
1001
ACDBBLOCKREPETAG
1070
     1
1071
      103
1005
121438
  0
LINE
  5
121439
  8
OBJECT
 10
4086.0
 20
-258.99999999999909
 30
0.0
 11
4086.0
 21
-210.3227903203578
 31
0.0
1001
ACDBBLOCKREPETAG
1070
     1
1071
      104
1005
121439
  0
LINE
  5
12143A
  8
OBJECT
 10
4086.0
 20
-189.6772096796403
 30
0.0
 11
4086.0
 21
-140.99999999999909
 31
0.0
1001
ACDBBLOCKREPETAG
1070
     1
1071
      105
1005
12143A
  0
LINE
  5
12143B
  8
HIDDEN
 10
4157.9999999999864
 20
-155.49999999999909
 30
0.0
 11
4157.9999999999864
 21
-244.49999999999909
 31
0.0
1001
ACDBBLOCKREPETAG
1070
     1
1071
      106
1005
12143B
  0
LINE
  5
12143C
  8
OBJECT
 10
4149.9999749641856
 20
-254.4999509238105
 30
0.0
 11
4149.9999749641856
 21
-145.4999509238105
 31
0.0
1001
ACDBBLOCKREPETAG
1070
     1
1071
      108
1005
12143C
  0
ARC
  5
12143D
  8
OBJECT
 10
4129.8000000000247
 20
-199.99999999999909
 30
0.0
 40
45.000000000000547
 50
90.0
 51
270.0
1001
ACDBBLOCKREPETAG
1070
     1
1071
      109
1005
12143D
  0
LINE
  5
12143E
  8
SLIM
 10
11914.999999999991
 20
-659.47385309434696
 30
0.0
 11
11919.47385309434
 21
-654.99999999999966
 31
0.0
1001
ACAD
1010
0.0
1020
0.0
1030
0.0
1001
ACDBBLOCKREPETAG
1070
     1
1071
        0
1005
0
  0
LINE
  5
12143F
  8
SLIM
 10
11914.999999999991
 20
-677.43436533648446
 30
0.0
 11
11937.434365336479
 21
-654.99999999999966
 31
0.0
1001
ACAD
1010
0.0
1020
0.0
1030
0.0
1001
ACDBBLOCKREPETAG
1070
     1
1071
       10
1005
12143F
  0
LINE
  5
121440
  8
SLIM
 10
11914.999999999991
 20
-695.39487757862241
 30
0.0
 11
11955.39487757861
 21
-654.99999999999966
 31
0.0
1001
ACAD
1010
0.0
1020
0.0
1030
0.0
1001
ACDBBLOCKREPETAG
1070
     1
1071
       11
1005
121440
  0
LINE
  5
121441
  8
SLIM
 10
11914.999999999991
 20
-713.35538982076014
 30
0.0
 11
11973.35538982075
 21
-654.99999999999966
 31
0.0
1001
ACAD
1010
0.0
1020
0.0
1030
0.0
1001
ACDBBLOCKREPETAG
1070
     1
1071
       12
1005
121441
  0
LINE
  5
121442
  8
SLIM
 10
11914.999999999991
 20
-731.31590206289775
 30
0.0
 11
11991.31590206289
 21
-654.99999999999966
 31
0.0
1001
ACAD
1010
0.0
1020
0.0
1030
0.0
1001
ACDBBLOCKREPETAG
1070
     1
1071
       13
1005
121442
  0
LINE
  5
121443
  8
SLIM
 10
11915.0
 20
-749.27641430503525
 30
0.0
 11
12009.27641430503
 21
-654.99999999999966
 31
0.0
1001
ACAD
1010
0.0
1020
0.0
1030
0.0
1001
ACDBBLOCKREPETAG
1070
     1
1071
       14
1005
121443
  0
LINE
  5
121444
  8
SLIM
 10
11915.0
 20
-767.23692654717331
 30
0.0
 11
12027.23692654717
 21
-654.99999999999966
 31
0.0
1001
ACAD
1010
0.0
1020
0.0
1030
0.0
1001
ACDBBLOCKREPETAG
1070
     1
1071
       15
1005
121444
  0
LINE
  5
121445
  8
SLIM
 10
11915.0
 20
-785.19743878931081
 30
0.0
 11
12045.19743878931
 21
-654.99999999999966
 31
0.0
1001
ACAD
1010
0.0
1020
0.0
1030
0.0
1001
ACDBBLOCKREPETAG
1070
     1
1071
       16
1005
121445
  0
LINE
  5
121446
  8
SLIM
 10
11915.0
 20
-803.15795103144865
 30
0.0
 11
12063.15795103144
 21
-654.99999999999966
 31
0.0
1001
ACAD
1010
0.0
1020
0.0
1030
0.0
1001
ACDBBLOCKREPETAG
1070
     1
1071
       17
1005
121446
  0
LINE
  5
121447
  8
SLIM
 10
11915.0
 20
-821.11846327358626
 30
0.0
 11
12081.11846327358
 21
-654.99999999999966
 31
0.0
1001
ACAD
1010
0.0
1020
0.0
1030
0.0
1001
ACDBBLOCKREPETAG
1070
     1
1071
       18
1005
121447
  0
LINE
  5
121448
  8
SLIM
 10
11915.0
 20
-839.07897551572387
 30
0.0
 11
12085.000000000009
 21
-669.07897551571614
 31
0.0
1001
ACAD
1010
0.0
1020
0.0
1030
0.0
1001
ACDBBLOCKREPETAG
1070
     1
1071
       19
1005
121448
  0
LINE
  5
121449
  8
SLIM
 10
11915.0
 20
-857.03948775786182
 30
0.0
 11
12085.0
 21
-687.03948775785511
 31
0.0
1001
ACAD
1010
0.0
1020
0.0
1030
0.0
1001
ACDBBLOCKREPETAG
1070
     1
1071
       20
1005
121449
  0
LINE
  5
12144A
  8
SLIM
 10
11915.28360074955
 20
-874.71639925044155
 30
0.0
 11
12085.0
 21
-704.99999999999409
 31
0.0
1001
ACAD
1010
0.0
1020
0.0
1030
0.0
1001
ACDBBLOCKREPETAG
1070
     1
1071
       21
1005
12144A
  0
LINE
  5
12144B
  8
SLIM
 10
11917.49791047804
 20
-890.46260176409692
 30
0.0
 11
12085.0
 21
-722.96051224213272
 31
0.0
1001
ACAD
1010
0.0
1020
0.0
1030
0.0
1001
ACDBBLOCKREPETAG
1070
     1
1071
       22
1005
12144B
  0
LINE
  5
12144C
  8
SLIM
 10
11919.71222020652
 20
-906.20880427775239
 30
0.0
 11
12085.0
 21
-740.92102448427181
 31
0.0
1001
ACAD
1010
0.0
1020
0.0
1030
0.0
1001
ACDBBLOCKREPETAG
1070
     1
1071
       23
1005
12144C
  0
LINE
  5
12144D
  8
SLIM
 10
11921.926529935001
 20
-921.95500679140764
 30
0.0
 11
12085.0
 21
-758.88153672641045
 31
0.0
1001
ACAD
1010
0.0
1020
0.0
1030
0.0
1001
ACDBBLOCKREPETAG
1070
     1
1071
       24
1005
12144D
  0
LINE
  5
12144E
  8
SLIM
 10
11924.140839663491
 20
-937.701209305063
 30
0.0
 11
12085.0
 21
-776.84204896854953
 31
0.0
1001
ACAD
1010
0.0
1020
0.0
1030
0.0
1001
ACDBBLOCKREPETAG
1070
     1
1071
       25
1005
12144E
  0
LINE
  5
12144F
  8
SLIM
 10
11926.35514939196
 20
-953.44741181871825
 30
0.0
 11
12085.0
 21
-794.80256121068851
 31
0.0
1001
ACAD
1010
0.0
1020
0.0
1030
0.0
1001
ACDBBLOCKREPETAG
1070
     1
1071
       26
1005
12144F
  0
LINE
  5
121450
  8
SLIM
 10
11928.56945912045
 20
-969.19361433237384
 30
0.0
 11
12085.0
 21
-812.76307345282714
 31
0.0
1001
ACAD
1010
0.0
1020
0.0
1030
0.0
1001
ACDBBLOCKREPETAG
1070
     1
1071
       27
1005
121450
  0
LINE
  5
121451
  8
SLIM
 10
11930.78376884894
 20
-984.93981684602909
 30
0.0
 11
12085.0
 21
-830.72358569496612
 31
0.0
1001
ACAD
1010
0.0
1020
0.0
1030
0.0
1001
ACDBBLOCKREPETAG
1070
     1
1071
       28
1005
121451
  0
LINE
  5
121452
  8
SLIM
 10
11932.998078577421
 20
-1000.686019359684
 30
0.0
 11
12085.0
 21
-848.68409793710521
 31
0.0
1001
ACAD
1010
0.0
1020
0.0
1030
0.0
1001
ACDBBLOCKREPETAG
1070
     1
1071
       29
1005
121452
  0
LINE
  5
121453
  8
SLIM
 10
11932.999999999991
 20
-1018.644610179251
 30
0.0
 11
12085.0
 21
-866.64461017924395
 31
0.0
1001
ACAD
1010
0.0
1020
0.0
1030
0.0
1001
ACDBBLOCKREPETAG
1070
     1
1071
       30
1005
121453
  0
LINE
  5
121454
  8
SLIM
 10
11932.999999999991
 20
-1036.60512242139
 30
0.0
 11
12083.05183715436
 21
-886.55328526701646
 31
0.0
1001
ACAD
1010
0.0
1020
0.0
1030
0.0
1001
ACDBBLOCKREPETAG
1070
     1
1071
       31
1005
121454
  0
LINE
  5
121455
  8
SLIM
 10
11942.565634663521
 20
-1044.9999999999959
 30
0.0
 11
12080.112844242019
 21
-907.45279042150355
 31
0.0
1001
ACAD
1010
0.0
1020
0.0
1030
0.0
1001
ACDBBLOCKREPETAG
1070
     1
1071
       32
1005
121455
  0
LINE
  5
121456
  8
SLIM
 10
11960.52614690566
 20
-1044.9999999999959
 30
0.0
 11
12077.17385132967
 21
-928.35229557599109
 31
0.0
1001
ACAD
1010
0.0
1020
0.0
1030
0.0
1001
ACDBBLOCKREPETAG
1070
     1
1071
       33
1005
121456
  0
LINE
  5
121457
  8
SLIM
 10
11978.4866591478
 20
-1044.999999999997
 30
0.0
 11
12074.23485841732
 21
-949.25180073047841
 31
0.0
1001
ACAD
1010
0.0
1020
0.0
1030
0.0
1001
ACDBBLOCKREPETAG
1070
     1
1071
       34
1005
121457
  0
LINE
  5
121458
  8
SLIM
 10
11996.44717138994
 20
-1044.999999999998
 30
0.0
 11
12071.29586550497
 21
-970.15130588496572
 31
0.0
1001
ACAD
1010
0.0
1020
0.0
1030
0.0
1001
ACDBBLOCKREPETAG
1070
     1
1071
       35
1005
121458
  0
LINE
  5
121459
  8
SLIM
 10
12014.40768363208
 20
-1044.999999999998
 30
0.0
 11
12068.35687259262
 21
-991.05081103945292
 31
0.0
1001
ACAD
1010
0.0
1020
0.0
1030
0.0
1001
ACDBBLOCKREPETAG
1070
     1
1071
       36
1005
121459
  0
LINE
  5
12145A
  8
SLIM
 10
12032.368195874211
 20
-1044.9999999999991
 30
0.0
 11
12067.0
 21
-1010.368195874201
 31
0.0
1001
ACAD
1010
0.0
1020
0.0
1030
0.0
1001
ACDBBLOCKREPETAG
1070
     1
1071
       37
1005
12145A
  0
LINE
  5
12145B
  8
SLIM
 10
12050.328708116351
 20
-1044.9999999999991
 30
0.0
 11
12067.0
 21
-1028.3287081163401
 31
0.0
1001
ACAD
1010
0.0
1020
0.0
1030
0.0
1001
ACDBBLOCKREPETAG
1070
     1
1071
       38
1005
12145B
  0
LINE
  5
12145C
  8
OBJECT
 10
11932.999999999991
 20
-1044.9999999999959
 30
0.0
 11
12067.0
 21
-1044.9999999999991
 31
0.0
1001
ACDBBLOCKREPETAG
1070
     1
1071
        1
1005
12145C
  0
LINE
  5
12145D
  8
OBJECT
 10
11914.999999999991
 20
-654.99999999999966
 30
0.0
 11
11915.0
 21
-872.69968280914077
 31
0.0
1001
ACDBBLOCKREPETAG
1070
     1
1071
        2
1005
12145D
  0
LINE
  5
12145E
  8
OBJECT
 10
12085.000000000009
 20
-654.99999999999966
 30
0.0
 11
12085.0
 21
-872.69968280917192
 31
0.0
1001
ACDBBLOCKREPETAG
1070
     1
1071
        3
1005
12145E
  0
LINE
  5
12145F
  8
OBJECT
 10
11915.0
 20
-872.69968280914077
 30
0.0
 11
11932.999999999991
 21
-1000.699682809081
 31
0.0
1001
ACDBBLOCKREPETAG
1070
     1
1071
        4
1005
12145F
  0
LINE
  5
121460
  8
OBJECT
 10
12067.0
 20
-1000.699682809128
 30
0.0
 11
12085.0
 21
-872.69968280917192
 31
0.0
1001
ACDBBLOCKREPETAG
1070
     1
1071
        5
1005
121460
  0
LINE
  5
121461
  8
OBJECT
 10
12085.000000000009
 20
-654.99999999999966
 30
0.0
 11
11914.999999999991
 21
-654.99999999999966
 31
0.0
1001
ACDBBLOCKREPETAG
1070
     1
1071
        6
1005
121461
  0
LINE
  5
121462
  8
OBJECT
 10
11932.999999999991
 20
-1000.699682809081
 30
0.0
 11
11932.999999999991
 21
-1044.9999999999959
 31
0.0
1001
ACDBBLOCKREPETAG
1070
     1
1071
        8
1005
121462
  0
LINE
  5
121463
  8
OBJECT
 10
12067.0
 20
-1000.699682809128
 30
0.0
 11
12067.0
 21
-1044.9999999999991
 31
0.0
1001
ACDBBLOCKREPETAG
1070
     1
1071
        9
1005
121463
  0
LINE
  5
121464
  8
SLIM
 10
9914.9999999999927
 20
-659.47385309434696
 30
0.0
 11
9919.4738530943396
 21
-654.99999999999966
 31
0.0
1001
ACAD
1010
0.0
1020
0.0
1030
0.0
1001
ACDBBLOCKREPETAG
1070
     1
1071
        0
1005
0
  0
LINE
  5
121465
  8
SLIM
 10
9914.9999999999927
 20
-677.43436533648446
 30
0.0
 11
9937.4343653364795
 21
-654.99999999999966
 31
0.0
1001
ACAD
1010
0.0
1020
0.0
1030
0.0
1001
ACDBBLOCKREPETAG
1070
     1
1071
       10
1005
121465
  0
LINE
  5
121466
  8
SLIM
 10
9914.9999999999945
 20
-695.39487757862241
 30
0.0
 11
9955.3948775786212
 21
-654.99999999999966
 31
0.0
1001
ACAD
1010
0.0
1020
0.0
1030
0.0
1001
ACDBBLOCKREPETAG
1070
     1
1071
       11
1005
121466
  0
LINE
  5
121467
  8
SLIM
 10
9914.9999999999945
 20
-713.35538982076014
 30
0.0
 11
9973.3553898207556
 21
-654.99999999999966
 31
0.0
1001
ACAD
1010
0.0
1020
0.0
1030
0.0
1001
ACDBBLOCKREPETAG
1070
     1
1071
       12
1005
121467
  0
LINE
  5
121468
  8
SLIM
 10
9914.9999999999945
 20
-731.31590206289775
 30
0.0
 11
9991.3159020628937
 21
-654.99999999999966
 31
0.0
1001
ACAD
1010
0.0
1020
0.0
1030
0.0
1001
ACDBBLOCKREPETAG
1070
     1
1071
       13
1005
121468
  0
LINE
  5
121469
  8
SLIM
 10
9914.9999999999964
 20
-749.27641430503525
 30
0.0
 11
10009.27641430503
 21
-654.99999999999966
 31
0.0
1001
ACAD
1010
0.0
1020
0.0
1030
0.0
1001
ACDBBLOCKREPETAG
1070
     1
1071
       14
1005
121469
  0
LINE
  5
12146A
  8
SLIM
 10
9914.9999999999964
 20
-767.23692654717331
 30
0.0
 11
10027.23692654717
 21
-654.99999999999966
 31
0.0
1001
ACAD
1010
0.0
1020
0.0
1030
0.0
1001
ACDBBLOCKREPETAG
1070
     1
1071
       15
1005
12146A
  0
LINE
  5
12146B
  8
SLIM
 10
9914.9999999999964
 20
-785.19743878931081
 30
0.0
 11
10045.19743878931
 21
-654.99999999999966
 31
0.0
1001
ACAD
1010
0.0
1020
0.0
1030
0.0
1001
ACDBBLOCKREPETAG
1070
     1
1071
       16
1005
12146B
  0
LINE
  5
12146C
  8
SLIM
 10
9914.9999999999982
 20
-803.15795103144865
 30
0.0
 11
10063.15795103144
 21
-654.99999999999966
 31
0.0
1001
ACAD
1010
0.0
1020
0.0
1030
0.0
1001
ACDBBLOCKREPETAG
1070
     1
1071
       17
1005
12146C
  0
LINE
  5
12146D
  8
SLIM
 10
9914.9999999999982
 20
-821.11846327358626
 30
0.0
 11
10081.11846327358
 21
-654.99999999999966
 31
0.0
1001
ACAD
1010
0.0
1020
0.0
1030
0.0
1001
ACDBBLOCKREPETAG
1070
     1
1071
       18
1005
12146D
  0
LINE
  5
12146E
  8
SLIM
 10
9914.9999999999982
 20
-839.07897551572387
 30
0.0
 11
10085.000000000009
 21
-669.07897551571614
 31
0.0
1001
ACAD
1010
0.0
1020
0.0
1030
0.0
1001
ACDBBLOCKREPETAG
1070
     1
1071
       19
1005
12146E
  0
LINE
  5
12146F
  8
SLIM
 10
9915.0
 20
-857.03948775786182
 30
0.0
 11
10085.0
 21
-687.03948775785511
 31
0.0
1001
ACAD
1010
0.0
1020
0.0
1030
0.0
1001
ACDBBLOCKREPETAG
1070
     1
1071
       20
1005
12146F
  0
LINE
  5
121470
  8
SLIM
 10
9915.2836007495607
 20
-874.71639925044155
 30
0.0
 11
10085.0
 21
-704.99999999999409
 31
0.0
1001
ACAD
1010
0.0
1020
0.0
1030
0.0
1001
ACDBBLOCKREPETAG
1070
     1
1071
       21
1005
121470
  0
LINE
  5
121471
  8
SLIM
 10
9917.4979104780396
 20
-890.46260176409692
 30
0.0
 11
10085.0
 21
-722.96051224213272
 31
0.0
1001
ACAD
1010
0.0
1020
0.0
1030
0.0
1001
ACDBBLOCKREPETAG
1070
     1
1071
       22
1005
121471
  0
LINE
  5
121472
  8
SLIM
 10
9919.7122202065257
 20
-906.20880427775239
 30
0.0
 11
10085.0
 21
-740.92102448427181
 31
0.0
1001
ACAD
1010
0.0
1020
0.0
1030
0.0
1001
ACDBBLOCKREPETAG
1070
     1
1071
       23
1005
121472
  0
LINE
  5
121473
  8
SLIM
 10
9921.9265299350063
 20
-921.95500679140764
 30
0.0
 11
10085.0
 21
-758.88153672641045
 31
0.0
1001
ACAD
1010
0.0
1020
0.0
1030
0.0
1001
ACDBBLOCKREPETAG
1070
     1
1071
       24
1005
121473
  0
LINE
  5
121474
  8
SLIM
 10
9924.1408396634924
 20
-937.701209305063
 30
0.0
 11
10085.0
 21
-776.84204896854953
 31
0.0
1001
ACAD
1010
0.0
1020
0.0
1030
0.0
1001
ACDBBLOCKREPETAG
1070
     1
1071
       25
1005
121474
  0
LINE
  5
121475
  8
SLIM
 10
9926.3551493919731
 20
-953.44741181871825
 30
0.0
 11
10085.0
 21
-794.80256121068851
 31
0.0
1001
ACAD
1010
0.0
1020
0.0
1030
0.0
1001
ACDBBLOCKREPETAG
1070
     1
1071
       26
1005
121475
  0
LINE
  5
121476
  8
SLIM
 10
9928.5694591204574
 20
-969.19361433237384
 30
0.0
 11
10085.0
 21
-812.76307345282714
 31
0.0
1001
ACAD
1010
0.0
1020
0.0
1030
0.0
1001
ACDBBLOCKREPETAG
1070
     1
1071
       27
1005
121476
  0
LINE
  5
121477
  8
SLIM
 10
9930.7837688489417
 20
-984.93981684602909
 30
0.0
 11
10085.0
 21
-830.72358569496612
 31
0.0
1001
ACAD
1010
0.0
1020
0.0
1030
0.0
1001
ACDBBLOCKREPETAG
1070
     1
1071
       28
1005
121477
  0
LINE
  5
121478
  8
SLIM
 10
9932.9980785774187
 20
-1000.686019359684
 30
0.0
 11
10085.0
 21
-848.68409793710521
 31
0.0
1001
ACAD
1010
0.0
1020
0.0
1030
0.0
1001
ACDBBLOCKREPETAG
1070
     1
1071
       29
1005
121478
  0
LINE
  5
121479
  8
SLIM
 10
9932.9999999999927
 20
-1018.644610179251
 30
0.0
 11
10085.0
 21
-866.64461017924395
 31
0.0
1001
ACAD
1010
0.0
1020
0.0
1030
0.0
1001
ACDBBLOCKREPETAG
1070
     1
1071
       30
1005
121479
  0
LINE
  5
12147A
  8
SLIM
 10
9932.9999999999927
 20
-1036.60512242139
 30
0.0
 11
10083.05183715436
 21
-886.55328526701646
 31
0.0
1001
ACAD
1010
0.0
1020
0.0
1030
0.0
1001
ACDBBLOCKREPETAG
1070
     1
1071
       31
1005
12147A
  0
LINE
  5
12147B
  8
SLIM
 10
9942.5656346635242
 20
-1044.9999999999959
 30
0.0
 11
10080.11284424201
 21
-907.45279042150355
 31
0.0
1001
ACAD
1010
0.0
1020
0.0
1030
0.0
1001
ACDBBLOCKREPETAG
1070
     1
1071
       32
1005
12147B
  0
LINE
  5
12147C
  8
SLIM
 10
9960.5261469056641
 20
-1044.9999999999959
 30
0.0
 11
10077.17385132967
 21
-928.35229557599109
 31
0.0
1001
ACAD
1010
0.0
1020
0.0
1030
0.0
1001
ACDBBLOCKREPETAG
1070
     1
1071
       33
1005
12147C
  0
LINE
  5
12147D
  8
SLIM
 10
9978.4866591478003
 20
-1044.999999999997
 30
0.0
 11
10074.23485841732
 21
-949.25180073047841
 31
0.0
1001
ACAD
1010
0.0
1020
0.0
1030
0.0
1001
ACDBBLOCKREPETAG
1070
     1
1071
       34
1005
12147D
  0
LINE
  5
12147E
  8
SLIM
 10
9996.4471713899384
 20
-1044.999999999998
 30
0.0
 11
10071.29586550497
 21
-970.15130588496572
 31
0.0
1001
ACAD
1010
0.0
1020
0.0
1030
0.0
1001
ACDBBLOCKREPETAG
1070
     1
1071
       35
1005
12147E
  0
LINE
  5
12147F
  8
SLIM
 10
10014.40768363206
 20
-1044.999999999998
 30
0.0
 11
10068.35687259262
 21
-991.05081103945292
 31
0.0
1001
ACAD
1010
0.0
1020
0.0
1030
0.0
1001
ACDBBLOCKREPETAG
1070
     1
1071
       36
1005
12147F
  0
LINE
  5
121480
  8
SLIM
 10
10032.368195874211
 20
-1044.9999999999991
 30
0.0
 11
10067.000000000009
 21
-1010.368195874201
 31
0.0
1001
ACAD
1010
0.0
1020
0.0
1030
0.0
1001
ACDBBLOCKREPETAG
1070
     1
1071
       37
1005
121480
  0
LINE
  5
121481
  8
SLIM
 10
10050.328708116351
 20
-1044.9999999999991
 30
0.0
 11
10067.000000000009
 21
-1028.3287081163401
 31
0.0
1001
ACAD
1010
0.0
1020
0.0
1030
0.0
1001
ACDBBLOCKREPETAG
1070
     1
1071
       38
1005
121481
  0
LINE
  5
121482
  8
OBJECT
 10
9932.9999999999927
 20
-1044.9999999999959
 30
0.0
 11
10067.000000000009
 21
-1044.9999999999991
 31
0.0
1001
ACDBBLOCKREPETAG
1070
     1
1071
        1
1005
121482
  0
LINE
  5
121483
  8
OBJECT
 10
9914.9999999999927
 20
-654.99999999999966
 30
0.0
 11
9915.0
 21
-872.69968280914077
 31
0.0
1001
ACDBBLOCKREPETAG
1070
     1
1071
        2
1005
121483
  0
LINE
  5
121484
  8
OBJECT
 10
10085.000000000009
 20
-654.99999999999966
 30
0.0
 11
10085.0
 21
-872.69968280917192
 31
0.0
1001
ACDBBLOCKREPETAG
1070
     1
1071
        3
1005
121484
  0
LINE
  5
121485
  8
OBJECT
 10
9915.0
 20
-872.69968280914077
 30
0.0
 11
9932.9999999999927
 21
-1000.699682809081
 31
0.0
1001
ACDBBLOCKREPETAG
1070
     1
1071
        4
1005
121485
  0
LINE
  5
121486
  8
OBJECT
 10
10067.000000000009
 20
-1000.699682809128
 30
0.0
 11
10085.0
 21
-872.69968280917192
 31
0.0
1001
ACDBBLOCKREPETAG
1070
     1
1071
        5
1005
121486
  0
LINE
  5
121487
  8
OBJECT
 10
10085.000000000009
 20
-654.99999999999966
 30
0.0
 11
9914.9999999999927
 21
-654.99999999999966
 31
0.0
1001
ACDBBLOCKREPETAG
1070
     1
1071
        6
1005
121487
  0
LINE
  5
121488
  8
OBJECT
 10
9932.9999999999927
 20
-1000.699682809081
 30
0.0
 11
9932.9999999999927
 21
-1044.9999999999959
 31
0.0
1001
ACDBBLOCKREPETAG
1070
     1
1071
        8
1005
121488
  0
LINE
  5
121489
  8
OBJECT
 10
10067.000000000009
 20
-1000.699682809128
 30
0.0
 11
10067.000000000009
 21
-1044.9999999999991
 31
0.0
1001
ACDBBLOCKREPETAG
1070
     1
1071
        9
1005
121489
  0
LINE
  5
12148A
  8
SLIM
 10
7914.9999999999918
 20
-659.47385309434696
 30
0.0
 11
7919.4738530943414
 21
-654.99999999999966
 31
0.0
1001
ACAD
1010
0.0
1020
0.0
1030
0.0
1001
ACDBBLOCKREPETAG
1070
     1
1071
        0
1005
0
  0
LINE
  5
12148B
  8
SLIM
 10
7914.9999999999918
 20
-677.43436533648446
 30
0.0
 11
7937.4343653364776
 21
-654.99999999999966
 31
0.0
1001
ACAD
1010
0.0
1020
0.0
1030
0.0
1001
ACDBBLOCKREPETAG
1070
     1
1071
       11
1005
12148B
  0
LINE
  5
12148C
  8
SLIM
 10
7914.9999999999918
 20
-695.39487757862241
 30
0.0
 11
7955.3948775786157
 21
-654.99999999999966
 31
0.0
1001
ACAD
1010
0.0
1020
0.0
1030
0.0
1001
ACDBBLOCKREPETAG
1070
     1
1071
       12
1005
12148C
  0
LINE
  5
12148D
  8
SLIM
 10
7914.9999999999964
 20
-713.35538982076014
 30
0.0
 11
7973.3553898207538
 21
-654.99999999999966
 31
0.0
1001
ACAD
1010
0.0
1020
0.0
1030
0.0
1001
ACDBBLOCKREPETAG
1070
     1
1071
       13
1005
12148D
  0
LINE
  5
12148E
  8
SLIM
 10
7914.9999999999982
 20
-731.31590206289775
 30
0.0
 11
7991.3159020628918
 21
-654.99999999999966
 31
0.0
1001
ACAD
1010
0.0
1020
0.0
1030
0.0
1001
ACDBBLOCKREPETAG
1070
     1
1071
       14
1005
12148E
  0
LINE
  5
12148F
  8
SLIM
 10
7914.9999999999982
 20
-749.27641430503525
 30
0.0
 11
8009.2764143050308
 21
-654.99999999999966
 31
0.0
1001
ACAD
1010
0.0
1020
0.0
1030
0.0
1001
ACDBBLOCKREPETAG
1070
     1
1071
       15
1005
12148F
  0
LINE
  5
121490
  8
SLIM
 10
7914.9999999999982
 20
-767.23692654717331
 30
0.0
 11
8027.2369265471707
 21
-654.99999999999966
 31
0.0
1001
ACAD
1010
0.0
1020
0.0
1030
0.0
1001
ACDBBLOCKREPETAG
1070
     1
1071
       16
1005
121490
  0
LINE
  5
121491
  8
SLIM
 10
7914.9999999999982
 20
-785.19743878931081
 30
0.0
 11
8045.1974387893079
 21
-654.99999999999966
 31
0.0
1001
ACAD
1010
0.0
1020
0.0
1030
0.0
1001
ACDBBLOCKREPETAG
1070
     1
1071
       17
1005
121491
  0
LINE
  5
121492
  8
SLIM
 10
7914.9999999999982
 20
-803.15795103144865
 30
0.0
 11
8063.1579510314468
 21
-654.99999999999966
 31
0.0
1001
ACAD
1010
0.0
1020
0.0
1030
0.0
1001
ACDBBLOCKREPETAG
1070
     1
1071
       18
1005
121492
  0
LINE
  5
121493
  8
SLIM
 10
7914.9999999999982
 20
-821.11846327358626
 30
0.0
 11
8081.118463273584
 21
-654.99999999999966
 31
0.0
1001
ACAD
1010
0.0
1020
0.0
1030
0.0
1001
ACDBBLOCKREPETAG
1070
     1
1071
       19
1005
121493
  0
LINE
  5
121494
  8
SLIM
 10
7914.9999999999982
 20
-839.07897551572387
 30
0.0
 11
8085.0000000000064
 21
-669.07897551571614
 31
0.0
1001
ACAD
1010
0.0
1020
0.0
1030
0.0
1001
ACDBBLOCKREPETAG
1070
     1
1071
       20
1005
121494
  0
LINE
  5
121495
  8
SLIM
 10
7914.9999999999982
 20
-857.03948775786182
 30
0.0
 11
8085.0000000000064
 21
-687.039487757855
 31
0.0
1001
ACAD
1010
0.0
1020
0.0
1030
0.0
1001
ACDBBLOCKREPETAG
1070
     1
1071
       21
1005
121495
  0
LINE
  5
121496
  8
SLIM
 10
7915.283600749558
 20
-874.71639925044155
 30
0.0
 11
8085.0000000000064
 21
-704.99999999999409
 31
0.0
1001
ACAD
1010
0.0
1020
0.0
1030
0.0
1001
ACDBBLOCKREPETAG
1070
     1
1071
       22
1005
121496
  0
LINE
  5
121497
  8
SLIM
 10
7917.4979104780423
 20
-890.46260176409692
 30
0.0
 11
8085.0000000000064
 21
-722.96051224213272
 31
0.0
1001
ACAD
1010
0.0
1020
0.0
1030
0.0
1001
ACDBBLOCKREPETAG
1070
     1
1071
       23
1005
121497
  0
LINE
  5
121498
  8
SLIM
 10
7919.7122202065239
 20
-906.20880427775205
 30
0.0
 11
8085.0000000000064
 21
-740.92102448427181
 31
0.0
1001
ACAD
1010
0.0
1020
0.0
1030
0.0
1001
ACDBBLOCKREPETAG
1070
     1
1071
       24
1005
121498
  0
LINE
  5
121499
  8
SLIM
 10
7921.9265299350072
 20
-921.95500679140719
 30
0.0
 11
8085.0000000000018
 21
-758.88153672641045
 31
0.0
1001
ACAD
1010
0.0
1020
0.0
1030
0.0
1001
ACDBBLOCKREPETAG
1070
     1
1071
       25
1005
121499
  0
LINE
  5
12149A
  8
SLIM
 10
7924.1408396634897
 20
-937.70120930506255
 30
0.0
 11
8085.0000000000018
 21
-776.84204896854953
 31
0.0
1001
ACAD
1010
0.0
1020
0.0
1030
0.0
1001
ACDBBLOCKREPETAG
1070
     1
1071
       26
1005
12149A
  0
LINE
  5
12149B
  8
SLIM
 10
7926.3551493919731
 20
-953.4474118187178
 30
0.0
 11
8085.0000000000018
 21
-794.80256121068851
 31
0.0
1001
ACAD
1010
0.0
1020
0.0
1030
0.0
1001
ACDBBLOCKREPETAG
1070
     1
1071
       27
1005
12149B
  0
LINE
  5
12149C
  8
SLIM
 10
7928.5694591204538
 20
-969.19361433237304
 30
0.0
 11
8085.0000000000018
 21
-812.76307345282714
 31
0.0
1001
ACAD
1010
0.0
1020
0.0
1030
0.0
1001
ACDBBLOCKREPETAG
1070
     1
1071
       28
1005
12149C
  0
LINE
  5
12149D
  8
SLIM
 10
7930.783768848939
 20
-984.93981684602841
 30
0.0
 11
8085.0000000000018
 21
-830.72358569496612
 31
0.0
1001
ACAD
1010
0.0
1020
0.0
1030
0.0
1001
ACDBBLOCKREPETAG
1070
     1
1071
       29
1005
12149D
  0
LINE
  5
12149E
  8
SLIM
 10
7932.9980785774214
 20
-1000.686019359684
 30
0.0
 11
8085.0
 21
-848.68409793710521
 31
0.0
1001
ACAD
1010
0.0
1020
0.0
1030
0.0
1001
ACDBBLOCKREPETAG
1070
     1
1071
       30
1005
12149E
  0
LINE
  5
12149F
  8
SLIM
 10
7943.0
 20
-1008.644610179244
 30
0.0
 11
7946.6446101792453
 21
-1004.999999999998
 31
0.0
1001
ACAD
1010
0.0
1020
0.0
1030
0.0
1001
ACDBBLOCKREPETAG
1070
     1
1071
       31
1005
12149F
  0
LINE
  5
1214A0
  8
SLIM
 10
7946.6446101792453
 20
-1004.999999999998
 30
0.0
 11
8085.0
 21
-866.64461017924395
 31
0.0
1001
ACAD
1010
0.0
1020
0.0
1030
0.0
1001
ACDBBLOCKREPETAG
1070
     1
1071
       32
1005
1214A0
  0
LINE
  5
1214A1
  8
SLIM
 10
7944.6051224213861
 20
-1024.999999999997
 30
0.0
 11
7964.6051224213852
 21
-1004.999999999998
 31
0.0
1001
ACAD
1010
0.0
1020
0.0
1030
0.0
1001
ACDBBLOCKREPETAG
1070
     1
1071
       33
1005
1214A1
  0
LINE
  5
1214A2
  8
SLIM
 10
7964.6051224213852
 20
-1004.999999999998
 30
0.0
 11
8083.051837154364
 21
-886.55328526701703
 31
0.0
1001
ACAD
1010
0.0
1020
0.0
1030
0.0
1001
ACDBBLOCKREPETAG
1070
     1
1071
       34
1005
1214A2
  0
LINE
  5
1214A3
  8
SLIM
 10
7962.5656346635242
 20
-1024.999999999997
 30
0.0
 11
7982.5656346635215
 21
-1004.999999999998
 31
0.0
1001
ACAD
1010
0.0
1020
0.0
1030
0.0
1001
ACDBBLOCKREPETAG
1070
     1
1071
       35
1005
1214A3
  0
LINE
  5
1214A4
  8
SLIM
 10
7982.5656346635215
 20
-1004.999999999998
 30
0.0
 11
8080.1128442420159
 21
-907.45279042150526
 31
0.0
1001
ACAD
1010
0.0
1020
0.0
1030
0.0
1001
ACDBBLOCKREPETAG
1070
     1
1071
       36
1005
1214A4
  0
LINE
  5
1214A5
  8
SLIM
 10
7980.5261469056622
 20
-1024.999999999997
 30
0.0
 11
8000.5261469056613
 21
-1004.999999999998
 31
0.0
1001
ACAD
1010
0.0
1020
0.0
1030
0.0
1001
ACDBBLOCKREPETAG
1070
     1
1071
       37
1005
1214A5
  0
LINE
  5
1214A6
  8
SLIM
 10
8000.5261469056613
 20
-1004.999999999998
 30
0.0
 11
8077.1738513296659
 21
-928.35229557599314
 31
0.0
1001
ACAD
1010
0.0
1020
0.0
1030
0.0
1001
ACDBBLOCKREPETAG
1070
     1
1071
       38
1005
1214A6
  0
LINE
  5
1214A7
  8
SLIM
 10
7998.4866591478003
 20
-1024.999999999997
 30
0.0
 11
8018.4866591478003
 21
-1004.999999999998
 31
0.0
1001
ACAD
1010
0.0
1020
0.0
1030
0.0
1001
ACDBBLOCKREPETAG
1070
     1
1071
       39
1005
1214A7
  0
LINE
  5
1214A8
  8
SLIM
 10
8018.4866591478003
 20
-1004.999999999998
 30
0.0
 11
8074.234858417316
 21
-949.25180073048125
 31
0.0
1001
ACAD
1010
0.0
1020
0.0
1030
0.0
1001
ACDBBLOCKREPETAG
1070
     1
1071
       40
1005
1214A8
  0
LINE
  5
1214A9
  8
SLIM
 10
8016.4471713899393
 20
-1024.999999999997
 30
0.0
 11
8036.4471713899393
 21
-1004.999999999998
 31
0.0
1001
ACAD
1010
0.0
1020
0.0
1030
0.0
1001
ACDBBLOCKREPETAG
1070
     1
1071
       41
1005
1214A9
  0
LINE
  5
1214AA
  8
SLIM
 10
8036.4471713899393
 20
-1004.999999999998
 30
0.0
 11
8071.2958655049679
 21
-970.15130588496913
 31
0.0
1001
ACAD
1010
0.0
1020
0.0
1030
0.0
1001
ACDBBLOCKREPETAG
1070
     1
1071
       42
1005
1214AA
  0
LINE
  5
1214AB
  8
SLIM
 10
8034.4076836320774
 20
-1024.999999999997
 30
0.0
 11
8054.4076836320764
 21
-1004.999999999998
 31
0.0
1001
ACAD
1010
0.0
1020
0.0
1030
0.0
1001
ACDBBLOCKREPETAG
1070
     1
1071
       43
1005
1214AB
  0
LINE
  5
1214AC
  8
SLIM
 10
8054.4076836320764
 20
-1004.999999999998
 30
0.0
 11
8068.3568725926198
 21
-991.05081103945713
 31
0.0
1001
ACAD
1010
0.0
1020
0.0
1030
0.0
1001
ACDBBLOCKREPETAG
1070
     1
1071
       44
1005
1214AC
  0
LINE
  5
1214AD
  8
SLIM
 10
8052.3681958742136
 20
-1024.999999999997
 30
0.0
 11
8057.0
 21
-1020.368195874212
 31
0.0
1001
ACAD
1010
0.0
1020
0.0
1030
0.0
1001
ACDBBLOCKREPETAG
1070
     1
1071
       45
1005
1214AD
  0
LINE
  5
1214AE
  8
OBJECT
 10
7943.0
 20
-1024.999999999997
 30
0.0
 11
8057.0
 21
-1024.999999999997
 31
0.0
1001
ACDBBLOCKREPETAG
1070
     1
1071
        1
1005
1214AE
  0
LINE
  5
1214AF
  8
OBJECT
 10
7933.6047321049664
 20
-1004.999999999998
 30
0.0
 11
8066.3952678950427
 21
-1004.999999999998
 31
0.0
1001
ACDBBLOCKREPETAG
1070
     1
1071
        2
1005
1214AF
  0
LINE
  5
1214B0
  8
OBJECT
 10
7943.0
 20
-1024.999999999997
 30
0.0
 11
7943.0
 21
-1004.999999999998
 31
0.0
1001
ACDBBLOCKREPETAG
1070
     1
1071
        3
1005
1214B0
  0
LINE
  5
1214B1
  8
OBJECT
 10
8057.0
 20
-1024.999999999997
 30
0.0
 11
8057.0
 21
-1004.999999999998
 31
0.0
1001
ACDBBLOCKREPETAG
1070
     1
1071
        4
1005
1214B1
  0
LINE
  5
1214B2
  8
OBJECT
 10
7914.9999999999918
 20
-654.99999999999966
 30
0.0
 11
7915.0
 21
-872.69968280914077
 31
0.0
1001
ACDBBLOCKREPETAG
1070
     1
1071
        5
1005
1214B2
  0
LINE
  5
1214B3
  8
OBJECT
 10
8085.0000000000064
 20
-654.99999999999966
 30
0.0
 11
8085.0
 21
-872.69968280917192
 31
0.0
1001
ACDBBLOCKREPETAG
1070
     1
1071
        6
1005
1214B3
  0
LINE
  5
1214B4
  8
OBJECT
 10
7915.0
 20
-872.69968280914077
 30
0.0
 11
7933.6047321049664
 21
-1004.999999999998
 31
0.0
1001
ACDBBLOCKREPETAG
1070
     1
1071
        7
1005
1214B4
  0
LINE
  5
1214B5
  8
OBJECT
 10
8066.3952678950427
 20
-1004.999999999998
 30
0.0
 11
8085.0
 21
-872.69968280917192
 31
0.0
1001
ACDBBLOCKREPETAG
1070
     1
1071
        8
1005
1214B5
  0
LINE
  5
1214B6
  8
OBJECT
 10
8085.0000000000064
 20
-654.99999999999966
 30
0.0
 11
7914.9999999999918
 21
-654.99999999999966
 31
0.0
1001
ACDBBLOCKREPETAG
1070
     1
1071
        9
1005
1214B6
  0
LINE
  5
1214B7
  8
OBJECT
 10
1923.0
 20
-470.99999999999937
 30
0.0
 11
1923.0
 21
-449.99999999999937
 31
0.0
1001
ACDBBLOCKREPETAG
1070
     1
1071
        0
1005
1214B7
  0
LINE
  5
1214B8
  8
OBJECT
 10
1923.0
 20
-449.99999999999937
 30
0.0
 11
2077.0
 21
-449.99999999999937
 31
0.0
1001
ACDBBLOCKREPETAG
1070
     1
1071
        1
1005
1214B8
  0
LINE
  5
1214B9
  8
HIDDEN
 10
1943.0
 20
-519.99999999999955
 30
0.0
 11
2057.0
 21
-519.99999999999955
 31
0.0
1001
ACDBBLOCKREPETAG
1070
     1
1071
        2
1005
1214B9
  0
LINE
  5
1214BA
  8
OBJECT
 10
2077.0
 20
-449.99999999999937
 30
0.0
 11
2077.0
 21
-470.99999999999937
 31
0.0
1001
ACDBBLOCKREPETAG
1070
     1
1071
        3
1005
1214BA
  0
LINE
  5
1214BB
  8
OBJECT
 10
2077.0
 20
-470.99999999999937
 30
0.0
 11
1923.0
 21
-470.99999999999937
 31
0.0
1001
ACDBBLOCKREPETAG
1070
     1
1071
        4
1005
1214BB
  0
LINE
  5
1214BC
  8
CENTER
 10
2000.0
 20
-434.99999999999949
 30
0.0
 11
2000.0
 21
-789.99999999999955
 31
0.0
1001
ACDBBLOCKREPETAG
1070
     1
1071
        5
1005
1214BC
  0
LINE
  5
1214BD
  8
OBJECT
 10
1925.0
 20
-533.99999999999955
 30
0.0
 11
1925.0
 21
-777.99999999999955
 31
0.0
1001
ACDBBLOCKREPETAG
1070
     1
1071
        6
1005
1214BD
  0
LINE
  5
1214BE
  8
OBJECT
 10
1928.0
 20
-470.99999999999937
 30
0.0
 11
1928.0
 21
-533.99999999999955
 31
0.0
1001
ACDBBLOCKREPETAG
1070
     1
1071
        7
1005
1214BE
  0
LINE
  5
1214BF
  8
OBJECT
 10
2072.0
 20
-533.99999999999955
 30
0.0
 11
2072.0
 21
-470.99999999999937
 31
0.0
1001
ACDBBLOCKREPETAG
1070
     1
1071
        8
1005
1214BF
  0
LINE
  5
1214C0
  8
OBJECT
 10
1920.0
 20
-777.99999999999955
 30
0.0
 11
2080.0
 21
-777.99999999999955
 31
0.0
1001
ACDBBLOCKREPETAG
1070
     1
1071
        9
1005
1214C0
  0
LINE
  5
1214C1
  8
OBJECT
 10
2080.0
 20
-533.99999999999955
 30
0.0
 11
1925.0
 21
-533.99999999999955
 31
0.0
1001
ACDBBLOCKREPETAG
1070
     1
1071
       10
1005
1214C1
  0
LINE
  5
1214C2
  8
OBJECT
 10
1920.0
 20
-777.99999999999955
 30
0.0
 11
1920.0
 21
-789.99999999999955
 31
0.0
1001
ACDBBLOCKREPETAG
1070
     1
1071
       11
1005
1214C2
  0
LINE
  5
1214C3
  8
OBJECT
 10
1920.0
 20
-789.99999999999955
 30
0.0
 11
2080.0
 21
-789.99999999999955
 31
0.0
1001
ACDBBLOCKREPETAG
1070
     1
1071
       12
1005
1214C3
  0
LINE
  5
1214C4
  8
OBJECT
 10
2080.0
 20
-789.99999999999955
 30
0.0
 11
2080.0
 21
-777.99999999999955
 31
0.0
1001
ACDBBLOCKREPETAG
1070
     1
1071
       13
1005
1214C4
  0
LINE
  5
1214C5
  8
OBJECT
 10
2074.9999999998622
 20
-657.99999999985039
 30
0.0
 11
2075.0
 21
-777.99999999999955
 31
0.0
1001
ACDBBLOCKREPETAG
1070
     1
1071
       15
1005
1214C5
  0
LINE
  5
1214C6
  8
OBJECT
 10
2074.9999908029849
 20
-657.99998602702135
 30
0.0
 11
2080.0
 21
-657.99998602702135
 31
0.0
1001
ACDBBLOCKREPETAG
1070
     1
1071
       16
1005
1214C6
  0
ARC
  5
1214C7
  8
OBJECT
 10
2200.6872746716731
 20
-649.40809941010718
 30
0.0
 40
170.6350503965856
 50
137.44134459184301
 51
149.91949581336559
1001
ACDBBLOCKREPETAG
1070
     1
1071
       17
1005
1214C7
  0
ARC
  5
1214C8
  8
OBJECT
 10
2118.8455987040511
 20
-605.88272669536445
 30
0.0
 40
78.072222021763665
 50
147.4551531038623
 51
164.6636599771798
1001
ACDBBLOCKREPETAG
1070
     1
1071
       18
1005
1214C8
  0
ARC
  5
1214C9
  8
OBJECT
 10
2085.7554349608731
 20
-595.99999999999955
 30
0.0
 40
43.55353926885617
 50
165.6884523007466
 51
194.3115476992534
1001
ACDBBLOCKREPETAG
1070
     1
1071
       19
1005
1214C9
  0
ARC
  5
1214CA
  8
OBJECT
 10
2200.6872746716731
 20
-542.59190058989179
 30
0.0
 40
170.6350503965856
 50
210.0805041866343
 51
222.55865540815699
1001
ACDBBLOCKREPETAG
1070
     1
1071
       20
1005
1214CA
  0
ARC
  5
1214CB
  8
OBJECT
 10
2118.8455987040511
 20
-586.11727330463452
 30
0.0
 40
78.072222021763665
 50
195.3363400228202
 51
212.5448468961377
1001
ACDBBLOCKREPETAG
1070
     1
1071
       21
1005
1214CB
  0
POINT
  5
1214CC
  8
DOTS
 10
2000.0
 20
-654.99999999999966
 30
0.0
1001
ACDBBLOCKREPETAG
1070
     1
1071
      187
1005
1214CC
  0
LINE
  5
1214CD
  8
OBJECT
 10
2024.102933093302
 20
-243.80694712371681
 30
0.0
 11
2020.659656999997
 21
-232.55462199999889
 31
0.0
1001
ACDBBLOCKREPETAG
1070
     1
1071
      300
1005
1214CD
  0
LINE
  5
1214CE
  8
OBJECT
 10
1986.7927499013749
 20
-218.22553374208019
 30
0.0
 11
2020.659656999997
 21
-232.5546219999969
 31
0.0
1001
ACDBBLOCKREPETAG
1070
     1
1071
      302
1005
1214CE
  0
ARC
  5
1214CF
  8
OBJECT
 10
1982.8961697619
 20
-227.4351299990567
 30
0.0
 40
10.0
 50
67.066778292923374
 51
154.0147343702935
1001
ACDBBLOCKREPETAG
1070
     1
1071
      303
1005
1214CF
  0
ARC
  5
1214D0
  8
OBJECT
 10
1986.1488390381271
 20
-225.55386256729159
 30
0.0
 40
7.0
 50
67.066778292923374
 51
154.01473377497121
1001
ACDBBLOCKREPETAG
1070
     1
1071
      304
1005
1214D0
  0
LINE
  5
1214D1
  8
OBJECT
 10
1969.4199755553
 20
-243.89888500818171
 30
0.0
 11
1979.856491823236
 21
-222.48688253356801
 31
0.0
1001
ACDBBLOCKREPETAG
1070
     1
1071
      341
1005
1214D1
  0
LINE
  5
1214D2
  8
OBJECT
 10
1965.2972169006091
 20
-240.71813901882729
 30
0.0
 11
1973.907102266508
 21
-223.05373004430751
 31
0.0
1001
ACDBBLOCKREPETAG
1070
     1
1071
      342
1005
1214D2
  0
ARC
  5
1214D3
  8
OBJECT
 10
1976.579695307315
 20
-207.1289369828437
 30
0.0
 40
60.031113246032611
 50
314.07020130418567
 51
322.33936106091278
1001
ACDBBLOCKREPETAG
1070
     1
1071
      343
1005
1214D3
  0
CIRCLE
  5
1214D4
  8
OBJECT
 10
2000.0
 20
-199.99999999999909
 30
0.0
 40
53.5
1001
ACDBBLOCKREPETAG
1070
     1
1071
      344
1005
1214D4
  0
POINT
  5
1214D5
  8
DOTS
 10
2000.0
 20
-199.99999999999909
 30
0.0
 50
270.0
1001
ACDBBLOCKREPETAG
1070
     1
1071
      362
1005
1214D5
  0
ARC
  5
1214D6
  8
OBJECT
 10
2000.0
 20
-199.99999999999909
 30
0.0
 40
50.0
 50
298.81994300000417
 51
228.52376955967449
1001
ACDBBLOCKREPETAG
1070
     1
1071
        7
1005
1214D6
  0
LINE
  5
1214D7
  8
CENTER
 10
2080.0
 20
-199.99999999999909
 30
0.0
 11
1905.0
 21
-199.99999999999909
 31
0.0
1001
ACDBBLOCKREPETAG
1070
     1
1071
       14
1005
1214D7
  0
LINE
  5
1214D8
  8
CENTER
 10
2000.0
 20
-294.99999999999898
 30
0.0
 11
2000.0
 21
-104.9999999999991
 31
0.0
1001
ACDBBLOCKREPETAG
1070
     1
1071
       15
1005
1214D8
  0
CIRCLE
  5
1214D9
  8
OBJECT
 10
2000.0
 20
-199.99999999999909
 30
0.0
 40
70.0
1001
ACDBBLOCKREPETAG
1070
     1
1071
       16
1005
1214D9
  0
CIRCLE
  5
1214DA
  8
OBJECT
 10
2000.0
 20
-199.99999999999909
 30
0.0
 40
77.0
1001
ACDBBLOCKREPETAG
1070
     1
1071
       17
1005
1214DA
  0
ARC
  5
1214DB
  8
OBJECT
 10
2000.0
 20
-199.99999999999909
 30
0.0
 40
80.0
 50
50.805032573864182
 51
309.1949674261358
1001
ACDBBLOCKREPETAG
1070
     1
1071
       18
1005
1214DB
  0
LINE
  5
1214DC
  8
OBJECT
 10
2045.6618002273251
 20
-137.99999999999909
 30
0.0
 11
2080.0
 21
-137.99999999999909
 31
0.0
1001
ACDBBLOCKREPETAG
1070
     1
1071
       19
1005
1214DC
  0
LINE
  5
1214DD
  8
OBJECT
 10
2045.6618002273251
 20
-261.99999999999909
 30
0.0
 11
2080.0
 21
-261.99999999999909
 31
0.0
1001
ACDBBLOCKREPETAG
1070
     1
1071
       20
1005
1214DD
  0
LINE
  5
1214DE
  8
OBJECT
 10
12085.999999999991
 20
-1123.9999999999991
 30
0.0
 11
12085.999999999991
 21
-1133.9999999999991
 31
0.0
1001
ACDBBLOCKREPETAG
1070
     1
1071
      121
1005
1214DE
  0
LINE
  5
1214DF
  8
OBJECT
 10
12069.999999999991
 20
-1123.9999999999991
 30
0.0
 11
12069.999999999991
 21
-1133.9999999999991
 31
0.0
1001
ACDBBLOCKREPETAG
1070
     1
1071
      122
1005
1214DF
  0
LINE
  5
1214E0
  8
OBJECT
 10
12085.999999999991
 20
-1133.9999999999991
 30
0.0
 11
12069.999999999991
 21
-1133.9999999999991
 31
0.0
1001
ACDBBLOCKREPETAG
1070
     1
1071
      123
1005
1214E0
  0
LINE
  5
1214E1
  8
OBJECT
 10
12090.0
 20
-1084.9999999999959
 30
0.0
 11
11924.0
 21
-1084.9999999999959
 31
0.0
1001
ACDBBLOCKREPETAG
1070
     1
1071
      124
1005
1214E1
  0
LINE
  5
1214E2
  8
OBJECT
 10
12090.0
 20
-1099.9999999999991
 30
0.0
 11
12090.0
 21
-1084.9999999999959
 31
0.0
1001
ACDBBLOCKREPETAG
1070
     1
1071
      125
1005
1214E2
  0
LINE
  5
1214E3
  8
OBJECT
 10
11924.0
 20
-1099.9999999999991
 30
0.0
 11
12090.0
 21
-1099.9999999999991
 31
0.0
1001
ACDBBLOCKREPETAG
1070
     1
1071
      126
1005
1214E3
  0
LINE
  5
1214E4
  8
OBJECT
 10
12067.49999999998
 20
-1099.9999999999991
 30
0.0
 11
12067.49999999998
 21
-1109.9999999999991
 31
0.0
1001
ACDBBLOCKREPETAG
1070
     1
1071
      127
1005
1214E4
  0
LINE
  5
1214E5
  8
OBJECT
 10
12072.999999999991
 20
-1109.9999999999991
 30
0.0
 11
12072.999999999991
 21
-1099.9999999999991
 31
0.0
1001
ACDBBLOCKREPETAG
1070
     1
1071
      128
1005
1214E5
  0
LINE
  5
1214E6
  8
OBJECT
 10
12082.999999999991
 20
-1109.9999999999991
 30
0.0
 11
12082.999999999991
 21
-1099.9999999999991
 31
0.0
1001
ACDBBLOCKREPETAG
1070
     1
1071
      129
1005
1214E6
  0
LINE
  5
1214E7
  8
OBJECT
 10
11924.0
 20
-1109.9999999999991
 30
0.0
 11
11924.0
 21
-1123.9999999999959
 31
0.0
1001
ACDBBLOCKREPETAG
1070
     1
1071
      130
1005
1214E7
  0
LINE
  5
1214E8
  8
OBJECT
 10
12090.0
 20
-1109.9999999999991
 30
0.0
 11
12090.0
 21
-1123.9999999999959
 31
0.0
1001
ACDBBLOCKREPETAG
1070
     1
1071
      131
1005
1214E8
  0
LINE
  5
1214E9
  8
OBJECT
 10
11924.0
 20
-1123.9999999999959
 30
0.0
 11
12090.0
 21
-1123.9999999999959
 31
0.0
1001
ACDBBLOCKREPETAG
1070
     1
1071
      132
1005
1214E9
  0
LINE
  5
1214EA
  8
OBJECT
 10
11924.0
 20
-1109.9999999999991
 30
0.0
 11
12090.0
 21
-1109.9999999999991
 31
0.0
1001
ACDBBLOCKREPETAG
1070
     1
1071
      133
1005
1214EA
  0
LINE
  5
1214EB
  8
OBJECT
 10
11932.49999999998
 20
-1099.9999999999991
 30
0.0
 11
11932.49999999998
 21
-1109.9999999999991
 31
0.0
1001
ACDBBLOCKREPETAG
1070
     1
1071
      134
1005
1214EB
  0
LINE
  5
1214EC
  8
OBJECT
 10
11934.0
 20
-1048.9999999999959
 30
0.0
 11
12065.999999999991
 21
-1048.9999999999959
 31
0.0
1001
ACDBBLOCKREPETAG
1070
     1
1071
      135
1005
1214EC
  0
LINE
  5
1214ED
  8
OBJECT
 10
11924.0
 20
-1099.9999999999991
 30
0.0
 11
11924.0
 21
-1084.9999999999959
 31
0.0
1001
ACDBBLOCKREPETAG
1070
     1
1071
      136
1005
1214ED
  0
LINE
  5
1214EE
  8
HIDDEN
 10
11943.0
 20
-1059.9999999999991
 30
0.0
 11
12057.0
 21
-1059.9999999999991
 31
0.0
1001
ACDBBLOCKREPETAG
1070
     1
1071
      137
1005
1214EE
  0
LINE
  5
1214EF
  8
OBJECT
 10
12086.999999999991
 20
-1083.2
 30
0.0
 11
12086.999999999991
 21
-1084.9999999999991
 31
0.0
1001
ACDBBLOCKREPETAG
1070
     1
1071
      138
1005
1214EF
  0
LINE
  5
1214F0
  8
OBJECT
 10
12068.999999999991
 20
-1083.2
 30
0.0
 11
12068.999999999991
 21
-1084.9999999999991
 31
0.0
1001
ACDBBLOCKREPETAG
1070
     1
1071
      139
1005
1214F0
  0
LINE
  5
1214F1
  8
OBJECT
 10
12072.249999999991
 20
-1073.4999999999991
 30
0.0
 11
12083.749999999991
 21
-1073.4999999999991
 31
0.0
1001
ACDBBLOCKREPETAG
1070
     1
1071
      140
1005
1214F1
  0
LINE
  5
1214F2
  8
OBJECT
 10
12072.249999999991
 20
-1073.4999999999991
 30
0.0
 11
12072.249999999991
 21
-1083.2
 31
0.0
1001
ACDBBLOCKREPETAG
1070
     1
1071
      141
1005
1214F2
  0
LINE
  5
1214F3
  8
OBJECT
 10
12083.749999999991
 20
-1073.4999999999991
 30
0.0
 11
12083.749999999991
 21
-1083.2
 31
0.0
1001
ACDBBLOCKREPETAG
1070
     1
1071
      142
1005
1214F3
  0
LINE
  5
1214F4
  8
OBJECT
 10
11931.99999999998
 20
-1164.9999999999991
 30
0.0
 11
12067.99999999998
 21
-1164.9999999999991
 31
0.0
1001
ACDBBLOCKREPETAG
1070
     1
1071
      143
1005
1214F4
  0
LINE
  5
1214F5
  8
OBJECT
 10
11931.99999999998
 20
-1164.9999999999991
 30
0.0
 11
11931.99999999998
 21
-1123.9999999999991
 31
0.0
1001
ACDBBLOCKREPETAG
1070
     1
1071
      144
1005
1214F5
  0
LINE
  5
1214F6
  8
OBJECT
 10
12067.99999999998
 20
-1164.9999999999991
 30
0.0
 11
12067.99999999998
 21
-1123.9999999999991
 31
0.0
1001
ACDBBLOCKREPETAG
1070
     1
1071
      145
1005
1214F6
  0
LINE
  5
1214F7
  8
OBJECT
 10
12086.999999999991
 20
-1083.2
 30
0.0
 11
12068.999999999991
 21
-1083.2
 31
0.0
1001
ACDBBLOCKREPETAG
1070
     1
1071
      146
1005
1214F7
  0
LINE
  5
1214F8
  8
CENTER
 10
12000.0
 20
-789.99999999999955
 30
0.0
 11
12000.0
 21
-1179.9999999999991
 31
0.0
1001
ACDBBLOCKREPETAG
1070
     1
1071
      147
1005
1214F8
  0
LINE
  5
1214F9
  8
OBJECT
 10
11925.0
 20
-789.99999999999955
 30
0.0
 11
11925.0
 21
-871.99999999999591
 31
0.0
1001
ACDBBLOCKREPETAG
1070
     1
1071
      148
1005
1214F9
  0
LINE
  5
1214FA
  8
OBJECT
 10
12075.0
 20
-789.99999999999955
 30
0.0
 11
12075.0
 21
-871.99999999999204
 31
0.0
1001
ACDBBLOCKREPETAG
1070
     1
1071
      149
1005
1214FA
  0
LINE
  5
1214FB
  8
OBJECT
 10
11925.0
 20
-871.99999999999591
 30
0.0
 11
12075.0
 21
-871.99999999999204
 31
0.0
1001
ACDBBLOCKREPETAG
1070
     1
1071
      150
1005
1214FB
  0
LINE
  5
1214FC
  8
OBJECT
 10
11943.0
 20
-1048.9999999999959
 30
0.0
 11
11943.0
 21
-999.99999999999204
 31
0.0
1001
ACDBBLOCKREPETAG
1070
     1
1071
      151
1005
1214FC
  0
LINE
  5
1214FD
  8
OBJECT
 10
12057.0
 20
-999.99999999999204
 30
0.0
 11
11943.0
 21
-999.99999999999204
 31
0.0
1001
ACDBBLOCKREPETAG
1070
     1
1071
      152
1005
1214FD
  0
LINE
  5
1214FE
  8
OBJECT
 10
12057.0
 20
-999.99999999999204
 30
0.0
 11
12057.0
 21
-1048.9999999999959
 31
0.0
1001
ACDBBLOCKREPETAG
1070
     1
1071
      153
1005
1214FE
  0
LINE
  5
1214FF
  8
OBJECT
 10
11925.0
 20
-871.99999999999591
 30
0.0
 11
11943.0
 21
-999.99999999999204
 31
0.0
1001
ACDBBLOCKREPETAG
1070
     1
1071
      154
1005
1214FF
  0
LINE
  5
121500
  8
OBJECT
 10
12057.0
 20
-999.99999999999204
 30
0.0
 11
12075.0
 21
-871.99999999999204
 31
0.0
1001
ACDBBLOCKREPETAG
1070
     1
1071
      155
1005
121500
  0
LINE
  5
121501
  8
OBJECT
 10
11934.0
 20
-1084.9999999999959
 30
0.0
 11
11934.0
 21
-1048.9999999999959
 31
0.0
1001
ACDBBLOCKREPETAG
1070
     1
1071
      156
1005
121501
  0
LINE
  5
121502
  8
OBJECT
 10
12066.0
 20
-1084.9999999999959
 30
0.0
 11
12065.999999999991
 21
-1048.9999999999959
 31
0.0
1001
ACDBBLOCKREPETAG
1070
     1
1071
      157
1005
121502
  0
LINE
  5
121503
  8
OBJECT
 10
11954.75
 20
-1074.699999999993
 30
0.0
 11
11967.25
 21
-1074.699999999993
 31
0.0
1001
ACDBBLOCKREPETAG
1070
     1
1071
      158
1005
121503
  0
LINE
  5
121504
  8
OBJECT
 10
11946.0
 20
-1084.9999999999959
 30
0.0
 11
11946.0
 21
-1082.699999999996
 31
0.0
1001
ACDBBLOCKREPETAG
1070
     1
1071
      159
1005
121504
  0
LINE
  5
121505
  8
OBJECT
 10
11976.0
 20
-1084.9999999999959
 30
0.0
 11
11976.0
 21
-1082.699999999996
 31
0.0
1001
ACDBBLOCKREPETAG
1070
     1
1071
      160
1005
121505
  0
LINE
  5
121506
  8
OBJECT
 10
11954.75
 20
-1074.699999999993
 30
0.0
 11
11954.75
 21
-1082.699999999996
 31
0.0
1001
ACDBBLOCKREPETAG
1070
     1
1071
      161
1005
121506
  0
LINE
  5
121507
  8
OBJECT
 10
11967.25
 20
-1074.699999999993
 30
0.0
 11
11967.25
 21
-1082.699999999996
 31
0.0
1001
ACDBBLOCKREPETAG
1070
     1
1071
      162
1005
121507
  0
LINE
  5
121508
  8
OBJECT
 10
11946.0
 20
-1082.699999999996
 30
0.0
 11
11976.0
 21
-1082.699999999996
 31
0.0
1001
ACDBBLOCKREPETAG
1070
     1
1071
      163
1005
121508
  0
LINE
  5
121509
  8
OBJECT
 10
11953.0
 20
-1123.9999999999959
 30
0.0
 11
11953.0
 21
-1133.9999999999959
 31
0.0
1001
ACDBBLOCKREPETAG
1070
     1
1071
      164
1005
121509
  0
LINE
  5
12150A
  8
OBJECT
 10
11969.0
 20
-1123.9999999999959
 30
0.0
 11
11969.0
 21
-1133.9999999999959
 31
0.0
1001
ACDBBLOCKREPETAG
1070
     1
1071
      165
1005
12150A
  0
LINE
  5
12150B
  8
OBJECT
 10
11953.0
 20
-1133.9999999999959
 30
0.0
 11
11969.0
 21
-1133.9999999999959
 31
0.0
1001
ACDBBLOCKREPETAG
1070
     1
1071
      166
1005
12150B
  0
LINE
  5
12150C
  8
OBJECT
 10
11966.0
 20
-1109.9999999999959
 30
0.0
 11
11966.0
 21
-1099.9999999999959
 31
0.0
1001
ACDBBLOCKREPETAG
1070
     1
1071
      167
1005
12150C
  0
LINE
  5
12150D
  8
OBJECT
 10
11956.0
 20
-1109.9999999999959
 30
0.0
 11
11956.0
 21
-1099.9999999999959
 31
0.0
1001
ACDBBLOCKREPETAG
1070
     1
1071
      168
1005
12150D
  0
LINE
  5
12150E
  8
OBJECT
 10
10090.0
 20
-1084.9999999999959
 30
0.0
 11
9924.0
 21
-1084.9999999999959
 31
0.0
1001
ACDBBLOCKREPETAG
1070
     1
1071
       12
1005
12150E
  0
LINE
  5
12150F
  8
OBJECT
 10
10066.0
 20
-1048.9999999999959
 30
0.0
 11
9934.0
 21
-1048.9999999999959
 31
0.0
1001
ACDBBLOCKREPETAG
1070
     1
1071
       13
1005
12150F
  0
LINE
  5
121510
  8
OBJECT
 10
10090.0
 20
-1099.9999999999991
 30
0.0
 11
10090.0
 21
-1084.9999999999959
 31
0.0
1001
ACDBBLOCKREPETAG
1070
     1
1071
       14
1005
121510
  0
LINE
  5
121511
  8
OBJECT
 10
9924.0
 20
-1099.9999999999991
 30
0.0
 11
10090.0
 21
-1099.9999999999991
 31
0.0
1001
ACDBBLOCKREPETAG
1070
     1
1071
       15
1005
121511
  0
LINE
  5
121512
  8
OBJECT
 10
10067.49999999998
 20
-1099.9999999999991
 30
0.0
 11
10067.49999999998
 21
-1109.9999999999991
 31
0.0
1001
ACDBBLOCKREPETAG
1070
     1
1071
       16
1005
121512
  0
LINE
  5
121513
  8
OBJECT
 10
9924.0
 20
-1109.9999999999991
 30
0.0
 11
9924.0
 21
-1123.9999999999959
 31
0.0
1001
ACDBBLOCKREPETAG
1070
     1
1071
       17
1005
121513
  0
LINE
  5
121514
  8
OBJECT
 10
10090.0
 20
-1109.9999999999991
 30
0.0
 11
10090.0
 21
-1123.9999999999959
 31
0.0
1001
ACDBBLOCKREPETAG
1070
     1
1071
       18
1005
121514
  0
LINE
  5
121515
  8
OBJECT
 10
9924.0
 20
-1123.9999999999959
 30
0.0
 11
10090.0
 21
-1123.9999999999959
 31
0.0
1001
ACDBBLOCKREPETAG
1070
     1
1071
       19
1005
121515
  0
LINE
  5
121516
  8
OBJECT
 10
9924.0
 20
-1109.9999999999991
 30
0.0
 11
10090.0
 21
-1109.9999999999991
 31
0.0
1001
ACDBBLOCKREPETAG
1070
     1
1071
       20
1005
121516
  0
LINE
  5
121517
  8
OBJECT
 10
9932.4999999999836
 20
-1099.9999999999991
 30
0.0
 11
9932.4999999999836
 21
-1109.9999999999991
 31
0.0
1001
ACDBBLOCKREPETAG
1070
     1
1071
       21
1005
121517
  0
LINE
  5
121518
  8
OBJECT
 10
9924.0
 20
-1099.9999999999991
 30
0.0
 11
9924.0
 21
-1084.9999999999959
 31
0.0
1001
ACDBBLOCKREPETAG
1070
     1
1071
       22
1005
121518
  0
LINE
  5
121519
  8
HIDDEN
 10
9943.0
 20
-1059.9999999999991
 30
0.0
 11
10057.0
 21
-1059.9999999999991
 31
0.0
1001
ACDBBLOCKREPETAG
1070
     1
1071
       23
1005
121519
  0
LINE
  5
12151A
  8
CENTER
 10
10000.0
 20
-789.99999999999955
 30
0.0
 11
10000.0
 21
-1138.9999999999959
 31
0.0
1001
ACDBBLOCKREPETAG
1070
     1
1071
       24
1005
12151A
  0
LINE
  5
12151B
  8
OBJECT
 10
9925.0
 20
-789.99999999999955
 30
0.0
 11
9925.0
 21
-871.99999999999591
 31
0.0
1001
ACDBBLOCKREPETAG
1070
     1
1071
       25
1005
12151B
  0
LINE
  5
12151C
  8
OBJECT
 10
10075.0
 20
-789.99999999999955
 30
0.0
 11
10075.0
 21
-871.99999999999204
 31
0.0
1001
ACDBBLOCKREPETAG
1070
     1
1071
       26
1005
12151C
  0
LINE
  5
12151D
  8
OBJECT
 10
9925.0
 20
-871.99999999999591
 30
0.0
 11
10075.0
 21
-871.99999999999204
 31
0.0
1001
ACDBBLOCKREPETAG
1070
     1
1071
       27
1005
12151D
  0
LINE
  5
12151E
  8
OBJECT
 10
10057.0
 20
-1048.9999999999959
 30
0.0
 11
10057.0
 21
-999.99999999999204
 31
0.0
1001
ACDBBLOCKREPETAG
1070
     1
1071
       28
1005
12151E
  0
LINE
  5
12151F
  8
OBJECT
 10
9943.0
 20
-1048.9999999999959
 30
0.0
 11
9943.0
 21
-999.99999999999204
 31
0.0
1001
ACDBBLOCKREPETAG
1070
     1
1071
       29
1005
12151F
  0
LINE
  5
121520
  8
OBJECT
 10
10057.0
 20
-999.99999999999204
 30
0.0
 11
9943.0
 21
-999.99999999999204
 31
0.0
1001
ACDBBLOCKREPETAG
1070
     1
1071
       30
1005
121520
  0
LINE
  5
121521
  8
OBJECT
 10
9925.0
 20
-871.99999999999591
 30
0.0
 11
9943.0
 21
-999.99999999999204
 31
0.0
1001
ACDBBLOCKREPETAG
1070
     1
1071
       31
1005
121521
  0
LINE
  5
121522
  8
OBJECT
 10
10057.0
 20
-999.99999999999204
 30
0.0
 11
10075.0
 21
-871.99999999999204
 31
0.0
1001
ACDBBLOCKREPETAG
1070
     1
1071
       32
1005
121522
  0
LINE
  5
121523
  8
OBJECT
 10
9934.0
 20
-1048.9999999999959
 30
0.0
 11
9934.0
 21
-1084.9999999999959
 31
0.0
1001
ACDBBLOCKREPETAG
1070
     1
1071
       33
1005
121523
  0
LINE
  5
121524
  8
OBJECT
 10
10066.0
 20
-1048.9999999999959
 30
0.0
 11
10066.0
 21
-1084.9999999999959
 31
0.0
1001
ACDBBLOCKREPETAG
1070
     1
1071
       34
1005
121524
  0
LINE
  5
121525
  8
OBJECT
 10
10082.999999999991
 20
-1109.9999999999959
 30
0.0
 11
10082.999999999991
 21
-1099.9999999999959
 31
0.0
1001
ACDBBLOCKREPETAG
1070
     1
1071
       35
1005
121525
  0
LINE
  5
121526
  8
OBJECT
 10
10072.999999999991
 20
-1109.9999999999959
 30
0.0
 11
10072.999999999991
 21
-1099.9999999999959
 31
0.0
1001
ACDBBLOCKREPETAG
1070
     1
1071
       36
1005
121526
  0
LINE
  5
121527
  8
OBJECT
 10
10068.99999999998
 20
-1079.9999999999959
 30
0.0
 11
10068.99999999998
 21
-1084.9999999999959
 31
0.0
1001
ACDBBLOCKREPETAG
1070
     1
1071
       37
1005
121527
  0
LINE
  5
121528
  8
OBJECT
 10
10087.0
 20
-1079.9999999999959
 30
0.0
 11
10087.0
 21
-1084.9999999999959
 31
0.0
1001
ACDBBLOCKREPETAG
1070
     1
1071
       38
1005
121528
  0
LINE
  5
121529
  8
OBJECT
 10
10087.0
 20
-1079.9999999999959
 30
0.0
 11
10068.99999999998
 21
-1079.9999999999959
 31
0.0
1001
ACDBBLOCKREPETAG
1070
     1
1071
       39
1005
121529
  0
LINE
  5
12152A
  8
OBJECT
 10
10073.0
 20
-1131.9999999999959
 30
0.0
 11
10073.0
 21
-1134.9999999999959
 31
0.0
1001
ACDBBLOCKREPETAG
1070
     1
1071
       40
1005
12152A
  0
LINE
  5
12152B
  8
OBJECT
 10
10073.0
 20
-1134.9999999999959
 30
0.0
 11
10083.0
 21
-1134.9999999999959
 31
0.0
1001
ACDBBLOCKREPETAG
1070
     1
1071
       41
1005
12152B
  0
LINE
  5
12152C
  8
OBJECT
 10
10068.18504542377
 20
-1131.9999999999959
 30
0.0
 11
10087.814954576221
 21
-1131.9999999999959
 31
0.0
1001
ACDBBLOCKREPETAG
1070
     1
1071
       42
1005
12152C
  0
LINE
  5
12152D
  8
OBJECT
 10
10083.0
 20
-1134.9999999999959
 30
0.0
 11
10083.0
 21
-1131.9999999999959
 31
0.0
1001
ACDBBLOCKREPETAG
1070
     1
1071
       43
1005
12152D
  0
LINE
  5
12152E
  8
OBJECT
 10
10068.18503599129
 20
-1123.9999868402549
 30
0.0
 11
10068.18503599129
 21
-1131.9999868402549
 31
0.0
1001
ACDBBLOCKREPETAG
1070
     1
1071
       44
1005
12152E
  0
LINE
  5
12152F
  8
OBJECT
 10
10073.0925013592
 20
-1123.9999868402549
 30
0.0
 11
10073.0925013592
 21
-1131.9999868402549
 31
0.0
1001
ACDBBLOCKREPETAG
1070
     1
1071
       45
1005
12152F
  0
LINE
  5
121530
  8
OBJECT
 10
10082.90743209502
 20
-1123.9999868402549
 30
0.0
 11
10082.90743209502
 21
-1131.9999868402549
 31
0.0
1001
ACDBBLOCKREPETAG
1070
     1
1071
       46
1005
121530
  0
LINE
  5
121531
  8
OBJECT
 10
10087.81499155279
 20
-1123.9999868402549
 30
0.0
 11
10087.81499155279
 21
-1131.9999868402549
 31
0.0
1001
ACDBBLOCKREPETAG
1070
     1
1071
       47
1005
121531
  0
LINE
  5
121532
  8
OBJECT
 10
9968.5
 20
-1079.9999999999959
 30
0.0
 11
9951.9999999999909
 21
-1079.9999999999959
 31
0.0
1001
ACDBBLOCKREPETAG
1070
     1
1071
       48
1005
121532
  0
LINE
  5
121533
  8
OBJECT
 10
9976.0
 20
-1084.9999999999959
 30
0.0
 11
9976.0
 21
-1082.9999999999959
 31
0.0
1001
ACDBBLOCKREPETAG
1070
     1
1071
       49
1005
121533
  0
LINE
  5
121534
  8
OBJECT
 10
9966.0
 20
-1109.9999999999959
 30
0.0
 11
9966.0
 21
-1099.9999999999959
 31
0.0
1001
ACDBBLOCKREPETAG
1070
     1
1071
       50
1005
121534
  0
LINE
  5
121535
  8
OBJECT
 10
9956.0
 20
-1109.9999999999959
 30
0.0
 11
9956.0
 21
-1099.9999999999959
 31
0.0
1001
ACDBBLOCKREPETAG
1070
     1
1071
       51
1005
121535
  0
LINE
  5
121536
  8
OBJECT
 10
9951.9999999999909
 20
-1079.9999999999959
 30
0.0
 11
9951.9999999999909
 21
-1084.9999999999959
 31
0.0
1001
ACDBBLOCKREPETAG
1070
     1
1071
       52
1005
121536
  0
LINE
  5
121537
  8
OBJECT
 10
9956.0
 20
-1131.9999999999959
 30
0.0
 11
9956.0
 21
-1134.9999999999959
 31
0.0
1001
ACDBBLOCKREPETAG
1070
     1
1071
       53
1005
121537
  0
LINE
  5
121538
  8
OBJECT
 10
9956.0
 20
-1134.9999999999959
 30
0.0
 11
9966.0
 21
-1134.9999999999959
 31
0.0
1001
ACDBBLOCKREPETAG
1070
     1
1071
       54
1005
121538
  0
LINE
  5
121539
  8
OBJECT
 10
9951.185045423772
 20
-1131.9999999999959
 30
0.0
 11
9970.814954576219
 21
-1131.9999999999959
 31
0.0
1001
ACDBBLOCKREPETAG
1070
     1
1071
       55
1005
121539
  0
LINE
  5
12153A
  8
OBJECT
 10
9966.0
 20
-1134.9999999999959
 30
0.0
 11
9966.0
 21
-1131.9999999999959
 31
0.0
1001
ACDBBLOCKREPETAG
1070
     1
1071
       56
1005
12153A
  0
LINE
  5
12153B
  8
OBJECT
 10
9976.0
 20
-1082.9999999999959
 30
0.0
 11
9968.5
 21
-1079.9999999999959
 31
0.0
1001
ACDBBLOCKREPETAG
1070
     1
1071
       57
1005
12153B
  0
LINE
  5
12153C
  8
OBJECT
 10
9951.1850359912914
 20
-1123.9999868402549
 30
0.0
 11
9951.1850359912914
 21
-1131.9999868402549
 31
0.0
1001
ACDBBLOCKREPETAG
1070
     1
1071
       58
1005
12153C
  0
LINE
  5
12153D
  8
OBJECT
 10
9956.0925013591986
 20
-1123.9999868402549
 30
0.0
 11
9956.0925013591986
 21
-1131.9999868402549
 31
0.0
1001
ACDBBLOCKREPETAG
1070
     1
1071
       59
1005
12153D
  0
LINE
  5
12153E
  8
OBJECT
 10
9965.907432095024
 20
-1123.9999868402549
 30
0.0
 11
9965.907432095024
 21
-1131.9999868402549
 31
0.0
1001
ACDBBLOCKREPETAG
1070
     1
1071
       60
1005
12153E
  0
LINE
  5
12153F
  8
OBJECT
 10
9970.8149915528011
 20
-1123.9999868402549
 30
0.0
 11
9970.8149915528011
 21
-1131.9999868402549
 31
0.0
1001
ACDBBLOCKREPETAG
1070
     1
1071
       61
1005
12153F
  0
LINE
  5
121540
  8
OBJECT
 10
7943.0
 20
-1099.9999999999959
 30
0.0
 11
8057.0
 21
-1099.9999999999959
 31
0.0
1001
ACDBBLOCKREPETAG
1070
     1
1071
        0
1005
121540
  0
LINE
  5
121541
  8
OBJECT
 10
7943.0
 20
-1099.9999999999959
 30
0.0
 11
7943.0
 21
-999.99999999999602
 31
0.0
1001
ACDBBLOCKREPETAG
1070
     1
1071
        1
1005
121541
  0
LINE
  5
121542
  8
OBJECT
 10
8057.0
 20
-1099.9999999999959
 30
0.0
 11
8057.0
 21
-999.99999999999602
 31
0.0
1001
ACDBBLOCKREPETAG
1070
     1
1071
        2
1005
121542
  0
LINE
  5
121543
  8
OBJECT
 10
7943.0
 20
-999.99999999999602
 30
0.0
 11
8057.0
 21
-999.99999999999602
 31
0.0
1001
ACDBBLOCKREPETAG
1070
     1
1071
        3
1005
121543
  0
LINE
  5
121544
  8
HIDDEN
 10
7950.0
 20
-999.99999999999602
 30
0.0
 11
7950.0
 21
-1099.9999999999959
 31
0.0
1001
ACDBBLOCKREPETAG
1070
     1
1071
        4
1005
121544
  0
LINE
  5
121545
  8
HIDDEN
 10
8050.0
 20
-999.99999999999602
 30
0.0
 11
8050.0
 21
-1099.9999999999959
 31
0.0
1001
ACDBBLOCKREPETAG
1070
     1
1071
        5
1005
121545
  0
LINE
  5
121546
  8
CENTER
 10
8000.0
 20
-789.99999999999955
 30
0.0
 11
8000.0
 21
-1114.9999999999959
 31
0.0
1001
ACDBBLOCKREPETAG
1070
     1
1071
        6
1005
121546
  0
LINE
  5
121547
  8
OBJECT
 10
7925.0
 20
-789.99999999999955
 30
0.0
 11
7925.0
 21
-871.99999999999591
 31
0.0
1001
ACDBBLOCKREPETAG
1070
     1
1071
        7
1005
121547
  0
LINE
  5
121548
  8
OBJECT
 10
8075.0
 20
-789.99999999999955
 30
0.0
 11
8075.0
 21
-871.99999999999591
 31
0.0
1001
ACDBBLOCKREPETAG
1070
     1
1071
        8
1005
121548
  0
LINE
  5
121549
  8
OBJECT
 10
7925.0
 20
-871.99999999999591
 30
0.0
 11
8075.0
 21
-871.99999999999591
 31
0.0
1001
ACDBBLOCKREPETAG
1070
     1
1071
        9
1005
121549
  0
LINE
  5
12154A
  8
OBJECT
 10
7925.0
 20
-871.99999999999591
 30
0.0
 11
7943.0
 21
-999.99999999999602
 31
0.0
1001
ACDBBLOCKREPETAG
1070
     1
1071
       10
1005
12154A
  0
LINE
  5
12154B
  8
OBJECT
 10
8057.0
 20
-999.99999999999602
 30
0.0
 11
8075.0
 21
-871.99999999999591
 31
0.0
1001
ACDBBLOCKREPETAG
1070
     1
1071
       11
1005
12154B
  0
LINE
  5
12154C
  8
OBJECT
 10
6085.9999999999927
 20
-1123.9999999999991
 30
0.0
 11
6085.9999999999927
 21
-1133.9999999999991
 31
0.0
1001
ACDBBLOCKREPETAG
1070
     1
1071
      121
1005
12154C
  0
LINE
  5
12154D
  8
OBJECT
 10
6069.9999999999927
 20
-1123.9999999999991
 30
0.0
 11
6069.9999999999927
 21
-1133.9999999999991
 31
0.0
1001
ACDBBLOCKREPETAG
1070
     1
1071
      122
1005
12154D
  0
LINE
  5
12154E
  8
OBJECT
 10
6085.9999999999927
 20
-1133.9999999999991
 30
0.0
 11
6069.9999999999927
 21
-1133.9999999999991
 31
0.0
1001
ACDBBLOCKREPETAG
1070
     1
1071
      123
1005
12154E
  0
LINE
  5
12154F
  8
OBJECT
 10
6090.0
 20
-1084.9999999999959
 30
0.0
 11
5924.0
 21
-1084.9999999999959
 31
0.0
1001
ACDBBLOCKREPETAG
1070
     1
1071
      124
1005
12154F
  0
LINE
  5
121550
  8
OBJECT
 10
6090.0
 20
-1099.9999999999991
 30
0.0
 11
6090.0
 21
-1084.9999999999959
 31
0.0
1001
ACDBBLOCKREPETAG
1070
     1
1071
      125
1005
121550
  0
LINE
  5
121551
  8
OBJECT
 10
5924.0
 20
-1099.9999999999991
 30
0.0
 11
6090.0
 21
-1099.9999999999991
 31
0.0
1001
ACDBBLOCKREPETAG
1070
     1
1071
      126
1005
121551
  0
LINE
  5
121552
  8
OBJECT
 10
6067.4999999999864
 20
-1099.9999999999991
 30
0.0
 11
6067.4999999999864
 21
-1109.9999999999991
 31
0.0
1001
ACDBBLOCKREPETAG
1070
     1
1071
      127
1005
121552
  0
LINE
  5
121553
  8
OBJECT
 10
6072.9999999999927
 20
-1109.9999999999991
 30
0.0
 11
6072.9999999999927
 21
-1099.9999999999991
 31
0.0
1001
ACDBBLOCKREPETAG
1070
     1
1071
      128
1005
121553
  0
LINE
  5
121554
  8
OBJECT
 10
6082.9999999999927
 20
-1109.9999999999991
 30
0.0
 11
6082.9999999999927
 21
-1099.9999999999991
 31
0.0
1001
ACDBBLOCKREPETAG
1070
     1
1071
      129
1005
121554
  0
LINE
  5
121555
  8
OBJECT
 10
5924.0
 20
-1109.9999999999991
 30
0.0
 11
5924.0
 21
-1123.9999999999959
 31
0.0
1001
ACDBBLOCKREPETAG
1070
     1
1071
      130
1005
121555
  0
LINE
  5
121556
  8
OBJECT
 10
6090.0
 20
-1109.9999999999991
 30
0.0
 11
6090.0
 21
-1123.9999999999959
 31
0.0
1001
ACDBBLOCKREPETAG
1070
     1
1071
      131
1005
121556
  0
LINE
  5
121557
  8
OBJECT
 10
5924.0
 20
-1123.9999999999959
 30
0.0
 11
6090.0
 21
-1123.9999999999959
 31
0.0
1001
ACDBBLOCKREPETAG
1070
     1
1071
      132
1005
121557
  0
LINE
  5
121558
  8
OBJECT
 10
5924.0
 20
-1109.9999999999991
 30
0.0
 11
6090.0
 21
-1109.9999999999991
 31
0.0
1001
ACDBBLOCKREPETAG
1070
     1
1071
      133
1005
121558
  0
LINE
  5
121559
  8
OBJECT
 10
5932.4999999999864
 20
-1099.9999999999991
 30
0.0
 11
5932.4999999999864
 21
-1109.9999999999991
 31
0.0
1001
ACDBBLOCKREPETAG
1070
     1
1071
      134
1005
121559
  0
LINE
  5
12155A
  8
OBJECT
 10
5934.0
 20
-1048.9999999999959
 30
0.0
 11
6065.9999999999909
 21
-1048.9999999999959
 31
0.0
1001
ACDBBLOCKREPETAG
1070
     1
1071
      135
1005
12155A
  0
LINE
  5
12155B
  8
OBJECT
 10
5924.0
 20
-1099.9999999999991
 30
0.0
 11
5924.0
 21
-1084.9999999999959
 31
0.0
1001
ACDBBLOCKREPETAG
1070
     1
1071
      136
1005
12155B
  0
LINE
  5
12155C
  8
HIDDEN
 10
5943.0
 20
-1059.9999999999991
 30
0.0
 11
6057.0
 21
-1059.9999999999991
 31
0.0
1001
ACDBBLOCKREPETAG
1070
     1
1071
      137
1005
12155C
  0
LINE
  5
12155D
  8
OBJECT
 10
6086.9999999999918
 20
-1083.2
 30
0.0
 11
6086.9999999999918
 21
-1084.9999999999991
 31
0.0
1001
ACDBBLOCKREPETAG
1070
     1
1071
      138
1005
12155D
  0
LINE
  5
12155E
  8
OBJECT
 10
6068.9999999999909
 20
-1083.2
 30
0.0
 11
6068.9999999999909
 21
-1084.9999999999991
 31
0.0
1001
ACDBBLOCKREPETAG
1070
     1
1071
      139
1005
12155E
  0
LINE
  5
12155F
  8
OBJECT
 10
6072.2499999999927
 20
-1073.4999999999991
 30
0.0
 11
6083.7499999999927
 21
-1073.4999999999991
 31
0.0
1001
ACDBBLOCKREPETAG
1070
     1
1071
      140
1005
12155F
  0
LINE
  5
121560
  8
OBJECT
 10
6072.2499999999927
 20
-1073.4999999999991
 30
0.0
 11
6072.2499999999927
 21
-1083.2
 31
0.0
1001
ACDBBLOCKREPETAG
1070
     1
1071
      141
1005
121560
  0
LINE
  5
121561
  8
OBJECT
 10
6083.7499999999927
 20
-1073.4999999999991
 30
0.0
 11
6083.7499999999927
 21
-1083.2
 31
0.0
1001
ACDBBLOCKREPETAG
1070
     1
1071
      142
1005
121561
  0
LINE
  5
121562
  8
OBJECT
 10
5931.9999999999873
 20
-1164.9999999999991
 30
0.0
 11
6067.9999999999873
 21
-1164.9999999999991
 31
0.0
1001
ACDBBLOCKREPETAG
1070
     1
1071
      143
1005
121562
  0
LINE
  5
121563
  8
OBJECT
 10
5931.9999999999873
 20
-1164.9999999999991
 30
0.0
 11
5931.9999999999873
 21
-1123.9999999999991
 31
0.0
1001
ACDBBLOCKREPETAG
1070
     1
1071
      144
1005
121563
  0
LINE
  5
121564
  8
OBJECT
 10
6067.9999999999873
 20
-1164.9999999999991
 30
0.0
 11
6067.9999999999873
 21
-1123.9999999999991
 31
0.0
1001
ACDBBLOCKREPETAG
1070
     1
1071
      145
1005
121564
  0
LINE
  5
121565
  8
OBJECT
 10
6086.9999999999918
 20
-1083.2
 30
0.0
 11
6068.9999999999909
 21
-1083.2
 31
0.0
1001
ACDBBLOCKREPETAG
1070
     1
1071
      146
1005
121565
  0
LINE
  5
121566
  8
CENTER
 10
6000.0
 20
-789.99999999999955
 30
0.0
 11
6000.0
 21
-1179.9999999999991
 31
0.0
1001
ACDBBLOCKREPETAG
1070
     1
1071
      147
1005
121566
  0
LINE
  5
121567
  8
OBJECT
 10
5925.0
 20
-789.99999999999955
 30
0.0
 11
5925.0
 21
-871.99999999999591
 31
0.0
1001
ACDBBLOCKREPETAG
1070
     1
1071
      148
1005
121567
  0
LINE
  5
121568
  8
OBJECT
 10
6075.0
 20
-789.99999999999955
 30
0.0
 11
6075.0
 21
-871.99999999999204
 31
0.0
1001
ACDBBLOCKREPETAG
1070
     1
1071
      149
1005
121568
  0
LINE
  5
121569
  8
OBJECT
 10
5925.0
 20
-871.99999999999591
 30
0.0
 11
6075.0
 21
-871.99999999999204
 31
0.0
1001
ACDBBLOCKREPETAG
1070
     1
1071
      150
1005
121569
  0
LINE
  5
12156A
  8
OBJECT
 10
5943.0
 20
-1048.9999999999959
 30
0.0
 11
5943.0
 21
-999.99999999999204
 31
0.0
1001
ACDBBLOCKREPETAG
1070
     1
1071
      151
1005
12156A
  0
LINE
  5
12156B
  8
OBJECT
 10
6057.0
 20
-999.99999999999204
 30
0.0
 11
5943.0
 21
-999.99999999999204
 31
0.0
1001
ACDBBLOCKREPETAG
1070
     1
1071
      152
1005
12156B
  0
LINE
  5
12156C
  8
OBJECT
 10
6057.0
 20
-999.99999999999204
 30
0.0
 11
6057.0
 21
-1048.9999999999959
 31
0.0
1001
ACDBBLOCKREPETAG
1070
     1
1071
      153
1005
12156C
  0
LINE
  5
12156D
  8
OBJECT
 10
5925.0
 20
-871.99999999999591
 30
0.0
 11
5943.0
 21
-999.99999999999204
 31
0.0
1001
ACDBBLOCKREPETAG
1070
     1
1071
      154
1005
12156D
  0
LINE
  5
12156E
  8
OBJECT
 10
6057.0
 20
-999.99999999999204
 30
0.0
 11
6075.0
 21
-871.99999999999204
 31
0.0
1001
ACDBBLOCKREPETAG
1070
     1
1071
      155
1005
12156E
  0
LINE
  5
12156F
  8
OBJECT
 10
5934.0
 20
-1084.9999999999959
 30
0.0
 11
5934.0
 21
-1048.9999999999959
 31
0.0
1001
ACDBBLOCKREPETAG
1070
     1
1071
      156
1005
12156F
  0
LINE
  5
121570
  8
OBJECT
 10
6066.0
 20
-1084.9999999999959
 30
0.0
 11
6065.9999999999909
 21
-1048.9999999999959
 31
0.0
1001
ACDBBLOCKREPETAG
1070
     1
1071
      157
1005
121570
  0
LINE
  5
121571
  8
OBJECT
 10
5954.75
 20
-1074.699999999993
 30
0.0
 11
5967.2499999999991
 21
-1074.699999999993
 31
0.0
1001
ACDBBLOCKREPETAG
1070
     1
1071
      158
1005
121571
  0
LINE
  5
121572
  8
OBJECT
 10
5946.0
 20
-1084.9999999999959
 30
0.0
 11
5946.0
 21
-1082.699999999996
 31
0.0
1001
ACDBBLOCKREPETAG
1070
     1
1071
      159
1005
121572
  0
LINE
  5
121573
  8
OBJECT
 10
5976.0
 20
-1084.9999999999959
 30
0.0
 11
5976.0
 21
-1082.699999999996
 31
0.0
1001
ACDBBLOCKREPETAG
1070
     1
1071
      160
1005
121573
  0
LINE
  5
121574
  8
OBJECT
 10
5954.75
 20
-1074.699999999993
 30
0.0
 11
5954.75
 21
-1082.699999999996
 31
0.0
1001
ACDBBLOCKREPETAG
1070
     1
1071
      161
1005
121574
  0
LINE
  5
121575
  8
OBJECT
 10
5967.2499999999991
 20
-1074.699999999993
 30
0.0
 11
5967.2499999999991
 21
-1082.699999999996
 31
0.0
1001
ACDBBLOCKREPETAG
1070
     1
1071
      162
1005
121575
  0
LINE
  5
121576
  8
OBJECT
 10
5946.0
 20
-1082.699999999996
 30
0.0
 11
5976.0
 21
-1082.699999999996
 31
0.0
1001
ACDBBLOCKREPETAG
1070
     1
1071
      163
1005
121576
  0
LINE
  5
121577
  8
OBJECT
 10
5953.0
 20
-1123.9999999999959
 30
0.0
 11
5953.0
 21
-1133.9999999999959
 31
0.0
1001
ACDBBLOCKREPETAG
1070
     1
1071
      164
1005
121577
  0
LINE
  5
121578
  8
OBJECT
 10
5969.0
 20
-1123.9999999999959
 30
0.0
 11
5969.0
 21
-1133.9999999999959
 31
0.0
1001
ACDBBLOCKREPETAG
1070
     1
1071
      165
1005
121578
  0
LINE
  5
121579
  8
OBJECT
 10
5953.0
 20
-1133.9999999999959
 30
0.0
 11
5969.0
 21
-1133.9999999999959
 31
0.0
1001
ACDBBLOCKREPETAG
1070
     1
1071
      166
1005
121579
  0
LINE
  5
12157A
  8
OBJECT
 10
5966.0
 20
-1109.9999999999959
 30
0.0
 11
5966.0
 21
-1099.9999999999959
 31
0.0
1001
ACDBBLOCKREPETAG
1070
     1
1071
      167
1005
12157A
  0
LINE
  5
12157B
  8
OBJECT
 10
5956.0
 20
-1109.9999999999959
 30
0.0
 11
5956.0
 21
-1099.9999999999959
 31
0.0
1001
ACDBBLOCKREPETAG
1070
     1
1071
      168
1005
12157B
  0
LINE
  5
12157C
  8
OBJECT
 10
4090.0
 20
-1084.9999999999959
 30
0.0
 11
3924.0
 21
-1084.9999999999959
 31
0.0
1001
ACDBBLOCKREPETAG
1070
     1
1071
       12
1005
12157C
  0
LINE
  5
12157D
  8
OBJECT
 10
4066.0
 20
-1048.9999999999959
 30
0.0
 11
3934.0
 21
-1048.9999999999959
 31
0.0
1001
ACDBBLOCKREPETAG
1070
     1
1071
       13
1005
12157D
  0
LINE
  5
12157E
  8
OBJECT
 10
4090.0
 20
-1099.9999999999991
 30
0.0
 11
4090.0
 21
-1084.9999999999959
 31
0.0
1001
ACDBBLOCKREPETAG
1070
     1
1071
       14
1005
12157E
  0
LINE
  5
12157F
  8
OBJECT
 10
3924.0
 20
-1099.9999999999991
 30
0.0
 11
4090.0
 21
-1099.9999999999991
 31
0.0
1001
ACDBBLOCKREPETAG
1070
     1
1071
       15
1005
12157F
  0
LINE
  5
121580
  8
OBJECT
 10
4067.4999999999841
 20
-1099.9999999999991
 30
0.0
 11
4067.4999999999841
 21
-1109.9999999999991
 31
0.0
1001
ACDBBLOCKREPETAG
1070
     1
1071
       16
1005
121580
  0
LINE
  5
121581
  8
OBJECT
 10
3924.0
 20
-1109.9999999999991
 30
0.0
 11
3924.0
 21
-1123.9999999999959
 31
0.0
1001
ACDBBLOCKREPETAG
1070
     1
1071
       17
1005
121581
  0
LINE
  5
121582
  8
OBJECT
 10
4090.0
 20
-1109.9999999999991
 30
0.0
 11
4090.0
 21
-1123.9999999999959
 31
0.0
1001
ACDBBLOCKREPETAG
1070
     1
1071
       18
1005
121582
  0
LINE
  5
121583
  8
OBJECT
 10
3924.0
 20
-1123.9999999999959
 30
0.0
 11
4090.0
 21
-1123.9999999999959
 31
0.0
1001
ACDBBLOCKREPETAG
1070
     1
1071
       19
1005
121583
  0
LINE
  5
121584
  8
OBJECT
 10
3924.0
 20
-1109.9999999999991
 30
0.0
 11
4090.0
 21
-1109.9999999999991
 31
0.0
1001
ACDBBLOCKREPETAG
1070
     1
1071
       20
1005
121584
  0
LINE
  5
121585
  8
OBJECT
 10
3932.499999999985
 20
-1099.9999999999991
 30
0.0
 11
3932.499999999985
 21
-1109.9999999999991
 31
0.0
1001
ACDBBLOCKREPETAG
1070
     1
1071
       21
1005
121585
  0
LINE
  5
121586
  8
OBJECT
 10
3924.0
 20
-1099.9999999999991
 30
0.0
 11
3924.0
 21
-1084.9999999999959
 31
0.0
1001
ACDBBLOCKREPETAG
1070
     1
1071
       22
1005
121586
  0
LINE
  5
121587
  8
HIDDEN
 10
3943.0
 20
-1059.9999999999991
 30
0.0
 11
4057.0
 21
-1059.9999999999991
 31
0.0
1001
ACDBBLOCKREPETAG
1070
     1
1071
       23
1005
121587
  0
LINE
  5
121588
  8
CENTER
 10
4000.0
 20
-789.99999999999955
 30
0.0
 11
4000.0
 21
-1138.9999999999959
 31
0.0
1001
ACDBBLOCKREPETAG
1070
     1
1071
       24
1005
121588
  0
LINE
  5
121589
  8
OBJECT
 10
3925.0
 20
-789.99999999999955
 30
0.0
 11
3925.0
 21
-871.99999999999591
 31
0.0
1001
ACDBBLOCKREPETAG
1070
     1
1071
       25
1005
121589
  0
LINE
  5
12158A
  8
OBJECT
 10
4075.0
 20
-789.99999999999955
 30
0.0
 11
4075.0
 21
-871.99999999999204
 31
0.0
1001
ACDBBLOCKREPETAG
1070
     1
1071
       26
1005
12158A
  0
LINE
  5
12158B
  8
OBJECT
 10
3925.0
 20
-871.99999999999591
 30
0.0
 11
4075.0
 21
-871.99999999999204
 31
0.0
1001
ACDBBLOCKREPETAG
1070
     1
1071
       27
1005
12158B
  0
LINE
  5
12158C
  8
OBJECT
 10
4057.0
 20
-1048.9999999999959
 30
0.0
 11
4057.0
 21
-999.99999999999204
 31
0.0
1001
ACDBBLOCKREPETAG
1070
     1
1071
       28
1005
12158C
  0
LINE
  5
12158D
  8
OBJECT
 10
3943.0
 20
-1048.9999999999959
 30
0.0
 11
3943.0
 21
-999.99999999999204
 31
0.0
1001
ACDBBLOCKREPETAG
1070
     1
1071
       29
1005
12158D
  0
LINE
  5
12158E
  8
OBJECT
 10
4057.0
 20
-999.99999999999204
 30
0.0
 11
3943.0
 21
-999.99999999999204
 31
0.0
1001
ACDBBLOCKREPETAG
1070
     1
1071
       30
1005
12158E
  0
LINE
  5
12158F
  8
OBJECT
 10
3925.0
 20
-871.99999999999591
 30
0.0
 11
3943.0
 21
-999.99999999999204
 31
0.0
1001
ACDBBLOCKREPETAG
1070
     1
1071
       31
1005
12158F
  0
LINE
  5
121590
  8
OBJECT
 10
4057.0
 20
-999.99999999999204
 30
0.0
 11
4075.0
 21
-871.99999999999204
 31
0.0
1001
ACDBBLOCKREPETAG
1070
     1
1071
       32
1005
121590
  0
LINE
  5
121591
  8
OBJECT
 10
3934.0
 20
-1048.9999999999959
 30
0.0
 11
3934.0
 21
-1084.9999999999959
 31
0.0
1001
ACDBBLOCKREPETAG
1070
     1
1071
       33
1005
121591
  0
LINE
  5
121592
  8
OBJECT
 10
4066.0
 20
-1048.9999999999959
 30
0.0
 11
4066.0
 21
-1084.9999999999959
 31
0.0
1001
ACDBBLOCKREPETAG
1070
     1
1071
       34
1005
121592
  0
LINE
  5
121593
  8
OBJECT
 10
4082.9999999999932
 20
-1109.9999999999959
 30
0.0
 11
4082.9999999999932
 21
-1099.9999999999959
 31
0.0
1001
ACDBBLOCKREPETAG
1070
     1
1071
       35
1005
121593
  0
LINE
  5
121594
  8
OBJECT
 10
4072.9999999999918
 20
-1109.9999999999959
 30
0.0
 11
4072.9999999999918
 21
-1099.9999999999959
 31
0.0
1001
ACDBBLOCKREPETAG
1070
     1
1071
       36
1005
121594
  0
LINE
  5
121595
  8
OBJECT
 10
4068.9999999999841
 20
-1079.9999999999959
 30
0.0
 11
4068.9999999999841
 21
-1084.9999999999959
 31
0.0
1001
ACDBBLOCKREPETAG
1070
     1
1071
       37
1005
121595
  0
LINE
  5
121596
  8
OBJECT
 10
4087.0
 20
-1079.9999999999959
 30
0.0
 11
4087.0
 21
-1084.9999999999959
 31
0.0
1001
ACDBBLOCKREPETAG
1070
     1
1071
       38
1005
121596
  0
LINE
  5
121597
  8
OBJECT
 10
4087.0
 20
-1079.9999999999959
 30
0.0
 11
4068.9999999999841
 21
-1079.9999999999959
 31
0.0
1001
ACDBBLOCKREPETAG
1070
     1
1071
       39
1005
121597
  0
LINE
  5
121598
  8
OBJECT
 10
4073.0
 20
-1131.9999999999959
 30
0.0
 11
4073.0
 21
-1134.9999999999959
 31
0.0
1001
ACDBBLOCKREPETAG
1070
     1
1071
       40
1005
121598
  0
LINE
  5
121599
  8
OBJECT
 10
4073.0
 20
-1134.9999999999959
 30
0.0
 11
4083.0
 21
-1134.9999999999959
 31
0.0
1001
ACDBBLOCKREPETAG
1070
     1
1071
       41
1005
121599
  0
LINE
  5
12159A
  8
OBJECT
 10
4068.185045423772
 20
-1131.9999999999959
 30
0.0
 11
4087.8149545762199
 21
-1131.9999999999959
 31
0.0
1001
ACDBBLOCKREPETAG
1070
     1
1071
       42
1005
12159A
  0
LINE
  5
12159B
  8
OBJECT
 10
4083.0
 20
-1134.9999999999959
 30
0.0
 11
4083.0
 21
-1131.9999999999959
 31
0.0
1001
ACDBBLOCKREPETAG
1070
     1
1071
       43
1005
12159B
  0
LINE
  5
12159C
  8
OBJECT
 10
4068.1850359912942
 20
-1123.9999868402549
 30
0.0
 11
4068.1850359912942
 21
-1131.9999868402549
 31
0.0
1001
ACDBBLOCKREPETAG
1070
     1
1071
       44
1005
12159C
  0
LINE
  5
12159D
  8
OBJECT
 10
4073.0925013591982
 20
-1123.9999868402549
 30
0.0
 11
4073.0925013591982
 21
-1131.9999868402549
 31
0.0
1001
ACDBBLOCKREPETAG
1070
     1
1071
       45
1005
12159D
  0
LINE
  5
12159E
  8
OBJECT
 10
4082.907432095024
 20
-1123.9999868402549
 30
0.0
 11
4082.907432095024
 21
-1131.9999868402549
 31
0.0
1001
ACDBBLOCKREPETAG
1070
     1
1071
       46
1005
12159E
  0
LINE
  5
12159F
  8
OBJECT
 10
4087.814991552797
 20
-1123.9999868402549
 30
0.0
 11
4087.814991552797
 21
-1131.9999868402549
 31
0.0
1001
ACDBBLOCKREPETAG
1070
     1
1071
       47
1005
12159F
  0
LINE
  5
1215A0
  8
OBJECT
 10
3968.5
 20
-1079.9999999999959
 30
0.0
 11
3951.9999999999932
 21
-1079.9999999999959
 31
0.0
1001
ACDBBLOCKREPETAG
1070
     1
1071
       48
1005
1215A0
  0
LINE
  5
1215A1
  8
OBJECT
 10
3976.0
 20
-1084.9999999999959
 30
0.0
 11
3976.0
 21
-1082.9999999999959
 31
0.0
1001
ACDBBLOCKREPETAG
1070
     1
1071
       49
1005
1215A1
  0
LINE
  5
1215A2
  8
OBJECT
 10
3966.0
 20
-1109.9999999999959
 30
0.0
 11
3966.0
 21
-1099.9999999999959
 31
0.0
1001
ACDBBLOCKREPETAG
1070
     1
1071
       50
1005
1215A2
  0
LINE
  5
1215A3
  8
OBJECT
 10
3956.0
 20
-1109.9999999999959
 30
0.0
 11
3956.0
 21
-1099.9999999999959
 31
0.0
1001
ACDBBLOCKREPETAG
1070
     1
1071
       51
1005
1215A3
  0
LINE
  5
1215A4
  8
OBJECT
 10
3951.9999999999932
 20
-1079.9999999999959
 30
0.0
 11
3951.9999999999932
 21
-1084.9999999999959
 31
0.0
1001
ACDBBLOCKREPETAG
1070
     1
1071
       52
1005
1215A4
  0
LINE
  5
1215A5
  8
OBJECT
 10
3956.0
 20
-1131.9999999999959
 30
0.0
 11
3956.0
 21
-1134.9999999999959
 31
0.0
1001
ACDBBLOCKREPETAG
1070
     1
1071
       53
1005
1215A5
  0
LINE
  5
1215A6
  8
OBJECT
 10
3956.0
 20
-1134.9999999999959
 30
0.0
 11
3966.0
 21
-1134.9999999999959
 31
0.0
1001
ACDBBLOCKREPETAG
1070
     1
1071
       54
1005
1215A6
  0
LINE
  5
1215A7
  8
OBJECT
 10
3951.185045423772
 20
-1131.9999999999959
 30
0.0
 11
3970.8149545762212
 21
-1131.9999999999959
 31
0.0
1001
ACDBBLOCKREPETAG
1070
     1
1071
       55
1005
1215A7
  0
LINE
  5
1215A8
  8
OBJECT
 10
3966.0
 20
-1134.9999999999959
 30
0.0
 11
3966.0
 21
-1131.9999999999959
 31
0.0
1001
ACDBBLOCKREPETAG
1070
     1
1071
       56
1005
1215A8
  0
LINE
  5
1215A9
  8
OBJECT
 10
3976.0
 20
-1082.9999999999959
 30
0.0
 11
3968.5
 21
-1079.9999999999959
 31
0.0
1001
ACDBBLOCKREPETAG
1070
     1
1071
       57
1005
1215A9
  0
LINE
  5
1215AA
  8
OBJECT
 10
3951.1850359912951
 20
-1123.9999868402549
 30
0.0
 11
3951.1850359912951
 21
-1131.9999868402549
 31
0.0
1001
ACDBBLOCKREPETAG
1070
     1
1071
       58
1005
1215AA
  0
LINE
  5
1215AB
  8
OBJECT
 10
3956.0925013591991
 20
-1123.9999868402549
 30
0.0
 11
3956.0925013591991
 21
-1131.9999868402549
 31
0.0
1001
ACDBBLOCKREPETAG
1070
     1
1071
       59
1005
1215AB
  0
LINE
  5
1215AC
  8
OBJECT
 10
3965.907432095024
 20
-1123.9999868402549
 30
0.0
 11
3965.907432095024
 21
-1131.9999868402549
 31
0.0
1001
ACDBBLOCKREPETAG
1070
     1
1071
       60
1005
1215AC
  0
LINE
  5
1215AD
  8
OBJECT
 10
3970.8149915527979
 20
-1123.9999868402549
 30
0.0
 11
3970.8149915527979
 21
-1131.9999868402549
 31
0.0
1001
ACDBBLOCKREPETAG
1070
     1
1071
       61
1005
1215AD
  0
LINE
  5
1215AE
  8
OBJECT
 10
1943.0
 20
-1099.9999999999959
 30
0.0
 11
2057.0
 21
-1099.9999999999959
 31
0.0
1001
ACDBBLOCKREPETAG
1070
     1
1071
        0
1005
1215AE
  0
LINE
  5
1215AF
  8
OBJECT
 10
1943.0
 20
-1099.9999999999959
 30
0.0
 11
1943.0
 21
-999.99999999999602
 31
0.0
1001
ACDBBLOCKREPETAG
1070
     1
1071
        1
1005
1215AF
  0
LINE
  5
1215B0
  8
OBJECT
 10
2057.0
 20
-1099.9999999999959
 30
0.0
 11
2057.0
 21
-999.99999999999602
 31
0.0
1001
ACDBBLOCKREPETAG
1070
     1
1071
        2
1005
1215B0
  0
LINE
  5
1215B1
  8
OBJECT
 10
1943.0
 20
-999.99999999999602
 30
0.0
 11
2057.0
 21
-999.99999999999602
 31
0.0
1001
ACDBBLOCKREPETAG
1070
     1
1071
        3
1005
1215B1
  0
LINE
  5
1215B2
  8
HIDDEN
 10
1950.0
 20
-999.99999999999602
 30
0.0
 11
1950.0
 21
-1099.9999999999959
 31
0.0
1001
ACDBBLOCKREPETAG
1070
     1
1071
        4
1005
1215B2
  0
LINE
  5
1215B3
  8
HIDDEN
 10
2050.0
 20
-999.99999999999602
 30
0.0
 11
2050.0
 21
-1099.9999999999959
 31
0.0
1001
ACDBBLOCKREPETAG
1070
     1
1071
        5
1005
1215B3
  0
LINE
  5
1215B4
  8
CENTER
 10
2000.0
 20
-789.99999999999955
 30
0.0
 11
2000.0
 21
-1114.9999999999959
 31
0.0
1001
ACDBBLOCKREPETAG
1070
     1
1071
        6
1005
1215B4
  0
LINE
  5
1215B5
  8
OBJECT
 10
1925.0
 20
-789.99999999999955
 30
0.0
 11
1925.0
 21
-871.99999999999591
 31
0.0
1001
ACDBBLOCKREPETAG
1070
     1
1071
        7
1005
1215B5
  0
LINE
  5
1215B6
  8
OBJECT
 10
2075.0
 20
-789.99999999999955
 30
0.0
 11
2075.0
 21
-871.99999999999591
 31
0.0
1001
ACDBBLOCKREPETAG
1070
     1
1071
        8
1005
1215B6
  0
LINE
  5
1215B7
  8
OBJECT
 10
1925.0
 20
-871.99999999999591
 30
0.0
 11
2075.0
 21
-871.99999999999591
 31
0.0
1001
ACDBBLOCKREPETAG
1070
     1
1071
        9
1005
1215B7
  0
LINE
  5
1215B8
  8
OBJECT
 10
1925.0
 20
-871.99999999999591
 30
0.0
 11
1943.0
 21
-999.99999999999602
 31
0.0
1001
ACDBBLOCKREPETAG
1070
     1
1071
       10
1005
1215B8
  0
LINE
  5
1215B9
  8
OBJECT
 10
2057.0
 20
-999.99999999999602
 30
0.0
 11
2075.0
 21
-871.99999999999591
 31
0.0
1001
ACDBBLOCKREPETAG
1070
     1
1071
       11
1005
1215B9
  0
LINE
  5
1215BA
  8
OBJECT
 10
2202.9999999999859
 20
-483.0000000000008
 30
0.0
 11
2209.9999999999859
 21
-483.0000000000008
 31
0.0
1001
ACDBBLOCKREPETAG
1070
     1
1071
       83
1005
1215BA
  0
LINE
  5
1215BB
  8
OBJECT
 10
2209.9999999999859
 20
-483.0000000000008
 30
0.0
 11
2209.9999999999859
 21
-607.0000000000008
 31
0.0
1001
ACDBBLOCKREPETAG
1070
     1
1071
       84
1005
1215BB
  0
LINE
  5
1215BC
  8
OBJECT
 10
2085.9999999999859
 20
-553.3502637757274
 30
0.0
 11
2085.9999999999859
 21
-655.00000000000068
 31
0.0
1001
ACDBBLOCKREPETAG
1070
     1
1071
       85
1005
1215BC
  0
LINE
  5
1215BD
  8
OBJECT
 10
2209.9999999999859
 20
-607.0000000000008
 30
0.0
 11
2202.9999999999859
 21
-607.0000000000008
 31
0.0
1001
ACDBBLOCKREPETAG
1070
     1
1071
       86
1005
1215BD
  0
LINE
  5
1215BE
  8
OBJECT
 10
2202.9999999999859
 20
-607.0000000000008
 30
0.0
 11
2202.9999999999859
 21
-483.0000000000008
 31
0.0
1001
ACDBBLOCKREPETAG
1070
     1
1071
       87
1005
1215BE
  0
LINE
  5
1215BF
  8
CENTER
 10
2134.9999999999859
 20
-545.0000000000008
 30
0.0
 11
2224.999999999985
 21
-545.0000000000008
 31
0.0
1001
ACDBBLOCKREPETAG
1070
     1
1071
       88
1005
1215BF
  0
LINE
  5
1215C0
  8
OBJECT
 10
2079.9999999999809
 20
-658.0
 30
0.0
 11
2082.999999999985
 21
-658.0000000000008
 31
0.0
1001
ACDBBLOCKREPETAG
1070
     1
1071
       89
1005
1215C0
  0
ARC
  5
1215C1
  8
OBJECT
 10
2082.999999999985
 20
-655.00000000000068
 30
0.0
 40
3.0
 50
270.0
 51
0.0
1001
ACDBBLOCKREPETAG
1070
     1
1071
       90
1005
1215C1
  0
LINE
  5
1215C2
  8
OBJECT
 10
2202.9999999999859
 20
-486.0000000000008
 30
0.0
 11
2166.9999999999859
 21
-486.0000000000008
 31
0.0
1001
ACDBBLOCKREPETAG
1070
     1
1071
       91
1005
1215C2
  0
LINE
  5
1215C3
  8
OBJECT
 10
2166.9999999999859
 20
-486.0000000000008
 30
0.0
 11
2166.9999999999859
 21
-604.0000000000008
 31
0.0
1001
ACDBBLOCKREPETAG
1070
     1
1071
       92
1005
1215C3
  0
LINE
  5
1215C4
  8
OBJECT
 10
2162.9999999999859
 20
-490.5000000000008
 30
0.0
 11
2162.9999999999859
 21
-599.5000000000008
 31
0.0
1001
ACDBBLOCKREPETAG
1070
     1
1071
       93
1005
1215C4
  0
LINE
  5
1215C5
  8
OBJECT
 10
2162.9999999999859
 20
-490.5000000000008
 30
0.0
 11
2149.9999999999859
 21
-490.5000000000008
 31
0.0
1001
ACDBBLOCKREPETAG
1070
     1
1071
       94
1005
1215C5
  0
LINE
  5
1215C6
  8
OBJECT
 10
2166.9999999999859
 20
-604.0000000000008
 30
0.0
 11
2202.9999999999859
 21
-604.0000000000008
 31
0.0
1001
ACDBBLOCKREPETAG
1070
     1
1071
       95
1005
1215C6
  0
LINE
  5
1215C7
  8
OBJECT
 10
2166.9999999999859
 20
-486.0000000000008
 30
0.0
 11
2162.9999999999859
 21
-490.5000000000008
 31
0.0
1001
ACDBBLOCKREPETAG
1070
     1
1071
       96
1005
1215C7
  0
LINE
  5
1215C8
  8
OBJECT
 10
2149.9999999999859
 20
-490.5000000000008
 30
0.0
 11
2149.9999999999859
 21
-575.74491827928784
 31
0.0
1001
ACDBBLOCKREPETAG
1070
     1
1071
       97
1005
1215C8
  0
ARC
  5
1215C9
  8
OBJECT
 10
2152.7999999999838
 20
-585.00000000000068
 30
0.0
 40
85.0
 50
91.887731891831123
 51
143.1301023540934
1001
ACDBBLOCKREPETAG
1070
     1
1071
       98
1005
1215C9
  0
LINE
  5
1215CA
  8
HIDDEN
 10
2157.9999999999859
 20
-500.5000000000008
 30
0.0
 11
2157.9999999999859
 21
-589.5000000000008
 31
0.0
1001
ACDBBLOCKREPETAG
1070
     1
1071
      100
1005
1215CA
  0
LINE
  5
1215CB
  8
OBJECT
 10
2085.9999999999859
 20
-651.07945073181781
 30
0.0
 11
2156.6313199210308
 21
-599.5000000000008
 31
0.0
1001
ACDBBLOCKREPETAG
1070
     1
1071
      101
1005
1215CB
  0
LINE
  5
1215CC
  8
OBJECT
 10
2079.9999999999809
 20
-534.0
 30
0.0
 11
2084.7999999999852
 21
-534.0
 31
0.0
1001
ACDBBLOCKREPETAG
1070
     1
1071
      102
1005
1215CC
  0
LINE
  5
1215CD
  8
OBJECT
 10
2085.9999999999859
 20
-553.35026377573001
 30
0.0
 11
2084.7999999999852
 21
-534.0
 31
0.0
1001
ACDBBLOCKREPETAG
1070
     1
1071
      103
1005
1215CD
  0
LINE
  5
1215CE
  8
OBJECT
 10
2162.9999999999859
 20
-599.5000000000008
 30
0.0
 11
2156.6313199210308
 21
-599.5000000000008
 31
0.0
1001
ACDBBLOCKREPETAG
1070
     1
1071
      104
1005
1215CE
  0
LINE
  5
1215CF
  8
OBJECT
 10
2166.9999999999859
 20
-604.0000000000008
 30
0.0
 11
2162.9999999999859
 21
-599.5000000000008
 31
0.0
1001
ACDBBLOCKREPETAG
1070
     1
1071
      105
1005
1215CF
  0
LINE
  5
1215D0
  8
OBJECT
 10
2202.9999999999859
 20
-137.99999999999909
 30
0.0
 11
2209.9999999999859
 21
-137.99999999999909
 31
0.0
1001
ACDBBLOCKREPETAG
1070
     1
1071
       85
1005
1215D0
  0
LINE
  5
1215D1
  8
OBJECT
 10
2209.9999999999859
 20
-137.99999999999909
 30
0.0
 11
2209.9999999999859
 21
-261.99999999999909
 31
0.0
1001
ACDBBLOCKREPETAG
1070
     1
1071
       86
1005
1215D1
  0
LINE
  5
1215D2
  8
OBJECT
 10
2209.9999999999859
 20
-261.99999999999909
 30
0.0
 11
2202.9999999999859
 21
-261.99999999999909
 31
0.0
1001
ACDBBLOCKREPETAG
1070
     1
1071
       87
1005
1215D2
  0
LINE
  5
1215D3
  8
OBJECT
 10
2202.9999999999859
 20
-261.99999999999909
 30
0.0
 11
2202.9999999999859
 21
-137.99999999999909
 31
0.0
1001
ACDBBLOCKREPETAG
1070
     1
1071
       88
1005
1215D3
  0
LINE
  5
1215D4
  8
CENTER
 10
2224.999999999985
 20
-199.99999999999909
 30
0.0
 11
2080.0
 21
-199.99999999999909
 31
0.0
1001
ACDBBLOCKREPETAG
1070
     1
1071
       89
1005
1215D4
  0
LINE
  5
1215D5
  8
OBJECT
 10
2149.9999749641861
 20
-245.0000000000027
 30
0.0
 11
2086.0
 21
-244.99999999999909
 31
0.0
1001
ACDBBLOCKREPETAG
1070
     1
1071
       90
1005
1215D5
  0
LINE
  5
1215D6
  8
OBJECT
 10
2149.9999749641861
 20
-154.99999999999909
 30
0.0
 11
2086.0
 21
-154.99999999999909
 31
0.0
1001
ACDBBLOCKREPETAG
1070
     1
1071
       91
1005
1215D6
  0
LINE
  5
1215D7
  8
OBJECT
 10
2202.9999999999859
 20
-140.99999999999909
 30
0.0
 11
2166.9999999999859
 21
-140.99999999999909
 31
0.0
1001
ACDBBLOCKREPETAG
1070
     1
1071
       92
1005
1215D7
  0
LINE
  5
1215D8
  8
OBJECT
 10
2166.9999999999859
 20
-140.99999999999909
 30
0.0
 11
2166.9999999999859
 21
-258.99999999999909
 31
0.0
1001
ACDBBLOCKREPETAG
1070
     1
1071
       93
1005
1215D8
  0
LINE
  5
1215D9
  8
OBJECT
 10
2166.9999999999859
 20
-258.99999999999909
 30
0.0
 11
2202.9999999999859
 21
-258.99999999999909
 31
0.0
1001
ACDBBLOCKREPETAG
1070
     1
1071
       94
1005
1215D9
  0
LINE
  5
1215DA
  8
OBJECT
 10
2162.9999999999859
 20
-145.49999999999909
 30
0.0
 11
2149.9999999999859
 21
-145.49999999999909
 31
0.0
1001
ACDBBLOCKREPETAG
1070
     1
1071
       95
1005
1215DA
  0
LINE
  5
1215DB
  8
OBJECT
 10
2149.9999999999859
 20
-254.49999999999909
 30
0.0
 11
2162.9999999999859
 21
-254.49999999999909
 31
0.0
1001
ACDBBLOCKREPETAG
1070
     1
1071
       96
1005
1215DB
  0
LINE
  5
1215DC
  8
OBJECT
 10
2162.9999999999859
 20
-254.49999999999909
 30
0.0
 11
2162.9999999999859
 21
-145.49999999999909
 31
0.0
1001
ACDBBLOCKREPETAG
1070
     1
1071
       97
1005
1215DC
  0
LINE
  5
1215DD
  8
OBJECT
 10
2166.9999999999859
 20
-140.99999999999909
 30
0.0
 11
2162.9999999999859
 21
-145.49999999999909
 31
0.0
1001
ACDBBLOCKREPETAG
1070
     1
1071
       98
1005
1215DD
  0
LINE
  5
1215DE
  8
OBJECT
 10
2166.9999999999859
 20
-258.99999999999909
 30
0.0
 11
2162.9999999999859
 21
-254.49999999999909
 31
0.0
1001
ACDBBLOCKREPETAG
1070
     1
1071
       99
1005
1215DE
  0
LINE
  5
1215DF
  8
OBJECT
 10
2083.0
 20
-137.99999999999909
 30
0.0
 11
2080.0
 21
-137.99999999999909
 31
0.0
1001
ACDBBLOCKREPETAG
1070
     1
1071
      100
1005
1215DF
  0
ARC
  5
1215E0
  8
OBJECT
 10
2083.0
 20
-140.99999999999909
 30
0.0
 40
3.0
 50
0.0
 51
90.0
1001
ACDBBLOCKREPETAG
1070
     1
1071
      101
1005
1215E0
  0
LINE
  5
1215E1
  8
OBJECT
 10
2080.0
 20
-261.99999999999909
 30
0.0
 11
2083.0
 21
-261.99999999999909
 31
0.0
1001
ACDBBLOCKREPETAG
1070
     1
1071
      102
1005
1215E1
  0
ARC
  5
1215E2
  8
OBJECT
 10
2083.0
 20
-258.99999999999909
 30
0.0
 40
3.0
 50
270.0
 51
0.0
1001
ACDBBLOCKREPETAG
1070
     1
1071
      103
1005
1215E2
  0
LINE
  5
1215E3
  8
OBJECT
 10
2086.0
 20
-258.99999999999909
 30
0.0
 11
2086.0
 21
-210.3227903203578
 31
0.0
1001
ACDBBLOCKREPETAG
1070
     1
1071
      104
1005
1215E3
  0
LINE
  5
1215E4
  8
OBJECT
 10
2086.0
 20
-189.6772096796403
 30
0.0
 11
2086.0
 21
-140.99999999999909
 31
0.0
1001
ACDBBLOCKREPETAG
1070
     1
1071
      105
1005
1215E4
  0
LINE
  5
1215E5
  8
HIDDEN
 10
2157.9999999999859
 20
-155.49999999999909
 30
0.0
 11
2157.9999999999859
 21
-244.49999999999909
 31
0.0
1001
ACDBBLOCKREPETAG
1070
     1
1071
      106
1005
1215E5
  0
LINE
  5
1215E6
  8
OBJECT
 10
2149.9999749641861
 20
-254.4999509238105
 30
0.0
 11
2149.9999749641861
 21
-145.4999509238105
 31
0.0
1001
ACDBBLOCKREPETAG
1070
     1
1071
      108
1005
1215E6
  0
ARC
  5
1215E7
  8
OBJECT
 10
2129.8000000000252
 20
-199.99999999999909
 30
0.0
 40
45.000000000000547
 50
90.0
 51
270.0
1001
ACDBBLOCKREPETAG
1070
     1
1071
      109
1005
1215E7
  0
TEXT
  5
1215E8
  8
SLIM
 10
0.0
 20
670.0
 30
0.0
 40
100.0
  1
4SLT-Z6-P110-S
 41
0.75
  0
TEXT
  5
1215E9
  8
SLIM
 10
0.0
 20
520.0
 30
0.0
 40
100.0
  1
4SLT-Z6-P110-W
 41
0.75
  0
LINE
  5
1215EA
  8
CENTER
 10
11909.0
 20
-1373.9999999999959
 30
0.0
 11
12105.0
 21
-1373.9999999999959
 31
0.0
1001
ACDBBLOCKREPETAG
1070
     1
1071
       10
1005
1215EA
  0
LINE
  5
1215EB
  8
CENTER
 10
12000.0
 20
-1282.725335570779
 30
0.0
 11
12000.0
 21
-1465.274664429212
 31
0.0
1001
ACDBBLOCKREPETAG
1070
     1
1071
       11
1005
1215EB
  0
CIRCLE
  5
1215EC
  8
OBJECT
 10
12000.0
 20
-1373.9999999999959
 30
0.0
 40
50.0
1001
ACDBBLOCKREPETAG
1070
     1
1071
       12
1005
1215EC
  0
CIRCLE
  5
1215ED
  8
OBJECT
 10
12000.0
 20
-1373.9999999999959
 30
0.0
 40
60.0
1001
ACDBBLOCKREPETAG
1070
     1
1071
       13
1005
1215ED
  0
CIRCLE
  5
1215EE
  8
OBJECT
 10
12000.0
 20
-1373.9999999999959
 30
0.0
 40
68.0
1001
ACDBBLOCKREPETAG
1070
     1
1071
       14
1005
1215EE
  0
ARC
  5
1215EF
  8
OBJECT
 10
12077.5
 20
-1373.9999999999959
 30
0.0
 40
12.0
 50
272.10542627221611
 51
87.894573727783893
1001
ACDBBLOCKREPETAG
1070
     1
1071
       15
1005
1215EF
  0
ARC
  5
1215F0
  8
OBJECT
 10
12078.49193548386
 20
-1347.0182271895239
 30
0.0
 40
15.0
 50
198.97051877965251
 51
267.89457372778372
1001
ACDBBLOCKREPETAG
1070
     1
1071
       16
1005
1215F0
  0
ARC
  5
1215F1
  8
OBJECT
 10
12078.49193548386
 20
-1400.981772810464
 30
0.0
 40
15.0
 50
92.105426272216135
 51
161.02948122034729
1001
ACDBBLOCKREPETAG
1070
     1
1071
       17
1005
1215F1
  0
CIRCLE
  5
1215F2
  8
SLIM
 10
12078.0
 20
-1373.9999999999959
 30
0.0
 40
8.0
1001
ACDBBLOCKREPETAG
1070
     1
1071
       18
1005
1215F2
  0
POLYLINE
  5
1215F3
  8
SLIM
 66
     1
 10
0.0
 20
0.0
 30
0.0
 70
     1
1001
ACDBBLOCKREPETAG
1070
     1
1071
       19
1005
1215F3
  0
VERTEX
  5
122476
  8
SLIM
 10
12075.69059892322
 20
-1369.9999999999959
 30
0.0
  0
VERTEX
  5
122477
  8
SLIM
 10
12073.38119784648
 20
-1373.9999999999959
 30
0.0
  0
VERTEX
  5
122478
  8
SLIM
 10
12075.69059892322
 20
-1377.9999999999959
 30
0.0
  0
VERTEX
  5
122479
  8
SLIM
 10
12080.309401076751
 20
-1377.9999999999959
 30
0.0
  0
VERTEX
  5
12247A
  8
SLIM
 10
12082.618802153511
 20
-1373.9999999999959
 30
0.0
  0
VERTEX
  5
12247B
  8
SLIM
 10
12080.309401076751
 20
-1369.9999999999959
 30
0.0
  0
SEQEND
  5
12247C
  8
SLIM
  0
ARC
  5
1215F4
  8
OBJECT
 10
11961.25
 20
-1306.8830312067
 30
0.0
 40
12.0
 50
32.105426272130188
 51
207.89457372768319
1001
ACDBBLOCKREPETAG
1070
     1
1071
       20
1005
1215F4
  0
ARC
  5
1215F5
  8
OBJECT
 10
11937.38713156505
 20
-1319.5148762839881
 30
0.0
 40
15.0
 50
318.97051877944762
 51
27.89457372768311
1001
ACDBBLOCKREPETAG
1070
     1
1071
       21
1005
1215F5
  0
ARC
  5
1215F6
  8
OBJECT
 10
11984.120932951069
 20
-1292.533103473517
 30
0.0
 40
15.0
 50
212.10542627213019
 51
281.02948122044069
1001
ACDBBLOCKREPETAG
1070
     1
1071
       22
1005
1215F6
  0
CIRCLE
  5
1215F7
  8
SLIM
 10
11961.0
 20
-1306.4500185048089
 30
0.0
 40
7.9999999999999982
1001
ACDBBLOCKREPETAG
1070
     1
1071
       23
1005
1215F7
  0
POLYLINE
  5
1215F8
  8
SLIM
 66
     1
 10
0.0
 20
0.0
 30
0.0
 70
     1
1001
ACDBBLOCKREPETAG
1070
     1
1071
       24
1005
1215F8
  0
VERTEX
  5
12247D
  8
SLIM
 10
11958.69059892324
 20
-1310.450018504808
 30
0.0
  0
VERTEX
  5
12247E
  8
SLIM
 10
11963.309401076751
 20
-1310.450018504808
 30
0.0
  0
VERTEX
  5
12247F
  8
SLIM
 10
11965.618802153511
 20
-1306.4500185048089
 30
0.0
  0
VERTEX
  5
122480
  8
SLIM
 10
11963.309401076751
 20
-1302.450018504808
 30
0.0
  0
VERTEX
  5
122481
  8
SLIM
 10
11958.69059892324
 20
-1302.450018504808
 30
0.0
  0
VERTEX
  5
122482
  8
SLIM
 10
11956.38119784648
 20
-1306.4500185048089
 30
0.0
  0
SEQEND
  5
122483
  8
SLIM
  0
ARC
  5
1215F9
  8
OBJECT
 10
11961.25
 20
-1441.1169687932879
 30
0.0
 40
12.0
 50
152.10542627231681
 51
327.89457372786978
1001
ACDBBLOCKREPETAG
1070
     1
1071
       25
1005
1215F9
  0
ARC
  5
1215FA
  8
OBJECT
 10
11984.120932951069
 20
-1455.4668965264709
 30
0.0
 40
15.0
 50
78.970518779559228
 51
147.89457372786981
1001
ACDBBLOCKREPETAG
1070
     1
1071
       26
1005
1215FA
  0
ARC
  5
1215FB
  8
OBJECT
 10
11937.38713156505
 20
-1428.485123716003
 30
0.0
 40
15.0
 50
332.10542627231678
 51
41.029481220552412
1001
ACDBBLOCKREPETAG
1070
     1
1071
       27
1005
1215FB
  0
CIRCLE
  5
1215FC
  8
SLIM
 10
11961.0
 20
-1441.5499814951829
 30
0.0
 40
8.0
1001
ACDBBLOCKREPETAG
1070
     1
1071
       28
1005
1215FC
  0
POLYLINE
  5
1215FD
  8
SLIM
 66
     1
 10
0.0
 20
0.0
 30
0.0
 70
     1
1001
ACDBBLOCKREPETAG
1070
     1
1071
       29
1005
1215FD
  0
VERTEX
  5
122484
  8
SLIM
 10
11965.618802153511
 20
-1441.5499814951791
 30
0.0
  0
VERTEX
  5
122485
  8
SLIM
 10
11963.309401076751
 20
-1437.549981495182
 30
0.0
  0
VERTEX
  5
122486
  8
SLIM
 10
11958.69059892324
 20
-1437.5499814951791
 30
0.0
  0
VERTEX
  5
122487
  8
SLIM
 10
11956.38119784648
 20
-1441.5499814951829
 30
0.0
  0
VERTEX
  5
122488
  8
SLIM
 10
11958.69059892322
 20
-1445.5499814951791
 30
0.0
  0
VERTEX
  5
122489
  8
SLIM
 10
11963.309401076751
 20
-1445.549981495182
 30
0.0
  0
SEQEND
  5
12248A
  8
SLIM
  0
ARC
  5
1215FE
  8
OBJECT
 10
12000.0
 20
-1373.9999999999959
 30
0.0
 40
76.0
 50
34.863837954171863
 51
85.136162045732945
1001
ACDBBLOCKREPETAG
1070
     1
1071
       42
1005
1215FE
  0
ARC
  5
1215FF
  8
OBJECT
 10
12000.0
 20
-1373.9999999999959
 30
0.0
 40
76.0
 50
154.86383795430939
 51
205.1361620456905
1001
ACDBBLOCKREPETAG
1070
     1
1071
       43
1005
1215FF
  0
ARC
  5
121600
  8
OBJECT
 10
12000.0
 20
-1373.9999999999959
 30
0.0
 40
76.0
 50
274.86383795426718
 51
325.13616204582797
1001
ACDBBLOCKREPETAG
1070
     1
1071
       44
1005
121600
  0
ARC
  5
121601
  8
OBJECT
 10
12078.0
 20
-1373.9999999999959
 30
0.0
 40
12.0
 50
325.13616204582797
 51
34.863837954171863
1001
ACDBBLOCKREPETAG
1070
     1
1071
       45
1005
121601
  0
LINE
  5
121602
  8
OBJECT
 10
12087.84615384616
 20
-1367.140462520133
 30
0.0
 11
12062.358974359049
 21
-1330.5562626275339
 31
0.0
1001
ACDBBLOCKREPETAG
1070
     1
1071
       46
1005
121602
  0
LINE
  5
121603
  8
OBJECT
 10
12087.846153846171
 20
-1380.859537479856
 30
0.0
 11
12062.358974359049
 21
-1417.4437373724591
 31
0.0
1001
ACDBBLOCKREPETAG
1070
     1
1071
       47
1005
121603
  0
ARC
  5
121604
  8
OBJECT
 10
11961.0
 20
-1306.45001850481
 30
0.0
 40
12.0
 50
85.136162045942811
 51
154.86383795410001
1001
ACDBBLOCKREPETAG
1070
     1
1071
       48
1005
121604
  0
LINE
  5
121605
  8
OBJECT
 10
11950.13638936114
 20
-1301.3527678843909
 30
0.0
 11
11931.19713262058
 21
-1341.7174127373471
 31
0.0
1001
ACDBBLOCKREPETAG
1070
     1
1071
       49
1005
121605
  0
LINE
  5
121606
  8
OBJECT
 10
11962.017456792681
 20
-1294.493230404526
 30
0.0
 11
12006.443893020371
 21
-1298.273675364886
 31
0.0
1001
ACDBBLOCKREPETAG
1070
     1
1071
       50
1005
121606
  0
ARC
  5
121607
  8
OBJECT
 10
11961.0
 20
-1441.5499814951811
 30
0.0
 40
12.0
 50
205.13616204589991
 51
274.8638379540572
1001
ACDBBLOCKREPETAG
1070
     1
1071
       51
1005
121607
  0
LINE
  5
121608
  8
OBJECT
 10
11962.01745679269
 20
-1453.5067695954631
 30
0.0
 11
12006.44389302036
 21
-1449.726324635106
 31
0.0
1001
ACDBBLOCKREPETAG
1070
     1
1071
       52
1005
121608
  0
LINE
  5
121609
  8
OBJECT
 10
11950.13638936114
 20
-1446.6472321156041
 30
0.0
 11
11931.19713262058
 21
-1406.2825872626429
 31
0.0
1001
ACDBBLOCKREPETAG
1070
     1
1071
       53
1005
121609
  0
LINE
  5
12160A
  8
CENTER
 10
9909.0
 20
-1373.9999999999959
 30
0.0
 11
10105.0
 21
-1373.9999999999959
 31
0.0
1001
ACDBBLOCKREPETAG
1070
     1
1071
        0
1005
12160A
  0
LINE
  5
12160B
  8
CENTER
 10
10000.0
 20
-1282.725335570779
 30
0.0
 11
10000.0
 21
-1465.274664429212
 31
0.0
1001
ACDBBLOCKREPETAG
1070
     1
1071
        1
1005
12160B
  0
CIRCLE
  5
12160C
  8
OBJECT
 10
10000.0
 20
-1373.9999999999959
 30
0.0
 40
50.0
1001
ACDBBLOCKREPETAG
1070
     1
1071
        2
1005
12160C
  0
CIRCLE
  5
12160D
  8
OBJECT
 10
10000.0
 20
-1373.9999999999959
 30
0.0
 40
62.0
1001
ACDBBLOCKREPETAG
1070
     1
1071
        3
1005
12160D
  0
CIRCLE
  5
12160E
  8
SLIM
 10
10078.0
 20
-1373.9999999999959
 30
0.0
 40
5.0
1001
ACDBBLOCKREPETAG
1070
     1
1071
        4
1005
12160E
  0
POLYLINE
  5
12160F
  8
SLIM
 66
     1
 10
0.0
 20
0.0
 30
0.0
 70
     1
1001
ACDBBLOCKREPETAG
1070
     1
1071
        5
1005
12160F
  0
VERTEX
  5
12248B
  8
SLIM
 10
10073.092522711881
 20
-1365.4999999999959
 30
0.0
  0
VERTEX
  5
12248C
  8
SLIM
 10
10068.18504542377
 20
-1373.9999999999959
 30
0.0
  0
VERTEX
  5
12248D
  8
SLIM
 10
10073.092522711881
 20
-1382.4999999999959
 30
0.0
  0
VERTEX
  5
12248E
  8
SLIM
 10
10082.907477288099
 20
-1382.4999999999959
 30
0.0
  0
VERTEX
  5
12248F
  8
SLIM
 10
10087.814954576221
 20
-1373.9999999999959
 30
0.0
  0
VERTEX
  5
122490
  8
SLIM
 10
10082.907477288099
 20
-1365.4999999999959
 30
0.0
  0
SEQEND
  5
122491
  8
SLIM
  0
CIRCLE
  5
121610
  8
SLIM
 10
9961.0
 20
-1306.4500185048089
 30
0.0
 40
4.9999999999999991
1001
ACDBBLOCKREPETAG
1070
     1
1071
        6
1005
121610
  0
POLYLINE
  5
121611
  8
SLIM
 66
     1
 10
0.0
 20
0.0
 30
0.0
 70
     1
1001
ACDBBLOCKREPETAG
1070
     1
1071
        7
1005
121611
  0
VERTEX
  5
122492
  8
SLIM
 10
9956.092522711886
 20
-1314.9500185048089
 30
0.0
  0
VERTEX
  5
122493
  8
SLIM
 10
9965.907477288114
 20
-1314.9500185048089
 30
0.0
  0
VERTEX
  5
122494
  8
SLIM
 10
9970.814954576219
 20
-1306.4500185048089
 30
0.0
  0
VERTEX
  5
122495
  8
SLIM
 10
9965.907477288114
 20
-1297.950018504808
 30
0.0
  0
VERTEX
  5
122496
  8
SLIM
 10
9956.092522711886
 20
-1297.950018504808
 30
0.0
  0
VERTEX
  5
122497
  8
SLIM
 10
9951.185045423772
 20
-1306.4500185048089
 30
0.0
  0
SEQEND
  5
122498
  8
SLIM
  0
CIRCLE
  5
121612
  8
SLIM
 10
9961.0
 20
-1441.5499814951829
 30
0.0
 40
5.0
1001
ACDBBLOCKREPETAG
1070
     1
1071
        8
1005
121612
  0
POLYLINE
  5
121613
  8
SLIM
 66
     1
 10
0.0
 20
0.0
 30
0.0
 70
     1
1001
ACDBBLOCKREPETAG
1070
     1
1071
        9
1005
121613
  0
VERTEX
  5
122499
  8
SLIM
 10
9970.814954576219
 20
-1441.5499814951829
 30
0.0
  0
VERTEX
  5
12249A
  8
SLIM
 10
9965.9074772881049
 20
-1433.0499814951791
 30
0.0
  0
VERTEX
  5
12249B
  8
SLIM
 10
9956.092522711886
 20
-1433.049981495182
 30
0.0
  0
VERTEX
  5
12249C
  8
SLIM
 10
9951.185045423772
 20
-1441.5499814951791
 30
0.0
  0
VERTEX
  5
12249D
  8
SLIM
 10
9956.092522711886
 20
-1450.0499814951829
 30
0.0
  0
VERTEX
  5
12249E
  8
SLIM
 10
9965.907477288114
 20
-1450.0499814951791
 30
0.0
  0
SEQEND
  5
12249F
  8
SLIM
  0
ARC
  5
121614
  8
OBJECT
 10
10000.0
 20
-1373.9999999999959
 30
0.0
 40
76.0
 50
34.863837954171863
 51
85.136162045732945
1001
ACDBBLOCKREPETAG
1070
     1
1071
       30
1005
121614
  0
ARC
  5
121615
  8
OBJECT
 10
10000.0
 20
-1373.9999999999959
 30
0.0
 40
76.0
 50
154.86383795430939
 51
205.1361620456905
1001
ACDBBLOCKREPETAG
1070
     1
1071
       31
1005
121615
  0
ARC
  5
121616
  8
OBJECT
 10
10000.0
 20
-1373.9999999999959
 30
0.0
 40
76.0
 50
274.86383795426718
 51
325.13616204582797
1001
ACDBBLOCKREPETAG
1070
     1
1071
       32
1005
121616
  0
ARC
  5
121617
  8
OBJECT
 10
10078.0
 20
-1373.9999999999959
 30
0.0
 40
12.0
 50
325.13616204582797
 51
34.863837954171863
1001
ACDBBLOCKREPETAG
1070
     1
1071
       33
1005
121617
  0
LINE
  5
121618
  8
OBJECT
 10
10087.84615384616
 20
-1367.140462520133
 30
0.0
 11
10062.35897435904
 21
-1330.5562626275339
 31
0.0
1001
ACDBBLOCKREPETAG
1070
     1
1071
       34
1005
121618
  0
LINE
  5
121619
  8
OBJECT
 10
10087.846153846171
 20
-1380.859537479856
 30
0.0
 11
10062.35897435904
 21
-1417.4437373724591
 31
0.0
1001
ACDBBLOCKREPETAG
1070
     1
1071
       35
1005
121619
  0
ARC
  5
12161A
  8
OBJECT
 10
9961.0
 20
-1306.45001850481
 30
0.0
 40
12.0
 50
85.136162045942811
 51
154.86383795410001
1001
ACDBBLOCKREPETAG
1070
     1
1071
       36
1005
12161A
  0
LINE
  5
12161B
  8
OBJECT
 10
9950.1363893611433
 20
-1301.3527678843909
 30
0.0
 11
9931.1971326205894
 21
-1341.7174127373471
 31
0.0
1001
ACDBBLOCKREPETAG
1070
     1
1071
       37
1005
12161B
  0
LINE
  5
12161C
  8
OBJECT
 10
9962.0174567926842
 20
-1294.493230404526
 30
0.0
 11
10006.443893020371
 21
-1298.273675364886
 31
0.0
1001
ACDBBLOCKREPETAG
1070
     1
1071
       38
1005
12161C
  0
ARC
  5
12161D
  8
OBJECT
 10
9961.0
 20
-1441.5499814951811
 30
0.0
 40
12.0
 50
205.13616204589991
 51
274.8638379540572
1001
ACDBBLOCKREPETAG
1070
     1
1071
       39
1005
12161D
  0
LINE
  5
12161E
  8
OBJECT
 10
9962.0174567926897
 20
-1453.5067695954631
 30
0.0
 11
10006.44389302036
 21
-1449.726324635106
 31
0.0
1001
ACDBBLOCKREPETAG
1070
     1
1071
       40
1005
12161E
  0
LINE
  5
12161F
  8
OBJECT
 10
9950.1363893611433
 20
-1446.6472321156041
 30
0.0
 11
9931.1971326205821
 21
-1406.2825872626429
 31
0.0
1001
ACDBBLOCKREPETAG
1070
     1
1071
       41
1005
12161F
  0
LINE
  5
121620
  8
CENTER
 10
5909.0
 20
-1414.9999999999991
 30
0.0
 11
6105.0
 21
-1414.9999999999991
 31
0.0
1001
ACDBBLOCKREPETAG
1070
     1
1071
       10
1005
121620
  0
LINE
  5
121621
  8
CENTER
 10
6000.0
 20
-1323.7253355707819
 30
0.0
 11
6000.0
 21
-1506.2746644292149
 31
0.0
1001
ACDBBLOCKREPETAG
1070
     1
1071
       11
1005
121621
  0
CIRCLE
  5
121622
  8
OBJECT
 10
6000.0
 20
-1414.9999999999991
 30
0.0
 40
50.0
1001
ACDBBLOCKREPETAG
1070
     1
1071
       12
1005
121622
  0
CIRCLE
  5
121623
  8
OBJECT
 10
6000.0
 20
-1414.9999999999991
 30
0.0
 40
60.0
1001
ACDBBLOCKREPETAG
1070
     1
1071
       13
1005
121623
  0
CIRCLE
  5
121624
  8
OBJECT
 10
6000.0
 20
-1414.9999999999991
 30
0.0
 40
68.0
1001
ACDBBLOCKREPETAG
1070
     1
1071
       14
1005
121624
  0
ARC
  5
121625
  8
OBJECT
 10
6077.5
 20
-1414.9999999999991
 30
0.0
 40
12.0
 50
272.10542627221611
 51
87.894573727783893
1001
ACDBBLOCKREPETAG
1070
     1
1071
       15
1005
121625
  0
ARC
  5
121626
  8
OBJECT
 10
6078.4919354838639
 20
-1388.018227189526
 30
0.0
 40
15.0
 50
198.9705187796356
 51
267.89457372778372
1001
ACDBBLOCKREPETAG
1070
     1
1071
       16
1005
121626
  0
ARC
  5
121627
  8
OBJECT
 10
6078.4919354838639
 20
-1441.981772810467
 30
0.0
 40
15.0
 50
92.105426272216135
 51
161.02948122036429
1001
ACDBBLOCKREPETAG
1070
     1
1071
       17
1005
121627
  0
CIRCLE
  5
121628
  8
SLIM
 10
6078.0
 20
-1414.9999999999991
 30
0.0
 40
8.0
1001
ACDBBLOCKREPETAG
1070
     1
1071
       18
1005
121628
  0
POLYLINE
  5
121629
  8
SLIM
 66
     1
 10
0.0
 20
0.0
 30
0.0
 70
     1
1001
ACDBBLOCKREPETAG
1070
     1
1071
       19
1005
121629
  0
VERTEX
  5
1224A0
  8
SLIM
 10
6075.6905989232328
 20
-1410.9999999999991
 30
0.0
  0
VERTEX
  5
1224A1
  8
SLIM
 10
6073.3811978464801
 20
-1414.9999999999991
 30
0.0
  0
VERTEX
  5
1224A2
  8
SLIM
 10
6075.6905989232328
 20
-1418.9999999999991
 30
0.0
  0
VERTEX
  5
1224A3
  8
SLIM
 10
6080.3094010767527
 20
-1418.9999999999991
 30
0.0
  0
VERTEX
  5
1224A4
  8
SLIM
 10
6082.6188021535136
 20
-1414.9999999999991
 30
0.0
  0
VERTEX
  5
1224A5
  8
SLIM
 10
6080.3094010767527
 20
-1410.9999999999991
 30
0.0
  0
SEQEND
  5
1224A6
  8
SLIM
  0
ARC
  5
12162A
  8
OBJECT
 10
5961.25
 20
-1347.883031206703
 30
0.0
 40
12.0
 50
32.105426272157878
 51
207.89457372770741
1001
ACDBBLOCKREPETAG
1070
     1
1071
       20
1005
12162A
  0
ARC
  5
12162B
  8
OBJECT
 10
5937.387131565054
 20
-1360.514876283992
 30
0.0
 40
15.0
 50
318.97051877944762
 51
27.894573727707481
1001
ACDBBLOCKREPETAG
1070
     1
1071
       21
1005
12162B
  0
ARC
  5
12162C
  8
OBJECT
 10
5984.1209329510702
 20
-1333.53310347352
 30
0.0
 40
15.0
 50
212.1054262721579
 51
281.02948122044069
1001
ACDBBLOCKREPETAG
1070
     1
1071
       22
1005
12162C
  0
CIRCLE
  5
12162D
  8
SLIM
 10
5961.0
 20
-1347.4500185048121
 30
0.0
 40
7.9999999999999982
1001
ACDBBLOCKREPETAG
1070
     1
1071
       23
1005
12162D
  0
POLYLINE
  5
12162E
  8
SLIM
 66
     1
 10
0.0
 20
0.0
 30
0.0
 70
     1
1001
ACDBBLOCKREPETAG
1070
     1
1071
       24
1005
12162E
  0
VERTEX
  5
1224A7
  8
SLIM
 10
5958.69059892324
 20
-1351.4500185048121
 30
0.0
  0
VERTEX
  5
1224A8
  8
SLIM
 10
5963.3094010767518
 20
-1351.4500185048121
 30
0.0
  0
VERTEX
  5
1224A9
  8
SLIM
 10
5965.6188021535136
 20
-1347.4500185048121
 30
0.0
  0
VERTEX
  5
1224AA
  8
SLIM
 10
5963.3094010767518
 20
-1343.4500185048121
 30
0.0
  0
VERTEX
  5
1224AB
  8
SLIM
 10
5958.69059892324
 20
-1343.4500185048121
 30
0.0
  0
VERTEX
  5
1224AC
  8
SLIM
 10
5956.3811978464792
 20
-1347.4500185048121
 30
0.0
  0
SEQEND
  5
1224AD
  8
SLIM
  0
ARC
  5
12162F
  8
OBJECT
 10
5961.25
 20
-1482.1169687932911
 30
0.0
 40
12.0
 50
152.1054262722925
 51
327.89457372784221
1001
ACDBBLOCKREPETAG
1070
     1
1071
       25
1005
12162F
  0
ARC
  5
121630
  8
OBJECT
 10
5984.1209329510702
 20
-1496.4668965264741
 30
0.0
 40
15.0
 50
78.970518779559228
 51
147.8945737278421
1001
ACDBBLOCKREPETAG
1070
     1
1071
       26
1005
121630
  0
ARC
  5
121631
  8
OBJECT
 10
5937.387131565054
 20
-1469.485123716006
 30
0.0
 40
15.0
 50
332.1054262722925
 51
41.029481220552412
1001
ACDBBLOCKREPETAG
1070
     1
1071
       27
1005
121631
  0
CIRCLE
  5
121632
  8
SLIM
 10
5961.0
 20
-1482.5499814951861
 30
0.0
 40
8.0
1001
ACDBBLOCKREPETAG
1070
     1
1071
       28
1005
121632
  0
POLYLINE
  5
121633
  8
SLIM
 66
     1
 10
0.0
 20
0.0
 30
0.0
 70
     1
1001
ACDBBLOCKREPETAG
1070
     1
1071
       29
1005
121633
  0
VERTEX
  5
1224AE
  8
SLIM
 10
5965.6188021535136
 20
-1482.5499814951829
 30
0.0
  0
VERTEX
  5
1224AF
  8
SLIM
 10
5963.3094010767518
 20
-1478.5499814951861
 30
0.0
  0
VERTEX
  5
1224B0
  8
SLIM
 10
5958.69059892324
 20
-1478.5499814951829
 30
0.0
  0
VERTEX
  5
1224B1
  8
SLIM
 10
5956.3811978464792
 20
-1482.5499814951861
 30
0.0
  0
VERTEX
  5
1224B2
  8
SLIM
 10
5958.6905989232328
 20
-1486.5499814951829
 30
0.0
  0
VERTEX
  5
1224B3
  8
SLIM
 10
5963.3094010767518
 20
-1486.5499814951861
 30
0.0
  0
SEQEND
  5
1224B4
  8
SLIM
  0
ARC
  5
121634
  8
OBJECT
 10
6000.0
 20
-1414.9999999999991
 30
0.0
 40
76.0
 50
34.863837954142063
 51
85.136162045732945
1001
ACDBBLOCKREPETAG
1070
     1
1071
       42
1005
121634
  0
ARC
  5
121635
  8
OBJECT
 10
6000.0
 20
-1414.9999999999991
 30
0.0
 40
76.0
 50
154.86383795430939
 51
205.1361620456905
1001
ACDBBLOCKREPETAG
1070
     1
1071
       43
1005
121635
  0
ARC
  5
121636
  8
OBJECT
 10
6000.0
 20
-1414.9999999999991
 30
0.0
 40
76.0
 50
274.86383795426718
 51
325.13616204585799
1001
ACDBBLOCKREPETAG
1070
     1
1071
       44
1005
121636
  0
ARC
  5
121637
  8
OBJECT
 10
6078.0
 20
-1414.9999999999991
 30
0.0
 40
12.0
 50
325.13616204585799
 51
34.863837954142063
1001
ACDBBLOCKREPETAG
1070
     1
1071
       45
1005
121637
  0
LINE
  5
121638
  8
OBJECT
 10
6087.846153846167
 20
-1408.1404625201369
 30
0.0
 11
6062.3589743590501
 21
-1371.556262627538
 31
0.0
1001
ACDBBLOCKREPETAG
1070
     1
1071
       46
1005
121638
  0
LINE
  5
121639
  8
OBJECT
 10
6087.8461538461697
 20
-1421.859537479859
 30
0.0
 11
6062.3589743590501
 21
-1458.443737372462
 31
0.0
1001
ACDBBLOCKREPETAG
1070
     1
1071
       47
1005
121639
  0
ARC
  5
12163A
  8
OBJECT
 10
5961.0
 20
-1347.4500185048139
 30
0.0
 40
12.0
 50
85.136162045942811
 51
154.86383795410001
1001
ACDBBLOCKREPETAG
1070
     1
1071
       48
1005
12163A
  0
LINE
  5
12163B
  8
OBJECT
 10
5950.1363893611451
 20
-1342.3527678843941
 30
0.0
 11
5931.1971326205849
 21
-1382.7174127373501
 31
0.0
1001
ACDBBLOCKREPETAG
1070
     1
1071
       49
1005
12163B
  0
LINE
  5
12163C
  8
OBJECT
 10
5962.0174567926842
 20
-1335.493230404529
 30
0.0
 11
6006.4438930203669
 21
-1339.273675364889
 31
0.0
1001
ACDBBLOCKREPETAG
1070
     1
1071
       50
1005
12163C
  0
ARC
  5
12163D
  8
OBJECT
 10
5961.0
 20
-1482.5499814951841
 30
0.0
 40
12.0
 50
205.13616204589991
 51
274.8638379540572
1001
ACDBBLOCKREPETAG
1070
     1
1071
       51
1005
12163D
  0
LINE
  5
12163E
  8
OBJECT
 10
5962.0174567926879
 20
-1494.506769595466
 30
0.0
 11
6006.4438930203651
 21
-1490.726324635109
 31
0.0
1001
ACDBBLOCKREPETAG
1070
     1
1071
       52
1005
12163E
  0
LINE
  5
12163F
  8
OBJECT
 10
5950.1363893611451
 20
-1487.6472321156079
 30
0.0
 11
5931.1971326205821
 21
-1447.2825872626461
 31
0.0
1001
ACDBBLOCKREPETAG
1070
     1
1071
       53
1005
12163F
  0
LINE
  5
121640
  8
CENTER
 10
3909.0
 20
-1373.9999999999959
 30
0.0
 11
4105.0
 21
-1373.9999999999959
 31
0.0
1001
ACDBBLOCKREPETAG
1070
     1
1071
        0
1005
121640
  0
LINE
  5
121641
  8
CENTER
 10
4000.0
 20
-1282.725335570779
 30
0.0
 11
4000.0
 21
-1465.274664429212
 31
0.0
1001
ACDBBLOCKREPETAG
1070
     1
1071
        1
1005
121641
  0
CIRCLE
  5
121642
  8
OBJECT
 10
4000.0
 20
-1373.9999999999959
 30
0.0
 40
50.0
1001
ACDBBLOCKREPETAG
1070
     1
1071
        2
1005
121642
  0
CIRCLE
  5
121643
  8
OBJECT
 10
4000.0
 20
-1373.9999999999959
 30
0.0
 40
62.0
1001
ACDBBLOCKREPETAG
1070
     1
1071
        3
1005
121643
  0
CIRCLE
  5
121644
  8
SLIM
 10
4078.0
 20
-1373.9999999999959
 30
0.0
 40
5.0
1001
ACDBBLOCKREPETAG
1070
     1
1071
        4
1005
121644
  0
POLYLINE
  5
121645
  8
SLIM
 66
     1
 10
0.0
 20
0.0
 30
0.0
 70
     1
1001
ACDBBLOCKREPETAG
1070
     1
1071
        5
1005
121645
  0
VERTEX
  5
1224B5
  8
SLIM
 10
4073.092522711886
 20
-1365.4999999999959
 30
0.0
  0
VERTEX
  5
1224B6
  8
SLIM
 10
4068.185045423772
 20
-1373.9999999999959
 30
0.0
  0
VERTEX
  5
1224B7
  8
SLIM
 10
4073.092522711886
 20
-1382.4999999999959
 30
0.0
  0
VERTEX
  5
1224B8
  8
SLIM
 10
4082.9074772881072
 20
-1382.4999999999959
 30
0.0
  0
VERTEX
  5
1224B9
  8
SLIM
 10
4087.8149545762199
 20
-1373.9999999999959
 30
0.0
  0
VERTEX
  5
1224BA
  8
SLIM
 10
4082.9074772881072
 20
-1365.4999999999959
 30
0.0
  0
SEQEND
  5
1224BB
  8
SLIM
  0
CIRCLE
  5
121646
  8
SLIM
 10
3961.0
 20
-1306.4500185048089
 30
0.0
 40
4.9999999999999991
1001
ACDBBLOCKREPETAG
1070
     1
1071
        6
1005
121646
  0
POLYLINE
  5
121647
  8
SLIM
 66
     1
 10
0.0
 20
0.0
 30
0.0
 70
     1
1001
ACDBBLOCKREPETAG
1070
     1
1071
        7
1005
121647
  0
VERTEX
  5
1224BC
  8
SLIM
 10
3956.092522711886
 20
-1314.9500185048089
 30
0.0
  0
VERTEX
  5
1224BD
  8
SLIM
 10
3965.907477288114
 20
-1314.9500185048089
 30
0.0
  0
VERTEX
  5
1224BE
  8
SLIM
 10
3970.8149545762212
 20
-1306.4500185048089
 30
0.0
  0
VERTEX
  5
1224BF
  8
SLIM
 10
3965.907477288114
 20
-1297.950018504808
 30
0.0
  0
VERTEX
  5
1224C0
  8
SLIM
 10
3956.092522711886
 20
-1297.950018504808
 30
0.0
  0
VERTEX
  5
1224C1
  8
SLIM
 10
3951.185045423772
 20
-1306.4500185048089
 30
0.0
  0
SEQEND
  5
1224C2
  8
SLIM
  0
CIRCLE
  5
121648
  8
SLIM
 10
3961.0
 20
-1441.5499814951829
 30
0.0
 40
5.0
1001
ACDBBLOCKREPETAG
1070
     1
1071
        8
1005
121648
  0
POLYLINE
  5
121649
  8
SLIM
 66
     1
 10
0.0
 20
0.0
 30
0.0
 70
     1
1001
ACDBBLOCKREPETAG
1070
     1
1071
        9
1005
121649
  0
VERTEX
  5
1224C3
  8
SLIM
 10
3970.8149545762212
 20
-1441.5499814951829
 30
0.0
  0
VERTEX
  5
1224C4
  8
SLIM
 10
3965.9074772881072
 20
-1433.0499814951791
 30
0.0
  0
VERTEX
  5
1224C5
  8
SLIM
 10
3956.092522711886
 20
-1433.049981495182
 30
0.0
  0
VERTEX
  5
1224C6
  8
SLIM
 10
3951.185045423772
 20
-1441.5499814951791
 30
0.0
  0
VERTEX
  5
1224C7
  8
SLIM
 10
3956.092522711886
 20
-1450.0499814951829
 30
0.0
  0
VERTEX
  5
1224C8
  8
SLIM
 10
3965.907477288114
 20
-1450.0499814951791
 30
0.0
  0
SEQEND
  5
1224C9
  8
SLIM
  0
ARC
  5
12164A
  8
OBJECT
 10
4000.0
 20
-1373.9999999999959
 30
0.0
 40
76.0
 50
34.863837954142063
 51
85.136162045732945
1001
ACDBBLOCKREPETAG
1070
     1
1071
       30
1005
12164A
  0
ARC
  5
12164B
  8
OBJECT
 10
4000.0
 20
-1373.9999999999959
 30
0.0
 40
76.0
 50
154.86383795430939
 51
205.1361620456905
1001
ACDBBLOCKREPETAG
1070
     1
1071
       31
1005
12164B
  0
ARC
  5
12164C
  8
OBJECT
 10
4000.0
 20
-1373.9999999999959
 30
0.0
 40
76.0
 50
274.86383795426718
 51
325.13616204585799
1001
ACDBBLOCKREPETAG
1070
     1
1071
       32
1005
12164C
  0
ARC
  5
12164D
  8
OBJECT
 10
4078.0
 20
-1373.9999999999959
 30
0.0
 40
12.0
 50
325.13616204585799
 51
34.863837954142063
1001
ACDBBLOCKREPETAG
1070
     1
1071
       33
1005
12164D
  0
LINE
  5
12164E
  8
OBJECT
 10
4087.846153846167
 20
-1367.140462520133
 30
0.0
 11
4062.3589743590492
 21
-1330.5562626275339
 31
0.0
1001
ACDBBLOCKREPETAG
1070
     1
1071
       34
1005
12164E
  0
LINE
  5
12164F
  8
OBJECT
 10
4087.8461538461711
 20
-1380.859537479856
 30
0.0
 11
4062.3589743590492
 21
-1417.4437373724591
 31
0.0
1001
ACDBBLOCKREPETAG
1070
     1
1071
       35
1005
12164F
  0
ARC
  5
121650
  8
OBJECT
 10
3961.0
 20
-1306.45001850481
 30
0.0
 40
12.0
 50
85.136162045942811
 51
154.86383795411109
1001
ACDBBLOCKREPETAG
1070
     1
1071
       36
1005
121650
  0
LINE
  5
121651
  8
OBJECT
 10
3950.136389361146
 20
-1301.3527678843909
 30
0.0
 11
3931.1971326205862
 21
-1341.7174127373471
 31
0.0
1001
ACDBBLOCKREPETAG
1070
     1
1071
       37
1005
121651
  0
LINE
  5
121652
  8
OBJECT
 10
3962.0174567926852
 20
-1294.493230404526
 30
0.0
 11
4006.4438930203678
 21
-1298.273675364886
 31
0.0
1001
ACDBBLOCKREPETAG
1070
     1
1071
       38
1005
121652
  0
ARC
  5
121653
  8
OBJECT
 10
3961.0
 20
-1441.5499814951811
 30
0.0
 40
12.0
 50
205.13616204588891
 51
274.8638379540572
1001
ACDBBLOCKREPETAG
1070
     1
1071
       39
1005
121653
  0
LINE
  5
121654
  8
OBJECT
 10
3962.0174567926879
 20
-1453.5067695954631
 30
0.0
 11
4006.4438930203651
 21
-1449.726324635106
 31
0.0
1001
ACDBBLOCKREPETAG
1070
     1
1071
       40
1005
121654
  0
LINE
  5
121655
  8
OBJECT
 10
3950.136389361146
 20
-1446.6472321156041
 30
0.0
 11
3931.1971326205821
 21
-1406.2825872626429
 31
0.0
1001
ACDBBLOCKREPETAG
1070
     1
1071
       41
1005
121655
  0
TEXT
  5
121656
  8
SLIM
 10
3853.75
 20
-1641.4999999999959
 30
0.0
 40
35.0
  1
両受けスタイル（W）
 41
0.75
  0
TEXT
  5
121657
  8
SLIM
 10
5811.8000000000002
 20
-1738.9999999999991
 30
0.0
 40
28.0
  1
※ 対応スラブ厚　150mm以上
 41
0.75
  0
TEXT
  5
121658
  8
SLIM
 10
5611.5
 20
-1832.3333333333319
 30
0.0
 40
28.0
  1
国土交通大臣認定・（財）日本消防設備安全センター性能評定取得品
 41
0.75
  0
TEXT
  5
121659
  8
SLIM
 10
5631.1000000000004
 20
-1878.9999999999991
 30
0.0
 40
28.0
  1
注）ご採用にあたり、認定書及び評定書の内容をご確認ください。
 41
0.75
  0
TEXT
  5
12165A
  8
SLIM
 10
11824.6
 20
-1697.9999999999959
 30
0.0
 40
28.0
  1
※ 対応スラブ厚　150～380
 41
0.75
  0
TEXT
  5
12165B
  8
SLIM
 10
11611.5
 20
-1791.3333333333289
 30
0.0
 40
28.0
  1
国土交通大臣認定・（財）日本消防設備安全センター性能評定取得品
 41
0.75
  0
TEXT
  5
12165C
  8
SLIM
 10
11631.1
 20
-1837.9999999999959
 30
0.0
 40
28.0
  1
注）ご採用にあたり、認定書及び評定書の内容をご確認ください。
 41
0.75
  0
TEXT
  5
12165D
  8
SLIM
 10
9824.6000000000004
 20
-1697.9999999999959
 30
0.0
 40
28.0
  1
※ 対応スラブ厚　180～380
 41
0.75
  0
TEXT
  5
12165E
  8
SLIM
 10
9611.5000000000018
 20
-1791.3333333333289
 30
0.0
 40
28.0
  1
国土交通大臣認定・（財）日本消防設備安全センター性能評定取得品
 41
0.75
  0
TEXT
  5
12165F
  8
SLIM
 10
9631.1000000000004
 20
-1837.9999999999959
 30
0.0
 40
28.0
  1
注）ご採用にあたり、認定書及び評定書の内容をご確認ください。
 41
0.75
  0
TEXT
  5
121660
  8
SLIM
 10
7771.3999999999987
 20
-1430.666666666664
 30
0.0
 40
28.0
  1
※ 対応スラブ厚　180｛150｝～340
 41
0.75
  0
TEXT
  5
121661
  8
SLIM
 10
7733.2999999999975
 20
-1477.333333333331
 30
0.0
 40
28.0
  1
｛｝内はカンペイ立て管との組み合わせの場合
 41
0.75
  0
TEXT
  5
121662
  8
SLIM
 10
7611.4999999999982
 20
-1570.6666666666649
 30
0.0
 40
28.0
  1
国土交通大臣認定・（財）日本消防設備安全センター性能評定取得品
 41
0.75
  0
TEXT
  5
121663
  8
SLIM
 10
7631.1000000000004
 20
-1617.333333333331
 30
0.0
 40
28.0
  1
注）ご採用にあたり、認定書及び評定書の内容をご確認ください。
 41
0.75
  0
TEXT
  5
121664
  8
SLIM
 10
9739.1250000000018
 20
-1641.4999999999959
 30
0.0
 40
35.0
  1
両受けスタイル（W）＋シンドカット
 41
0.75
  0
TEXT
  5
121665
  8
SLIM
 10
11743.5
 20
-1641.4999999999959
 30
0.0
 40
35.0
  1
カンペイ君（WKP）＋シンドカット
 41
0.75
  0
TEXT
  5
121666
  8
SLIM
 10
7741.625
 20
-1367.499999999998
 30
0.0
 40
35.0
  1
片受けスタイル（S）＋シンドカット
 41
0.75
  0
TEXT
  5
121667
  8
SLIM
 10
5858.1250000000009
 20
-1682.4999999999991
 30
0.0
 40
35.0
  1
カンペイ君（WKP）
 41
0.75
  0
TEXT
  5
121668
  8
SLIM
 10
1856.25
 20
-1367.499999999998
 30
0.0
 40
35.0
  1
片受けスタイル（S）
 41
0.75
  0
TEXT
  5
121669
  8
SLIM
 10
0.0
 20
369.99999999999989
 30
0.0
 40
100.0
  1
4SLT-Z6-P110-WKP
 41
0.75
  0
VIEWPORT
  5
F6BA7
 67
     1
  8
0
 10
163.0024027789494
 20
101.8328354358673
 30
0.0
 40
369.34663245053321
 41
222.19657968139651
 68
     1
 69
     1
1001
ACAD
1000
MVIEW
1002
{
1070
    16
1010
0.0
1020
0.0
1030
0.0
1010
0.0
1020
0.0
1030
1.0
1040
0.0
1040
222.19657968139651
1040
163.0024027789494
1040
101.8328354358673
1040
50.0
1040
0.0
1040
0.0
1070
     0
1070
     0
1070
     1
1070
     1
1070
     0
1070
     0
1070
     0
1070
     0
1040
0.0
1040
0.0
1040
0.0
1040
10.0
1040
10.0
1040
10.0
1040
10.0
1070
     0
1002
{
1002
}
1002
}
  0
VIEWPORT
  5
F6BA9
 67
     1
  8
OBJECT
 10
145.3303314447403
 20
101.8328338861465
 30
0.0
 40
232.5285303115844
 41
162.93253421783439
 68
     2
 69
     2
1001
ACAD
1000
MVIEW
1002
{
1070
    16
1010
0.0
1020
0.0
1030
0.0
1010
0.0
1020
0.0
1030
1.0
1040
0.0
1040
25942.55904403147
1040
2377.604457077377
1040
-7591.5176687056619
1040
50.0
1040
0.0
1040
0.0
1070
     0
1070
   600
1070
     1
1070
     1
1070
     0
1070
     0
1070
     0
1070
     0
1040
0.0
1040
0.0
1040
0.0
1040
1.0
1040
1.0
1040
0.0
1040
0.0
1070
     0
1002
{
1002
}
1002
}
  0
ENDSEC
  0
EOF
