  0
SECTION
  2
HEADER
  9
$ACADVER
  1
AC1009
  9
$INSBASE
 10
0.0
 20
0.0
 30
0.0
  9
$EXTMIN
 10
0.0
 20
-2263.9999999999991
 30
0.0
  9
$EXTMAX
 10
12387.100000000009
 20
770.0
 30
0.0
  9
$LIMMIN
 10
0.0
 20
0.0
  9
$LIMMAX
 10
210.0
 20
297.0
  9
$ORTHOMODE
 70
     0
  9
$REGENMODE
 70
     1
  9
$FILLMODE
 70
     1
  9
$QTEXTMODE
 70
     0
  9
$MIRRTEXT
 70
     0
  9
$DRAGMODE
 70
     2
  9
$LTSCALE
 40
1.0
  9
$OSMODE
 70
   109
  9
$ATTMODE
 70
     1
  9
$TEXTSIZE
 40
4.0
  9
$TRACEWID
 40
0.05
  9
$TEXTSTYLE
  7
STANDARD
  9
$CLAYER
  8
OBJECT
  9
$CELTYPE
  6
BYLAYER
  9
$CECOLOR
 62
   256
  9
$DIMSCALE
 40
10.0
  9
$DIMASZ
 40
2.0
  9
$DIMEXO
 40
1.0
  9
$DIMDLI
 40
10.0
  9
$DIMRND
 40
0.0
  9
$DIMDLE
 40
0.0
  9
$DIMEXE
 40
1.0
  9
$DIMTP
 40
0.0
  9
$DIMTM
 40
0.0
  9
$DIMTXT
 40
3.2000000000000002
  9
$DIMCEN
 40
0.0
  9
$DIMTSZ
 40
0.0
  9
$DIMTOL
 70
     0
  9
$DIMLIM
 70
     0
  9
$DIMTIH
 70
     0
  9
$DIMTOH
 70
     0
  9
$DIMSE1
 70
     0
  9
$DIMSE2
 70
     0
  9
$DIMTAD
 70
     1
  9
$DIMZIN
 70
     8
  9
$DIMBLK
  1
OPEN30
  9
$DIMASO
 70
     1
  9
$DIMSHO
 70
     1
  9
$DIMPOST
  1

  9
$DIMAPOST
  1

  9
$DIMALT
 70
     0
  9
$DIMALTD
 70
     2
  9
$DIMALTF
 40
25.399999999999999
  9
$DIMLFAC
 40
1.0
  9
$DIMTOFL
 70
     1
  9
$DIMTVP
 40
0.0
  9
$DIMTIX
 70
     0
  9
$DIMSOXD
 70
     0
  9
$DIMSAH
 70
     0
  9
$DIMBLK1
  1

  9
$DIMBLK2
  1

  9
$DIMSTYLE
  2
S10
  9
$DIMCLRD
 70
   256
  9
$DIMCLRE
 70
   256
  9
$DIMCLRT
 70
   256
  9
$DIMTFAC
 40
1.0
  9
$DIMGAP
 40
0.9
  9
$LUNITS
 70
     2
  9
$LUPREC
 70
     2
  9
$SKETCHINC
 40
0.1
  9
$FILLETRAD
 40
0.0
  9
$AUNITS
 70
     0
  9
$AUPREC
 70
     2
  9
$MENU
  1
ACAD
  9
$ELEVATION
 40
0.0
  9
$PELEVATION
 40
0.0
  9
$THICKNESS
 40
0.0
  9
$LIMCHECK
 70
     0
  9
$BLIPMODE
 70
     0
  9
$CHAMFERA
 40
2.0
  9
$CHAMFERB
 40
2.0
  9
$SKPOLY
 70
     0
  9
$TDCREATE
 40
2453095.4929404748
  9
$TDUPDATE
 40
2456735.6884441902
  9
$TDINDWG
 40
18.479734826400001
  9
$TDUSRTIMER
 40
18.479734108799999
  9
$USRTIMER
 70
     1
  9
$ANGBASE
 50
0.0
  9
$ANGDIR
 70
     0
  9
$PDMODE
 70
    35
  9
$PDSIZE
 40
2.0
  9
$PLINEWID
 40
0.0
  9
$COORDS
 70
     1
  9
$SPLFRAME
 70
     0
  9
$SPLINETYPE
 70
     6
  9
$SPLINESEGS
 70
     8
  9
$ATTDIA
 70
     0
  9
$ATTREQ
 70
     1
  9
$HANDLING
 70
     1
  9
$HANDSEED
  5
11E424
  9
$SURFTAB1
 70
     6
  9
$SURFTAB2
 70
     6
  9
$SURFTYPE
 70
     6
  9
$SURFU
 70
     6
  9
$SURFV
 70
     6
  9
$UCSNAME
  2

  9
$UCSORG
 10
0.0
 20
0.0
 30
0.0
  9
$UCSXDIR
 10
1.0
 20
0.0
 30
0.0
  9
$UCSYDIR
 10
0.0
 20
1.0
 30
0.0
  9
$PUCSNAME
  2

  9
$PUCSORG
 10
0.0
 20
0.0
 30
0.0
  9
$PUCSXDIR
 10
1.0
 20
0.0
 30
0.0
  9
$PUCSYDIR
 10
0.0
 20
1.0
 30
0.0
  9
$USERI1
 70
     0
  9
$USERI2
 70
     0
  9
$USERI3
 70
     0
  9
$USERI4
 70
     0
  9
$USERI5
 70
     0
  9
$USERR1
 40
0.0
  9
$USERR2
 40
0.0
  9
$USERR3
 40
0.0
  9
$USERR4
 40
0.0
  9
$USERR5
 40
0.0
  9
$WORLDVIEW
 70
     1
  9
$SHADEDGE
 70
     3
  9
$SHADEDIF
 70
    70
  9
$TILEMODE
 70
     1
  9
$MAXACTVP
 70
    64
  9
$PLIMCHECK
 70
     0
  9
$PEXTMIN
 10
29.066066288948051
 20
20.366566777229309
 30
0.0
  9
$PEXTMAX
 10
261.5945966005325
 20
183.29910099506381
 30
0.0
  9
$PLIMMIN
 10
-3.17498779296875
 20
-3.1749999523162842
  9
$PLIMMAX
 10
293.83566284179687
 20
206.8406708240509
  9
$UNITMODE
 70
     0
  9
$VISRETAIN
 70
     1
  9
$PLINEGEN
 70
     0
  9
$PSLTSCALE
 70
     1
  0
ENDSEC
  0
SECTION
  2
TABLES
  0
TABLE
  2
VPORT
 70
     1
  0
VPORT
  2
*ACTIVE
 70
     0
 10
0.0
 20
0.0
 11
1.0
 21
1.0
 12
6471.351145093362
 22
43.316776664384633
 13
0.0
 23
0.0
 14
1.0
 24
1.0
 15
0.0
 25
0.0
 16
0.0
 26
0.0
 36
1.0
 17
0.0
 27
0.0
 37
0.0
 40
12904.676073086401
 41
1.6778074866310151
 42
50.0
 43
0.0
 44
0.0
 50
0.0
 51
0.0
 71
     0
 72
   600
 73
     1
 74
     1
 75
     0
 76
     0
 77
     0
 78
     0
  0
ENDTAB
  0
TABLE
  2
LTYPE
 70
     4
  0
LTYPE
  2
CONTINUOUS
 70
     0
  3
Solid line
 72
    65
 73
     0
 40
0.0
  0
LTYPE
  2
PHANTOM2
 70
     0
  3
___ _ _ ___ _ _ ___ _ _ ___ _ _
 72
    65
 73
     6
 40
1.25
 49
0.625
 49
-0.125
 49
0.125
 49
-0.125
 49
0.125
 49
-0.125
  0
LTYPE
  2
ACAD_ISO08W100
 70
     0
  3
ISO long-dash short-dash ____ __ ____ __ ____ _
 72
    65
 73
     4
 40
36.0
 49
24.0
 49
-3.0
 49
6.0
 49
-3.0
  0
LTYPE
  2
ACAD_ISO02W100
 70
     0
  3
ISO dash __ __ __ __ __ __ __ __ __ __ __ __ __
 72
    65
 73
     2
 40
15.0
 49
12.0
 49
-3.0
  0
ENDTAB
  0
TABLE
  2
LAYER
 70
     7
  0
LAYER
  2
0
 70
     0
 62
     7
  6
CONTINUOUS
  0
LAYER
  2
OBJECT
 70
     0
 62
     4
  6
CONTINUOUS
  0
LAYER
  2
DEFPOINTS
 70
     0
 62
     7
  6
CONTINUOUS
  0
LAYER
  2
HIDDEN
 70
     0
 62
     2
  6
ACAD_ISO02W100
  0
LAYER
  2
CENTER
 70
     0
 62
     2
  6
ACAD_ISO08W100
  0
LAYER
  2
DOTS
 70
     0
 62
     1
  6
CONTINUOUS
  0
LAYER
  2
SLIM
 70
     0
 62
     2
  6
CONTINUOUS
  0
ENDTAB
  0
TABLE
  2
STYLE
 70
     2
  0
STYLE
  2
STANDARD
 70
     0
 40
0.0
 41
0.75
 50
0.0
 71
     0
 42
4.0
  3
simplex.shx
  4
bigfont.shx
  0
ENDTAB
  0
TABLE
  2
VIEW
 70
     0
  0
ENDTAB
  0
TABLE
  2
UCS
 70
     0
  0
ENDTAB
  0
TABLE
  2
APPID
 70
    18
  0
APPID
  2
ACAD
 70
     0
  0
APPID
  2
ACADANNOTATIVE
 70
     0
  0
APPID
  2
ACAD_PSEXT
 70
     0
  0
APPID
  2
ACAD_EXEMPT_FROM_CAD_STANDARDS
 70
     0
  0
APPID
  2
ACAECLAYERSTANDARD
 70
     0
  0
APPID
  2
ACAUTHENVIRON
 70
     0
  0
APPID
  2
ACDBDYNAMICBLOCKTRUENAME
 70
     0
  0
APPID
  2
ACDBDYNAMICBLOCKGUID
 70
     0
  0
APPID
  2
ACDBBLOCKREPETAG
 70
     0
  0
APPID
  2
ACDBBLOCKREPBTAG
 70
     0
  0
APPID
  2
ACAD_NAV_VCDISPLAY
 70
     0
  0
APPID
  2
ACAD_DSTYLE_DIMRADIAL_EXTENSION
 70
     0
  0
APPID
  2
ACAD_DSTYLE_DIMJAG
 70
     0
  0
APPID
  2
ACAD_DSTYLE_DIMTALN
 70
     0
  0
APPID
  2
ACADANNOPO
 70
     0
  0
APPID
  2
GRADIENTCOLOR1ACI
 70
     0
  0
APPID
  2
GRADIENTCOLOR2ACI
 70
     0
  0
APPID
  2
ACAD_MLEADERVER
 70
     0
  0
ENDTAB
  0
TABLE
  2
DIMSTYLE
 70
     3
  0
DIMSTYLE
  2
STANDARD
 70
     0
  3

  4

  5

  6

  7

 40
1.0
 41
0.18
 42
0.0625
 43
0.38
 44
0.18
 45
0.0
 46
0.0
 47
0.0
 48
0.0
140
0.18
141
0.09
142
0.0
143
25.399999999999999
144
1.0
145
0.0
146
1.0
147
0.09
 71
     0
 72
     0
 73
     1
 74
     1
 75
     0
 76
     0
 77
     0
 78
     0
170
     0
171
     2
172
     0
173
     0
174
     0
175
     0
176
     0
177
     0
178
     0
  0
DIMSTYLE
  2
S10
 70
     0
  3

  4

  5

  6

  7

 40
10.0
 41
2.0
 42
1.0
 43
10.0
 44
1.0
 45
0.0
 46
0.0
 47
0.0
 48
0.0
140
3.2000000000000002
141
0.0
142
0.0
143
25.399999999999999
144
1.0
145
0.0
146
1.0
147
0.9
 71
     0
 72
     0
 73
     0
 74
     0
 75
     0
 76
     0
 77
     1
 78
     8
170
     0
171
     2
172
     1
173
     0
174
     0
175
     0
176
   256
177
   256
178
   256
  0
ENDTAB
  0
ENDSEC
  0
SECTION
  2
BLOCKS
  0
BLOCK
  8
0
  2
$MODEL_SPACE
 70
     0
 10
0.0
 20
0.0
 30
0.0
  3
$MODEL_SPACE
  1

  0
ENDBLK
  5
11E347
  8
0
  0
BLOCK
 67
     1
  8
0
  2
$PAPER_SPACE
 70
     0
 10
0.0
 20
0.0
 30
0.0
  3
$PAPER_SPACE
  1

  0
ENDBLK
  5
11E343
 67
     1
  8
0
  0
BLOCK
  8
0
  2
_OPEN30
 70
     0
 10
0.0
 20
0.0
 30
0.0
  3
_OPEN30
  1

  0
LINE
  5
202
  8
0
  6
BYBLOCK
 62
     0
 10
-1.0
 20
0.26794919
 30
0.0
 11
0.0
 21
0.0
 31
0.0
  0
LINE
  5
203
  8
0
  6
BYBLOCK
 62
     0
 10
0.0
 20
0.0
 30
0.0
 11
-1.0
 21
-0.26794919
 31
0.0
  0
LINE
  5
204
  8
0
  6
BYBLOCK
 62
     0
 10
0.0
 20
0.0
 30
0.0
 11
-1.0
 21
0.0
 31
0.0
  0
ENDBLK
  5
206
  8
0
  0
ENDSEC
  0
SECTION
  2
ENTITIES
  0
LINE
  5
11DC17
  8
OBJECT
 10
11923.0
 20
-571.0
 30
0.0
 11
11923.0
 21
-550.0
 31
0.0
1001
ACDBBLOCKREPETAG
1070
     1
1071
       38
1005
11DC17
  0
LINE
  5
11DC18
  8
OBJECT
 10
11923.0
 20
-550.0
 30
0.0
 11
12077.0
 21
-550.0
 31
0.0
1001
ACDBBLOCKREPETAG
1070
     1
1071
       39
1005
11DC18
  0
LINE
  5
11DC19
  8
HIDDEN
 10
11943.0
 20
-620.0
 30
0.0
 11
12057.0
 21
-620.0
 31
0.0
1001
ACDBBLOCKREPETAG
1070
     1
1071
       40
1005
11DC19
  0
LINE
  5
11DC1A
  8
OBJECT
 10
12077.0
 20
-550.0
 30
0.0
 11
12077.0
 21
-571.0
 31
0.0
1001
ACDBBLOCKREPETAG
1070
     1
1071
       41
1005
11DC1A
  0
LINE
  5
11DC1B
  8
OBJECT
 10
12077.0
 20
-571.0
 30
0.0
 11
11923.0
 21
-571.0
 31
0.0
1001
ACDBBLOCKREPETAG
1070
     1
1071
       42
1005
11DC1B
  0
LINE
  5
11DC1C
  8
CENTER
 10
12000.0
 20
-535.0
 30
0.0
 11
12000.0
 21
-890.0
 31
0.0
1001
ACDBBLOCKREPETAG
1070
     1
1071
       43
1005
11DC1C
  0
LINE
  5
11DC1D
  8
OBJECT
 10
11928.0
 20
-571.0
 30
0.0
 11
11928.0
 21
-634.0
 31
0.0
1001
ACDBBLOCKREPETAG
1070
     1
1071
       44
1005
11DC1D
  0
LINE
  5
11DC1E
  8
OBJECT
 10
12072.0
 20
-634.0
 30
0.0
 11
12072.0
 21
-571.0
 31
0.0
1001
ACDBBLOCKREPETAG
1070
     1
1071
       45
1005
11DC1E
  0
LINE
  5
11DC1F
  8
OBJECT
 10
11920.0
 20
-878.0
 30
0.0
 11
12080.0
 21
-878.0
 31
0.0
1001
ACDBBLOCKREPETAG
1070
     1
1071
       46
1005
11DC1F
  0
LINE
  5
11DC20
  8
OBJECT
 10
12080.0
 20
-634.0
 30
0.0
 11
11920.0
 21
-634.0
 31
0.0
1001
ACDBBLOCKREPETAG
1070
     1
1071
       47
1005
11DC20
  0
LINE
  5
11DC21
  8
OBJECT
 10
11920.0
 20
-878.0
 30
0.0
 11
11920.0
 21
-890.0
 31
0.0
1001
ACDBBLOCKREPETAG
1070
     1
1071
       48
1005
11DC21
  0
LINE
  5
11DC22
  8
OBJECT
 10
11920.0
 20
-890.0
 30
0.0
 11
12080.0
 21
-890.0
 31
0.0
1001
ACDBBLOCKREPETAG
1070
     1
1071
       49
1005
11DC22
  0
LINE
  5
11DC23
  8
OBJECT
 10
12080.0
 20
-890.0
 30
0.0
 11
12080.0
 21
-878.0
 31
0.0
1001
ACDBBLOCKREPETAG
1070
     1
1071
       50
1005
11DC23
  0
LINE
  5
11DC24
  8
OBJECT
 10
12074.99999999986
 20
-757.99999999985096
 30
0.0
 11
12075.0
 21
-878.0
 31
0.0
1001
ACDBBLOCKREPETAG
1070
     1
1071
       54
1005
11DC24
  0
LINE
  5
11DC25
  8
OBJECT
 10
12074.99999080298
 20
-757.99998602702181
 30
0.0
 11
12080.0
 21
-757.99998602702181
 31
0.0
1001
ACDBBLOCKREPETAG
1070
     1
1071
       55
1005
11DC25
  0
LINE
  5
11DC26
  8
OBJECT
 10
11925.00000000014
 20
-757.99999999985096
 30
0.0
 11
11925.0
 21
-878.0
 31
0.0
1001
ACDBBLOCKREPETAG
1070
     1
1071
       56
1005
11DC26
  0
LINE
  5
11DC27
  8
OBJECT
 10
11925.000009197011
 20
-757.99998602702181
 30
0.0
 11
11920.0
 21
-757.99998602702181
 31
0.0
1001
ACDBBLOCKREPETAG
1070
     1
1071
       57
1005
11DC27
  0
ARC
  5
11DC28
  8
OBJECT
 10
12200.687274671671
 20
-749.40809941010752
 30
0.0
 40
170.6350503965856
 50
137.44134459184301
 51
149.91949581337221
1001
ACDBBLOCKREPETAG
1070
     1
1071
       58
1005
11DC28
  0
ARC
  5
11DC29
  8
OBJECT
 10
12200.687274671671
 20
-642.59190058989225
 30
0.0
 40
170.6350503965856
 50
210.08050418662771
 51
222.55865540815699
1001
ACDBBLOCKREPETAG
1070
     1
1071
       59
1005
11DC29
  0
ARC
  5
11DC2A
  8
OBJECT
 10
11799.312725328329
 20
-749.40809941010752
 30
0.0
 40
170.6350503965856
 50
30.080504186787142
 51
42.558655408347391
1001
ACDBBLOCKREPETAG
1070
     1
1071
       60
1005
11DC2A
  0
ARC
  5
11DC2B
  8
OBJECT
 10
11799.312725328329
 20
-642.59190058989225
 30
0.0
 40
170.6350503965856
 50
317.44134459165258
 51
329.9194958132129
1001
ACDBBLOCKREPETAG
1070
     1
1071
       61
1005
11DC2B
  0
POINT
  5
11DC2C
  8
DOTS
 10
12000.0
 20
-755.0
 30
0.0
1001
ACDBBLOCKREPETAG
1070
     1
1071
      185
1005
11DC2C
  0
LINE
  5
11DC2D
  8
SLIM
 10
11945.256670426101
 20
-137.99999999999909
 30
0.0
 11
11955.954840369581
 21
-127.30183005652231
 31
0.0
1001
GRADIENTCOLOR1ACI
1070
     5
1001
GRADIENTCOLOR2ACI
1070
     2
1001
ACAD
1010
0.0
1020
0.0
1030
0.0
1001
ACDBBLOCKREPETAG
1070
     1
1071
      428
1005
11DC2D
  0
LINE
  5
11DC2E
  8
SLIM
 10
11954.23692654717
 20
-137.99999999999909
 30
0.0
 11
11972.75077447633
 21
-119.4861520708364
 31
0.0
1001
GRADIENTCOLOR1ACI
1070
     5
1001
GRADIENTCOLOR2ACI
1070
     2
1001
ACAD
1010
0.0
1020
0.0
1030
0.0
1001
ACDBBLOCKREPETAG
1070
     1
1071
      429
1005
11DC2E
  0
LINE
  5
11DC2F
  8
SLIM
 10
11973.521224312461
 20
-127.6959583557812
 30
0.0
 11
11984.857514674861
 21
-116.359667993377
 31
0.0
1001
GRADIENTCOLOR1ACI
1070
     5
1001
GRADIENTCOLOR2ACI
1070
     2
1001
ACAD
1010
0.0
1020
0.0
1030
0.0
1001
ACDBBLOCKREPETAG
1070
     1
1071
      430
1005
11DC2F
  0
LINE
  5
11DC30
  8
SLIM
 10
11985.894417146121
 20
-124.30302164318159
 30
0.0
 11
11995.05338120025
 21
-115.1440575890517
 31
0.0
1001
GRADIENTCOLOR1ACI
1070
     5
1001
GRADIENTCOLOR2ACI
1070
     2
1001
ACAD
1010
0.0
1020
0.0
1030
0.0
1001
ACDBBLOCKREPETAG
1070
     1
1071
      431
1005
11DC30
  0
LINE
  5
11DC31
  8
SLIM
 10
11996.077732749211
 20
-123.0999621611699
 30
0.0
 11
12000.0
 21
-119.1776949103767
 31
0.0
1001
GRADIENTCOLOR1ACI
1070
     5
1001
GRADIENTCOLOR2ACI
1070
     2
1001
ACAD
1010
0.0
1020
0.0
1030
0.0
1001
ACDBBLOCKREPETAG
1070
     1
1071
      432
1005
11DC31
  0
LINE
  5
11DC32
  8
SLIM
 10
12000.0
 20
-119.1776949103767
 30
0.0
 11
12004.0797313529
 21
-115.0979635574724
 31
0.0
1001
GRADIENTCOLOR1ACI
1070
     5
1001
GRADIENTCOLOR2ACI
1070
     2
1001
ACAD
1010
0.0
1020
0.0
1030
0.0
1001
ACDBBLOCKREPETAG
1070
     1
1071
      433
1005
11DC32
  0
LINE
  5
11DC33
  8
SLIM
 10
12004.995720254279
 20
-123.1622307771683
 30
0.0
 11
12012.267978410569
 21
-115.88997262087101
 31
0.0
1001
GRADIENTCOLOR1ACI
1070
     5
1001
GRADIENTCOLOR2ACI
1070
     2
1001
ACAD
1010
0.0
1020
0.0
1030
0.0
1001
ACDBBLOCKREPETAG
1070
     1
1071
      434
1005
11DC33
  0
LINE
  5
11DC34
  8
SLIM
 10
12013.028059366959
 20
-124.1101477855505
 30
0.0
 11
12019.799941457361
 21
-117.3382656951526
 31
0.0
1001
GRADIENTCOLOR1ACI
1070
     5
1001
GRADIENTCOLOR2ACI
1070
     2
1001
ACAD
1010
0.0
1020
0.0
1030
0.0
1001
ACDBBLOCKREPETAG
1070
     1
1071
      435
1005
11DC34
  0
LINE
  5
11DC35
  8
SLIM
 10
12020.374081314239
 20
-125.7443819593383
 30
0.0
 11
12026.787203867279
 21
-119.3312594063044
 31
0.0
1001
GRADIENTCOLOR1ACI
1070
     5
1001
GRADIENTCOLOR2ACI
1070
     2
1001
ACAD
1010
0.0
1020
0.0
1030
0.0
1001
ACDBBLOCKREPETAG
1070
     1
1071
      436
1005
11DC35
  0
LINE
  5
11DC36
  8
SLIM
 10
12027.15247199887
 20
-127.946247395778
 30
0.0
 11
12033.303003076029
 21
-121.7957163186195
 31
0.0
1001
GRADIENTCOLOR1ACI
1070
     5
1001
GRADIENTCOLOR2ACI
1070
     2
1001
ACAD
1010
0.0
1020
0.0
1030
0.0
1001
ACDBBLOCKREPETAG
1070
     1
1071
      437
1005
11DC36
  0
LINE
  5
11DC37
  8
SLIM
 10
12033.43909865133
 20
-130.63987686439191
 30
0.0
 11
12039.397311984379
 21
-124.6816635313439
 31
0.0
1001
GRADIENTCOLOR1ACI
1070
     5
1001
GRADIENTCOLOR2ACI
1070
     2
1001
ACAD
1010
0.0
1020
0.0
1030
0.0
1001
ACDBBLOCKREPETAG
1070
     1
1071
      438
1005
11DC37
  0
LINE
  5
11DC38
  8
SLIM
 10
12039.284224621801
 20
-133.77500701499321
 30
0.0
 11
12045.10477053437
 21
-127.95446110242381
 31
0.0
1001
GRADIENTCOLOR1ACI
1070
     5
1001
GRADIENTCOLOR2ACI
1070
     2
1001
ACAD
1010
0.0
1020
0.0
1030
0.0
1001
ACDBBLOCKREPETAG
1070
     1
1071
      439
1005
11DC38
  0
LINE
  5
11DC39
  8
SLIM
 10
12044.721280169801
 20
-137.31820758805651
 30
0.0
 11
12050.449155789191
 21
-131.59033196866449
 31
0.0
1001
GRADIENTCOLOR1ACI
1070
     5
1001
GRADIENTCOLOR2ACI
1070
     2
1001
ACAD
1010
0.0
1020
0.0
1030
0.0
1001
ACDBBLOCKREPETAG
1070
     1
1071
      440
1005
11DC39
  0
LINE
  5
11DC3A
  8
SLIM
 10
12053.01974387892
 20
-137.99999999999909
 30
0.0
 11
12055.445994186401
 21
-135.57374969252561
 31
0.0
1001
GRADIENTCOLOR1ACI
1070
     5
1001
GRADIENTCOLOR2ACI
1070
     2
1001
ACAD
1010
0.0
1020
0.0
1030
0.0
1001
ACDBBLOCKREPETAG
1070
     1
1071
      441
1005
11DC3A
  0
LINE
  5
11DC3B
  8
CENTER
 10
12000.0
 20
-279.99999999999909
 30
0.0
 11
12000.0
 21
-99.999999999999091
 31
0.0
1001
ACDBBLOCKREPETAG
1070
     1
1071
      160
1005
11DC3B
  0
CIRCLE
  5
11DC3C
  8
OBJECT
 10
12000.0
 20
-199.99999999999909
 30
0.0
 40
70.0
1001
ACDBBLOCKREPETAG
1070
     1
1071
      161
1005
11DC3C
  0
CIRCLE
  5
11DC3D
  8
OBJECT
 10
12000.0
 20
-199.99999999999909
 30
0.0
 40
77.0
1001
ACDBBLOCKREPETAG
1070
     1
1071
      162
1005
11DC3D
  0
LINE
  5
11DC3E
  8
OBJECT
 10
12045.661800227321
 20
-137.99999999999909
 30
0.0
 11
12080.0
 21
-137.99999999999909
 31
0.0
1001
ACDBBLOCKREPETAG
1070
     1
1071
      164
1005
11DC3E
  0
LINE
  5
11DC3F
  8
OBJECT
 10
12062.0
 20
-261.99999999999909
 30
0.0
 11
12080.0
 21
-261.99999999999909
 31
0.0
1001
ACDBBLOCKREPETAG
1070
     1
1071
      165
1005
11DC3F
  0
LINE
  5
11DC40
  8
OBJECT
 10
12062.0
 20
-261.99999999999909
 30
0.0
 11
12062.0
 21
-279.99999999999909
 31
0.0
1001
ACDBBLOCKREPETAG
1070
     1
1071
      167
1005
11DC40
  0
LINE
  5
11DC41
  8
OBJECT
 10
11938.0
 20
-261.99999999999909
 30
0.0
 11
11938.0
 21
-279.99999999999909
 31
0.0
1001
ACDBBLOCKREPETAG
1070
     1
1071
      168
1005
11DC41
  0
LINE
  5
11DC42
  8
OBJECT
 10
11938.0
 20
-261.99999999999909
 30
0.0
 11
11920.0
 21
-261.99999999999909
 31
0.0
1001
ACDBBLOCKREPETAG
1070
     1
1071
      170
1005
11DC42
  0
LINE
  5
11DC43
  8
OBJECT
 10
11954.33819977267
 20
-137.99999999999909
 30
0.0
 11
11920.0
 21
-137.99999999999909
 31
0.0
1001
ACDBBLOCKREPETAG
1070
     1
1071
      171
1005
11DC43
  0
LINE
  5
11DC44
  8
OBJECT
 10
11945.55277784863
 20
-254.44722215136329
 30
0.0
 11
11938.0
 21
-261.99999999999909
 31
0.0
1001
ACDBBLOCKREPETAG
1070
     1
1071
      180
1005
11DC44
  0
LINE
  5
11DC45
  8
OBJECT
 10
12054.447222151361
 20
-254.44722215136329
 30
0.0
 11
12062.0
 21
-261.99999999999909
 31
0.0
1001
ACDBBLOCKREPETAG
1070
     1
1071
      181
1005
11DC45
  0
ARC
  5
11DC46
  8
OBJECT
 10
12000.0
 20
-199.99999999999909
 30
0.0
 40
85.0
 50
46.837102859844251
 51
133.16289714015571
1001
ACDBBLOCKREPETAG
1070
     1
1071
      183
1005
11DC46
  0
LINE
  5
11DC47
  8
OBJECT
 10
12024.1029330933
 20
-243.80694712371681
 30
0.0
 11
12020.659656999989
 21
-232.55462199999889
 31
0.0
1001
ACDBBLOCKREPETAG
1070
     1
1071
      314
1005
11DC47
  0
LINE
  5
11DC48
  8
OBJECT
 10
11986.79274990136
 20
-218.22553374208019
 30
0.0
 11
12020.659656999989
 21
-232.5546219999969
 31
0.0
1001
ACDBBLOCKREPETAG
1070
     1
1071
      316
1005
11DC48
  0
ARC
  5
11DC49
  8
OBJECT
 10
11982.8961697619
 20
-227.4351299990567
 30
0.0
 40
10.0
 50
67.066778292911366
 51
154.01473437031629
1001
ACDBBLOCKREPETAG
1070
     1
1071
      317
1005
11DC49
  0
ARC
  5
11DC4A
  8
OBJECT
 10
11986.148839038129
 20
-225.55386256729159
 30
0.0
 40
7.0
 50
67.066778292911366
 51
154.0147337749826
1001
ACDBBLOCKREPETAG
1070
     1
1071
      318
1005
11DC4A
  0
LINE
  5
11DC4B
  8
OBJECT
 10
11969.4199755553
 20
-243.89888500818171
 30
0.0
 11
11979.85649182323
 21
-222.48688253356801
 31
0.0
1001
ACDBBLOCKREPETAG
1070
     1
1071
      349
1005
11DC4B
  0
LINE
  5
11DC4C
  8
OBJECT
 10
11965.29721690061
 20
-240.71813901882729
 30
0.0
 11
11973.90710226651
 21
-223.05373004430751
 31
0.0
1001
ACDBBLOCKREPETAG
1070
     1
1071
      350
1005
11DC4C
  0
ARC
  5
11DC4D
  8
OBJECT
 10
11976.57969530731
 20
-207.1289369828437
 30
0.0
 40
60.031113246032611
 50
314.07020130422319
 51
322.33936106089681
1001
ACDBBLOCKREPETAG
1070
     1
1071
      351
1005
11DC4D
  0
CIRCLE
  5
11DC4E
  8
OBJECT
 10
12000.0
 20
-199.99999999999909
 30
0.0
 40
53.5
1001
ACDBBLOCKREPETAG
1070
     1
1071
      352
1005
11DC4E
  0
POINT
  5
11DC4F
  8
DOTS
 10
12000.0
 20
-199.99999999999909
 30
0.0
 50
270.0
1001
ACDBBLOCKREPETAG
1070
     1
1071
      364
1005
11DC4F
  0
ARC
  5
11DC50
  8
OBJECT
 10
12000.0
 20
-199.99999999999909
 30
0.0
 40
50.0
 50
298.81994300000417
 51
228.5237695596397
1001
ACDBBLOCKREPETAG
1070
     1
1071
      157
1005
11DC50
  0
LINE
  5
11DC51
  8
CENTER
 10
12080.0
 20
-199.99999999999909
 30
0.0
 11
11920.0
 21
-199.99999999999909
 31
0.0
1001
ACDBBLOCKREPETAG
1070
     1
1071
      158
1005
11DC51
  0
LINE
  5
11DC52
  8
OBJECT
 10
11787.00000000002
 20
-137.99999999999909
 30
0.0
 11
11780.00000000002
 21
-137.99999999999909
 31
0.0
1001
ACDBBLOCKREPETAG
1070
     1
1071
      110
1005
11DC52
  0
LINE
  5
11DC53
  8
OBJECT
 10
11780.00000000002
 20
-137.99999999999909
 30
0.0
 11
11780.00000000002
 21
-261.99999999999909
 31
0.0
1001
ACDBBLOCKREPETAG
1070
     1
1071
      111
1005
11DC53
  0
LINE
  5
11DC54
  8
OBJECT
 10
11780.00000000002
 20
-261.99999999999909
 30
0.0
 11
11787.00000000002
 21
-261.99999999999909
 31
0.0
1001
ACDBBLOCKREPETAG
1070
     1
1071
      112
1005
11DC54
  0
LINE
  5
11DC55
  8
OBJECT
 10
11787.00000000002
 20
-261.99999999999909
 30
0.0
 11
11787.00000000002
 21
-137.99999999999909
 31
0.0
1001
ACDBBLOCKREPETAG
1070
     1
1071
      113
1005
11DC55
  0
LINE
  5
11DC56
  8
CENTER
 10
11765.00000000002
 20
-199.99999999999909
 30
0.0
 11
11920.0
 21
-199.99999999999909
 31
0.0
1001
ACDBBLOCKREPETAG
1070
     1
1071
      114
1005
11DC56
  0
LINE
  5
11DC57
  8
OBJECT
 10
11840.00002503581
 20
-245.0000000000027
 30
0.0
 11
11914.0
 21
-244.99999999999909
 31
0.0
1001
ACDBBLOCKREPETAG
1070
     1
1071
      115
1005
11DC57
  0
LINE
  5
11DC58
  8
OBJECT
 10
11840.00002503581
 20
-154.99999999999909
 30
0.0
 11
11914.0
 21
-154.99999999999909
 31
0.0
1001
ACDBBLOCKREPETAG
1070
     1
1071
      116
1005
11DC58
  0
LINE
  5
11DC59
  8
OBJECT
 10
11787.00000000002
 20
-140.99999999999909
 30
0.0
 11
11823.00000000002
 21
-140.99999999999909
 31
0.0
1001
ACDBBLOCKREPETAG
1070
     1
1071
      117
1005
11DC59
  0
LINE
  5
11DC5A
  8
OBJECT
 10
11823.00000000002
 20
-140.99999999999909
 30
0.0
 11
11823.00000000002
 21
-258.99999999999909
 31
0.0
1001
ACDBBLOCKREPETAG
1070
     1
1071
      118
1005
11DC5A
  0
LINE
  5
11DC5B
  8
OBJECT
 10
11823.00000000002
 20
-258.99999999999909
 30
0.0
 11
11787.00000000002
 21
-258.99999999999909
 31
0.0
1001
ACDBBLOCKREPETAG
1070
     1
1071
      119
1005
11DC5B
  0
LINE
  5
11DC5C
  8
OBJECT
 10
11827.00000000002
 20
-145.49999999999909
 30
0.0
 11
11840.00000000002
 21
-145.49999999999909
 31
0.0
1001
ACDBBLOCKREPETAG
1070
     1
1071
      120
1005
11DC5C
  0
LINE
  5
11DC5D
  8
OBJECT
 10
11840.00000000002
 20
-254.49999999999909
 30
0.0
 11
11827.00000000002
 21
-254.49999999999909
 31
0.0
1001
ACDBBLOCKREPETAG
1070
     1
1071
      121
1005
11DC5D
  0
LINE
  5
11DC5E
  8
OBJECT
 10
11827.00000000002
 20
-254.49999999999909
 30
0.0
 11
11827.00000000002
 21
-145.49999999999909
 31
0.0
1001
ACDBBLOCKREPETAG
1070
     1
1071
      122
1005
11DC5E
  0
LINE
  5
11DC5F
  8
OBJECT
 10
11823.00000000002
 20
-140.99999999999909
 30
0.0
 11
11827.00000000002
 21
-145.49999999999909
 31
0.0
1001
ACDBBLOCKREPETAG
1070
     1
1071
      123
1005
11DC5F
  0
LINE
  5
11DC60
  8
OBJECT
 10
11823.00000000002
 20
-258.99999999999909
 30
0.0
 11
11827.00000000002
 21
-254.49999999999909
 31
0.0
1001
ACDBBLOCKREPETAG
1070
     1
1071
      124
1005
11DC60
  0
LINE
  5
11DC61
  8
OBJECT
 10
11917.0
 20
-137.99999999999909
 30
0.0
 11
11920.0
 21
-137.99999999999909
 31
0.0
1001
ACDBBLOCKREPETAG
1070
     1
1071
      125
1005
11DC61
  0
ARC
  5
11DC62
  8
OBJECT
 10
11917.0
 20
-140.99999999999909
 30
0.0
 40
3.0
 50
90.0
 51
180.0
1001
ACDBBLOCKREPETAG
1070
     1
1071
      126
1005
11DC62
  0
LINE
  5
11DC63
  8
OBJECT
 10
11920.0
 20
-261.99999999999909
 30
0.0
 11
11917.0
 21
-261.99999999999909
 31
0.0
1001
ACDBBLOCKREPETAG
1070
     1
1071
      127
1005
11DC63
  0
ARC
  5
11DC64
  8
OBJECT
 10
11917.0
 20
-258.99999999999909
 30
0.0
 40
3.0
 50
180.0
 51
270.0
1001
ACDBBLOCKREPETAG
1070
     1
1071
      128
1005
11DC64
  0
LINE
  5
11DC65
  8
OBJECT
 10
11914.0
 20
-258.99999999999909
 30
0.0
 11
11914.0
 21
-222.44994432063581
 31
0.0
1001
ACDBBLOCKREPETAG
1070
     1
1071
      129
1005
11DC65
  0
LINE
  5
11DC66
  8
OBJECT
 10
11914.0
 20
-177.55005567935859
 30
0.0
 11
11914.0
 21
-140.99999999999909
 31
0.0
1001
ACDBBLOCKREPETAG
1070
     1
1071
      130
1005
11DC66
  0
LINE
  5
11DC67
  8
HIDDEN
 10
11832.00000000002
 20
-155.49999999999909
 30
0.0
 11
11832.00000000002
 21
-244.49999999999909
 31
0.0
1001
ACDBBLOCKREPETAG
1070
     1
1071
      131
1005
11DC67
  0
LINE
  5
11DC68
  8
OBJECT
 10
11840.00002503581
 20
-254.4999509238105
 30
0.0
 11
11840.00002503581
 21
-145.4999509238105
 31
0.0
1001
ACDBBLOCKREPETAG
1070
     1
1071
      133
1005
11DC68
  0
ARC
  5
11DC69
  8
OBJECT
 10
11875.0
 20
-199.99999999999909
 30
0.0
 40
45.000000000000547
 50
270.0
 51
90.0
1001
ACDBBLOCKREPETAG
1070
     1
1071
      134
1005
11DC69
  0
LINE
  5
11DC6A
  8
CENTER
 10
12000.0
 20
-300.99999999999898
 30
0.0
 11
12000.0
 21
-279.99999999999909
 31
0.0
1001
ACDBBLOCKREPETAG
1070
     1
1071
        0
1005
11DC6A
  0
LINE
  5
11DC6B
  8
OBJECT
 10
12062.0
 20
-283.0
 30
0.0
 11
12062.0
 21
-279.99999999999909
 31
0.0
1001
ACDBBLOCKREPETAG
1070
     1
1071
        1
1005
11DC6B
  0
ARC
  5
11DC6C
  8
OBJECT
 10
12059.0
 20
-283.0
 30
0.0
 40
3.0
 50
270.0
 51
0.0
1001
ACDBBLOCKREPETAG
1070
     1
1071
        2
1005
11DC6C
  0
LINE
  5
11DC6D
  8
OBJECT
 10
11938.0
 20
-279.99999999999909
 30
0.0
 11
11938.0
 21
-282.99999999999818
 31
0.0
1001
ACDBBLOCKREPETAG
1070
     1
1071
        3
1005
11DC6D
  0
ARC
  5
11DC6E
  8
OBJECT
 10
11941.0
 20
-282.99999999999818
 30
0.0
 40
3.0
 50
180.0
 51
270.0
1001
ACDBBLOCKREPETAG
1070
     1
1071
        4
1005
11DC6E
  0
LINE
  5
11DC6F
  8
OBJECT
 10
11941.0
 20
-285.99999999999818
 30
0.0
 11
12059.0
 21
-286.0
 31
0.0
1001
ACDBBLOCKREPETAG
1070
     1
1071
        5
1005
11DC6F
  0
LINE
  5
11DC70
  8
OBJECT
 10
12212.99999999998
 20
-137.99999999999909
 30
0.0
 11
12219.99999999998
 21
-137.99999999999909
 31
0.0
1001
ACDBBLOCKREPETAG
1070
     1
1071
      110
1005
11DC70
  0
LINE
  5
11DC71
  8
OBJECT
 10
12219.99999999998
 20
-137.99999999999909
 30
0.0
 11
12219.99999999998
 21
-261.99999999999909
 31
0.0
1001
ACDBBLOCKREPETAG
1070
     1
1071
      111
1005
11DC71
  0
LINE
  5
11DC72
  8
OBJECT
 10
12219.99999999998
 20
-261.99999999999909
 30
0.0
 11
12212.99999999998
 21
-261.99999999999909
 31
0.0
1001
ACDBBLOCKREPETAG
1070
     1
1071
      112
1005
11DC72
  0
LINE
  5
11DC73
  8
OBJECT
 10
12212.99999999998
 20
-261.99999999999909
 30
0.0
 11
12212.99999999998
 21
-137.99999999999909
 31
0.0
1001
ACDBBLOCKREPETAG
1070
     1
1071
      113
1005
11DC73
  0
LINE
  5
11DC74
  8
CENTER
 10
12234.99999999998
 20
-199.99999999999909
 30
0.0
 11
12080.0
 21
-199.99999999999909
 31
0.0
1001
ACDBBLOCKREPETAG
1070
     1
1071
      114
1005
11DC74
  0
LINE
  5
11DC75
  8
OBJECT
 10
12159.999974964179
 20
-245.0000000000027
 30
0.0
 11
12086.0
 21
-244.99999999999909
 31
0.0
1001
ACDBBLOCKREPETAG
1070
     1
1071
      115
1005
11DC75
  0
LINE
  5
11DC76
  8
OBJECT
 10
12159.999974964179
 20
-154.99999999999909
 30
0.0
 11
12086.0
 21
-154.99999999999909
 31
0.0
1001
ACDBBLOCKREPETAG
1070
     1
1071
      116
1005
11DC76
  0
LINE
  5
11DC77
  8
OBJECT
 10
12212.99999999998
 20
-140.99999999999909
 30
0.0
 11
12176.99999999998
 21
-140.99999999999909
 31
0.0
1001
ACDBBLOCKREPETAG
1070
     1
1071
      117
1005
11DC77
  0
LINE
  5
11DC78
  8
OBJECT
 10
12176.99999999998
 20
-140.99999999999909
 30
0.0
 11
12176.99999999998
 21
-258.99999999999909
 31
0.0
1001
ACDBBLOCKREPETAG
1070
     1
1071
      118
1005
11DC78
  0
LINE
  5
11DC79
  8
OBJECT
 10
12176.99999999998
 20
-258.99999999999909
 30
0.0
 11
12212.99999999998
 21
-258.99999999999909
 31
0.0
1001
ACDBBLOCKREPETAG
1070
     1
1071
      119
1005
11DC79
  0
LINE
  5
11DC7A
  8
OBJECT
 10
12172.99999999998
 20
-145.49999999999909
 30
0.0
 11
12159.99999999998
 21
-145.49999999999909
 31
0.0
1001
ACDBBLOCKREPETAG
1070
     1
1071
      120
1005
11DC7A
  0
LINE
  5
11DC7B
  8
OBJECT
 10
12159.99999999998
 20
-254.49999999999909
 30
0.0
 11
12172.99999999998
 21
-254.49999999999909
 31
0.0
1001
ACDBBLOCKREPETAG
1070
     1
1071
      121
1005
11DC7B
  0
LINE
  5
11DC7C
  8
OBJECT
 10
12172.99999999998
 20
-254.49999999999909
 30
0.0
 11
12172.99999999998
 21
-145.49999999999909
 31
0.0
1001
ACDBBLOCKREPETAG
1070
     1
1071
      122
1005
11DC7C
  0
LINE
  5
11DC7D
  8
OBJECT
 10
12176.99999999998
 20
-140.99999999999909
 30
0.0
 11
12172.99999999998
 21
-145.49999999999909
 31
0.0
1001
ACDBBLOCKREPETAG
1070
     1
1071
      123
1005
11DC7D
  0
LINE
  5
11DC7E
  8
OBJECT
 10
12176.99999999998
 20
-258.99999999999909
 30
0.0
 11
12172.99999999998
 21
-254.49999999999909
 31
0.0
1001
ACDBBLOCKREPETAG
1070
     1
1071
      124
1005
11DC7E
  0
LINE
  5
11DC7F
  8
OBJECT
 10
12083.0
 20
-137.99999999999909
 30
0.0
 11
12080.0
 21
-137.99999999999909
 31
0.0
1001
ACDBBLOCKREPETAG
1070
     1
1071
      125
1005
11DC7F
  0
ARC
  5
11DC80
  8
OBJECT
 10
12083.0
 20
-140.99999999999909
 30
0.0
 40
3.0
 50
0.0
 51
90.0
1001
ACDBBLOCKREPETAG
1070
     1
1071
      126
1005
11DC80
  0
LINE
  5
11DC81
  8
OBJECT
 10
12080.0
 20
-261.99999999999909
 30
0.0
 11
12083.0
 21
-261.99999999999909
 31
0.0
1001
ACDBBLOCKREPETAG
1070
     1
1071
      127
1005
11DC81
  0
ARC
  5
11DC82
  8
OBJECT
 10
12083.0
 20
-258.99999999999909
 30
0.0
 40
3.0
 50
270.0
 51
0.0
1001
ACDBBLOCKREPETAG
1070
     1
1071
      128
1005
11DC82
  0
LINE
  5
11DC83
  8
OBJECT
 10
12086.0
 20
-258.99999999999909
 30
0.0
 11
12086.0
 21
-222.44994432063581
 31
0.0
1001
ACDBBLOCKREPETAG
1070
     1
1071
      129
1005
11DC83
  0
LINE
  5
11DC84
  8
OBJECT
 10
12086.0
 20
-177.55005567935859
 30
0.0
 11
12086.0
 21
-140.99999999999909
 31
0.0
1001
ACDBBLOCKREPETAG
1070
     1
1071
      130
1005
11DC84
  0
LINE
  5
11DC85
  8
HIDDEN
 10
12167.99999999998
 20
-155.49999999999909
 30
0.0
 11
12167.99999999998
 21
-244.49999999999909
 31
0.0
1001
ACDBBLOCKREPETAG
1070
     1
1071
      131
1005
11DC85
  0
LINE
  5
11DC86
  8
OBJECT
 10
12159.999974964179
 20
-254.4999509238105
 30
0.0
 11
12159.999974964179
 21
-145.4999509238105
 31
0.0
1001
ACDBBLOCKREPETAG
1070
     1
1071
      133
1005
11DC86
  0
ARC
  5
11DC87
  8
OBJECT
 10
12125.0
 20
-199.99999999999909
 30
0.0
 40
45.000000000000547
 50
90.0
 51
270.0
1001
ACDBBLOCKREPETAG
1070
     1
1071
      134
1005
11DC87
  0
LINE
  5
11DC88
  8
OBJECT
 10
11787.0
 20
-553.0
 30
0.0
 11
11780.000000000009
 21
-553.0
 31
0.0
1001
ACDBBLOCKREPETAG
1070
     1
1071
      106
1005
11DC88
  0
LINE
  5
11DC89
  8
OBJECT
 10
11780.000000000009
 20
-553.0
 30
0.0
 11
11780.000000000009
 21
-677.0
 31
0.0
1001
ACDBBLOCKREPETAG
1070
     1
1071
      107
1005
11DC89
  0
LINE
  5
11DC8A
  8
OBJECT
 10
11914.0
 20
-653.3502637757274
 30
0.0
 11
11914.0
 21
-755.00000000000102
 31
0.0
1001
ACDBBLOCKREPETAG
1070
     1
1071
      108
1005
11DC8A
  0
LINE
  5
11DC8B
  8
OBJECT
 10
11780.000000000009
 20
-677.0
 30
0.0
 11
11787.0
 21
-677.0
 31
0.0
1001
ACDBBLOCKREPETAG
1070
     1
1071
      109
1005
11DC8B
  0
LINE
  5
11DC8C
  8
OBJECT
 10
11787.0
 20
-677.0
 30
0.0
 11
11787.0
 21
-553.0
 31
0.0
1001
ACDBBLOCKREPETAG
1070
     1
1071
      110
1005
11DC8C
  0
LINE
  5
11DC8D
  8
CENTER
 10
11855.000000000009
 20
-615.0000000000008
 30
0.0
 11
11765.0
 21
-615.0
 31
0.0
1001
ACDBBLOCKREPETAG
1070
     1
1071
      111
1005
11DC8D
  0
LINE
  5
11DC8E
  8
OBJECT
 10
11920.00000000002
 20
-758.0
 30
0.0
 11
11917.000000000009
 21
-758.0000000000008
 31
0.0
1001
ACDBBLOCKREPETAG
1070
     1
1071
      112
1005
11DC8E
  0
ARC
  5
11DC8F
  8
OBJECT
 10
11917.000000000009
 20
-755.00000000000102
 30
0.0
 40
3.0
 50
180.0
 51
270.0
1001
ACDBBLOCKREPETAG
1070
     1
1071
      113
1005
11DC8F
  0
LINE
  5
11DC90
  8
OBJECT
 10
11787.0
 20
-556.0
 30
0.0
 11
11823.000000000009
 21
-556.0000000000008
 31
0.0
1001
ACDBBLOCKREPETAG
1070
     1
1071
      114
1005
11DC90
  0
LINE
  5
11DC91
  8
OBJECT
 10
11823.000000000009
 20
-556.0000000000008
 30
0.0
 11
11823.000000000009
 21
-653.15756805667843
 31
0.0
1001
ACDBBLOCKREPETAG
1070
     1
1071
      115
1005
11DC91
  0
LINE
  5
11DC92
  8
OBJECT
 10
11827.0
 20
-560.5000000000008
 30
0.0
 11
11827.00000000002
 21
-645.74491827928705
 31
0.0
1001
ACDBBLOCKREPETAG
1070
     1
1071
      116
1005
11DC92
  0
LINE
  5
11DC93
  8
OBJECT
 10
11827.0
 20
-560.5000000000008
 30
0.0
 11
11840.000000000009
 21
-560.5000000000008
 31
0.0
1001
ACDBBLOCKREPETAG
1070
     1
1071
      117
1005
11DC93
  0
LINE
  5
11DC94
  8
OBJECT
 10
11831.343683174529
 20
-674.0000000000008
 30
0.0
 11
11787.0
 21
-674.0
 31
0.0
1001
ACDBBLOCKREPETAG
1070
     1
1071
      118
1005
11DC94
  0
LINE
  5
11DC95
  8
OBJECT
 10
11823.000000000009
 20
-556.0000000000008
 30
0.0
 11
11827.0
 21
-560.5000000000008
 31
0.0
1001
ACDBBLOCKREPETAG
1070
     1
1071
      119
1005
11DC95
  0
LINE
  5
11DC96
  8
OBJECT
 10
11840.000000000009
 20
-560.5000000000008
 30
0.0
 11
11840.000000000009
 21
-645.74491827928784
 31
0.0
1001
ACDBBLOCKREPETAG
1070
     1
1071
      120
1005
11DC96
  0
ARC
  5
11DC97
  8
OBJECT
 10
11908.0
 20
-637.27386365609345
 30
0.0
 40
85.0
 50
205.5991387218653
 51
231.40900676279119
1001
ACDBBLOCKREPETAG
1070
     1
1071
      121
1005
11DC97
  0
ARC
  5
11DC98
  8
OBJECT
 10
11837.20000000001
 20
-655.00000000000068
 30
0.0
 40
85.0
 50
19.925932125430649
 51
88.112268108168848
1001
ACDBBLOCKREPETAG
1070
     1
1071
      122
1005
11DC98
  0
LINE
  5
11DC99
  8
OBJECT
 10
11914.0
 20
-750.81075719270905
 30
0.0
 11
11854.9806774564
 21
-703.71143914629454
 31
0.0
1001
ACDBBLOCKREPETAG
1070
     1
1071
      123
1005
11DC99
  0
LINE
  5
11DC9A
  8
OBJECT
 10
11827.00000000002
 20
-645.74491827928705
 30
0.0
 11
11840.000000000009
 21
-645.74491827928784
 31
0.0
1001
ACDBBLOCKREPETAG
1070
     1
1071
      124
1005
11DC9A
  0
LINE
  5
11DC9B
  8
OBJECT
 10
11823.000000000009
 20
-653.15756805667843
 30
0.0
 11
11827.00000000002
 21
-645.74491827928705
 31
0.0
1001
ACDBBLOCKREPETAG
1070
     1
1071
      125
1005
11DC9B
  0
LINE
  5
11DC9C
  8
OBJECT
 10
11919.99999999998
 20
-634.0
 30
0.0
 11
11917.111387840379
 21
-626.03156729425325
 31
0.0
1001
ACDBBLOCKREPETAG
1070
     1
1071
      126
1005
11DC9C
  0
LINE
  5
11DC9D
  8
OBJECT
 10
11919.99999999998
 20
-634.0
 30
0.0
 11
11914.0
 21
-653.3502637757274
 31
0.0
1001
ACDBBLOCKREPETAG
1070
     1
1071
      127
1005
11DC9D
  0
LINE
  5
11DC9E
  8
HIDDEN
 10
11832.0
 20
-570.5000000000008
 30
0.0
 11
11832.0
 21
-659.50000000000068
 31
0.0
1001
ACDBBLOCKREPETAG
1070
     1
1071
      129
1005
11DC9E
  0
CIRCLE
  5
11DC9F
  8
OBJECT
 10
12000.0
 20
-696.0
 30
0.0
 40
62.0
1001
ACDBBLOCKREPETAG
1070
     1
1071
        0
1005
11DC9F
  0
LINE
  5
11DCA0
  8
OBJECT
 10
12212.99999999998
 20
-553.0000000000008
 30
0.0
 11
12219.99999999998
 21
-553.0000000000008
 31
0.0
1001
ACDBBLOCKREPETAG
1070
     1
1071
      106
1005
11DCA0
  0
LINE
  5
11DCA1
  8
OBJECT
 10
12219.99999999998
 20
-553.0000000000008
 30
0.0
 11
12219.99999999998
 21
-677.0000000000008
 31
0.0
1001
ACDBBLOCKREPETAG
1070
     1
1071
      107
1005
11DCA1
  0
LINE
  5
11DCA2
  8
OBJECT
 10
12085.99999999998
 20
-653.3502637757274
 30
0.0
 11
12085.99999999998
 21
-755.00000000000102
 31
0.0
1001
ACDBBLOCKREPETAG
1070
     1
1071
      108
1005
11DCA2
  0
LINE
  5
11DCA3
  8
OBJECT
 10
12219.99999999998
 20
-677.0000000000008
 30
0.0
 11
12212.99999999998
 21
-677.0000000000008
 31
0.0
1001
ACDBBLOCKREPETAG
1070
     1
1071
      109
1005
11DCA3
  0
LINE
  5
11DCA4
  8
OBJECT
 10
12212.99999999998
 20
-677.0000000000008
 30
0.0
 11
12212.99999999998
 21
-553.0000000000008
 31
0.0
1001
ACDBBLOCKREPETAG
1070
     1
1071
      110
1005
11DCA4
  0
LINE
  5
11DCA5
  8
CENTER
 10
12144.99999999998
 20
-615.0000000000008
 30
0.0
 11
12234.99999999998
 21
-615.0000000000008
 31
0.0
1001
ACDBBLOCKREPETAG
1070
     1
1071
      111
1005
11DCA5
  0
LINE
  5
11DCA6
  8
OBJECT
 10
12079.99999999998
 20
-758.0
 30
0.0
 11
12082.99999999998
 21
-758.0000000000008
 31
0.0
1001
ACDBBLOCKREPETAG
1070
     1
1071
      112
1005
11DCA6
  0
ARC
  5
11DCA7
  8
OBJECT
 10
12082.99999999998
 20
-755.00000000000102
 30
0.0
 40
3.0
 50
270.0
 51
0.0
1001
ACDBBLOCKREPETAG
1070
     1
1071
      113
1005
11DCA7
  0
LINE
  5
11DCA8
  8
OBJECT
 10
12212.99999999998
 20
-556.0000000000008
 30
0.0
 11
12176.99999999998
 21
-556.0000000000008
 31
0.0
1001
ACDBBLOCKREPETAG
1070
     1
1071
      114
1005
11DCA8
  0
LINE
  5
11DCA9
  8
OBJECT
 10
12176.99999999998
 20
-556.0000000000008
 30
0.0
 11
12176.99999999998
 21
-653.15756805667843
 31
0.0
1001
ACDBBLOCKREPETAG
1070
     1
1071
      115
1005
11DCA9
  0
LINE
  5
11DCAA
  8
OBJECT
 10
12172.99999999998
 20
-560.5000000000008
 30
0.0
 11
12172.99999999998
 21
-645.74491827928705
 31
0.0
1001
ACDBBLOCKREPETAG
1070
     1
1071
      116
1005
11DCAA
  0
LINE
  5
11DCAB
  8
OBJECT
 10
12172.99999999998
 20
-560.5000000000008
 30
0.0
 11
12159.99999999998
 21
-560.5000000000008
 31
0.0
1001
ACDBBLOCKREPETAG
1070
     1
1071
      117
1005
11DCAB
  0
LINE
  5
11DCAC
  8
OBJECT
 10
12168.656316825471
 20
-674.0000000000008
 30
0.0
 11
12212.99999999998
 21
-674.0000000000008
 31
0.0
1001
ACDBBLOCKREPETAG
1070
     1
1071
      118
1005
11DCAC
  0
LINE
  5
11DCAD
  8
OBJECT
 10
12176.99999999998
 20
-556.0000000000008
 30
0.0
 11
12172.99999999998
 21
-560.5000000000008
 31
0.0
1001
ACDBBLOCKREPETAG
1070
     1
1071
      119
1005
11DCAD
  0
LINE
  5
11DCAE
  8
OBJECT
 10
12159.99999999998
 20
-560.5000000000008
 30
0.0
 11
12159.99999999998
 21
-645.74491827928784
 31
0.0
1001
ACDBBLOCKREPETAG
1070
     1
1071
      120
1005
11DCAE
  0
ARC
  5
11DCAF
  8
OBJECT
 10
12091.99999999998
 20
-637.27386365609345
 30
0.0
 40
85.0
 50
308.59099323720869
 51
334.4008612781347
1001
ACDBBLOCKREPETAG
1070
     1
1071
      121
1005
11DCAF
  0
ARC
  5
11DCB0
  8
OBJECT
 10
12162.799999999979
 20
-655.00000000000068
 30
0.0
 40
85.0
 50
91.887731891831123
 51
160.07406787456929
1001
ACDBBLOCKREPETAG
1070
     1
1071
      122
1005
11DCB0
  0
LINE
  5
11DCB1
  8
OBJECT
 10
12085.99999999998
 20
-750.81075719270905
 30
0.0
 11
12145.0193225436
 21
-703.71143914629454
 31
0.0
1001
ACDBBLOCKREPETAG
1070
     1
1071
      123
1005
11DCB1
  0
LINE
  5
11DCB2
  8
OBJECT
 10
12172.99999999998
 20
-645.74491827928705
 30
0.0
 11
12159.99999999998
 21
-645.74491827928784
 31
0.0
1001
ACDBBLOCKREPETAG
1070
     1
1071
      124
1005
11DCB2
  0
LINE
  5
11DCB3
  8
OBJECT
 10
12176.99999999998
 20
-653.15756805667843
 30
0.0
 11
12172.99999999998
 21
-645.74491827928705
 31
0.0
1001
ACDBBLOCKREPETAG
1070
     1
1071
      125
1005
11DCB3
  0
LINE
  5
11DCB4
  8
OBJECT
 10
12080.00000000002
 20
-634.0
 30
0.0
 11
12082.888612159621
 21
-626.03156729425325
 31
0.0
1001
ACDBBLOCKREPETAG
1070
     1
1071
      126
1005
11DCB4
  0
LINE
  5
11DCB5
  8
OBJECT
 10
12080.00000000002
 20
-634.0
 30
0.0
 11
12085.99999999998
 21
-653.3502637757274
 31
0.0
1001
ACDBBLOCKREPETAG
1070
     1
1071
      127
1005
11DCB5
  0
LINE
  5
11DCB6
  8
HIDDEN
 10
12167.99999999998
 20
-570.5000000000008
 30
0.0
 11
12167.99999999998
 21
-659.50000000000068
 31
0.0
1001
ACDBBLOCKREPETAG
1070
     1
1071
      129
1005
11DCB6
  0
LINE
  5
11DCB7
  8
OBJECT
 10
9923.0
 20
-571.0
 30
0.0
 11
9923.0
 21
-550.0
 31
0.0
1001
ACDBBLOCKREPETAG
1070
     1
1071
       38
1005
11DCB7
  0
LINE
  5
11DCB8
  8
OBJECT
 10
9923.0
 20
-550.0
 30
0.0
 11
10077.0
 21
-550.0
 31
0.0
1001
ACDBBLOCKREPETAG
1070
     1
1071
       39
1005
11DCB8
  0
LINE
  5
11DCB9
  8
HIDDEN
 10
9943.0
 20
-620.0
 30
0.0
 11
10057.0
 21
-620.0
 31
0.0
1001
ACDBBLOCKREPETAG
1070
     1
1071
       40
1005
11DCB9
  0
LINE
  5
11DCBA
  8
OBJECT
 10
10077.0
 20
-550.0
 30
0.0
 11
10077.0
 21
-571.0
 31
0.0
1001
ACDBBLOCKREPETAG
1070
     1
1071
       41
1005
11DCBA
  0
LINE
  5
11DCBB
  8
OBJECT
 10
10077.0
 20
-571.0
 30
0.0
 11
9923.0
 21
-571.0
 31
0.0
1001
ACDBBLOCKREPETAG
1070
     1
1071
       42
1005
11DCBB
  0
LINE
  5
11DCBC
  8
CENTER
 10
10000.0
 20
-535.0
 30
0.0
 11
10000.0
 21
-890.0
 31
0.0
1001
ACDBBLOCKREPETAG
1070
     1
1071
       43
1005
11DCBC
  0
LINE
  5
11DCBD
  8
OBJECT
 10
9928.0
 20
-571.0
 30
0.0
 11
9928.0
 21
-634.0
 31
0.0
1001
ACDBBLOCKREPETAG
1070
     1
1071
       44
1005
11DCBD
  0
LINE
  5
11DCBE
  8
OBJECT
 10
10072.0
 20
-634.0
 30
0.0
 11
10072.0
 21
-571.0
 31
0.0
1001
ACDBBLOCKREPETAG
1070
     1
1071
       45
1005
11DCBE
  0
LINE
  5
11DCBF
  8
OBJECT
 10
9920.0
 20
-878.0
 30
0.0
 11
10080.0
 21
-878.0
 31
0.0
1001
ACDBBLOCKREPETAG
1070
     1
1071
       46
1005
11DCBF
  0
LINE
  5
11DCC0
  8
OBJECT
 10
10080.0
 20
-634.0
 30
0.0
 11
9920.0
 21
-634.0
 31
0.0
1001
ACDBBLOCKREPETAG
1070
     1
1071
       47
1005
11DCC0
  0
LINE
  5
11DCC1
  8
OBJECT
 10
9920.0
 20
-878.0
 30
0.0
 11
9920.0
 21
-890.0
 31
0.0
1001
ACDBBLOCKREPETAG
1070
     1
1071
       48
1005
11DCC1
  0
LINE
  5
11DCC2
  8
OBJECT
 10
9920.0
 20
-890.0
 30
0.0
 11
10080.0
 21
-890.0
 31
0.0
1001
ACDBBLOCKREPETAG
1070
     1
1071
       49
1005
11DCC2
  0
LINE
  5
11DCC3
  8
OBJECT
 10
10080.0
 20
-890.0
 30
0.0
 11
10080.0
 21
-878.0
 31
0.0
1001
ACDBBLOCKREPETAG
1070
     1
1071
       50
1005
11DCC3
  0
LINE
  5
11DCC4
  8
OBJECT
 10
10074.99999999986
 20
-757.99999999985096
 30
0.0
 11
10075.0
 21
-878.0
 31
0.0
1001
ACDBBLOCKREPETAG
1070
     1
1071
       54
1005
11DCC4
  0
LINE
  5
11DCC5
  8
OBJECT
 10
10074.99999080298
 20
-757.99998602702181
 30
0.0
 11
10080.0
 21
-757.99998602702181
 31
0.0
1001
ACDBBLOCKREPETAG
1070
     1
1071
       55
1005
11DCC5
  0
LINE
  5
11DCC6
  8
OBJECT
 10
9925.0000000001382
 20
-757.99999999985096
 30
0.0
 11
9925.0
 21
-878.0
 31
0.0
1001
ACDBBLOCKREPETAG
1070
     1
1071
       56
1005
11DCC6
  0
LINE
  5
11DCC7
  8
OBJECT
 10
9925.0000091970142
 20
-757.99998602702181
 30
0.0
 11
9920.0
 21
-757.99998602702181
 31
0.0
1001
ACDBBLOCKREPETAG
1070
     1
1071
       57
1005
11DCC7
  0
ARC
  5
11DCC8
  8
OBJECT
 10
10200.687274671671
 20
-749.40809941010752
 30
0.0
 40
170.6350503965856
 50
137.44134459184301
 51
149.91949581337221
1001
ACDBBLOCKREPETAG
1070
     1
1071
       58
1005
11DCC8
  0
ARC
  5
11DCC9
  8
OBJECT
 10
10200.687274671671
 20
-642.59190058989225
 30
0.0
 40
170.6350503965856
 50
210.08050418662771
 51
222.55865540815699
1001
ACDBBLOCKREPETAG
1070
     1
1071
       59
1005
11DCC9
  0
ARC
  5
11DCCA
  8
OBJECT
 10
9799.3127253283274
 20
-749.40809941010752
 30
0.0
 40
170.6350503965856
 50
30.080504186787142
 51
42.558655408347391
1001
ACDBBLOCKREPETAG
1070
     1
1071
       60
1005
11DCCA
  0
ARC
  5
11DCCB
  8
OBJECT
 10
9799.3127253283274
 20
-642.59190058989225
 30
0.0
 40
170.6350503965856
 50
317.44134459165258
 51
329.9194958132129
1001
ACDBBLOCKREPETAG
1070
     1
1071
       61
1005
11DCCB
  0
POINT
  5
11DCCC
  8
DOTS
 10
10000.0
 20
-755.0
 30
0.0
1001
ACDBBLOCKREPETAG
1070
     1
1071
      185
1005
11DCCC
  0
LINE
  5
11DCCD
  8
SLIM
 10
9945.2566704261044
 20
-137.99999999999909
 30
0.0
 11
9955.9548403695771
 21
-127.30183005652231
 31
0.0
1001
GRADIENTCOLOR1ACI
1070
     5
1001
GRADIENTCOLOR2ACI
1070
     2
1001
ACAD
1010
0.0
1020
0.0
1030
0.0
1001
ACDBBLOCKREPETAG
1070
     1
1071
      428
1005
11DCCD
  0
LINE
  5
11DCCE
  8
SLIM
 10
9954.2369265471734
 20
-137.99999999999909
 30
0.0
 11
9972.7507744763316
 21
-119.4861520708364
 31
0.0
1001
GRADIENTCOLOR1ACI
1070
     5
1001
GRADIENTCOLOR2ACI
1070
     2
1001
ACAD
1010
0.0
1020
0.0
1030
0.0
1001
ACDBBLOCKREPETAG
1070
     1
1071
      429
1005
11DCCE
  0
LINE
  5
11DCCF
  8
SLIM
 10
9973.5212243124606
 20
-127.6959583557812
 30
0.0
 11
9984.8575146748644
 21
-116.359667993377
 31
0.0
1001
GRADIENTCOLOR1ACI
1070
     5
1001
GRADIENTCOLOR2ACI
1070
     2
1001
ACAD
1010
0.0
1020
0.0
1030
0.0
1001
ACDBBLOCKREPETAG
1070
     1
1071
      430
1005
11DCCF
  0
LINE
  5
11DCD0
  8
SLIM
 10
9985.8944171461262
 20
-124.30302164318159
 30
0.0
 11
9995.0533812002577
 21
-115.1440575890517
 31
0.0
1001
GRADIENTCOLOR1ACI
1070
     5
1001
GRADIENTCOLOR2ACI
1070
     2
1001
ACAD
1010
0.0
1020
0.0
1030
0.0
1001
ACDBBLOCKREPETAG
1070
     1
1071
      431
1005
11DCD0
  0
LINE
  5
11DCD1
  8
SLIM
 10
9996.0777327492033
 20
-123.0999621611699
 30
0.0
 11
10000.0
 21
-119.1776949103767
 31
0.0
1001
GRADIENTCOLOR1ACI
1070
     5
1001
GRADIENTCOLOR2ACI
1070
     2
1001
ACAD
1010
0.0
1020
0.0
1030
0.0
1001
ACDBBLOCKREPETAG
1070
     1
1071
      432
1005
11DCD1
  0
LINE
  5
11DCD2
  8
SLIM
 10
10000.0
 20
-119.1776949103767
 30
0.0
 11
10004.0797313529
 21
-115.0979635574724
 31
0.0
1001
GRADIENTCOLOR1ACI
1070
     5
1001
GRADIENTCOLOR2ACI
1070
     2
1001
ACAD
1010
0.0
1020
0.0
1030
0.0
1001
ACDBBLOCKREPETAG
1070
     1
1071
      433
1005
11DCD2
  0
LINE
  5
11DCD3
  8
SLIM
 10
10004.99572025427
 20
-123.1622307771683
 30
0.0
 11
10012.26797841056
 21
-115.88997262087101
 31
0.0
1001
GRADIENTCOLOR1ACI
1070
     5
1001
GRADIENTCOLOR2ACI
1070
     2
1001
ACAD
1010
0.0
1020
0.0
1030
0.0
1001
ACDBBLOCKREPETAG
1070
     1
1071
      434
1005
11DCD3
  0
LINE
  5
11DCD4
  8
SLIM
 10
10013.028059366959
 20
-124.1101477855505
 30
0.0
 11
10019.799941457361
 21
-117.3382656951526
 31
0.0
1001
GRADIENTCOLOR1ACI
1070
     5
1001
GRADIENTCOLOR2ACI
1070
     2
1001
ACAD
1010
0.0
1020
0.0
1030
0.0
1001
ACDBBLOCKREPETAG
1070
     1
1071
      435
1005
11DCD4
  0
LINE
  5
11DCD5
  8
SLIM
 10
10020.374081314239
 20
-125.7443819593383
 30
0.0
 11
10026.787203867279
 21
-119.3312594063044
 31
0.0
1001
GRADIENTCOLOR1ACI
1070
     5
1001
GRADIENTCOLOR2ACI
1070
     2
1001
ACAD
1010
0.0
1020
0.0
1030
0.0
1001
ACDBBLOCKREPETAG
1070
     1
1071
      436
1005
11DCD5
  0
LINE
  5
11DCD6
  8
SLIM
 10
10027.15247199887
 20
-127.946247395778
 30
0.0
 11
10033.303003076029
 21
-121.7957163186195
 31
0.0
1001
GRADIENTCOLOR1ACI
1070
     5
1001
GRADIENTCOLOR2ACI
1070
     2
1001
ACAD
1010
0.0
1020
0.0
1030
0.0
1001
ACDBBLOCKREPETAG
1070
     1
1071
      437
1005
11DCD6
  0
LINE
  5
11DCD7
  8
SLIM
 10
10033.43909865133
 20
-130.63987686439191
 30
0.0
 11
10039.39731198437
 21
-124.6816635313439
 31
0.0
1001
GRADIENTCOLOR1ACI
1070
     5
1001
GRADIENTCOLOR2ACI
1070
     2
1001
ACAD
1010
0.0
1020
0.0
1030
0.0
1001
ACDBBLOCKREPETAG
1070
     1
1071
      438
1005
11DCD7
  0
LINE
  5
11DCD8
  8
SLIM
 10
10039.284224621801
 20
-133.77500701499321
 30
0.0
 11
10045.104770534361
 21
-127.95446110242381
 31
0.0
1001
GRADIENTCOLOR1ACI
1070
     5
1001
GRADIENTCOLOR2ACI
1070
     2
1001
ACAD
1010
0.0
1020
0.0
1030
0.0
1001
ACDBBLOCKREPETAG
1070
     1
1071
      439
1005
11DCD8
  0
LINE
  5
11DCD9
  8
SLIM
 10
10044.721280169801
 20
-137.31820758805651
 30
0.0
 11
10050.449155789191
 21
-131.59033196866449
 31
0.0
1001
GRADIENTCOLOR1ACI
1070
     5
1001
GRADIENTCOLOR2ACI
1070
     2
1001
ACAD
1010
0.0
1020
0.0
1030
0.0
1001
ACDBBLOCKREPETAG
1070
     1
1071
      440
1005
11DCD9
  0
LINE
  5
11DCDA
  8
SLIM
 10
10053.019743878929
 20
-137.99999999999909
 30
0.0
 11
10055.445994186401
 21
-135.57374969252561
 31
0.0
1001
GRADIENTCOLOR1ACI
1070
     5
1001
GRADIENTCOLOR2ACI
1070
     2
1001
ACAD
1010
0.0
1020
0.0
1030
0.0
1001
ACDBBLOCKREPETAG
1070
     1
1071
      441
1005
11DCDA
  0
LINE
  5
11DCDB
  8
CENTER
 10
10000.0
 20
-279.99999999999909
 30
0.0
 11
10000.0
 21
-99.999999999999091
 31
0.0
1001
ACDBBLOCKREPETAG
1070
     1
1071
      160
1005
11DCDB
  0
CIRCLE
  5
11DCDC
  8
OBJECT
 10
10000.0
 20
-199.99999999999909
 30
0.0
 40
70.0
1001
ACDBBLOCKREPETAG
1070
     1
1071
      161
1005
11DCDC
  0
CIRCLE
  5
11DCDD
  8
OBJECT
 10
10000.0
 20
-199.99999999999909
 30
0.0
 40
77.0
1001
ACDBBLOCKREPETAG
1070
     1
1071
      162
1005
11DCDD
  0
LINE
  5
11DCDE
  8
OBJECT
 10
10045.661800227321
 20
-137.99999999999909
 30
0.0
 11
10080.0
 21
-137.99999999999909
 31
0.0
1001
ACDBBLOCKREPETAG
1070
     1
1071
      164
1005
11DCDE
  0
LINE
  5
11DCDF
  8
OBJECT
 10
10062.0
 20
-261.99999999999909
 30
0.0
 11
10080.0
 21
-261.99999999999909
 31
0.0
1001
ACDBBLOCKREPETAG
1070
     1
1071
      165
1005
11DCDF
  0
LINE
  5
11DCE0
  8
OBJECT
 10
10062.0
 20
-261.99999999999909
 30
0.0
 11
10062.0
 21
-279.99999999999909
 31
0.0
1001
ACDBBLOCKREPETAG
1070
     1
1071
      167
1005
11DCE0
  0
LINE
  5
11DCE1
  8
OBJECT
 10
9938.0
 20
-261.99999999999909
 30
0.0
 11
9938.0
 21
-279.99999999999909
 31
0.0
1001
ACDBBLOCKREPETAG
1070
     1
1071
      168
1005
11DCE1
  0
LINE
  5
11DCE2
  8
OBJECT
 10
9938.0
 20
-261.99999999999909
 30
0.0
 11
9920.0
 21
-261.99999999999909
 31
0.0
1001
ACDBBLOCKREPETAG
1070
     1
1071
      170
1005
11DCE2
  0
LINE
  5
11DCE3
  8
OBJECT
 10
9954.3381997726756
 20
-137.99999999999909
 30
0.0
 11
9920.0
 21
-137.99999999999909
 31
0.0
1001
ACDBBLOCKREPETAG
1070
     1
1071
      171
1005
11DCE3
  0
LINE
  5
11DCE4
  8
OBJECT
 10
9945.5527778486357
 20
-254.44722215136329
 30
0.0
 11
9938.0
 21
-261.99999999999909
 31
0.0
1001
ACDBBLOCKREPETAG
1070
     1
1071
      180
1005
11DCE4
  0
LINE
  5
11DCE5
  8
OBJECT
 10
10054.447222151361
 20
-254.44722215136329
 30
0.0
 11
10062.0
 21
-261.99999999999909
 31
0.0
1001
ACDBBLOCKREPETAG
1070
     1
1071
      181
1005
11DCE5
  0
ARC
  5
11DCE6
  8
OBJECT
 10
10000.0
 20
-199.99999999999909
 30
0.0
 40
85.0
 50
46.837102859844251
 51
133.16289714015571
1001
ACDBBLOCKREPETAG
1070
     1
1071
      183
1005
11DCE6
  0
LINE
  5
11DCE7
  8
OBJECT
 10
10024.1029330933
 20
-243.80694712371681
 30
0.0
 11
10020.659656999989
 21
-232.55462199999889
 31
0.0
1001
ACDBBLOCKREPETAG
1070
     1
1071
      314
1005
11DCE7
  0
LINE
  5
11DCE8
  8
OBJECT
 10
9986.7927499013749
 20
-218.22553374208019
 30
0.0
 11
10020.659656999989
 21
-232.5546219999969
 31
0.0
1001
ACDBBLOCKREPETAG
1070
     1
1071
      316
1005
11DCE8
  0
ARC
  5
11DCE9
  8
OBJECT
 10
9982.8961697618997
 20
-227.4351299990567
 30
0.0
 40
10.0
 50
67.066778292911366
 51
154.01473437031629
1001
ACDBBLOCKREPETAG
1070
     1
1071
      317
1005
11DCE9
  0
ARC
  5
11DCEA
  8
OBJECT
 10
9986.1488390381292
 20
-225.55386256729159
 30
0.0
 40
7.0
 50
67.066778292911366
 51
154.0147337749826
1001
ACDBBLOCKREPETAG
1070
     1
1071
      318
1005
11DCEA
  0
LINE
  5
11DCEB
  8
OBJECT
 10
9969.4199755553
 20
-243.89888500818171
 30
0.0
 11
9979.8564918232369
 21
-222.48688253356801
 31
0.0
1001
ACDBBLOCKREPETAG
1070
     1
1071
      349
1005
11DCEB
  0
LINE
  5
11DCEC
  8
OBJECT
 10
9965.2972169006098
 20
-240.71813901882729
 30
0.0
 11
9973.9071022665084
 21
-223.05373004430751
 31
0.0
1001
ACDBBLOCKREPETAG
1070
     1
1071
      350
1005
11DCEC
  0
ARC
  5
11DCED
  8
OBJECT
 10
9976.5796953073132
 20
-207.1289369828437
 30
0.0
 40
60.031113246032611
 50
314.07020130422319
 51
322.33936106089681
1001
ACDBBLOCKREPETAG
1070
     1
1071
      351
1005
11DCED
  0
CIRCLE
  5
11DCEE
  8
OBJECT
 10
10000.0
 20
-199.99999999999909
 30
0.0
 40
53.5
1001
ACDBBLOCKREPETAG
1070
     1
1071
      352
1005
11DCEE
  0
POINT
  5
11DCEF
  8
DOTS
 10
10000.0
 20
-199.99999999999909
 30
0.0
 50
270.0
1001
ACDBBLOCKREPETAG
1070
     1
1071
      364
1005
11DCEF
  0
ARC
  5
11DCF0
  8
OBJECT
 10
10000.0
 20
-199.99999999999909
 30
0.0
 40
50.0
 50
298.81994300000417
 51
228.5237695596397
1001
ACDBBLOCKREPETAG
1070
     1
1071
      157
1005
11DCF0
  0
LINE
  5
11DCF1
  8
CENTER
 10
10080.0
 20
-199.99999999999909
 30
0.0
 11
9920.0
 21
-199.99999999999909
 31
0.0
1001
ACDBBLOCKREPETAG
1070
     1
1071
      158
1005
11DCF1
  0
LINE
  5
11DCF2
  8
OBJECT
 10
9787.00000000002
 20
-137.99999999999909
 30
0.0
 11
9780.0000000000182
 21
-137.99999999999909
 31
0.0
1001
ACDBBLOCKREPETAG
1070
     1
1071
      110
1005
11DCF2
  0
LINE
  5
11DCF3
  8
OBJECT
 10
9780.0000000000182
 20
-137.99999999999909
 30
0.0
 11
9780.0000000000182
 21
-261.99999999999909
 31
0.0
1001
ACDBBLOCKREPETAG
1070
     1
1071
      111
1005
11DCF3
  0
LINE
  5
11DCF4
  8
OBJECT
 10
9780.0000000000182
 20
-261.99999999999909
 30
0.0
 11
9787.00000000002
 21
-261.99999999999909
 31
0.0
1001
ACDBBLOCKREPETAG
1070
     1
1071
      112
1005
11DCF4
  0
LINE
  5
11DCF5
  8
OBJECT
 10
9787.00000000002
 20
-261.99999999999909
 30
0.0
 11
9787.00000000002
 21
-137.99999999999909
 31
0.0
1001
ACDBBLOCKREPETAG
1070
     1
1071
      113
1005
11DCF5
  0
LINE
  5
11DCF6
  8
CENTER
 10
9765.0000000000218
 20
-199.99999999999909
 30
0.0
 11
9920.0
 21
-199.99999999999909
 31
0.0
1001
ACDBBLOCKREPETAG
1070
     1
1071
      114
1005
11DCF6
  0
LINE
  5
11DCF7
  8
OBJECT
 10
9840.0000250358207
 20
-245.0000000000027
 30
0.0
 11
9914.0000000000055
 21
-244.99999999999909
 31
0.0
1001
ACDBBLOCKREPETAG
1070
     1
1071
      115
1005
11DCF7
  0
LINE
  5
11DCF8
  8
OBJECT
 10
9840.0000250358207
 20
-154.99999999999909
 30
0.0
 11
9914.0000000000055
 21
-154.99999999999909
 31
0.0
1001
ACDBBLOCKREPETAG
1070
     1
1071
      116
1005
11DCF8
  0
LINE
  5
11DCF9
  8
OBJECT
 10
9787.00000000002
 20
-140.99999999999909
 30
0.0
 11
9823.0000000000182
 21
-140.99999999999909
 31
0.0
1001
ACDBBLOCKREPETAG
1070
     1
1071
      117
1005
11DCF9
  0
LINE
  5
11DCFA
  8
OBJECT
 10
9823.0000000000182
 20
-140.99999999999909
 30
0.0
 11
9823.0000000000182
 21
-258.99999999999909
 31
0.0
1001
ACDBBLOCKREPETAG
1070
     1
1071
      118
1005
11DCFA
  0
LINE
  5
11DCFB
  8
OBJECT
 10
9823.0000000000182
 20
-258.99999999999909
 30
0.0
 11
9787.00000000002
 21
-258.99999999999909
 31
0.0
1001
ACDBBLOCKREPETAG
1070
     1
1071
      119
1005
11DCFB
  0
LINE
  5
11DCFC
  8
OBJECT
 10
9827.0000000000182
 20
-145.49999999999909
 30
0.0
 11
9840.0000000000182
 21
-145.49999999999909
 31
0.0
1001
ACDBBLOCKREPETAG
1070
     1
1071
      120
1005
11DCFC
  0
LINE
  5
11DCFD
  8
OBJECT
 10
9840.0000000000182
 20
-254.49999999999909
 30
0.0
 11
9827.0000000000182
 21
-254.49999999999909
 31
0.0
1001
ACDBBLOCKREPETAG
1070
     1
1071
      121
1005
11DCFD
  0
LINE
  5
11DCFE
  8
OBJECT
 10
9827.0000000000182
 20
-254.49999999999909
 30
0.0
 11
9827.0000000000182
 21
-145.49999999999909
 31
0.0
1001
ACDBBLOCKREPETAG
1070
     1
1071
      122
1005
11DCFE
  0
LINE
  5
11DCFF
  8
OBJECT
 10
9823.0000000000182
 20
-140.99999999999909
 30
0.0
 11
9827.0000000000182
 21
-145.49999999999909
 31
0.0
1001
ACDBBLOCKREPETAG
1070
     1
1071
      123
1005
11DCFF
  0
LINE
  5
11DD00
  8
OBJECT
 10
9823.0000000000182
 20
-258.99999999999909
 30
0.0
 11
9827.0000000000182
 21
-254.49999999999909
 31
0.0
1001
ACDBBLOCKREPETAG
1070
     1
1071
      124
1005
11DD00
  0
LINE
  5
11DD01
  8
OBJECT
 10
9917.0000000000055
 20
-137.99999999999909
 30
0.0
 11
9920.0000000000055
 21
-137.99999999999909
 31
0.0
1001
ACDBBLOCKREPETAG
1070
     1
1071
      125
1005
11DD01
  0
ARC
  5
11DD02
  8
OBJECT
 10
9917.0000000000055
 20
-140.99999999999909
 30
0.0
 40
3.0
 50
90.0
 51
180.0
1001
ACDBBLOCKREPETAG
1070
     1
1071
      126
1005
11DD02
  0
LINE
  5
11DD03
  8
OBJECT
 10
9920.0000000000055
 20
-261.99999999999909
 30
0.0
 11
9917.0000000000055
 21
-261.99999999999909
 31
0.0
1001
ACDBBLOCKREPETAG
1070
     1
1071
      127
1005
11DD03
  0
ARC
  5
11DD04
  8
OBJECT
 10
9917.0000000000055
 20
-258.99999999999909
 30
0.0
 40
3.0
 50
180.0
 51
270.0
1001
ACDBBLOCKREPETAG
1070
     1
1071
      128
1005
11DD04
  0
LINE
  5
11DD05
  8
OBJECT
 10
9914.0000000000055
 20
-258.99999999999909
 30
0.0
 11
9914.0000000000055
 21
-222.44994432063581
 31
0.0
1001
ACDBBLOCKREPETAG
1070
     1
1071
      129
1005
11DD05
  0
LINE
  5
11DD06
  8
OBJECT
 10
9914.0000000000055
 20
-177.55005567935859
 30
0.0
 11
9914.0000000000055
 21
-140.99999999999909
 31
0.0
1001
ACDBBLOCKREPETAG
1070
     1
1071
      130
1005
11DD06
  0
LINE
  5
11DD07
  8
HIDDEN
 10
9832.0000000000182
 20
-155.49999999999909
 30
0.0
 11
9832.0000000000182
 21
-244.49999999999909
 31
0.0
1001
ACDBBLOCKREPETAG
1070
     1
1071
      131
1005
11DD07
  0
LINE
  5
11DD08
  8
OBJECT
 10
9840.0000250358207
 20
-254.4999509238105
 30
0.0
 11
9840.0000250358207
 21
-145.4999509238105
 31
0.0
1001
ACDBBLOCKREPETAG
1070
     1
1071
      133
1005
11DD08
  0
ARC
  5
11DD09
  8
OBJECT
 10
9875.0
 20
-199.99999999999909
 30
0.0
 40
45.000000000000547
 50
270.0
 51
90.0
1001
ACDBBLOCKREPETAG
1070
     1
1071
      134
1005
11DD09
  0
LINE
  5
11DD0A
  8
CENTER
 10
10000.0
 20
-300.99999999999898
 30
0.0
 11
10000.0
 21
-279.99999999999909
 31
0.0
1001
ACDBBLOCKREPETAG
1070
     1
1071
        0
1005
11DD0A
  0
LINE
  5
11DD0B
  8
OBJECT
 10
10062.0
 20
-283.0
 30
0.0
 11
10062.0
 21
-279.99999999999909
 31
0.0
1001
ACDBBLOCKREPETAG
1070
     1
1071
        1
1005
11DD0B
  0
ARC
  5
11DD0C
  8
OBJECT
 10
10059.0
 20
-283.0
 30
0.0
 40
3.0
 50
270.0
 51
0.0
1001
ACDBBLOCKREPETAG
1070
     1
1071
        2
1005
11DD0C
  0
LINE
  5
11DD0D
  8
OBJECT
 10
9938.0
 20
-279.99999999999909
 30
0.0
 11
9938.0
 21
-282.99999999999818
 31
0.0
1001
ACDBBLOCKREPETAG
1070
     1
1071
        3
1005
11DD0D
  0
ARC
  5
11DD0E
  8
OBJECT
 10
9941.0
 20
-282.99999999999818
 30
0.0
 40
3.0
 50
180.0
 51
270.0
1001
ACDBBLOCKREPETAG
1070
     1
1071
        4
1005
11DD0E
  0
LINE
  5
11DD0F
  8
OBJECT
 10
9941.0
 20
-285.99999999999818
 30
0.0
 11
10059.0
 21
-286.0
 31
0.0
1001
ACDBBLOCKREPETAG
1070
     1
1071
        5
1005
11DD0F
  0
LINE
  5
11DD10
  8
OBJECT
 10
10212.99999999998
 20
-137.99999999999909
 30
0.0
 11
10219.99999999998
 21
-137.99999999999909
 31
0.0
1001
ACDBBLOCKREPETAG
1070
     1
1071
      110
1005
11DD10
  0
LINE
  5
11DD11
  8
OBJECT
 10
10219.99999999998
 20
-137.99999999999909
 30
0.0
 11
10219.99999999998
 21
-261.99999999999909
 31
0.0
1001
ACDBBLOCKREPETAG
1070
     1
1071
      111
1005
11DD11
  0
LINE
  5
11DD12
  8
OBJECT
 10
10219.99999999998
 20
-261.99999999999909
 30
0.0
 11
10212.99999999998
 21
-261.99999999999909
 31
0.0
1001
ACDBBLOCKREPETAG
1070
     1
1071
      112
1005
11DD12
  0
LINE
  5
11DD13
  8
OBJECT
 10
10212.99999999998
 20
-261.99999999999909
 30
0.0
 11
10212.99999999998
 21
-137.99999999999909
 31
0.0
1001
ACDBBLOCKREPETAG
1070
     1
1071
      113
1005
11DD13
  0
LINE
  5
11DD14
  8
CENTER
 10
10234.99999999998
 20
-199.99999999999909
 30
0.0
 11
10080.0
 21
-199.99999999999909
 31
0.0
1001
ACDBBLOCKREPETAG
1070
     1
1071
      114
1005
11DD14
  0
LINE
  5
11DD15
  8
OBJECT
 10
10159.999974964179
 20
-245.0000000000027
 30
0.0
 11
10086.0
 21
-244.99999999999909
 31
0.0
1001
ACDBBLOCKREPETAG
1070
     1
1071
      115
1005
11DD15
  0
LINE
  5
11DD16
  8
OBJECT
 10
10159.999974964179
 20
-154.99999999999909
 30
0.0
 11
10086.0
 21
-154.99999999999909
 31
0.0
1001
ACDBBLOCKREPETAG
1070
     1
1071
      116
1005
11DD16
  0
LINE
  5
11DD17
  8
OBJECT
 10
10212.99999999998
 20
-140.99999999999909
 30
0.0
 11
10176.99999999998
 21
-140.99999999999909
 31
0.0
1001
ACDBBLOCKREPETAG
1070
     1
1071
      117
1005
11DD17
  0
LINE
  5
11DD18
  8
OBJECT
 10
10176.99999999998
 20
-140.99999999999909
 30
0.0
 11
10176.99999999998
 21
-258.99999999999909
 31
0.0
1001
ACDBBLOCKREPETAG
1070
     1
1071
      118
1005
11DD18
  0
LINE
  5
11DD19
  8
OBJECT
 10
10176.99999999998
 20
-258.99999999999909
 30
0.0
 11
10212.99999999998
 21
-258.99999999999909
 31
0.0
1001
ACDBBLOCKREPETAG
1070
     1
1071
      119
1005
11DD19
  0
LINE
  5
11DD1A
  8
OBJECT
 10
10172.99999999998
 20
-145.49999999999909
 30
0.0
 11
10159.99999999998
 21
-145.49999999999909
 31
0.0
1001
ACDBBLOCKREPETAG
1070
     1
1071
      120
1005
11DD1A
  0
LINE
  5
11DD1B
  8
OBJECT
 10
10159.99999999998
 20
-254.49999999999909
 30
0.0
 11
10172.99999999998
 21
-254.49999999999909
 31
0.0
1001
ACDBBLOCKREPETAG
1070
     1
1071
      121
1005
11DD1B
  0
LINE
  5
11DD1C
  8
OBJECT
 10
10172.99999999998
 20
-254.49999999999909
 30
0.0
 11
10172.99999999998
 21
-145.49999999999909
 31
0.0
1001
ACDBBLOCKREPETAG
1070
     1
1071
      122
1005
11DD1C
  0
LINE
  5
11DD1D
  8
OBJECT
 10
10176.99999999998
 20
-140.99999999999909
 30
0.0
 11
10172.99999999998
 21
-145.49999999999909
 31
0.0
1001
ACDBBLOCKREPETAG
1070
     1
1071
      123
1005
11DD1D
  0
LINE
  5
11DD1E
  8
OBJECT
 10
10176.99999999998
 20
-258.99999999999909
 30
0.0
 11
10172.99999999998
 21
-254.49999999999909
 31
0.0
1001
ACDBBLOCKREPETAG
1070
     1
1071
      124
1005
11DD1E
  0
LINE
  5
11DD1F
  8
OBJECT
 10
10083.0
 20
-137.99999999999909
 30
0.0
 11
10080.0
 21
-137.99999999999909
 31
0.0
1001
ACDBBLOCKREPETAG
1070
     1
1071
      125
1005
11DD1F
  0
ARC
  5
11DD20
  8
OBJECT
 10
10083.0
 20
-140.99999999999909
 30
0.0
 40
3.0
 50
0.0
 51
90.0
1001
ACDBBLOCKREPETAG
1070
     1
1071
      126
1005
11DD20
  0
LINE
  5
11DD21
  8
OBJECT
 10
10080.0
 20
-261.99999999999909
 30
0.0
 11
10083.0
 21
-261.99999999999909
 31
0.0
1001
ACDBBLOCKREPETAG
1070
     1
1071
      127
1005
11DD21
  0
ARC
  5
11DD22
  8
OBJECT
 10
10083.0
 20
-258.99999999999909
 30
0.0
 40
3.0
 50
270.0
 51
0.0
1001
ACDBBLOCKREPETAG
1070
     1
1071
      128
1005
11DD22
  0
LINE
  5
11DD23
  8
OBJECT
 10
10086.0
 20
-258.99999999999909
 30
0.0
 11
10086.0
 21
-222.44994432063581
 31
0.0
1001
ACDBBLOCKREPETAG
1070
     1
1071
      129
1005
11DD23
  0
LINE
  5
11DD24
  8
OBJECT
 10
10086.0
 20
-177.55005567935859
 30
0.0
 11
10086.0
 21
-140.99999999999909
 31
0.0
1001
ACDBBLOCKREPETAG
1070
     1
1071
      130
1005
11DD24
  0
LINE
  5
11DD25
  8
HIDDEN
 10
10167.99999999998
 20
-155.49999999999909
 30
0.0
 11
10167.99999999998
 21
-244.49999999999909
 31
0.0
1001
ACDBBLOCKREPETAG
1070
     1
1071
      131
1005
11DD25
  0
LINE
  5
11DD26
  8
OBJECT
 10
10159.999974964179
 20
-254.4999509238105
 30
0.0
 11
10159.999974964179
 21
-145.4999509238105
 31
0.0
1001
ACDBBLOCKREPETAG
1070
     1
1071
      133
1005
11DD26
  0
ARC
  5
11DD27
  8
OBJECT
 10
10125.0
 20
-199.99999999999909
 30
0.0
 40
45.000000000000547
 50
90.0
 51
270.0
1001
ACDBBLOCKREPETAG
1070
     1
1071
      134
1005
11DD27
  0
LINE
  5
11DD28
  8
OBJECT
 10
9787.0000000000127
 20
-553.0
 30
0.0
 11
9780.0000000000127
 21
-553.0
 31
0.0
1001
ACDBBLOCKREPETAG
1070
     1
1071
      106
1005
11DD28
  0
LINE
  5
11DD29
  8
OBJECT
 10
9780.0000000000127
 20
-553.0
 30
0.0
 11
9780.0000000000127
 21
-677.0
 31
0.0
1001
ACDBBLOCKREPETAG
1070
     1
1071
      107
1005
11DD29
  0
LINE
  5
11DD2A
  8
OBJECT
 10
9914.0000000000127
 20
-653.3502637757274
 30
0.0
 11
9914.0000000000127
 21
-755.00000000000102
 31
0.0
1001
ACDBBLOCKREPETAG
1070
     1
1071
      108
1005
11DD2A
  0
LINE
  5
11DD2B
  8
OBJECT
 10
9780.0000000000127
 20
-677.0
 30
0.0
 11
9787.0000000000127
 21
-677.0
 31
0.0
1001
ACDBBLOCKREPETAG
1070
     1
1071
      109
1005
11DD2B
  0
LINE
  5
11DD2C
  8
OBJECT
 10
9787.0000000000127
 20
-677.0
 30
0.0
 11
9787.0000000000127
 21
-553.0
 31
0.0
1001
ACDBBLOCKREPETAG
1070
     1
1071
      110
1005
11DD2C
  0
LINE
  5
11DD2D
  8
CENTER
 10
9855.0000000000182
 20
-615.0000000000008
 30
0.0
 11
9765.0000000000146
 21
-615.0
 31
0.0
1001
ACDBBLOCKREPETAG
1070
     1
1071
      111
1005
11DD2D
  0
LINE
  5
11DD2E
  8
OBJECT
 10
9920.0000000000182
 20
-758.0
 30
0.0
 11
9917.0000000000146
 21
-758.0000000000008
 31
0.0
1001
ACDBBLOCKREPETAG
1070
     1
1071
      112
1005
11DD2E
  0
ARC
  5
11DD2F
  8
OBJECT
 10
9917.0000000000146
 20
-755.00000000000102
 30
0.0
 40
3.0
 50
180.0
 51
270.0
1001
ACDBBLOCKREPETAG
1070
     1
1071
      113
1005
11DD2F
  0
LINE
  5
11DD30
  8
OBJECT
 10
9787.0000000000127
 20
-556.0
 30
0.0
 11
9823.0000000000146
 21
-556.0000000000008
 31
0.0
1001
ACDBBLOCKREPETAG
1070
     1
1071
      114
1005
11DD30
  0
LINE
  5
11DD31
  8
OBJECT
 10
9823.0000000000146
 20
-556.0000000000008
 30
0.0
 11
9823.0000000000146
 21
-653.15756805667843
 31
0.0
1001
ACDBBLOCKREPETAG
1070
     1
1071
      115
1005
11DD31
  0
LINE
  5
11DD32
  8
OBJECT
 10
9827.0000000000127
 20
-560.5000000000008
 30
0.0
 11
9827.0000000000182
 21
-645.74491827928705
 31
0.0
1001
ACDBBLOCKREPETAG
1070
     1
1071
      116
1005
11DD32
  0
LINE
  5
11DD33
  8
OBJECT
 10
9827.0000000000127
 20
-560.5000000000008
 30
0.0
 11
9840.0000000000146
 21
-560.5000000000008
 31
0.0
1001
ACDBBLOCKREPETAG
1070
     1
1071
      117
1005
11DD33
  0
LINE
  5
11DD34
  8
OBJECT
 10
9831.3436831745348
 20
-674.0000000000008
 30
0.0
 11
9787.0000000000127
 21
-674.0
 31
0.0
1001
ACDBBLOCKREPETAG
1070
     1
1071
      118
1005
11DD34
  0
LINE
  5
11DD35
  8
OBJECT
 10
9823.0000000000146
 20
-556.0000000000008
 30
0.0
 11
9827.0000000000127
 21
-560.5000000000008
 31
0.0
1001
ACDBBLOCKREPETAG
1070
     1
1071
      119
1005
11DD35
  0
LINE
  5
11DD36
  8
OBJECT
 10
9840.0000000000146
 20
-560.5000000000008
 30
0.0
 11
9840.0000000000146
 21
-645.74491827928784
 31
0.0
1001
ACDBBLOCKREPETAG
1070
     1
1071
      120
1005
11DD36
  0
ARC
  5
11DD37
  8
OBJECT
 10
9908.0000000000127
 20
-637.27386365609345
 30
0.0
 40
85.0
 50
205.5991387218653
 51
231.40900676279119
1001
ACDBBLOCKREPETAG
1070
     1
1071
      121
1005
11DD37
  0
ARC
  5
11DD38
  8
OBJECT
 10
9837.2000000000171
 20
-655.00000000000068
 30
0.0
 40
85.0
 50
19.925932125430649
 51
88.112268108168848
1001
ACDBBLOCKREPETAG
1070
     1
1071
      122
1005
11DD38
  0
LINE
  5
11DD39
  8
OBJECT
 10
9914.0000000000127
 20
-750.81075719270905
 30
0.0
 11
9854.9806774563986
 21
-703.71143914629454
 31
0.0
1001
ACDBBLOCKREPETAG
1070
     1
1071
      123
1005
11DD39
  0
LINE
  5
11DD3A
  8
OBJECT
 10
9827.0000000000182
 20
-645.74491827928705
 30
0.0
 11
9840.0000000000146
 21
-645.74491827928784
 31
0.0
1001
ACDBBLOCKREPETAG
1070
     1
1071
      124
1005
11DD3A
  0
LINE
  5
11DD3B
  8
OBJECT
 10
9823.0000000000146
 20
-653.15756805667843
 30
0.0
 11
9827.0000000000182
 21
-645.74491827928705
 31
0.0
1001
ACDBBLOCKREPETAG
1070
     1
1071
      125
1005
11DD3B
  0
LINE
  5
11DD3C
  8
OBJECT
 10
9919.99999999998
 20
-634.0
 30
0.0
 11
9917.1113878403758
 21
-626.03156729425325
 31
0.0
1001
ACDBBLOCKREPETAG
1070
     1
1071
      126
1005
11DD3C
  0
LINE
  5
11DD3D
  8
OBJECT
 10
9919.99999999998
 20
-634.0
 30
0.0
 11
9914.0000000000127
 21
-653.3502637757274
 31
0.0
1001
ACDBBLOCKREPETAG
1070
     1
1071
      127
1005
11DD3D
  0
LINE
  5
11DD3E
  8
HIDDEN
 10
9832.0000000000146
 20
-570.5000000000008
 30
0.0
 11
9832.0000000000146
 21
-659.50000000000068
 31
0.0
1001
ACDBBLOCKREPETAG
1070
     1
1071
      129
1005
11DD3E
  0
CIRCLE
  5
11DD3F
  8
OBJECT
 10
10000.0
 20
-696.0
 30
0.0
 40
62.0
1001
ACDBBLOCKREPETAG
1070
     1
1071
        0
1005
11DD3F
  0
LINE
  5
11DD40
  8
OBJECT
 10
10212.99999999998
 20
-553.0000000000008
 30
0.0
 11
10219.99999999998
 21
-553.0000000000008
 31
0.0
1001
ACDBBLOCKREPETAG
1070
     1
1071
      106
1005
11DD40
  0
LINE
  5
11DD41
  8
OBJECT
 10
10219.99999999998
 20
-553.0000000000008
 30
0.0
 11
10219.99999999998
 21
-677.0000000000008
 31
0.0
1001
ACDBBLOCKREPETAG
1070
     1
1071
      107
1005
11DD41
  0
LINE
  5
11DD42
  8
OBJECT
 10
10085.99999999998
 20
-653.3502637757274
 30
0.0
 11
10085.99999999998
 21
-755.00000000000102
 31
0.0
1001
ACDBBLOCKREPETAG
1070
     1
1071
      108
1005
11DD42
  0
LINE
  5
11DD43
  8
OBJECT
 10
10219.99999999998
 20
-677.0000000000008
 30
0.0
 11
10212.99999999998
 21
-677.0000000000008
 31
0.0
1001
ACDBBLOCKREPETAG
1070
     1
1071
      109
1005
11DD43
  0
LINE
  5
11DD44
  8
OBJECT
 10
10212.99999999998
 20
-677.0000000000008
 30
0.0
 11
10212.99999999998
 21
-553.0000000000008
 31
0.0
1001
ACDBBLOCKREPETAG
1070
     1
1071
      110
1005
11DD44
  0
LINE
  5
11DD45
  8
CENTER
 10
10144.99999999998
 20
-615.0000000000008
 30
0.0
 11
10234.99999999998
 21
-615.0000000000008
 31
0.0
1001
ACDBBLOCKREPETAG
1070
     1
1071
      111
1005
11DD45
  0
LINE
  5
11DD46
  8
OBJECT
 10
10079.99999999998
 20
-758.0
 30
0.0
 11
10082.99999999998
 21
-758.0000000000008
 31
0.0
1001
ACDBBLOCKREPETAG
1070
     1
1071
      112
1005
11DD46
  0
ARC
  5
11DD47
  8
OBJECT
 10
10082.99999999998
 20
-755.00000000000102
 30
0.0
 40
3.0
 50
270.0
 51
0.0
1001
ACDBBLOCKREPETAG
1070
     1
1071
      113
1005
11DD47
  0
LINE
  5
11DD48
  8
OBJECT
 10
10212.99999999998
 20
-556.0000000000008
 30
0.0
 11
10176.99999999998
 21
-556.0000000000008
 31
0.0
1001
ACDBBLOCKREPETAG
1070
     1
1071
      114
1005
11DD48
  0
LINE
  5
11DD49
  8
OBJECT
 10
10176.99999999998
 20
-556.0000000000008
 30
0.0
 11
10176.99999999998
 21
-653.15756805667843
 31
0.0
1001
ACDBBLOCKREPETAG
1070
     1
1071
      115
1005
11DD49
  0
LINE
  5
11DD4A
  8
OBJECT
 10
10172.99999999998
 20
-560.5000000000008
 30
0.0
 11
10172.99999999998
 21
-645.74491827928705
 31
0.0
1001
ACDBBLOCKREPETAG
1070
     1
1071
      116
1005
11DD4A
  0
LINE
  5
11DD4B
  8
OBJECT
 10
10172.99999999998
 20
-560.5000000000008
 30
0.0
 11
10159.99999999998
 21
-560.5000000000008
 31
0.0
1001
ACDBBLOCKREPETAG
1070
     1
1071
      117
1005
11DD4B
  0
LINE
  5
11DD4C
  8
OBJECT
 10
10168.656316825471
 20
-674.0000000000008
 30
0.0
 11
10212.99999999998
 21
-674.0000000000008
 31
0.0
1001
ACDBBLOCKREPETAG
1070
     1
1071
      118
1005
11DD4C
  0
LINE
  5
11DD4D
  8
OBJECT
 10
10176.99999999998
 20
-556.0000000000008
 30
0.0
 11
10172.99999999998
 21
-560.5000000000008
 31
0.0
1001
ACDBBLOCKREPETAG
1070
     1
1071
      119
1005
11DD4D
  0
LINE
  5
11DD4E
  8
OBJECT
 10
10159.99999999998
 20
-560.5000000000008
 30
0.0
 11
10159.99999999998
 21
-645.74491827928784
 31
0.0
1001
ACDBBLOCKREPETAG
1070
     1
1071
      120
1005
11DD4E
  0
ARC
  5
11DD4F
  8
OBJECT
 10
10091.99999999998
 20
-637.27386365609345
 30
0.0
 40
85.0
 50
308.59099323720869
 51
334.4008612781347
1001
ACDBBLOCKREPETAG
1070
     1
1071
      121
1005
11DD4F
  0
ARC
  5
11DD50
  8
OBJECT
 10
10162.799999999979
 20
-655.00000000000068
 30
0.0
 40
85.0
 50
91.887731891831123
 51
160.07406787456929
1001
ACDBBLOCKREPETAG
1070
     1
1071
      122
1005
11DD50
  0
LINE
  5
11DD51
  8
OBJECT
 10
10085.99999999998
 20
-750.81075719270905
 30
0.0
 11
10145.0193225436
 21
-703.71143914629454
 31
0.0
1001
ACDBBLOCKREPETAG
1070
     1
1071
      123
1005
11DD51
  0
LINE
  5
11DD52
  8
OBJECT
 10
10172.99999999998
 20
-645.74491827928705
 30
0.0
 11
10159.99999999998
 21
-645.74491827928784
 31
0.0
1001
ACDBBLOCKREPETAG
1070
     1
1071
      124
1005
11DD52
  0
LINE
  5
11DD53
  8
OBJECT
 10
10176.99999999998
 20
-653.15756805667843
 30
0.0
 11
10172.99999999998
 21
-645.74491827928705
 31
0.0
1001
ACDBBLOCKREPETAG
1070
     1
1071
      125
1005
11DD53
  0
LINE
  5
11DD54
  8
OBJECT
 10
10080.00000000002
 20
-634.0
 30
0.0
 11
10082.888612159621
 21
-626.03156729425325
 31
0.0
1001
ACDBBLOCKREPETAG
1070
     1
1071
      126
1005
11DD54
  0
LINE
  5
11DD55
  8
OBJECT
 10
10080.00000000002
 20
-634.0
 30
0.0
 11
10085.99999999998
 21
-653.3502637757274
 31
0.0
1001
ACDBBLOCKREPETAG
1070
     1
1071
      127
1005
11DD55
  0
LINE
  5
11DD56
  8
HIDDEN
 10
10167.99999999998
 20
-570.5000000000008
 30
0.0
 11
10167.99999999998
 21
-659.50000000000068
 31
0.0
1001
ACDBBLOCKREPETAG
1070
     1
1071
      129
1005
11DD56
  0
LINE
  5
11DD57
  8
OBJECT
 10
7923.0
 20
-571.0
 30
0.0
 11
7923.0
 21
-550.0
 31
0.0
1001
ACDBBLOCKREPETAG
1070
     1
1071
       38
1005
11DD57
  0
LINE
  5
11DD58
  8
OBJECT
 10
7923.0
 20
-550.0
 30
0.0
 11
8077.0
 21
-550.0
 31
0.0
1001
ACDBBLOCKREPETAG
1070
     1
1071
       39
1005
11DD58
  0
LINE
  5
11DD59
  8
HIDDEN
 10
7943.0
 20
-620.0
 30
0.0
 11
8057.0
 21
-620.0
 31
0.0
1001
ACDBBLOCKREPETAG
1070
     1
1071
       40
1005
11DD59
  0
LINE
  5
11DD5A
  8
OBJECT
 10
8077.0
 20
-550.0
 30
0.0
 11
8077.0
 21
-571.0
 31
0.0
1001
ACDBBLOCKREPETAG
1070
     1
1071
       41
1005
11DD5A
  0
LINE
  5
11DD5B
  8
OBJECT
 10
8077.0
 20
-571.0
 30
0.0
 11
7923.0
 21
-571.0
 31
0.0
1001
ACDBBLOCKREPETAG
1070
     1
1071
       42
1005
11DD5B
  0
LINE
  5
11DD5C
  8
CENTER
 10
8000.0
 20
-535.0
 30
0.0
 11
8000.0
 21
-890.0
 31
0.0
1001
ACDBBLOCKREPETAG
1070
     1
1071
       43
1005
11DD5C
  0
LINE
  5
11DD5D
  8
OBJECT
 10
7928.0
 20
-571.0
 30
0.0
 11
7928.0
 21
-634.0
 31
0.0
1001
ACDBBLOCKREPETAG
1070
     1
1071
       44
1005
11DD5D
  0
LINE
  5
11DD5E
  8
OBJECT
 10
8072.0
 20
-634.0
 30
0.0
 11
8072.0
 21
-571.0
 31
0.0
1001
ACDBBLOCKREPETAG
1070
     1
1071
       45
1005
11DD5E
  0
LINE
  5
11DD5F
  8
OBJECT
 10
7920.0
 20
-878.0
 30
0.0
 11
8080.0
 21
-878.0
 31
0.0
1001
ACDBBLOCKREPETAG
1070
     1
1071
       46
1005
11DD5F
  0
LINE
  5
11DD60
  8
OBJECT
 10
8080.0
 20
-634.0
 30
0.0
 11
7920.0
 21
-634.0
 31
0.0
1001
ACDBBLOCKREPETAG
1070
     1
1071
       47
1005
11DD60
  0
LINE
  5
11DD61
  8
OBJECT
 10
7920.0
 20
-878.0
 30
0.0
 11
7920.0
 21
-890.0
 31
0.0
1001
ACDBBLOCKREPETAG
1070
     1
1071
       48
1005
11DD61
  0
LINE
  5
11DD62
  8
OBJECT
 10
7920.0
 20
-890.0
 30
0.0
 11
8080.0
 21
-890.0
 31
0.0
1001
ACDBBLOCKREPETAG
1070
     1
1071
       49
1005
11DD62
  0
LINE
  5
11DD63
  8
OBJECT
 10
8080.0
 20
-890.0
 30
0.0
 11
8080.0
 21
-878.0
 31
0.0
1001
ACDBBLOCKREPETAG
1070
     1
1071
       50
1005
11DD63
  0
LINE
  5
11DD64
  8
OBJECT
 10
8074.9999999998618
 20
-757.99999999985096
 30
0.0
 11
8075.0
 21
-878.0
 31
0.0
1001
ACDBBLOCKREPETAG
1070
     1
1071
       54
1005
11DD64
  0
LINE
  5
11DD65
  8
OBJECT
 10
8074.9999908029858
 20
-757.99998602702181
 30
0.0
 11
8080.0
 21
-757.99998602702181
 31
0.0
1001
ACDBBLOCKREPETAG
1070
     1
1071
       55
1005
11DD65
  0
LINE
  5
11DD66
  8
OBJECT
 10
7925.0000000001382
 20
-757.99999999985096
 30
0.0
 11
7925.0
 21
-878.0
 31
0.0
1001
ACDBBLOCKREPETAG
1070
     1
1071
       56
1005
11DD66
  0
LINE
  5
11DD67
  8
OBJECT
 10
7925.0000091970132
 20
-757.99998602702181
 30
0.0
 11
7920.0
 21
-757.99998602702181
 31
0.0
1001
ACDBBLOCKREPETAG
1070
     1
1071
       57
1005
11DD67
  0
ARC
  5
11DD68
  8
OBJECT
 10
8200.6872746716726
 20
-749.40809941010752
 30
0.0
 40
170.6350503965856
 50
137.44134459184301
 51
149.91949581337221
1001
ACDBBLOCKREPETAG
1070
     1
1071
       58
1005
11DD68
  0
ARC
  5
11DD69
  8
OBJECT
 10
8200.6872746716726
 20
-642.59190058989225
 30
0.0
 40
170.6350503965856
 50
210.08050418662771
 51
222.55865540815699
1001
ACDBBLOCKREPETAG
1070
     1
1071
       59
1005
11DD69
  0
ARC
  5
11DD6A
  8
OBJECT
 10
7799.3127253283265
 20
-749.40809941010752
 30
0.0
 40
170.6350503965856
 50
30.080504186787142
 51
42.558655408382641
1001
ACDBBLOCKREPETAG
1070
     1
1071
       60
1005
11DD6A
  0
ARC
  5
11DD6B
  8
OBJECT
 10
7799.3127253283265
 20
-642.59190058989225
 30
0.0
 40
170.6350503965856
 50
317.44134459161722
 51
329.9194958132129
1001
ACDBBLOCKREPETAG
1070
     1
1071
       61
1005
11DD6B
  0
POINT
  5
11DD6C
  8
DOTS
 10
8000.0
 20
-755.0
 30
0.0
1001
ACDBBLOCKREPETAG
1070
     1
1071
      185
1005
11DD6C
  0
LINE
  5
11DD6D
  8
SLIM
 10
7945.2566704260989
 20
-137.99999999999909
 30
0.0
 11
7955.9548403695781
 21
-127.30183005652231
 31
0.0
1001
GRADIENTCOLOR1ACI
1070
     5
1001
GRADIENTCOLOR2ACI
1070
     2
1001
ACAD
1010
0.0
1020
0.0
1030
0.0
1001
ACDBBLOCKREPETAG
1070
     1
1071
      428
1005
11DD6D
  0
LINE
  5
11DD6E
  8
SLIM
 10
7954.2369265471707
 20
-137.99999999999909
 30
0.0
 11
7972.7507744763334
 21
-119.4861520708364
 31
0.0
1001
GRADIENTCOLOR1ACI
1070
     5
1001
GRADIENTCOLOR2ACI
1070
     2
1001
ACAD
1010
0.0
1020
0.0
1030
0.0
1001
ACDBBLOCKREPETAG
1070
     1
1071
      429
1005
11DD6E
  0
LINE
  5
11DD6F
  8
SLIM
 10
7973.5212243124561
 20
-127.6959583557812
 30
0.0
 11
7984.8575146748608
 21
-116.359667993377
 31
0.0
1001
GRADIENTCOLOR1ACI
1070
     5
1001
GRADIENTCOLOR2ACI
1070
     2
1001
ACAD
1010
0.0
1020
0.0
1030
0.0
1001
ACDBBLOCKREPETAG
1070
     1
1071
      430
1005
11DD6F
  0
LINE
  5
11DD70
  8
SLIM
 10
7985.8944171461262
 20
-124.30302164318159
 30
0.0
 11
7995.0533812002559
 21
-115.1440575890517
 31
0.0
1001
GRADIENTCOLOR1ACI
1070
     5
1001
GRADIENTCOLOR2ACI
1070
     2
1001
ACAD
1010
0.0
1020
0.0
1030
0.0
1001
ACDBBLOCKREPETAG
1070
     1
1071
      431
1005
11DD70
  0
LINE
  5
11DD71
  8
SLIM
 10
7996.077732749206
 20
-123.0999621611699
 30
0.0
 11
8000.0
 21
-119.1776949103767
 31
0.0
1001
GRADIENTCOLOR1ACI
1070
     5
1001
GRADIENTCOLOR2ACI
1070
     2
1001
ACAD
1010
0.0
1020
0.0
1030
0.0
1001
ACDBBLOCKREPETAG
1070
     1
1071
      432
1005
11DD71
  0
LINE
  5
11DD72
  8
SLIM
 10
8000.0
 20
-119.1776949103767
 30
0.0
 11
8004.0797313529074
 21
-115.0979635574724
 31
0.0
1001
GRADIENTCOLOR1ACI
1070
     5
1001
GRADIENTCOLOR2ACI
1070
     2
1001
ACAD
1010
0.0
1020
0.0
1030
0.0
1001
ACDBBLOCKREPETAG
1070
     1
1071
      433
1005
11DD72
  0
LINE
  5
11DD73
  8
SLIM
 10
8004.9957202542737
 20
-123.1622307771683
 30
0.0
 11
8012.2679784105749
 21
-115.88997262087101
 31
0.0
1001
GRADIENTCOLOR1ACI
1070
     5
1001
GRADIENTCOLOR2ACI
1070
     2
1001
ACAD
1010
0.0
1020
0.0
1030
0.0
1001
ACDBBLOCKREPETAG
1070
     1
1071
      434
1005
11DD73
  0
LINE
  5
11DD74
  8
SLIM
 10
8013.028059366964
 20
-124.1101477855505
 30
0.0
 11
8019.7999414573624
 21
-117.3382656951526
 31
0.0
1001
GRADIENTCOLOR1ACI
1070
     5
1001
GRADIENTCOLOR2ACI
1070
     2
1001
ACAD
1010
0.0
1020
0.0
1030
0.0
1001
ACDBBLOCKREPETAG
1070
     1
1071
      435
1005
11DD74
  0
LINE
  5
11DD75
  8
SLIM
 10
8020.3740813142458
 20
-125.7443819593383
 30
0.0
 11
8026.7872038672767
 21
-119.3312594063044
 31
0.0
1001
GRADIENTCOLOR1ACI
1070
     5
1001
GRADIENTCOLOR2ACI
1070
     2
1001
ACAD
1010
0.0
1020
0.0
1030
0.0
1001
ACDBBLOCKREPETAG
1070
     1
1071
      436
1005
11DD75
  0
LINE
  5
11DD76
  8
SLIM
 10
8027.1524719988738
 20
-127.946247395778
 30
0.0
 11
8033.3030030760328
 21
-121.7957163186195
 31
0.0
1001
GRADIENTCOLOR1ACI
1070
     5
1001
GRADIENTCOLOR2ACI
1070
     2
1001
ACAD
1010
0.0
1020
0.0
1030
0.0
1001
ACDBBLOCKREPETAG
1070
     1
1071
      437
1005
11DD76
  0
LINE
  5
11DD77
  8
SLIM
 10
8033.4390986513308
 20
-130.63987686439191
 30
0.0
 11
8039.3973119843777
 21
-124.6816635313439
 31
0.0
1001
GRADIENTCOLOR1ACI
1070
     5
1001
GRADIENTCOLOR2ACI
1070
     2
1001
ACAD
1010
0.0
1020
0.0
1030
0.0
1001
ACDBBLOCKREPETAG
1070
     1
1071
      438
1005
11DD77
  0
LINE
  5
11DD78
  8
SLIM
 10
8039.2842246217979
 20
-133.77500701499321
 30
0.0
 11
8045.1047705343699
 21
-127.95446110242381
 31
0.0
1001
GRADIENTCOLOR1ACI
1070
     5
1001
GRADIENTCOLOR2ACI
1070
     2
1001
ACAD
1010
0.0
1020
0.0
1030
0.0
1001
ACDBBLOCKREPETAG
1070
     1
1071
      439
1005
11DD78
  0
LINE
  5
11DD79
  8
SLIM
 10
8044.7212801698061
 20
-137.31820758805651
 30
0.0
 11
8050.449155789197
 21
-131.59033196866449
 31
0.0
1001
GRADIENTCOLOR1ACI
1070
     5
1001
GRADIENTCOLOR2ACI
1070
     2
1001
ACAD
1010
0.0
1020
0.0
1030
0.0
1001
ACDBBLOCKREPETAG
1070
     1
1071
      440
1005
11DD79
  0
LINE
  5
11DD7A
  8
SLIM
 10
8053.0197438789319
 20
-137.99999999999909
 30
0.0
 11
8055.4459941864034
 21
-135.57374969252561
 31
0.0
1001
GRADIENTCOLOR1ACI
1070
     5
1001
GRADIENTCOLOR2ACI
1070
     2
1001
ACAD
1010
0.0
1020
0.0
1030
0.0
1001
ACDBBLOCKREPETAG
1070
     1
1071
      441
1005
11DD7A
  0
LINE
  5
11DD7B
  8
CENTER
 10
8000.0
 20
-279.99999999999909
 30
0.0
 11
8000.0
 21
-99.999999999999091
 31
0.0
1001
ACDBBLOCKREPETAG
1070
     1
1071
      160
1005
11DD7B
  0
CIRCLE
  5
11DD7C
  8
OBJECT
 10
8000.0
 20
-199.99999999999909
 30
0.0
 40
70.0
1001
ACDBBLOCKREPETAG
1070
     1
1071
      161
1005
11DD7C
  0
CIRCLE
  5
11DD7D
  8
OBJECT
 10
8000.0
 20
-199.99999999999909
 30
0.0
 40
77.0
1001
ACDBBLOCKREPETAG
1070
     1
1071
      162
1005
11DD7D
  0
LINE
  5
11DD7E
  8
OBJECT
 10
8045.6618002273271
 20
-137.99999999999909
 30
0.0
 11
8080.0
 21
-137.99999999999909
 31
0.0
1001
ACDBBLOCKREPETAG
1070
     1
1071
      164
1005
11DD7E
  0
LINE
  5
11DD7F
  8
OBJECT
 10
8062.0
 20
-261.99999999999909
 30
0.0
 11
8080.0
 21
-261.99999999999909
 31
0.0
1001
ACDBBLOCKREPETAG
1070
     1
1071
      165
1005
11DD7F
  0
LINE
  5
11DD80
  8
OBJECT
 10
8062.0
 20
-261.99999999999909
 30
0.0
 11
8062.0
 21
-279.99999999999909
 31
0.0
1001
ACDBBLOCKREPETAG
1070
     1
1071
      167
1005
11DD80
  0
LINE
  5
11DD81
  8
OBJECT
 10
7938.0
 20
-261.99999999999909
 30
0.0
 11
7938.0
 21
-279.99999999999909
 31
0.0
1001
ACDBBLOCKREPETAG
1070
     1
1071
      168
1005
11DD81
  0
LINE
  5
11DD82
  8
OBJECT
 10
7938.0
 20
-261.99999999999909
 30
0.0
 11
7920.0
 21
-261.99999999999909
 31
0.0
1001
ACDBBLOCKREPETAG
1070
     1
1071
      170
1005
11DD82
  0
LINE
  5
11DD83
  8
OBJECT
 10
7954.3381997726747
 20
-137.99999999999909
 30
0.0
 11
7920.0
 21
-137.99999999999909
 31
0.0
1001
ACDBBLOCKREPETAG
1070
     1
1071
      171
1005
11DD83
  0
LINE
  5
11DD84
  8
OBJECT
 10
7945.5527778486357
 20
-254.44722215136329
 30
0.0
 11
7938.0
 21
-261.99999999999909
 31
0.0
1001
ACDBBLOCKREPETAG
1070
     1
1071
      180
1005
11DD84
  0
LINE
  5
11DD85
  8
OBJECT
 10
8054.4472221513652
 20
-254.44722215136329
 30
0.0
 11
8062.0
 21
-261.99999999999909
 31
0.0
1001
ACDBBLOCKREPETAG
1070
     1
1071
      181
1005
11DD85
  0
ARC
  5
11DD86
  8
OBJECT
 10
8000.0
 20
-199.99999999999909
 30
0.0
 40
85.0
 50
46.837102859806208
 51
133.16289714019371
1001
ACDBBLOCKREPETAG
1070
     1
1071
      183
1005
11DD86
  0
LINE
  5
11DD87
  8
OBJECT
 10
8024.1029330933006
 20
-243.80694712371681
 30
0.0
 11
8020.6596569999974
 21
-232.55462199999889
 31
0.0
1001
ACDBBLOCKREPETAG
1070
     1
1071
      314
1005
11DD87
  0
LINE
  5
11DD88
  8
OBJECT
 10
7986.7927499013749
 20
-218.22553374208019
 30
0.0
 11
8020.6596569999974
 21
-232.5546219999969
 31
0.0
1001
ACDBBLOCKREPETAG
1070
     1
1071
      316
1005
11DD88
  0
ARC
  5
11DD89
  8
OBJECT
 10
7982.8961697618997
 20
-227.4351299990567
 30
0.0
 40
10.0
 50
67.066778292911366
 51
154.0147343702935
1001
ACDBBLOCKREPETAG
1070
     1
1071
      317
1005
11DD89
  0
ARC
  5
11DD8A
  8
OBJECT
 10
7986.1488390381273
 20
-225.55386256729159
 30
0.0
 40
7.0
 50
67.066778292911366
 51
154.0147337749826
1001
ACDBBLOCKREPETAG
1070
     1
1071
      318
1005
11DD8A
  0
LINE
  5
11DD8B
  8
OBJECT
 10
7969.4199755553009
 20
-243.89888500818171
 30
0.0
 11
7979.8564918232369
 21
-222.48688253356801
 31
0.0
1001
ACDBBLOCKREPETAG
1070
     1
1071
      349
1005
11DD8B
  0
LINE
  5
11DD8C
  8
OBJECT
 10
7965.2972169006098
 20
-240.71813901882729
 30
0.0
 11
7973.9071022665084
 21
-223.05373004430751
 31
0.0
1001
ACDBBLOCKREPETAG
1070
     1
1071
      350
1005
11DD8C
  0
ARC
  5
11DD8D
  8
OBJECT
 10
7976.5796953073141
 20
-207.1289369828437
 30
0.0
 40
60.031113246032611
 50
314.07020130418567
 51
322.33936106089681
1001
ACDBBLOCKREPETAG
1070
     1
1071
      351
1005
11DD8D
  0
CIRCLE
  5
11DD8E
  8
OBJECT
 10
8000.0
 20
-199.99999999999909
 30
0.0
 40
53.5
1001
ACDBBLOCKREPETAG
1070
     1
1071
      352
1005
11DD8E
  0
POINT
  5
11DD8F
  8
DOTS
 10
8000.0
 20
-199.99999999999909
 30
0.0
 50
270.0
1001
ACDBBLOCKREPETAG
1070
     1
1071
      364
1005
11DD8F
  0
ARC
  5
11DD90
  8
OBJECT
 10
8000.0
 20
-199.99999999999909
 30
0.0
 40
50.0
 50
298.81994300000417
 51
228.5237695596397
1001
ACDBBLOCKREPETAG
1070
     1
1071
      157
1005
11DD90
  0
LINE
  5
11DD91
  8
CENTER
 10
8080.0
 20
-199.99999999999909
 30
0.0
 11
7920.0
 21
-199.99999999999909
 31
0.0
1001
ACDBBLOCKREPETAG
1070
     1
1071
      158
1005
11DD91
  0
LINE
  5
11DD92
  8
OBJECT
 10
7787.0000000000191
 20
-137.99999999999909
 30
0.0
 11
7780.0000000000182
 21
-137.99999999999909
 31
0.0
1001
ACDBBLOCKREPETAG
1070
     1
1071
      110
1005
11DD92
  0
LINE
  5
11DD93
  8
OBJECT
 10
7780.0000000000182
 20
-137.99999999999909
 30
0.0
 11
7780.0000000000182
 21
-261.99999999999909
 31
0.0
1001
ACDBBLOCKREPETAG
1070
     1
1071
      111
1005
11DD93
  0
LINE
  5
11DD94
  8
OBJECT
 10
7780.0000000000182
 20
-261.99999999999909
 30
0.0
 11
7787.0000000000191
 21
-261.99999999999909
 31
0.0
1001
ACDBBLOCKREPETAG
1070
     1
1071
      112
1005
11DD94
  0
LINE
  5
11DD95
  8
OBJECT
 10
7787.0000000000191
 20
-261.99999999999909
 30
0.0
 11
7787.0000000000191
 21
-137.99999999999909
 31
0.0
1001
ACDBBLOCKREPETAG
1070
     1
1071
      113
1005
11DD95
  0
LINE
  5
11DD96
  8
CENTER
 10
7765.0000000000191
 20
-199.99999999999909
 30
0.0
 11
7920.0
 21
-199.99999999999909
 31
0.0
1001
ACDBBLOCKREPETAG
1070
     1
1071
      114
1005
11DD96
  0
LINE
  5
11DD97
  8
OBJECT
 10
7840.0000250358171
 20
-245.0000000000027
 30
0.0
 11
7914.0000000000027
 21
-244.99999999999909
 31
0.0
1001
ACDBBLOCKREPETAG
1070
     1
1071
      115
1005
11DD97
  0
LINE
  5
11DD98
  8
OBJECT
 10
7840.0000250358171
 20
-154.99999999999909
 30
0.0
 11
7914.0000000000027
 21
-154.99999999999909
 31
0.0
1001
ACDBBLOCKREPETAG
1070
     1
1071
      116
1005
11DD98
  0
LINE
  5
11DD99
  8
OBJECT
 10
7787.0000000000191
 20
-140.99999999999909
 30
0.0
 11
7823.0000000000191
 21
-140.99999999999909
 31
0.0
1001
ACDBBLOCKREPETAG
1070
     1
1071
      117
1005
11DD99
  0
LINE
  5
11DD9A
  8
OBJECT
 10
7823.0000000000191
 20
-140.99999999999909
 30
0.0
 11
7823.0000000000191
 21
-258.99999999999909
 31
0.0
1001
ACDBBLOCKREPETAG
1070
     1
1071
      118
1005
11DD9A
  0
LINE
  5
11DD9B
  8
OBJECT
 10
7823.0000000000191
 20
-258.99999999999909
 30
0.0
 11
7787.0000000000191
 21
-258.99999999999909
 31
0.0
1001
ACDBBLOCKREPETAG
1070
     1
1071
      119
1005
11DD9B
  0
LINE
  5
11DD9C
  8
OBJECT
 10
7827.0000000000182
 20
-145.49999999999909
 30
0.0
 11
7840.0000000000191
 21
-145.49999999999909
 31
0.0
1001
ACDBBLOCKREPETAG
1070
     1
1071
      120
1005
11DD9C
  0
LINE
  5
11DD9D
  8
OBJECT
 10
7840.0000000000191
 20
-254.49999999999909
 30
0.0
 11
7827.0000000000182
 21
-254.49999999999909
 31
0.0
1001
ACDBBLOCKREPETAG
1070
     1
1071
      121
1005
11DD9D
  0
LINE
  5
11DD9E
  8
OBJECT
 10
7827.0000000000182
 20
-254.49999999999909
 30
0.0
 11
7827.0000000000182
 21
-145.49999999999909
 31
0.0
1001
ACDBBLOCKREPETAG
1070
     1
1071
      122
1005
11DD9E
  0
LINE
  5
11DD9F
  8
OBJECT
 10
7823.0000000000191
 20
-140.99999999999909
 30
0.0
 11
7827.0000000000182
 21
-145.49999999999909
 31
0.0
1001
ACDBBLOCKREPETAG
1070
     1
1071
      123
1005
11DD9F
  0
LINE
  5
11DDA0
  8
OBJECT
 10
7823.0000000000191
 20
-258.99999999999909
 30
0.0
 11
7827.0000000000182
 21
-254.49999999999909
 31
0.0
1001
ACDBBLOCKREPETAG
1070
     1
1071
      124
1005
11DDA0
  0
LINE
  5
11DDA1
  8
OBJECT
 10
7917.0000000000027
 20
-137.99999999999909
 30
0.0
 11
7920.0000000000027
 21
-137.99999999999909
 31
0.0
1001
ACDBBLOCKREPETAG
1070
     1
1071
      125
1005
11DDA1
  0
ARC
  5
11DDA2
  8
OBJECT
 10
7917.0000000000027
 20
-140.99999999999909
 30
0.0
 40
3.0
 50
90.0
 51
180.0
1001
ACDBBLOCKREPETAG
1070
     1
1071
      126
1005
11DDA2
  0
LINE
  5
11DDA3
  8
OBJECT
 10
7920.0000000000027
 20
-261.99999999999909
 30
0.0
 11
7917.0000000000027
 21
-261.99999999999909
 31
0.0
1001
ACDBBLOCKREPETAG
1070
     1
1071
      127
1005
11DDA3
  0
ARC
  5
11DDA4
  8
OBJECT
 10
7917.0000000000027
 20
-258.99999999999909
 30
0.0
 40
3.0
 50
180.0
 51
270.0
1001
ACDBBLOCKREPETAG
1070
     1
1071
      128
1005
11DDA4
  0
LINE
  5
11DDA5
  8
OBJECT
 10
7914.0000000000027
 20
-258.99999999999909
 30
0.0
 11
7914.0000000000027
 21
-222.44994432063581
 31
0.0
1001
ACDBBLOCKREPETAG
1070
     1
1071
      129
1005
11DDA5
  0
LINE
  5
11DDA6
  8
OBJECT
 10
7914.0000000000027
 20
-177.55005567935859
 30
0.0
 11
7914.0000000000027
 21
-140.99999999999909
 31
0.0
1001
ACDBBLOCKREPETAG
1070
     1
1071
      130
1005
11DDA6
  0
LINE
  5
11DDA7
  8
HIDDEN
 10
7832.0000000000182
 20
-155.49999999999909
 30
0.0
 11
7832.0000000000182
 21
-244.49999999999909
 31
0.0
1001
ACDBBLOCKREPETAG
1070
     1
1071
      131
1005
11DDA7
  0
LINE
  5
11DDA8
  8
OBJECT
 10
7840.0000250358171
 20
-254.4999509238105
 30
0.0
 11
7840.0000250358171
 21
-145.4999509238105
 31
0.0
1001
ACDBBLOCKREPETAG
1070
     1
1071
      133
1005
11DDA8
  0
ARC
  5
11DDA9
  8
OBJECT
 10
7875.0
 20
-199.99999999999909
 30
0.0
 40
45.000000000000547
 50
270.0
 51
90.0
1001
ACDBBLOCKREPETAG
1070
     1
1071
      134
1005
11DDA9
  0
LINE
  5
11DDAA
  8
CENTER
 10
8000.0
 20
-300.99999999999898
 30
0.0
 11
8000.0
 21
-279.99999999999909
 31
0.0
1001
ACDBBLOCKREPETAG
1070
     1
1071
        0
1005
11DDAA
  0
LINE
  5
11DDAB
  8
OBJECT
 10
8062.0
 20
-283.0
 30
0.0
 11
8062.0
 21
-279.99999999999909
 31
0.0
1001
ACDBBLOCKREPETAG
1070
     1
1071
        1
1005
11DDAB
  0
ARC
  5
11DDAC
  8
OBJECT
 10
8059.0
 20
-283.0
 30
0.0
 40
3.0
 50
270.0
 51
0.0
1001
ACDBBLOCKREPETAG
1070
     1
1071
        2
1005
11DDAC
  0
LINE
  5
11DDAD
  8
OBJECT
 10
7938.0
 20
-279.99999999999909
 30
0.0
 11
7938.0
 21
-282.99999999999818
 31
0.0
1001
ACDBBLOCKREPETAG
1070
     1
1071
        3
1005
11DDAD
  0
ARC
  5
11DDAE
  8
OBJECT
 10
7941.0
 20
-282.99999999999818
 30
0.0
 40
3.0
 50
180.0
 51
270.0
1001
ACDBBLOCKREPETAG
1070
     1
1071
        4
1005
11DDAE
  0
LINE
  5
11DDAF
  8
OBJECT
 10
7941.0
 20
-285.99999999999818
 30
0.0
 11
8059.0
 21
-286.0
 31
0.0
1001
ACDBBLOCKREPETAG
1070
     1
1071
        5
1005
11DDAF
  0
LINE
  5
11DDB0
  8
OBJECT
 10
8212.9999999999836
 20
-137.99999999999909
 30
0.0
 11
8219.9999999999873
 21
-137.99999999999909
 31
0.0
1001
ACDBBLOCKREPETAG
1070
     1
1071
      110
1005
11DDB0
  0
LINE
  5
11DDB1
  8
OBJECT
 10
8219.9999999999873
 20
-137.99999999999909
 30
0.0
 11
8219.9999999999873
 21
-261.99999999999909
 31
0.0
1001
ACDBBLOCKREPETAG
1070
     1
1071
      111
1005
11DDB1
  0
LINE
  5
11DDB2
  8
OBJECT
 10
8219.9999999999873
 20
-261.99999999999909
 30
0.0
 11
8212.9999999999836
 21
-261.99999999999909
 31
0.0
1001
ACDBBLOCKREPETAG
1070
     1
1071
      112
1005
11DDB2
  0
LINE
  5
11DDB3
  8
OBJECT
 10
8212.9999999999836
 20
-261.99999999999909
 30
0.0
 11
8212.9999999999836
 21
-137.99999999999909
 31
0.0
1001
ACDBBLOCKREPETAG
1070
     1
1071
      113
1005
11DDB3
  0
LINE
  5
11DDB4
  8
CENTER
 10
8234.9999999999873
 20
-199.99999999999909
 30
0.0
 11
8080.0000000000027
 21
-199.99999999999909
 31
0.0
1001
ACDBBLOCKREPETAG
1070
     1
1071
      114
1005
11DDB4
  0
LINE
  5
11DDB5
  8
OBJECT
 10
8159.9999749641838
 20
-245.0000000000027
 30
0.0
 11
8086.0
 21
-244.99999999999909
 31
0.0
1001
ACDBBLOCKREPETAG
1070
     1
1071
      115
1005
11DDB5
  0
LINE
  5
11DDB6
  8
OBJECT
 10
8159.9999749641838
 20
-154.99999999999909
 30
0.0
 11
8086.0
 21
-154.99999999999909
 31
0.0
1001
ACDBBLOCKREPETAG
1070
     1
1071
      116
1005
11DDB6
  0
LINE
  5
11DDB7
  8
OBJECT
 10
8212.9999999999836
 20
-140.99999999999909
 30
0.0
 11
8176.9999999999873
 21
-140.99999999999909
 31
0.0
1001
ACDBBLOCKREPETAG
1070
     1
1071
      117
1005
11DDB7
  0
LINE
  5
11DDB8
  8
OBJECT
 10
8176.9999999999873
 20
-140.99999999999909
 30
0.0
 11
8176.9999999999873
 21
-258.99999999999909
 31
0.0
1001
ACDBBLOCKREPETAG
1070
     1
1071
      118
1005
11DDB8
  0
LINE
  5
11DDB9
  8
OBJECT
 10
8176.9999999999873
 20
-258.99999999999909
 30
0.0
 11
8212.9999999999836
 21
-258.99999999999909
 31
0.0
1001
ACDBBLOCKREPETAG
1070
     1
1071
      119
1005
11DDB9
  0
LINE
  5
11DDBA
  8
OBJECT
 10
8172.9999999999854
 20
-145.49999999999909
 30
0.0
 11
8159.9999999999873
 21
-145.49999999999909
 31
0.0
1001
ACDBBLOCKREPETAG
1070
     1
1071
      120
1005
11DDBA
  0
LINE
  5
11DDBB
  8
OBJECT
 10
8159.9999999999873
 20
-254.49999999999909
 30
0.0
 11
8172.9999999999854
 21
-254.49999999999909
 31
0.0
1001
ACDBBLOCKREPETAG
1070
     1
1071
      121
1005
11DDBB
  0
LINE
  5
11DDBC
  8
OBJECT
 10
8172.9999999999854
 20
-254.49999999999909
 30
0.0
 11
8172.9999999999854
 21
-145.49999999999909
 31
0.0
1001
ACDBBLOCKREPETAG
1070
     1
1071
      122
1005
11DDBC
  0
LINE
  5
11DDBD
  8
OBJECT
 10
8176.9999999999873
 20
-140.99999999999909
 30
0.0
 11
8172.9999999999854
 21
-145.49999999999909
 31
0.0
1001
ACDBBLOCKREPETAG
1070
     1
1071
      123
1005
11DDBD
  0
LINE
  5
11DDBE
  8
OBJECT
 10
8176.9999999999873
 20
-258.99999999999909
 30
0.0
 11
8172.9999999999854
 21
-254.49999999999909
 31
0.0
1001
ACDBBLOCKREPETAG
1070
     1
1071
      124
1005
11DDBE
  0
LINE
  5
11DDBF
  8
OBJECT
 10
8083.0
 20
-137.99999999999909
 30
0.0
 11
8080.0
 21
-137.99999999999909
 31
0.0
1001
ACDBBLOCKREPETAG
1070
     1
1071
      125
1005
11DDBF
  0
ARC
  5
11DDC0
  8
OBJECT
 10
8083.0
 20
-140.99999999999909
 30
0.0
 40
3.0
 50
0.0
 51
90.0
1001
ACDBBLOCKREPETAG
1070
     1
1071
      126
1005
11DDC0
  0
LINE
  5
11DDC1
  8
OBJECT
 10
8080.0
 20
-261.99999999999909
 30
0.0
 11
8083.0
 21
-261.99999999999909
 31
0.0
1001
ACDBBLOCKREPETAG
1070
     1
1071
      127
1005
11DDC1
  0
ARC
  5
11DDC2
  8
OBJECT
 10
8083.0
 20
-258.99999999999909
 30
0.0
 40
3.0
 50
270.0
 51
0.0
1001
ACDBBLOCKREPETAG
1070
     1
1071
      128
1005
11DDC2
  0
LINE
  5
11DDC3
  8
OBJECT
 10
8086.0
 20
-258.99999999999909
 30
0.0
 11
8086.0
 21
-222.44994432063581
 31
0.0
1001
ACDBBLOCKREPETAG
1070
     1
1071
      129
1005
11DDC3
  0
LINE
  5
11DDC4
  8
OBJECT
 10
8086.0
 20
-177.55005567935859
 30
0.0
 11
8086.0
 21
-140.99999999999909
 31
0.0
1001
ACDBBLOCKREPETAG
1070
     1
1071
      130
1005
11DDC4
  0
LINE
  5
11DDC5
  8
HIDDEN
 10
8167.9999999999864
 20
-155.49999999999909
 30
0.0
 11
8167.9999999999864
 21
-244.49999999999909
 31
0.0
1001
ACDBBLOCKREPETAG
1070
     1
1071
      131
1005
11DDC5
  0
LINE
  5
11DDC6
  8
OBJECT
 10
8159.9999749641838
 20
-254.4999509238105
 30
0.0
 11
8159.9999749641838
 21
-145.4999509238105
 31
0.0
1001
ACDBBLOCKREPETAG
1070
     1
1071
      133
1005
11DDC6
  0
ARC
  5
11DDC7
  8
OBJECT
 10
8125.0000000000027
 20
-199.99999999999909
 30
0.0
 40
45.000000000000547
 50
90.0
 51
270.0
1001
ACDBBLOCKREPETAG
1070
     1
1071
      134
1005
11DDC7
  0
LINE
  5
11DDC8
  8
OBJECT
 10
7787.0000000000127
 20
-553.0
 30
0.0
 11
7780.0000000000136
 21
-553.0
 31
0.0
1001
ACDBBLOCKREPETAG
1070
     1
1071
      106
1005
11DDC8
  0
LINE
  5
11DDC9
  8
OBJECT
 10
7780.0000000000136
 20
-553.0
 30
0.0
 11
7780.0000000000136
 21
-677.0
 31
0.0
1001
ACDBBLOCKREPETAG
1070
     1
1071
      107
1005
11DDC9
  0
LINE
  5
11DDCA
  8
OBJECT
 10
7914.0000000000136
 20
-653.3502637757274
 30
0.0
 11
7914.0000000000136
 21
-755.00000000000102
 31
0.0
1001
ACDBBLOCKREPETAG
1070
     1
1071
      108
1005
11DDCA
  0
LINE
  5
11DDCB
  8
OBJECT
 10
7780.0000000000136
 20
-677.0
 30
0.0
 11
7787.0000000000127
 21
-677.0
 31
0.0
1001
ACDBBLOCKREPETAG
1070
     1
1071
      109
1005
11DDCB
  0
LINE
  5
11DDCC
  8
OBJECT
 10
7787.0000000000127
 20
-677.0
 30
0.0
 11
7787.0000000000127
 21
-553.0
 31
0.0
1001
ACDBBLOCKREPETAG
1070
     1
1071
      110
1005
11DDCC
  0
LINE
  5
11DDCD
  8
CENTER
 10
7855.0000000000136
 20
-615.0000000000008
 30
0.0
 11
7765.0000000000127
 21
-615.0
 31
0.0
1001
ACDBBLOCKREPETAG
1070
     1
1071
      111
1005
11DDCD
  0
LINE
  5
11DDCE
  8
OBJECT
 10
7920.0000000000191
 20
-758.0
 30
0.0
 11
7917.0000000000136
 21
-758.0000000000008
 31
0.0
1001
ACDBBLOCKREPETAG
1070
     1
1071
      112
1005
11DDCE
  0
ARC
  5
11DDCF
  8
OBJECT
 10
7917.0000000000136
 20
-755.00000000000102
 30
0.0
 40
3.0
 50
180.0
 51
270.0
1001
ACDBBLOCKREPETAG
1070
     1
1071
      113
1005
11DDCF
  0
LINE
  5
11DDD0
  8
OBJECT
 10
7787.0000000000127
 20
-556.0
 30
0.0
 11
7823.0000000000127
 21
-556.0000000000008
 31
0.0
1001
ACDBBLOCKREPETAG
1070
     1
1071
      114
1005
11DDD0
  0
LINE
  5
11DDD1
  8
OBJECT
 10
7823.0000000000127
 20
-556.0000000000008
 30
0.0
 11
7823.0000000000127
 21
-653.15756805667843
 31
0.0
1001
ACDBBLOCKREPETAG
1070
     1
1071
      115
1005
11DDD1
  0
LINE
  5
11DDD2
  8
OBJECT
 10
7827.0000000000136
 20
-560.5000000000008
 30
0.0
 11
7827.0000000000182
 21
-645.74491827928705
 31
0.0
1001
ACDBBLOCKREPETAG
1070
     1
1071
      116
1005
11DDD2
  0
LINE
  5
11DDD3
  8
OBJECT
 10
7827.0000000000136
 20
-560.5000000000008
 30
0.0
 11
7840.0000000000136
 21
-560.5000000000008
 31
0.0
1001
ACDBBLOCKREPETAG
1070
     1
1071
      117
1005
11DDD3
  0
LINE
  5
11DDD4
  8
OBJECT
 10
7831.3436831745303
 20
-674.0000000000008
 30
0.0
 11
7787.0000000000127
 21
-674.0
 31
0.0
1001
ACDBBLOCKREPETAG
1070
     1
1071
      118
1005
11DDD4
  0
LINE
  5
11DDD5
  8
OBJECT
 10
7823.0000000000127
 20
-556.0000000000008
 30
0.0
 11
7827.0000000000136
 21
-560.5000000000008
 31
0.0
1001
ACDBBLOCKREPETAG
1070
     1
1071
      119
1005
11DDD5
  0
LINE
  5
11DDD6
  8
OBJECT
 10
7840.0000000000136
 20
-560.5000000000008
 30
0.0
 11
7840.0000000000136
 21
-645.74491827928784
 31
0.0
1001
ACDBBLOCKREPETAG
1070
     1
1071
      120
1005
11DDD6
  0
ARC
  5
11DDD7
  8
OBJECT
 10
7908.0000000000136
 20
-637.27386365609345
 30
0.0
 40
85.0
 50
205.5991387218879
 51
231.40900676279119
1001
ACDBBLOCKREPETAG
1070
     1
1071
      121
1005
11DDD7
  0
ARC
  5
11DDD8
  8
OBJECT
 10
7837.2000000000171
 20
-655.00000000000068
 30
0.0
 40
85.0
 50
19.925932125430649
 51
88.112268108168848
1001
ACDBBLOCKREPETAG
1070
     1
1071
      122
1005
11DDD8
  0
LINE
  5
11DDD9
  8
OBJECT
 10
7914.0000000000136
 20
-750.81075719270905
 30
0.0
 11
7854.9806774563967
 21
-703.71143914629454
 31
0.0
1001
ACDBBLOCKREPETAG
1070
     1
1071
      123
1005
11DDD9
  0
LINE
  5
11DDDA
  8
OBJECT
 10
7827.0000000000182
 20
-645.74491827928705
 30
0.0
 11
7840.0000000000136
 21
-645.74491827928784
 31
0.0
1001
ACDBBLOCKREPETAG
1070
     1
1071
      124
1005
11DDDA
  0
LINE
  5
11DDDB
  8
OBJECT
 10
7823.0000000000127
 20
-653.15756805667843
 30
0.0
 11
7827.0000000000182
 21
-645.74491827928705
 31
0.0
1001
ACDBBLOCKREPETAG
1070
     1
1071
      125
1005
11DDDB
  0
LINE
  5
11DDDC
  8
OBJECT
 10
7919.99999999998
 20
-634.0
 30
0.0
 11
7917.1113878403758
 21
-626.03156729425325
 31
0.0
1001
ACDBBLOCKREPETAG
1070
     1
1071
      126
1005
11DDDC
  0
LINE
  5
11DDDD
  8
OBJECT
 10
7919.99999999998
 20
-634.0
 30
0.0
 11
7914.0000000000136
 21
-653.3502637757274
 31
0.0
1001
ACDBBLOCKREPETAG
1070
     1
1071
      127
1005
11DDDD
  0
LINE
  5
11DDDE
  8
HIDDEN
 10
7832.0000000000136
 20
-570.5000000000008
 30
0.0
 11
7832.0000000000136
 21
-659.50000000000068
 31
0.0
1001
ACDBBLOCKREPETAG
1070
     1
1071
      129
1005
11DDDE
  0
CIRCLE
  5
11DDDF
  8
OBJECT
 10
8000.0
 20
-696.0
 30
0.0
 40
62.0
1001
ACDBBLOCKREPETAG
1070
     1
1071
        0
1005
11DDDF
  0
LINE
  5
11DDE0
  8
OBJECT
 10
8212.9999999999836
 20
-553.0000000000008
 30
0.0
 11
8219.9999999999873
 21
-553.0000000000008
 31
0.0
1001
ACDBBLOCKREPETAG
1070
     1
1071
      106
1005
11DDE0
  0
LINE
  5
11DDE1
  8
OBJECT
 10
8219.9999999999873
 20
-553.0000000000008
 30
0.0
 11
8219.9999999999873
 21
-677.0000000000008
 31
0.0
1001
ACDBBLOCKREPETAG
1070
     1
1071
      107
1005
11DDE1
  0
LINE
  5
11DDE2
  8
OBJECT
 10
8085.9999999999873
 20
-653.3502637757274
 30
0.0
 11
8085.9999999999873
 21
-755.00000000000102
 31
0.0
1001
ACDBBLOCKREPETAG
1070
     1
1071
      108
1005
11DDE2
  0
LINE
  5
11DDE3
  8
OBJECT
 10
8219.9999999999873
 20
-677.0000000000008
 30
0.0
 11
8212.9999999999836
 21
-677.0000000000008
 31
0.0
1001
ACDBBLOCKREPETAG
1070
     1
1071
      109
1005
11DDE3
  0
LINE
  5
11DDE4
  8
OBJECT
 10
8212.9999999999836
 20
-677.0000000000008
 30
0.0
 11
8212.9999999999836
 21
-553.0000000000008
 31
0.0
1001
ACDBBLOCKREPETAG
1070
     1
1071
      110
1005
11DDE4
  0
LINE
  5
11DDE5
  8
CENTER
 10
8144.9999999999873
 20
-615.0000000000008
 30
0.0
 11
8234.9999999999873
 21
-615.0000000000008
 31
0.0
1001
ACDBBLOCKREPETAG
1070
     1
1071
      111
1005
11DDE5
  0
LINE
  5
11DDE6
  8
OBJECT
 10
8079.9999999999818
 20
-758.0
 30
0.0
 11
8082.9999999999873
 21
-758.0000000000008
 31
0.0
1001
ACDBBLOCKREPETAG
1070
     1
1071
      112
1005
11DDE6
  0
ARC
  5
11DDE7
  8
OBJECT
 10
8082.9999999999873
 20
-755.00000000000102
 30
0.0
 40
3.0
 50
270.0
 51
0.0
1001
ACDBBLOCKREPETAG
1070
     1
1071
      113
1005
11DDE7
  0
LINE
  5
11DDE8
  8
OBJECT
 10
8212.9999999999836
 20
-556.0000000000008
 30
0.0
 11
8176.9999999999873
 21
-556.0000000000008
 31
0.0
1001
ACDBBLOCKREPETAG
1070
     1
1071
      114
1005
11DDE8
  0
LINE
  5
11DDE9
  8
OBJECT
 10
8176.9999999999873
 20
-556.0000000000008
 30
0.0
 11
8176.9999999999873
 21
-653.15756805667843
 31
0.0
1001
ACDBBLOCKREPETAG
1070
     1
1071
      115
1005
11DDE9
  0
LINE
  5
11DDEA
  8
OBJECT
 10
8172.9999999999854
 20
-560.5000000000008
 30
0.0
 11
8172.99999999998
 21
-645.74491827928705
 31
0.0
1001
ACDBBLOCKREPETAG
1070
     1
1071
      116
1005
11DDEA
  0
LINE
  5
11DDEB
  8
OBJECT
 10
8172.9999999999854
 20
-560.5000000000008
 30
0.0
 11
8159.9999999999873
 21
-560.5000000000008
 31
0.0
1001
ACDBBLOCKREPETAG
1070
     1
1071
      117
1005
11DDEB
  0
LINE
  5
11DDEC
  8
OBJECT
 10
8168.6563168254688
 20
-674.0000000000008
 30
0.0
 11
8212.9999999999836
 21
-674.0000000000008
 31
0.0
1001
ACDBBLOCKREPETAG
1070
     1
1071
      118
1005
11DDEC
  0
LINE
  5
11DDED
  8
OBJECT
 10
8176.9999999999873
 20
-556.0000000000008
 30
0.0
 11
8172.9999999999854
 21
-560.5000000000008
 31
0.0
1001
ACDBBLOCKREPETAG
1070
     1
1071
      119
1005
11DDED
  0
LINE
  5
11DDEE
  8
OBJECT
 10
8159.9999999999873
 20
-560.5000000000008
 30
0.0
 11
8159.9999999999873
 21
-645.74491827928784
 31
0.0
1001
ACDBBLOCKREPETAG
1070
     1
1071
      120
1005
11DDEE
  0
ARC
  5
11DDEF
  8
OBJECT
 10
8091.9999999999864
 20
-637.27386365609345
 30
0.0
 40
85.0
 50
308.59099323720869
 51
334.40086127811207
1001
ACDBBLOCKREPETAG
1070
     1
1071
      121
1005
11DDEF
  0
ARC
  5
11DDF0
  8
OBJECT
 10
8162.7999999999838
 20
-655.00000000000068
 30
0.0
 40
85.0
 50
91.887731891831123
 51
160.07406787456929
1001
ACDBBLOCKREPETAG
1070
     1
1071
      122
1005
11DDF0
  0
LINE
  5
11DDF1
  8
OBJECT
 10
8085.9999999999873
 20
-750.81075719270905
 30
0.0
 11
8145.0193225436024
 21
-703.71143914629454
 31
0.0
1001
ACDBBLOCKREPETAG
1070
     1
1071
      123
1005
11DDF1
  0
LINE
  5
11DDF2
  8
OBJECT
 10
8172.99999999998
 20
-645.74491827928705
 30
0.0
 11
8159.9999999999873
 21
-645.74491827928784
 31
0.0
1001
ACDBBLOCKREPETAG
1070
     1
1071
      124
1005
11DDF2
  0
LINE
  5
11DDF3
  8
OBJECT
 10
8176.9999999999873
 20
-653.15756805667843
 30
0.0
 11
8172.99999999998
 21
-645.74491827928705
 31
0.0
1001
ACDBBLOCKREPETAG
1070
     1
1071
      125
1005
11DDF3
  0
LINE
  5
11DDF4
  8
OBJECT
 10
8080.0000000000173
 20
-634.0
 30
0.0
 11
8082.8886121596206
 21
-626.03156729425325
 31
0.0
1001
ACDBBLOCKREPETAG
1070
     1
1071
      126
1005
11DDF4
  0
LINE
  5
11DDF5
  8
OBJECT
 10
8080.0000000000173
 20
-634.0
 30
0.0
 11
8085.9999999999873
 21
-653.3502637757274
 31
0.0
1001
ACDBBLOCKREPETAG
1070
     1
1071
      127
1005
11DDF5
  0
LINE
  5
11DDF6
  8
HIDDEN
 10
8167.9999999999864
 20
-570.5000000000008
 30
0.0
 11
8167.9999999999864
 21
-659.50000000000068
 31
0.0
1001
ACDBBLOCKREPETAG
1070
     1
1071
      129
1005
11DDF6
  0
LINE
  5
11DDF7
  8
OBJECT
 10
5923.0
 20
-571.0
 30
0.0
 11
5923.0
 21
-550.0
 31
0.0
1001
ACDBBLOCKREPETAG
1070
     1
1071
       38
1005
11DDF7
  0
LINE
  5
11DDF8
  8
OBJECT
 10
5923.0
 20
-550.0
 30
0.0
 11
6077.0
 21
-550.0
 31
0.0
1001
ACDBBLOCKREPETAG
1070
     1
1071
       39
1005
11DDF8
  0
LINE
  5
11DDF9
  8
HIDDEN
 10
5943.0
 20
-620.0
 30
0.0
 11
6057.0
 21
-620.0
 31
0.0
1001
ACDBBLOCKREPETAG
1070
     1
1071
       40
1005
11DDF9
  0
LINE
  5
11DDFA
  8
OBJECT
 10
6077.0
 20
-550.0
 30
0.0
 11
6077.0
 21
-571.0
 31
0.0
1001
ACDBBLOCKREPETAG
1070
     1
1071
       41
1005
11DDFA
  0
LINE
  5
11DDFB
  8
OBJECT
 10
6077.0
 20
-571.0
 30
0.0
 11
5923.0
 21
-571.0
 31
0.0
1001
ACDBBLOCKREPETAG
1070
     1
1071
       42
1005
11DDFB
  0
LINE
  5
11DDFC
  8
CENTER
 10
6000.0
 20
-535.0
 30
0.0
 11
6000.0
 21
-890.0
 31
0.0
1001
ACDBBLOCKREPETAG
1070
     1
1071
       43
1005
11DDFC
  0
LINE
  5
11DDFD
  8
OBJECT
 10
5928.0
 20
-571.0
 30
0.0
 11
5928.0
 21
-634.0
 31
0.0
1001
ACDBBLOCKREPETAG
1070
     1
1071
       44
1005
11DDFD
  0
LINE
  5
11DDFE
  8
OBJECT
 10
6072.0
 20
-634.0
 30
0.0
 11
6072.0
 21
-571.0
 31
0.0
1001
ACDBBLOCKREPETAG
1070
     1
1071
       45
1005
11DDFE
  0
LINE
  5
11DDFF
  8
OBJECT
 10
5920.0
 20
-878.0
 30
0.0
 11
6080.0
 21
-878.0
 31
0.0
1001
ACDBBLOCKREPETAG
1070
     1
1071
       46
1005
11DDFF
  0
LINE
  5
11DE00
  8
OBJECT
 10
6080.0
 20
-634.0
 30
0.0
 11
5920.0
 21
-634.0
 31
0.0
1001
ACDBBLOCKREPETAG
1070
     1
1071
       47
1005
11DE00
  0
LINE
  5
11DE01
  8
OBJECT
 10
5920.0
 20
-878.0
 30
0.0
 11
5920.0
 21
-890.0
 31
0.0
1001
ACDBBLOCKREPETAG
1070
     1
1071
       48
1005
11DE01
  0
LINE
  5
11DE02
  8
OBJECT
 10
5920.0
 20
-890.0
 30
0.0
 11
6080.0
 21
-890.0
 31
0.0
1001
ACDBBLOCKREPETAG
1070
     1
1071
       49
1005
11DE02
  0
LINE
  5
11DE03
  8
OBJECT
 10
6080.0
 20
-890.0
 30
0.0
 11
6080.0
 21
-878.0
 31
0.0
1001
ACDBBLOCKREPETAG
1070
     1
1071
       50
1005
11DE03
  0
LINE
  5
11DE04
  8
OBJECT
 10
6074.9999999998618
 20
-757.99999999985096
 30
0.0
 11
6075.0
 21
-878.0
 31
0.0
1001
ACDBBLOCKREPETAG
1070
     1
1071
       54
1005
11DE04
  0
LINE
  5
11DE05
  8
OBJECT
 10
6074.9999908029858
 20
-757.99998602702181
 30
0.0
 11
6080.0
 21
-757.99998602702181
 31
0.0
1001
ACDBBLOCKREPETAG
1070
     1
1071
       55
1005
11DE05
  0
LINE
  5
11DE06
  8
OBJECT
 10
5925.0000000001392
 20
-757.99999999985096
 30
0.0
 11
5925.0
 21
-878.0
 31
0.0
1001
ACDBBLOCKREPETAG
1070
     1
1071
       56
1005
11DE06
  0
LINE
  5
11DE07
  8
OBJECT
 10
5925.0000091970142
 20
-757.99998602702181
 30
0.0
 11
5920.0
 21
-757.99998602702181
 31
0.0
1001
ACDBBLOCKREPETAG
1070
     1
1071
       57
1005
11DE07
  0
ARC
  5
11DE08
  8
OBJECT
 10
6200.6872746716735
 20
-749.40809941010752
 30
0.0
 40
170.6350503965856
 50
137.44134459184301
 51
149.91949581337221
1001
ACDBBLOCKREPETAG
1070
     1
1071
       58
1005
11DE08
  0
ARC
  5
11DE09
  8
OBJECT
 10
6200.6872746716735
 20
-642.59190058989225
 30
0.0
 40
170.6350503965856
 50
210.08050418662771
 51
222.55865540815699
1001
ACDBBLOCKREPETAG
1070
     1
1071
       59
1005
11DE09
  0
ARC
  5
11DE0A
  8
OBJECT
 10
5799.3127253283274
 20
-749.40809941010752
 30
0.0
 40
170.6350503965856
 50
30.080504186787142
 51
42.558655408382641
1001
ACDBBLOCKREPETAG
1070
     1
1071
       60
1005
11DE0A
  0
ARC
  5
11DE0B
  8
OBJECT
 10
5799.3127253283274
 20
-642.59190058989225
 30
0.0
 40
170.6350503965856
 50
317.44134459161722
 51
329.9194958132129
1001
ACDBBLOCKREPETAG
1070
     1
1071
       61
1005
11DE0B
  0
POINT
  5
11DE0C
  8
DOTS
 10
6000.0
 20
-755.0
 30
0.0
1001
ACDBBLOCKREPETAG
1070
     1
1071
      185
1005
11DE0C
  0
LINE
  5
11DE0D
  8
OBJECT
 10
5969.4199755553018
 20
-243.89888500818171
 30
0.0
 11
5979.8564918232369
 21
-222.48688253356801
 31
0.0
1001
ACDBBLOCKREPETAG
1070
     1
1071
      305
1005
11DE0D
  0
LINE
  5
11DE0E
  8
OBJECT
 10
5965.2972169006089
 20
-240.71813901882729
 30
0.0
 11
5973.9071022665084
 21
-223.05373004430751
 31
0.0
1001
ACDBBLOCKREPETAG
1070
     1
1071
      306
1005
11DE0E
  0
LINE
  5
11DE0F
  8
OBJECT
 10
6024.1029330933034
 20
-243.80694712371681
 30
0.0
 11
6020.6596569999956
 21
-232.55462199999889
 31
0.0
1001
ACDBBLOCKREPETAG
1070
     1
1071
      307
1005
11DE0F
  0
ARC
  5
11DE10
  8
OBJECT
 10
5976.5796953073141
 20
-207.1289369828437
 30
0.0
 40
60.031113246032611
 50
314.07020130418567
 51
322.33936106089681
1001
ACDBBLOCKREPETAG
1070
     1
1071
      308
1005
11DE10
  0
LINE
  5
11DE11
  8
OBJECT
 10
5986.7927499013749
 20
-218.22553374208019
 30
0.0
 11
6020.6596569999956
 21
-232.5546219999969
 31
0.0
1001
ACDBBLOCKREPETAG
1070
     1
1071
      309
1005
11DE11
  0
ARC
  5
11DE12
  8
OBJECT
 10
5982.8961697618997
 20
-227.4351299990567
 30
0.0
 40
10.0
 50
67.066778292911366
 51
154.0147343702935
1001
ACDBBLOCKREPETAG
1070
     1
1071
      310
1005
11DE12
  0
ARC
  5
11DE13
  8
OBJECT
 10
5986.1488390381273
 20
-225.55386256729159
 30
0.0
 40
7.0
 50
67.066778292911366
 51
154.0147337749826
1001
ACDBBLOCKREPETAG
1070
     1
1071
      311
1005
11DE13
  0
CIRCLE
  5
11DE14
  8
OBJECT
 10
6000.0
 20
-199.99999999999909
 30
0.0
 40
53.5
1001
ACDBBLOCKREPETAG
1070
     1
1071
      340
1005
11DE14
  0
POINT
  5
11DE15
  8
DOTS
 10
6000.0
 20
-199.99999999999909
 30
0.0
 50
270.0
1001
ACDBBLOCKREPETAG
1070
     1
1071
      153
1005
11DE15
  0
ARC
  5
11DE16
  8
OBJECT
 10
6000.0
 20
-199.99999999999909
 30
0.0
 40
50.0
 50
298.81994300000417
 51
228.52376955965491
1001
ACDBBLOCKREPETAG
1070
     1
1071
       48
1005
11DE16
  0
LINE
  5
11DE17
  8
CENTER
 10
6080.0
 20
-199.99999999999909
 30
0.0
 11
5920.0
 21
-199.99999999999909
 31
0.0
1001
ACDBBLOCKREPETAG
1070
     1
1071
       49
1005
11DE17
  0
LINE
  5
11DE18
  8
CENTER
 10
6000.0
 20
-279.99999999999909
 30
0.0
 11
6000.0
 21
-104.9999999999991
 31
0.0
1001
ACDBBLOCKREPETAG
1070
     1
1071
       50
1005
11DE18
  0
CIRCLE
  5
11DE19
  8
OBJECT
 10
6000.0
 20
-199.99999999999909
 30
0.0
 40
70.0
1001
ACDBBLOCKREPETAG
1070
     1
1071
       51
1005
11DE19
  0
CIRCLE
  5
11DE1A
  8
OBJECT
 10
6000.0
 20
-199.99999999999909
 30
0.0
 40
77.0
1001
ACDBBLOCKREPETAG
1070
     1
1071
       52
1005
11DE1A
  0
ARC
  5
11DE1B
  8
OBJECT
 10
6000.0
 20
-199.99999999999909
 30
0.0
 40
80.0
 50
50.80503257388439
 51
129.1949674261156
1001
ACDBBLOCKREPETAG
1070
     1
1071
       53
1005
11DE1B
  0
LINE
  5
11DE1C
  8
OBJECT
 10
6045.6618002273253
 20
-137.99999999999909
 30
0.0
 11
6080.0
 21
-137.99999999999909
 31
0.0
1001
ACDBBLOCKREPETAG
1070
     1
1071
       54
1005
11DE1C
  0
LINE
  5
11DE1D
  8
OBJECT
 10
6062.0
 20
-261.99999999999909
 30
0.0
 11
6080.0
 21
-261.99999999999909
 31
0.0
1001
ACDBBLOCKREPETAG
1070
     1
1071
       55
1005
11DE1D
  0
LINE
  5
11DE1E
  8
OBJECT
 10
6062.0
 20
-261.99999999999909
 30
0.0
 11
6062.0
 21
-279.99999999999909
 31
0.0
1001
ACDBBLOCKREPETAG
1070
     1
1071
       57
1005
11DE1E
  0
LINE
  5
11DE1F
  8
OBJECT
 10
5938.0
 20
-261.99999999999909
 30
0.0
 11
5938.0
 21
-279.99999999999909
 31
0.0
1001
ACDBBLOCKREPETAG
1070
     1
1071
       58
1005
11DE1F
  0
LINE
  5
11DE20
  8
OBJECT
 10
5938.0
 20
-261.99999999999909
 30
0.0
 11
5920.0
 21
-261.99999999999909
 31
0.0
1001
ACDBBLOCKREPETAG
1070
     1
1071
       60
1005
11DE20
  0
LINE
  5
11DE21
  8
OBJECT
 10
5954.3381997726738
 20
-137.99999999999909
 30
0.0
 11
5920.0
 21
-137.99999999999909
 31
0.0
1001
ACDBBLOCKREPETAG
1070
     1
1071
       61
1005
11DE21
  0
LINE
  5
11DE22
  8
OBJECT
 10
5945.5527778486367
 20
-254.44722215136329
 30
0.0
 11
5938.0
 21
-261.99999999999909
 31
0.0
1001
ACDBBLOCKREPETAG
1070
     1
1071
       42
1005
11DE22
  0
LINE
  5
11DE23
  8
OBJECT
 10
6054.4472221513633
 20
-254.44722215136329
 30
0.0
 11
6062.0
 21
-261.99999999999909
 31
0.0
1001
ACDBBLOCKREPETAG
1070
     1
1071
       43
1005
11DE23
  0
LINE
  5
11DE24
  8
OBJECT
 10
5787.0000000000182
 20
-137.99999999999909
 30
0.0
 11
5780.0000000000182
 21
-137.99999999999909
 31
0.0
1001
ACDBBLOCKREPETAG
1070
     1
1071
      110
1005
11DE24
  0
LINE
  5
11DE25
  8
OBJECT
 10
5780.0000000000182
 20
-137.99999999999909
 30
0.0
 11
5780.0000000000182
 21
-261.99999999999909
 31
0.0
1001
ACDBBLOCKREPETAG
1070
     1
1071
      111
1005
11DE25
  0
LINE
  5
11DE26
  8
OBJECT
 10
5780.0000000000182
 20
-261.99999999999909
 30
0.0
 11
5787.0000000000182
 21
-261.99999999999909
 31
0.0
1001
ACDBBLOCKREPETAG
1070
     1
1071
      112
1005
11DE26
  0
LINE
  5
11DE27
  8
OBJECT
 10
5787.0000000000182
 20
-261.99999999999909
 30
0.0
 11
5787.0000000000182
 21
-137.99999999999909
 31
0.0
1001
ACDBBLOCKREPETAG
1070
     1
1071
      113
1005
11DE27
  0
LINE
  5
11DE28
  8
CENTER
 10
5765.0000000000182
 20
-199.99999999999909
 30
0.0
 11
5920.0
 21
-199.99999999999909
 31
0.0
1001
ACDBBLOCKREPETAG
1070
     1
1071
      114
1005
11DE28
  0
LINE
  5
11DE29
  8
OBJECT
 10
5840.0000250358171
 20
-245.0000000000027
 30
0.0
 11
5914.0000000000036
 21
-244.99999999999909
 31
0.0
1001
ACDBBLOCKREPETAG
1070
     1
1071
      115
1005
11DE29
  0
LINE
  5
11DE2A
  8
OBJECT
 10
5840.0000250358171
 20
-154.99999999999909
 30
0.0
 11
5914.0000000000036
 21
-154.99999999999909
 31
0.0
1001
ACDBBLOCKREPETAG
1070
     1
1071
      116
1005
11DE2A
  0
LINE
  5
11DE2B
  8
OBJECT
 10
5787.0000000000182
 20
-140.99999999999909
 30
0.0
 11
5823.0000000000182
 21
-140.99999999999909
 31
0.0
1001
ACDBBLOCKREPETAG
1070
     1
1071
      117
1005
11DE2B
  0
LINE
  5
11DE2C
  8
OBJECT
 10
5823.0000000000182
 20
-140.99999999999909
 30
0.0
 11
5823.0000000000182
 21
-258.99999999999909
 31
0.0
1001
ACDBBLOCKREPETAG
1070
     1
1071
      118
1005
11DE2C
  0
LINE
  5
11DE2D
  8
OBJECT
 10
5823.0000000000182
 20
-258.99999999999909
 30
0.0
 11
5787.0000000000182
 21
-258.99999999999909
 31
0.0
1001
ACDBBLOCKREPETAG
1070
     1
1071
      119
1005
11DE2D
  0
LINE
  5
11DE2E
  8
OBJECT
 10
5827.0000000000182
 20
-145.49999999999909
 30
0.0
 11
5840.0000000000182
 21
-145.49999999999909
 31
0.0
1001
ACDBBLOCKREPETAG
1070
     1
1071
      120
1005
11DE2E
  0
LINE
  5
11DE2F
  8
OBJECT
 10
5840.0000000000182
 20
-254.49999999999909
 30
0.0
 11
5827.0000000000182
 21
-254.49999999999909
 31
0.0
1001
ACDBBLOCKREPETAG
1070
     1
1071
      121
1005
11DE2F
  0
LINE
  5
11DE30
  8
OBJECT
 10
5827.0000000000182
 20
-254.49999999999909
 30
0.0
 11
5827.0000000000182
 21
-145.49999999999909
 31
0.0
1001
ACDBBLOCKREPETAG
1070
     1
1071
      122
1005
11DE30
  0
LINE
  5
11DE31
  8
OBJECT
 10
5823.0000000000182
 20
-140.99999999999909
 30
0.0
 11
5827.0000000000182
 21
-145.49999999999909
 31
0.0
1001
ACDBBLOCKREPETAG
1070
     1
1071
      123
1005
11DE31
  0
LINE
  5
11DE32
  8
OBJECT
 10
5823.0000000000182
 20
-258.99999999999909
 30
0.0
 11
5827.0000000000182
 21
-254.49999999999909
 31
0.0
1001
ACDBBLOCKREPETAG
1070
     1
1071
      124
1005
11DE32
  0
LINE
  5
11DE33
  8
OBJECT
 10
5917.0000000000036
 20
-137.99999999999909
 30
0.0
 11
5920.0000000000036
 21
-137.99999999999909
 31
0.0
1001
ACDBBLOCKREPETAG
1070
     1
1071
      125
1005
11DE33
  0
ARC
  5
11DE34
  8
OBJECT
 10
5917.0000000000036
 20
-140.99999999999909
 30
0.0
 40
3.0
 50
90.0
 51
180.0
1001
ACDBBLOCKREPETAG
1070
     1
1071
      126
1005
11DE34
  0
LINE
  5
11DE35
  8
OBJECT
 10
5920.0000000000036
 20
-261.99999999999909
 30
0.0
 11
5917.0000000000036
 21
-261.99999999999909
 31
0.0
1001
ACDBBLOCKREPETAG
1070
     1
1071
      127
1005
11DE35
  0
ARC
  5
11DE36
  8
OBJECT
 10
5917.0000000000036
 20
-258.99999999999909
 30
0.0
 40
3.0
 50
180.0
 51
270.0
1001
ACDBBLOCKREPETAG
1070
     1
1071
      128
1005
11DE36
  0
LINE
  5
11DE37
  8
OBJECT
 10
5914.0000000000036
 20
-258.99999999999909
 30
0.0
 11
5914.0000000000036
 21
-222.44994432063581
 31
0.0
1001
ACDBBLOCKREPETAG
1070
     1
1071
      129
1005
11DE37
  0
LINE
  5
11DE38
  8
OBJECT
 10
5914.0000000000036
 20
-177.55005567935859
 30
0.0
 11
5914.0000000000036
 21
-140.99999999999909
 31
0.0
1001
ACDBBLOCKREPETAG
1070
     1
1071
      130
1005
11DE38
  0
LINE
  5
11DE39
  8
HIDDEN
 10
5832.0000000000182
 20
-155.49999999999909
 30
0.0
 11
5832.0000000000182
 21
-244.49999999999909
 31
0.0
1001
ACDBBLOCKREPETAG
1070
     1
1071
      131
1005
11DE39
  0
LINE
  5
11DE3A
  8
OBJECT
 10
5840.0000250358171
 20
-254.4999509238105
 30
0.0
 11
5840.0000250358171
 21
-145.4999509238105
 31
0.0
1001
ACDBBLOCKREPETAG
1070
     1
1071
      133
1005
11DE3A
  0
ARC
  5
11DE3B
  8
OBJECT
 10
5875.0
 20
-199.99999999999909
 30
0.0
 40
45.000000000000547
 50
270.0
 51
90.0
1001
ACDBBLOCKREPETAG
1070
     1
1071
      134
1005
11DE3B
  0
LINE
  5
11DE3C
  8
CENTER
 10
6000.0
 20
-300.99999999999898
 30
0.0
 11
6000.0
 21
-279.99999999999909
 31
0.0
1001
ACDBBLOCKREPETAG
1070
     1
1071
        0
1005
11DE3C
  0
LINE
  5
11DE3D
  8
OBJECT
 10
6062.0
 20
-283.0
 30
0.0
 11
6062.0
 21
-279.99999999999909
 31
0.0
1001
ACDBBLOCKREPETAG
1070
     1
1071
        1
1005
11DE3D
  0
ARC
  5
11DE3E
  8
OBJECT
 10
6059.0
 20
-283.0
 30
0.0
 40
3.0
 50
270.0
 51
0.0
1001
ACDBBLOCKREPETAG
1070
     1
1071
        2
1005
11DE3E
  0
LINE
  5
11DE3F
  8
OBJECT
 10
5938.0
 20
-279.99999999999909
 30
0.0
 11
5938.0
 21
-282.99999999999818
 31
0.0
1001
ACDBBLOCKREPETAG
1070
     1
1071
        3
1005
11DE3F
  0
ARC
  5
11DE40
  8
OBJECT
 10
5941.0
 20
-282.99999999999818
 30
0.0
 40
3.0
 50
180.0
 51
270.0
1001
ACDBBLOCKREPETAG
1070
     1
1071
        4
1005
11DE40
  0
LINE
  5
11DE41
  8
OBJECT
 10
5941.0
 20
-285.99999999999818
 30
0.0
 11
6059.0
 21
-286.0
 31
0.0
1001
ACDBBLOCKREPETAG
1070
     1
1071
        5
1005
11DE41
  0
LINE
  5
11DE42
  8
OBJECT
 10
6212.9999999999864
 20
-137.99999999999909
 30
0.0
 11
6219.9999999999873
 21
-137.99999999999909
 31
0.0
1001
ACDBBLOCKREPETAG
1070
     1
1071
      110
1005
11DE42
  0
LINE
  5
11DE43
  8
OBJECT
 10
6219.9999999999873
 20
-137.99999999999909
 30
0.0
 11
6219.9999999999873
 21
-261.99999999999909
 31
0.0
1001
ACDBBLOCKREPETAG
1070
     1
1071
      111
1005
11DE43
  0
LINE
  5
11DE44
  8
OBJECT
 10
6219.9999999999873
 20
-261.99999999999909
 30
0.0
 11
6212.9999999999864
 21
-261.99999999999909
 31
0.0
1001
ACDBBLOCKREPETAG
1070
     1
1071
      112
1005
11DE44
  0
LINE
  5
11DE45
  8
OBJECT
 10
6212.9999999999864
 20
-261.99999999999909
 30
0.0
 11
6212.9999999999864
 21
-137.99999999999909
 31
0.0
1001
ACDBBLOCKREPETAG
1070
     1
1071
      113
1005
11DE45
  0
LINE
  5
11DE46
  8
CENTER
 10
6234.9999999999864
 20
-199.99999999999909
 30
0.0
 11
6080.0000000000036
 21
-199.99999999999909
 31
0.0
1001
ACDBBLOCKREPETAG
1070
     1
1071
      114
1005
11DE46
  0
LINE
  5
11DE47
  8
OBJECT
 10
6159.9999749641856
 20
-245.0000000000027
 30
0.0
 11
6086.0
 21
-244.99999999999909
 31
0.0
1001
ACDBBLOCKREPETAG
1070
     1
1071
      115
1005
11DE47
  0
LINE
  5
11DE48
  8
OBJECT
 10
6159.9999749641856
 20
-154.99999999999909
 30
0.0
 11
6086.0
 21
-154.99999999999909
 31
0.0
1001
ACDBBLOCKREPETAG
1070
     1
1071
      116
1005
11DE48
  0
LINE
  5
11DE49
  8
OBJECT
 10
6212.9999999999864
 20
-140.99999999999909
 30
0.0
 11
6176.9999999999873
 21
-140.99999999999909
 31
0.0
1001
ACDBBLOCKREPETAG
1070
     1
1071
      117
1005
11DE49
  0
LINE
  5
11DE4A
  8
OBJECT
 10
6176.9999999999873
 20
-140.99999999999909
 30
0.0
 11
6176.9999999999873
 21
-258.99999999999909
 31
0.0
1001
ACDBBLOCKREPETAG
1070
     1
1071
      118
1005
11DE4A
  0
LINE
  5
11DE4B
  8
OBJECT
 10
6176.9999999999873
 20
-258.99999999999909
 30
0.0
 11
6212.9999999999864
 21
-258.99999999999909
 31
0.0
1001
ACDBBLOCKREPETAG
1070
     1
1071
      119
1005
11DE4B
  0
LINE
  5
11DE4C
  8
OBJECT
 10
6172.9999999999864
 20
-145.49999999999909
 30
0.0
 11
6159.9999999999864
 21
-145.49999999999909
 31
0.0
1001
ACDBBLOCKREPETAG
1070
     1
1071
      120
1005
11DE4C
  0
LINE
  5
11DE4D
  8
OBJECT
 10
6159.9999999999864
 20
-254.49999999999909
 30
0.0
 11
6172.9999999999864
 21
-254.49999999999909
 31
0.0
1001
ACDBBLOCKREPETAG
1070
     1
1071
      121
1005
11DE4D
  0
LINE
  5
11DE4E
  8
OBJECT
 10
6172.9999999999864
 20
-254.49999999999909
 30
0.0
 11
6172.9999999999864
 21
-145.49999999999909
 31
0.0
1001
ACDBBLOCKREPETAG
1070
     1
1071
      122
1005
11DE4E
  0
LINE
  5
11DE4F
  8
OBJECT
 10
6176.9999999999873
 20
-140.99999999999909
 30
0.0
 11
6172.9999999999864
 21
-145.49999999999909
 31
0.0
1001
ACDBBLOCKREPETAG
1070
     1
1071
      123
1005
11DE4F
  0
LINE
  5
11DE50
  8
OBJECT
 10
6176.9999999999873
 20
-258.99999999999909
 30
0.0
 11
6172.9999999999864
 21
-254.49999999999909
 31
0.0
1001
ACDBBLOCKREPETAG
1070
     1
1071
      124
1005
11DE50
  0
LINE
  5
11DE51
  8
OBJECT
 10
6083.0
 20
-137.99999999999909
 30
0.0
 11
6080.0
 21
-137.99999999999909
 31
0.0
1001
ACDBBLOCKREPETAG
1070
     1
1071
      125
1005
11DE51
  0
ARC
  5
11DE52
  8
OBJECT
 10
6083.0
 20
-140.99999999999909
 30
0.0
 40
3.0
 50
0.0
 51
90.0
1001
ACDBBLOCKREPETAG
1070
     1
1071
      126
1005
11DE52
  0
LINE
  5
11DE53
  8
OBJECT
 10
6080.0
 20
-261.99999999999909
 30
0.0
 11
6083.0
 21
-261.99999999999909
 31
0.0
1001
ACDBBLOCKREPETAG
1070
     1
1071
      127
1005
11DE53
  0
ARC
  5
11DE54
  8
OBJECT
 10
6083.0
 20
-258.99999999999909
 30
0.0
 40
3.0
 50
270.0
 51
0.0
1001
ACDBBLOCKREPETAG
1070
     1
1071
      128
1005
11DE54
  0
LINE
  5
11DE55
  8
OBJECT
 10
6086.0
 20
-258.99999999999909
 30
0.0
 11
6086.0
 21
-222.44994432063581
 31
0.0
1001
ACDBBLOCKREPETAG
1070
     1
1071
      129
1005
11DE55
  0
LINE
  5
11DE56
  8
OBJECT
 10
6086.0
 20
-177.55005567935859
 30
0.0
 11
6086.0
 21
-140.99999999999909
 31
0.0
1001
ACDBBLOCKREPETAG
1070
     1
1071
      130
1005
11DE56
  0
LINE
  5
11DE57
  8
HIDDEN
 10
6167.9999999999864
 20
-155.49999999999909
 30
0.0
 11
6167.9999999999864
 21
-244.49999999999909
 31
0.0
1001
ACDBBLOCKREPETAG
1070
     1
1071
      131
1005
11DE57
  0
LINE
  5
11DE58
  8
OBJECT
 10
6159.9999749641856
 20
-254.4999509238105
 30
0.0
 11
6159.9999749641856
 21
-145.4999509238105
 31
0.0
1001
ACDBBLOCKREPETAG
1070
     1
1071
      133
1005
11DE58
  0
ARC
  5
11DE59
  8
OBJECT
 10
6125.0000000000027
 20
-199.99999999999909
 30
0.0
 40
45.000000000000547
 50
90.0
 51
270.0
1001
ACDBBLOCKREPETAG
1070
     1
1071
      134
1005
11DE59
  0
LINE
  5
11DE5A
  8
OBJECT
 10
5787.0000000000146
 20
-553.0
 30
0.0
 11
5780.0000000000146
 21
-553.0
 31
0.0
1001
ACDBBLOCKREPETAG
1070
     1
1071
      106
1005
11DE5A
  0
LINE
  5
11DE5B
  8
OBJECT
 10
5780.0000000000146
 20
-553.0
 30
0.0
 11
5780.0000000000146
 21
-677.0
 31
0.0
1001
ACDBBLOCKREPETAG
1070
     1
1071
      107
1005
11DE5B
  0
LINE
  5
11DE5C
  8
OBJECT
 10
5914.0000000000146
 20
-653.3502637757274
 30
0.0
 11
5914.0000000000146
 21
-755.00000000000102
 31
0.0
1001
ACDBBLOCKREPETAG
1070
     1
1071
      108
1005
11DE5C
  0
LINE
  5
11DE5D
  8
OBJECT
 10
5780.0000000000146
 20
-677.0
 30
0.0
 11
5787.0000000000146
 21
-677.0
 31
0.0
1001
ACDBBLOCKREPETAG
1070
     1
1071
      109
1005
11DE5D
  0
LINE
  5
11DE5E
  8
OBJECT
 10
5787.0000000000146
 20
-677.0
 30
0.0
 11
5787.0000000000146
 21
-553.0
 31
0.0
1001
ACDBBLOCKREPETAG
1070
     1
1071
      110
1005
11DE5E
  0
LINE
  5
11DE5F
  8
CENTER
 10
5855.0000000000136
 20
-615.0000000000008
 30
0.0
 11
5765.0000000000136
 21
-615.0
 31
0.0
1001
ACDBBLOCKREPETAG
1070
     1
1071
      111
1005
11DE5F
  0
LINE
  5
11DE60
  8
OBJECT
 10
5920.0000000000182
 20
-758.0
 30
0.0
 11
5917.0000000000136
 21
-758.0000000000008
 31
0.0
1001
ACDBBLOCKREPETAG
1070
     1
1071
      112
1005
11DE60
  0
ARC
  5
11DE61
  8
OBJECT
 10
5917.0000000000136
 20
-755.00000000000102
 30
0.0
 40
3.0
 50
180.0
 51
270.0
1001
ACDBBLOCKREPETAG
1070
     1
1071
      113
1005
11DE61
  0
LINE
  5
11DE62
  8
OBJECT
 10
5787.0000000000146
 20
-556.0
 30
0.0
 11
5823.0000000000136
 21
-556.0000000000008
 31
0.0
1001
ACDBBLOCKREPETAG
1070
     1
1071
      114
1005
11DE62
  0
LINE
  5
11DE63
  8
OBJECT
 10
5823.0000000000136
 20
-556.0000000000008
 30
0.0
 11
5823.0000000000136
 21
-653.15756805667843
 31
0.0
1001
ACDBBLOCKREPETAG
1070
     1
1071
      115
1005
11DE63
  0
LINE
  5
11DE64
  8
OBJECT
 10
5827.0000000000146
 20
-560.5000000000008
 30
0.0
 11
5827.0000000000182
 21
-645.74491827928705
 31
0.0
1001
ACDBBLOCKREPETAG
1070
     1
1071
      116
1005
11DE64
  0
LINE
  5
11DE65
  8
OBJECT
 10
5827.0000000000146
 20
-560.5000000000008
 30
0.0
 11
5840.0000000000136
 21
-560.5000000000008
 31
0.0
1001
ACDBBLOCKREPETAG
1070
     1
1071
      117
1005
11DE65
  0
LINE
  5
11DE66
  8
OBJECT
 10
5831.3436831745312
 20
-674.0000000000008
 30
0.0
 11
5787.0000000000146
 21
-674.0
 31
0.0
1001
ACDBBLOCKREPETAG
1070
     1
1071
      118
1005
11DE66
  0
LINE
  5
11DE67
  8
OBJECT
 10
5823.0000000000136
 20
-556.0000000000008
 30
0.0
 11
5827.0000000000146
 21
-560.5000000000008
 31
0.0
1001
ACDBBLOCKREPETAG
1070
     1
1071
      119
1005
11DE67
  0
LINE
  5
11DE68
  8
OBJECT
 10
5840.0000000000136
 20
-560.5000000000008
 30
0.0
 11
5840.0000000000136
 21
-645.74491827928784
 31
0.0
1001
ACDBBLOCKREPETAG
1070
     1
1071
      120
1005
11DE68
  0
ARC
  5
11DE69
  8
OBJECT
 10
5908.0000000000146
 20
-637.27386365609345
 30
0.0
 40
85.0
 50
205.5991387218879
 51
231.40900676279119
1001
ACDBBLOCKREPETAG
1070
     1
1071
      121
1005
11DE69
  0
ARC
  5
11DE6A
  8
OBJECT
 10
5837.2000000000171
 20
-655.00000000000068
 30
0.0
 40
85.0
 50
19.925932125430649
 51
88.112268108168848
1001
ACDBBLOCKREPETAG
1070
     1
1071
      122
1005
11DE6A
  0
LINE
  5
11DE6B
  8
OBJECT
 10
5914.0000000000146
 20
-750.81075719270905
 30
0.0
 11
5854.9806774563986
 21
-703.71143914629454
 31
0.0
1001
ACDBBLOCKREPETAG
1070
     1
1071
      123
1005
11DE6B
  0
LINE
  5
11DE6C
  8
OBJECT
 10
5827.0000000000182
 20
-645.74491827928705
 30
0.0
 11
5840.0000000000136
 21
-645.74491827928784
 31
0.0
1001
ACDBBLOCKREPETAG
1070
     1
1071
      124
1005
11DE6C
  0
LINE
  5
11DE6D
  8
OBJECT
 10
5823.0000000000136
 20
-653.15756805667843
 30
0.0
 11
5827.0000000000182
 21
-645.74491827928705
 31
0.0
1001
ACDBBLOCKREPETAG
1070
     1
1071
      125
1005
11DE6D
  0
LINE
  5
11DE6E
  8
OBJECT
 10
5919.9999999999818
 20
-634.0
 30
0.0
 11
5917.1113878403776
 21
-626.03156729425325
 31
0.0
1001
ACDBBLOCKREPETAG
1070
     1
1071
      126
1005
11DE6E
  0
LINE
  5
11DE6F
  8
OBJECT
 10
5919.9999999999818
 20
-634.0
 30
0.0
 11
5914.0000000000146
 21
-653.3502637757274
 31
0.0
1001
ACDBBLOCKREPETAG
1070
     1
1071
      127
1005
11DE6F
  0
LINE
  5
11DE70
  8
HIDDEN
 10
5832.0000000000136
 20
-570.5000000000008
 30
0.0
 11
5832.0000000000136
 21
-659.50000000000068
 31
0.0
1001
ACDBBLOCKREPETAG
1070
     1
1071
      129
1005
11DE70
  0
CIRCLE
  5
11DE71
  8
OBJECT
 10
6000.0
 20
-696.0
 30
0.0
 40
62.0
1001
ACDBBLOCKREPETAG
1070
     1
1071
        0
1005
11DE71
  0
LINE
  5
11DE72
  8
OBJECT
 10
6212.9999999999864
 20
-553.0000000000008
 30
0.0
 11
6219.9999999999873
 21
-553.0000000000008
 31
0.0
1001
ACDBBLOCKREPETAG
1070
     1
1071
      106
1005
11DE72
  0
LINE
  5
11DE73
  8
OBJECT
 10
6219.9999999999873
 20
-553.0000000000008
 30
0.0
 11
6219.9999999999873
 21
-677.0000000000008
 31
0.0
1001
ACDBBLOCKREPETAG
1070
     1
1071
      107
1005
11DE73
  0
LINE
  5
11DE74
  8
OBJECT
 10
6085.9999999999864
 20
-653.3502637757274
 30
0.0
 11
6085.9999999999864
 21
-755.00000000000102
 31
0.0
1001
ACDBBLOCKREPETAG
1070
     1
1071
      108
1005
11DE74
  0
LINE
  5
11DE75
  8
OBJECT
 10
6219.9999999999873
 20
-677.0000000000008
 30
0.0
 11
6212.9999999999864
 21
-677.0000000000008
 31
0.0
1001
ACDBBLOCKREPETAG
1070
     1
1071
      109
1005
11DE75
  0
LINE
  5
11DE76
  8
OBJECT
 10
6212.9999999999864
 20
-677.0000000000008
 30
0.0
 11
6212.9999999999864
 21
-553.0000000000008
 31
0.0
1001
ACDBBLOCKREPETAG
1070
     1
1071
      110
1005
11DE76
  0
LINE
  5
11DE77
  8
CENTER
 10
6144.9999999999873
 20
-615.0000000000008
 30
0.0
 11
6234.9999999999864
 21
-615.0000000000008
 31
0.0
1001
ACDBBLOCKREPETAG
1070
     1
1071
      111
1005
11DE77
  0
LINE
  5
11DE78
  8
OBJECT
 10
6079.9999999999818
 20
-758.0
 30
0.0
 11
6082.9999999999864
 21
-758.0000000000008
 31
0.0
1001
ACDBBLOCKREPETAG
1070
     1
1071
      112
1005
11DE78
  0
ARC
  5
11DE79
  8
OBJECT
 10
6082.9999999999864
 20
-755.00000000000102
 30
0.0
 40
3.0
 50
270.0
 51
0.0
1001
ACDBBLOCKREPETAG
1070
     1
1071
      113
1005
11DE79
  0
LINE
  5
11DE7A
  8
OBJECT
 10
6212.9999999999864
 20
-556.0000000000008
 30
0.0
 11
6176.9999999999873
 21
-556.0000000000008
 31
0.0
1001
ACDBBLOCKREPETAG
1070
     1
1071
      114
1005
11DE7A
  0
LINE
  5
11DE7B
  8
OBJECT
 10
6176.9999999999873
 20
-556.0000000000008
 30
0.0
 11
6176.9999999999873
 21
-653.15756805667843
 31
0.0
1001
ACDBBLOCKREPETAG
1070
     1
1071
      115
1005
11DE7B
  0
LINE
  5
11DE7C
  8
OBJECT
 10
6172.9999999999864
 20
-560.5000000000008
 30
0.0
 11
6172.9999999999818
 21
-645.74491827928705
 31
0.0
1001
ACDBBLOCKREPETAG
1070
     1
1071
      116
1005
11DE7C
  0
LINE
  5
11DE7D
  8
OBJECT
 10
6172.9999999999864
 20
-560.5000000000008
 30
0.0
 11
6159.9999999999864
 21
-560.5000000000008
 31
0.0
1001
ACDBBLOCKREPETAG
1070
     1
1071
      117
1005
11DE7D
  0
LINE
  5
11DE7E
  8
OBJECT
 10
6168.6563168254688
 20
-674.0000000000008
 30
0.0
 11
6212.9999999999864
 21
-674.0000000000008
 31
0.0
1001
ACDBBLOCKREPETAG
1070
     1
1071
      118
1005
11DE7E
  0
LINE
  5
11DE7F
  8
OBJECT
 10
6176.9999999999873
 20
-556.0000000000008
 30
0.0
 11
6172.9999999999864
 21
-560.5000000000008
 31
0.0
1001
ACDBBLOCKREPETAG
1070
     1
1071
      119
1005
11DE7F
  0
LINE
  5
11DE80
  8
OBJECT
 10
6159.9999999999864
 20
-560.5000000000008
 30
0.0
 11
6159.9999999999864
 21
-645.74491827928784
 31
0.0
1001
ACDBBLOCKREPETAG
1070
     1
1071
      120
1005
11DE80
  0
ARC
  5
11DE81
  8
OBJECT
 10
6091.9999999999873
 20
-637.27386365609345
 30
0.0
 40
85.0
 50
308.59099323720869
 51
334.40086127811207
1001
ACDBBLOCKREPETAG
1070
     1
1071
      121
1005
11DE81
  0
ARC
  5
11DE82
  8
OBJECT
 10
6162.7999999999856
 20
-655.00000000000068
 30
0.0
 40
85.0
 50
91.887731891831123
 51
160.07406787456929
1001
ACDBBLOCKREPETAG
1070
     1
1071
      122
1005
11DE82
  0
LINE
  5
11DE83
  8
OBJECT
 10
6085.9999999999864
 20
-750.81075719270905
 30
0.0
 11
6145.0193225436024
 21
-703.71143914629454
 31
0.0
1001
ACDBBLOCKREPETAG
1070
     1
1071
      123
1005
11DE83
  0
LINE
  5
11DE84
  8
OBJECT
 10
6172.9999999999818
 20
-645.74491827928705
 30
0.0
 11
6159.9999999999864
 21
-645.74491827928784
 31
0.0
1001
ACDBBLOCKREPETAG
1070
     1
1071
      124
1005
11DE84
  0
LINE
  5
11DE85
  8
OBJECT
 10
6176.9999999999873
 20
-653.15756805667843
 30
0.0
 11
6172.9999999999818
 21
-645.74491827928705
 31
0.0
1001
ACDBBLOCKREPETAG
1070
     1
1071
      125
1005
11DE85
  0
LINE
  5
11DE86
  8
OBJECT
 10
6080.0000000000182
 20
-634.0
 30
0.0
 11
6082.8886121596233
 21
-626.03156729425325
 31
0.0
1001
ACDBBLOCKREPETAG
1070
     1
1071
      126
1005
11DE86
  0
LINE
  5
11DE87
  8
OBJECT
 10
6080.0000000000182
 20
-634.0
 30
0.0
 11
6085.9999999999864
 21
-653.3502637757274
 31
0.0
1001
ACDBBLOCKREPETAG
1070
     1
1071
      127
1005
11DE87
  0
LINE
  5
11DE88
  8
HIDDEN
 10
6167.9999999999864
 20
-570.5000000000008
 30
0.0
 11
6167.9999999999864
 21
-659.50000000000068
 31
0.0
1001
ACDBBLOCKREPETAG
1070
     1
1071
      129
1005
11DE88
  0
LINE
  5
11DE89
  8
OBJECT
 10
3923.0
 20
-571.0
 30
0.0
 11
3923.0
 21
-550.0
 31
0.0
1001
ACDBBLOCKREPETAG
1070
     1
1071
       38
1005
11DE89
  0
LINE
  5
11DE8A
  8
OBJECT
 10
3923.0
 20
-550.0
 30
0.0
 11
4077.0
 21
-550.0
 31
0.0
1001
ACDBBLOCKREPETAG
1070
     1
1071
       39
1005
11DE8A
  0
LINE
  5
11DE8B
  8
HIDDEN
 10
3943.0
 20
-620.0
 30
0.0
 11
4057.0
 21
-620.0
 31
0.0
1001
ACDBBLOCKREPETAG
1070
     1
1071
       40
1005
11DE8B
  0
LINE
  5
11DE8C
  8
OBJECT
 10
4077.0
 20
-550.0
 30
0.0
 11
4077.0
 21
-571.0
 31
0.0
1001
ACDBBLOCKREPETAG
1070
     1
1071
       41
1005
11DE8C
  0
LINE
  5
11DE8D
  8
OBJECT
 10
4077.0
 20
-571.0
 30
0.0
 11
3923.0
 21
-571.0
 31
0.0
1001
ACDBBLOCKREPETAG
1070
     1
1071
       42
1005
11DE8D
  0
LINE
  5
11DE8E
  8
CENTER
 10
4000.0
 20
-535.0
 30
0.0
 11
4000.0
 21
-890.0
 31
0.0
1001
ACDBBLOCKREPETAG
1070
     1
1071
       43
1005
11DE8E
  0
LINE
  5
11DE8F
  8
OBJECT
 10
3928.0
 20
-571.0
 30
0.0
 11
3928.0
 21
-634.0
 31
0.0
1001
ACDBBLOCKREPETAG
1070
     1
1071
       44
1005
11DE8F
  0
LINE
  5
11DE90
  8
OBJECT
 10
4072.0
 20
-634.0
 30
0.0
 11
4072.0
 21
-571.0
 31
0.0
1001
ACDBBLOCKREPETAG
1070
     1
1071
       45
1005
11DE90
  0
LINE
  5
11DE91
  8
OBJECT
 10
3920.0
 20
-878.0
 30
0.0
 11
4080.0
 21
-878.0
 31
0.0
1001
ACDBBLOCKREPETAG
1070
     1
1071
       46
1005
11DE91
  0
LINE
  5
11DE92
  8
OBJECT
 10
4080.0
 20
-634.0
 30
0.0
 11
3920.0
 21
-634.0
 31
0.0
1001
ACDBBLOCKREPETAG
1070
     1
1071
       47
1005
11DE92
  0
LINE
  5
11DE93
  8
OBJECT
 10
3920.0
 20
-878.0
 30
0.0
 11
3920.0
 21
-890.0
 31
0.0
1001
ACDBBLOCKREPETAG
1070
     1
1071
       48
1005
11DE93
  0
LINE
  5
11DE94
  8
OBJECT
 10
3920.0
 20
-890.0
 30
0.0
 11
4080.0
 21
-890.0
 31
0.0
1001
ACDBBLOCKREPETAG
1070
     1
1071
       49
1005
11DE94
  0
LINE
  5
11DE95
  8
OBJECT
 10
4080.0
 20
-890.0
 30
0.0
 11
4080.0
 21
-878.0
 31
0.0
1001
ACDBBLOCKREPETAG
1070
     1
1071
       50
1005
11DE95
  0
LINE
  5
11DE96
  8
OBJECT
 10
4074.9999999998631
 20
-757.99999999985096
 30
0.0
 11
4075.0
 21
-878.0
 31
0.0
1001
ACDBBLOCKREPETAG
1070
     1
1071
       54
1005
11DE96
  0
LINE
  5
11DE97
  8
OBJECT
 10
4074.9999908029849
 20
-757.99998602702181
 30
0.0
 11
4080.0
 21
-757.99998602702181
 31
0.0
1001
ACDBBLOCKREPETAG
1070
     1
1071
       55
1005
11DE97
  0
LINE
  5
11DE98
  8
OBJECT
 10
3925.0000000001392
 20
-757.99999999985096
 30
0.0
 11
3925.0
 21
-878.0
 31
0.0
1001
ACDBBLOCKREPETAG
1070
     1
1071
       56
1005
11DE98
  0
LINE
  5
11DE99
  8
OBJECT
 10
3925.0000091970151
 20
-757.99998602702181
 30
0.0
 11
3920.0
 21
-757.99998602702181
 31
0.0
1001
ACDBBLOCKREPETAG
1070
     1
1071
       57
1005
11DE99
  0
ARC
  5
11DE9A
  8
OBJECT
 10
4200.6872746716726
 20
-749.40809941010752
 30
0.0
 40
170.6350503965856
 50
137.44134459184301
 51
149.91949581337221
1001
ACDBBLOCKREPETAG
1070
     1
1071
       58
1005
11DE9A
  0
ARC
  5
11DE9B
  8
OBJECT
 10
4200.6872746716726
 20
-642.59190058989225
 30
0.0
 40
170.6350503965856
 50
210.08050418662771
 51
222.55865540815699
1001
ACDBBLOCKREPETAG
1070
     1
1071
       59
1005
11DE9B
  0
ARC
  5
11DE9C
  8
OBJECT
 10
3799.3127253283278
 20
-749.40809941010752
 30
0.0
 40
170.6350503965856
 50
30.080504186774089
 51
42.558655408382641
1001
ACDBBLOCKREPETAG
1070
     1
1071
       60
1005
11DE9C
  0
ARC
  5
11DE9D
  8
OBJECT
 10
3799.3127253283278
 20
-642.59190058989225
 30
0.0
 40
170.6350503965856
 50
317.44134459161722
 51
329.91949581322592
1001
ACDBBLOCKREPETAG
1070
     1
1071
       61
1005
11DE9D
  0
POINT
  5
11DE9E
  8
DOTS
 10
4000.0
 20
-755.0
 30
0.0
1001
ACDBBLOCKREPETAG
1070
     1
1071
      185
1005
11DE9E
  0
LINE
  5
11DE9F
  8
OBJECT
 10
3969.4199755553018
 20
-243.89888500818171
 30
0.0
 11
3979.8564918232369
 21
-222.48688253356801
 31
0.0
1001
ACDBBLOCKREPETAG
1070
     1
1071
      305
1005
11DE9F
  0
LINE
  5
11DEA0
  8
OBJECT
 10
3965.2972169006089
 20
-240.71813901882729
 30
0.0
 11
3973.9071022665089
 21
-223.05373004430751
 31
0.0
1001
ACDBBLOCKREPETAG
1070
     1
1071
      306
1005
11DEA0
  0
LINE
  5
11DEA1
  8
OBJECT
 10
4024.102933093302
 20
-243.80694712371681
 30
0.0
 11
4020.6596569999951
 21
-232.55462199999889
 31
0.0
1001
ACDBBLOCKREPETAG
1070
     1
1071
      307
1005
11DEA1
  0
ARC
  5
11DEA2
  8
OBJECT
 10
3976.579695307315
 20
-207.1289369828437
 30
0.0
 40
60.031113246032611
 50
314.07020130418567
 51
322.33936106091278
1001
ACDBBLOCKREPETAG
1070
     1
1071
      308
1005
11DEA2
  0
LINE
  5
11DEA3
  8
OBJECT
 10
3986.7927499013749
 20
-218.22553374208019
 30
0.0
 11
4020.6596569999951
 21
-232.5546219999969
 31
0.0
1001
ACDBBLOCKREPETAG
1070
     1
1071
      309
1005
11DEA3
  0
ARC
  5
11DEA4
  8
OBJECT
 10
3982.896169761902
 20
-227.4351299990567
 30
0.0
 40
10.0
 50
67.066778292911366
 51
154.0147343702935
1001
ACDBBLOCKREPETAG
1070
     1
1071
      310
1005
11DEA4
  0
ARC
  5
11DEA5
  8
OBJECT
 10
3986.1488390381278
 20
-225.55386256729159
 30
0.0
 40
7.0
 50
67.066778292911366
 51
154.01473377497121
1001
ACDBBLOCKREPETAG
1070
     1
1071
      311
1005
11DEA5
  0
CIRCLE
  5
11DEA6
  8
OBJECT
 10
4000.0
 20
-199.99999999999909
 30
0.0
 40
53.5
1001
ACDBBLOCKREPETAG
1070
     1
1071
      340
1005
11DEA6
  0
POINT
  5
11DEA7
  8
DOTS
 10
4000.0
 20
-199.99999999999909
 30
0.0
 50
270.0
1001
ACDBBLOCKREPETAG
1070
     1
1071
      153
1005
11DEA7
  0
ARC
  5
11DEA8
  8
OBJECT
 10
4000.0
 20
-199.99999999999909
 30
0.0
 40
50.0
 50
298.81994300000417
 51
228.52376955967449
1001
ACDBBLOCKREPETAG
1070
     1
1071
       48
1005
11DEA8
  0
LINE
  5
11DEA9
  8
CENTER
 10
4080.0
 20
-199.99999999999909
 30
0.0
 11
3920.0
 21
-199.99999999999909
 31
0.0
1001
ACDBBLOCKREPETAG
1070
     1
1071
       49
1005
11DEA9
  0
LINE
  5
11DEAA
  8
CENTER
 10
4000.0
 20
-279.99999999999909
 30
0.0
 11
4000.0
 21
-104.9999999999991
 31
0.0
1001
ACDBBLOCKREPETAG
1070
     1
1071
       50
1005
11DEAA
  0
CIRCLE
  5
11DEAB
  8
OBJECT
 10
4000.0
 20
-199.99999999999909
 30
0.0
 40
70.0
1001
ACDBBLOCKREPETAG
1070
     1
1071
       51
1005
11DEAB
  0
CIRCLE
  5
11DEAC
  8
OBJECT
 10
4000.0
 20
-199.99999999999909
 30
0.0
 40
77.0
1001
ACDBBLOCKREPETAG
1070
     1
1071
       52
1005
11DEAC
  0
ARC
  5
11DEAD
  8
OBJECT
 10
4000.0
 20
-199.99999999999909
 30
0.0
 40
80.0
 50
50.805032573864182
 51
129.1949674261358
1001
ACDBBLOCKREPETAG
1070
     1
1071
       53
1005
11DEAD
  0
LINE
  5
11DEAE
  8
OBJECT
 10
4045.661800227324
 20
-137.99999999999909
 30
0.0
 11
4080.0
 21
-137.99999999999909
 31
0.0
1001
ACDBBLOCKREPETAG
1070
     1
1071
       54
1005
11DEAE
  0
LINE
  5
11DEAF
  8
OBJECT
 10
4062.0
 20
-261.99999999999909
 30
0.0
 11
4080.0
 21
-261.99999999999909
 31
0.0
1001
ACDBBLOCKREPETAG
1070
     1
1071
       55
1005
11DEAF
  0
LINE
  5
11DEB0
  8
OBJECT
 10
4062.0
 20
-261.99999999999909
 30
0.0
 11
4062.0
 21
-279.99999999999909
 31
0.0
1001
ACDBBLOCKREPETAG
1070
     1
1071
       57
1005
11DEB0
  0
LINE
  5
11DEB1
  8
OBJECT
 10
3938.0
 20
-261.99999999999909
 30
0.0
 11
3938.0
 21
-279.99999999999909
 31
0.0
1001
ACDBBLOCKREPETAG
1070
     1
1071
       58
1005
11DEB1
  0
LINE
  5
11DEB2
  8
OBJECT
 10
3938.0
 20
-261.99999999999909
 30
0.0
 11
3920.0
 21
-261.99999999999909
 31
0.0
1001
ACDBBLOCKREPETAG
1070
     1
1071
       60
1005
11DEB2
  0
LINE
  5
11DEB3
  8
OBJECT
 10
3954.338199772676
 20
-137.99999999999909
 30
0.0
 11
3920.0
 21
-137.99999999999909
 31
0.0
1001
ACDBBLOCKREPETAG
1070
     1
1071
       61
1005
11DEB3
  0
LINE
  5
11DEB4
  8
OBJECT
 10
3945.5527778486362
 20
-254.44722215136329
 30
0.0
 11
3938.0
 21
-261.99999999999909
 31
0.0
1001
ACDBBLOCKREPETAG
1070
     1
1071
       42
1005
11DEB4
  0
LINE
  5
11DEB5
  8
OBJECT
 10
4054.4472221513638
 20
-254.44722215136329
 30
0.0
 11
4062.0
 21
-261.99999999999909
 31
0.0
1001
ACDBBLOCKREPETAG
1070
     1
1071
       43
1005
11DEB5
  0
LINE
  5
11DEB6
  8
OBJECT
 10
3787.0000000000191
 20
-137.99999999999909
 30
0.0
 11
3780.0000000000182
 21
-137.99999999999909
 31
0.0
1001
ACDBBLOCKREPETAG
1070
     1
1071
      110
1005
11DEB6
  0
LINE
  5
11DEB7
  8
OBJECT
 10
3780.0000000000182
 20
-137.99999999999909
 30
0.0
 11
3780.0000000000182
 21
-261.99999999999909
 31
0.0
1001
ACDBBLOCKREPETAG
1070
     1
1071
      111
1005
11DEB7
  0
LINE
  5
11DEB8
  8
OBJECT
 10
3780.0000000000182
 20
-261.99999999999909
 30
0.0
 11
3787.0000000000191
 21
-261.99999999999909
 31
0.0
1001
ACDBBLOCKREPETAG
1070
     1
1071
      112
1005
11DEB8
  0
LINE
  5
11DEB9
  8
OBJECT
 10
3787.0000000000191
 20
-261.99999999999909
 30
0.0
 11
3787.0000000000191
 21
-137.99999999999909
 31
0.0
1001
ACDBBLOCKREPETAG
1070
     1
1071
      113
1005
11DEB9
  0
LINE
  5
11DEBA
  8
CENTER
 10
3765.0000000000182
 20
-199.99999999999909
 30
0.0
 11
3920.0
 21
-199.99999999999909
 31
0.0
1001
ACDBBLOCKREPETAG
1070
     1
1071
      114
1005
11DEBA
  0
LINE
  5
11DEBB
  8
OBJECT
 10
3840.0000250358171
 20
-245.0000000000027
 30
0.0
 11
3914.000000000005
 21
-244.99999999999909
 31
0.0
1001
ACDBBLOCKREPETAG
1070
     1
1071
      115
1005
11DEBB
  0
LINE
  5
11DEBC
  8
OBJECT
 10
3840.0000250358171
 20
-154.99999999999909
 30
0.0
 11
3914.000000000005
 21
-154.99999999999909
 31
0.0
1001
ACDBBLOCKREPETAG
1070
     1
1071
      116
1005
11DEBC
  0
LINE
  5
11DEBD
  8
OBJECT
 10
3787.0000000000191
 20
-140.99999999999909
 30
0.0
 11
3823.0000000000182
 21
-140.99999999999909
 31
0.0
1001
ACDBBLOCKREPETAG
1070
     1
1071
      117
1005
11DEBD
  0
LINE
  5
11DEBE
  8
OBJECT
 10
3823.0000000000182
 20
-140.99999999999909
 30
0.0
 11
3823.0000000000182
 21
-258.99999999999909
 31
0.0
1001
ACDBBLOCKREPETAG
1070
     1
1071
      118
1005
11DEBE
  0
LINE
  5
11DEBF
  8
OBJECT
 10
3823.0000000000182
 20
-258.99999999999909
 30
0.0
 11
3787.0000000000191
 21
-258.99999999999909
 31
0.0
1001
ACDBBLOCKREPETAG
1070
     1
1071
      119
1005
11DEBF
  0
LINE
  5
11DEC0
  8
OBJECT
 10
3827.0000000000182
 20
-145.49999999999909
 30
0.0
 11
3840.0000000000191
 21
-145.49999999999909
 31
0.0
1001
ACDBBLOCKREPETAG
1070
     1
1071
      120
1005
11DEC0
  0
LINE
  5
11DEC1
  8
OBJECT
 10
3840.0000000000191
 20
-254.49999999999909
 30
0.0
 11
3827.0000000000182
 21
-254.49999999999909
 31
0.0
1001
ACDBBLOCKREPETAG
1070
     1
1071
      121
1005
11DEC1
  0
LINE
  5
11DEC2
  8
OBJECT
 10
3827.0000000000182
 20
-254.49999999999909
 30
0.0
 11
3827.0000000000182
 21
-145.49999999999909
 31
0.0
1001
ACDBBLOCKREPETAG
1070
     1
1071
      122
1005
11DEC2
  0
LINE
  5
11DEC3
  8
OBJECT
 10
3823.0000000000182
 20
-140.99999999999909
 30
0.0
 11
3827.0000000000182
 21
-145.49999999999909
 31
0.0
1001
ACDBBLOCKREPETAG
1070
     1
1071
      123
1005
11DEC3
  0
LINE
  5
11DEC4
  8
OBJECT
 10
3823.0000000000182
 20
-258.99999999999909
 30
0.0
 11
3827.0000000000182
 21
-254.49999999999909
 31
0.0
1001
ACDBBLOCKREPETAG
1070
     1
1071
      124
1005
11DEC4
  0
LINE
  5
11DEC5
  8
OBJECT
 10
3917.000000000005
 20
-137.99999999999909
 30
0.0
 11
3920.0000000000041
 21
-137.99999999999909
 31
0.0
1001
ACDBBLOCKREPETAG
1070
     1
1071
      125
1005
11DEC5
  0
ARC
  5
11DEC6
  8
OBJECT
 10
3917.000000000005
 20
-140.99999999999909
 30
0.0
 40
3.0
 50
90.0
 51
180.0
1001
ACDBBLOCKREPETAG
1070
     1
1071
      126
1005
11DEC6
  0
LINE
  5
11DEC7
  8
OBJECT
 10
3920.0000000000041
 20
-261.99999999999909
 30
0.0
 11
3917.000000000005
 21
-261.99999999999909
 31
0.0
1001
ACDBBLOCKREPETAG
1070
     1
1071
      127
1005
11DEC7
  0
ARC
  5
11DEC8
  8
OBJECT
 10
3917.000000000005
 20
-258.99999999999909
 30
0.0
 40
3.0
 50
180.0
 51
270.0
1001
ACDBBLOCKREPETAG
1070
     1
1071
      128
1005
11DEC8
  0
LINE
  5
11DEC9
  8
OBJECT
 10
3914.000000000005
 20
-258.99999999999909
 30
0.0
 11
3914.000000000005
 21
-222.44994432063581
 31
0.0
1001
ACDBBLOCKREPETAG
1070
     1
1071
      129
1005
11DEC9
  0
LINE
  5
11DECA
  8
OBJECT
 10
3914.000000000005
 20
-177.55005567935859
 30
0.0
 11
3914.000000000005
 21
-140.99999999999909
 31
0.0
1001
ACDBBLOCKREPETAG
1070
     1
1071
      130
1005
11DECA
  0
LINE
  5
11DECB
  8
HIDDEN
 10
3832.0000000000182
 20
-155.49999999999909
 30
0.0
 11
3832.0000000000182
 21
-244.49999999999909
 31
0.0
1001
ACDBBLOCKREPETAG
1070
     1
1071
      131
1005
11DECB
  0
LINE
  5
11DECC
  8
OBJECT
 10
3840.0000250358171
 20
-254.4999509238105
 30
0.0
 11
3840.0000250358171
 21
-145.4999509238105
 31
0.0
1001
ACDBBLOCKREPETAG
1070
     1
1071
      133
1005
11DECC
  0
ARC
  5
11DECD
  8
OBJECT
 10
3875.0
 20
-199.99999999999909
 30
0.0
 40
45.000000000000547
 50
270.0
 51
90.0
1001
ACDBBLOCKREPETAG
1070
     1
1071
      134
1005
11DECD
  0
LINE
  5
11DECE
  8
CENTER
 10
4000.0
 20
-300.99999999999898
 30
0.0
 11
4000.0
 21
-279.99999999999909
 31
0.0
1001
ACDBBLOCKREPETAG
1070
     1
1071
        0
1005
11DECE
  0
LINE
  5
11DECF
  8
OBJECT
 10
4062.0
 20
-283.0
 30
0.0
 11
4062.0
 21
-279.99999999999909
 31
0.0
1001
ACDBBLOCKREPETAG
1070
     1
1071
        1
1005
11DECF
  0
ARC
  5
11DED0
  8
OBJECT
 10
4059.0
 20
-283.0
 30
0.0
 40
3.0
 50
270.0
 51
0.0
1001
ACDBBLOCKREPETAG
1070
     1
1071
        2
1005
11DED0
  0
LINE
  5
11DED1
  8
OBJECT
 10
3938.0
 20
-279.99999999999909
 30
0.0
 11
3938.0
 21
-282.99999999999818
 31
0.0
1001
ACDBBLOCKREPETAG
1070
     1
1071
        3
1005
11DED1
  0
ARC
  5
11DED2
  8
OBJECT
 10
3941.0
 20
-282.99999999999818
 30
0.0
 40
3.0
 50
180.0
 51
270.0
1001
ACDBBLOCKREPETAG
1070
     1
1071
        4
1005
11DED2
  0
LINE
  5
11DED3
  8
OBJECT
 10
3941.0
 20
-285.99999999999818
 30
0.0
 11
4059.0
 21
-286.0
 31
0.0
1001
ACDBBLOCKREPETAG
1070
     1
1071
        5
1005
11DED3
  0
LINE
  5
11DED4
  8
OBJECT
 10
4212.9999999999854
 20
-137.99999999999909
 30
0.0
 11
4219.9999999999854
 21
-137.99999999999909
 31
0.0
1001
ACDBBLOCKREPETAG
1070
     1
1071
      110
1005
11DED4
  0
LINE
  5
11DED5
  8
OBJECT
 10
4219.9999999999854
 20
-137.99999999999909
 30
0.0
 11
4219.9999999999854
 21
-261.99999999999909
 31
0.0
1001
ACDBBLOCKREPETAG
1070
     1
1071
      111
1005
11DED5
  0
LINE
  5
11DED6
  8
OBJECT
 10
4219.9999999999854
 20
-261.99999999999909
 30
0.0
 11
4212.9999999999854
 21
-261.99999999999909
 31
0.0
1001
ACDBBLOCKREPETAG
1070
     1
1071
      112
1005
11DED6
  0
LINE
  5
11DED7
  8
OBJECT
 10
4212.9999999999854
 20
-261.99999999999909
 30
0.0
 11
4212.9999999999854
 21
-137.99999999999909
 31
0.0
1001
ACDBBLOCKREPETAG
1070
     1
1071
      113
1005
11DED7
  0
LINE
  5
11DED8
  8
CENTER
 10
4234.9999999999854
 20
-199.99999999999909
 30
0.0
 11
4080.0000000000041
 21
-199.99999999999909
 31
0.0
1001
ACDBBLOCKREPETAG
1070
     1
1071
      114
1005
11DED8
  0
LINE
  5
11DED9
  8
OBJECT
 10
4159.9999749641847
 20
-245.0000000000027
 30
0.0
 11
4086.0
 21
-244.99999999999909
 31
0.0
1001
ACDBBLOCKREPETAG
1070
     1
1071
      115
1005
11DED9
  0
LINE
  5
11DEDA
  8
OBJECT
 10
4159.9999749641847
 20
-154.99999999999909
 30
0.0
 11
4086.0
 21
-154.99999999999909
 31
0.0
1001
ACDBBLOCKREPETAG
1070
     1
1071
      116
1005
11DEDA
  0
LINE
  5
11DEDB
  8
OBJECT
 10
4212.9999999999854
 20
-140.99999999999909
 30
0.0
 11
4176.9999999999854
 21
-140.99999999999909
 31
0.0
1001
ACDBBLOCKREPETAG
1070
     1
1071
      117
1005
11DEDB
  0
LINE
  5
11DEDC
  8
OBJECT
 10
4176.9999999999854
 20
-140.99999999999909
 30
0.0
 11
4176.9999999999854
 21
-258.99999999999909
 31
0.0
1001
ACDBBLOCKREPETAG
1070
     1
1071
      118
1005
11DEDC
  0
LINE
  5
11DEDD
  8
OBJECT
 10
4176.9999999999854
 20
-258.99999999999909
 30
0.0
 11
4212.9999999999854
 21
-258.99999999999909
 31
0.0
1001
ACDBBLOCKREPETAG
1070
     1
1071
      119
1005
11DEDD
  0
LINE
  5
11DEDE
  8
OBJECT
 10
4172.9999999999854
 20
-145.49999999999909
 30
0.0
 11
4159.9999999999854
 21
-145.49999999999909
 31
0.0
1001
ACDBBLOCKREPETAG
1070
     1
1071
      120
1005
11DEDE
  0
LINE
  5
11DEDF
  8
OBJECT
 10
4159.9999999999854
 20
-254.49999999999909
 30
0.0
 11
4172.9999999999854
 21
-254.49999999999909
 31
0.0
1001
ACDBBLOCKREPETAG
1070
     1
1071
      121
1005
11DEDF
  0
LINE
  5
11DEE0
  8
OBJECT
 10
4172.9999999999854
 20
-254.49999999999909
 30
0.0
 11
4172.9999999999854
 21
-145.49999999999909
 31
0.0
1001
ACDBBLOCKREPETAG
1070
     1
1071
      122
1005
11DEE0
  0
LINE
  5
11DEE1
  8
OBJECT
 10
4176.9999999999854
 20
-140.99999999999909
 30
0.0
 11
4172.9999999999854
 21
-145.49999999999909
 31
0.0
1001
ACDBBLOCKREPETAG
1070
     1
1071
      123
1005
11DEE1
  0
LINE
  5
11DEE2
  8
OBJECT
 10
4176.9999999999854
 20
-258.99999999999909
 30
0.0
 11
4172.9999999999854
 21
-254.49999999999909
 31
0.0
1001
ACDBBLOCKREPETAG
1070
     1
1071
      124
1005
11DEE2
  0
LINE
  5
11DEE3
  8
OBJECT
 10
4083.0
 20
-137.99999999999909
 30
0.0
 11
4080.0
 21
-137.99999999999909
 31
0.0
1001
ACDBBLOCKREPETAG
1070
     1
1071
      125
1005
11DEE3
  0
ARC
  5
11DEE4
  8
OBJECT
 10
4083.0
 20
-140.99999999999909
 30
0.0
 40
3.0
 50
0.0
 51
90.0
1001
ACDBBLOCKREPETAG
1070
     1
1071
      126
1005
11DEE4
  0
LINE
  5
11DEE5
  8
OBJECT
 10
4080.0
 20
-261.99999999999909
 30
0.0
 11
4083.0
 21
-261.99999999999909
 31
0.0
1001
ACDBBLOCKREPETAG
1070
     1
1071
      127
1005
11DEE5
  0
ARC
  5
11DEE6
  8
OBJECT
 10
4083.0
 20
-258.99999999999909
 30
0.0
 40
3.0
 50
270.0
 51
0.0
1001
ACDBBLOCKREPETAG
1070
     1
1071
      128
1005
11DEE6
  0
LINE
  5
11DEE7
  8
OBJECT
 10
4086.0
 20
-258.99999999999909
 30
0.0
 11
4086.0
 21
-222.44994432063581
 31
0.0
1001
ACDBBLOCKREPETAG
1070
     1
1071
      129
1005
11DEE7
  0
LINE
  5
11DEE8
  8
OBJECT
 10
4086.0
 20
-177.55005567935859
 30
0.0
 11
4086.0
 21
-140.99999999999909
 31
0.0
1001
ACDBBLOCKREPETAG
1070
     1
1071
      130
1005
11DEE8
  0
LINE
  5
11DEE9
  8
HIDDEN
 10
4167.9999999999854
 20
-155.49999999999909
 30
0.0
 11
4167.9999999999854
 21
-244.49999999999909
 31
0.0
1001
ACDBBLOCKREPETAG
1070
     1
1071
      131
1005
11DEE9
  0
LINE
  5
11DEEA
  8
OBJECT
 10
4159.9999749641847
 20
-254.4999509238105
 30
0.0
 11
4159.9999749641847
 21
-145.4999509238105
 31
0.0
1001
ACDBBLOCKREPETAG
1070
     1
1071
      133
1005
11DEEA
  0
ARC
  5
11DEEB
  8
OBJECT
 10
4125.0000000000018
 20
-199.99999999999909
 30
0.0
 40
45.000000000000547
 50
90.0
 51
270.0
1001
ACDBBLOCKREPETAG
1070
     1
1071
      134
1005
11DEEB
  0
LINE
  5
11DEEC
  8
OBJECT
 10
3787.000000000015
 20
-553.0
 30
0.0
 11
3780.000000000015
 21
-553.0
 31
0.0
1001
ACDBBLOCKREPETAG
1070
     1
1071
      106
1005
11DEEC
  0
LINE
  5
11DEED
  8
OBJECT
 10
3780.000000000015
 20
-553.0
 30
0.0
 11
3780.000000000015
 21
-677.0
 31
0.0
1001
ACDBBLOCKREPETAG
1070
     1
1071
      107
1005
11DEED
  0
LINE
  5
11DEEE
  8
OBJECT
 10
3914.0000000000159
 20
-653.3502637757274
 30
0.0
 11
3914.0000000000159
 21
-755.00000000000102
 31
0.0
1001
ACDBBLOCKREPETAG
1070
     1
1071
      108
1005
11DEEE
  0
LINE
  5
11DEEF
  8
OBJECT
 10
3780.000000000015
 20
-677.0
 30
0.0
 11
3787.000000000015
 21
-677.0
 31
0.0
1001
ACDBBLOCKREPETAG
1070
     1
1071
      109
1005
11DEEF
  0
LINE
  5
11DEF0
  8
OBJECT
 10
3787.000000000015
 20
-677.0
 30
0.0
 11
3787.000000000015
 21
-553.0
 31
0.0
1001
ACDBBLOCKREPETAG
1070
     1
1071
      110
1005
11DEF0
  0
LINE
  5
11DEF1
  8
CENTER
 10
3855.0000000000141
 20
-615.0000000000008
 30
0.0
 11
3765.0000000000159
 21
-615.0
 31
0.0
1001
ACDBBLOCKREPETAG
1070
     1
1071
      111
1005
11DEF1
  0
LINE
  5
11DEF2
  8
OBJECT
 10
3920.0000000000182
 20
-758.0
 30
0.0
 11
3917.0000000000141
 21
-758.0000000000008
 31
0.0
1001
ACDBBLOCKREPETAG
1070
     1
1071
      112
1005
11DEF2
  0
ARC
  5
11DEF3
  8
OBJECT
 10
3917.0000000000141
 20
-755.00000000000102
 30
0.0
 40
3.0
 50
180.0
 51
270.0
1001
ACDBBLOCKREPETAG
1070
     1
1071
      113
1005
11DEF3
  0
LINE
  5
11DEF4
  8
OBJECT
 10
3787.000000000015
 20
-556.0
 30
0.0
 11
3823.0000000000141
 21
-556.0000000000008
 31
0.0
1001
ACDBBLOCKREPETAG
1070
     1
1071
      114
1005
11DEF4
  0
LINE
  5
11DEF5
  8
OBJECT
 10
3823.0000000000141
 20
-556.0000000000008
 30
0.0
 11
3823.0000000000141
 21
-653.15756805667843
 31
0.0
1001
ACDBBLOCKREPETAG
1070
     1
1071
      115
1005
11DEF5
  0
LINE
  5
11DEF6
  8
OBJECT
 10
3827.000000000015
 20
-560.5000000000008
 30
0.0
 11
3827.0000000000182
 21
-645.74491827928705
 31
0.0
1001
ACDBBLOCKREPETAG
1070
     1
1071
      116
1005
11DEF6
  0
LINE
  5
11DEF7
  8
OBJECT
 10
3827.000000000015
 20
-560.5000000000008
 30
0.0
 11
3840.0000000000159
 21
-560.5000000000008
 31
0.0
1001
ACDBBLOCKREPETAG
1070
     1
1071
      117
1005
11DEF7
  0
LINE
  5
11DEF8
  8
OBJECT
 10
3831.3436831745321
 20
-674.0000000000008
 30
0.0
 11
3787.000000000015
 21
-674.0
 31
0.0
1001
ACDBBLOCKREPETAG
1070
     1
1071
      118
1005
11DEF8
  0
LINE
  5
11DEF9
  8
OBJECT
 10
3823.0000000000141
 20
-556.0000000000008
 30
0.0
 11
3827.000000000015
 21
-560.5000000000008
 31
0.0
1001
ACDBBLOCKREPETAG
1070
     1
1071
      119
1005
11DEF9
  0
LINE
  5
11DEFA
  8
OBJECT
 10
3840.0000000000159
 20
-560.5000000000008
 30
0.0
 11
3840.0000000000159
 21
-645.74491827928784
 31
0.0
1001
ACDBBLOCKREPETAG
1070
     1
1071
      120
1005
11DEFA
  0
ARC
  5
11DEFB
  8
OBJECT
 10
3908.000000000015
 20
-637.27386365609345
 30
0.0
 40
85.0
 50
205.59913872187661
 51
231.40900676279119
1001
ACDBBLOCKREPETAG
1070
     1
1071
      121
1005
11DEFB
  0
ARC
  5
11DEFC
  8
OBJECT
 10
3837.2000000000162
 20
-655.00000000000068
 30
0.0
 40
85.0
 50
19.925932125430649
 51
88.112268108168848
1001
ACDBBLOCKREPETAG
1070
     1
1071
      122
1005
11DEFC
  0
LINE
  5
11DEFD
  8
OBJECT
 10
3914.0000000000159
 20
-750.81075719270905
 30
0.0
 11
3854.9806774563981
 21
-703.71143914629454
 31
0.0
1001
ACDBBLOCKREPETAG
1070
     1
1071
      123
1005
11DEFD
  0
LINE
  5
11DEFE
  8
OBJECT
 10
3827.0000000000182
 20
-645.74491827928705
 30
0.0
 11
3840.0000000000159
 21
-645.74491827928784
 31
0.0
1001
ACDBBLOCKREPETAG
1070
     1
1071
      124
1005
11DEFE
  0
LINE
  5
11DEFF
  8
OBJECT
 10
3823.0000000000141
 20
-653.15756805667843
 30
0.0
 11
3827.0000000000182
 21
-645.74491827928705
 31
0.0
1001
ACDBBLOCKREPETAG
1070
     1
1071
      125
1005
11DEFF
  0
LINE
  5
11DF00
  8
OBJECT
 10
3919.9999999999818
 20
-634.0
 30
0.0
 11
3917.111387840378
 21
-626.03156729425325
 31
0.0
1001
ACDBBLOCKREPETAG
1070
     1
1071
      126
1005
11DF00
  0
LINE
  5
11DF01
  8
OBJECT
 10
3919.9999999999818
 20
-634.0
 30
0.0
 11
3914.0000000000159
 21
-653.3502637757274
 31
0.0
1001
ACDBBLOCKREPETAG
1070
     1
1071
      127
1005
11DF01
  0
LINE
  5
11DF02
  8
HIDDEN
 10
3832.0000000000159
 20
-570.5000000000008
 30
0.0
 11
3832.0000000000159
 21
-659.50000000000068
 31
0.0
1001
ACDBBLOCKREPETAG
1070
     1
1071
      129
1005
11DF02
  0
CIRCLE
  5
11DF03
  8
OBJECT
 10
4000.0
 20
-696.0
 30
0.0
 40
62.0
1001
ACDBBLOCKREPETAG
1070
     1
1071
        0
1005
11DF03
  0
LINE
  5
11DF04
  8
OBJECT
 10
4212.9999999999854
 20
-553.0000000000008
 30
0.0
 11
4219.9999999999854
 21
-553.0000000000008
 31
0.0
1001
ACDBBLOCKREPETAG
1070
     1
1071
      106
1005
11DF04
  0
LINE
  5
11DF05
  8
OBJECT
 10
4219.9999999999854
 20
-553.0000000000008
 30
0.0
 11
4219.9999999999854
 21
-677.0000000000008
 31
0.0
1001
ACDBBLOCKREPETAG
1070
     1
1071
      107
1005
11DF05
  0
LINE
  5
11DF06
  8
OBJECT
 10
4085.9999999999859
 20
-653.3502637757274
 30
0.0
 11
4085.9999999999859
 21
-755.00000000000102
 31
0.0
1001
ACDBBLOCKREPETAG
1070
     1
1071
      108
1005
11DF06
  0
LINE
  5
11DF07
  8
OBJECT
 10
4219.9999999999854
 20
-677.0000000000008
 30
0.0
 11
4212.9999999999854
 21
-677.0000000000008
 31
0.0
1001
ACDBBLOCKREPETAG
1070
     1
1071
      109
1005
11DF07
  0
LINE
  5
11DF08
  8
OBJECT
 10
4212.9999999999854
 20
-677.0000000000008
 30
0.0
 11
4212.9999999999854
 21
-553.0000000000008
 31
0.0
1001
ACDBBLOCKREPETAG
1070
     1
1071
      110
1005
11DF08
  0
LINE
  5
11DF09
  8
CENTER
 10
4144.9999999999854
 20
-615.0000000000008
 30
0.0
 11
4234.9999999999854
 21
-615.0000000000008
 31
0.0
1001
ACDBBLOCKREPETAG
1070
     1
1071
      111
1005
11DF09
  0
LINE
  5
11DF0A
  8
OBJECT
 10
4079.9999999999818
 20
-758.0
 30
0.0
 11
4082.999999999985
 21
-758.0000000000008
 31
0.0
1001
ACDBBLOCKREPETAG
1070
     1
1071
      112
1005
11DF0A
  0
ARC
  5
11DF0B
  8
OBJECT
 10
4082.999999999985
 20
-755.00000000000102
 30
0.0
 40
3.0
 50
270.0
 51
0.0
1001
ACDBBLOCKREPETAG
1070
     1
1071
      113
1005
11DF0B
  0
LINE
  5
11DF0C
  8
OBJECT
 10
4212.9999999999854
 20
-556.0000000000008
 30
0.0
 11
4176.9999999999854
 21
-556.0000000000008
 31
0.0
1001
ACDBBLOCKREPETAG
1070
     1
1071
      114
1005
11DF0C
  0
LINE
  5
11DF0D
  8
OBJECT
 10
4176.9999999999854
 20
-556.0000000000008
 30
0.0
 11
4176.9999999999854
 21
-653.15756805667843
 31
0.0
1001
ACDBBLOCKREPETAG
1070
     1
1071
      115
1005
11DF0D
  0
LINE
  5
11DF0E
  8
OBJECT
 10
4172.9999999999854
 20
-560.5000000000008
 30
0.0
 11
4172.9999999999818
 21
-645.74491827928705
 31
0.0
1001
ACDBBLOCKREPETAG
1070
     1
1071
      116
1005
11DF0E
  0
LINE
  5
11DF0F
  8
OBJECT
 10
4172.9999999999854
 20
-560.5000000000008
 30
0.0
 11
4159.9999999999854
 21
-560.5000000000008
 31
0.0
1001
ACDBBLOCKREPETAG
1070
     1
1071
      117
1005
11DF0F
  0
LINE
  5
11DF10
  8
OBJECT
 10
4168.6563168254679
 20
-674.0000000000008
 30
0.0
 11
4212.9999999999854
 21
-674.0000000000008
 31
0.0
1001
ACDBBLOCKREPETAG
1070
     1
1071
      118
1005
11DF10
  0
LINE
  5
11DF11
  8
OBJECT
 10
4176.9999999999854
 20
-556.0000000000008
 30
0.0
 11
4172.9999999999854
 21
-560.5000000000008
 31
0.0
1001
ACDBBLOCKREPETAG
1070
     1
1071
      119
1005
11DF11
  0
LINE
  5
11DF12
  8
OBJECT
 10
4159.9999999999854
 20
-560.5000000000008
 30
0.0
 11
4159.9999999999854
 21
-645.74491827928784
 31
0.0
1001
ACDBBLOCKREPETAG
1070
     1
1071
      120
1005
11DF12
  0
ARC
  5
11DF13
  8
OBJECT
 10
4091.9999999999841
 20
-637.27386365609345
 30
0.0
 40
85.0
 50
308.59099323720869
 51
334.40086127812339
1001
ACDBBLOCKREPETAG
1070
     1
1071
      121
1005
11DF13
  0
ARC
  5
11DF14
  8
OBJECT
 10
4162.7999999999847
 20
-655.00000000000068
 30
0.0
 40
85.0
 50
91.887731891831123
 51
160.07406787456929
1001
ACDBBLOCKREPETAG
1070
     1
1071
      122
1005
11DF14
  0
LINE
  5
11DF15
  8
OBJECT
 10
4085.9999999999859
 20
-750.81075719270905
 30
0.0
 11
4145.0193225436024
 21
-703.71143914629454
 31
0.0
1001
ACDBBLOCKREPETAG
1070
     1
1071
      123
1005
11DF15
  0
LINE
  5
11DF16
  8
OBJECT
 10
4172.9999999999818
 20
-645.74491827928705
 30
0.0
 11
4159.9999999999854
 21
-645.74491827928784
 31
0.0
1001
ACDBBLOCKREPETAG
1070
     1
1071
      124
1005
11DF16
  0
LINE
  5
11DF17
  8
OBJECT
 10
4176.9999999999854
 20
-653.15756805667843
 30
0.0
 11
4172.9999999999818
 21
-645.74491827928705
 31
0.0
1001
ACDBBLOCKREPETAG
1070
     1
1071
      125
1005
11DF17
  0
LINE
  5
11DF18
  8
OBJECT
 10
4080.0000000000168
 20
-634.0
 30
0.0
 11
4082.8886121596229
 21
-626.03156729425325
 31
0.0
1001
ACDBBLOCKREPETAG
1070
     1
1071
      126
1005
11DF18
  0
LINE
  5
11DF19
  8
OBJECT
 10
4080.0000000000168
 20
-634.0
 30
0.0
 11
4085.9999999999859
 21
-653.3502637757274
 31
0.0
1001
ACDBBLOCKREPETAG
1070
     1
1071
      127
1005
11DF19
  0
LINE
  5
11DF1A
  8
HIDDEN
 10
4167.9999999999854
 20
-570.5000000000008
 30
0.0
 11
4167.9999999999854
 21
-659.50000000000068
 31
0.0
1001
ACDBBLOCKREPETAG
1070
     1
1071
      129
1005
11DF1A
  0
LINE
  5
11DF1B
  8
SLIM
 10
11914.999999999991
 20
-759.47385309434753
 30
0.0
 11
11919.47385309434
 21
-755.0
 31
0.0
1001
ACAD
1010
0.0
1020
0.0
1030
0.0
1001
ACDBBLOCKREPETAG
1070
     1
1071
        0
1005
0
  0
LINE
  5
11DF1C
  8
SLIM
 10
11914.999999999991
 20
-777.4343653364856
 30
0.0
 11
11937.434365336479
 21
-755.0
 31
0.0
1001
ACAD
1010
0.0
1020
0.0
1030
0.0
1001
ACDBBLOCKREPETAG
1070
     1
1071
       10
1005
11DF1C
  0
LINE
  5
11DF1D
  8
SLIM
 10
11914.999999999991
 20
-795.39487757862355
 30
0.0
 11
11955.39487757861
 21
-755.0
 31
0.0
1001
ACAD
1010
0.0
1020
0.0
1030
0.0
1001
ACDBBLOCKREPETAG
1070
     1
1071
       11
1005
11DF1D
  0
LINE
  5
11DF1E
  8
SLIM
 10
11914.999999999991
 20
-813.35538982076173
 30
0.0
 11
11973.35538982075
 21
-755.0
 31
0.0
1001
ACAD
1010
0.0
1020
0.0
1030
0.0
1001
ACDBBLOCKREPETAG
1070
     1
1071
       12
1005
11DF1E
  0
LINE
  5
11DF1F
  8
SLIM
 10
11914.999999999991
 20
-831.31590206289945
 30
0.0
 11
11991.31590206289
 21
-755.0
 31
0.0
1001
ACAD
1010
0.0
1020
0.0
1030
0.0
1001
ACDBBLOCKREPETAG
1070
     1
1071
       13
1005
11DF1F
  0
LINE
  5
11DF20
  8
SLIM
 10
11914.999999999991
 20
-849.27641430503763
 30
0.0
 11
12009.27641430503
 21
-755.0
 31
0.0
1001
ACAD
1010
0.0
1020
0.0
1030
0.0
1001
ACDBBLOCKREPETAG
1070
     1
1071
       14
1005
11DF20
  0
LINE
  5
11DF21
  8
SLIM
 10
11914.999999999991
 20
-867.23692654717593
 30
0.0
 11
12027.23692654717
 21
-755.0
 31
0.0
1001
ACAD
1010
0.0
1020
0.0
1030
0.0
1001
ACDBBLOCKREPETAG
1070
     1
1071
       15
1005
11DF21
  0
LINE
  5
11DF22
  8
SLIM
 10
11914.999999999991
 20
-885.19743878931376
 30
0.0
 11
12045.19743878931
 21
-755.0
 31
0.0
1001
ACAD
1010
0.0
1020
0.0
1030
0.0
1001
ACDBBLOCKREPETAG
1070
     1
1071
       16
1005
11DF22
  0
LINE
  5
11DF23
  8
SLIM
 10
11914.999999999991
 20
-903.15795103145194
 30
0.0
 11
12063.15795103144
 21
-755.0
 31
0.0
1001
ACAD
1010
0.0
1020
0.0
1030
0.0
1001
ACDBBLOCKREPETAG
1070
     1
1071
       17
1005
11DF23
  0
LINE
  5
11DF24
  8
SLIM
 10
11914.999999999991
 20
-921.11846327358978
 30
0.0
 11
12081.11846327358
 21
-755.0
 31
0.0
1001
ACAD
1010
0.0
1020
0.0
1030
0.0
1001
ACDBBLOCKREPETAG
1070
     1
1071
       18
1005
11DF24
  0
LINE
  5
11DF25
  8
SLIM
 10
11914.999999999991
 20
-939.07897551572796
 30
0.0
 11
12085.000000000009
 21
-769.07897551571648
 31
0.0
1001
ACAD
1010
0.0
1020
0.0
1030
0.0
1001
ACDBBLOCKREPETAG
1070
     1
1071
       19
1005
11DF25
  0
LINE
  5
11DF26
  8
SLIM
 10
11915.0
 20
-957.0394877578658
 30
0.0
 11
12085.000000000009
 21
-787.03948775785511
 31
0.0
1001
ACAD
1010
0.0
1020
0.0
1030
0.0
1001
ACDBBLOCKREPETAG
1070
     1
1071
       20
1005
11DF26
  0
LINE
  5
11DF27
  8
SLIM
 10
11915.0
 20
-975.00000000000398
 30
0.0
 11
12085.0
 21
-804.99999999999363
 31
0.0
1001
ACAD
1010
0.0
1020
0.0
1030
0.0
1001
ACDBBLOCKREPETAG
1070
     1
1071
       21
1005
11DF27
  0
LINE
  5
11DF28
  8
SLIM
 10
11915.0
 20
-992.96051224214204
 30
0.0
 11
12085.0
 21
-822.96051224213215
 31
0.0
1001
ACAD
1010
0.0
1020
0.0
1030
0.0
1001
ACDBBLOCKREPETAG
1070
     1
1071
       22
1005
11DF28
  0
LINE
  5
11DF29
  8
SLIM
 10
11915.0
 20
-1010.92102448428
 30
0.0
 11
12085.0
 21
-840.92102448427045
 31
0.0
1001
ACAD
1010
0.0
1020
0.0
1030
0.0
1001
ACDBBLOCKREPETAG
1070
     1
1071
       23
1005
11DF29
  0
LINE
  5
11DF2A
  8
SLIM
 10
11915.0
 20
-1028.8815367264181
 30
0.0
 11
12085.0
 21
-858.88153672640931
 31
0.0
1001
ACAD
1010
0.0
1020
0.0
1030
0.0
1001
ACDBBLOCKREPETAG
1070
     1
1071
       24
1005
11DF2A
  0
LINE
  5
11DF2B
  8
SLIM
 10
11915.0
 20
-1046.8420489685559
 30
0.0
 11
12085.0
 21
-876.84204896854783
 31
0.0
1001
ACAD
1010
0.0
1020
0.0
1030
0.0
1001
ACDBBLOCKREPETAG
1070
     1
1071
       25
1005
11DF2B
  0
LINE
  5
11DF2C
  8
SLIM
 10
11915.0
 20
-1064.802561210694
 30
0.0
 11
12085.0
 21
-894.80256121068624
 31
0.0
1001
ACAD
1010
0.0
1020
0.0
1030
0.0
1001
ACDBBLOCKREPETAG
1070
     1
1071
       26
1005
11DF2C
  0
LINE
  5
11DF2D
  8
SLIM
 10
11915.0
 20
-1082.763073452832
 30
0.0
 11
12085.0
 21
-912.76307345282476
 31
0.0
1001
ACAD
1010
0.0
1020
0.0
1030
0.0
1001
ACDBBLOCKREPETAG
1070
     1
1071
       27
1005
11DF2D
  0
LINE
  5
11DF2E
  8
SLIM
 10
11915.0
 20
-1100.7235856949701
 30
0.0
 11
12085.0
 21
-930.72358569496362
 31
0.0
1001
ACAD
1010
0.0
1020
0.0
1030
0.0
1001
ACDBBLOCKREPETAG
1070
     1
1071
       28
1005
11DF2E
  0
LINE
  5
11DF2F
  8
SLIM
 10
11915.0
 20
-1118.6840979371079
 30
0.0
 11
12085.0
 21
-948.68409793710202
 31
0.0
1001
ACAD
1010
0.0
1020
0.0
1030
0.0
1001
ACDBBLOCKREPETAG
1070
     1
1071
       29
1005
11DF2F
  0
LINE
  5
11DF30
  8
SLIM
 10
11915.0
 20
-1136.644610179246
 30
0.0
 11
12085.0
 21
-966.64461017924043
 31
0.0
1001
ACAD
1010
0.0
1020
0.0
1030
0.0
1001
ACDBBLOCKREPETAG
1070
     1
1071
       30
1005
11DF30
  0
LINE
  5
11DF31
  8
SLIM
 10
11915.0
 20
-1154.6051224213841
 30
0.0
 11
12085.0
 21
-984.60512242137895
 31
0.0
1001
ACAD
1010
0.0
1020
0.0
1030
0.0
1001
ACDBBLOCKREPETAG
1070
     1
1071
       31
1005
11DF31
  0
LINE
  5
11DF32
  8
SLIM
 10
11915.0
 20
-1172.5656346635219
 30
0.0
 11
12085.0
 21
-1002.565634663517
 31
0.0
1001
ACAD
1010
0.0
1020
0.0
1030
0.0
1001
ACDBBLOCKREPETAG
1070
     1
1071
       32
1005
11DF32
  0
LINE
  5
11DF33
  8
SLIM
 10
11915.0
 20
-1190.52614690566
 30
0.0
 11
12085.0
 21
-1020.526146905656
 31
0.0
1001
ACAD
1010
0.0
1020
0.0
1030
0.0
1001
ACDBBLOCKREPETAG
1070
     1
1071
       33
1005
11DF33
  0
LINE
  5
11DF34
  8
SLIM
 10
11915.0
 20
-1208.4866591477989
 30
0.0
 11
12085.0
 21
-1038.4866591477951
 31
0.0
1001
ACAD
1010
0.0
1020
0.0
1030
0.0
1001
ACDBBLOCKREPETAG
1070
     1
1071
       34
1005
11DF34
  0
LINE
  5
11DF35
  8
SLIM
 10
11915.0
 20
-1226.447171389937
 30
0.0
 11
12085.0
 21
-1056.447171389932
 31
0.0
1001
ACAD
1010
0.0
1020
0.0
1030
0.0
1001
ACDBBLOCKREPETAG
1070
     1
1071
       35
1005
11DF35
  0
LINE
  5
11DF36
  8
SLIM
 10
11915.0
 20
-1244.4076836320751
 30
0.0
 11
12085.0
 21
-1074.4076836320719
 31
0.0
1001
ACAD
1010
0.0
1020
0.0
1030
0.0
1001
ACDBBLOCKREPETAG
1070
     1
1071
       36
1005
11DF36
  0
LINE
  5
11DF37
  8
SLIM
 10
11915.575570103911
 20
-1261.7926257703
 30
0.0
 11
12085.0
 21
-1092.36819587421
 31
0.0
1001
ACAD
1010
0.0
1020
0.0
1030
0.0
1001
ACDBBLOCKREPETAG
1070
     1
1071
       37
1005
11DF37
  0
LINE
  5
11DF38
  8
SLIM
 10
11917.789879832389
 20
-1277.5388282839549
 30
0.0
 11
12085.0
 21
-1110.328708116348
 31
0.0
1001
ACAD
1010
0.0
1020
0.0
1030
0.0
1001
ACDBBLOCKREPETAG
1070
     1
1071
       38
1005
11DF38
  0
LINE
  5
11DF39
  8
SLIM
 10
11920.004189560879
 20
-1293.28503079761
 30
0.0
 11
12085.0
 21
-1128.289220358487
 31
0.0
1001
ACAD
1010
0.0
1020
0.0
1030
0.0
1001
ACDBBLOCKREPETAG
1070
     1
1071
       39
1005
11DF39
  0
LINE
  5
11DF3A
  8
SLIM
 10
11922.21849928936
 20
-1309.0312333112661
 30
0.0
 11
12085.0
 21
-1146.249732600626
 31
0.0
1001
ACAD
1010
0.0
1020
0.0
1030
0.0
1001
ACDBBLOCKREPETAG
1070
     1
1071
       40
1005
11DF3A
  0
LINE
  5
11DF3B
  8
SLIM
 10
11924.432809017841
 20
-1324.777435824921
 30
0.0
 11
12085.0
 21
-1164.210244842765
 31
0.0
1001
ACAD
1010
0.0
1020
0.0
1030
0.0
1001
ACDBBLOCKREPETAG
1070
     1
1071
       41
1005
11DF3B
  0
LINE
  5
11DF3C
  8
SLIM
 10
11926.64711874633
 20
-1340.523638338577
 30
0.0
 11
12085.0
 21
-1182.170757084903
 31
0.0
1001
ACAD
1010
0.0
1020
0.0
1030
0.0
1001
ACDBBLOCKREPETAG
1070
     1
1071
       42
1005
11DF3C
  0
LINE
  5
11DF3D
  8
SLIM
 10
11928.861428474809
 20
-1356.2698408522319
 30
0.0
 11
12085.0
 21
-1200.131269327042
 31
0.0
1001
ACAD
1010
0.0
1020
0.0
1030
0.0
1001
ACDBBLOCKREPETAG
1070
     1
1071
       43
1005
11DF3D
  0
LINE
  5
11DF3E
  8
SLIM
 10
11931.07573820329
 20
-1372.0160433658871
 30
0.0
 11
12085.0
 21
-1218.0917815691801
 31
0.0
1001
ACAD
1010
0.0
1020
0.0
1030
0.0
1001
ACDBBLOCKREPETAG
1070
     1
1071
       44
1005
11DF3E
  0
LINE
  5
11DF3F
  8
SLIM
 10
11932.999999999991
 20
-1388.0522938113261
 30
0.0
 11
12085.0
 21
-1236.052293811319
 31
0.0
1001
ACAD
1010
0.0
1020
0.0
1030
0.0
1001
ACDBBLOCKREPETAG
1070
     1
1071
       45
1005
11DF3F
  0
LINE
  5
11DF40
  8
SLIM
 10
11932.999999999991
 20
-1406.0128060534651
 30
0.0
 11
12085.0
 21
-1254.0128060534571
 31
0.0
1001
ACAD
1010
0.0
1020
0.0
1030
0.0
1001
ACDBBLOCKREPETAG
1070
     1
1071
       46
1005
11DF40
  0
LINE
  5
11DF41
  8
SLIM
 10
11932.999999999991
 20
-1423.973318295602
 30
0.0
 11
12082.664314193131
 21
-1274.3090041024641
 31
0.0
1001
ACAD
1010
0.0
1020
0.0
1030
0.0
1001
ACDBBLOCKREPETAG
1070
     1
1071
       47
1005
11DF41
  0
LINE
  5
11DF42
  8
SLIM
 10
11949.93383053773
 20
-1424.999999999997
 30
0.0
 11
12079.725321280779
 21
-1295.2085092569521
 31
0.0
1001
ACAD
1010
0.0
1020
0.0
1030
0.0
1001
ACDBBLOCKREPETAG
1070
     1
1071
       48
1005
11DF42
  0
LINE
  5
11DF43
  8
SLIM
 10
11967.89434277986
 20
-1424.999999999997
 30
0.0
 11
12076.78632836842
 21
-1316.1080144114389
 31
0.0
1001
ACAD
1010
0.0
1020
0.0
1030
0.0
1001
ACDBBLOCKREPETAG
1070
     1
1071
       49
1005
11DF43
  0
LINE
  5
11DF44
  8
SLIM
 10
11985.854855022009
 20
-1424.999999999998
 30
0.0
 11
12073.847335456079
 21
-1337.007519565926
 31
0.0
1001
ACAD
1010
0.0
1020
0.0
1030
0.0
1001
ACDBBLOCKREPETAG
1070
     1
1071
       50
1005
11DF44
  0
LINE
  5
11DF45
  8
SLIM
 10
12003.815367264149
 20
-1424.999999999998
 30
0.0
 11
12070.908342543729
 21
-1357.907024720414
 31
0.0
1001
ACAD
1010
0.0
1020
0.0
1030
0.0
1001
ACDBBLOCKREPETAG
1070
     1
1071
       51
1005
11DF45
  0
LINE
  5
11DF46
  8
SLIM
 10
12021.775879506289
 20
-1424.999999999998
 30
0.0
 11
12067.969349631379
 21
-1378.8065298749009
 31
0.0
1001
ACAD
1010
0.0
1020
0.0
1030
0.0
1001
ACDBBLOCKREPETAG
1070
     1
1071
       52
1005
11DF46
  0
LINE
  5
11DF47
  8
SLIM
 10
12039.736391748431
 20
-1424.9999999999991
 30
0.0
 11
12067.0
 21
-1397.7363917484149
 31
0.0
1001
ACAD
1010
0.0
1020
0.0
1030
0.0
1001
ACDBBLOCKREPETAG
1070
     1
1071
       53
1005
11DF47
  0
LINE
  5
11DF48
  8
SLIM
 10
12057.69690399056
 20
-1425.0
 30
0.0
 11
12067.0
 21
-1415.696903990553
 31
0.0
1001
ACAD
1010
0.0
1020
0.0
1030
0.0
1001
ACDBBLOCKREPETAG
1070
     1
1071
       54
1005
11DF48
  0
LINE
  5
11DF49
  8
OBJECT
 10
11932.999999999991
 20
-1424.9999999999959
 30
0.0
 11
12067.0
 21
-1425.0
 31
0.0
1001
ACDBBLOCKREPETAG
1070
     1
1071
        1
1005
11DF49
  0
LINE
  5
11DF4A
  8
OBJECT
 10
11914.999999999991
 20
-755.0
 30
0.0
 11
11915.0
 21
-1257.699682809141
 31
0.0
1001
ACDBBLOCKREPETAG
1070
     1
1071
        2
1005
11DF4A
  0
LINE
  5
11DF4B
  8
OBJECT
 10
12085.000000000009
 20
-755.0
 30
0.0
 11
12085.0
 21
-1257.6996828091719
 31
0.0
1001
ACDBBLOCKREPETAG
1070
     1
1071
        3
1005
11DF4B
  0
LINE
  5
11DF4C
  8
OBJECT
 10
11915.0
 20
-1257.699682809141
 30
0.0
 11
11932.999999999991
 21
-1385.699682809081
 31
0.0
1001
ACDBBLOCKREPETAG
1070
     1
1071
        4
1005
11DF4C
  0
LINE
  5
11DF4D
  8
OBJECT
 10
12067.0
 20
-1385.6996828091289
 30
0.0
 11
12085.0
 21
-1257.6996828091719
 31
0.0
1001
ACDBBLOCKREPETAG
1070
     1
1071
        5
1005
11DF4D
  0
LINE
  5
11DF4E
  8
OBJECT
 10
12085.000000000009
 20
-755.0
 30
0.0
 11
11914.999999999991
 21
-755.0
 31
0.0
1001
ACDBBLOCKREPETAG
1070
     1
1071
        6
1005
11DF4E
  0
LINE
  5
11DF4F
  8
OBJECT
 10
11932.999999999991
 20
-1385.699682809081
 30
0.0
 11
11932.999999999991
 21
-1424.9999999999959
 31
0.0
1001
ACDBBLOCKREPETAG
1070
     1
1071
        8
1005
11DF4F
  0
LINE
  5
11DF50
  8
OBJECT
 10
12067.0
 20
-1385.6996828091289
 30
0.0
 11
12067.0
 21
-1425.0
 31
0.0
1001
ACDBBLOCKREPETAG
1070
     1
1071
        9
1005
11DF50
  0
LINE
  5
11DF51
  8
SLIM
 10
9914.9999999999927
 20
-759.47385309434753
 30
0.0
 11
9919.4738530943396
 21
-755.0
 31
0.0
1001
ACAD
1010
0.0
1020
0.0
1030
0.0
1001
ACDBBLOCKREPETAG
1070
     1
1071
        0
1005
0
  0
LINE
  5
11DF52
  8
SLIM
 10
9914.9999999999927
 20
-777.4343653364856
 30
0.0
 11
9937.4343653364795
 21
-755.0
 31
0.0
1001
ACAD
1010
0.0
1020
0.0
1030
0.0
1001
ACDBBLOCKREPETAG
1070
     1
1071
       10
1005
11DF52
  0
LINE
  5
11DF53
  8
SLIM
 10
9914.9999999999927
 20
-795.39487757862355
 30
0.0
 11
9955.3948775786212
 21
-755.0
 31
0.0
1001
ACAD
1010
0.0
1020
0.0
1030
0.0
1001
ACDBBLOCKREPETAG
1070
     1
1071
       11
1005
11DF53
  0
LINE
  5
11DF54
  8
SLIM
 10
9914.9999999999927
 20
-813.35538982076173
 30
0.0
 11
9973.3553898207556
 21
-755.0
 31
0.0
1001
ACAD
1010
0.0
1020
0.0
1030
0.0
1001
ACDBBLOCKREPETAG
1070
     1
1071
       12
1005
11DF54
  0
LINE
  5
11DF55
  8
SLIM
 10
9914.9999999999945
 20
-831.31590206289945
 30
0.0
 11
9991.3159020628937
 21
-755.0
 31
0.0
1001
ACAD
1010
0.0
1020
0.0
1030
0.0
1001
ACDBBLOCKREPETAG
1070
     1
1071
       13
1005
11DF55
  0
LINE
  5
11DF56
  8
SLIM
 10
9914.9999999999945
 20
-849.27641430503763
 30
0.0
 11
10009.27641430503
 21
-755.0
 31
0.0
1001
ACAD
1010
0.0
1020
0.0
1030
0.0
1001
ACDBBLOCKREPETAG
1070
     1
1071
       14
1005
11DF56
  0
LINE
  5
11DF57
  8
SLIM
 10
9914.9999999999945
 20
-867.23692654717593
 30
0.0
 11
10027.23692654717
 21
-755.0
 31
0.0
1001
ACAD
1010
0.0
1020
0.0
1030
0.0
1001
ACDBBLOCKREPETAG
1070
     1
1071
       15
1005
11DF57
  0
LINE
  5
11DF58
  8
SLIM
 10
9914.9999999999945
 20
-885.19743878931376
 30
0.0
 11
10045.19743878931
 21
-755.0
 31
0.0
1001
ACAD
1010
0.0
1020
0.0
1030
0.0
1001
ACDBBLOCKREPETAG
1070
     1
1071
       16
1005
11DF58
  0
LINE
  5
11DF59
  8
SLIM
 10
9914.9999999999945
 20
-903.15795103145194
 30
0.0
 11
10063.15795103144
 21
-755.0
 31
0.0
1001
ACAD
1010
0.0
1020
0.0
1030
0.0
1001
ACDBBLOCKREPETAG
1070
     1
1071
       17
1005
11DF59
  0
LINE
  5
11DF5A
  8
SLIM
 10
9914.9999999999945
 20
-921.11846327358978
 30
0.0
 11
10081.11846327358
 21
-755.0
 31
0.0
1001
ACAD
1010
0.0
1020
0.0
1030
0.0
1001
ACDBBLOCKREPETAG
1070
     1
1071
       18
1005
11DF5A
  0
LINE
  5
11DF5B
  8
SLIM
 10
9914.9999999999945
 20
-939.07897551572796
 30
0.0
 11
10085.000000000009
 21
-769.07897551571648
 31
0.0
1001
ACAD
1010
0.0
1020
0.0
1030
0.0
1001
ACDBBLOCKREPETAG
1070
     1
1071
       19
1005
11DF5B
  0
LINE
  5
11DF5C
  8
SLIM
 10
9914.9999999999964
 20
-957.0394877578658
 30
0.0
 11
10085.000000000009
 21
-787.03948775785511
 31
0.0
1001
ACAD
1010
0.0
1020
0.0
1030
0.0
1001
ACDBBLOCKREPETAG
1070
     1
1071
       20
1005
11DF5C
  0
LINE
  5
11DF5D
  8
SLIM
 10
9914.9999999999964
 20
-975.00000000000398
 30
0.0
 11
10085.0
 21
-804.99999999999363
 31
0.0
1001
ACAD
1010
0.0
1020
0.0
1030
0.0
1001
ACDBBLOCKREPETAG
1070
     1
1071
       21
1005
11DF5D
  0
LINE
  5
11DF5E
  8
SLIM
 10
9914.9999999999964
 20
-992.96051224214204
 30
0.0
 11
10085.0
 21
-822.96051224213215
 31
0.0
1001
ACAD
1010
0.0
1020
0.0
1030
0.0
1001
ACDBBLOCKREPETAG
1070
     1
1071
       22
1005
11DF5E
  0
LINE
  5
11DF5F
  8
SLIM
 10
9914.9999999999964
 20
-1010.92102448428
 30
0.0
 11
10085.0
 21
-840.92102448427045
 31
0.0
1001
ACAD
1010
0.0
1020
0.0
1030
0.0
1001
ACDBBLOCKREPETAG
1070
     1
1071
       23
1005
11DF5F
  0
LINE
  5
11DF60
  8
SLIM
 10
9914.9999999999964
 20
-1028.8815367264181
 30
0.0
 11
10085.0
 21
-858.88153672640931
 31
0.0
1001
ACAD
1010
0.0
1020
0.0
1030
0.0
1001
ACDBBLOCKREPETAG
1070
     1
1071
       24
1005
11DF60
  0
LINE
  5
11DF61
  8
SLIM
 10
9914.9999999999964
 20
-1046.8420489685559
 30
0.0
 11
10085.0
 21
-876.84204896854783
 31
0.0
1001
ACAD
1010
0.0
1020
0.0
1030
0.0
1001
ACDBBLOCKREPETAG
1070
     1
1071
       25
1005
11DF61
  0
LINE
  5
11DF62
  8
SLIM
 10
9914.9999999999964
 20
-1064.802561210694
 30
0.0
 11
10085.0
 21
-894.80256121068624
 31
0.0
1001
ACAD
1010
0.0
1020
0.0
1030
0.0
1001
ACDBBLOCKREPETAG
1070
     1
1071
       26
1005
11DF62
  0
LINE
  5
11DF63
  8
SLIM
 10
9914.9999999999982
 20
-1082.763073452832
 30
0.0
 11
10085.0
 21
-912.76307345282476
 31
0.0
1001
ACAD
1010
0.0
1020
0.0
1030
0.0
1001
ACDBBLOCKREPETAG
1070
     1
1071
       27
1005
11DF63
  0
LINE
  5
11DF64
  8
SLIM
 10
9914.9999999999982
 20
-1100.7235856949701
 30
0.0
 11
10085.0
 21
-930.72358569496362
 31
0.0
1001
ACAD
1010
0.0
1020
0.0
1030
0.0
1001
ACDBBLOCKREPETAG
1070
     1
1071
       28
1005
11DF64
  0
LINE
  5
11DF65
  8
SLIM
 10
9914.9999999999982
 20
-1118.6840979371079
 30
0.0
 11
10085.0
 21
-948.68409793710202
 31
0.0
1001
ACAD
1010
0.0
1020
0.0
1030
0.0
1001
ACDBBLOCKREPETAG
1070
     1
1071
       29
1005
11DF65
  0
LINE
  5
11DF66
  8
SLIM
 10
9914.9999999999982
 20
-1136.644610179246
 30
0.0
 11
10085.0
 21
-966.64461017924043
 31
0.0
1001
ACAD
1010
0.0
1020
0.0
1030
0.0
1001
ACDBBLOCKREPETAG
1070
     1
1071
       30
1005
11DF66
  0
LINE
  5
11DF67
  8
SLIM
 10
9914.9999999999982
 20
-1154.6051224213841
 30
0.0
 11
10085.0
 21
-984.60512242137895
 31
0.0
1001
ACAD
1010
0.0
1020
0.0
1030
0.0
1001
ACDBBLOCKREPETAG
1070
     1
1071
       31
1005
11DF67
  0
LINE
  5
11DF68
  8
SLIM
 10
9914.9999999999982
 20
-1172.5656346635219
 30
0.0
 11
10085.0
 21
-1002.565634663517
 31
0.0
1001
ACAD
1010
0.0
1020
0.0
1030
0.0
1001
ACDBBLOCKREPETAG
1070
     1
1071
       32
1005
11DF68
  0
LINE
  5
11DF69
  8
SLIM
 10
9914.9999999999982
 20
-1190.52614690566
 30
0.0
 11
10085.0
 21
-1020.526146905656
 31
0.0
1001
ACAD
1010
0.0
1020
0.0
1030
0.0
1001
ACDBBLOCKREPETAG
1070
     1
1071
       33
1005
11DF69
  0
LINE
  5
11DF6A
  8
SLIM
 10
9915.0
 20
-1208.4866591477989
 30
0.0
 11
10085.0
 21
-1038.4866591477951
 31
0.0
1001
ACAD
1010
0.0
1020
0.0
1030
0.0
1001
ACDBBLOCKREPETAG
1070
     1
1071
       34
1005
11DF6A
  0
LINE
  5
11DF6B
  8
SLIM
 10
9915.0
 20
-1226.447171389937
 30
0.0
 11
10085.0
 21
-1056.447171389932
 31
0.0
1001
ACAD
1010
0.0
1020
0.0
1030
0.0
1001
ACDBBLOCKREPETAG
1070
     1
1071
       35
1005
11DF6B
  0
LINE
  5
11DF6C
  8
SLIM
 10
9915.0
 20
-1244.4076836320751
 30
0.0
 11
10085.0
 21
-1074.4076836320719
 31
0.0
1001
ACAD
1010
0.0
1020
0.0
1030
0.0
1001
ACDBBLOCKREPETAG
1070
     1
1071
       36
1005
11DF6C
  0
LINE
  5
11DF6D
  8
SLIM
 10
9915.5755701039125
 20
-1261.7926257703
 30
0.0
 11
10085.0
 21
-1092.36819587421
 31
0.0
1001
ACAD
1010
0.0
1020
0.0
1030
0.0
1001
ACDBBLOCKREPETAG
1070
     1
1071
       37
1005
11DF6D
  0
LINE
  5
11DF6E
  8
SLIM
 10
9917.7898798323986
 20
-1277.5388282839549
 30
0.0
 11
10085.0
 21
-1110.328708116348
 31
0.0
1001
ACAD
1010
0.0
1020
0.0
1030
0.0
1001
ACDBBLOCKREPETAG
1070
     1
1071
       38
1005
11DF6E
  0
LINE
  5
11DF6F
  8
SLIM
 10
9920.0041895608792
 20
-1293.28503079761
 30
0.0
 11
10085.0
 21
-1128.289220358487
 31
0.0
1001
ACAD
1010
0.0
1020
0.0
1030
0.0
1001
ACDBBLOCKREPETAG
1070
     1
1071
       39
1005
11DF6F
  0
LINE
  5
11DF70
  8
SLIM
 10
9922.2184992893599
 20
-1309.0312333112661
 30
0.0
 11
10085.0
 21
-1146.249732600626
 31
0.0
1001
ACAD
1010
0.0
1020
0.0
1030
0.0
1001
ACDBBLOCKREPETAG
1070
     1
1071
       40
1005
11DF70
  0
LINE
  5
11DF71
  8
SLIM
 10
9924.4328090178442
 20
-1324.777435824921
 30
0.0
 11
10085.0
 21
-1164.210244842765
 31
0.0
1001
ACAD
1010
0.0
1020
0.0
1030
0.0
1001
ACDBBLOCKREPETAG
1070
     1
1071
       41
1005
11DF71
  0
LINE
  5
11DF72
  8
SLIM
 10
9926.6471187463285
 20
-1340.523638338577
 30
0.0
 11
10085.0
 21
-1182.170757084903
 31
0.0
1001
ACAD
1010
0.0
1020
0.0
1030
0.0
1001
ACDBBLOCKREPETAG
1070
     1
1071
       42
1005
11DF72
  0
LINE
  5
11DF73
  8
SLIM
 10
9928.8614284748091
 20
-1356.2698408522319
 30
0.0
 11
10085.0
 21
-1200.131269327042
 31
0.0
1001
ACAD
1010
0.0
1020
0.0
1030
0.0
1001
ACDBBLOCKREPETAG
1070
     1
1071
       43
1005
11DF73
  0
LINE
  5
11DF74
  8
SLIM
 10
9931.0757382032916
 20
-1372.0160433658871
 30
0.0
 11
10085.0
 21
-1218.0917815691801
 31
0.0
1001
ACAD
1010
0.0
1020
0.0
1030
0.0
1001
ACDBBLOCKREPETAG
1070
     1
1071
       44
1005
11DF74
  0
LINE
  5
11DF75
  8
SLIM
 10
9932.9999999999927
 20
-1388.0522938113261
 30
0.0
 11
10085.0
 21
-1236.052293811319
 31
0.0
1001
ACAD
1010
0.0
1020
0.0
1030
0.0
1001
ACDBBLOCKREPETAG
1070
     1
1071
       45
1005
11DF75
  0
LINE
  5
11DF76
  8
SLIM
 10
9932.9999999999927
 20
-1406.0128060534651
 30
0.0
 11
10085.0
 21
-1254.0128060534571
 31
0.0
1001
ACAD
1010
0.0
1020
0.0
1030
0.0
1001
ACDBBLOCKREPETAG
1070
     1
1071
       46
1005
11DF76
  0
LINE
  5
11DF77
  8
SLIM
 10
9932.9999999999927
 20
-1423.973318295602
 30
0.0
 11
10082.664314193131
 21
-1274.3090041024641
 31
0.0
1001
ACAD
1010
0.0
1020
0.0
1030
0.0
1001
ACDBBLOCKREPETAG
1070
     1
1071
       47
1005
11DF77
  0
LINE
  5
11DF78
  8
SLIM
 10
9949.9338305377387
 20
-1424.999999999997
 30
0.0
 11
10079.725321280779
 21
-1295.2085092569521
 31
0.0
1001
ACAD
1010
0.0
1020
0.0
1030
0.0
1001
ACDBBLOCKREPETAG
1070
     1
1071
       48
1005
11DF78
  0
LINE
  5
11DF79
  8
SLIM
 10
9967.8943427798768
 20
-1424.999999999997
 30
0.0
 11
10076.786328368429
 21
-1316.1080144114389
 31
0.0
1001
ACAD
1010
0.0
1020
0.0
1030
0.0
1001
ACDBBLOCKREPETAG
1070
     1
1071
       49
1005
11DF79
  0
LINE
  5
11DF7A
  8
SLIM
 10
9985.8548550220112
 20
-1424.999999999998
 30
0.0
 11
10073.847335456079
 21
-1337.007519565926
 31
0.0
1001
ACAD
1010
0.0
1020
0.0
1030
0.0
1001
ACDBBLOCKREPETAG
1070
     1
1071
       50
1005
11DF7A
  0
LINE
  5
11DF7B
  8
SLIM
 10
10003.815367264149
 20
-1424.999999999998
 30
0.0
 11
10070.90834254372
 21
-1357.907024720414
 31
0.0
1001
ACAD
1010
0.0
1020
0.0
1030
0.0
1001
ACDBBLOCKREPETAG
1070
     1
1071
       51
1005
11DF7B
  0
LINE
  5
11DF7C
  8
SLIM
 10
10021.77587950628
 20
-1424.999999999998
 30
0.0
 11
10067.969349631379
 21
-1378.8065298749009
 31
0.0
1001
ACAD
1010
0.0
1020
0.0
1030
0.0
1001
ACDBBLOCKREPETAG
1070
     1
1071
       52
1005
11DF7C
  0
LINE
  5
11DF7D
  8
SLIM
 10
10039.736391748431
 20
-1424.9999999999991
 30
0.0
 11
10067.000000000009
 21
-1397.7363917484149
 31
0.0
1001
ACAD
1010
0.0
1020
0.0
1030
0.0
1001
ACDBBLOCKREPETAG
1070
     1
1071
       53
1005
11DF7D
  0
LINE
  5
11DF7E
  8
SLIM
 10
10057.69690399056
 20
-1425.0
 30
0.0
 11
10067.000000000009
 21
-1415.696903990553
 31
0.0
1001
ACAD
1010
0.0
1020
0.0
1030
0.0
1001
ACDBBLOCKREPETAG
1070
     1
1071
       54
1005
11DF7E
  0
LINE
  5
11DF7F
  8
OBJECT
 10
9932.9999999999927
 20
-1424.9999999999959
 30
0.0
 11
10067.000000000009
 21
-1425.0
 31
0.0
1001
ACDBBLOCKREPETAG
1070
     1
1071
        1
1005
11DF7F
  0
LINE
  5
11DF80
  8
OBJECT
 10
9914.9999999999927
 20
-755.0
 30
0.0
 11
9915.0
 21
-1257.699682809141
 31
0.0
1001
ACDBBLOCKREPETAG
1070
     1
1071
        2
1005
11DF80
  0
LINE
  5
11DF81
  8
OBJECT
 10
10085.000000000009
 20
-755.0
 30
0.0
 11
10085.0
 21
-1257.6996828091719
 31
0.0
1001
ACDBBLOCKREPETAG
1070
     1
1071
        3
1005
11DF81
  0
LINE
  5
11DF82
  8
OBJECT
 10
9915.0
 20
-1257.699682809141
 30
0.0
 11
9932.9999999999927
 21
-1385.699682809081
 31
0.0
1001
ACDBBLOCKREPETAG
1070
     1
1071
        4
1005
11DF82
  0
LINE
  5
11DF83
  8
OBJECT
 10
10067.000000000009
 20
-1385.6996828091289
 30
0.0
 11
10085.0
 21
-1257.6996828091719
 31
0.0
1001
ACDBBLOCKREPETAG
1070
     1
1071
        5
1005
11DF83
  0
LINE
  5
11DF84
  8
OBJECT
 10
10085.000000000009
 20
-755.0
 30
0.0
 11
9914.9999999999927
 21
-755.0
 31
0.0
1001
ACDBBLOCKREPETAG
1070
     1
1071
        6
1005
11DF84
  0
LINE
  5
11DF85
  8
OBJECT
 10
9932.9999999999927
 20
-1385.699682809081
 30
0.0
 11
9932.9999999999927
 21
-1424.9999999999959
 31
0.0
1001
ACDBBLOCKREPETAG
1070
     1
1071
        8
1005
11DF85
  0
LINE
  5
11DF86
  8
OBJECT
 10
10067.000000000009
 20
-1385.6996828091289
 30
0.0
 11
10067.000000000009
 21
-1425.0
 31
0.0
1001
ACDBBLOCKREPETAG
1070
     1
1071
        9
1005
11DF86
  0
LINE
  5
11DF87
  8
SLIM
 10
7914.9999999999918
 20
-759.47385309434753
 30
0.0
 11
7919.4738530943414
 21
-755.0
 31
0.0
1001
ACAD
1010
0.0
1020
0.0
1030
0.0
1001
ACDBBLOCKREPETAG
1070
     1
1071
        0
1005
0
  0
LINE
  5
11DF88
  8
SLIM
 10
7914.9999999999918
 20
-777.4343653364856
 30
0.0
 11
7937.4343653364776
 21
-755.0
 31
0.0
1001
ACAD
1010
0.0
1020
0.0
1030
0.0
1001
ACDBBLOCKREPETAG
1070
     1
1071
       11
1005
11DF88
  0
LINE
  5
11DF89
  8
SLIM
 10
7914.9999999999918
 20
-795.39487757862355
 30
0.0
 11
7955.3948775786157
 21
-755.0
 31
0.0
1001
ACAD
1010
0.0
1020
0.0
1030
0.0
1001
ACDBBLOCKREPETAG
1070
     1
1071
       12
1005
11DF89
  0
LINE
  5
11DF8A
  8
SLIM
 10
7914.9999999999918
 20
-813.3553898207615
 30
0.0
 11
7973.3553898207538
 21
-755.0
 31
0.0
1001
ACAD
1010
0.0
1020
0.0
1030
0.0
1001
ACDBBLOCKREPETAG
1070
     1
1071
       13
1005
11DF8A
  0
LINE
  5
11DF8B
  8
SLIM
 10
7914.9999999999918
 20
-831.31590206289945
 30
0.0
 11
7991.3159020628918
 21
-755.0
 31
0.0
1001
ACAD
1010
0.0
1020
0.0
1030
0.0
1001
ACDBBLOCKREPETAG
1070
     1
1071
       14
1005
11DF8B
  0
LINE
  5
11DF8C
  8
SLIM
 10
7914.9999999999964
 20
-849.27641430503763
 30
0.0
 11
8009.2764143050308
 21
-755.0
 31
0.0
1001
ACAD
1010
0.0
1020
0.0
1030
0.0
1001
ACDBBLOCKREPETAG
1070
     1
1071
       15
1005
11DF8C
  0
LINE
  5
11DF8D
  8
SLIM
 10
7914.9999999999964
 20
-867.23692654717593
 30
0.0
 11
8027.2369265471707
 21
-755.0
 31
0.0
1001
ACAD
1010
0.0
1020
0.0
1030
0.0
1001
ACDBBLOCKREPETAG
1070
     1
1071
       16
1005
11DF8D
  0
LINE
  5
11DF8E
  8
SLIM
 10
7914.9999999999964
 20
-885.19743878931376
 30
0.0
 11
8045.1974387893079
 21
-755.0
 31
0.0
1001
ACAD
1010
0.0
1020
0.0
1030
0.0
1001
ACDBBLOCKREPETAG
1070
     1
1071
       17
1005
11DF8E
  0
LINE
  5
11DF8F
  8
SLIM
 10
7914.9999999999964
 20
-903.15795103145183
 30
0.0
 11
8063.1579510314468
 21
-755.0
 31
0.0
1001
ACAD
1010
0.0
1020
0.0
1030
0.0
1001
ACDBBLOCKREPETAG
1070
     1
1071
       18
1005
11DF8F
  0
LINE
  5
11DF90
  8
SLIM
 10
7914.9999999999982
 20
-921.11846327358978
 30
0.0
 11
8081.118463273584
 21
-755.0
 31
0.0
1001
ACAD
1010
0.0
1020
0.0
1030
0.0
1001
ACDBBLOCKREPETAG
1070
     1
1071
       19
1005
11DF90
  0
LINE
  5
11DF91
  8
SLIM
 10
7914.9999999999982
 20
-939.07897551572796
 30
0.0
 11
8085.0000000000064
 21
-769.07897551571637
 31
0.0
1001
ACAD
1010
0.0
1020
0.0
1030
0.0
1001
ACDBBLOCKREPETAG
1070
     1
1071
       20
1005
11DF91
  0
LINE
  5
11DF92
  8
SLIM
 10
7914.9999999999982
 20
-957.0394877578658
 30
0.0
 11
8085.0000000000064
 21
-787.03948775785511
 31
0.0
1001
ACAD
1010
0.0
1020
0.0
1030
0.0
1001
ACDBBLOCKREPETAG
1070
     1
1071
       21
1005
11DF92
  0
LINE
  5
11DF93
  8
SLIM
 10
7914.9999999999982
 20
-975.00000000000398
 30
0.0
 11
8085.0000000000064
 21
-804.99999999999363
 31
0.0
1001
ACAD
1010
0.0
1020
0.0
1030
0.0
1001
ACDBBLOCKREPETAG
1070
     1
1071
       22
1005
11DF93
  0
LINE
  5
11DF94
  8
SLIM
 10
7914.9999999999982
 20
-992.96051224214204
 30
0.0
 11
8085.0000000000064
 21
-822.96051224213215
 31
0.0
1001
ACAD
1010
0.0
1020
0.0
1030
0.0
1001
ACDBBLOCKREPETAG
1070
     1
1071
       23
1005
11DF94
  0
LINE
  5
11DF95
  8
SLIM
 10
7914.9999999999982
 20
-1010.92102448428
 30
0.0
 11
8085.0000000000064
 21
-840.92102448427045
 31
0.0
1001
ACAD
1010
0.0
1020
0.0
1030
0.0
1001
ACDBBLOCKREPETAG
1070
     1
1071
       24
1005
11DF95
  0
LINE
  5
11DF96
  8
SLIM
 10
7914.9999999999982
 20
-1028.8815367264181
 30
0.0
 11
8085.0000000000064
 21
-858.88153672640931
 31
0.0
1001
ACAD
1010
0.0
1020
0.0
1030
0.0
1001
ACDBBLOCKREPETAG
1070
     1
1071
       25
1005
11DF96
  0
LINE
  5
11DF97
  8
SLIM
 10
7914.9999999999982
 20
-1046.8420489685559
 30
0.0
 11
8085.0000000000064
 21
-876.84204896854783
 31
0.0
1001
ACAD
1010
0.0
1020
0.0
1030
0.0
1001
ACDBBLOCKREPETAG
1070
     1
1071
       26
1005
11DF97
  0
LINE
  5
11DF98
  8
SLIM
 10
7914.9999999999982
 20
-1064.802561210694
 30
0.0
 11
8085.0000000000064
 21
-894.80256121068624
 31
0.0
1001
ACAD
1010
0.0
1020
0.0
1030
0.0
1001
ACDBBLOCKREPETAG
1070
     1
1071
       27
1005
11DF98
  0
LINE
  5
11DF99
  8
SLIM
 10
7914.9999999999982
 20
-1082.763073452832
 30
0.0
 11
8085.0000000000064
 21
-912.76307345282476
 31
0.0
1001
ACAD
1010
0.0
1020
0.0
1030
0.0
1001
ACDBBLOCKREPETAG
1070
     1
1071
       28
1005
11DF99
  0
LINE
  5
11DF9A
  8
SLIM
 10
7914.9999999999982
 20
-1100.7235856949701
 30
0.0
 11
8085.0000000000064
 21
-930.72358569496362
 31
0.0
1001
ACAD
1010
0.0
1020
0.0
1030
0.0
1001
ACDBBLOCKREPETAG
1070
     1
1071
       29
1005
11DF9A
  0
LINE
  5
11DF9B
  8
SLIM
 10
7914.9999999999982
 20
-1118.6840979371079
 30
0.0
 11
8085.0000000000064
 21
-948.68409793710202
 31
0.0
1001
ACAD
1010
0.0
1020
0.0
1030
0.0
1001
ACDBBLOCKREPETAG
1070
     1
1071
       30
1005
11DF9B
  0
LINE
  5
11DF9C
  8
SLIM
 10
7914.9999999999982
 20
-1136.644610179246
 30
0.0
 11
8085.0000000000064
 21
-966.64461017924043
 31
0.0
1001
ACAD
1010
0.0
1020
0.0
1030
0.0
1001
ACDBBLOCKREPETAG
1070
     1
1071
       31
1005
11DF9C
  0
LINE
  5
11DF9D
  8
SLIM
 10
7914.9999999999982
 20
-1154.6051224213841
 30
0.0
 11
8085.0000000000018
 21
-984.60512242137895
 31
0.0
1001
ACAD
1010
0.0
1020
0.0
1030
0.0
1001
ACDBBLOCKREPETAG
1070
     1
1071
       32
1005
11DF9D
  0
LINE
  5
11DF9E
  8
SLIM
 10
7914.9999999999982
 20
-1172.5656346635219
 30
0.0
 11
8085.0000000000018
 21
-1002.565634663517
 31
0.0
1001
ACAD
1010
0.0
1020
0.0
1030
0.0
1001
ACDBBLOCKREPETAG
1070
     1
1071
       33
1005
11DF9E
  0
LINE
  5
11DF9F
  8
SLIM
 10
7914.9999999999982
 20
-1190.52614690566
 30
0.0
 11
8085.0000000000018
 21
-1020.526146905656
 31
0.0
1001
ACAD
1010
0.0
1020
0.0
1030
0.0
1001
ACDBBLOCKREPETAG
1070
     1
1071
       34
1005
11DF9F
  0
LINE
  5
11DFA0
  8
SLIM
 10
7914.9999999999982
 20
-1208.4866591477989
 30
0.0
 11
8085.0000000000018
 21
-1038.4866591477951
 31
0.0
1001
ACAD
1010
0.0
1020
0.0
1030
0.0
1001
ACDBBLOCKREPETAG
1070
     1
1071
       35
1005
11DFA0
  0
LINE
  5
11DFA1
  8
SLIM
 10
7914.9999999999982
 20
-1226.447171389937
 30
0.0
 11
8085.0000000000018
 21
-1056.447171389932
 31
0.0
1001
ACAD
1010
0.0
1020
0.0
1030
0.0
1001
ACDBBLOCKREPETAG
1070
     1
1071
       36
1005
11DFA1
  0
LINE
  5
11DFA2
  8
SLIM
 10
7915.0
 20
-1244.4076836320751
 30
0.0
 11
8085.0000000000018
 21
-1074.4076836320719
 31
0.0
1001
ACAD
1010
0.0
1020
0.0
1030
0.0
1001
ACDBBLOCKREPETAG
1070
     1
1071
       37
1005
11DFA2
  0
LINE
  5
11DFA3
  8
SLIM
 10
7915.5755701039097
 20
-1261.7926257703
 30
0.0
 11
8085.0000000000018
 21
-1092.36819587421
 31
0.0
1001
ACAD
1010
0.0
1020
0.0
1030
0.0
1001
ACDBBLOCKREPETAG
1070
     1
1071
       38
1005
11DFA3
  0
LINE
  5
11DFA4
  8
SLIM
 10
7917.7898798323949
 20
-1277.538828283956
 30
0.0
 11
8085.0000000000018
 21
-1110.328708116348
 31
0.0
1001
ACAD
1010
0.0
1020
0.0
1030
0.0
1001
ACDBBLOCKREPETAG
1070
     1
1071
       39
1005
11DFA4
  0
LINE
  5
11DFA5
  8
SLIM
 10
7920.0041895608774
 20
-1293.28503079761
 30
0.0
 11
8085.0000000000018
 21
-1128.289220358487
 31
0.0
1001
ACAD
1010
0.0
1020
0.0
1030
0.0
1001
ACDBBLOCKREPETAG
1070
     1
1071
       40
1005
11DFA5
  0
LINE
  5
11DFA6
  8
SLIM
 10
7922.2184992893599
 20
-1309.031233311267
 30
0.0
 11
8085.0000000000018
 21
-1146.249732600626
 31
0.0
1001
ACAD
1010
0.0
1020
0.0
1030
0.0
1001
ACDBBLOCKREPETAG
1070
     1
1071
       41
1005
11DFA6
  0
LINE
  5
11DFA7
  8
SLIM
 10
7924.4328090178433
 20
-1324.777435824923
 30
0.0
 11
8085.0
 21
-1164.210244842765
 31
0.0
1001
ACAD
1010
0.0
1020
0.0
1030
0.0
1001
ACDBBLOCKREPETAG
1070
     1
1071
       42
1005
11DFA7
  0
LINE
  5
11DFA8
  8
SLIM
 10
7926.647118746323
 20
-1340.5236383385779
 30
0.0
 11
8085.0
 21
-1182.170757084903
 31
0.0
1001
ACAD
1010
0.0
1020
0.0
1030
0.0
1001
ACDBBLOCKREPETAG
1070
     1
1071
       43
1005
11DFA8
  0
LINE
  5
11DFA9
  8
SLIM
 10
7928.8614284748082
 20
-1356.269840852234
 30
0.0
 11
8085.0
 21
-1200.131269327042
 31
0.0
1001
ACAD
1010
0.0
1020
0.0
1030
0.0
1001
ACDBBLOCKREPETAG
1070
     1
1071
       44
1005
11DFA9
  0
LINE
  5
11DFAA
  8
SLIM
 10
7931.0757382032898
 20
-1372.01604336589
 30
0.0
 11
8085.0
 21
-1218.0917815691801
 31
0.0
1001
ACAD
1010
0.0
1020
0.0
1030
0.0
1001
ACDBBLOCKREPETAG
1070
     1
1071
       45
1005
11DFAA
  0
LINE
  5
11DFAB
  8
SLIM
 10
7936.0522938113209
 20
-1385.0
 30
0.0
 11
8085.0
 21
-1236.052293811319
 31
0.0
1001
ACAD
1010
0.0
1020
0.0
1030
0.0
1001
ACDBBLOCKREPETAG
1070
     1
1071
       46
1005
11DFAB
  0
LINE
  5
11DFAC
  8
SLIM
 10
7943.0
 20
-1396.0128060534571
 30
0.0
 11
7954.0128060534598
 21
-1385.0
 31
0.0
1001
ACAD
1010
0.0
1020
0.0
1030
0.0
1001
ACDBBLOCKREPETAG
1070
     1
1071
       47
1005
11DFAC
  0
LINE
  5
11DFAD
  8
SLIM
 10
7954.0128060534598
 20
-1385.0
 30
0.0
 11
8085.0
 21
-1254.0128060534571
 31
0.0
1001
ACAD
1010
0.0
1020
0.0
1030
0.0
1001
ACDBBLOCKREPETAG
1070
     1
1071
       48
1005
11DFAD
  0
LINE
  5
11DFAE
  8
SLIM
 10
7946.973318295597
 20
-1410.0
 30
0.0
 11
7971.9733182955979
 21
-1385.0
 31
0.0
1001
ACAD
1010
0.0
1020
0.0
1030
0.0
1001
ACDBBLOCKREPETAG
1070
     1
1071
       49
1005
11DFAE
  0
LINE
  5
11DFAF
  8
SLIM
 10
7971.9733182955979
 20
-1385.0
 30
0.0
 11
8082.664314193129
 21
-1274.309004102465
 31
0.0
1001
ACAD
1010
0.0
1020
0.0
1030
0.0
1001
ACDBBLOCKREPETAG
1070
     1
1071
       50
1005
11DFAF
  0
LINE
  5
11DFB0
  8
SLIM
 10
7964.9338305377341
 20
-1410.0
 30
0.0
 11
7989.9338305377341
 21
-1385.0
 31
0.0
1001
ACAD
1010
0.0
1020
0.0
1030
0.0
1001
ACDBBLOCKREPETAG
1070
     1
1071
       51
1005
11DFB0
  0
LINE
  5
11DFB1
  8
SLIM
 10
7989.9338305377341
 20
-1385.0
 30
0.0
 11
8079.7253212807827
 21
-1295.208509256953
 31
0.0
1001
ACAD
1010
0.0
1020
0.0
1030
0.0
1001
ACDBBLOCKREPETAG
1070
     1
1071
       52
1005
11DFB1
  0
LINE
  5
11DFB2
  8
SLIM
 10
7982.8943427798713
 20
-1410.0
 30
0.0
 11
8007.8943427798722
 21
-1385.0
 31
0.0
1001
ACAD
1010
0.0
1020
0.0
1030
0.0
1001
ACDBBLOCKREPETAG
1070
     1
1071
       53
1005
11DFB2
  0
LINE
  5
11DFB3
  8
SLIM
 10
8007.8943427798722
 20
-1385.0
 30
0.0
 11
8076.786328368431
 21
-1316.108014411441
 31
0.0
1001
ACAD
1010
0.0
1020
0.0
1030
0.0
1001
ACDBBLOCKREPETAG
1070
     1
1071
       54
1005
11DFB3
  0
LINE
  5
11DFB4
  8
SLIM
 10
8000.8548550220103
 20
-1410.0
 30
0.0
 11
8025.8548550220094
 21
-1385.0
 31
0.0
1001
ACAD
1010
0.0
1020
0.0
1030
0.0
1001
ACDBBLOCKREPETAG
1070
     1
1071
       55
1005
11DFB4
  0
LINE
  5
11DFB5
  8
SLIM
 10
8025.8548550220094
 20
-1385.0
 30
0.0
 11
8073.8473354560829
 21
-1337.007519565929
 31
0.0
1001
ACAD
1010
0.0
1020
0.0
1030
0.0
1001
ACDBBLOCKREPETAG
1070
     1
1071
       56
1005
11DFB5
  0
LINE
  5
11DFB6
  8
SLIM
 10
8018.8153672641492
 20
-1410.0
 30
0.0
 11
8043.8153672641502
 21
-1385.0
 31
0.0
1001
ACAD
1010
0.0
1020
0.0
1030
0.0
1001
ACDBBLOCKREPETAG
1070
     1
1071
       57
1005
11DFB6
  0
LINE
  5
11DFB7
  8
SLIM
 10
8043.8153672641502
 20
-1385.0
 30
0.0
 11
8070.9083425437329
 21
-1357.907024720417
 31
0.0
1001
ACAD
1010
0.0
1020
0.0
1030
0.0
1001
ACDBBLOCKREPETAG
1070
     1
1071
       58
1005
11DFB7
  0
LINE
  5
11DFB8
  8
SLIM
 10
8036.7758795062846
 20
-1410.0
 30
0.0
 11
8057.0
 21
-1389.7758795062871
 31
0.0
1001
ACAD
1010
0.0
1020
0.0
1030
0.0
1001
ACDBBLOCKREPETAG
1070
     1
1071
       59
1005
11DFB8
  0
LINE
  5
11DFB9
  8
SLIM
 10
8061.7758795062846
 20
-1385.0
 30
0.0
 11
8067.9693496313812
 21
-1378.806529874905
 31
0.0
1001
ACAD
1010
0.0
1020
0.0
1030
0.0
1001
ACDBBLOCKREPETAG
1070
     1
1071
       60
1005
11DFB9
  0
LINE
  5
11DFBA
  8
SLIM
 10
8054.7363917484254
 20
-1410.0
 30
0.0
 11
8057.0
 21
-1407.7363917484261
 31
0.0
1001
ACAD
1010
0.0
1020
0.0
1030
0.0
1001
ACDBBLOCKREPETAG
1070
     1
1071
       61
1005
11DFBA
  0
LINE
  5
11DFBB
  8
OBJECT
 10
7943.0
 20
-1410.0
 30
0.0
 11
8057.0
 21
-1410.0
 31
0.0
1001
ACDBBLOCKREPETAG
1070
     1
1071
        1
1005
11DFBB
  0
LINE
  5
11DFBC
  8
OBJECT
 10
7932.9016071049627
 20
-1385.0
 30
0.0
 11
8067.09839289504
 21
-1385.0
 31
0.0
1001
ACDBBLOCKREPETAG
1070
     1
1071
        2
1005
11DFBC
  0
LINE
  5
11DFBD
  8
OBJECT
 10
7943.0
 20
-1410.0
 30
0.0
 11
7943.0
 21
-1385.0
 31
0.0
1001
ACDBBLOCKREPETAG
1070
     1
1071
        3
1005
11DFBD
  0
LINE
  5
11DFBE
  8
OBJECT
 10
8057.0
 20
-1410.0
 30
0.0
 11
8057.0
 21
-1385.0
 31
0.0
1001
ACDBBLOCKREPETAG
1070
     1
1071
        4
1005
11DFBE
  0
LINE
  5
11DFBF
  8
OBJECT
 10
7914.9999999999918
 20
-755.0
 30
0.0
 11
7915.0
 21
-1257.699682809143
 31
0.0
1001
ACDBBLOCKREPETAG
1070
     1
1071
        5
1005
11DFBF
  0
LINE
  5
11DFC0
  8
OBJECT
 10
8085.0000000000064
 20
-755.0
 30
0.0
 11
8085.0
 21
-1257.6996828091719
 31
0.0
1001
ACDBBLOCKREPETAG
1070
     1
1071
        6
1005
11DFC0
  0
LINE
  5
11DFC1
  8
OBJECT
 10
7915.0
 20
-1257.699682809143
 30
0.0
 11
7932.9016071049627
 21
-1385.0
 31
0.0
1001
ACDBBLOCKREPETAG
1070
     1
1071
        7
1005
11DFC1
  0
LINE
  5
11DFC2
  8
OBJECT
 10
8067.09839289504
 20
-1385.0
 30
0.0
 11
8085.0
 21
-1257.6996828091719
 31
0.0
1001
ACDBBLOCKREPETAG
1070
     1
1071
        8
1005
11DFC2
  0
LINE
  5
11DFC3
  8
OBJECT
 10
8085.0000000000064
 20
-755.0
 30
0.0
 11
7914.9999999999918
 21
-755.0
 31
0.0
1001
ACDBBLOCKREPETAG
1070
     1
1071
        9
1005
11DFC3
  0
LINE
  5
11DFC4
  8
OBJECT
 10
1923.0
 20
-571.0
 30
0.0
 11
1923.0
 21
-550.0
 31
0.0
1001
ACDBBLOCKREPETAG
1070
     1
1071
       38
1005
11DFC4
  0
LINE
  5
11DFC5
  8
OBJECT
 10
1923.0
 20
-550.0
 30
0.0
 11
2077.0
 21
-550.0
 31
0.0
1001
ACDBBLOCKREPETAG
1070
     1
1071
       39
1005
11DFC5
  0
LINE
  5
11DFC6
  8
HIDDEN
 10
1943.0
 20
-620.0
 30
0.0
 11
2057.0
 21
-620.0
 31
0.0
1001
ACDBBLOCKREPETAG
1070
     1
1071
       40
1005
11DFC6
  0
LINE
  5
11DFC7
  8
OBJECT
 10
2077.0
 20
-550.0
 30
0.0
 11
2077.0
 21
-571.0
 31
0.0
1001
ACDBBLOCKREPETAG
1070
     1
1071
       41
1005
11DFC7
  0
LINE
  5
11DFC8
  8
OBJECT
 10
2077.0
 20
-571.0
 30
0.0
 11
1923.0
 21
-571.0
 31
0.0
1001
ACDBBLOCKREPETAG
1070
     1
1071
       42
1005
11DFC8
  0
LINE
  5
11DFC9
  8
CENTER
 10
2000.0
 20
-535.0
 30
0.0
 11
2000.0
 21
-890.0
 31
0.0
1001
ACDBBLOCKREPETAG
1070
     1
1071
       43
1005
11DFC9
  0
LINE
  5
11DFCA
  8
OBJECT
 10
1928.0
 20
-571.0
 30
0.0
 11
1928.0
 21
-634.0
 31
0.0
1001
ACDBBLOCKREPETAG
1070
     1
1071
       44
1005
11DFCA
  0
LINE
  5
11DFCB
  8
OBJECT
 10
2072.0
 20
-634.0
 30
0.0
 11
2072.0
 21
-571.0
 31
0.0
1001
ACDBBLOCKREPETAG
1070
     1
1071
       45
1005
11DFCB
  0
LINE
  5
11DFCC
  8
OBJECT
 10
1920.0
 20
-878.0
 30
0.0
 11
2080.0
 21
-878.0
 31
0.0
1001
ACDBBLOCKREPETAG
1070
     1
1071
       46
1005
11DFCC
  0
LINE
  5
11DFCD
  8
OBJECT
 10
2080.0
 20
-634.0
 30
0.0
 11
1920.0
 21
-634.0
 31
0.0
1001
ACDBBLOCKREPETAG
1070
     1
1071
       47
1005
11DFCD
  0
LINE
  5
11DFCE
  8
OBJECT
 10
1920.0
 20
-878.0
 30
0.0
 11
1920.0
 21
-890.0
 31
0.0
1001
ACDBBLOCKREPETAG
1070
     1
1071
       48
1005
11DFCE
  0
LINE
  5
11DFCF
  8
OBJECT
 10
1920.0
 20
-890.0
 30
0.0
 11
2080.0
 21
-890.0
 31
0.0
1001
ACDBBLOCKREPETAG
1070
     1
1071
       49
1005
11DFCF
  0
LINE
  5
11DFD0
  8
OBJECT
 10
2080.0
 20
-890.0
 30
0.0
 11
2080.0
 21
-878.0
 31
0.0
1001
ACDBBLOCKREPETAG
1070
     1
1071
       50
1005
11DFD0
  0
LINE
  5
11DFD1
  8
OBJECT
 10
2074.9999999998622
 20
-757.99999999985096
 30
0.0
 11
2075.0
 21
-878.0
 31
0.0
1001
ACDBBLOCKREPETAG
1070
     1
1071
       54
1005
11DFD1
  0
LINE
  5
11DFD2
  8
OBJECT
 10
2074.9999908029849
 20
-757.99998602702181
 30
0.0
 11
2080.0
 21
-757.99998602702181
 31
0.0
1001
ACDBBLOCKREPETAG
1070
     1
1071
       55
1005
11DFD2
  0
LINE
  5
11DFD3
  8
OBJECT
 10
1925.000000000138
 20
-757.99999999985096
 30
0.0
 11
1925.0
 21
-878.0
 31
0.0
1001
ACDBBLOCKREPETAG
1070
     1
1071
       56
1005
11DFD3
  0
LINE
  5
11DFD4
  8
OBJECT
 10
1925.000009197013
 20
-757.99998602702181
 30
0.0
 11
1920.0
 21
-757.99998602702181
 31
0.0
1001
ACDBBLOCKREPETAG
1070
     1
1071
       57
1005
11DFD4
  0
ARC
  5
11DFD5
  8
OBJECT
 10
2200.6872746716731
 20
-749.40809941010752
 30
0.0
 40
170.6350503965856
 50
137.44134459184301
 51
149.91949581336559
1001
ACDBBLOCKREPETAG
1070
     1
1071
       58
1005
11DFD5
  0
ARC
  5
11DFD6
  8
OBJECT
 10
2200.6872746716731
 20
-642.59190058989225
 30
0.0
 40
170.6350503965856
 50
210.0805041866343
 51
222.55865540815699
1001
ACDBBLOCKREPETAG
1070
     1
1071
       59
1005
11DFD6
  0
ARC
  5
11DFD7
  8
OBJECT
 10
1799.312725328326
 20
-749.40809941010752
 30
0.0
 40
170.6350503965856
 50
30.080504186774089
 51
42.558655408382641
1001
ACDBBLOCKREPETAG
1070
     1
1071
       60
1005
11DFD7
  0
ARC
  5
11DFD8
  8
OBJECT
 10
1799.312725328326
 20
-642.59190058989225
 30
0.0
 40
170.6350503965856
 50
317.44134459161722
 51
329.91949581322592
1001
ACDBBLOCKREPETAG
1070
     1
1071
       61
1005
11DFD8
  0
POINT
  5
11DFD9
  8
DOTS
 10
2000.0
 20
-755.0
 30
0.0
1001
ACDBBLOCKREPETAG
1070
     1
1071
      185
1005
11DFD9
  0
TEXT
  5
11DFDA
  8
SLIM
 10
0.0
 20
670.0
 30
0.0
 40
100.0
  1
4SLT2-Z606-P140-0-S
 41
0.75
  0
TEXT
  5
11DFDB
  8
SLIM
 10
0.0
 20
520.0
 30
0.0
 40
100.0
  1
4SLT2-Z606-P140-0-W
 41
0.75
  0
LINE
  5
11DFDC
  8
OBJECT
 10
1969.4199755553
 20
-243.89888500818171
 30
0.0
 11
1979.856491823236
 21
-222.48688253356801
 31
0.0
1001
ACDBBLOCKREPETAG
1070
     1
1071
      305
1005
11DFDC
  0
LINE
  5
11DFDD
  8
OBJECT
 10
1965.2972169006091
 20
-240.71813901882729
 30
0.0
 11
1973.907102266508
 21
-223.05373004430751
 31
0.0
1001
ACDBBLOCKREPETAG
1070
     1
1071
      306
1005
11DFDD
  0
LINE
  5
11DFDE
  8
OBJECT
 10
2024.102933093302
 20
-243.80694712371681
 30
0.0
 11
2020.659656999997
 21
-232.55462199999889
 31
0.0
1001
ACDBBLOCKREPETAG
1070
     1
1071
      307
1005
11DFDE
  0
ARC
  5
11DFDF
  8
OBJECT
 10
1976.579695307315
 20
-207.1289369828437
 30
0.0
 40
60.031113246032611
 50
314.07020130418567
 51
322.33936106091278
1001
ACDBBLOCKREPETAG
1070
     1
1071
      308
1005
11DFDF
  0
LINE
  5
11DFE0
  8
OBJECT
 10
1986.7927499013749
 20
-218.22553374208019
 30
0.0
 11
2020.659656999997
 21
-232.5546219999969
 31
0.0
1001
ACDBBLOCKREPETAG
1070
     1
1071
      309
1005
11DFE0
  0
ARC
  5
11DFE1
  8
OBJECT
 10
1982.8961697619
 20
-227.4351299990567
 30
0.0
 40
10.0
 50
67.066778292923374
 51
154.0147343702935
1001
ACDBBLOCKREPETAG
1070
     1
1071
      310
1005
11DFE1
  0
ARC
  5
11DFE2
  8
OBJECT
 10
1986.1488390381271
 20
-225.55386256729159
 30
0.0
 40
7.0
 50
67.066778292923374
 51
154.01473377497121
1001
ACDBBLOCKREPETAG
1070
     1
1071
      311
1005
11DFE2
  0
CIRCLE
  5
11DFE3
  8
OBJECT
 10
2000.0
 20
-199.99999999999909
 30
0.0
 40
53.5
1001
ACDBBLOCKREPETAG
1070
     1
1071
      340
1005
11DFE3
  0
POINT
  5
11DFE4
  8
DOTS
 10
2000.0
 20
-199.99999999999909
 30
0.0
 50
270.0
1001
ACDBBLOCKREPETAG
1070
     1
1071
      153
1005
11DFE4
  0
ARC
  5
11DFE5
  8
OBJECT
 10
2000.0
 20
-199.99999999999909
 30
0.0
 40
50.0
 50
298.81994300000417
 51
228.52376955967449
1001
ACDBBLOCKREPETAG
1070
     1
1071
       48
1005
11DFE5
  0
LINE
  5
11DFE6
  8
CENTER
 10
2080.0
 20
-199.99999999999909
 30
0.0
 11
1920.0
 21
-199.99999999999909
 31
0.0
1001
ACDBBLOCKREPETAG
1070
     1
1071
       49
1005
11DFE6
  0
LINE
  5
11DFE7
  8
CENTER
 10
2000.0
 20
-279.99999999999909
 30
0.0
 11
2000.0
 21
-104.9999999999991
 31
0.0
1001
ACDBBLOCKREPETAG
1070
     1
1071
       50
1005
11DFE7
  0
CIRCLE
  5
11DFE8
  8
OBJECT
 10
2000.0
 20
-199.99999999999909
 30
0.0
 40
70.0
1001
ACDBBLOCKREPETAG
1070
     1
1071
       51
1005
11DFE8
  0
CIRCLE
  5
11DFE9
  8
OBJECT
 10
2000.0
 20
-199.99999999999909
 30
0.0
 40
77.0
1001
ACDBBLOCKREPETAG
1070
     1
1071
       52
1005
11DFE9
  0
ARC
  5
11DFEA
  8
OBJECT
 10
2000.0
 20
-199.99999999999909
 30
0.0
 40
80.0
 50
50.805032573864182
 51
129.1949674261358
1001
ACDBBLOCKREPETAG
1070
     1
1071
       53
1005
11DFEA
  0
LINE
  5
11DFEB
  8
OBJECT
 10
2045.6618002273251
 20
-137.99999999999909
 30
0.0
 11
2080.0
 21
-137.99999999999909
 31
0.0
1001
ACDBBLOCKREPETAG
1070
     1
1071
       54
1005
11DFEB
  0
LINE
  5
11DFEC
  8
OBJECT
 10
2062.0
 20
-261.99999999999909
 30
0.0
 11
2080.0
 21
-261.99999999999909
 31
0.0
1001
ACDBBLOCKREPETAG
1070
     1
1071
       55
1005
11DFEC
  0
LINE
  5
11DFED
  8
OBJECT
 10
2062.0
 20
-261.99999999999909
 30
0.0
 11
2062.0
 21
-279.99999999999909
 31
0.0
1001
ACDBBLOCKREPETAG
1070
     1
1071
       57
1005
11DFED
  0
LINE
  5
11DFEE
  8
OBJECT
 10
1938.0
 20
-261.99999999999909
 30
0.0
 11
1938.0
 21
-279.99999999999909
 31
0.0
1001
ACDBBLOCKREPETAG
1070
     1
1071
       58
1005
11DFEE
  0
LINE
  5
11DFEF
  8
OBJECT
 10
1938.0
 20
-261.99999999999909
 30
0.0
 11
1920.0
 21
-261.99999999999909
 31
0.0
1001
ACDBBLOCKREPETAG
1070
     1
1071
       60
1005
11DFEF
  0
LINE
  5
11DFF0
  8
OBJECT
 10
1954.3381997726749
 20
-137.99999999999909
 30
0.0
 11
1920.0
 21
-137.99999999999909
 31
0.0
1001
ACDBBLOCKREPETAG
1070
     1
1071
       61
1005
11DFF0
  0
LINE
  5
11DFF1
  8
OBJECT
 10
1945.5527778486351
 20
-254.44722215136329
 30
0.0
 11
1938.0
 21
-261.99999999999909
 31
0.0
1001
ACDBBLOCKREPETAG
1070
     1
1071
       42
1005
11DFF1
  0
LINE
  5
11DFF2
  8
OBJECT
 10
2054.4472221513638
 20
-254.44722215136329
 30
0.0
 11
2062.0
 21
-261.99999999999909
 31
0.0
1001
ACDBBLOCKREPETAG
1070
     1
1071
       43
1005
11DFF2
  0
LINE
  5
11DFF3
  8
OBJECT
 10
1787.000000000018
 20
-137.99999999999909
 30
0.0
 11
1780.000000000018
 21
-137.99999999999909
 31
0.0
1001
ACDBBLOCKREPETAG
1070
     1
1071
      110
1005
11DFF3
  0
LINE
  5
11DFF4
  8
OBJECT
 10
1780.000000000018
 20
-137.99999999999909
 30
0.0
 11
1780.000000000018
 21
-261.99999999999909
 31
0.0
1001
ACDBBLOCKREPETAG
1070
     1
1071
      111
1005
11DFF4
  0
LINE
  5
11DFF5
  8
OBJECT
 10
1780.000000000018
 20
-261.99999999999909
 30
0.0
 11
1787.000000000018
 21
-261.99999999999909
 31
0.0
1001
ACDBBLOCKREPETAG
1070
     1
1071
      112
1005
11DFF5
  0
LINE
  5
11DFF6
  8
OBJECT
 10
1787.000000000018
 20
-261.99999999999909
 30
0.0
 11
1787.000000000018
 21
-137.99999999999909
 31
0.0
1001
ACDBBLOCKREPETAG
1070
     1
1071
      113
1005
11DFF6
  0
LINE
  5
11DFF7
  8
CENTER
 10
1765.000000000018
 20
-199.99999999999909
 30
0.0
 11
1920.0
 21
-199.99999999999909
 31
0.0
1001
ACDBBLOCKREPETAG
1070
     1
1071
      114
1005
11DFF7
  0
LINE
  5
11DFF8
  8
OBJECT
 10
1840.0000250358171
 20
-245.0000000000027
 30
0.0
 11
1914.000000000003
 21
-244.99999999999909
 31
0.0
1001
ACDBBLOCKREPETAG
1070
     1
1071
      115
1005
11DFF8
  0
LINE
  5
11DFF9
  8
OBJECT
 10
1840.0000250358171
 20
-154.99999999999909
 30
0.0
 11
1914.000000000003
 21
-154.99999999999909
 31
0.0
1001
ACDBBLOCKREPETAG
1070
     1
1071
      116
1005
11DFF9
  0
LINE
  5
11DFFA
  8
OBJECT
 10
1787.000000000018
 20
-140.99999999999909
 30
0.0
 11
1823.000000000018
 21
-140.99999999999909
 31
0.0
1001
ACDBBLOCKREPETAG
1070
     1
1071
      117
1005
11DFFA
  0
LINE
  5
11DFFB
  8
OBJECT
 10
1823.000000000018
 20
-140.99999999999909
 30
0.0
 11
1823.000000000018
 21
-258.99999999999909
 31
0.0
1001
ACDBBLOCKREPETAG
1070
     1
1071
      118
1005
11DFFB
  0
LINE
  5
11DFFC
  8
OBJECT
 10
1823.000000000018
 20
-258.99999999999909
 30
0.0
 11
1787.000000000018
 21
-258.99999999999909
 31
0.0
1001
ACDBBLOCKREPETAG
1070
     1
1071
      119
1005
11DFFC
  0
LINE
  5
11DFFD
  8
OBJECT
 10
1827.000000000018
 20
-145.49999999999909
 30
0.0
 11
1840.000000000018
 21
-145.49999999999909
 31
0.0
1001
ACDBBLOCKREPETAG
1070
     1
1071
      120
1005
11DFFD
  0
LINE
  5
11DFFE
  8
OBJECT
 10
1840.000000000018
 20
-254.49999999999909
 30
0.0
 11
1827.000000000018
 21
-254.49999999999909
 31
0.0
1001
ACDBBLOCKREPETAG
1070
     1
1071
      121
1005
11DFFE
  0
LINE
  5
11DFFF
  8
OBJECT
 10
1827.000000000018
 20
-254.49999999999909
 30
0.0
 11
1827.000000000018
 21
-145.49999999999909
 31
0.0
1001
ACDBBLOCKREPETAG
1070
     1
1071
      122
1005
11DFFF
  0
LINE
  5
11E000
  8
OBJECT
 10
1823.000000000018
 20
-140.99999999999909
 30
0.0
 11
1827.000000000018
 21
-145.49999999999909
 31
0.0
1001
ACDBBLOCKREPETAG
1070
     1
1071
      123
1005
11E000
  0
LINE
  5
11E001
  8
OBJECT
 10
1823.000000000018
 20
-258.99999999999909
 30
0.0
 11
1827.000000000018
 21
-254.49999999999909
 31
0.0
1001
ACDBBLOCKREPETAG
1070
     1
1071
      124
1005
11E001
  0
LINE
  5
11E002
  8
OBJECT
 10
1917.0000000000041
 20
-137.99999999999909
 30
0.0
 11
1920.0000000000041
 21
-137.99999999999909
 31
0.0
1001
ACDBBLOCKREPETAG
1070
     1
1071
      125
1005
11E002
  0
ARC
  5
11E003
  8
OBJECT
 10
1917.0000000000041
 20
-140.99999999999909
 30
0.0
 40
3.0
 50
90.0
 51
180.0
1001
ACDBBLOCKREPETAG
1070
     1
1071
      126
1005
11E003
  0
LINE
  5
11E004
  8
OBJECT
 10
1920.0000000000041
 20
-261.99999999999909
 30
0.0
 11
1917.0000000000041
 21
-261.99999999999909
 31
0.0
1001
ACDBBLOCKREPETAG
1070
     1
1071
      127
1005
11E004
  0
ARC
  5
11E005
  8
OBJECT
 10
1917.0000000000041
 20
-258.99999999999909
 30
0.0
 40
3.0
 50
180.0
 51
270.0
1001
ACDBBLOCKREPETAG
1070
     1
1071
      128
1005
11E005
  0
LINE
  5
11E006
  8
OBJECT
 10
1914.000000000003
 20
-258.99999999999909
 30
0.0
 11
1914.000000000003
 21
-222.44994432063581
 31
0.0
1001
ACDBBLOCKREPETAG
1070
     1
1071
      129
1005
11E006
  0
LINE
  5
11E007
  8
OBJECT
 10
1914.000000000003
 20
-177.55005567935859
 30
0.0
 11
1914.000000000003
 21
-140.99999999999909
 31
0.0
1001
ACDBBLOCKREPETAG
1070
     1
1071
      130
1005
11E007
  0
LINE
  5
11E008
  8
HIDDEN
 10
1832.000000000018
 20
-155.49999999999909
 30
0.0
 11
1832.000000000018
 21
-244.49999999999909
 31
0.0
1001
ACDBBLOCKREPETAG
1070
     1
1071
      131
1005
11E008
  0
LINE
  5
11E009
  8
OBJECT
 10
1840.0000250358171
 20
-254.4999509238105
 30
0.0
 11
1840.0000250358171
 21
-145.4999509238105
 31
0.0
1001
ACDBBLOCKREPETAG
1070
     1
1071
      133
1005
11E009
  0
ARC
  5
11E00A
  8
OBJECT
 10
1875.0
 20
-199.99999999999909
 30
0.0
 40
45.000000000000547
 50
270.0
 51
90.0
1001
ACDBBLOCKREPETAG
1070
     1
1071
      134
1005
11E00A
  0
LINE
  5
11E00B
  8
CENTER
 10
2000.0
 20
-300.99999999999898
 30
0.0
 11
2000.0
 21
-279.99999999999909
 31
0.0
1001
ACDBBLOCKREPETAG
1070
     1
1071
        0
1005
11E00B
  0
LINE
  5
11E00C
  8
OBJECT
 10
2062.0
 20
-283.0
 30
0.0
 11
2062.0
 21
-279.99999999999909
 31
0.0
1001
ACDBBLOCKREPETAG
1070
     1
1071
        1
1005
11E00C
  0
ARC
  5
11E00D
  8
OBJECT
 10
2059.0
 20
-283.0
 30
0.0
 40
3.0
 50
270.0
 51
0.0
1001
ACDBBLOCKREPETAG
1070
     1
1071
        2
1005
11E00D
  0
LINE
  5
11E00E
  8
OBJECT
 10
1938.0
 20
-279.99999999999909
 30
0.0
 11
1938.0
 21
-282.99999999999818
 31
0.0
1001
ACDBBLOCKREPETAG
1070
     1
1071
        3
1005
11E00E
  0
ARC
  5
11E00F
  8
OBJECT
 10
1941.0
 20
-282.99999999999818
 30
0.0
 40
3.0
 50
180.0
 51
270.0
1001
ACDBBLOCKREPETAG
1070
     1
1071
        4
1005
11E00F
  0
LINE
  5
11E010
  8
OBJECT
 10
1941.0
 20
-285.99999999999818
 30
0.0
 11
2059.0
 21
-286.0
 31
0.0
1001
ACDBBLOCKREPETAG
1070
     1
1071
        5
1005
11E010
  0
LINE
  5
11E011
  8
OBJECT
 10
2212.999999999985
 20
-137.99999999999909
 30
0.0
 11
2219.999999999985
 21
-137.99999999999909
 31
0.0
1001
ACDBBLOCKREPETAG
1070
     1
1071
      110
1005
11E011
  0
LINE
  5
11E012
  8
OBJECT
 10
2219.999999999985
 20
-137.99999999999909
 30
0.0
 11
2219.999999999985
 21
-261.99999999999909
 31
0.0
1001
ACDBBLOCKREPETAG
1070
     1
1071
      111
1005
11E012
  0
LINE
  5
11E013
  8
OBJECT
 10
2219.999999999985
 20
-261.99999999999909
 30
0.0
 11
2212.999999999985
 21
-261.99999999999909
 31
0.0
1001
ACDBBLOCKREPETAG
1070
     1
1071
      112
1005
11E013
  0
LINE
  5
11E014
  8
OBJECT
 10
2212.999999999985
 20
-261.99999999999909
 30
0.0
 11
2212.999999999985
 21
-137.99999999999909
 31
0.0
1001
ACDBBLOCKREPETAG
1070
     1
1071
      113
1005
11E014
  0
LINE
  5
11E015
  8
CENTER
 10
2234.9999999999859
 20
-199.99999999999909
 30
0.0
 11
2080.0000000000041
 21
-199.99999999999909
 31
0.0
1001
ACDBBLOCKREPETAG
1070
     1
1071
      114
1005
11E015
  0
LINE
  5
11E016
  8
OBJECT
 10
2159.999974964187
 20
-245.0000000000027
 30
0.0
 11
2086.0
 21
-244.99999999999909
 31
0.0
1001
ACDBBLOCKREPETAG
1070
     1
1071
      115
1005
11E016
  0
LINE
  5
11E017
  8
OBJECT
 10
2159.999974964187
 20
-154.99999999999909
 30
0.0
 11
2086.0
 21
-154.99999999999909
 31
0.0
1001
ACDBBLOCKREPETAG
1070
     1
1071
      116
1005
11E017
  0
LINE
  5
11E018
  8
OBJECT
 10
2212.999999999985
 20
-140.99999999999909
 30
0.0
 11
2176.999999999985
 21
-140.99999999999909
 31
0.0
1001
ACDBBLOCKREPETAG
1070
     1
1071
      117
1005
11E018
  0
LINE
  5
11E019
  8
OBJECT
 10
2176.999999999985
 20
-140.99999999999909
 30
0.0
 11
2176.999999999985
 21
-258.99999999999909
 31
0.0
1001
ACDBBLOCKREPETAG
1070
     1
1071
      118
1005
11E019
  0
LINE
  5
11E01A
  8
OBJECT
 10
2176.999999999985
 20
-258.99999999999909
 30
0.0
 11
2212.999999999985
 21
-258.99999999999909
 31
0.0
1001
ACDBBLOCKREPETAG
1070
     1
1071
      119
1005
11E01A
  0
LINE
  5
11E01B
  8
OBJECT
 10
2172.999999999985
 20
-145.49999999999909
 30
0.0
 11
2159.999999999985
 21
-145.49999999999909
 31
0.0
1001
ACDBBLOCKREPETAG
1070
     1
1071
      120
1005
11E01B
  0
LINE
  5
11E01C
  8
OBJECT
 10
2159.999999999985
 20
-254.49999999999909
 30
0.0
 11
2172.999999999985
 21
-254.49999999999909
 31
0.0
1001
ACDBBLOCKREPETAG
1070
     1
1071
      121
1005
11E01C
  0
LINE
  5
11E01D
  8
OBJECT
 10
2172.999999999985
 20
-254.49999999999909
 30
0.0
 11
2172.999999999985
 21
-145.49999999999909
 31
0.0
1001
ACDBBLOCKREPETAG
1070
     1
1071
      122
1005
11E01D
  0
LINE
  5
11E01E
  8
OBJECT
 10
2176.999999999985
 20
-140.99999999999909
 30
0.0
 11
2172.999999999985
 21
-145.49999999999909
 31
0.0
1001
ACDBBLOCKREPETAG
1070
     1
1071
      123
1005
11E01E
  0
LINE
  5
11E01F
  8
OBJECT
 10
2176.999999999985
 20
-258.99999999999909
 30
0.0
 11
2172.999999999985
 21
-254.49999999999909
 31
0.0
1001
ACDBBLOCKREPETAG
1070
     1
1071
      124
1005
11E01F
  0
LINE
  5
11E020
  8
OBJECT
 10
2083.0
 20
-137.99999999999909
 30
0.0
 11
2080.0
 21
-137.99999999999909
 31
0.0
1001
ACDBBLOCKREPETAG
1070
     1
1071
      125
1005
11E020
  0
ARC
  5
11E021
  8
OBJECT
 10
2083.0
 20
-140.99999999999909
 30
0.0
 40
3.0
 50
0.0
 51
90.0
1001
ACDBBLOCKREPETAG
1070
     1
1071
      126
1005
11E021
  0
LINE
  5
11E022
  8
OBJECT
 10
2080.0
 20
-261.99999999999909
 30
0.0
 11
2083.0
 21
-261.99999999999909
 31
0.0
1001
ACDBBLOCKREPETAG
1070
     1
1071
      127
1005
11E022
  0
ARC
  5
11E023
  8
OBJECT
 10
2083.0
 20
-258.99999999999909
 30
0.0
 40
3.0
 50
270.0
 51
0.0
1001
ACDBBLOCKREPETAG
1070
     1
1071
      128
1005
11E023
  0
LINE
  5
11E024
  8
OBJECT
 10
2086.0
 20
-258.99999999999909
 30
0.0
 11
2086.0
 21
-222.44994432063581
 31
0.0
1001
ACDBBLOCKREPETAG
1070
     1
1071
      129
1005
11E024
  0
LINE
  5
11E025
  8
OBJECT
 10
2086.0
 20
-177.55005567935859
 30
0.0
 11
2086.0
 21
-140.99999999999909
 31
0.0
1001
ACDBBLOCKREPETAG
1070
     1
1071
      130
1005
11E025
  0
LINE
  5
11E026
  8
HIDDEN
 10
2167.999999999985
 20
-155.49999999999909
 30
0.0
 11
2167.999999999985
 21
-244.49999999999909
 31
0.0
1001
ACDBBLOCKREPETAG
1070
     1
1071
      131
1005
11E026
  0
LINE
  5
11E027
  8
OBJECT
 10
2159.999974964187
 20
-254.4999509238105
 30
0.0
 11
2159.999974964187
 21
-145.4999509238105
 31
0.0
1001
ACDBBLOCKREPETAG
1070
     1
1071
      133
1005
11E027
  0
ARC
  5
11E028
  8
OBJECT
 10
2125.0000000000032
 20
-199.99999999999909
 30
0.0
 40
45.000000000000547
 50
90.0
 51
270.0
1001
ACDBBLOCKREPETAG
1070
     1
1071
      134
1005
11E028
  0
LINE
  5
11E029
  8
OBJECT
 10
12085.999999999991
 20
-1508.9999999999991
 30
0.0
 11
12085.999999999991
 21
-1518.9999999999991
 31
0.0
1001
ACDBBLOCKREPETAG
1070
     1
1071
      121
1005
11E029
  0
LINE
  5
11E02A
  8
OBJECT
 10
12069.999999999991
 20
-1508.9999999999991
 30
0.0
 11
12069.999999999991
 21
-1518.9999999999991
 31
0.0
1001
ACDBBLOCKREPETAG
1070
     1
1071
      122
1005
11E02A
  0
LINE
  5
11E02B
  8
OBJECT
 10
12085.999999999991
 20
-1518.9999999999991
 30
0.0
 11
12069.999999999991
 21
-1518.9999999999991
 31
0.0
1001
ACDBBLOCKREPETAG
1070
     1
1071
      123
1005
11E02B
  0
LINE
  5
11E02C
  8
OBJECT
 10
12090.0
 20
-1469.9999999999959
 30
0.0
 11
11924.0
 21
-1469.9999999999959
 31
0.0
1001
ACDBBLOCKREPETAG
1070
     1
1071
      124
1005
11E02C
  0
LINE
  5
11E02D
  8
OBJECT
 10
12090.0
 20
-1484.9999999999991
 30
0.0
 11
12090.0
 21
-1469.9999999999959
 31
0.0
1001
ACDBBLOCKREPETAG
1070
     1
1071
      125
1005
11E02D
  0
LINE
  5
11E02E
  8
OBJECT
 10
11924.0
 20
-1484.9999999999991
 30
0.0
 11
12090.0
 21
-1484.9999999999991
 31
0.0
1001
ACDBBLOCKREPETAG
1070
     1
1071
      126
1005
11E02E
  0
LINE
  5
11E02F
  8
OBJECT
 10
12067.49999999998
 20
-1484.9999999999991
 30
0.0
 11
12067.49999999998
 21
-1494.9999999999991
 31
0.0
1001
ACDBBLOCKREPETAG
1070
     1
1071
      127
1005
11E02F
  0
LINE
  5
11E030
  8
OBJECT
 10
12072.999999999991
 20
-1494.9999999999991
 30
0.0
 11
12072.999999999991
 21
-1484.9999999999991
 31
0.0
1001
ACDBBLOCKREPETAG
1070
     1
1071
      128
1005
11E030
  0
LINE
  5
11E031
  8
OBJECT
 10
12082.999999999991
 20
-1494.9999999999991
 30
0.0
 11
12082.999999999991
 21
-1484.9999999999991
 31
0.0
1001
ACDBBLOCKREPETAG
1070
     1
1071
      129
1005
11E031
  0
LINE
  5
11E032
  8
OBJECT
 10
11924.0
 20
-1494.9999999999991
 30
0.0
 11
11924.0
 21
-1508.9999999999959
 31
0.0
1001
ACDBBLOCKREPETAG
1070
     1
1071
      130
1005
11E032
  0
LINE
  5
11E033
  8
OBJECT
 10
12090.0
 20
-1494.9999999999991
 30
0.0
 11
12090.0
 21
-1508.9999999999959
 31
0.0
1001
ACDBBLOCKREPETAG
1070
     1
1071
      131
1005
11E033
  0
LINE
  5
11E034
  8
OBJECT
 10
11924.0
 20
-1508.9999999999959
 30
0.0
 11
12090.0
 21
-1508.9999999999959
 31
0.0
1001
ACDBBLOCKREPETAG
1070
     1
1071
      132
1005
11E034
  0
LINE
  5
11E035
  8
OBJECT
 10
11924.0
 20
-1494.9999999999991
 30
0.0
 11
12090.0
 21
-1494.9999999999991
 31
0.0
1001
ACDBBLOCKREPETAG
1070
     1
1071
      133
1005
11E035
  0
LINE
  5
11E036
  8
OBJECT
 10
11932.49999999998
 20
-1484.9999999999991
 30
0.0
 11
11932.49999999998
 21
-1494.9999999999991
 31
0.0
1001
ACDBBLOCKREPETAG
1070
     1
1071
      134
1005
11E036
  0
LINE
  5
11E037
  8
OBJECT
 10
11934.0
 20
-1433.9999999999959
 30
0.0
 11
12065.999999999991
 21
-1433.9999999999959
 31
0.0
1001
ACDBBLOCKREPETAG
1070
     1
1071
      135
1005
11E037
  0
LINE
  5
11E038
  8
OBJECT
 10
11924.0
 20
-1484.9999999999991
 30
0.0
 11
11924.0
 21
-1469.9999999999959
 31
0.0
1001
ACDBBLOCKREPETAG
1070
     1
1071
      136
1005
11E038
  0
LINE
  5
11E039
  8
HIDDEN
 10
11943.0
 20
-1444.9999999999991
 30
0.0
 11
12057.0
 21
-1444.9999999999991
 31
0.0
1001
ACDBBLOCKREPETAG
1070
     1
1071
      137
1005
11E039
  0
LINE
  5
11E03A
  8
OBJECT
 10
12086.999999999991
 20
-1468.2
 30
0.0
 11
12086.999999999991
 21
-1469.9999999999991
 31
0.0
1001
ACDBBLOCKREPETAG
1070
     1
1071
      138
1005
11E03A
  0
LINE
  5
11E03B
  8
OBJECT
 10
12068.999999999991
 20
-1468.2
 30
0.0
 11
12068.999999999991
 21
-1469.9999999999991
 31
0.0
1001
ACDBBLOCKREPETAG
1070
     1
1071
      139
1005
11E03B
  0
LINE
  5
11E03C
  8
OBJECT
 10
12072.249999999991
 20
-1458.4999999999991
 30
0.0
 11
12083.749999999991
 21
-1458.4999999999991
 31
0.0
1001
ACDBBLOCKREPETAG
1070
     1
1071
      140
1005
11E03C
  0
LINE
  5
11E03D
  8
OBJECT
 10
12072.249999999991
 20
-1458.4999999999991
 30
0.0
 11
12072.249999999991
 21
-1468.2
 31
0.0
1001
ACDBBLOCKREPETAG
1070
     1
1071
      141
1005
11E03D
  0
LINE
  5
11E03E
  8
OBJECT
 10
12083.749999999991
 20
-1458.4999999999991
 30
0.0
 11
12083.749999999991
 21
-1468.2
 31
0.0
1001
ACDBBLOCKREPETAG
1070
     1
1071
      142
1005
11E03E
  0
LINE
  5
11E03F
  8
OBJECT
 10
11931.99999999998
 20
-1550.0
 30
0.0
 11
12067.99999999998
 21
-1550.0
 31
0.0
1001
ACDBBLOCKREPETAG
1070
     1
1071
      143
1005
11E03F
  0
LINE
  5
11E040
  8
OBJECT
 10
11931.99999999998
 20
-1550.0
 30
0.0
 11
11931.99999999998
 21
-1508.9999999999991
 31
0.0
1001
ACDBBLOCKREPETAG
1070
     1
1071
      144
1005
11E040
  0
LINE
  5
11E041
  8
OBJECT
 10
12067.99999999998
 20
-1550.0
 30
0.0
 11
12067.99999999998
 21
-1508.9999999999991
 31
0.0
1001
ACDBBLOCKREPETAG
1070
     1
1071
      145
1005
11E041
  0
LINE
  5
11E042
  8
OBJECT
 10
12086.999999999991
 20
-1468.2
 30
0.0
 11
12068.999999999991
 21
-1468.2
 31
0.0
1001
ACDBBLOCKREPETAG
1070
     1
1071
      146
1005
11E042
  0
LINE
  5
11E043
  8
CENTER
 10
12000.0
 20
-1174.9999999999991
 30
0.0
 11
12000.0
 21
-1564.9999999999991
 31
0.0
1001
ACDBBLOCKREPETAG
1070
     1
1071
      147
1005
11E043
  0
LINE
  5
11E044
  8
OBJECT
 10
11925.0
 20
-1174.9999999999991
 30
0.0
 11
11925.0
 21
-1256.9999999999959
 31
0.0
1001
ACDBBLOCKREPETAG
1070
     1
1071
      148
1005
11E044
  0
LINE
  5
11E045
  8
OBJECT
 10
12075.0
 20
-1174.9999999999991
 30
0.0
 11
12075.0
 21
-1256.999999999992
 31
0.0
1001
ACDBBLOCKREPETAG
1070
     1
1071
      149
1005
11E045
  0
LINE
  5
11E046
  8
OBJECT
 10
11925.0
 20
-1256.9999999999959
 30
0.0
 11
12075.0
 21
-1256.999999999992
 31
0.0
1001
ACDBBLOCKREPETAG
1070
     1
1071
      150
1005
11E046
  0
LINE
  5
11E047
  8
OBJECT
 10
11943.0
 20
-1433.9999999999959
 30
0.0
 11
11943.0
 21
-1384.999999999992
 31
0.0
1001
ACDBBLOCKREPETAG
1070
     1
1071
      151
1005
11E047
  0
LINE
  5
11E048
  8
OBJECT
 10
12057.0
 20
-1384.999999999992
 30
0.0
 11
11943.0
 21
-1384.999999999992
 31
0.0
1001
ACDBBLOCKREPETAG
1070
     1
1071
      152
1005
11E048
  0
LINE
  5
11E049
  8
OBJECT
 10
12057.0
 20
-1384.999999999992
 30
0.0
 11
12057.0
 21
-1433.9999999999959
 31
0.0
1001
ACDBBLOCKREPETAG
1070
     1
1071
      153
1005
11E049
  0
LINE
  5
11E04A
  8
OBJECT
 10
11925.0
 20
-1256.9999999999959
 30
0.0
 11
11943.0
 21
-1384.999999999992
 31
0.0
1001
ACDBBLOCKREPETAG
1070
     1
1071
      154
1005
11E04A
  0
LINE
  5
11E04B
  8
OBJECT
 10
12057.0
 20
-1384.999999999992
 30
0.0
 11
12075.0
 21
-1256.999999999992
 31
0.0
1001
ACDBBLOCKREPETAG
1070
     1
1071
      155
1005
11E04B
  0
LINE
  5
11E04C
  8
OBJECT
 10
11934.0
 20
-1469.9999999999959
 30
0.0
 11
11934.0
 21
-1433.9999999999959
 31
0.0
1001
ACDBBLOCKREPETAG
1070
     1
1071
      156
1005
11E04C
  0
LINE
  5
11E04D
  8
OBJECT
 10
12066.0
 20
-1469.9999999999959
 30
0.0
 11
12065.999999999991
 21
-1433.9999999999959
 31
0.0
1001
ACDBBLOCKREPETAG
1070
     1
1071
      157
1005
11E04D
  0
LINE
  5
11E04E
  8
OBJECT
 10
11954.75
 20
-1459.699999999993
 30
0.0
 11
11967.25
 21
-1459.699999999993
 31
0.0
1001
ACDBBLOCKREPETAG
1070
     1
1071
      158
1005
11E04E
  0
LINE
  5
11E04F
  8
OBJECT
 10
11946.0
 20
-1469.9999999999959
 30
0.0
 11
11946.0
 21
-1467.699999999996
 31
0.0
1001
ACDBBLOCKREPETAG
1070
     1
1071
      159
1005
11E04F
  0
LINE
  5
11E050
  8
OBJECT
 10
11976.0
 20
-1469.9999999999959
 30
0.0
 11
11976.0
 21
-1467.699999999996
 31
0.0
1001
ACDBBLOCKREPETAG
1070
     1
1071
      160
1005
11E050
  0
LINE
  5
11E051
  8
OBJECT
 10
11954.75
 20
-1459.699999999993
 30
0.0
 11
11954.75
 21
-1467.699999999996
 31
0.0
1001
ACDBBLOCKREPETAG
1070
     1
1071
      161
1005
11E051
  0
LINE
  5
11E052
  8
OBJECT
 10
11967.25
 20
-1459.699999999993
 30
0.0
 11
11967.25
 21
-1467.699999999996
 31
0.0
1001
ACDBBLOCKREPETAG
1070
     1
1071
      162
1005
11E052
  0
LINE
  5
11E053
  8
OBJECT
 10
11946.0
 20
-1467.699999999996
 30
0.0
 11
11976.0
 21
-1467.699999999996
 31
0.0
1001
ACDBBLOCKREPETAG
1070
     1
1071
      163
1005
11E053
  0
LINE
  5
11E054
  8
OBJECT
 10
11953.0
 20
-1508.9999999999959
 30
0.0
 11
11953.0
 21
-1518.9999999999959
 31
0.0
1001
ACDBBLOCKREPETAG
1070
     1
1071
      164
1005
11E054
  0
LINE
  5
11E055
  8
OBJECT
 10
11969.0
 20
-1508.9999999999959
 30
0.0
 11
11969.0
 21
-1518.9999999999959
 31
0.0
1001
ACDBBLOCKREPETAG
1070
     1
1071
      165
1005
11E055
  0
LINE
  5
11E056
  8
OBJECT
 10
11953.0
 20
-1518.9999999999959
 30
0.0
 11
11969.0
 21
-1518.9999999999959
 31
0.0
1001
ACDBBLOCKREPETAG
1070
     1
1071
      166
1005
11E056
  0
LINE
  5
11E057
  8
OBJECT
 10
11966.0
 20
-1494.9999999999959
 30
0.0
 11
11966.0
 21
-1484.9999999999959
 31
0.0
1001
ACDBBLOCKREPETAG
1070
     1
1071
      167
1005
11E057
  0
LINE
  5
11E058
  8
OBJECT
 10
11956.0
 20
-1494.9999999999959
 30
0.0
 11
11956.0
 21
-1484.9999999999959
 31
0.0
1001
ACDBBLOCKREPETAG
1070
     1
1071
      168
1005
11E058
  0
LINE
  5
11E059
  8
OBJECT
 10
10090.0
 20
-1469.9999999999959
 30
0.0
 11
9924.0
 21
-1469.9999999999959
 31
0.0
1001
ACDBBLOCKREPETAG
1070
     1
1071
       12
1005
11E059
  0
LINE
  5
11E05A
  8
OBJECT
 10
10066.0
 20
-1433.9999999999959
 30
0.0
 11
9934.0
 21
-1433.9999999999959
 31
0.0
1001
ACDBBLOCKREPETAG
1070
     1
1071
       13
1005
11E05A
  0
LINE
  5
11E05B
  8
OBJECT
 10
10090.0
 20
-1485.0
 30
0.0
 11
10090.0
 21
-1469.9999999999959
 31
0.0
1001
ACDBBLOCKREPETAG
1070
     1
1071
       14
1005
11E05B
  0
LINE
  5
11E05C
  8
OBJECT
 10
9924.0
 20
-1485.0
 30
0.0
 11
10090.0
 21
-1485.0
 31
0.0
1001
ACDBBLOCKREPETAG
1070
     1
1071
       15
1005
11E05C
  0
LINE
  5
11E05D
  8
OBJECT
 10
10067.49999999998
 20
-1485.0
 30
0.0
 11
10067.49999999998
 21
-1495.0
 31
0.0
1001
ACDBBLOCKREPETAG
1070
     1
1071
       16
1005
11E05D
  0
LINE
  5
11E05E
  8
OBJECT
 10
9924.0
 20
-1495.0
 30
0.0
 11
9924.0
 21
-1508.9999999999959
 31
0.0
1001
ACDBBLOCKREPETAG
1070
     1
1071
       17
1005
11E05E
  0
LINE
  5
11E05F
  8
OBJECT
 10
10090.0
 20
-1495.0
 30
0.0
 11
10090.0
 21
-1508.9999999999959
 31
0.0
1001
ACDBBLOCKREPETAG
1070
     1
1071
       18
1005
11E05F
  0
LINE
  5
11E060
  8
OBJECT
 10
9924.0
 20
-1508.9999999999959
 30
0.0
 11
10090.0
 21
-1508.9999999999959
 31
0.0
1001
ACDBBLOCKREPETAG
1070
     1
1071
       19
1005
11E060
  0
LINE
  5
11E061
  8
OBJECT
 10
9924.0
 20
-1495.0
 30
0.0
 11
10090.0
 21
-1495.0
 31
0.0
1001
ACDBBLOCKREPETAG
1070
     1
1071
       20
1005
11E061
  0
LINE
  5
11E062
  8
OBJECT
 10
9932.4999999999836
 20
-1485.0
 30
0.0
 11
9932.4999999999836
 21
-1495.0
 31
0.0
1001
ACDBBLOCKREPETAG
1070
     1
1071
       21
1005
11E062
  0
LINE
  5
11E063
  8
OBJECT
 10
9924.0
 20
-1485.0
 30
0.0
 11
9924.0
 21
-1469.9999999999959
 31
0.0
1001
ACDBBLOCKREPETAG
1070
     1
1071
       22
1005
11E063
  0
LINE
  5
11E064
  8
HIDDEN
 10
9943.0
 20
-1445.0
 30
0.0
 11
10057.0
 21
-1445.0
 31
0.0
1001
ACDBBLOCKREPETAG
1070
     1
1071
       23
1005
11E064
  0
LINE
  5
11E065
  8
CENTER
 10
10000.0
 20
-1175.0
 30
0.0
 11
10000.0
 21
-1523.9999999999959
 31
0.0
1001
ACDBBLOCKREPETAG
1070
     1
1071
       24
1005
11E065
  0
LINE
  5
11E066
  8
OBJECT
 10
9925.0
 20
-1175.0
 30
0.0
 11
9925.0
 21
-1256.9999999999959
 31
0.0
1001
ACDBBLOCKREPETAG
1070
     1
1071
       25
1005
11E066
  0
LINE
  5
11E067
  8
OBJECT
 10
10075.0
 20
-1175.0
 30
0.0
 11
10075.0
 21
-1256.999999999993
 31
0.0
1001
ACDBBLOCKREPETAG
1070
     1
1071
       26
1005
11E067
  0
LINE
  5
11E068
  8
OBJECT
 10
9925.0
 20
-1256.9999999999959
 30
0.0
 11
10075.0
 21
-1256.999999999993
 31
0.0
1001
ACDBBLOCKREPETAG
1070
     1
1071
       27
1005
11E068
  0
LINE
  5
11E069
  8
OBJECT
 10
10057.0
 20
-1433.9999999999959
 30
0.0
 11
10057.0
 21
-1384.999999999992
 31
0.0
1001
ACDBBLOCKREPETAG
1070
     1
1071
       28
1005
11E069
  0
LINE
  5
11E06A
  8
OBJECT
 10
9943.0
 20
-1433.9999999999959
 30
0.0
 11
9943.0
 21
-1384.999999999992
 31
0.0
1001
ACDBBLOCKREPETAG
1070
     1
1071
       29
1005
11E06A
  0
LINE
  5
11E06B
  8
OBJECT
 10
10057.0
 20
-1384.999999999992
 30
0.0
 11
9943.0
 21
-1384.999999999992
 31
0.0
1001
ACDBBLOCKREPETAG
1070
     1
1071
       30
1005
11E06B
  0
LINE
  5
11E06C
  8
OBJECT
 10
9925.0
 20
-1256.9999999999959
 30
0.0
 11
9943.0
 21
-1384.999999999992
 31
0.0
1001
ACDBBLOCKREPETAG
1070
     1
1071
       31
1005
11E06C
  0
LINE
  5
11E06D
  8
OBJECT
 10
10057.0
 20
-1384.999999999992
 30
0.0
 11
10075.0
 21
-1256.999999999993
 31
0.0
1001
ACDBBLOCKREPETAG
1070
     1
1071
       32
1005
11E06D
  0
LINE
  5
11E06E
  8
OBJECT
 10
9934.0
 20
-1433.9999999999959
 30
0.0
 11
9934.0
 21
-1469.9999999999959
 31
0.0
1001
ACDBBLOCKREPETAG
1070
     1
1071
       33
1005
11E06E
  0
LINE
  5
11E06F
  8
OBJECT
 10
10066.0
 20
-1433.9999999999959
 30
0.0
 11
10066.0
 21
-1469.9999999999959
 31
0.0
1001
ACDBBLOCKREPETAG
1070
     1
1071
       34
1005
11E06F
  0
LINE
  5
11E070
  8
OBJECT
 10
10082.999999999991
 20
-1494.9999999999959
 30
0.0
 11
10082.999999999991
 21
-1484.9999999999959
 31
0.0
1001
ACDBBLOCKREPETAG
1070
     1
1071
       35
1005
11E070
  0
LINE
  5
11E071
  8
OBJECT
 10
10072.999999999991
 20
-1494.9999999999959
 30
0.0
 11
10072.999999999991
 21
-1484.9999999999959
 31
0.0
1001
ACDBBLOCKREPETAG
1070
     1
1071
       36
1005
11E071
  0
LINE
  5
11E072
  8
OBJECT
 10
10068.99999999998
 20
-1464.9999999999959
 30
0.0
 11
10068.99999999998
 21
-1469.9999999999959
 31
0.0
1001
ACDBBLOCKREPETAG
1070
     1
1071
       37
1005
11E072
  0
LINE
  5
11E073
  8
OBJECT
 10
10087.0
 20
-1464.9999999999959
 30
0.0
 11
10087.0
 21
-1469.9999999999959
 31
0.0
1001
ACDBBLOCKREPETAG
1070
     1
1071
       38
1005
11E073
  0
LINE
  5
11E074
  8
OBJECT
 10
10087.0
 20
-1464.9999999999959
 30
0.0
 11
10068.99999999998
 21
-1464.9999999999959
 31
0.0
1001
ACDBBLOCKREPETAG
1070
     1
1071
       39
1005
11E074
  0
LINE
  5
11E075
  8
OBJECT
 10
10073.0
 20
-1516.9999999999959
 30
0.0
 11
10073.0
 21
-1519.9999999999959
 31
0.0
1001
ACDBBLOCKREPETAG
1070
     1
1071
       40
1005
11E075
  0
LINE
  5
11E076
  8
OBJECT
 10
10073.0
 20
-1519.9999999999959
 30
0.0
 11
10083.0
 21
-1519.9999999999959
 31
0.0
1001
ACDBBLOCKREPETAG
1070
     1
1071
       41
1005
11E076
  0
LINE
  5
11E077
  8
OBJECT
 10
10068.18504542377
 20
-1516.9999999999959
 30
0.0
 11
10087.814954576221
 21
-1516.9999999999959
 31
0.0
1001
ACDBBLOCKREPETAG
1070
     1
1071
       42
1005
11E077
  0
LINE
  5
11E078
  8
OBJECT
 10
10083.0
 20
-1519.9999999999959
 30
0.0
 11
10083.0
 21
-1516.9999999999959
 31
0.0
1001
ACDBBLOCKREPETAG
1070
     1
1071
       43
1005
11E078
  0
LINE
  5
11E079
  8
OBJECT
 10
10068.18503599129
 20
-1508.9999868402549
 30
0.0
 11
10068.18503599129
 21
-1516.9999868402549
 31
0.0
1001
ACDBBLOCKREPETAG
1070
     1
1071
       44
1005
11E079
  0
LINE
  5
11E07A
  8
OBJECT
 10
10073.0925013592
 20
-1508.9999868402549
 30
0.0
 11
10073.0925013592
 21
-1516.9999868402549
 31
0.0
1001
ACDBBLOCKREPETAG
1070
     1
1071
       45
1005
11E07A
  0
LINE
  5
11E07B
  8
OBJECT
 10
10082.90743209502
 20
-1508.9999868402549
 30
0.0
 11
10082.90743209502
 21
-1516.9999868402549
 31
0.0
1001
ACDBBLOCKREPETAG
1070
     1
1071
       46
1005
11E07B
  0
LINE
  5
11E07C
  8
OBJECT
 10
10087.81499155279
 20
-1508.9999868402549
 30
0.0
 11
10087.81499155279
 21
-1516.9999868402549
 31
0.0
1001
ACDBBLOCKREPETAG
1070
     1
1071
       47
1005
11E07C
  0
LINE
  5
11E07D
  8
OBJECT
 10
9968.5
 20
-1464.9999999999959
 30
0.0
 11
9951.9999999999909
 21
-1464.9999999999959
 31
0.0
1001
ACDBBLOCKREPETAG
1070
     1
1071
       48
1005
11E07D
  0
LINE
  5
11E07E
  8
OBJECT
 10
9976.0
 20
-1469.9999999999959
 30
0.0
 11
9976.0
 21
-1467.9999999999959
 31
0.0
1001
ACDBBLOCKREPETAG
1070
     1
1071
       49
1005
11E07E
  0
LINE
  5
11E07F
  8
OBJECT
 10
9966.0
 20
-1494.9999999999959
 30
0.0
 11
9966.0
 21
-1484.9999999999959
 31
0.0
1001
ACDBBLOCKREPETAG
1070
     1
1071
       50
1005
11E07F
  0
LINE
  5
11E080
  8
OBJECT
 10
9956.0
 20
-1494.9999999999959
 30
0.0
 11
9956.0
 21
-1484.9999999999959
 31
0.0
1001
ACDBBLOCKREPETAG
1070
     1
1071
       51
1005
11E080
  0
LINE
  5
11E081
  8
OBJECT
 10
9951.9999999999909
 20
-1464.9999999999959
 30
0.0
 11
9951.9999999999909
 21
-1469.9999999999959
 31
0.0
1001
ACDBBLOCKREPETAG
1070
     1
1071
       52
1005
11E081
  0
LINE
  5
11E082
  8
OBJECT
 10
9956.0
 20
-1516.9999999999959
 30
0.0
 11
9956.0
 21
-1519.9999999999959
 31
0.0
1001
ACDBBLOCKREPETAG
1070
     1
1071
       53
1005
11E082
  0
LINE
  5
11E083
  8
OBJECT
 10
9956.0
 20
-1519.9999999999959
 30
0.0
 11
9966.0
 21
-1519.9999999999959
 31
0.0
1001
ACDBBLOCKREPETAG
1070
     1
1071
       54
1005
11E083
  0
LINE
  5
11E084
  8
OBJECT
 10
9951.185045423772
 20
-1516.9999999999959
 30
0.0
 11
9970.814954576219
 21
-1516.9999999999959
 31
0.0
1001
ACDBBLOCKREPETAG
1070
     1
1071
       55
1005
11E084
  0
LINE
  5
11E085
  8
OBJECT
 10
9966.0
 20
-1519.9999999999959
 30
0.0
 11
9966.0
 21
-1516.9999999999959
 31
0.0
1001
ACDBBLOCKREPETAG
1070
     1
1071
       56
1005
11E085
  0
LINE
  5
11E086
  8
OBJECT
 10
9976.0
 20
-1467.9999999999959
 30
0.0
 11
9968.5
 21
-1464.9999999999959
 31
0.0
1001
ACDBBLOCKREPETAG
1070
     1
1071
       57
1005
11E086
  0
LINE
  5
11E087
  8
OBJECT
 10
9951.1850359912914
 20
-1508.9999868402549
 30
0.0
 11
9951.1850359912914
 21
-1516.9999868402549
 31
0.0
1001
ACDBBLOCKREPETAG
1070
     1
1071
       58
1005
11E087
  0
LINE
  5
11E088
  8
OBJECT
 10
9956.0925013591986
 20
-1508.9999868402549
 30
0.0
 11
9956.0925013591986
 21
-1516.9999868402549
 31
0.0
1001
ACDBBLOCKREPETAG
1070
     1
1071
       59
1005
11E088
  0
LINE
  5
11E089
  8
OBJECT
 10
9965.907432095024
 20
-1508.9999868402549
 30
0.0
 11
9965.907432095024
 21
-1516.9999868402549
 31
0.0
1001
ACDBBLOCKREPETAG
1070
     1
1071
       60
1005
11E089
  0
LINE
  5
11E08A
  8
OBJECT
 10
9970.8149915528011
 20
-1508.9999868402549
 30
0.0
 11
9970.8149915528011
 21
-1516.9999868402549
 31
0.0
1001
ACDBBLOCKREPETAG
1070
     1
1071
       61
1005
11E08A
  0
LINE
  5
11E08B
  8
OBJECT
 10
7943.0
 20
-1484.9999999999959
 30
0.0
 11
8057.0
 21
-1484.9999999999959
 31
0.0
1001
ACDBBLOCKREPETAG
1070
     1
1071
        0
1005
11E08B
  0
LINE
  5
11E08C
  8
OBJECT
 10
7943.0
 20
-1484.9999999999959
 30
0.0
 11
7943.0
 21
-1384.9999999999959
 31
0.0
1001
ACDBBLOCKREPETAG
1070
     1
1071
        1
1005
11E08C
  0
LINE
  5
11E08D
  8
OBJECT
 10
8057.0
 20
-1484.9999999999959
 30
0.0
 11
8057.0
 21
-1384.9999999999959
 31
0.0
1001
ACDBBLOCKREPETAG
1070
     1
1071
        2
1005
11E08D
  0
LINE
  5
11E08E
  8
OBJECT
 10
7943.0
 20
-1384.9999999999959
 30
0.0
 11
8057.0
 21
-1384.9999999999959
 31
0.0
1001
ACDBBLOCKREPETAG
1070
     1
1071
        3
1005
11E08E
  0
LINE
  5
11E08F
  8
HIDDEN
 10
7950.0
 20
-1384.9999999999959
 30
0.0
 11
7950.0
 21
-1484.9999999999959
 31
0.0
1001
ACDBBLOCKREPETAG
1070
     1
1071
        4
1005
11E08F
  0
LINE
  5
11E090
  8
HIDDEN
 10
8050.0
 20
-1384.9999999999959
 30
0.0
 11
8050.0
 21
-1484.9999999999959
 31
0.0
1001
ACDBBLOCKREPETAG
1070
     1
1071
        5
1005
11E090
  0
LINE
  5
11E091
  8
CENTER
 10
8000.0
 20
-1175.0
 30
0.0
 11
8000.0
 21
-1499.9999999999959
 31
0.0
1001
ACDBBLOCKREPETAG
1070
     1
1071
        6
1005
11E091
  0
LINE
  5
11E092
  8
OBJECT
 10
7925.0
 20
-1175.0
 30
0.0
 11
7925.0
 21
-1256.9999999999959
 31
0.0
1001
ACDBBLOCKREPETAG
1070
     1
1071
        7
1005
11E092
  0
LINE
  5
11E093
  8
OBJECT
 10
8075.0
 20
-1175.0
 30
0.0
 11
8075.0
 21
-1256.9999999999959
 31
0.0
1001
ACDBBLOCKREPETAG
1070
     1
1071
        8
1005
11E093
  0
LINE
  5
11E094
  8
OBJECT
 10
7925.0
 20
-1256.9999999999959
 30
0.0
 11
8075.0
 21
-1256.9999999999959
 31
0.0
1001
ACDBBLOCKREPETAG
1070
     1
1071
        9
1005
11E094
  0
LINE
  5
11E095
  8
OBJECT
 10
7925.0
 20
-1256.9999999999959
 30
0.0
 11
7943.0
 21
-1384.9999999999959
 31
0.0
1001
ACDBBLOCKREPETAG
1070
     1
1071
       10
1005
11E095
  0
LINE
  5
11E096
  8
OBJECT
 10
8057.0
 20
-1384.9999999999959
 30
0.0
 11
8075.0
 21
-1256.9999999999959
 31
0.0
1001
ACDBBLOCKREPETAG
1070
     1
1071
       11
1005
11E096
  0
LINE
  5
11E097
  8
OBJECT
 10
6085.9999999999927
 20
-1508.9999999999991
 30
0.0
 11
6085.9999999999927
 21
-1518.9999999999991
 31
0.0
1001
ACDBBLOCKREPETAG
1070
     1
1071
      121
1005
11E097
  0
LINE
  5
11E098
  8
OBJECT
 10
6069.9999999999927
 20
-1508.9999999999991
 30
0.0
 11
6069.9999999999927
 21
-1518.9999999999991
 31
0.0
1001
ACDBBLOCKREPETAG
1070
     1
1071
      122
1005
11E098
  0
LINE
  5
11E099
  8
OBJECT
 10
6085.9999999999927
 20
-1518.9999999999991
 30
0.0
 11
6069.9999999999927
 21
-1518.9999999999991
 31
0.0
1001
ACDBBLOCKREPETAG
1070
     1
1071
      123
1005
11E099
  0
LINE
  5
11E09A
  8
OBJECT
 10
6090.0
 20
-1469.9999999999959
 30
0.0
 11
5924.0
 21
-1469.9999999999959
 31
0.0
1001
ACDBBLOCKREPETAG
1070
     1
1071
      124
1005
11E09A
  0
LINE
  5
11E09B
  8
OBJECT
 10
6090.0
 20
-1484.9999999999991
 30
0.0
 11
6090.0
 21
-1469.9999999999959
 31
0.0
1001
ACDBBLOCKREPETAG
1070
     1
1071
      125
1005
11E09B
  0
LINE
  5
11E09C
  8
OBJECT
 10
5924.0
 20
-1484.9999999999991
 30
0.0
 11
6090.0
 21
-1484.9999999999991
 31
0.0
1001
ACDBBLOCKREPETAG
1070
     1
1071
      126
1005
11E09C
  0
LINE
  5
11E09D
  8
OBJECT
 10
6067.4999999999864
 20
-1484.9999999999991
 30
0.0
 11
6067.4999999999864
 21
-1494.9999999999991
 31
0.0
1001
ACDBBLOCKREPETAG
1070
     1
1071
      127
1005
11E09D
  0
LINE
  5
11E09E
  8
OBJECT
 10
6072.9999999999927
 20
-1494.9999999999991
 30
0.0
 11
6072.9999999999927
 21
-1484.9999999999991
 31
0.0
1001
ACDBBLOCKREPETAG
1070
     1
1071
      128
1005
11E09E
  0
LINE
  5
11E09F
  8
OBJECT
 10
6082.9999999999927
 20
-1494.9999999999991
 30
0.0
 11
6082.9999999999927
 21
-1484.9999999999991
 31
0.0
1001
ACDBBLOCKREPETAG
1070
     1
1071
      129
1005
11E09F
  0
LINE
  5
11E0A0
  8
OBJECT
 10
5924.0
 20
-1494.9999999999991
 30
0.0
 11
5924.0
 21
-1508.9999999999959
 31
0.0
1001
ACDBBLOCKREPETAG
1070
     1
1071
      130
1005
11E0A0
  0
LINE
  5
11E0A1
  8
OBJECT
 10
6090.0
 20
-1494.9999999999991
 30
0.0
 11
6090.0
 21
-1508.9999999999959
 31
0.0
1001
ACDBBLOCKREPETAG
1070
     1
1071
      131
1005
11E0A1
  0
LINE
  5
11E0A2
  8
OBJECT
 10
5924.0
 20
-1508.9999999999959
 30
0.0
 11
6090.0
 21
-1508.9999999999959
 31
0.0
1001
ACDBBLOCKREPETAG
1070
     1
1071
      132
1005
11E0A2
  0
LINE
  5
11E0A3
  8
OBJECT
 10
5924.0
 20
-1494.9999999999991
 30
0.0
 11
6090.0
 21
-1494.9999999999991
 31
0.0
1001
ACDBBLOCKREPETAG
1070
     1
1071
      133
1005
11E0A3
  0
LINE
  5
11E0A4
  8
OBJECT
 10
5932.4999999999864
 20
-1484.9999999999991
 30
0.0
 11
5932.4999999999864
 21
-1494.9999999999991
 31
0.0
1001
ACDBBLOCKREPETAG
1070
     1
1071
      134
1005
11E0A4
  0
LINE
  5
11E0A5
  8
OBJECT
 10
5934.0
 20
-1433.9999999999959
 30
0.0
 11
6065.9999999999909
 21
-1433.9999999999959
 31
0.0
1001
ACDBBLOCKREPETAG
1070
     1
1071
      135
1005
11E0A5
  0
LINE
  5
11E0A6
  8
OBJECT
 10
5924.0
 20
-1484.9999999999991
 30
0.0
 11
5924.0
 21
-1469.9999999999959
 31
0.0
1001
ACDBBLOCKREPETAG
1070
     1
1071
      136
1005
11E0A6
  0
LINE
  5
11E0A7
  8
HIDDEN
 10
5943.0
 20
-1444.9999999999991
 30
0.0
 11
6057.0
 21
-1444.9999999999991
 31
0.0
1001
ACDBBLOCKREPETAG
1070
     1
1071
      137
1005
11E0A7
  0
LINE
  5
11E0A8
  8
OBJECT
 10
6086.9999999999918
 20
-1468.2
 30
0.0
 11
6086.9999999999918
 21
-1469.9999999999991
 31
0.0
1001
ACDBBLOCKREPETAG
1070
     1
1071
      138
1005
11E0A8
  0
LINE
  5
11E0A9
  8
OBJECT
 10
6068.9999999999909
 20
-1468.2
 30
0.0
 11
6068.9999999999909
 21
-1469.9999999999991
 31
0.0
1001
ACDBBLOCKREPETAG
1070
     1
1071
      139
1005
11E0A9
  0
LINE
  5
11E0AA
  8
OBJECT
 10
6072.2499999999927
 20
-1458.4999999999991
 30
0.0
 11
6083.7499999999927
 21
-1458.4999999999991
 31
0.0
1001
ACDBBLOCKREPETAG
1070
     1
1071
      140
1005
11E0AA
  0
LINE
  5
11E0AB
  8
OBJECT
 10
6072.2499999999927
 20
-1458.4999999999991
 30
0.0
 11
6072.2499999999927
 21
-1468.2
 31
0.0
1001
ACDBBLOCKREPETAG
1070
     1
1071
      141
1005
11E0AB
  0
LINE
  5
11E0AC
  8
OBJECT
 10
6083.7499999999927
 20
-1458.4999999999991
 30
0.0
 11
6083.7499999999927
 21
-1468.2
 31
0.0
1001
ACDBBLOCKREPETAG
1070
     1
1071
      142
1005
11E0AC
  0
LINE
  5
11E0AD
  8
OBJECT
 10
5931.9999999999873
 20
-1550.0
 30
0.0
 11
6067.9999999999873
 21
-1550.0
 31
0.0
1001
ACDBBLOCKREPETAG
1070
     1
1071
      143
1005
11E0AD
  0
LINE
  5
11E0AE
  8
OBJECT
 10
5931.9999999999873
 20
-1550.0
 30
0.0
 11
5931.9999999999873
 21
-1508.9999999999991
 31
0.0
1001
ACDBBLOCKREPETAG
1070
     1
1071
      144
1005
11E0AE
  0
LINE
  5
11E0AF
  8
OBJECT
 10
6067.9999999999873
 20
-1550.0
 30
0.0
 11
6067.9999999999873
 21
-1508.9999999999991
 31
0.0
1001
ACDBBLOCKREPETAG
1070
     1
1071
      145
1005
11E0AF
  0
LINE
  5
11E0B0
  8
OBJECT
 10
6086.9999999999918
 20
-1468.2
 30
0.0
 11
6068.9999999999909
 21
-1468.2
 31
0.0
1001
ACDBBLOCKREPETAG
1070
     1
1071
      146
1005
11E0B0
  0
LINE
  5
11E0B1
  8
CENTER
 10
6000.0
 20
-1174.9999999999991
 30
0.0
 11
6000.0
 21
-1564.9999999999991
 31
0.0
1001
ACDBBLOCKREPETAG
1070
     1
1071
      147
1005
11E0B1
  0
LINE
  5
11E0B2
  8
OBJECT
 10
5925.0
 20
-1174.9999999999991
 30
0.0
 11
5925.0
 21
-1256.9999999999959
 31
0.0
1001
ACDBBLOCKREPETAG
1070
     1
1071
      148
1005
11E0B2
  0
LINE
  5
11E0B3
  8
OBJECT
 10
6075.0
 20
-1174.9999999999991
 30
0.0
 11
6075.0
 21
-1256.999999999992
 31
0.0
1001
ACDBBLOCKREPETAG
1070
     1
1071
      149
1005
11E0B3
  0
LINE
  5
11E0B4
  8
OBJECT
 10
5925.0
 20
-1256.9999999999959
 30
0.0
 11
6075.0
 21
-1256.999999999992
 31
0.0
1001
ACDBBLOCKREPETAG
1070
     1
1071
      150
1005
11E0B4
  0
LINE
  5
11E0B5
  8
OBJECT
 10
5943.0
 20
-1433.9999999999959
 30
0.0
 11
5943.0
 21
-1384.999999999992
 31
0.0
1001
ACDBBLOCKREPETAG
1070
     1
1071
      151
1005
11E0B5
  0
LINE
  5
11E0B6
  8
OBJECT
 10
6057.0
 20
-1384.999999999992
 30
0.0
 11
5943.0
 21
-1384.999999999992
 31
0.0
1001
ACDBBLOCKREPETAG
1070
     1
1071
      152
1005
11E0B6
  0
LINE
  5
11E0B7
  8
OBJECT
 10
6057.0
 20
-1384.999999999992
 30
0.0
 11
6057.0
 21
-1433.9999999999959
 31
0.0
1001
ACDBBLOCKREPETAG
1070
     1
1071
      153
1005
11E0B7
  0
LINE
  5
11E0B8
  8
OBJECT
 10
5925.0
 20
-1256.9999999999959
 30
0.0
 11
5943.0
 21
-1384.999999999992
 31
0.0
1001
ACDBBLOCKREPETAG
1070
     1
1071
      154
1005
11E0B8
  0
LINE
  5
11E0B9
  8
OBJECT
 10
6057.0
 20
-1384.999999999992
 30
0.0
 11
6075.0
 21
-1256.999999999992
 31
0.0
1001
ACDBBLOCKREPETAG
1070
     1
1071
      155
1005
11E0B9
  0
LINE
  5
11E0BA
  8
OBJECT
 10
5934.0
 20
-1469.9999999999959
 30
0.0
 11
5934.0
 21
-1433.9999999999959
 31
0.0
1001
ACDBBLOCKREPETAG
1070
     1
1071
      156
1005
11E0BA
  0
LINE
  5
11E0BB
  8
OBJECT
 10
6066.0
 20
-1469.9999999999959
 30
0.0
 11
6065.9999999999909
 21
-1433.9999999999959
 31
0.0
1001
ACDBBLOCKREPETAG
1070
     1
1071
      157
1005
11E0BB
  0
LINE
  5
11E0BC
  8
OBJECT
 10
5954.75
 20
-1459.699999999993
 30
0.0
 11
5967.2499999999991
 21
-1459.699999999993
 31
0.0
1001
ACDBBLOCKREPETAG
1070
     1
1071
      158
1005
11E0BC
  0
LINE
  5
11E0BD
  8
OBJECT
 10
5946.0
 20
-1469.9999999999959
 30
0.0
 11
5946.0
 21
-1467.699999999996
 31
0.0
1001
ACDBBLOCKREPETAG
1070
     1
1071
      159
1005
11E0BD
  0
LINE
  5
11E0BE
  8
OBJECT
 10
5976.0
 20
-1469.9999999999959
 30
0.0
 11
5976.0
 21
-1467.699999999996
 31
0.0
1001
ACDBBLOCKREPETAG
1070
     1
1071
      160
1005
11E0BE
  0
LINE
  5
11E0BF
  8
OBJECT
 10
5954.75
 20
-1459.699999999993
 30
0.0
 11
5954.75
 21
-1467.699999999996
 31
0.0
1001
ACDBBLOCKREPETAG
1070
     1
1071
      161
1005
11E0BF
  0
LINE
  5
11E0C0
  8
OBJECT
 10
5967.2499999999991
 20
-1459.699999999993
 30
0.0
 11
5967.2499999999991
 21
-1467.699999999996
 31
0.0
1001
ACDBBLOCKREPETAG
1070
     1
1071
      162
1005
11E0C0
  0
LINE
  5
11E0C1
  8
OBJECT
 10
5946.0
 20
-1467.699999999996
 30
0.0
 11
5976.0
 21
-1467.699999999996
 31
0.0
1001
ACDBBLOCKREPETAG
1070
     1
1071
      163
1005
11E0C1
  0
LINE
  5
11E0C2
  8
OBJECT
 10
5953.0
 20
-1508.9999999999959
 30
0.0
 11
5953.0
 21
-1518.9999999999959
 31
0.0
1001
ACDBBLOCKREPETAG
1070
     1
1071
      164
1005
11E0C2
  0
LINE
  5
11E0C3
  8
OBJECT
 10
5969.0
 20
-1508.9999999999959
 30
0.0
 11
5969.0
 21
-1518.9999999999959
 31
0.0
1001
ACDBBLOCKREPETAG
1070
     1
1071
      165
1005
11E0C3
  0
LINE
  5
11E0C4
  8
OBJECT
 10
5953.0
 20
-1518.9999999999959
 30
0.0
 11
5969.0
 21
-1518.9999999999959
 31
0.0
1001
ACDBBLOCKREPETAG
1070
     1
1071
      166
1005
11E0C4
  0
LINE
  5
11E0C5
  8
OBJECT
 10
5966.0
 20
-1494.9999999999959
 30
0.0
 11
5966.0
 21
-1484.9999999999959
 31
0.0
1001
ACDBBLOCKREPETAG
1070
     1
1071
      167
1005
11E0C5
  0
LINE
  5
11E0C6
  8
OBJECT
 10
5956.0
 20
-1494.9999999999959
 30
0.0
 11
5956.0
 21
-1484.9999999999959
 31
0.0
1001
ACDBBLOCKREPETAG
1070
     1
1071
      168
1005
11E0C6
  0
LINE
  5
11E0C7
  8
OBJECT
 10
4090.0
 20
-1469.9999999999959
 30
0.0
 11
3924.0
 21
-1469.9999999999959
 31
0.0
1001
ACDBBLOCKREPETAG
1070
     1
1071
       12
1005
11E0C7
  0
LINE
  5
11E0C8
  8
OBJECT
 10
4066.0
 20
-1433.9999999999959
 30
0.0
 11
3934.0
 21
-1433.9999999999959
 31
0.0
1001
ACDBBLOCKREPETAG
1070
     1
1071
       13
1005
11E0C8
  0
LINE
  5
11E0C9
  8
OBJECT
 10
4090.0
 20
-1485.0
 30
0.0
 11
4090.0
 21
-1469.9999999999959
 31
0.0
1001
ACDBBLOCKREPETAG
1070
     1
1071
       14
1005
11E0C9
  0
LINE
  5
11E0CA
  8
OBJECT
 10
3924.0
 20
-1485.0
 30
0.0
 11
4090.0
 21
-1485.0
 31
0.0
1001
ACDBBLOCKREPETAG
1070
     1
1071
       15
1005
11E0CA
  0
LINE
  5
11E0CB
  8
OBJECT
 10
4067.4999999999841
 20
-1485.0
 30
0.0
 11
4067.4999999999841
 21
-1495.0
 31
0.0
1001
ACDBBLOCKREPETAG
1070
     1
1071
       16
1005
11E0CB
  0
LINE
  5
11E0CC
  8
OBJECT
 10
3924.0
 20
-1495.0
 30
0.0
 11
3924.0
 21
-1508.9999999999959
 31
0.0
1001
ACDBBLOCKREPETAG
1070
     1
1071
       17
1005
11E0CC
  0
LINE
  5
11E0CD
  8
OBJECT
 10
4090.0
 20
-1495.0
 30
0.0
 11
4090.0
 21
-1508.9999999999959
 31
0.0
1001
ACDBBLOCKREPETAG
1070
     1
1071
       18
1005
11E0CD
  0
LINE
  5
11E0CE
  8
OBJECT
 10
3924.0
 20
-1508.9999999999959
 30
0.0
 11
4090.0
 21
-1508.9999999999959
 31
0.0
1001
ACDBBLOCKREPETAG
1070
     1
1071
       19
1005
11E0CE
  0
LINE
  5
11E0CF
  8
OBJECT
 10
3924.0
 20
-1495.0
 30
0.0
 11
4090.0
 21
-1495.0
 31
0.0
1001
ACDBBLOCKREPETAG
1070
     1
1071
       20
1005
11E0CF
  0
LINE
  5
11E0D0
  8
OBJECT
 10
3932.499999999985
 20
-1485.0
 30
0.0
 11
3932.499999999985
 21
-1495.0
 31
0.0
1001
ACDBBLOCKREPETAG
1070
     1
1071
       21
1005
11E0D0
  0
LINE
  5
11E0D1
  8
OBJECT
 10
3924.0
 20
-1485.0
 30
0.0
 11
3924.0
 21
-1469.9999999999959
 31
0.0
1001
ACDBBLOCKREPETAG
1070
     1
1071
       22
1005
11E0D1
  0
LINE
  5
11E0D2
  8
HIDDEN
 10
3943.0
 20
-1445.0
 30
0.0
 11
4057.0
 21
-1445.0
 31
0.0
1001
ACDBBLOCKREPETAG
1070
     1
1071
       23
1005
11E0D2
  0
LINE
  5
11E0D3
  8
CENTER
 10
4000.0
 20
-1175.0
 30
0.0
 11
4000.0
 21
-1523.9999999999959
 31
0.0
1001
ACDBBLOCKREPETAG
1070
     1
1071
       24
1005
11E0D3
  0
LINE
  5
11E0D4
  8
OBJECT
 10
3925.0
 20
-1175.0
 30
0.0
 11
3925.0
 21
-1256.9999999999959
 31
0.0
1001
ACDBBLOCKREPETAG
1070
     1
1071
       25
1005
11E0D4
  0
LINE
  5
11E0D5
  8
OBJECT
 10
4075.0
 20
-1175.0
 30
0.0
 11
4075.0
 21
-1256.999999999993
 31
0.0
1001
ACDBBLOCKREPETAG
1070
     1
1071
       26
1005
11E0D5
  0
LINE
  5
11E0D6
  8
OBJECT
 10
3925.0
 20
-1256.9999999999959
 30
0.0
 11
4075.0
 21
-1256.999999999993
 31
0.0
1001
ACDBBLOCKREPETAG
1070
     1
1071
       27
1005
11E0D6
  0
LINE
  5
11E0D7
  8
OBJECT
 10
4057.0
 20
-1433.9999999999959
 30
0.0
 11
4057.0
 21
-1384.999999999992
 31
0.0
1001
ACDBBLOCKREPETAG
1070
     1
1071
       28
1005
11E0D7
  0
LINE
  5
11E0D8
  8
OBJECT
 10
3943.0
 20
-1433.9999999999959
 30
0.0
 11
3943.0
 21
-1384.999999999992
 31
0.0
1001
ACDBBLOCKREPETAG
1070
     1
1071
       29
1005
11E0D8
  0
LINE
  5
11E0D9
  8
OBJECT
 10
4057.0
 20
-1384.999999999992
 30
0.0
 11
3943.0
 21
-1384.999999999992
 31
0.0
1001
ACDBBLOCKREPETAG
1070
     1
1071
       30
1005
11E0D9
  0
LINE
  5
11E0DA
  8
OBJECT
 10
3925.0
 20
-1256.9999999999959
 30
0.0
 11
3943.0
 21
-1384.999999999992
 31
0.0
1001
ACDBBLOCKREPETAG
1070
     1
1071
       31
1005
11E0DA
  0
LINE
  5
11E0DB
  8
OBJECT
 10
4057.0
 20
-1384.999999999992
 30
0.0
 11
4075.0
 21
-1256.999999999993
 31
0.0
1001
ACDBBLOCKREPETAG
1070
     1
1071
       32
1005
11E0DB
  0
LINE
  5
11E0DC
  8
OBJECT
 10
3934.0
 20
-1433.9999999999959
 30
0.0
 11
3934.0
 21
-1469.9999999999959
 31
0.0
1001
ACDBBLOCKREPETAG
1070
     1
1071
       33
1005
11E0DC
  0
LINE
  5
11E0DD
  8
OBJECT
 10
4066.0
 20
-1433.9999999999959
 30
0.0
 11
4066.0
 21
-1469.9999999999959
 31
0.0
1001
ACDBBLOCKREPETAG
1070
     1
1071
       34
1005
11E0DD
  0
LINE
  5
11E0DE
  8
OBJECT
 10
4082.9999999999932
 20
-1494.9999999999959
 30
0.0
 11
4082.9999999999932
 21
-1484.9999999999959
 31
0.0
1001
ACDBBLOCKREPETAG
1070
     1
1071
       35
1005
11E0DE
  0
LINE
  5
11E0DF
  8
OBJECT
 10
4072.9999999999918
 20
-1494.9999999999959
 30
0.0
 11
4072.9999999999918
 21
-1484.9999999999959
 31
0.0
1001
ACDBBLOCKREPETAG
1070
     1
1071
       36
1005
11E0DF
  0
LINE
  5
11E0E0
  8
OBJECT
 10
4068.9999999999841
 20
-1464.9999999999959
 30
0.0
 11
4068.9999999999841
 21
-1469.9999999999959
 31
0.0
1001
ACDBBLOCKREPETAG
1070
     1
1071
       37
1005
11E0E0
  0
LINE
  5
11E0E1
  8
OBJECT
 10
4087.0
 20
-1464.9999999999959
 30
0.0
 11
4087.0
 21
-1469.9999999999959
 31
0.0
1001
ACDBBLOCKREPETAG
1070
     1
1071
       38
1005
11E0E1
  0
LINE
  5
11E0E2
  8
OBJECT
 10
4087.0
 20
-1464.9999999999959
 30
0.0
 11
4068.9999999999841
 21
-1464.9999999999959
 31
0.0
1001
ACDBBLOCKREPETAG
1070
     1
1071
       39
1005
11E0E2
  0
LINE
  5
11E0E3
  8
OBJECT
 10
4073.0
 20
-1516.9999999999959
 30
0.0
 11
4073.0
 21
-1519.9999999999959
 31
0.0
1001
ACDBBLOCKREPETAG
1070
     1
1071
       40
1005
11E0E3
  0
LINE
  5
11E0E4
  8
OBJECT
 10
4073.0
 20
-1519.9999999999959
 30
0.0
 11
4083.0
 21
-1519.9999999999959
 31
0.0
1001
ACDBBLOCKREPETAG
1070
     1
1071
       41
1005
11E0E4
  0
LINE
  5
11E0E5
  8
OBJECT
 10
4068.185045423772
 20
-1516.9999999999959
 30
0.0
 11
4087.8149545762199
 21
-1516.9999999999959
 31
0.0
1001
ACDBBLOCKREPETAG
1070
     1
1071
       42
1005
11E0E5
  0
LINE
  5
11E0E6
  8
OBJECT
 10
4083.0
 20
-1519.9999999999959
 30
0.0
 11
4083.0
 21
-1516.9999999999959
 31
0.0
1001
ACDBBLOCKREPETAG
1070
     1
1071
       43
1005
11E0E6
  0
LINE
  5
11E0E7
  8
OBJECT
 10
4068.1850359912942
 20
-1508.9999868402549
 30
0.0
 11
4068.1850359912942
 21
-1516.9999868402549
 31
0.0
1001
ACDBBLOCKREPETAG
1070
     1
1071
       44
1005
11E0E7
  0
LINE
  5
11E0E8
  8
OBJECT
 10
4073.0925013591982
 20
-1508.9999868402549
 30
0.0
 11
4073.0925013591982
 21
-1516.9999868402549
 31
0.0
1001
ACDBBLOCKREPETAG
1070
     1
1071
       45
1005
11E0E8
  0
LINE
  5
11E0E9
  8
OBJECT
 10
4082.907432095024
 20
-1508.9999868402549
 30
0.0
 11
4082.907432095024
 21
-1516.9999868402549
 31
0.0
1001
ACDBBLOCKREPETAG
1070
     1
1071
       46
1005
11E0E9
  0
LINE
  5
11E0EA
  8
OBJECT
 10
4087.814991552797
 20
-1508.9999868402549
 30
0.0
 11
4087.814991552797
 21
-1516.9999868402549
 31
0.0
1001
ACDBBLOCKREPETAG
1070
     1
1071
       47
1005
11E0EA
  0
LINE
  5
11E0EB
  8
OBJECT
 10
3968.5
 20
-1464.9999999999959
 30
0.0
 11
3951.9999999999932
 21
-1464.9999999999959
 31
0.0
1001
ACDBBLOCKREPETAG
1070
     1
1071
       48
1005
11E0EB
  0
LINE
  5
11E0EC
  8
OBJECT
 10
3976.0
 20
-1469.9999999999959
 30
0.0
 11
3976.0
 21
-1467.9999999999959
 31
0.0
1001
ACDBBLOCKREPETAG
1070
     1
1071
       49
1005
11E0EC
  0
LINE
  5
11E0ED
  8
OBJECT
 10
3966.0
 20
-1494.9999999999959
 30
0.0
 11
3966.0
 21
-1484.9999999999959
 31
0.0
1001
ACDBBLOCKREPETAG
1070
     1
1071
       50
1005
11E0ED
  0
LINE
  5
11E0EE
  8
OBJECT
 10
3956.0
 20
-1494.9999999999959
 30
0.0
 11
3956.0
 21
-1484.9999999999959
 31
0.0
1001
ACDBBLOCKREPETAG
1070
     1
1071
       51
1005
11E0EE
  0
LINE
  5
11E0EF
  8
OBJECT
 10
3951.9999999999932
 20
-1464.9999999999959
 30
0.0
 11
3951.9999999999932
 21
-1469.9999999999959
 31
0.0
1001
ACDBBLOCKREPETAG
1070
     1
1071
       52
1005
11E0EF
  0
LINE
  5
11E0F0
  8
OBJECT
 10
3956.0
 20
-1516.9999999999959
 30
0.0
 11
3956.0
 21
-1519.9999999999959
 31
0.0
1001
ACDBBLOCKREPETAG
1070
     1
1071
       53
1005
11E0F0
  0
LINE
  5
11E0F1
  8
OBJECT
 10
3956.0
 20
-1519.9999999999959
 30
0.0
 11
3966.0
 21
-1519.9999999999959
 31
0.0
1001
ACDBBLOCKREPETAG
1070
     1
1071
       54
1005
11E0F1
  0
LINE
  5
11E0F2
  8
OBJECT
 10
3951.185045423772
 20
-1516.9999999999959
 30
0.0
 11
3970.8149545762212
 21
-1516.9999999999959
 31
0.0
1001
ACDBBLOCKREPETAG
1070
     1
1071
       55
1005
11E0F2
  0
LINE
  5
11E0F3
  8
OBJECT
 10
3966.0
 20
-1519.9999999999959
 30
0.0
 11
3966.0
 21
-1516.9999999999959
 31
0.0
1001
ACDBBLOCKREPETAG
1070
     1
1071
       56
1005
11E0F3
  0
LINE
  5
11E0F4
  8
OBJECT
 10
3976.0
 20
-1467.9999999999959
 30
0.0
 11
3968.5
 21
-1464.9999999999959
 31
0.0
1001
ACDBBLOCKREPETAG
1070
     1
1071
       57
1005
11E0F4
  0
LINE
  5
11E0F5
  8
OBJECT
 10
3951.1850359912951
 20
-1508.9999868402549
 30
0.0
 11
3951.1850359912951
 21
-1516.9999868402549
 31
0.0
1001
ACDBBLOCKREPETAG
1070
     1
1071
       58
1005
11E0F5
  0
LINE
  5
11E0F6
  8
OBJECT
 10
3956.0925013591991
 20
-1508.9999868402549
 30
0.0
 11
3956.0925013591991
 21
-1516.9999868402549
 31
0.0
1001
ACDBBLOCKREPETAG
1070
     1
1071
       59
1005
11E0F6
  0
LINE
  5
11E0F7
  8
OBJECT
 10
3965.907432095024
 20
-1508.9999868402549
 30
0.0
 11
3965.907432095024
 21
-1516.9999868402549
 31
0.0
1001
ACDBBLOCKREPETAG
1070
     1
1071
       60
1005
11E0F7
  0
LINE
  5
11E0F8
  8
OBJECT
 10
3970.8149915527979
 20
-1508.9999868402549
 30
0.0
 11
3970.8149915527979
 21
-1516.9999868402549
 31
0.0
1001
ACDBBLOCKREPETAG
1070
     1
1071
       61
1005
11E0F8
  0
LINE
  5
11E0F9
  8
OBJECT
 10
7925.0
 20
-890.0
 30
0.0
 11
7925.0
 21
-1163.0
 31
0.0
1001
ACDBBLOCKREPETAG
1070
     1
1071
        1
1005
11E0F9
  0
LINE
  5
11E0FA
  8
OBJECT
 10
8075.0
 20
-889.99999999999409
 30
0.0
 11
8075.0
 21
-1163.0
 31
0.0
1001
ACDBBLOCKREPETAG
1070
     1
1071
        3
1005
11E0FA
  0
LINE
  5
11E0FB
  8
CENTER
 10
8000.0
 20
-890.0
 30
0.0
 11
8000.0
 21
-1175.0
 31
0.0
1001
ACDBBLOCKREPETAG
1070
     1
1071
        6
1005
11E0FB
  0
LINE
  5
11E0FC
  8
OBJECT
 10
7920.0
 20
-1175.0
 30
0.0
 11
8080.0
 21
-1175.0
 31
0.0
1001
ACDBBLOCKREPETAG
1070
     1
1071
        7
1005
11E0FC
  0
LINE
  5
11E0FD
  8
OBJECT
 10
7920.0
 20
-1163.0
 30
0.0
 11
8080.0
 21
-1163.0
 31
0.0
1001
ACDBBLOCKREPETAG
1070
     1
1071
        8
1005
11E0FD
  0
LINE
  5
11E0FE
  8
OBJECT
 10
7920.0
 20
-1163.0
 30
0.0
 11
7920.0
 21
-1175.0
 31
0.0
1001
ACDBBLOCKREPETAG
1070
     1
1071
        9
1005
11E0FE
  0
LINE
  5
11E0FF
  8
OBJECT
 10
8080.0
 20
-1163.0
 30
0.0
 11
8080.0
 21
-1175.0
 31
0.0
1001
ACDBBLOCKREPETAG
1070
     1
1071
       10
1005
11E0FF
  0
LINE
  5
11E100
  8
OBJECT
 10
9925.0
 20
-890.0
 30
0.0
 11
9925.0
 21
-1163.0
 31
0.0
1001
ACDBBLOCKREPETAG
1070
     1
1071
        1
1005
11E100
  0
LINE
  5
11E101
  8
OBJECT
 10
10075.0
 20
-889.99999999999409
 30
0.0
 11
10075.0
 21
-1163.0
 31
0.0
1001
ACDBBLOCKREPETAG
1070
     1
1071
        3
1005
11E101
  0
LINE
  5
11E102
  8
CENTER
 10
10000.0
 20
-890.0
 30
0.0
 11
10000.0
 21
-1175.0
 31
0.0
1001
ACDBBLOCKREPETAG
1070
     1
1071
        6
1005
11E102
  0
LINE
  5
11E103
  8
OBJECT
 10
9920.0
 20
-1175.0
 30
0.0
 11
10080.0
 21
-1175.0
 31
0.0
1001
ACDBBLOCKREPETAG
1070
     1
1071
        7
1005
11E103
  0
LINE
  5
11E104
  8
OBJECT
 10
9920.0
 20
-1163.0
 30
0.0
 11
10080.0
 21
-1163.0
 31
0.0
1001
ACDBBLOCKREPETAG
1070
     1
1071
        8
1005
11E104
  0
LINE
  5
11E105
  8
OBJECT
 10
9920.0
 20
-1163.0
 30
0.0
 11
9920.0
 21
-1175.0
 31
0.0
1001
ACDBBLOCKREPETAG
1070
     1
1071
        9
1005
11E105
  0
LINE
  5
11E106
  8
OBJECT
 10
10080.0
 20
-1163.0
 30
0.0
 11
10080.0
 21
-1175.0
 31
0.0
1001
ACDBBLOCKREPETAG
1070
     1
1071
       10
1005
11E106
  0
LINE
  5
11E107
  8
OBJECT
 10
11925.0
 20
-890.0
 30
0.0
 11
11925.0
 21
-1163.0
 31
0.0
1001
ACDBBLOCKREPETAG
1070
     1
1071
        1
1005
11E107
  0
LINE
  5
11E108
  8
OBJECT
 10
12075.0
 20
-889.99999999999409
 30
0.0
 11
12075.0
 21
-1163.0
 31
0.0
1001
ACDBBLOCKREPETAG
1070
     1
1071
        3
1005
11E108
  0
LINE
  5
11E109
  8
CENTER
 10
12000.0
 20
-890.0
 30
0.0
 11
12000.0
 21
-1175.0
 31
0.0
1001
ACDBBLOCKREPETAG
1070
     1
1071
        6
1005
11E109
  0
LINE
  5
11E10A
  8
OBJECT
 10
11920.0
 20
-1175.0
 30
0.0
 11
12080.0
 21
-1175.0
 31
0.0
1001
ACDBBLOCKREPETAG
1070
     1
1071
        7
1005
11E10A
  0
LINE
  5
11E10B
  8
OBJECT
 10
11920.0
 20
-1163.0
 30
0.0
 11
12080.0
 21
-1163.0
 31
0.0
1001
ACDBBLOCKREPETAG
1070
     1
1071
        8
1005
11E10B
  0
LINE
  5
11E10C
  8
OBJECT
 10
11920.0
 20
-1163.0
 30
0.0
 11
11920.0
 21
-1175.0
 31
0.0
1001
ACDBBLOCKREPETAG
1070
     1
1071
        9
1005
11E10C
  0
LINE
  5
11E10D
  8
OBJECT
 10
12080.0
 20
-1163.0
 30
0.0
 11
12080.0
 21
-1175.0
 31
0.0
1001
ACDBBLOCKREPETAG
1070
     1
1071
       10
1005
11E10D
  0
LINE
  5
11E10E
  8
CENTER
 10
11909.0
 20
-1758.9999999999959
 30
0.0
 11
12105.0
 21
-1758.9999999999959
 31
0.0
1001
ACDBBLOCKREPETAG
1070
     1
1071
       10
1005
11E10E
  0
LINE
  5
11E10F
  8
CENTER
 10
12000.0
 20
-1667.7253355707801
 30
0.0
 11
12000.0
 21
-1850.274664429212
 31
0.0
1001
ACDBBLOCKREPETAG
1070
     1
1071
       11
1005
11E10F
  0
CIRCLE
  5
11E110
  8
OBJECT
 10
12000.0
 20
-1758.9999999999959
 30
0.0
 40
50.0
1001
ACDBBLOCKREPETAG
1070
     1
1071
       12
1005
11E110
  0
CIRCLE
  5
11E111
  8
OBJECT
 10
12000.0
 20
-1758.9999999999959
 30
0.0
 40
60.0
1001
ACDBBLOCKREPETAG
1070
     1
1071
       13
1005
11E111
  0
CIRCLE
  5
11E112
  8
OBJECT
 10
12000.0
 20
-1758.9999999999959
 30
0.0
 40
68.0
1001
ACDBBLOCKREPETAG
1070
     1
1071
       14
1005
11E112
  0
ARC
  5
11E113
  8
OBJECT
 10
12077.5
 20
-1758.9999999999959
 30
0.0
 40
12.0
 50
272.10542627221611
 51
87.894573727783893
1001
ACDBBLOCKREPETAG
1070
     1
1071
       15
1005
11E113
  0
ARC
  5
11E114
  8
OBJECT
 10
12078.49193548386
 20
-1732.0182271895239
 30
0.0
 40
15.0
 50
198.97051877965251
 51
267.89457372778372
1001
ACDBBLOCKREPETAG
1070
     1
1071
       16
1005
11E114
  0
ARC
  5
11E115
  8
OBJECT
 10
12078.49193548386
 20
-1785.981772810464
 30
0.0
 40
15.0
 50
92.105426272216135
 51
161.02948122034729
1001
ACDBBLOCKREPETAG
1070
     1
1071
       17
1005
11E115
  0
CIRCLE
  5
11E116
  8
SLIM
 10
12078.0
 20
-1758.9999999999959
 30
0.0
 40
8.0
1001
ACDBBLOCKREPETAG
1070
     1
1071
       18
1005
11E116
  0
POLYLINE
  5
11E117
  8
SLIM
 66
     1
 10
0.0
 20
0.0
 30
0.0
 70
     1
1001
ACDBBLOCKREPETAG
1070
     1
1071
       19
1005
11E117
  0
VERTEX
  5
11E394
  8
SLIM
 10
12075.69059892322
 20
-1754.9999999999959
 30
0.0
  0
VERTEX
  5
11E395
  8
SLIM
 10
12073.38119784648
 20
-1758.9999999999959
 30
0.0
  0
VERTEX
  5
11E396
  8
SLIM
 10
12075.69059892322
 20
-1762.9999999999959
 30
0.0
  0
VERTEX
  5
11E397
  8
SLIM
 10
12080.309401076751
 20
-1762.9999999999959
 30
0.0
  0
VERTEX
  5
11E398
  8
SLIM
 10
12082.618802153511
 20
-1758.9999999999959
 30
0.0
  0
VERTEX
  5
11E399
  8
SLIM
 10
12080.309401076751
 20
-1754.9999999999959
 30
0.0
  0
SEQEND
  5
11E39A
  8
SLIM
  0
ARC
  5
11E118
  8
OBJECT
 10
11961.25
 20
-1691.8830312067
 30
0.0
 40
12.0
 50
32.105426272130188
 51
207.89457372768319
1001
ACDBBLOCKREPETAG
1070
     1
1071
       20
1005
11E118
  0
ARC
  5
11E119
  8
OBJECT
 10
11937.38713156505
 20
-1704.514876283989
 30
0.0
 40
15.0
 50
318.97051877944762
 51
27.89457372768311
1001
ACDBBLOCKREPETAG
1070
     1
1071
       21
1005
11E119
  0
ARC
  5
11E11A
  8
OBJECT
 10
11984.120932951069
 20
-1677.533103473517
 30
0.0
 40
15.0
 50
212.10542627213019
 51
281.02948122044069
1001
ACDBBLOCKREPETAG
1070
     1
1071
       22
1005
11E11A
  0
CIRCLE
  5
11E11B
  8
SLIM
 10
11961.0
 20
-1691.4500185048089
 30
0.0
 40
7.9999999999999982
1001
ACDBBLOCKREPETAG
1070
     1
1071
       23
1005
11E11B
  0
POLYLINE
  5
11E11C
  8
SLIM
 66
     1
 10
0.0
 20
0.0
 30
0.0
 70
     1
1001
ACDBBLOCKREPETAG
1070
     1
1071
       24
1005
11E11C
  0
VERTEX
  5
11E39B
  8
SLIM
 10
11958.69059892324
 20
-1695.450018504808
 30
0.0
  0
VERTEX
  5
11E39C
  8
SLIM
 10
11963.309401076751
 20
-1695.450018504808
 30
0.0
  0
VERTEX
  5
11E39D
  8
SLIM
 10
11965.618802153511
 20
-1691.4500185048089
 30
0.0
  0
VERTEX
  5
11E39E
  8
SLIM
 10
11963.309401076751
 20
-1687.4500185048089
 30
0.0
  0
VERTEX
  5
11E39F
  8
SLIM
 10
11958.69059892324
 20
-1687.4500185048089
 30
0.0
  0
VERTEX
  5
11E3A0
  8
SLIM
 10
11956.38119784648
 20
-1691.4500185048089
 30
0.0
  0
SEQEND
  5
11E3A1
  8
SLIM
  0
ARC
  5
11E11D
  8
OBJECT
 10
11961.25
 20
-1826.1169687932891
 30
0.0
 40
12.0
 50
152.10542627231681
 51
327.89457372786978
1001
ACDBBLOCKREPETAG
1070
     1
1071
       25
1005
11E11D
  0
ARC
  5
11E11E
  8
OBJECT
 10
11984.120932951069
 20
-1840.4668965264721
 30
0.0
 40
15.0
 50
78.970518779559228
 51
147.89457372786981
1001
ACDBBLOCKREPETAG
1070
     1
1071
       26
1005
11E11E
  0
ARC
  5
11E11F
  8
OBJECT
 10
11937.38713156505
 20
-1813.485123716004
 30
0.0
 40
15.0
 50
332.10542627231678
 51
41.029481220552412
1001
ACDBBLOCKREPETAG
1070
     1
1071
       27
1005
11E11F
  0
CIRCLE
  5
11E120
  8
SLIM
 10
11961.0
 20
-1826.5499814951829
 30
0.0
 40
8.0
1001
ACDBBLOCKREPETAG
1070
     1
1071
       28
1005
11E120
  0
POLYLINE
  5
11E121
  8
SLIM
 66
     1
 10
0.0
 20
0.0
 30
0.0
 70
     1
1001
ACDBBLOCKREPETAG
1070
     1
1071
       29
1005
11E121
  0
VERTEX
  5
11E3A2
  8
SLIM
 10
11965.618802153511
 20
-1826.54998149518
 30
0.0
  0
VERTEX
  5
11E3A3
  8
SLIM
 10
11963.309401076751
 20
-1822.5499814951829
 30
0.0
  0
VERTEX
  5
11E3A4
  8
SLIM
 10
11958.69059892324
 20
-1822.54998149518
 30
0.0
  0
VERTEX
  5
11E3A5
  8
SLIM
 10
11956.38119784648
 20
-1826.5499814951829
 30
0.0
  0
VERTEX
  5
11E3A6
  8
SLIM
 10
11958.69059892322
 20
-1830.54998149518
 30
0.0
  0
VERTEX
  5
11E3A7
  8
SLIM
 10
11963.309401076751
 20
-1830.5499814951841
 30
0.0
  0
SEQEND
  5
11E3A8
  8
SLIM
  0
ARC
  5
11E122
  8
OBJECT
 10
12000.0
 20
-1758.9999999999959
 30
0.0
 40
76.0
 50
34.863837954171863
 51
85.136162045732945
1001
ACDBBLOCKREPETAG
1070
     1
1071
       42
1005
11E122
  0
ARC
  5
11E123
  8
OBJECT
 10
12000.0
 20
-1758.9999999999959
 30
0.0
 40
76.0
 50
154.86383795430939
 51
205.1361620456905
1001
ACDBBLOCKREPETAG
1070
     1
1071
       43
1005
11E123
  0
ARC
  5
11E124
  8
OBJECT
 10
12000.0
 20
-1758.9999999999959
 30
0.0
 40
76.0
 50
274.86383795426718
 51
325.13616204582797
1001
ACDBBLOCKREPETAG
1070
     1
1071
       44
1005
11E124
  0
ARC
  5
11E125
  8
OBJECT
 10
12078.0
 20
-1758.9999999999959
 30
0.0
 40
12.0
 50
325.13616204582797
 51
34.863837954171863
1001
ACDBBLOCKREPETAG
1070
     1
1071
       45
1005
11E125
  0
LINE
  5
11E126
  8
OBJECT
 10
12087.84615384616
 20
-1752.140462520134
 30
0.0
 11
12062.358974359049
 21
-1715.556262627535
 31
0.0
1001
ACDBBLOCKREPETAG
1070
     1
1071
       46
1005
11E126
  0
LINE
  5
11E127
  8
OBJECT
 10
12087.846153846171
 20
-1765.859537479857
 30
0.0
 11
12062.358974359049
 21
-1802.4437373724591
 31
0.0
1001
ACDBBLOCKREPETAG
1070
     1
1071
       47
1005
11E127
  0
ARC
  5
11E128
  8
OBJECT
 10
11961.0
 20
-1691.4500185048109
 30
0.0
 40
12.0
 50
85.136162045942811
 51
154.86383795410001
1001
ACDBBLOCKREPETAG
1070
     1
1071
       48
1005
11E128
  0
LINE
  5
11E129
  8
OBJECT
 10
11950.13638936114
 20
-1686.3527678843909
 30
0.0
 11
11931.19713262058
 21
-1726.7174127373471
 31
0.0
1001
ACDBBLOCKREPETAG
1070
     1
1071
       49
1005
11E129
  0
LINE
  5
11E12A
  8
OBJECT
 10
11962.017456792681
 20
-1679.4932304045269
 30
0.0
 11
12006.443893020371
 21
-1683.273675364886
 31
0.0
1001
ACDBBLOCKREPETAG
1070
     1
1071
       50
1005
11E12A
  0
ARC
  5
11E12B
  8
OBJECT
 10
11961.0
 20
-1826.549981495182
 30
0.0
 40
12.0
 50
205.13616204589991
 51
274.8638379540572
1001
ACDBBLOCKREPETAG
1070
     1
1071
       51
1005
11E12B
  0
LINE
  5
11E12C
  8
OBJECT
 10
11962.01745679269
 20
-1838.506769595464
 30
0.0
 11
12006.44389302036
 21
-1834.7263246351069
 31
0.0
1001
ACDBBLOCKREPETAG
1070
     1
1071
       52
1005
11E12C
  0
LINE
  5
11E12D
  8
OBJECT
 10
11950.13638936114
 20
-1831.647232115605
 30
0.0
 11
11931.19713262058
 21
-1791.282587262642
 31
0.0
1001
ACDBBLOCKREPETAG
1070
     1
1071
       53
1005
11E12D
  0
LINE
  5
11E12E
  8
CENTER
 10
9909.0
 20
-1758.9999999999959
 30
0.0
 11
10105.0
 21
-1758.9999999999959
 31
0.0
1001
ACDBBLOCKREPETAG
1070
     1
1071
        0
1005
11E12E
  0
LINE
  5
11E12F
  8
CENTER
 10
10000.0
 20
-1667.7253355707801
 30
0.0
 11
10000.0
 21
-1850.274664429212
 31
0.0
1001
ACDBBLOCKREPETAG
1070
     1
1071
        1
1005
11E12F
  0
CIRCLE
  5
11E130
  8
OBJECT
 10
10000.0
 20
-1758.9999999999959
 30
0.0
 40
50.0
1001
ACDBBLOCKREPETAG
1070
     1
1071
        2
1005
11E130
  0
CIRCLE
  5
11E131
  8
OBJECT
 10
10000.0
 20
-1758.9999999999959
 30
0.0
 40
62.0
1001
ACDBBLOCKREPETAG
1070
     1
1071
        3
1005
11E131
  0
CIRCLE
  5
11E132
  8
SLIM
 10
10078.0
 20
-1758.9999999999959
 30
0.0
 40
5.0
1001
ACDBBLOCKREPETAG
1070
     1
1071
        4
1005
11E132
  0
POLYLINE
  5
11E133
  8
SLIM
 66
     1
 10
0.0
 20
0.0
 30
0.0
 70
     1
1001
ACDBBLOCKREPETAG
1070
     1
1071
        5
1005
11E133
  0
VERTEX
  5
11E3A9
  8
SLIM
 10
10073.092522711881
 20
-1750.4999999999959
 30
0.0
  0
VERTEX
  5
11E3AA
  8
SLIM
 10
10068.18504542377
 20
-1758.9999999999959
 30
0.0
  0
VERTEX
  5
11E3AB
  8
SLIM
 10
10073.092522711881
 20
-1767.4999999999959
 30
0.0
  0
VERTEX
  5
11E3AC
  8
SLIM
 10
10082.907477288099
 20
-1767.4999999999959
 30
0.0
  0
VERTEX
  5
11E3AD
  8
SLIM
 10
10087.814954576221
 20
-1758.9999999999959
 30
0.0
  0
VERTEX
  5
11E3AE
  8
SLIM
 10
10082.907477288099
 20
-1750.4999999999959
 30
0.0
  0
SEQEND
  5
11E3AF
  8
SLIM
  0
CIRCLE
  5
11E134
  8
SLIM
 10
9961.0
 20
-1691.4500185048089
 30
0.0
 40
4.9999999999999991
1001
ACDBBLOCKREPETAG
1070
     1
1071
        6
1005
11E134
  0
POLYLINE
  5
11E135
  8
SLIM
 66
     1
 10
0.0
 20
0.0
 30
0.0
 70
     1
1001
ACDBBLOCKREPETAG
1070
     1
1071
        7
1005
11E135
  0
VERTEX
  5
11E3B0
  8
SLIM
 10
9956.092522711886
 20
-1699.9500185048089
 30
0.0
  0
VERTEX
  5
11E3B1
  8
SLIM
 10
9965.907477288114
 20
-1699.9500185048089
 30
0.0
  0
VERTEX
  5
11E3B2
  8
SLIM
 10
9970.814954576219
 20
-1691.4500185048089
 30
0.0
  0
VERTEX
  5
11E3B3
  8
SLIM
 10
9965.907477288114
 20
-1682.9500185048089
 30
0.0
  0
VERTEX
  5
11E3B4
  8
SLIM
 10
9956.092522711886
 20
-1682.9500185048089
 30
0.0
  0
VERTEX
  5
11E3B5
  8
SLIM
 10
9951.185045423772
 20
-1691.4500185048089
 30
0.0
  0
SEQEND
  5
11E3B6
  8
SLIM
  0
CIRCLE
  5
11E136
  8
SLIM
 10
9961.0
 20
-1826.5499814951829
 30
0.0
 40
5.0
1001
ACDBBLOCKREPETAG
1070
     1
1071
        8
1005
11E136
  0
POLYLINE
  5
11E137
  8
SLIM
 66
     1
 10
0.0
 20
0.0
 30
0.0
 70
     1
1001
ACDBBLOCKREPETAG
1070
     1
1071
        9
1005
11E137
  0
VERTEX
  5
11E3B7
  8
SLIM
 10
9970.814954576219
 20
-1826.5499814951829
 30
0.0
  0
VERTEX
  5
11E3B8
  8
SLIM
 10
9965.9074772881049
 20
-1818.04998149518
 30
0.0
  0
VERTEX
  5
11E3B9
  8
SLIM
 10
9956.092522711886
 20
-1818.0499814951841
 30
0.0
  0
VERTEX
  5
11E3BA
  8
SLIM
 10
9951.185045423772
 20
-1826.54998149518
 30
0.0
  0
VERTEX
  5
11E3BB
  8
SLIM
 10
9956.092522711886
 20
-1835.0499814951829
 30
0.0
  0
VERTEX
  5
11E3BC
  8
SLIM
 10
9965.907477288114
 20
-1835.04998149518
 30
0.0
  0
SEQEND
  5
11E3BD
  8
SLIM
  0
ARC
  5
11E138
  8
OBJECT
 10
10000.0
 20
-1758.9999999999959
 30
0.0
 40
76.0
 50
34.863837954171863
 51
85.136162045732945
1001
ACDBBLOCKREPETAG
1070
     1
1071
       30
1005
11E138
  0
ARC
  5
11E139
  8
OBJECT
 10
10000.0
 20
-1758.9999999999959
 30
0.0
 40
76.0
 50
154.86383795430939
 51
205.1361620456905
1001
ACDBBLOCKREPETAG
1070
     1
1071
       31
1005
11E139
  0
ARC
  5
11E13A
  8
OBJECT
 10
10000.0
 20
-1758.9999999999959
 30
0.0
 40
76.0
 50
274.86383795426718
 51
325.13616204582797
1001
ACDBBLOCKREPETAG
1070
     1
1071
       32
1005
11E13A
  0
ARC
  5
11E13B
  8
OBJECT
 10
10078.0
 20
-1758.9999999999959
 30
0.0
 40
12.0
 50
325.13616204582797
 51
34.863837954171863
1001
ACDBBLOCKREPETAG
1070
     1
1071
       33
1005
11E13B
  0
LINE
  5
11E13C
  8
OBJECT
 10
10087.84615384616
 20
-1752.140462520134
 30
0.0
 11
10062.35897435904
 21
-1715.556262627535
 31
0.0
1001
ACDBBLOCKREPETAG
1070
     1
1071
       34
1005
11E13C
  0
LINE
  5
11E13D
  8
OBJECT
 10
10087.846153846171
 20
-1765.859537479857
 30
0.0
 11
10062.35897435904
 21
-1802.4437373724591
 31
0.0
1001
ACDBBLOCKREPETAG
1070
     1
1071
       35
1005
11E13D
  0
ARC
  5
11E13E
  8
OBJECT
 10
9961.0
 20
-1691.4500185048109
 30
0.0
 40
12.0
 50
85.136162045942811
 51
154.86383795410001
1001
ACDBBLOCKREPETAG
1070
     1
1071
       36
1005
11E13E
  0
LINE
  5
11E13F
  8
OBJECT
 10
9950.1363893611433
 20
-1686.3527678843909
 30
0.0
 11
9931.1971326205894
 21
-1726.7174127373471
 31
0.0
1001
ACDBBLOCKREPETAG
1070
     1
1071
       37
1005
11E13F
  0
LINE
  5
11E140
  8
OBJECT
 10
9962.0174567926842
 20
-1679.4932304045269
 30
0.0
 11
10006.443893020371
 21
-1683.273675364886
 31
0.0
1001
ACDBBLOCKREPETAG
1070
     1
1071
       38
1005
11E140
  0
ARC
  5
11E141
  8
OBJECT
 10
9961.0
 20
-1826.549981495182
 30
0.0
 40
12.0
 50
205.13616204589991
 51
274.8638379540572
1001
ACDBBLOCKREPETAG
1070
     1
1071
       39
1005
11E141
  0
LINE
  5
11E142
  8
OBJECT
 10
9962.0174567926897
 20
-1838.506769595464
 30
0.0
 11
10006.44389302036
 21
-1834.7263246351069
 31
0.0
1001
ACDBBLOCKREPETAG
1070
     1
1071
       40
1005
11E142
  0
LINE
  5
11E143
  8
OBJECT
 10
9950.1363893611433
 20
-1831.647232115605
 30
0.0
 11
9931.1971326205821
 21
-1791.282587262642
 31
0.0
1001
ACDBBLOCKREPETAG
1070
     1
1071
       41
1005
11E143
  0
LINE
  5
11E144
  8
CENTER
 10
5909.0
 20
-1800.0
 30
0.0
 11
6105.0
 21
-1800.0
 31
0.0
1001
ACDBBLOCKREPETAG
1070
     1
1071
       10
1005
11E144
  0
LINE
  5
11E145
  8
CENTER
 10
6000.0
 20
-1708.725335570783
 30
0.0
 11
6000.0
 21
-1891.274664429216
 31
0.0
1001
ACDBBLOCKREPETAG
1070
     1
1071
       11
1005
11E145
  0
CIRCLE
  5
11E146
  8
OBJECT
 10
6000.0
 20
-1800.0
 30
0.0
 40
50.0
1001
ACDBBLOCKREPETAG
1070
     1
1071
       12
1005
11E146
  0
CIRCLE
  5
11E147
  8
OBJECT
 10
6000.0
 20
-1800.0
 30
0.0
 40
60.0
1001
ACDBBLOCKREPETAG
1070
     1
1071
       13
1005
11E147
  0
CIRCLE
  5
11E148
  8
OBJECT
 10
6000.0
 20
-1800.0
 30
0.0
 40
68.0
1001
ACDBBLOCKREPETAG
1070
     1
1071
       14
1005
11E148
  0
ARC
  5
11E149
  8
OBJECT
 10
6077.5
 20
-1800.0
 30
0.0
 40
12.0
 50
272.10542627221611
 51
87.894573727783893
1001
ACDBBLOCKREPETAG
1070
     1
1071
       15
1005
11E149
  0
ARC
  5
11E14A
  8
OBJECT
 10
6078.4919354838639
 20
-1773.018227189528
 30
0.0
 40
15.0
 50
198.9705187796356
 51
267.89457372778372
1001
ACDBBLOCKREPETAG
1070
     1
1071
       16
1005
11E14A
  0
ARC
  5
11E14B
  8
OBJECT
 10
6078.4919354838639
 20
-1826.9817728104681
 30
0.0
 40
15.0
 50
92.105426272216135
 51
161.02948122036429
1001
ACDBBLOCKREPETAG
1070
     1
1071
       17
1005
11E14B
  0
CIRCLE
  5
11E14C
  8
SLIM
 10
6078.0
 20
-1800.0
 30
0.0
 40
8.0
1001
ACDBBLOCKREPETAG
1070
     1
1071
       18
1005
11E14C
  0
POLYLINE
  5
11E14D
  8
SLIM
 66
     1
 10
0.0
 20
0.0
 30
0.0
 70
     1
1001
ACDBBLOCKREPETAG
1070
     1
1071
       19
1005
11E14D
  0
VERTEX
  5
11E3BE
  8
SLIM
 10
6075.6905989232328
 20
-1796.0
 30
0.0
  0
VERTEX
  5
11E3BF
  8
SLIM
 10
6073.3811978464801
 20
-1800.0
 30
0.0
  0
VERTEX
  5
11E3C0
  8
SLIM
 10
6075.6905989232328
 20
-1803.9999999999991
 30
0.0
  0
VERTEX
  5
11E3C1
  8
SLIM
 10
6080.3094010767527
 20
-1803.9999999999991
 30
0.0
  0
VERTEX
  5
11E3C2
  8
SLIM
 10
6082.6188021535136
 20
-1800.0
 30
0.0
  0
VERTEX
  5
11E3C3
  8
SLIM
 10
6080.3094010767527
 20
-1796.0
 30
0.0
  0
SEQEND
  5
11E3C4
  8
SLIM
  0
ARC
  5
11E14E
  8
OBJECT
 10
5961.25
 20
-1732.883031206703
 30
0.0
 40
12.0
 50
32.105426272157878
 51
207.89457372770741
1001
ACDBBLOCKREPETAG
1070
     1
1071
       20
1005
11E14E
  0
ARC
  5
11E14F
  8
OBJECT
 10
5937.387131565054
 20
-1745.514876283992
 30
0.0
 40
15.0
 50
318.97051877944762
 51
27.894573727707481
1001
ACDBBLOCKREPETAG
1070
     1
1071
       21
1005
11E14F
  0
ARC
  5
11E150
  8
OBJECT
 10
5984.1209329510702
 20
-1718.53310347352
 30
0.0
 40
15.0
 50
212.1054262721579
 51
281.02948122044069
1001
ACDBBLOCKREPETAG
1070
     1
1071
       22
1005
11E150
  0
CIRCLE
  5
11E151
  8
SLIM
 10
5961.0
 20
-1732.4500185048121
 30
0.0
 40
7.9999999999999982
1001
ACDBBLOCKREPETAG
1070
     1
1071
       23
1005
11E151
  0
POLYLINE
  5
11E152
  8
SLIM
 66
     1
 10
0.0
 20
0.0
 30
0.0
 70
     1
1001
ACDBBLOCKREPETAG
1070
     1
1071
       24
1005
11E152
  0
VERTEX
  5
11E3C5
  8
SLIM
 10
5958.69059892324
 20
-1736.4500185048121
 30
0.0
  0
VERTEX
  5
11E3C6
  8
SLIM
 10
5963.3094010767518
 20
-1736.4500185048121
 30
0.0
  0
VERTEX
  5
11E3C7
  8
SLIM
 10
5965.6188021535136
 20
-1732.4500185048121
 30
0.0
  0
VERTEX
  5
11E3C8
  8
SLIM
 10
5963.3094010767518
 20
-1728.4500185048121
 30
0.0
  0
VERTEX
  5
11E3C9
  8
SLIM
 10
5958.69059892324
 20
-1728.4500185048121
 30
0.0
  0
VERTEX
  5
11E3CA
  8
SLIM
 10
5956.3811978464792
 20
-1732.4500185048121
 30
0.0
  0
SEQEND
  5
11E3CB
  8
SLIM
  0
ARC
  5
11E153
  8
OBJECT
 10
5961.25
 20
-1867.116968793292
 30
0.0
 40
12.0
 50
152.1054262722925
 51
327.89457372784221
1001
ACDBBLOCKREPETAG
1070
     1
1071
       25
1005
11E153
  0
ARC
  5
11E154
  8
OBJECT
 10
5984.1209329510702
 20
-1881.466896526475
 30
0.0
 40
15.0
 50
78.970518779559228
 51
147.8945737278421
1001
ACDBBLOCKREPETAG
1070
     1
1071
       26
1005
11E154
  0
ARC
  5
11E155
  8
OBJECT
 10
5937.387131565054
 20
-1854.485123716006
 30
0.0
 40
15.0
 50
332.1054262722925
 51
41.029481220552412
1001
ACDBBLOCKREPETAG
1070
     1
1071
       27
1005
11E155
  0
CIRCLE
  5
11E156
  8
SLIM
 10
5961.0
 20
-1867.549981495187
 30
0.0
 40
8.0
1001
ACDBBLOCKREPETAG
1070
     1
1071
       28
1005
11E156
  0
POLYLINE
  5
11E157
  8
SLIM
 66
     1
 10
0.0
 20
0.0
 30
0.0
 70
     1
1001
ACDBBLOCKREPETAG
1070
     1
1071
       29
1005
11E157
  0
VERTEX
  5
11E3CC
  8
SLIM
 10
5965.6188021535136
 20
-1867.5499814951829
 30
0.0
  0
VERTEX
  5
11E3CD
  8
SLIM
 10
5963.3094010767518
 20
-1863.549981495187
 30
0.0
  0
VERTEX
  5
11E3CE
  8
SLIM
 10
5958.69059892324
 20
-1863.549981495182
 30
0.0
  0
VERTEX
  5
11E3CF
  8
SLIM
 10
5956.3811978464792
 20
-1867.549981495187
 30
0.0
  0
VERTEX
  5
11E3D0
  8
SLIM
 10
5958.6905989232328
 20
-1871.549981495182
 30
0.0
  0
VERTEX
  5
11E3D1
  8
SLIM
 10
5963.3094010767518
 20
-1871.549981495187
 30
0.0
  0
SEQEND
  5
11E3D2
  8
SLIM
  0
ARC
  5
11E158
  8
OBJECT
 10
6000.0
 20
-1800.0
 30
0.0
 40
76.0
 50
34.863837954142063
 51
85.136162045732945
1001
ACDBBLOCKREPETAG
1070
     1
1071
       42
1005
11E158
  0
ARC
  5
11E159
  8
OBJECT
 10
6000.0
 20
-1800.0
 30
0.0
 40
76.0
 50
154.86383795430939
 51
205.1361620456905
1001
ACDBBLOCKREPETAG
1070
     1
1071
       43
1005
11E159
  0
ARC
  5
11E15A
  8
OBJECT
 10
6000.0
 20
-1800.0
 30
0.0
 40
76.0
 50
274.86383795426718
 51
325.13616204585799
1001
ACDBBLOCKREPETAG
1070
     1
1071
       44
1005
11E15A
  0
ARC
  5
11E15B
  8
OBJECT
 10
6078.0
 20
-1800.0
 30
0.0
 40
12.0
 50
325.13616204585799
 51
34.863837954142063
1001
ACDBBLOCKREPETAG
1070
     1
1071
       45
1005
11E15B
  0
LINE
  5
11E15C
  8
OBJECT
 10
6087.846153846167
 20
-1793.1404625201369
 30
0.0
 11
6062.3589743590501
 21
-1756.556262627538
 31
0.0
1001
ACDBBLOCKREPETAG
1070
     1
1071
       46
1005
11E15C
  0
LINE
  5
11E15D
  8
OBJECT
 10
6087.8461538461697
 20
-1806.8595374798599
 30
0.0
 11
6062.3589743590501
 21
-1843.4437373724629
 31
0.0
1001
ACDBBLOCKREPETAG
1070
     1
1071
       47
1005
11E15D
  0
ARC
  5
11E15E
  8
OBJECT
 10
5961.0
 20
-1732.4500185048139
 30
0.0
 40
12.0
 50
85.136162045942811
 51
154.86383795410001
1001
ACDBBLOCKREPETAG
1070
     1
1071
       48
1005
11E15E
  0
LINE
  5
11E15F
  8
OBJECT
 10
5950.1363893611451
 20
-1727.3527678843941
 30
0.0
 11
5931.1971326205849
 21
-1767.7174127373501
 31
0.0
1001
ACDBBLOCKREPETAG
1070
     1
1071
       49
1005
11E15F
  0
LINE
  5
11E160
  8
OBJECT
 10
5962.0174567926842
 20
-1720.4932304045301
 30
0.0
 11
6006.4438930203669
 21
-1724.273675364889
 31
0.0
1001
ACDBBLOCKREPETAG
1070
     1
1071
       50
1005
11E160
  0
ARC
  5
11E161
  8
OBJECT
 10
5961.0
 20
-1867.549981495185
 30
0.0
 40
12.0
 50
205.13616204589991
 51
274.8638379540572
1001
ACDBBLOCKREPETAG
1070
     1
1071
       51
1005
11E161
  0
LINE
  5
11E162
  8
OBJECT
 10
5962.0174567926879
 20
-1879.5067695954669
 30
0.0
 11
6006.4438930203651
 21
-1875.726324635109
 31
0.0
1001
ACDBBLOCKREPETAG
1070
     1
1071
       52
1005
11E162
  0
LINE
  5
11E163
  8
OBJECT
 10
5950.1363893611451
 20
-1872.6472321156079
 30
0.0
 11
5931.1971326205821
 21
-1832.2825872626461
 31
0.0
1001
ACDBBLOCKREPETAG
1070
     1
1071
       53
1005
11E163
  0
LINE
  5
11E164
  8
CENTER
 10
3909.0
 20
-1758.9999999999959
 30
0.0
 11
4105.0
 21
-1758.9999999999959
 31
0.0
1001
ACDBBLOCKREPETAG
1070
     1
1071
        0
1005
11E164
  0
LINE
  5
11E165
  8
CENTER
 10
4000.0
 20
-1667.7253355707801
 30
0.0
 11
4000.0
 21
-1850.274664429212
 31
0.0
1001
ACDBBLOCKREPETAG
1070
     1
1071
        1
1005
11E165
  0
CIRCLE
  5
11E166
  8
OBJECT
 10
4000.0
 20
-1758.9999999999959
 30
0.0
 40
50.0
1001
ACDBBLOCKREPETAG
1070
     1
1071
        2
1005
11E166
  0
CIRCLE
  5
11E167
  8
OBJECT
 10
4000.0
 20
-1758.9999999999959
 30
0.0
 40
62.0
1001
ACDBBLOCKREPETAG
1070
     1
1071
        3
1005
11E167
  0
CIRCLE
  5
11E168
  8
SLIM
 10
4078.0
 20
-1758.9999999999959
 30
0.0
 40
5.0
1001
ACDBBLOCKREPETAG
1070
     1
1071
        4
1005
11E168
  0
POLYLINE
  5
11E169
  8
SLIM
 66
     1
 10
0.0
 20
0.0
 30
0.0
 70
     1
1001
ACDBBLOCKREPETAG
1070
     1
1071
        5
1005
11E169
  0
VERTEX
  5
11E3D3
  8
SLIM
 10
4073.092522711886
 20
-1750.4999999999959
 30
0.0
  0
VERTEX
  5
11E3D4
  8
SLIM
 10
4068.185045423772
 20
-1758.9999999999959
 30
0.0
  0
VERTEX
  5
11E3D5
  8
SLIM
 10
4073.092522711886
 20
-1767.4999999999959
 30
0.0
  0
VERTEX
  5
11E3D6
  8
SLIM
 10
4082.9074772881072
 20
-1767.4999999999959
 30
0.0
  0
VERTEX
  5
11E3D7
  8
SLIM
 10
4087.8149545762199
 20
-1758.9999999999959
 30
0.0
  0
VERTEX
  5
11E3D8
  8
SLIM
 10
4082.9074772881072
 20
-1750.4999999999959
 30
0.0
  0
SEQEND
  5
11E3D9
  8
SLIM
  0
CIRCLE
  5
11E16A
  8
SLIM
 10
3961.0
 20
-1691.4500185048089
 30
0.0
 40
4.9999999999999991
1001
ACDBBLOCKREPETAG
1070
     1
1071
        6
1005
11E16A
  0
POLYLINE
  5
11E16B
  8
SLIM
 66
     1
 10
0.0
 20
0.0
 30
0.0
 70
     1
1001
ACDBBLOCKREPETAG
1070
     1
1071
        7
1005
11E16B
  0
VERTEX
  5
11E3DA
  8
SLIM
 10
3956.092522711886
 20
-1699.9500185048089
 30
0.0
  0
VERTEX
  5
11E3DB
  8
SLIM
 10
3965.907477288114
 20
-1699.9500185048089
 30
0.0
  0
VERTEX
  5
11E3DC
  8
SLIM
 10
3970.8149545762212
 20
-1691.4500185048089
 30
0.0
  0
VERTEX
  5
11E3DD
  8
SLIM
 10
3965.907477288114
 20
-1682.9500185048089
 30
0.0
  0
VERTEX
  5
11E3DE
  8
SLIM
 10
3956.092522711886
 20
-1682.9500185048089
 30
0.0
  0
VERTEX
  5
11E3DF
  8
SLIM
 10
3951.185045423772
 20
-1691.4500185048089
 30
0.0
  0
SEQEND
  5
11E3E0
  8
SLIM
  0
CIRCLE
  5
11E16C
  8
SLIM
 10
3961.0
 20
-1826.5499814951829
 30
0.0
 40
5.0
1001
ACDBBLOCKREPETAG
1070
     1
1071
        8
1005
11E16C
  0
POLYLINE
  5
11E16D
  8
SLIM
 66
     1
 10
0.0
 20
0.0
 30
0.0
 70
     1
1001
ACDBBLOCKREPETAG
1070
     1
1071
        9
1005
11E16D
  0
VERTEX
  5
11E3E1
  8
SLIM
 10
3970.8149545762212
 20
-1826.5499814951829
 30
0.0
  0
VERTEX
  5
11E3E2
  8
SLIM
 10
3965.9074772881072
 20
-1818.04998149518
 30
0.0
  0
VERTEX
  5
11E3E3
  8
SLIM
 10
3956.092522711886
 20
-1818.0499814951841
 30
0.0
  0
VERTEX
  5
11E3E4
  8
SLIM
 10
3951.185045423772
 20
-1826.54998149518
 30
0.0
  0
VERTEX
  5
11E3E5
  8
SLIM
 10
3956.092522711886
 20
-1835.0499814951829
 30
0.0
  0
VERTEX
  5
11E3E6
  8
SLIM
 10
3965.907477288114
 20
-1835.04998149518
 30
0.0
  0
SEQEND
  5
11E3E7
  8
SLIM
  0
ARC
  5
11E16E
  8
OBJECT
 10
4000.0
 20
-1758.9999999999959
 30
0.0
 40
76.0
 50
34.863837954142063
 51
85.136162045732945
1001
ACDBBLOCKREPETAG
1070
     1
1071
       30
1005
11E16E
  0
ARC
  5
11E16F
  8
OBJECT
 10
4000.0
 20
-1758.9999999999959
 30
0.0
 40
76.0
 50
154.86383795430939
 51
205.1361620456905
1001
ACDBBLOCKREPETAG
1070
     1
1071
       31
1005
11E16F
  0
ARC
  5
11E170
  8
OBJECT
 10
4000.0
 20
-1758.9999999999959
 30
0.0
 40
76.0
 50
274.86383795426718
 51
325.13616204585799
1001
ACDBBLOCKREPETAG
1070
     1
1071
       32
1005
11E170
  0
ARC
  5
11E171
  8
OBJECT
 10
4078.0
 20
-1758.9999999999959
 30
0.0
 40
12.0
 50
325.13616204585799
 51
34.863837954142063
1001
ACDBBLOCKREPETAG
1070
     1
1071
       33
1005
11E171
  0
LINE
  5
11E172
  8
OBJECT
 10
4087.846153846167
 20
-1752.140462520134
 30
0.0
 11
4062.3589743590492
 21
-1715.556262627535
 31
0.0
1001
ACDBBLOCKREPETAG
1070
     1
1071
       34
1005
11E172
  0
LINE
  5
11E173
  8
OBJECT
 10
4087.8461538461711
 20
-1765.859537479857
 30
0.0
 11
4062.3589743590492
 21
-1802.4437373724591
 31
0.0
1001
ACDBBLOCKREPETAG
1070
     1
1071
       35
1005
11E173
  0
ARC
  5
11E174
  8
OBJECT
 10
3961.0
 20
-1691.4500185048109
 30
0.0
 40
12.0
 50
85.136162045942811
 51
154.86383795411109
1001
ACDBBLOCKREPETAG
1070
     1
1071
       36
1005
11E174
  0
LINE
  5
11E175
  8
OBJECT
 10
3950.136389361146
 20
-1686.3527678843909
 30
0.0
 11
3931.1971326205862
 21
-1726.7174127373471
 31
0.0
1001
ACDBBLOCKREPETAG
1070
     1
1071
       37
1005
11E175
  0
LINE
  5
11E176
  8
OBJECT
 10
3962.0174567926852
 20
-1679.4932304045269
 30
0.0
 11
4006.4438930203678
 21
-1683.273675364886
 31
0.0
1001
ACDBBLOCKREPETAG
1070
     1
1071
       38
1005
11E176
  0
ARC
  5
11E177
  8
OBJECT
 10
3961.0
 20
-1826.549981495182
 30
0.0
 40
12.0
 50
205.13616204588891
 51
274.8638379540572
1001
ACDBBLOCKREPETAG
1070
     1
1071
       39
1005
11E177
  0
LINE
  5
11E178
  8
OBJECT
 10
3962.0174567926879
 20
-1838.506769595464
 30
0.0
 11
4006.4438930203651
 21
-1834.7263246351069
 31
0.0
1001
ACDBBLOCKREPETAG
1070
     1
1071
       40
1005
11E178
  0
LINE
  5
11E179
  8
OBJECT
 10
3950.136389361146
 20
-1831.647232115605
 30
0.0
 11
3931.1971326205821
 21
-1791.282587262642
 31
0.0
1001
ACDBBLOCKREPETAG
1070
     1
1071
       41
1005
11E179
  0
LINE
  5
11E17A
  8
OBJECT
 10
1943.0
 20
-1484.9999999999959
 30
0.0
 11
2057.0
 21
-1484.9999999999959
 31
0.0
1001
ACDBBLOCKREPETAG
1070
     1
1071
        0
1005
11E17A
  0
LINE
  5
11E17B
  8
OBJECT
 10
1943.0
 20
-1484.9999999999959
 30
0.0
 11
1943.0
 21
-1384.9999999999959
 31
0.0
1001
ACDBBLOCKREPETAG
1070
     1
1071
        1
1005
11E17B
  0
LINE
  5
11E17C
  8
OBJECT
 10
2057.0
 20
-1484.9999999999959
 30
0.0
 11
2057.0
 21
-1384.9999999999959
 31
0.0
1001
ACDBBLOCKREPETAG
1070
     1
1071
        2
1005
11E17C
  0
LINE
  5
11E17D
  8
OBJECT
 10
1943.0
 20
-1384.9999999999959
 30
0.0
 11
2057.0
 21
-1384.9999999999959
 31
0.0
1001
ACDBBLOCKREPETAG
1070
     1
1071
        3
1005
11E17D
  0
LINE
  5
11E17E
  8
HIDDEN
 10
1950.0
 20
-1384.9999999999959
 30
0.0
 11
1950.0
 21
-1484.9999999999959
 31
0.0
1001
ACDBBLOCKREPETAG
1070
     1
1071
        4
1005
11E17E
  0
LINE
  5
11E17F
  8
HIDDEN
 10
2050.0
 20
-1384.9999999999959
 30
0.0
 11
2050.0
 21
-1484.9999999999959
 31
0.0
1001
ACDBBLOCKREPETAG
1070
     1
1071
        5
1005
11E17F
  0
LINE
  5
11E180
  8
CENTER
 10
2000.0
 20
-1175.0
 30
0.0
 11
2000.0
 21
-1499.9999999999959
 31
0.0
1001
ACDBBLOCKREPETAG
1070
     1
1071
        6
1005
11E180
  0
LINE
  5
11E181
  8
OBJECT
 10
1925.0
 20
-1175.0
 30
0.0
 11
1925.0
 21
-1256.9999999999959
 31
0.0
1001
ACDBBLOCKREPETAG
1070
     1
1071
        7
1005
11E181
  0
LINE
  5
11E182
  8
OBJECT
 10
2075.0
 20
-1175.0
 30
0.0
 11
2075.0
 21
-1256.9999999999959
 31
0.0
1001
ACDBBLOCKREPETAG
1070
     1
1071
        8
1005
11E182
  0
LINE
  5
11E183
  8
OBJECT
 10
1925.0
 20
-1256.9999999999959
 30
0.0
 11
2075.0
 21
-1256.9999999999959
 31
0.0
1001
ACDBBLOCKREPETAG
1070
     1
1071
        9
1005
11E183
  0
LINE
  5
11E184
  8
OBJECT
 10
1925.0
 20
-1256.9999999999959
 30
0.0
 11
1943.0
 21
-1384.9999999999959
 31
0.0
1001
ACDBBLOCKREPETAG
1070
     1
1071
       10
1005
11E184
  0
LINE
  5
11E185
  8
OBJECT
 10
2057.0
 20
-1384.9999999999959
 30
0.0
 11
2075.0
 21
-1256.9999999999959
 31
0.0
1001
ACDBBLOCKREPETAG
1070
     1
1071
       11
1005
11E185
  0
TEXT
  5
11E186
  8
SLIM
 10
3853.75
 20
-2026.4999999999959
 30
0.0
 40
35.0
  1
両受けスタイル（W）
 41
0.75
  0
LINE
  5
11E187
  8
OBJECT
 10
1925.0
 20
-890.0
 30
0.0
 11
1925.0
 21
-1163.0
 31
0.0
1001
ACDBBLOCKREPETAG
1070
     1
1071
        1
1005
11E187
  0
LINE
  5
11E188
  8
OBJECT
 10
2075.0
 20
-889.99999999999409
 30
0.0
 11
2075.0
 21
-1163.0
 31
0.0
1001
ACDBBLOCKREPETAG
1070
     1
1071
        3
1005
11E188
  0
LINE
  5
11E189
  8
CENTER
 10
2000.0
 20
-890.0
 30
0.0
 11
2000.0
 21
-1175.0
 31
0.0
1001
ACDBBLOCKREPETAG
1070
     1
1071
        6
1005
11E189
  0
LINE
  5
11E18A
  8
OBJECT
 10
1920.0
 20
-1175.0
 30
0.0
 11
2080.0
 21
-1175.0
 31
0.0
1001
ACDBBLOCKREPETAG
1070
     1
1071
        7
1005
11E18A
  0
LINE
  5
11E18B
  8
OBJECT
 10
1920.0
 20
-1163.0
 30
0.0
 11
2080.0
 21
-1163.0
 31
0.0
1001
ACDBBLOCKREPETAG
1070
     1
1071
        8
1005
11E18B
  0
LINE
  5
11E18C
  8
OBJECT
 10
1920.0
 20
-1163.0
 30
0.0
 11
1920.0
 21
-1175.0
 31
0.0
1001
ACDBBLOCKREPETAG
1070
     1
1071
        9
1005
11E18C
  0
LINE
  5
11E18D
  8
OBJECT
 10
2080.0
 20
-1163.0
 30
0.0
 11
2080.0
 21
-1175.0
 31
0.0
1001
ACDBBLOCKREPETAG
1070
     1
1071
       10
1005
11E18D
  0
LINE
  5
11E18E
  8
OBJECT
 10
3925.0
 20
-890.0
 30
0.0
 11
3925.0
 21
-1163.0
 31
0.0
1001
ACDBBLOCKREPETAG
1070
     1
1071
        1
1005
11E18E
  0
LINE
  5
11E18F
  8
OBJECT
 10
4075.0
 20
-889.99999999999409
 30
0.0
 11
4075.0
 21
-1163.0
 31
0.0
1001
ACDBBLOCKREPETAG
1070
     1
1071
        3
1005
11E18F
  0
LINE
  5
11E190
  8
CENTER
 10
4000.0
 20
-890.0
 30
0.0
 11
4000.0
 21
-1175.0
 31
0.0
1001
ACDBBLOCKREPETAG
1070
     1
1071
        6
1005
11E190
  0
LINE
  5
11E191
  8
OBJECT
 10
3920.0
 20
-1175.0
 30
0.0
 11
4080.0
 21
-1175.0
 31
0.0
1001
ACDBBLOCKREPETAG
1070
     1
1071
        7
1005
11E191
  0
LINE
  5
11E192
  8
OBJECT
 10
3920.0
 20
-1163.0
 30
0.0
 11
4080.0
 21
-1163.0
 31
0.0
1001
ACDBBLOCKREPETAG
1070
     1
1071
        8
1005
11E192
  0
LINE
  5
11E193
  8
OBJECT
 10
3920.0
 20
-1163.0
 30
0.0
 11
3920.0
 21
-1175.0
 31
0.0
1001
ACDBBLOCKREPETAG
1070
     1
1071
        9
1005
11E193
  0
LINE
  5
11E194
  8
OBJECT
 10
4080.0
 20
-1163.0
 30
0.0
 11
4080.0
 21
-1175.0
 31
0.0
1001
ACDBBLOCKREPETAG
1070
     1
1071
       10
1005
11E194
  0
LINE
  5
11E195
  8
OBJECT
 10
5925.0
 20
-890.0
 30
0.0
 11
5925.0
 21
-1163.0
 31
0.0
1001
ACDBBLOCKREPETAG
1070
     1
1071
        1
1005
11E195
  0
LINE
  5
11E196
  8
OBJECT
 10
6075.0
 20
-889.99999999999409
 30
0.0
 11
6075.0
 21
-1163.0
 31
0.0
1001
ACDBBLOCKREPETAG
1070
     1
1071
        3
1005
11E196
  0
LINE
  5
11E197
  8
CENTER
 10
6000.0
 20
-890.0
 30
0.0
 11
6000.0
 21
-1175.0
 31
0.0
1001
ACDBBLOCKREPETAG
1070
     1
1071
        6
1005
11E197
  0
LINE
  5
11E198
  8
OBJECT
 10
5920.0
 20
-1175.0
 30
0.0
 11
6080.0
 21
-1175.0
 31
0.0
1001
ACDBBLOCKREPETAG
1070
     1
1071
        7
1005
11E198
  0
LINE
  5
11E199
  8
OBJECT
 10
5920.0
 20
-1163.0
 30
0.0
 11
6080.0
 21
-1163.0
 31
0.0
1001
ACDBBLOCKREPETAG
1070
     1
1071
        8
1005
11E199
  0
LINE
  5
11E19A
  8
OBJECT
 10
5920.0
 20
-1163.0
 30
0.0
 11
5920.0
 21
-1175.0
 31
0.0
1001
ACDBBLOCKREPETAG
1070
     1
1071
        9
1005
11E19A
  0
LINE
  5
11E19B
  8
OBJECT
 10
6080.0
 20
-1163.0
 30
0.0
 11
6080.0
 21
-1175.0
 31
0.0
1001
ACDBBLOCKREPETAG
1070
     1
1071
       10
1005
11E19B
  0
TEXT
  5
11E19C
  8
SLIM
 10
5811.8000000000002
 20
-2124.0
 30
0.0
 40
28.0
  1
※ 対応スラブ厚　150mm以上
 41
0.75
  0
TEXT
  5
11E19D
  8
SLIM
 10
5611.5
 20
-2217.3333333333321
 30
0.0
 40
28.0
  1
国土交通大臣認定・（財）日本消防設備安全センター性能評定取得品
 41
0.75
  0
TEXT
  5
11E19E
  8
SLIM
 10
5631.1000000000004
 20
-2263.9999999999991
 30
0.0
 40
28.0
  1
注）ご採用にあたり、認定書及び評定書の内容をご確認ください。
 41
0.75
  0
LINE
  5
11E19F
  8
OBJECT
 10
1787.000000000015
 20
-553.0
 30
0.0
 11
1780.0000000000141
 21
-553.0
 31
0.0
1001
ACDBBLOCKREPETAG
1070
     1
1071
      106
1005
11E19F
  0
LINE
  5
11E1A0
  8
OBJECT
 10
1780.0000000000141
 20
-553.0
 30
0.0
 11
1780.0000000000141
 21
-677.0
 31
0.0
1001
ACDBBLOCKREPETAG
1070
     1
1071
      107
1005
11E1A0
  0
LINE
  5
11E1A1
  8
OBJECT
 10
1914.0000000000141
 20
-653.3502637757274
 30
0.0
 11
1914.0000000000141
 21
-755.00000000000102
 31
0.0
1001
ACDBBLOCKREPETAG
1070
     1
1071
      108
1005
11E1A1
  0
LINE
  5
11E1A2
  8
OBJECT
 10
1780.0000000000141
 20
-677.0
 30
0.0
 11
1787.000000000015
 21
-677.0
 31
0.0
1001
ACDBBLOCKREPETAG
1070
     1
1071
      109
1005
11E1A2
  0
LINE
  5
11E1A3
  8
OBJECT
 10
1787.000000000015
 20
-677.0
 30
0.0
 11
1787.000000000015
 21
-553.0
 31
0.0
1001
ACDBBLOCKREPETAG
1070
     1
1071
      110
1005
11E1A3
  0
LINE
  5
11E1A4
  8
CENTER
 10
1855.0000000000141
 20
-615.0000000000008
 30
0.0
 11
1765.0000000000141
 21
-615.0
 31
0.0
1001
ACDBBLOCKREPETAG
1070
     1
1071
      111
1005
11E1A4
  0
LINE
  5
11E1A5
  8
OBJECT
 10
1920.000000000018
 20
-758.0
 30
0.0
 11
1917.000000000015
 21
-758.0000000000008
 31
0.0
1001
ACDBBLOCKREPETAG
1070
     1
1071
      112
1005
11E1A5
  0
ARC
  5
11E1A6
  8
OBJECT
 10
1917.000000000015
 20
-755.00000000000102
 30
0.0
 40
3.0
 50
180.0
 51
270.0
1001
ACDBBLOCKREPETAG
1070
     1
1071
      113
1005
11E1A6
  0
LINE
  5
11E1A7
  8
OBJECT
 10
1787.000000000015
 20
-556.0
 30
0.0
 11
1823.0000000000141
 21
-556.0000000000008
 31
0.0
1001
ACDBBLOCKREPETAG
1070
     1
1071
      114
1005
11E1A7
  0
LINE
  5
11E1A8
  8
OBJECT
 10
1823.0000000000141
 20
-556.0000000000008
 30
0.0
 11
1823.0000000000141
 21
-653.15756805667843
 31
0.0
1001
ACDBBLOCKREPETAG
1070
     1
1071
      115
1005
11E1A8
  0
LINE
  5
11E1A9
  8
OBJECT
 10
1827.0000000000141
 20
-560.5000000000008
 30
0.0
 11
1827.000000000018
 21
-645.74491827928705
 31
0.0
1001
ACDBBLOCKREPETAG
1070
     1
1071
      116
1005
11E1A9
  0
LINE
  5
11E1AA
  8
OBJECT
 10
1827.0000000000141
 20
-560.5000000000008
 30
0.0
 11
1840.0000000000141
 21
-560.5000000000008
 31
0.0
1001
ACDBBLOCKREPETAG
1070
     1
1071
      117
1005
11E1AA
  0
LINE
  5
11E1AB
  8
OBJECT
 10
1831.343683174531
 20
-674.0000000000008
 30
0.0
 11
1787.000000000015
 21
-674.0
 31
0.0
1001
ACDBBLOCKREPETAG
1070
     1
1071
      118
1005
11E1AB
  0
LINE
  5
11E1AC
  8
OBJECT
 10
1823.0000000000141
 20
-556.0000000000008
 30
0.0
 11
1827.0000000000141
 21
-560.5000000000008
 31
0.0
1001
ACDBBLOCKREPETAG
1070
     1
1071
      119
1005
11E1AC
  0
LINE
  5
11E1AD
  8
OBJECT
 10
1840.0000000000141
 20
-560.5000000000008
 30
0.0
 11
1840.0000000000141
 21
-645.74491827928784
 31
0.0
1001
ACDBBLOCKREPETAG
1070
     1
1071
      120
1005
11E1AD
  0
ARC
  5
11E1AE
  8
OBJECT
 10
1908.000000000015
 20
-637.27386365609345
 30
0.0
 40
85.0
 50
205.59913872188221
 51
231.40900676279119
1001
ACDBBLOCKREPETAG
1070
     1
1071
      121
1005
11E1AE
  0
ARC
  5
11E1AF
  8
OBJECT
 10
1837.2000000000151
 20
-655.00000000000068
 30
0.0
 40
85.0
 50
19.925932125426211
 51
88.112268108168848
1001
ACDBBLOCKREPETAG
1070
     1
1071
      122
1005
11E1AF
  0
LINE
  5
11E1B0
  8
OBJECT
 10
1914.0000000000141
 20
-750.81075719270905
 30
0.0
 11
1854.980677456399
 21
-703.71143914629454
 31
0.0
1001
ACDBBLOCKREPETAG
1070
     1
1071
      123
1005
11E1B0
  0
LINE
  5
11E1B1
  8
OBJECT
 10
1827.000000000018
 20
-645.74491827928705
 30
0.0
 11
1840.0000000000141
 21
-645.74491827928784
 31
0.0
1001
ACDBBLOCKREPETAG
1070
     1
1071
      124
1005
11E1B1
  0
LINE
  5
11E1B2
  8
OBJECT
 10
1823.0000000000141
 20
-653.15756805667843
 30
0.0
 11
1827.000000000018
 21
-645.74491827928705
 31
0.0
1001
ACDBBLOCKREPETAG
1070
     1
1071
      125
1005
11E1B2
  0
LINE
  5
11E1B3
  8
OBJECT
 10
1919.999999999982
 20
-634.0
 30
0.0
 11
1917.111387840378
 21
-626.03156729425325
 31
0.0
1001
ACDBBLOCKREPETAG
1070
     1
1071
      126
1005
11E1B3
  0
LINE
  5
11E1B4
  8
OBJECT
 10
1919.999999999982
 20
-634.0
 30
0.0
 11
1914.0000000000141
 21
-653.3502637757274
 31
0.0
1001
ACDBBLOCKREPETAG
1070
     1
1071
      127
1005
11E1B4
  0
LINE
  5
11E1B5
  8
HIDDEN
 10
1832.0000000000141
 20
-570.5000000000008
 30
0.0
 11
1832.0000000000141
 21
-659.50000000000068
 31
0.0
1001
ACDBBLOCKREPETAG
1070
     1
1071
      129
1005
11E1B5
  0
CIRCLE
  5
11E1B6
  8
OBJECT
 10
2000.0
 20
-696.0
 30
0.0
 40
62.0
1001
ACDBBLOCKREPETAG
1070
     1
1071
        0
1005
11E1B6
  0
LINE
  5
11E1B7
  8
OBJECT
 10
2212.999999999985
 20
-553.0000000000008
 30
0.0
 11
2219.999999999985
 21
-553.0000000000008
 31
0.0
1001
ACDBBLOCKREPETAG
1070
     1
1071
      106
1005
11E1B7
  0
LINE
  5
11E1B8
  8
OBJECT
 10
2219.999999999985
 20
-553.0000000000008
 30
0.0
 11
2219.999999999985
 21
-677.0000000000008
 31
0.0
1001
ACDBBLOCKREPETAG
1070
     1
1071
      107
1005
11E1B8
  0
LINE
  5
11E1B9
  8
OBJECT
 10
2085.9999999999859
 20
-653.3502637757274
 30
0.0
 11
2085.9999999999859
 21
-755.00000000000102
 31
0.0
1001
ACDBBLOCKREPETAG
1070
     1
1071
      108
1005
11E1B9
  0
LINE
  5
11E1BA
  8
OBJECT
 10
2219.999999999985
 20
-677.0000000000008
 30
0.0
 11
2212.999999999985
 21
-677.0000000000008
 31
0.0
1001
ACDBBLOCKREPETAG
1070
     1
1071
      109
1005
11E1BA
  0
LINE
  5
11E1BB
  8
OBJECT
 10
2212.999999999985
 20
-677.0000000000008
 30
0.0
 11
2212.999999999985
 21
-553.0000000000008
 31
0.0
1001
ACDBBLOCKREPETAG
1070
     1
1071
      110
1005
11E1BB
  0
LINE
  5
11E1BC
  8
CENTER
 10
2144.999999999985
 20
-615.0000000000008
 30
0.0
 11
2234.9999999999859
 21
-615.0000000000008
 31
0.0
1001
ACDBBLOCKREPETAG
1070
     1
1071
      111
1005
11E1BC
  0
LINE
  5
11E1BD
  8
OBJECT
 10
2079.9999999999809
 20
-758.0
 30
0.0
 11
2082.999999999985
 21
-758.0000000000008
 31
0.0
1001
ACDBBLOCKREPETAG
1070
     1
1071
      112
1005
11E1BD
  0
ARC
  5
11E1BE
  8
OBJECT
 10
2082.999999999985
 20
-755.00000000000102
 30
0.0
 40
3.0
 50
270.0
 51
0.0
1001
ACDBBLOCKREPETAG
1070
     1
1071
      113
1005
11E1BE
  0
LINE
  5
11E1BF
  8
OBJECT
 10
2212.999999999985
 20
-556.0000000000008
 30
0.0
 11
2176.999999999985
 21
-556.0000000000008
 31
0.0
1001
ACDBBLOCKREPETAG
1070
     1
1071
      114
1005
11E1BF
  0
LINE
  5
11E1C0
  8
OBJECT
 10
2176.999999999985
 20
-556.0000000000008
 30
0.0
 11
2176.999999999985
 21
-653.15756805667843
 31
0.0
1001
ACDBBLOCKREPETAG
1070
     1
1071
      115
1005
11E1C0
  0
LINE
  5
11E1C1
  8
OBJECT
 10
2172.999999999985
 20
-560.5000000000008
 30
0.0
 11
2172.9999999999818
 21
-645.74491827928705
 31
0.0
1001
ACDBBLOCKREPETAG
1070
     1
1071
      116
1005
11E1C1
  0
LINE
  5
11E1C2
  8
OBJECT
 10
2172.999999999985
 20
-560.5000000000008
 30
0.0
 11
2159.999999999985
 21
-560.5000000000008
 31
0.0
1001
ACDBBLOCKREPETAG
1070
     1
1071
      117
1005
11E1C2
  0
LINE
  5
11E1C3
  8
OBJECT
 10
2168.6563168254688
 20
-674.0000000000008
 30
0.0
 11
2212.999999999985
 21
-674.0000000000008
 31
0.0
1001
ACDBBLOCKREPETAG
1070
     1
1071
      118
1005
11E1C3
  0
LINE
  5
11E1C4
  8
OBJECT
 10
2176.999999999985
 20
-556.0000000000008
 30
0.0
 11
2172.999999999985
 21
-560.5000000000008
 31
0.0
1001
ACDBBLOCKREPETAG
1070
     1
1071
      119
1005
11E1C4
  0
LINE
  5
11E1C5
  8
OBJECT
 10
2159.999999999985
 20
-560.5000000000008
 30
0.0
 11
2159.999999999985
 21
-645.74491827928784
 31
0.0
1001
ACDBBLOCKREPETAG
1070
     1
1071
      120
1005
11E1C5
  0
ARC
  5
11E1C6
  8
OBJECT
 10
2091.9999999999859
 20
-637.27386365609345
 30
0.0
 40
85.0
 50
308.59099323720869
 51
334.40086127812339
1001
ACDBBLOCKREPETAG
1070
     1
1071
      121
1005
11E1C6
  0
ARC
  5
11E1C7
  8
OBJECT
 10
2162.7999999999852
 20
-655.00000000000068
 30
0.0
 40
85.0
 50
91.887731891831123
 51
160.07406787456929
1001
ACDBBLOCKREPETAG
1070
     1
1071
      122
1005
11E1C7
  0
LINE
  5
11E1C8
  8
OBJECT
 10
2085.9999999999859
 20
-750.81075719270905
 30
0.0
 11
2145.0193225436019
 21
-703.71143914629454
 31
0.0
1001
ACDBBLOCKREPETAG
1070
     1
1071
      123
1005
11E1C8
  0
LINE
  5
11E1C9
  8
OBJECT
 10
2172.9999999999818
 20
-645.74491827928705
 30
0.0
 11
2159.999999999985
 21
-645.74491827928784
 31
0.0
1001
ACDBBLOCKREPETAG
1070
     1
1071
      124
1005
11E1C9
  0
LINE
  5
11E1CA
  8
OBJECT
 10
2176.999999999985
 20
-653.15756805667843
 30
0.0
 11
2172.9999999999818
 21
-645.74491827928705
 31
0.0
1001
ACDBBLOCKREPETAG
1070
     1
1071
      125
1005
11E1CA
  0
LINE
  5
11E1CB
  8
OBJECT
 10
2080.0000000000191
 20
-634.0
 30
0.0
 11
2082.8886121596229
 21
-626.03156729425325
 31
0.0
1001
ACDBBLOCKREPETAG
1070
     1
1071
      126
1005
11E1CB
  0
LINE
  5
11E1CC
  8
OBJECT
 10
2080.0000000000191
 20
-634.0
 30
0.0
 11
2085.9999999999859
 21
-653.3502637757274
 31
0.0
1001
ACDBBLOCKREPETAG
1070
     1
1071
      127
1005
11E1CC
  0
LINE
  5
11E1CD
  8
HIDDEN
 10
2167.999999999985
 20
-570.5000000000008
 30
0.0
 11
2167.999999999985
 21
-659.50000000000068
 31
0.0
1001
ACDBBLOCKREPETAG
1070
     1
1071
      129
1005
11E1CD
  0
TEXT
  5
11E1CE
  8
SLIM
 10
11824.6
 20
-2082.9999999999959
 30
0.0
 40
28.0
  1
※ 対応スラブ厚　150～660
 41
0.75
  0
TEXT
  5
11E1CF
  8
SLIM
 10
11611.5
 20
-2176.3333333333289
 30
0.0
 40
28.0
  1
国土交通大臣認定・（財）日本消防設備安全センター性能評定取得品
 41
0.75
  0
TEXT
  5
11E1D0
  8
SLIM
 10
11631.1
 20
-2222.9999999999959
 30
0.0
 40
28.0
  1
注）ご採用にあたり、認定書及び評定書の内容をご確認ください。
 41
0.75
  0
TEXT
  5
11E1D1
  8
SLIM
 10
9824.6000000000004
 20
-2082.9999999999959
 30
0.0
 40
28.0
  1
※ 対応スラブ厚　180～660
 41
0.75
  0
TEXT
  5
11E1D2
  8
SLIM
 10
9611.5000000000018
 20
-2176.3333333333289
 30
0.0
 40
28.0
  1
国土交通大臣認定・（財）日本消防設備安全センター性能評定取得品
 41
0.75
  0
TEXT
  5
11E1D3
  8
SLIM
 10
9631.1000000000004
 20
-2222.9999999999959
 30
0.0
 40
28.0
  1
注）ご採用にあたり、認定書及び評定書の内容をご確認ください。
 41
0.75
  0
TEXT
  5
11E1D4
  8
SLIM
 10
7771.3999999999987
 20
-1815.6666666666649
 30
0.0
 40
28.0
  1
※ 対応スラブ厚　180｛150｝～620
 41
0.75
  0
TEXT
  5
11E1D5
  8
SLIM
 10
7733.2999999999975
 20
-1862.3333333333319
 30
0.0
 40
28.0
  1
｛｝内はカンペイ立て管との組み合わせの場合
 41
0.75
  0
TEXT
  5
11E1D6
  8
SLIM
 10
7611.4999999999982
 20
-1955.6666666666649
 30
0.0
 40
28.0
  1
国土交通大臣認定・（財）日本消防設備安全センター性能評定取得品
 41
0.75
  0
TEXT
  5
11E1D7
  8
SLIM
 10
7631.1000000000004
 20
-2002.3333333333319
 30
0.0
 40
28.0
  1
注）ご採用にあたり、認定書及び評定書の内容をご確認ください。
 41
0.75
  0
TEXT
  5
11E1D8
  8
SLIM
 10
9739.1250000000018
 20
-2026.4999999999959
 30
0.0
 40
35.0
  1
両受けスタイル（W）＋シンドカット
 41
0.75
  0
TEXT
  5
11E1D9
  8
SLIM
 10
11743.5
 20
-2026.4999999999959
 30
0.0
 40
35.0
  1
カンペイ君（WKP）＋シンドカット
 41
0.75
  0
TEXT
  5
11E1DA
  8
SLIM
 10
7741.625
 20
-1752.499999999998
 30
0.0
 40
35.0
  1
片受けスタイル（S）＋シンドカット
 41
0.75
  0
TEXT
  5
11E1DB
  8
SLIM
 10
5858.1250000000009
 20
-2067.5
 30
0.0
 40
35.0
  1
カンペイ君（WKP）
 41
0.75
  0
TEXT
  5
11E1DC
  8
SLIM
 10
1856.25
 20
-1752.499999999998
 30
0.0
 40
35.0
  1
片受けスタイル（S）
 41
0.75
  0
TEXT
  5
11E1DD
  8
SLIM
 10
0.0
 20
370.0
 30
0.0
 40
100.0
  1
4SLT2-Z606-P140-0-WKP
 41
0.75
  0
VIEWPORT
  5
F6BA7
 67
     1
  8
0
 10
145.33033752441401
 20
101.8328354358673
 30
0.0
 40
334.0025019414623
 41
222.19657968139651
 68
     1
 69
     1
1001
ACAD
1000
MVIEW
1002
{
1070
    16
1010
0.0
1020
0.0
1030
0.0
1010
0.0
1020
0.0
1030
1.0
1040
0.0
1040
222.19657968139651
1040
145.33033752441401
1040
101.8328354358673
1040
50.0
1040
0.0
1040
0.0
1070
     0
1070
     0
1070
     1
1070
     1
1070
     0
1070
     0
1070
     0
1070
     0
1040
0.0
1040
0.0
1040
0.0
1040
10.0
1040
10.0
1040
10.0
1040
10.0
1070
     0
1002
{
1002
}
1002
}
  0
VIEWPORT
  5
F6BA9
 67
     1
  8
OBJECT
 10
145.3303314447403
 20
101.8328338861465
 30
0.0
 40
232.5285303115844
 41
162.93253421783439
 68
     2
 69
     2
1001
ACAD
1000
MVIEW
1002
{
1070
    16
1010
0.0
1020
0.0
1030
0.0
1010
0.0
1020
0.0
1030
1.0
1040
0.0
1040
25942.55904403147
1040
2377.604457077377
1040
-7591.5176687056619
1040
50.0
1040
0.0
1040
0.0
1070
     0
1070
   600
1070
     1
1070
     1
1070
     0
1070
     0
1070
     0
1070
     0
1040
0.0
1040
0.0
1040
0.0
1040
1.0
1040
1.0
1040
0.0
1040
0.0
1070
     0
1002
{
1002
}
1002
}
  0
ENDSEC
  0
EOF
