  0
SECTION
  2
HEADER
  9
$ACADVER
  1
AC1009
  9
$INSBASE
 10
0.0
 20
0.0
 30
0.0
  9
$EXTMIN
 10
-0.0000000000002274
 20
-4102.4999999999973
 30
0.0
  9
$EXTMAX
 10
12966.09999999998
 20
770.0
 30
0.0
  9
$LIMMIN
 10
0.0
 20
0.0
  9
$LIMMAX
 10
210.0
 20
297.0
  9
$ORTHOMODE
 70
     0
  9
$REGENMODE
 70
     1
  9
$FILLMODE
 70
     1
  9
$QTEXTMODE
 70
     0
  9
$MIRRTEXT
 70
     0
  9
$DRAGMODE
 70
     2
  9
$LTSCALE
 40
1.0
  9
$OSMODE
 70
  2557
  9
$ATTMODE
 70
     1
  9
$TEXTSIZE
 40
4.0
  9
$TRACEWID
 40
0.05
  9
$TEXTSTYLE
  7
STANDARD
  9
$CLAYER
  8
OBJECT
  9
$CELTYPE
  6
BYLAYER
  9
$CECOLOR
 62
   256
  9
$DIMSCALE
 40
10.0
  9
$DIMASZ
 40
2.0
  9
$DIMEXO
 40
1.0
  9
$DIMDLI
 40
10.0
  9
$DIMRND
 40
0.0
  9
$DIMDLE
 40
0.0
  9
$DIMEXE
 40
1.0
  9
$DIMTP
 40
0.0
  9
$DIMTM
 40
0.0
  9
$DIMTXT
 40
3.2000000000000002
  9
$DIMCEN
 40
0.0
  9
$DIMTSZ
 40
0.0
  9
$DIMTOL
 70
     0
  9
$DIMLIM
 70
     0
  9
$DIMTIH
 70
     0
  9
$DIMTOH
 70
     0
  9
$DIMSE1
 70
     0
  9
$DIMSE2
 70
     0
  9
$DIMTAD
 70
     1
  9
$DIMZIN
 70
     8
  9
$DIMBLK
  1
OPEN30
  9
$DIMASO
 70
     1
  9
$DIMSHO
 70
     1
  9
$DIMPOST
  1

  9
$DIMAPOST
  1

  9
$DIMALT
 70
     0
  9
$DIMALTD
 70
     2
  9
$DIMALTF
 40
25.399999999999999
  9
$DIMLFAC
 40
1.0
  9
$DIMTOFL
 70
     1
  9
$DIMTVP
 40
0.0
  9
$DIMTIX
 70
     0
  9
$DIMSOXD
 70
     0
  9
$DIMSAH
 70
     0
  9
$DIMBLK1
  1

  9
$DIMBLK2
  1

  9
$DIMSTYLE
  2
S10
  9
$DIMCLRD
 70
   256
  9
$DIMCLRE
 70
   256
  9
$DIMCLRT
 70
   256
  9
$DIMTFAC
 40
1.0
  9
$DIMGAP
 40
0.9
  9
$LUNITS
 70
     2
  9
$LUPREC
 70
     2
  9
$SKETCHINC
 40
0.1
  9
$FILLETRAD
 40
0.0
  9
$AUNITS
 70
     0
  9
$AUPREC
 70
     2
  9
$MENU
  1
ACAD
  9
$ELEVATION
 40
0.0
  9
$PELEVATION
 40
0.0
  9
$THICKNESS
 40
0.0
  9
$LIMCHECK
 70
     0
  9
$BLIPMODE
 70
     0
  9
$CHAMFERA
 40
2.0
  9
$CHAMFERB
 40
2.0
  9
$SKPOLY
 70
     0
  9
$TDCREATE
 40
2453095.4929404748
  9
$TDUPDATE
 40
2456570.7471174421
  9
$TDINDWG
 40
18.749397106499998
  9
$TDUSRTIMER
 40
18.749396377299998
  9
$USRTIMER
 70
     1
  9
$ANGBASE
 50
0.0
  9
$ANGDIR
 70
     0
  9
$PDMODE
 70
    35
  9
$PDSIZE
 40
2.0
  9
$PLINEWID
 40
0.0
  9
$COORDS
 70
     1
  9
$SPLFRAME
 70
     0
  9
$SPLINETYPE
 70
     6
  9
$SPLINESEGS
 70
     8
  9
$ATTDIA
 70
     1
  9
$ATTREQ
 70
     1
  9
$HANDLING
 70
     1
  9
$HANDSEED
  5
126A42
  9
$SURFTAB1
 70
     6
  9
$SURFTAB2
 70
     6
  9
$SURFTYPE
 70
     6
  9
$SURFU
 70
     6
  9
$SURFV
 70
     6
  9
$UCSNAME
  2

  9
$UCSORG
 10
0.0
 20
0.0
 30
0.0
  9
$UCSXDIR
 10
1.0
 20
0.0
 30
0.0
  9
$UCSYDIR
 10
0.0
 20
1.0
 30
0.0
  9
$PUCSNAME
  2

  9
$PUCSORG
 10
0.0
 20
0.0
 30
0.0
  9
$PUCSXDIR
 10
1.0
 20
0.0
 30
0.0
  9
$PUCSYDIR
 10
0.0
 20
1.0
 30
0.0
  9
$USERI1
 70
     0
  9
$USERI2
 70
     0
  9
$USERI3
 70
     0
  9
$USERI4
 70
     0
  9
$USERI5
 70
     0
  9
$USERR1
 40
0.0
  9
$USERR2
 40
0.0
  9
$USERR3
 40
0.0
  9
$USERR4
 40
0.0
  9
$USERR5
 40
0.0
  9
$WORLDVIEW
 70
     1
  9
$SHADEDGE
 70
     3
  9
$SHADEDIF
 70
    70
  9
$TILEMODE
 70
     1
  9
$MAXACTVP
 70
    64
  9
$PLIMCHECK
 70
     0
  9
$PEXTMIN
 10
29.066066288948051
 20
20.366566777229309
 30
0.0
  9
$PEXTMAX
 10
261.5945966005325
 20
183.29910099506381
 30
0.0
  9
$PLIMMIN
 10
-3.17498779296875
 20
-3.1749999523162842
  9
$PLIMMAX
 10
293.83566284179687
 20
206.8406708240509
  9
$UNITMODE
 70
     0
  9
$VISRETAIN
 70
     1
  9
$PLINEGEN
 70
     0
  9
$PSLTSCALE
 70
     1
  0
ENDSEC
  0
SECTION
  2
TABLES
  0
TABLE
  2
VPORT
 70
     1
  0
VPORT
  2
*ACTIVE
 70
     0
 10
0.0
 20
0.0
 11
1.0
 21
1.0
 12
7932.336010847087
 22
-463.23686453124083
 13
0.0
 23
0.0
 14
1.0
 24
1.0
 15
0.0
 25
0.0
 16
0.0
 26
0.0
 36
1.0
 17
0.0
 27
0.0
 37
0.0
 40
13276.81848479397
 41
1.958525345622119
 42
50.0
 43
0.0
 44
0.0
 50
0.0
 51
0.0
 71
     0
 72
   600
 73
     1
 74
     1
 75
     0
 76
     0
 77
     0
 78
     0
  0
ENDTAB
  0
TABLE
  2
LTYPE
 70
     3
  0
LTYPE
  2
CONTINUOUS
 70
     0
  3
Solid line
 72
    65
 73
     0
 40
0.0
  0
LTYPE
  2
ACAD_ISO08W100
 70
     0
  3
ISO long-dash short-dash ____ __ ____ __ ____ _
 72
    65
 73
     4
 40
36.0
 49
24.0
 49
-3.0
 49
6.0
 49
-3.0
  0
LTYPE
  2
ACAD_ISO02W100
 70
     0
  3
ISO dash __ __ __ __ __ __ __ __ __ __ __ __ __
 72
    65
 73
     2
 40
15.0
 49
12.0
 49
-3.0
  0
ENDTAB
  0
TABLE
  2
LAYER
 70
     8
  0
LAYER
  2
0
 70
     0
 62
     7
  6
CONTINUOUS
  0
LAYER
  2
OBJECT
 70
     0
 62
     4
  6
CONTINUOUS
  0
LAYER
  2
DEFPOINTS
 70
     0
 62
     7
  6
CONTINUOUS
  0
LAYER
  2
DIM
 70
     0
 62
     7
  6
CONTINUOUS
  0
LAYER
  2
HIDDEN
 70
     0
 62
     2
  6
ACAD_ISO02W100
  0
LAYER
  2
CENTER
 70
     0
 62
     2
  6
ACAD_ISO08W100
  0
LAYER
  2
DOTS
 70
     0
 62
     1
  6
CONTINUOUS
  0
LAYER
  2
SLIM
 70
     0
 62
     2
  6
CONTINUOUS
  0
ENDTAB
  0
TABLE
  2
STYLE
 70
     2
  0
STYLE
  2
STANDARD
 70
     0
 40
0.0
 41
0.75
 50
0.0
 71
     0
 42
4.0
  3
simplex.shx
  4
bigfont.shx
  0
ENDTAB
  0
TABLE
  2
VIEW
 70
     0
  0
ENDTAB
  0
TABLE
  2
UCS
 70
     0
  0
ENDTAB
  0
TABLE
  2
APPID
 70
    20
  0
APPID
  2
ACAD
 70
     0
  0
APPID
  2
ACADANNOTATIVE
 70
     0
  0
APPID
  2
ACAD_PSEXT
 70
     0
  0
APPID
  2
ACAD_EXEMPT_FROM_CAD_STANDARDS
 70
     0
  0
APPID
  2
ACAECLAYERSTANDARD
 70
     0
  0
APPID
  2
ACAUTHENVIRON
 70
     0
  0
APPID
  2
ACDBDYNAMICBLOCKTRUENAME
 70
     0
  0
APPID
  2
ACDBDYNAMICBLOCKGUID
 70
     0
  0
APPID
  2
ACDBBLOCKREPETAG
 70
     0
  0
APPID
  2
ACDBBLOCKREPBTAG
 70
     0
  0
APPID
  2
ACAD_NAV_VCDISPLAY
 70
     0
  0
APPID
  2
ACAD_DSTYLE_DIMRADIAL_EXTENSION
 70
     0
  0
APPID
  2
ACAD_DSTYLE_DIMJAG
 70
     0
  0
APPID
  2
ACAD_DSTYLE_DIMTALN
 70
     0
  0
APPID
  2
ACADANNOPO
 70
     0
  0
APPID
  2
GRADIENTCOLOR1ACI
 70
     0
  0
APPID
  2
GRADIENTCOLOR2ACI
 70
     0
  0
APPID
  2
ACADANNOMONITORALERTICONDI
 70
     0
  0
APPID
  2
CONTENTBLOCKICON
 70
     0
  0
APPID
  2
ACAD_MLEADERVER
 70
     0
  0
ENDTAB
  0
TABLE
  2
DIMSTYLE
 70
     3
  0
DIMSTYLE
  2
STANDARD
 70
     0
  3

  4

  5

  6

  7

 40
1.0
 41
0.18
 42
0.0625
 43
0.38
 44
0.18
 45
0.0
 46
0.0
 47
0.0
 48
0.0
140
0.18
141
0.09
142
0.0
143
25.399999999999999
144
1.0
145
0.0
146
1.0
147
0.09
 71
     0
 72
     0
 73
     1
 74
     1
 75
     0
 76
     0
 77
     0
 78
     0
170
     0
171
     2
172
     0
173
     0
174
     0
175
     0
176
     0
177
     0
178
     0
  0
DIMSTYLE
  2
S10
 70
     0
  3

  4

  5

  6

  7

 40
10.0
 41
2.0
 42
1.0
 43
10.0
 44
1.0
 45
0.0
 46
0.0
 47
0.0
 48
0.0
140
3.2000000000000002
141
0.0
142
0.0
143
25.399999999999999
144
1.0
145
0.0
146
1.0
147
0.9
 71
     0
 72
     0
 73
     0
 74
     0
 75
     0
 76
     0
 77
     1
 78
     8
170
     0
171
     2
172
     1
173
     0
174
     0
175
     0
176
   256
177
   256
178
   256
  0
ENDTAB
  0
ENDSEC
  0
SECTION
  2
BLOCKS
  0
BLOCK
  8
0
  2
$MODEL_SPACE
 70
     0
 10
0.0
 20
0.0
 30
0.0
  3
$MODEL_SPACE
  1

  0
ENDBLK
  5
1268F2
  8
0
  0
BLOCK
 67
     1
  8
0
  2
$PAPER_SPACE
 70
     0
 10
0.0
 20
0.0
 30
0.0
  3
$PAPER_SPACE
  1

  0
ENDBLK
  5
1268EE
 67
     1
  8
0
  0
BLOCK
  8
0
  2
_OPEN30
 70
     0
 10
0.0
 20
0.0
 30
0.0
  3
_OPEN30
  1

  0
LINE
  5
202
  8
0
  6
BYBLOCK
 62
     0
 10
-1.0
 20
0.26794919
 30
0.0
 11
0.0
 21
0.0
 31
0.0
  0
LINE
  5
203
  8
0
  6
BYBLOCK
 62
     0
 10
0.0
 20
0.0
 30
0.0
 11
-1.0
 21
-0.26794919
 31
0.0
  0
LINE
  5
204
  8
0
  6
BYBLOCK
 62
     0
 10
0.0
 20
0.0
 30
0.0
 11
-1.0
 21
0.0
 31
0.0
  0
ENDBLK
  5
206
  8
0
  0
BLOCK
  8
0
  2
*U33
 70
     1
 10
0.0
 20
0.0
 30
0.0
  3
*U33
  1

  0
TEXT
  5
1267DB
  8
SLIM
 10
158.95238095238801
 20
-1551.999999999998
 30
0.0
 40
26.0
  1
75
  0
ENDBLK
  5
1267DD
  8
0
  0
BLOCK
  8
0
  2
*U34
 70
     1
 10
0.0
 20
0.0
 30
0.0
  3
*U34
  1

  0
TEXT
  5
1267DF
  8
SLIM
 10
518.95238095238801
 20
-1087.999999999998
 30
0.0
 40
26.0
  1
65
  0
ENDBLK
  5
1267E1
  8
0
  0
BLOCK
  8
0
  2
*U35
 70
     1
 10
0.0
 20
0.0
 30
0.0
  3
*U35
  1

  0
TEXT
  5
1267E3
  8
SLIM
 10
158.95238095238801
 20
-1087.999999999998
 30
0.0
 40
26.0
  1
50
  0
ENDBLK
  5
1267E5
  8
0
  0
BLOCK
  8
0
  2
*U36
 70
     1
 10
0.0
 20
0.0
 30
0.0
  3
*U36
  1

  0
TEXT
  5
1267E7
  8
DIM
 10
12700.424581672751
 20
-924.00000000000352
 30
0.0
 40
32.0
  1
P
 50
90.0
 41
0.75
  0
ENDBLK
  5
1267E9
  8
0
  0
BLOCK
  8
0
  2
*U37
 70
     1
 10
0.0
 20
0.0
 30
0.0
  3
*U37
  1

  0
TEXT
  5
1267EB
  8
DIM
 10
12293.14939336144
 20
-1447.7428571428579
 30
0.0
 40
32.0
  1
730-P（シンドカット）
 50
90.0
 41
0.75
  0
ENDBLK
  5
1267ED
  8
0
  0
BLOCK
  8
0
  2
*U38
 70
     1
 10
0.0
 20
0.0
 30
0.0
  3
*U38
  1

  0
TEXT
  5
1267EF
  8
DIM
 10
10700.424581672751
 20
-924.00000000000387
 30
0.0
 40
32.0
  1
P
 50
90.0
 41
0.75
  0
ENDBLK
  5
1267F1
  8
0
  0
BLOCK
  8
0
  2
*U39
 70
     1
 10
0.0
 20
0.0
 30
0.0
  3
*U39
  1

  0
TEXT
  5
1267F3
  8
DIM
 10
10293.14939336144
 20
-1447.7428571428591
 30
0.0
 40
32.0
  1
730-P（シンドカット）
 50
90.0
 41
0.75
  0
ENDBLK
  5
1267F5
  8
0
  0
BLOCK
  8
0
  2
*U40
 70
     1
 10
0.0
 20
0.0
 30
0.0
  3
*U40
  1

  0
TEXT
  5
1267F7
  8
DIM
 10
8700.4245816727544
 20
-924.00000000000409
 30
0.0
 40
32.0
  1
P
 50
90.0
 41
0.75
  0
ENDBLK
  5
1267F9
  8
0
  0
BLOCK
  8
0
  2
*U41
 70
     1
 10
0.0
 20
0.0
 30
0.0
  3
*U41
  1

  0
TEXT
  5
1267FB
  8
DIM
 10
6700.4245816727562
 20
-923.99999999999932
 30
0.0
 40
32.0
  1
P
 50
90.0
 41
0.75
  0
ENDBLK
  5
1267FD
  8
0
  0
BLOCK
  8
0
  2
*U42
 70
     1
 10
0.0
 20
0.0
 30
0.0
  3
*U42
  1

  0
TEXT
  5
1267FF
  8
DIM
 10
4700.4245816727562
 20
-923.99999999999943
 30
0.0
 40
32.0
  1
P
 50
90.0
 41
0.75
  0
ENDBLK
  5
126801
  8
0
  0
BLOCK
  8
0
  2
*U43
 70
     1
 10
0.0
 20
0.0
 30
0.0
  3
*U43
  1

  0
TEXT
  5
126817
  8
SLIM
 10
158.9523809524228
 20
-130.00000000017181
 30
0.0
 40
26.0
  1
75
  0
ENDBLK
  5
126819
  8
0
  0
BLOCK
  8
0
  2
*U44
 70
     1
 10
0.0
 20
0.0
 30
0.0
  3
*U44
  1

  0
TEXT
  5
12681B
  8
DIM
 10
8293.1493933614402
 20
-1427.74285714286
 30
0.0
 40
32.0
  1
690-P（シンドカット）
 50
90.0
 41
0.75
  0
ENDBLK
  5
12681D
  8
0
  0
BLOCK
  8
0
  2
*U45
 70
     1
 10
0.0
 20
0.0
 30
0.0
  3
*U45
  1

  0
TEXT
  5
12681F
  8
DIM
 10
2700.4245816727571
 20
-923.99999999999955
 30
0.0
 40
32.0
  1
P
 50
90.0
 41
0.75
  0
ENDBLK
  5
126821
  8
0
  0
BLOCK
  8
0
  2
*U46
 70
     1
 10
0.0
 20
0.0
 30
0.0
  3
*U46
  1

  0
TEXT
  5
126823
  8
DIM
 10
2709.479620594459
 20
-3589.1428571428528
 30
0.0
 40
32.0
  1
A
 50
90.0
 41
0.75
  0
ENDBLK
  5
126825
  8
0
  0
BLOCK
  8
0
  2
*U47
 70
     1
 10
0.0
 20
0.0
 30
0.0
  3
*U47
  1

  0
TEXT
  5
126827
  8
DIM
 10
2707.840928403733
 20
-3970.9999999999968
 30
0.0
 40
32.0
  1
B
 50
90.0
 41
0.75
  0
ENDBLK
  5
126829
  8
0
  0
BLOCK
  8
0
  2
*U48
 70
     1
 10
0.0
 20
0.0
 30
0.0
  3
*U48
  1

  0
TEXT
  5
12682B
  8
DIM
 10
2561.4285714285711
 20
-3443.208121984444
 30
0.0
 40
32.0
  1
C
 41
0.75
  0
ENDBLK
  5
12682D
  8
0
  0
ENDSEC
  0
SECTION
  2
ENTITIES
  0
LINE
  5
11273E
  8
OBJECT
 10
2325.0
 20
-3984.9999999999968
 30
0.0
 11
5075.0
 21
-3984.9999999999968
 31
0.0
  0
LINE
  5
11412B
  8
SLIM
 10
3256.0
 20
-3042.5000160472709
 30
0.0
 11
3256.0
 21
-3372.5000160472709
 31
0.0
  0
LINE
  5
11412C
  8
SLIM
 10
3380.0
 20
-3042.5000160472709
 30
0.0
 11
3380.0
 21
-3372.5000160472709
 31
0.0
  0
LINE
  5
11412D
  8
SLIM
 10
3510.0
 20
-3102.5000160472709
 30
0.0
 11
3510.0
 21
-3372.5000160472709
 31
0.0
  0
LINE
  5
11412E
  8
SLIM
 10
3640.0
 20
-3102.5000160472709
 30
0.0
 11
3640.0
 21
-3372.5000160472709
 31
0.0
  0
LINE
  5
11412F
  8
SLIM
 10
3770.0
 20
-3372.5000160472709
 30
0.0
 11
3770.0
 21
-3042.5000160472709
 31
0.0
  0
LINE
  5
114131
  8
SLIM
 10
3770.0
 20
-3042.5000160472709
 30
0.0
 11
3256.0
 21
-3042.5000160472709
 31
0.0
  0
LINE
  5
114132
  8
SLIM
 10
3769.9999999999991
 20
-3102.5000160472709
 30
0.0
 11
3380.0
 21
-3102.5000160472709
 31
0.0
  0
LINE
  5
114133
  8
SLIM
 10
3770.0
 20
-3162.5000160472709
 30
0.0
 11
3256.0
 21
-3162.5000160472709
 31
0.0
  0
LINE
  5
114134
  8
SLIM
 10
3770.0
 20
-3232.50001604727
 30
0.0
 11
3256.0
 21
-3232.50001604727
 31
0.0
  0
LINE
  5
114135
  8
SLIM
 10
3770.0
 20
-3302.5000160472709
 30
0.0
 11
3256.0
 21
-3302.5000160472709
 31
0.0
  0
LINE
  5
114136
  8
SLIM
 10
3770.0
 20
-3372.5000160472709
 30
0.0
 11
3256.0
 21
-3372.5000160472709
 31
0.0
  0
LINE
  5
11414B
  8
SLIM
 10
3380.0
 20
-3162.5000160472709
 30
0.0
 11
3255.9999722746579
 21
-3042.5
 31
0.0
  0
LINE
  5
1238B4
  8
CENTER
 10
2579.9999999999991
 20
-3579.9999999999959
 30
0.0
 11
2409.9999999999991
 21
-3579.9999999999959
 31
0.0
1001
ACDBBLOCKREPETAG
1070
     1
1071
       14
1005
122545
  0
LINE
  5
1238B5
  8
CENTER
 10
2500.0
 20
-3669.9999999999968
 30
0.0
 11
2500.0
 21
-3489.9999999999968
 31
0.0
1001
ACDBBLOCKREPETAG
1070
     1
1071
       15
1005
122546
  0
CIRCLE
  5
1238B6
  8
OBJECT
 10
2500.0
 20
-3579.9999999999959
 30
0.0
 40
70.0
1001
ACDBBLOCKREPETAG
1070
     1
1071
       16
1005
122547
  0
CIRCLE
  5
1238B7
  8
OBJECT
 10
2500.0
 20
-3579.9999999999959
 30
0.0
 40
75.0
1001
ACDBBLOCKREPETAG
1070
     1
1071
       17
1005
122548
  0
LINE
  5
123927
  8
CENTER
 10
2500.0
 20
-3764.9999999999968
 30
0.0
 11
2500.0
 21
-4011.9999999999959
 31
0.0
1001
ACDBBLOCKREPETAG
1070
     1
1071
       25
1005
123927
  0
LINE
  5
123928
  8
OBJECT
 10
2425.0
 20
-3779.9999999999991
 30
0.0
 11
2425.0
 21
-3999.9999999999968
 31
0.0
1001
ACDBBLOCKREPETAG
1070
     1
1071
       26
1005
123928
  0
LINE
  5
12392C
  8
OBJECT
 10
2575.0
 20
-3779.9999999999991
 30
0.0
 11
2575.0
 21
-3876.5000000000618
 31
0.0
1001
ACDBBLOCKREPETAG
1070
     1
1071
       34
1005
12392C
  0
LINE
  5
123A5C
  8
OBJECT
 10
2575.0
 20
-3982.4999999999991
 30
0.0
 11
2575.0
 21
-3999.9999999999968
 31
0.0
1001
ACDBBLOCKREPETAG
1070
     1
1071
       34
1005
12392C
  0
LINE
  5
123A5E
  8
CENTER
 10
2900.0
 20
-3764.9999999999968
 30
0.0
 11
2900.0
 21
-4011.9999999999959
 31
0.0
1001
ACDBBLOCKREPETAG
1070
     1
1071
       25
1005
123927
  0
LINE
  5
123A5F
  8
OBJECT
 10
2825.0
 20
-3779.9999999999991
 30
0.0
 11
2825.0
 21
-3999.9999999999968
 31
0.0
1001
ACDBBLOCKREPETAG
1070
     1
1071
       26
1005
123928
  0
LINE
  5
123A60
  8
OBJECT
 10
2975.0
 20
-3779.9999999999991
 30
0.0
 11
2975.0
 21
-3999.9999999999991
 31
0.0
1001
ACDBBLOCKREPETAG
1070
     1
1071
       34
1005
12392C
  0
LINE
  5
123AD2
  8
CENTER
 10
3579.9999999999991
 20
-3579.9999999999959
 30
0.0
 11
3410.0
 21
-3579.9999999999959
 31
0.0
1001
ACDBBLOCKREPETAG
1070
     1
1071
       14
1005
122545
  0
LINE
  5
123AD3
  8
CENTER
 10
3500.0
 20
-3669.9999999999968
 30
0.0
 11
3500.0
 21
-3489.9999999999968
 31
0.0
1001
ACDBBLOCKREPETAG
1070
     1
1071
       15
1005
122546
  0
CIRCLE
  5
123AD4
  8
OBJECT
 10
3500.0
 20
-3579.9999999999959
 30
0.0
 40
70.0
1001
ACDBBLOCKREPETAG
1070
     1
1071
       16
1005
122547
  0
CIRCLE
  5
123AD5
  8
OBJECT
 10
3500.0
 20
-3579.9999999999959
 30
0.0
 40
75.0
1001
ACDBBLOCKREPETAG
1070
     1
1071
       17
1005
122548
  0
LINE
  5
123ADD
  8
CENTER
 10
3500.0
 20
-3764.9999999999968
 30
0.0
 11
3500.0
 21
-4011.9999999999959
 31
0.0
1001
ACDBBLOCKREPETAG
1070
     1
1071
       25
1005
123927
  0
LINE
  5
123ADE
  8
OBJECT
 10
3424.9999999999991
 20
-3779.9999999999991
 30
0.0
 11
3424.9999999999991
 21
-3999.9999999999968
 31
0.0
1001
ACDBBLOCKREPETAG
1070
     1
1071
       26
1005
123928
  0
LINE
  5
123ADF
  8
OBJECT
 10
3574.9999999999991
 20
-3779.9999999999991
 30
0.0
 11
3574.9999999999991
 21
-3876.5000000000618
 31
0.0
1001
ACDBBLOCKREPETAG
1070
     1
1071
       34
1005
12392C
  0
LINE
  5
123AE0
  8
OBJECT
 10
3574.9999999999991
 20
-3982.4999999999991
 30
0.0
 11
3574.9999999999991
 21
-3999.9999999999968
 31
0.0
1001
ACDBBLOCKREPETAG
1070
     1
1071
       34
1005
12392C
  0
LINE
  5
123AE8
  8
CENTER
 10
3900.0
 20
-3764.9999999999968
 30
0.0
 11
3900.0
 21
-4011.9999999999959
 31
0.0
1001
ACDBBLOCKREPETAG
1070
     1
1071
       25
1005
123927
  0
LINE
  5
123AE9
  8
OBJECT
 10
3824.9999999999991
 20
-3779.9999999999991
 30
0.0
 11
3824.9999999999991
 21
-3999.9999999999968
 31
0.0
1001
ACDBBLOCKREPETAG
1070
     1
1071
       26
1005
123928
  0
LINE
  5
123AEA
  8
OBJECT
 10
3975.0
 20
-3779.9999999999991
 30
0.0
 11
3975.0
 21
-3999.9999999999991
 31
0.0
1001
ACDBBLOCKREPETAG
1070
     1
1071
       34
1005
12392C
  0
LINE
  5
123B38
  8
CENTER
 10
4579.9999999999991
 20
-3579.9999999999959
 30
0.0
 11
4409.9999999999991
 21
-3579.9999999999959
 31
0.0
1001
ACDBBLOCKREPETAG
1070
     1
1071
       14
1005
122545
  0
LINE
  5
123B39
  8
CENTER
 10
4499.9999999999991
 20
-3669.9999999999968
 30
0.0
 11
4499.9999999999991
 21
-3489.9999999999968
 31
0.0
1001
ACDBBLOCKREPETAG
1070
     1
1071
       15
1005
122546
  0
CIRCLE
  5
123B3A
  8
OBJECT
 10
4499.9999999999991
 20
-3579.9999999999959
 30
0.0
 40
70.0
1001
ACDBBLOCKREPETAG
1070
     1
1071
       16
1005
122547
  0
CIRCLE
  5
123B3B
  8
OBJECT
 10
4499.9999999999991
 20
-3579.9999999999959
 30
0.0
 40
75.0
1001
ACDBBLOCKREPETAG
1070
     1
1071
       17
1005
122548
  0
LINE
  5
123B43
  8
CENTER
 10
4500.0
 20
-3764.9999999999968
 30
0.0
 11
4500.0
 21
-4011.9999999999959
 31
0.0
1001
ACDBBLOCKREPETAG
1070
     1
1071
       25
1005
123927
  0
LINE
  5
123B44
  8
OBJECT
 10
4425.0
 20
-3779.9999999999991
 30
0.0
 11
4425.0
 21
-3999.9999999999968
 31
0.0
1001
ACDBBLOCKREPETAG
1070
     1
1071
       26
1005
123928
  0
LINE
  5
123B45
  8
OBJECT
 10
4575.0
 20
-3779.9999999999991
 30
0.0
 11
4575.0
 21
-3876.5000000000618
 31
0.0
1001
ACDBBLOCKREPETAG
1070
     1
1071
       34
1005
12392C
  0
LINE
  5
123B46
  8
OBJECT
 10
4575.0
 20
-3982.4999999999991
 30
0.0
 11
4575.0
 21
-3999.9999999999968
 31
0.0
1001
ACDBBLOCKREPETAG
1070
     1
1071
       34
1005
12392C
  0
LINE
  5
123B4E
  8
CENTER
 10
4900.0
 20
-3764.9999999999968
 30
0.0
 11
4900.0
 21
-4011.9999999999959
 31
0.0
1001
ACDBBLOCKREPETAG
1070
     1
1071
       25
1005
123927
  0
LINE
  5
123B4F
  8
OBJECT
 10
4825.0
 20
-3779.9999999999991
 30
0.0
 11
4825.0
 21
-3999.9999999999968
 31
0.0
1001
ACDBBLOCKREPETAG
1070
     1
1071
       26
1005
123928
  0
LINE
  5
123B50
  8
OBJECT
 10
4975.0
 20
-3779.9999999999991
 30
0.0
 11
4974.9999999999991
 21
-3999.9999999999991
 31
0.0
1001
ACDBBLOCKREPETAG
1070
     1
1071
       34
1005
12392C
  0
LINE
  5
12443E
  8
OBJECT
 10
8524.1029330933015
 20
-243.80694712371681
 30
0.0
 11
8520.6596569999983
 21
-232.55462199999889
 31
0.0
1001
ACDBBLOCKREPETAG
1070
     1
1071
      300
1005
12253B
  0
LINE
  5
12443F
  8
OBJECT
 10
8486.7927499013731
 20
-218.22553374208019
 30
0.0
 11
8520.6596569999983
 21
-232.5546219999969
 31
0.0
1001
ACDBBLOCKREPETAG
1070
     1
1071
      302
1005
12253C
  0
ARC
  5
124440
  8
OBJECT
 10
8482.8961697618979
 20
-227.4351299990567
 30
0.0
 40
10.0
 50
67.066778292909561
 51
154.0147343702935
1001
ACDBBLOCKREPETAG
1070
     1
1071
      303
1005
12253D
  0
ARC
  5
124441
  8
OBJECT
 10
8486.1488390381255
 20
-225.55386256729159
 30
0.0
 40
7.0
 50
67.066778292909561
 51
154.0147337749687
1001
ACDBBLOCKREPETAG
1070
     1
1071
      304
1005
12253E
  0
LINE
  5
124442
  8
OBJECT
 10
8469.4199755553018
 20
-243.89888500818171
 30
0.0
 11
8479.8564918232369
 21
-222.48688253356801
 31
0.0
1001
ACDBBLOCKREPETAG
1070
     1
1071
      341
1005
12253F
  0
LINE
  5
124443
  8
OBJECT
 10
8465.2972169006116
 20
-240.71813901882729
 30
0.0
 11
8473.9071022665084
 21
-223.05373004430751
 31
0.0
1001
ACDBBLOCKREPETAG
1070
     1
1071
      342
1005
122540
  0
ARC
  5
124444
  8
OBJECT
 10
8476.5796953073132
 20
-207.1289369828437
 30
0.0
 40
60.031113246032611
 50
314.07020130418528
 51
322.33936106091278
1001
ACDBBLOCKREPETAG
1070
     1
1071
      343
1005
122541
  0
CIRCLE
  5
124445
  8
OBJECT
 10
8500.0
 20
-199.99999999999909
 30
0.0
 40
53.5
1001
ACDBBLOCKREPETAG
1070
     1
1071
      344
1005
122542
  0
POINT
  5
124446
  8
DOTS
 10
8500.0
 20
-199.99999999999909
 30
0.0
 50
270.0
1001
ACDBBLOCKREPETAG
1070
     1
1071
      362
1005
122543
  0
ARC
  5
124447
  8
OBJECT
 10
8500.0
 20
-199.99999999999909
 30
0.0
 40
50.0
 50
298.81994300000611
 51
153.78043883603971
1001
ACDBBLOCKREPETAG
1070
     1
1071
        7
1005
122544
  0
LINE
  5
124448
  8
CENTER
 10
8580.0
 20
-199.99999999999909
 30
0.0
 11
8400.0
 21
-199.99999999999909
 31
0.0
1001
ACDBBLOCKREPETAG
1070
     1
1071
       14
1005
122545
  0
LINE
  5
124449
  8
CENTER
 10
8500.0
 20
-299.99999999999898
 30
0.0
 11
8500.0
 21
-99.999999999999091
 31
0.0
1001
ACDBBLOCKREPETAG
1070
     1
1071
       15
1005
122546
  0
CIRCLE
  5
12444A
  8
OBJECT
 10
8500.0
 20
-199.99999999999909
 30
0.0
 40
70.0
1001
ACDBBLOCKREPETAG
1070
     1
1071
       16
1005
122547
  0
CIRCLE
  5
12444B
  8
OBJECT
 10
8500.0
 20
-199.99999999999909
 30
0.0
 40
77.0
1001
ACDBBLOCKREPETAG
1070
     1
1071
       17
1005
122548
  0
ARC
  5
12444C
  8
OBJECT
 10
8500.0
 20
-199.99999999999909
 30
0.0
 40
80.0
 50
50.80503257386345
 51
309.19496742598341
1001
ACDBBLOCKREPETAG
1070
     1
1071
       18
1005
122549
  0
LINE
  5
12444E
  8
OBJECT
 10
8545.6618002273262
 20
-137.99999999999909
 30
0.0
 11
8580.0
 21
-137.99999999999909
 31
0.0
1001
ACDBBLOCKREPETAG
1070
     1
1071
       19
1005
12254A
  0
LINE
  5
12444F
  8
OBJECT
 10
8545.6618002273262
 20
-261.99999999999909
 30
0.0
 11
8580.0
 21
-261.99999999999909
 31
0.0
1001
ACDBBLOCKREPETAG
1070
     1
1071
       20
1005
12254B
  0
LINE
  5
124450
  8
OBJECT
 10
8367.0
 20
-255.0
 30
0.0
 11
8360.0
 21
-255.0
 31
0.0
1001
ACDBBLOCKREPETAG
1070
     1
1071
       20
1005
12250A
  0
LINE
  5
124451
  8
OBJECT
 10
8360.0
 20
-255.0
 30
0.0
 11
8360.0
 21
-145.0
 31
0.0
1001
ACDBBLOCKREPETAG
1070
     1
1071
       21
1005
12250B
  0
LINE
  5
124452
  8
OBJECT
 10
8360.0
 20
-145.0
 30
0.0
 11
8367.0
 21
-145.0
 31
0.0
1001
ACDBBLOCKREPETAG
1070
     1
1071
       22
1005
12250C
  0
LINE
  5
124453
  8
OBJECT
 10
8367.0
 20
-145.0
 30
0.0
 11
8367.0
 21
-255.0
 31
0.0
1001
ACDBBLOCKREPETAG
1070
     1
1071
       23
1005
12250D
  0
LINE
  5
124454
  8
CENTER
 10
8345.0
 20
-200.0
 30
0.0
 11
8420.0
 21
-200.0
 31
0.0
1001
ACDBBLOCKREPETAG
1070
     1
1071
       24
1005
12250E
  0
LINE
  5
124455
  8
OBJECT
 10
8367.0
 20
-252.0
 30
0.0
 11
8403.0
 21
-252.0
 31
0.0
1001
ACDBBLOCKREPETAG
1070
     1
1071
       25
1005
12250F
  0
LINE
  5
124456
  8
OBJECT
 10
8403.0
 20
-252.0
 30
0.0
 11
8403.0
 21
-148.0
 31
0.0
1001
ACDBBLOCKREPETAG
1070
     1
1071
       26
1005
122510
  0
LINE
  5
124457
  8
OBJECT
 10
8403.0
 20
-148.0
 30
0.0
 11
8367.0
 21
-148.0
 31
0.0
1001
ACDBBLOCKREPETAG
1070
     1
1071
       27
1005
122511
  0
LINE
  5
124458
  8
OBJECT
 10
8407.0
 20
-247.5
 30
0.0
 11
8415.4999999999982
 21
-247.5
 31
0.0
1001
ACDBBLOCKREPETAG
1070
     1
1071
       28
1005
122512
  0
LINE
  5
124459
  8
OBJECT
 10
8415.4999999999982
 20
-152.5
 30
0.0
 11
8407.0
 21
-152.5
 31
0.0
1001
ACDBBLOCKREPETAG
1070
     1
1071
       29
1005
122513
  0
LINE
  5
12445A
  8
OBJECT
 10
8407.0
 20
-152.5
 30
0.0
 11
8407.0
 21
-247.5
 31
0.0
1001
ACDBBLOCKREPETAG
1070
     1
1071
       30
1005
122514
  0
LINE
  5
12445B
  8
OBJECT
 10
8403.0
 20
-252.0
 30
0.0
 11
8407.0
 21
-247.5
 31
0.0
1001
ACDBBLOCKREPETAG
1070
     1
1071
       31
1005
122515
  0
LINE
  5
12445C
  8
OBJECT
 10
8403.0
 20
-148.0
 30
0.0
 11
8407.0
 21
-152.5
 31
0.0
1001
ACDBBLOCKREPETAG
1070
     1
1071
       32
1005
122516
  0
LINE
  5
12445D
  8
OBJECT
 10
8415.5000000000018
 20
-150.5
 30
0.0
 11
8415.4999999999982
 21
-249.5
 31
0.0
1001
ACDBBLOCKREPETAG
1070
     1
1071
       33
1005
122517
  0
LINE
  5
12445E
  8
HIDDEN
 10
8412.0
 20
-238.0
 30
0.0
 11
8412.0
 21
-162.0
 31
0.0
1001
ACDBBLOCKREPETAG
1070
     1
1071
       34
1005
122518
  0
LINE
  5
12445F
  8
OBJECT
 10
8415.4999999999982
 20
-249.5
 30
0.0
 11
8437.1529634747985
 21
-249.5
 31
0.0
1001
ACDBBLOCKREPETAG
1070
     1
1071
       35
1005
122519
  0
LINE
  5
124460
  8
OBJECT
 10
8415.5000000000018
 20
-150.5
 30
0.0
 11
8437.1529634747985
 21
-150.5
 31
0.0
1001
ACDBBLOCKREPETAG
1070
     1
1071
       36
1005
12251A
  0
ARC
  5
124461
  8
OBJECT
 10
8500.0
 20
-199.99999999999909
 30
0.0
 40
85.0
 50
46.837102859708409
 51
144.38379327149369
1001
ACDBBLOCKREPETAG
1070
     1
1071
       18
1005
122549
  0
POINT
  5
124C02
  8
DOTS
 10
2500.0
 20
-3579.9999999999959
 30
0.0
  0
POINT
  5
124C03
  8
DOTS
 10
2500.0
 20
-3984.9999999999968
 30
0.0
  0
POINT
  5
124C05
  8
DOTS
 10
3500.0
 20
-3984.9999999999968
 30
0.0
  0
POINT
  5
124C07
  8
DOTS
 10
3500.0
 20
-3579.9999999999959
 30
0.0
  0
POINT
  5
124C08
  8
DOTS
 10
4499.9999999999991
 20
-3579.9999999999959
 30
0.0
  0
POINT
  5
124C09
  8
DOTS
 10
4499.9999999999991
 20
-3984.9999999999968
 30
0.0
  0
ARC
  5
125898
  8
OBJECT
 10
8500.0
 20
-199.99999999999909
 30
0.0
 40
85.0
 50
215.61620672850799
 51
313.16289714029159
1001
ACDBBLOCKREPETAG
1070
     1
1071
       18
1005
122549
  0
LINE
  5
1258AA
  8
OBJECT
 10
8454.3220385552486
 20
-176.17579607525019
 30
0.0
 11
8453.0174047416567
 21
-174.4092645125165
 31
0.0
1001
ACDBBLOCKREPETAG
1070
     1
1071
      434
1005
1258AA
  0
ARC
  5
1258AB
  8
OBJECT
 10
8450.3000008248036
 20
-179.14618535863451
 30
0.0
 40
5.0
 50
0.0
 51
36.446922476136933
1001
ACDBBLOCKREPETAG
1070
     1
1071
      435
1005
1258AB
  0
LINE
  5
1258AC
  8
OBJECT
 10
8454.3220385553777
 20
-223.82420392469501
 30
0.0
 11
8453.0174047417386
 21
-225.5907354876407
 31
0.0
1001
ACDBBLOCKREPETAG
1070
     1
1071
      436
1005
1258AC
  0
ARC
  5
1258AD
  8
OBJECT
 10
8450.3000008248036
 20
-220.85381464148281
 30
0.0
 40
5.0
 50
323.55307752631751
 51
0.0
1001
ACDBBLOCKREPETAG
1070
     1
1071
      437
1005
1258AD
  0
LINE
  5
1258AE
  8
OBJECT
 10
8455.3000008248
 20
-220.85381464148281
 30
0.0
 11
8455.3000008248
 21
-179.14618535863451
 31
0.0
1001
ACDBBLOCKREPETAG
1070
     1
1071
      438
1005
1258AE
  0
ARC
  5
1258AF
  8
OBJECT
 10
8500.0
 20
-199.99999999999909
 30
0.0
 40
50.0
 50
206.21956116401211
 51
228.5237695596756
1001
ACDBBLOCKREPETAG
1070
     1
1071
        7
1005
122544
  0
LINE
  5
1258D1
  8
OBJECT
 10
10524.1029330933
 20
-243.80694712371681
 30
0.0
 11
10520.659656999989
 21
-232.55462199999889
 31
0.0
1001
ACDBBLOCKREPETAG
1070
     1
1071
      300
1005
12253B
  0
ARC
  5
1258D9
  8
OBJECT
 10
10482.8961697619
 20
-227.4351299990567
 30
0.0
 40
10.0
 50
67.066778292909291
 51
154.0147343702935
1001
ACDBBLOCKREPETAG
1070
     1
1071
      303
1005
12253D
  0
LINE
  5
1258DA
  8
OBJECT
 10
10486.792749901369
 20
-218.22553374208019
 30
0.0
 11
10520.659656999989
 21
-232.5546219999969
 31
0.0
1001
ACDBBLOCKREPETAG
1070
     1
1071
      302
1005
12253C
  0
ARC
  5
1258DB
  8
OBJECT
 10
10486.14883903812
 20
-225.55386256729159
 30
0.0
 40
7.0
 50
67.066778292909291
 51
154.01473377496779
1001
ACDBBLOCKREPETAG
1070
     1
1071
      304
1005
12253E
  0
LINE
  5
1258DC
  8
OBJECT
 10
10465.29721690061
 20
-240.71813901882729
 30
0.0
 11
10473.90710226651
 21
-223.05373004430751
 31
0.0
1001
ACDBBLOCKREPETAG
1070
     1
1071
      342
1005
122540
  0
LINE
  5
1258DD
  8
OBJECT
 10
10469.4199755553
 20
-243.89888500818171
 30
0.0
 11
10479.856491823241
 21
-222.48688253356801
 31
0.0
1001
ACDBBLOCKREPETAG
1070
     1
1071
      341
1005
12253F
  0
ARC
  5
1258DE
  8
OBJECT
 10
10500.0
 20
-199.99999999999909
 30
0.0
 40
50.0
 50
206.21956116401259
 51
228.52376955967571
1001
ACDBBLOCKREPETAG
1070
     1
1071
        7
1005
122544
  0
ARC
  5
1258DF
  8
OBJECT
 10
10500.0
 20
-199.99999999999909
 30
0.0
 40
50.0
 50
298.81994300000628
 51
153.7804388360407
1001
ACDBBLOCKREPETAG
1070
     1
1071
        7
1005
122544
  0
LINE
  5
1258E0
  8
CENTER
 10
10580.0
 20
-199.99999999999909
 30
0.0
 11
10400.0
 21
-199.99999999999909
 31
0.0
1001
ACDBBLOCKREPETAG
1070
     1
1071
       14
1005
122545
  0
CIRCLE
  5
1258E1
  8
OBJECT
 10
10500.0
 20
-199.99999999999909
 30
0.0
 40
53.5
1001
ACDBBLOCKREPETAG
1070
     1
1071
      344
1005
122542
  0
LINE
  5
1258E2
  8
CENTER
 10
10500.0
 20
-299.99999999999898
 30
0.0
 11
10500.0
 21
-99.999999999999091
 31
0.0
1001
ACDBBLOCKREPETAG
1070
     1
1071
       15
1005
122546
  0
ARC
  5
1258E4
  8
OBJECT
 10
10476.57969530731
 20
-207.1289369828437
 30
0.0
 40
60.031113246032611
 50
314.07020130418522
 51
322.33936106091278
1001
ACDBBLOCKREPETAG
1070
     1
1071
      343
1005
122541
  0
POINT
  5
1258E5
  8
DOTS
 10
10500.0
 20
-199.99999999999909
 30
0.0
 50
270.0
1001
ACDBBLOCKREPETAG
1070
     1
1071
      362
1005
122543
  0
CIRCLE
  5
1258E6
  8
OBJECT
 10
10500.0
 20
-199.99999999999909
 30
0.0
 40
70.0
1001
ACDBBLOCKREPETAG
1070
     1
1071
       16
1005
122547
  0
ARC
  5
1258E7
  8
OBJECT
 10
10500.0
 20
-199.99999999999909
 30
0.0
 40
80.0
 50
50.805032573863357
 51
309.1949674259846
1001
ACDBBLOCKREPETAG
1070
     1
1071
       18
1005
122549
  0
CIRCLE
  5
1258E8
  8
OBJECT
 10
10500.0
 20
-199.99999999999909
 30
0.0
 40
77.0
1001
ACDBBLOCKREPETAG
1070
     1
1071
       17
1005
122548
  0
LINE
  5
1258E9
  8
OBJECT
 10
10545.661800227321
 20
-261.99999999999909
 30
0.0
 11
10580.0
 21
-261.99999999999909
 31
0.0
1001
ACDBBLOCKREPETAG
1070
     1
1071
       20
1005
12254B
  0
LINE
  5
1258EA
  8
OBJECT
 10
10545.661800227321
 20
-137.99999999999909
 30
0.0
 11
10580.0
 21
-137.99999999999909
 31
0.0
1001
ACDBBLOCKREPETAG
1070
     1
1071
       19
1005
12254A
  0
LINE
  5
1258EB
  8
OBJECT
 10
10367.0
 20
-255.0
 30
0.0
 11
10360.0
 21
-255.0
 31
0.0
1001
ACDBBLOCKREPETAG
1070
     1
1071
       20
1005
12250A
  0
LINE
  5
1258EC
  8
OBJECT
 10
10360.0
 20
-255.0
 30
0.0
 11
10360.0
 21
-145.0
 31
0.0
1001
ACDBBLOCKREPETAG
1070
     1
1071
       21
1005
12250B
  0
LINE
  5
1258ED
  8
OBJECT
 10
10360.0
 20
-145.0
 30
0.0
 11
10367.0
 21
-145.0
 31
0.0
1001
ACDBBLOCKREPETAG
1070
     1
1071
       22
1005
12250C
  0
LINE
  5
1258EE
  8
OBJECT
 10
10367.0
 20
-145.0
 30
0.0
 11
10367.0
 21
-255.0
 31
0.0
1001
ACDBBLOCKREPETAG
1070
     1
1071
       23
1005
12250D
  0
LINE
  5
1258EF
  8
CENTER
 10
10345.0
 20
-200.0
 30
0.0
 11
10420.0
 21
-200.0
 31
0.0
1001
ACDBBLOCKREPETAG
1070
     1
1071
       24
1005
12250E
  0
LINE
  5
1258F0
  8
OBJECT
 10
10367.0
 20
-252.0
 30
0.0
 11
10403.0
 21
-252.0
 31
0.0
1001
ACDBBLOCKREPETAG
1070
     1
1071
       25
1005
12250F
  0
LINE
  5
1258F1
  8
OBJECT
 10
10403.0
 20
-252.0
 30
0.0
 11
10403.0
 21
-148.0
 31
0.0
1001
ACDBBLOCKREPETAG
1070
     1
1071
       26
1005
122510
  0
LINE
  5
1258F2
  8
OBJECT
 10
10403.0
 20
-148.0
 30
0.0
 11
10367.0
 21
-148.0
 31
0.0
1001
ACDBBLOCKREPETAG
1070
     1
1071
       27
1005
122511
  0
LINE
  5
1258F3
  8
OBJECT
 10
10407.0
 20
-247.5
 30
0.0
 11
10415.5
 21
-247.5
 31
0.0
1001
ACDBBLOCKREPETAG
1070
     1
1071
       28
1005
122512
  0
LINE
  5
1258F4
  8
OBJECT
 10
10415.5
 20
-152.5
 30
0.0
 11
10407.0
 21
-152.5
 31
0.0
1001
ACDBBLOCKREPETAG
1070
     1
1071
       29
1005
122513
  0
LINE
  5
1258F5
  8
OBJECT
 10
10407.0
 20
-152.5
 30
0.0
 11
10407.0
 21
-247.5
 31
0.0
1001
ACDBBLOCKREPETAG
1070
     1
1071
       30
1005
122514
  0
LINE
  5
1258F6
  8
OBJECT
 10
10403.0
 20
-252.0
 30
0.0
 11
10407.0
 21
-247.5
 31
0.0
1001
ACDBBLOCKREPETAG
1070
     1
1071
       31
1005
122515
  0
LINE
  5
1258F7
  8
OBJECT
 10
10403.0
 20
-148.0
 30
0.0
 11
10407.0
 21
-152.5
 31
0.0
1001
ACDBBLOCKREPETAG
1070
     1
1071
       32
1005
122516
  0
ARC
  5
1258F8
  8
OBJECT
 10
10500.0
 20
-199.99999999999909
 30
0.0
 40
85.0
 50
46.837102859712338
 51
144.3837932714905
1001
ACDBBLOCKREPETAG
1070
     1
1071
       18
1005
122549
  0
LINE
  5
1258F9
  8
OBJECT
 10
10415.5
 20
-150.5
 30
0.0
 11
10415.5
 21
-249.5
 31
0.0
1001
ACDBBLOCKREPETAG
1070
     1
1071
       33
1005
122517
  0
LINE
  5
1258FA
  8
HIDDEN
 10
10412.0
 20
-238.0
 30
0.0
 11
10412.0
 21
-162.0
 31
0.0
1001
ACDBBLOCKREPETAG
1070
     1
1071
       34
1005
122518
  0
LINE
  5
1258FB
  8
OBJECT
 10
10415.5
 20
-249.5
 30
0.0
 11
10437.1529634748
 21
-249.5
 31
0.0
1001
ACDBBLOCKREPETAG
1070
     1
1071
       35
1005
122519
  0
LINE
  5
1258FC
  8
OBJECT
 10
10415.5
 20
-150.5
 30
0.0
 11
10437.1529634748
 21
-150.5
 31
0.0
1001
ACDBBLOCKREPETAG
1070
     1
1071
       36
1005
12251A
  0
ARC
  5
1258FD
  8
OBJECT
 10
10500.0
 20
-199.99999999999909
 30
0.0
 40
85.0
 50
215.6162067285106
 51
313.16289714028773
1001
ACDBBLOCKREPETAG
1070
     1
1071
       18
1005
122549
  0
LINE
  5
1258FE
  8
OBJECT
 10
10454.32203855525
 20
-176.17579607525019
 30
0.0
 11
10453.017404741649
 21
-174.4092645125165
 31
0.0
1001
ACDBBLOCKREPETAG
1070
     1
1071
      434
1005
1258AA
  0
ARC
  5
1258FF
  8
OBJECT
 10
10450.3000008248
 20
-179.14618535863451
 30
0.0
 40
5.0
 50
0.0
 51
36.446922476137047
1001
ACDBBLOCKREPETAG
1070
     1
1071
      435
1005
1258AB
  0
LINE
  5
125900
  8
OBJECT
 10
10454.32203855537
 20
-223.82420392469501
 30
0.0
 11
10453.01740474174
 21
-225.5907354876407
 31
0.0
1001
ACDBBLOCKREPETAG
1070
     1
1071
      436
1005
1258AC
  0
ARC
  5
125901
  8
OBJECT
 10
10450.3000008248
 20
-220.85381464148281
 30
0.0
 40
5.0
 50
323.55307752631802
 51
0.0
1001
ACDBBLOCKREPETAG
1070
     1
1071
      437
1005
1258AD
  0
LINE
  5
125902
  8
OBJECT
 10
10455.3000008248
 20
-220.85381464148281
 30
0.0
 11
10455.3000008248
 21
-179.14618535863451
 31
0.0
1001
ACDBBLOCKREPETAG
1070
     1
1071
      438
1005
1258AE
  0
LINE
  5
125903
  8
OBJECT
 10
12524.1029330933
 20
-243.80694712371681
 30
0.0
 11
12520.659656999989
 21
-232.55462199999889
 31
0.0
1001
ACDBBLOCKREPETAG
1070
     1
1071
      300
1005
12253B
  0
ARC
  5
12590B
  8
OBJECT
 10
12482.8961697619
 20
-227.4351299990567
 30
0.0
 40
10.0
 50
67.066778292909291
 51
154.0147343702935
1001
ACDBBLOCKREPETAG
1070
     1
1071
      303
1005
12253D
  0
LINE
  5
12590C
  8
OBJECT
 10
12486.79274990136
 20
-218.22553374208019
 30
0.0
 11
12520.659656999989
 21
-232.5546219999969
 31
0.0
1001
ACDBBLOCKREPETAG
1070
     1
1071
      302
1005
12253C
  0
ARC
  5
12590D
  8
OBJECT
 10
12486.14883903812
 20
-225.55386256729159
 30
0.0
 40
7.0
 50
67.066778292909291
 51
154.01473377496779
1001
ACDBBLOCKREPETAG
1070
     1
1071
      304
1005
12253E
  0
LINE
  5
12590E
  8
OBJECT
 10
12465.29721690061
 20
-240.71813901882729
 30
0.0
 11
12473.90710226651
 21
-223.05373004430751
 31
0.0
1001
ACDBBLOCKREPETAG
1070
     1
1071
      342
1005
122540
  0
LINE
  5
12590F
  8
OBJECT
 10
12469.4199755553
 20
-243.89888500818171
 30
0.0
 11
12479.856491823241
 21
-222.48688253356801
 31
0.0
1001
ACDBBLOCKREPETAG
1070
     1
1071
      341
1005
12253F
  0
ARC
  5
125910
  8
OBJECT
 10
12500.0
 20
-199.99999999999909
 30
0.0
 40
50.0
 50
206.21956116400679
 51
228.52376955967571
1001
ACDBBLOCKREPETAG
1070
     1
1071
        7
1005
122544
  0
ARC
  5
125911
  8
OBJECT
 10
12500.0
 20
-199.99999999999909
 30
0.0
 40
50.0
 50
298.81994300000628
 51
153.78043883603499
1001
ACDBBLOCKREPETAG
1070
     1
1071
        7
1005
122544
  0
LINE
  5
125912
  8
CENTER
 10
12580.0
 20
-199.99999999999909
 30
0.0
 11
12400.0
 21
-199.99999999999909
 31
0.0
1001
ACDBBLOCKREPETAG
1070
     1
1071
       14
1005
122545
  0
CIRCLE
  5
125913
  8
OBJECT
 10
12500.0
 20
-199.99999999999909
 30
0.0
 40
53.5
1001
ACDBBLOCKREPETAG
1070
     1
1071
      344
1005
122542
  0
LINE
  5
125914
  8
CENTER
 10
12500.0
 20
-299.99999999999898
 30
0.0
 11
12500.0
 21
-99.999999999999091
 31
0.0
1001
ACDBBLOCKREPETAG
1070
     1
1071
       15
1005
122546
  0
ARC
  5
125916
  8
OBJECT
 10
12476.57969530731
 20
-207.1289369828437
 30
0.0
 40
60.031113246032611
 50
314.07020130418522
 51
322.33936106091278
1001
ACDBBLOCKREPETAG
1070
     1
1071
      343
1005
122541
  0
POINT
  5
125917
  8
DOTS
 10
12500.0
 20
-199.99999999999909
 30
0.0
 50
270.0
1001
ACDBBLOCKREPETAG
1070
     1
1071
      362
1005
122543
  0
CIRCLE
  5
125918
  8
OBJECT
 10
12500.0
 20
-199.99999999999909
 30
0.0
 40
70.0
1001
ACDBBLOCKREPETAG
1070
     1
1071
       16
1005
122547
  0
ARC
  5
125919
  8
OBJECT
 10
12500.0
 20
-199.99999999999909
 30
0.0
 40
80.0
 50
50.805032573863357
 51
309.19496742597448
1001
ACDBBLOCKREPETAG
1070
     1
1071
       18
1005
122549
  0
CIRCLE
  5
12591A
  8
OBJECT
 10
12500.0
 20
-199.99999999999909
 30
0.0
 40
77.0
1001
ACDBBLOCKREPETAG
1070
     1
1071
       17
1005
122548
  0
LINE
  5
12591B
  8
OBJECT
 10
12545.661800227321
 20
-261.99999999999909
 30
0.0
 11
12580.0
 21
-261.99999999999909
 31
0.0
1001
ACDBBLOCKREPETAG
1070
     1
1071
       20
1005
12254B
  0
LINE
  5
12591C
  8
OBJECT
 10
12545.661800227321
 20
-137.99999999999909
 30
0.0
 11
12580.0
 21
-137.99999999999909
 31
0.0
1001
ACDBBLOCKREPETAG
1070
     1
1071
       19
1005
12254A
  0
LINE
  5
12591D
  8
OBJECT
 10
12367.0
 20
-255.0
 30
0.0
 11
12360.0
 21
-255.0
 31
0.0
1001
ACDBBLOCKREPETAG
1070
     1
1071
       20
1005
12250A
  0
LINE
  5
12591E
  8
OBJECT
 10
12360.0
 20
-255.0
 30
0.0
 11
12360.0
 21
-145.0
 31
0.0
1001
ACDBBLOCKREPETAG
1070
     1
1071
       21
1005
12250B
  0
LINE
  5
12591F
  8
OBJECT
 10
12360.0
 20
-145.0
 30
0.0
 11
12367.0
 21
-145.0
 31
0.0
1001
ACDBBLOCKREPETAG
1070
     1
1071
       22
1005
12250C
  0
LINE
  5
125920
  8
OBJECT
 10
12367.0
 20
-145.0
 30
0.0
 11
12367.0
 21
-255.0
 31
0.0
1001
ACDBBLOCKREPETAG
1070
     1
1071
       23
1005
12250D
  0
LINE
  5
125921
  8
CENTER
 10
12345.0
 20
-200.0
 30
0.0
 11
12420.0
 21
-200.0
 31
0.0
1001
ACDBBLOCKREPETAG
1070
     1
1071
       24
1005
12250E
  0
LINE
  5
125922
  8
OBJECT
 10
12367.0
 20
-252.0
 30
0.0
 11
12403.0
 21
-252.0
 31
0.0
1001
ACDBBLOCKREPETAG
1070
     1
1071
       25
1005
12250F
  0
LINE
  5
125923
  8
OBJECT
 10
12403.0
 20
-252.0
 30
0.0
 11
12403.0
 21
-148.0
 31
0.0
1001
ACDBBLOCKREPETAG
1070
     1
1071
       26
1005
122510
  0
LINE
  5
125924
  8
OBJECT
 10
12403.0
 20
-148.0
 30
0.0
 11
12367.0
 21
-148.0
 31
0.0
1001
ACDBBLOCKREPETAG
1070
     1
1071
       27
1005
122511
  0
LINE
  5
125925
  8
OBJECT
 10
12407.0
 20
-247.5
 30
0.0
 11
12415.5
 21
-247.5
 31
0.0
1001
ACDBBLOCKREPETAG
1070
     1
1071
       28
1005
122512
  0
LINE
  5
125926
  8
OBJECT
 10
12415.5
 20
-152.5
 30
0.0
 11
12407.0
 21
-152.5
 31
0.0
1001
ACDBBLOCKREPETAG
1070
     1
1071
       29
1005
122513
  0
LINE
  5
125927
  8
OBJECT
 10
12407.0
 20
-152.5
 30
0.0
 11
12407.0
 21
-247.5
 31
0.0
1001
ACDBBLOCKREPETAG
1070
     1
1071
       30
1005
122514
  0
LINE
  5
125928
  8
OBJECT
 10
12403.0
 20
-252.0
 30
0.0
 11
12407.0
 21
-247.5
 31
0.0
1001
ACDBBLOCKREPETAG
1070
     1
1071
       31
1005
122515
  0
LINE
  5
125929
  8
OBJECT
 10
12403.0
 20
-148.0
 30
0.0
 11
12407.0
 21
-152.5
 31
0.0
1001
ACDBBLOCKREPETAG
1070
     1
1071
       32
1005
122516
  0
ARC
  5
12592A
  8
OBJECT
 10
12500.0
 20
-199.99999999999909
 30
0.0
 40
85.0
 50
46.837102859702817
 51
144.38379327149809
1001
ACDBBLOCKREPETAG
1070
     1
1071
       18
1005
122549
  0
LINE
  5
12592B
  8
OBJECT
 10
12415.5
 20
-150.5
 30
0.0
 11
12415.5
 21
-249.5
 31
0.0
1001
ACDBBLOCKREPETAG
1070
     1
1071
       33
1005
122517
  0
LINE
  5
12592C
  8
HIDDEN
 10
12412.0
 20
-238.0
 30
0.0
 11
12412.0
 21
-162.0
 31
0.0
1001
ACDBBLOCKREPETAG
1070
     1
1071
       34
1005
122518
  0
LINE
  5
12592D
  8
OBJECT
 10
12415.5
 20
-249.5
 30
0.0
 11
12437.1529634748
 21
-249.5
 31
0.0
1001
ACDBBLOCKREPETAG
1070
     1
1071
       35
1005
122519
  0
LINE
  5
12592E
  8
OBJECT
 10
12415.5
 20
-150.5
 30
0.0
 11
12437.1529634748
 21
-150.5
 31
0.0
1001
ACDBBLOCKREPETAG
1070
     1
1071
       36
1005
12251A
  0
ARC
  5
12592F
  8
OBJECT
 10
12500.0
 20
-199.99999999999909
 30
0.0
 40
85.0
 50
215.61620672850299
 51
313.1628971402971
1001
ACDBBLOCKREPETAG
1070
     1
1071
       18
1005
122549
  0
LINE
  5
125930
  8
OBJECT
 10
12454.32203855525
 20
-176.17579607525019
 30
0.0
 11
12453.017404741649
 21
-174.4092645125165
 31
0.0
1001
ACDBBLOCKREPETAG
1070
     1
1071
      434
1005
1258AA
  0
ARC
  5
125931
  8
OBJECT
 10
12450.3000008248
 20
-179.14618535863451
 30
0.0
 40
5.0
 50
0.0
 51
36.446922476137047
1001
ACDBBLOCKREPETAG
1070
     1
1071
      435
1005
1258AB
  0
LINE
  5
125932
  8
OBJECT
 10
12454.32203855537
 20
-223.82420392469501
 30
0.0
 11
12453.01740474174
 21
-225.5907354876407
 31
0.0
1001
ACDBBLOCKREPETAG
1070
     1
1071
      436
1005
1258AC
  0
ARC
  5
125933
  8
OBJECT
 10
12450.3000008248
 20
-220.85381464148281
 30
0.0
 40
5.0
 50
323.55307752631802
 51
0.0
1001
ACDBBLOCKREPETAG
1070
     1
1071
      437
1005
1258AD
  0
LINE
  5
125934
  8
OBJECT
 10
12455.3000008248
 20
-220.85381464148281
 30
0.0
 11
12455.3000008248
 21
-179.14618535863451
 31
0.0
1001
ACDBBLOCKREPETAG
1070
     1
1071
      438
1005
1258AE
  0
LINE
  5
125935
  8
OBJECT
 10
2524.1029330933011
 20
-243.8069471237157
 30
0.0
 11
2520.6596569999961
 21
-232.55462199999769
 31
0.0
1001
ACDBBLOCKREPETAG
1070
     1
1071
      300
1005
12253B
  0
ARC
  5
12593D
  8
OBJECT
 10
2482.8961697619011
 20
-227.43512999905559
 30
0.0
 40
10.0
 50
67.066778292909291
 51
154.0147343702935
1001
ACDBBLOCKREPETAG
1070
     1
1071
      303
1005
12253D
  0
LINE
  5
12593E
  8
OBJECT
 10
2486.792749901374
 20
-218.22553374207911
 30
0.0
 11
2520.6596569999961
 21
-232.5546219999957
 31
0.0
1001
ACDBBLOCKREPETAG
1070
     1
1071
      302
1005
12253C
  0
ARC
  5
12593F
  8
OBJECT
 10
2486.1488390381278
 20
-225.55386256729051
 30
0.0
 40
7.0
 50
67.066778292909291
 51
154.01473377497919
1001
ACDBBLOCKREPETAG
1070
     1
1071
      304
1005
12253E
  0
LINE
  5
125940
  8
OBJECT
 10
2465.2972169006089
 20
-240.71813901882629
 30
0.0
 11
2473.907102266508
 21
-223.05373004430641
 31
0.0
1001
ACDBBLOCKREPETAG
1070
     1
1071
      342
1005
122540
  0
LINE
  5
125941
  8
OBJECT
 10
2469.4199755553009
 20
-243.89888500818071
 30
0.0
 11
2479.856491823236
 21
-222.48688253356681
 31
0.0
1001
ACDBBLOCKREPETAG
1070
     1
1071
      341
1005
12253F
  0
ARC
  5
125942
  8
OBJECT
 10
2500.0
 20
-199.99999999999801
 30
0.0
 40
50.0
 50
206.21956116400679
 51
228.5237695596561
1001
ACDBBLOCKREPETAG
1070
     1
1071
        7
1005
122544
  0
ARC
  5
125943
  8
OBJECT
 10
2500.0
 20
-199.99999999999801
 30
0.0
 40
50.0
 50
298.81994300000628
 51
153.78043883603499
1001
ACDBBLOCKREPETAG
1070
     1
1071
        7
1005
122544
  0
LINE
  5
125944
  8
CENTER
 10
2579.9999999999991
 20
-199.99999999999801
 30
0.0
 11
2399.9999999999991
 21
-199.99999999999801
 31
0.0
1001
ACDBBLOCKREPETAG
1070
     1
1071
       14
1005
122545
  0
CIRCLE
  5
125945
  8
OBJECT
 10
2500.0
 20
-199.99999999999801
 30
0.0
 40
53.5
1001
ACDBBLOCKREPETAG
1070
     1
1071
      344
1005
122542
  0
LINE
  5
125946
  8
CENTER
 10
2500.0
 20
-294.99999999999801
 30
0.0
 11
2500.0
 21
-104.999999999998
 31
0.0
1001
ACDBBLOCKREPETAG
1070
     1
1071
       15
1005
122546
  0
ARC
  5
125948
  8
OBJECT
 10
2476.5796953073141
 20
-207.12893698284259
 30
0.0
 40
60.031113246032611
 50
314.07020130418522
 51
322.33936106089692
1001
ACDBBLOCKREPETAG
1070
     1
1071
      343
1005
122541
  0
POINT
  5
125949
  8
DOTS
 10
2500.0
 20
-199.99999999999801
 30
0.0
 50
270.0
1001
ACDBBLOCKREPETAG
1070
     1
1071
      362
1005
122543
  0
CIRCLE
  5
12594A
  8
OBJECT
 10
2500.0
 20
-199.99999999999801
 30
0.0
 40
70.0
1001
ACDBBLOCKREPETAG
1070
     1
1071
       16
1005
122547
  0
ARC
  5
12594B
  8
OBJECT
 10
2500.0
 20
-199.99999999999801
 30
0.0
 40
80.0
 50
50.805032573883572
 51
309.19496742597448
1001
ACDBBLOCKREPETAG
1070
     1
1071
       18
1005
122549
  0
CIRCLE
  5
12594C
  8
OBJECT
 10
2500.0
 20
-199.99999999999801
 30
0.0
 40
77.0
1001
ACDBBLOCKREPETAG
1070
     1
1071
       17
1005
122548
  0
LINE
  5
12594D
  8
OBJECT
 10
2545.6618002273231
 20
-261.99999999999801
 30
0.0
 11
2579.9999999999991
 21
-261.99999999999801
 31
0.0
1001
ACDBBLOCKREPETAG
1070
     1
1071
       20
1005
12254B
  0
LINE
  5
12594E
  8
OBJECT
 10
2545.6618002273231
 20
-137.99999999999801
 30
0.0
 11
2579.9999999999991
 21
-137.99999999999801
 31
0.0
1001
ACDBBLOCKREPETAG
1070
     1
1071
       19
1005
12254A
  0
LINE
  5
12594F
  8
OBJECT
 10
2366.9999999999991
 20
-254.99999999999889
 30
0.0
 11
2359.9999999999991
 21
-254.99999999999889
 31
0.0
1001
ACDBBLOCKREPETAG
1070
     1
1071
       20
1005
12250A
  0
LINE
  5
125950
  8
OBJECT
 10
2359.9999999999991
 20
-254.99999999999889
 30
0.0
 11
2359.9999999999991
 21
-144.99999999999881
 31
0.0
1001
ACDBBLOCKREPETAG
1070
     1
1071
       21
1005
12250B
  0
LINE
  5
125951
  8
OBJECT
 10
2359.9999999999991
 20
-144.99999999999881
 30
0.0
 11
2366.9999999999991
 21
-144.99999999999881
 31
0.0
1001
ACDBBLOCKREPETAG
1070
     1
1071
       22
1005
12250C
  0
LINE
  5
125952
  8
OBJECT
 10
2366.9999999999991
 20
-144.99999999999881
 30
0.0
 11
2366.9999999999991
 21
-254.99999999999889
 31
0.0
1001
ACDBBLOCKREPETAG
1070
     1
1071
       23
1005
12250D
  0
LINE
  5
125953
  8
CENTER
 10
2344.9999999999991
 20
-199.99999999999889
 30
0.0
 11
2419.9999999999991
 21
-199.99999999999889
 31
0.0
1001
ACDBBLOCKREPETAG
1070
     1
1071
       24
1005
12250E
  0
LINE
  5
125954
  8
OBJECT
 10
2366.9999999999991
 20
-251.99999999999889
 30
0.0
 11
2402.9999999999991
 21
-251.99999999999889
 31
0.0
1001
ACDBBLOCKREPETAG
1070
     1
1071
       25
1005
12250F
  0
LINE
  5
125955
  8
OBJECT
 10
2402.9999999999991
 20
-251.99999999999889
 30
0.0
 11
2402.9999999999991
 21
-147.99999999999881
 31
0.0
1001
ACDBBLOCKREPETAG
1070
     1
1071
       26
1005
122510
  0
LINE
  5
125956
  8
OBJECT
 10
2402.9999999999991
 20
-147.99999999999881
 30
0.0
 11
2366.9999999999991
 21
-147.99999999999881
 31
0.0
1001
ACDBBLOCKREPETAG
1070
     1
1071
       27
1005
122511
  0
LINE
  5
125957
  8
OBJECT
 10
2407.0
 20
-247.49999999999889
 30
0.0
 11
2415.4999999999991
 21
-247.49999999999889
 31
0.0
1001
ACDBBLOCKREPETAG
1070
     1
1071
       28
1005
122512
  0
LINE
  5
125958
  8
OBJECT
 10
2415.4999999999991
 20
-152.49999999999881
 30
0.0
 11
2407.0
 21
-152.49999999999881
 31
0.0
1001
ACDBBLOCKREPETAG
1070
     1
1071
       29
1005
122513
  0
LINE
  5
125959
  8
OBJECT
 10
2407.0
 20
-152.49999999999881
 30
0.0
 11
2407.0
 21
-247.49999999999889
 31
0.0
1001
ACDBBLOCKREPETAG
1070
     1
1071
       30
1005
122514
  0
LINE
  5
12595A
  8
OBJECT
 10
2402.9999999999991
 20
-251.99999999999889
 30
0.0
 11
2407.0
 21
-247.49999999999889
 31
0.0
1001
ACDBBLOCKREPETAG
1070
     1
1071
       31
1005
122515
  0
LINE
  5
12595B
  8
OBJECT
 10
2402.9999999999991
 20
-147.99999999999881
 30
0.0
 11
2407.0
 21
-152.49999999999881
 31
0.0
1001
ACDBBLOCKREPETAG
1070
     1
1071
       32
1005
122516
  0
LINE
  5
12595D
  8
OBJECT
 10
2415.5000000000009
 20
-150.49999999999881
 30
0.0
 11
2415.4999999999991
 21
-249.49999999999889
 31
0.0
1001
ACDBBLOCKREPETAG
1070
     1
1071
       33
1005
122517
  0
LINE
  5
12595E
  8
HIDDEN
 10
2411.9999999999991
 20
-237.99999999999889
 30
0.0
 11
2411.9999999999991
 21
-161.99999999999881
 31
0.0
1001
ACDBBLOCKREPETAG
1070
     1
1071
       34
1005
122518
  0
LINE
  5
12595F
  8
OBJECT
 10
2415.4999999999991
 20
-249.49999999999889
 30
0.0
 11
2437.1529634747981
 21
-249.49999999999889
 31
0.0
1001
ACDBBLOCKREPETAG
1070
     1
1071
       35
1005
122519
  0
LINE
  5
125960
  8
OBJECT
 10
2415.5000000000009
 20
-150.49999999999881
 30
0.0
 11
2437.1529634747981
 21
-150.49999999999881
 31
0.0
1001
ACDBBLOCKREPETAG
1070
     1
1071
       36
1005
12251A
  0
LINE
  5
125962
  8
OBJECT
 10
2454.3220385552481
 20
-176.17579607524911
 30
0.0
 11
2453.0174047416531
 21
-174.40926451251539
 31
0.0
1001
ACDBBLOCKREPETAG
1070
     1
1071
      434
1005
1258AA
  0
ARC
  5
125963
  8
OBJECT
 10
2450.3000008247991
 20
-179.1461853586334
 30
0.0
 40
5.0
 50
0.0
 51
36.446922476137047
1001
ACDBBLOCKREPETAG
1070
     1
1071
      435
1005
1258AB
  0
LINE
  5
125964
  8
OBJECT
 10
2454.322038555375
 20
-223.8242039246939
 30
0.0
 11
2453.0174047417381
 21
-225.59073548763959
 31
0.0
1001
ACDBBLOCKREPETAG
1070
     1
1071
      436
1005
1258AC
  0
ARC
  5
125965
  8
OBJECT
 10
2450.3000008247991
 20
-220.8538146414817
 30
0.0
 40
5.0
 50
323.55307752631802
 51
0.0
1001
ACDBBLOCKREPETAG
1070
     1
1071
      437
1005
1258AD
  0
LINE
  5
125966
  8
OBJECT
 10
2455.3000008247991
 20
-220.8538146414817
 30
0.0
 11
2455.3000008247991
 21
-179.1461853586334
 31
0.0
1001
ACDBBLOCKREPETAG
1070
     1
1071
      438
1005
1258AE
  0
LINE
  5
125967
  8
OBJECT
 10
4524.1029330933006
 20
-243.8069471237157
 30
0.0
 11
4520.6596569999938
 21
-232.55462199999769
 31
0.0
1001
ACDBBLOCKREPETAG
1070
     1
1071
      300
1005
12253B
  0
ARC
  5
12596F
  8
OBJECT
 10
4482.8961697618988
 20
-227.43512999905559
 30
0.0
 40
10.0
 50
67.066778292909234
 51
154.0147343702935
1001
ACDBBLOCKREPETAG
1070
     1
1071
      303
1005
12253D
  0
LINE
  5
125970
  8
OBJECT
 10
4486.792749901374
 20
-218.22553374207911
 30
0.0
 11
4520.6596569999938
 21
-232.5546219999957
 31
0.0
1001
ACDBBLOCKREPETAG
1070
     1
1071
      302
1005
12253C
  0
ARC
  5
125971
  8
OBJECT
 10
4486.1488390381273
 20
-225.55386256729051
 30
0.0
 40
7.0
 50
67.066778292909234
 51
154.01473377498201
1001
ACDBBLOCKREPETAG
1070
     1
1071
      304
1005
12253E
  0
LINE
  5
125972
  8
OBJECT
 10
4465.2972169006089
 20
-240.71813901882629
 30
0.0
 11
4473.9071022665057
 21
-223.05373004430641
 31
0.0
1001
ACDBBLOCKREPETAG
1070
     1
1071
      342
1005
122540
  0
LINE
  5
125973
  8
OBJECT
 10
4469.4199755552991
 20
-243.89888500818071
 30
0.0
 11
4479.856491823236
 21
-222.48688253356681
 31
0.0
1001
ACDBBLOCKREPETAG
1070
     1
1071
      341
1005
12253F
  0
ARC
  5
125974
  8
OBJECT
 10
4499.9999999999991
 20
-199.99999999999801
 30
0.0
 40
50.0
 50
206.21956116400821
 51
228.5237695596575
1001
ACDBBLOCKREPETAG
1070
     1
1071
        7
1005
122544
  0
ARC
  5
125975
  8
OBJECT
 10
4499.9999999999991
 20
-199.99999999999801
 30
0.0
 40
50.0
 50
298.81994300000628
 51
153.78043883603681
1001
ACDBBLOCKREPETAG
1070
     1
1071
        7
1005
122544
  0
LINE
  5
125976
  8
CENTER
 10
4579.9999999999991
 20
-199.99999999999801
 30
0.0
 11
4399.9999999999991
 21
-199.99999999999801
 31
0.0
1001
ACDBBLOCKREPETAG
1070
     1
1071
       14
1005
122545
  0
CIRCLE
  5
125977
  8
OBJECT
 10
4499.9999999999991
 20
-199.99999999999801
 30
0.0
 40
53.5
1001
ACDBBLOCKREPETAG
1070
     1
1071
      344
1005
122542
  0
LINE
  5
125978
  8
CENTER
 10
4499.9999999999991
 20
-294.99999999999801
 30
0.0
 11
4499.9999999999991
 21
-104.999999999998
 31
0.0
1001
ACDBBLOCKREPETAG
1070
     1
1071
       15
1005
122546
  0
ARC
  5
125979
  8
OBJECT
 10
4476.5796953073141
 20
-207.12893698284259
 30
0.0
 40
60.031113246032611
 50
314.07020130418522
 51
322.33936106089487
1001
ACDBBLOCKREPETAG
1070
     1
1071
      343
1005
122541
  0
POINT
  5
12597A
  8
DOTS
 10
4499.9999999999991
 20
-199.99999999999801
 30
0.0
 50
270.0
1001
ACDBBLOCKREPETAG
1070
     1
1071
      362
1005
122543
  0
CIRCLE
  5
12597B
  8
OBJECT
 10
4499.9999999999991
 20
-199.99999999999801
 30
0.0
 40
70.0
1001
ACDBBLOCKREPETAG
1070
     1
1071
       16
1005
122547
  0
ARC
  5
12597C
  8
OBJECT
 10
4499.9999999999991
 20
-199.99999999999801
 30
0.0
 40
80.0
 50
50.805032573881491
 51
309.1949674259709
1001
ACDBBLOCKREPETAG
1070
     1
1071
       18
1005
122549
  0
CIRCLE
  5
12597D
  8
OBJECT
 10
4499.9999999999991
 20
-199.99999999999801
 30
0.0
 40
77.0
1001
ACDBBLOCKREPETAG
1070
     1
1071
       17
1005
122548
  0
LINE
  5
12597E
  8
OBJECT
 10
4545.6618002273244
 20
-261.99999999999801
 30
0.0
 11
4579.9999999999991
 21
-261.99999999999801
 31
0.0
1001
ACDBBLOCKREPETAG
1070
     1
1071
       20
1005
12254B
  0
LINE
  5
12597F
  8
OBJECT
 10
4545.6618002273244
 20
-137.99999999999801
 30
0.0
 11
4579.9999999999991
 21
-137.99999999999801
 31
0.0
1001
ACDBBLOCKREPETAG
1070
     1
1071
       19
1005
12254A
  0
LINE
  5
125980
  8
OBJECT
 10
4366.9999999999991
 20
-254.99999999999889
 30
0.0
 11
4359.9999999999991
 21
-254.99999999999889
 31
0.0
1001
ACDBBLOCKREPETAG
1070
     1
1071
       20
1005
12250A
  0
LINE
  5
125981
  8
OBJECT
 10
4359.9999999999991
 20
-254.99999999999889
 30
0.0
 11
4359.9999999999991
 21
-144.99999999999881
 31
0.0
1001
ACDBBLOCKREPETAG
1070
     1
1071
       21
1005
12250B
  0
LINE
  5
125982
  8
OBJECT
 10
4359.9999999999991
 20
-144.99999999999881
 30
0.0
 11
4366.9999999999991
 21
-144.99999999999881
 31
0.0
1001
ACDBBLOCKREPETAG
1070
     1
1071
       22
1005
12250C
  0
LINE
  5
125983
  8
OBJECT
 10
4366.9999999999991
 20
-144.99999999999881
 30
0.0
 11
4366.9999999999991
 21
-254.99999999999889
 31
0.0
1001
ACDBBLOCKREPETAG
1070
     1
1071
       23
1005
12250D
  0
LINE
  5
125984
  8
CENTER
 10
4344.9999999999982
 20
-199.99999999999889
 30
0.0
 11
4419.9999999999991
 21
-199.99999999999889
 31
0.0
1001
ACDBBLOCKREPETAG
1070
     1
1071
       24
1005
12250E
  0
LINE
  5
125985
  8
OBJECT
 10
4366.9999999999991
 20
-251.99999999999889
 30
0.0
 11
4402.9999999999991
 21
-251.99999999999889
 31
0.0
1001
ACDBBLOCKREPETAG
1070
     1
1071
       25
1005
12250F
  0
LINE
  5
125986
  8
OBJECT
 10
4402.9999999999991
 20
-251.99999999999889
 30
0.0
 11
4402.9999999999991
 21
-147.99999999999881
 31
0.0
1001
ACDBBLOCKREPETAG
1070
     1
1071
       26
1005
122510
  0
LINE
  5
125987
  8
OBJECT
 10
4402.9999999999991
 20
-147.99999999999881
 30
0.0
 11
4366.9999999999991
 21
-147.99999999999881
 31
0.0
1001
ACDBBLOCKREPETAG
1070
     1
1071
       27
1005
122511
  0
LINE
  5
125988
  8
OBJECT
 10
4406.9999999999991
 20
-247.49999999999889
 30
0.0
 11
4415.4999999999991
 21
-247.49999999999889
 31
0.0
1001
ACDBBLOCKREPETAG
1070
     1
1071
       28
1005
122512
  0
LINE
  5
125989
  8
OBJECT
 10
4415.4999999999991
 20
-152.49999999999881
 30
0.0
 11
4406.9999999999991
 21
-152.49999999999881
 31
0.0
1001
ACDBBLOCKREPETAG
1070
     1
1071
       29
1005
122513
  0
LINE
  5
12598A
  8
OBJECT
 10
4406.9999999999991
 20
-152.49999999999881
 30
0.0
 11
4406.9999999999991
 21
-247.49999999999889
 31
0.0
1001
ACDBBLOCKREPETAG
1070
     1
1071
       30
1005
122514
  0
LINE
  5
12598B
  8
OBJECT
 10
4402.9999999999991
 20
-251.99999999999889
 30
0.0
 11
4406.9999999999991
 21
-247.49999999999889
 31
0.0
1001
ACDBBLOCKREPETAG
1070
     1
1071
       31
1005
122515
  0
LINE
  5
12598C
  8
OBJECT
 10
4402.9999999999991
 20
-147.99999999999881
 30
0.0
 11
4406.9999999999991
 21
-152.49999999999881
 31
0.0
1001
ACDBBLOCKREPETAG
1070
     1
1071
       32
1005
122516
  0
LINE
  5
12598D
  8
OBJECT
 10
4415.5
 20
-150.49999999999881
 30
0.0
 11
4415.4999999999991
 21
-249.49999999999889
 31
0.0
1001
ACDBBLOCKREPETAG
1070
     1
1071
       33
1005
122517
  0
LINE
  5
12598E
  8
HIDDEN
 10
4411.9999999999991
 20
-237.99999999999889
 30
0.0
 11
4411.9999999999991
 21
-161.99999999999881
 31
0.0
1001
ACDBBLOCKREPETAG
1070
     1
1071
       34
1005
122518
  0
LINE
  5
12598F
  8
OBJECT
 10
4415.4999999999991
 20
-249.49999999999889
 30
0.0
 11
4437.1529634747967
 21
-249.49999999999889
 31
0.0
1001
ACDBBLOCKREPETAG
1070
     1
1071
       35
1005
122519
  0
LINE
  5
125990
  8
OBJECT
 10
4415.5
 20
-150.49999999999881
 30
0.0
 11
4437.1529634747967
 21
-150.49999999999881
 31
0.0
1001
ACDBBLOCKREPETAG
1070
     1
1071
       36
1005
12251A
  0
LINE
  5
125991
  8
OBJECT
 10
4454.3220385552477
 20
-176.17579607524911
 30
0.0
 11
4453.0174047416522
 21
-174.40926451251539
 31
0.0
1001
ACDBBLOCKREPETAG
1070
     1
1071
      434
1005
1258AA
  0
ARC
  5
125992
  8
OBJECT
 10
4450.3000008247991
 20
-179.1461853586334
 30
0.0
 40
5.0
 50
0.0
 51
36.446922476137139
1001
ACDBBLOCKREPETAG
1070
     1
1071
      435
1005
1258AB
  0
LINE
  5
125993
  8
OBJECT
 10
4454.322038555375
 20
-223.8242039246939
 30
0.0
 11
4453.0174047417368
 21
-225.59073548763959
 31
0.0
1001
ACDBBLOCKREPETAG
1070
     1
1071
      436
1005
1258AC
  0
ARC
  5
125994
  8
OBJECT
 10
4450.3000008247991
 20
-220.8538146414817
 30
0.0
 40
5.0
 50
323.55307752631819
 51
0.0
1001
ACDBBLOCKREPETAG
1070
     1
1071
      437
1005
1258AD
  0
LINE
  5
125995
  8
OBJECT
 10
4455.3000008247991
 20
-220.8538146414817
 30
0.0
 11
4455.3000008247991
 21
-179.1461853586334
 31
0.0
1001
ACDBBLOCKREPETAG
1070
     1
1071
      438
1005
1258AE
  0
LINE
  5
125996
  8
OBJECT
 10
6524.1029330932997
 20
-243.8069471237157
 30
0.0
 11
6520.6596569999947
 21
-232.55462199999769
 31
0.0
1001
ACDBBLOCKREPETAG
1070
     1
1071
      300
1005
12253B
  0
ARC
  5
12599E
  8
OBJECT
 10
6482.8961697618988
 20
-227.43512999905559
 30
0.0
 40
10.0
 50
67.066778292909234
 51
154.0147343702935
1001
ACDBBLOCKREPETAG
1070
     1
1071
      303
1005
12253D
  0
LINE
  5
12599F
  8
OBJECT
 10
6486.7927499013749
 20
-218.22553374207911
 30
0.0
 11
6520.6596569999947
 21
-232.5546219999957
 31
0.0
1001
ACDBBLOCKREPETAG
1070
     1
1071
      302
1005
12253C
  0
ARC
  5
1259A0
  8
OBJECT
 10
6486.1488390381273
 20
-225.55386256729051
 30
0.0
 40
7.0
 50
67.066778292909234
 51
154.01473377497621
1001
ACDBBLOCKREPETAG
1070
     1
1071
      304
1005
12253E
  0
LINE
  5
1259A1
  8
OBJECT
 10
6465.2972169006089
 20
-240.71813901882629
 30
0.0
 11
6473.9071022665066
 21
-223.05373004430641
 31
0.0
1001
ACDBBLOCKREPETAG
1070
     1
1071
      342
1005
122540
  0
LINE
  5
1259A2
  8
OBJECT
 10
6469.4199755553009
 20
-243.89888500818071
 30
0.0
 11
6479.856491823236
 21
-222.48688253356681
 31
0.0
1001
ACDBBLOCKREPETAG
1070
     1
1071
      341
1005
12253F
  0
ARC
  5
1259A3
  8
OBJECT
 10
6499.9999999999991
 20
-199.99999999999801
 30
0.0
 40
50.0
 50
206.2195611640025
 51
228.5237695596478
1001
ACDBBLOCKREPETAG
1070
     1
1071
        7
1005
122544
  0
ARC
  5
1259A4
  8
OBJECT
 10
6499.9999999999991
 20
-199.99999999999801
 30
0.0
 40
50.0
 50
298.81994300000628
 51
153.78043883603121
1001
ACDBBLOCKREPETAG
1070
     1
1071
        7
1005
122544
  0
LINE
  5
1259A5
  8
CENTER
 10
6580.0
 20
-199.99999999999801
 30
0.0
 11
6399.9999999999991
 21
-199.99999999999801
 31
0.0
1001
ACDBBLOCKREPETAG
1070
     1
1071
       14
1005
122545
  0
CIRCLE
  5
1259A6
  8
OBJECT
 10
6499.9999999999991
 20
-199.99999999999801
 30
0.0
 40
53.5
1001
ACDBBLOCKREPETAG
1070
     1
1071
      344
1005
122542
  0
LINE
  5
1259A7
  8
CENTER
 10
6499.9999999999991
 20
-294.99999999999801
 30
0.0
 11
6499.9999999999991
 21
-104.999999999998
 31
0.0
1001
ACDBBLOCKREPETAG
1070
     1
1071
       15
1005
122546
  0
ARC
  5
1259A8
  8
OBJECT
 10
6476.5796953073141
 20
-207.12893698284259
 30
0.0
 40
60.031113246032611
 50
314.07020130418522
 51
322.33936106090289
1001
ACDBBLOCKREPETAG
1070
     1
1071
      343
1005
122541
  0
POINT
  5
1259A9
  8
DOTS
 10
6499.9999999999991
 20
-199.99999999999801
 30
0.0
 50
270.0
1001
ACDBBLOCKREPETAG
1070
     1
1071
      362
1005
122543
  0
CIRCLE
  5
1259AA
  8
OBJECT
 10
6499.9999999999991
 20
-199.99999999999801
 30
0.0
 40
70.0
1001
ACDBBLOCKREPETAG
1070
     1
1071
       16
1005
122547
  0
ARC
  5
1259AB
  8
OBJECT
 10
6499.9999999999991
 20
-199.99999999999801
 30
0.0
 40
80.0
 50
50.805032573891587
 51
309.1949674259709
1001
ACDBBLOCKREPETAG
1070
     1
1071
       18
1005
122549
  0
CIRCLE
  5
1259AC
  8
OBJECT
 10
6499.9999999999991
 20
-199.99999999999801
 30
0.0
 40
77.0
1001
ACDBBLOCKREPETAG
1070
     1
1071
       17
1005
122548
  0
LINE
  5
1259AD
  8
OBJECT
 10
6545.6618002273208
 20
-261.99999999999801
 30
0.0
 11
6580.0
 21
-261.99999999999801
 31
0.0
1001
ACDBBLOCKREPETAG
1070
     1
1071
       20
1005
12254B
  0
LINE
  5
1259AE
  8
OBJECT
 10
6545.6618002273208
 20
-137.99999999999801
 30
0.0
 11
6580.0
 21
-137.99999999999801
 31
0.0
1001
ACDBBLOCKREPETAG
1070
     1
1071
       19
1005
12254A
  0
LINE
  5
1259AF
  8
OBJECT
 10
6366.9999999999991
 20
-254.99999999999889
 30
0.0
 11
6359.9999999999991
 21
-254.99999999999889
 31
0.0
1001
ACDBBLOCKREPETAG
1070
     1
1071
       20
1005
12250A
  0
LINE
  5
1259B0
  8
OBJECT
 10
6359.9999999999991
 20
-254.99999999999889
 30
0.0
 11
6359.9999999999991
 21
-144.99999999999881
 31
0.0
1001
ACDBBLOCKREPETAG
1070
     1
1071
       21
1005
12250B
  0
LINE
  5
1259B1
  8
OBJECT
 10
6359.9999999999991
 20
-144.99999999999881
 30
0.0
 11
6366.9999999999991
 21
-144.99999999999881
 31
0.0
1001
ACDBBLOCKREPETAG
1070
     1
1071
       22
1005
12250C
  0
LINE
  5
1259B2
  8
OBJECT
 10
6366.9999999999991
 20
-144.99999999999881
 30
0.0
 11
6366.9999999999991
 21
-254.99999999999889
 31
0.0
1001
ACDBBLOCKREPETAG
1070
     1
1071
       23
1005
12250D
  0
LINE
  5
1259B3
  8
CENTER
 10
6344.9999999999991
 20
-199.99999999999889
 30
0.0
 11
6419.9999999999991
 21
-199.99999999999889
 31
0.0
1001
ACDBBLOCKREPETAG
1070
     1
1071
       24
1005
12250E
  0
LINE
  5
1259B4
  8
OBJECT
 10
6366.9999999999991
 20
-251.99999999999889
 30
0.0
 11
6402.9999999999973
 21
-251.99999999999889
 31
0.0
1001
ACDBBLOCKREPETAG
1070
     1
1071
       25
1005
12250F
  0
LINE
  5
1259B5
  8
OBJECT
 10
6402.9999999999973
 20
-251.99999999999889
 30
0.0
 11
6402.9999999999973
 21
-147.99999999999881
 31
0.0
1001
ACDBBLOCKREPETAG
1070
     1
1071
       26
1005
122510
  0
LINE
  5
1259B6
  8
OBJECT
 10
6402.9999999999973
 20
-147.99999999999881
 30
0.0
 11
6366.9999999999991
 21
-147.99999999999881
 31
0.0
1001
ACDBBLOCKREPETAG
1070
     1
1071
       27
1005
122511
  0
LINE
  5
1259B7
  8
OBJECT
 10
6407.0
 20
-247.49999999999889
 30
0.0
 11
6415.4999999999973
 21
-247.49999999999889
 31
0.0
1001
ACDBBLOCKREPETAG
1070
     1
1071
       28
1005
122512
  0
LINE
  5
1259B8
  8
OBJECT
 10
6415.4999999999973
 20
-152.49999999999881
 30
0.0
 11
6407.0
 21
-152.49999999999881
 31
0.0
1001
ACDBBLOCKREPETAG
1070
     1
1071
       29
1005
122513
  0
LINE
  5
1259B9
  8
OBJECT
 10
6407.0
 20
-152.49999999999881
 30
0.0
 11
6407.0
 21
-247.49999999999889
 31
0.0
1001
ACDBBLOCKREPETAG
1070
     1
1071
       30
1005
122514
  0
LINE
  5
1259BA
  8
OBJECT
 10
6402.9999999999973
 20
-251.99999999999889
 30
0.0
 11
6407.0
 21
-247.49999999999889
 31
0.0
1001
ACDBBLOCKREPETAG
1070
     1
1071
       31
1005
122515
  0
LINE
  5
1259BB
  8
OBJECT
 10
6402.9999999999973
 20
-147.99999999999881
 30
0.0
 11
6407.0
 21
-152.49999999999881
 31
0.0
1001
ACDBBLOCKREPETAG
1070
     1
1071
       32
1005
122516
  0
LINE
  5
1259BC
  8
OBJECT
 10
6415.5000000000009
 20
-150.49999999999881
 30
0.0
 11
6415.4999999999973
 21
-249.49999999999889
 31
0.0
1001
ACDBBLOCKREPETAG
1070
     1
1071
       33
1005
122517
  0
LINE
  5
1259BD
  8
HIDDEN
 10
6411.9999999999991
 20
-237.99999999999889
 30
0.0
 11
6411.9999999999991
 21
-161.99999999999881
 31
0.0
1001
ACDBBLOCKREPETAG
1070
     1
1071
       34
1005
122518
  0
LINE
  5
1259BE
  8
OBJECT
 10
6415.4999999999973
 20
-249.49999999999889
 30
0.0
 11
6437.1529634747967
 21
-249.49999999999889
 31
0.0
1001
ACDBBLOCKREPETAG
1070
     1
1071
       35
1005
122519
  0
LINE
  5
1259BF
  8
OBJECT
 10
6415.5000000000009
 20
-150.49999999999881
 30
0.0
 11
6437.1529634747967
 21
-150.49999999999881
 31
0.0
1001
ACDBBLOCKREPETAG
1070
     1
1071
       36
1005
12251A
  0
LINE
  5
1259C0
  8
OBJECT
 10
6454.3220385552468
 20
-176.17579607524911
 30
0.0
 11
6453.0174047416504
 21
-174.40926451251539
 31
0.0
1001
ACDBBLOCKREPETAG
1070
     1
1071
      434
1005
1258AA
  0
ARC
  5
1259C1
  8
OBJECT
 10
6450.3000008248
 20
-179.1461853586334
 30
0.0
 40
5.0
 50
0.0
 51
36.446922476137139
1001
ACDBBLOCKREPETAG
1070
     1
1071
      435
1005
1258AB
  0
LINE
  5
1259C2
  8
OBJECT
 10
6454.322038555375
 20
-223.8242039246939
 30
0.0
 11
6453.0174047417368
 21
-225.59073548763959
 31
0.0
1001
ACDBBLOCKREPETAG
1070
     1
1071
      436
1005
1258AC
  0
ARC
  5
1259C3
  8
OBJECT
 10
6450.3000008248
 20
-220.8538146414817
 30
0.0
 40
5.0
 50
323.55307752631819
 51
0.0
1001
ACDBBLOCKREPETAG
1070
     1
1071
      437
1005
1258AD
  0
LINE
  5
1259C4
  8
OBJECT
 10
6455.3000008247982
 20
-220.8538146414817
 30
0.0
 11
6455.3000008247982
 21
-179.1461853586334
 31
0.0
1001
ACDBBLOCKREPETAG
1070
     1
1071
      438
1005
1258AE
  0
LINE
  5
126119
  8
OBJECT
 10
12423.0
 20
-571.0
 30
0.0
 11
12423.0
 21
-550.0
 31
0.0
1001
ACDBBLOCKREPETAG
1070
     1
1071
        0
1005
126119
  0
LINE
  5
12611A
  8
OBJECT
 10
12423.0
 20
-550.0
 30
0.0
 11
12577.0
 21
-550.0
 31
0.0
1001
ACDBBLOCKREPETAG
1070
     1
1071
        1
1005
12611A
  0
LINE
  5
12611B
  8
HIDDEN
 10
12443.0
 20
-620.0
 30
0.0
 11
12557.0
 21
-620.0
 31
0.0
1001
ACDBBLOCKREPETAG
1070
     1
1071
        2
1005
12611B
  0
LINE
  5
12611C
  8
OBJECT
 10
12577.0
 20
-550.0
 30
0.0
 11
12577.0
 21
-571.0
 31
0.0
1001
ACDBBLOCKREPETAG
1070
     1
1071
        3
1005
12611C
  0
LINE
  5
12611D
  8
OBJECT
 10
12577.0
 20
-571.0
 30
0.0
 11
12423.0
 21
-571.0
 31
0.0
1001
ACDBBLOCKREPETAG
1070
     1
1071
        4
1005
12611D
  0
LINE
  5
12611E
  8
CENTER
 10
12500.0
 20
-535.0
 30
0.0
 11
12500.0
 21
-890.0
 31
0.0
1001
ACDBBLOCKREPETAG
1070
     1
1071
        5
1005
12611E
  0
LINE
  5
12611F
  8
OBJECT
 10
12425.0
 20
-634.0
 30
0.0
 11
12425.0
 21
-878.0
 31
0.0
1001
ACDBBLOCKREPETAG
1070
     1
1071
        6
1005
12611F
  0
LINE
  5
126120
  8
OBJECT
 10
12428.0
 20
-571.0
 30
0.0
 11
12428.0
 21
-634.0
 31
0.0
1001
ACDBBLOCKREPETAG
1070
     1
1071
        7
1005
126120
  0
LINE
  5
126121
  8
OBJECT
 10
12572.0
 20
-634.0
 30
0.0
 11
12572.0
 21
-571.0
 31
0.0
1001
ACDBBLOCKREPETAG
1070
     1
1071
        8
1005
126121
  0
LINE
  5
126122
  8
OBJECT
 10
12420.0
 20
-878.0
 30
0.0
 11
12580.0
 21
-878.0
 31
0.0
1001
ACDBBLOCKREPETAG
1070
     1
1071
        9
1005
126122
  0
LINE
  5
126123
  8
OBJECT
 10
12580.0
 20
-634.0
 30
0.0
 11
12425.0
 21
-634.0
 31
0.0
1001
ACDBBLOCKREPETAG
1070
     1
1071
       10
1005
126123
  0
LINE
  5
126124
  8
OBJECT
 10
12420.0
 20
-878.0
 30
0.0
 11
12420.0
 21
-890.0
 31
0.0
1001
ACDBBLOCKREPETAG
1070
     1
1071
       11
1005
126124
  0
LINE
  5
126125
  8
OBJECT
 10
12420.0
 20
-890.0
 30
0.0
 11
12580.0
 21
-890.0
 31
0.0
1001
ACDBBLOCKREPETAG
1070
     1
1071
       12
1005
126125
  0
LINE
  5
126126
  8
OBJECT
 10
12580.0
 20
-890.0
 30
0.0
 11
12580.0
 21
-878.0
 31
0.0
1001
ACDBBLOCKREPETAG
1070
     1
1071
       13
1005
126126
  0
LINE
  5
126127
  8
OBJECT
 10
12574.99999999986
 20
-757.99999999985096
 30
0.0
 11
12575.0
 21
-878.0
 31
0.0
1001
ACDBBLOCKREPETAG
1070
     1
1071
       15
1005
126127
  0
LINE
  5
126128
  8
OBJECT
 10
12574.99999080298
 20
-757.99998602702181
 30
0.0
 11
12580.0
 21
-757.99998602702181
 31
0.0
1001
ACDBBLOCKREPETAG
1070
     1
1071
       16
1005
126128
  0
ARC
  5
126129
  8
OBJECT
 10
12700.687274671671
 20
-749.40809941010752
 30
0.0
 40
170.6350503965856
 50
137.44134459184301
 51
149.91949581337221
1001
ACDBBLOCKREPETAG
1070
     1
1071
       17
1005
126129
  0
ARC
  5
12612A
  8
OBJECT
 10
12618.845598704051
 20
-705.88272669536479
 30
0.0
 40
78.072222021763665
 50
147.4551531038623
 51
164.6636599771729
1001
ACDBBLOCKREPETAG
1070
     1
1071
       18
1005
12612A
  0
ARC
  5
12612B
  8
OBJECT
 10
12585.755434960871
 20
-696.0
 30
0.0
 40
43.55353926885617
 50
165.688452300753
 51
194.3115476992468
1001
ACDBBLOCKREPETAG
1070
     1
1071
       19
1005
12612B
  0
ARC
  5
12612C
  8
OBJECT
 10
12700.687274671671
 20
-642.59190058989225
 30
0.0
 40
170.6350503965856
 50
210.08050418662771
 51
222.55865540815699
1001
ACDBBLOCKREPETAG
1070
     1
1071
       20
1005
12612C
  0
ARC
  5
12612D
  8
OBJECT
 10
12618.845598704051
 20
-686.11727330463521
 30
0.0
 40
78.072222021763665
 50
195.3363400228271
 51
212.5448468961377
1001
ACDBBLOCKREPETAG
1070
     1
1071
       21
1005
12612D
  0
POINT
  5
12612E
  8
DOTS
 10
12500.0
 20
-755.0
 30
0.0
1001
ACDBBLOCKREPETAG
1070
     1
1071
      187
1005
12612E
  0
LINE
  5
12612F
  8
OBJECT
 10
10423.0
 20
-571.0
 30
0.0
 11
10423.0
 21
-550.0
 31
0.0
1001
ACDBBLOCKREPETAG
1070
     1
1071
        0
1005
12612F
  0
LINE
  5
126130
  8
OBJECT
 10
10423.0
 20
-550.0
 30
0.0
 11
10577.0
 21
-550.0
 31
0.0
1001
ACDBBLOCKREPETAG
1070
     1
1071
        1
1005
126130
  0
LINE
  5
126131
  8
HIDDEN
 10
10443.0
 20
-620.0
 30
0.0
 11
10557.0
 21
-620.0
 31
0.0
1001
ACDBBLOCKREPETAG
1070
     1
1071
        2
1005
126131
  0
LINE
  5
126132
  8
OBJECT
 10
10577.0
 20
-550.0
 30
0.0
 11
10577.0
 21
-571.0
 31
0.0
1001
ACDBBLOCKREPETAG
1070
     1
1071
        3
1005
126132
  0
LINE
  5
126133
  8
OBJECT
 10
10577.0
 20
-571.0
 30
0.0
 11
10423.0
 21
-571.0
 31
0.0
1001
ACDBBLOCKREPETAG
1070
     1
1071
        4
1005
126133
  0
LINE
  5
126134
  8
CENTER
 10
10500.0
 20
-535.0
 30
0.0
 11
10500.0
 21
-890.0
 31
0.0
1001
ACDBBLOCKREPETAG
1070
     1
1071
        5
1005
126134
  0
LINE
  5
126135
  8
OBJECT
 10
10425.0
 20
-634.0
 30
0.0
 11
10425.0
 21
-878.0
 31
0.0
1001
ACDBBLOCKREPETAG
1070
     1
1071
        6
1005
126135
  0
LINE
  5
126136
  8
OBJECT
 10
10428.0
 20
-571.0
 30
0.0
 11
10428.0
 21
-634.0
 31
0.0
1001
ACDBBLOCKREPETAG
1070
     1
1071
        7
1005
126136
  0
LINE
  5
126137
  8
OBJECT
 10
10572.0
 20
-634.0
 30
0.0
 11
10572.0
 21
-571.0
 31
0.0
1001
ACDBBLOCKREPETAG
1070
     1
1071
        8
1005
126137
  0
LINE
  5
126138
  8
OBJECT
 10
10420.0
 20
-878.0
 30
0.0
 11
10580.0
 21
-878.0
 31
0.0
1001
ACDBBLOCKREPETAG
1070
     1
1071
        9
1005
126138
  0
LINE
  5
126139
  8
OBJECT
 10
10580.0
 20
-634.0
 30
0.0
 11
10425.0
 21
-634.0
 31
0.0
1001
ACDBBLOCKREPETAG
1070
     1
1071
       10
1005
126139
  0
LINE
  5
12613A
  8
OBJECT
 10
10420.0
 20
-878.0
 30
0.0
 11
10420.0
 21
-890.0
 31
0.0
1001
ACDBBLOCKREPETAG
1070
     1
1071
       11
1005
12613A
  0
LINE
  5
12613B
  8
OBJECT
 10
10420.0
 20
-890.0
 30
0.0
 11
10580.0
 21
-890.0
 31
0.0
1001
ACDBBLOCKREPETAG
1070
     1
1071
       12
1005
12613B
  0
LINE
  5
12613C
  8
OBJECT
 10
10580.0
 20
-890.0
 30
0.0
 11
10580.0
 21
-878.0
 31
0.0
1001
ACDBBLOCKREPETAG
1070
     1
1071
       13
1005
12613C
  0
LINE
  5
12613D
  8
OBJECT
 10
10574.99999999986
 20
-757.99999999985096
 30
0.0
 11
10575.0
 21
-878.0
 31
0.0
1001
ACDBBLOCKREPETAG
1070
     1
1071
       15
1005
12613D
  0
LINE
  5
12613E
  8
OBJECT
 10
10574.99999080298
 20
-757.99998602702181
 30
0.0
 11
10580.0
 21
-757.99998602702181
 31
0.0
1001
ACDBBLOCKREPETAG
1070
     1
1071
       16
1005
12613E
  0
ARC
  5
12613F
  8
OBJECT
 10
10700.687274671671
 20
-749.40809941010752
 30
0.0
 40
170.6350503965856
 50
137.44134459184301
 51
149.91949581337221
1001
ACDBBLOCKREPETAG
1070
     1
1071
       17
1005
12613F
  0
ARC
  5
126140
  8
OBJECT
 10
10618.845598704051
 20
-705.88272669536479
 30
0.0
 40
78.072222021763665
 50
147.4551531038623
 51
164.6636599771729
1001
ACDBBLOCKREPETAG
1070
     1
1071
       18
1005
126140
  0
ARC
  5
126141
  8
OBJECT
 10
10585.755434960871
 20
-696.0
 30
0.0
 40
43.55353926885617
 50
165.688452300753
 51
194.3115476992468
1001
ACDBBLOCKREPETAG
1070
     1
1071
       19
1005
126141
  0
ARC
  5
126142
  8
OBJECT
 10
10700.687274671671
 20
-642.59190058989225
 30
0.0
 40
170.6350503965856
 50
210.08050418662771
 51
222.55865540815699
1001
ACDBBLOCKREPETAG
1070
     1
1071
       20
1005
126142
  0
ARC
  5
126143
  8
OBJECT
 10
10618.845598704051
 20
-686.11727330463521
 30
0.0
 40
78.072222021763665
 50
195.3363400228271
 51
212.5448468961377
1001
ACDBBLOCKREPETAG
1070
     1
1071
       21
1005
126143
  0
POINT
  5
126144
  8
DOTS
 10
10500.0
 20
-755.0
 30
0.0
1001
ACDBBLOCKREPETAG
1070
     1
1071
      187
1005
126144
  0
LINE
  5
126145
  8
OBJECT
 10
8423.0
 20
-571.0
 30
0.0
 11
8423.0
 21
-550.0
 31
0.0
1001
ACDBBLOCKREPETAG
1070
     1
1071
        0
1005
126145
  0
LINE
  5
126146
  8
OBJECT
 10
8423.0
 20
-550.0
 30
0.0
 11
8577.0
 21
-550.0
 31
0.0
1001
ACDBBLOCKREPETAG
1070
     1
1071
        1
1005
126146
  0
LINE
  5
126147
  8
HIDDEN
 10
8443.0
 20
-620.0
 30
0.0
 11
8557.0
 21
-620.0
 31
0.0
1001
ACDBBLOCKREPETAG
1070
     1
1071
        2
1005
126147
  0
LINE
  5
126148
  8
OBJECT
 10
8577.0
 20
-550.0
 30
0.0
 11
8577.0
 21
-571.0
 31
0.0
1001
ACDBBLOCKREPETAG
1070
     1
1071
        3
1005
126148
  0
LINE
  5
126149
  8
OBJECT
 10
8577.0
 20
-571.0
 30
0.0
 11
8423.0
 21
-571.0
 31
0.0
1001
ACDBBLOCKREPETAG
1070
     1
1071
        4
1005
126149
  0
LINE
  5
12614A
  8
CENTER
 10
8500.0
 20
-535.0
 30
0.0
 11
8500.0
 21
-890.0
 31
0.0
1001
ACDBBLOCKREPETAG
1070
     1
1071
        5
1005
12614A
  0
LINE
  5
12614B
  8
OBJECT
 10
8425.0
 20
-634.0
 30
0.0
 11
8425.0
 21
-878.0
 31
0.0
1001
ACDBBLOCKREPETAG
1070
     1
1071
        6
1005
12614B
  0
LINE
  5
12614C
  8
OBJECT
 10
8428.0
 20
-571.0
 30
0.0
 11
8428.0
 21
-634.0
 31
0.0
1001
ACDBBLOCKREPETAG
1070
     1
1071
        7
1005
12614C
  0
LINE
  5
12614D
  8
OBJECT
 10
8572.0
 20
-634.0
 30
0.0
 11
8572.0
 21
-571.0
 31
0.0
1001
ACDBBLOCKREPETAG
1070
     1
1071
        8
1005
12614D
  0
LINE
  5
12614E
  8
OBJECT
 10
8420.0
 20
-878.0
 30
0.0
 11
8580.0
 21
-878.0
 31
0.0
1001
ACDBBLOCKREPETAG
1070
     1
1071
        9
1005
12614E
  0
LINE
  5
12614F
  8
OBJECT
 10
8580.0
 20
-634.0
 30
0.0
 11
8425.0
 21
-634.0
 31
0.0
1001
ACDBBLOCKREPETAG
1070
     1
1071
       10
1005
12614F
  0
LINE
  5
126150
  8
OBJECT
 10
8420.0
 20
-878.0
 30
0.0
 11
8420.0
 21
-890.0
 31
0.0
1001
ACDBBLOCKREPETAG
1070
     1
1071
       11
1005
126150
  0
LINE
  5
126151
  8
OBJECT
 10
8420.0
 20
-890.0
 30
0.0
 11
8580.0
 21
-890.0
 31
0.0
1001
ACDBBLOCKREPETAG
1070
     1
1071
       12
1005
126151
  0
LINE
  5
126152
  8
OBJECT
 10
8580.0
 20
-890.0
 30
0.0
 11
8580.0
 21
-878.0
 31
0.0
1001
ACDBBLOCKREPETAG
1070
     1
1071
       13
1005
126152
  0
LINE
  5
126153
  8
OBJECT
 10
8574.9999999998618
 20
-757.99999999985096
 30
0.0
 11
8575.0
 21
-878.0
 31
0.0
1001
ACDBBLOCKREPETAG
1070
     1
1071
       15
1005
126153
  0
LINE
  5
126154
  8
OBJECT
 10
8574.9999908029858
 20
-757.99998602702181
 30
0.0
 11
8580.0
 21
-757.99998602702181
 31
0.0
1001
ACDBBLOCKREPETAG
1070
     1
1071
       16
1005
126154
  0
ARC
  5
126155
  8
OBJECT
 10
8700.6872746716726
 20
-749.40809941010752
 30
0.0
 40
170.6350503965856
 50
137.44134459184301
 51
149.91949581337221
1001
ACDBBLOCKREPETAG
1070
     1
1071
       17
1005
126155
  0
ARC
  5
126156
  8
OBJECT
 10
8618.8455987040506
 20
-705.88272669536479
 30
0.0
 40
78.072222021763665
 50
147.4551531038623
 51
164.6636599771729
1001
ACDBBLOCKREPETAG
1070
     1
1071
       18
1005
126156
  0
ARC
  5
126157
  8
OBJECT
 10
8585.7554349608708
 20
-696.0
 30
0.0
 40
43.55353926885617
 50
165.688452300753
 51
194.3115476992468
1001
ACDBBLOCKREPETAG
1070
     1
1071
       19
1005
126157
  0
ARC
  5
126158
  8
OBJECT
 10
8700.6872746716726
 20
-642.59190058989225
 30
0.0
 40
170.6350503965856
 50
210.08050418662771
 51
222.55865540815699
1001
ACDBBLOCKREPETAG
1070
     1
1071
       20
1005
126158
  0
ARC
  5
126159
  8
OBJECT
 10
8618.8455987040506
 20
-686.11727330463521
 30
0.0
 40
78.072222021763665
 50
195.3363400228271
 51
212.5448468961377
1001
ACDBBLOCKREPETAG
1070
     1
1071
       21
1005
126159
  0
POINT
  5
12615A
  8
DOTS
 10
8500.0
 20
-755.0
 30
0.0
1001
ACDBBLOCKREPETAG
1070
     1
1071
      187
1005
12615A
  0
LINE
  5
12615B
  8
OBJECT
 10
6423.0
 20
-571.0
 30
0.0
 11
6423.0
 21
-550.0
 31
0.0
1001
ACDBBLOCKREPETAG
1070
     1
1071
        0
1005
12615B
  0
LINE
  5
12615C
  8
OBJECT
 10
6423.0
 20
-550.0
 30
0.0
 11
6577.0
 21
-550.0
 31
0.0
1001
ACDBBLOCKREPETAG
1070
     1
1071
        1
1005
12615C
  0
LINE
  5
12615D
  8
HIDDEN
 10
6443.0
 20
-620.0
 30
0.0
 11
6557.0
 21
-620.0
 31
0.0
1001
ACDBBLOCKREPETAG
1070
     1
1071
        2
1005
12615D
  0
LINE
  5
12615E
  8
OBJECT
 10
6577.0
 20
-550.0
 30
0.0
 11
6577.0
 21
-571.0
 31
0.0
1001
ACDBBLOCKREPETAG
1070
     1
1071
        3
1005
12615E
  0
LINE
  5
12615F
  8
OBJECT
 10
6577.0
 20
-571.0
 30
0.0
 11
6423.0
 21
-571.0
 31
0.0
1001
ACDBBLOCKREPETAG
1070
     1
1071
        4
1005
12615F
  0
LINE
  5
126160
  8
CENTER
 10
6500.0
 20
-535.0
 30
0.0
 11
6500.0
 21
-890.0
 31
0.0
1001
ACDBBLOCKREPETAG
1070
     1
1071
        5
1005
126160
  0
LINE
  5
126161
  8
OBJECT
 10
6425.0
 20
-634.0
 30
0.0
 11
6425.0
 21
-878.0
 31
0.0
1001
ACDBBLOCKREPETAG
1070
     1
1071
        6
1005
126161
  0
LINE
  5
126162
  8
OBJECT
 10
6428.0
 20
-571.0
 30
0.0
 11
6428.0
 21
-634.0
 31
0.0
1001
ACDBBLOCKREPETAG
1070
     1
1071
        7
1005
126162
  0
LINE
  5
126163
  8
OBJECT
 10
6572.0
 20
-634.0
 30
0.0
 11
6572.0
 21
-571.0
 31
0.0
1001
ACDBBLOCKREPETAG
1070
     1
1071
        8
1005
126163
  0
LINE
  5
126164
  8
OBJECT
 10
6420.0
 20
-878.0
 30
0.0
 11
6580.0
 21
-878.0
 31
0.0
1001
ACDBBLOCKREPETAG
1070
     1
1071
        9
1005
126164
  0
LINE
  5
126165
  8
OBJECT
 10
6580.0
 20
-634.0
 30
0.0
 11
6425.0
 21
-634.0
 31
0.0
1001
ACDBBLOCKREPETAG
1070
     1
1071
       10
1005
126165
  0
LINE
  5
126166
  8
OBJECT
 10
6420.0
 20
-878.0
 30
0.0
 11
6420.0
 21
-890.0
 31
0.0
1001
ACDBBLOCKREPETAG
1070
     1
1071
       11
1005
126166
  0
LINE
  5
126167
  8
OBJECT
 10
6420.0
 20
-890.0
 30
0.0
 11
6580.0
 21
-890.0
 31
0.0
1001
ACDBBLOCKREPETAG
1070
     1
1071
       12
1005
126167
  0
LINE
  5
126168
  8
OBJECT
 10
6580.0
 20
-890.0
 30
0.0
 11
6580.0
 21
-878.0
 31
0.0
1001
ACDBBLOCKREPETAG
1070
     1
1071
       13
1005
126168
  0
LINE
  5
126169
  8
OBJECT
 10
6574.9999999998618
 20
-757.99999999985096
 30
0.0
 11
6575.0
 21
-878.0
 31
0.0
1001
ACDBBLOCKREPETAG
1070
     1
1071
       15
1005
126169
  0
LINE
  5
12616A
  8
OBJECT
 10
6574.9999908029858
 20
-757.99998602702181
 30
0.0
 11
6580.0
 21
-757.99998602702181
 31
0.0
1001
ACDBBLOCKREPETAG
1070
     1
1071
       16
1005
12616A
  0
ARC
  5
12616B
  8
OBJECT
 10
6700.6872746716717
 20
-749.40809941010752
 30
0.0
 40
170.6350503965856
 50
137.44134459184301
 51
149.91949581337221
1001
ACDBBLOCKREPETAG
1070
     1
1071
       17
1005
12616B
  0
ARC
  5
12616C
  8
OBJECT
 10
6618.8455987040506
 20
-705.88272669536479
 30
0.0
 40
78.072222021763665
 50
147.4551531038623
 51
164.66365997718671
1001
ACDBBLOCKREPETAG
1070
     1
1071
       18
1005
12616C
  0
ARC
  5
12616D
  8
OBJECT
 10
6585.7554349608727
 20
-696.0
 30
0.0
 40
43.55353926885617
 50
165.688452300753
 51
194.3115476992468
1001
ACDBBLOCKREPETAG
1070
     1
1071
       19
1005
12616D
  0
ARC
  5
12616E
  8
OBJECT
 10
6700.6872746716717
 20
-642.59190058989225
 30
0.0
 40
170.6350503965856
 50
210.08050418662771
 51
222.55865540815699
1001
ACDBBLOCKREPETAG
1070
     1
1071
       20
1005
12616E
  0
ARC
  5
12616F
  8
OBJECT
 10
6618.8455987040506
 20
-686.11727330463521
 30
0.0
 40
78.072222021763665
 50
195.3363400228132
 51
212.5448468961377
1001
ACDBBLOCKREPETAG
1070
     1
1071
       21
1005
12616F
  0
POINT
  5
126170
  8
DOTS
 10
6500.0
 20
-755.0
 30
0.0
1001
ACDBBLOCKREPETAG
1070
     1
1071
      187
1005
126170
  0
LINE
  5
126171
  8
OBJECT
 10
4423.0
 20
-571.0
 30
0.0
 11
4423.0
 21
-550.0
 31
0.0
1001
ACDBBLOCKREPETAG
1070
     1
1071
        0
1005
126171
  0
LINE
  5
126172
  8
OBJECT
 10
4423.0
 20
-550.0
 30
0.0
 11
4577.0
 21
-550.0
 31
0.0
1001
ACDBBLOCKREPETAG
1070
     1
1071
        1
1005
126172
  0
LINE
  5
126173
  8
HIDDEN
 10
4443.0
 20
-620.0
 30
0.0
 11
4557.0
 21
-620.0
 31
0.0
1001
ACDBBLOCKREPETAG
1070
     1
1071
        2
1005
126173
  0
LINE
  5
126174
  8
OBJECT
 10
4577.0
 20
-550.0
 30
0.0
 11
4577.0
 21
-571.0
 31
0.0
1001
ACDBBLOCKREPETAG
1070
     1
1071
        3
1005
126174
  0
LINE
  5
126175
  8
OBJECT
 10
4577.0
 20
-571.0
 30
0.0
 11
4423.0
 21
-571.0
 31
0.0
1001
ACDBBLOCKREPETAG
1070
     1
1071
        4
1005
126175
  0
LINE
  5
126176
  8
CENTER
 10
4500.0
 20
-535.0
 30
0.0
 11
4500.0
 21
-890.0
 31
0.0
1001
ACDBBLOCKREPETAG
1070
     1
1071
        5
1005
126176
  0
LINE
  5
126177
  8
OBJECT
 10
4425.0
 20
-634.0
 30
0.0
 11
4425.0
 21
-878.0
 31
0.0
1001
ACDBBLOCKREPETAG
1070
     1
1071
        6
1005
126177
  0
LINE
  5
126178
  8
OBJECT
 10
4428.0
 20
-571.0
 30
0.0
 11
4428.0
 21
-634.0
 31
0.0
1001
ACDBBLOCKREPETAG
1070
     1
1071
        7
1005
126178
  0
LINE
  5
126179
  8
OBJECT
 10
4572.0
 20
-634.0
 30
0.0
 11
4572.0
 21
-571.0
 31
0.0
1001
ACDBBLOCKREPETAG
1070
     1
1071
        8
1005
126179
  0
LINE
  5
12617A
  8
OBJECT
 10
4420.0
 20
-878.0
 30
0.0
 11
4580.0
 21
-878.0
 31
0.0
1001
ACDBBLOCKREPETAG
1070
     1
1071
        9
1005
12617A
  0
LINE
  5
12617B
  8
OBJECT
 10
4580.0
 20
-634.0
 30
0.0
 11
4425.0
 21
-634.0
 31
0.0
1001
ACDBBLOCKREPETAG
1070
     1
1071
       10
1005
12617B
  0
LINE
  5
12617C
  8
OBJECT
 10
4420.0
 20
-878.0
 30
0.0
 11
4420.0
 21
-890.0
 31
0.0
1001
ACDBBLOCKREPETAG
1070
     1
1071
       11
1005
12617C
  0
LINE
  5
12617D
  8
OBJECT
 10
4420.0
 20
-890.0
 30
0.0
 11
4580.0
 21
-890.0
 31
0.0
1001
ACDBBLOCKREPETAG
1070
     1
1071
       12
1005
12617D
  0
LINE
  5
12617E
  8
OBJECT
 10
4580.0
 20
-890.0
 30
0.0
 11
4580.0
 21
-878.0
 31
0.0
1001
ACDBBLOCKREPETAG
1070
     1
1071
       13
1005
12617E
  0
LINE
  5
12617F
  8
OBJECT
 10
4574.9999999998618
 20
-757.99999999985096
 30
0.0
 11
4575.0
 21
-878.0
 31
0.0
1001
ACDBBLOCKREPETAG
1070
     1
1071
       15
1005
12617F
  0
LINE
  5
126180
  8
OBJECT
 10
4574.9999908029849
 20
-757.99998602702181
 30
0.0
 11
4580.0
 21
-757.99998602702181
 31
0.0
1001
ACDBBLOCKREPETAG
1070
     1
1071
       16
1005
126180
  0
ARC
  5
126181
  8
OBJECT
 10
4700.6872746716726
 20
-749.40809941010752
 30
0.0
 40
170.6350503965856
 50
137.44134459184301
 51
149.91949581337221
1001
ACDBBLOCKREPETAG
1070
     1
1071
       17
1005
126181
  0
ARC
  5
126182
  8
OBJECT
 10
4618.8455987040506
 20
-705.88272669536479
 30
0.0
 40
78.072222021763665
 50
147.4551531038623
 51
164.66365997718671
1001
ACDBBLOCKREPETAG
1070
     1
1071
       18
1005
126182
  0
ARC
  5
126183
  8
OBJECT
 10
4585.7554349608718
 20
-696.0
 30
0.0
 40
43.55353926885617
 50
165.688452300753
 51
194.3115476992468
1001
ACDBBLOCKREPETAG
1070
     1
1071
       19
1005
126183
  0
ARC
  5
126184
  8
OBJECT
 10
4700.6872746716726
 20
-642.59190058989225
 30
0.0
 40
170.6350503965856
 50
210.08050418662771
 51
222.55865540815699
1001
ACDBBLOCKREPETAG
1070
     1
1071
       20
1005
126184
  0
ARC
  5
126185
  8
OBJECT
 10
4618.8455987040506
 20
-686.11727330463521
 30
0.0
 40
78.072222021763665
 50
195.3363400228132
 51
212.5448468961377
1001
ACDBBLOCKREPETAG
1070
     1
1071
       21
1005
126185
  0
POINT
  5
126186
  8
DOTS
 10
4500.0
 20
-755.0
 30
0.0
1001
ACDBBLOCKREPETAG
1070
     1
1071
      187
1005
126186
  0
LINE
  5
126187
  8
OBJECT
 10
2423.0
 20
-571.0
 30
0.0
 11
2423.0
 21
-550.0
 31
0.0
1001
ACDBBLOCKREPETAG
1070
     1
1071
        0
1005
126187
  0
LINE
  5
126188
  8
OBJECT
 10
2423.0
 20
-550.0
 30
0.0
 11
2577.0
 21
-550.0
 31
0.0
1001
ACDBBLOCKREPETAG
1070
     1
1071
        1
1005
126188
  0
LINE
  5
126189
  8
HIDDEN
 10
2443.0
 20
-620.0
 30
0.0
 11
2557.0
 21
-620.0
 31
0.0
1001
ACDBBLOCKREPETAG
1070
     1
1071
        2
1005
126189
  0
LINE
  5
12618A
  8
OBJECT
 10
2577.0
 20
-550.0
 30
0.0
 11
2577.0
 21
-571.0
 31
0.0
1001
ACDBBLOCKREPETAG
1070
     1
1071
        3
1005
12618A
  0
LINE
  5
12618B
  8
OBJECT
 10
2577.0
 20
-571.0
 30
0.0
 11
2423.0
 21
-571.0
 31
0.0
1001
ACDBBLOCKREPETAG
1070
     1
1071
        4
1005
12618B
  0
LINE
  5
12618C
  8
CENTER
 10
2500.0
 20
-535.0
 30
0.0
 11
2500.0
 21
-890.0
 31
0.0
1001
ACDBBLOCKREPETAG
1070
     1
1071
        5
1005
12618C
  0
LINE
  5
12618D
  8
OBJECT
 10
2425.0
 20
-634.0
 30
0.0
 11
2425.0
 21
-878.0
 31
0.0
1001
ACDBBLOCKREPETAG
1070
     1
1071
        6
1005
12618D
  0
LINE
  5
12618E
  8
OBJECT
 10
2428.0
 20
-571.0
 30
0.0
 11
2428.0
 21
-634.0
 31
0.0
1001
ACDBBLOCKREPETAG
1070
     1
1071
        7
1005
12618E
  0
LINE
  5
12618F
  8
OBJECT
 10
2572.0
 20
-634.0
 30
0.0
 11
2572.0
 21
-571.0
 31
0.0
1001
ACDBBLOCKREPETAG
1070
     1
1071
        8
1005
12618F
  0
LINE
  5
126190
  8
OBJECT
 10
2420.0
 20
-878.0
 30
0.0
 11
2580.0
 21
-878.0
 31
0.0
1001
ACDBBLOCKREPETAG
1070
     1
1071
        9
1005
126190
  0
LINE
  5
126191
  8
OBJECT
 10
2580.0
 20
-634.0
 30
0.0
 11
2425.0
 21
-634.0
 31
0.0
1001
ACDBBLOCKREPETAG
1070
     1
1071
       10
1005
126191
  0
LINE
  5
126192
  8
OBJECT
 10
2420.0
 20
-878.0
 30
0.0
 11
2420.0
 21
-890.0
 31
0.0
1001
ACDBBLOCKREPETAG
1070
     1
1071
       11
1005
126192
  0
LINE
  5
126193
  8
OBJECT
 10
2420.0
 20
-890.0
 30
0.0
 11
2580.0
 21
-890.0
 31
0.0
1001
ACDBBLOCKREPETAG
1070
     1
1071
       12
1005
126193
  0
LINE
  5
126194
  8
OBJECT
 10
2580.0
 20
-890.0
 30
0.0
 11
2580.0
 21
-878.0
 31
0.0
1001
ACDBBLOCKREPETAG
1070
     1
1071
       13
1005
126194
  0
LINE
  5
126195
  8
OBJECT
 10
2574.9999999998622
 20
-757.99999999985096
 30
0.0
 11
2575.0
 21
-878.0
 31
0.0
1001
ACDBBLOCKREPETAG
1070
     1
1071
       15
1005
126195
  0
LINE
  5
126196
  8
OBJECT
 10
2574.9999908029849
 20
-757.99998602702181
 30
0.0
 11
2580.0
 21
-757.99998602702181
 31
0.0
1001
ACDBBLOCKREPETAG
1070
     1
1071
       16
1005
126196
  0
ARC
  5
126197
  8
OBJECT
 10
2700.6872746716731
 20
-749.40809941010752
 30
0.0
 40
170.6350503965856
 50
137.44134459184301
 51
149.91949581337221
1001
ACDBBLOCKREPETAG
1070
     1
1071
       17
1005
126197
  0
ARC
  5
126198
  8
OBJECT
 10
2618.8455987040511
 20
-705.88272669536479
 30
0.0
 40
78.072222021763665
 50
147.4551531038623
 51
164.6636599771798
1001
ACDBBLOCKREPETAG
1070
     1
1071
       18
1005
126198
  0
ARC
  5
126199
  8
OBJECT
 10
2585.7554349608731
 20
-696.0
 30
0.0
 40
43.55353926885617
 50
165.6884523007466
 51
194.3115476992534
1001
ACDBBLOCKREPETAG
1070
     1
1071
       19
1005
126199
  0
ARC
  5
12619A
  8
OBJECT
 10
2700.6872746716731
 20
-642.59190058989225
 30
0.0
 40
170.6350503965856
 50
210.08050418662771
 51
222.55865540815699
1001
ACDBBLOCKREPETAG
1070
     1
1071
       20
1005
12619A
  0
ARC
  5
12619B
  8
OBJECT
 10
2618.8455987040511
 20
-686.11727330463521
 30
0.0
 40
78.072222021763665
 50
195.3363400228202
 51
212.5448468961377
1001
ACDBBLOCKREPETAG
1070
     1
1071
       21
1005
12619B
  0
POINT
  5
12619C
  8
DOTS
 10
2500.0
 20
-755.0
 30
0.0
1001
ACDBBLOCKREPETAG
1070
     1
1071
      187
1005
12619C
  0
TEXT
  5
12619D
  8
SLIM
 10
12032.5
 20
-2095.3333599999969
 30
0.0
 40
28.0
  1
※ 対応P寸法　　310＜320＞～440（10mm単位。＜＞内は下枝75の場合）
 41
0.75
  0
TEXT
  5
12619E
  8
SLIM
 10
12033.304
 20
-2142.000026666663
 30
0.0
 40
28.0
  1
※ 対応スラブ厚　150～（720-P）
 41
0.75
  0
TEXT
  5
12619F
  8
SLIM
 10
12111.5
 20
-2213.9999733333289
 30
0.0
 40
28.0
  1
国土交通大臣認定・（財）日本消防設備安全センター性能評定取得品
 41
0.75
  0
TEXT
  5
1261A0
  8
SLIM
 10
12131.1
 20
-2260.6666399999958
 30
0.0
 40
28.0
  1
注）ご採用にあたり、認定書及び評定書の内容をご確認ください。
 41
0.75
  0
TEXT
  5
1261A1
  8
SLIM
 10
10032.5
 20
-2095.3333599999969
 30
0.0
 40
28.0
  1
※ 対応P寸法　　310＜320＞～440（10mm単位。＜＞内は下枝75の場合）
 41
0.75
  0
TEXT
  5
1261A2
  8
SLIM
 10
10033.304
 20
-2142.000026666663
 30
0.0
 40
28.0
  1
※ 対応スラブ厚　180～（720-P）
 41
0.75
  0
TEXT
  5
1261A3
  8
SLIM
 10
10111.5
 20
-2213.9999733333289
 30
0.0
 40
28.0
  1
国土交通大臣認定・（財）日本消防設備安全センター性能評定取得品
 41
0.75
  0
TEXT
  5
1261A4
  8
SLIM
 10
10131.1
 20
-2260.6666399999958
 30
0.0
 40
28.0
  1
注）ご採用にあたり、認定書及び評定書の内容をご確認ください。
 41
0.75
  0
TEXT
  5
1261A5
  8
SLIM
 10
6026.9000000000005
 20
-2136.3333600000001
 30
0.0
 40
28.0
  1
 ※ 対応P寸法　　310＜320＞～460（10mm単位。＜＞内は下枝75の場合）
 41
0.75
  0
TEXT
  5
1261A6
  8
SLIM
 10
6035.8040000000001
 20
-2183.0000266666661
 30
0.0
 40
28.0
  1
※ 対応スラブ厚　150mm以上
 41
0.75
  0
TEXT
  5
1261A7
  8
SLIM
 10
6111.5
 20
-2254.9999733333329
 30
0.0
 40
28.0
  1
国土交通大臣認定・（財）日本消防設備安全センター性能評定取得品
 41
0.75
  0
TEXT
  5
1261A8
  8
SLIM
 10
6131.1000000000004
 20
-2301.666639999999
 30
0.0
 40
28.0
  1
注）ご採用にあたり、認定書及び評定書の内容をご確認ください。
 41
0.75
  0
TEXT
  5
1261A9
  8
SLIM
 10
4032.5
 20
-2102.9999999999968
 30
0.0
 40
28.0
  1
※ 対応P寸法　　310＜320＞～460（10mm単位。＜＞内は下枝75の場合）
 41
0.75
  0
TEXT
  5
1261AA
  8
SLIM
 10
2032.5
 20
-1828.999999999998
 30
0.0
 40
28.0
  1
※ 対応P寸法　　310＜320＞～460（10mm単位。＜＞内は下枝75の場合）
 41
0.75
  0
TEXT
  5
1261AB
  8
SLIM
 10
8178.4999999999973
 20
-1823.000026666665
 30
0.0
 40
28.0
  1
※ 対応P寸法　　310＜320＞～440（10mm単位）
 41
0.75
  0
TEXT
  5
1261AC
  8
SLIM
 10
8176.0998000000018
 20
-1869.666693333332
 30
0.0
 40
28.0
  1
※ 対応スラブ厚　180｛150｝～（680-P）
 41
0.75
  0
TEXT
  5
1261AD
  8
SLIM
 10
8211.8999999999978
 20
-1916.3333599999989
 30
0.0
 40
28.0
  1
＜＞内は下枝75、｛｝内はカンペイ立て管との組み合わせの場合
 41
0.75
  0
TEXT
  5
1261AE
  8
SLIM
 10
8111.4999999999973
 20
-1988.3333066666651
 30
0.0
 40
28.0
  1
国土交通大臣認定・（財）日本消防設備安全センター性能評定取得品
 41
0.75
  0
TEXT
  5
1261AF
  8
SLIM
 10
8131.1000000000013
 20
-2034.9999733333329
 30
0.0
 40
28.0
  1
注）ご採用にあたり、認定書及び評定書の内容をご確認ください。
 41
0.75
  0
TEXT
  5
1261B0
  8
SLIM
 10
4353.75
 20
-2026.4999999999959
 30
0.0
 40
35.0
  1
両受けスタイル（W）
 41
0.75
  0
TEXT
  5
1261B1
  8
SLIM
 10
10239.125
 20
-2026.4999999999959
 30
0.0
 40
35.0
  1
両受けスタイル（W）＋シンドカット
 41
0.75
  0
TEXT
  5
1261B2
  8
SLIM
 10
12243.5
 20
-2026.4999999999959
 30
0.0
 40
35.0
  1
カンペイ君（WKP）＋シンドカット
 41
0.75
  0
TEXT
  5
1261B3
  8
SLIM
 10
8241.625
 20
-1752.499999999998
 30
0.0
 40
35.0
  1
片受けスタイル（S）＋シンドカット
 41
0.75
  0
TEXT
  5
1261B4
  8
SLIM
 10
6358.1250000000009
 20
-2067.5
 30
0.0
 40
35.0
  1
カンペイ君（WKP）
 41
0.75
  0
TEXT
  5
1261B5
  8
SLIM
 10
2356.25
 20
-1752.499999999998
 30
0.0
 40
35.0
  1
片受けスタイル（S）
 41
0.75
  0
LINE
  5
1261B6
  8
OBJECT
 10
242.00000000000699
 20
-1556.999999999998
 30
0.0
 11
242.00000000000699
 21
-1563.999999999998
 31
0.0
1001
ACDBBLOCKREPETAG
1070
     1
1071
       34
1005
1261B6
  0
LINE
  5
1261B7
  8
OBJECT
 10
242.00000000000699
 20
-1563.999999999998
 30
0.0
 11
118.00000000000701
 21
-1563.999999999998
 31
0.0
1001
ACDBBLOCKREPETAG
1070
     1
1071
       35
1005
1261B7
  0
LINE
  5
1261B8
  8
OBJECT
 10
118.00000000000701
 20
-1563.999999999998
 30
0.0
 11
118.00000000000701
 21
-1556.999999999998
 31
0.0
1001
ACDBBLOCKREPETAG
1070
     1
1071
       36
1005
1261B8
  0
LINE
  5
1261B9
  8
OBJECT
 10
118.00000000000701
 20
-1556.999999999998
 30
0.0
 11
242.00000000000699
 21
-1556.999999999998
 31
0.0
1001
ACDBBLOCKREPETAG
1070
     1
1071
       37
1005
1261B9
  0
LINE
  5
1261BA
  8
OBJECT
 10
239.00000000000711
 20
-1556.999999999998
 30
0.0
 11
239.00000000000711
 21
-1520.999999999998
 31
0.0
1001
ACDBBLOCKREPETAG
1070
     1
1071
       38
1005
1261BA
  0
LINE
  5
1261BB
  8
OBJECT
 10
239.00000000000711
 20
-1520.999999999998
 30
0.0
 11
121.00000000000701
 21
-1520.999999999998
 31
0.0
1001
ACDBBLOCKREPETAG
1070
     1
1071
       39
1005
1261BB
  0
LINE
  5
1261BC
  8
OBJECT
 10
121.00000000000701
 20
-1520.999999999998
 30
0.0
 11
121.00000000000701
 21
-1556.999999999998
 31
0.0
1001
ACDBBLOCKREPETAG
1070
     1
1071
       40
1005
1261BC
  0
LINE
  5
1261BD
  8
OBJECT
 10
234.50000000000699
 20
-1516.999999999998
 30
0.0
 11
234.50000000000699
 21
-1506.499999999998
 31
0.0
1001
ACDBBLOCKREPETAG
1070
     1
1071
       41
1005
1261BD
  0
LINE
  5
1261BE
  8
OBJECT
 10
125.50000000000701
 20
-1506.499999999998
 30
0.0
 11
125.50000000000701
 21
-1516.999999999998
 31
0.0
1001
ACDBBLOCKREPETAG
1070
     1
1071
       42
1005
1261BE
  0
LINE
  5
1261BF
  8
OBJECT
 10
125.50000000000701
 20
-1516.999999999998
 30
0.0
 11
234.50000000000699
 21
-1516.999999999998
 31
0.0
1001
ACDBBLOCKREPETAG
1070
     1
1071
       43
1005
1261BF
  0
LINE
  5
1261C0
  8
OBJECT
 10
239.00000000000711
 20
-1520.999999999998
 30
0.0
 11
234.50000000000699
 21
-1516.999999999998
 31
0.0
1001
ACDBBLOCKREPETAG
1070
     1
1071
       44
1005
1261C0
  0
LINE
  5
1261C1
  8
OBJECT
 10
121.00000000000701
 20
-1520.999999999998
 30
0.0
 11
125.50000000000701
 21
-1516.999999999998
 31
0.0
1001
ACDBBLOCKREPETAG
1070
     1
1071
       45
1005
1261C1
  0
LINE
  5
1261C2
  8
OBJECT
 10
229.50000000000699
 20
-1501.499999999998
 30
0.0
 11
229.5000000000062
 21
-1480.344919912977
 31
0.0
1001
ACDBBLOCKREPETAG
1070
     1
1071
       46
1005
1261C2
  0
LINE
  5
1261C3
  8
OBJECT
 10
130.50000000000699
 20
-1501.499999999998
 30
0.0
 11
130.50000000000699
 21
-1480.3449199129759
 31
0.0
1001
ACDBBLOCKREPETAG
1070
     1
1071
       47
1005
1261C3
  0
LINE
  5
1261C4
  8
OBJECT
 10
234.50000000000699
 20
-1506.499999999998
 30
0.0
 11
125.50000000000701
 21
-1506.499999999998
 31
0.0
1001
ACDBBLOCKREPETAG
1070
     1
1071
       48
1005
1261C4
  0
LINE
  5
1261C5
  8
OBJECT
 10
229.50000000000699
 20
-1501.499999999998
 30
0.0
 11
130.50000000000699
 21
-1501.499999999998
 31
0.0
1001
ACDBBLOCKREPETAG
1070
     1
1071
       49
1005
1261C5
  0
LINE
  5
1261C6
  8
OBJECT
 10
234.50000000000699
 20
-1506.499999999998
 30
0.0
 11
229.50000000000699
 21
-1501.499999999998
 31
0.0
1001
ACDBBLOCKREPETAG
1070
     1
1071
       50
1005
1261C6
  0
LINE
  5
1261C7
  8
OBJECT
 10
130.50000000000699
 20
-1501.499999999998
 30
0.0
 11
125.5000000000107
 21
-1506.499999999998
 31
0.0
1001
ACDBBLOCKREPETAG
1070
     1
1071
       51
1005
1261C7
  0
INSERT
  5
1261C8
  8
OBJECT
  2
*U33
 10
0.0
 20
0.0
 30
0.0
  0
LINE
  5
1261C9
  8
HIDDEN
 10
224.50000000000719
 20
-1511.999999999998
 30
0.0
 11
135.50000000000699
 21
-1511.999999999998
 31
0.0
1001
ACDBBLOCKREPETAG
1070
     1
1071
       65
1005
1261C9
  0
ARC
  5
1261CA
  8
OBJECT
 10
180.00000000000699
 20
-1423.999999999998
 30
0.0
 40
50.0
 50
28.819942999992119
 51
243.78043883604639
1001
ACDBBLOCKREPETAG
1070
     1
1071
       49
1005
0
  0
ARC
  5
1261CB
  8
OBJECT
 10
180.00000000000699
 20
-1423.999999999998
 30
0.0
 40
50.0
 50
296.21956116400747
 51
318.52376955954998
1001
ACDBBLOCKREPETAG
1070
     1
1071
       49
1005
0
  0
CIRCLE
  5
1261CC
  8
OBJECT
 10
180.00000000000699
 20
-1423.999999999998
 30
0.0
 40
70.0
1001
ACDBBLOCKREPETAG
1070
     1
1071
       50
1005
1261CC
  0
CIRCLE
  5
1261CD
  8
OBJECT
 10
180.00000000000699
 20
-1423.999999999998
 30
0.0
 40
75.0
1001
ACDBBLOCKREPETAG
1070
     1
1071
       51
1005
1261CD
  0
POINT
  5
1261CE
  8
DOTS
 10
180.00000000000699
 20
-1423.999999999998
 30
0.0
1001
ACDBBLOCKREPETAG
1070
     1
1071
       63
1005
1261CE
  0
LINE
  5
1261CF
  8
OBJECT
 10
223.80694712372471
 20
-1399.8970669066971
 30
0.0
 11
212.5546220000067
 21
-1403.3403430000019
 31
0.0
1001
ACDBBLOCKREPETAG
1070
     1
1071
      141
1005
1261CF
  0
LINE
  5
1261D0
  8
OBJECT
 10
198.2255337420863
 20
-1437.207250098623
 30
0.0
 11
212.55462200000309
 21
-1403.3403430000019
 31
0.0
1001
ACDBBLOCKREPETAG
1070
     1
1071
      143
1005
1261D0
  0
ARC
  5
1261D1
  8
OBJECT
 10
207.4351299990665
 20
-1441.1038302380971
 30
0.0
 40
10.0
 50
157.0667782929232
 51
244.01473437026289
1001
ACDBBLOCKREPETAG
1070
     1
1071
      144
1005
1261D1
  0
ARC
  5
1261D2
  8
OBJECT
 10
205.5538625672996
 20
-1437.8511609618711
 30
0.0
 40
7.0
 50
157.0667782929232
 51
244.01473377502219
1001
ACDBBLOCKREPETAG
1070
     1
1071
      145
1005
1261D2
  0
LINE
  5
1261D3
  8
OBJECT
 10
238.86769720860929
 20
-1461.8760376142509
 30
0.0
 11
202.48688253357591
 21
-1444.1435081767611
 31
0.0
1001
ACDBBLOCKREPETAG
1070
     1
1071
      154
1005
1261D3
  0
LINE
  5
1261D4
  8
OBJECT
 10
235.9167324445099
 20
-1466.110794729258
 30
0.0
 11
203.05373004431729
 21
-1450.09289773349
 31
0.0
1001
ACDBBLOCKREPETAG
1070
     1
1071
      155
1005
1261D4
  0
ARC
  5
1261D5
  8
OBJECT
 10
184.7576058985783
 20
-1450.2737555139529
 30
0.0
 40
63.739013211305632
 50
8.1694378253172513
 51
52.219052524698952
1001
ACDBBLOCKREPETAG
1070
     1
1071
      156
1005
1261D5
  0
LINE
  5
1261D6
  8
OBJECT
 10
156.17579607525809
 20
-1469.677961444753
 30
0.0
 11
148.18761767300541
 21
-1475.577458443546
 31
0.0
  0
ARC
  5
1261D7
  8
OBJECT
 10
159.1461853586421
 20
-1473.699999175202
 30
0.0
 40
5.0
 50
90.0
 51
126.4469224760731
  0
LINE
  5
1261D8
  8
OBJECT
 10
203.8242039247032
 20
-1469.6779614446259
 30
0.0
 11
211.8124539801008
 21
-1475.577511360776
 31
0.0
  0
ARC
  5
1261D9
  8
OBJECT
 10
200.85381464149009
 20
-1473.699999175202
 30
0.0
 40
5.0
 50
53.553077526274542
 51
90.0
  0
LINE
  5
1261DA
  8
OBJECT
 10
200.85381464149009
 20
-1468.699999175202
 30
0.0
 11
159.1461853586421
 21
-1468.699999175202
 31
0.0
  0
ARC
  5
1261DB
  8
OBJECT
 10
207.0598311269602
 20
-1482.012771729698
 30
0.0
 40
8.0
 50
16.476216247958561
 51
53.553077526274542
  0
ARC
  5
1261DC
  8
OBJECT
 10
152.94016887305199
 20
-1482.012771729698
 30
0.0
 40
8.0
 50
126.44692247372539
 51
163.5237837520414
  0
LINE
  5
1261DD
  8
OBJECT
 10
145.26866848598161
 20
-1479.743833252975
 30
0.0
 11
144.00000000000699
 21
-1484.0333240792149
 31
0.0
  0
LINE
  5
1261DE
  8
OBJECT
 10
214.73133151403249
 20
-1479.743833252975
 30
0.0
 11
216.00000000000711
 21
-1484.0333240792149
 31
0.0
  0
LINE
  5
1261DF
  8
OBJECT
 10
595.00000000000705
 20
-1092.999999999998
 30
0.0
 11
595.00000000000705
 21
-1099.999999999998
 31
0.0
1001
ACDBBLOCKREPETAG
1070
     1
1071
       18
1005
1261DF
  0
LINE
  5
1261E0
  8
OBJECT
 10
595.00000000000705
 20
-1099.999999999998
 30
0.0
 11
485.00000000000688
 21
-1099.999999999998
 31
0.0
1001
ACDBBLOCKREPETAG
1070
     1
1071
       19
1005
1261E0
  0
LINE
  5
1261E1
  8
OBJECT
 10
485.00000000000688
 20
-1099.999999999998
 30
0.0
 11
485.00000000000688
 21
-1092.999999999998
 31
0.0
1001
ACDBBLOCKREPETAG
1070
     1
1071
       20
1005
1261E1
  0
LINE
  5
1261E2
  8
OBJECT
 10
485.00000000000688
 20
-1092.999999999998
 30
0.0
 11
595.00000000000705
 21
-1092.999999999998
 31
0.0
1001
ACDBBLOCKREPETAG
1070
     1
1071
       21
1005
1261E2
  0
LINE
  5
1261E3
  8
OBJECT
 10
592.00000000000705
 20
-1092.999999999998
 30
0.0
 11
592.00000000000705
 21
-1056.999999999998
 31
0.0
1001
ACDBBLOCKREPETAG
1070
     1
1071
       22
1005
1261E3
  0
LINE
  5
1261E4
  8
OBJECT
 10
592.00000000000705
 20
-1056.999999999998
 30
0.0
 11
488.00000000000688
 21
-1056.999999999998
 31
0.0
1001
ACDBBLOCKREPETAG
1070
     1
1071
       23
1005
1261E4
  0
LINE
  5
1261E5
  8
OBJECT
 10
488.00000000000688
 20
-1056.999999999998
 30
0.0
 11
488.00000000000688
 21
-1092.999999999998
 31
0.0
1001
ACDBBLOCKREPETAG
1070
     1
1071
       24
1005
1261E5
  0
LINE
  5
1261E6
  8
OBJECT
 10
587.50000000000705
 20
-1052.999999999998
 30
0.0
 11
587.50000000000705
 21
-1044.499999999998
 31
0.0
1001
ACDBBLOCKREPETAG
1070
     1
1071
       25
1005
1261E6
  0
LINE
  5
1261E7
  8
OBJECT
 10
492.50000000000688
 20
-1044.499999999997
 30
0.0
 11
492.50000000000688
 21
-1052.999999999998
 31
0.0
1001
ACDBBLOCKREPETAG
1070
     1
1071
       26
1005
1261E7
  0
LINE
  5
1261E8
  8
OBJECT
 10
492.50000000000688
 20
-1052.999999999998
 30
0.0
 11
587.50000000000705
 21
-1052.999999999998
 31
0.0
1001
ACDBBLOCKREPETAG
1070
     1
1071
       27
1005
1261E8
  0
LINE
  5
1261E9
  8
OBJECT
 10
592.00000000000705
 20
-1056.999999999998
 30
0.0
 11
587.50000000000705
 21
-1052.999999999998
 31
0.0
1001
ACDBBLOCKREPETAG
1070
     1
1071
       28
1005
1261E9
  0
LINE
  5
1261EA
  8
OBJECT
 10
488.00000000000688
 20
-1056.999999999998
 30
0.0
 11
492.50000000000688
 21
-1052.999999999998
 31
0.0
1001
ACDBBLOCKREPETAG
1070
     1
1071
       29
1005
1261EA
  0
LINE
  5
1261EB
  8
OBJECT
 10
490.50000000000688
 20
-1044.499999999997
 30
0.0
 11
589.50000000000705
 21
-1044.499999999998
 31
0.0
1001
ACDBBLOCKREPETAG
1070
     1
1071
       30
1005
1261EB
  0
LINE
  5
1261EC
  8
OBJECT
 10
589.50000000000705
 20
-1044.499999999998
 30
0.0
 11
589.50000000000614
 21
-1016.344919912977
 31
0.0
1001
ACDBBLOCKREPETAG
1070
     1
1071
       31
1005
1261EC
  0
LINE
  5
1261ED
  8
OBJECT
 10
490.50000000000688
 20
-1044.499999999997
 30
0.0
 11
490.50000000000603
 21
-1016.344919912976
 31
0.0
1001
ACDBBLOCKREPETAG
1070
     1
1071
       32
1005
1261ED
  0
INSERT
  5
1261EE
  8
OBJECT
  2
*U34
 10
0.0
 20
0.0
 30
0.0
  0
LINE
  5
1261EF
  8
HIDDEN
 10
578.00000000000705
 20
-1047.999999999998
 30
0.0
 11
502.00000000000688
 21
-1047.999999999998
 31
0.0
1001
ACDBBLOCKREPETAG
1070
     1
1071
       57
1005
1261EF
  0
ARC
  5
1261F0
  8
OBJECT
 10
540.00000000000705
 20
-959.99999999999807
 30
0.0
 40
50.0
 50
28.819942999997039
 51
243.78043883604781
1001
ACDBBLOCKREPETAG
1070
     1
1071
       49
1005
0
  0
ARC
  5
1261F1
  8
OBJECT
 10
540.00000000000705
 20
-959.99999999999807
 30
0.0
 40
50.0
 50
296.21956116400168
 51
318.52376955954622
1001
ACDBBLOCKREPETAG
1070
     1
1071
       49
1005
0
  0
CIRCLE
  5
1261F2
  8
OBJECT
 10
540.00000000000705
 20
-959.99999999999807
 30
0.0
 40
70.0
1001
ACDBBLOCKREPETAG
1070
     1
1071
       50
1005
1261F2
  0
CIRCLE
  5
1261F3
  8
OBJECT
 10
540.00000000000705
 20
-959.99999999999807
 30
0.0
 40
75.0
1001
ACDBBLOCKREPETAG
1070
     1
1071
       51
1005
1261F3
  0
POINT
  5
1261F4
  8
DOTS
 10
540.00000000000705
 20
-959.99999999999807
 30
0.0
1001
ACDBBLOCKREPETAG
1070
     1
1071
       63
1005
1261F4
  0
LINE
  5
1261F5
  8
OBJECT
 10
583.80694712372474
 20
-935.89706690669664
 30
0.0
 11
572.5546220000067
 21
-939.34034300000167
 31
0.0
1001
ACDBBLOCKREPETAG
1070
     1
1071
      141
1005
1261F5
  0
LINE
  5
1261F6
  8
OBJECT
 10
558.22553374208633
 20
-973.20725009862315
 30
0.0
 11
572.55462200000306
 21
-939.34034300000167
 31
0.0
1001
ACDBBLOCKREPETAG
1070
     1
1071
      143
1005
1261F6
  0
ARC
  5
1261F7
  8
OBJECT
 10
567.43512999906636
 20
-977.10383023809675
 30
0.0
 40
10.0
 50
157.06677829292209
 51
244.01473437026289
1001
ACDBBLOCKREPETAG
1070
     1
1071
      144
1005
1261F7
  0
ARC
  5
1261F8
  8
OBJECT
 10
565.55386256729957
 20
-973.85116096187085
 30
0.0
 40
7.0
 50
157.06677829292209
 51
244.0147337750206
1001
ACDBBLOCKREPETAG
1070
     1
1071
      145
1005
1261F8
  0
LINE
  5
1261F9
  8
OBJECT
 10
598.86769720860923
 20
-997.87603761425123
 30
0.0
 11
562.48688253357591
 21
-980.1435081767612
 31
0.0
1001
ACDBBLOCKREPETAG
1070
     1
1071
      154
1005
1261F9
  0
LINE
  5
1261FA
  8
OBJECT
 10
595.91673244450988
 20
-1002.110794729258
 30
0.0
 11
563.05373004431715
 21
-986.09289773348962
 31
0.0
1001
ACDBBLOCKREPETAG
1070
     1
1071
      155
1005
1261FA
  0
ARC
  5
1261FB
  8
OBJECT
 10
544.75760589857839
 20
-986.27375551395312
 30
0.0
 40
63.739013211305632
 50
8.1694378253174822
 51
52.21905252470151
1001
ACDBBLOCKREPETAG
1070
     1
1071
      156
1005
1261FB
  0
LINE
  5
1261FC
  8
OBJECT
 10
516.17579607525818
 20
-1005.677961444753
 30
0.0
 11
508.18761767300532
 21
-1011.577458443546
 31
0.0
  0
ARC
  5
1261FD
  8
OBJECT
 10
519.14618535864224
 20
-1009.699999175202
 30
0.0
 40
5.0
 50
90.0
 51
126.4469224760718
  0
LINE
  5
1261FE
  8
OBJECT
 10
563.82420392470306
 20
-1005.677961444626
 30
0.0
 11
571.81245398010083
 21
-1011.577511360776
 31
0.0
  0
ARC
  5
1261FF
  8
OBJECT
 10
560.85381464148998
 20
-1009.699999175202
 30
0.0
 40
5.0
 50
53.55307752627585
 51
90.0
  0
LINE
  5
126200
  8
OBJECT
 10
560.85381464148998
 20
-1004.699999175202
 30
0.0
 11
519.14618535864224
 21
-1004.699999175202
 31
0.0
  0
ARC
  5
126201
  8
OBJECT
 10
567.05983112696026
 20
-1018.012771729698
 30
0.0
 40
8.0
 50
16.476216247958561
 51
53.55307752627585
  0
ARC
  5
126202
  8
OBJECT
 10
512.94016887305202
 20
-1018.012771729698
 30
0.0
 40
8.0
 50
126.4469224737241
 51
163.5237837520414
  0
LINE
  5
126203
  8
OBJECT
 10
505.26866848598161
 20
-1015.743833252974
 30
0.0
 11
504.00000000000688
 21
-1020.033324079215
 31
0.0
  0
LINE
  5
126204
  8
OBJECT
 10
574.73133151403226
 20
-1015.743833252974
 30
0.0
 11
576.00000000000705
 21
-1020.033324079215
 31
0.0
  0
LINE
  5
126205
  8
OBJECT
 10
227.00000000000711
 20
-1092.999999999998
 30
0.0
 11
227.00000000000711
 21
-1099.999999999998
 31
0.0
1001
ACDBBLOCKREPETAG
1070
     1
1071
        0
1005
126205
  0
LINE
  5
126206
  8
OBJECT
 10
227.00000000000711
 20
-1099.999999999998
 30
0.0
 11
133.00000000000699
 21
-1099.999999999998
 31
0.0
1001
ACDBBLOCKREPETAG
1070
     1
1071
        1
1005
126206
  0
LINE
  5
126207
  8
OBJECT
 10
133.00000000000699
 20
-1099.999999999998
 30
0.0
 11
133.00000000000699
 21
-1092.999999999998
 31
0.0
1001
ACDBBLOCKREPETAG
1070
     1
1071
        2
1005
126207
  0
LINE
  5
126208
  8
OBJECT
 10
133.00000000000699
 20
-1092.999999999998
 30
0.0
 11
227.00000000000711
 21
-1092.999999999998
 31
0.0
1001
ACDBBLOCKREPETAG
1070
     1
1071
        3
1005
126208
  0
LINE
  5
126209
  8
OBJECT
 10
224.00000000000699
 20
-1092.999999999998
 30
0.0
 11
224.00000000000699
 21
-1056.999999999998
 31
0.0
1001
ACDBBLOCKREPETAG
1070
     1
1071
        4
1005
126209
  0
LINE
  5
12620A
  8
OBJECT
 10
224.00000000000699
 20
-1056.999999999998
 30
0.0
 11
136.00000000000699
 21
-1056.999999999998
 31
0.0
1001
ACDBBLOCKREPETAG
1070
     1
1071
        5
1005
12620A
  0
LINE
  5
12620B
  8
OBJECT
 10
136.00000000000699
 20
-1056.999999999998
 30
0.0
 11
136.00000000000699
 21
-1092.999999999998
 31
0.0
1001
ACDBBLOCKREPETAG
1070
     1
1071
        6
1005
12620B
  0
LINE
  5
12620C
  8
OBJECT
 10
219.50000000000699
 20
-1052.999999999998
 30
0.0
 11
219.50000000000699
 21
-1044.499999999998
 31
0.0
1001
ACDBBLOCKREPETAG
1070
     1
1071
        7
1005
12620C
  0
LINE
  5
12620D
  8
OBJECT
 10
140.50000000000699
 20
-1044.499999999997
 30
0.0
 11
140.50000000000699
 21
-1052.999999999998
 31
0.0
1001
ACDBBLOCKREPETAG
1070
     1
1071
        8
1005
12620D
  0
LINE
  5
12620E
  8
OBJECT
 10
140.50000000000699
 20
-1052.999999999998
 30
0.0
 11
219.50000000000699
 21
-1052.999999999998
 31
0.0
1001
ACDBBLOCKREPETAG
1070
     1
1071
        9
1005
12620E
  0
LINE
  5
12620F
  8
OBJECT
 10
224.00000000000699
 20
-1056.999999999998
 30
0.0
 11
219.50000000000699
 21
-1052.999999999998
 31
0.0
1001
ACDBBLOCKREPETAG
1070
     1
1071
       10
1005
12620F
  0
LINE
  5
126210
  8
OBJECT
 10
136.00000000000699
 20
-1056.999999999998
 30
0.0
 11
140.50000000000699
 21
-1052.999999999998
 31
0.0
1001
ACDBBLOCKREPETAG
1070
     1
1071
       11
1005
126210
  0
LINE
  5
126211
  8
OBJECT
 10
133.50000000000699
 20
-1044.499999999997
 30
0.0
 11
226.50000000000711
 21
-1044.499999999998
 31
0.0
1001
ACDBBLOCKREPETAG
1070
     1
1071
       12
1005
126211
  0
ARC
  5
126212
  8
OBJECT
 10
226.50000000000711
 20
-1041.499999999998
 30
0.0
 40
3.0
 50
270.0
 51
0.0
1001
ACDBBLOCKREPETAG
1070
     1
1071
       13
1005
126212
  0
LINE
  5
126213
  8
OBJECT
 10
229.50000000000699
 20
-1041.499999999998
 30
0.0
 11
229.5000000000079
 21
-1016.344919912977
 31
0.0
1001
ACDBBLOCKREPETAG
1070
     1
1071
       15
1005
126213
  0
LINE
  5
126214
  8
OBJECT
 10
130.50000000000699
 20
-1041.499999999997
 30
0.0
 11
130.5000000000079
 21
-1016.344919912977
 31
0.0
1001
ACDBBLOCKREPETAG
1070
     1
1071
       16
1005
126214
  0
ARC
  5
126215
  8
OBJECT
 10
133.50000000000699
 20
-1041.499999999997
 30
0.0
 40
3.0
 50
180.0
 51
270.0
1001
ACDBBLOCKREPETAG
1070
     1
1071
       17
1005
126215
  0
INSERT
  5
126216
  8
OBJECT
  2
*U35
 10
0.0
 20
0.0
 30
0.0
  0
LINE
  5
126217
  8
HIDDEN
 10
210.00000000000719
 20
-1047.999999999998
 30
0.0
 11
150.00000000000699
 21
-1047.999999999998
 31
0.0
1001
ACDBBLOCKREPETAG
1070
     1
1071
       56
1005
126217
  0
ARC
  5
126218
  8
OBJECT
 10
180.00000000000699
 20
-959.99999999999807
 30
0.0
 40
50.0
 50
28.819942999997821
 51
243.78043883604639
1001
ACDBBLOCKREPETAG
1070
     1
1071
       49
1005
0
  0
ARC
  5
126219
  8
OBJECT
 10
180.00000000000699
 20
-959.99999999999807
 30
0.0
 40
50.0
 50
296.21956116400457
 51
318.52376955954509
1001
ACDBBLOCKREPETAG
1070
     1
1071
       49
1005
0
  0
CIRCLE
  5
12621A
  8
OBJECT
 10
180.00000000000699
 20
-959.99999999999807
 30
0.0
 40
70.0
1001
ACDBBLOCKREPETAG
1070
     1
1071
       50
1005
12621A
  0
CIRCLE
  5
12621B
  8
OBJECT
 10
180.00000000000699
 20
-959.99999999999807
 30
0.0
 40
75.0
1001
ACDBBLOCKREPETAG
1070
     1
1071
       51
1005
12621B
  0
POINT
  5
12621C
  8
DOTS
 10
180.00000000000699
 20
-959.99999999999807
 30
0.0
1001
ACDBBLOCKREPETAG
1070
     1
1071
       63
1005
12621C
  0
LINE
  5
12621D
  8
OBJECT
 10
223.80694712372471
 20
-935.89706690669664
 30
0.0
 11
212.5546220000067
 21
-939.34034300000167
 31
0.0
1001
ACDBBLOCKREPETAG
1070
     1
1071
      141
1005
12621D
  0
LINE
  5
12621E
  8
OBJECT
 10
198.2255337420863
 20
-973.20725009862315
 30
0.0
 11
212.55462200000309
 21
-939.34034300000167
 31
0.0
1001
ACDBBLOCKREPETAG
1070
     1
1071
      143
1005
12621E
  0
ARC
  5
12621F
  8
OBJECT
 10
207.4351299990665
 20
-977.10383023809675
 30
0.0
 40
10.0
 50
157.0667782929232
 51
244.01473437026289
1001
ACDBBLOCKREPETAG
1070
     1
1071
      144
1005
12621F
  0
ARC
  5
126220
  8
OBJECT
 10
205.5538625672996
 20
-973.85116096187085
 30
0.0
 40
7.0
 50
157.0667782929232
 51
244.01473377502219
1001
ACDBBLOCKREPETAG
1070
     1
1071
      145
1005
126220
  0
LINE
  5
126221
  8
OBJECT
 10
238.86769720860929
 20
-997.87603761425123
 30
0.0
 11
202.48688253357591
 21
-980.1435081767612
 31
0.0
1001
ACDBBLOCKREPETAG
1070
     1
1071
      154
1005
126221
  0
LINE
  5
126222
  8
OBJECT
 10
235.9167324445099
 20
-1002.110794729258
 30
0.0
 11
203.05373004431729
 21
-986.09289773348962
 31
0.0
1001
ACDBBLOCKREPETAG
1070
     1
1071
      155
1005
126222
  0
ARC
  5
126223
  8
OBJECT
 10
184.7576058985783
 20
-986.27375551395312
 30
0.0
 40
63.739013211305632
 50
8.1694378253172513
 51
52.219052524698952
1001
ACDBBLOCKREPETAG
1070
     1
1071
      156
1005
126223
  0
LINE
  5
126224
  8
OBJECT
 10
156.17579607525809
 20
-1005.677961444753
 30
0.0
 11
148.18761767300541
 21
-1011.577458443546
 31
0.0
  0
ARC
  5
126225
  8
OBJECT
 10
159.1461853586421
 20
-1009.699999175202
 30
0.0
 40
5.0
 50
90.0
 51
126.4469224760731
  0
LINE
  5
126226
  8
OBJECT
 10
203.8242039247032
 20
-1005.677961444626
 30
0.0
 11
211.8124539801008
 21
-1011.577511360776
 31
0.0
  0
ARC
  5
126227
  8
OBJECT
 10
200.85381464149009
 20
-1009.699999175202
 30
0.0
 40
5.0
 50
53.553077526274542
 51
90.0
  0
LINE
  5
126228
  8
OBJECT
 10
200.85381464149009
 20
-1004.699999175202
 30
0.0
 11
159.1461853586421
 21
-1004.699999175202
 31
0.0
  0
ARC
  5
126229
  8
OBJECT
 10
207.0598311269602
 20
-1018.012771729698
 30
0.0
 40
8.0
 50
16.476216247958561
 51
53.553077526274542
  0
ARC
  5
12622A
  8
OBJECT
 10
152.94016887305199
 20
-1018.012771729698
 30
0.0
 40
8.0
 50
126.44692247372539
 51
163.5237837520414
  0
LINE
  5
12622B
  8
OBJECT
 10
145.26866848598161
 20
-1015.743833252974
 30
0.0
 11
144.00000000000699
 21
-1020.033324079215
 31
0.0
  0
LINE
  5
12622C
  8
OBJECT
 10
214.73133151403249
 20
-1015.743833252974
 30
0.0
 11
216.00000000000711
 21
-1020.033324079215
 31
0.0
  0
LINE
  5
12622D
  8
OBJECT
 10
6633.0
 20
-137.99999999999801
 30
0.0
 11
6639.9999999999991
 21
-137.99999999999801
 31
0.0
1001
ACDBBLOCKREPETAG
1070
     1
1071
       47
1005
12622D
  0
LINE
  5
12622E
  8
OBJECT
 10
6639.9999999999991
 20
-137.99999999999801
 30
0.0
 11
6639.9999999999991
 21
-261.99999999999801
 31
0.0
1001
ACDBBLOCKREPETAG
1070
     1
1071
       48
1005
12622E
  0
LINE
  5
12622F
  8
OBJECT
 10
6639.9999999999991
 20
-261.99999999999801
 30
0.0
 11
6633.0
 21
-261.99999999999801
 31
0.0
1001
ACDBBLOCKREPETAG
1070
     1
1071
       49
1005
12622F
  0
LINE
  5
126230
  8
OBJECT
 10
6633.0
 20
-261.99999999999801
 30
0.0
 11
6633.0
 21
-137.99999999999801
 31
0.0
1001
ACDBBLOCKREPETAG
1070
     1
1071
       50
1005
126230
  0
LINE
  5
126231
  8
CENTER
 10
6655.0
 20
-199.99999999999801
 30
0.0
 11
6580.0
 21
-199.99999999999801
 31
0.0
1001
ACDBBLOCKREPETAG
1070
     1
1071
       51
1005
126231
  0
LINE
  5
126232
  8
OBJECT
 10
6633.0
 20
-140.99999999999801
 30
0.0
 11
6597.0
 21
-140.99999999999801
 31
0.0
1001
ACDBBLOCKREPETAG
1070
     1
1071
       52
1005
126232
  0
LINE
  5
126233
  8
OBJECT
 10
6597.0
 20
-140.99999999999801
 30
0.0
 11
6597.0
 21
-258.99999999999801
 31
0.0
1001
ACDBBLOCKREPETAG
1070
     1
1071
       53
1005
126233
  0
LINE
  5
126234
  8
OBJECT
 10
6597.0
 20
-258.99999999999801
 30
0.0
 11
6633.0
 21
-258.99999999999801
 31
0.0
1001
ACDBBLOCKREPETAG
1070
     1
1071
       54
1005
126234
  0
LINE
  5
126235
  8
OBJECT
 10
6592.9999999999991
 20
-145.49999999999801
 30
0.0
 11
6585.9999999999973
 21
-145.49999999999801
 31
0.0
1001
ACDBBLOCKREPETAG
1070
     1
1071
       55
1005
126235
  0
LINE
  5
126236
  8
OBJECT
 10
6585.9999999999973
 20
-254.49999999999801
 30
0.0
 11
6592.9999999999991
 21
-254.49999999999801
 31
0.0
1001
ACDBBLOCKREPETAG
1070
     1
1071
       56
1005
126236
  0
LINE
  5
126237
  8
OBJECT
 10
6592.9999999999991
 20
-254.49999999999801
 30
0.0
 11
6592.9999999999991
 21
-145.49999999999801
 31
0.0
1001
ACDBBLOCKREPETAG
1070
     1
1071
       57
1005
126237
  0
LINE
  5
126238
  8
OBJECT
 10
6597.0
 20
-140.99999999999801
 30
0.0
 11
6592.9999999999991
 21
-145.49999999999801
 31
0.0
1001
ACDBBLOCKREPETAG
1070
     1
1071
       58
1005
126238
  0
LINE
  5
126239
  8
OBJECT
 10
6597.0
 20
-258.99999999999801
 30
0.0
 11
6592.9999999999991
 21
-254.49999999999801
 31
0.0
1001
ACDBBLOCKREPETAG
1070
     1
1071
       59
1005
126239
  0
LINE
  5
12623A
  8
OBJECT
 10
6583.0
 20
-137.99999999999801
 30
0.0
 11
6580.0
 21
-137.99999999999801
 31
0.0
1001
ACDBBLOCKREPETAG
1070
     1
1071
       60
1005
12623A
  0
ARC
  5
12623B
  8
OBJECT
 10
6583.0
 20
-140.99999999999801
 30
0.0
 40
3.0
 50
0.0
 51
90.0
1001
ACDBBLOCKREPETAG
1070
     1
1071
       61
1005
12623B
  0
LINE
  5
12623C
  8
OBJECT
 10
6580.0
 20
-261.99999999999801
 30
0.0
 11
6583.0
 21
-261.99999999999801
 31
0.0
1001
ACDBBLOCKREPETAG
1070
     1
1071
       62
1005
12623C
  0
ARC
  5
12623D
  8
OBJECT
 10
6583.0
 20
-258.99999999999801
 30
0.0
 40
3.0
 50
270.0
 51
0.0
1001
ACDBBLOCKREPETAG
1070
     1
1071
       63
1005
12623D
  0
LINE
  5
12623E
  8
OBJECT
 10
6585.9999999999973
 20
-258.99999999999801
 30
0.0
 11
6585.9999999999973
 21
-140.99999999999801
 31
0.0
1001
ACDBBLOCKREPETAG
1070
     1
1071
       64
1005
12623E
  0
LINE
  5
12623F
  8
HIDDEN
 10
6588.0
 20
-155.49999999999801
 30
0.0
 11
6588.0
 21
-244.49999999999801
 31
0.0
1001
ACDBBLOCKREPETAG
1070
     1
1071
       65
1005
12623F
  0
LINE
  5
126240
  8
OBJECT
 10
4632.9999999999991
 20
-137.99999999999801
 30
0.0
 11
4639.9999999999991
 21
-137.99999999999801
 31
0.0
1001
ACDBBLOCKREPETAG
1070
     1
1071
       47
1005
126240
  0
LINE
  5
126241
  8
OBJECT
 10
4639.9999999999991
 20
-137.99999999999801
 30
0.0
 11
4639.9999999999991
 21
-261.99999999999801
 31
0.0
1001
ACDBBLOCKREPETAG
1070
     1
1071
       48
1005
126241
  0
LINE
  5
126242
  8
OBJECT
 10
4639.9999999999991
 20
-261.99999999999801
 30
0.0
 11
4632.9999999999991
 21
-261.99999999999801
 31
0.0
1001
ACDBBLOCKREPETAG
1070
     1
1071
       49
1005
126242
  0
LINE
  5
126243
  8
OBJECT
 10
4632.9999999999991
 20
-261.99999999999801
 30
0.0
 11
4632.9999999999991
 21
-137.99999999999801
 31
0.0
1001
ACDBBLOCKREPETAG
1070
     1
1071
       50
1005
126243
  0
LINE
  5
126244
  8
CENTER
 10
4654.9999999999991
 20
-199.99999999999801
 30
0.0
 11
4579.9999999999991
 21
-199.99999999999801
 31
0.0
1001
ACDBBLOCKREPETAG
1070
     1
1071
       51
1005
126244
  0
LINE
  5
126245
  8
OBJECT
 10
4632.9999999999991
 20
-140.99999999999801
 30
0.0
 11
4596.9999999999991
 21
-140.99999999999801
 31
0.0
1001
ACDBBLOCKREPETAG
1070
     1
1071
       52
1005
126245
  0
LINE
  5
126246
  8
OBJECT
 10
4596.9999999999991
 20
-140.99999999999801
 30
0.0
 11
4596.9999999999991
 21
-258.99999999999801
 31
0.0
1001
ACDBBLOCKREPETAG
1070
     1
1071
       53
1005
126246
  0
LINE
  5
126247
  8
OBJECT
 10
4596.9999999999991
 20
-258.99999999999801
 30
0.0
 11
4632.9999999999991
 21
-258.99999999999801
 31
0.0
1001
ACDBBLOCKREPETAG
1070
     1
1071
       54
1005
126247
  0
LINE
  5
126248
  8
OBJECT
 10
4592.9999999999991
 20
-145.49999999999801
 30
0.0
 11
4585.9999999999991
 21
-145.49999999999801
 31
0.0
1001
ACDBBLOCKREPETAG
1070
     1
1071
       55
1005
126248
  0
LINE
  5
126249
  8
OBJECT
 10
4585.9999999999991
 20
-254.49999999999801
 30
0.0
 11
4592.9999999999991
 21
-254.49999999999801
 31
0.0
1001
ACDBBLOCKREPETAG
1070
     1
1071
       56
1005
126249
  0
LINE
  5
12624A
  8
OBJECT
 10
4592.9999999999991
 20
-254.49999999999801
 30
0.0
 11
4592.9999999999991
 21
-145.49999999999801
 31
0.0
1001
ACDBBLOCKREPETAG
1070
     1
1071
       57
1005
12624A
  0
LINE
  5
12624B
  8
OBJECT
 10
4596.9999999999991
 20
-140.99999999999801
 30
0.0
 11
4592.9999999999991
 21
-145.49999999999801
 31
0.0
1001
ACDBBLOCKREPETAG
1070
     1
1071
       58
1005
12624B
  0
LINE
  5
12624C
  8
OBJECT
 10
4596.9999999999991
 20
-258.99999999999801
 30
0.0
 11
4592.9999999999991
 21
-254.49999999999801
 31
0.0
1001
ACDBBLOCKREPETAG
1070
     1
1071
       59
1005
12624C
  0
LINE
  5
12624D
  8
OBJECT
 10
4582.9999999999991
 20
-137.99999999999801
 30
0.0
 11
4579.9999999999991
 21
-137.99999999999801
 31
0.0
1001
ACDBBLOCKREPETAG
1070
     1
1071
       60
1005
12624D
  0
ARC
  5
12624E
  8
OBJECT
 10
4582.9999999999991
 20
-140.99999999999801
 30
0.0
 40
3.0
 50
0.0
 51
90.0
1001
ACDBBLOCKREPETAG
1070
     1
1071
       61
1005
12624E
  0
LINE
  5
12624F
  8
OBJECT
 10
4579.9999999999991
 20
-261.99999999999801
 30
0.0
 11
4582.9999999999991
 21
-261.99999999999801
 31
0.0
1001
ACDBBLOCKREPETAG
1070
     1
1071
       62
1005
12624F
  0
ARC
  5
126250
  8
OBJECT
 10
4582.9999999999991
 20
-258.99999999999801
 30
0.0
 40
3.0
 50
270.0
 51
0.0
1001
ACDBBLOCKREPETAG
1070
     1
1071
       63
1005
126250
  0
LINE
  5
126251
  8
OBJECT
 10
4585.9999999999991
 20
-258.99999999999801
 30
0.0
 11
4585.9999999999991
 21
-140.99999999999801
 31
0.0
1001
ACDBBLOCKREPETAG
1070
     1
1071
       64
1005
126251
  0
LINE
  5
126252
  8
HIDDEN
 10
4587.9999999999991
 20
-155.49999999999801
 30
0.0
 11
4587.9999999999991
 21
-244.49999999999801
 31
0.0
1001
ACDBBLOCKREPETAG
1070
     1
1071
       65
1005
126252
  0
LINE
  5
126253
  8
OBJECT
 10
2632.9999999999991
 20
-137.99999999999801
 30
0.0
 11
2639.9999999999991
 21
-137.99999999999801
 31
0.0
1001
ACDBBLOCKREPETAG
1070
     1
1071
       47
1005
126253
  0
LINE
  5
126254
  8
OBJECT
 10
2639.9999999999991
 20
-137.99999999999801
 30
0.0
 11
2639.9999999999991
 21
-261.99999999999801
 31
0.0
1001
ACDBBLOCKREPETAG
1070
     1
1071
       48
1005
126254
  0
LINE
  5
126255
  8
OBJECT
 10
2639.9999999999991
 20
-261.99999999999801
 30
0.0
 11
2632.9999999999991
 21
-261.99999999999801
 31
0.0
1001
ACDBBLOCKREPETAG
1070
     1
1071
       49
1005
126255
  0
LINE
  5
126256
  8
OBJECT
 10
2632.9999999999991
 20
-261.99999999999801
 30
0.0
 11
2632.9999999999991
 21
-137.99999999999801
 31
0.0
1001
ACDBBLOCKREPETAG
1070
     1
1071
       50
1005
126256
  0
LINE
  5
126257
  8
CENTER
 10
2654.9999999999991
 20
-199.99999999999801
 30
0.0
 11
2579.9999999999991
 21
-199.99999999999801
 31
0.0
1001
ACDBBLOCKREPETAG
1070
     1
1071
       51
1005
126257
  0
LINE
  5
126258
  8
OBJECT
 10
2632.9999999999991
 20
-140.99999999999801
 30
0.0
 11
2596.9999999999991
 21
-140.99999999999801
 31
0.0
1001
ACDBBLOCKREPETAG
1070
     1
1071
       52
1005
126258
  0
LINE
  5
126259
  8
OBJECT
 10
2596.9999999999991
 20
-140.99999999999801
 30
0.0
 11
2596.9999999999991
 21
-258.99999999999801
 31
0.0
1001
ACDBBLOCKREPETAG
1070
     1
1071
       53
1005
126259
  0
LINE
  5
12625A
  8
OBJECT
 10
2596.9999999999991
 20
-258.99999999999801
 30
0.0
 11
2632.9999999999991
 21
-258.99999999999801
 31
0.0
1001
ACDBBLOCKREPETAG
1070
     1
1071
       54
1005
12625A
  0
LINE
  5
12625B
  8
OBJECT
 10
2592.9999999999991
 20
-145.49999999999801
 30
0.0
 11
2585.9999999999991
 21
-145.49999999999801
 31
0.0
1001
ACDBBLOCKREPETAG
1070
     1
1071
       55
1005
12625B
  0
LINE
  5
12625C
  8
OBJECT
 10
2585.9999999999991
 20
-254.49999999999801
 30
0.0
 11
2592.9999999999991
 21
-254.49999999999801
 31
0.0
1001
ACDBBLOCKREPETAG
1070
     1
1071
       56
1005
12625C
  0
LINE
  5
12625D
  8
OBJECT
 10
2592.9999999999991
 20
-254.49999999999801
 30
0.0
 11
2592.9999999999991
 21
-145.49999999999801
 31
0.0
1001
ACDBBLOCKREPETAG
1070
     1
1071
       57
1005
12625D
  0
LINE
  5
12625E
  8
OBJECT
 10
2596.9999999999991
 20
-140.99999999999801
 30
0.0
 11
2592.9999999999991
 21
-145.49999999999801
 31
0.0
1001
ACDBBLOCKREPETAG
1070
     1
1071
       58
1005
12625E
  0
LINE
  5
12625F
  8
OBJECT
 10
2596.9999999999991
 20
-258.99999999999801
 30
0.0
 11
2592.9999999999991
 21
-254.49999999999801
 31
0.0
1001
ACDBBLOCKREPETAG
1070
     1
1071
       59
1005
12625F
  0
LINE
  5
126260
  8
OBJECT
 10
2582.9999999999991
 20
-137.99999999999801
 30
0.0
 11
2579.9999999999991
 21
-137.99999999999801
 31
0.0
1001
ACDBBLOCKREPETAG
1070
     1
1071
       60
1005
126260
  0
ARC
  5
126261
  8
OBJECT
 10
2582.9999999999991
 20
-140.99999999999801
 30
0.0
 40
3.0
 50
0.0
 51
90.0
1001
ACDBBLOCKREPETAG
1070
     1
1071
       61
1005
126261
  0
LINE
  5
126262
  8
OBJECT
 10
2579.9999999999991
 20
-261.99999999999801
 30
0.0
 11
2582.9999999999991
 21
-261.99999999999801
 31
0.0
1001
ACDBBLOCKREPETAG
1070
     1
1071
       62
1005
126262
  0
ARC
  5
126263
  8
OBJECT
 10
2582.9999999999991
 20
-258.99999999999801
 30
0.0
 40
3.0
 50
270.0
 51
0.0
1001
ACDBBLOCKREPETAG
1070
     1
1071
       63
1005
126263
  0
LINE
  5
126264
  8
OBJECT
 10
2585.9999999999991
 20
-258.99999999999801
 30
0.0
 11
2585.9999999999991
 21
-140.99999999999801
 31
0.0
1001
ACDBBLOCKREPETAG
1070
     1
1071
       64
1005
126264
  0
LINE
  5
126265
  8
HIDDEN
 10
2587.9999999999991
 20
-155.49999999999801
 30
0.0
 11
2587.9999999999991
 21
-244.49999999999801
 31
0.0
1001
ACDBBLOCKREPETAG
1070
     1
1071
       65
1005
126265
  0
LINE
  5
126266
  8
SLIM
 10
12434.62485174211
 20
-150.5
 30
0.0
 11
12460.2662412277
 21
-124.858610514414
 31
0.0
1001
GRADIENTCOLOR1ACI
1070
     5
1001
GRADIENTCOLOR2ACI
1070
     2
1001
ACAD
1010
0.0
1020
0.0
1030
0.0
  0
LINE
  5
126267
  8
SLIM
 10
12466.96656796274
 20
-127.1385399004393
 30
0.0
 11
12475.4966737955
 21
-118.6084340676734
 31
0.0
1001
GRADIENTCOLOR1ACI
1070
     5
1001
GRADIENTCOLOR2ACI
1070
     2
1001
ACAD
1010
0.0
1020
0.0
1030
0.0
  0
LINE
  5
126268
  8
SLIM
 10
12480.729808117931
 20
-122.3555558663183
 30
0.0
 11
12487.10092058016
 21
-115.98444340408869
 31
0.0
1001
GRADIENTCOLOR1ACI
1070
     5
1001
GRADIENTCOLOR2ACI
1070
     2
1001
ACAD
1010
0.0
1020
0.0
1030
0.0
  0
LINE
  5
126269
  8
SLIM
 10
12491.62615505049
 20
-120.4394650548292
 30
0.0
 11
12497.013124938399
 21
-115.0524951669185
 31
0.0
1001
GRADIENTCOLOR1ACI
1070
     5
1001
GRADIENTCOLOR2ACI
1070
     2
1001
ACAD
1010
0.0
1020
0.0
1030
0.0
  0
LINE
  5
12626A
  8
SLIM
 10
12501.03912728228
 20
-120.00674894410621
 30
0.0
 11
12505.84469431025
 21
-115.20118191613891
 31
0.0
1001
GRADIENTCOLOR1ACI
1070
     5
1001
GRADIENTCOLOR2ACI
1070
     2
1001
ACAD
1010
0.0
1020
0.0
1030
0.0
  0
LINE
  5
12626B
  8
SLIM
 10
12509.464325564621
 20
-120.5618067828391
 30
0.0
 11
12513.884473575559
 21
-116.14165877189311
 31
0.0
1001
GRADIENTCOLOR1ACI
1070
     5
1001
GRADIENTCOLOR2ACI
1070
     2
1001
ACAD
1010
0.0
1020
0.0
1030
0.0
  0
LINE
  5
12626C
  8
SLIM
 10
12517.147132338559
 20
-121.85925612995651
 30
0.0
 11
12521.2955183575
 21
-117.7108701110201
 31
0.0
1001
GRADIENTCOLOR1ACI
1070
     5
1001
GRADIENTCOLOR2ACI
1070
     2
1001
ACAD
1010
0.0
1020
0.0
1030
0.0
  0
LINE
  5
12626D
  8
SLIM
 10
12524.22929262222
 20
-123.7573519673733
 30
0.0
 11
12528.179600214011
 21
-119.80704437558779
 31
0.0
1001
GRADIENTCOLOR1ACI
1070
     5
1001
GRADIENTCOLOR2ACI
1070
     2
1001
ACAD
1010
0.0
1020
0.0
1030
0.0
  0
LINE
  5
12626E
  8
SLIM
 10
12530.800159840819
 20
-126.16674086984671
 30
0.0
 11
12534.604195997101
 21
-122.3627047135587
 31
0.0
1001
GRADIENTCOLOR1ACI
1070
     5
1001
GRADIENTCOLOR2ACI
1070
     2
1001
ACAD
1010
0.0
1020
0.0
1030
0.0
  0
LINE
  5
12626F
  8
SLIM
 10
12536.91893009735
 20
-129.02822673437819
 30
0.0
 11
12540.615585390289
 21
-125.3315714414439
 31
0.0
1001
GRADIENTCOLOR1ACI
1070
     5
1001
GRADIENTCOLOR2ACI
1070
     2
1001
ACAD
1010
0.0
1020
0.0
1030
0.0
  0
LINE
  5
126270
  8
SLIM
 10
12542.625662068
 20
-132.30175088479609
 30
0.0
 11
12546.24585805909
 21
-128.68155489371199
 31
0.0
1001
GRADIENTCOLOR1ACI
1070
     5
1001
GRADIENTCOLOR2ACI
1070
     2
1001
ACAD
1010
0.0
1020
0.0
1030
0.0
  0
LINE
  5
126271
  8
SLIM
 10
12432.39076526292
 20
-251.51690381094841
 30
0.0
 11
12434.407669073869
 21
-249.49999999999861
 31
0.0
1001
GRADIENTCOLOR1ACI
1070
     5
1001
GRADIENTCOLOR2ACI
1070
     2
1001
ACAD
1010
0.0
1020
0.0
1030
0.0
  0
LINE
  5
126272
  8
SLIM
 10
12547.94722005113
 20
-135.96044902274201
 30
0.0
 11
12551.516903810951
 21
-132.39076526292041
 31
0.0
1001
GRADIENTCOLOR1ACI
1070
     5
1001
GRADIENTCOLOR2ACI
1070
     2
1001
ACAD
1010
0.0
1020
0.0
1030
0.0
  0
LINE
  5
126273
  8
SLIM
 10
12436.445174293111
 20
-256.44275090183191
 30
0.0
 11
12439.987301360799
 21
-252.9006238341367
 31
0.0
1001
GRADIENTCOLOR1ACI
1070
     5
1001
GRADIENTCOLOR2ACI
1070
     2
1001
ACAD
1010
0.0
1020
0.0
1030
0.0
  0
LINE
  5
126274
  8
SLIM
 10
12554.88792519494
 20
-137.99999999999909
 30
0.0
 11
12556.44275090183
 21
-136.44517429310599
 31
0.0
1001
GRADIENTCOLOR1ACI
1070
     5
1001
GRADIENTCOLOR2ACI
1070
     2
1001
ACAD
1010
0.0
1020
0.0
1030
0.0
  0
LINE
  5
126275
  8
SLIM
 10
12440.83727314956
 20
-261.03090816644271
 30
0.0
 11
12444.37326079631
 21
-257.49492051969042
 31
0.0
1001
GRADIENTCOLOR1ACI
1070
     5
1001
GRADIENTCOLOR2ACI
1070
     2
1001
ACAD
1010
0.0
1020
0.0
1030
0.0
  0
LINE
  5
126276
  8
SLIM
 10
12445.56540273214
 20
-265.28303470493529
 30
0.0
 11
12449.11633426801
 21
-261.73210316906119
 31
0.0
1001
GRADIENTCOLOR1ACI
1070
     5
1001
GRADIENTCOLOR2ACI
1070
     2
1001
ACAD
1010
0.0
1020
0.0
1030
0.0
  0
LINE
  5
126277
  8
SLIM
 10
12450.63361021192
 20
-269.19508334622611
 30
0.0
 11
12454.22138736817
 21
-265.60730618997422
 31
0.0
1001
GRADIENTCOLOR1ACI
1070
     5
1001
GRADIENTCOLOR2ACI
1070
     2
1001
ACAD
1010
0.0
1020
0.0
1030
0.0
  0
LINE
  5
126278
  8
SLIM
 10
12456.05200184493
 20
-272.75694783428941
 30
0.0
 11
12459.7006257557
 21
-269.10832392351722
 31
0.0
1001
GRADIENTCOLOR1ACI
1070
     5
1001
GRADIENTCOLOR2ACI
1070
     2
1001
ACAD
1010
0.0
1020
0.0
1030
0.0
  0
LINE
  5
126279
  8
SLIM
 10
12461.837666588721
 20
-275.95153921156628
 30
0.0
 11
12465.57486939324
 21
-272.21433640703441
 31
0.0
1001
GRADIENTCOLOR1ACI
1070
     5
1001
GRADIENTCOLOR2ACI
1070
     2
1001
ACAD
1010
0.0
1020
0.0
1030
0.0
  0
LINE
  5
12627A
  8
SLIM
 10
12468.01637936975
 20
-278.75308255160547
 30
0.0
 11
12471.875951535259
 21
-274.89351038609948
 31
0.0
1001
GRADIENTCOLOR1ACI
1070
     5
1001
GRADIENTCOLOR2ACI
1070
     2
1001
ACAD
1010
0.0
1020
0.0
1030
0.0
  0
LINE
  5
12627B
  8
SLIM
 10
12474.62551879481
 20
-281.12419924761713
 30
0.0
 11
12478.65096000308
 21
-277.09875803934659
 31
0.0
1001
GRADIENTCOLOR1ACI
1070
     5
1001
GRADIENTCOLOR2ACI
1070
     2
1001
ACAD
1010
0.0
1020
0.0
1030
0.0
  0
LINE
  5
12627C
  8
SLIM
 10
12481.71908289199
 20
-283.01089127150487
 30
0.0
 11
12485.96986221718
 21
-278.76011194630968
 31
0.0
1001
GRADIENTCOLOR1ACI
1070
     5
1001
GRADIENTCOLOR2ACI
1070
     2
1001
ACAD
1010
0.0
1020
0.0
1030
0.0
  0
LINE
  5
12627D
  8
SLIM
 10
12489.37669385588
 20
-284.33353642868298
 30
0.0
 11
12493.940077127039
 21
-279.7701531575176
 31
0.0
1001
GRADIENTCOLOR1ACI
1070
     5
1001
GRADIENTCOLOR2ACI
1070
     2
1001
ACAD
1010
0.0
1020
0.0
1030
0.0
  0
LINE
  5
12627E
  8
SLIM
 10
12497.721042757419
 20
-284.96944364820962
 30
0.0
 11
12500.0
 21
-282.69048640563238
 31
0.0
1001
GRADIENTCOLOR1ACI
1070
     5
1001
GRADIENTCOLOR2ACI
1070
     2
1001
ACAD
1010
0.0
1020
0.0
1030
0.0
  0
LINE
  5
12627F
  8
SLIM
 10
12500.0
 20
-282.69048640563238
 30
0.0
 11
12502.737331261091
 21
-279.9531551445416
 31
0.0
1001
GRADIENTCOLOR1ACI
1070
     5
1001
GRADIENTCOLOR2ACI
1070
     2
1001
ACAD
1010
0.0
1020
0.0
1030
0.0
  0
LINE
  5
126280
  8
SLIM
 10
12506.955829841791
 20
-284.714912684909
 30
0.0
 11
12512.68241149879
 21
-278.98833102791468
 31
0.0
1001
GRADIENTCOLOR1ACI
1070
     5
1001
GRADIENTCOLOR2ACI
1070
     2
1001
ACAD
1010
0.0
1020
0.0
1030
0.0
  0
LINE
  5
126281
  8
SLIM
 10
12517.464517631281
 20
-283.18648101648711
 30
0.0
 11
12524.49249489541
 21
-276.15850375236101
 31
0.0
1001
GRADIENTCOLOR1ACI
1070
     5
1001
GRADIENTCOLOR2ACI
1070
     2
1001
ACAD
1010
0.0
1020
0.0
1030
0.0
  0
LINE
  5
126282
  8
SLIM
 10
12530.16310227131
 20
-279.46815249752581
 30
0.0
 11
12540.842546319291
 21
-268.7887084495423
 31
0.0
1001
GRADIENTCOLOR1ACI
1070
     5
1001
GRADIENTCOLOR2ACI
1070
     2
1001
ACAD
1010
0.0
1020
0.0
1030
0.0
  0
LINE
  5
126283
  8
SLIM
 10
12549.542181759911
 20
-269.06932912999309
 30
0.0
 11
12556.61151088991
 21
-261.99999999999733
 31
0.0
1001
GRADIENTCOLOR1ACI
1070
     5
1001
GRADIENTCOLOR2ACI
1070
     2
1001
ACAD
1010
0.0
1020
0.0
1030
0.0
  0
LINE
  5
126284
  8
OBJECT
 10
12633.0
 20
-137.99999999999909
 30
0.0
 11
12640.0
 21
-137.99999999999909
 31
0.0
1001
ACDBBLOCKREPETAG
1070
     1
1071
       47
1005
126284
  0
LINE
  5
126285
  8
OBJECT
 10
12640.0
 20
-137.99999999999909
 30
0.0
 11
12640.0
 21
-261.99999999999909
 31
0.0
1001
ACDBBLOCKREPETAG
1070
     1
1071
       48
1005
126285
  0
LINE
  5
126286
  8
OBJECT
 10
12640.0
 20
-261.99999999999909
 30
0.0
 11
12633.0
 21
-261.99999999999909
 31
0.0
1001
ACDBBLOCKREPETAG
1070
     1
1071
       49
1005
126286
  0
LINE
  5
126287
  8
OBJECT
 10
12633.0
 20
-261.99999999999909
 30
0.0
 11
12633.0
 21
-137.99999999999909
 31
0.0
1001
ACDBBLOCKREPETAG
1070
     1
1071
       50
1005
126287
  0
LINE
  5
126288
  8
CENTER
 10
12655.0
 20
-199.99999999999909
 30
0.0
 11
12580.0
 21
-199.99999999999909
 31
0.0
1001
ACDBBLOCKREPETAG
1070
     1
1071
       51
1005
126288
  0
LINE
  5
126289
  8
OBJECT
 10
12633.0
 20
-140.99999999999909
 30
0.0
 11
12597.0
 21
-140.99999999999909
 31
0.0
1001
ACDBBLOCKREPETAG
1070
     1
1071
       52
1005
126289
  0
LINE
  5
12628A
  8
OBJECT
 10
12597.0
 20
-140.99999999999909
 30
0.0
 11
12597.0
 21
-258.99999999999909
 31
0.0
1001
ACDBBLOCKREPETAG
1070
     1
1071
       53
1005
12628A
  0
LINE
  5
12628B
  8
OBJECT
 10
12597.0
 20
-258.99999999999909
 30
0.0
 11
12633.0
 21
-258.99999999999909
 31
0.0
1001
ACDBBLOCKREPETAG
1070
     1
1071
       54
1005
12628B
  0
LINE
  5
12628C
  8
OBJECT
 10
12593.0
 20
-145.49999999999909
 30
0.0
 11
12586.0
 21
-145.49999999999909
 31
0.0
1001
ACDBBLOCKREPETAG
1070
     1
1071
       55
1005
12628C
  0
LINE
  5
12628D
  8
OBJECT
 10
12586.0
 20
-254.49999999999909
 30
0.0
 11
12593.0
 21
-254.49999999999909
 31
0.0
1001
ACDBBLOCKREPETAG
1070
     1
1071
       56
1005
12628D
  0
LINE
  5
12628E
  8
OBJECT
 10
12593.0
 20
-254.49999999999909
 30
0.0
 11
12593.0
 21
-145.49999999999909
 31
0.0
1001
ACDBBLOCKREPETAG
1070
     1
1071
       57
1005
12628E
  0
LINE
  5
12628F
  8
OBJECT
 10
12597.0
 20
-140.99999999999909
 30
0.0
 11
12593.0
 21
-145.49999999999909
 31
0.0
1001
ACDBBLOCKREPETAG
1070
     1
1071
       58
1005
12628F
  0
LINE
  5
126290
  8
OBJECT
 10
12597.0
 20
-258.99999999999909
 30
0.0
 11
12593.0
 21
-254.49999999999909
 31
0.0
1001
ACDBBLOCKREPETAG
1070
     1
1071
       59
1005
126290
  0
LINE
  5
126291
  8
OBJECT
 10
12583.0
 20
-137.99999999999909
 30
0.0
 11
12580.0
 21
-137.99999999999909
 31
0.0
1001
ACDBBLOCKREPETAG
1070
     1
1071
       60
1005
126291
  0
ARC
  5
126292
  8
OBJECT
 10
12583.0
 20
-140.99999999999909
 30
0.0
 40
3.0
 50
0.0
 51
90.0
1001
ACDBBLOCKREPETAG
1070
     1
1071
       61
1005
126292
  0
LINE
  5
126293
  8
OBJECT
 10
12580.0
 20
-261.99999999999909
 30
0.0
 11
12583.0
 21
-261.99999999999909
 31
0.0
1001
ACDBBLOCKREPETAG
1070
     1
1071
       62
1005
126293
  0
ARC
  5
126294
  8
OBJECT
 10
12583.0
 20
-258.99999999999909
 30
0.0
 40
3.0
 50
270.0
 51
0.0
1001
ACDBBLOCKREPETAG
1070
     1
1071
       63
1005
126294
  0
LINE
  5
126295
  8
OBJECT
 10
12586.0
 20
-258.99999999999909
 30
0.0
 11
12586.0
 21
-140.99999999999909
 31
0.0
1001
ACDBBLOCKREPETAG
1070
     1
1071
       64
1005
126295
  0
LINE
  5
126296
  8
HIDDEN
 10
12588.0
 20
-155.49999999999909
 30
0.0
 11
12588.0
 21
-244.49999999999909
 31
0.0
1001
ACDBBLOCKREPETAG
1070
     1
1071
       65
1005
126296
  0
LINE
  5
126297
  8
SLIM
 10
10434.62485174211
 20
-150.5
 30
0.0
 11
10460.2662412277
 21
-124.858610514414
 31
0.0
1001
GRADIENTCOLOR1ACI
1070
     5
1001
GRADIENTCOLOR2ACI
1070
     2
1001
ACAD
1010
0.0
1020
0.0
1030
0.0
  0
LINE
  5
126298
  8
SLIM
 10
10466.96656796274
 20
-127.1385399004393
 30
0.0
 11
10475.496673795509
 21
-118.6084340676734
 31
0.0
1001
GRADIENTCOLOR1ACI
1070
     5
1001
GRADIENTCOLOR2ACI
1070
     2
1001
ACAD
1010
0.0
1020
0.0
1030
0.0
  0
LINE
  5
126299
  8
SLIM
 10
10480.729808117931
 20
-122.3555558663183
 30
0.0
 11
10487.10092058016
 21
-115.98444340408869
 31
0.0
1001
GRADIENTCOLOR1ACI
1070
     5
1001
GRADIENTCOLOR2ACI
1070
     2
1001
ACAD
1010
0.0
1020
0.0
1030
0.0
  0
LINE
  5
12629A
  8
SLIM
 10
10491.62615505049
 20
-120.4394650548292
 30
0.0
 11
10497.013124938399
 21
-115.0524951669185
 31
0.0
1001
GRADIENTCOLOR1ACI
1070
     5
1001
GRADIENTCOLOR2ACI
1070
     2
1001
ACAD
1010
0.0
1020
0.0
1030
0.0
  0
LINE
  5
12629B
  8
SLIM
 10
10501.03912728228
 20
-120.00674894410621
 30
0.0
 11
10505.84469431025
 21
-115.20118191613891
 31
0.0
1001
GRADIENTCOLOR1ACI
1070
     5
1001
GRADIENTCOLOR2ACI
1070
     2
1001
ACAD
1010
0.0
1020
0.0
1030
0.0
  0
LINE
  5
12629C
  8
SLIM
 10
10509.464325564621
 20
-120.5618067828391
 30
0.0
 11
10513.884473575559
 21
-116.14165877189311
 31
0.0
1001
GRADIENTCOLOR1ACI
1070
     5
1001
GRADIENTCOLOR2ACI
1070
     2
1001
ACAD
1010
0.0
1020
0.0
1030
0.0
  0
LINE
  5
12629D
  8
SLIM
 10
10517.14713233857
 20
-121.85925612995651
 30
0.0
 11
10521.2955183575
 21
-117.7108701110201
 31
0.0
1001
GRADIENTCOLOR1ACI
1070
     5
1001
GRADIENTCOLOR2ACI
1070
     2
1001
ACAD
1010
0.0
1020
0.0
1030
0.0
  0
LINE
  5
12629E
  8
SLIM
 10
10524.22929262222
 20
-123.7573519673733
 30
0.0
 11
10528.179600214
 21
-119.80704437558779
 31
0.0
1001
GRADIENTCOLOR1ACI
1070
     5
1001
GRADIENTCOLOR2ACI
1070
     2
1001
ACAD
1010
0.0
1020
0.0
1030
0.0
  0
LINE
  5
12629F
  8
SLIM
 10
10530.80015984081
 20
-126.16674086984671
 30
0.0
 11
10534.604195997101
 21
-122.3627047135587
 31
0.0
1001
GRADIENTCOLOR1ACI
1070
     5
1001
GRADIENTCOLOR2ACI
1070
     2
1001
ACAD
1010
0.0
1020
0.0
1030
0.0
  0
LINE
  5
1262A0
  8
SLIM
 10
10536.91893009735
 20
-129.02822673437819
 30
0.0
 11
10540.61558539028
 21
-125.3315714414439
 31
0.0
1001
GRADIENTCOLOR1ACI
1070
     5
1001
GRADIENTCOLOR2ACI
1070
     2
1001
ACAD
1010
0.0
1020
0.0
1030
0.0
  0
LINE
  5
1262A1
  8
SLIM
 10
10542.625662068011
 20
-132.30175088479609
 30
0.0
 11
10546.24585805909
 21
-128.68155489371199
 31
0.0
1001
GRADIENTCOLOR1ACI
1070
     5
1001
GRADIENTCOLOR2ACI
1070
     2
1001
ACAD
1010
0.0
1020
0.0
1030
0.0
  0
LINE
  5
1262A2
  8
SLIM
 10
10432.39076526292
 20
-251.51690381094841
 30
0.0
 11
10434.407669073869
 21
-249.49999999999861
 31
0.0
1001
GRADIENTCOLOR1ACI
1070
     5
1001
GRADIENTCOLOR2ACI
1070
     2
1001
ACAD
1010
0.0
1020
0.0
1030
0.0
  0
LINE
  5
1262A3
  8
SLIM
 10
10547.94722005113
 20
-135.96044902274201
 30
0.0
 11
10551.516903810951
 21
-132.39076526292041
 31
0.0
1001
GRADIENTCOLOR1ACI
1070
     5
1001
GRADIENTCOLOR2ACI
1070
     2
1001
ACAD
1010
0.0
1020
0.0
1030
0.0
  0
LINE
  5
1262A4
  8
SLIM
 10
10436.445174293111
 20
-256.44275090183191
 30
0.0
 11
10439.987301360799
 21
-252.9006238341367
 31
0.0
1001
GRADIENTCOLOR1ACI
1070
     5
1001
GRADIENTCOLOR2ACI
1070
     2
1001
ACAD
1010
0.0
1020
0.0
1030
0.0
  0
LINE
  5
1262A5
  8
SLIM
 10
10554.88792519494
 20
-137.99999999999909
 30
0.0
 11
10556.44275090183
 21
-136.44517429310599
 31
0.0
1001
GRADIENTCOLOR1ACI
1070
     5
1001
GRADIENTCOLOR2ACI
1070
     2
1001
ACAD
1010
0.0
1020
0.0
1030
0.0
  0
LINE
  5
1262A6
  8
SLIM
 10
10440.83727314956
 20
-261.03090816644271
 30
0.0
 11
10444.373260796319
 21
-257.49492051969042
 31
0.0
1001
GRADIENTCOLOR1ACI
1070
     5
1001
GRADIENTCOLOR2ACI
1070
     2
1001
ACAD
1010
0.0
1020
0.0
1030
0.0
  0
LINE
  5
1262A7
  8
SLIM
 10
10445.56540273214
 20
-265.28303470493529
 30
0.0
 11
10449.11633426801
 21
-261.73210316906119
 31
0.0
1001
GRADIENTCOLOR1ACI
1070
     5
1001
GRADIENTCOLOR2ACI
1070
     2
1001
ACAD
1010
0.0
1020
0.0
1030
0.0
  0
LINE
  5
1262A8
  8
SLIM
 10
10450.63361021192
 20
-269.19508334622611
 30
0.0
 11
10454.22138736817
 21
-265.60730618997422
 31
0.0
1001
GRADIENTCOLOR1ACI
1070
     5
1001
GRADIENTCOLOR2ACI
1070
     2
1001
ACAD
1010
0.0
1020
0.0
1030
0.0
  0
LINE
  5
1262A9
  8
SLIM
 10
10456.05200184493
 20
-272.75694783428941
 30
0.0
 11
10459.7006257557
 21
-269.10832392351722
 31
0.0
1001
GRADIENTCOLOR1ACI
1070
     5
1001
GRADIENTCOLOR2ACI
1070
     2
1001
ACAD
1010
0.0
1020
0.0
1030
0.0
  0
LINE
  5
1262AA
  8
SLIM
 10
10461.837666588721
 20
-275.95153921156628
 30
0.0
 11
10465.574869393249
 21
-272.21433640703441
 31
0.0
1001
GRADIENTCOLOR1ACI
1070
     5
1001
GRADIENTCOLOR2ACI
1070
     2
1001
ACAD
1010
0.0
1020
0.0
1030
0.0
  0
LINE
  5
1262AB
  8
SLIM
 10
10468.01637936975
 20
-278.75308255160547
 30
0.0
 11
10471.875951535259
 21
-274.89351038609948
 31
0.0
1001
GRADIENTCOLOR1ACI
1070
     5
1001
GRADIENTCOLOR2ACI
1070
     2
1001
ACAD
1010
0.0
1020
0.0
1030
0.0
  0
LINE
  5
1262AC
  8
SLIM
 10
10474.62551879481
 20
-281.12419924761713
 30
0.0
 11
10478.65096000308
 21
-277.09875803934659
 31
0.0
1001
GRADIENTCOLOR1ACI
1070
     5
1001
GRADIENTCOLOR2ACI
1070
     2
1001
ACAD
1010
0.0
1020
0.0
1030
0.0
  0
LINE
  5
1262AD
  8
SLIM
 10
10481.71908289199
 20
-283.01089127150487
 30
0.0
 11
10485.96986221718
 21
-278.76011194630968
 31
0.0
1001
GRADIENTCOLOR1ACI
1070
     5
1001
GRADIENTCOLOR2ACI
1070
     2
1001
ACAD
1010
0.0
1020
0.0
1030
0.0
  0
LINE
  5
1262AE
  8
SLIM
 10
10489.37669385588
 20
-284.33353642868298
 30
0.0
 11
10493.940077127039
 21
-279.7701531575176
 31
0.0
1001
GRADIENTCOLOR1ACI
1070
     5
1001
GRADIENTCOLOR2ACI
1070
     2
1001
ACAD
1010
0.0
1020
0.0
1030
0.0
  0
LINE
  5
1262AF
  8
SLIM
 10
10497.721042757419
 20
-284.96944364820962
 30
0.0
 11
10500.0
 21
-282.69048640563238
 31
0.0
1001
GRADIENTCOLOR1ACI
1070
     5
1001
GRADIENTCOLOR2ACI
1070
     2
1001
ACAD
1010
0.0
1020
0.0
1030
0.0
  0
LINE
  5
1262B0
  8
SLIM
 10
10500.0
 20
-282.69048640563238
 30
0.0
 11
10502.737331261091
 21
-279.9531551445416
 31
0.0
1001
GRADIENTCOLOR1ACI
1070
     5
1001
GRADIENTCOLOR2ACI
1070
     2
1001
ACAD
1010
0.0
1020
0.0
1030
0.0
  0
LINE
  5
1262B1
  8
SLIM
 10
10506.955829841791
 20
-284.714912684909
 30
0.0
 11
10512.68241149879
 21
-278.98833102791468
 31
0.0
1001
GRADIENTCOLOR1ACI
1070
     5
1001
GRADIENTCOLOR2ACI
1070
     2
1001
ACAD
1010
0.0
1020
0.0
1030
0.0
  0
LINE
  5
1262B2
  8
SLIM
 10
10517.464517631281
 20
-283.18648101648711
 30
0.0
 11
10524.49249489541
 21
-276.15850375236101
 31
0.0
1001
GRADIENTCOLOR1ACI
1070
     5
1001
GRADIENTCOLOR2ACI
1070
     2
1001
ACAD
1010
0.0
1020
0.0
1030
0.0
  0
LINE
  5
1262B3
  8
SLIM
 10
10530.16310227131
 20
-279.46815249752581
 30
0.0
 11
10540.8425463193
 21
-268.7887084495423
 31
0.0
1001
GRADIENTCOLOR1ACI
1070
     5
1001
GRADIENTCOLOR2ACI
1070
     2
1001
ACAD
1010
0.0
1020
0.0
1030
0.0
  0
LINE
  5
1262B4
  8
SLIM
 10
10549.542181759911
 20
-269.06932912999309
 30
0.0
 11
10556.61151088991
 21
-261.99999999999733
 31
0.0
1001
GRADIENTCOLOR1ACI
1070
     5
1001
GRADIENTCOLOR2ACI
1070
     2
1001
ACAD
1010
0.0
1020
0.0
1030
0.0
  0
LINE
  5
1262B5
  8
OBJECT
 10
10633.0
 20
-137.99999999999909
 30
0.0
 11
10640.0
 21
-137.99999999999909
 31
0.0
1001
ACDBBLOCKREPETAG
1070
     1
1071
       47
1005
1262B5
  0
LINE
  5
1262B6
  8
OBJECT
 10
10640.0
 20
-137.99999999999909
 30
0.0
 11
10640.0
 21
-261.99999999999909
 31
0.0
1001
ACDBBLOCKREPETAG
1070
     1
1071
       48
1005
1262B6
  0
LINE
  5
1262B7
  8
OBJECT
 10
10640.0
 20
-261.99999999999909
 30
0.0
 11
10633.0
 21
-261.99999999999909
 31
0.0
1001
ACDBBLOCKREPETAG
1070
     1
1071
       49
1005
1262B7
  0
LINE
  5
1262B8
  8
OBJECT
 10
10633.0
 20
-261.99999999999909
 30
0.0
 11
10633.0
 21
-137.99999999999909
 31
0.0
1001
ACDBBLOCKREPETAG
1070
     1
1071
       50
1005
1262B8
  0
LINE
  5
1262B9
  8
CENTER
 10
10655.0
 20
-199.99999999999909
 30
0.0
 11
10580.0
 21
-199.99999999999909
 31
0.0
1001
ACDBBLOCKREPETAG
1070
     1
1071
       51
1005
1262B9
  0
LINE
  5
1262BA
  8
OBJECT
 10
10633.0
 20
-140.99999999999909
 30
0.0
 11
10597.0
 21
-140.99999999999909
 31
0.0
1001
ACDBBLOCKREPETAG
1070
     1
1071
       52
1005
1262BA
  0
LINE
  5
1262BB
  8
OBJECT
 10
10597.0
 20
-140.99999999999909
 30
0.0
 11
10597.0
 21
-258.99999999999909
 31
0.0
1001
ACDBBLOCKREPETAG
1070
     1
1071
       53
1005
1262BB
  0
LINE
  5
1262BC
  8
OBJECT
 10
10597.0
 20
-258.99999999999909
 30
0.0
 11
10633.0
 21
-258.99999999999909
 31
0.0
1001
ACDBBLOCKREPETAG
1070
     1
1071
       54
1005
1262BC
  0
LINE
  5
1262BD
  8
OBJECT
 10
10593.0
 20
-145.49999999999909
 30
0.0
 11
10586.0
 21
-145.49999999999909
 31
0.0
1001
ACDBBLOCKREPETAG
1070
     1
1071
       55
1005
1262BD
  0
LINE
  5
1262BE
  8
OBJECT
 10
10586.0
 20
-254.49999999999909
 30
0.0
 11
10593.0
 21
-254.49999999999909
 31
0.0
1001
ACDBBLOCKREPETAG
1070
     1
1071
       56
1005
1262BE
  0
LINE
  5
1262BF
  8
OBJECT
 10
10593.0
 20
-254.49999999999909
 30
0.0
 11
10593.0
 21
-145.49999999999909
 31
0.0
1001
ACDBBLOCKREPETAG
1070
     1
1071
       57
1005
1262BF
  0
LINE
  5
1262C0
  8
OBJECT
 10
10597.0
 20
-140.99999999999909
 30
0.0
 11
10593.0
 21
-145.49999999999909
 31
0.0
1001
ACDBBLOCKREPETAG
1070
     1
1071
       58
1005
1262C0
  0
LINE
  5
1262C1
  8
OBJECT
 10
10597.0
 20
-258.99999999999909
 30
0.0
 11
10593.0
 21
-254.49999999999909
 31
0.0
1001
ACDBBLOCKREPETAG
1070
     1
1071
       59
1005
1262C1
  0
LINE
  5
1262C2
  8
OBJECT
 10
10583.0
 20
-137.99999999999909
 30
0.0
 11
10580.0
 21
-137.99999999999909
 31
0.0
1001
ACDBBLOCKREPETAG
1070
     1
1071
       60
1005
1262C2
  0
ARC
  5
1262C3
  8
OBJECT
 10
10583.0
 20
-140.99999999999909
 30
0.0
 40
3.0
 50
0.0
 51
90.0
1001
ACDBBLOCKREPETAG
1070
     1
1071
       61
1005
1262C3
  0
LINE
  5
1262C4
  8
OBJECT
 10
10580.0
 20
-261.99999999999909
 30
0.0
 11
10583.0
 21
-261.99999999999909
 31
0.0
1001
ACDBBLOCKREPETAG
1070
     1
1071
       62
1005
1262C4
  0
ARC
  5
1262C5
  8
OBJECT
 10
10583.0
 20
-258.99999999999909
 30
0.0
 40
3.0
 50
270.0
 51
0.0
1001
ACDBBLOCKREPETAG
1070
     1
1071
       63
1005
1262C5
  0
LINE
  5
1262C6
  8
OBJECT
 10
10586.0
 20
-258.99999999999909
 30
0.0
 11
10586.0
 21
-140.99999999999909
 31
0.0
1001
ACDBBLOCKREPETAG
1070
     1
1071
       64
1005
1262C6
  0
LINE
  5
1262C7
  8
HIDDEN
 10
10588.0
 20
-155.49999999999909
 30
0.0
 11
10588.0
 21
-244.49999999999909
 31
0.0
1001
ACDBBLOCKREPETAG
1070
     1
1071
       65
1005
1262C7
  0
LINE
  5
1262C8
  8
SLIM
 10
8434.6248517421118
 20
-150.49999999999909
 30
0.0
 11
8460.2662412276986
 21
-124.858610514414
 31
0.0
1001
GRADIENTCOLOR1ACI
1070
     5
1001
GRADIENTCOLOR2ACI
1070
     2
1001
ACAD
1010
0.0
1020
0.0
1030
0.0
  0
LINE
  5
1262C9
  8
SLIM
 10
8466.9665679627415
 20
-127.1385399004393
 30
0.0
 11
8475.4966737955074
 21
-118.6084340676734
 31
0.0
1001
GRADIENTCOLOR1ACI
1070
     5
1001
GRADIENTCOLOR2ACI
1070
     2
1001
ACAD
1010
0.0
1020
0.0
1030
0.0
  0
LINE
  5
1262CA
  8
SLIM
 10
8480.7298081179324
 20
-122.3555558663183
 30
0.0
 11
8487.1009205801583
 21
-115.98444340408869
 31
0.0
1001
GRADIENTCOLOR1ACI
1070
     5
1001
GRADIENTCOLOR2ACI
1070
     2
1001
ACAD
1010
0.0
1020
0.0
1030
0.0
  0
LINE
  5
1262CB
  8
SLIM
 10
8491.6261550504896
 20
-120.4394650548292
 30
0.0
 11
8497.0131249383976
 21
-115.0524951669185
 31
0.0
1001
GRADIENTCOLOR1ACI
1070
     5
1001
GRADIENTCOLOR2ACI
1070
     2
1001
ACAD
1010
0.0
1020
0.0
1030
0.0
  0
LINE
  5
1262CC
  8
SLIM
 10
8501.0391272822817
 20
-120.00674894410621
 30
0.0
 11
8505.8446943102535
 21
-115.20118191613891
 31
0.0
1001
GRADIENTCOLOR1ACI
1070
     5
1001
GRADIENTCOLOR2ACI
1070
     2
1001
ACAD
1010
0.0
1020
0.0
1030
0.0
  0
LINE
  5
1262CD
  8
SLIM
 10
8509.4643255646224
 20
-120.5618067828391
 30
0.0
 11
8513.8844735755629
 21
-116.14165877189311
 31
0.0
1001
GRADIENTCOLOR1ACI
1070
     5
1001
GRADIENTCOLOR2ACI
1070
     2
1001
ACAD
1010
0.0
1020
0.0
1030
0.0
  0
LINE
  5
1262CE
  8
SLIM
 10
8517.1471323385686
 20
-121.85925612995651
 30
0.0
 11
8521.2955183575014
 21
-117.7108701110201
 31
0.0
1001
GRADIENTCOLOR1ACI
1070
     5
1001
GRADIENTCOLOR2ACI
1070
     2
1001
ACAD
1010
0.0
1020
0.0
1030
0.0
  0
LINE
  5
1262CF
  8
SLIM
 10
8524.2292926222217
 20
-123.7573519673733
 30
0.0
 11
8528.1796002140072
 21
-119.80704437558779
 31
0.0
1001
GRADIENTCOLOR1ACI
1070
     5
1001
GRADIENTCOLOR2ACI
1070
     2
1001
ACAD
1010
0.0
1020
0.0
1030
0.0
  0
LINE
  5
1262D0
  8
SLIM
 10
8530.8001598408136
 20
-126.16674086984671
 30
0.0
 11
8534.6041959971044
 21
-122.3627047135587
 31
0.0
1001
GRADIENTCOLOR1ACI
1070
     5
1001
GRADIENTCOLOR2ACI
1070
     2
1001
ACAD
1010
0.0
1020
0.0
1030
0.0
  0
LINE
  5
1262D1
  8
SLIM
 10
8536.9189300973576
 20
-129.02822673437819
 30
0.0
 11
8540.615585390291
 21
-125.3315714414439
 31
0.0
1001
GRADIENTCOLOR1ACI
1070
     5
1001
GRADIENTCOLOR2ACI
1070
     2
1001
ACAD
1010
0.0
1020
0.0
1030
0.0
  0
LINE
  5
1262D2
  8
SLIM
 10
8542.6256620680033
 20
-132.30175088479609
 30
0.0
 11
8546.2458580590901
 21
-128.68155489371199
 31
0.0
1001
GRADIENTCOLOR1ACI
1070
     5
1001
GRADIENTCOLOR2ACI
1070
     2
1001
ACAD
1010
0.0
1020
0.0
1030
0.0
  0
LINE
  5
1262D3
  8
SLIM
 10
8432.3907652629223
 20
-251.51690381094841
 30
0.0
 11
8434.407669073873
 21
-249.49999999999861
 31
0.0
1001
GRADIENTCOLOR1ACI
1070
     5
1001
GRADIENTCOLOR2ACI
1070
     2
1001
ACAD
1010
0.0
1020
0.0
1030
0.0
  0
LINE
  5
1262D4
  8
SLIM
 10
8547.9472200511282
 20
-135.96044902274201
 30
0.0
 11
8551.5169038109489
 21
-132.39076526292041
 31
0.0
1001
GRADIENTCOLOR1ACI
1070
     5
1001
GRADIENTCOLOR2ACI
1070
     2
1001
ACAD
1010
0.0
1020
0.0
1030
0.0
  0
LINE
  5
1262D5
  8
SLIM
 10
8436.4451742931105
 20
-256.44275090183191
 30
0.0
 11
8439.987301360803
 21
-252.9006238341367
 31
0.0
1001
GRADIENTCOLOR1ACI
1070
     5
1001
GRADIENTCOLOR2ACI
1070
     2
1001
ACAD
1010
0.0
1020
0.0
1030
0.0
  0
LINE
  5
1262D6
  8
SLIM
 10
8554.8879251949402
 20
-137.99999999999909
 30
0.0
 11
8556.4427509018351
 21
-136.44517429310599
 31
0.0
1001
GRADIENTCOLOR1ACI
1070
     5
1001
GRADIENTCOLOR2ACI
1070
     2
1001
ACAD
1010
0.0
1020
0.0
1030
0.0
  0
LINE
  5
1262D7
  8
SLIM
 10
8440.8372731495674
 20
-261.03090816644271
 30
0.0
 11
8444.3732607963138
 21
-257.49492051969042
 31
0.0
1001
GRADIENTCOLOR1ACI
1070
     5
1001
GRADIENTCOLOR2ACI
1070
     2
1001
ACAD
1010
0.0
1020
0.0
1030
0.0
  0
LINE
  5
1262D8
  8
SLIM
 10
8445.5654027321416
 20
-265.28303470493529
 30
0.0
 11
8449.1163342680138
 21
-261.73210316906119
 31
0.0
1001
GRADIENTCOLOR1ACI
1070
     5
1001
GRADIENTCOLOR2ACI
1070
     2
1001
ACAD
1010
0.0
1020
0.0
1030
0.0
  0
LINE
  5
1262D9
  8
SLIM
 10
8450.6336102119203
 20
-269.19508334622611
 30
0.0
 11
8454.2213873681776
 21
-265.60730618997422
 31
0.0
1001
GRADIENTCOLOR1ACI
1070
     5
1001
GRADIENTCOLOR2ACI
1070
     2
1001
ACAD
1010
0.0
1020
0.0
1030
0.0
  0
LINE
  5
1262DA
  8
SLIM
 10
8456.0520018449297
 20
-272.75694783428941
 30
0.0
 11
8459.7006257556986
 21
-269.10832392351722
 31
0.0
1001
GRADIENTCOLOR1ACI
1070
     5
1001
GRADIENTCOLOR2ACI
1070
     2
1001
ACAD
1010
0.0
1020
0.0
1030
0.0
  0
LINE
  5
1262DB
  8
SLIM
 10
8461.837666588719
 20
-275.95153921156628
 30
0.0
 11
8465.5748693932492
 21
-272.21433640703441
 31
0.0
1001
GRADIENTCOLOR1ACI
1070
     5
1001
GRADIENTCOLOR2ACI
1070
     2
1001
ACAD
1010
0.0
1020
0.0
1030
0.0
  0
LINE
  5
1262DC
  8
SLIM
 10
8468.0163793697502
 20
-278.75308255160547
 30
0.0
 11
8471.8759515352576
 21
-274.89351038609948
 31
0.0
1001
GRADIENTCOLOR1ACI
1070
     5
1001
GRADIENTCOLOR2ACI
1070
     2
1001
ACAD
1010
0.0
1020
0.0
1030
0.0
  0
LINE
  5
1262DD
  8
SLIM
 10
8474.6255187948063
 20
-281.12419924761713
 30
0.0
 11
8478.6509600030768
 21
-277.09875803934659
 31
0.0
1001
GRADIENTCOLOR1ACI
1070
     5
1001
GRADIENTCOLOR2ACI
1070
     2
1001
ACAD
1010
0.0
1020
0.0
1030
0.0
  0
LINE
  5
1262DE
  8
SLIM
 10
8481.7190828919902
 20
-283.01089127150487
 30
0.0
 11
8485.9698622171873
 21
-278.76011194630968
 31
0.0
1001
GRADIENTCOLOR1ACI
1070
     5
1001
GRADIENTCOLOR2ACI
1070
     2
1001
ACAD
1010
0.0
1020
0.0
1030
0.0
  0
LINE
  5
1262DF
  8
SLIM
 10
8489.3766938558783
 20
-284.33353642868298
 30
0.0
 11
8493.9400771270484
 21
-279.7701531575176
 31
0.0
1001
GRADIENTCOLOR1ACI
1070
     5
1001
GRADIENTCOLOR2ACI
1070
     2
1001
ACAD
1010
0.0
1020
0.0
1030
0.0
  0
LINE
  5
1262E0
  8
SLIM
 10
8497.7210427574246
 20
-284.96944364820962
 30
0.0
 11
8500.0
 21
-282.69048640563238
 31
0.0
1001
GRADIENTCOLOR1ACI
1070
     5
1001
GRADIENTCOLOR2ACI
1070
     2
1001
ACAD
1010
0.0
1020
0.0
1030
0.0
  0
LINE
  5
1262E1
  8
SLIM
 10
8500.0
 20
-282.69048640563238
 30
0.0
 11
8502.7373312610907
 21
-279.9531551445416
 31
0.0
1001
GRADIENTCOLOR1ACI
1070
     5
1001
GRADIENTCOLOR2ACI
1070
     2
1001
ACAD
1010
0.0
1020
0.0
1030
0.0
  0
LINE
  5
1262E2
  8
SLIM
 10
8506.9558298417887
 20
-284.714912684909
 30
0.0
 11
8512.6824114987849
 21
-278.98833102791468
 31
0.0
1001
GRADIENTCOLOR1ACI
1070
     5
1001
GRADIENTCOLOR2ACI
1070
     2
1001
ACAD
1010
0.0
1020
0.0
1030
0.0
  0
LINE
  5
1262E3
  8
SLIM
 10
8517.4645176312824
 20
-283.18648101648711
 30
0.0
 11
8524.4924948954103
 21
-276.15850375236101
 31
0.0
1001
GRADIENTCOLOR1ACI
1070
     5
1001
GRADIENTCOLOR2ACI
1070
     2
1001
ACAD
1010
0.0
1020
0.0
1030
0.0
  0
LINE
  5
1262E4
  8
SLIM
 10
8530.1631022713136
 20
-279.46815249752581
 30
0.0
 11
8540.842546319298
 21
-268.7887084495423
 31
0.0
1001
GRADIENTCOLOR1ACI
1070
     5
1001
GRADIENTCOLOR2ACI
1070
     2
1001
ACAD
1010
0.0
1020
0.0
1030
0.0
  0
LINE
  5
1262E5
  8
SLIM
 10
8549.5421817599163
 20
-269.06932912999309
 30
0.0
 11
8556.6115108899103
 21
-261.99999999999909
 31
0.0
1001
GRADIENTCOLOR1ACI
1070
     5
1001
GRADIENTCOLOR2ACI
1070
     2
1001
ACAD
1010
0.0
1020
0.0
1030
0.0
  0
LINE
  5
1262E6
  8
OBJECT
 10
12425.0
 20
-890.0
 30
0.0
 11
12425.0
 21
-1027.500000000065
 31
0.0
1001
ACDBBLOCKREPETAG
1070
     1
1071
        1
1005
1262E6
  0
LINE
  5
1262E7
  8
OBJECT
 10
12575.0
 20
-889.99999999999409
 30
0.0
 11
12575.0
 21
-1163.0
 31
0.0
1001
ACDBBLOCKREPETAG
1070
     1
1071
        3
1005
1262E7
  0
LINE
  5
1262E8
  8
CENTER
 10
12500.0
 20
-890.0
 30
0.0
 11
12500.0
 21
-1175.0
 31
0.0
1001
ACDBBLOCKREPETAG
1070
     1
1071
        6
1005
1262E8
  0
LINE
  5
1262E9
  8
OBJECT
 10
12420.0
 20
-1175.0
 30
0.0
 11
12580.0
 21
-1175.0
 31
0.0
1001
ACDBBLOCKREPETAG
1070
     1
1071
        7
1005
1262E9
  0
LINE
  5
1262EA
  8
OBJECT
 10
12420.0
 20
-1163.0
 30
0.0
 11
12580.0
 21
-1163.0
 31
0.0
1001
ACDBBLOCKREPETAG
1070
     1
1071
        8
1005
1262EA
  0
LINE
  5
1262EB
  8
OBJECT
 10
12420.0
 20
-1163.0
 30
0.0
 11
12420.0
 21
-1175.0
 31
0.0
1001
ACDBBLOCKREPETAG
1070
     1
1071
        9
1005
1262EB
  0
LINE
  5
1262EC
  8
OBJECT
 10
12580.0
 20
-1163.0
 30
0.0
 11
12580.0
 21
-1175.0
 31
0.0
1001
ACDBBLOCKREPETAG
1070
     1
1071
       10
1005
1262EC
  0
LINE
  5
1262ED
  8
OBJECT
 10
12367.0
 20
-1029.0
 30
0.0
 11
12360.0
 21
-1029.0
 31
0.0
1001
ACDBBLOCKREPETAG
1070
     1
1071
       23
1005
1262ED
  0
LINE
  5
1262EE
  8
OBJECT
 10
12360.0
 20
-1029.0
 30
0.0
 11
12360.0
 21
-1136.0
 31
0.0
1001
ACDBBLOCKREPETAG
1070
     1
1071
       24
1005
1262EE
  0
LINE
  5
1262EF
  8
OBJECT
 10
12415.5
 20
-1030.500000000065
 30
0.0
 11
12415.5
 21
-1133.5
 31
0.0
1001
ACDBBLOCKREPETAG
1070
     1
1071
       25
1005
1262EF
  0
ARC
  5
1262F0
  8
OBJECT
 10
12418.5
 20
-1030.500000000065
 30
0.0
 40
3.0
 50
90.0
 51
180.0
1001
ACDBBLOCKREPETAG
1070
     1
1071
       26
1005
1262F0
  0
LINE
  5
1262F1
  8
OBJECT
 10
12367.0
 20
-1136.0
 30
0.0
 11
12367.0
 21
-1029.0
 31
0.0
1001
ACDBBLOCKREPETAG
1070
     1
1071
       27
1005
1262F1
  0
LINE
  5
1262F2
  8
CENTER
 10
12345.0
 20
-1084.0
 30
0.0
 11
12458.65508008699
 21
-1084.000000000065
 31
0.0
1001
ACDBBLOCKREPETAG
1070
     1
1071
       28
1005
1262F2
  0
LINE
  5
1262F3
  8
OBJECT
 10
12367.0
 20
-1032.0
 30
0.0
 11
12403.0
 21
-1032.0
 31
0.0
1001
ACDBBLOCKREPETAG
1070
     1
1071
       29
1005
1262F3
  0
LINE
  5
1262F4
  8
OBJECT
 10
12403.0
 20
-1032.0
 30
0.0
 11
12403.0
 21
-1136.0
 31
0.0
1001
ACDBBLOCKREPETAG
1070
     1
1071
       30
1005
1262F4
  0
LINE
  5
1262F5
  8
OBJECT
 10
12403.0
 20
-1136.0
 30
0.0
 11
12360.0
 21
-1136.0
 31
0.0
1001
ACDBBLOCKREPETAG
1070
     1
1071
       31
1005
1262F5
  0
LINE
  5
1262F6
  8
OBJECT
 10
12407.0
 20
-1036.5
 30
0.0
 11
12415.5
 21
-1036.5
 31
0.0
1001
ACDBBLOCKREPETAG
1070
     1
1071
       32
1005
1262F6
  0
LINE
  5
1262F7
  8
OBJECT
 10
12415.5
 20
-1131.5
 30
0.0
 11
12407.0
 21
-1131.5
 31
0.0
1001
ACDBBLOCKREPETAG
1070
     1
1071
       33
1005
1262F7
  0
LINE
  5
1262F8
  8
OBJECT
 10
12407.0
 20
-1131.5
 30
0.0
 11
12407.0
 21
-1036.5
 31
0.0
1001
ACDBBLOCKREPETAG
1070
     1
1071
       34
1005
1262F8
  0
LINE
  5
1262F9
  8
OBJECT
 10
12403.0
 20
-1032.0
 30
0.0
 11
12407.0
 21
-1036.5
 31
0.0
1001
ACDBBLOCKREPETAG
1070
     1
1071
       35
1005
1262F9
  0
LINE
  5
1262FA
  8
OBJECT
 10
12403.0
 20
-1136.0
 30
0.0
 11
12407.0
 21
-1131.5
 31
0.0
1001
ACDBBLOCKREPETAG
1070
     1
1071
       36
1005
1262FA
  0
LINE
  5
1262FB
  8
HIDDEN
 10
12412.0
 20
-1046.0
 30
0.0
 11
12412.0
 21
-1122.0
 31
0.0
1001
ACDBBLOCKREPETAG
1070
     1
1071
       37
1005
1262FB
  0
ARC
  5
1262FC
  8
OBJECT
 10
12335.121727121221
 20
-1092.409507261229
 30
0.0
 40
110.86635228309
 50
16.95964619565439
 51
35.836572580695218
1001
ACDBBLOCKREPETAG
1070
     1
1071
       38
1005
1262FC
  0
ARC
  5
1262FD
  8
OBJECT
 10
12382.86401122309
 20
-1077.287749718449
 30
0.0
 40
60.791749880358971
 50
0.2712030171730965
 51
16.452795347786878
1001
ACDBBLOCKREPETAG
1070
     1
1071
       39
1005
1262FD
  0
ARC
  5
1262FE
  8
OBJECT
 10
12382.86400434375
 20
-1083.7122497599
 30
0.0
 40
60.79175676209487
 50
343.54722053947972
 51
359.7287965218548
1001
ACDBBLOCKREPETAG
1070
     1
1071
       40
1005
1262FE
  0
ARC
  5
1262FF
  8
OBJECT
 10
12335.121727121221
 20
-1068.590492738836
 30
0.0
 40
110.8663522830916
 50
324.16342741930481
 51
343.04035380434561
1001
ACDBBLOCKREPETAG
1070
     1
1071
       41
1005
1262FF
  0
LINE
  5
126300
  8
OBJECT
 10
12443.65508008699
 20
-1077.0000000000359
 30
0.0
 11
12443.65508008699
 21
-1084.000000000033
 31
0.0
1001
ACDBBLOCKREPETAG
1070
     1
1071
       42
1005
126300
  0
LINE
  5
126301
  8
OBJECT
 10
12425.0
 20
-1027.500000000065
 30
0.0
 11
12418.5
 21
-1027.500000000065
 31
0.0
1001
ACDBBLOCKREPETAG
1070
     1
1071
       43
1005
126301
  0
LINE
  5
126302
  8
OBJECT
 10
12425.0
 20
-1133.5
 30
0.0
 11
12415.5
 21
-1133.5
 31
0.0
1001
ACDBBLOCKREPETAG
1070
     1
1071
       44
1005
126302
  0
LINE
  5
126303
  8
OBJECT
 10
12425.0
 20
-1133.5
 30
0.0
 11
12425.0
 21
-1163.0
 31
0.0
1001
ACDBBLOCKREPETAG
1070
     1
1071
        1
1005
1262E6
  0
POINT
  5
126304
  8
DOTS
 10
12500.0
 20
-1136.0
 30
0.0
  0
LINE
  5
126305
  8
DIM
 10
12665.0
 20
-696.0
 30
0.0
 11
12719.424581672751
 21
-696.0
 31
0.0
  0
LINE
  5
126306
  8
DIM
 10
12413.0
 20
-1136.0000000000109
 30
0.0
 11
12719.424581672751
 21
-1136.0000000000109
 31
0.0
  0
LINE
  5
126307
  8
DIM
 10
12709.424581672751
 20
-716.0
 30
0.0
 11
12709.424581672751
 21
-1116.00000000001
 31
0.0
  0
INSERT
  5
126308
  8
DIM
  2
_OPEN30
 10
12709.424581672751
 20
-696.0
 30
0.0
 41
20.0
 42
20.0
 43
20.0
 50
90.0
  0
INSERT
  5
126309
  8
DIM
  2
_OPEN30
 10
12709.424581672751
 20
-1136.0000000000109
 30
0.0
 41
20.0
 42
20.0
 43
20.0
 50
270.0
  0
INSERT
  5
12630A
  8
OBJECT
  2
*U36
 10
0.0
 20
0.0
 30
0.0
  0
LINE
  5
12630B
  8
DIM
 10
12405.5
 20
-1136.00000000001
 30
0.0
 11
12292.14939336144
 21
-1136.00000000001
 31
0.0
  0
LINE
  5
12630C
  8
DIM
 10
12422.999999999991
 20
-1425.999999999997
 30
0.0
 11
12292.14939336144
 21
-1425.999999999997
 31
0.0
  0
LINE
  5
12630D
  8
DIM
 10
12302.14939336144
 20
-1156.00000000001
 30
0.0
 11
12302.14939336144
 21
-1405.999999999997
 31
0.0
  0
INSERT
  5
12630E
  8
DIM
  2
_OPEN30
 10
12302.14939336144
 20
-1136.00000000001
 30
0.0
 41
20.0
 42
20.0
 43
20.0
 50
90.0
  0
INSERT
  5
12630F
  8
DIM
  2
_OPEN30
 10
12302.14939336144
 20
-1425.999999999997
 30
0.0
 41
20.0
 42
20.0
 43
20.0
 50
270.0
  0
INSERT
  5
126310
  8
OBJECT
  2
*U37
 10
0.0
 20
0.0
 30
0.0
  0
LINE
  5
126311
  8
OBJECT
 10
10425.0
 20
-890.0
 30
0.0
 11
10425.0
 21
-1027.500000000065
 31
0.0
1001
ACDBBLOCKREPETAG
1070
     1
1071
        1
1005
126311
  0
LINE
  5
126312
  8
OBJECT
 10
10575.0
 20
-889.99999999999409
 30
0.0
 11
10575.0
 21
-1163.0
 31
0.0
1001
ACDBBLOCKREPETAG
1070
     1
1071
        3
1005
126312
  0
LINE
  5
126313
  8
CENTER
 10
10500.0
 20
-890.0
 30
0.0
 11
10500.0
 21
-1175.0
 31
0.0
1001
ACDBBLOCKREPETAG
1070
     1
1071
        6
1005
126313
  0
LINE
  5
126314
  8
OBJECT
 10
10420.0
 20
-1175.0
 30
0.0
 11
10580.0
 21
-1175.0
 31
0.0
1001
ACDBBLOCKREPETAG
1070
     1
1071
        7
1005
126314
  0
LINE
  5
126315
  8
OBJECT
 10
10420.0
 20
-1163.0
 30
0.0
 11
10580.0
 21
-1163.0
 31
0.0
1001
ACDBBLOCKREPETAG
1070
     1
1071
        8
1005
126315
  0
LINE
  5
126316
  8
OBJECT
 10
10420.0
 20
-1163.0
 30
0.0
 11
10420.0
 21
-1175.0
 31
0.0
1001
ACDBBLOCKREPETAG
1070
     1
1071
        9
1005
126316
  0
LINE
  5
126317
  8
OBJECT
 10
10580.0
 20
-1163.0
 30
0.0
 11
10580.0
 21
-1175.0
 31
0.0
1001
ACDBBLOCKREPETAG
1070
     1
1071
       10
1005
126317
  0
LINE
  5
126318
  8
OBJECT
 10
10367.0
 20
-1029.0
 30
0.0
 11
10360.0
 21
-1029.0
 31
0.0
1001
ACDBBLOCKREPETAG
1070
     1
1071
       23
1005
126318
  0
LINE
  5
126319
  8
OBJECT
 10
10360.0
 20
-1029.0
 30
0.0
 11
10360.0
 21
-1136.0
 31
0.0
1001
ACDBBLOCKREPETAG
1070
     1
1071
       24
1005
126319
  0
LINE
  5
12631A
  8
OBJECT
 10
10415.5
 20
-1030.500000000065
 30
0.0
 11
10415.5
 21
-1133.5
 31
0.0
1001
ACDBBLOCKREPETAG
1070
     1
1071
       25
1005
12631A
  0
ARC
  5
12631B
  8
OBJECT
 10
10418.5
 20
-1030.500000000065
 30
0.0
 40
3.0
 50
90.0
 51
180.0
1001
ACDBBLOCKREPETAG
1070
     1
1071
       26
1005
12631B
  0
LINE
  5
12631C
  8
OBJECT
 10
10367.0
 20
-1136.0
 30
0.0
 11
10367.0
 21
-1029.0
 31
0.0
1001
ACDBBLOCKREPETAG
1070
     1
1071
       27
1005
12631C
  0
LINE
  5
12631D
  8
CENTER
 10
10345.0
 20
-1084.0
 30
0.0
 11
10458.65508008699
 21
-1084.000000000065
 31
0.0
1001
ACDBBLOCKREPETAG
1070
     1
1071
       28
1005
12631D
  0
LINE
  5
12631E
  8
OBJECT
 10
10367.0
 20
-1032.0
 30
0.0
 11
10403.0
 21
-1032.0
 31
0.0
1001
ACDBBLOCKREPETAG
1070
     1
1071
       29
1005
12631E
  0
LINE
  5
12631F
  8
OBJECT
 10
10403.0
 20
-1032.0
 30
0.0
 11
10403.0
 21
-1136.0
 31
0.0
1001
ACDBBLOCKREPETAG
1070
     1
1071
       30
1005
12631F
  0
LINE
  5
126320
  8
OBJECT
 10
10403.0
 20
-1136.0
 30
0.0
 11
10360.0
 21
-1136.0
 31
0.0
1001
ACDBBLOCKREPETAG
1070
     1
1071
       31
1005
126320
  0
LINE
  5
126321
  8
OBJECT
 10
10407.0
 20
-1036.5
 30
0.0
 11
10415.5
 21
-1036.5
 31
0.0
1001
ACDBBLOCKREPETAG
1070
     1
1071
       32
1005
126321
  0
LINE
  5
126322
  8
OBJECT
 10
10415.5
 20
-1131.5
 30
0.0
 11
10407.0
 21
-1131.5
 31
0.0
1001
ACDBBLOCKREPETAG
1070
     1
1071
       33
1005
126322
  0
LINE
  5
126323
  8
OBJECT
 10
10407.0
 20
-1131.5
 30
0.0
 11
10407.0
 21
-1036.5
 31
0.0
1001
ACDBBLOCKREPETAG
1070
     1
1071
       34
1005
126323
  0
LINE
  5
126324
  8
OBJECT
 10
10403.0
 20
-1032.0
 30
0.0
 11
10407.0
 21
-1036.5
 31
0.0
1001
ACDBBLOCKREPETAG
1070
     1
1071
       35
1005
126324
  0
LINE
  5
126325
  8
OBJECT
 10
10403.0
 20
-1136.0
 30
0.0
 11
10407.0
 21
-1131.5
 31
0.0
1001
ACDBBLOCKREPETAG
1070
     1
1071
       36
1005
126325
  0
LINE
  5
126326
  8
HIDDEN
 10
10412.0
 20
-1046.0
 30
0.0
 11
10412.0
 21
-1122.0
 31
0.0
1001
ACDBBLOCKREPETAG
1070
     1
1071
       37
1005
126326
  0
ARC
  5
126327
  8
OBJECT
 10
10335.121727121221
 20
-1092.409507261229
 30
0.0
 40
110.86635228309
 50
16.95964619565439
 51
35.836572580695218
1001
ACDBBLOCKREPETAG
1070
     1
1071
       38
1005
126327
  0
ARC
  5
126328
  8
OBJECT
 10
10382.86401122309
 20
-1077.287749718449
 30
0.0
 40
60.791749880358971
 50
0.2712030171730965
 51
16.452795347786878
1001
ACDBBLOCKREPETAG
1070
     1
1071
       39
1005
126328
  0
ARC
  5
126329
  8
OBJECT
 10
10382.86400434375
 20
-1083.7122497599
 30
0.0
 40
60.79175676209487
 50
343.54722053947972
 51
359.7287965218548
1001
ACDBBLOCKREPETAG
1070
     1
1071
       40
1005
126329
  0
ARC
  5
12632A
  8
OBJECT
 10
10335.121727121221
 20
-1068.590492738836
 30
0.0
 40
110.8663522830916
 50
324.16342741930481
 51
343.04035380434561
1001
ACDBBLOCKREPETAG
1070
     1
1071
       41
1005
12632A
  0
LINE
  5
12632B
  8
OBJECT
 10
10443.65508008699
 20
-1077.0000000000359
 30
0.0
 11
10443.65508008699
 21
-1084.000000000033
 31
0.0
1001
ACDBBLOCKREPETAG
1070
     1
1071
       42
1005
12632B
  0
LINE
  5
12632C
  8
OBJECT
 10
10425.0
 20
-1027.500000000065
 30
0.0
 11
10418.5
 21
-1027.500000000065
 31
0.0
1001
ACDBBLOCKREPETAG
1070
     1
1071
       43
1005
12632C
  0
LINE
  5
12632D
  8
OBJECT
 10
10425.0
 20
-1133.5
 30
0.0
 11
10415.5
 21
-1133.5
 31
0.0
1001
ACDBBLOCKREPETAG
1070
     1
1071
       44
1005
12632D
  0
LINE
  5
12632E
  8
OBJECT
 10
10425.0
 20
-1133.5
 30
0.0
 11
10425.0
 21
-1163.0
 31
0.0
1001
ACDBBLOCKREPETAG
1070
     1
1071
        1
1005
126311
  0
POINT
  5
12632F
  8
DOTS
 10
10500.0
 20
-1136.0
 30
0.0
  0
LINE
  5
126330
  8
DIM
 10
10665.0
 20
-696.0
 30
0.0
 11
10719.424581672751
 21
-696.0
 31
0.0
  0
LINE
  5
126331
  8
DIM
 10
10413.0
 20
-1136.0000000000109
 30
0.0
 11
10719.424581672751
 21
-1136.0000000000109
 31
0.0
  0
LINE
  5
126332
  8
DIM
 10
10709.424581672751
 20
-716.0
 30
0.0
 11
10709.424581672751
 21
-1116.00000000001
 31
0.0
  0
INSERT
  5
126333
  8
DIM
  2
_OPEN30
 10
10709.424581672751
 20
-696.0
 30
0.0
 41
20.0
 42
20.0
 43
20.0
 50
90.0
  0
INSERT
  5
126334
  8
DIM
  2
_OPEN30
 10
10709.424581672751
 20
-1136.0000000000109
 30
0.0
 41
20.0
 42
20.0
 43
20.0
 50
270.0
  0
INSERT
  5
126335
  8
OBJECT
  2
*U38
 10
0.0
 20
0.0
 30
0.0
  0
LINE
  5
126336
  8
DIM
 10
10405.5
 20
-1136.00000000001
 30
0.0
 11
10292.14939336144
 21
-1136.00000000001
 31
0.0
  0
LINE
  5
126337
  8
DIM
 10
10422.999999999991
 20
-1425.999999999997
 30
0.0
 11
10292.14939336144
 21
-1425.999999999997
 31
0.0
  0
LINE
  5
126338
  8
DIM
 10
10302.14939336144
 20
-1156.00000000001
 30
0.0
 11
10302.14939336144
 21
-1405.999999999997
 31
0.0
  0
INSERT
  5
126339
  8
DIM
  2
_OPEN30
 10
10302.14939336144
 20
-1136.00000000001
 30
0.0
 41
20.0
 42
20.0
 43
20.0
 50
90.0
  0
INSERT
  5
12633A
  8
DIM
  2
_OPEN30
 10
10302.14939336144
 20
-1425.999999999997
 30
0.0
 41
20.0
 42
20.0
 43
20.0
 50
270.0
  0
INSERT
  5
12633B
  8
OBJECT
  2
*U39
 10
0.0
 20
0.0
 30
0.0
  0
LINE
  5
12633C
  8
OBJECT
 10
8425.0
 20
-890.0
 30
0.0
 11
8425.0
 21
-1027.500000000065
 31
0.0
1001
ACDBBLOCKREPETAG
1070
     1
1071
        1
1005
12633C
  0
LINE
  5
12633D
  8
OBJECT
 10
8575.0
 20
-889.99999999999409
 30
0.0
 11
8575.0
 21
-1163.0
 31
0.0
1001
ACDBBLOCKREPETAG
1070
     1
1071
        3
1005
12633D
  0
LINE
  5
12633E
  8
CENTER
 10
8500.0
 20
-890.0
 30
0.0
 11
8500.0
 21
-1175.0
 31
0.0
1001
ACDBBLOCKREPETAG
1070
     1
1071
        6
1005
12633E
  0
LINE
  5
12633F
  8
OBJECT
 10
8420.0
 20
-1175.0
 30
0.0
 11
8580.0
 21
-1175.0
 31
0.0
1001
ACDBBLOCKREPETAG
1070
     1
1071
        7
1005
12633F
  0
LINE
  5
126340
  8
OBJECT
 10
8420.0
 20
-1163.0
 30
0.0
 11
8580.0
 21
-1163.0
 31
0.0
1001
ACDBBLOCKREPETAG
1070
     1
1071
        8
1005
126340
  0
LINE
  5
126341
  8
OBJECT
 10
8420.0
 20
-1163.0
 30
0.0
 11
8420.0
 21
-1175.0
 31
0.0
1001
ACDBBLOCKREPETAG
1070
     1
1071
        9
1005
126341
  0
LINE
  5
126342
  8
OBJECT
 10
8580.0
 20
-1163.0
 30
0.0
 11
8580.0
 21
-1175.0
 31
0.0
1001
ACDBBLOCKREPETAG
1070
     1
1071
       10
1005
126342
  0
LINE
  5
126343
  8
OBJECT
 10
8367.0
 20
-1029.0
 30
0.0
 11
8360.0
 21
-1029.0
 31
0.0
1001
ACDBBLOCKREPETAG
1070
     1
1071
       23
1005
126343
  0
LINE
  5
126344
  8
OBJECT
 10
8360.0
 20
-1029.0
 30
0.0
 11
8360.0
 21
-1136.0
 31
0.0
1001
ACDBBLOCKREPETAG
1070
     1
1071
       24
1005
126344
  0
LINE
  5
126345
  8
OBJECT
 10
8415.4999999999982
 20
-1030.500000000065
 30
0.0
 11
8415.4999999999982
 21
-1133.5
 31
0.0
1001
ACDBBLOCKREPETAG
1070
     1
1071
       25
1005
126345
  0
ARC
  5
126346
  8
OBJECT
 10
8418.4999999999982
 20
-1030.500000000065
 30
0.0
 40
3.0
 50
90.0
 51
180.0
1001
ACDBBLOCKREPETAG
1070
     1
1071
       26
1005
126346
  0
LINE
  5
126347
  8
OBJECT
 10
8367.0
 20
-1136.0
 30
0.0
 11
8367.0
 21
-1029.0
 31
0.0
1001
ACDBBLOCKREPETAG
1070
     1
1071
       27
1005
126347
  0
LINE
  5
126348
  8
CENTER
 10
8345.0
 20
-1084.0
 30
0.0
 11
8458.6550800869954
 21
-1084.000000000065
 31
0.0
1001
ACDBBLOCKREPETAG
1070
     1
1071
       28
1005
126348
  0
LINE
  5
126349
  8
OBJECT
 10
8367.0
 20
-1032.0
 30
0.0
 11
8403.0
 21
-1032.0
 31
0.0
1001
ACDBBLOCKREPETAG
1070
     1
1071
       29
1005
126349
  0
LINE
  5
12634A
  8
OBJECT
 10
8403.0
 20
-1032.0
 30
0.0
 11
8403.0
 21
-1136.0
 31
0.0
1001
ACDBBLOCKREPETAG
1070
     1
1071
       30
1005
12634A
  0
LINE
  5
12634B
  8
OBJECT
 10
8403.0
 20
-1136.0
 30
0.0
 11
8360.0
 21
-1136.0
 31
0.0
1001
ACDBBLOCKREPETAG
1070
     1
1071
       31
1005
12634B
  0
LINE
  5
12634C
  8
OBJECT
 10
8407.0
 20
-1036.5
 30
0.0
 11
8415.4999999999982
 21
-1036.5
 31
0.0
1001
ACDBBLOCKREPETAG
1070
     1
1071
       32
1005
12634C
  0
LINE
  5
12634D
  8
OBJECT
 10
8415.4999999999982
 20
-1131.5
 30
0.0
 11
8407.0
 21
-1131.5
 31
0.0
1001
ACDBBLOCKREPETAG
1070
     1
1071
       33
1005
12634D
  0
LINE
  5
12634E
  8
OBJECT
 10
8407.0
 20
-1131.5
 30
0.0
 11
8407.0
 21
-1036.5
 31
0.0
1001
ACDBBLOCKREPETAG
1070
     1
1071
       34
1005
12634E
  0
LINE
  5
12634F
  8
OBJECT
 10
8403.0
 20
-1032.0
 30
0.0
 11
8407.0
 21
-1036.5
 31
0.0
1001
ACDBBLOCKREPETAG
1070
     1
1071
       35
1005
12634F
  0
LINE
  5
126350
  8
OBJECT
 10
8403.0
 20
-1136.0
 30
0.0
 11
8407.0
 21
-1131.5
 31
0.0
1001
ACDBBLOCKREPETAG
1070
     1
1071
       36
1005
126350
  0
LINE
  5
126351
  8
HIDDEN
 10
8412.0
 20
-1046.0
 30
0.0
 11
8412.0
 21
-1122.0
 31
0.0
1001
ACDBBLOCKREPETAG
1070
     1
1071
       37
1005
126351
  0
ARC
  5
126352
  8
OBJECT
 10
8335.1217271212263
 20
-1092.409507261229
 30
0.0
 40
110.86635228309
 50
16.95964619565439
 51
35.836572580695218
1001
ACDBBLOCKREPETAG
1070
     1
1071
       38
1005
126352
  0
ARC
  5
126353
  8
OBJECT
 10
8382.8640112230933
 20
-1077.287749718449
 30
0.0
 40
60.791749880358971
 50
0.2712030171730965
 51
16.452795347786878
1001
ACDBBLOCKREPETAG
1070
     1
1071
       39
1005
126353
  0
ARC
  5
126354
  8
OBJECT
 10
8382.8640043437481
 20
-1083.7122497599
 30
0.0
 40
60.79175676209487
 50
343.54722053947972
 51
359.7287965218548
1001
ACDBBLOCKREPETAG
1070
     1
1071
       40
1005
126354
  0
ARC
  5
126355
  8
OBJECT
 10
8335.1217271212263
 20
-1068.590492738836
 30
0.0
 40
110.8663522830916
 50
324.16342741930481
 51
343.04035380434561
1001
ACDBBLOCKREPETAG
1070
     1
1071
       41
1005
126355
  0
LINE
  5
126356
  8
OBJECT
 10
8443.6550800869954
 20
-1077.0000000000359
 30
0.0
 11
8443.6550800869954
 21
-1084.000000000033
 31
0.0
1001
ACDBBLOCKREPETAG
1070
     1
1071
       42
1005
126356
  0
LINE
  5
126357
  8
OBJECT
 10
8425.0
 20
-1027.500000000065
 30
0.0
 11
8418.4999999999982
 21
-1027.500000000065
 31
0.0
1001
ACDBBLOCKREPETAG
1070
     1
1071
       43
1005
126357
  0
LINE
  5
126358
  8
OBJECT
 10
8425.0
 20
-1133.5
 30
0.0
 11
8415.4999999999982
 21
-1133.5
 31
0.0
1001
ACDBBLOCKREPETAG
1070
     1
1071
       44
1005
126358
  0
LINE
  5
126359
  8
OBJECT
 10
8425.0
 20
-1133.5
 30
0.0
 11
8425.0
 21
-1163.0
 31
0.0
1001
ACDBBLOCKREPETAG
1070
     1
1071
        1
1005
12633C
  0
POINT
  5
12635A
  8
DOTS
 10
8500.0
 20
-1136.0
 30
0.0
  0
LINE
  5
12635B
  8
DIM
 10
8665.0
 20
-696.0
 30
0.0
 11
8719.4245816727544
 21
-696.0
 31
0.0
  0
LINE
  5
12635C
  8
DIM
 10
8413.0
 20
-1136.0000000000109
 30
0.0
 11
8719.4245816727544
 21
-1136.0000000000109
 31
0.0
  0
LINE
  5
12635D
  8
DIM
 10
8709.4245816727544
 20
-716.0
 30
0.0
 11
8709.4245816727544
 21
-1116.00000000001
 31
0.0
  0
INSERT
  5
12635E
  8
DIM
  2
_OPEN30
 10
8709.4245816727544
 20
-696.0
 30
0.0
 41
20.0
 42
20.0
 43
20.0
 50
90.0
  0
INSERT
  5
12635F
  8
DIM
  2
_OPEN30
 10
8709.4245816727544
 20
-1136.0000000000109
 30
0.0
 41
20.0
 42
20.0
 43
20.0
 50
270.0
  0
INSERT
  5
126360
  8
OBJECT
  2
*U40
 10
0.0
 20
0.0
 30
0.0
  0
LINE
  5
126361
  8
OBJECT
 10
6425.0
 20
-890.0
 30
0.0
 11
6425.0
 21
-1027.500000000065
 31
0.0
1001
ACDBBLOCKREPETAG
1070
     1
1071
        1
1005
126361
  0
LINE
  5
126362
  8
OBJECT
 10
6575.0
 20
-889.99999999999409
 30
0.0
 11
6575.0
 21
-1163.0
 31
0.0
1001
ACDBBLOCKREPETAG
1070
     1
1071
        3
1005
126362
  0
LINE
  5
126363
  8
CENTER
 10
6500.0
 20
-890.0
 30
0.0
 11
6500.0
 21
-1175.0
 31
0.0
1001
ACDBBLOCKREPETAG
1070
     1
1071
        6
1005
126363
  0
LINE
  5
126364
  8
OBJECT
 10
6420.0
 20
-1175.0
 30
0.0
 11
6580.0
 21
-1175.0
 31
0.0
1001
ACDBBLOCKREPETAG
1070
     1
1071
        7
1005
126364
  0
LINE
  5
126365
  8
OBJECT
 10
6420.0
 20
-1163.0
 30
0.0
 11
6580.0
 21
-1163.0
 31
0.0
1001
ACDBBLOCKREPETAG
1070
     1
1071
        8
1005
126365
  0
LINE
  5
126366
  8
OBJECT
 10
6420.0
 20
-1163.0
 30
0.0
 11
6420.0
 21
-1175.0
 31
0.0
1001
ACDBBLOCKREPETAG
1070
     1
1071
        9
1005
126366
  0
LINE
  5
126367
  8
OBJECT
 10
6580.0
 20
-1163.0
 30
0.0
 11
6580.0
 21
-1175.0
 31
0.0
1001
ACDBBLOCKREPETAG
1070
     1
1071
       10
1005
126367
  0
LINE
  5
126368
  8
OBJECT
 10
6367.0
 20
-1029.0
 30
0.0
 11
6360.0
 21
-1029.0
 31
0.0
1001
ACDBBLOCKREPETAG
1070
     1
1071
       23
1005
126368
  0
LINE
  5
126369
  8
OBJECT
 10
6360.0
 20
-1029.0
 30
0.0
 11
6360.0
 21
-1136.0
 31
0.0
1001
ACDBBLOCKREPETAG
1070
     1
1071
       24
1005
126369
  0
LINE
  5
12636A
  8
OBJECT
 10
6415.5
 20
-1030.500000000065
 30
0.0
 11
6415.5
 21
-1133.5
 31
0.0
1001
ACDBBLOCKREPETAG
1070
     1
1071
       25
1005
12636A
  0
ARC
  5
12636B
  8
OBJECT
 10
6418.5
 20
-1030.500000000065
 30
0.0
 40
3.0
 50
90.0
 51
180.0
1001
ACDBBLOCKREPETAG
1070
     1
1071
       26
1005
12636B
  0
LINE
  5
12636C
  8
OBJECT
 10
6367.0
 20
-1136.0
 30
0.0
 11
6367.0
 21
-1029.0
 31
0.0
1001
ACDBBLOCKREPETAG
1070
     1
1071
       27
1005
12636C
  0
LINE
  5
12636D
  8
CENTER
 10
6345.0
 20
-1084.0
 30
0.0
 11
6458.6550800869954
 21
-1084.000000000065
 31
0.0
1001
ACDBBLOCKREPETAG
1070
     1
1071
       28
1005
12636D
  0
LINE
  5
12636E
  8
OBJECT
 10
6367.0
 20
-1032.0
 30
0.0
 11
6403.0
 21
-1032.0
 31
0.0
1001
ACDBBLOCKREPETAG
1070
     1
1071
       29
1005
12636E
  0
LINE
  5
12636F
  8
OBJECT
 10
6403.0
 20
-1032.0
 30
0.0
 11
6403.0
 21
-1136.0
 31
0.0
1001
ACDBBLOCKREPETAG
1070
     1
1071
       30
1005
12636F
  0
LINE
  5
126370
  8
OBJECT
 10
6403.0
 20
-1136.0
 30
0.0
 11
6360.0
 21
-1136.0
 31
0.0
1001
ACDBBLOCKREPETAG
1070
     1
1071
       31
1005
126370
  0
LINE
  5
126371
  8
OBJECT
 10
6407.0
 20
-1036.5
 30
0.0
 11
6415.5
 21
-1036.5
 31
0.0
1001
ACDBBLOCKREPETAG
1070
     1
1071
       32
1005
126371
  0
LINE
  5
126372
  8
OBJECT
 10
6415.5
 20
-1131.5
 30
0.0
 11
6407.0
 21
-1131.5
 31
0.0
1001
ACDBBLOCKREPETAG
1070
     1
1071
       33
1005
126372
  0
LINE
  5
126373
  8
OBJECT
 10
6407.0
 20
-1131.5
 30
0.0
 11
6407.0
 21
-1036.5
 31
0.0
1001
ACDBBLOCKREPETAG
1070
     1
1071
       34
1005
126373
  0
LINE
  5
126374
  8
OBJECT
 10
6403.0
 20
-1032.0
 30
0.0
 11
6407.0
 21
-1036.5
 31
0.0
1001
ACDBBLOCKREPETAG
1070
     1
1071
       35
1005
126374
  0
LINE
  5
126375
  8
OBJECT
 10
6403.0
 20
-1136.0
 30
0.0
 11
6407.0
 21
-1131.5
 31
0.0
1001
ACDBBLOCKREPETAG
1070
     1
1071
       36
1005
126375
  0
LINE
  5
126376
  8
HIDDEN
 10
6412.0
 20
-1046.0
 30
0.0
 11
6412.0
 21
-1122.0
 31
0.0
1001
ACDBBLOCKREPETAG
1070
     1
1071
       37
1005
126376
  0
ARC
  5
126377
  8
OBJECT
 10
6335.1217271212263
 20
-1092.409507261229
 30
0.0
 40
110.86635228309
 50
16.95964619565439
 51
35.836572580695218
1001
ACDBBLOCKREPETAG
1070
     1
1071
       38
1005
126377
  0
ARC
  5
126378
  8
OBJECT
 10
6382.8640112230942
 20
-1077.287749718449
 30
0.0
 40
60.791749880358971
 50
0.2712030171733432
 51
16.452795347786878
1001
ACDBBLOCKREPETAG
1070
     1
1071
       39
1005
126378
  0
ARC
  5
126379
  8
OBJECT
 10
6382.8640043437508
 20
-1083.7122497599
 30
0.0
 40
60.79175676209487
 50
343.54722053947972
 51
359.7287965218548
1001
ACDBBLOCKREPETAG
1070
     1
1071
       40
1005
126379
  0
ARC
  5
12637A
  8
OBJECT
 10
6335.1217271212263
 20
-1068.590492738836
 30
0.0
 40
110.8663522830916
 50
324.16342741930481
 51
343.04035380434561
1001
ACDBBLOCKREPETAG
1070
     1
1071
       41
1005
12637A
  0
LINE
  5
12637B
  8
OBJECT
 10
6443.6550800869954
 20
-1077.0000000000359
 30
0.0
 11
6443.6550800869954
 21
-1084.000000000033
 31
0.0
1001
ACDBBLOCKREPETAG
1070
     1
1071
       42
1005
12637B
  0
LINE
  5
12637C
  8
OBJECT
 10
6425.0
 20
-1027.500000000065
 30
0.0
 11
6418.5
 21
-1027.500000000065
 31
0.0
1001
ACDBBLOCKREPETAG
1070
     1
1071
       43
1005
12637C
  0
LINE
  5
12637D
  8
OBJECT
 10
6425.0
 20
-1133.5
 30
0.0
 11
6415.5
 21
-1133.5
 31
0.0
1001
ACDBBLOCKREPETAG
1070
     1
1071
       44
1005
12637D
  0
LINE
  5
12637E
  8
OBJECT
 10
6425.0
 20
-1133.5
 30
0.0
 11
6425.0
 21
-1163.0
 31
0.0
1001
ACDBBLOCKREPETAG
1070
     1
1071
        1
1005
126361
  0
POINT
  5
12637F
  8
DOTS
 10
6500.0
 20
-1136.0
 30
0.0
  0
LINE
  5
126380
  8
DIM
 10
6665.0
 20
-696.0
 30
0.0
 11
6719.4245816727562
 21
-696.0
 31
0.0
  0
LINE
  5
126381
  8
DIM
 10
6413.0
 20
-1136.0
 30
0.0
 11
6719.4245816727562
 21
-1136.0
 31
0.0
  0
LINE
  5
126382
  8
DIM
 10
6709.4245816727562
 20
-716.0
 30
0.0
 11
6709.4245816727562
 21
-1116.0
 31
0.0
  0
INSERT
  5
126383
  8
DIM
  2
_OPEN30
 10
6709.4245816727562
 20
-696.0
 30
0.0
 41
20.0
 42
20.0
 43
20.0
 50
90.0
  0
INSERT
  5
126384
  8
DIM
  2
_OPEN30
 10
6709.4245816727562
 20
-1136.0
 30
0.0
 41
20.0
 42
20.0
 43
20.0
 50
270.0
  0
INSERT
  5
126385
  8
OBJECT
  2
*U41
 10
0.0
 20
0.0
 30
0.0
  0
LINE
  5
126386
  8
OBJECT
 10
4425.0
 20
-890.0
 30
0.0
 11
4425.0
 21
-1027.500000000065
 31
0.0
1001
ACDBBLOCKREPETAG
1070
     1
1071
        1
1005
126386
  0
LINE
  5
126387
  8
OBJECT
 10
4575.0
 20
-889.99999999999409
 30
0.0
 11
4575.0
 21
-1163.0
 31
0.0
1001
ACDBBLOCKREPETAG
1070
     1
1071
        3
1005
126387
  0
LINE
  5
126388
  8
CENTER
 10
4500.0
 20
-890.0
 30
0.0
 11
4500.0
 21
-1175.0
 31
0.0
1001
ACDBBLOCKREPETAG
1070
     1
1071
        6
1005
126388
  0
LINE
  5
126389
  8
OBJECT
 10
4420.0
 20
-1175.0
 30
0.0
 11
4580.0
 21
-1175.0
 31
0.0
1001
ACDBBLOCKREPETAG
1070
     1
1071
        7
1005
126389
  0
LINE
  5
12638A
  8
OBJECT
 10
4420.0
 20
-1163.0
 30
0.0
 11
4580.0
 21
-1163.0
 31
0.0
1001
ACDBBLOCKREPETAG
1070
     1
1071
        8
1005
12638A
  0
LINE
  5
12638B
  8
OBJECT
 10
4420.0
 20
-1163.0
 30
0.0
 11
4420.0
 21
-1175.0
 31
0.0
1001
ACDBBLOCKREPETAG
1070
     1
1071
        9
1005
12638B
  0
LINE
  5
12638C
  8
OBJECT
 10
4580.0
 20
-1163.0
 30
0.0
 11
4580.0
 21
-1175.0
 31
0.0
1001
ACDBBLOCKREPETAG
1070
     1
1071
       10
1005
12638C
  0
LINE
  5
12638D
  8
OBJECT
 10
4367.0
 20
-1029.0
 30
0.0
 11
4360.0
 21
-1029.0
 31
0.0
1001
ACDBBLOCKREPETAG
1070
     1
1071
       23
1005
12638D
  0
LINE
  5
12638E
  8
OBJECT
 10
4360.0
 20
-1029.0
 30
0.0
 11
4360.0
 21
-1136.0
 31
0.0
1001
ACDBBLOCKREPETAG
1070
     1
1071
       24
1005
12638E
  0
LINE
  5
12638F
  8
OBJECT
 10
4415.5
 20
-1030.500000000065
 30
0.0
 11
4415.5
 21
-1133.5
 31
0.0
1001
ACDBBLOCKREPETAG
1070
     1
1071
       25
1005
12638F
  0
ARC
  5
126390
  8
OBJECT
 10
4418.5
 20
-1030.500000000065
 30
0.0
 40
3.0
 50
90.0
 51
180.0
1001
ACDBBLOCKREPETAG
1070
     1
1071
       26
1005
126390
  0
LINE
  5
126391
  8
OBJECT
 10
4367.0
 20
-1136.0
 30
0.0
 11
4367.0
 21
-1029.0
 31
0.0
1001
ACDBBLOCKREPETAG
1070
     1
1071
       27
1005
126391
  0
LINE
  5
126392
  8
CENTER
 10
4345.0
 20
-1084.0
 30
0.0
 11
4458.6550800869954
 21
-1084.000000000065
 31
0.0
1001
ACDBBLOCKREPETAG
1070
     1
1071
       28
1005
126392
  0
LINE
  5
126393
  8
OBJECT
 10
4367.0
 20
-1032.0
 30
0.0
 11
4403.0
 21
-1032.0
 31
0.0
1001
ACDBBLOCKREPETAG
1070
     1
1071
       29
1005
126393
  0
LINE
  5
126394
  8
OBJECT
 10
4403.0
 20
-1032.0
 30
0.0
 11
4403.0
 21
-1136.0
 31
0.0
1001
ACDBBLOCKREPETAG
1070
     1
1071
       30
1005
126394
  0
LINE
  5
126395
  8
OBJECT
 10
4403.0
 20
-1136.0
 30
0.0
 11
4360.0
 21
-1136.0
 31
0.0
1001
ACDBBLOCKREPETAG
1070
     1
1071
       31
1005
126395
  0
LINE
  5
126396
  8
OBJECT
 10
4407.0
 20
-1036.5
 30
0.0
 11
4415.5
 21
-1036.5
 31
0.0
1001
ACDBBLOCKREPETAG
1070
     1
1071
       32
1005
126396
  0
LINE
  5
126397
  8
OBJECT
 10
4415.5
 20
-1131.5
 30
0.0
 11
4407.0
 21
-1131.5
 31
0.0
1001
ACDBBLOCKREPETAG
1070
     1
1071
       33
1005
126397
  0
LINE
  5
126398
  8
OBJECT
 10
4407.0
 20
-1131.5
 30
0.0
 11
4407.0
 21
-1036.5
 31
0.0
1001
ACDBBLOCKREPETAG
1070
     1
1071
       34
1005
126398
  0
LINE
  5
126399
  8
OBJECT
 10
4403.0
 20
-1032.0
 30
0.0
 11
4407.0
 21
-1036.5
 31
0.0
1001
ACDBBLOCKREPETAG
1070
     1
1071
       35
1005
126399
  0
LINE
  5
12639A
  8
OBJECT
 10
4403.0
 20
-1136.0
 30
0.0
 11
4407.0
 21
-1131.5
 31
0.0
1001
ACDBBLOCKREPETAG
1070
     1
1071
       36
1005
12639A
  0
LINE
  5
12639B
  8
HIDDEN
 10
4412.0
 20
-1046.0
 30
0.0
 11
4412.0
 21
-1122.0
 31
0.0
1001
ACDBBLOCKREPETAG
1070
     1
1071
       37
1005
12639B
  0
ARC
  5
12639C
  8
OBJECT
 10
4335.1217271212254
 20
-1092.409507261229
 30
0.0
 40
110.86635228309
 50
16.95964619565439
 51
35.836572580695218
1001
ACDBBLOCKREPETAG
1070
     1
1071
       38
1005
12639C
  0
ARC
  5
12639D
  8
OBJECT
 10
4382.8640112230942
 20
-1077.287749718449
 30
0.0
 40
60.791749880358971
 50
0.2712030171733432
 51
16.452795347786878
1001
ACDBBLOCKREPETAG
1070
     1
1071
       39
1005
12639D
  0
ARC
  5
12639E
  8
OBJECT
 10
4382.8640043437499
 20
-1083.7122497599
 30
0.0
 40
60.79175676209487
 50
343.54722053947972
 51
359.7287965218548
1001
ACDBBLOCKREPETAG
1070
     1
1071
       40
1005
12639E
  0
ARC
  5
12639F
  8
OBJECT
 10
4335.1217271212254
 20
-1068.590492738836
 30
0.0
 40
110.8663522830916
 50
324.16342741930481
 51
343.04035380434561
1001
ACDBBLOCKREPETAG
1070
     1
1071
       41
1005
12639F
  0
LINE
  5
1263A0
  8
OBJECT
 10
4443.6550800869954
 20
-1077.0000000000359
 30
0.0
 11
4443.6550800869954
 21
-1084.000000000033
 31
0.0
1001
ACDBBLOCKREPETAG
1070
     1
1071
       42
1005
1263A0
  0
LINE
  5
1263A1
  8
OBJECT
 10
4425.0
 20
-1027.500000000065
 30
0.0
 11
4418.5
 21
-1027.500000000065
 31
0.0
1001
ACDBBLOCKREPETAG
1070
     1
1071
       43
1005
1263A1
  0
LINE
  5
1263A2
  8
OBJECT
 10
4425.0
 20
-1133.5
 30
0.0
 11
4415.5
 21
-1133.5
 31
0.0
1001
ACDBBLOCKREPETAG
1070
     1
1071
       44
1005
1263A2
  0
LINE
  5
1263A3
  8
OBJECT
 10
4425.0
 20
-1133.5
 30
0.0
 11
4425.0
 21
-1163.0
 31
0.0
1001
ACDBBLOCKREPETAG
1070
     1
1071
        1
1005
126386
  0
POINT
  5
1263A4
  8
DOTS
 10
4500.0
 20
-1136.0
 30
0.0
  0
LINE
  5
1263A5
  8
DIM
 10
4665.0
 20
-696.0
 30
0.0
 11
4719.4245816727571
 21
-696.0
 31
0.0
  0
LINE
  5
1263A6
  8
DIM
 10
4413.0
 20
-1136.0
 30
0.0
 11
4719.4245816727571
 21
-1136.0
 31
0.0
  0
LINE
  5
1263A7
  8
DIM
 10
4709.4245816727562
 20
-716.0
 30
0.0
 11
4709.4245816727562
 21
-1116.0
 31
0.0
  0
INSERT
  5
1263A8
  8
DIM
  2
_OPEN30
 10
4709.4245816727562
 20
-696.0
 30
0.0
 41
20.0
 42
20.0
 43
20.0
 50
90.0
  0
INSERT
  5
1263A9
  8
DIM
  2
_OPEN30
 10
4709.4245816727562
 20
-1136.0
 30
0.0
 41
20.0
 42
20.0
 43
20.0
 50
270.0
  0
INSERT
  5
1263AA
  8
OBJECT
  2
*U42
 10
0.0
 20
0.0
 30
0.0
  0
POLYLINE
  5
1263AB
  8
HIDDEN
 66
     1
 10
0.0
 20
0.0
 30
0.0
 70
     1
1001
ACDBBLOCKREPETAG
1070
     1
1071
      105
1005
0
  0
VERTEX
  5
12699A
  8
HIDDEN
 10
359.99999999987779
 20
-799.99999999999818
 30
0.0
  0
VERTEX
  5
12699B
  8
HIDDEN
 10
719.99999999975603
 20
-799.99999999999818
 30
0.0
  0
VERTEX
  5
12699C
  8
HIDDEN
 10
719.99999999975603
 20
-1263.9999999998399
 30
0.0
  0
VERTEX
  5
12699D
  8
HIDDEN
 10
359.99999999987779
 20
-1263.9999999998399
 30
0.0
  0
SEQEND
  5
12699E
  8
HIDDEN
  0
POLYLINE
  5
1263AC
  8
HIDDEN
 66
     1
 10
0.0
 20
0.0
 30
0.0
 70
     1
1001
ACDBBLOCKREPETAG
1070
     1
1071
      110
1005
0
  0
VERTEX
  5
12699F
  8
HIDDEN
 10
-0.0000000000002274
 20
-799.99999999999818
 30
0.0
  0
VERTEX
  5
1269A0
  8
HIDDEN
 10
359.99999999987779
 20
-799.99999999999818
 30
0.0
  0
VERTEX
  5
1269A1
  8
HIDDEN
 10
359.99999999987779
 20
-1263.9999999998399
 30
0.0
  0
VERTEX
  5
1269A2
  8
HIDDEN
 10
-0.0000000000002274
 20
-1263.9999999998399
 30
0.0
  0
SEQEND
  5
1269A3
  8
HIDDEN
  0
POLYLINE
  5
1263AD
  8
HIDDEN
 66
     1
 10
0.0
 20
0.0
 30
0.0
 70
     1
1001
ACDBBLOCKREPETAG
1070
     1
1071
      125
1005
0
  0
VERTEX
  5
1269A4
  8
HIDDEN
 10
-0.0000000000002274
 20
-1263.9999999998399
 30
0.0
  0
VERTEX
  5
1269A5
  8
HIDDEN
 10
359.99999999987779
 20
-1263.9999999998399
 30
0.0
  0
VERTEX
  5
1269A6
  8
HIDDEN
 10
359.99999999987779
 20
-1727.999999999681
 30
0.0
  0
VERTEX
  5
1269A7
  8
HIDDEN
 10
-0.0000000000002274
 20
-1727.999999999681
 30
0.0
  0
SEQEND
  5
1269A8
  8
HIDDEN
  0
POLYLINE
  5
1263AE
  8
HIDDEN
 66
     1
 10
0.0
 20
0.0
 30
0.0
 70
     1
1001
ACDBBLOCKREPETAG
1070
     1
1071
      110
1005
0
  0
VERTEX
  5
1269A9
  8
HIDDEN
 10
-0.0000000000002274
 20
0.0000000000009095
 30
0.0
  0
VERTEX
  5
1269AA
  8
HIDDEN
 10
359.99999999987779
 20
0.0000000000009095
 30
0.0
  0
VERTEX
  5
1269AB
  8
HIDDEN
 10
359.99999999987779
 20
-463.99999999984078
 30
0.0
  0
VERTEX
  5
1269AC
  8
HIDDEN
 10
-0.0000000000002274
 20
-463.99999999984078
 30
0.0
  0
SEQEND
  5
1269AD
  8
HIDDEN
  0
INSERT
  5
1263AF
  8
OBJECT
  2
*U43
 10
0.0
 20
0.0
 30
0.0
  0
LINE
  5
1263B0
  8
OBJECT
 10
118.00000000004179
 20
-99.000000000171866
 30
0.0
 11
118.00000000004179
 21
-92.000000000171866
 31
0.0
1001
ACDBBLOCKREPETAG
1070
     1
1071
       39
1005
1263B0
  0
LINE
  5
1263B1
  8
OBJECT
 10
118.00000000004179
 20
-92.000000000171866
 30
0.0
 11
242.00000000004181
 21
-92.000000000171866
 31
0.0
1001
ACDBBLOCKREPETAG
1070
     1
1071
       40
1005
1263B1
  0
LINE
  5
1263B2
  8
OBJECT
 10
242.00000000004181
 20
-92.000000000171866
 30
0.0
 11
242.00000000004181
 21
-99.000000000171866
 31
0.0
1001
ACDBBLOCKREPETAG
1070
     1
1071
       41
1005
1263B2
  0
LINE
  5
1263B3
  8
OBJECT
 10
242.00000000004181
 20
-99.000000000171866
 30
0.0
 11
118.00000000004179
 21
-99.000000000171866
 31
0.0
1001
ACDBBLOCKREPETAG
1070
     1
1071
       42
1005
1263B3
  0
LINE
  5
1263B4
  8
OBJECT
 10
121.00000000004179
 20
-99.000000000171866
 30
0.0
 11
121.00000000004179
 21
-135.00000000017181
 31
0.0
1001
ACDBBLOCKREPETAG
1070
     1
1071
       43
1005
1263B4
  0
LINE
  5
1263B5
  8
OBJECT
 10
121.00000000004179
 20
-135.00000000017181
 30
0.0
 11
239.00000000004181
 21
-135.00000000017181
 31
0.0
1001
ACDBBLOCKREPETAG
1070
     1
1071
       44
1005
1263B5
  0
LINE
  5
1263B6
  8
OBJECT
 10
239.00000000004181
 20
-135.00000000017181
 30
0.0
 11
239.00000000004181
 21
-99.000000000171866
 31
0.0
1001
ACDBBLOCKREPETAG
1070
     1
1071
       45
1005
1263B6
  0
LINE
  5
1263B7
  8
OBJECT
 10
125.50000000004179
 20
-139.00000000017181
 30
0.0
 11
125.50000000004179
 21
-146.00000000017181
 31
0.0
1001
ACDBBLOCKREPETAG
1070
     1
1071
       46
1005
1263B7
  0
LINE
  5
1263B8
  8
OBJECT
 10
234.50000000004181
 20
-146.00000000017181
 30
0.0
 11
234.50000000004181
 21
-139.00000000017181
 31
0.0
1001
ACDBBLOCKREPETAG
1070
     1
1071
       47
1005
1263B8
  0
LINE
  5
1263B9
  8
OBJECT
 10
234.50000000004181
 20
-139.00000000017181
 30
0.0
 11
125.50000000004179
 21
-139.00000000017181
 31
0.0
1001
ACDBBLOCKREPETAG
1070
     1
1071
       48
1005
1263B9
  0
LINE
  5
1263BA
  8
OBJECT
 10
121.00000000004179
 20
-135.00000000017181
 30
0.0
 11
125.50000000004179
 21
-139.00000000017181
 31
0.0
1001
ACDBBLOCKREPETAG
1070
     1
1071
       49
1005
1263BA
  0
LINE
  5
1263BB
  8
OBJECT
 10
239.00000000004181
 20
-135.00000000017181
 30
0.0
 11
234.50000000004181
 21
-139.00000000017181
 31
0.0
1001
ACDBBLOCKREPETAG
1070
     1
1071
       50
1005
1263BB
  0
LINE
  5
1263BC
  8
OBJECT
 10
118.00000000004179
 20
-149.00000000017101
 30
0.0
 11
118.00000000004179
 21
-152.00000000017181
 31
0.0
1001
ACDBBLOCKREPETAG
1070
     1
1071
       51
1005
1263BC
  0
ARC
  5
1263BD
  8
OBJECT
 10
121.00000000004179
 20
-149.00000000017101
 30
0.0
 40
3.0
 50
90.0
 51
180.0
1001
ACDBBLOCKREPETAG
1070
     1
1071
       52
1005
1263BD
  0
LINE
  5
1263BE
  8
OBJECT
 10
242.00000000004181
 20
-152.00000000017181
 30
0.0
 11
242.00000000004181
 21
-149.0000000001728
 31
0.0
1001
ACDBBLOCKREPETAG
1070
     1
1071
       53
1005
1263BE
  0
ARC
  5
1263BF
  8
OBJECT
 10
239.00000000004181
 20
-149.0000000001728
 30
0.0
 40
3.0
 50
0.0
 51
90.0
1001
ACDBBLOCKREPETAG
1070
     1
1071
       54
1005
1263BF
  0
LINE
  5
1263C0
  8
OBJECT
 10
239.00000000004181
 20
-146.0000000001728
 30
0.0
 11
121.00000000004179
 21
-146.00000000017101
 31
0.0
1001
ACDBBLOCKREPETAG
1070
     1
1071
       55
1005
1263C0
  0
LINE
  5
1263C1
  8
HIDDEN
 10
135.50000000004181
 20
-144.00000000017189
 30
0.0
 11
224.50000000004181
 21
-144.00000000017189
 31
0.0
1001
ACDBBLOCKREPETAG
1070
     1
1071
      426
1005
1263C1
  0
ARC
  5
1263C2
  8
OBJECT
 10
180.00000000004181
 20
-232.00000000017189
 30
0.0
 40
50.0
 50
28.819943000140022
 51
243.78043883603971
1001
ACDBBLOCKREPETAG
1070
     1
1071
       49
1005
1263C2
  0
ARC
  5
1263C3
  8
OBJECT
 10
180.00000000004181
 20
-232.00000000017189
 30
0.0
 40
50.0
 50
296.21956116401122
 51
318.52376955951968
1001
ACDBBLOCKREPETAG
1070
     1
1071
      170
1005
1263C3
  0
CIRCLE
  5
1263C4
  8
OBJECT
 10
180.00000000004181
 20
-232.00000000017189
 30
0.0
 40
70.0
1001
ACDBBLOCKREPETAG
1070
     1
1071
       50
1005
1263C4
  0
CIRCLE
  5
1263C5
  8
OBJECT
 10
180.00000000004181
 20
-232.00000000017189
 30
0.0
 40
77.0
1001
ACDBBLOCKREPETAG
1070
     1
1071
       51
1005
1263C5
  0
ARC
  5
1263C6
  8
OBJECT
 10
180.00000000004181
 20
-232.00000000017189
 30
0.0
 40
80.0
 50
140.80503257377961
 51
39.194967426220252
1001
ACDBBLOCKREPETAG
1070
     1
1071
       52
1005
1263C6
  0
LINE
  5
1263C7
  8
OBJECT
 10
118.00000000004179
 20
-186.3381997728473
 30
0.0
 11
118.00000000004179
 21
-152.00000000017181
 31
0.0
1001
ACDBBLOCKREPETAG
1070
     1
1071
       53
1005
1263C7
  0
LINE
  5
1263C8
  8
OBJECT
 10
242.00000000004181
 20
-186.3381997728473
 30
0.0
 11
242.00000000004181
 21
-152.00000000017181
 31
0.0
1001
ACDBBLOCKREPETAG
1070
     1
1071
       54
1005
1263C8
  0
LINE
  5
1263C9
  8
OBJECT
 10
223.8069471237595
 20
-207.89706690687029
 30
0.0
 11
212.55462200004149
 21
-211.34034300017541
 31
0.0
1001
ACDBBLOCKREPETAG
1070
     1
1071
      141
1005
1263C9
  0
LINE
  5
1263CA
  8
OBJECT
 10
198.22553374212291
 20
-245.207250098797
 30
0.0
 11
212.5546220000397
 21
-211.34034300017541
 31
0.0
1001
ACDBBLOCKREPETAG
1070
     1
1071
      143
1005
1263CA
  0
ARC
  5
1263CB
  8
OBJECT
 10
207.43512999909939
 20
-249.10383023827021
 30
0.0
 40
10.0
 50
157.066778292897
 51
244.01473437020459
1001
ACDBBLOCKREPETAG
1070
     1
1071
      144
1005
1263CB
  0
ARC
  5
1263CC
  8
OBJECT
 10
205.55386256733439
 20
-245.85116096204459
 30
0.0
 40
7.0
 50
157.066778292897
 51
244.0147337750746
1001
ACDBBLOCKREPETAG
1070
     1
1071
      145
1005
1263CC
  0
LINE
  5
1263CD
  8
OBJECT
 10
223.89888500822451
 20
-262.58002444487028
 30
0.0
 11
202.4868825336107
 21
-252.143508176935
 31
0.0
1001
ACDBBLOCKREPETAG
1070
     1
1071
      154
1005
1263CD
  0
LINE
  5
1263CE
  8
OBJECT
 10
220.71813901887009
 20
-266.70278309956279
 30
0.0
 11
203.0537300443502
 21
-258.09289773366339
 31
0.0
1001
ACDBBLOCKREPETAG
1070
     1
1071
      155
1005
1263CE
  0
ARC
  5
1263CF
  8
OBJECT
 10
187.12893698288639
 20
-255.42030469285689
 30
0.0
 40
60.031113246032611
 50
44.070201304186917
 51
52.339361060978852
1001
ACDBBLOCKREPETAG
1070
     1
1071
      156
1005
1263CF
  0
CIRCLE
  5
1263D0
  8
OBJECT
 10
180.00000000004181
 20
-232.00000000017189
 30
0.0
 40
53.5
1001
ACDBBLOCKREPETAG
1070
     1
1071
      157
1005
1263D0
  0
POINT
  5
1263D1
  8
DOTS
 10
180.00000000004181
 20
-232.00000000017189
 30
0.0
1001
ACDBBLOCKREPETAG
1070
     1
1071
      162
1005
1263D1
  0
LINE
  5
1263D2
  8
OBJECT
 10
156.17579607529291
 20
-277.67796144492331
 30
0.0
 11
154.40926451255919
 21
-278.98259525851881
 31
0.0
1001
ACDBBLOCKREPETAG
1070
     1
1071
      165
1005
1263D2
  0
ARC
  5
1263D3
  8
OBJECT
 10
159.1461853586772
 20
-281.69999917537177
 30
0.0
 40
5.0
 50
90.0
 51
126.4469224761369
1001
ACDBBLOCKREPETAG
1070
     1
1071
      166
1005
1263D3
  0
LINE
  5
1263D4
  8
OBJECT
 10
203.8242039247377
 20
-277.67796144479598
 30
0.0
 11
205.59073548768339
 21
-278.98259525843332
 31
0.0
1001
ACDBBLOCKREPETAG
1070
     1
1071
      167
1005
1263D4
  0
ARC
  5
1263D5
  8
OBJECT
 10
200.85381464152559
 20
-281.69999917537177
 30
0.0
 40
5.0
 50
53.553077526317523
 51
90.0
1001
ACDBBLOCKREPETAG
1070
     1
1071
      168
1005
1263D5
  0
LINE
  5
1263D6
  8
OBJECT
 10
200.85381464152559
 20
-276.69999917537177
 30
0.0
 11
159.1461853586772
 21
-276.69999917537177
 31
0.0
1001
ACDBBLOCKREPETAG
1070
     1
1071
      169
1005
1263D6
  0
TEXT
  5
1263D7
  8
SLIM
 10
149.1428571427966
 20
-443.99999999984971
 30
0.0
 40
48.0
  1
A3
 41
0.75
1001
ACDBBLOCKREPETAG
1070
     1
1071
      119
1005
0
  0
TEXT
  5
1263D8
  8
SLIM
 10
0.0000035665234464
 20
24.000004585317608
 30
0.0
 40
79.999999999972701
  1
上部枝管
 41
0.75
1001
ACDBBLOCKREPETAG
1070
     1
1071
      119
1005
1255DD
  0
LINE
  5
1263D9
  8
DIM
 10
8405.5000000000018
 20
-1136.00000000001
 30
0.0
 11
8292.1493933614383
 21
-1136.00000000001
 31
0.0
  0
LINE
  5
1263DA
  8
DIM
 10
8423.0422321049627
 20
-1385.9999999999991
 30
0.0
 11
8292.1493933614383
 21
-1385.9999999999991
 31
0.0
  0
LINE
  5
1263DB
  8
DIM
 10
8302.1493933614402
 20
-1156.00000000001
 30
0.0
 11
8302.1493933614402
 21
-1365.9999999999991
 31
0.0
  0
INSERT
  5
1263DC
  8
DIM
  2
_OPEN30
 10
8302.1493933614402
 20
-1136.00000000001
 30
0.0
 41
20.0
 42
20.0
 43
20.0
 50
90.0
  0
INSERT
  5
1263DD
  8
DIM
  2
_OPEN30
 10
8302.1493933614402
 20
-1385.9999999999991
 30
0.0
 41
20.0
 42
20.0
 43
20.0
 50
270.0
  0
INSERT
  5
1263DE
  8
OBJECT
  2
*U44
 10
0.0
 20
0.0
 30
0.0
  0
LINE
  5
1263DF
  8
OBJECT
 10
2425.0
 20
-890.0
 30
0.0
 11
2425.0
 21
-1027.500000000065
 31
0.0
1001
ACDBBLOCKREPETAG
1070
     1
1071
        1
1005
1263DF
  0
LINE
  5
1263E0
  8
OBJECT
 10
2575.0
 20
-889.99999999999409
 30
0.0
 11
2575.0
 21
-1163.0
 31
0.0
1001
ACDBBLOCKREPETAG
1070
     1
1071
        3
1005
1263E0
  0
LINE
  5
1263E1
  8
CENTER
 10
2500.0
 20
-890.0
 30
0.0
 11
2500.0
 21
-1175.0
 31
0.0
1001
ACDBBLOCKREPETAG
1070
     1
1071
        6
1005
1263E1
  0
LINE
  5
1263E2
  8
OBJECT
 10
2420.0
 20
-1175.0
 30
0.0
 11
2580.0
 21
-1175.0
 31
0.0
1001
ACDBBLOCKREPETAG
1070
     1
1071
        7
1005
1263E2
  0
LINE
  5
1263E3
  8
OBJECT
 10
2420.0
 20
-1163.0
 30
0.0
 11
2580.0
 21
-1163.0
 31
0.0
1001
ACDBBLOCKREPETAG
1070
     1
1071
        8
1005
1263E3
  0
LINE
  5
1263E4
  8
OBJECT
 10
2420.0
 20
-1163.0
 30
0.0
 11
2420.0
 21
-1175.0
 31
0.0
1001
ACDBBLOCKREPETAG
1070
     1
1071
        9
1005
1263E4
  0
LINE
  5
1263E5
  8
OBJECT
 10
2580.0
 20
-1163.0
 30
0.0
 11
2580.0
 21
-1175.0
 31
0.0
1001
ACDBBLOCKREPETAG
1070
     1
1071
       10
1005
1263E5
  0
LINE
  5
1263E6
  8
OBJECT
 10
2367.0
 20
-1029.0
 30
0.0
 11
2360.0
 21
-1029.0
 31
0.0
1001
ACDBBLOCKREPETAG
1070
     1
1071
       23
1005
1263E6
  0
LINE
  5
1263E7
  8
OBJECT
 10
2360.0
 20
-1029.0
 30
0.0
 11
2360.0
 21
-1136.0
 31
0.0
1001
ACDBBLOCKREPETAG
1070
     1
1071
       24
1005
1263E7
  0
LINE
  5
1263E8
  8
OBJECT
 10
2415.5
 20
-1030.500000000065
 30
0.0
 11
2415.5
 21
-1133.5
 31
0.0
1001
ACDBBLOCKREPETAG
1070
     1
1071
       25
1005
1263E8
  0
ARC
  5
1263E9
  8
OBJECT
 10
2418.5
 20
-1030.500000000065
 30
0.0
 40
3.0
 50
90.0
 51
180.0
1001
ACDBBLOCKREPETAG
1070
     1
1071
       26
1005
1263E9
  0
LINE
  5
1263EA
  8
OBJECT
 10
2367.0
 20
-1136.0
 30
0.0
 11
2367.0
 21
-1029.0
 31
0.0
1001
ACDBBLOCKREPETAG
1070
     1
1071
       27
1005
1263EA
  0
LINE
  5
1263EB
  8
CENTER
 10
2345.0
 20
-1084.0
 30
0.0
 11
2458.655080086995
 21
-1084.000000000065
 31
0.0
1001
ACDBBLOCKREPETAG
1070
     1
1071
       28
1005
1263EB
  0
LINE
  5
1263EC
  8
OBJECT
 10
2367.0
 20
-1032.0
 30
0.0
 11
2403.0
 21
-1032.0
 31
0.0
1001
ACDBBLOCKREPETAG
1070
     1
1071
       29
1005
1263EC
  0
LINE
  5
1263ED
  8
OBJECT
 10
2403.0
 20
-1032.0
 30
0.0
 11
2403.0
 21
-1136.0
 31
0.0
1001
ACDBBLOCKREPETAG
1070
     1
1071
       30
1005
1263ED
  0
LINE
  5
1263EE
  8
OBJECT
 10
2403.0
 20
-1136.0
 30
0.0
 11
2360.0
 21
-1136.0
 31
0.0
1001
ACDBBLOCKREPETAG
1070
     1
1071
       31
1005
1263EE
  0
LINE
  5
1263EF
  8
OBJECT
 10
2407.0
 20
-1036.5
 30
0.0
 11
2415.5
 21
-1036.5
 31
0.0
1001
ACDBBLOCKREPETAG
1070
     1
1071
       32
1005
1263EF
  0
LINE
  5
1263F0
  8
OBJECT
 10
2415.5
 20
-1131.5
 30
0.0
 11
2407.0
 21
-1131.5
 31
0.0
1001
ACDBBLOCKREPETAG
1070
     1
1071
       33
1005
1263F0
  0
LINE
  5
1263F1
  8
OBJECT
 10
2407.0
 20
-1131.5
 30
0.0
 11
2407.0
 21
-1036.5
 31
0.0
1001
ACDBBLOCKREPETAG
1070
     1
1071
       34
1005
1263F1
  0
LINE
  5
1263F2
  8
OBJECT
 10
2403.0
 20
-1032.0
 30
0.0
 11
2407.0
 21
-1036.5
 31
0.0
1001
ACDBBLOCKREPETAG
1070
     1
1071
       35
1005
1263F2
  0
LINE
  5
1263F3
  8
OBJECT
 10
2403.0
 20
-1136.0
 30
0.0
 11
2407.0
 21
-1131.5
 31
0.0
1001
ACDBBLOCKREPETAG
1070
     1
1071
       36
1005
1263F3
  0
LINE
  5
1263F4
  8
HIDDEN
 10
2412.0
 20
-1046.0
 30
0.0
 11
2412.0
 21
-1122.0
 31
0.0
1001
ACDBBLOCKREPETAG
1070
     1
1071
       37
1005
1263F4
  0
ARC
  5
1263F5
  8
OBJECT
 10
2335.1217271212249
 20
-1092.409507261229
 30
0.0
 40
110.86635228309
 50
16.959646195661989
 51
35.836572580695218
1001
ACDBBLOCKREPETAG
1070
     1
1071
       38
1005
1263F5
  0
ARC
  5
1263F6
  8
OBJECT
 10
2382.8640112230928
 20
-1077.287749718449
 30
0.0
 40
60.791749880358971
 50
0.2712030171732199
 51
16.452795347779499
1001
ACDBBLOCKREPETAG
1070
     1
1071
       39
1005
1263F6
  0
ARC
  5
1263F7
  8
OBJECT
 10
2382.8640043437531
 20
-1083.7122497599
 30
0.0
 40
60.79175676209487
 50
343.54722053947239
 51
359.72879652185469
1001
ACDBBLOCKREPETAG
1070
     1
1071
       40
1005
1263F7
  0
ARC
  5
1263F8
  8
OBJECT
 10
2335.1217271212249
 20
-1068.590492738836
 30
0.0
 40
110.8663522830916
 50
324.16342741930481
 51
343.040353804338
1001
ACDBBLOCKREPETAG
1070
     1
1071
       41
1005
1263F8
  0
LINE
  5
1263F9
  8
OBJECT
 10
2443.6550800869959
 20
-1077.0000000000359
 30
0.0
 11
2443.6550800869959
 21
-1084.000000000033
 31
0.0
1001
ACDBBLOCKREPETAG
1070
     1
1071
       42
1005
1263F9
  0
LINE
  5
1263FA
  8
OBJECT
 10
2425.0
 20
-1027.500000000065
 30
0.0
 11
2418.5
 21
-1027.500000000065
 31
0.0
1001
ACDBBLOCKREPETAG
1070
     1
1071
       43
1005
1263FA
  0
LINE
  5
1263FB
  8
OBJECT
 10
2425.0
 20
-1133.5
 30
0.0
 11
2415.5
 21
-1133.5
 31
0.0
1001
ACDBBLOCKREPETAG
1070
     1
1071
       44
1005
1263FB
  0
LINE
  5
1263FC
  8
OBJECT
 10
2425.0
 20
-1133.5
 30
0.0
 11
2425.0
 21
-1163.0
 31
0.0
1001
ACDBBLOCKREPETAG
1070
     1
1071
        1
1005
1263DF
  0
POINT
  5
1263FD
  8
DOTS
 10
2500.0
 20
-1136.0
 30
0.0
  0
LINE
  5
1263FE
  8
OBJECT
 10
8633.0
 20
-137.99999999999909
 30
0.0
 11
8640.0
 21
-137.99999999999909
 31
0.0
1001
ACDBBLOCKREPETAG
1070
     1
1071
       47
1005
1263FE
  0
LINE
  5
1263FF
  8
OBJECT
 10
8640.0
 20
-137.99999999999909
 30
0.0
 11
8640.0
 21
-261.99999999999909
 31
0.0
1001
ACDBBLOCKREPETAG
1070
     1
1071
       48
1005
1263FF
  0
LINE
  5
126400
  8
OBJECT
 10
8640.0
 20
-261.99999999999909
 30
0.0
 11
8633.0
 21
-261.99999999999909
 31
0.0
1001
ACDBBLOCKREPETAG
1070
     1
1071
       49
1005
126400
  0
LINE
  5
126401
  8
OBJECT
 10
8633.0
 20
-261.99999999999909
 30
0.0
 11
8633.0
 21
-137.99999999999909
 31
0.0
1001
ACDBBLOCKREPETAG
1070
     1
1071
       50
1005
126401
  0
LINE
  5
126402
  8
CENTER
 10
8655.0
 20
-199.99999999999909
 30
0.0
 11
8580.0
 21
-199.99999999999909
 31
0.0
1001
ACDBBLOCKREPETAG
1070
     1
1071
       51
1005
126402
  0
LINE
  5
126403
  8
OBJECT
 10
8633.0
 20
-140.99999999999909
 30
0.0
 11
8597.0
 21
-140.99999999999909
 31
0.0
1001
ACDBBLOCKREPETAG
1070
     1
1071
       52
1005
126403
  0
LINE
  5
126404
  8
OBJECT
 10
8597.0
 20
-140.99999999999909
 30
0.0
 11
8597.0
 21
-258.99999999999909
 31
0.0
1001
ACDBBLOCKREPETAG
1070
     1
1071
       53
1005
126404
  0
LINE
  5
126405
  8
OBJECT
 10
8597.0
 20
-258.99999999999909
 30
0.0
 11
8633.0
 21
-258.99999999999909
 31
0.0
1001
ACDBBLOCKREPETAG
1070
     1
1071
       54
1005
126405
  0
LINE
  5
126406
  8
OBJECT
 10
8593.0
 20
-145.49999999999909
 30
0.0
 11
8586.0
 21
-145.49999999999909
 31
0.0
1001
ACDBBLOCKREPETAG
1070
     1
1071
       55
1005
126406
  0
LINE
  5
126407
  8
OBJECT
 10
8586.0
 20
-254.49999999999909
 30
0.0
 11
8593.0
 21
-254.49999999999909
 31
0.0
1001
ACDBBLOCKREPETAG
1070
     1
1071
       56
1005
126407
  0
LINE
  5
126408
  8
OBJECT
 10
8593.0
 20
-254.49999999999909
 30
0.0
 11
8593.0
 21
-145.49999999999909
 31
0.0
1001
ACDBBLOCKREPETAG
1070
     1
1071
       57
1005
126408
  0
LINE
  5
126409
  8
OBJECT
 10
8597.0
 20
-140.99999999999909
 30
0.0
 11
8593.0
 21
-145.49999999999909
 31
0.0
1001
ACDBBLOCKREPETAG
1070
     1
1071
       58
1005
126409
  0
LINE
  5
12640A
  8
OBJECT
 10
8597.0
 20
-258.99999999999909
 30
0.0
 11
8593.0
 21
-254.49999999999909
 31
0.0
1001
ACDBBLOCKREPETAG
1070
     1
1071
       59
1005
12640A
  0
LINE
  5
12640B
  8
OBJECT
 10
8583.0
 20
-137.99999999999909
 30
0.0
 11
8580.0
 21
-137.99999999999909
 31
0.0
1001
ACDBBLOCKREPETAG
1070
     1
1071
       60
1005
12640B
  0
ARC
  5
12640C
  8
OBJECT
 10
8583.0
 20
-140.99999999999909
 30
0.0
 40
3.0
 50
0.0
 51
90.0
1001
ACDBBLOCKREPETAG
1070
     1
1071
       61
1005
12640C
  0
LINE
  5
12640D
  8
OBJECT
 10
8580.0
 20
-261.99999999999909
 30
0.0
 11
8583.0
 21
-261.99999999999909
 31
0.0
1001
ACDBBLOCKREPETAG
1070
     1
1071
       62
1005
12640D
  0
ARC
  5
12640E
  8
OBJECT
 10
8583.0
 20
-258.99999999999909
 30
0.0
 40
3.0
 50
270.0
 51
0.0
1001
ACDBBLOCKREPETAG
1070
     1
1071
       63
1005
12640E
  0
LINE
  5
12640F
  8
OBJECT
 10
8586.0
 20
-258.99999999999909
 30
0.0
 11
8586.0
 21
-140.99999999999909
 31
0.0
1001
ACDBBLOCKREPETAG
1070
     1
1071
       64
1005
12640F
  0
LINE
  5
126410
  8
HIDDEN
 10
8588.0
 20
-155.49999999999909
 30
0.0
 11
8588.0
 21
-244.49999999999909
 31
0.0
1001
ACDBBLOCKREPETAG
1070
     1
1071
       65
1005
126410
  0
LINE
  5
126411
  8
DIM
 10
2665.0
 20
-696.0
 30
0.0
 11
2719.424581672758
 21
-696.0
 31
0.0
  0
LINE
  5
126412
  8
DIM
 10
2413.0
 20
-1136.0
 30
0.0
 11
2719.4245816727562
 21
-1136.0
 31
0.0
  0
LINE
  5
126413
  8
DIM
 10
2709.4245816727571
 20
-716.0
 30
0.0
 11
2709.4245816727562
 21
-1116.0
 31
0.0
  0
INSERT
  5
126414
  8
DIM
  2
_OPEN30
 10
2709.4245816727571
 20
-696.0
 30
0.0
 41
20.0
 42
20.0
 43
20.0
 50
90.0
  0
INSERT
  5
126415
  8
DIM
  2
_OPEN30
 10
2709.4245816727562
 20
-1136.0
 30
0.0
 41
20.0
 42
20.0
 43
20.0
 50
270.0
  0
INSERT
  5
126416
  8
OBJECT
  2
*U45
 10
0.0
 20
0.0
 30
0.0
  0
LINE
  5
126417
  8
CENTER
 10
4977.0
 20
-3925.9999999999959
 30
0.0
 11
4823.0
 21
-3925.9999999999959
 31
0.0
1001
ACDBBLOCKREPETAG
1070
     1
1071
       17
1005
126417
  0
CIRCLE
  5
126418
  8
OBJECT
 10
4900.0
 20
-3925.9999999999959
 30
0.0
 40
41.5
1001
ACDBBLOCKREPETAG
1070
     1
1071
       18
1005
126418
  0
CIRCLE
  5
126419
  8
OBJECT
 10
4900.0
 20
-3925.9999999999959
 30
0.0
 40
54.0
1001
ACDBBLOCKREPETAG
1070
     1
1071
       19
1005
126419
  0
ARC
  5
12641A
  8
OBJECT
 10
4900.0
 20
-3925.9999999999959
 30
0.0
 40
62.0
 50
287.89655112921122
 51
252.1034488707887
1001
ACDBBLOCKREPETAG
1070
     1
1071
       20
1005
12641A
  0
LINE
  5
12641B
  8
OBJECT
 10
4880.947441116743
 20
-3984.9999999999968
 30
0.0
 11
4919.052558883257
 21
-3984.9999999999968
 31
0.0
1001
ACDBBLOCKREPETAG
1070
     1
1071
       21
1005
12641B
  0
POINT
  5
12641C
  8
DOTS
 10
4900.0
 20
-3984.9999999999968
 30
0.0
1001
ACDBBLOCKREPETAG
1070
     1
1071
       23
1005
12641C
  0
LINE
  5
12641D
  8
OBJECT
 10
4633.0
 20
-3863.9999999999968
 30
0.0
 11
4640.0
 21
-3863.9999999999968
 31
0.0
1001
ACDBBLOCKREPETAG
1070
     1
1071
       46
1005
12641D
  0
LINE
  5
12641E
  8
OBJECT
 10
4640.0
 20
-3863.9999999999968
 30
0.0
 11
4640.0
 21
-3984.9999999999968
 31
0.0
1001
ACDBBLOCKREPETAG
1070
     1
1071
       47
1005
12641E
  0
LINE
  5
12641F
  8
OBJECT
 10
4633.0
 20
-3984.9999999999968
 30
0.0
 11
4633.0
 21
-3863.9999999999968
 31
0.0
1001
ACDBBLOCKREPETAG
1070
     1
1071
       48
1005
12641F
  0
LINE
  5
126420
  8
CENTER
 10
4655.0
 20
-3925.9999999999959
 30
0.0
 11
4541.3449199130037
 21
-3926.0000000000618
 31
0.0
1001
ACDBBLOCKREPETAG
1070
     1
1071
       49
1005
126420
  0
LINE
  5
126421
  8
OBJECT
 10
4633.0
 20
-3866.9999999999968
 30
0.0
 11
4597.0
 21
-3866.9999999999968
 31
0.0
1001
ACDBBLOCKREPETAG
1070
     1
1071
       50
1005
126421
  0
LINE
  5
126422
  8
OBJECT
 10
4597.0
 20
-3866.9999999999968
 30
0.0
 11
4597.0
 21
-3984.9999999999968
 31
0.0
1001
ACDBBLOCKREPETAG
1070
     1
1071
       51
1005
126422
  0
LINE
  5
126423
  8
OBJECT
 10
4597.0
 20
-3984.9999999999968
 30
0.0
 11
4640.0
 21
-3984.9999999999968
 31
0.0
1001
ACDBBLOCKREPETAG
1070
     1
1071
       52
1005
126423
  0
LINE
  5
126424
  8
OBJECT
 10
4593.0
 20
-3871.4999999999968
 30
0.0
 11
4582.5
 21
-3871.4999999999968
 31
0.0
1001
ACDBBLOCKREPETAG
1070
     1
1071
       53
1005
126424
  0
LINE
  5
126425
  8
OBJECT
 10
4582.5
 20
-3980.4999999999968
 30
0.0
 11
4593.0
 21
-3980.4999999999968
 31
0.0
1001
ACDBBLOCKREPETAG
1070
     1
1071
       54
1005
126425
  0
LINE
  5
126426
  8
OBJECT
 10
4593.0
 20
-3980.4999999999968
 30
0.0
 11
4593.0
 21
-3871.4999999999968
 31
0.0
1001
ACDBBLOCKREPETAG
1070
     1
1071
       55
1005
126426
  0
LINE
  5
126427
  8
OBJECT
 10
4597.0
 20
-3866.9999999999968
 30
0.0
 11
4593.0
 21
-3871.4999999999968
 31
0.0
1001
ACDBBLOCKREPETAG
1070
     1
1071
       56
1005
126427
  0
LINE
  5
126428
  8
OBJECT
 10
4597.0
 20
-3984.9999999999968
 30
0.0
 11
4593.0
 21
-3980.4999999999968
 31
0.0
1001
ACDBBLOCKREPETAG
1070
     1
1071
       57
1005
126428
  0
LINE
  5
126429
  8
HIDDEN
 10
4588.0
 20
-3881.4999999999959
 30
0.0
 11
4588.0
 21
-3970.4999999999959
 31
0.0
1001
ACDBBLOCKREPETAG
1070
     1
1071
       58
1005
126429
  0
ARC
  5
12642A
  8
OBJECT
 10
4664.8782728787719
 20
-3941.4095072612258
 30
0.0
 40
110.86635228309
 50
144.16342741928889
 51
163.04035380433939
1001
ACDBBLOCKREPETAG
1070
     1
1071
       59
1005
12642A
  0
ARC
  5
12642B
  8
OBJECT
 10
4617.1359887769049
 20
-3926.2877497184459
 30
0.0
 40
60.791749880358971
 50
163.54720465221931
 51
179.72879698282651
1001
ACDBBLOCKREPETAG
1070
     1
1071
       60
1005
12642B
  0
ARC
  5
12642C
  8
OBJECT
 10
4617.1359956562483
 20
-3932.712249759898
 30
0.0
 40
60.79175676209487
 50
180.2712034781452
 51
196.4527794605265
1001
ACDBBLOCKREPETAG
1070
     1
1071
       61
1005
12642C
  0
ARC
  5
12642D
  8
OBJECT
 10
4664.8782728787719
 20
-3917.5904927388328
 30
0.0
 40
110.8663522830916
 50
196.9596461956605
 51
215.83657258071111
1001
ACDBBLOCKREPETAG
1070
     1
1071
       62
1005
12642D
  0
LINE
  5
12642E
  8
OBJECT
 10
4556.3449199130037
 20
-3926.0000000000332
 30
0.0
 11
4556.3449199130037
 21
-3933.0000000000291
 31
0.0
1001
ACDBBLOCKREPETAG
1070
     1
1071
       63
1005
12642E
  0
LINE
  5
12642F
  8
OBJECT
 10
4574.9999999998336
 20
-3876.500000000291
 30
0.0
 11
4577.4999999998363
 21
-3876.500000000291
 31
0.0
1001
ACDBBLOCKREPETAG
1070
     1
1071
       65
1005
12642F
  0
LINE
  5
126430
  8
OBJECT
 10
4574.9999999998327
 20
-3982.4999999997672
 30
0.0
 11
4579.4999999998308
 21
-3982.4999999997672
 31
0.0
1001
ACDBBLOCKREPETAG
1070
     1
1071
       66
1005
126430
  0
LINE
  5
126431
  8
OBJECT
 10
4579.4999999998308
 20
-3982.4999999997672
 30
0.0
 11
4577.4999999998363
 21
-3876.500000000291
 31
0.0
1001
ACDBBLOCKREPETAG
1070
     1
1071
       67
1005
126431
  0
LINE
  5
126432
  8
OBJECT
 10
4579.4999999998308
 20
-3982.4999999997672
 30
0.0
 11
4582.5
 21
-3980.4999999999968
 31
0.0
1001
ACDBBLOCKREPETAG
1070
     1
1071
       68
1005
126432
  0
LINE
  5
126433
  8
OBJECT
 10
4582.5
 20
-3980.4999999999968
 30
0.0
 11
4582.5
 21
-3871.4999999999968
 31
0.0
1001
ACDBBLOCKREPETAG
1070
     1
1071
       69
1005
126433
  0
LINE
  5
126434
  8
OBJECT
 10
4582.5
 20
-3871.4999999999968
 30
0.0
 11
4577.4999999998363
 21
-3876.500000000291
 31
0.0
1001
ACDBBLOCKREPETAG
1070
     1
1071
       70
1005
126434
  0
LINE
  5
126435
  8
OBJECT
 10
4633.0000000000009
 20
-3517.9999999999968
 30
0.0
 11
4640.0000000000018
 21
-3517.9999999999968
 31
0.0
1001
ACDBBLOCKREPETAG
1070
     1
1071
       38
1005
126435
  0
LINE
  5
126436
  8
OBJECT
 10
4640.0000000000018
 20
-3517.9999999999968
 30
0.0
 11
4640.0
 21
-3641.9999999999968
 31
0.0
1001
ACDBBLOCKREPETAG
1070
     1
1071
       39
1005
126436
  0
LINE
  5
126437
  8
OBJECT
 10
4640.0
 20
-3641.9999999999968
 30
0.0
 11
4633.0
 21
-3641.9999999999968
 31
0.0
1001
ACDBBLOCKREPETAG
1070
     1
1071
       40
1005
126437
  0
LINE
  5
126438
  8
OBJECT
 10
4633.0
 20
-3641.9999999999968
 30
0.0
 11
4633.0000000000009
 21
-3517.9999999999968
 31
0.0
1001
ACDBBLOCKREPETAG
1070
     1
1071
       41
1005
126438
  0
LINE
  5
126439
  8
CENTER
 10
4655.0
 20
-3579.9999999999959
 30
0.0
 11
4580.0
 21
-3579.9999999999959
 31
0.0
1001
ACDBBLOCKREPETAG
1070
     1
1071
       42
1005
126439
  0
LINE
  5
12643A
  8
OBJECT
 10
4633.0000000000009
 20
-3520.9999999999968
 30
0.0
 11
4597.0000000000018
 21
-3520.9999999999968
 31
0.0
1001
ACDBBLOCKREPETAG
1070
     1
1071
       43
1005
12643A
  0
LINE
  5
12643B
  8
OBJECT
 10
4597.0000000000018
 20
-3520.9999999999968
 30
0.0
 11
4597.0
 21
-3638.9999999999982
 31
0.0
1001
ACDBBLOCKREPETAG
1070
     1
1071
       44
1005
12643B
  0
LINE
  5
12643C
  8
OBJECT
 10
4597.0
 20
-3638.9999999999982
 30
0.0
 11
4633.0
 21
-3638.9999999999982
 31
0.0
1001
ACDBBLOCKREPETAG
1070
     1
1071
       45
1005
12643C
  0
LINE
  5
12643D
  8
OBJECT
 10
4593.0000000000018
 20
-3525.4999999999968
 30
0.0
 11
4582.5000000000018
 21
-3525.4999999999968
 31
0.0
1001
ACDBBLOCKREPETAG
1070
     1
1071
       46
1005
12643D
  0
LINE
  5
12643E
  8
OBJECT
 10
4582.5
 20
-3634.4999999999959
 30
0.0
 11
4593.0
 21
-3634.4999999999959
 31
0.0
1001
ACDBBLOCKREPETAG
1070
     1
1071
       47
1005
12643E
  0
LINE
  5
12643F
  8
OBJECT
 10
4593.0
 20
-3634.4999999999959
 30
0.0
 11
4593.0000000000018
 21
-3525.4999999999968
 31
0.0
1001
ACDBBLOCKREPETAG
1070
     1
1071
       48
1005
12643F
  0
LINE
  5
126440
  8
OBJECT
 10
4597.0000000000018
 20
-3520.9999999999968
 30
0.0
 11
4593.0000000000018
 21
-3525.4999999999968
 31
0.0
1001
ACDBBLOCKREPETAG
1070
     1
1071
       49
1005
126440
  0
LINE
  5
126441
  8
OBJECT
 10
4597.0
 20
-3638.9999999999982
 30
0.0
 11
4593.0
 21
-3634.4999999999959
 31
0.0
1001
ACDBBLOCKREPETAG
1070
     1
1071
       50
1005
126441
  0
LINE
  5
126442
  8
HIDDEN
 10
4588.0
 20
-3535.4999999999959
 30
0.0
 11
4588.0
 21
-3624.4999999999959
 31
0.0
1001
ACDBBLOCKREPETAG
1070
     1
1071
       51
1005
126442
  0
LINE
  5
126443
  8
OBJECT
 10
4577.5000000000018
 20
-3530.4999999999959
 30
0.0
 11
4556.3449199129791
 21
-3530.4999999999959
 31
0.0
1001
ACDBBLOCKREPETAG
1070
     1
1071
       52
1005
126443
  0
LINE
  5
126444
  8
OBJECT
 10
4577.4999999999991
 20
-3629.4999999999968
 30
0.0
 11
4556.3449199129791
 21
-3629.4999999999968
 31
0.0
1001
ACDBBLOCKREPETAG
1070
     1
1071
       53
1005
126444
  0
LINE
  5
126445
  8
OBJECT
 10
4582.5000000000018
 20
-3525.4999999999968
 30
0.0
 11
4582.5
 21
-3634.4999999999959
 31
0.0
1001
ACDBBLOCKREPETAG
1070
     1
1071
       54
1005
126445
  0
LINE
  5
126446
  8
OBJECT
 10
4577.5000000000018
 20
-3530.4999999999959
 30
0.0
 11
4577.4999999999991
 21
-3629.4999999999968
 31
0.0
1001
ACDBBLOCKREPETAG
1070
     1
1071
       55
1005
126446
  0
LINE
  5
126447
  8
OBJECT
 10
4582.5000000000018
 20
-3525.4999999999968
 30
0.0
 11
4577.5000000000018
 21
-3530.4999999999959
 31
0.0
1001
ACDBBLOCKREPETAG
1070
     1
1071
       56
1005
126447
  0
LINE
  5
126448
  8
OBJECT
 10
4577.4999999999991
 20
-3629.4999999999968
 30
0.0
 11
4582.5
 21
-3634.4999999999941
 31
0.0
1001
ACDBBLOCKREPETAG
1070
     1
1071
       57
1005
126448
  0
CIRCLE
  5
126449
  8
OBJECT
 10
3900.0
 20
-3932.9999999999959
 30
0.0
 40
35.5
1001
ACDBBLOCKREPETAG
1070
     1
1071
       11
1005
126449
  0
LINE
  5
12644A
  8
CENTER
 10
3830.0
 20
-3932.9999999999959
 30
0.0
 11
3970.0
 21
-3932.9999999999959
 31
0.0
1001
ACDBBLOCKREPETAG
1070
     1
1071
       12
1005
12644A
  0
CIRCLE
  5
12644B
  8
OBJECT
 10
3900.0
 20
-3932.9999999999959
 30
0.0
 40
47.0
1001
ACDBBLOCKREPETAG
1070
     1
1071
       14
1005
12644B
  0
ARC
  5
12644C
  8
OBJECT
 10
3900.0
 20
-3932.9999999999959
 30
0.0
 40
55.0
 50
289.01126526008892
 51
250.98873473991111
1001
ACDBBLOCKREPETAG
1070
     1
1071
       15
1005
12644C
  0
LINE
  5
12644D
  8
OBJECT
 10
3882.0835271328319
 20
-3984.9999999999968
 30
0.0
 11
3917.9164728671672
 21
-3984.9999999999968
 31
0.0
1001
ACDBBLOCKREPETAG
1070
     1
1071
       16
1005
12644D
  0
POINT
  5
12644E
  8
DOTS
 10
3900.0
 20
-3984.9999999999968
 30
0.0
1001
ACDBBLOCKREPETAG
1070
     1
1071
       24
1005
12644E
  0
LINE
  5
12644F
  8
OBJECT
 10
3633.0
 20
-3877.9999999999959
 30
0.0
 11
3640.0
 21
-3877.9999999999959
 31
0.0
1001
ACDBBLOCKREPETAG
1070
     1
1071
       23
1005
12644F
  0
LINE
  5
126450
  8
OBJECT
 10
3640.0
 20
-3877.9999999999959
 30
0.0
 11
3640.0
 21
-3984.9999999999968
 31
0.0
1001
ACDBBLOCKREPETAG
1070
     1
1071
       24
1005
126450
  0
LINE
  5
126451
  8
OBJECT
 10
3584.5
 20
-3879.5000000000618
 30
0.0
 11
3584.5
 21
-3982.4999999999968
 31
0.0
1001
ACDBBLOCKREPETAG
1070
     1
1071
       25
1005
126451
  0
ARC
  5
126452
  8
OBJECT
 10
3581.5
 20
-3879.5000000000618
 30
0.0
 40
3.0
 50
0.0
 51
90.0
1001
ACDBBLOCKREPETAG
1070
     1
1071
       26
1005
126452
  0
LINE
  5
126453
  8
OBJECT
 10
3633.0
 20
-3984.9999999999968
 30
0.0
 11
3633.0
 21
-3877.9999999999959
 31
0.0
1001
ACDBBLOCKREPETAG
1070
     1
1071
       27
1005
126453
  0
LINE
  5
126454
  8
CENTER
 10
3655.0
 20
-3932.9999999999959
 30
0.0
 11
3541.3449199130041
 21
-3933.0000000000618
 31
0.0
1001
ACDBBLOCKREPETAG
1070
     1
1071
       28
1005
126454
  0
LINE
  5
126455
  8
OBJECT
 10
3633.0
 20
-3880.9999999999968
 30
0.0
 11
3597.0
 21
-3880.9999999999968
 31
0.0
1001
ACDBBLOCKREPETAG
1070
     1
1071
       29
1005
126455
  0
LINE
  5
126456
  8
OBJECT
 10
3597.0
 20
-3880.9999999999968
 30
0.0
 11
3597.0
 21
-3984.9999999999968
 31
0.0
1001
ACDBBLOCKREPETAG
1070
     1
1071
       30
1005
126456
  0
LINE
  5
126457
  8
OBJECT
 10
3597.0
 20
-3984.9999999999968
 30
0.0
 11
3640.0
 21
-3984.9999999999968
 31
0.0
1001
ACDBBLOCKREPETAG
1070
     1
1071
       31
1005
126457
  0
LINE
  5
126458
  8
OBJECT
 10
3593.0
 20
-3885.4999999999959
 30
0.0
 11
3584.5
 21
-3885.4999999999959
 31
0.0
1001
ACDBBLOCKREPETAG
1070
     1
1071
       32
1005
126458
  0
LINE
  5
126459
  8
OBJECT
 10
3584.5
 20
-3980.4999999999968
 30
0.0
 11
3593.0
 21
-3980.4999999999968
 31
0.0
1001
ACDBBLOCKREPETAG
1070
     1
1071
       33
1005
126459
  0
LINE
  5
12645A
  8
OBJECT
 10
3593.0
 20
-3980.4999999999968
 30
0.0
 11
3593.0
 21
-3885.4999999999959
 31
0.0
1001
ACDBBLOCKREPETAG
1070
     1
1071
       34
1005
12645A
  0
LINE
  5
12645B
  8
OBJECT
 10
3597.0
 20
-3880.9999999999968
 30
0.0
 11
3593.0
 21
-3885.4999999999959
 31
0.0
1001
ACDBBLOCKREPETAG
1070
     1
1071
       35
1005
12645B
  0
LINE
  5
12645C
  8
OBJECT
 10
3597.0
 20
-3984.9999999999968
 30
0.0
 11
3593.0
 21
-3980.4999999999968
 31
0.0
1001
ACDBBLOCKREPETAG
1070
     1
1071
       36
1005
12645C
  0
LINE
  5
12645D
  8
HIDDEN
 10
3588.0
 20
-3894.9999999999968
 30
0.0
 11
3588.0
 21
-3970.9999999999959
 31
0.0
1001
ACDBBLOCKREPETAG
1070
     1
1071
       37
1005
12645D
  0
ARC
  5
12645E
  8
OBJECT
 10
3664.8782728787742
 20
-3941.4095072612258
 30
0.0
 40
110.86635228309
 50
144.16342741928889
 51
163.04035380433169
1001
ACDBBLOCKREPETAG
1070
     1
1071
       38
1005
12645E
  0
ARC
  5
12645F
  8
OBJECT
 10
3617.1359887769072
 20
-3926.2877497184459
 30
0.0
 40
60.791749880358971
 50
163.5472046522267
 51
179.72879698282679
1001
ACDBBLOCKREPETAG
1070
     1
1071
       39
1005
12645F
  0
ARC
  5
126460
  8
OBJECT
 10
3617.1359956562478
 20
-3932.712249759898
 30
0.0
 40
60.79175676209487
 50
180.2712034781452
 51
196.4527794605338
1001
ACDBBLOCKREPETAG
1070
     1
1071
       40
1005
126460
  0
ARC
  5
126461
  8
OBJECT
 10
3664.8782728787742
 20
-3917.5904927388328
 30
0.0
 40
110.8663522830916
 50
196.95964619566811
 51
215.83657258071111
1001
ACDBBLOCKREPETAG
1070
     1
1071
       41
1005
126461
  0
LINE
  5
126462
  8
OBJECT
 10
3556.3449199130041
 20
-3926.0000000000332
 30
0.0
 11
3556.3449199130041
 21
-3933.0000000000291
 31
0.0
1001
ACDBBLOCKREPETAG
1070
     1
1071
       42
1005
126462
  0
LINE
  5
126463
  8
OBJECT
 10
3574.9999999999991
 20
-3876.5000000000618
 30
0.0
 11
3581.5
 21
-3876.5000000000618
 31
0.0
1001
ACDBBLOCKREPETAG
1070
     1
1071
       43
1005
126463
  0
LINE
  5
126464
  8
OBJECT
 10
3574.9999999999991
 20
-3982.4999999999968
 30
0.0
 11
3584.5
 21
-3982.4999999999968
 31
0.0
1001
ACDBBLOCKREPETAG
1070
     1
1071
       44
1005
126464
  0
LINE
  5
126465
  8
OBJECT
 10
3633.0
 20
-3524.9999999999968
 30
0.0
 11
3640.0
 21
-3524.9999999999968
 31
0.0
1001
ACDBBLOCKREPETAG
1070
     1
1071
       20
1005
126465
  0
LINE
  5
126466
  8
OBJECT
 10
3640.0
 20
-3524.9999999999968
 30
0.0
 11
3640.0
 21
-3634.9999999999968
 31
0.0
1001
ACDBBLOCKREPETAG
1070
     1
1071
       21
1005
126466
  0
LINE
  5
126467
  8
OBJECT
 10
3640.0
 20
-3634.9999999999968
 30
0.0
 11
3633.0
 21
-3634.9999999999968
 31
0.0
1001
ACDBBLOCKREPETAG
1070
     1
1071
       22
1005
126467
  0
LINE
  5
126468
  8
OBJECT
 10
3633.0
 20
-3634.9999999999968
 30
0.0
 11
3633.0
 21
-3524.9999999999968
 31
0.0
1001
ACDBBLOCKREPETAG
1070
     1
1071
       23
1005
126468
  0
LINE
  5
126469
  8
CENTER
 10
3655.0
 20
-3579.9999999999959
 30
0.0
 11
3580.0
 21
-3579.9999999999959
 31
0.0
1001
ACDBBLOCKREPETAG
1070
     1
1071
       24
1005
126469
  0
LINE
  5
12646A
  8
OBJECT
 10
3633.0
 20
-3527.9999999999968
 30
0.0
 11
3597.0
 21
-3527.9999999999968
 31
0.0
1001
ACDBBLOCKREPETAG
1070
     1
1071
       25
1005
12646A
  0
LINE
  5
12646B
  8
OBJECT
 10
3597.0
 20
-3527.9999999999968
 30
0.0
 11
3597.0
 21
-3631.9999999999968
 31
0.0
1001
ACDBBLOCKREPETAG
1070
     1
1071
       26
1005
12646B
  0
LINE
  5
12646C
  8
OBJECT
 10
3597.0
 20
-3631.9999999999968
 30
0.0
 11
3633.0
 21
-3631.9999999999968
 31
0.0
1001
ACDBBLOCKREPETAG
1070
     1
1071
       27
1005
12646C
  0
LINE
  5
12646D
  8
OBJECT
 10
3593.0
 20
-3532.4999999999968
 30
0.0
 11
3584.5
 21
-3532.4999999999968
 31
0.0
1001
ACDBBLOCKREPETAG
1070
     1
1071
       28
1005
12646D
  0
LINE
  5
12646E
  8
OBJECT
 10
3584.5
 20
-3627.4999999999959
 30
0.0
 11
3593.0
 21
-3627.4999999999959
 31
0.0
1001
ACDBBLOCKREPETAG
1070
     1
1071
       29
1005
12646E
  0
LINE
  5
12646F
  8
OBJECT
 10
3593.0
 20
-3627.4999999999959
 30
0.0
 11
3593.0
 21
-3532.4999999999968
 31
0.0
1001
ACDBBLOCKREPETAG
1070
     1
1071
       30
1005
12646F
  0
LINE
  5
126470
  8
OBJECT
 10
3597.0
 20
-3527.9999999999968
 30
0.0
 11
3593.0
 21
-3532.4999999999968
 31
0.0
1001
ACDBBLOCKREPETAG
1070
     1
1071
       31
1005
126470
  0
LINE
  5
126471
  8
OBJECT
 10
3597.0
 20
-3631.9999999999968
 30
0.0
 11
3593.0
 21
-3627.4999999999959
 31
0.0
1001
ACDBBLOCKREPETAG
1070
     1
1071
       32
1005
126471
  0
LINE
  5
126472
  8
OBJECT
 10
3584.4999999999982
 20
-3629.4999999999968
 30
0.0
 11
3584.5
 21
-3530.4999999999959
 31
0.0
1001
ACDBBLOCKREPETAG
1070
     1
1071
       33
1005
126472
  0
LINE
  5
126473
  8
HIDDEN
 10
3588.0
 20
-3541.9999999999968
 30
0.0
 11
3588.0
 21
-3617.9999999999968
 31
0.0
1001
ACDBBLOCKREPETAG
1070
     1
1071
       34
1005
126473
  0
LINE
  5
126474
  8
OBJECT
 10
3584.5
 20
-3530.4999999999959
 30
0.0
 11
3556.3449199129791
 21
-3530.4999999999959
 31
0.0
1001
ACDBBLOCKREPETAG
1070
     1
1071
       35
1005
126474
  0
LINE
  5
126475
  8
OBJECT
 10
3584.4999999999982
 20
-3629.4999999999968
 30
0.0
 11
3556.3449199129791
 21
-3629.4999999999968
 31
0.0
1001
ACDBBLOCKREPETAG
1070
     1
1071
       36
1005
126475
  0
LINE
  5
126476
  8
CENTER
 10
2838.0
 20
-3940.9999999999959
 30
0.0
 11
2962.0
 21
-3940.9999999999959
 31
0.0
1001
ACDBBLOCKREPETAG
1070
     1
1071
        0
1005
126476
  0
CIRCLE
  5
126477
  8
OBJECT
 10
2900.0
 20
-3940.9999999999959
 30
0.0
 40
28.0
1001
ACDBBLOCKREPETAG
1070
     1
1071
        2
1005
126477
  0
CIRCLE
  5
126478
  8
OBJECT
 10
2900.0
 20
-3940.9999999999959
 30
0.0
 40
39.0
1001
ACDBBLOCKREPETAG
1070
     1
1071
        3
1005
126478
  0
ARC
  5
126479
  8
OBJECT
 10
2900.0
 20
-3940.9999999999959
 30
0.0
 40
47.0
 50
290.58196921144412
 51
249.41803078855591
1001
ACDBBLOCKREPETAG
1070
     1
1071
        4
1005
126479
  0
LINE
  5
12647A
  8
OBJECT
 10
2883.4772883581418
 20
-3984.9999999999968
 30
0.0
 11
2916.5227116418569
 21
-3984.9999999999968
 31
0.0
1001
ACDBBLOCKREPETAG
1070
     1
1071
        5
1005
12647A
  0
ARC
  5
12647B
  8
OBJECT
 10
2900.0
 20
-3925.9999999999932
 30
0.0
 40
49.5
 50
0.0
 51
180.0
1001
ACDBBLOCKREPETAG
1070
     1
1071
        6
1005
12647B
  0
LINE
  5
12647C
  8
OBJECT
 10
2850.5000000000032
 20
-3925.9999999999932
 30
0.0
 11
2850.5000000000032
 21
-3932.9999999999959
 31
0.0
1001
ACDBBLOCKREPETAG
1070
     1
1071
        7
1005
12647C
  0
LINE
  5
12647D
  8
OBJECT
 10
2949.5000000000068
 20
-3925.9999999999932
 30
0.0
 11
2949.5000000000068
 21
-3932.9999999999959
 31
0.0
1001
ACDBBLOCKREPETAG
1070
     1
1071
        8
1005
12647D
  0
ARC
  5
12647E
  8
OBJECT
 10
2900.0
 20
-3932.9999999999959
 30
0.0
 40
49.5
 50
180.0
 51
202.66956385104879
1001
ACDBBLOCKREPETAG
1070
     1
1071
        9
1005
12647E
  0
ARC
  5
12647F
  8
OBJECT
 10
2900.0
 20
-3932.9999999999959
 30
0.0
 40
49.5
 50
337.33043614895121
 51
0.0
1001
ACDBBLOCKREPETAG
1070
     1
1071
       10
1005
12647F
  0
POINT
  5
126480
  8
DOTS
 10
2900.0
 20
-3984.9999999999968
 30
0.0
1001
ACDBBLOCKREPETAG
1070
     1
1071
       25
1005
126480
  0
LINE
  5
126481
  8
OBJECT
 10
2633.0
 20
-3893.9999999999959
 30
0.0
 11
2640.0
 21
-3893.9999999999959
 31
0.0
1001
ACDBBLOCKREPETAG
1070
     1
1071
        0
1005
126481
  0
LINE
  5
126482
  8
OBJECT
 10
2640.0
 20
-3893.9999999999959
 30
0.0
 11
2640.0
 21
-3984.9999999999968
 31
0.0
1001
ACDBBLOCKREPETAG
1070
     1
1071
        1
1005
126482
  0
LINE
  5
126483
  8
OBJECT
 10
2584.5
 20
-3879.5000000000618
 30
0.0
 11
2584.5
 21
-3982.4999999999968
 31
0.0
1001
ACDBBLOCKREPETAG
1070
     1
1071
        2
1005
126483
  0
ARC
  5
126484
  8
OBJECT
 10
2581.5
 20
-3879.5000000000618
 30
0.0
 40
3.0
 50
0.0
 51
90.0
1001
ACDBBLOCKREPETAG
1070
     1
1071
        3
1005
126484
  0
LINE
  5
126485
  8
OBJECT
 10
2633.0
 20
-3984.9999999999968
 30
0.0
 11
2633.0
 21
-3893.9999999999959
 31
0.0
1001
ACDBBLOCKREPETAG
1070
     1
1071
        4
1005
126485
  0
LINE
  5
126486
  8
CENTER
 10
2655.0
 20
-3940.9999999999959
 30
0.0
 11
2541.911823713584
 21
-3940.9999999999959
 31
0.0
1001
ACDBBLOCKREPETAG
1070
     1
1071
        5
1005
126486
  0
LINE
  5
126487
  8
OBJECT
 10
2633.0
 20
-3896.9999999999968
 30
0.0
 11
2596.9999999999991
 21
-3896.9999999999968
 31
0.0
1001
ACDBBLOCKREPETAG
1070
     1
1071
        6
1005
126487
  0
LINE
  5
126488
  8
OBJECT
 10
2596.9999999999991
 20
-3896.9999999999968
 30
0.0
 11
2596.9999999999991
 21
-3984.9999999999968
 31
0.0
1001
ACDBBLOCKREPETAG
1070
     1
1071
        7
1005
126488
  0
LINE
  5
126489
  8
OBJECT
 10
2596.9999999999991
 20
-3984.9999999999968
 30
0.0
 11
2640.0
 21
-3984.9999999999968
 31
0.0
1001
ACDBBLOCKREPETAG
1070
     1
1071
        8
1005
126489
  0
LINE
  5
12648A
  8
OBJECT
 10
2593.0
 20
-3901.4999999999968
 30
0.0
 11
2584.5
 21
-3901.4999999999968
 31
0.0
1001
ACDBBLOCKREPETAG
1070
     1
1071
        9
1005
12648A
  0
LINE
  5
12648B
  8
OBJECT
 10
2584.5
 20
-3980.4999999999968
 30
0.0
 11
2593.0
 21
-3980.4999999999968
 31
0.0
1001
ACDBBLOCKREPETAG
1070
     1
1071
       10
1005
12648B
  0
LINE
  5
12648C
  8
OBJECT
 10
2593.0
 20
-3980.4999999999968
 30
0.0
 11
2593.0
 21
-3901.4999999999968
 31
0.0
1001
ACDBBLOCKREPETAG
1070
     1
1071
       11
1005
12648C
  0
LINE
  5
12648D
  8
OBJECT
 10
2596.9999999999991
 20
-3896.9999999999968
 30
0.0
 11
2593.0
 21
-3901.4999999999968
 31
0.0
1001
ACDBBLOCKREPETAG
1070
     1
1071
       12
1005
12648D
  0
LINE
  5
12648E
  8
OBJECT
 10
2596.9999999999991
 20
-3984.9999999999968
 30
0.0
 11
2593.0
 21
-3980.4999999999968
 31
0.0
1001
ACDBBLOCKREPETAG
1070
     1
1071
       13
1005
12648E
  0
LINE
  5
12648F
  8
HIDDEN
 10
2588.0
 20
-3910.9999999999959
 30
0.0
 11
2588.0
 21
-3970.9999999999959
 31
0.0
1001
ACDBBLOCKREPETAG
1070
     1
1071
       14
1005
12648F
  0
ARC
  5
126490
  8
OBJECT
 10
2664.8782728787751
 20
-3941.4095072612258
 30
0.0
 40
110.86635228309
 50
144.1634274191434
 51
163.04035380433169
1001
ACDBBLOCKREPETAG
1070
     1
1071
       15
1005
126490
  0
ARC
  5
126491
  8
OBJECT
 10
2617.1359887769072
 20
-3926.2877497184459
 30
0.0
 40
60.791749880358971
 50
163.5472046522267
 51
179.72879698282679
1001
ACDBBLOCKREPETAG
1070
     1
1071
       16
1005
126491
  0
ARC
  5
126492
  8
OBJECT
 10
2617.1359956562478
 20
-3932.712249759898
 30
0.0
 40
60.79175676209487
 50
180.2712034781452
 51
196.4527794605338
1001
ACDBBLOCKREPETAG
1070
     1
1071
       17
1005
126492
  0
ARC
  5
126493
  8
OBJECT
 10
2664.8782728787751
 20
-3917.5904927388328
 30
0.0
 40
110.8663522830916
 50
196.95964619566811
 51
215.8365725808566
1001
ACDBBLOCKREPETAG
1070
     1
1071
       18
1005
126493
  0
LINE
  5
126494
  8
OBJECT
 10
2556.3449199130041
 20
-3926.0000000000332
 30
0.0
 11
2556.3449199130041
 21
-3933.0000000000291
 31
0.0
1001
ACDBBLOCKREPETAG
1070
     1
1071
       19
1005
126494
  0
LINE
  5
126495
  8
OBJECT
 10
2575.0
 20
-3876.5000000000618
 30
0.0
 11
2581.5
 21
-3876.5000000000618
 31
0.0
1001
ACDBBLOCKREPETAG
1070
     1
1071
       20
1005
126495
  0
LINE
  5
126496
  8
OBJECT
 10
2575.0
 20
-3982.4999999999968
 30
0.0
 11
2584.5
 21
-3982.4999999999968
 31
0.0
1001
ACDBBLOCKREPETAG
1070
     1
1071
       21
1005
126496
  0
LINE
  5
126497
  8
OBJECT
 10
2633.0
 20
-3532.9999999999959
 30
0.0
 11
2640.0
 21
-3532.9999999999959
 31
0.0
1001
ACDBBLOCKREPETAG
1070
     1
1071
        0
1005
126497
  0
LINE
  5
126498
  8
OBJECT
 10
2640.0
 20
-3532.9999999999959
 30
0.0
 11
2640.0
 21
-3626.9999999999968
 31
0.0
1001
ACDBBLOCKREPETAG
1070
     1
1071
        1
1005
126498
  0
LINE
  5
126499
  8
OBJECT
 10
2640.0
 20
-3626.9999999999968
 30
0.0
 11
2633.0
 21
-3626.9999999999968
 31
0.0
1001
ACDBBLOCKREPETAG
1070
     1
1071
        2
1005
126499
  0
LINE
  5
12649A
  8
OBJECT
 10
2633.0
 20
-3626.9999999999968
 30
0.0
 11
2633.0
 21
-3532.9999999999959
 31
0.0
1001
ACDBBLOCKREPETAG
1070
     1
1071
        3
1005
12649A
  0
LINE
  5
12649B
  8
CENTER
 10
2655.0
 20
-3579.9999999999959
 30
0.0
 11
2580.0
 21
-3579.9999999999959
 31
0.0
1001
ACDBBLOCKREPETAG
1070
     1
1071
        4
1005
12649B
  0
LINE
  5
12649C
  8
OBJECT
 10
2633.0
 20
-3535.9999999999959
 30
0.0
 11
2596.9999999999991
 21
-3535.9999999999959
 31
0.0
1001
ACDBBLOCKREPETAG
1070
     1
1071
        5
1005
12649C
  0
LINE
  5
12649D
  8
OBJECT
 10
2596.9999999999991
 20
-3535.9999999999959
 30
0.0
 11
2596.9999999999991
 21
-3623.9999999999968
 31
0.0
1001
ACDBBLOCKREPETAG
1070
     1
1071
        6
1005
12649D
  0
LINE
  5
12649E
  8
OBJECT
 10
2596.9999999999991
 20
-3623.9999999999968
 30
0.0
 11
2633.0
 21
-3623.9999999999968
 31
0.0
1001
ACDBBLOCKREPETAG
1070
     1
1071
        7
1005
12649E
  0
LINE
  5
12649F
  8
OBJECT
 10
2593.0
 20
-3540.4999999999968
 30
0.0
 11
2584.5
 21
-3540.4999999999968
 31
0.0
1001
ACDBBLOCKREPETAG
1070
     1
1071
        8
1005
12649F
  0
LINE
  5
1264A0
  8
OBJECT
 10
2584.5
 20
-3619.4999999999968
 30
0.0
 11
2593.0
 21
-3619.4999999999968
 31
0.0
1001
ACDBBLOCKREPETAG
1070
     1
1071
        9
1005
1264A0
  0
LINE
  5
1264A1
  8
OBJECT
 10
2593.0
 20
-3619.4999999999968
 30
0.0
 11
2593.0
 21
-3540.4999999999968
 31
0.0
1001
ACDBBLOCKREPETAG
1070
     1
1071
       10
1005
1264A1
  0
LINE
  5
1264A2
  8
OBJECT
 10
2596.9999999999991
 20
-3535.9999999999959
 30
0.0
 11
2593.0
 21
-3540.4999999999968
 31
0.0
1001
ACDBBLOCKREPETAG
1070
     1
1071
       11
1005
1264A2
  0
LINE
  5
1264A3
  8
OBJECT
 10
2596.9999999999991
 20
-3623.9999999999968
 30
0.0
 11
2593.0
 21
-3619.4999999999968
 31
0.0
1001
ACDBBLOCKREPETAG
1070
     1
1071
       12
1005
1264A3
  0
LINE
  5
1264A4
  8
OBJECT
 10
2584.4999999999991
 20
-3626.4999999999959
 30
0.0
 11
2584.5
 21
-3533.4999999999959
 31
0.0
1001
ACDBBLOCKREPETAG
1070
     1
1071
       13
1005
1264A4
  0
ARC
  5
1264A5
  8
OBJECT
 10
2581.5
 20
-3533.4999999999959
 30
0.0
 40
3.0
 50
0.0
 51
90.0
1001
ACDBBLOCKREPETAG
1070
     1
1071
       14
1005
1264A5
  0
LINE
  5
1264A6
  8
HIDDEN
 10
2588.0
 20
-3549.9999999999968
 30
0.0
 11
2588.0
 21
-3609.9999999999968
 31
0.0
1001
ACDBBLOCKREPETAG
1070
     1
1071
       15
1005
1264A6
  0
LINE
  5
1264A7
  8
OBJECT
 10
2581.5
 20
-3530.4999999999959
 30
0.0
 11
2556.3449199129791
 21
-3530.4999999999959
 31
0.0
1001
ACDBBLOCKREPETAG
1070
     1
1071
       17
1005
1264A7
  0
LINE
  5
1264A8
  8
OBJECT
 10
2581.4999999999991
 20
-3629.4999999999968
 30
0.0
 11
2556.3449199129791
 21
-3629.4999999999968
 31
0.0
1001
ACDBBLOCKREPETAG
1070
     1
1071
       18
1005
1264A8
  0
ARC
  5
1264A9
  8
OBJECT
 10
2581.4999999999991
 20
-3626.4999999999959
 30
0.0
 40
3.0
 50
270.0
 51
0.0
1001
ACDBBLOCKREPETAG
1070
     1
1071
       19
1005
1264A9
  0
LINE
  5
1264AA
  8
OBJECT
 10
12633.0
 20
-634.0
 30
0.0
 11
12640.0
 21
-634.0
 31
0.0
1001
ACDBBLOCKREPETAG
1070
     1
1071
       45
1005
1264AA
  0
LINE
  5
1264AB
  8
OBJECT
 10
12640.0
 20
-634.0
 30
0.0
 11
12640.0
 21
-755.0
 31
0.0
1001
ACDBBLOCKREPETAG
1070
     1
1071
       46
1005
1264AB
  0
LINE
  5
1264AC
  8
OBJECT
 10
12633.0
 20
-755.0
 30
0.0
 11
12633.0
 21
-634.0
 31
0.0
1001
ACDBBLOCKREPETAG
1070
     1
1071
       47
1005
1264AC
  0
LINE
  5
1264AD
  8
CENTER
 10
12655.0
 20
-696.0
 30
0.0
 11
12571.0
 21
-696.0
 31
0.0
1001
ACDBBLOCKREPETAG
1070
     1
1071
       48
1005
1264AD
  0
LINE
  5
1264AE
  8
OBJECT
 10
12633.0
 20
-637.0
 30
0.0
 11
12597.0
 21
-637.0
 31
0.0
1001
ACDBBLOCKREPETAG
1070
     1
1071
       49
1005
1264AE
  0
LINE
  5
1264AF
  8
OBJECT
 10
12597.0
 20
-637.0
 30
0.0
 11
12597.0
 21
-755.0
 31
0.0
1001
ACDBBLOCKREPETAG
1070
     1
1071
       50
1005
1264AF
  0
LINE
  5
1264B0
  8
OBJECT
 10
12597.0
 20
-755.0
 30
0.0
 11
12640.0
 21
-755.0
 31
0.0
1001
ACDBBLOCKREPETAG
1070
     1
1071
       51
1005
1264B0
  0
LINE
  5
1264B1
  8
OBJECT
 10
12593.0
 20
-641.5
 30
0.0
 11
12586.0
 21
-641.5
 31
0.0
1001
ACDBBLOCKREPETAG
1070
     1
1071
       52
1005
1264B1
  0
LINE
  5
1264B2
  8
OBJECT
 10
12586.0
 20
-750.49999999999989
 30
0.0
 11
12593.0
 21
-750.49999999999989
 31
0.0
1001
ACDBBLOCKREPETAG
1070
     1
1071
       53
1005
1264B2
  0
LINE
  5
1264B3
  8
OBJECT
 10
12593.0
 20
-750.49999999999989
 30
0.0
 11
12593.0
 21
-641.5
 31
0.0
1001
ACDBBLOCKREPETAG
1070
     1
1071
       54
1005
1264B3
  0
LINE
  5
1264B4
  8
OBJECT
 10
12597.0
 20
-637.0
 30
0.0
 11
12593.0
 21
-641.5
 31
0.0
1001
ACDBBLOCKREPETAG
1070
     1
1071
       55
1005
1264B4
  0
LINE
  5
1264B5
  8
OBJECT
 10
12597.0
 20
-755.0
 30
0.0
 11
12593.0
 21
-750.49999999999989
 31
0.0
1001
ACDBBLOCKREPETAG
1070
     1
1071
       56
1005
1264B5
  0
LINE
  5
1264B6
  8
OBJECT
 10
12583.0
 20
-634.0
 30
0.0
 11
12580.0
 21
-634.0
 31
0.0
1001
ACDBBLOCKREPETAG
1070
     1
1071
       57
1005
1264B6
  0
ARC
  5
1264B7
  8
OBJECT
 10
12583.0
 20
-637.0
 30
0.0
 40
3.0
 50
0.0
 51
90.0
1001
ACDBBLOCKREPETAG
1070
     1
1071
       58
1005
1264B7
  0
LINE
  5
1264B8
  8
OBJECT
 10
12580.0
 20
-758.0
 30
0.0
 11
12583.0
 21
-758.0
 31
0.0
1001
ACDBBLOCKREPETAG
1070
     1
1071
       59
1005
1264B8
  0
ARC
  5
1264B9
  8
OBJECT
 10
12583.0
 20
-755.0
 30
0.0
 40
3.0
 50
270.0
 51
0.0
1001
ACDBBLOCKREPETAG
1070
     1
1071
       60
1005
1264B9
  0
LINE
  5
1264BA
  8
OBJECT
 10
12586.0
 20
-755.0
 30
0.0
 11
12586.0
 21
-637.0
 31
0.0
1001
ACDBBLOCKREPETAG
1070
     1
1071
       61
1005
1264BA
  0
LINE
  5
1264BB
  8
HIDDEN
 10
12588.0
 20
-651.5
 30
0.0
 11
12588.0
 21
-740.5
 31
0.0
1001
ACDBBLOCKREPETAG
1070
     1
1071
       63
1005
1264BB
  0
LINE
  5
1264BC
  8
OBJECT
 10
10633.0
 20
-634.0
 30
0.0
 11
10640.0
 21
-634.0
 31
0.0
1001
ACDBBLOCKREPETAG
1070
     1
1071
       45
1005
1264BC
  0
LINE
  5
1264BD
  8
OBJECT
 10
10640.0
 20
-634.0
 30
0.0
 11
10640.0
 21
-755.0
 31
0.0
1001
ACDBBLOCKREPETAG
1070
     1
1071
       46
1005
1264BD
  0
LINE
  5
1264BE
  8
OBJECT
 10
10633.0
 20
-755.0
 30
0.0
 11
10633.0
 21
-634.0
 31
0.0
1001
ACDBBLOCKREPETAG
1070
     1
1071
       47
1005
1264BE
  0
LINE
  5
1264BF
  8
CENTER
 10
10655.0
 20
-696.0
 30
0.0
 11
10571.0
 21
-696.0
 31
0.0
1001
ACDBBLOCKREPETAG
1070
     1
1071
       48
1005
1264BF
  0
LINE
  5
1264C0
  8
OBJECT
 10
10633.0
 20
-637.0
 30
0.0
 11
10597.0
 21
-637.0
 31
0.0
1001
ACDBBLOCKREPETAG
1070
     1
1071
       49
1005
1264C0
  0
LINE
  5
1264C1
  8
OBJECT
 10
10597.0
 20
-637.0
 30
0.0
 11
10597.0
 21
-755.0
 31
0.0
1001
ACDBBLOCKREPETAG
1070
     1
1071
       50
1005
1264C1
  0
LINE
  5
1264C2
  8
OBJECT
 10
10597.0
 20
-755.0
 30
0.0
 11
10640.0
 21
-755.0
 31
0.0
1001
ACDBBLOCKREPETAG
1070
     1
1071
       51
1005
1264C2
  0
LINE
  5
1264C3
  8
OBJECT
 10
10593.0
 20
-641.5
 30
0.0
 11
10586.0
 21
-641.5
 31
0.0
1001
ACDBBLOCKREPETAG
1070
     1
1071
       52
1005
1264C3
  0
LINE
  5
1264C4
  8
OBJECT
 10
10586.0
 20
-750.49999999999989
 30
0.0
 11
10593.0
 21
-750.49999999999989
 31
0.0
1001
ACDBBLOCKREPETAG
1070
     1
1071
       53
1005
1264C4
  0
LINE
  5
1264C5
  8
OBJECT
 10
10593.0
 20
-750.49999999999989
 30
0.0
 11
10593.0
 21
-641.5
 31
0.0
1001
ACDBBLOCKREPETAG
1070
     1
1071
       54
1005
1264C5
  0
LINE
  5
1264C6
  8
OBJECT
 10
10597.0
 20
-637.0
 30
0.0
 11
10593.0
 21
-641.5
 31
0.0
1001
ACDBBLOCKREPETAG
1070
     1
1071
       55
1005
1264C6
  0
LINE
  5
1264C7
  8
OBJECT
 10
10597.0
 20
-755.0
 30
0.0
 11
10593.0
 21
-750.49999999999989
 31
0.0
1001
ACDBBLOCKREPETAG
1070
     1
1071
       56
1005
1264C7
  0
LINE
  5
1264C8
  8
OBJECT
 10
10583.0
 20
-634.0
 30
0.0
 11
10580.0
 21
-634.0
 31
0.0
1001
ACDBBLOCKREPETAG
1070
     1
1071
       57
1005
1264C8
  0
ARC
  5
1264C9
  8
OBJECT
 10
10583.0
 20
-637.0
 30
0.0
 40
3.0
 50
0.0
 51
90.0
1001
ACDBBLOCKREPETAG
1070
     1
1071
       58
1005
1264C9
  0
LINE
  5
1264CA
  8
OBJECT
 10
10580.0
 20
-758.0
 30
0.0
 11
10583.0
 21
-758.0
 31
0.0
1001
ACDBBLOCKREPETAG
1070
     1
1071
       59
1005
1264CA
  0
ARC
  5
1264CB
  8
OBJECT
 10
10583.0
 20
-755.0
 30
0.0
 40
3.0
 50
270.0
 51
0.0
1001
ACDBBLOCKREPETAG
1070
     1
1071
       60
1005
1264CB
  0
LINE
  5
1264CC
  8
OBJECT
 10
10586.0
 20
-755.0
 30
0.0
 11
10586.0
 21
-637.0
 31
0.0
1001
ACDBBLOCKREPETAG
1070
     1
1071
       61
1005
1264CC
  0
LINE
  5
1264CD
  8
HIDDEN
 10
10588.0
 20
-651.5
 30
0.0
 11
10588.0
 21
-740.5
 31
0.0
1001
ACDBBLOCKREPETAG
1070
     1
1071
       63
1005
1264CD
  0
LINE
  5
1264CE
  8
OBJECT
 10
8633.0
 20
-634.0
 30
0.0
 11
8640.0
 21
-634.0
 31
0.0
1001
ACDBBLOCKREPETAG
1070
     1
1071
       45
1005
1264CE
  0
LINE
  5
1264CF
  8
OBJECT
 10
8640.0
 20
-634.0
 30
0.0
 11
8640.0
 21
-755.0
 31
0.0
1001
ACDBBLOCKREPETAG
1070
     1
1071
       46
1005
1264CF
  0
LINE
  5
1264D0
  8
OBJECT
 10
8633.0
 20
-755.0
 30
0.0
 11
8633.0
 21
-634.0
 31
0.0
1001
ACDBBLOCKREPETAG
1070
     1
1071
       47
1005
1264D0
  0
LINE
  5
1264D1
  8
CENTER
 10
8655.0
 20
-696.0
 30
0.0
 11
8571.0
 21
-696.0
 31
0.0
1001
ACDBBLOCKREPETAG
1070
     1
1071
       48
1005
1264D1
  0
LINE
  5
1264D2
  8
OBJECT
 10
8633.0
 20
-637.0
 30
0.0
 11
8597.0
 21
-637.0
 31
0.0
1001
ACDBBLOCKREPETAG
1070
     1
1071
       49
1005
1264D2
  0
LINE
  5
1264D3
  8
OBJECT
 10
8597.0
 20
-637.0
 30
0.0
 11
8597.0
 21
-755.0
 31
0.0
1001
ACDBBLOCKREPETAG
1070
     1
1071
       50
1005
1264D3
  0
LINE
  5
1264D4
  8
OBJECT
 10
8597.0
 20
-755.0
 30
0.0
 11
8640.0
 21
-755.0
 31
0.0
1001
ACDBBLOCKREPETAG
1070
     1
1071
       51
1005
1264D4
  0
LINE
  5
1264D5
  8
OBJECT
 10
8593.0
 20
-641.5
 30
0.0
 11
8586.0
 21
-641.5
 31
0.0
1001
ACDBBLOCKREPETAG
1070
     1
1071
       52
1005
1264D5
  0
LINE
  5
1264D6
  8
OBJECT
 10
8586.0
 20
-750.49999999999989
 30
0.0
 11
8593.0
 21
-750.49999999999989
 31
0.0
1001
ACDBBLOCKREPETAG
1070
     1
1071
       53
1005
1264D6
  0
LINE
  5
1264D7
  8
OBJECT
 10
8593.0
 20
-750.49999999999989
 30
0.0
 11
8593.0
 21
-641.5
 31
0.0
1001
ACDBBLOCKREPETAG
1070
     1
1071
       54
1005
1264D7
  0
LINE
  5
1264D8
  8
OBJECT
 10
8597.0
 20
-637.0
 30
0.0
 11
8593.0
 21
-641.5
 31
0.0
1001
ACDBBLOCKREPETAG
1070
     1
1071
       55
1005
1264D8
  0
LINE
  5
1264D9
  8
OBJECT
 10
8597.0
 20
-755.0
 30
0.0
 11
8593.0
 21
-750.49999999999989
 31
0.0
1001
ACDBBLOCKREPETAG
1070
     1
1071
       56
1005
1264D9
  0
LINE
  5
1264DA
  8
OBJECT
 10
8583.0
 20
-634.0
 30
0.0
 11
8580.0
 21
-634.0
 31
0.0
1001
ACDBBLOCKREPETAG
1070
     1
1071
       57
1005
1264DA
  0
ARC
  5
1264DB
  8
OBJECT
 10
8583.0
 20
-637.0
 30
0.0
 40
3.0
 50
0.0
 51
90.0
1001
ACDBBLOCKREPETAG
1070
     1
1071
       58
1005
1264DB
  0
LINE
  5
1264DC
  8
OBJECT
 10
8580.0
 20
-758.0
 30
0.0
 11
8583.0
 21
-758.0
 31
0.0
1001
ACDBBLOCKREPETAG
1070
     1
1071
       59
1005
1264DC
  0
ARC
  5
1264DD
  8
OBJECT
 10
8583.0
 20
-755.0
 30
0.0
 40
3.0
 50
270.0
 51
0.0
1001
ACDBBLOCKREPETAG
1070
     1
1071
       60
1005
1264DD
  0
LINE
  5
1264DE
  8
OBJECT
 10
8586.0
 20
-755.0
 30
0.0
 11
8586.0
 21
-637.0
 31
0.0
1001
ACDBBLOCKREPETAG
1070
     1
1071
       61
1005
1264DE
  0
LINE
  5
1264DF
  8
HIDDEN
 10
8588.0
 20
-651.5
 30
0.0
 11
8588.0
 21
-740.5
 31
0.0
1001
ACDBBLOCKREPETAG
1070
     1
1071
       63
1005
1264DF
  0
LINE
  5
1264E0
  8
OBJECT
 10
6633.0
 20
-634.0
 30
0.0
 11
6640.0
 21
-634.0
 31
0.0
1001
ACDBBLOCKREPETAG
1070
     1
1071
       45
1005
1264E0
  0
LINE
  5
1264E1
  8
OBJECT
 10
6640.0
 20
-634.0
 30
0.0
 11
6640.0
 21
-755.0
 31
0.0
1001
ACDBBLOCKREPETAG
1070
     1
1071
       46
1005
1264E1
  0
LINE
  5
1264E2
  8
OBJECT
 10
6633.0
 20
-755.0
 30
0.0
 11
6633.0
 21
-634.0
 31
0.0
1001
ACDBBLOCKREPETAG
1070
     1
1071
       47
1005
1264E2
  0
LINE
  5
1264E3
  8
CENTER
 10
6655.0
 20
-696.0
 30
0.0
 11
6571.0
 21
-696.0
 31
0.0
1001
ACDBBLOCKREPETAG
1070
     1
1071
       48
1005
1264E3
  0
LINE
  5
1264E4
  8
OBJECT
 10
6633.0
 20
-637.0
 30
0.0
 11
6597.0
 21
-637.0
 31
0.0
1001
ACDBBLOCKREPETAG
1070
     1
1071
       49
1005
1264E4
  0
LINE
  5
1264E5
  8
OBJECT
 10
6597.0
 20
-637.0
 30
0.0
 11
6597.0
 21
-755.0
 31
0.0
1001
ACDBBLOCKREPETAG
1070
     1
1071
       50
1005
1264E5
  0
LINE
  5
1264E6
  8
OBJECT
 10
6597.0
 20
-755.0
 30
0.0
 11
6640.0
 21
-755.0
 31
0.0
1001
ACDBBLOCKREPETAG
1070
     1
1071
       51
1005
1264E6
  0
LINE
  5
1264E7
  8
OBJECT
 10
6593.0
 20
-641.5
 30
0.0
 11
6586.0
 21
-641.5
 31
0.0
1001
ACDBBLOCKREPETAG
1070
     1
1071
       52
1005
1264E7
  0
LINE
  5
1264E8
  8
OBJECT
 10
6586.0
 20
-750.49999999999989
 30
0.0
 11
6593.0
 21
-750.49999999999989
 31
0.0
1001
ACDBBLOCKREPETAG
1070
     1
1071
       53
1005
1264E8
  0
LINE
  5
1264E9
  8
OBJECT
 10
6593.0
 20
-750.49999999999989
 30
0.0
 11
6593.0
 21
-641.5
 31
0.0
1001
ACDBBLOCKREPETAG
1070
     1
1071
       54
1005
1264E9
  0
LINE
  5
1264EA
  8
OBJECT
 10
6597.0
 20
-637.0
 30
0.0
 11
6593.0
 21
-641.5
 31
0.0
1001
ACDBBLOCKREPETAG
1070
     1
1071
       55
1005
1264EA
  0
LINE
  5
1264EB
  8
OBJECT
 10
6597.0
 20
-755.0
 30
0.0
 11
6593.0
 21
-750.49999999999989
 31
0.0
1001
ACDBBLOCKREPETAG
1070
     1
1071
       56
1005
1264EB
  0
LINE
  5
1264EC
  8
OBJECT
 10
6583.0
 20
-634.0
 30
0.0
 11
6580.0
 21
-634.0
 31
0.0
1001
ACDBBLOCKREPETAG
1070
     1
1071
       57
1005
1264EC
  0
ARC
  5
1264ED
  8
OBJECT
 10
6583.0
 20
-637.0
 30
0.0
 40
3.0
 50
0.0
 51
90.0
1001
ACDBBLOCKREPETAG
1070
     1
1071
       58
1005
1264ED
  0
LINE
  5
1264EE
  8
OBJECT
 10
6580.0
 20
-758.0
 30
0.0
 11
6583.0
 21
-758.0
 31
0.0
1001
ACDBBLOCKREPETAG
1070
     1
1071
       59
1005
1264EE
  0
ARC
  5
1264EF
  8
OBJECT
 10
6583.0
 20
-755.0
 30
0.0
 40
3.0
 50
270.0
 51
0.0
1001
ACDBBLOCKREPETAG
1070
     1
1071
       60
1005
1264EF
  0
LINE
  5
1264F0
  8
OBJECT
 10
6586.0
 20
-755.0
 30
0.0
 11
6586.0
 21
-637.0
 31
0.0
1001
ACDBBLOCKREPETAG
1070
     1
1071
       61
1005
1264F0
  0
LINE
  5
1264F1
  8
HIDDEN
 10
6588.0
 20
-651.5
 30
0.0
 11
6588.0
 21
-740.5
 31
0.0
1001
ACDBBLOCKREPETAG
1070
     1
1071
       63
1005
1264F1
  0
LINE
  5
1264F2
  8
OBJECT
 10
4633.0
 20
-634.0
 30
0.0
 11
4640.0
 21
-634.0
 31
0.0
1001
ACDBBLOCKREPETAG
1070
     1
1071
       45
1005
1264F2
  0
LINE
  5
1264F3
  8
OBJECT
 10
4640.0
 20
-634.0
 30
0.0
 11
4640.0
 21
-755.0
 31
0.0
1001
ACDBBLOCKREPETAG
1070
     1
1071
       46
1005
1264F3
  0
LINE
  5
1264F4
  8
OBJECT
 10
4633.0
 20
-755.0
 30
0.0
 11
4633.0
 21
-634.0
 31
0.0
1001
ACDBBLOCKREPETAG
1070
     1
1071
       47
1005
1264F4
  0
LINE
  5
1264F5
  8
CENTER
 10
4655.0
 20
-696.0
 30
0.0
 11
4571.0
 21
-696.0
 31
0.0
1001
ACDBBLOCKREPETAG
1070
     1
1071
       48
1005
1264F5
  0
LINE
  5
1264F6
  8
OBJECT
 10
4633.0
 20
-637.0
 30
0.0
 11
4597.0
 21
-637.0
 31
0.0
1001
ACDBBLOCKREPETAG
1070
     1
1071
       49
1005
1264F6
  0
LINE
  5
1264F7
  8
OBJECT
 10
4597.0
 20
-637.0
 30
0.0
 11
4597.0
 21
-755.0
 31
0.0
1001
ACDBBLOCKREPETAG
1070
     1
1071
       50
1005
1264F7
  0
LINE
  5
1264F8
  8
OBJECT
 10
4597.0
 20
-755.0
 30
0.0
 11
4640.0
 21
-755.0
 31
0.0
1001
ACDBBLOCKREPETAG
1070
     1
1071
       51
1005
1264F8
  0
LINE
  5
1264F9
  8
OBJECT
 10
4593.0
 20
-641.5
 30
0.0
 11
4586.0
 21
-641.5
 31
0.0
1001
ACDBBLOCKREPETAG
1070
     1
1071
       52
1005
1264F9
  0
LINE
  5
1264FA
  8
OBJECT
 10
4586.0
 20
-750.49999999999989
 30
0.0
 11
4593.0
 21
-750.49999999999989
 31
0.0
1001
ACDBBLOCKREPETAG
1070
     1
1071
       53
1005
1264FA
  0
LINE
  5
1264FB
  8
OBJECT
 10
4593.0
 20
-750.49999999999989
 30
0.0
 11
4593.0
 21
-641.5
 31
0.0
1001
ACDBBLOCKREPETAG
1070
     1
1071
       54
1005
1264FB
  0
LINE
  5
1264FC
  8
OBJECT
 10
4597.0
 20
-637.0
 30
0.0
 11
4593.0
 21
-641.5
 31
0.0
1001
ACDBBLOCKREPETAG
1070
     1
1071
       55
1005
1264FC
  0
LINE
  5
1264FD
  8
OBJECT
 10
4597.0
 20
-755.0
 30
0.0
 11
4593.0
 21
-750.49999999999989
 31
0.0
1001
ACDBBLOCKREPETAG
1070
     1
1071
       56
1005
1264FD
  0
LINE
  5
1264FE
  8
OBJECT
 10
4583.0
 20
-634.0
 30
0.0
 11
4580.0
 21
-634.0
 31
0.0
1001
ACDBBLOCKREPETAG
1070
     1
1071
       57
1005
1264FE
  0
ARC
  5
1264FF
  8
OBJECT
 10
4583.0
 20
-637.0
 30
0.0
 40
3.0
 50
0.0
 51
90.0
1001
ACDBBLOCKREPETAG
1070
     1
1071
       58
1005
1264FF
  0
LINE
  5
126500
  8
OBJECT
 10
4580.0
 20
-758.0
 30
0.0
 11
4583.0
 21
-758.0
 31
0.0
1001
ACDBBLOCKREPETAG
1070
     1
1071
       59
1005
126500
  0
ARC
  5
126501
  8
OBJECT
 10
4583.0
 20
-755.0
 30
0.0
 40
3.0
 50
270.0
 51
0.0
1001
ACDBBLOCKREPETAG
1070
     1
1071
       60
1005
126501
  0
LINE
  5
126502
  8
OBJECT
 10
4586.0
 20
-755.0
 30
0.0
 11
4586.0
 21
-637.0
 31
0.0
1001
ACDBBLOCKREPETAG
1070
     1
1071
       61
1005
126502
  0
LINE
  5
126503
  8
HIDDEN
 10
4588.0
 20
-651.5
 30
0.0
 11
4588.0
 21
-740.5
 31
0.0
1001
ACDBBLOCKREPETAG
1070
     1
1071
       63
1005
126503
  0
LINE
  5
126504
  8
SLIM
 10
10414.999999999991
 20
-1152.2369265471771
 30
0.0
 11
10431.23692654717
 21
-1136.0
 31
0.0
1001
ACAD
1010
0.0
1020
0.0
1030
0.0
  0
LINE
  5
126505
  8
SLIM
 10
10414.999999999991
 20
-1170.197438789314
 30
0.0
 11
10449.19743878931
 21
-1136.0
 31
0.0
1001
ACAD
1010
0.0
1020
0.0
1030
0.0
  0
LINE
  5
126506
  8
SLIM
 10
10414.999999999991
 20
-1188.1579510314509
 30
0.0
 11
10467.15795103144
 21
-1136.0
 31
0.0
1001
ACAD
1010
0.0
1020
0.0
1030
0.0
  0
LINE
  5
126507
  8
SLIM
 10
10414.999999999991
 20
-1206.1184632735881
 30
0.0
 11
10485.11846327358
 21
-1136.0
 31
0.0
1001
ACAD
1010
0.0
1020
0.0
1030
0.0
  0
LINE
  5
126508
  8
SLIM
 10
10415.0
 20
-1224.0789755157259
 30
0.0
 11
10503.07897551572
 21
-1136.0
 31
0.0
1001
ACAD
1010
0.0
1020
0.0
1030
0.0
  0
LINE
  5
126509
  8
SLIM
 10
10415.0
 20
-1242.0394877578631
 30
0.0
 11
10521.03948775786
 21
-1136.0
 31
0.0
1001
ACAD
1010
0.0
1020
0.0
1030
0.0
  0
LINE
  5
12650A
  8
SLIM
 10
10415.283600749561
 20
-1259.716399250442
 30
0.0
 11
10539.0
 21
-1136.0
 31
0.0
1001
ACAD
1010
0.0
1020
0.0
1030
0.0
  0
LINE
  5
12650B
  8
SLIM
 10
10417.49791047804
 20
-1275.4626017640981
 30
0.0
 11
10556.96051224214
 21
-1136.0
 31
0.0
1001
ACAD
1010
0.0
1020
0.0
1030
0.0
  0
LINE
  5
12650C
  8
SLIM
 10
10419.71222020652
 20
-1291.208804277753
 30
0.0
 11
10574.921024484271
 21
-1136.0
 31
0.0
1001
ACAD
1010
0.0
1020
0.0
1030
0.0
  0
LINE
  5
12650D
  8
SLIM
 10
10421.926529935001
 20
-1306.9550067914081
 30
0.0
 11
10585.000000000009
 21
-1143.8815367264081
 31
0.0
1001
ACAD
1010
0.0
1020
0.0
1030
0.0
  0
LINE
  5
12650E
  8
SLIM
 10
10424.140839663491
 20
-1322.7012093050639
 30
0.0
 11
10585.0
 21
-1161.8420489685479
 31
0.0
1001
ACAD
1010
0.0
1020
0.0
1030
0.0
  0
LINE
  5
12650F
  8
SLIM
 10
10426.355149391969
 20
-1338.447411818719
 30
0.0
 11
10585.0
 21
-1179.8025612106869
 31
0.0
1001
ACAD
1010
0.0
1020
0.0
1030
0.0
  0
LINE
  5
126510
  8
SLIM
 10
10428.56945912045
 20
-1354.193614332374
 30
0.0
 11
10585.0
 21
-1197.763073452827
 31
0.0
1001
ACAD
1010
0.0
1020
0.0
1030
0.0
  0
LINE
  5
126511
  8
SLIM
 10
10430.78376884894
 20
-1369.93981684603
 30
0.0
 11
10585.0
 21
-1215.723585694966
 31
0.0
1001
ACAD
1010
0.0
1020
0.0
1030
0.0
  0
LINE
  5
126512
  8
SLIM
 10
10432.998078577421
 20
-1385.686019359686
 30
0.0
 11
10585.0
 21
-1233.684097937105
 31
0.0
1001
ACAD
1010
0.0
1020
0.0
1030
0.0
  0
LINE
  5
126513
  8
SLIM
 10
10432.999999999991
 20
-1403.6446101792519
 30
0.0
 11
10585.0
 21
-1251.6446101792451
 31
0.0
1001
ACAD
1010
0.0
1020
0.0
1030
0.0
  0
LINE
  5
126514
  8
SLIM
 10
10432.999999999991
 20
-1421.60512242139
 30
0.0
 11
10583.05183715436
 21
-1271.5532852670169
 31
0.0
1001
ACAD
1010
0.0
1020
0.0
1030
0.0
  0
LINE
  5
126515
  8
SLIM
 10
10446.565634663521
 20
-1425.999999999997
 30
0.0
 11
10580.112844242019
 21
-1292.4527904215049
 31
0.0
1001
ACAD
1010
0.0
1020
0.0
1030
0.0
  0
LINE
  5
126516
  8
SLIM
 10
10464.52614690566
 20
-1425.999999999997
 30
0.0
 11
10577.17385132967
 21
-1313.352295575992
 31
0.0
1001
ACAD
1010
0.0
1020
0.0
1030
0.0
  0
LINE
  5
126517
  8
SLIM
 10
10482.4866591478
 20
-1425.999999999998
 30
0.0
 11
10574.23485841732
 21
-1334.2518007304791
 31
0.0
1001
ACAD
1010
0.0
1020
0.0
1030
0.0
  0
LINE
  5
126518
  8
SLIM
 10
10500.44717138994
 20
-1425.9999999999991
 30
0.0
 11
10571.29586550497
 21
-1355.151305884966
 31
0.0
1001
ACAD
1010
0.0
1020
0.0
1030
0.0
  0
LINE
  5
126519
  8
SLIM
 10
10518.40768363206
 20
-1425.9999999999991
 30
0.0
 11
10568.35687259262
 21
-1376.0508110394539
 31
0.0
1001
ACAD
1010
0.0
1020
0.0
1030
0.0
  0
LINE
  5
12651A
  8
SLIM
 10
10536.368195874211
 20
-1425.9999999999991
 30
0.0
 11
10567.000000000009
 21
-1395.368195874202
 31
0.0
1001
ACAD
1010
0.0
1020
0.0
1030
0.0
  0
LINE
  5
12651B
  8
SLIM
 10
10554.328708116351
 20
-1426.0
 30
0.0
 11
10567.000000000009
 21
-1413.328708116341
 31
0.0
1001
ACAD
1010
0.0
1020
0.0
1030
0.0
  0
LINE
  5
12651C
  8
OBJECT
 10
10432.999999999991
 20
-1425.999999999997
 30
0.0
 11
10567.000000000009
 21
-1426.0
 31
0.0
1001
ACDBBLOCKREPETAG
1070
     1
1071
        1
1005
12651C
  0
LINE
  5
12651D
  8
OBJECT
 10
10414.999999999991
 20
-1136.0
 30
0.0
 11
10415.0
 21
-1257.6996828091419
 31
0.0
1001
ACDBBLOCKREPETAG
1070
     1
1071
        2
1005
12651D
  0
LINE
  5
12651E
  8
OBJECT
 10
10585.000000000009
 20
-1136.0
 30
0.0
 11
10585.0
 21
-1257.6996828091731
 31
0.0
1001
ACDBBLOCKREPETAG
1070
     1
1071
        3
1005
12651E
  0
LINE
  5
12651F
  8
OBJECT
 10
10415.0
 20
-1257.6996828091419
 30
0.0
 11
10432.999999999991
 21
-1385.6996828090821
 31
0.0
1001
ACDBBLOCKREPETAG
1070
     1
1071
        4
1005
12651F
  0
LINE
  5
126520
  8
OBJECT
 10
10567.000000000009
 20
-1385.6996828091289
 30
0.0
 11
10585.0
 21
-1257.6996828091731
 31
0.0
1001
ACDBBLOCKREPETAG
1070
     1
1071
        5
1005
126520
  0
LINE
  5
126521
  8
OBJECT
 10
10585.000000000009
 20
-1136.0
 30
0.0
 11
10414.999999999991
 21
-1136.0
 31
0.0
1001
ACDBBLOCKREPETAG
1070
     1
1071
        6
1005
126521
  0
LINE
  5
126522
  8
OBJECT
 10
10432.999999999991
 20
-1385.6996828090821
 30
0.0
 11
10432.999999999991
 21
-1425.999999999997
 31
0.0
1001
ACDBBLOCKREPETAG
1070
     1
1071
        8
1005
126522
  0
LINE
  5
126523
  8
OBJECT
 10
10567.000000000009
 20
-1385.6996828091289
 30
0.0
 11
10567.000000000009
 21
-1426.0
 31
0.0
1001
ACDBBLOCKREPETAG
1070
     1
1071
        9
1005
126523
  0
LINE
  5
126524
  8
SLIM
 10
8414.9999999999909
 20
-1152.2369265471759
 30
0.0
 11
8431.2369265471698
 21
-1135.9999999999991
 31
0.0
1001
GRADIENTCOLOR1ACI
1070
     5
1001
GRADIENTCOLOR2ACI
1070
     2
1001
ACAD
1010
0.0
1020
0.0
1030
0.0
  0
LINE
  5
126525
  8
SLIM
 10
8414.9999999999945
 20
-1170.1974387893131
 30
0.0
 11
8449.1974387893097
 21
-1135.9999999999991
 31
0.0
1001
GRADIENTCOLOR1ACI
1070
     5
1001
GRADIENTCOLOR2ACI
1070
     2
1001
ACAD
1010
0.0
1020
0.0
1030
0.0
  0
LINE
  5
126526
  8
SLIM
 10
8414.9999999999964
 20
-1188.15795103145
 30
0.0
 11
8467.1579510314441
 21
-1135.9999999999991
 31
0.0
1001
GRADIENTCOLOR1ACI
1070
     5
1001
GRADIENTCOLOR2ACI
1070
     2
1001
ACAD
1010
0.0
1020
0.0
1030
0.0
  0
LINE
  5
126527
  8
SLIM
 10
8414.9999999999964
 20
-1206.1184632735881
 30
0.0
 11
8485.1184632735858
 21
-1135.9999999999991
 31
0.0
1001
GRADIENTCOLOR1ACI
1070
     5
1001
GRADIENTCOLOR2ACI
1070
     2
1001
ACAD
1010
0.0
1020
0.0
1030
0.0
  0
LINE
  5
126528
  8
SLIM
 10
8414.9999999999964
 20
-1224.078975515725
 30
0.0
 11
8503.0789755157257
 21
-1135.9999999999991
 31
0.0
1001
GRADIENTCOLOR1ACI
1070
     5
1001
GRADIENTCOLOR2ACI
1070
     2
1001
ACAD
1010
0.0
1020
0.0
1030
0.0
  0
LINE
  5
126529
  8
SLIM
 10
8414.9999999999964
 20
-1242.0394877578619
 30
0.0
 11
8521.0394877578619
 21
-1135.9999999999991
 31
0.0
1001
GRADIENTCOLOR1ACI
1070
     5
1001
GRADIENTCOLOR2ACI
1070
     2
1001
ACAD
1010
0.0
1020
0.0
1030
0.0
  0
LINE
  5
12652A
  8
SLIM
 10
8415.2836007495571
 20
-1259.716399250442
 30
0.0
 11
8539.0
 21
-1135.9999999999991
 31
0.0
1001
GRADIENTCOLOR1ACI
1070
     5
1001
GRADIENTCOLOR2ACI
1070
     2
1001
ACAD
1010
0.0
1020
0.0
1030
0.0
  0
LINE
  5
12652B
  8
SLIM
 10
8417.4979104780377
 20
-1275.4626017640969
 30
0.0
 11
8556.9605122421381
 21
-1135.9999999999991
 31
0.0
1001
GRADIENTCOLOR1ACI
1070
     5
1001
GRADIENTCOLOR2ACI
1070
     2
1001
ACAD
1010
0.0
1020
0.0
1030
0.0
  0
LINE
  5
12652C
  8
SLIM
 10
8419.7122202065257
 20
-1291.208804277753
 30
0.0
 11
8574.9210244842725
 21
-1135.9999999999991
 31
0.0
1001
GRADIENTCOLOR1ACI
1070
     5
1001
GRADIENTCOLOR2ACI
1070
     2
1001
ACAD
1010
0.0
1020
0.0
1030
0.0
  0
LINE
  5
12652D
  8
SLIM
 10
8421.9265299350063
 20
-1306.955006791409
 30
0.0
 11
8585.0000000000055
 21
-1143.8815367264081
 31
0.0
1001
GRADIENTCOLOR1ACI
1070
     5
1001
GRADIENTCOLOR2ACI
1070
     2
1001
ACAD
1010
0.0
1020
0.0
1030
0.0
  0
LINE
  5
12652E
  8
SLIM
 10
8424.1408396634924
 20
-1322.7012093050639
 30
0.0
 11
8585.0000000000055
 21
-1161.842048968547
 31
0.0
1001
GRADIENTCOLOR1ACI
1070
     5
1001
GRADIENTCOLOR2ACI
1070
     2
1001
ACAD
1010
0.0
1020
0.0
1030
0.0
  0
LINE
  5
12652F
  8
SLIM
 10
8426.3551493919713
 20
-1338.44741181872
 30
0.0
 11
8585.0000000000055
 21
-1179.802561210686
 31
0.0
1001
GRADIENTCOLOR1ACI
1070
     5
1001
GRADIENTCOLOR2ACI
1070
     2
1001
ACAD
1010
0.0
1020
0.0
1030
0.0
  0
LINE
  5
126530
  8
SLIM
 10
8428.5694591204538
 20
-1354.193614332376
 30
0.0
 11
8585.0000000000018
 21
-1197.7630734528259
 31
0.0
1001
GRADIENTCOLOR1ACI
1070
     5
1001
GRADIENTCOLOR2ACI
1070
     2
1001
ACAD
1010
0.0
1020
0.0
1030
0.0
  0
LINE
  5
126531
  8
SLIM
 10
8430.7837688489362
 20
-1369.9398168460309
 30
0.0
 11
8585.0000000000018
 21
-1215.7235856949651
 31
0.0
1001
GRADIENTCOLOR1ACI
1070
     5
1001
GRADIENTCOLOR2ACI
1070
     2
1001
ACAD
1010
0.0
1020
0.0
1030
0.0
  0
LINE
  5
126532
  8
SLIM
 10
8432.9980785774169
 20
-1385.686019359687
 30
0.0
 11
8585.0000000000018
 21
-1233.6840979371041
 31
0.0
1001
GRADIENTCOLOR1ACI
1070
     5
1001
GRADIENTCOLOR2ACI
1070
     2
1001
ACAD
1010
0.0
1020
0.0
1030
0.0
  0
LINE
  5
126533
  8
SLIM
 10
8443.0
 20
-1393.644610179244
 30
0.0
 11
8450.6446101792462
 21
-1385.9999999999991
 31
0.0
1001
GRADIENTCOLOR1ACI
1070
     5
1001
GRADIENTCOLOR2ACI
1070
     2
1001
ACAD
1010
0.0
1020
0.0
1030
0.0
  0
LINE
  5
126534
  8
SLIM
 10
8450.6446101792462
 20
-1385.9999999999991
 30
0.0
 11
8585.0
 21
-1251.644610179244
 31
0.0
1001
GRADIENTCOLOR1ACI
1070
     5
1001
GRADIENTCOLOR2ACI
1070
     2
1001
ACAD
1010
0.0
1020
0.0
1030
0.0
  0
LINE
  5
126535
  8
SLIM
 10
8444.6051224213843
 20
-1409.9999999999991
 30
0.0
 11
8468.6051224213825
 21
-1385.9999999999991
 31
0.0
1001
GRADIENTCOLOR1ACI
1070
     5
1001
GRADIENTCOLOR2ACI
1070
     2
1001
ACAD
1010
0.0
1020
0.0
1030
0.0
  0
LINE
  5
126536
  8
SLIM
 10
8468.6051224213825
 20
-1385.9999999999991
 30
0.0
 11
8583.0518371543658
 21
-1271.5532852670169
 31
0.0
1001
GRADIENTCOLOR1ACI
1070
     5
1001
GRADIENTCOLOR2ACI
1070
     2
1001
ACAD
1010
0.0
1020
0.0
1030
0.0
  0
LINE
  5
126537
  8
SLIM
 10
8462.5656346635205
 20
-1409.9999999999991
 30
0.0
 11
8486.5656346635205
 21
-1385.9999999999991
 31
0.0
1001
GRADIENTCOLOR1ACI
1070
     5
1001
GRADIENTCOLOR2ACI
1070
     2
1001
ACAD
1010
0.0
1020
0.0
1030
0.0
  0
LINE
  5
126538
  8
SLIM
 10
8486.5656346635205
 20
-1385.9999999999991
 30
0.0
 11
8580.1128442420159
 21
-1292.4527904215049
 31
0.0
1001
GRADIENTCOLOR1ACI
1070
     5
1001
GRADIENTCOLOR2ACI
1070
     2
1001
ACAD
1010
0.0
1020
0.0
1030
0.0
  0
LINE
  5
126539
  8
SLIM
 10
8480.5261469056604
 20
-1409.9999999999991
 30
0.0
 11
8504.5261469056604
 21
-1385.9999999999991
 31
0.0
1001
GRADIENTCOLOR1ACI
1070
     5
1001
GRADIENTCOLOR2ACI
1070
     2
1001
ACAD
1010
0.0
1020
0.0
1030
0.0
  0
LINE
  5
12653A
  8
SLIM
 10
8504.5261469056604
 20
-1385.9999999999991
 30
0.0
 11
8577.1738513296659
 21
-1313.3522955759929
 31
0.0
1001
GRADIENTCOLOR1ACI
1070
     5
1001
GRADIENTCOLOR2ACI
1070
     2
1001
ACAD
1010
0.0
1020
0.0
1030
0.0
  0
LINE
  5
12653B
  8
SLIM
 10
8498.4866591477985
 20
-1409.9999999999991
 30
0.0
 11
8522.4866591478003
 21
-1385.9999999999991
 31
0.0
1001
GRADIENTCOLOR1ACI
1070
     5
1001
GRADIENTCOLOR2ACI
1070
     2
1001
ACAD
1010
0.0
1020
0.0
1030
0.0
  0
LINE
  5
12653C
  8
SLIM
 10
8522.4866591478003
 20
-1385.9999999999991
 30
0.0
 11
8574.234858417316
 21
-1334.2518007304809
 31
0.0
1001
GRADIENTCOLOR1ACI
1070
     5
1001
GRADIENTCOLOR2ACI
1070
     2
1001
ACAD
1010
0.0
1020
0.0
1030
0.0
  0
LINE
  5
12653D
  8
SLIM
 10
8516.4471713899384
 20
-1409.9999999999991
 30
0.0
 11
8540.4471713899366
 21
-1385.9999999999991
 31
0.0
1001
GRADIENTCOLOR1ACI
1070
     5
1001
GRADIENTCOLOR2ACI
1070
     2
1001
ACAD
1010
0.0
1020
0.0
1030
0.0
  0
LINE
  5
12653E
  8
SLIM
 10
8540.4471713899366
 20
-1385.9999999999991
 30
0.0
 11
8571.2958655049661
 21
-1355.1513058849689
 31
0.0
1001
GRADIENTCOLOR1ACI
1070
     5
1001
GRADIENTCOLOR2ACI
1070
     2
1001
ACAD
1010
0.0
1020
0.0
1030
0.0
  0
LINE
  5
12653F
  8
SLIM
 10
8534.4076836320746
 20
-1409.9999999999991
 30
0.0
 11
8557.0
 21
-1387.4076836320739
 31
0.0
1001
GRADIENTCOLOR1ACI
1070
     5
1001
GRADIENTCOLOR2ACI
1070
     2
1001
ACAD
1010
0.0
1020
0.0
1030
0.0
  0
LINE
  5
126540
  8
SLIM
 10
8558.4076836320746
 20
-1385.9999999999991
 30
0.0
 11
8568.3568725926179
 21
-1376.0508110394569
 31
0.0
1001
GRADIENTCOLOR1ACI
1070
     5
1001
GRADIENTCOLOR2ACI
1070
     2
1001
ACAD
1010
0.0
1020
0.0
1030
0.0
  0
LINE
  5
126541
  8
SLIM
 10
8552.3681958742145
 20
-1409.9999999999991
 30
0.0
 11
8557.0
 21
-1405.368195874212
 31
0.0
1001
GRADIENTCOLOR1ACI
1070
     5
1001
GRADIENTCOLOR2ACI
1070
     2
1001
ACAD
1010
0.0
1020
0.0
1030
0.0
  0
LINE
  5
126542
  8
OBJECT
 10
8443.0
 20
-1409.9999999999991
 30
0.0
 11
8557.0
 21
-1409.9999999999991
 31
0.0
1001
ACDBBLOCKREPETAG
1070
     1
1071
        1
1005
0
  0
LINE
  5
126543
  8
OBJECT
 10
8433.0422321049627
 20
-1385.9999999999991
 30
0.0
 11
8566.9577678950409
 21
-1385.9999999999991
 31
0.0
1001
ACDBBLOCKREPETAG
1070
     1
1071
        2
1005
0
  0
LINE
  5
126544
  8
OBJECT
 10
8443.0
 20
-1409.9999999999991
 30
0.0
 11
8443.0
 21
-1385.9999999999991
 31
0.0
1001
ACDBBLOCKREPETAG
1070
     1
1071
        3
1005
0
  0
LINE
  5
126545
  8
OBJECT
 10
8557.0
 20
-1409.9999999999991
 30
0.0
 11
8557.0
 21
-1385.9999999999991
 31
0.0
1001
ACDBBLOCKREPETAG
1070
     1
1071
        4
1005
0
  0
LINE
  5
126546
  8
OBJECT
 10
8414.9999999999909
 20
-1135.9999999999991
 30
0.0
 11
8415.0
 21
-1257.699682809143
 31
0.0
1001
ACDBBLOCKREPETAG
1070
     1
1071
        5
1005
0
  0
LINE
  5
126547
  8
OBJECT
 10
8585.0000000000055
 20
-1135.9999999999991
 30
0.0
 11
8585.0
 21
-1257.6996828091719
 31
0.0
1001
ACDBBLOCKREPETAG
1070
     1
1071
        6
1005
0
  0
LINE
  5
126548
  8
OBJECT
 10
8415.0
 20
-1257.699682809143
 30
0.0
 11
8433.0422321049627
 21
-1385.9999999999991
 31
0.0
1001
ACDBBLOCKREPETAG
1070
     1
1071
        7
1005
0
  0
LINE
  5
126549
  8
OBJECT
 10
8566.9577678950409
 20
-1385.9999999999991
 30
0.0
 11
8585.0
 21
-1257.6996828091719
 31
0.0
1001
ACDBBLOCKREPETAG
1070
     1
1071
        8
1005
0
  0
LINE
  5
12654A
  8
OBJECT
 10
8585.0000000000055
 20
-1135.9999999999991
 30
0.0
 11
8414.9999999999909
 21
-1135.9999999999991
 31
0.0
1001
ACDBBLOCKREPETAG
1070
     1
1071
        9
1005
0
  0
LINE
  5
12654B
  8
SLIM
 10
12414.999999999991
 20
-1152.2369265471771
 30
0.0
 11
12431.23692654717
 21
-1136.0
 31
0.0
1001
ACAD
1010
0.0
1020
0.0
1030
0.0
  0
LINE
  5
12654C
  8
SLIM
 10
12414.999999999991
 20
-1170.197438789314
 30
0.0
 11
12449.19743878931
 21
-1136.0
 31
0.0
1001
ACAD
1010
0.0
1020
0.0
1030
0.0
  0
LINE
  5
12654D
  8
SLIM
 10
12414.999999999991
 20
-1188.1579510314509
 30
0.0
 11
12467.15795103144
 21
-1136.0
 31
0.0
1001
ACAD
1010
0.0
1020
0.0
1030
0.0
  0
LINE
  5
12654E
  8
SLIM
 10
12414.999999999991
 20
-1206.1184632735881
 30
0.0
 11
12485.11846327358
 21
-1136.0
 31
0.0
1001
ACAD
1010
0.0
1020
0.0
1030
0.0
  0
LINE
  5
12654F
  8
SLIM
 10
12415.0
 20
-1224.0789755157259
 30
0.0
 11
12503.07897551572
 21
-1136.0
 31
0.0
1001
ACAD
1010
0.0
1020
0.0
1030
0.0
  0
LINE
  5
126550
  8
SLIM
 10
12415.0
 20
-1242.0394877578631
 30
0.0
 11
12521.03948775786
 21
-1136.0
 31
0.0
1001
ACAD
1010
0.0
1020
0.0
1030
0.0
  0
LINE
  5
126551
  8
SLIM
 10
12415.283600749561
 20
-1259.716399250442
 30
0.0
 11
12539.0
 21
-1136.0
 31
0.0
1001
ACAD
1010
0.0
1020
0.0
1030
0.0
  0
LINE
  5
126552
  8
SLIM
 10
12417.49791047804
 20
-1275.4626017640981
 30
0.0
 11
12556.96051224214
 21
-1136.0
 31
0.0
1001
ACAD
1010
0.0
1020
0.0
1030
0.0
  0
LINE
  5
126553
  8
SLIM
 10
12419.71222020652
 20
-1291.208804277753
 30
0.0
 11
12574.921024484271
 21
-1136.0
 31
0.0
1001
ACAD
1010
0.0
1020
0.0
1030
0.0
  0
LINE
  5
126554
  8
SLIM
 10
12421.92652993501
 20
-1306.9550067914081
 30
0.0
 11
12585.000000000009
 21
-1143.8815367264081
 31
0.0
1001
ACAD
1010
0.0
1020
0.0
1030
0.0
  0
LINE
  5
126555
  8
SLIM
 10
12424.140839663491
 20
-1322.7012093050639
 30
0.0
 11
12585.0
 21
-1161.8420489685479
 31
0.0
1001
ACAD
1010
0.0
1020
0.0
1030
0.0
  0
LINE
  5
126556
  8
SLIM
 10
12426.35514939196
 20
-1338.447411818719
 30
0.0
 11
12585.0
 21
-1179.8025612106869
 31
0.0
1001
ACAD
1010
0.0
1020
0.0
1030
0.0
  0
LINE
  5
126557
  8
SLIM
 10
12428.56945912045
 20
-1354.193614332374
 30
0.0
 11
12585.0
 21
-1197.763073452827
 31
0.0
1001
ACAD
1010
0.0
1020
0.0
1030
0.0
  0
LINE
  5
126558
  8
SLIM
 10
12430.78376884894
 20
-1369.93981684603
 30
0.0
 11
12585.0
 21
-1215.723585694966
 31
0.0
1001
ACAD
1010
0.0
1020
0.0
1030
0.0
  0
LINE
  5
126559
  8
SLIM
 10
12432.998078577421
 20
-1385.686019359686
 30
0.0
 11
12585.0
 21
-1233.684097937105
 31
0.0
1001
ACAD
1010
0.0
1020
0.0
1030
0.0
  0
LINE
  5
12655A
  8
SLIM
 10
12432.999999999991
 20
-1403.6446101792519
 30
0.0
 11
12585.0
 21
-1251.6446101792451
 31
0.0
1001
ACAD
1010
0.0
1020
0.0
1030
0.0
  0
LINE
  5
12655B
  8
SLIM
 10
12432.999999999991
 20
-1421.60512242139
 30
0.0
 11
12583.05183715436
 21
-1271.5532852670169
 31
0.0
1001
ACAD
1010
0.0
1020
0.0
1030
0.0
  0
LINE
  5
12655C
  8
SLIM
 10
12446.565634663521
 20
-1425.999999999997
 30
0.0
 11
12580.11284424201
 21
-1292.4527904215049
 31
0.0
1001
ACAD
1010
0.0
1020
0.0
1030
0.0
  0
LINE
  5
12655D
  8
SLIM
 10
12464.52614690566
 20
-1425.999999999997
 30
0.0
 11
12577.17385132967
 21
-1313.352295575992
 31
0.0
1001
ACAD
1010
0.0
1020
0.0
1030
0.0
  0
LINE
  5
12655E
  8
SLIM
 10
12482.4866591478
 20
-1425.999999999998
 30
0.0
 11
12574.23485841732
 21
-1334.2518007304791
 31
0.0
1001
ACAD
1010
0.0
1020
0.0
1030
0.0
  0
LINE
  5
12655F
  8
SLIM
 10
12500.44717138994
 20
-1425.9999999999991
 30
0.0
 11
12571.29586550497
 21
-1355.151305884966
 31
0.0
1001
ACAD
1010
0.0
1020
0.0
1030
0.0
  0
LINE
  5
126560
  8
SLIM
 10
12518.40768363208
 20
-1425.9999999999991
 30
0.0
 11
12568.35687259262
 21
-1376.0508110394539
 31
0.0
1001
ACAD
1010
0.0
1020
0.0
1030
0.0
  0
LINE
  5
126561
  8
SLIM
 10
12536.368195874211
 20
-1425.9999999999991
 30
0.0
 11
12567.000000000009
 21
-1395.368195874202
 31
0.0
1001
ACAD
1010
0.0
1020
0.0
1030
0.0
  0
LINE
  5
126562
  8
SLIM
 10
12554.328708116351
 20
-1426.0
 30
0.0
 11
12567.000000000009
 21
-1413.328708116341
 31
0.0
1001
ACAD
1010
0.0
1020
0.0
1030
0.0
  0
LINE
  5
126563
  8
OBJECT
 10
12432.999999999991
 20
-1425.999999999997
 30
0.0
 11
12567.000000000009
 21
-1426.0
 31
0.0
1001
ACDBBLOCKREPETAG
1070
     1
1071
        1
1005
126563
  0
LINE
  5
126564
  8
OBJECT
 10
12414.999999999991
 20
-1136.0
 30
0.0
 11
12415.0
 21
-1257.6996828091419
 31
0.0
1001
ACDBBLOCKREPETAG
1070
     1
1071
        2
1005
126564
  0
LINE
  5
126565
  8
OBJECT
 10
12585.000000000009
 20
-1136.0
 30
0.0
 11
12585.0
 21
-1257.6996828091731
 31
0.0
1001
ACDBBLOCKREPETAG
1070
     1
1071
        3
1005
126565
  0
LINE
  5
126566
  8
OBJECT
 10
12415.0
 20
-1257.6996828091419
 30
0.0
 11
12432.999999999991
 21
-1385.6996828090821
 31
0.0
1001
ACDBBLOCKREPETAG
1070
     1
1071
        4
1005
126566
  0
LINE
  5
126567
  8
OBJECT
 10
12567.000000000009
 20
-1385.6996828091289
 30
0.0
 11
12585.0
 21
-1257.6996828091731
 31
0.0
1001
ACDBBLOCKREPETAG
1070
     1
1071
        5
1005
126567
  0
LINE
  5
126568
  8
OBJECT
 10
12585.000000000009
 20
-1136.0
 30
0.0
 11
12414.999999999991
 21
-1136.0
 31
0.0
1001
ACDBBLOCKREPETAG
1070
     1
1071
        6
1005
126568
  0
LINE
  5
126569
  8
OBJECT
 10
12432.999999999991
 20
-1385.6996828090821
 30
0.0
 11
12432.999999999991
 21
-1425.999999999997
 31
0.0
1001
ACDBBLOCKREPETAG
1070
     1
1071
        8
1005
126569
  0
LINE
  5
12656A
  8
OBJECT
 10
12567.000000000009
 20
-1385.6996828091289
 30
0.0
 11
12567.000000000009
 21
-1426.0
 31
0.0
1001
ACDBBLOCKREPETAG
1070
     1
1071
        9
1005
12656A
  0
TEXT
  5
12656B
  8
SLIM
 10
97.714285714225255
 20
-1707.9999999996919
 30
0.0
 40
48.0
  1
A0030
 41
0.75
1001
ACDBBLOCKREPETAG
1070
     1
1071
      119
1005
0
  0
TEXT
  5
12656C
  8
SLIM
 10
457.71428571410331
 20
-1243.9999999998499
 30
0.0
 40
48.0
  1
A0020
 41
0.75
1001
ACDBBLOCKREPETAG
1070
     1
1071
      119
1005
0
  0
TEXT
  5
12656D
  8
SLIM
 10
101.1428571427967
 20
-1243.9999999998499
 30
0.0
 40
48.0
  1
A0010
 41
0.75
1001
ACDBBLOCKREPETAG
1070
     1
1071
      119
1005
0
  0
LINE
  5
12656E
  8
OBJECT
 10
2633.0
 20
-634.0
 30
0.0
 11
2640.0
 21
-634.0
 31
0.0
1001
ACDBBLOCKREPETAG
1070
     1
1071
       45
1005
12656E
  0
LINE
  5
12656F
  8
OBJECT
 10
2640.0
 20
-634.0
 30
0.0
 11
2640.0
 21
-755.0
 31
0.0
1001
ACDBBLOCKREPETAG
1070
     1
1071
       46
1005
12656F
  0
LINE
  5
126570
  8
OBJECT
 10
2633.0
 20
-755.0
 30
0.0
 11
2633.0
 21
-634.0
 31
0.0
1001
ACDBBLOCKREPETAG
1070
     1
1071
       47
1005
126570
  0
LINE
  5
126571
  8
CENTER
 10
2655.0
 20
-696.0
 30
0.0
 11
2571.0
 21
-696.0
 31
0.0
1001
ACDBBLOCKREPETAG
1070
     1
1071
       48
1005
126571
  0
LINE
  5
126572
  8
OBJECT
 10
2633.0
 20
-637.0
 30
0.0
 11
2597.0
 21
-637.0
 31
0.0
1001
ACDBBLOCKREPETAG
1070
     1
1071
       49
1005
126572
  0
LINE
  5
126573
  8
OBJECT
 10
2597.0
 20
-637.0
 30
0.0
 11
2597.0
 21
-755.0
 31
0.0
1001
ACDBBLOCKREPETAG
1070
     1
1071
       50
1005
126573
  0
LINE
  5
126574
  8
OBJECT
 10
2597.0
 20
-755.0
 30
0.0
 11
2640.0
 21
-755.0
 31
0.0
1001
ACDBBLOCKREPETAG
1070
     1
1071
       51
1005
126574
  0
LINE
  5
126575
  8
OBJECT
 10
2593.0
 20
-641.5
 30
0.0
 11
2586.0
 21
-641.5
 31
0.0
1001
ACDBBLOCKREPETAG
1070
     1
1071
       52
1005
126575
  0
LINE
  5
126576
  8
OBJECT
 10
2586.0
 20
-750.49999999999989
 30
0.0
 11
2593.0
 21
-750.49999999999989
 31
0.0
1001
ACDBBLOCKREPETAG
1070
     1
1071
       53
1005
126576
  0
LINE
  5
126577
  8
OBJECT
 10
2593.0
 20
-750.49999999999989
 30
0.0
 11
2593.0
 21
-641.5
 31
0.0
1001
ACDBBLOCKREPETAG
1070
     1
1071
       54
1005
126577
  0
LINE
  5
126578
  8
OBJECT
 10
2597.0
 20
-637.0
 30
0.0
 11
2593.0
 21
-641.5
 31
0.0
1001
ACDBBLOCKREPETAG
1070
     1
1071
       55
1005
126578
  0
LINE
  5
126579
  8
OBJECT
 10
2597.0
 20
-755.0
 30
0.0
 11
2593.0
 21
-750.49999999999989
 31
0.0
1001
ACDBBLOCKREPETAG
1070
     1
1071
       56
1005
126579
  0
LINE
  5
12657A
  8
OBJECT
 10
2583.0
 20
-634.0
 30
0.0
 11
2580.0
 21
-634.0
 31
0.0
1001
ACDBBLOCKREPETAG
1070
     1
1071
       57
1005
12657A
  0
ARC
  5
12657B
  8
OBJECT
 10
2583.0
 20
-637.0
 30
0.0
 40
3.0
 50
0.0
 51
90.0
1001
ACDBBLOCKREPETAG
1070
     1
1071
       58
1005
12657B
  0
LINE
  5
12657C
  8
OBJECT
 10
2580.0
 20
-758.0
 30
0.0
 11
2583.0
 21
-758.0
 31
0.0
1001
ACDBBLOCKREPETAG
1070
     1
1071
       59
1005
12657C
  0
ARC
  5
12657D
  8
OBJECT
 10
2583.0
 20
-755.0
 30
0.0
 40
3.0
 50
270.0
 51
0.0
1001
ACDBBLOCKREPETAG
1070
     1
1071
       60
1005
12657D
  0
LINE
  5
12657E
  8
OBJECT
 10
2586.0
 20
-755.0
 30
0.0
 11
2586.0
 21
-637.0
 31
0.0
1001
ACDBBLOCKREPETAG
1070
     1
1071
       61
1005
12657E
  0
LINE
  5
12657F
  8
HIDDEN
 10
2588.0
 20
-651.5
 30
0.0
 11
2588.0
 21
-740.5
 31
0.0
1001
ACDBBLOCKREPETAG
1070
     1
1071
       63
1005
12657F
  0
TEXT
  5
126580
  8
SLIM
 10
0.0000035665234464
 20
-775.9999954146823
 30
0.0
 40
79.999999999972701
  1
下部枝管バリエーション
 41
0.75
1001
ACDBBLOCKREPETAG
1070
     1
1071
      119
1005
120BCB
  0
LINE
  5
126581
  8
DIM
 10
2650.0
 20
-3626.9999999999968
 30
0.0
 11
2728.479620594459
 21
-3626.9999999999968
 31
0.0
  0
LINE
  5
126582
  8
DIM
 10
2650.0
 20
-3532.9999999999959
 30
0.0
 11
2728.479620594459
 21
-3532.9999999999959
 31
0.0
  0
LINE
  5
126583
  8
DIM
 10
2718.479620594459
 20
-3606.9999999999968
 30
0.0
 11
2718.479620594459
 21
-3552.9999999999968
 31
0.0
  0
INSERT
  5
126584
  8
DIM
  2
_OPEN30
 10
2718.479620594459
 20
-3626.9999999999968
 30
0.0
 41
20.0
 42
20.0
 43
20.0
 50
270.0
  0
INSERT
  5
126585
  8
DIM
  2
_OPEN30
 10
2718.479620594459
 20
-3532.9999999999959
 30
0.0
 41
20.0
 42
20.0
 43
20.0
 50
90.0
  0
INSERT
  5
126586
  8
OBJECT
  2
*U46
 10
0.0
 20
0.0
 30
0.0
  0
LINE
  5
126587
  8
DIM
 10
2650.0
 20
-3984.9999999999991
 30
0.0
 11
2726.8409284037339
 21
-3984.9999999999991
 31
0.0
  0
LINE
  5
126588
  8
DIM
 10
2665.0
 20
-3940.9999999999991
 30
0.0
 11
2726.8409284037339
 21
-3940.9999999999991
 31
0.0
  0
LINE
  5
126589
  8
DIM
 10
2716.8409284037339
 20
-4004.9999999999991
 30
0.0
 11
2716.8409284037339
 21
-4024.9999999999968
 31
0.0
  0
LINE
  5
12658A
  8
DIM
 10
2716.8409284037339
 20
-3920.9999999999968
 30
0.0
 11
2716.8409284037339
 21
-3900.9999999999982
 31
0.0
  0
LINE
  5
12658B
  8
DIM
 10
2716.8409284037339
 20
-3984.9999999999991
 30
0.0
 11
2716.8409284037339
 21
-3940.9999999999991
 31
0.0
  0
INSERT
  5
12658C
  8
DIM
  2
_OPEN30
 10
2716.8409284037339
 20
-3984.9999999999991
 30
0.0
 41
20.0
 42
20.0
 43
20.0
 50
90.0
  0
INSERT
  5
12658D
  8
DIM
  2
_OPEN30
 10
2716.8409284037339
 20
-3940.9999999999991
 30
0.0
 41
20.0
 42
20.0
 43
20.0
 50
270.0
  0
INSERT
  5
12658E
  8
OBJECT
  2
*U47
 10
0.0
 20
0.0
 30
0.0
  0
LINE
  5
12658F
  8
DIM
 10
2500.0
 20
-3479.9999999999959
 30
0.0
 11
2500.0
 21
-3442.2081219844458
 31
0.0
  0
LINE
  5
126590
  8
DIM
 10
2640.0
 20
-3522.9999999999959
 30
0.0
 11
2640.0
 21
-3442.2081219844458
 31
0.0
  0
LINE
  5
126591
  8
DIM
 10
2520.0
 20
-3452.208121984444
 30
0.0
 11
2620.0
 21
-3452.208121984444
 31
0.0
  0
INSERT
  5
126592
  8
DIM
  2
_OPEN30
 10
2500.0
 20
-3452.208121984444
 30
0.0
 41
20.0
 42
20.0
 43
20.0
 50
180.0
  0
INSERT
  5
126593
  8
DIM
  2
_OPEN30
 10
2640.0
 20
-3452.208121984444
 30
0.0
 41
20.0
 42
20.0
 43
20.0
  0
INSERT
  5
126594
  8
OBJECT
  2
*U48
 10
0.0
 20
0.0
 30
0.0
  0
TEXT
  5
126595
  8
SLIM
 10
3270.9999999999991
 20
-3357.50001604727
 30
0.0
 40
40.0
  1
C寸法
 41
0.75
  0
TEXT
  5
126596
  8
SLIM
 10
3270.9999999999991
 20
-3287.5000160472709
 30
0.0
 40
40.0
  1
B寸法
 41
0.75
  0
TEXT
  5
126597
  8
SLIM
 10
3270.2857142857151
 20
-3217.5000160472709
 30
0.0
 40
40.0
  1
A寸法
 41
0.75
  0
TEXT
  5
126598
  8
SLIM
 10
3669.2857142857142
 20
-3357.50001604727
 30
0.0
 40
40.0
  1
140
 41
0.75
  0
TEXT
  5
126599
  8
SLIM
 10
3409.2857142857151
 20
-3357.50001604727
 30
0.0
 40
40.0
  1
140
 41
0.75
  0
TEXT
  5
12659A
  8
SLIM
 10
3539.2857142857151
 20
-3357.50001604727
 30
0.0
 40
40.0
  1
140
 41
0.75
  0
TEXT
  5
12659B
  8
SLIM
 10
3681.4285714285711
 20
-3287.5000160472709
 30
0.0
 40
40.0
  1
59
 41
0.75
  0
TEXT
  5
12659C
  8
SLIM
 10
3420.0
 20
-3287.5000160472709
 30
0.0
 40
40.0
  1
44
 41
0.75
  0
TEXT
  5
12659D
  8
SLIM
 10
3550.7142857142849
 20
-3287.5000160472709
 30
0.0
 40
40.0
  1
52
 41
0.75
  0
TEXT
  5
12659E
  8
SLIM
 10
3471.0
 20
-3092.5000160472709
 30
0.0
 40
40.0
  1
横枝管サイズ
 41
0.75
  0
TEXT
  5
12659F
  8
SLIM
 10
3654.8571428571422
 20
-3147.5000160472709
 30
0.0
 40
30.0
  1
75（3）
 41
0.75
  0
TEXT
  5
1265A0
  8
SLIM
 10
3524.8571428571422
 20
-3147.5000160472709
 30
0.0
 40
30.0
  1
65（2）
 41
0.75
  0
TEXT
  5
1265A1
  8
SLIM
 10
3397.0
 20
-3147.5000160472709
 30
0.0
 40
30.0
  1
50（1）
 41
0.75
  0
TEXT
  5
1265A2
  8
SLIM
 10
3668.5714285714289
 20
-3217.5000160472709
 30
0.0
 40
40.0
  1
124
 41
0.75
  0
TEXT
  5
1265A3
  8
SLIM
 10
3420.0
 20
-3217.5000160472709
 30
0.0
 40
40.0
  1
94
 41
0.75
  0
TEXT
  5
1265A4
  8
SLIM
 10
3542.142857142856
 20
-3217.5000160472709
 30
0.0
 40
40.0
  1
110
 41
0.75
  0
TEXT
  5
1265A5
  8
SLIM
 10
2349.9999999999991
 20
-3117.5000000000009
 30
0.0
 40
75.0
  1
下部枝管サイズ毎の形状
 41
0.75
  0
TEXT
  5
1265A6
  8
SLIM
 10
4394.25
 20
-4102.4999999999973
 30
0.0
 40
35.0
  1
通常枝75（3）
 41
0.75
  0
TEXT
  5
1265A7
  8
SLIM
 10
3394.2499999999991
 20
-4102.4999999999973
 30
0.0
 40
35.0
  1
通常枝65（2）
 41
0.75
  0
TEXT
  5
1265A8
  8
SLIM
 10
2396.75
 20
-4102.4999999999973
 30
0.0
 40
35.0
  1
通常枝50（1）
 41
0.75
  0
TEXT
  5
1265A9
  8
SLIM
 10
2337.75
 20
282.50000000000011
 30
0.0
 40
35.0
  1
（枝管サイズ毎に寸法が異なります。管底の位置は全サイズで同じです）
 41
0.75
  0
TEXT
  5
1265AA
  8
SLIM
 10
2350.0
 20
532.5
 30
0.0
 40
75.0
  1
側面図の代表機種
 41
0.75
  0
TEXT
  5
1265AB
  8
SLIM
 10
2350.0
 20
369.99999999999989
 30
0.0
 40
100.0
  1
4SLT2-A3-A0020-P440
 41
0.75
  0
TEXT
  5
1265AC
  8
SLIM
 10
0.0
 20
670.0
 30
0.0
 40
100.0
  1
4SLT2-A3-A00X0-PXXX-S
 41
0.75
  0
TEXT
  5
1265AD
  8
SLIM
 10
0.0
 20
520.0
 30
0.0
 40
100.0
  1
4SLT2-A3-A00X0-PXXX-W
 41
0.75
  0
LINE
  5
1265AE
  8
OBJECT
 10
12585.999999999991
 20
-1508.9999999999991
 30
0.0
 11
12585.999999999991
 21
-1518.9999999999991
 31
0.0
1001
ACDBBLOCKREPETAG
1070
     1
1071
      121
1005
1265AE
  0
LINE
  5
1265AF
  8
OBJECT
 10
12569.999999999991
 20
-1508.9999999999991
 30
0.0
 11
12569.999999999991
 21
-1518.9999999999991
 31
0.0
1001
ACDBBLOCKREPETAG
1070
     1
1071
      122
1005
1265AF
  0
LINE
  5
1265B0
  8
OBJECT
 10
12585.999999999991
 20
-1518.9999999999991
 30
0.0
 11
12569.999999999991
 21
-1518.9999999999991
 31
0.0
1001
ACDBBLOCKREPETAG
1070
     1
1071
      123
1005
1265B0
  0
LINE
  5
1265B1
  8
OBJECT
 10
12590.0
 20
-1469.9999999999959
 30
0.0
 11
12424.0
 21
-1469.9999999999959
 31
0.0
1001
ACDBBLOCKREPETAG
1070
     1
1071
      124
1005
1265B1
  0
LINE
  5
1265B2
  8
OBJECT
 10
12590.0
 20
-1484.9999999999991
 30
0.0
 11
12590.0
 21
-1469.9999999999959
 31
0.0
1001
ACDBBLOCKREPETAG
1070
     1
1071
      125
1005
1265B2
  0
LINE
  5
1265B3
  8
OBJECT
 10
12424.0
 20
-1484.9999999999991
 30
0.0
 11
12590.0
 21
-1484.9999999999991
 31
0.0
1001
ACDBBLOCKREPETAG
1070
     1
1071
      126
1005
1265B3
  0
LINE
  5
1265B4
  8
OBJECT
 10
12567.49999999998
 20
-1484.9999999999991
 30
0.0
 11
12567.49999999998
 21
-1494.9999999999991
 31
0.0
1001
ACDBBLOCKREPETAG
1070
     1
1071
      127
1005
1265B4
  0
LINE
  5
1265B5
  8
OBJECT
 10
12572.999999999991
 20
-1494.9999999999991
 30
0.0
 11
12572.999999999991
 21
-1484.9999999999991
 31
0.0
1001
ACDBBLOCKREPETAG
1070
     1
1071
      128
1005
1265B5
  0
LINE
  5
1265B6
  8
OBJECT
 10
12582.999999999991
 20
-1494.9999999999991
 30
0.0
 11
12582.999999999991
 21
-1484.9999999999991
 31
0.0
1001
ACDBBLOCKREPETAG
1070
     1
1071
      129
1005
1265B6
  0
LINE
  5
1265B7
  8
OBJECT
 10
12424.0
 20
-1494.9999999999991
 30
0.0
 11
12424.0
 21
-1508.9999999999959
 31
0.0
1001
ACDBBLOCKREPETAG
1070
     1
1071
      130
1005
1265B7
  0
LINE
  5
1265B8
  8
OBJECT
 10
12590.0
 20
-1494.9999999999991
 30
0.0
 11
12590.0
 21
-1508.9999999999959
 31
0.0
1001
ACDBBLOCKREPETAG
1070
     1
1071
      131
1005
1265B8
  0
LINE
  5
1265B9
  8
OBJECT
 10
12424.0
 20
-1508.9999999999959
 30
0.0
 11
12590.0
 21
-1508.9999999999959
 31
0.0
1001
ACDBBLOCKREPETAG
1070
     1
1071
      132
1005
1265B9
  0
LINE
  5
1265BA
  8
OBJECT
 10
12424.0
 20
-1494.9999999999991
 30
0.0
 11
12590.0
 21
-1494.9999999999991
 31
0.0
1001
ACDBBLOCKREPETAG
1070
     1
1071
      133
1005
1265BA
  0
LINE
  5
1265BB
  8
OBJECT
 10
12432.49999999998
 20
-1484.9999999999991
 30
0.0
 11
12432.49999999998
 21
-1494.9999999999991
 31
0.0
1001
ACDBBLOCKREPETAG
1070
     1
1071
      134
1005
1265BB
  0
LINE
  5
1265BC
  8
OBJECT
 10
12434.0
 20
-1433.9999999999959
 30
0.0
 11
12565.999999999991
 21
-1433.9999999999959
 31
0.0
1001
ACDBBLOCKREPETAG
1070
     1
1071
      135
1005
1265BC
  0
LINE
  5
1265BD
  8
OBJECT
 10
12424.0
 20
-1484.9999999999991
 30
0.0
 11
12424.0
 21
-1469.9999999999959
 31
0.0
1001
ACDBBLOCKREPETAG
1070
     1
1071
      136
1005
1265BD
  0
LINE
  5
1265BE
  8
HIDDEN
 10
12443.0
 20
-1444.9999999999991
 30
0.0
 11
12557.0
 21
-1444.9999999999991
 31
0.0
1001
ACDBBLOCKREPETAG
1070
     1
1071
      137
1005
1265BE
  0
LINE
  5
1265BF
  8
OBJECT
 10
12586.999999999991
 20
-1468.2
 30
0.0
 11
12586.999999999991
 21
-1469.9999999999991
 31
0.0
1001
ACDBBLOCKREPETAG
1070
     1
1071
      138
1005
1265BF
  0
LINE
  5
1265C0
  8
OBJECT
 10
12568.999999999991
 20
-1468.2
 30
0.0
 11
12568.999999999991
 21
-1469.9999999999991
 31
0.0
1001
ACDBBLOCKREPETAG
1070
     1
1071
      139
1005
1265C0
  0
LINE
  5
1265C1
  8
OBJECT
 10
12572.249999999991
 20
-1458.4999999999991
 30
0.0
 11
12583.749999999991
 21
-1458.4999999999991
 31
0.0
1001
ACDBBLOCKREPETAG
1070
     1
1071
      140
1005
1265C1
  0
LINE
  5
1265C2
  8
OBJECT
 10
12572.249999999991
 20
-1458.4999999999991
 30
0.0
 11
12572.249999999991
 21
-1468.2
 31
0.0
1001
ACDBBLOCKREPETAG
1070
     1
1071
      141
1005
1265C2
  0
LINE
  5
1265C3
  8
OBJECT
 10
12583.749999999991
 20
-1458.4999999999991
 30
0.0
 11
12583.749999999991
 21
-1468.2
 31
0.0
1001
ACDBBLOCKREPETAG
1070
     1
1071
      142
1005
1265C3
  0
LINE
  5
1265C4
  8
OBJECT
 10
12431.99999999998
 20
-1550.0
 30
0.0
 11
12567.99999999998
 21
-1550.0
 31
0.0
1001
ACDBBLOCKREPETAG
1070
     1
1071
      143
1005
1265C4
  0
LINE
  5
1265C5
  8
OBJECT
 10
12431.99999999998
 20
-1550.0
 30
0.0
 11
12431.99999999998
 21
-1508.9999999999991
 31
0.0
1001
ACDBBLOCKREPETAG
1070
     1
1071
      144
1005
1265C5
  0
LINE
  5
1265C6
  8
OBJECT
 10
12567.99999999998
 20
-1550.0
 30
0.0
 11
12567.99999999998
 21
-1508.9999999999991
 31
0.0
1001
ACDBBLOCKREPETAG
1070
     1
1071
      145
1005
1265C6
  0
LINE
  5
1265C7
  8
OBJECT
 10
12586.999999999991
 20
-1468.2
 30
0.0
 11
12568.999999999991
 21
-1468.2
 31
0.0
1001
ACDBBLOCKREPETAG
1070
     1
1071
      146
1005
1265C7
  0
LINE
  5
1265C8
  8
CENTER
 10
12500.0
 20
-1174.9999999999991
 30
0.0
 11
12500.0
 21
-1564.9999999999991
 31
0.0
1001
ACDBBLOCKREPETAG
1070
     1
1071
      147
1005
1265C8
  0
LINE
  5
1265C9
  8
OBJECT
 10
12425.0
 20
-1174.9999999999991
 30
0.0
 11
12425.0
 21
-1256.9999999999959
 31
0.0
1001
ACDBBLOCKREPETAG
1070
     1
1071
      148
1005
1265C9
  0
LINE
  5
1265CA
  8
OBJECT
 10
12575.0
 20
-1174.9999999999991
 30
0.0
 11
12575.0
 21
-1256.999999999992
 31
0.0
1001
ACDBBLOCKREPETAG
1070
     1
1071
      149
1005
1265CA
  0
LINE
  5
1265CB
  8
OBJECT
 10
12425.0
 20
-1256.9999999999959
 30
0.0
 11
12575.0
 21
-1256.999999999992
 31
0.0
1001
ACDBBLOCKREPETAG
1070
     1
1071
      150
1005
1265CB
  0
LINE
  5
1265CC
  8
OBJECT
 10
12443.0
 20
-1433.9999999999959
 30
0.0
 11
12443.0
 21
-1384.999999999992
 31
0.0
1001
ACDBBLOCKREPETAG
1070
     1
1071
      151
1005
1265CC
  0
LINE
  5
1265CD
  8
OBJECT
 10
12557.0
 20
-1384.999999999992
 30
0.0
 11
12443.0
 21
-1384.999999999992
 31
0.0
1001
ACDBBLOCKREPETAG
1070
     1
1071
      152
1005
1265CD
  0
LINE
  5
1265CE
  8
OBJECT
 10
12557.0
 20
-1384.999999999992
 30
0.0
 11
12557.0
 21
-1433.9999999999959
 31
0.0
1001
ACDBBLOCKREPETAG
1070
     1
1071
      153
1005
1265CE
  0
LINE
  5
1265CF
  8
OBJECT
 10
12425.0
 20
-1256.9999999999959
 30
0.0
 11
12443.0
 21
-1384.999999999992
 31
0.0
1001
ACDBBLOCKREPETAG
1070
     1
1071
      154
1005
1265CF
  0
LINE
  5
1265D0
  8
OBJECT
 10
12557.0
 20
-1384.999999999992
 30
0.0
 11
12575.0
 21
-1256.999999999992
 31
0.0
1001
ACDBBLOCKREPETAG
1070
     1
1071
      155
1005
1265D0
  0
LINE
  5
1265D1
  8
OBJECT
 10
12434.0
 20
-1469.9999999999959
 30
0.0
 11
12434.0
 21
-1433.9999999999959
 31
0.0
1001
ACDBBLOCKREPETAG
1070
     1
1071
      156
1005
1265D1
  0
LINE
  5
1265D2
  8
OBJECT
 10
12566.0
 20
-1469.9999999999959
 30
0.0
 11
12565.999999999991
 21
-1433.9999999999959
 31
0.0
1001
ACDBBLOCKREPETAG
1070
     1
1071
      157
1005
1265D2
  0
LINE
  5
1265D3
  8
OBJECT
 10
12454.75
 20
-1459.699999999993
 30
0.0
 11
12467.25
 21
-1459.699999999993
 31
0.0
1001
ACDBBLOCKREPETAG
1070
     1
1071
      158
1005
1265D3
  0
LINE
  5
1265D4
  8
OBJECT
 10
12446.0
 20
-1469.9999999999959
 30
0.0
 11
12446.0
 21
-1467.699999999996
 31
0.0
1001
ACDBBLOCKREPETAG
1070
     1
1071
      159
1005
1265D4
  0
LINE
  5
1265D5
  8
OBJECT
 10
12476.0
 20
-1469.9999999999959
 30
0.0
 11
12476.0
 21
-1467.699999999996
 31
0.0
1001
ACDBBLOCKREPETAG
1070
     1
1071
      160
1005
1265D5
  0
LINE
  5
1265D6
  8
OBJECT
 10
12454.75
 20
-1459.699999999993
 30
0.0
 11
12454.75
 21
-1467.699999999996
 31
0.0
1001
ACDBBLOCKREPETAG
1070
     1
1071
      161
1005
1265D6
  0
LINE
  5
1265D7
  8
OBJECT
 10
12467.25
 20
-1459.699999999993
 30
0.0
 11
12467.25
 21
-1467.699999999996
 31
0.0
1001
ACDBBLOCKREPETAG
1070
     1
1071
      162
1005
1265D7
  0
LINE
  5
1265D8
  8
OBJECT
 10
12446.0
 20
-1467.699999999996
 30
0.0
 11
12476.0
 21
-1467.699999999996
 31
0.0
1001
ACDBBLOCKREPETAG
1070
     1
1071
      163
1005
1265D8
  0
LINE
  5
1265D9
  8
OBJECT
 10
12453.0
 20
-1508.9999999999959
 30
0.0
 11
12453.0
 21
-1518.9999999999959
 31
0.0
1001
ACDBBLOCKREPETAG
1070
     1
1071
      164
1005
1265D9
  0
LINE
  5
1265DA
  8
OBJECT
 10
12469.0
 20
-1508.9999999999959
 30
0.0
 11
12469.0
 21
-1518.9999999999959
 31
0.0
1001
ACDBBLOCKREPETAG
1070
     1
1071
      165
1005
1265DA
  0
LINE
  5
1265DB
  8
OBJECT
 10
12453.0
 20
-1518.9999999999959
 30
0.0
 11
12469.0
 21
-1518.9999999999959
 31
0.0
1001
ACDBBLOCKREPETAG
1070
     1
1071
      166
1005
1265DB
  0
LINE
  5
1265DC
  8
OBJECT
 10
12466.0
 20
-1494.9999999999959
 30
0.0
 11
12466.0
 21
-1484.9999999999959
 31
0.0
1001
ACDBBLOCKREPETAG
1070
     1
1071
      167
1005
1265DC
  0
LINE
  5
1265DD
  8
OBJECT
 10
12456.0
 20
-1494.9999999999959
 30
0.0
 11
12456.0
 21
-1484.9999999999959
 31
0.0
1001
ACDBBLOCKREPETAG
1070
     1
1071
      168
1005
1265DD
  0
LINE
  5
1265DE
  8
OBJECT
 10
10590.0
 20
-1469.9999999999959
 30
0.0
 11
10424.0
 21
-1469.9999999999959
 31
0.0
1001
ACDBBLOCKREPETAG
1070
     1
1071
       12
1005
1265DE
  0
LINE
  5
1265DF
  8
OBJECT
 10
10566.0
 20
-1433.9999999999959
 30
0.0
 11
10434.0
 21
-1433.9999999999959
 31
0.0
1001
ACDBBLOCKREPETAG
1070
     1
1071
       13
1005
1265DF
  0
LINE
  5
1265E0
  8
OBJECT
 10
10590.0
 20
-1485.0
 30
0.0
 11
10590.0
 21
-1469.9999999999959
 31
0.0
1001
ACDBBLOCKREPETAG
1070
     1
1071
       14
1005
1265E0
  0
LINE
  5
1265E1
  8
OBJECT
 10
10424.0
 20
-1485.0
 30
0.0
 11
10590.0
 21
-1485.0
 31
0.0
1001
ACDBBLOCKREPETAG
1070
     1
1071
       15
1005
1265E1
  0
LINE
  5
1265E2
  8
OBJECT
 10
10567.49999999998
 20
-1485.0
 30
0.0
 11
10567.49999999998
 21
-1495.0
 31
0.0
1001
ACDBBLOCKREPETAG
1070
     1
1071
       16
1005
1265E2
  0
LINE
  5
1265E3
  8
OBJECT
 10
10424.0
 20
-1495.0
 30
0.0
 11
10424.0
 21
-1508.9999999999959
 31
0.0
1001
ACDBBLOCKREPETAG
1070
     1
1071
       17
1005
1265E3
  0
LINE
  5
1265E4
  8
OBJECT
 10
10590.0
 20
-1495.0
 30
0.0
 11
10590.0
 21
-1508.9999999999959
 31
0.0
1001
ACDBBLOCKREPETAG
1070
     1
1071
       18
1005
1265E4
  0
LINE
  5
1265E5
  8
OBJECT
 10
10424.0
 20
-1508.9999999999959
 30
0.0
 11
10590.0
 21
-1508.9999999999959
 31
0.0
1001
ACDBBLOCKREPETAG
1070
     1
1071
       19
1005
1265E5
  0
LINE
  5
1265E6
  8
OBJECT
 10
10424.0
 20
-1495.0
 30
0.0
 11
10590.0
 21
-1495.0
 31
0.0
1001
ACDBBLOCKREPETAG
1070
     1
1071
       20
1005
1265E6
  0
LINE
  5
1265E7
  8
OBJECT
 10
10432.49999999998
 20
-1485.0
 30
0.0
 11
10432.49999999998
 21
-1495.0
 31
0.0
1001
ACDBBLOCKREPETAG
1070
     1
1071
       21
1005
1265E7
  0
LINE
  5
1265E8
  8
OBJECT
 10
10424.0
 20
-1485.0
 30
0.0
 11
10424.0
 21
-1469.9999999999959
 31
0.0
1001
ACDBBLOCKREPETAG
1070
     1
1071
       22
1005
1265E8
  0
LINE
  5
1265E9
  8
HIDDEN
 10
10443.0
 20
-1445.0
 30
0.0
 11
10557.0
 21
-1445.0
 31
0.0
1001
ACDBBLOCKREPETAG
1070
     1
1071
       23
1005
1265E9
  0
LINE
  5
1265EA
  8
CENTER
 10
10500.0
 20
-1175.0
 30
0.0
 11
10500.0
 21
-1523.9999999999959
 31
0.0
1001
ACDBBLOCKREPETAG
1070
     1
1071
       24
1005
1265EA
  0
LINE
  5
1265EB
  8
OBJECT
 10
10425.0
 20
-1175.0
 30
0.0
 11
10425.0
 21
-1256.9999999999959
 31
0.0
1001
ACDBBLOCKREPETAG
1070
     1
1071
       25
1005
1265EB
  0
LINE
  5
1265EC
  8
OBJECT
 10
10575.0
 20
-1175.0
 30
0.0
 11
10575.0
 21
-1256.999999999993
 31
0.0
1001
ACDBBLOCKREPETAG
1070
     1
1071
       26
1005
1265EC
  0
LINE
  5
1265ED
  8
OBJECT
 10
10425.0
 20
-1256.9999999999959
 30
0.0
 11
10575.0
 21
-1256.999999999993
 31
0.0
1001
ACDBBLOCKREPETAG
1070
     1
1071
       27
1005
1265ED
  0
LINE
  5
1265EE
  8
OBJECT
 10
10557.0
 20
-1433.9999999999959
 30
0.0
 11
10557.0
 21
-1384.999999999992
 31
0.0
1001
ACDBBLOCKREPETAG
1070
     1
1071
       28
1005
1265EE
  0
LINE
  5
1265EF
  8
OBJECT
 10
10443.0
 20
-1433.9999999999959
 30
0.0
 11
10443.0
 21
-1384.999999999992
 31
0.0
1001
ACDBBLOCKREPETAG
1070
     1
1071
       29
1005
1265EF
  0
LINE
  5
1265F0
  8
OBJECT
 10
10557.0
 20
-1384.999999999992
 30
0.0
 11
10443.0
 21
-1384.999999999992
 31
0.0
1001
ACDBBLOCKREPETAG
1070
     1
1071
       30
1005
1265F0
  0
LINE
  5
1265F1
  8
OBJECT
 10
10425.0
 20
-1256.9999999999959
 30
0.0
 11
10443.0
 21
-1384.999999999992
 31
0.0
1001
ACDBBLOCKREPETAG
1070
     1
1071
       31
1005
1265F1
  0
LINE
  5
1265F2
  8
OBJECT
 10
10557.0
 20
-1384.999999999992
 30
0.0
 11
10575.0
 21
-1256.999999999993
 31
0.0
1001
ACDBBLOCKREPETAG
1070
     1
1071
       32
1005
1265F2
  0
LINE
  5
1265F3
  8
OBJECT
 10
10434.0
 20
-1433.9999999999959
 30
0.0
 11
10434.0
 21
-1469.9999999999959
 31
0.0
1001
ACDBBLOCKREPETAG
1070
     1
1071
       33
1005
1265F3
  0
LINE
  5
1265F4
  8
OBJECT
 10
10566.0
 20
-1433.9999999999959
 30
0.0
 11
10566.0
 21
-1469.9999999999959
 31
0.0
1001
ACDBBLOCKREPETAG
1070
     1
1071
       34
1005
1265F4
  0
LINE
  5
1265F5
  8
OBJECT
 10
10582.999999999991
 20
-1494.9999999999959
 30
0.0
 11
10582.999999999991
 21
-1484.9999999999959
 31
0.0
1001
ACDBBLOCKREPETAG
1070
     1
1071
       35
1005
1265F5
  0
LINE
  5
1265F6
  8
OBJECT
 10
10572.999999999991
 20
-1494.9999999999959
 30
0.0
 11
10572.999999999991
 21
-1484.9999999999959
 31
0.0
1001
ACDBBLOCKREPETAG
1070
     1
1071
       36
1005
1265F6
  0
LINE
  5
1265F7
  8
OBJECT
 10
10568.99999999998
 20
-1464.9999999999959
 30
0.0
 11
10568.99999999998
 21
-1469.9999999999959
 31
0.0
1001
ACDBBLOCKREPETAG
1070
     1
1071
       37
1005
1265F7
  0
LINE
  5
1265F8
  8
OBJECT
 10
10587.0
 20
-1464.9999999999959
 30
0.0
 11
10587.0
 21
-1469.9999999999959
 31
0.0
1001
ACDBBLOCKREPETAG
1070
     1
1071
       38
1005
1265F8
  0
LINE
  5
1265F9
  8
OBJECT
 10
10587.0
 20
-1464.9999999999959
 30
0.0
 11
10568.99999999998
 21
-1464.9999999999959
 31
0.0
1001
ACDBBLOCKREPETAG
1070
     1
1071
       39
1005
1265F9
  0
LINE
  5
1265FA
  8
OBJECT
 10
10573.0
 20
-1516.9999999999959
 30
0.0
 11
10573.0
 21
-1519.9999999999959
 31
0.0
1001
ACDBBLOCKREPETAG
1070
     1
1071
       40
1005
1265FA
  0
LINE
  5
1265FB
  8
OBJECT
 10
10573.0
 20
-1519.9999999999959
 30
0.0
 11
10583.0
 21
-1519.9999999999959
 31
0.0
1001
ACDBBLOCKREPETAG
1070
     1
1071
       41
1005
1265FB
  0
LINE
  5
1265FC
  8
OBJECT
 10
10568.18504542377
 20
-1516.9999999999959
 30
0.0
 11
10587.814954576221
 21
-1516.9999999999959
 31
0.0
1001
ACDBBLOCKREPETAG
1070
     1
1071
       42
1005
1265FC
  0
LINE
  5
1265FD
  8
OBJECT
 10
10583.0
 20
-1519.9999999999959
 30
0.0
 11
10583.0
 21
-1516.9999999999959
 31
0.0
1001
ACDBBLOCKREPETAG
1070
     1
1071
       43
1005
1265FD
  0
LINE
  5
1265FE
  8
OBJECT
 10
10568.18503599129
 20
-1508.9999868402549
 30
0.0
 11
10568.18503599129
 21
-1516.9999868402549
 31
0.0
1001
ACDBBLOCKREPETAG
1070
     1
1071
       44
1005
1265FE
  0
LINE
  5
1265FF
  8
OBJECT
 10
10573.0925013592
 20
-1508.9999868402549
 30
0.0
 11
10573.0925013592
 21
-1516.9999868402549
 31
0.0
1001
ACDBBLOCKREPETAG
1070
     1
1071
       45
1005
1265FF
  0
LINE
  5
126600
  8
OBJECT
 10
10582.90743209502
 20
-1508.9999868402549
 30
0.0
 11
10582.90743209502
 21
-1516.9999868402549
 31
0.0
1001
ACDBBLOCKREPETAG
1070
     1
1071
       46
1005
126600
  0
LINE
  5
126601
  8
OBJECT
 10
10587.81499155279
 20
-1508.9999868402549
 30
0.0
 11
10587.81499155279
 21
-1516.9999868402549
 31
0.0
1001
ACDBBLOCKREPETAG
1070
     1
1071
       47
1005
126601
  0
LINE
  5
126602
  8
OBJECT
 10
10468.5
 20
-1464.9999999999959
 30
0.0
 11
10451.999999999991
 21
-1464.9999999999959
 31
0.0
1001
ACDBBLOCKREPETAG
1070
     1
1071
       48
1005
126602
  0
LINE
  5
126603
  8
OBJECT
 10
10476.0
 20
-1469.9999999999959
 30
0.0
 11
10476.0
 21
-1467.9999999999959
 31
0.0
1001
ACDBBLOCKREPETAG
1070
     1
1071
       49
1005
126603
  0
LINE
  5
126604
  8
OBJECT
 10
10466.0
 20
-1494.9999999999959
 30
0.0
 11
10466.0
 21
-1484.9999999999959
 31
0.0
1001
ACDBBLOCKREPETAG
1070
     1
1071
       50
1005
126604
  0
LINE
  5
126605
  8
OBJECT
 10
10456.0
 20
-1494.9999999999959
 30
0.0
 11
10456.0
 21
-1484.9999999999959
 31
0.0
1001
ACDBBLOCKREPETAG
1070
     1
1071
       51
1005
126605
  0
LINE
  5
126606
  8
OBJECT
 10
10451.999999999991
 20
-1464.9999999999959
 30
0.0
 11
10451.999999999991
 21
-1469.9999999999959
 31
0.0
1001
ACDBBLOCKREPETAG
1070
     1
1071
       52
1005
126606
  0
LINE
  5
126607
  8
OBJECT
 10
10456.0
 20
-1516.9999999999959
 30
0.0
 11
10456.0
 21
-1519.9999999999959
 31
0.0
1001
ACDBBLOCKREPETAG
1070
     1
1071
       53
1005
126607
  0
LINE
  5
126608
  8
OBJECT
 10
10456.0
 20
-1519.9999999999959
 30
0.0
 11
10466.0
 21
-1519.9999999999959
 31
0.0
1001
ACDBBLOCKREPETAG
1070
     1
1071
       54
1005
126608
  0
LINE
  5
126609
  8
OBJECT
 10
10451.18504542377
 20
-1516.9999999999959
 30
0.0
 11
10470.814954576221
 21
-1516.9999999999959
 31
0.0
1001
ACDBBLOCKREPETAG
1070
     1
1071
       55
1005
126609
  0
LINE
  5
12660A
  8
OBJECT
 10
10466.0
 20
-1519.9999999999959
 30
0.0
 11
10466.0
 21
-1516.9999999999959
 31
0.0
1001
ACDBBLOCKREPETAG
1070
     1
1071
       56
1005
12660A
  0
LINE
  5
12660B
  8
OBJECT
 10
10476.0
 20
-1467.9999999999959
 30
0.0
 11
10468.5
 21
-1464.9999999999959
 31
0.0
1001
ACDBBLOCKREPETAG
1070
     1
1071
       57
1005
12660B
  0
LINE
  5
12660C
  8
OBJECT
 10
10451.18503599129
 20
-1508.9999868402549
 30
0.0
 11
10451.18503599129
 21
-1516.9999868402549
 31
0.0
1001
ACDBBLOCKREPETAG
1070
     1
1071
       58
1005
12660C
  0
LINE
  5
12660D
  8
OBJECT
 10
10456.0925013592
 20
-1508.9999868402549
 30
0.0
 11
10456.0925013592
 21
-1516.9999868402549
 31
0.0
1001
ACDBBLOCKREPETAG
1070
     1
1071
       59
1005
12660D
  0
LINE
  5
12660E
  8
OBJECT
 10
10465.90743209502
 20
-1508.9999868402549
 30
0.0
 11
10465.90743209502
 21
-1516.9999868402549
 31
0.0
1001
ACDBBLOCKREPETAG
1070
     1
1071
       60
1005
12660E
  0
LINE
  5
12660F
  8
OBJECT
 10
10470.81499155279
 20
-1508.9999868402549
 30
0.0
 11
10470.81499155279
 21
-1516.9999868402549
 31
0.0
1001
ACDBBLOCKREPETAG
1070
     1
1071
       61
1005
12660F
  0
LINE
  5
126610
  8
OBJECT
 10
8443.0
 20
-1484.9999999999959
 30
0.0
 11
8557.0
 21
-1484.9999999999959
 31
0.0
1001
ACDBBLOCKREPETAG
1070
     1
1071
        0
1005
126610
  0
LINE
  5
126611
  8
OBJECT
 10
8443.0
 20
-1484.9999999999959
 30
0.0
 11
8443.0
 21
-1384.9999999999959
 31
0.0
1001
ACDBBLOCKREPETAG
1070
     1
1071
        1
1005
126611
  0
LINE
  5
126612
  8
OBJECT
 10
8557.0
 20
-1484.9999999999959
 30
0.0
 11
8557.0
 21
-1384.9999999999959
 31
0.0
1001
ACDBBLOCKREPETAG
1070
     1
1071
        2
1005
126612
  0
LINE
  5
126613
  8
OBJECT
 10
8443.0
 20
-1384.9999999999959
 30
0.0
 11
8557.0
 21
-1384.9999999999959
 31
0.0
1001
ACDBBLOCKREPETAG
1070
     1
1071
        3
1005
126613
  0
LINE
  5
126614
  8
HIDDEN
 10
8450.0
 20
-1384.9999999999959
 30
0.0
 11
8450.0
 21
-1484.9999999999959
 31
0.0
1001
ACDBBLOCKREPETAG
1070
     1
1071
        4
1005
126614
  0
LINE
  5
126615
  8
HIDDEN
 10
8550.0
 20
-1384.9999999999959
 30
0.0
 11
8550.0
 21
-1484.9999999999959
 31
0.0
1001
ACDBBLOCKREPETAG
1070
     1
1071
        5
1005
126615
  0
LINE
  5
126616
  8
CENTER
 10
8500.0
 20
-1175.0
 30
0.0
 11
8500.0
 21
-1499.9999999999959
 31
0.0
1001
ACDBBLOCKREPETAG
1070
     1
1071
        6
1005
126616
  0
LINE
  5
126617
  8
OBJECT
 10
8425.0
 20
-1175.0
 30
0.0
 11
8425.0
 21
-1256.9999999999959
 31
0.0
1001
ACDBBLOCKREPETAG
1070
     1
1071
        7
1005
126617
  0
LINE
  5
126618
  8
OBJECT
 10
8575.0
 20
-1175.0
 30
0.0
 11
8575.0
 21
-1256.9999999999959
 31
0.0
1001
ACDBBLOCKREPETAG
1070
     1
1071
        8
1005
126618
  0
LINE
  5
126619
  8
OBJECT
 10
8425.0
 20
-1256.9999999999959
 30
0.0
 11
8575.0
 21
-1256.9999999999959
 31
0.0
1001
ACDBBLOCKREPETAG
1070
     1
1071
        9
1005
126619
  0
LINE
  5
12661A
  8
OBJECT
 10
8425.0
 20
-1256.9999999999959
 30
0.0
 11
8443.0
 21
-1384.9999999999959
 31
0.0
1001
ACDBBLOCKREPETAG
1070
     1
1071
       10
1005
12661A
  0
LINE
  5
12661B
  8
OBJECT
 10
8557.0
 20
-1384.9999999999959
 30
0.0
 11
8575.0
 21
-1256.9999999999959
 31
0.0
1001
ACDBBLOCKREPETAG
1070
     1
1071
       11
1005
12661B
  0
LINE
  5
12661C
  8
OBJECT
 10
6585.9999999999927
 20
-1508.9999999999991
 30
0.0
 11
6585.9999999999927
 21
-1518.9999999999991
 31
0.0
1001
ACDBBLOCKREPETAG
1070
     1
1071
      121
1005
12661C
  0
LINE
  5
12661D
  8
OBJECT
 10
6569.9999999999927
 20
-1508.9999999999991
 30
0.0
 11
6569.9999999999927
 21
-1518.9999999999991
 31
0.0
1001
ACDBBLOCKREPETAG
1070
     1
1071
      122
1005
12661D
  0
LINE
  5
12661E
  8
OBJECT
 10
6585.9999999999927
 20
-1518.9999999999991
 30
0.0
 11
6569.9999999999927
 21
-1518.9999999999991
 31
0.0
1001
ACDBBLOCKREPETAG
1070
     1
1071
      123
1005
12661E
  0
LINE
  5
12661F
  8
OBJECT
 10
6590.0
 20
-1469.9999999999959
 30
0.0
 11
6424.0
 21
-1469.9999999999959
 31
0.0
1001
ACDBBLOCKREPETAG
1070
     1
1071
      124
1005
12661F
  0
LINE
  5
126620
  8
OBJECT
 10
6590.0
 20
-1484.9999999999991
 30
0.0
 11
6590.0
 21
-1469.9999999999959
 31
0.0
1001
ACDBBLOCKREPETAG
1070
     1
1071
      125
1005
126620
  0
LINE
  5
126621
  8
OBJECT
 10
6424.0
 20
-1484.9999999999991
 30
0.0
 11
6590.0
 21
-1484.9999999999991
 31
0.0
1001
ACDBBLOCKREPETAG
1070
     1
1071
      126
1005
126621
  0
LINE
  5
126622
  8
OBJECT
 10
6567.4999999999873
 20
-1484.9999999999991
 30
0.0
 11
6567.4999999999873
 21
-1494.9999999999991
 31
0.0
1001
ACDBBLOCKREPETAG
1070
     1
1071
      127
1005
126622
  0
LINE
  5
126623
  8
OBJECT
 10
6572.9999999999927
 20
-1494.9999999999991
 30
0.0
 11
6572.9999999999927
 21
-1484.9999999999991
 31
0.0
1001
ACDBBLOCKREPETAG
1070
     1
1071
      128
1005
126623
  0
LINE
  5
126624
  8
OBJECT
 10
6582.9999999999927
 20
-1494.9999999999991
 30
0.0
 11
6582.9999999999927
 21
-1484.9999999999991
 31
0.0
1001
ACDBBLOCKREPETAG
1070
     1
1071
      129
1005
126624
  0
LINE
  5
126625
  8
OBJECT
 10
6424.0
 20
-1494.9999999999991
 30
0.0
 11
6424.0
 21
-1508.9999999999959
 31
0.0
1001
ACDBBLOCKREPETAG
1070
     1
1071
      130
1005
126625
  0
LINE
  5
126626
  8
OBJECT
 10
6590.0
 20
-1494.9999999999991
 30
0.0
 11
6590.0
 21
-1508.9999999999959
 31
0.0
1001
ACDBBLOCKREPETAG
1070
     1
1071
      131
1005
126626
  0
LINE
  5
126627
  8
OBJECT
 10
6424.0
 20
-1508.9999999999959
 30
0.0
 11
6590.0
 21
-1508.9999999999959
 31
0.0
1001
ACDBBLOCKREPETAG
1070
     1
1071
      132
1005
126627
  0
LINE
  5
126628
  8
OBJECT
 10
6424.0
 20
-1494.9999999999991
 30
0.0
 11
6590.0
 21
-1494.9999999999991
 31
0.0
1001
ACDBBLOCKREPETAG
1070
     1
1071
      133
1005
126628
  0
LINE
  5
126629
  8
OBJECT
 10
6432.4999999999864
 20
-1484.9999999999991
 30
0.0
 11
6432.4999999999864
 21
-1494.9999999999991
 31
0.0
1001
ACDBBLOCKREPETAG
1070
     1
1071
      134
1005
126629
  0
LINE
  5
12662A
  8
OBJECT
 10
6434.0
 20
-1433.9999999999959
 30
0.0
 11
6565.9999999999918
 21
-1433.9999999999959
 31
0.0
1001
ACDBBLOCKREPETAG
1070
     1
1071
      135
1005
12662A
  0
LINE
  5
12662B
  8
OBJECT
 10
6424.0
 20
-1484.9999999999991
 30
0.0
 11
6424.0
 21
-1469.9999999999959
 31
0.0
1001
ACDBBLOCKREPETAG
1070
     1
1071
      136
1005
12662B
  0
LINE
  5
12662C
  8
HIDDEN
 10
6443.0
 20
-1444.9999999999991
 30
0.0
 11
6557.0
 21
-1444.9999999999991
 31
0.0
1001
ACDBBLOCKREPETAG
1070
     1
1071
      137
1005
12662C
  0
LINE
  5
12662D
  8
OBJECT
 10
6586.9999999999927
 20
-1468.2
 30
0.0
 11
6586.9999999999927
 21
-1469.9999999999991
 31
0.0
1001
ACDBBLOCKREPETAG
1070
     1
1071
      138
1005
12662D
  0
LINE
  5
12662E
  8
OBJECT
 10
6568.9999999999909
 20
-1468.2
 30
0.0
 11
6568.9999999999909
 21
-1469.9999999999991
 31
0.0
1001
ACDBBLOCKREPETAG
1070
     1
1071
      139
1005
12662E
  0
LINE
  5
12662F
  8
OBJECT
 10
6572.2499999999927
 20
-1458.4999999999991
 30
0.0
 11
6583.7499999999927
 21
-1458.4999999999991
 31
0.0
1001
ACDBBLOCKREPETAG
1070
     1
1071
      140
1005
12662F
  0
LINE
  5
126630
  8
OBJECT
 10
6572.2499999999927
 20
-1458.4999999999991
 30
0.0
 11
6572.2499999999927
 21
-1468.2
 31
0.0
1001
ACDBBLOCKREPETAG
1070
     1
1071
      141
1005
126630
  0
LINE
  5
126631
  8
OBJECT
 10
6583.7499999999927
 20
-1458.4999999999991
 30
0.0
 11
6583.7499999999927
 21
-1468.2
 31
0.0
1001
ACDBBLOCKREPETAG
1070
     1
1071
      142
1005
126631
  0
LINE
  5
126632
  8
OBJECT
 10
6431.9999999999873
 20
-1550.0
 30
0.0
 11
6567.9999999999873
 21
-1550.0
 31
0.0
1001
ACDBBLOCKREPETAG
1070
     1
1071
      143
1005
126632
  0
LINE
  5
126633
  8
OBJECT
 10
6431.9999999999873
 20
-1550.0
 30
0.0
 11
6431.9999999999873
 21
-1508.9999999999991
 31
0.0
1001
ACDBBLOCKREPETAG
1070
     1
1071
      144
1005
126633
  0
LINE
  5
126634
  8
OBJECT
 10
6567.9999999999873
 20
-1550.0
 30
0.0
 11
6567.9999999999873
 21
-1508.9999999999991
 31
0.0
1001
ACDBBLOCKREPETAG
1070
     1
1071
      145
1005
126634
  0
LINE
  5
126635
  8
OBJECT
 10
6586.9999999999927
 20
-1468.2
 30
0.0
 11
6568.9999999999909
 21
-1468.2
 31
0.0
1001
ACDBBLOCKREPETAG
1070
     1
1071
      146
1005
126635
  0
LINE
  5
126636
  8
CENTER
 10
6500.0
 20
-1174.9999999999991
 30
0.0
 11
6500.0
 21
-1564.9999999999991
 31
0.0
1001
ACDBBLOCKREPETAG
1070
     1
1071
      147
1005
126636
  0
LINE
  5
126637
  8
OBJECT
 10
6425.0
 20
-1174.9999999999991
 30
0.0
 11
6425.0
 21
-1256.9999999999959
 31
0.0
1001
ACDBBLOCKREPETAG
1070
     1
1071
      148
1005
126637
  0
LINE
  5
126638
  8
OBJECT
 10
6575.0
 20
-1174.9999999999991
 30
0.0
 11
6575.0
 21
-1256.999999999992
 31
0.0
1001
ACDBBLOCKREPETAG
1070
     1
1071
      149
1005
126638
  0
LINE
  5
126639
  8
OBJECT
 10
6425.0
 20
-1256.9999999999959
 30
0.0
 11
6575.0
 21
-1256.999999999992
 31
0.0
1001
ACDBBLOCKREPETAG
1070
     1
1071
      150
1005
126639
  0
LINE
  5
12663A
  8
OBJECT
 10
6443.0
 20
-1433.9999999999959
 30
0.0
 11
6443.0
 21
-1384.999999999992
 31
0.0
1001
ACDBBLOCKREPETAG
1070
     1
1071
      151
1005
12663A
  0
LINE
  5
12663B
  8
OBJECT
 10
6557.0
 20
-1384.999999999992
 30
0.0
 11
6443.0
 21
-1384.999999999992
 31
0.0
1001
ACDBBLOCKREPETAG
1070
     1
1071
      152
1005
12663B
  0
LINE
  5
12663C
  8
OBJECT
 10
6557.0
 20
-1384.999999999992
 30
0.0
 11
6557.0
 21
-1433.9999999999959
 31
0.0
1001
ACDBBLOCKREPETAG
1070
     1
1071
      153
1005
12663C
  0
LINE
  5
12663D
  8
OBJECT
 10
6425.0
 20
-1256.9999999999959
 30
0.0
 11
6443.0
 21
-1384.999999999992
 31
0.0
1001
ACDBBLOCKREPETAG
1070
     1
1071
      154
1005
12663D
  0
LINE
  5
12663E
  8
OBJECT
 10
6557.0
 20
-1384.999999999992
 30
0.0
 11
6575.0
 21
-1256.999999999992
 31
0.0
1001
ACDBBLOCKREPETAG
1070
     1
1071
      155
1005
12663E
  0
LINE
  5
12663F
  8
OBJECT
 10
6434.0
 20
-1469.9999999999959
 30
0.0
 11
6434.0
 21
-1433.9999999999959
 31
0.0
1001
ACDBBLOCKREPETAG
1070
     1
1071
      156
1005
12663F
  0
LINE
  5
126640
  8
OBJECT
 10
6566.0
 20
-1469.9999999999959
 30
0.0
 11
6565.9999999999918
 21
-1433.9999999999959
 31
0.0
1001
ACDBBLOCKREPETAG
1070
     1
1071
      157
1005
126640
  0
LINE
  5
126641
  8
OBJECT
 10
6454.75
 20
-1459.699999999993
 30
0.0
 11
6467.2499999999991
 21
-1459.699999999993
 31
0.0
1001
ACDBBLOCKREPETAG
1070
     1
1071
      158
1005
126641
  0
LINE
  5
126642
  8
OBJECT
 10
6446.0
 20
-1469.9999999999959
 30
0.0
 11
6446.0
 21
-1467.699999999996
 31
0.0
1001
ACDBBLOCKREPETAG
1070
     1
1071
      159
1005
126642
  0
LINE
  5
126643
  8
OBJECT
 10
6476.0
 20
-1469.9999999999959
 30
0.0
 11
6476.0
 21
-1467.699999999996
 31
0.0
1001
ACDBBLOCKREPETAG
1070
     1
1071
      160
1005
126643
  0
LINE
  5
126644
  8
OBJECT
 10
6454.75
 20
-1459.699999999993
 30
0.0
 11
6454.75
 21
-1467.699999999996
 31
0.0
1001
ACDBBLOCKREPETAG
1070
     1
1071
      161
1005
126644
  0
LINE
  5
126645
  8
OBJECT
 10
6467.2499999999991
 20
-1459.699999999993
 30
0.0
 11
6467.2499999999991
 21
-1467.699999999996
 31
0.0
1001
ACDBBLOCKREPETAG
1070
     1
1071
      162
1005
126645
  0
LINE
  5
126646
  8
OBJECT
 10
6446.0
 20
-1467.699999999996
 30
0.0
 11
6476.0
 21
-1467.699999999996
 31
0.0
1001
ACDBBLOCKREPETAG
1070
     1
1071
      163
1005
126646
  0
LINE
  5
126647
  8
OBJECT
 10
6453.0
 20
-1508.9999999999959
 30
0.0
 11
6453.0
 21
-1518.9999999999959
 31
0.0
1001
ACDBBLOCKREPETAG
1070
     1
1071
      164
1005
126647
  0
LINE
  5
126648
  8
OBJECT
 10
6469.0
 20
-1508.9999999999959
 30
0.0
 11
6469.0
 21
-1518.9999999999959
 31
0.0
1001
ACDBBLOCKREPETAG
1070
     1
1071
      165
1005
126648
  0
LINE
  5
126649
  8
OBJECT
 10
6453.0
 20
-1518.9999999999959
 30
0.0
 11
6469.0
 21
-1518.9999999999959
 31
0.0
1001
ACDBBLOCKREPETAG
1070
     1
1071
      166
1005
126649
  0
LINE
  5
12664A
  8
OBJECT
 10
6466.0
 20
-1494.9999999999959
 30
0.0
 11
6466.0
 21
-1484.9999999999959
 31
0.0
1001
ACDBBLOCKREPETAG
1070
     1
1071
      167
1005
12664A
  0
LINE
  5
12664B
  8
OBJECT
 10
6456.0
 20
-1494.9999999999959
 30
0.0
 11
6456.0
 21
-1484.9999999999959
 31
0.0
1001
ACDBBLOCKREPETAG
1070
     1
1071
      168
1005
12664B
  0
LINE
  5
12664C
  8
OBJECT
 10
4590.0
 20
-1469.9999999999959
 30
0.0
 11
4424.0
 21
-1469.9999999999959
 31
0.0
1001
ACDBBLOCKREPETAG
1070
     1
1071
       12
1005
12664C
  0
LINE
  5
12664D
  8
OBJECT
 10
4566.0
 20
-1433.9999999999959
 30
0.0
 11
4434.0
 21
-1433.9999999999959
 31
0.0
1001
ACDBBLOCKREPETAG
1070
     1
1071
       13
1005
12664D
  0
LINE
  5
12664E
  8
OBJECT
 10
4590.0
 20
-1485.0
 30
0.0
 11
4590.0
 21
-1469.9999999999959
 31
0.0
1001
ACDBBLOCKREPETAG
1070
     1
1071
       14
1005
12664E
  0
LINE
  5
12664F
  8
OBJECT
 10
4424.0
 20
-1485.0
 30
0.0
 11
4590.0
 21
-1485.0
 31
0.0
1001
ACDBBLOCKREPETAG
1070
     1
1071
       15
1005
12664F
  0
LINE
  5
126650
  8
OBJECT
 10
4567.4999999999864
 20
-1485.0
 30
0.0
 11
4567.4999999999864
 21
-1495.0
 31
0.0
1001
ACDBBLOCKREPETAG
1070
     1
1071
       16
1005
126650
  0
LINE
  5
126651
  8
OBJECT
 10
4424.0
 20
-1495.0
 30
0.0
 11
4424.0
 21
-1508.9999999999959
 31
0.0
1001
ACDBBLOCKREPETAG
1070
     1
1071
       17
1005
126651
  0
LINE
  5
126652
  8
OBJECT
 10
4590.0
 20
-1495.0
 30
0.0
 11
4590.0
 21
-1508.9999999999959
 31
0.0
1001
ACDBBLOCKREPETAG
1070
     1
1071
       18
1005
126652
  0
LINE
  5
126653
  8
OBJECT
 10
4424.0
 20
-1508.9999999999959
 30
0.0
 11
4590.0
 21
-1508.9999999999959
 31
0.0
1001
ACDBBLOCKREPETAG
1070
     1
1071
       19
1005
126653
  0
LINE
  5
126654
  8
OBJECT
 10
4424.0
 20
-1495.0
 30
0.0
 11
4590.0
 21
-1495.0
 31
0.0
1001
ACDBBLOCKREPETAG
1070
     1
1071
       20
1005
126654
  0
LINE
  5
126655
  8
OBJECT
 10
4432.4999999999854
 20
-1485.0
 30
0.0
 11
4432.4999999999854
 21
-1495.0
 31
0.0
1001
ACDBBLOCKREPETAG
1070
     1
1071
       21
1005
126655
  0
LINE
  5
126656
  8
OBJECT
 10
4424.0
 20
-1485.0
 30
0.0
 11
4424.0
 21
-1469.9999999999959
 31
0.0
1001
ACDBBLOCKREPETAG
1070
     1
1071
       22
1005
126656
  0
LINE
  5
126657
  8
HIDDEN
 10
4443.0
 20
-1445.0
 30
0.0
 11
4557.0
 21
-1445.0
 31
0.0
1001
ACDBBLOCKREPETAG
1070
     1
1071
       23
1005
126657
  0
LINE
  5
126658
  8
CENTER
 10
4500.0
 20
-1175.0
 30
0.0
 11
4500.0
 21
-1523.9999999999959
 31
0.0
1001
ACDBBLOCKREPETAG
1070
     1
1071
       24
1005
126658
  0
LINE
  5
126659
  8
OBJECT
 10
4425.0
 20
-1175.0
 30
0.0
 11
4425.0
 21
-1256.9999999999959
 31
0.0
1001
ACDBBLOCKREPETAG
1070
     1
1071
       25
1005
126659
  0
LINE
  5
12665A
  8
OBJECT
 10
4575.0
 20
-1175.0
 30
0.0
 11
4575.0
 21
-1256.999999999993
 31
0.0
1001
ACDBBLOCKREPETAG
1070
     1
1071
       26
1005
12665A
  0
LINE
  5
12665B
  8
OBJECT
 10
4425.0
 20
-1256.9999999999959
 30
0.0
 11
4575.0
 21
-1256.999999999993
 31
0.0
1001
ACDBBLOCKREPETAG
1070
     1
1071
       27
1005
12665B
  0
LINE
  5
12665C
  8
OBJECT
 10
4557.0
 20
-1433.9999999999959
 30
0.0
 11
4557.0
 21
-1384.999999999992
 31
0.0
1001
ACDBBLOCKREPETAG
1070
     1
1071
       28
1005
12665C
  0
LINE
  5
12665D
  8
OBJECT
 10
4443.0
 20
-1433.9999999999959
 30
0.0
 11
4443.0
 21
-1384.999999999992
 31
0.0
1001
ACDBBLOCKREPETAG
1070
     1
1071
       29
1005
12665D
  0
LINE
  5
12665E
  8
OBJECT
 10
4557.0
 20
-1384.999999999992
 30
0.0
 11
4443.0
 21
-1384.999999999992
 31
0.0
1001
ACDBBLOCKREPETAG
1070
     1
1071
       30
1005
12665E
  0
LINE
  5
12665F
  8
OBJECT
 10
4425.0
 20
-1256.9999999999959
 30
0.0
 11
4443.0
 21
-1384.999999999992
 31
0.0
1001
ACDBBLOCKREPETAG
1070
     1
1071
       31
1005
12665F
  0
LINE
  5
126660
  8
OBJECT
 10
4557.0
 20
-1384.999999999992
 30
0.0
 11
4575.0
 21
-1256.999999999993
 31
0.0
1001
ACDBBLOCKREPETAG
1070
     1
1071
       32
1005
126660
  0
LINE
  5
126661
  8
OBJECT
 10
4434.0
 20
-1433.9999999999959
 30
0.0
 11
4434.0
 21
-1469.9999999999959
 31
0.0
1001
ACDBBLOCKREPETAG
1070
     1
1071
       33
1005
126661
  0
LINE
  5
126662
  8
OBJECT
 10
4566.0
 20
-1433.9999999999959
 30
0.0
 11
4566.0
 21
-1469.9999999999959
 31
0.0
1001
ACDBBLOCKREPETAG
1070
     1
1071
       34
1005
126662
  0
LINE
  5
126663
  8
OBJECT
 10
4582.9999999999927
 20
-1494.9999999999959
 30
0.0
 11
4582.9999999999927
 21
-1484.9999999999959
 31
0.0
1001
ACDBBLOCKREPETAG
1070
     1
1071
       35
1005
126663
  0
LINE
  5
126664
  8
OBJECT
 10
4572.9999999999918
 20
-1494.9999999999959
 30
0.0
 11
4572.9999999999918
 21
-1484.9999999999959
 31
0.0
1001
ACDBBLOCKREPETAG
1070
     1
1071
       36
1005
126664
  0
LINE
  5
126665
  8
OBJECT
 10
4568.9999999999864
 20
-1464.9999999999959
 30
0.0
 11
4568.9999999999864
 21
-1469.9999999999959
 31
0.0
1001
ACDBBLOCKREPETAG
1070
     1
1071
       37
1005
126665
  0
LINE
  5
126666
  8
OBJECT
 10
4587.0
 20
-1464.9999999999959
 30
0.0
 11
4587.0
 21
-1469.9999999999959
 31
0.0
1001
ACDBBLOCKREPETAG
1070
     1
1071
       38
1005
126666
  0
LINE
  5
126667
  8
OBJECT
 10
4587.0
 20
-1464.9999999999959
 30
0.0
 11
4568.9999999999864
 21
-1464.9999999999959
 31
0.0
1001
ACDBBLOCKREPETAG
1070
     1
1071
       39
1005
126667
  0
LINE
  5
126668
  8
OBJECT
 10
4573.0
 20
-1516.9999999999959
 30
0.0
 11
4573.0
 21
-1519.9999999999959
 31
0.0
1001
ACDBBLOCKREPETAG
1070
     1
1071
       40
1005
126668
  0
LINE
  5
126669
  8
OBJECT
 10
4573.0
 20
-1519.9999999999959
 30
0.0
 11
4583.0
 21
-1519.9999999999959
 31
0.0
1001
ACDBBLOCKREPETAG
1070
     1
1071
       41
1005
126669
  0
LINE
  5
12666A
  8
OBJECT
 10
4568.185045423772
 20
-1516.9999999999959
 30
0.0
 11
4587.814954576219
 21
-1516.9999999999959
 31
0.0
1001
ACDBBLOCKREPETAG
1070
     1
1071
       42
1005
12666A
  0
LINE
  5
12666B
  8
OBJECT
 10
4583.0
 20
-1519.9999999999959
 30
0.0
 11
4583.0
 21
-1516.9999999999959
 31
0.0
1001
ACDBBLOCKREPETAG
1070
     1
1071
       43
1005
12666B
  0
LINE
  5
12666C
  8
OBJECT
 10
4568.1850359912942
 20
-1508.9999868402549
 30
0.0
 11
4568.1850359912942
 21
-1516.9999868402549
 31
0.0
1001
ACDBBLOCKREPETAG
1070
     1
1071
       44
1005
12666C
  0
LINE
  5
12666D
  8
OBJECT
 10
4573.0925013591968
 20
-1508.9999868402549
 30
0.0
 11
4573.0925013591968
 21
-1516.9999868402549
 31
0.0
1001
ACDBBLOCKREPETAG
1070
     1
1071
       45
1005
12666D
  0
LINE
  5
12666E
  8
OBJECT
 10
4582.907432095024
 20
-1508.9999868402549
 30
0.0
 11
4582.907432095024
 21
-1516.9999868402549
 31
0.0
1001
ACDBBLOCKREPETAG
1070
     1
1071
       46
1005
12666E
  0
LINE
  5
12666F
  8
OBJECT
 10
4587.8149915527974
 20
-1508.9999868402549
 30
0.0
 11
4587.8149915527974
 21
-1516.9999868402549
 31
0.0
1001
ACDBBLOCKREPETAG
1070
     1
1071
       47
1005
12666F
  0
LINE
  5
126670
  8
OBJECT
 10
4468.5
 20
-1464.9999999999959
 30
0.0
 11
4451.9999999999909
 21
-1464.9999999999959
 31
0.0
1001
ACDBBLOCKREPETAG
1070
     1
1071
       48
1005
126670
  0
LINE
  5
126671
  8
OBJECT
 10
4476.0
 20
-1469.9999999999959
 30
0.0
 11
4476.0
 21
-1467.9999999999959
 31
0.0
1001
ACDBBLOCKREPETAG
1070
     1
1071
       49
1005
126671
  0
LINE
  5
126672
  8
OBJECT
 10
4466.0
 20
-1494.9999999999959
 30
0.0
 11
4466.0
 21
-1484.9999999999959
 31
0.0
1001
ACDBBLOCKREPETAG
1070
     1
1071
       50
1005
126672
  0
LINE
  5
126673
  8
OBJECT
 10
4456.0
 20
-1494.9999999999959
 30
0.0
 11
4456.0
 21
-1484.9999999999959
 31
0.0
1001
ACDBBLOCKREPETAG
1070
     1
1071
       51
1005
126673
  0
LINE
  5
126674
  8
OBJECT
 10
4451.9999999999909
 20
-1464.9999999999959
 30
0.0
 11
4451.9999999999909
 21
-1469.9999999999959
 31
0.0
1001
ACDBBLOCKREPETAG
1070
     1
1071
       52
1005
126674
  0
LINE
  5
126675
  8
OBJECT
 10
4456.0
 20
-1516.9999999999959
 30
0.0
 11
4456.0
 21
-1519.9999999999959
 31
0.0
1001
ACDBBLOCKREPETAG
1070
     1
1071
       53
1005
126675
  0
LINE
  5
126676
  8
OBJECT
 10
4456.0
 20
-1519.9999999999959
 30
0.0
 11
4466.0
 21
-1519.9999999999959
 31
0.0
1001
ACDBBLOCKREPETAG
1070
     1
1071
       54
1005
126676
  0
LINE
  5
126677
  8
OBJECT
 10
4451.185045423772
 20
-1516.9999999999959
 30
0.0
 11
4470.8149545762208
 21
-1516.9999999999959
 31
0.0
1001
ACDBBLOCKREPETAG
1070
     1
1071
       55
1005
126677
  0
LINE
  5
126678
  8
OBJECT
 10
4466.0
 20
-1519.9999999999959
 30
0.0
 11
4466.0
 21
-1516.9999999999959
 31
0.0
1001
ACDBBLOCKREPETAG
1070
     1
1071
       56
1005
126678
  0
LINE
  5
126679
  8
OBJECT
 10
4476.0
 20
-1467.9999999999959
 30
0.0
 11
4468.5
 21
-1464.9999999999959
 31
0.0
1001
ACDBBLOCKREPETAG
1070
     1
1071
       57
1005
126679
  0
LINE
  5
12667A
  8
OBJECT
 10
4451.1850359912933
 20
-1508.9999868402549
 30
0.0
 11
4451.1850359912933
 21
-1516.9999868402549
 31
0.0
1001
ACDBBLOCKREPETAG
1070
     1
1071
       58
1005
12667A
  0
LINE
  5
12667B
  8
OBJECT
 10
4456.0925013591996
 20
-1508.9999868402549
 30
0.0
 11
4456.0925013591996
 21
-1516.9999868402549
 31
0.0
1001
ACDBBLOCKREPETAG
1070
     1
1071
       59
1005
12667B
  0
LINE
  5
12667C
  8
OBJECT
 10
4465.907432095024
 20
-1508.9999868402549
 30
0.0
 11
4465.907432095024
 21
-1516.9999868402549
 31
0.0
1001
ACDBBLOCKREPETAG
1070
     1
1071
       60
1005
12667C
  0
LINE
  5
12667D
  8
OBJECT
 10
4470.8149915527974
 20
-1508.9999868402549
 30
0.0
 11
4470.8149915527974
 21
-1516.9999868402549
 31
0.0
1001
ACDBBLOCKREPETAG
1070
     1
1071
       61
1005
12667D
  0
LINE
  5
12667E
  8
CENTER
 10
12409.0
 20
-1758.9999999999959
 30
0.0
 11
12605.0
 21
-1758.9999999999959
 31
0.0
1001
ACDBBLOCKREPETAG
1070
     1
1071
       10
1005
12667E
  0
LINE
  5
12667F
  8
CENTER
 10
12500.0
 20
-1667.7253355707801
 30
0.0
 11
12500.0
 21
-1850.274664429212
 31
0.0
1001
ACDBBLOCKREPETAG
1070
     1
1071
       11
1005
12667F
  0
CIRCLE
  5
126680
  8
OBJECT
 10
12500.0
 20
-1758.9999999999959
 30
0.0
 40
50.0
1001
ACDBBLOCKREPETAG
1070
     1
1071
       12
1005
126680
  0
CIRCLE
  5
126681
  8
OBJECT
 10
12500.0
 20
-1758.9999999999959
 30
0.0
 40
60.0
1001
ACDBBLOCKREPETAG
1070
     1
1071
       13
1005
126681
  0
CIRCLE
  5
126682
  8
OBJECT
 10
12500.0
 20
-1758.9999999999959
 30
0.0
 40
68.0
1001
ACDBBLOCKREPETAG
1070
     1
1071
       14
1005
126682
  0
ARC
  5
126683
  8
OBJECT
 10
12577.5
 20
-1758.9999999999959
 30
0.0
 40
12.0
 50
272.10542627221611
 51
87.894573727783893
1001
ACDBBLOCKREPETAG
1070
     1
1071
       15
1005
126683
  0
ARC
  5
126684
  8
OBJECT
 10
12578.49193548386
 20
-1732.0182271895239
 30
0.0
 40
15.0
 50
198.97051877965251
 51
267.89457372778372
1001
ACDBBLOCKREPETAG
1070
     1
1071
       16
1005
126684
  0
ARC
  5
126685
  8
OBJECT
 10
12578.49193548386
 20
-1785.981772810464
 30
0.0
 40
15.0
 50
92.105426272216135
 51
161.02948122034729
1001
ACDBBLOCKREPETAG
1070
     1
1071
       17
1005
126685
  0
CIRCLE
  5
126686
  8
SLIM
 10
12578.0
 20
-1758.9999999999959
 30
0.0
 40
8.0
1001
ACDBBLOCKREPETAG
1070
     1
1071
       18
1005
126686
  0
POLYLINE
  5
126687
  8
SLIM
 66
     1
 10
0.0
 20
0.0
 30
0.0
 70
     1
1001
ACDBBLOCKREPETAG
1070
     1
1071
       19
1005
126687
  0
VERTEX
  5
1269AE
  8
SLIM
 10
12575.690598923229
 20
-1754.9999999999959
 30
0.0
  0
VERTEX
  5
1269AF
  8
SLIM
 10
12573.38119784648
 20
-1758.9999999999959
 30
0.0
  0
VERTEX
  5
1269B0
  8
SLIM
 10
12575.690598923229
 20
-1762.9999999999959
 30
0.0
  0
VERTEX
  5
1269B1
  8
SLIM
 10
12580.309401076751
 20
-1762.9999999999959
 30
0.0
  0
VERTEX
  5
1269B2
  8
SLIM
 10
12582.618802153511
 20
-1758.9999999999959
 30
0.0
  0
VERTEX
  5
1269B3
  8
SLIM
 10
12580.309401076751
 20
-1754.9999999999959
 30
0.0
  0
SEQEND
  5
1269B4
  8
SLIM
  0
ARC
  5
126688
  8
OBJECT
 10
12461.25
 20
-1691.8830312067
 30
0.0
 40
12.0
 50
32.105426272130188
 51
207.89457372768319
1001
ACDBBLOCKREPETAG
1070
     1
1071
       20
1005
126688
  0
ARC
  5
126689
  8
OBJECT
 10
12437.38713156505
 20
-1704.514876283989
 30
0.0
 40
15.0
 50
318.97051877944762
 51
27.89457372768311
1001
ACDBBLOCKREPETAG
1070
     1
1071
       21
1005
126689
  0
ARC
  5
12668A
  8
OBJECT
 10
12484.120932951069
 20
-1677.533103473517
 30
0.0
 40
15.0
 50
212.10542627213019
 51
281.02948122044069
1001
ACDBBLOCKREPETAG
1070
     1
1071
       22
1005
12668A
  0
CIRCLE
  5
12668B
  8
SLIM
 10
12461.0
 20
-1691.4500185048089
 30
0.0
 40
7.9999999999999982
1001
ACDBBLOCKREPETAG
1070
     1
1071
       23
1005
12668B
  0
POLYLINE
  5
12668C
  8
SLIM
 66
     1
 10
0.0
 20
0.0
 30
0.0
 70
     1
1001
ACDBBLOCKREPETAG
1070
     1
1071
       24
1005
12668C
  0
VERTEX
  5
1269B5
  8
SLIM
 10
12458.69059892324
 20
-1695.450018504808
 30
0.0
  0
VERTEX
  5
1269B6
  8
SLIM
 10
12463.309401076751
 20
-1695.450018504808
 30
0.0
  0
VERTEX
  5
1269B7
  8
SLIM
 10
12465.618802153511
 20
-1691.4500185048089
 30
0.0
  0
VERTEX
  5
1269B8
  8
SLIM
 10
12463.309401076751
 20
-1687.4500185048089
 30
0.0
  0
VERTEX
  5
1269B9
  8
SLIM
 10
12458.69059892324
 20
-1687.4500185048089
 30
0.0
  0
VERTEX
  5
1269BA
  8
SLIM
 10
12456.38119784648
 20
-1691.4500185048089
 30
0.0
  0
SEQEND
  5
1269BB
  8
SLIM
  0
ARC
  5
12668D
  8
OBJECT
 10
12461.25
 20
-1826.1169687932891
 30
0.0
 40
12.0
 50
152.10542627231681
 51
327.89457372786978
1001
ACDBBLOCKREPETAG
1070
     1
1071
       25
1005
12668D
  0
ARC
  5
12668E
  8
OBJECT
 10
12484.120932951069
 20
-1840.4668965264721
 30
0.0
 40
15.0
 50
78.970518779559228
 51
147.89457372786981
1001
ACDBBLOCKREPETAG
1070
     1
1071
       26
1005
12668E
  0
ARC
  5
12668F
  8
OBJECT
 10
12437.38713156505
 20
-1813.485123716004
 30
0.0
 40
15.0
 50
332.10542627231678
 51
41.029481220552412
1001
ACDBBLOCKREPETAG
1070
     1
1071
       27
1005
12668F
  0
CIRCLE
  5
126690
  8
SLIM
 10
12461.0
 20
-1826.5499814951829
 30
0.0
 40
8.0
1001
ACDBBLOCKREPETAG
1070
     1
1071
       28
1005
126690
  0
POLYLINE
  5
126691
  8
SLIM
 66
     1
 10
0.0
 20
0.0
 30
0.0
 70
     1
1001
ACDBBLOCKREPETAG
1070
     1
1071
       29
1005
126691
  0
VERTEX
  5
1269BC
  8
SLIM
 10
12465.618802153511
 20
-1826.54998149518
 30
0.0
  0
VERTEX
  5
1269BD
  8
SLIM
 10
12463.309401076751
 20
-1822.5499814951829
 30
0.0
  0
VERTEX
  5
1269BE
  8
SLIM
 10
12458.69059892324
 20
-1822.54998149518
 30
0.0
  0
VERTEX
  5
1269BF
  8
SLIM
 10
12456.38119784648
 20
-1826.5499814951829
 30
0.0
  0
VERTEX
  5
1269C0
  8
SLIM
 10
12458.69059892322
 20
-1830.54998149518
 30
0.0
  0
VERTEX
  5
1269C1
  8
SLIM
 10
12463.309401076751
 20
-1830.5499814951841
 30
0.0
  0
SEQEND
  5
1269C2
  8
SLIM
  0
ARC
  5
126692
  8
OBJECT
 10
12500.0
 20
-1758.9999999999959
 30
0.0
 40
76.0
 50
34.863837954171863
 51
85.136162045732945
1001
ACDBBLOCKREPETAG
1070
     1
1071
       42
1005
126692
  0
ARC
  5
126693
  8
OBJECT
 10
12500.0
 20
-1758.9999999999959
 30
0.0
 40
76.0
 50
154.86383795430939
 51
205.1361620456905
1001
ACDBBLOCKREPETAG
1070
     1
1071
       43
1005
126693
  0
ARC
  5
126694
  8
OBJECT
 10
12500.0
 20
-1758.9999999999959
 30
0.0
 40
76.0
 50
274.86383795426718
 51
325.13616204582797
1001
ACDBBLOCKREPETAG
1070
     1
1071
       44
1005
126694
  0
ARC
  5
126695
  8
OBJECT
 10
12578.0
 20
-1758.9999999999959
 30
0.0
 40
12.0
 50
325.13616204582797
 51
34.863837954171863
1001
ACDBBLOCKREPETAG
1070
     1
1071
       45
1005
126695
  0
LINE
  5
126696
  8
OBJECT
 10
12587.84615384616
 20
-1752.140462520134
 30
0.0
 11
12562.35897435904
 21
-1715.556262627535
 31
0.0
1001
ACDBBLOCKREPETAG
1070
     1
1071
       46
1005
126696
  0
LINE
  5
126697
  8
OBJECT
 10
12587.846153846171
 20
-1765.859537479857
 30
0.0
 11
12562.35897435904
 21
-1802.4437373724591
 31
0.0
1001
ACDBBLOCKREPETAG
1070
     1
1071
       47
1005
126697
  0
ARC
  5
126698
  8
OBJECT
 10
12461.0
 20
-1691.4500185048109
 30
0.0
 40
12.0
 50
85.136162045942811
 51
154.86383795410001
1001
ACDBBLOCKREPETAG
1070
     1
1071
       48
1005
126698
  0
LINE
  5
126699
  8
OBJECT
 10
12450.13638936114
 20
-1686.3527678843909
 30
0.0
 11
12431.19713262058
 21
-1726.7174127373471
 31
0.0
1001
ACDBBLOCKREPETAG
1070
     1
1071
       49
1005
126699
  0
LINE
  5
12669A
  8
OBJECT
 10
12462.017456792681
 20
-1679.4932304045269
 30
0.0
 11
12506.443893020371
 21
-1683.273675364886
 31
0.0
1001
ACDBBLOCKREPETAG
1070
     1
1071
       50
1005
12669A
  0
ARC
  5
12669B
  8
OBJECT
 10
12461.0
 20
-1826.549981495182
 30
0.0
 40
12.0
 50
205.13616204589991
 51
274.8638379540572
1001
ACDBBLOCKREPETAG
1070
     1
1071
       51
1005
12669B
  0
LINE
  5
12669C
  8
OBJECT
 10
12462.01745679269
 20
-1838.506769595464
 30
0.0
 11
12506.44389302036
 21
-1834.7263246351069
 31
0.0
1001
ACDBBLOCKREPETAG
1070
     1
1071
       52
1005
12669C
  0
LINE
  5
12669D
  8
OBJECT
 10
12450.13638936114
 20
-1831.647232115605
 30
0.0
 11
12431.19713262058
 21
-1791.282587262642
 31
0.0
1001
ACDBBLOCKREPETAG
1070
     1
1071
       53
1005
12669D
  0
LINE
  5
12669E
  8
CENTER
 10
10409.0
 20
-1758.9999999999959
 30
0.0
 11
10605.0
 21
-1758.9999999999959
 31
0.0
1001
ACDBBLOCKREPETAG
1070
     1
1071
        0
1005
12669E
  0
LINE
  5
12669F
  8
CENTER
 10
10500.0
 20
-1667.7253355707801
 30
0.0
 11
10500.0
 21
-1850.274664429212
 31
0.0
1001
ACDBBLOCKREPETAG
1070
     1
1071
        1
1005
12669F
  0
CIRCLE
  5
1266A0
  8
OBJECT
 10
10500.0
 20
-1758.9999999999959
 30
0.0
 40
50.0
1001
ACDBBLOCKREPETAG
1070
     1
1071
        2
1005
1266A0
  0
CIRCLE
  5
1266A1
  8
OBJECT
 10
10500.0
 20
-1758.9999999999959
 30
0.0
 40
62.0
1001
ACDBBLOCKREPETAG
1070
     1
1071
        3
1005
1266A1
  0
CIRCLE
  5
1266A2
  8
SLIM
 10
10578.0
 20
-1758.9999999999959
 30
0.0
 40
5.0
1001
ACDBBLOCKREPETAG
1070
     1
1071
        4
1005
1266A2
  0
POLYLINE
  5
1266A3
  8
SLIM
 66
     1
 10
0.0
 20
0.0
 30
0.0
 70
     1
1001
ACDBBLOCKREPETAG
1070
     1
1071
        5
1005
1266A3
  0
VERTEX
  5
1269C3
  8
SLIM
 10
10573.092522711881
 20
-1750.4999999999959
 30
0.0
  0
VERTEX
  5
1269C4
  8
SLIM
 10
10568.18504542377
 20
-1758.9999999999959
 30
0.0
  0
VERTEX
  5
1269C5
  8
SLIM
 10
10573.092522711881
 20
-1767.4999999999959
 30
0.0
  0
VERTEX
  5
1269C6
  8
SLIM
 10
10582.90747728811
 20
-1767.4999999999959
 30
0.0
  0
VERTEX
  5
1269C7
  8
SLIM
 10
10587.814954576221
 20
-1758.9999999999959
 30
0.0
  0
VERTEX
  5
1269C8
  8
SLIM
 10
10582.90747728811
 20
-1750.4999999999959
 30
0.0
  0
SEQEND
  5
1269C9
  8
SLIM
  0
CIRCLE
  5
1266A4
  8
SLIM
 10
10461.0
 20
-1691.4500185048089
 30
0.0
 40
4.9999999999999991
1001
ACDBBLOCKREPETAG
1070
     1
1071
        6
1005
1266A4
  0
POLYLINE
  5
1266A5
  8
SLIM
 66
     1
 10
0.0
 20
0.0
 30
0.0
 70
     1
1001
ACDBBLOCKREPETAG
1070
     1
1071
        7
1005
1266A5
  0
VERTEX
  5
1269CA
  8
SLIM
 10
10456.092522711881
 20
-1699.9500185048089
 30
0.0
  0
VERTEX
  5
1269CB
  8
SLIM
 10
10465.90747728811
 20
-1699.9500185048089
 30
0.0
  0
VERTEX
  5
1269CC
  8
SLIM
 10
10470.814954576221
 20
-1691.4500185048089
 30
0.0
  0
VERTEX
  5
1269CD
  8
SLIM
 10
10465.90747728811
 20
-1682.9500185048089
 30
0.0
  0
VERTEX
  5
1269CE
  8
SLIM
 10
10456.092522711881
 20
-1682.9500185048089
 30
0.0
  0
VERTEX
  5
1269CF
  8
SLIM
 10
10451.18504542377
 20
-1691.4500185048089
 30
0.0
  0
SEQEND
  5
1269D0
  8
SLIM
  0
CIRCLE
  5
1266A6
  8
SLIM
 10
10461.0
 20
-1826.5499814951829
 30
0.0
 40
5.0
1001
ACDBBLOCKREPETAG
1070
     1
1071
        8
1005
1266A6
  0
POLYLINE
  5
1266A7
  8
SLIM
 66
     1
 10
0.0
 20
0.0
 30
0.0
 70
     1
1001
ACDBBLOCKREPETAG
1070
     1
1071
        9
1005
1266A7
  0
VERTEX
  5
1269D1
  8
SLIM
 10
10470.814954576221
 20
-1826.5499814951829
 30
0.0
  0
VERTEX
  5
1269D2
  8
SLIM
 10
10465.907477288099
 20
-1818.04998149518
 30
0.0
  0
VERTEX
  5
1269D3
  8
SLIM
 10
10456.092522711881
 20
-1818.0499814951841
 30
0.0
  0
VERTEX
  5
1269D4
  8
SLIM
 10
10451.18504542377
 20
-1826.54998149518
 30
0.0
  0
VERTEX
  5
1269D5
  8
SLIM
 10
10456.092522711881
 20
-1835.0499814951829
 30
0.0
  0
VERTEX
  5
1269D6
  8
SLIM
 10
10465.90747728811
 20
-1835.04998149518
 30
0.0
  0
SEQEND
  5
1269D7
  8
SLIM
  0
ARC
  5
1266A8
  8
OBJECT
 10
10500.0
 20
-1758.9999999999959
 30
0.0
 40
76.0
 50
34.863837954171863
 51
85.136162045732945
1001
ACDBBLOCKREPETAG
1070
     1
1071
       30
1005
1266A8
  0
ARC
  5
1266A9
  8
OBJECT
 10
10500.0
 20
-1758.9999999999959
 30
0.0
 40
76.0
 50
154.86383795430939
 51
205.1361620456905
1001
ACDBBLOCKREPETAG
1070
     1
1071
       31
1005
1266A9
  0
ARC
  5
1266AA
  8
OBJECT
 10
10500.0
 20
-1758.9999999999959
 30
0.0
 40
76.0
 50
274.86383795426718
 51
325.13616204582797
1001
ACDBBLOCKREPETAG
1070
     1
1071
       32
1005
1266AA
  0
ARC
  5
1266AB
  8
OBJECT
 10
10578.0
 20
-1758.9999999999959
 30
0.0
 40
12.0
 50
325.13616204582797
 51
34.863837954171863
1001
ACDBBLOCKREPETAG
1070
     1
1071
       33
1005
1266AB
  0
LINE
  5
1266AC
  8
OBJECT
 10
10587.84615384616
 20
-1752.140462520134
 30
0.0
 11
10562.35897435904
 21
-1715.556262627535
 31
0.0
1001
ACDBBLOCKREPETAG
1070
     1
1071
       34
1005
1266AC
  0
LINE
  5
1266AD
  8
OBJECT
 10
10587.846153846171
 20
-1765.859537479857
 30
0.0
 11
10562.35897435904
 21
-1802.4437373724591
 31
0.0
1001
ACDBBLOCKREPETAG
1070
     1
1071
       35
1005
1266AD
  0
ARC
  5
1266AE
  8
OBJECT
 10
10461.0
 20
-1691.4500185048109
 30
0.0
 40
12.0
 50
85.136162045942811
 51
154.86383795410001
1001
ACDBBLOCKREPETAG
1070
     1
1071
       36
1005
1266AE
  0
LINE
  5
1266AF
  8
OBJECT
 10
10450.13638936114
 20
-1686.3527678843909
 30
0.0
 11
10431.19713262058
 21
-1726.7174127373471
 31
0.0
1001
ACDBBLOCKREPETAG
1070
     1
1071
       37
1005
1266AF
  0
LINE
  5
1266B0
  8
OBJECT
 10
10462.017456792681
 20
-1679.4932304045269
 30
0.0
 11
10506.443893020371
 21
-1683.273675364886
 31
0.0
1001
ACDBBLOCKREPETAG
1070
     1
1071
       38
1005
1266B0
  0
ARC
  5
1266B1
  8
OBJECT
 10
10461.0
 20
-1826.549981495182
 30
0.0
 40
12.0
 50
205.13616204589991
 51
274.8638379540572
1001
ACDBBLOCKREPETAG
1070
     1
1071
       39
1005
1266B1
  0
LINE
  5
1266B2
  8
OBJECT
 10
10462.01745679269
 20
-1838.506769595464
 30
0.0
 11
10506.44389302036
 21
-1834.7263246351069
 31
0.0
1001
ACDBBLOCKREPETAG
1070
     1
1071
       40
1005
1266B2
  0
LINE
  5
1266B3
  8
OBJECT
 10
10450.13638936114
 20
-1831.647232115605
 30
0.0
 11
10431.19713262058
 21
-1791.282587262642
 31
0.0
1001
ACDBBLOCKREPETAG
1070
     1
1071
       41
1005
1266B3
  0
LINE
  5
1266B4
  8
CENTER
 10
6409.0
 20
-1800.0
 30
0.0
 11
6605.0
 21
-1800.0
 31
0.0
1001
ACDBBLOCKREPETAG
1070
     1
1071
       10
1005
1266B4
  0
LINE
  5
1266B5
  8
CENTER
 10
6500.0
 20
-1708.725335570783
 30
0.0
 11
6500.0
 21
-1891.274664429216
 31
0.0
1001
ACDBBLOCKREPETAG
1070
     1
1071
       11
1005
1266B5
  0
CIRCLE
  5
1266B6
  8
OBJECT
 10
6500.0
 20
-1800.0
 30
0.0
 40
50.0
1001
ACDBBLOCKREPETAG
1070
     1
1071
       12
1005
1266B6
  0
CIRCLE
  5
1266B7
  8
OBJECT
 10
6500.0
 20
-1800.0
 30
0.0
 40
60.0
1001
ACDBBLOCKREPETAG
1070
     1
1071
       13
1005
1266B7
  0
CIRCLE
  5
1266B8
  8
OBJECT
 10
6500.0
 20
-1800.0
 30
0.0
 40
68.0
1001
ACDBBLOCKREPETAG
1070
     1
1071
       14
1005
1266B8
  0
ARC
  5
1266B9
  8
OBJECT
 10
6577.5
 20
-1800.0
 30
0.0
 40
12.0
 50
272.10542627221611
 51
87.894573727783893
1001
ACDBBLOCKREPETAG
1070
     1
1071
       15
1005
1266B9
  0
ARC
  5
1266BA
  8
OBJECT
 10
6578.4919354838639
 20
-1773.018227189528
 30
0.0
 40
15.0
 50
198.9705187796356
 51
267.89457372778372
1001
ACDBBLOCKREPETAG
1070
     1
1071
       16
1005
1266BA
  0
ARC
  5
1266BB
  8
OBJECT
 10
6578.4919354838639
 20
-1826.9817728104681
 30
0.0
 40
15.0
 50
92.105426272216135
 51
161.02948122036429
1001
ACDBBLOCKREPETAG
1070
     1
1071
       17
1005
1266BB
  0
CIRCLE
  5
1266BC
  8
SLIM
 10
6578.0
 20
-1800.0
 30
0.0
 40
8.0
1001
ACDBBLOCKREPETAG
1070
     1
1071
       18
1005
1266BC
  0
POLYLINE
  5
1266BD
  8
SLIM
 66
     1
 10
0.0
 20
0.0
 30
0.0
 70
     1
1001
ACDBBLOCKREPETAG
1070
     1
1071
       19
1005
1266BD
  0
VERTEX
  5
1269D8
  8
SLIM
 10
6575.6905989232318
 20
-1796.0
 30
0.0
  0
VERTEX
  5
1269D9
  8
SLIM
 10
6573.3811978464792
 20
-1800.0
 30
0.0
  0
VERTEX
  5
1269DA
  8
SLIM
 10
6575.6905989232318
 20
-1803.9999999999991
 30
0.0
  0
VERTEX
  5
1269DB
  8
SLIM
 10
6580.3094010767518
 20
-1803.9999999999991
 30
0.0
  0
VERTEX
  5
1269DC
  8
SLIM
 10
6582.6188021535127
 20
-1800.0
 30
0.0
  0
VERTEX
  5
1269DD
  8
SLIM
 10
6580.3094010767518
 20
-1796.0
 30
0.0
  0
SEQEND
  5
1269DE
  8
SLIM
  0
ARC
  5
1266BE
  8
OBJECT
 10
6461.2499999999991
 20
-1732.883031206703
 30
0.0
 40
12.0
 50
32.105426272157878
 51
207.89457372770741
1001
ACDBBLOCKREPETAG
1070
     1
1071
       20
1005
1266BE
  0
ARC
  5
1266BF
  8
OBJECT
 10
6437.3871315650549
 20
-1745.514876283992
 30
0.0
 40
15.0
 50
318.97051877944762
 51
27.894573727707481
1001
ACDBBLOCKREPETAG
1070
     1
1071
       21
1005
1266BF
  0
ARC
  5
1266C0
  8
OBJECT
 10
6484.1209329510693
 20
-1718.53310347352
 30
0.0
 40
15.0
 50
212.1054262721579
 51
281.02948122044069
1001
ACDBBLOCKREPETAG
1070
     1
1071
       22
1005
1266C0
  0
CIRCLE
  5
1266C1
  8
SLIM
 10
6461.0
 20
-1732.4500185048121
 30
0.0
 40
7.9999999999999982
1001
ACDBBLOCKREPETAG
1070
     1
1071
       23
1005
1266C1
  0
POLYLINE
  5
1266C2
  8
SLIM
 66
     1
 10
0.0
 20
0.0
 30
0.0
 70
     1
1001
ACDBBLOCKREPETAG
1070
     1
1071
       24
1005
1266C2
  0
VERTEX
  5
1269DF
  8
SLIM
 10
6458.69059892324
 20
-1736.4500185048121
 30
0.0
  0
VERTEX
  5
1269E0
  8
SLIM
 10
6463.3094010767518
 20
-1736.4500185048121
 30
0.0
  0
VERTEX
  5
1269E1
  8
SLIM
 10
6465.6188021535136
 20
-1732.4500185048121
 30
0.0
  0
VERTEX
  5
1269E2
  8
SLIM
 10
6463.3094010767518
 20
-1728.4500185048121
 30
0.0
  0
VERTEX
  5
1269E3
  8
SLIM
 10
6458.69059892324
 20
-1728.4500185048121
 30
0.0
  0
VERTEX
  5
1269E4
  8
SLIM
 10
6456.3811978464801
 20
-1732.4500185048121
 30
0.0
  0
SEQEND
  5
1269E5
  8
SLIM
  0
ARC
  5
1266C3
  8
OBJECT
 10
6461.2499999999991
 20
-1867.116968793292
 30
0.0
 40
12.0
 50
152.1054262722925
 51
327.89457372784221
1001
ACDBBLOCKREPETAG
1070
     1
1071
       25
1005
1266C3
  0
ARC
  5
1266C4
  8
OBJECT
 10
6484.1209329510693
 20
-1881.466896526475
 30
0.0
 40
15.0
 50
78.970518779559228
 51
147.8945737278421
1001
ACDBBLOCKREPETAG
1070
     1
1071
       26
1005
1266C4
  0
ARC
  5
1266C5
  8
OBJECT
 10
6437.3871315650549
 20
-1854.485123716006
 30
0.0
 40
15.0
 50
332.1054262722925
 51
41.029481220552412
1001
ACDBBLOCKREPETAG
1070
     1
1071
       27
1005
1266C5
  0
CIRCLE
  5
1266C6
  8
SLIM
 10
6461.0
 20
-1867.549981495187
 30
0.0
 40
8.0
1001
ACDBBLOCKREPETAG
1070
     1
1071
       28
1005
1266C6
  0
POLYLINE
  5
1266C7
  8
SLIM
 66
     1
 10
0.0
 20
0.0
 30
0.0
 70
     1
1001
ACDBBLOCKREPETAG
1070
     1
1071
       29
1005
1266C7
  0
VERTEX
  5
1269E6
  8
SLIM
 10
6465.6188021535136
 20
-1867.5499814951829
 30
0.0
  0
VERTEX
  5
1269E7
  8
SLIM
 10
6463.3094010767518
 20
-1863.549981495187
 30
0.0
  0
VERTEX
  5
1269E8
  8
SLIM
 10
6458.69059892324
 20
-1863.549981495182
 30
0.0
  0
VERTEX
  5
1269E9
  8
SLIM
 10
6456.3811978464801
 20
-1867.549981495187
 30
0.0
  0
VERTEX
  5
1269EA
  8
SLIM
 10
6458.6905989232328
 20
-1871.549981495182
 30
0.0
  0
VERTEX
  5
1269EB
  8
SLIM
 10
6463.3094010767518
 20
-1871.549981495187
 30
0.0
  0
SEQEND
  5
1269EC
  8
SLIM
  0
ARC
  5
1266C8
  8
OBJECT
 10
6500.0
 20
-1800.0
 30
0.0
 40
76.0
 50
34.863837954142063
 51
85.136162045732945
1001
ACDBBLOCKREPETAG
1070
     1
1071
       42
1005
1266C8
  0
ARC
  5
1266C9
  8
OBJECT
 10
6500.0
 20
-1800.0
 30
0.0
 40
76.0
 50
154.86383795430939
 51
205.1361620456905
1001
ACDBBLOCKREPETAG
1070
     1
1071
       43
1005
1266C9
  0
ARC
  5
1266CA
  8
OBJECT
 10
6500.0
 20
-1800.0
 30
0.0
 40
76.0
 50
274.86383795426718
 51
325.13616204585799
1001
ACDBBLOCKREPETAG
1070
     1
1071
       44
1005
1266CA
  0
ARC
  5
1266CB
  8
OBJECT
 10
6578.0
 20
-1800.0
 30
0.0
 40
12.0
 50
325.13616204585799
 51
34.863837954142063
1001
ACDBBLOCKREPETAG
1070
     1
1071
       45
1005
1266CB
  0
LINE
  5
1266CC
  8
OBJECT
 10
6587.8461538461661
 20
-1793.1404625201369
 30
0.0
 11
6562.3589743590492
 21
-1756.556262627538
 31
0.0
1001
ACDBBLOCKREPETAG
1070
     1
1071
       46
1005
1266CC
  0
LINE
  5
1266CD
  8
OBJECT
 10
6587.8461538461688
 20
-1806.8595374798599
 30
0.0
 11
6562.3589743590492
 21
-1843.4437373724629
 31
0.0
1001
ACDBBLOCKREPETAG
1070
     1
1071
       47
1005
1266CD
  0
ARC
  5
1266CE
  8
OBJECT
 10
6461.0
 20
-1732.4500185048139
 30
0.0
 40
12.0
 50
85.136162045942811
 51
154.86383795410001
1001
ACDBBLOCKREPETAG
1070
     1
1071
       48
1005
1266CE
  0
LINE
  5
1266CF
  8
OBJECT
 10
6450.1363893611451
 20
-1727.3527678843941
 30
0.0
 11
6431.1971326205858
 21
-1767.7174127373501
 31
0.0
1001
ACDBBLOCKREPETAG
1070
     1
1071
       49
1005
1266CF
  0
LINE
  5
1266D0
  8
OBJECT
 10
6462.0174567926842
 20
-1720.4932304045301
 30
0.0
 11
6506.4438930203687
 21
-1724.273675364889
 31
0.0
1001
ACDBBLOCKREPETAG
1070
     1
1071
       50
1005
1266D0
  0
ARC
  5
1266D1
  8
OBJECT
 10
6461.0
 20
-1867.549981495185
 30
0.0
 40
12.0
 50
205.13616204589991
 51
274.8638379540572
1001
ACDBBLOCKREPETAG
1070
     1
1071
       51
1005
1266D1
  0
LINE
  5
1266D2
  8
OBJECT
 10
6462.0174567926879
 20
-1879.5067695954669
 30
0.0
 11
6506.4438930203651
 21
-1875.726324635109
 31
0.0
1001
ACDBBLOCKREPETAG
1070
     1
1071
       52
1005
1266D2
  0
LINE
  5
1266D3
  8
OBJECT
 10
6450.1363893611451
 20
-1872.6472321156079
 30
0.0
 11
6431.1971326205821
 21
-1832.2825872626461
 31
0.0
1001
ACDBBLOCKREPETAG
1070
     1
1071
       53
1005
1266D3
  0
LINE
  5
1266D4
  8
CENTER
 10
4409.0
 20
-1758.9999999999959
 30
0.0
 11
4605.0
 21
-1758.9999999999959
 31
0.0
1001
ACDBBLOCKREPETAG
1070
     1
1071
        0
1005
1266D4
  0
LINE
  5
1266D5
  8
CENTER
 10
4500.0
 20
-1667.7253355707801
 30
0.0
 11
4500.0
 21
-1850.274664429212
 31
0.0
1001
ACDBBLOCKREPETAG
1070
     1
1071
        1
1005
1266D5
  0
CIRCLE
  5
1266D6
  8
OBJECT
 10
4500.0
 20
-1758.9999999999959
 30
0.0
 40
50.0
1001
ACDBBLOCKREPETAG
1070
     1
1071
        2
1005
1266D6
  0
CIRCLE
  5
1266D7
  8
OBJECT
 10
4500.0
 20
-1758.9999999999959
 30
0.0
 40
62.0
1001
ACDBBLOCKREPETAG
1070
     1
1071
        3
1005
1266D7
  0
CIRCLE
  5
1266D8
  8
SLIM
 10
4578.0
 20
-1758.9999999999959
 30
0.0
 40
5.0
1001
ACDBBLOCKREPETAG
1070
     1
1071
        4
1005
1266D8
  0
POLYLINE
  5
1266D9
  8
SLIM
 66
     1
 10
0.0
 20
0.0
 30
0.0
 70
     1
1001
ACDBBLOCKREPETAG
1070
     1
1071
        5
1005
1266D9
  0
VERTEX
  5
1269ED
  8
SLIM
 10
4573.092522711886
 20
-1750.4999999999959
 30
0.0
  0
VERTEX
  5
1269EE
  8
SLIM
 10
4568.185045423772
 20
-1758.9999999999959
 30
0.0
  0
VERTEX
  5
1269EF
  8
SLIM
 10
4573.092522711886
 20
-1767.4999999999959
 30
0.0
  0
VERTEX
  5
1269F0
  8
SLIM
 10
4582.9074772881049
 20
-1767.4999999999959
 30
0.0
  0
VERTEX
  5
1269F1
  8
SLIM
 10
4587.814954576219
 20
-1758.9999999999959
 30
0.0
  0
VERTEX
  5
1269F2
  8
SLIM
 10
4582.9074772881049
 20
-1750.4999999999959
 30
0.0
  0
SEQEND
  5
1269F3
  8
SLIM
  0
CIRCLE
  5
1266DA
  8
SLIM
 10
4461.0
 20
-1691.4500185048089
 30
0.0
 40
4.9999999999999991
1001
ACDBBLOCKREPETAG
1070
     1
1071
        6
1005
1266DA
  0
POLYLINE
  5
1266DB
  8
SLIM
 66
     1
 10
0.0
 20
0.0
 30
0.0
 70
     1
1001
ACDBBLOCKREPETAG
1070
     1
1071
        7
1005
1266DB
  0
VERTEX
  5
1269F4
  8
SLIM
 10
4456.092522711886
 20
-1699.9500185048089
 30
0.0
  0
VERTEX
  5
1269F5
  8
SLIM
 10
4465.907477288114
 20
-1699.9500185048089
 30
0.0
  0
VERTEX
  5
1269F6
  8
SLIM
 10
4470.8149545762208
 20
-1691.4500185048089
 30
0.0
  0
VERTEX
  5
1269F7
  8
SLIM
 10
4465.907477288114
 20
-1682.9500185048089
 30
0.0
  0
VERTEX
  5
1269F8
  8
SLIM
 10
4456.092522711886
 20
-1682.9500185048089
 30
0.0
  0
VERTEX
  5
1269F9
  8
SLIM
 10
4451.185045423772
 20
-1691.4500185048089
 30
0.0
  0
SEQEND
  5
1269FA
  8
SLIM
  0
CIRCLE
  5
1266DC
  8
SLIM
 10
4461.0
 20
-1826.5499814951829
 30
0.0
 40
5.0
1001
ACDBBLOCKREPETAG
1070
     1
1071
        8
1005
1266DC
  0
POLYLINE
  5
1266DD
  8
SLIM
 66
     1
 10
0.0
 20
0.0
 30
0.0
 70
     1
1001
ACDBBLOCKREPETAG
1070
     1
1071
        9
1005
1266DD
  0
VERTEX
  5
1269FB
  8
SLIM
 10
4470.8149545762208
 20
-1826.5499814951829
 30
0.0
  0
VERTEX
  5
1269FC
  8
SLIM
 10
4465.9074772881067
 20
-1818.04998149518
 30
0.0
  0
VERTEX
  5
1269FD
  8
SLIM
 10
4456.092522711886
 20
-1818.0499814951841
 30
0.0
  0
VERTEX
  5
1269FE
  8
SLIM
 10
4451.185045423772
 20
-1826.54998149518
 30
0.0
  0
VERTEX
  5
1269FF
  8
SLIM
 10
4456.092522711886
 20
-1835.0499814951829
 30
0.0
  0
VERTEX
  5
126A00
  8
SLIM
 10
4465.907477288114
 20
-1835.04998149518
 30
0.0
  0
SEQEND
  5
126A01
  8
SLIM
  0
ARC
  5
1266DE
  8
OBJECT
 10
4500.0
 20
-1758.9999999999959
 30
0.0
 40
76.0
 50
34.863837954142063
 51
85.136162045732945
1001
ACDBBLOCKREPETAG
1070
     1
1071
       30
1005
1266DE
  0
ARC
  5
1266DF
  8
OBJECT
 10
4500.0
 20
-1758.9999999999959
 30
0.0
 40
76.0
 50
154.86383795430939
 51
205.1361620456905
1001
ACDBBLOCKREPETAG
1070
     1
1071
       31
1005
1266DF
  0
ARC
  5
1266E0
  8
OBJECT
 10
4500.0
 20
-1758.9999999999959
 30
0.0
 40
76.0
 50
274.86383795426718
 51
325.13616204585799
1001
ACDBBLOCKREPETAG
1070
     1
1071
       32
1005
1266E0
  0
ARC
  5
1266E1
  8
OBJECT
 10
4578.0
 20
-1758.9999999999959
 30
0.0
 40
12.0
 50
325.13616204585799
 51
34.863837954142063
1001
ACDBBLOCKREPETAG
1070
     1
1071
       33
1005
1266E1
  0
LINE
  5
1266E2
  8
OBJECT
 10
4587.846153846167
 20
-1752.140462520134
 30
0.0
 11
4562.3589743590492
 21
-1715.556262627535
 31
0.0
1001
ACDBBLOCKREPETAG
1070
     1
1071
       34
1005
1266E2
  0
LINE
  5
1266E3
  8
OBJECT
 10
4587.8461538461697
 20
-1765.859537479857
 30
0.0
 11
4562.3589743590492
 21
-1802.4437373724591
 31
0.0
1001
ACDBBLOCKREPETAG
1070
     1
1071
       35
1005
1266E3
  0
ARC
  5
1266E4
  8
OBJECT
 10
4461.0
 20
-1691.4500185048109
 30
0.0
 40
12.0
 50
85.136162045942811
 51
154.86383795410001
1001
ACDBBLOCKREPETAG
1070
     1
1071
       36
1005
1266E4
  0
LINE
  5
1266E5
  8
OBJECT
 10
4450.1363893611451
 20
-1686.3527678843909
 30
0.0
 11
4431.1971326205839
 21
-1726.7174127373471
 31
0.0
1001
ACDBBLOCKREPETAG
1070
     1
1071
       37
1005
1266E5
  0
LINE
  5
1266E6
  8
OBJECT
 10
4462.0174567926833
 20
-1679.4932304045269
 30
0.0
 11
4506.4438930203669
 21
-1683.273675364886
 31
0.0
1001
ACDBBLOCKREPETAG
1070
     1
1071
       38
1005
1266E6
  0
ARC
  5
1266E7
  8
OBJECT
 10
4461.0
 20
-1826.549981495182
 30
0.0
 40
12.0
 50
205.13616204589991
 51
274.8638379540572
1001
ACDBBLOCKREPETAG
1070
     1
1071
       39
1005
1266E7
  0
LINE
  5
1266E8
  8
OBJECT
 10
4462.0174567926879
 20
-1838.506769595464
 30
0.0
 11
4506.4438930203651
 21
-1834.7263246351069
 31
0.0
1001
ACDBBLOCKREPETAG
1070
     1
1071
       40
1005
1266E8
  0
LINE
  5
1266E9
  8
OBJECT
 10
4450.1363893611451
 20
-1831.647232115605
 30
0.0
 11
4431.1971326205821
 21
-1791.282587262642
 31
0.0
1001
ACDBBLOCKREPETAG
1070
     1
1071
       41
1005
1266E9
  0
LINE
  5
1266EA
  8
OBJECT
 10
2443.0
 20
-1484.9999999999959
 30
0.0
 11
2557.0
 21
-1484.9999999999959
 31
0.0
1001
ACDBBLOCKREPETAG
1070
     1
1071
        0
1005
1266EA
  0
LINE
  5
1266EB
  8
OBJECT
 10
2443.0
 20
-1484.9999999999959
 30
0.0
 11
2443.0
 21
-1384.9999999999959
 31
0.0
1001
ACDBBLOCKREPETAG
1070
     1
1071
        1
1005
1266EB
  0
LINE
  5
1266EC
  8
OBJECT
 10
2557.0
 20
-1484.9999999999959
 30
0.0
 11
2557.0
 21
-1384.9999999999959
 31
0.0
1001
ACDBBLOCKREPETAG
1070
     1
1071
        2
1005
1266EC
  0
LINE
  5
1266ED
  8
OBJECT
 10
2443.0
 20
-1384.9999999999959
 30
0.0
 11
2557.0
 21
-1384.9999999999959
 31
0.0
1001
ACDBBLOCKREPETAG
1070
     1
1071
        3
1005
1266ED
  0
LINE
  5
1266EE
  8
HIDDEN
 10
2450.0
 20
-1384.9999999999959
 30
0.0
 11
2450.0
 21
-1484.9999999999959
 31
0.0
1001
ACDBBLOCKREPETAG
1070
     1
1071
        4
1005
1266EE
  0
LINE
  5
1266EF
  8
HIDDEN
 10
2550.0
 20
-1384.9999999999959
 30
0.0
 11
2550.0
 21
-1484.9999999999959
 31
0.0
1001
ACDBBLOCKREPETAG
1070
     1
1071
        5
1005
1266EF
  0
LINE
  5
1266F0
  8
CENTER
 10
2500.0
 20
-1175.0
 30
0.0
 11
2500.0
 21
-1499.9999999999959
 31
0.0
1001
ACDBBLOCKREPETAG
1070
     1
1071
        6
1005
1266F0
  0
LINE
  5
1266F1
  8
OBJECT
 10
2425.0
 20
-1175.0
 30
0.0
 11
2425.0
 21
-1256.9999999999959
 31
0.0
1001
ACDBBLOCKREPETAG
1070
     1
1071
        7
1005
1266F1
  0
LINE
  5
1266F2
  8
OBJECT
 10
2575.0
 20
-1175.0
 30
0.0
 11
2575.0
 21
-1256.9999999999959
 31
0.0
1001
ACDBBLOCKREPETAG
1070
     1
1071
        8
1005
1266F2
  0
LINE
  5
1266F3
  8
OBJECT
 10
2425.0
 20
-1256.9999999999959
 30
0.0
 11
2575.0
 21
-1256.9999999999959
 31
0.0
1001
ACDBBLOCKREPETAG
1070
     1
1071
        9
1005
1266F3
  0
LINE
  5
1266F4
  8
OBJECT
 10
2425.0
 20
-1256.9999999999959
 30
0.0
 11
2443.0
 21
-1384.9999999999959
 31
0.0
1001
ACDBBLOCKREPETAG
1070
     1
1071
       10
1005
1266F4
  0
LINE
  5
1266F5
  8
OBJECT
 10
2557.0
 20
-1384.9999999999959
 30
0.0
 11
2575.0
 21
-1256.9999999999959
 31
0.0
1001
ACDBBLOCKREPETAG
1070
     1
1071
       11
1005
1266F5
  0
TEXT
  5
1266F6
  8
SLIM
 10
0.0
 20
370.0
 30
0.0
 40
100.0
  1
4SLT2-A3-A00X0-PXXX-WKP
 41
0.75
  0
VIEWPORT
  5
F6BA7
 67
     1
  8
0
 10
195.9179030619629
 20
101.8328354358673
 30
0.0
 40
435.30034845564728
 41
222.25923674088349
 68
     1
 69
     1
1001
ACAD
1000
MVIEW
1002
{
1070
    16
1010
0.0
1020
0.0
1030
0.0
1010
0.0
1020
0.0
1030
1.0
1040
0.0
1040
222.25923674088349
1040
195.9179030619629
1040
101.8328354358673
1040
50.0
1040
0.0
1040
0.0
1070
     0
1070
     0
1070
     1
1070
     1
1070
     0
1070
     0
1070
     0
1070
     0
1040
0.0
1040
0.0
1040
0.0
1040
10.0
1040
10.0
1040
10.0
1040
10.0
1070
     0
1002
{
1002
}
1002
}
  0
VIEWPORT
  5
F6BA9
 67
     1
  8
OBJECT
 10
145.3303314447403
 20
101.8328338861465
 30
0.0
 40
232.5285303115844
 41
162.93253421783439
 68
     2
 69
     2
1001
ACAD
1000
MVIEW
1002
{
1070
    16
1010
0.0
1020
0.0
1030
0.0
1010
0.0
1020
0.0
1030
1.0
1040
0.0
1040
25942.55904403147
1040
2377.604457077377
1040
-7591.5176687056619
1040
50.0
1040
0.0
1040
0.0
1070
     0
1070
   600
1070
     1
1070
     1
1070
     0
1070
     0
1070
     0
1070
     0
1040
0.0
1040
0.0
1040
0.0
1040
1.0
1040
1.0
1040
0.0
1040
0.0
1070
     0
1002
{
1002
}
1002
}
  0
ENDSEC
  0
EOF
